  0
SECTION
  2
HEADER
  9
$ACADVER
  1
AC1015
  9
$ACADMAINTVER
 70
    20
  9
$DWGCODEPAGE
  3
ANSI_932
  9
$INSBASE
 10
0.0
 20
0.0
 30
0.0
  9
$EXTMIN
 10
-913.2056591647565
 20
-372.5000000000096
 30
0.0
  9
$EXTMAX
 10
975.1689428277247
 20
875.2390974137062
 30
50.0
  9
$LIMMIN
 10
-2970.0
 20
-2100.0
  9
$LIMMAX
 10
2970.0
 20
2100.0
  9
$ORTHOMODE
 70
     1
  9
$REGENMODE
 70
     0
  9
$FILLMODE
 70
     1
  9
$QTEXTMODE
 70
     0
  9
$MIRRTEXT
 70
     0
  9
$LTSCALE
 40
20.0
  9
$ATTMODE
 70
     1
  9
$TEXTSIZE
 40
64.0
  9
$TRACEWID
 40
0.05
  9
$TEXTSTYLE
  7
STANDARD
  9
$CLAYER
  8
0
  9
$CELTYPE
  6
ByLayer
  9
$CECOLOR
 62
   256
  9
$CELTSCALE
 40
1.0
  9
$DISPSILH
 70
     0
  9
$DIMSCALE
 40
1.0
  9
$DIMASZ
 40
0.12
  9
$DIMEXO
 40
0.05
  9
$DIMDLI
 40
0.5
  9
$DIMRND
 40
0.0
  9
$DIMDLE
 40
0.0
  9
$DIMEXE
 40
0.1
  9
$DIMTP
 40
0.1
  9
$DIMTM
 40
0.1
  9
$DIMTXT
 40
0.12
  9
$DIMCEN
 40
0.0
  9
$DIMTSZ
 40
0.0
  9
$DIMTOL
 70
     0
  9
$DIMLIM
 70
     0
  9
$DIMTIH
 70
     1
  9
$DIMTOH
 70
     1
  9
$DIMSE1
 70
     0
  9
$DIMSE2
 70
     0
  9
$DIMTAD
 70
     0
  9
$DIMZIN
 70
     7
  9
$DIMBLK
  1

  9
$DIMASO
 70
     1
  9
$DIMSHO
 70
     0
  9
$DIMPOST
  1

  9
$DIMAPOST
  1
mm
  9
$DIMALT
 70
     0
  9
$DIMALTD
 70
     2
  9
$DIMALTF
 40
25.4
  9
$DIMLFAC
 40
1.0
  9
$DIMTOFL
 70
     0
  9
$DIMTVP
 40
0.0
  9
$DIMTIX
 70
     0
  9
$DIMSOXD
 70
     0
  9
$DIMSAH
 70
     0
  9
$DIMBLK1
  1

  9
$DIMBLK2
  1

  9
$DIMSTYLE
  2
AM_ANSI
  9
$DIMCLRD
 70
   256
  9
$DIMCLRE
 70
   256
  9
$DIMCLRT
 70
     2
  9
$DIMTFAC
 40
0.71
  9
$DIMGAP
 40
0.06
  9
$DIMJUST
 70
     0
  9
$DIMSD1
 70
     0
  9
$DIMSD2
 70
     0
  9
$DIMTOLJ
 70
     1
  9
$DIMTZIN
 70
     7
  9
$DIMALTZ
 70
     0
  9
$DIMALTTZ
 70
     0
  9
$DIMUPT
 70
     0
  9
$DIMDEC
 70
     4
  9
$DIMTDEC
 70
     4
  9
$DIMALTU
 70
     2
  9
$DIMALTTD
 70
     4
  9
$DIMTXSTY
  7
STANDARD
  9
$DIMAUNIT
 70
     0
  9
$DIMADEC
 70
     0
  9
$DIMALTRND
 40
0.0
  9
$DIMAZIN
 70
     2
  9
$DIMDSEP
 70
    46
  9
$DIMATFIT
 70
     3
  9
$DIMFRAC
 70
     0
  9
$DIMLDRBLK
  1

  9
$DIMLUNIT
 70
     2
  9
$DIMLWD
 70
    -1
  9
$DIMLWE
 70
    -1
  9
$DIMTMOVE
 70
     0
  9
$LUNITS
 70
     2
  9
$LUPREC
 70
     4
  9
$SKETCHINC
 40
0.1
  9
$FILLETRAD
 40
4.0
  9
$AUNITS
 70
     1
  9
$AUPREC
 70
     3
  9
$MENU
  1
ACAD
  9
$ELEVATION
 40
0.0
  9
$PELEVATION
 40
0.0
  9
$THICKNESS
 40
50.0
  9
$LIMCHECK
 70
     0
  9
$CHAMFERA
 40
0.0
  9
$CHAMFERB
 40
0.0
  9
$CHAMFERC
 40
0.0
  9
$CHAMFERD
 40
0.0
  9
$SKPOLY
 70
     0
  9
$TDCREATE
 40
2452321.396199653
  9
$TDUCREATE
 40
2452321.021199653
  9
$TDUPDATE
 40
2456213.547090267
  9
$TDUUPDATE
 40
2456213.172090266
  9
$TDINDWG
 40
1.0438400694
  9
$TDUSRTIMER
 40
1.0438339699
  9
$USRTIMER
 70
     1
  9
$ANGBASE
 50
0.0
  9
$ANGDIR
 70
     0
  9
$PDMODE
 70
     3
  9
$PDSIZE
 40
-2.0
  9
$PLINEWID
 40
0.0
  9
$SPLFRAME
 70
     0
  9
$SPLINETYPE
 70
     6
  9
$SPLINESEGS
 70
     8
  9
$HANDSEED
  5
6180
  9
$SURFTAB1
 70
     6
  9
$SURFTAB2
 70
     6
  9
$SURFTYPE
 70
     6
  9
$SURFU
 70
     6
  9
$SURFV
 70
     6
  9
$UCSBASE
  2

  9
$UCSNAME
  2

  9
$UCSORG
 10
0.0
 20
0.0
 30
0.0
  9
$UCSXDIR
 10
1.0
 20
0.0
 30
0.0
  9
$UCSYDIR
 10
0.0
 20
1.0
 30
0.0
  9
$UCSORTHOREF
  2

  9
$UCSORTHOVIEW
 70
     0
  9
$UCSORGTOP
 10
0.0
 20
0.0
 30
0.0
  9
$UCSORGBOTTOM
 10
0.0
 20
0.0
 30
0.0
  9
$UCSORGLEFT
 10
0.0
 20
0.0
 30
0.0
  9
$UCSORGRIGHT
 10
0.0
 20
0.0
 30
0.0
  9
$UCSORGFRONT
 10
0.0
 20
0.0
 30
0.0
  9
$UCSORGBACK
 10
0.0
 20
0.0
 30
0.0
  9
$PUCSBASE
  2

  9
$PUCSNAME
  2

  9
$PUCSORG
 10
0.0
 20
0.0
 30
0.0
  9
$PUCSXDIR
 10
1.0
 20
0.0
 30
0.0
  9
$PUCSYDIR
 10
0.0
 20
1.0
 30
0.0
  9
$PUCSORTHOREF
  2

  9
$PUCSORTHOVIEW
 70
     0
  9
$PUCSORGTOP
 10
0.0
 20
0.0
 30
0.0
  9
$PUCSORGBOTTOM
 10
0.0
 20
0.0
 30
0.0
  9
$PUCSORGLEFT
 10
0.0
 20
0.0
 30
0.0
  9
$PUCSORGRIGHT
 10
0.0
 20
0.0
 30
0.0
  9
$PUCSORGFRONT
 10
0.0
 20
0.0
 30
0.0
  9
$PUCSORGBACK
 10
0.0
 20
0.0
 30
0.0
  9
$USERI1
 70
     0
  9
$USERI2
 70
     0
  9
$USERI3
 70
     0
  9
$USERI4
 70
     0
  9
$USERI5
 70
     0
  9
$USERR1
 40
20.0
  9
$USERR2
 40
0.0
  9
$USERR3
 40
0.0
  9
$USERR4
 40
0.0
  9
$USERR5
 40
0.0
  9
$WORLDVIEW
 70
     1
  9
$SHADEDGE
 70
     3
  9
$SHADEDIF
 70
    70
  9
$TILEMODE
 70
     1
  9
$MAXACTVP
 70
    64
  9
$PINSBASE
 10
0.0
 20
0.0
 30
0.0
  9
$PLIMCHECK
 70
     0
  9
$PEXTMIN
 10
1.000000000000000E+20
 20
1.000000000000000E+20
 30
1.000000000000000E+20
  9
$PEXTMAX
 10
-1.000000000000000E+20
 20
-1.000000000000000E+20
 30
-1.000000000000000E+20
  9
$PLIMMIN
 10
0.0
 20
0.0
  9
$PLIMMAX
 10
12.0
 20
9.0
  9
$UNITMODE
 70
     0
  9
$VISRETAIN
 70
     1
  9
$PLINEGEN
 70
     0
  9
$PSLTSCALE
 70
     1
  9
$TREEDEPTH
 70
  3020
  9
$CMLSTYLE
  2
Standard
  9
$CMLJUST
 70
     0
  9
$CMLSCALE
 40
1.0
  9
$PROXYGRAPHICS
 70
     1
  9
$MEASUREMENT
 70
     0
  9
$CELWEIGHT
370
    -1
  9
$ENDCAPS
280
     0
  9
$JOINSTYLE
280
     0
  9
$LWDISPLAY
290
     0
  9
$INSUNITS
 70
     0
  9
$HYPERLINKBASE
  1

  9
$STYLESHEET
  1

  9
$XEDIT
290
     1
  9
$CEPSNTYPE
380
     0
  9
$PSTYLEMODE
290
     1
  9
$FINGERPRINTGUID
  2
{B6E0E2BB-A6FD-494C-8455-639E44EB75C6}
  9
$VERSIONGUID
  2
{7659B28D-9730-4841-8BD7-D8895363F564}
  9
$EXTNAMES
290
     1
  9
$PSVPSCALE
 40
0.0
  9
$OLESTARTUP
290
     0
  0
ENDSEC
  0
SECTION
  2
CLASSES
  0
CLASS
  1
ACDBDICTIONARYWDFLT
  2
AcDbDictionaryWithDefault
  3
ObjectDBX Classes
 90
        0
280
     0
281
     0
  0
CLASS
  1
MATERIAL
  2
AcDbMaterial
  3
ObjectDBX Classes
 90
     1153
280
     0
281
     0
  0
CLASS
  1
VISUALSTYLE
  2
AcDbVisualStyle
  3
ObjectDBX Classes
 90
     4095
280
     0
281
     0
  0
CLASS
  1
SCALE
  2
AcDbScale
  3
ObjectDBX Classes
 90
     1153
280
     0
281
     0
  0
CLASS
  1
TABLESTYLE
  2
AcDbTableStyle
  3
ObjectDBX Classes
 90
     4095
280
     0
281
     0
  0
CLASS
  1
MLEADERSTYLE
  2
AcDbMLeaderStyle
  3
ACDB_MLEADERSTYLE_CLASS
 90
     4095
280
     0
281
     0
  0
CLASS
  1
AMGSETTINGSOBJ
  2
AmgSettingsObj
  3
"AcadM|Product Description: AutoCAD Mechanical|Company: Autodesk, Inc."
 90
     1024
280
     0
281
     0
  0
CLASS
  1
ACME_DOCUMENT
  2
AcMeDbDoc
  3
AcMeServices
 90
     1024
280
     0
281
     0
  0
CLASS
  1
ACMESCOPE
  2
AcMeScope
  3
AcMeServices
 90
     1024
280
     0
281
     0
  0
CLASS
  1
ACMECOMMANDHISTORY
  2
AcMeCommandHistory
  3
AcMeServices
 90
     1024
280
     0
281
     0
  0
CLASS
  1
ACIMSYSVARMAN
  2
AcImSysVarManager
  3
AcMeServices
 90
     1024
280
     0
281
     0
  0
CLASS
  1
ACIMREALSYSVAR
  2
AcImRealSysVar
  3
AcMeServices
 90
     1024
280
     0
281
     0
  0
CLASS
  1
ACIMINTSYSVAR
  2
AcImIntSysVar
  3
AcMeServices
 90
     1024
280
     0
281
     0
  0
CLASS
  1
ACMEDRAWINGMAN
  2
AcMeDrawingMan
  3
AcMeServices
 90
     1024
280
     0
281
     0
  0
CLASS
  1
ACMEVIEW
  2
AcMeView
  3
AcMeServices
 90
     1024
280
     0
281
     0
  0
CLASS
  1
ACDBENTITYCACHE
  2
AcMeEntityCache
  3
AcMeServices
 90
     1024
280
     0
281
     0
  0
CLASS
  1
GSMANAGER
  2
AcMeGSManager
  3
AcMeServices
 90
     1024
280
     0
281
     0
  0
CLASS
  1
AMDTINTERNALREACTOR
  2
AmdtInternalReactor
  3
AcMeServices
 90
     1024
280
     0
281
     0
  0
CLASS
  1
ACMESTATEMGR
  2
AcMeStateMgr
  3
AcMeServices
 90
     1024
280
     0
281
     0
  0
CLASS
  1
ACGREFMASTER
  2
AcGrefMaster
  3
AcAttribServices
 90
     1024
280
     0
281
     0
  0
CLASS
  1
AM_DRAWING_MGR
  2
AcDmDwgMgr
  3
AcMechDwgViewMgmt
 90
     1024
280
     0
281
     0
  0
CLASS
  1
AM_DWG_DOCUMENT
  2
AcDmDwgDocument
  3
AcMechDwgViewMgmt
 90
     1024
280
     0
281
     0
  0
CLASS
  1
AM_DWG_SHEET
  2
AcDmSheet
  3
AcMechDwgViewMgmt
 90
     1024
280
     0
281
     0
  0
CLASS
  1
AM_VIEWDIMPARMAP
  2
AcDmViewDimParMap
  3
AcMechDwgViewMgmt
 90
     1024
280
     0
281
     0
  0
CLASS
  1
AM_DWGMGR_NAME
  2
AcDmDwgMgrName
  3
AcMechDwgViewMgmt
 90
     1024
280
     0
281
     0
  0
CLASS
  1
ACME_DATABASE
  2
AcMeDbDatabase
  3
AcMeServices
 90
     1024
280
     0
281
     0
  0
CLASS
  1
ACRFINSADJUSTERMGR
  2
AcRfInsAdjusterMgr
  3
AcMeServices
 90
     1024
280
     0
281
     0
  0
CLASS
  1
ACGREFACADMASTER
  2
AcGrefacadMaster
  3
AcGrefServices
 90
     1024
280
     0
281
     0
  0
CLASS
  1
AMDTMENUSTATEMGR
  2
AmdtMenuStateMgr
  3
McadcomServices
 90
     1024
280
     0
281
     0
  0
CLASS
  1
AMDTMCOMMENUSTATE
  2
AmdtMcomMenuState
  3
McadcomServices
 90
     1024
280
     0
281
     0
  0
CLASS
  1
AMIMASTER
  2
AmiMaster
  3
AmiServices
 90
     1024
280
     0
281
     0
  0
CLASS
  1
ASAPP
  2
AcAsAppObject
  3
AutoSurfServices
 90
     1024
280
     0
281
     0
  0
CLASS
  1
IM_STATIC_MAN
  2
AcImStaticVarManager
  3
AcMeServices
 90
     1024
280
     0
281
     0
  0
CLASS
  1
ACIMSTRSYSVAR
  2
AcImStrSysVar
  3
AcMeServices
 90
     1024
280
     0
281
     0
  0
CLASS
  1
ACIMDBLSTATICVAR
  2
AcImDblStaticVar
  3
AcMeServices
 90
     1024
280
     0
281
     0
  0
CLASS
  1
ACIMSTRSTATICVAR
  2
AcImStrStaticVar
  3
AcMeServices
 90
     1024
280
     0
281
     0
  0
CLASS
  1
ACIMINTSTATICVAR
  2
AcImIntStaticVar
  3
AcMeServices
 90
     1024
280
     0
281
     0
  0
CLASS
  1
ACASGREFMASTER
  2
AcAsGrefMaster
  3
AutoSurfResolverServices
 90
     1024
280
     0
281
     0
  0
CLASS
  1
ACADGREFMODULE
  2
AcAdGrefModule
  3
AdGrefServices
 90
     1024
280
     0
281
     0
  0
CLASS
  1
AMDTMAPISURFMOUDULE
  2
AmdtMApiSurfModule
  3
MApiSurfServices
 90
     1024
280
     0
281
     0
  0
CLASS
  1
MAPIAMMOUDLE
  2
MApiAmModule
  3
MApiAmServices
 90
     1024
280
     0
281
     0
  0
CLASS
  1
AMDTADMENUSTATE
  2
AmdtAdMenuState
  3
DesignerServices
 90
     1024
280
     0
281
     0
  0
CLASS
  1
ADAPPL
  2
AcAdAppl
  3
DesignerServices
 90
     1024
280
     0
281
     0
  0
CLASS
  1
DEPMGR
  2
AcAdDepMgr
  3
DesignerServices
 90
     1024
280
     0
281
     0
  0
CLASS
  1
PARAMMGR
  2
AcAdParamMgr
  3
DesignerServices
 90
     1024
280
     0
281
     0
  0
CLASS
  1
PARAMSCOPE
  2
AcAdParamScope
  3
DesignerServices
 90
     1024
280
     0
281
     0
  0
CLASS
  1
NAMEDAPPL
  2
AcAdNamedAppl
  3
DesignerServices
 90
     1024
280
     0
281
     0
  0
CLASS
  1
AMDTDMMENUSTATE
  2
AmdtDmMenuState
  3
AcMechDwgViewMgmt
 90
     1024
280
     0
281
     0
  0
CLASS
  1
MAPIADMODULE
  2
MApiAdModule
  3
MApiAdServices
 90
     1024
280
     0
281
     0
  0
CLASS
  1
AMDTAMMENUSTATE
  2
AmdtAmMenuState
  3
DesignerAssemblies
 90
     1024
280
     0
281
     0
  0
CLASS
  1
ACAMPROJECT
  2
AcAmProject
  3
DesignerAssemblies
 90
     1024
280
     0
281
     0
  0
CLASS
  1
ACAMGRCOMPDEF
  2
AcAmGrCompDef
  3
DesignerAssemblies
 90
     1024
280
     0
281
     0
  0
CLASS
  1
ACCMCONTEXT
  2
AcCmContext
  3
DesignerAssemblies
 90
     1024
280
     0
281
     0
  0
CLASS
  1
ACAMCOMPDEF
  2
AcAmCompDef
  3
DesignerAssemblies
 90
     1024
280
     0
281
     0
  0
CLASS
  1
ACAMCOMPDEFMGR
  2
AcAmCompDefMgr
  3
DesignerAssemblies
 90
     1024
280
     0
281
     0
  0
CLASS
  1
AMCONTEXTMGR
  2
AcAmContextMgr
  3
DesignerAssemblies
 90
     1024
280
     0
281
     0
  0
CLASS
  1
ACAMCONTEXTMODELER
  2
AcAmContextModeler
  3
DesignerAssemblies
 90
     1024
280
     0
281
     0
  0
CLASS
  1
ACMDATADICTIONARY
  2
AcmDataDictionary
  3
"AcmSymBB|Product Description: AutoCAD Mechanical|Company: Autodesk, Inc."
 90
     1024
280
     0
281
     0
  0
CLASS
  1
ACMDATAENTRYBLOCK
  2
AcmDataEntryBlock
  3
AcmSymBB|Product Description: AutoCAD Mechanical|Company: Autodesk, Inc.
 90
     1024
280
     0
281
     0
  0
CLASS
  1
ACRFATTGENMGR
  2
AcRfAttGeneralMgr
  3
AcAttribServices
 90
     1024
280
     0
281
     0
  0
CLASS
  1
ACRFOBJATTMGR
  2
AcRfObjAttGroupMgr
  3
AcAttribServices
 90
     1024
280
     0
281
     0
  0
CLASS
  1
ACRFMCADAPIATTHOLDER
  2
AcRfMCADAPIAttHolder
  3
AcAttribServices
 90
     1024
280
     0
281
     0
  0
CLASS
  1
AMDTSYSATTR
  2
AmdtSystemAttribute
  3
AcAttribServices
 90
     1024
280
     0
281
     0
  0
CLASS
  1
CATALOGSTATE
  2
AcAmCatalogState
  3
DesignerAssemblies
 90
     1024
280
     0
281
     0
  0
CLASS
  1
ACAMGRCOMPDEFSET
  2
AcAmGrCompDefSet
  3
DesignerAssemblies
 90
     1024
280
     0
281
     0
  0
CLASS
  1
AMDTBROWSERDBTAB
  2
AmdtBrowserDbTab
  3
McadcomServices
 90
     1024
280
     0
281
     0
  0
CLASS
  1
CBROWSERAPPOBJECT
  2
CBrowserAppObject
  3
McadcomServices
 90
     1024
280
     0
281
     0
  0
CLASS
  1
DM_PLACEHOLDER
  2
AcDmSelsetPlaceholder
  3
AcMechDwgViewMgmt
 90
     1024
280
     0
281
     0
  0
CLASS
  1
ACMSTANDARDANSI
  2
AcmStandardANSI
  3
"Amdt_StdImp|Product Description: AutoCAD Mechanical|Company: Autodesk, Inc."
 90
     1024
280
     0
281
     0
  0
CLASS
  1
ACMSURFSTANDARDANSI
  2
AcmSurfTextStdANSI
  3
"Amdt_StdImp|Product Description: AutoCAD Mechanical|Company: Autodesk, Inc."
 90
     1024
280
     0
281
     0
  0
CLASS
  1
ACMFCFSTANDARDANSI
  2
AcmFCFStdANSI
  3
"Amdt_StdImp|Product Description: AutoCAD Mechanical|Company: Autodesk, Inc."
 90
     1024
280
     0
281
     0
  0
CLASS
  1
ACMWELDSTANDARDANSI
  2
AcmWeldingStdANSI
  3
"Amdt_StdImp|Product Description: AutoCAD Mechanical|Company: Autodesk, Inc."
 90
     1024
280
     0
281
     0
  0
CLASS
  1
ACMIDSTANDARDANSI
  2
AcmIdStdANSI
  3
"Amdt_StdImp|Product Description: AutoCAD Mechanical|Company: Autodesk, Inc."
 90
     1024
280
     0
281
     0
  0
CLASS
  1
ACMDATUMSTANDARDANSI
  2
AcmDatumStdANSI
  3
"Amdt_StdImp|Product Description: AutoCAD Mechanical|Company: Autodesk, Inc."
 90
     1024
280
     0
281
     0
  0
CLASS
  1
ACMBOMSTANDARDANSI
  2
AcmBOMStdANSI
  3
"Amdt_StdImp|Product Description: AutoCAD Mechanical|Company: Autodesk, Inc."
 90
     1024
280
     0
281
     0
  0
CLASS
  1
ACMDETAILSTANDARDANSI
  2
AmdtDetailSymStdANSI
  3
"Amdt_StdImp|Product Description: AutoCAD Mechanical|Company: Autodesk, Inc."
 90
     1024
280
     0
281
     0
  0
CLASS
  1
ACMSECTIONSTANDARDANSI
  2
AmdtSectionSymStdANSI
  3
"Amdt_StdImp|Product Description: AutoCAD Mechanical|Company: Autodesk, Inc."
 90
     1024
280
     0
281
     0
  0
CLASS
  1
ACMCENTERLINESTANDARDANSI
  2
AmdtCenterLineStdANSI
  3
"Amdt_StdImp|Product Description: AutoCAD Mechanical|Company: Autodesk, Inc."
 90
     1024
280
     0
281
     0
  0
CLASS
  1
ACMTHREADLINESTANDARDANSI
  2
AmdtThreadLineStdANSI
  3
"Amdt_StdImp|Product Description: AutoCAD Mechanical|Company: Autodesk, Inc."
 90
     1024
280
     0
281
     0
  0
CLASS
  1
ACMNOTESTANDARDANSI
  2
AmdtNoteStdANSI
  3
"Amdt_StdImp|Product Description: AutoCAD Mechanical|Company: Autodesk, Inc."
 90
     1024
280
     0
281
     0
  0
CLASS
  1
ACMTAPERSTANDARDANSI
  2
AcmTaperStdANSI
  3
"Amdt_StdImp|Product Description: AutoCAD Mechanical|Company: Autodesk, Inc."
 90
     1024
280
     0
281
     0
  0
CLASS
  1
ACMANOOTATIONVIEWSTANDARDANSI
  2
AmdtAnViewStdANSI
  3
"Amdt_StdImp|Product Description: AutoCAD Mechanical|Company: Autodesk, Inc."
 90
     1024
280
     0
281
     0
  0
CLASS
  1
ACAMGLAYSTD
  2
AcAmgLayStd
  3
"AmgLay|Product Description: AutoCAD Mechanical|Company: Autodesk, Inc."
 90
     1024
280
     0
281
     0
  0
CLASS
  1
ACAMGDIMSTD
  2
AcAmgDimStd
  3
"AmgDim|Product Description: AutoCAD Mechanical|Company: Autodesk, Inc."
 90
     1024
280
     0
281
     0
  0
CLASS
  1
ACAMGHOLECHARTSTDANSI
  2
AcAmgHoleChartStdANSI
  3
AmgDim|Product Description: AutoCAD Mechanical|Company: Autodesk, Inc.
 90
     1024
280
     0
281
     0
  0
CLASS
  1
AMGOBJPROPCFG
  2
AmgObjPropCfg
  3
"AmgLay|Product Description: AutoCAD Mechanical|Company: Autodesk, Inc."
 90
     1025
280
     0
281
     0
  0
CLASS
  1
ACAMGTITLESTD
  2
AcAmgTitleStd
  3
"AmgTitle|Product Description: AutoCAD Mechanical|Company: Autodesk, Inc."
 90
     4095
280
     0
281
     0
  0
CLASS
  1
AMDTNOTETEMPLATEDB
  2
AmdtNoteTemplateDB
  3
AcmSymBB|Product Description: AutoCAD Mechanical|Company: Autodesk, Inc.
 90
     1024
280
     0
281
     0
  0
CLASS
  1
LAYER_INDEX
  2
AcDbLayerIndex
  3
ObjectDBX Classes
 90
        0
280
     0
281
     0
  0
CLASS
  1
IDBUFFER
  2
AcDbIdBuffer
  3
ObjectDBX Classes
 90
        0
280
     0
281
     0
  0
CLASS
  1
DICTIONARYVAR
  2
AcDbDictionaryVar
  3
ObjectDBX Classes
 90
        0
280
     0
281
     0
  0
CLASS
  1
CELLSTYLEMAP
  2
AcDbCellStyleMap
  3
ObjectDBX Classes
 90
     1152
280
     0
281
     0
  0
CLASS
  1
ACDBPLACEHOLDER
  2
AcDbPlaceHolder
  3
ObjectDBX Classes
 90
        0
280
     0
281
     0
  0
CLASS
  1
LAYOUT
  2
AcDbLayout
  3
ObjectDBX Classes
 90
        0
280
     0
281
     0
  0
ENDSEC
  0
SECTION
  2
TABLES
  0
TABLE
  2
VPORT
  5
5F26
330
0
100
AcDbSymbolTable
 70
     1
  0
VPORT
  5
5F96
330
5F26
100
AcDbSymbolTableRecord
100
AcDbViewportTableRecord
  2
*ACTIVE
 70
     0
 10
0.0
 20
0.0
 11
1.0
 21
1.0
 12
0.0
 22
0.0
 13
0.0
 23
0.0
 14
1.0
 24
1.0
 15
0.0
 25
0.0
 16
0.0
 26
0.0
 36
1.0
 17
30.81666425663929
 27
251.3809304816887
 37
0.0
 40
1256.330883230587
 41
1.712555066079295
 42
50.0
 43
0.0
 44
0.0
 50
0.0
 51
0.0
 71
     0
 72
   100
 73
     1
 74
     0
 75
     0
 76
     0
 77
     0
 78
     0
281
     0
 65
     0
110
0.0
120
0.0
130
0.0
111
1.0
121
0.0
131
0.0
112
0.0
122
1.0
132
0.0
 79
     0
146
0.0
  0
ENDTAB
  0
TABLE
  2
LTYPE
  5
5F23
330
0
100
AcDbSymbolTable
 70
    19
  0
LTYPE
  5
5F80
330
5F23
100
AcDbSymbolTableRecord
100
AcDbLinetypeTableRecord
  2
ByBlock
 70
     0
  3

 72
    65
 73
     0
 40
0.0
  0
LTYPE
  5
5F81
330
5F23
100
AcDbSymbolTableRecord
100
AcDbLinetypeTableRecord
  2
ByLayer
 70
     0
  3

 72
    65
 73
     0
 40
0.0
  0
LTYPE
  5
5F82
330
5F23
100
AcDbSymbolTableRecord
100
AcDbLinetypeTableRecord
  2
CONTINUOUS
 70
     0
  3
実線
 72
    65
 73
     0
 40
0.0
  0
LTYPE
  5
5F97
330
5F23
100
AcDbSymbolTableRecord
100
AcDbLinetypeTableRecord
  2
DASHDOT
 70
     0
  3
____ _ ____ _ ____ _ ____ _ ____ _ ____ _ ____
 72
    65
 73
     4
 40
5.5
 49
4.0
 74
     0
 49
-0.6
 74
     0
 49
0.3
 74
     0
 49
-0.6
 74
     0
  0
LTYPE
  5
5F98
330
5F23
100
AcDbSymbolTableRecord
100
AcDbLinetypeTableRecord
  2
HIDDEN
 70
     0
  3
Hidden __ __ __ __ __ __ __ __ __ __ __ __ __ _
 72
    65
 73
     2
 40
0.375
 49
0.25
 74
     0
 49
-0.125
 74
     0
  0
LTYPE
  5
5F99
330
5F23
100
AcDbSymbolTableRecord
100
AcDbLinetypeTableRecord
  2
PHANTOM2
 70
     0
  3
Phantom (.5x) ___ _ _ ___ _ _ ___ _ _ ___ _ _
 72
    65
 73
     6
 40
1.25
 49
0.625
 74
     0
 49
-0.125
 74
     0
 49
0.125
 74
     0
 49
-0.125
 74
     0
 49
0.125
 74
     0
 49
-0.125
 74
     0
  0
LTYPE
  5
5F9A
330
5F23
100
AcDbSymbolTableRecord
100
AcDbLinetypeTableRecord
  2
CENTER
 70
     0
  3
Center ____ _ ____ _ ____ _ ____ _ ____ _ ____
 72
    65
 73
     4
 40
2.0
 49
1.25
 74
     0
 49
-0.25
 74
     0
 49
0.25
 74
     0
 49
-0.25
 74
     0
  0
LTYPE
  5
5F9B
330
5F23
100
AcDbSymbolTableRecord
100
AcDbLinetypeTableRecord
  2
ASULTYPE
 70
     0
  3
実線
 72
    65
 73
     2
 40
3.0
 49
2.5
 74
     0
 49
0.5
 74
     0
  0
LTYPE
  5
5F9C
330
5F23
100
AcDbSymbolTableRecord
100
AcDbLinetypeTableRecord
  2
ASVLTYPE
 70
     0
  3
__ __ __ __ __ __ __ __ __ __ __ __ __ __ __ __ __ __ __ __ __
 72
    65
 73
     2
 40
0.75
 49
0.5
 74
     0
 49
-0.25
 74
     0
  0
LTYPE
  5
5F9D
330
5F23
100
AcDbSymbolTableRecord
100
AcDbLinetypeTableRecord
  2
AM_ISO02W050
 70
     0
  3
__ __ __ __ __ __ __ __ __ __ __ __ __ __ __
 72
    65
 73
     2
 40
7.5
 49
6.0
 74
     0
 49
-1.5
 74
     0
  0
LTYPE
  5
5F9E
330
5F23
100
AcDbSymbolTableRecord
100
AcDbLinetypeTableRecord
  2
AM_ISO08W050
 70
     0
  3
____ . ____ . ____ . ____ . ____ . ____ . ____
 72
    65
 73
     4
 40
18.0
 49
12.0
 74
     0
 49
-1.5
 74
     0
 49
3.0
 74
     0
 49
-1.5
 74
     0
  0
LTYPE
  5
5F9F
330
5F23
100
AcDbSymbolTableRecord
100
AcDbLinetypeTableRecord
  2
AM_ISO09W050
 70
     0
  3
_____ . . _____ . . _____ . . ____ .. ____
 72
    65
 73
     6
 40
22.5
 49
12.0
 74
     0
 49
-1.5
 74
     0
 49
3.0
 74
     0
 49
-1.5
 74
     0
 49
3.0
 74
     0
 49
-1.5
 74
     0
  0
LTYPE
  5
5FA0
330
5F23
100
AcDbSymbolTableRecord
100
AcDbLinetypeTableRecord
  2
AMCONSTR
 70
     0
  3
_______________________
 72
    65
 73
     2
 40
9999.0
 49
9999.0
 74
     0
 49
0.0
 74
     0
  0
LTYPE
  5
5FA1
330
5F23
100
AcDbSymbolTableRecord
100
AcDbLinetypeTableRecord
  2
AM_ISO08W050X2
 70
     0
  3
__ . __ . __ . __ . __ . __
 72
    65
 73
     4
 40
9.0
 49
6.0
 74
     0
 49
-0.75
 74
     0
 49
1.5
 74
     0
 49
-0.75
 74
     0
  0
LTYPE
  5
5FA2
330
5F23
100
AcDbSymbolTableRecord
100
AcDbLinetypeTableRecord
  2
AM_ISO02W050X2
 70
     0
  3
 _ _ _ _ _ _ _ _ _ _ _ _
 72
    65
 73
     2
 40
3.75
 49
3.0
 74
     0
 49
-0.75
 74
     0
  0
LTYPE
  5
5FA3
330
5F23
100
AcDbSymbolTableRecord
100
AcDbLinetypeTableRecord
  2
AMZIGZAG
 70
     0
  3
/\/-/\/-/\/-/\/-/\/-/\/
 72
    65
 73
     2
 40
11.0001
 49
0.0001
 74
     0
 49
-11.0
 74
     0
  0
LTYPE
  5
5FA4
330
5F23
100
AcDbSymbolTableRecord
100
AcDbLinetypeTableRecord
  2
CENTER2
 70
     0
  3
Center (.5x) ___ _ ___ _ ___ _ ___ _ ___ _ ___
 72
    65
 73
     4
 40
1.125
 49
0.75
 74
     0
 49
-0.125
 74
     0
 49
0.125
 74
     0
 49
-0.125
 74
     0
  0
LTYPE
  5
5FA5
330
5F23
100
AcDbSymbolTableRecord
100
AcDbLinetypeTableRecord
  2
HIDDEN2
 70
     0
  3
Hidden (.5x) _ _ _ _ _ _ _ _ _ _ _ _ _ _ _ _ _
 72
    65
 73
     2
 40
0.1875
 49
0.125
 74
     0
 49
-0.0625
 74
     0
  0
LTYPE
  5
5FA6
330
5F23
100
AcDbSymbolTableRecord
100
AcDbLinetypeTableRecord
  2
AMZIGZAG2
 70
     0
  3
/\/-/\/-/\/-/\/-/\/-/\/
 72
    65
 73
     2
 40
0.4401
 49
0.0001
 74
     0
 49
-0.4400000000000003
 74
     0
  0
LTYPE
  5
5FA7
330
5F23
100
AcDbSymbolTableRecord
100
AcDbLinetypeTableRecord
  2
ACANSTGB
 70
     0
  3
__ . . __ . .
 72
    65
 73
     6
 40
0.35433070866
 49
0.15748031496
 74
     0
 49
-0.03937007874
 74
     0
 49
0.03937007874
 74
     0
 49
-0.03937007874
 74
     0
 49
0.03937007874
 74
     0
 49
-0.03937007874
 74
     0
  0
LTYPE
  5
5FA8
330
5F23
100
AcDbSymbolTableRecord
100
AcDbLinetypeTableRecord
  2
ACANSTGL
 70
     0
  3
_ _ _ _ _
 72
    65
 73
     2
 40
0.11811023622
 49
0.07874015748
 74
     0
 49
-0.03937007874
 74
     0
  0
ENDTAB
  0
TABLE
  2
LAYER
  5
5F20
330
0
100
AcDbSymbolTable
 70
    12
  0
LAYER
  5
5F7A
102
{ACAD_XDICTIONARY
360
613F
102
}
330
5F20
100
AcDbSymbolTableRecord
100
AcDbLayerTableRecord
  2
0
 70
     0
 62
     7
  6
CONTINUOUS
370
    -3
390
5F2D
  0
LAYER
  5
5FA9
102
{ACAD_XDICTIONARY
360
6141
102
}
330
5F20
100
AcDbSymbolTableRecord
100
AcDbLayerTableRecord
  2
OUTLINE
 70
     0
 62
     3
  6
CONTINUOUS
370
    -3
390
5F2D
  0
LAYER
  5
5FAA
102
{ACAD_XDICTIONARY
360
6143
102
}
330
5F20
100
AcDbSymbolTableRecord
100
AcDbLayerTableRecord
  2
SIZE
 70
     0
 62
    30
  6
CONTINUOUS
370
    -3
390
5F2D
  0
LAYER
  5
5FAB
102
{ACAD_XDICTIONARY
360
6145
102
}
330
5F20
100
AcDbSymbolTableRecord
100
AcDbLayerTableRecord
  2
BASIS
 70
     0
 62
     6
  6
DASHDOT
370
    -3
390
5F2D
  0
LAYER
  5
5FAC
102
{ACAD_XDICTIONARY
360
6147
102
}
330
5F20
100
AcDbSymbolTableRecord
100
AcDbLayerTableRecord
  2
DETAIL
 70
     0
 62
     5
  6
CONTINUOUS
370
    -3
390
5F2D
  0
LAYER
  5
5FAD
102
{ACAD_XDICTIONARY
360
6149
102
}
330
5F20
100
AcDbSymbolTableRecord
100
AcDbLayerTableRecord
  2
ARRANGE
 70
     0
 62
     1
  6
CONTINUOUS
370
    -3
390
5F2D
  0
LAYER
  5
5FAE
330
5F20
100
AcDbSymbolTableRecord
100
AcDbLayerTableRecord
  2
DEFPOINTS
 70
     0
 62
     7
  6
CONTINUOUS
290
     0
370
    -3
390
5F2D
  0
LAYER
  5
5FAF
102
{ACAD_XDICTIONARY
360
614B
102
}
330
5F20
100
AcDbSymbolTableRecord
100
AcDbLayerTableRecord
  2
ETC
 70
     0
 62
    61
  6
CONTINUOUS
370
    -3
390
5F2D
  0
LAYER
  5
5FB0
102
{ACAD_XDICTIONARY
360
614D
102
}
330
5F20
100
AcDbSymbolTableRecord
100
AcDbLayerTableRecord
  2
FIX
 70
     0
 62
    11
  6
CONTINUOUS
370
    -3
390
5F2D
  0
LAYER
  5
5FB1
102
{ACAD_XDICTIONARY
360
614F
102
}
330
5F20
100
AcDbSymbolTableRecord
100
AcDbLayerTableRecord
  2
NOTE
 70
     0
 62
     4
  6
CONTINUOUS
370
    -3
390
5F2D
  0
LAYER
  5
5FB2
102
{ACAD_XDICTIONARY
360
6151
102
}
330
5F20
100
AcDbSymbolTableRecord
100
AcDbLayerTableRecord
  2
SERVICESPACE
 70
     0
 62
     2
  6
DASHDOT
370
    -3
390
5F2D
  0
LAYER
  5
5FB3
102
{ACAD_XDICTIONARY
360
6153
102
}
330
5F20
100
AcDbSymbolTableRecord
100
AcDbLayerTableRecord
  2
SYMBOLLINE
 70
     0
 62
    15
  6
CONTINUOUS
370
    -3
390
5F2D
  0
ENDTAB
  0
TABLE
  2
STYLE
  5
5F21
330
0
100
AcDbSymbolTable
 70
     5
  0
STYLE
  5
5F7B
330
5F21
100
AcDbSymbolTableRecord
100
AcDbTextStyleTableRecord
  2
STANDARD
 70
     0
 40
64.0
 41
0.9
 50
0.0
 71
     0
 42
64.0
  3
SIMPLEX.shx
  4
BIGFONT.shx
  0
STYLE
  5
5F7F
330
5F21
100
AcDbSymbolTableRecord
100
AcDbTextStyleTableRecord
  2
ANNOTATIVE
 70
     0
 40
0.0
 41
1.0
 50
0.0
 71
     0
 42
0.2
  3
txt
  4

1001
ACADANNOTATIVE
1000
AnnotativeData
1002
{
1070
     1
1070
     1
1002
}
  0
STYLE
  5
5FB4
330
5F21
100
AcDbSymbolTableRecord
100
AcDbTextStyleTableRecord
  2

 70
     1
 40
0.0
 41
1.0
 50
0.0
 71
     0
 42
64.0
  3
genltshp.shx
  4

  0
STYLE
  5
5FB5
330
5F21
100
AcDbSymbolTableRecord
100
AcDbTextStyleTableRecord
  2
ACANSTS
 70
     0
 40
1.0
 41
1.0
 50
0.0
 71
     0
 42
64.0
  3
romans.shx
  4
extfont.shx
  0
STYLE
  5
5FB6
330
5F21
100
AcDbSymbolTableRecord
100
AcDbTextStyleTableRecord
  2
ACANSGDT
 70
     0
 40
0.0
 41
1.0
 50
0.0
 71
     0
 42
64.0
  3
amgdt.shx
  4

  0
ENDTAB
  0
TABLE
  2
VIEW
  5
5F24
330
0
100
AcDbSymbolTable
 70
     1
  0
VIEW
  5
5FB7
330
5F24
100
AcDbSymbolTableRecord
100
AcDbViewTableRecord
  2
ALL
 70
     0
 40
4282.619807999997
 10
0.0
 20
41.30990399999999
 41
5940.0
 11
0.0
 21
0.0
 31
1.0
 12
0.0
 22
0.0
 32
0.0
 42
50.0
 43
0.0
 44
0.0
 50
0.0
 71
     0
281
     0
 72
     1
110
0.0
120
0.0
130
0.0
111
1.0
121
0.0
131
0.0
112
0.0
122
1.0
132
0.0
 79
     0
146
0.0
  0
ENDTAB
  0
TABLE
  2
UCS
  5
5F25
330
0
100
AcDbSymbolTable
 70
     0
  0
ENDTAB
  0
TABLE
  2
APPID
  5
5F27
330
0
100
AcDbSymbolTable
 70
    33
  0
APPID
  5
5F7C
330
5F27
100
AcDbSymbolTableRecord
100
AcDbRegAppTableRecord
  2
ACAD
 70
     0
  0
APPID
  5
5F83
330
5F27
100
AcDbSymbolTableRecord
100
AcDbRegAppTableRecord
  2
ACADANNOTATIVE
 70
     0
  0
APPID
  5
5F8D
330
5F27
100
AcDbSymbolTableRecord
100
AcDbRegAppTableRecord
  2
ACAD_MLEADERVER
 70
     0
  0
APPID
  5
5FB8
330
5F27
100
AcDbSymbolTableRecord
100
AcDbRegAppTableRecord
  2
GENIUS_GENDIM_13
 70
     0
  0
APPID
  5
5FB9
330
5F27
100
AcDbSymbolTableRecord
100
AcDbRegAppTableRecord
  2
GENIUS_GENDTOL_13
 70
     0
  0
APPID
  5
5FBA
330
5F27
100
AcDbSymbolTableRecord
100
AcDbRegAppTableRecord
  2
GENIUS_GE3DTOL_13
 70
     0
  0
APPID
  5
5FBB
330
5F27
100
AcDbSymbolTableRecord
100
AcDbRegAppTableRecord
  2
MCAD_NO_VIS
 70
     0
  0
APPID
  5
5FBC
330
5F27
100
AcDbSymbolTableRecord
100
AcDbRegAppTableRecord
  2
ACAD_TEMP_GRAPHIC
 70
     0
  0
APPID
  5
5FBD
330
5F27
100
AcDbSymbolTableRecord
100
AcDbRegAppTableRecord
  2
AD_DRAW
 70
     0
  0
APPID
  5
5FBE
330
5F27
100
AcDbSymbolTableRecord
100
AcDbRegAppTableRecord
  2
ACATTRIBSERVICES
 70
     0
  0
APPID
  5
5FBF
330
5F27
100
AcDbSymbolTableRecord
100
AcDbRegAppTableRecord
  2
ASURF_PCURVE_APPNAME
 70
     0
  0
APPID
  5
5FC0
330
5F27
100
AcDbSymbolTableRecord
100
AcDbRegAppTableRecord
  2
AMG_3D2D_5_0
 70
     0
  0
APPID
  5
5FC1
330
5F27
100
AcDbSymbolTableRecord
100
AcDbRegAppTableRecord
  2
DESIGNERASSEMBLIES
 70
     0
  0
APPID
  5
5FC2
330
5F27
100
AcDbSymbolTableRecord
100
AcDbRegAppTableRecord
  2
ACADM_DIM_EDIT
 70
     0
  0
APPID
  5
5FC3
330
5F27
100
AcDbSymbolTableRecord
100
AcDbRegAppTableRecord
  2
AMDT_DM_ADJ
 70
     0
  0
APPID
  5
5FC4
330
5F27
100
AcDbSymbolTableRecord
100
AcDbRegAppTableRecord
  2
ACAD_DSTYLE_DIMARC_LENGTH_
 70
     0
  0
APPID
  5
5FC5
330
5F27
100
AcDbSymbolTableRecord
100
AcDbRegAppTableRecord
  2
ACAD_DSTYLE_DIMJOGGED_JOGA
 70
     0
  0
APPID
  5
5FC6
330
5F27
100
AcDbSymbolTableRecord
100
AcDbRegAppTableRecord
  2
ACAD_PSEXT
 70
     0
  0
APPID
  5
5FC7
330
5F27
100
AcDbSymbolTableRecord
100
AcDbRegAppTableRecord
  2
ACAD_EXEMPT_FROM_CAD_STANDARDS
 70
     0
  0
APPID
  5
5FC8
330
5F27
100
AcDbSymbolTableRecord
100
AcDbRegAppTableRecord
  2
ACAD_DSTYLE_DIMJAG
 70
     0
  0
APPID
  5
5FC9
330
5F27
100
AcDbSymbolTableRecord
100
AcDbRegAppTableRecord
  2
ACAD_DSTYLE_DIMTALN
 70
     0
  0
APPID
  5
5FCA
330
5F27
100
AcDbSymbolTableRecord
100
AcDbRegAppTableRecord
  2
AMG_3D2D_5_00
 70
     0
  0
APPID
  5
5FCB
330
5F27
100
AcDbSymbolTableRecord
100
AcDbRegAppTableRecord
  2
AMG_3D2D_5_01
 70
     0
  0
APPID
  5
5FCC
330
5F27
100
AcDbSymbolTableRecord
100
AcDbRegAppTableRecord
  2
AMG_3D2D_5_02
 70
     0
  0
APPID
  5
5FCD
330
5F27
100
AcDbSymbolTableRecord
100
AcDbRegAppTableRecord
  2
AMG_3D2D_5_03
 70
     0
  0
APPID
  5
5FCE
330
5F27
100
AcDbSymbolTableRecord
100
AcDbRegAppTableRecord
  2
AMG_3D2D_5_04
 70
     0
  0
APPID
  5
5FCF
330
5F27
100
AcDbSymbolTableRecord
100
AcDbRegAppTableRecord
  2
AMG_3D2D_5_05
 70
     0
  0
APPID
  5
5FD0
330
5F27
100
AcDbSymbolTableRecord
100
AcDbRegAppTableRecord
  2
AMG_3D2D_5_06
 70
     0
  0
APPID
  5
60E6
330
5F27
100
AcDbSymbolTableRecord
100
AcDbRegAppTableRecord
  2
AMG_3D2D_5.0
 70
     0
  0
APPID
  5
617C
330
5F27
100
AcDbSymbolTableRecord
100
AcDbRegAppTableRecord
  2
ACAD_DSTYLE_DIMARC_LENGTH_SYMBOL
 70
     0
  0
APPID
  5
617D
330
5F27
100
AcDbSymbolTableRecord
100
AcDbRegAppTableRecord
  2
ACAD_DSTYLE_DIM_LINETYPE
 70
     0
  0
APPID
  5
617E
330
5F27
100
AcDbSymbolTableRecord
100
AcDbRegAppTableRecord
  2
ACAD_DSTYLE_DIM_EXT1_LINETYPE
 70
     0
  0
APPID
  5
617F
330
5F27
100
AcDbSymbolTableRecord
100
AcDbRegAppTableRecord
  2
ACAD_DSTYLE_DIM_EXT2_LINETYPE
 70
     0
  0
ENDTAB
  0
TABLE
  2
DIMSTYLE
  5
5F28
330
0
100
AcDbSymbolTable
 70
    10
100
AcDbDimStyleTable
 71
     1
340
5FD1
  0
DIMSTYLE
105
5F7D
330
5F28
100
AcDbSymbolTableRecord
100
AcDbDimStyleTableRecord
  2
STANDARD
 70
     0
 41
12.0
 42
20.0
 44
20.0
 77
     1
 78
     8
140
64.0
141
0.0
147
10.0
275
     1
279
     2
284
     7
285
     7
286
     7
340
5F7B
  0
DIMSTYLE
105
5F7E
330
5F28
100
AcDbSymbolTableRecord
100
AcDbDimStyleTableRecord
  2
ANNOTATIVE
 70
     0
275
     1
279
     2
284
     7
285
     7
286
     7
340
5F7B
1001
ACADANNOTATIVE
1000
AnnotativeData
1002
{
1070
     1
1070
     1
1002
}
  0
DIMSTYLE
105
5FD1
330
5F28
100
AcDbSymbolTableRecord
100
AcDbDimStyleTableRecord
  2
AM_ANSI
 70
     0
  4
mm
 41
0.12
 42
0.05
 43
0.5
 44
0.1
 47
0.1
 48
0.1
 78
     7
 79
     2
140
0.12
141
0.0
146
0.71
147
0.06
176
   256
177
   256
178
     2
274
     4
284
     7
340
5F7B
371
    -1
372
    -1
1001
ACAD_DSTYLE_DIMARC_LENGTH_SYMBOL
1070
   379
1070
     1
1001
ACAD_DSTYLE_DIM_LINETYPE
1070
   380
1005
5F80
1001
ACAD_DSTYLE_DIM_EXT1_LINETYPE
1070
   381
1005
5F80
1001
ACAD_DSTYLE_DIM_EXT2_LINETYPE
1070
   382
1005
5F80
  0
DIMSTYLE
105
5FD2
330
5F28
100
AcDbSymbolTableRecord
100
AcDbDimStyleTableRecord
  2
AM_ANSI$3
 70
     0
  4
mm
 41
0.12
 42
0.05
 43
0.5
 44
0.1
 47
0.1
 48
0.1
 78
     7
 79
     2
140
0.12
141
0.0
146
0.71
147
0.06
176
   256
177
   256
178
     2
274
     4
284
     7
288
     1
289
     0
340
5F7B
371
    -1
372
    -1
1001
ACAD_DSTYLE_DIMARC_LENGTH_SYMBOL
1070
   379
1070
     1
1001
ACAD_DSTYLE_DIM_LINETYPE
1070
   380
1005
5F80
1001
ACAD_DSTYLE_DIM_EXT1_LINETYPE
1070
   381
1005
5F80
1001
ACAD_DSTYLE_DIM_EXT2_LINETYPE
1070
   382
1005
5F80
  0
DIMSTYLE
105
5FD3
330
5F28
100
AcDbSymbolTableRecord
100
AcDbDimStyleTableRecord
  2
AM_ANSI$4
 70
     0
  4
mm
 41
0.12
 42
0.05
 43
0.5
 44
0.1
 47
0.1
 48
0.1
 78
     7
 79
     2
140
0.12
141
0.0
146
0.71
147
0.06
176
   256
177
   256
178
     2
274
     4
284
     7
340
5F7B
371
    -1
372
    -1
1001
ACAD_DSTYLE_DIMARC_LENGTH_SYMBOL
1070
   379
1070
     1
1001
ACAD_DSTYLE_DIM_LINETYPE
1070
   380
1005
5F80
1001
ACAD_DSTYLE_DIM_EXT1_LINETYPE
1070
   381
1005
5F80
1001
ACAD_DSTYLE_DIM_EXT2_LINETYPE
1070
   382
1005
5F80
  0
DIMSTYLE
105
5FD4
330
5F28
100
AcDbSymbolTableRecord
100
AcDbDimStyleTableRecord
  2
AM_ANSI$7
 70
     0
  4
mm
 41
0.12
 42
0.05
 43
0.5
 44
0.1
 47
0.1
 48
0.1
 78
     7
 79
     2
140
0.12
141
0.0
146
0.71
147
0.06
176
   256
177
   256
178
     2
274
     4
284
     7
340
5F7B
371
    -1
372
    -1
1001
ACAD_DSTYLE_DIMARC_LENGTH_SYMBOL
1070
   379
1070
     1
1001
ACAD_DSTYLE_DIM_LINETYPE
1070
   380
1005
5F80
1001
ACAD_DSTYLE_DIM_EXT1_LINETYPE
1070
   381
1005
5F80
1001
ACAD_DSTYLE_DIM_EXT2_LINETYPE
1070
   382
1005
5F80
  0
DIMSTYLE
105
5FD5
330
5F28
100
AcDbSymbolTableRecord
100
AcDbDimStyleTableRecord
  2
AM_ANSI$SF
 70
     0
  4
mm
 41
0.12
 42
0.05
 43
0.5
 44
0.1
 47
0.1
 48
0.1
 75
     1
 76
     1
 78
     7
 79
     2
140
0.12
141
0.0
146
0.71
147
0.06
176
   256
177
   256
178
     2
274
     4
284
     7
340
5F7B
371
    -1
372
    -1
1001
ACAD_DSTYLE_DIMARC_LENGTH_SYMBOL
1070
   379
1070
     1
1001
ACAD_DSTYLE_DIM_LINETYPE
1070
   380
1005
5F80
1001
ACAD_DSTYLE_DIM_EXT1_LINETYPE
1070
   381
1005
5F80
1001
ACAD_DSTYLE_DIM_EXT2_LINETYPE
1070
   382
1005
5F80
  0
DIMSTYLE
105
5FD6
330
5F28
100
AcDbSymbolTableRecord
100
AcDbDimStyleTableRecord
  2
AM_ANSI$SH
 70
     0
  4
mm
 41
0.12
 42
0.05
 43
0.5
 44
0.1
 47
0.1
 48
0.1
 75
     1
 76
     1
 78
     7
 79
     2
140
0.12
141
0.0
146
0.71
147
0.06
173
     1
176
   256
177
   256
178
     2
274
     4
284
     7
340
5F7B
343
5FF6
371
    -1
372
    -1
1001
ACAD_DSTYLE_DIMARC_LENGTH_SYMBOL
1070
   379
1070
     1
1001
ACAD_DSTYLE_DIM_LINETYPE
1070
   380
1005
5F80
1001
ACAD_DSTYLE_DIM_EXT1_LINETYPE
1070
   381
1005
5F80
1001
ACAD_DSTYLE_DIM_EXT2_LINETYPE
1070
   382
1005
5F80
  0
DIMSTYLE
105
5FD7
330
5F28
100
AcDbSymbolTableRecord
100
AcDbDimStyleTableRecord
  2
STANDARD1
 70
     0
 40
6.0
 41
2.5
 42
0.625
 43
6.0
 44
1.25
 47
1.0
 48
0.5
 77
     1
 78
     8
140
2.5
141
0.0
146
0.6
147
1.0
173
     1
275
     1
279
     2
284
     7
285
     7
286
     7
340
5F7B
  0
DIMSTYLE
105
5FD8
330
5F28
100
AcDbSymbolTableRecord
100
AcDbDimStyleTableRecord
  2
STANDARD$0
 70
     0
 41
12.0
 42
20.0
 44
20.0
 73
     0
 74
     0
 77
     1
 78
     8
140
64.0
141
0.0
147
10.0
275
     1
279
     2
284
     7
285
     7
286
     7
340
5F7B
  0
ENDTAB
  0
TABLE
  2
BLOCK_RECORD
  5
5F1F
330
0
100
AcDbSymbolTable
 70
    67
  0
BLOCK_RECORD
  5
5F92
102
{ACAD_XDICTIONARY
360
6155
102
}
330
5F1F
100
AcDbSymbolTableRecord
100
AcDbBlockTableRecord
  2
*Model_Space
340
5F95
  0
BLOCK_RECORD
  5
5F8E
330
5F1F
100
AcDbSymbolTableRecord
100
AcDbBlockTableRecord
  2
*Paper_Space
340
5F91
  0
BLOCK_RECORD
  5
5FE0
330
5F1F
100
AcDbSymbolTableRecord
100
AcDbBlockTableRecord
  2
$MODEL_SPACE
340
0
  0
BLOCK_RECORD
  5
5FE2
330
5F1F
100
AcDbSymbolTableRecord
100
AcDbBlockTableRecord
  2
$PAPER_SPACE
340
0
  0
BLOCK_RECORD
  5
5FE4
330
5F1F
100
AcDbSymbolTableRecord
100
AcDbBlockTableRecord
  2
_ORIGIN
340
0
  0
BLOCK_RECORD
  5
5FE6
330
5F1F
100
AcDbSymbolTableRecord
100
AcDbBlockTableRecord
  2
_DOTBLANK
340
0
102
{BLKREFS
331
1299
331
129A
331
11AA
331
11AB
331
E80
331
E81
331
1123
331
1124
331
11C2
331
11C3
331
11EC
331
11ED
331
11F9
331
11FA
331
1287
331
1288
331
1417
331
1418
331
1423
331
1424
331
142F
331
1430
331
143B
331
143C
331
166E
331
166F
331
1677
331
1678
331
1680
331
1681
331
1689
331
168A
331
1696
331
1697
331
16A3
331
16A4
331
16AF
331
16B0
331
16BB
331
16BC
331
16C7
331
16C8
331
16D3
331
16D4
331
1D86
331
1D87
331
1D8F
331
1D90
331
1D98
331
1D99
331
1DA1
331
1DA2
331
1DAB
331
1DAC
331
1DB5
331
1DB6
102
}
  0
BLOCK_RECORD
  5
5FE8
330
5F1F
100
AcDbSymbolTableRecord
100
AcDbBlockTableRecord
  2
_OPEN30
340
0
102
{BLKREFS
331
2088
331
57A0
102
}
  0
BLOCK_RECORD
  5
5FEA
330
5F1F
100
AcDbSymbolTableRecord
100
AcDbBlockTableRecord
  2
*D5
340
0
  0
BLOCK_RECORD
  5
5FEC
330
5F1F
100
AcDbSymbolTableRecord
100
AcDbBlockTableRecord
  2
*U6
340
0
102
{BLKREFS
331
129B
102
}
  0
BLOCK_RECORD
  5
5FEE
330
5F1F
100
AcDbSymbolTableRecord
100
AcDbBlockTableRecord
  2
*D7
340
0
  0
BLOCK_RECORD
  5
5FF0
330
5F1F
100
AcDbSymbolTableRecord
100
AcDbBlockTableRecord
  2
*U8
340
0
102
{BLKREFS
331
11AC
102
}
  0
BLOCK_RECORD
  5
5FF2
330
5F1F
100
AcDbSymbolTableRecord
100
AcDbBlockTableRecord
  2
*D9
340
0
  0
BLOCK_RECORD
  5
5FF4
330
5F1F
100
AcDbSymbolTableRecord
100
AcDbBlockTableRecord
  2
*U10
340
0
102
{BLKREFS
331
E82
102
}
  0
BLOCK_RECORD
  5
5FF6
330
5F1F
100
AcDbSymbolTableRecord
100
AcDbBlockTableRecord
  2
GENAXEH
340
0
  0
BLOCK_RECORD
  5
5FF8
330
5F1F
100
AcDbSymbolTableRecord
100
AcDbBlockTableRecord
  2
*D12
340
0
  0
BLOCK_RECORD
  5
5FFA
330
5F1F
100
AcDbSymbolTableRecord
100
AcDbBlockTableRecord
  2
*U13
340
0
102
{BLKREFS
331
1125
102
}
  0
BLOCK_RECORD
  5
5FFC
330
5F1F
100
AcDbSymbolTableRecord
100
AcDbBlockTableRecord
  2
*D14
340
0
  0
BLOCK_RECORD
  5
5FFE
330
5F1F
100
AcDbSymbolTableRecord
100
AcDbBlockTableRecord
  2
*U15
340
0
102
{BLKREFS
331
11C4
102
}
  0
BLOCK_RECORD
  5
6000
330
5F1F
100
AcDbSymbolTableRecord
100
AcDbBlockTableRecord
  2
*D16
340
0
  0
BLOCK_RECORD
  5
6002
330
5F1F
100
AcDbSymbolTableRecord
100
AcDbBlockTableRecord
  2
*U17
340
0
102
{BLKREFS
331
11EE
102
}
  0
BLOCK_RECORD
  5
6004
330
5F1F
100
AcDbSymbolTableRecord
100
AcDbBlockTableRecord
  2
*D18
340
0
  0
BLOCK_RECORD
  5
6006
330
5F1F
100
AcDbSymbolTableRecord
100
AcDbBlockTableRecord
  2
*U19
340
0
102
{BLKREFS
331
11FB
102
}
  0
BLOCK_RECORD
  5
6008
330
5F1F
100
AcDbSymbolTableRecord
100
AcDbBlockTableRecord
  2
*D20
340
0
  0
BLOCK_RECORD
  5
600A
330
5F1F
100
AcDbSymbolTableRecord
100
AcDbBlockTableRecord
  2
*U21
340
0
102
{BLKREFS
331
1289
102
}
  0
BLOCK_RECORD
  5
600C
330
5F1F
100
AcDbSymbolTableRecord
100
AcDbBlockTableRecord
  2
*D22
340
0
  0
BLOCK_RECORD
  5
600E
330
5F1F
100
AcDbSymbolTableRecord
100
AcDbBlockTableRecord
  2
*U23
340
0
102
{BLKREFS
331
1419
102
}
  0
BLOCK_RECORD
  5
6010
330
5F1F
100
AcDbSymbolTableRecord
100
AcDbBlockTableRecord
  2
*D24
340
0
  0
BLOCK_RECORD
  5
6012
330
5F1F
100
AcDbSymbolTableRecord
100
AcDbBlockTableRecord
  2
*U25
340
0
102
{BLKREFS
331
1425
102
}
  0
BLOCK_RECORD
  5
6014
330
5F1F
100
AcDbSymbolTableRecord
100
AcDbBlockTableRecord
  2
*D26
340
0
  0
BLOCK_RECORD
  5
6016
330
5F1F
100
AcDbSymbolTableRecord
100
AcDbBlockTableRecord
  2
*U27
340
0
102
{BLKREFS
331
1431
102
}
  0
BLOCK_RECORD
  5
6018
330
5F1F
100
AcDbSymbolTableRecord
100
AcDbBlockTableRecord
  2
*D28
340
0
  0
BLOCK_RECORD
  5
601A
330
5F1F
100
AcDbSymbolTableRecord
100
AcDbBlockTableRecord
  2
*U29
340
0
102
{BLKREFS
331
143D
102
}
  0
BLOCK_RECORD
  5
601C
330
5F1F
100
AcDbSymbolTableRecord
100
AcDbBlockTableRecord
  2
*D30
340
0
  0
BLOCK_RECORD
  5
601E
330
5F1F
100
AcDbSymbolTableRecord
100
AcDbBlockTableRecord
  2
*U31
340
0
102
{BLKREFS
331
1670
102
}
  0
BLOCK_RECORD
  5
6020
330
5F1F
100
AcDbSymbolTableRecord
100
AcDbBlockTableRecord
  2
*D32
340
0
  0
BLOCK_RECORD
  5
6022
330
5F1F
100
AcDbSymbolTableRecord
100
AcDbBlockTableRecord
  2
*U33
340
0
102
{BLKREFS
331
1679
102
}
  0
BLOCK_RECORD
  5
6024
330
5F1F
100
AcDbSymbolTableRecord
100
AcDbBlockTableRecord
  2
*D34
340
0
  0
BLOCK_RECORD
  5
6026
330
5F1F
100
AcDbSymbolTableRecord
100
AcDbBlockTableRecord
  2
*U35
340
0
102
{BLKREFS
331
1682
102
}
  0
BLOCK_RECORD
  5
6028
330
5F1F
100
AcDbSymbolTableRecord
100
AcDbBlockTableRecord
  2
*D36
340
0
  0
BLOCK_RECORD
  5
602A
330
5F1F
100
AcDbSymbolTableRecord
100
AcDbBlockTableRecord
  2
*U37
340
0
102
{BLKREFS
331
168B
102
}
  0
BLOCK_RECORD
  5
602C
330
5F1F
100
AcDbSymbolTableRecord
100
AcDbBlockTableRecord
  2
*U38
340
0
  0
BLOCK_RECORD
  5
602E
330
5F1F
100
AcDbSymbolTableRecord
100
AcDbBlockTableRecord
  2
*D39
340
0
  0
BLOCK_RECORD
  5
6030
330
5F1F
100
AcDbSymbolTableRecord
100
AcDbBlockTableRecord
  2
*U40
340
0
102
{BLKREFS
331
1698
102
}
  0
BLOCK_RECORD
  5
6032
330
5F1F
100
AcDbSymbolTableRecord
100
AcDbBlockTableRecord
  2
*D41
340
0
  0
BLOCK_RECORD
  5
6034
330
5F1F
100
AcDbSymbolTableRecord
100
AcDbBlockTableRecord
  2
*U42
340
0
102
{BLKREFS
331
16A5
102
}
  0
BLOCK_RECORD
  5
6036
330
5F1F
100
AcDbSymbolTableRecord
100
AcDbBlockTableRecord
  2
*D43
340
0
  0
BLOCK_RECORD
  5
6038
330
5F1F
100
AcDbSymbolTableRecord
100
AcDbBlockTableRecord
  2
*U44
340
0
102
{BLKREFS
331
16B1
102
}
  0
BLOCK_RECORD
  5
603A
330
5F1F
100
AcDbSymbolTableRecord
100
AcDbBlockTableRecord
  2
*D45
340
0
  0
BLOCK_RECORD
  5
603C
330
5F1F
100
AcDbSymbolTableRecord
100
AcDbBlockTableRecord
  2
*U46
340
0
102
{BLKREFS
331
16BD
102
}
  0
BLOCK_RECORD
  5
603E
330
5F1F
100
AcDbSymbolTableRecord
100
AcDbBlockTableRecord
  2
*D47
340
0
  0
BLOCK_RECORD
  5
6040
330
5F1F
100
AcDbSymbolTableRecord
100
AcDbBlockTableRecord
  2
*U48
340
0
102
{BLKREFS
331
16C9
102
}
  0
BLOCK_RECORD
  5
6042
330
5F1F
100
AcDbSymbolTableRecord
100
AcDbBlockTableRecord
  2
*D49
340
0
  0
BLOCK_RECORD
  5
6044
330
5F1F
100
AcDbSymbolTableRecord
100
AcDbBlockTableRecord
  2
*U50
340
0
102
{BLKREFS
331
16D5
102
}
  0
BLOCK_RECORD
  5
6046
330
5F1F
100
AcDbSymbolTableRecord
100
AcDbBlockTableRecord
  2
*D51
340
0
  0
BLOCK_RECORD
  5
6048
330
5F1F
100
AcDbSymbolTableRecord
100
AcDbBlockTableRecord
  2
*U52
340
0
102
{BLKREFS
331
1D88
102
}
  0
BLOCK_RECORD
  5
604A
330
5F1F
100
AcDbSymbolTableRecord
100
AcDbBlockTableRecord
  2
*D53
340
0
  0
BLOCK_RECORD
  5
604C
330
5F1F
100
AcDbSymbolTableRecord
100
AcDbBlockTableRecord
  2
*U54
340
0
102
{BLKREFS
331
1D91
102
}
  0
BLOCK_RECORD
  5
604E
330
5F1F
100
AcDbSymbolTableRecord
100
AcDbBlockTableRecord
  2
*D55
340
0
  0
BLOCK_RECORD
  5
6050
330
5F1F
100
AcDbSymbolTableRecord
100
AcDbBlockTableRecord
  2
*U56
340
0
102
{BLKREFS
331
1D9A
102
}
  0
BLOCK_RECORD
  5
6052
330
5F1F
100
AcDbSymbolTableRecord
100
AcDbBlockTableRecord
  2
*D57
340
0
  0
BLOCK_RECORD
  5
6054
330
5F1F
100
AcDbSymbolTableRecord
100
AcDbBlockTableRecord
  2
*U58
340
0
102
{BLKREFS
331
1DA3
102
}
  0
BLOCK_RECORD
  5
6056
330
5F1F
100
AcDbSymbolTableRecord
100
AcDbBlockTableRecord
  2
*D59
340
0
  0
BLOCK_RECORD
  5
6058
330
5F1F
100
AcDbSymbolTableRecord
100
AcDbBlockTableRecord
  2
*U60
340
0
102
{BLKREFS
331
1DAD
102
}
  0
BLOCK_RECORD
  5
605A
330
5F1F
100
AcDbSymbolTableRecord
100
AcDbBlockTableRecord
  2
*D61
340
0
  0
BLOCK_RECORD
  5
605C
330
5F1F
100
AcDbSymbolTableRecord
100
AcDbBlockTableRecord
  2
*U62
340
0
102
{BLKREFS
331
1DB7
102
}
  0
BLOCK_RECORD
  5
605E
330
5F1F
100
AcDbSymbolTableRecord
100
AcDbBlockTableRecord
  2
*U63
340
0
  0
BLOCK_RECORD
  5
6060
330
5F1F
100
AcDbSymbolTableRecord
100
AcDbBlockTableRecord
  2
*U64
340
0
  0
BLOCK_RECORD
  5
6062
330
5F1F
100
AcDbSymbolTableRecord
100
AcDbBlockTableRecord
  2
*U65
340
0
  0
ENDTAB
  0
ENDSEC
  0
SECTION
  2
BLOCKS
  0
BLOCK
  5
5F93
330
5F92
100
AcDbEntity
  8
0
100
AcDbBlockBegin
  2
*Model_Space
 70
     0
 10
0.0
 20
0.0
 30
0.0
  3
*Model_Space
  1

  0
ENDBLK
  5
5F94
330
5F92
100
AcDbEntity
  8
0
100
AcDbBlockEnd
  0
BLOCK
  5
5F8F
330
5F8E
100
AcDbEntity
 67
     1
  8
0
100
AcDbBlockBegin
  2
*Paper_Space
 70
     0
 10
0.0
 20
0.0
 30
0.0
  3
*Paper_Space
  1

  0
ENDBLK
  5
5F90
330
5F8E
100
AcDbEntity
 67
     1
  8
0
100
AcDbBlockEnd
  0
BLOCK
  5
5FE1
330
5FE0
100
AcDbEntity
  8
0
100
AcDbBlockBegin
  2
$MODEL_SPACE
 70
     0
 10
0.0
 20
0.0
 30
0.0
  3
$MODEL_SPACE
  1

  0
ENDBLK
  5
5D32
330
5FE0
100
AcDbEntity
  8
0
100
AcDbBlockEnd
  0
BLOCK
  5
5FE3
330
5FE2
100
AcDbEntity
  8
0
100
AcDbBlockBegin
  2
$PAPER_SPACE
 70
     0
 10
0.0
 20
0.0
 30
0.0
  3
$PAPER_SPACE
  1

  0
ENDBLK
  5
5D2E
330
5FE2
100
AcDbEntity
  8
0
100
AcDbBlockEnd
  0
BLOCK
  5
5FE5
330
5FE4
100
AcDbEntity
  8
0
100
AcDbBlockBegin
  2
_ORIGIN
 70
     0
 10
0.0
 20
0.0
 30
0.0
  3
_ORIGIN
  1

  0
CIRCLE
  5
880
330
5FE4
100
AcDbEntity
  8
0
  6
Continuous
 62
     7
100
AcDbCircle
 10
0.0
 20
0.0
 30
0.0
 40
0.5
  0
LINE
  5
881
330
5FE4
100
AcDbEntity
  8
0
  6
Continuous
 62
     7
100
AcDbLine
 10
0.0
 20
0.0
 30
0.0
 11
-1.0
 21
0.0
 31
0.0
  0
ENDBLK
  5
882
330
5FE4
100
AcDbEntity
  8
0
100
AcDbBlockEnd
  0
BLOCK
  5
5FE7
330
5FE6
100
AcDbEntity
  8
0
 62
     1
100
AcDbBlockBegin
  2
_DOTBLANK
 70
     0
 10
0.0
 20
0.0
 30
0.0
  3
_DOTBLANK
  1

  0
CIRCLE
  5
AB3
330
5FE6
100
AcDbEntity
  8
0
  6
ByBlock
 62
     0
100
AcDbCircle
 10
0.0
 20
0.0
 30
0.0
 40
0.5
  0
LINE
  5
AB4
330
5FE6
100
AcDbEntity
  8
0
  6
ByBlock
 62
     0
100
AcDbLine
 10
-0.5
 20
0.0
 30
0.0
 11
-1.0
 21
0.0
 31
0.0
  0
ENDBLK
  5
AB6
330
5FE6
100
AcDbEntity
  8
0
 62
     1
100
AcDbBlockEnd
  0
BLOCK
  5
5FE9
330
5FE8
100
AcDbEntity
  8
0
 62
     1
100
AcDbBlockBegin
  2
_OPEN30
 70
     0
 10
0.0
 20
0.0
 30
0.0
  3
_OPEN30
  1

  0
LINE
  5
AB8
330
5FE8
100
AcDbEntity
  8
0
  6
ByBlock
 62
     0
100
AcDbLine
 10
-1.0
 20
0.26794919
 30
0.0
 11
0.0
 21
0.0
 31
0.0
  0
LINE
  5
AB9
330
5FE8
100
AcDbEntity
  8
0
  6
ByBlock
 62
     0
100
AcDbLine
 10
0.0
 20
0.0
 30
0.0
 11
-1.0
 21
-0.26794919
 31
0.0
  0
LINE
  5
ABA
330
5FE8
100
AcDbEntity
  8
0
  6
ByBlock
 62
     0
100
AcDbLine
 10
0.0
 20
0.0
 30
0.0
 11
-1.0
 21
0.0
 31
0.0
  0
ENDBLK
  5
ABC
330
5FE8
100
AcDbEntity
  8
0
 62
     1
100
AcDbBlockEnd
  0
BLOCK
  5
5FEB
330
5FEA
100
AcDbEntity
  8
0
100
AcDbBlockBegin
  2
*D5
 70
     1
 10
0.0
 20
0.0
 30
0.0
  3
*D5
  1

  0
LINE
  5
1296
330
5FEA
100
AcDbEntity
  8
SIZE
 62
     0
100
AcDbLine
 10
-134.5
 20
-320.0
 30
0.0
 11
-134.5
 21
-468.0173952306001
 31
0.0
  0
LINE
  5
1297
330
5FEA
100
AcDbEntity
  8
SIZE
 62
     0
100
AcDbLine
 10
134.5
 20
-320.0
 30
0.0
 11
134.5
 21
-468.0173952306001
 31
0.0
  0
LINE
  5
1298
330
5FEA
100
AcDbEntity
  8
SIZE
 62
     0
100
AcDbLine
 10
-122.5
 20
-448.0173952306
 30
0.0
 11
122.5
 21
-448.0173952306
 31
0.0
  0
INSERT
  5
1299
330
5FEA
100
AcDbEntity
  8
SIZE
 62
     0
100
AcDbBlockReference
  2
_DOTBLANK
 10
-134.5
 20
-448.0173952306
 30
0.0
 41
12.0
 42
12.0
 43
12.0
 50
180.0
  0
INSERT
  5
129A
330
5FEA
100
AcDbEntity
  8
SIZE
 62
     0
100
AcDbBlockReference
  2
_DOTBLANK
 10
134.5
 20
-448.0173952306
 30
0.0
 41
12.0
 42
12.0
 43
12.0
  0
INSERT
  5
129B
330
5FEA
100
AcDbEntity
  8
0
100
AcDbBlockReference
  2
*U6
 10
0.0
 20
0.0
 30
0.0
  0
POINT
  5
129C
330
5FEA
100
AcDbEntity
  8
DEFPOINTS
 62
     0
100
AcDbPoint
 10
-134.5
 20
-300.0
 30
0.0
  0
POINT
  5
129D
330
5FEA
100
AcDbEntity
  8
DEFPOINTS
 62
     0
100
AcDbPoint
 10
134.5
 20
-300.0
 30
0.0
  0
POINT
  5
129E
330
5FEA
100
AcDbEntity
  8
DEFPOINTS
 62
     0
100
AcDbPoint
 10
134.5
 20
-448.0173952306
 30
0.0
  0
ENDBLK
  5
D72
330
5FEA
100
AcDbEntity
  8
0
100
AcDbBlockEnd
  0
BLOCK
  5
5FED
330
5FEC
100
AcDbEntity
  8
0
100
AcDbBlockBegin
  2
*U6
 70
     1
 10
0.0
 20
0.0
 30
0.0
  3
*U6
  1

  0
TEXT
  5
1EF5
330
5FEC
100
AcDbEntity
  8
SIZE
 62
     0
100
AcDbText
 10
-72.68571428571426
 20
-438.0173952305999
 30
0.0
 40
64.0
  1
269
 41
0.9
100
AcDbText
  0
ENDBLK
  5
1EF7
330
5FEC
100
AcDbEntity
  8
0
100
AcDbBlockEnd
  0
BLOCK
  5
5FEF
330
5FEE
100
AcDbEntity
  8
0
100
AcDbBlockBegin
  2
*D7
 70
     1
 10
0.0
 20
0.0
 30
0.0
  3
*D7
  1

  0
LINE
  5
11A7
330
5FEE
100
AcDbEntity
  8
SIZE
  6
Continuous
 62
     0
100
AcDbLine
 10
143.5
 20
-300.0
 30
0.0
 11
304.6432844803791
 21
-300.0
 31
0.0
  0
LINE
  5
11A8
330
5FEE
100
AcDbEntity
  8
SIZE
  6
Continuous
 62
     0
100
AcDbLine
 10
177.5
 20
-0.0000000000000057
 30
0.0
 11
304.6432844803792
 21
-0.0000000000000417
 31
0.0
  0
LINE
  5
11A9
330
5FEE
100
AcDbEntity
  8
SIZE
  6
Continuous
 62
     0
100
AcDbLine
 10
284.6432844803791
 20
-288.0000000000001
 30
0.0
 11
284.6432844803792
 21
-12.00000000000003
 31
0.0
  0
INSERT
  5
11AA
330
5FEE
100
AcDbEntity
  8
SIZE
  6
Continuous
 62
     0
100
AcDbBlockReference
  2
_DOTBLANK
 10
284.6432844803791
 20
-300.0
 30
0.0
 41
12.0
 42
12.0
 43
12.0
 50
270.0
  0
INSERT
  5
11AB
330
5FEE
100
AcDbEntity
  8
SIZE
  6
Continuous
 62
     0
100
AcDbBlockReference
  2
_DOTBLANK
 10
284.6432844803792
 20
-0.000000000000036
 30
0.0
 41
12.0
 42
12.0
 43
12.0
 50
90.0
  0
INSERT
  5
11AC
330
5FEE
100
AcDbEntity
  8
0
100
AcDbBlockReference
  2
*U8
 10
0.0
 20
0.0
 30
0.0
  0
POINT
  5
11AD
330
5FEE
100
AcDbEntity
  8
DEFPOINTS
  6
Continuous
 62
     0
100
AcDbPoint
 10
123.5
 20
-300.0
 30
0.0
  0
POINT
  5
11AE
330
5FEE
100
AcDbEntity
  8
DEFPOINTS
  6
Continuous
 62
     0
100
AcDbPoint
 10
157.5
 20
0.0
 30
0.0
  0
POINT
  5
11AF
330
5FEE
100
AcDbEntity
  8
DEFPOINTS
  6
Continuous
 62
     0
100
AcDbPoint
 10
284.6432844803792
 20
-0.000000000000036
 30
0.0
  0
ENDBLK
  5
E11
330
5FEE
100
AcDbEntity
  8
0
100
AcDbBlockEnd
  0
BLOCK
  5
5FF1
330
5FF0
100
AcDbEntity
  8
0
100
AcDbBlockBegin
  2
*U8
 70
     1
 10
0.0
 20
0.0
 30
0.0
  3
*U8
  1

  0
TEXT
  5
1EE1
330
5FF0
100
AcDbEntity
  8
SIZE
 62
     0
100
AcDbText
 10
274.6432844803792
 20
-224.0571428571429
 30
0.0
 40
64.0
  1
300
 50
90.0
 41
0.9
100
AcDbText
  0
ENDBLK
  5
1EE3
330
5FF0
100
AcDbEntity
  8
0
100
AcDbBlockEnd
  0
BLOCK
  5
5FF3
330
5FF2
100
AcDbEntity
  8
0
100
AcDbBlockBegin
  2
*D9
 70
     1
 10
0.0
 20
0.0
 30
0.0
  3
*D9
  1

  0
LINE
  5
E7D
330
5FF2
100
AcDbEntity
  8
SIZE
 62
     0
100
AcDbLine
 10
-139.9999999999998
 20
32.46448280219375
 30
0.0
 11
-139.9999999999998
 21
136.4516878685508
 31
0.0
  0
LINE
  5
E7E
330
5FF2
100
AcDbEntity
  8
SIZE
 62
     0
100
AcDbLine
 10
140.0
 20
32.46448280219375
 30
0.0
 11
140.0
 21
136.4516878685508
 31
0.0
  0
LINE
  5
E7F
330
5FF2
100
AcDbEntity
  8
SIZE
 62
     0
100
AcDbLine
 10
-128.0
 20
116.4516878685508
 30
0.0
 11
128.0
 21
116.4516878685508
 31
0.0
  0
INSERT
  5
E80
330
5FF2
100
AcDbEntity
  8
SIZE
 62
     0
100
AcDbBlockReference
  2
_DOTBLANK
 10
-139.9999999999998
 20
116.4516878685508
 30
0.0
 41
12.0
 42
12.0
 43
12.0
 50
180.0
  0
INSERT
  5
E81
330
5FF2
100
AcDbEntity
  8
SIZE
 62
     0
100
AcDbBlockReference
  2
_DOTBLANK
 10
140.0
 20
116.4516878685508
 30
0.0
 41
12.0
 42
12.0
 43
12.0
  0
INSERT
  5
E82
330
5FF2
100
AcDbEntity
  8
0
100
AcDbBlockReference
  2
*U10
 10
0.0
 20
0.0
 30
0.0
  0
POINT
  5
E83
330
5FF2
100
AcDbEntity
  8
DEFPOINTS
 62
     0
100
AcDbPoint
 10
-139.9999999999998
 20
12.46448280219374
 30
0.0
  0
POINT
  5
E84
330
5FF2
100
AcDbEntity
  8
DEFPOINTS
 62
     0
100
AcDbPoint
 10
140.0
 20
12.46448280219374
 30
0.0
  0
POINT
  5
E85
330
5FF2
100
AcDbEntity
  8
DEFPOINTS
 62
     0
100
AcDbPoint
 10
140.0
 20
116.4516878685508
 30
0.0
  0
ENDBLK
  5
E7C
330
5FF2
100
AcDbEntity
  8
0
100
AcDbBlockEnd
  0
BLOCK
  5
5FF5
330
5FF4
100
AcDbEntity
  8
0
100
AcDbBlockBegin
  2
*U10
 70
     1
 10
0.0
 20
0.0
 30
0.0
  3
*U10
  1

  0
TEXT
  5
1ED8
330
5FF4
100
AcDbEntity
  8
SIZE
 62
     0
100
AcDbText
 10
-74.05714285714281
 20
126.4516878685508
 30
0.0
 40
64.0
  1
280
 41
0.9
100
AcDbText
  0
ENDBLK
  5
1EDA
330
5FF4
100
AcDbEntity
  8
0
100
AcDbBlockEnd
  0
BLOCK
  5
5FF7
330
5FF6
100
AcDbEntity
  8
0
100
AcDbBlockBegin
  2
GENAXEH
 70
     0
 10
0.0
 20
0.0
 30
0.0
  3
GENAXEH
  1

  0
LINE
  5
FDB
330
5FF6
100
AcDbEntity
  8
0
100
AcDbLine
 10
-1.0
 20
0.0
 30
0.0
 11
1.0
 21
0.0
 31
0.0
  0
ENDBLK
  5
FDD
330
5FF6
100
AcDbEntity
  8
0
100
AcDbBlockEnd
  0
BLOCK
  5
5FF9
330
5FF8
100
AcDbEntity
  8
0
100
AcDbBlockBegin
  2
*D12
 70
     1
 10
0.0
 20
0.0
 30
0.0
  3
*D12
  1

  0
LINE
  5
1120
330
5FF8
100
AcDbEntity
  8
SIZE
 62
     0
100
AcDbLine
 10
-157.5
 20
20.0
 30
0.0
 11
-157.5
 21
245.5794621189598
 31
0.0
  0
LINE
  5
1121
330
5FF8
100
AcDbEntity
  8
SIZE
 62
     0
100
AcDbLine
 10
157.5
 20
20.0
 30
0.0
 11
157.5
 21
245.5794621189598
 31
0.0
  0
LINE
  5
1122
330
5FF8
100
AcDbEntity
  8
SIZE
 62
     0
100
AcDbLine
 10
-145.5
 20
225.5794621189598
 30
0.0
 11
145.5
 21
225.5794621189598
 31
0.0
  0
INSERT
  5
1123
330
5FF8
100
AcDbEntity
  8
SIZE
 62
     0
100
AcDbBlockReference
  2
_DOTBLANK
 10
-157.5
 20
225.5794621189598
 30
0.0
 41
12.0
 42
12.0
 43
12.0
 50
180.0
  0
INSERT
  5
1124
330
5FF8
100
AcDbEntity
  8
SIZE
 62
     0
100
AcDbBlockReference
  2
_DOTBLANK
 10
157.5
 20
225.5794621189598
 30
0.0
 41
12.0
 42
12.0
 43
12.0
  0
INSERT
  5
1125
330
5FF8
100
AcDbEntity
  8
0
100
AcDbBlockReference
  2
*U13
 10
0.0
 20
0.0
 30
0.0
  0
POINT
  5
1126
330
5FF8
100
AcDbEntity
  8
DEFPOINTS
 62
     0
100
AcDbPoint
 10
-157.5
 20
0.0
 30
0.0
  0
POINT
  5
1127
330
5FF8
100
AcDbEntity
  8
DEFPOINTS
 62
     0
100
AcDbPoint
 10
157.5
 20
0.0
 30
0.0
  0
POINT
  5
1128
330
5FF8
100
AcDbEntity
  8
DEFPOINTS
 62
     0
100
AcDbPoint
 10
157.5
 20
225.5794621189598
 30
0.0
  0
ENDBLK
  5
111F
330
5FF8
100
AcDbEntity
  8
0
100
AcDbBlockEnd
  0
BLOCK
  5
5FFB
330
5FFA
100
AcDbEntity
  8
0
100
AcDbBlockBegin
  2
*U13
 70
     1
 10
0.0
 20
0.0
 30
0.0
  3
*U13
  1

  0
TEXT
  5
1EDD
330
5FFA
100
AcDbEntity
  8
SIZE
 62
     0
100
AcDbText
 10
-68.57142857142857
 20
235.5794621189599
 30
0.0
 40
64.0
  1
315
 41
0.9
100
AcDbText
  0
ENDBLK
  5
1EDF
330
5FFA
100
AcDbEntity
  8
0
100
AcDbBlockEnd
  0
BLOCK
  5
5FFD
330
5FFC
100
AcDbEntity
  8
0
100
AcDbBlockBegin
  2
*D14
 70
     1
 10
0.0
 20
0.0
 30
0.0
  3
*D14
  1

  0
LINE
  5
11BD
330
5FFC
100
AcDbEntity
  8
NOTE
 62
     0
100
AcDbLine
 10
-123.4999999999999
 20
-320.0
 30
0.0
 11
-123.4999999999999
 21
-354.9529861856111
 31
0.0
  0
LINE
  5
11BE
330
5FFC
100
AcDbEntity
  8
NOTE
 62
     0
100
AcDbLine
 10
-133.4999999999998
 20
-331.2126909923287
 30
0.0
 11
-133.4999999999998
 21
-354.9529861856111
 31
0.0
  0
LINE
  5
11BF
330
5FFC
100
AcDbEntity
  8
NOTE
 62
     0
100
AcDbLine
 10
-111.4999999999999
 20
-334.9529861856112
 30
0.0
 11
-99.4999999999999
 21
-334.9529861856112
 31
0.0
  0
LINE
  5
11C0
330
5FFC
100
AcDbEntity
  8
NOTE
 62
     0
100
AcDbLine
 10
-145.4999999999998
 20
-334.9529861856112
 30
0.0
 11
-157.4999999999998
 21
-334.9529861856112
 31
0.0
  0
LINE
  5
11C1
330
5FFC
100
AcDbEntity
  8
NOTE
 62
     0
100
AcDbLine
 10
-123.4999999999999
 20
-334.9529861856112
 30
0.0
 11
-133.4999999999998
 21
-334.9529861856112
 31
0.0
  0
INSERT
  5
11C2
330
5FFC
100
AcDbEntity
  8
NOTE
 62
     0
100
AcDbBlockReference
  2
_DOTBLANK
 10
-123.4999999999999
 20
-334.9529861856112
 30
0.0
 41
12.0
 42
12.0
 43
12.0
 50
180.0
  0
INSERT
  5
11C3
330
5FFC
100
AcDbEntity
  8
NOTE
 62
     0
100
AcDbBlockReference
  2
_DOTBLANK
 10
-133.4999999999998
 20
-334.9529861856112
 30
0.0
 41
12.0
 42
12.0
 43
12.0
  0
INSERT
  5
11C4
330
5FFC
100
AcDbEntity
  8
0
100
AcDbBlockReference
  2
*U15
 10
0.0
 20
0.0
 30
0.0
  0
POINT
  5
11C5
330
5FFC
100
AcDbEntity
  8
DEFPOINTS
 62
     0
100
AcDbPoint
 10
-123.4999999999999
 20
-300.0
 30
0.0
  0
POINT
  5
11C6
330
5FFC
100
AcDbEntity
  8
DEFPOINTS
 62
     0
100
AcDbPoint
 10
-133.4999999999998
 20
-311.2126909923287
 30
0.0
  0
POINT
  5
11C7
330
5FFC
100
AcDbEntity
  8
DEFPOINTS
 62
     0
100
AcDbPoint
 10
-133.4999999999998
 20
-334.9529861856112
 30
0.0
  0
ENDBLK
  5
11BC
330
5FFC
100
AcDbEntity
  8
0
100
AcDbBlockEnd
  0
BLOCK
  5
5FFF
330
5FFE
100
AcDbEntity
  8
0
100
AcDbBlockBegin
  2
*U15
 70
     1
 10
0.0
 20
0.0
 30
0.0
  3
*U15
  1

  0
TEXT
  5
1EE5
330
5FFE
100
AcDbEntity
  8
NOTE
 62
     0
100
AcDbText
 10
-169.642857142857
 20
-324.9529861856112
 30
0.0
 40
64.0
  1
10
 41
0.9
100
AcDbText
  0
ENDBLK
  5
1EE7
330
5FFE
100
AcDbEntity
  8
0
100
AcDbBlockEnd
  0
BLOCK
  5
6001
330
6000
100
AcDbEntity
  8
0
100
AcDbBlockBegin
  2
*D16
 70
     1
 10
0.0
 20
0.0
 30
0.0
  3
*D16
  1

  0
LINE
  5
11E7
330
6000
100
AcDbEntity
  8
NOTE
 62
     0
100
AcDbLine
 10
-135.5
 20
-333.2126909923287
 30
0.0
 11
-135.5
 21
-386.2569421441843
 31
0.0
  0
LINE
  5
11E8
330
6000
100
AcDbEntity
  8
NOTE
 62
     0
100
AcDbLine
 10
-123.4999999999999
 20
-320.0
 30
0.0
 11
-123.4999999999999
 21
-386.2569421441843
 31
0.0
  0
LINE
  5
11E9
330
6000
100
AcDbEntity
  8
NOTE
 62
     0
100
AcDbLine
 10
-147.5
 20
-366.2569421441844
 30
0.0
 11
-159.5
 21
-366.2569421441844
 31
0.0
  0
LINE
  5
11EA
330
6000
100
AcDbEntity
  8
NOTE
 62
     0
100
AcDbLine
 10
-111.4999999999999
 20
-366.2569421441844
 30
0.0
 11
-99.4999999999999
 21
-366.2569421441844
 31
0.0
  0
LINE
  5
11EB
330
6000
100
AcDbEntity
  8
NOTE
 62
     0
100
AcDbLine
 10
-135.5
 20
-366.2569421441844
 30
0.0
 11
-123.4999999999999
 21
-366.2569421441844
 31
0.0
  0
INSERT
  5
11EC
330
6000
100
AcDbEntity
  8
NOTE
 62
     0
100
AcDbBlockReference
  2
_DOTBLANK
 10
-135.5
 20
-366.2569421441844
 30
0.0
 41
12.0
 42
12.0
 43
12.0
  0
INSERT
  5
11ED
330
6000
100
AcDbEntity
  8
NOTE
 62
     0
100
AcDbBlockReference
  2
_DOTBLANK
 10
-123.4999999999999
 20
-366.2569421441844
 30
0.0
 41
12.0
 42
12.0
 43
12.0
 50
180.0
  0
INSERT
  5
11EE
330
6000
100
AcDbEntity
  8
0
100
AcDbBlockReference
  2
*U17
 10
0.0
 20
0.0
 30
0.0
  0
POINT
  5
11EF
330
6000
100
AcDbEntity
  8
DEFPOINTS
 62
     0
100
AcDbPoint
 10
-135.5
 20
-313.2126909923287
 30
0.0
  0
POINT
  5
11F0
330
6000
100
AcDbEntity
  8
DEFPOINTS
 62
     0
100
AcDbPoint
 10
-123.4999999999999
 20
-300.0
 30
0.0
  0
POINT
  5
11F1
330
6000
100
AcDbEntity
  8
DEFPOINTS
 62
     0
100
AcDbPoint
 10
-123.4999999999999
 20
-366.2569421441844
 30
0.0
  0
ENDBLK
  5
11E6
330
6000
100
AcDbEntity
  8
0
100
AcDbBlockEnd
  0
BLOCK
  5
6003
330
6002
100
AcDbEntity
  8
0
100
AcDbBlockBegin
  2
*U17
 70
     1
 10
0.0
 20
0.0
 30
0.0
  3
*U17
  1

  0
TEXT
  5
1EE9
330
6002
100
AcDbEntity
  8
NOTE
 62
     0
100
AcDbText
 10
-170.642857142857
 20
-356.2569421441843
 30
0.0
 40
64.0
  1
12
 41
0.9
100
AcDbText
  0
ENDBLK
  5
1EEB
330
6002
100
AcDbEntity
  8
0
100
AcDbBlockEnd
  0
BLOCK
  5
6005
330
6004
100
AcDbEntity
  8
0
100
AcDbBlockBegin
  2
*D18
 70
     1
 10
0.0
 20
0.0
 30
0.0
  3
*D18
  1

  0
LINE
  5
11F6
330
6004
100
AcDbEntity
  8
NOTE
 62
     0
100
AcDbLine
 10
-123.4999999999999
 20
-320.0
 30
0.0
 11
-123.4999999999999
 21
-583.8286022818904
 31
0.0
  0
LINE
  5
11F7
330
6004
100
AcDbEntity
  8
NOTE
 62
     0
100
AcDbLine
 10
123.5
 20
-320.0
 30
0.0
 11
123.5
 21
-583.8286022818904
 31
0.0
  0
LINE
  5
11F8
330
6004
100
AcDbEntity
  8
NOTE
 62
     0
100
AcDbLine
 10
-111.4999999999999
 20
-563.8286022818904
 30
0.0
 11
111.5
 21
-563.8286022818904
 31
0.0
  0
INSERT
  5
11F9
330
6004
100
AcDbEntity
  8
NOTE
 62
     0
100
AcDbBlockReference
  2
_DOTBLANK
 10
-123.4999999999999
 20
-563.8286022818904
 30
0.0
 41
12.0
 42
12.0
 43
12.0
 50
180.0
  0
INSERT
  5
11FA
330
6004
100
AcDbEntity
  8
NOTE
 62
     0
100
AcDbBlockReference
  2
_DOTBLANK
 10
123.5
 20
-563.8286022818904
 30
0.0
 41
12.0
 42
12.0
 43
12.0
  0
INSERT
  5
11FB
330
6004
100
AcDbEntity
  8
0
100
AcDbBlockReference
  2
*U19
 10
0.0
 20
0.0
 30
0.0
  0
POINT
  5
11FC
330
6004
100
AcDbEntity
  8
DEFPOINTS
 62
     0
100
AcDbPoint
 10
-123.4999999999999
 20
-300.0
 30
0.0
  0
POINT
  5
11FD
330
6004
100
AcDbEntity
  8
DEFPOINTS
 62
     0
100
AcDbPoint
 10
123.5
 20
-300.0
 30
0.0
  0
POINT
  5
11FE
330
6004
100
AcDbEntity
  8
DEFPOINTS
 62
     0
100
AcDbPoint
 10
123.5
 20
-563.8286022818904
 30
0.0
  0
ENDBLK
  5
11F5
330
6004
100
AcDbEntity
  8
0
100
AcDbBlockEnd
  0
BLOCK
  5
6007
330
6006
100
AcDbEntity
  8
0
100
AcDbBlockBegin
  2
*U19
 70
     1
 10
0.0
 20
0.0
 30
0.0
  3
*U19
  1

  0
TEXT
  5
1EED
330
6006
100
AcDbEntity
  8
NOTE
 62
     0
100
AcDbText
 10
-74.05714285714281
 20
-553.8286022818904
 30
0.0
 40
64.0
  1
247
 41
0.9
100
AcDbText
  0
ENDBLK
  5
1EEF
330
6006
100
AcDbEntity
  8
0
100
AcDbBlockEnd
  0
BLOCK
  5
6009
330
6008
100
AcDbEntity
  8
0
100
AcDbBlockBegin
  2
*D20
 70
     1
 10
0.0
 20
0.0
 30
0.0
  3
*D20
  1

  0
LINE
  5
1284
330
6008
100
AcDbEntity
  8
NOTE
 62
     0
100
AcDbLine
 10
-123.5
 20
12.0
 30
0.0
 11
-123.5
 21
71.83630134534229
 31
0.0
  0
LINE
  5
1285
330
6008
100
AcDbEntity
  8
NOTE
 62
     0
100
AcDbLine
 10
123.5
 20
12.0
 30
0.0
 11
123.5
 21
71.83630134534229
 31
0.0
  0
LINE
  5
1286
330
6008
100
AcDbEntity
  8
NOTE
 62
     0
100
AcDbLine
 10
-111.5
 20
51.83630134534229
 30
0.0
 11
111.5
 21
51.83630134534229
 31
0.0
  0
INSERT
  5
1287
330
6008
100
AcDbEntity
  8
NOTE
 62
     0
100
AcDbBlockReference
  2
_DOTBLANK
 10
-123.5
 20
51.83630134534229
 30
0.0
 41
12.0
 42
12.0
 43
12.0
 50
180.0
  0
INSERT
  5
1288
330
6008
100
AcDbEntity
  8
NOTE
 62
     0
100
AcDbBlockReference
  2
_DOTBLANK
 10
123.5
 20
51.83630134534229
 30
0.0
 41
12.0
 42
12.0
 43
12.0
  0
INSERT
  5
1289
330
6008
100
AcDbEntity
  8
0
100
AcDbBlockReference
  2
*U21
 10
0.0
 20
0.0
 30
0.0
  0
POINT
  5
128A
330
6008
100
AcDbEntity
  8
DEFPOINTS
 62
     0
100
AcDbPoint
 10
-123.5
 20
-8.0
 30
0.0
  0
POINT
  5
128B
330
6008
100
AcDbEntity
  8
DEFPOINTS
 62
     0
100
AcDbPoint
 10
123.5
 20
-8.0
 30
0.0
  0
POINT
  5
128C
330
6008
100
AcDbEntity
  8
DEFPOINTS
 62
     0
100
AcDbPoint
 10
123.5
 20
51.83630134534229
 30
0.0
  0
ENDBLK
  5
1283
330
6008
100
AcDbEntity
  8
0
100
AcDbBlockEnd
  0
BLOCK
  5
600B
330
600A
100
AcDbEntity
  8
0
100
AcDbBlockBegin
  2
*U21
 70
     1
 10
0.0
 20
0.0
 30
0.0
  3
*U21
  1

  0
TEXT
  5
1EF1
330
600A
100
AcDbEntity
  8
NOTE
 62
     0
100
AcDbText
 10
-74.05714285714283
 20
61.83630134534229
 30
0.0
 40
64.0
  1
247
 41
0.9
100
AcDbText
  0
ENDBLK
  5
1EF3
330
600A
100
AcDbEntity
  8
0
100
AcDbBlockEnd
  0
BLOCK
  5
600D
330
600C
100
AcDbEntity
  8
0
100
AcDbBlockBegin
  2
*D22
 70
     1
 10
0.0
 20
0.0
 30
0.0
  3
*D22
  1

  0
LINE
  5
1414
330
600C
100
AcDbEntity
  8
SIZE
 62
     0
100
AcDbLine
 10
-22313.11521613997
 20
7365.702971374808
 30
0.0
 11
-22313.11521613997
 21
7217.685576144207
 31
0.0
  0
LINE
  5
1415
330
600C
100
AcDbEntity
  8
SIZE
 62
     0
100
AcDbLine
 10
-22044.11521613997
 20
7365.702971374808
 30
0.0
 11
-22044.11521613997
 21
7217.685576144207
 31
0.0
  0
LINE
  5
1416
330
600C
100
AcDbEntity
  8
SIZE
 62
     0
100
AcDbLine
 10
-22301.11521613997
 20
7237.685576144207
 30
0.0
 11
-22056.11521613997
 21
7237.685576144207
 31
0.0
  0
INSERT
  5
1417
330
600C
100
AcDbEntity
  8
SIZE
 62
     0
100
AcDbBlockReference
  2
_DOTBLANK
 10
-22313.11521613997
 20
7237.685576144207
 30
0.0
 41
12.0
 42
12.0
 43
12.0
 50
180.0
  0
INSERT
  5
1418
330
600C
100
AcDbEntity
  8
SIZE
 62
     0
100
AcDbBlockReference
  2
_DOTBLANK
 10
-22044.11521613997
 20
7237.685576144207
 30
0.0
 41
12.0
 42
12.0
 43
12.0
  0
INSERT
  5
1419
330
600C
100
AcDbEntity
  8
0
100
AcDbBlockReference
  2
*U23
 10
0.0
 20
0.0
 30
0.0
  0
POINT
  5
141A
330
600C
100
AcDbEntity
  8
DEFPOINTS
 62
     0
100
AcDbPoint
 10
-22313.11521613997
 20
7385.702971374808
 30
0.0
  0
POINT
  5
141B
330
600C
100
AcDbEntity
  8
DEFPOINTS
 62
     0
100
AcDbPoint
 10
-22044.11521613997
 20
7385.702971374808
 30
0.0
  0
POINT
  5
141C
330
600C
100
AcDbEntity
  8
DEFPOINTS
 62
     0
100
AcDbPoint
 10
-22044.11521613997
 20
7237.685576144207
 30
0.0
  0
ENDBLK
  5
141D
330
600C
100
AcDbEntity
  8
0
100
AcDbBlockEnd
  0
BLOCK
  5
600F
330
600E
100
AcDbEntity
  8
0
100
AcDbBlockBegin
  2
*U23
 70
     1
 10
0.0
 20
0.0
 30
0.0
  3
*U23
  1

  0
TEXT
  5
1EF9
330
600E
100
AcDbEntity
  8
SIZE
 62
     0
100
AcDbText
 10
-22251.30093042568
 20
7247.685576144205
 30
0.0
 40
64.0
  1
269
 41
0.9
100
AcDbText
  0
ENDBLK
  5
1EFB
330
600E
100
AcDbEntity
  8
0
100
AcDbBlockEnd
  0
BLOCK
  5
6011
330
6010
100
AcDbEntity
  8
0
100
AcDbBlockBegin
  2
*D24
 70
     1
 10
0.0
 20
0.0
 30
0.0
  3
*D24
  1

  0
LINE
  5
1420
330
6010
100
AcDbEntity
  8
SIZE
  6
Continuous
 62
     0
100
AcDbLine
 10
-22035.11521613997
 20
7385.702971374808
 30
0.0
 11
-21873.97193165959
 21
7385.702971374808
 31
0.0
  0
LINE
  5
1421
330
6010
100
AcDbEntity
  8
SIZE
  6
Continuous
 62
     0
100
AcDbLine
 10
-22001.11521613997
 20
7685.702971374808
 30
0.0
 11
-21873.97193165959
 21
7685.702971374808
 31
0.0
  0
LINE
  5
1422
330
6010
100
AcDbEntity
  8
SIZE
  6
Continuous
 62
     0
100
AcDbLine
 10
-21893.97193165959
 20
7397.702971374808
 30
0.0
 11
-21893.97193165959
 21
7673.702971374808
 31
0.0
  0
INSERT
  5
1423
330
6010
100
AcDbEntity
  8
SIZE
  6
Continuous
 62
     0
100
AcDbBlockReference
  2
_DOTBLANK
 10
-21893.97193165959
 20
7385.702971374808
 30
0.0
 41
12.0
 42
12.0
 43
12.0
 50
270.0
  0
INSERT
  5
1424
330
6010
100
AcDbEntity
  8
SIZE
  6
Continuous
 62
     0
100
AcDbBlockReference
  2
_DOTBLANK
 10
-21893.97193165959
 20
7685.702971374808
 30
0.0
 41
12.0
 42
12.0
 43
12.0
 50
90.0
  0
INSERT
  5
1425
330
6010
100
AcDbEntity
  8
0
100
AcDbBlockReference
  2
*U25
 10
0.0
 20
0.0
 30
0.0
  0
POINT
  5
1426
330
6010
100
AcDbEntity
  8
DEFPOINTS
  6
Continuous
 62
     0
100
AcDbPoint
 10
-22055.11521613997
 20
7385.702971374808
 30
0.0
  0
POINT
  5
1427
330
6010
100
AcDbEntity
  8
DEFPOINTS
  6
Continuous
 62
     0
100
AcDbPoint
 10
-22021.11521613997
 20
7685.702971374808
 30
0.0
  0
POINT
  5
1428
330
6010
100
AcDbEntity
  8
DEFPOINTS
  6
Continuous
 62
     0
100
AcDbPoint
 10
-21893.97193165959
 20
7685.702971374808
 30
0.0
  0
ENDBLK
  5
1429
330
6010
100
AcDbEntity
  8
0
100
AcDbBlockEnd
  0
BLOCK
  5
6013
330
6012
100
AcDbEntity
  8
0
100
AcDbBlockBegin
  2
*U25
 70
     1
 10
0.0
 20
0.0
 30
0.0
  3
*U25
  1

  0
TEXT
  5
1EFD
330
6012
100
AcDbEntity
  8
SIZE
 62
     0
100
AcDbText
 10
-21903.97193165959
 20
7461.645828517662
 30
0.0
 40
64.0
  1
300
 50
90.0
 41
0.9
100
AcDbText
  0
ENDBLK
  5
1EFF
330
6012
100
AcDbEntity
  8
0
100
AcDbBlockEnd
  0
BLOCK
  5
6015
330
6014
100
AcDbEntity
  8
0
100
AcDbBlockBegin
  2
*D26
 70
     1
 10
0.0
 20
0.0
 30
0.0
  3
*D26
  1

  0
LINE
  5
142C
330
6014
100
AcDbEntity
  8
SIZE
 62
     0
100
AcDbLine
 10
-22318.61521613997
 20
7718.167454177002
 30
0.0
 11
-22318.61521613997
 21
7822.154659243358
 31
0.0
  0
LINE
  5
142D
330
6014
100
AcDbEntity
  8
SIZE
 62
     0
100
AcDbLine
 10
-22038.61521613997
 20
7718.167454177002
 30
0.0
 11
-22038.61521613997
 21
7822.154659243358
 31
0.0
  0
LINE
  5
142E
330
6014
100
AcDbEntity
  8
SIZE
 62
     0
100
AcDbLine
 10
-22306.61521613997
 20
7802.154659243358
 30
0.0
 11
-22050.61521613997
 21
7802.154659243358
 31
0.0
  0
INSERT
  5
142F
330
6014
100
AcDbEntity
  8
SIZE
 62
     0
100
AcDbBlockReference
  2
_DOTBLANK
 10
-22318.61521613997
 20
7802.154659243358
 30
0.0
 41
12.0
 42
12.0
 43
12.0
 50
180.0
  0
INSERT
  5
1430
330
6014
100
AcDbEntity
  8
SIZE
 62
     0
100
AcDbBlockReference
  2
_DOTBLANK
 10
-22038.61521613997
 20
7802.154659243358
 30
0.0
 41
12.0
 42
12.0
 43
12.0
  0
INSERT
  5
1431
330
6014
100
AcDbEntity
  8
0
100
AcDbBlockReference
  2
*U27
 10
0.0
 20
0.0
 30
0.0
  0
POINT
  5
1432
330
6014
100
AcDbEntity
  8
DEFPOINTS
 62
     0
100
AcDbPoint
 10
-22318.61521613997
 20
7698.167454177002
 30
0.0
  0
POINT
  5
1433
330
6014
100
AcDbEntity
  8
DEFPOINTS
 62
     0
100
AcDbPoint
 10
-22038.61521613997
 20
7698.167454177002
 30
0.0
  0
POINT
  5
1434
330
6014
100
AcDbEntity
  8
DEFPOINTS
 62
     0
100
AcDbPoint
 10
-22038.61521613997
 20
7802.154659243358
 30
0.0
  0
ENDBLK
  5
1435
330
6014
100
AcDbEntity
  8
0
100
AcDbBlockEnd
  0
BLOCK
  5
6017
330
6016
100
AcDbEntity
  8
0
100
AcDbBlockBegin
  2
*U27
 70
     1
 10
0.0
 20
0.0
 30
0.0
  3
*U27
  1

  0
TEXT
  5
1F01
330
6016
100
AcDbEntity
  8
SIZE
 62
     0
100
AcDbText
 10
-22252.6723589971
 20
7812.154659243358
 30
0.0
 40
64.0
  1
280
 41
0.9
100
AcDbText
  0
ENDBLK
  5
1F03
330
6016
100
AcDbEntity
  8
0
100
AcDbBlockEnd
  0
BLOCK
  5
6019
330
6018
100
AcDbEntity
  8
0
100
AcDbBlockBegin
  2
*D28
 70
     1
 10
0.0
 20
0.0
 30
0.0
  3
*D28
  1

  0
LINE
  5
1438
330
6018
100
AcDbEntity
  8
SIZE
 62
     0
100
AcDbLine
 10
-22336.11521613997
 20
7705.702971374808
 30
0.0
 11
-22336.11521613997
 21
7931.282433493766
 31
0.0
  0
LINE
  5
1439
330
6018
100
AcDbEntity
  8
SIZE
 62
     0
100
AcDbLine
 10
-22021.11521613997
 20
7705.702971374808
 30
0.0
 11
-22021.11521613997
 21
7931.282433493766
 31
0.0
  0
LINE
  5
143A
330
6018
100
AcDbEntity
  8
SIZE
 62
     0
100
AcDbLine
 10
-22324.11521613997
 20
7911.282433493766
 30
0.0
 11
-22033.11521613997
 21
7911.282433493766
 31
0.0
  0
INSERT
  5
143B
330
6018
100
AcDbEntity
  8
SIZE
 62
     0
100
AcDbBlockReference
  2
_DOTBLANK
 10
-22336.11521613997
 20
7911.282433493766
 30
0.0
 41
12.0
 42
12.0
 43
12.0
 50
180.0
  0
INSERT
  5
143C
330
6018
100
AcDbEntity
  8
SIZE
 62
     0
100
AcDbBlockReference
  2
_DOTBLANK
 10
-22021.11521613997
 20
7911.282433493766
 30
0.0
 41
12.0
 42
12.0
 43
12.0
  0
INSERT
  5
143D
330
6018
100
AcDbEntity
  8
0
100
AcDbBlockReference
  2
*U29
 10
0.0
 20
0.0
 30
0.0
  0
POINT
  5
143E
330
6018
100
AcDbEntity
  8
DEFPOINTS
 62
     0
100
AcDbPoint
 10
-22336.11521613997
 20
7685.702971374808
 30
0.0
  0
POINT
  5
143F
330
6018
100
AcDbEntity
  8
DEFPOINTS
 62
     0
100
AcDbPoint
 10
-22021.11521613997
 20
7685.702971374808
 30
0.0
  0
POINT
  5
1440
330
6018
100
AcDbEntity
  8
DEFPOINTS
 62
     0
100
AcDbPoint
 10
-22021.11521613997
 20
7911.282433493766
 30
0.0
  0
ENDBLK
  5
1441
330
6018
100
AcDbEntity
  8
0
100
AcDbBlockEnd
  0
BLOCK
  5
601B
330
601A
100
AcDbEntity
  8
0
100
AcDbBlockBegin
  2
*U29
 70
     1
 10
0.0
 20
0.0
 30
0.0
  3
*U29
  1

  0
TEXT
  5
1F05
330
601A
100
AcDbEntity
  8
SIZE
 62
     0
100
AcDbText
 10
-22247.18664471139
 20
7921.282433493766
 30
0.0
 40
64.0
  1
315
 41
0.9
100
AcDbText
  0
ENDBLK
  5
1F07
330
601A
100
AcDbEntity
  8
0
100
AcDbBlockEnd
  0
BLOCK
  5
601D
330
601C
100
AcDbEntity
  8
0
100
AcDbBlockBegin
  2
*D30
 70
     1
 10
0.0
 20
0.0
 30
0.0
  3
*D30
  1

  0
LINE
  5
166B
330
601C
100
AcDbEntity
  8
SIZE
 62
     0
100
AcDbLine
 10
-134.5
 20
-320.0
 30
0.0
 11
-134.5
 21
-468.0173952306001
 31
0.0
  0
LINE
  5
166C
330
601C
100
AcDbEntity
  8
SIZE
 62
     0
100
AcDbLine
 10
134.5
 20
-320.0
 30
0.0
 11
134.5
 21
-468.0173952306001
 31
0.0
  0
LINE
  5
166D
330
601C
100
AcDbEntity
  8
SIZE
 62
     0
100
AcDbLine
 10
-122.5
 20
-448.0173952306
 30
0.0
 11
122.5
 21
-448.0173952306
 31
0.0
  0
INSERT
  5
166E
330
601C
100
AcDbEntity
  8
SIZE
 62
     0
100
AcDbBlockReference
  2
_DOTBLANK
 10
-134.5
 20
-448.0173952306
 30
0.0
 41
12.0
 42
12.0
 43
12.0
 50
180.0
  0
INSERT
  5
166F
330
601C
100
AcDbEntity
  8
SIZE
 62
     0
100
AcDbBlockReference
  2
_DOTBLANK
 10
134.5
 20
-448.0173952306
 30
0.0
 41
12.0
 42
12.0
 43
12.0
  0
INSERT
  5
1670
330
601C
100
AcDbEntity
  8
0
100
AcDbBlockReference
  2
*U31
 10
0.0
 20
0.0
 30
0.0
  0
POINT
  5
1671
330
601C
100
AcDbEntity
  8
DEFPOINTS
 62
     0
100
AcDbPoint
 10
-134.5
 20
-300.0
 30
0.0
  0
POINT
  5
1672
330
601C
100
AcDbEntity
  8
DEFPOINTS
 62
     0
100
AcDbPoint
 10
134.5
 20
-300.0
 30
0.0
  0
POINT
  5
1673
330
601C
100
AcDbEntity
  8
DEFPOINTS
 62
     0
100
AcDbPoint
 10
134.5
 20
-448.0173952306
 30
0.0
  0
ENDBLK
  5
14A7
330
601C
100
AcDbEntity
  8
0
100
AcDbBlockEnd
  0
BLOCK
  5
601F
330
601E
100
AcDbEntity
  8
0
100
AcDbBlockBegin
  2
*U31
 70
     1
 10
0.0
 20
0.0
 30
0.0
  3
*U31
  1

  0
TEXT
  5
1F09
330
601E
100
AcDbEntity
  8
SIZE
 62
     0
100
AcDbText
 10
-72.68571428571426
 20
-438.0173952306002
 30
0.0
 40
64.0
  1
269
 41
0.9
100
AcDbText
  0
ENDBLK
  5
1F0B
330
601E
100
AcDbEntity
  8
0
100
AcDbBlockEnd
  0
BLOCK
  5
6021
330
6020
100
AcDbEntity
  8
0
100
AcDbBlockBegin
  2
*D32
 70
     1
 10
0.0
 20
0.0
 30
0.0
  3
*D32
  1

  0
LINE
  5
1674
330
6020
100
AcDbEntity
  8
SIZE
  6
Continuous
 62
     0
100
AcDbLine
 10
143.5
 20
-300.0
 30
0.0
 11
304.6432844803784
 21
-300.0
 31
0.0
  0
LINE
  5
1675
330
6020
100
AcDbEntity
  8
SIZE
  6
Continuous
 62
     0
100
AcDbLine
 10
177.5
 20
-0.0000000000000057
 30
0.0
 11
304.6432844803785
 21
-0.0000000000000417
 31
0.0
  0
LINE
  5
1676
330
6020
100
AcDbEntity
  8
SIZE
  6
Continuous
 62
     0
100
AcDbLine
 10
284.6432844803784
 20
-288.0000000000001
 30
0.0
 11
284.6432844803785
 21
-12.00000000000003
 31
0.0
  0
INSERT
  5
1677
330
6020
100
AcDbEntity
  8
SIZE
  6
Continuous
 62
     0
100
AcDbBlockReference
  2
_DOTBLANK
 10
284.6432844803784
 20
-300.0
 30
0.0
 41
12.0
 42
12.0
 43
12.0
 50
270.0
  0
INSERT
  5
1678
330
6020
100
AcDbEntity
  8
SIZE
  6
Continuous
 62
     0
100
AcDbBlockReference
  2
_DOTBLANK
 10
284.6432844803785
 20
-0.000000000000036
 30
0.0
 41
12.0
 42
12.0
 43
12.0
 50
90.0
  0
INSERT
  5
1679
330
6020
100
AcDbEntity
  8
0
100
AcDbBlockReference
  2
*U33
 10
0.0
 20
0.0
 30
0.0
  0
POINT
  5
167A
330
6020
100
AcDbEntity
  8
DEFPOINTS
  6
Continuous
 62
     0
100
AcDbPoint
 10
123.5
 20
-300.0
 30
0.0
  0
POINT
  5
167B
330
6020
100
AcDbEntity
  8
DEFPOINTS
  6
Continuous
 62
     0
100
AcDbPoint
 10
157.5
 20
0.0
 30
0.0
  0
POINT
  5
167C
330
6020
100
AcDbEntity
  8
DEFPOINTS
  6
Continuous
 62
     0
100
AcDbPoint
 10
284.6432844803785
 20
-0.000000000000036
 30
0.0
  0
ENDBLK
  5
14B3
330
6020
100
AcDbEntity
  8
0
100
AcDbBlockEnd
  0
BLOCK
  5
6023
330
6022
100
AcDbEntity
  8
0
100
AcDbBlockBegin
  2
*U33
 70
     1
 10
0.0
 20
0.0
 30
0.0
  3
*U33
  1

  0
TEXT
  5
1F0D
330
6022
100
AcDbEntity
  8
SIZE
 62
     0
100
AcDbText
 10
274.6432844803785
 20
-224.0571428571429
 30
0.0
 40
64.0
  1
300
 50
90.0
 41
0.9
100
AcDbText
  0
ENDBLK
  5
1F0F
330
6022
100
AcDbEntity
  8
0
100
AcDbBlockEnd
  0
BLOCK
  5
6025
330
6024
100
AcDbEntity
  8
0
100
AcDbBlockBegin
  2
*D34
 70
     1
 10
0.0
 20
0.0
 30
0.0
  3
*D34
  1

  0
LINE
  5
167D
330
6024
100
AcDbEntity
  8
SIZE
 62
     0
100
AcDbLine
 10
-140.0
 20
32.46448280219375
 30
0.0
 11
-140.0
 21
136.4516878685507
 31
0.0
  0
LINE
  5
167E
330
6024
100
AcDbEntity
  8
SIZE
 62
     0
100
AcDbLine
 10
140.0
 20
32.46448280219375
 30
0.0
 11
140.0
 21
136.4516878685507
 31
0.0
  0
LINE
  5
167F
330
6024
100
AcDbEntity
  8
SIZE
 62
     0
100
AcDbLine
 10
-128.0
 20
116.4516878685508
 30
0.0
 11
128.0
 21
116.4516878685508
 31
0.0
  0
INSERT
  5
1680
330
6024
100
AcDbEntity
  8
SIZE
 62
     0
100
AcDbBlockReference
  2
_DOTBLANK
 10
-140.0
 20
116.4516878685508
 30
0.0
 41
12.0
 42
12.0
 43
12.0
 50
180.0
  0
INSERT
  5
1681
330
6024
100
AcDbEntity
  8
SIZE
 62
     0
100
AcDbBlockReference
  2
_DOTBLANK
 10
140.0
 20
116.4516878685508
 30
0.0
 41
12.0
 42
12.0
 43
12.0
  0
INSERT
  5
1682
330
6024
100
AcDbEntity
  8
0
100
AcDbBlockReference
  2
*U35
 10
0.0
 20
0.0
 30
0.0
  0
POINT
  5
1683
330
6024
100
AcDbEntity
  8
DEFPOINTS
 62
     0
100
AcDbPoint
 10
-140.0
 20
12.46448280219374
 30
0.0
  0
POINT
  5
1684
330
6024
100
AcDbEntity
  8
DEFPOINTS
 62
     0
100
AcDbPoint
 10
140.0
 20
12.46448280219374
 30
0.0
  0
POINT
  5
1685
330
6024
100
AcDbEntity
  8
DEFPOINTS
 62
     0
100
AcDbPoint
 10
140.0
 20
116.4516878685508
 30
0.0
  0
ENDBLK
  5
14BF
330
6024
100
AcDbEntity
  8
0
100
AcDbBlockEnd
  0
BLOCK
  5
6027
330
6026
100
AcDbEntity
  8
0
100
AcDbBlockBegin
  2
*U35
 70
     1
 10
0.0
 20
0.0
 30
0.0
  3
*U35
  1

  0
TEXT
  5
1F11
330
6026
100
AcDbEntity
  8
SIZE
 62
     0
100
AcDbText
 10
-74.05714285714283
 20
126.4516878685507
 30
0.0
 40
64.0
  1
280
 41
0.9
100
AcDbText
  0
ENDBLK
  5
1F13
330
6026
100
AcDbEntity
  8
0
100
AcDbBlockEnd
  0
BLOCK
  5
6029
330
6028
100
AcDbEntity
  8
0
100
AcDbBlockBegin
  2
*D36
 70
     1
 10
0.0
 20
0.0
 30
0.0
  3
*D36
  1

  0
LINE
  5
1686
330
6028
100
AcDbEntity
  8
SIZE
 62
     0
100
AcDbLine
 10
-157.5
 20
20.0
 30
0.0
 11
-157.5
 21
245.5794621189598
 31
0.0
  0
LINE
  5
1687
330
6028
100
AcDbEntity
  8
SIZE
 62
     0
100
AcDbLine
 10
157.5
 20
20.0
 30
0.0
 11
157.5
 21
245.5794621189598
 31
0.0
  0
LINE
  5
1688
330
6028
100
AcDbEntity
  8
SIZE
 62
     0
100
AcDbLine
 10
-145.5
 20
225.5794621189598
 30
0.0
 11
145.5
 21
225.5794621189598
 31
0.0
  0
INSERT
  5
1689
330
6028
100
AcDbEntity
  8
SIZE
 62
     0
100
AcDbBlockReference
  2
_DOTBLANK
 10
-157.5
 20
225.5794621189598
 30
0.0
 41
12.0
 42
12.0
 43
12.0
 50
180.0
  0
INSERT
  5
168A
330
6028
100
AcDbEntity
  8
SIZE
 62
     0
100
AcDbBlockReference
  2
_DOTBLANK
 10
157.5
 20
225.5794621189598
 30
0.0
 41
12.0
 42
12.0
 43
12.0
  0
INSERT
  5
168B
330
6028
100
AcDbEntity
  8
0
100
AcDbBlockReference
  2
*U37
 10
0.0
 20
0.0
 30
0.0
  0
POINT
  5
168C
330
6028
100
AcDbEntity
  8
DEFPOINTS
 62
     0
100
AcDbPoint
 10
-157.5
 20
0.0
 30
0.0
  0
POINT
  5
168D
330
6028
100
AcDbEntity
  8
DEFPOINTS
 62
     0
100
AcDbPoint
 10
157.5
 20
0.0
 30
0.0
  0
POINT
  5
168E
330
6028
100
AcDbEntity
  8
DEFPOINTS
 62
     0
100
AcDbPoint
 10
157.5
 20
225.5794621189598
 30
0.0
  0
ENDBLK
  5
14CB
330
6028
100
AcDbEntity
  8
0
100
AcDbBlockEnd
  0
BLOCK
  5
602B
330
602A
100
AcDbEntity
  8
0
100
AcDbBlockBegin
  2
*U37
 70
     1
 10
0.0
 20
0.0
 30
0.0
  3
*U37
  1

  0
TEXT
  5
1F15
330
602A
100
AcDbEntity
  8
SIZE
 62
     0
100
AcDbText
 10
-68.57142857142857
 20
235.5794621189598
 30
0.0
 40
64.0
  1
315
 41
0.9
100
AcDbText
  0
ENDBLK
  5
1F17
330
602A
100
AcDbEntity
  8
0
100
AcDbBlockEnd
  0
BLOCK
  5
602D
330
602C
100
AcDbEntity
  8
0
100
AcDbBlockBegin
  2
*U38
 70
     1
 10
0.0
 20
0.0
 30
0.0
  3
*U38
  1

  0
ENDBLK
  5
15CF
330
602C
100
AcDbEntity
  8
0
100
AcDbBlockEnd
  0
BLOCK
  5
602F
330
602E
100
AcDbEntity
  8
0
100
AcDbBlockBegin
  2
*D39
 70
     1
 10
0.0
 20
0.0
 30
0.0
  3
*D39
  1

  0
LINE
  5
1692
330
602E
100
AcDbEntity
  8
SIZE
 62
     0
100
AcDbLine
 10
-25844.51823276502
 20
7685.702971374808
 30
0.0
 11
-25981.04465488371
 21
7685.702971374808
 31
0.0
  0
LINE
  5
1693
330
602E
100
AcDbEntity
  8
SIZE
 62
     0
100
AcDbLine
 10
-25844.51823276502
 20
7677.702971374808
 30
0.0
 11
-25981.04465488371
 21
7677.702971374808
 31
0.0
  0
LINE
  5
1694
330
602E
100
AcDbEntity
  8
SIZE
 62
     0
100
AcDbLine
 10
-25961.04465488371
 20
7697.702971374808
 30
0.0
 11
-25961.04465488371
 21
7709.702971374809
 31
0.0
  0
LINE
  5
1695
330
602E
100
AcDbEntity
  8
SIZE
 62
     0
100
AcDbLine
 10
-25961.04465488371
 20
7665.70297137481
 30
0.0
 11
-25961.04465488371
 21
7595.302971374808
 31
0.0
  0
INSERT
  5
1696
330
602E
100
AcDbEntity
  8
SIZE
 62
     0
100
AcDbBlockReference
  2
_DOTBLANK
 10
-25961.04465488371
 20
7685.702971374808
 30
0.0
 41
12.0
 42
12.0
 43
12.0
 50
270.0
  0
INSERT
  5
1697
330
602E
100
AcDbEntity
  8
SIZE
 62
     0
100
AcDbBlockReference
  2
_DOTBLANK
 10
-25961.04465488371
 20
7677.702971374808
 30
0.0
 41
12.0
 42
12.0
 43
12.0
 50
90.0
  0
INSERT
  5
1698
330
602E
100
AcDbEntity
  8
0
100
AcDbBlockReference
  2
*U40
 10
0.0
 20
0.0
 30
0.0
  0
POINT
  5
1699
330
602E
100
AcDbEntity
  8
DEFPOINTS
 62
     0
100
AcDbPoint
 10
-25824.51823276501
 20
7685.702971374808
 30
0.0
  0
POINT
  5
169A
330
602E
100
AcDbEntity
  8
DEFPOINTS
 62
     0
100
AcDbPoint
 10
-25824.51823276501
 20
7677.702971374808
 30
0.0
  0
POINT
  5
169B
330
602E
100
AcDbEntity
  8
DEFPOINTS
 62
     0
100
AcDbPoint
 10
-25961.04465488371
 20
7677.702971374808
 30
0.0
  0
ENDBLK
  5
169C
330
602E
100
AcDbEntity
  8
0
100
AcDbBlockEnd
  0
BLOCK
  5
6031
330
6030
100
AcDbEntity
  8
0
100
AcDbBlockBegin
  2
*U40
 70
     1
 10
0.0
 20
0.0
 30
0.0
  3
*U40
  1

  0
TEXT
  5
1F19
330
6030
100
AcDbEntity
  8
SIZE
 62
     0
100
AcDbText
 10
-25971.04465488371
 20
7605.302971374804
 30
0.0
 40
64.0
  1
8
 50
90.0
 41
0.9
100
AcDbText
  0
ENDBLK
  5
1F1B
330
6030
100
AcDbEntity
  8
0
100
AcDbBlockEnd
  0
BLOCK
  5
6033
330
6032
100
AcDbEntity
  8
0
100
AcDbBlockBegin
  2
*D41
 70
     1
 10
0.0
 20
0.0
 30
0.0
  3
*D41
  1

  0
LINE
  5
169F
330
6032
100
AcDbEntity
  8
SIZE
 62
     0
100
AcDbLine
 10
-25512.51823276502
 20
7385.702971374808
 30
0.0
 11
-25362.37494828464
 21
7385.702971374808
 31
0.0
  0
LINE
  5
16A0
330
6032
100
AcDbEntity
  8
SIZE
 62
     0
100
AcDbLine
 10
-25523.51823276501
 20
7373.702971374808
 30
0.0
 11
-25362.37494828464
 21
7373.702971374808
 31
0.0
  0
LINE
  5
16A1
330
6032
100
AcDbEntity
  8
SIZE
 62
     0
100
AcDbLine
 10
-25382.37494828464
 20
7397.702971374808
 30
0.0
 11
-25382.37494828464
 21
7409.70297137481
 31
0.0
  0
LINE
  5
16A2
330
6032
100
AcDbEntity
  8
SIZE
 62
     0
100
AcDbLine
 10
-25382.37494828464
 20
7361.702971374808
 30
0.0
 11
-25382.37494828464
 21
7244.674399946238
 31
0.0
  0
INSERT
  5
16A3
330
6032
100
AcDbEntity
  8
SIZE
 62
     0
100
AcDbBlockReference
  2
_DOTBLANK
 10
-25382.37494828464
 20
7385.702971374808
 30
0.0
 41
12.0
 42
12.0
 43
12.0
 50
270.0
  0
INSERT
  5
16A4
330
6032
100
AcDbEntity
  8
SIZE
 62
     0
100
AcDbBlockReference
  2
_DOTBLANK
 10
-25382.37494828464
 20
7373.702971374808
 30
0.0
 41
12.0
 42
12.0
 43
12.0
 50
90.0
  0
INSERT
  5
16A5
330
6032
100
AcDbEntity
  8
0
100
AcDbBlockReference
  2
*U42
 10
0.0
 20
0.0
 30
0.0
  0
POINT
  5
16A6
330
6032
100
AcDbEntity
  8
DEFPOINTS
 62
     0
100
AcDbPoint
 10
-25532.51823276502
 20
7385.702971374808
 30
0.0
  0
POINT
  5
16A7
330
6032
100
AcDbEntity
  8
DEFPOINTS
 62
     0
100
AcDbPoint
 10
-25543.51823276502
 20
7373.702971374808
 30
0.0
  0
POINT
  5
16A8
330
6032
100
AcDbEntity
  8
DEFPOINTS
 62
     0
100
AcDbPoint
 10
-25382.37494828464
 20
7373.702971374808
 30
0.0
  0
ENDBLK
  5
16A9
330
6032
100
AcDbEntity
  8
0
100
AcDbBlockEnd
  0
BLOCK
  5
6035
330
6034
100
AcDbEntity
  8
0
100
AcDbBlockBegin
  2
*U42
 70
     1
 10
0.0
 20
0.0
 30
0.0
  3
*U42
  1

  0
TEXT
  5
1F1D
330
6034
100
AcDbEntity
  8
SIZE
 62
     0
100
AcDbText
 10
-25392.37494828464
 20
7256.045828517662
 30
0.0
 40
64.0
  1
12
 50
90.0
 41
0.9
100
AcDbText
  0
ENDBLK
  5
1F1F
330
6034
100
AcDbEntity
  8
0
100
AcDbBlockEnd
  0
BLOCK
  5
6037
330
6036
100
AcDbEntity
  8
0
100
AcDbBlockBegin
  2
*D43
 70
     1
 10
0.0
 20
0.0
 30
0.0
  3
*D43
  1

  0
LINE
  5
16AC
330
6036
100
AcDbEntity
  8
SIZE
 62
     0
100
AcDbLine
 10
-25801.51823276501
 20
7365.702971374808
 30
0.0
 11
-25801.51823276501
 21
7217.685576144207
 31
0.0
  0
LINE
  5
16AD
330
6036
100
AcDbEntity
  8
SIZE
 62
     0
100
AcDbLine
 10
-25532.51823276502
 20
7365.702971374808
 30
0.0
 11
-25532.51823276502
 21
7217.685576144207
 31
0.0
  0
LINE
  5
16AE
330
6036
100
AcDbEntity
  8
SIZE
 62
     0
100
AcDbLine
 10
-25789.51823276502
 20
7237.685576144207
 30
0.0
 11
-25544.51823276501
 21
7237.685576144207
 31
0.0
  0
INSERT
  5
16AF
330
6036
100
AcDbEntity
  8
SIZE
 62
     0
100
AcDbBlockReference
  2
_DOTBLANK
 10
-25801.51823276501
 20
7237.685576144207
 30
0.0
 41
12.0
 42
12.0
 43
12.0
 50
180.0
  0
INSERT
  5
16B0
330
6036
100
AcDbEntity
  8
SIZE
 62
     0
100
AcDbBlockReference
  2
_DOTBLANK
 10
-25532.51823276502
 20
7237.685576144207
 30
0.0
 41
12.0
 42
12.0
 43
12.0
  0
INSERT
  5
16B1
330
6036
100
AcDbEntity
  8
0
100
AcDbBlockReference
  2
*U44
 10
0.0
 20
0.0
 30
0.0
  0
POINT
  5
16B2
330
6036
100
AcDbEntity
  8
DEFPOINTS
 62
     0
100
AcDbPoint
 10
-25801.51823276501
 20
7385.702971374808
 30
0.0
  0
POINT
  5
16B3
330
6036
100
AcDbEntity
  8
DEFPOINTS
 62
     0
100
AcDbPoint
 10
-25532.51823276502
 20
7385.702971374808
 30
0.0
  0
POINT
  5
16B4
330
6036
100
AcDbEntity
  8
DEFPOINTS
 62
     0
100
AcDbPoint
 10
-25532.51823276502
 20
7237.685576144207
 30
0.0
  0
ENDBLK
  5
16B5
330
6036
100
AcDbEntity
  8
0
100
AcDbBlockEnd
  0
BLOCK
  5
6039
330
6038
100
AcDbEntity
  8
0
100
AcDbBlockBegin
  2
*U44
 70
     1
 10
0.0
 20
0.0
 30
0.0
  3
*U44
  1

  0
TEXT
  5
1F21
330
6038
100
AcDbEntity
  8
SIZE
 62
     0
100
AcDbText
 10
-25739.70394705074
 20
7247.685576144205
 30
0.0
 40
64.0
  1
269
 41
0.9
100
AcDbText
  0
ENDBLK
  5
1F23
330
6038
100
AcDbEntity
  8
0
100
AcDbBlockEnd
  0
BLOCK
  5
603B
330
603A
100
AcDbEntity
  8
0
100
AcDbBlockBegin
  2
*D45
 70
     1
 10
0.0
 20
0.0
 30
0.0
  3
*D45
  1

  0
LINE
  5
16B8
330
603A
100
AcDbEntity
  8
SIZE
 62
     0
100
AcDbLine
 10
-25512.51823276502
 20
7385.702971374808
 30
0.0
 11
-25362.37494828464
 21
7385.702971374808
 31
0.0
  0
LINE
  5
16B9
330
603A
100
AcDbEntity
  8
SIZE
 62
     0
100
AcDbLine
 10
-25489.51823276501
 20
7685.702971374808
 30
0.0
 11
-25362.37494828464
 21
7685.702971374808
 31
0.0
  0
LINE
  5
16BA
330
603A
100
AcDbEntity
  8
SIZE
 62
     0
100
AcDbLine
 10
-25382.37494828464
 20
7397.702971374808
 30
0.0
 11
-25382.37494828464
 21
7673.702971374808
 31
0.0
  0
INSERT
  5
16BB
330
603A
100
AcDbEntity
  8
SIZE
 62
     0
100
AcDbBlockReference
  2
_DOTBLANK
 10
-25382.37494828464
 20
7385.702971374808
 30
0.0
 41
12.0
 42
12.0
 43
12.0
 50
270.0
  0
INSERT
  5
16BC
330
603A
100
AcDbEntity
  8
SIZE
 62
     0
100
AcDbBlockReference
  2
_DOTBLANK
 10
-25382.37494828464
 20
7685.702971374808
 30
0.0
 41
12.0
 42
12.0
 43
12.0
 50
90.0
  0
INSERT
  5
16BD
330
603A
100
AcDbEntity
  8
0
100
AcDbBlockReference
  2
*U46
 10
0.0
 20
0.0
 30
0.0
  0
POINT
  5
16BE
330
603A
100
AcDbEntity
  8
DEFPOINTS
 62
     0
100
AcDbPoint
 10
-25532.51823276502
 20
7385.702971374808
 30
0.0
  0
POINT
  5
16BF
330
603A
100
AcDbEntity
  8
DEFPOINTS
 62
     0
100
AcDbPoint
 10
-25509.51823276502
 20
7685.702971374808
 30
0.0
  0
POINT
  5
16C0
330
603A
100
AcDbEntity
  8
DEFPOINTS
 62
     0
100
AcDbPoint
 10
-25382.37494828464
 20
7685.702971374808
 30
0.0
  0
ENDBLK
  5
16C1
330
603A
100
AcDbEntity
  8
0
100
AcDbBlockEnd
  0
BLOCK
  5
603D
330
603C
100
AcDbEntity
  8
0
100
AcDbBlockBegin
  2
*U46
 70
     1
 10
0.0
 20
0.0
 30
0.0
  3
*U46
  1

  0
TEXT
  5
1F25
330
603C
100
AcDbEntity
  8
SIZE
 62
     0
100
AcDbText
 10
-25392.37494828464
 20
7461.645828517662
 30
0.0
 40
64.0
  1
300
 50
90.0
 41
0.9
100
AcDbText
  0
ENDBLK
  5
1F27
330
603C
100
AcDbEntity
  8
0
100
AcDbBlockEnd
  0
BLOCK
  5
603F
330
603E
100
AcDbEntity
  8
0
100
AcDbBlockBegin
  2
*D47
 70
     1
 10
0.0
 20
0.0
 30
0.0
  3
*D47
  1

  0
LINE
  5
16C4
330
603E
100
AcDbEntity
  8
SIZE
 62
     0
100
AcDbLine
 10
-25807.01823276501
 20
7718.167454177002
 30
0.0
 11
-25807.01823276501
 21
7822.154659243358
 31
0.0
  0
LINE
  5
16C5
330
603E
100
AcDbEntity
  8
SIZE
 62
     0
100
AcDbLine
 10
-25527.01823276501
 20
7718.167454177002
 30
0.0
 11
-25527.01823276501
 21
7822.154659243358
 31
0.0
  0
LINE
  5
16C6
330
603E
100
AcDbEntity
  8
SIZE
 62
     0
100
AcDbLine
 10
-25795.01823276502
 20
7802.154659243358
 30
0.0
 11
-25539.01823276501
 21
7802.154659243358
 31
0.0
  0
INSERT
  5
16C7
330
603E
100
AcDbEntity
  8
SIZE
 62
     0
100
AcDbBlockReference
  2
_DOTBLANK
 10
-25807.01823276501
 20
7802.154659243358
 30
0.0
 41
12.0
 42
12.0
 43
12.0
 50
180.0
  0
INSERT
  5
16C8
330
603E
100
AcDbEntity
  8
SIZE
 62
     0
100
AcDbBlockReference
  2
_DOTBLANK
 10
-25527.01823276501
 20
7802.154659243358
 30
0.0
 41
12.0
 42
12.0
 43
12.0
  0
INSERT
  5
16C9
330
603E
100
AcDbEntity
  8
0
100
AcDbBlockReference
  2
*U48
 10
0.0
 20
0.0
 30
0.0
  0
POINT
  5
16CA
330
603E
100
AcDbEntity
  8
DEFPOINTS
 62
     0
100
AcDbPoint
 10
-25807.01823276501
 20
7698.167454177002
 30
0.0
  0
POINT
  5
16CB
330
603E
100
AcDbEntity
  8
DEFPOINTS
 62
     0
100
AcDbPoint
 10
-25527.01823276501
 20
7698.167454177002
 30
0.0
  0
POINT
  5
16CC
330
603E
100
AcDbEntity
  8
DEFPOINTS
 62
     0
100
AcDbPoint
 10
-25527.01823276501
 20
7802.154659243358
 30
0.0
  0
ENDBLK
  5
16CD
330
603E
100
AcDbEntity
  8
0
100
AcDbBlockEnd
  0
BLOCK
  5
6041
330
6040
100
AcDbEntity
  8
0
100
AcDbBlockBegin
  2
*U48
 70
     1
 10
0.0
 20
0.0
 30
0.0
  3
*U48
  1

  0
TEXT
  5
1F29
330
6040
100
AcDbEntity
  8
SIZE
 62
     0
100
AcDbText
 10
-25741.07537562216
 20
7812.154659243358
 30
0.0
 40
64.0
  1
280
 41
0.9
100
AcDbText
  0
ENDBLK
  5
1F2B
330
6040
100
AcDbEntity
  8
0
100
AcDbBlockEnd
  0
BLOCK
  5
6043
330
6042
100
AcDbEntity
  8
0
100
AcDbBlockBegin
  2
*D49
 70
     1
 10
0.0
 20
0.0
 30
0.0
  3
*D49
  1

  0
LINE
  5
16D0
330
6042
100
AcDbEntity
  8
SIZE
 62
     0
100
AcDbLine
 10
-25824.51823276501
 20
7705.702971374808
 30
0.0
 11
-25824.51823276501
 21
7931.282433493766
 31
0.0
  0
LINE
  5
16D1
330
6042
100
AcDbEntity
  8
SIZE
 62
     0
100
AcDbLine
 10
-25509.51823276502
 20
7705.702971374808
 30
0.0
 11
-25509.51823276502
 21
7931.282433493766
 31
0.0
  0
LINE
  5
16D2
330
6042
100
AcDbEntity
  8
SIZE
 62
     0
100
AcDbLine
 10
-25812.51823276502
 20
7911.282433493766
 30
0.0
 11
-25521.51823276501
 21
7911.282433493766
 31
0.0
  0
INSERT
  5
16D3
330
6042
100
AcDbEntity
  8
SIZE
 62
     0
100
AcDbBlockReference
  2
_DOTBLANK
 10
-25824.51823276501
 20
7911.282433493766
 30
0.0
 41
12.0
 42
12.0
 43
12.0
 50
180.0
  0
INSERT
  5
16D4
330
6042
100
AcDbEntity
  8
SIZE
 62
     0
100
AcDbBlockReference
  2
_DOTBLANK
 10
-25509.51823276502
 20
7911.282433493766
 30
0.0
 41
12.0
 42
12.0
 43
12.0
  0
INSERT
  5
16D5
330
6042
100
AcDbEntity
  8
0
100
AcDbBlockReference
  2
*U50
 10
0.0
 20
0.0
 30
0.0
  0
POINT
  5
16D6
330
6042
100
AcDbEntity
  8
DEFPOINTS
 62
     0
100
AcDbPoint
 10
-25824.51823276501
 20
7685.702971374808
 30
0.0
  0
POINT
  5
16D7
330
6042
100
AcDbEntity
  8
DEFPOINTS
 62
     0
100
AcDbPoint
 10
-25509.51823276502
 20
7685.702971374808
 30
0.0
  0
POINT
  5
16D8
330
6042
100
AcDbEntity
  8
DEFPOINTS
 62
     0
100
AcDbPoint
 10
-25509.51823276502
 20
7911.282433493766
 30
0.0
  0
ENDBLK
  5
16D9
330
6042
100
AcDbEntity
  8
0
100
AcDbBlockEnd
  0
BLOCK
  5
6045
330
6044
100
AcDbEntity
  8
0
100
AcDbBlockBegin
  2
*U50
 70
     1
 10
0.0
 20
0.0
 30
0.0
  3
*U50
  1

  0
TEXT
  5
1F2D
330
6044
100
AcDbEntity
  8
SIZE
 62
     0
100
AcDbText
 10
-25735.58966133645
 20
7921.282433493766
 30
0.0
 40
64.0
  1
315
 41
0.9
100
AcDbText
  0
ENDBLK
  5
1F2F
330
6044
100
AcDbEntity
  8
0
100
AcDbBlockEnd
  0
BLOCK
  5
6047
330
6046
100
AcDbEntity
  8
0
100
AcDbBlockBegin
  2
*D51
 70
     1
 10
0.0
 20
0.0
 30
0.0
  3
*D51
  1

  0
LINE
  5
1D83
330
6046
100
AcDbEntity
  8
SIZE
 62
     0
100
AcDbLine
 10
-134.5
 20
-320.0
 30
0.0
 11
-134.5
 21
-468.0173952306001
 31
0.0
  0
LINE
  5
1D84
330
6046
100
AcDbEntity
  8
SIZE
 62
     0
100
AcDbLine
 10
134.5
 20
-320.0
 30
0.0
 11
134.5
 21
-468.0173952306001
 31
0.0
  0
LINE
  5
1D85
330
6046
100
AcDbEntity
  8
SIZE
 62
     0
100
AcDbLine
 10
-122.5
 20
-448.0173952306
 30
0.0
 11
122.5
 21
-448.0173952306
 31
0.0
  0
INSERT
  5
1D86
330
6046
100
AcDbEntity
  8
SIZE
 62
     0
100
AcDbBlockReference
  2
_DOTBLANK
 10
-134.5
 20
-448.0173952306
 30
0.0
 41
12.0
 42
12.0
 43
12.0
 50
180.0
  0
INSERT
  5
1D87
330
6046
100
AcDbEntity
  8
SIZE
 62
     0
100
AcDbBlockReference
  2
_DOTBLANK
 10
134.5
 20
-448.0173952306
 30
0.0
 41
12.0
 42
12.0
 43
12.0
  0
INSERT
  5
1D88
330
6046
100
AcDbEntity
  8
0
100
AcDbBlockReference
  2
*U52
 10
0.0
 20
0.0
 30
0.0
  0
POINT
  5
1D89
330
6046
100
AcDbEntity
  8
DEFPOINTS
 62
     0
100
AcDbPoint
 10
-134.5
 20
-300.0
 30
0.0
  0
POINT
  5
1D8A
330
6046
100
AcDbEntity
  8
DEFPOINTS
 62
     0
100
AcDbPoint
 10
134.5
 20
-300.0
 30
0.0
  0
POINT
  5
1D8B
330
6046
100
AcDbEntity
  8
DEFPOINTS
 62
     0
100
AcDbPoint
 10
134.5
 20
-448.0173952306
 30
0.0
  0
ENDBLK
  5
173D
330
6046
100
AcDbEntity
  8
0
100
AcDbBlockEnd
  0
BLOCK
  5
6049
330
6048
100
AcDbEntity
  8
0
100
AcDbBlockBegin
  2
*U52
 70
     1
 10
0.0
 20
0.0
 30
0.0
  3
*U52
  1

  0
TEXT
  5
1F31
330
6048
100
AcDbEntity
  8
SIZE
 62
     0
100
AcDbText
 10
-72.68571428571426
 20
-438.0173952306003
 30
0.0
 40
64.0
  1
269
 41
0.9
100
AcDbText
  0
ENDBLK
  5
1F33
330
6048
100
AcDbEntity
  8
0
100
AcDbBlockEnd
  0
BLOCK
  5
604B
330
604A
100
AcDbEntity
  8
0
100
AcDbBlockBegin
  2
*D53
 70
     1
 10
0.0
 20
0.0
 30
0.0
  3
*D53
  1

  0
LINE
  5
1D8C
330
604A
100
AcDbEntity
  8
SIZE
 62
     0
100
AcDbLine
 10
154.5
 20
-300.0
 30
0.0
 11
304.6432844803784
 21
-300.0
 31
0.0
  0
LINE
  5
1D8D
330
604A
100
AcDbEntity
  8
SIZE
 62
     0
100
AcDbLine
 10
177.5
 20
-0.0000000000000057
 30
0.0
 11
304.6432844803785
 21
-0.0000000000000417
 31
0.0
  0
LINE
  5
1D8E
330
604A
100
AcDbEntity
  8
SIZE
 62
     0
100
AcDbLine
 10
284.6432844803784
 20
-288.0
 30
0.0
 11
284.6432844803785
 21
-12.00000000000003
 31
0.0
  0
INSERT
  5
1D8F
330
604A
100
AcDbEntity
  8
SIZE
 62
     0
100
AcDbBlockReference
  2
_DOTBLANK
 10
284.6432844803784
 20
-300.0
 30
0.0
 41
12.0
 42
12.0
 43
12.0
 50
270.0
  0
INSERT
  5
1D90
330
604A
100
AcDbEntity
  8
SIZE
 62
     0
100
AcDbBlockReference
  2
_DOTBLANK
 10
284.6432844803785
 20
-0.000000000000036
 30
0.0
 41
12.0
 42
12.0
 43
12.0
 50
90.0
  0
INSERT
  5
1D91
330
604A
100
AcDbEntity
  8
0
100
AcDbBlockReference
  2
*U54
 10
0.0
 20
0.0
 30
0.0
  0
POINT
  5
1D92
330
604A
100
AcDbEntity
  8
DEFPOINTS
 62
     0
100
AcDbPoint
 10
134.5
 20
-300.0
 30
0.0
  0
POINT
  5
1D93
330
604A
100
AcDbEntity
  8
DEFPOINTS
 62
     0
100
AcDbPoint
 10
157.5
 20
0.0
 30
0.0
  0
POINT
  5
1D94
330
604A
100
AcDbEntity
  8
DEFPOINTS
 62
     0
100
AcDbPoint
 10
284.6432844803785
 20
-0.000000000000036
 30
0.0
  0
ENDBLK
  5
1749
330
604A
100
AcDbEntity
  8
0
100
AcDbBlockEnd
  0
BLOCK
  5
604D
330
604C
100
AcDbEntity
  8
0
100
AcDbBlockBegin
  2
*U54
 70
     1
 10
0.0
 20
0.0
 30
0.0
  3
*U54
  1

  0
TEXT
  5
1F35
330
604C
100
AcDbEntity
  8
SIZE
 62
     0
100
AcDbText
 10
274.6432844803785
 20
-224.0571428571429
 30
0.0
 40
64.0
  1
300
 50
90.0
 41
0.9
100
AcDbText
  0
ENDBLK
  5
1F37
330
604C
100
AcDbEntity
  8
0
100
AcDbBlockEnd
  0
BLOCK
  5
604F
330
604E
100
AcDbEntity
  8
0
100
AcDbBlockBegin
  2
*D55
 70
     1
 10
0.0
 20
0.0
 30
0.0
  3
*D55
  1

  0
LINE
  5
1D95
330
604E
100
AcDbEntity
  8
SIZE
 62
     0
100
AcDbLine
 10
-140.0
 20
32.46448280219375
 30
0.0
 11
-140.0
 21
136.4516878685508
 31
0.0
  0
LINE
  5
1D96
330
604E
100
AcDbEntity
  8
SIZE
 62
     0
100
AcDbLine
 10
140.0
 20
32.46448280219375
 30
0.0
 11
140.0
 21
136.4516878685508
 31
0.0
  0
LINE
  5
1D97
330
604E
100
AcDbEntity
  8
SIZE
 62
     0
100
AcDbLine
 10
-128.0
 20
116.4516878685508
 30
0.0
 11
128.0
 21
116.4516878685508
 31
0.0
  0
INSERT
  5
1D98
330
604E
100
AcDbEntity
  8
SIZE
 62
     0
100
AcDbBlockReference
  2
_DOTBLANK
 10
-140.0
 20
116.4516878685508
 30
0.0
 41
12.0
 42
12.0
 43
12.0
 50
180.0
  0
INSERT
  5
1D99
330
604E
100
AcDbEntity
  8
SIZE
 62
     0
100
AcDbBlockReference
  2
_DOTBLANK
 10
140.0
 20
116.4516878685508
 30
0.0
 41
12.0
 42
12.0
 43
12.0
  0
INSERT
  5
1D9A
330
604E
100
AcDbEntity
  8
0
100
AcDbBlockReference
  2
*U56
 10
0.0
 20
0.0
 30
0.0
  0
POINT
  5
1D9B
330
604E
100
AcDbEntity
  8
DEFPOINTS
 62
     0
100
AcDbPoint
 10
-140.0
 20
12.46448280219374
 30
0.0
  0
POINT
  5
1D9C
330
604E
100
AcDbEntity
  8
DEFPOINTS
 62
     0
100
AcDbPoint
 10
140.0
 20
12.46448280219374
 30
0.0
  0
POINT
  5
1D9D
330
604E
100
AcDbEntity
  8
DEFPOINTS
 62
     0
100
AcDbPoint
 10
140.0
 20
116.4516878685508
 30
0.0
  0
ENDBLK
  5
1755
330
604E
100
AcDbEntity
  8
0
100
AcDbBlockEnd
  0
BLOCK
  5
6051
330
6050
100
AcDbEntity
  8
0
100
AcDbBlockBegin
  2
*U56
 70
     1
 10
0.0
 20
0.0
 30
0.0
  3
*U56
  1

  0
TEXT
  5
1F39
330
6050
100
AcDbEntity
  8
SIZE
 62
     0
100
AcDbText
 10
-74.05714285714283
 20
126.4516878685508
 30
0.0
 40
64.0
  1
280
 41
0.9
100
AcDbText
  0
ENDBLK
  5
1F3B
330
6050
100
AcDbEntity
  8
0
100
AcDbBlockEnd
  0
BLOCK
  5
6053
330
6052
100
AcDbEntity
  8
0
100
AcDbBlockBegin
  2
*D57
 70
     1
 10
0.0
 20
0.0
 30
0.0
  3
*D57
  1

  0
LINE
  5
1D9E
330
6052
100
AcDbEntity
  8
SIZE
 62
     0
100
AcDbLine
 10
-157.5
 20
20.0
 30
0.0
 11
-157.5
 21
245.5794621189598
 31
0.0
  0
LINE
  5
1D9F
330
6052
100
AcDbEntity
  8
SIZE
 62
     0
100
AcDbLine
 10
157.5
 20
20.0
 30
0.0
 11
157.5
 21
245.5794621189598
 31
0.0
  0
LINE
  5
1DA0
330
6052
100
AcDbEntity
  8
SIZE
 62
     0
100
AcDbLine
 10
-145.5
 20
225.5794621189598
 30
0.0
 11
145.5
 21
225.5794621189598
 31
0.0
  0
INSERT
  5
1DA1
330
6052
100
AcDbEntity
  8
SIZE
 62
     0
100
AcDbBlockReference
  2
_DOTBLANK
 10
-157.5
 20
225.5794621189598
 30
0.0
 41
12.0
 42
12.0
 43
12.0
 50
180.0
  0
INSERT
  5
1DA2
330
6052
100
AcDbEntity
  8
SIZE
 62
     0
100
AcDbBlockReference
  2
_DOTBLANK
 10
157.5
 20
225.5794621189598
 30
0.0
 41
12.0
 42
12.0
 43
12.0
  0
INSERT
  5
1DA3
330
6052
100
AcDbEntity
  8
0
100
AcDbBlockReference
  2
*U58
 10
0.0
 20
0.0
 30
0.0
  0
POINT
  5
1DA4
330
6052
100
AcDbEntity
  8
DEFPOINTS
 62
     0
100
AcDbPoint
 10
-157.5
 20
0.0
 30
0.0
  0
POINT
  5
1DA5
330
6052
100
AcDbEntity
  8
DEFPOINTS
 62
     0
100
AcDbPoint
 10
157.5
 20
0.0
 30
0.0
  0
POINT
  5
1DA6
330
6052
100
AcDbEntity
  8
DEFPOINTS
 62
     0
100
AcDbPoint
 10
157.5
 20
225.5794621189598
 30
0.0
  0
ENDBLK
  5
1761
330
6052
100
AcDbEntity
  8
0
100
AcDbBlockEnd
  0
BLOCK
  5
6055
330
6054
100
AcDbEntity
  8
0
100
AcDbBlockBegin
  2
*U58
 70
     1
 10
0.0
 20
0.0
 30
0.0
  3
*U58
  1

  0
TEXT
  5
1F3D
330
6054
100
AcDbEntity
  8
SIZE
 62
     0
100
AcDbText
 10
-68.57142857142857
 20
235.5794621189599
 30
0.0
 40
64.0
  1
315
 41
0.9
100
AcDbText
  0
ENDBLK
  5
1F3F
330
6054
100
AcDbEntity
  8
0
100
AcDbBlockEnd
  0
BLOCK
  5
6057
330
6056
100
AcDbEntity
  8
0
100
AcDbBlockBegin
  2
*D59
 70
     1
 10
0.0
 20
0.0
 30
0.0
  3
*D59
  1

  0
LINE
  5
1DA7
330
6056
100
AcDbEntity
  8
SIZE
 62
     0
100
AcDbLine
 10
-177.5
 20
0.0000000000000057
 30
0.0
 11
-314.0264221186908
 21
0.0000000000000443
 31
0.0
  0
LINE
  5
1DA8
330
6056
100
AcDbEntity
  8
SIZE
 62
     0
100
AcDbLine
 10
-177.5
 20
-7.999999999999993
 30
0.0
 11
-314.0264221186908
 21
-7.999999999999958
 31
0.0
  0
LINE
  5
1DA9
330
6056
100
AcDbEntity
  8
SIZE
 62
     0
100
AcDbLine
 10
-294.0264221186908
 20
12.00000000000003
 30
0.0
 11
-294.0264221186908
 21
24.00000000000004
 31
0.0
  0
LINE
  5
1DAA
330
6056
100
AcDbEntity
  8
SIZE
 62
     0
100
AcDbLine
 10
-294.0264221186908
 20
-19.99999999999996
 30
0.0
 11
-294.0264221186908
 21
-90.39999999999997
 31
0.0
  0
INSERT
  5
1DAB
330
6056
100
AcDbEntity
  8
SIZE
 62
     0
100
AcDbBlockReference
  2
_DOTBLANK
 10
-294.0264221186908
 20
0.0000000000000387
 30
0.0
 41
12.0
 42
12.0
 43
12.0
 50
270.0
  0
INSERT
  5
1DAC
330
6056
100
AcDbEntity
  8
SIZE
 62
     0
100
AcDbBlockReference
  2
_DOTBLANK
 10
-294.0264221186908
 20
-7.999999999999961
 30
0.0
 41
12.0
 42
12.0
 43
12.0
 50
90.0
  0
INSERT
  5
1DAD
330
6056
100
AcDbEntity
  8
0
100
AcDbBlockReference
  2
*U60
 10
0.0
 20
0.0
 30
0.0
  0
POINT
  5
1DAE
330
6056
100
AcDbEntity
  8
DEFPOINTS
 62
     0
100
AcDbPoint
 10
-157.5
 20
0.0
 30
0.0
  0
POINT
  5
1DAF
330
6056
100
AcDbEntity
  8
DEFPOINTS
 62
     0
100
AcDbPoint
 10
-157.5
 20
-8.000000000000003
 30
0.0
  0
POINT
  5
1DB0
330
6056
100
AcDbEntity
  8
DEFPOINTS
 62
     0
100
AcDbPoint
 10
-294.0264221186908
 20
-7.999999999999961
 30
0.0
  0
ENDBLK
  5
176D
330
6056
100
AcDbEntity
  8
0
100
AcDbBlockEnd
  0
BLOCK
  5
6059
330
6058
100
AcDbEntity
  8
0
100
AcDbBlockBegin
  2
*U60
 70
     1
 10
0.0
 20
0.0
 30
0.0
  3
*U60
  1

  0
TEXT
  5
1F41
330
6058
100
AcDbEntity
  8
SIZE
 62
     0
100
AcDbText
 10
-304.0264221186908
 20
-80.4
 30
0.0
 40
64.0
  1
8
 50
90.0
 41
0.9
100
AcDbText
  0
ENDBLK
  5
1F43
330
6058
100
AcDbEntity
  8
0
100
AcDbBlockEnd
  0
BLOCK
  5
605B
330
605A
100
AcDbEntity
  8
0
100
AcDbBlockBegin
  2
*D61
 70
     1
 10
0.0
 20
0.0
 30
0.0
  3
*D61
  1

  0
LINE
  5
1DB1
330
605A
100
AcDbEntity
  8
SIZE
 62
     0
100
AcDbLine
 10
154.5
 20
-300.0
 30
0.0
 11
304.6432844803785
 21
-300.0
 31
0.0
  0
LINE
  5
1DB2
330
605A
100
AcDbEntity
  8
SIZE
 62
     0
100
AcDbLine
 10
143.5
 20
-312.0
 30
0.0
 11
304.6432844803785
 21
-312.0
 31
0.0
  0
LINE
  5
1DB3
330
605A
100
AcDbEntity
  8
SIZE
 62
     0
100
AcDbLine
 10
284.6432844803785
 20
-288.0
 30
0.0
 11
284.6432844803785
 21
-276.0
 31
0.0
  0
LINE
  5
1DB4
330
605A
100
AcDbEntity
  8
SIZE
 62
     0
100
AcDbLine
 10
284.6432844803785
 20
-324.0000000000001
 30
0.0
 11
284.6432844803784
 21
-438.2857142857143
 31
0.0
  0
INSERT
  5
1DB5
330
605A
100
AcDbEntity
  8
SIZE
 62
     0
100
AcDbBlockReference
  2
_DOTBLANK
 10
284.6432844803785
 20
-300.0
 30
0.0
 41
12.0
 42
12.0
 43
12.0
 50
270.0
  0
INSERT
  5
1DB6
330
605A
100
AcDbEntity
  8
SIZE
 62
     0
100
AcDbBlockReference
  2
_DOTBLANK
 10
284.6432844803785
 20
-312.0
 30
0.0
 41
12.0
 42
12.0
 43
12.0
 50
90.0
  0
INSERT
  5
1DB7
330
605A
100
AcDbEntity
  8
0
100
AcDbBlockReference
  2
*U62
 10
0.0
 20
0.0
 30
0.0
  0
POINT
  5
1DB8
330
605A
100
AcDbEntity
  8
DEFPOINTS
 62
     0
100
AcDbPoint
 10
134.5
 20
-300.0
 30
0.0
  0
POINT
  5
1DB9
330
605A
100
AcDbEntity
  8
DEFPOINTS
 62
     0
100
AcDbPoint
 10
123.5
 20
-312.0
 30
0.0
  0
POINT
  5
1DBA
330
605A
100
AcDbEntity
  8
DEFPOINTS
 62
     0
100
AcDbPoint
 10
284.6432844803785
 20
-312.0
 30
0.0
  0
ENDBLK
  5
177B
330
605A
100
AcDbEntity
  8
0
100
AcDbBlockEnd
  0
BLOCK
  5
605D
330
605C
100
AcDbEntity
  8
0
100
AcDbBlockBegin
  2
*U62
 70
     1
 10
0.0
 20
0.0
 30
0.0
  3
*U62
  1

  0
TEXT
  5
1F45
330
605C
100
AcDbEntity
  8
SIZE
 62
     0
100
AcDbText
 10
274.6432844803785
 20
-428.2857142857142
 30
0.0
 40
64.0
  1
12
 50
90.0
 41
0.9
100
AcDbText
  0
ENDBLK
  5
1F47
330
605C
100
AcDbEntity
  8
0
100
AcDbBlockEnd
  0
BLOCK
  5
605F
330
605E
100
AcDbEntity
  8
0
100
AcDbBlockBegin
  2
*U63
 70
     1
 10
0.0
 20
0.0
 30
0.0
  3
*U63
  1

  0
ENDBLK
  5
1D57
330
605E
100
AcDbEntity
  8
0
100
AcDbBlockEnd
  0
BLOCK
  5
6061
330
6060
100
AcDbEntity
  8
0
100
AcDbBlockBegin
  2
*U64
 70
     1
 10
0.0
 20
0.0
 30
0.0
  3
*U64
  1

  0
INSERT
  5
2088
330
6060
100
AcDbEntity
  8
NOTE
100
AcDbBlockReference
  2
_OPEN30
 10
-140.0
 20
0.0
 30
0.0
 41
12.0
 42
12.0
 43
12.0
 50
312.6090116116894
  0
POLYLINE
  5
2089
330
6060
100
AcDbEntity
  8
NOTE
100
AcDb2dPolyline
 66
     1
 10
0.0
 20
0.0
 30
0.0
  0
VERTEX
  5
2124
330
2089
100
AcDbEntity
  8
NOTE
100
AcDbVertex
100
AcDb2dVertex
 10
-148.1239008361894
 20
8.831887408915472
 30
0.0
  0
VERTEX
  5
2125
330
2089
100
AcDbEntity
  8
NOTE
100
AcDbVertex
100
AcDb2dVertex
 10
-227.8693999922543
 20
95.52709505801338
 30
0.0
  0
VERTEX
  5
2126
330
2089
100
AcDbEntity
  8
NOTE
100
AcDbVertex
100
AcDb2dVertex
 10
-773.7093999922541
 20
95.52709505801338
 30
0.0
  0
SEQEND
  5
2127
330
2089
100
AcDbEntity
  8
NOTE
  0
ENDBLK
  5
208A
330
6060
100
AcDbEntity
  8
0
100
AcDbBlockEnd
  0
BLOCK
  5
6063
330
6062
100
AcDbEntity
  8
0
100
AcDbBlockBegin
  2
*U65
 70
     1
 10
0.0
 20
0.0
 30
0.0
  3
*U65
  1

  0
TEXT
  5
208D
330
6062
100
AcDbEntity
  8
NOTE
100
AcDbText
 10
-773.7093999922541
 20
113.5270950580134
 30
0.0
 40
64.0
  1
4×φ10取付穴
 41
0.9
100
AcDbText
  0
ENDBLK
  5
208E
330
6062
100
AcDbEntity
  8
0
100
AcDbBlockEnd
  0
ENDSEC
  0
SECTION
  2
ENTITIES
  0
TEXT
  5
953
330
5F92
100
AcDbEntity
  8
OUTLINE
  6
Continuous
 62
     3
100
AcDbText
 10
-418.231467
 20
13.715189
 30
0.0
 40
64.0
  1
 
 41
0.9
100
AcDbText
  0
TEXT
  5
954
330
5F92
100
AcDbEntity
  8
OUTLINE
  6
Continuous
 62
     3
100
AcDbText
 10
-418.231467
 20
13.715189
 30
0.0
 40
64.0
  1
 
 41
0.9
100
AcDbText
  0
TEXT
  5
955
330
5F92
100
AcDbEntity
  8
OUTLINE
  6
Continuous
 62
     3
100
AcDbText
 10
1341.41903
 20
-706.0588199999997
 30
0.0
 40
64.0
  1
 
 41
0.9
100
AcDbText
  0
TEXT
  5
956
330
5F92
100
AcDbEntity
  8
OUTLINE
  6
Continuous
 62
     3
100
AcDbText
 10
1341.41903
 20
-706.0588199999997
 30
0.0
 40
64.0
  1
 
 41
0.9
100
AcDbText
  0
TEXT
  5
957
330
5F92
100
AcDbEntity
  8
OUTLINE
  6
Continuous
 62
     3
100
AcDbText
 10
1341.41903
 20
-706.0588199999997
 30
0.0
 40
64.0
  1
 
 41
0.9
100
AcDbText
  0
TEXT
  5
958
330
5F92
100
AcDbEntity
  8
OUTLINE
  6
Continuous
 62
     3
100
AcDbText
 10
1341.41903
 20
-706.0588199999997
 30
0.0
 40
64.0
  1
 
 41
0.9
100
AcDbText
  0
TEXT
  5
422C
330
5F92
100
AcDbEntity
  8
ETC
100
AcDbText
 10
456.04665911344
 20
710.3557714137054
 30
0.0
 40
64.0
  1
システム部材
 41
0.9
100
AcDbText
  0
TEXT
  5
422D
330
5F92
100
AcDbEntity
  8
ETC
100
AcDbText
 10
462.2546571134389
 20
811.2390974137056
 30
0.0
 40
64.0
  1
KD-60SC_2
 41
0.9
100
AcDbText
  0
LINE
  5
422E
330
5F92
100
AcDbEntity
  8
DETAIL
100
AcDbLine
 10
337.5000000000064
 20
-347.5000000000096
 30
0.0
 11
300.5000000000064
 21
-347.5000000000096
 31
0.0
  0
LINE
  5
422F
330
5F92
100
AcDbEntity
  8
DETAIL
100
AcDbLine
 10
300.5000000000064
 20
347.4999999999913
 30
0.0
 11
337.5000000000064
 21
347.4999999999913
 31
0.0
  0
ARC
  5
4230
330
5F92
100
AcDbEntity
  8
DETAIL
100
AcDbCircle
 10
337.5000000000064
 20
-337.5000000000095
 30
0.0
 40
10.0
100
AcDbArc
 50
270.0
 51
0.0
  0
ARC
  5
4231
330
5F92
100
AcDbEntity
  8
DETAIL
100
AcDbCircle
 10
337.5000000000064
 20
337.4999999999915
 30
0.0
 40
9.999999999999927
100
AcDbArc
 50
0.0
 51
90.0
  0
CIRCLE
  5
4232
330
5F92
100
AcDbEntity
  8
FIX
100
AcDbCircle
 10
325.0000000000064
 20
-325.0000000000095
 30
0.0
 40
7.5
  0
CIRCLE
  5
4233
330
5F92
100
AcDbEntity
  8
FIX
100
AcDbCircle
 10
325.0000000000064
 20
324.9999999999915
 30
0.0
 40
7.5
  0
LINE
  5
4234
330
5F92
100
AcDbEntity
  8
DETAIL
100
AcDbLine
 10
347.5000000000064
 20
337.4999999999915
 30
0.0
 11
347.5000000000064
 21
-337.5000000000095
 31
0.0
  0
LINE
  5
4235
330
5F92
100
AcDbEntity
  8
DETAIL
100
AcDbLine
 10
302.0000000000282
 20
304.4999999999915
 30
0.0
 11
302.0000000000282
 21
-304.5000000000095
 31
0.0
  0
LINE
  5
4236
330
5F92
100
AcDbEntity
  8
DETAIL
100
AcDbLine
 10
287.5000000000409
 20
304.4999999999915
 30
0.0
 11
287.5000000000409
 21
-304.5000000000095
 31
0.0
  0
LINE
  5
4237
330
5F92
100
AcDbEntity
  8
DETAIL
100
AcDbLine
 10
286.0000000000409
 20
304.4999999999915
 30
0.0
 11
286.0000000000409
 21
-304.5000000000095
 31
0.0
  0
LINE
  5
4238
330
5F92
100
AcDbEntity
  8
DETAIL
100
AcDbLine
 10
-300.4999999999895
 20
347.5000000000278
 30
0.0
 11
300.5000000000105
 21
347.4999999999913
 31
0.0
  0
LINE
  5
4239
330
5F92
100
AcDbEntity
  8
DETAIL
100
AcDbLine
 10
302.0000000000282
 20
304.4999999999915
 30
0.0
 11
-301.9999999999716
 21
304.5000000000277
 31
0.0
  0
LINE
  5
423A
330
5F92
100
AcDbEntity
  8
DETAIL
100
AcDbLine
 10
286.0000000000409
 20
292.0038052083561
 30
0.0
 11
-285.9999999999586
 21
292.0038052083914
 31
0.0
  0
LINE
  5
423B
330
5F92
100
AcDbEntity
  8
DETAIL
100
AcDbLine
 10
285.5100000000409
 20
-302.0000000000095
 30
0.0
 11
285.5000000000409
 21
-302.0000000000095
 31
0.0
  0
LINE
  5
423C
330
5F92
100
AcDbEntity
  8
DETAIL
100
AcDbLine
 10
-302.0000000000077
 20
-304.5000000000095
 30
0.0
 11
302.0000000000282
 21
-304.5000000000095
 31
0.0
  0
LINE
  5
423D
330
5F92
100
AcDbEntity
  8
DETAIL
100
AcDbLine
 10
300.5000000000064
 20
-347.5000000000096
 30
0.0
 11
-300.4999999999932
 21
-347.5000000000096
 31
0.0
  0
LINE
  5
423E
330
5F92
100
AcDbEntity
  8
DETAIL
100
AcDbLine
 10
-285.999999999995
 20
-292.0038052083732
 30
0.0
 11
286.0000000000409
 21
-292.0038052083732
 31
0.0
  0
LINE
  5
423F
330
5F92
100
AcDbEntity
  8
DETAIL
100
AcDbLine
 10
-300.5000000000332
 20
-347.4999999999832
 30
0.0
 11
-337.5000000000332
 21
-347.4999999999814
 31
0.0
  0
LINE
  5
4240
330
5F92
100
AcDbEntity
  8
DETAIL
100
AcDbLine
 10
-337.4999999999898
 20
347.5000000000187
 30
0.0
 11
-300.4999999999895
 21
347.5000000000168
 31
0.0
  0
ARC
  5
4241
330
5F92
100
AcDbEntity
  8
DETAIL
100
AcDbCircle
 10
-337.5000000000332
 20
-337.4999999999813
 30
0.0
 40
10.0
100
AcDbArc
 50
180.0
 51
270.0
  0
ARC
  5
4242
330
5F92
100
AcDbEntity
  8
DETAIL
100
AcDbCircle
 10
-337.4999999999916
 20
337.5000000000186
 30
0.0
 40
9.999999999999868
100
AcDbArc
 50
90.0
 51
180.0
  0
CIRCLE
  5
4243
330
5F92
100
AcDbEntity
  8
FIX
100
AcDbCircle
 10
-325.0000000000314
 20
-324.9999999999823
 30
0.0
 40
7.5
  0
CIRCLE
  5
4244
330
5F92
100
AcDbEntity
  8
FIX
100
AcDbCircle
 10
-324.9999999999916
 20
325.0000000000178
 30
0.0
 40
7.5
  0
LINE
  5
4245
330
5F92
100
AcDbEntity
  8
DETAIL
100
AcDbLine
 10
-347.5000000000332
 20
-337.4999999999805
 30
0.0
 11
-347.4999999999913
 21
337.5000000000186
 31
0.0
  0
LINE
  5
4246
330
5F92
100
AcDbEntity
  8
DETAIL
100
AcDbLine
 10
-285.9999999999586
 20
304.5000000000268
 30
0.0
 11
-285.999999999995
 21
-304.5000000000095
 31
0.0
  0
LINE
  5
4247
330
5F92
100
AcDbEntity
  8
DETAIL
100
AcDbLine
 10
-287.4999999999586
 20
304.5000000000277
 30
0.0
 11
-287.499999999995
 21
-304.5000000000095
 31
0.0
  0
LINE
  5
4248
330
5F92
100
AcDbEntity
  8
DETAIL
100
AcDbLine
 10
-302.0000000000077
 20
-304.5000000000095
 30
0.0
 11
-301.9999999999716
 21
304.5000000000277
 31
0.0
  0
LINE
  5
424B
330
5F92
100
AcDbEntity
  8
DETAIL
100
AcDbLine
 10
286.0000000000409
 20
255.3214801163854
 30
0.0
 11
-285.9999999999616
 21
255.3214801163854
 31
0.0
  0
LINE
  5
456B
330
5F92
100
AcDbEntity
  8
DETAIL
100
AcDbLine
 10
286.0000000000409
 20
262.1888057135997
 30
0.0
 11
-285.9999999999612
 21
262.1888057135997
 31
0.0
  0
LINE
  5
456E
330
5F92
100
AcDbEntity
  8
DETAIL
100
AcDbLine
 10
-285.9999999999612
 20
262.0580720994781
 30
0.0
 11
286.0000000000409
 21
262.0580720994781
 31
0.0
  0
LINE
  5
4573
330
5F92
100
AcDbEntity
  8
DETAIL
100
AcDbLine
 10
286.0000000000409
 20
171.1214801163846
 30
0.0
 11
-285.9999999999665
 21
171.1214801163846
 31
0.0
  0
LINE
  5
4892
330
5F92
100
AcDbEntity
  8
DETAIL
100
AcDbLine
 10
286.0000000000409
 20
177.9888057135981
 30
0.0
 11
-285.9999999999662
 21
177.9888057135981
 31
0.0
  0
LINE
  5
4895
330
5F92
100
AcDbEntity
  8
DETAIL
100
AcDbLine
 10
-285.9999999999662
 20
177.8580720994773
 30
0.0
 11
286.0000000000409
 21
177.8580720994773
 31
0.0
  0
LINE
  5
489A
330
5F92
100
AcDbEntity
  8
DETAIL
100
AcDbLine
 10
286.0000000000409
 20
86.92148011638485
 30
0.0
 11
-285.9999999999717
 21
86.92148011638483
 31
0.0
  0
LINE
  5
4BB9
330
5F92
100
AcDbEntity
  8
DETAIL
100
AcDbLine
 10
286.0000000000409
 20
93.78880571359829
 30
0.0
 11
-285.9999999999713
 21
93.78880571359829
 31
0.0
  0
LINE
  5
4BBC
330
5F92
100
AcDbEntity
  8
DETAIL
100
AcDbLine
 10
-285.9999999999713
 20
93.65807209947751
 30
0.0
 11
286.0000000000409
 21
93.65807209947751
 31
0.0
  0
LINE
  5
4BC1
330
5F92
100
AcDbEntity
  8
DETAIL
100
AcDbLine
 10
286.0000000000409
 20
2.721480116385007
 30
0.0
 11
-285.9999999999767
 21
2.721480116384098
 31
0.0
  0
LINE
  5
4EE0
330
5F92
100
AcDbEntity
  8
DETAIL
100
AcDbLine
 10
286.0000000000409
 20
9.588805713598503
 30
0.0
 11
-285.9999999999763
 21
9.588805713598503
 31
0.0
  0
LINE
  5
4EE3
330
5F92
100
AcDbEntity
  8
DETAIL
100
AcDbLine
 10
-285.9999999999763
 20
9.458072099476794
 30
0.0
 11
286.0000000000409
 21
9.458072099476794
 31
0.0
  0
LINE
  5
4EE8
330
5F92
100
AcDbEntity
  8
DETAIL
100
AcDbLine
 10
286.0000000000409
 20
-81.47851988361571
 30
0.0
 11
-285.9999999999818
 21
-81.47851988361571
 31
0.0
  0
LINE
  5
5207
330
5F92
100
AcDbEntity
  8
DETAIL
100
AcDbLine
 10
286.0000000000409
 20
-74.6111942864013
 30
0.0
 11
-285.9999999999813
 21
-74.61119428640221
 31
0.0
  0
LINE
  5
520A
330
5F92
100
AcDbEntity
  8
DETAIL
100
AcDbLine
 10
-285.9999999999813
 20
-74.74192790052393
 30
0.0
 11
286.0000000000409
 21
-74.74192790052301
 31
0.0
  0
LINE
  5
520F
330
5F92
100
AcDbEntity
  8
DETAIL
100
AcDbLine
 10
286.0000000000409
 20
-165.6785198836155
 30
0.0
 11
-285.9999999999867
 21
-165.6785198836155
 31
0.0
  0
LINE
  5
552E
330
5F92
100
AcDbEntity
  8
DETAIL
100
AcDbLine
 10
286.0000000000409
 20
-158.811194286401
 30
0.0
 11
-285.9999999999863
 21
-158.8111942864011
 31
0.0
  0
LINE
  5
5531
330
5F92
100
AcDbEntity
  8
DETAIL
100
AcDbLine
 10
-285.9999999999864
 20
-158.9419279005228
 30
0.0
 11
286.0000000000409
 21
-158.9419279005228
 31
0.0
  0
LINE
  5
5535
330
5F92
100
AcDbEntity
  8
DETAIL
100
AcDbLine
 10
286.0000000000409
 20
-249.8785198836163
 30
0.0
 11
-285.9999999999918
 21
-249.8785198836163
 31
0.0
  0
LINE
  5
574C
330
5F92
100
AcDbEntity
  8
DETAIL
100
AcDbLine
 10
286.0000000000409
 20
-243.0111942864028
 30
0.0
 11
-285.9999999999915
 21
-243.0111942864029
 31
0.0
  0
LINE
  5
574F
330
5F92
100
AcDbEntity
  8
DETAIL
100
AcDbLine
 10
-285.9999999999915
 20
-243.1419279005244
 30
0.0
 11
286.0000000000409
 21
-243.1419279005236
 31
0.0
  0
LINE
  5
5752
330
5F92
100
AcDbEntity
  8
DETAIL
100
AcDbLine
 10
11.49000000002297
 20
-257.8402732213567
 30
0.0
 11
10.49000000002297
 21
-258.8364679194488
 31
0.0
  0
LINE
  5
5753
330
5F92
100
AcDbEntity
  8
DETAIL
100
AcDbLine
 10
2.51000000002159
 20
-258.8364679194488
 30
0.0
 11
1.51000000002159
 21
-257.8402732213567
 31
0.0
  0
LINE
  5
5754
330
5F92
100
AcDbEntity
  8
DETAIL
100
AcDbLine
 10
10.49000000002297
 20
-258.8364679194488
 30
0.0
 11
2.51000000002159
 21
-258.8364679194488
 31
0.0
  0
LINE
  5
5755
330
5F92
100
AcDbEntity
  8
DETAIL
100
AcDbLine
 10
11.49000000002297
 20
-255.0821922514947
 30
0.0
 11
11.49000000002297
 21
-257.8402732213567
 31
0.0
  0
LINE
  5
5756
330
5F92
100
AcDbEntity
  8
DETAIL
100
AcDbLine
 10
1.51000000002159
 20
-257.8402732213567
 30
0.0
 11
1.510000000023409
 21
-253.964065901097
 31
0.0
  0
LINE
  5
5757
330
5F92
100
AcDbEntity
  8
DETAIL
100
AcDbLine
 10
1.50000000004138
 20
-253.5705016081015
 30
0.0
 11
1.50000000004138
 21
-249.8785198836163
 31
0.0
  0
LINE
  5
5758
330
5F92
100
AcDbEntity
  8
DETAIL
100
AcDbLine
 10
87.00000000004136
 20
-253.5705016081015
 30
0.0
 11
78.40000000004102
 21
-253.5705016081015
 31
0.0
  0
LINE
  5
5759
330
5F92
100
AcDbEntity
  8
DETAIL
100
AcDbLine
 10
6.400000000041016
 20
-253.5705016081015
 30
0.0
 11
1.50000000004138
 21
-253.5705016081015
 31
0.0
  0
LINE
  5
575A
330
5F92
100
AcDbEntity
  8
DETAIL
100
AcDbLine
 10
87.00000000004136
 20
-249.8785198836163
 30
0.0
 11
87.00000000004136
 21
-253.5705016081015
 31
0.0
  0
LINE
  5
575B
330
5F92
100
AcDbEntity
  8
DETAIL
100
AcDbLine
 10
6.400000000041016
 20
-253.6216414398917
 30
0.0
 11
6.400000000042837
 21
-249.8785198836172
 31
0.0
  0
LINE
  5
575C
330
5F92
100
AcDbEntity
  8
DETAIL
100
AcDbLine
 10
78.40000000004102
 20
-253.6216414398917
 30
0.0
 11
78.40000000004102
 21
-249.8785198836172
 31
0.0
  0
LINE
  5
575D
330
5F92
100
AcDbEntity
  8
DETAIL
100
AcDbLine
 10
78.40000000004102
 20
-253.6216414398917
 30
0.0
 11
78.40000000004102
 21
-255.0821922514956
 31
0.0
  0
LINE
  5
575E
330
5F92
100
AcDbEntity
  8
DETAIL
100
AcDbLine
 10
6.400000000041016
 20
-253.6216414398917
 30
0.0
 11
6.400000000041016
 21
-255.0821922514956
 31
0.0
  0
LINE
  5
575F
330
5F92
100
AcDbEntity
  8
DETAIL
100
AcDbLine
 10
78.40000000004102
 20
-255.0821922514956
 30
0.0
 11
6.400000000041016
 21
-255.0821922514956
 31
0.0
  0
LINE
  5
5760
330
5F92
100
AcDbEntity
  8
DETAIL
100
AcDbLine
 10
-4.099999999973531
 20
-249.9640659010979
 30
0.0
 11
-4.099999999973531
 21
-253.9640659010979
 31
0.0
  0
LINE
  5
5761
330
5F92
100
AcDbEntity
  8
DETAIL
100
AcDbLine
 10
6.400000000024647
 20
-253.9640659010979
 30
0.0
 11
0.5030973958632785
 21
-253.9640659010979
 31
0.0
  0
LINE
  5
5762
330
5F92
100
AcDbEntity
  8
DETAIL
100
AcDbLine
 10
-0.9969026041367211
 20
-253.9640659010979
 30
0.0
 11
-4.099999999973531
 21
-253.9640659010979
 31
0.0
  0
LINE
  5
5763
330
5F92
100
AcDbEntity
  8
DETAIL
100
AcDbLine
 10
1.500000000025011
 20
-249.9640659010979
 30
0.0
 11
0.5030973958632785
 21
-249.9640659010979
 31
0.0
  0
LINE
  5
5764
330
5F92
100
AcDbEntity
  8
DETAIL
100
AcDbLine
 10
-0.9969026041367211
 20
-249.9640659010979
 30
0.0
 11
-4.099999999973531
 21
-249.9640659010979
 31
0.0
  0
LINE
  5
5765
330
5F92
100
AcDbEntity
  8
DETAIL
100
AcDbLine
 10
28.75000000002319
 20
-256.0439842463552
 30
0.0
 11
27.78453411599321
 21
-255.0821922514956
 31
0.0
  0
LINE
  5
5766
330
5F92
100
AcDbEntity
  8
DETAIL
100
AcDbLine
 10
61.75000000002318
 20
-256.0439842463552
 30
0.0
 11
28.75000000002319
 21
-256.0439842463552
 31
0.0
  0
LINE
  5
576F
330
5F92
100
AcDbEntity
  8
DETAIL
100
AcDbLine
 10
-0.9969026041458164
 20
-286.4969026041912
 30
0.0
 11
-0.9969026041476354
 21
-284.4969026041912
 31
0.0
  0
LINE
  5
5770
330
5F92
100
AcDbEntity
  8
DETAIL
100
AcDbLine
 10
-0.9969026041476354
 20
-284.4969026041912
 30
0.0
 11
-2.496902604147634
 21
-284.4969026041912
 31
0.0
  0
LINE
  5
5771
330
5F92
100
AcDbEntity
  8
DETAIL
100
AcDbLine
 10
-2.496902604147634
 20
-284.4969026041912
 30
0.0
 11
-2.496902604145815
 21
-286.4969026041912
 31
0.0
  0
LINE
  5
5772
330
5F92
100
AcDbEntity
  8
DETAIL
100
AcDbLine
 10
-0.9969026041458164
 20
-292.0038052083732
 30
0.0
 11
-0.9969026041458164
 21
-286.4969026041912
 31
0.0
  0
LINE
  5
5773
330
5F92
100
AcDbEntity
  8
DETAIL
100
AcDbLine
 10
-2.496902604145815
 20
-292.0038052083732
 30
0.0
 11
-2.496902604145815
 21
-286.4969026041912
 31
0.0
  0
LINE
  5
5774
330
5F92
100
AcDbEntity
  8
DETAIL
100
AcDbLine
 10
0.5030973958687355
 20
-288.2065273346475
 30
0.0
 11
0.5030973958632785
 21
-249.8785198836172
 31
0.0
  0
LINE
  5
5775
330
5F92
100
AcDbEntity
  8
DETAIL
100
AcDbLine
 10
-0.9969026041367211
 20
-249.8785198836172
 30
0.0
 11
-0.9969026041367211
 21
-252.4674429651291
 31
0.0
  0
LINE
  5
5776
330
5F92
100
AcDbEntity
  8
DETAIL
100
AcDbLine
 10
-0.9969026041367211
 20
-252.4674429651291
 30
0.0
 11
0.5030973958632785
 21
-252.4674429651291
 31
0.0
  0
LINE
  5
5777
330
5F92
100
AcDbEntity
  8
DETAIL
100
AcDbLine
 10
-0.9969026041458164
 20
-288.2065273346475
 30
0.0
 11
0.5030973958541836
 21
-288.2065273346475
 31
0.0
  0
LINE
  5
5778
330
5F92
100
AcDbEntity
  8
DETAIL
100
AcDbLine
 10
-0.9969026041312643
 20
-288.2065273346475
 30
0.0
 11
-0.9969026041367211
 21
-249.8785198836172
 31
0.0
  0
LINE
  5
5779
330
5F92
100
AcDbEntity
  8
DETAIL
100
AcDbLine
 10
62.71546588405499
 20
-255.0821922514956
 30
0.0
 11
61.75000000002318
 21
-256.0439842463552
 31
0.0
  0
LINE
  5
577A
330
5F92
100
AcDbEntity
  8
BASIS
100
AcDbLine
 10
372.5000000000064
 20
0.0000000000150067
 30
0.0
 11
-372.5000000000141
 21
0.0000000000190994
 31
0.0
  0
LINE
  5
577B
330
5F92
100
AcDbEntity
  8
BASIS
100
AcDbLine
 10
-0.0000000000104592
 20
-372.5000000000096
 30
0.0
 11
0.0000000000104592
 21
372.5000000000096
 31
0.0
  0
CIRCLE
  5
577C
330
5F92
100
AcDbEntity
  8
ARRANGE
100
AcDbCircle
 10
-0.0000000000122782
 20
0.0000000000040927
 30
0.0
 40
40.0
  0
POINT
  5
577D
330
5F92
100
AcDbEntity
  8
ARRANGE
100
AcDbPoint
 10
-0.0000000000122782
 20
0.0000000000040927
 30
0.0
 39
50.0
  0
TEXT
  5
577E
330
5F92
100
AcDbEntity
  8
ETC
100
AcDbText
 10
462.2546571134389
 20
611.2390974137056
 30
0.0
 40
64.0
  1
KD-60SC
 41
0.9
100
AcDbText
  0
LINE
  5
577F
330
5F92
100
AcDbEntity
  8
OUTLINE
100
AcDbLine
 10
337.5000000000046
 20
-347.5000000000096
 30
0.0
 11
300.5000000000046
 21
-347.5000000000096
 31
0.0
  0
LINE
  5
5780
330
5F92
100
AcDbEntity
  8
OUTLINE
100
AcDbLine
 10
300.5000000000046
 20
347.4999999999913
 30
0.0
 11
337.5000000000046
 21
347.4999999999913
 31
0.0
  0
ARC
  5
5781
330
5F92
100
AcDbEntity
  8
OUTLINE
100
AcDbCircle
 10
337.5000000000046
 20
-337.5000000000095
 30
0.0
 40
10.0
100
AcDbArc
 50
270.0
 51
0.0
  0
ARC
  5
5782
330
5F92
100
AcDbEntity
  8
OUTLINE
100
AcDbCircle
 10
337.5000000000046
 20
337.4999999999915
 30
0.0
 40
9.999999999999927
100
AcDbArc
 50
0.0
 51
90.0
  0
LINE
  5
5783
330
5F92
100
AcDbEntity
  8
OUTLINE
100
AcDbLine
 10
347.5000000000051
 20
337.4999999999915
 30
0.0
 11
347.5000000000051
 21
-337.5000000000095
 31
0.0
  0
LINE
  5
5784
330
5F92
100
AcDbEntity
  8
OUTLINE
100
AcDbLine
 10
-300.4999999999916
 20
347.5000000000278
 30
0.0
 11
300.5000000000082
 21
347.4999999999913
 31
0.0
  0
LINE
  5
5785
330
5F92
100
AcDbEntity
  8
OUTLINE
100
AcDbLine
 10
300.5000000000046
 20
-347.5000000000096
 30
0.0
 11
-300.499999999995
 21
-347.5000000000096
 31
0.0
  0
LINE
  5
5786
330
5F92
100
AcDbEntity
  8
OUTLINE
100
AcDbLine
 10
-300.5000000000352
 20
-347.4999999999832
 30
0.0
 11
-337.5000000000353
 21
-347.4999999999814
 31
0.0
  0
LINE
  5
5787
330
5F92
100
AcDbEntity
  8
OUTLINE
100
AcDbLine
 10
-337.4999999999916
 20
347.5000000000187
 30
0.0
 11
-300.4999999999916
 21
347.5000000000168
 31
0.0
  0
ARC
  5
5788
330
5F92
100
AcDbEntity
  8
OUTLINE
100
AcDbCircle
 10
-337.5000000000353
 20
-337.4999999999813
 30
0.0
 40
10.0
100
AcDbArc
 50
180.0
 51
270.0
  0
ARC
  5
5789
330
5F92
100
AcDbEntity
  8
OUTLINE
100
AcDbCircle
 10
-337.4999999999932
 20
337.5000000000186
 30
0.0
 40
9.999999999999868
100
AcDbArc
 50
90.0
 51
180.0
  0
LINE
  5
578A
330
5F92
100
AcDbEntity
  8
OUTLINE
100
AcDbLine
 10
-347.5000000000353
 20
-337.4999999999805
 30
0.0
 11
-347.4999999999933
 21
337.5000000000186
 31
0.0
  0
LINE
  5
578B
330
5F92
100
AcDbEntity
  8
NOTE
100
AcDbLine
 10
-337.4999999999916
 20
325.0000000000178
 30
0.0
 11
-312.4999999999916
 21
325.0000000000178
 31
0.0
  0
LINE
  5
578C
330
5F92
100
AcDbEntity
  8
NOTE
100
AcDbLine
 10
-324.9999999999916
 20
312.5000000000178
 30
0.0
 11
-324.9999999999916
 21
337.5000000000178
 31
0.0
  0
LINE
  5
578D
330
5F92
100
AcDbEntity
  8
NOTE
100
AcDbLine
 10
312.5000000000064
 20
324.9999999999915
 30
0.0
 11
337.5000000000064
 21
324.9999999999915
 31
0.0
  0
LINE
  5
578E
330
5F92
100
AcDbEntity
  8
NOTE
100
AcDbLine
 10
325.0000000000064
 20
312.4999999999915
 30
0.0
 11
325.0000000000064
 21
337.4999999999915
 31
0.0
  0
LINE
  5
578F
330
5F92
100
AcDbEntity
  8
NOTE
100
AcDbLine
 10
312.5000000000064
 20
-325.0000000000095
 30
0.0
 11
337.5000000000064
 21
-325.0000000000095
 31
0.0
  0
LINE
  5
5790
330
5F92
100
AcDbEntity
  8
NOTE
100
AcDbLine
 10
325.0000000000064
 20
-337.5000000000095
 30
0.0
 11
325.0000000000064
 21
-312.5000000000095
 31
0.0
  0
LINE
  5
5791
330
5F92
100
AcDbEntity
  8
NOTE
100
AcDbLine
 10
-337.5000000000314
 20
-324.9999999999823
 30
0.0
 11
-312.5000000000314
 21
-324.9999999999823
 31
0.0
  0
LINE
  5
5792
330
5F92
100
AcDbEntity
  8
NOTE
100
AcDbLine
 10
-325.0000000000314
 20
-337.4999999999823
 30
0.0
 11
-325.0000000000314
 21
-312.4999999999823
 31
0.0
  0
LINE
  5
5793
330
5F92
100
AcDbEntity
  8
SIZE
100
AcDbLine
 10
-301.9999999999716
 20
324.5000000000278
 30
0.0
 11
-301.9999999999716
 21
505.6969835769371
 31
0.0
  0
LINE
  5
5794
330
5F92
100
AcDbEntity
  8
SIZE
100
AcDbLine
 10
302.0000000000282
 20
324.4999999999913
 30
0.0
 11
302.0000000000282
 21
505.6969835769371
 31
0.0
  0
LINE
  5
5795
330
5F92
100
AcDbEntity
  8
SIZE
100
AcDbLine
 10
-289.9999999999717
 20
485.6969835769373
 30
0.0
 11
290.0000000000282
 21
485.6969835769373
 31
0.0
  0
LINE
  5
5796
330
5F92
100
AcDbEntity
  8
SIZE
100
AcDbLine
 10
-347.4999999999913
 20
357.5000000000168
 30
0.0
 11
-347.4999999999913
 21
701.0545994735471
 31
0.0
  0
LINE
  5
5797
330
5F92
100
AcDbEntity
  8
SIZE
100
AcDbLine
 10
347.5000000000064
 20
357.4999999999915
 30
0.0
 11
347.5000000000064
 21
701.0545994735471
 31
0.0
  0
LINE
  5
5798
330
5F92
100
AcDbEntity
  8
SIZE
100
AcDbLine
 10
-335.4999999999916
 20
681.0545994735471
 30
0.0
 11
335.5000000000064
 21
681.0545994735471
 31
0.0
  0
LINE
  5
5799
330
5F92
100
AcDbEntity
  8
SIZE
100
AcDbLine
 10
-324.9999999999916
 20
357.5000000000177
 30
0.0
 11
-324.9999999999916
 21
601.1126459585932
 31
0.0
  0
LINE
  5
579A
330
5F92
100
AcDbEntity
  8
SIZE
100
AcDbLine
 10
325.0000000000064
 20
357.4999999999915
 30
0.0
 11
325.0000000000064
 21
601.1126459585932
 31
0.0
  0
LINE
  5
579B
330
5F92
100
AcDbEntity
  8
SIZE
100
AcDbLine
 10
-312.9999999999916
 20
581.1126459585932
 30
0.0
 11
313.0000000000064
 21
581.1126459585932
 31
0.0
  0
LINE
  5
579C
330
5F92
100
AcDbEntity
  8
SIZE
100
AcDbLine
 10
-321.9999999999716
 20
304.5000000000277
 30
0.0
 11
-494.0421787523705
 21
304.5000000000277
 31
0.0
  0
LINE
  5
579D
330
5F92
100
AcDbEntity
  8
SIZE
100
AcDbLine
 10
-322.0000000000077
 20
-304.5000000000095
 30
0.0
 11
-494.0421787523705
 21
-304.5000000000095
 31
0.0
  0
LINE
  5
579E
330
5F92
100
AcDbEntity
  8
SIZE
100
AcDbLine
 10
-474.0421787523705
 20
292.5000000000277
 30
0.0
 11
-474.0421787523705
 21
-292.5000000000096
 31
0.0
  0
TEXT
  5
579F
330
5F92
100
AcDbEntity
  8
NOTE
100
AcDbText
 10
-913.2056591647565
 20
534.3745084260839
 30
0.0
 40
64.0
  1
4×φ15取付穴
 41
0.9
100
AcDbText
1001
ACAD
1000
ACAD_MTEXT_DEFINED_HEIGHT_BEGIN
1070
    46
1040
0.0
1000
ACAD_MTEXT_DEFINED_HEIGHT_END
  0
INSERT
  5
57A0
330
5F92
100
AcDbEntity
  8
NOTE
100
AcDbBlockReference
  2
_OPEN30
 10
-324.9999999999916
 20
325.0000000000178
 30
0.0
 41
11.99999999999999
 42
12.0
 43
12.0
 50
293.2250017115462
1001
ACAD
1000
DSTYLE
1002
{
1070
   341
1005
0
1070
    41
1040
12.0
1070
    42
1040
20.0
1070
    43
1040
200.0
1070
    44
1040
20.0
1070
    73
1070
     0
1070
    74
1070
     0
1070
    77
1070
     1
1070
    78
1070
     8
1070
   140
1040
64.0
1070
   147
1040
10.0
1070
   172
1070
     1
1070
   174
1070
     1
1070
   275
1070
     0
1070
   284
1070
     0
1070
   285
1070
     0
1070
   286
1070
     0
1070
   342
1005
0
1002
}
  0
POLYLINE
  5
57A1
330
5F92
100
AcDbEntity
  8
NOTE
100
AcDb2dPolyline
 66
     1
 10
0.0
 20
0.0
 30
0.0
1001
ACAD
1000
DSTYLE
1002
{
1070
   341
1005
0
1070
    41
1040
12.0
1070
    42
1040
20.0
1070
    43
1040
200.0
1070
    44
1040
20.0
1070
    73
1070
     0
1070
    74
1070
     0
1070
    77
1070
     1
1070
    78
1070
     8
1070
   140
1040
64.0
1070
   147
1040
10.0
1070
   172
1070
     1
1070
   174
1070
     1
1070
   275
1070
     0
1070
   284
1070
     0
1070
   285
1070
     0
1070
   286
1070
     0
1070
   342
1005
0
1002
}
  0
VERTEX
  5
57A2
330
57A1
100
AcDbEntity
  8
NOTE
100
AcDbVertex
100
AcDb2dVertex
 10
-329.7321153757234
 20
336.0275602048302
 30
0.0
  0
VERTEX
  5
57A3
330
57A1
100
AcDbEntity
  8
NOTE
100
AcDbVertex
100
AcDb2dVertex
 10
-407.365659164756
 20
516.9421216791712
 30
0.0
  0
VERTEX
  5
57A4
330
57A1
100
AcDbEntity
  8
NOTE
100
AcDbVertex
100
AcDb2dVertex
 10
-913.2056591647565
 20
516.9421216791712
 30
0.0
  0
SEQEND
  5
57A5
330
57A1
100
AcDbEntity
  8
NOTE
  0
LINE
  5
57A6
330
5F92
100
AcDbEntity
  8
SIZE
100
AcDbLine
 10
-357.4999999999916
 20
325.0000000000178
 30
0.0
 11
-595.262058159617
 21
325.0000000000178
 31
0.0
  0
LINE
  5
57A7
330
5F92
100
AcDbEntity
  8
SIZE
100
AcDbLine
 10
-357.5000000000314
 20
-324.9999999999823
 30
0.0
 11
-595.2620581596172
 21
-324.9999999999823
 31
0.0
  0
LINE
  5
57A8
330
5F92
100
AcDbEntity
  8
SIZE
100
AcDbLine
 10
-575.262058159617
 20
313.0000000000177
 30
0.0
 11
-575.2620581596172
 21
-312.9999999999823
 31
0.0
  0
LINE
  5
57A9
330
5F92
100
AcDbEntity
  8
SIZE
100
AcDbLine
 10
-357.500000000034
 20
-347.4999999999814
 30
0.0
 11
-694.9003927626075
 21
-347.4999999999814
 31
0.0
  0
LINE
  5
57AA
330
5F92
100
AcDbEntity
  8
SIZE
100
AcDbLine
 10
-357.4999999999916
 20
347.5000000000168
 30
0.0
 11
-694.9003927626075
 21
347.5000000000168
 31
0.0
  0
LINE
  5
57AB
330
5F92
100
AcDbEntity
  8
SIZE
100
AcDbLine
 10
-674.9003927626077
 20
-335.4999999999813
 30
0.0
 11
-674.9003927626077
 21
335.500000000017
 31
0.0
  0
TEXT
  5
57AC
330
5F92
100
AcDbEntity
  8
SIZE
100
AcDbText
 10
-484.0421787523705
 20
-72.68571428570521
 30
0.0
 40
64.0
  1
609
 50
90.0
 41
0.9
100
AcDbText
  0
TEXT
  5
57AD
330
5F92
100
AcDbEntity
  8
SIZE
100
AcDbText
 10
-585.262058159617
 20
-74.05714285712509
 30
0.0
 40
64.0
  1
650
 50
90.0
 41
0.9
100
AcDbText
  0
TEXT
  5
57AE
330
5F92
100
AcDbEntity
  8
SIZE
100
AcDbText
 10
-684.9003927626077
 20
-74.05714285712509
 30
0.0
 40
64.0
  1
695
 50
90.0
 41
0.9
100
AcDbText
  0
TEXT
  5
57AF
330
5F92
100
AcDbEntity
  8
SIZE
100
AcDbText
 10
-75.42857142854291
 20
495.6969835769371
 30
0.0
 40
64.0
  1
604
 41
0.9
100
AcDbText
  0
TEXT
  5
57B0
330
5F92
100
AcDbEntity
  8
SIZE
100
AcDbText
 10
-74.0571428571352
 20
691.0545994735471
 30
0.0
 40
64.0
  1
695
 41
0.9
100
AcDbText
  0
TEXT
  5
57B1
330
5F92
100
AcDbEntity
  8
SIZE
100
AcDbText
 10
-74.0571428571352
 20
591.1126459585934
 30
0.0
 40
64.0
  1
650
 41
0.9
100
AcDbText
  0
CIRCLE
  5
57B2
330
5F92
100
AcDbEntity
  8
SIZE
100
AcDbCircle
 10
-474.0421787523705
 20
304.5000000000277
 30
0.0
 40
6.0
  0
LINE
  5
57B3
330
5F92
100
AcDbEntity
  8
SIZE
100
AcDbLine
 10
-474.0421787523705
 20
298.5000000000277
 30
0.0
 11
-474.0421787523705
 21
292.5000000000277
 31
0.0
  0
CIRCLE
  5
57B4
330
5F92
100
AcDbEntity
  8
SIZE
100
AcDbCircle
 10
-575.262058159617
 20
325.0000000000178
 30
0.0
 40
6.0
  0
LINE
  5
57B5
330
5F92
100
AcDbEntity
  8
SIZE
100
AcDbLine
 10
-575.262058159617
 20
319.0000000000178
 30
0.0
 11
-575.262058159617
 21
313.0000000000177
 31
0.0
  0
CIRCLE
  5
57B6
330
5F92
100
AcDbEntity
  8
SIZE
100
AcDbCircle
 10
-674.9003927626077
 20
347.5000000000168
 30
0.0
 40
6.0
  0
LINE
  5
57B7
330
5F92
100
AcDbEntity
  8
SIZE
100
AcDbLine
 10
-674.9003927626077
 20
341.5000000000168
 30
0.0
 11
-674.9003927626077
 21
335.5000000000168
 31
0.0
  0
CIRCLE
  5
57B8
330
5F92
100
AcDbEntity
  8
SIZE
100
AcDbCircle
 10
-474.0421787523705
 20
-304.5000000000095
 30
0.0
 40
6.0
  0
LINE
  5
57B9
330
5F92
100
AcDbEntity
  8
SIZE
100
AcDbLine
 10
-474.0421787523705
 20
-298.5000000000095
 30
0.0
 11
-474.0421787523705
 21
-292.5000000000096
 31
0.0
  0
CIRCLE
  5
57BA
330
5F92
100
AcDbEntity
  8
SIZE
100
AcDbCircle
 10
-575.2620581596172
 20
-324.9999999999823
 30
0.0
 40
6.0
  0
LINE
  5
57BB
330
5F92
100
AcDbEntity
  8
SIZE
100
AcDbLine
 10
-575.2620581596172
 20
-318.9999999999823
 30
0.0
 11
-575.2620581596172
 21
-312.9999999999823
 31
0.0
  0
CIRCLE
  5
57BC
330
5F92
100
AcDbEntity
  8
SIZE
100
AcDbCircle
 10
-674.9003927626077
 20
-347.4999999999814
 30
0.0
 40
6.0
  0
LINE
  5
57BD
330
5F92
100
AcDbEntity
  8
SIZE
100
AcDbLine
 10
-674.9003927626077
 20
-341.4999999999813
 30
0.0
 11
-674.9003927626077
 21
-335.4999999999813
 31
0.0
  0
CIRCLE
  5
57BE
330
5F92
100
AcDbEntity
  8
SIZE
100
AcDbCircle
 10
-301.9999999999716
 20
485.6969835769373
 30
0.0
 40
6.0
  0
LINE
  5
57BF
330
5F92
100
AcDbEntity
  8
SIZE
100
AcDbLine
 10
-295.9999999999716
 20
485.6969835769373
 30
0.0
 11
-289.9999999999717
 21
485.6969835769373
 31
0.0
  0
CIRCLE
  5
57C0
330
5F92
100
AcDbEntity
  8
SIZE
100
AcDbCircle
 10
-347.4999999999913
 20
681.0545994735471
 30
0.0
 40
6.0
  0
LINE
  5
57C1
330
5F92
100
AcDbEntity
  8
SIZE
100
AcDbLine
 10
-341.4999999999915
 20
681.0545994735471
 30
0.0
 11
-335.4999999999915
 21
681.0545994735471
 31
0.0
  0
CIRCLE
  5
57C2
330
5F92
100
AcDbEntity
  8
SIZE
100
AcDbCircle
 10
-324.9999999999916
 20
581.1126459585932
 30
0.0
 40
6.0
  0
LINE
  5
57C3
330
5F92
100
AcDbEntity
  8
SIZE
100
AcDbLine
 10
-318.9999999999916
 20
581.1126459585932
 30
0.0
 11
-312.9999999999916
 21
581.1126459585932
 31
0.0
  0
CIRCLE
  5
57C4
330
5F92
100
AcDbEntity
  8
SIZE
100
AcDbCircle
 10
302.0000000000282
 20
485.6969835769373
 30
0.0
 40
6.0
  0
LINE
  5
57C5
330
5F92
100
AcDbEntity
  8
SIZE
100
AcDbLine
 10
296.0000000000282
 20
485.6969835769373
 30
0.0
 11
290.0000000000282
 21
485.6969835769373
 31
0.0
  0
CIRCLE
  5
57C6
330
5F92
100
AcDbEntity
  8
SIZE
100
AcDbCircle
 10
347.5000000000064
 20
681.0545994735471
 30
0.0
 40
6.0
  0
LINE
  5
57C7
330
5F92
100
AcDbEntity
  8
SIZE
100
AcDbLine
 10
341.5000000000063
 20
681.0545994735471
 30
0.0
 11
335.5000000000064
 21
681.0545994735471
 31
0.0
  0
CIRCLE
  5
57C8
330
5F92
100
AcDbEntity
  8
SIZE
100
AcDbCircle
 10
325.0000000000064
 20
581.1126459585932
 30
0.0
 40
6.0
  0
LINE
  5
57C9
330
5F92
100
AcDbEntity
  8
SIZE
100
AcDbLine
 10
319.0000000000064
 20
581.1126459585932
 30
0.0
 11
313.0000000000064
 21
581.1126459585932
 31
0.0
  0
ENDSEC
  0
SECTION
  2
OBJECTS
  0
DICTIONARY
  5
5F2A
330
0
100
AcDbDictionary
281
     1
  3
ACAD_2007HEADERVARS_RT
350
616F
  3
ACAD_COLOR
350
5F88
  3
ACAD_GROUP
350
5F2B
  3
ACAD_LAYOUT
350
5F87
  3
ACAD_MATERIAL
350
5F2E
  3
ACAD_MLEADERSTYLE
350
5F8B
  3
ACAD_MLINESTYLE
350
5F84
  3
ACAD_PLOTSETTINGS
350
5F86
  3
ACAD_PLOTSTYLENAME
350
5F2C
  3
ACAD_SCALELIST
350
5F58
  3
ACAD_TABLESTYLE
350
5F89
  3
ACAD_VISUALSTYLE
350
5F47
  3
ACDB_RECOMPOSE_DATA
350
616D
  3
AcDbVariableDictionary
350
6164
  3
AcmDictionary
350
6117
  3
AMG
350
6064
  3
DWGPROPS
350
616E
  3
MAPISURF_MODULE
350
60E4
  0
DICTIONARY
  5
613F
330
5F7A
100
AcDbDictionary
280
     1
281
     1
  3
ADSK_XREC_LAYER_RECONCILED
360
6140
  0
DICTIONARY
  5
6141
330
5FA9
100
AcDbDictionary
280
     1
281
     1
  3
ADSK_XREC_LAYER_RECONCILED
360
6142
  0
DICTIONARY
  5
6143
330
5FAA
100
AcDbDictionary
280
     1
281
     1
  3
ADSK_XREC_LAYER_RECONCILED
360
6144
  0
DICTIONARY
  5
6145
330
5FAB
100
AcDbDictionary
280
     1
281
     1
  3
ADSK_XREC_LAYER_RECONCILED
360
6146
  0
DICTIONARY
  5
6147
330
5FAC
100
AcDbDictionary
280
     1
281
     1
  3
ADSK_XREC_LAYER_RECONCILED
360
6148
  0
DICTIONARY
  5
6149
330
5FAD
100
AcDbDictionary
280
     1
281
     1
  3
ADSK_XREC_LAYER_RECONCILED
360
614A
  0
DICTIONARY
  5
614B
330
5FAF
100
AcDbDictionary
280
     1
281
     1
  3
ADSK_XREC_LAYER_RECONCILED
360
614C
  0
DICTIONARY
  5
614D
330
5FB0
100
AcDbDictionary
280
     1
281
     1
  3
ADSK_XREC_LAYER_RECONCILED
360
614E
  0
DICTIONARY
  5
614F
330
5FB1
100
AcDbDictionary
280
     1
281
     1
  3
ADSK_XREC_LAYER_RECONCILED
360
6150
  0
DICTIONARY
  5
6151
330
5FB2
100
AcDbDictionary
280
     1
281
     1
  3
ADSK_XREC_LAYER_RECONCILED
360
6152
  0
DICTIONARY
  5
6153
330
5FB3
100
AcDbDictionary
280
     1
281
     1
  3
ADSK_XREC_LAYER_RECONCILED
360
6154
  0
DICTIONARY
  5
6155
330
5F92
100
AcDbDictionary
280
     1
281
     1
  3
ACAD_INDEX
360
6156
  0
DICTIONARY
  5
616F
102
{ACAD_REACTORS
330
5F2A
102
}
330
5F2A
100
AcDbDictionary
281
     1
  3
DIMARCSYM
350
6170
  3
DIMLTEX1
350
6172
  3
DIMLTEX2
350
6173
  3
DIMLTYPE
350
6171
  0
DICTIONARY
  5
5F88
102
{ACAD_REACTORS
330
5F2A
102
}
330
5F2A
100
AcDbDictionary
281
     1
  0
DICTIONARY
  5
5F2B
102
{ACAD_REACTORS
330
5F2A
102
}
330
5F2A
100
AcDbDictionary
281
     1
  0
DICTIONARY
  5
5F87
102
{ACAD_REACTORS
330
5F2A
102
}
330
5F2A
100
AcDbDictionary
281
     1
  3
Model
350
5F95
  3
レイアウト1
350
5F91
  0
DICTIONARY
  5
5F2E
102
{ACAD_REACTORS
330
5F2A
102
}
330
5F2A
100
AcDbDictionary
281
     1
  3
ByBlock
350
5F37
  3
ByLayer
350
5F2F
  3
Global
350
5F3F
  0
DICTIONARY
  5
5F8B
102
{ACAD_REACTORS
330
5F2A
102
}
330
5F2A
100
AcDbDictionary
281
     1
  3
Standard
350
5F8C
  0
DICTIONARY
  5
5F84
102
{ACAD_REACTORS
330
5F2A
102
}
330
5F2A
100
AcDbDictionary
281
     1
  3
Standard
350
5F85
  0
DICTIONARY
  5
5F86
102
{ACAD_REACTORS
330
5F2A
102
}
330
5F2A
100
AcDbDictionary
281
     1
  0
ACDBDICTIONARYWDFLT
  5
5F2C
102
{ACAD_REACTORS
330
5F2A
102
}
330
5F2A
100
AcDbDictionary
281
     1
  3
Normal
350
5F2D
100
AcDbDictionaryWithDefault
340
5F2D
  0
DICTIONARY
  5
5F58
102
{ACAD_REACTORS
330
5F2A
102
}
330
5F2A
100
AcDbDictionary
281
     1
  3
A0
350
5F59
  3
A1
350
5F5A
  3
A2
350
5F5B
  3
A3
350
5F5C
  3
A4
350
5F5D
  3
A5
350
5F5E
  3
A6
350
5F5F
  3
A7
350
5F60
  3
A8
350
5F61
  3
A9
350
5F62
  3
B0
350
5F63
  3
B1
350
5F64
  3
B2
350
5F65
  3
B3
350
5F66
  3
B4
350
5F67
  3
B5
350
5F68
  3
B6
350
5F69
  3
B7
350
5F6A
  3
B8
350
5F6B
  3
B9
350
5F6C
  3
C0
350
5F6D
  3
C1
350
5F6E
  3
C2
350
5F6F
  3
C3
350
5F70
  3
C4
350
5F71
  3
C5
350
5F72
  3
C6
350
5F73
  3
C7
350
5F74
  3
C8
350
5F75
  3
C9
350
5F76
  3
D0
350
5F77
  3
D1
350
5F78
  3
D2
350
5F79
  0
DICTIONARY
  5
5F89
102
{ACAD_REACTORS
330
5F2A
102
}
330
5F2A
100
AcDbDictionary
281
     1
  3
Standard
350
5F8A
  0
DICTIONARY
  5
5F47
102
{ACAD_REACTORS
330
5F2A
102
}
330
5F2A
100
AcDbDictionary
281
     1
  3
2dWireframe
350
5F4D
  3
3D Hidden
350
5F4F
  3
3dWireframe
350
5F4E
  3
Basic
350
5F4C
  3
Brighten
350
5F53
  3
ColorChange
350
5F57
  3
Conceptual
350
5F50
  3
Dim
350
5F52
  3
Facepattern
350
5F56
  3
Flat
350
5F48
  3
FlatWithEdges
350
5F49
  3
Gouraud
350
5F4A
  3
GouraudWithEdges
350
5F4B
  3
Linepattern
350
5F55
  3
Realistic
350
5F51
  3
Thicken
350
5F54
  0
XRECORD
  5
616D
102
{ACAD_REACTORS
330
5F2A
102
}
330
5F2A
100
AcDbXrecord
280
     1
 90
        1
330
5F8A
  0
DICTIONARY
  5
6164
102
{ACAD_REACTORS
330
5F2A
102
}
330
5F2A
100
AcDbDictionary
281
     1
  3
CANNOSCALE
350
6167
  3
CMLEADERSTYLE
350
6166
  3
CTABLESTYLE
350
6165
  3
DIMASSOC
350
616A
  3
INDEXCTL
350
6169
  3
SORTENTS
350
6168
  0
DICTIONARY
  5
6117
102
{ACAD_REACTORS
330
5F2A
102
}
330
5F2A
100
AcDbDictionary
281
     1
  3
AcmStdDictionary
350
6125
  0
DICTIONARY
  5
6064
102
{ACAD_REACTORS
330
5F2A
102
}
330
5F2A
100
AcDbDictionary
281
     1
  3
AcMgSettings
350
6065
  0
XRECORD
  5
616E
102
{ACAD_REACTORS
330
5F2A
102
}
330
5F2A
100
AcDbXrecord
280
     1
  1
DWGPROPS COOKIE
  2

  3

  4

  6

  7

  8
A090053
  9

300
AmdtFileType=84
301
=
302
=
303
=
304
=
305
=
306
=
307
=
308
=
309
=
 40
1.043840069444444
 41
2452321.396199653
 42
2456213.547090267
  1

 90
        1
  0
XRECORD
  5
6140
102
{ACAD_REACTORS
330
613F
102
}
330
613F
100
AcDbXrecord
280
     1
290
     1
  0
XRECORD
  5
6142
102
{ACAD_REACTORS
330
6141
102
}
330
6141
100
AcDbXrecord
280
     1
290
     1
  0
XRECORD
  5
6144
102
{ACAD_REACTORS
330
6143
102
}
330
6143
100
AcDbXrecord
280
     1
290
     1
  0
XRECORD
  5
6146
102
{ACAD_REACTORS
330
6145
102
}
330
6145
100
AcDbXrecord
280
     1
290
     1
  0
XRECORD
  5
6148
102
{ACAD_REACTORS
330
6147
102
}
330
6147
100
AcDbXrecord
280
     1
290
     1
  0
XRECORD
  5
614A
102
{ACAD_REACTORS
330
6149
102
}
330
6149
100
AcDbXrecord
280
     1
290
     1
  0
XRECORD
  5
614C
102
{ACAD_REACTORS
330
614B
102
}
330
614B
100
AcDbXrecord
280
     1
290
     1
  0
XRECORD
  5
614E
102
{ACAD_REACTORS
330
614D
102
}
330
614D
100
AcDbXrecord
280
     1
290
     1
  0
XRECORD
  5
6150
102
{ACAD_REACTORS
330
614F
102
}
330
614F
100
AcDbXrecord
280
     1
290
     1
  0
XRECORD
  5
6152
102
{ACAD_REACTORS
330
6151
102
}
330
6151
100
AcDbXrecord
280
     1
290
     1
  0
XRECORD
  5
6154
102
{ACAD_REACTORS
330
6153
102
}
330
6153
100
AcDbXrecord
280
     1
290
     1
  0
DICTIONARY
  5
6156
102
{ACAD_REACTORS
330
6155
102
}
330
6155
100
AcDbDictionary
281
     1
  3
*A1
350
6157
  0
XRECORD
  5
6170
102
{ACAD_REACTORS
330
616F
102
}
330
616F
100
AcDbXrecord
280
     1
 70
     1
  0
XRECORD
  5
6172
102
{ACAD_REACTORS
330
616F
102
}
330
616F
100
AcDbXrecord
280
     1
340
5F80
  0
XRECORD
  5
6173
102
{ACAD_REACTORS
330
616F
102
}
330
616F
100
AcDbXrecord
280
     1
340
5F80
  0
XRECORD
  5
6171
102
{ACAD_REACTORS
330
616F
102
}
330
616F
100
AcDbXrecord
280
     1
340
5F80
  0
LAYOUT
  5
5F95
102
{ACAD_XDICTIONARY
360
617A
102
}
102
{ACAD_REACTORS
330
5F87
102
}
330
5F87
100
AcDbPlotSettings
  1

  2
自動 EPSON LP-9600S (W2450527 上)
  4

  6

 40
0.0
 41
0.0
 42
0.0
 43
0.0
 44
0.0
 45
0.0
 46
0.0
 47
0.0
 48
0.0
 49
0.0
140
0.0
141
0.0
142
1.0
143
1.0
 70
  1712
 72
     0
 73
     0
 74
     0
  7

 75
     0
147
1.0
148
0.0
149
0.0
100
AcDbLayout
  1
Model
 70
     1
 71
     0
 10
0.0
 20
0.0
 11
12.0
 21
9.0
 12
0.0
 22
0.0
 32
0.0
 14
0.0
 24
0.0
 34
0.0
 15
0.0
 25
0.0
 35
0.0
146
0.0
 13
0.0
 23
0.0
 33
0.0
 16
1.0
 26
0.0
 36
0.0
 17
0.0
 27
1.0
 37
0.0
 76
     0
330
5F92
331
5F96
  0
LAYOUT
  5
5F91
102
{ACAD_XDICTIONARY
360
6178
102
}
102
{ACAD_REACTORS
330
5F87
102
}
330
5F87
100
AcDbPlotSettings
  1

  2
自動 EPSON LP-9600S (W2450527 上)
  4

  6

 40
0.0
 41
0.0
 42
0.0
 43
0.0
 44
0.0
 45
0.0
 46
0.0
 47
0.0
 48
0.0
 49
0.0
140
0.0
141
0.0
142
1.0
143
1.0
 70
   688
 72
     0
 73
     0
 74
     5
  7

 75
    16
147
1.0
148
0.0
149
0.0
100
AcDbLayout
  1
レイアウト1
 70
     1
 71
     1
 10
0.0
 20
0.0
 11
12.0
 21
9.0
 12
0.0
 22
0.0
 32
0.0
 14
1.000000000000000E+20
 24
1.000000000000000E+20
 34
1.000000000000000E+20
 15
-1.000000000000000E+20
 25
-1.000000000000000E+20
 35
-1.000000000000000E+20
146
0.0
 13
0.0
 23
0.0
 33
0.0
 16
1.0
 26
0.0
 36
0.0
 17
0.0
 27
1.0
 37
0.0
 76
     0
330
5F8E
  0
MATERIAL
  5
5F37
102
{ACAD_XDICTIONARY
360
5F38
102
}
102
{ACAD_REACTORS
330
5F2E
102
}
330
5F2E
100
AcDbMaterial
  1
ByBlock
 72
     0
 43
0.0208333333333333
 43
0.0
 43
0.0
 43
0.0
 43
0.0
 43
0.0208333333333333
 43
0.0
 43
0.0
 43
0.0
 43
0.0
 43
1.0
 43
0.0
 43
0.0
 43
0.0
 43
0.0
 43
1.0
 77
     0
 47
0.0208333333333333
 47
0.0
 47
0.0
 47
0.0
 47
0.0
 47
0.0208333333333333
 47
0.0
 47
0.0
 47
0.0
 47
0.0
 47
1.0
 47
0.0
 47
0.0
 47
0.0
 47
0.0
 47
1.0
171
     0
 49
0.0208333333333333
 49
0.0
 49
0.0
 49
0.0
 49
0.0
 49
0.0208333333333333
 49
0.0
 49
0.0
 49
0.0
 49
0.0
 49
1.0
 49
0.0
 49
0.0
 49
0.0
 49
0.0
 49
1.0
175
     0
142
0.0208333333333333
142
0.0
142
0.0
142
0.0
142
0.0
142
0.0208333333333333
142
0.0
142
0.0
142
0.0
142
0.0
142
1.0
142
0.0
142
0.0
142
0.0
142
0.0
142
1.0
179
     0
144
0.0208333333333333
144
0.0
144
0.0
144
0.0
144
0.0
144
0.0208333333333333
144
0.0
144
0.0
144
0.0
144
0.0
144
1.0
144
0.0
144
0.0
144
0.0
144
0.0
144
1.0
147
0.0208333333333333
147
0.0
147
0.0
147
0.0
147
0.0
147
0.0208333333333333
147
0.0
147
0.0
147
0.0
147
0.0
147
1.0
147
0.0
147
0.0
147
0.0
147
0.0
147
1.0
  0
MATERIAL
  5
5F2F
102
{ACAD_XDICTIONARY
360
5F30
102
}
102
{ACAD_REACTORS
330
5F2E
102
}
330
5F2E
100
AcDbMaterial
  1
ByLayer
 72
     0
 43
0.0208333333333333
 43
0.0
 43
0.0
 43
0.0
 43
0.0
 43
0.0208333333333333
 43
0.0
 43
0.0
 43
0.0
 43
0.0
 43
1.0
 43
0.0
 43
0.0
 43
0.0
 43
0.0
 43
1.0
 77
     0
 47
0.0208333333333333
 47
0.0
 47
0.0
 47
0.0
 47
0.0
 47
0.0208333333333333
 47
0.0
 47
0.0
 47
0.0
 47
0.0
 47
1.0
 47
0.0
 47
0.0
 47
0.0
 47
0.0
 47
1.0
171
     0
 49
0.0208333333333333
 49
0.0
 49
0.0
 49
0.0
 49
0.0
 49
0.0208333333333333
 49
0.0
 49
0.0
 49
0.0
 49
0.0
 49
1.0
 49
0.0
 49
0.0
 49
0.0
 49
0.0
 49
1.0
175
     0
142
0.0208333333333333
142
0.0
142
0.0
142
0.0
142
0.0
142
0.0208333333333333
142
0.0
142
0.0
142
0.0
142
0.0
142
1.0
142
0.0
142
0.0
142
0.0
142
0.0
142
1.0
179
     0
144
0.0208333333333333
144
0.0
144
0.0
144
0.0
144
0.0
144
0.0208333333333333
144
0.0
144
0.0
144
0.0
144
0.0
144
1.0
144
0.0
144
0.0
144
0.0
144
0.0
144
1.0
147
0.0208333333333333
147
0.0
147
0.0
147
0.0
147
0.0
147
0.0208333333333333
147
0.0
147
0.0
147
0.0
147
0.0
147
1.0
147
0.0
147
0.0
147
0.0
147
0.0
147
1.0
  0
MATERIAL
  5
5F3F
102
{ACAD_XDICTIONARY
360
5F40
102
}
102
{ACAD_REACTORS
330
5F2E
102
}
330
5F2E
100
AcDbMaterial
  1
Global
 72
     0
 43
0.0208333333333333
 43
0.0
 43
0.0
 43
0.0
 43
0.0
 43
0.0208333333333333
 43
0.0
 43
0.0
 43
0.0
 43
0.0
 43
1.0
 43
0.0
 43
0.0
 43
0.0
 43
0.0
 43
1.0
 77
     0
 47
0.0208333333333333
 47
0.0
 47
0.0
 47
0.0
 47
0.0
 47
0.0208333333333333
 47
0.0
 47
0.0
 47
0.0
 47
0.0
 47
1.0
 47
0.0
 47
0.0
 47
0.0
 47
0.0
 47
1.0
171
     0
 49
0.0208333333333333
 49
0.0
 49
0.0
 49
0.0
 49
0.0
 49
0.0208333333333333
 49
0.0
 49
0.0
 49
0.0
 49
0.0
 49
1.0
 49
0.0
 49
0.0
 49
0.0
 49
0.0
 49
1.0
175
     0
142
0.0208333333333333
142
0.0
142
0.0
142
0.0
142
0.0
142
0.0208333333333333
142
0.0
142
0.0
142
0.0
142
0.0
142
1.0
142
0.0
142
0.0
142
0.0
142
0.0
142
1.0
179
     0
144
0.0208333333333333
144
0.0
144
0.0
144
0.0
144
0.0
144
0.0208333333333333
144
0.0
144
0.0
144
0.0
144
0.0
144
1.0
144
0.0
144
0.0
144
0.0
144
0.0
144
1.0
147
0.0208333333333333
147
0.0
147
0.0
147
0.0
147
0.0
147
0.0208333333333333
147
0.0
147
0.0
147
0.0
147
0.0
147
1.0
147
0.0
147
0.0
147
0.0
147
0.0
147
1.0
  0
MLEADERSTYLE
  5
5F8C
102
{ACAD_REACTORS
330
5F8B
102
}
330
5F8B
100
AcDbMLeaderStyle
170
     2
171
     1
172
     0
 90
        2
 40
0.0
 41
0.0
173
     1
 91
-1056964608
340
5F80
 92
       -2
290
     1
 42
0.09
291
     1
 43
0.36
  3
Standard
 44
0.18
300

342
5F7B
174
     1
178
     6
175
     1
176
     0
 93
-1056964608
 45
0.18
292
     0
297
     0
 46
0.18
 94
-1056964608
 47
1.0
 49
1.0
140
1.0
293
     1
141
0.0
294
     1
177
     0
142
1.0
295
     0
296
     0
143
0.125
1001
ACAD_MLEADERVER
1070
     2
  0
MLINESTYLE
  5
5F85
102
{ACAD_REACTORS
330
5F84
102
}
330
5F84
100
AcDbMlineStyle
  2
STANDARD
 70
     0
  3

 62
   256
 51
90.0
 52
90.0
 71
     2
 49
0.5
 62
   256
  6
BYLAYER
 49
-0.5
 62
   256
  6
BYLAYER
  0
ACDBPLACEHOLDER
  5
5F2D
102
{ACAD_REACTORS
330
5F2C
102
}
330
5F2C
  0
SCALE
  5
5F59
102
{ACAD_REACTORS
330
5F58
102
}
330
5F58
100
AcDbScale
 70
     0
300
1:1
140
1.0
141
1.0
290
     1
  0
SCALE
  5
5F5A
102
{ACAD_REACTORS
330
5F58
102
}
330
5F58
100
AcDbScale
 70
     0
300
1:2
140
1.0
141
2.0
290
     0
  0
SCALE
  5
5F5B
102
{ACAD_REACTORS
330
5F58
102
}
330
5F58
100
AcDbScale
 70
     0
300
1:4
140
1.0
141
4.0
290
     0
  0
SCALE
  5
5F5C
102
{ACAD_REACTORS
330
5F58
102
}
330
5F58
100
AcDbScale
 70
     0
300
1:5
140
1.0
141
5.0
290
     0
  0
SCALE
  5
5F5D
102
{ACAD_REACTORS
330
5F58
102
}
330
5F58
100
AcDbScale
 70
     0
300
1:8
140
1.0
141
8.0
290
     0
  0
SCALE
  5
5F5E
102
{ACAD_REACTORS
330
5F58
102
}
330
5F58
100
AcDbScale
 70
     0
300
1:10
140
1.0
141
10.0
290
     0
  0
SCALE
  5
5F5F
102
{ACAD_REACTORS
330
5F58
102
}
330
5F58
100
AcDbScale
 70
     0
300
1:16
140
1.0
141
16.0
290
     0
  0
SCALE
  5
5F60
102
{ACAD_REACTORS
330
5F58
102
}
330
5F58
100
AcDbScale
 70
     0
300
1:20
140
1.0
141
20.0
290
     0
  0
SCALE
  5
5F61
102
{ACAD_REACTORS
330
5F58
102
}
330
5F58
100
AcDbScale
 70
     0
300
1:30
140
1.0
141
30.0
290
     0
  0
SCALE
  5
5F62
102
{ACAD_REACTORS
330
5F58
102
}
330
5F58
100
AcDbScale
 70
     0
300
1:40
140
1.0
141
40.0
290
     0
  0
SCALE
  5
5F63
102
{ACAD_REACTORS
330
5F58
102
}
330
5F58
100
AcDbScale
 70
     0
300
1:50
140
1.0
141
50.0
290
     0
  0
SCALE
  5
5F64
102
{ACAD_REACTORS
330
5F58
102
}
330
5F58
100
AcDbScale
 70
     0
300
1:100
140
1.0
141
100.0
290
     0
  0
SCALE
  5
5F65
102
{ACAD_REACTORS
330
5F58
102
}
330
5F58
100
AcDbScale
 70
     0
300
2:1
140
2.0
141
1.0
290
     0
  0
SCALE
  5
5F66
102
{ACAD_REACTORS
330
5F58
102
}
330
5F58
100
AcDbScale
 70
     0
300
4:1
140
4.0
141
1.0
290
     0
  0
SCALE
  5
5F67
102
{ACAD_REACTORS
330
5F58
102
}
330
5F58
100
AcDbScale
 70
     0
300
8:1
140
8.0
141
1.0
290
     0
  0
SCALE
  5
5F68
102
{ACAD_REACTORS
330
5F58
102
}
330
5F58
100
AcDbScale
 70
     0
300
10:1
140
10.0
141
1.0
290
     0
  0
SCALE
  5
5F69
102
{ACAD_REACTORS
330
5F58
102
}
330
5F58
100
AcDbScale
 70
     0
300
100:1
140
100.0
141
1.0
290
     0
  0
SCALE
  5
5F6A
102
{ACAD_REACTORS
330
5F58
102
}
330
5F58
100
AcDbScale
 70
     0
300
1/128" = 1'-0"
140
0.0078125
141
12.0
290
     0
  0
SCALE
  5
5F6B
102
{ACAD_REACTORS
330
5F58
102
}
330
5F58
100
AcDbScale
 70
     0
300
1/64" = 1'-0"
140
0.015625
141
12.0
290
     0
  0
SCALE
  5
5F6C
102
{ACAD_REACTORS
330
5F58
102
}
330
5F58
100
AcDbScale
 70
     0
300
1/32" = 1'-0"
140
0.03125
141
12.0
290
     0
  0
SCALE
  5
5F6D
102
{ACAD_REACTORS
330
5F58
102
}
330
5F58
100
AcDbScale
 70
     0
300
1/16" = 1'-0"
140
0.0625
141
12.0
290
     0
  0
SCALE
  5
5F6E
102
{ACAD_REACTORS
330
5F58
102
}
330
5F58
100
AcDbScale
 70
     0
300
3/32" = 1'-0"
140
0.09375
141
12.0
290
     0
  0
SCALE
  5
5F6F
102
{ACAD_REACTORS
330
5F58
102
}
330
5F58
100
AcDbScale
 70
     0
300
1/8" = 1'-0"
140
0.125
141
12.0
290
     0
  0
SCALE
  5
5F70
102
{ACAD_REACTORS
330
5F58
102
}
330
5F58
100
AcDbScale
 70
     0
300
3/16" = 1'-0"
140
0.1875
141
12.0
290
     0
  0
SCALE
  5
5F71
102
{ACAD_REACTORS
330
5F58
102
}
330
5F58
100
AcDbScale
 70
     0
300
1/4" = 1'-0"
140
0.25
141
12.0
290
     0
  0
SCALE
  5
5F72
102
{ACAD_REACTORS
330
5F58
102
}
330
5F58
100
AcDbScale
 70
     0
300
3/8" = 1'-0"
140
0.375
141
12.0
290
     0
  0
SCALE
  5
5F73
102
{ACAD_REACTORS
330
5F58
102
}
330
5F58
100
AcDbScale
 70
     0
300
1/2" = 1'-0"
140
0.5
141
12.0
290
     0
  0
SCALE
  5
5F74
102
{ACAD_REACTORS
330
5F58
102
}
330
5F58
100
AcDbScale
 70
     0
300
3/4" = 1'-0"
140
0.75
141
12.0
290
     0
  0
SCALE
  5
5F75
102
{ACAD_REACTORS
330
5F58
102
}
330
5F58
100
AcDbScale
 70
     0
300
1" = 1'-0"
140
1.0
141
12.0
290
     0
  0
SCALE
  5
5F76
102
{ACAD_REACTORS
330
5F58
102
}
330
5F58
100
AcDbScale
 70
     0
300
1-1/2" = 1'-0"
140
1.5
141
12.0
290
     0
  0
SCALE
  5
5F77
102
{ACAD_REACTORS
330
5F58
102
}
330
5F58
100
AcDbScale
 70
     0
300
3" = 1'-0"
140
3.0
141
12.0
290
     0
  0
SCALE
  5
5F78
102
{ACAD_REACTORS
330
5F58
102
}
330
5F58
100
AcDbScale
 70
     0
300
6" = 1'-0"
140
6.0
141
12.0
290
     0
  0
SCALE
  5
5F79
102
{ACAD_REACTORS
330
5F58
102
}
330
5F58
100
AcDbScale
 70
     0
300
1'-0" = 1'-0"
140
12.0
141
12.0
290
     0
  0
TABLESTYLE
  5
5F8A
102
{ACAD_XDICTIONARY
360
616B
102
}
102
{ACAD_REACTORS
330
5F89
102
}
330
5F89
100
AcDbTableStyle
  3
Standard
 70
     0
 71
     0
 40
0.06
 41
0.06
280
     0
281
     0
  7
STANDARD
140
0.18
170
     2
 62
     0
 63
     7
283
     0
274
    -2
284
     1
 64
     0
275
    -2
285
     1
 65
     0
276
    -2
286
     1
 66
     0
277
    -2
287
     1
 67
     0
278
    -2
288
     1
 68
     0
279
    -2
289
     1
 69
     0
  7
STANDARD
140
0.25
170
     5
 62
     0
 63
     7
283
     0
274
    -2
284
     1
 64
     0
275
    -2
285
     1
 65
     0
276
    -2
286
     1
 66
     0
277
    -2
287
     1
 67
     0
278
    -2
288
     1
 68
     0
279
    -2
289
     1
 69
     0
  7
STANDARD
140
0.18
170
     5
 62
     0
 63
     7
283
     0
274
    -2
284
     1
 64
     0
275
    -2
285
     1
 65
     0
276
    -2
286
     1
 66
     0
277
    -2
287
     1
 67
     0
278
    -2
288
     1
 68
     0
279
    -2
289
     1
 69
     0
  0
VISUALSTYLE
  5
5F4D
102
{ACAD_REACTORS
330
5F47
102
}
330
5F47
100
AcDbVisualStyle
  2
2dWireframe
 70
     4
 71
     0
 72
     2
 73
     0
 90
        0
 40
-0.6
 41
-30.0
 62
     5
 63
     7
 74
     1
 91
        4
 64
     7
 65
   257
 75
     1
175
     1
 42
1.0
 92
        0
 66
   257
 43
1.0
 76
     1
 77
     6
 78
     2
 67
     7
 79
     5
170
     0
171
     0
290
     0
174
     0
 93
        1
 44
0.0
173
     0
291
     0
 45
0.0
1001
ACAD
1000
AcDbSavedByObjectVersion
1070
     0
  0
VISUALSTYLE
  5
5F4F
102
{ACAD_REACTORS
330
5F47
102
}
330
5F47
100
AcDbVisualStyle
  2
3D Hidden
 70
     6
 71
     1
 72
     2
 73
     2
 90
        0
 40
-0.6
 41
-30.0
 62
     5
 63
     7
 74
     2
 91
        2
 64
     7
 65
   257
 75
     2
175
     1
 42
40.0
 92
        0
 66
   257
 43
1.0
 76
     1
 77
     6
 78
     2
 67
     7
 79
     3
170
     0
171
     0
290
     0
174
     0
 93
        1
 44
0.0
173
     0
291
     0
 45
0.0
1001
ACAD
1000
AcDbSavedByObjectVersion
1070
     0
  0
VISUALSTYLE
  5
5F4E
102
{ACAD_REACTORS
330
5F47
102
}
330
5F47
100
AcDbVisualStyle
  2
3dWireframe
 70
     5
 71
     0
 72
     2
 73
     0
 90
        0
 40
-0.6
 41
-30.0
 62
     5
 63
     7
 74
     1
 91
        4
 64
     7
 65
   257
 75
     1
175
     1
 42
1.0
 92
        0
 66
   257
 43
1.0
 76
     1
 77
     6
 78
     2
 67
     7
 79
     5
170
     0
171
     0
290
     0
174
     0
 93
        1
 44
0.0
173
     0
291
     0
 45
0.0
1001
ACAD
1000
AcDbSavedByObjectVersion
1070
     0
  0
VISUALSTYLE
  5
5F4C
102
{ACAD_REACTORS
330
5F47
102
}
330
5F47
100
AcDbVisualStyle
  2
Basic
 70
     7
 71
     1
 72
     0
 73
     1
 90
        0
 40
-0.6
 41
-30.0
 62
     5
 63
     7
 74
     0
 91
        4
 64
     7
 65
   257
 75
     1
175
     1
 42
1.0
 92
        8
 66
     7
 43
1.0
 76
     1
 77
     6
 78
     2
 67
     7
 79
     5
170
     0
171
     0
290
     0
174
     0
 93
        1
 44
0.0
173
     0
291
     1
 45
0.0
1001
ACAD
1000
AcDbSavedByObjectVersion
1070
     0
  0
VISUALSTYLE
  5
5F53
102
{ACAD_REACTORS
330
5F47
102
}
330
5F47
100
AcDbVisualStyle
  2
Brighten
 70
    12
 71
     2
 72
     2
 73
     0
 90
        0
 40
-0.6
 41
-30.0
 62
     5
 63
     7
 74
     1
 91
        4
 64
     7
 65
   257
 75
     1
175
     1
 42
1.0
 92
        8
 66
     7
 43
1.0
 76
     1
 77
     6
 78
     2
 67
     7
 79
     5
170
     0
171
     0
290
     0
174
     0
 93
        1
 44
50.0
173
     0
291
     1
 45
0.0
1001
ACAD
1000
AcDbSavedByObjectVersion
1070
     0
  0
VISUALSTYLE
  5
5F57
102
{ACAD_REACTORS
330
5F47
102
}
330
5F47
100
AcDbVisualStyle
  2
ColorChange
 70
    16
 71
     2
 72
     2
 73
     3
 90
        0
 40
-0.6
 41
-30.0
 62
     5
 63
     8
 74
     1
 91
        4
 64
     7
 65
   257
 75
     1
175
     1
 42
1.0
 92
        8
 66
     8
 43
1.0
 76
     1
 77
     6
 78
     2
 67
     7
 79
     5
170
     0
171
     0
290
     0
174
     0
 93
        1
 44
0.0
173
     0
291
     1
 45
0.0
1001
ACAD
1000
AcDbSavedByObjectVersion
1070
     0
  0
VISUALSTYLE
  5
5F50
102
{ACAD_REACTORS
330
5F47
102
}
330
5F47
100
AcDbVisualStyle
  2
Conceptual
 70
     9
 71
     3
 72
     2
 73
     0
 90
        0
 40
-0.6
 41
-30.0
 62
     5
 63
     7
 74
     2
 91
        2
 64
     7
 65
   257
 75
     1
175
     1
 42
40.0
 92
        8
 66
     7
 43
1.0
 76
     1
 77
     6
 78
     2
 67
     7
 79
     3
170
     0
171
     0
290
     0
174
     0
 93
        1
 44
0.0
173
     0
291
     0
 45
0.0
1001
ACAD
1000
AcDbSavedByObjectVersion
1070
     0
  0
VISUALSTYLE
  5
5F52
102
{ACAD_REACTORS
330
5F47
102
}
330
5F47
100
AcDbVisualStyle
  2
Dim
 70
    11
 71
     2
 72
     2
 73
     0
 90
        0
 40
-0.6
 41
-30.0
 62
     5
 63
     7
 74
     1
 91
        4
 64
     7
 65
   257
 75
     1
175
     1
 42
1.0
 92
        8
 66
     7
 43
1.0
 76
     1
 77
     6
 78
     2
 67
     7
 79
     5
170
     0
171
     0
290
     0
174
     0
 93
        1
 44
-50.0
173
     0
291
     1
 45
0.0
1001
ACAD
1000
AcDbSavedByObjectVersion
1070
     0
  0
VISUALSTYLE
  5
5F56
102
{ACAD_REACTORS
330
5F47
102
}
330
5F47
100
AcDbVisualStyle
  2
Facepattern
 70
    15
 71
     2
 72
     2
 73
     0
 90
        0
 40
-0.6
 41
-30.0
 62
     5
 63
     7
 74
     1
 91
        4
 64
     7
 65
   257
 75
     1
175
     1
 42
1.0
 92
        8
 66
     7
 43
1.0
 76
     1
 77
     6
 78
     2
 67
     7
 79
     5
170
     0
171
     0
290
     0
174
     0
 93
        1
 44
0.0
173
     0
291
     1
 45
0.0
1001
ACAD
1000
AcDbSavedByObjectVersion
1070
     0
  0
VISUALSTYLE
  5
5F48
102
{ACAD_REACTORS
330
5F47
102
}
330
5F47
100
AcDbVisualStyle
  2
Flat
 70
     0
 71
     2
 72
     1
 73
     1
 90
        2
 40
-0.6
 41
30.0
 62
     5
 63
     7
 74
     0
 91
        4
 64
     7
 65
   257
 75
     1
175
     1
 42
1.0
 92
        8
 66
     7
 43
1.0
 76
     1
 77
     6
 78
     2
 67
     7
 79
     5
170
     0
171
     0
290
     0
174
     0
 93
       13
 44
0.0
173
     0
291
     1
 45
0.0
1001
ACAD
1000
AcDbSavedByObjectVersion
1070
     0
  0
VISUALSTYLE
  5
5F49
102
{ACAD_REACTORS
330
5F47
102
}
330
5F47
100
AcDbVisualStyle
  2
FlatWithEdges
 70
     1
 71
     2
 72
     1
 73
     1
 90
        2
 40
-0.6
 41
30.0
 62
     5
 63
     7
 74
     1
 91
        4
 64
     7
 65
   257
 75
     1
175
     1
 42
1.0
 92
        0
 66
   257
 43
1.0
 76
     1
 77
     6
 78
     2
 67
     7
 79
     5
170
     0
171
     0
290
     0
174
     0
 93
       13
 44
0.0
173
     0
291
     1
 45
0.0
1001
ACAD
1000
AcDbSavedByObjectVersion
1070
     0
  0
VISUALSTYLE
  5
5F4A
102
{ACAD_REACTORS
330
5F47
102
}
330
5F47
100
AcDbVisualStyle
  2
Gouraud
 70
     2
 71
     2
 72
     2
 73
     1
 90
        2
 40
-0.6
 41
30.0
 62
     5
 63
     7
 74
     0
 91
        4
 64
     7
 65
   257
 75
     1
175
     1
 42
1.0
 92
        0
 66
     7
 43
1.0
 76
     1
 77
     6
 78
     2
 67
     7
 79
     5
170
     0
171
     0
290
     0
174
     0
 93
       13
 44
0.0
173
     0
291
     1
 45
0.0
1001
ACAD
1000
AcDbSavedByObjectVersion
1070
     0
  0
VISUALSTYLE
  5
5F4B
102
{ACAD_REACTORS
330
5F47
102
}
330
5F47
100
AcDbVisualStyle
  2
GouraudWithEdges
 70
     3
 71
     2
 72
     2
 73
     1
 90
        2
 40
-0.6
 41
30.0
 62
     5
 63
     7
 74
     1
 91
        4
 64
     7
 65
   257
 75
     1
175
     1
 42
1.0
 92
        0
 66
   257
 43
1.0
 76
     1
 77
     6
 78
     2
 67
     7
 79
     5
170
     0
171
     0
290
     0
174
     0
 93
       13
 44
0.0
173
     0
291
     1
 45
0.0
1001
ACAD
1000
AcDbSavedByObjectVersion
1070
     0
  0
VISUALSTYLE
  5
5F55
102
{ACAD_REACTORS
330
5F47
102
}
330
5F47
100
AcDbVisualStyle
  2
Linepattern
 70
    14
 71
     2
 72
     2
 73
     0
 90
        0
 40
-0.6
 41
-30.0
 62
     5
 63
     7
 74
     1
 91
        4
 64
     7
 65
   257
 75
     7
175
     7
 42
1.0
 92
        8
 66
     7
 43
1.0
 76
     1
 77
     6
 78
     2
 67
     7
 79
     5
170
     0
171
     0
290
     0
174
     0
 93
        1
 44
0.0
173
     0
291
     1
 45
0.0
1001
ACAD
1000
AcDbSavedByObjectVersion
1070
     0
  0
VISUALSTYLE
  5
5F51
102
{ACAD_REACTORS
330
5F47
102
}
330
5F47
100
AcDbVisualStyle
  2
Realistic
 70
     8
 71
     2
 72
     2
 73
     0
 90
        0
 40
-0.6
 41
-30.0
 62
     5
 63
     7
 74
     1
 91
        0
 64
     7
 65
   257
 75
     1
175
     1
 42
1.0
 92
        8
 66
     8
 43
1.0
 76
     1
 77
     6
 78
     2
 67
     7
 79
     5
170
     0
171
     0
290
     0
174
     0
 93
       13
 44
0.0
173
     0
291
     0
 45
0.0
1001
ACAD
1000
AcDbSavedByObjectVersion
1070
     0
  0
VISUALSTYLE
  5
5F54
102
{ACAD_REACTORS
330
5F47
102
}
330
5F47
100
AcDbVisualStyle
  2
Thicken
 70
    13
 71
     2
 72
     2
 73
     0
 90
        0
 40
-0.6
 41
-30.0
 62
     5
 63
     7
 74
     1
 91
        4
 64
     7
 65
   257
 75
     1
175
     1
 42
1.0
 92
       12
 66
     7
 43
1.0
 76
     1
 77
     6
 78
     2
 67
     7
 79
     5
170
     0
171
     0
290
     0
174
     0
 93
        1
 44
0.0
173
     0
291
     1
 45
0.0
1001
ACAD
1000
AcDbSavedByObjectVersion
1070
     0
  0
DICTIONARYVAR
  5
6167
102
{ACAD_REACTORS
330
6164
102
}
330
6164
100
DictionaryVariables
280
     0
  1
1:1
  0
DICTIONARYVAR
  5
6166
102
{ACAD_REACTORS
330
6164
102
}
330
6164
100
DictionaryVariables
280
     0
  1
STANDARD
  0
DICTIONARYVAR
  5
6165
102
{ACAD_REACTORS
330
6164
102
}
330
6164
100
DictionaryVariables
280
     0
  1
STANDARD
  0
DICTIONARYVAR
  5
616A
102
{ACAD_REACTORS
330
6164
102
}
330
6164
100
DictionaryVariables
280
     0
  1
1
  0
DICTIONARYVAR
  5
6169
102
{ACAD_REACTORS
330
6164
102
}
330
6164
100
DictionaryVariables
280
     0
  1
1
  0
DICTIONARYVAR
  5
6168
102
{ACAD_REACTORS
330
6164
102
}
330
6164
100
DictionaryVariables
280
     0
  1
127
  0
DICTIONARY
  5
6125
102
{ACAD_REACTORS
330
6117
102
}
330
6117
100
AcDbDictionary
281
     1
  0
DICTIONARY
  5
6065
102
{ACAD_REACTORS
330
6064
102
}
330
6064
100
AcDbDictionary
281
     1
  3
DWGSETTINGS
350
6066
  3
TRANSSETTINGS
350
6067
  0
LAYER_INDEX
  5
6157
102
{ACAD_REACTORS
330
6156
102
}
330
6156
100
AcDbIndex
 40
2456213.547090267
100
AcDbLayerIndex
  8
0
360
6158
 90
        0
  8
OUTLINE
360
6159
 90
       18
  8
SIZE
360
615A
 90
       48
  8
BASIS
360
615B
 90
        2
  8
DETAIL
360
615C
 90
       76
  8
ARRANGE
360
615D
 90
        2
  8
DEFPOINTS
360
615E
 90
        0
  8
ETC
360
615F
 90
        3
  8
FIX
360
6160
 90
        4
  8
NOTE
360
6161
 90
       11
  8
SERVICESPACE
360
6162
 90
        0
  8
SYMBOLLINE
360
6163
 90
        0
  0
DICTIONARY
  5
617A
330
5F95
100
AcDbDictionary
280
     1
281
     1
  3
ACAD_XREC_ROUNDTRIP
360
617B
  0
DICTIONARY
  5
6178
330
5F91
100
AcDbDictionary
280
     1
281
     1
  3
ACAD_XREC_ROUNDTRIP
360
6179
  0
DICTIONARY
  5
5F38
330
5F37
100
AcDbDictionary
280
     1
281
     1
  3
ACAD_XREC_ROUNDTRIP
360
6175
  3
BUMPTILE
360
5F3A
  3
DIFFUSETILE
360
5F39
  3
OPACITYTILE
360
5F3D
  3
REFLECTIONTILE
360
5F3C
  3
REFRACTIONTILE
360
5F3E
  3
SPECULARTILE
360
5F3B
  0
DICTIONARY
  5
5F30
330
5F2F
100
AcDbDictionary
280
     1
281
     1
  3
ACAD_XREC_ROUNDTRIP
360
6174
  3
BUMPTILE
360
5F32
  3
DIFFUSETILE
360
5F31
  3
OPACITYTILE
360
5F35
  3
REFLECTIONTILE
360
5F34
  3
REFRACTIONTILE
360
5F36
  3
SPECULARTILE
360
5F33
  0
DICTIONARY
  5
5F40
330
5F3F
100
AcDbDictionary
280
     1
281
     1
  3
ACAD_XREC_ROUNDTRIP
360
6176
  3
BUMPTILE
360
5F42
  3
DIFFUSETILE
360
5F41
  3
OPACITYTILE
360
5F45
  3
REFLECTIONTILE
360
5F44
  3
REFRACTIONTILE
360
5F46
  3
SPECULARTILE
360
5F43
  0
DICTIONARY
  5
616B
330
5F8A
100
AcDbDictionary
280
     1
281
     1
  3
ACAD_ROUNDTRIP_2008_TABLESTYLE_CELLSTYLEMAP
360
616C
  3
ACAD_XREC_ROUNDTRIP
360
6177
  0
IDBUFFER
  5
6158
330
0
100
AcDbIdBuffer
  0
IDBUFFER
  5
6159
330
0
100
AcDbIdBuffer
330
5789
330
578A
330
953
330
954
330
955
330
956
330
957
330
958
330
577F
330
5780
330
5781
330
5782
330
5783
330
5784
330
5785
330
5786
330
5787
330
5788
  0
IDBUFFER
  5
615A
330
0
100
AcDbIdBuffer
330
57AA
330
57AB
330
57AC
330
57AD
330
57AE
330
57AF
330
57B0
330
57B1
330
57B2
330
57B3
330
57B4
330
57B5
330
57B6
330
57B7
330
57B8
330
57B9
330
57BA
330
57BB
330
57BC
330
57BD
330
57BE
330
57BF
330
57C0
330
57C1
330
57C2
330
57C3
330
57C4
330
57C5
330
57C6
330
57C7
330
57C8
330
57C9
330
5793
330
5794
330
5795
330
5796
330
5797
330
5798
330
5799
330
579A
330
579B
330
579C
330
579D
330
579E
330
57A6
330
57A7
330
57A8
330
57A9
  0
IDBUFFER
  5
615B
330
0
100
AcDbIdBuffer
330
577A
330
577B
  0
IDBUFFER
  5
615C
330
0
100
AcDbIdBuffer
330
5756
330
5757
330
5758
330
5759
330
575A
330
575B
330
575C
330
575D
330
575E
330
575F
330
5760
330
5761
330
5762
330
5763
330
5764
330
5765
330
5766
330
576F
330
5770
330
5771
330
5772
330
5773
330
5774
330
5775
330
5776
330
5777
330
5778
330
5779
330
422E
330
422F
330
4230
330
4231
330
4234
330
4235
330
4236
330
4237
330
4238
330
4239
330
423A
330
423B
330
423C
330
423D
330
423E
330
423F
330
4240
330
4241
330
4242
330
4245
330
4246
330
4247
330
4248
330
424B
330
456B
330
456E
330
4573
330
4892
330
4895
330
489A
330
4BB9
330
4BBC
330
4BC1
330
4EE0
330
4EE3
330
4EE8
330
5207
330
520A
330
520F
330
552E
330
5531
330
5535
330
574C
330
574F
330
5752
330
5753
330
5754
330
5755
  0
IDBUFFER
  5
615D
330
0
100
AcDbIdBuffer
330
577C
330
577D
  0
IDBUFFER
  5
615E
330
0
100
AcDbIdBuffer
  0
IDBUFFER
  5
615F
330
0
100
AcDbIdBuffer
330
422C
330
422D
330
577E
  0
IDBUFFER
  5
6160
330
0
100
AcDbIdBuffer
330
4232
330
4233
330
4243
330
4244
  0
IDBUFFER
  5
6161
330
0
100
AcDbIdBuffer
330
578B
330
578C
330
578D
330
578E
330
578F
330
5790
330
5791
330
5792
330
579F
330
57A0
330
57A1
  0
IDBUFFER
  5
6162
330
0
100
AcDbIdBuffer
  0
IDBUFFER
  5
6163
330
0
100
AcDbIdBuffer
  0
XRECORD
  5
617B
102
{ACAD_REACTORS
330
617A
102
}
330
617A
100
AcDbXrecord
280
     1
102
SHADEPLOT
 70
     0
102
SHADEPLOTRESLEVEL
 70
     2
102
SHADEPLOTCUSTOMDPI
 70
   300
  0
XRECORD
  5
6179
102
{ACAD_REACTORS
330
6178
102
}
330
6178
100
AcDbXrecord
280
     1
102
SHADEPLOT
 70
     0
102
SHADEPLOTRESLEVEL
 70
     2
102
SHADEPLOTCUSTOMDPI
 70
   300
  0
XRECORD
  5
6175
102
{ACAD_REACTORS
330
5F38
102
}
330
5F38
100
AcDbXrecord
280
     1
102
MATERIAL
148
0.0
149
0.0
149
0.0
 93
        0
 94
      127
282
     0
 72
     0
 77
     0
171
     0
175
     0
179
     0
273
     0
  0
XRECORD
  5
5F3A
102
{ACAD_REACTORS
330
5F38
102
}
330
5F38
100
AcDbXrecord
280
     1
270
     1
271
     1
  0
XRECORD
  5
5F39
102
{ACAD_REACTORS
330
5F38
102
}
330
5F38
100
AcDbXrecord
280
     1
270
     1
271
     1
  0
XRECORD
  5
5F3D
102
{ACAD_REACTORS
330
5F38
102
}
330
5F38
100
AcDbXrecord
280
     1
270
     1
271
     1
  0
XRECORD
  5
5F3C
102
{ACAD_REACTORS
330
5F38
102
}
330
5F38
100
AcDbXrecord
280
     1
270
     1
271
     1
  0
XRECORD
  5
5F3E
102
{ACAD_REACTORS
330
5F38
102
}
330
5F38
100
AcDbXrecord
280
     1
270
     1
271
     1
  0
XRECORD
  5
5F3B
102
{ACAD_REACTORS
330
5F38
102
}
330
5F38
100
AcDbXrecord
280
     1
270
     1
271
     1
  0
XRECORD
  5
6174
102
{ACAD_REACTORS
330
5F30
102
}
330
5F30
100
AcDbXrecord
280
     1
102
MATERIAL
148
0.0
149
0.0
149
0.0
 93
        0
 94
      127
282
     0
 72
     0
 77
     0
171
     0
175
     0
179
     0
273
     0
  0
XRECORD
  5
5F32
102
{ACAD_REACTORS
330
5F30
102
}
330
5F30
100
AcDbXrecord
280
     1
270
     1
271
     1
  0
XRECORD
  5
5F31
102
{ACAD_REACTORS
330
5F30
102
}
330
5F30
100
AcDbXrecord
280
     1
270
     1
271
     1
  0
XRECORD
  5
5F35
102
{ACAD_REACTORS
330
5F30
102
}
330
5F30
100
AcDbXrecord
280
     1
270
     1
271
     1
  0
XRECORD
  5
5F34
102
{ACAD_REACTORS
330
5F30
102
}
330
5F30
100
AcDbXrecord
280
     1
270
     1
271
     1
  0
XRECORD
  5
5F36
102
{ACAD_REACTORS
330
5F30
102
}
330
5F30
100
AcDbXrecord
280
     1
270
     1
271
     1
  0
XRECORD
  5
5F33
102
{ACAD_REACTORS
330
5F30
102
}
330
5F30
100
AcDbXrecord
280
     1
270
     1
271
     1
  0
XRECORD
  5
6176
102
{ACAD_REACTORS
330
5F40
102
}
330
5F40
100
AcDbXrecord
280
     1
102
MATERIAL
148
0.0
149
0.0
149
0.0
 93
        0
 94
      127
282
     0
 72
     0
 77
     0
171
     0
175
     0
179
     0
273
     0
  0
XRECORD
  5
5F42
102
{ACAD_REACTORS
330
5F40
102
}
330
5F40
100
AcDbXrecord
280
     1
270
     1
271
     1
  0
XRECORD
  5
5F41
102
{ACAD_REACTORS
330
5F40
102
}
330
5F40
100
AcDbXrecord
280
     1
270
     1
271
     1
  0
XRECORD
  5
5F45
102
{ACAD_REACTORS
330
5F40
102
}
330
5F40
100
AcDbXrecord
280
     1
270
     1
271
     1
  0
XRECORD
  5
5F44
102
{ACAD_REACTORS
330
5F40
102
}
330
5F40
100
AcDbXrecord
280
     1
270
     1
271
     1
  0
XRECORD
  5
5F46
102
{ACAD_REACTORS
330
5F40
102
}
330
5F40
100
AcDbXrecord
280
     1
270
     1
271
     1
  0
XRECORD
  5
5F43
102
{ACAD_REACTORS
330
5F40
102
}
330
5F40
100
AcDbXrecord
280
     1
270
     1
271
     1
  0
CELLSTYLEMAP
  5
616C
102
{ACAD_REACTORS
330
616B
102
}
330
616B
100
AcDbCellStyleMap
 90
        3
300
CELLSTYLE
  1
TABLEFORMAT_BEGIN
 90
        5
170
     1
 91
        0
 92
    32768
 62
   257
 93
        1
300
CONTENTFORMAT
  1
CONTENTFORMAT_BEGIN
 90
        0
 91
        0
 92
      512
 93
        0
300

 40
0.0
140
1.0
 94
        5
 62
     0
340
5F7B
144
0.25
309
CONTENTFORMAT_END
171
     0
 94
        0
309
TABLEFORMAT_END
  1
CELLSTYLE_BEGIN
 90
        1
 91
        1
300
_TITLE
309
CELLSTYLE_END
300
CELLSTYLE
  1
TABLEFORMAT_BEGIN
 90
        5
170
     1
 91
        0
 92
        0
 62
   257
 93
        1
300
CONTENTFORMAT
  1
CONTENTFORMAT_BEGIN
 90
        0
 91
        0
 92
      512
 93
        0
300

 40
0.0
140
1.0
 94
        5
 62
     0
340
5F7B
144
0.18
309
CONTENTFORMAT_END
171
     0
 94
        0
309
TABLEFORMAT_END
  1
CELLSTYLE_BEGIN
 90
        2
 91
        1
300
_HEADER
309
CELLSTYLE_END
300
CELLSTYLE
  1
TABLEFORMAT_BEGIN
 90
        5
170
     1
 91
        0
 92
        0
 62
   257
 93
        1
300
CONTENTFORMAT
  1
CONTENTFORMAT_BEGIN
 90
        0
 91
        0
 92
      512
 93
        0
300

 40
0.0
140
1.0
 94
        2
 62
     0
340
5F7B
144
0.18
309
CONTENTFORMAT_END
171
     0
 94
        0
309
TABLEFORMAT_END
  1
CELLSTYLE_BEGIN
 90
        3
 91
        2
300
_DATA
309
CELLSTYLE_END
  0
XRECORD
  5
6177
102
{ACAD_REACTORS
330
616B
102
}
330
616B
100
AcDbXrecord
280
     1
102
ACAD_ROUNDTRIP_PRE2007_TABLESTYLE
 90
      512
 91
        0
  1

 92
      512
 93
        0
  2

 94
      512
 95
        0
  3

  0
ENDSEC
  0
EOF
