  0
SECTION
  2
HEADER
  9
$ACADVER
  1
AC1015
  9
$ACADMAINTVER
 70
    20
  9
$DWGCODEPAGE
  3
ANSI_932
  9
$INSBASE
 10
0.0
 20
0.0
 30
0.0
  9
$EXTMIN
 10
-709.3423475300223
 20
-906.9452125644485
 30
0.0
  9
$EXTMAX
 10
922.4636077979614
 20
947.7348342861393
 30
0.0
  9
$LIMMIN
 10
-2970.0
 20
-2100.0
  9
$LIMMAX
 10
2970.0
 20
2100.0
  9
$ORTHOMODE
 70
     0
  9
$REGENMODE
 70
     0
  9
$FILLMODE
 70
     1
  9
$QTEXTMODE
 70
     0
  9
$MIRRTEXT
 70
     0
  9
$LTSCALE
 40
20.0
  9
$ATTMODE
 70
     1
  9
$TEXTSIZE
 40
64.0
  9
$TRACEWID
 40
0.05
  9
$TEXTSTYLE
  7
STANDARD
  9
$CLAYER
  8
0
  9
$CELTYPE
  6
CONTINUOUS
  9
$CECOLOR
 62
   256
  9
$CELTSCALE
 40
1.0
  9
$DISPSILH
 70
     0
  9
$DIMSCALE
 40
1.0
  9
$DIMASZ
 40
0.12
  9
$DIMEXO
 40
0.05
  9
$DIMDLI
 40
0.5
  9
$DIMRND
 40
0.0
  9
$DIMDLE
 40
0.0
  9
$DIMEXE
 40
0.1
  9
$DIMTP
 40
0.1
  9
$DIMTM
 40
0.1
  9
$DIMTXT
 40
0.12
  9
$DIMCEN
 40
0.0
  9
$DIMTSZ
 40
0.0
  9
$DIMTOL
 70
     0
  9
$DIMLIM
 70
     0
  9
$DIMTIH
 70
     1
  9
$DIMTOH
 70
     1
  9
$DIMSE1
 70
     0
  9
$DIMSE2
 70
     0
  9
$DIMTAD
 70
     0
  9
$DIMZIN
 70
     7
  9
$DIMBLK
  1

  9
$DIMASO
 70
     1
  9
$DIMSHO
 70
     0
  9
$DIMPOST
  1

  9
$DIMAPOST
  1
mm
  9
$DIMALT
 70
     0
  9
$DIMALTD
 70
     2
  9
$DIMALTF
 40
25.4
  9
$DIMLFAC
 40
1.0
  9
$DIMTOFL
 70
     0
  9
$DIMTVP
 40
0.0
  9
$DIMTIX
 70
     0
  9
$DIMSOXD
 70
     0
  9
$DIMSAH
 70
     0
  9
$DIMBLK1
  1

  9
$DIMBLK2
  1

  9
$DIMSTYLE
  2
AM_ANSI
  9
$DIMCLRD
 70
   256
  9
$DIMCLRE
 70
   256
  9
$DIMCLRT
 70
     2
  9
$DIMTFAC
 40
0.71
  9
$DIMGAP
 40
0.06
  9
$DIMJUST
 70
     0
  9
$DIMSD1
 70
     0
  9
$DIMSD2
 70
     0
  9
$DIMTOLJ
 70
     1
  9
$DIMTZIN
 70
     7
  9
$DIMALTZ
 70
     0
  9
$DIMALTTZ
 70
     0
  9
$DIMUPT
 70
     0
  9
$DIMDEC
 70
     4
  9
$DIMTDEC
 70
     4
  9
$DIMALTU
 70
     2
  9
$DIMALTTD
 70
     4
  9
$DIMTXSTY
  7
STANDARD
  9
$DIMAUNIT
 70
     0
  9
$DIMADEC
 70
     0
  9
$DIMALTRND
 40
0.0
  9
$DIMAZIN
 70
     2
  9
$DIMDSEP
 70
    46
  9
$DIMATFIT
 70
     3
  9
$DIMFRAC
 70
     0
  9
$DIMLDRBLK
  1

  9
$DIMLUNIT
 70
     2
  9
$DIMLWD
 70
    -1
  9
$DIMLWE
 70
    -1
  9
$DIMTMOVE
 70
     0
  9
$LUNITS
 70
     2
  9
$LUPREC
 70
     4
  9
$SKETCHINC
 40
0.1
  9
$FILLETRAD
 40
4.0
  9
$AUNITS
 70
     1
  9
$AUPREC
 70
     3
  9
$MENU
  1
ACAD
  9
$ELEVATION
 40
0.0
  9
$PELEVATION
 40
0.0
  9
$THICKNESS
 40
50.0
  9
$LIMCHECK
 70
     0
  9
$CHAMFERA
 40
5.0
  9
$CHAMFERB
 40
5.0
  9
$CHAMFERC
 40
0.0
  9
$CHAMFERD
 40
0.0
  9
$SKPOLY
 70
     0
  9
$TDCREATE
 40
2452321.396199653
  9
$TDUCREATE
 40
2452321.021199653
  9
$TDUPDATE
 40
2456533.546815127
  9
$TDUUPDATE
 40
2456533.171815127
  9
$TDINDWG
 40
0.8456864005
  9
$TDUSRTIMER
 40
0.8456819444
  9
$USRTIMER
 70
     1
  9
$ANGBASE
 50
0.0
  9
$ANGDIR
 70
     0
  9
$PDMODE
 70
     3
  9
$PDSIZE
 40
-2.0
  9
$PLINEWID
 40
0.0
  9
$SPLFRAME
 70
     0
  9
$SPLINETYPE
 70
     6
  9
$SPLINESEGS
 70
     8
  9
$HANDSEED
  5
1E61
  9
$SURFTAB1
 70
     6
  9
$SURFTAB2
 70
     6
  9
$SURFTYPE
 70
     6
  9
$SURFU
 70
     6
  9
$SURFV
 70
     6
  9
$UCSBASE
  2

  9
$UCSNAME
  2

  9
$UCSORG
 10
0.0
 20
0.0
 30
0.0
  9
$UCSXDIR
 10
1.0
 20
0.0
 30
0.0
  9
$UCSYDIR
 10
0.0
 20
1.0
 30
0.0
  9
$UCSORTHOREF
  2

  9
$UCSORTHOVIEW
 70
     0
  9
$UCSORGTOP
 10
0.0
 20
0.0
 30
0.0
  9
$UCSORGBOTTOM
 10
0.0
 20
0.0
 30
0.0
  9
$UCSORGLEFT
 10
0.0
 20
0.0
 30
0.0
  9
$UCSORGRIGHT
 10
0.0
 20
0.0
 30
0.0
  9
$UCSORGFRONT
 10
0.0
 20
0.0
 30
0.0
  9
$UCSORGBACK
 10
0.0
 20
0.0
 30
0.0
  9
$PUCSBASE
  2

  9
$PUCSNAME
  2

  9
$PUCSORG
 10
0.0
 20
0.0
 30
0.0
  9
$PUCSXDIR
 10
1.0
 20
0.0
 30
0.0
  9
$PUCSYDIR
 10
0.0
 20
1.0
 30
0.0
  9
$PUCSORTHOREF
  2

  9
$PUCSORTHOVIEW
 70
     0
  9
$PUCSORGTOP
 10
0.0
 20
0.0
 30
0.0
  9
$PUCSORGBOTTOM
 10
0.0
 20
0.0
 30
0.0
  9
$PUCSORGLEFT
 10
0.0
 20
0.0
 30
0.0
  9
$PUCSORGRIGHT
 10
0.0
 20
0.0
 30
0.0
  9
$PUCSORGFRONT
 10
0.0
 20
0.0
 30
0.0
  9
$PUCSORGBACK
 10
0.0
 20
0.0
 30
0.0
  9
$USERI1
 70
     0
  9
$USERI2
 70
     0
  9
$USERI3
 70
     0
  9
$USERI4
 70
     0
  9
$USERI5
 70
     0
  9
$USERR1
 40
20.0
  9
$USERR2
 40
0.0
  9
$USERR3
 40
0.0
  9
$USERR4
 40
0.0
  9
$USERR5
 40
0.0
  9
$WORLDVIEW
 70
     1
  9
$SHADEDGE
 70
     3
  9
$SHADEDIF
 70
    70
  9
$TILEMODE
 70
     1
  9
$MAXACTVP
 70
    64
  9
$PINSBASE
 10
0.0
 20
0.0
 30
0.0
  9
$PLIMCHECK
 70
     0
  9
$PEXTMIN
 10
1.000000000000000E+20
 20
1.000000000000000E+20
 30
1.000000000000000E+20
  9
$PEXTMAX
 10
-1.000000000000000E+20
 20
-1.000000000000000E+20
 30
-1.000000000000000E+20
  9
$PLIMMIN
 10
0.0
 20
0.0
  9
$PLIMMAX
 10
12.0
 20
9.0
  9
$UNITMODE
 70
     0
  9
$VISRETAIN
 70
     1
  9
$PLINEGEN
 70
     0
  9
$PSLTSCALE
 70
     1
  9
$TREEDEPTH
 70
  3020
  9
$CMLSTYLE
  2
STANDARD
  9
$CMLJUST
 70
     0
  9
$CMLSCALE
 40
1.0
  9
$PROXYGRAPHICS
 70
     1
  9
$MEASUREMENT
 70
     0
  9
$CELWEIGHT
370
    -1
  9
$ENDCAPS
280
     0
  9
$JOINSTYLE
280
     0
  9
$LWDISPLAY
290
     0
  9
$INSUNITS
 70
     0
  9
$HYPERLINKBASE
  1

  9
$STYLESHEET
  1
MONOCHROME.CTB
  9
$XEDIT
290
     1
  9
$CEPSNTYPE
380
     0
  9
$PSTYLEMODE
290
     1
  9
$FINGERPRINTGUID
  2
{68F3F60F-982D-43C0-B084-568AB2094408}
  9
$VERSIONGUID
  2
{2D80F3FC-CF5E-4313-A4BE-40620CD90A68}
  9
$EXTNAMES
290
     1
  9
$PSVPSCALE
 40
0.0
  9
$OLESTARTUP
290
     0
  0
ENDSEC
  0
SECTION
  2
CLASSES
  0
CLASS
  1
ACDBDICTIONARYWDFLT
  2
AcDbDictionaryWithDefault
  3
ObjectDBX Classes
 90
        0
280
     0
281
     0
  0
CLASS
  1
ACDBPLACEHOLDER
  2
AcDbPlaceHolder
  3
ObjectDBX Classes
 90
        0
280
     0
281
     0
  0
CLASS
  1
LAYOUT
  2
AcDbLayout
  3
ObjectDBX Classes
 90
        0
280
     0
281
     0
  0
CLASS
  1
DICTIONARYVAR
  2
AcDbDictionaryVar
  3
ObjectDBX Classes
 90
        0
280
     0
281
     0
  0
CLASS
  1
TABLESTYLE
  2
AcDbTableStyle
  3
ObjectDBX Classes
 90
     4095
280
     0
281
     0
  0
CLASS
  1
ACME_DOCUMENT
  2
AcMeDbDoc
  3
AcMeServices
 90
     1024
280
     0
281
     0
  0
CLASS
  1
AMGSETTINGSOBJ
  2
AmgSettingsObj
  3
"AcadM|Product Description: AutoCAD Mechanical|Company: Autodesk, Inc."
 90
     1024
280
     0
281
     0
  0
CLASS
  1
ACMESCOPE
  2
AcMeScope
  3
AcMeServices
 90
     1024
280
     0
281
     0
  0
CLASS
  1
ACMECOMMANDHISTORY
  2
AcMeCommandHistory
  3
AcMeServices
 90
     1024
280
     0
281
     0
  0
CLASS
  1
ACIMSYSVARMAN
  2
AcImSysVarManager
  3
AcMeServices
 90
     1024
280
     0
281
     0
  0
CLASS
  1
ACIMREALSYSVAR
  2
AcImRealSysVar
  3
AcMeServices
 90
     1024
280
     0
281
     0
  0
CLASS
  1
ACIMINTSYSVAR
  2
AcImIntSysVar
  3
AcMeServices
 90
     1024
280
     0
281
     0
  0
CLASS
  1
ACMEDRAWINGMAN
  2
AcMeDrawingMan
  3
AcMeServices
 90
     1024
280
     0
281
     0
  0
CLASS
  1
ACMEVIEW
  2
AcMeView
  3
AcMeServices
 90
     1024
280
     0
281
     0
  0
CLASS
  1
ACDBENTITYCACHE
  2
AcMeEntityCache
  3
AcMeServices
 90
     1024
280
     0
281
     0
  0
CLASS
  1
GSMANAGER
  2
AcMeGSManager
  3
AcMeServices
 90
     1024
280
     0
281
     0
  0
CLASS
  1
AMDTINTERNALREACTOR
  2
AmdtInternalReactor
  3
AcMeServices
 90
     1024
280
     0
281
     0
  0
CLASS
  1
ACMESTATEMGR
  2
AcMeStateMgr
  3
AcMeServices
 90
     1024
280
     0
281
     0
  0
CLASS
  1
ACGREFMASTER
  2
AcGrefMaster
  3
AcAttribServices
 90
     1024
280
     0
281
     0
  0
CLASS
  1
AM_DRAWING_MGR
  2
AcDmDwgMgr
  3
AcMechDwgViewMgmt
 90
     1024
280
     0
281
     0
  0
CLASS
  1
AM_DWG_DOCUMENT
  2
AcDmDwgDocument
  3
AcMechDwgViewMgmt
 90
     1024
280
     0
281
     0
  0
CLASS
  1
AM_DWG_SHEET
  2
AcDmSheet
  3
AcMechDwgViewMgmt
 90
     1024
280
     0
281
     0
  0
CLASS
  1
AM_VIEWDIMPARMAP
  2
AcDmViewDimParMap
  3
AcMechDwgViewMgmt
 90
     1024
280
     0
281
     0
  0
CLASS
  1
AM_DWGMGR_NAME
  2
AcDmDwgMgrName
  3
AcMechDwgViewMgmt
 90
     1024
280
     0
281
     0
  0
CLASS
  1
ACME_DATABASE
  2
AcMeDbDatabase
  3
AcMeServices
 90
     1024
280
     0
281
     0
  0
CLASS
  1
ACRFINSADJUSTERMGR
  2
AcRfInsAdjusterMgr
  3
AcMeServices
 90
     1024
280
     0
281
     0
  0
CLASS
  1
ACGREFACADMASTER
  2
AcGrefacadMaster
  3
AcGrefServices
 90
     1024
280
     0
281
     0
  0
CLASS
  1
AMDTMENUSTATEMGR
  2
AmdtMenuStateMgr
  3
McadcomServices
 90
     1024
280
     0
281
     0
  0
CLASS
  1
AMDTMCOMMENUSTATE
  2
AmdtMcomMenuState
  3
McadcomServices
 90
     1024
280
     0
281
     0
  0
CLASS
  1
AMIMASTER
  2
AmiMaster
  3
AmiServices
 90
     1024
280
     0
281
     0
  0
CLASS
  1
ASAPP
  2
AcAsAppObject
  3
AutoSurfServices
 90
     1024
280
     0
281
     0
  0
CLASS
  1
IM_STATIC_MAN
  2
AcImStaticVarManager
  3
AcMeServices
 90
     1024
280
     0
281
     0
  0
CLASS
  1
ACIMSTRSYSVAR
  2
AcImStrSysVar
  3
AcMeServices
 90
     1024
280
     0
281
     0
  0
CLASS
  1
ACIMDBLSTATICVAR
  2
AcImDblStaticVar
  3
AcMeServices
 90
     1024
280
     0
281
     0
  0
CLASS
  1
ACIMSTRSTATICVAR
  2
AcImStrStaticVar
  3
AcMeServices
 90
     1024
280
     0
281
     0
  0
CLASS
  1
ACIMINTSTATICVAR
  2
AcImIntStaticVar
  3
AcMeServices
 90
     1024
280
     0
281
     0
  0
CLASS
  1
ACASGREFMASTER
  2
AcAsGrefMaster
  3
AutoSurfResolverServices
 90
     1024
280
     0
281
     0
  0
CLASS
  1
ACADGREFMODULE
  2
AcAdGrefModule
  3
AdGrefServices
 90
     1024
280
     0
281
     0
  0
CLASS
  1
AMDTMAPISURFMOUDULE
  2
AmdtMApiSurfModule
  3
MApiSurfServices
 90
     1024
280
     0
281
     0
  0
CLASS
  1
MAPIAMMOUDLE
  2
MApiAmModule
  3
MApiAmServices
 90
     1024
280
     0
281
     0
  0
CLASS
  1
AMDTADMENUSTATE
  2
AmdtAdMenuState
  3
DesignerServices
 90
     1024
280
     0
281
     0
  0
CLASS
  1
ADAPPL
  2
AcAdAppl
  3
DesignerServices
 90
     1024
280
     0
281
     0
  0
CLASS
  1
DEPMGR
  2
AcAdDepMgr
  3
DesignerServices
 90
     1024
280
     0
281
     0
  0
CLASS
  1
PARAMMGR
  2
AcAdParamMgr
  3
DesignerServices
 90
     1024
280
     0
281
     0
  0
CLASS
  1
PARAMSCOPE
  2
AcAdParamScope
  3
DesignerServices
 90
     1024
280
     0
281
     0
  0
CLASS
  1
NAMEDAPPL
  2
AcAdNamedAppl
  3
DesignerServices
 90
     1024
280
     0
281
     0
  0
CLASS
  1
AMDTDMMENUSTATE
  2
AmdtDmMenuState
  3
AcMechDwgViewMgmt
 90
     1024
280
     0
281
     0
  0
CLASS
  1
MAPIADMODULE
  2
MApiAdModule
  3
MApiAdServices
 90
     1024
280
     0
281
     0
  0
CLASS
  1
AMDTAMMENUSTATE
  2
AmdtAmMenuState
  3
DesignerAssemblies
 90
     1024
280
     0
281
     0
  0
CLASS
  1
ACAMPROJECT
  2
AcAmProject
  3
DesignerAssemblies
 90
     1024
280
     0
281
     0
  0
CLASS
  1
ACAMGRCOMPDEF
  2
AcAmGrCompDef
  3
DesignerAssemblies
 90
     1024
280
     0
281
     0
  0
CLASS
  1
ACCMCONTEXT
  2
AcCmContext
  3
DesignerAssemblies
 90
     1024
280
     0
281
     0
  0
CLASS
  1
ACAMCOMPDEF
  2
AcAmCompDef
  3
DesignerAssemblies
 90
     1024
280
     0
281
     0
  0
CLASS
  1
ACAMCOMPDEFMGR
  2
AcAmCompDefMgr
  3
DesignerAssemblies
 90
     1024
280
     0
281
     0
  0
CLASS
  1
AMCONTEXTMGR
  2
AcAmContextMgr
  3
DesignerAssemblies
 90
     1024
280
     0
281
     0
  0
CLASS
  1
ACAMCONTEXTMODELER
  2
AcAmContextModeler
  3
DesignerAssemblies
 90
     1024
280
     0
281
     0
  0
CLASS
  1
ACMDATADICTIONARY
  2
AcmDataDictionary
  3
"AcmSymBB|Product Description: AutoCAD Mechanical|Company: Autodesk, Inc."
 90
     1024
280
     0
281
     0
  0
CLASS
  1
ACMDATAENTRYBLOCK
  2
AcmDataEntryBlock
  3
AcmSymBB|Product Description: AutoCAD Mechanical|Company: Autodesk, Inc.
 90
     1024
280
     0
281
     0
  0
CLASS
  1
CATALOGSTATE
  2
AcAmCatalogState
  3
DesignerAssemblies
 90
     1024
280
     0
281
     0
  0
CLASS
  1
ACAMGRCOMPDEFSET
  2
AcAmGrCompDefSet
  3
DesignerAssemblies
 90
     1024
280
     0
281
     0
  0
CLASS
  1
AMDTBROWSERDBTAB
  2
AmdtBrowserDbTab
  3
McadcomServices
 90
     1024
280
     0
281
     0
  0
CLASS
  1
CBROWSERAPPOBJECT
  2
CBrowserAppObject
  3
McadcomServices
 90
     1024
280
     0
281
     0
  0
CLASS
  1
DM_PLACEHOLDER
  2
AcDmSelsetPlaceholder
  3
AcMechDwgViewMgmt
 90
     1024
280
     0
281
     0
  0
CLASS
  1
ACMSTANDARDANSI
  2
AcmStandardANSI
  3
"Amdt_StdImp|Product Description: AutoCAD Mechanical|Company: Autodesk, Inc."
 90
     1024
280
     0
281
     0
  0
CLASS
  1
AMGOBJPROPCFG
  2
AmgObjPropCfg
  3
"AmgLay|Product Description: AutoCAD Mechanical|Company: Autodesk, Inc."
 90
     1025
280
     0
281
     0
  0
CLASS
  1
ACMSURFSTANDARDANSI
  2
AcmSurfTextStdANSI
  3
"Amdt_StdImp|Product Description: AutoCAD Mechanical|Company: Autodesk, Inc."
 90
     1024
280
     0
281
     0
  0
CLASS
  1
ACMFCFSTANDARDANSI
  2
AcmFCFStdANSI
  3
"Amdt_StdImp|Product Description: AutoCAD Mechanical|Company: Autodesk, Inc."
 90
     1024
280
     0
281
     0
  0
CLASS
  1
ACMWELDSTANDARDANSI
  2
AcmWeldingStdANSI
  3
"Amdt_StdImp|Product Description: AutoCAD Mechanical|Company: Autodesk, Inc."
 90
     1024
280
     0
281
     0
  0
CLASS
  1
ACMIDSTANDARDANSI
  2
AcmIdStdANSI
  3
"Amdt_StdImp|Product Description: AutoCAD Mechanical|Company: Autodesk, Inc."
 90
     1024
280
     0
281
     0
  0
CLASS
  1
ACMDATUMSTANDARDANSI
  2
AcmDatumStdANSI
  3
"Amdt_StdImp|Product Description: AutoCAD Mechanical|Company: Autodesk, Inc."
 90
     1024
280
     0
281
     0
  0
CLASS
  1
ACMBOMSTANDARDANSI
  2
AcmBOMStdANSI
  3
"Amdt_StdImp|Product Description: AutoCAD Mechanical|Company: Autodesk, Inc."
 90
     1024
280
     0
281
     0
  0
CLASS
  1
ACMDETAILSTANDARDANSI
  2
AmdtDetailSymStdANSI
  3
"Amdt_StdImp|Product Description: AutoCAD Mechanical|Company: Autodesk, Inc."
 90
     1024
280
     0
281
     0
  0
CLASS
  1
ACMSECTIONSTANDARDANSI
  2
AmdtSectionSymStdANSI
  3
"Amdt_StdImp|Product Description: AutoCAD Mechanical|Company: Autodesk, Inc."
 90
     1024
280
     0
281
     0
  0
CLASS
  1
ACMCENTERLINESTANDARDANSI
  2
AmdtCenterLineStdANSI
  3
"Amdt_StdImp|Product Description: AutoCAD Mechanical|Company: Autodesk, Inc."
 90
     1024
280
     0
281
     0
  0
CLASS
  1
ACMTHREADLINESTANDARDANSI
  2
AmdtThreadLineStdANSI
  3
"Amdt_StdImp|Product Description: AutoCAD Mechanical|Company: Autodesk, Inc."
 90
     1024
280
     0
281
     0
  0
CLASS
  1
ACMNOTESTANDARDANSI
  2
AmdtNoteStdANSI
  3
"Amdt_StdImp|Product Description: AutoCAD Mechanical|Company: Autodesk, Inc."
 90
     1024
280
     0
281
     0
  0
CLASS
  1
AMDTNOTETEMPLATEDB
  2
AmdtNoteTemplateDB
  3
AcmSymBB|Product Description: AutoCAD Mechanical|Company: Autodesk, Inc.
 90
     1024
280
     0
281
     0
  0
CLASS
  1
ACAMGLAYSTD
  2
AcAmgLayStd
  3
"AmgLay|Product Description: AutoCAD Mechanical|Company: Autodesk, Inc."
 90
     1024
280
     0
281
     0
  0
CLASS
  1
ACAMGDIMSTD
  2
AcAmgDimStd
  3
"AmgDim|Product Description: AutoCAD Mechanical|Company: Autodesk, Inc."
 90
     1024
280
     0
281
     0
  0
CLASS
  1
ACAMGHOLECHARTSTDANSI
  2
AcAmgHoleChartStdANSI
  3
AmgDim|Product Description: AutoCAD Mechanical|Company: Autodesk, Inc.
 90
     1024
280
     0
281
     0
  0
CLASS
  1
ACAMGTITLESTD
  2
AcAmgTitleStd
  3
"AmgTitle|Product Description: AutoCAD Mechanical|Company: Autodesk, Inc."
 90
     4095
280
     0
281
     0
  0
CLASS
  1
ACAMGFILTERDAT
  2
AcAmgFilterDat
  3
"AcadM|Product Description: AutoCAD Mechanical|Company: Autodesk, Inc."
 90
     1024
280
     0
281
     0
  0
CLASS
  1
LAYER_INDEX
  2
AcDbLayerIndex
  3
ObjectDBX Classes
 90
        0
280
     0
281
     0
  0
CLASS
  1
IDBUFFER
  2
AcDbIdBuffer
  3
ObjectDBX Classes
 90
        0
280
     0
281
     0
  0
CLASS
  1
SORTENTSTABLE
  2
AcDbSortentsTable
  3
ObjectDBX Classes
 90
        0
280
     0
281
     0
  0
CLASS
  1
MATERIAL
  2
AcDbMaterial
  3
ObjectDBX Classes
 90
     1153
280
     0
281
     0
  0
CLASS
  1
VISUALSTYLE
  2
AcDbVisualStyle
  3
ObjectDBX Classes
 90
     4095
280
     0
281
     0
  0
CLASS
  1
SCALE
  2
AcDbScale
  3
ObjectDBX Classes
 90
     1153
280
     0
281
     0
  0
CLASS
  1
MLEADERSTYLE
  2
AcDbMLeaderStyle
  3
ACDB_MLEADERSTYLE_CLASS
 90
     4095
280
     0
281
     0
  0
CLASS
  1
CELLSTYLEMAP
  2
AcDbCellStyleMap
  3
ObjectDBX Classes
 90
     1152
280
     0
281
     0
  0
CLASS
  1
ACRFATTGENMGR
  2
AcRfAttGeneralMgr
  3
AcAttribServices
 90
     1024
280
     0
281
     0
  0
CLASS
  1
ACRFOBJATTMGR
  2
AcRfObjAttGroupMgr
  3
AcAttribServices
 90
     1024
280
     0
281
     0
  0
CLASS
  1
ACRFMCADAPIATTHOLDER
  2
AcRfMCADAPIAttHolder
  3
AcAttribServices
 90
     1024
280
     0
281
     0
  0
CLASS
  1
AMDTSYSATTR
  2
AmdtSystemAttribute
  3
AcAttribServices
 90
     1024
280
     0
281
     0
  0
CLASS
  1
ACMTAPERSTANDARDANSI
  2
AcmTaperStdANSI
  3
"Amdt_StdImp|Product Description: AutoCAD Mechanical|Company: Autodesk, Inc."
 90
     1024
280
     0
281
     0
  0
CLASS
  1
ACMANOOTATIONVIEWSTANDARDANSI
  2
AmdtAnViewStdANSI
  3
"Amdt_StdImp|Product Description: AutoCAD Mechanical|Company: Autodesk, Inc."
 90
     1024
280
     0
281
     0
  0
ENDSEC
  0
SECTION
  2
TABLES
  0
TABLE
  2
VPORT
  5
849
330
0
100
AcDbSymbolTable
 70
     1
  0
VPORT
  5
136E
330
849
100
AcDbSymbolTableRecord
100
AcDbViewportTableRecord
  2
*Active
 70
     0
 10
0.0
 20
0.0
 11
1.0
 21
1.0
 12
0.0
 22
0.0
 13
0.0
 23
0.0
 14
1.0
 24
1.0
 15
0.0
 25
0.0
 16
0.0
 26
0.0
 36
1.0
 17
106.6513305674331
 27
20.45265424662012
 37
0.0
 40
1868.104795515893
 41
1.403890160183066
 42
50.0
 43
0.0
 44
0.0
 50
0.0
 51
0.0
 71
     0
 72
   100
 73
     1
 74
     0
 75
     0
 76
     0
 77
     0
 78
     0
281
     0
 65
     0
110
0.0
120
0.0
130
0.0
111
1.0
121
0.0
131
0.0
112
0.0
122
1.0
132
0.0
 79
     0
146
0.0
  0
ENDTAB
  0
TABLE
  2
LTYPE
  5
846
330
0
100
AcDbSymbolTable
 70
    19
  0
LTYPE
  5
854
330
846
100
AcDbSymbolTableRecord
100
AcDbLinetypeTableRecord
  2
BYBLOCK
 70
     0
  3

 72
    65
 73
     0
 40
0.0
  0
LTYPE
  5
855
330
846
100
AcDbSymbolTableRecord
100
AcDbLinetypeTableRecord
  2
BYLAYER
 70
     0
  3

 72
    65
 73
     0
 40
0.0
  0
LTYPE
  5
856
330
846
100
AcDbSymbolTableRecord
100
AcDbLinetypeTableRecord
  2
CONTINUOUS
 70
     0
  3
実線
 72
    65
 73
     0
 40
0.0
  0
LTYPE
  5
865
330
846
100
AcDbSymbolTableRecord
100
AcDbLinetypeTableRecord
  2
DASHDOT
 70
     0
  3
____ _ ____ _ ____ _ ____ _ ____ _ ____ _ ____
 72
    65
 73
     4
 40
5.5
 49
4.0
 74
     0
 49
-0.6
 74
     0
 49
0.3
 74
     0
 49
-0.6
 74
     0
  0
LTYPE
  5
1073
330
846
100
AcDbSymbolTableRecord
100
AcDbLinetypeTableRecord
  2
HIDDEN
 70
     0
  3
Hidden __ __ __ __ __ __ __ __ __ __ __ __ __ _
 72
    65
 73
     2
 40
0.375
 49
0.25
 74
     0
 49
-0.125
 74
     0
  0
LTYPE
  5
1074
330
846
100
AcDbSymbolTableRecord
100
AcDbLinetypeTableRecord
  2
PHANTOM2
 70
     0
  3
Phantom (.5x) ___ _ _ ___ _ _ ___ _ _ ___ _ _
 72
    65
 73
     6
 40
1.25
 49
0.625
 74
     0
 49
-0.125
 74
     0
 49
0.125
 74
     0
 49
-0.125
 74
     0
 49
0.125
 74
     0
 49
-0.125
 74
     0
  0
LTYPE
  5
1075
330
846
100
AcDbSymbolTableRecord
100
AcDbLinetypeTableRecord
  2
CENTER
 70
     0
  3
Center ____ _ ____ _ ____ _ ____ _ ____ _ ____
 72
    65
 73
     4
 40
2.0
 49
1.25
 74
     0
 49
-0.25
 74
     0
 49
0.25
 74
     0
 49
-0.25
 74
     0
  0
LTYPE
  5
10C4
330
846
100
AcDbSymbolTableRecord
100
AcDbLinetypeTableRecord
  2
ASULTYPE
 70
     0
  3
実線
 72
    65
 73
     2
 40
3.0
 49
2.5
 74
     0
 49
0.5
 74
     0
  0
LTYPE
  5
10C5
330
846
100
AcDbSymbolTableRecord
100
AcDbLinetypeTableRecord
  2
ASVLTYPE
 70
     0
  3
__ __ __ __ __ __ __ __ __ __ __ __ __ __ __ __ __ __ __ __ __
 72
    65
 73
     2
 40
0.75
 49
0.5
 74
     0
 49
-0.25
 74
     0
  0
LTYPE
  5
110C
330
846
100
AcDbSymbolTableRecord
100
AcDbLinetypeTableRecord
  2
AM_ISO02W050
 70
     0
  3
__ __ __ __ __ __ __ __ __ __ __ __ __ __ __
 72
    65
 73
     2
 40
7.5
 49
6.0
 74
     0
 49
-1.5
 74
     0
  0
LTYPE
  5
110D
330
846
100
AcDbSymbolTableRecord
100
AcDbLinetypeTableRecord
  2
AM_ISO08W050
 70
     0
  3
____ . ____ . ____ . ____ . ____ . ____ . ____
 72
    65
 73
     4
 40
18.0
 49
12.0
 74
     0
 49
-1.5
 74
     0
 49
3.0
 74
     0
 49
-1.5
 74
     0
  0
LTYPE
  5
110E
330
846
100
AcDbSymbolTableRecord
100
AcDbLinetypeTableRecord
  2
AM_ISO09W050
 70
     0
  3
_____ . . _____ . . _____ . . ____ .. ____
 72
    65
 73
     6
 40
22.5
 49
12.0
 74
     0
 49
-1.5
 74
     0
 49
3.0
 74
     0
 49
-1.5
 74
     0
 49
3.0
 74
     0
 49
-1.5
 74
     0
  0
LTYPE
  5
110F
330
846
100
AcDbSymbolTableRecord
100
AcDbLinetypeTableRecord
  2
Amconstr
 70
     0
  3
_______________________
 72
    65
 73
     2
 40
9999.0
 49
9999.0
 74
     0
 49
0.0
 74
     0
  0
LTYPE
  5
1110
330
846
100
AcDbSymbolTableRecord
100
AcDbLinetypeTableRecord
  2
AM_ISO08W050x2
 70
     0
  3
__ . __ . __ . __ . __ . __
 72
    65
 73
     4
 40
9.0
 49
6.0
 74
     0
 49
-0.75
 74
     0
 49
1.5
 74
     0
 49
-0.75
 74
     0
  0
LTYPE
  5
1111
330
846
100
AcDbSymbolTableRecord
100
AcDbLinetypeTableRecord
  2
AM_ISO02W050x2
 70
     0
  3
 _ _ _ _ _ _ _ _ _ _ _ _
 72
    65
 73
     2
 40
3.75
 49
3.0
 74
     0
 49
-0.75
 74
     0
  0
LTYPE
  5
1114
330
846
100
AcDbSymbolTableRecord
100
AcDbLinetypeTableRecord
  2
Amzigzag
 70
     0
  3
/\/-/\/-/\/-/\/-/\/-/\/
 72
    65
 73
     2
 40
11.0001
 49
0.0001
 74
     4
 75
   136
340
1113
 46
0.04
 50
0.0
 44
0.0
 45
0.0
 49
-11.0
 74
     0
  0
LTYPE
  5
1115
330
846
100
AcDbSymbolTableRecord
100
AcDbLinetypeTableRecord
  2
CENTER2
 70
     0
  3
Center (.5x) ___ _ ___ _ ___ _ ___ _ ___ _ ___
 72
    65
 73
     4
 40
1.125
 49
0.75
 74
     0
 49
-0.125
 74
     0
 49
0.125
 74
     0
 49
-0.125
 74
     0
  0
LTYPE
  5
1116
330
846
100
AcDbSymbolTableRecord
100
AcDbLinetypeTableRecord
  2
HIDDEN2
 70
     0
  3
Hidden (.5x) _ _ _ _ _ _ _ _ _ _ _ _ _ _ _ _ _
 72
    65
 73
     2
 40
0.1875
 49
0.125
 74
     0
 49
-0.0625
 74
     0
  0
LTYPE
  5
1117
330
846
100
AcDbSymbolTableRecord
100
AcDbLinetypeTableRecord
  2
Amzigzag2
 70
     0
  3
/\/-/\/-/\/-/\/-/\/-/\/
 72
    65
 73
     2
 40
0.4401
 49
0.0001
 74
     4
 75
   136
340
1113
 46
0.0016
 50
0.0
 44
0.0
 45
0.0
 49
-0.4400000000000003
 74
     0
  0
LTYPE
  5
1125
330
846
100
AcDbSymbolTableRecord
100
AcDbLinetypeTableRecord
  2
ACANSTGB
 70
     0
  3
__ . . __ . .
 72
    65
 73
     6
 40
0.35433070866
 49
0.15748031496
 74
     0
 49
-0.03937007874
 74
     0
 49
0.03937007874
 74
     0
 49
-0.03937007874
 74
     0
 49
0.03937007874
 74
     0
 49
-0.03937007874
 74
     0
  0
LTYPE
  5
1126
330
846
100
AcDbSymbolTableRecord
100
AcDbLinetypeTableRecord
  2
ACANSTGL
 70
     0
  3
_ _ _ _ _
 72
    65
 73
     2
 40
0.11811023622
 49
0.07874015748
 74
     0
 49
-0.03937007874
 74
     0
  0
ENDTAB
  0
TABLE
  2
LAYER
  5
843
102
{ACAD_XDICTIONARY
360
16C2
102
}
330
0
100
AcDbSymbolTable
 70
    12
  0
LAYER
  5
851
102
{ACAD_XDICTIONARY
360
14FD
102
}
330
843
100
AcDbSymbolTableRecord
100
AcDbLayerTableRecord
  2
0
 70
     0
 62
     7
  6
CONTINUOUS
370
    -3
390
B83
  0
LAYER
  5
863
102
{ACAD_XDICTIONARY
360
14FF
102
}
330
843
100
AcDbSymbolTableRecord
100
AcDbLayerTableRecord
  2
OUTLINE
 70
     0
 62
     3
  6
CONTINUOUS
370
    -3
390
B83
  0
LAYER
  5
866
102
{ACAD_XDICTIONARY
360
1501
102
}
330
843
100
AcDbSymbolTableRecord
100
AcDbLayerTableRecord
  2
SIZE
 70
     0
 62
    30
  6
CONTINUOUS
370
    -3
390
B83
  0
LAYER
  5
867
102
{ACAD_XDICTIONARY
360
1503
102
}
330
843
100
AcDbSymbolTableRecord
100
AcDbLayerTableRecord
  2
BASIS
 70
     0
 62
     6
  6
DASHDOT
370
    -3
390
B83
  0
LAYER
  5
868
102
{ACAD_XDICTIONARY
360
1505
102
}
330
843
100
AcDbSymbolTableRecord
100
AcDbLayerTableRecord
  2
DETAIL
 70
     0
 62
     5
  6
CONTINUOUS
370
    -3
390
B83
  0
LAYER
  5
869
102
{ACAD_XDICTIONARY
360
1507
102
}
330
843
100
AcDbSymbolTableRecord
100
AcDbLayerTableRecord
  2
ARRANGE
 70
     0
 62
     1
  6
CONTINUOUS
370
    -3
390
B83
  0
LAYER
  5
86A
330
843
100
AcDbSymbolTableRecord
100
AcDbLayerTableRecord
  2
DEFPOINTS
 70
     0
 62
     7
  6
CONTINUOUS
290
     0
370
    -3
390
B83
  0
LAYER
  5
86B
102
{ACAD_XDICTIONARY
360
1509
102
}
330
843
100
AcDbSymbolTableRecord
100
AcDbLayerTableRecord
  2
ETC
 70
     0
 62
    61
  6
CONTINUOUS
370
    -3
390
B83
  0
LAYER
  5
86C
102
{ACAD_XDICTIONARY
360
150B
102
}
330
843
100
AcDbSymbolTableRecord
100
AcDbLayerTableRecord
  2
FIX
 70
     0
 62
    11
  6
CONTINUOUS
370
    -3
390
B83
  0
LAYER
  5
86D
102
{ACAD_XDICTIONARY
360
150D
102
}
330
843
100
AcDbSymbolTableRecord
100
AcDbLayerTableRecord
  2
NOTE
 70
     0
 62
     4
  6
CONTINUOUS
370
    -3
390
B83
  0
LAYER
  5
86E
102
{ACAD_XDICTIONARY
360
150F
102
}
330
843
100
AcDbSymbolTableRecord
100
AcDbLayerTableRecord
  2
SERVICESPACE
 70
     0
 62
     2
  6
DASHDOT
370
    -3
390
B83
  0
LAYER
  5
86F
102
{ACAD_XDICTIONARY
360
1511
102
}
330
843
100
AcDbSymbolTableRecord
100
AcDbLayerTableRecord
  2
SYMBOLLINE
 70
     0
 62
    15
  6
CONTINUOUS
370
    -3
390
B83
  0
ENDTAB
  0
TABLE
  2
STYLE
  5
844
330
0
100
AcDbSymbolTable
 70
     5
  0
STYLE
  5
852
330
844
100
AcDbSymbolTableRecord
100
AcDbTextStyleTableRecord
  2
STANDARD
 70
     0
 40
64.0
 41
0.9
 50
0.0
 71
     0
 42
64.0
  3
SIMPLEX.shx
  4
BIGFONT.shx
  0
STYLE
  5
1113
330
844
100
AcDbSymbolTableRecord
100
AcDbTextStyleTableRecord
  2

 70
     1
 40
0.0
 41
1.0
 50
0.0
 71
     0
 42
64.0
  3
genltshp.shx
  4

  0
STYLE
  5
1118
330
844
100
AcDbSymbolTableRecord
100
AcDbTextStyleTableRecord
  2
ACANSTS
 70
     0
 40
1.0
 41
1.0
 50
0.0
 71
     0
 42
64.0
  3
romans.shx
  4
extfont.shx
  0
STYLE
  5
1124
330
844
100
AcDbSymbolTableRecord
100
AcDbTextStyleTableRecord
  2
ACANSGDT
 70
     0
 40
0.0
 41
1.0
 50
0.0
 71
     0
 42
64.0
  3
amgdt.shx
  4

  0
STYLE
  5
16BD
330
844
100
AcDbSymbolTableRecord
100
AcDbTextStyleTableRecord
  2
ADESK1
 70
     0
 40
0.0
 41
1.0
 50
0.0
 71
     0
 42
0.12
  3
romanc.shx
  4
extfont.shx
  0
ENDTAB
  0
TABLE
  2
VIEW
  5
847
330
0
100
AcDbSymbolTable
 70
     1
  0
VIEW
  5
870
330
847
100
AcDbSymbolTableRecord
100
AcDbViewTableRecord
  2
ALL
 70
     0
 40
4282.619807999997
 10
0.0
 20
41.30990399999999
 41
5940.0
 11
0.0
 21
0.0
 31
1.0
 12
0.0
 22
0.0
 32
0.0
 42
50.0
 43
0.0
 44
0.0
 50
0.0
 71
     0
281
     0
 72
     0
  0
ENDTAB
  0
TABLE
  2
UCS
  5
848
330
0
100
AcDbSymbolTable
 70
     0
  0
ENDTAB
  0
TABLE
  2
APPID
  5
84A
330
0
100
AcDbSymbolTable
 70
    23
  0
APPID
  5
853
330
84A
100
AcDbSymbolTableRecord
100
AcDbRegAppTableRecord
  2
ACAD
 70
     0
  0
APPID
  5
103F
330
84A
100
AcDbSymbolTableRecord
100
AcDbRegAppTableRecord
  2
GENIUS_GENDIM_13
 70
     0
  0
APPID
  5
1040
330
84A
100
AcDbSymbolTableRecord
100
AcDbRegAppTableRecord
  2
GENIUS_GENDTOL_13
 70
     0
  0
APPID
  5
1041
330
84A
100
AcDbSymbolTableRecord
100
AcDbRegAppTableRecord
  2
GENIUS_GE3DTOL_13
 70
     0
  0
APPID
  5
1044
330
84A
100
AcDbSymbolTableRecord
100
AcDbRegAppTableRecord
  2
MCAD_NO_VIS
 70
     0
  0
APPID
  5
1045
330
84A
100
AcDbSymbolTableRecord
100
AcDbRegAppTableRecord
  2
ACAD_TEMP_GRAPHIC
 70
     0
  0
APPID
  5
1077
330
84A
100
AcDbSymbolTableRecord
100
AcDbRegAppTableRecord
  2
AD_DRAW
 70
     0
  0
APPID
  5
107A
330
84A
100
AcDbSymbolTableRecord
100
AcDbRegAppTableRecord
  2
ACATTRIBSERVICES
 70
     0
  0
APPID
  5
10C6
330
84A
100
AcDbSymbolTableRecord
100
AcDbRegAppTableRecord
  2
ASURF_PCURVE_APPNAME
 70
     0
  0
APPID
  5
10CB
330
84A
100
AcDbSymbolTableRecord
100
AcDbRegAppTableRecord
  2
AMG_3D2D_5.0
 70
     0
  0
APPID
  5
10FC
330
84A
100
AcDbSymbolTableRecord
100
AcDbRegAppTableRecord
  2
DESIGNERASSEMBLIES
 70
     0
  0
APPID
  5
1103
330
84A
100
AcDbSymbolTableRecord
100
AcDbRegAppTableRecord
  2
ACADM_DIM_EDIT
 70
     0
  0
APPID
  5
1104
330
84A
100
AcDbSymbolTableRecord
100
AcDbRegAppTableRecord
  2
AMDT_DM_ADJ
 70
     0
  0
APPID
  5
1133
330
84A
100
AcDbSymbolTableRecord
100
AcDbRegAppTableRecord
  2
ACAD_DSTYLE_DIMARC_LENGTH_SYMBOL
 70
     0
  0
APPID
  5
1134
330
84A
100
AcDbSymbolTableRecord
100
AcDbRegAppTableRecord
  2
ACAD_DSTYLE_DIMJOGGED_JOGANGLE_SYMBOL
 70
     0
  0
APPID
  5
134C
330
84A
100
AcDbSymbolTableRecord
100
AcDbRegAppTableRecord
  2
ACAD_PSEXT
 70
     0
  0
APPID
  5
1368
330
84A
100
AcDbSymbolTableRecord
100
AcDbRegAppTableRecord
  2
ACAD_EXEMPT_FROM_CAD_STANDARDS
 70
     0
  0
APPID
  5
13C0
330
84A
100
AcDbSymbolTableRecord
100
AcDbRegAppTableRecord
  2
ACAD_MLEADERVER
 70
     0
  0
APPID
  5
16C0
330
84A
100
AcDbSymbolTableRecord
100
AcDbRegAppTableRecord
  2
ACAD_DSTYLE_DIMJAG
 70
     0
  0
APPID
  5
16C1
330
84A
100
AcDbSymbolTableRecord
100
AcDbRegAppTableRecord
  2
ACAD_DSTYLE_DIMTALN
 70
     0
  0
APPID
  5
18B3
330
84A
100
AcDbSymbolTableRecord
100
AcDbRegAppTableRecord
  2
ACAD_DSTYLE_DIM_LINETYPE
 70
     0
  0
APPID
  5
18B4
330
84A
100
AcDbSymbolTableRecord
100
AcDbRegAppTableRecord
  2
ACAD_DSTYLE_DIM_EXT1_LINETYPE
 70
     0
  0
APPID
  5
18B5
330
84A
100
AcDbSymbolTableRecord
100
AcDbRegAppTableRecord
  2
ACAD_DSTYLE_DIM_EXT2_LINETYPE
 70
     0
  0
ENDTAB
  0
TABLE
  2
DIMSTYLE
  5
84B
330
0
100
AcDbSymbolTable
 70
     9
100
AcDbDimStyleTable
 71
     2
340
1132
340
871
  0
DIMSTYLE
105
871
330
84B
100
AcDbSymbolTableRecord
100
AcDbDimStyleTableRecord
  2
STANDARD
 70
     0
275
     1
284
     8
285
     8
286
     8
340
852
  0
DIMSTYLE
105
1132
330
84B
100
AcDbSymbolTableRecord
100
AcDbDimStyleTableRecord
  2
AM_ANSI
 70
     0
  4
mm
 41
0.12
 42
0.05
 43
0.5
 44
0.1
 47
0.1
 48
0.1
 78
     7
 79
     2
140
0.12
141
0.0
146
0.71
147
0.06
176
   256
177
   256
178
     2
274
     4
284
     7
340
852
371
    -1
372
    -1
1001
ACAD_DSTYLE_DIMJOGGED_JOGANGLE_SYMBOL
1070
   384
1040
0.7853981633974483
1001
ACAD_DSTYLE_DIMARC_LENGTH_SYMBOL
1070
   379
1070
     1
1001
ACAD_DSTYLE_DIM_LINETYPE
1070
   380
1005
854
1001
ACAD_DSTYLE_DIM_EXT1_LINETYPE
1070
   381
1005
854
1001
ACAD_DSTYLE_DIM_EXT2_LINETYPE
1070
   382
1005
854
  0
DIMSTYLE
105
113B
330
84B
100
AcDbSymbolTableRecord
100
AcDbDimStyleTableRecord
  2
AM_ANSI$3
 70
     0
  4
mm
 41
0.12
 42
0.05
 43
0.5
 44
0.1
 47
0.1
 48
0.1
 78
     7
 79
     2
140
0.12
141
0.0
146
0.71
147
0.06
176
   256
177
   256
178
     2
274
     4
284
     7
288
     1
289
     0
340
852
371
    -1
372
    -1
1001
ACAD_DSTYLE_DIMJOGGED_JOGANGLE_SYMBOL
1070
   384
1040
0.7853981633974483
1001
ACAD_DSTYLE_DIMARC_LENGTH_SYMBOL
1070
   379
1070
     1
1001
ACAD_DSTYLE_DIM_LINETYPE
1070
   380
1005
854
1001
ACAD_DSTYLE_DIM_EXT1_LINETYPE
1070
   381
1005
854
1001
ACAD_DSTYLE_DIM_EXT2_LINETYPE
1070
   382
1005
854
  0
DIMSTYLE
105
113E
330
84B
100
AcDbSymbolTableRecord
100
AcDbDimStyleTableRecord
  2
AM_ANSI$4
 70
     0
  4
mm
 41
0.12
 42
0.05
 43
0.5
 44
0.1
 47
0.1
 48
0.1
 78
     7
 79
     2
140
0.12
141
0.0
146
0.71
147
0.06
176
   256
177
   256
178
     2
274
     4
284
     7
340
852
371
    -1
372
    -1
1001
ACAD_DSTYLE_DIMJOGGED_JOGANGLE_SYMBOL
1070
   384
1040
0.7853981633974483
1001
ACAD_DSTYLE_DIMARC_LENGTH_SYMBOL
1070
   379
1070
     1
1001
ACAD_DSTYLE_DIM_LINETYPE
1070
   380
1005
854
1001
ACAD_DSTYLE_DIM_EXT1_LINETYPE
1070
   381
1005
854
1001
ACAD_DSTYLE_DIM_EXT2_LINETYPE
1070
   382
1005
854
  0
DIMSTYLE
105
1143
330
84B
100
AcDbSymbolTableRecord
100
AcDbDimStyleTableRecord
  2
AM_ANSI$7
 70
     0
  4
mm
 41
0.12
 42
0.05
 43
0.5
 44
0.1
 47
0.1
 48
0.1
 78
     7
 79
     2
140
0.12
141
0.0
146
0.71
147
0.06
176
   256
177
   256
178
     2
274
     4
284
     7
340
852
371
    -1
372
    -1
1001
ACAD_DSTYLE_DIMJOGGED_JOGANGLE_SYMBOL
1070
   384
1040
0.7853981633974483
1001
ACAD_DSTYLE_DIMARC_LENGTH_SYMBOL
1070
   379
1070
     1
1001
ACAD_DSTYLE_DIM_LINETYPE
1070
   380
1005
854
1001
ACAD_DSTYLE_DIM_EXT1_LINETYPE
1070
   381
1005
854
1001
ACAD_DSTYLE_DIM_EXT2_LINETYPE
1070
   382
1005
854
  0
DIMSTYLE
105
1146
330
84B
100
AcDbSymbolTableRecord
100
AcDbDimStyleTableRecord
  2
AM_ANSI$SF
 70
     0
  4
mm
 41
0.12
 42
0.05
 43
0.5
 44
0.1
 47
0.1
 48
0.1
 75
     1
 76
     1
 78
     7
 79
     2
140
0.12
141
0.0
146
0.71
147
0.06
176
   256
177
   256
178
     2
274
     4
284
     7
340
852
371
    -1
372
    -1
1001
ACAD_DSTYLE_DIMJOGGED_JOGANGLE_SYMBOL
1070
   384
1040
0.7853981633974483
1001
ACAD_DSTYLE_DIMARC_LENGTH_SYMBOL
1070
   379
1070
     1
1001
ACAD_DSTYLE_DIM_LINETYPE
1070
   380
1005
854
1001
ACAD_DSTYLE_DIM_EXT1_LINETYPE
1070
   381
1005
854
1001
ACAD_DSTYLE_DIM_EXT2_LINETYPE
1070
   382
1005
854
  0
DIMSTYLE
105
114D
330
84B
100
AcDbSymbolTableRecord
100
AcDbDimStyleTableRecord
  2
AM_ANSI$SH
 70
     0
  4
mm
 41
0.12
 42
0.05
 43
0.5
 44
0.1
 47
0.1
 48
0.1
 75
     1
 76
     1
 78
     7
 79
     2
140
0.12
141
0.0
146
0.71
147
0.06
173
     1
176
   256
177
   256
178
     2
274
     4
284
     7
340
852
343
1147
371
    -1
372
    -1
1001
ACAD_DSTYLE_DIMJOGGED_JOGANGLE_SYMBOL
1070
   384
1040
0.7853981633974483
1001
ACAD_DSTYLE_DIMARC_LENGTH_SYMBOL
1070
   379
1070
     1
1001
ACAD_DSTYLE_DIM_LINETYPE
1070
   380
1005
854
1001
ACAD_DSTYLE_DIM_EXT1_LINETYPE
1070
   381
1005
854
1001
ACAD_DSTYLE_DIM_EXT2_LINETYPE
1070
   382
1005
854
  0
DIMSTYLE
105
16BE
330
84B
100
AcDbSymbolTableRecord
100
AcDbDimStyleTableRecord
  2
STANDARD1
 70
     0
 40
6.0
 41
2.5
 42
0.625
 43
6.0
 44
1.25
 47
1.0
 48
0.5
 77
     1
 78
     8
140
2.5
141
0.0
146
0.6
147
1.0
173
     1
284
     1
340
852
341
AB7
343
AB7
344
AB7
  0
DIMSTYLE
105
16BF
330
84B
100
AcDbSymbolTableRecord
100
AcDbDimStyleTableRecord
  2
STANDARD$0
 70
     0
 41
12.0
 42
20.0
 44
20.0
 73
     0
 74
     0
 77
     1
 78
     9
140
64.0
141
0.0
147
10.0
271
     0
272
     0
275
     1
284
     8
285
     8
286
     8
340
852
341
AB7
342
AB2
1001
ACAD_DSTYLE_DIMJAG
1070
   388
1040
1.5
1001
ACAD_DSTYLE_DIMTALN
1070
   392
1070
     0
  0
ENDTAB
  0
TABLE
  2
BLOCK_RECORD
  5
842
330
0
100
AcDbSymbolTable
 70
    42
  0
BLOCK_RECORD
  5
85F
102
{ACAD_XDICTIONARY
360
B4F
102
}
330
842
100
AcDbSymbolTableRecord
100
AcDbBlockTableRecord
  2
*MODEL_SPACE
340
B84
  0
BLOCK_RECORD
  5
85B
102
{ACAD_XDICTIONARY
360
B4D
102
}
330
842
100
AcDbSymbolTableRecord
100
AcDbBlockTableRecord
  2
*PAPER_SPACE
340
B85
  0
BLOCK_RECORD
  5
87E
330
842
100
AcDbSymbolTableRecord
100
AcDbBlockTableRecord
  2
_ORIGIN
340
0
  0
BLOCK_RECORD
  5
AB2
330
842
100
AcDbSymbolTableRecord
100
AcDbBlockTableRecord
  2
_DOTBLANK
340
0
102
{BLKREFS
331
102D
331
102E
331
13F0
331
13F1
331
1400
331
1401
331
1416
331
1417
331
1436
331
1437
331
146E
331
146F
331
148F
331
1490
331
14B7
331
14B8
331
14CA
331
14CB
331
14F7
331
14F8
331
1546
331
1547
331
1561
331
1562
331
158C
331
158D
331
1686
331
1687
331
1692
331
1693
331
169E
331
169F
331
16AA
331
16AB
331
16B6
331
16B7
331
187D
331
187E
331
1886
331
1887
331
188F
331
1890
331
1898
331
1899
331
18A1
331
18A2
331
19D1
331
19D2
331
19DD
331
19DE
331
19E9
331
19EA
331
19A1
331
19A2
331
19AD
331
19AE
331
19B9
331
19BA
331
19C5
331
19C6
331
1D01
331
1D02
331
1D0A
331
1D0B
331
1D13
331
1D14
331
1D1C
331
1D1D
331
1D25
331
1D26
331
1D2E
331
1D2F
331
1D37
331
1D38
331
1E2B
331
1E2C
331
1E31
331
1E32
331
1E37
331
1E38
331
1E3D
331
1E3E
331
1E43
331
1E44
331
1E4C
331
1E4D
331
1E52
331
1E53
102
}
  0
BLOCK_RECORD
  5
AB7
330
842
100
AcDbSymbolTableRecord
100
AcDbBlockTableRecord
  2
_OPEN30
340
0
102
{BLKREFS
331
1E47
102
}
  0
BLOCK_RECORD
  5
C78
330
842
100
AcDbSymbolTableRecord
100
AcDbBlockTableRecord
  2
*D3
340
0
  0
BLOCK_RECORD
  5
C84
330
842
100
AcDbSymbolTableRecord
100
AcDbBlockTableRecord
  2
*D4
340
0
  0
BLOCK_RECORD
  5
E5F
330
842
100
AcDbSymbolTableRecord
100
AcDbBlockTableRecord
  2
*D5
340
0
  0
BLOCK_RECORD
  5
E95
330
842
100
AcDbSymbolTableRecord
100
AcDbBlockTableRecord
  2
*D6
340
0
  0
BLOCK_RECORD
  5
FA1
330
842
100
AcDbSymbolTableRecord
100
AcDbBlockTableRecord
  2
*D7
340
0
  0
BLOCK_RECORD
  5
FDA
330
842
100
AcDbSymbolTableRecord
100
AcDbBlockTableRecord
  2
*D8
340
0
  0
BLOCK_RECORD
  5
1147
330
842
100
AcDbSymbolTableRecord
100
AcDbBlockTableRecord
  2
GENAXEH
340
0
  0
BLOCK_RECORD
  5
13F8
330
842
100
AcDbSymbolTableRecord
100
AcDbBlockTableRecord
  2
*D10
340
0
  0
BLOCK_RECORD
  5
140E
330
842
100
AcDbSymbolTableRecord
100
AcDbBlockTableRecord
  2
*D11
340
0
  0
BLOCK_RECORD
  5
1466
330
842
100
AcDbSymbolTableRecord
100
AcDbBlockTableRecord
  2
*D12
340
0
  0
BLOCK_RECORD
  5
1487
330
842
100
AcDbSymbolTableRecord
100
AcDbBlockTableRecord
  2
*D13
340
0
  0
BLOCK_RECORD
  5
14B2
330
842
100
AcDbSymbolTableRecord
100
AcDbBlockTableRecord
  2
*D14
340
0
  0
BLOCK_RECORD
  5
14C2
330
842
100
AcDbSymbolTableRecord
100
AcDbBlockTableRecord
  2
*D15
340
0
  0
BLOCK_RECORD
  5
1579
330
842
100
AcDbSymbolTableRecord
100
AcDbBlockTableRecord
  2
*D16
340
0
  0
BLOCK_RECORD
  5
1681
330
842
100
AcDbSymbolTableRecord
100
AcDbBlockTableRecord
  2
*D17
340
0
  0
BLOCK_RECORD
  5
168D
330
842
100
AcDbSymbolTableRecord
100
AcDbBlockTableRecord
  2
*D18
340
0
  0
BLOCK_RECORD
  5
1699
330
842
100
AcDbSymbolTableRecord
100
AcDbBlockTableRecord
  2
*D19
340
0
  0
BLOCK_RECORD
  5
16A5
330
842
100
AcDbSymbolTableRecord
100
AcDbBlockTableRecord
  2
*D20
340
0
  0
BLOCK_RECORD
  5
16B1
330
842
100
AcDbSymbolTableRecord
100
AcDbBlockTableRecord
  2
*D21
340
0
  0
BLOCK_RECORD
  5
183E
330
842
100
AcDbSymbolTableRecord
100
AcDbBlockTableRecord
  2
*D22
340
0
  0
BLOCK_RECORD
  5
184A
330
842
100
AcDbSymbolTableRecord
100
AcDbBlockTableRecord
  2
*D23
340
0
  0
BLOCK_RECORD
  5
1856
330
842
100
AcDbSymbolTableRecord
100
AcDbBlockTableRecord
  2
*D24
340
0
  0
BLOCK_RECORD
  5
1862
330
842
100
AcDbSymbolTableRecord
100
AcDbBlockTableRecord
  2
*D25
340
0
  0
BLOCK_RECORD
  5
186E
330
842
100
AcDbSymbolTableRecord
100
AcDbBlockTableRecord
  2
*D26
340
0
  0
BLOCK_RECORD
  5
199C
330
842
100
AcDbSymbolTableRecord
100
AcDbBlockTableRecord
  2
*D27
340
0
  0
BLOCK_RECORD
  5
19A8
330
842
100
AcDbSymbolTableRecord
100
AcDbBlockTableRecord
  2
*D28
340
0
  0
BLOCK_RECORD
  5
19B4
330
842
100
AcDbSymbolTableRecord
100
AcDbBlockTableRecord
  2
*D29
340
0
  0
BLOCK_RECORD
  5
19C0
330
842
100
AcDbSymbolTableRecord
100
AcDbBlockTableRecord
  2
*D30
340
0
  0
BLOCK_RECORD
  5
19CC
330
842
100
AcDbSymbolTableRecord
100
AcDbBlockTableRecord
  2
*D31
340
0
  0
BLOCK_RECORD
  5
19D8
330
842
100
AcDbSymbolTableRecord
100
AcDbBlockTableRecord
  2
*D32
340
0
  0
BLOCK_RECORD
  5
19E4
330
842
100
AcDbSymbolTableRecord
100
AcDbBlockTableRecord
  2
*D33
340
0
  0
BLOCK_RECORD
  5
1C6B
330
842
100
AcDbSymbolTableRecord
100
AcDbBlockTableRecord
  2
*D34
340
0
  0
BLOCK_RECORD
  5
1C77
330
842
100
AcDbSymbolTableRecord
100
AcDbBlockTableRecord
  2
*D35
340
0
  0
BLOCK_RECORD
  5
1C83
330
842
100
AcDbSymbolTableRecord
100
AcDbBlockTableRecord
  2
*D36
340
0
  0
BLOCK_RECORD
  5
1C8F
330
842
100
AcDbSymbolTableRecord
100
AcDbBlockTableRecord
  2
*D37
340
0
  0
BLOCK_RECORD
  5
1C9B
330
842
100
AcDbSymbolTableRecord
100
AcDbBlockTableRecord
  2
*D38
340
0
  0
BLOCK_RECORD
  5
1CA7
330
842
100
AcDbSymbolTableRecord
100
AcDbBlockTableRecord
  2
*D39
340
0
  0
BLOCK_RECORD
  5
1CB3
330
842
100
AcDbSymbolTableRecord
100
AcDbBlockTableRecord
  2
*D40
340
0
  0
ENDTAB
  0
ENDSEC
  0
SECTION
  2
BLOCKS
  0
BLOCK
  5
860
330
85F
100
AcDbEntity
  8
0
100
AcDbBlockBegin
  2
*MODEL_SPACE
 70
     0
 10
0.0
 20
0.0
 30
0.0
  3
*MODEL_SPACE
  1

  0
ENDBLK
  5
861
330
85F
100
AcDbEntity
  8
0
100
AcDbBlockEnd
  0
BLOCK
  5
85C
330
85B
100
AcDbEntity
 67
     1
  8
0
100
AcDbBlockBegin
  2
*PAPER_SPACE
 70
     0
 10
0.0
 20
0.0
 30
0.0
  3
*PAPER_SPACE
  1

  0
ENDBLK
  5
85D
330
85B
100
AcDbEntity
 67
     1
  8
0
100
AcDbBlockEnd
  0
BLOCK
  5
87F
330
87E
100
AcDbEntity
  8
0
100
AcDbBlockBegin
  2
_ORIGIN
 70
     0
 10
0.0
 20
0.0
 30
0.0
  3
_ORIGIN
  1

  0
CIRCLE
  5
880
330
87E
100
AcDbEntity
  8
0
  6
Continuous
 62
     7
100
AcDbCircle
 10
0.0
 20
0.0
 30
0.0
 40
0.5
  0
LINE
  5
881
330
87E
100
AcDbEntity
  8
0
  6
Continuous
 62
     7
100
AcDbLine
 10
0.0
 20
0.0
 30
0.0
 11
-1.0
 21
0.0
 31
0.0
  0
ENDBLK
  5
882
330
87E
100
AcDbEntity
  8
0
100
AcDbBlockEnd
  0
BLOCK
  5
AB5
330
AB2
100
AcDbEntity
  8
0
 62
     1
100
AcDbBlockBegin
  2
_DOTBLANK
 70
     0
 10
0.0
 20
0.0
 30
0.0
  3
_DOTBLANK
  1

  0
CIRCLE
  5
AB3
330
AB2
100
AcDbEntity
  8
0
  6
ByBlock
 62
     0
100
AcDbCircle
 10
0.0
 20
0.0
 30
0.0
 40
0.5
  0
LINE
  5
AB4
330
AB2
100
AcDbEntity
  8
0
  6
ByBlock
 62
     0
100
AcDbLine
 10
-0.5
 20
0.0
 30
0.0
 11
-1.0
 21
0.0
 31
0.0
  0
ENDBLK
  5
AB6
330
AB2
100
AcDbEntity
  8
0
 62
     1
100
AcDbBlockEnd
  0
BLOCK
  5
ABB
330
AB7
100
AcDbEntity
  8
0
 62
     1
100
AcDbBlockBegin
  2
_OPEN30
 70
     0
 10
0.0
 20
0.0
 30
0.0
  3
_OPEN30
  1

  0
LINE
  5
AB8
330
AB7
100
AcDbEntity
  8
0
  6
ByBlock
 62
     0
100
AcDbLine
 10
-1.0
 20
0.26794919
 30
0.0
 11
0.0
 21
0.0
 31
0.0
  0
LINE
  5
AB9
330
AB7
100
AcDbEntity
  8
0
  6
ByBlock
 62
     0
100
AcDbLine
 10
0.0
 20
0.0
 30
0.0
 11
-1.0
 21
-0.26794919
 31
0.0
  0
LINE
  5
ABA
330
AB7
100
AcDbEntity
  8
0
  6
ByBlock
 62
     0
100
AcDbLine
 10
0.0
 20
0.0
 30
0.0
 11
-1.0
 21
0.0
 31
0.0
  0
ENDBLK
  5
ABC
330
AB7
100
AcDbEntity
  8
0
 62
     1
100
AcDbBlockEnd
  0
BLOCK
  5
C82
330
C78
100
AcDbEntity
  8
0
100
AcDbBlockBegin
  2
*D3
 70
     1
 10
0.0
 20
0.0
 30
0.0
  3
*D3
  1

  0
LINE
  5
13ED
330
C78
100
AcDbEntity
  8
SIZE
  6
Continuous
 62
     0
370
    -2
100
AcDbLine
 10
300.0
 20
-263.3121218469543
 30
0.0
 11
300.0
 21
-544.1924168160427
 31
0.0
  0
LINE
  5
13EE
330
C78
100
AcDbEntity
  8
SIZE
  6
Continuous
 62
     0
370
    -2
100
AcDbLine
 10
-0.0000000000000012
 20
-177.5
 30
0.0
 11
-0.0000000000000237
 21
-544.1924168160427
 31
0.0
  0
LINE
  5
13EF
330
C78
100
AcDbEntity
  8
SIZE
  6
Continuous
 62
     0
370
    -2
100
AcDbLine
 10
288.0
 20
-524.1924168160427
 30
0.0
 11
11.99999999999997
 21
-524.1924168160427
 31
0.0
  0
INSERT
  5
13F0
330
C78
100
AcDbEntity
  8
SIZE
  6
Continuous
 62
     0
370
    -2
100
AcDbBlockReference
  2
_DOTBLANK
 10
300.0
 20
-524.1924168160427
 30
0.0
 41
12.0
 42
12.0
 43
12.0
  0
INSERT
  5
13F1
330
C78
100
AcDbEntity
  8
SIZE
  6
Continuous
 62
     0
370
    -2
100
AcDbBlockReference
  2
_DOTBLANK
 10
-0.0000000000000225
 20
-524.1924168160427
 30
0.0
 41
12.0
 42
12.0
 43
12.0
 50
180.0
  0
MTEXT
  5
13F2
330
C78
100
AcDbEntity
  8
SIZE
  6
Continuous
 62
     0
100
AcDbMText
 10
150.0
 20
-482.1924168160427
 30
0.0
 40
64.0
 41
0.0
 71
     5
 72
     1
  1
\A1;300
 73
     1
 44
1.0
1001
ACAD
1000
MTEXTBEGIN
1070
    73
1070
     1
1070
    44
1040
1.0
1070
    74
1070
     0
1000
MTEXTEND
  0
POINT
  5
13F3
330
C78
100
AcDbEntity
  8
DEFPOINTS
  6
Continuous
 62
     0
100
AcDbPoint
 10
300.0
 20
-243.3121218469543
 30
0.0
  0
POINT
  5
13F4
330
C78
100
AcDbEntity
  8
DEFPOINTS
  6
Continuous
 62
     0
100
AcDbPoint
 10
0.0
 20
-157.5
 30
0.0
  0
POINT
  5
13F5
330
C78
100
AcDbEntity
  8
DEFPOINTS
  6
Continuous
 62
     0
100
AcDbPoint
 10
-0.0000000000000225
 20
-524.1924168160427
 30
0.0
  0
ENDBLK
  5
C83
330
C78
100
AcDbEntity
  8
0
100
AcDbBlockEnd
  0
BLOCK
  5
C8E
330
C84
100
AcDbEntity
  8
0
100
AcDbBlockBegin
  2
*D4
 70
     1
 10
0.0
 20
0.0
 30
0.0
  3
*D4
  1

  0
LINE
  5
102A
330
C84
100
AcDbEntity
  8
SIZE
  6
Continuous
 62
     0
370
    -2
100
AcDbLine
 10
-20.0
 20
-123.5
 30
0.0
 11
-166.0601444877647
 21
-123.4999999999999
 31
0.0
  0
LINE
  5
102B
330
C84
100
AcDbEntity
  8
SIZE
  6
Continuous
 62
     0
370
    -2
100
AcDbLine
 10
-19.39999999999997
 20
121.5
 30
0.0
 11
-166.0601444877647
 21
121.5
 31
0.0
  0
LINE
  5
102C
330
C84
100
AcDbEntity
  8
SIZE
  6
Continuous
 62
     0
370
    -2
100
AcDbLine
 10
-146.0601444877647
 20
-111.4999999999999
 30
0.0
 11
-146.0601444877647
 21
109.5
 31
0.0
  0
INSERT
  5
102D
330
C84
100
AcDbEntity
  8
SIZE
  6
Continuous
 62
     0
370
    -2
100
AcDbBlockReference
  2
_DOTBLANK
 10
-146.0601444877647
 20
-123.4999999999999
 30
0.0
 41
12.0
 42
12.0
 43
12.0
 50
270.0
  0
INSERT
  5
102E
330
C84
100
AcDbEntity
  8
SIZE
  6
Continuous
 62
     0
370
    -2
100
AcDbBlockReference
  2
_DOTBLANK
 10
-146.0601444877647
 20
121.5
 30
0.0
 41
12.0
 42
12.0
 43
12.0
 50
90.0
  0
MTEXT
  5
102F
330
C84
100
AcDbEntity
  8
SIZE
  6
Continuous
 62
     0
100
AcDbMText
 10
-188.0601444877647
 20
-0.9999999999999715
 30
0.0
 40
64.0
 41
0.0
 71
     5
 72
     1
  1
\A1;□245
 11
0.0000000000000001
 21
1.0
 31
0.0
 73
     1
 44
1.0
1001
ACAD
1000
MTEXTBEGIN
1070
    73
1070
     1
1070
    44
1040
1.0
1070
    74
1070
     0
1000
MTEXTEND
  0
POINT
  5
1030
330
C84
100
AcDbEntity
  8
DEFPOINTS
  6
Continuous
 62
     0
100
AcDbPoint
 10
0.0
 20
-123.5
 30
0.0
  0
POINT
  5
1031
330
C84
100
AcDbEntity
  8
DEFPOINTS
  6
Continuous
 62
     0
100
AcDbPoint
 10
0.6000000000000229
 20
121.5
 30
0.0
  0
POINT
  5
1032
330
C84
100
AcDbEntity
  8
DEFPOINTS
  6
Continuous
 62
     0
100
AcDbPoint
 10
-146.0601444877647
 20
121.5
 30
0.0
  0
ENDBLK
  5
C8F
330
C84
100
AcDbEntity
  8
0
100
AcDbBlockEnd
  0
BLOCK
  5
E69
330
E5F
100
AcDbEntity
  8
0
100
AcDbBlockBegin
  2
*D5
 70
     1
 10
0.0
 20
0.0
 30
0.0
  3
*D5
  1

  0
LINE
  5
14F4
330
E5F
100
AcDbEntity
  8
SIZE
  6
Continuous
 62
     0
370
    -2
100
AcDbLine
 10
75.0
 20
-232.8816215723389
 30
0.0
 11
74.99999999999999
 21
-436.9419318706101
 31
0.0
  0
LINE
  5
14F5
330
E5F
100
AcDbEntity
  8
SIZE
  6
Continuous
 62
     0
370
    -2
100
AcDbLine
 10
300.0
 20
-266.5
 30
0.0
 11
300.0
 21
-436.9419318706101
 31
0.0
  0
LINE
  5
14F6
330
E5F
100
AcDbEntity
  8
SIZE
  6
Continuous
 62
     0
370
    -2
100
AcDbLine
 10
86.99999999999999
 20
-416.9419318706101
 30
0.0
 11
288.0
 21
-416.9419318706101
 31
0.0
  0
INSERT
  5
14F7
330
E5F
100
AcDbEntity
  8
SIZE
  6
Continuous
 62
     0
370
    -2
100
AcDbBlockReference
  2
_DOTBLANK
 10
74.99999999999999
 20
-416.9419318706101
 30
0.0
 41
12.0
 42
12.0
 43
12.0
 50
180.0
  0
INSERT
  5
14F8
330
E5F
100
AcDbEntity
  8
SIZE
  6
Continuous
 62
     0
370
    -2
100
AcDbBlockReference
  2
_DOTBLANK
 10
300.0
 20
-416.9419318706101
 30
0.0
 41
12.0
 42
12.0
 43
12.0
  0
MTEXT
  5
14F9
330
E5F
100
AcDbEntity
  8
SIZE
  6
Continuous
 62
     0
100
AcDbMText
 10
187.5
 20
-374.9419318706101
 30
0.0
 40
64.0
 41
0.0
 71
     5
 72
     1
  1
\A1;225
 73
     1
 44
1.0
1001
ACAD
1000
MTEXTBEGIN
1070
    73
1070
     1
1070
    44
1040
1.0
1070
    74
1070
     0
1000
MTEXTEND
  0
POINT
  5
14FA
330
E5F
100
AcDbEntity
  8
DEFPOINTS
  6
Continuous
 62
     0
100
AcDbPoint
 10
75.0
 20
-212.8816215723389
 30
0.0
  0
POINT
  5
14FB
330
E5F
100
AcDbEntity
  8
DEFPOINTS
  6
Continuous
 62
     0
100
AcDbPoint
 10
300.0
 20
-246.5
 30
0.0
  0
POINT
  5
14FC
330
E5F
100
AcDbEntity
  8
DEFPOINTS
  6
Continuous
 62
     0
100
AcDbPoint
 10
300.0
 20
-416.9419318706101
 30
0.0
  0
ENDBLK
  5
E6A
330
E5F
100
AcDbEntity
  8
0
100
AcDbBlockEnd
  0
BLOCK
  5
EA1
330
E95
100
AcDbEntity
  8
0
100
AcDbBlockBegin
  2
*D6
 70
     1
 10
0.0
 20
0.0
 30
0.0
  3
*D6
  1

  0
LINE
  5
1431
330
E95
100
AcDbEntity
  8
SIZE
  6
Continuous
 62
     0
370
    -2
100
AcDbLine
 10
300.0
 20
-266.5
 30
0.0
 11
300.0
 21
-544.1924168160427
 31
0.0
  0
LINE
  5
1432
330
E95
100
AcDbEntity
  8
SIZE
  6
Continuous
 62
     0
370
    -2
100
AcDbLine
 10
312.0
 20
-266.5
 30
0.0
 11
312.0
 21
-544.1924168160427
 31
0.0
  0
LINE
  5
1433
330
E95
100
AcDbEntity
  8
SIZE
  6
Continuous
 62
     0
370
    -2
100
AcDbLine
 10
288.0
 20
-524.1924168160427
 30
0.0
 11
276.0
 21
-524.1924168160427
 31
0.0
  0
LINE
  5
1434
330
E95
100
AcDbEntity
  8
SIZE
  6
Continuous
 62
     0
370
    -2
100
AcDbLine
 10
324.0
 20
-524.1924168160427
 30
0.0
 11
438.285714285714
 21
-524.1924168160427
 31
0.0
  0
LINE
  5
1435
330
E95
100
AcDbEntity
  8
SIZE
  6
Continuous
 62
     0
370
    -2
100
AcDbLine
 10
300.0
 20
-524.1924168160427
 30
0.0
 11
312.0
 21
-524.1924168160427
 31
0.0
  0
INSERT
  5
1436
330
E95
100
AcDbEntity
  8
SIZE
  6
Continuous
 62
     0
370
    -2
100
AcDbBlockReference
  2
_DOTBLANK
 10
300.0
 20
-524.1924168160427
 30
0.0
 41
12.0
 42
12.0
 43
12.0
  0
INSERT
  5
1437
330
E95
100
AcDbEntity
  8
SIZE
  6
Continuous
 62
     0
370
    -2
100
AcDbBlockReference
  2
_DOTBLANK
 10
312.0
 20
-524.1924168160427
 30
0.0
 41
12.0
 42
12.0
 43
12.0
 50
180.0
  0
MTEXT
  5
1438
330
E95
100
AcDbEntity
  8
SIZE
  6
Continuous
 62
     0
100
AcDbMText
 10
387.1428571428571
 20
-482.1924168160427
 30
0.0
 40
64.0
 41
0.0
 71
     5
 72
     1
  1
\A1;12
 73
     1
 44
1.0
1001
ACAD
1000
MTEXTBEGIN
1070
    73
1070
     1
1070
    44
1040
1.0
1070
    74
1070
     0
1000
MTEXTEND
  0
POINT
  5
1439
330
E95
100
AcDbEntity
  8
DEFPOINTS
  6
Continuous
 62
     0
100
AcDbPoint
 10
300.0
 20
-246.5
 30
0.0
  0
POINT
  5
143A
330
E95
100
AcDbEntity
  8
DEFPOINTS
  6
Continuous
 62
     0
100
AcDbPoint
 10
312.0
 20
-246.5000000000001
 30
0.0
  0
POINT
  5
143B
330
E95
100
AcDbEntity
  8
DEFPOINTS
  6
Continuous
 62
     0
100
AcDbPoint
 10
312.0
 20
-524.1924168160427
 30
0.0
  0
ENDBLK
  5
EA2
330
E95
100
AcDbEntity
  8
0
100
AcDbBlockEnd
  0
BLOCK
  5
FAD
330
FA1
100
AcDbEntity
  8
0
100
AcDbBlockBegin
  2
*D7
 70
     1
 10
0.0
 20
0.0
 30
0.0
  3
*D7
  1

  0
LINE
  5
1543
330
FA1
100
AcDbEntity
  8
SIZE
  6
Continuous
 62
     0
370
    -2
100
AcDbLine
 10
-12.0
 20
-124.0828571428571
 30
0.0
 11
-166.0601444877647
 21
-124.082857142857
 31
0.0
  0
LINE
  5
1544
330
FA1
100
AcDbEntity
  8
SIZE
  6
Continuous
 62
     0
370
    -2
100
AcDbLine
 10
54.99999999999998
 20
-220.0828571428571
 30
0.0
 11
-166.0601444877647
 21
-220.082857142857
 31
0.0
  0
LINE
  5
1545
330
FA1
100
AcDbEntity
  8
SIZE
  6
Continuous
 62
     0
370
    -2
100
AcDbLine
 10
-146.0601444877647
 20
-136.082857142857
 30
0.0
 11
-146.0601444877647
 21
-208.0828571428571
 31
0.0
  0
INSERT
  5
1546
330
FA1
100
AcDbEntity
  8
SIZE
  6
Continuous
 62
     0
370
    -2
100
AcDbBlockReference
  2
_DOTBLANK
 10
-146.0601444877647
 20
-124.082857142857
 30
0.0
 41
12.0
 42
12.0
 43
12.0
 50
90.0
  0
INSERT
  5
1547
330
FA1
100
AcDbEntity
  8
SIZE
  6
Continuous
 62
     0
370
    -2
100
AcDbBlockReference
  2
_DOTBLANK
 10
-146.0601444877647
 20
-220.0828571428571
 30
0.0
 41
12.0
 42
12.0
 43
12.0
 50
270.0
  0
MTEXT
  5
1548
330
FA1
100
AcDbEntity
  8
SIZE
  6
Continuous
 62
     0
100
AcDbMText
 10
-188.0601444877647
 20
-172.0828571428571
 30
0.0
 40
64.0
 41
0.0
 71
     5
 72
     1
  1
\A1;96
 11
0.0000000000000001
 21
1.0
 31
0.0
 73
     1
 44
1.0
1001
ACAD
1000
MTEXTBEGIN
1070
    73
1070
     1
1070
    44
1040
1.0
1070
    74
1070
     0
1000
MTEXTEND
  0
POINT
  5
1549
330
FA1
100
AcDbEntity
  8
DEFPOINTS
  6
Continuous
 62
     0
100
AcDbPoint
 10
8.0
 20
-124.0828571428571
 30
0.0
  0
POINT
  5
154A
330
FA1
100
AcDbEntity
  8
DEFPOINTS
  6
Continuous
 62
     0
100
AcDbPoint
 10
74.99999999999999
 20
-220.0828571428571
 30
0.0
  0
POINT
  5
154B
330
FA1
100
AcDbEntity
  8
DEFPOINTS
  6
Continuous
 62
     0
100
AcDbPoint
 10
-146.0601444877647
 20
-220.0828571428571
 30
0.0
  0
ENDBLK
  5
FAE
330
FA1
100
AcDbEntity
  8
0
100
AcDbBlockEnd
  0
BLOCK
  5
FE6
330
FDA
100
AcDbEntity
  8
0
100
AcDbBlockBegin
  2
*D8
 70
     1
 10
0.0
 20
0.0
 30
0.0
  3
*D8
  1

  0
LINE
  5
155D
330
FDA
100
AcDbEntity
  8
SIZE
  6
Continuous
 62
     0
370
    -2
100
AcDbLine
 10
64.0
 20
-238.7913523809523
 30
0.0
 11
63.99999999999999
 21
-358.0949273793144
 31
0.0
  0
LINE
  5
155E
330
FDA
100
AcDbEntity
  8
SIZE
  6
Continuous
 62
     0
370
    -2
100
AcDbLine
 10
-0.0000000000000012
 20
-177.5
 30
0.0
 11
-0.0000000000000123
 21
-358.0949273793144
 31
0.0
  0
LINE
  5
155F
330
FDA
100
AcDbEntity
  8
SIZE
  6
Continuous
 62
     0
370
    -2
100
AcDbLine
 10
51.99999999999999
 20
-338.0949273793143
 30
0.0
 11
11.99999999999999
 21
-338.0949273793143
 31
0.0
  0
LINE
  5
1560
330
FDA
100
AcDbEntity
  8
SIZE
  6
Continuous
 62
     0
370
    -2
100
AcDbLine
 10
-0.0000000000000111
 20
-338.0949273793143
 30
0.0
 11
-128.0
 21
-338.0949273793143
 31
0.0
  0
INSERT
  5
1561
330
FDA
100
AcDbEntity
  8
SIZE
  6
Continuous
 62
     0
370
    -2
100
AcDbBlockReference
  2
_DOTBLANK
 10
63.99999999999999
 20
-338.0949273793143
 30
0.0
 41
12.0
 42
12.0
 43
12.0
  0
INSERT
  5
1562
330
FDA
100
AcDbEntity
  8
SIZE
  6
Continuous
 62
     0
370
    -2
100
AcDbBlockReference
  2
_DOTBLANK
 10
-0.0000000000000111
 20
-338.0949273793143
 30
0.0
 41
12.0
 42
12.0
 43
12.0
 50
180.0
  0
MTEXT
  5
1563
330
FDA
100
AcDbEntity
  8
SIZE
  6
Continuous
 62
     0
100
AcDbMText
 10
-70.00000000000001
 20
-296.0949273793143
 30
0.0
 40
64.0
 41
0.0
 71
     5
 72
     1
  1
\A1;64
 73
     1
 44
1.0
1001
ACAD
1000
MTEXTBEGIN
1070
    73
1070
     1
1070
    44
1040
1.0
1070
    74
1070
     0
1000
MTEXTEND
  0
POINT
  5
1564
330
FDA
100
AcDbEntity
  8
DEFPOINTS
  6
Continuous
 62
     0
100
AcDbPoint
 10
64.0
 20
-218.7913523809523
 30
0.0
  0
POINT
  5
1565
330
FDA
100
AcDbEntity
  8
DEFPOINTS
  6
Continuous
 62
     0
100
AcDbPoint
 10
0.0
 20
-157.5
 30
0.0
  0
POINT
  5
1566
330
FDA
100
AcDbEntity
  8
DEFPOINTS
  6
Continuous
 62
     0
100
AcDbPoint
 10
-0.0000000000000111
 20
-338.0949273793143
 30
0.0
  0
ENDBLK
  5
FE7
330
FDA
100
AcDbEntity
  8
0
100
AcDbBlockEnd
  0
BLOCK
  5
1149
330
1147
100
AcDbEntity
  8
0
100
AcDbBlockBegin
  2
GENAXEH
 70
     0
 10
0.0
 20
0.0
 30
0.0
  3
GENAXEH
  1

  0
LINE
  5
1148
330
1147
100
AcDbEntity
  8
0
100
AcDbLine
 10
-1.0
 20
0.0
 30
0.0
 11
1.0
 21
0.0
 31
0.0
  0
ENDBLK
  5
114A
330
1147
100
AcDbEntity
  8
0
100
AcDbBlockEnd
  0
BLOCK
  5
13F9
330
13F8
100
AcDbEntity
  8
0
100
AcDbBlockBegin
  2
*D10
 70
     1
 10
0.0
 20
0.0
 30
0.0
  3
*D10
  1

  0
LINE
  5
13FB
330
13F8
100
AcDbEntity
  8
0
  6
Continuous
 62
     0
370
    -2
100
AcDbLine
 10
314.1371921368456
 20
-217.1672874507571
 30
0.0
 11
317.2283557487135
 21
-188.2649411122338
 31
0.0
  0
LINE
  5
13FC
330
13F8
100
AcDbEntity
  8
0
  6
Continuous
 62
     0
370
    -2
100
AcDbLine
 10
302.1269099232851
 20
-215.8827638030234
 30
0.0
 11
305.2180735351531
 21
-186.9804174645001
 31
0.0
  0
LINE
  5
13FD
330
13F8
100
AcDbEntity
  8
0
  6
Continuous
 62
     0
370
    -2
100
AcDbLine
 10
327.033396692917
 20
-209.4276718453527
 30
0.0
 11
338.9653475604057
 21
-210.7038177993238
 31
0.0
  0
LINE
  5
13FE
330
13F8
100
AcDbEntity
  8
0
  6
Continuous
 62
     0
370
    -2
100
AcDbLine
 10
291.1592127443793
 20
-205.5908562896768
 30
0.0
 11
279.2272618768907
 21
-204.3147103357057
 31
0.0
  0
LINE
  5
13FF
330
13F8
100
AcDbEntity
  8
0
  6
Continuous
 62
     0
370
    -2
100
AcDbLine
 10
315.1014458254284
 20
-208.1515258913816
 30
0.0
 11
303.091163611868
 21
-206.8670022436479
 31
0.0
  0
INSERT
  5
1400
330
13F8
100
AcDbEntity
  8
0
  6
Continuous
 62
     0
370
    -2
100
AcDbBlockReference
  2
_DOTBLANK
 10
315.1014458254284
 20
-208.1515258913816
 30
0.0
 41
12.0
 42
12.0
 43
12.0
 50
173.8953081148717
  0
INSERT
  5
1401
330
13F8
100
AcDbEntity
  8
0
  6
Continuous
 62
     0
370
    -2
100
AcDbBlockReference
  2
_DOTBLANK
 10
303.091163611868
 20
-206.8670022436479
 30
0.0
 41
12.0
 42
12.0
 43
12.0
 50
353.8953081148717
  0
MTEXT
  5
1402
330
13F8
100
AcDbEntity
  8
0
  6
Continuous
 62
     0
100
AcDbMText
 10
313.562815557547
 20
-165.7474360313044
 30
0.0
 40
64.0
 41
0.0
 71
     5
 72
     1
  1
\A1;12.0788
 11
0.9943292389573878
 21
-0.106345496164257
 31
0.0
 73
     1
 44
1.0
1001
ACAD
1000
MTEXTBEGIN
1070
    73
1070
     1
1070
    44
1040
1.0
1070
    74
1070
     0
1000
MTEXTEND
  0
POINT
  5
1403
330
13F8
100
AcDbEntity
  8
DEFPOINTS
  6
Continuous
 62
     0
100
AcDbPoint
 10
312.0102822135603
 20
-237.0538722299048
 30
0.0
  0
POINT
  5
1404
330
13F8
100
AcDbEntity
  8
DEFPOINTS
  6
Continuous
 62
     0
100
AcDbPoint
 10
300.0
 20
-235.7693485821711
 30
0.0
  0
POINT
  5
1405
330
13F8
100
AcDbEntity
  8
DEFPOINTS
  6
Continuous
 62
     0
100
AcDbPoint
 10
303.091163611868
 20
-206.8670022436479
 30
0.0
  0
ENDBLK
  5
13FA
330
13F8
100
AcDbEntity
  8
0
100
AcDbBlockEnd
  0
BLOCK
  5
140F
330
140E
100
AcDbEntity
  8
0
100
AcDbBlockBegin
  2
*D11
 70
     1
 10
0.0
 20
0.0
 30
0.0
  3
*D11
  1

  0
LINE
  5
1411
330
140E
100
AcDbEntity
  8
0
  6
Continuous
 62
     0
370
    -2
100
AcDbLine
 10
67.13719213684547
 20
-190.7501445936143
 30
0.0
 11
70.67403290694463
 21
-157.6807216458441
 31
0.0
  0
LINE
  5
1412
330
140E
100
AcDbEntity
  8
0
  6
Continuous
 62
     0
370
    -2
100
AcDbLine
 10
77.12690992328507
 20
-191.8185648440875
 30
0.0
 11
80.66375069338425
 21
-158.7491418963174
 31
0.0
  0
LINE
  5
1413
330
140E
100
AcDbEntity
  8
0
  6
Continuous
 62
     0
370
    -2
100
AcDbLine
 10
56.6151721161709
 20
-176.2911604710208
 30
0.0
 11
44.68322124868224
 21
-175.0150145170498
 31
0.0
  0
LINE
  5
1414
330
140E
100
AcDbEntity
  8
0
  6
Continuous
 62
     0
370
    -2
100
AcDbLine
 10
90.46879163758786
 20
-179.9118726294361
 30
0.0
 11
102.4007425050765
 21
-181.1880185834073
 31
0.0
  0
LINE
  5
1415
330
140E
100
AcDbEntity
  8
0
  6
Continuous
 62
     0
370
    -2
100
AcDbLine
 10
68.54712298365956
 20
-177.5673064249919
 30
0.0
 11
78.53684077009917
 21
-178.6357266754652
 31
0.0
  0
INSERT
  5
1416
330
140E
100
AcDbEntity
  8
0
  6
Continuous
 62
     0
370
    -2
100
AcDbBlockReference
  2
_DOTBLANK
 10
68.54712298365956
 20
-177.5673064249919
 30
0.0
 41
12.0
 42
12.0
 43
12.0
 50
353.8953081148719
  0
INSERT
  5
1417
330
140E
100
AcDbEntity
  8
0
  6
Continuous
 62
     0
370
    -2
100
AcDbBlockReference
  2
_DOTBLANK
 10
78.53684077009917
 20
-178.6357266754652
 30
0.0
 41
12.0
 42
12.0
 43
12.0
 50
173.8953081148719
  0
MTEXT
  5
1418
330
140E
100
AcDbEntity
  8
0
  6
Continuous
 62
     0
100
AcDbMText
 10
78.008492715778
 20
-136.3396885140182
 30
0.0
 40
64.0
 41
0.0
 71
     5
 72
     1
  1
\A1;10.0467
 11
0.9943292389573882
 21
-0.1063454961642535
 31
0.0
 73
     1
 44
1.0
1001
ACAD
1000
MTEXTBEGIN
1070
    73
1070
     1
1070
    44
1040
1.0
1070
    74
1070
     0
1000
MTEXTEND
  0
POINT
  5
1419
330
140E
100
AcDbEntity
  8
DEFPOINTS
  6
Continuous
 62
     0
100
AcDbPoint
 10
65.0102822135604
 20
-210.636729372762
 30
0.0
  0
POINT
  5
141A
330
140E
100
AcDbEntity
  8
DEFPOINTS
  6
Continuous
 62
     0
100
AcDbPoint
 10
75.0
 20
-211.7051496232353
 30
0.0
  0
POINT
  5
141B
330
140E
100
AcDbEntity
  8
DEFPOINTS
  6
Continuous
 62
     0
100
AcDbPoint
 10
78.53684077009917
 20
-178.6357266754652
 30
0.0
  0
ENDBLK
  5
1410
330
140E
100
AcDbEntity
  8
0
100
AcDbBlockEnd
  0
BLOCK
  5
1467
330
1466
100
AcDbEntity
  8
0
100
AcDbBlockBegin
  2
*D12
 70
     1
 10
0.0
 20
0.0
 30
0.0
  3
*D12
  1

  0
LINE
  5
1469
330
1466
100
AcDbEntity
  8
OUTLINE
  6
Continuous
 62
     0
370
    -2
100
AcDbLine
 10
40.60000000000002
 20
-144.0828571428571
 30
0.0
 11
40.60000000000001
 21
-215.1556128200372
 31
0.0
  0
LINE
  5
146A
330
1466
100
AcDbEntity
  8
OUTLINE
  6
Continuous
 62
     0
370
    -2
100
AcDbLine
 10
-0.0000000000000012
 20
-177.5
 30
0.0
 11
-0.0000000000000035
 21
-215.1556128200372
 31
0.0
  0
LINE
  5
146B
330
1466
100
AcDbEntity
  8
OUTLINE
  6
Continuous
 62
     0
370
    -2
100
AcDbLine
 10
52.60000000000001
 20
-195.1556128200371
 30
0.0
 11
64.60000000000002
 21
-195.1556128200371
 31
0.0
  0
LINE
  5
146C
330
1466
100
AcDbEntity
  8
OUTLINE
  6
Continuous
 62
     0
370
    -2
100
AcDbLine
 10
-12.0
 20
-195.1556128200371
 30
0.0
 11
-24.0
 21
-195.1556128200371
 31
0.0
  0
LINE
  5
146D
330
1466
100
AcDbEntity
  8
OUTLINE
  6
Continuous
 62
     0
370
    -2
100
AcDbLine
 10
40.60000000000001
 20
-195.1556128200371
 30
0.0
 11
-0.0000000000000023
 21
-195.1556128200371
 31
0.0
  0
INSERT
  5
146E
330
1466
100
AcDbEntity
  8
OUTLINE
  6
Continuous
 62
     0
370
    -2
100
AcDbBlockReference
  2
_DOTBLANK
 10
40.60000000000001
 20
-195.1556128200371
 30
0.0
 41
12.0
 42
12.0
 43
12.0
 50
180.0
  0
INSERT
  5
146F
330
1466
100
AcDbEntity
  8
OUTLINE
  6
Continuous
 62
     0
370
    -2
100
AcDbBlockReference
  2
_DOTBLANK
 10
-0.0000000000000023
 20
-195.1556128200371
 30
0.0
 41
12.0
 42
12.0
 43
12.0
  0
MTEXT
  5
1470
330
1466
100
AcDbEntity
  8
OUTLINE
  6
Continuous
 62
     0
100
AcDbMText
 10
20.30000000000001
 20
-153.1556128200371
 30
0.0
 40
64.0
 41
0.0
 71
     5
 72
     1
  1
\A1;40.6
 73
     1
 44
1.0
1001
ACAD
1000
MTEXTBEGIN
1070
    73
1070
     1
1070
    44
1040
1.0
1070
    74
1070
     0
1000
MTEXTEND
  0
POINT
  5
1471
330
1466
100
AcDbEntity
  8
DEFPOINTS
  6
Continuous
 62
     0
100
AcDbPoint
 10
40.60000000000002
 20
-124.0828571428571
 30
0.0
  0
POINT
  5
1472
330
1466
100
AcDbEntity
  8
DEFPOINTS
  6
Continuous
 62
     0
100
AcDbPoint
 10
0.0
 20
-157.5
 30
0.0
  0
POINT
  5
1473
330
1466
100
AcDbEntity
  8
DEFPOINTS
  6
Continuous
 62
     0
100
AcDbPoint
 10
-0.0000000000000023
 20
-195.1556128200371
 30
0.0
  0
ENDBLK
  5
1468
330
1466
100
AcDbEntity
  8
0
100
AcDbBlockEnd
  0
BLOCK
  5
1488
330
1487
100
AcDbEntity
  8
0
100
AcDbBlockBegin
  2
*D13
 70
     1
 10
0.0
 20
0.0
 30
0.0
  3
*D13
  1

  0
LINE
  5
148A
330
1487
100
AcDbEntity
  8
OUTLINE
  6
Continuous
 62
     0
370
    -2
100
AcDbLine
 10
42.08253325689566
 20
123.5
 30
0.0
 11
419.3096423671558
 21
123.4999999999998
 31
0.0
  0
LINE
  5
148B
330
1487
100
AcDbEntity
  8
OUTLINE
  6
Continuous
 62
     0
370
    -2
100
AcDbLine
 10
60.60000000000002
 20
-124.0828571428571
 30
0.0
 11
419.3096423671558
 21
-124.0828571428572
 31
0.0
  0
LINE
  5
148C
330
1487
100
AcDbEntity
  8
OUTLINE
  6
Continuous
 62
     0
370
    -2
100
AcDbLine
 10
399.3096423671559
 20
135.4999999999999
 30
0.0
 11
399.3096423671559
 21
147.4999999999999
 31
0.0
  0
LINE
  5
148D
330
1487
100
AcDbEntity
  8
OUTLINE
  6
Continuous
 62
     0
370
    -2
100
AcDbLine
 10
399.3096423671559
 20
-136.0828571428572
 30
0.0
 11
399.3096423671559
 21
-148.0828571428572
 31
0.0
  0
LINE
  5
148E
330
1487
100
AcDbEntity
  8
OUTLINE
  6
Continuous
 62
     0
370
    -2
100
AcDbLine
 10
399.3096423671559
 20
123.4999999999999
 30
0.0
 11
399.3096423671559
 21
-124.0828571428572
 31
0.0
  0
INSERT
  5
148F
330
1487
100
AcDbEntity
  8
OUTLINE
  6
Continuous
 62
     0
370
    -2
100
AcDbBlockReference
  2
_DOTBLANK
 10
399.3096423671559
 20
123.4999999999999
 30
0.0
 41
12.0
 42
12.0
 43
12.0
 50
270.0
  0
INSERT
  5
1490
330
1487
100
AcDbEntity
  8
OUTLINE
  6
Continuous
 62
     0
370
    -2
100
AcDbBlockReference
  2
_DOTBLANK
 10
399.3096423671559
 20
-124.0828571428572
 30
0.0
 41
12.0
 42
12.0
 43
12.0
 50
90.0
  0
MTEXT
  5
1491
330
1487
100
AcDbEntity
  8
OUTLINE
  6
Continuous
 62
     0
100
AcDbMText
 10
357.3096423671558
 20
-0.2914285714285876
 30
0.0
 40
64.0
 41
0.0
 71
     5
 72
     1
  1
\A1;247.5829
 11
0.0000000000000001
 21
1.0
 31
0.0
 73
     1
 44
1.0
1001
ACAD
1000
MTEXTBEGIN
1070
    73
1070
     1
1070
    44
1040
1.0
1070
    74
1070
     0
1000
MTEXTEND
  0
POINT
  5
1492
330
1487
100
AcDbEntity
  8
DEFPOINTS
  6
Continuous
 62
     0
100
AcDbPoint
 10
22.08253325689566
 20
123.5
 30
0.0
  0
POINT
  5
1493
330
1487
100
AcDbEntity
  8
DEFPOINTS
  6
Continuous
 62
     0
100
AcDbPoint
 10
40.60000000000002
 20
-124.0828571428571
 30
0.0
  0
POINT
  5
1494
330
1487
100
AcDbEntity
  8
DEFPOINTS
  6
Continuous
 62
     0
100
AcDbPoint
 10
399.3096423671559
 20
-124.0828571428572
 30
0.0
  0
ENDBLK
  5
1489
330
1487
100
AcDbEntity
  8
0
100
AcDbBlockEnd
  0
BLOCK
  5
14B3
330
14B2
100
AcDbEntity
  8
0
100
AcDbBlockBegin
  2
*D14
 70
     1
 10
0.0
 20
0.0
 30
0.0
  3
*D14
  1

  0
LINE
  5
14B5
330
14B2
100
AcDbEntity
  8
OUTLINE
  6
Continuous
 62
     0
370
    -2
100
AcDbLine
 10
216.1447614348681
 20
-246.5000000000001
 30
0.0
 11
165.2443564611486
 21
-246.5000000000001
 31
0.0
  0
ARC
  5
14B6
330
14B2
100
AcDbEntity
  8
OUTLINE
  6
Continuous
 62
     0
370
    -2
100
AcDbCircle
 10
300.0000000000002
 20
-246.5000000000001
 30
0.0
 40
114.7556435388515
100
AcDbArc
 50
179.8894621315228
 51
174.0058459833489
  0
INSERT
  5
14B7
330
14B2
100
AcDbEntity
  8
OUTLINE
  6
Continuous
 62
     0
370
    -2
100
AcDbBlockReference
  2
_DOTBLANK
 10
185.8951082939487
 20
-234.2962541502124
 30
0.0
 41
12.0
 42
12.0
 43
12.0
 50
86.89238512319729
  0
INSERT
  5
14B8
330
14B2
100
AcDbEntity
  8
OUTLINE
  6
Continuous
 62
     0
370
    -2
100
AcDbBlockReference
  2
_DOTBLANK
 10
185.2443564611487
 20
-246.5
 30
0.0
 41
12.0
 42
12.0
 43
12.0
 50
267.0029229916744
  0
MTEXT
  5
14B9
330
14B2
100
AcDbEntity
  8
OUTLINE
  6
Continuous
 62
     0
100
AcDbMText
 10
143.4667451613437
 20
-238.1530298373776
 30
0.0
 40
64.0
 41
0.0
 71
     5
 72
     1
  1
\A1;6°
 11
0.053248291252453
 21
0.9985813033893103
 31
0.0
 73
     1
 44
1.0
1001
ACAD
1000
MTEXTBEGIN
1070
    73
1070
     1
1070
    44
1040
1.0
1070
    74
1070
     0
1000
MTEXTEND
  0
POINT
  5
14BA
330
14B2
100
AcDbEntity
  8
DEFPOINTS
  6
Continuous
 62
     0
100
AcDbPoint
 10
185.5337315649086
 20
-238.3556083983204
 30
0.0
  0
POINT
  5
14BB
330
14B2
100
AcDbEntity
  8
DEFPOINTS
  6
Continuous
 62
     0
100
AcDbPoint
 10
62.05776691895094
 20
-221.0516033884629
 30
0.0
  0
POINT
  5
14BC
330
14B2
100
AcDbEntity
  8
DEFPOINTS
  6
Continuous
 62
     0
100
AcDbPoint
 10
300.0000000000002
 20
-246.5000000000001
 30
0.0
  0
POINT
  5
14BD
330
14B2
100
AcDbEntity
  8
DEFPOINTS
  6
Continuous
 62
     0
100
AcDbPoint
 10
236.1447614348681
 20
-246.5000000000001
 30
0.0
  0
POINT
  5
14BE
330
14B2
100
AcDbEntity
  8
DEFPOINTS
  6
Continuous
 62
     0
100
AcDbPoint
 10
300.0
 20
-246.5
 30
0.0
  0
ENDBLK
  5
14B4
330
14B2
100
AcDbEntity
  8
0
100
AcDbBlockEnd
  0
BLOCK
  5
14C3
330
14C2
100
AcDbEntity
  8
0
100
AcDbBlockBegin
  2
*D15
 70
     1
 10
0.0
 20
0.0
 30
0.0
  3
*D15
  1

  0
LINE
  5
14C5
330
14C2
100
AcDbEntity
  8
OUTLINE
  6
Continuous
 62
     0
370
    -2
100
AcDbLine
 10
-0.0000000000000012
 20
-177.5
 30
0.0
 11
-0.0000000000000023
 21
-195.4340082521925
 31
0.0
  0
LINE
  5
14C6
330
14C2
100
AcDbEntity
  8
OUTLINE
  6
Continuous
 62
     0
370
    -2
100
AcDbLine
 10
40.0
 20
-144.0828571428571
 30
0.0
 11
40.0
 21
-195.4340082521925
 31
0.0
  0
LINE
  5
14C7
330
14C2
100
AcDbEntity
  8
OUTLINE
  6
Continuous
 62
     0
370
    -2
100
AcDbLine
 10
-12.0
 20
-175.4340082521925
 30
0.0
 11
-24.0
 21
-175.4340082521925
 31
0.0
  0
LINE
  5
14C8
330
14C2
100
AcDbEntity
  8
OUTLINE
  6
Continuous
 62
     0
370
    -2
100
AcDbLine
 10
52.0
 20
-175.4340082521925
 30
0.0
 11
64.0
 21
-175.4340082521925
 31
0.0
  0
LINE
  5
14C9
330
14C2
100
AcDbEntity
  8
OUTLINE
  6
Continuous
 62
     0
370
    -2
100
AcDbLine
 10
-0.0000000000000011
 20
-175.4340082521925
 30
0.0
 11
40.0
 21
-175.4340082521925
 31
0.0
  0
INSERT
  5
14CA
330
14C2
100
AcDbEntity
  8
OUTLINE
  6
Continuous
 62
     0
370
    -2
100
AcDbBlockReference
  2
_DOTBLANK
 10
-0.0000000000000011
 20
-175.4340082521925
 30
0.0
 41
12.0
 42
12.0
 43
12.0
  0
INSERT
  5
14CB
330
14C2
100
AcDbEntity
  8
OUTLINE
  6
Continuous
 62
     0
370
    -2
100
AcDbBlockReference
  2
_DOTBLANK
 10
40.0
 20
-175.4340082521925
 30
0.0
 41
12.0
 42
12.0
 43
12.0
 50
180.0
  0
MTEXT
  5
14CC
330
14C2
100
AcDbEntity
  8
OUTLINE
  6
Continuous
 62
     0
100
AcDbMText
 10
20.0
 20
-133.4340082521925
 30
0.0
 40
64.0
 41
0.0
 71
     5
 72
     1
  1
\A1;40
 73
     1
 44
1.0
1001
ACAD
1000
MTEXTBEGIN
1070
    73
1070
     1
1070
    44
1040
1.0
1070
    74
1070
     0
1000
MTEXTEND
  0
POINT
  5
14CD
330
14C2
100
AcDbEntity
  8
DEFPOINTS
  6
Continuous
 62
     0
100
AcDbPoint
 10
0.0
 20
-157.5
 30
0.0
  0
POINT
  5
14CE
330
14C2
100
AcDbEntity
  8
DEFPOINTS
  6
Continuous
 62
     0
100
AcDbPoint
 10
40.0
 20
-124.0828571428571
 30
0.0
  0
POINT
  5
14CF
330
14C2
100
AcDbEntity
  8
DEFPOINTS
  6
Continuous
 62
     0
100
AcDbPoint
 10
40.0
 20
-175.4340082521925
 30
0.0
  0
ENDBLK
  5
14C4
330
14C2
100
AcDbEntity
  8
0
100
AcDbBlockEnd
  0
BLOCK
  5
157A
330
1579
100
AcDbEntity
  8
0
100
AcDbBlockBegin
  2
*D16
 70
     1
 10
0.0
 20
0.0
 30
0.0
  3
*D16
  1

  0
LINE
  5
1587
330
1579
100
AcDbEntity
  8
SIZE
  6
Continuous
 62
     0
370
    -2
100
AcDbLine
 10
0.0000000000000012
 20
177.5
 30
0.0
 11
0.0000000000000066
 21
265.7692974037192
 31
0.0
  0
LINE
  5
1588
330
1579
100
AcDbEntity
  8
SIZE
  6
Continuous
 62
     0
370
    -2
100
AcDbLine
 10
8.000000000000001
 20
177.5
 30
0.0
 11
8.000000000000008
 21
265.7692974037192
 31
0.0
  0
LINE
  5
1589
330
1579
100
AcDbEntity
  8
SIZE
  6
Continuous
 62
     0
370
    -2
100
AcDbLine
 10
20.00000000000001
 20
245.7692974037192
 30
0.0
 11
32.00000000000001
 21
245.7692974037192
 31
0.0
  0
LINE
  5
158A
330
1579
100
AcDbEntity
  8
SIZE
  6
Continuous
 62
     0
370
    -2
100
AcDbLine
 10
-11.99999999999999
 20
245.7692974037192
 30
0.0
 11
-100.5754142431145
 21
245.7692974037192
 31
0.0
  0
LINE
  5
158B
330
1579
100
AcDbEntity
  8
SIZE
  6
Continuous
 62
     0
370
    -2
100
AcDbLine
 10
8.000000000000005
 20
245.7692974037192
 30
0.0
 11
0.0000000000000054
 21
245.7692974037192
 31
0.0
  0
INSERT
  5
158C
330
1579
100
AcDbEntity
  8
SIZE
  6
Continuous
 62
     0
370
    -2
100
AcDbBlockReference
  2
_DOTBLANK
 10
8.000000000000005
 20
245.7692974037192
 30
0.0
 41
12.0
 42
12.0
 43
12.0
 50
180.0
  0
INSERT
  5
158D
330
1579
100
AcDbEntity
  8
SIZE
  6
Continuous
 62
     0
370
    -2
100
AcDbBlockReference
  2
_DOTBLANK
 10
0.0000000000000054
 20
245.7692974037192
 30
0.0
 41
12.0
 42
12.0
 43
12.0
  0
MTEXT
  5
158E
330
1579
100
AcDbEntity
  8
SIZE
  6
Continuous
 62
     0
100
AcDbMText
 10
-71.3754142431145
 20
287.7692974037192
 30
0.0
 40
64.0
 41
0.0
 71
     5
 72
     1
  1
\A1;8
 73
     1
 44
1.0
1001
ACAD
1000
MTEXTBEGIN
1070
    73
1070
     1
1070
    44
1040
1.0
1070
    74
1070
     0
1000
MTEXTEND
  0
POINT
  5
158F
330
1579
100
AcDbEntity
  8
DEFPOINTS
  6
Continuous
 62
     0
100
AcDbPoint
 10
0.0
 20
157.5
 30
0.0
  0
POINT
  5
1590
330
1579
100
AcDbEntity
  8
DEFPOINTS
  6
Continuous
 62
     0
100
AcDbPoint
 10
8.0
 20
157.5
 30
0.0
  0
POINT
  5
1591
330
1579
100
AcDbEntity
  8
DEFPOINTS
  6
Continuous
 62
     0
100
AcDbPoint
 10
8.000000000000005
 20
245.7692974037192
 30
0.0
  0
ENDBLK
  5
157B
330
1579
100
AcDbEntity
  8
0
100
AcDbBlockEnd
  0
BLOCK
  5
1682
330
1681
100
AcDbEntity
  8
0
100
AcDbBlockBegin
  2
*D17
 70
     1
 10
0.0
 20
0.0
 30
0.0
  3
*D17
  1

  0
LINE
  5
1683
330
1681
100
AcDbEntity
  8
SIZE
 62
     0
370
    -2
100
AcDbLine
 10
-43474.92020013159
 20
5342.487522592179
 30
0.0
 11
-43474.92020013159
 21
5188.564906305671
 31
0.0
  0
LINE
  5
1684
330
1681
100
AcDbEntity
  8
SIZE
 62
     0
370
    -2
100
AcDbLine
 10
-42836.92020013162
 20
5342.487522592179
 30
0.0
 11
-42836.92020013162
 21
5188.564906305671
 31
0.0
  0
LINE
  5
1685
330
1681
100
AcDbEntity
  8
SIZE
 62
     0
370
    -2
100
AcDbLine
 10
-43462.9202001316
 20
5208.564906305671
 30
0.0
 11
-42848.92020013161
 21
5208.564906305671
 31
0.0
  0
INSERT
  5
1686
330
1681
100
AcDbEntity
  8
SIZE
 62
     0
370
    -2
100
AcDbBlockReference
  2
_DOTBLANK
 10
-43474.92020013159
 20
5208.564906305671
 30
0.0
 41
12.0
 42
12.0
 43
12.0
 50
180.0
  0
INSERT
  5
1687
330
1681
100
AcDbEntity
  8
SIZE
 62
     0
370
    -2
100
AcDbBlockReference
  2
_DOTBLANK
 10
-42836.92020013162
 20
5208.564906305671
 30
0.0
 41
12.0
 42
12.0
 43
12.0
  0
MTEXT
  5
1688
330
1681
100
AcDbEntity
  8
SIZE
 62
     0
100
AcDbMText
 10
-43155.92020013161
 20
5250.564906305671
 30
0.0
 40
64.0
 41
0.0
 71
     5
 72
     1
  1
\A1;638
 73
     1
 44
1.0
1001
ACAD
1000
MTEXTBEGIN
1070
    73
1070
     1
1070
    44
1040
1.0
1070
    74
1070
     0
1000
MTEXTEND
  0
POINT
  5
1689
330
1681
100
AcDbEntity
  8
DEFPOINTS
 62
     0
100
AcDbPoint
 10
-43474.92020013159
 20
5362.487522592179
 30
0.0
  0
POINT
  5
168A
330
1681
100
AcDbEntity
  8
DEFPOINTS
 62
     0
100
AcDbPoint
 10
-42836.92020013162
 20
5362.487522592179
 30
0.0
  0
POINT
  5
168B
330
1681
100
AcDbEntity
  8
DEFPOINTS
 62
     0
100
AcDbPoint
 10
-42836.92020013162
 20
5208.564906305671
 30
0.0
  0
ENDBLK
  5
168C
330
1681
100
AcDbEntity
  8
0
100
AcDbBlockEnd
  0
BLOCK
  5
168E
330
168D
100
AcDbEntity
  8
0
100
AcDbBlockBegin
  2
*D18
 70
     1
 10
0.0
 20
0.0
 30
0.0
  3
*D18
  1

  0
LINE
  5
168F
330
168D
100
AcDbEntity
  8
SIZE
 62
     0
370
    -2
100
AcDbLine
 10
-43480.92020013162
 20
5324.987522592179
 30
0.0
 11
-43480.92020013162
 21
5072.078974502169
 31
0.0
  0
LINE
  5
1690
330
168D
100
AcDbEntity
  8
SIZE
 62
     0
370
    -2
100
AcDbLine
 10
-42830.92020013159
 20
5324.987522592179
 30
0.0
 11
-42830.92020013159
 21
5072.078974502169
 31
0.0
  0
LINE
  5
1691
330
168D
100
AcDbEntity
  8
SIZE
 62
     0
370
    -2
100
AcDbLine
 10
-43468.92020013161
 20
5092.078974502169
 30
0.0
 11
-42842.9202001316
 21
5092.078974502169
 31
0.0
  0
INSERT
  5
1692
330
168D
100
AcDbEntity
  8
SIZE
 62
     0
370
    -2
100
AcDbBlockReference
  2
_DOTBLANK
 10
-43480.92020013162
 20
5092.078974502169
 30
0.0
 41
12.0
 42
12.0
 43
12.0
 50
180.0
  0
INSERT
  5
1693
330
168D
100
AcDbEntity
  8
SIZE
 62
     0
370
    -2
100
AcDbBlockReference
  2
_DOTBLANK
 10
-42830.92020013159
 20
5092.078974502169
 30
0.0
 41
12.0
 42
12.0
 43
12.0
  0
MTEXT
  5
1694
330
168D
100
AcDbEntity
  8
SIZE
 62
     0
100
AcDbMText
 10
-43155.92020013161
 20
5134.07897450217
 30
0.0
 40
64.0
 41
0.0
 71
     5
 72
     1
  1
\A1;650
 73
     1
 44
1.0
1001
ACAD
1000
MTEXTBEGIN
1070
    73
1070
     1
1070
    44
1040
1.0
1070
    74
1070
     0
1000
MTEXTEND
  0
POINT
  5
1695
330
168D
100
AcDbEntity
  8
DEFPOINTS
 62
     0
100
AcDbPoint
 10
-43480.92020013162
 20
5344.987522592179
 30
0.0
  0
POINT
  5
1696
330
168D
100
AcDbEntity
  8
DEFPOINTS
 62
     0
100
AcDbPoint
 10
-42830.92020013159
 20
5344.987522592179
 30
0.0
  0
POINT
  5
1697
330
168D
100
AcDbEntity
  8
DEFPOINTS
 62
     0
100
AcDbPoint
 10
-42830.92020013159
 20
5092.078974502169
 30
0.0
  0
ENDBLK
  5
1698
330
168D
100
AcDbEntity
  8
0
100
AcDbBlockEnd
  0
BLOCK
  5
169A
330
1699
100
AcDbEntity
  8
0
100
AcDbBlockBegin
  2
*D19
 70
     1
 10
0.0
 20
0.0
 30
0.0
  3
*D19
  1

  0
LINE
  5
169B
330
1699
100
AcDbEntity
  8
SIZE
 62
     0
370
    -2
100
AcDbLine
 10
-43500.9202001316
 20
5344.987522592179
 30
0.0
 11
-43720.25058092126
 21
5344.987522592179
 31
0.0
  0
LINE
  5
169C
330
1699
100
AcDbEntity
  8
SIZE
 62
     0
370
    -2
100
AcDbLine
 10
-43499.92020013162
 20
5965.787522592178
 30
0.0
 11
-43720.25058092126
 21
5965.787522592178
 31
0.0
  0
LINE
  5
169D
330
1699
100
AcDbEntity
  8
SIZE
 62
     0
370
    -2
100
AcDbLine
 10
-43700.25058092126
 20
5356.987522592179
 30
0.0
 11
-43700.25058092126
 21
5953.787522592178
 31
0.0
  0
INSERT
  5
169E
330
1699
100
AcDbEntity
  8
SIZE
 62
     0
370
    -2
100
AcDbBlockReference
  2
_DOTBLANK
 10
-43700.25058092126
 20
5344.987522592179
 30
0.0
 41
12.0
 42
12.0
 43
12.0
 50
270.0
  0
INSERT
  5
169F
330
1699
100
AcDbEntity
  8
SIZE
 62
     0
370
    -2
100
AcDbBlockReference
  2
_DOTBLANK
 10
-43700.25058092126
 20
5965.787522592178
 30
0.0
 41
12.0
 42
12.0
 43
12.0
 50
90.0
  0
MTEXT
  5
16A0
330
1699
100
AcDbEntity
  8
SIZE
 62
     0
100
AcDbMText
 10
-43742.25058092126
 20
5655.387522592172
 30
0.0
 40
64.0
 41
0.0
 71
     5
 72
     1
  1
\A1;621
 11
0.0000000000000001
 21
1.0
 31
0.0
 73
     1
 44
1.0
1001
ACAD
1000
MTEXTBEGIN
1070
    73
1070
     1
1070
    44
1040
1.0
1070
    74
1070
     0
1000
MTEXTEND
  0
POINT
  5
16A1
330
1699
100
AcDbEntity
  8
DEFPOINTS
 62
     0
100
AcDbPoint
 10
-43480.92020013162
 20
5344.987522592179
 30
0.0
  0
POINT
  5
16A2
330
1699
100
AcDbEntity
  8
DEFPOINTS
 62
     0
100
AcDbPoint
 10
-43479.92020013161
 20
5965.787522592178
 30
0.0
  0
POINT
  5
16A3
330
1699
100
AcDbEntity
  8
DEFPOINTS
 62
     0
100
AcDbPoint
 10
-43700.25058092126
 20
5965.787522592178
 30
0.0
  0
ENDBLK
  5
16A4
330
1699
100
AcDbEntity
  8
0
100
AcDbBlockEnd
  0
BLOCK
  5
16A6
330
16A5
100
AcDbEntity
  8
0
100
AcDbBlockBegin
  2
*D20
 70
     1
 10
0.0
 20
0.0
 30
0.0
  3
*D20
  1

  0
LINE
  5
16A7
330
16A5
100
AcDbEntity
  8
SIZE
  6
Continuous
 62
     0
370
    -2
100
AcDbLine
 10
-43499.42020013161
 20
5939.987522592179
 30
0.0
 11
-43613.00786530767
 21
5939.987522592179
 31
0.0
  0
LINE
  5
16A8
330
16A5
100
AcDbEntity
  8
SIZE
  6
Continuous
 62
     0
370
    -2
100
AcDbLine
 10
-43502.4202001316
 20
5654.987522592179
 30
0.0
 11
-43613.00786530767
 21
5654.987522592179
 31
0.0
  0
LINE
  5
16A9
330
16A5
100
AcDbEntity
  8
SIZE
  6
Continuous
 62
     0
370
    -2
100
AcDbLine
 10
-43593.00786530767
 20
5927.987522592179
 30
0.0
 11
-43593.00786530767
 21
5666.987522592179
 31
0.0
  0
INSERT
  5
16AA
330
16A5
100
AcDbEntity
  8
SIZE
  6
Continuous
 62
     0
370
    -2
100
AcDbBlockReference
  2
_DOTBLANK
 10
-43593.00786530767
 20
5939.987522592179
 30
0.0
 41
12.0
 42
12.0
 43
12.0
 50
90.0
  0
INSERT
  5
16AB
330
16A5
100
AcDbEntity
  8
SIZE
  6
Continuous
 62
     0
370
    -2
100
AcDbBlockReference
  2
_DOTBLANK
 10
-43593.00786530767
 20
5654.987522592179
 30
0.0
 41
12.0
 42
12.0
 43
12.0
 50
270.0
  0
MTEXT
  5
16AC
330
16A5
100
AcDbEntity
  8
SIZE
  6
Continuous
 62
     0
100
AcDbMText
 10
-43635.00786530767
 20
5797.48752259217
 30
0.0
 40
64.0
 41
0.0
 71
     5
 72
     1
  1
\A1;285
 11
0.0000000000000001
 21
1.0
 31
0.0
 73
     1
 44
1.0
1001
ACAD
1000
MTEXTBEGIN
1070
    73
1070
     1
1070
    44
1040
1.0
1070
    74
1070
     0
1000
MTEXTEND
  0
POINT
  5
16AD
330
16A5
100
AcDbEntity
  8
DEFPOINTS
  6
Continuous
 62
     0
100
AcDbPoint
 10
-43479.4202001316
 20
5939.987522592179
 30
0.0
  0
POINT
  5
16AE
330
16A5
100
AcDbEntity
  8
DEFPOINTS
  6
Continuous
 62
     0
100
AcDbPoint
 10
-43482.42020013159
 20
5654.987522592179
 30
0.0
  0
POINT
  5
16AF
330
16A5
100
AcDbEntity
  8
DEFPOINTS
  6
Continuous
 62
     0
100
AcDbPoint
 10
-43593.00786530767
 20
5654.987522592179
 30
0.0
  0
ENDBLK
  5
16B0
330
16A5
100
AcDbEntity
  8
0
100
AcDbBlockEnd
  0
BLOCK
  5
16B2
330
16B1
100
AcDbEntity
  8
0
100
AcDbBlockBegin
  2
*D21
 70
     1
 10
0.0
 20
0.0
 30
0.0
  3
*D21
  1

  0
LINE
  5
16B3
330
16B1
100
AcDbEntity
  8
SIZE
  6
Continuous
 62
     0
370
    -2
100
AcDbLine
 10
-43522.42020013161
 20
5654.987522592179
 30
0.0
 11
-43613.00786530767
 21
5654.987522592179
 31
0.0
  0
LINE
  5
16B4
330
16B1
100
AcDbEntity
  8
SIZE
  6
Continuous
 62
     0
370
    -2
100
AcDbLine
 10
-43502.4202001316
 20
5369.987522592179
 30
0.0
 11
-43613.00786530767
 21
5369.987522592179
 31
0.0
  0
LINE
  5
16B5
330
16B1
100
AcDbEntity
  8
SIZE
  6
Continuous
 62
     0
370
    -2
100
AcDbLine
 10
-43593.00786530767
 20
5642.987522592179
 30
0.0
 11
-43593.00786530767
 21
5381.987522592179
 31
0.0
  0
INSERT
  5
16B6
330
16B1
100
AcDbEntity
  8
SIZE
  6
Continuous
 62
     0
370
    -2
100
AcDbBlockReference
  2
_DOTBLANK
 10
-43593.00786530767
 20
5654.987522592179
 30
0.0
 41
12.0
 42
12.0
 43
12.0
 50
90.0
  0
INSERT
  5
16B7
330
16B1
100
AcDbEntity
  8
SIZE
  6
Continuous
 62
     0
370
    -2
100
AcDbBlockReference
  2
_DOTBLANK
 10
-43593.00786530767
 20
5369.987522592179
 30
0.0
 41
12.0
 42
12.0
 43
12.0
 50
270.0
  0
MTEXT
  5
16B8
330
16B1
100
AcDbEntity
  8
SIZE
  6
Continuous
 62
     0
100
AcDbMText
 10
-43635.00786530767
 20
5512.48752259217
 30
0.0
 40
64.0
 41
0.0
 71
     5
 72
     1
  1
\A1;285
 11
0.0000000000000001
 21
1.0
 31
0.0
 73
     1
 44
1.0
1001
ACAD
1000
MTEXTBEGIN
1070
    73
1070
     1
1070
    44
1040
1.0
1070
    74
1070
     0
1000
MTEXTEND
  0
POINT
  5
16B9
330
16B1
100
AcDbEntity
  8
DEFPOINTS
  6
Continuous
 62
     0
100
AcDbPoint
 10
-43502.4202001316
 20
5654.987522592179
 30
0.0
  0
POINT
  5
16BA
330
16B1
100
AcDbEntity
  8
DEFPOINTS
  6
Continuous
 62
     0
100
AcDbPoint
 10
-43482.42020013159
 20
5369.987522592179
 30
0.0
  0
POINT
  5
16BB
330
16B1
100
AcDbEntity
  8
DEFPOINTS
  6
Continuous
 62
     0
100
AcDbPoint
 10
-43593.00786530767
 20
5369.987522592179
 30
0.0
  0
ENDBLK
  5
16BC
330
16B1
100
AcDbEntity
  8
0
100
AcDbBlockEnd
  0
BLOCK
  5
183F
330
183E
100
AcDbEntity
  8
0
100
AcDbBlockBegin
  2
*D22
 70
     1
 10
0.0
 20
0.0
 30
0.0
  3
*D22
  1

  0
LINE
  5
187A
330
183E
100
AcDbEntity
  8
SIZE
 62
     0
370
    -2
100
AcDbLine
 10
-319.0
 20
-312.5000000000001
 30
0.0
 11
-319.0
 21
-466.4226162865078
 31
0.0
  0
LINE
  5
187B
330
183E
100
AcDbEntity
  8
SIZE
 62
     0
370
    -2
100
AcDbLine
 10
319.0
 20
-312.5000000000001
 30
0.0
 11
319.0
 21
-466.4226162865078
 31
0.0
  0
LINE
  5
187C
330
183E
100
AcDbEntity
  8
SIZE
 62
     0
370
    -2
100
AcDbLine
 10
-307.0
 20
-446.422616286508
 30
0.0
 11
307.0
 21
-446.422616286508
 31
0.0
  0
INSERT
  5
187D
330
183E
100
AcDbEntity
  8
SIZE
 62
     0
370
    -2
100
AcDbBlockReference
  2
_DOTBLANK
 10
-319.0
 20
-446.422616286508
 30
0.0
 41
12.0
 42
12.0
 43
12.0
 50
180.0
  0
INSERT
  5
187E
330
183E
100
AcDbEntity
  8
SIZE
 62
     0
370
    -2
100
AcDbBlockReference
  2
_DOTBLANK
 10
319.0
 20
-446.422616286508
 30
0.0
 41
12.0
 42
12.0
 43
12.0
  0
MTEXT
  5
187F
330
183E
100
AcDbEntity
  8
SIZE
 62
     0
100
AcDbMText
 10
0.0000000000000026
 20
-404.4226162865078
 30
0.0
 40
64.0
 41
0.0
 71
     5
 72
     1
  1
\A1;638
 73
     1
 44
1.0
1001
ACAD
1000
MTEXTBEGIN
1070
    73
1070
     1
1070
    44
1040
1.0
1070
    74
1070
     0
1000
MTEXTEND
  0
POINT
  5
1880
330
183E
100
AcDbEntity
  8
DEFPOINTS
 62
     0
100
AcDbPoint
 10
-319.0
 20
-292.5000000000001
 30
0.0
  0
POINT
  5
1881
330
183E
100
AcDbEntity
  8
DEFPOINTS
 62
     0
100
AcDbPoint
 10
319.0
 20
-292.5000000000001
 30
0.0
  0
POINT
  5
1882
330
183E
100
AcDbEntity
  8
DEFPOINTS
 62
     0
100
AcDbPoint
 10
319.0
 20
-446.422616286508
 30
0.0
  0
ENDBLK
  5
1840
330
183E
100
AcDbEntity
  8
0
100
AcDbBlockEnd
  0
BLOCK
  5
184B
330
184A
100
AcDbEntity
  8
0
100
AcDbBlockBegin
  2
*D23
 70
     1
 10
0.0
 20
0.0
 30
0.0
  3
*D23
  1

  0
LINE
  5
1883
330
184A
100
AcDbEntity
  8
SIZE
 62
     0
370
    -2
100
AcDbLine
 10
-325.0
 20
-330.0000000000001
 30
0.0
 11
-325.0
 21
-582.9085480900094
 31
0.0
  0
LINE
  5
1884
330
184A
100
AcDbEntity
  8
SIZE
 62
     0
370
    -2
100
AcDbLine
 10
325.0
 20
-330.0000000000001
 30
0.0
 11
325.0
 21
-582.9085480900094
 31
0.0
  0
LINE
  5
1885
330
184A
100
AcDbEntity
  8
SIZE
 62
     0
370
    -2
100
AcDbLine
 10
-313.0
 20
-562.9085480900092
 30
0.0
 11
313.0
 21
-562.9085480900092
 31
0.0
  0
INSERT
  5
1886
330
184A
100
AcDbEntity
  8
SIZE
 62
     0
370
    -2
100
AcDbBlockReference
  2
_DOTBLANK
 10
-325.0
 20
-562.9085480900092
 30
0.0
 41
12.0
 42
12.0
 43
12.0
 50
180.0
  0
INSERT
  5
1887
330
184A
100
AcDbEntity
  8
SIZE
 62
     0
370
    -2
100
AcDbBlockReference
  2
_DOTBLANK
 10
325.0
 20
-562.9085480900092
 30
0.0
 41
12.0
 42
12.0
 43
12.0
  0
MTEXT
  5
1888
330
184A
100
AcDbEntity
  8
SIZE
 62
     0
100
AcDbMText
 10
0.0000000000000026
 20
-520.9085480900093
 30
0.0
 40
64.0
 41
0.0
 71
     5
 72
     1
  1
\A1;650
 73
     1
 44
1.0
1001
ACAD
1000
MTEXTBEGIN
1070
    73
1070
     1
1070
    44
1040
1.0
1070
    74
1070
     0
1000
MTEXTEND
  0
POINT
  5
1889
330
184A
100
AcDbEntity
  8
DEFPOINTS
 62
     0
100
AcDbPoint
 10
-325.0
 20
-310.0000000000001
 30
0.0
  0
POINT
  5
188A
330
184A
100
AcDbEntity
  8
DEFPOINTS
 62
     0
100
AcDbPoint
 10
325.0
 20
-310.0000000000001
 30
0.0
  0
POINT
  5
188B
330
184A
100
AcDbEntity
  8
DEFPOINTS
 62
     0
100
AcDbPoint
 10
325.0
 20
-562.9085480900092
 30
0.0
  0
ENDBLK
  5
184C
330
184A
100
AcDbEntity
  8
0
100
AcDbBlockEnd
  0
BLOCK
  5
1857
330
1856
100
AcDbEntity
  8
0
100
AcDbBlockBegin
  2
*D24
 70
     1
 10
0.0
 20
0.0
 30
0.0
  3
*D24
  1

  0
LINE
  5
188C
330
1856
100
AcDbEntity
  8
SIZE
 62
     0
370
    -2
100
AcDbLine
 10
-345.0
 20
-310.0000000000001
 30
0.0
 11
-564.3303807896592
 21
-310.0
 31
0.0
  0
LINE
  5
188D
330
1856
100
AcDbEntity
  8
SIZE
 62
     0
370
    -2
100
AcDbLine
 10
-344.0
 20
310.7999999999993
 30
0.0
 11
-564.330380789659
 21
310.7999999999993
 31
0.0
  0
LINE
  5
188E
330
1856
100
AcDbEntity
  8
SIZE
 62
     0
370
    -2
100
AcDbLine
 10
-544.3303807896592
 20
-298.0
 30
0.0
 11
-544.3303807896588
 21
298.7999999999993
 31
0.0
  0
INSERT
  5
188F
330
1856
100
AcDbEntity
  8
SIZE
 62
     0
370
    -2
100
AcDbBlockReference
  2
_DOTBLANK
 10
-544.3303807896592
 20
-310.0
 30
0.0
 41
12.0
 42
12.0
 43
12.0
 50
270.0
  0
INSERT
  5
1890
330
1856
100
AcDbEntity
  8
SIZE
 62
     0
370
    -2
100
AcDbBlockReference
  2
_DOTBLANK
 10
-544.3303807896588
 20
310.7999999999993
 30
0.0
 41
12.0
 42
12.0
 43
12.0
 50
90.0
  0
MTEXT
  5
1891
330
1856
100
AcDbEntity
  8
SIZE
 62
     0
100
AcDbMText
 10
-586.3303807896591
 20
0.3999999999932749
 30
0.0
 40
64.0
 41
0.0
 71
     5
 72
     1
  1
\A1;621
 11
0.0000000000000001
 21
1.0
 31
0.0
 73
     1
 44
1.0
1001
ACAD
1000
MTEXTBEGIN
1070
    73
1070
     1
1070
    44
1040
1.0
1070
    74
1070
     0
1000
MTEXTEND
  0
POINT
  5
1892
330
1856
100
AcDbEntity
  8
DEFPOINTS
 62
     0
100
AcDbPoint
 10
-325.0
 20
-310.0000000000001
 30
0.0
  0
POINT
  5
1893
330
1856
100
AcDbEntity
  8
DEFPOINTS
 62
     0
100
AcDbPoint
 10
-324.0
 20
310.7999999999993
 30
0.0
  0
POINT
  5
1894
330
1856
100
AcDbEntity
  8
DEFPOINTS
 62
     0
100
AcDbPoint
 10
-544.3303807896588
 20
310.7999999999993
 30
0.0
  0
ENDBLK
  5
1858
330
1856
100
AcDbEntity
  8
0
100
AcDbBlockEnd
  0
BLOCK
  5
1863
330
1862
100
AcDbEntity
  8
0
100
AcDbBlockBegin
  2
*D25
 70
     1
 10
0.0
 20
0.0
 30
0.0
  3
*D25
  1

  0
LINE
  5
1895
330
1862
100
AcDbEntity
  8
SIZE
  6
Continuous
 62
     0
370
    -2
100
AcDbLine
 10
-343.5
 20
285.0
 30
0.0
 11
-457.087665176077
 21
285.0000000000001
 31
0.0
  0
LINE
  5
1896
330
1862
100
AcDbEntity
  8
SIZE
  6
Continuous
 62
     0
370
    -2
100
AcDbLine
 10
-346.5
 20
0.0000000000000057
 30
0.0
 11
-457.087665176077
 21
0.000000000000037
 31
0.0
  0
LINE
  5
1897
330
1862
100
AcDbEntity
  8
SIZE
  6
Continuous
 62
     0
370
    -2
100
AcDbLine
 10
-437.0876651760771
 20
273.0
 30
0.0
 11
-437.0876651760773
 21
12.00000000000003
 31
0.0
  0
INSERT
  5
1898
330
1862
100
AcDbEntity
  8
SIZE
  6
Continuous
 62
     0
370
    -2
100
AcDbBlockReference
  2
_DOTBLANK
 10
-437.0876651760771
 20
285.0000000000001
 30
0.0
 41
12.0
 42
12.0
 43
12.0
 50
90.0
  0
INSERT
  5
1899
330
1862
100
AcDbEntity
  8
SIZE
  6
Continuous
 62
     0
370
    -2
100
AcDbBlockReference
  2
_DOTBLANK
 10
-437.0876651760773
 20
0.0000000000000313
 30
0.0
 41
12.0
 42
12.0
 43
12.0
 50
270.0
  0
MTEXT
  5
189A
330
1862
100
AcDbEntity
  8
SIZE
  6
Continuous
 62
     0
100
AcDbMText
 10
-479.0876651760773
 20
142.5
 30
0.0
 40
64.0
 41
0.0
 71
     5
 72
     1
  1
\A1;285
 11
0.0000000000000001
 21
1.0
 31
0.0
 73
     1
 44
1.0
1001
ACAD
1000
MTEXTBEGIN
1070
    73
1070
     1
1070
    44
1040
1.0
1070
    74
1070
     0
1000
MTEXTEND
  0
POINT
  5
189B
330
1862
100
AcDbEntity
  8
DEFPOINTS
  6
Continuous
 62
     0
100
AcDbPoint
 10
-323.5
 20
285.0
 30
0.0
  0
POINT
  5
189C
330
1862
100
AcDbEntity
  8
DEFPOINTS
  6
Continuous
 62
     0
100
AcDbPoint
 10
-326.5
 20
0.0
 30
0.0
  0
POINT
  5
189D
330
1862
100
AcDbEntity
  8
DEFPOINTS
  6
Continuous
 62
     0
100
AcDbPoint
 10
-437.0876651760773
 20
0.0000000000000313
 30
0.0
  0
ENDBLK
  5
1864
330
1862
100
AcDbEntity
  8
0
100
AcDbBlockEnd
  0
BLOCK
  5
186F
330
186E
100
AcDbEntity
  8
0
100
AcDbBlockBegin
  2
*D26
 70
     1
 10
0.0
 20
0.0
 30
0.0
  3
*D26
  1

  0
LINE
  5
189E
330
186E
100
AcDbEntity
  8
SIZE
  6
Continuous
 62
     0
370
    -2
100
AcDbLine
 10
-366.5
 20
0.0000000000000057
 30
0.0
 11
-457.087665176077
 21
0.0000000000000313
 31
0.0
  0
LINE
  5
189F
330
186E
100
AcDbEntity
  8
SIZE
  6
Continuous
 62
     0
370
    -2
100
AcDbLine
 10
-346.5
 20
-285.0000000000001
 30
0.0
 11
-457.087665176077
 21
-285.0000000000001
 31
0.0
  0
LINE
  5
18A0
330
186E
100
AcDbEntity
  8
SIZE
  6
Continuous
 62
     0
370
    -2
100
AcDbLine
 10
-437.0876651760771
 20
-11.99999999999997
 30
0.0
 11
-437.0876651760773
 21
-273.0
 31
0.0
  0
INSERT
  5
18A1
330
186E
100
AcDbEntity
  8
SIZE
  6
Continuous
 62
     0
370
    -2
100
AcDbBlockReference
  2
_DOTBLANK
 10
-437.0876651760771
 20
0.0000000000000257
 30
0.0
 41
12.0
 42
12.0
 43
12.0
 50
90.0
  0
INSERT
  5
18A2
330
186E
100
AcDbEntity
  8
SIZE
  6
Continuous
 62
     0
370
    -2
100
AcDbBlockReference
  2
_DOTBLANK
 10
-437.0876651760773
 20
-285.0000000000001
 30
0.0
 41
12.0
 42
12.0
 43
12.0
 50
270.0
  0
MTEXT
  5
18A3
330
186E
100
AcDbEntity
  8
SIZE
  6
Continuous
 62
     0
100
AcDbMText
 10
-479.0876651760771
 20
-142.5000000000001
 30
0.0
 40
64.0
 41
0.0
 71
     5
 72
     1
  1
\A1;285
 11
0.0000000000000001
 21
1.0
 31
0.0
 73
     1
 44
1.0
1001
ACAD
1000
MTEXTBEGIN
1070
    73
1070
     1
1070
    44
1040
1.0
1070
    74
1070
     0
1000
MTEXTEND
  0
POINT
  5
18A4
330
186E
100
AcDbEntity
  8
DEFPOINTS
  6
Continuous
 62
     0
100
AcDbPoint
 10
-346.5
 20
0.0
 30
0.0
  0
POINT
  5
18A5
330
186E
100
AcDbEntity
  8
DEFPOINTS
  6
Continuous
 62
     0
100
AcDbPoint
 10
-326.5
 20
-285.0000000000001
 30
0.0
  0
POINT
  5
18A6
330
186E
100
AcDbEntity
  8
DEFPOINTS
  6
Continuous
 62
     0
100
AcDbPoint
 10
-437.0876651760773
 20
-285.0000000000001
 30
0.0
  0
ENDBLK
  5
1870
330
186E
100
AcDbEntity
  8
0
100
AcDbBlockEnd
  0
BLOCK
  5
199D
330
199C
100
AcDbEntity
  8
0
100
AcDbBlockBegin
  2
*D27
 70
     1
 10
0.0
 20
0.0
 30
0.0
  3
*D27
  1

  0
LINE
  5
199E
330
199C
100
AcDbEntity
  8
SIZE
  6
Continuous
 62
     0
370
    -2
100
AcDbLine
 10
-45371.77081767829
 20
6279.828977507801
 30
0.0
 11
-45371.77081767829
 21
6349.430225226287
 31
0.0
  0
LINE
  5
199F
330
199C
100
AcDbEntity
  8
SIZE
  6
Continuous
 62
     0
370
    -2
100
AcDbLine
 10
-45067.7708176783
 20
6279.828977507792
 30
0.0
 11
-45067.7708176783
 21
6349.430225226287
 31
0.0
  0
LINE
  5
19A0
330
199C
100
AcDbEntity
  8
SIZE
  6
Continuous
 62
     0
370
    -2
100
AcDbLine
 10
-45359.77081767828
 20
6329.430225226287
 30
0.0
 11
-45079.77081767831
 21
6329.430225226287
 31
0.0
  0
INSERT
  5
19A1
330
199C
100
AcDbEntity
  8
SIZE
  6
Continuous
 62
     0
370
    -2
100
AcDbBlockReference
  2
_DOTBLANK
 10
-45371.77081767829
 20
6329.430225226287
 30
0.0
 41
12.0
 42
12.0
 43
12.0
 50
180.0
  0
INSERT
  5
19A2
330
199C
100
AcDbEntity
  8
SIZE
  6
Continuous
 62
     0
370
    -2
100
AcDbBlockReference
  2
_DOTBLANK
 10
-45067.7708176783
 20
6329.430225226287
 30
0.0
 41
12.0
 42
12.0
 43
12.0
  0
MTEXT
  5
19A3
330
199C
100
AcDbEntity
  8
SIZE
  6
Continuous
 62
     0
100
AcDbMText
 10
-45219.7708176783
 20
6371.430225226287
 30
0.0
 40
64.0
 41
0.0
 71
     5
 72
     1
  1
\A1;304
 73
     1
 44
1.0
1001
ACAD
1000
MTEXTBEGIN
1070
    73
1070
     1
1070
    44
1040
1.0
1070
    74
1070
     0
1000
MTEXTEND
  0
POINT
  5
19A4
330
199C
100
AcDbEntity
  8
DEFPOINTS
  6
Continuous
 62
     0
100
AcDbPoint
 10
-45371.77081767829
 20
6259.828977507799
 30
0.0
  0
POINT
  5
19A5
330
199C
100
AcDbEntity
  8
DEFPOINTS
  6
Continuous
 62
     0
100
AcDbPoint
 10
-45067.7708176783
 20
6259.828977507792
 30
0.0
  0
POINT
  5
19A6
330
199C
100
AcDbEntity
  8
DEFPOINTS
  6
Continuous
 62
     0
100
AcDbPoint
 10
-45067.7708176783
 20
6329.430225226287
 30
0.0
  0
ENDBLK
  5
19A7
330
199C
100
AcDbEntity
  8
0
100
AcDbBlockEnd
  0
BLOCK
  5
19A9
330
19A8
100
AcDbEntity
  8
0
100
AcDbBlockBegin
  2
*D28
 70
     1
 10
0.0
 20
0.0
 30
0.0
  3
*D28
  1

  0
LINE
  5
19AA
330
19A8
100
AcDbEntity
  8
SIZE
  6
Continuous
 62
     0
370
    -2
100
AcDbLine
 10
-45067.7708176783
 20
6279.828977507792
 30
0.0
 11
-45067.7708176783
 21
6349.430225226287
 31
0.0
  0
LINE
  5
19AB
330
19A8
100
AcDbEntity
  8
SIZE
  6
Continuous
 62
     0
370
    -2
100
AcDbLine
 10
-44738.9708176783
 20
6279.828977507783
 30
0.0
 11
-44738.9708176783
 21
6349.430225226287
 31
0.0
  0
LINE
  5
19AC
330
19A8
100
AcDbEntity
  8
SIZE
  6
Continuous
 62
     0
370
    -2
100
AcDbLine
 10
-45055.7708176783
 20
6329.430225226287
 30
0.0
 11
-44750.9708176783
 21
6329.430225226287
 31
0.0
  0
INSERT
  5
19AD
330
19A8
100
AcDbEntity
  8
SIZE
  6
Continuous
 62
     0
370
    -2
100
AcDbBlockReference
  2
_DOTBLANK
 10
-45067.7708176783
 20
6329.430225226287
 30
0.0
 41
12.0
 42
12.0
 43
12.0
 50
180.0
  0
INSERT
  5
19AE
330
19A8
100
AcDbEntity
  8
SIZE
  6
Continuous
 62
     0
370
    -2
100
AcDbBlockReference
  2
_DOTBLANK
 10
-44738.9708176783
 20
6329.430225226287
 30
0.0
 41
12.0
 42
12.0
 43
12.0
  0
MTEXT
  5
19AF
330
19A8
100
AcDbEntity
  8
SIZE
  6
Continuous
 62
     0
100
AcDbMText
 10
-44903.3708176783
 20
6371.430225226287
 30
0.0
 40
64.0
 41
0.0
 71
     5
 72
     1
  1
\A1;329
 73
     1
 44
1.0
1001
ACAD
1000
MTEXTBEGIN
1070
    73
1070
     1
1070
    44
1040
1.0
1070
    74
1070
     0
1000
MTEXTEND
  0
POINT
  5
19B0
330
19A8
100
AcDbEntity
  8
DEFPOINTS
  6
Continuous
 62
     0
100
AcDbPoint
 10
-45067.7708176783
 20
6259.828977507792
 30
0.0
  0
POINT
  5
19B1
330
19A8
100
AcDbEntity
  8
DEFPOINTS
  6
Continuous
 62
     0
100
AcDbPoint
 10
-44738.9708176783
 20
6259.828977507783
 30
0.0
  0
POINT
  5
19B2
330
19A8
100
AcDbEntity
  8
DEFPOINTS
  6
Continuous
 62
     0
100
AcDbPoint
 10
-44738.9708176783
 20
6329.430225226287
 30
0.0
  0
ENDBLK
  5
19B3
330
19A8
100
AcDbEntity
  8
0
100
AcDbBlockEnd
  0
BLOCK
  5
19B5
330
19B4
100
AcDbEntity
  8
0
100
AcDbBlockBegin
  2
*D29
 70
     1
 10
0.0
 20
0.0
 30
0.0
  3
*D29
  1

  0
LINE
  5
19B6
330
19B4
100
AcDbEntity
  8
SIZE
  6
Continuous
 62
     0
370
    -2
100
AcDbLine
 10
-44730.77081767832
 20
5114.408131312155
 30
0.0
 11
-44730.77081767832
 21
4825.048584217425
 31
0.0
  0
LINE
  5
19B7
330
19B4
100
AcDbEntity
  8
SIZE
  6
Continuous
 62
     0
370
    -2
100
AcDbLine
 10
-45452.77081767832
 20
5114.408131312156
 30
0.0
 11
-45452.77081767832
 21
4825.048584217425
 31
0.0
  0
LINE
  5
19B8
330
19B4
100
AcDbEntity
  8
SIZE
  6
Continuous
 62
     0
370
    -2
100
AcDbLine
 10
-44742.77081767832
 20
4845.048584217425
 30
0.0
 11
-45440.77081767832
 21
4845.048584217425
 31
0.0
  0
INSERT
  5
19B9
330
19B4
100
AcDbEntity
  8
SIZE
  6
Continuous
 62
     0
370
    -2
100
AcDbBlockReference
  2
_DOTBLANK
 10
-44730.77081767832
 20
4845.048584217425
 30
0.0
 41
12.0
 42
12.0
 43
12.0
  0
INSERT
  5
19BA
330
19B4
100
AcDbEntity
  8
SIZE
  6
Continuous
 62
     0
370
    -2
100
AcDbBlockReference
  2
_DOTBLANK
 10
-45452.77081767832
 20
4845.048584217425
 30
0.0
 41
12.0
 42
12.0
 43
12.0
 50
180.0
  0
MTEXT
  5
19BB
330
19B4
100
AcDbEntity
  8
SIZE
  6
Continuous
 62
     0
100
AcDbMText
 10
-45091.77081767831
 20
4887.048584217424
 30
0.0
 40
64.0
 41
0.0
 71
     5
 72
     1
  1
\A1;722
 73
     1
 44
1.0
1001
ACAD
1000
MTEXTBEGIN
1070
    73
1070
     1
1070
    44
1040
1.0
1070
    74
1070
     0
1000
MTEXTEND
  0
POINT
  5
19BC
330
19B4
100
AcDbEntity
  8
DEFPOINTS
  6
Continuous
 62
     0
100
AcDbPoint
 10
-44730.77081767832
 20
5134.408131312155
 30
0.0
  0
POINT
  5
19BD
330
19B4
100
AcDbEntity
  8
DEFPOINTS
  6
Continuous
 62
     0
100
AcDbPoint
 10
-45452.77081767832
 20
5134.408131312156
 30
0.0
  0
POINT
  5
19BE
330
19B4
100
AcDbEntity
  8
DEFPOINTS
  6
Continuous
 62
     0
100
AcDbPoint
 10
-45452.77081767832
 20
4845.048584217425
 30
0.0
  0
ENDBLK
  5
19BF
330
19B4
100
AcDbEntity
  8
0
100
AcDbBlockEnd
  0
BLOCK
  5
19C1
330
19C0
100
AcDbEntity
  8
0
100
AcDbBlockBegin
  2
*D30
 70
     1
 10
0.0
 20
0.0
 30
0.0
  3
*D30
  1

  0
LINE
  5
19C2
330
19C0
100
AcDbEntity
  8
SIZE
  6
Continuous
 62
     0
370
    -2
100
AcDbLine
 10
-45461.27081767831
 20
4982.108131312156
 30
0.0
 11
-45461.27081767831
 21
4722.773341845527
 31
0.0
  0
LINE
  5
19C3
330
19C0
100
AcDbEntity
  8
SIZE
  6
Continuous
 62
     0
370
    -2
100
AcDbLine
 10
-44721.27081767832
 20
4983.317892327431
 30
0.0
 11
-44721.27081767832
 21
4722.773341845527
 31
0.0
  0
LINE
  5
19C4
330
19C0
100
AcDbEntity
  8
SIZE
  6
Continuous
 62
     0
370
    -2
100
AcDbLine
 10
-45449.27081767832
 20
4742.773341845524
 30
0.0
 11
-44733.27081767831
 21
4742.773341845524
 31
0.0
  0
INSERT
  5
19C5
330
19C0
100
AcDbEntity
  8
SIZE
  6
Continuous
 62
     0
370
    -2
100
AcDbBlockReference
  2
_DOTBLANK
 10
-45461.27081767831
 20
4742.773341845524
 30
0.0
 41
12.0
 42
12.0
 43
12.0
 50
180.0
  0
INSERT
  5
19C6
330
19C0
100
AcDbEntity
  8
SIZE
  6
Continuous
 62
     0
370
    -2
100
AcDbBlockReference
  2
_DOTBLANK
 10
-44721.27081767832
 20
4742.773341845524
 30
0.0
 41
12.0
 42
12.0
 43
12.0
  0
MTEXT
  5
19C7
330
19C0
100
AcDbEntity
  8
SIZE
  6
Continuous
 62
     0
100
AcDbMText
 10
-45091.27081767831
 20
4784.773341845524
 30
0.0
 40
64.0
 41
0.0
 71
     5
 72
     1
  1
\A1;740
 73
     1
 44
1.0
1001
ACAD
1000
MTEXTBEGIN
1070
    73
1070
     1
1070
    44
1040
1.0
1070
    74
1070
     0
1000
MTEXTEND
  0
POINT
  5
19C8
330
19C0
100
AcDbEntity
  8
DEFPOINTS
  6
Continuous
 62
     0
100
AcDbPoint
 10
-45461.27081767831
 20
5002.108131312155
 30
0.0
  0
POINT
  5
19C9
330
19C0
100
AcDbEntity
  8
DEFPOINTS
  6
Continuous
 62
     0
100
AcDbPoint
 10
-44721.27081767832
 20
5003.31789232743
 30
0.0
  0
POINT
  5
19CA
330
19C0
100
AcDbEntity
  8
DEFPOINTS
  6
Continuous
 62
     0
100
AcDbPoint
 10
-44721.27081767832
 20
4742.773341845524
 30
0.0
  0
ENDBLK
  5
19CB
330
19C0
100
AcDbEntity
  8
0
100
AcDbBlockEnd
  0
BLOCK
  5
19CD
330
19CC
100
AcDbEntity
  8
0
100
AcDbBlockBegin
  2
*D31
 70
     1
 10
0.0
 20
0.0
 30
0.0
  3
*D31
  1

  0
LINE
  5
19CE
330
19CC
100
AcDbEntity
  8
SIZE
  6
Continuous
 62
     0
370
    -2
100
AcDbLine
 10
-45480.27081767831
 20
6080.308131312157
 30
0.0
 11
-45612.75328800611
 21
6080.308131312157
 31
0.0
  0
LINE
  5
19CF
330
19CC
100
AcDbEntity
  8
SIZE
  6
Continuous
 62
     0
370
    -2
100
AcDbLine
 10
-45480.27081767831
 20
5672.308131312155
 30
0.0
 11
-45612.75328800611
 21
5672.308131312155
 31
0.0
  0
LINE
  5
19D0
330
19CC
100
AcDbEntity
  8
SIZE
  6
Continuous
 62
     0
370
    -2
100
AcDbLine
 10
-45592.75328800612
 20
6068.308131312157
 30
0.0
 11
-45592.75328800612
 21
5684.308131312157
 31
0.0
  0
INSERT
  5
19D1
330
19CC
100
AcDbEntity
  8
SIZE
  6
Continuous
 62
     0
370
    -2
100
AcDbBlockReference
  2
_DOTBLANK
 10
-45592.75328800612
 20
6080.308131312157
 30
0.0
 41
12.0
 42
12.0
 43
12.0
 50
90.0
  0
INSERT
  5
19D2
330
19CC
100
AcDbEntity
  8
SIZE
  6
Continuous
 62
     0
370
    -2
100
AcDbBlockReference
  2
_DOTBLANK
 10
-45592.75328800612
 20
5672.308131312155
 30
0.0
 41
12.0
 42
12.0
 43
12.0
 50
270.0
  0
MTEXT
  5
19D3
330
19CC
100
AcDbEntity
  8
SIZE
  6
Continuous
 62
     0
100
AcDbMText
 10
-45634.75328800612
 20
5876.30813131215
 30
0.0
 40
64.0
 41
0.0
 71
     5
 72
     1
  1
\A1;408
 11
0.0000000000000001
 21
1.0
 31
0.0
 73
     1
 44
1.0
1001
ACAD
1000
MTEXTBEGIN
1070
    73
1070
     1
1070
    44
1040
1.0
1070
    74
1070
     0
1000
MTEXTEND
  0
POINT
  5
19D4
330
19CC
100
AcDbEntity
  8
DEFPOINTS
  6
Continuous
 62
     0
100
AcDbPoint
 10
-45460.27081767832
 20
6080.308131312157
 30
0.0
  0
POINT
  5
19D5
330
19CC
100
AcDbEntity
  8
DEFPOINTS
  6
Continuous
 62
     0
100
AcDbPoint
 10
-45460.27081767832
 20
5672.308131312155
 30
0.0
  0
POINT
  5
19D6
330
19CC
100
AcDbEntity
  8
DEFPOINTS
  6
Continuous
 62
     0
100
AcDbPoint
 10
-45592.75328800612
 20
5672.308131312155
 30
0.0
  0
ENDBLK
  5
19D7
330
19CC
100
AcDbEntity
  8
0
100
AcDbBlockEnd
  0
BLOCK
  5
19D9
330
19D8
100
AcDbEntity
  8
0
100
AcDbBlockBegin
  2
*D32
 70
     1
 10
0.0
 20
0.0
 30
0.0
  3
*D32
  1

  0
LINE
  5
19DA
330
19D8
100
AcDbEntity
  8
SIZE
  6
Continuous
 62
     0
370
    -2
100
AcDbLine
 10
-45480.27081767831
 20
5672.308131312155
 30
0.0
 11
-45612.75328800611
 21
5672.308131312155
 31
0.0
  0
LINE
  5
19DB
330
19D8
100
AcDbEntity
  8
SIZE
  6
Continuous
 62
     0
370
    -2
100
AcDbLine
 10
-45479.67081767833
 20
5141.908131312156
 30
0.0
 11
-45612.75328800611
 21
5141.908131312156
 31
0.0
  0
LINE
  5
19DC
330
19D8
100
AcDbEntity
  8
SIZE
  6
Continuous
 62
     0
370
    -2
100
AcDbLine
 10
-45592.75328800612
 20
5660.308131312156
 30
0.0
 11
-45592.75328800612
 21
5153.908131312157
 31
0.0
  0
INSERT
  5
19DD
330
19D8
100
AcDbEntity
  8
SIZE
  6
Continuous
 62
     0
370
    -2
100
AcDbBlockReference
  2
_DOTBLANK
 10
-45592.75328800612
 20
5672.308131312155
 30
0.0
 41
12.0
 42
12.0
 43
12.0
 50
90.0
  0
INSERT
  5
19DE
330
19D8
100
AcDbEntity
  8
SIZE
  6
Continuous
 62
     0
370
    -2
100
AcDbBlockReference
  2
_DOTBLANK
 10
-45592.75328800612
 20
5141.908131312156
 30
0.0
 41
12.0
 42
12.0
 43
12.0
 50
270.0
  0
MTEXT
  5
19DF
330
19D8
100
AcDbEntity
  8
SIZE
  6
Continuous
 62
     0
100
AcDbMText
 10
-45634.75328800612
 20
5407.108131312149
 30
0.0
 40
64.0
 41
0.0
 71
     5
 72
     1
  1
\A1;530
 11
0.0000000000000001
 21
1.0
 31
0.0
 73
     1
 44
1.0
1001
ACAD
1000
MTEXTBEGIN
1070
    73
1070
     1
1070
    44
1040
1.0
1070
    74
1070
     0
1000
MTEXTEND
  0
POINT
  5
19E0
330
19D8
100
AcDbEntity
  8
DEFPOINTS
  6
Continuous
 62
     0
100
AcDbPoint
 10
-45460.27081767832
 20
5672.308131312155
 30
0.0
  0
POINT
  5
19E1
330
19D8
100
AcDbEntity
  8
DEFPOINTS
  6
Continuous
 62
     0
100
AcDbPoint
 10
-45459.67081767833
 20
5141.908131312156
 30
0.0
  0
POINT
  5
19E2
330
19D8
100
AcDbEntity
  8
DEFPOINTS
  6
Continuous
 62
     0
100
AcDbPoint
 10
-45592.75328800612
 20
5141.908131312156
 30
0.0
  0
ENDBLK
  5
19E3
330
19D8
100
AcDbEntity
  8
0
100
AcDbBlockEnd
  0
BLOCK
  5
19E5
330
19E4
100
AcDbEntity
  8
0
100
AcDbBlockBegin
  2
*D33
 70
     1
 10
0.0
 20
0.0
 30
0.0
  3
*D33
  1

  0
LINE
  5
19E6
330
19E4
100
AcDbEntity
  8
SIZE
  6
Continuous
 62
     0
370
    -2
100
AcDbLine
 10
-45477.27081767829
 20
6257.328977507802
 30
0.0
 11
-45747.11316520834
 21
6257.328977507802
 31
0.0
  0
LINE
  5
19E7
330
19E4
100
AcDbEntity
  8
SIZE
  6
Continuous
 62
     0
370
    -2
100
AcDbLine
 10
-45481.27081767832
 20
5002.108131312155
 30
0.0
 11
-45747.11316520834
 21
5002.108131312155
 31
0.0
  0
LINE
  5
19E8
330
19E4
100
AcDbEntity
  8
SIZE
  6
Continuous
 62
     0
370
    -2
100
AcDbLine
 10
-45727.11316520834
 20
6245.328977507802
 30
0.0
 11
-45727.11316520834
 21
5014.108131312156
 31
0.0
  0
INSERT
  5
19E9
330
19E4
100
AcDbEntity
  8
SIZE
  6
Continuous
 62
     0
370
    -2
100
AcDbBlockReference
  2
_DOTBLANK
 10
-45727.11316520834
 20
6257.328977507802
 30
0.0
 41
12.0
 42
12.0
 43
12.0
 50
90.0
  0
INSERT
  5
19EA
330
19E4
100
AcDbEntity
  8
SIZE
  6
Continuous
 62
     0
370
    -2
100
AcDbBlockReference
  2
_DOTBLANK
 10
-45727.11316520834
 20
5002.108131312155
 30
0.0
 41
12.0
 42
12.0
 43
12.0
 50
270.0
  0
MTEXT
  5
19EB
330
19E4
100
AcDbEntity
  8
SIZE
  6
Continuous
 62
     0
100
AcDbMText
 10
-45769.11316520834
 20
5629.718554409971
 30
0.0
 40
64.0
 41
0.0
 71
     5
 72
     1
  1
\A1;1255
 11
0.0000000000000001
 21
1.0
 31
0.0
 73
     1
 44
1.0
1001
ACAD
1000
MTEXTBEGIN
1070
    73
1070
     1
1070
    44
1040
1.0
1070
    74
1070
     0
1000
MTEXTEND
  0
POINT
  5
19EC
330
19E4
100
AcDbEntity
  8
DEFPOINTS
  6
Continuous
 62
     0
100
AcDbPoint
 10
-45457.2708176783
 20
6257.328977507802
 30
0.0
  0
POINT
  5
19ED
330
19E4
100
AcDbEntity
  8
DEFPOINTS
  6
Continuous
 62
     0
100
AcDbPoint
 10
-45461.27081767831
 20
5002.108131312155
 30
0.0
  0
POINT
  5
19EE
330
19E4
100
AcDbEntity
  8
DEFPOINTS
  6
Continuous
 62
     0
100
AcDbPoint
 10
-45727.11316520834
 20
5002.108131312155
 30
0.0
  0
ENDBLK
  5
19EF
330
19E4
100
AcDbEntity
  8
0
100
AcDbBlockEnd
  0
BLOCK
  5
1C6C
330
1C6B
100
AcDbEntity
  8
0
100
AcDbBlockBegin
  2
*D34
 70
     1
 10
0.0
 20
0.0
 30
0.0
  3
*D34
  1

  0
LINE
  5
1CFE
330
1C6B
100
AcDbEntity
  8
SIZE
  6
Continuous
 62
     0
370
    -2
100
AcDbLine
 10
-279.9999999999782
 20
650.1104230978252
 30
0.0
 11
-279.9999999999782
 21
719.711670816313
 31
0.0
  0
LINE
  5
1CFF
330
1C6B
100
AcDbEntity
  8
SIZE
  6
Continuous
 62
     0
370
    -2
100
AcDbLine
 10
24.00000000001455
 20
650.1104230978179
 30
0.0
 11
24.00000000001456
 21
719.711670816313
 31
0.0
  0
LINE
  5
1D00
330
1C6B
100
AcDbEntity
  8
SIZE
  6
Continuous
 62
     0
370
    -2
100
AcDbLine
 10
-267.9999999999782
 20
699.711670816313
 30
0.0
 11
12.00000000001455
 21
699.711670816313
 31
0.0
  0
INSERT
  5
1D01
330
1C6B
100
AcDbEntity
  8
SIZE
  6
Continuous
 62
     0
370
    -2
100
AcDbBlockReference
  2
_DOTBLANK
 10
-279.9999999999782
 20
699.711670816313
 30
0.0
 41
12.0
 42
12.0
 43
12.0
 50
180.0
  0
INSERT
  5
1D02
330
1C6B
100
AcDbEntity
  8
SIZE
  6
Continuous
 62
     0
370
    -2
100
AcDbBlockReference
  2
_DOTBLANK
 10
24.00000000001456
 20
699.711670816313
 30
0.0
 41
12.0
 42
12.0
 43
12.0
  0
MTEXT
  5
1D03
330
1C6B
100
AcDbEntity
  8
SIZE
  6
Continuous
 62
     0
100
AcDbMText
 10
-127.9999999999818
 20
741.7116708163129
 30
0.0
 40
64.0
 41
0.0
 71
     5
 72
     1
  1
\A1;304
 73
     1
 44
1.0
1001
ACAD
1000
MTEXTBEGIN
1070
    73
1070
     1
1070
    44
1040
1.0
1070
    74
1070
     0
1000
MTEXTEND
  0
POINT
  5
1D04
330
1C6B
100
AcDbEntity
  8
DEFPOINTS
  6
Continuous
 62
     0
100
AcDbPoint
 10
-279.9999999999782
 20
630.1104230978252
 30
0.0
  0
POINT
  5
1D05
330
1C6B
100
AcDbEntity
  8
DEFPOINTS
  6
Continuous
 62
     0
100
AcDbPoint
 10
24.00000000001455
 20
630.1104230978181
 30
0.0
  0
POINT
  5
1D06
330
1C6B
100
AcDbEntity
  8
DEFPOINTS
  6
Continuous
 62
     0
100
AcDbPoint
 10
24.00000000001456
 20
699.711670816313
 30
0.0
  0
ENDBLK
  5
1C6D
330
1C6B
100
AcDbEntity
  8
0
100
AcDbBlockEnd
  0
BLOCK
  5
1C78
330
1C77
100
AcDbEntity
  8
0
100
AcDbBlockBegin
  2
*D35
 70
     1
 10
0.0
 20
0.0
 30
0.0
  3
*D35
  1

  0
LINE
  5
1D07
330
1C77
100
AcDbEntity
  8
SIZE
  6
Continuous
 62
     0
370
    -2
100
AcDbLine
 10
24.00000000001455
 20
650.1104230978179
 30
0.0
 11
24.00000000001456
 21
719.711670816313
 31
0.0
  0
LINE
  5
1D08
330
1C77
100
AcDbEntity
  8
SIZE
  6
Continuous
 62
     0
370
    -2
100
AcDbLine
 10
352.8000000000174
 20
650.1104230978088
 30
0.0
 11
352.8000000000174
 21
719.711670816313
 31
0.0
  0
LINE
  5
1D09
330
1C77
100
AcDbEntity
  8
SIZE
  6
Continuous
 62
     0
370
    -2
100
AcDbLine
 10
36.00000000001454
 20
699.711670816313
 30
0.0
 11
340.8000000000175
 21
699.711670816313
 31
0.0
  0
INSERT
  5
1D0A
330
1C77
100
AcDbEntity
  8
SIZE
  6
Continuous
 62
     0
370
    -2
100
AcDbBlockReference
  2
_DOTBLANK
 10
24.00000000001456
 20
699.711670816313
 30
0.0
 41
12.0
 42
12.0
 43
12.0
 50
180.0
  0
INSERT
  5
1D0B
330
1C77
100
AcDbEntity
  8
SIZE
  6
Continuous
 62
     0
370
    -2
100
AcDbBlockReference
  2
_DOTBLANK
 10
352.8000000000174
 20
699.711670816313
 30
0.0
 41
12.0
 42
12.0
 43
12.0
  0
MTEXT
  5
1D0C
330
1C77
100
AcDbEntity
  8
SIZE
  6
Continuous
 62
     0
100
AcDbMText
 10
188.400000000016
 20
741.7116708163129
 30
0.0
 40
64.0
 41
0.0
 71
     5
 72
     1
  1
\A1;329
 73
     1
 44
1.0
1001
ACAD
1000
MTEXTBEGIN
1070
    73
1070
     1
1070
    44
1040
1.0
1070
    74
1070
     0
1000
MTEXTEND
  0
POINT
  5
1D0D
330
1C77
100
AcDbEntity
  8
DEFPOINTS
  6
Continuous
 62
     0
100
AcDbPoint
 10
24.00000000001455
 20
630.1104230978181
 30
0.0
  0
POINT
  5
1D0E
330
1C77
100
AcDbEntity
  8
DEFPOINTS
  6
Continuous
 62
     0
100
AcDbPoint
 10
352.8000000000174
 20
630.1104230978088
 30
0.0
  0
POINT
  5
1D0F
330
1C77
100
AcDbEntity
  8
DEFPOINTS
  6
Continuous
 62
     0
100
AcDbPoint
 10
352.8000000000174
 20
699.711670816313
 30
0.0
  0
ENDBLK
  5
1C79
330
1C77
100
AcDbEntity
  8
0
100
AcDbBlockEnd
  0
BLOCK
  5
1C84
330
1C83
100
AcDbEntity
  8
0
100
AcDbBlockBegin
  2
*D36
 70
     1
 10
0.0
 20
0.0
 30
0.0
  3
*D36
  1

  0
LINE
  5
1D10
330
1C83
100
AcDbEntity
  8
SIZE
  6
Continuous
 62
     0
370
    -2
100
AcDbLine
 10
361.0
 20
-515.3104230978186
 30
0.0
 11
361.0
 21
-804.6699701925488
 31
0.0
  0
LINE
  5
1D11
330
1C83
100
AcDbEntity
  8
SIZE
  6
Continuous
 62
     0
370
    -2
100
AcDbLine
 10
-361.0
 20
-515.3104230978178
 30
0.0
 11
-361.0
 21
-804.6699701925488
 31
0.0
  0
LINE
  5
1D12
330
1C83
100
AcDbEntity
  8
SIZE
  6
Continuous
 62
     0
370
    -2
100
AcDbLine
 10
349.0
 20
-784.6699701925489
 30
0.0
 11
-349.0
 21
-784.6699701925489
 31
0.0
  0
INSERT
  5
1D13
330
1C83
100
AcDbEntity
  8
SIZE
  6
Continuous
 62
     0
370
    -2
100
AcDbBlockReference
  2
_DOTBLANK
 10
361.0
 20
-784.6699701925489
 30
0.0
 41
12.0
 42
12.0
 43
12.0
  0
INSERT
  5
1D14
330
1C83
100
AcDbEntity
  8
SIZE
  6
Continuous
 62
     0
370
    -2
100
AcDbBlockReference
  2
_DOTBLANK
 10
-361.0
 20
-784.6699701925489
 30
0.0
 41
12.0
 42
12.0
 43
12.0
 50
180.0
  0
MTEXT
  5
1D15
330
1C83
100
AcDbEntity
  8
SIZE
  6
Continuous
 62
     0
100
AcDbMText
 10
0.0000000000000026
 20
-742.6699701925489
 30
0.0
 40
64.0
 41
0.0
 71
     5
 72
     1
  1
\A1;722
 73
     1
 44
1.0
1001
ACAD
1000
MTEXTBEGIN
1070
    73
1070
     1
1070
    44
1040
1.0
1070
    74
1070
     0
1000
MTEXTEND
  0
POINT
  5
1D16
330
1C83
100
AcDbEntity
  8
DEFPOINTS
  6
Continuous
 62
     0
100
AcDbPoint
 10
361.0
 20
-495.3104230978188
 30
0.0
  0
POINT
  5
1D17
330
1C83
100
AcDbEntity
  8
DEFPOINTS
  6
Continuous
 62
     0
100
AcDbPoint
 10
-361.0
 20
-495.3104230978178
 30
0.0
  0
POINT
  5
1D18
330
1C83
100
AcDbEntity
  8
DEFPOINTS
  6
Continuous
 62
     0
100
AcDbPoint
 10
-361.0
 20
-784.6699701925489
 30
0.0
  0
ENDBLK
  5
1C85
330
1C83
100
AcDbEntity
  8
0
100
AcDbBlockEnd
  0
BLOCK
  5
1C90
330
1C8F
100
AcDbEntity
  8
0
100
AcDbBlockBegin
  2
*D37
 70
     1
 10
0.0
 20
0.0
 30
0.0
  3
*D37
  1

  0
LINE
  5
1D19
330
1C8F
100
AcDbEntity
  8
SIZE
  6
Continuous
 62
     0
370
    -2
100
AcDbLine
 10
-369.5
 20
-647.6104230978179
 30
0.0
 11
-369.5
 21
-906.9452125644485
 31
0.0
  0
LINE
  5
1D1A
330
1C8F
100
AcDbEntity
  8
SIZE
  6
Continuous
 62
     0
370
    -2
100
AcDbLine
 10
370.5
 20
-646.4006620825438
 30
0.0
 11
370.5
 21
-906.9452125644485
 31
0.0
  0
LINE
  5
1D1B
330
1C8F
100
AcDbEntity
  8
SIZE
  6
Continuous
 62
     0
370
    -2
100
AcDbLine
 10
-357.5
 20
-886.9452125644484
 30
0.0
 11
358.5
 21
-886.9452125644484
 31
0.0
  0
INSERT
  5
1D1C
330
1C8F
100
AcDbEntity
  8
SIZE
  6
Continuous
 62
     0
370
    -2
100
AcDbBlockReference
  2
_DOTBLANK
 10
-369.5
 20
-886.9452125644484
 30
0.0
 41
12.0
 42
12.0
 43
12.0
 50
180.0
  0
INSERT
  5
1D1D
330
1C8F
100
AcDbEntity
  8
SIZE
  6
Continuous
 62
     0
370
    -2
100
AcDbBlockReference
  2
_DOTBLANK
 10
370.5
 20
-886.9452125644484
 30
0.0
 41
12.0
 42
12.0
 43
12.0
  0
MTEXT
  5
1D1E
330
1C8F
100
AcDbEntity
  8
SIZE
  6
Continuous
 62
     0
100
AcDbMText
 10
0.5000000000000026
 20
-844.9452125644484
 30
0.0
 40
64.0
 41
0.0
 71
     5
 72
     1
  1
\A1;740
 73
     1
 44
1.0
1001
ACAD
1000
MTEXTBEGIN
1070
    73
1070
     1
1070
    44
1040
1.0
1070
    74
1070
     0
1000
MTEXTEND
  0
POINT
  5
1D1F
330
1C8F
100
AcDbEntity
  8
DEFPOINTS
  6
Continuous
 62
     0
100
AcDbPoint
 10
-369.5
 20
-627.6104230978179
 30
0.0
  0
POINT
  5
1D20
330
1C8F
100
AcDbEntity
  8
DEFPOINTS
  6
Continuous
 62
     0
100
AcDbPoint
 10
370.5
 20
-626.4006620825438
 30
0.0
  0
POINT
  5
1D21
330
1C8F
100
AcDbEntity
  8
DEFPOINTS
  6
Continuous
 62
     0
100
AcDbPoint
 10
370.5
 20
-886.9452125644484
 30
0.0
  0
ENDBLK
  5
1C91
330
1C8F
100
AcDbEntity
  8
0
100
AcDbBlockEnd
  0
BLOCK
  5
1C9C
330
1C9B
100
AcDbEntity
  8
0
100
AcDbBlockBegin
  2
*D38
 70
     1
 10
0.0
 20
0.0
 30
0.0
  3
*D38
  1

  0
LINE
  5
1D22
330
1C9B
100
AcDbEntity
  8
SIZE
  6
Continuous
 62
     0
370
    -2
100
AcDbLine
 10
-388.5
 20
450.5895769021826
 30
0.0
 11
-520.9824703277988
 21
450.5895769021826
 31
0.0
  0
LINE
  5
1D23
330
1C9B
100
AcDbEntity
  8
SIZE
  6
Continuous
 62
     0
370
    -2
100
AcDbLine
 10
-388.5
 20
42.58957690218267
 30
0.0
 11
-520.9824703277989
 21
42.5895769021827
 31
0.0
  0
LINE
  5
1D24
330
1C9B
100
AcDbEntity
  8
SIZE
  6
Continuous
 62
     0
370
    -2
100
AcDbLine
 10
-500.9824703277988
 20
438.5895769021827
 30
0.0
 11
-500.9824703277991
 21
54.5895769021827
 31
0.0
  0
INSERT
  5
1D25
330
1C9B
100
AcDbEntity
  8
SIZE
  6
Continuous
 62
     0
370
    -2
100
AcDbBlockReference
  2
_DOTBLANK
 10
-500.9824703277988
 20
450.5895769021826
 30
0.0
 41
12.0
 42
12.0
 43
12.0
 50
90.0
  0
INSERT
  5
1D26
330
1C9B
100
AcDbEntity
  8
SIZE
  6
Continuous
 62
     0
370
    -2
100
AcDbBlockReference
  2
_DOTBLANK
 10
-500.9824703277991
 20
42.5895769021827
 30
0.0
 41
12.0
 42
12.0
 43
12.0
 50
270.0
  0
MTEXT
  5
1D27
330
1C9B
100
AcDbEntity
  8
SIZE
  6
Continuous
 62
     0
100
AcDbMText
 10
-542.9824703277991
 20
246.5895769021826
 30
0.0
 40
64.0
 41
0.0
 71
     5
 72
     1
  1
\A1;408
 11
0.0000000000000001
 21
1.0
 31
0.0
 73
     1
 44
1.0
1001
ACAD
1000
MTEXTBEGIN
1070
    73
1070
     1
1070
    44
1040
1.0
1070
    74
1070
     0
1000
MTEXTEND
  0
POINT
  5
1D28
330
1C9B
100
AcDbEntity
  8
DEFPOINTS
  6
Continuous
 62
     0
100
AcDbPoint
 10
-368.5
 20
450.5895769021826
 30
0.0
  0
POINT
  5
1D29
330
1C9B
100
AcDbEntity
  8
DEFPOINTS
  6
Continuous
 62
     0
100
AcDbPoint
 10
-368.5
 20
42.58957690218267
 30
0.0
  0
POINT
  5
1D2A
330
1C9B
100
AcDbEntity
  8
DEFPOINTS
  6
Continuous
 62
     0
100
AcDbPoint
 10
-500.9824703277991
 20
42.5895769021827
 30
0.0
  0
ENDBLK
  5
1C9D
330
1C9B
100
AcDbEntity
  8
0
100
AcDbBlockEnd
  0
BLOCK
  5
1CA8
330
1CA7
100
AcDbEntity
  8
0
100
AcDbBlockBegin
  2
*D39
 70
     1
 10
0.0
 20
0.0
 30
0.0
  3
*D39
  1

  0
LINE
  5
1D2B
330
1CA7
100
AcDbEntity
  8
SIZE
  6
Continuous
 62
     0
370
    -2
100
AcDbLine
 10
-388.5
 20
42.58957690218267
 30
0.0
 11
-520.9824703277988
 21
42.5895769021827
 31
0.0
  0
LINE
  5
1D2C
330
1CA7
100
AcDbEntity
  8
SIZE
  6
Continuous
 62
     0
370
    -2
100
AcDbLine
 10
-387.9000000000088
 20
-487.8104230978178
 30
0.0
 11
-520.9824703277989
 21
-487.8104230978178
 31
0.0
  0
LINE
  5
1D2D
330
1CA7
100
AcDbEntity
  8
SIZE
  6
Continuous
 62
     0
370
    -2
100
AcDbLine
 10
-500.9824703277988
 20
30.5895769021827
 30
0.0
 11
-500.9824703277991
 21
-475.8104230978178
 31
0.0
  0
INSERT
  5
1D2E
330
1CA7
100
AcDbEntity
  8
SIZE
  6
Continuous
 62
     0
370
    -2
100
AcDbBlockReference
  2
_DOTBLANK
 10
-500.9824703277988
 20
42.5895769021827
 30
0.0
 41
12.0
 42
12.0
 43
12.0
 50
90.0
  0
INSERT
  5
1D2F
330
1CA7
100
AcDbEntity
  8
SIZE
  6
Continuous
 62
     0
370
    -2
100
AcDbBlockReference
  2
_DOTBLANK
 10
-500.9824703277991
 20
-487.8104230978178
 30
0.0
 41
12.0
 42
12.0
 43
12.0
 50
270.0
  0
MTEXT
  5
1D30
330
1CA7
100
AcDbEntity
  8
SIZE
  6
Continuous
 62
     0
100
AcDbMText
 10
-542.9824703277988
 20
-222.6104230978176
 30
0.0
 40
64.0
 41
0.0
 71
     5
 72
     1
  1
\A1;530
 11
0.0000000000000001
 21
1.0
 31
0.0
 73
     1
 44
1.0
1001
ACAD
1000
MTEXTBEGIN
1070
    73
1070
     1
1070
    44
1040
1.0
1070
    74
1070
     0
1000
MTEXTEND
  0
POINT
  5
1D31
330
1CA7
100
AcDbEntity
  8
DEFPOINTS
  6
Continuous
 62
     0
100
AcDbPoint
 10
-368.5
 20
42.58957690218267
 30
0.0
  0
POINT
  5
1D32
330
1CA7
100
AcDbEntity
  8
DEFPOINTS
  6
Continuous
 62
     0
100
AcDbPoint
 10
-367.9000000000087
 20
-487.8104230978178
 30
0.0
  0
POINT
  5
1D33
330
1CA7
100
AcDbEntity
  8
DEFPOINTS
  6
Continuous
 62
     0
100
AcDbPoint
 10
-500.9824703277991
 20
-487.8104230978178
 30
0.0
  0
ENDBLK
  5
1CA9
330
1CA7
100
AcDbEntity
  8
0
100
AcDbBlockEnd
  0
BLOCK
  5
1CB4
330
1CB3
100
AcDbEntity
  8
0
100
AcDbBlockBegin
  2
*D40
 70
     1
 10
0.0
 20
0.0
 30
0.0
  3
*D40
  1

  0
LINE
  5
1D34
330
1CB3
100
AcDbEntity
  8
SIZE
  6
Continuous
 62
     0
370
    -2
100
AcDbLine
 10
-385.4999999999782
 20
627.6104230978281
 30
0.0
 11
-655.3423475300221
 21
627.6104230978281
 31
0.0
  0
LINE
  5
1D35
330
1CB3
100
AcDbEntity
  8
SIZE
  6
Continuous
 62
     0
370
    -2
100
AcDbLine
 10
-389.5
 20
-627.6104230978179
 30
0.0
 11
-655.3423475300222
 21
-627.6104230978179
 31
0.0
  0
LINE
  5
1D36
330
1CB3
100
AcDbEntity
  8
SIZE
  6
Continuous
 62
     0
370
    -2
100
AcDbLine
 10
-635.3423475300221
 20
615.6104230978279
 30
0.0
 11
-635.3423475300224
 21
-615.6104230978179
 31
0.0
  0
INSERT
  5
1D37
330
1CB3
100
AcDbEntity
  8
SIZE
  6
Continuous
 62
     0
370
    -2
100
AcDbBlockReference
  2
_DOTBLANK
 10
-635.3423475300221
 20
627.6104230978281
 30
0.0
 41
12.0
 42
12.0
 43
12.0
 50
90.0
  0
INSERT
  5
1D38
330
1CB3
100
AcDbEntity
  8
SIZE
  6
Continuous
 62
     0
370
    -2
100
AcDbBlockReference
  2
_DOTBLANK
 10
-635.3423475300224
 20
-627.6104230978179
 30
0.0
 41
12.0
 42
12.0
 43
12.0
 50
270.0
  0
MTEXT
  5
1D39
330
1CB3
100
AcDbEntity
  8
SIZE
  6
Continuous
 62
     0
100
AcDbMText
 10
-677.3423475300222
 20
0.0000000000049326
 30
0.0
 40
64.0
 41
0.0
 71
     5
 72
     1
  1
\A1;1255
 11
0.0000000000000001
 21
1.0
 31
0.0
 73
     1
 44
1.0
1001
ACAD
1000
MTEXTBEGIN
1070
    73
1070
     1
1070
    44
1040
1.0
1070
    74
1070
     0
1000
MTEXTEND
  0
POINT
  5
1D3A
330
1CB3
100
AcDbEntity
  8
DEFPOINTS
  6
Continuous
 62
     0
100
AcDbPoint
 10
-365.4999999999782
 20
627.6104230978281
 30
0.0
  0
POINT
  5
1D3B
330
1CB3
100
AcDbEntity
  8
DEFPOINTS
  6
Continuous
 62
     0
100
AcDbPoint
 10
-369.5
 20
-627.6104230978179
 30
0.0
  0
POINT
  5
1D3C
330
1CB3
100
AcDbEntity
  8
DEFPOINTS
  6
Continuous
 62
     0
100
AcDbPoint
 10
-635.3423475300224
 20
-627.6104230978179
 30
0.0
  0
ENDBLK
  5
1CB5
330
1CB3
100
AcDbEntity
  8
0
100
AcDbBlockEnd
  0
ENDSEC
  0
SECTION
  2
ENTITIES
  0
TEXT
  5
953
330
85F
100
AcDbEntity
  8
OUTLINE
  6
Continuous
 62
     3
100
AcDbText
 10
-418.231467
 20
13.715189
 30
0.0
 40
64.0
  1
 
 41
0.9
100
AcDbText
  0
TEXT
  5
954
330
85F
100
AcDbEntity
  8
OUTLINE
  6
Continuous
 62
     3
100
AcDbText
 10
-418.231467
 20
13.715189
 30
0.0
 40
64.0
  1
 
 41
0.9
100
AcDbText
  0
TEXT
  5
955
330
85F
100
AcDbEntity
  8
OUTLINE
  6
Continuous
 62
     3
100
AcDbText
 10
1341.41903
 20
-706.0588199999997
 30
0.0
 40
64.0
  1
 
 41
0.9
100
AcDbText
  0
TEXT
  5
956
330
85F
100
AcDbEntity
  8
OUTLINE
  6
Continuous
 62
     3
100
AcDbText
 10
1341.41903
 20
-706.0588199999997
 30
0.0
 40
64.0
  1
 
 41
0.9
100
AcDbText
  0
TEXT
  5
957
330
85F
100
AcDbEntity
  8
OUTLINE
  6
Continuous
 62
     3
100
AcDbText
 10
1341.41903
 20
-706.0588199999997
 30
0.0
 40
64.0
  1
 
 41
0.9
100
AcDbText
  0
TEXT
  5
958
330
85F
100
AcDbEntity
  8
OUTLINE
  6
Continuous
 62
     3
100
AcDbText
 10
1341.41903
 20
-706.0588199999997
 30
0.0
 40
64.0
  1
 
 41
0.9
100
AcDbText
  0
LINE
  5
1B31
330
85F
100
AcDbEntity
  8
DETAIL
100
AcDbLine
 10
-368.7000000000044
 20
-230.7926891061361
 30
0.0
 11
-367.9000000000014
 21
-230.7926891061361
 31
0.0
  0
LINE
  5
1B32
330
85F
100
AcDbEntity
  8
DETAIL
100
AcDbLine
 10
-368.7000000000044
 20
-619.5775916258735
 30
0.0
 11
-367.9000000000087
 21
-619.5775916258735
 31
0.0
  0
LINE
  5
1B33
330
85F
100
AcDbEntity
  8
DETAIL
100
AcDbLine
 10
-367.9000000000087
 20
-619.5775916258735
 30
0.0
 11
-367.9000000000014
 21
-230.7926891061361
 31
0.0
  0
LINE
  5
1B34
330
85F
100
AcDbEntity
  8
DETAIL
100
AcDbLine
 10
-368.5000000000147
 20
-225.7762733701647
 30
0.0
 11
-368.6000000000058
 21
-225.7762733701647
 31
0.0
  0
LINE
  5
1B35
330
85F
100
AcDbEntity
  8
DETAIL
100
AcDbLine
 10
-368.6000000000058
 20
433.1729491399109
 30
0.0
 11
-368.5000000000073
 21
433.1729491399109
 31
0.0
  0
LINE
  5
1B36
330
85F
100
AcDbEntity
  8
DETAIL
100
AcDbLine
 10
-350.5
 20
-624.6104230978179
 30
0.0
 11
-353.5
 21
-627.6104230978179
 31
0.0
  0
LINE
  5
1B37
330
85F
100
AcDbEntity
  8
DETAIL
100
AcDbLine
 10
-353.5
 20
-476.610423097818
 30
0.0
 11
-350.5
 21
-479.610423097818
 31
0.0
  0
LINE
  5
1B38
330
85F
100
AcDbEntity
  8
DETAIL
100
AcDbLine
 10
-365.5
 20
-473.6104230978179
 30
0.0
 11
-362.5
 21
-476.610423097818
 31
0.0
  0
LINE
  5
1B39
330
85F
100
AcDbEntity
  8
DETAIL
100
AcDbLine
 10
-362.5
 20
-461.6104230978179
 30
0.0
 11
-365.5
 21
-464.6104230978179
 31
0.0
  0
LINE
  5
1B3A
330
85F
100
AcDbEntity
  8
DETAIL
100
AcDbLine
 10
-350.5
 20
-458.6104230978171
 30
0.0
 11
-353.5
 21
-461.6104230978179
 31
0.0
  0
LINE
  5
1B3B
330
85F
100
AcDbEntity
  8
DETAIL
100
AcDbLine
 10
-353.5
 20
-627.6104230978179
 30
0.0
 11
-368.6000000000058
 21
-627.6104230978179
 31
0.0
  0
LINE
  5
1B3C
330
85F
100
AcDbEntity
  8
DETAIL
100
AcDbLine
 10
-350.5
 20
-624.6104230978179
 30
0.0
 11
-350.5
 21
-479.610423097818
 31
0.0
  0
LINE
  5
1B3D
330
85F
100
AcDbEntity
  8
DETAIL
100
AcDbLine
 10
-350.5
 20
-458.6104230978171
 30
0.0
 11
-350.5
 21
-228.8270508600899
 31
0.0
  0
LINE
  5
1B3E
330
85F
100
AcDbEntity
  8
DETAIL
100
AcDbLine
 10
-353.5
 20
-476.610423097818
 30
0.0
 11
-362.5
 21
-476.610423097818
 31
0.0
  0
LINE
  5
1B3F
330
85F
100
AcDbEntity
  8
DETAIL
100
AcDbLine
 10
-365.5
 20
-473.6104230978179
 30
0.0
 11
-365.5
 21
-464.6104230978179
 31
0.0
  0
LINE
  5
1B40
330
85F
100
AcDbEntity
  8
DETAIL
100
AcDbLine
 10
-362.5
 20
-461.6104230978179
 30
0.0
 11
-353.5
 21
-461.6104230978179
 31
0.0
  0
LINE
  5
1B41
330
85F
100
AcDbEntity
  8
DETAIL
100
AcDbLine
 10
-368.6000000000058
 20
438.030906306808
 30
0.0
 11
-368.6000000000058
 21
433.1729491399109
 31
0.0
  0
LINE
  5
1B42
330
85F
100
AcDbEntity
  8
DETAIL
100
AcDbLine
 10
-368.6000000000058
 20
-225.7762733701647
 30
0.0
 11
-368.6000000000058
 21
-230.7926891061361
 31
0.0
  0
LINE
  5
1B43
330
85F
100
AcDbEntity
  8
DETAIL
100
AcDbLine
 10
-368.6000000000058
 20
-619.5775916258735
 30
0.0
 11
-368.6000000000058
 21
-627.6104230978179
 31
0.0
  0
LINE
  5
1B44
330
85F
100
AcDbEntity
  8
DETAIL
100
AcDbLine
 10
-368.6000000000058
 20
-627.6104230978179
 30
0.0
 11
-368.7000000000044
 21
-627.6104230978179
 31
0.0
  0
LINE
  5
1B45
330
85F
100
AcDbEntity
  8
DETAIL
100
AcDbLine
 10
-368.7000000000044
 20
-619.5775916258735
 30
0.0
 11
-368.7000000000044
 21
-627.6104230978179
 31
0.0
  0
LINE
  5
1B46
330
85F
100
AcDbEntity
  8
DETAIL
100
AcDbLine
 10
-368.7000000000044
 20
437.1729491399109
 30
0.0
 11
-368.7000000000044
 21
433.1829491399103
 31
0.0
  0
LINE
  5
1B47
330
85F
100
AcDbEntity
  8
DETAIL
100
AcDbLine
 10
-368.7000000000044
 20
-225.7862733701649
 30
0.0
 11
-368.7000000000044
 21
-226.7762733701648
 31
0.0
  0
LINE
  5
1B48
330
85F
100
AcDbEntity
  8
DETAIL
100
AcDbLine
 10
-368.7000000000044
 20
-226.7762733701648
 30
0.0
 11
-368.7000000000044
 21
-230.7926891061361
 31
0.0
  0
LINE
  5
1B49
330
85F
100
AcDbEntity
  8
DETAIL
100
AcDbLine
 10
-369.5
 20
437.1729491399109
 30
0.0
 11
-369.5
 21
433.1829491399103
 31
0.0
  0
LINE
  5
1B4A
330
85F
100
AcDbEntity
  8
DETAIL
100
AcDbLine
 10
-369.5
 20
-226.7762733701648
 30
0.0
 11
-369.5
 21
-627.6104230978179
 31
0.0
  0
LINE
  5
1B4B
330
85F
100
AcDbEntity
  8
DETAIL
100
AcDbLine
 10
-369.5
 20
-225.7862733701649
 30
0.0
 11
-369.5
 21
-226.7762733701648
 31
0.0
  0
LINE
  5
1B4C
330
85F
100
AcDbEntity
  8
DETAIL
100
AcDbLine
 10
-368.7000000000044
 20
-226.7762733701648
 30
0.0
 11
-369.5
 21
-226.7762733701648
 31
0.0
  0
LINE
  5
1B4D
330
85F
100
AcDbEntity
  8
DETAIL
100
AcDbLine
 10
-368.7000000000044
 20
-627.6104230978179
 30
0.0
 11
-369.5
 21
-627.6104230978179
 31
0.0
  0
LINE
  5
1B4E
330
85F
100
AcDbEntity
  8
DETAIL
100
AcDbLine
 10
-368.7000000000044
 20
437.9443037664294
 30
0.0
 11
-368.7000000000044
 21
437.9356435123918
 31
0.0
  0
LINE
  5
1B4F
330
85F
100
AcDbEntity
  8
DETAIL
100
AcDbLine
 10
-368.7000000000044
 20
437.9356435123918
 30
0.0
 11
-368.7000000000044
 21
437.1729491399109
 31
0.0
  0
LINE
  5
1B50
330
85F
100
AcDbEntity
  8
DETAIL
100
AcDbLine
 10
-369.5
 20
437.1729491399109
 30
0.0
 11
-369.5
 21
437.9356435123918
 31
0.0
  0
LINE
  5
1B51
330
85F
100
AcDbEntity
  8
DETAIL
100
AcDbLine
 10
-369.5
 20
437.9356435123918
 30
0.0
 11
-369.5
 21
437.9443037664294
 31
0.0
  0
LINE
  5
1B52
330
85F
100
AcDbEntity
  8
DETAIL
100
AcDbLine
 10
-369.5
 20
437.9443037664294
 30
0.0
 11
-369.5
 21
609.3503464176409
 31
0.0
  0
LINE
  5
1B53
330
85F
100
AcDbEntity
  8
DETAIL
100
AcDbLine
 10
-368.6000000000058
 20
610.3895769021818
 30
0.0
 11
-368.6000000000058
 21
438.723726629836
 31
0.0
  0
SPLINE
  5
1B54
330
85F
100
AcDbEntity
  8
DETAIL
100
AcDbSpline
210
0.0
220
0.0
230
1.0
 70
     8
 71
     3
 72
    11
 73
     7
 74
     0
 42
0.0000000001
 43
0.0000000001
 40
0.0
 40
0.0
 40
0.0
 40
0.0
 40
1.437607986813
 40
1.437607986813
 40
1.437607986813
 40
1.570796326795043
 40
1.570796326795043
 40
1.570796326795043
 40
1.570796326795043
 10
-369.5
 20
609.3503464176409
 30
0.0
 10
-369.5
 20
609.8031074111623
 30
0.0
 10
-369.1469781827036
 20
610.2317862144955
 30
0.0
 10
-368.7195154233195
 20
610.3606447981909
 30
0.0
 10
-368.6799127946141
 20
610.3725830045805
 30
0.0
 10
-368.6399565019966
 20
610.3822338441458
 30
0.0
 10
-368.6000000000058
 20
610.3895769021818
 30
0.0
  0
ELLIPSE
  5
1B55
330
85F
100
AcDbEntity
  8
DETAIL
100
AcDbEllipse
 10
-368.6000000000058
 20
437.9443037664294
 30
0.0
 11
-0.8999999999999129
 21
-0.0000000000000009
 31
0.0
210
0.0
220
0.0
230
1.0
 40
0.8660254037844225
 41
4.712388980384688
 42
6.283185307179588
  0
LINE
  5
1B56
330
85F
100
AcDbEntity
  8
DETAIL
100
AcDbLine
 10
-368.6000000000058
 20
438.723726629836
 30
0.0
 11
-368.6000000000058
 21
438.0309063068071
 31
0.0
  0
LINE
  5
1B57
330
85F
100
AcDbEntity
  8
DETAIL
100
AcDbLine
 10
-369.5
 20
437.9443037664294
 30
0.0
 11
-368.7000000000044
 21
437.9443037664294
 31
0.0
  0
ELLIPSE
  5
1B58
330
85F
100
AcDbEntity
  8
DETAIL
100
AcDbEllipse
 10
-368.6000000000058
 20
437.9443037664294
 30
0.0
 11
-0.0999999999999099
 21
0.0000000000000089
 31
0.0
210
0.0
220
0.0
230
0.9999999999999998
 40
0.8660254037846456
 41
4.712388980384766
 42
6.283185307179605
  0
LINE
  5
1B59
330
85F
100
AcDbEntity
  8
DETAIL
100
AcDbLine
 10
-368.7000000000044
 20
437.1729491399109
 30
0.0
 11
-369.5
 21
437.1729491399109
 31
0.0
  0
LINE
  5
1B5A
330
85F
100
AcDbEntity
  8
DETAIL
100
AcDbLine
 10
-368.7000000000044
 20
437.9356435123918
 30
0.0
 11
-369.5
 21
437.9356435123918
 31
0.0
  0
LINE
  5
1B5B
330
85F
100
AcDbEntity
  8
DETAIL
100
AcDbLine
 10
-368.7000000000044
 20
433.1829491399103
 30
0.0
 11
-368.7000000000044
 21
433.1729491399109
 31
0.0
  0
LINE
  5
1B5C
330
85F
100
AcDbEntity
  8
DETAIL
100
AcDbLine
 10
-368.7000000000044
 20
-225.7762733701647
 30
0.0
 11
-368.7000000000044
 21
-225.7862733701649
 31
0.0
  0
LINE
  5
1B5D
330
85F
100
AcDbEntity
  8
DETAIL
100
AcDbLine
 10
-368.6000000000058
 20
433.1729491399109
 30
0.0
 11
-368.6000000000058
 21
-225.7762733701647
 31
0.0
  0
LINE
  5
1B5E
330
85F
100
AcDbEntity
  8
DETAIL
100
AcDbLine
 10
-368.6000000000058
 20
433.1729491399109
 30
0.0
 11
-369.5
 21
433.1729491399109
 31
0.0
  0
LINE
  5
1B5F
330
85F
100
AcDbEntity
  8
DETAIL
100
AcDbLine
 10
-369.5
 20
-225.7762733701647
 30
0.0
 11
-369.5
 21
433.1729491399109
 31
0.0
  0
LINE
  5
1B60
330
85F
100
AcDbEntity
  8
DETAIL
100
AcDbLine
 10
-369.5
 20
-225.7762733701647
 30
0.0
 11
-368.6000000000058
 21
-225.7762733701647
 31
0.0
  0
LINE
  5
1B61
330
85F
100
AcDbEntity
  8
DETAIL
100
AcDbLine
 10
-368.7000000000044
 20
-225.7862733701649
 30
0.0
 11
-369.5
 21
-225.7862733701649
 31
0.0
  0
LINE
  5
1B62
330
85F
100
AcDbEntity
  8
DETAIL
100
AcDbLine
 10
-369.5
 20
-225.7862733701649
 30
0.0
 11
-369.5
 21
-225.7762733701647
 31
0.0
  0
LINE
  5
1B63
330
85F
100
AcDbEntity
  8
DETAIL
100
AcDbLine
 10
-369.5
 20
433.1729491399109
 30
0.0
 11
-369.5
 21
433.1829491399103
 31
0.0
  0
LINE
  5
1B64
330
85F
100
AcDbEntity
  8
DETAIL
100
AcDbLine
 10
-369.5
 20
433.1829491399103
 30
0.0
 11
-368.7000000000044
 21
433.1829491399103
 31
0.0
  0
LINE
  5
1B65
330
85F
100
AcDbEntity
  8
DETAIL
100
AcDbLine
 10
-368.5
 20
438.0309063068088
 30
0.0
 11
-368.6000000000058
 21
438.0309063068071
 31
0.0
  0
LINE
  5
1B66
330
85F
100
AcDbEntity
  8
DETAIL
100
AcDbLine
 10
-368.5
 20
438.723726629836
 30
0.0
 11
-368.6000000000058
 21
438.723726629836
 31
0.0
  0
LINE
  5
1B67
330
85F
100
AcDbEntity
  8
DETAIL
100
AcDbLine
 10
-368.6000000000058
 20
610.3895769021818
 30
0.0
 11
-368.4999999999782
 21
610.3895769021818
 31
0.0
  0
LINE
  5
1B68
330
85F
100
AcDbEntity
  8
DETAIL
100
AcDbLine
 10
370.5
 20
608.8307311753704
 30
0.0
 11
370.5
 21
608.5905387965047
 31
0.0
  0
LINE
  5
1B69
330
85F
100
AcDbEntity
  8
DETAIL
100
AcDbLine
 10
369.5999999999767
 20
438.2737266298353
 30
0.0
 11
369.5
 21
438.2737266298353
 31
0.0
  0
LINE
  5
1B6A
330
85F
100
AcDbEntity
  8
DETAIL
100
AcDbLine
 10
369.5
 20
437.5809063068081
 30
0.0
 11
369.5999999999767
 21
437.5809063068081
 31
0.0
  0
LINE
  5
1B6B
330
85F
100
AcDbEntity
  8
DETAIL
100
AcDbLine
 10
369.6000000000058
 20
609.3699616599113
 30
0.0
 11
369.5000000000218
 21
609.3699616599113
 31
0.0
  0
LINE
  5
1B6C
330
85F
100
AcDbEntity
  8
DETAIL
100
AcDbLine
 10
370.5
 20
608.5905387965047
 30
0.0
 11
370.4999999999853
 21
437.4943037664288
 31
0.0
  0
LINE
  5
1B6D
330
85F
100
AcDbEntity
  8
DETAIL
100
AcDbLine
 10
370.4999999999853
 20
437.4943037664288
 30
0.0
 11
370.4999999999853
 21
437.4856435123911
 31
0.0
  0
LINE
  5
1B6E
330
85F
100
AcDbEntity
  8
DETAIL
100
AcDbLine
 10
370.4999999999853
 20
437.4856435123911
 30
0.0
 11
370.4999999999853
 21
437.1729491399101
 31
0.0
  0
LINE
  5
1B6F
330
85F
100
AcDbEntity
  8
DETAIL
100
AcDbLine
 10
369.6999999999825
 20
437.1729491399101
 30
0.0
 11
369.6999999999825
 21
437.4856435123911
 31
0.0
  0
LINE
  5
1B70
330
85F
100
AcDbEntity
  8
DETAIL
100
AcDbLine
 10
369.6999999999825
 20
437.4856435123911
 30
0.0
 11
369.6999999999825
 21
437.4943037664288
 31
0.0
  0
LINE
  5
1B71
330
85F
100
AcDbEntity
  8
DETAIL
100
AcDbLine
 10
369.6993807990001
 20
609.365195231703
 30
0.0
 11
369.6993807990001
 21
609.9067929709818
 31
0.0
  0
LINE
  5
1B72
330
85F
100
AcDbEntity
  8
DETAIL
100
AcDbLine
 10
370.4999999999853
 20
437.1729491399101
 30
0.0
 11
369.6999999999825
 21
437.1729491399101
 31
0.0
  0
ELLIPSE
  5
1B73
330
85F
100
AcDbEntity
  8
DETAIL
100
AcDbEllipse
 10
369.5999999999767
 20
437.4943037664288
 30
0.0
 11
0.1000000000000377
 21
-0.0000000000000214
 31
0.0
210
0.0
220
0.0
230
1.0
 40
0.8660254037846042
 41
0.0
 42
1.570796326795081
  0
LINE
  5
1B74
330
85F
100
AcDbEntity
  8
DETAIL
100
AcDbLine
 10
369.5999999999767
 20
437.5809063068081
 30
0.0
 11
369.5999999999767
 21
438.2737266298353
 31
0.0
  0
LINE
  5
1B75
330
85F
100
AcDbEntity
  8
DETAIL
100
AcDbLine
 10
369.5999999999767
 20
438.2737266298353
 30
0.0
 11
369.6000000000058
 21
609.3699616599113
 31
0.0
  0
ELLIPSE
  5
1B76
330
85F
100
AcDbEntity
  8
DETAIL
100
AcDbEllipse
 10
369.6000000000058
 20
608.5905387965047
 30
0.0
 11
0.8999999999999687
 21
-0.0000000000000156
 31
0.0
210
0.0
220
0.0
230
1.0
 40
0.8660254037844378
 41
0.0
 42
1.57079632679491
  0
LINE
  5
1B77
330
85F
100
AcDbEntity
  8
DETAIL
100
AcDbLine
 10
369.6999999999825
 20
437.4943037664288
 30
0.0
 11
370.4999999999853
 21
437.4943037664288
 31
0.0
  0
ELLIPSE
  5
1B78
330
85F
100
AcDbEntity
  8
DETAIL
100
AcDbEllipse
 10
369.5999999999767
 20
437.4943037664288
 30
0.0
 11
0.9000000000000309
 21
0.0000000000000346
 31
0.0
210
0.0
220
0.0
230
1.0
 40
0.8660254037844572
 41
0.0
 42
1.570796326794861
  0
LINE
  5
1B79
330
85F
100
AcDbEntity
  8
DETAIL
100
AcDbLine
 10
370.4999999999853
 20
437.4856435123911
 30
0.0
 11
369.6999999999825
 21
437.4856435123911
 31
0.0
  0
LINE
  5
1B7A
330
85F
100
AcDbEntity
  8
DETAIL
100
AcDbLine
 10
370.5
 20
608.8307311753704
 30
0.0
 11
370.456199058739
 21
608.8307311753704
 31
0.0
  0
LINE
  5
1B7B
330
85F
100
AcDbEntity
  8
DETAIL
100
AcDbLine
 10
370.4944271910063
 20
608.8307311753704
 30
0.0
 11
370.4944271910063
 21
609.9067929709818
 31
0.0
  0
SPLINE
  5
1B7C
330
85F
100
AcDbEntity
  8
DETAIL
100
AcDbSpline
210
0.0
220
0.0
230
1.0
 70
    24
 71
     3
 72
    10
 73
     6
 74
     0
 42
0.0000000001
 43
0.0000000001
 40
-0.08
 40
-0.08
 40
-0.08
 40
-0.08
 40
-0.04
 40
-0.04
 40
0.0
 40
0.0
 40
0.0
 40
0.0
 10
369.6993807990001
 20
609.9067929709818
 30
0.0
 10
369.831888531
 20
609.9067929709818
 30
0.0
 10
369.9643962629998
 20
609.9067929709818
 30
0.0
 10
370.2294117269993
 20
609.9067929709818
 30
0.0
 10
370.3619194589992
 20
609.9067929709818
 30
0.0
 10
370.4944271910063
 20
609.9067929709818
 30
0.0
  0
LINE
  5
1B7D
330
85F
100
AcDbEntity
  8
DETAIL
100
AcDbLine
 10
370.4999999999853
 20
433.1729491399101
 30
0.0
 11
370.4999999999853
 21
437.1729491399101
 31
0.0
  0
LINE
  5
1B7E
330
85F
100
AcDbEntity
  8
DETAIL
100
AcDbLine
 10
370.4999999999853
 20
-226.7762733701648
 30
0.0
 11
370.4999999999853
 21
-225.7862733701649
 31
0.0
  0
LINE
  5
1B7F
330
85F
100
AcDbEntity
  8
DETAIL
100
AcDbLine
 10
370.5
 20
-626.4006620825438
 30
0.0
 11
370.4999999999853
 21
-226.7762733701648
 31
0.0
  0
LINE
  5
1B80
330
85F
100
AcDbEntity
  8
DETAIL
100
AcDbLine
 10
369.6999999999971
 20
-617.5750930330467
 30
0.0
 11
369.6999999999971
 21
-626.4006620825438
 31
0.0
  0
LINE
  5
1B81
330
85F
100
AcDbEntity
  8
DETAIL
100
AcDbLine
 10
370.4999999999853
 20
-226.7762733701648
 30
0.0
 11
369.6999999999825
 21
-226.7762733701648
 31
0.0
  0
LINE
  5
1B82
330
85F
100
AcDbEntity
  8
DETAIL
100
AcDbLine
 10
369.6999999999825
 20
-226.7762733701648
 30
0.0
 11
369.6999999999825
 21
-230.7878956653922
 31
0.0
  0
LINE
  5
1B83
330
85F
100
AcDbEntity
  8
DETAIL
100
AcDbLine
 10
369.6999999999825
 20
-225.7862733701649
 30
0.0
 11
369.6999999999825
 21
-226.7762733701648
 31
0.0
  0
LINE
  5
1B84
330
85F
100
AcDbEntity
  8
DETAIL
100
AcDbLine
 10
369.6999999999825
 20
437.1729491399101
 30
0.0
 11
369.6999999999825
 21
433.1729491399101
 31
0.0
  0
LINE
  5
1B85
330
85F
100
AcDbEntity
  8
DETAIL
100
AcDbLine
 10
370.4999999999853
 20
433.1729491399101
 30
0.0
 11
370.4999999999853
 21
433.1629491399097
 31
0.0
  0
LINE
  5
1B86
330
85F
100
AcDbEntity
  8
DETAIL
100
AcDbLine
 10
370.4999999999853
 20
433.1629491399097
 30
0.0
 11
370.4999999999853
 21
-225.7762733701647
 31
0.0
  0
LINE
  5
1B87
330
85F
100
AcDbEntity
  8
DETAIL
100
AcDbLine
 10
370.4999999999853
 20
-225.7762733701647
 30
0.0
 11
370.4999999999853
 21
-225.7862733701649
 31
0.0
  0
LINE
  5
1B88
330
85F
100
AcDbEntity
  8
DETAIL
100
AcDbLine
 10
369.6999999999825
 20
-225.7862733701649
 30
0.0
 11
369.6999999999825
 21
-225.7762733701647
 31
0.0
  0
LINE
  5
1B89
330
85F
100
AcDbEntity
  8
DETAIL
100
AcDbLine
 10
369.6999999999825
 20
433.1629491399097
 30
0.0
 11
369.6999999999825
 21
433.1729491399101
 31
0.0
  0
LINE
  5
1B8A
330
85F
100
AcDbEntity
  8
DETAIL
100
AcDbLine
 10
369.5999999999767
 20
-225.7762733701647
 30
0.0
 11
369.5999999999767
 21
433.1629491399097
 31
0.0
  0
LINE
  5
1B8B
330
85F
100
AcDbEntity
  8
DETAIL
100
AcDbLine
 10
369.5999999999767
 20
433.1629491399097
 30
0.0
 11
370.4999999999853
 21
433.1629491399097
 31
0.0
  0
LINE
  5
1B8C
330
85F
100
AcDbEntity
  8
DETAIL
100
AcDbLine
 10
369.5999999999767
 20
-225.7762733701647
 30
0.0
 11
370.4999999999853
 21
-225.7762733701647
 31
0.0
  0
LINE
  5
1B8D
330
85F
100
AcDbEntity
  8
DETAIL
100
AcDbLine
 10
370.4999999999853
 20
-225.7862733701649
 30
0.0
 11
369.6999999999825
 21
-225.7862733701649
 31
0.0
  0
LINE
  5
1B8E
330
85F
100
AcDbEntity
  8
DETAIL
100
AcDbLine
 10
369.6999999999825
 20
433.1729491399101
 30
0.0
 11
370.4999999999853
 21
433.1729491399101
 31
0.0
  0
LINE
  5
1B8F
330
85F
100
AcDbEntity
  8
DETAIL
100
AcDbLine
 10
369.6999999999971
 20
-617.5750930330467
 30
0.0
 11
368.8999999999942
 21
-617.5750930330467
 31
0.0
  0
LINE
  5
1B90
330
85F
100
AcDbEntity
  8
DETAIL
100
AcDbLine
 10
369.6999999999825
 20
-230.7878956653922
 30
0.0
 11
368.8999999999796
 21
-230.7878956653922
 31
0.0
  0
LINE
  5
1B91
330
85F
100
AcDbEntity
  8
DETAIL
100
AcDbLine
 10
368.8999999999796
 20
-230.7878956653922
 30
0.0
 11
368.8999999999942
 21
-617.5750930330467
 31
0.0
  0
LINE
  5
1B92
330
85F
100
AcDbEntity
  8
DETAIL
100
AcDbLine
 10
369.6999999999971
 20
-626.4006620825438
 30
0.0
 11
370.1729577951336
 21
-626.4006620825438
 31
0.0
  0
LINE
  5
1B93
330
85F
100
AcDbEntity
  8
DETAIL
100
AcDbLine
 10
370.1729577951336
 20
-626.4006620825438
 30
0.0
 11
370.5
 21
-626.4006620825438
 31
0.0
  0
LINE
  5
1B94
330
85F
100
AcDbEntity
  8
DETAIL
100
AcDbLine
 10
369.5999999999985
 20
-627.6104230978179
 30
0.0
 11
369.5999999999985
 21
-617.5750930330467
 31
0.0
  0
LINE
  5
1B95
330
85F
100
AcDbEntity
  8
DETAIL
100
AcDbLine
 10
369.5999999999985
 20
-230.7878956653922
 30
0.0
 11
369.5999999999985
 21
-225.7762733701647
 31
0.0
  0
LINE
  5
1B96
330
85F
100
AcDbEntity
  8
DETAIL
100
AcDbLine
 10
369.6000000000058
 20
433.1629491399097
 30
0.0
 11
369.6000000000058
 21
437.5809063068081
 31
0.0
  0
SPLINE
  5
1B97
330
85F
100
AcDbEntity
  8
DETAIL
100
AcDbSpline
210
0.0
220
0.0
230
1.0
 70
     8
 71
     3
 72
     8
 73
     4
 74
     0
 42
0.0000000001
 43
0.0000000001
 40
0.0
 40
0.0
 40
0.0
 40
0.0
 40
1.45945531245407
 40
1.45945531245407
 40
1.45945531245407
 40
1.45945531245407
 10
369.6000000000058
 20
610.3895769021818
 30
0.0
 10
369.6486485104106
 20
610.2286489251155
 30
0.0
 10
369.6939754089545
 20
610.0677209480489
 30
0.0
 10
369.6993807990001
 20
609.9067929709818
 30
0.0
  0
SPLINE
  5
1B98
330
85F
100
AcDbEntity
  8
DETAIL
100
AcDbSpline
210
0.0
220
0.0
230
1.0
 70
     8
 71
     3
 72
    11
 73
     7
 74
     0
 42
0.0000000001
 43
0.0000000001
 40
0.0
 40
0.0
 40
0.0
 40
0.0
 40
1.437607986812995
 40
1.437607986812995
 40
1.437607986812995
 40
1.570796326794897
 40
1.570796326794897
 40
1.570796326794897
 40
1.570796326794897
 10
370.5
 20
-626.4006620825438
 30
0.0
 10
370.5
 20
-626.7697237421252
 30
0.0
 10
370.1469781827036
 20
-627.1387854017066
 30
0.0
 10
369.7195154233195
 20
-627.5078470612879
 30
0.0
 10
369.6799127946142
 20
-627.5420390734644
 30
0.0
 10
369.6399565019965
 20
-627.5762310856407
 30
0.0
 10
369.5999999999985
 20
-627.6104230978179
 30
0.0
  0
SPLINE
  5
1B99
330
85F
100
AcDbEntity
  8
DETAIL
100
AcDbSpline
210
0.0
220
0.0
230
1.0
 70
     8
 71
     3
 72
     8
 73
     4
 74
     0
 42
0.0000000001
 43
0.0000000001
 40
0.0
 40
0.0
 40
0.0
 40
0.0
 40
1.570796326794897
 40
1.570796326794897
 40
1.570796326794897
 40
1.570796326794897
 10
369.6999999999971
 20
-626.4006620825438
 30
0.0
 10
369.6999999999971
 20
-626.8039157543015
 30
0.0
 10
369.6523598775602
 20
-627.2071694260593
 30
0.0
 10
369.5999999999985
 20
-627.6104230978179
 30
0.0
  0
LINE
  5
1B9A
330
85F
100
AcDbEntity
  8
DETAIL
100
AcDbLine
 10
369.5999999999767
 20
-225.7762733701647
 30
0.0
 11
369.4999999999855
 21
-225.7762733701647
 31
0.0
  0
LINE
  5
1B9B
330
85F
100
AcDbEntity
  8
DETAIL
100
AcDbLine
 10
369.5999999999767
 20
433.1629491399097
 30
0.0
 11
369.4999999999927
 21
433.1629491399097
 31
0.0
  0
LINE
  5
1B9C
330
85F
100
AcDbEntity
  8
DETAIL
100
AcDbLine
 10
354.5
 20
-627.6104230978179
 30
0.0
 11
351.5
 21
-624.6104230978179
 31
0.0
  0
LINE
  5
1B9D
330
85F
100
AcDbEntity
  8
DETAIL
100
AcDbLine
 10
351.5
 20
-624.6104230978179
 30
0.0
 11
351.5
 21
-228.8270508600899
 31
0.0
  0
LINE
  5
1B9E
330
85F
100
AcDbEntity
  8
DETAIL
100
AcDbLine
 10
369.5999999999985
 20
-627.6104230978179
 30
0.0
 11
354.5
 21
-627.6104230978179
 31
0.0
  0
LINE
  5
1B9F
330
85F
100
AcDbEntity
  8
DETAIL
100
AcDbLine
 10
369.6000000000058
 20
609.3699616599113
 30
0.0
 11
369.6000000000058
 21
610.3895769021818
 31
0.0
  0
SPLINE
  5
1BA0
330
85F
100
AcDbEntity
  8
DETAIL
100
AcDbSpline
210
0.0
220
0.0
230
1.0
 70
     8
 71
     3
 72
    16
 73
    12
 74
     0
 42
0.0000000001
 43
0.0000000001
 40
-0.1108813337714192
 40
-0.1108813337714192
 40
-0.1108813337714192
 40
-0.1108813337714192
 40
-0.0885143052683586
 40
-0.0885143052683586
 40
-0.0624610938086652
 40
-0.0624610938086652
 40
-0.0476654008385401
 40
-0.0476654008385401
 40
-0.0301638483130036
 40
-0.0301638483130036
 40
0.0
 40
0.0
 40
0.0
 40
0.0
 10
370.4944271910063
 20
609.9067929709818
 30
0.0
 10
370.3961724524852
 20
609.9108056136827
 30
0.0
 10
370.2802938236055
 20
609.9168440678695
 30
0.0
 10
370.0619199473149
 20
609.9377384685404
 30
0.0
 10
369.9672622142534
 20
609.9532503733762
 30
0.0
 10
369.852026240158
 20
609.9928355423579
 30
0.0
 10
369.8170787288981
 20
610.010268820155
 30
0.0
 10
369.7512997117956
 20
610.0586789128047
 30
0.0
 10
369.7230082562892
 20
610.0911509518091
 30
0.0
 10
369.6564652223679
 20
610.2027914501205
 30
0.0
 10
369.629094738164
 20
610.2933322830511
 30
0.0
 10
369.6000000000058
 20
610.3895769021818
 30
0.0
  0
LINE
  5
1BA1
330
85F
100
AcDbEntity
  8
DETAIL
100
AcDbLine
 10
369.4999999999855
 20
-228.8270508600899
 30
0.0
 11
-368.5000000000147
 21
-228.827050860089
 31
0.0
  0
LINE
  5
1BA2
330
85F
100
AcDbEntity
  8
DETAIL
100
AcDbLine
 10
-368.5000000000147
 20
-228.8270508600899
 30
0.0
 11
-368.5000000000147
 21
-227.9270508600894
 31
0.0
  0
LINE
  5
1BA3
330
85F
100
AcDbEntity
  8
DETAIL
100
AcDbLine
 10
369.4999999999855
 20
-228.8270508600899
 30
0.0
 11
369.4999999999855
 21
-227.9270508600894
 31
0.0
  0
LINE
  5
1BA4
330
85F
100
AcDbEntity
  8
DETAIL
100
AcDbLine
 10
-368.5000000000147
 20
-227.9270508600894
 30
0.0
 11
369.4999999999855
 21
-227.9270508600894
 31
0.0
  0
LINE
  5
1BA5
330
85F
100
AcDbEntity
  8
DETAIL
100
AcDbLine
 10
-368.5000000000147
 20
-227.9270508600894
 30
0.0
 11
-368.5000000000147
 21
420.6677309871873
 31
0.0
  0
LINE
  5
1BA6
330
85F
100
AcDbEntity
  8
DETAIL
100
AcDbLine
 10
369.4999999999855
 20
420.6677309871683
 30
0.0
 11
369.4999999999855
 21
-227.9270508600894
 31
0.0
  0
LINE
  5
1BA7
330
85F
100
AcDbEntity
  8
DETAIL
100
AcDbLine
 10
369.5
 20
420.6677309871701
 30
0.0
 11
366.5
 21
417.6677309871701
 31
0.0
  0
LINE
  5
1BA8
330
85F
100
AcDbEntity
  8
DETAIL
100
AcDbLine
 10
-365.5
 20
417.6677309871893
 30
0.0
 11
-368.5
 21
420.6677309871893
 31
0.0
  0
LINE
  5
1BA9
330
85F
100
AcDbEntity
  8
DETAIL
100
AcDbLine
 10
366.5000000000147
 20
627.610423097809
 30
0.0
 11
369.5000000000145
 21
624.6104230978088
 31
0.0
  0
LINE
  5
1BAA
330
85F
100
AcDbEntity
  8
DETAIL
100
AcDbLine
 10
-368.4999999999782
 20
624.6104230978271
 30
0.0
 11
-365.4999999999782
 21
627.6104230978281
 31
0.0
  0
LINE
  5
1BAB
330
85F
100
AcDbEntity
  8
DETAIL
100
AcDbLine
 10
366.5
 20
417.6677309871701
 30
0.0
 11
-365.5
 21
417.6677309871883
 31
0.0
  0
LINE
  5
1BAC
330
85F
100
AcDbEntity
  8
DETAIL
100
AcDbLine
 10
369.5
 20
437.6677309871701
 30
0.0
 11
369.5
 21
420.6677309871701
 31
0.0
  0
LINE
  5
1BAD
330
85F
100
AcDbEntity
  8
DETAIL
100
AcDbLine
 10
-368.5
 20
420.6677309871883
 30
0.0
 11
-368.5
 21
437.6677309871893
 31
0.0
  0
LINE
  5
1BAE
330
85F
100
AcDbEntity
  8
DETAIL
100
AcDbLine
 10
-365.4999999999782
 20
627.6104230978281
 30
0.0
 11
366.5000000000147
 21
627.610423097809
 31
0.0
  0
LINE
  5
1BAF
330
85F
100
AcDbEntity
  8
DETAIL
100
AcDbLine
 10
-368.4999999999782
 20
610.6104230978282
 30
0.0
 11
-368.4999999999782
 21
624.6104230978271
 31
0.0
  0
LINE
  5
1BB0
330
85F
100
AcDbEntity
  8
DETAIL
100
AcDbLine
 10
369.5000000000145
 20
624.6104230978088
 30
0.0
 11
369.5000000000145
 21
610.610423097809
 31
0.0
  0
LINE
  5
1BB1
330
85F
100
AcDbEntity
  8
DETAIL
100
AcDbLine
 10
-368.5
 20
438.4471538505948
 30
0.0
 11
-368.4999999999782
 21
610.5238205574496
 31
0.0
  0
LINE
  5
1BB2
330
85F
100
AcDbEntity
  8
DETAIL
100
AcDbLine
 10
369.5000000000145
 20
610.5238205574296
 30
0.0
 11
369.5
 21
438.4471538505768
 31
0.0
  0
LINE
  5
1BB3
330
85F
100
AcDbEntity
  8
DETAIL
100
AcDbLine
 10
369.5
 20
437.6677309871701
 30
0.0
 11
-368.5
 21
437.6677309871893
 31
0.0
  0
LINE
  5
1BB4
330
85F
100
AcDbEntity
  8
DETAIL
100
AcDbLine
 10
-368.5
 20
437.6677309871893
 30
0.0
 11
-368.5
 21
438.4471538505948
 31
0.0
  0
LINE
  5
1BB5
330
85F
100
AcDbEntity
  8
DETAIL
100
AcDbLine
 10
369.5
 20
438.4471538505757
 30
0.0
 11
369.5
 21
437.6677309871701
 31
0.0
  0
LINE
  5
1BB6
330
85F
100
AcDbEntity
  8
DETAIL
100
AcDbLine
 10
-368.5
 20
438.4471538505948
 30
0.0
 11
369.5
 21
438.4471538505768
 31
0.0
  0
LINE
  5
1BB7
330
85F
100
AcDbEntity
  8
DETAIL
100
AcDbLine
 10
-368.4999999999782
 20
610.6104230978282
 30
0.0
 11
369.5000000000145
 21
610.610423097809
 31
0.0
  0
LINE
  5
1BB8
330
85F
100
AcDbEntity
  8
DETAIL
100
AcDbLine
 10
369.5000000000145
 20
610.5238205574296
 30
0.0
 11
-368.4999999999782
 21
610.5238205574496
 31
0.0
  0
LINE
  5
1BB9
330
85F
100
AcDbEntity
  8
DETAIL
100
AcDbLine
 10
369.5000000000145
 20
610.5238205574296
 30
0.0
 11
369.5000000000145
 21
610.610423097809
 31
0.0
  0
LINE
  5
1BBA
330
85F
100
AcDbEntity
  8
DETAIL
100
AcDbLine
 10
-368.4999999999782
 20
610.6104230978271
 30
0.0
 11
-368.4999999999782
 21
610.5238205574496
 31
0.0
  0
LINE
  5
1BBB
330
85F
100
AcDbEntity
  8
NOTE
100
AcDbLine
 10
361.0
 20
443.0895769021827
 30
0.0
 11
361.0
 21
458.0895769021826
 31
0.0
  0
LINE
  5
1BBC
330
85F
100
AcDbEntity
  8
NOTE
100
AcDbLine
 10
353.5
 20
450.5895769021826
 30
0.0
 11
368.5
 21
450.5895769021826
 31
0.0
  0
LINE
  5
1BBD
330
85F
100
AcDbEntity
  8
NOTE
100
AcDbLine
 10
-361.0
 20
443.0895769021827
 30
0.0
 11
-361.0
 21
458.0895769021826
 31
0.0
  0
LINE
  5
1BBE
330
85F
100
AcDbEntity
  8
NOTE
100
AcDbLine
 10
-368.5
 20
450.5895769021826
 30
0.0
 11
-353.5
 21
450.5895769021826
 31
0.0
  0
LINE
  5
1BBF
330
85F
100
AcDbEntity
  8
NOTE
100
AcDbLine
 10
-361.0
 20
35.08957690218267
 30
0.0
 11
-361.0
 21
50.08957690218267
 31
0.0
  0
LINE
  5
1BC0
330
85F
100
AcDbEntity
  8
NOTE
100
AcDbLine
 10
-368.5
 20
42.58957690218267
 30
0.0
 11
-353.5
 21
42.58957690218267
 31
0.0
  0
LINE
  5
1BC1
330
85F
100
AcDbEntity
  8
NOTE
100
AcDbLine
 10
361.0
 20
35.08957690218176
 30
0.0
 11
361.0
 21
50.08957690218176
 31
0.0
  0
LINE
  5
1BC2
330
85F
100
AcDbEntity
  8
NOTE
100
AcDbLine
 10
353.5
 20
42.58957690218176
 30
0.0
 11
368.5
 21
42.58957690218176
 31
0.0
  0
LINE
  5
1BC3
330
85F
100
AcDbEntity
  8
NOTE
100
AcDbLine
 10
361.0
 20
-495.3104230978188
 30
0.0
 11
361.0
 21
-480.3104230978187
 31
0.0
  0
CIRCLE
  5
1BC4
330
85F
100
AcDbEntity
  8
FIX
100
AcDbCircle
 10
361.0
 20
-487.8104230978188
 30
0.0
 40
3.0
  0
LINE
  5
1BC5
330
85F
100
AcDbEntity
  8
NOTE
100
AcDbLine
 10
353.5
 20
-487.8104230978188
 30
0.0
 11
368.5
 21
-487.8104230978188
 31
0.0
  0
LINE
  5
1BC6
330
85F
100
AcDbEntity
  8
NOTE
100
AcDbLine
 10
-361.0
 20
-495.3104230978178
 30
0.0
 11
-361.0
 21
-480.3104230978178
 31
0.0
  0
CIRCLE
  5
1BC7
330
85F
100
AcDbEntity
  8
FIX
100
AcDbCircle
 10
-361.0
 20
-487.8104230978178
 30
0.0
 40
3.0
  0
LINE
  5
1BC8
330
85F
100
AcDbEntity
  8
NOTE
100
AcDbLine
 10
-368.5
 20
-487.8104230978178
 30
0.0
 11
-353.5
 21
-487.8104230978178
 31
0.0
  0
LINE
  5
1BC9
330
85F
100
AcDbEntity
  8
NOTE
100
AcDbLine
 10
352.8000000000174
 20
615.110423097809
 30
0.0
 11
352.8000000000174
 21
630.1104230978088
 31
0.0
  0
CIRCLE
  5
1BCA
330
85F
100
AcDbEntity
  8
FIX
100
AcDbCircle
 10
352.8000000000174
 20
622.6104230978088
 30
0.0
 40
3.0
  0
LINE
  5
1BCB
330
85F
100
AcDbEntity
  8
NOTE
100
AcDbLine
 10
345.3000000000175
 20
622.6104230978088
 30
0.0
 11
360.3000000000175
 21
622.6104230978088
 31
0.0
  0
LINE
  5
1BCC
330
85F
100
AcDbEntity
  8
NOTE
100
AcDbLine
 10
24.00000000001455
 20
615.1104230978179
 30
0.0
 11
24.00000000001455
 21
630.1104230978181
 31
0.0
  0
CIRCLE
  5
1BCD
330
85F
100
AcDbEntity
  8
FIX
100
AcDbCircle
 10
24.00000000001455
 20
622.6104230978179
 30
0.0
 40
3.0
  0
LINE
  5
1BCE
330
85F
100
AcDbEntity
  8
NOTE
100
AcDbLine
 10
16.50000000001455
 20
622.6104230978179
 30
0.0
 11
31.50000000001455
 21
622.6104230978179
 31
0.0
  0
LINE
  5
1BCF
330
85F
100
AcDbEntity
  8
NOTE
100
AcDbLine
 10
-279.9999999999782
 20
615.1104230978252
 30
0.0
 11
-279.9999999999782
 21
630.1104230978252
 31
0.0
  0
CIRCLE
  5
1BD0
330
85F
100
AcDbEntity
  8
FIX
100
AcDbCircle
 10
-279.9999999999782
 20
622.6104230978251
 30
0.0
 40
3.0
  0
LINE
  5
1BD1
330
85F
100
AcDbEntity
  8
NOTE
100
AcDbLine
 10
-287.4999999999782
 20
622.6104230978251
 30
0.0
 11
-272.4999999999782
 21
622.6104230978251
 31
0.0
  0
MTEXT
  5
1BD9
330
85F
100
AcDbEntity
  8
ETC
100
AcDbMText
 10
316.2921792265333
 20
947.7348342861388
 30
0.0
 40
64.0
 41
0.0
 71
     1
 72
     5
  1
{\Fromans,extfont|c128;\W0.9;AGJS-28BL-2}
  7
ADESK1
 73
     1
 44
1.0
1001
ACAD
1000
MTEXTBEGIN
1070
    73
1070
     1
1070
    44
1040
1.0
1070
    74
1070
     0
1000
MTEXTEND
  0
LINE
  5
1BDC
330
85F
100
AcDbEntity
  8
BASIS
  6
DASHDOT
 62
     6
100
AcDbLine
 10
0.000000000007276
 20
-677.6104230978188
 30
0.0
 11
0.0
 21
677.6104230978179
 31
0.0
  0
LINE
  5
1BDD
330
85F
100
AcDbEntity
  8
ARRANGE
  6
Continuous
 62
     1
100
AcDbLine
 10
-16.68411756440764
 20
-16.684117564404
 30
0.0
 11
16.68411756440036
 21
16.68411756440309
 31
0.0
  0
LINE
  5
1BDE
330
85F
100
AcDbEntity
  8
ARRANGE
  6
Continuous
 62
     1
100
AcDbLine
 10
-16.68411756440764
 20
16.68411756440309
 30
0.0
 11
16.68411756440036
 21
-16.684117564404
 31
0.0
  0
CIRCLE
  5
1BDF
330
85F
100
AcDbEntity
  8
ARRANGE
100
AcDbCircle
 10
0.0
 20
0.0
 30
0.0
 40
15.0
  0
LINE
  5
1BE0
330
85F
100
AcDbEntity
  8
BASIS
  6
DASHDOT
 62
     6
100
AcDbLine
 10
420.4999999999853
 20
0.0
 30
0.0
 11
-419.4999999999926
 21
0.0
 31
0.0
  0
LINE
  5
1BE1
330
85F
100
AcDbEntity
  8
OUTLINE
100
AcDbLine
 10
-368.7000000000044
 20
-230.792689106137
 30
0.0
 11
-367.9000000000014
 21
-230.792689106137
 31
0.0
  0
LINE
  5
1BE2
330
85F
100
AcDbEntity
  8
OUTLINE
100
AcDbLine
 10
-368.7000000000044
 20
-619.5775916258744
 30
0.0
 11
-367.9000000000087
 21
-619.5775916258744
 31
0.0
  0
LINE
  5
1BE3
330
85F
100
AcDbEntity
  8
OUTLINE
100
AcDbLine
 10
-367.9000000000087
 20
-619.5775916258744
 30
0.0
 11
-367.9000000000014
 21
-230.792689106137
 31
0.0
  0
LINE
  5
1BE4
330
85F
100
AcDbEntity
  8
OUTLINE
100
AcDbLine
 10
-368.5000000000147
 20
-225.7762733701657
 30
0.0
 11
-368.6000000000058
 21
-225.7762733701657
 31
0.0
  0
LINE
  5
1BE5
330
85F
100
AcDbEntity
  8
OUTLINE
100
AcDbLine
 10
-368.6000000000058
 20
433.1729491399092
 30
0.0
 11
-368.5000000000073
 21
433.1729491399092
 31
0.0
  0
LINE
  5
1BE6
330
85F
100
AcDbEntity
  8
OUTLINE
100
AcDbLine
 10
-350.5
 20
-624.610423097819
 30
0.0
 11
-353.5
 21
-627.6104230978188
 31
0.0
  0
LINE
  5
1BE7
330
85F
100
AcDbEntity
  8
OUTLINE
100
AcDbLine
 10
-353.5
 20
-476.6104230978188
 30
0.0
 11
-350.5
 21
-479.610423097819
 31
0.0
  0
LINE
  5
1BE8
330
85F
100
AcDbEntity
  8
OUTLINE
100
AcDbLine
 10
-365.5
 20
-473.6104230978189
 30
0.0
 11
-362.5
 21
-476.6104230978188
 31
0.0
  0
LINE
  5
1BE9
330
85F
100
AcDbEntity
  8
OUTLINE
100
AcDbLine
 10
-362.5
 20
-461.6104230978189
 30
0.0
 11
-365.5
 21
-464.6104230978188
 31
0.0
  0
LINE
  5
1BEA
330
85F
100
AcDbEntity
  8
OUTLINE
100
AcDbLine
 10
-350.5
 20
-458.610423097818
 30
0.0
 11
-353.5
 21
-461.6104230978189
 31
0.0
  0
LINE
  5
1BEB
330
85F
100
AcDbEntity
  8
OUTLINE
100
AcDbLine
 10
-353.5
 20
-627.6104230978188
 30
0.0
 11
-368.6000000000058
 21
-627.6104230978188
 31
0.0
  0
LINE
  5
1BEC
330
85F
100
AcDbEntity
  8
OUTLINE
100
AcDbLine
 10
-350.5
 20
-624.610423097819
 30
0.0
 11
-350.5
 21
-479.610423097819
 31
0.0
  0
LINE
  5
1BED
330
85F
100
AcDbEntity
  8
OUTLINE
100
AcDbLine
 10
-350.5
 20
-458.610423097818
 30
0.0
 11
-350.5
 21
-228.8270508600908
 31
0.0
  0
LINE
  5
1BEE
330
85F
100
AcDbEntity
  8
OUTLINE
100
AcDbLine
 10
-353.5
 20
-476.6104230978188
 30
0.0
 11
-362.5
 21
-476.6104230978188
 31
0.0
  0
LINE
  5
1BEF
330
85F
100
AcDbEntity
  8
OUTLINE
100
AcDbLine
 10
-365.5
 20
-473.6104230978189
 30
0.0
 11
-365.5
 21
-464.6104230978188
 31
0.0
  0
LINE
  5
1BF0
330
85F
100
AcDbEntity
  8
OUTLINE
100
AcDbLine
 10
-362.5
 20
-461.6104230978189
 30
0.0
 11
-353.5
 21
-461.6104230978189
 31
0.0
  0
LINE
  5
1BF1
330
85F
100
AcDbEntity
  8
OUTLINE
100
AcDbLine
 10
-368.6000000000058
 20
438.0309063068071
 30
0.0
 11
-368.6000000000058
 21
433.1729491399092
 31
0.0
  0
LINE
  5
1BF2
330
85F
100
AcDbEntity
  8
OUTLINE
100
AcDbLine
 10
-368.6000000000058
 20
-225.7762733701657
 30
0.0
 11
-368.6000000000058
 21
-230.792689106137
 31
0.0
  0
LINE
  5
1BF3
330
85F
100
AcDbEntity
  8
OUTLINE
100
AcDbLine
 10
-368.6000000000058
 20
-619.5775916258744
 30
0.0
 11
-368.6000000000058
 21
-627.6104230978188
 31
0.0
  0
LINE
  5
1BF4
330
85F
100
AcDbEntity
  8
OUTLINE
100
AcDbLine
 10
-368.6000000000058
 20
-627.6104230978188
 30
0.0
 11
-368.7000000000044
 21
-627.6104230978188
 31
0.0
  0
LINE
  5
1BF5
330
85F
100
AcDbEntity
  8
OUTLINE
100
AcDbLine
 10
-368.7000000000044
 20
-619.5775916258744
 30
0.0
 11
-368.7000000000044
 21
-627.6104230978188
 31
0.0
  0
LINE
  5
1BF6
330
85F
100
AcDbEntity
  8
OUTLINE
100
AcDbLine
 10
-368.7000000000044
 20
437.1729491399092
 30
0.0
 11
-368.7000000000044
 21
433.1829491399092
 31
0.0
  0
LINE
  5
1BF7
330
85F
100
AcDbEntity
  8
OUTLINE
100
AcDbLine
 10
-368.7000000000044
 20
-225.7862733701659
 30
0.0
 11
-368.7000000000044
 21
-226.7762733701657
 31
0.0
  0
LINE
  5
1BF8
330
85F
100
AcDbEntity
  8
OUTLINE
100
AcDbLine
 10
-368.7000000000044
 20
-226.7762733701657
 30
0.0
 11
-368.7000000000044
 21
-230.792689106137
 31
0.0
  0
LINE
  5
1BF9
330
85F
100
AcDbEntity
  8
OUTLINE
100
AcDbLine
 10
-369.5
 20
437.1729491399092
 30
0.0
 11
-369.5
 21
433.1829491399092
 31
0.0
  0
LINE
  5
1BFA
330
85F
100
AcDbEntity
  8
OUTLINE
100
AcDbLine
 10
-369.5
 20
-226.7762733701657
 30
0.0
 11
-369.5
 21
-627.6104230978188
 31
0.0
  0
LINE
  5
1BFB
330
85F
100
AcDbEntity
  8
OUTLINE
100
AcDbLine
 10
-369.5
 20
-225.7862733701659
 30
0.0
 11
-369.5
 21
-226.7762733701657
 31
0.0
  0
LINE
  5
1BFC
330
85F
100
AcDbEntity
  8
OUTLINE
100
AcDbLine
 10
-368.7000000000044
 20
-226.7762733701657
 30
0.0
 11
-369.5
 21
-226.7762733701657
 31
0.0
  0
LINE
  5
1BFD
330
85F
100
AcDbEntity
  8
OUTLINE
100
AcDbLine
 10
-368.7000000000044
 20
-627.6104230978188
 30
0.0
 11
-369.5
 21
-627.6104230978188
 31
0.0
  0
LINE
  5
1BFE
330
85F
100
AcDbEntity
  8
OUTLINE
100
AcDbLine
 10
-368.7000000000044
 20
437.9443037664278
 30
0.0
 11
-368.7000000000044
 21
437.9356435123918
 31
0.0
  0
LINE
  5
1BFF
330
85F
100
AcDbEntity
  8
OUTLINE
100
AcDbLine
 10
-368.7000000000044
 20
437.9356435123918
 30
0.0
 11
-368.7000000000044
 21
437.1729491399092
 31
0.0
  0
LINE
  5
1C00
330
85F
100
AcDbEntity
  8
OUTLINE
100
AcDbLine
 10
-369.5
 20
437.1729491399092
 30
0.0
 11
-369.5
 21
437.9356435123918
 31
0.0
  0
LINE
  5
1C01
330
85F
100
AcDbEntity
  8
OUTLINE
100
AcDbLine
 10
-369.5
 20
437.9356435123918
 30
0.0
 11
-369.5
 21
437.9443037664278
 31
0.0
  0
LINE
  5
1C02
330
85F
100
AcDbEntity
  8
OUTLINE
100
AcDbLine
 10
-369.5
 20
437.9443037664278
 30
0.0
 11
-369.5
 21
609.3503464176392
 31
0.0
  0
LINE
  5
1C03
330
85F
100
AcDbEntity
  8
OUTLINE
100
AcDbLine
 10
-368.6000000000058
 20
610.3895769021801
 30
0.0
 11
-368.6000000000058
 21
438.723726629836
 31
0.0
  0
SPLINE
  5
1C04
330
85F
100
AcDbEntity
  8
OUTLINE
100
AcDbSpline
210
0.0
220
0.0
230
1.0
 70
     8
 71
     3
 72
    11
 73
     7
 74
     0
 42
0.0000000001
 43
0.0000000001
 40
0.0
 40
0.0
 40
0.0
 40
0.0
 40
1.437607986813
 40
1.437607986813
 40
1.437607986813
 40
1.570796326795043
 40
1.570796326795043
 40
1.570796326795043
 40
1.570796326795043
 10
-369.5
 20
609.3503464176392
 30
0.0
 10
-369.5
 20
609.8031074111603
 30
0.0
 10
-369.1469781827036
 20
610.2317862144955
 30
0.0
 10
-368.7195154233195
 20
610.3606447981909
 30
0.0
 10
-368.6799127946141
 20
610.3725830045805
 30
0.0
 10
-368.6399565019966
 20
610.3822338441458
 30
0.0
 10
-368.6000000000058
 20
610.3895769021801
 30
0.0
  0
ELLIPSE
  5
1C05
330
85F
100
AcDbEntity
  8
OUTLINE
100
AcDbEllipse
 10
-368.6000000000058
 20
437.9443037664278
 30
0.0
 11
-0.8999999999999129
 21
-0.0000000000000009
 31
0.0
210
0.0
220
0.0
230
1.0
 40
0.8660254037844225
 41
4.712388980384688
 42
6.283185307179588
  0
LINE
  5
1C06
330
85F
100
AcDbEntity
  8
OUTLINE
100
AcDbLine
 10
-368.6000000000058
 20
438.723726629836
 30
0.0
 11
-368.6000000000058
 21
438.0309063068052
 31
0.0
  0
LINE
  5
1C07
330
85F
100
AcDbEntity
  8
OUTLINE
100
AcDbLine
 10
-369.5
 20
437.9443037664278
 30
0.0
 11
-368.7000000000044
 21
437.9443037664278
 31
0.0
  0
ELLIPSE
  5
1C08
330
85F
100
AcDbEntity
  8
OUTLINE
100
AcDbEllipse
 10
-368.6000000000058
 20
437.9443037664278
 30
0.0
 11
-0.0999999999999099
 21
0.0000000000000089
 31
0.0
210
0.0
220
0.0
230
0.9999999999999998
 40
0.8660254037846456
 41
4.712388980384766
 42
6.283185307179605
  0
LINE
  5
1C09
330
85F
100
AcDbEntity
  8
OUTLINE
100
AcDbLine
 10
-368.7000000000044
 20
437.1729491399092
 30
0.0
 11
-369.5
 21
437.1729491399092
 31
0.0
  0
LINE
  5
1C0A
330
85F
100
AcDbEntity
  8
OUTLINE
100
AcDbLine
 10
-368.7000000000044
 20
437.9356435123918
 30
0.0
 11
-369.5
 21
437.9356435123918
 31
0.0
  0
LINE
  5
1C0B
330
85F
100
AcDbEntity
  8
OUTLINE
100
AcDbLine
 10
-368.7000000000044
 20
433.1829491399092
 30
0.0
 11
-368.7000000000044
 21
433.1729491399092
 31
0.0
  0
LINE
  5
1C0C
330
85F
100
AcDbEntity
  8
OUTLINE
100
AcDbLine
 10
-368.7000000000044
 20
-225.7762733701657
 30
0.0
 11
-368.7000000000044
 21
-225.7862733701659
 31
0.0
  0
LINE
  5
1C0D
330
85F
100
AcDbEntity
  8
OUTLINE
100
AcDbLine
 10
-368.6000000000058
 20
433.1729491399092
 30
0.0
 11
-368.6000000000058
 21
-225.7762733701657
 31
0.0
  0
LINE
  5
1C0E
330
85F
100
AcDbEntity
  8
OUTLINE
100
AcDbLine
 10
-368.6000000000058
 20
433.1729491399092
 30
0.0
 11
-369.5
 21
433.1729491399092
 31
0.0
  0
LINE
  5
1C0F
330
85F
100
AcDbEntity
  8
OUTLINE
100
AcDbLine
 10
-369.5
 20
-225.7762733701657
 30
0.0
 11
-369.5
 21
433.1729491399092
 31
0.0
  0
LINE
  5
1C10
330
85F
100
AcDbEntity
  8
OUTLINE
100
AcDbLine
 10
-369.5
 20
-225.7762733701657
 30
0.0
 11
-368.6000000000058
 21
-225.7762733701657
 31
0.0
  0
LINE
  5
1C11
330
85F
100
AcDbEntity
  8
OUTLINE
100
AcDbLine
 10
-368.7000000000044
 20
-225.7862733701659
 30
0.0
 11
-369.5
 21
-225.7862733701659
 31
0.0
  0
LINE
  5
1C12
330
85F
100
AcDbEntity
  8
OUTLINE
100
AcDbLine
 10
-369.5
 20
-225.7862733701659
 30
0.0
 11
-369.5
 21
-225.7762733701657
 31
0.0
  0
LINE
  5
1C13
330
85F
100
AcDbEntity
  8
OUTLINE
100
AcDbLine
 10
-369.5
 20
433.1729491399092
 30
0.0
 11
-369.5
 21
433.1829491399092
 31
0.0
  0
LINE
  5
1C14
330
85F
100
AcDbEntity
  8
OUTLINE
100
AcDbLine
 10
-369.5
 20
433.1829491399092
 30
0.0
 11
-368.7000000000044
 21
433.1829491399092
 31
0.0
  0
LINE
  5
1C15
330
85F
100
AcDbEntity
  8
OUTLINE
100
AcDbLine
 10
-368.5
 20
438.0309063068088
 30
0.0
 11
-368.6000000000058
 21
438.0309063068052
 31
0.0
  0
LINE
  5
1C16
330
85F
100
AcDbEntity
  8
OUTLINE
100
AcDbLine
 10
-368.5
 20
438.723726629836
 30
0.0
 11
-368.6000000000058
 21
438.723726629836
 31
0.0
  0
LINE
  5
1C17
330
85F
100
AcDbEntity
  8
OUTLINE
100
AcDbLine
 10
-368.6000000000058
 20
610.3895769021801
 30
0.0
 11
-368.4999999999782
 21
610.3895769021801
 31
0.0
  0
LINE
  5
1C18
330
85F
100
AcDbEntity
  8
OUTLINE
100
AcDbLine
 10
370.5
 20
608.8307311753704
 30
0.0
 11
370.5
 21
608.5905387965031
 31
0.0
  0
LINE
  5
1C19
330
85F
100
AcDbEntity
  8
OUTLINE
100
AcDbLine
 10
369.5999999999767
 20
438.2737266298353
 30
0.0
 11
369.5
 21
438.2737266298353
 31
0.0
  0
LINE
  5
1C1A
330
85F
100
AcDbEntity
  8
OUTLINE
100
AcDbLine
 10
369.5
 20
437.5809063068081
 30
0.0
 11
369.5999999999767
 21
437.5809063068081
 31
0.0
  0
LINE
  5
1C1B
330
85F
100
AcDbEntity
  8
OUTLINE
100
AcDbLine
 10
369.6000000000058
 20
609.3699616599113
 30
0.0
 11
369.5000000000218
 21
609.3699616599113
 31
0.0
  0
LINE
  5
1C1C
330
85F
100
AcDbEntity
  8
OUTLINE
100
AcDbLine
 10
370.5
 20
608.5905387965031
 30
0.0
 11
370.4999999999853
 21
437.4943037664269
 31
0.0
  0
LINE
  5
1C1D
330
85F
100
AcDbEntity
  8
OUTLINE
100
AcDbLine
 10
370.4999999999853
 20
437.4943037664269
 30
0.0
 11
370.4999999999853
 21
437.4856435123911
 31
0.0
  0
LINE
  5
1C1E
330
85F
100
AcDbEntity
  8
OUTLINE
100
AcDbLine
 10
370.4999999999853
 20
437.4856435123911
 30
0.0
 11
370.4999999999853
 21
437.1729491399092
 31
0.0
  0
LINE
  5
1C1F
330
85F
100
AcDbEntity
  8
OUTLINE
100
AcDbLine
 10
369.6999999999825
 20
437.1729491399092
 30
0.0
 11
369.6999999999825
 21
437.4856435123911
 31
0.0
  0
LINE
  5
1C20
330
85F
100
AcDbEntity
  8
OUTLINE
100
AcDbLine
 10
369.6999999999825
 20
437.4856435123911
 30
0.0
 11
369.6999999999825
 21
437.4943037664269
 31
0.0
  0
LINE
  5
1C21
330
85F
100
AcDbEntity
  8
OUTLINE
100
AcDbLine
 10
369.6993807990001
 20
609.3651952317014
 30
0.0
 11
369.6993807990001
 21
609.9067929709818
 31
0.0
  0
LINE
  5
1C22
330
85F
100
AcDbEntity
  8
OUTLINE
100
AcDbLine
 10
370.4999999999853
 20
437.1729491399092
 30
0.0
 11
369.6999999999825
 21
437.1729491399092
 31
0.0
  0
ELLIPSE
  5
1C23
330
85F
100
AcDbEntity
  8
OUTLINE
100
AcDbEllipse
 10
369.5999999999767
 20
437.4943037664269
 30
0.0
 11
0.1000000000000377
 21
-0.0000000000000214
 31
0.0
210
0.0
220
0.0
230
1.0
 40
0.8660254037846042
 41
0.0
 42
1.570796326795081
  0
LINE
  5
1C24
330
85F
100
AcDbEntity
  8
OUTLINE
100
AcDbLine
 10
369.5999999999767
 20
437.5809063068081
 30
0.0
 11
369.5999999999767
 21
438.2737266298353
 31
0.0
  0
LINE
  5
1C25
330
85F
100
AcDbEntity
  8
OUTLINE
100
AcDbLine
 10
369.5999999999767
 20
438.2737266298353
 30
0.0
 11
369.6000000000058
 21
609.3699616599113
 31
0.0
  0
ELLIPSE
  5
1C26
330
85F
100
AcDbEntity
  8
OUTLINE
100
AcDbEllipse
 10
369.6000000000058
 20
608.5905387965031
 30
0.0
 11
0.8999999999999687
 21
-0.0000000000000156
 31
0.0
210
0.0
220
0.0
230
1.0
 40
0.8660254037844378
 41
0.0
 42
1.57079632679491
  0
LINE
  5
1C27
330
85F
100
AcDbEntity
  8
OUTLINE
100
AcDbLine
 10
369.6999999999825
 20
437.4943037664269
 30
0.0
 11
370.4999999999853
 21
437.4943037664269
 31
0.0
  0
ELLIPSE
  5
1C28
330
85F
100
AcDbEntity
  8
OUTLINE
100
AcDbEllipse
 10
369.5999999999767
 20
437.4943037664269
 30
0.0
 11
0.9000000000000309
 21
0.0000000000000346
 31
0.0
210
0.0
220
0.0
230
1.0
 40
0.8660254037844572
 41
0.0
 42
1.570796326794861
  0
LINE
  5
1C29
330
85F
100
AcDbEntity
  8
OUTLINE
100
AcDbLine
 10
370.4999999999853
 20
437.4856435123911
 30
0.0
 11
369.6999999999825
 21
437.4856435123911
 31
0.0
  0
LINE
  5
1C2A
330
85F
100
AcDbEntity
  8
OUTLINE
100
AcDbLine
 10
370.5
 20
608.8307311753704
 30
0.0
 11
370.456199058739
 21
608.8307311753704
 31
0.0
  0
LINE
  5
1C2B
330
85F
100
AcDbEntity
  8
OUTLINE
100
AcDbLine
 10
370.4944271910063
 20
608.8307311753704
 30
0.0
 11
370.4944271910063
 21
609.9067929709818
 31
0.0
  0
SPLINE
  5
1C2C
330
85F
100
AcDbEntity
  8
OUTLINE
100
AcDbSpline
210
0.0
220
0.0
230
1.0
 70
    24
 71
     3
 72
    10
 73
     6
 74
     0
 42
0.0000000001
 43
0.0000000001
 40
-0.08
 40
-0.08
 40
-0.08
 40
-0.08
 40
-0.04
 40
-0.04
 40
0.0
 40
0.0
 40
0.0
 40
0.0
 10
369.6993807990001
 20
609.9067929709818
 30
0.0
 10
369.831888531
 20
609.9067929709818
 30
0.0
 10
369.9643962629998
 20
609.9067929709818
 30
0.0
 10
370.2294117269993
 20
609.9067929709818
 30
0.0
 10
370.3619194589992
 20
609.9067929709818
 30
0.0
 10
370.4944271910063
 20
609.9067929709818
 30
0.0
  0
LINE
  5
1C2D
330
85F
100
AcDbEntity
  8
OUTLINE
100
AcDbLine
 10
370.4999999999853
 20
433.1729491399092
 30
0.0
 11
370.4999999999853
 21
437.1729491399092
 31
0.0
  0
LINE
  5
1C2E
330
85F
100
AcDbEntity
  8
OUTLINE
100
AcDbLine
 10
370.4999999999853
 20
-226.7762733701657
 30
0.0
 11
370.4999999999853
 21
-225.7862733701659
 31
0.0
  0
LINE
  5
1C2F
330
85F
100
AcDbEntity
  8
OUTLINE
100
AcDbLine
 10
370.5
 20
-626.4006620825448
 30
0.0
 11
370.4999999999853
 21
-226.7762733701657
 31
0.0
  0
LINE
  5
1C30
330
85F
100
AcDbEntity
  8
OUTLINE
100
AcDbLine
 10
369.6999999999971
 20
-617.5750930330476
 30
0.0
 11
369.6999999999971
 21
-626.4006620825448
 31
0.0
  0
LINE
  5
1C31
330
85F
100
AcDbEntity
  8
OUTLINE
100
AcDbLine
 10
370.4999999999853
 20
-226.7762733701657
 30
0.0
 11
369.6999999999825
 21
-226.7762733701657
 31
0.0
  0
LINE
  5
1C32
330
85F
100
AcDbEntity
  8
OUTLINE
100
AcDbLine
 10
369.6999999999825
 20
-226.7762733701657
 30
0.0
 11
369.6999999999825
 21
-230.7878956653931
 31
0.0
  0
LINE
  5
1C33
330
85F
100
AcDbEntity
  8
OUTLINE
100
AcDbLine
 10
369.6999999999825
 20
-225.7862733701659
 30
0.0
 11
369.6999999999825
 21
-226.7762733701657
 31
0.0
  0
LINE
  5
1C34
330
85F
100
AcDbEntity
  8
OUTLINE
100
AcDbLine
 10
369.6999999999825
 20
437.1729491399092
 30
0.0
 11
369.6999999999825
 21
433.1729491399092
 31
0.0
  0
LINE
  5
1C35
330
85F
100
AcDbEntity
  8
OUTLINE
100
AcDbLine
 10
370.4999999999853
 20
433.1729491399092
 30
0.0
 11
370.4999999999853
 21
433.1629491399088
 31
0.0
  0
LINE
  5
1C36
330
85F
100
AcDbEntity
  8
OUTLINE
100
AcDbLine
 10
370.4999999999853
 20
433.1629491399088
 30
0.0
 11
370.4999999999853
 21
-225.7762733701657
 31
0.0
  0
LINE
  5
1C37
330
85F
100
AcDbEntity
  8
OUTLINE
100
AcDbLine
 10
370.4999999999853
 20
-225.7762733701657
 30
0.0
 11
370.4999999999853
 21
-225.7862733701659
 31
0.0
  0
LINE
  5
1C38
330
85F
100
AcDbEntity
  8
OUTLINE
100
AcDbLine
 10
369.6999999999825
 20
-225.7862733701659
 30
0.0
 11
369.6999999999825
 21
-225.7762733701657
 31
0.0
  0
LINE
  5
1C39
330
85F
100
AcDbEntity
  8
OUTLINE
100
AcDbLine
 10
369.6999999999825
 20
433.1629491399088
 30
0.0
 11
369.6999999999825
 21
433.1729491399092
 31
0.0
  0
LINE
  5
1C3A
330
85F
100
AcDbEntity
  8
OUTLINE
100
AcDbLine
 10
369.5999999999767
 20
-225.7762733701657
 30
0.0
 11
369.5999999999767
 21
433.1629491399088
 31
0.0
  0
LINE
  5
1C3B
330
85F
100
AcDbEntity
  8
OUTLINE
100
AcDbLine
 10
369.5999999999767
 20
433.1629491399088
 30
0.0
 11
370.4999999999853
 21
433.1629491399088
 31
0.0
  0
LINE
  5
1C3C
330
85F
100
AcDbEntity
  8
OUTLINE
100
AcDbLine
 10
369.5999999999767
 20
-225.7762733701657
 30
0.0
 11
370.4999999999853
 21
-225.7762733701657
 31
0.0
  0
LINE
  5
1C3D
330
85F
100
AcDbEntity
  8
OUTLINE
100
AcDbLine
 10
370.4999999999853
 20
-225.7862733701659
 30
0.0
 11
369.6999999999825
 21
-225.7862733701659
 31
0.0
  0
LINE
  5
1C3E
330
85F
100
AcDbEntity
  8
OUTLINE
100
AcDbLine
 10
369.6999999999825
 20
433.1729491399092
 30
0.0
 11
370.4999999999853
 21
433.1729491399092
 31
0.0
  0
LINE
  5
1C3F
330
85F
100
AcDbEntity
  8
OUTLINE
100
AcDbLine
 10
369.6999999999971
 20
-617.5750930330476
 30
0.0
 11
368.8999999999942
 21
-617.5750930330476
 31
0.0
  0
LINE
  5
1C40
330
85F
100
AcDbEntity
  8
OUTLINE
100
AcDbLine
 10
369.6999999999825
 20
-230.7878956653931
 30
0.0
 11
368.8999999999796
 21
-230.7878956653931
 31
0.0
  0
LINE
  5
1C41
330
85F
100
AcDbEntity
  8
OUTLINE
100
AcDbLine
 10
368.8999999999796
 20
-230.7878956653931
 30
0.0
 11
368.8999999999942
 21
-617.5750930330476
 31
0.0
  0
LINE
  5
1C42
330
85F
100
AcDbEntity
  8
OUTLINE
100
AcDbLine
 10
369.6999999999971
 20
-626.4006620825448
 30
0.0
 11
370.1729577951336
 21
-626.4006620825448
 31
0.0
  0
LINE
  5
1C43
330
85F
100
AcDbEntity
  8
OUTLINE
100
AcDbLine
 10
370.1729577951336
 20
-626.4006620825448
 30
0.0
 11
370.5
 21
-626.4006620825448
 31
0.0
  0
LINE
  5
1C44
330
85F
100
AcDbEntity
  8
OUTLINE
100
AcDbLine
 10
369.5999999999985
 20
-627.6104230978188
 30
0.0
 11
369.5999999999985
 21
-617.5750930330476
 31
0.0
  0
LINE
  5
1C45
330
85F
100
AcDbEntity
  8
OUTLINE
100
AcDbLine
 10
369.5999999999985
 20
-230.7878956653931
 30
0.0
 11
369.5999999999985
 21
-225.7762733701657
 31
0.0
  0
LINE
  5
1C46
330
85F
100
AcDbEntity
  8
OUTLINE
100
AcDbLine
 10
369.6000000000058
 20
433.1629491399088
 30
0.0
 11
369.6000000000058
 21
437.5809063068081
 31
0.0
  0
SPLINE
  5
1C47
330
85F
100
AcDbEntity
  8
OUTLINE
100
AcDbSpline
210
0.0
220
0.0
230
1.0
 70
     8
 71
     3
 72
     8
 73
     4
 74
     0
 42
0.0000000001
 43
0.0000000001
 40
0.0
 40
0.0
 40
0.0
 40
0.0
 40
1.45945531245407
 40
1.45945531245407
 40
1.45945531245407
 40
1.45945531245407
 10
369.6000000000058
 20
610.3895769021801
 30
0.0
 10
369.6486485104106
 20
610.2286489251146
 30
0.0
 10
369.6939754089545
 20
610.0677209480489
 30
0.0
 10
369.6993807990001
 20
609.9067929709818
 30
0.0
  0
SPLINE
  5
1C48
330
85F
100
AcDbEntity
  8
OUTLINE
100
AcDbSpline
210
0.0
220
0.0
230
1.0
 70
     8
 71
     3
 72
    11
 73
     7
 74
     0
 42
0.0000000001
 43
0.0000000001
 40
0.0
 40
0.0
 40
0.0
 40
0.0
 40
1.437607986812995
 40
1.437607986812995
 40
1.437607986812995
 40
1.570796326794897
 40
1.570796326794897
 40
1.570796326794897
 40
1.570796326794897
 10
370.5
 20
-626.4006620825448
 30
0.0
 10
370.5
 20
-626.7697237421262
 30
0.0
 10
370.1469781827036
 20
-627.1387854017075
 30
0.0
 10
369.7195154233195
 20
-627.5078470612887
 30
0.0
 10
369.6799127946142
 20
-627.5420390734653
 30
0.0
 10
369.6399565019965
 20
-627.5762310856416
 30
0.0
 10
369.5999999999985
 20
-627.6104230978188
 30
0.0
  0
SPLINE
  5
1C49
330
85F
100
AcDbEntity
  8
OUTLINE
100
AcDbSpline
210
0.0
220
0.0
230
1.0
 70
     8
 71
     3
 72
     8
 73
     4
 74
     0
 42
0.0000000001
 43
0.0000000001
 40
0.0
 40
0.0
 40
0.0
 40
0.0
 40
1.570796326794897
 40
1.570796326794897
 40
1.570796326794897
 40
1.570796326794897
 10
369.6999999999971
 20
-626.4006620825448
 30
0.0
 10
369.6999999999971
 20
-626.8039157543024
 30
0.0
 10
369.6523598775602
 20
-627.2071694260602
 30
0.0
 10
369.5999999999985
 20
-627.6104230978188
 30
0.0
  0
LINE
  5
1C4A
330
85F
100
AcDbEntity
  8
OUTLINE
100
AcDbLine
 10
369.5999999999767
 20
-225.7762733701657
 30
0.0
 11
369.4999999999855
 21
-225.7762733701657
 31
0.0
  0
LINE
  5
1C4B
330
85F
100
AcDbEntity
  8
OUTLINE
100
AcDbLine
 10
369.5999999999767
 20
433.1629491399088
 30
0.0
 11
369.4999999999927
 21
433.1629491399088
 31
0.0
  0
LINE
  5
1C4C
330
85F
100
AcDbEntity
  8
OUTLINE
100
AcDbLine
 10
354.5
 20
-627.6104230978188
 30
0.0
 11
351.5
 21
-624.610423097819
 31
0.0
  0
LINE
  5
1C4D
330
85F
100
AcDbEntity
  8
OUTLINE
100
AcDbLine
 10
351.5
 20
-624.610423097819
 30
0.0
 11
351.5
 21
-228.8270508600908
 31
0.0
  0
LINE
  5
1C4E
330
85F
100
AcDbEntity
  8
OUTLINE
100
AcDbLine
 10
369.5999999999985
 20
-627.6104230978188
 30
0.0
 11
354.5
 21
-627.6104230978188
 31
0.0
  0
LINE
  5
1C4F
330
85F
100
AcDbEntity
  8
OUTLINE
100
AcDbLine
 10
369.6000000000058
 20
609.3699616599113
 30
0.0
 11
369.6000000000058
 21
610.3895769021801
 31
0.0
  0
SPLINE
  5
1C50
330
85F
100
AcDbEntity
  8
OUTLINE
100
AcDbSpline
210
0.0
220
0.0
230
1.0
 70
     8
 71
     3
 72
    16
 73
    12
 74
     0
 42
0.0000000001
 43
0.0000000001
 40
-0.1108813337714192
 40
-0.1108813337714192
 40
-0.1108813337714192
 40
-0.1108813337714192
 40
-0.0885143052683586
 40
-0.0885143052683586
 40
-0.0624610938086652
 40
-0.0624610938086652
 40
-0.0476654008385401
 40
-0.0476654008385401
 40
-0.0301638483130036
 40
-0.0301638483130036
 40
0.0
 40
0.0
 40
0.0
 40
0.0
 10
370.4944271910063
 20
609.9067929709818
 30
0.0
 10
370.3961724524852
 20
609.9108056136827
 30
0.0
 10
370.2802938236055
 20
609.9168440678695
 30
0.0
 10
370.0619199473149
 20
609.9377384685395
 30
0.0
 10
369.9672622142534
 20
609.9532503733752
 30
0.0
 10
369.852026240158
 20
609.9928355423579
 30
0.0
 10
369.8170787288981
 20
610.010268820155
 30
0.0
 10
369.7512997117956
 20
610.0586789128027
 30
0.0
 10
369.7230082562892
 20
610.0911509518082
 30
0.0
 10
369.6564652223679
 20
610.2027914501194
 30
0.0
 10
369.629094738164
 20
610.2933322830502
 30
0.0
 10
369.6000000000058
 20
610.3895769021801
 30
0.0
  0
LINE
  5
1C51
330
85F
100
AcDbEntity
  8
OUTLINE
100
AcDbLine
 10
369.4999999999855
 20
-228.8270508600908
 30
0.0
 11
-368.5000000000147
 21
-228.8270508600899
 31
0.0
  0
LINE
  5
1C52
330
85F
100
AcDbEntity
  8
OUTLINE
100
AcDbLine
 10
-368.5000000000147
 20
-228.8270508600908
 30
0.0
 11
-368.5000000000147
 21
-227.9270508600903
 31
0.0
  0
LINE
  5
1C53
330
85F
100
AcDbEntity
  8
OUTLINE
100
AcDbLine
 10
369.4999999999855
 20
-228.8270508600908
 30
0.0
 11
369.4999999999855
 21
-227.9270508600903
 31
0.0
  0
LINE
  5
1C54
330
85F
100
AcDbEntity
  8
OUTLINE
100
AcDbLine
 10
-368.5000000000147
 20
-227.9270508600903
 30
0.0
 11
369.4999999999855
 21
-227.9270508600903
 31
0.0
  0
LINE
  5
1C55
330
85F
100
AcDbEntity
  8
OUTLINE
100
AcDbLine
 10
-368.5000000000147
 20
-227.9270508600903
 30
0.0
 11
-368.5000000000147
 21
420.6677309871865
 31
0.0
  0
LINE
  5
1C56
330
85F
100
AcDbEntity
  8
OUTLINE
100
AcDbLine
 10
369.4999999999855
 20
420.6677309871666
 30
0.0
 11
369.4999999999855
 21
-227.9270508600903
 31
0.0
  0
LINE
  5
1C57
330
85F
100
AcDbEntity
  8
OUTLINE
100
AcDbLine
 10
369.5
 20
420.6677309871701
 30
0.0
 11
366.5
 21
417.6677309871701
 31
0.0
  0
LINE
  5
1C58
330
85F
100
AcDbEntity
  8
OUTLINE
100
AcDbLine
 10
-365.5
 20
417.6677309871883
 30
0.0
 11
-368.5
 21
420.6677309871883
 31
0.0
  0
LINE
  5
1C59
330
85F
100
AcDbEntity
  8
OUTLINE
100
AcDbLine
 10
366.5000000000147
 20
627.610423097809
 30
0.0
 11
369.5000000000145
 21
624.6104230978088
 31
0.0
  0
LINE
  5
1C5A
330
85F
100
AcDbEntity
  8
OUTLINE
100
AcDbLine
 10
-368.4999999999782
 20
624.6104230978271
 30
0.0
 11
-365.4999999999782
 21
627.6104230978271
 31
0.0
  0
LINE
  5
1C5B
330
85F
100
AcDbEntity
  8
OUTLINE
100
AcDbLine
 10
366.5
 20
417.6677309871701
 30
0.0
 11
-365.5
 21
417.6677309871883
 31
0.0
  0
LINE
  5
1C5C
330
85F
100
AcDbEntity
  8
OUTLINE
100
AcDbLine
 10
369.5
 20
437.6677309871701
 30
0.0
 11
369.5
 21
420.6677309871701
 31
0.0
  0
LINE
  5
1C5D
330
85F
100
AcDbEntity
  8
OUTLINE
100
AcDbLine
 10
-368.5
 20
420.6677309871883
 30
0.0
 11
-368.5
 21
437.6677309871883
 31
0.0
  0
LINE
  5
1C5E
330
85F
100
AcDbEntity
  8
OUTLINE
100
AcDbLine
 10
-365.4999999999782
 20
627.6104230978271
 30
0.0
 11
366.5000000000147
 21
627.610423097809
 31
0.0
  0
LINE
  5
1C5F
330
85F
100
AcDbEntity
  8
OUTLINE
100
AcDbLine
 10
-368.4999999999782
 20
610.6104230978271
 30
0.0
 11
-368.4999999999782
 21
624.6104230978271
 31
0.0
  0
LINE
  5
1C60
330
85F
100
AcDbEntity
  8
OUTLINE
100
AcDbLine
 10
369.5000000000145
 20
624.6104230978088
 30
0.0
 11
369.5000000000145
 21
610.610423097809
 31
0.0
  0
LINE
  5
1C61
330
85F
100
AcDbEntity
  8
OUTLINE
100
AcDbLine
 10
-368.5
 20
438.447153850593
 30
0.0
 11
-368.4999999999782
 21
610.5238205574496
 31
0.0
  0
LINE
  5
1C62
330
85F
100
AcDbEntity
  8
OUTLINE
100
AcDbLine
 10
369.5000000000145
 20
610.5238205574277
 30
0.0
 11
369.5
 21
438.4471538505748
 31
0.0
  0
LINE
  5
1C63
330
85F
100
AcDbEntity
  8
OUTLINE
100
AcDbLine
 10
369.5
 20
437.6677309871701
 30
0.0
 11
-368.5
 21
437.6677309871883
 31
0.0
  0
LINE
  5
1C64
330
85F
100
AcDbEntity
  8
OUTLINE
100
AcDbLine
 10
-368.5
 20
437.6677309871883
 30
0.0
 11
-368.5
 21
438.447153850593
 31
0.0
  0
LINE
  5
1C65
330
85F
100
AcDbEntity
  8
OUTLINE
100
AcDbLine
 10
369.5
 20
438.4471538505748
 30
0.0
 11
369.5
 21
437.6677309871701
 31
0.0
  0
LINE
  5
1C66
330
85F
100
AcDbEntity
  8
OUTLINE
100
AcDbLine
 10
-368.5
 20
438.447153850593
 30
0.0
 11
369.5
 21
438.4471538505748
 31
0.0
  0
LINE
  5
1C67
330
85F
100
AcDbEntity
  8
OUTLINE
100
AcDbLine
 10
-368.4999999999782
 20
610.6104230978271
 30
0.0
 11
369.5000000000145
 21
610.610423097809
 31
0.0
  0
LINE
  5
1C68
330
85F
100
AcDbEntity
  8
OUTLINE
100
AcDbLine
 10
369.5000000000145
 20
610.5238205574277
 30
0.0
 11
-368.4999999999782
 21
610.5238205574496
 31
0.0
  0
LINE
  5
1C69
330
85F
100
AcDbEntity
  8
OUTLINE
100
AcDbLine
 10
369.5000000000145
 20
610.5238205574277
 30
0.0
 11
369.5000000000145
 21
610.610423097809
 31
0.0
  0
LINE
  5
1C6A
330
85F
100
AcDbEntity
  8
OUTLINE
100
AcDbLine
 10
-368.4999999999782
 20
610.6104230978271
 30
0.0
 11
-368.4999999999782
 21
610.5238205574496
 31
0.0
  0
LINE
  5
1E28
330
85F
100
AcDbEntity
  8
SIZE
  6
Continuous
100
AcDbLine
 10
24.00000000001455
 20
650.1104230978179
 30
0.0
 11
24.00000000001456
 21
719.711670816313
 31
0.0
  0
LINE
  5
1E29
330
85F
100
AcDbEntity
  8
SIZE
  6
Continuous
100
AcDbLine
 10
352.8000000000174
 20
650.1104230978088
 30
0.0
 11
352.8000000000174
 21
719.711670816313
 31
0.0
  0
LINE
  5
1E2A
330
85F
100
AcDbEntity
  8
SIZE
  6
Continuous
100
AcDbLine
 10
36.00000000001454
 20
699.711670816313
 30
0.0
 11
340.8000000000175
 21
699.711670816313
 31
0.0
  0
INSERT
  5
1E2B
330
85F
100
AcDbEntity
  8
SIZE
  6
Continuous
100
AcDbBlockReference
  2
_DOTBLANK
 10
24.00000000001456
 20
699.711670816313
 30
0.0
 41
12.0
 42
12.0
 43
12.0
 50
180.0
  0
INSERT
  5
1E2C
330
85F
100
AcDbEntity
  8
SIZE
  6
Continuous
100
AcDbBlockReference
  2
_DOTBLANK
 10
352.8000000000174
 20
699.711670816313
 30
0.0
 41
12.0
 42
12.0
 43
12.0
  0
MTEXT
  5
1E2D
330
85F
100
AcDbEntity
  8
SIZE
  6
Continuous
100
AcDbMText
 10
188.400000000016
 20
741.7116708163129
 30
0.0
 40
64.0
 41
0.0
 71
     5
 72
     1
  1
\A1;329
 73
     1
 44
1.0
1001
ACAD
1000
MTEXTBEGIN
1070
    73
1070
     1
1070
    44
1040
1.0
1070
    74
1070
     0
1000
MTEXTEND
  0
LINE
  5
1E2E
330
85F
100
AcDbEntity
  8
SIZE
  6
Continuous
100
AcDbLine
 10
-279.9999999999782
 20
650.1104230978252
 30
0.0
 11
-279.9999999999782
 21
719.711670816313
 31
0.0
  0
LINE
  5
1E2F
330
85F
100
AcDbEntity
  8
SIZE
  6
Continuous
100
AcDbLine
 10
24.00000000001455
 20
650.1104230978179
 30
0.0
 11
24.00000000001456
 21
719.711670816313
 31
0.0
  0
LINE
  5
1E30
330
85F
100
AcDbEntity
  8
SIZE
  6
Continuous
100
AcDbLine
 10
-267.9999999999782
 20
699.711670816313
 30
0.0
 11
12.00000000001455
 21
699.711670816313
 31
0.0
  0
INSERT
  5
1E31
330
85F
100
AcDbEntity
  8
SIZE
  6
Continuous
100
AcDbBlockReference
  2
_DOTBLANK
 10
-279.9999999999782
 20
699.711670816313
 30
0.0
 41
12.0
 42
12.0
 43
12.0
 50
180.0
  0
INSERT
  5
1E32
330
85F
100
AcDbEntity
  8
SIZE
  6
Continuous
100
AcDbBlockReference
  2
_DOTBLANK
 10
24.00000000001456
 20
699.711670816313
 30
0.0
 41
12.0
 42
12.0
 43
12.0
  0
MTEXT
  5
1E33
330
85F
100
AcDbEntity
  8
SIZE
  6
Continuous
100
AcDbMText
 10
-127.9999999999818
 20
741.7116708163129
 30
0.0
 40
64.0
 41
0.0
 71
     5
 72
     1
  1
\A1;304
 73
     1
 44
1.0
1001
ACAD
1000
MTEXTBEGIN
1070
    73
1070
     1
1070
    44
1040
1.0
1070
    74
1070
     0
1000
MTEXTEND
  0
LINE
  5
1E34
330
85F
100
AcDbEntity
  8
SIZE
  6
Continuous
100
AcDbLine
 10
-385.4999999999782
 20
627.6104230978281
 30
0.0
 11
-655.3423475300221
 21
627.6104230978281
 31
0.0
  0
LINE
  5
1E35
330
85F
100
AcDbEntity
  8
SIZE
  6
Continuous
100
AcDbLine
 10
-389.5
 20
-627.6104230978179
 30
0.0
 11
-655.3423475300222
 21
-627.6104230978179
 31
0.0
  0
LINE
  5
1E36
330
85F
100
AcDbEntity
  8
SIZE
  6
Continuous
100
AcDbLine
 10
-635.3423475300221
 20
615.6104230978279
 30
0.0
 11
-635.3423475300224
 21
-615.6104230978179
 31
0.0
  0
INSERT
  5
1E37
330
85F
100
AcDbEntity
  8
SIZE
  6
Continuous
100
AcDbBlockReference
  2
_DOTBLANK
 10
-635.3423475300221
 20
627.6104230978281
 30
0.0
 41
12.0
 42
12.0
 43
12.0
 50
90.0
  0
INSERT
  5
1E38
330
85F
100
AcDbEntity
  8
SIZE
  6
Continuous
100
AcDbBlockReference
  2
_DOTBLANK
 10
-635.3423475300224
 20
-627.6104230978179
 30
0.0
 41
12.0
 42
12.0
 43
12.0
 50
270.0
  0
MTEXT
  5
1E39
330
85F
100
AcDbEntity
  8
SIZE
  6
Continuous
100
AcDbMText
 10
-677.3423475300222
 20
0.0000000000049326
 30
0.0
 40
64.0
 41
0.0
 71
     5
 72
     1
  1
\A1;1255
 11
0.0000000000000001
 21
1.0
 31
0.0
 73
     1
 44
1.0
1001
ACAD
1000
MTEXTBEGIN
1070
    73
1070
     1
1070
    44
1040
1.0
1070
    74
1070
     0
1000
MTEXTEND
  0
LINE
  5
1E3A
330
85F
100
AcDbEntity
  8
SIZE
  6
Continuous
100
AcDbLine
 10
-388.5
 20
42.58957690218267
 30
0.0
 11
-520.9824703277988
 21
42.5895769021827
 31
0.0
  0
LINE
  5
1E3B
330
85F
100
AcDbEntity
  8
SIZE
  6
Continuous
100
AcDbLine
 10
-387.9000000000088
 20
-487.8104230978178
 30
0.0
 11
-520.9824703277989
 21
-487.8104230978178
 31
0.0
  0
LINE
  5
1E3C
330
85F
100
AcDbEntity
  8
SIZE
  6
Continuous
100
AcDbLine
 10
-500.9824703277988
 20
30.5895769021827
 30
0.0
 11
-500.9824703277991
 21
-475.8104230978178
 31
0.0
  0
INSERT
  5
1E3D
330
85F
100
AcDbEntity
  8
SIZE
  6
Continuous
100
AcDbBlockReference
  2
_DOTBLANK
 10
-500.9824703277988
 20
42.5895769021827
 30
0.0
 41
12.0
 42
12.0
 43
12.0
 50
90.0
  0
INSERT
  5
1E3E
330
85F
100
AcDbEntity
  8
SIZE
  6
Continuous
100
AcDbBlockReference
  2
_DOTBLANK
 10
-500.9824703277991
 20
-487.8104230978178
 30
0.0
 41
12.0
 42
12.0
 43
12.0
 50
270.0
  0
MTEXT
  5
1E3F
330
85F
100
AcDbEntity
  8
SIZE
  6
Continuous
100
AcDbMText
 10
-542.9824703277988
 20
-222.6104230978176
 30
0.0
 40
64.0
 41
0.0
 71
     5
 72
     1
  1
\A1;530
 11
0.0000000000000001
 21
1.0
 31
0.0
 73
     1
 44
1.0
1001
ACAD
1000
MTEXTBEGIN
1070
    73
1070
     1
1070
    44
1040
1.0
1070
    74
1070
     0
1000
MTEXTEND
  0
LINE
  5
1E40
330
85F
100
AcDbEntity
  8
SIZE
  6
Continuous
100
AcDbLine
 10
-388.5
 20
450.5895769021826
 30
0.0
 11
-520.9824703277988
 21
450.5895769021826
 31
0.0
  0
LINE
  5
1E41
330
85F
100
AcDbEntity
  8
SIZE
  6
Continuous
100
AcDbLine
 10
-388.5
 20
42.58957690218267
 30
0.0
 11
-520.9824703277989
 21
42.5895769021827
 31
0.0
  0
LINE
  5
1E42
330
85F
100
AcDbEntity
  8
SIZE
  6
Continuous
100
AcDbLine
 10
-500.9824703277988
 20
438.5895769021827
 30
0.0
 11
-500.9824703277991
 21
54.5895769021827
 31
0.0
  0
INSERT
  5
1E43
330
85F
100
AcDbEntity
  8
SIZE
  6
Continuous
100
AcDbBlockReference
  2
_DOTBLANK
 10
-500.9824703277988
 20
450.5895769021826
 30
0.0
 41
12.0
 42
12.0
 43
12.0
 50
90.0
  0
INSERT
  5
1E44
330
85F
100
AcDbEntity
  8
SIZE
  6
Continuous
100
AcDbBlockReference
  2
_DOTBLANK
 10
-500.9824703277991
 20
42.5895769021827
 30
0.0
 41
12.0
 42
12.0
 43
12.0
 50
270.0
  0
MTEXT
  5
1E45
330
85F
100
AcDbEntity
  8
SIZE
  6
Continuous
100
AcDbMText
 10
-542.9824703277991
 20
246.5895769021826
 30
0.0
 40
64.0
 41
0.0
 71
     5
 72
     1
  1
\A1;408
 11
0.0000000000000001
 21
1.0
 31
0.0
 73
     1
 44
1.0
1001
ACAD
1000
MTEXTBEGIN
1070
    73
1070
     1
1070
    44
1040
1.0
1070
    74
1070
     0
1000
MTEXTEND
  0
TEXT
  5
1E46
330
85F
100
AcDbEntity
  8
NOTE
  6
Continuous
100
AcDbText
 10
496.7628007872116
 20
-374.2833280398063
 30
0.0
 40
64.0
  1
9×φ6
 41
0.9
100
AcDbText
1001
ACAD
1000
MTEXTBEGIN
1070
    73
1070
     1
1070
    44
1040
1.0
1070
    74
1070
     0
1000
MTEXTEND
  0
INSERT
  5
1E47
330
85F
100
AcDbEntity
  8
NOTE
100
AcDbBlockReference
  2
_OPEN30
 10
361.0
 20
-487.8104230978188
 30
0.0
 41
12.0
 42
12.0
 43
12.0
 50
232.325890769332
1001
ACAD
1000
DSTYLE
1002
{
1070
    41
1040
12.0
1070
    42
1040
20.0
1070
    43
1040
200.0
1070
    44
1040
20.0
1070
    73
1070
     0
1070
    74
1070
     0
1070
    77
1070
     1
1070
    78
1070
     8
1070
   140
1040
64.0
1070
   147
1040
50.0
1070
   172
1070
     1
1070
   174
1070
     1
1070
   275
1070
     0
1070
   284
1070
     0
1070
   285
1070
     0
1070
   286
1070
     0
1070
   341
1005
AB7
1070
   342
1005
AB2
1002
}
  0
LWPOLYLINE
  5
1E48
330
85F
100
AcDbEntity
  8
NOTE
100
AcDbPolyline
 90
        3
 70
     0
 43
0.0
 10
368.334033283945
 20
-478.3124256357226
 10
434.7628007872116
 20
-392.2833280398063
 10
725.5170865014973
 20
-392.2833280398063
1001
ACAD
1000
DSTYLE
1002
{
1070
    41
1040
12.0
1070
    42
1040
20.0
1070
    43
1040
200.0
1070
    44
1040
20.0
1070
    73
1070
     0
1070
    74
1070
     0
1070
    77
1070
     1
1070
    78
1070
     8
1070
   140
1040
64.0
1070
   147
1040
50.0
1070
   172
1070
     1
1070
   174
1070
     1
1070
   275
1070
     0
1070
   284
1070
     0
1070
   285
1070
     0
1070
   286
1070
     0
1070
   341
1005
AB7
1070
   342
1005
AB2
1002
}
  0
LINE
  5
1E49
330
85F
100
AcDbEntity
  8
SIZE
  6
Continuous
100
AcDbLine
 10
-369.5
 20
-647.6104230978179
 30
0.0
 11
-369.5
 21
-906.9452125644485
 31
0.0
  0
LINE
  5
1E4A
330
85F
100
AcDbEntity
  8
SIZE
  6
Continuous
100
AcDbLine
 10
370.5
 20
-646.4006620825438
 30
0.0
 11
370.5
 21
-906.9452125644485
 31
0.0
  0
LINE
  5
1E4B
330
85F
100
AcDbEntity
  8
SIZE
  6
Continuous
100
AcDbLine
 10
-357.5
 20
-886.9452125644484
 30
0.0
 11
358.5
 21
-886.9452125644484
 31
0.0
  0
INSERT
  5
1E4C
330
85F
100
AcDbEntity
  8
SIZE
  6
Continuous
100
AcDbBlockReference
  2
_DOTBLANK
 10
-369.5
 20
-886.9452125644484
 30
0.0
 41
12.0
 42
12.0
 43
12.0
 50
180.0
  0
INSERT
  5
1E4D
330
85F
100
AcDbEntity
  8
SIZE
  6
Continuous
100
AcDbBlockReference
  2
_DOTBLANK
 10
370.5
 20
-886.9452125644484
 30
0.0
 41
12.0
 42
12.0
 43
12.0
  0
MTEXT
  5
1E4E
330
85F
100
AcDbEntity
  8
SIZE
  6
Continuous
100
AcDbMText
 10
0.5000000000000026
 20
-844.9452125644484
 30
0.0
 40
64.0
 41
0.0
 71
     5
 72
     1
  1
\A1;740
 73
     1
 44
1.0
1001
ACAD
1000
MTEXTBEGIN
1070
    73
1070
     1
1070
    44
1040
1.0
1070
    74
1070
     0
1000
MTEXTEND
  0
LINE
  5
1E4F
330
85F
100
AcDbEntity
  8
SIZE
  6
Continuous
100
AcDbLine
 10
361.0
 20
-515.3104230978186
 30
0.0
 11
361.0
 21
-804.6699701925488
 31
0.0
  0
LINE
  5
1E50
330
85F
100
AcDbEntity
  8
SIZE
  6
Continuous
100
AcDbLine
 10
-361.0
 20
-515.3104230978178
 30
0.0
 11
-361.0
 21
-804.6699701925488
 31
0.0
  0
LINE
  5
1E51
330
85F
100
AcDbEntity
  8
SIZE
  6
Continuous
100
AcDbLine
 10
349.0
 20
-784.6699701925489
 30
0.0
 11
-349.0
 21
-784.6699701925489
 31
0.0
  0
INSERT
  5
1E52
330
85F
100
AcDbEntity
  8
SIZE
  6
Continuous
100
AcDbBlockReference
  2
_DOTBLANK
 10
361.0
 20
-784.6699701925489
 30
0.0
 41
12.0
 42
12.0
 43
12.0
  0
INSERT
  5
1E53
330
85F
100
AcDbEntity
  8
SIZE
  6
Continuous
100
AcDbBlockReference
  2
_DOTBLANK
 10
-361.0
 20
-784.6699701925489
 30
0.0
 41
12.0
 42
12.0
 43
12.0
 50
180.0
  0
MTEXT
  5
1E54
330
85F
100
AcDbEntity
  8
SIZE
  6
Continuous
100
AcDbMText
 10
0.0000000000000026
 20
-742.6699701925489
 30
0.0
 40
64.0
 41
0.0
 71
     5
 72
     1
  1
\A1;722
 73
     1
 44
1.0
1001
ACAD
1000
MTEXTBEGIN
1070
    73
1070
     1
1070
    44
1040
1.0
1070
    74
1070
     0
1000
MTEXTEND
  0
ENDSEC
  0
SECTION
  2
OBJECTS
  0
DICTIONARY
  5
84D
330
0
100
AcDbDictionary
281
     1
  3
ACAD_2007HEADERVARS_RT
350
1E57
  3
ACAD_COLOR
350
1036
  3
ACAD_GROUP
350
84E
  3
ACAD_LAYOUT
350
85A
  3
ACAD_MATERIAL
350
1035
  3
ACAD_MLEADERSTYLE
350
13BE
  3
ACAD_MLINESTYLE
350
857
  3
ACAD_PLOTSETTINGS
350
859
  3
ACAD_PLOTSTYLENAME
350
B82
  3
ACAD_SCALELIST
350
139C
  3
ACAD_TABLESTYLE
350
1037
  3
ACAD_VISUALSTYLE
350
138B
  3
AcadDim
350
D58
  3
ACDB_RECOMPOSE_DATA
350
1518
  3
AcDbVariableDictionary
350
B87
  3
AcmDictionary
350
10FD
  3
AMG
350
103C
  3
AMGSNAPSETTINGS
350
1153
  3
DWGPROPS
350
1E56
  3
MAPISURF_MODULE
350
1DD0
1001
ACAD
1000
TREAT_AS_HARD
1070
     0
  0
DICTIONARY
  5
16C2
330
843
100
AcDbDictionary
280
     1
281
     1
  3
ACAD_LAYERSTATES
360
16C3
  0
DICTIONARY
  5
14FD
330
851
100
AcDbDictionary
280
     1
281
     1
  3
ADSK_XREC_LAYER_RECONCILED
360
14FE
  0
DICTIONARY
  5
14FF
330
863
100
AcDbDictionary
280
     1
281
     1
  3
ADSK_XREC_LAYER_RECONCILED
360
1500
  0
DICTIONARY
  5
1501
330
866
100
AcDbDictionary
280
     1
281
     1
  3
ADSK_XREC_LAYER_RECONCILED
360
1502
  0
DICTIONARY
  5
1503
330
867
100
AcDbDictionary
280
     1
281
     1
  3
ADSK_XREC_LAYER_RECONCILED
360
1504
  0
DICTIONARY
  5
1505
330
868
100
AcDbDictionary
280
     1
281
     1
  3
ADSK_XREC_LAYER_RECONCILED
360
1506
  0
DICTIONARY
  5
1507
330
869
100
AcDbDictionary
280
     1
281
     1
  3
ADSK_XREC_LAYER_RECONCILED
360
1508
  0
DICTIONARY
  5
1509
330
86B
100
AcDbDictionary
280
     1
281
     1
  3
ADSK_XREC_LAYER_RECONCILED
360
150A
  0
DICTIONARY
  5
150B
330
86C
100
AcDbDictionary
280
     1
281
     1
  3
ADSK_XREC_LAYER_RECONCILED
360
150C
  0
DICTIONARY
  5
150D
330
86D
100
AcDbDictionary
280
     1
281
     1
  3
ADSK_XREC_LAYER_RECONCILED
360
150E
  0
DICTIONARY
  5
150F
330
86E
100
AcDbDictionary
280
     1
281
     1
  3
ADSK_XREC_LAYER_RECONCILED
360
1510
  0
DICTIONARY
  5
1511
330
86F
100
AcDbDictionary
280
     1
281
     1
  3
ADSK_XREC_LAYER_RECONCILED
360
1512
  0
DICTIONARY
  5
B4F
330
85F
100
AcDbDictionary
280
     1
281
     1
  3
ACAD_INDEX
360
115A
  3
ACAD_LAYOUTSELFREF
360
B50
  3
ACAD_SORTENTS
360
1366
  0
DICTIONARY
  5
B4D
330
85B
100
AcDbDictionary
280
     1
281
     1
  3
ACAD_LAYOUTSELFREF
360
B4E
  0
DICTIONARY
  5
1E57
102
{ACAD_REACTORS
330
84D
102
}
330
84D
100
AcDbDictionary
281
     1
  3
DIMARCSYM
350
1E58
  3
DIMLTEX1
350
1E5A
  3
DIMLTEX2
350
1E5B
  3
DIMLTYPE
350
1E59
  0
DICTIONARY
  5
1036
102
{ACAD_REACTORS
330
84D
102
}
330
84D
100
AcDbDictionary
281
     1
  0
DICTIONARY
  5
84E
102
{ACAD_REACTORS
330
84D
102
}
330
84D
100
AcDbDictionary
281
     1
1001
ACAD
1000
TREAT_AS_HARD
1070
     0
  0
DICTIONARY
  5
85A
102
{ACAD_REACTORS
330
84D
102
}
330
84D
100
AcDbDictionary
281
     1
  3
Model
350
B84
  3
ﾚｲｱｳﾄ1
350
B85
1001
ACAD
1000
TREAT_AS_HARD
1070
     0
  0
DICTIONARY
  5
1035
102
{ACAD_REACTORS
330
84D
102
}
330
84D
100
AcDbDictionary
281
     1
  3
ByBlock
350
137B
  3
ByLayer
350
1373
  3
Global
350
1383
  0
DICTIONARY
  5
13BE
102
{ACAD_REACTORS
330
84D
102
}
330
84D
100
AcDbDictionary
281
     1
  3
Standard
350
13BF
  0
DICTIONARY
  5
857
102
{ACAD_REACTORS
330
84D
102
}
330
84D
100
AcDbDictionary
281
     1
  3
STANDARD
350
858
1001
ACAD
1000
TREAT_AS_HARD
1070
     0
  0
DICTIONARY
  5
859
102
{ACAD_REACTORS
330
84D
102
}
330
84D
100
AcDbDictionary
281
     1
1001
ACAD
1000
TREAT_AS_HARD
1070
     0
  0
ACDBDICTIONARYWDFLT
  5
B82
102
{ACAD_REACTORS
330
84D
102
}
330
84D
100
AcDbDictionary
281
     1
  3
Normal
350
B83
100
AcDbDictionaryWithDefault
340
B83
  0
DICTIONARY
  5
139C
102
{ACAD_REACTORS
330
84D
102
}
330
84D
100
AcDbDictionary
281
     1
  3
A0
350
139D
  3
A1
350
139E
  3
A2
350
139F
  3
A3
350
13A0
  3
A4
350
13A1
  3
A5
350
13A2
  3
A6
350
13A3
  3
A7
350
13A4
  3
A8
350
13A5
  3
A9
350
13A6
  3
B0
350
13A7
  3
B1
350
13A8
  3
B2
350
13A9
  3
B3
350
13AA
  3
B4
350
13AB
  3
B5
350
13AC
  3
B6
350
13AD
  3
B7
350
13AE
  3
B8
350
13AF
  3
B9
350
13B0
  3
C0
350
13B1
  3
C1
350
13B2
  3
C2
350
13B3
  3
C3
350
13B4
  3
C4
350
13B5
  3
C5
350
13B6
  3
C6
350
13B7
  3
C7
350
13B8
  3
C8
350
13B9
  3
C9
350
13BA
  3
D0
350
13BB
  3
D1
350
13BC
  3
D2
350
13BD
  0
DICTIONARY
  5
1037
102
{ACAD_REACTORS
330
84D
102
}
330
84D
100
AcDbDictionary
281
     1
  3
Standard
350
1038
  0
DICTIONARY
  5
138B
102
{ACAD_REACTORS
330
84D
102
}
330
84D
100
AcDbDictionary
281
     1
  3
2dWireframe
350
1391
  3
3D Hidden
350
1393
  3
3dWireframe
350
1392
  3
Basic
350
1390
  3
Brighten
350
1397
  3
ColorChange
350
139B
  3
Conceptual
350
1394
  3
Dim
350
1396
  3
Facepattern
350
139A
  3
Flat
350
138C
  3
FlatWithEdges
350
138D
  3
Gouraud
350
138E
  3
GouraudWithEdges
350
138F
  3
Linepattern
350
1399
  3
Realistic
350
1395
  3
Thicken
350
1398
  0
XRECORD
  5
D58
102
{ACAD_REACTORS
330
84D
102
}
330
84D
100
AcDbXrecord
280
     1
 90
   990106
  3

 60
     0
 61
     0
 62
     1
 63
     3
 64
     0
 65
     0
 66
     0
 67
     3
 68
     1
 69
     0
 70
     0
 71
     0
 72
     0
 40
0.0
170
     0
340
D5A
  0
XRECORD
  5
1518
102
{ACAD_REACTORS
330
84D
102
}
330
84D
100
AcDbXrecord
280
     1
 90
        1
330
1038
  0
DICTIONARY
  5
B87
102
{ACAD_REACTORS
330
84D
102
}
330
84D
100
AcDbDictionary
281
     1
  3
CANNOSCALE
350
1514
  3
CMLEADERSTYLE
350
1513
  3
CTABLESTYLE
350
1168
  3
DIMASSOC
350
B88
  3
INDEXCTL
350
1169
  3
PROJECTNAME
350
116A
  3
SORTENTS
350
1515
  0
DICTIONARY
  5
10FD
102
{ACAD_REACTORS
330
84D
102
}
330
84D
100
AcDbDictionary
281
     1
  3
AcmStdDictionary
350
1109
  3
AMDTSECTSYM_ARROWCOLOR
350
1129
  0
DICTIONARY
  5
103C
102
{ACAD_REACTORS
330
84D
102
}
330
84D
100
AcDbDictionary
281
     1
  3
AcMgSettings
350
103D
  0
DICTIONARY
  5
1153
102
{ACAD_REACTORS
330
84D
102
}
330
84D
100
AcDbDictionary
281
     1
  3
DIMENSION
350
1158
  3
FEA
350
1157
  3
HATCH (1)
350
1154
  3
HATCH (2)
350
1155
  3
SIMPLE WELD
350
1159
  3
SYMBOLS
350
1156
  0
XRECORD
  5
1E56
102
{ACAD_REACTORS
330
84D
102
}
330
84D
100
AcDbXrecord
280
     1
  1
DWGPROPS COOKIE
  2

  3

  4

  6

  7

  8
A988006
  9

300
AmdtFileType=84
301
=
302
=
303
=
304
=
305
=
306
=
307
=
308
=
309
=
 40
0.8456854976851852
 41
2452321.396199653
 42
2456533.546815127
  1

 90
        1
  0
DICTIONARY
  5
16C3
102
{ACAD_REACTORS
330
16C2
102
}
330
16C2
100
AcDbDictionary
281
     1
  0
XRECORD
  5
14FE
102
{ACAD_REACTORS
330
14FD
102
}
330
14FD
100
AcDbXrecord
280
     1
290
     1
  0
XRECORD
  5
1500
102
{ACAD_REACTORS
330
14FF
102
}
330
14FF
100
AcDbXrecord
280
     1
290
     1
  0
XRECORD
  5
1502
102
{ACAD_REACTORS
330
1501
102
}
330
1501
100
AcDbXrecord
280
     1
290
     1
  0
XRECORD
  5
1504
102
{ACAD_REACTORS
330
1503
102
}
330
1503
100
AcDbXrecord
280
     1
290
     1
  0
XRECORD
  5
1506
102
{ACAD_REACTORS
330
1505
102
}
330
1505
100
AcDbXrecord
280
     1
290
     1
  0
XRECORD
  5
1508
102
{ACAD_REACTORS
330
1507
102
}
330
1507
100
AcDbXrecord
280
     1
290
     1
  0
XRECORD
  5
150A
102
{ACAD_REACTORS
330
1509
102
}
330
1509
100
AcDbXrecord
280
     1
290
     1
  0
XRECORD
  5
150C
102
{ACAD_REACTORS
330
150B
102
}
330
150B
100
AcDbXrecord
280
     1
290
     1
  0
XRECORD
  5
150E
102
{ACAD_REACTORS
330
150D
102
}
330
150D
100
AcDbXrecord
280
     1
290
     1
  0
XRECORD
  5
1510
102
{ACAD_REACTORS
330
150F
102
}
330
150F
100
AcDbXrecord
280
     1
290
     1
  0
XRECORD
  5
1512
102
{ACAD_REACTORS
330
1511
102
}
330
1511
100
AcDbXrecord
280
     1
290
     1
  0
DICTIONARY
  5
115A
102
{ACAD_REACTORS
330
B4F
102
}
330
B4F
100
AcDbDictionary
281
     1
  3
*A1
350
115B
  0
XRECORD
  5
B50
102
{ACAD_REACTORS
330
B4F
102
}
330
B4F
100
AcDbXrecord
280
     1
340
85F
  0
SORTENTSTABLE
  5
1366
102
{ACAD_REACTORS
330
B4F
102
}
330
B4F
100
AcDbSortentsTable
330
85F
331
1C34
  5
1C61
331
1C23
  5
1C50
331
1C12
  5
1C3F
331
1C01
  5
1C2E
331
1BF0
  5
1C1D
331
1C45
  5
1E2F
331
1C56
  5
1E40
331
1BBE
  5
1BBE
331
1BAD
  5
1BAD
331
1B9C
  5
1B9C
331
1BCF
  5
1BCF
331
1C61
  5
1E4B
331
1E3E
  5
1BFD
331
1E4F
  5
1BE5
331
1E2D
  5
1BDF
331
1B8D
  5
1B8D
331
1B7C
  5
1B7C
331
1B6B
  5
1B6B
331
1B5A
  5
1B5A
331
1B49
  5
1B49
331
1B38
  5
1B38
331
957
  5
957
331
1BE0
  5
1C0D
331
1C24
  5
1C51
331
1C13
  5
1C40
331
1C02
  5
1C2F
331
1BF1
  5
1C1E
331
1E50
  5
1BE6
331
1C35
  5
1C62
331
1BDC
  5
1C09
331
1C46
  5
1E30
331
1C57
  5
1E41
331
1BBF
  5
1BBF
331
1BAE
  5
1BAE
331
1B9D
  5
1B9D
331
1C62
  5
1E4C
331
1E3F
  5
1BFE
331
1E2E
  5
1BD4
331
1B8E
  5
1B8E
331
1B7D
  5
1B7D
331
1B6C
  5
1B6C
331
1B5B
  5
1B5B
331
1B4A
  5
1B4A
331
1B39
  5
1B39
331
958
  5
958
331
1BE1
  5
1C0E
331
1E40
  5
1BF1
331
1C25
  5
1C52
331
1C14
  5
1C41
331
1C03
  5
1C30
331
1BF2
  5
1C1F
331
1C36
  5
1C63
331
1BDD
  5
1C0A
331
1E51
  5
1BE7
331
1C47
  5
1E31
331
1BC0
  5
1BC0
331
1BAF
  5
1BAF
331
1B9E
  5
1B9E
331
1C63
  5
1E4D
331
1E2F
  5
1BD5
331
1B8F
  5
1B8F
331
1B7E
  5
1B7E
331
1B6D
  5
1B6D
331
1B5C
  5
1B5C
331
1B4B
  5
1B4B
331
1B3A
  5
1B3A
331
1BE2
  5
1C0F
331
1E41
  5
1BF2
331
1C26
  5
1C53
331
1C15
  5
1C42
331
1C04
  5
1C31
331
1BF3
  5
1C20
331
1C37
  5
1C64
331
1BDE
  5
1C0B
331
1E52
  5
1BE8
331
1E30
  5
1BD6
331
1C48
  5
1E32
331
1BC1
  5
1BC1
331
1BB0
  5
1BB0
331
1B9F
  5
1B9F
331
1B90
  5
1B90
331
1C64
  5
1E4E
331
1B7F
  5
1B7F
331
1B6E
  5
1B6E
331
1B5D
  5
1B5D
331
1B4C
  5
1B4C
331
1B3B
  5
1B3B
331
1BE3
  5
1C10
331
1E42
  5
1BF3
331
1C27
  5
1C54
331
1C16
  5
1C43
331
1C05
  5
1C32
331
1BF4
  5
1C21
331
1C38
  5
1C65
331
1BDF
  5
1C0C
331
1E53
  5
1BE9
331
1E31
  5
1BD7
331
1C49
  5
1E33
331
1BC2
  5
1BC2
331
1BB1
  5
1BB1
331
1BA0
  5
1BA0
331
1B91
  5
1B91
331
1B80
  5
1B80
331
1C65
  5
1E4F
331
1B6F
  5
1B6F
331
1B5E
  5
1B5E
331
1B4D
  5
1B4D
331
1B3C
  5
1B3C
331
1BE4
  5
1C11
331
1E43
  5
1BF4
331
1C39
  5
1C66
331
1C28
  5
1C55
331
1C17
  5
1C44
331
1C06
  5
1C33
331
1BF5
  5
1C22
331
1E54
  5
1BEA
331
1E32
  5
1BD8
331
1C4A
  5
1E34
331
1BC3
  5
1BC3
331
1BB2
  5
1BB2
331
1BA1
  5
1BA1
331
1B92
  5
1B92
331
1B81
  5
1B81
331
1B70
  5
1B70
331
1C66
  5
1E50
331
1B5F
  5
1B5F
331
1B4E
  5
1B4E
331
1B3D
  5
1B3D
331
1C18
  5
1C45
331
1C07
  5
1C34
331
1BF6
  5
1C23
331
1BE5
  5
1C12
331
1E44
  5
1BF5
331
1E33
  5
1BD9
331
1C3A
  5
1C67
331
1C29
  5
1C56
331
1BD0
  5
1BD0
331
1C4B
  5
1E35
331
1BC4
  5
1BC4
331
1BB3
  5
1BB3
331
1BA2
  5
1BA2
331
1B93
  5
1B93
331
1B82
  5
1B82
331
1B71
  5
1B71
331
1B60
  5
1B60
331
1C67
  5
1E51
331
1B4F
  5
1B4F
331
1B3E
  5
1B3E
331
1E34
  5
1BFF
331
1C19
  5
1C46
331
1C08
  5
1C35
331
1BF7
  5
1C24
331
1BE6
  5
1C13
331
1E45
  5
1BF6
331
1C3B
  5
1C68
331
1C2A
  5
1C57
331
1BD1
  5
1BD1
331
1C4C
  5
1E36
331
1BC5
  5
1BC5
331
1BB4
  5
1BB4
331
1BA3
  5
1BA3
331
1B94
  5
1B94
331
1B83
  5
1B83
331
1B72
  5
1B72
331
1B61
  5
1B61
331
1B50
  5
1B50
331
1B3F
  5
1B3F
331
1C58
  5
1E42
331
1C3C
  5
1C69
331
1C2B
  5
1C58
331
1C1A
  5
1C47
331
1C09
  5
1C36
331
1BF8
  5
1C25
331
1BE7
  5
1C14
331
1E46
  5
1C08
331
1E35
  5
1C00
331
1C4D
  5
1E37
331
1BC6
  5
1BC6
331
1BB5
  5
1BB5
331
1BA4
  5
1BA4
331
1B95
  5
1B95
331
1B84
  5
1B84
331
1B73
  5
1B73
331
1B62
  5
1B62
331
1B51
  5
1B51
331
1B40
  5
1B40
331
1C59
  5
1E43
331
1C3D
  5
1C6A
331
1C2C
  5
1C59
331
1C1B
  5
1C48
331
1C0A
  5
1C37
331
1BF9
  5
1C26
331
1BE8
  5
1C15
331
1E47
  5
1C06
331
1E36
  5
1C01
331
1C4E
  5
1E38
331
1BC7
  5
1BC7
331
1BB6
  5
1BB6
331
1BA5
  5
1BA5
331
1B96
  5
1B96
331
1B85
  5
1B85
331
1B74
  5
1B74
331
1B63
  5
1B63
331
1B52
  5
1B52
331
1B41
  5
1B41
331
1BC8
  5
1BC8
331
1C5A
  5
1E44
331
1C1C
  5
1C49
331
1C0B
  5
1C38
331
1BFA
  5
1C27
331
1BE9
  5
1C16
331
1E48
  5
1C07
331
1E37
  5
1C02
331
1C3E
  5
1E28
331
1C2D
  5
1C5A
331
1C4F
  5
1E39
331
1BB7
  5
1BB7
331
1BA6
  5
1BA6
331
1B97
  5
1B97
331
1B86
  5
1B86
331
1B75
  5
1B75
331
1B64
  5
1B64
331
1B53
  5
1B53
331
1B42
  5
1B42
331
1B31
  5
1B31
331
1C50
  5
1E3A
331
1BC9
  5
1BC9
331
1BB8
  5
1BB8
331
1C5B
  5
1E45
331
1E38
  5
1C03
331
1C3F
  5
1E29
331
1C2E
  5
1C5B
331
1C1D
  5
1C4A
331
1C0C
  5
1C39
331
1BFB
  5
1C28
331
1BEA
  5
1C17
331
1E49
  5
1BEB
331
1BA7
  5
1BA7
331
1B87
  5
1B87
331
1B76
  5
1B76
331
1B65
  5
1B65
331
1B54
  5
1B54
331
1B43
  5
1B43
331
1B32
  5
1B32
331
1C40
  5
1E2A
331
1C51
  5
1E3B
331
1BCA
  5
1BCA
331
1BB9
  5
1BB9
331
1BA8
  5
1BA8
331
1C5C
  5
1E46
331
1E39
  5
1C04
331
1C2F
  5
1C5C
331
1C1E
  5
1C4B
331
1C0D
  5
1C3A
331
1BFC
  5
1C29
331
1BEB
  5
1C18
331
1E4A
  5
1BEC
331
1E28
  5
1BDA
331
1B88
  5
1B88
331
1B77
  5
1B77
331
1B66
  5
1B66
331
1B55
  5
1B55
331
1B44
  5
1B44
331
1B33
  5
1B33
331
1C30
  5
1C5D
331
1C41
  5
1E2B
331
1C52
  5
1E3C
331
1BBA
  5
1BBA
331
1BA9
  5
1BA9
331
1B98
  5
1B98
331
1BCB
  5
1BCB
331
1C5D
  5
1E47
331
1E3A
  5
1BF7
331
1C1F
  5
1C4C
331
1C0E
  5
1C3B
331
1BFD
  5
1C2A
331
1BEC
  5
1C19
331
1E4B
  5
1BED
331
1E29
  5
1BDB
331
1B89
  5
1B89
331
1B78
  5
1B78
331
1B67
  5
1B67
331
1B56
  5
1B56
331
1B45
  5
1B45
331
1B34
  5
1B34
331
953
  5
953
331
1C68
  5
1E52
331
1C31
  5
1C5E
331
1C20
  5
1C4D
331
1C42
  5
1E2C
331
1C53
  5
1E3D
331
1BBB
  5
1BBB
331
1BAA
  5
1BAA
331
1B99
  5
1B99
331
1BCC
  5
1BCC
331
1C5E
  5
1E48
331
1E3B
  5
1BFA
331
1C0F
  5
1C3C
331
1BFE
  5
1C2B
331
1BED
  5
1C1A
331
1E4C
  5
1BEE
331
1E2A
  5
1BDC
331
1B8A
  5
1B8A
331
1B79
  5
1B79
331
1B68
  5
1B68
331
1B57
  5
1B57
331
1B46
  5
1B46
331
1B35
  5
1B35
331
954
  5
954
331
1C69
  5
1E53
331
1C10
  5
1C3D
331
1C21
  5
1C4E
331
1C32
  5
1C5F
331
1BD9
  5
1C05
331
1C43
  5
1E2D
331
1C54
  5
1E3E
331
1BBC
  5
1BBC
331
1BAB
  5
1BAB
331
1B9A
  5
1B9A
331
1BCD
  5
1BCD
331
1C5F
  5
1E49
331
1E3C
  5
1BFB
331
1BFF
  5
1C2C
331
1BEE
  5
1C1B
331
1E4D
  5
1BEF
331
1E2B
  5
1BDD
331
1B8B
  5
1B8B
331
1B7A
  5
1B7A
331
1B69
  5
1B69
331
1B58
  5
1B58
331
1B47
  5
1B47
331
1B36
  5
1B36
331
955
  5
955
331
1C6A
  5
1E54
331
1C11
  5
1C3E
331
1C00
  5
1C2D
331
1C33
  5
1C60
331
1C22
  5
1C4F
331
1C44
  5
1E2E
331
1C55
  5
1E3F
331
1BBD
  5
1BBD
331
1BAC
  5
1BAC
331
1B9B
  5
1B9B
331
1BCE
  5
1BCE
331
1C60
  5
1E4A
331
1E3D
  5
1BFC
331
1BEF
  5
1C1C
331
1E4E
  5
1BF0
331
1E2C
  5
1BDE
331
1B8C
  5
1B8C
331
1B7B
  5
1B7B
331
1B6A
  5
1B6A
331
1B59
  5
1B59
331
1B48
  5
1B48
331
1B37
  5
1B37
331
956
  5
956
  0
XRECORD
  5
B4E
102
{ACAD_REACTORS
330
B4D
102
}
330
B4D
100
AcDbXrecord
280
     1
340
85B
  0
XRECORD
  5
1E58
102
{ACAD_REACTORS
330
1E57
102
}
330
1E57
100
AcDbXrecord
280
     1
 70
     1
  0
XRECORD
  5
1E5A
102
{ACAD_REACTORS
330
1E57
102
}
330
1E57
100
AcDbXrecord
280
     1
340
854
  0
XRECORD
  5
1E5B
102
{ACAD_REACTORS
330
1E57
102
}
330
1E57
100
AcDbXrecord
280
     1
340
854
  0
XRECORD
  5
1E59
102
{ACAD_REACTORS
330
1E57
102
}
330
1E57
100
AcDbXrecord
280
     1
340
854
  0
LAYOUT
  5
B84
102
{ACAD_XDICTIONARY
360
1E5C
102
}
102
{ACAD_REACTORS
330
85A
102
}
330
85A
100
AcDbPlotSettings
  1

  2
none_device
  4
Letter_(8.50_x_11.00_Inches)
  6

 40
6.349999904632567
 41
6.349999904632567
 42
6.350006103515625
 43
6.350006103515625
 44
215.8999938964844
 45
279.3999938964844
 46
0.0
 47
0.0
 48
0.0
 49
0.0
140
0.0
141
0.0
142
1.0
143
104.2323265438138
 70
 11952
 72
     0
 73
     1
 74
     0
  7
monochrome.ctb
 75
     0
147
0.0095939525976104
148
22996.38203201125
149
17812.13747292311
100
AcDbLayout
  1
Model
 70
     1
 71
     0
 10
0.0
 20
0.0
 11
12.0
 21
9.0
 12
0.0
 22
0.0
 32
0.0
 14
0.0
 24
0.0
 34
0.0
 15
0.0
 25
0.0
 35
0.0
146
0.0
 13
0.0
 23
0.0
 33
0.0
 16
1.0
 26
0.0
 36
0.0
 17
0.0
 27
1.0
 37
0.0
 76
     0
330
85F
331
136E
1001
ACAD_PSEXT
1000
なし
1000
なし
1000
適切ではありません
1000
新しいプロッタ環境設定名を選択しない限り、レイアウトは印刷されません。
1070
     0
  0
LAYOUT
  5
B85
102
{ACAD_XDICTIONARY
360
1E5E
102
}
102
{ACAD_REACTORS
330
85A
102
}
330
85A
100
AcDbPlotSettings
  1

  2
\\Server02\EPSON LP-9600SPD (3F)
  4

  6

 40
0.0
 41
0.0
 42
0.0
 43
0.0
 44
0.0
 45
0.0
 46
0.0
 47
0.0
 48
0.0
 49
0.0
140
0.0
141
0.0
142
1.0
143
1.0
 70
   688
 72
     0
 73
     0
 74
     5
  7
monochrome.ctb
 75
    16
147
1.0
148
0.0
149
0.0
100
AcDbLayout
  1
ﾚｲｱｳﾄ1
 70
     1
 71
     1
 10
0.0
 20
0.0
 11
12.0
 21
9.0
 12
0.0
 22
0.0
 32
0.0
 14
1.000000000000000E+20
 24
1.000000000000000E+20
 34
1.000000000000000E+20
 15
-1.000000000000000E+20
 25
-1.000000000000000E+20
 35
-1.000000000000000E+20
146
0.0
 13
0.0
 23
0.0
 33
0.0
 16
1.0
 26
0.0
 36
0.0
 17
0.0
 27
1.0
 37
0.0
 76
     0
330
85B
  0
MATERIAL
  5
137B
102
{ACAD_XDICTIONARY
360
137C
102
}
102
{ACAD_REACTORS
330
1035
102
}
330
1035
100
AcDbMaterial
  1
ByBlock
 72
     0
 43
0.0208333333333333
 43
0.0
 43
0.0
 43
0.0
 43
0.0
 43
0.0208333333333333
 43
0.0
 43
0.0
 43
0.0
 43
0.0
 43
1.0
 43
0.0
 43
0.0
 43
0.0
 43
0.0
 43
1.0
 77
     0
 47
0.0208333333333333
 47
0.0
 47
0.0
 47
0.0
 47
0.0
 47
0.0208333333333333
 47
0.0
 47
0.0
 47
0.0
 47
0.0
 47
1.0
 47
0.0
 47
0.0
 47
0.0
 47
0.0
 47
1.0
171
     0
 49
0.0208333333333333
 49
0.0
 49
0.0
 49
0.0
 49
0.0
 49
0.0208333333333333
 49
0.0
 49
0.0
 49
0.0
 49
0.0
 49
1.0
 49
0.0
 49
0.0
 49
0.0
 49
0.0
 49
1.0
175
     0
142
0.0208333333333333
142
0.0
142
0.0
142
0.0
142
0.0
142
0.0208333333333333
142
0.0
142
0.0
142
0.0
142
0.0
142
1.0
142
0.0
142
0.0
142
0.0
142
0.0
142
1.0
179
     0
144
0.0208333333333333
144
0.0
144
0.0
144
0.0
144
0.0
144
0.0208333333333333
144
0.0
144
0.0
144
0.0
144
0.0
144
1.0
144
0.0
144
0.0
144
0.0
144
0.0
144
1.0
147
0.0208333333333333
147
0.0
147
0.0
147
0.0
147
0.0
147
0.0208333333333333
147
0.0
147
0.0
147
0.0
147
0.0
147
1.0
147
0.0
147
0.0
147
0.0
147
0.0
147
1.0
  0
MATERIAL
  5
1373
102
{ACAD_XDICTIONARY
360
1374
102
}
102
{ACAD_REACTORS
330
1035
102
}
330
1035
100
AcDbMaterial
  1
ByLayer
 72
     0
 43
0.0208333333333333
 43
0.0
 43
0.0
 43
0.0
 43
0.0
 43
0.0208333333333333
 43
0.0
 43
0.0
 43
0.0
 43
0.0
 43
1.0
 43
0.0
 43
0.0
 43
0.0
 43
0.0
 43
1.0
 77
     0
 47
0.0208333333333333
 47
0.0
 47
0.0
 47
0.0
 47
0.0
 47
0.0208333333333333
 47
0.0
 47
0.0
 47
0.0
 47
0.0
 47
1.0
 47
0.0
 47
0.0
 47
0.0
 47
0.0
 47
1.0
171
     0
 49
0.0208333333333333
 49
0.0
 49
0.0
 49
0.0
 49
0.0
 49
0.0208333333333333
 49
0.0
 49
0.0
 49
0.0
 49
0.0
 49
1.0
 49
0.0
 49
0.0
 49
0.0
 49
0.0
 49
1.0
175
     0
142
0.0208333333333333
142
0.0
142
0.0
142
0.0
142
0.0
142
0.0208333333333333
142
0.0
142
0.0
142
0.0
142
0.0
142
1.0
142
0.0
142
0.0
142
0.0
142
0.0
142
1.0
179
     0
144
0.0208333333333333
144
0.0
144
0.0
144
0.0
144
0.0
144
0.0208333333333333
144
0.0
144
0.0
144
0.0
144
0.0
144
1.0
144
0.0
144
0.0
144
0.0
144
0.0
144
1.0
147
0.0208333333333333
147
0.0
147
0.0
147
0.0
147
0.0
147
0.0208333333333333
147
0.0
147
0.0
147
0.0
147
0.0
147
1.0
147
0.0
147
0.0
147
0.0
147
0.0
147
1.0
  0
MATERIAL
  5
1383
102
{ACAD_XDICTIONARY
360
1384
102
}
102
{ACAD_REACTORS
330
1035
102
}
330
1035
100
AcDbMaterial
  1
Global
 72
     0
 43
0.0208333333333333
 43
0.0
 43
0.0
 43
0.0
 43
0.0
 43
0.0208333333333333
 43
0.0
 43
0.0
 43
0.0
 43
0.0
 43
1.0
 43
0.0
 43
0.0
 43
0.0
 43
0.0
 43
1.0
 77
     0
 47
0.0208333333333333
 47
0.0
 47
0.0
 47
0.0
 47
0.0
 47
0.0208333333333333
 47
0.0
 47
0.0
 47
0.0
 47
0.0
 47
1.0
 47
0.0
 47
0.0
 47
0.0
 47
0.0
 47
1.0
171
     0
 49
0.0208333333333333
 49
0.0
 49
0.0
 49
0.0
 49
0.0
 49
0.0208333333333333
 49
0.0
 49
0.0
 49
0.0
 49
0.0
 49
1.0
 49
0.0
 49
0.0
 49
0.0
 49
0.0
 49
1.0
175
     0
142
0.0208333333333333
142
0.0
142
0.0
142
0.0
142
0.0
142
0.0208333333333333
142
0.0
142
0.0
142
0.0
142
0.0
142
1.0
142
0.0
142
0.0
142
0.0
142
0.0
142
1.0
179
     0
144
0.0208333333333333
144
0.0
144
0.0
144
0.0
144
0.0
144
0.0208333333333333
144
0.0
144
0.0
144
0.0
144
0.0
144
1.0
144
0.0
144
0.0
144
0.0
144
0.0
144
1.0
147
0.0208333333333333
147
0.0
147
0.0
147
0.0
147
0.0
147
0.0208333333333333
147
0.0
147
0.0
147
0.0
147
0.0
147
1.0
147
0.0
147
0.0
147
0.0
147
0.0
147
1.0
  0
MLEADERSTYLE
  5
13BF
102
{ACAD_REACTORS
330
13BE
102
}
330
13BE
100
AcDbMLeaderStyle
170
     2
171
     1
172
     0
 90
        2
 40
0.0
 41
0.0
173
     1
 91
-1056964608
340
854
 92
       -2
290
     1
 42
0.09
291
     1
 43
0.36
  3
Standard
 44
0.18
300

342
852
174
     1
178
     6
175
     1
176
     0
 93
-1056964608
 45
0.18
292
     0
297
     0
 46
0.18
 94
-1056964608
 47
1.0
 49
1.0
140
1.0
293
     1
141
0.0
294
     1
177
     0
142
1.0
295
     0
296
     0
143
0.125
1001
ACAD_MLEADERVER
1070
     2
  0
MLINESTYLE
  5
858
102
{ACAD_REACTORS
330
857
102
}
330
857
100
AcDbMlineStyle
  2
STANDARD
 70
     0
  3

 62
   256
 51
90.0
 52
90.0
 71
     2
 49
0.5
 62
   256
  6
BYLAYER
 49
-0.5
 62
   256
  6
BYLAYER
  0
ACDBPLACEHOLDER
  5
B83
102
{ACAD_REACTORS
330
B82
102
}
330
B82
  0
SCALE
  5
139D
102
{ACAD_REACTORS
330
139C
102
}
330
139C
100
AcDbScale
 70
     0
300
1:1
140
1.0
141
1.0
290
     1
  0
SCALE
  5
139E
102
{ACAD_REACTORS
330
139C
102
}
330
139C
100
AcDbScale
 70
     0
300
1:2
140
1.0
141
2.0
290
     0
  0
SCALE
  5
139F
102
{ACAD_REACTORS
330
139C
102
}
330
139C
100
AcDbScale
 70
     0
300
1:4
140
1.0
141
4.0
290
     0
  0
SCALE
  5
13A0
102
{ACAD_REACTORS
330
139C
102
}
330
139C
100
AcDbScale
 70
     0
300
1:5
140
1.0
141
5.0
290
     0
  0
SCALE
  5
13A1
102
{ACAD_REACTORS
330
139C
102
}
330
139C
100
AcDbScale
 70
     0
300
1:8
140
1.0
141
8.0
290
     0
  0
SCALE
  5
13A2
102
{ACAD_REACTORS
330
139C
102
}
330
139C
100
AcDbScale
 70
     0
300
1:10
140
1.0
141
10.0
290
     0
  0
SCALE
  5
13A3
102
{ACAD_REACTORS
330
139C
102
}
330
139C
100
AcDbScale
 70
     0
300
1:16
140
1.0
141
16.0
290
     0
  0
SCALE
  5
13A4
102
{ACAD_REACTORS
330
139C
102
}
330
139C
100
AcDbScale
 70
     0
300
1:20
140
1.0
141
20.0
290
     0
  0
SCALE
  5
13A5
102
{ACAD_REACTORS
330
139C
102
}
330
139C
100
AcDbScale
 70
     0
300
1:30
140
1.0
141
30.0
290
     0
  0
SCALE
  5
13A6
102
{ACAD_REACTORS
330
139C
102
}
330
139C
100
AcDbScale
 70
     0
300
1:40
140
1.0
141
40.0
290
     0
  0
SCALE
  5
13A7
102
{ACAD_REACTORS
330
139C
102
}
330
139C
100
AcDbScale
 70
     0
300
1:50
140
1.0
141
50.0
290
     0
  0
SCALE
  5
13A8
102
{ACAD_REACTORS
330
139C
102
}
330
139C
100
AcDbScale
 70
     0
300
1:100
140
1.0
141
100.0
290
     0
  0
SCALE
  5
13A9
102
{ACAD_REACTORS
330
139C
102
}
330
139C
100
AcDbScale
 70
     0
300
2:1
140
2.0
141
1.0
290
     0
  0
SCALE
  5
13AA
102
{ACAD_REACTORS
330
139C
102
}
330
139C
100
AcDbScale
 70
     0
300
4:1
140
4.0
141
1.0
290
     0
  0
SCALE
  5
13AB
102
{ACAD_REACTORS
330
139C
102
}
330
139C
100
AcDbScale
 70
     0
300
8:1
140
8.0
141
1.0
290
     0
  0
SCALE
  5
13AC
102
{ACAD_REACTORS
330
139C
102
}
330
139C
100
AcDbScale
 70
     0
300
10:1
140
10.0
141
1.0
290
     0
  0
SCALE
  5
13AD
102
{ACAD_REACTORS
330
139C
102
}
330
139C
100
AcDbScale
 70
     0
300
100:1
140
100.0
141
1.0
290
     0
  0
SCALE
  5
13AE
102
{ACAD_REACTORS
330
139C
102
}
330
139C
100
AcDbScale
 70
     0
300
1/128" = 1'-0"
140
0.0078125
141
12.0
290
     0
  0
SCALE
  5
13AF
102
{ACAD_REACTORS
330
139C
102
}
330
139C
100
AcDbScale
 70
     0
300
1/64" = 1'-0"
140
0.015625
141
12.0
290
     0
  0
SCALE
  5
13B0
102
{ACAD_REACTORS
330
139C
102
}
330
139C
100
AcDbScale
 70
     0
300
1/32" = 1'-0"
140
0.03125
141
12.0
290
     0
  0
SCALE
  5
13B1
102
{ACAD_REACTORS
330
139C
102
}
330
139C
100
AcDbScale
 70
     0
300
1/16" = 1'-0"
140
0.0625
141
12.0
290
     0
  0
SCALE
  5
13B2
102
{ACAD_REACTORS
330
139C
102
}
330
139C
100
AcDbScale
 70
     0
300
3/32" = 1'-0"
140
0.09375
141
12.0
290
     0
  0
SCALE
  5
13B3
102
{ACAD_REACTORS
330
139C
102
}
330
139C
100
AcDbScale
 70
     0
300
1/8" = 1'-0"
140
0.125
141
12.0
290
     0
  0
SCALE
  5
13B4
102
{ACAD_REACTORS
330
139C
102
}
330
139C
100
AcDbScale
 70
     0
300
3/16" = 1'-0"
140
0.1875
141
12.0
290
     0
  0
SCALE
  5
13B5
102
{ACAD_REACTORS
330
139C
102
}
330
139C
100
AcDbScale
 70
     0
300
1/4" = 1'-0"
140
0.25
141
12.0
290
     0
  0
SCALE
  5
13B6
102
{ACAD_REACTORS
330
139C
102
}
330
139C
100
AcDbScale
 70
     0
300
3/8" = 1'-0"
140
0.375
141
12.0
290
     0
  0
SCALE
  5
13B7
102
{ACAD_REACTORS
330
139C
102
}
330
139C
100
AcDbScale
 70
     0
300
1/2" = 1'-0"
140
0.5
141
12.0
290
     0
  0
SCALE
  5
13B8
102
{ACAD_REACTORS
330
139C
102
}
330
139C
100
AcDbScale
 70
     0
300
3/4" = 1'-0"
140
0.75
141
12.0
290
     0
  0
SCALE
  5
13B9
102
{ACAD_REACTORS
330
139C
102
}
330
139C
100
AcDbScale
 70
     0
300
1" = 1'-0"
140
1.0
141
12.0
290
     0
  0
SCALE
  5
13BA
102
{ACAD_REACTORS
330
139C
102
}
330
139C
100
AcDbScale
 70
     0
300
1-1/2" = 1'-0"
140
1.5
141
12.0
290
     0
  0
SCALE
  5
13BB
102
{ACAD_REACTORS
330
139C
102
}
330
139C
100
AcDbScale
 70
     0
300
3" = 1'-0"
140
3.0
141
12.0
290
     0
  0
SCALE
  5
13BC
102
{ACAD_REACTORS
330
139C
102
}
330
139C
100
AcDbScale
 70
     0
300
6" = 1'-0"
140
6.0
141
12.0
290
     0
  0
SCALE
  5
13BD
102
{ACAD_REACTORS
330
139C
102
}
330
139C
100
AcDbScale
 70
     0
300
1'-0" = 1'-0"
140
12.0
141
12.0
290
     0
  0
TABLESTYLE
  5
1038
102
{ACAD_XDICTIONARY
360
1516
102
}
102
{ACAD_REACTORS
330
1037
102
}
330
1037
100
AcDbTableStyle
  3
Standard
 70
     0
 71
     0
 40
0.06
 41
0.06
280
     0
281
     0
  7
STANDARD
140
0.18
170
     2
 62
     0
 63
     7
283
     0
274
    -2
284
     1
 64
     0
275
    -2
285
     1
 65
     0
276
    -2
286
     1
 66
     0
277
    -2
287
     1
 67
     0
278
    -2
288
     1
 68
     0
279
    -2
289
     1
 69
     0
  7
STANDARD
140
0.25
170
     5
 62
     0
 63
     7
283
     0
274
    -2
284
     1
 64
     0
275
    -2
285
     1
 65
     0
276
    -2
286
     1
 66
     0
277
    -2
287
     1
 67
     0
278
    -2
288
     1
 68
     0
279
    -2
289
     1
 69
     0
  7
STANDARD
140
0.18
170
     5
 62
     0
 63
     7
283
     0
274
    -2
284
     1
 64
     0
275
    -2
285
     1
 65
     0
276
    -2
286
     1
 66
     0
277
    -2
287
     1
 67
     0
278
    -2
288
     1
 68
     0
279
    -2
289
     1
 69
     0
  0
VISUALSTYLE
  5
1391
102
{ACAD_REACTORS
330
138B
102
}
330
138B
100
AcDbVisualStyle
  2
2dWireframe
 70
     4
 71
     0
 72
     2
 73
     0
 90
        0
 40
-0.6
 41
-30.0
 62
     5
 63
     7
 74
     1
 91
        4
 64
     7
 65
   257
 75
     1
175
     1
 42
1.0
 92
        0
 66
   257
 43
1.0
 76
     1
 77
     6
 78
     2
 67
     7
 79
     5
170
     0
171
     0
290
     0
174
     0
 93
        1
 44
0.0
173
     0
291
     0
 45
0.0
1001
ACAD
1000
AcDbSavedByObjectVersion
1070
     0
1000
AcDbSavedByObjectVersion
1070
     0
1000
AcDbSavedByObjectVersion
1070
     0
1000
AcDbSavedByObjectVersion
1070
     0
1000
AcDbSavedByObjectVersion
1070
     0
1000
AcDbSavedByObjectVersion
1070
     0
  0
VISUALSTYLE
  5
1393
102
{ACAD_REACTORS
330
138B
102
}
330
138B
100
AcDbVisualStyle
  2
3D Hidden
 70
     6
 71
     1
 72
     2
 73
     2
 90
        0
 40
-0.6
 41
-30.0
 62
     5
 63
     7
 74
     2
 91
        2
 64
     7
 65
   257
 75
     2
175
     1
 42
40.0
 92
        0
 66
   257
 43
1.0
 76
     1
 77
     6
 78
     2
 67
     7
 79
     3
170
     0
171
     0
290
     0
174
     0
 93
        1
 44
0.0
173
     0
291
     0
 45
0.0
1001
ACAD
1000
AcDbSavedByObjectVersion
1070
     0
1000
AcDbSavedByObjectVersion
1070
     0
1000
AcDbSavedByObjectVersion
1070
     0
1000
AcDbSavedByObjectVersion
1070
     0
1000
AcDbSavedByObjectVersion
1070
     0
1000
AcDbSavedByObjectVersion
1070
     0
  0
VISUALSTYLE
  5
1392
102
{ACAD_REACTORS
330
138B
102
}
330
138B
100
AcDbVisualStyle
  2
3dWireframe
 70
     5
 71
     0
 72
     2
 73
     0
 90
        0
 40
-0.6
 41
-30.0
 62
     5
 63
     7
 74
     1
 91
        4
 64
     7
 65
   257
 75
     1
175
     1
 42
1.0
 92
        0
 66
   257
 43
1.0
 76
     1
 77
     6
 78
     2
 67
     7
 79
     5
170
     0
171
     0
290
     0
174
     0
 93
        1
 44
0.0
173
     0
291
     0
 45
0.0
1001
ACAD
1000
AcDbSavedByObjectVersion
1070
     0
1000
AcDbSavedByObjectVersion
1070
     0
1000
AcDbSavedByObjectVersion
1070
     0
1000
AcDbSavedByObjectVersion
1070
     0
1000
AcDbSavedByObjectVersion
1070
     0
1000
AcDbSavedByObjectVersion
1070
     0
  0
VISUALSTYLE
  5
1390
102
{ACAD_REACTORS
330
138B
102
}
330
138B
100
AcDbVisualStyle
  2
Basic
 70
     7
 71
     1
 72
     0
 73
     1
 90
        0
 40
-0.6
 41
-30.0
 62
     5
 63
     7
 74
     0
 91
        4
 64
     7
 65
   257
 75
     1
175
     1
 42
1.0
 92
        8
 66
     7
 43
1.0
 76
     1
 77
     6
 78
     2
 67
     7
 79
     5
170
     0
171
     0
290
     0
174
     0
 93
        1
 44
0.0
173
     0
291
     1
 45
0.0
1001
ACAD
1000
AcDbSavedByObjectVersion
1070
     0
1000
AcDbSavedByObjectVersion
1070
     0
1000
AcDbSavedByObjectVersion
1070
     0
1000
AcDbSavedByObjectVersion
1070
     0
1000
AcDbSavedByObjectVersion
1070
     0
1000
AcDbSavedByObjectVersion
1070
     0
  0
VISUALSTYLE
  5
1397
102
{ACAD_REACTORS
330
138B
102
}
330
138B
100
AcDbVisualStyle
  2
Brighten
 70
    12
 71
     2
 72
     2
 73
     0
 90
        0
 40
-0.6
 41
-30.0
 62
     5
 63
     7
 74
     1
 91
        4
 64
     7
 65
   257
 75
     1
175
     1
 42
1.0
 92
        8
 66
     7
 43
1.0
 76
     1
 77
     6
 78
     2
 67
     7
 79
     5
170
     0
171
     0
290
     0
174
     0
 93
        1
 44
50.0
173
     0
291
     1
 45
0.0
1001
ACAD
1000
AcDbSavedByObjectVersion
1070
     0
1000
AcDbSavedByObjectVersion
1070
     0
1000
AcDbSavedByObjectVersion
1070
     0
1000
AcDbSavedByObjectVersion
1070
     0
1000
AcDbSavedByObjectVersion
1070
     0
1000
AcDbSavedByObjectVersion
1070
     0
  0
VISUALSTYLE
  5
139B
102
{ACAD_REACTORS
330
138B
102
}
330
138B
100
AcDbVisualStyle
  2
ColorChange
 70
    16
 71
     2
 72
     2
 73
     3
 90
        0
 40
-0.6
 41
-30.0
 62
     5
 63
     8
 74
     1
 91
        4
 64
     7
 65
   257
 75
     1
175
     1
 42
1.0
 92
        8
 66
     8
 43
1.0
 76
     1
 77
     6
 78
     2
 67
     7
 79
     5
170
     0
171
     0
290
     0
174
     0
 93
        1
 44
0.0
173
     0
291
     1
 45
0.0
1001
ACAD
1000
AcDbSavedByObjectVersion
1070
     0
1000
AcDbSavedByObjectVersion
1070
     0
1000
AcDbSavedByObjectVersion
1070
     0
1000
AcDbSavedByObjectVersion
1070
     0
1000
AcDbSavedByObjectVersion
1070
     0
1000
AcDbSavedByObjectVersion
1070
     0
  0
VISUALSTYLE
  5
1394
102
{ACAD_REACTORS
330
138B
102
}
330
138B
100
AcDbVisualStyle
  2
Conceptual
 70
     9
 71
     3
 72
     2
 73
     0
 90
        0
 40
-0.6
 41
-30.0
 62
     5
 63
     7
 74
     2
 91
        2
 64
     7
 65
   257
 75
     1
175
     1
 42
40.0
 92
        8
 66
     7
 43
1.0
 76
     1
 77
     6
 78
     2
 67
     7
 79
     3
170
     0
171
     0
290
     0
174
     0
 93
        1
 44
0.0
173
     0
291
     0
 45
0.0
1001
ACAD
1000
AcDbSavedByObjectVersion
1070
     0
1000
AcDbSavedByObjectVersion
1070
     0
1000
AcDbSavedByObjectVersion
1070
     0
1000
AcDbSavedByObjectVersion
1070
     0
1000
AcDbSavedByObjectVersion
1070
     0
1000
AcDbSavedByObjectVersion
1070
     0
  0
VISUALSTYLE
  5
1396
102
{ACAD_REACTORS
330
138B
102
}
330
138B
100
AcDbVisualStyle
  2
Dim
 70
    11
 71
     2
 72
     2
 73
     0
 90
        0
 40
-0.6
 41
-30.0
 62
     5
 63
     7
 74
     1
 91
        4
 64
     7
 65
   257
 75
     1
175
     1
 42
1.0
 92
        8
 66
     7
 43
1.0
 76
     1
 77
     6
 78
     2
 67
     7
 79
     5
170
     0
171
     0
290
     0
174
     0
 93
        1
 44
-50.0
173
     0
291
     1
 45
0.0
1001
ACAD
1000
AcDbSavedByObjectVersion
1070
     0
1000
AcDbSavedByObjectVersion
1070
     0
1000
AcDbSavedByObjectVersion
1070
     0
1000
AcDbSavedByObjectVersion
1070
     0
1000
AcDbSavedByObjectVersion
1070
     0
1000
AcDbSavedByObjectVersion
1070
     0
  0
VISUALSTYLE
  5
139A
102
{ACAD_REACTORS
330
138B
102
}
330
138B
100
AcDbVisualStyle
  2
Facepattern
 70
    15
 71
     2
 72
     2
 73
     0
 90
        0
 40
-0.6
 41
-30.0
 62
     5
 63
     7
 74
     1
 91
        4
 64
     7
 65
   257
 75
     1
175
     1
 42
1.0
 92
        8
 66
     7
 43
1.0
 76
     1
 77
     6
 78
     2
 67
     7
 79
     5
170
     0
171
     0
290
     0
174
     0
 93
        1
 44
0.0
173
     0
291
     1
 45
0.0
1001
ACAD
1000
AcDbSavedByObjectVersion
1070
     0
1000
AcDbSavedByObjectVersion
1070
     0
1000
AcDbSavedByObjectVersion
1070
     0
1000
AcDbSavedByObjectVersion
1070
     0
1000
AcDbSavedByObjectVersion
1070
     0
1000
AcDbSavedByObjectVersion
1070
     0
  0
VISUALSTYLE
  5
138C
102
{ACAD_REACTORS
330
138B
102
}
330
138B
100
AcDbVisualStyle
  2
Flat
 70
     0
 71
     2
 72
     1
 73
     1
 90
        2
 40
-0.6
 41
30.0
 62
     5
 63
     7
 74
     0
 91
        4
 64
     7
 65
   257
 75
     1
175
     1
 42
1.0
 92
        8
 66
     7
 43
1.0
 76
     1
 77
     6
 78
     2
 67
     7
 79
     5
170
     0
171
     0
290
     0
174
     0
 93
       13
 44
0.0
173
     0
291
     1
 45
0.0
1001
ACAD
1000
AcDbSavedByObjectVersion
1070
     0
1000
AcDbSavedByObjectVersion
1070
     0
1000
AcDbSavedByObjectVersion
1070
     0
1000
AcDbSavedByObjectVersion
1070
     0
1000
AcDbSavedByObjectVersion
1070
     0
1000
AcDbSavedByObjectVersion
1070
     0
  0
VISUALSTYLE
  5
138D
102
{ACAD_REACTORS
330
138B
102
}
330
138B
100
AcDbVisualStyle
  2
FlatWithEdges
 70
     1
 71
     2
 72
     1
 73
     1
 90
        2
 40
-0.6
 41
30.0
 62
     5
 63
     7
 74
     1
 91
        4
 64
     7
 65
   257
 75
     1
175
     1
 42
1.0
 92
        0
 66
   257
 43
1.0
 76
     1
 77
     6
 78
     2
 67
     7
 79
     5
170
     0
171
     0
290
     0
174
     0
 93
       13
 44
0.0
173
     0
291
     1
 45
0.0
1001
ACAD
1000
AcDbSavedByObjectVersion
1070
     0
1000
AcDbSavedByObjectVersion
1070
     0
1000
AcDbSavedByObjectVersion
1070
     0
1000
AcDbSavedByObjectVersion
1070
     0
1000
AcDbSavedByObjectVersion
1070
     0
1000
AcDbSavedByObjectVersion
1070
     0
  0
VISUALSTYLE
  5
138E
102
{ACAD_REACTORS
330
138B
102
}
330
138B
100
AcDbVisualStyle
  2
Gouraud
 70
     2
 71
     2
 72
     2
 73
     1
 90
        2
 40
-0.6
 41
30.0
 62
     5
 63
     7
 74
     0
 91
        4
 64
     7
 65
   257
 75
     1
175
     1
 42
1.0
 92
        0
 66
     7
 43
1.0
 76
     1
 77
     6
 78
     2
 67
     7
 79
     5
170
     0
171
     0
290
     0
174
     0
 93
       13
 44
0.0
173
     0
291
     1
 45
0.0
1001
ACAD
1000
AcDbSavedByObjectVersion
1070
     0
1000
AcDbSavedByObjectVersion
1070
     0
1000
AcDbSavedByObjectVersion
1070
     0
1000
AcDbSavedByObjectVersion
1070
     0
1000
AcDbSavedByObjectVersion
1070
     0
1000
AcDbSavedByObjectVersion
1070
     0
  0
VISUALSTYLE
  5
138F
102
{ACAD_REACTORS
330
138B
102
}
330
138B
100
AcDbVisualStyle
  2
GouraudWithEdges
 70
     3
 71
     2
 72
     2
 73
     1
 90
        2
 40
-0.6
 41
30.0
 62
     5
 63
     7
 74
     1
 91
        4
 64
     7
 65
   257
 75
     1
175
     1
 42
1.0
 92
        0
 66
   257
 43
1.0
 76
     1
 77
     6
 78
     2
 67
     7
 79
     5
170
     0
171
     0
290
     0
174
     0
 93
       13
 44
0.0
173
     0
291
     1
 45
0.0
1001
ACAD
1000
AcDbSavedByObjectVersion
1070
     0
1000
AcDbSavedByObjectVersion
1070
     0
1000
AcDbSavedByObjectVersion
1070
     0
1000
AcDbSavedByObjectVersion
1070
     0
1000
AcDbSavedByObjectVersion
1070
     0
1000
AcDbSavedByObjectVersion
1070
     0
  0
VISUALSTYLE
  5
1399
102
{ACAD_REACTORS
330
138B
102
}
330
138B
100
AcDbVisualStyle
  2
Linepattern
 70
    14
 71
     2
 72
     2
 73
     0
 90
        0
 40
-0.6
 41
-30.0
 62
     5
 63
     7
 74
     1
 91
        4
 64
     7
 65
   257
 75
     7
175
     7
 42
1.0
 92
        8
 66
     7
 43
1.0
 76
     1
 77
     6
 78
     2
 67
     7
 79
     5
170
     0
171
     0
290
     0
174
     0
 93
        1
 44
0.0
173
     0
291
     1
 45
0.0
1001
ACAD
1000
AcDbSavedByObjectVersion
1070
     0
1000
AcDbSavedByObjectVersion
1070
     0
1000
AcDbSavedByObjectVersion
1070
     0
1000
AcDbSavedByObjectVersion
1070
     0
1000
AcDbSavedByObjectVersion
1070
     0
1000
AcDbSavedByObjectVersion
1070
     0
  0
VISUALSTYLE
  5
1395
102
{ACAD_REACTORS
330
138B
102
}
330
138B
100
AcDbVisualStyle
  2
Realistic
 70
     8
 71
     2
 72
     2
 73
     0
 90
        0
 40
-0.6
 41
-30.0
 62
     5
 63
     7
 74
     1
 91
        0
 64
     7
 65
   257
 75
     1
175
     1
 42
1.0
 92
        8
 66
     8
 43
1.0
 76
     1
 77
     6
 78
     2
 67
     7
 79
     5
170
     0
171
     0
290
     0
174
     0
 93
       13
 44
0.0
173
     0
291
     0
 45
0.0
1001
ACAD
1000
AcDbSavedByObjectVersion
1070
     0
1000
AcDbSavedByObjectVersion
1070
     0
1000
AcDbSavedByObjectVersion
1070
     0
1000
AcDbSavedByObjectVersion
1070
     0
1000
AcDbSavedByObjectVersion
1070
     0
1000
AcDbSavedByObjectVersion
1070
     0
  0
VISUALSTYLE
  5
1398
102
{ACAD_REACTORS
330
138B
102
}
330
138B
100
AcDbVisualStyle
  2
Thicken
 70
    13
 71
     2
 72
     2
 73
     0
 90
        0
 40
-0.6
 41
-30.0
 62
     5
 63
     7
 74
     1
 91
        4
 64
     7
 65
   257
 75
     1
175
     1
 42
1.0
 92
       12
 66
     7
 43
1.0
 76
     1
 77
     6
 78
     2
 67
     7
 79
     5
170
     0
171
     0
290
     0
174
     0
 93
        1
 44
0.0
173
     0
291
     1
 45
0.0
1001
ACAD
1000
AcDbSavedByObjectVersion
1070
     0
1000
AcDbSavedByObjectVersion
1070
     0
1000
AcDbSavedByObjectVersion
1070
     0
1000
AcDbSavedByObjectVersion
1070
     0
1000
AcDbSavedByObjectVersion
1070
     0
1000
AcDbSavedByObjectVersion
1070
     0
  0
DICTIONARYVAR
  5
1514
102
{ACAD_REACTORS
330
B87
102
}
330
B87
100
DictionaryVariables
280
     0
  1
1:1
  0
DICTIONARYVAR
  5
1513
102
{ACAD_REACTORS
330
B87
102
}
330
B87
100
DictionaryVariables
280
     0
  1
STANDARD
  0
DICTIONARYVAR
  5
1168
102
{ACAD_REACTORS
330
B87
102
}
330
B87
100
DictionaryVariables
280
     0
  1
STANDARD
  0
DICTIONARYVAR
  5
B88
102
{ACAD_REACTORS
330
B87
102
}
330
B87
100
DictionaryVariables
280
     0
  1
1
  0
DICTIONARYVAR
  5
1169
102
{ACAD_REACTORS
330
B87
102
}
330
B87
100
DictionaryVariables
280
     0
  1
1
  0
DICTIONARYVAR
  5
116A
102
{ACAD_REACTORS
330
B87
102
}
330
B87
100
DictionaryVariables
280
     0
  1

  0
DICTIONARYVAR
  5
1515
102
{ACAD_REACTORS
330
B87
102
}
330
B87
100
DictionaryVariables
280
     0
  1
127
  0
DICTIONARY
  5
1109
102
{ACAD_REACTORS
330
10FD
102
}
330
10FD
100
AcDbDictionary
281
     1
  0
XRECORD
  5
1129
102
{ACAD_REACTORS
330
10FD
102
}
330
10FD
100
AcDbXrecord
280
     1
 90
-1023410169
  0
DICTIONARY
  5
103D
102
{ACAD_REACTORS
330
103C
102
}
330
103C
100
AcDbDictionary
281
     1
  3
DWGSETTINGS
350
1D52
  3
TRANSSETTINGS
350
1D53
  0
ACAMGFILTERDAT
  5
1158
102
{ACAD_REACTORS
330
1153
102
}
330
1153
100
AcAmgFilterDat
 70
    15
  1
DIMENSION,AMDT_*_DIM
  2
*
  3
*
  4
*
  5
*
290
     1
1001
ACAD
1000
AcRTDxfName
1000
ACAMGFILTERDAT
  0
ACAMGFILTERDAT
  5
1157
102
{ACAD_REACTORS
330
1153
102
}
330
1153
100
AcAmgFilterDat
 70
    15
  1
*
  2
AM_FEA-AM_*
  3
*
  4
*
  5
*
290
     1
1001
ACAD
1000
AcRTDxfName
1000
ACAMGFILTERDAT
  0
ACAMGFILTERDAT
  5
1154
102
{ACAD_REACTORS
330
1153
102
}
330
1153
100
AcAmgFilterDat
 70
    15
  1
HATCH
  2
*
  3
*
  4
*
  5
*
290
     1
1001
ACAD
1000
AcRTDxfName
1000
ACAMGFILTERDAT
  0
ACAMGFILTERDAT
  5
1155
102
{ACAD_REACTORS
330
1153
102
}
330
1153
100
AcAmgFilterDat
 70
    15
  1
LINE
  2
8,8N,*-8,*-8N,AM_8,AM_8N,*-AM_8,*-AM_8N
  3
*
  4
*
  5
INSERT,STDPART2D
290
     1
1001
ACAD
1000
AcRTDxfName
1000
ACAMGFILTERDAT
  0
ACAMGFILTERDAT
  5
1159
102
{ACAD_REACTORS
330
1153
102
}
330
1153
100
AcAmgFilterDat
 70
    15
  1
ARC
  2
AM_5
  3
*
  4
2
  5
INSERT
290
     0
1001
ACAD
1000
AcRTDxfName
1000
ACAMGFILTERDAT
  0
ACAMGFILTERDAT
  5
1156
102
{ACAD_REACTORS
330
1153
102
}
330
1153
100
AcAmgFilterDat
 70
    15
  1
ACMFCFRAME,ACMDATUMTARGET,ACMDATUMID,ACMWELDSYM,ACMSURFSYM,ACMFEATID,ACMPARTREF,ACMBALLOON,AMDTEDGESYM,AMGSCREWCALCTABLE
  2
*
  3
*
  4
*
  5
*
290
     1
1001
ACAD
1000
AcRTDxfName
1000
ACAMGFILTERDAT
  0
LAYER_INDEX
  5
115B
102
{ACAD_REACTORS
330
115A
102
}
330
115A
100
AcDbIndex
 40
2456533.546815127
100
AcDbLayerIndex
  8
0
360
115C
 90
        0
  8
OUTLINE
360
115D
 90
      144
  8
SIZE
360
115E
 90
       42
  8
BASIS
360
115F
 90
        2
  8
DETAIL
360
1160
 90
      138
  8
ARRANGE
360
1161
 90
        3
  8
DEFPOINTS
360
1162
 90
        0
  8
ETC
360
1163
 90
        1
  8
FIX
360
1164
 90
        5
  8
NOTE
360
1165
 90
       21
  8
SERVICESPACE
360
1166
 90
        0
  8
SYMBOLLINE
360
1167
 90
        0
  0
DICTIONARY
  5
1E5C
330
B84
100
AcDbDictionary
280
     1
281
     1
  3
ACAD_XREC_ROUNDTRIP
360
1E5D
  0
DICTIONARY
  5
1E5E
330
B85
100
AcDbDictionary
280
     1
281
     1
  3
ACAD_XREC_ROUNDTRIP
360
1E5F
  0
DICTIONARY
  5
137C
330
137B
100
AcDbDictionary
280
     1
281
     1
  3
ACAD_XREC_ROUNDTRIP
360
1522
  3
BUMPTILE
360
137E
  3
DIFFUSETILE
360
137D
  3
OPACITYTILE
360
1381
  3
REFLECTIONTILE
360
1380
  3
REFRACTIONTILE
360
1382
  3
SPECULARTILE
360
137F
  0
DICTIONARY
  5
1374
330
1373
100
AcDbDictionary
280
     1
281
     1
  3
ACAD_XREC_ROUNDTRIP
360
1521
  3
BUMPTILE
360
1376
  3
DIFFUSETILE
360
1375
  3
OPACITYTILE
360
1379
  3
REFLECTIONTILE
360
1378
  3
REFRACTIONTILE
360
137A
  3
SPECULARTILE
360
1377
  0
DICTIONARY
  5
1384
330
1383
100
AcDbDictionary
280
     1
281
     1
  3
ACAD_XREC_ROUNDTRIP
360
1523
  3
BUMPTILE
360
1386
  3
DIFFUSETILE
360
1385
  3
OPACITYTILE
360
1389
  3
REFLECTIONTILE
360
1388
  3
REFRACTIONTILE
360
138A
  3
SPECULARTILE
360
1387
  0
DICTIONARY
  5
1516
330
1038
100
AcDbDictionary
280
     1
281
     1
  3
ACAD_ROUNDTRIP_2008_TABLESTYLE_CELLSTYLEMAP
360
1E55
  3
ACAD_XREC_ROUNDTRIP
360
1E60
  0
IDBUFFER
  5
115C
330
0
100
AcDbIdBuffer
  0
IDBUFFER
  5
115D
330
0
100
AcDbIdBuffer
330
953
330
954
330
955
330
956
330
957
330
958
330
1BE1
330
1BE2
330
1BE3
330
1BE4
330
1BE5
330
1BE6
330
1BE7
330
1BE8
330
1BE9
330
1BEA
330
1BEB
330
1BEC
330
1BED
330
1BEE
330
1BEF
330
1BF0
330
1BF1
330
1BF2
330
1BF3
330
1BF4
330
1BF5
330
1BF6
330
1BF7
330
1BF8
330
1BF9
330
1BFA
330
1BFB
330
1BFC
330
1BFD
330
1BFE
330
1BFF
330
1C00
330
1C01
330
1C02
330
1C03
330
1C04
330
1C05
330
1C06
330
1C07
330
1C08
330
1C09
330
1C0A
330
1C0B
330
1C0C
330
1C0D
330
1C0E
330
1C0F
330
1C10
330
1C11
330
1C12
330
1C13
330
1C14
330
1C15
330
1C16
330
1C17
330
1C18
330
1C19
330
1C1A
330
1C1B
330
1C1C
330
1C1D
330
1C1E
330
1C1F
330
1C20
330
1C21
330
1C22
330
1C23
330
1C24
330
1C25
330
1C26
330
1C27
330
1C28
330
1C29
330
1C2A
330
1C2B
330
1C2C
330
1C2D
330
1C2E
330
1C2F
330
1C30
330
1C31
330
1C32
330
1C33
330
1C34
330
1C35
330
1C36
330
1C37
330
1C38
330
1C39
330
1C3A
330
1C3B
330
1C3C
330
1C3D
330
1C3E
330
1C3F
330
1C40
330
1C41
330
1C42
330
1C43
330
1C44
330
1C45
330
1C46
330
1C47
330
1C48
330
1C49
330
1C4A
330
1C4B
330
1C4C
330
1C4D
330
1C4E
330
1C4F
330
1C50
330
1C51
330
1C52
330
1C53
330
1C54
330
1C55
330
1C56
330
1C57
330
1C58
330
1C59
330
1C5A
330
1C5B
330
1C5C
330
1C5D
330
1C5E
330
1C5F
330
1C60
330
1C61
330
1C62
330
1C63
330
1C64
330
1C65
330
1C66
330
1C67
330
1C68
330
1C69
330
1C6A
  0
IDBUFFER
  5
115E
330
0
100
AcDbIdBuffer
330
1E3D
330
1E3E
330
1E3F
330
1E40
330
1E41
330
1E42
330
1E43
330
1E44
330
1E45
330
1E49
330
1E4A
330
1E4B
330
1E4C
330
1E4D
330
1E4E
330
1E4F
330
1E50
330
1E51
330
1E52
330
1E53
330
1E54
330
1E28
330
1E29
330
1E2A
330
1E2B
330
1E2C
330
1E2D
330
1E2E
330
1E2F
330
1E30
330
1E31
330
1E32
330
1E33
330
1E34
330
1E35
330
1E36
330
1E37
330
1E38
330
1E39
330
1E3A
330
1E3B
330
1E3C
  0
IDBUFFER
  5
115F
330
0
100
AcDbIdBuffer
330
1BDC
330
1BE0
  0
IDBUFFER
  5
1160
330
0
100
AcDbIdBuffer
330
1B31
330
1B32
330
1B33
330
1B34
330
1B35
330
1B36
330
1B37
330
1B38
330
1B39
330
1B3A
330
1B3B
330
1B3C
330
1B3D
330
1B3E
330
1B3F
330
1B40
330
1B41
330
1B42
330
1B43
330
1B44
330
1B45
330
1B46
330
1B47
330
1B48
330
1B49
330
1B4A
330
1B4B
330
1B4C
330
1B4D
330
1B4E
330
1B4F
330
1B50
330
1B51
330
1B52
330
1B53
330
1B54
330
1B55
330
1B56
330
1B57
330
1B58
330
1B59
330
1B5A
330
1B5B
330
1B5C
330
1B5D
330
1B5E
330
1B5F
330
1B60
330
1B61
330
1B62
330
1B63
330
1B64
330
1B65
330
1B66
330
1B67
330
1B68
330
1B69
330
1B6A
330
1B6B
330
1B6C
330
1B6D
330
1B6E
330
1B6F
330
1B70
330
1B71
330
1B72
330
1B73
330
1B74
330
1B75
330
1B76
330
1B77
330
1B78
330
1B79
330
1B7A
330
1B7B
330
1B7C
330
1B7D
330
1B7E
330
1B7F
330
1B80
330
1B81
330
1B82
330
1B83
330
1B84
330
1B85
330
1B86
330
1B87
330
1B88
330
1B89
330
1B8A
330
1B8B
330
1B8C
330
1B8D
330
1B8E
330
1B8F
330
1B90
330
1B91
330
1B92
330
1B93
330
1B94
330
1B95
330
1B96
330
1B97
330
1B98
330
1B99
330
1B9A
330
1B9B
330
1B9C
330
1B9D
330
1B9E
330
1B9F
330
1BA0
330
1BA1
330
1BA2
330
1BA3
330
1BA4
330
1BA5
330
1BA6
330
1BA7
330
1BA8
330
1BA9
330
1BAA
330
1BAB
330
1BAC
330
1BAD
330
1BAE
330
1BAF
330
1BB0
330
1BB1
330
1BB2
330
1BB3
330
1BB4
330
1BB5
330
1BB6
330
1BB7
330
1BB8
330
1BB9
330
1BBA
  0
IDBUFFER
  5
1161
330
0
100
AcDbIdBuffer
330
1BDD
330
1BDE
330
1BDF
  0
IDBUFFER
  5
1162
330
0
100
AcDbIdBuffer
  0
IDBUFFER
  5
1163
330
0
100
AcDbIdBuffer
330
1BD9
  0
IDBUFFER
  5
1164
330
0
100
AcDbIdBuffer
330
1BC4
330
1BC7
330
1BCA
330
1BCD
330
1BD0
  0
IDBUFFER
  5
1165
330
0
100
AcDbIdBuffer
330
1E48
330
1BBB
330
1BBC
330
1BBD
330
1BBE
330
1BBF
330
1BC0
330
1BC1
330
1BC2
330
1BC3
330
1BC5
330
1BC6
330
1BC8
330
1BC9
330
1BCB
330
1BCC
330
1BCE
330
1BCF
330
1BD1
330
1E46
330
1E47
  0
IDBUFFER
  5
1166
330
0
100
AcDbIdBuffer
  0
IDBUFFER
  5
1167
330
0
100
AcDbIdBuffer
  0
XRECORD
  5
1E5D
102
{ACAD_REACTORS
330
1E5C
102
}
330
1E5C
100
AcDbXrecord
280
     1
102
SHADEPLOT
 70
     0
102
SHADEPLOTRESLEVEL
 70
     2
102
SHADEPLOTCUSTOMDPI
 70
   300
  0
XRECORD
  5
1E5F
102
{ACAD_REACTORS
330
1E5E
102
}
330
1E5E
100
AcDbXrecord
280
     1
102
SHADEPLOT
 70
     0
102
SHADEPLOTRESLEVEL
 70
     2
102
SHADEPLOTCUSTOMDPI
 70
   300
  0
XRECORD
  5
1522
102
{ACAD_REACTORS
330
137C
102
}
330
137C
100
AcDbXrecord
280
     1
102
MATERIAL
148
0.0
149
0.0
149
0.0
 93
        0
 94
      127
282
     0
 72
     0
 77
     0
171
     0
175
     0
179
     0
273
     0
  0
XRECORD
  5
137E
102
{ACAD_REACTORS
330
137C
102
}
330
137C
100
AcDbXrecord
280
     1
270
     1
271
     1
  0
XRECORD
  5
137D
102
{ACAD_REACTORS
330
137C
102
}
330
137C
100
AcDbXrecord
280
     1
270
     1
271
     1
  0
XRECORD
  5
1381
102
{ACAD_REACTORS
330
137C
102
}
330
137C
100
AcDbXrecord
280
     1
270
     1
271
     1
  0
XRECORD
  5
1380
102
{ACAD_REACTORS
330
137C
102
}
330
137C
100
AcDbXrecord
280
     1
270
     1
271
     1
  0
XRECORD
  5
1382
102
{ACAD_REACTORS
330
137C
102
}
330
137C
100
AcDbXrecord
280
     1
270
     1
271
     1
  0
XRECORD
  5
137F
102
{ACAD_REACTORS
330
137C
102
}
330
137C
100
AcDbXrecord
280
     1
270
     1
271
     1
  0
XRECORD
  5
1521
102
{ACAD_REACTORS
330
1374
102
}
330
1374
100
AcDbXrecord
280
     1
102
MATERIAL
148
0.0
149
0.0
149
0.0
 93
        0
 94
      127
282
     0
 72
     0
 77
     0
171
     0
175
     0
179
     0
273
     0
  0
XRECORD
  5
1376
102
{ACAD_REACTORS
330
1374
102
}
330
1374
100
AcDbXrecord
280
     1
270
     1
271
     1
  0
XRECORD
  5
1375
102
{ACAD_REACTORS
330
1374
102
}
330
1374
100
AcDbXrecord
280
     1
270
     1
271
     1
  0
XRECORD
  5
1379
102
{ACAD_REACTORS
330
1374
102
}
330
1374
100
AcDbXrecord
280
     1
270
     1
271
     1
  0
XRECORD
  5
1378
102
{ACAD_REACTORS
330
1374
102
}
330
1374
100
AcDbXrecord
280
     1
270
     1
271
     1
  0
XRECORD
  5
137A
102
{ACAD_REACTORS
330
1374
102
}
330
1374
100
AcDbXrecord
280
     1
270
     1
271
     1
  0
XRECORD
  5
1377
102
{ACAD_REACTORS
330
1374
102
}
330
1374
100
AcDbXrecord
280
     1
270
     1
271
     1
  0
XRECORD
  5
1523
102
{ACAD_REACTORS
330
1384
102
}
330
1384
100
AcDbXrecord
280
     1
102
MATERIAL
148
0.0
149
0.0
149
0.0
 93
        0
 94
      127
282
     0
 72
     0
 77
     0
171
     0
175
     0
179
     0
273
     0
  0
XRECORD
  5
1386
102
{ACAD_REACTORS
330
1384
102
}
330
1384
100
AcDbXrecord
280
     1
270
     1
271
     1
  0
XRECORD
  5
1385
102
{ACAD_REACTORS
330
1384
102
}
330
1384
100
AcDbXrecord
280
     1
270
     1
271
     1
  0
XRECORD
  5
1389
102
{ACAD_REACTORS
330
1384
102
}
330
1384
100
AcDbXrecord
280
     1
270
     1
271
     1
  0
XRECORD
  5
1388
102
{ACAD_REACTORS
330
1384
102
}
330
1384
100
AcDbXrecord
280
     1
270
     1
271
     1
  0
XRECORD
  5
138A
102
{ACAD_REACTORS
330
1384
102
}
330
1384
100
AcDbXrecord
280
     1
270
     1
271
     1
  0
XRECORD
  5
1387
102
{ACAD_REACTORS
330
1384
102
}
330
1384
100
AcDbXrecord
280
     1
270
     1
271
     1
  0
CELLSTYLEMAP
  5
1E55
102
{ACAD_REACTORS
330
1516
102
}
330
1516
100
AcDbCellStyleMap
 90
        3
300
CELLSTYLE
  1
TABLEFORMAT_BEGIN
 90
        5
170
     1
 91
        0
 92
    32768
 62
   257
 93
        1
300
CONTENTFORMAT
  1
CONTENTFORMAT_BEGIN
 90
        0
 91
        0
 92
        4
 93
        0
300

 40
0.0
140
1.0
 94
        5
 62
     0
340
852
144
0.25
309
CONTENTFORMAT_END
171
     1
301
MARGIN
  1
CELLMARGIN_BEGIN
 40
0.06
 40
0.06
 40
0.06
 40
0.06
 40
0.18
 40
0.18
309
CELLMARGIN_END
 94
        6
 95
        1
302
GRIDFORMAT
  1
GRIDFORMAT_BEGIN
 90
        0
 91
        1
 62
     0
 92
       -2
340
0
 93
        0
 40
0.045
309
GRIDFORMAT_END
 95
        2
302
GRIDFORMAT
  1
GRIDFORMAT_BEGIN
 90
        0
 91
        1
 62
     0
 92
       -2
340
0
 93
        0
 40
0.045
309
GRIDFORMAT_END
 95
        4
302
GRIDFORMAT
  1
GRIDFORMAT_BEGIN
 90
        0
 91
        1
 62
     0
 92
       -2
340
0
 93
        0
 40
0.045
309
GRIDFORMAT_END
 95
        8
302
GRIDFORMAT
  1
GRIDFORMAT_BEGIN
 90
        0
 91
        1
 62
     0
 92
       -2
340
0
 93
        0
 40
0.045
309
GRIDFORMAT_END
 95
       16
302
GRIDFORMAT
  1
GRIDFORMAT_BEGIN
 90
        0
 91
        1
 62
     0
 92
       -2
340
0
 93
        0
 40
0.045
309
GRIDFORMAT_END
 95
       32
302
GRIDFORMAT
  1
GRIDFORMAT_BEGIN
 90
        0
 91
        1
 62
     0
 92
       -2
340
0
 93
        0
 40
0.045
309
GRIDFORMAT_END
309
TABLEFORMAT_END
  1
CELLSTYLE_BEGIN
 90
        1
 91
        1
300
_TITLE
309
CELLSTYLE_END
300
CELLSTYLE
  1
TABLEFORMAT_BEGIN
 90
        5
170
     1
 91
        0
 92
        0
 62
   257
 93
        1
300
CONTENTFORMAT
  1
CONTENTFORMAT_BEGIN
 90
        0
 91
        0
 92
        4
 93
        0
300

 40
0.0
140
1.0
 94
        5
 62
     0
340
852
144
0.18
309
CONTENTFORMAT_END
171
     1
301
MARGIN
  1
CELLMARGIN_BEGIN
 40
0.06
 40
0.06
 40
0.06
 40
0.06
 40
0.18
 40
0.18
309
CELLMARGIN_END
 94
        6
 95
        1
302
GRIDFORMAT
  1
GRIDFORMAT_BEGIN
 90
        0
 91
        1
 62
     0
 92
       -2
340
0
 93
        0
 40
0.045
309
GRIDFORMAT_END
 95
        2
302
GRIDFORMAT
  1
GRIDFORMAT_BEGIN
 90
        0
 91
        1
 62
     0
 92
       -2
340
0
 93
        0
 40
0.045
309
GRIDFORMAT_END
 95
        4
302
GRIDFORMAT
  1
GRIDFORMAT_BEGIN
 90
        0
 91
        1
 62
     0
 92
       -2
340
0
 93
        0
 40
0.045
309
GRIDFORMAT_END
 95
        8
302
GRIDFORMAT
  1
GRIDFORMAT_BEGIN
 90
        0
 91
        1
 62
     0
 92
       -2
340
0
 93
        0
 40
0.045
309
GRIDFORMAT_END
 95
       16
302
GRIDFORMAT
  1
GRIDFORMAT_BEGIN
 90
        0
 91
        1
 62
     0
 92
       -2
340
0
 93
        0
 40
0.045
309
GRIDFORMAT_END
 95
       32
302
GRIDFORMAT
  1
GRIDFORMAT_BEGIN
 90
        0
 91
        1
 62
     0
 92
       -2
340
0
 93
        0
 40
0.045
309
GRIDFORMAT_END
309
TABLEFORMAT_END
  1
CELLSTYLE_BEGIN
 90
        2
 91
        1
300
_HEADER
309
CELLSTYLE_END
300
CELLSTYLE
  1
TABLEFORMAT_BEGIN
 90
        5
170
     1
 91
        0
 92
        0
 62
   257
 93
        1
300
CONTENTFORMAT
  1
CONTENTFORMAT_BEGIN
 90
        0
 91
        0
 92
        4
 93
        0
300

 40
0.0
140
1.0
 94
        2
 62
     0
340
852
144
0.18
309
CONTENTFORMAT_END
171
     1
301
MARGIN
  1
CELLMARGIN_BEGIN
 40
0.06
 40
0.06
 40
0.06
 40
0.06
 40
0.18
 40
0.18
309
CELLMARGIN_END
 94
        6
 95
        1
302
GRIDFORMAT
  1
GRIDFORMAT_BEGIN
 90
        0
 91
        1
 62
     0
 92
       -2
340
0
 93
        0
 40
0.045
309
GRIDFORMAT_END
 95
        2
302
GRIDFORMAT
  1
GRIDFORMAT_BEGIN
 90
        0
 91
        1
 62
     0
 92
       -2
340
0
 93
        0
 40
0.045
309
GRIDFORMAT_END
 95
        4
302
GRIDFORMAT
  1
GRIDFORMAT_BEGIN
 90
        0
 91
        1
 62
     0
 92
       -2
340
0
 93
        0
 40
0.045
309
GRIDFORMAT_END
 95
        8
302
GRIDFORMAT
  1
GRIDFORMAT_BEGIN
 90
        0
 91
        1
 62
     0
 92
       -2
340
0
 93
        0
 40
0.045
309
GRIDFORMAT_END
 95
       16
302
GRIDFORMAT
  1
GRIDFORMAT_BEGIN
 90
        0
 91
        1
 62
     0
 92
       -2
340
0
 93
        0
 40
0.045
309
GRIDFORMAT_END
 95
       32
302
GRIDFORMAT
  1
GRIDFORMAT_BEGIN
 90
        0
 91
        1
 62
     0
 92
       -2
340
0
 93
        0
 40
0.045
309
GRIDFORMAT_END
309
TABLEFORMAT_END
  1
CELLSTYLE_BEGIN
 90
        3
 91
        2
300
_DATA
309
CELLSTYLE_END
  0
XRECORD
  5
1E60
102
{ACAD_REACTORS
330
1516
102
}
330
1516
100
AcDbXrecord
280
     1
102
ACAD_ROUNDTRIP_PRE2007_TABLESTYLE
 90
        4
 91
        0
  1

 92
        4
 93
        0
  2

 94
        4
 95
        0
  3

  0
ENDSEC
  0
EOF
