  0
SECTION
  2
HEADER
  9
$ACADVER
  1
AC1015
  9
$ACADMAINTVER
 70
    20
  9
$DWGCODEPAGE
  3
ANSI_932
  9
$INSBASE
 10
0.0
 20
0.0
 30
0.0
  9
$EXTMIN
 10
-354.9999999997822
 20
-633.6104230978056
 30
0.0
  9
$EXTMAX
 10
784.3475930758926
 20
1107.619530546516
 30
0.0
  9
$LIMMIN
 10
-2970.0
 20
-2100.0
  9
$LIMMAX
 10
2970.0
 20
2100.0
  9
$ORTHOMODE
 70
     0
  9
$REGENMODE
 70
     0
  9
$FILLMODE
 70
     1
  9
$QTEXTMODE
 70
     0
  9
$MIRRTEXT
 70
     0
  9
$LTSCALE
 40
20.0
  9
$ATTMODE
 70
     1
  9
$TEXTSIZE
 40
64.0
  9
$TRACEWID
 40
0.05
  9
$TEXTSTYLE
  7
STANDARD
  9
$CLAYER
  8
0
  9
$CELTYPE
  6
CONTINUOUS
  9
$CECOLOR
 62
   256
  9
$CELTSCALE
 40
1.0
  9
$DISPSILH
 70
     0
  9
$DIMSCALE
 40
1.0
  9
$DIMASZ
 40
0.12
  9
$DIMEXO
 40
0.05
  9
$DIMDLI
 40
0.5
  9
$DIMRND
 40
0.0
  9
$DIMDLE
 40
0.0
  9
$DIMEXE
 40
0.1
  9
$DIMTP
 40
0.1
  9
$DIMTM
 40
0.1
  9
$DIMTXT
 40
0.12
  9
$DIMCEN
 40
0.0
  9
$DIMTSZ
 40
0.0
  9
$DIMTOL
 70
     0
  9
$DIMLIM
 70
     0
  9
$DIMTIH
 70
     1
  9
$DIMTOH
 70
     1
  9
$DIMSE1
 70
     0
  9
$DIMSE2
 70
     0
  9
$DIMTAD
 70
     0
  9
$DIMZIN
 70
     7
  9
$DIMBLK
  1

  9
$DIMASO
 70
     1
  9
$DIMSHO
 70
     0
  9
$DIMPOST
  1

  9
$DIMAPOST
  1
mm
  9
$DIMALT
 70
     0
  9
$DIMALTD
 70
     2
  9
$DIMALTF
 40
25.4
  9
$DIMLFAC
 40
1.0
  9
$DIMTOFL
 70
     0
  9
$DIMTVP
 40
0.0
  9
$DIMTIX
 70
     0
  9
$DIMSOXD
 70
     0
  9
$DIMSAH
 70
     0
  9
$DIMBLK1
  1

  9
$DIMBLK2
  1

  9
$DIMSTYLE
  2
AM_ANSI
  9
$DIMCLRD
 70
   256
  9
$DIMCLRE
 70
   256
  9
$DIMCLRT
 70
     2
  9
$DIMTFAC
 40
0.71
  9
$DIMGAP
 40
0.06
  9
$DIMJUST
 70
     0
  9
$DIMSD1
 70
     0
  9
$DIMSD2
 70
     0
  9
$DIMTOLJ
 70
     1
  9
$DIMTZIN
 70
     7
  9
$DIMALTZ
 70
     0
  9
$DIMALTTZ
 70
     0
  9
$DIMUPT
 70
     0
  9
$DIMDEC
 70
     4
  9
$DIMTDEC
 70
     4
  9
$DIMALTU
 70
     2
  9
$DIMALTTD
 70
     4
  9
$DIMTXSTY
  7
STANDARD
  9
$DIMAUNIT
 70
     0
  9
$DIMADEC
 70
     0
  9
$DIMALTRND
 40
0.0
  9
$DIMAZIN
 70
     2
  9
$DIMDSEP
 70
    46
  9
$DIMATFIT
 70
     3
  9
$DIMFRAC
 70
     0
  9
$DIMLDRBLK
  1

  9
$DIMLUNIT
 70
     2
  9
$DIMLWD
 70
    -1
  9
$DIMLWE
 70
    -1
  9
$DIMTMOVE
 70
     0
  9
$LUNITS
 70
     2
  9
$LUPREC
 70
     4
  9
$SKETCHINC
 40
0.1
  9
$FILLETRAD
 40
4.0
  9
$AUNITS
 70
     1
  9
$AUPREC
 70
     3
  9
$MENU
  1
ACAD
  9
$ELEVATION
 40
0.0
  9
$PELEVATION
 40
0.0
  9
$THICKNESS
 40
50.0
  9
$LIMCHECK
 70
     0
  9
$CHAMFERA
 40
0.0
  9
$CHAMFERB
 40
0.0
  9
$CHAMFERC
 40
0.0
  9
$CHAMFERD
 40
0.0
  9
$SKPOLY
 70
     0
  9
$TDCREATE
 40
2452321.396199653
  9
$TDUCREATE
 40
2452321.021199653
  9
$TDUPDATE
 40
2456533.546283912
  9
$TDUUPDATE
 40
2456533.171283912
  9
$TDINDWG
 40
0.7430364583
  9
$TDUSRTIMER
 40
0.7430346875
  9
$USRTIMER
 70
     1
  9
$ANGBASE
 50
0.0
  9
$ANGDIR
 70
     0
  9
$PDMODE
 70
     3
  9
$PDSIZE
 40
-2.0
  9
$PLINEWID
 40
0.0
  9
$SPLFRAME
 70
     0
  9
$SPLINETYPE
 70
     6
  9
$SPLINESEGS
 70
     8
  9
$HANDSEED
  5
1E2A
  9
$SURFTAB1
 70
     6
  9
$SURFTAB2
 70
     6
  9
$SURFTYPE
 70
     6
  9
$SURFU
 70
     6
  9
$SURFV
 70
     6
  9
$UCSBASE
  2

  9
$UCSNAME
  2

  9
$UCSORG
 10
0.0
 20
0.0
 30
0.0
  9
$UCSXDIR
 10
1.0
 20
0.0
 30
0.0
  9
$UCSYDIR
 10
0.0
 20
1.0
 30
0.0
  9
$UCSORTHOREF
  2

  9
$UCSORTHOVIEW
 70
     0
  9
$UCSORGTOP
 10
0.0
 20
0.0
 30
0.0
  9
$UCSORGBOTTOM
 10
0.0
 20
0.0
 30
0.0
  9
$UCSORGLEFT
 10
0.0
 20
0.0
 30
0.0
  9
$UCSORGRIGHT
 10
0.0
 20
0.0
 30
0.0
  9
$UCSORGFRONT
 10
0.0
 20
0.0
 30
0.0
  9
$UCSORGBACK
 10
0.0
 20
0.0
 30
0.0
  9
$PUCSBASE
  2

  9
$PUCSNAME
  2

  9
$PUCSORG
 10
0.0
 20
0.0
 30
0.0
  9
$PUCSXDIR
 10
1.0
 20
0.0
 30
0.0
  9
$PUCSYDIR
 10
0.0
 20
1.0
 30
0.0
  9
$PUCSORTHOREF
  2

  9
$PUCSORTHOVIEW
 70
     0
  9
$PUCSORGTOP
 10
0.0
 20
0.0
 30
0.0
  9
$PUCSORGBOTTOM
 10
0.0
 20
0.0
 30
0.0
  9
$PUCSORGLEFT
 10
0.0
 20
0.0
 30
0.0
  9
$PUCSORGRIGHT
 10
0.0
 20
0.0
 30
0.0
  9
$PUCSORGFRONT
 10
0.0
 20
0.0
 30
0.0
  9
$PUCSORGBACK
 10
0.0
 20
0.0
 30
0.0
  9
$USERI1
 70
     0
  9
$USERI2
 70
     0
  9
$USERI3
 70
     0
  9
$USERI4
 70
     0
  9
$USERI5
 70
     0
  9
$USERR1
 40
20.0
  9
$USERR2
 40
0.0
  9
$USERR3
 40
0.0
  9
$USERR4
 40
0.0
  9
$USERR5
 40
0.0
  9
$WORLDVIEW
 70
     1
  9
$SHADEDGE
 70
     3
  9
$SHADEDIF
 70
    70
  9
$TILEMODE
 70
     1
  9
$MAXACTVP
 70
    64
  9
$PINSBASE
 10
0.0
 20
0.0
 30
0.0
  9
$PLIMCHECK
 70
     0
  9
$PEXTMIN
 10
1.000000000000000E+20
 20
1.000000000000000E+20
 30
1.000000000000000E+20
  9
$PEXTMAX
 10
-1.000000000000000E+20
 20
-1.000000000000000E+20
 30
-1.000000000000000E+20
  9
$PLIMMIN
 10
0.0
 20
0.0
  9
$PLIMMAX
 10
12.0
 20
9.0
  9
$UNITMODE
 70
     0
  9
$VISRETAIN
 70
     1
  9
$PLINEGEN
 70
     0
  9
$PSLTSCALE
 70
     1
  9
$TREEDEPTH
 70
  3020
  9
$CMLSTYLE
  2
STANDARD
  9
$CMLJUST
 70
     0
  9
$CMLSCALE
 40
1.0
  9
$PROXYGRAPHICS
 70
     1
  9
$MEASUREMENT
 70
     0
  9
$CELWEIGHT
370
    -1
  9
$ENDCAPS
280
     0
  9
$JOINSTYLE
280
     0
  9
$LWDISPLAY
290
     0
  9
$INSUNITS
 70
     0
  9
$HYPERLINKBASE
  1

  9
$STYLESHEET
  1

  9
$XEDIT
290
     1
  9
$CEPSNTYPE
380
     0
  9
$PSTYLEMODE
290
     1
  9
$FINGERPRINTGUID
  2
{68F3F60F-982D-43C0-B084-568AB2094408}
  9
$VERSIONGUID
  2
{AD9B8EA4-045B-418B-9732-3D758FA2F226}
  9
$EXTNAMES
290
     1
  9
$PSVPSCALE
 40
0.0
  9
$OLESTARTUP
290
     0
  0
ENDSEC
  0
SECTION
  2
CLASSES
  0
CLASS
  1
ACDBDICTIONARYWDFLT
  2
AcDbDictionaryWithDefault
  3
ObjectDBX Classes
 90
        0
280
     0
281
     0
  0
CLASS
  1
ACDBPLACEHOLDER
  2
AcDbPlaceHolder
  3
ObjectDBX Classes
 90
        0
280
     0
281
     0
  0
CLASS
  1
LAYOUT
  2
AcDbLayout
  3
ObjectDBX Classes
 90
        0
280
     0
281
     0
  0
CLASS
  1
DICTIONARYVAR
  2
AcDbDictionaryVar
  3
ObjectDBX Classes
 90
        0
280
     0
281
     0
  0
CLASS
  1
TABLESTYLE
  2
AcDbTableStyle
  3
ObjectDBX Classes
 90
     4095
280
     0
281
     0
  0
CLASS
  1
ACME_DOCUMENT
  2
AcMeDbDoc
  3
AcMeServices
 90
     1024
280
     0
281
     0
  0
CLASS
  1
AMGSETTINGSOBJ
  2
AmgSettingsObj
  3
"AcadM|Product Description: AutoCAD Mechanical|Company: Autodesk, Inc."
 90
     1024
280
     0
281
     0
  0
CLASS
  1
ACMESCOPE
  2
AcMeScope
  3
AcMeServices
 90
     1024
280
     0
281
     0
  0
CLASS
  1
ACMECOMMANDHISTORY
  2
AcMeCommandHistory
  3
AcMeServices
 90
     1024
280
     0
281
     0
  0
CLASS
  1
ACIMSYSVARMAN
  2
AcImSysVarManager
  3
AcMeServices
 90
     1024
280
     0
281
     0
  0
CLASS
  1
ACIMREALSYSVAR
  2
AcImRealSysVar
  3
AcMeServices
 90
     1024
280
     0
281
     0
  0
CLASS
  1
ACIMINTSYSVAR
  2
AcImIntSysVar
  3
AcMeServices
 90
     1024
280
     0
281
     0
  0
CLASS
  1
ACMEDRAWINGMAN
  2
AcMeDrawingMan
  3
AcMeServices
 90
     1024
280
     0
281
     0
  0
CLASS
  1
ACMEVIEW
  2
AcMeView
  3
AcMeServices
 90
     1024
280
     0
281
     0
  0
CLASS
  1
ACDBENTITYCACHE
  2
AcMeEntityCache
  3
AcMeServices
 90
     1024
280
     0
281
     0
  0
CLASS
  1
GSMANAGER
  2
AcMeGSManager
  3
AcMeServices
 90
     1024
280
     0
281
     0
  0
CLASS
  1
AMDTINTERNALREACTOR
  2
AmdtInternalReactor
  3
AcMeServices
 90
     1024
280
     0
281
     0
  0
CLASS
  1
ACMESTATEMGR
  2
AcMeStateMgr
  3
AcMeServices
 90
     1024
280
     0
281
     0
  0
CLASS
  1
ACGREFMASTER
  2
AcGrefMaster
  3
AcAttribServices
 90
     1024
280
     0
281
     0
  0
CLASS
  1
AM_DRAWING_MGR
  2
AcDmDwgMgr
  3
AcMechDwgViewMgmt
 90
     1024
280
     0
281
     0
  0
CLASS
  1
AM_DWG_DOCUMENT
  2
AcDmDwgDocument
  3
AcMechDwgViewMgmt
 90
     1024
280
     0
281
     0
  0
CLASS
  1
AM_DWG_SHEET
  2
AcDmSheet
  3
AcMechDwgViewMgmt
 90
     1024
280
     0
281
     0
  0
CLASS
  1
AM_VIEWDIMPARMAP
  2
AcDmViewDimParMap
  3
AcMechDwgViewMgmt
 90
     1024
280
     0
281
     0
  0
CLASS
  1
AM_DWGMGR_NAME
  2
AcDmDwgMgrName
  3
AcMechDwgViewMgmt
 90
     1024
280
     0
281
     0
  0
CLASS
  1
ACME_DATABASE
  2
AcMeDbDatabase
  3
AcMeServices
 90
     1024
280
     0
281
     0
  0
CLASS
  1
ACRFINSADJUSTERMGR
  2
AcRfInsAdjusterMgr
  3
AcMeServices
 90
     1024
280
     0
281
     0
  0
CLASS
  1
ACGREFACADMASTER
  2
AcGrefacadMaster
  3
AcGrefServices
 90
     1024
280
     0
281
     0
  0
CLASS
  1
AMDTMENUSTATEMGR
  2
AmdtMenuStateMgr
  3
McadcomServices
 90
     1024
280
     0
281
     0
  0
CLASS
  1
AMDTMCOMMENUSTATE
  2
AmdtMcomMenuState
  3
McadcomServices
 90
     1024
280
     0
281
     0
  0
CLASS
  1
AMIMASTER
  2
AmiMaster
  3
AmiServices
 90
     1024
280
     0
281
     0
  0
CLASS
  1
ASAPP
  2
AcAsAppObject
  3
AutoSurfServices
 90
     1024
280
     0
281
     0
  0
CLASS
  1
IM_STATIC_MAN
  2
AcImStaticVarManager
  3
AcMeServices
 90
     1024
280
     0
281
     0
  0
CLASS
  1
ACIMSTRSYSVAR
  2
AcImStrSysVar
  3
AcMeServices
 90
     1024
280
     0
281
     0
  0
CLASS
  1
ACIMDBLSTATICVAR
  2
AcImDblStaticVar
  3
AcMeServices
 90
     1024
280
     0
281
     0
  0
CLASS
  1
ACIMSTRSTATICVAR
  2
AcImStrStaticVar
  3
AcMeServices
 90
     1024
280
     0
281
     0
  0
CLASS
  1
ACIMINTSTATICVAR
  2
AcImIntStaticVar
  3
AcMeServices
 90
     1024
280
     0
281
     0
  0
CLASS
  1
ACASGREFMASTER
  2
AcAsGrefMaster
  3
AutoSurfResolverServices
 90
     1024
280
     0
281
     0
  0
CLASS
  1
ACADGREFMODULE
  2
AcAdGrefModule
  3
AdGrefServices
 90
     1024
280
     0
281
     0
  0
CLASS
  1
AMDTMAPISURFMOUDULE
  2
AmdtMApiSurfModule
  3
MApiSurfServices
 90
     1024
280
     0
281
     0
  0
CLASS
  1
MAPIAMMOUDLE
  2
MApiAmModule
  3
MApiAmServices
 90
     1024
280
     0
281
     0
  0
CLASS
  1
AMDTADMENUSTATE
  2
AmdtAdMenuState
  3
DesignerServices
 90
     1024
280
     0
281
     0
  0
CLASS
  1
ADAPPL
  2
AcAdAppl
  3
DesignerServices
 90
     1024
280
     0
281
     0
  0
CLASS
  1
DEPMGR
  2
AcAdDepMgr
  3
DesignerServices
 90
     1024
280
     0
281
     0
  0
CLASS
  1
PARAMMGR
  2
AcAdParamMgr
  3
DesignerServices
 90
     1024
280
     0
281
     0
  0
CLASS
  1
PARAMSCOPE
  2
AcAdParamScope
  3
DesignerServices
 90
     1024
280
     0
281
     0
  0
CLASS
  1
NAMEDAPPL
  2
AcAdNamedAppl
  3
DesignerServices
 90
     1024
280
     0
281
     0
  0
CLASS
  1
AMDTDMMENUSTATE
  2
AmdtDmMenuState
  3
AcMechDwgViewMgmt
 90
     1024
280
     0
281
     0
  0
CLASS
  1
MAPIADMODULE
  2
MApiAdModule
  3
MApiAdServices
 90
     1024
280
     0
281
     0
  0
CLASS
  1
AMDTAMMENUSTATE
  2
AmdtAmMenuState
  3
DesignerAssemblies
 90
     1024
280
     0
281
     0
  0
CLASS
  1
ACAMPROJECT
  2
AcAmProject
  3
DesignerAssemblies
 90
     1024
280
     0
281
     0
  0
CLASS
  1
ACAMGRCOMPDEF
  2
AcAmGrCompDef
  3
DesignerAssemblies
 90
     1024
280
     0
281
     0
  0
CLASS
  1
ACCMCONTEXT
  2
AcCmContext
  3
DesignerAssemblies
 90
     1024
280
     0
281
     0
  0
CLASS
  1
ACAMCOMPDEF
  2
AcAmCompDef
  3
DesignerAssemblies
 90
     1024
280
     0
281
     0
  0
CLASS
  1
ACAMCOMPDEFMGR
  2
AcAmCompDefMgr
  3
DesignerAssemblies
 90
     1024
280
     0
281
     0
  0
CLASS
  1
AMCONTEXTMGR
  2
AcAmContextMgr
  3
DesignerAssemblies
 90
     1024
280
     0
281
     0
  0
CLASS
  1
ACAMCONTEXTMODELER
  2
AcAmContextModeler
  3
DesignerAssemblies
 90
     1024
280
     0
281
     0
  0
CLASS
  1
ACMDATADICTIONARY
  2
AcmDataDictionary
  3
"AcmSymBB|Product Description: AutoCAD Mechanical|Company: Autodesk, Inc."
 90
     1024
280
     0
281
     0
  0
CLASS
  1
ACMDATAENTRYBLOCK
  2
AcmDataEntryBlock
  3
AcmSymBB|Product Description: AutoCAD Mechanical|Company: Autodesk, Inc.
 90
     1024
280
     0
281
     0
  0
CLASS
  1
CATALOGSTATE
  2
AcAmCatalogState
  3
DesignerAssemblies
 90
     1024
280
     0
281
     0
  0
CLASS
  1
ACAMGRCOMPDEFSET
  2
AcAmGrCompDefSet
  3
DesignerAssemblies
 90
     1024
280
     0
281
     0
  0
CLASS
  1
AMDTBROWSERDBTAB
  2
AmdtBrowserDbTab
  3
McadcomServices
 90
     1024
280
     0
281
     0
  0
CLASS
  1
CBROWSERAPPOBJECT
  2
CBrowserAppObject
  3
McadcomServices
 90
     1024
280
     0
281
     0
  0
CLASS
  1
DM_PLACEHOLDER
  2
AcDmSelsetPlaceholder
  3
AcMechDwgViewMgmt
 90
     1024
280
     0
281
     0
  0
CLASS
  1
ACMSTANDARDANSI
  2
AcmStandardANSI
  3
"Amdt_StdImp|Product Description: AutoCAD Mechanical|Company: Autodesk, Inc."
 90
     1024
280
     0
281
     0
  0
CLASS
  1
AMGOBJPROPCFG
  2
AmgObjPropCfg
  3
"AmgLay|Product Description: AutoCAD Mechanical|Company: Autodesk, Inc."
 90
     1025
280
     0
281
     0
  0
CLASS
  1
ACMSURFSTANDARDANSI
  2
AcmSurfTextStdANSI
  3
"Amdt_StdImp|Product Description: AutoCAD Mechanical|Company: Autodesk, Inc."
 90
     1024
280
     0
281
     0
  0
CLASS
  1
ACMFCFSTANDARDANSI
  2
AcmFCFStdANSI
  3
"Amdt_StdImp|Product Description: AutoCAD Mechanical|Company: Autodesk, Inc."
 90
     1024
280
     0
281
     0
  0
CLASS
  1
ACMWELDSTANDARDANSI
  2
AcmWeldingStdANSI
  3
"Amdt_StdImp|Product Description: AutoCAD Mechanical|Company: Autodesk, Inc."
 90
     1024
280
     0
281
     0
  0
CLASS
  1
ACMIDSTANDARDANSI
  2
AcmIdStdANSI
  3
"Amdt_StdImp|Product Description: AutoCAD Mechanical|Company: Autodesk, Inc."
 90
     1024
280
     0
281
     0
  0
CLASS
  1
ACMDATUMSTANDARDANSI
  2
AcmDatumStdANSI
  3
"Amdt_StdImp|Product Description: AutoCAD Mechanical|Company: Autodesk, Inc."
 90
     1024
280
     0
281
     0
  0
CLASS
  1
ACMBOMSTANDARDANSI
  2
AcmBOMStdANSI
  3
"Amdt_StdImp|Product Description: AutoCAD Mechanical|Company: Autodesk, Inc."
 90
     1024
280
     0
281
     0
  0
CLASS
  1
ACMDETAILSTANDARDANSI
  2
AmdtDetailSymStdANSI
  3
"Amdt_StdImp|Product Description: AutoCAD Mechanical|Company: Autodesk, Inc."
 90
     1024
280
     0
281
     0
  0
CLASS
  1
ACMSECTIONSTANDARDANSI
  2
AmdtSectionSymStdANSI
  3
"Amdt_StdImp|Product Description: AutoCAD Mechanical|Company: Autodesk, Inc."
 90
     1024
280
     0
281
     0
  0
CLASS
  1
ACMCENTERLINESTANDARDANSI
  2
AmdtCenterLineStdANSI
  3
"Amdt_StdImp|Product Description: AutoCAD Mechanical|Company: Autodesk, Inc."
 90
     1024
280
     0
281
     0
  0
CLASS
  1
ACMTHREADLINESTANDARDANSI
  2
AmdtThreadLineStdANSI
  3
"Amdt_StdImp|Product Description: AutoCAD Mechanical|Company: Autodesk, Inc."
 90
     1024
280
     0
281
     0
  0
CLASS
  1
ACMNOTESTANDARDANSI
  2
AmdtNoteStdANSI
  3
"Amdt_StdImp|Product Description: AutoCAD Mechanical|Company: Autodesk, Inc."
 90
     1024
280
     0
281
     0
  0
CLASS
  1
AMDTNOTETEMPLATEDB
  2
AmdtNoteTemplateDB
  3
AcmSymBB|Product Description: AutoCAD Mechanical|Company: Autodesk, Inc.
 90
     1024
280
     0
281
     0
  0
CLASS
  1
ACAMGLAYSTD
  2
AcAmgLayStd
  3
"AmgLay|Product Description: AutoCAD Mechanical|Company: Autodesk, Inc."
 90
     1024
280
     0
281
     0
  0
CLASS
  1
ACAMGDIMSTD
  2
AcAmgDimStd
  3
"AmgDim|Product Description: AutoCAD Mechanical|Company: Autodesk, Inc."
 90
     1024
280
     0
281
     0
  0
CLASS
  1
ACAMGHOLECHARTSTDANSI
  2
AcAmgHoleChartStdANSI
  3
AmgDim|Product Description: AutoCAD Mechanical|Company: Autodesk, Inc.
 90
     1024
280
     0
281
     0
  0
CLASS
  1
ACAMGTITLESTD
  2
AcAmgTitleStd
  3
"AmgTitle|Product Description: AutoCAD Mechanical|Company: Autodesk, Inc."
 90
     4095
280
     0
281
     0
  0
CLASS
  1
ACAMGFILTERDAT
  2
AcAmgFilterDat
  3
"AcadM|Product Description: AutoCAD Mechanical|Company: Autodesk, Inc."
 90
     1024
280
     0
281
     0
  0
CLASS
  1
LAYER_INDEX
  2
AcDbLayerIndex
  3
ObjectDBX Classes
 90
        0
280
     0
281
     0
  0
CLASS
  1
IDBUFFER
  2
AcDbIdBuffer
  3
ObjectDBX Classes
 90
        0
280
     0
281
     0
  0
CLASS
  1
SORTENTSTABLE
  2
AcDbSortentsTable
  3
ObjectDBX Classes
 90
        0
280
     0
281
     0
  0
CLASS
  1
MATERIAL
  2
AcDbMaterial
  3
ObjectDBX Classes
 90
     1153
280
     0
281
     0
  0
CLASS
  1
VISUALSTYLE
  2
AcDbVisualStyle
  3
ObjectDBX Classes
 90
     4095
280
     0
281
     0
  0
CLASS
  1
SCALE
  2
AcDbScale
  3
ObjectDBX Classes
 90
     1153
280
     0
281
     0
  0
CLASS
  1
MLEADERSTYLE
  2
AcDbMLeaderStyle
  3
ACDB_MLEADERSTYLE_CLASS
 90
     4095
280
     0
281
     0
  0
CLASS
  1
CELLSTYLEMAP
  2
AcDbCellStyleMap
  3
ObjectDBX Classes
 90
     1152
280
     0
281
     0
  0
CLASS
  1
ACRFATTGENMGR
  2
AcRfAttGeneralMgr
  3
AcAttribServices
 90
     1024
280
     0
281
     0
  0
CLASS
  1
ACRFOBJATTMGR
  2
AcRfObjAttGroupMgr
  3
AcAttribServices
 90
     1024
280
     0
281
     0
  0
CLASS
  1
ACRFMCADAPIATTHOLDER
  2
AcRfMCADAPIAttHolder
  3
AcAttribServices
 90
     1024
280
     0
281
     0
  0
CLASS
  1
AMDTSYSATTR
  2
AmdtSystemAttribute
  3
AcAttribServices
 90
     1024
280
     0
281
     0
  0
CLASS
  1
ACMTAPERSTANDARDANSI
  2
AcmTaperStdANSI
  3
"Amdt_StdImp|Product Description: AutoCAD Mechanical|Company: Autodesk, Inc."
 90
     1024
280
     0
281
     0
  0
CLASS
  1
ACMANOOTATIONVIEWSTANDARDANSI
  2
AmdtAnViewStdANSI
  3
"Amdt_StdImp|Product Description: AutoCAD Mechanical|Company: Autodesk, Inc."
 90
     1024
280
     0
281
     0
  0
ENDSEC
  0
SECTION
  2
TABLES
  0
TABLE
  2
VPORT
  5
849
330
0
100
AcDbSymbolTable
 70
     1
  0
VPORT
  5
1298
330
849
100
AcDbSymbolTableRecord
100
AcDbViewportTableRecord
  2
*Active
 70
     0
 10
0.0
 20
0.0
 11
1.0
 21
1.0
 12
0.0
 22
0.0
 13
0.0
 23
0.0
 14
1.0
 24
1.0
 15
0.0
 25
0.0
 16
0.0
 26
0.0
 36
1.0
 17
214.6737965380558
 27
237.004553724355
 37
0.0
 40
1753.458814034595
 41
1.403890160183066
 42
50.0
 43
0.0
 44
0.0
 50
0.0
 51
0.0
 71
     0
 72
   100
 73
     1
 74
     0
 75
     0
 76
     0
 77
     0
 78
     0
281
     0
 65
     0
110
0.0
120
0.0
130
0.0
111
1.0
121
0.0
131
0.0
112
0.0
122
1.0
132
0.0
 79
     0
146
0.0
  0
ENDTAB
  0
TABLE
  2
LTYPE
  5
846
330
0
100
AcDbSymbolTable
 70
    19
  0
LTYPE
  5
854
330
846
100
AcDbSymbolTableRecord
100
AcDbLinetypeTableRecord
  2
BYBLOCK
 70
     0
  3

 72
    65
 73
     0
 40
0.0
  0
LTYPE
  5
855
330
846
100
AcDbSymbolTableRecord
100
AcDbLinetypeTableRecord
  2
BYLAYER
 70
     0
  3

 72
    65
 73
     0
 40
0.0
  0
LTYPE
  5
856
330
846
100
AcDbSymbolTableRecord
100
AcDbLinetypeTableRecord
  2
CONTINUOUS
 70
     0
  3
実線
 72
    65
 73
     0
 40
0.0
  0
LTYPE
  5
865
330
846
100
AcDbSymbolTableRecord
100
AcDbLinetypeTableRecord
  2
DASHDOT
 70
     0
  3
____ _ ____ _ ____ _ ____ _ ____ _ ____ _ ____
 72
    65
 73
     4
 40
5.5
 49
4.0
 74
     0
 49
-0.6
 74
     0
 49
0.3
 74
     0
 49
-0.6
 74
     0
  0
LTYPE
  5
1188
330
846
100
AcDbSymbolTableRecord
100
AcDbLinetypeTableRecord
  2
HIDDEN
 70
     0
  3
Hidden __ __ __ __ __ __ __ __ __ __ __ __ __ _
 72
    65
 73
     2
 40
0.375
 49
0.25
 74
     0
 49
-0.125
 74
     0
  0
LTYPE
  5
1189
330
846
100
AcDbSymbolTableRecord
100
AcDbLinetypeTableRecord
  2
PHANTOM2
 70
     0
  3
Phantom (.5x) ___ _ _ ___ _ _ ___ _ _ ___ _ _
 72
    65
 73
     6
 40
1.25
 49
0.625
 74
     0
 49
-0.125
 74
     0
 49
0.125
 74
     0
 49
-0.125
 74
     0
 49
0.125
 74
     0
 49
-0.125
 74
     0
  0
LTYPE
  5
118A
330
846
100
AcDbSymbolTableRecord
100
AcDbLinetypeTableRecord
  2
CENTER
 70
     0
  3
Center ____ _ ____ _ ____ _ ____ _ ____ _ ____
 72
    65
 73
     4
 40
2.0
 49
1.25
 74
     0
 49
-0.25
 74
     0
 49
0.25
 74
     0
 49
-0.25
 74
     0
  0
LTYPE
  5
11D9
330
846
100
AcDbSymbolTableRecord
100
AcDbLinetypeTableRecord
  2
ASULTYPE
 70
     0
  3
実線
 72
    65
 73
     2
 40
3.0
 49
2.5
 74
     0
 49
0.5
 74
     0
  0
LTYPE
  5
11DA
330
846
100
AcDbSymbolTableRecord
100
AcDbLinetypeTableRecord
  2
ASVLTYPE
 70
     0
  3
__ __ __ __ __ __ __ __ __ __ __ __ __ __ __ __ __ __ __ __ __
 72
    65
 73
     2
 40
0.75
 49
0.5
 74
     0
 49
-0.25
 74
     0
  0
LTYPE
  5
1221
330
846
100
AcDbSymbolTableRecord
100
AcDbLinetypeTableRecord
  2
AM_ISO02W050
 70
     0
  3
__ __ __ __ __ __ __ __ __ __ __ __ __ __ __
 72
    65
 73
     2
 40
7.5
 49
6.0
 74
     0
 49
-1.5
 74
     0
  0
LTYPE
  5
1222
330
846
100
AcDbSymbolTableRecord
100
AcDbLinetypeTableRecord
  2
AM_ISO08W050
 70
     0
  3
____ . ____ . ____ . ____ . ____ . ____ . ____
 72
    65
 73
     4
 40
18.0
 49
12.0
 74
     0
 49
-1.5
 74
     0
 49
3.0
 74
     0
 49
-1.5
 74
     0
  0
LTYPE
  5
1223
330
846
100
AcDbSymbolTableRecord
100
AcDbLinetypeTableRecord
  2
AM_ISO09W050
 70
     0
  3
_____ . . _____ . . _____ . . ____ .. ____
 72
    65
 73
     6
 40
22.5
 49
12.0
 74
     0
 49
-1.5
 74
     0
 49
3.0
 74
     0
 49
-1.5
 74
     0
 49
3.0
 74
     0
 49
-1.5
 74
     0
  0
LTYPE
  5
1224
330
846
100
AcDbSymbolTableRecord
100
AcDbLinetypeTableRecord
  2
Amconstr
 70
     0
  3
_______________________
 72
    65
 73
     2
 40
9999.0
 49
9999.0
 74
     0
 49
0.0
 74
     0
  0
LTYPE
  5
1225
330
846
100
AcDbSymbolTableRecord
100
AcDbLinetypeTableRecord
  2
AM_ISO08W050x2
 70
     0
  3
__ . __ . __ . __ . __ . __
 72
    65
 73
     4
 40
9.0
 49
6.0
 74
     0
 49
-0.75
 74
     0
 49
1.5
 74
     0
 49
-0.75
 74
     0
  0
LTYPE
  5
1226
330
846
100
AcDbSymbolTableRecord
100
AcDbLinetypeTableRecord
  2
AM_ISO02W050x2
 70
     0
  3
 _ _ _ _ _ _ _ _ _ _ _ _
 72
    65
 73
     2
 40
3.75
 49
3.0
 74
     0
 49
-0.75
 74
     0
  0
LTYPE
  5
1229
330
846
100
AcDbSymbolTableRecord
100
AcDbLinetypeTableRecord
  2
Amzigzag
 70
     0
  3
/\/-/\/-/\/-/\/-/\/-/\/
 72
    65
 73
     2
 40
11.0001
 49
0.0001
 74
     4
 75
   136
340
1228
 46
0.04
 50
0.0
 44
0.0
 45
0.0
 49
-11.0
 74
     0
  0
LTYPE
  5
122A
330
846
100
AcDbSymbolTableRecord
100
AcDbLinetypeTableRecord
  2
CENTER2
 70
     0
  3
Center (.5x) ___ _ ___ _ ___ _ ___ _ ___ _ ___
 72
    65
 73
     4
 40
1.125
 49
0.75
 74
     0
 49
-0.125
 74
     0
 49
0.125
 74
     0
 49
-0.125
 74
     0
  0
LTYPE
  5
122B
330
846
100
AcDbSymbolTableRecord
100
AcDbLinetypeTableRecord
  2
HIDDEN2
 70
     0
  3
Hidden (.5x) _ _ _ _ _ _ _ _ _ _ _ _ _ _ _ _ _
 72
    65
 73
     2
 40
0.1875
 49
0.125
 74
     0
 49
-0.0625
 74
     0
  0
LTYPE
  5
122C
330
846
100
AcDbSymbolTableRecord
100
AcDbLinetypeTableRecord
  2
Amzigzag2
 70
     0
  3
/\/-/\/-/\/-/\/-/\/-/\/
 72
    65
 73
     2
 40
0.4401
 49
0.0001
 74
     4
 75
   136
340
1228
 46
0.0016
 50
0.0
 44
0.0
 45
0.0
 49
-0.4400000000000003
 74
     0
  0
LTYPE
  5
123A
330
846
100
AcDbSymbolTableRecord
100
AcDbLinetypeTableRecord
  2
ACANSTGB
 70
     0
  3
__ . . __ . .
 72
    65
 73
     6
 40
0.35433070866
 49
0.15748031496
 74
     0
 49
-0.03937007874
 74
     0
 49
0.03937007874
 74
     0
 49
-0.03937007874
 74
     0
 49
0.03937007874
 74
     0
 49
-0.03937007874
 74
     0
  0
LTYPE
  5
123B
330
846
100
AcDbSymbolTableRecord
100
AcDbLinetypeTableRecord
  2
ACANSTGL
 70
     0
  3
_ _ _ _ _
 72
    65
 73
     2
 40
0.11811023622
 49
0.07874015748
 74
     0
 49
-0.03937007874
 74
     0
  0
ENDTAB
  0
TABLE
  2
LAYER
  5
843
102
{ACAD_XDICTIONARY
360
17C1
102
}
330
0
100
AcDbSymbolTable
 70
    12
  0
LAYER
  5
851
102
{ACAD_XDICTIONARY
360
14B1
102
}
330
843
100
AcDbSymbolTableRecord
100
AcDbLayerTableRecord
  2
0
 70
     0
 62
     7
  6
CONTINUOUS
370
    -3
390
B83
  0
LAYER
  5
863
102
{ACAD_XDICTIONARY
360
14B3
102
}
330
843
100
AcDbSymbolTableRecord
100
AcDbLayerTableRecord
  2
OUTLINE
 70
     0
 62
     3
  6
CONTINUOUS
370
    -3
390
B83
  0
LAYER
  5
866
102
{ACAD_XDICTIONARY
360
14B5
102
}
330
843
100
AcDbSymbolTableRecord
100
AcDbLayerTableRecord
  2
SIZE
 70
     0
 62
    30
  6
CONTINUOUS
370
    -3
390
B83
  0
LAYER
  5
867
102
{ACAD_XDICTIONARY
360
14B7
102
}
330
843
100
AcDbSymbolTableRecord
100
AcDbLayerTableRecord
  2
BASIS
 70
     0
 62
     6
  6
DASHDOT
370
    -3
390
B83
  0
LAYER
  5
868
102
{ACAD_XDICTIONARY
360
14B9
102
}
330
843
100
AcDbSymbolTableRecord
100
AcDbLayerTableRecord
  2
DETAIL
 70
     0
 62
     5
  6
CONTINUOUS
370
    -3
390
B83
  0
LAYER
  5
869
102
{ACAD_XDICTIONARY
360
14BB
102
}
330
843
100
AcDbSymbolTableRecord
100
AcDbLayerTableRecord
  2
ARRANGE
 70
     0
 62
     1
  6
CONTINUOUS
370
    -3
390
B83
  0
LAYER
  5
86A
330
843
100
AcDbSymbolTableRecord
100
AcDbLayerTableRecord
  2
DEFPOINTS
 70
     0
 62
     7
  6
CONTINUOUS
290
     0
370
    -3
390
B83
  0
LAYER
  5
86B
102
{ACAD_XDICTIONARY
360
14BD
102
}
330
843
100
AcDbSymbolTableRecord
100
AcDbLayerTableRecord
  2
ETC
 70
     0
 62
    61
  6
CONTINUOUS
370
    -3
390
B83
  0
LAYER
  5
86C
102
{ACAD_XDICTIONARY
360
14BF
102
}
330
843
100
AcDbSymbolTableRecord
100
AcDbLayerTableRecord
  2
FIX
 70
     0
 62
    11
  6
CONTINUOUS
370
    -3
390
B83
  0
LAYER
  5
86D
102
{ACAD_XDICTIONARY
360
14C1
102
}
330
843
100
AcDbSymbolTableRecord
100
AcDbLayerTableRecord
  2
NOTE
 70
     0
 62
     4
  6
CONTINUOUS
370
    -3
390
B83
  0
LAYER
  5
86E
102
{ACAD_XDICTIONARY
360
14C3
102
}
330
843
100
AcDbSymbolTableRecord
100
AcDbLayerTableRecord
  2
SERVICESPACE
 70
     0
 62
     2
  6
DASHDOT
370
    -3
390
B83
  0
LAYER
  5
86F
102
{ACAD_XDICTIONARY
360
14C5
102
}
330
843
100
AcDbSymbolTableRecord
100
AcDbLayerTableRecord
  2
SYMBOLLINE
 70
     0
 62
    15
  6
CONTINUOUS
370
    -3
390
B83
  0
ENDTAB
  0
TABLE
  2
STYLE
  5
844
330
0
100
AcDbSymbolTable
 70
     5
  0
STYLE
  5
852
330
844
100
AcDbSymbolTableRecord
100
AcDbTextStyleTableRecord
  2
STANDARD
 70
     0
 40
64.0
 41
0.9
 50
0.0
 71
     0
 42
64.0
  3
SIMPLEX.shx
  4
BIGFONT.shx
  0
STYLE
  5
1228
330
844
100
AcDbSymbolTableRecord
100
AcDbTextStyleTableRecord
  2

 70
     1
 40
0.0
 41
1.0
 50
0.0
 71
     0
 42
64.0
  3
genltshp.shx
  4

  0
STYLE
  5
122D
330
844
100
AcDbSymbolTableRecord
100
AcDbTextStyleTableRecord
  2
ACANSTS
 70
     0
 40
1.0
 41
1.0
 50
0.0
 71
     0
 42
64.0
  3
romans.shx
  4
extfont.shx
  0
STYLE
  5
1239
330
844
100
AcDbSymbolTableRecord
100
AcDbTextStyleTableRecord
  2
ACANSGDT
 70
     0
 40
0.0
 41
1.0
 50
0.0
 71
     0
 42
64.0
  3
amgdt.shx
  4

  0
STYLE
  5
17BC
330
844
100
AcDbSymbolTableRecord
100
AcDbTextStyleTableRecord
  2
ADESK1
 70
     0
 40
0.0
 41
1.0
 50
0.0
 71
     0
 42
0.12
  3
romanc.shx
  4
extfont.shx
  0
ENDTAB
  0
TABLE
  2
VIEW
  5
847
330
0
100
AcDbSymbolTable
 70
     1
  0
VIEW
  5
870
330
847
100
AcDbSymbolTableRecord
100
AcDbViewTableRecord
  2
ALL
 70
     0
 40
4282.619807999997
 10
0.0
 20
41.30990399999999
 41
5940.0
 11
0.0
 21
0.0
 31
1.0
 12
0.0
 22
0.0
 32
0.0
 42
50.0
 43
0.0
 44
0.0
 50
0.0
 71
     0
281
     0
 72
     0
  0
ENDTAB
  0
TABLE
  2
UCS
  5
848
330
0
100
AcDbSymbolTable
 70
     0
  0
ENDTAB
  0
TABLE
  2
APPID
  5
84A
330
0
100
AcDbSymbolTable
 70
    23
  0
APPID
  5
853
330
84A
100
AcDbSymbolTableRecord
100
AcDbRegAppTableRecord
  2
ACAD
 70
     0
  0
APPID
  5
1154
330
84A
100
AcDbSymbolTableRecord
100
AcDbRegAppTableRecord
  2
GENIUS_GENDIM_13
 70
     0
  0
APPID
  5
1155
330
84A
100
AcDbSymbolTableRecord
100
AcDbRegAppTableRecord
  2
GENIUS_GENDTOL_13
 70
     0
  0
APPID
  5
1156
330
84A
100
AcDbSymbolTableRecord
100
AcDbRegAppTableRecord
  2
GENIUS_GE3DTOL_13
 70
     0
  0
APPID
  5
1159
330
84A
100
AcDbSymbolTableRecord
100
AcDbRegAppTableRecord
  2
MCAD_NO_VIS
 70
     0
  0
APPID
  5
115A
330
84A
100
AcDbSymbolTableRecord
100
AcDbRegAppTableRecord
  2
ACAD_TEMP_GRAPHIC
 70
     0
  0
APPID
  5
118C
330
84A
100
AcDbSymbolTableRecord
100
AcDbRegAppTableRecord
  2
AD_DRAW
 70
     0
  0
APPID
  5
118F
330
84A
100
AcDbSymbolTableRecord
100
AcDbRegAppTableRecord
  2
ACATTRIBSERVICES
 70
     0
  0
APPID
  5
11DB
330
84A
100
AcDbSymbolTableRecord
100
AcDbRegAppTableRecord
  2
ASURF_PCURVE_APPNAME
 70
     0
  0
APPID
  5
11E0
330
84A
100
AcDbSymbolTableRecord
100
AcDbRegAppTableRecord
  2
AMG_3D2D_5.0
 70
     0
  0
APPID
  5
1211
330
84A
100
AcDbSymbolTableRecord
100
AcDbRegAppTableRecord
  2
DESIGNERASSEMBLIES
 70
     0
  0
APPID
  5
1218
330
84A
100
AcDbSymbolTableRecord
100
AcDbRegAppTableRecord
  2
ACADM_DIM_EDIT
 70
     0
  0
APPID
  5
1219
330
84A
100
AcDbSymbolTableRecord
100
AcDbRegAppTableRecord
  2
AMDT_DM_ADJ
 70
     0
  0
APPID
  5
1248
330
84A
100
AcDbSymbolTableRecord
100
AcDbRegAppTableRecord
  2
ACAD_DSTYLE_DIMARC_LENGTH_SYMBOL
 70
     0
  0
APPID
  5
1249
330
84A
100
AcDbSymbolTableRecord
100
AcDbRegAppTableRecord
  2
ACAD_DSTYLE_DIMJOGGED_JOGANGLE_SYMBOL
 70
     0
  0
APPID
  5
12EA
330
84A
100
AcDbSymbolTableRecord
100
AcDbRegAppTableRecord
  2
ACAD_MLEADERVER
 70
     0
  0
APPID
  5
133A
330
84A
100
AcDbSymbolTableRecord
100
AcDbRegAppTableRecord
  2
ACAD_PSEXT
 70
     0
  0
APPID
  5
1784
330
84A
100
AcDbSymbolTableRecord
100
AcDbRegAppTableRecord
  2
ACAD_EXEMPT_FROM_CAD_STANDARDS
 70
     0
  0
APPID
  5
17BF
330
84A
100
AcDbSymbolTableRecord
100
AcDbRegAppTableRecord
  2
ACAD_DSTYLE_DIMJAG
 70
     0
  0
APPID
  5
17C0
330
84A
100
AcDbSymbolTableRecord
100
AcDbRegAppTableRecord
  2
ACAD_DSTYLE_DIMTALN
 70
     0
  0
APPID
  5
18A7
330
84A
100
AcDbSymbolTableRecord
100
AcDbRegAppTableRecord
  2
ACAD_DSTYLE_DIM_LINETYPE
 70
     0
  0
APPID
  5
18A8
330
84A
100
AcDbSymbolTableRecord
100
AcDbRegAppTableRecord
  2
ACAD_DSTYLE_DIM_EXT1_LINETYPE
 70
     0
  0
APPID
  5
18A9
330
84A
100
AcDbSymbolTableRecord
100
AcDbRegAppTableRecord
  2
ACAD_DSTYLE_DIM_EXT2_LINETYPE
 70
     0
  0
ENDTAB
  0
TABLE
  2
DIMSTYLE
  5
84B
330
0
100
AcDbSymbolTable
 70
     9
100
AcDbDimStyleTable
 71
     2
340
1247
340
871
  0
DIMSTYLE
105
871
330
84B
100
AcDbSymbolTableRecord
100
AcDbDimStyleTableRecord
  2
STANDARD
 70
     0
275
     1
284
     8
285
     8
286
     8
340
852
  0
DIMSTYLE
105
1247
330
84B
100
AcDbSymbolTableRecord
100
AcDbDimStyleTableRecord
  2
AM_ANSI
 70
     0
  4
mm
 41
0.12
 42
0.05
 43
0.5
 44
0.1
 47
0.1
 48
0.1
 78
     7
 79
     2
140
0.12
141
0.0
146
0.71
147
0.06
176
   256
177
   256
178
     2
274
     4
284
     7
340
852
371
    -1
372
    -1
1001
ACAD_DSTYLE_DIMJOGGED_JOGANGLE_SYMBOL
1070
   384
1040
0.7853981633974483
1001
ACAD_DSTYLE_DIMARC_LENGTH_SYMBOL
1070
   379
1070
     1
1001
ACAD_DSTYLE_DIM_LINETYPE
1070
   380
1005
854
1001
ACAD_DSTYLE_DIM_EXT1_LINETYPE
1070
   381
1005
854
1001
ACAD_DSTYLE_DIM_EXT2_LINETYPE
1070
   382
1005
854
  0
DIMSTYLE
105
1250
330
84B
100
AcDbSymbolTableRecord
100
AcDbDimStyleTableRecord
  2
AM_ANSI$3
 70
     0
  4
mm
 41
0.12
 42
0.05
 43
0.5
 44
0.1
 47
0.1
 48
0.1
 78
     7
 79
     2
140
0.12
141
0.0
146
0.71
147
0.06
176
   256
177
   256
178
     2
274
     4
284
     7
288
     1
289
     0
340
852
371
    -1
372
    -1
1001
ACAD_DSTYLE_DIMJOGGED_JOGANGLE_SYMBOL
1070
   384
1040
0.7853981633974483
1001
ACAD_DSTYLE_DIMARC_LENGTH_SYMBOL
1070
   379
1070
     1
1001
ACAD_DSTYLE_DIM_LINETYPE
1070
   380
1005
854
1001
ACAD_DSTYLE_DIM_EXT1_LINETYPE
1070
   381
1005
854
1001
ACAD_DSTYLE_DIM_EXT2_LINETYPE
1070
   382
1005
854
  0
DIMSTYLE
105
1253
330
84B
100
AcDbSymbolTableRecord
100
AcDbDimStyleTableRecord
  2
AM_ANSI$4
 70
     0
  4
mm
 41
0.12
 42
0.05
 43
0.5
 44
0.1
 47
0.1
 48
0.1
 78
     7
 79
     2
140
0.12
141
0.0
146
0.71
147
0.06
176
   256
177
   256
178
     2
274
     4
284
     7
340
852
371
    -1
372
    -1
1001
ACAD_DSTYLE_DIMJOGGED_JOGANGLE_SYMBOL
1070
   384
1040
0.7853981633974483
1001
ACAD_DSTYLE_DIMARC_LENGTH_SYMBOL
1070
   379
1070
     1
1001
ACAD_DSTYLE_DIM_LINETYPE
1070
   380
1005
854
1001
ACAD_DSTYLE_DIM_EXT1_LINETYPE
1070
   381
1005
854
1001
ACAD_DSTYLE_DIM_EXT2_LINETYPE
1070
   382
1005
854
  0
DIMSTYLE
105
1258
330
84B
100
AcDbSymbolTableRecord
100
AcDbDimStyleTableRecord
  2
AM_ANSI$7
 70
     0
  4
mm
 41
0.12
 42
0.05
 43
0.5
 44
0.1
 47
0.1
 48
0.1
 78
     7
 79
     2
140
0.12
141
0.0
146
0.71
147
0.06
176
   256
177
   256
178
     2
274
     4
284
     7
340
852
371
    -1
372
    -1
1001
ACAD_DSTYLE_DIMJOGGED_JOGANGLE_SYMBOL
1070
   384
1040
0.7853981633974483
1001
ACAD_DSTYLE_DIMARC_LENGTH_SYMBOL
1070
   379
1070
     1
1001
ACAD_DSTYLE_DIM_LINETYPE
1070
   380
1005
854
1001
ACAD_DSTYLE_DIM_EXT1_LINETYPE
1070
   381
1005
854
1001
ACAD_DSTYLE_DIM_EXT2_LINETYPE
1070
   382
1005
854
  0
DIMSTYLE
105
125B
330
84B
100
AcDbSymbolTableRecord
100
AcDbDimStyleTableRecord
  2
AM_ANSI$SF
 70
     0
  4
mm
 41
0.12
 42
0.05
 43
0.5
 44
0.1
 47
0.1
 48
0.1
 75
     1
 76
     1
 78
     7
 79
     2
140
0.12
141
0.0
146
0.71
147
0.06
176
   256
177
   256
178
     2
274
     4
284
     7
340
852
371
    -1
372
    -1
1001
ACAD_DSTYLE_DIMJOGGED_JOGANGLE_SYMBOL
1070
   384
1040
0.7853981633974483
1001
ACAD_DSTYLE_DIMARC_LENGTH_SYMBOL
1070
   379
1070
     1
1001
ACAD_DSTYLE_DIM_LINETYPE
1070
   380
1005
854
1001
ACAD_DSTYLE_DIM_EXT1_LINETYPE
1070
   381
1005
854
1001
ACAD_DSTYLE_DIM_EXT2_LINETYPE
1070
   382
1005
854
  0
DIMSTYLE
105
1262
330
84B
100
AcDbSymbolTableRecord
100
AcDbDimStyleTableRecord
  2
AM_ANSI$SH
 70
     0
  4
mm
 41
0.12
 42
0.05
 43
0.5
 44
0.1
 47
0.1
 48
0.1
 75
     1
 76
     1
 78
     7
 79
     2
140
0.12
141
0.0
146
0.71
147
0.06
173
     1
176
   256
177
   256
178
     2
274
     4
284
     7
340
852
343
125C
371
    -1
372
    -1
1001
ACAD_DSTYLE_DIMJOGGED_JOGANGLE_SYMBOL
1070
   384
1040
0.7853981633974483
1001
ACAD_DSTYLE_DIMARC_LENGTH_SYMBOL
1070
   379
1070
     1
1001
ACAD_DSTYLE_DIM_LINETYPE
1070
   380
1005
854
1001
ACAD_DSTYLE_DIM_EXT1_LINETYPE
1070
   381
1005
854
1001
ACAD_DSTYLE_DIM_EXT2_LINETYPE
1070
   382
1005
854
  0
DIMSTYLE
105
17BD
330
84B
100
AcDbSymbolTableRecord
100
AcDbDimStyleTableRecord
  2
STANDARD1
 70
     0
 40
6.0
 41
2.5
 42
0.625
 43
6.0
 44
1.25
 47
1.0
 48
0.5
 77
     1
 78
     8
140
2.5
141
0.0
146
0.6
147
1.0
173
     1
284
     1
340
852
341
AB7
343
AB7
344
AB7
  0
DIMSTYLE
105
17BE
330
84B
100
AcDbSymbolTableRecord
100
AcDbDimStyleTableRecord
  2
STANDARD$0
 70
     0
 41
12.0
 42
20.0
 44
20.0
 73
     0
 74
     0
 77
     1
 78
     9
140
64.0
141
0.0
147
10.0
271
     0
272
     0
275
     1
284
     8
285
     8
286
     8
340
852
341
AB7
342
AB2
1001
ACAD_DSTYLE_DIMJAG
1070
   388
1040
1.5
1001
ACAD_DSTYLE_DIMTALN
1070
   392
1070
     0
  0
ENDTAB
  0
TABLE
  2
BLOCK_RECORD
  5
842
330
0
100
AcDbSymbolTable
 70
    55
  0
BLOCK_RECORD
  5
85F
102
{ACAD_XDICTIONARY
360
B4F
102
}
330
842
100
AcDbSymbolTableRecord
100
AcDbBlockTableRecord
  2
*MODEL_SPACE
340
B84
  0
BLOCK_RECORD
  5
85B
102
{ACAD_XDICTIONARY
360
B4D
102
}
330
842
100
AcDbSymbolTableRecord
100
AcDbBlockTableRecord
  2
*PAPER_SPACE
340
B85
  0
BLOCK_RECORD
  5
87E
330
842
100
AcDbSymbolTableRecord
100
AcDbBlockTableRecord
  2
_ORIGIN
340
0
  0
BLOCK_RECORD
  5
AB2
330
842
100
AcDbSymbolTableRecord
100
AcDbBlockTableRecord
  2
_DOTBLANK
340
0
102
{BLKREFS
331
10DD
331
10DE
331
10E6
331
10E7
331
10F1
331
10F2
331
1114
331
1115
331
113E
331
113F
331
12F4
331
12F5
331
1300
331
1301
331
130C
331
130D
331
131A
331
131B
331
1326
331
1327
331
1333
331
1334
331
1417
331
1418
331
1434
331
1435
331
1484
331
1485
331
148D
331
148E
331
1498
331
1499
331
14A2
331
14A3
331
14AB
331
14AC
331
14E5
331
14E6
331
14F1
331
14F2
331
14FD
331
14FE
331
150B
331
150C
331
1517
331
1518
331
1524
331
1525
331
1607
331
1608
331
1624
331
1625
331
1644
331
1645
331
164D
331
164E
331
1658
331
1659
331
1662
331
1663
331
166B
331
166C
331
1696
331
1697
331
1791
331
1792
331
179D
331
179E
331
17A9
331
17AA
331
17B5
331
17B6
331
187A
331
187B
331
1883
331
1884
331
188C
331
188D
331
1895
331
1896
331
19B9
331
19BA
331
19C5
331
19C6
331
1995
331
1996
331
19A1
331
19A2
331
19AD
331
19AE
331
1CE8
331
1CE9
331
1CF1
331
1CF2
331
1CFA
331
1CFB
331
1D03
331
1D04
331
1D0C
331
1D0D
331
1E00
331
1E01
331
1E06
331
1E07
331
1E0F
331
1E10
331
1E15
331
1E16
331
1E1B
331
1E1C
102
}
  0
BLOCK_RECORD
  5
AB7
330
842
100
AcDbSymbolTableRecord
100
AcDbBlockTableRecord
  2
_OPEN30
340
0
102
{BLKREFS
331
1E0A
102
}
  0
BLOCK_RECORD
  5
D9C
330
842
100
AcDbSymbolTableRecord
100
AcDbBlockTableRecord
  2
*D3
340
0
  0
BLOCK_RECORD
  5
FC4
330
842
100
AcDbSymbolTableRecord
100
AcDbBlockTableRecord
  2
*D4
340
0
  0
BLOCK_RECORD
  5
FD2
330
842
100
AcDbSymbolTableRecord
100
AcDbBlockTableRecord
  2
*D5
340
0
  0
BLOCK_RECORD
  5
FDE
330
842
100
AcDbSymbolTableRecord
100
AcDbBlockTableRecord
  2
*D6
340
0
  0
BLOCK_RECORD
  5
FEC
330
842
100
AcDbSymbolTableRecord
100
AcDbBlockTableRecord
  2
*D7
340
0
  0
BLOCK_RECORD
  5
125C
330
842
100
AcDbSymbolTableRecord
100
AcDbBlockTableRecord
  2
GENAXEH
340
0
  0
BLOCK_RECORD
  5
12EF
330
842
100
AcDbSymbolTableRecord
100
AcDbBlockTableRecord
  2
*D9
340
0
  0
BLOCK_RECORD
  5
12FB
330
842
100
AcDbSymbolTableRecord
100
AcDbBlockTableRecord
  2
*D10
340
0
  0
BLOCK_RECORD
  5
1307
330
842
100
AcDbSymbolTableRecord
100
AcDbBlockTableRecord
  2
*D11
340
0
  0
BLOCK_RECORD
  5
1313
330
842
100
AcDbSymbolTableRecord
100
AcDbBlockTableRecord
  2
*D12
340
0
  0
BLOCK_RECORD
  5
1321
330
842
100
AcDbSymbolTableRecord
100
AcDbBlockTableRecord
  2
*D13
340
0
  0
BLOCK_RECORD
  5
132D
330
842
100
AcDbSymbolTableRecord
100
AcDbBlockTableRecord
  2
*D14
340
0
  0
BLOCK_RECORD
  5
1387
330
842
100
AcDbSymbolTableRecord
100
AcDbBlockTableRecord
  2
*D15
340
0
  0
BLOCK_RECORD
  5
1393
330
842
100
AcDbSymbolTableRecord
100
AcDbBlockTableRecord
  2
*D16
340
0
  0
BLOCK_RECORD
  5
139F
330
842
100
AcDbSymbolTableRecord
100
AcDbBlockTableRecord
  2
*D17
340
0
  0
BLOCK_RECORD
  5
13AB
330
842
100
AcDbSymbolTableRecord
100
AcDbBlockTableRecord
  2
*D18
340
0
  0
BLOCK_RECORD
  5
13B9
330
842
100
AcDbSymbolTableRecord
100
AcDbBlockTableRecord
  2
*D19
340
0
  0
BLOCK_RECORD
  5
13C5
330
842
100
AcDbSymbolTableRecord
100
AcDbBlockTableRecord
  2
*D20
340
0
  0
BLOCK_RECORD
  5
1445
330
842
100
AcDbSymbolTableRecord
100
AcDbBlockTableRecord
  2
*D21
340
0
  0
BLOCK_RECORD
  5
14E0
330
842
100
AcDbSymbolTableRecord
100
AcDbBlockTableRecord
  2
*D22
340
0
  0
BLOCK_RECORD
  5
14EC
330
842
100
AcDbSymbolTableRecord
100
AcDbBlockTableRecord
  2
*D23
340
0
  0
BLOCK_RECORD
  5
14F8
330
842
100
AcDbSymbolTableRecord
100
AcDbBlockTableRecord
  2
*D24
340
0
  0
BLOCK_RECORD
  5
1504
330
842
100
AcDbSymbolTableRecord
100
AcDbBlockTableRecord
  2
*D25
340
0
  0
BLOCK_RECORD
  5
1512
330
842
100
AcDbSymbolTableRecord
100
AcDbBlockTableRecord
  2
*D26
340
0
  0
BLOCK_RECORD
  5
151E
330
842
100
AcDbSymbolTableRecord
100
AcDbBlockTableRecord
  2
*D27
340
0
  0
BLOCK_RECORD
  5
1577
330
842
100
AcDbSymbolTableRecord
100
AcDbBlockTableRecord
  2
*D28
340
0
  0
BLOCK_RECORD
  5
1583
330
842
100
AcDbSymbolTableRecord
100
AcDbBlockTableRecord
  2
*D29
340
0
  0
BLOCK_RECORD
  5
1591
330
842
100
AcDbSymbolTableRecord
100
AcDbBlockTableRecord
  2
*D30
340
0
  0
BLOCK_RECORD
  5
159D
330
842
100
AcDbSymbolTableRecord
100
AcDbBlockTableRecord
  2
*D31
340
0
  0
BLOCK_RECORD
  5
15AA
330
842
100
AcDbSymbolTableRecord
100
AcDbBlockTableRecord
  2
*D32
340
0
  0
BLOCK_RECORD
  5
15B6
330
842
100
AcDbSymbolTableRecord
100
AcDbBlockTableRecord
  2
*D33
340
0
  0
BLOCK_RECORD
  5
1635
330
842
100
AcDbSymbolTableRecord
100
AcDbBlockTableRecord
  2
*D34
340
0
  0
BLOCK_RECORD
  5
1683
330
842
100
AcDbSymbolTableRecord
100
AcDbBlockTableRecord
  2
*D35
340
0
  0
BLOCK_RECORD
  5
178C
330
842
100
AcDbSymbolTableRecord
100
AcDbBlockTableRecord
  2
*D36
340
0
  0
BLOCK_RECORD
  5
1798
330
842
100
AcDbSymbolTableRecord
100
AcDbBlockTableRecord
  2
*D37
340
0
  0
BLOCK_RECORD
  5
17A4
330
842
100
AcDbSymbolTableRecord
100
AcDbBlockTableRecord
  2
*D38
340
0
  0
BLOCK_RECORD
  5
17B0
330
842
100
AcDbSymbolTableRecord
100
AcDbBlockTableRecord
  2
*D39
340
0
  0
BLOCK_RECORD
  5
1847
330
842
100
AcDbSymbolTableRecord
100
AcDbBlockTableRecord
  2
*D40
340
0
  0
BLOCK_RECORD
  5
1853
330
842
100
AcDbSymbolTableRecord
100
AcDbBlockTableRecord
  2
*D41
340
0
  0
BLOCK_RECORD
  5
185F
330
842
100
AcDbSymbolTableRecord
100
AcDbBlockTableRecord
  2
*D42
340
0
  0
BLOCK_RECORD
  5
186B
330
842
100
AcDbSymbolTableRecord
100
AcDbBlockTableRecord
  2
*D43
340
0
  0
BLOCK_RECORD
  5
1990
330
842
100
AcDbSymbolTableRecord
100
AcDbBlockTableRecord
  2
*D44
340
0
  0
BLOCK_RECORD
  5
199C
330
842
100
AcDbSymbolTableRecord
100
AcDbBlockTableRecord
  2
*D45
340
0
  0
BLOCK_RECORD
  5
19A8
330
842
100
AcDbSymbolTableRecord
100
AcDbBlockTableRecord
  2
*D46
340
0
  0
BLOCK_RECORD
  5
19B4
330
842
100
AcDbSymbolTableRecord
100
AcDbBlockTableRecord
  2
*D47
340
0
  0
BLOCK_RECORD
  5
19C0
330
842
100
AcDbSymbolTableRecord
100
AcDbBlockTableRecord
  2
*D48
340
0
  0
BLOCK_RECORD
  5
1CA9
330
842
100
AcDbSymbolTableRecord
100
AcDbBlockTableRecord
  2
*D49
340
0
  0
BLOCK_RECORD
  5
1CB5
330
842
100
AcDbSymbolTableRecord
100
AcDbBlockTableRecord
  2
*D50
340
0
  0
BLOCK_RECORD
  5
1CC1
330
842
100
AcDbSymbolTableRecord
100
AcDbBlockTableRecord
  2
*D51
340
0
  0
BLOCK_RECORD
  5
1CCD
330
842
100
AcDbSymbolTableRecord
100
AcDbBlockTableRecord
  2
*D52
340
0
  0
BLOCK_RECORD
  5
1CD9
330
842
100
AcDbSymbolTableRecord
100
AcDbBlockTableRecord
  2
*D53
340
0
  0
ENDTAB
  0
ENDSEC
  0
SECTION
  2
BLOCKS
  0
BLOCK
  5
860
330
85F
100
AcDbEntity
  8
0
100
AcDbBlockBegin
  2
*MODEL_SPACE
 70
     0
 10
0.0
 20
0.0
 30
0.0
  3
*MODEL_SPACE
  1

  0
ENDBLK
  5
861
330
85F
100
AcDbEntity
  8
0
100
AcDbBlockEnd
  0
BLOCK
  5
85C
330
85B
100
AcDbEntity
 67
     1
  8
0
100
AcDbBlockBegin
  2
*PAPER_SPACE
 70
     0
 10
0.0
 20
0.0
 30
0.0
  3
*PAPER_SPACE
  1

  0
ENDBLK
  5
85D
330
85B
100
AcDbEntity
 67
     1
  8
0
100
AcDbBlockEnd
  0
BLOCK
  5
87F
330
87E
100
AcDbEntity
  8
0
100
AcDbBlockBegin
  2
_ORIGIN
 70
     0
 10
0.0
 20
0.0
 30
0.0
  3
_ORIGIN
  1

  0
CIRCLE
  5
880
330
87E
100
AcDbEntity
  8
0
  6
Continuous
 62
     7
100
AcDbCircle
 10
0.0
 20
0.0
 30
0.0
 40
0.5
  0
LINE
  5
881
330
87E
100
AcDbEntity
  8
0
  6
Continuous
 62
     7
100
AcDbLine
 10
0.0
 20
0.0
 30
0.0
 11
-1.0
 21
0.0
 31
0.0
  0
ENDBLK
  5
882
330
87E
100
AcDbEntity
  8
0
100
AcDbBlockEnd
  0
BLOCK
  5
AB5
330
AB2
100
AcDbEntity
  8
0
 62
     1
100
AcDbBlockBegin
  2
_DOTBLANK
 70
     0
 10
0.0
 20
0.0
 30
0.0
  3
_DOTBLANK
  1

  0
CIRCLE
  5
AB3
330
AB2
100
AcDbEntity
  8
0
  6
ByBlock
 62
     0
100
AcDbCircle
 10
0.0
 20
0.0
 30
0.0
 40
0.5
  0
LINE
  5
AB4
330
AB2
100
AcDbEntity
  8
0
  6
ByBlock
 62
     0
100
AcDbLine
 10
-0.5
 20
0.0
 30
0.0
 11
-1.0
 21
0.0
 31
0.0
  0
ENDBLK
  5
AB6
330
AB2
100
AcDbEntity
  8
0
 62
     1
100
AcDbBlockEnd
  0
BLOCK
  5
ABB
330
AB7
100
AcDbEntity
  8
0
 62
     1
100
AcDbBlockBegin
  2
_OPEN30
 70
     0
 10
0.0
 20
0.0
 30
0.0
  3
_OPEN30
  1

  0
LINE
  5
AB8
330
AB7
100
AcDbEntity
  8
0
  6
ByBlock
 62
     0
100
AcDbLine
 10
-1.0
 20
0.26794919
 30
0.0
 11
0.0
 21
0.0
 31
0.0
  0
LINE
  5
AB9
330
AB7
100
AcDbEntity
  8
0
  6
ByBlock
 62
     0
100
AcDbLine
 10
0.0
 20
0.0
 30
0.0
 11
-1.0
 21
-0.26794919
 31
0.0
  0
LINE
  5
ABA
330
AB7
100
AcDbEntity
  8
0
  6
ByBlock
 62
     0
100
AcDbLine
 10
0.0
 20
0.0
 30
0.0
 11
-1.0
 21
0.0
 31
0.0
  0
ENDBLK
  5
ABC
330
AB7
100
AcDbEntity
  8
0
 62
     1
100
AcDbBlockEnd
  0
BLOCK
  5
DA6
330
D9C
100
AcDbEntity
  8
0
100
AcDbBlockBegin
  2
*D3
 70
     1
 10
0.0
 20
0.0
 30
0.0
  3
*D3
  1

  0
LINE
  5
113B
330
D9C
100
AcDbEntity
  8
SIZE
  6
Continuous
 62
     0
370
    -2
100
AcDbLine
 10
32.46448280219374
 20
-140.0
 30
0.0
 11
278.3224625841441
 21
-140.0000000000001
 31
0.0
  0
LINE
  5
113C
330
D9C
100
AcDbEntity
  8
SIZE
  6
Continuous
 62
     0
370
    -2
100
AcDbLine
 10
32.46448280219374
 20
140.0
 30
0.0
 11
278.3224625841443
 21
139.9999999999999
 31
0.0
  0
LINE
  5
113D
330
D9C
100
AcDbEntity
  8
SIZE
  6
Continuous
 62
     0
370
    -2
100
AcDbLine
 10
258.3224625841442
 20
-128.0000000000001
 30
0.0
 11
258.3224625841443
 21
127.9999999999999
 31
0.0
  0
INSERT
  5
113E
330
D9C
100
AcDbEntity
  8
SIZE
  6
Continuous
 62
     0
370
    -2
100
AcDbBlockReference
  2
_DOTBLANK
 10
258.3224625841442
 20
-140.0000000000001
 30
0.0
 41
12.0
 42
12.0
 43
12.0
 50
270.0
  0
INSERT
  5
113F
330
D9C
100
AcDbEntity
  8
SIZE
  6
Continuous
 62
     0
370
    -2
100
AcDbBlockReference
  2
_DOTBLANK
 10
258.3224625841443
 20
139.9999999999999
 30
0.0
 41
12.0
 42
12.0
 43
12.0
 50
90.0
  0
MTEXT
  5
1140
330
D9C
100
AcDbEntity
  8
SIZE
  6
Continuous
 62
     0
100
AcDbMText
 10
216.3224625841443
 20
-0.0000000000000391
 30
0.0
 40
64.0
 41
0.0
 71
     5
 72
     1
  1
\A1;280
 11
0.0000000000000001
 21
1.0
 31
0.0
 73
     1
 44
1.0
1001
ACAD
1000
MTEXTBEGIN
1070
    73
1070
     1
1070
    44
1040
1.0
1070
    74
1070
     0
1000
MTEXTEND
  0
POINT
  5
1141
330
D9C
100
AcDbEntity
  8
DEFPOINTS
  6
Continuous
 62
     0
100
AcDbPoint
 10
12.46448280219374
 20
-140.0
 30
0.0
  0
POINT
  5
1142
330
D9C
100
AcDbEntity
  8
DEFPOINTS
  6
Continuous
 62
     0
100
AcDbPoint
 10
12.46448280219374
 20
140.0
 30
0.0
  0
POINT
  5
1143
330
D9C
100
AcDbEntity
  8
DEFPOINTS
  6
Continuous
 62
     0
100
AcDbPoint
 10
258.3224625841443
 20
139.9999999999999
 30
0.0
  0
ENDBLK
  5
DA7
330
D9C
100
AcDbEntity
  8
0
100
AcDbBlockEnd
  0
BLOCK
  5
FD0
330
FC4
100
AcDbEntity
  8
0
100
AcDbBlockBegin
  2
*D4
 70
     1
 10
0.0
 20
0.0
 30
0.0
  3
*D4
  1

  0
LINE
  5
110F
330
FC4
100
AcDbEntity
  8
SIZE
  6
Continuous
 62
     0
370
    -2
100
AcDbLine
 10
-24.0
 20
-240.0828571428572
 30
0.0
 11
-24.00000000000001
 21
-358.0949273793142
 31
0.0
  0
LINE
  5
1110
330
FC4
100
AcDbEntity
  8
SIZE
  6
Continuous
 62
     0
370
    -2
100
AcDbLine
 10
-0.0000000000000012
 20
-177.5
 30
0.0
 11
-0.0000000000000123
 21
-358.0949273793142
 31
0.0
  0
LINE
  5
1111
330
FC4
100
AcDbEntity
  8
SIZE
  6
Continuous
 62
     0
370
    -2
100
AcDbLine
 10
-36.00000000000001
 20
-338.0949273793143
 30
0.0
 11
-48.0
 21
-338.0949273793143
 31
0.0
  0
LINE
  5
1112
330
FC4
100
AcDbEntity
  8
SIZE
  6
Continuous
 62
     0
370
    -2
100
AcDbLine
 10
11.99999999999999
 20
-338.0949273793143
 30
0.0
 11
140.0
 21
-338.0949273793143
 31
0.0
  0
LINE
  5
1113
330
FC4
100
AcDbEntity
  8
SIZE
  6
Continuous
 62
     0
370
    -2
100
AcDbLine
 10
-24.00000000000001
 20
-338.0949273793143
 30
0.0
 11
-0.0000000000000111
 21
-338.0949273793143
 31
0.0
  0
INSERT
  5
1114
330
FC4
100
AcDbEntity
  8
SIZE
  6
Continuous
 62
     0
370
    -2
100
AcDbBlockReference
  2
_DOTBLANK
 10
-24.00000000000001
 20
-338.0949273793143
 30
0.0
 41
12.0
 42
12.0
 43
12.0
  0
INSERT
  5
1115
330
FC4
100
AcDbEntity
  8
SIZE
  6
Continuous
 62
     0
370
    -2
100
AcDbBlockReference
  2
_DOTBLANK
 10
-0.0000000000000111
 20
-338.0949273793143
 30
0.0
 41
12.0
 42
12.0
 43
12.0
 50
180.0
  0
MTEXT
  5
1116
330
FC4
100
AcDbEntity
  8
SIZE
  6
Continuous
 62
     0
100
AcDbMText
 10
81.99999999999999
 20
-296.0949273793143
 30
0.0
 40
64.0
 41
0.0
 71
     5
 72
     1
  1
\A1;24
 73
     1
 44
1.0
1001
ACAD
1000
MTEXTBEGIN
1070
    73
1070
     1
1070
    44
1040
1.0
1070
    74
1070
     0
1000
MTEXTEND
  0
POINT
  5
1117
330
FC4
100
AcDbEntity
  8
DEFPOINTS
  6
Continuous
 62
     0
100
AcDbPoint
 10
-24.0
 20
-220.0828571428572
 30
0.0
  0
POINT
  5
1118
330
FC4
100
AcDbEntity
  8
DEFPOINTS
  6
Continuous
 62
     0
100
AcDbPoint
 10
0.0
 20
-157.5
 30
0.0
  0
POINT
  5
1119
330
FC4
100
AcDbEntity
  8
DEFPOINTS
  6
Continuous
 62
     0
100
AcDbPoint
 10
-0.0000000000000111
 20
-338.0949273793143
 30
0.0
  0
ENDBLK
  5
FD1
330
FC4
100
AcDbEntity
  8
0
100
AcDbBlockEnd
  0
BLOCK
  5
FDC
330
FD2
100
AcDbEntity
  8
0
100
AcDbBlockBegin
  2
*D5
 70
     1
 10
0.0
 20
0.0
 30
0.0
  3
*D5
  1

  0
LINE
  5
10DA
330
FD2
100
AcDbEntity
  8
SIZE
  6
Continuous
 62
     0
370
    -2
100
AcDbLine
 10
-260.0
 20
-263.3121218469543
 30
0.0
 11
-260.0
 21
-544.1924168160427
 31
0.0
  0
LINE
  5
10DB
330
FD2
100
AcDbEntity
  8
SIZE
  6
Continuous
 62
     0
370
    -2
100
AcDbLine
 10
-0.0000000000000012
 20
-177.5
 30
0.0
 11
-0.0000000000000237
 21
-544.1924168160427
 31
0.0
  0
LINE
  5
10DC
330
FD2
100
AcDbEntity
  8
SIZE
  6
Continuous
 62
     0
370
    -2
100
AcDbLine
 10
-248.0
 20
-524.1924168160427
 30
0.0
 11
-12.00000000000002
 21
-524.1924168160427
 31
0.0
  0
INSERT
  5
10DD
330
FD2
100
AcDbEntity
  8
SIZE
  6
Continuous
 62
     0
370
    -2
100
AcDbBlockReference
  2
_DOTBLANK
 10
-260.0
 20
-524.1924168160427
 30
0.0
 41
12.0
 42
12.0
 43
12.0
 50
180.0
  0
INSERT
  5
10DE
330
FD2
100
AcDbEntity
  8
SIZE
  6
Continuous
 62
     0
370
    -2
100
AcDbBlockReference
  2
_DOTBLANK
 10
-0.0000000000000225
 20
-524.1924168160427
 30
0.0
 41
12.0
 42
12.0
 43
12.0
  0
MTEXT
  5
10DF
330
FD2
100
AcDbEntity
  8
SIZE
  6
Continuous
 62
     0
100
AcDbMText
 10
-130.0
 20
-482.192416816043
 30
0.0
 40
64.0
 41
0.0
 71
     5
 72
     1
  1
\A1;260
 73
     1
 44
1.0
1001
ACAD
1000
MTEXTBEGIN
1070
    73
1070
     1
1070
    44
1040
1.0
1070
    74
1070
     0
1000
MTEXTEND
  0
POINT
  5
10E0
330
FD2
100
AcDbEntity
  8
DEFPOINTS
  6
Continuous
 62
     0
100
AcDbPoint
 10
-260.0
 20
-243.3121218469543
 30
0.0
  0
POINT
  5
10E1
330
FD2
100
AcDbEntity
  8
DEFPOINTS
  6
Continuous
 62
     0
100
AcDbPoint
 10
0.0
 20
-157.5
 30
0.0
  0
POINT
  5
10E2
330
FD2
100
AcDbEntity
  8
DEFPOINTS
  6
Continuous
 62
     0
100
AcDbPoint
 10
-0.0000000000000225
 20
-524.1924168160427
 30
0.0
  0
ENDBLK
  5
FDD
330
FD2
100
AcDbEntity
  8
0
100
AcDbBlockEnd
  0
BLOCK
  5
FEA
330
FDE
100
AcDbEntity
  8
0
100
AcDbBlockBegin
  2
*D6
 70
     1
 10
0.0
 20
0.0
 30
0.0
  3
*D6
  1

  0
LINE
  5
10EC
330
FDE
100
AcDbEntity
  8
SIZE
  6
Continuous
 62
     0
370
    -2
100
AcDbLine
 10
-260.0
 20
-263.3121218469543
 30
0.0
 11
-260.0
 21
-544.1924168160427
 31
0.0
  0
LINE
  5
10ED
330
FDE
100
AcDbEntity
  8
SIZE
  6
Continuous
 62
     0
370
    -2
100
AcDbLine
 10
-271.0
 20
-264.4885937960578
 30
0.0
 11
-271.0
 21
-544.1924168160427
 31
0.0
  0
LINE
  5
10EE
330
FDE
100
AcDbEntity
  8
SIZE
  6
Continuous
 62
     0
370
    -2
100
AcDbLine
 10
-248.0
 20
-524.1924168160427
 30
0.0
 11
-236.0
 21
-524.1924168160427
 31
0.0
  0
LINE
  5
10EF
330
FDE
100
AcDbEntity
  8
SIZE
  6
Continuous
 62
     0
370
    -2
100
AcDbLine
 10
-283.0
 20
-524.1924168160427
 30
0.0
 11
-411.839028557943
 21
-524.1924168160427
 31
0.0
  0
LINE
  5
10F0
330
FDE
100
AcDbEntity
  8
SIZE
  6
Continuous
 62
     0
370
    -2
100
AcDbLine
 10
-260.0
 20
-524.1924168160427
 30
0.0
 11
-271.0
 21
-524.1924168160427
 31
0.0
  0
INSERT
  5
10F1
330
FDE
100
AcDbEntity
  8
SIZE
  6
Continuous
 62
     0
370
    -2
100
AcDbBlockReference
  2
_DOTBLANK
 10
-260.0
 20
-524.1924168160427
 30
0.0
 41
12.0
 42
12.0
 43
12.0
 50
180.0
  0
INSERT
  5
10F2
330
FDE
100
AcDbEntity
  8
SIZE
  6
Continuous
 62
     0
370
    -2
100
AcDbBlockReference
  2
_DOTBLANK
 10
-271.0
 20
-524.1924168160427
 30
0.0
 41
12.0
 42
12.0
 43
12.0
  0
MTEXT
  5
10F3
330
FDE
100
AcDbEntity
  8
SIZE
  6
Continuous
 62
     0
100
AcDbMText
 10
-373.0390285579434
 20
-482.192416816043
 30
0.0
 40
64.0
 41
0.0
 71
     5
 72
     1
  1
\A1;11
 73
     1
 44
1.0
1001
ACAD
1000
MTEXTBEGIN
1070
    73
1070
     1
1070
    44
1040
1.0
1070
    74
1070
     0
1000
MTEXTEND
  0
POINT
  5
10F4
330
FDE
100
AcDbEntity
  8
DEFPOINTS
  6
Continuous
 62
     0
100
AcDbPoint
 10
-260.0
 20
-243.3121218469543
 30
0.0
  0
POINT
  5
10F5
330
FDE
100
AcDbEntity
  8
DEFPOINTS
  6
Continuous
 62
     0
100
AcDbPoint
 10
-271.0
 20
-244.4885937960578
 30
0.0
  0
POINT
  5
10F6
330
FDE
100
AcDbEntity
  8
DEFPOINTS
  6
Continuous
 62
     0
100
AcDbPoint
 10
-271.0
 20
-524.1924168160427
 30
0.0
  0
ENDBLK
  5
FEB
330
FDE
100
AcDbEntity
  8
0
100
AcDbBlockEnd
  0
BLOCK
  5
FF6
330
FEC
100
AcDbEntity
  8
0
100
AcDbBlockBegin
  2
*D7
 70
     1
 10
0.0
 20
0.0
 30
0.0
  3
*D7
  1

  0
LINE
  5
10E3
330
FEC
100
AcDbEntity
  8
SIZE
  6
Continuous
 62
     0
370
    -2
100
AcDbLine
 10
-35.0
 20
-239.2479228880185
 30
0.0
 11
-35.00000000000002
 21
-436.94193187061
 31
0.0
  0
LINE
  5
10E4
330
FEC
100
AcDbEntity
  8
SIZE
  6
Continuous
 62
     0
370
    -2
100
AcDbLine
 10
-260.0
 20
-263.3121218469542
 30
0.0
 11
-260.0
 21
-436.94193187061
 31
0.0
  0
LINE
  5
10E5
330
FEC
100
AcDbEntity
  8
SIZE
  6
Continuous
 62
     0
370
    -2
100
AcDbLine
 10
-47.00000000000001
 20
-416.9419318706101
 30
0.0
 11
-248.0
 21
-416.9419318706101
 31
0.0
  0
INSERT
  5
10E6
330
FEC
100
AcDbEntity
  8
SIZE
  6
Continuous
 62
     0
370
    -2
100
AcDbBlockReference
  2
_DOTBLANK
 10
-35.00000000000002
 20
-416.9419318706101
 30
0.0
 41
12.0
 42
12.0
 43
12.0
  0
INSERT
  5
10E7
330
FEC
100
AcDbEntity
  8
SIZE
  6
Continuous
 62
     0
370
    -2
100
AcDbBlockReference
  2
_DOTBLANK
 10
-260.0
 20
-416.9419318706101
 30
0.0
 41
12.0
 42
12.0
 43
12.0
 50
180.0
  0
MTEXT
  5
10E8
330
FEC
100
AcDbEntity
  8
SIZE
  6
Continuous
 62
     0
100
AcDbMText
 10
-147.5
 20
-374.9419318706101
 30
0.0
 40
64.0
 41
0.0
 71
     5
 72
     1
  1
\A1;225
 73
     1
 44
1.0
1001
ACAD
1000
MTEXTBEGIN
1070
    73
1070
     1
1070
    44
1040
1.0
1070
    74
1070
     0
1000
MTEXTEND
  0
POINT
  5
10E9
330
FEC
100
AcDbEntity
  8
DEFPOINTS
  6
Continuous
 62
     0
100
AcDbPoint
 10
-35.0
 20
-219.2479228880185
 30
0.0
  0
POINT
  5
10EA
330
FEC
100
AcDbEntity
  8
DEFPOINTS
  6
Continuous
 62
     0
100
AcDbPoint
 10
-260.0
 20
-243.3121218469543
 30
0.0
  0
POINT
  5
10EB
330
FEC
100
AcDbEntity
  8
DEFPOINTS
  6
Continuous
 62
     0
100
AcDbPoint
 10
-260.0
 20
-416.9419318706101
 30
0.0
  0
ENDBLK
  5
FF7
330
FEC
100
AcDbEntity
  8
0
100
AcDbBlockEnd
  0
BLOCK
  5
125E
330
125C
100
AcDbEntity
  8
0
100
AcDbBlockBegin
  2
GENAXEH
 70
     0
 10
0.0
 20
0.0
 30
0.0
  3
GENAXEH
  1

  0
LINE
  5
125D
330
125C
100
AcDbEntity
  8
0
100
AcDbLine
 10
-1.0
 20
0.0
 30
0.0
 11
1.0
 21
0.0
 31
0.0
  0
ENDBLK
  5
125F
330
125C
100
AcDbEntity
  8
0
100
AcDbBlockEnd
  0
BLOCK
  5
12F0
330
12EF
100
AcDbEntity
  8
0
100
AcDbBlockBegin
  2
*D9
 70
     1
 10
0.0
 20
0.0
 30
0.0
  3
*D9
  1

  0
LINE
  5
12F1
330
12EF
100
AcDbEntity
  8
SIZE
  6
Continuous
 62
     0
370
    -2
100
AcDbLine
 10
300.0
 20
-263.3121218469543
 30
0.0
 11
300.0
 21
-544.1924168160427
 31
0.0
  0
LINE
  5
12F2
330
12EF
100
AcDbEntity
  8
SIZE
  6
Continuous
 62
     0
370
    -2
100
AcDbLine
 10
-0.0000000000000012
 20
-177.5
 30
0.0
 11
-0.0000000000000237
 21
-544.1924168160427
 31
0.0
  0
LINE
  5
12F3
330
12EF
100
AcDbEntity
  8
SIZE
  6
Continuous
 62
     0
370
    -2
100
AcDbLine
 10
288.0
 20
-524.1924168160427
 30
0.0
 11
11.99999999999997
 21
-524.1924168160427
 31
0.0
  0
INSERT
  5
12F4
330
12EF
100
AcDbEntity
  8
SIZE
  6
Continuous
 62
     0
370
    -2
100
AcDbBlockReference
  2
_DOTBLANK
 10
300.0
 20
-524.1924168160427
 30
0.0
 41
12.0
 42
12.0
 43
12.0
  0
INSERT
  5
12F5
330
12EF
100
AcDbEntity
  8
SIZE
  6
Continuous
 62
     0
370
    -2
100
AcDbBlockReference
  2
_DOTBLANK
 10
-0.0000000000000225
 20
-524.1924168160427
 30
0.0
 41
12.0
 42
12.0
 43
12.0
 50
180.0
  0
MTEXT
  5
12F6
330
12EF
100
AcDbEntity
  8
SIZE
  6
Continuous
 62
     0
100
AcDbMText
 10
150.0
 20
-482.1924168160427
 30
0.0
 40
64.0
 41
0.0
 71
     5
 72
     1
  1
\A1;300
 73
     1
 44
1.0
1001
ACAD
1000
MTEXTBEGIN
1070
    73
1070
     1
1070
    44
1040
1.0
1070
    74
1070
     0
1000
MTEXTEND
  0
POINT
  5
12F7
330
12EF
100
AcDbEntity
  8
DEFPOINTS
  6
Continuous
 62
     0
100
AcDbPoint
 10
300.0
 20
-243.3121218469543
 30
0.0
  0
POINT
  5
12F8
330
12EF
100
AcDbEntity
  8
DEFPOINTS
  6
Continuous
 62
     0
100
AcDbPoint
 10
0.0
 20
-157.5
 30
0.0
  0
POINT
  5
12F9
330
12EF
100
AcDbEntity
  8
DEFPOINTS
  6
Continuous
 62
     0
100
AcDbPoint
 10
-0.0000000000000225
 20
-524.1924168160427
 30
0.0
  0
ENDBLK
  5
12FA
330
12EF
100
AcDbEntity
  8
0
100
AcDbBlockEnd
  0
BLOCK
  5
12FC
330
12FB
100
AcDbEntity
  8
0
100
AcDbBlockBegin
  2
*D10
 70
     1
 10
0.0
 20
0.0
 30
0.0
  3
*D10
  1

  0
LINE
  5
12FD
330
12FB
100
AcDbEntity
  8
SIZE
  6
Continuous
 62
     0
370
    -2
100
AcDbLine
 10
-20.0
 20
-123.5
 30
0.0
 11
-166.0601444877647
 21
-123.4999999999999
 31
0.0
  0
LINE
  5
12FE
330
12FB
100
AcDbEntity
  8
SIZE
  6
Continuous
 62
     0
370
    -2
100
AcDbLine
 10
-19.39999999999997
 20
121.5
 30
0.0
 11
-166.0601444877647
 21
121.5
 31
0.0
  0
LINE
  5
12FF
330
12FB
100
AcDbEntity
  8
SIZE
  6
Continuous
 62
     0
370
    -2
100
AcDbLine
 10
-146.0601444877647
 20
-111.4999999999999
 30
0.0
 11
-146.0601444877647
 21
109.5
 31
0.0
  0
INSERT
  5
1300
330
12FB
100
AcDbEntity
  8
SIZE
  6
Continuous
 62
     0
370
    -2
100
AcDbBlockReference
  2
_DOTBLANK
 10
-146.0601444877647
 20
-123.4999999999999
 30
0.0
 41
12.0
 42
12.0
 43
12.0
 50
270.0
  0
INSERT
  5
1301
330
12FB
100
AcDbEntity
  8
SIZE
  6
Continuous
 62
     0
370
    -2
100
AcDbBlockReference
  2
_DOTBLANK
 10
-146.0601444877647
 20
121.5
 30
0.0
 41
12.0
 42
12.0
 43
12.0
 50
90.0
  0
MTEXT
  5
1302
330
12FB
100
AcDbEntity
  8
SIZE
  6
Continuous
 62
     0
100
AcDbMText
 10
-188.0601444877647
 20
-0.9999999999999715
 30
0.0
 40
64.0
 41
0.0
 71
     5
 72
     1
  1
\A1;□245
 11
0.0000000000000001
 21
1.0
 31
0.0
 73
     1
 44
1.0
1001
ACAD
1000
MTEXTBEGIN
1070
    73
1070
     1
1070
    44
1040
1.0
1070
    74
1070
     0
1000
MTEXTEND
  0
POINT
  5
1303
330
12FB
100
AcDbEntity
  8
DEFPOINTS
  6
Continuous
 62
     0
100
AcDbPoint
 10
0.0
 20
-123.5
 30
0.0
  0
POINT
  5
1304
330
12FB
100
AcDbEntity
  8
DEFPOINTS
  6
Continuous
 62
     0
100
AcDbPoint
 10
0.6000000000000229
 20
121.5
 30
0.0
  0
POINT
  5
1305
330
12FB
100
AcDbEntity
  8
DEFPOINTS
  6
Continuous
 62
     0
100
AcDbPoint
 10
-146.0601444877647
 20
121.5
 30
0.0
  0
ENDBLK
  5
1306
330
12FB
100
AcDbEntity
  8
0
100
AcDbBlockEnd
  0
BLOCK
  5
1308
330
1307
100
AcDbEntity
  8
0
100
AcDbBlockBegin
  2
*D11
 70
     1
 10
0.0
 20
0.0
 30
0.0
  3
*D11
  1

  0
LINE
  5
1309
330
1307
100
AcDbEntity
  8
SIZE
  6
Continuous
 62
     0
370
    -2
100
AcDbLine
 10
75.0
 20
-232.8816215723389
 30
0.0
 11
74.99999999999999
 21
-436.9419318706101
 31
0.0
  0
LINE
  5
130A
330
1307
100
AcDbEntity
  8
SIZE
  6
Continuous
 62
     0
370
    -2
100
AcDbLine
 10
300.0
 20
-266.5
 30
0.0
 11
300.0
 21
-436.9419318706101
 31
0.0
  0
LINE
  5
130B
330
1307
100
AcDbEntity
  8
SIZE
  6
Continuous
 62
     0
370
    -2
100
AcDbLine
 10
86.99999999999999
 20
-416.9419318706101
 30
0.0
 11
288.0
 21
-416.9419318706101
 31
0.0
  0
INSERT
  5
130C
330
1307
100
AcDbEntity
  8
SIZE
  6
Continuous
 62
     0
370
    -2
100
AcDbBlockReference
  2
_DOTBLANK
 10
74.99999999999999
 20
-416.9419318706101
 30
0.0
 41
12.0
 42
12.0
 43
12.0
 50
180.0
  0
INSERT
  5
130D
330
1307
100
AcDbEntity
  8
SIZE
  6
Continuous
 62
     0
370
    -2
100
AcDbBlockReference
  2
_DOTBLANK
 10
300.0
 20
-416.9419318706101
 30
0.0
 41
12.0
 42
12.0
 43
12.0
  0
MTEXT
  5
130E
330
1307
100
AcDbEntity
  8
SIZE
  6
Continuous
 62
     0
100
AcDbMText
 10
187.5
 20
-374.9419318706101
 30
0.0
 40
64.0
 41
0.0
 71
     5
 72
     1
  1
\A1;225
 73
     1
 44
1.0
1001
ACAD
1000
MTEXTBEGIN
1070
    73
1070
     1
1070
    44
1040
1.0
1070
    74
1070
     0
1000
MTEXTEND
  0
POINT
  5
130F
330
1307
100
AcDbEntity
  8
DEFPOINTS
  6
Continuous
 62
     0
100
AcDbPoint
 10
75.0
 20
-212.8816215723389
 30
0.0
  0
POINT
  5
1310
330
1307
100
AcDbEntity
  8
DEFPOINTS
  6
Continuous
 62
     0
100
AcDbPoint
 10
300.0
 20
-246.5
 30
0.0
  0
POINT
  5
1311
330
1307
100
AcDbEntity
  8
DEFPOINTS
  6
Continuous
 62
     0
100
AcDbPoint
 10
300.0
 20
-416.9419318706101
 30
0.0
  0
ENDBLK
  5
1312
330
1307
100
AcDbEntity
  8
0
100
AcDbBlockEnd
  0
BLOCK
  5
1314
330
1313
100
AcDbEntity
  8
0
100
AcDbBlockBegin
  2
*D12
 70
     1
 10
0.0
 20
0.0
 30
0.0
  3
*D12
  1

  0
LINE
  5
1315
330
1313
100
AcDbEntity
  8
SIZE
  6
Continuous
 62
     0
370
    -2
100
AcDbLine
 10
300.0
 20
-266.5
 30
0.0
 11
300.0
 21
-544.1924168160427
 31
0.0
  0
LINE
  5
1316
330
1313
100
AcDbEntity
  8
SIZE
  6
Continuous
 62
     0
370
    -2
100
AcDbLine
 10
312.0
 20
-266.5
 30
0.0
 11
312.0
 21
-544.1924168160427
 31
0.0
  0
LINE
  5
1317
330
1313
100
AcDbEntity
  8
SIZE
  6
Continuous
 62
     0
370
    -2
100
AcDbLine
 10
288.0
 20
-524.1924168160427
 30
0.0
 11
276.0
 21
-524.1924168160427
 31
0.0
  0
LINE
  5
1318
330
1313
100
AcDbEntity
  8
SIZE
  6
Continuous
 62
     0
370
    -2
100
AcDbLine
 10
324.0
 20
-524.1924168160427
 30
0.0
 11
438.285714285714
 21
-524.1924168160427
 31
0.0
  0
LINE
  5
1319
330
1313
100
AcDbEntity
  8
SIZE
  6
Continuous
 62
     0
370
    -2
100
AcDbLine
 10
300.0
 20
-524.1924168160427
 30
0.0
 11
312.0
 21
-524.1924168160427
 31
0.0
  0
INSERT
  5
131A
330
1313
100
AcDbEntity
  8
SIZE
  6
Continuous
 62
     0
370
    -2
100
AcDbBlockReference
  2
_DOTBLANK
 10
300.0
 20
-524.1924168160427
 30
0.0
 41
12.0
 42
12.0
 43
12.0
  0
INSERT
  5
131B
330
1313
100
AcDbEntity
  8
SIZE
  6
Continuous
 62
     0
370
    -2
100
AcDbBlockReference
  2
_DOTBLANK
 10
312.0
 20
-524.1924168160427
 30
0.0
 41
12.0
 42
12.0
 43
12.0
 50
180.0
  0
MTEXT
  5
131C
330
1313
100
AcDbEntity
  8
SIZE
  6
Continuous
 62
     0
100
AcDbMText
 10
387.1428571428571
 20
-482.1924168160427
 30
0.0
 40
64.0
 41
0.0
 71
     5
 72
     1
  1
\A1;12
 73
     1
 44
1.0
1001
ACAD
1000
MTEXTBEGIN
1070
    73
1070
     1
1070
    44
1040
1.0
1070
    74
1070
     0
1000
MTEXTEND
  0
POINT
  5
131D
330
1313
100
AcDbEntity
  8
DEFPOINTS
  6
Continuous
 62
     0
100
AcDbPoint
 10
300.0
 20
-246.5
 30
0.0
  0
POINT
  5
131E
330
1313
100
AcDbEntity
  8
DEFPOINTS
  6
Continuous
 62
     0
100
AcDbPoint
 10
312.0
 20
-246.5000000000001
 30
0.0
  0
POINT
  5
131F
330
1313
100
AcDbEntity
  8
DEFPOINTS
  6
Continuous
 62
     0
100
AcDbPoint
 10
312.0
 20
-524.1924168160427
 30
0.0
  0
ENDBLK
  5
1320
330
1313
100
AcDbEntity
  8
0
100
AcDbBlockEnd
  0
BLOCK
  5
1322
330
1321
100
AcDbEntity
  8
0
100
AcDbBlockBegin
  2
*D13
 70
     1
 10
0.0
 20
0.0
 30
0.0
  3
*D13
  1

  0
LINE
  5
1323
330
1321
100
AcDbEntity
  8
SIZE
  6
Continuous
 62
     0
370
    -2
100
AcDbLine
 10
-12.0
 20
-124.0828571428571
 30
0.0
 11
-166.0601444877647
 21
-124.082857142857
 31
0.0
  0
LINE
  5
1324
330
1321
100
AcDbEntity
  8
SIZE
  6
Continuous
 62
     0
370
    -2
100
AcDbLine
 10
54.99999999999998
 20
-220.3828571428571
 30
0.0
 11
-166.0601444877647
 21
-220.382857142857
 31
0.0
  0
LINE
  5
1325
330
1321
100
AcDbEntity
  8
SIZE
  6
Continuous
 62
     0
370
    -2
100
AcDbLine
 10
-146.0601444877647
 20
-136.082857142857
 30
0.0
 11
-146.0601444877647
 21
-208.382857142857
 31
0.0
  0
INSERT
  5
1326
330
1321
100
AcDbEntity
  8
SIZE
  6
Continuous
 62
     0
370
    -2
100
AcDbBlockReference
  2
_DOTBLANK
 10
-146.0601444877647
 20
-124.082857142857
 30
0.0
 41
12.0
 42
12.0
 43
12.0
 50
90.0
  0
INSERT
  5
1327
330
1321
100
AcDbEntity
  8
SIZE
  6
Continuous
 62
     0
370
    -2
100
AcDbBlockReference
  2
_DOTBLANK
 10
-146.0601444877647
 20
-220.382857142857
 30
0.0
 41
12.0
 42
12.0
 43
12.0
 50
270.0
  0
MTEXT
  5
1328
330
1321
100
AcDbEntity
  8
SIZE
  6
Continuous
 62
     0
100
AcDbMText
 10
-188.0601444877647
 20
-172.2328571428571
 30
0.0
 40
64.0
 41
0.0
 71
     5
 72
     1
  1
\A1;96
 11
0.0000000000000001
 21
1.0
 31
0.0
 73
     1
 44
1.0
1001
ACAD
1000
MTEXTBEGIN
1070
    73
1070
     1
1070
    44
1040
1.0
1070
    74
1070
     0
1000
MTEXTEND
  0
POINT
  5
1329
330
1321
100
AcDbEntity
  8
DEFPOINTS
  6
Continuous
 62
     0
100
AcDbPoint
 10
8.0
 20
-124.0828571428571
 30
0.0
  0
POINT
  5
132A
330
1321
100
AcDbEntity
  8
DEFPOINTS
  6
Continuous
 62
     0
100
AcDbPoint
 10
74.99999999999999
 20
-220.3828571428571
 30
0.0
  0
POINT
  5
132B
330
1321
100
AcDbEntity
  8
DEFPOINTS
  6
Continuous
 62
     0
100
AcDbPoint
 10
-146.0601444877647
 20
-220.382857142857
 30
0.0
  0
ENDBLK
  5
132C
330
1321
100
AcDbEntity
  8
0
100
AcDbBlockEnd
  0
BLOCK
  5
132E
330
132D
100
AcDbEntity
  8
0
100
AcDbBlockBegin
  2
*D14
 70
     1
 10
0.0
 20
0.0
 30
0.0
  3
*D14
  1

  0
LINE
  5
132F
330
132D
100
AcDbEntity
  8
SIZE
  6
Continuous
 62
     0
370
    -2
100
AcDbLine
 10
63.08003422720044
 20
-238.9992329253439
 30
0.0
 11
63.08003422720044
 21
-358.0949273793144
 31
0.0
  0
LINE
  5
1330
330
132D
100
AcDbEntity
  8
SIZE
  6
Continuous
 62
     0
370
    -2
100
AcDbLine
 10
-0.0000000000000012
 20
-177.5
 30
0.0
 11
-0.0000000000000123
 21
-358.0949273793144
 31
0.0
  0
LINE
  5
1331
330
132D
100
AcDbEntity
  8
SIZE
  6
Continuous
 62
     0
370
    -2
100
AcDbLine
 10
51.08003422720045
 20
-338.0949273793143
 30
0.0
 11
11.99999999999999
 21
-338.0949273793143
 31
0.0
  0
LINE
  5
1332
330
132D
100
AcDbEntity
  8
SIZE
  6
Continuous
 62
     0
370
    -2
100
AcDbLine
 10
-0.0000000000000111
 20
-338.0949273793143
 30
0.0
 11
-125.2571428571428
 21
-338.0949273793143
 31
0.0
  0
INSERT
  5
1333
330
132D
100
AcDbEntity
  8
SIZE
  6
Continuous
 62
     0
370
    -2
100
AcDbBlockReference
  2
_DOTBLANK
 10
63.08003422720044
 20
-338.0949273793143
 30
0.0
 41
12.0
 42
12.0
 43
12.0
  0
INSERT
  5
1334
330
132D
100
AcDbEntity
  8
SIZE
  6
Continuous
 62
     0
370
    -2
100
AcDbBlockReference
  2
_DOTBLANK
 10
-0.0000000000000111
 20
-338.0949273793143
 30
0.0
 41
12.0
 42
12.0
 43
12.0
 50
180.0
  0
MTEXT
  5
1335
330
132D
100
AcDbEntity
  8
SIZE
  6
Continuous
 62
     0
100
AcDbMText
 10
-68.62857142857143
 20
-296.0949273793143
 30
0.0
 40
64.0
 41
0.0
 71
     5
 72
     1
  1
\A1;63
 73
     1
 44
1.0
1001
ACAD
1000
MTEXTBEGIN
1070
    73
1070
     1
1070
    44
1040
1.0
1070
    74
1070
     0
1000
MTEXTEND
  0
POINT
  5
1336
330
132D
100
AcDbEntity
  8
DEFPOINTS
  6
Continuous
 62
     0
100
AcDbPoint
 10
63.08003422720044
 20
-218.9992329253439
 30
0.0
  0
POINT
  5
1337
330
132D
100
AcDbEntity
  8
DEFPOINTS
  6
Continuous
 62
     0
100
AcDbPoint
 10
0.0
 20
-157.5
 30
0.0
  0
POINT
  5
1338
330
132D
100
AcDbEntity
  8
DEFPOINTS
  6
Continuous
 62
     0
100
AcDbPoint
 10
-0.0000000000000111
 20
-338.0949273793143
 30
0.0
  0
ENDBLK
  5
1339
330
132D
100
AcDbEntity
  8
0
100
AcDbBlockEnd
  0
BLOCK
  5
1388
330
1387
100
AcDbEntity
  8
0
100
AcDbBlockBegin
  2
*D15
 70
     1
 10
0.0
 20
0.0
 30
0.0
  3
*D15
  1

  0
LINE
  5
1481
330
1387
100
AcDbEntity
  8
SIZE
  6
Continuous
 62
     0
370
    -2
100
AcDbLine
 10
-122.4389986988458
 20
-260.4438517719275
 30
0.0
 11
-122.4389986988458
 21
-541.3241467410157
 31
0.0
  0
LINE
  5
1482
330
1387
100
AcDbEntity
  8
SIZE
  6
Continuous
 62
     0
370
    -2
100
AcDbLine
 10
177.5610013011541
 20
-174.6317299249732
 30
0.0
 11
177.5610013011541
 21
-541.3241467410157
 31
0.0
  0
LINE
  5
1483
330
1387
100
AcDbEntity
  8
SIZE
  6
Continuous
 62
     0
370
    -2
100
AcDbLine
 10
-110.4389986988458
 20
-521.3241467410157
 30
0.0
 11
165.5610013011541
 21
-521.3241467410157
 31
0.0
  0
INSERT
  5
1484
330
1387
100
AcDbEntity
  8
SIZE
  6
Continuous
 62
     0
370
    -2
100
AcDbBlockReference
  2
_DOTBLANK
 10
-122.4389986988458
 20
-521.3241467410157
 30
0.0
 41
12.0
 42
12.0
 43
12.0
 50
180.0
  0
INSERT
  5
1485
330
1387
100
AcDbEntity
  8
SIZE
  6
Continuous
 62
     0
370
    -2
100
AcDbBlockReference
  2
_DOTBLANK
 10
177.5610013011541
 20
-521.3241467410157
 30
0.0
 41
12.0
 42
12.0
 43
12.0
  0
MTEXT
  5
1486
330
1387
100
AcDbEntity
  8
SIZE
  6
Continuous
 62
     0
100
AcDbMText
 10
27.56100130115417
 20
-479.3241467410154
 30
0.0
 40
64.0
 41
0.0
 71
     5
 72
     1
  1
\A1;300
 73
     1
 44
1.0
1001
ACAD
1000
MTEXTBEGIN
1070
    73
1070
     1
1070
    44
1040
1.0
1070
    74
1070
     0
1000
MTEXTEND
  0
POINT
  5
1487
330
1387
100
AcDbEntity
  8
DEFPOINTS
  6
Continuous
 62
     0
100
AcDbPoint
 10
-122.4389986988458
 20
-240.4438517719275
 30
0.0
  0
POINT
  5
1488
330
1387
100
AcDbEntity
  8
DEFPOINTS
  6
Continuous
 62
     0
100
AcDbPoint
 10
177.5610013011541
 20
-154.6317299249732
 30
0.0
  0
POINT
  5
1489
330
1387
100
AcDbEntity
  8
DEFPOINTS
  6
Continuous
 62
     0
100
AcDbPoint
 10
177.5610013011541
 20
-521.3241467410157
 30
0.0
  0
ENDBLK
  5
1389
330
1387
100
AcDbEntity
  8
0
100
AcDbBlockEnd
  0
BLOCK
  5
1394
330
1393
100
AcDbEntity
  8
0
100
AcDbBlockBegin
  2
*D16
 70
     1
 10
0.0
 20
0.0
 30
0.0
  3
*D16
  1

  0
LINE
  5
1414
330
1393
100
AcDbEntity
  8
SIZE
  6
Continuous
 62
     0
370
    -2
100
AcDbLine
 10
1660.355735523924
 20
-319.7178657902711
 30
0.0
 11
1806.415880011689
 21
-319.7178657902711
 31
0.0
  0
LINE
  5
1415
330
1393
100
AcDbEntity
  8
SIZE
  6
Continuous
 62
     0
370
    -2
100
AcDbLine
 10
1659.755735523924
 20
-74.71786579027105
 30
0.0
 11
1806.415880011689
 21
-74.71786579027109
 31
0.0
  0
LINE
  5
1416
330
1393
100
AcDbEntity
  8
SIZE
  6
Continuous
 62
     0
370
    -2
100
AcDbLine
 10
1786.415880011689
 20
-307.7178657902711
 30
0.0
 11
1786.415880011689
 21
-86.71786579027109
 31
0.0
  0
INSERT
  5
1417
330
1393
100
AcDbEntity
  8
SIZE
  6
Continuous
 62
     0
370
    -2
100
AcDbBlockReference
  2
_DOTBLANK
 10
1786.415880011689
 20
-319.7178657902711
 30
0.0
 41
12.0
 42
12.0
 43
12.0
 50
270.0
  0
INSERT
  5
1418
330
1393
100
AcDbEntity
  8
SIZE
  6
Continuous
 62
     0
370
    -2
100
AcDbBlockReference
  2
_DOTBLANK
 10
1786.415880011689
 20
-74.71786579027109
 30
0.0
 41
12.0
 42
12.0
 43
12.0
 50
90.0
  0
MTEXT
  5
1419
330
1393
100
AcDbEntity
  8
SIZE
  6
Continuous
 62
     0
100
AcDbMText
 10
1744.415880011689
 20
-197.2178657902708
 30
0.0
 40
64.0
 41
0.0
 71
     5
 72
     1
  1
\A1;□245
 11
0.0000000000000001
 21
1.0
 31
0.0
 73
     1
 44
1.0
1001
ACAD
1000
MTEXTBEGIN
1070
    73
1070
     1
1070
    44
1040
1.0
1070
    74
1070
     0
1000
MTEXTEND
  0
POINT
  5
141A
330
1393
100
AcDbEntity
  8
DEFPOINTS
  6
Continuous
 62
     0
100
AcDbPoint
 10
1640.355735523924
 20
-319.7178657902711
 30
0.0
  0
POINT
  5
141B
330
1393
100
AcDbEntity
  8
DEFPOINTS
  6
Continuous
 62
     0
100
AcDbPoint
 10
1639.755735523924
 20
-74.71786579027105
 30
0.0
  0
POINT
  5
141C
330
1393
100
AcDbEntity
  8
DEFPOINTS
  6
Continuous
 62
     0
100
AcDbPoint
 10
1786.415880011689
 20
-74.71786579027109
 30
0.0
  0
ENDBLK
  5
1395
330
1393
100
AcDbEntity
  8
0
100
AcDbBlockEnd
  0
BLOCK
  5
13A0
330
139F
100
AcDbEntity
  8
0
100
AcDbBlockBegin
  2
*D17
 70
     1
 10
0.0
 20
0.0
 30
0.0
  3
*D17
  1

  0
LINE
  5
148A
330
139F
100
AcDbEntity
  8
SIZE
  6
Continuous
 62
     0
370
    -2
100
AcDbLine
 10
102.5610013011542
 20
-230.013351497312
 30
0.0
 11
102.5610013011541
 21
-434.0736617955831
 31
0.0
  0
LINE
  5
148B
330
139F
100
AcDbEntity
  8
SIZE
  6
Continuous
 62
     0
370
    -2
100
AcDbLine
 10
-122.4389986988458
 20
-263.6317299249732
 30
0.0
 11
-122.4389986988458
 21
-434.0736617955831
 31
0.0
  0
LINE
  5
148C
330
139F
100
AcDbEntity
  8
SIZE
  6
Continuous
 62
     0
370
    -2
100
AcDbLine
 10
90.56100130115416
 20
-414.0736617955829
 30
0.0
 11
-110.4389986988458
 21
-414.0736617955829
 31
0.0
  0
INSERT
  5
148D
330
139F
100
AcDbEntity
  8
SIZE
  6
Continuous
 62
     0
370
    -2
100
AcDbBlockReference
  2
_DOTBLANK
 10
102.5610013011541
 20
-414.0736617955829
 30
0.0
 41
12.0
 42
12.0
 43
12.0
  0
INSERT
  5
148E
330
139F
100
AcDbEntity
  8
SIZE
  6
Continuous
 62
     0
370
    -2
100
AcDbBlockReference
  2
_DOTBLANK
 10
-122.4389986988458
 20
-414.0736617955829
 30
0.0
 41
12.0
 42
12.0
 43
12.0
 50
180.0
  0
MTEXT
  5
148F
330
139F
100
AcDbEntity
  8
SIZE
  6
Continuous
 62
     0
100
AcDbMText
 10
-9.93899869884582
 20
-372.0736617955834
 30
0.0
 40
64.0
 41
0.0
 71
     5
 72
     1
  1
\A1;225
 73
     1
 44
1.0
1001
ACAD
1000
MTEXTBEGIN
1070
    73
1070
     1
1070
    44
1040
1.0
1070
    74
1070
     0
1000
MTEXTEND
  0
POINT
  5
1490
330
139F
100
AcDbEntity
  8
DEFPOINTS
  6
Continuous
 62
     0
100
AcDbPoint
 10
102.5610013011542
 20
-210.0133514973121
 30
0.0
  0
POINT
  5
1491
330
139F
100
AcDbEntity
  8
DEFPOINTS
  6
Continuous
 62
     0
100
AcDbPoint
 10
-122.4389986988458
 20
-243.6317299249732
 30
0.0
  0
POINT
  5
1492
330
139F
100
AcDbEntity
  8
DEFPOINTS
  6
Continuous
 62
     0
100
AcDbPoint
 10
-122.4389986988458
 20
-414.0736617955829
 30
0.0
  0
ENDBLK
  5
13A1
330
139F
100
AcDbEntity
  8
0
100
AcDbBlockEnd
  0
BLOCK
  5
13AC
330
13AB
100
AcDbEntity
  8
0
100
AcDbBlockBegin
  2
*D18
 70
     1
 10
0.0
 20
0.0
 30
0.0
  3
*D18
  1

  0
LINE
  5
1493
330
13AB
100
AcDbEntity
  8
SIZE
  6
Continuous
 62
     0
370
    -2
100
AcDbLine
 10
-122.4389986988458
 20
-263.6317299249732
 30
0.0
 11
-122.4389986988458
 21
-541.3241467410157
 31
0.0
  0
LINE
  5
1494
330
13AB
100
AcDbEntity
  8
SIZE
  6
Continuous
 62
     0
370
    -2
100
AcDbLine
 10
-134.4389986988458
 20
-263.6317299249732
 30
0.0
 11
-134.4389986988458
 21
-541.3241467410157
 31
0.0
  0
LINE
  5
1495
330
13AB
100
AcDbEntity
  8
SIZE
  6
Continuous
 62
     0
370
    -2
100
AcDbLine
 10
-110.4389986988458
 20
-521.3241467410157
 30
0.0
 11
-98.4389986988458
 21
-521.3241467410157
 31
0.0
  0
LINE
  5
1496
330
13AB
100
AcDbEntity
  8
SIZE
  6
Continuous
 62
     0
370
    -2
100
AcDbLine
 10
-146.4389986988458
 20
-521.3241467410157
 30
0.0
 11
-260.7247129845601
 21
-521.3241467410157
 31
0.0
  0
LINE
  5
1497
330
13AB
100
AcDbEntity
  8
SIZE
  6
Continuous
 62
     0
370
    -2
100
AcDbLine
 10
-122.4389986988458
 20
-521.3241467410157
 30
0.0
 11
-134.4389986988458
 21
-521.3241467410157
 31
0.0
  0
INSERT
  5
1498
330
13AB
100
AcDbEntity
  8
SIZE
  6
Continuous
 62
     0
370
    -2
100
AcDbBlockReference
  2
_DOTBLANK
 10
-122.4389986988458
 20
-521.3241467410157
 30
0.0
 41
12.0
 42
12.0
 43
12.0
 50
180.0
  0
INSERT
  5
1499
330
13AB
100
AcDbEntity
  8
SIZE
  6
Continuous
 62
     0
370
    -2
100
AcDbBlockReference
  2
_DOTBLANK
 10
-134.4389986988458
 20
-521.3241467410157
 30
0.0
 41
12.0
 42
12.0
 43
12.0
  0
MTEXT
  5
149A
330
13AB
100
AcDbEntity
  8
SIZE
  6
Continuous
 62
     0
100
AcDbMText
 10
-209.581855841703
 20
-479.3241467410154
 30
0.0
 40
64.0
 41
0.0
 71
     5
 72
     1
  1
\A1;12
 73
     1
 44
1.0
1001
ACAD
1000
MTEXTBEGIN
1070
    73
1070
     1
1070
    44
1040
1.0
1070
    74
1070
     0
1000
MTEXTEND
  0
POINT
  5
149B
330
13AB
100
AcDbEntity
  8
DEFPOINTS
  6
Continuous
 62
     0
100
AcDbPoint
 10
-122.4389986988458
 20
-243.6317299249732
 30
0.0
  0
POINT
  5
149C
330
13AB
100
AcDbEntity
  8
DEFPOINTS
  6
Continuous
 62
     0
100
AcDbPoint
 10
-134.4389986988458
 20
-243.6317299249732
 30
0.0
  0
POINT
  5
149D
330
13AB
100
AcDbEntity
  8
DEFPOINTS
  6
Continuous
 62
     0
100
AcDbPoint
 10
-134.4389986988458
 20
-521.3241467410157
 30
0.0
  0
ENDBLK
  5
13AD
330
13AB
100
AcDbEntity
  8
0
100
AcDbBlockEnd
  0
BLOCK
  5
13BA
330
13B9
100
AcDbEntity
  8
0
100
AcDbBlockBegin
  2
*D19
 70
     1
 10
0.0
 20
0.0
 30
0.0
  3
*D19
  1

  0
LINE
  5
1431
330
13B9
100
AcDbEntity
  8
SIZE
  6
Continuous
 62
     0
370
    -2
100
AcDbLine
 10
1652.355735523924
 20
-320.3007229331281
 30
0.0
 11
1806.415880011689
 21
-320.3007229331282
 31
0.0
  0
LINE
  5
1432
330
13B9
100
AcDbEntity
  8
SIZE
  6
Continuous
 62
     0
370
    -2
100
AcDbLine
 10
1585.355735523924
 20
-416.6007229331281
 30
0.0
 11
1806.415880011689
 21
-416.6007229331282
 31
0.0
  0
LINE
  5
1433
330
13B9
100
AcDbEntity
  8
SIZE
  6
Continuous
 62
     0
370
    -2
100
AcDbLine
 10
1786.415880011689
 20
-332.3007229331282
 30
0.0
 11
1786.415880011689
 21
-404.6007229331282
 31
0.0
  0
INSERT
  5
1434
330
13B9
100
AcDbEntity
  8
SIZE
  6
Continuous
 62
     0
370
    -2
100
AcDbBlockReference
  2
_DOTBLANK
 10
1786.415880011689
 20
-320.3007229331282
 30
0.0
 41
12.0
 42
12.0
 43
12.0
 50
90.0
  0
INSERT
  5
1435
330
13B9
100
AcDbEntity
  8
SIZE
  6
Continuous
 62
     0
370
    -2
100
AcDbBlockReference
  2
_DOTBLANK
 10
1786.415880011689
 20
-416.6007229331282
 30
0.0
 41
12.0
 42
12.0
 43
12.0
 50
270.0
  0
MTEXT
  5
1436
330
13B9
100
AcDbEntity
  8
SIZE
  6
Continuous
 62
     0
100
AcDbMText
 10
1744.415880011689
 20
-368.450722933128
 30
0.0
 40
64.0
 41
0.0
 71
     5
 72
     1
  1
\A1;96
 11
0.0000000000000001
 21
1.0
 31
0.0
 73
     1
 44
1.0
1001
ACAD
1000
MTEXTBEGIN
1070
    73
1070
     1
1070
    44
1040
1.0
1070
    74
1070
     0
1000
MTEXTEND
  0
POINT
  5
1437
330
13B9
100
AcDbEntity
  8
DEFPOINTS
  6
Continuous
 62
     0
100
AcDbPoint
 10
1632.355735523924
 20
-320.3007229331281
 30
0.0
  0
POINT
  5
1438
330
13B9
100
AcDbEntity
  8
DEFPOINTS
  6
Continuous
 62
     0
100
AcDbPoint
 10
1565.355735523923
 20
-416.6007229331281
 30
0.0
  0
POINT
  5
1439
330
13B9
100
AcDbEntity
  8
DEFPOINTS
  6
Continuous
 62
     0
100
AcDbPoint
 10
1786.415880011689
 20
-416.6007229331282
 30
0.0
  0
ENDBLK
  5
13BB
330
13B9
100
AcDbEntity
  8
0
100
AcDbBlockEnd
  0
BLOCK
  5
13C6
330
13C5
100
AcDbEntity
  8
0
100
AcDbBlockBegin
  2
*D20
 70
     1
 10
0.0
 20
0.0
 30
0.0
  3
*D20
  1

  0
LINE
  5
149E
330
13C5
100
AcDbEntity
  8
SIZE
  6
Continuous
 62
     0
370
    -2
100
AcDbLine
 10
114.4809670739537
 20
-236.1309628503171
 30
0.0
 11
114.4809670739537
 21
-355.2266573042875
 31
0.0
  0
LINE
  5
149F
330
13C5
100
AcDbEntity
  8
SIZE
  6
Continuous
 62
     0
370
    -2
100
AcDbLine
 10
177.5610013011541
 20
-174.6317299249732
 30
0.0
 11
177.5610013011541
 21
-355.2266573042875
 31
0.0
  0
LINE
  5
14A0
330
13C5
100
AcDbEntity
  8
SIZE
  6
Continuous
 62
     0
370
    -2
100
AcDbLine
 10
126.4809670739537
 20
-335.2266573042875
 30
0.0
 11
165.5610013011542
 21
-335.2266573042875
 31
0.0
  0
LINE
  5
14A1
330
13C5
100
AcDbEntity
  8
SIZE
  6
Continuous
 62
     0
370
    -2
100
AcDbLine
 10
177.5610013011541
 20
-335.2266573042875
 30
0.0
 11
302.8181441582972
 21
-335.2266573042875
 31
0.0
  0
INSERT
  5
14A2
330
13C5
100
AcDbEntity
  8
SIZE
  6
Continuous
 62
     0
370
    -2
100
AcDbBlockReference
  2
_DOTBLANK
 10
114.4809670739537
 20
-335.2266573042875
 30
0.0
 41
12.0
 42
12.0
 43
12.0
 50
180.0
  0
INSERT
  5
14A3
330
13C5
100
AcDbEntity
  8
SIZE
  6
Continuous
 62
     0
370
    -2
100
AcDbBlockReference
  2
_DOTBLANK
 10
177.5610013011541
 20
-335.2266573042875
 30
0.0
 41
12.0
 42
12.0
 43
12.0
  0
MTEXT
  5
14A4
330
13C5
100
AcDbEntity
  8
SIZE
  6
Continuous
 62
     0
100
AcDbMText
 10
246.1895727297258
 20
-293.2266573042875
 30
0.0
 40
64.0
 41
0.0
 71
     5
 72
     1
  1
\A1;63
 73
     1
 44
1.0
1001
ACAD
1000
MTEXTBEGIN
1070
    73
1070
     1
1070
    44
1040
1.0
1070
    74
1070
     0
1000
MTEXTEND
  0
POINT
  5
14A5
330
13C5
100
AcDbEntity
  8
DEFPOINTS
  6
Continuous
 62
     0
100
AcDbPoint
 10
114.4809670739537
 20
-216.1309628503171
 30
0.0
  0
POINT
  5
14A6
330
13C5
100
AcDbEntity
  8
DEFPOINTS
  6
Continuous
 62
     0
100
AcDbPoint
 10
177.5610013011541
 20
-154.6317299249732
 30
0.0
  0
POINT
  5
14A7
330
13C5
100
AcDbEntity
  8
DEFPOINTS
  6
Continuous
 62
     0
100
AcDbPoint
 10
177.5610013011541
 20
-335.2266573042875
 30
0.0
  0
ENDBLK
  5
13C7
330
13C5
100
AcDbEntity
  8
0
100
AcDbBlockEnd
  0
BLOCK
  5
1446
330
1445
100
AcDbEntity
  8
0
100
AcDbBlockBegin
  2
*D21
 70
     1
 10
0.0
 20
0.0
 30
0.0
  3
*D21
  1

  0
LINE
  5
14A8
330
1445
100
AcDbEntity
  8
SIZE
  6
Continuous
 62
     0
370
    -2
100
AcDbLine
 10
210.0254841033479
 20
142.8682700750268
 30
0.0
 11
419.6351921975876
 21
142.8682700750267
 31
0.0
  0
LINE
  5
14A9
330
1445
100
AcDbEntity
  8
SIZE
  6
Continuous
 62
     0
370
    -2
100
AcDbLine
 10
210.0254841033479
 20
-137.1317299249732
 30
0.0
 11
419.6351921975876
 21
-137.1317299249732
 31
0.0
  0
LINE
  5
14AA
330
1445
100
AcDbEntity
  8
SIZE
  6
Continuous
 62
     0
370
    -2
100
AcDbLine
 10
399.6351921975877
 20
130.8682700750267
 30
0.0
 11
399.6351921975877
 21
-125.1317299249732
 31
0.0
  0
INSERT
  5
14AB
330
1445
100
AcDbEntity
  8
SIZE
  6
Continuous
 62
     0
370
    -2
100
AcDbBlockReference
  2
_DOTBLANK
 10
399.6351921975877
 20
142.8682700750267
 30
0.0
 41
12.0
 42
12.0
 43
12.0
 50
90.0
  0
INSERT
  5
14AC
330
1445
100
AcDbEntity
  8
SIZE
  6
Continuous
 62
     0
370
    -2
100
AcDbBlockReference
  2
_DOTBLANK
 10
399.6351921975877
 20
-137.1317299249732
 30
0.0
 41
12.0
 42
12.0
 43
12.0
 50
270.0
  0
MTEXT
  5
14AD
330
1445
100
AcDbEntity
  8
SIZE
  6
Continuous
 62
     0
100
AcDbMText
 10
357.6351921975877
 20
2.868270075026837
 30
0.0
 40
64.0
 41
0.0
 71
     5
 72
     1
  1
\A1;280
 11
0.0000000000000001
 21
1.0
 31
0.0
 73
     1
 44
1.0
1001
ACAD
1000
MTEXTBEGIN
1070
    73
1070
     1
1070
    44
1040
1.0
1070
    74
1070
     0
1000
MTEXTEND
  0
POINT
  5
14AE
330
1445
100
AcDbEntity
  8
DEFPOINTS
  6
Continuous
 62
     0
100
AcDbPoint
 10
190.0254841033479
 20
142.8682700750268
 30
0.0
  0
POINT
  5
14AF
330
1445
100
AcDbEntity
  8
DEFPOINTS
  6
Continuous
 62
     0
100
AcDbPoint
 10
190.0254841033479
 20
-137.1317299249732
 30
0.0
  0
POINT
  5
14B0
330
1445
100
AcDbEntity
  8
DEFPOINTS
  6
Continuous
 62
     0
100
AcDbPoint
 10
399.6351921975877
 20
-137.1317299249732
 30
0.0
  0
ENDBLK
  5
1447
330
1445
100
AcDbEntity
  8
0
100
AcDbBlockEnd
  0
BLOCK
  5
14E1
330
14E0
100
AcDbEntity
  8
0
100
AcDbBlockBegin
  2
*D22
 70
     1
 10
0.0
 20
0.0
 30
0.0
  3
*D22
  1

  0
LINE
  5
14E2
330
14E0
100
AcDbEntity
  8
SIZE
  6
Continuous
 62
     0
370
    -2
100
AcDbLine
 10
300.0
 20
-263.3121218469543
 30
0.0
 11
300.0
 21
-544.1924168160427
 31
0.0
  0
LINE
  5
14E3
330
14E0
100
AcDbEntity
  8
SIZE
  6
Continuous
 62
     0
370
    -2
100
AcDbLine
 10
-0.0000000000000012
 20
-177.5
 30
0.0
 11
-0.0000000000000237
 21
-544.1924168160427
 31
0.0
  0
LINE
  5
14E4
330
14E0
100
AcDbEntity
  8
SIZE
  6
Continuous
 62
     0
370
    -2
100
AcDbLine
 10
288.0
 20
-524.1924168160427
 30
0.0
 11
11.99999999999997
 21
-524.1924168160427
 31
0.0
  0
INSERT
  5
14E5
330
14E0
100
AcDbEntity
  8
SIZE
  6
Continuous
 62
     0
370
    -2
100
AcDbBlockReference
  2
_DOTBLANK
 10
300.0
 20
-524.1924168160427
 30
0.0
 41
12.0
 42
12.0
 43
12.0
  0
INSERT
  5
14E6
330
14E0
100
AcDbEntity
  8
SIZE
  6
Continuous
 62
     0
370
    -2
100
AcDbBlockReference
  2
_DOTBLANK
 10
-0.0000000000000225
 20
-524.1924168160427
 30
0.0
 41
12.0
 42
12.0
 43
12.0
 50
180.0
  0
MTEXT
  5
14E7
330
14E0
100
AcDbEntity
  8
SIZE
  6
Continuous
 62
     0
100
AcDbMText
 10
150.0
 20
-482.1924168160427
 30
0.0
 40
64.0
 41
0.0
 71
     5
 72
     1
  1
\A1;300
 73
     1
 44
1.0
1001
ACAD
1000
MTEXTBEGIN
1070
    73
1070
     1
1070
    44
1040
1.0
1070
    74
1070
     0
1000
MTEXTEND
  0
POINT
  5
14E8
330
14E0
100
AcDbEntity
  8
DEFPOINTS
  6
Continuous
 62
     0
100
AcDbPoint
 10
300.0
 20
-243.3121218469543
 30
0.0
  0
POINT
  5
14E9
330
14E0
100
AcDbEntity
  8
DEFPOINTS
  6
Continuous
 62
     0
100
AcDbPoint
 10
0.0
 20
-157.5
 30
0.0
  0
POINT
  5
14EA
330
14E0
100
AcDbEntity
  8
DEFPOINTS
  6
Continuous
 62
     0
100
AcDbPoint
 10
-0.0000000000000225
 20
-524.1924168160427
 30
0.0
  0
ENDBLK
  5
14EB
330
14E0
100
AcDbEntity
  8
0
100
AcDbBlockEnd
  0
BLOCK
  5
14ED
330
14EC
100
AcDbEntity
  8
0
100
AcDbBlockBegin
  2
*D23
 70
     1
 10
0.0
 20
0.0
 30
0.0
  3
*D23
  1

  0
LINE
  5
14EE
330
14EC
100
AcDbEntity
  8
SIZE
  6
Continuous
 62
     0
370
    -2
100
AcDbLine
 10
-20.0
 20
-123.5
 30
0.0
 11
-166.0601444877647
 21
-123.4999999999999
 31
0.0
  0
LINE
  5
14EF
330
14EC
100
AcDbEntity
  8
SIZE
  6
Continuous
 62
     0
370
    -2
100
AcDbLine
 10
-19.39999999999997
 20
121.5
 30
0.0
 11
-166.0601444877647
 21
121.5
 31
0.0
  0
LINE
  5
14F0
330
14EC
100
AcDbEntity
  8
SIZE
  6
Continuous
 62
     0
370
    -2
100
AcDbLine
 10
-146.0601444877647
 20
-111.4999999999999
 30
0.0
 11
-146.0601444877647
 21
109.5
 31
0.0
  0
INSERT
  5
14F1
330
14EC
100
AcDbEntity
  8
SIZE
  6
Continuous
 62
     0
370
    -2
100
AcDbBlockReference
  2
_DOTBLANK
 10
-146.0601444877647
 20
-123.4999999999999
 30
0.0
 41
12.0
 42
12.0
 43
12.0
 50
270.0
  0
INSERT
  5
14F2
330
14EC
100
AcDbEntity
  8
SIZE
  6
Continuous
 62
     0
370
    -2
100
AcDbBlockReference
  2
_DOTBLANK
 10
-146.0601444877647
 20
121.5
 30
0.0
 41
12.0
 42
12.0
 43
12.0
 50
90.0
  0
MTEXT
  5
14F3
330
14EC
100
AcDbEntity
  8
SIZE
  6
Continuous
 62
     0
100
AcDbMText
 10
-188.0601444877647
 20
-0.9999999999999715
 30
0.0
 40
64.0
 41
0.0
 71
     5
 72
     1
  1
\A1;□245
 11
0.0000000000000001
 21
1.0
 31
0.0
 73
     1
 44
1.0
1001
ACAD
1000
MTEXTBEGIN
1070
    73
1070
     1
1070
    44
1040
1.0
1070
    74
1070
     0
1000
MTEXTEND
  0
POINT
  5
14F4
330
14EC
100
AcDbEntity
  8
DEFPOINTS
  6
Continuous
 62
     0
100
AcDbPoint
 10
0.0
 20
-123.5
 30
0.0
  0
POINT
  5
14F5
330
14EC
100
AcDbEntity
  8
DEFPOINTS
  6
Continuous
 62
     0
100
AcDbPoint
 10
0.6000000000000229
 20
121.5
 30
0.0
  0
POINT
  5
14F6
330
14EC
100
AcDbEntity
  8
DEFPOINTS
  6
Continuous
 62
     0
100
AcDbPoint
 10
-146.0601444877647
 20
121.5
 30
0.0
  0
ENDBLK
  5
14F7
330
14EC
100
AcDbEntity
  8
0
100
AcDbBlockEnd
  0
BLOCK
  5
14F9
330
14F8
100
AcDbEntity
  8
0
100
AcDbBlockBegin
  2
*D24
 70
     1
 10
0.0
 20
0.0
 30
0.0
  3
*D24
  1

  0
LINE
  5
14FA
330
14F8
100
AcDbEntity
  8
SIZE
  6
Continuous
 62
     0
370
    -2
100
AcDbLine
 10
75.0
 20
-232.8816215723389
 30
0.0
 11
74.99999999999999
 21
-436.9419318706101
 31
0.0
  0
LINE
  5
14FB
330
14F8
100
AcDbEntity
  8
SIZE
  6
Continuous
 62
     0
370
    -2
100
AcDbLine
 10
300.0
 20
-266.5
 30
0.0
 11
300.0
 21
-436.9419318706101
 31
0.0
  0
LINE
  5
14FC
330
14F8
100
AcDbEntity
  8
SIZE
  6
Continuous
 62
     0
370
    -2
100
AcDbLine
 10
86.99999999999999
 20
-416.9419318706101
 30
0.0
 11
288.0
 21
-416.9419318706101
 31
0.0
  0
INSERT
  5
14FD
330
14F8
100
AcDbEntity
  8
SIZE
  6
Continuous
 62
     0
370
    -2
100
AcDbBlockReference
  2
_DOTBLANK
 10
74.99999999999999
 20
-416.9419318706101
 30
0.0
 41
12.0
 42
12.0
 43
12.0
 50
180.0
  0
INSERT
  5
14FE
330
14F8
100
AcDbEntity
  8
SIZE
  6
Continuous
 62
     0
370
    -2
100
AcDbBlockReference
  2
_DOTBLANK
 10
300.0
 20
-416.9419318706101
 30
0.0
 41
12.0
 42
12.0
 43
12.0
  0
MTEXT
  5
14FF
330
14F8
100
AcDbEntity
  8
SIZE
  6
Continuous
 62
     0
100
AcDbMText
 10
187.5
 20
-374.9419318706101
 30
0.0
 40
64.0
 41
0.0
 71
     5
 72
     1
  1
\A1;225
 73
     1
 44
1.0
1001
ACAD
1000
MTEXTBEGIN
1070
    73
1070
     1
1070
    44
1040
1.0
1070
    74
1070
     0
1000
MTEXTEND
  0
POINT
  5
1500
330
14F8
100
AcDbEntity
  8
DEFPOINTS
  6
Continuous
 62
     0
100
AcDbPoint
 10
75.0
 20
-212.8816215723389
 30
0.0
  0
POINT
  5
1501
330
14F8
100
AcDbEntity
  8
DEFPOINTS
  6
Continuous
 62
     0
100
AcDbPoint
 10
300.0
 20
-246.5
 30
0.0
  0
POINT
  5
1502
330
14F8
100
AcDbEntity
  8
DEFPOINTS
  6
Continuous
 62
     0
100
AcDbPoint
 10
300.0
 20
-416.9419318706101
 30
0.0
  0
ENDBLK
  5
1503
330
14F8
100
AcDbEntity
  8
0
100
AcDbBlockEnd
  0
BLOCK
  5
1505
330
1504
100
AcDbEntity
  8
0
100
AcDbBlockBegin
  2
*D25
 70
     1
 10
0.0
 20
0.0
 30
0.0
  3
*D25
  1

  0
LINE
  5
1506
330
1504
100
AcDbEntity
  8
SIZE
  6
Continuous
 62
     0
370
    -2
100
AcDbLine
 10
300.0
 20
-266.5
 30
0.0
 11
300.0
 21
-544.1924168160427
 31
0.0
  0
LINE
  5
1507
330
1504
100
AcDbEntity
  8
SIZE
  6
Continuous
 62
     0
370
    -2
100
AcDbLine
 10
312.0
 20
-266.5
 30
0.0
 11
312.0
 21
-544.1924168160427
 31
0.0
  0
LINE
  5
1508
330
1504
100
AcDbEntity
  8
SIZE
  6
Continuous
 62
     0
370
    -2
100
AcDbLine
 10
288.0
 20
-524.1924168160427
 30
0.0
 11
276.0
 21
-524.1924168160427
 31
0.0
  0
LINE
  5
1509
330
1504
100
AcDbEntity
  8
SIZE
  6
Continuous
 62
     0
370
    -2
100
AcDbLine
 10
324.0
 20
-524.1924168160427
 30
0.0
 11
438.285714285714
 21
-524.1924168160427
 31
0.0
  0
LINE
  5
150A
330
1504
100
AcDbEntity
  8
SIZE
  6
Continuous
 62
     0
370
    -2
100
AcDbLine
 10
300.0
 20
-524.1924168160427
 30
0.0
 11
312.0
 21
-524.1924168160427
 31
0.0
  0
INSERT
  5
150B
330
1504
100
AcDbEntity
  8
SIZE
  6
Continuous
 62
     0
370
    -2
100
AcDbBlockReference
  2
_DOTBLANK
 10
300.0
 20
-524.1924168160427
 30
0.0
 41
12.0
 42
12.0
 43
12.0
  0
INSERT
  5
150C
330
1504
100
AcDbEntity
  8
SIZE
  6
Continuous
 62
     0
370
    -2
100
AcDbBlockReference
  2
_DOTBLANK
 10
312.0
 20
-524.1924168160427
 30
0.0
 41
12.0
 42
12.0
 43
12.0
 50
180.0
  0
MTEXT
  5
150D
330
1504
100
AcDbEntity
  8
SIZE
  6
Continuous
 62
     0
100
AcDbMText
 10
387.1428571428571
 20
-482.1924168160427
 30
0.0
 40
64.0
 41
0.0
 71
     5
 72
     1
  1
\A1;12
 73
     1
 44
1.0
1001
ACAD
1000
MTEXTBEGIN
1070
    73
1070
     1
1070
    44
1040
1.0
1070
    74
1070
     0
1000
MTEXTEND
  0
POINT
  5
150E
330
1504
100
AcDbEntity
  8
DEFPOINTS
  6
Continuous
 62
     0
100
AcDbPoint
 10
300.0
 20
-246.5
 30
0.0
  0
POINT
  5
150F
330
1504
100
AcDbEntity
  8
DEFPOINTS
  6
Continuous
 62
     0
100
AcDbPoint
 10
312.0
 20
-246.5000000000001
 30
0.0
  0
POINT
  5
1510
330
1504
100
AcDbEntity
  8
DEFPOINTS
  6
Continuous
 62
     0
100
AcDbPoint
 10
312.0
 20
-524.1924168160427
 30
0.0
  0
ENDBLK
  5
1511
330
1504
100
AcDbEntity
  8
0
100
AcDbBlockEnd
  0
BLOCK
  5
1513
330
1512
100
AcDbEntity
  8
0
100
AcDbBlockBegin
  2
*D26
 70
     1
 10
0.0
 20
0.0
 30
0.0
  3
*D26
  1

  0
LINE
  5
1514
330
1512
100
AcDbEntity
  8
SIZE
  6
Continuous
 62
     0
370
    -2
100
AcDbLine
 10
-12.0
 20
-124.0828571428571
 30
0.0
 11
-166.0601444877647
 21
-124.082857142857
 31
0.0
  0
LINE
  5
1515
330
1512
100
AcDbEntity
  8
SIZE
  6
Continuous
 62
     0
370
    -2
100
AcDbLine
 10
54.99999999999998
 20
-220.0828571428571
 30
0.0
 11
-166.0601444877647
 21
-220.082857142857
 31
0.0
  0
LINE
  5
1516
330
1512
100
AcDbEntity
  8
SIZE
  6
Continuous
 62
     0
370
    -2
100
AcDbLine
 10
-146.0601444877647
 20
-136.082857142857
 30
0.0
 11
-146.0601444877647
 21
-208.0828571428571
 31
0.0
  0
INSERT
  5
1517
330
1512
100
AcDbEntity
  8
SIZE
  6
Continuous
 62
     0
370
    -2
100
AcDbBlockReference
  2
_DOTBLANK
 10
-146.0601444877647
 20
-124.082857142857
 30
0.0
 41
12.0
 42
12.0
 43
12.0
 50
90.0
  0
INSERT
  5
1518
330
1512
100
AcDbEntity
  8
SIZE
  6
Continuous
 62
     0
370
    -2
100
AcDbBlockReference
  2
_DOTBLANK
 10
-146.0601444877647
 20
-220.0828571428571
 30
0.0
 41
12.0
 42
12.0
 43
12.0
 50
270.0
  0
MTEXT
  5
1519
330
1512
100
AcDbEntity
  8
SIZE
  6
Continuous
 62
     0
100
AcDbMText
 10
-188.0601444877647
 20
-172.0828571428571
 30
0.0
 40
64.0
 41
0.0
 71
     5
 72
     1
  1
\A1;96
 11
0.0000000000000001
 21
1.0
 31
0.0
 73
     1
 44
1.0
1001
ACAD
1000
MTEXTBEGIN
1070
    73
1070
     1
1070
    44
1040
1.0
1070
    74
1070
     0
1000
MTEXTEND
  0
POINT
  5
151A
330
1512
100
AcDbEntity
  8
DEFPOINTS
  6
Continuous
 62
     0
100
AcDbPoint
 10
8.0
 20
-124.0828571428571
 30
0.0
  0
POINT
  5
151B
330
1512
100
AcDbEntity
  8
DEFPOINTS
  6
Continuous
 62
     0
100
AcDbPoint
 10
74.99999999999999
 20
-220.0828571428571
 30
0.0
  0
POINT
  5
151C
330
1512
100
AcDbEntity
  8
DEFPOINTS
  6
Continuous
 62
     0
100
AcDbPoint
 10
-146.0601444877647
 20
-220.0828571428571
 30
0.0
  0
ENDBLK
  5
151D
330
1512
100
AcDbEntity
  8
0
100
AcDbBlockEnd
  0
BLOCK
  5
151F
330
151E
100
AcDbEntity
  8
0
100
AcDbBlockBegin
  2
*D27
 70
     1
 10
0.0
 20
0.0
 30
0.0
  3
*D27
  1

  0
LINE
  5
1520
330
151E
100
AcDbEntity
  8
SIZE
  6
Continuous
 62
     0
370
    -2
100
AcDbLine
 10
64.0
 20
-238.7913523809523
 30
0.0
 11
63.99999999999999
 21
-358.0949273793144
 31
0.0
  0
LINE
  5
1521
330
151E
100
AcDbEntity
  8
SIZE
  6
Continuous
 62
     0
370
    -2
100
AcDbLine
 10
-0.0000000000000012
 20
-177.5
 30
0.0
 11
-0.0000000000000123
 21
-358.0949273793144
 31
0.0
  0
LINE
  5
1522
330
151E
100
AcDbEntity
  8
SIZE
  6
Continuous
 62
     0
370
    -2
100
AcDbLine
 10
51.99999999999999
 20
-338.0949273793143
 30
0.0
 11
11.99999999999999
 21
-338.0949273793143
 31
0.0
  0
LINE
  5
1523
330
151E
100
AcDbEntity
  8
SIZE
  6
Continuous
 62
     0
370
    -2
100
AcDbLine
 10
-0.0000000000000111
 20
-338.0949273793143
 30
0.0
 11
-128.0
 21
-338.0949273793143
 31
0.0
  0
INSERT
  5
1524
330
151E
100
AcDbEntity
  8
SIZE
  6
Continuous
 62
     0
370
    -2
100
AcDbBlockReference
  2
_DOTBLANK
 10
63.99999999999999
 20
-338.0949273793143
 30
0.0
 41
12.0
 42
12.0
 43
12.0
  0
INSERT
  5
1525
330
151E
100
AcDbEntity
  8
SIZE
  6
Continuous
 62
     0
370
    -2
100
AcDbBlockReference
  2
_DOTBLANK
 10
-0.0000000000000111
 20
-338.0949273793143
 30
0.0
 41
12.0
 42
12.0
 43
12.0
 50
180.0
  0
MTEXT
  5
1526
330
151E
100
AcDbEntity
  8
SIZE
  6
Continuous
 62
     0
100
AcDbMText
 10
-70.00000000000001
 20
-296.0949273793143
 30
0.0
 40
64.0
 41
0.0
 71
     5
 72
     1
  1
\A1;64
 73
     1
 44
1.0
1001
ACAD
1000
MTEXTBEGIN
1070
    73
1070
     1
1070
    44
1040
1.0
1070
    74
1070
     0
1000
MTEXTEND
  0
POINT
  5
1527
330
151E
100
AcDbEntity
  8
DEFPOINTS
  6
Continuous
 62
     0
100
AcDbPoint
 10
64.0
 20
-218.7913523809523
 30
0.0
  0
POINT
  5
1528
330
151E
100
AcDbEntity
  8
DEFPOINTS
  6
Continuous
 62
     0
100
AcDbPoint
 10
0.0
 20
-157.5
 30
0.0
  0
POINT
  5
1529
330
151E
100
AcDbEntity
  8
DEFPOINTS
  6
Continuous
 62
     0
100
AcDbPoint
 10
-0.0000000000000111
 20
-338.0949273793143
 30
0.0
  0
ENDBLK
  5
152A
330
151E
100
AcDbEntity
  8
0
100
AcDbBlockEnd
  0
BLOCK
  5
1578
330
1577
100
AcDbEntity
  8
0
100
AcDbBlockBegin
  2
*D28
 70
     1
 10
0.0
 20
0.0
 30
0.0
  3
*D28
  1

  0
LINE
  5
164A
330
1577
100
AcDbEntity
  8
SIZE
  6
Continuous
 62
     0
370
    -2
100
AcDbLine
 10
247.4231468409085
 20
-214.9080297657609
 30
0.0
 11
247.4231468409085
 21
-418.9683400640322
 31
0.0
  0
LINE
  5
164B
330
1577
100
AcDbEntity
  8
SIZE
  6
Continuous
 62
     0
370
    -2
100
AcDbLine
 10
22.42314684090854
 20
-248.5264081934221
 30
0.0
 11
22.42314684090853
 21
-418.9683400640322
 31
0.0
  0
LINE
  5
164C
330
1577
100
AcDbEntity
  8
SIZE
  6
Continuous
 62
     0
370
    -2
100
AcDbLine
 10
235.4231468409086
 20
-398.9683400640322
 30
0.0
 11
34.42314684090853
 21
-398.9683400640322
 31
0.0
  0
INSERT
  5
164D
330
1577
100
AcDbEntity
  8
SIZE
  6
Continuous
 62
     0
370
    -2
100
AcDbBlockReference
  2
_DOTBLANK
 10
247.4231468409085
 20
-398.9683400640322
 30
0.0
 41
12.0
 42
12.0
 43
12.0
  0
INSERT
  5
164E
330
1577
100
AcDbEntity
  8
SIZE
  6
Continuous
 62
     0
370
    -2
100
AcDbBlockReference
  2
_DOTBLANK
 10
22.42314684090853
 20
-398.9683400640322
 30
0.0
 41
12.0
 42
12.0
 43
12.0
 50
180.0
  0
MTEXT
  5
164F
330
1577
100
AcDbEntity
  8
SIZE
  6
Continuous
 62
     0
100
AcDbMText
 10
134.9231468409085
 20
-356.9683400640322
 30
0.0
 40
64.0
 41
0.0
 71
     5
 72
     1
  1
\A1;225
 73
     1
 44
1.0
1001
ACAD
1000
MTEXTBEGIN
1070
    73
1070
     1
1070
    44
1040
1.0
1070
    74
1070
     0
1000
MTEXTEND
  0
POINT
  5
1650
330
1577
100
AcDbEntity
  8
DEFPOINTS
  6
Continuous
 62
     0
100
AcDbPoint
 10
247.4231468409085
 20
-194.9080297657609
 30
0.0
  0
POINT
  5
1651
330
1577
100
AcDbEntity
  8
DEFPOINTS
  6
Continuous
 62
     0
100
AcDbPoint
 10
22.42314684090854
 20
-228.5264081934221
 30
0.0
  0
POINT
  5
1652
330
1577
100
AcDbEntity
  8
DEFPOINTS
  6
Continuous
 62
     0
100
AcDbPoint
 10
22.42314684090853
 20
-398.9683400640322
 30
0.0
  0
ENDBLK
  5
1579
330
1577
100
AcDbEntity
  8
0
100
AcDbBlockEnd
  0
BLOCK
  5
1584
330
1583
100
AcDbEntity
  8
0
100
AcDbBlockBegin
  2
*D29
 70
     1
 10
0.0
 20
0.0
 30
0.0
  3
*D29
  1

  0
LINE
  5
1653
330
1583
100
AcDbEntity
  8
SIZE
  6
Continuous
 62
     0
370
    -2
100
AcDbLine
 10
22.42314684090854
 20
-248.5264081934221
 30
0.0
 11
22.42314684090853
 21
-526.2188250094648
 31
0.0
  0
LINE
  5
1654
330
1583
100
AcDbEntity
  8
SIZE
  6
Continuous
 62
     0
370
    -2
100
AcDbLine
 10
10.42314684090854
 20
-248.5264081934222
 30
0.0
 11
10.42314684090852
 21
-526.2188250094648
 31
0.0
  0
LINE
  5
1655
330
1583
100
AcDbEntity
  8
SIZE
  6
Continuous
 62
     0
370
    -2
100
AcDbLine
 10
34.42314684090853
 20
-506.2188250094648
 30
0.0
 11
46.42314684090853
 21
-506.2188250094648
 31
0.0
  0
LINE
  5
1656
330
1583
100
AcDbEntity
  8
SIZE
  6
Continuous
 62
     0
370
    -2
100
AcDbLine
 10
-1.576853159091474
 20
-506.2188250094648
 30
0.0
 11
-115.8625674448057
 21
-506.2188250094648
 31
0.0
  0
LINE
  5
1657
330
1583
100
AcDbEntity
  8
SIZE
  6
Continuous
 62
     0
370
    -2
100
AcDbLine
 10
22.42314684090853
 20
-506.2188250094648
 30
0.0
 11
10.42314684090852
 21
-506.2188250094648
 31
0.0
  0
INSERT
  5
1658
330
1583
100
AcDbEntity
  8
SIZE
  6
Continuous
 62
     0
370
    -2
100
AcDbBlockReference
  2
_DOTBLANK
 10
22.42314684090853
 20
-506.2188250094648
 30
0.0
 41
12.0
 42
12.0
 43
12.0
 50
180.0
  0
INSERT
  5
1659
330
1583
100
AcDbEntity
  8
SIZE
  6
Continuous
 62
     0
370
    -2
100
AcDbBlockReference
  2
_DOTBLANK
 10
10.42314684090852
 20
-506.2188250094648
 30
0.0
 41
12.0
 42
12.0
 43
12.0
  0
MTEXT
  5
165A
330
1583
100
AcDbEntity
  8
SIZE
  6
Continuous
 62
     0
100
AcDbMText
 10
-64.71971030194861
 20
-464.2188250094648
 30
0.0
 40
64.0
 41
0.0
 71
     5
 72
     1
  1
\A1;12
 73
     1
 44
1.0
1001
ACAD
1000
MTEXTBEGIN
1070
    73
1070
     1
1070
    44
1040
1.0
1070
    74
1070
     0
1000
MTEXTEND
  0
POINT
  5
165B
330
1583
100
AcDbEntity
  8
DEFPOINTS
  6
Continuous
 62
     0
100
AcDbPoint
 10
22.42314684090854
 20
-228.5264081934221
 30
0.0
  0
POINT
  5
165C
330
1583
100
AcDbEntity
  8
DEFPOINTS
  6
Continuous
 62
     0
100
AcDbPoint
 10
10.42314684090854
 20
-228.5264081934222
 30
0.0
  0
POINT
  5
165D
330
1583
100
AcDbEntity
  8
DEFPOINTS
  6
Continuous
 62
     0
100
AcDbPoint
 10
10.42314684090852
 20
-506.2188250094648
 30
0.0
  0
ENDBLK
  5
1585
330
1583
100
AcDbEntity
  8
0
100
AcDbBlockEnd
  0
BLOCK
  5
1592
330
1591
100
AcDbEntity
  8
0
100
AcDbBlockBegin
  2
*D30
 70
     1
 10
0.0
 20
0.0
 30
0.0
  3
*D30
  1

  0
LINE
  5
1621
330
1591
100
AcDbEntity
  8
SIZE
  6
Continuous
 62
     0
370
    -2
100
AcDbLine
 10
1034.262066088468
 20
-106.1092653362792
 30
0.0
 11
1188.322210576233
 21
-106.1092653362792
 31
0.0
  0
LINE
  5
1622
330
1591
100
AcDbEntity
  8
SIZE
  6
Continuous
 62
     0
370
    -2
100
AcDbLine
 10
967.2620660884684
 20
-202.1092653362792
 30
0.0
 11
1188.322210576233
 21
-202.1092653362792
 31
0.0
  0
LINE
  5
1623
330
1591
100
AcDbEntity
  8
SIZE
  6
Continuous
 62
     0
370
    -2
100
AcDbLine
 10
1168.322210576233
 20
-118.1092653362792
 30
0.0
 11
1168.322210576233
 21
-190.1092653362792
 31
0.0
  0
INSERT
  5
1624
330
1591
100
AcDbEntity
  8
SIZE
  6
Continuous
 62
     0
370
    -2
100
AcDbBlockReference
  2
_DOTBLANK
 10
1168.322210576233
 20
-106.1092653362792
 30
0.0
 41
12.0
 42
12.0
 43
12.0
 50
90.0
  0
INSERT
  5
1625
330
1591
100
AcDbEntity
  8
SIZE
  6
Continuous
 62
     0
370
    -2
100
AcDbBlockReference
  2
_DOTBLANK
 10
1168.322210576233
 20
-202.1092653362792
 30
0.0
 41
12.0
 42
12.0
 43
12.0
 50
270.0
  0
MTEXT
  5
1626
330
1591
100
AcDbEntity
  8
SIZE
  6
Continuous
 62
     0
100
AcDbMText
 10
1126.322210576233
 20
-154.1092653362789
 30
0.0
 40
64.0
 41
0.0
 71
     5
 72
     1
  1
\A1;96
 11
0.0000000000000001
 21
1.0
 31
0.0
 73
     1
 44
1.0
1001
ACAD
1000
MTEXTBEGIN
1070
    73
1070
     1
1070
    44
1040
1.0
1070
    74
1070
     0
1000
MTEXTEND
  0
POINT
  5
1627
330
1591
100
AcDbEntity
  8
DEFPOINTS
  6
Continuous
 62
     0
100
AcDbPoint
 10
1014.262066088468
 20
-106.1092653362792
 30
0.0
  0
POINT
  5
1628
330
1591
100
AcDbEntity
  8
DEFPOINTS
  6
Continuous
 62
     0
100
AcDbPoint
 10
947.2620660884681
 20
-202.1092653362791
 30
0.0
  0
POINT
  5
1629
330
1591
100
AcDbEntity
  8
DEFPOINTS
  6
Continuous
 62
     0
100
AcDbPoint
 10
1168.322210576233
 20
-202.1092653362792
 30
0.0
  0
ENDBLK
  5
1593
330
1591
100
AcDbEntity
  8
0
100
AcDbBlockEnd
  0
BLOCK
  5
159E
330
159D
100
AcDbEntity
  8
0
100
AcDbBlockBegin
  2
*D31
 70
     1
 10
0.0
 20
0.0
 30
0.0
  3
*D31
  1

  0
LINE
  5
165E
330
159D
100
AcDbEntity
  8
SIZE
  6
Continuous
 62
     0
370
    -2
100
AcDbLine
 10
258.4231468409086
 20
-220.8177605743744
 30
0.0
 11
258.4231468409086
 21
-340.1213355727364
 31
0.0
  0
LINE
  5
165F
330
159D
100
AcDbEntity
  8
SIZE
  6
Continuous
 62
     0
370
    -2
100
AcDbLine
 10
322.4231468409085
 20
-159.526408193422
 30
0.0
 11
322.4231468409085
 21
-340.1213355727364
 31
0.0
  0
LINE
  5
1660
330
159D
100
AcDbEntity
  8
SIZE
  6
Continuous
 62
     0
370
    -2
100
AcDbLine
 10
270.4231468409085
 20
-320.1213355727364
 30
0.0
 11
310.4231468409086
 21
-320.1213355727364
 31
0.0
  0
LINE
  5
1661
330
159D
100
AcDbEntity
  8
SIZE
  6
Continuous
 62
     0
370
    -2
100
AcDbLine
 10
322.4231468409085
 20
-320.1213355727364
 30
0.0
 11
450.4231468409082
 21
-320.1213355727364
 31
0.0
  0
INSERT
  5
1662
330
159D
100
AcDbEntity
  8
SIZE
  6
Continuous
 62
     0
370
    -2
100
AcDbBlockReference
  2
_DOTBLANK
 10
258.4231468409086
 20
-320.1213355727364
 30
0.0
 41
12.0
 42
12.0
 43
12.0
 50
180.0
  0
INSERT
  5
1663
330
159D
100
AcDbEntity
  8
SIZE
  6
Continuous
 62
     0
370
    -2
100
AcDbBlockReference
  2
_DOTBLANK
 10
322.4231468409085
 20
-320.1213355727364
 30
0.0
 41
12.0
 42
12.0
 43
12.0
  0
MTEXT
  5
1664
330
159D
100
AcDbEntity
  8
SIZE
  6
Continuous
 62
     0
100
AcDbMText
 10
392.4231468409087
 20
-278.1213355727364
 30
0.0
 40
64.0
 41
0.0
 71
     5
 72
     1
  1
\A1;64
 73
     1
 44
1.0
1001
ACAD
1000
MTEXTBEGIN
1070
    73
1070
     1
1070
    44
1040
1.0
1070
    74
1070
     0
1000
MTEXTEND
  0
POINT
  5
1665
330
159D
100
AcDbEntity
  8
DEFPOINTS
  6
Continuous
 62
     0
100
AcDbPoint
 10
258.4231468409086
 20
-200.8177605743743
 30
0.0
  0
POINT
  5
1666
330
159D
100
AcDbEntity
  8
DEFPOINTS
  6
Continuous
 62
     0
100
AcDbPoint
 10
322.4231468409085
 20
-139.5264081934221
 30
0.0
  0
POINT
  5
1667
330
159D
100
AcDbEntity
  8
DEFPOINTS
  6
Continuous
 62
     0
100
AcDbPoint
 10
322.4231468409085
 20
-320.1213355727364
 30
0.0
  0
ENDBLK
  5
159F
330
159D
100
AcDbEntity
  8
0
100
AcDbBlockEnd
  0
BLOCK
  5
15AB
330
15AA
100
AcDbEntity
  8
0
100
AcDbBlockBegin
  2
*D32
 70
     1
 10
0.0
 20
0.0
 30
0.0
  3
*D32
  1

  0
LINE
  5
1641
330
15AA
100
AcDbEntity
  8
SIZE
  6
Continuous
 62
     0
370
    -2
100
AcDbLine
 10
22.42314684090854
 20
-245.3385300403764
 30
0.0
 11
22.42314684090853
 21
-526.2188250094648
 31
0.0
  0
LINE
  5
1642
330
15AA
100
AcDbEntity
  8
SIZE
  6
Continuous
 62
     0
370
    -2
100
AcDbLine
 10
322.4231468409085
 20
-159.526408193422
 30
0.0
 11
322.4231468409085
 21
-526.2188250094648
 31
0.0
  0
LINE
  5
1643
330
15AA
100
AcDbEntity
  8
SIZE
  6
Continuous
 62
     0
370
    -2
100
AcDbLine
 10
34.42314684090853
 20
-506.2188250094648
 30
0.0
 11
310.4231468409086
 21
-506.2188250094648
 31
0.0
  0
INSERT
  5
1644
330
15AA
100
AcDbEntity
  8
SIZE
  6
Continuous
 62
     0
370
    -2
100
AcDbBlockReference
  2
_DOTBLANK
 10
22.42314684090853
 20
-506.2188250094648
 30
0.0
 41
12.0
 42
12.0
 43
12.0
 50
180.0
  0
INSERT
  5
1645
330
15AA
100
AcDbEntity
  8
SIZE
  6
Continuous
 62
     0
370
    -2
100
AcDbBlockReference
  2
_DOTBLANK
 10
322.4231468409085
 20
-506.2188250094648
 30
0.0
 41
12.0
 42
12.0
 43
12.0
  0
MTEXT
  5
1646
330
15AA
100
AcDbEntity
  8
SIZE
  6
Continuous
 62
     0
100
AcDbMText
 10
172.4231468409085
 20
-464.2188250094648
 30
0.0
 40
64.0
 41
0.0
 71
     5
 72
     1
  1
\A1;300
 73
     1
 44
1.0
1001
ACAD
1000
MTEXTBEGIN
1070
    73
1070
     1
1070
    44
1040
1.0
1070
    74
1070
     0
1000
MTEXTEND
  0
POINT
  5
1647
330
15AA
100
AcDbEntity
  8
DEFPOINTS
  6
Continuous
 62
     0
100
AcDbPoint
 10
22.42314684090854
 20
-225.3385300403764
 30
0.0
  0
POINT
  5
1648
330
15AA
100
AcDbEntity
  8
DEFPOINTS
  6
Continuous
 62
     0
100
AcDbPoint
 10
322.4231468409085
 20
-139.5264081934221
 30
0.0
  0
POINT
  5
1649
330
15AA
100
AcDbEntity
  8
DEFPOINTS
  6
Continuous
 62
     0
100
AcDbPoint
 10
322.4231468409085
 20
-506.2188250094648
 30
0.0
  0
ENDBLK
  5
15AC
330
15AA
100
AcDbEntity
  8
0
100
AcDbBlockEnd
  0
BLOCK
  5
15B7
330
15B6
100
AcDbEntity
  8
0
100
AcDbBlockBegin
  2
*D33
 70
     1
 10
0.0
 20
0.0
 30
0.0
  3
*D33
  1

  0
LINE
  5
1604
330
15B6
100
AcDbEntity
  8
SIZE
  6
Continuous
 62
     0
370
    -2
100
AcDbLine
 10
1042.262066088468
 20
-105.526408193422
 30
0.0
 11
1188.322210576233
 21
-105.5264081934221
 31
0.0
  0
LINE
  5
1605
330
15B6
100
AcDbEntity
  8
SIZE
  6
Continuous
 62
     0
370
    -2
100
AcDbLine
 10
1041.662066088468
 20
139.4735918065779
 30
0.0
 11
1188.322210576233
 21
139.4735918065779
 31
0.0
  0
LINE
  5
1606
330
15B6
100
AcDbEntity
  8
SIZE
  6
Continuous
 62
     0
370
    -2
100
AcDbLine
 10
1168.322210576233
 20
-93.52640819342212
 30
0.0
 11
1168.322210576233
 21
127.4735918065779
 31
0.0
  0
INSERT
  5
1607
330
15B6
100
AcDbEntity
  8
SIZE
  6
Continuous
 62
     0
370
    -2
100
AcDbBlockReference
  2
_DOTBLANK
 10
1168.322210576233
 20
-105.5264081934221
 30
0.0
 41
12.0
 42
12.0
 43
12.0
 50
270.0
  0
INSERT
  5
1608
330
15B6
100
AcDbEntity
  8
SIZE
  6
Continuous
 62
     0
370
    -2
100
AcDbBlockReference
  2
_DOTBLANK
 10
1168.322210576233
 20
139.4735918065779
 30
0.0
 41
12.0
 42
12.0
 43
12.0
 50
90.0
  0
MTEXT
  5
1609
330
15B6
100
AcDbEntity
  8
SIZE
  6
Continuous
 62
     0
100
AcDbMText
 10
1126.322210576233
 20
16.97359180657808
 30
0.0
 40
64.0
 41
0.0
 71
     5
 72
     1
  1
\A1;□245
 11
0.0000000000000001
 21
1.0
 31
0.0
 73
     1
 44
1.0
1001
ACAD
1000
MTEXTBEGIN
1070
    73
1070
     1
1070
    44
1040
1.0
1070
    74
1070
     0
1000
MTEXTEND
  0
POINT
  5
160A
330
15B6
100
AcDbEntity
  8
DEFPOINTS
  6
Continuous
 62
     0
100
AcDbPoint
 10
1022.262066088468
 20
-105.526408193422
 30
0.0
  0
POINT
  5
160B
330
15B6
100
AcDbEntity
  8
DEFPOINTS
  6
Continuous
 62
     0
100
AcDbPoint
 10
1021.662066088468
 20
139.4735918065779
 30
0.0
  0
POINT
  5
160C
330
15B6
100
AcDbEntity
  8
DEFPOINTS
  6
Continuous
 62
     0
100
AcDbPoint
 10
1168.322210576233
 20
139.4735918065779
 30
0.0
  0
ENDBLK
  5
15B8
330
15B6
100
AcDbEntity
  8
0
100
AcDbBlockEnd
  0
BLOCK
  5
1636
330
1635
100
AcDbEntity
  8
0
100
AcDbBlockBegin
  2
*D34
 70
     1
 10
0.0
 20
0.0
 30
0.0
  3
*D34
  1

  0
LINE
  5
1668
330
1635
100
AcDbEntity
  8
SIZE
  6
Continuous
 62
     0
370
    -2
100
AcDbLine
 10
354.8876296431024
 20
157.9735918065779
 30
0.0
 11
563.6350552189745
 21
157.9735918065779
 31
0.0
  0
LINE
  5
1669
330
1635
100
AcDbEntity
  8
SIZE
  6
Continuous
 62
     0
370
    -2
100
AcDbLine
 10
354.8876296431024
 20
-122.0264081934221
 30
0.0
 11
563.6350552189745
 21
-122.0264081934221
 31
0.0
  0
LINE
  5
166A
330
1635
100
AcDbEntity
  8
SIZE
  6
Continuous
 62
     0
370
    -2
100
AcDbLine
 10
543.6350552189745
 20
145.9735918065779
 30
0.0
 11
543.6350552189745
 21
-110.0264081934221
 31
0.0
  0
INSERT
  5
166B
330
1635
100
AcDbEntity
  8
SIZE
  6
Continuous
 62
     0
370
    -2
100
AcDbBlockReference
  2
_DOTBLANK
 10
543.6350552189745
 20
157.9735918065779
 30
0.0
 41
12.0
 42
12.0
 43
12.0
 50
90.0
  0
INSERT
  5
166C
330
1635
100
AcDbEntity
  8
SIZE
  6
Continuous
 62
     0
370
    -2
100
AcDbBlockReference
  2
_DOTBLANK
 10
543.6350552189745
 20
-122.0264081934221
 30
0.0
 41
12.0
 42
12.0
 43
12.0
 50
270.0
  0
MTEXT
  5
166D
330
1635
100
AcDbEntity
  8
SIZE
  6
Continuous
 62
     0
100
AcDbMText
 10
501.6350552189745
 20
17.97359180657797
 30
0.0
 40
64.0
 41
0.0
 71
     5
 72
     1
  1
\A1;280
 11
0.0000000000000001
 21
1.0
 31
0.0
 73
     1
 44
1.0
1001
ACAD
1000
MTEXTBEGIN
1070
    73
1070
     1
1070
    44
1040
1.0
1070
    74
1070
     0
1000
MTEXTEND
  0
POINT
  5
166E
330
1635
100
AcDbEntity
  8
DEFPOINTS
  6
Continuous
 62
     0
100
AcDbPoint
 10
334.8876296431023
 20
157.9735918065779
 30
0.0
  0
POINT
  5
166F
330
1635
100
AcDbEntity
  8
DEFPOINTS
  6
Continuous
 62
     0
100
AcDbPoint
 10
334.8876296431023
 20
-122.026408193422
 30
0.0
  0
POINT
  5
1670
330
1635
100
AcDbEntity
  8
DEFPOINTS
  6
Continuous
 62
     0
100
AcDbPoint
 10
543.6350552189745
 20
-122.0264081934221
 30
0.0
  0
ENDBLK
  5
1637
330
1635
100
AcDbEntity
  8
0
100
AcDbBlockEnd
  0
BLOCK
  5
1684
330
1683
100
AcDbEntity
  8
0
100
AcDbBlockBegin
  2
*D35
 70
     1
 10
0.0
 20
0.0
 30
0.0
  3
*D35
  1

  0
LINE
  5
1691
330
1683
100
AcDbEntity
  8
SIZE
  6
Continuous
 62
     0
370
    -2
100
AcDbLine
 10
314.4231468409085
 20
195.4735918065779
 30
0.0
 11
314.4231468409085
 21
277.8342040107263
 31
0.0
  0
LINE
  5
1692
330
1683
100
AcDbEntity
  8
SIZE
  6
Continuous
 62
     0
370
    -2
100
AcDbLine
 10
322.4231468409085
 20
195.4735918065779
 30
0.0
 11
322.4231468409085
 21
277.8342040107263
 31
0.0
  0
LINE
  5
1693
330
1683
100
AcDbEntity
  8
SIZE
  6
Continuous
 62
     0
370
    -2
100
AcDbLine
 10
302.4231468409085
 20
257.8342040107263
 30
0.0
 11
290.4231468409085
 21
257.8342040107263
 31
0.0
  0
LINE
  5
1694
330
1683
100
AcDbEntity
  8
SIZE
  6
Continuous
 62
     0
370
    -2
100
AcDbLine
 10
334.4231468409085
 20
257.8342040107263
 30
0.0
 11
421.7866098457093
 21
257.8342040107263
 31
0.0
  0
LINE
  5
1695
330
1683
100
AcDbEntity
  8
SIZE
  6
Continuous
 62
     0
370
    -2
100
AcDbLine
 10
314.4231468409085
 20
257.8342040107263
 30
0.0
 11
322.4231468409085
 21
257.8342040107263
 31
0.0
  0
INSERT
  5
1696
330
1683
100
AcDbEntity
  8
SIZE
  6
Continuous
 62
     0
370
    -2
100
AcDbBlockReference
  2
_DOTBLANK
 10
314.4231468409085
 20
257.8342040107263
 30
0.0
 41
12.0
 42
12.0
 43
12.0
  0
INSERT
  5
1697
330
1683
100
AcDbEntity
  8
SIZE
  6
Continuous
 62
     0
370
    -2
100
AcDbBlockReference
  2
_DOTBLANK
 10
322.4231468409085
 20
257.8342040107263
 30
0.0
 41
12.0
 42
12.0
 43
12.0
 50
180.0
  0
MTEXT
  5
1698
330
1683
100
AcDbEntity
  8
SIZE
  6
Continuous
 62
     0
100
AcDbMText
 10
392.5866098457094
 20
299.8342040107263
 30
0.0
 40
64.0
 41
0.0
 71
     5
 72
     1
  1
\A1;8
 73
     1
 44
1.0
1001
ACAD
1000
MTEXTBEGIN
1070
    73
1070
     1
1070
    44
1040
1.0
1070
    74
1070
     0
1000
MTEXTEND
  0
POINT
  5
1699
330
1683
100
AcDbEntity
  8
DEFPOINTS
  6
Continuous
 62
     0
100
AcDbPoint
 10
314.4231468409085
 20
175.4735918065779
 30
0.0
  0
POINT
  5
169A
330
1683
100
AcDbEntity
  8
DEFPOINTS
  6
Continuous
 62
     0
100
AcDbPoint
 10
322.4231468409085
 20
175.4735918065779
 30
0.0
  0
POINT
  5
169B
330
1683
100
AcDbEntity
  8
DEFPOINTS
  6
Continuous
 62
     0
100
AcDbPoint
 10
322.4231468409085
 20
257.8342040107263
 30
0.0
  0
ENDBLK
  5
1685
330
1683
100
AcDbEntity
  8
0
100
AcDbBlockEnd
  0
BLOCK
  5
178D
330
178C
100
AcDbEntity
  8
0
100
AcDbBlockBegin
  2
*D36
 70
     1
 10
0.0
 20
0.0
 30
0.0
  3
*D36
  1

  0
LINE
  5
178E
330
178C
100
AcDbEntity
  8
SIZE
 62
     0
370
    -2
100
AcDbLine
 10
-43020.93316628215
 20
2772.518320496485
 30
0.0
 11
-42894.13813754152
 21
2772.518320496485
 31
0.0
  0
LINE
  5
178F
330
178C
100
AcDbEntity
  8
SIZE
 62
     0
370
    -2
100
AcDbLine
 10
-43022.2228649903
 20
2487.518320496485
 30
0.0
 11
-42894.13813754152
 21
2487.518320496485
 31
0.0
  0
LINE
  5
1790
330
178C
100
AcDbEntity
  8
SIZE
 62
     0
370
    -2
100
AcDbLine
 10
-42914.13813754152
 20
2760.518320496486
 30
0.0
 11
-42914.13813754152
 21
2499.518320496485
 31
0.0
  0
INSERT
  5
1791
330
178C
100
AcDbEntity
  8
SIZE
 62
     0
370
    -2
100
AcDbBlockReference
  2
_DOTBLANK
 10
-42914.13813754152
 20
2772.518320496485
 30
0.0
 41
12.0
 42
12.0
 43
12.0
 50
90.0
  0
INSERT
  5
1792
330
178C
100
AcDbEntity
  8
SIZE
 62
     0
370
    -2
100
AcDbBlockReference
  2
_DOTBLANK
 10
-42914.13813754152
 20
2487.518320496485
 30
0.0
 41
12.0
 42
12.0
 43
12.0
 50
270.0
  0
MTEXT
  5
1793
330
178C
100
AcDbEntity
  8
SIZE
 62
     0
100
AcDbMText
 10
-42956.13813754152
 20
2630.018320496478
 30
0.0
 40
64.0
 41
0.0
 71
     5
 72
     1
  1
\A1;285
 11
0.0000000000000001
 21
1.0
 31
0.0
 73
     1
 44
1.0
1001
ACAD
1000
MTEXTBEGIN
1070
    73
1070
     1
1070
    44
1040
1.0
1070
    74
1070
     0
1000
MTEXTEND
  0
POINT
  5
1794
330
178C
100
AcDbEntity
  8
DEFPOINTS
 62
     0
100
AcDbPoint
 10
-43040.93316628215
 20
2772.518320496485
 30
0.0
  0
POINT
  5
1795
330
178C
100
AcDbEntity
  8
DEFPOINTS
 62
     0
100
AcDbPoint
 10
-43042.2228649903
 20
2487.518320496485
 30
0.0
  0
POINT
  5
1796
330
178C
100
AcDbEntity
  8
DEFPOINTS
 62
     0
100
AcDbPoint
 10
-42914.13813754152
 20
2487.518320496485
 30
0.0
  0
ENDBLK
  5
1797
330
178C
100
AcDbEntity
  8
0
100
AcDbBlockEnd
  0
BLOCK
  5
1799
330
1798
100
AcDbEntity
  8
0
100
AcDbBlockBegin
  2
*D37
 70
     1
 10
0.0
 20
0.0
 30
0.0
  3
*D37
  1

  0
LINE
  5
179A
330
1798
100
AcDbEntity
  8
SIZE
 62
     0
370
    -2
100
AcDbLine
 10
-43022.2228649903
 20
2487.518320496485
 30
0.0
 11
-42894.13813754152
 21
2487.518320496485
 31
0.0
  0
LINE
  5
179B
330
1798
100
AcDbEntity
  8
SIZE
 62
     0
370
    -2
100
AcDbLine
 10
-43022.2228649903
 20
2202.518320496485
 30
0.0
 11
-42894.13813754152
 21
2202.518320496485
 31
0.0
  0
LINE
  5
179C
330
1798
100
AcDbEntity
  8
SIZE
 62
     0
370
    -2
100
AcDbLine
 10
-42914.13813754152
 20
2475.518320496485
 30
0.0
 11
-42914.13813754152
 21
2214.518320496485
 31
0.0
  0
INSERT
  5
179D
330
1798
100
AcDbEntity
  8
SIZE
 62
     0
370
    -2
100
AcDbBlockReference
  2
_DOTBLANK
 10
-42914.13813754152
 20
2487.518320496485
 30
0.0
 41
12.0
 42
12.0
 43
12.0
 50
90.0
  0
INSERT
  5
179E
330
1798
100
AcDbEntity
  8
SIZE
 62
     0
370
    -2
100
AcDbBlockReference
  2
_DOTBLANK
 10
-42914.13813754152
 20
2202.518320496485
 30
0.0
 41
12.0
 42
12.0
 43
12.0
 50
270.0
  0
MTEXT
  5
179F
330
1798
100
AcDbEntity
  8
SIZE
 62
     0
100
AcDbMText
 10
-42956.13813754152
 20
2345.018320496478
 30
0.0
 40
64.0
 41
0.0
 71
     5
 72
     1
  1
\A1;285
 11
0.0000000000000001
 21
1.0
 31
0.0
 73
     1
 44
1.0
1001
ACAD
1000
MTEXTBEGIN
1070
    73
1070
     1
1070
    44
1040
1.0
1070
    74
1070
     0
1000
MTEXTEND
  0
POINT
  5
17A0
330
1798
100
AcDbEntity
  8
DEFPOINTS
 62
     0
100
AcDbPoint
 10
-43042.2228649903
 20
2487.518320496485
 30
0.0
  0
POINT
  5
17A1
330
1798
100
AcDbEntity
  8
DEFPOINTS
 62
     0
100
AcDbPoint
 10
-43042.2228649903
 20
2202.518320496485
 30
0.0
  0
POINT
  5
17A2
330
1798
100
AcDbEntity
  8
DEFPOINTS
 62
     0
100
AcDbPoint
 10
-42914.13813754152
 20
2202.518320496485
 30
0.0
  0
ENDBLK
  5
17A3
330
1798
100
AcDbEntity
  8
0
100
AcDbBlockEnd
  0
BLOCK
  5
17A5
330
17A4
100
AcDbEntity
  8
0
100
AcDbBlockBegin
  2
*D38
 70
     1
 10
0.0
 20
0.0
 30
0.0
  3
*D38
  1

  0
LINE
  5
17A6
330
17A4
100
AcDbEntity
  8
SIZE
 62
     0
370
    -2
100
AcDbLine
 10
-43023.02286499029
 20
2177.518320496485
 30
0.0
 11
-42767.16763666193
 21
2177.518320496485
 31
0.0
  0
LINE
  5
17A7
330
17A4
100
AcDbEntity
  8
SIZE
 62
     0
370
    -2
100
AcDbLine
 10
-43023.02286499029
 20
2798.318320496484
 30
0.0
 11
-42767.16763666193
 21
2798.318320496484
 31
0.0
  0
LINE
  5
17A8
330
17A4
100
AcDbEntity
  8
SIZE
 62
     0
370
    -2
100
AcDbLine
 10
-42787.16763666193
 20
2189.518320496485
 30
0.0
 11
-42787.16763666193
 21
2786.318320496484
 31
0.0
  0
INSERT
  5
17A9
330
17A4
100
AcDbEntity
  8
SIZE
 62
     0
370
    -2
100
AcDbBlockReference
  2
_DOTBLANK
 10
-42787.16763666193
 20
2177.518320496485
 30
0.0
 41
12.0
 42
12.0
 43
12.0
 50
270.0
  0
INSERT
  5
17AA
330
17A4
100
AcDbEntity
  8
SIZE
 62
     0
370
    -2
100
AcDbBlockReference
  2
_DOTBLANK
 10
-42787.16763666193
 20
2798.318320496484
 30
0.0
 41
12.0
 42
12.0
 43
12.0
 50
90.0
  0
MTEXT
  5
17AB
330
17A4
100
AcDbEntity
  8
SIZE
 62
     0
100
AcDbMText
 10
-42829.16763666193
 20
2487.918320496478
 30
0.0
 40
64.0
 41
0.0
 71
     5
 72
     1
  1
\A1;621
 11
0.0000000000000001
 21
1.0
 31
0.0
 73
     1
 44
1.0
1001
ACAD
1000
MTEXTBEGIN
1070
    73
1070
     1
1070
    44
1040
1.0
1070
    74
1070
     0
1000
MTEXTEND
  0
POINT
  5
17AC
330
17A4
100
AcDbEntity
  8
DEFPOINTS
 62
     0
100
AcDbPoint
 10
-43043.0228649903
 20
2177.518320496485
 30
0.0
  0
POINT
  5
17AD
330
17A4
100
AcDbEntity
  8
DEFPOINTS
 62
     0
100
AcDbPoint
 10
-43043.0228649903
 20
2798.318320496484
 30
0.0
  0
POINT
  5
17AE
330
17A4
100
AcDbEntity
  8
DEFPOINTS
 62
     0
100
AcDbPoint
 10
-42787.16763666193
 20
2798.318320496484
 30
0.0
  0
ENDBLK
  5
17AF
330
17A4
100
AcDbEntity
  8
0
100
AcDbBlockEnd
  0
BLOCK
  5
17B1
330
17B0
100
AcDbEntity
  8
0
100
AcDbBlockBegin
  2
*D39
 70
     1
 10
0.0
 20
0.0
 30
0.0
  3
*D39
  1

  0
LINE
  5
17B2
330
17B0
100
AcDbEntity
  8
SIZE
 62
     0
370
    -2
100
AcDbLine
 10
-43043.0228649903
 20
2818.318320496485
 30
0.0
 11
-43043.0228649903
 21
2879.270258274911
 31
0.0
  0
LINE
  5
17B3
330
17B0
100
AcDbEntity
  8
SIZE
 62
     0
370
    -2
100
AcDbLine
 10
-43349.14264871467
 20
2533.604300671286
 30
0.0
 11
-43349.14264871467
 21
2879.270258274911
 31
0.0
  0
LINE
  5
17B4
330
17B0
100
AcDbEntity
  8
SIZE
 62
     0
370
    -2
100
AcDbLine
 10
-43055.0228649903
 20
2859.27025827491
 30
0.0
 11
-43337.14264871466
 21
2859.27025827491
 31
0.0
  0
INSERT
  5
17B5
330
17B0
100
AcDbEntity
  8
SIZE
 62
     0
370
    -2
100
AcDbBlockReference
  2
_DOTBLANK
 10
-43043.0228649903
 20
2859.27025827491
 30
0.0
 41
12.0
 42
12.0
 43
12.0
  0
INSERT
  5
17B6
330
17B0
100
AcDbEntity
  8
SIZE
 62
     0
370
    -2
100
AcDbBlockReference
  2
_DOTBLANK
 10
-43349.14264871467
 20
2859.27025827491
 30
0.0
 41
12.0
 42
12.0
 43
12.0
 50
180.0
  0
MTEXT
  5
17B7
330
17B0
100
AcDbEntity
  8
SIZE
 62
     0
100
AcDbMText
 10
-43196.08275685248
 20
2901.270258274911
 30
0.0
 40
64.0
 41
0.0
 71
     5
 72
     1
  1
\A1;306
 73
     1
 44
1.0
1001
ACAD
1000
MTEXTBEGIN
1070
    73
1070
     1
1070
    44
1040
1.0
1070
    74
1070
     0
1000
MTEXTEND
  0
POINT
  5
17B8
330
17B0
100
AcDbEntity
  8
DEFPOINTS
 62
     0
100
AcDbPoint
 10
-43043.0228649903
 20
2798.318320496484
 30
0.0
  0
POINT
  5
17B9
330
17B0
100
AcDbEntity
  8
DEFPOINTS
 62
     0
100
AcDbPoint
 10
-43349.14264871467
 20
2513.604300671286
 30
0.0
  0
POINT
  5
17BA
330
17B0
100
AcDbEntity
  8
DEFPOINTS
 62
     0
100
AcDbPoint
 10
-43349.14264871467
 20
2859.27025827491
 30
0.0
  0
ENDBLK
  5
17BB
330
17B0
100
AcDbEntity
  8
0
100
AcDbBlockEnd
  0
BLOCK
  5
1848
330
1847
100
AcDbEntity
  8
0
100
AcDbBlockBegin
  2
*D40
 70
     1
 10
0.0
 20
0.0
 30
0.0
  3
*D40
  1

  0
LINE
  5
1877
330
1847
100
AcDbEntity
  8
SIZE
 62
     0
370
    -2
100
AcDbLine
 10
22.08969870815054
 20
284.9999999999996
 30
0.0
 11
148.884727448778
 21
284.9999999999995
 31
0.0
  0
LINE
  5
1878
330
1847
100
AcDbEntity
  8
SIZE
 62
     0
370
    -2
100
AcDbLine
 10
20.79999999999563
 20
-0.0000000000004604
 30
0.0
 11
148.884727448778
 21
-0.0000000000004967
 31
0.0
  0
LINE
  5
1879
330
1847
100
AcDbEntity
  8
SIZE
 62
     0
370
    -2
100
AcDbLine
 10
128.884727448778
 20
272.9999999999995
 30
0.0
 11
128.884727448778
 21
11.99999999999951
 31
0.0
  0
INSERT
  5
187A
330
1847
100
AcDbEntity
  8
SIZE
 62
     0
370
    -2
100
AcDbBlockReference
  2
_DOTBLANK
 10
128.884727448778
 20
284.9999999999995
 30
0.0
 41
12.0
 42
12.0
 43
12.0
 50
90.0
  0
INSERT
  5
187B
330
1847
100
AcDbEntity
  8
SIZE
 62
     0
370
    -2
100
AcDbBlockReference
  2
_DOTBLANK
 10
128.884727448778
 20
-0.000000000000491
 30
0.0
 41
12.0
 42
12.0
 43
12.0
 50
270.0
  0
MTEXT
  5
187C
330
1847
100
AcDbEntity
  8
SIZE
 62
     0
100
AcDbMText
 10
86.88472744877802
 20
142.4999999999995
 30
0.0
 40
64.0
 41
0.0
 71
     5
 72
     1
  1
\A1;285
 11
0.0000000000000001
 21
1.0
 31
0.0
 73
     1
 44
1.0
1001
ACAD
1000
MTEXTBEGIN
1070
    73
1070
     1
1070
    44
1040
1.0
1070
    74
1070
     0
1000
MTEXTEND
  0
POINT
  5
187D
330
1847
100
AcDbEntity
  8
DEFPOINTS
 62
     0
100
AcDbPoint
 10
2.089698708150534
 20
284.9999999999996
 30
0.0
  0
POINT
  5
187E
330
1847
100
AcDbEntity
  8
DEFPOINTS
 62
     0
100
AcDbPoint
 10
0.7999999999956346
 20
-0.0000000000004547
 30
0.0
  0
POINT
  5
187F
330
1847
100
AcDbEntity
  8
DEFPOINTS
 62
     0
100
AcDbPoint
 10
128.884727448778
 20
-0.000000000000491
 30
0.0
  0
ENDBLK
  5
1849
330
1847
100
AcDbEntity
  8
0
100
AcDbBlockEnd
  0
BLOCK
  5
1854
330
1853
100
AcDbEntity
  8
0
100
AcDbBlockBegin
  2
*D41
 70
     1
 10
0.0
 20
0.0
 30
0.0
  3
*D41
  1

  0
LINE
  5
1880
330
1853
100
AcDbEntity
  8
SIZE
 62
     0
370
    -2
100
AcDbLine
 10
20.79999999999563
 20
-0.0000000000004604
 30
0.0
 11
148.884727448778
 21
-0.0000000000004967
 31
0.0
  0
LINE
  5
1881
330
1853
100
AcDbEntity
  8
SIZE
 62
     0
370
    -2
100
AcDbLine
 10
20.79999999999563
 20
-285.0000000000004
 30
0.0
 11
148.884727448778
 21
-285.0000000000005
 31
0.0
  0
LINE
  5
1882
330
1853
100
AcDbEntity
  8
SIZE
 62
     0
370
    -2
100
AcDbLine
 10
128.884727448778
 20
-12.00000000000049
 30
0.0
 11
128.884727448778
 21
-273.0000000000005
 31
0.0
  0
INSERT
  5
1883
330
1853
100
AcDbEntity
  8
SIZE
 62
     0
370
    -2
100
AcDbBlockReference
  2
_DOTBLANK
 10
128.884727448778
 20
-0.000000000000491
 30
0.0
 41
12.0
 42
12.0
 43
12.0
 50
90.0
  0
INSERT
  5
1884
330
1853
100
AcDbEntity
  8
SIZE
 62
     0
370
    -2
100
AcDbBlockReference
  2
_DOTBLANK
 10
128.884727448778
 20
-285.0000000000005
 30
0.0
 41
12.0
 42
12.0
 43
12.0
 50
270.0
  0
MTEXT
  5
1885
330
1853
100
AcDbEntity
  8
SIZE
 62
     0
100
AcDbMText
 10
86.88472744877804
 20
-142.5000000000004
 30
0.0
 40
64.0
 41
0.0
 71
     5
 72
     1
  1
\A1;285
 11
0.0000000000000001
 21
1.0
 31
0.0
 73
     1
 44
1.0
1001
ACAD
1000
MTEXTBEGIN
1070
    73
1070
     1
1070
    44
1040
1.0
1070
    74
1070
     0
1000
MTEXTEND
  0
POINT
  5
1886
330
1853
100
AcDbEntity
  8
DEFPOINTS
 62
     0
100
AcDbPoint
 10
0.7999999999956346
 20
-0.0000000000004547
 30
0.0
  0
POINT
  5
1887
330
1853
100
AcDbEntity
  8
DEFPOINTS
 62
     0
100
AcDbPoint
 10
0.7999999999956346
 20
-285.0000000000004
 30
0.0
  0
POINT
  5
1888
330
1853
100
AcDbEntity
  8
DEFPOINTS
 62
     0
100
AcDbPoint
 10
128.884727448778
 20
-285.0000000000005
 30
0.0
  0
ENDBLK
  5
1855
330
1853
100
AcDbEntity
  8
0
100
AcDbBlockEnd
  0
BLOCK
  5
1860
330
185F
100
AcDbEntity
  8
0
100
AcDbBlockBegin
  2
*D42
 70
     1
 10
0.0
 20
0.0
 30
0.0
  3
*D42
  1

  0
LINE
  5
1889
330
185F
100
AcDbEntity
  8
SIZE
 62
     0
370
    -2
100
AcDbLine
 10
20.0
 20
-310.0000000000004
 30
0.0
 11
275.8552283283643
 21
-310.0000000000005
 31
0.0
  0
LINE
  5
188A
330
185F
100
AcDbEntity
  8
SIZE
 62
     0
370
    -2
100
AcDbLine
 10
20.0
 20
310.7999999999993
 30
0.0
 11
275.8552283283644
 21
310.7999999999992
 31
0.0
  0
LINE
  5
188B
330
185F
100
AcDbEntity
  8
SIZE
 62
     0
370
    -2
100
AcDbLine
 10
255.8552283283642
 20
-298.0000000000005
 30
0.0
 11
255.8552283283644
 21
298.7999999999992
 31
0.0
  0
INSERT
  5
188C
330
185F
100
AcDbEntity
  8
SIZE
 62
     0
370
    -2
100
AcDbBlockReference
  2
_DOTBLANK
 10
255.8552283283642
 20
-310.0000000000005
 30
0.0
 41
12.0
 42
12.0
 43
12.0
 50
270.0
  0
INSERT
  5
188D
330
185F
100
AcDbEntity
  8
SIZE
 62
     0
370
    -2
100
AcDbBlockReference
  2
_DOTBLANK
 10
255.8552283283644
 20
310.7999999999992
 30
0.0
 41
12.0
 42
12.0
 43
12.0
 50
90.0
  0
MTEXT
  5
188E
330
185F
100
AcDbEntity
  8
SIZE
 62
     0
100
AcDbMText
 10
213.8552283283643
 20
0.3999999999928201
 30
0.0
 40
64.0
 41
0.0
 71
     5
 72
     1
  1
\A1;621
 11
0.0000000000000001
 21
1.0
 31
0.0
 73
     1
 44
1.0
1001
ACAD
1000
MTEXTBEGIN
1070
    73
1070
     1
1070
    44
1040
1.0
1070
    74
1070
     0
1000
MTEXTEND
  0
POINT
  5
188F
330
185F
100
AcDbEntity
  8
DEFPOINTS
 62
     0
100
AcDbPoint
 10
0.0
 20
-310.0000000000004
 30
0.0
  0
POINT
  5
1890
330
185F
100
AcDbEntity
  8
DEFPOINTS
 62
     0
100
AcDbPoint
 10
0.0
 20
310.7999999999993
 30
0.0
  0
POINT
  5
1891
330
185F
100
AcDbEntity
  8
DEFPOINTS
 62
     0
100
AcDbPoint
 10
255.8552283283644
 20
310.7999999999992
 30
0.0
  0
ENDBLK
  5
1861
330
185F
100
AcDbEntity
  8
0
100
AcDbBlockEnd
  0
BLOCK
  5
186C
330
186B
100
AcDbEntity
  8
0
100
AcDbBlockBegin
  2
*D43
 70
     1
 10
0.0
 20
0.0
 30
0.0
  3
*D43
  1

  0
LINE
  5
1892
330
186B
100
AcDbEntity
  8
SIZE
 62
     0
370
    -2
100
AcDbLine
 10
0.0000000000000012
 20
330.7999999999993
 30
0.0
 11
0.000000000000005
 21
391.7519377784247
 31
0.0
  0
LINE
  5
1893
330
186B
100
AcDbEntity
  8
SIZE
 62
     0
370
    -2
100
AcDbLine
 10
-306.1197837243672
 20
46.08598017480018
 30
0.0
 11
-306.1197837243672
 21
391.7519377784247
 31
0.0
  0
LINE
  5
1894
330
186B
100
AcDbEntity
  8
SIZE
 62
     0
370
    -2
100
AcDbLine
 10
-11.99999999999999
 20
371.7519377784247
 30
0.0
 11
-294.1197837243672
 21
371.7519377784247
 31
0.0
  0
INSERT
  5
1895
330
186B
100
AcDbEntity
  8
SIZE
 62
     0
370
    -2
100
AcDbBlockReference
  2
_DOTBLANK
 10
0.0000000000000037
 20
371.7519377784247
 30
0.0
 41
12.0
 42
12.0
 43
12.0
  0
INSERT
  5
1896
330
186B
100
AcDbEntity
  8
SIZE
 62
     0
370
    -2
100
AcDbBlockReference
  2
_DOTBLANK
 10
-306.1197837243672
 20
371.7519377784247
 30
0.0
 41
12.0
 42
12.0
 43
12.0
 50
180.0
  0
MTEXT
  5
1897
330
186B
100
AcDbEntity
  8
SIZE
 62
     0
100
AcDbMText
 10
-153.0598918621836
 20
413.7519377784246
 30
0.0
 40
64.0
 41
0.0
 71
     5
 72
     1
  1
\A1;306
 73
     1
 44
1.0
1001
ACAD
1000
MTEXTBEGIN
1070
    73
1070
     1
1070
    44
1040
1.0
1070
    74
1070
     0
1000
MTEXTEND
  0
POINT
  5
1898
330
186B
100
AcDbEntity
  8
DEFPOINTS
 62
     0
100
AcDbPoint
 10
0.0
 20
310.7999999999993
 30
0.0
  0
POINT
  5
1899
330
186B
100
AcDbEntity
  8
DEFPOINTS
 62
     0
100
AcDbPoint
 10
-306.1197837243672
 20
26.08598017480018
 30
0.0
  0
POINT
  5
189A
330
186B
100
AcDbEntity
  8
DEFPOINTS
 62
     0
100
AcDbPoint
 10
-306.1197837243672
 20
371.7519377784247
 30
0.0
  0
ENDBLK
  5
186D
330
186B
100
AcDbEntity
  8
0
100
AcDbBlockEnd
  0
BLOCK
  5
1991
330
1990
100
AcDbEntity
  8
0
100
AcDbBlockBegin
  2
*D44
 70
     1
 10
0.0
 20
0.0
 30
0.0
  3
*D44
  1

  0
LINE
  5
1992
330
1990
100
AcDbEntity
  8
SIZE
  6
Continuous
 62
     0
370
    -2
100
AcDbLine
 10
-44668.29220410463
 20
1975.778516105435
 30
0.0
 11
-44459.35897446195
 21
1975.778516105435
 31
0.0
  0
LINE
  5
1993
330
1990
100
AcDbEntity
  8
SIZE
  6
Continuous
 62
     0
370
    -2
100
AcDbLine
 10
-44668.29220410463
 20
1567.778516105436
 30
0.0
 11
-44459.35897446195
 21
1567.778516105435
 31
0.0
  0
LINE
  5
1994
330
1990
100
AcDbEntity
  8
SIZE
  6
Continuous
 62
     0
370
    -2
100
AcDbLine
 10
-44479.35897446196
 20
1963.778516105436
 30
0.0
 11
-44479.35897446196
 21
1579.778516105435
 31
0.0
  0
INSERT
  5
1995
330
1990
100
AcDbEntity
  8
SIZE
  6
Continuous
 62
     0
370
    -2
100
AcDbBlockReference
  2
_DOTBLANK
 10
-44479.35897446196
 20
1975.778516105435
 30
0.0
 41
12.0
 42
12.0
 43
12.0
 50
90.0
  0
INSERT
  5
1996
330
1990
100
AcDbEntity
  8
SIZE
  6
Continuous
 62
     0
370
    -2
100
AcDbBlockReference
  2
_DOTBLANK
 10
-44479.35897446196
 20
1567.778516105435
 30
0.0
 41
12.0
 42
12.0
 43
12.0
 50
270.0
  0
MTEXT
  5
1997
330
1990
100
AcDbEntity
  8
SIZE
  6
Continuous
 62
     0
100
AcDbMText
 10
-44521.35897446196
 20
1771.778516105428
 30
0.0
 40
64.0
 41
0.0
 71
     5
 72
     1
  1
\A1;408
 11
0.0000000000000001
 21
1.0
 31
0.0
 73
     1
 44
1.0
1001
ACAD
1000
MTEXTBEGIN
1070
    73
1070
     1
1070
    44
1040
1.0
1070
    74
1070
     0
1000
MTEXTEND
  0
POINT
  5
1998
330
1990
100
AcDbEntity
  8
DEFPOINTS
  6
Continuous
 62
     0
100
AcDbPoint
 10
-44688.29220410465
 20
1975.778516105435
 30
0.0
  0
POINT
  5
1999
330
1990
100
AcDbEntity
  8
DEFPOINTS
  6
Continuous
 62
     0
100
AcDbPoint
 10
-44688.29220410465
 20
1567.778516105436
 30
0.0
  0
POINT
  5
199A
330
1990
100
AcDbEntity
  8
DEFPOINTS
  6
Continuous
 62
     0
100
AcDbPoint
 10
-44479.35897446196
 20
1567.778516105435
 30
0.0
  0
ENDBLK
  5
199B
330
1990
100
AcDbEntity
  8
0
100
AcDbBlockEnd
  0
BLOCK
  5
199D
330
199C
100
AcDbEntity
  8
0
100
AcDbBlockBegin
  2
*D45
 70
     1
 10
0.0
 20
0.0
 30
0.0
  3
*D45
  1

  0
LINE
  5
199E
330
199C
100
AcDbEntity
  8
SIZE
  6
Continuous
 62
     0
370
    -2
100
AcDbLine
 10
-44668.29220410463
 20
1567.778516105436
 30
0.0
 11
-44459.35897446195
 21
1567.778516105435
 31
0.0
  0
LINE
  5
199F
330
199C
100
AcDbEntity
  8
SIZE
  6
Continuous
 62
     0
370
    -2
100
AcDbLine
 10
-44668.29220410463
 20
1037.378516105436
 30
0.0
 11
-44459.35897446195
 21
1037.378516105436
 31
0.0
  0
LINE
  5
19A0
330
199C
100
AcDbEntity
  8
SIZE
  6
Continuous
 62
     0
370
    -2
100
AcDbLine
 10
-44479.35897446196
 20
1555.778516105436
 30
0.0
 11
-44479.35897446196
 21
1049.378516105435
 31
0.0
  0
INSERT
  5
19A1
330
199C
100
AcDbEntity
  8
SIZE
  6
Continuous
 62
     0
370
    -2
100
AcDbBlockReference
  2
_DOTBLANK
 10
-44479.35897446196
 20
1567.778516105435
 30
0.0
 41
12.0
 42
12.0
 43
12.0
 50
90.0
  0
INSERT
  5
19A2
330
199C
100
AcDbEntity
  8
SIZE
  6
Continuous
 62
     0
370
    -2
100
AcDbBlockReference
  2
_DOTBLANK
 10
-44479.35897446196
 20
1037.378516105436
 30
0.0
 41
12.0
 42
12.0
 43
12.0
 50
270.0
  0
MTEXT
  5
19A3
330
199C
100
AcDbEntity
  8
SIZE
  6
Continuous
 62
     0
100
AcDbMText
 10
-44521.35897446196
 20
1302.578516105429
 30
0.0
 40
64.0
 41
0.0
 71
     5
 72
     1
  1
\A1;530
 11
0.0000000000000001
 21
1.0
 31
0.0
 73
     1
 44
1.0
1001
ACAD
1000
MTEXTBEGIN
1070
    73
1070
     1
1070
    44
1040
1.0
1070
    74
1070
     0
1000
MTEXTEND
  0
POINT
  5
19A4
330
199C
100
AcDbEntity
  8
DEFPOINTS
  6
Continuous
 62
     0
100
AcDbPoint
 10
-44688.29220410465
 20
1567.778516105436
 30
0.0
  0
POINT
  5
19A5
330
199C
100
AcDbEntity
  8
DEFPOINTS
  6
Continuous
 62
     0
100
AcDbPoint
 10
-44688.29220410465
 20
1037.378516105436
 30
0.0
  0
POINT
  5
19A6
330
199C
100
AcDbEntity
  8
DEFPOINTS
  6
Continuous
 62
     0
100
AcDbPoint
 10
-44479.35897446196
 20
1037.378516105436
 30
0.0
  0
ENDBLK
  5
19A7
330
199C
100
AcDbEntity
  8
0
100
AcDbBlockEnd
  0
BLOCK
  5
19A9
330
19A8
100
AcDbEntity
  8
0
100
AcDbBlockBegin
  2
*D46
 70
     1
 10
0.0
 20
0.0
 30
0.0
  3
*D46
  1

  0
LINE
  5
19AA
330
19A8
100
AcDbEntity
  8
SIZE
  6
Continuous
 62
     0
370
    -2
100
AcDbLine
 10
-44682.30968727294
 20
2152.799362301062
 30
0.0
 11
-44324.33871363891
 21
2152.799362301062
 31
0.0
  0
LINE
  5
19AB
330
19A8
100
AcDbEntity
  8
SIZE
  6
Continuous
 62
     0
370
    -2
100
AcDbLine
 10
-44675.79220410463
 20
897.5785161054359
 30
0.0
 11
-44324.33871363891
 21
897.5785161054359
 31
0.0
  0
LINE
  5
19AC
330
19A8
100
AcDbEntity
  8
SIZE
  6
Continuous
 62
     0
370
    -2
100
AcDbLine
 10
-44344.33871363891
 20
2140.799362301062
 30
0.0
 11
-44344.33871363891
 21
909.5785161054356
 31
0.0
  0
INSERT
  5
19AD
330
19A8
100
AcDbEntity
  8
SIZE
  6
Continuous
 62
     0
370
    -2
100
AcDbBlockReference
  2
_DOTBLANK
 10
-44344.33871363891
 20
2152.799362301062
 30
0.0
 41
12.0
 42
12.0
 43
12.0
 50
90.0
  0
INSERT
  5
19AE
330
19A8
100
AcDbEntity
  8
SIZE
  6
Continuous
 62
     0
370
    -2
100
AcDbBlockReference
  2
_DOTBLANK
 10
-44344.33871363891
 20
897.5785161054359
 30
0.0
 41
12.0
 42
12.0
 43
12.0
 50
270.0
  0
MTEXT
  5
19AF
330
19A8
100
AcDbEntity
  8
SIZE
  6
Continuous
 62
     0
100
AcDbMText
 10
-44386.33871363891
 20
1525.188939203242
 30
0.0
 40
64.0
 41
0.0
 71
     5
 72
     1
  1
\A1;1255
 11
0.0000000000000001
 21
1.0
 31
0.0
 73
     1
 44
1.0
1001
ACAD
1000
MTEXTBEGIN
1070
    73
1070
     1
1070
    44
1040
1.0
1070
    74
1070
     0
1000
MTEXTEND
  0
POINT
  5
19B0
330
19A8
100
AcDbEntity
  8
DEFPOINTS
  6
Continuous
 62
     0
100
AcDbPoint
 10
-44702.30968727293
 20
2152.799362301062
 30
0.0
  0
POINT
  5
19B1
330
19A8
100
AcDbEntity
  8
DEFPOINTS
  6
Continuous
 62
     0
100
AcDbPoint
 10
-44695.79220410465
 20
897.5785161054359
 30
0.0
  0
POINT
  5
19B2
330
19A8
100
AcDbEntity
  8
DEFPOINTS
  6
Continuous
 62
     0
100
AcDbPoint
 10
-44344.33871363891
 20
897.5785161054359
 30
0.0
  0
ENDBLK
  5
19B3
330
19A8
100
AcDbEntity
  8
0
100
AcDbBlockEnd
  0
BLOCK
  5
19B5
330
19B4
100
AcDbEntity
  8
0
100
AcDbBlockBegin
  2
*D47
 70
     1
 10
0.0
 20
0.0
 30
0.0
  3
*D47
  1

  0
LINE
  5
19B6
330
19B4
100
AcDbEntity
  8
SIZE
  6
Continuous
 62
     0
370
    -2
100
AcDbLine
 10
-44701.39220410463
 20
2154.885695782409
 30
0.0
 11
-44701.39220410463
 21
2280.666939293501
 31
0.0
  0
LINE
  5
19B7
330
19B4
100
AcDbEntity
  8
SIZE
  6
Continuous
 62
     0
370
    -2
100
AcDbLine
 10
-45001.65521680631
 20
1982.856670190423
 30
0.0
 11
-45001.65521680631
 21
2280.666939293501
 31
0.0
  0
LINE
  5
19B8
330
19B4
100
AcDbEntity
  8
SIZE
  6
Continuous
 62
     0
370
    -2
100
AcDbLine
 10
-44713.39220410464
 20
2260.666939293501
 30
0.0
 11
-44989.65521680632
 21
2260.666939293501
 31
0.0
  0
INSERT
  5
19B9
330
19B4
100
AcDbEntity
  8
SIZE
  6
Continuous
 62
     0
370
    -2
100
AcDbBlockReference
  2
_DOTBLANK
 10
-44701.39220410463
 20
2260.666939293501
 30
0.0
 41
12.0
 42
12.0
 43
12.0
  0
INSERT
  5
19BA
330
19B4
100
AcDbEntity
  8
SIZE
  6
Continuous
 62
     0
370
    -2
100
AcDbBlockReference
  2
_DOTBLANK
 10
-45001.65521680631
 20
2260.666939293501
 30
0.0
 41
12.0
 42
12.0
 43
12.0
 50
180.0
  0
MTEXT
  5
19BB
330
19B4
100
AcDbEntity
  8
SIZE
  6
Continuous
 62
     0
100
AcDbMText
 10
-44851.52371045547
 20
2302.666939293501
 30
0.0
 40
64.0
 41
0.0
 71
     5
 72
     1
  1
\A1;300
 73
     1
 44
1.0
1001
ACAD
1000
MTEXTBEGIN
1070
    73
1070
     1
1070
    44
1040
1.0
1070
    74
1070
     0
1000
MTEXTEND
  0
POINT
  5
19BC
330
19B4
100
AcDbEntity
  8
DEFPOINTS
  6
Continuous
 62
     0
100
AcDbPoint
 10
-44701.39220410463
 20
2134.88569578241
 30
0.0
  0
POINT
  5
19BD
330
19B4
100
AcDbEntity
  8
DEFPOINTS
  6
Continuous
 62
     0
100
AcDbPoint
 10
-45001.65521680631
 20
1962.856670190424
 30
0.0
  0
POINT
  5
19BE
330
19B4
100
AcDbEntity
  8
DEFPOINTS
  6
Continuous
 62
     0
100
AcDbPoint
 10
-45001.65521680631
 20
2260.666939293501
 30
0.0
  0
ENDBLK
  5
19BF
330
19B4
100
AcDbEntity
  8
0
100
AcDbBlockEnd
  0
BLOCK
  5
19C1
330
19C0
100
AcDbEntity
  8
0
100
AcDbBlockBegin
  2
*D48
 70
     1
 10
0.0
 20
0.0
 30
0.0
  3
*D48
  1

  0
LINE
  5
19C2
330
19C0
100
AcDbEntity
  8
SIZE
  6
Continuous
 62
     0
370
    -2
100
AcDbLine
 10
-44695.79220410465
 20
2141.578516105436
 30
0.0
 11
-44695.79220410465
 21
2404.275415860471
 31
0.0
  0
LINE
  5
19C3
330
19C0
100
AcDbEntity
  8
SIZE
  6
Continuous
 62
     0
370
    -2
100
AcDbLine
 10
-45001.65521680631
 20
1982.856670190423
 30
0.0
 11
-45001.65521680631
 21
2404.275415860471
 31
0.0
  0
LINE
  5
19C4
330
19C0
100
AcDbEntity
  8
SIZE
  6
Continuous
 62
     0
370
    -2
100
AcDbLine
 10
-44707.79220410465
 20
2384.27541586047
 30
0.0
 11
-44989.65521680632
 21
2384.27541586047
 31
0.0
  0
INSERT
  5
19C5
330
19C0
100
AcDbEntity
  8
SIZE
  6
Continuous
 62
     0
370
    -2
100
AcDbBlockReference
  2
_DOTBLANK
 10
-44695.79220410465
 20
2384.27541586047
 30
0.0
 41
12.0
 42
12.0
 43
12.0
  0
INSERT
  5
19C6
330
19C0
100
AcDbEntity
  8
SIZE
  6
Continuous
 62
     0
370
    -2
100
AcDbBlockReference
  2
_DOTBLANK
 10
-45001.65521680631
 20
2384.27541586047
 30
0.0
 41
12.0
 42
12.0
 43
12.0
 50
180.0
  0
MTEXT
  5
19C7
330
19C0
100
AcDbEntity
  8
SIZE
  6
Continuous
 62
     0
100
AcDbMText
 10
-44848.72371045548
 20
2426.27541586047
 30
0.0
 40
64.0
 41
0.0
 71
     5
 72
     1
  1
\A1;306
 73
     1
 44
1.0
1001
ACAD
1000
MTEXTBEGIN
1070
    73
1070
     1
1070
    44
1040
1.0
1070
    74
1070
     0
1000
MTEXTEND
  0
POINT
  5
19C8
330
19C0
100
AcDbEntity
  8
DEFPOINTS
  6
Continuous
 62
     0
100
AcDbPoint
 10
-44695.79220410465
 20
2121.578516105436
 30
0.0
  0
POINT
  5
19C9
330
19C0
100
AcDbEntity
  8
DEFPOINTS
  6
Continuous
 62
     0
100
AcDbPoint
 10
-45001.65521680631
 20
1962.856670190424
 30
0.0
  0
POINT
  5
19CA
330
19C0
100
AcDbEntity
  8
DEFPOINTS
  6
Continuous
 62
     0
100
AcDbPoint
 10
-45001.65521680631
 20
2384.27541586047
 30
0.0
  0
ENDBLK
  5
19CB
330
19C0
100
AcDbEntity
  8
0
100
AcDbBlockEnd
  0
BLOCK
  5
1CAA
330
1CA9
100
AcDbEntity
  8
0
100
AcDbBlockBegin
  2
*D49
 70
     1
 10
0.0
 20
0.0
 30
0.0
  3
*D49
  1

  0
LINE
  5
1CE5
330
1CA9
100
AcDbEntity
  8
SIZE
  6
Continuous
 62
     0
370
    -2
100
AcDbLine
 10
27.50000000000728
 20
450.5895769021945
 30
0.0
 11
236.4332296426875
 21
450.5895769021943
 31
0.0
  0
LINE
  5
1CE6
330
1CA9
100
AcDbEntity
  8
SIZE
  6
Continuous
 62
     0
370
    -2
100
AcDbLine
 10
27.50000000000728
 20
42.58957690219449
 30
0.0
 11
236.4332296426874
 21
42.58957690219443
 31
0.0
  0
LINE
  5
1CE7
330
1CA9
100
AcDbEntity
  8
SIZE
  6
Continuous
 62
     0
370
    -2
100
AcDbLine
 10
216.4332296426874
 20
438.5895769021943
 30
0.0
 11
216.4332296426874
 21
54.58957690219443
 31
0.0
  0
INSERT
  5
1CE8
330
1CA9
100
AcDbEntity
  8
SIZE
  6
Continuous
 62
     0
370
    -2
100
AcDbBlockReference
  2
_DOTBLANK
 10
216.4332296426875
 20
450.5895769021943
 30
0.0
 41
12.0
 42
12.0
 43
12.0
 50
90.0
  0
INSERT
  5
1CE9
330
1CA9
100
AcDbEntity
  8
SIZE
  6
Continuous
 62
     0
370
    -2
100
AcDbBlockReference
  2
_DOTBLANK
 10
216.4332296426874
 20
42.58957690219443
 30
0.0
 41
12.0
 42
12.0
 43
12.0
 50
270.0
  0
MTEXT
  5
1CEA
330
1CA9
100
AcDbEntity
  8
SIZE
  6
Continuous
 62
     0
100
AcDbMText
 10
174.4332296426874
 20
246.5895769021945
 30
0.0
 40
64.0
 41
0.0
 71
     5
 72
     1
  1
\A1;408
 11
0.0000000000000001
 21
1.0
 31
0.0
 73
     1
 44
1.0
1001
ACAD
1000
MTEXTBEGIN
1070
    73
1070
     1
1070
    44
1040
1.0
1070
    74
1070
     0
1000
MTEXTEND
  0
POINT
  5
1CEB
330
1CA9
100
AcDbEntity
  8
DEFPOINTS
  6
Continuous
 62
     0
100
AcDbPoint
 10
7.500000000007275
 20
450.5895769021945
 30
0.0
  0
POINT
  5
1CEC
330
1CA9
100
AcDbEntity
  8
DEFPOINTS
  6
Continuous
 62
     0
100
AcDbPoint
 10
7.500000000007275
 20
42.58957690219449
 30
0.0
  0
POINT
  5
1CED
330
1CA9
100
AcDbEntity
  8
DEFPOINTS
  6
Continuous
 62
     0
100
AcDbPoint
 10
216.4332296426874
 20
42.58957690219443
 30
0.0
  0
ENDBLK
  5
1CAB
330
1CA9
100
AcDbEntity
  8
0
100
AcDbBlockEnd
  0
BLOCK
  5
1CB6
330
1CB5
100
AcDbEntity
  8
0
100
AcDbBlockBegin
  2
*D50
 70
     1
 10
0.0
 20
0.0
 30
0.0
  3
*D50
  1

  0
LINE
  5
1CEE
330
1CB5
100
AcDbEntity
  8
SIZE
  6
Continuous
 62
     0
370
    -2
100
AcDbLine
 10
27.50000000000728
 20
42.58957690219449
 30
0.0
 11
236.4332296426875
 21
42.58957690219443
 31
0.0
  0
LINE
  5
1CEF
330
1CB5
100
AcDbEntity
  8
SIZE
  6
Continuous
 62
     0
370
    -2
100
AcDbLine
 10
27.50000000000728
 20
-487.8104230978054
 30
0.0
 11
236.4332296426874
 21
-487.8104230978054
 31
0.0
  0
LINE
  5
1CF0
330
1CB5
100
AcDbEntity
  8
SIZE
  6
Continuous
 62
     0
370
    -2
100
AcDbLine
 10
216.4332296426875
 20
30.58957690219443
 30
0.0
 11
216.4332296426874
 21
-475.8104230978054
 31
0.0
  0
INSERT
  5
1CF1
330
1CB5
100
AcDbEntity
  8
SIZE
  6
Continuous
 62
     0
370
    -2
100
AcDbBlockReference
  2
_DOTBLANK
 10
216.4332296426875
 20
42.58957690219443
 30
0.0
 41
12.0
 42
12.0
 43
12.0
 50
90.0
  0
INSERT
  5
1CF2
330
1CB5
100
AcDbEntity
  8
SIZE
  6
Continuous
 62
     0
370
    -2
100
AcDbBlockReference
  2
_DOTBLANK
 10
216.4332296426874
 20
-487.8104230978054
 30
0.0
 41
12.0
 42
12.0
 43
12.0
 50
270.0
  0
MTEXT
  5
1CF3
330
1CB5
100
AcDbEntity
  8
SIZE
  6
Continuous
 62
     0
100
AcDbMText
 10
174.4332296426875
 20
-222.6104230978054
 30
0.0
 40
64.0
 41
0.0
 71
     5
 72
     1
  1
\A1;530
 11
0.0000000000000001
 21
1.0
 31
0.0
 73
     1
 44
1.0
1001
ACAD
1000
MTEXTBEGIN
1070
    73
1070
     1
1070
    44
1040
1.0
1070
    74
1070
     0
1000
MTEXTEND
  0
POINT
  5
1CF4
330
1CB5
100
AcDbEntity
  8
DEFPOINTS
  6
Continuous
 62
     0
100
AcDbPoint
 10
7.500000000007275
 20
42.58957690219449
 30
0.0
  0
POINT
  5
1CF5
330
1CB5
100
AcDbEntity
  8
DEFPOINTS
  6
Continuous
 62
     0
100
AcDbPoint
 10
7.500000000007275
 20
-487.8104230978054
 30
0.0
  0
POINT
  5
1CF6
330
1CB5
100
AcDbEntity
  8
DEFPOINTS
  6
Continuous
 62
     0
100
AcDbPoint
 10
216.4332296426874
 20
-487.8104230978054
 30
0.0
  0
ENDBLK
  5
1CB7
330
1CB5
100
AcDbEntity
  8
0
100
AcDbBlockEnd
  0
BLOCK
  5
1CC2
330
1CC1
100
AcDbEntity
  8
0
100
AcDbBlockBegin
  2
*D51
 70
     1
 10
0.0
 20
0.0
 30
0.0
  3
*D51
  1

  0
LINE
  5
1CF7
330
1CC1
100
AcDbEntity
  8
SIZE
  6
Continuous
 62
     0
370
    -2
100
AcDbLine
 10
13.48251683171111
 20
627.6104230978208
 30
0.0
 11
371.4534904657341
 21
627.6104230978205
 31
0.0
  0
LINE
  5
1CF8
330
1CC1
100
AcDbEntity
  8
SIZE
  6
Continuous
 62
     0
370
    -2
100
AcDbLine
 10
20.00000000000728
 20
-627.6104230978054
 30
0.0
 11
371.4534904657339
 21
-627.6104230978056
 31
0.0
  0
LINE
  5
1CF9
330
1CC1
100
AcDbEntity
  8
SIZE
  6
Continuous
 62
     0
370
    -2
100
AcDbLine
 10
351.4534904657342
 20
615.6104230978208
 30
0.0
 11
351.4534904657339
 21
-615.6104230978058
 31
0.0
  0
INSERT
  5
1CFA
330
1CC1
100
AcDbEntity
  8
SIZE
  6
Continuous
 62
     0
370
    -2
100
AcDbBlockReference
  2
_DOTBLANK
 10
351.4534904657342
 20
627.6104230978205
 30
0.0
 41
12.0
 42
12.0
 43
12.0
 50
90.0
  0
INSERT
  5
1CFB
330
1CC1
100
AcDbEntity
  8
SIZE
  6
Continuous
 62
     0
370
    -2
100
AcDbBlockReference
  2
_DOTBLANK
 10
351.4534904657339
 20
-627.6104230978056
 30
0.0
 41
12.0
 42
12.0
 43
12.0
 50
270.0
  0
MTEXT
  5
1CFC
330
1CC1
100
AcDbEntity
  8
SIZE
  6
Continuous
 62
     0
100
AcDbMText
 10
309.453490465734
 20
0.0000000000076006
 30
0.0
 40
64.0
 41
0.0
 71
     5
 72
     1
  1
\A1;1255
 11
0.0000000000000001
 21
1.0
 31
0.0
 73
     1
 44
1.0
1001
ACAD
1000
MTEXTBEGIN
1070
    73
1070
     1
1070
    44
1040
1.0
1070
    74
1070
     0
1000
MTEXTEND
  0
POINT
  5
1CFD
330
1CC1
100
AcDbEntity
  8
DEFPOINTS
  6
Continuous
 62
     0
100
AcDbPoint
 10
-6.517483168288889
 20
627.6104230978208
 30
0.0
  0
POINT
  5
1CFE
330
1CC1
100
AcDbEntity
  8
DEFPOINTS
  6
Continuous
 62
     0
100
AcDbPoint
 10
0.000000000007276
 20
-627.6104230978054
 30
0.0
  0
POINT
  5
1CFF
330
1CC1
100
AcDbEntity
  8
DEFPOINTS
  6
Continuous
 62
     0
100
AcDbPoint
 10
351.4534904657339
 20
-627.6104230978056
 30
0.0
  0
ENDBLK
  5
1CC3
330
1CC1
100
AcDbEntity
  8
0
100
AcDbBlockEnd
  0
BLOCK
  5
1CCE
330
1CCD
100
AcDbEntity
  8
0
100
AcDbBlockBegin
  2
*D52
 70
     1
 10
0.0
 20
0.0
 30
0.0
  3
*D52
  1

  0
LINE
  5
1D00
330
1CCD
100
AcDbEntity
  8
SIZE
  6
Continuous
 62
     0
370
    -2
100
AcDbLine
 10
-5.599999999991267
 20
629.6967565791674
 30
0.0
 11
-5.599999999991258
 21
755.4780000902597
 31
0.0
  0
LINE
  5
1D01
330
1CCD
100
AcDbEntity
  8
SIZE
  6
Continuous
 62
     0
370
    -2
100
AcDbLine
 10
-305.8630127016663
 20
457.6677309871824
 30
0.0
 11
-305.8630127016663
 21
755.4780000902597
 31
0.0
  0
LINE
  5
1D02
330
1CCD
100
AcDbEntity
  8
SIZE
  6
Continuous
 62
     0
370
    -2
100
AcDbLine
 10
-17.59999999999126
 20
735.4780000902596
 30
0.0
 11
-293.8630127016663
 21
735.4780000902596
 31
0.0
  0
INSERT
  5
1D03
330
1CCD
100
AcDbEntity
  8
SIZE
  6
Continuous
 62
     0
370
    -2
100
AcDbBlockReference
  2
_DOTBLANK
 10
-5.599999999991259
 20
735.4780000902596
 30
0.0
 41
12.0
 42
12.0
 43
12.0
  0
INSERT
  5
1D04
330
1CCD
100
AcDbEntity
  8
SIZE
  6
Continuous
 62
     0
370
    -2
100
AcDbBlockReference
  2
_DOTBLANK
 10
-305.8630127016663
 20
735.4780000902596
 30
0.0
 41
12.0
 42
12.0
 43
12.0
 50
180.0
  0
MTEXT
  5
1D05
330
1CCD
100
AcDbEntity
  8
SIZE
  6
Continuous
 62
     0
100
AcDbMText
 10
-155.7315063508288
 20
777.4780000902596
 30
0.0
 40
64.0
 41
0.0
 71
     5
 72
     1
  1
\A1;300
 73
     1
 44
1.0
1001
ACAD
1000
MTEXTBEGIN
1070
    73
1070
     1
1070
    44
1040
1.0
1070
    74
1070
     0
1000
MTEXTEND
  0
POINT
  5
1D06
330
1CCD
100
AcDbEntity
  8
DEFPOINTS
  6
Continuous
 62
     0
100
AcDbPoint
 10
-5.599999999991268
 20
609.6967565791674
 30
0.0
  0
POINT
  5
1D07
330
1CCD
100
AcDbEntity
  8
DEFPOINTS
  6
Continuous
 62
     0
100
AcDbPoint
 10
-305.8630127016663
 20
437.6677309871824
 30
0.0
  0
POINT
  5
1D08
330
1CCD
100
AcDbEntity
  8
DEFPOINTS
  6
Continuous
 62
     0
100
AcDbPoint
 10
-305.8630127016663
 20
735.4780000902596
 30
0.0
  0
ENDBLK
  5
1CCF
330
1CCD
100
AcDbEntity
  8
0
100
AcDbBlockEnd
  0
BLOCK
  5
1CDA
330
1CD9
100
AcDbEntity
  8
0
100
AcDbBlockBegin
  2
*D53
 70
     1
 10
0.0
 20
0.0
 30
0.0
  3
*D53
  1

  0
LINE
  5
1D09
330
1CD9
100
AcDbEntity
  8
SIZE
  6
Continuous
 62
     0
370
    -2
100
AcDbLine
 10
0.0000000000072772
 20
616.3895769021945
 30
0.0
 11
0.0000000000072933
 21
879.086476657229
 31
0.0
  0
LINE
  5
1D0A
330
1CD9
100
AcDbEntity
  8
SIZE
  6
Continuous
 62
     0
370
    -2
100
AcDbLine
 10
-305.8630127016663
 20
457.6677309871824
 30
0.0
 11
-305.8630127016663
 21
879.086476657229
 31
0.0
  0
LINE
  5
1D0B
330
1CD9
100
AcDbEntity
  8
SIZE
  6
Continuous
 62
     0
370
    -2
100
AcDbLine
 10
-11.9999999999927
 20
859.0864766572289
 30
0.0
 11
-293.8630127016663
 21
859.0864766572289
 31
0.0
  0
INSERT
  5
1D0C
330
1CD9
100
AcDbEntity
  8
SIZE
  6
Continuous
 62
     0
370
    -2
100
AcDbBlockReference
  2
_DOTBLANK
 10
0.000000000007292
 20
859.0864766572289
 30
0.0
 41
12.0
 42
12.0
 43
12.0
  0
INSERT
  5
1D0D
330
1CD9
100
AcDbEntity
  8
SIZE
  6
Continuous
 62
     0
370
    -2
100
AcDbBlockReference
  2
_DOTBLANK
 10
-305.8630127016663
 20
859.0864766572289
 30
0.0
 41
12.0
 42
12.0
 43
12.0
 50
180.0
  0
MTEXT
  5
1D0E
330
1CD9
100
AcDbEntity
  8
SIZE
  6
Continuous
 62
     0
100
AcDbMText
 10
-152.9315063508295
 20
901.0864766572286
 30
0.0
 40
64.0
 41
0.0
 71
     5
 72
     1
  1
\A1;306
 73
     1
 44
1.0
1001
ACAD
1000
MTEXTBEGIN
1070
    73
1070
     1
1070
    44
1040
1.0
1070
    74
1070
     0
1000
MTEXTEND
  0
POINT
  5
1D0F
330
1CD9
100
AcDbEntity
  8
DEFPOINTS
  6
Continuous
 62
     0
100
AcDbPoint
 10
0.000000000007276
 20
596.3895769021945
 30
0.0
  0
POINT
  5
1D10
330
1CD9
100
AcDbEntity
  8
DEFPOINTS
  6
Continuous
 62
     0
100
AcDbPoint
 10
-305.8630127016663
 20
437.6677309871824
 30
0.0
  0
POINT
  5
1D11
330
1CD9
100
AcDbEntity
  8
DEFPOINTS
  6
Continuous
 62
     0
100
AcDbPoint
 10
-305.8630127016663
 20
859.0864766572289
 30
0.0
  0
ENDBLK
  5
1CDB
330
1CD9
100
AcDbEntity
  8
0
100
AcDbBlockEnd
  0
ENDSEC
  0
SECTION
  2
ENTITIES
  0
TEXT
  5
953
330
85F
100
AcDbEntity
  8
OUTLINE
  6
Continuous
 62
     3
100
AcDbText
 10
-418.231467
 20
13.715189
 30
0.0
 40
64.0
  1
 
 41
0.9
100
AcDbText
  0
TEXT
  5
954
330
85F
100
AcDbEntity
  8
OUTLINE
  6
Continuous
 62
     3
100
AcDbText
 10
-418.231467
 20
13.715189
 30
0.0
 40
64.0
  1
 
 41
0.9
100
AcDbText
  0
TEXT
  5
955
330
85F
100
AcDbEntity
  8
OUTLINE
  6
Continuous
 62
     3
100
AcDbText
 10
1341.41903
 20
-706.0588199999997
 30
0.0
 40
64.0
  1
 
 41
0.9
100
AcDbText
  0
TEXT
  5
956
330
85F
100
AcDbEntity
  8
OUTLINE
  6
Continuous
 62
     3
100
AcDbText
 10
1341.41903
 20
-706.0588199999997
 30
0.0
 40
64.0
  1
 
 41
0.9
100
AcDbText
  0
TEXT
  5
957
330
85F
100
AcDbEntity
  8
OUTLINE
  6
Continuous
 62
     3
100
AcDbText
 10
1341.41903
 20
-706.0588199999997
 30
0.0
 40
64.0
  1
 
 41
0.9
100
AcDbText
  0
TEXT
  5
958
330
85F
100
AcDbEntity
  8
OUTLINE
  6
Continuous
 62
     3
100
AcDbText
 10
1341.41903
 20
-706.0588199999997
 30
0.0
 40
64.0
  1
 
 41
0.9
100
AcDbText
  0
LINE
  5
1B3E
330
85F
100
AcDbEntity
  8
DETAIL
100
AcDbLine
 10
-301.2220133251108
 20
-230.7926891061243
 30
0.0
 11
-301.210749030361
 21
-230.7943614678693
 31
0.0
  0
LINE
  5
1B3F
330
85F
100
AcDbEntity
  8
DETAIL
100
AcDbLine
 10
-12.79294320647023
 20
-618.4794921309608
 30
0.0
 11
-12.95597334978811
 21
-619.5775916258615
 31
0.0
  0
LINE
  5
1B40
330
85F
100
AcDbEntity
  8
DETAIL
100
AcDbLine
 10
-12.95597334978811
 20
-619.5775916258615
 30
0.0
 11
-301.2220133251108
 21
-230.7926891061243
 31
0.0
  0
LINE
  5
1B41
330
85F
100
AcDbEntity
  8
DETAIL
100
AcDbLine
 10
-303.3999999999946
 20
433.1729491399228
 30
0.0
 11
-303.3999999999946
 21
433.1629491399221
 31
0.0
  0
LINE
  5
1B42
330
85F
100
AcDbEntity
  8
DETAIL
100
AcDbLine
 10
0.000000000007276
 20
-627.6104230978054
 30
0.0
 11
0.000000000007276
 21
-624.6104230978054
 31
0.0
  0
LINE
  5
1B43
330
85F
100
AcDbEntity
  8
DETAIL
100
AcDbLine
 10
0.000000000007276
 20
-624.6104230978054
 30
0.0
 11
-0.7999999999883585
 21
-624.6104230978054
 31
0.0
  0
LINE
  5
1B44
330
85F
100
AcDbEntity
  8
DETAIL
100
AcDbLine
 10
-0.7999999999883585
 20
-624.6104230978054
 30
0.0
 11
-0.7999999999883585
 21
-627.6104230978054
 31
0.0
  0
LINE
  5
1B45
330
85F
100
AcDbEntity
  8
DETAIL
100
AcDbLine
 10
-0.7999999999883585
 20
-627.6104230978054
 30
0.0
 11
0.000000000007276
 21
-627.6104230978054
 31
0.0
  0
LINE
  5
1B46
330
85F
100
AcDbEntity
  8
DETAIL
100
AcDbLine
 10
-0.7999999999883585
 20
-476.6104230978054
 30
0.0
 11
-0.7999999999883585
 21
-479.6104230978055
 31
0.0
  0
LINE
  5
1B47
330
85F
100
AcDbEntity
  8
DETAIL
100
AcDbLine
 10
-0.7999999999956346
 20
-473.6104230978058
 30
0.0
 11
-0.7999999999956346
 21
-476.6104230978057
 31
0.0
  0
LINE
  5
1B48
330
85F
100
AcDbEntity
  8
DETAIL
100
AcDbLine
 10
-0.7999999999956346
 20
-461.6104230978053
 30
0.0
 11
-0.7999999999956346
 21
-464.6104230978052
 31
0.0
  0
LINE
  5
1B49
330
85F
100
AcDbEntity
  8
DETAIL
100
AcDbLine
 10
-0.7999999999883585
 20
-458.610423097805
 30
0.0
 11
-0.7999999999883585
 21
-461.6104230978053
 31
0.0
  0
LINE
  5
1B4A
330
85F
100
AcDbEntity
  8
DETAIL
100
AcDbLine
 10
-0.7999999999883585
 20
-68.61042309780533
 30
0.0
 11
-0.7999999999883585
 21
-71.61042309780531
 31
0.0
  0
LINE
  5
1B4B
330
85F
100
AcDbEntity
  8
DETAIL
100
AcDbLine
 10
-0.7999999999956346
 20
-65.61042309780578
 30
0.0
 11
-0.7999999999956346
 21
-68.61042309780533
 31
0.0
  0
LINE
  5
1B4C
330
85F
100
AcDbEntity
  8
DETAIL
100
AcDbLine
 10
-0.7999999999956346
 20
-53.61042309780533
 30
0.0
 11
-0.7999999999956346
 21
-56.61042309780578
 31
0.0
  0
LINE
  5
1B4D
330
85F
100
AcDbEntity
  8
DETAIL
100
AcDbLine
 10
-0.7999999999883585
 20
-50.61042309780532
 30
0.0
 11
-0.7999999999883585
 21
-53.61042309780533
 31
0.0
  0
LINE
  5
1B4E
330
85F
100
AcDbEntity
  8
DETAIL
100
AcDbLine
 10
-0.7999999999883585
 20
525.0895769021943
 30
0.0
 11
-0.7999999999883585
 21
522.0895769021949
 31
0.0
  0
LINE
  5
1B4F
330
85F
100
AcDbEntity
  8
DETAIL
100
AcDbLine
 10
-0.7999999999956346
 20
528.0895769021944
 30
0.0
 11
-0.7999999999956346
 21
525.0895769021943
 31
0.0
  0
LINE
  5
1B50
330
85F
100
AcDbEntity
  8
DETAIL
100
AcDbLine
 10
-0.7999999999956346
 20
558.3895769021945
 30
0.0
 11
-0.7999999999956346
 21
555.3895769021947
 31
0.0
  0
LINE
  5
1B51
330
85F
100
AcDbEntity
  8
DETAIL
100
AcDbLine
 10
-0.7999999999883585
 20
561.3895769021945
 30
0.0
 11
-0.7999999999883585
 21
558.3895769021945
 31
0.0
  0
LINE
  5
1B52
330
85F
100
AcDbEntity
  8
DETAIL
100
AcDbLine
 10
-0.7999999999883585
 20
596.3895769021945
 30
0.0
 11
-0.7999999999883585
 21
593.3895769021948
 31
0.0
  0
LINE
  5
1B53
330
85F
100
AcDbEntity
  8
DETAIL
100
AcDbLine
 10
-0.7999999999883585
 20
593.3895769021948
 30
0.0
 11
0.000000000007276
 21
593.3895769021948
 31
0.0
  0
LINE
  5
1B54
330
85F
100
AcDbEntity
  8
DETAIL
100
AcDbLine
 10
0.000000000007276
 20
593.3895769021948
 30
0.0
 11
0.000000000007276
 21
596.3895769021945
 31
0.0
  0
LINE
  5
1B55
330
85F
100
AcDbEntity
  8
DETAIL
100
AcDbLine
 10
0.000000000007276
 20
596.3895769021945
 30
0.0
 11
-0.7999999999883585
 21
596.3895769021945
 31
0.0
  0
LINE
  5
1B56
330
85F
100
AcDbEntity
  8
DETAIL
100
AcDbLine
 10
0.000000000007276
 20
561.3895769021945
 30
0.0
 11
-0.7999999999883585
 21
561.3895769021945
 31
0.0
  0
LINE
  5
1B57
330
85F
100
AcDbEntity
  8
DETAIL
100
AcDbLine
 10
0.000000000007276
 20
558.3895769021945
 30
0.0
 11
0.000000000007276
 21
561.3895769021945
 31
0.0
  0
LINE
  5
1B58
330
85F
100
AcDbEntity
  8
DETAIL
100
AcDbLine
 10
-0.7999999999883585
 20
558.3895769021945
 30
0.0
 11
0.000000000007276
 21
558.3895769021945
 31
0.0
  0
LINE
  5
1B59
330
85F
100
AcDbEntity
  8
DETAIL
100
AcDbLine
 10
-0.7999999999956346
 20
555.3895769021947
 30
0.0
 11
0.0
 21
555.3895769021947
 31
0.0
  0
LINE
  5
1B5A
330
85F
100
AcDbEntity
  8
DETAIL
100
AcDbLine
 10
0.0
 20
555.3895769021947
 30
0.0
 11
0.0
 21
558.3895769021945
 31
0.0
  0
LINE
  5
1B5B
330
85F
100
AcDbEntity
  8
DETAIL
100
AcDbLine
 10
0.0
 20
528.0895769021944
 30
0.0
 11
-0.7999999999956346
 21
528.0895769021944
 31
0.0
  0
LINE
  5
1B5C
330
85F
100
AcDbEntity
  8
DETAIL
100
AcDbLine
 10
0.0
 20
525.0895769021943
 30
0.0
 11
0.0
 21
528.0895769021944
 31
0.0
  0
LINE
  5
1B5D
330
85F
100
AcDbEntity
  8
DETAIL
100
AcDbLine
 10
0.000000000007276
 20
525.0895769021943
 30
0.0
 11
-0.7999999999883585
 21
525.0895769021943
 31
0.0
  0
LINE
  5
1B5E
330
85F
100
AcDbEntity
  8
DETAIL
100
AcDbLine
 10
-0.7999999999883585
 20
522.0895769021949
 30
0.0
 11
0.000000000007276
 21
522.0895769021949
 31
0.0
  0
LINE
  5
1B5F
330
85F
100
AcDbEntity
  8
DETAIL
100
AcDbLine
 10
0.000000000007276
 20
522.0895769021949
 30
0.0
 11
0.000000000007276
 21
525.0895769021943
 31
0.0
  0
LINE
  5
1B60
330
85F
100
AcDbEntity
  8
DETAIL
100
AcDbLine
 10
0.000000000007276
 20
-50.61042309780532
 30
0.0
 11
-0.7999999999883585
 21
-50.61042309780532
 31
0.0
  0
LINE
  5
1B61
330
85F
100
AcDbEntity
  8
DETAIL
100
AcDbLine
 10
0.000000000007276
 20
-53.61042309780533
 30
0.0
 11
0.000000000007276
 21
-50.61042309780532
 31
0.0
  0
LINE
  5
1B62
330
85F
100
AcDbEntity
  8
DETAIL
100
AcDbLine
 10
-0.7999999999883585
 20
-53.61042309780533
 30
0.0
 11
0.000000000007276
 21
-53.61042309780533
 31
0.0
  0
LINE
  5
1B63
330
85F
100
AcDbEntity
  8
DETAIL
100
AcDbLine
 10
-0.7999999999956346
 20
-56.61042309780578
 30
0.0
 11
0.0
 21
-56.61042309780578
 31
0.0
  0
LINE
  5
1B64
330
85F
100
AcDbEntity
  8
DETAIL
100
AcDbLine
 10
0.0
 20
-56.61042309780578
 30
0.0
 11
0.0
 21
-53.61042309780533
 31
0.0
  0
LINE
  5
1B65
330
85F
100
AcDbEntity
  8
DETAIL
100
AcDbLine
 10
0.0
 20
-65.61042309780578
 30
0.0
 11
-0.7999999999956346
 21
-65.61042309780578
 31
0.0
  0
LINE
  5
1B66
330
85F
100
AcDbEntity
  8
DETAIL
100
AcDbLine
 10
0.0
 20
-68.61042309780533
 30
0.0
 11
0.0
 21
-65.61042309780578
 31
0.0
  0
LINE
  5
1B67
330
85F
100
AcDbEntity
  8
DETAIL
100
AcDbLine
 10
0.000000000007276
 20
-68.61042309780533
 30
0.0
 11
-0.7999999999883585
 21
-68.61042309780533
 31
0.0
  0
LINE
  5
1B68
330
85F
100
AcDbEntity
  8
DETAIL
100
AcDbLine
 10
-0.7999999999883585
 20
-71.61042309780531
 30
0.0
 11
0.000000000007276
 21
-71.61042309780531
 31
0.0
  0
LINE
  5
1B69
330
85F
100
AcDbEntity
  8
DETAIL
100
AcDbLine
 10
0.000000000007276
 20
-71.61042309780531
 30
0.0
 11
0.000000000007276
 21
-68.61042309780533
 31
0.0
  0
LINE
  5
1B6A
330
85F
100
AcDbEntity
  8
DETAIL
100
AcDbLine
 10
0.000000000007276
 20
-458.610423097805
 30
0.0
 11
-0.7999999999883585
 21
-458.610423097805
 31
0.0
  0
LINE
  5
1B6B
330
85F
100
AcDbEntity
  8
DETAIL
100
AcDbLine
 10
0.000000000007276
 20
-461.6104230978053
 30
0.0
 11
0.000000000007276
 21
-458.610423097805
 31
0.0
  0
LINE
  5
1B6C
330
85F
100
AcDbEntity
  8
DETAIL
100
AcDbLine
 10
-0.7999999999883585
 20
-461.6104230978053
 30
0.0
 11
0.000000000007276
 21
-461.6104230978053
 31
0.0
  0
LINE
  5
1B6D
330
85F
100
AcDbEntity
  8
DETAIL
100
AcDbLine
 10
-0.7999999999956346
 20
-464.6104230978052
 30
0.0
 11
0.0
 21
-464.6104230978052
 31
0.0
  0
LINE
  5
1B6E
330
85F
100
AcDbEntity
  8
DETAIL
100
AcDbLine
 10
0.0
 20
-464.6104230978052
 30
0.0
 11
0.0
 21
-461.6104230978053
 31
0.0
  0
LINE
  5
1B6F
330
85F
100
AcDbEntity
  8
DETAIL
100
AcDbLine
 10
0.0
 20
-473.6104230978058
 30
0.0
 11
-0.7999999999956346
 21
-473.6104230978058
 31
0.0
  0
LINE
  5
1B70
330
85F
100
AcDbEntity
  8
DETAIL
100
AcDbLine
 10
0.0
 20
-476.6104230978057
 30
0.0
 11
0.0
 21
-473.6104230978058
 31
0.0
  0
LINE
  5
1B71
330
85F
100
AcDbEntity
  8
DETAIL
100
AcDbLine
 10
0.000000000007276
 20
-476.6104230978054
 30
0.0
 11
-0.7999999999883585
 21
-476.6104230978054
 31
0.0
  0
LINE
  5
1B72
330
85F
100
AcDbEntity
  8
DETAIL
100
AcDbLine
 10
-0.7999999999883585
 20
-479.6104230978055
 30
0.0
 11
0.000000000007276
 21
-479.6104230978055
 31
0.0
  0
LINE
  5
1B73
330
85F
100
AcDbEntity
  8
DETAIL
100
AcDbLine
 10
0.000000000007276
 20
-479.6104230978055
 30
0.0
 11
0.000000000007276
 21
-476.6104230978054
 31
0.0
  0
LINE
  5
1B74
330
85F
100
AcDbEntity
  8
DETAIL
100
AcDbLine
 10
-0.7999999999883585
 20
-624.6104230978054
 30
0.0
 11
-0.7999999999883585
 21
-479.6104230978055
 31
0.0
  0
LINE
  5
1B75
330
85F
100
AcDbEntity
  8
DETAIL
100
AcDbLine
 10
-0.7999999999883585
 20
-458.610423097805
 30
0.0
 11
-0.7999999999883585
 21
-71.61042309780531
 31
0.0
  0
LINE
  5
1B76
330
85F
100
AcDbEntity
  8
DETAIL
100
AcDbLine
 10
-0.7999999999883585
 20
-50.61042309780532
 30
0.0
 11
-0.7999999999883585
 21
522.0895769021949
 31
0.0
  0
LINE
  5
1B77
330
85F
100
AcDbEntity
  8
DETAIL
100
AcDbLine
 10
-0.7999999999883585
 20
561.3895769021945
 30
0.0
 11
-0.7999999999883585
 21
593.3895769021948
 31
0.0
  0
LINE
  5
1B78
330
85F
100
AcDbEntity
  8
DETAIL
100
AcDbLine
 10
0.000000000007276
 20
561.3895769021945
 30
0.0
 11
0.000000000007276
 21
593.3895769021948
 31
0.0
  0
LINE
  5
1B79
330
85F
100
AcDbEntity
  8
DETAIL
100
AcDbLine
 10
0.000000000007276
 20
-50.61042309780532
 30
0.0
 11
0.000000000007276
 21
522.0895769021949
 31
0.0
  0
LINE
  5
1B7A
330
85F
100
AcDbEntity
  8
DETAIL
100
AcDbLine
 10
0.000000000007276
 20
-458.610423097805
 30
0.0
 11
0.000000000007276
 21
-71.61042309780531
 31
0.0
  0
LINE
  5
1B7B
330
85F
100
AcDbEntity
  8
DETAIL
100
AcDbLine
 10
0.000000000007276
 20
-624.6104230978054
 30
0.0
 11
0.000000000007276
 21
-479.6104230978055
 31
0.0
  0
LINE
  5
1B7C
330
85F
100
AcDbEntity
  8
DETAIL
100
AcDbLine
 10
-0.7999999999956346
 20
-473.6104230978058
 30
0.0
 11
-0.7999999999956346
 21
-464.6104230978052
 31
0.0
  0
LINE
  5
1B7D
330
85F
100
AcDbEntity
  8
DETAIL
100
AcDbLine
 10
-0.7999999999956346
 20
-65.61042309780578
 30
0.0
 11
-0.7999999999956346
 21
-56.61042309780578
 31
0.0
  0
LINE
  5
1B7E
330
85F
100
AcDbEntity
  8
DETAIL
100
AcDbLine
 10
-0.7999999999956346
 20
528.0895769021944
 30
0.0
 11
-0.7999999999956346
 21
555.3895769021947
 31
0.0
  0
LINE
  5
1B7F
330
85F
100
AcDbEntity
  8
DETAIL
100
AcDbLine
 10
0.0
 20
555.3895769021947
 30
0.0
 11
0.0
 21
528.0895769021944
 31
0.0
  0
LINE
  5
1B80
330
85F
100
AcDbEntity
  8
DETAIL
100
AcDbLine
 10
0.0
 20
-56.61042309780578
 30
0.0
 11
0.0
 21
-65.61042309780578
 31
0.0
  0
LINE
  5
1B81
330
85F
100
AcDbEntity
  8
DETAIL
100
AcDbLine
 10
0.0
 20
-464.6104230978052
 30
0.0
 11
0.0
 21
-473.6104230978058
 31
0.0
  0
LINE
  5
1B82
330
85F
100
AcDbEntity
  8
DETAIL
100
AcDbLine
 10
-12.95597334978811
 20
-619.5775916258615
 30
0.0
 11
-7.0
 21
-627.6104230978054
 31
0.0
  0
LINE
  5
1B83
330
85F
100
AcDbEntity
  8
DETAIL
100
AcDbLine
 10
-7.0
 20
-627.6104230978054
 30
0.0
 11
-6.799999999995633
 21
-627.6104230978054
 31
0.0
  0
LINE
  5
1B84
330
85F
100
AcDbEntity
  8
DETAIL
100
AcDbLine
 10
-6.0
 20
-627.6104230978054
 30
0.0
 11
-0.8999999999941792
 21
-627.6104230978054
 31
0.0
  0
LINE
  5
1B85
330
85F
100
AcDbEntity
  8
DETAIL
100
AcDbLine
 10
-304.1999999999975
 20
-226.7762733701525
 30
0.0
 11
-303.2726062880107
 21
-228.0270508600779
 31
0.0
  0
LINE
  5
1B86
330
85F
100
AcDbEntity
  8
DETAIL
100
AcDbLine
 10
-302.6794432549654
 20
-228.8270508600781
 30
0.0
 11
-301.2220133251108
 21
-230.7926891061243
 31
0.0
  0
LINE
  5
1B87
330
85F
100
AcDbEntity
  8
DETAIL
100
AcDbLine
 10
-0.8999999999941792
 20
-627.6104230978054
 30
0.0
 11
-0.8999999999941792
 21
596.3895769021945
 31
0.0
  0
LINE
  5
1B88
330
85F
100
AcDbEntity
  8
DETAIL
100
AcDbLine
 10
-0.8000000000029102
 20
-627.6104230978054
 30
0.0
 11
-0.8999999999941792
 21
-627.6104230978054
 31
0.0
  0
LINE
  5
1B89
330
85F
100
AcDbEntity
  8
DETAIL
100
AcDbLine
 10
-0.8999999999941792
 20
596.3895769021945
 30
0.0
 11
-6.0
 21
596.3895769021945
 31
0.0
  0
LINE
  5
1B8A
330
85F
100
AcDbEntity
  8
DETAIL
100
AcDbLine
 10
-6.0
 20
600.3895769021942
 30
0.0
 11
-6.0
 21
609.3503464176538
 31
0.0
  0
LINE
  5
1B8B
330
85F
100
AcDbEntity
  8
DETAIL
100
AcDbLine
 10
-0.8000000000029102
 20
596.3895769021945
 30
0.0
 11
-0.8999999999941792
 21
596.3895769021945
 31
0.0
  0
LINE
  5
1B8C
330
85F
100
AcDbEntity
  8
DETAIL
100
AcDbLine
 10
-6.0
 20
609.3503464176538
 30
0.0
 11
-6.800000000002909
 21
608.8884662023018
 31
0.0
  0
LINE
  5
1B8D
330
85F
100
AcDbEntity
  8
DETAIL
100
AcDbLine
 10
-6.888888888890504
 20
608.837146178374
 30
0.0
 11
-6.899999999994179
 21
608.8307311753829
 31
0.0
  0
SPLINE
  5
1B8E
330
85F
100
AcDbEntity
  8
DETAIL
100
AcDbSpline
210
0.0
220
0.0
230
1.0
 70
     8
 71
     3
 72
     8
 73
     4
 74
     0
 42
0.0000000001
 43
0.0000000001
 40
0.0
 40
0.0
 40
0.0
 40
0.0
 40
1.570796326795043
 40
1.570796326795043
 40
1.570796326795043
 40
1.570796326795043
 10
-6.0
 20
609.3503464176538
 30
0.0
 10
-5.876179938779387
 20
609.4822939421377
 30
0.0
 10
-5.75
 20
609.6101540387885
 30
0.0
 10
-5.599999999998544
 20
609.6967565791668
 30
0.0
  0
LINE
  5
1B8F
330
85F
100
AcDbEntity
  8
DETAIL
100
AcDbLine
 10
-303.3000000000034
 20
433.1729491399228
 30
0.0
 11
-303.3000000000034
 21
433.1629491399221
 31
0.0
  0
LINE
  5
1B90
330
85F
100
AcDbEntity
  8
DETAIL
100
AcDbLine
 10
-5.599999999991268
 20
609.6967565791674
 30
0.0
 11
-6.799999999988356
 21
609.0039362561401
 31
0.0
  0
LINE
  5
1B91
330
85F
100
AcDbEntity
  8
DETAIL
100
AcDbLine
 10
-6.888888888883228
 20
608.9526162322122
 30
0.0
 11
-7.366025403782258
 21
608.6771413368968
 31
0.0
  0
LINE
  5
1B92
330
85F
100
AcDbEntity
  8
DETAIL
100
AcDbLine
 10
-5.599999999991268
 20
609.6967565791674
 30
0.0
 11
-5.999999999992723
 21
610.3895769021951
 31
0.0
  0
LINE
  5
1B93
330
85F
100
AcDbEntity
  8
DETAIL
100
AcDbLine
 10
-5.999999999992723
 20
610.3895769021951
 30
0.0
 11
-6.799999999988356
 21
609.9276966868437
 31
0.0
  0
LINE
  5
1B94
330
85F
100
AcDbEntity
  8
DETAIL
100
AcDbLine
 10
-6.888888888883228
 20
609.8763766629152
 30
0.0
 11
-6.967483168504258
 21
609.8310002344183
 31
0.0
  0
LINE
  5
1B95
330
85F
100
AcDbEntity
  8
DETAIL
100
AcDbLine
 10
-9.999999999781721
 20
-136.1104230978058
 30
0.0
 11
-12.99999999978172
 21
-139.1104230978058
 31
0.0
  0
LINE
  5
1B96
330
85F
100
AcDbEntity
  8
DETAIL
100
AcDbLine
 10
-12.99999999978172
 20
-154.6104230978057
 30
0.0
 11
-9.999999999781721
 21
-157.6104230978057
 31
0.0
  0
LINE
  5
1B97
330
85F
100
AcDbEntity
  8
DETAIL
100
AcDbLine
 10
-16.99999999978172
 20
-139.1104230978058
 30
0.0
 11
-12.99999999978172
 21
-139.1104230978058
 31
0.0
  0
LINE
  5
1B98
330
85F
100
AcDbEntity
  8
DETAIL
100
AcDbLine
 10
-12.99999999978172
 20
-154.6104230978057
 30
0.0
 11
-16.99999999978172
 21
-154.6104230978057
 31
0.0
  0
LINE
  5
1B99
330
85F
100
AcDbEntity
  8
DETAIL
100
AcDbLine
 10
-16.99999999978172
 20
-154.6104230978057
 30
0.0
 11
-16.99999999978172
 21
-139.1104230978058
 31
0.0
  0
LINE
  5
1B9A
330
85F
100
AcDbEntity
  8
DETAIL
100
AcDbLine
 10
-9.999999999781721
 20
-136.1104230978058
 30
0.0
 11
-9.999999999781721
 21
-120.1104230978057
 31
0.0
  0
LINE
  5
1B9B
330
85F
100
AcDbEntity
  8
DETAIL
100
AcDbLine
 10
-9.999999999781721
 20
-120.1104230978057
 30
0.0
 11
-6.8999999997759
 21
-120.1104230978057
 31
0.0
  0
LINE
  5
1B9C
330
85F
100
AcDbEntity
  8
DETAIL
100
AcDbLine
 10
-6.8999999997759
 20
-194.1104230978056
 30
0.0
 11
-9.999999999781721
 21
-194.1104230978056
 31
0.0
  0
LINE
  5
1B9D
330
85F
100
AcDbEntity
  8
DETAIL
100
AcDbLine
 10
-9.999999999781721
 20
-194.1104230978056
 30
0.0
 11
-9.999999999781721
 21
-157.6104230978057
 31
0.0
  0
LINE
  5
1B9E
330
85F
100
AcDbEntity
  8
DETAIL
100
AcDbLine
 10
-5.999999999781722
 20
-120.1104230978057
 30
0.0
 11
-6.8999999997759
 21
-120.1104230978057
 31
0.0
  0
LINE
  5
1B9F
330
85F
100
AcDbEntity
  8
DETAIL
100
AcDbLine
 10
-6.8999999997759
 20
-194.1104230978056
 30
0.0
 11
-5.999999999781722
 21
-194.1104230978056
 31
0.0
  0
LINE
  5
1BA0
330
85F
100
AcDbEntity
  8
DETAIL
100
AcDbLine
 10
-6.8999999997759
 20
-120.1104230978057
 30
0.0
 11
-6.8999999997759
 21
608.8307311753824
 31
0.0
  0
LINE
  5
1BA1
330
85F
100
AcDbEntity
  8
DETAIL
100
AcDbLine
 10
-6.8999999997759
 20
-626.4006620825313
 30
0.0
 11
-6.8999999997759
 21
-194.1104230978056
 31
0.0
  0
LINE
  5
1BA2
330
85F
100
AcDbEntity
  8
DETAIL
100
AcDbLine
 10
-5.999999999781722
 20
600.3895769021942
 30
0.0
 11
-5.999999999781722
 21
-120.1104230978057
 31
0.0
  0
SPLINE
  5
1BA3
330
85F
100
AcDbEntity
  8
DETAIL
100
AcDbSpline
210
0.0
220
0.0
230
1.0
 70
     8
 71
     3
 72
     8
 73
     4
 74
     0
 42
0.0000000001
 43
0.0000000001
 40
0.0
 40
0.0
 40
0.0
 40
0.0
 40
1.45945531245407
 40
1.45945531245407
 40
1.45945531245407
 40
1.45945531245407
 10
-6.799999999777354
 20
610.3895769021942
 30
0.0
 10
-6.799999999777354
 20
610.2286489251277
 30
0.0
 10
-6.840541610319632
 20
610.0677209480614
 30
0.0
 10
-6.888888888672227
 20
609.9067929709945
 30
0.0
  0
SPLINE
  5
1BA4
330
85F
100
AcDbEntity
  8
DETAIL
100
AcDbSpline
210
0.0
220
0.0
230
1.0
 70
     8
 71
     3
 72
    11
 73
     7
 74
     0
 42
0.0000000001
 43
0.0000000001
 40
0.0
 40
0.0
 40
0.0
 40
0.0
 40
1.437607986812995
 40
1.437607986812995
 40
1.437607986812995
 40
1.570796326794897
 40
1.570796326794897
 40
1.570796326794897
 40
1.570796326794897
 10
-6.8999999997759
 20
-626.4006620825313
 30
0.0
 10
-6.468717603733238
 20
-626.7697237421128
 30
0.0
 10
-6.065242925658822
 20
-627.1387854016937
 30
0.0
 10
-6.007970816630402
 20
-627.5078470612753
 30
0.0
 10
-6.0026647963532
 20
-627.5420390734522
 30
0.0
 10
-5.999999999781722
 20
-627.5762310856289
 30
0.0
 10
-5.999999999781722
 20
-627.6104230978059
 30
0.0
  0
LINE
  5
1BA5
330
85F
100
AcDbEntity
  8
DETAIL
100
AcDbLine
 10
-5.999999999781722
 20
-194.1104230978056
 30
0.0
 11
-5.999999999781722
 21
-627.6104230978059
 31
0.0
  0
LINE
  5
1BA6
330
85F
100
AcDbEntity
  8
DETAIL
100
AcDbLine
 10
-5.999999999781722
 20
-627.6104230978059
 30
0.0
 11
-6.799999999777354
 21
-627.6104230978059
 31
0.0
  0
SPLINE
  5
1BA7
330
85F
100
AcDbEntity
  8
DETAIL
100
AcDbSpline
210
0.0
220
0.0
230
1.0
 70
     8
 71
     3
 72
     8
 73
     4
 74
     0
 42
0.0000000001
 43
0.0000000001
 40
0.0
 40
0.0
 40
0.0
 40
0.0
 40
1.570796326794897
 40
1.570796326794897
 40
1.570796326794897
 40
1.570796326794897
 10
-6.8999999997759
 20
-626.4006620825313
 30
0.0
 10
-6.847640122214214
 20
-626.8039157542895
 30
0.0
 10
-6.799999999777354
 20
-627.2071694260476
 30
0.0
 10
-6.799999999777354
 20
-627.6104230978059
 30
0.0
  0
LINE
  5
1BA8
330
85F
100
AcDbEntity
  8
DETAIL
100
AcDbLine
 10
-6.8999999997759
 20
608.8307311753824
 30
0.0
 11
-7.316025403561069
 21
608.5905387965176
 31
0.0
  0
LINE
  5
1BA9
330
85F
100
AcDbEntity
  8
DETAIL
100
AcDbLine
 10
-7.316025403561069
 20
608.5905387965176
 30
0.0
 11
-303.663397459401
 21
437.4943037664414
 31
0.0
  0
LINE
  5
1BAA
330
85F
100
AcDbEntity
  8
DETAIL
100
AcDbLine
 10
-303.663397459401
 20
437.4943037664414
 30
0.0
 11
-303.6583974593964
 21
437.4856435124037
 31
0.0
  0
LINE
  5
1BAB
330
85F
100
AcDbEntity
  8
DETAIL
100
AcDbLine
 10
-303.6583974593964
 20
437.4856435124037
 30
0.0
 11
-304.1999999997793
 21
437.1729491399222
 31
0.0
  0
LINE
  5
1BAC
330
85F
100
AcDbEntity
  8
DETAIL
100
AcDbLine
 10
-6.8999999997759
 20
608.8307311753824
 30
0.0
 11
-6.799999999777354
 21
608.8307311753824
 31
0.0
  0
LINE
  5
1BAD
330
85F
100
AcDbEntity
  8
DETAIL
100
AcDbLine
 10
-6.888888888672227
 20
608.8307311753824
 30
0.0
 11
-6.888888888672227
 21
609.9067929709945
 31
0.0
  0
LINE
  5
1BAE
330
85F
100
AcDbEntity
  8
DETAIL
100
AcDbLine
 10
-304.1133974593981
 20
438.2737266298471
 30
0.0
 11
-7.76602540355816
 21
609.3699616599232
 31
0.0
  0
LINE
  5
1BAF
330
85F
100
AcDbEntity
  8
DETAIL
100
AcDbLine
 10
-7.76602540355816
 20
609.3699616599232
 30
0.0
 11
-7.316025403561069
 21
608.5905387965176
 31
0.0
  0
LINE
  5
1BB0
330
85F
100
AcDbEntity
  8
DETAIL
100
AcDbLine
 10
-304.1133974593981
 20
438.2737266298477
 30
0.0
 11
-303.663397459401
 21
437.4943037664414
 31
0.0
  0
LINE
  5
1BB1
330
85F
100
AcDbEntity
  8
DETAIL
100
AcDbLine
 10
-6.799999999777354
 20
608.8307311753824
 30
0.0
 11
-6.799999999777354
 21
609.9067929709945
 31
0.0
  0
SPLINE
  5
1BB2
330
85F
100
AcDbEntity
  8
DETAIL
100
AcDbSpline
210
0.0
220
0.0
230
1.0
 70
    24
 71
     3
 72
    10
 73
     6
 74
     0
 42
0.0000000001
 43
0.0000000001
 40
-0.08
 40
-0.08
 40
-0.08
 40
-0.08
 40
-0.04
 40
-0.04
 40
0.0
 40
0.0
 40
0.0
 40
0.0
 10
-6.888888888672227
 20
609.9067929709945
 30
0.0
 10
-6.874074073857627
 20
609.9067929709945
 30
0.0
 10
-6.859259259035752
 20
609.9067929709945
 30
0.0
 10
-6.829629629406553
 20
609.9067929709945
 30
0.0
 10
-6.814814814591954
 20
609.9067929709945
 30
0.0
 10
-6.799999999777354
 20
609.9067929709945
 30
0.0
  0
LINE
  5
1BB3
330
85F
100
AcDbEntity
  8
DETAIL
100
AcDbLine
 10
-304.1999999997793
 20
433.1729491399222
 30
0.0
 11
-304.1999999997793
 21
437.1729491399222
 31
0.0
  0
LINE
  5
1BB4
330
85F
100
AcDbEntity
  8
DETAIL
100
AcDbLine
 10
-304.1999999997793
 20
-226.7762733701525
 30
0.0
 11
-304.1999999997793
 21
-225.7862733701527
 31
0.0
  0
LINE
  5
1BB5
330
85F
100
AcDbEntity
  8
DETAIL
100
AcDbLine
 10
-6.8999999997759
 20
-626.4006620825313
 30
0.0
 11
-304.1999999997793
 21
-226.7762733701525
 31
0.0
  0
LINE
  5
1BB6
330
85F
100
AcDbEntity
  8
DETAIL
100
AcDbLine
 10
-304.1999999997793
 20
433.1729491399222
 30
0.0
 11
-303.2899999997758
 21
433.1729491399222
 31
0.0
  0
LINE
  5
1BB7
330
85F
100
AcDbEntity
  8
DETAIL
100
AcDbLine
 10
-303.2899999997758
 20
433.1729491399222
 30
0.0
 11
-303.2899999997758
 21
433.1629491399221
 31
0.0
  0
LINE
  5
1BB8
330
85F
100
AcDbEntity
  8
DETAIL
100
AcDbLine
 10
-303.2899999997758
 20
433.1629491399221
 30
0.0
 11
-303.2999999997778
 21
433.1629491399221
 31
0.0
  0
LINE
  5
1BB9
330
85F
100
AcDbEntity
  8
DETAIL
100
AcDbLine
 10
-303.2999999997778
 20
433.1629491399221
 30
0.0
 11
-303.2999999997778
 21
-225.7762733701525
 31
0.0
  0
LINE
  5
1BBA
330
85F
100
AcDbEntity
  8
DETAIL
100
AcDbLine
 10
-303.2999999997778
 20
-225.7762733701525
 30
0.0
 11
-303.2899999997758
 21
-225.7762733701525
 31
0.0
  0
LINE
  5
1BBB
330
85F
100
AcDbEntity
  8
DETAIL
100
AcDbLine
 10
-303.2899999997758
 20
-225.7762733701525
 30
0.0
 11
-303.2899999997758
 21
-225.7862733701527
 31
0.0
  0
LINE
  5
1BBC
330
85F
100
AcDbEntity
  8
DETAIL
100
AcDbLine
 10
-303.2899999997758
 20
-225.7862733701527
 30
0.0
 11
-304.1999999997793
 21
-225.7862733701527
 31
0.0
  0
LINE
  5
1BBD
330
85F
100
AcDbEntity
  8
DETAIL
100
AcDbLine
 10
-304.1999999997793
 20
-225.7762733701525
 30
0.0
 11
-304.1999999997793
 21
433.1629491399221
 31
0.0
  0
LINE
  5
1BBE
330
85F
100
AcDbEntity
  8
DETAIL
100
AcDbLine
 10
-304.1999999997793
 20
433.1629491399221
 30
0.0
 11
-303.2999999997778
 21
433.1629491399221
 31
0.0
  0
LINE
  5
1BBF
330
85F
100
AcDbEntity
  8
DETAIL
100
AcDbLine
 10
-304.1999999997793
 20
-225.7762733701525
 30
0.0
 11
-303.2999999997778
 21
-225.7762733701525
 31
0.0
  0
LINE
  5
1BC0
330
85F
100
AcDbEntity
  8
DETAIL
100
AcDbLine
 10
-6.799999999777354
 20
600.3895769021942
 30
0.0
 11
-5.999999999781722
 21
600.3895769021942
 31
0.0
  0
LINE
  5
1BC1
330
85F
100
AcDbEntity
  8
DETAIL
100
AcDbLine
 10
-6.799999999777354
 20
600.3895769021942
 30
0.0
 11
-6.799999999777354
 21
608.8307311753824
 31
0.0
  0
SPLINE
  5
1BC2
330
85F
100
AcDbEntity
  8
DETAIL
100
AcDbSpline
210
0.0
220
0.0
230
1.0
 70
    24
 71
     3
 72
    16
 73
    12
 74
     0
 42
0.0000000001
 43
0.0000000001
 40
-0.1108813337714192
 40
-0.1108813337714192
 40
-0.1108813337714192
 40
-0.1108813337714192
 40
-0.0885143052683586
 40
-0.0885143052683586
 40
-0.0624610938086652
 40
-0.0624610938086652
 40
-0.0476654008385401
 40
-0.0476654008385401
 40
-0.0301638483130036
 40
-0.0301638483130036
 40
0.0
 40
0.0
 40
0.0
 40
0.0
 10
-6.799999999777354
 20
609.9067929709945
 30
0.0
 10
-6.799999999777354
 20
609.9108056136947
 30
0.0
 10
-6.799999999777354
 20
609.9168440678822
 30
0.0
 10
-6.799999999777354
 20
609.9377384685526
 30
0.0
 10
-6.799999999777354
 20
609.9532503733885
 30
0.0
 10
-6.799999999777354
 20
609.9928355423708
 30
0.0
 10
-6.799999999770078
 20
610.0102688201667
 30
0.0
 10
-6.799999999770078
 20
610.0586789128174
 30
0.0
 10
-6.799999999777354
 20
610.0911509518214
 30
0.0
 10
-6.799999999777354
 20
610.2027914501327
 30
0.0
 10
-6.799999999777354
 20
610.2933322830637
 30
0.0
 10
-6.799999999777354
 20
610.3895769021942
 30
0.0
  0
LINE
  5
1BC3
330
85F
100
AcDbEntity
  8
DETAIL
100
AcDbLine
 10
-303.2694858513429
 20
-228.0270508600779
 30
0.0
 11
-304.0999999997735
 21
-228.0270508600775
 31
0.0
  0
LINE
  5
1BC4
330
85F
100
AcDbEntity
  8
DETAIL
100
AcDbLine
 10
-304.0999999997735
 20
-228.8270508600776
 30
0.0
 11
-302.6743269803706
 21
-228.8270508600781
 31
0.0
  0
ARC
  5
1BC5
330
85F
100
AcDbEntity
  8
DETAIL
100
AcDbCircle
 10
-304.0999999997735
 20
433.2729491399223
 30
0.0
 40
0.9
100
AcDbArc
 50
96.37937020834982
 51
180.0
  0
LINE
  5
1BC6
330
85F
100
AcDbEntity
  8
DETAIL
100
AcDbLine
 10
-304.1999999997793
 20
433.2729491399223
 30
0.0
 11
-304.9999999997822
 21
433.2729491399223
 31
0.0
  0
LINE
  5
1BC7
330
85F
100
AcDbEntity
  8
DETAIL
100
AcDbLine
 10
-304.1999999997793
 20
433.1729491399222
 30
0.0
 11
-304.1999999997793
 21
433.1629491399221
 31
0.0
  0
LINE
  5
1BC8
330
85F
100
AcDbEntity
  8
DETAIL
100
AcDbLine
 10
-304.1999999997793
 20
-225.7762733701525
 30
0.0
 11
-304.1999999997793
 21
-225.7862733701527
 31
0.0
  0
LINE
  5
1BC9
330
85F
100
AcDbEntity
  8
DETAIL
100
AcDbLine
 10
-304.1999999997793
 20
-226.7762733701525
 30
0.0
 11
-304.1999999997793
 21
-227.9270508600771
 31
0.0
  0
LINE
  5
1BCA
330
85F
100
AcDbEntity
  8
DETAIL
100
AcDbLine
 10
-304.9999999997822
 20
433.2729491399223
 30
0.0
 11
-304.9999999997822
 21
-227.9270508600771
 31
0.0
  0
ARC
  5
1BCB
330
85F
100
AcDbEntity
  8
DETAIL
100
AcDbCircle
 10
-304.0999999997735
 20
-227.927050860078
 30
0.0
 40
0.0999999999996249
100
AcDbArc
 50
180.0
 51
270.0
  0
LINE
  5
1BCC
330
85F
100
AcDbEntity
  8
DETAIL
100
AcDbLine
 10
-304.0999999997735
 20
-228.0270508600775
 30
0.0
 11
-304.0999999997735
 21
-228.8270508600776
 31
0.0
  0
LINE
  5
1BCD
330
85F
100
AcDbEntity
  8
DETAIL
100
AcDbLine
 10
-304.9999999997822
 20
-227.9270508600771
 30
0.0
 11
-304.1999999997793
 21
-227.9270508600771
 31
0.0
  0
ARC
  5
1BCE
330
85F
100
AcDbEntity
  8
DETAIL
100
AcDbCircle
 10
-304.0999999997735
 20
-227.927050860078
 30
0.0
 40
0.8999999999999792
100
AcDbArc
 50
180.0
 51
270.0
  0
LINE
  5
1BCF
330
85F
100
AcDbEntity
  8
DETAIL
100
AcDbLine
 10
-305.8630127016663
 20
420.6677309871819
 30
0.0
 11
-305.8630127016663
 21
417.6677309871823
 31
0.0
  0
LINE
  5
1BD0
330
85F
100
AcDbEntity
  8
DETAIL
100
AcDbLine
 10
-305.8630127016663
 20
417.6677309871823
 30
0.0
 11
-305.0630127016634
 21
417.6677309871819
 31
0.0
  0
LINE
  5
1BD1
330
85F
100
AcDbEntity
  8
DETAIL
100
AcDbLine
 10
-305.0630127016634
 20
417.6677309871819
 30
0.0
 11
-305.0630127016634
 21
420.6677309871819
 31
0.0
  0
LINE
  5
1BD2
330
85F
100
AcDbEntity
  8
DETAIL
100
AcDbLine
 10
-305.0630127016634
 20
420.6677309871819
 30
0.0
 11
-305.8630127016663
 21
420.6677309871819
 31
0.0
  0
LINE
  5
1BD3
330
85F
100
AcDbEntity
  8
DETAIL
100
AcDbLine
 10
-7.317483168284526
 20
627.6104230978208
 30
0.0
 11
-7.317483168284526
 21
624.6104230978207
 31
0.0
  0
LINE
  5
1BD4
330
85F
100
AcDbEntity
  8
DETAIL
100
AcDbLine
 10
-7.317483168284526
 20
624.6104230978207
 30
0.0
 11
-6.517483168288889
 21
624.6104230978207
 31
0.0
  0
LINE
  5
1BD5
330
85F
100
AcDbEntity
  8
DETAIL
100
AcDbLine
 10
-6.517483168288889
 20
624.6104230978207
 30
0.0
 11
-6.517483168288889
 21
627.6104230978208
 31
0.0
  0
LINE
  5
1BD6
330
85F
100
AcDbEntity
  8
DETAIL
100
AcDbLine
 10
-6.517483168288889
 20
627.6104230978208
 30
0.0
 11
-7.317483168284526
 21
627.6104230978208
 31
0.0
  0
LINE
  5
1BD7
330
85F
100
AcDbEntity
  8
DETAIL
100
AcDbLine
 10
-305.8630127016663
 20
437.6677309871824
 30
0.0
 11
-305.8630127016663
 21
420.6677309871819
 31
0.0
  0
LINE
  5
1BD8
330
85F
100
AcDbEntity
  8
DETAIL
100
AcDbLine
 10
-6.517483168288889
 20
624.6104230978207
 30
0.0
 11
-6.517483168288889
 21
610.6104230978208
 31
0.0
  0
LINE
  5
1BD9
330
85F
100
AcDbEntity
  8
DETAIL
100
AcDbLine
 10
-7.317483168284526
 20
624.6104230978207
 30
0.0
 11
-7.317483168284526
 21
610.6104230978208
 31
0.0
  0
LINE
  5
1BDA
330
85F
100
AcDbEntity
  8
DETAIL
100
AcDbLine
 10
-7.367483168287434
 20
610.5238205574424
 30
0.0
 11
-305.4130127016692
 21
438.4471538505886
 31
0.0
  0
LINE
  5
1BDB
330
85F
100
AcDbEntity
  8
DETAIL
100
AcDbLine
 10
-6.967483168293255
 20
609.8310002344151
 30
0.0
 11
-7.76602540355816
 21
609.369961659921
 31
0.0
  0
LINE
  5
1BDC
330
85F
100
AcDbEntity
  8
DETAIL
100
AcDbLine
 10
-304.1133974593981
 20
438.2737266298503
 30
0.0
 11
-305.0130127016678
 21
437.7543335275609
 31
0.0
  0
LINE
  5
1BDD
330
85F
100
AcDbEntity
  8
DETAIL
100
AcDbLine
 10
-305.0630127016634
 20
437.6677309871824
 30
0.0
 11
-305.0630127016634
 21
420.6677309871819
 31
0.0
  0
ARC
  5
1BDE
330
85F
100
AcDbEntity
  8
DETAIL
100
AcDbCircle
 10
-304.9630127016722
 20
437.6677309871824
 30
0.0
 40
0.0999999999998127
100
AcDbArc
 50
120.0000000000005
 51
180.0
  0
LINE
  5
1BDF
330
85F
100
AcDbEntity
  8
DETAIL
100
AcDbLine
 10
-305.4130127016692
 20
438.4471538505886
 30
0.0
 11
-305.0130127016678
 21
437.7543335275609
 31
0.0
  0
ARC
  5
1BE0
330
85F
100
AcDbEntity
  8
DETAIL
100
AcDbCircle
 10
-304.9630127016649
 20
437.6677309871824
 30
0.0
 40
0.8999999999998898
100
AcDbArc
 50
120.0000000000005
 51
180.0
  0
LINE
  5
1BE1
330
85F
100
AcDbEntity
  8
DETAIL
100
AcDbLine
 10
-305.0630127016634
 20
437.6677309871824
 30
0.0
 11
-305.8630127016663
 21
437.6677309871824
 31
0.0
  0
LINE
  5
1BE2
330
85F
100
AcDbEntity
  8
DETAIL
100
AcDbLine
 10
-6.967483168293255
 20
609.8310002344151
 30
0.0
 11
-7.367483168287434
 21
610.5238205574424
 31
0.0
  0
ARC
  5
1BE3
330
85F
100
AcDbEntity
  8
DETAIL
100
AcDbCircle
 10
-7.417483168290344
 20
610.6104230978208
 30
0.0
 40
0.0999999999999988
100
AcDbArc
 50
300.0000000000005
 51
0.0
  0
ARC
  5
1BE4
330
85F
100
AcDbEntity
  8
DETAIL
100
AcDbCircle
 10
-7.417483168290344
 20
610.6104230978208
 30
0.0
 40
0.8999999999999891
100
AcDbArc
 50
313.3215796342507
 51
0.0
  0
ARC
  5
1BE5
330
85F
100
AcDbEntity
  8
DETAIL
100
AcDbCircle
 10
-7.417483168290344
 20
610.6104230978208
 30
0.0
 40
0.9000000000001339
100
AcDbArc
 50
300.0000000000005
 51
305.9675509658917
  0
LINE
  5
1BE6
330
85F
100
AcDbEntity
  8
DETAIL
100
AcDbLine
 10
-7.317483168284526
 20
610.6104230978208
 30
0.0
 11
-6.517483168288889
 21
610.6104230978208
 31
0.0
  0
LINE
  5
1BE7
330
85F
100
AcDbEntity
  8
NOTE
100
AcDbLine
 10
-7.499999999992723
 20
42.58957690219449
 30
0.0
 11
7.500000000007275
 21
42.58957690219449
 31
0.0
  0
LINE
  5
1BE8
330
85F
100
AcDbEntity
  8
NOTE
100
AcDbLine
 10
-13.49999999999272
 20
42.58957690219449
 30
0.0
 11
1.500000000007275
 21
42.58957690219449
 31
0.0
  0
LINE
  5
1BE9
330
85F
100
AcDbEntity
  8
NOTE
100
AcDbLine
 10
-7.499999999992723
 20
450.5895769021945
 30
0.0
 11
7.500000000007275
 21
450.5895769021945
 31
0.0
  0
LINE
  5
1BEA
330
85F
100
AcDbEntity
  8
NOTE
100
AcDbLine
 10
-13.49999999999272
 20
450.5895769021945
 30
0.0
 11
1.500000000007275
 21
450.5895769021945
 31
0.0
  0
LINE
  5
1BEB
330
85F
100
AcDbEntity
  8
NOTE
100
AcDbLine
 10
-7.499999999992723
 20
-487.8104230978054
 30
0.0
 11
7.500000000007275
 21
-487.8104230978054
 31
0.0
  0
LINE
  5
1BEC
330
85F
100
AcDbEntity
  8
NOTE
100
AcDbLine
 10
-13.49999999999272
 20
-487.8104230978054
 30
0.0
 11
1.500000000007275
 21
-487.8104230978054
 31
0.0
  0
LINE
  5
1BED
330
85F
100
AcDbEntity
  8
NOTE
100
AcDbLine
 10
-14.01748316828889
 20
622.6104230978208
 30
0.0
 11
0.982516831711109
 21
622.6104230978208
 31
0.0
  0
MTEXT
  5
1BEE
330
85F
100
AcDbEntity
  8
ETC
100
AcDbMText
 10
175.4333073616071
 20
1107.619530546515
 30
0.0
 40
64.0
 41
0.0
 71
     1
 72
     5
  1
{\Fromans,extfont|c128;\W0.9;AGJS-28BL-4}
  7
ADESK1
 73
     1
 44
1.0
1001
ACAD
1000
MTEXTBEGIN
1070
    73
1070
     1
1070
    44
1040
1.0
1070
    74
1070
     0
1000
MTEXTEND
  0
LINE
  5
1BF6
330
85F
100
AcDbEntity
  8
BASIS
  6
DASHDOT
 62
     6
100
AcDbLine
 10
49.10000000000582
 20
-0.0000000000077307
 30
0.0
 11
-354.9999999997822
 21
-0.0000000000077307
 31
0.0
  0
LINE
  5
1BF7
330
85F
100
AcDbEntity
  8
ARRANGE
  6
Continuous
 62
     1
100
AcDbLine
 10
-16.68411756440764
 20
-16.684117564404
 30
0.0
 11
16.68411756440036
 21
16.68411756440309
 31
0.0
  0
LINE
  5
1BF8
330
85F
100
AcDbEntity
  8
ARRANGE
  6
Continuous
 62
     1
100
AcDbLine
 10
-16.68411756440764
 20
16.68411756440309
 30
0.0
 11
16.68411756440036
 21
-16.684117564404
 31
0.0
  0
CIRCLE
  5
1BF9
330
85F
100
AcDbEntity
  8
ARRANGE
100
AcDbCircle
 10
0.0
 20
0.0
 30
0.0
 40
15.0
  0
LINE
  5
1BFA
330
85F
100
AcDbEntity
  8
NOTE
100
AcDbLine
 10
0.000000000007276
 20
443.0895769021948
 30
0.0
 11
0.000000000007276
 21
458.0895769021949
 31
0.0
  0
LINE
  5
1BFB
330
85F
100
AcDbEntity
  8
NOTE
100
AcDbLine
 10
-5.999999999781722
 20
443.0895769021948
 30
0.0
 11
-5.999999999781722
 21
458.0895769021949
 31
0.0
  0
LINE
  5
1BFC
330
85F
100
AcDbEntity
  8
NOTE
100
AcDbLine
 10
0.000000000007276
 20
35.08957690219495
 30
0.0
 11
0.000000000007276
 21
50.08957690219496
 31
0.0
  0
LINE
  5
1BFD
330
85F
100
AcDbEntity
  8
NOTE
100
AcDbLine
 10
-5.999999999781722
 20
35.08957690219495
 30
0.0
 11
-5.999999999781722
 21
50.08957690219496
 31
0.0
  0
LINE
  5
1BFE
330
85F
100
AcDbEntity
  8
NOTE
100
AcDbLine
 10
1.500000000007275
 20
-495.3104230978055
 30
0.0
 11
1.500000000007275
 21
-480.3104230978056
 31
0.0
  0
LINE
  5
1BFF
330
85F
100
AcDbEntity
  8
NOTE
100
AcDbLine
 10
-5.999999999781722
 20
-495.3104230978055
 30
0.0
 11
-5.999999999781722
 21
-480.3104230978056
 31
0.0
  0
LINE
  5
1C00
330
85F
100
AcDbEntity
  8
OUTLINE
100
AcDbLine
 10
-301.2220133251108
 20
-230.7926891061252
 30
0.0
 11
-301.210749030361
 21
-230.7943614678702
 31
0.0
  0
LINE
  5
1C01
330
85F
100
AcDbEntity
  8
OUTLINE
100
AcDbLine
 10
-12.79294320647023
 20
-618.4794921309617
 30
0.0
 11
-12.95597334978811
 21
-619.5775916258623
 31
0.0
  0
LINE
  5
1C02
330
85F
100
AcDbEntity
  8
OUTLINE
100
AcDbLine
 10
-12.95597334978811
 20
-619.5775916258623
 30
0.0
 11
-301.2220133251108
 21
-230.7926891061252
 31
0.0
  0
LINE
  5
1C03
330
85F
100
AcDbEntity
  8
OUTLINE
100
AcDbLine
 10
-303.3999999999946
 20
433.1729491399213
 30
0.0
 11
-303.3999999999946
 21
433.1629491399211
 31
0.0
  0
LINE
  5
1C04
330
85F
100
AcDbEntity
  8
OUTLINE
100
AcDbLine
 10
0.000000000007276
 20
-627.6104230978067
 30
0.0
 11
0.000000000007276
 21
-624.6104230978065
 31
0.0
  0
LINE
  5
1C05
330
85F
100
AcDbEntity
  8
OUTLINE
100
AcDbLine
 10
0.000000000007276
 20
-624.6104230978065
 30
0.0
 11
-0.7999999999883585
 21
-624.6104230978065
 31
0.0
  0
LINE
  5
1C06
330
85F
100
AcDbEntity
  8
OUTLINE
100
AcDbLine
 10
-0.7999999999883585
 20
-624.6104230978065
 30
0.0
 11
-0.7999999999883585
 21
-627.6104230978067
 31
0.0
  0
LINE
  5
1C07
330
85F
100
AcDbEntity
  8
OUTLINE
100
AcDbLine
 10
-0.7999999999883585
 20
-627.6104230978067
 30
0.0
 11
0.000000000007276
 21
-627.6104230978067
 31
0.0
  0
LINE
  5
1C08
330
85F
100
AcDbEntity
  8
OUTLINE
100
AcDbLine
 10
-0.7999999999883585
 20
-476.6104230978067
 30
0.0
 11
-0.7999999999883585
 21
-479.6104230978066
 31
0.0
  0
LINE
  5
1C09
330
85F
100
AcDbEntity
  8
OUTLINE
100
AcDbLine
 10
-0.7999999999956346
 20
-473.6104230978066
 30
0.0
 11
-0.7999999999956346
 21
-476.6104230978067
 31
0.0
  0
LINE
  5
1C0A
330
85F
100
AcDbEntity
  8
OUTLINE
100
AcDbLine
 10
-0.7999999999956346
 20
-461.6104230978061
 30
0.0
 11
-0.7999999999956346
 21
-464.6104230978061
 31
0.0
  0
LINE
  5
1C0B
330
85F
100
AcDbEntity
  8
OUTLINE
100
AcDbLine
 10
-0.7999999999883585
 20
-458.6104230978057
 30
0.0
 11
-0.7999999999883585
 21
-461.6104230978061
 31
0.0
  0
LINE
  5
1C0C
330
85F
100
AcDbEntity
  8
OUTLINE
100
AcDbLine
 10
-0.7999999999883585
 20
-68.61042309780621
 30
0.0
 11
-0.7999999999883585
 21
-71.61042309780623
 31
0.0
  0
LINE
  5
1C0D
330
85F
100
AcDbEntity
  8
OUTLINE
100
AcDbLine
 10
-0.7999999999956346
 20
-65.61042309780669
 30
0.0
 11
-0.7999999999956346
 21
-68.61042309780621
 31
0.0
  0
LINE
  5
1C0E
330
85F
100
AcDbEntity
  8
OUTLINE
100
AcDbLine
 10
-0.7999999999956346
 20
-53.61042309780622
 30
0.0
 11
-0.7999999999956346
 21
-56.61042309780668
 31
0.0
  0
LINE
  5
1C0F
330
85F
100
AcDbEntity
  8
OUTLINE
100
AcDbLine
 10
-0.7999999999883585
 20
-50.61042309780622
 30
0.0
 11
-0.7999999999883585
 21
-53.61042309780622
 31
0.0
  0
LINE
  5
1C10
330
85F
100
AcDbEntity
  8
OUTLINE
100
AcDbLine
 10
-0.7999999999883585
 20
525.0895769021931
 30
0.0
 11
-0.7999999999883585
 21
522.089576902194
 31
0.0
  0
LINE
  5
1C11
330
85F
100
AcDbEntity
  8
OUTLINE
100
AcDbLine
 10
-0.7999999999956346
 20
528.0895769021931
 30
0.0
 11
-0.7999999999956346
 21
525.0895769021931
 31
0.0
  0
LINE
  5
1C12
330
85F
100
AcDbEntity
  8
OUTLINE
100
AcDbLine
 10
-0.7999999999956346
 20
558.3895769021942
 30
0.0
 11
-0.7999999999956346
 21
555.3895769021941
 31
0.0
  0
LINE
  5
1C13
330
85F
100
AcDbEntity
  8
OUTLINE
100
AcDbLine
 10
-0.7999999999883585
 20
561.3895769021942
 30
0.0
 11
-0.7999999999883585
 21
558.3895769021942
 31
0.0
  0
LINE
  5
1C14
330
85F
100
AcDbEntity
  8
OUTLINE
100
AcDbLine
 10
-0.7999999999883585
 20
596.3895769021942
 30
0.0
 11
-0.7999999999883585
 21
593.3895769021942
 31
0.0
  0
LINE
  5
1C15
330
85F
100
AcDbEntity
  8
OUTLINE
100
AcDbLine
 10
-0.7999999999883585
 20
593.3895769021942
 30
0.0
 11
0.000000000007276
 21
593.3895769021942
 31
0.0
  0
LINE
  5
1C16
330
85F
100
AcDbEntity
  8
OUTLINE
100
AcDbLine
 10
0.000000000007276
 20
593.3895769021942
 30
0.0
 11
0.000000000007276
 21
596.3895769021942
 31
0.0
  0
LINE
  5
1C17
330
85F
100
AcDbEntity
  8
OUTLINE
100
AcDbLine
 10
0.000000000007276
 20
596.3895769021942
 30
0.0
 11
-0.7999999999883585
 21
596.3895769021942
 31
0.0
  0
LINE
  5
1C18
330
85F
100
AcDbEntity
  8
OUTLINE
100
AcDbLine
 10
0.000000000007276
 20
561.3895769021942
 30
0.0
 11
-0.7999999999883585
 21
561.3895769021942
 31
0.0
  0
LINE
  5
1C19
330
85F
100
AcDbEntity
  8
OUTLINE
100
AcDbLine
 10
0.000000000007276
 20
558.3895769021942
 30
0.0
 11
0.000000000007276
 21
561.3895769021942
 31
0.0
  0
LINE
  5
1C1A
330
85F
100
AcDbEntity
  8
OUTLINE
100
AcDbLine
 10
-0.7999999999883585
 20
558.3895769021942
 30
0.0
 11
0.000000000007276
 21
558.3895769021942
 31
0.0
  0
LINE
  5
1C1B
330
85F
100
AcDbEntity
  8
OUTLINE
100
AcDbLine
 10
-0.7999999999956346
 20
555.3895769021941
 30
0.0
 11
0.0
 21
555.3895769021941
 31
0.0
  0
LINE
  5
1C1C
330
85F
100
AcDbEntity
  8
OUTLINE
100
AcDbLine
 10
0.0
 20
555.3895769021941
 30
0.0
 11
0.0
 21
558.3895769021942
 31
0.0
  0
LINE
  5
1C1D
330
85F
100
AcDbEntity
  8
OUTLINE
100
AcDbLine
 10
0.0
 20
528.0895769021931
 30
0.0
 11
-0.7999999999956346
 21
528.0895769021931
 31
0.0
  0
LINE
  5
1C1E
330
85F
100
AcDbEntity
  8
OUTLINE
100
AcDbLine
 10
0.0
 20
525.0895769021931
 30
0.0
 11
0.0
 21
528.0895769021931
 31
0.0
  0
LINE
  5
1C1F
330
85F
100
AcDbEntity
  8
OUTLINE
100
AcDbLine
 10
0.000000000007276
 20
525.0895769021931
 30
0.0
 11
-0.7999999999883585
 21
525.0895769021931
 31
0.0
  0
LINE
  5
1C20
330
85F
100
AcDbEntity
  8
OUTLINE
100
AcDbLine
 10
-0.7999999999883585
 20
522.089576902194
 30
0.0
 11
0.000000000007276
 21
522.089576902194
 31
0.0
  0
LINE
  5
1C21
330
85F
100
AcDbEntity
  8
OUTLINE
100
AcDbLine
 10
0.000000000007276
 20
522.089576902194
 30
0.0
 11
0.000000000007276
 21
525.0895769021931
 31
0.0
  0
LINE
  5
1C22
330
85F
100
AcDbEntity
  8
OUTLINE
100
AcDbLine
 10
0.000000000007276
 20
-50.61042309780622
 30
0.0
 11
-0.7999999999883585
 21
-50.61042309780622
 31
0.0
  0
LINE
  5
1C23
330
85F
100
AcDbEntity
  8
OUTLINE
100
AcDbLine
 10
0.000000000007276
 20
-53.61042309780622
 30
0.0
 11
0.000000000007276
 21
-50.61042309780622
 31
0.0
  0
LINE
  5
1C24
330
85F
100
AcDbEntity
  8
OUTLINE
100
AcDbLine
 10
-0.7999999999883585
 20
-53.61042309780622
 30
0.0
 11
0.000000000007276
 21
-53.61042309780622
 31
0.0
  0
LINE
  5
1C25
330
85F
100
AcDbEntity
  8
OUTLINE
100
AcDbLine
 10
-0.7999999999956346
 20
-56.61042309780668
 30
0.0
 11
0.0
 21
-56.61042309780668
 31
0.0
  0
LINE
  5
1C26
330
85F
100
AcDbEntity
  8
OUTLINE
100
AcDbLine
 10
0.0
 20
-56.61042309780668
 30
0.0
 11
0.0
 21
-53.61042309780622
 31
0.0
  0
LINE
  5
1C27
330
85F
100
AcDbEntity
  8
OUTLINE
100
AcDbLine
 10
0.0
 20
-65.61042309780669
 30
0.0
 11
-0.7999999999956346
 21
-65.61042309780669
 31
0.0
  0
LINE
  5
1C28
330
85F
100
AcDbEntity
  8
OUTLINE
100
AcDbLine
 10
0.0
 20
-68.61042309780621
 30
0.0
 11
0.0
 21
-65.61042309780669
 31
0.0
  0
LINE
  5
1C29
330
85F
100
AcDbEntity
  8
OUTLINE
100
AcDbLine
 10
0.000000000007276
 20
-68.61042309780621
 30
0.0
 11
-0.7999999999883585
 21
-68.61042309780621
 31
0.0
  0
LINE
  5
1C2A
330
85F
100
AcDbEntity
  8
OUTLINE
100
AcDbLine
 10
-0.7999999999883585
 20
-71.61042309780623
 30
0.0
 11
0.000000000007276
 21
-71.61042309780623
 31
0.0
  0
LINE
  5
1C2B
330
85F
100
AcDbEntity
  8
OUTLINE
100
AcDbLine
 10
0.000000000007276
 20
-71.61042309780623
 30
0.0
 11
0.000000000007276
 21
-68.61042309780621
 31
0.0
  0
LINE
  5
1C2C
330
85F
100
AcDbEntity
  8
OUTLINE
100
AcDbLine
 10
0.000000000007276
 20
-458.6104230978057
 30
0.0
 11
-0.7999999999883585
 21
-458.6104230978057
 31
0.0
  0
LINE
  5
1C2D
330
85F
100
AcDbEntity
  8
OUTLINE
100
AcDbLine
 10
0.000000000007276
 20
-461.6104230978061
 30
0.0
 11
0.000000000007276
 21
-458.6104230978057
 31
0.0
  0
LINE
  5
1C2E
330
85F
100
AcDbEntity
  8
OUTLINE
100
AcDbLine
 10
-0.7999999999883585
 20
-461.6104230978061
 30
0.0
 11
0.000000000007276
 21
-461.6104230978061
 31
0.0
  0
LINE
  5
1C2F
330
85F
100
AcDbEntity
  8
OUTLINE
100
AcDbLine
 10
-0.7999999999956346
 20
-464.6104230978061
 30
0.0
 11
0.0
 21
-464.6104230978061
 31
0.0
  0
LINE
  5
1C30
330
85F
100
AcDbEntity
  8
OUTLINE
100
AcDbLine
 10
0.0
 20
-464.6104230978061
 30
0.0
 11
0.0
 21
-461.6104230978061
 31
0.0
  0
LINE
  5
1C31
330
85F
100
AcDbEntity
  8
OUTLINE
100
AcDbLine
 10
0.0
 20
-473.6104230978066
 30
0.0
 11
-0.7999999999956346
 21
-473.6104230978066
 31
0.0
  0
LINE
  5
1C32
330
85F
100
AcDbEntity
  8
OUTLINE
100
AcDbLine
 10
0.0
 20
-476.6104230978067
 30
0.0
 11
0.0
 21
-473.6104230978066
 31
0.0
  0
LINE
  5
1C33
330
85F
100
AcDbEntity
  8
OUTLINE
100
AcDbLine
 10
0.000000000007276
 20
-476.6104230978067
 30
0.0
 11
-0.7999999999883585
 21
-476.6104230978067
 31
0.0
  0
LINE
  5
1C34
330
85F
100
AcDbEntity
  8
OUTLINE
100
AcDbLine
 10
-0.7999999999883585
 20
-479.6104230978066
 30
0.0
 11
0.000000000007276
 21
-479.6104230978066
 31
0.0
  0
LINE
  5
1C35
330
85F
100
AcDbEntity
  8
OUTLINE
100
AcDbLine
 10
0.000000000007276
 20
-479.6104230978066
 30
0.0
 11
0.000000000007276
 21
-476.6104230978067
 31
0.0
  0
LINE
  5
1C36
330
85F
100
AcDbEntity
  8
OUTLINE
100
AcDbLine
 10
-0.7999999999883585
 20
-624.6104230978065
 30
0.0
 11
-0.7999999999883585
 21
-479.6104230978066
 31
0.0
  0
LINE
  5
1C37
330
85F
100
AcDbEntity
  8
OUTLINE
100
AcDbLine
 10
-0.7999999999883585
 20
-458.6104230978057
 30
0.0
 11
-0.7999999999883585
 21
-71.61042309780623
 31
0.0
  0
LINE
  5
1C38
330
85F
100
AcDbEntity
  8
OUTLINE
100
AcDbLine
 10
-0.7999999999883585
 20
-50.61042309780622
 30
0.0
 11
-0.7999999999883585
 21
522.089576902194
 31
0.0
  0
LINE
  5
1C39
330
85F
100
AcDbEntity
  8
OUTLINE
100
AcDbLine
 10
-0.7999999999883585
 20
561.3895769021942
 30
0.0
 11
-0.7999999999883585
 21
593.3895769021942
 31
0.0
  0
LINE
  5
1C3A
330
85F
100
AcDbEntity
  8
OUTLINE
100
AcDbLine
 10
0.000000000007276
 20
561.3895769021942
 30
0.0
 11
0.000000000007276
 21
593.3895769021942
 31
0.0
  0
LINE
  5
1C3B
330
85F
100
AcDbEntity
  8
OUTLINE
100
AcDbLine
 10
0.000000000007276
 20
-50.61042309780622
 30
0.0
 11
0.000000000007276
 21
522.089576902194
 31
0.0
  0
LINE
  5
1C3C
330
85F
100
AcDbEntity
  8
OUTLINE
100
AcDbLine
 10
0.000000000007276
 20
-458.6104230978057
 30
0.0
 11
0.000000000007276
 21
-71.61042309780623
 31
0.0
  0
LINE
  5
1C3D
330
85F
100
AcDbEntity
  8
OUTLINE
100
AcDbLine
 10
0.000000000007276
 20
-624.6104230978065
 30
0.0
 11
0.000000000007276
 21
-479.6104230978066
 31
0.0
  0
LINE
  5
1C3E
330
85F
100
AcDbEntity
  8
OUTLINE
100
AcDbLine
 10
-0.7999999999956346
 20
-473.6104230978066
 30
0.0
 11
-0.7999999999956346
 21
-464.6104230978061
 31
0.0
  0
LINE
  5
1C3F
330
85F
100
AcDbEntity
  8
OUTLINE
100
AcDbLine
 10
-0.7999999999956346
 20
-65.61042309780669
 30
0.0
 11
-0.7999999999956346
 21
-56.61042309780668
 31
0.0
  0
LINE
  5
1C40
330
85F
100
AcDbEntity
  8
OUTLINE
100
AcDbLine
 10
-0.7999999999956346
 20
528.0895769021931
 30
0.0
 11
-0.7999999999956346
 21
555.3895769021941
 31
0.0
  0
LINE
  5
1C41
330
85F
100
AcDbEntity
  8
OUTLINE
100
AcDbLine
 10
0.0
 20
555.3895769021941
 30
0.0
 11
0.0
 21
528.0895769021931
 31
0.0
  0
LINE
  5
1C42
330
85F
100
AcDbEntity
  8
OUTLINE
100
AcDbLine
 10
0.0
 20
-56.61042309780668
 30
0.0
 11
0.0
 21
-65.61042309780669
 31
0.0
  0
LINE
  5
1C43
330
85F
100
AcDbEntity
  8
OUTLINE
100
AcDbLine
 10
0.0
 20
-464.6104230978061
 30
0.0
 11
0.0
 21
-473.6104230978066
 31
0.0
  0
LINE
  5
1C44
330
85F
100
AcDbEntity
  8
OUTLINE
100
AcDbLine
 10
-12.95597334978811
 20
-619.5775916258623
 30
0.0
 11
-7.0
 21
-627.6104230978067
 31
0.0
  0
LINE
  5
1C45
330
85F
100
AcDbEntity
  8
OUTLINE
100
AcDbLine
 10
-7.0
 20
-627.6104230978067
 30
0.0
 11
-6.799999999995633
 21
-627.6104230978067
 31
0.0
  0
LINE
  5
1C46
330
85F
100
AcDbEntity
  8
OUTLINE
100
AcDbLine
 10
-6.0
 20
-627.6104230978067
 30
0.0
 11
-0.8999999999941792
 21
-627.6104230978067
 31
0.0
  0
LINE
  5
1C47
330
85F
100
AcDbEntity
  8
OUTLINE
100
AcDbLine
 10
-304.1999999999975
 20
-226.7762733701534
 30
0.0
 11
-303.2726062880107
 21
-228.0270508600788
 31
0.0
  0
LINE
  5
1C48
330
85F
100
AcDbEntity
  8
OUTLINE
100
AcDbLine
 10
-302.6794432549654
 20
-228.827050860079
 30
0.0
 11
-301.2220133251108
 21
-230.7926891061252
 31
0.0
  0
LINE
  5
1C49
330
85F
100
AcDbEntity
  8
OUTLINE
100
AcDbLine
 10
-0.8999999999941792
 20
-627.6104230978067
 30
0.0
 11
-0.8999999999941792
 21
596.3895769021942
 31
0.0
  0
LINE
  5
1C4A
330
85F
100
AcDbEntity
  8
OUTLINE
100
AcDbLine
 10
-0.8000000000029102
 20
-627.6104230978067
 30
0.0
 11
-0.8999999999941792
 21
-627.6104230978067
 31
0.0
  0
LINE
  5
1C4B
330
85F
100
AcDbEntity
  8
OUTLINE
100
AcDbLine
 10
-0.8999999999941792
 20
596.3895769021942
 30
0.0
 11
-6.0
 21
596.3895769021942
 31
0.0
  0
LINE
  5
1C4C
330
85F
100
AcDbEntity
  8
OUTLINE
100
AcDbLine
 10
-6.0
 20
600.3895769021932
 30
0.0
 11
-6.0
 21
609.3503464176533
 31
0.0
  0
LINE
  5
1C4D
330
85F
100
AcDbEntity
  8
OUTLINE
100
AcDbLine
 10
-0.8000000000029102
 20
596.3895769021942
 30
0.0
 11
-0.8999999999941792
 21
596.3895769021942
 31
0.0
  0
LINE
  5
1C4E
330
85F
100
AcDbEntity
  8
OUTLINE
100
AcDbLine
 10
-6.0
 20
609.3503464176533
 30
0.0
 11
-6.800000000002909
 21
608.8884662023006
 31
0.0
  0
LINE
  5
1C4F
330
85F
100
AcDbEntity
  8
OUTLINE
100
AcDbLine
 10
-6.888888888890504
 20
608.8371461783731
 30
0.0
 11
-6.899999999994179
 21
608.8307311753818
 31
0.0
  0
SPLINE
  5
1C50
330
85F
100
AcDbEntity
  8
OUTLINE
100
AcDbSpline
210
0.0
220
0.0
230
1.0
 70
     8
 71
     3
 72
     8
 73
     4
 74
     0
 42
0.0000000001
 43
0.0000000001
 40
0.0
 40
0.0
 40
0.0
 40
0.0
 40
1.570796326795043
 40
1.570796326795043
 40
1.570796326795043
 40
1.570796326795043
 10
-6.0
 20
609.3503464176533
 30
0.0
 10
-5.876179938779387
 20
609.4822939421368
 30
0.0
 10
-5.75
 20
609.6101540387876
 30
0.0
 10
-5.599999999998544
 20
609.696756579166
 30
0.0
  0
LINE
  5
1C51
330
85F
100
AcDbEntity
  8
OUTLINE
100
AcDbLine
 10
-303.3000000000034
 20
433.1729491399213
 30
0.0
 11
-303.3000000000034
 21
433.1629491399211
 31
0.0
  0
LINE
  5
1C52
330
85F
100
AcDbEntity
  8
OUTLINE
100
AcDbLine
 10
-5.599999999991268
 20
609.6967565791668
 30
0.0
 11
-6.799999999988356
 21
609.0039362561395
 31
0.0
  0
LINE
  5
1C53
330
85F
100
AcDbEntity
  8
OUTLINE
100
AcDbLine
 10
-6.888888888883228
 20
608.9526162322112
 30
0.0
 11
-7.366025403782258
 21
608.6771413368965
 31
0.0
  0
LINE
  5
1C54
330
85F
100
AcDbEntity
  8
OUTLINE
100
AcDbLine
 10
-5.599999999991268
 20
609.6967565791668
 30
0.0
 11
-5.999999999992723
 21
610.3895769021942
 31
0.0
  0
LINE
  5
1C55
330
85F
100
AcDbEntity
  8
OUTLINE
100
AcDbLine
 10
-5.999999999992723
 20
610.3895769021942
 30
0.0
 11
-6.799999999988356
 21
609.9276966868432
 31
0.0
  0
LINE
  5
1C56
330
85F
100
AcDbEntity
  8
OUTLINE
100
AcDbLine
 10
-6.888888888883228
 20
609.876376662914
 30
0.0
 11
-6.967483168504258
 21
609.8310002344174
 31
0.0
  0
LINE
  5
1C57
330
85F
100
AcDbEntity
  8
OUTLINE
100
AcDbLine
 10
-9.999999999781721
 20
-136.1104230978067
 30
0.0
 11
-12.99999999978172
 21
-139.1104230978067
 31
0.0
  0
LINE
  5
1C58
330
85F
100
AcDbEntity
  8
OUTLINE
100
AcDbLine
 10
-12.99999999978172
 20
-154.6104230978067
 30
0.0
 11
-9.999999999781721
 21
-157.6104230978067
 31
0.0
  0
LINE
  5
1C59
330
85F
100
AcDbEntity
  8
OUTLINE
100
AcDbLine
 10
-16.99999999978172
 20
-139.1104230978067
 30
0.0
 11
-12.99999999978172
 21
-139.1104230978067
 31
0.0
  0
LINE
  5
1C5A
330
85F
100
AcDbEntity
  8
OUTLINE
100
AcDbLine
 10
-12.99999999978172
 20
-154.6104230978067
 30
0.0
 11
-16.99999999978172
 21
-154.6104230978067
 31
0.0
  0
LINE
  5
1C5B
330
85F
100
AcDbEntity
  8
OUTLINE
100
AcDbLine
 10
-16.99999999978172
 20
-154.6104230978067
 30
0.0
 11
-16.99999999978172
 21
-139.1104230978067
 31
0.0
  0
LINE
  5
1C5C
330
85F
100
AcDbEntity
  8
OUTLINE
100
AcDbLine
 10
-9.999999999781721
 20
-136.1104230978067
 30
0.0
 11
-9.999999999781721
 21
-120.1104230978067
 31
0.0
  0
LINE
  5
1C5D
330
85F
100
AcDbEntity
  8
OUTLINE
100
AcDbLine
 10
-9.999999999781721
 20
-120.1104230978067
 30
0.0
 11
-6.8999999997759
 21
-120.1104230978067
 31
0.0
  0
LINE
  5
1C5E
330
85F
100
AcDbEntity
  8
OUTLINE
100
AcDbLine
 10
-6.8999999997759
 20
-194.1104230978067
 30
0.0
 11
-9.999999999781721
 21
-194.1104230978067
 31
0.0
  0
LINE
  5
1C5F
330
85F
100
AcDbEntity
  8
OUTLINE
100
AcDbLine
 10
-9.999999999781721
 20
-194.1104230978067
 30
0.0
 11
-9.999999999781721
 21
-157.6104230978067
 31
0.0
  0
LINE
  5
1C60
330
85F
100
AcDbEntity
  8
OUTLINE
100
AcDbLine
 10
-5.999999999781722
 20
-120.1104230978067
 30
0.0
 11
-6.8999999997759
 21
-120.1104230978067
 31
0.0
  0
LINE
  5
1C61
330
85F
100
AcDbEntity
  8
OUTLINE
100
AcDbLine
 10
-6.8999999997759
 20
-194.1104230978067
 30
0.0
 11
-5.999999999781722
 21
-194.1104230978067
 31
0.0
  0
LINE
  5
1C62
330
85F
100
AcDbEntity
  8
OUTLINE
100
AcDbLine
 10
-6.8999999997759
 20
-120.1104230978067
 30
0.0
 11
-6.8999999997759
 21
608.830731175381
 31
0.0
  0
LINE
  5
1C63
330
85F
100
AcDbEntity
  8
OUTLINE
100
AcDbLine
 10
-6.8999999997759
 20
-626.4006620825321
 30
0.0
 11
-6.8999999997759
 21
-194.1104230978067
 31
0.0
  0
LINE
  5
1C64
330
85F
100
AcDbEntity
  8
OUTLINE
100
AcDbLine
 10
-5.999999999781722
 20
600.3895769021932
 30
0.0
 11
-5.999999999781722
 21
-120.1104230978067
 31
0.0
  0
SPLINE
  5
1C65
330
85F
100
AcDbEntity
  8
OUTLINE
100
AcDbSpline
210
0.0
220
0.0
230
1.0
 70
     8
 71
     3
 72
     8
 73
     4
 74
     0
 42
0.0000000001
 43
0.0000000001
 40
0.0
 40
0.0
 40
0.0
 40
0.0
 40
1.45945531245407
 40
1.45945531245407
 40
1.45945531245407
 40
1.45945531245407
 10
-6.799999999777354
 20
610.3895769021931
 30
0.0
 10
-6.799999999777354
 20
610.2286489251269
 30
0.0
 10
-6.840541610319632
 20
610.0677209480603
 30
0.0
 10
-6.888888888672227
 20
609.906792970994
 30
0.0
  0
SPLINE
  5
1C66
330
85F
100
AcDbEntity
  8
OUTLINE
100
AcDbSpline
210
0.0
220
0.0
230
1.0
 70
     8
 71
     3
 72
    11
 73
     7
 74
     0
 42
0.0000000001
 43
0.0000000001
 40
0.0
 40
0.0
 40
0.0
 40
0.0
 40
1.437607986812995
 40
1.437607986812995
 40
1.437607986812995
 40
1.570796326794897
 40
1.570796326794897
 40
1.570796326794897
 40
1.570796326794897
 10
-6.8999999997759
 20
-626.4006620825321
 30
0.0
 10
-6.468717603733238
 20
-626.7697237421137
 30
0.0
 10
-6.065242925658822
 20
-627.1387854016946
 30
0.0
 10
-6.007970816630402
 20
-627.5078470612766
 30
0.0
 10
-6.0026647963532
 20
-627.542039073453
 30
0.0
 10
-5.999999999781722
 20
-627.5762310856297
 30
0.0
 10
-5.999999999781722
 20
-627.6104230978067
 30
0.0
  0
LINE
  5
1C67
330
85F
100
AcDbEntity
  8
OUTLINE
100
AcDbLine
 10
-5.999999999781722
 20
-194.1104230978067
 30
0.0
 11
-5.999999999781722
 21
-627.6104230978067
 31
0.0
  0
LINE
  5
1C68
330
85F
100
AcDbEntity
  8
OUTLINE
100
AcDbLine
 10
-5.999999999781722
 20
-627.6104230978067
 30
0.0
 11
-6.799999999777354
 21
-627.6104230978067
 31
0.0
  0
SPLINE
  5
1C69
330
85F
100
AcDbEntity
  8
OUTLINE
100
AcDbSpline
210
0.0
220
0.0
230
1.0
 70
     8
 71
     3
 72
     8
 73
     4
 74
     0
 42
0.0000000001
 43
0.0000000001
 40
0.0
 40
0.0
 40
0.0
 40
0.0
 40
1.570796326794897
 40
1.570796326794897
 40
1.570796326794897
 40
1.570796326794897
 10
-6.8999999997759
 20
-626.4006620825321
 30
0.0
 10
-6.847640122214214
 20
-626.8039157542902
 30
0.0
 10
-6.799999999777354
 20
-627.2071694260485
 30
0.0
 10
-6.799999999777354
 20
-627.6104230978067
 30
0.0
  0
LINE
  5
1C6A
330
85F
100
AcDbEntity
  8
OUTLINE
100
AcDbLine
 10
-6.8999999997759
 20
608.830731175381
 30
0.0
 11
-7.316025403561069
 21
608.5905387965173
 31
0.0
  0
LINE
  5
1C6B
330
85F
100
AcDbEntity
  8
OUTLINE
100
AcDbLine
 10
-7.316025403561069
 20
608.5905387965173
 30
0.0
 11
-303.663397459401
 21
437.4943037664411
 31
0.0
  0
LINE
  5
1C6C
330
85F
100
AcDbEntity
  8
OUTLINE
100
AcDbLine
 10
-303.663397459401
 20
437.4943037664411
 30
0.0
 11
-303.6583974593964
 21
437.4856435124033
 31
0.0
  0
LINE
  5
1C6D
330
85F
100
AcDbEntity
  8
OUTLINE
100
AcDbLine
 10
-303.6583974593964
 20
437.4856435124033
 30
0.0
 11
-304.1999999997793
 21
437.1729491399213
 31
0.0
  0
LINE
  5
1C6E
330
85F
100
AcDbEntity
  8
OUTLINE
100
AcDbLine
 10
-6.8999999997759
 20
608.830731175381
 30
0.0
 11
-6.799999999777354
 21
608.830731175381
 31
0.0
  0
LINE
  5
1C6F
330
85F
100
AcDbEntity
  8
OUTLINE
100
AcDbLine
 10
-6.888888888672227
 20
608.830731175381
 30
0.0
 11
-6.888888888672227
 21
609.906792970994
 31
0.0
  0
LINE
  5
1C70
330
85F
100
AcDbEntity
  8
OUTLINE
100
AcDbLine
 10
-304.1133974593981
 20
438.2737266298459
 30
0.0
 11
-7.76602540355816
 21
609.3699616599218
 31
0.0
  0
LINE
  5
1C71
330
85F
100
AcDbEntity
  8
OUTLINE
100
AcDbLine
 10
-7.76602540355816
 20
609.3699616599218
 30
0.0
 11
-7.316025403561069
 21
608.5905387965173
 31
0.0
  0
LINE
  5
1C72
330
85F
100
AcDbEntity
  8
OUTLINE
100
AcDbLine
 10
-304.1133974593981
 20
438.2737266298468
 30
0.0
 11
-303.663397459401
 21
437.4943037664411
 31
0.0
  0
LINE
  5
1C73
330
85F
100
AcDbEntity
  8
OUTLINE
100
AcDbLine
 10
-6.799999999777354
 20
608.830731175381
 30
0.0
 11
-6.799999999777354
 21
609.906792970994
 31
0.0
  0
SPLINE
  5
1C74
330
85F
100
AcDbEntity
  8
OUTLINE
100
AcDbSpline
210
0.0
220
0.0
230
1.0
 70
    24
 71
     3
 72
    10
 73
     6
 74
     0
 42
0.0000000001
 43
0.0000000001
 40
-0.08
 40
-0.08
 40
-0.08
 40
-0.08
 40
-0.04
 40
-0.04
 40
0.0
 40
0.0
 40
0.0
 40
0.0
 10
-6.888888888672227
 20
609.906792970994
 30
0.0
 10
-6.874074073857627
 20
609.906792970994
 30
0.0
 10
-6.859259259035752
 20
609.906792970994
 30
0.0
 10
-6.829629629406553
 20
609.906792970994
 30
0.0
 10
-6.814814814591954
 20
609.906792970994
 30
0.0
 10
-6.799999999777354
 20
609.906792970994
 30
0.0
  0
LINE
  5
1C75
330
85F
100
AcDbEntity
  8
OUTLINE
100
AcDbLine
 10
-304.1999999997793
 20
433.1729491399213
 30
0.0
 11
-304.1999999997793
 21
437.1729491399213
 31
0.0
  0
LINE
  5
1C76
330
85F
100
AcDbEntity
  8
OUTLINE
100
AcDbLine
 10
-304.1999999997793
 20
-226.7762733701534
 30
0.0
 11
-304.1999999997793
 21
-225.7862733701536
 31
0.0
  0
LINE
  5
1C77
330
85F
100
AcDbEntity
  8
OUTLINE
100
AcDbLine
 10
-6.8999999997759
 20
-626.4006620825321
 30
0.0
 11
-304.1999999997793
 21
-226.7762733701534
 31
0.0
  0
LINE
  5
1C78
330
85F
100
AcDbEntity
  8
OUTLINE
100
AcDbLine
 10
-304.1999999997793
 20
433.1729491399213
 30
0.0
 11
-303.2899999997758
 21
433.1729491399213
 31
0.0
  0
LINE
  5
1C79
330
85F
100
AcDbEntity
  8
OUTLINE
100
AcDbLine
 10
-303.2899999997758
 20
433.1729491399213
 30
0.0
 11
-303.2899999997758
 21
433.1629491399211
 31
0.0
  0
LINE
  5
1C7A
330
85F
100
AcDbEntity
  8
OUTLINE
100
AcDbLine
 10
-303.2899999997758
 20
433.1629491399211
 30
0.0
 11
-303.2999999997778
 21
433.1629491399211
 31
0.0
  0
LINE
  5
1C7B
330
85F
100
AcDbEntity
  8
OUTLINE
100
AcDbLine
 10
-303.2999999997778
 20
433.1629491399211
 30
0.0
 11
-303.2999999997778
 21
-225.7762733701534
 31
0.0
  0
LINE
  5
1C7C
330
85F
100
AcDbEntity
  8
OUTLINE
100
AcDbLine
 10
-303.2999999997778
 20
-225.7762733701534
 30
0.0
 11
-303.2899999997758
 21
-225.7762733701534
 31
0.0
  0
LINE
  5
1C7D
330
85F
100
AcDbEntity
  8
OUTLINE
100
AcDbLine
 10
-303.2899999997758
 20
-225.7762733701534
 30
0.0
 11
-303.2899999997758
 21
-225.7862733701536
 31
0.0
  0
LINE
  5
1C7E
330
85F
100
AcDbEntity
  8
OUTLINE
100
AcDbLine
 10
-303.2899999997758
 20
-225.7862733701536
 30
0.0
 11
-304.1999999997793
 21
-225.7862733701536
 31
0.0
  0
LINE
  5
1C7F
330
85F
100
AcDbEntity
  8
OUTLINE
100
AcDbLine
 10
-304.1999999997793
 20
-225.7762733701534
 30
0.0
 11
-304.1999999997793
 21
433.1629491399211
 31
0.0
  0
LINE
  5
1C80
330
85F
100
AcDbEntity
  8
OUTLINE
100
AcDbLine
 10
-304.1999999997793
 20
433.1629491399211
 30
0.0
 11
-303.2999999997778
 21
433.1629491399211
 31
0.0
  0
LINE
  5
1C81
330
85F
100
AcDbEntity
  8
OUTLINE
100
AcDbLine
 10
-304.1999999997793
 20
-225.7762733701534
 30
0.0
 11
-303.2999999997778
 21
-225.7762733701534
 31
0.0
  0
LINE
  5
1C82
330
85F
100
AcDbEntity
  8
OUTLINE
100
AcDbLine
 10
-6.799999999777354
 20
600.3895769021932
 30
0.0
 11
-5.999999999781722
 21
600.3895769021932
 31
0.0
  0
LINE
  5
1C83
330
85F
100
AcDbEntity
  8
OUTLINE
100
AcDbLine
 10
-6.799999999777354
 20
600.3895769021932
 30
0.0
 11
-6.799999999777354
 21
608.830731175381
 31
0.0
  0
SPLINE
  5
1C84
330
85F
100
AcDbEntity
  8
OUTLINE
100
AcDbSpline
210
0.0
220
0.0
230
1.0
 70
    24
 71
     3
 72
    16
 73
    12
 74
     0
 42
0.0000000001
 43
0.0000000001
 40
-0.1108813337714192
 40
-0.1108813337714192
 40
-0.1108813337714192
 40
-0.1108813337714192
 40
-0.0885143052683586
 40
-0.0885143052683586
 40
-0.0624610938086652
 40
-0.0624610938086652
 40
-0.0476654008385401
 40
-0.0476654008385401
 40
-0.0301638483130036
 40
-0.0301638483130036
 40
0.0
 40
0.0
 40
0.0
 40
0.0
 10
-6.799999999777354
 20
609.906792970994
 30
0.0
 10
-6.799999999777354
 20
609.9108056136932
 30
0.0
 10
-6.799999999777354
 20
609.9168440678818
 30
0.0
 10
-6.799999999777354
 20
609.9377384685517
 30
0.0
 10
-6.799999999777354
 20
609.9532503733875
 30
0.0
 10
-6.799999999777354
 20
609.9928355423704
 30
0.0
 10
-6.799999999770078
 20
610.0102688201655
 30
0.0
 10
-6.799999999770078
 20
610.0586789128168
 30
0.0
 10
-6.799999999777354
 20
610.0911509518205
 30
0.0
 10
-6.799999999777354
 20
610.2027914501316
 30
0.0
 10
-6.799999999777354
 20
610.2933322830628
 30
0.0
 10
-6.799999999777354
 20
610.3895769021931
 30
0.0
  0
LINE
  5
1C85
330
85F
100
AcDbEntity
  8
OUTLINE
100
AcDbLine
 10
-303.2694858513429
 20
-228.0270508600788
 30
0.0
 11
-304.0999999997735
 21
-228.0270508600783
 31
0.0
  0
LINE
  5
1C86
330
85F
100
AcDbEntity
  8
OUTLINE
100
AcDbLine
 10
-304.0999999997735
 20
-228.8270508600785
 30
0.0
 11
-302.6743269803706
 21
-228.827050860079
 31
0.0
  0
ARC
  5
1C87
330
85F
100
AcDbEntity
  8
OUTLINE
100
AcDbCircle
 10
-304.0999999997735
 20
433.2729491399218
 30
0.0
 40
0.9
100
AcDbArc
 50
96.37937020834982
 51
180.0
  0
LINE
  5
1C88
330
85F
100
AcDbEntity
  8
OUTLINE
100
AcDbLine
 10
-304.1999999997793
 20
433.2729491399218
 30
0.0
 11
-304.9999999997822
 21
433.2729491399218
 31
0.0
  0
LINE
  5
1C89
330
85F
100
AcDbEntity
  8
OUTLINE
100
AcDbLine
 10
-304.1999999997793
 20
433.1729491399213
 30
0.0
 11
-304.1999999997793
 21
433.1629491399211
 31
0.0
  0
LINE
  5
1C8A
330
85F
100
AcDbEntity
  8
OUTLINE
100
AcDbLine
 10
-304.1999999997793
 20
-225.7762733701534
 30
0.0
 11
-304.1999999997793
 21
-225.7862733701536
 31
0.0
  0
LINE
  5
1C8B
330
85F
100
AcDbEntity
  8
OUTLINE
100
AcDbLine
 10
-304.1999999997793
 20
-226.7762733701534
 30
0.0
 11
-304.1999999997793
 21
-227.927050860078
 31
0.0
  0
LINE
  5
1C8C
330
85F
100
AcDbEntity
  8
OUTLINE
100
AcDbLine
 10
-304.9999999997822
 20
433.2729491399218
 30
0.0
 11
-304.9999999997822
 21
-227.927050860078
 31
0.0
  0
ARC
  5
1C8D
330
85F
100
AcDbEntity
  8
OUTLINE
100
AcDbCircle
 10
-304.0999999997735
 20
-227.9270508600789
 30
0.0
 40
0.0999999999996249
100
AcDbArc
 50
180.0
 51
270.0
  0
LINE
  5
1C8E
330
85F
100
AcDbEntity
  8
OUTLINE
100
AcDbLine
 10
-304.0999999997735
 20
-228.0270508600783
 30
0.0
 11
-304.0999999997735
 21
-228.8270508600785
 31
0.0
  0
LINE
  5
1C8F
330
85F
100
AcDbEntity
  8
OUTLINE
100
AcDbLine
 10
-304.9999999997822
 20
-227.927050860078
 30
0.0
 11
-304.1999999997793
 21
-227.927050860078
 31
0.0
  0
ARC
  5
1C90
330
85F
100
AcDbEntity
  8
OUTLINE
100
AcDbCircle
 10
-304.0999999997735
 20
-227.9270508600789
 30
0.0
 40
0.8999999999999792
100
AcDbArc
 50
180.0
 51
270.0
  0
LINE
  5
1C91
330
85F
100
AcDbEntity
  8
OUTLINE
100
AcDbLine
 10
-305.8630127016663
 20
420.6677309871806
 30
0.0
 11
-305.8630127016663
 21
417.6677309871815
 31
0.0
  0
LINE
  5
1C92
330
85F
100
AcDbEntity
  8
OUTLINE
100
AcDbLine
 10
-305.8630127016663
 20
417.6677309871815
 30
0.0
 11
-305.0630127016634
 21
417.6677309871807
 31
0.0
  0
LINE
  5
1C93
330
85F
100
AcDbEntity
  8
OUTLINE
100
AcDbLine
 10
-305.0630127016634
 20
417.6677309871807
 30
0.0
 11
-305.0630127016634
 21
420.6677309871806
 31
0.0
  0
LINE
  5
1C94
330
85F
100
AcDbEntity
  8
OUTLINE
100
AcDbLine
 10
-305.0630127016634
 20
420.6677309871806
 30
0.0
 11
-305.8630127016663
 21
420.6677309871806
 31
0.0
  0
LINE
  5
1C95
330
85F
100
AcDbEntity
  8
OUTLINE
100
AcDbLine
 10
-7.317483168284526
 20
627.6104230978194
 30
0.0
 11
-7.317483168284526
 21
624.6104230978194
 31
0.0
  0
LINE
  5
1C96
330
85F
100
AcDbEntity
  8
OUTLINE
100
AcDbLine
 10
-7.317483168284526
 20
624.6104230978194
 30
0.0
 11
-6.517483168288889
 21
624.6104230978194
 31
0.0
  0
LINE
  5
1C97
330
85F
100
AcDbEntity
  8
OUTLINE
100
AcDbLine
 10
-6.517483168288889
 20
624.6104230978194
 30
0.0
 11
-6.517483168288889
 21
627.6104230978194
 31
0.0
  0
LINE
  5
1C98
330
85F
100
AcDbEntity
  8
OUTLINE
100
AcDbLine
 10
-6.517483168288889
 20
627.6104230978194
 30
0.0
 11
-7.317483168284526
 21
627.6104230978194
 31
0.0
  0
LINE
  5
1C99
330
85F
100
AcDbEntity
  8
OUTLINE
100
AcDbLine
 10
-305.8630127016663
 20
437.6677309871816
 30
0.0
 11
-305.8630127016663
 21
420.6677309871806
 31
0.0
  0
LINE
  5
1C9A
330
85F
100
AcDbEntity
  8
OUTLINE
100
AcDbLine
 10
-6.517483168288889
 20
624.6104230978194
 30
0.0
 11
-6.517483168288889
 21
610.6104230978194
 31
0.0
  0
LINE
  5
1C9B
330
85F
100
AcDbEntity
  8
OUTLINE
100
AcDbLine
 10
-7.317483168284526
 20
624.6104230978194
 30
0.0
 11
-7.317483168284526
 21
610.6104230978194
 31
0.0
  0
LINE
  5
1C9C
330
85F
100
AcDbEntity
  8
OUTLINE
100
AcDbLine
 10
-7.367483168287434
 20
610.5238205574417
 30
0.0
 11
-305.4130127016692
 21
438.4471538505871
 31
0.0
  0
LINE
  5
1C9D
330
85F
100
AcDbEntity
  8
OUTLINE
100
AcDbLine
 10
-6.967483168293255
 20
609.8310002344145
 30
0.0
 11
-7.76602540355816
 21
609.3699616599201
 31
0.0
  0
LINE
  5
1C9E
330
85F
100
AcDbEntity
  8
OUTLINE
100
AcDbLine
 10
-304.1133974593981
 20
438.2737266298494
 30
0.0
 11
-305.0130127016678
 21
437.75433352756
 31
0.0
  0
LINE
  5
1C9F
330
85F
100
AcDbEntity
  8
OUTLINE
100
AcDbLine
 10
-305.0630127016634
 20
437.6677309871816
 30
0.0
 11
-305.0630127016634
 21
420.6677309871806
 31
0.0
  0
ARC
  5
1CA0
330
85F
100
AcDbEntity
  8
OUTLINE
100
AcDbCircle
 10
-304.9630127016722
 20
437.6677309871816
 30
0.0
 40
0.0999999999998127
100
AcDbArc
 50
120.0000000000005
 51
180.0
  0
LINE
  5
1CA1
330
85F
100
AcDbEntity
  8
OUTLINE
100
AcDbLine
 10
-305.4130127016692
 20
438.4471538505871
 30
0.0
 11
-305.0130127016678
 21
437.75433352756
 31
0.0
  0
ARC
  5
1CA2
330
85F
100
AcDbEntity
  8
OUTLINE
100
AcDbCircle
 10
-304.9630127016649
 20
437.6677309871816
 30
0.0
 40
0.8999999999998898
100
AcDbArc
 50
120.0000000000005
 51
180.0
  0
LINE
  5
1CA3
330
85F
100
AcDbEntity
  8
OUTLINE
100
AcDbLine
 10
-305.0630127016634
 20
437.6677309871816
 30
0.0
 11
-305.8630127016663
 21
437.6677309871816
 31
0.0
  0
LINE
  5
1CA4
330
85F
100
AcDbEntity
  8
OUTLINE
100
AcDbLine
 10
-6.967483168293255
 20
609.8310002344145
 30
0.0
 11
-7.367483168287434
 21
610.5238205574417
 31
0.0
  0
ARC
  5
1CA5
330
85F
100
AcDbEntity
  8
OUTLINE
100
AcDbCircle
 10
-7.417483168290344
 20
610.6104230978194
 30
0.0
 40
0.0999999999999988
100
AcDbArc
 50
300.0000000000005
 51
0.0
  0
ARC
  5
1CA6
330
85F
100
AcDbEntity
  8
OUTLINE
100
AcDbCircle
 10
-7.417483168290344
 20
610.6104230978194
 30
0.0
 40
0.8999999999999891
100
AcDbArc
 50
313.321579634311
 51
0.0
  0
ARC
  5
1CA7
330
85F
100
AcDbEntity
  8
OUTLINE
100
AcDbCircle
 10
-7.417483168290344
 20
610.6104230978194
 30
0.0
 40
0.9000000000001339
100
AcDbArc
 50
300.0000000000005
 51
305.9675509658917
  0
LINE
  5
1CA8
330
85F
100
AcDbEntity
  8
OUTLINE
100
AcDbLine
 10
-7.317483168284526
 20
610.6104230978194
 30
0.0
 11
-6.517483168288889
 21
610.6104230978194
 31
0.0
  0
LINE
  5
1DFD
330
85F
100
AcDbEntity
  8
SIZE
  6
Continuous
100
AcDbLine
 10
0.0000000000072772
 20
616.3895769021945
 30
0.0
 11
0.0000000000072933
 21
879.086476657229
 31
0.0
  0
LINE
  5
1DFE
330
85F
100
AcDbEntity
  8
SIZE
  6
Continuous
100
AcDbLine
 10
-305.8630127016663
 20
457.6677309871824
 30
0.0
 11
-305.8630127016663
 21
879.086476657229
 31
0.0
  0
LINE
  5
1DFF
330
85F
100
AcDbEntity
  8
SIZE
  6
Continuous
100
AcDbLine
 10
-11.9999999999927
 20
859.0864766572289
 30
0.0
 11
-293.8630127016663
 21
859.0864766572289
 31
0.0
  0
INSERT
  5
1E00
330
85F
100
AcDbEntity
  8
SIZE
  6
Continuous
100
AcDbBlockReference
  2
_DOTBLANK
 10
0.000000000007292
 20
859.0864766572289
 30
0.0
 41
12.0
 42
12.0
 43
12.0
  0
INSERT
  5
1E01
330
85F
100
AcDbEntity
  8
SIZE
  6
Continuous
100
AcDbBlockReference
  2
_DOTBLANK
 10
-305.8630127016663
 20
859.0864766572289
 30
0.0
 41
12.0
 42
12.0
 43
12.0
 50
180.0
  0
MTEXT
  5
1E02
330
85F
100
AcDbEntity
  8
SIZE
  6
Continuous
100
AcDbMText
 10
-152.9315063508295
 20
901.0864766572286
 30
0.0
 40
64.0
 41
0.0
 71
     5
 72
     1
  1
\A1;306
 73
     1
 44
1.0
1001
ACAD
1000
MTEXTBEGIN
1070
    73
1070
     1
1070
    44
1040
1.0
1070
    74
1070
     0
1000
MTEXTEND
  0
LINE
  5
1E03
330
85F
100
AcDbEntity
  8
SIZE
  6
Continuous
100
AcDbLine
 10
-5.599999999991267
 20
629.6967565791674
 30
0.0
 11
-5.599999999991258
 21
755.4780000902597
 31
0.0
  0
LINE
  5
1E04
330
85F
100
AcDbEntity
  8
SIZE
  6
Continuous
100
AcDbLine
 10
-305.8630127016663
 20
457.6677309871824
 30
0.0
 11
-305.8630127016663
 21
755.4780000902597
 31
0.0
  0
LINE
  5
1E05
330
85F
100
AcDbEntity
  8
SIZE
  6
Continuous
100
AcDbLine
 10
-17.59999999999126
 20
735.4780000902596
 30
0.0
 11
-293.8630127016663
 21
735.4780000902596
 31
0.0
  0
INSERT
  5
1E06
330
85F
100
AcDbEntity
  8
SIZE
  6
Continuous
100
AcDbBlockReference
  2
_DOTBLANK
 10
-5.599999999991259
 20
735.4780000902596
 30
0.0
 41
12.0
 42
12.0
 43
12.0
  0
INSERT
  5
1E07
330
85F
100
AcDbEntity
  8
SIZE
  6
Continuous
100
AcDbBlockReference
  2
_DOTBLANK
 10
-305.8630127016663
 20
735.4780000902596
 30
0.0
 41
12.0
 42
12.0
 43
12.0
 50
180.0
  0
MTEXT
  5
1E08
330
85F
100
AcDbEntity
  8
SIZE
  6
Continuous
100
AcDbMText
 10
-155.7315063508288
 20
777.4780000902596
 30
0.0
 40
64.0
 41
0.0
 71
     5
 72
     1
  1
\A1;300
 73
     1
 44
1.0
1001
ACAD
1000
MTEXTBEGIN
1070
    73
1070
     1
1070
    44
1040
1.0
1070
    74
1070
     0
1000
MTEXTEND
  0
TEXT
  5
1E09
330
85F
100
AcDbEntity
  8
NOTE
  6
Continuous
100
AcDbText
 10
129.2453176189228
 20
736.1375181558332
 30
0.0
 40
64.0
  1
9×φ6
 41
0.9
100
AcDbText
1001
ACAD
1000
MTEXTBEGIN
1070
    73
1070
     1
1070
    44
1040
1.0
1070
    74
1070
     0
1000
MTEXTEND
  0
INSERT
  5
1E0A
330
85F
100
AcDbEntity
  8
NOTE
100
AcDbBlockReference
  2
_OPEN30
 10
-6.517483168288889
 20
622.6104230978208
 30
0.0
 41
12.0
 42
12.0
 43
12.0
 50
232.325890769332
1001
ACAD
1000
DSTYLE
1002
{
1070
    41
1040
12.0
1070
    42
1040
20.0
1070
    43
1040
200.0
1070
    44
1040
20.0
1070
    73
1070
     0
1070
    74
1070
     0
1070
    77
1070
     1
1070
    78
1070
     8
1070
   140
1040
64.0
1070
   147
1040
50.0
1070
   172
1070
     1
1070
   174
1070
     1
1070
   275
1070
     0
1070
   284
1070
     0
1070
   285
1070
     0
1070
   286
1070
     0
1070
   341
1005
AB7
1070
   342
1005
AB2
1002
}
  0
LWPOLYLINE
  5
1E0B
330
85F
100
AcDbEntity
  8
NOTE
100
AcDbPolyline
 90
        3
 70
     0
 43
0.0
 10
0.8165501156561587
 20
632.108420559917
 10
67.24531761892286
 20
718.1375181558332
 10
357.9996033332085
 20
718.1375181558332
1001
ACAD
1000
DSTYLE
1002
{
1070
    41
1040
12.0
1070
    42
1040
20.0
1070
    43
1040
200.0
1070
    44
1040
20.0
1070
    73
1070
     0
1070
    74
1070
     0
1070
    77
1070
     1
1070
    78
1070
     8
1070
   140
1040
64.0
1070
   147
1040
50.0
1070
   172
1070
     1
1070
   174
1070
     1
1070
   275
1070
     0
1070
   284
1070
     0
1070
   285
1070
     0
1070
   286
1070
     0
1070
   341
1005
AB7
1070
   342
1005
AB2
1002
}
  0
LINE
  5
1E0C
330
85F
100
AcDbEntity
  8
SIZE
  6
Continuous
100
AcDbLine
 10
13.48251683171111
 20
627.6104230978208
 30
0.0
 11
371.4534904657341
 21
627.6104230978205
 31
0.0
  0
LINE
  5
1E0D
330
85F
100
AcDbEntity
  8
SIZE
  6
Continuous
100
AcDbLine
 10
20.00000000000728
 20
-627.6104230978054
 30
0.0
 11
371.4534904657339
 21
-627.6104230978056
 31
0.0
  0
LINE
  5
1E0E
330
85F
100
AcDbEntity
  8
SIZE
  6
Continuous
100
AcDbLine
 10
351.4534904657342
 20
615.6104230978208
 30
0.0
 11
351.4534904657339
 21
-615.6104230978058
 31
0.0
  0
INSERT
  5
1E0F
330
85F
100
AcDbEntity
  8
SIZE
  6
Continuous
100
AcDbBlockReference
  2
_DOTBLANK
 10
351.4534904657342
 20
627.6104230978205
 30
0.0
 41
12.0
 42
12.0
 43
12.0
 50
90.0
  0
INSERT
  5
1E10
330
85F
100
AcDbEntity
  8
SIZE
  6
Continuous
100
AcDbBlockReference
  2
_DOTBLANK
 10
351.4534904657339
 20
-627.6104230978056
 30
0.0
 41
12.0
 42
12.0
 43
12.0
 50
270.0
  0
MTEXT
  5
1E11
330
85F
100
AcDbEntity
  8
SIZE
  6
Continuous
100
AcDbMText
 10
309.453490465734
 20
0.0000000000076006
 30
0.0
 40
64.0
 41
0.0
 71
     5
 72
     1
  1
\A1;1255
 11
0.0000000000000001
 21
1.0
 31
0.0
 73
     1
 44
1.0
1001
ACAD
1000
MTEXTBEGIN
1070
    73
1070
     1
1070
    44
1040
1.0
1070
    74
1070
     0
1000
MTEXTEND
  0
LINE
  5
1E12
330
85F
100
AcDbEntity
  8
SIZE
  6
Continuous
100
AcDbLine
 10
27.50000000000728
 20
42.58957690219449
 30
0.0
 11
236.4332296426875
 21
42.58957690219443
 31
0.0
  0
LINE
  5
1E13
330
85F
100
AcDbEntity
  8
SIZE
  6
Continuous
100
AcDbLine
 10
27.50000000000728
 20
-487.8104230978054
 30
0.0
 11
236.4332296426874
 21
-487.8104230978054
 31
0.0
  0
LINE
  5
1E14
330
85F
100
AcDbEntity
  8
SIZE
  6
Continuous
100
AcDbLine
 10
216.4332296426875
 20
30.58957690219443
 30
0.0
 11
216.4332296426874
 21
-475.8104230978054
 31
0.0
  0
INSERT
  5
1E15
330
85F
100
AcDbEntity
  8
SIZE
  6
Continuous
100
AcDbBlockReference
  2
_DOTBLANK
 10
216.4332296426875
 20
42.58957690219443
 30
0.0
 41
12.0
 42
12.0
 43
12.0
 50
90.0
  0
INSERT
  5
1E16
330
85F
100
AcDbEntity
  8
SIZE
  6
Continuous
100
AcDbBlockReference
  2
_DOTBLANK
 10
216.4332296426874
 20
-487.8104230978054
 30
0.0
 41
12.0
 42
12.0
 43
12.0
 50
270.0
  0
MTEXT
  5
1E17
330
85F
100
AcDbEntity
  8
SIZE
  6
Continuous
100
AcDbMText
 10
174.4332296426875
 20
-222.6104230978054
 30
0.0
 40
64.0
 41
0.0
 71
     5
 72
     1
  1
\A1;530
 11
0.0000000000000001
 21
1.0
 31
0.0
 73
     1
 44
1.0
1001
ACAD
1000
MTEXTBEGIN
1070
    73
1070
     1
1070
    44
1040
1.0
1070
    74
1070
     0
1000
MTEXTEND
  0
LINE
  5
1E18
330
85F
100
AcDbEntity
  8
SIZE
  6
Continuous
100
AcDbLine
 10
27.50000000000728
 20
450.5895769021945
 30
0.0
 11
236.4332296426875
 21
450.5895769021943
 31
0.0
  0
LINE
  5
1E19
330
85F
100
AcDbEntity
  8
SIZE
  6
Continuous
100
AcDbLine
 10
27.50000000000728
 20
42.58957690219449
 30
0.0
 11
236.4332296426874
 21
42.58957690219443
 31
0.0
  0
LINE
  5
1E1A
330
85F
100
AcDbEntity
  8
SIZE
  6
Continuous
100
AcDbLine
 10
216.4332296426874
 20
438.5895769021943
 30
0.0
 11
216.4332296426874
 21
54.58957690219443
 31
0.0
  0
INSERT
  5
1E1B
330
85F
100
AcDbEntity
  8
SIZE
  6
Continuous
100
AcDbBlockReference
  2
_DOTBLANK
 10
216.4332296426875
 20
450.5895769021943
 30
0.0
 41
12.0
 42
12.0
 43
12.0
 50
90.0
  0
INSERT
  5
1E1C
330
85F
100
AcDbEntity
  8
SIZE
  6
Continuous
100
AcDbBlockReference
  2
_DOTBLANK
 10
216.4332296426874
 20
42.58957690219443
 30
0.0
 41
12.0
 42
12.0
 43
12.0
 50
270.0
  0
MTEXT
  5
1E1D
330
85F
100
AcDbEntity
  8
SIZE
  6
Continuous
100
AcDbMText
 10
174.4332296426874
 20
246.5895769021945
 30
0.0
 40
64.0
 41
0.0
 71
     5
 72
     1
  1
\A1;408
 11
0.0000000000000001
 21
1.0
 31
0.0
 73
     1
 44
1.0
1001
ACAD
1000
MTEXTBEGIN
1070
    73
1070
     1
1070
    44
1040
1.0
1070
    74
1070
     0
1000
MTEXTEND
  0
ENDSEC
  0
SECTION
  2
OBJECTS
  0
DICTIONARY
  5
84D
330
0
100
AcDbDictionary
281
     1
  3
ACAD_2007HEADERVARS_RT
350
1E20
  3
ACAD_COLOR
350
114B
  3
ACAD_GROUP
350
84E
  3
ACAD_LAYOUT
350
85A
  3
ACAD_MATERIAL
350
114A
  3
ACAD_MLEADERSTYLE
350
12E8
  3
ACAD_MLINESTYLE
350
857
  3
ACAD_PLOTSETTINGS
350
859
  3
ACAD_PLOTSTYLENAME
350
B82
  3
ACAD_SCALELIST
350
12C6
  3
ACAD_TABLESTYLE
350
114C
  3
ACAD_VISUALSTYLE
350
12B5
  3
AcadDim
350
E9C
  3
ACDB_RECOMPOSE_DATA
350
14CC
  3
AcDbVariableDictionary
350
B87
  3
AcmDictionary
350
1212
  3
AMG
350
1151
  3
AMGSNAPSETTINGS
350
1268
  3
DWGPROPS
350
1E1F
  3
MAPISURF_MODULE
350
1DA5
1001
ACAD
1000
TREAT_AS_HARD
1070
     0
  0
DICTIONARY
  5
17C1
330
843
100
AcDbDictionary
280
     1
281
     1
  3
ACAD_LAYERSTATES
360
17C2
  0
DICTIONARY
  5
14B1
330
851
100
AcDbDictionary
280
     1
281
     1
  3
ADSK_XREC_LAYER_RECONCILED
360
14B2
  0
DICTIONARY
  5
14B3
330
863
100
AcDbDictionary
280
     1
281
     1
  3
ADSK_XREC_LAYER_RECONCILED
360
14B4
  0
DICTIONARY
  5
14B5
330
866
100
AcDbDictionary
280
     1
281
     1
  3
ADSK_XREC_LAYER_RECONCILED
360
14B6
  0
DICTIONARY
  5
14B7
330
867
100
AcDbDictionary
280
     1
281
     1
  3
ADSK_XREC_LAYER_RECONCILED
360
14B8
  0
DICTIONARY
  5
14B9
330
868
100
AcDbDictionary
280
     1
281
     1
  3
ADSK_XREC_LAYER_RECONCILED
360
14BA
  0
DICTIONARY
  5
14BB
330
869
100
AcDbDictionary
280
     1
281
     1
  3
ADSK_XREC_LAYER_RECONCILED
360
14BC
  0
DICTIONARY
  5
14BD
330
86B
100
AcDbDictionary
280
     1
281
     1
  3
ADSK_XREC_LAYER_RECONCILED
360
14BE
  0
DICTIONARY
  5
14BF
330
86C
100
AcDbDictionary
280
     1
281
     1
  3
ADSK_XREC_LAYER_RECONCILED
360
14C0
  0
DICTIONARY
  5
14C1
330
86D
100
AcDbDictionary
280
     1
281
     1
  3
ADSK_XREC_LAYER_RECONCILED
360
14C2
  0
DICTIONARY
  5
14C3
330
86E
100
AcDbDictionary
280
     1
281
     1
  3
ADSK_XREC_LAYER_RECONCILED
360
14C4
  0
DICTIONARY
  5
14C5
330
86F
100
AcDbDictionary
280
     1
281
     1
  3
ADSK_XREC_LAYER_RECONCILED
360
14C6
  0
DICTIONARY
  5
B4F
330
85F
100
AcDbDictionary
280
     1
281
     1
  3
ACAD_INDEX
360
126F
  3
ACAD_LAYOUTSELFREF
360
B50
  3
ACAD_SORTENTS
360
1297
  0
DICTIONARY
  5
B4D
330
85B
100
AcDbDictionary
280
     1
281
     1
  3
ACAD_LAYOUTSELFREF
360
B4E
  0
DICTIONARY
  5
1E20
102
{ACAD_REACTORS
330
84D
102
}
330
84D
100
AcDbDictionary
281
     1
  3
DIMARCSYM
350
1E21
  3
DIMLTEX1
350
1E23
  3
DIMLTEX2
350
1E24
  3
DIMLTYPE
350
1E22
  0
DICTIONARY
  5
114B
102
{ACAD_REACTORS
330
84D
102
}
330
84D
100
AcDbDictionary
281
     1
  0
DICTIONARY
  5
84E
102
{ACAD_REACTORS
330
84D
102
}
330
84D
100
AcDbDictionary
281
     1
1001
ACAD
1000
TREAT_AS_HARD
1070
     0
  0
DICTIONARY
  5
85A
102
{ACAD_REACTORS
330
84D
102
}
330
84D
100
AcDbDictionary
281
     1
  3
Model
350
B84
  3
ﾚｲｱｳﾄ1
350
B85
1001
ACAD
1000
TREAT_AS_HARD
1070
     0
  0
DICTIONARY
  5
114A
102
{ACAD_REACTORS
330
84D
102
}
330
84D
100
AcDbDictionary
281
     1
  3
ByBlock
350
12A5
  3
ByLayer
350
129D
  3
Global
350
12AD
  0
DICTIONARY
  5
12E8
102
{ACAD_REACTORS
330
84D
102
}
330
84D
100
AcDbDictionary
281
     1
  3
Standard
350
12E9
  0
DICTIONARY
  5
857
102
{ACAD_REACTORS
330
84D
102
}
330
84D
100
AcDbDictionary
281
     1
  3
STANDARD
350
858
1001
ACAD
1000
TREAT_AS_HARD
1070
     0
  0
DICTIONARY
  5
859
102
{ACAD_REACTORS
330
84D
102
}
330
84D
100
AcDbDictionary
281
     1
1001
ACAD
1000
TREAT_AS_HARD
1070
     0
  0
ACDBDICTIONARYWDFLT
  5
B82
102
{ACAD_REACTORS
330
84D
102
}
330
84D
100
AcDbDictionary
281
     1
  3
Normal
350
B83
100
AcDbDictionaryWithDefault
340
B83
  0
DICTIONARY
  5
12C6
102
{ACAD_REACTORS
330
84D
102
}
330
84D
100
AcDbDictionary
281
     1
  3
A0
350
12C7
  3
A1
350
12C8
  3
A2
350
12C9
  3
A3
350
12CA
  3
A4
350
12CB
  3
A5
350
12CC
  3
A6
350
12CD
  3
A7
350
12CE
  3
A8
350
12CF
  3
A9
350
12D0
  3
B0
350
12D1
  3
B1
350
12D2
  3
B2
350
12D3
  3
B3
350
12D4
  3
B4
350
12D5
  3
B5
350
12D6
  3
B6
350
12D7
  3
B7
350
12D8
  3
B8
350
12D9
  3
B9
350
12DA
  3
C0
350
12DB
  3
C1
350
12DC
  3
C2
350
12DD
  3
C3
350
12DE
  3
C4
350
12DF
  3
C5
350
12E0
  3
C6
350
12E1
  3
C7
350
12E2
  3
C8
350
12E3
  3
C9
350
12E4
  3
D0
350
12E5
  3
D1
350
12E6
  3
D2
350
12E7
  0
DICTIONARY
  5
114C
102
{ACAD_REACTORS
330
84D
102
}
330
84D
100
AcDbDictionary
281
     1
  3
Standard
350
114D
  0
DICTIONARY
  5
12B5
102
{ACAD_REACTORS
330
84D
102
}
330
84D
100
AcDbDictionary
281
     1
  3
2dWireframe
350
12BB
  3
3D Hidden
350
12BD
  3
3dWireframe
350
12BC
  3
Basic
350
12BA
  3
Brighten
350
12C1
  3
ColorChange
350
12C5
  3
Conceptual
350
12BE
  3
Dim
350
12C0
  3
Facepattern
350
12C4
  3
Flat
350
12B6
  3
FlatWithEdges
350
12B7
  3
Gouraud
350
12B8
  3
GouraudWithEdges
350
12B9
  3
Linepattern
350
12C3
  3
Realistic
350
12BF
  3
Thicken
350
12C2
  0
XRECORD
  5
E9C
102
{ACAD_REACTORS
330
84D
102
}
330
84D
100
AcDbXrecord
280
     1
 90
   990106
  3

 60
     0
 61
     0
 62
     1
 63
     3
 64
     0
 65
     0
 66
     0
 67
     3
 68
     1
 69
     0
 70
     0
 71
     0
 72
     0
 40
0.0
170
     0
340
E9E
  0
XRECORD
  5
14CC
102
{ACAD_REACTORS
330
84D
102
}
330
84D
100
AcDbXrecord
280
     1
 90
        1
330
114D
  0
DICTIONARY
  5
B87
102
{ACAD_REACTORS
330
84D
102
}
330
84D
100
AcDbDictionary
281
     1
  3
CANNOSCALE
350
14C8
  3
CMLEADERSTYLE
350
14C7
  3
CTABLESTYLE
350
127D
  3
DIMASSOC
350
B88
  3
INDEXCTL
350
127E
  3
PROJECTNAME
350
127F
  3
SORTENTS
350
14C9
  0
DICTIONARY
  5
1212
102
{ACAD_REACTORS
330
84D
102
}
330
84D
100
AcDbDictionary
281
     1
  3
AcmStdDictionary
350
121E
  3
AMDTSECTSYM_ARROWCOLOR
350
123E
  0
DICTIONARY
  5
1151
102
{ACAD_REACTORS
330
84D
102
}
330
84D
100
AcDbDictionary
281
     1
  3
AcMgSettings
350
1152
  0
DICTIONARY
  5
1268
102
{ACAD_REACTORS
330
84D
102
}
330
84D
100
AcDbDictionary
281
     1
  3
DIMENSION
350
126D
  3
FEA
350
126C
  3
HATCH (1)
350
1269
  3
HATCH (2)
350
126A
  3
SIMPLE WELD
350
126E
  3
SYMBOLS
350
126B
  0
XRECORD
  5
1E1F
102
{ACAD_REACTORS
330
84D
102
}
330
84D
100
AcDbXrecord
280
     1
  1
DWGPROPS COOKIE
  2

  3

  4

  6

  7

  8
A988006
  9

300
AmdtFileType=84
301
=
302
=
303
=
304
=
305
=
306
=
307
=
308
=
309
=
 40
0.7430355555555556
 41
2452321.396199653
 42
2456533.546283912
  1

 90
        1
  0
DICTIONARY
  5
17C2
102
{ACAD_REACTORS
330
17C1
102
}
330
17C1
100
AcDbDictionary
281
     1
  0
XRECORD
  5
14B2
102
{ACAD_REACTORS
330
14B1
102
}
330
14B1
100
AcDbXrecord
280
     1
290
     1
  0
XRECORD
  5
14B4
102
{ACAD_REACTORS
330
14B3
102
}
330
14B3
100
AcDbXrecord
280
     1
290
     1
  0
XRECORD
  5
14B6
102
{ACAD_REACTORS
330
14B5
102
}
330
14B5
100
AcDbXrecord
280
     1
290
     1
  0
XRECORD
  5
14B8
102
{ACAD_REACTORS
330
14B7
102
}
330
14B7
100
AcDbXrecord
280
     1
290
     1
  0
XRECORD
  5
14BA
102
{ACAD_REACTORS
330
14B9
102
}
330
14B9
100
AcDbXrecord
280
     1
290
     1
  0
XRECORD
  5
14BC
102
{ACAD_REACTORS
330
14BB
102
}
330
14BB
100
AcDbXrecord
280
     1
290
     1
  0
XRECORD
  5
14BE
102
{ACAD_REACTORS
330
14BD
102
}
330
14BD
100
AcDbXrecord
280
     1
290
     1
  0
XRECORD
  5
14C0
102
{ACAD_REACTORS
330
14BF
102
}
330
14BF
100
AcDbXrecord
280
     1
290
     1
  0
XRECORD
  5
14C2
102
{ACAD_REACTORS
330
14C1
102
}
330
14C1
100
AcDbXrecord
280
     1
290
     1
  0
XRECORD
  5
14C4
102
{ACAD_REACTORS
330
14C3
102
}
330
14C3
100
AcDbXrecord
280
     1
290
     1
  0
XRECORD
  5
14C6
102
{ACAD_REACTORS
330
14C5
102
}
330
14C5
100
AcDbXrecord
280
     1
290
     1
  0
DICTIONARY
  5
126F
102
{ACAD_REACTORS
330
B4F
102
}
330
B4F
100
AcDbDictionary
281
     1
  3
*A1
350
1270
  0
XRECORD
  5
B50
102
{ACAD_REACTORS
330
B4F
102
}
330
B4F
100
AcDbXrecord
280
     1
340
85F
  0
SORTENTSTABLE
  5
1297
102
{ACAD_REACTORS
330
B4F
102
}
330
B4F
100
AcDbSortentsTable
330
85F
331
1C79
  5
1C9A
331
1C18
  5
1C39
331
1C8A
  5
1DFF
331
1C29
  5
1C4A
331
1C9B
  5
1E10
331
1C3A
  5
1C5B
331
1BBA
  5
1BBA
331
1BA9
  5
1BA9
331
1B98
  5
1B98
331
1E05
  5
1C0A
331
1E16
  5
1BFE
331
1C47
  5
1C68
331
1C58
  5
1C79
331
1C69
  5
1C8A
331
1BEA
  5
1BEA
331
1C07
  5
1C28
331
1BE6
  5
1BE6
331
1BD5
  5
1BD5
331
1BC4
  5
1BC4
331
1B8A
  5
1B8A
331
1B79
  5
1B79
331
1B68
  5
1B68
331
1B57
  5
1B57
331
1B46
  5
1B46
331
954
  5
954
331
1C08
  5
1C29
331
1C7A
  5
1C9B
331
1C19
  5
1C3A
331
1C8B
  5
1E00
331
1C2A
  5
1C4B
331
1C9C
  5
1E11
331
1C3B
  5
1C5C
331
1BBB
  5
1BBB
331
1BAA
  5
1BAA
331
1B99
  5
1B99
331
1E06
  5
1C0B
331
1E17
  5
1BFF
331
1C48
  5
1C69
331
1C59
  5
1C7A
331
1C6A
  5
1C8B
331
1BEB
  5
1BEB
331
1BE7
  5
1BE7
331
1BD6
  5
1BD6
331
1BC5
  5
1BC5
331
1B8B
  5
1B8B
331
1B7A
  5
1B7A
331
1B69
  5
1B69
331
1B58
  5
1B58
331
1B47
  5
1B47
331
955
  5
955
331
1C09
  5
1C2A
331
1BF8
  5
1C19
331
1C7B
  5
1C9C
331
1C1A
  5
1C3B
331
1C8C
  5
1E01
331
1C2B
  5
1C4C
331
1C9D
  5
1E12
331
1C3C
  5
1C5D
331
1BBC
  5
1BBC
331
1BAB
  5
1BAB
331
1B9A
  5
1B9A
331
1E07
  5
1C0C
331
1E18
  5
1BF4
331
1C49
  5
1C6A
331
1C5A
  5
1C7B
331
1C6B
  5
1C8C
331
1BEC
  5
1BEC
331
1BD7
  5
1BD7
331
1BC6
  5
1BC6
331
1B8C
  5
1B8C
331
1B7B
  5
1B7B
331
1B6A
  5
1B6A
331
1B59
  5
1B59
331
1B48
  5
1B48
331
956
  5
956
331
1C0A
  5
1C2B
331
1BF9
  5
1C1A
331
1BD8
  5
1BD8
331
1C7C
  5
1C9D
331
1C1B
  5
1C3C
331
1C8D
  5
1E02
331
1C2C
  5
1C4D
331
1C9E
  5
1E13
331
1C3D
  5
1C5E
331
1BBD
  5
1BBD
331
1BAC
  5
1BAC
331
1B9B
  5
1B9B
331
1E08
  5
1C0D
331
1E19
  5
1BF5
331
1C4A
  5
1C6B
331
1C5B
  5
1C7C
331
1C6C
  5
1C8D
331
1BED
  5
1BED
331
1BC7
  5
1BC7
331
1B8D
  5
1B8D
331
1B7C
  5
1B7C
331
1B6B
  5
1B6B
331
1B5A
  5
1B5A
331
1B49
  5
1B49
331
957
  5
957
331
1C0B
  5
1C2C
331
1BFA
  5
1C1B
331
1BD9
  5
1BD9
331
1BC8
  5
1BC8
331
1C7D
  5
1C9E
331
1C1C
  5
1C3D
331
1C8E
  5
1E03
331
1C2D
  5
1C4E
331
1CA8
  5
1E1D
331
1C9F
  5
1E14
331
1C3E
  5
1C5F
331
1E09
  5
1C16
331
1E1A
  5
1BF6
331
1BBE
  5
1BBE
331
1BAD
  5
1BAD
331
1B9C
  5
1B9C
331
1C4B
  5
1C6C
331
1C5C
  5
1C7D
331
1C6D
  5
1C8E
331
1BEE
  5
1BEE
331
1B8E
  5
1B8E
331
1B7D
  5
1B7D
331
1B6C
  5
1B6C
331
1B5B
  5
1B5B
331
1B4A
  5
1B4A
331
1C0C
  5
1C2D
331
1BFB
  5
1C1C
331
1BDA
  5
1BDA
331
1BC9
  5
1BC9
331
1C7E
  5
1C9F
331
1C1D
  5
1C3E
331
1C8F
  5
1E04
331
1C2E
  5
1C4F
331
1CA0
  5
1E15
331
1C3F
  5
1C60
331
1E0A
  5
1C14
331
1E1B
  5
1BF7
331
1BBF
  5
1BBF
331
1BAE
  5
1BAE
331
1B9D
  5
1B9D
331
1C4C
  5
1C6D
331
1C5D
  5
1C7E
331
1C6E
  5
1C8F
331
1B8F
  5
1B8F
331
1B7E
  5
1B7E
331
1B6D
  5
1B6D
331
1B5C
  5
1B5C
331
1B4B
  5
1B4B
331
1C0D
  5
1C2E
331
1BFC
  5
1C1D
331
1BDB
  5
1BDB
331
1BCA
  5
1BCA
331
1C7F
  5
1CA0
331
1C1E
  5
1C3F
331
1CA1
  5
1E16
331
1C90
  5
1E05
331
1C2F
  5
1C50
331
1E0B
  5
1C15
331
1E1C
  5
1BF8
331
1BAF
  5
1BAF
331
1B9E
  5
1B9E
331
1B90
  5
1B90
331
1C4D
  5
1C6E
331
1C5E
  5
1C7F
331
1C6F
  5
1C90
331
1B7F
  5
1B7F
331
1B6E
  5
1B6E
331
1B5D
  5
1B5D
331
1B4C
  5
1B4C
331
1C70
  5
1C91
331
1C0E
  5
1C2F
331
1BFD
  5
1C1E
331
1BDC
  5
1BDC
331
1BCB
  5
1BCB
331
1C80
  5
1CA1
331
1C1F
  5
1C40
331
1CA2
  5
1E17
331
1C91
  5
1E06
331
1C30
  5
1C51
331
1E0C
  5
1C02
331
1E1D
  5
1BF9
331
1BB0
  5
1BB0
331
1B9F
  5
1B9F
331
1B91
  5
1B91
331
1B80
  5
1B80
331
1C4E
  5
1C6F
331
1C5F
  5
1C80
331
1B6F
  5
1B6F
331
1B5E
  5
1B5E
331
1B4D
  5
1B4D
331
1C60
  5
1C81
331
1C71
  5
1C92
331
1C0F
  5
1C30
331
1BFE
  5
1C1F
331
1BDD
  5
1BDD
331
1BCC
  5
1BCC
331
1C81
  5
1CA2
331
1C20
  5
1C41
331
1CA3
  5
1E18
331
1C92
  5
1E07
331
1C31
  5
1C52
331
1E0D
  5
1C03
331
1BB1
  5
1BB1
331
1BA0
  5
1BA0
331
1B92
  5
1B92
331
1B81
  5
1B81
331
1B70
  5
1B70
331
1C4F
  5
1C70
331
1B5F
  5
1B5F
331
1B4E
  5
1B4E
331
1C50
  5
1C71
331
1C61
  5
1C82
331
1C72
  5
1C93
331
1C10
  5
1C31
331
1BFF
  5
1C20
331
1BDE
  5
1BDE
331
1BCD
  5
1BCD
331
1C82
  5
1CA3
331
1C21
  5
1C42
331
1CA4
  5
1E19
331
1C93
  5
1E08
331
1C32
  5
1C53
331
1DFD
  5
1C0E
331
1E0E
  5
1C04
331
1BB2
  5
1BB2
331
1BA1
  5
1BA1
331
1B93
  5
1B93
331
1B82
  5
1B82
331
1B71
  5
1B71
331
1B60
  5
1B60
331
1B4F
  5
1B4F
331
1B3E
  5
1B3E
331
1C40
  5
1C61
331
1C51
  5
1C72
331
1C62
  5
1C83
331
1C73
  5
1C94
331
1C11
  5
1C32
331
1C00
  5
1C21
331
1BDF
  5
1BDF
331
1BCE
  5
1BCE
331
1C83
  5
1CA4
331
1C22
  5
1C43
331
1CA5
  5
1E1A
331
1C94
  5
1E09
331
1C33
  5
1C54
331
1DFE
  5
1C0F
331
1E0F
  5
1C05
331
1BB3
  5
1BB3
331
1BA2
  5
1BA2
331
1B94
  5
1B94
331
1B83
  5
1B83
331
1B72
  5
1B72
331
1B61
  5
1B61
331
1B50
  5
1B50
331
1B3F
  5
1B3F
331
1E10
  5
1C06
331
1C41
  5
1C62
331
1C52
  5
1C73
331
1C63
  5
1C84
331
1C74
  5
1C95
331
1C12
  5
1C33
331
1C01
  5
1C22
331
1BE0
  5
1BE0
331
1BCF
  5
1BCF
331
1C84
  5
1CA5
331
1C23
  5
1C44
331
1CA6
  5
1E1B
331
1C95
  5
1E0A
331
1C34
  5
1C55
331
1DFF
  5
1C10
331
1BB4
  5
1BB4
331
1BA3
  5
1BA3
331
1B95
  5
1B95
331
1B84
  5
1B84
331
1B73
  5
1B73
331
1B62
  5
1B62
331
1B51
  5
1B51
331
1B40
  5
1B40
331
1E00
  5
1C11
331
1E11
  5
1C07
331
1C42
  5
1C63
331
1C53
  5
1C74
331
1C64
  5
1C85
331
1C75
  5
1C96
331
1BF6
  5
1C17
331
1C13
  5
1C34
331
1C02
  5
1C23
331
1BE1
  5
1BE1
331
1BD0
  5
1BD0
331
1C85
  5
1CA6
331
1C24
  5
1C45
331
1CA7
  5
1E1C
331
1C96
  5
1E0B
331
1C35
  5
1C56
331
1BB5
  5
1BB5
331
1BA4
  5
1BA4
331
1B96
  5
1B96
331
1B85
  5
1B85
331
1B74
  5
1B74
331
1B63
  5
1B63
331
1B52
  5
1B52
331
1B41
  5
1B41
331
958
  5
958
331
1E01
  5
1C12
331
1E12
  5
1BFA
331
1C43
  5
1C64
331
1C54
  5
1C75
331
1C65
  5
1C86
331
1C76
  5
1C97
331
1BF7
  5
1C18
331
1C14
  5
1C35
331
1C03
  5
1C24
331
1BE2
  5
1BE2
331
1BD1
  5
1BD1
331
1BC0
  5
1BC0
331
1C86
  5
1CA7
331
1C25
  5
1C46
331
1C97
  5
1E0C
331
1C36
  5
1C57
331
1BB6
  5
1BB6
331
1BA5
  5
1BA5
331
1B97
  5
1B97
331
1B86
  5
1B86
331
1B75
  5
1B75
331
1B64
  5
1B64
331
1B53
  5
1B53
331
1B42
  5
1B42
331
1C98
  5
1E0D
331
1E02
  5
1C13
331
1E13
  5
1BFB
331
1C44
  5
1C65
331
1C55
  5
1C76
331
1C66
  5
1C87
331
1C77
  5
1C98
331
1C15
  5
1C36
331
1C04
  5
1C25
331
1BE3
  5
1BE3
331
1BD2
  5
1BD2
331
1BC1
  5
1BC1
331
1C87
  5
1CA8
331
1C26
  5
1C47
331
1C37
  5
1C58
331
1BB7
  5
1BB7
331
1BA6
  5
1BA6
331
1B87
  5
1B87
331
1B76
  5
1B76
331
1B65
  5
1B65
331
1B54
  5
1B54
331
1B43
  5
1B43
331
1C88
  5
1DFD
331
1C99
  5
1E0E
331
1C38
  5
1C59
331
1E03
  5
1C08
331
1E14
  5
1BFC
331
1BB8
  5
1BB8
331
1C45
  5
1C66
331
1C56
  5
1C77
331
1C67
  5
1C88
331
1BE8
  5
1BE8
331
1C16
  5
1C37
331
1C05
  5
1C26
331
1BE4
  5
1BE4
331
1BD3
  5
1BD3
331
1BC2
  5
1BC2
331
1C27
  5
1C48
331
1BA7
  5
1BA7
331
1B88
  5
1B88
331
1B77
  5
1B77
331
1B66
  5
1B66
331
1B55
  5
1B55
331
1B44
  5
1B44
331
1C78
  5
1C99
331
1C89
  5
1DFE
331
1C28
  5
1C49
331
1C9A
  5
1E0F
331
1C39
  5
1C5A
331
1BB9
  5
1BB9
331
1BA8
  5
1BA8
331
1E04
  5
1C09
331
1E15
  5
1BFD
331
1C46
  5
1C67
331
1C57
  5
1C78
331
1C68
  5
1C89
331
1BE9
  5
1BE9
331
1C17
  5
1C38
331
1C06
  5
1C27
331
1BE5
  5
1BE5
331
1BD4
  5
1BD4
331
1BC3
  5
1BC3
331
1B89
  5
1B89
331
1B78
  5
1B78
331
1B67
  5
1B67
331
1B56
  5
1B56
331
1B45
  5
1B45
331
953
  5
953
  0
XRECORD
  5
B4E
102
{ACAD_REACTORS
330
B4D
102
}
330
B4D
100
AcDbXrecord
280
     1
340
85B
  0
XRECORD
  5
1E21
102
{ACAD_REACTORS
330
1E20
102
}
330
1E20
100
AcDbXrecord
280
     1
 70
     1
  0
XRECORD
  5
1E23
102
{ACAD_REACTORS
330
1E20
102
}
330
1E20
100
AcDbXrecord
280
     1
340
854
  0
XRECORD
  5
1E24
102
{ACAD_REACTORS
330
1E20
102
}
330
1E20
100
AcDbXrecord
280
     1
340
854
  0
XRECORD
  5
1E22
102
{ACAD_REACTORS
330
1E20
102
}
330
1E20
100
AcDbXrecord
280
     1
340
854
  0
LAYOUT
  5
B84
102
{ACAD_XDICTIONARY
360
1E25
102
}
102
{ACAD_REACTORS
330
85A
102
}
330
85A
100
AcDbPlotSettings
  1

  2
\\Server02\EPSON LP-9600SPD (3F)
  4

  6

 40
0.0
 41
0.0
 42
0.0
 43
0.0
 44
0.0
 45
0.0
 46
0.0
 47
0.0
 48
0.0
 49
0.0
140
0.0
141
0.0
142
1.0
143
1.0
 70
  1712
 72
     0
 73
     0
 74
     0
  7

 75
     0
147
1.0
148
0.0
149
0.0
100
AcDbLayout
  1
Model
 70
     1
 71
     0
 10
0.0
 20
0.0
 11
12.0
 21
9.0
 12
0.0
 22
0.0
 32
0.0
 14
0.0
 24
0.0
 34
0.0
 15
0.0
 25
0.0
 35
0.0
146
0.0
 13
0.0
 23
0.0
 33
0.0
 16
1.0
 26
0.0
 36
0.0
 17
0.0
 27
1.0
 37
0.0
 76
     0
330
85F
331
1298
  0
LAYOUT
  5
B85
102
{ACAD_XDICTIONARY
360
1E27
102
}
102
{ACAD_REACTORS
330
85A
102
}
330
85A
100
AcDbPlotSettings
  1

  2
\\Server02\EPSON LP-9600SPD (3F)
  4

  6

 40
0.0
 41
0.0
 42
0.0
 43
0.0
 44
0.0
 45
0.0
 46
0.0
 47
0.0
 48
0.0
 49
0.0
140
0.0
141
0.0
142
1.0
143
1.0
 70
   688
 72
     0
 73
     0
 74
     5
  7

 75
    16
147
1.0
148
0.0
149
0.0
100
AcDbLayout
  1
ﾚｲｱｳﾄ1
 70
     1
 71
     1
 10
0.0
 20
0.0
 11
12.0
 21
9.0
 12
0.0
 22
0.0
 32
0.0
 14
1.000000000000000E+20
 24
1.000000000000000E+20
 34
1.000000000000000E+20
 15
-1.000000000000000E+20
 25
-1.000000000000000E+20
 35
-1.000000000000000E+20
146
0.0
 13
0.0
 23
0.0
 33
0.0
 16
1.0
 26
0.0
 36
0.0
 17
0.0
 27
1.0
 37
0.0
 76
     0
330
85B
  0
MATERIAL
  5
12A5
102
{ACAD_XDICTIONARY
360
12A6
102
}
102
{ACAD_REACTORS
330
114A
102
}
330
114A
100
AcDbMaterial
  1
ByBlock
 72
     0
 43
0.0208333333333333
 43
0.0
 43
0.0
 43
0.0
 43
0.0
 43
0.0208333333333333
 43
0.0
 43
0.0
 43
0.0
 43
0.0
 43
1.0
 43
0.0
 43
0.0
 43
0.0
 43
0.0
 43
1.0
 77
     0
 47
0.0208333333333333
 47
0.0
 47
0.0
 47
0.0
 47
0.0
 47
0.0208333333333333
 47
0.0
 47
0.0
 47
0.0
 47
0.0
 47
1.0
 47
0.0
 47
0.0
 47
0.0
 47
0.0
 47
1.0
171
     0
 49
0.0208333333333333
 49
0.0
 49
0.0
 49
0.0
 49
0.0
 49
0.0208333333333333
 49
0.0
 49
0.0
 49
0.0
 49
0.0
 49
1.0
 49
0.0
 49
0.0
 49
0.0
 49
0.0
 49
1.0
175
     0
142
0.0208333333333333
142
0.0
142
0.0
142
0.0
142
0.0
142
0.0208333333333333
142
0.0
142
0.0
142
0.0
142
0.0
142
1.0
142
0.0
142
0.0
142
0.0
142
0.0
142
1.0
179
     0
144
0.0208333333333333
144
0.0
144
0.0
144
0.0
144
0.0
144
0.0208333333333333
144
0.0
144
0.0
144
0.0
144
0.0
144
1.0
144
0.0
144
0.0
144
0.0
144
0.0
144
1.0
147
0.0208333333333333
147
0.0
147
0.0
147
0.0
147
0.0
147
0.0208333333333333
147
0.0
147
0.0
147
0.0
147
0.0
147
1.0
147
0.0
147
0.0
147
0.0
147
0.0
147
1.0
  0
MATERIAL
  5
129D
102
{ACAD_XDICTIONARY
360
129E
102
}
102
{ACAD_REACTORS
330
114A
102
}
330
114A
100
AcDbMaterial
  1
ByLayer
 72
     0
 43
0.0208333333333333
 43
0.0
 43
0.0
 43
0.0
 43
0.0
 43
0.0208333333333333
 43
0.0
 43
0.0
 43
0.0
 43
0.0
 43
1.0
 43
0.0
 43
0.0
 43
0.0
 43
0.0
 43
1.0
 77
     0
 47
0.0208333333333333
 47
0.0
 47
0.0
 47
0.0
 47
0.0
 47
0.0208333333333333
 47
0.0
 47
0.0
 47
0.0
 47
0.0
 47
1.0
 47
0.0
 47
0.0
 47
0.0
 47
0.0
 47
1.0
171
     0
 49
0.0208333333333333
 49
0.0
 49
0.0
 49
0.0
 49
0.0
 49
0.0208333333333333
 49
0.0
 49
0.0
 49
0.0
 49
0.0
 49
1.0
 49
0.0
 49
0.0
 49
0.0
 49
0.0
 49
1.0
175
     0
142
0.0208333333333333
142
0.0
142
0.0
142
0.0
142
0.0
142
0.0208333333333333
142
0.0
142
0.0
142
0.0
142
0.0
142
1.0
142
0.0
142
0.0
142
0.0
142
0.0
142
1.0
179
     0
144
0.0208333333333333
144
0.0
144
0.0
144
0.0
144
0.0
144
0.0208333333333333
144
0.0
144
0.0
144
0.0
144
0.0
144
1.0
144
0.0
144
0.0
144
0.0
144
0.0
144
1.0
147
0.0208333333333333
147
0.0
147
0.0
147
0.0
147
0.0
147
0.0208333333333333
147
0.0
147
0.0
147
0.0
147
0.0
147
1.0
147
0.0
147
0.0
147
0.0
147
0.0
147
1.0
  0
MATERIAL
  5
12AD
102
{ACAD_XDICTIONARY
360
12AE
102
}
102
{ACAD_REACTORS
330
114A
102
}
330
114A
100
AcDbMaterial
  1
Global
 72
     0
 43
0.0208333333333333
 43
0.0
 43
0.0
 43
0.0
 43
0.0
 43
0.0208333333333333
 43
0.0
 43
0.0
 43
0.0
 43
0.0
 43
1.0
 43
0.0
 43
0.0
 43
0.0
 43
0.0
 43
1.0
 77
     0
 47
0.0208333333333333
 47
0.0
 47
0.0
 47
0.0
 47
0.0
 47
0.0208333333333333
 47
0.0
 47
0.0
 47
0.0
 47
0.0
 47
1.0
 47
0.0
 47
0.0
 47
0.0
 47
0.0
 47
1.0
171
     0
 49
0.0208333333333333
 49
0.0
 49
0.0
 49
0.0
 49
0.0
 49
0.0208333333333333
 49
0.0
 49
0.0
 49
0.0
 49
0.0
 49
1.0
 49
0.0
 49
0.0
 49
0.0
 49
0.0
 49
1.0
175
     0
142
0.0208333333333333
142
0.0
142
0.0
142
0.0
142
0.0
142
0.0208333333333333
142
0.0
142
0.0
142
0.0
142
0.0
142
1.0
142
0.0
142
0.0
142
0.0
142
0.0
142
1.0
179
     0
144
0.0208333333333333
144
0.0
144
0.0
144
0.0
144
0.0
144
0.0208333333333333
144
0.0
144
0.0
144
0.0
144
0.0
144
1.0
144
0.0
144
0.0
144
0.0
144
0.0
144
1.0
147
0.0208333333333333
147
0.0
147
0.0
147
0.0
147
0.0
147
0.0208333333333333
147
0.0
147
0.0
147
0.0
147
0.0
147
1.0
147
0.0
147
0.0
147
0.0
147
0.0
147
1.0
  0
MLEADERSTYLE
  5
12E9
102
{ACAD_REACTORS
330
12E8
102
}
330
12E8
100
AcDbMLeaderStyle
170
     2
171
     1
172
     0
 90
        2
 40
0.0
 41
0.0
173
     1
 91
-1056964608
340
854
 92
       -2
290
     1
 42
0.09
291
     1
 43
0.36
  3
Standard
 44
0.18
300

342
852
174
     1
178
     6
175
     1
176
     0
 93
-1056964608
 45
0.18
292
     0
297
     0
 46
0.18
 94
-1056964608
 47
1.0
 49
1.0
140
1.0
293
     1
141
0.0
294
     1
177
     0
142
1.0
295
     0
296
     0
143
0.125
1001
ACAD_MLEADERVER
1070
     2
  0
MLINESTYLE
  5
858
102
{ACAD_REACTORS
330
857
102
}
330
857
100
AcDbMlineStyle
  2
STANDARD
 70
     0
  3

 62
   256
 51
90.0
 52
90.0
 71
     2
 49
0.5
 62
   256
  6
BYLAYER
 49
-0.5
 62
   256
  6
BYLAYER
  0
ACDBPLACEHOLDER
  5
B83
102
{ACAD_REACTORS
330
B82
102
}
330
B82
  0
SCALE
  5
12C7
102
{ACAD_REACTORS
330
12C6
102
}
330
12C6
100
AcDbScale
 70
     0
300
1:1
140
1.0
141
1.0
290
     1
  0
SCALE
  5
12C8
102
{ACAD_REACTORS
330
12C6
102
}
330
12C6
100
AcDbScale
 70
     0
300
1:2
140
1.0
141
2.0
290
     0
  0
SCALE
  5
12C9
102
{ACAD_REACTORS
330
12C6
102
}
330
12C6
100
AcDbScale
 70
     0
300
1:4
140
1.0
141
4.0
290
     0
  0
SCALE
  5
12CA
102
{ACAD_REACTORS
330
12C6
102
}
330
12C6
100
AcDbScale
 70
     0
300
1:5
140
1.0
141
5.0
290
     0
  0
SCALE
  5
12CB
102
{ACAD_REACTORS
330
12C6
102
}
330
12C6
100
AcDbScale
 70
     0
300
1:8
140
1.0
141
8.0
290
     0
  0
SCALE
  5
12CC
102
{ACAD_REACTORS
330
12C6
102
}
330
12C6
100
AcDbScale
 70
     0
300
1:10
140
1.0
141
10.0
290
     0
  0
SCALE
  5
12CD
102
{ACAD_REACTORS
330
12C6
102
}
330
12C6
100
AcDbScale
 70
     0
300
1:16
140
1.0
141
16.0
290
     0
  0
SCALE
  5
12CE
102
{ACAD_REACTORS
330
12C6
102
}
330
12C6
100
AcDbScale
 70
     0
300
1:20
140
1.0
141
20.0
290
     0
  0
SCALE
  5
12CF
102
{ACAD_REACTORS
330
12C6
102
}
330
12C6
100
AcDbScale
 70
     0
300
1:30
140
1.0
141
30.0
290
     0
  0
SCALE
  5
12D0
102
{ACAD_REACTORS
330
12C6
102
}
330
12C6
100
AcDbScale
 70
     0
300
1:40
140
1.0
141
40.0
290
     0
  0
SCALE
  5
12D1
102
{ACAD_REACTORS
330
12C6
102
}
330
12C6
100
AcDbScale
 70
     0
300
1:50
140
1.0
141
50.0
290
     0
  0
SCALE
  5
12D2
102
{ACAD_REACTORS
330
12C6
102
}
330
12C6
100
AcDbScale
 70
     0
300
1:100
140
1.0
141
100.0
290
     0
  0
SCALE
  5
12D3
102
{ACAD_REACTORS
330
12C6
102
}
330
12C6
100
AcDbScale
 70
     0
300
2:1
140
2.0
141
1.0
290
     0
  0
SCALE
  5
12D4
102
{ACAD_REACTORS
330
12C6
102
}
330
12C6
100
AcDbScale
 70
     0
300
4:1
140
4.0
141
1.0
290
     0
  0
SCALE
  5
12D5
102
{ACAD_REACTORS
330
12C6
102
}
330
12C6
100
AcDbScale
 70
     0
300
8:1
140
8.0
141
1.0
290
     0
  0
SCALE
  5
12D6
102
{ACAD_REACTORS
330
12C6
102
}
330
12C6
100
AcDbScale
 70
     0
300
10:1
140
10.0
141
1.0
290
     0
  0
SCALE
  5
12D7
102
{ACAD_REACTORS
330
12C6
102
}
330
12C6
100
AcDbScale
 70
     0
300
100:1
140
100.0
141
1.0
290
     0
  0
SCALE
  5
12D8
102
{ACAD_REACTORS
330
12C6
102
}
330
12C6
100
AcDbScale
 70
     0
300
1/128" = 1'-0"
140
0.0078125
141
12.0
290
     0
  0
SCALE
  5
12D9
102
{ACAD_REACTORS
330
12C6
102
}
330
12C6
100
AcDbScale
 70
     0
300
1/64" = 1'-0"
140
0.015625
141
12.0
290
     0
  0
SCALE
  5
12DA
102
{ACAD_REACTORS
330
12C6
102
}
330
12C6
100
AcDbScale
 70
     0
300
1/32" = 1'-0"
140
0.03125
141
12.0
290
     0
  0
SCALE
  5
12DB
102
{ACAD_REACTORS
330
12C6
102
}
330
12C6
100
AcDbScale
 70
     0
300
1/16" = 1'-0"
140
0.0625
141
12.0
290
     0
  0
SCALE
  5
12DC
102
{ACAD_REACTORS
330
12C6
102
}
330
12C6
100
AcDbScale
 70
     0
300
3/32" = 1'-0"
140
0.09375
141
12.0
290
     0
  0
SCALE
  5
12DD
102
{ACAD_REACTORS
330
12C6
102
}
330
12C6
100
AcDbScale
 70
     0
300
1/8" = 1'-0"
140
0.125
141
12.0
290
     0
  0
SCALE
  5
12DE
102
{ACAD_REACTORS
330
12C6
102
}
330
12C6
100
AcDbScale
 70
     0
300
3/16" = 1'-0"
140
0.1875
141
12.0
290
     0
  0
SCALE
  5
12DF
102
{ACAD_REACTORS
330
12C6
102
}
330
12C6
100
AcDbScale
 70
     0
300
1/4" = 1'-0"
140
0.25
141
12.0
290
     0
  0
SCALE
  5
12E0
102
{ACAD_REACTORS
330
12C6
102
}
330
12C6
100
AcDbScale
 70
     0
300
3/8" = 1'-0"
140
0.375
141
12.0
290
     0
  0
SCALE
  5
12E1
102
{ACAD_REACTORS
330
12C6
102
}
330
12C6
100
AcDbScale
 70
     0
300
1/2" = 1'-0"
140
0.5
141
12.0
290
     0
  0
SCALE
  5
12E2
102
{ACAD_REACTORS
330
12C6
102
}
330
12C6
100
AcDbScale
 70
     0
300
3/4" = 1'-0"
140
0.75
141
12.0
290
     0
  0
SCALE
  5
12E3
102
{ACAD_REACTORS
330
12C6
102
}
330
12C6
100
AcDbScale
 70
     0
300
1" = 1'-0"
140
1.0
141
12.0
290
     0
  0
SCALE
  5
12E4
102
{ACAD_REACTORS
330
12C6
102
}
330
12C6
100
AcDbScale
 70
     0
300
1-1/2" = 1'-0"
140
1.5
141
12.0
290
     0
  0
SCALE
  5
12E5
102
{ACAD_REACTORS
330
12C6
102
}
330
12C6
100
AcDbScale
 70
     0
300
3" = 1'-0"
140
3.0
141
12.0
290
     0
  0
SCALE
  5
12E6
102
{ACAD_REACTORS
330
12C6
102
}
330
12C6
100
AcDbScale
 70
     0
300
6" = 1'-0"
140
6.0
141
12.0
290
     0
  0
SCALE
  5
12E7
102
{ACAD_REACTORS
330
12C6
102
}
330
12C6
100
AcDbScale
 70
     0
300
1'-0" = 1'-0"
140
12.0
141
12.0
290
     0
  0
TABLESTYLE
  5
114D
102
{ACAD_XDICTIONARY
360
14CA
102
}
102
{ACAD_REACTORS
330
114C
102
}
330
114C
100
AcDbTableStyle
  3
Standard
 70
     0
 71
     0
 40
0.06
 41
0.06
280
     0
281
     0
  7
STANDARD
140
0.18
170
     2
 62
     0
 63
     7
283
     0
274
    -2
284
     1
 64
     0
275
    -2
285
     1
 65
     0
276
    -2
286
     1
 66
     0
277
    -2
287
     1
 67
     0
278
    -2
288
     1
 68
     0
279
    -2
289
     1
 69
     0
  7
STANDARD
140
0.25
170
     5
 62
     0
 63
     7
283
     0
274
    -2
284
     1
 64
     0
275
    -2
285
     1
 65
     0
276
    -2
286
     1
 66
     0
277
    -2
287
     1
 67
     0
278
    -2
288
     1
 68
     0
279
    -2
289
     1
 69
     0
  7
STANDARD
140
0.18
170
     5
 62
     0
 63
     7
283
     0
274
    -2
284
     1
 64
     0
275
    -2
285
     1
 65
     0
276
    -2
286
     1
 66
     0
277
    -2
287
     1
 67
     0
278
    -2
288
     1
 68
     0
279
    -2
289
     1
 69
     0
  0
VISUALSTYLE
  5
12BB
102
{ACAD_REACTORS
330
12B5
102
}
330
12B5
100
AcDbVisualStyle
  2
2dWireframe
 70
     4
 71
     0
 72
     2
 73
     0
 90
        0
 40
-0.6
 41
-30.0
 62
     5
 63
     7
 74
     1
 91
        4
 64
     7
 65
   257
 75
     1
175
     1
 42
1.0
 92
        0
 66
   257
 43
1.0
 76
     1
 77
     6
 78
     2
 67
     7
 79
     5
170
     0
171
     0
290
     0
174
     0
 93
        1
 44
0.0
173
     0
291
     0
 45
0.0
1001
ACAD
1000
AcDbSavedByObjectVersion
1070
     0
1000
AcDbSavedByObjectVersion
1070
     0
1000
AcDbSavedByObjectVersion
1070
     0
1000
AcDbSavedByObjectVersion
1070
     0
1000
AcDbSavedByObjectVersion
1070
     0
1000
AcDbSavedByObjectVersion
1070
     0
  0
VISUALSTYLE
  5
12BD
102
{ACAD_REACTORS
330
12B5
102
}
330
12B5
100
AcDbVisualStyle
  2
3D Hidden
 70
     6
 71
     1
 72
     2
 73
     2
 90
        0
 40
-0.6
 41
-30.0
 62
     5
 63
     7
 74
     2
 91
        2
 64
     7
 65
   257
 75
     2
175
     1
 42
40.0
 92
        0
 66
   257
 43
1.0
 76
     1
 77
     6
 78
     2
 67
     7
 79
     3
170
     0
171
     0
290
     0
174
     0
 93
        1
 44
0.0
173
     0
291
     0
 45
0.0
1001
ACAD
1000
AcDbSavedByObjectVersion
1070
     0
1000
AcDbSavedByObjectVersion
1070
     0
1000
AcDbSavedByObjectVersion
1070
     0
1000
AcDbSavedByObjectVersion
1070
     0
1000
AcDbSavedByObjectVersion
1070
     0
1000
AcDbSavedByObjectVersion
1070
     0
  0
VISUALSTYLE
  5
12BC
102
{ACAD_REACTORS
330
12B5
102
}
330
12B5
100
AcDbVisualStyle
  2
3dWireframe
 70
     5
 71
     0
 72
     2
 73
     0
 90
        0
 40
-0.6
 41
-30.0
 62
     5
 63
     7
 74
     1
 91
        4
 64
     7
 65
   257
 75
     1
175
     1
 42
1.0
 92
        0
 66
   257
 43
1.0
 76
     1
 77
     6
 78
     2
 67
     7
 79
     5
170
     0
171
     0
290
     0
174
     0
 93
        1
 44
0.0
173
     0
291
     0
 45
0.0
1001
ACAD
1000
AcDbSavedByObjectVersion
1070
     0
1000
AcDbSavedByObjectVersion
1070
     0
1000
AcDbSavedByObjectVersion
1070
     0
1000
AcDbSavedByObjectVersion
1070
     0
1000
AcDbSavedByObjectVersion
1070
     0
1000
AcDbSavedByObjectVersion
1070
     0
  0
VISUALSTYLE
  5
12BA
102
{ACAD_REACTORS
330
12B5
102
}
330
12B5
100
AcDbVisualStyle
  2
Basic
 70
     7
 71
     1
 72
     0
 73
     1
 90
        0
 40
-0.6
 41
-30.0
 62
     5
 63
     7
 74
     0
 91
        4
 64
     7
 65
   257
 75
     1
175
     1
 42
1.0
 92
        8
 66
     7
 43
1.0
 76
     1
 77
     6
 78
     2
 67
     7
 79
     5
170
     0
171
     0
290
     0
174
     0
 93
        1
 44
0.0
173
     0
291
     1
 45
0.0
1001
ACAD
1000
AcDbSavedByObjectVersion
1070
     0
1000
AcDbSavedByObjectVersion
1070
     0
1000
AcDbSavedByObjectVersion
1070
     0
1000
AcDbSavedByObjectVersion
1070
     0
1000
AcDbSavedByObjectVersion
1070
     0
1000
AcDbSavedByObjectVersion
1070
     0
  0
VISUALSTYLE
  5
12C1
102
{ACAD_REACTORS
330
12B5
102
}
330
12B5
100
AcDbVisualStyle
  2
Brighten
 70
    12
 71
     2
 72
     2
 73
     0
 90
        0
 40
-0.6
 41
-30.0
 62
     5
 63
     7
 74
     1
 91
        4
 64
     7
 65
   257
 75
     1
175
     1
 42
1.0
 92
        8
 66
     7
 43
1.0
 76
     1
 77
     6
 78
     2
 67
     7
 79
     5
170
     0
171
     0
290
     0
174
     0
 93
        1
 44
50.0
173
     0
291
     1
 45
0.0
1001
ACAD
1000
AcDbSavedByObjectVersion
1070
     0
1000
AcDbSavedByObjectVersion
1070
     0
1000
AcDbSavedByObjectVersion
1070
     0
1000
AcDbSavedByObjectVersion
1070
     0
1000
AcDbSavedByObjectVersion
1070
     0
1000
AcDbSavedByObjectVersion
1070
     0
  0
VISUALSTYLE
  5
12C5
102
{ACAD_REACTORS
330
12B5
102
}
330
12B5
100
AcDbVisualStyle
  2
ColorChange
 70
    16
 71
     2
 72
     2
 73
     3
 90
        0
 40
-0.6
 41
-30.0
 62
     5
 63
     8
 74
     1
 91
        4
 64
     7
 65
   257
 75
     1
175
     1
 42
1.0
 92
        8
 66
     8
 43
1.0
 76
     1
 77
     6
 78
     2
 67
     7
 79
     5
170
     0
171
     0
290
     0
174
     0
 93
        1
 44
0.0
173
     0
291
     1
 45
0.0
1001
ACAD
1000
AcDbSavedByObjectVersion
1070
     0
1000
AcDbSavedByObjectVersion
1070
     0
1000
AcDbSavedByObjectVersion
1070
     0
1000
AcDbSavedByObjectVersion
1070
     0
1000
AcDbSavedByObjectVersion
1070
     0
1000
AcDbSavedByObjectVersion
1070
     0
  0
VISUALSTYLE
  5
12BE
102
{ACAD_REACTORS
330
12B5
102
}
330
12B5
100
AcDbVisualStyle
  2
Conceptual
 70
     9
 71
     3
 72
     2
 73
     0
 90
        0
 40
-0.6
 41
-30.0
 62
     5
 63
     7
 74
     2
 91
        2
 64
     7
 65
   257
 75
     1
175
     1
 42
40.0
 92
        8
 66
     7
 43
1.0
 76
     1
 77
     6
 78
     2
 67
     7
 79
     3
170
     0
171
     0
290
     0
174
     0
 93
        1
 44
0.0
173
     0
291
     0
 45
0.0
1001
ACAD
1000
AcDbSavedByObjectVersion
1070
     0
1000
AcDbSavedByObjectVersion
1070
     0
1000
AcDbSavedByObjectVersion
1070
     0
1000
AcDbSavedByObjectVersion
1070
     0
1000
AcDbSavedByObjectVersion
1070
     0
1000
AcDbSavedByObjectVersion
1070
     0
  0
VISUALSTYLE
  5
12C0
102
{ACAD_REACTORS
330
12B5
102
}
330
12B5
100
AcDbVisualStyle
  2
Dim
 70
    11
 71
     2
 72
     2
 73
     0
 90
        0
 40
-0.6
 41
-30.0
 62
     5
 63
     7
 74
     1
 91
        4
 64
     7
 65
   257
 75
     1
175
     1
 42
1.0
 92
        8
 66
     7
 43
1.0
 76
     1
 77
     6
 78
     2
 67
     7
 79
     5
170
     0
171
     0
290
     0
174
     0
 93
        1
 44
-50.0
173
     0
291
     1
 45
0.0
1001
ACAD
1000
AcDbSavedByObjectVersion
1070
     0
1000
AcDbSavedByObjectVersion
1070
     0
1000
AcDbSavedByObjectVersion
1070
     0
1000
AcDbSavedByObjectVersion
1070
     0
1000
AcDbSavedByObjectVersion
1070
     0
1000
AcDbSavedByObjectVersion
1070
     0
  0
VISUALSTYLE
  5
12C4
102
{ACAD_REACTORS
330
12B5
102
}
330
12B5
100
AcDbVisualStyle
  2
Facepattern
 70
    15
 71
     2
 72
     2
 73
     0
 90
        0
 40
-0.6
 41
-30.0
 62
     5
 63
     7
 74
     1
 91
        4
 64
     7
 65
   257
 75
     1
175
     1
 42
1.0
 92
        8
 66
     7
 43
1.0
 76
     1
 77
     6
 78
     2
 67
     7
 79
     5
170
     0
171
     0
290
     0
174
     0
 93
        1
 44
0.0
173
     0
291
     1
 45
0.0
1001
ACAD
1000
AcDbSavedByObjectVersion
1070
     0
1000
AcDbSavedByObjectVersion
1070
     0
1000
AcDbSavedByObjectVersion
1070
     0
1000
AcDbSavedByObjectVersion
1070
     0
1000
AcDbSavedByObjectVersion
1070
     0
1000
AcDbSavedByObjectVersion
1070
     0
  0
VISUALSTYLE
  5
12B6
102
{ACAD_REACTORS
330
12B5
102
}
330
12B5
100
AcDbVisualStyle
  2
Flat
 70
     0
 71
     2
 72
     1
 73
     1
 90
        2
 40
-0.6
 41
30.0
 62
     5
 63
     7
 74
     0
 91
        4
 64
     7
 65
   257
 75
     1
175
     1
 42
1.0
 92
        8
 66
     7
 43
1.0
 76
     1
 77
     6
 78
     2
 67
     7
 79
     5
170
     0
171
     0
290
     0
174
     0
 93
       13
 44
0.0
173
     0
291
     1
 45
0.0
1001
ACAD
1000
AcDbSavedByObjectVersion
1070
     0
1000
AcDbSavedByObjectVersion
1070
     0
1000
AcDbSavedByObjectVersion
1070
     0
1000
AcDbSavedByObjectVersion
1070
     0
1000
AcDbSavedByObjectVersion
1070
     0
1000
AcDbSavedByObjectVersion
1070
     0
  0
VISUALSTYLE
  5
12B7
102
{ACAD_REACTORS
330
12B5
102
}
330
12B5
100
AcDbVisualStyle
  2
FlatWithEdges
 70
     1
 71
     2
 72
     1
 73
     1
 90
        2
 40
-0.6
 41
30.0
 62
     5
 63
     7
 74
     1
 91
        4
 64
     7
 65
   257
 75
     1
175
     1
 42
1.0
 92
        0
 66
   257
 43
1.0
 76
     1
 77
     6
 78
     2
 67
     7
 79
     5
170
     0
171
     0
290
     0
174
     0
 93
       13
 44
0.0
173
     0
291
     1
 45
0.0
1001
ACAD
1000
AcDbSavedByObjectVersion
1070
     0
1000
AcDbSavedByObjectVersion
1070
     0
1000
AcDbSavedByObjectVersion
1070
     0
1000
AcDbSavedByObjectVersion
1070
     0
1000
AcDbSavedByObjectVersion
1070
     0
1000
AcDbSavedByObjectVersion
1070
     0
  0
VISUALSTYLE
  5
12B8
102
{ACAD_REACTORS
330
12B5
102
}
330
12B5
100
AcDbVisualStyle
  2
Gouraud
 70
     2
 71
     2
 72
     2
 73
     1
 90
        2
 40
-0.6
 41
30.0
 62
     5
 63
     7
 74
     0
 91
        4
 64
     7
 65
   257
 75
     1
175
     1
 42
1.0
 92
        0
 66
     7
 43
1.0
 76
     1
 77
     6
 78
     2
 67
     7
 79
     5
170
     0
171
     0
290
     0
174
     0
 93
       13
 44
0.0
173
     0
291
     1
 45
0.0
1001
ACAD
1000
AcDbSavedByObjectVersion
1070
     0
1000
AcDbSavedByObjectVersion
1070
     0
1000
AcDbSavedByObjectVersion
1070
     0
1000
AcDbSavedByObjectVersion
1070
     0
1000
AcDbSavedByObjectVersion
1070
     0
1000
AcDbSavedByObjectVersion
1070
     0
  0
VISUALSTYLE
  5
12B9
102
{ACAD_REACTORS
330
12B5
102
}
330
12B5
100
AcDbVisualStyle
  2
GouraudWithEdges
 70
     3
 71
     2
 72
     2
 73
     1
 90
        2
 40
-0.6
 41
30.0
 62
     5
 63
     7
 74
     1
 91
        4
 64
     7
 65
   257
 75
     1
175
     1
 42
1.0
 92
        0
 66
   257
 43
1.0
 76
     1
 77
     6
 78
     2
 67
     7
 79
     5
170
     0
171
     0
290
     0
174
     0
 93
       13
 44
0.0
173
     0
291
     1
 45
0.0
1001
ACAD
1000
AcDbSavedByObjectVersion
1070
     0
1000
AcDbSavedByObjectVersion
1070
     0
1000
AcDbSavedByObjectVersion
1070
     0
1000
AcDbSavedByObjectVersion
1070
     0
1000
AcDbSavedByObjectVersion
1070
     0
1000
AcDbSavedByObjectVersion
1070
     0
  0
VISUALSTYLE
  5
12C3
102
{ACAD_REACTORS
330
12B5
102
}
330
12B5
100
AcDbVisualStyle
  2
Linepattern
 70
    14
 71
     2
 72
     2
 73
     0
 90
        0
 40
-0.6
 41
-30.0
 62
     5
 63
     7
 74
     1
 91
        4
 64
     7
 65
   257
 75
     7
175
     7
 42
1.0
 92
        8
 66
     7
 43
1.0
 76
     1
 77
     6
 78
     2
 67
     7
 79
     5
170
     0
171
     0
290
     0
174
     0
 93
        1
 44
0.0
173
     0
291
     1
 45
0.0
1001
ACAD
1000
AcDbSavedByObjectVersion
1070
     0
1000
AcDbSavedByObjectVersion
1070
     0
1000
AcDbSavedByObjectVersion
1070
     0
1000
AcDbSavedByObjectVersion
1070
     0
1000
AcDbSavedByObjectVersion
1070
     0
1000
AcDbSavedByObjectVersion
1070
     0
  0
VISUALSTYLE
  5
12BF
102
{ACAD_REACTORS
330
12B5
102
}
330
12B5
100
AcDbVisualStyle
  2
Realistic
 70
     8
 71
     2
 72
     2
 73
     0
 90
        0
 40
-0.6
 41
-30.0
 62
     5
 63
     7
 74
     1
 91
        0
 64
     7
 65
   257
 75
     1
175
     1
 42
1.0
 92
        8
 66
     8
 43
1.0
 76
     1
 77
     6
 78
     2
 67
     7
 79
     5
170
     0
171
     0
290
     0
174
     0
 93
       13
 44
0.0
173
     0
291
     0
 45
0.0
1001
ACAD
1000
AcDbSavedByObjectVersion
1070
     0
1000
AcDbSavedByObjectVersion
1070
     0
1000
AcDbSavedByObjectVersion
1070
     0
1000
AcDbSavedByObjectVersion
1070
     0
1000
AcDbSavedByObjectVersion
1070
     0
1000
AcDbSavedByObjectVersion
1070
     0
  0
VISUALSTYLE
  5
12C2
102
{ACAD_REACTORS
330
12B5
102
}
330
12B5
100
AcDbVisualStyle
  2
Thicken
 70
    13
 71
     2
 72
     2
 73
     0
 90
        0
 40
-0.6
 41
-30.0
 62
     5
 63
     7
 74
     1
 91
        4
 64
     7
 65
   257
 75
     1
175
     1
 42
1.0
 92
       12
 66
     7
 43
1.0
 76
     1
 77
     6
 78
     2
 67
     7
 79
     5
170
     0
171
     0
290
     0
174
     0
 93
        1
 44
0.0
173
     0
291
     1
 45
0.0
1001
ACAD
1000
AcDbSavedByObjectVersion
1070
     0
1000
AcDbSavedByObjectVersion
1070
     0
1000
AcDbSavedByObjectVersion
1070
     0
1000
AcDbSavedByObjectVersion
1070
     0
1000
AcDbSavedByObjectVersion
1070
     0
1000
AcDbSavedByObjectVersion
1070
     0
  0
DICTIONARYVAR
  5
14C8
102
{ACAD_REACTORS
330
B87
102
}
330
B87
100
DictionaryVariables
280
     0
  1
1:1
  0
DICTIONARYVAR
  5
14C7
102
{ACAD_REACTORS
330
B87
102
}
330
B87
100
DictionaryVariables
280
     0
  1
STANDARD
  0
DICTIONARYVAR
  5
127D
102
{ACAD_REACTORS
330
B87
102
}
330
B87
100
DictionaryVariables
280
     0
  1
STANDARD
  0
DICTIONARYVAR
  5
B88
102
{ACAD_REACTORS
330
B87
102
}
330
B87
100
DictionaryVariables
280
     0
  1
1
  0
DICTIONARYVAR
  5
127E
102
{ACAD_REACTORS
330
B87
102
}
330
B87
100
DictionaryVariables
280
     0
  1
1
  0
DICTIONARYVAR
  5
127F
102
{ACAD_REACTORS
330
B87
102
}
330
B87
100
DictionaryVariables
280
     0
  1

  0
DICTIONARYVAR
  5
14C9
102
{ACAD_REACTORS
330
B87
102
}
330
B87
100
DictionaryVariables
280
     0
  1
127
  0
DICTIONARY
  5
121E
102
{ACAD_REACTORS
330
1212
102
}
330
1212
100
AcDbDictionary
281
     1
  0
XRECORD
  5
123E
102
{ACAD_REACTORS
330
1212
102
}
330
1212
100
AcDbXrecord
280
     1
 90
-1023410169
  0
DICTIONARY
  5
1152
102
{ACAD_REACTORS
330
1151
102
}
330
1151
100
AcDbDictionary
281
     1
  3
DWGSETTINGS
350
1D27
  3
TRANSSETTINGS
350
1D28
  0
ACAMGFILTERDAT
  5
126D
102
{ACAD_REACTORS
330
1268
102
}
330
1268
100
AcAmgFilterDat
 70
    15
  1
DIMENSION,AMDT_*_DIM
  2
*
  3
*
  4
*
  5
*
290
     1
1001
ACAD
1000
AcRTDxfName
1000
ACAMGFILTERDAT
  0
ACAMGFILTERDAT
  5
126C
102
{ACAD_REACTORS
330
1268
102
}
330
1268
100
AcAmgFilterDat
 70
    15
  1
*
  2
AM_FEA-AM_*
  3
*
  4
*
  5
*
290
     1
1001
ACAD
1000
AcRTDxfName
1000
ACAMGFILTERDAT
  0
ACAMGFILTERDAT
  5
1269
102
{ACAD_REACTORS
330
1268
102
}
330
1268
100
AcAmgFilterDat
 70
    15
  1
HATCH
  2
*
  3
*
  4
*
  5
*
290
     1
1001
ACAD
1000
AcRTDxfName
1000
ACAMGFILTERDAT
  0
ACAMGFILTERDAT
  5
126A
102
{ACAD_REACTORS
330
1268
102
}
330
1268
100
AcAmgFilterDat
 70
    15
  1
LINE
  2
8,8N,*-8,*-8N,AM_8,AM_8N,*-AM_8,*-AM_8N
  3
*
  4
*
  5
INSERT,STDPART2D
290
     1
1001
ACAD
1000
AcRTDxfName
1000
ACAMGFILTERDAT
  0
ACAMGFILTERDAT
  5
126E
102
{ACAD_REACTORS
330
1268
102
}
330
1268
100
AcAmgFilterDat
 70
    15
  1
ARC
  2
AM_5
  3
*
  4
2
  5
INSERT
290
     0
1001
ACAD
1000
AcRTDxfName
1000
ACAMGFILTERDAT
  0
ACAMGFILTERDAT
  5
126B
102
{ACAD_REACTORS
330
1268
102
}
330
1268
100
AcAmgFilterDat
 70
    15
  1
ACMFCFRAME,ACMDATUMTARGET,ACMDATUMID,ACMWELDSYM,ACMSURFSYM,ACMFEATID,ACMPARTREF,ACMBALLOON,AMDTEDGESYM,AMGSCREWCALCTABLE
  2
*
  3
*
  4
*
  5
*
290
     1
1001
ACAD
1000
AcRTDxfName
1000
ACAMGFILTERDAT
  0
LAYER_INDEX
  5
1270
102
{ACAD_REACTORS
330
126F
102
}
330
126F
100
AcDbIndex
 40
2456533.546283912
100
AcDbLayerIndex
  8
0
360
1271
 90
        0
  8
OUTLINE
360
1272
 90
      175
  8
SIZE
360
1273
 90
       30
  8
BASIS
360
1274
 90
        1
  8
DETAIL
360
1275
 90
      169
  8
ARRANGE
360
1276
 90
        3
  8
DEFPOINTS
360
1277
 90
        0
  8
ETC
360
1278
 90
        1
  8
FIX
360
1279
 90
        0
  8
NOTE
360
127A
 90
       16
  8
SERVICESPACE
360
127B
 90
        0
  8
SYMBOLLINE
360
127C
 90
        0
  0
DICTIONARY
  5
1E25
330
B84
100
AcDbDictionary
280
     1
281
     1
  3
ACAD_XREC_ROUNDTRIP
360
1E26
  0
DICTIONARY
  5
1E27
330
B85
100
AcDbDictionary
280
     1
281
     1
  3
ACAD_XREC_ROUNDTRIP
360
1E28
  0
DICTIONARY
  5
12A6
330
12A5
100
AcDbDictionary
280
     1
281
     1
  3
ACAD_XREC_ROUNDTRIP
360
14D6
  3
BUMPTILE
360
12A8
  3
DIFFUSETILE
360
12A7
  3
OPACITYTILE
360
12AB
  3
REFLECTIONTILE
360
12AA
  3
REFRACTIONTILE
360
12AC
  3
SPECULARTILE
360
12A9
  0
DICTIONARY
  5
129E
330
129D
100
AcDbDictionary
280
     1
281
     1
  3
ACAD_XREC_ROUNDTRIP
360
14D5
  3
BUMPTILE
360
12A0
  3
DIFFUSETILE
360
129F
  3
OPACITYTILE
360
12A3
  3
REFLECTIONTILE
360
12A2
  3
REFRACTIONTILE
360
12A4
  3
SPECULARTILE
360
12A1
  0
DICTIONARY
  5
12AE
330
12AD
100
AcDbDictionary
280
     1
281
     1
  3
ACAD_XREC_ROUNDTRIP
360
14D7
  3
BUMPTILE
360
12B0
  3
DIFFUSETILE
360
12AF
  3
OPACITYTILE
360
12B3
  3
REFLECTIONTILE
360
12B2
  3
REFRACTIONTILE
360
12B4
  3
SPECULARTILE
360
12B1
  0
DICTIONARY
  5
14CA
330
114D
100
AcDbDictionary
280
     1
281
     1
  3
ACAD_ROUNDTRIP_2008_TABLESTYLE_CELLSTYLEMAP
360
1E1E
  3
ACAD_XREC_ROUNDTRIP
360
1E29
  0
IDBUFFER
  5
1271
330
0
100
AcDbIdBuffer
  0
IDBUFFER
  5
1272
330
0
100
AcDbIdBuffer
330
953
330
954
330
955
330
956
330
957
330
958
330
1C00
330
1C01
330
1C02
330
1C03
330
1C04
330
1C05
330
1C06
330
1C07
330
1C08
330
1C09
330
1C0A
330
1C0B
330
1C0C
330
1C0D
330
1C0E
330
1C0F
330
1C10
330
1C11
330
1C12
330
1C13
330
1C14
330
1C15
330
1C16
330
1C17
330
1C18
330
1C19
330
1C1A
330
1C1B
330
1C1C
330
1C1D
330
1C1E
330
1C1F
330
1C20
330
1C21
330
1C22
330
1C23
330
1C24
330
1C25
330
1C26
330
1C27
330
1C28
330
1C29
330
1C2A
330
1C2B
330
1C2C
330
1C2D
330
1C2E
330
1C2F
330
1C30
330
1C31
330
1C32
330
1C33
330
1C34
330
1C35
330
1C36
330
1C37
330
1C38
330
1C39
330
1C3A
330
1C3B
330
1C3C
330
1C3D
330
1C3E
330
1C3F
330
1C40
330
1C41
330
1C42
330
1C43
330
1C44
330
1C45
330
1C46
330
1C47
330
1C48
330
1C49
330
1C4A
330
1C4B
330
1C4C
330
1C4D
330
1C4E
330
1C4F
330
1C50
330
1C51
330
1C52
330
1C53
330
1C54
330
1C55
330
1C56
330
1C57
330
1C58
330
1C59
330
1C5A
330
1C5B
330
1C5C
330
1C5D
330
1C5E
330
1C5F
330
1C60
330
1C61
330
1C62
330
1C63
330
1C64
330
1C65
330
1C66
330
1C67
330
1C68
330
1C69
330
1C6A
330
1C6B
330
1C6C
330
1C6D
330
1C6E
330
1C6F
330
1C70
330
1C71
330
1C72
330
1C73
330
1C74
330
1C75
330
1C76
330
1C77
330
1C78
330
1C79
330
1C7A
330
1C7B
330
1C7C
330
1C7D
330
1C7E
330
1C7F
330
1C80
330
1C81
330
1C82
330
1C83
330
1C84
330
1C85
330
1C86
330
1C87
330
1C88
330
1C89
330
1C8A
330
1C8B
330
1C8C
330
1C8D
330
1C8E
330
1C8F
330
1C90
330
1C91
330
1C92
330
1C93
330
1C94
330
1C95
330
1C96
330
1C97
330
1C98
330
1C99
330
1C9A
330
1C9B
330
1C9C
330
1C9D
330
1C9E
330
1C9F
330
1CA0
330
1CA1
330
1CA2
330
1CA3
330
1CA4
330
1CA5
330
1CA6
330
1CA7
330
1CA8
  0
IDBUFFER
  5
1273
330
0
100
AcDbIdBuffer
330
1E0F
330
1E10
330
1E11
330
1E12
330
1E13
330
1E14
330
1E15
330
1E16
330
1E17
330
1E18
330
1E19
330
1E1A
330
1E1B
330
1E1C
330
1E1D
330
1DFD
330
1DFE
330
1DFF
330
1E00
330
1E01
330
1E02
330
1E03
330
1E04
330
1E05
330
1E06
330
1E07
330
1E08
330
1E0C
330
1E0D
330
1E0E
  0
IDBUFFER
  5
1274
330
0
100
AcDbIdBuffer
330
1BF6
  0
IDBUFFER
  5
1275
330
0
100
AcDbIdBuffer
330
1B3E
330
1B3F
330
1B40
330
1B41
330
1B42
330
1B43
330
1B44
330
1B45
330
1B46
330
1B47
330
1B48
330
1B49
330
1B4A
330
1B4B
330
1B4C
330
1B4D
330
1B4E
330
1B4F
330
1B50
330
1B51
330
1B52
330
1B53
330
1B54
330
1B55
330
1B56
330
1B57
330
1B58
330
1B59
330
1B5A
330
1B5B
330
1B5C
330
1B5D
330
1B5E
330
1B5F
330
1B60
330
1B61
330
1B62
330
1B63
330
1B64
330
1B65
330
1B66
330
1B67
330
1B68
330
1B69
330
1B6A
330
1B6B
330
1B6C
330
1B6D
330
1B6E
330
1B6F
330
1B70
330
1B71
330
1B72
330
1B73
330
1B74
330
1B75
330
1B76
330
1B77
330
1B78
330
1B79
330
1B7A
330
1B7B
330
1B7C
330
1B7D
330
1B7E
330
1B7F
330
1B80
330
1B81
330
1B82
330
1B83
330
1B84
330
1B85
330
1B86
330
1B87
330
1B88
330
1B89
330
1B8A
330
1B8B
330
1B8C
330
1B8D
330
1B8E
330
1B8F
330
1B90
330
1B91
330
1B92
330
1B93
330
1B94
330
1B95
330
1B96
330
1B97
330
1B98
330
1B99
330
1B9A
330
1B9B
330
1B9C
330
1B9D
330
1B9E
330
1B9F
330
1BA0
330
1BA1
330
1BA2
330
1BA3
330
1BA4
330
1BA5
330
1BA6
330
1BA7
330
1BA8
330
1BA9
330
1BAA
330
1BAB
330
1BAC
330
1BAD
330
1BAE
330
1BAF
330
1BB0
330
1BB1
330
1BB2
330
1BB3
330
1BB4
330
1BB5
330
1BB6
330
1BB7
330
1BB8
330
1BB9
330
1BBA
330
1BBB
330
1BBC
330
1BBD
330
1BBE
330
1BBF
330
1BC0
330
1BC1
330
1BC2
330
1BC3
330
1BC4
330
1BC5
330
1BC6
330
1BC7
330
1BC8
330
1BC9
330
1BCA
330
1BCB
330
1BCC
330
1BCD
330
1BCE
330
1BCF
330
1BD0
330
1BD1
330
1BD2
330
1BD3
330
1BD4
330
1BD5
330
1BD6
330
1BD7
330
1BD8
330
1BD9
330
1BDA
330
1BDB
330
1BDC
330
1BDD
330
1BDE
330
1BDF
330
1BE0
330
1BE1
330
1BE2
330
1BE3
330
1BE4
330
1BE5
330
1BE6
  0
IDBUFFER
  5
1276
330
0
100
AcDbIdBuffer
330
1BF7
330
1BF8
330
1BF9
  0
IDBUFFER
  5
1277
330
0
100
AcDbIdBuffer
  0
IDBUFFER
  5
1278
330
0
100
AcDbIdBuffer
330
1BEE
  0
IDBUFFER
  5
1279
330
0
100
AcDbIdBuffer
  0
IDBUFFER
  5
127A
330
0
100
AcDbIdBuffer
330
1E0B
330
1BE7
330
1BE8
330
1BE9
330
1BEA
330
1BEB
330
1BEC
330
1BED
330
1BFA
330
1BFB
330
1BFC
330
1BFD
330
1BFE
330
1BFF
330
1E09
330
1E0A
  0
IDBUFFER
  5
127B
330
0
100
AcDbIdBuffer
  0
IDBUFFER
  5
127C
330
0
100
AcDbIdBuffer
  0
XRECORD
  5
1E26
102
{ACAD_REACTORS
330
1E25
102
}
330
1E25
100
AcDbXrecord
280
     1
102
SHADEPLOT
 70
     0
102
SHADEPLOTRESLEVEL
 70
     2
102
SHADEPLOTCUSTOMDPI
 70
   300
  0
XRECORD
  5
1E28
102
{ACAD_REACTORS
330
1E27
102
}
330
1E27
100
AcDbXrecord
280
     1
102
SHADEPLOT
 70
     0
102
SHADEPLOTRESLEVEL
 70
     2
102
SHADEPLOTCUSTOMDPI
 70
   300
  0
XRECORD
  5
14D6
102
{ACAD_REACTORS
330
12A6
102
}
330
12A6
100
AcDbXrecord
280
     1
102
MATERIAL
148
0.0
149
0.0
149
0.0
 93
        0
 94
      127
282
     0
 72
     0
 77
     0
171
     0
175
     0
179
     0
273
     0
  0
XRECORD
  5
12A8
102
{ACAD_REACTORS
330
12A6
102
}
330
12A6
100
AcDbXrecord
280
     1
270
     1
271
     1
  0
XRECORD
  5
12A7
102
{ACAD_REACTORS
330
12A6
102
}
330
12A6
100
AcDbXrecord
280
     1
270
     1
271
     1
  0
XRECORD
  5
12AB
102
{ACAD_REACTORS
330
12A6
102
}
330
12A6
100
AcDbXrecord
280
     1
270
     1
271
     1
  0
XRECORD
  5
12AA
102
{ACAD_REACTORS
330
12A6
102
}
330
12A6
100
AcDbXrecord
280
     1
270
     1
271
     1
  0
XRECORD
  5
12AC
102
{ACAD_REACTORS
330
12A6
102
}
330
12A6
100
AcDbXrecord
280
     1
270
     1
271
     1
  0
XRECORD
  5
12A9
102
{ACAD_REACTORS
330
12A6
102
}
330
12A6
100
AcDbXrecord
280
     1
270
     1
271
     1
  0
XRECORD
  5
14D5
102
{ACAD_REACTORS
330
129E
102
}
330
129E
100
AcDbXrecord
280
     1
102
MATERIAL
148
0.0
149
0.0
149
0.0
 93
        0
 94
      127
282
     0
 72
     0
 77
     0
171
     0
175
     0
179
     0
273
     0
  0
XRECORD
  5
12A0
102
{ACAD_REACTORS
330
129E
102
}
330
129E
100
AcDbXrecord
280
     1
270
     1
271
     1
  0
XRECORD
  5
129F
102
{ACAD_REACTORS
330
129E
102
}
330
129E
100
AcDbXrecord
280
     1
270
     1
271
     1
  0
XRECORD
  5
12A3
102
{ACAD_REACTORS
330
129E
102
}
330
129E
100
AcDbXrecord
280
     1
270
     1
271
     1
  0
XRECORD
  5
12A2
102
{ACAD_REACTORS
330
129E
102
}
330
129E
100
AcDbXrecord
280
     1
270
     1
271
     1
  0
XRECORD
  5
12A4
102
{ACAD_REACTORS
330
129E
102
}
330
129E
100
AcDbXrecord
280
     1
270
     1
271
     1
  0
XRECORD
  5
12A1
102
{ACAD_REACTORS
330
129E
102
}
330
129E
100
AcDbXrecord
280
     1
270
     1
271
     1
  0
XRECORD
  5
14D7
102
{ACAD_REACTORS
330
12AE
102
}
330
12AE
100
AcDbXrecord
280
     1
102
MATERIAL
148
0.0
149
0.0
149
0.0
 93
        0
 94
      127
282
     0
 72
     0
 77
     0
171
     0
175
     0
179
     0
273
     0
  0
XRECORD
  5
12B0
102
{ACAD_REACTORS
330
12AE
102
}
330
12AE
100
AcDbXrecord
280
     1
270
     1
271
     1
  0
XRECORD
  5
12AF
102
{ACAD_REACTORS
330
12AE
102
}
330
12AE
100
AcDbXrecord
280
     1
270
     1
271
     1
  0
XRECORD
  5
12B3
102
{ACAD_REACTORS
330
12AE
102
}
330
12AE
100
AcDbXrecord
280
     1
270
     1
271
     1
  0
XRECORD
  5
12B2
102
{ACAD_REACTORS
330
12AE
102
}
330
12AE
100
AcDbXrecord
280
     1
270
     1
271
     1
  0
XRECORD
  5
12B4
102
{ACAD_REACTORS
330
12AE
102
}
330
12AE
100
AcDbXrecord
280
     1
270
     1
271
     1
  0
XRECORD
  5
12B1
102
{ACAD_REACTORS
330
12AE
102
}
330
12AE
100
AcDbXrecord
280
     1
270
     1
271
     1
  0
CELLSTYLEMAP
  5
1E1E
102
{ACAD_REACTORS
330
14CA
102
}
330
14CA
100
AcDbCellStyleMap
 90
        3
300
CELLSTYLE
  1
TABLEFORMAT_BEGIN
 90
        5
170
     1
 91
        0
 92
    32768
 62
   257
 93
        1
300
CONTENTFORMAT
  1
CONTENTFORMAT_BEGIN
 90
        0
 91
        0
 92
        4
 93
        0
300

 40
0.0
140
1.0
 94
        5
 62
     0
340
852
144
0.25
309
CONTENTFORMAT_END
171
     1
301
MARGIN
  1
CELLMARGIN_BEGIN
 40
0.06
 40
0.06
 40
0.06
 40
0.06
 40
0.18
 40
0.18
309
CELLMARGIN_END
 94
        6
 95
        1
302
GRIDFORMAT
  1
GRIDFORMAT_BEGIN
 90
        0
 91
        1
 62
     0
 92
       -2
340
0
 93
        0
 40
0.045
309
GRIDFORMAT_END
 95
        2
302
GRIDFORMAT
  1
GRIDFORMAT_BEGIN
 90
        0
 91
        1
 62
     0
 92
       -2
340
0
 93
        0
 40
0.045
309
GRIDFORMAT_END
 95
        4
302
GRIDFORMAT
  1
GRIDFORMAT_BEGIN
 90
        0
 91
        1
 62
     0
 92
       -2
340
0
 93
        0
 40
0.045
309
GRIDFORMAT_END
 95
        8
302
GRIDFORMAT
  1
GRIDFORMAT_BEGIN
 90
        0
 91
        1
 62
     0
 92
       -2
340
0
 93
        0
 40
0.045
309
GRIDFORMAT_END
 95
       16
302
GRIDFORMAT
  1
GRIDFORMAT_BEGIN
 90
        0
 91
        1
 62
     0
 92
       -2
340
0
 93
        0
 40
0.045
309
GRIDFORMAT_END
 95
       32
302
GRIDFORMAT
  1
GRIDFORMAT_BEGIN
 90
        0
 91
        1
 62
     0
 92
       -2
340
0
 93
        0
 40
0.045
309
GRIDFORMAT_END
309
TABLEFORMAT_END
  1
CELLSTYLE_BEGIN
 90
        1
 91
        1
300
_TITLE
309
CELLSTYLE_END
300
CELLSTYLE
  1
TABLEFORMAT_BEGIN
 90
        5
170
     1
 91
        0
 92
        0
 62
   257
 93
        1
300
CONTENTFORMAT
  1
CONTENTFORMAT_BEGIN
 90
        0
 91
        0
 92
        4
 93
        0
300

 40
0.0
140
1.0
 94
        5
 62
     0
340
852
144
0.18
309
CONTENTFORMAT_END
171
     1
301
MARGIN
  1
CELLMARGIN_BEGIN
 40
0.06
 40
0.06
 40
0.06
 40
0.06
 40
0.18
 40
0.18
309
CELLMARGIN_END
 94
        6
 95
        1
302
GRIDFORMAT
  1
GRIDFORMAT_BEGIN
 90
        0
 91
        1
 62
     0
 92
       -2
340
0
 93
        0
 40
0.045
309
GRIDFORMAT_END
 95
        2
302
GRIDFORMAT
  1
GRIDFORMAT_BEGIN
 90
        0
 91
        1
 62
     0
 92
       -2
340
0
 93
        0
 40
0.045
309
GRIDFORMAT_END
 95
        4
302
GRIDFORMAT
  1
GRIDFORMAT_BEGIN
 90
        0
 91
        1
 62
     0
 92
       -2
340
0
 93
        0
 40
0.045
309
GRIDFORMAT_END
 95
        8
302
GRIDFORMAT
  1
GRIDFORMAT_BEGIN
 90
        0
 91
        1
 62
     0
 92
       -2
340
0
 93
        0
 40
0.045
309
GRIDFORMAT_END
 95
       16
302
GRIDFORMAT
  1
GRIDFORMAT_BEGIN
 90
        0
 91
        1
 62
     0
 92
       -2
340
0
 93
        0
 40
0.045
309
GRIDFORMAT_END
 95
       32
302
GRIDFORMAT
  1
GRIDFORMAT_BEGIN
 90
        0
 91
        1
 62
     0
 92
       -2
340
0
 93
        0
 40
0.045
309
GRIDFORMAT_END
309
TABLEFORMAT_END
  1
CELLSTYLE_BEGIN
 90
        2
 91
        1
300
_HEADER
309
CELLSTYLE_END
300
CELLSTYLE
  1
TABLEFORMAT_BEGIN
 90
        5
170
     1
 91
        0
 92
        0
 62
   257
 93
        1
300
CONTENTFORMAT
  1
CONTENTFORMAT_BEGIN
 90
        0
 91
        0
 92
        4
 93
        0
300

 40
0.0
140
1.0
 94
        2
 62
     0
340
852
144
0.18
309
CONTENTFORMAT_END
171
     1
301
MARGIN
  1
CELLMARGIN_BEGIN
 40
0.06
 40
0.06
 40
0.06
 40
0.06
 40
0.18
 40
0.18
309
CELLMARGIN_END
 94
        6
 95
        1
302
GRIDFORMAT
  1
GRIDFORMAT_BEGIN
 90
        0
 91
        1
 62
     0
 92
       -2
340
0
 93
        0
 40
0.045
309
GRIDFORMAT_END
 95
        2
302
GRIDFORMAT
  1
GRIDFORMAT_BEGIN
 90
        0
 91
        1
 62
     0
 92
       -2
340
0
 93
        0
 40
0.045
309
GRIDFORMAT_END
 95
        4
302
GRIDFORMAT
  1
GRIDFORMAT_BEGIN
 90
        0
 91
        1
 62
     0
 92
       -2
340
0
 93
        0
 40
0.045
309
GRIDFORMAT_END
 95
        8
302
GRIDFORMAT
  1
GRIDFORMAT_BEGIN
 90
        0
 91
        1
 62
     0
 92
       -2
340
0
 93
        0
 40
0.045
309
GRIDFORMAT_END
 95
       16
302
GRIDFORMAT
  1
GRIDFORMAT_BEGIN
 90
        0
 91
        1
 62
     0
 92
       -2
340
0
 93
        0
 40
0.045
309
GRIDFORMAT_END
 95
       32
302
GRIDFORMAT
  1
GRIDFORMAT_BEGIN
 90
        0
 91
        1
 62
     0
 92
       -2
340
0
 93
        0
 40
0.045
309
GRIDFORMAT_END
309
TABLEFORMAT_END
  1
CELLSTYLE_BEGIN
 90
        3
 91
        2
300
_DATA
309
CELLSTYLE_END
  0
XRECORD
  5
1E29
102
{ACAD_REACTORS
330
14CA
102
}
330
14CA
100
AcDbXrecord
280
     1
102
ACAD_ROUNDTRIP_PRE2007_TABLESTYLE
 90
        4
 91
        0
  1

 92
        4
 93
        0
  2

 94
        4
 95
        0
  3

  0
ENDSEC
  0
EOF
