  0
SECTION
  2
HEADER
  9
$ACADVER
  1
AC1015
  9
$ACADMAINTVER
 70
    20
  9
$DWGCODEPAGE
  3
ANSI_932
  9
$INSBASE
 10
0.0
 20
0.0
 30
0.0
  9
$EXTMIN
 10
-832.5027302635172
 20
-404.388415981537
 30
-0.0015258207003583
  9
$EXTMAX
 10
778.5736196774196
 20
704.9560628423424
 30
0.0000000349246037
  9
$LIMMIN
 10
-2970.0
 20
-2100.0
  9
$LIMMAX
 10
2970.0
 20
2100.0
  9
$ORTHOMODE
 70
     1
  9
$REGENMODE
 70
     0
  9
$FILLMODE
 70
     1
  9
$QTEXTMODE
 70
     0
  9
$MIRRTEXT
 70
     0
  9
$LTSCALE
 40
20.0
  9
$ATTMODE
 70
     1
  9
$TEXTSIZE
 40
64.0
  9
$TRACEWID
 40
0.05
  9
$TEXTSTYLE
  7
STANDARD
  9
$CLAYER
  8
0
  9
$CELTYPE
  6
CONTINUOUS
  9
$CECOLOR
 62
   256
  9
$CELTSCALE
 40
1.0
  9
$DISPSILH
 70
     0
  9
$DIMSCALE
 40
1.0
  9
$DIMASZ
 40
0.12
  9
$DIMEXO
 40
0.05
  9
$DIMDLI
 40
0.5
  9
$DIMRND
 40
0.0
  9
$DIMDLE
 40
0.0
  9
$DIMEXE
 40
0.1
  9
$DIMTP
 40
0.1
  9
$DIMTM
 40
0.1
  9
$DIMTXT
 40
0.12
  9
$DIMCEN
 40
0.0
  9
$DIMTSZ
 40
0.0
  9
$DIMTOL
 70
     0
  9
$DIMLIM
 70
     0
  9
$DIMTIH
 70
     1
  9
$DIMTOH
 70
     1
  9
$DIMSE1
 70
     0
  9
$DIMSE2
 70
     0
  9
$DIMTAD
 70
     0
  9
$DIMZIN
 70
     7
  9
$DIMBLK
  1

  9
$DIMASO
 70
     1
  9
$DIMSHO
 70
     0
  9
$DIMPOST
  1

  9
$DIMAPOST
  1
mm
  9
$DIMALT
 70
     0
  9
$DIMALTD
 70
     2
  9
$DIMALTF
 40
25.4
  9
$DIMLFAC
 40
1.0
  9
$DIMTOFL
 70
     0
  9
$DIMTVP
 40
0.0
  9
$DIMTIX
 70
     0
  9
$DIMSOXD
 70
     0
  9
$DIMSAH
 70
     0
  9
$DIMBLK1
  1

  9
$DIMBLK2
  1

  9
$DIMSTYLE
  2
AM_ANSI
  9
$DIMCLRD
 70
   256
  9
$DIMCLRE
 70
   256
  9
$DIMCLRT
 70
     2
  9
$DIMTFAC
 40
0.71
  9
$DIMGAP
 40
0.06
  9
$DIMJUST
 70
     0
  9
$DIMSD1
 70
     0
  9
$DIMSD2
 70
     0
  9
$DIMTOLJ
 70
     1
  9
$DIMTZIN
 70
     7
  9
$DIMALTZ
 70
     0
  9
$DIMALTTZ
 70
     0
  9
$DIMUPT
 70
     0
  9
$DIMDEC
 70
     4
  9
$DIMTDEC
 70
     4
  9
$DIMALTU
 70
     2
  9
$DIMALTTD
 70
     4
  9
$DIMTXSTY
  7
STANDARD
  9
$DIMAUNIT
 70
     0
  9
$DIMADEC
 70
     0
  9
$DIMALTRND
 40
0.0
  9
$DIMAZIN
 70
     2
  9
$DIMDSEP
 70
    46
  9
$DIMATFIT
 70
     3
  9
$DIMFRAC
 70
     0
  9
$DIMLDRBLK
  1

  9
$DIMLUNIT
 70
     2
  9
$DIMLWD
 70
    -1
  9
$DIMLWE
 70
    -1
  9
$DIMTMOVE
 70
     0
  9
$LUNITS
 70
     2
  9
$LUPREC
 70
     4
  9
$SKETCHINC
 40
0.1
  9
$FILLETRAD
 40
4.0
  9
$AUNITS
 70
     1
  9
$AUPREC
 70
     3
  9
$MENU
  1
ACAD
  9
$ELEVATION
 40
0.0
  9
$PELEVATION
 40
0.0
  9
$THICKNESS
 40
50.0
  9
$LIMCHECK
 70
     0
  9
$CHAMFERA
 40
0.0
  9
$CHAMFERB
 40
0.0
  9
$CHAMFERC
 40
0.0
  9
$CHAMFERD
 40
0.0
  9
$SKPOLY
 70
     0
  9
$TDCREATE
 40
2452321.396199653
  9
$TDUCREATE
 40
2452321.021199653
  9
$TDUPDATE
 40
2456533.545786435
  9
$TDUUPDATE
 40
2456533.170786435
  9
$TDINDWG
 40
0.8349504051
  9
$TDUSRTIMER
 40
0.8349475579
  9
$USRTIMER
 70
     1
  9
$ANGBASE
 50
0.0
  9
$ANGDIR
 70
     0
  9
$PDMODE
 70
     3
  9
$PDSIZE
 40
-2.0
  9
$PLINEWID
 40
0.0
  9
$SPLFRAME
 70
     0
  9
$SPLINETYPE
 70
     6
  9
$SPLINESEGS
 70
     8
  9
$HANDSEED
  5
2294
  9
$SURFTAB1
 70
     6
  9
$SURFTAB2
 70
     6
  9
$SURFTYPE
 70
     6
  9
$SURFU
 70
     6
  9
$SURFV
 70
     6
  9
$UCSBASE
  2

  9
$UCSNAME
  2

  9
$UCSORG
 10
0.0
 20
0.0
 30
0.0
  9
$UCSXDIR
 10
1.0
 20
0.0
 30
0.0
  9
$UCSYDIR
 10
0.0
 20
1.0
 30
0.0
  9
$UCSORTHOREF
  2

  9
$UCSORTHOVIEW
 70
     0
  9
$UCSORGTOP
 10
0.0
 20
0.0
 30
0.0
  9
$UCSORGBOTTOM
 10
0.0
 20
0.0
 30
0.0
  9
$UCSORGLEFT
 10
0.0
 20
0.0
 30
0.0
  9
$UCSORGRIGHT
 10
0.0
 20
0.0
 30
0.0
  9
$UCSORGFRONT
 10
0.0
 20
0.0
 30
0.0
  9
$UCSORGBACK
 10
0.0
 20
0.0
 30
0.0
  9
$PUCSBASE
  2

  9
$PUCSNAME
  2

  9
$PUCSORG
 10
0.0
 20
0.0
 30
0.0
  9
$PUCSXDIR
 10
1.0
 20
0.0
 30
0.0
  9
$PUCSYDIR
 10
0.0
 20
1.0
 30
0.0
  9
$PUCSORTHOREF
  2

  9
$PUCSORTHOVIEW
 70
     0
  9
$PUCSORGTOP
 10
0.0
 20
0.0
 30
0.0
  9
$PUCSORGBOTTOM
 10
0.0
 20
0.0
 30
0.0
  9
$PUCSORGLEFT
 10
0.0
 20
0.0
 30
0.0
  9
$PUCSORGRIGHT
 10
0.0
 20
0.0
 30
0.0
  9
$PUCSORGFRONT
 10
0.0
 20
0.0
 30
0.0
  9
$PUCSORGBACK
 10
0.0
 20
0.0
 30
0.0
  9
$USERI1
 70
     0
  9
$USERI2
 70
     0
  9
$USERI3
 70
     0
  9
$USERI4
 70
     0
  9
$USERI5
 70
     0
  9
$USERR1
 40
20.0
  9
$USERR2
 40
0.0
  9
$USERR3
 40
0.0
  9
$USERR4
 40
0.0
  9
$USERR5
 40
0.0
  9
$WORLDVIEW
 70
     1
  9
$SHADEDGE
 70
     3
  9
$SHADEDIF
 70
    70
  9
$TILEMODE
 70
     1
  9
$MAXACTVP
 70
    64
  9
$PINSBASE
 10
0.0
 20
0.0
 30
0.0
  9
$PLIMCHECK
 70
     0
  9
$PEXTMIN
 10
1.000000000000000E+20
 20
1.000000000000000E+20
 30
1.000000000000000E+20
  9
$PEXTMAX
 10
-1.000000000000000E+20
 20
-1.000000000000000E+20
 30
-1.000000000000000E+20
  9
$PLIMMIN
 10
0.0
 20
0.0
  9
$PLIMMAX
 10
12.0
 20
9.0
  9
$UNITMODE
 70
     0
  9
$VISRETAIN
 70
     1
  9
$PLINEGEN
 70
     0
  9
$PSLTSCALE
 70
     1
  9
$TREEDEPTH
 70
  3020
  9
$CMLSTYLE
  2
STANDARD
  9
$CMLJUST
 70
     0
  9
$CMLSCALE
 40
1.0
  9
$PROXYGRAPHICS
 70
     1
  9
$MEASUREMENT
 70
     0
  9
$CELWEIGHT
370
    -1
  9
$ENDCAPS
280
     0
  9
$JOINSTYLE
280
     0
  9
$LWDISPLAY
290
     0
  9
$INSUNITS
 70
     0
  9
$HYPERLINKBASE
  1

  9
$STYLESHEET
  1
MONOCHROME.CTB
  9
$XEDIT
290
     1
  9
$CEPSNTYPE
380
     0
  9
$PSTYLEMODE
290
     1
  9
$FINGERPRINTGUID
  2
{68F3F60F-982D-43C0-B084-568AB2094408}
  9
$VERSIONGUID
  2
{3F961D3E-C541-4918-9DB9-0428C564BE7B}
  9
$EXTNAMES
290
     1
  9
$PSVPSCALE
 40
0.0
  9
$OLESTARTUP
290
     0
  0
ENDSEC
  0
SECTION
  2
CLASSES
  0
CLASS
  1
ACDBDICTIONARYWDFLT
  2
AcDbDictionaryWithDefault
  3
ObjectDBX Classes
 90
        0
280
     0
281
     0
  0
CLASS
  1
ACDBPLACEHOLDER
  2
AcDbPlaceHolder
  3
ObjectDBX Classes
 90
        0
280
     0
281
     0
  0
CLASS
  1
LAYOUT
  2
AcDbLayout
  3
ObjectDBX Classes
 90
        0
280
     0
281
     0
  0
CLASS
  1
DICTIONARYVAR
  2
AcDbDictionaryVar
  3
ObjectDBX Classes
 90
        0
280
     0
281
     0
  0
CLASS
  1
TABLESTYLE
  2
AcDbTableStyle
  3
ObjectDBX Classes
 90
     4095
280
     0
281
     0
  0
CLASS
  1
ACME_DOCUMENT
  2
AcMeDbDoc
  3
AcMeServices
 90
     1024
280
     0
281
     0
  0
CLASS
  1
AMGSETTINGSOBJ
  2
AmgSettingsObj
  3
"AcadM|Product Description: AutoCAD Mechanical|Company: Autodesk, Inc."
 90
     1024
280
     0
281
     0
  0
CLASS
  1
ACMESCOPE
  2
AcMeScope
  3
AcMeServices
 90
     1024
280
     0
281
     0
  0
CLASS
  1
ACMECOMMANDHISTORY
  2
AcMeCommandHistory
  3
AcMeServices
 90
     1024
280
     0
281
     0
  0
CLASS
  1
ACIMSYSVARMAN
  2
AcImSysVarManager
  3
AcMeServices
 90
     1024
280
     0
281
     0
  0
CLASS
  1
ACIMREALSYSVAR
  2
AcImRealSysVar
  3
AcMeServices
 90
     1024
280
     0
281
     0
  0
CLASS
  1
ACIMINTSYSVAR
  2
AcImIntSysVar
  3
AcMeServices
 90
     1024
280
     0
281
     0
  0
CLASS
  1
ACMEDRAWINGMAN
  2
AcMeDrawingMan
  3
AcMeServices
 90
     1024
280
     0
281
     0
  0
CLASS
  1
ACMEVIEW
  2
AcMeView
  3
AcMeServices
 90
     1024
280
     0
281
     0
  0
CLASS
  1
ACDBENTITYCACHE
  2
AcMeEntityCache
  3
AcMeServices
 90
     1024
280
     0
281
     0
  0
CLASS
  1
GSMANAGER
  2
AcMeGSManager
  3
AcMeServices
 90
     1024
280
     0
281
     0
  0
CLASS
  1
AMDTINTERNALREACTOR
  2
AmdtInternalReactor
  3
AcMeServices
 90
     1024
280
     0
281
     0
  0
CLASS
  1
ACMESTATEMGR
  2
AcMeStateMgr
  3
AcMeServices
 90
     1024
280
     0
281
     0
  0
CLASS
  1
ACGREFMASTER
  2
AcGrefMaster
  3
AcAttribServices
 90
     1024
280
     0
281
     0
  0
CLASS
  1
AM_DRAWING_MGR
  2
AcDmDwgMgr
  3
AcMechDwgViewMgmt
 90
     1024
280
     0
281
     0
  0
CLASS
  1
AM_DWG_DOCUMENT
  2
AcDmDwgDocument
  3
AcMechDwgViewMgmt
 90
     1024
280
     0
281
     0
  0
CLASS
  1
AM_DWG_SHEET
  2
AcDmSheet
  3
AcMechDwgViewMgmt
 90
     1024
280
     0
281
     0
  0
CLASS
  1
AM_VIEWDIMPARMAP
  2
AcDmViewDimParMap
  3
AcMechDwgViewMgmt
 90
     1024
280
     0
281
     0
  0
CLASS
  1
AM_DWGMGR_NAME
  2
AcDmDwgMgrName
  3
AcMechDwgViewMgmt
 90
     1024
280
     0
281
     0
  0
CLASS
  1
ACME_DATABASE
  2
AcMeDbDatabase
  3
AcMeServices
 90
     1024
280
     0
281
     0
  0
CLASS
  1
ACRFINSADJUSTERMGR
  2
AcRfInsAdjusterMgr
  3
AcMeServices
 90
     1024
280
     0
281
     0
  0
CLASS
  1
ACGREFACADMASTER
  2
AcGrefacadMaster
  3
AcGrefServices
 90
     1024
280
     0
281
     0
  0
CLASS
  1
AMDTMENUSTATEMGR
  2
AmdtMenuStateMgr
  3
McadcomServices
 90
     1024
280
     0
281
     0
  0
CLASS
  1
AMDTMCOMMENUSTATE
  2
AmdtMcomMenuState
  3
McadcomServices
 90
     1024
280
     0
281
     0
  0
CLASS
  1
AMIMASTER
  2
AmiMaster
  3
AmiServices
 90
     1024
280
     0
281
     0
  0
CLASS
  1
ASAPP
  2
AcAsAppObject
  3
AutoSurfServices
 90
     1024
280
     0
281
     0
  0
CLASS
  1
IM_STATIC_MAN
  2
AcImStaticVarManager
  3
AcMeServices
 90
     1024
280
     0
281
     0
  0
CLASS
  1
ACIMSTRSYSVAR
  2
AcImStrSysVar
  3
AcMeServices
 90
     1024
280
     0
281
     0
  0
CLASS
  1
ACIMDBLSTATICVAR
  2
AcImDblStaticVar
  3
AcMeServices
 90
     1024
280
     0
281
     0
  0
CLASS
  1
ACIMSTRSTATICVAR
  2
AcImStrStaticVar
  3
AcMeServices
 90
     1024
280
     0
281
     0
  0
CLASS
  1
ACIMINTSTATICVAR
  2
AcImIntStaticVar
  3
AcMeServices
 90
     1024
280
     0
281
     0
  0
CLASS
  1
ACASGREFMASTER
  2
AcAsGrefMaster
  3
AutoSurfResolverServices
 90
     1024
280
     0
281
     0
  0
CLASS
  1
ACADGREFMODULE
  2
AcAdGrefModule
  3
AdGrefServices
 90
     1024
280
     0
281
     0
  0
CLASS
  1
AMDTMAPISURFMOUDULE
  2
AmdtMApiSurfModule
  3
MApiSurfServices
 90
    33792
280
     0
281
     0
  0
CLASS
  1
MAPIAMMOUDLE
  2
MApiAmModule
  3
MApiAmServices
 90
     1024
280
     0
281
     0
  0
CLASS
  1
AMDTADMENUSTATE
  2
AmdtAdMenuState
  3
DesignerServices
 90
     1024
280
     0
281
     0
  0
CLASS
  1
ADAPPL
  2
AcAdAppl
  3
DesignerServices
 90
     1024
280
     0
281
     0
  0
CLASS
  1
DEPMGR
  2
AcAdDepMgr
  3
DesignerServices
 90
     1024
280
     0
281
     0
  0
CLASS
  1
PARAMMGR
  2
AcAdParamMgr
  3
DesignerServices
 90
     1024
280
     0
281
     0
  0
CLASS
  1
PARAMSCOPE
  2
AcAdParamScope
  3
DesignerServices
 90
     1024
280
     0
281
     0
  0
CLASS
  1
NAMEDAPPL
  2
AcAdNamedAppl
  3
DesignerServices
 90
     1024
280
     0
281
     0
  0
CLASS
  1
AMDTDMMENUSTATE
  2
AmdtDmMenuState
  3
AcMechDwgViewMgmt
 90
     1024
280
     0
281
     0
  0
CLASS
  1
MAPIADMODULE
  2
MApiAdModule
  3
MApiAdServices
 90
     1024
280
     0
281
     0
  0
CLASS
  1
AMDTAMMENUSTATE
  2
AmdtAmMenuState
  3
DesignerAssemblies
 90
     1024
280
     0
281
     0
  0
CLASS
  1
ACAMPROJECT
  2
AcAmProject
  3
DesignerAssemblies
 90
     1024
280
     0
281
     0
  0
CLASS
  1
ACAMGRCOMPDEF
  2
AcAmGrCompDef
  3
DesignerAssemblies
 90
     1024
280
     0
281
     0
  0
CLASS
  1
ACCMCONTEXT
  2
AcCmContext
  3
DesignerAssemblies
 90
     1024
280
     0
281
     0
  0
CLASS
  1
ACAMCOMPDEF
  2
AcAmCompDef
  3
DesignerAssemblies
 90
     1024
280
     0
281
     0
  0
CLASS
  1
ACAMCOMPDEFMGR
  2
AcAmCompDefMgr
  3
DesignerAssemblies
 90
     1024
280
     0
281
     0
  0
CLASS
  1
AMCONTEXTMGR
  2
AcAmContextMgr
  3
DesignerAssemblies
 90
     1024
280
     0
281
     0
  0
CLASS
  1
ACAMCONTEXTMODELER
  2
AcAmContextModeler
  3
DesignerAssemblies
 90
     1024
280
     0
281
     0
  0
CLASS
  1
ACMDATADICTIONARY
  2
AcmDataDictionary
  3
"AcmSymBB|Product Description: AutoCAD Mechanical|Company: Autodesk, Inc."
 90
     1024
280
     0
281
     0
  0
CLASS
  1
ACMDATAENTRYBLOCK
  2
AcmDataEntryBlock
  3
AcmSymBB|Product Description: AutoCAD Mechanical|Company: Autodesk, Inc.
 90
     1024
280
     0
281
     0
  0
CLASS
  1
CATALOGSTATE
  2
AcAmCatalogState
  3
DesignerAssemblies
 90
     1024
280
     0
281
     0
  0
CLASS
  1
ACAMGRCOMPDEFSET
  2
AcAmGrCompDefSet
  3
DesignerAssemblies
 90
     1024
280
     0
281
     0
  0
CLASS
  1
AMDTBROWSERDBTAB
  2
AmdtBrowserDbTab
  3
McadcomServices
 90
     1024
280
     0
281
     0
  0
CLASS
  1
CBROWSERAPPOBJECT
  2
CBrowserAppObject
  3
McadcomServices
 90
     1024
280
     0
281
     0
  0
CLASS
  1
DM_PLACEHOLDER
  2
AcDmSelsetPlaceholder
  3
AcMechDwgViewMgmt
 90
     1024
280
     0
281
     0
  0
CLASS
  1
ACMSTANDARDANSI
  2
AcmStandardANSI
  3
"Amdt_StdImp|Product Description: AutoCAD Mechanical|Company: Autodesk, Inc."
 90
     1024
280
     0
281
     0
  0
CLASS
  1
AMGOBJPROPCFG
  2
AmgObjPropCfg
  3
"AmgLay|Product Description: AutoCAD Mechanical|Company: Autodesk, Inc."
 90
     1025
280
     0
281
     0
  0
CLASS
  1
ACMSURFSTANDARDANSI
  2
AcmSurfTextStdANSI
  3
"Amdt_StdImp|Product Description: AutoCAD Mechanical|Company: Autodesk, Inc."
 90
     1024
280
     0
281
     0
  0
CLASS
  1
ACMFCFSTANDARDANSI
  2
AcmFCFStdANSI
  3
"Amdt_StdImp|Product Description: AutoCAD Mechanical|Company: Autodesk, Inc."
 90
     1024
280
     0
281
     0
  0
CLASS
  1
ACMWELDSTANDARDANSI
  2
AcmWeldingStdANSI
  3
"Amdt_StdImp|Product Description: AutoCAD Mechanical|Company: Autodesk, Inc."
 90
     1024
280
     0
281
     0
  0
CLASS
  1
ACMIDSTANDARDANSI
  2
AcmIdStdANSI
  3
"Amdt_StdImp|Product Description: AutoCAD Mechanical|Company: Autodesk, Inc."
 90
     1024
280
     0
281
     0
  0
CLASS
  1
ACMDATUMSTANDARDANSI
  2
AcmDatumStdANSI
  3
"Amdt_StdImp|Product Description: AutoCAD Mechanical|Company: Autodesk, Inc."
 90
     1024
280
     0
281
     0
  0
CLASS
  1
ACMBOMSTANDARDANSI
  2
AcmBOMStdANSI
  3
"Amdt_StdImp|Product Description: AutoCAD Mechanical|Company: Autodesk, Inc."
 90
     1024
280
     0
281
     0
  0
CLASS
  1
ACMDETAILSTANDARDANSI
  2
AmdtDetailSymStdANSI
  3
"Amdt_StdImp|Product Description: AutoCAD Mechanical|Company: Autodesk, Inc."
 90
     1024
280
     0
281
     0
  0
CLASS
  1
ACMSECTIONSTANDARDANSI
  2
AmdtSectionSymStdANSI
  3
"Amdt_StdImp|Product Description: AutoCAD Mechanical|Company: Autodesk, Inc."
 90
     1024
280
     0
281
     0
  0
CLASS
  1
ACMCENTERLINESTANDARDANSI
  2
AmdtCenterLineStdANSI
  3
"Amdt_StdImp|Product Description: AutoCAD Mechanical|Company: Autodesk, Inc."
 90
     1024
280
     0
281
     0
  0
CLASS
  1
ACMTHREADLINESTANDARDANSI
  2
AmdtThreadLineStdANSI
  3
"Amdt_StdImp|Product Description: AutoCAD Mechanical|Company: Autodesk, Inc."
 90
     1024
280
     0
281
     0
  0
CLASS
  1
ACMNOTESTANDARDANSI
  2
AmdtNoteStdANSI
  3
"Amdt_StdImp|Product Description: AutoCAD Mechanical|Company: Autodesk, Inc."
 90
     1024
280
     0
281
     0
  0
CLASS
  1
AMDTNOTETEMPLATEDB
  2
AmdtNoteTemplateDB
  3
AcmSymBB|Product Description: AutoCAD Mechanical|Company: Autodesk, Inc.
 90
     1024
280
     0
281
     0
  0
CLASS
  1
ACAMGLAYSTD
  2
AcAmgLayStd
  3
"AmgLay|Product Description: AutoCAD Mechanical|Company: Autodesk, Inc."
 90
     1024
280
     0
281
     0
  0
CLASS
  1
ACAMGDIMSTD
  2
AcAmgDimStd
  3
"AmgDim|Product Description: AutoCAD Mechanical|Company: Autodesk, Inc."
 90
     1024
280
     0
281
     0
  0
CLASS
  1
ACAMGHOLECHARTSTDANSI
  2
AcAmgHoleChartStdANSI
  3
AmgDim|Product Description: AutoCAD Mechanical|Company: Autodesk, Inc.
 90
     1024
280
     0
281
     0
  0
CLASS
  1
ACAMGTITLESTD
  2
AcAmgTitleStd
  3
"AmgTitle|Product Description: AutoCAD Mechanical|Company: Autodesk, Inc."
 90
     4095
280
     0
281
     0
  0
CLASS
  1
LAYER_INDEX
  2
AcDbLayerIndex
  3
ObjectDBX Classes
 90
        0
280
     0
281
     0
  0
CLASS
  1
IDBUFFER
  2
AcDbIdBuffer
  3
ObjectDBX Classes
 90
        0
280
     0
281
     0
  0
CLASS
  1
ACAMGFILTERDAT
  2
AcAmgFilterDat
  3
"AcadM|Product Description: AutoCAD Mechanical|Company: Autodesk, Inc."
 90
     1024
280
     0
281
     0
  0
CLASS
  1
MATERIAL
  2
AcDbMaterial
  3
ObjectDBX Classes
 90
     1153
280
     0
281
     0
  0
CLASS
  1
VISUALSTYLE
  2
AcDbVisualStyle
  3
ObjectDBX Classes
 90
     4095
280
     0
281
     0
  0
CLASS
  1
SCALE
  2
AcDbScale
  3
ObjectDBX Classes
 90
     1153
280
     0
281
     0
  0
CLASS
  1
MLEADERSTYLE
  2
AcDbMLeaderStyle
  3
ACDB_MLEADERSTYLE_CLASS
 90
     4095
280
     0
281
     0
  0
CLASS
  1
SORTENTSTABLE
  2
AcDbSortentsTable
  3
ObjectDBX Classes
 90
        0
280
     0
281
     0
  0
CLASS
  1
CELLSTYLEMAP
  2
AcDbCellStyleMap
  3
ObjectDBX Classes
 90
     1152
280
     0
281
     0
  0
CLASS
  1
ACRFATTGENMGR
  2
AcRfAttGeneralMgr
  3
AcAttribServices
 90
     1024
280
     0
281
     0
  0
CLASS
  1
ACRFOBJATTMGR
  2
AcRfObjAttGroupMgr
  3
AcAttribServices
 90
     1024
280
     0
281
     0
  0
CLASS
  1
ACRFMCADAPIATTHOLDER
  2
AcRfMCADAPIAttHolder
  3
AcAttribServices
 90
     1024
280
     0
281
     0
  0
CLASS
  1
AMDTSYSATTR
  2
AmdtSystemAttribute
  3
AcAttribServices
 90
     1024
280
     0
281
     0
  0
CLASS
  1
ACMTAPERSTANDARDANSI
  2
AcmTaperStdANSI
  3
"Amdt_StdImp|Product Description: AutoCAD Mechanical|Company: Autodesk, Inc."
 90
     1024
280
     0
281
     0
  0
CLASS
  1
ACMANOOTATIONVIEWSTANDARDANSI
  2
AmdtAnViewStdANSI
  3
"Amdt_StdImp|Product Description: AutoCAD Mechanical|Company: Autodesk, Inc."
 90
     1024
280
     0
281
     0
  0
ENDSEC
  0
SECTION
  2
TABLES
  0
TABLE
  2
VPORT
  5
849
330
0
100
AcDbSymbolTable
 70
     1
  0
VPORT
  5
185F
330
849
100
AcDbSymbolTableRecord
100
AcDbViewportTableRecord
  2
*Active
 70
     0
 10
0.0
 20
0.0
 11
1.0
 21
1.0
 12
0.1641788599764595
 22
-0.0084809302207987
 13
0.0
 23
0.0
 14
1.0
 24
1.0
 15
0.0
 25
0.0
 16
0.0
 26
0.0
 36
1.0
 17
-27.12873415302517
 27
150.2923043606235
 37
0.0
 40
1153.185282045269
 41
1.403890160183066
 42
50.0
 43
0.0
 44
0.0
 50
0.0
 51
0.0
 71
     0
 72
   100
 73
     1
 74
     0
 75
     0
 76
     0
 77
     0
 78
     0
281
     0
 65
     0
110
0.0
120
0.0
130
0.0
111
1.0
121
0.0
131
0.0
112
0.0
122
1.0
132
0.0
 79
     0
146
0.0
  0
ENDTAB
  0
TABLE
  2
LTYPE
  5
846
330
0
100
AcDbSymbolTable
 70
    19
  0
LTYPE
  5
854
330
846
100
AcDbSymbolTableRecord
100
AcDbLinetypeTableRecord
  2
BYBLOCK
 70
     0
  3

 72
    65
 73
     0
 40
0.0
  0
LTYPE
  5
855
330
846
100
AcDbSymbolTableRecord
100
AcDbLinetypeTableRecord
  2
BYLAYER
 70
     0
  3

 72
    65
 73
     0
 40
0.0
  0
LTYPE
  5
856
330
846
100
AcDbSymbolTableRecord
100
AcDbLinetypeTableRecord
  2
CONTINUOUS
 70
     0
  3
実線
 72
    65
 73
     0
 40
0.0
  0
LTYPE
  5
865
330
846
100
AcDbSymbolTableRecord
100
AcDbLinetypeTableRecord
  2
DASHDOT
 70
     0
  3
____ _ ____ _ ____ _ ____ _ ____ _ ____ _ ____
 72
    65
 73
     4
 40
5.5
 49
4.0
 74
     0
 49
-0.6
 74
     0
 49
0.3
 74
     0
 49
-0.6
 74
     0
  0
LTYPE
  5
1626
330
846
100
AcDbSymbolTableRecord
100
AcDbLinetypeTableRecord
  2
HIDDEN
 70
     0
  3
Hidden __ __ __ __ __ __ __ __ __ __ __ __ __ _
 72
    65
 73
     2
 40
0.375
 49
0.25
 74
     0
 49
-0.125
 74
     0
  0
LTYPE
  5
1627
330
846
100
AcDbSymbolTableRecord
100
AcDbLinetypeTableRecord
  2
PHANTOM2
 70
     0
  3
Phantom (.5x) ___ _ _ ___ _ _ ___ _ _ ___ _ _
 72
    65
 73
     6
 40
1.25
 49
0.625
 74
     0
 49
-0.125
 74
     0
 49
0.125
 74
     0
 49
-0.125
 74
     0
 49
0.125
 74
     0
 49
-0.125
 74
     0
  0
LTYPE
  5
1628
330
846
100
AcDbSymbolTableRecord
100
AcDbLinetypeTableRecord
  2
CENTER
 70
     0
  3
Center ____ _ ____ _ ____ _ ____ _ ____ _ ____
 72
    65
 73
     4
 40
2.0
 49
1.25
 74
     0
 49
-0.25
 74
     0
 49
0.25
 74
     0
 49
-0.25
 74
     0
  0
LTYPE
  5
1677
330
846
100
AcDbSymbolTableRecord
100
AcDbLinetypeTableRecord
  2
ASULTYPE
 70
     0
  3
実線
 72
    65
 73
     2
 40
3.0
 49
2.5
 74
     0
 49
0.5
 74
     0
  0
LTYPE
  5
1678
330
846
100
AcDbSymbolTableRecord
100
AcDbLinetypeTableRecord
  2
ASVLTYPE
 70
     0
  3
__ __ __ __ __ __ __ __ __ __ __ __ __ __ __ __ __ __ __ __ __
 72
    65
 73
     2
 40
0.75
 49
0.5
 74
     0
 49
-0.25
 74
     0
  0
LTYPE
  5
16BF
330
846
100
AcDbSymbolTableRecord
100
AcDbLinetypeTableRecord
  2
AM_ISO02W050
 70
     0
  3
__ __ __ __ __ __ __ __ __ __ __ __ __ __ __
 72
    65
 73
     2
 40
7.5
 49
6.0
 74
     0
 49
-1.5
 74
     0
  0
LTYPE
  5
16C0
330
846
100
AcDbSymbolTableRecord
100
AcDbLinetypeTableRecord
  2
AM_ISO08W050
 70
     0
  3
____ . ____ . ____ . ____ . ____ . ____ . ____
 72
    65
 73
     4
 40
18.0
 49
12.0
 74
     0
 49
-1.5
 74
     0
 49
3.0
 74
     0
 49
-1.5
 74
     0
  0
LTYPE
  5
16C1
330
846
100
AcDbSymbolTableRecord
100
AcDbLinetypeTableRecord
  2
AM_ISO09W050
 70
     0
  3
_____ . . _____ . . _____ . . ____ .. ____
 72
    65
 73
     6
 40
22.5
 49
12.0
 74
     0
 49
-1.5
 74
     0
 49
3.0
 74
     0
 49
-1.5
 74
     0
 49
3.0
 74
     0
 49
-1.5
 74
     0
  0
LTYPE
  5
16C2
330
846
100
AcDbSymbolTableRecord
100
AcDbLinetypeTableRecord
  2
Amconstr
 70
     0
  3
_______________________
 72
    65
 73
     2
 40
9999.0
 49
9999.0
 74
     0
 49
0.0
 74
     0
  0
LTYPE
  5
16C3
330
846
100
AcDbSymbolTableRecord
100
AcDbLinetypeTableRecord
  2
AM_ISO08W050x2
 70
     0
  3
__ . __ . __ . __ . __ . __
 72
    65
 73
     4
 40
9.0
 49
6.0
 74
     0
 49
-0.75
 74
     0
 49
1.5
 74
     0
 49
-0.75
 74
     0
  0
LTYPE
  5
16C4
330
846
100
AcDbSymbolTableRecord
100
AcDbLinetypeTableRecord
  2
AM_ISO02W050x2
 70
     0
  3
 _ _ _ _ _ _ _ _ _ _ _ _
 72
    65
 73
     2
 40
3.75
 49
3.0
 74
     0
 49
-0.75
 74
     0
  0
LTYPE
  5
16C7
330
846
100
AcDbSymbolTableRecord
100
AcDbLinetypeTableRecord
  2
Amzigzag
 70
     0
  3
/\/-/\/-/\/-/\/-/\/-/\/
 72
    65
 73
     2
 40
11.0001
 49
0.0001
 74
     4
 75
   136
340
16C6
 46
0.04
 50
0.0
 44
0.0
 45
0.0
 49
-11.0
 74
     0
  0
LTYPE
  5
16C8
330
846
100
AcDbSymbolTableRecord
100
AcDbLinetypeTableRecord
  2
CENTER2
 70
     0
  3
Center (.5x) ___ _ ___ _ ___ _ ___ _ ___ _ ___
 72
    65
 73
     4
 40
1.125
 49
0.75
 74
     0
 49
-0.125
 74
     0
 49
0.125
 74
     0
 49
-0.125
 74
     0
  0
LTYPE
  5
16C9
330
846
100
AcDbSymbolTableRecord
100
AcDbLinetypeTableRecord
  2
HIDDEN2
 70
     0
  3
Hidden (.5x) _ _ _ _ _ _ _ _ _ _ _ _ _ _ _ _ _
 72
    65
 73
     2
 40
0.1875
 49
0.125
 74
     0
 49
-0.0625
 74
     0
  0
LTYPE
  5
16CA
330
846
100
AcDbSymbolTableRecord
100
AcDbLinetypeTableRecord
  2
Amzigzag2
 70
     0
  3
/\/-/\/-/\/-/\/-/\/-/\/
 72
    65
 73
     2
 40
0.4401
 49
0.0001
 74
     4
 75
   136
340
16C6
 46
0.0016
 50
0.0
 44
0.0
 45
0.0
 49
-0.4400000000000003
 74
     0
  0
LTYPE
  5
16D8
330
846
100
AcDbSymbolTableRecord
100
AcDbLinetypeTableRecord
  2
ACANSTGB
 70
     0
  3
__ . . __ . .
 72
    65
 73
     6
 40
0.35433070866
 49
0.15748031496
 74
     0
 49
-0.03937007874
 74
     0
 49
0.03937007874
 74
     0
 49
-0.03937007874
 74
     0
 49
0.03937007874
 74
     0
 49
-0.03937007874
 74
     0
  0
LTYPE
  5
16D9
330
846
100
AcDbSymbolTableRecord
100
AcDbLinetypeTableRecord
  2
ACANSTGL
 70
     0
  3
_ _ _ _ _
 72
    65
 73
     2
 40
0.11811023622
 49
0.07874015748
 74
     0
 49
-0.03937007874
 74
     0
  0
ENDTAB
  0
TABLE
  2
LAYER
  5
843
102
{ACAD_XDICTIONARY
360
1AA7
102
}
330
0
100
AcDbSymbolTable
 70
    12
  0
LAYER
  5
851
102
{ACAD_XDICTIONARY
360
190C
102
}
330
843
100
AcDbSymbolTableRecord
100
AcDbLayerTableRecord
  2
0
 70
     0
 62
     7
  6
CONTINUOUS
370
    -3
390
B83
  0
LAYER
  5
863
102
{ACAD_XDICTIONARY
360
190E
102
}
330
843
100
AcDbSymbolTableRecord
100
AcDbLayerTableRecord
  2
OUTLINE
 70
     0
 62
     3
  6
CONTINUOUS
370
    -3
390
B83
  0
LAYER
  5
866
102
{ACAD_XDICTIONARY
360
1910
102
}
330
843
100
AcDbSymbolTableRecord
100
AcDbLayerTableRecord
  2
SIZE
 70
     0
 62
    30
  6
CONTINUOUS
370
    -3
390
B83
  0
LAYER
  5
867
102
{ACAD_XDICTIONARY
360
1912
102
}
330
843
100
AcDbSymbolTableRecord
100
AcDbLayerTableRecord
  2
BASIS
 70
     0
 62
     6
  6
DASHDOT
370
    -3
390
B83
  0
LAYER
  5
868
102
{ACAD_XDICTIONARY
360
1914
102
}
330
843
100
AcDbSymbolTableRecord
100
AcDbLayerTableRecord
  2
DETAIL
 70
     0
 62
     5
  6
CONTINUOUS
370
    -3
390
B83
  0
LAYER
  5
869
102
{ACAD_XDICTIONARY
360
1916
102
}
330
843
100
AcDbSymbolTableRecord
100
AcDbLayerTableRecord
  2
ARRANGE
 70
     0
 62
     1
  6
CONTINUOUS
370
    -3
390
B83
  0
LAYER
  5
86A
330
843
100
AcDbSymbolTableRecord
100
AcDbLayerTableRecord
  2
DEFPOINTS
 70
     0
 62
     7
  6
CONTINUOUS
290
     0
370
    -3
390
B83
  0
LAYER
  5
86B
102
{ACAD_XDICTIONARY
360
1918
102
}
330
843
100
AcDbSymbolTableRecord
100
AcDbLayerTableRecord
  2
ETC
 70
     0
 62
    61
  6
CONTINUOUS
370
    -3
390
B83
  0
LAYER
  5
86C
102
{ACAD_XDICTIONARY
360
191A
102
}
330
843
100
AcDbSymbolTableRecord
100
AcDbLayerTableRecord
  2
FIX
 70
     0
 62
    11
  6
CONTINUOUS
370
    -3
390
B83
  0
LAYER
  5
86D
102
{ACAD_XDICTIONARY
360
191C
102
}
330
843
100
AcDbSymbolTableRecord
100
AcDbLayerTableRecord
  2
NOTE
 70
     0
 62
     4
  6
CONTINUOUS
370
    -3
390
B83
  0
LAYER
  5
86E
102
{ACAD_XDICTIONARY
360
191E
102
}
330
843
100
AcDbSymbolTableRecord
100
AcDbLayerTableRecord
  2
SERVICESPACE
 70
     0
 62
     2
  6
DASHDOT
370
    -3
390
B83
  0
LAYER
  5
86F
102
{ACAD_XDICTIONARY
360
1920
102
}
330
843
100
AcDbSymbolTableRecord
100
AcDbLayerTableRecord
  2
SYMBOLLINE
 70
     0
 62
    15
  6
CONTINUOUS
370
    -3
390
B83
  0
ENDTAB
  0
TABLE
  2
STYLE
  5
844
330
0
100
AcDbSymbolTable
 70
     5
  0
STYLE
  5
852
330
844
100
AcDbSymbolTableRecord
100
AcDbTextStyleTableRecord
  2
STANDARD
 70
     0
 40
64.0
 41
0.9
 50
0.0
 71
     0
 42
64.0
  3
SIMPLEX.shx
  4
BIGFONT.shx
  0
STYLE
  5
16C6
330
844
100
AcDbSymbolTableRecord
100
AcDbTextStyleTableRecord
  2

 70
     1
 40
0.0
 41
1.0
 50
0.0
 71
     0
 42
64.0
  3
genltshp.shx
  4

  0
STYLE
  5
16CB
330
844
100
AcDbSymbolTableRecord
100
AcDbTextStyleTableRecord
  2
ACANSTS
 70
     0
 40
1.0
 41
1.0
 50
0.0
 71
     0
 42
64.0
  3
romans.shx
  4
extfont.shx
  0
STYLE
  5
16D7
330
844
100
AcDbSymbolTableRecord
100
AcDbTextStyleTableRecord
  2
ACANSGDT
 70
     0
 40
0.0
 41
1.0
 50
0.0
 71
     0
 42
64.0
  3
amgdt.shx
  4

  0
STYLE
  5
1AA2
330
844
100
AcDbSymbolTableRecord
100
AcDbTextStyleTableRecord
  2
ADESK1
 70
     0
 40
0.0
 41
1.0
 50
0.0
 71
     0
 42
0.12
  3
romanc.shx
  4
extfont.shx
  0
ENDTAB
  0
TABLE
  2
VIEW
  5
847
330
0
100
AcDbSymbolTable
 70
     1
  0
VIEW
  5
870
330
847
100
AcDbSymbolTableRecord
100
AcDbViewTableRecord
  2
ALL
 70
     0
 40
4282.619807999997
 10
0.0
 20
41.30990399999999
 41
5940.0
 11
0.0
 21
0.0
 31
1.0
 12
0.0
 22
0.0
 32
0.0
 42
50.0
 43
0.0
 44
0.0
 50
0.0
 71
     0
281
     0
 72
     0
  0
ENDTAB
  0
TABLE
  2
UCS
  5
848
330
0
100
AcDbSymbolTable
 70
     0
  0
ENDTAB
  0
TABLE
  2
APPID
  5
84A
330
0
100
AcDbSymbolTable
 70
    23
  0
APPID
  5
853
330
84A
100
AcDbSymbolTableRecord
100
AcDbRegAppTableRecord
  2
ACAD
 70
     0
  0
APPID
  5
15F2
330
84A
100
AcDbSymbolTableRecord
100
AcDbRegAppTableRecord
  2
GENIUS_GENDIM_13
 70
     0
  0
APPID
  5
15F3
330
84A
100
AcDbSymbolTableRecord
100
AcDbRegAppTableRecord
  2
GENIUS_GENDTOL_13
 70
     0
  0
APPID
  5
15F4
330
84A
100
AcDbSymbolTableRecord
100
AcDbRegAppTableRecord
  2
GENIUS_GE3DTOL_13
 70
     0
  0
APPID
  5
15F7
330
84A
100
AcDbSymbolTableRecord
100
AcDbRegAppTableRecord
  2
MCAD_NO_VIS
 70
     0
  0
APPID
  5
15F8
330
84A
100
AcDbSymbolTableRecord
100
AcDbRegAppTableRecord
  2
ACAD_TEMP_GRAPHIC
 70
     0
  0
APPID
  5
162A
330
84A
100
AcDbSymbolTableRecord
100
AcDbRegAppTableRecord
  2
AD_DRAW
 70
     0
  0
APPID
  5
162D
330
84A
100
AcDbSymbolTableRecord
100
AcDbRegAppTableRecord
  2
ACATTRIBSERVICES
 70
     0
  0
APPID
  5
1679
330
84A
100
AcDbSymbolTableRecord
100
AcDbRegAppTableRecord
  2
ASURF_PCURVE_APPNAME
 70
     0
  0
APPID
  5
167E
330
84A
100
AcDbSymbolTableRecord
100
AcDbRegAppTableRecord
  2
AMG_3D2D_5.0
 70
     0
  0
APPID
  5
16AF
330
84A
100
AcDbSymbolTableRecord
100
AcDbRegAppTableRecord
  2
DESIGNERASSEMBLIES
 70
     0
  0
APPID
  5
16B6
330
84A
100
AcDbSymbolTableRecord
100
AcDbRegAppTableRecord
  2
ACADM_DIM_EDIT
 70
     0
  0
APPID
  5
16B7
330
84A
100
AcDbSymbolTableRecord
100
AcDbRegAppTableRecord
  2
AMDT_DM_ADJ
 70
     0
  0
APPID
  5
16E6
330
84A
100
AcDbSymbolTableRecord
100
AcDbRegAppTableRecord
  2
ACAD_DSTYLE_DIMARC_LENGTH_SYMBOL
 70
     0
  0
APPID
  5
16E7
330
84A
100
AcDbSymbolTableRecord
100
AcDbRegAppTableRecord
  2
ACAD_DSTYLE_DIMJOGGED_JOGANGLE_SYMBOL
 70
     0
  0
APPID
  5
181E
330
84A
100
AcDbSymbolTableRecord
100
AcDbRegAppTableRecord
  2
ACAD_PSEXT
 70
     0
  0
APPID
  5
18B7
330
84A
100
AcDbSymbolTableRecord
100
AcDbRegAppTableRecord
  2
ACAD_MLEADERVER
 70
     0
  0
APPID
  5
1A70
330
84A
100
AcDbSymbolTableRecord
100
AcDbRegAppTableRecord
  2
ACAD_EXEMPT_FROM_CAD_STANDARDS
 70
     0
  0
APPID
  5
1AA5
330
84A
100
AcDbSymbolTableRecord
100
AcDbRegAppTableRecord
  2
ACAD_DSTYLE_DIMJAG
 70
     0
  0
APPID
  5
1AA6
330
84A
100
AcDbSymbolTableRecord
100
AcDbRegAppTableRecord
  2
ACAD_DSTYLE_DIMTALN
 70
     0
  0
APPID
  5
1CFC
330
84A
100
AcDbSymbolTableRecord
100
AcDbRegAppTableRecord
  2
ACAD_DSTYLE_DIM_LINETYPE
 70
     0
  0
APPID
  5
1CFD
330
84A
100
AcDbSymbolTableRecord
100
AcDbRegAppTableRecord
  2
ACAD_DSTYLE_DIM_EXT1_LINETYPE
 70
     0
  0
APPID
  5
1CFE
330
84A
100
AcDbSymbolTableRecord
100
AcDbRegAppTableRecord
  2
ACAD_DSTYLE_DIM_EXT2_LINETYPE
 70
     0
  0
ENDTAB
  0
TABLE
  2
DIMSTYLE
  5
84B
330
0
100
AcDbSymbolTable
 70
     9
100
AcDbDimStyleTable
 71
     2
340
16E5
340
871
  0
DIMSTYLE
105
871
330
84B
100
AcDbSymbolTableRecord
100
AcDbDimStyleTableRecord
  2
STANDARD
 70
     0
275
     1
284
     8
285
     8
286
     8
340
852
  0
DIMSTYLE
105
16E5
330
84B
100
AcDbSymbolTableRecord
100
AcDbDimStyleTableRecord
  2
AM_ANSI
 70
     0
  4
mm
 41
0.12
 42
0.05
 43
0.5
 44
0.1
 47
0.1
 48
0.1
 78
     7
 79
     2
140
0.12
141
0.0
146
0.71
147
0.06
176
   256
177
   256
178
     2
274
     4
284
     7
340
852
371
    -1
372
    -1
1001
ACAD_DSTYLE_DIMJOGGED_JOGANGLE_SYMBOL
1070
   384
1040
0.7853981633974483
1001
ACAD_DSTYLE_DIMARC_LENGTH_SYMBOL
1070
   379
1070
     1
1001
ACAD_DSTYLE_DIM_LINETYPE
1070
   380
1005
854
1001
ACAD_DSTYLE_DIM_EXT1_LINETYPE
1070
   381
1005
854
1001
ACAD_DSTYLE_DIM_EXT2_LINETYPE
1070
   382
1005
854
  0
DIMSTYLE
105
16EE
330
84B
100
AcDbSymbolTableRecord
100
AcDbDimStyleTableRecord
  2
AM_ANSI$3
 70
     0
  4
mm
 41
0.12
 42
0.05
 43
0.5
 44
0.1
 47
0.1
 48
0.1
 78
     7
 79
     2
140
0.12
141
0.0
146
0.71
147
0.06
176
   256
177
   256
178
     2
274
     4
284
     7
288
     1
289
     0
340
852
371
    -1
372
    -1
1001
ACAD_DSTYLE_DIMJOGGED_JOGANGLE_SYMBOL
1070
   384
1040
0.7853981633974483
1001
ACAD_DSTYLE_DIMARC_LENGTH_SYMBOL
1070
   379
1070
     1
1001
ACAD_DSTYLE_DIM_LINETYPE
1070
   380
1005
854
1001
ACAD_DSTYLE_DIM_EXT1_LINETYPE
1070
   381
1005
854
1001
ACAD_DSTYLE_DIM_EXT2_LINETYPE
1070
   382
1005
854
  0
DIMSTYLE
105
16F1
330
84B
100
AcDbSymbolTableRecord
100
AcDbDimStyleTableRecord
  2
AM_ANSI$4
 70
     0
  4
mm
 41
0.12
 42
0.05
 43
0.5
 44
0.1
 47
0.1
 48
0.1
 78
     7
 79
     2
140
0.12
141
0.0
146
0.71
147
0.06
176
   256
177
   256
178
     2
274
     4
284
     7
340
852
371
    -1
372
    -1
1001
ACAD_DSTYLE_DIMJOGGED_JOGANGLE_SYMBOL
1070
   384
1040
0.7853981633974483
1001
ACAD_DSTYLE_DIMARC_LENGTH_SYMBOL
1070
   379
1070
     1
1001
ACAD_DSTYLE_DIM_LINETYPE
1070
   380
1005
854
1001
ACAD_DSTYLE_DIM_EXT1_LINETYPE
1070
   381
1005
854
1001
ACAD_DSTYLE_DIM_EXT2_LINETYPE
1070
   382
1005
854
  0
DIMSTYLE
105
16F6
330
84B
100
AcDbSymbolTableRecord
100
AcDbDimStyleTableRecord
  2
AM_ANSI$7
 70
     0
  4
mm
 41
0.12
 42
0.05
 43
0.5
 44
0.1
 47
0.1
 48
0.1
 78
     7
 79
     2
140
0.12
141
0.0
146
0.71
147
0.06
176
   256
177
   256
178
     2
274
     4
284
     7
340
852
371
    -1
372
    -1
1001
ACAD_DSTYLE_DIMJOGGED_JOGANGLE_SYMBOL
1070
   384
1040
0.7853981633974483
1001
ACAD_DSTYLE_DIMARC_LENGTH_SYMBOL
1070
   379
1070
     1
1001
ACAD_DSTYLE_DIM_LINETYPE
1070
   380
1005
854
1001
ACAD_DSTYLE_DIM_EXT1_LINETYPE
1070
   381
1005
854
1001
ACAD_DSTYLE_DIM_EXT2_LINETYPE
1070
   382
1005
854
  0
DIMSTYLE
105
16F9
330
84B
100
AcDbSymbolTableRecord
100
AcDbDimStyleTableRecord
  2
AM_ANSI$SF
 70
     0
  4
mm
 41
0.12
 42
0.05
 43
0.5
 44
0.1
 47
0.1
 48
0.1
 75
     1
 76
     1
 78
     7
 79
     2
140
0.12
141
0.0
146
0.71
147
0.06
176
   256
177
   256
178
     2
274
     4
284
     7
340
852
371
    -1
372
    -1
1001
ACAD_DSTYLE_DIMJOGGED_JOGANGLE_SYMBOL
1070
   384
1040
0.7853981633974483
1001
ACAD_DSTYLE_DIMARC_LENGTH_SYMBOL
1070
   379
1070
     1
1001
ACAD_DSTYLE_DIM_LINETYPE
1070
   380
1005
854
1001
ACAD_DSTYLE_DIM_EXT1_LINETYPE
1070
   381
1005
854
1001
ACAD_DSTYLE_DIM_EXT2_LINETYPE
1070
   382
1005
854
  0
DIMSTYLE
105
1700
330
84B
100
AcDbSymbolTableRecord
100
AcDbDimStyleTableRecord
  2
AM_ANSI$SH
 70
     0
  4
mm
 41
0.12
 42
0.05
 43
0.5
 44
0.1
 47
0.1
 48
0.1
 75
     1
 76
     1
 78
     7
 79
     2
140
0.12
141
0.0
146
0.71
147
0.06
173
     1
176
   256
177
   256
178
     2
274
     4
284
     7
340
852
343
16FA
371
    -1
372
    -1
1001
ACAD_DSTYLE_DIMJOGGED_JOGANGLE_SYMBOL
1070
   384
1040
0.7853981633974483
1001
ACAD_DSTYLE_DIMARC_LENGTH_SYMBOL
1070
   379
1070
     1
1001
ACAD_DSTYLE_DIM_LINETYPE
1070
   380
1005
854
1001
ACAD_DSTYLE_DIM_EXT1_LINETYPE
1070
   381
1005
854
1001
ACAD_DSTYLE_DIM_EXT2_LINETYPE
1070
   382
1005
854
  0
DIMSTYLE
105
1AA3
330
84B
100
AcDbSymbolTableRecord
100
AcDbDimStyleTableRecord
  2
STANDARD1
 70
     0
 40
6.0
 41
2.5
 42
0.625
 43
6.0
 44
1.25
 47
1.0
 48
0.5
 77
     1
 78
     8
140
2.5
141
0.0
146
0.6
147
1.0
173
     1
284
     1
340
852
341
1A78
343
1A78
344
1A78
  0
DIMSTYLE
105
1AA4
330
84B
100
AcDbSymbolTableRecord
100
AcDbDimStyleTableRecord
  2
STANDARD$0
 70
     0
 41
12.0
 42
20.0
 44
20.0
 73
     0
 74
     0
 77
     1
 78
     9
140
64.0
141
0.0
147
10.0
271
     0
272
     0
275
     1
284
     8
285
     8
286
     8
340
852
341
1A78
342
AB2
1001
ACAD_DSTYLE_DIMJAG
1070
   388
1040
1.5
1001
ACAD_DSTYLE_DIMTALN
1070
   392
1070
     0
  0
ENDTAB
  0
TABLE
  2
BLOCK_RECORD
  5
842
330
0
100
AcDbSymbolTable
 70
    30
  0
BLOCK_RECORD
  5
85F
102
{ACAD_XDICTIONARY
360
B4F
102
}
330
842
100
AcDbSymbolTableRecord
100
AcDbBlockTableRecord
  2
*MODEL_SPACE
340
B84
  0
BLOCK_RECORD
  5
85B
102
{ACAD_XDICTIONARY
360
B4D
102
}
330
842
100
AcDbSymbolTableRecord
100
AcDbBlockTableRecord
  2
*PAPER_SPACE
340
B85
  0
BLOCK_RECORD
  5
87E
330
842
100
AcDbSymbolTableRecord
100
AcDbBlockTableRecord
  2
_ORIGIN
340
0
  0
BLOCK_RECORD
  5
AB2
330
842
100
AcDbSymbolTableRecord
100
AcDbBlockTableRecord
  2
_DOTBLANK
340
0
102
{BLKREFS
331
1546
331
1547
331
154F
331
1550
331
18C5
331
18C6
331
18D7
331
18D8
331
18E9
331
18EA
331
195F
331
1960
331
1982
331
1983
331
1A83
331
1A84
331
1A8F
331
1A90
331
1A9B
331
1A9C
331
1CD8
331
1CD9
331
1CE1
331
1CE2
331
1CEA
331
1CEB
331
1DEA
331
1DEB
331
1DF6
331
1DF7
331
1E02
331
1E03
331
1E0E
331
1E0F
331
1E1A
331
1E1B
331
1E26
331
1E27
331
2059
331
205A
331
2062
331
2063
331
206B
331
206C
331
2074
331
2075
331
207D
331
207E
331
2086
331
2087
331
2264
331
2265
331
226A
331
226B
331
2273
331
2274
331
2279
331
227A
331
227F
331
2280
331
2285
331
2286
102
}
  0
BLOCK_RECORD
  5
13BF
330
842
100
AcDbSymbolTableRecord
100
AcDbBlockTableRecord
  2
*D2
340
0
  0
BLOCK_RECORD
  5
13CB
330
842
100
AcDbSymbolTableRecord
100
AcDbBlockTableRecord
  2
*D3
340
0
  0
BLOCK_RECORD
  5
13D7
330
842
100
AcDbSymbolTableRecord
100
AcDbBlockTableRecord
  2
*D4
340
0
  0
BLOCK_RECORD
  5
13E3
330
842
100
AcDbSymbolTableRecord
100
AcDbBlockTableRecord
  2
*D5
340
0
  0
BLOCK_RECORD
  5
16FA
330
842
100
AcDbSymbolTableRecord
100
AcDbBlockTableRecord
  2
GENAXEH
340
0
  0
BLOCK_RECORD
  5
184A
330
842
100
AcDbSymbolTableRecord
100
AcDbBlockTableRecord
  2
*D7
340
0
  0
BLOCK_RECORD
  5
18BD
330
842
100
AcDbSymbolTableRecord
100
AcDbBlockTableRecord
  2
*D8
340
0
  0
BLOCK_RECORD
  5
1957
330
842
100
AcDbSymbolTableRecord
100
AcDbBlockTableRecord
  2
*D9
340
0
  0
BLOCK_RECORD
  5
1A78
330
842
100
AcDbSymbolTableRecord
100
AcDbBlockTableRecord
  2
_Open30
340
0
102
{BLKREFS
331
226E
102
}
  0
BLOCK_RECORD
  5
1A7E
330
842
100
AcDbSymbolTableRecord
100
AcDbBlockTableRecord
  2
*D11
340
0
  0
BLOCK_RECORD
  5
1A8A
330
842
100
AcDbSymbolTableRecord
100
AcDbBlockTableRecord
  2
*D12
340
0
  0
BLOCK_RECORD
  5
1A96
330
842
100
AcDbSymbolTableRecord
100
AcDbBlockTableRecord
  2
*D13
340
0
  0
BLOCK_RECORD
  5
1CB1
330
842
100
AcDbSymbolTableRecord
100
AcDbBlockTableRecord
  2
*D14
340
0
  0
BLOCK_RECORD
  5
1CBD
330
842
100
AcDbSymbolTableRecord
100
AcDbBlockTableRecord
  2
*D15
340
0
  0
BLOCK_RECORD
  5
1CC9
330
842
100
AcDbSymbolTableRecord
100
AcDbBlockTableRecord
  2
*D16
340
0
  0
BLOCK_RECORD
  5
1DE5
330
842
100
AcDbSymbolTableRecord
100
AcDbBlockTableRecord
  2
*D17
340
0
  0
BLOCK_RECORD
  5
1DF1
330
842
100
AcDbSymbolTableRecord
100
AcDbBlockTableRecord
  2
*D18
340
0
  0
BLOCK_RECORD
  5
1DFD
330
842
100
AcDbSymbolTableRecord
100
AcDbBlockTableRecord
  2
*D19
340
0
  0
BLOCK_RECORD
  5
1E09
330
842
100
AcDbSymbolTableRecord
100
AcDbBlockTableRecord
  2
*D20
340
0
  0
BLOCK_RECORD
  5
1E15
330
842
100
AcDbSymbolTableRecord
100
AcDbBlockTableRecord
  2
*D21
340
0
  0
BLOCK_RECORD
  5
1E21
330
842
100
AcDbSymbolTableRecord
100
AcDbBlockTableRecord
  2
*D22
340
0
  0
BLOCK_RECORD
  5
200E
330
842
100
AcDbSymbolTableRecord
100
AcDbBlockTableRecord
  2
*D23
340
0
  0
BLOCK_RECORD
  5
201A
330
842
100
AcDbSymbolTableRecord
100
AcDbBlockTableRecord
  2
*D24
340
0
  0
BLOCK_RECORD
  5
2026
330
842
100
AcDbSymbolTableRecord
100
AcDbBlockTableRecord
  2
*D25
340
0
  0
BLOCK_RECORD
  5
2032
330
842
100
AcDbSymbolTableRecord
100
AcDbBlockTableRecord
  2
*D26
340
0
  0
BLOCK_RECORD
  5
203E
330
842
100
AcDbSymbolTableRecord
100
AcDbBlockTableRecord
  2
*D27
340
0
  0
BLOCK_RECORD
  5
204A
330
842
100
AcDbSymbolTableRecord
100
AcDbBlockTableRecord
  2
*D28
340
0
  0
ENDTAB
  0
ENDSEC
  0
SECTION
  2
BLOCKS
  0
BLOCK
  5
860
330
85F
100
AcDbEntity
  8
0
100
AcDbBlockBegin
  2
*MODEL_SPACE
 70
     0
 10
0.0
 20
0.0
 30
0.0
  3
*MODEL_SPACE
  1

  0
ENDBLK
  5
861
330
85F
100
AcDbEntity
  8
0
100
AcDbBlockEnd
  0
BLOCK
  5
85C
330
85B
100
AcDbEntity
 67
     1
  8
0
100
AcDbBlockBegin
  2
*PAPER_SPACE
 70
     0
 10
0.0
 20
0.0
 30
0.0
  3
*PAPER_SPACE
  1

  0
ENDBLK
  5
85D
330
85B
100
AcDbEntity
 67
     1
  8
0
100
AcDbBlockEnd
  0
BLOCK
  5
87F
330
87E
100
AcDbEntity
  8
0
100
AcDbBlockBegin
  2
_ORIGIN
 70
     0
 10
0.0
 20
0.0
 30
0.0
  3
_ORIGIN
  1

  0
CIRCLE
  5
880
330
87E
100
AcDbEntity
  8
0
  6
Continuous
 62
     7
100
AcDbCircle
 10
0.0
 20
0.0
 30
0.0
 40
0.5
  0
LINE
  5
881
330
87E
100
AcDbEntity
  8
0
  6
Continuous
 62
     7
100
AcDbLine
 10
0.0
 20
0.0
 30
0.0
 11
-1.0
 21
0.0
 31
0.0
  0
ENDBLK
  5
882
330
87E
100
AcDbEntity
  8
0
100
AcDbBlockEnd
  0
BLOCK
  5
AB5
330
AB2
100
AcDbEntity
  8
0
 62
     1
100
AcDbBlockBegin
  2
_DOTBLANK
 70
     0
 10
0.0
 20
0.0
 30
0.0
  3
_DOTBLANK
  1

  0
CIRCLE
  5
AB3
330
AB2
100
AcDbEntity
  8
0
  6
ByBlock
 62
     0
100
AcDbCircle
 10
0.0
 20
0.0
 30
0.0
 40
0.5
  0
LINE
  5
AB4
330
AB2
100
AcDbEntity
  8
0
  6
ByBlock
 62
     0
100
AcDbLine
 10
-0.5
 20
0.0
 30
0.0
 11
-1.0
 21
0.0
 31
0.0
  0
ENDBLK
  5
AB6
330
AB2
100
AcDbEntity
  8
0
 62
     1
100
AcDbBlockEnd
  0
BLOCK
  5
13C9
330
13BF
100
AcDbEntity
  8
0
100
AcDbBlockBegin
  2
*D2
 70
     1
 10
0.0
 20
0.0
 30
0.0
  3
*D2
  1

  0
LINE
  5
18E6
330
13BF
100
AcDbEntity
  8
SIZE
  6
Continuous
 62
     0
370
    -2
100
AcDbLine
 10
-143.4999999999999
 20
300.0
 30
0.0
 11
-234.6555151615446
 21
300.0
 31
0.0
  0
LINE
  5
18E7
330
13BF
100
AcDbEntity
  8
SIZE
  6
Continuous
 62
     0
370
    -2
100
AcDbLine
 10
-143.4999999999999
 20
75.0
 30
0.0
 11
-234.6555151615447
 21
75.00000000000003
 31
0.0
  0
LINE
  5
18E8
330
13BF
100
AcDbEntity
  8
SIZE
  6
Continuous
 62
     0
370
    -2
100
AcDbLine
 10
-214.6555151615446
 20
288.0000000000001
 30
0.0
 11
-214.6555151615447
 21
87.00000000000001
 31
0.0
  0
INSERT
  5
18E9
330
13BF
100
AcDbEntity
  8
SIZE
  6
Continuous
 62
     0
370
    -2
100
AcDbBlockReference
  2
_DOTBLANK
 10
-214.6555151615446
 20
300.0
 30
0.0
 41
12.0
 42
12.0
 43
12.0
 50
90.0
  0
INSERT
  5
18EA
330
13BF
100
AcDbEntity
  8
SIZE
  6
Continuous
 62
     0
370
    -2
100
AcDbBlockReference
  2
_DOTBLANK
 10
-214.6555151615447
 20
75.00000000000001
 30
0.0
 41
12.0
 42
12.0
 43
12.0
 50
270.0
  0
MTEXT
  5
18EB
330
13BF
100
AcDbEntity
  8
SIZE
  6
Continuous
 62
     0
100
AcDbMText
 10
-256.6555151615447
 20
187.5
 30
0.0
 40
64.0
 41
0.0
 71
     5
 72
     1
  1
\A1;225
 11
0.0000000000000001
 21
1.0
 31
0.0
 73
     1
 44
1.0
1001
ACAD
1000
MTEXTBEGIN
1070
    73
1070
     1
1070
    44
1040
1.0
1070
    74
1070
     0
1000
MTEXTEND
  0
POINT
  5
18EC
330
13BF
100
AcDbEntity
  8
DEFPOINTS
  6
Continuous
 62
     0
100
AcDbPoint
 10
-123.4999999999999
 20
300.0
 30
0.0
  0
POINT
  5
18ED
330
13BF
100
AcDbEntity
  8
DEFPOINTS
  6
Continuous
 62
     0
100
AcDbPoint
 10
-123.4999999999999
 20
75.0
 30
0.0
  0
POINT
  5
18EE
330
13BF
100
AcDbEntity
  8
DEFPOINTS
  6
Continuous
 62
     0
100
AcDbPoint
 10
-214.6555151615447
 20
75.00000000000001
 30
0.0
  0
ENDBLK
  5
13CA
330
13BF
100
AcDbEntity
  8
0
100
AcDbBlockEnd
  0
BLOCK
  5
13D5
330
13CB
100
AcDbEntity
  8
0
100
AcDbBlockBegin
  2
*D3
 70
     1
 10
0.0
 20
0.0
 30
0.0
  3
*D3
  1

  0
LINE
  5
197F
330
13CB
100
AcDbEntity
  8
SIZE
  6
Continuous
 62
     0
370
    -2
100
AcDbLine
 10
134.5
 20
320.0
 30
0.0
 11
134.5000000000002
 21
411.6593666390436
 31
0.0
  0
LINE
  5
1980
330
13CB
100
AcDbEntity
  8
SIZE
  6
Continuous
 62
     0
370
    -2
100
AcDbLine
 10
-134.4999999999999
 20
320.0000000000001
 30
0.0
 11
-134.4999999999997
 21
411.6593666390442
 31
0.0
  0
LINE
  5
1981
330
13CB
100
AcDbEntity
  8
SIZE
  6
Continuous
 62
     0
370
    -2
100
AcDbLine
 10
122.5000000000001
 20
391.6593666390438
 30
0.0
 11
-122.4999999999997
 21
391.6593666390442
 31
0.0
  0
INSERT
  5
1982
330
13CB
100
AcDbEntity
  8
SIZE
  6
Continuous
 62
     0
370
    -2
100
AcDbBlockReference
  2
_DOTBLANK
 10
134.5000000000001
 20
391.6593666390438
 30
0.0
 41
12.0
 42
12.0
 43
12.0
 50
359.9999999999998
  0
INSERT
  5
1983
330
13CB
100
AcDbEntity
  8
SIZE
  6
Continuous
 62
     0
370
    -2
100
AcDbBlockReference
  2
_DOTBLANK
 10
-134.4999999999997
 20
391.6593666390442
 30
0.0
 41
12.0
 42
12.0
 43
12.0
 50
179.9999999999999
  0
MTEXT
  5
1984
330
13CB
100
AcDbEntity
  8
SIZE
  6
Continuous
 62
     0
100
AcDbMText
 10
0.0000000000002755
 20
433.659366639044
 30
0.0
 40
64.0
 41
0.0
 71
     5
 72
     1
  1
\A1;269
 73
     1
 44
1.0
1001
ACAD
1000
MTEXTBEGIN
1070
    73
1070
     1
1070
    44
1040
1.0
1070
    74
1070
     0
1000
MTEXTEND
  0
POINT
  5
1985
330
13CB
100
AcDbEntity
  8
DEFPOINTS
  6
Continuous
 62
     0
100
AcDbPoint
 10
134.5
 20
300.0
 30
0.0
  0
POINT
  5
1986
330
13CB
100
AcDbEntity
  8
DEFPOINTS
  6
Continuous
 62
     0
100
AcDbPoint
 10
-134.4999999999999
 20
300.0
 30
0.0
  0
POINT
  5
1987
330
13CB
100
AcDbEntity
  8
DEFPOINTS
  6
Continuous
 62
     0
100
AcDbPoint
 10
-134.4999999999997
 20
391.6593666390442
 30
0.0
  0
ENDBLK
  5
13D6
330
13CB
100
AcDbEntity
  8
0
100
AcDbBlockEnd
  0
BLOCK
  5
13E1
330
13D7
100
AcDbEntity
  8
0
100
AcDbBlockBegin
  2
*D4
 70
     1
 10
0.0
 20
0.0
 30
0.0
  3
*D4
  1

  0
LINE
  5
154C
330
13D7
100
AcDbEntity
  8
SIZE
  6
Continuous
 62
     0
370
    -2
100
AcDbLine
 10
139.9999999999999
 20
-32.46448280219374
 30
0.0
 11
139.9999999999997
 21
-180.3320910096175
 31
0.0
  0
LINE
  5
154D
330
13D7
100
AcDbEntity
  8
SIZE
  6
Continuous
 62
     0
370
    -2
100
AcDbLine
 10
-140.0
 20
-32.46448280219374
 30
0.0
 11
-140.0000000000002
 21
-180.332091009617
 31
0.0
  0
LINE
  5
154E
330
13D7
100
AcDbEntity
  8
SIZE
  6
Continuous
 62
     0
370
    -2
100
AcDbLine
 10
127.9999999999997
 20
-160.3320910096176
 30
0.0
 11
-128.0000000000002
 21
-160.3320910096172
 31
0.0
  0
INSERT
  5
154F
330
13D7
100
AcDbEntity
  8
SIZE
  6
Continuous
 62
     0
370
    -2
100
AcDbBlockReference
  2
_DOTBLANK
 10
139.9999999999997
 20
-160.3320910096176
 30
0.0
 41
12.0
 42
12.0
 43
12.0
 50
359.9999999999998
  0
INSERT
  5
1550
330
13D7
100
AcDbEntity
  8
SIZE
  6
Continuous
 62
     0
370
    -2
100
AcDbBlockReference
  2
_DOTBLANK
 10
-140.0000000000002
 20
-160.3320910096171
 30
0.0
 41
12.0
 42
12.0
 43
12.0
 50
179.9999999999999
  0
MTEXT
  5
1551
330
13D7
100
AcDbEntity
  8
SIZE
  6
Continuous
 62
     0
100
AcDbMText
 10
-0.5558776339944723
 20
-118.3320910096174
 30
0.0
 40
64.0
 41
0.0
 71
     5
 72
     1
  1
\A1;280
 73
     1
 44
1.0
1001
ACAD
1000
MTEXTBEGIN
1070
    73
1070
     1
1070
    44
1040
1.0
1070
    74
1070
     0
1000
MTEXTEND
  0
POINT
  5
1552
330
13D7
100
AcDbEntity
  8
DEFPOINTS
  6
Continuous
 62
     0
100
AcDbPoint
 10
140.0
 20
-12.46448280219374
 30
0.0
  0
POINT
  5
1553
330
13D7
100
AcDbEntity
  8
DEFPOINTS
  6
Continuous
 62
     0
100
AcDbPoint
 10
-139.9999999999999
 20
-12.46448280219374
 30
0.0
  0
POINT
  5
1554
330
13D7
100
AcDbEntity
  8
DEFPOINTS
  6
Continuous
 62
     0
100
AcDbPoint
 10
-140.0000000000002
 20
-160.3320910096171
 30
0.0
  0
ENDBLK
  5
13E2
330
13D7
100
AcDbEntity
  8
0
100
AcDbBlockEnd
  0
BLOCK
  5
13ED
330
13E3
100
AcDbEntity
  8
0
100
AcDbBlockBegin
  2
*D5
 70
     1
 10
0.0
 20
0.0
 30
0.0
  3
*D5
  1

  0
LINE
  5
1543
330
13E3
100
AcDbEntity
  8
SIZE
  6
Continuous
 62
     0
370
    -2
100
AcDbLine
 10
157.5
 20
-20.0
 30
0.0
 11
157.4999999999994
 21
-298.8865929365173
 31
0.0
  0
LINE
  5
1544
330
13E3
100
AcDbEntity
  8
SIZE
  6
Continuous
 62
     0
370
    -2
100
AcDbLine
 10
-157.5
 20
-20.0
 30
0.0
 11
-157.5000000000005
 21
-298.8865929365167
 31
0.0
  0
LINE
  5
1545
330
13E3
100
AcDbEntity
  8
SIZE
  6
Continuous
 62
     0
370
    -2
100
AcDbLine
 10
145.4999999999995
 20
-278.8865929365173
 30
0.0
 11
-145.5000000000005
 21
-278.8865929365167
 31
0.0
  0
INSERT
  5
1546
330
13E3
100
AcDbEntity
  8
SIZE
  6
Continuous
 62
     0
370
    -2
100
AcDbBlockReference
  2
_DOTBLANK
 10
157.4999999999995
 20
-278.8865929365173
 30
0.0
 41
12.0
 42
12.0
 43
12.0
 50
359.9999999999998
  0
INSERT
  5
1547
330
13E3
100
AcDbEntity
  8
SIZE
  6
Continuous
 62
     0
370
    -2
100
AcDbBlockReference
  2
_DOTBLANK
 10
-157.5000000000005
 20
-278.8865929365167
 30
0.0
 41
12.0
 42
12.0
 43
12.0
 50
179.9999999999999
  0
MTEXT
  5
1548
330
13E3
100
AcDbEntity
  8
SIZE
  6
Continuous
 62
     0
100
AcDbMText
 10
0.0000000000005481
 20
-236.886592936517
 30
0.0
 40
64.0
 41
0.0
 71
     5
 72
     1
  1
\A1;315
 73
     1
 44
1.0
1001
ACAD
1000
MTEXTBEGIN
1070
    73
1070
     1
1070
    44
1040
1.0
1070
    74
1070
     0
1000
MTEXTEND
  0
POINT
  5
1549
330
13E3
100
AcDbEntity
  8
DEFPOINTS
  6
Continuous
 62
     0
100
AcDbPoint
 10
157.5
 20
0.0
 30
0.0
  0
POINT
  5
154A
330
13E3
100
AcDbEntity
  8
DEFPOINTS
  6
Continuous
 62
     0
100
AcDbPoint
 10
-157.5
 20
0.0
 30
0.0
  0
POINT
  5
154B
330
13E3
100
AcDbEntity
  8
DEFPOINTS
  6
Continuous
 62
     0
100
AcDbPoint
 10
-157.5000000000005
 20
-278.8865929365167
 30
0.0
  0
ENDBLK
  5
13EE
330
13E3
100
AcDbEntity
  8
0
100
AcDbBlockEnd
  0
BLOCK
  5
16FC
330
16FA
100
AcDbEntity
  8
0
100
AcDbBlockBegin
  2
GENAXEH
 70
     0
 10
0.0
 20
0.0
 30
0.0
  3
GENAXEH
  1

  0
LINE
  5
16FB
330
16FA
100
AcDbEntity
  8
0
100
AcDbLine
 10
-1.0
 20
0.0
 30
0.0
 11
1.0
 21
0.0
 31
0.0
  0
ENDBLK
  5
16FD
330
16FA
100
AcDbEntity
  8
0
100
AcDbBlockEnd
  0
BLOCK
  5
1854
330
184A
100
AcDbEntity
  8
0
100
AcDbBlockBegin
  2
*D7
 70
     1
 10
0.0
 20
0.0
 30
0.0
  3
*D7
  1

  0
LINE
  5
18D4
330
184A
100
AcDbEntity
  8
SIZE
  6
Continuous
 62
     0
370
    -2
100
AcDbLine
 10
-177.5
 20
0.0000000000000057
 30
0.0
 11
-343.6294636086016
 21
0.0000000000000527
 31
0.0
  0
LINE
  5
18D5
330
184A
100
AcDbEntity
  8
SIZE
  6
Continuous
 62
     0
370
    -2
100
AcDbLine
 10
-143.4999999999999
 20
300.0
 30
0.0
 11
-343.6294636086016
 21
300.0
 31
0.0
  0
LINE
  5
18D6
330
184A
100
AcDbEntity
  8
SIZE
  6
Continuous
 62
     0
370
    -2
100
AcDbLine
 10
-323.6294636086015
 20
12.00000000000003
 30
0.0
 11
-323.6294636086015
 21
288.0000000000001
 31
0.0
  0
INSERT
  5
18D7
330
184A
100
AcDbEntity
  8
SIZE
  6
Continuous
 62
     0
370
    -2
100
AcDbBlockReference
  2
_DOTBLANK
 10
-323.6294636086015
 20
0.0000000000000471
 30
0.0
 41
12.0
 42
12.0
 43
12.0
 50
270.0
  0
INSERT
  5
18D8
330
184A
100
AcDbEntity
  8
SIZE
  6
Continuous
 62
     0
370
    -2
100
AcDbBlockReference
  2
_DOTBLANK
 10
-323.6294636086015
 20
300.0
 30
0.0
 41
12.0
 42
12.0
 43
12.0
 50
90.0
  0
MTEXT
  5
18D9
330
184A
100
AcDbEntity
  8
SIZE
  6
Continuous
 62
     0
100
AcDbMText
 10
-365.6294636086016
 20
150.0
 30
0.0
 40
64.0
 41
0.0
 71
     5
 72
     1
  1
\A1;300
 11
0.0000000000000001
 21
1.0
 31
0.0
 73
     1
 44
1.0
1001
ACAD
1000
MTEXTBEGIN
1070
    73
1070
     1
1070
    44
1040
1.0
1070
    74
1070
     0
1000
MTEXTEND
  0
POINT
  5
18DA
330
184A
100
AcDbEntity
  8
DEFPOINTS
  6
Continuous
 62
     0
100
AcDbPoint
 10
-157.5
 20
0.0
 30
0.0
  0
POINT
  5
18DB
330
184A
100
AcDbEntity
  8
DEFPOINTS
  6
Continuous
 62
     0
100
AcDbPoint
 10
-123.4999999999999
 20
300.0
 30
0.0
  0
POINT
  5
18DC
330
184A
100
AcDbEntity
  8
DEFPOINTS
  6
Continuous
 62
     0
100
AcDbPoint
 10
-323.6294636086015
 20
300.0
 30
0.0
  0
ENDBLK
  5
1855
330
184A
100
AcDbEntity
  8
0
100
AcDbBlockEnd
  0
BLOCK
  5
18BE
330
18BD
100
AcDbEntity
  8
0
100
AcDbBlockBegin
  2
*D8
 70
     1
 10
0.0
 20
0.0
 30
0.0
  3
*D8
  1

  0
LINE
  5
18C0
330
18BD
100
AcDbEntity
  8
SIZE
  6
Continuous
 62
     0
370
    -2
100
AcDbLine
 10
123.5
 20
280.0
 30
0.0
 11
123.5
 21
336.8232420977278
 31
0.0
  0
LINE
  5
18C1
330
18BD
100
AcDbEntity
  8
SIZE
  6
Continuous
 62
     0
370
    -2
100
AcDbLine
 10
133.5
 20
291.0
 30
0.0
 11
133.5
 21
336.8232420977278
 31
0.0
  0
LINE
  5
18C2
330
18BD
100
AcDbEntity
  8
SIZE
  6
Continuous
 62
     0
370
    -2
100
AcDbLine
 10
111.5
 20
316.8232420977278
 30
0.0
 11
99.50000000000001
 21
316.8232420977278
 31
0.0
  0
LINE
  5
18C3
330
18BD
100
AcDbEntity
  8
SIZE
  6
Continuous
 62
     0
370
    -2
100
AcDbLine
 10
145.5
 20
316.8232420977278
 30
0.0
 11
157.5
 21
316.8232420977278
 31
0.0
  0
LINE
  5
18C4
330
18BD
100
AcDbEntity
  8
SIZE
  6
Continuous
 62
     0
370
    -2
100
AcDbLine
 10
123.5
 20
316.8232420977278
 30
0.0
 11
133.5
 21
316.8232420977278
 31
0.0
  0
INSERT
  5
18C5
330
18BD
100
AcDbEntity
  8
SIZE
  6
Continuous
 62
     0
370
    -2
100
AcDbBlockReference
  2
_DOTBLANK
 10
123.5
 20
316.8232420977278
 30
0.0
 41
12.0
 42
12.0
 43
12.0
  0
INSERT
  5
18C6
330
18BD
100
AcDbEntity
  8
SIZE
  6
Continuous
 62
     0
370
    -2
100
AcDbBlockReference
  2
_DOTBLANK
 10
133.5
 20
316.8232420977278
 30
0.0
 41
12.0
 42
12.0
 43
12.0
 50
180.0
  0
MTEXT
  5
18C7
330
18BD
100
AcDbEntity
  8
SIZE
  6
Continuous
 62
     0
100
AcDbMText
 10
128.5
 20
358.8232420977278
 30
0.0
 40
64.0
 41
0.0
 71
     5
 72
     1
  1
\A1;10
 73
     1
 44
1.0
1001
ACAD
1000
MTEXTBEGIN
1070
    73
1070
     1
1070
    44
1040
1.0
1070
    74
1070
     0
1000
MTEXTEND
  0
POINT
  5
18C8
330
18BD
100
AcDbEntity
  8
DEFPOINTS
  6
Continuous
 62
     0
100
AcDbPoint
 10
123.5
 20
260.0
 30
0.0
  0
POINT
  5
18C9
330
18BD
100
AcDbEntity
  8
DEFPOINTS
  6
Continuous
 62
     0
100
AcDbPoint
 10
133.5
 20
271.0
 30
0.0
  0
POINT
  5
18CA
330
18BD
100
AcDbEntity
  8
DEFPOINTS
  6
Continuous
 62
     0
100
AcDbPoint
 10
133.5
 20
316.8232420977278
 30
0.0
  0
ENDBLK
  5
18BF
330
18BD
100
AcDbEntity
  8
0
100
AcDbBlockEnd
  0
BLOCK
  5
1958
330
1957
100
AcDbEntity
  8
0
100
AcDbBlockBegin
  2
*D9
 70
     1
 10
0.0
 20
0.0
 30
0.0
  3
*D9
  1

  0
LINE
  5
195A
330
1957
100
AcDbEntity
  8
SIZE
  6
Continuous
 62
     0
370
    -2
100
AcDbLine
 10
123.5
 20
320.0
 30
0.0
 11
123.5
 21
341.5778429222677
 31
0.0
  0
LINE
  5
195B
330
1957
100
AcDbEntity
  8
SIZE
  6
Continuous
 62
     0
370
    -2
100
AcDbLine
 10
134.5
 20
332.0
 30
0.0
 11
134.5
 21
341.5778429222677
 31
0.0
  0
LINE
  5
195C
330
1957
100
AcDbEntity
  8
SIZE
  6
Continuous
 62
     0
370
    -2
100
AcDbLine
 10
111.5
 20
321.5778429222677
 30
0.0
 11
99.50000000000001
 21
321.5778429222677
 31
0.0
  0
LINE
  5
195D
330
1957
100
AcDbEntity
  8
SIZE
  6
Continuous
 62
     0
370
    -2
100
AcDbLine
 10
146.5
 20
321.5778429222677
 30
0.0
 11
158.5
 21
321.5778429222677
 31
0.0
  0
LINE
  5
195E
330
1957
100
AcDbEntity
  8
SIZE
  6
Continuous
 62
     0
370
    -2
100
AcDbLine
 10
123.5
 20
321.5778429222677
 30
0.0
 11
134.5
 21
321.5778429222677
 31
0.0
  0
INSERT
  5
195F
330
1957
100
AcDbEntity
  8
SIZE
  6
Continuous
 62
     0
370
    -2
100
AcDbBlockReference
  2
_DOTBLANK
 10
123.5
 20
321.5778429222677
 30
0.0
 41
12.0
 42
12.0
 43
12.0
  0
INSERT
  5
1960
330
1957
100
AcDbEntity
  8
SIZE
  6
Continuous
 62
     0
370
    -2
100
AcDbBlockReference
  2
_DOTBLANK
 10
134.5
 20
321.5778429222677
 30
0.0
 41
12.0
 42
12.0
 43
12.0
 50
180.0
  0
MTEXT
  5
1961
330
1957
100
AcDbEntity
  8
SIZE
  6
Continuous
 62
     0
100
AcDbMText
 10
129.0
 20
363.5778429222677
 30
0.0
 40
64.0
 41
0.0
 71
     5
 72
     1
  1
\A1;11
 73
     1
 44
1.0
1001
ACAD
1000
MTEXTBEGIN
1070
    73
1070
     1
1070
    44
1040
1.0
1070
    74
1070
     0
1000
MTEXTEND
  0
POINT
  5
1962
330
1957
100
AcDbEntity
  8
DEFPOINTS
  6
Continuous
 62
     0
100
AcDbPoint
 10
123.5
 20
300.0
 30
0.0
  0
POINT
  5
1963
330
1957
100
AcDbEntity
  8
DEFPOINTS
  6
Continuous
 62
     0
100
AcDbPoint
 10
134.5
 20
312.0
 30
0.0
  0
POINT
  5
1964
330
1957
100
AcDbEntity
  8
DEFPOINTS
  6
Continuous
 62
     0
100
AcDbPoint
 10
134.5
 20
321.5778429222677
 30
0.0
  0
ENDBLK
  5
1959
330
1957
100
AcDbEntity
  8
0
100
AcDbBlockEnd
  0
BLOCK
  5
1A79
330
1A78
100
AcDbEntity
  8
0
100
AcDbBlockBegin
  2
_Open30
 70
     0
 10
0.0
 20
0.0
 30
0.0
  3
_Open30
  1

  0
LINE
  5
1A7A
330
1A78
100
AcDbEntity
  8
0
  6
ByBlock
 62
     0
370
    -2
100
AcDbLine
 10
-1.0
 20
0.26794919
 30
0.0
 11
0.0
 21
0.0
 31
0.0
  0
LINE
  5
1A7B
330
1A78
100
AcDbEntity
  8
0
  6
ByBlock
 62
     0
370
    -2
100
AcDbLine
 10
0.0
 20
0.0
 30
0.0
 11
-1.0
 21
-0.26794919
 31
0.0
  0
LINE
  5
1A7C
330
1A78
100
AcDbEntity
  8
0
  6
ByBlock
 62
     0
370
    -2
100
AcDbLine
 10
0.0
 20
0.0
 30
0.0
 11
-1.0
 21
0.0
 31
0.0
  0
ENDBLK
  5
1A7D
330
1A78
100
AcDbEntity
  8
0
100
AcDbBlockEnd
  0
BLOCK
  5
1A7F
330
1A7E
100
AcDbEntity
  8
0
100
AcDbBlockBegin
  2
*D11
 70
     1
 10
0.0
 20
0.0
 30
0.0
  3
*D11
  1

  0
LINE
  5
1A80
330
1A7E
100
AcDbEntity
  8
SIZE
 62
     0
370
    -2
100
AcDbLine
 10
-43463.54745323373
 20
-411.3519744392156
 30
0.0
 11
-43463.54745323373
 21
-555.3096682655803
 31
0.0
  0
LINE
  5
1A81
330
1A7E
100
AcDbEntity
  8
SIZE
 62
     0
370
    -2
100
AcDbLine
 10
-42825.54745323372
 20
-411.3519744392155
 30
0.0
 11
-42825.54745323372
 21
-555.3096682655803
 31
0.0
  0
LINE
  5
1A82
330
1A7E
100
AcDbEntity
  8
SIZE
 62
     0
370
    -2
100
AcDbLine
 10
-43451.54745323373
 20
-535.3096682655805
 30
0.0
 11
-42837.54745323373
 21
-535.3096682655805
 31
0.0
  0
INSERT
  5
1A83
330
1A7E
100
AcDbEntity
  8
SIZE
 62
     0
370
    -2
100
AcDbBlockReference
  2
_DOTBLANK
 10
-43463.54745323373
 20
-535.3096682655805
 30
0.0
 41
12.0
 42
12.0
 43
12.0
 50
180.0
  0
INSERT
  5
1A84
330
1A7E
100
AcDbEntity
  8
SIZE
 62
     0
370
    -2
100
AcDbBlockReference
  2
_DOTBLANK
 10
-42825.54745323372
 20
-535.3096682655805
 30
0.0
 41
12.0
 42
12.0
 43
12.0
  0
MTEXT
  5
1A85
330
1A7E
100
AcDbEntity
  8
SIZE
 62
     0
100
AcDbMText
 10
-43144.54745323373
 20
-493.3096682655805
 30
0.0
 40
64.0
 41
0.0
 71
     5
 72
     1
  1
\A1;638
 73
     1
 44
1.0
1001
ACAD
1000
MTEXTBEGIN
1070
    73
1070
     1
1070
    44
1040
1.0
1070
    74
1070
     0
1000
MTEXTEND
  0
POINT
  5
1A86
330
1A7E
100
AcDbEntity
  8
DEFPOINTS
 62
     0
100
AcDbPoint
 10
-43463.54745323373
 20
-391.3519744392159
 30
0.0
  0
POINT
  5
1A87
330
1A7E
100
AcDbEntity
  8
DEFPOINTS
 62
     0
100
AcDbPoint
 10
-42825.54745323372
 20
-391.3519744392155
 30
0.0
  0
POINT
  5
1A88
330
1A7E
100
AcDbEntity
  8
DEFPOINTS
 62
     0
100
AcDbPoint
 10
-42825.54745323372
 20
-535.3096682655805
 30
0.0
  0
ENDBLK
  5
1A89
330
1A7E
100
AcDbEntity
  8
0
100
AcDbBlockEnd
  0
BLOCK
  5
1A8B
330
1A8A
100
AcDbEntity
  8
0
100
AcDbBlockBegin
  2
*D12
 70
     1
 10
0.0
 20
0.0
 30
0.0
  3
*D12
  1

  0
LINE
  5
1A8C
330
1A8A
100
AcDbEntity
  8
SIZE
 62
     0
370
    -2
100
AcDbLine
 10
-43469.54745323373
 20
-410.5519744392156
 30
0.0
 11
-43469.54745323373
 21
-658.6163768251707
 31
0.0
  0
LINE
  5
1A8D
330
1A8A
100
AcDbEntity
  8
SIZE
 62
     0
370
    -2
100
AcDbLine
 10
-42819.54745323373
 20
-410.5519744392156
 30
0.0
 11
-42819.54745323373
 21
-658.6163768251707
 31
0.0
  0
LINE
  5
1A8E
330
1A8A
100
AcDbEntity
  8
SIZE
 62
     0
370
    -2
100
AcDbLine
 10
-43457.54745323373
 20
-638.6163768251707
 30
0.0
 11
-42831.54745323373
 21
-638.6163768251707
 31
0.0
  0
INSERT
  5
1A8F
330
1A8A
100
AcDbEntity
  8
SIZE
 62
     0
370
    -2
100
AcDbBlockReference
  2
_DOTBLANK
 10
-43469.54745323373
 20
-638.6163768251707
 30
0.0
 41
12.0
 42
12.0
 43
12.0
 50
180.0
  0
INSERT
  5
1A90
330
1A8A
100
AcDbEntity
  8
SIZE
 62
     0
370
    -2
100
AcDbBlockReference
  2
_DOTBLANK
 10
-42819.54745323373
 20
-638.6163768251707
 30
0.0
 41
12.0
 42
12.0
 43
12.0
  0
MTEXT
  5
1A91
330
1A8A
100
AcDbEntity
  8
SIZE
 62
     0
100
AcDbMText
 10
-43144.54745323373
 20
-596.6163768251707
 30
0.0
 40
64.0
 41
0.0
 71
     5
 72
     1
  1
\A1;650
 73
     1
 44
1.0
1001
ACAD
1000
MTEXTBEGIN
1070
    73
1070
     1
1070
    44
1040
1.0
1070
    74
1070
     0
1000
MTEXTEND
  0
POINT
  5
1A92
330
1A8A
100
AcDbEntity
  8
DEFPOINTS
 62
     0
100
AcDbPoint
 10
-43469.54745323373
 20
-390.551974439216
 30
0.0
  0
POINT
  5
1A93
330
1A8A
100
AcDbEntity
  8
DEFPOINTS
 62
     0
100
AcDbPoint
 10
-42819.54745323373
 20
-390.5519744392158
 30
0.0
  0
POINT
  5
1A94
330
1A8A
100
AcDbEntity
  8
DEFPOINTS
 62
     0
100
AcDbPoint
 10
-42819.54745323373
 20
-638.6163768251707
 30
0.0
  0
ENDBLK
  5
1A95
330
1A8A
100
AcDbEntity
  8
0
100
AcDbBlockEnd
  0
BLOCK
  5
1A97
330
1A96
100
AcDbEntity
  8
0
100
AcDbBlockBegin
  2
*D13
 70
     1
 10
0.0
 20
0.0
 30
0.0
  3
*D13
  1

  0
LINE
  5
1A98
330
1A96
100
AcDbEntity
  8
SIZE
 62
     0
370
    -2
100
AcDbLine
 10
-43489.54745323373
 20
-390.551974439216
 30
0.0
 11
-43567.14630723133
 21
-390.551974439216
 31
0.0
  0
LINE
  5
1A99
330
1A96
100
AcDbEntity
  8
SIZE
 62
     0
370
    -2
100
AcDbLine
 10
-43485.54745323373
 20
-84.4321907148514
 30
0.0
 11
-43567.14630723133
 21
-84.43219071485136
 31
0.0
  0
LINE
  5
1A9A
330
1A96
100
AcDbEntity
  8
SIZE
 62
     0
370
    -2
100
AcDbLine
 10
-43547.14630723133
 20
-378.551974439216
 30
0.0
 11
-43547.14630723133
 21
-96.43219071485141
 31
0.0
  0
INSERT
  5
1A9B
330
1A96
100
AcDbEntity
  8
SIZE
 62
     0
370
    -2
100
AcDbBlockReference
  2
_DOTBLANK
 10
-43547.14630723133
 20
-390.551974439216
 30
0.0
 41
12.0
 42
12.0
 43
12.0
 50
270.0
  0
INSERT
  5
1A9C
330
1A96
100
AcDbEntity
  8
SIZE
 62
     0
370
    -2
100
AcDbBlockReference
  2
_DOTBLANK
 10
-43547.14630723133
 20
-84.43219071485136
 30
0.0
 41
12.0
 42
12.0
 43
12.0
 50
90.0
  0
MTEXT
  5
1A9D
330
1A96
100
AcDbEntity
  8
SIZE
 62
     0
100
AcDbMText
 10
-43589.14630723133
 20
-237.4920825770407
 30
0.0
 40
64.0
 41
0.0
 71
     5
 72
     1
  1
\A1;306
 11
0.0000000000000001
 21
1.0
 31
0.0
 73
     1
 44
1.0
1001
ACAD
1000
MTEXTBEGIN
1070
    73
1070
     1
1070
    44
1040
1.0
1070
    74
1070
     0
1000
MTEXTEND
  0
POINT
  5
1A9E
330
1A96
100
AcDbEntity
  8
DEFPOINTS
 62
     0
100
AcDbPoint
 10
-43469.54745323373
 20
-390.551974439216
 30
0.0
  0
POINT
  5
1A9F
330
1A96
100
AcDbEntity
  8
DEFPOINTS
 62
     0
100
AcDbPoint
 10
-43465.54745323373
 20
-84.4321907148514
 30
0.0
  0
POINT
  5
1AA0
330
1A96
100
AcDbEntity
  8
DEFPOINTS
 62
     0
100
AcDbPoint
 10
-43547.14630723133
 20
-84.43219071485136
 30
0.0
  0
ENDBLK
  5
1AA1
330
1A96
100
AcDbEntity
  8
0
100
AcDbBlockEnd
  0
BLOCK
  5
1CB2
330
1CB1
100
AcDbEntity
  8
0
100
AcDbBlockBegin
  2
*D14
 70
     1
 10
0.0
 20
0.0
 30
0.0
  3
*D14
  1

  0
LINE
  5
1CD5
330
1CB1
100
AcDbEntity
  8
SIZE
 62
     0
370
    -2
100
AcDbLine
 10
-319.0
 20
-20.80000000000075
 30
0.0
 11
-319.0
 21
-164.7576938263653
 31
0.0
  0
LINE
  5
1CD6
330
1CB1
100
AcDbEntity
  8
SIZE
 62
     0
370
    -2
100
AcDbLine
 10
319.0
 20
-20.8000000000003
 30
0.0
 11
319.0
 21
-164.7576938263653
 31
0.0
  0
LINE
  5
1CD7
330
1CB1
100
AcDbEntity
  8
SIZE
 62
     0
370
    -2
100
AcDbLine
 10
-307.0
 20
-144.7576938263653
 30
0.0
 11
307.0
 21
-144.7576938263653
 31
0.0
  0
INSERT
  5
1CD8
330
1CB1
100
AcDbEntity
  8
SIZE
 62
     0
370
    -2
100
AcDbBlockReference
  2
_DOTBLANK
 10
-319.0
 20
-144.7576938263653
 30
0.0
 41
12.0
 42
12.0
 43
12.0
 50
180.0
  0
INSERT
  5
1CD9
330
1CB1
100
AcDbEntity
  8
SIZE
 62
     0
370
    -2
100
AcDbBlockReference
  2
_DOTBLANK
 10
319.0
 20
-144.7576938263653
 30
0.0
 41
12.0
 42
12.0
 43
12.0
  0
MTEXT
  5
1CDA
330
1CB1
100
AcDbEntity
  8
SIZE
 62
     0
100
AcDbMText
 10
0.0000000000000026
 20
-102.7576938263653
 30
0.0
 40
64.0
 41
0.0
 71
     5
 72
     1
  1
\A1;638
 73
     1
 44
1.0
1001
ACAD
1000
MTEXTBEGIN
1070
    73
1070
     1
1070
    44
1040
1.0
1070
    74
1070
     0
1000
MTEXTEND
  0
POINT
  5
1CDB
330
1CB1
100
AcDbEntity
  8
DEFPOINTS
 62
     0
100
AcDbPoint
 10
-319.0
 20
-0.8000000000007503
 30
0.0
  0
POINT
  5
1CDC
330
1CB1
100
AcDbEntity
  8
DEFPOINTS
 62
     0
100
AcDbPoint
 10
319.0
 20
-0.8000000000002954
 30
0.0
  0
POINT
  5
1CDD
330
1CB1
100
AcDbEntity
  8
DEFPOINTS
 62
     0
100
AcDbPoint
 10
319.0
 20
-144.7576938263653
 30
0.0
  0
ENDBLK
  5
1CB3
330
1CB1
100
AcDbEntity
  8
0
100
AcDbBlockEnd
  0
BLOCK
  5
1CBE
330
1CBD
100
AcDbEntity
  8
0
100
AcDbBlockBegin
  2
*D15
 70
     1
 10
0.0
 20
0.0
 30
0.0
  3
*D15
  1

  0
LINE
  5
1CDE
330
1CBD
100
AcDbEntity
  8
SIZE
 62
     0
370
    -2
100
AcDbLine
 10
-325.0
 20
-20.00000000000079
 30
0.0
 11
-325.0
 21
-268.0644023859557
 31
0.0
  0
LINE
  5
1CDF
330
1CBD
100
AcDbEntity
  8
SIZE
 62
     0
370
    -2
100
AcDbLine
 10
325.0
 20
-20.00000000000057
 30
0.0
 11
325.0
 21
-268.0644023859557
 31
0.0
  0
LINE
  5
1CE0
330
1CBD
100
AcDbEntity
  8
SIZE
 62
     0
370
    -2
100
AcDbLine
 10
-313.0
 20
-248.0644023859556
 30
0.0
 11
313.0
 21
-248.0644023859556
 31
0.0
  0
INSERT
  5
1CE1
330
1CBD
100
AcDbEntity
  8
SIZE
 62
     0
370
    -2
100
AcDbBlockReference
  2
_DOTBLANK
 10
-325.0
 20
-248.0644023859556
 30
0.0
 41
12.0
 42
12.0
 43
12.0
 50
180.0
  0
INSERT
  5
1CE2
330
1CBD
100
AcDbEntity
  8
SIZE
 62
     0
370
    -2
100
AcDbBlockReference
  2
_DOTBLANK
 10
325.0
 20
-248.0644023859556
 30
0.0
 41
12.0
 42
12.0
 43
12.0
  0
MTEXT
  5
1CE3
330
1CBD
100
AcDbEntity
  8
SIZE
 62
     0
100
AcDbMText
 10
0.0000000000000026
 20
-206.0644023859556
 30
0.0
 40
64.0
 41
0.0
 71
     5
 72
     1
  1
\A1;650
 73
     1
 44
1.0
1001
ACAD
1000
MTEXTBEGIN
1070
    73
1070
     1
1070
    44
1040
1.0
1070
    74
1070
     0
1000
MTEXTEND
  0
POINT
  5
1CE4
330
1CBD
100
AcDbEntity
  8
DEFPOINTS
 62
     0
100
AcDbPoint
 10
-325.0
 20
-0.0000000000007958
 30
0.0
  0
POINT
  5
1CE5
330
1CBD
100
AcDbEntity
  8
DEFPOINTS
 62
     0
100
AcDbPoint
 10
325.0
 20
-0.0000000000005684
 30
0.0
  0
POINT
  5
1CE6
330
1CBD
100
AcDbEntity
  8
DEFPOINTS
 62
     0
100
AcDbPoint
 10
325.0
 20
-248.0644023859556
 30
0.0
  0
ENDBLK
  5
1CBF
330
1CBD
100
AcDbEntity
  8
0
100
AcDbBlockEnd
  0
BLOCK
  5
1CCA
330
1CC9
100
AcDbEntity
  8
0
100
AcDbBlockBegin
  2
*D16
 70
     1
 10
0.0
 20
0.0
 30
0.0
  3
*D16
  1

  0
LINE
  5
1CE7
330
1CC9
100
AcDbEntity
  8
SIZE
 62
     0
370
    -2
100
AcDbLine
 10
-345.0
 20
-0.0000000000007901
 30
0.0
 11
-422.5988539976023
 21
-0.0000000000007682
 31
0.0
  0
LINE
  5
1CE8
330
1CC9
100
AcDbEntity
  8
SIZE
 62
     0
370
    -2
100
AcDbLine
 10
-341.0
 20
306.1197837243637
 30
0.0
 11
-422.5988539976023
 21
306.1197837243638
 31
0.0
  0
LINE
  5
1CE9
330
1CC9
100
AcDbEntity
  8
SIZE
 62
     0
370
    -2
100
AcDbLine
 10
-402.5988539976021
 20
11.99999999999922
 30
0.0
 11
-402.5988539976021
 21
294.1197837243638
 31
0.0
  0
INSERT
  5
1CEA
330
1CC9
100
AcDbEntity
  8
SIZE
 62
     0
370
    -2
100
AcDbBlockReference
  2
_DOTBLANK
 10
-402.5988539976021
 20
-0.0000000000007738
 30
0.0
 41
12.0
 42
12.0
 43
12.0
 50
270.0
  0
INSERT
  5
1CEB
330
1CC9
100
AcDbEntity
  8
SIZE
 62
     0
370
    -2
100
AcDbBlockReference
  2
_DOTBLANK
 10
-402.5988539976021
 20
306.1197837243638
 30
0.0
 41
12.0
 42
12.0
 43
12.0
 50
90.0
  0
MTEXT
  5
1CEC
330
1CC9
100
AcDbEntity
  8
SIZE
 62
     0
100
AcDbMText
 10
-444.5988539976021
 20
153.0598918621814
 30
0.0
 40
64.0
 41
0.0
 71
     5
 72
     1
  1
\A1;306
 11
0.0000000000000001
 21
1.0
 31
0.0
 73
     1
 44
1.0
1001
ACAD
1000
MTEXTBEGIN
1070
    73
1070
     1
1070
    44
1040
1.0
1070
    74
1070
     0
1000
MTEXTEND
  0
POINT
  5
1CED
330
1CC9
100
AcDbEntity
  8
DEFPOINTS
 62
     0
100
AcDbPoint
 10
-325.0
 20
-0.0000000000007958
 30
0.0
  0
POINT
  5
1CEE
330
1CC9
100
AcDbEntity
  8
DEFPOINTS
 62
     0
100
AcDbPoint
 10
-321.0
 20
306.1197837243637
 30
0.0
  0
POINT
  5
1CEF
330
1CC9
100
AcDbEntity
  8
DEFPOINTS
 62
     0
100
AcDbPoint
 10
-402.5988539976021
 20
306.1197837243638
 30
0.0
  0
ENDBLK
  5
1CCB
330
1CC9
100
AcDbEntity
  8
0
100
AcDbBlockEnd
  0
BLOCK
  5
1DE6
330
1DE5
100
AcDbEntity
  8
0
100
AcDbBlockBegin
  2
*D17
 70
     1
 10
0.0
 20
0.0
 30
0.0
  3
*D17
  1

  0
LINE
  5
1DE7
330
1DE5
100
AcDbEntity
  8
SIZE
  6
Continuous
 62
     0
370
    -2
100
AcDbLine
 10
-45352.33759954458
 20
-2282.050271310774
 30
0.0
 11
-45494.24800689807
 21
-2282.050271310774
 31
0.0
  0
LINE
  5
1DE8
330
1DE5
100
AcDbEntity
  8
SIZE
  6
Continuous
 62
     0
370
    -2
100
AcDbLine
 10
-45352.23759954456
 20
-1976.187258608613
 30
0.0
 11
-45494.24800689807
 21
-1976.187258608613
 31
0.0
  0
LINE
  5
1DE9
330
1DE5
100
AcDbEntity
  8
SIZE
  6
Continuous
 62
     0
370
    -2
100
AcDbLine
 10
-45474.24800689809
 20
-2270.050271310775
 30
0.0
 11
-45474.24800689809
 21
-1988.187258608613
 31
0.0
  0
INSERT
  5
1DEA
330
1DE5
100
AcDbEntity
  8
SIZE
  6
Continuous
 62
     0
370
    -2
100
AcDbBlockReference
  2
_DOTBLANK
 10
-45474.24800689809
 20
-2282.050271310774
 30
0.0
 41
12.0
 42
12.0
 43
12.0
 50
270.0
  0
INSERT
  5
1DEB
330
1DE5
100
AcDbEntity
  8
SIZE
  6
Continuous
 62
     0
370
    -2
100
AcDbBlockReference
  2
_DOTBLANK
 10
-45474.24800689809
 20
-1976.187258608613
 30
0.0
 41
12.0
 42
12.0
 43
12.0
 50
90.0
  0
MTEXT
  5
1DEC
330
1DE5
100
AcDbEntity
  8
SIZE
  6
Continuous
 62
     0
100
AcDbMText
 10
-45516.24800689809
 20
-2129.118764959701
 30
0.0
 40
64.0
 41
0.0
 71
     5
 72
     1
  1
\A1;306
 11
0.0000000000000001
 21
1.0
 31
0.0
 73
     1
 44
1.0
1001
ACAD
1000
MTEXTBEGIN
1070
    73
1070
     1
1070
    44
1040
1.0
1070
    74
1070
     0
1000
MTEXTEND
  0
POINT
  5
1DED
330
1DE5
100
AcDbEntity
  8
DEFPOINTS
  6
Continuous
 62
     0
100
AcDbPoint
 10
-45332.33759954458
 20
-2282.050271310774
 30
0.0
  0
POINT
  5
1DEE
330
1DE5
100
AcDbEntity
  8
DEFPOINTS
  6
Continuous
 62
     0
100
AcDbPoint
 10
-45332.23759954458
 20
-1976.187258608613
 30
0.0
  0
POINT
  5
1DEF
330
1DE5
100
AcDbEntity
  8
DEFPOINTS
  6
Continuous
 62
     0
100
AcDbPoint
 10
-45474.24800689809
 20
-1976.187258608613
 30
0.0
  0
ENDBLK
  5
1DF0
330
1DE5
100
AcDbEntity
  8
0
100
AcDbBlockEnd
  0
BLOCK
  5
1DF2
330
1DF1
100
AcDbEntity
  8
0
100
AcDbBlockBegin
  2
*D18
 70
     1
 10
0.0
 20
0.0
 30
0.0
  3
*D18
  1

  0
LINE
  5
1DF3
330
1DF1
100
AcDbEntity
  8
SIZE
  6
Continuous
 62
     0
370
    -2
100
AcDbLine
 10
-44574.23759954457
 20
-1976.187258608575
 30
0.0
 11
-44370.06437199388
 21
-1976.187258608575
 31
0.0
  0
LINE
  5
1DF4
330
1DF1
100
AcDbEntity
  8
SIZE
  6
Continuous
 62
     0
370
    -2
100
AcDbLine
 10
-44574.13759954458
 20
-2276.050271310776
 30
0.0
 11
-44370.06437199388
 21
-2276.050271310776
 31
0.0
  0
LINE
  5
1DF5
330
1DF1
100
AcDbEntity
  8
SIZE
  6
Continuous
 62
     0
370
    -2
100
AcDbLine
 10
-44390.06437199386
 20
-1988.187258608576
 30
0.0
 11
-44390.06437199386
 21
-2264.050271310775
 31
0.0
  0
INSERT
  5
1DF6
330
1DF1
100
AcDbEntity
  8
SIZE
  6
Continuous
 62
     0
370
    -2
100
AcDbBlockReference
  2
_DOTBLANK
 10
-44390.06437199386
 20
-1976.187258608575
 30
0.0
 41
12.0
 42
12.0
 43
12.0
 50
90.0
  0
INSERT
  5
1DF7
330
1DF1
100
AcDbEntity
  8
SIZE
  6
Continuous
 62
     0
370
    -2
100
AcDbBlockReference
  2
_DOTBLANK
 10
-44390.06437199386
 20
-2276.050271310776
 30
0.0
 41
12.0
 42
12.0
 43
12.0
 50
270.0
  0
MTEXT
  5
1DF8
330
1DF1
100
AcDbEntity
  8
SIZE
  6
Continuous
 62
     0
100
AcDbMText
 10
-44432.06437199386
 20
-2126.118764959683
 30
0.0
 40
64.0
 41
0.0
 71
     5
 72
     1
  1
\A1;300
 11
0.0000000000000001
 21
1.0
 31
0.0
 73
     1
 44
1.0
1001
ACAD
1000
MTEXTBEGIN
1070
    73
1070
     1
1070
    44
1040
1.0
1070
    74
1070
     0
1000
MTEXTEND
  0
POINT
  5
1DF9
330
1DF1
100
AcDbEntity
  8
DEFPOINTS
  6
Continuous
 62
     0
100
AcDbPoint
 10
-44594.23759954456
 20
-1976.187258608575
 30
0.0
  0
POINT
  5
1DFA
330
1DF1
100
AcDbEntity
  8
DEFPOINTS
  6
Continuous
 62
     0
100
AcDbPoint
 10
-44594.13759954458
 20
-2276.050271310776
 30
0.0
  0
POINT
  5
1DFB
330
1DF1
100
AcDbEntity
  8
DEFPOINTS
  6
Continuous
 62
     0
100
AcDbPoint
 10
-44390.06437199386
 20
-2276.050271310776
 30
0.0
  0
ENDBLK
  5
1DFC
330
1DF1
100
AcDbEntity
  8
0
100
AcDbBlockEnd
  0
BLOCK
  5
1DFE
330
1DFD
100
AcDbEntity
  8
0
100
AcDbBlockBegin
  2
*D19
 70
     1
 10
0.0
 20
0.0
 30
0.0
  3
*D19
  1

  0
LINE
  5
1DFF
330
1DFD
100
AcDbEntity
  8
SIZE
  6
Continuous
 62
     0
370
    -2
100
AcDbLine
 10
-45324.73759954458
 20
-2309.550271310773
 30
0.0
 11
-45324.73759954458
 21
-2555.274103917217
 31
0.0
  0
LINE
  5
1E00
330
1DFD
100
AcDbEntity
  8
SIZE
  6
Continuous
 62
     0
370
    -2
100
AcDbLine
 10
-44602.73759954458
 20
-2303.550271310773
 30
0.0
 11
-44602.73759954458
 21
-2555.274103917217
 31
0.0
  0
LINE
  5
1E01
330
1DFD
100
AcDbEntity
  8
SIZE
  6
Continuous
 62
     0
370
    -2
100
AcDbLine
 10
-45312.73759954459
 20
-2535.274103917217
 30
0.0
 11
-44614.73759954458
 21
-2535.274103917217
 31
0.0
  0
INSERT
  5
1E02
330
1DFD
100
AcDbEntity
  8
SIZE
  6
Continuous
 62
     0
370
    -2
100
AcDbBlockReference
  2
_DOTBLANK
 10
-45324.73759954458
 20
-2535.274103917217
 30
0.0
 41
12.0
 42
12.0
 43
12.0
 50
180.0
  0
INSERT
  5
1E03
330
1DFD
100
AcDbEntity
  8
SIZE
  6
Continuous
 62
     0
370
    -2
100
AcDbBlockReference
  2
_DOTBLANK
 10
-44602.73759954458
 20
-2535.274103917217
 30
0.0
 41
12.0
 42
12.0
 43
12.0
  0
MTEXT
  5
1E04
330
1DFD
100
AcDbEntity
  8
SIZE
  6
Continuous
 62
     0
100
AcDbMText
 10
-44963.73759954458
 20
-2493.274103917217
 30
0.0
 40
64.0
 41
0.0
 71
     5
 72
     1
  1
\A1;722
 73
     1
 44
1.0
1001
ACAD
1000
MTEXTBEGIN
1070
    73
1070
     1
1070
    44
1040
1.0
1070
    74
1070
     0
1000
MTEXTEND
  0
POINT
  5
1E05
330
1DFD
100
AcDbEntity
  8
DEFPOINTS
  6
Continuous
 62
     0
100
AcDbPoint
 10
-45324.73759954458
 20
-2289.550271310773
 30
0.0
  0
POINT
  5
1E06
330
1DFD
100
AcDbEntity
  8
DEFPOINTS
  6
Continuous
 62
     0
100
AcDbPoint
 10
-44602.73759954458
 20
-2283.550271310773
 30
0.0
  0
POINT
  5
1E07
330
1DFD
100
AcDbEntity
  8
DEFPOINTS
  6
Continuous
 62
     0
100
AcDbPoint
 10
-44602.73759954458
 20
-2535.274103917217
 30
0.0
  0
ENDBLK
  5
1E08
330
1DFD
100
AcDbEntity
  8
0
100
AcDbBlockEnd
  0
BLOCK
  5
1E0A
330
1E09
100
AcDbEntity
  8
0
100
AcDbBlockBegin
  2
*D20
 70
     1
 10
0.0
 20
0.0
 30
0.0
  3
*D20
  1

  0
LINE
  5
1E0B
330
1E09
100
AcDbEntity
  8
SIZE
  6
Continuous
 62
     0
370
    -2
100
AcDbLine
 10
-45333.23759954458
 20
-2301.150271310774
 30
0.0
 11
-45333.23759954458
 21
-2680.179391695299
 31
0.0
  0
LINE
  5
1E0C
330
1E09
100
AcDbEntity
  8
SIZE
  6
Continuous
 62
     0
370
    -2
100
AcDbLine
 10
-44593.23759954457
 20
-2295.150271310776
 30
0.0
 11
-44593.23759954457
 21
-2680.179391695299
 31
0.0
  0
LINE
  5
1E0D
330
1E09
100
AcDbEntity
  8
SIZE
  6
Continuous
 62
     0
370
    -2
100
AcDbLine
 10
-45321.23759954458
 20
-2660.1793916953
 30
0.0
 11
-44605.23759954456
 21
-2660.1793916953
 31
0.0
  0
INSERT
  5
1E0E
330
1E09
100
AcDbEntity
  8
SIZE
  6
Continuous
 62
     0
370
    -2
100
AcDbBlockReference
  2
_DOTBLANK
 10
-45333.23759954458
 20
-2660.1793916953
 30
0.0
 41
12.0
 42
12.0
 43
12.0
 50
180.0
  0
INSERT
  5
1E0F
330
1E09
100
AcDbEntity
  8
SIZE
  6
Continuous
 62
     0
370
    -2
100
AcDbBlockReference
  2
_DOTBLANK
 10
-44593.23759954457
 20
-2660.1793916953
 30
0.0
 41
12.0
 42
12.0
 43
12.0
  0
MTEXT
  5
1E10
330
1E09
100
AcDbEntity
  8
SIZE
  6
Continuous
 62
     0
100
AcDbMText
 10
-44963.23759954456
 20
-2618.179391695298
 30
0.0
 40
64.0
 41
0.0
 71
     5
 72
     1
  1
\A1;740
 73
     1
 44
1.0
1001
ACAD
1000
MTEXTBEGIN
1070
    73
1070
     1
1070
    44
1040
1.0
1070
    74
1070
     0
1000
MTEXTEND
  0
POINT
  5
1E11
330
1E09
100
AcDbEntity
  8
DEFPOINTS
  6
Continuous
 62
     0
100
AcDbPoint
 10
-45333.23759954458
 20
-2281.150271310774
 30
0.0
  0
POINT
  5
1E12
330
1E09
100
AcDbEntity
  8
DEFPOINTS
  6
Continuous
 62
     0
100
AcDbPoint
 10
-44593.23759954457
 20
-2275.150271310775
 30
0.0
  0
POINT
  5
1E13
330
1E09
100
AcDbEntity
  8
DEFPOINTS
  6
Continuous
 62
     0
100
AcDbPoint
 10
-44593.23759954457
 20
-2660.1793916953
 30
0.0
  0
ENDBLK
  5
1E14
330
1E09
100
AcDbEntity
  8
0
100
AcDbBlockEnd
  0
BLOCK
  5
1E16
330
1E15
100
AcDbEntity
  8
0
100
AcDbBlockBegin
  2
*D21
 70
     1
 10
0.0
 20
0.0
 30
0.0
  3
*D21
  1

  0
LINE
  5
1E17
330
1E15
100
AcDbEntity
  8
SIZE
  6
Continuous
 62
     0
370
    -2
100
AcDbLine
 10
-44939.73759954458
 20
-2303.03278814193
 30
0.0
 11
-44939.73759954458
 21
-2419.61707004268
 31
0.0
  0
LINE
  5
1E18
330
1E15
100
AcDbEntity
  8
SIZE
  6
Continuous
 62
     0
370
    -2
100
AcDbLine
 10
-45243.73759954458
 20
-2303.03278814193
 30
0.0
 11
-45243.73759954458
 21
-2419.61707004268
 31
0.0
  0
LINE
  5
1E19
330
1E15
100
AcDbEntity
  8
SIZE
  6
Continuous
 62
     0
370
    -2
100
AcDbLine
 10
-44951.73759954458
 20
-2399.61707004268
 30
0.0
 11
-45231.73759954458
 21
-2399.61707004268
 31
0.0
  0
INSERT
  5
1E1A
330
1E15
100
AcDbEntity
  8
SIZE
  6
Continuous
 62
     0
370
    -2
100
AcDbBlockReference
  2
_DOTBLANK
 10
-44939.73759954458
 20
-2399.61707004268
 30
0.0
 41
12.0
 42
12.0
 43
12.0
  0
INSERT
  5
1E1B
330
1E15
100
AcDbEntity
  8
SIZE
  6
Continuous
 62
     0
370
    -2
100
AcDbBlockReference
  2
_DOTBLANK
 10
-45243.73759954458
 20
-2399.61707004268
 30
0.0
 41
12.0
 42
12.0
 43
12.0
 50
180.0
  0
MTEXT
  5
1E1C
330
1E15
100
AcDbEntity
  8
SIZE
  6
Continuous
 62
     0
100
AcDbMText
 10
-45091.73759954459
 20
-2357.61707004268
 30
0.0
 40
64.0
 41
0.0
 71
     5
 72
     1
  1
\A1;304
 73
     1
 44
1.0
1001
ACAD
1000
MTEXTBEGIN
1070
    73
1070
     1
1070
    44
1040
1.0
1070
    74
1070
     0
1000
MTEXTEND
  0
POINT
  5
1E1D
330
1E15
100
AcDbEntity
  8
DEFPOINTS
  6
Continuous
 62
     0
100
AcDbPoint
 10
-44939.73759954458
 20
-2283.03278814193
 30
0.0
  0
POINT
  5
1E1E
330
1E15
100
AcDbEntity
  8
DEFPOINTS
  6
Continuous
 62
     0
100
AcDbPoint
 10
-45243.73759954458
 20
-2283.03278814193
 30
0.0
  0
POINT
  5
1E1F
330
1E15
100
AcDbEntity
  8
DEFPOINTS
  6
Continuous
 62
     0
100
AcDbPoint
 10
-45243.73759954458
 20
-2399.61707004268
 30
0.0
  0
ENDBLK
  5
1E20
330
1E15
100
AcDbEntity
  8
0
100
AcDbBlockEnd
  0
BLOCK
  5
1E22
330
1E21
100
AcDbEntity
  8
0
100
AcDbBlockBegin
  2
*D22
 70
     1
 10
0.0
 20
0.0
 30
0.0
  3
*D22
  1

  0
LINE
  5
1E23
330
1E21
100
AcDbEntity
  8
SIZE
  6
Continuous
 62
     0
370
    -2
100
AcDbLine
 10
-44939.73759954458
 20
-2303.03278814193
 30
0.0
 11
-44939.73759954458
 21
-2419.61707004268
 31
0.0
  0
LINE
  5
1E24
330
1E21
100
AcDbEntity
  8
SIZE
  6
Continuous
 62
     0
370
    -2
100
AcDbLine
 10
-44610.93759954458
 20
-2303.550271310773
 30
0.0
 11
-44610.93759954458
 21
-2419.61707004268
 31
0.0
  0
LINE
  5
1E25
330
1E21
100
AcDbEntity
  8
SIZE
  6
Continuous
 62
     0
370
    -2
100
AcDbLine
 10
-44927.73759954458
 20
-2399.61707004268
 30
0.0
 11
-44622.93759954458
 21
-2399.61707004268
 31
0.0
  0
INSERT
  5
1E26
330
1E21
100
AcDbEntity
  8
SIZE
  6
Continuous
 62
     0
370
    -2
100
AcDbBlockReference
  2
_DOTBLANK
 10
-44939.73759954458
 20
-2399.61707004268
 30
0.0
 41
12.0
 42
12.0
 43
12.0
 50
180.0
  0
INSERT
  5
1E27
330
1E21
100
AcDbEntity
  8
SIZE
  6
Continuous
 62
     0
370
    -2
100
AcDbBlockReference
  2
_DOTBLANK
 10
-44610.93759954458
 20
-2399.61707004268
 30
0.0
 41
12.0
 42
12.0
 43
12.0
  0
MTEXT
  5
1E28
330
1E21
100
AcDbEntity
  8
SIZE
  6
Continuous
 62
     0
100
AcDbMText
 10
-44775.33759954458
 20
-2357.61707004268
 30
0.0
 40
64.0
 41
0.0
 71
     5
 72
     1
  1
\A1;329
 73
     1
 44
1.0
1001
ACAD
1000
MTEXTBEGIN
1070
    73
1070
     1
1070
    44
1040
1.0
1070
    74
1070
     0
1000
MTEXTEND
  0
POINT
  5
1E29
330
1E21
100
AcDbEntity
  8
DEFPOINTS
  6
Continuous
 62
     0
100
AcDbPoint
 10
-44939.73759954458
 20
-2283.03278814193
 30
0.0
  0
POINT
  5
1E2A
330
1E21
100
AcDbEntity
  8
DEFPOINTS
  6
Continuous
 62
     0
100
AcDbPoint
 10
-44610.93759954458
 20
-2283.550271310773
 30
0.0
  0
POINT
  5
1E2B
330
1E21
100
AcDbEntity
  8
DEFPOINTS
  6
Continuous
 62
     0
100
AcDbPoint
 10
-44610.93759954458
 20
-2399.61707004268
 30
0.0
  0
ENDBLK
  5
1E2C
330
1E21
100
AcDbEntity
  8
0
100
AcDbBlockEnd
  0
BLOCK
  5
200F
330
200E
100
AcDbEntity
  8
0
100
AcDbBlockBegin
  2
*D23
 70
     1
 10
0.0
 20
0.0
 30
0.0
  3
*D23
  1

  0
LINE
  5
2056
330
200E
100
AcDbEntity
  8
SIZE
  6
Continuous
 62
     0
370
    -2
100
AcDbLine
 10
-388.5999999999985
 20
-5.99999999999863
 30
0.0
 11
-530.5104073534967
 21
-5.999999999998587
 31
0.0
  0
LINE
  5
2057
330
200E
100
AcDbEntity
  8
SIZE
  6
Continuous
 62
     0
370
    -2
100
AcDbLine
 10
-388.4999999999927
 20
299.8630127021625
 30
0.0
 11
-530.5104073534963
 21
299.8630127021625
 31
0.0
  0
LINE
  5
2058
330
200E
100
AcDbEntity
  8
SIZE
  6
Continuous
 62
     0
370
    -2
100
AcDbLine
 10
-510.5104073534967
 20
6.000000000001405
 30
0.0
 11
-510.5104073534967
 21
287.8630127021625
 31
0.0
  0
INSERT
  5
2059
330
200E
100
AcDbEntity
  8
SIZE
  6
Continuous
 62
     0
370
    -2
100
AcDbBlockReference
  2
_DOTBLANK
 10
-510.5104073534967
 20
-5.999999999998593
 30
0.0
 41
12.0
 42
12.0
 43
12.0
 50
270.0
  0
INSERT
  5
205A
330
200E
100
AcDbEntity
  8
SIZE
  6
Continuous
 62
     0
370
    -2
100
AcDbBlockReference
  2
_DOTBLANK
 10
-510.5104073534967
 20
299.8630127021625
 30
0.0
 41
12.0
 42
12.0
 43
12.0
 50
90.0
  0
MTEXT
  5
205B
330
200E
100
AcDbEntity
  8
SIZE
  6
Continuous
 62
     0
100
AcDbMText
 10
-552.5104073534967
 20
146.9315063510818
 30
0.0
 40
64.0
 41
0.0
 71
     5
 72
     1
  1
\A1;306
 11
0.0000000000000001
 21
1.0
 31
0.0
 73
     1
 44
1.0
1001
ACAD
1000
MTEXTBEGIN
1070
    73
1070
     1
1070
    44
1040
1.0
1070
    74
1070
     0
1000
MTEXTEND
  0
POINT
  5
205C
330
200E
100
AcDbEntity
  8
DEFPOINTS
  6
Continuous
 62
     0
100
AcDbPoint
 10
-368.5999999999986
 20
-5.999999999998633
 30
0.0
  0
POINT
  5
205D
330
200E
100
AcDbEntity
  8
DEFPOINTS
  6
Continuous
 62
     0
100
AcDbPoint
 10
-368.4999999999927
 20
299.8630127021625
 30
0.0
  0
POINT
  5
205E
330
200E
100
AcDbEntity
  8
DEFPOINTS
  6
Continuous
 62
     0
100
AcDbPoint
 10
-510.5104073534967
 20
299.8630127021625
 30
0.0
  0
ENDBLK
  5
2010
330
200E
100
AcDbEntity
  8
0
100
AcDbBlockEnd
  0
BLOCK
  5
201B
330
201A
100
AcDbEntity
  8
0
100
AcDbBlockBegin
  2
*D24
 70
     1
 10
0.0
 20
0.0
 30
0.0
  3
*D24
  1

  0
LINE
  5
205F
330
201A
100
AcDbEntity
  8
SIZE
  6
Continuous
 62
     0
370
    -2
100
AcDbLine
 10
389.5000000000073
 20
299.8630127022001
 30
0.0
 11
593.6732275507019
 21
299.8630127022001
 31
0.0
  0
LINE
  5
2060
330
201A
100
AcDbEntity
  8
SIZE
  6
Continuous
 62
     0
370
    -2
100
AcDbLine
 10
389.6000000000058
 20
0.0000000000004491
 30
0.0
 11
593.6732275507019
 21
0.0000000000003913
 31
0.0
  0
LINE
  5
2061
330
201A
100
AcDbEntity
  8
SIZE
  6
Continuous
 62
     0
370
    -2
100
AcDbLine
 10
573.6732275507021
 20
287.8630127022002
 30
0.0
 11
573.6732275507018
 21
12.00000000000039
 31
0.0
  0
INSERT
  5
2062
330
201A
100
AcDbEntity
  8
SIZE
  6
Continuous
 62
     0
370
    -2
100
AcDbBlockReference
  2
_DOTBLANK
 10
573.6732275507021
 20
299.8630127022001
 30
0.0
 41
12.0
 42
12.0
 43
12.0
 50
90.0
  0
INSERT
  5
2063
330
201A
100
AcDbEntity
  8
SIZE
  6
Continuous
 62
     0
370
    -2
100
AcDbBlockReference
  2
_DOTBLANK
 10
573.6732275507018
 20
0.0000000000003969
 30
0.0
 41
12.0
 42
12.0
 43
12.0
 50
270.0
  0
MTEXT
  5
2064
330
201A
100
AcDbEntity
  8
SIZE
  6
Continuous
 62
     0
100
AcDbMText
 10
531.6732275507018
 20
149.9315063511003
 30
0.0
 40
64.0
 41
0.0
 71
     5
 72
     1
  1
\A1;300
 11
0.0000000000000001
 21
1.0
 31
0.0
 73
     1
 44
1.0
1001
ACAD
1000
MTEXTBEGIN
1070
    73
1070
     1
1070
    44
1040
1.0
1070
    74
1070
     0
1000
MTEXTEND
  0
POINT
  5
2065
330
201A
100
AcDbEntity
  8
DEFPOINTS
  6
Continuous
 62
     0
100
AcDbPoint
 10
369.5000000000074
 20
299.8630127022002
 30
0.0
  0
POINT
  5
2066
330
201A
100
AcDbEntity
  8
DEFPOINTS
  6
Continuous
 62
     0
100
AcDbPoint
 10
369.6000000000058
 20
0.0000000000004547
 30
0.0
  0
POINT
  5
2067
330
201A
100
AcDbEntity
  8
DEFPOINTS
  6
Continuous
 62
     0
100
AcDbPoint
 10
573.6732275507018
 20
0.0000000000003969
 30
0.0
  0
ENDBLK
  5
201C
330
201A
100
AcDbEntity
  8
0
100
AcDbBlockEnd
  0
BLOCK
  5
2027
330
2026
100
AcDbEntity
  8
0
100
AcDbBlockBegin
  2
*D25
 70
     1
 10
0.0
 20
0.0
 30
0.0
  3
*D25
  1

  0
LINE
  5
2068
330
2026
100
AcDbEntity
  8
SIZE
  6
Continuous
 62
     0
370
    -2
100
AcDbLine
 10
-361.0
 20
-33.49999999999726
 30
0.0
 11
-361.0
 21
-279.2238326064412
 31
0.0
  0
LINE
  5
2069
330
2026
100
AcDbEntity
  8
SIZE
  6
Continuous
 62
     0
370
    -2
100
AcDbLine
 10
361.0
 20
-27.49999999999727
 30
0.0
 11
361.0
 21
-279.2238326064412
 31
0.0
  0
LINE
  5
206A
330
2026
100
AcDbEntity
  8
SIZE
  6
Continuous
 62
     0
370
    -2
100
AcDbLine
 10
-349.0
 20
-259.2238326064412
 30
0.0
 11
349.0
 21
-259.2238326064412
 31
0.0
  0
INSERT
  5
206B
330
2026
100
AcDbEntity
  8
SIZE
  6
Continuous
 62
     0
370
    -2
100
AcDbBlockReference
  2
_DOTBLANK
 10
-361.0
 20
-259.2238326064412
 30
0.0
 41
12.0
 42
12.0
 43
12.0
 50
180.0
  0
INSERT
  5
206C
330
2026
100
AcDbEntity
  8
SIZE
  6
Continuous
 62
     0
370
    -2
100
AcDbBlockReference
  2
_DOTBLANK
 10
361.0
 20
-259.2238326064412
 30
0.0
 41
12.0
 42
12.0
 43
12.0
  0
MTEXT
  5
206D
330
2026
100
AcDbEntity
  8
SIZE
  6
Continuous
 62
     0
100
AcDbMText
 10
0.0000000000000026
 20
-217.2238326064412
 30
0.0
 40
64.0
 41
0.0
 71
     5
 72
     1
  1
\A1;722
 73
     1
 44
1.0
1001
ACAD
1000
MTEXTBEGIN
1070
    73
1070
     1
1070
    44
1040
1.0
1070
    74
1070
     0
1000
MTEXTEND
  0
POINT
  5
206E
330
2026
100
AcDbEntity
  8
DEFPOINTS
  6
Continuous
 62
     0
100
AcDbPoint
 10
-361.0
 20
-13.49999999999727
 30
0.0
  0
POINT
  5
206F
330
2026
100
AcDbEntity
  8
DEFPOINTS
  6
Continuous
 62
     0
100
AcDbPoint
 10
361.0
 20
-7.499999999997271
 30
0.0
  0
POINT
  5
2070
330
2026
100
AcDbEntity
  8
DEFPOINTS
  6
Continuous
 62
     0
100
AcDbPoint
 10
361.0
 20
-259.2238326064412
 30
0.0
  0
ENDBLK
  5
2028
330
2026
100
AcDbEntity
  8
0
100
AcDbBlockEnd
  0
BLOCK
  5
2033
330
2032
100
AcDbEntity
  8
0
100
AcDbBlockBegin
  2
*D26
 70
     1
 10
0.0
 20
0.0
 30
0.0
  3
*D26
  1

  0
LINE
  5
2071
330
2032
100
AcDbEntity
  8
SIZE
  6
Continuous
 62
     0
370
    -2
100
AcDbLine
 10
-369.5
 20
-25.09999999999855
 30
0.0
 11
-369.5
 21
-404.1291203845226
 31
0.0
  0
LINE
  5
2072
330
2032
100
AcDbEntity
  8
SIZE
  6
Continuous
 62
     0
370
    -2
100
AcDbLine
 10
370.5000000000073
 20
-19.09999999999945
 30
0.0
 11
370.5000000000073
 21
-404.1291203845226
 31
0.0
  0
LINE
  5
2073
330
2032
100
AcDbEntity
  8
SIZE
  6
Continuous
 62
     0
370
    -2
100
AcDbLine
 10
-357.5
 20
-384.1291203845226
 30
0.0
 11
358.5000000000073
 21
-384.1291203845226
 31
0.0
  0
INSERT
  5
2074
330
2032
100
AcDbEntity
  8
SIZE
  6
Continuous
 62
     0
370
    -2
100
AcDbBlockReference
  2
_DOTBLANK
 10
-369.5
 20
-384.1291203845226
 30
0.0
 41
12.0
 42
12.0
 43
12.0
 50
180.0
  0
INSERT
  5
2075
330
2032
100
AcDbEntity
  8
SIZE
  6
Continuous
 62
     0
370
    -2
100
AcDbBlockReference
  2
_DOTBLANK
 10
370.5000000000073
 20
-384.1291203845226
 30
0.0
 41
12.0
 42
12.0
 43
12.0
  0
MTEXT
  5
2076
330
2032
100
AcDbEntity
  8
SIZE
  6
Continuous
 62
     0
100
AcDbMText
 10
0.5000000000072787
 20
-342.1291203845227
 30
0.0
 40
64.0
 41
0.0
 71
     5
 72
     1
  1
\A1;740
 73
     1
 44
1.0
1001
ACAD
1000
MTEXTBEGIN
1070
    73
1070
     1
1070
    44
1040
1.0
1070
    74
1070
     0
1000
MTEXTEND
  0
POINT
  5
2077
330
2032
100
AcDbEntity
  8
DEFPOINTS
  6
Continuous
 62
     0
100
AcDbPoint
 10
-369.5
 20
-5.099999999998543
 30
0.0
  0
POINT
  5
2078
330
2032
100
AcDbEntity
  8
DEFPOINTS
  6
Continuous
 62
     0
100
AcDbPoint
 10
370.5000000000073
 20
0.9000000000005455
 30
0.0
  0
POINT
  5
2079
330
2032
100
AcDbEntity
  8
DEFPOINTS
  6
Continuous
 62
     0
100
AcDbPoint
 10
370.5000000000073
 20
-384.1291203845226
 30
0.0
  0
ENDBLK
  5
2034
330
2032
100
AcDbEntity
  8
0
100
AcDbBlockEnd
  0
BLOCK
  5
203F
330
203E
100
AcDbEntity
  8
0
100
AcDbBlockBegin
  2
*D27
 70
     1
 10
0.0
 20
0.0
 30
0.0
  3
*D27
  1

  0
LINE
  5
207A
330
203E
100
AcDbEntity
  8
SIZE
  6
Continuous
 62
     0
370
    -2
100
AcDbLine
 10
24.0
 20
-26.9825168311545
 30
0.0
 11
23.99999999999999
 21
-143.5667987319043
 31
0.0
  0
LINE
  5
207B
330
203E
100
AcDbEntity
  8
SIZE
  6
Continuous
 62
     0
370
    -2
100
AcDbLine
 10
-280.0
 20
-26.9825168311545
 30
0.0
 11
-280.0
 21
-143.5667987319043
 31
0.0
  0
LINE
  5
207C
330
203E
100
AcDbEntity
  8
SIZE
  6
Continuous
 62
     0
370
    -2
100
AcDbLine
 10
11.99999999999999
 20
-123.5667987319043
 30
0.0
 11
-268.0
 21
-123.5667987319043
 31
0.0
  0
INSERT
  5
207D
330
203E
100
AcDbEntity
  8
SIZE
  6
Continuous
 62
     0
370
    -2
100
AcDbBlockReference
  2
_DOTBLANK
 10
23.99999999999999
 20
-123.5667987319043
 30
0.0
 41
12.0
 42
12.0
 43
12.0
  0
INSERT
  5
207E
330
203E
100
AcDbEntity
  8
SIZE
  6
Continuous
 62
     0
370
    -2
100
AcDbBlockReference
  2
_DOTBLANK
 10
-280.0
 20
-123.5667987319043
 30
0.0
 41
12.0
 42
12.0
 43
12.0
 50
180.0
  0
MTEXT
  5
207F
330
203E
100
AcDbEntity
  8
SIZE
  6
Continuous
 62
     0
100
AcDbMText
 10
-128.0
 20
-81.56679873190432
 30
0.0
 40
64.0
 41
0.0
 71
     5
 72
     1
  1
\A1;304
 73
     1
 44
1.0
1001
ACAD
1000
MTEXTBEGIN
1070
    73
1070
     1
1070
    44
1040
1.0
1070
    74
1070
     0
1000
MTEXTEND
  0
POINT
  5
2080
330
203E
100
AcDbEntity
  8
DEFPOINTS
  6
Continuous
 62
     0
100
AcDbPoint
 10
24.0
 20
-6.982516831154496
 30
0.0
  0
POINT
  5
2081
330
203E
100
AcDbEntity
  8
DEFPOINTS
  6
Continuous
 62
     0
100
AcDbPoint
 10
-280.0
 20
-6.982516831154496
 30
0.0
  0
POINT
  5
2082
330
203E
100
AcDbEntity
  8
DEFPOINTS
  6
Continuous
 62
     0
100
AcDbPoint
 10
-280.0
 20
-123.5667987319043
 30
0.0
  0
ENDBLK
  5
2040
330
203E
100
AcDbEntity
  8
0
100
AcDbBlockEnd
  0
BLOCK
  5
204B
330
204A
100
AcDbEntity
  8
0
100
AcDbBlockBegin
  2
*D28
 70
     1
 10
0.0
 20
0.0
 30
0.0
  3
*D28
  1

  0
LINE
  5
2083
330
204A
100
AcDbEntity
  8
SIZE
  6
Continuous
 62
     0
370
    -2
100
AcDbLine
 10
24.0
 20
-26.9825168311545
 30
0.0
 11
23.99999999999999
 21
-143.5667987319043
 31
0.0
  0
LINE
  5
2084
330
204A
100
AcDbEntity
  8
SIZE
  6
Continuous
 62
     0
370
    -2
100
AcDbLine
 10
352.8000000000029
 20
-27.49999999999727
 30
0.0
 11
352.8000000000029
 21
-143.5667987319043
 31
0.0
  0
LINE
  5
2085
330
204A
100
AcDbEntity
  8
SIZE
  6
Continuous
 62
     0
370
    -2
100
AcDbLine
 10
36.0
 20
-123.5667987319043
 30
0.0
 11
340.8000000000029
 21
-123.5667987319043
 31
0.0
  0
INSERT
  5
2086
330
204A
100
AcDbEntity
  8
SIZE
  6
Continuous
 62
     0
370
    -2
100
AcDbBlockReference
  2
_DOTBLANK
 10
23.99999999999999
 20
-123.5667987319043
 30
0.0
 41
12.0
 42
12.0
 43
12.0
 50
180.0
  0
INSERT
  5
2087
330
204A
100
AcDbEntity
  8
SIZE
  6
Continuous
 62
     0
370
    -2
100
AcDbBlockReference
  2
_DOTBLANK
 10
352.8000000000029
 20
-123.5667987319043
 30
0.0
 41
12.0
 42
12.0
 43
12.0
  0
MTEXT
  5
2088
330
204A
100
AcDbEntity
  8
SIZE
  6
Continuous
 62
     0
100
AcDbMText
 10
188.4000000000014
 20
-81.56679873190432
 30
0.0
 40
64.0
 41
0.0
 71
     5
 72
     1
  1
\A1;329
 73
     1
 44
1.0
1001
ACAD
1000
MTEXTBEGIN
1070
    73
1070
     1
1070
    44
1040
1.0
1070
    74
1070
     0
1000
MTEXTEND
  0
POINT
  5
2089
330
204A
100
AcDbEntity
  8
DEFPOINTS
  6
Continuous
 62
     0
100
AcDbPoint
 10
24.0
 20
-6.982516831154496
 30
0.0
  0
POINT
  5
208A
330
204A
100
AcDbEntity
  8
DEFPOINTS
  6
Continuous
 62
     0
100
AcDbPoint
 10
352.8000000000029
 20
-7.499999999997271
 30
0.0
  0
POINT
  5
208B
330
204A
100
AcDbEntity
  8
DEFPOINTS
  6
Continuous
 62
     0
100
AcDbPoint
 10
352.8000000000029
 20
-123.5667987319043
 30
0.0
  0
ENDBLK
  5
204C
330
204A
100
AcDbEntity
  8
0
100
AcDbBlockEnd
  0
ENDSEC
  0
SECTION
  2
ENTITIES
  0
TEXT
  5
953
330
85F
100
AcDbEntity
  8
OUTLINE
  6
Continuous
 62
     3
100
AcDbText
 10
-418.231467
 20
13.715189
 30
0.0
 40
64.0
  1
 
 41
0.9
100
AcDbText
  0
TEXT
  5
954
330
85F
100
AcDbEntity
  8
OUTLINE
  6
Continuous
 62
     3
100
AcDbText
 10
-418.231467
 20
13.715189
 30
0.0
 40
64.0
  1
 
 41
0.9
100
AcDbText
  0
TEXT
  5
955
330
85F
100
AcDbEntity
  8
OUTLINE
  6
Continuous
 62
     3
100
AcDbText
 10
1341.41903
 20
-706.0588199999997
 30
0.0
 40
64.0
  1
 
 41
0.9
100
AcDbText
  0
TEXT
  5
956
330
85F
100
AcDbEntity
  8
OUTLINE
  6
Continuous
 62
     3
100
AcDbText
 10
1341.41903
 20
-706.0588199999997
 30
0.0
 40
64.0
  1
 
 41
0.9
100
AcDbText
  0
TEXT
  5
957
330
85F
100
AcDbEntity
  8
OUTLINE
  6
Continuous
 62
     3
100
AcDbText
 10
1341.41903
 20
-706.0588199999997
 30
0.0
 40
64.0
  1
 
 41
0.9
100
AcDbText
  0
TEXT
  5
958
330
85F
100
AcDbEntity
  8
OUTLINE
  6
Continuous
 62
     3
100
AcDbText
 10
1341.41903
 20
-706.0588199999997
 30
0.0
 40
64.0
  1
 
 41
0.9
100
AcDbText
  0
LINE
  5
1F21
330
85F
100
AcDbEntity
  8
DETAIL
100
AcDbLine
 10
-368.6999999999971
 20
295.2220133252272
 30
0.0
 11
-367.9000000000014
 21
295.2220133252272
 31
0.0
  0
LINE
  5
1F22
330
85F
100
AcDbEntity
  8
DETAIL
100
AcDbLine
 10
-367.9000000000014
 20
5.294486852065801
 30
0.0
 11
-367.9000000000014
 21
6.955973349789017
 31
0.0
  0
LINE
  5
1F23
330
85F
100
AcDbEntity
  8
DETAIL
100
AcDbLine
 10
-368.6999999999971
 20
6.955973349789017
 30
0.0
 11
-367.9000000000014
 21
6.955973349789017
 31
0.0
  0
LINE
  5
1F24
330
85F
100
AcDbEntity
  8
DETAIL
100
AcDbLine
 10
-368.6999999999971
 20
5.294486852065801
 30
0.0
 11
-367.9000000000014
 21
5.294486852065801
 31
0.0
  0
LINE
  5
1F25
330
85F
100
AcDbEntity
  8
DETAIL
100
AcDbLine
 10
-367.9000000000014
 20
6.955973349789017
 30
0.0
 11
-367.9000000000014
 21
295.2220133252272
 31
0.0
  0
LINE
  5
1F26
330
85F
100
AcDbEntity
  8
DETAIL
100
AcDbLine
 10
-368.5000000000073
 20
297.4000000001206
 30
0.0
 11
-368.5999999999986
 21
297.4000000001206
 31
0.0
  0
LINE
  5
1F27
330
85F
100
AcDbEntity
  8
DETAIL
100
AcDbLine
 10
-368.5000000000073
 20
298.2000000001209
 30
0.0
 11
-368.5999999999986
 21
298.2000000001209
 31
0.0
  0
LINE
  5
1F28
330
85F
100
AcDbEntity
  8
DETAIL
100
AcDbLine
 10
-368.5999999999986
 20
298.2000000001209
 30
0.0
 11
-368.5999999999986
 21
297.4000000001206
 31
0.0
  0
ARC
  5
1F29
330
85F
100
AcDbEntity
  8
DETAIL
100
AcDbCircle
 10
-368.5999999999986
 20
297.3000000001275
 30
0.0
 40
0.8999999999933551
100
AcDbArc
 50
90.0
 51
96.37937020834957
  0
ARC
  5
1F2A
330
85F
100
AcDbEntity
  8
DETAIL
100
AcDbCircle
 10
-368.5999999999986
 20
297.3000000001207
 30
0.0
 40
0.0999999999998735
100
AcDbArc
 50
90.0
 51
180.0
  0
LINE
  5
1F2B
330
85F
100
AcDbEntity
  8
DETAIL
100
AcDbLine
 10
-353.4999999999927
 20
-5.999999999998633
 30
0.0
 11
-350.4999999999927
 21
-5.999999999997726
 31
0.0
  0
LINE
  5
1F2C
330
85F
100
AcDbEntity
  8
DETAIL
100
AcDbLine
 10
-350.4999999999927
 20
-5.999999999997726
 30
0.0
 11
-350.4999999999927
 21
-5.199999999997543
 31
0.0
  0
LINE
  5
1F2D
330
85F
100
AcDbEntity
  8
DETAIL
100
AcDbLine
 10
-350.4999999999927
 20
-5.199999999997543
 30
0.0
 11
-353.4999999999927
 21
-5.199999999998452
 31
0.0
  0
LINE
  5
1F2E
330
85F
100
AcDbEntity
  8
DETAIL
100
AcDbLine
 10
-353.4999999999927
 20
-5.199999999998452
 30
0.0
 11
-353.4999999999927
 21
-5.999999999998633
 31
0.0
  0
LINE
  5
1F2F
330
85F
100
AcDbEntity
  8
DETAIL
100
AcDbLine
 10
-353.4999999999927
 20
-5.199999999998452
 30
0.0
 11
-368.5999999999986
 21
-5.199999999998452
 31
0.0
  0
LINE
  5
1F30
330
85F
100
AcDbEntity
  8
DETAIL
100
AcDbLine
 10
-368.5999999999986
 20
-5.999999999998633
 30
0.0
 11
-353.4999999999927
 21
-5.999999999998633
 31
0.0
  0
LINE
  5
1F31
330
85F
100
AcDbEntity
  8
DETAIL
100
AcDbLine
 10
-368.5999999999986
 20
-5.199999999998452
 30
0.0
 11
-368.5999999999986
 21
-5.999999999998633
 31
0.0
  0
ARC
  5
1F32
330
85F
100
AcDbEntity
  8
DETAIL
100
AcDbCircle
 10
-368.5999999999986
 20
-5.099999999998543
 30
0.0
 40
0.9000000000000005
100
AcDbArc
 50
180.0
 51
270.0
  0
ARC
  5
1F33
330
85F
100
AcDbEntity
  8
DETAIL
100
AcDbCircle
 10
-368.5999999999986
 20
-5.099999999998543
 30
0.0
 40
0.1000000000000003
100
AcDbArc
 50
180.0
 51
270.0
  0
LINE
  5
1F34
330
85F
100
AcDbEntity
  8
DETAIL
100
AcDbLine
 10
-369.4999999999927
 20
-5.099999999998543
 30
0.0
 11
-368.6999999999971
 21
-5.099999999998543
 31
0.0
  0
LINE
  5
1F35
330
85F
100
AcDbEntity
  8
DETAIL
100
AcDbLine
 10
-368.6999999999971
 20
6.955973349789017
 30
0.0
 11
-368.6999999999971
 21
1.000000000001364
 31
0.0
  0
LINE
  5
1F36
330
85F
100
AcDbEntity
  8
DETAIL
100
AcDbLine
 10
-368.6999999999971
 20
1.000000000001364
 30
0.0
 11
-368.6999999999971
 21
-5.099999999998543
 31
0.0
  0
LINE
  5
1F37
330
85F
100
AcDbEntity
  8
DETAIL
100
AcDbLine
 10
-368.6999999999971
 20
298.2000000001209
 30
0.0
 11
-368.6999999999971
 21
295.2220133252272
 31
0.0
  0
LINE
  5
1F38
330
85F
100
AcDbEntity
  8
DETAIL
100
AcDbLine
 10
-369.4999999999927
 20
1.000000000001364
 30
0.0
 11
-369.4999999999927
 21
-5.099999999998543
 31
0.0
  0
LINE
  5
1F39
330
85F
100
AcDbEntity
  8
DETAIL
100
AcDbLine
 10
-369.4999999999927
 20
298.2000000001209
 30
0.0
 11
-369.4999999999927
 21
1.000000000001364
 31
0.0
  0
LINE
  5
1F3A
330
85F
100
AcDbEntity
  8
DETAIL
100
AcDbLine
 10
-368.6999999999971
 20
298.2000000001209
 30
0.0
 11
-369.4999999999927
 21
298.2000000001209
 31
0.0
  0
LINE
  5
1F3B
330
85F
100
AcDbEntity
  8
DETAIL
100
AcDbLine
 10
-368.6999999999971
 20
1.000000000001364
 30
0.0
 11
-369.4999999999927
 21
1.000000000001364
 31
0.0
  0
ELLIPSE
  5
1F3C
330
85F
100
AcDbEntity
  8
DETAIL
100
AcDbEllipse
 10
-368.5999999999986
 20
296.8839745965293
 30
0.0
 11
-0.8999999999993953
 21
0.0000000000002857
 31
0.0
210
0.0
220
0.0
230
1.0
 40
0.5000000000055072
 41
4.712388980384846
 42
4.818053084260957
  0
LINE
  5
1F3D
330
85F
100
AcDbEntity
  8
DETAIL
100
AcDbLine
 10
-368.5999999999986
 20
297.3339745965336
 30
0.0
 11
-368.5999999999986
 21
296.9339745965335
 31
0.0
  0
LINE
  5
1F3E
330
85F
100
AcDbEntity
  8
DETAIL
100
AcDbLine
 10
-368.5999999999986
 20
296.9339745965335
 30
0.0
 11
-368.5999999999986
 21
295.2220133254258
 31
0.0
  0
LINE
  5
1F3F
330
85F
100
AcDbEntity
  8
DETAIL
100
AcDbLine
 10
-368.5999999999986
 20
5.29448685242596
 30
0.0
 11
-368.5999999999986
 21
-0.3999999996308361
 31
0.0
  0
ELLIPSE
  5
1F40
330
85F
100
AcDbEntity
  8
DETAIL
100
AcDbEllipse
 10
-368.5999999999986
 20
296.8839745965338
 30
0.0
 11
-0.0999999999999099
 21
-0.0000000000000123
 31
0.0
210
0.0
220
0.0
230
0.9999999999999998
 40
0.499999999999898
 41
4.712388980384625
 42
6.283185307179647
  0
SPLINE
  5
1F41
330
85F
100
AcDbEntity
  8
DETAIL
100
AcDbSpline
210
0.0
220
0.0
230
1.0
 70
     8
 71
     3
 72
     8
 73
     4
 74
     0
 42
0.0000000001
 43
0.0000000001
 40
0.0
 40
0.0
 40
0.0
 40
0.0
 40
1.570796326795043
 40
1.570796326795043
 40
1.570796326795043
 40
1.570796326795043
 10
-368.6999999999971
 20
0.0000000003688001
 30
0.0
 10
-368.6999999999971
 20
-0.123820060851358
 30
0.0
 10
-368.6523598775602
 20
-0.2499999996311999
 30
0.0
 10
-368.5999999999986
 20
-0.3999999996308361
 30
0.0
  0
SPLINE
  5
1F42
330
85F
100
AcDbEntity
  8
DETAIL
100
AcDbSpline
210
0.0
220
0.0
230
1.0
 70
     8
 71
     3
 72
    10
 73
     6
 74
     0
 42
0.0000000001
 43
0.0000000001
 40
0.0
 40
0.0
 40
0.0
 40
0.0
 40
0.0123797801055025
 40
0.0123797801055025
 40
0.0168343749690824
 40
0.0168343749690824
 40
0.0168343749690824
 40
0.0168343749690824
 10
-368.6174532925142
 20
-0.3505100407428472
 30
0.0
 10
-368.6297365101418
 20
-0.3158613157002037
 30
0.0
 10
-368.6486383958181
 20
-0.2819463310506762
 30
0.0
 10
-368.6809284946212
 20
-0.2394890916289114
 30
0.0
 10
-368.6901762189955
 20
-0.2284985810124454
 30
0.0
 10
-368.6999999999971
 20
-0.2178237732136949
 30
0.0
  0
LINE
  5
1F43
330
85F
100
AcDbEntity
  8
DETAIL
100
AcDbLine
 10
-368.5000000000073
 20
296.933974596534
 30
0.0
 11
-368.5999999999986
 21
296.9339745965335
 31
0.0
  0
LINE
  5
1F44
330
85F
100
AcDbEntity
  8
DETAIL
100
AcDbLine
 10
-368.5000000000073
 20
297.3339745965345
 30
0.0
 11
-368.5999999999986
 21
297.3339745965336
 31
0.0
  0
LINE
  5
1F45
330
85F
100
AcDbEntity
  8
DETAIL
100
AcDbLine
 10
-368.5999999999986
 20
-0.3999999996308361
 30
0.0
 11
-353.4999999999927
 21
-0.3999999996308361
 31
0.0
  0
LINE
  5
1F46
330
85F
100
AcDbEntity
  8
DETAIL
100
AcDbLine
 10
-353.4999999999927
 20
-0.3999999996308361
 30
0.0
 11
-353.4999999999927
 21
287.0000000003197
 31
0.0
  0
LINE
  5
1F47
330
85F
100
AcDbEntity
  8
DETAIL
100
AcDbLine
 10
370.5000000000073
 20
0.9000000000005455
 30
0.0
 11
370.4999999999927
 21
298.2000000001193
 31
0.0
  0
LINE
  5
1F48
330
85F
100
AcDbEntity
  8
DETAIL
100
AcDbLine
 10
369.7000000000044
 20
7.46576963901316
 30
0.0
 11
369.7000000000044
 21
0.9000000000005455
 31
0.0
  0
LINE
  5
1F49
330
85F
100
AcDbEntity
  8
DETAIL
100
AcDbLine
 10
370.4999999999927
 20
298.2000000001193
 30
0.0
 11
369.6999999999897
 21
298.2000000001193
 31
0.0
  0
LINE
  5
1F4A
330
85F
100
AcDbEntity
  8
DETAIL
100
AcDbLine
 10
369.6999999999897
 20
298.2000000001193
 30
0.0
 11
369.6999999999897
 21
295.2155592551135
 31
0.0
  0
LINE
  5
1F4B
330
85F
100
AcDbEntity
  8
DETAIL
100
AcDbLine
 10
368.9000000000015
 20
7.46576963901316
 30
0.0
 11
368.9000000000015
 21
5.822279158661785
 31
0.0
  0
LINE
  5
1F4C
330
85F
100
AcDbEntity
  8
DETAIL
100
AcDbLine
 10
368.9000000000015
 20
5.822279158661785
 30
0.0
 11
369.7000000000044
 21
5.822279158661785
 31
0.0
  0
LINE
  5
1F4D
330
85F
100
AcDbEntity
  8
DETAIL
100
AcDbLine
 10
369.7000000000044
 20
7.46576963901316
 30
0.0
 11
368.9000000000015
 21
7.46576963901316
 31
0.0
  0
LINE
  5
1F4E
330
85F
100
AcDbEntity
  8
DETAIL
100
AcDbLine
 10
369.6999999999897
 20
295.2155592551135
 30
0.0
 11
368.8999999999869
 21
295.2155592551135
 31
0.0
  0
LINE
  5
1F4F
330
85F
100
AcDbEntity
  8
DETAIL
100
AcDbLine
 10
368.8999999999869
 20
295.2155592551135
 30
0.0
 11
368.9000000000015
 21
7.46576963901316
 31
0.0
  0
LINE
  5
1F50
330
85F
100
AcDbEntity
  8
DETAIL
100
AcDbLine
 10
369.7000000000044
 20
0.9000000000005455
 30
0.0
 11
370.172957795141
 21
0.9000000000005455
 31
0.0
  0
LINE
  5
1F51
330
85F
100
AcDbEntity
  8
DETAIL
100
AcDbLine
 10
370.172957795141
 20
0.9000000000005455
 30
0.0
 11
370.5000000000073
 21
0.9000000000005455
 31
0.0
  0
SPLINE
  5
1F52
330
85F
100
AcDbEntity
  8
DETAIL
100
AcDbSpline
210
0.0
220
0.0
230
1.0
 70
     8
 71
     3
 72
    11
 73
     7
 74
     0
 42
0.0000000001
 43
0.0000000001
 40
0.0
 40
0.0
 40
0.0
 40
0.0
 40
1.437607986812995
 40
1.437607986812995
 40
1.437607986812995
 40
1.570796326794897
 40
1.570796326794897
 40
1.570796326794897
 40
1.570796326794897
 10
370.5000000000073
 20
0.9000000000005455
 30
0.0
 10
370.5000000000073
 20
0.4687176039565202
 30
0.0
 10
370.1469781827109
 20
0.0652429258866505
 30
0.0
 10
369.7195154233268
 20
0.0079708168509569
 30
0.0
 10
369.6799127946142
 20
0.0026647965732991
 30
0.0
 10
369.6399565020038
 20
0.0000000000004547
 30
0.0
 10
369.6000000000058
 20
0.0000000000004547
 30
0.0
  0
LINE
  5
1F53
330
85F
100
AcDbEntity
  8
DETAIL
100
AcDbLine
 10
369.6000000000058
 20
0.0000000000004547
 30
0.0
 11
369.6000000000058
 21
0.8000000000001817
 31
0.0
  0
SPLINE
  5
1F54
330
85F
100
AcDbEntity
  8
DETAIL
100
AcDbSpline
210
0.0
220
0.0
230
1.0
 70
     8
 71
     3
 72
     8
 73
     4
 74
     0
 42
0.0000000001
 43
0.0000000001
 40
0.0
 40
0.0
 40
0.0
 40
0.0
 40
1.570796326794897
 40
1.570796326794897
 40
1.570796326794897
 40
1.570796326794897
 10
369.7000000000044
 20
0.9000000000005455
 30
0.0
 10
369.7000000000044
 20
0.8476401224406798
 30
0.0
 10
369.6523598775602
 20
0.8000000000006366
 30
0.0
 10
369.6000000000058
 20
0.8000000000001817
 30
0.0
  0
LINE
  5
1F55
330
85F
100
AcDbEntity
  8
DETAIL
100
AcDbLine
 10
369.599999999984
 20
298.2000000001199
 30
0.0
 11
369.4999999999927
 21
298.2000000001199
 31
0.0
  0
LINE
  5
1F56
330
85F
100
AcDbEntity
  8
DETAIL
100
AcDbLine
 10
369.4999999999927
 20
297.4000000001201
 30
0.0
 11
369.599999999984
 21
297.4000000001201
 31
0.0
  0
LINE
  5
1F57
330
85F
100
AcDbEntity
  8
DETAIL
100
AcDbLine
 10
369.599999999984
 20
297.4000000001201
 30
0.0
 11
369.599999999984
 21
298.2000000001199
 31
0.0
  0
ARC
  5
1F58
330
85F
100
AcDbEntity
  8
DETAIL
100
AcDbCircle
 10
369.599999999984
 20
297.3000000001198
 30
0.0
 40
0.1000000000000512
100
AcDbArc
 50
0.0
 51
90.0
  0
ARC
  5
1F59
330
85F
100
AcDbEntity
  8
DETAIL
100
AcDbCircle
 10
369.599999999984
 20
297.3000000001284
 30
0.0
 40
0.8999999999914718
100
AcDbArc
 50
83.62062979165044
 51
90.0
  0
LINE
  5
1F5A
330
85F
100
AcDbEntity
  8
DETAIL
100
AcDbLine
 10
354.5000000000073
 20
0.7999999999992724
 30
0.0
 11
351.5000000000073
 21
0.7999999999997272
 31
0.0
  0
LINE
  5
1F5B
330
85F
100
AcDbEntity
  8
DETAIL
100
AcDbLine
 10
351.5000000000073
 20
0.7999999999997272
 30
0.0
 11
351.5000000000073
 21
0.0
 31
0.0
  0
LINE
  5
1F5C
330
85F
100
AcDbEntity
  8
DETAIL
100
AcDbLine
 10
351.5000000000073
 20
0.0
 30
0.0
 11
354.5000000000073
 21
-0.0000000000004547
 31
0.0
  0
LINE
  5
1F5D
330
85F
100
AcDbEntity
  8
DETAIL
100
AcDbLine
 10
354.5000000000073
 20
-0.0000000000004547
 30
0.0
 11
354.5000000000073
 21
0.7999999999992724
 31
0.0
  0
LINE
  5
1F5E
330
85F
100
AcDbEntity
  8
DETAIL
100
AcDbLine
 10
369.6000000000058
 20
0.8000000000001817
 30
0.0
 11
354.5000000000073
 21
0.7999999999992724
 31
0.0
  0
LINE
  5
1F5F
330
85F
100
AcDbEntity
  8
DETAIL
100
AcDbLine
 10
369.6000000000058
 20
0.0000000000004547
 30
0.0
 11
354.5000000000073
 21
-0.0000000000004547
 31
0.0
  0
LINE
  5
1F60
330
85F
100
AcDbEntity
  8
DETAIL
100
AcDbLine
 10
369.6000000000058
 20
1.366025404152424
 30
0.0
 11
369.6000000000058
 21
5.822279159021491
 31
0.0
  0
LINE
  5
1F61
330
85F
100
AcDbEntity
  8
DETAIL
100
AcDbLine
 10
369.599999999984
 20
295.2155592553122
 30
0.0
 11
369.599999999984
 21
297.400000000317
 31
0.0
  0
ELLIPSE
  5
1F62
330
85F
100
AcDbEntity
  8
DETAIL
100
AcDbEllipse
 10
369.6000000000058
 20
1.316025404152241
 30
0.0
 11
0.0999999999999607
 21
-0.0000000000000018
 31
0.0
210
0.0
220
0.0
230
1.0
 40
0.5000000000002581
 41
0.0000000000005111
 42
1.570796326794904
  0
LINE
  5
1F63
330
85F
100
AcDbEntity
  8
DETAIL
100
AcDbLine
 10
369.6000000000058
 20
1.366025404152424
 30
0.0
 11
354.5000000000073
 21
1.366025404151514
 31
0.0
  0
LINE
  5
1F64
330
85F
100
AcDbEntity
  8
DETAIL
100
AcDbLine
 10
354.5000000000073
 20
1.366025404151514
 30
0.0
 11
354.4999999999927
 21
287.0000000003188
 31
0.0
  0
LINE
  5
1F65
330
85F
100
AcDbEntity
  8
DETAIL
100
AcDbLine
 10
-365.5000000000073
 20
287.00000000012
 30
0.0
 11
-367.9000000000014
 21
289.4000000001047
 31
0.0
  0
LINE
  5
1F66
330
85F
100
AcDbEntity
  8
DETAIL
100
AcDbLine
 10
368.8999999999869
 20
289.4000000001197
 30
0.0
 11
366.4999999999927
 21
287.0000000001196
 31
0.0
  0
LINE
  5
1F67
330
85F
100
AcDbEntity
  8
DETAIL
100
AcDbLine
 10
-365.5000000000073
 20
287.00000000012
 30
0.0
 11
-351.5100000000166
 21
287.0000000001196
 31
0.0
  0
LINE
  5
1F68
330
85F
100
AcDbEntity
  8
DETAIL
100
AcDbLine
 10
352.5099999999875
 20
287.0000000001196
 30
0.0
 11
366.4999999999927
 21
287.0000000001196
 31
0.0
  0
LINE
  5
1F69
330
85F
100
AcDbEntity
  8
DETAIL
100
AcDbLine
 10
369.4999999999927
 20
298.1000000001195
 30
0.0
 11
369.4999999999927
 21
295.215559255114
 31
0.0
  0
LINE
  5
1F6A
330
85F
100
AcDbEntity
  8
DETAIL
100
AcDbLine
 10
-368.5000000000073
 20
298.10000000012
 30
0.0
 11
-368.5000000000073
 21
295.2220133252276
 31
0.0
  0
LINE
  5
1F6B
330
85F
100
AcDbEntity
  8
DETAIL
100
AcDbLine
 10
-351.5100000000166
 20
287.0000000001196
 30
0.0
 11
-351.5100000000166
 21
287.9100000001198
 31
0.0
  0
LINE
  5
1F6C
330
85F
100
AcDbEntity
  8
DETAIL
100
AcDbLine
 10
-351.5100000000166
 20
287.9100000001198
 30
0.0
 11
-351.5000000000073
 21
287.9100000001198
 31
0.0
  0
LINE
  5
1F6D
330
85F
100
AcDbEntity
  8
DETAIL
100
AcDbLine
 10
-351.5000000000073
 20
287.9100000001198
 30
0.0
 11
-351.5000000000073
 21
287.9000000001197
 31
0.0
  0
LINE
  5
1F6E
330
85F
100
AcDbEntity
  8
DETAIL
100
AcDbLine
 10
-351.5000000000073
 20
287.9000000001197
 30
0.0
 11
352.4999999999927
 21
287.9000000001197
 31
0.0
  0
LINE
  5
1F6F
330
85F
100
AcDbEntity
  8
DETAIL
100
AcDbLine
 10
352.4999999999927
 20
287.9000000001197
 30
0.0
 11
352.4999999999927
 21
287.9100000001193
 31
0.0
  0
LINE
  5
1F70
330
85F
100
AcDbEntity
  8
DETAIL
100
AcDbLine
 10
352.4999999999927
 20
287.9100000001193
 30
0.0
 11
352.5099999999875
 21
287.9100000001193
 31
0.0
  0
LINE
  5
1F71
330
85F
100
AcDbEntity
  8
DETAIL
100
AcDbLine
 10
352.5099999999875
 20
287.9100000001193
 30
0.0
 11
352.5099999999875
 21
287.0000000001196
 31
0.0
  0
LINE
  5
1F72
330
85F
100
AcDbEntity
  8
DETAIL
100
AcDbLine
 10
352.4999999999927
 20
287.0000000001196
 30
0.0
 11
-351.5000000000073
 21
287.00000000012
 31
0.0
  0
LINE
  5
1F73
330
85F
100
AcDbEntity
  8
DETAIL
100
AcDbLine
 10
-351.5000000000073
 20
287.00000000012
 30
0.0
 11
-351.5000000000073
 21
287.9000000001202
 31
0.0
  0
LINE
  5
1F74
330
85F
100
AcDbEntity
  8
DETAIL
100
AcDbLine
 10
352.4999999999927
 20
287.0000000001196
 30
0.0
 11
352.4999999999927
 21
287.9000000001197
 31
0.0
  0
LINE
  5
1F75
330
85F
100
AcDbEntity
  8
DETAIL
100
AcDbLine
 10
369.4999999999927
 20
298.1000000001195
 30
0.0
 11
-368.5000000000073
 21
298.10000000012
 31
0.0
  0
LINE
  5
1F76
330
85F
100
AcDbEntity
  8
DETAIL
100
AcDbLine
 10
-368.5000000000073
 20
298.1000000001195
 30
0.0
 11
-368.5000000000073
 21
299.0000000001197
 31
0.0
  0
LINE
  5
1F77
330
85F
100
AcDbEntity
  8
DETAIL
100
AcDbLine
 10
369.4999999999927
 20
298.100000000119
 30
0.0
 11
369.4999999999927
 21
299.0000000001197
 31
0.0
  0
LINE
  5
1F78
330
85F
100
AcDbEntity
  8
DETAIL
100
AcDbLine
 10
-368.5000000000073
 20
299.0000000001197
 30
0.0
 11
369.4999999999927
 21
299.0000000001192
 31
0.0
  0
LINE
  5
1F79
330
85F
100
AcDbEntity
  8
DETAIL
100
AcDbLine
 10
369.5000000000074
 20
299.8630127022002
 30
0.0
 11
366.5000000000073
 21
299.8630127021988
 31
0.0
  0
LINE
  5
1F7A
330
85F
100
AcDbEntity
  8
DETAIL
100
AcDbLine
 10
366.5000000000073
 20
299.8630127021988
 30
0.0
 11
366.5000000000073
 21
299.0630127021992
 31
0.0
  0
LINE
  5
1F7B
330
85F
100
AcDbEntity
  8
DETAIL
100
AcDbLine
 10
366.5000000000073
 20
299.0630127021992
 30
0.0
 11
369.5000000000074
 21
299.0630127022
 31
0.0
  0
LINE
  5
1F7C
330
85F
100
AcDbEntity
  8
DETAIL
100
AcDbLine
 10
369.5000000000074
 20
299.0630127022
 30
0.0
 11
369.5000000000074
 21
299.8630127022002
 31
0.0
  0
LINE
  5
1F7D
330
85F
100
AcDbEntity
  8
DETAIL
100
AcDbLine
 10
-365.4999999999926
 20
299.0630127021618
 30
0.0
 11
-365.4999999999926
 21
299.863012702162
 31
0.0
  0
LINE
  5
1F7E
330
85F
100
AcDbEntity
  8
DETAIL
100
AcDbLine
 10
-365.4999999999926
 20
299.863012702162
 30
0.0
 11
-368.4999999999927
 21
299.8630127021625
 31
0.0
  0
LINE
  5
1F7F
330
85F
100
AcDbEntity
  8
DETAIL
100
AcDbLine
 10
-368.4999999999927
 20
299.8630127021625
 30
0.0
 11
-368.4999999999927
 21
299.0630127021627
 31
0.0
  0
LINE
  5
1F80
330
85F
100
AcDbEntity
  8
DETAIL
100
AcDbLine
 10
-368.4999999999927
 20
299.0630127021627
 30
0.0
 11
-365.4999999999926
 21
299.0630127021618
 31
0.0
  0
LINE
  5
1F81
330
85F
100
AcDbEntity
  8
DETAIL
100
AcDbLine
 10
366.5000000000073
 20
299.8630127021988
 30
0.0
 11
-365.4999999999926
 21
299.863012702162
 31
0.0
  0
LINE
  5
1F82
330
85F
100
AcDbEntity
  8
DETAIL
100
AcDbLine
 10
366.5000000000073
 20
299.0630127021992
 30
0.0
 11
-365.4999999999926
 21
299.0630127021618
 31
0.0
  0
LINE
  5
1F83
330
85F
100
AcDbEntity
  8
DETAIL
100
AcDbLine
 10
-368.4999999999927
 20
299.0130127021675
 30
0.0
 11
-368.4999999999927
 21
299.0000000003165
 31
0.0
  0
LINE
  5
1F84
330
85F
100
AcDbEntity
  8
DETAIL
100
AcDbLine
 10
369.5000000000218
 20
0.9674831688785159
 30
0.0
 11
369.5000000000218
 21
1.366025404152876
 31
0.0
  0
LINE
  5
1F85
330
85F
100
AcDbEntity
  8
DETAIL
100
AcDbLine
 10
369.5000000000074
 20
299.000000000316
 30
0.0
 11
369.5000000000074
 21
299.0130127022044
 31
0.0
  0
LINE
  5
1F86
330
85F
100
AcDbEntity
  8
DETAIL
100
AcDbLine
 10
351.5000000000073
 20
0.5174831688777886
 30
0.0
 11
-353.4999999999927
 21
0.5174831688423183
 31
0.0
  0
LINE
  5
1F87
330
85F
100
AcDbEntity
  8
DETAIL
100
AcDbLine
 10
369.5000000000218
 20
0.9674831688785159
 30
0.0
 11
369.5000000000218
 21
0.800000000367163
 31
0.0
  0
LINE
  5
1F88
330
85F
100
AcDbEntity
  8
DETAIL
100
AcDbLine
 10
-353.4999999999927
 20
0.9674831688421363
 30
0.0
 11
369.5000000000218
 21
0.9674831688785159
 31
0.0
  0
LINE
  5
1F89
330
85F
100
AcDbEntity
  8
DETAIL
100
AcDbLine
 10
-368.4999999999927
 20
299.0630127021672
 30
0.0
 11
-368.4999999999927
 21
299.0130127021672
 31
0.0
  0
LINE
  5
1F8A
330
85F
100
AcDbEntity
  8
DETAIL
100
AcDbLine
 10
369.5000000000074
 20
299.0130127022048
 30
0.0
 11
369.5000000000074
 21
299.0630127022046
 31
0.0
  0
LINE
  5
1F8B
330
85F
100
AcDbEntity
  8
DETAIL
100
AcDbLine
 10
369.5000000000074
 20
299.0130127022044
 30
0.0
 11
-368.4999999999927
 21
299.0130127021675
 31
0.0
  0
LINE
  5
1F8C
330
85F
100
AcDbEntity
  8
NOTE
100
AcDbLine
 10
-361.0
 20
1.500000000002728
 30
0.0
 11
-361.0
 21
-13.49999999999727
 31
0.0
  0
LINE
  5
1F8D
330
85F
100
AcDbEntity
  8
NOTE
100
AcDbLine
 10
361.0
 20
7.500000000002727
 30
0.0
 11
361.0
 21
-7.499999999997271
 31
0.0
  0
LINE
  5
1F8E
330
85F
100
AcDbEntity
  8
NOTE
100
AcDbLine
 10
352.8000000000029
 20
7.500000000002727
 30
0.0
 11
352.8000000000029
 21
-7.499999999997271
 31
0.0
  0
LINE
  5
1F8F
330
85F
100
AcDbEntity
  8
NOTE
100
AcDbLine
 10
24.0
 20
8.017483168845501
 30
0.0
 11
24.0
 21
-6.982516831154496
 31
0.0
  0
LINE
  5
1F90
330
85F
100
AcDbEntity
  8
NOTE
100
AcDbLine
 10
-280.0
 20
8.017483168845501
 30
0.0
 11
-280.0
 21
-6.982516831154496
 31
0.0
  0
MTEXT
  5
1F91
330
85F
100
AcDbEntity
  8
ETC
100
AcDbMText
 10
171.9802422892098
 20
704.7137291057691
 30
0.0
 40
64.0
 41
0.0
 71
     1
 72
     5
  1
{\Fromans,extfont|c128;\W0.9;AGJS-28BL-6}
  7
ADESK1
 73
     1
 44
1.0
1001
ACAD
1000
MTEXTBEGIN
1070
    73
1070
     1
1070
    44
1040
1.0
1070
    74
1070
     0
1000
MTEXTEND
  0
LINE
  5
1F98
330
85F
100
AcDbEntity
  8
BASIS
  6
DASHDOT
 62
     6
100
AcDbLine
 10
0.0
 20
349.863012701916
 30
0.0
 11
0.0
 21
-49.48251683151648
 31
0.0
  0
LINE
  5
1F99
330
85F
100
AcDbEntity
  8
ARRANGE
  6
Continuous
 62
     1
100
AcDbLine
 10
-16.68411756440764
 20
16.684117564404
 30
0.0
 11
16.68411756440036
 21
-16.68411756440309
 31
0.0
  0
LINE
  5
1F9A
330
85F
100
AcDbEntity
  8
ARRANGE
  6
Continuous
 62
     1
100
AcDbLine
 10
-16.68411756440764
 20
-16.68411756440309
 30
0.0
 11
16.68411756440036
 21
16.684117564404
 31
0.0
  0
CIRCLE
  5
1F9B
330
85F
100
AcDbEntity
  8
ARRANGE
100
AcDbCircle
 10
0.0
 20
0.0
 30
0.0
 40
15.0
  0
LINE
  5
1F9E
330
85F
100
AcDbEntity
  8
NOTE
100
AcDbLine
 10
353.5
 20
-0.0000000000004547
 30
0.0
 11
368.5
 21
-0.0000000000004547
 31
0.0
  0
LINE
  5
1F9F
330
85F
100
AcDbEntity
  8
NOTE
100
AcDbLine
 10
345.3000000000029
 20
-0.0000000000004547
 30
0.0
 11
360.3000000000029
 21
-0.0000000000004547
 31
0.0
  0
LINE
  5
1FA0
330
85F
100
AcDbEntity
  8
NOTE
100
AcDbLine
 10
-368.5
 20
-5.999999999998633
 30
0.0
 11
-353.5
 21
-5.999999999998633
 31
0.0
  0
LINE
  5
1FA1
330
85F
100
AcDbEntity
  8
NOTE
100
AcDbLine
 10
-287.5
 20
0.5174831688459564
 30
0.0
 11
-272.5
 21
0.5174831688459564
 31
0.0
  0
LINE
  5
1FA2
330
85F
100
AcDbEntity
  8
NOTE
100
AcDbLine
 10
16.5
 20
0.5174831688459564
 30
0.0
 11
31.5
 21
0.5174831688459564
 31
0.0
  0
LINE
  5
1FA3
330
85F
100
AcDbEntity
  8
OUTLINE
100
AcDbLine
 10
-368.6999999999971
 20
295.2220133252263
 30
0.0
 11
-367.9000000000014
 21
295.2220133252263
 31
0.0
  0
LINE
  5
1FA4
330
85F
100
AcDbEntity
  8
OUTLINE
100
AcDbLine
 10
-367.9000000000014
 20
5.294486852064891
 30
0.0
 11
-367.9000000000014
 21
6.955973349788107
 31
0.0
  0
LINE
  5
1FA5
330
85F
100
AcDbEntity
  8
OUTLINE
100
AcDbLine
 10
-368.6999999999971
 20
6.955973349788107
 30
0.0
 11
-367.9000000000014
 21
6.955973349788107
 31
0.0
  0
LINE
  5
1FA6
330
85F
100
AcDbEntity
  8
OUTLINE
100
AcDbLine
 10
-368.6999999999971
 20
5.294486852064891
 30
0.0
 11
-367.9000000000014
 21
5.294486852064891
 31
0.0
  0
LINE
  5
1FA7
330
85F
100
AcDbEntity
  8
OUTLINE
100
AcDbLine
 10
-367.9000000000014
 20
6.955973349788107
 30
0.0
 11
-367.9000000000014
 21
295.2220133252263
 31
0.0
  0
LINE
  5
1FA8
330
85F
100
AcDbEntity
  8
OUTLINE
100
AcDbLine
 10
-368.5000000000073
 20
297.4000000001197
 30
0.0
 11
-368.5999999999986
 21
297.4000000001197
 31
0.0
  0
LINE
  5
1FA9
330
85F
100
AcDbEntity
  8
OUTLINE
100
AcDbLine
 10
-368.5000000000073
 20
298.2000000001199
 30
0.0
 11
-368.5999999999986
 21
298.2000000001199
 31
0.0
  0
LINE
  5
1FAA
330
85F
100
AcDbEntity
  8
OUTLINE
100
AcDbLine
 10
-368.5999999999986
 20
298.2000000001199
 30
0.0
 11
-368.5999999999986
 21
297.4000000001197
 31
0.0
  0
ARC
  5
1FAB
330
85F
100
AcDbEntity
  8
OUTLINE
100
AcDbCircle
 10
-368.5999999999986
 20
297.3000000001266
 30
0.0
 40
0.8999999999933551
100
AcDbArc
 50
90.0
 51
96.37937020834957
  0
ARC
  5
1FAC
330
85F
100
AcDbEntity
  8
OUTLINE
100
AcDbCircle
 10
-368.5999999999986
 20
297.3000000001198
 30
0.0
 40
0.0999999999998735
100
AcDbArc
 50
90.0
 51
180.0
  0
LINE
  5
1FAD
330
85F
100
AcDbEntity
  8
OUTLINE
100
AcDbLine
 10
-353.4999999999927
 20
-5.999999999999543
 30
0.0
 11
-350.4999999999927
 21
-5.999999999998633
 31
0.0
  0
LINE
  5
1FAE
330
85F
100
AcDbEntity
  8
OUTLINE
100
AcDbLine
 10
-350.4999999999927
 20
-5.999999999998633
 30
0.0
 11
-350.4999999999927
 21
-5.199999999998452
 31
0.0
  0
LINE
  5
1FAF
330
85F
100
AcDbEntity
  8
OUTLINE
100
AcDbLine
 10
-350.4999999999927
 20
-5.199999999998452
 30
0.0
 11
-353.4999999999927
 21
-5.199999999999363
 31
0.0
  0
LINE
  5
1FB0
330
85F
100
AcDbEntity
  8
OUTLINE
100
AcDbLine
 10
-353.4999999999927
 20
-5.199999999999363
 30
0.0
 11
-353.4999999999927
 21
-5.999999999999543
 31
0.0
  0
LINE
  5
1FB1
330
85F
100
AcDbEntity
  8
OUTLINE
100
AcDbLine
 10
-353.4999999999927
 20
-5.199999999999363
 30
0.0
 11
-368.5999999999986
 21
-5.199999999999363
 31
0.0
  0
LINE
  5
1FB2
330
85F
100
AcDbEntity
  8
OUTLINE
100
AcDbLine
 10
-368.5999999999986
 20
-5.999999999999543
 30
0.0
 11
-353.4999999999927
 21
-5.999999999999543
 31
0.0
  0
LINE
  5
1FB3
330
85F
100
AcDbEntity
  8
OUTLINE
100
AcDbLine
 10
-368.5999999999986
 20
-5.199999999999363
 30
0.0
 11
-368.5999999999986
 21
-5.999999999999543
 31
0.0
  0
ARC
  5
1FB4
330
85F
100
AcDbEntity
  8
OUTLINE
100
AcDbCircle
 10
-368.5999999999986
 20
-5.099999999999454
 30
0.0
 40
0.9000000000000005
100
AcDbArc
 50
180.0
 51
270.0
  0
ARC
  5
1FB5
330
85F
100
AcDbEntity
  8
OUTLINE
100
AcDbCircle
 10
-368.5999999999986
 20
-5.099999999999454
 30
0.0
 40
0.1000000000000003
100
AcDbArc
 50
180.0
 51
270.0
  0
LINE
  5
1FB6
330
85F
100
AcDbEntity
  8
OUTLINE
100
AcDbLine
 10
-369.4999999999927
 20
-5.099999999999454
 30
0.0
 11
-368.6999999999971
 21
-5.099999999999454
 31
0.0
  0
LINE
  5
1FB7
330
85F
100
AcDbEntity
  8
OUTLINE
100
AcDbLine
 10
-368.6999999999971
 20
6.955973349788107
 30
0.0
 11
-368.6999999999971
 21
1.000000000000454
 31
0.0
  0
LINE
  5
1FB8
330
85F
100
AcDbEntity
  8
OUTLINE
100
AcDbLine
 10
-368.6999999999971
 20
1.000000000000454
 30
0.0
 11
-368.6999999999971
 21
-5.099999999999454
 31
0.0
  0
LINE
  5
1FB9
330
85F
100
AcDbEntity
  8
OUTLINE
100
AcDbLine
 10
-368.6999999999971
 20
298.2000000001199
 30
0.0
 11
-368.6999999999971
 21
295.2220133252263
 31
0.0
  0
LINE
  5
1FBA
330
85F
100
AcDbEntity
  8
OUTLINE
100
AcDbLine
 10
-369.4999999999927
 20
1.000000000000454
 30
0.0
 11
-369.4999999999927
 21
-5.099999999999454
 31
0.0
  0
LINE
  5
1FBB
330
85F
100
AcDbEntity
  8
OUTLINE
100
AcDbLine
 10
-369.4999999999927
 20
298.2000000001199
 30
0.0
 11
-369.4999999999927
 21
1.000000000000454
 31
0.0
  0
LINE
  5
1FBC
330
85F
100
AcDbEntity
  8
OUTLINE
100
AcDbLine
 10
-368.6999999999971
 20
298.2000000001199
 30
0.0
 11
-369.4999999999927
 21
298.2000000001199
 31
0.0
  0
LINE
  5
1FBD
330
85F
100
AcDbEntity
  8
OUTLINE
100
AcDbLine
 10
-368.6999999999971
 20
1.000000000000454
 30
0.0
 11
-369.4999999999927
 21
1.000000000000454
 31
0.0
  0
ELLIPSE
  5
1FBE
330
85F
100
AcDbEntity
  8
OUTLINE
100
AcDbEllipse
 10
-368.5999999999986
 20
296.8839745965283
 30
0.0
 11
-0.8999999999993953
 21
0.0000000000002857
 31
0.0
210
0.0
220
0.0
230
1.0
 40
0.5000000000055072
 41
4.712388980384846
 42
4.818053084260957
  0
LINE
  5
1FBF
330
85F
100
AcDbEntity
  8
OUTLINE
100
AcDbLine
 10
-368.5999999999986
 20
297.3339745965327
 30
0.0
 11
-368.5999999999986
 21
296.9339745965326
 31
0.0
  0
LINE
  5
1FC0
330
85F
100
AcDbEntity
  8
OUTLINE
100
AcDbLine
 10
-368.5999999999986
 20
296.9339745965326
 30
0.0
 11
-368.5999999999986
 21
295.222013325425
 31
0.0
  0
LINE
  5
1FC1
330
85F
100
AcDbEntity
  8
OUTLINE
100
AcDbLine
 10
-368.5999999999986
 20
5.294486852425052
 30
0.0
 11
-368.5999999999986
 21
-0.3999999996317456
 31
0.0
  0
ELLIPSE
  5
1FC2
330
85F
100
AcDbEntity
  8
OUTLINE
100
AcDbEllipse
 10
-368.5999999999986
 20
296.8839745965329
 30
0.0
 11
-0.0999999999999099
 21
-0.0000000000000123
 31
0.0
210
0.0
220
0.0
230
0.9999999999999998
 40
0.499999999999898
 41
4.712388980384625
 42
6.283185307179647
  0
SPLINE
  5
1FC3
330
85F
100
AcDbEntity
  8
OUTLINE
100
AcDbSpline
210
0.0
220
0.0
230
1.0
 70
     8
 71
     3
 72
     8
 73
     4
 74
     0
 42
0.0000000001
 43
0.0000000001
 40
0.0
 40
0.0
 40
0.0
 40
0.0
 40
1.570796326795043
 40
1.570796326795043
 40
1.570796326795043
 40
1.570796326795043
 10
-368.6999999999971
 20
0.0000000003678906
 30
0.0
 10
-368.6999999999971
 20
-0.1238200608522675
 30
0.0
 10
-368.6523598775602
 20
-0.2499999996321094
 30
0.0
 10
-368.5999999999986
 20
-0.3999999996317456
 30
0.0
  0
SPLINE
  5
1FC4
330
85F
100
AcDbEntity
  8
OUTLINE
100
AcDbSpline
210
0.0
220
0.0
230
1.0
 70
     8
 71
     3
 72
    10
 73
     6
 74
     0
 42
0.0000000001
 43
0.0000000001
 40
0.0
 40
0.0
 40
0.0
 40
0.0
 40
0.0123797801055025
 40
0.0123797801055025
 40
0.0168343749690824
 40
0.0168343749690824
 40
0.0168343749690824
 40
0.0168343749690824
 10
-368.6174532925142
 20
-0.3505100407437567
 30
0.0
 10
-368.6297365101418
 20
-0.3158613157011132
 30
0.0
 10
-368.6486383958181
 20
-0.2819463310515857
 30
0.0
 10
-368.6809284946212
 20
-0.2394890916298209
 30
0.0
 10
-368.6901762189955
 20
-0.2284985810133548
 30
0.0
 10
-368.6999999999971
 20
-0.2178237732146044
 30
0.0
  0
LINE
  5
1FC5
330
85F
100
AcDbEntity
  8
OUTLINE
100
AcDbLine
 10
-368.5000000000073
 20
296.9339745965331
 30
0.0
 11
-368.5999999999986
 21
296.9339745965326
 31
0.0
  0
LINE
  5
1FC6
330
85F
100
AcDbEntity
  8
OUTLINE
100
AcDbLine
 10
-368.5000000000073
 20
297.3339745965336
 30
0.0
 11
-368.5999999999986
 21
297.3339745965327
 31
0.0
  0
LINE
  5
1FC7
330
85F
100
AcDbEntity
  8
OUTLINE
100
AcDbLine
 10
-368.5999999999986
 20
-0.3999999996317456
 30
0.0
 11
-353.4999999999927
 21
-0.3999999996317456
 31
0.0
  0
LINE
  5
1FC8
330
85F
100
AcDbEntity
  8
OUTLINE
100
AcDbLine
 10
-353.4999999999927
 20
-0.3999999996317456
 30
0.0
 11
-353.4999999999927
 21
287.0000000003188
 31
0.0
  0
LINE
  5
1FC9
330
85F
100
AcDbEntity
  8
OUTLINE
100
AcDbLine
 10
370.5000000000073
 20
0.8999999999996362
 30
0.0
 11
370.4999999999927
 21
298.2000000001185
 31
0.0
  0
LINE
  5
1FCA
330
85F
100
AcDbEntity
  8
OUTLINE
100
AcDbLine
 10
369.7000000000044
 20
7.46576963901225
 30
0.0
 11
369.7000000000044
 21
0.8999999999996362
 31
0.0
  0
LINE
  5
1FCB
330
85F
100
AcDbEntity
  8
OUTLINE
100
AcDbLine
 10
370.4999999999927
 20
298.2000000001185
 30
0.0
 11
369.6999999999897
 21
298.2000000001185
 31
0.0
  0
LINE
  5
1FCC
330
85F
100
AcDbEntity
  8
OUTLINE
100
AcDbLine
 10
369.6999999999897
 20
298.2000000001185
 30
0.0
 11
369.6999999999897
 21
295.2155592551126
 31
0.0
  0
LINE
  5
1FCD
330
85F
100
AcDbEntity
  8
OUTLINE
100
AcDbLine
 10
368.9000000000015
 20
7.46576963901225
 30
0.0
 11
368.9000000000015
 21
5.822279158660875
 31
0.0
  0
LINE
  5
1FCE
330
85F
100
AcDbEntity
  8
OUTLINE
100
AcDbLine
 10
368.9000000000015
 20
5.822279158660875
 30
0.0
 11
369.7000000000044
 21
5.822279158660875
 31
0.0
  0
LINE
  5
1FCF
330
85F
100
AcDbEntity
  8
OUTLINE
100
AcDbLine
 10
369.7000000000044
 20
7.46576963901225
 30
0.0
 11
368.9000000000015
 21
7.46576963901225
 31
0.0
  0
LINE
  5
1FD0
330
85F
100
AcDbEntity
  8
OUTLINE
100
AcDbLine
 10
369.6999999999897
 20
295.2155592551126
 30
0.0
 11
368.8999999999869
 21
295.2155592551126
 31
0.0
  0
LINE
  5
1FD1
330
85F
100
AcDbEntity
  8
OUTLINE
100
AcDbLine
 10
368.8999999999869
 20
295.2155592551126
 30
0.0
 11
368.9000000000015
 21
7.46576963901225
 31
0.0
  0
LINE
  5
1FD2
330
85F
100
AcDbEntity
  8
OUTLINE
100
AcDbLine
 10
369.7000000000044
 20
0.8999999999996362
 30
0.0
 11
370.172957795141
 21
0.8999999999996362
 31
0.0
  0
LINE
  5
1FD3
330
85F
100
AcDbEntity
  8
OUTLINE
100
AcDbLine
 10
370.172957795141
 20
0.8999999999996362
 30
0.0
 11
370.5000000000073
 21
0.8999999999996362
 31
0.0
  0
SPLINE
  5
1FD4
330
85F
100
AcDbEntity
  8
OUTLINE
100
AcDbSpline
210
0.0
220
0.0
230
1.0
 70
     8
 71
     3
 72
    11
 73
     7
 74
     0
 42
0.0000000001
 43
0.0000000001
 40
0.0
 40
0.0
 40
0.0
 40
0.0
 40
1.437607986812995
 40
1.437607986812995
 40
1.437607986812995
 40
1.570796326794897
 40
1.570796326794897
 40
1.570796326794897
 40
1.570796326794897
 10
370.5000000000073
 20
0.8999999999996362
 30
0.0
 10
370.5000000000073
 20
0.4687176039556107
 30
0.0
 10
370.1469781827109
 20
0.065242925885741
 30
0.0
 10
369.7195154233268
 20
0.0079708168500474
 30
0.0
 10
369.6799127946142
 20
0.0026647965723896
 30
0.0
 10
369.6399565020038
 20
-0.0000000000004547
 30
0.0
 10
369.6000000000058
 20
-0.0000000000004547
 30
0.0
  0
LINE
  5
1FD5
330
85F
100
AcDbEntity
  8
OUTLINE
100
AcDbLine
 10
369.6000000000058
 20
-0.0000000000004547
 30
0.0
 11
369.6000000000058
 21
0.7999999999992724
 31
0.0
  0
SPLINE
  5
1FD6
330
85F
100
AcDbEntity
  8
OUTLINE
100
AcDbSpline
210
0.0
220
0.0
230
1.0
 70
     8
 71
     3
 72
     8
 73
     4
 74
     0
 42
0.0000000001
 43
0.0000000001
 40
0.0
 40
0.0
 40
0.0
 40
0.0
 40
1.570796326794897
 40
1.570796326794897
 40
1.570796326794897
 40
1.570796326794897
 10
369.7000000000044
 20
0.8999999999996362
 30
0.0
 10
369.7000000000044
 20
0.8476401224397703
 30
0.0
 10
369.6523598775602
 20
0.7999999999997272
 30
0.0
 10
369.6000000000058
 20
0.7999999999992724
 30
0.0
  0
LINE
  5
1FD7
330
85F
100
AcDbEntity
  8
OUTLINE
100
AcDbLine
 10
369.599999999984
 20
298.2000000001189
 30
0.0
 11
369.4999999999927
 21
298.2000000001189
 31
0.0
  0
LINE
  5
1FD8
330
85F
100
AcDbEntity
  8
OUTLINE
100
AcDbLine
 10
369.4999999999927
 20
297.4000000001193
 30
0.0
 11
369.599999999984
 21
297.4000000001193
 31
0.0
  0
LINE
  5
1FD9
330
85F
100
AcDbEntity
  8
OUTLINE
100
AcDbLine
 10
369.599999999984
 20
297.4000000001193
 30
0.0
 11
369.599999999984
 21
298.2000000001189
 31
0.0
  0
ARC
  5
1FDA
330
85F
100
AcDbEntity
  8
OUTLINE
100
AcDbCircle
 10
369.599999999984
 20
297.3000000001189
 30
0.0
 40
0.1000000000000512
100
AcDbArc
 50
0.0
 51
90.0
  0
ARC
  5
1FDB
330
85F
100
AcDbEntity
  8
OUTLINE
100
AcDbCircle
 10
369.599999999984
 20
297.3000000001275
 30
0.0
 40
0.8999999999914718
100
AcDbArc
 50
83.62062979165044
 51
90.0
  0
LINE
  5
1FDC
330
85F
100
AcDbEntity
  8
OUTLINE
100
AcDbLine
 10
354.5000000000073
 20
0.7999999999983629
 30
0.0
 11
351.5000000000073
 21
0.7999999999988177
 31
0.0
  0
LINE
  5
1FDD
330
85F
100
AcDbEntity
  8
OUTLINE
100
AcDbLine
 10
351.5000000000073
 20
0.7999999999988177
 30
0.0
 11
351.5000000000073
 21
-0.0000000000009095
 31
0.0
  0
LINE
  5
1FDE
330
85F
100
AcDbEntity
  8
OUTLINE
100
AcDbLine
 10
351.5000000000073
 20
-0.0000000000009095
 30
0.0
 11
354.5000000000073
 21
-0.0000000000013642
 31
0.0
  0
LINE
  5
1FDF
330
85F
100
AcDbEntity
  8
OUTLINE
100
AcDbLine
 10
354.5000000000073
 20
-0.0000000000013642
 30
0.0
 11
354.5000000000073
 21
0.7999999999983629
 31
0.0
  0
LINE
  5
1FE0
330
85F
100
AcDbEntity
  8
OUTLINE
100
AcDbLine
 10
369.6000000000058
 20
0.7999999999992724
 30
0.0
 11
354.5000000000073
 21
0.7999999999983629
 31
0.0
  0
LINE
  5
1FE1
330
85F
100
AcDbEntity
  8
OUTLINE
100
AcDbLine
 10
369.6000000000058
 20
-0.0000000000004547
 30
0.0
 11
354.5000000000073
 21
-0.0000000000013642
 31
0.0
  0
LINE
  5
1FE2
330
85F
100
AcDbEntity
  8
OUTLINE
100
AcDbLine
 10
369.6000000000058
 20
1.366025404151514
 30
0.0
 11
369.6000000000058
 21
5.822279159020581
 31
0.0
  0
LINE
  5
1FE3
330
85F
100
AcDbEntity
  8
OUTLINE
100
AcDbLine
 10
369.599999999984
 20
295.2155592553113
 30
0.0
 11
369.599999999984
 21
297.4000000003162
 31
0.0
  0
ELLIPSE
  5
1FE4
330
85F
100
AcDbEntity
  8
OUTLINE
100
AcDbEllipse
 10
369.6000000000058
 20
1.316025404151332
 30
0.0
 11
0.0999999999999607
 21
-0.0000000000000018
 31
0.0
210
0.0
220
0.0
230
1.0
 40
0.5000000000002581
 41
0.0000000000005111
 42
1.570796326794904
  0
LINE
  5
1FE5
330
85F
100
AcDbEntity
  8
OUTLINE
100
AcDbLine
 10
369.6000000000058
 20
1.366025404151514
 30
0.0
 11
354.5000000000073
 21
1.366025404150603
 31
0.0
  0
LINE
  5
1FE6
330
85F
100
AcDbEntity
  8
OUTLINE
100
AcDbLine
 10
354.5000000000073
 20
1.366025404150603
 30
0.0
 11
354.4999999999927
 21
287.0000000003179
 31
0.0
  0
LINE
  5
1FE7
330
85F
100
AcDbEntity
  8
OUTLINE
100
AcDbLine
 10
-365.5000000000073
 20
287.0000000001192
 30
0.0
 11
-367.9000000000014
 21
289.4000000001038
 31
0.0
  0
LINE
  5
1FE8
330
85F
100
AcDbEntity
  8
OUTLINE
100
AcDbLine
 10
368.8999999999869
 20
289.4000000001188
 30
0.0
 11
366.4999999999927
 21
287.0000000001187
 31
0.0
  0
LINE
  5
1FE9
330
85F
100
AcDbEntity
  8
OUTLINE
100
AcDbLine
 10
-365.5000000000073
 20
287.0000000001192
 30
0.0
 11
-351.5100000000166
 21
287.0000000001187
 31
0.0
  0
LINE
  5
1FEA
330
85F
100
AcDbEntity
  8
OUTLINE
100
AcDbLine
 10
352.5099999999875
 20
287.0000000001187
 30
0.0
 11
366.4999999999927
 21
287.0000000001187
 31
0.0
  0
LINE
  5
1FEB
330
85F
100
AcDbEntity
  8
OUTLINE
100
AcDbLine
 10
369.4999999999927
 20
298.1000000001186
 30
0.0
 11
369.4999999999927
 21
295.215559255113
 31
0.0
  0
LINE
  5
1FEC
330
85F
100
AcDbEntity
  8
OUTLINE
100
AcDbLine
 10
-368.5000000000073
 20
298.100000000119
 30
0.0
 11
-368.5000000000073
 21
295.2220133252268
 31
0.0
  0
LINE
  5
1FED
330
85F
100
AcDbEntity
  8
OUTLINE
100
AcDbLine
 10
-351.5100000000166
 20
287.0000000001187
 30
0.0
 11
-351.5100000000166
 21
287.910000000119
 31
0.0
  0
LINE
  5
1FEE
330
85F
100
AcDbEntity
  8
OUTLINE
100
AcDbLine
 10
-351.5100000000166
 20
287.910000000119
 30
0.0
 11
-351.5000000000073
 21
287.910000000119
 31
0.0
  0
LINE
  5
1FEF
330
85F
100
AcDbEntity
  8
OUTLINE
100
AcDbLine
 10
-351.5000000000073
 20
287.910000000119
 30
0.0
 11
-351.5000000000073
 21
287.9000000001188
 31
0.0
  0
LINE
  5
1FF0
330
85F
100
AcDbEntity
  8
OUTLINE
100
AcDbLine
 10
-351.5000000000073
 20
287.9000000001188
 30
0.0
 11
352.4999999999927
 21
287.9000000001188
 31
0.0
  0
LINE
  5
1FF1
330
85F
100
AcDbEntity
  8
OUTLINE
100
AcDbLine
 10
352.4999999999927
 20
287.9000000001188
 30
0.0
 11
352.4999999999927
 21
287.9100000001185
 31
0.0
  0
LINE
  5
1FF2
330
85F
100
AcDbEntity
  8
OUTLINE
100
AcDbLine
 10
352.4999999999927
 20
287.9100000001185
 30
0.0
 11
352.5099999999875
 21
287.9100000001185
 31
0.0
  0
LINE
  5
1FF3
330
85F
100
AcDbEntity
  8
OUTLINE
100
AcDbLine
 10
352.5099999999875
 20
287.9100000001185
 30
0.0
 11
352.5099999999875
 21
287.0000000001187
 31
0.0
  0
LINE
  5
1FF4
330
85F
100
AcDbEntity
  8
OUTLINE
100
AcDbLine
 10
352.4999999999927
 20
287.0000000001187
 30
0.0
 11
-351.5000000000073
 21
287.0000000001192
 31
0.0
  0
LINE
  5
1FF5
330
85F
100
AcDbEntity
  8
OUTLINE
100
AcDbLine
 10
-351.5000000000073
 20
287.0000000001192
 30
0.0
 11
-351.5000000000073
 21
287.9000000001192
 31
0.0
  0
LINE
  5
1FF6
330
85F
100
AcDbEntity
  8
OUTLINE
100
AcDbLine
 10
352.4999999999927
 20
287.0000000001187
 30
0.0
 11
352.4999999999927
 21
287.9000000001188
 31
0.0
  0
LINE
  5
1FF7
330
85F
100
AcDbEntity
  8
OUTLINE
100
AcDbLine
 10
369.4999999999927
 20
298.1000000001186
 30
0.0
 11
-368.5000000000073
 21
298.100000000119
 31
0.0
  0
LINE
  5
1FF8
330
85F
100
AcDbEntity
  8
OUTLINE
100
AcDbLine
 10
-368.5000000000073
 20
298.1000000001186
 30
0.0
 11
-368.5000000000073
 21
299.0000000001187
 31
0.0
  0
LINE
  5
1FF9
330
85F
100
AcDbEntity
  8
OUTLINE
100
AcDbLine
 10
369.4999999999927
 20
298.1000000001182
 30
0.0
 11
369.4999999999927
 21
299.0000000001187
 31
0.0
  0
LINE
  5
1FFA
330
85F
100
AcDbEntity
  8
OUTLINE
100
AcDbLine
 10
-368.5000000000073
 20
299.0000000001187
 30
0.0
 11
369.4999999999927
 21
299.0000000001182
 31
0.0
  0
LINE
  5
1FFB
330
85F
100
AcDbEntity
  8
OUTLINE
100
AcDbLine
 10
369.5000000000074
 20
299.8630127021993
 30
0.0
 11
366.5000000000073
 21
299.8630127021979
 31
0.0
  0
LINE
  5
1FFC
330
85F
100
AcDbEntity
  8
OUTLINE
100
AcDbLine
 10
366.5000000000073
 20
299.8630127021979
 30
0.0
 11
366.5000000000073
 21
299.0630127021982
 31
0.0
  0
LINE
  5
1FFD
330
85F
100
AcDbEntity
  8
OUTLINE
100
AcDbLine
 10
366.5000000000073
 20
299.0630127021982
 30
0.0
 11
369.5000000000074
 21
299.0630127021992
 31
0.0
  0
LINE
  5
1FFE
330
85F
100
AcDbEntity
  8
OUTLINE
100
AcDbLine
 10
369.5000000000074
 20
299.0630127021992
 30
0.0
 11
369.5000000000074
 21
299.8630127021993
 31
0.0
  0
LINE
  5
1FFF
330
85F
100
AcDbEntity
  8
OUTLINE
100
AcDbLine
 10
-365.4999999999926
 20
299.0630127021609
 30
0.0
 11
-365.4999999999926
 21
299.8630127021611
 31
0.0
  0
LINE
  5
2000
330
85F
100
AcDbEntity
  8
OUTLINE
100
AcDbLine
 10
-365.4999999999926
 20
299.8630127021611
 30
0.0
 11
-368.4999999999927
 21
299.8630127021615
 31
0.0
  0
LINE
  5
2001
330
85F
100
AcDbEntity
  8
OUTLINE
100
AcDbLine
 10
-368.4999999999927
 20
299.8630127021615
 30
0.0
 11
-368.4999999999927
 21
299.0630127021618
 31
0.0
  0
LINE
  5
2002
330
85F
100
AcDbEntity
  8
OUTLINE
100
AcDbLine
 10
-368.4999999999927
 20
299.0630127021618
 30
0.0
 11
-365.4999999999926
 21
299.0630127021609
 31
0.0
  0
LINE
  5
2003
330
85F
100
AcDbEntity
  8
OUTLINE
100
AcDbLine
 10
366.5000000000073
 20
299.8630127021979
 30
0.0
 11
-365.4999999999926
 21
299.8630127021611
 31
0.0
  0
LINE
  5
2004
330
85F
100
AcDbEntity
  8
OUTLINE
100
AcDbLine
 10
366.5000000000073
 20
299.0630127021982
 30
0.0
 11
-365.4999999999926
 21
299.0630127021609
 31
0.0
  0
LINE
  5
2005
330
85F
100
AcDbEntity
  8
OUTLINE
100
AcDbLine
 10
-368.4999999999927
 20
299.0130127021666
 30
0.0
 11
-368.4999999999927
 21
299.0000000003157
 31
0.0
  0
LINE
  5
2006
330
85F
100
AcDbEntity
  8
OUTLINE
100
AcDbLine
 10
369.5000000000218
 20
0.9674831688776064
 30
0.0
 11
369.5000000000218
 21
1.366025404151969
 31
0.0
  0
LINE
  5
2007
330
85F
100
AcDbEntity
  8
OUTLINE
100
AcDbLine
 10
369.5000000000074
 20
299.0000000003151
 30
0.0
 11
369.5000000000074
 21
299.0130127022035
 31
0.0
  0
LINE
  5
2008
330
85F
100
AcDbEntity
  8
OUTLINE
100
AcDbLine
 10
351.5000000000073
 20
0.5174831688768791
 30
0.0
 11
-353.4999999999927
 21
0.5174831688414088
 31
0.0
  0
LINE
  5
2009
330
85F
100
AcDbEntity
  8
OUTLINE
100
AcDbLine
 10
369.5000000000218
 20
0.9674831688776064
 30
0.0
 11
369.5000000000218
 21
0.8000000003662535
 31
0.0
  0
LINE
  5
200A
330
85F
100
AcDbEntity
  8
OUTLINE
100
AcDbLine
 10
-353.4999999999927
 20
0.9674831688412266
 30
0.0
 11
369.5000000000218
 21
0.9674831688776064
 31
0.0
  0
LINE
  5
200B
330
85F
100
AcDbEntity
  8
OUTLINE
100
AcDbLine
 10
-368.4999999999927
 20
299.0630127021664
 30
0.0
 11
-368.4999999999927
 21
299.0130127021662
 31
0.0
  0
LINE
  5
200C
330
85F
100
AcDbEntity
  8
OUTLINE
100
AcDbLine
 10
369.5000000000074
 20
299.0130127022039
 30
0.0
 11
369.5000000000074
 21
299.0630127022037
 31
0.0
  0
LINE
  5
200D
330
85F
100
AcDbEntity
  8
OUTLINE
100
AcDbLine
 10
369.5000000000074
 20
299.0130127022035
 30
0.0
 11
-368.4999999999927
 21
299.0130127021666
 31
0.0
  0
LINE
  5
2261
330
85F
100
AcDbEntity
  8
SIZE
  6
Continuous
100
AcDbLine
 10
389.5000000000073
 20
299.8630127022001
 30
0.0
 11
593.6732275507019
 21
299.8630127022001
 31
0.0
  0
LINE
  5
2262
330
85F
100
AcDbEntity
  8
SIZE
  6
Continuous
100
AcDbLine
 10
389.6000000000058
 20
0.0000000000004491
 30
0.0
 11
593.6732275507019
 21
0.0000000000003913
 31
0.0
  0
LINE
  5
2263
330
85F
100
AcDbEntity
  8
SIZE
  6
Continuous
100
AcDbLine
 10
573.6732275507021
 20
287.8630127022002
 30
0.0
 11
573.6732275507018
 21
12.00000000000039
 31
0.0
  0
INSERT
  5
2264
330
85F
100
AcDbEntity
  8
SIZE
  6
Continuous
100
AcDbBlockReference
  2
_DOTBLANK
 10
573.6732275507021
 20
299.8630127022001
 30
0.0
 41
12.0
 42
12.0
 43
12.0
 50
90.0
  0
INSERT
  5
2265
330
85F
100
AcDbEntity
  8
SIZE
  6
Continuous
100
AcDbBlockReference
  2
_DOTBLANK
 10
573.6732275507018
 20
0.0000000000003969
 30
0.0
 41
12.0
 42
12.0
 43
12.0
 50
270.0
  0
MTEXT
  5
2266
330
85F
100
AcDbEntity
  8
SIZE
  6
Continuous
100
AcDbMText
 10
531.6732275507018
 20
149.9315063511003
 30
0.0
 40
64.0
 41
0.0
 71
     5
 72
     1
  1
\A1;300
 11
0.0000000000000001
 21
1.0
 31
0.0
 73
     1
 44
1.0
1001
ACAD
1000
MTEXTBEGIN
1070
    73
1070
     1
1070
    44
1040
1.0
1070
    74
1070
     0
1000
MTEXTEND
  0
LINE
  5
2267
330
85F
100
AcDbEntity
  8
SIZE
  6
Continuous
100
AcDbLine
 10
-388.5999999999985
 20
-5.99999999999863
 30
0.0
 11
-530.5104073534967
 21
-5.999999999998587
 31
0.0
  0
LINE
  5
2268
330
85F
100
AcDbEntity
  8
SIZE
  6
Continuous
100
AcDbLine
 10
-388.4999999999927
 20
299.8630127021625
 30
0.0
 11
-530.5104073534963
 21
299.8630127021625
 31
0.0
  0
LINE
  5
2269
330
85F
100
AcDbEntity
  8
SIZE
  6
Continuous
100
AcDbLine
 10
-510.5104073534967
 20
6.000000000001405
 30
0.0
 11
-510.5104073534967
 21
287.8630127021625
 31
0.0
  0
INSERT
  5
226A
330
85F
100
AcDbEntity
  8
SIZE
  6
Continuous
100
AcDbBlockReference
  2
_DOTBLANK
 10
-510.5104073534967
 20
-5.999999999998593
 30
0.0
 41
12.0
 42
12.0
 43
12.0
 50
270.0
  0
INSERT
  5
226B
330
85F
100
AcDbEntity
  8
SIZE
  6
Continuous
100
AcDbBlockReference
  2
_DOTBLANK
 10
-510.5104073534967
 20
299.8630127021625
 30
0.0
 41
12.0
 42
12.0
 43
12.0
 50
90.0
  0
MTEXT
  5
226C
330
85F
100
AcDbEntity
  8
SIZE
  6
Continuous
100
AcDbMText
 10
-552.5104073534967
 20
146.9315063510818
 30
0.0
 40
64.0
 41
0.0
 71
     5
 72
     1
  1
\A1;306
 11
0.0000000000000001
 21
1.0
 31
0.0
 73
     1
 44
1.0
1001
ACAD
1000
MTEXTBEGIN
1070
    73
1070
     1
1070
    44
1040
1.0
1070
    74
1070
     0
1000
MTEXTEND
  0
TEXT
  5
226D
330
85F
100
AcDbEntity
  8
NOTE
  6
Continuous
100
AcDbText
 10
-832.4091391666902
 20
-217.0879299939084
 30
0.0
 40
64.0
  1
9×φ6
 41
0.9
100
AcDbText
1001
ACAD
1000
MTEXTBEGIN
1070
    73
1070
     1
1070
    44
1040
1.0
1070
    74
1070
     0
1000
MTEXTEND
  0
INSERT
  5
226E
330
85F
100
AcDbEntity
  8
NOTE
100
AcDbBlockReference
  2
_Open30
 10
-361.0
 20
-5.999999999998633
 30
0.0
 41
12.0
 42
12.0
 43
12.0
 50
51.74128752597821
1001
ACAD
1000
DSTYLE
1002
{
1070
    41
1040
12.0
1070
    42
1040
20.0
1070
    43
1040
200.0
1070
    44
1040
20.0
1070
    73
1070
     0
1070
    74
1070
     0
1070
    77
1070
     1
1070
    78
1070
     8
1070
   140
1040
64.0
1070
   147
1040
50.0
1070
   172
1070
     1
1070
   174
1070
     1
1070
   275
1070
     0
1070
   284
1070
     0
1070
   285
1070
     0
1070
   286
1070
     0
1070
   341
1005
1A78
1070
   342
1005
AB2
1002
}
  0
LWPOLYLINE
  5
226F
330
85F
100
AcDbEntity
  8
NOTE
100
AcDbPolyline
 90
        3
 70
     0
 43
0.0
 10
-368.4305603021265
 20
-15.42267337842272
 10
-541.6548534524045
 20
-235.0879299939084
 10
-832.4091391666902
 20
-235.0879299939084
1001
ACAD
1000
DSTYLE
1002
{
1070
    41
1040
12.0
1070
    42
1040
20.0
1070
    43
1040
200.0
1070
    44
1040
20.0
1070
    73
1070
     0
1070
    74
1070
     0
1070
    77
1070
     1
1070
    78
1070
     8
1070
   140
1040
64.0
1070
   147
1040
50.0
1070
   172
1070
     1
1070
   174
1070
     1
1070
   275
1070
     0
1070
   284
1070
     0
1070
   285
1070
     0
1070
   286
1070
     0
1070
   341
1005
1A78
1070
   342
1005
AB2
1002
}
  0
LINE
  5
2270
330
85F
100
AcDbEntity
  8
SIZE
  6
Continuous
100
AcDbLine
 10
24.0
 20
-26.9825168311545
 30
0.0
 11
23.99999999999999
 21
-143.5667987319043
 31
0.0
  0
LINE
  5
2271
330
85F
100
AcDbEntity
  8
SIZE
  6
Continuous
100
AcDbLine
 10
352.8000000000029
 20
-27.49999999999727
 30
0.0
 11
352.8000000000029
 21
-143.5667987319043
 31
0.0
  0
LINE
  5
2272
330
85F
100
AcDbEntity
  8
SIZE
  6
Continuous
100
AcDbLine
 10
36.0
 20
-123.5667987319043
 30
0.0
 11
340.8000000000029
 21
-123.5667987319043
 31
0.0
  0
INSERT
  5
2273
330
85F
100
AcDbEntity
  8
SIZE
  6
Continuous
100
AcDbBlockReference
  2
_DOTBLANK
 10
23.99999999999999
 20
-123.5667987319043
 30
0.0
 41
12.0
 42
12.0
 43
12.0
 50
180.0
  0
INSERT
  5
2274
330
85F
100
AcDbEntity
  8
SIZE
  6
Continuous
100
AcDbBlockReference
  2
_DOTBLANK
 10
352.8000000000029
 20
-123.5667987319043
 30
0.0
 41
12.0
 42
12.0
 43
12.0
  0
MTEXT
  5
2275
330
85F
100
AcDbEntity
  8
SIZE
  6
Continuous
100
AcDbMText
 10
188.4000000000014
 20
-81.56679873190432
 30
0.0
 40
64.0
 41
0.0
 71
     5
 72
     1
  1
\A1;329
 73
     1
 44
1.0
1001
ACAD
1000
MTEXTBEGIN
1070
    73
1070
     1
1070
    44
1040
1.0
1070
    74
1070
     0
1000
MTEXTEND
  0
LINE
  5
2276
330
85F
100
AcDbEntity
  8
SIZE
  6
Continuous
100
AcDbLine
 10
24.0
 20
-26.9825168311545
 30
0.0
 11
23.99999999999999
 21
-143.5667987319043
 31
0.0
  0
LINE
  5
2277
330
85F
100
AcDbEntity
  8
SIZE
  6
Continuous
100
AcDbLine
 10
-280.0
 20
-26.9825168311545
 30
0.0
 11
-280.0
 21
-143.5667987319043
 31
0.0
  0
LINE
  5
2278
330
85F
100
AcDbEntity
  8
SIZE
  6
Continuous
100
AcDbLine
 10
11.99999999999999
 20
-123.5667987319043
 30
0.0
 11
-268.0
 21
-123.5667987319043
 31
0.0
  0
INSERT
  5
2279
330
85F
100
AcDbEntity
  8
SIZE
  6
Continuous
100
AcDbBlockReference
  2
_DOTBLANK
 10
23.99999999999999
 20
-123.5667987319043
 30
0.0
 41
12.0
 42
12.0
 43
12.0
  0
INSERT
  5
227A
330
85F
100
AcDbEntity
  8
SIZE
  6
Continuous
100
AcDbBlockReference
  2
_DOTBLANK
 10
-280.0
 20
-123.5667987319043
 30
0.0
 41
12.0
 42
12.0
 43
12.0
 50
180.0
  0
MTEXT
  5
227B
330
85F
100
AcDbEntity
  8
SIZE
  6
Continuous
100
AcDbMText
 10
-128.0
 20
-81.56679873190432
 30
0.0
 40
64.0
 41
0.0
 71
     5
 72
     1
  1
\A1;304
 73
     1
 44
1.0
1001
ACAD
1000
MTEXTBEGIN
1070
    73
1070
     1
1070
    44
1040
1.0
1070
    74
1070
     0
1000
MTEXTEND
  0
LINE
  5
227C
330
85F
100
AcDbEntity
  8
SIZE
  6
Continuous
100
AcDbLine
 10
-369.5
 20
-25.09999999999855
 30
0.0
 11
-369.5
 21
-404.1291203845226
 31
0.0
  0
LINE
  5
227D
330
85F
100
AcDbEntity
  8
SIZE
  6
Continuous
100
AcDbLine
 10
370.5000000000073
 20
-19.09999999999945
 30
0.0
 11
370.5000000000073
 21
-404.1291203845226
 31
0.0
  0
LINE
  5
227E
330
85F
100
AcDbEntity
  8
SIZE
  6
Continuous
100
AcDbLine
 10
-357.5
 20
-384.1291203845226
 30
0.0
 11
358.5000000000073
 21
-384.1291203845226
 31
0.0
  0
INSERT
  5
227F
330
85F
100
AcDbEntity
  8
SIZE
  6
Continuous
100
AcDbBlockReference
  2
_DOTBLANK
 10
-369.5
 20
-384.1291203845226
 30
0.0
 41
12.0
 42
12.0
 43
12.0
 50
180.0
  0
INSERT
  5
2280
330
85F
100
AcDbEntity
  8
SIZE
  6
Continuous
100
AcDbBlockReference
  2
_DOTBLANK
 10
370.5000000000073
 20
-384.1291203845226
 30
0.0
 41
12.0
 42
12.0
 43
12.0
  0
MTEXT
  5
2281
330
85F
100
AcDbEntity
  8
SIZE
  6
Continuous
100
AcDbMText
 10
0.5000000000072787
 20
-342.1291203845227
 30
0.0
 40
64.0
 41
0.0
 71
     5
 72
     1
  1
\A1;740
 73
     1
 44
1.0
1001
ACAD
1000
MTEXTBEGIN
1070
    73
1070
     1
1070
    44
1040
1.0
1070
    74
1070
     0
1000
MTEXTEND
  0
LINE
  5
2282
330
85F
100
AcDbEntity
  8
SIZE
  6
Continuous
100
AcDbLine
 10
-361.0
 20
-33.49999999999726
 30
0.0
 11
-361.0
 21
-279.2238326064412
 31
0.0
  0
LINE
  5
2283
330
85F
100
AcDbEntity
  8
SIZE
  6
Continuous
100
AcDbLine
 10
361.0
 20
-27.49999999999727
 30
0.0
 11
361.0
 21
-279.2238326064412
 31
0.0
  0
LINE
  5
2284
330
85F
100
AcDbEntity
  8
SIZE
  6
Continuous
100
AcDbLine
 10
-349.0
 20
-259.2238326064412
 30
0.0
 11
349.0
 21
-259.2238326064412
 31
0.0
  0
INSERT
  5
2285
330
85F
100
AcDbEntity
  8
SIZE
  6
Continuous
100
AcDbBlockReference
  2
_DOTBLANK
 10
-361.0
 20
-259.2238326064412
 30
0.0
 41
12.0
 42
12.0
 43
12.0
 50
180.0
  0
INSERT
  5
2286
330
85F
100
AcDbEntity
  8
SIZE
  6
Continuous
100
AcDbBlockReference
  2
_DOTBLANK
 10
361.0
 20
-259.2238326064412
 30
0.0
 41
12.0
 42
12.0
 43
12.0
  0
MTEXT
  5
2287
330
85F
100
AcDbEntity
  8
SIZE
  6
Continuous
100
AcDbMText
 10
0.0000000000000026
 20
-217.2238326064412
 30
0.0
 40
64.0
 41
0.0
 71
     5
 72
     1
  1
\A1;722
 73
     1
 44
1.0
1001
ACAD
1000
MTEXTBEGIN
1070
    73
1070
     1
1070
    44
1040
1.0
1070
    74
1070
     0
1000
MTEXTEND
  0
ENDSEC
  0
SECTION
  2
OBJECTS
  0
DICTIONARY
  5
84D
330
0
100
AcDbDictionary
281
     1
  3
ACAD_2007HEADERVARS_RT
350
228A
  3
ACAD_COLOR
350
15E9
  3
ACAD_GROUP
350
84E
  3
ACAD_LAYOUT
350
85A
  3
ACAD_MATERIAL
350
15E8
  3
ACAD_MLEADERSTYLE
350
18B5
  3
ACAD_MLINESTYLE
350
857
  3
ACAD_PLOTSETTINGS
350
859
  3
ACAD_PLOTSTYLENAME
350
B82
  3
ACAD_SCALELIST
350
1893
  3
ACAD_TABLESTYLE
350
15EA
  3
ACAD_VISUALSTYLE
350
1882
  3
AcadDim
350
1003
  3
ACDB_RECOMPOSE_DATA
350
1927
  3
AcDbVariableDictionary
350
B87
  3
AcmDictionary
350
16B0
  3
AMG
350
15EF
  3
AMGSNAPSETTINGS
350
171E
  3
DWGPROPS
350
2289
1001
ACAD
1000
TREAT_AS_HARD
1070
     0
  0
DICTIONARY
  5
1AA7
330
843
100
AcDbDictionary
280
     1
281
     1
  3
ACAD_LAYERSTATES
360
1AA8
  0
DICTIONARY
  5
190C
330
851
100
AcDbDictionary
280
     1
281
     1
  3
ADSK_XREC_LAYER_RECONCILED
360
190D
  0
DICTIONARY
  5
190E
330
863
100
AcDbDictionary
280
     1
281
     1
  3
ADSK_XREC_LAYER_RECONCILED
360
190F
  0
DICTIONARY
  5
1910
330
866
100
AcDbDictionary
280
     1
281
     1
  3
ADSK_XREC_LAYER_RECONCILED
360
1911
  0
DICTIONARY
  5
1912
330
867
100
AcDbDictionary
280
     1
281
     1
  3
ADSK_XREC_LAYER_RECONCILED
360
1913
  0
DICTIONARY
  5
1914
330
868
100
AcDbDictionary
280
     1
281
     1
  3
ADSK_XREC_LAYER_RECONCILED
360
1915
  0
DICTIONARY
  5
1916
330
869
100
AcDbDictionary
280
     1
281
     1
  3
ADSK_XREC_LAYER_RECONCILED
360
1917
  0
DICTIONARY
  5
1918
330
86B
100
AcDbDictionary
280
     1
281
     1
  3
ADSK_XREC_LAYER_RECONCILED
360
1919
  0
DICTIONARY
  5
191A
330
86C
100
AcDbDictionary
280
     1
281
     1
  3
ADSK_XREC_LAYER_RECONCILED
360
191B
  0
DICTIONARY
  5
191C
330
86D
100
AcDbDictionary
280
     1
281
     1
  3
ADSK_XREC_LAYER_RECONCILED
360
191D
  0
DICTIONARY
  5
191E
330
86E
100
AcDbDictionary
280
     1
281
     1
  3
ADSK_XREC_LAYER_RECONCILED
360
191F
  0
DICTIONARY
  5
1920
330
86F
100
AcDbDictionary
280
     1
281
     1
  3
ADSK_XREC_LAYER_RECONCILED
360
1921
  0
DICTIONARY
  5
B4F
330
85F
100
AcDbDictionary
280
     1
281
     1
  3
ACAD_INDEX
360
1706
  3
ACAD_LAYOUTSELFREF
360
B50
  3
ACAD_SORTENTS
360
18F0
  0
DICTIONARY
  5
B4D
330
85B
100
AcDbDictionary
280
     1
281
     1
  3
ACAD_LAYOUTSELFREF
360
B4E
  0
DICTIONARY
  5
228A
102
{ACAD_REACTORS
330
84D
102
}
330
84D
100
AcDbDictionary
281
     1
  3
DIMARCSYM
350
228B
  3
DIMLTEX1
350
228D
  3
DIMLTEX2
350
228E
  3
DIMLTYPE
350
228C
  0
DICTIONARY
  5
15E9
102
{ACAD_REACTORS
330
84D
102
}
330
84D
100
AcDbDictionary
281
     1
  0
DICTIONARY
  5
84E
102
{ACAD_REACTORS
330
84D
102
}
330
84D
100
AcDbDictionary
281
     1
1001
ACAD
1000
TREAT_AS_HARD
1070
     0
  0
DICTIONARY
  5
85A
102
{ACAD_REACTORS
330
84D
102
}
330
84D
100
AcDbDictionary
281
     1
  3
Model
350
B84
  3
ﾚｲｱｳﾄ1
350
B85
1001
ACAD
1000
TREAT_AS_HARD
1070
     0
  0
DICTIONARY
  5
15E8
102
{ACAD_REACTORS
330
84D
102
}
330
84D
100
AcDbDictionary
281
     1
  3
ByBlock
350
1872
  3
ByLayer
350
186A
  3
Global
350
187A
  0
DICTIONARY
  5
18B5
102
{ACAD_REACTORS
330
84D
102
}
330
84D
100
AcDbDictionary
281
     1
  3
Standard
350
18B6
  0
DICTIONARY
  5
857
102
{ACAD_REACTORS
330
84D
102
}
330
84D
100
AcDbDictionary
281
     1
  3
STANDARD
350
858
1001
ACAD
1000
TREAT_AS_HARD
1070
     0
  0
DICTIONARY
  5
859
102
{ACAD_REACTORS
330
84D
102
}
330
84D
100
AcDbDictionary
281
     1
1001
ACAD
1000
TREAT_AS_HARD
1070
     0
  0
ACDBDICTIONARYWDFLT
  5
B82
102
{ACAD_REACTORS
330
84D
102
}
330
84D
100
AcDbDictionary
281
     1
  3
Normal
350
B83
100
AcDbDictionaryWithDefault
340
B83
  0
DICTIONARY
  5
1893
102
{ACAD_REACTORS
330
84D
102
}
330
84D
100
AcDbDictionary
281
     1
  3
A0
350
1894
  3
A1
350
1895
  3
A2
350
1896
  3
A3
350
1897
  3
A4
350
1898
  3
A5
350
1899
  3
A6
350
189A
  3
A7
350
189B
  3
A8
350
189C
  3
A9
350
189D
  3
B0
350
189E
  3
B1
350
189F
  3
B2
350
18A0
  3
B3
350
18A1
  3
B4
350
18A2
  3
B5
350
18A3
  3
B6
350
18A4
  3
B7
350
18A5
  3
B8
350
18A6
  3
B9
350
18A7
  3
C0
350
18A8
  3
C1
350
18A9
  3
C2
350
18AA
  3
C3
350
18AB
  3
C4
350
18AC
  3
C5
350
18AD
  3
C6
350
18AE
  3
C7
350
18AF
  3
C8
350
18B0
  3
C9
350
18B1
  3
D0
350
18B2
  3
D1
350
18B3
  3
D2
350
18B4
  0
DICTIONARY
  5
15EA
102
{ACAD_REACTORS
330
84D
102
}
330
84D
100
AcDbDictionary
281
     1
  3
Standard
350
15EB
  0
DICTIONARY
  5
1882
102
{ACAD_REACTORS
330
84D
102
}
330
84D
100
AcDbDictionary
281
     1
  3
2dWireframe
350
1888
  3
3D Hidden
350
188A
  3
3dWireframe
350
1889
  3
Basic
350
1887
  3
Brighten
350
188E
  3
ColorChange
350
1892
  3
Conceptual
350
188B
  3
Dim
350
188D
  3
Facepattern
350
1891
  3
Flat
350
1883
  3
FlatWithEdges
350
1884
  3
Gouraud
350
1885
  3
GouraudWithEdges
350
1886
  3
Linepattern
350
1890
  3
Realistic
350
188C
  3
Thicken
350
188F
  0
XRECORD
  5
1003
102
{ACAD_REACTORS
330
84D
102
}
330
84D
100
AcDbXrecord
280
     1
 90
   990106
  3

 60
     0
 61
     0
 62
     1
 63
     3
 64
     0
 65
     0
 66
     0
 67
     3
 68
     1
 69
     0
 70
     0
 71
     0
 72
     0
 40
0.0
170
     0
340
0
  0
XRECORD
  5
1927
102
{ACAD_REACTORS
330
84D
102
}
330
84D
100
AcDbXrecord
280
     1
 90
        1
330
15EB
  0
DICTIONARY
  5
B87
102
{ACAD_REACTORS
330
84D
102
}
330
84D
100
AcDbDictionary
281
     1
  3
CANNOSCALE
350
1923
  3
CMLEADERSTYLE
350
1922
  3
CTABLESTYLE
350
1714
  3
DIMASSOC
350
B88
  3
INDEXCTL
350
1715
  3
PROJECTNAME
350
1716
  3
SORTENTS
350
1924
  0
DICTIONARY
  5
16B0
102
{ACAD_REACTORS
330
84D
102
}
330
84D
100
AcDbDictionary
281
     1
  3
AcmStdDictionary
350
16BC
  3
AMDTSECTSYM_ARROWCOLOR
350
16DC
  0
DICTIONARY
  5
15EF
102
{ACAD_REACTORS
330
84D
102
}
330
84D
100
AcDbDictionary
281
     1
  3
AcMgSettings
350
15F0
  0
DICTIONARY
  5
171E
102
{ACAD_REACTORS
330
84D
102
}
330
84D
100
AcDbDictionary
281
     1
  3
DIMENSION
350
1723
  3
FEA
350
1722
  3
HATCH (1)
350
171F
  3
HATCH (2)
350
1720
  3
SIMPLE WELD
350
1724
  3
SYMBOLS
350
1721
  0
XRECORD
  5
2289
102
{ACAD_REACTORS
330
84D
102
}
330
84D
100
AcDbXrecord
280
     1
  1
DWGPROPS COOKIE
  2

  3

  4

  6

  7

  8
A988006
  9

300
AmdtFileType=84
301
=
302
=
303
=
304
=
305
=
306
=
307
=
308
=
309
=
 40
0.8349495023148147
 41
2452321.396199653
 42
2456533.545786435
  1

 90
        1
  0
DICTIONARY
  5
1AA8
102
{ACAD_REACTORS
330
1AA7
102
}
330
1AA7
100
AcDbDictionary
281
     1
  0
XRECORD
  5
190D
102
{ACAD_REACTORS
330
190C
102
}
330
190C
100
AcDbXrecord
280
     1
290
     1
  0
XRECORD
  5
190F
102
{ACAD_REACTORS
330
190E
102
}
330
190E
100
AcDbXrecord
280
     1
290
     1
  0
XRECORD
  5
1911
102
{ACAD_REACTORS
330
1910
102
}
330
1910
100
AcDbXrecord
280
     1
290
     1
  0
XRECORD
  5
1913
102
{ACAD_REACTORS
330
1912
102
}
330
1912
100
AcDbXrecord
280
     1
290
     1
  0
XRECORD
  5
1915
102
{ACAD_REACTORS
330
1914
102
}
330
1914
100
AcDbXrecord
280
     1
290
     1
  0
XRECORD
  5
1917
102
{ACAD_REACTORS
330
1916
102
}
330
1916
100
AcDbXrecord
280
     1
290
     1
  0
XRECORD
  5
1919
102
{ACAD_REACTORS
330
1918
102
}
330
1918
100
AcDbXrecord
280
     1
290
     1
  0
XRECORD
  5
191B
102
{ACAD_REACTORS
330
191A
102
}
330
191A
100
AcDbXrecord
280
     1
290
     1
  0
XRECORD
  5
191D
102
{ACAD_REACTORS
330
191C
102
}
330
191C
100
AcDbXrecord
280
     1
290
     1
  0
XRECORD
  5
191F
102
{ACAD_REACTORS
330
191E
102
}
330
191E
100
AcDbXrecord
280
     1
290
     1
  0
XRECORD
  5
1921
102
{ACAD_REACTORS
330
1920
102
}
330
1920
100
AcDbXrecord
280
     1
290
     1
  0
DICTIONARY
  5
1706
102
{ACAD_REACTORS
330
B4F
102
}
330
B4F
100
AcDbDictionary
281
     1
  3
*A1
350
1707
  0
XRECORD
  5
B50
102
{ACAD_REACTORS
330
B4F
102
}
330
B4F
100
AcDbXrecord
280
     1
340
85F
  0
SORTENTSTABLE
  5
18F0
102
{ACAD_REACTORS
330
B4F
102
}
330
B4F
100
AcDbSortentsTable
330
85F
331
1FAC
  5
1FD3
331
1FBD
  5
1FE4
331
1FCE
  5
1FF5
331
1FDF
  5
2006
331
1FF0
  5
226A
331
2001
  5
227B
331
1F99
  5
1FBF
331
227C
  5
1FAC
331
226B
  5
1F98
331
1F80
  5
1F80
331
1F6F
  5
1F6F
331
1F5E
  5
1F5E
331
1F4D
  5
1F4D
331
1F3C
  5
1F3C
331
1F2B
  5
1F2B
331
1FAD
  5
1FD4
331
1FBE
  5
1FE5
331
1FCF
  5
1FF6
331
1FE0
  5
2007
331
1FF1
  5
226B
331
2002
  5
227C
331
1F9A
  5
1FC0
331
227D
  5
1FAD
331
226C
  5
1F99
331
1F81
  5
1F81
331
1F70
  5
1F70
331
1F5F
  5
1F5F
331
1F4E
  5
1F4E
331
1F3D
  5
1F3D
331
1F2C
  5
1F2C
331
1FAE
  5
1FD5
331
1FBF
  5
1FE6
331
1FD0
  5
1FF7
331
1FE1
  5
2008
331
1FF2
  5
226C
331
2003
  5
227D
331
1F9B
  5
1FC1
331
226D
  5
1FC4
331
227E
  5
1FAE
331
1F82
  5
1F82
331
1F71
  5
1F71
331
1F60
  5
1F60
331
1F4F
  5
1F4F
331
1F3E
  5
1F3E
331
1F2D
  5
1F2D
331
1FAF
  5
1FD6
331
1FC0
  5
1FE7
331
1FD1
  5
1FF8
331
1FE2
  5
2009
331
2004
  5
227E
331
1FF3
  5
226D
331
226E
  5
1FC2
331
227F
  5
1FAF
331
1F83
  5
1F83
331
1F72
  5
1F72
331
1F61
  5
1F61
331
1F50
  5
1F50
331
1F3F
  5
1F3F
331
1F2E
  5
1F2E
331
2280
  5
1FB0
331
1FB0
  5
1FD7
331
1FC1
  5
1FE8
331
1FD2
  5
1FF9
331
1FE3
  5
200A
331
2005
  5
227F
331
1FF4
  5
226E
331
226F
  5
1FC3
331
1F84
  5
1F84
331
1F73
  5
1F73
331
1F62
  5
1F62
331
1F51
  5
1F51
331
1F40
  5
1F40
331
1F2F
  5
1F2F
331
2270
  5
1FB8
331
2281
  5
1FB1
331
1FB1
  5
1FD8
331
1FC2
  5
1FE9
331
1FD3
  5
1FFA
331
1FE4
  5
200B
331
1FF5
  5
226F
331
2006
  5
2280
331
1F9E
  5
1FC5
331
1F85
  5
1F85
331
1F74
  5
1F74
331
1F63
  5
1F63
331
1F52
  5
1F52
331
1F41
  5
1F41
331
1F30
  5
1F30
331
2271
  5
1FB9
331
2282
  5
1FA4
331
1FB2
  5
1FD9
331
1FC3
  5
1FEA
331
1FD4
  5
1FFB
331
1FE5
  5
200C
331
1FF6
  5
2270
331
2007
  5
2281
331
1F9F
  5
1FC6
331
1F86
  5
1F86
331
1F75
  5
1F75
331
1F64
  5
1F64
331
1F53
  5
1F53
331
1F42
  5
1F42
331
1F31
  5
1F31
331
1FA0
  5
1FC7
331
2272
  5
1FBA
331
2008
  5
2282
331
2283
  5
1FA5
331
2261
  5
1F9A
331
1FB3
  5
1FDA
331
1FC4
  5
1FEB
331
1FD5
  5
1FFC
331
1FE6
  5
200D
331
1FF7
  5
2271
331
1F87
  5
1F87
331
1F76
  5
1F76
331
1F65
  5
1F65
331
1F54
  5
1F54
331
1F43
  5
1F43
331
1F32
  5
1F32
331
1FF8
  5
2272
331
1FA1
  5
1FC8
331
1F88
  5
1F88
331
2273
  5
1FBB
331
2009
  5
2283
331
2284
  5
1FA6
331
2262
  5
1F9B
331
1FB4
  5
1FDB
331
1FC5
  5
1FEC
331
1FD6
  5
1FFD
331
1FE7
  5
2261
331
1F77
  5
1F77
331
1F66
  5
1F66
331
1F55
  5
1F55
331
1F44
  5
1F44
331
1F33
  5
1F33
331
1F21
  5
1F21
331
1FE8
  5
2262
331
1FF9
  5
2273
331
1FA2
  5
1FC9
331
1F89
  5
1F89
331
1F78
  5
1F78
331
2274
  5
1FBC
331
200A
  5
2284
331
2285
  5
1FA7
331
2263
  5
1F9C
331
1FB5
  5
1FDC
331
1FC6
  5
1FED
331
1FD7
  5
1FFE
331
1F67
  5
1F67
331
1F56
  5
1F56
331
1F45
  5
1F45
331
1F34
  5
1F34
331
1F22
  5
1F22
331
1FD8
  5
1FFF
331
1FE9
  5
2263
331
1FFA
  5
2274
331
1FA3
  5
1FCA
331
1F8A
  5
1F8A
331
1F79
  5
1F79
331
1F68
  5
1F68
331
2275
  5
1FBD
331
200B
  5
2285
331
2286
  5
1FAA
331
2264
  5
1F9D
331
1FB6
  5
1FDD
331
1FC7
  5
1FEE
331
1F57
  5
1F57
331
1F46
  5
1F46
331
1F35
  5
1F35
331
1F23
  5
1F23
331
1FC8
  5
1FEF
331
1FD9
  5
2000
331
1FEA
  5
2264
331
1FFB
  5
2275
331
1FA4
  5
1FCB
331
1F8B
  5
1F8B
331
1F7A
  5
1F7A
331
1F69
  5
1F69
331
1F58
  5
1F58
331
2276
  5
1FB2
331
2287
  5
1FAB
331
2265
  5
1F9E
331
1F24
  5
1F24
331
200C
  5
2286
331
1FB7
  5
1FDE
331
1F47
  5
1F47
331
1F36
  5
1F36
331
953
  5
953
331
1FB8
  5
1FDF
331
1FC9
  5
1FF0
331
1FDA
  5
2001
331
1FEB
  5
2265
331
1FFC
  5
2276
331
1FA5
  5
1FCC
331
1F8C
  5
1F8C
331
1F7B
  5
1F7B
331
1F6A
  5
1F6A
331
1F59
  5
1F59
331
1F48
  5
1F48
331
2277
  5
1FB3
331
2266
  5
1F9F
331
1F25
  5
1F25
331
200D
  5
2287
331
1F37
  5
1F37
331
954
  5
954
331
1FA8
  5
1FCF
331
1F90
  5
1F90
331
1FB9
  5
1FE0
331
1FCA
  5
1FF1
331
1FDB
  5
2002
331
1FEC
  5
2266
331
1FFD
  5
2277
331
1FA6
  5
1FCD
331
1F8D
  5
1F8D
331
1F7C
  5
1F7C
331
1F6B
  5
1F6B
331
1F5A
  5
1F5A
331
1F49
  5
1F49
331
1F38
  5
1F38
331
2278
  5
1FB4
331
2267
  5
1F94
331
1F26
  5
1F26
331
955
  5
955
331
1FA9
  5
1FD0
331
1F91
  5
1F91
331
1FBA
  5
1FE1
331
1FCB
  5
1FF2
331
1FDC
  5
2003
331
1FED
  5
2267
331
1FFE
  5
2278
331
1FA7
  5
1FCE
331
1F8E
  5
1F8E
331
1F7D
  5
1F7D
331
1F6C
  5
1F6C
331
1F5B
  5
1F5B
331
1F4A
  5
1F4A
331
1F39
  5
1F39
331
1F28
  5
1F28
331
2279
  5
1FB5
331
2268
  5
1F95
331
1F27
  5
1F27
331
956
  5
956
331
1FAA
  5
1FD1
331
1FBB
  5
1FE2
331
1FCC
  5
1FF3
331
1FDD
  5
2004
331
1FEE
  5
2268
331
1FFF
  5
2279
331
227A
  5
1FB6
331
2269
  5
1F96
331
1F8F
  5
1F8F
331
1F7E
  5
1F7E
331
1F6D
  5
1F6D
331
1F5C
  5
1F5C
331
1F4B
  5
1F4B
331
1F3A
  5
1F3A
331
1F29
  5
1F29
331
957
  5
957
331
1FAB
  5
1FD2
331
1FBC
  5
1FE3
331
1FCD
  5
1FF4
331
1FDE
  5
2005
331
1FEF
  5
2269
331
2000
  5
227A
331
1F98
  5
1FBE
331
227B
  5
1FB7
331
226A
  5
1F97
331
1F7F
  5
1F7F
331
1F6E
  5
1F6E
331
1F5D
  5
1F5D
331
1F4C
  5
1F4C
331
1F3B
  5
1F3B
331
1F2A
  5
1F2A
331
958
  5
958
  0
XRECORD
  5
B4E
102
{ACAD_REACTORS
330
B4D
102
}
330
B4D
100
AcDbXrecord
280
     1
340
85B
  0
XRECORD
  5
228B
102
{ACAD_REACTORS
330
228A
102
}
330
228A
100
AcDbXrecord
280
     1
 70
     1
  0
XRECORD
  5
228D
102
{ACAD_REACTORS
330
228A
102
}
330
228A
100
AcDbXrecord
280
     1
340
854
  0
XRECORD
  5
228E
102
{ACAD_REACTORS
330
228A
102
}
330
228A
100
AcDbXrecord
280
     1
340
854
  0
XRECORD
  5
228C
102
{ACAD_REACTORS
330
228A
102
}
330
228A
100
AcDbXrecord
280
     1
340
854
  0
LAYOUT
  5
B84
102
{ACAD_XDICTIONARY
360
228F
102
}
102
{ACAD_REACTORS
330
85A
102
}
330
85A
100
AcDbPlotSettings
  1

  2
none_device
  4
Letter_(8.50_x_11.00_Inches)
  6

 40
6.349999904632567
 41
6.349999904632567
 42
6.350006103515625
 43
6.350006103515625
 44
215.8999938964844
 45
279.3999938964844
 46
0.0
 47
0.0
 48
0.0
 49
0.0
140
0.0
141
0.0
142
1.0
143
147.2292326411557
 70
 11952
 72
     0
 73
     1
 74
     0
  7
monochrome.ctb
 75
     0
147
0.0067921294029788
148
22185.39826845973
149
21252.99217902705
100
AcDbLayout
  1
Model
 70
     1
 71
     0
 10
0.0
 20
0.0
 11
12.0
 21
9.0
 12
0.0
 22
0.0
 32
0.0
 14
0.0
 24
0.0
 34
0.0
 15
0.0
 25
0.0
 35
0.0
146
0.0
 13
0.0
 23
0.0
 33
0.0
 16
1.0
 26
0.0
 36
0.0
 17
0.0
 27
1.0
 37
0.0
 76
     0
330
85F
331
185F
1001
ACAD_PSEXT
1000
なし
1000
なし
1000
適切ではありません
1000
新しいプロッタ環境設定名を選択しない限り、レイアウトは印刷されません。
1070
     0
  0
LAYOUT
  5
B85
102
{ACAD_XDICTIONARY
360
2291
102
}
102
{ACAD_REACTORS
330
85A
102
}
330
85A
100
AcDbPlotSettings
  1

  2
\\Server02\EPSON LP-9600SPD (3F)
  4

  6

 40
0.0
 41
0.0
 42
0.0
 43
0.0
 44
0.0
 45
0.0
 46
0.0
 47
0.0
 48
0.0
 49
0.0
140
0.0
141
0.0
142
1.0
143
1.0
 70
   688
 72
     0
 73
     0
 74
     5
  7
monochrome.ctb
 75
    16
147
1.0
148
0.0
149
0.0
100
AcDbLayout
  1
ﾚｲｱｳﾄ1
 70
     1
 71
     1
 10
0.0
 20
0.0
 11
12.0
 21
9.0
 12
0.0
 22
0.0
 32
0.0
 14
1.000000000000000E+20
 24
1.000000000000000E+20
 34
1.000000000000000E+20
 15
-1.000000000000000E+20
 25
-1.000000000000000E+20
 35
-1.000000000000000E+20
146
0.0
 13
0.0
 23
0.0
 33
0.0
 16
1.0
 26
0.0
 36
0.0
 17
0.0
 27
1.0
 37
0.0
 76
     0
330
85B
  0
MATERIAL
  5
1872
102
{ACAD_XDICTIONARY
360
1873
102
}
102
{ACAD_REACTORS
330
15E8
102
}
330
15E8
100
AcDbMaterial
  1
ByBlock
 72
     0
 43
0.0208333333333333
 43
0.0
 43
0.0
 43
0.0
 43
0.0
 43
0.0208333333333333
 43
0.0
 43
0.0
 43
0.0
 43
0.0
 43
1.0
 43
0.0
 43
0.0
 43
0.0
 43
0.0
 43
1.0
 77
     0
 47
0.0208333333333333
 47
0.0
 47
0.0
 47
0.0
 47
0.0
 47
0.0208333333333333
 47
0.0
 47
0.0
 47
0.0
 47
0.0
 47
1.0
 47
0.0
 47
0.0
 47
0.0
 47
0.0
 47
1.0
171
     0
 49
0.0208333333333333
 49
0.0
 49
0.0
 49
0.0
 49
0.0
 49
0.0208333333333333
 49
0.0
 49
0.0
 49
0.0
 49
0.0
 49
1.0
 49
0.0
 49
0.0
 49
0.0
 49
0.0
 49
1.0
175
     0
142
0.0208333333333333
142
0.0
142
0.0
142
0.0
142
0.0
142
0.0208333333333333
142
0.0
142
0.0
142
0.0
142
0.0
142
1.0
142
0.0
142
0.0
142
0.0
142
0.0
142
1.0
179
     0
144
0.0208333333333333
144
0.0
144
0.0
144
0.0
144
0.0
144
0.0208333333333333
144
0.0
144
0.0
144
0.0
144
0.0
144
1.0
144
0.0
144
0.0
144
0.0
144
0.0
144
1.0
147
0.0208333333333333
147
0.0
147
0.0
147
0.0
147
0.0
147
0.0208333333333333
147
0.0
147
0.0
147
0.0
147
0.0
147
1.0
147
0.0
147
0.0
147
0.0
147
0.0
147
1.0
  0
MATERIAL
  5
186A
102
{ACAD_XDICTIONARY
360
186B
102
}
102
{ACAD_REACTORS
330
15E8
102
}
330
15E8
100
AcDbMaterial
  1
ByLayer
 72
     0
 43
0.0208333333333333
 43
0.0
 43
0.0
 43
0.0
 43
0.0
 43
0.0208333333333333
 43
0.0
 43
0.0
 43
0.0
 43
0.0
 43
1.0
 43
0.0
 43
0.0
 43
0.0
 43
0.0
 43
1.0
 77
     0
 47
0.0208333333333333
 47
0.0
 47
0.0
 47
0.0
 47
0.0
 47
0.0208333333333333
 47
0.0
 47
0.0
 47
0.0
 47
0.0
 47
1.0
 47
0.0
 47
0.0
 47
0.0
 47
0.0
 47
1.0
171
     0
 49
0.0208333333333333
 49
0.0
 49
0.0
 49
0.0
 49
0.0
 49
0.0208333333333333
 49
0.0
 49
0.0
 49
0.0
 49
0.0
 49
1.0
 49
0.0
 49
0.0
 49
0.0
 49
0.0
 49
1.0
175
     0
142
0.0208333333333333
142
0.0
142
0.0
142
0.0
142
0.0
142
0.0208333333333333
142
0.0
142
0.0
142
0.0
142
0.0
142
1.0
142
0.0
142
0.0
142
0.0
142
0.0
142
1.0
179
     0
144
0.0208333333333333
144
0.0
144
0.0
144
0.0
144
0.0
144
0.0208333333333333
144
0.0
144
0.0
144
0.0
144
0.0
144
1.0
144
0.0
144
0.0
144
0.0
144
0.0
144
1.0
147
0.0208333333333333
147
0.0
147
0.0
147
0.0
147
0.0
147
0.0208333333333333
147
0.0
147
0.0
147
0.0
147
0.0
147
1.0
147
0.0
147
0.0
147
0.0
147
0.0
147
1.0
  0
MATERIAL
  5
187A
102
{ACAD_XDICTIONARY
360
187B
102
}
102
{ACAD_REACTORS
330
15E8
102
}
330
15E8
100
AcDbMaterial
  1
Global
 72
     0
 43
0.0208333333333333
 43
0.0
 43
0.0
 43
0.0
 43
0.0
 43
0.0208333333333333
 43
0.0
 43
0.0
 43
0.0
 43
0.0
 43
1.0
 43
0.0
 43
0.0
 43
0.0
 43
0.0
 43
1.0
 77
     0
 47
0.0208333333333333
 47
0.0
 47
0.0
 47
0.0
 47
0.0
 47
0.0208333333333333
 47
0.0
 47
0.0
 47
0.0
 47
0.0
 47
1.0
 47
0.0
 47
0.0
 47
0.0
 47
0.0
 47
1.0
171
     0
 49
0.0208333333333333
 49
0.0
 49
0.0
 49
0.0
 49
0.0
 49
0.0208333333333333
 49
0.0
 49
0.0
 49
0.0
 49
0.0
 49
1.0
 49
0.0
 49
0.0
 49
0.0
 49
0.0
 49
1.0
175
     0
142
0.0208333333333333
142
0.0
142
0.0
142
0.0
142
0.0
142
0.0208333333333333
142
0.0
142
0.0
142
0.0
142
0.0
142
1.0
142
0.0
142
0.0
142
0.0
142
0.0
142
1.0
179
     0
144
0.0208333333333333
144
0.0
144
0.0
144
0.0
144
0.0
144
0.0208333333333333
144
0.0
144
0.0
144
0.0
144
0.0
144
1.0
144
0.0
144
0.0
144
0.0
144
0.0
144
1.0
147
0.0208333333333333
147
0.0
147
0.0
147
0.0
147
0.0
147
0.0208333333333333
147
0.0
147
0.0
147
0.0
147
0.0
147
1.0
147
0.0
147
0.0
147
0.0
147
0.0
147
1.0
  0
MLEADERSTYLE
  5
18B6
102
{ACAD_REACTORS
330
18B5
102
}
330
18B5
100
AcDbMLeaderStyle
170
     2
171
     1
172
     0
 90
        2
 40
0.0
 41
0.0
173
     1
 91
-1056964608
340
854
 92
       -2
290
     1
 42
0.09
291
     1
 43
0.36
  3
Standard
 44
0.18
300

342
852
174
     1
178
     6
175
     1
176
     0
 93
-1056964608
 45
0.18
292
     0
297
     0
 46
0.18
 94
-1056964608
 47
1.0
 49
1.0
140
1.0
293
     1
141
0.0
294
     1
177
     0
142
1.0
295
     0
296
     0
143
0.125
1001
ACAD_MLEADERVER
1070
     2
  0
MLINESTYLE
  5
858
102
{ACAD_REACTORS
330
857
102
}
330
857
100
AcDbMlineStyle
  2
STANDARD
 70
     0
  3

 62
   256
 51
90.0
 52
90.0
 71
     2
 49
0.5
 62
   256
  6
BYLAYER
 49
-0.5
 62
   256
  6
BYLAYER
  0
ACDBPLACEHOLDER
  5
B83
102
{ACAD_REACTORS
330
B82
102
}
330
B82
  0
SCALE
  5
1894
102
{ACAD_REACTORS
330
1893
102
}
330
1893
100
AcDbScale
 70
     0
300
1:1
140
1.0
141
1.0
290
     1
  0
SCALE
  5
1895
102
{ACAD_REACTORS
330
1893
102
}
330
1893
100
AcDbScale
 70
     0
300
1:2
140
1.0
141
2.0
290
     0
  0
SCALE
  5
1896
102
{ACAD_REACTORS
330
1893
102
}
330
1893
100
AcDbScale
 70
     0
300
1:4
140
1.0
141
4.0
290
     0
  0
SCALE
  5
1897
102
{ACAD_REACTORS
330
1893
102
}
330
1893
100
AcDbScale
 70
     0
300
1:5
140
1.0
141
5.0
290
     0
  0
SCALE
  5
1898
102
{ACAD_REACTORS
330
1893
102
}
330
1893
100
AcDbScale
 70
     0
300
1:8
140
1.0
141
8.0
290
     0
  0
SCALE
  5
1899
102
{ACAD_REACTORS
330
1893
102
}
330
1893
100
AcDbScale
 70
     0
300
1:10
140
1.0
141
10.0
290
     0
  0
SCALE
  5
189A
102
{ACAD_REACTORS
330
1893
102
}
330
1893
100
AcDbScale
 70
     0
300
1:16
140
1.0
141
16.0
290
     0
  0
SCALE
  5
189B
102
{ACAD_REACTORS
330
1893
102
}
330
1893
100
AcDbScale
 70
     0
300
1:20
140
1.0
141
20.0
290
     0
  0
SCALE
  5
189C
102
{ACAD_REACTORS
330
1893
102
}
330
1893
100
AcDbScale
 70
     0
300
1:30
140
1.0
141
30.0
290
     0
  0
SCALE
  5
189D
102
{ACAD_REACTORS
330
1893
102
}
330
1893
100
AcDbScale
 70
     0
300
1:40
140
1.0
141
40.0
290
     0
  0
SCALE
  5
189E
102
{ACAD_REACTORS
330
1893
102
}
330
1893
100
AcDbScale
 70
     0
300
1:50
140
1.0
141
50.0
290
     0
  0
SCALE
  5
189F
102
{ACAD_REACTORS
330
1893
102
}
330
1893
100
AcDbScale
 70
     0
300
1:100
140
1.0
141
100.0
290
     0
  0
SCALE
  5
18A0
102
{ACAD_REACTORS
330
1893
102
}
330
1893
100
AcDbScale
 70
     0
300
2:1
140
2.0
141
1.0
290
     0
  0
SCALE
  5
18A1
102
{ACAD_REACTORS
330
1893
102
}
330
1893
100
AcDbScale
 70
     0
300
4:1
140
4.0
141
1.0
290
     0
  0
SCALE
  5
18A2
102
{ACAD_REACTORS
330
1893
102
}
330
1893
100
AcDbScale
 70
     0
300
8:1
140
8.0
141
1.0
290
     0
  0
SCALE
  5
18A3
102
{ACAD_REACTORS
330
1893
102
}
330
1893
100
AcDbScale
 70
     0
300
10:1
140
10.0
141
1.0
290
     0
  0
SCALE
  5
18A4
102
{ACAD_REACTORS
330
1893
102
}
330
1893
100
AcDbScale
 70
     0
300
100:1
140
100.0
141
1.0
290
     0
  0
SCALE
  5
18A5
102
{ACAD_REACTORS
330
1893
102
}
330
1893
100
AcDbScale
 70
     0
300
1/128" = 1'-0"
140
0.0078125
141
12.0
290
     0
  0
SCALE
  5
18A6
102
{ACAD_REACTORS
330
1893
102
}
330
1893
100
AcDbScale
 70
     0
300
1/64" = 1'-0"
140
0.015625
141
12.0
290
     0
  0
SCALE
  5
18A7
102
{ACAD_REACTORS
330
1893
102
}
330
1893
100
AcDbScale
 70
     0
300
1/32" = 1'-0"
140
0.03125
141
12.0
290
     0
  0
SCALE
  5
18A8
102
{ACAD_REACTORS
330
1893
102
}
330
1893
100
AcDbScale
 70
     0
300
1/16" = 1'-0"
140
0.0625
141
12.0
290
     0
  0
SCALE
  5
18A9
102
{ACAD_REACTORS
330
1893
102
}
330
1893
100
AcDbScale
 70
     0
300
3/32" = 1'-0"
140
0.09375
141
12.0
290
     0
  0
SCALE
  5
18AA
102
{ACAD_REACTORS
330
1893
102
}
330
1893
100
AcDbScale
 70
     0
300
1/8" = 1'-0"
140
0.125
141
12.0
290
     0
  0
SCALE
  5
18AB
102
{ACAD_REACTORS
330
1893
102
}
330
1893
100
AcDbScale
 70
     0
300
3/16" = 1'-0"
140
0.1875
141
12.0
290
     0
  0
SCALE
  5
18AC
102
{ACAD_REACTORS
330
1893
102
}
330
1893
100
AcDbScale
 70
     0
300
1/4" = 1'-0"
140
0.25
141
12.0
290
     0
  0
SCALE
  5
18AD
102
{ACAD_REACTORS
330
1893
102
}
330
1893
100
AcDbScale
 70
     0
300
3/8" = 1'-0"
140
0.375
141
12.0
290
     0
  0
SCALE
  5
18AE
102
{ACAD_REACTORS
330
1893
102
}
330
1893
100
AcDbScale
 70
     0
300
1/2" = 1'-0"
140
0.5
141
12.0
290
     0
  0
SCALE
  5
18AF
102
{ACAD_REACTORS
330
1893
102
}
330
1893
100
AcDbScale
 70
     0
300
3/4" = 1'-0"
140
0.75
141
12.0
290
     0
  0
SCALE
  5
18B0
102
{ACAD_REACTORS
330
1893
102
}
330
1893
100
AcDbScale
 70
     0
300
1" = 1'-0"
140
1.0
141
12.0
290
     0
  0
SCALE
  5
18B1
102
{ACAD_REACTORS
330
1893
102
}
330
1893
100
AcDbScale
 70
     0
300
1-1/2" = 1'-0"
140
1.5
141
12.0
290
     0
  0
SCALE
  5
18B2
102
{ACAD_REACTORS
330
1893
102
}
330
1893
100
AcDbScale
 70
     0
300
3" = 1'-0"
140
3.0
141
12.0
290
     0
  0
SCALE
  5
18B3
102
{ACAD_REACTORS
330
1893
102
}
330
1893
100
AcDbScale
 70
     0
300
6" = 1'-0"
140
6.0
141
12.0
290
     0
  0
SCALE
  5
18B4
102
{ACAD_REACTORS
330
1893
102
}
330
1893
100
AcDbScale
 70
     0
300
1'-0" = 1'-0"
140
12.0
141
12.0
290
     0
  0
TABLESTYLE
  5
15EB
102
{ACAD_XDICTIONARY
360
1925
102
}
102
{ACAD_REACTORS
330
15EA
102
}
330
15EA
100
AcDbTableStyle
  3
Standard
 70
     0
 71
     0
 40
0.06
 41
0.06
280
     0
281
     0
  7
STANDARD
140
0.18
170
     2
 62
     0
 63
     7
283
     0
274
    -2
284
     1
 64
     0
275
    -2
285
     1
 65
     0
276
    -2
286
     1
 66
     0
277
    -2
287
     1
 67
     0
278
    -2
288
     1
 68
     0
279
    -2
289
     1
 69
     0
  7
STANDARD
140
0.25
170
     5
 62
     0
 63
     7
283
     0
274
    -2
284
     1
 64
     0
275
    -2
285
     1
 65
     0
276
    -2
286
     1
 66
     0
277
    -2
287
     1
 67
     0
278
    -2
288
     1
 68
     0
279
    -2
289
     1
 69
     0
  7
STANDARD
140
0.18
170
     5
 62
     0
 63
     7
283
     0
274
    -2
284
     1
 64
     0
275
    -2
285
     1
 65
     0
276
    -2
286
     1
 66
     0
277
    -2
287
     1
 67
     0
278
    -2
288
     1
 68
     0
279
    -2
289
     1
 69
     0
  0
VISUALSTYLE
  5
1888
102
{ACAD_REACTORS
330
1882
102
}
330
1882
100
AcDbVisualStyle
  2
2dWireframe
 70
     4
 71
     0
 72
     2
 73
     0
 90
        0
 40
-0.6
 41
-30.0
 62
     5
 63
     7
 74
     1
 91
        4
 64
     7
 65
   257
 75
     1
175
     1
 42
1.0
 92
        0
 66
   257
 43
1.0
 76
     1
 77
     6
 78
     2
 67
     7
 79
     5
170
     0
171
     0
290
     0
174
     0
 93
        1
 44
0.0
173
     0
291
     0
 45
0.0
1001
ACAD
1000
AcDbSavedByObjectVersion
1070
     0
1000
AcDbSavedByObjectVersion
1070
     0
1000
AcDbSavedByObjectVersion
1070
     0
1000
AcDbSavedByObjectVersion
1070
     0
1000
AcDbSavedByObjectVersion
1070
     0
1000
AcDbSavedByObjectVersion
1070
     0
1000
AcDbSavedByObjectVersion
1070
     0
  0
VISUALSTYLE
  5
188A
102
{ACAD_REACTORS
330
1882
102
}
330
1882
100
AcDbVisualStyle
  2
3D Hidden
 70
     6
 71
     1
 72
     2
 73
     2
 90
        0
 40
-0.6
 41
-30.0
 62
     5
 63
     7
 74
     2
 91
        2
 64
     7
 65
   257
 75
     2
175
     1
 42
40.0
 92
        0
 66
   257
 43
1.0
 76
     1
 77
     6
 78
     2
 67
     7
 79
     3
170
     0
171
     0
290
     0
174
     0
 93
        1
 44
0.0
173
     0
291
     0
 45
0.0
1001
ACAD
1000
AcDbSavedByObjectVersion
1070
     0
1000
AcDbSavedByObjectVersion
1070
     0
1000
AcDbSavedByObjectVersion
1070
     0
1000
AcDbSavedByObjectVersion
1070
     0
1000
AcDbSavedByObjectVersion
1070
     0
1000
AcDbSavedByObjectVersion
1070
     0
1000
AcDbSavedByObjectVersion
1070
     0
  0
VISUALSTYLE
  5
1889
102
{ACAD_REACTORS
330
1882
102
}
330
1882
100
AcDbVisualStyle
  2
3dWireframe
 70
     5
 71
     0
 72
     2
 73
     0
 90
        0
 40
-0.6
 41
-30.0
 62
     5
 63
     7
 74
     1
 91
        4
 64
     7
 65
   257
 75
     1
175
     1
 42
1.0
 92
        0
 66
   257
 43
1.0
 76
     1
 77
     6
 78
     2
 67
     7
 79
     5
170
     0
171
     0
290
     0
174
     0
 93
        1
 44
0.0
173
     0
291
     0
 45
0.0
1001
ACAD
1000
AcDbSavedByObjectVersion
1070
     0
1000
AcDbSavedByObjectVersion
1070
     0
1000
AcDbSavedByObjectVersion
1070
     0
1000
AcDbSavedByObjectVersion
1070
     0
1000
AcDbSavedByObjectVersion
1070
     0
1000
AcDbSavedByObjectVersion
1070
     0
1000
AcDbSavedByObjectVersion
1070
     0
  0
VISUALSTYLE
  5
1887
102
{ACAD_REACTORS
330
1882
102
}
330
1882
100
AcDbVisualStyle
  2
Basic
 70
     7
 71
     1
 72
     0
 73
     1
 90
        0
 40
-0.6
 41
-30.0
 62
     5
 63
     7
 74
     0
 91
        4
 64
     7
 65
   257
 75
     1
175
     1
 42
1.0
 92
        8
 66
     7
 43
1.0
 76
     1
 77
     6
 78
     2
 67
     7
 79
     5
170
     0
171
     0
290
     0
174
     0
 93
        1
 44
0.0
173
     0
291
     1
 45
0.0
1001
ACAD
1000
AcDbSavedByObjectVersion
1070
     0
1000
AcDbSavedByObjectVersion
1070
     0
1000
AcDbSavedByObjectVersion
1070
     0
1000
AcDbSavedByObjectVersion
1070
     0
1000
AcDbSavedByObjectVersion
1070
     0
1000
AcDbSavedByObjectVersion
1070
     0
1000
AcDbSavedByObjectVersion
1070
     0
  0
VISUALSTYLE
  5
188E
102
{ACAD_REACTORS
330
1882
102
}
330
1882
100
AcDbVisualStyle
  2
Brighten
 70
    12
 71
     2
 72
     2
 73
     0
 90
        0
 40
-0.6
 41
-30.0
 62
     5
 63
     7
 74
     1
 91
        4
 64
     7
 65
   257
 75
     1
175
     1
 42
1.0
 92
        8
 66
     7
 43
1.0
 76
     1
 77
     6
 78
     2
 67
     7
 79
     5
170
     0
171
     0
290
     0
174
     0
 93
        1
 44
50.0
173
     0
291
     1
 45
0.0
1001
ACAD
1000
AcDbSavedByObjectVersion
1070
     0
1000
AcDbSavedByObjectVersion
1070
     0
1000
AcDbSavedByObjectVersion
1070
     0
1000
AcDbSavedByObjectVersion
1070
     0
1000
AcDbSavedByObjectVersion
1070
     0
1000
AcDbSavedByObjectVersion
1070
     0
1000
AcDbSavedByObjectVersion
1070
     0
  0
VISUALSTYLE
  5
1892
102
{ACAD_REACTORS
330
1882
102
}
330
1882
100
AcDbVisualStyle
  2
ColorChange
 70
    16
 71
     2
 72
     2
 73
     3
 90
        0
 40
-0.6
 41
-30.0
 62
     5
 63
     8
 74
     1
 91
        4
 64
     7
 65
   257
 75
     1
175
     1
 42
1.0
 92
        8
 66
     8
 43
1.0
 76
     1
 77
     6
 78
     2
 67
     7
 79
     5
170
     0
171
     0
290
     0
174
     0
 93
        1
 44
0.0
173
     0
291
     1
 45
0.0
1001
ACAD
1000
AcDbSavedByObjectVersion
1070
     0
1000
AcDbSavedByObjectVersion
1070
     0
1000
AcDbSavedByObjectVersion
1070
     0
1000
AcDbSavedByObjectVersion
1070
     0
1000
AcDbSavedByObjectVersion
1070
     0
1000
AcDbSavedByObjectVersion
1070
     0
1000
AcDbSavedByObjectVersion
1070
     0
  0
VISUALSTYLE
  5
188B
102
{ACAD_REACTORS
330
1882
102
}
330
1882
100
AcDbVisualStyle
  2
Conceptual
 70
     9
 71
     3
 72
     2
 73
     0
 90
        0
 40
-0.6
 41
-30.0
 62
     5
 63
     7
 74
     2
 91
        2
 64
     7
 65
   257
 75
     1
175
     1
 42
40.0
 92
        8
 66
     7
 43
1.0
 76
     1
 77
     6
 78
     2
 67
     7
 79
     3
170
     0
171
     0
290
     0
174
     0
 93
        1
 44
0.0
173
     0
291
     0
 45
0.0
1001
ACAD
1000
AcDbSavedByObjectVersion
1070
     0
1000
AcDbSavedByObjectVersion
1070
     0
1000
AcDbSavedByObjectVersion
1070
     0
1000
AcDbSavedByObjectVersion
1070
     0
1000
AcDbSavedByObjectVersion
1070
     0
1000
AcDbSavedByObjectVersion
1070
     0
1000
AcDbSavedByObjectVersion
1070
     0
  0
VISUALSTYLE
  5
188D
102
{ACAD_REACTORS
330
1882
102
}
330
1882
100
AcDbVisualStyle
  2
Dim
 70
    11
 71
     2
 72
     2
 73
     0
 90
        0
 40
-0.6
 41
-30.0
 62
     5
 63
     7
 74
     1
 91
        4
 64
     7
 65
   257
 75
     1
175
     1
 42
1.0
 92
        8
 66
     7
 43
1.0
 76
     1
 77
     6
 78
     2
 67
     7
 79
     5
170
     0
171
     0
290
     0
174
     0
 93
        1
 44
-50.0
173
     0
291
     1
 45
0.0
1001
ACAD
1000
AcDbSavedByObjectVersion
1070
     0
1000
AcDbSavedByObjectVersion
1070
     0
1000
AcDbSavedByObjectVersion
1070
     0
1000
AcDbSavedByObjectVersion
1070
     0
1000
AcDbSavedByObjectVersion
1070
     0
1000
AcDbSavedByObjectVersion
1070
     0
1000
AcDbSavedByObjectVersion
1070
     0
  0
VISUALSTYLE
  5
1891
102
{ACAD_REACTORS
330
1882
102
}
330
1882
100
AcDbVisualStyle
  2
Facepattern
 70
    15
 71
     2
 72
     2
 73
     0
 90
        0
 40
-0.6
 41
-30.0
 62
     5
 63
     7
 74
     1
 91
        4
 64
     7
 65
   257
 75
     1
175
     1
 42
1.0
 92
        8
 66
     7
 43
1.0
 76
     1
 77
     6
 78
     2
 67
     7
 79
     5
170
     0
171
     0
290
     0
174
     0
 93
        1
 44
0.0
173
     0
291
     1
 45
0.0
1001
ACAD
1000
AcDbSavedByObjectVersion
1070
     0
1000
AcDbSavedByObjectVersion
1070
     0
1000
AcDbSavedByObjectVersion
1070
     0
1000
AcDbSavedByObjectVersion
1070
     0
1000
AcDbSavedByObjectVersion
1070
     0
1000
AcDbSavedByObjectVersion
1070
     0
1000
AcDbSavedByObjectVersion
1070
     0
  0
VISUALSTYLE
  5
1883
102
{ACAD_REACTORS
330
1882
102
}
330
1882
100
AcDbVisualStyle
  2
Flat
 70
     0
 71
     2
 72
     1
 73
     1
 90
        2
 40
-0.6
 41
30.0
 62
     5
 63
     7
 74
     0
 91
        4
 64
     7
 65
   257
 75
     1
175
     1
 42
1.0
 92
        8
 66
     7
 43
1.0
 76
     1
 77
     6
 78
     2
 67
     7
 79
     5
170
     0
171
     0
290
     0
174
     0
 93
       13
 44
0.0
173
     0
291
     1
 45
0.0
1001
ACAD
1000
AcDbSavedByObjectVersion
1070
     0
1000
AcDbSavedByObjectVersion
1070
     0
1000
AcDbSavedByObjectVersion
1070
     0
1000
AcDbSavedByObjectVersion
1070
     0
1000
AcDbSavedByObjectVersion
1070
     0
1000
AcDbSavedByObjectVersion
1070
     0
1000
AcDbSavedByObjectVersion
1070
     0
  0
VISUALSTYLE
  5
1884
102
{ACAD_REACTORS
330
1882
102
}
330
1882
100
AcDbVisualStyle
  2
FlatWithEdges
 70
     1
 71
     2
 72
     1
 73
     1
 90
        2
 40
-0.6
 41
30.0
 62
     5
 63
     7
 74
     1
 91
        4
 64
     7
 65
   257
 75
     1
175
     1
 42
1.0
 92
        0
 66
   257
 43
1.0
 76
     1
 77
     6
 78
     2
 67
     7
 79
     5
170
     0
171
     0
290
     0
174
     0
 93
       13
 44
0.0
173
     0
291
     1
 45
0.0
1001
ACAD
1000
AcDbSavedByObjectVersion
1070
     0
1000
AcDbSavedByObjectVersion
1070
     0
1000
AcDbSavedByObjectVersion
1070
     0
1000
AcDbSavedByObjectVersion
1070
     0
1000
AcDbSavedByObjectVersion
1070
     0
1000
AcDbSavedByObjectVersion
1070
     0
1000
AcDbSavedByObjectVersion
1070
     0
  0
VISUALSTYLE
  5
1885
102
{ACAD_REACTORS
330
1882
102
}
330
1882
100
AcDbVisualStyle
  2
Gouraud
 70
     2
 71
     2
 72
     2
 73
     1
 90
        2
 40
-0.6
 41
30.0
 62
     5
 63
     7
 74
     0
 91
        4
 64
     7
 65
   257
 75
     1
175
     1
 42
1.0
 92
        0
 66
     7
 43
1.0
 76
     1
 77
     6
 78
     2
 67
     7
 79
     5
170
     0
171
     0
290
     0
174
     0
 93
       13
 44
0.0
173
     0
291
     1
 45
0.0
1001
ACAD
1000
AcDbSavedByObjectVersion
1070
     0
1000
AcDbSavedByObjectVersion
1070
     0
1000
AcDbSavedByObjectVersion
1070
     0
1000
AcDbSavedByObjectVersion
1070
     0
1000
AcDbSavedByObjectVersion
1070
     0
1000
AcDbSavedByObjectVersion
1070
     0
1000
AcDbSavedByObjectVersion
1070
     0
  0
VISUALSTYLE
  5
1886
102
{ACAD_REACTORS
330
1882
102
}
330
1882
100
AcDbVisualStyle
  2
GouraudWithEdges
 70
     3
 71
     2
 72
     2
 73
     1
 90
        2
 40
-0.6
 41
30.0
 62
     5
 63
     7
 74
     1
 91
        4
 64
     7
 65
   257
 75
     1
175
     1
 42
1.0
 92
        0
 66
   257
 43
1.0
 76
     1
 77
     6
 78
     2
 67
     7
 79
     5
170
     0
171
     0
290
     0
174
     0
 93
       13
 44
0.0
173
     0
291
     1
 45
0.0
1001
ACAD
1000
AcDbSavedByObjectVersion
1070
     0
1000
AcDbSavedByObjectVersion
1070
     0
1000
AcDbSavedByObjectVersion
1070
     0
1000
AcDbSavedByObjectVersion
1070
     0
1000
AcDbSavedByObjectVersion
1070
     0
1000
AcDbSavedByObjectVersion
1070
     0
1000
AcDbSavedByObjectVersion
1070
     0
  0
VISUALSTYLE
  5
1890
102
{ACAD_REACTORS
330
1882
102
}
330
1882
100
AcDbVisualStyle
  2
Linepattern
 70
    14
 71
     2
 72
     2
 73
     0
 90
        0
 40
-0.6
 41
-30.0
 62
     5
 63
     7
 74
     1
 91
        4
 64
     7
 65
   257
 75
     7
175
     7
 42
1.0
 92
        8
 66
     7
 43
1.0
 76
     1
 77
     6
 78
     2
 67
     7
 79
     5
170
     0
171
     0
290
     0
174
     0
 93
        1
 44
0.0
173
     0
291
     1
 45
0.0
1001
ACAD
1000
AcDbSavedByObjectVersion
1070
     0
1000
AcDbSavedByObjectVersion
1070
     0
1000
AcDbSavedByObjectVersion
1070
     0
1000
AcDbSavedByObjectVersion
1070
     0
1000
AcDbSavedByObjectVersion
1070
     0
1000
AcDbSavedByObjectVersion
1070
     0
1000
AcDbSavedByObjectVersion
1070
     0
  0
VISUALSTYLE
  5
188C
102
{ACAD_REACTORS
330
1882
102
}
330
1882
100
AcDbVisualStyle
  2
Realistic
 70
     8
 71
     2
 72
     2
 73
     0
 90
        0
 40
-0.6
 41
-30.0
 62
     5
 63
     7
 74
     1
 91
        0
 64
     7
 65
   257
 75
     1
175
     1
 42
1.0
 92
        8
 66
     8
 43
1.0
 76
     1
 77
     6
 78
     2
 67
     7
 79
     5
170
     0
171
     0
290
     0
174
     0
 93
       13
 44
0.0
173
     0
291
     0
 45
0.0
1001
ACAD
1000
AcDbSavedByObjectVersion
1070
     0
1000
AcDbSavedByObjectVersion
1070
     0
1000
AcDbSavedByObjectVersion
1070
     0
1000
AcDbSavedByObjectVersion
1070
     0
1000
AcDbSavedByObjectVersion
1070
     0
1000
AcDbSavedByObjectVersion
1070
     0
1000
AcDbSavedByObjectVersion
1070
     0
  0
VISUALSTYLE
  5
188F
102
{ACAD_REACTORS
330
1882
102
}
330
1882
100
AcDbVisualStyle
  2
Thicken
 70
    13
 71
     2
 72
     2
 73
     0
 90
        0
 40
-0.6
 41
-30.0
 62
     5
 63
     7
 74
     1
 91
        4
 64
     7
 65
   257
 75
     1
175
     1
 42
1.0
 92
       12
 66
     7
 43
1.0
 76
     1
 77
     6
 78
     2
 67
     7
 79
     5
170
     0
171
     0
290
     0
174
     0
 93
        1
 44
0.0
173
     0
291
     1
 45
0.0
1001
ACAD
1000
AcDbSavedByObjectVersion
1070
     0
1000
AcDbSavedByObjectVersion
1070
     0
1000
AcDbSavedByObjectVersion
1070
     0
1000
AcDbSavedByObjectVersion
1070
     0
1000
AcDbSavedByObjectVersion
1070
     0
1000
AcDbSavedByObjectVersion
1070
     0
1000
AcDbSavedByObjectVersion
1070
     0
  0
DICTIONARYVAR
  5
1923
102
{ACAD_REACTORS
330
B87
102
}
330
B87
100
DictionaryVariables
280
     0
  1
1:1
  0
DICTIONARYVAR
  5
1922
102
{ACAD_REACTORS
330
B87
102
}
330
B87
100
DictionaryVariables
280
     0
  1
STANDARD
  0
DICTIONARYVAR
  5
1714
102
{ACAD_REACTORS
330
B87
102
}
330
B87
100
DictionaryVariables
280
     0
  1
STANDARD
  0
DICTIONARYVAR
  5
B88
102
{ACAD_REACTORS
330
B87
102
}
330
B87
100
DictionaryVariables
280
     0
  1
1
  0
DICTIONARYVAR
  5
1715
102
{ACAD_REACTORS
330
B87
102
}
330
B87
100
DictionaryVariables
280
     0
  1
1
  0
DICTIONARYVAR
  5
1716
102
{ACAD_REACTORS
330
B87
102
}
330
B87
100
DictionaryVariables
280
     0
  1

  0
DICTIONARYVAR
  5
1924
102
{ACAD_REACTORS
330
B87
102
}
330
B87
100
DictionaryVariables
280
     0
  1
127
  0
DICTIONARY
  5
16BC
102
{ACAD_REACTORS
330
16B0
102
}
330
16B0
100
AcDbDictionary
281
     1
  0
XRECORD
  5
16DC
102
{ACAD_REACTORS
330
16B0
102
}
330
16B0
100
AcDbXrecord
280
     1
 90
-1023410169
  0
DICTIONARY
  5
15F0
102
{ACAD_REACTORS
330
15EF
102
}
330
15EF
100
AcDbDictionary
281
     1
  3
DWGSETTINGS
350
218C
  3
TRANSSETTINGS
350
218D
  0
ACAMGFILTERDAT
  5
1723
102
{ACAD_REACTORS
330
171E
102
}
330
171E
100
AcAmgFilterDat
 70
    15
  1
DIMENSION,AMDT_*_DIM
  2
*
  3
*
  4
*
  5
*
290
     1
1001
ACAD
1000
AcRTDxfName
1000
ACAMGFILTERDAT
  0
ACAMGFILTERDAT
  5
1722
102
{ACAD_REACTORS
330
171E
102
}
330
171E
100
AcAmgFilterDat
 70
    15
  1
*
  2
AM_FEA-AM_*
  3
*
  4
*
  5
*
290
     1
1001
ACAD
1000
AcRTDxfName
1000
ACAMGFILTERDAT
  0
ACAMGFILTERDAT
  5
171F
102
{ACAD_REACTORS
330
171E
102
}
330
171E
100
AcAmgFilterDat
 70
    15
  1
HATCH
  2
*
  3
*
  4
*
  5
*
290
     1
1001
ACAD
1000
AcRTDxfName
1000
ACAMGFILTERDAT
  0
ACAMGFILTERDAT
  5
1720
102
{ACAD_REACTORS
330
171E
102
}
330
171E
100
AcAmgFilterDat
 70
    15
  1
LINE
  2
8,8N,*-8,*-8N,AM_8,AM_8N,*-AM_8,*-AM_8N
  3
*
  4
*
  5
INSERT,STDPART2D
290
     1
1001
ACAD
1000
AcRTDxfName
1000
ACAMGFILTERDAT
  0
ACAMGFILTERDAT
  5
1724
102
{ACAD_REACTORS
330
171E
102
}
330
171E
100
AcAmgFilterDat
 70
    15
  1
ARC
  2
AM_5
  3
*
  4
2
  5
INSERT
290
     0
1001
ACAD
1000
AcRTDxfName
1000
ACAMGFILTERDAT
  0
ACAMGFILTERDAT
  5
1721
102
{ACAD_REACTORS
330
171E
102
}
330
171E
100
AcAmgFilterDat
 70
    15
  1
ACMFCFRAME,ACMDATUMTARGET,ACMDATUMID,ACMWELDSYM,ACMSURFSYM,ACMFEATID,ACMPARTREF,ACMBALLOON,AMDTEDGESYM,AMGSCREWCALCTABLE
  2
*
  3
*
  4
*
  5
*
290
     1
1001
ACAD
1000
AcRTDxfName
1000
ACAMGFILTERDAT
  0
LAYER_INDEX
  5
1707
102
{ACAD_REACTORS
330
1706
102
}
330
1706
100
AcDbIndex
 40
2456533.545786435
100
AcDbLayerIndex
  8
0
360
1708
 90
        0
  8
OUTLINE
360
1709
 90
      113
  8
SIZE
360
170A
 90
       36
  8
BASIS
360
170B
 90
        1
  8
DETAIL
360
170C
 90
      107
  8
ARRANGE
360
170D
 90
        3
  8
DEFPOINTS
360
170E
 90
        0
  8
ETC
360
170F
 90
        1
  8
FIX
360
1710
 90
        0
  8
NOTE
360
1711
 90
       13
  8
SERVICESPACE
360
1712
 90
        0
  8
SYMBOLLINE
360
1713
 90
        0
  0
DICTIONARY
  5
228F
330
B84
100
AcDbDictionary
280
     1
281
     1
  3
ACAD_XREC_ROUNDTRIP
360
2290
  0
DICTIONARY
  5
2291
330
B85
100
AcDbDictionary
280
     1
281
     1
  3
ACAD_XREC_ROUNDTRIP
360
2292
  0
DICTIONARY
  5
1873
330
1872
100
AcDbDictionary
280
     1
281
     1
  3
ACAD_XREC_ROUNDTRIP
360
1931
  3
BUMPTILE
360
1875
  3
DIFFUSETILE
360
1874
  3
OPACITYTILE
360
1878
  3
REFLECTIONTILE
360
1877
  3
REFRACTIONTILE
360
1879
  3
SPECULARTILE
360
1876
  0
DICTIONARY
  5
186B
330
186A
100
AcDbDictionary
280
     1
281
     1
  3
ACAD_XREC_ROUNDTRIP
360
1930
  3
BUMPTILE
360
186D
  3
DIFFUSETILE
360
186C
  3
OPACITYTILE
360
1870
  3
REFLECTIONTILE
360
186F
  3
REFRACTIONTILE
360
1871
  3
SPECULARTILE
360
186E
  0
DICTIONARY
  5
187B
330
187A
100
AcDbDictionary
280
     1
281
     1
  3
ACAD_XREC_ROUNDTRIP
360
1932
  3
BUMPTILE
360
187D
  3
DIFFUSETILE
360
187C
  3
OPACITYTILE
360
1880
  3
REFLECTIONTILE
360
187F
  3
REFRACTIONTILE
360
1881
  3
SPECULARTILE
360
187E
  0
DICTIONARY
  5
1925
330
15EB
100
AcDbDictionary
280
     1
281
     1
  3
ACAD_ROUNDTRIP_2008_TABLESTYLE_CELLSTYLEMAP
360
2288
  3
ACAD_XREC_ROUNDTRIP
360
2293
  0
IDBUFFER
  5
1708
330
0
100
AcDbIdBuffer
  0
IDBUFFER
  5
1709
330
0
100
AcDbIdBuffer
330
953
330
954
330
955
330
956
330
957
330
958
330
1FA3
330
1FA4
330
1FA5
330
1FA6
330
1FA7
330
1FA8
330
1FA9
330
1FAA
330
1FAB
330
1FAC
330
1FAD
330
1FAE
330
1FAF
330
1FB0
330
1FB1
330
1FB2
330
1FB3
330
1FB4
330
1FB5
330
1FB6
330
1FB7
330
1FB8
330
1FB9
330
1FBA
330
1FBB
330
1FBC
330
1FBD
330
1FBE
330
1FBF
330
1FC0
330
1FC1
330
1FC2
330
1FC3
330
1FC4
330
1FC5
330
1FC6
330
1FC7
330
1FC8
330
1FC9
330
1FCA
330
1FCB
330
1FCC
330
1FCD
330
1FCE
330
1FCF
330
1FD0
330
1FD1
330
1FD2
330
1FD3
330
1FD4
330
1FD5
330
1FD6
330
1FD7
330
1FD8
330
1FD9
330
1FDA
330
1FDB
330
1FDC
330
1FDD
330
1FDE
330
1FDF
330
1FE0
330
1FE1
330
1FE2
330
1FE3
330
1FE4
330
1FE5
330
1FE6
330
1FE7
330
1FE8
330
1FE9
330
1FEA
330
1FEB
330
1FEC
330
1FED
330
1FEE
330
1FEF
330
1FF0
330
1FF1
330
1FF2
330
1FF3
330
1FF4
330
1FF5
330
1FF6
330
1FF7
330
1FF8
330
1FF9
330
1FFA
330
1FFB
330
1FFC
330
1FFD
330
1FFE
330
1FFF
330
2000
330
2001
330
2002
330
2003
330
2004
330
2005
330
2006
330
2007
330
2008
330
2009
330
200A
330
200B
330
200C
330
200D
  0
IDBUFFER
  5
170A
330
0
100
AcDbIdBuffer
330
2276
330
2277
330
2278
330
2279
330
227A
330
227B
330
227C
330
227D
330
227E
330
227F
330
2280
330
2281
330
2282
330
2283
330
2284
330
2285
330
2286
330
2287
330
2261
330
2262
330
2263
330
2264
330
2265
330
2266
330
2267
330
2268
330
2269
330
226A
330
226B
330
226C
330
2270
330
2271
330
2272
330
2273
330
2274
330
2275
  0
IDBUFFER
  5
170B
330
0
100
AcDbIdBuffer
330
1F98
  0
IDBUFFER
  5
170C
330
0
100
AcDbIdBuffer
330
1F21
330
1F22
330
1F23
330
1F24
330
1F25
330
1F26
330
1F27
330
1F28
330
1F29
330
1F2A
330
1F2B
330
1F2C
330
1F2D
330
1F2E
330
1F2F
330
1F30
330
1F31
330
1F32
330
1F33
330
1F34
330
1F35
330
1F36
330
1F37
330
1F38
330
1F39
330
1F3A
330
1F3B
330
1F3C
330
1F3D
330
1F3E
330
1F3F
330
1F40
330
1F41
330
1F42
330
1F43
330
1F44
330
1F45
330
1F46
330
1F47
330
1F48
330
1F49
330
1F4A
330
1F4B
330
1F4C
330
1F4D
330
1F4E
330
1F4F
330
1F50
330
1F51
330
1F52
330
1F53
330
1F54
330
1F55
330
1F56
330
1F57
330
1F58
330
1F59
330
1F5A
330
1F5B
330
1F5C
330
1F5D
330
1F5E
330
1F5F
330
1F60
330
1F61
330
1F62
330
1F63
330
1F64
330
1F65
330
1F66
330
1F67
330
1F68
330
1F69
330
1F6A
330
1F6B
330
1F6C
330
1F6D
330
1F6E
330
1F6F
330
1F70
330
1F71
330
1F72
330
1F73
330
1F74
330
1F75
330
1F76
330
1F77
330
1F78
330
1F79
330
1F7A
330
1F7B
330
1F7C
330
1F7D
330
1F7E
330
1F7F
330
1F80
330
1F81
330
1F82
330
1F83
330
1F84
330
1F85
330
1F86
330
1F87
330
1F88
330
1F89
330
1F8A
330
1F8B
  0
IDBUFFER
  5
170D
330
0
100
AcDbIdBuffer
330
1F99
330
1F9A
330
1F9B
  0
IDBUFFER
  5
170E
330
0
100
AcDbIdBuffer
  0
IDBUFFER
  5
170F
330
0
100
AcDbIdBuffer
330
1F91
  0
IDBUFFER
  5
1710
330
0
100
AcDbIdBuffer
  0
IDBUFFER
  5
1711
330
0
100
AcDbIdBuffer
330
226F
330
1F8C
330
1F8D
330
1F8E
330
1F8F
330
1F90
330
1F9E
330
1F9F
330
1FA0
330
1FA1
330
1FA2
330
226D
330
226E
  0
IDBUFFER
  5
1712
330
0
100
AcDbIdBuffer
  0
IDBUFFER
  5
1713
330
0
100
AcDbIdBuffer
  0
XRECORD
  5
2290
102
{ACAD_REACTORS
330
228F
102
}
330
228F
100
AcDbXrecord
280
     1
102
SHADEPLOT
 70
     0
102
SHADEPLOTRESLEVEL
 70
     2
102
SHADEPLOTCUSTOMDPI
 70
   300
  0
XRECORD
  5
2292
102
{ACAD_REACTORS
330
2291
102
}
330
2291
100
AcDbXrecord
280
     1
102
SHADEPLOT
 70
     0
102
SHADEPLOTRESLEVEL
 70
     2
102
SHADEPLOTCUSTOMDPI
 70
   300
  0
XRECORD
  5
1931
102
{ACAD_REACTORS
330
1873
102
}
330
1873
100
AcDbXrecord
280
     1
102
MATERIAL
148
0.0
149
0.0
149
0.0
 93
        0
 94
      127
282
     0
 72
     0
 77
     0
171
     0
175
     0
179
     0
273
     0
  0
XRECORD
  5
1875
102
{ACAD_REACTORS
330
1873
102
}
330
1873
100
AcDbXrecord
280
     1
270
     1
271
     1
  0
XRECORD
  5
1874
102
{ACAD_REACTORS
330
1873
102
}
330
1873
100
AcDbXrecord
280
     1
270
     1
271
     1
  0
XRECORD
  5
1878
102
{ACAD_REACTORS
330
1873
102
}
330
1873
100
AcDbXrecord
280
     1
270
     1
271
     1
  0
XRECORD
  5
1877
102
{ACAD_REACTORS
330
1873
102
}
330
1873
100
AcDbXrecord
280
     1
270
     1
271
     1
  0
XRECORD
  5
1879
102
{ACAD_REACTORS
330
1873
102
}
330
1873
100
AcDbXrecord
280
     1
270
     1
271
     1
  0
XRECORD
  5
1876
102
{ACAD_REACTORS
330
1873
102
}
330
1873
100
AcDbXrecord
280
     1
270
     1
271
     1
  0
XRECORD
  5
1930
102
{ACAD_REACTORS
330
186B
102
}
330
186B
100
AcDbXrecord
280
     1
102
MATERIAL
148
0.0
149
0.0
149
0.0
 93
        0
 94
      127
282
     0
 72
     0
 77
     0
171
     0
175
     0
179
     0
273
     0
  0
XRECORD
  5
186D
102
{ACAD_REACTORS
330
186B
102
}
330
186B
100
AcDbXrecord
280
     1
270
     1
271
     1
  0
XRECORD
  5
186C
102
{ACAD_REACTORS
330
186B
102
}
330
186B
100
AcDbXrecord
280
     1
270
     1
271
     1
  0
XRECORD
  5
1870
102
{ACAD_REACTORS
330
186B
102
}
330
186B
100
AcDbXrecord
280
     1
270
     1
271
     1
  0
XRECORD
  5
186F
102
{ACAD_REACTORS
330
186B
102
}
330
186B
100
AcDbXrecord
280
     1
270
     1
271
     1
  0
XRECORD
  5
1871
102
{ACAD_REACTORS
330
186B
102
}
330
186B
100
AcDbXrecord
280
     1
270
     1
271
     1
  0
XRECORD
  5
186E
102
{ACAD_REACTORS
330
186B
102
}
330
186B
100
AcDbXrecord
280
     1
270
     1
271
     1
  0
XRECORD
  5
1932
102
{ACAD_REACTORS
330
187B
102
}
330
187B
100
AcDbXrecord
280
     1
102
MATERIAL
148
0.0
149
0.0
149
0.0
 93
        0
 94
      127
282
     0
 72
     0
 77
     0
171
     0
175
     0
179
     0
273
     0
  0
XRECORD
  5
187D
102
{ACAD_REACTORS
330
187B
102
}
330
187B
100
AcDbXrecord
280
     1
270
     1
271
     1
  0
XRECORD
  5
187C
102
{ACAD_REACTORS
330
187B
102
}
330
187B
100
AcDbXrecord
280
     1
270
     1
271
     1
  0
XRECORD
  5
1880
102
{ACAD_REACTORS
330
187B
102
}
330
187B
100
AcDbXrecord
280
     1
270
     1
271
     1
  0
XRECORD
  5
187F
102
{ACAD_REACTORS
330
187B
102
}
330
187B
100
AcDbXrecord
280
     1
270
     1
271
     1
  0
XRECORD
  5
1881
102
{ACAD_REACTORS
330
187B
102
}
330
187B
100
AcDbXrecord
280
     1
270
     1
271
     1
  0
XRECORD
  5
187E
102
{ACAD_REACTORS
330
187B
102
}
330
187B
100
AcDbXrecord
280
     1
270
     1
271
     1
  0
CELLSTYLEMAP
  5
2288
102
{ACAD_REACTORS
330
1925
102
}
330
1925
100
AcDbCellStyleMap
 90
        3
300
CELLSTYLE
  1
TABLEFORMAT_BEGIN
 90
        5
170
     1
 91
        0
 92
    32768
 62
   257
 93
        1
300
CONTENTFORMAT
  1
CONTENTFORMAT_BEGIN
 90
        0
 91
        0
 92
        4
 93
        0
300

 40
0.0
140
1.0
 94
        5
 62
     0
340
852
144
0.25
309
CONTENTFORMAT_END
171
     1
301
MARGIN
  1
CELLMARGIN_BEGIN
 40
0.06
 40
0.06
 40
0.06
 40
0.06
 40
0.18
 40
0.18
309
CELLMARGIN_END
 94
        6
 95
        1
302
GRIDFORMAT
  1
GRIDFORMAT_BEGIN
 90
        0
 91
        1
 62
     0
 92
       -2
340
0
 93
        0
 40
0.045
309
GRIDFORMAT_END
 95
        2
302
GRIDFORMAT
  1
GRIDFORMAT_BEGIN
 90
        0
 91
        1
 62
     0
 92
       -2
340
0
 93
        0
 40
0.045
309
GRIDFORMAT_END
 95
        4
302
GRIDFORMAT
  1
GRIDFORMAT_BEGIN
 90
        0
 91
        1
 62
     0
 92
       -2
340
0
 93
        0
 40
0.045
309
GRIDFORMAT_END
 95
        8
302
GRIDFORMAT
  1
GRIDFORMAT_BEGIN
 90
        0
 91
        1
 62
     0
 92
       -2
340
0
 93
        0
 40
0.045
309
GRIDFORMAT_END
 95
       16
302
GRIDFORMAT
  1
GRIDFORMAT_BEGIN
 90
        0
 91
        1
 62
     0
 92
       -2
340
0
 93
        0
 40
0.045
309
GRIDFORMAT_END
 95
       32
302
GRIDFORMAT
  1
GRIDFORMAT_BEGIN
 90
        0
 91
        1
 62
     0
 92
       -2
340
0
 93
        0
 40
0.045
309
GRIDFORMAT_END
309
TABLEFORMAT_END
  1
CELLSTYLE_BEGIN
 90
        1
 91
        1
300
_TITLE
309
CELLSTYLE_END
300
CELLSTYLE
  1
TABLEFORMAT_BEGIN
 90
        5
170
     1
 91
        0
 92
        0
 62
   257
 93
        1
300
CONTENTFORMAT
  1
CONTENTFORMAT_BEGIN
 90
        0
 91
        0
 92
        4
 93
        0
300

 40
0.0
140
1.0
 94
        5
 62
     0
340
852
144
0.18
309
CONTENTFORMAT_END
171
     1
301
MARGIN
  1
CELLMARGIN_BEGIN
 40
0.06
 40
0.06
 40
0.06
 40
0.06
 40
0.18
 40
0.18
309
CELLMARGIN_END
 94
        6
 95
        1
302
GRIDFORMAT
  1
GRIDFORMAT_BEGIN
 90
        0
 91
        1
 62
     0
 92
       -2
340
0
 93
        0
 40
0.045
309
GRIDFORMAT_END
 95
        2
302
GRIDFORMAT
  1
GRIDFORMAT_BEGIN
 90
        0
 91
        1
 62
     0
 92
       -2
340
0
 93
        0
 40
0.045
309
GRIDFORMAT_END
 95
        4
302
GRIDFORMAT
  1
GRIDFORMAT_BEGIN
 90
        0
 91
        1
 62
     0
 92
       -2
340
0
 93
        0
 40
0.045
309
GRIDFORMAT_END
 95
        8
302
GRIDFORMAT
  1
GRIDFORMAT_BEGIN
 90
        0
 91
        1
 62
     0
 92
       -2
340
0
 93
        0
 40
0.045
309
GRIDFORMAT_END
 95
       16
302
GRIDFORMAT
  1
GRIDFORMAT_BEGIN
 90
        0
 91
        1
 62
     0
 92
       -2
340
0
 93
        0
 40
0.045
309
GRIDFORMAT_END
 95
       32
302
GRIDFORMAT
  1
GRIDFORMAT_BEGIN
 90
        0
 91
        1
 62
     0
 92
       -2
340
0
 93
        0
 40
0.045
309
GRIDFORMAT_END
309
TABLEFORMAT_END
  1
CELLSTYLE_BEGIN
 90
        2
 91
        1
300
_HEADER
309
CELLSTYLE_END
300
CELLSTYLE
  1
TABLEFORMAT_BEGIN
 90
        5
170
     1
 91
        0
 92
        0
 62
   257
 93
        1
300
CONTENTFORMAT
  1
CONTENTFORMAT_BEGIN
 90
        0
 91
        0
 92
        4
 93
        0
300

 40
0.0
140
1.0
 94
        2
 62
     0
340
852
144
0.18
309
CONTENTFORMAT_END
171
     1
301
MARGIN
  1
CELLMARGIN_BEGIN
 40
0.06
 40
0.06
 40
0.06
 40
0.06
 40
0.18
 40
0.18
309
CELLMARGIN_END
 94
        6
 95
        1
302
GRIDFORMAT
  1
GRIDFORMAT_BEGIN
 90
        0
 91
        1
 62
     0
 92
       -2
340
0
 93
        0
 40
0.045
309
GRIDFORMAT_END
 95
        2
302
GRIDFORMAT
  1
GRIDFORMAT_BEGIN
 90
        0
 91
        1
 62
     0
 92
       -2
340
0
 93
        0
 40
0.045
309
GRIDFORMAT_END
 95
        4
302
GRIDFORMAT
  1
GRIDFORMAT_BEGIN
 90
        0
 91
        1
 62
     0
 92
       -2
340
0
 93
        0
 40
0.045
309
GRIDFORMAT_END
 95
        8
302
GRIDFORMAT
  1
GRIDFORMAT_BEGIN
 90
        0
 91
        1
 62
     0
 92
       -2
340
0
 93
        0
 40
0.045
309
GRIDFORMAT_END
 95
       16
302
GRIDFORMAT
  1
GRIDFORMAT_BEGIN
 90
        0
 91
        1
 62
     0
 92
       -2
340
0
 93
        0
 40
0.045
309
GRIDFORMAT_END
 95
       32
302
GRIDFORMAT
  1
GRIDFORMAT_BEGIN
 90
        0
 91
        1
 62
     0
 92
       -2
340
0
 93
        0
 40
0.045
309
GRIDFORMAT_END
309
TABLEFORMAT_END
  1
CELLSTYLE_BEGIN
 90
        3
 91
        2
300
_DATA
309
CELLSTYLE_END
  0
XRECORD
  5
2293
102
{ACAD_REACTORS
330
1925
102
}
330
1925
100
AcDbXrecord
280
     1
102
ACAD_ROUNDTRIP_PRE2007_TABLESTYLE
 90
        4
 91
        0
  1

 92
        4
 93
        0
  2

 94
        4
 95
        0
  3

  0
ENDSEC
  0
EOF
