  0
SECTION
  2
HEADER
  9
$ACADVER
  1
AC1015
  9
$ACADMAINTVER
 70
    20
  9
$DWGCODEPAGE
  3
ANSI_932
  9
$INSBASE
 10
0.0
 20
0.0
 30
0.0
  9
$EXTMIN
 10
-349.0
 20
-633.2604230978013
 30
0.0
  9
$EXTMAX
 10
786.998518150142
 20
1107.619530546515
 30
0.0
  9
$LIMMIN
 10
-2970.0
 20
-2100.0
  9
$LIMMAX
 10
2970.0
 20
2100.0
  9
$ORTHOMODE
 70
     0
  9
$REGENMODE
 70
     0
  9
$FILLMODE
 70
     1
  9
$QTEXTMODE
 70
     0
  9
$MIRRTEXT
 70
     0
  9
$LTSCALE
 40
20.0
  9
$ATTMODE
 70
     1
  9
$TEXTSIZE
 40
64.0
  9
$TRACEWID
 40
0.05
  9
$TEXTSTYLE
  7
STANDARD
  9
$CLAYER
  8
0
  9
$CELTYPE
  6
CONTINUOUS
  9
$CECOLOR
 62
   256
  9
$CELTSCALE
 40
1.0
  9
$DISPSILH
 70
     0
  9
$DIMSCALE
 40
1.0
  9
$DIMASZ
 40
0.12
  9
$DIMEXO
 40
0.05
  9
$DIMDLI
 40
0.5
  9
$DIMRND
 40
0.0
  9
$DIMDLE
 40
0.0
  9
$DIMEXE
 40
0.1
  9
$DIMTP
 40
0.1
  9
$DIMTM
 40
0.1
  9
$DIMTXT
 40
0.12
  9
$DIMCEN
 40
0.0
  9
$DIMTSZ
 40
0.0
  9
$DIMTOL
 70
     0
  9
$DIMLIM
 70
     0
  9
$DIMTIH
 70
     1
  9
$DIMTOH
 70
     1
  9
$DIMSE1
 70
     0
  9
$DIMSE2
 70
     0
  9
$DIMTAD
 70
     0
  9
$DIMZIN
 70
     7
  9
$DIMBLK
  1

  9
$DIMASO
 70
     1
  9
$DIMSHO
 70
     0
  9
$DIMPOST
  1

  9
$DIMAPOST
  1
mm
  9
$DIMALT
 70
     0
  9
$DIMALTD
 70
     2
  9
$DIMALTF
 40
25.4
  9
$DIMLFAC
 40
1.0
  9
$DIMTOFL
 70
     0
  9
$DIMTVP
 40
0.0
  9
$DIMTIX
 70
     0
  9
$DIMSOXD
 70
     0
  9
$DIMSAH
 70
     0
  9
$DIMBLK1
  1

  9
$DIMBLK2
  1

  9
$DIMSTYLE
  2
AM_ANSI
  9
$DIMCLRD
 70
   256
  9
$DIMCLRE
 70
   256
  9
$DIMCLRT
 70
     2
  9
$DIMTFAC
 40
0.71
  9
$DIMGAP
 40
0.06
  9
$DIMJUST
 70
     0
  9
$DIMSD1
 70
     0
  9
$DIMSD2
 70
     0
  9
$DIMTOLJ
 70
     1
  9
$DIMTZIN
 70
     7
  9
$DIMALTZ
 70
     0
  9
$DIMALTTZ
 70
     0
  9
$DIMUPT
 70
     0
  9
$DIMDEC
 70
     4
  9
$DIMTDEC
 70
     4
  9
$DIMALTU
 70
     2
  9
$DIMALTTD
 70
     4
  9
$DIMTXSTY
  7
STANDARD
  9
$DIMAUNIT
 70
     0
  9
$DIMADEC
 70
     0
  9
$DIMALTRND
 40
0.0
  9
$DIMAZIN
 70
     2
  9
$DIMDSEP
 70
    46
  9
$DIMATFIT
 70
     3
  9
$DIMFRAC
 70
     0
  9
$DIMLDRBLK
  1

  9
$DIMLUNIT
 70
     2
  9
$DIMLWD
 70
    -1
  9
$DIMLWE
 70
    -1
  9
$DIMTMOVE
 70
     0
  9
$LUNITS
 70
     2
  9
$LUPREC
 70
     4
  9
$SKETCHINC
 40
0.1
  9
$FILLETRAD
 40
4.0
  9
$AUNITS
 70
     1
  9
$AUPREC
 70
     3
  9
$MENU
  1
ACAD
  9
$ELEVATION
 40
0.0
  9
$PELEVATION
 40
0.0
  9
$THICKNESS
 40
50.0
  9
$LIMCHECK
 70
     0
  9
$CHAMFERA
 40
0.0
  9
$CHAMFERB
 40
0.0
  9
$CHAMFERC
 40
0.0
  9
$CHAMFERD
 40
0.0
  9
$SKPOLY
 70
     0
  9
$TDCREATE
 40
2452321.396199653
  9
$TDUCREATE
 40
2452321.021199653
  9
$TDUPDATE
 40
2456533.551236181
  9
$TDUUPDATE
 40
2456533.176236181
  9
$TDINDWG
 40
0.7478386574
  9
$TDUSRTIMER
 40
0.7478368866
  9
$USRTIMER
 70
     1
  9
$ANGBASE
 50
0.0
  9
$ANGDIR
 70
     0
  9
$PDMODE
 70
     3
  9
$PDSIZE
 40
-2.0
  9
$PLINEWID
 40
0.0
  9
$SPLFRAME
 70
     0
  9
$SPLINETYPE
 70
     6
  9
$SPLINESEGS
 70
     8
  9
$HANDSEED
  5
20F9
  9
$SURFTAB1
 70
     6
  9
$SURFTAB2
 70
     6
  9
$SURFTYPE
 70
     6
  9
$SURFU
 70
     6
  9
$SURFV
 70
     6
  9
$UCSBASE
  2

  9
$UCSNAME
  2

  9
$UCSORG
 10
0.0
 20
0.0
 30
0.0
  9
$UCSXDIR
 10
1.0
 20
0.0
 30
0.0
  9
$UCSYDIR
 10
0.0
 20
1.0
 30
0.0
  9
$UCSORTHOREF
  2

  9
$UCSORTHOVIEW
 70
     0
  9
$UCSORGTOP
 10
0.0
 20
0.0
 30
0.0
  9
$UCSORGBOTTOM
 10
0.0
 20
0.0
 30
0.0
  9
$UCSORGLEFT
 10
0.0
 20
0.0
 30
0.0
  9
$UCSORGRIGHT
 10
0.0
 20
0.0
 30
0.0
  9
$UCSORGFRONT
 10
0.0
 20
0.0
 30
0.0
  9
$UCSORGBACK
 10
0.0
 20
0.0
 30
0.0
  9
$PUCSBASE
  2

  9
$PUCSNAME
  2

  9
$PUCSORG
 10
0.0
 20
0.0
 30
0.0
  9
$PUCSXDIR
 10
1.0
 20
0.0
 30
0.0
  9
$PUCSYDIR
 10
0.0
 20
1.0
 30
0.0
  9
$PUCSORTHOREF
  2

  9
$PUCSORTHOVIEW
 70
     0
  9
$PUCSORGTOP
 10
0.0
 20
0.0
 30
0.0
  9
$PUCSORGBOTTOM
 10
0.0
 20
0.0
 30
0.0
  9
$PUCSORGLEFT
 10
0.0
 20
0.0
 30
0.0
  9
$PUCSORGRIGHT
 10
0.0
 20
0.0
 30
0.0
  9
$PUCSORGFRONT
 10
0.0
 20
0.0
 30
0.0
  9
$PUCSORGBACK
 10
0.0
 20
0.0
 30
0.0
  9
$USERI1
 70
     0
  9
$USERI2
 70
     0
  9
$USERI3
 70
     0
  9
$USERI4
 70
     0
  9
$USERI5
 70
     0
  9
$USERR1
 40
20.0
  9
$USERR2
 40
0.0
  9
$USERR3
 40
0.0
  9
$USERR4
 40
0.0
  9
$USERR5
 40
0.0
  9
$WORLDVIEW
 70
     1
  9
$SHADEDGE
 70
     3
  9
$SHADEDIF
 70
    70
  9
$TILEMODE
 70
     1
  9
$MAXACTVP
 70
    64
  9
$PINSBASE
 10
0.0
 20
0.0
 30
0.0
  9
$PLIMCHECK
 70
     0
  9
$PEXTMIN
 10
1.000000000000000E+20
 20
1.000000000000000E+20
 30
1.000000000000000E+20
  9
$PEXTMAX
 10
-1.000000000000000E+20
 20
-1.000000000000000E+20
 30
-1.000000000000000E+20
  9
$PLIMMIN
 10
0.0
 20
0.0
  9
$PLIMMAX
 10
12.0
 20
9.0
  9
$UNITMODE
 70
     0
  9
$VISRETAIN
 70
     1
  9
$PLINEGEN
 70
     0
  9
$PSLTSCALE
 70
     1
  9
$TREEDEPTH
 70
  3020
  9
$CMLSTYLE
  2
STANDARD
  9
$CMLJUST
 70
     0
  9
$CMLSCALE
 40
1.0
  9
$PROXYGRAPHICS
 70
     1
  9
$MEASUREMENT
 70
     0
  9
$CELWEIGHT
370
    -1
  9
$ENDCAPS
280
     0
  9
$JOINSTYLE
280
     0
  9
$LWDISPLAY
290
     0
  9
$INSUNITS
 70
     0
  9
$HYPERLINKBASE
  1

  9
$STYLESHEET
  1

  9
$XEDIT
290
     1
  9
$CEPSNTYPE
380
     0
  9
$PSTYLEMODE
290
     1
  9
$FINGERPRINTGUID
  2
{68F3F60F-982D-43C0-B084-568AB2094408}
  9
$VERSIONGUID
  2
{7881680C-4CA2-4312-8F75-88E1D1ABDAA6}
  9
$EXTNAMES
290
     1
  9
$PSVPSCALE
 40
0.0
  9
$OLESTARTUP
290
     0
  0
ENDSEC
  0
SECTION
  2
CLASSES
  0
CLASS
  1
ACDBDICTIONARYWDFLT
  2
AcDbDictionaryWithDefault
  3
ObjectDBX Classes
 90
        0
280
     0
281
     0
  0
CLASS
  1
ACDBPLACEHOLDER
  2
AcDbPlaceHolder
  3
ObjectDBX Classes
 90
        0
280
     0
281
     0
  0
CLASS
  1
LAYOUT
  2
AcDbLayout
  3
ObjectDBX Classes
 90
        0
280
     0
281
     0
  0
CLASS
  1
DICTIONARYVAR
  2
AcDbDictionaryVar
  3
ObjectDBX Classes
 90
        0
280
     0
281
     0
  0
CLASS
  1
TABLESTYLE
  2
AcDbTableStyle
  3
ObjectDBX Classes
 90
     4095
280
     0
281
     0
  0
CLASS
  1
ACME_DOCUMENT
  2
AcMeDbDoc
  3
AcMeServices
 90
     1024
280
     0
281
     0
  0
CLASS
  1
AMGSETTINGSOBJ
  2
AmgSettingsObj
  3
"AcadM|Product Description: AutoCAD Mechanical|Company: Autodesk, Inc."
 90
     1024
280
     0
281
     0
  0
CLASS
  1
ACMESCOPE
  2
AcMeScope
  3
AcMeServices
 90
     1024
280
     0
281
     0
  0
CLASS
  1
ACMECOMMANDHISTORY
  2
AcMeCommandHistory
  3
AcMeServices
 90
     1024
280
     0
281
     0
  0
CLASS
  1
ACIMSYSVARMAN
  2
AcImSysVarManager
  3
AcMeServices
 90
     1024
280
     0
281
     0
  0
CLASS
  1
ACIMREALSYSVAR
  2
AcImRealSysVar
  3
AcMeServices
 90
     1024
280
     0
281
     0
  0
CLASS
  1
ACIMINTSYSVAR
  2
AcImIntSysVar
  3
AcMeServices
 90
     1024
280
     0
281
     0
  0
CLASS
  1
ACMEDRAWINGMAN
  2
AcMeDrawingMan
  3
AcMeServices
 90
     1024
280
     0
281
     0
  0
CLASS
  1
ACMEVIEW
  2
AcMeView
  3
AcMeServices
 90
     1024
280
     0
281
     0
  0
CLASS
  1
ACDBENTITYCACHE
  2
AcMeEntityCache
  3
AcMeServices
 90
     1024
280
     0
281
     0
  0
CLASS
  1
GSMANAGER
  2
AcMeGSManager
  3
AcMeServices
 90
     1024
280
     0
281
     0
  0
CLASS
  1
AMDTINTERNALREACTOR
  2
AmdtInternalReactor
  3
AcMeServices
 90
     1024
280
     0
281
     0
  0
CLASS
  1
ACMESTATEMGR
  2
AcMeStateMgr
  3
AcMeServices
 90
     1024
280
     0
281
     0
  0
CLASS
  1
ACGREFMASTER
  2
AcGrefMaster
  3
AcAttribServices
 90
     1024
280
     0
281
     0
  0
CLASS
  1
AM_DRAWING_MGR
  2
AcDmDwgMgr
  3
AcMechDwgViewMgmt
 90
     1024
280
     0
281
     0
  0
CLASS
  1
AM_DWG_DOCUMENT
  2
AcDmDwgDocument
  3
AcMechDwgViewMgmt
 90
     1024
280
     0
281
     0
  0
CLASS
  1
AM_DWG_SHEET
  2
AcDmSheet
  3
AcMechDwgViewMgmt
 90
     1024
280
     0
281
     0
  0
CLASS
  1
AM_VIEWDIMPARMAP
  2
AcDmViewDimParMap
  3
AcMechDwgViewMgmt
 90
     1024
280
     0
281
     0
  0
CLASS
  1
AM_DWGMGR_NAME
  2
AcDmDwgMgrName
  3
AcMechDwgViewMgmt
 90
     1024
280
     0
281
     0
  0
CLASS
  1
ACME_DATABASE
  2
AcMeDbDatabase
  3
AcMeServices
 90
     1024
280
     0
281
     0
  0
CLASS
  1
ACRFINSADJUSTERMGR
  2
AcRfInsAdjusterMgr
  3
AcMeServices
 90
     1024
280
     0
281
     0
  0
CLASS
  1
ACGREFACADMASTER
  2
AcGrefacadMaster
  3
AcGrefServices
 90
     1024
280
     0
281
     0
  0
CLASS
  1
AMDTMENUSTATEMGR
  2
AmdtMenuStateMgr
  3
McadcomServices
 90
     1024
280
     0
281
     0
  0
CLASS
  1
AMDTMCOMMENUSTATE
  2
AmdtMcomMenuState
  3
McadcomServices
 90
     1024
280
     0
281
     0
  0
CLASS
  1
AMIMASTER
  2
AmiMaster
  3
AmiServices
 90
     1024
280
     0
281
     0
  0
CLASS
  1
ASAPP
  2
AcAsAppObject
  3
AutoSurfServices
 90
     1024
280
     0
281
     0
  0
CLASS
  1
IM_STATIC_MAN
  2
AcImStaticVarManager
  3
AcMeServices
 90
     1024
280
     0
281
     0
  0
CLASS
  1
ACIMSTRSYSVAR
  2
AcImStrSysVar
  3
AcMeServices
 90
     1024
280
     0
281
     0
  0
CLASS
  1
ACIMDBLSTATICVAR
  2
AcImDblStaticVar
  3
AcMeServices
 90
     1024
280
     0
281
     0
  0
CLASS
  1
ACIMSTRSTATICVAR
  2
AcImStrStaticVar
  3
AcMeServices
 90
     1024
280
     0
281
     0
  0
CLASS
  1
ACIMINTSTATICVAR
  2
AcImIntStaticVar
  3
AcMeServices
 90
     1024
280
     0
281
     0
  0
CLASS
  1
ACASGREFMASTER
  2
AcAsGrefMaster
  3
AutoSurfResolverServices
 90
     1024
280
     0
281
     0
  0
CLASS
  1
ACADGREFMODULE
  2
AcAdGrefModule
  3
AdGrefServices
 90
     1024
280
     0
281
     0
  0
CLASS
  1
AMDTMAPISURFMOUDULE
  2
AmdtMApiSurfModule
  3
MApiSurfServices
 90
    33792
280
     0
281
     0
  0
CLASS
  1
MAPIAMMOUDLE
  2
MApiAmModule
  3
MApiAmServices
 90
     1024
280
     0
281
     0
  0
CLASS
  1
AMDTADMENUSTATE
  2
AmdtAdMenuState
  3
DesignerServices
 90
     1024
280
     0
281
     0
  0
CLASS
  1
ADAPPL
  2
AcAdAppl
  3
DesignerServices
 90
     1024
280
     0
281
     0
  0
CLASS
  1
DEPMGR
  2
AcAdDepMgr
  3
DesignerServices
 90
     1024
280
     0
281
     0
  0
CLASS
  1
PARAMMGR
  2
AcAdParamMgr
  3
DesignerServices
 90
     1024
280
     0
281
     0
  0
CLASS
  1
PARAMSCOPE
  2
AcAdParamScope
  3
DesignerServices
 90
     1024
280
     0
281
     0
  0
CLASS
  1
NAMEDAPPL
  2
AcAdNamedAppl
  3
DesignerServices
 90
     1024
280
     0
281
     0
  0
CLASS
  1
AMDTDMMENUSTATE
  2
AmdtDmMenuState
  3
AcMechDwgViewMgmt
 90
     1024
280
     0
281
     0
  0
CLASS
  1
MAPIADMODULE
  2
MApiAdModule
  3
MApiAdServices
 90
     1024
280
     0
281
     0
  0
CLASS
  1
AMDTAMMENUSTATE
  2
AmdtAmMenuState
  3
DesignerAssemblies
 90
     1024
280
     0
281
     0
  0
CLASS
  1
ACAMPROJECT
  2
AcAmProject
  3
DesignerAssemblies
 90
     1024
280
     0
281
     0
  0
CLASS
  1
ACAMGRCOMPDEF
  2
AcAmGrCompDef
  3
DesignerAssemblies
 90
     1024
280
     0
281
     0
  0
CLASS
  1
ACCMCONTEXT
  2
AcCmContext
  3
DesignerAssemblies
 90
     1024
280
     0
281
     0
  0
CLASS
  1
ACAMCOMPDEF
  2
AcAmCompDef
  3
DesignerAssemblies
 90
     1024
280
     0
281
     0
  0
CLASS
  1
ACAMCOMPDEFMGR
  2
AcAmCompDefMgr
  3
DesignerAssemblies
 90
     1024
280
     0
281
     0
  0
CLASS
  1
AMCONTEXTMGR
  2
AcAmContextMgr
  3
DesignerAssemblies
 90
     1024
280
     0
281
     0
  0
CLASS
  1
ACAMCONTEXTMODELER
  2
AcAmContextModeler
  3
DesignerAssemblies
 90
     1024
280
     0
281
     0
  0
CLASS
  1
ACMDATADICTIONARY
  2
AcmDataDictionary
  3
"AcmSymBB|Product Description: AutoCAD Mechanical|Company: Autodesk, Inc."
 90
     1024
280
     0
281
     0
  0
CLASS
  1
ACMDATAENTRYBLOCK
  2
AcmDataEntryBlock
  3
AcmSymBB|Product Description: AutoCAD Mechanical|Company: Autodesk, Inc.
 90
     1024
280
     0
281
     0
  0
CLASS
  1
CATALOGSTATE
  2
AcAmCatalogState
  3
DesignerAssemblies
 90
     1024
280
     0
281
     0
  0
CLASS
  1
ACAMGRCOMPDEFSET
  2
AcAmGrCompDefSet
  3
DesignerAssemblies
 90
     1024
280
     0
281
     0
  0
CLASS
  1
AMDTBROWSERDBTAB
  2
AmdtBrowserDbTab
  3
McadcomServices
 90
     1024
280
     0
281
     0
  0
CLASS
  1
CBROWSERAPPOBJECT
  2
CBrowserAppObject
  3
McadcomServices
 90
     1024
280
     0
281
     0
  0
CLASS
  1
DM_PLACEHOLDER
  2
AcDmSelsetPlaceholder
  3
AcMechDwgViewMgmt
 90
     1024
280
     0
281
     0
  0
CLASS
  1
ACMSTANDARDANSI
  2
AcmStandardANSI
  3
"Amdt_StdImp|Product Description: AutoCAD Mechanical|Company: Autodesk, Inc."
 90
     1024
280
     0
281
     0
  0
CLASS
  1
AMGOBJPROPCFG
  2
AmgObjPropCfg
  3
"AmgLay|Product Description: AutoCAD Mechanical|Company: Autodesk, Inc."
 90
     1025
280
     0
281
     0
  0
CLASS
  1
ACMSURFSTANDARDANSI
  2
AcmSurfTextStdANSI
  3
"Amdt_StdImp|Product Description: AutoCAD Mechanical|Company: Autodesk, Inc."
 90
     1024
280
     0
281
     0
  0
CLASS
  1
ACMFCFSTANDARDANSI
  2
AcmFCFStdANSI
  3
"Amdt_StdImp|Product Description: AutoCAD Mechanical|Company: Autodesk, Inc."
 90
     1024
280
     0
281
     0
  0
CLASS
  1
ACMWELDSTANDARDANSI
  2
AcmWeldingStdANSI
  3
"Amdt_StdImp|Product Description: AutoCAD Mechanical|Company: Autodesk, Inc."
 90
     1024
280
     0
281
     0
  0
CLASS
  1
ACMIDSTANDARDANSI
  2
AcmIdStdANSI
  3
"Amdt_StdImp|Product Description: AutoCAD Mechanical|Company: Autodesk, Inc."
 90
     1024
280
     0
281
     0
  0
CLASS
  1
ACMDATUMSTANDARDANSI
  2
AcmDatumStdANSI
  3
"Amdt_StdImp|Product Description: AutoCAD Mechanical|Company: Autodesk, Inc."
 90
     1024
280
     0
281
     0
  0
CLASS
  1
ACMBOMSTANDARDANSI
  2
AcmBOMStdANSI
  3
"Amdt_StdImp|Product Description: AutoCAD Mechanical|Company: Autodesk, Inc."
 90
     1024
280
     0
281
     0
  0
CLASS
  1
ACMDETAILSTANDARDANSI
  2
AmdtDetailSymStdANSI
  3
"Amdt_StdImp|Product Description: AutoCAD Mechanical|Company: Autodesk, Inc."
 90
     1024
280
     0
281
     0
  0
CLASS
  1
ACMSECTIONSTANDARDANSI
  2
AmdtSectionSymStdANSI
  3
"Amdt_StdImp|Product Description: AutoCAD Mechanical|Company: Autodesk, Inc."
 90
     1024
280
     0
281
     0
  0
CLASS
  1
ACMCENTERLINESTANDARDANSI
  2
AmdtCenterLineStdANSI
  3
"Amdt_StdImp|Product Description: AutoCAD Mechanical|Company: Autodesk, Inc."
 90
     1024
280
     0
281
     0
  0
CLASS
  1
ACMTHREADLINESTANDARDANSI
  2
AmdtThreadLineStdANSI
  3
"Amdt_StdImp|Product Description: AutoCAD Mechanical|Company: Autodesk, Inc."
 90
     1024
280
     0
281
     0
  0
CLASS
  1
ACMNOTESTANDARDANSI
  2
AmdtNoteStdANSI
  3
"Amdt_StdImp|Product Description: AutoCAD Mechanical|Company: Autodesk, Inc."
 90
     1024
280
     0
281
     0
  0
CLASS
  1
AMDTNOTETEMPLATEDB
  2
AmdtNoteTemplateDB
  3
AcmSymBB|Product Description: AutoCAD Mechanical|Company: Autodesk, Inc.
 90
     1024
280
     0
281
     0
  0
CLASS
  1
ACAMGLAYSTD
  2
AcAmgLayStd
  3
"AmgLay|Product Description: AutoCAD Mechanical|Company: Autodesk, Inc."
 90
     1024
280
     0
281
     0
  0
CLASS
  1
ACAMGDIMSTD
  2
AcAmgDimStd
  3
"AmgDim|Product Description: AutoCAD Mechanical|Company: Autodesk, Inc."
 90
     1024
280
     0
281
     0
  0
CLASS
  1
ACAMGHOLECHARTSTDANSI
  2
AcAmgHoleChartStdANSI
  3
AmgDim|Product Description: AutoCAD Mechanical|Company: Autodesk, Inc.
 90
     1024
280
     0
281
     0
  0
CLASS
  1
ACAMGTITLESTD
  2
AcAmgTitleStd
  3
"AmgTitle|Product Description: AutoCAD Mechanical|Company: Autodesk, Inc."
 90
     4095
280
     0
281
     0
  0
CLASS
  1
ACAMGFILTERDAT
  2
AcAmgFilterDat
  3
"AcadM|Product Description: AutoCAD Mechanical|Company: Autodesk, Inc."
 90
     1024
280
     0
281
     0
  0
CLASS
  1
LAYER_INDEX
  2
AcDbLayerIndex
  3
ObjectDBX Classes
 90
        0
280
     0
281
     0
  0
CLASS
  1
IDBUFFER
  2
AcDbIdBuffer
  3
ObjectDBX Classes
 90
        0
280
     0
281
     0
  0
CLASS
  1
SORTENTSTABLE
  2
AcDbSortentsTable
  3
ObjectDBX Classes
 90
        0
280
     0
281
     0
  0
CLASS
  1
MATERIAL
  2
AcDbMaterial
  3
ObjectDBX Classes
 90
     1153
280
     0
281
     0
  0
CLASS
  1
VISUALSTYLE
  2
AcDbVisualStyle
  3
ObjectDBX Classes
 90
     4095
280
     0
281
     0
  0
CLASS
  1
SCALE
  2
AcDbScale
  3
ObjectDBX Classes
 90
     1153
280
     0
281
     0
  0
CLASS
  1
MLEADERSTYLE
  2
AcDbMLeaderStyle
  3
ACDB_MLEADERSTYLE_CLASS
 90
     4095
280
     0
281
     0
  0
CLASS
  1
CELLSTYLEMAP
  2
AcDbCellStyleMap
  3
ObjectDBX Classes
 90
     1152
280
     0
281
     0
  0
CLASS
  1
ACRFATTGENMGR
  2
AcRfAttGeneralMgr
  3
AcAttribServices
 90
     1024
280
     0
281
     0
  0
CLASS
  1
ACRFOBJATTMGR
  2
AcRfObjAttGroupMgr
  3
AcAttribServices
 90
     1024
280
     0
281
     0
  0
CLASS
  1
ACRFMCADAPIATTHOLDER
  2
AcRfMCADAPIAttHolder
  3
AcAttribServices
 90
     1024
280
     0
281
     0
  0
CLASS
  1
AMDTSYSATTR
  2
AmdtSystemAttribute
  3
AcAttribServices
 90
     1024
280
     0
281
     0
  0
CLASS
  1
ACMTAPERSTANDARDANSI
  2
AcmTaperStdANSI
  3
"Amdt_StdImp|Product Description: AutoCAD Mechanical|Company: Autodesk, Inc."
 90
     1024
280
     0
281
     0
  0
CLASS
  1
ACMANOOTATIONVIEWSTANDARDANSI
  2
AmdtAnViewStdANSI
  3
"Amdt_StdImp|Product Description: AutoCAD Mechanical|Company: Autodesk, Inc."
 90
     1024
280
     0
281
     0
  0
ENDSEC
  0
SECTION
  2
TABLES
  0
TABLE
  2
VPORT
  5
849
330
0
100
AcDbSymbolTable
 70
     1
  0
VPORT
  5
1298
330
849
100
AcDbSymbolTableRecord
100
AcDbViewportTableRecord
  2
*Active
 70
     0
 10
0.0
 20
0.0
 11
1.0
 21
1.0
 12
150.4814334781013
 22
-242.5183473363688
 13
0.0
 23
0.0
 14
1.0
 24
1.0
 15
0.0
 25
0.0
 16
0.0
 26
0.0
 36
1.0
 17
218.8888690654281
 27
237.1215920861823
 37
0.0
 40
2805.490710386186
 41
1.403890160183066
 42
50.0
 43
0.0
 44
0.0
 50
0.0
 51
0.0
 71
     0
 72
   100
 73
     1
 74
     0
 75
     0
 76
     0
 77
     0
 78
     0
281
     0
 65
     0
110
0.0
120
0.0
130
0.0
111
1.0
121
0.0
131
0.0
112
0.0
122
1.0
132
0.0
 79
     0
146
0.0
  0
ENDTAB
  0
TABLE
  2
LTYPE
  5
846
330
0
100
AcDbSymbolTable
 70
    19
  0
LTYPE
  5
854
330
846
100
AcDbSymbolTableRecord
100
AcDbLinetypeTableRecord
  2
BYBLOCK
 70
     0
  3

 72
    65
 73
     0
 40
0.0
  0
LTYPE
  5
855
330
846
100
AcDbSymbolTableRecord
100
AcDbLinetypeTableRecord
  2
BYLAYER
 70
     0
  3

 72
    65
 73
     0
 40
0.0
  0
LTYPE
  5
856
330
846
100
AcDbSymbolTableRecord
100
AcDbLinetypeTableRecord
  2
CONTINUOUS
 70
     0
  3
実線
 72
    65
 73
     0
 40
0.0
  0
LTYPE
  5
865
330
846
100
AcDbSymbolTableRecord
100
AcDbLinetypeTableRecord
  2
DASHDOT
 70
     0
  3
____ _ ____ _ ____ _ ____ _ ____ _ ____ _ ____
 72
    65
 73
     4
 40
5.5
 49
4.0
 74
     0
 49
-0.6
 74
     0
 49
0.3
 74
     0
 49
-0.6
 74
     0
  0
LTYPE
  5
1188
330
846
100
AcDbSymbolTableRecord
100
AcDbLinetypeTableRecord
  2
HIDDEN
 70
     0
  3
Hidden __ __ __ __ __ __ __ __ __ __ __ __ __ _
 72
    65
 73
     2
 40
0.375
 49
0.25
 74
     0
 49
-0.125
 74
     0
  0
LTYPE
  5
1189
330
846
100
AcDbSymbolTableRecord
100
AcDbLinetypeTableRecord
  2
PHANTOM2
 70
     0
  3
Phantom (.5x) ___ _ _ ___ _ _ ___ _ _ ___ _ _
 72
    65
 73
     6
 40
1.25
 49
0.625
 74
     0
 49
-0.125
 74
     0
 49
0.125
 74
     0
 49
-0.125
 74
     0
 49
0.125
 74
     0
 49
-0.125
 74
     0
  0
LTYPE
  5
118A
330
846
100
AcDbSymbolTableRecord
100
AcDbLinetypeTableRecord
  2
CENTER
 70
     0
  3
Center ____ _ ____ _ ____ _ ____ _ ____ _ ____
 72
    65
 73
     4
 40
2.0
 49
1.25
 74
     0
 49
-0.25
 74
     0
 49
0.25
 74
     0
 49
-0.25
 74
     0
  0
LTYPE
  5
11D9
330
846
100
AcDbSymbolTableRecord
100
AcDbLinetypeTableRecord
  2
ASULTYPE
 70
     0
  3
実線
 72
    65
 73
     2
 40
3.0
 49
2.5
 74
     0
 49
0.5
 74
     0
  0
LTYPE
  5
11DA
330
846
100
AcDbSymbolTableRecord
100
AcDbLinetypeTableRecord
  2
ASVLTYPE
 70
     0
  3
__ __ __ __ __ __ __ __ __ __ __ __ __ __ __ __ __ __ __ __ __
 72
    65
 73
     2
 40
0.75
 49
0.5
 74
     0
 49
-0.25
 74
     0
  0
LTYPE
  5
1221
330
846
100
AcDbSymbolTableRecord
100
AcDbLinetypeTableRecord
  2
AM_ISO02W050
 70
     0
  3
__ __ __ __ __ __ __ __ __ __ __ __ __ __ __
 72
    65
 73
     2
 40
7.5
 49
6.0
 74
     0
 49
-1.5
 74
     0
  0
LTYPE
  5
1222
330
846
100
AcDbSymbolTableRecord
100
AcDbLinetypeTableRecord
  2
AM_ISO08W050
 70
     0
  3
____ . ____ . ____ . ____ . ____ . ____ . ____
 72
    65
 73
     4
 40
18.0
 49
12.0
 74
     0
 49
-1.5
 74
     0
 49
3.0
 74
     0
 49
-1.5
 74
     0
  0
LTYPE
  5
1223
330
846
100
AcDbSymbolTableRecord
100
AcDbLinetypeTableRecord
  2
AM_ISO09W050
 70
     0
  3
_____ . . _____ . . _____ . . ____ .. ____
 72
    65
 73
     6
 40
22.5
 49
12.0
 74
     0
 49
-1.5
 74
     0
 49
3.0
 74
     0
 49
-1.5
 74
     0
 49
3.0
 74
     0
 49
-1.5
 74
     0
  0
LTYPE
  5
1224
330
846
100
AcDbSymbolTableRecord
100
AcDbLinetypeTableRecord
  2
Amconstr
 70
     0
  3
_______________________
 72
    65
 73
     2
 40
9999.0
 49
9999.0
 74
     0
 49
0.0
 74
     0
  0
LTYPE
  5
1225
330
846
100
AcDbSymbolTableRecord
100
AcDbLinetypeTableRecord
  2
AM_ISO08W050x2
 70
     0
  3
__ . __ . __ . __ . __ . __
 72
    65
 73
     4
 40
9.0
 49
6.0
 74
     0
 49
-0.75
 74
     0
 49
1.5
 74
     0
 49
-0.75
 74
     0
  0
LTYPE
  5
1226
330
846
100
AcDbSymbolTableRecord
100
AcDbLinetypeTableRecord
  2
AM_ISO02W050x2
 70
     0
  3
 _ _ _ _ _ _ _ _ _ _ _ _
 72
    65
 73
     2
 40
3.75
 49
3.0
 74
     0
 49
-0.75
 74
     0
  0
LTYPE
  5
1229
330
846
100
AcDbSymbolTableRecord
100
AcDbLinetypeTableRecord
  2
Amzigzag
 70
     0
  3
/\/-/\/-/\/-/\/-/\/-/\/
 72
    65
 73
     2
 40
11.0001
 49
0.0001
 74
     4
 75
   136
340
1228
 46
0.04
 50
0.0
 44
0.0
 45
0.0
 49
-11.0
 74
     0
  0
LTYPE
  5
122A
330
846
100
AcDbSymbolTableRecord
100
AcDbLinetypeTableRecord
  2
CENTER2
 70
     0
  3
Center (.5x) ___ _ ___ _ ___ _ ___ _ ___ _ ___
 72
    65
 73
     4
 40
1.125
 49
0.75
 74
     0
 49
-0.125
 74
     0
 49
0.125
 74
     0
 49
-0.125
 74
     0
  0
LTYPE
  5
122B
330
846
100
AcDbSymbolTableRecord
100
AcDbLinetypeTableRecord
  2
HIDDEN2
 70
     0
  3
Hidden (.5x) _ _ _ _ _ _ _ _ _ _ _ _ _ _ _ _ _
 72
    65
 73
     2
 40
0.1875
 49
0.125
 74
     0
 49
-0.0625
 74
     0
  0
LTYPE
  5
122C
330
846
100
AcDbSymbolTableRecord
100
AcDbLinetypeTableRecord
  2
Amzigzag2
 70
     0
  3
/\/-/\/-/\/-/\/-/\/-/\/
 72
    65
 73
     2
 40
0.4401
 49
0.0001
 74
     4
 75
   136
340
1228
 46
0.0016
 50
0.0
 44
0.0
 45
0.0
 49
-0.4400000000000003
 74
     0
  0
LTYPE
  5
123A
330
846
100
AcDbSymbolTableRecord
100
AcDbLinetypeTableRecord
  2
ACANSTGB
 70
     0
  3
__ . . __ . .
 72
    65
 73
     6
 40
0.35433070866
 49
0.15748031496
 74
     0
 49
-0.03937007874
 74
     0
 49
0.03937007874
 74
     0
 49
-0.03937007874
 74
     0
 49
0.03937007874
 74
     0
 49
-0.03937007874
 74
     0
  0
LTYPE
  5
123B
330
846
100
AcDbSymbolTableRecord
100
AcDbLinetypeTableRecord
  2
ACANSTGL
 70
     0
  3
_ _ _ _ _
 72
    65
 73
     2
 40
0.11811023622
 49
0.07874015748
 74
     0
 49
-0.03937007874
 74
     0
  0
ENDTAB
  0
TABLE
  2
LAYER
  5
843
102
{ACAD_XDICTIONARY
360
17C1
102
}
330
0
100
AcDbSymbolTable
 70
    12
  0
LAYER
  5
851
102
{ACAD_XDICTIONARY
360
14B1
102
}
330
843
100
AcDbSymbolTableRecord
100
AcDbLayerTableRecord
  2
0
 70
     0
 62
     7
  6
CONTINUOUS
370
    -3
390
B83
  0
LAYER
  5
863
102
{ACAD_XDICTIONARY
360
14B3
102
}
330
843
100
AcDbSymbolTableRecord
100
AcDbLayerTableRecord
  2
OUTLINE
 70
     0
 62
     3
  6
CONTINUOUS
370
    -3
390
B83
  0
LAYER
  5
866
102
{ACAD_XDICTIONARY
360
14B5
102
}
330
843
100
AcDbSymbolTableRecord
100
AcDbLayerTableRecord
  2
SIZE
 70
     0
 62
    30
  6
CONTINUOUS
370
    -3
390
B83
  0
LAYER
  5
867
102
{ACAD_XDICTIONARY
360
14B7
102
}
330
843
100
AcDbSymbolTableRecord
100
AcDbLayerTableRecord
  2
BASIS
 70
     0
 62
     6
  6
DASHDOT
370
    -3
390
B83
  0
LAYER
  5
868
102
{ACAD_XDICTIONARY
360
14B9
102
}
330
843
100
AcDbSymbolTableRecord
100
AcDbLayerTableRecord
  2
DETAIL
 70
     0
 62
     5
  6
CONTINUOUS
370
    -3
390
B83
  0
LAYER
  5
869
102
{ACAD_XDICTIONARY
360
14BB
102
}
330
843
100
AcDbSymbolTableRecord
100
AcDbLayerTableRecord
  2
ARRANGE
 70
     0
 62
     1
  6
CONTINUOUS
370
    -3
390
B83
  0
LAYER
  5
86A
330
843
100
AcDbSymbolTableRecord
100
AcDbLayerTableRecord
  2
DEFPOINTS
 70
     0
 62
     7
  6
CONTINUOUS
290
     0
370
    -3
390
B83
  0
LAYER
  5
86B
102
{ACAD_XDICTIONARY
360
14BD
102
}
330
843
100
AcDbSymbolTableRecord
100
AcDbLayerTableRecord
  2
ETC
 70
     0
 62
    61
  6
CONTINUOUS
370
    -3
390
B83
  0
LAYER
  5
86C
102
{ACAD_XDICTIONARY
360
14BF
102
}
330
843
100
AcDbSymbolTableRecord
100
AcDbLayerTableRecord
  2
FIX
 70
     0
 62
    11
  6
CONTINUOUS
370
    -3
390
B83
  0
LAYER
  5
86D
102
{ACAD_XDICTIONARY
360
14C1
102
}
330
843
100
AcDbSymbolTableRecord
100
AcDbLayerTableRecord
  2
NOTE
 70
     0
 62
     4
  6
CONTINUOUS
370
    -3
390
B83
  0
LAYER
  5
86E
102
{ACAD_XDICTIONARY
360
14C3
102
}
330
843
100
AcDbSymbolTableRecord
100
AcDbLayerTableRecord
  2
SERVICESPACE
 70
     0
 62
     2
  6
DASHDOT
370
    -3
390
B83
  0
LAYER
  5
86F
102
{ACAD_XDICTIONARY
360
14C5
102
}
330
843
100
AcDbSymbolTableRecord
100
AcDbLayerTableRecord
  2
SYMBOLLINE
 70
     0
 62
    15
  6
CONTINUOUS
370
    -3
390
B83
  0
ENDTAB
  0
TABLE
  2
STYLE
  5
844
330
0
100
AcDbSymbolTable
 70
     5
  0
STYLE
  5
852
330
844
100
AcDbSymbolTableRecord
100
AcDbTextStyleTableRecord
  2
STANDARD
 70
     0
 40
64.0
 41
0.9
 50
0.0
 71
     0
 42
64.0
  3
SIMPLEX.shx
  4
BIGFONT.shx
  0
STYLE
  5
1228
330
844
100
AcDbSymbolTableRecord
100
AcDbTextStyleTableRecord
  2

 70
     1
 40
0.0
 41
1.0
 50
0.0
 71
     0
 42
64.0
  3
genltshp.shx
  4

  0
STYLE
  5
122D
330
844
100
AcDbSymbolTableRecord
100
AcDbTextStyleTableRecord
  2
ACANSTS
 70
     0
 40
1.0
 41
1.0
 50
0.0
 71
     0
 42
64.0
  3
romans.shx
  4
extfont.shx
  0
STYLE
  5
1239
330
844
100
AcDbSymbolTableRecord
100
AcDbTextStyleTableRecord
  2
ACANSGDT
 70
     0
 40
0.0
 41
1.0
 50
0.0
 71
     0
 42
64.0
  3
amgdt.shx
  4

  0
STYLE
  5
17BC
330
844
100
AcDbSymbolTableRecord
100
AcDbTextStyleTableRecord
  2
ADESK1
 70
     0
 40
0.0
 41
1.0
 50
0.0
 71
     0
 42
0.12
  3
romanc.shx
  4
extfont.shx
  0
ENDTAB
  0
TABLE
  2
VIEW
  5
847
330
0
100
AcDbSymbolTable
 70
     1
  0
VIEW
  5
870
330
847
100
AcDbSymbolTableRecord
100
AcDbViewTableRecord
  2
ALL
 70
     0
 40
4282.619807999997
 10
0.0
 20
41.30990399999999
 41
5940.0
 11
0.0
 21
0.0
 31
1.0
 12
0.0
 22
0.0
 32
0.0
 42
50.0
 43
0.0
 44
0.0
 50
0.0
 71
     0
281
     0
 72
     0
  0
ENDTAB
  0
TABLE
  2
UCS
  5
848
330
0
100
AcDbSymbolTable
 70
     0
  0
ENDTAB
  0
TABLE
  2
APPID
  5
84A
330
0
100
AcDbSymbolTable
 70
    23
  0
APPID
  5
853
330
84A
100
AcDbSymbolTableRecord
100
AcDbRegAppTableRecord
  2
ACAD
 70
     0
  0
APPID
  5
1154
330
84A
100
AcDbSymbolTableRecord
100
AcDbRegAppTableRecord
  2
GENIUS_GENDIM_13
 70
     0
  0
APPID
  5
1155
330
84A
100
AcDbSymbolTableRecord
100
AcDbRegAppTableRecord
  2
GENIUS_GENDTOL_13
 70
     0
  0
APPID
  5
1156
330
84A
100
AcDbSymbolTableRecord
100
AcDbRegAppTableRecord
  2
GENIUS_GE3DTOL_13
 70
     0
  0
APPID
  5
1159
330
84A
100
AcDbSymbolTableRecord
100
AcDbRegAppTableRecord
  2
MCAD_NO_VIS
 70
     0
  0
APPID
  5
115A
330
84A
100
AcDbSymbolTableRecord
100
AcDbRegAppTableRecord
  2
ACAD_TEMP_GRAPHIC
 70
     0
  0
APPID
  5
118C
330
84A
100
AcDbSymbolTableRecord
100
AcDbRegAppTableRecord
  2
AD_DRAW
 70
     0
  0
APPID
  5
118F
330
84A
100
AcDbSymbolTableRecord
100
AcDbRegAppTableRecord
  2
ACATTRIBSERVICES
 70
     0
  0
APPID
  5
11DB
330
84A
100
AcDbSymbolTableRecord
100
AcDbRegAppTableRecord
  2
ASURF_PCURVE_APPNAME
 70
     0
  0
APPID
  5
11E0
330
84A
100
AcDbSymbolTableRecord
100
AcDbRegAppTableRecord
  2
AMG_3D2D_5.0
 70
     0
  0
APPID
  5
1211
330
84A
100
AcDbSymbolTableRecord
100
AcDbRegAppTableRecord
  2
DESIGNERASSEMBLIES
 70
     0
  0
APPID
  5
1218
330
84A
100
AcDbSymbolTableRecord
100
AcDbRegAppTableRecord
  2
ACADM_DIM_EDIT
 70
     0
  0
APPID
  5
1219
330
84A
100
AcDbSymbolTableRecord
100
AcDbRegAppTableRecord
  2
AMDT_DM_ADJ
 70
     0
  0
APPID
  5
1248
330
84A
100
AcDbSymbolTableRecord
100
AcDbRegAppTableRecord
  2
ACAD_DSTYLE_DIMARC_LENGTH_SYMBOL
 70
     0
  0
APPID
  5
1249
330
84A
100
AcDbSymbolTableRecord
100
AcDbRegAppTableRecord
  2
ACAD_DSTYLE_DIMJOGGED_JOGANGLE_SYMBOL
 70
     0
  0
APPID
  5
12EA
330
84A
100
AcDbSymbolTableRecord
100
AcDbRegAppTableRecord
  2
ACAD_MLEADERVER
 70
     0
  0
APPID
  5
133A
330
84A
100
AcDbSymbolTableRecord
100
AcDbRegAppTableRecord
  2
ACAD_PSEXT
 70
     0
  0
APPID
  5
1784
330
84A
100
AcDbSymbolTableRecord
100
AcDbRegAppTableRecord
  2
ACAD_EXEMPT_FROM_CAD_STANDARDS
 70
     0
  0
APPID
  5
17BF
330
84A
100
AcDbSymbolTableRecord
100
AcDbRegAppTableRecord
  2
ACAD_DSTYLE_DIMJAG
 70
     0
  0
APPID
  5
17C0
330
84A
100
AcDbSymbolTableRecord
100
AcDbRegAppTableRecord
  2
ACAD_DSTYLE_DIMTALN
 70
     0
  0
APPID
  5
18A7
330
84A
100
AcDbSymbolTableRecord
100
AcDbRegAppTableRecord
  2
ACAD_DSTYLE_DIM_LINETYPE
 70
     0
  0
APPID
  5
18A8
330
84A
100
AcDbSymbolTableRecord
100
AcDbRegAppTableRecord
  2
ACAD_DSTYLE_DIM_EXT1_LINETYPE
 70
     0
  0
APPID
  5
18A9
330
84A
100
AcDbSymbolTableRecord
100
AcDbRegAppTableRecord
  2
ACAD_DSTYLE_DIM_EXT2_LINETYPE
 70
     0
  0
ENDTAB
  0
TABLE
  2
DIMSTYLE
  5
84B
330
0
100
AcDbSymbolTable
 70
     9
100
AcDbDimStyleTable
 71
     2
340
1247
340
871
  0
DIMSTYLE
105
871
330
84B
100
AcDbSymbolTableRecord
100
AcDbDimStyleTableRecord
  2
STANDARD
 70
     0
275
     1
284
     8
285
     8
286
     8
340
852
  0
DIMSTYLE
105
1247
330
84B
100
AcDbSymbolTableRecord
100
AcDbDimStyleTableRecord
  2
AM_ANSI
 70
     0
  4
mm
 41
0.12
 42
0.05
 43
0.5
 44
0.1
 47
0.1
 48
0.1
 78
     7
 79
     2
140
0.12
141
0.0
146
0.71
147
0.06
176
   256
177
   256
178
     2
274
     4
284
     7
340
852
371
    -1
372
    -1
1001
ACAD_DSTYLE_DIMJOGGED_JOGANGLE_SYMBOL
1070
   384
1040
0.7853981633974483
1001
ACAD_DSTYLE_DIMARC_LENGTH_SYMBOL
1070
   379
1070
     1
1001
ACAD_DSTYLE_DIM_LINETYPE
1070
   380
1005
854
1001
ACAD_DSTYLE_DIM_EXT1_LINETYPE
1070
   381
1005
854
1001
ACAD_DSTYLE_DIM_EXT2_LINETYPE
1070
   382
1005
854
  0
DIMSTYLE
105
1250
330
84B
100
AcDbSymbolTableRecord
100
AcDbDimStyleTableRecord
  2
AM_ANSI$3
 70
     0
  4
mm
 41
0.12
 42
0.05
 43
0.5
 44
0.1
 47
0.1
 48
0.1
 78
     7
 79
     2
140
0.12
141
0.0
146
0.71
147
0.06
176
   256
177
   256
178
     2
274
     4
284
     7
288
     1
289
     0
340
852
371
    -1
372
    -1
1001
ACAD_DSTYLE_DIMJOGGED_JOGANGLE_SYMBOL
1070
   384
1040
0.7853981633974483
1001
ACAD_DSTYLE_DIMARC_LENGTH_SYMBOL
1070
   379
1070
     1
1001
ACAD_DSTYLE_DIM_LINETYPE
1070
   380
1005
854
1001
ACAD_DSTYLE_DIM_EXT1_LINETYPE
1070
   381
1005
854
1001
ACAD_DSTYLE_DIM_EXT2_LINETYPE
1070
   382
1005
854
  0
DIMSTYLE
105
1253
330
84B
100
AcDbSymbolTableRecord
100
AcDbDimStyleTableRecord
  2
AM_ANSI$4
 70
     0
  4
mm
 41
0.12
 42
0.05
 43
0.5
 44
0.1
 47
0.1
 48
0.1
 78
     7
 79
     2
140
0.12
141
0.0
146
0.71
147
0.06
176
   256
177
   256
178
     2
274
     4
284
     7
340
852
371
    -1
372
    -1
1001
ACAD_DSTYLE_DIMJOGGED_JOGANGLE_SYMBOL
1070
   384
1040
0.7853981633974483
1001
ACAD_DSTYLE_DIMARC_LENGTH_SYMBOL
1070
   379
1070
     1
1001
ACAD_DSTYLE_DIM_LINETYPE
1070
   380
1005
854
1001
ACAD_DSTYLE_DIM_EXT1_LINETYPE
1070
   381
1005
854
1001
ACAD_DSTYLE_DIM_EXT2_LINETYPE
1070
   382
1005
854
  0
DIMSTYLE
105
1258
330
84B
100
AcDbSymbolTableRecord
100
AcDbDimStyleTableRecord
  2
AM_ANSI$7
 70
     0
  4
mm
 41
0.12
 42
0.05
 43
0.5
 44
0.1
 47
0.1
 48
0.1
 78
     7
 79
     2
140
0.12
141
0.0
146
0.71
147
0.06
176
   256
177
   256
178
     2
274
     4
284
     7
340
852
371
    -1
372
    -1
1001
ACAD_DSTYLE_DIMJOGGED_JOGANGLE_SYMBOL
1070
   384
1040
0.7853981633974483
1001
ACAD_DSTYLE_DIMARC_LENGTH_SYMBOL
1070
   379
1070
     1
1001
ACAD_DSTYLE_DIM_LINETYPE
1070
   380
1005
854
1001
ACAD_DSTYLE_DIM_EXT1_LINETYPE
1070
   381
1005
854
1001
ACAD_DSTYLE_DIM_EXT2_LINETYPE
1070
   382
1005
854
  0
DIMSTYLE
105
125B
330
84B
100
AcDbSymbolTableRecord
100
AcDbDimStyleTableRecord
  2
AM_ANSI$SF
 70
     0
  4
mm
 41
0.12
 42
0.05
 43
0.5
 44
0.1
 47
0.1
 48
0.1
 75
     1
 76
     1
 78
     7
 79
     2
140
0.12
141
0.0
146
0.71
147
0.06
176
   256
177
   256
178
     2
274
     4
284
     7
340
852
371
    -1
372
    -1
1001
ACAD_DSTYLE_DIMJOGGED_JOGANGLE_SYMBOL
1070
   384
1040
0.7853981633974483
1001
ACAD_DSTYLE_DIMARC_LENGTH_SYMBOL
1070
   379
1070
     1
1001
ACAD_DSTYLE_DIM_LINETYPE
1070
   380
1005
854
1001
ACAD_DSTYLE_DIM_EXT1_LINETYPE
1070
   381
1005
854
1001
ACAD_DSTYLE_DIM_EXT2_LINETYPE
1070
   382
1005
854
  0
DIMSTYLE
105
1262
330
84B
100
AcDbSymbolTableRecord
100
AcDbDimStyleTableRecord
  2
AM_ANSI$SH
 70
     0
  4
mm
 41
0.12
 42
0.05
 43
0.5
 44
0.1
 47
0.1
 48
0.1
 75
     1
 76
     1
 78
     7
 79
     2
140
0.12
141
0.0
146
0.71
147
0.06
173
     1
176
   256
177
   256
178
     2
274
     4
284
     7
340
852
343
125C
371
    -1
372
    -1
1001
ACAD_DSTYLE_DIMJOGGED_JOGANGLE_SYMBOL
1070
   384
1040
0.7853981633974483
1001
ACAD_DSTYLE_DIMARC_LENGTH_SYMBOL
1070
   379
1070
     1
1001
ACAD_DSTYLE_DIM_LINETYPE
1070
   380
1005
854
1001
ACAD_DSTYLE_DIM_EXT1_LINETYPE
1070
   381
1005
854
1001
ACAD_DSTYLE_DIM_EXT2_LINETYPE
1070
   382
1005
854
  0
DIMSTYLE
105
17BD
330
84B
100
AcDbSymbolTableRecord
100
AcDbDimStyleTableRecord
  2
STANDARD1
 70
     0
 40
6.0
 41
2.5
 42
0.625
 43
6.0
 44
1.25
 47
1.0
 48
0.5
 77
     1
 78
     8
140
2.5
141
0.0
146
0.6
147
1.0
173
     1
284
     1
340
852
341
AB7
343
AB7
344
AB7
  0
DIMSTYLE
105
17BE
330
84B
100
AcDbSymbolTableRecord
100
AcDbDimStyleTableRecord
  2
STANDARD$0
 70
     0
 41
12.0
 42
20.0
 44
20.0
 73
     0
 74
     0
 77
     1
 78
     9
140
64.0
141
0.0
147
10.0
271
     0
272
     0
275
     1
284
     8
285
     8
286
     8
340
852
341
AB7
342
AB2
1001
ACAD_DSTYLE_DIMJAG
1070
   388
1040
1.5
1001
ACAD_DSTYLE_DIMTALN
1070
   392
1070
     0
  0
ENDTAB
  0
TABLE
  2
BLOCK_RECORD
  5
842
330
0
100
AcDbSymbolTable
 70
    63
  0
BLOCK_RECORD
  5
85F
102
{ACAD_XDICTIONARY
360
B4F
102
}
330
842
100
AcDbSymbolTableRecord
100
AcDbBlockTableRecord
  2
*MODEL_SPACE
340
B84
  0
BLOCK_RECORD
  5
85B
102
{ACAD_XDICTIONARY
360
B4D
102
}
330
842
100
AcDbSymbolTableRecord
100
AcDbBlockTableRecord
  2
*PAPER_SPACE
340
B85
  0
BLOCK_RECORD
  5
87E
330
842
100
AcDbSymbolTableRecord
100
AcDbBlockTableRecord
  2
_ORIGIN
340
0
  0
BLOCK_RECORD
  5
AB2
330
842
100
AcDbSymbolTableRecord
100
AcDbBlockTableRecord
  2
_DOTBLANK
340
0
102
{BLKREFS
331
10DD
331
10DE
331
10E6
331
10E7
331
10F1
331
10F2
331
1114
331
1115
331
113E
331
113F
331
12F4
331
12F5
331
1300
331
1301
331
130C
331
130D
331
131A
331
131B
331
1326
331
1327
331
1333
331
1334
331
1417
331
1418
331
1434
331
1435
331
1484
331
1485
331
148D
331
148E
331
1498
331
1499
331
14A2
331
14A3
331
14AB
331
14AC
331
14E5
331
14E6
331
14F1
331
14F2
331
14FD
331
14FE
331
150B
331
150C
331
1517
331
1518
331
1524
331
1525
331
1607
331
1608
331
1624
331
1625
331
1644
331
1645
331
164D
331
164E
331
1658
331
1659
331
1662
331
1663
331
166B
331
166C
331
1696
331
1697
331
1791
331
1792
331
179D
331
179E
331
17A9
331
17AA
331
17B5
331
17B6
331
187A
331
187B
331
1883
331
1884
331
188C
331
188D
331
1895
331
1896
331
19B9
331
19BA
331
19C5
331
19C6
331
1995
331
1996
331
19A1
331
19A2
331
19AD
331
19AE
331
1CE8
331
1CE9
331
1CF1
331
1CF2
331
1CFA
331
1CFB
331
1D03
331
1D04
331
1D0C
331
1D0D
331
1E0A
331
1E0B
331
1E16
331
1E17
331
1E22
331
1E23
331
1E2E
331
1E2F
331
1FC7
331
1FC8
331
1FD0
331
1FD1
331
1FD9
331
1FDA
331
1FE2
331
1FE3
331
20D5
331
20D6
331
20DB
331
20DC
331
20E1
331
20E2
331
20EA
331
20EB
102
}
  0
BLOCK_RECORD
  5
AB7
330
842
100
AcDbSymbolTableRecord
100
AcDbBlockTableRecord
  2
_OPEN30
340
0
102
{BLKREFS
331
20E5
102
}
  0
BLOCK_RECORD
  5
D9C
330
842
100
AcDbSymbolTableRecord
100
AcDbBlockTableRecord
  2
*D3
340
0
  0
BLOCK_RECORD
  5
FC4
330
842
100
AcDbSymbolTableRecord
100
AcDbBlockTableRecord
  2
*D4
340
0
  0
BLOCK_RECORD
  5
FD2
330
842
100
AcDbSymbolTableRecord
100
AcDbBlockTableRecord
  2
*D5
340
0
  0
BLOCK_RECORD
  5
FDE
330
842
100
AcDbSymbolTableRecord
100
AcDbBlockTableRecord
  2
*D6
340
0
  0
BLOCK_RECORD
  5
FEC
330
842
100
AcDbSymbolTableRecord
100
AcDbBlockTableRecord
  2
*D7
340
0
  0
BLOCK_RECORD
  5
125C
330
842
100
AcDbSymbolTableRecord
100
AcDbBlockTableRecord
  2
GENAXEH
340
0
  0
BLOCK_RECORD
  5
12EF
330
842
100
AcDbSymbolTableRecord
100
AcDbBlockTableRecord
  2
*D9
340
0
  0
BLOCK_RECORD
  5
12FB
330
842
100
AcDbSymbolTableRecord
100
AcDbBlockTableRecord
  2
*D10
340
0
  0
BLOCK_RECORD
  5
1307
330
842
100
AcDbSymbolTableRecord
100
AcDbBlockTableRecord
  2
*D11
340
0
  0
BLOCK_RECORD
  5
1313
330
842
100
AcDbSymbolTableRecord
100
AcDbBlockTableRecord
  2
*D12
340
0
  0
BLOCK_RECORD
  5
1321
330
842
100
AcDbSymbolTableRecord
100
AcDbBlockTableRecord
  2
*D13
340
0
  0
BLOCK_RECORD
  5
132D
330
842
100
AcDbSymbolTableRecord
100
AcDbBlockTableRecord
  2
*D14
340
0
  0
BLOCK_RECORD
  5
1387
330
842
100
AcDbSymbolTableRecord
100
AcDbBlockTableRecord
  2
*D15
340
0
  0
BLOCK_RECORD
  5
1393
330
842
100
AcDbSymbolTableRecord
100
AcDbBlockTableRecord
  2
*D16
340
0
  0
BLOCK_RECORD
  5
139F
330
842
100
AcDbSymbolTableRecord
100
AcDbBlockTableRecord
  2
*D17
340
0
  0
BLOCK_RECORD
  5
13AB
330
842
100
AcDbSymbolTableRecord
100
AcDbBlockTableRecord
  2
*D18
340
0
  0
BLOCK_RECORD
  5
13B9
330
842
100
AcDbSymbolTableRecord
100
AcDbBlockTableRecord
  2
*D19
340
0
  0
BLOCK_RECORD
  5
13C5
330
842
100
AcDbSymbolTableRecord
100
AcDbBlockTableRecord
  2
*D20
340
0
  0
BLOCK_RECORD
  5
1445
330
842
100
AcDbSymbolTableRecord
100
AcDbBlockTableRecord
  2
*D21
340
0
  0
BLOCK_RECORD
  5
14E0
330
842
100
AcDbSymbolTableRecord
100
AcDbBlockTableRecord
  2
*D22
340
0
  0
BLOCK_RECORD
  5
14EC
330
842
100
AcDbSymbolTableRecord
100
AcDbBlockTableRecord
  2
*D23
340
0
  0
BLOCK_RECORD
  5
14F8
330
842
100
AcDbSymbolTableRecord
100
AcDbBlockTableRecord
  2
*D24
340
0
  0
BLOCK_RECORD
  5
1504
330
842
100
AcDbSymbolTableRecord
100
AcDbBlockTableRecord
  2
*D25
340
0
  0
BLOCK_RECORD
  5
1512
330
842
100
AcDbSymbolTableRecord
100
AcDbBlockTableRecord
  2
*D26
340
0
  0
BLOCK_RECORD
  5
151E
330
842
100
AcDbSymbolTableRecord
100
AcDbBlockTableRecord
  2
*D27
340
0
  0
BLOCK_RECORD
  5
1577
330
842
100
AcDbSymbolTableRecord
100
AcDbBlockTableRecord
  2
*D28
340
0
  0
BLOCK_RECORD
  5
1583
330
842
100
AcDbSymbolTableRecord
100
AcDbBlockTableRecord
  2
*D29
340
0
  0
BLOCK_RECORD
  5
1591
330
842
100
AcDbSymbolTableRecord
100
AcDbBlockTableRecord
  2
*D30
340
0
  0
BLOCK_RECORD
  5
159D
330
842
100
AcDbSymbolTableRecord
100
AcDbBlockTableRecord
  2
*D31
340
0
  0
BLOCK_RECORD
  5
15AA
330
842
100
AcDbSymbolTableRecord
100
AcDbBlockTableRecord
  2
*D32
340
0
  0
BLOCK_RECORD
  5
15B6
330
842
100
AcDbSymbolTableRecord
100
AcDbBlockTableRecord
  2
*D33
340
0
  0
BLOCK_RECORD
  5
1635
330
842
100
AcDbSymbolTableRecord
100
AcDbBlockTableRecord
  2
*D34
340
0
  0
BLOCK_RECORD
  5
1683
330
842
100
AcDbSymbolTableRecord
100
AcDbBlockTableRecord
  2
*D35
340
0
  0
BLOCK_RECORD
  5
178C
330
842
100
AcDbSymbolTableRecord
100
AcDbBlockTableRecord
  2
*D36
340
0
  0
BLOCK_RECORD
  5
1798
330
842
100
AcDbSymbolTableRecord
100
AcDbBlockTableRecord
  2
*D37
340
0
  0
BLOCK_RECORD
  5
17A4
330
842
100
AcDbSymbolTableRecord
100
AcDbBlockTableRecord
  2
*D38
340
0
  0
BLOCK_RECORD
  5
17B0
330
842
100
AcDbSymbolTableRecord
100
AcDbBlockTableRecord
  2
*D39
340
0
  0
BLOCK_RECORD
  5
1847
330
842
100
AcDbSymbolTableRecord
100
AcDbBlockTableRecord
  2
*D40
340
0
  0
BLOCK_RECORD
  5
1853
330
842
100
AcDbSymbolTableRecord
100
AcDbBlockTableRecord
  2
*D41
340
0
  0
BLOCK_RECORD
  5
185F
330
842
100
AcDbSymbolTableRecord
100
AcDbBlockTableRecord
  2
*D42
340
0
  0
BLOCK_RECORD
  5
186B
330
842
100
AcDbSymbolTableRecord
100
AcDbBlockTableRecord
  2
*D43
340
0
  0
BLOCK_RECORD
  5
1990
330
842
100
AcDbSymbolTableRecord
100
AcDbBlockTableRecord
  2
*D44
340
0
  0
BLOCK_RECORD
  5
199C
330
842
100
AcDbSymbolTableRecord
100
AcDbBlockTableRecord
  2
*D45
340
0
  0
BLOCK_RECORD
  5
19A8
330
842
100
AcDbSymbolTableRecord
100
AcDbBlockTableRecord
  2
*D46
340
0
  0
BLOCK_RECORD
  5
19B4
330
842
100
AcDbSymbolTableRecord
100
AcDbBlockTableRecord
  2
*D47
340
0
  0
BLOCK_RECORD
  5
19C0
330
842
100
AcDbSymbolTableRecord
100
AcDbBlockTableRecord
  2
*D48
340
0
  0
BLOCK_RECORD
  5
1CA9
330
842
100
AcDbSymbolTableRecord
100
AcDbBlockTableRecord
  2
*D49
340
0
  0
BLOCK_RECORD
  5
1CB5
330
842
100
AcDbSymbolTableRecord
100
AcDbBlockTableRecord
  2
*D50
340
0
  0
BLOCK_RECORD
  5
1CC1
330
842
100
AcDbSymbolTableRecord
100
AcDbBlockTableRecord
  2
*D51
340
0
  0
BLOCK_RECORD
  5
1CCD
330
842
100
AcDbSymbolTableRecord
100
AcDbBlockTableRecord
  2
*D52
340
0
  0
BLOCK_RECORD
  5
1CD9
330
842
100
AcDbSymbolTableRecord
100
AcDbBlockTableRecord
  2
*D53
340
0
  0
BLOCK_RECORD
  5
1E05
330
842
100
AcDbSymbolTableRecord
100
AcDbBlockTableRecord
  2
*D54
340
0
  0
BLOCK_RECORD
  5
1E11
330
842
100
AcDbSymbolTableRecord
100
AcDbBlockTableRecord
  2
*D55
340
0
  0
BLOCK_RECORD
  5
1E1D
330
842
100
AcDbSymbolTableRecord
100
AcDbBlockTableRecord
  2
*D56
340
0
  0
BLOCK_RECORD
  5
1E29
330
842
100
AcDbSymbolTableRecord
100
AcDbBlockTableRecord
  2
*D57
340
0
  0
BLOCK_RECORD
  5
1F94
330
842
100
AcDbSymbolTableRecord
100
AcDbBlockTableRecord
  2
*D58
340
0
  0
BLOCK_RECORD
  5
1FA0
330
842
100
AcDbSymbolTableRecord
100
AcDbBlockTableRecord
  2
*D59
340
0
  0
BLOCK_RECORD
  5
1FAC
330
842
100
AcDbSymbolTableRecord
100
AcDbBlockTableRecord
  2
*D60
340
0
  0
BLOCK_RECORD
  5
1FB8
330
842
100
AcDbSymbolTableRecord
100
AcDbBlockTableRecord
  2
*D61
340
0
  0
ENDTAB
  0
ENDSEC
  0
SECTION
  2
BLOCKS
  0
BLOCK
  5
860
330
85F
100
AcDbEntity
  8
0
100
AcDbBlockBegin
  2
*MODEL_SPACE
 70
     0
 10
0.0
 20
0.0
 30
0.0
  3
*MODEL_SPACE
  1

  0
ENDBLK
  5
861
330
85F
100
AcDbEntity
  8
0
100
AcDbBlockEnd
  0
BLOCK
  5
85C
330
85B
100
AcDbEntity
 67
     1
  8
0
100
AcDbBlockBegin
  2
*PAPER_SPACE
 70
     0
 10
0.0
 20
0.0
 30
0.0
  3
*PAPER_SPACE
  1

  0
ENDBLK
  5
85D
330
85B
100
AcDbEntity
 67
     1
  8
0
100
AcDbBlockEnd
  0
BLOCK
  5
87F
330
87E
100
AcDbEntity
  8
0
100
AcDbBlockBegin
  2
_ORIGIN
 70
     0
 10
0.0
 20
0.0
 30
0.0
  3
_ORIGIN
  1

  0
CIRCLE
  5
880
330
87E
100
AcDbEntity
  8
0
  6
Continuous
 62
     7
100
AcDbCircle
 10
0.0
 20
0.0
 30
0.0
 40
0.5
  0
LINE
  5
881
330
87E
100
AcDbEntity
  8
0
  6
Continuous
 62
     7
100
AcDbLine
 10
0.0
 20
0.0
 30
0.0
 11
-1.0
 21
0.0
 31
0.0
  0
ENDBLK
  5
882
330
87E
100
AcDbEntity
  8
0
100
AcDbBlockEnd
  0
BLOCK
  5
AB5
330
AB2
100
AcDbEntity
  8
0
 62
     1
100
AcDbBlockBegin
  2
_DOTBLANK
 70
     0
 10
0.0
 20
0.0
 30
0.0
  3
_DOTBLANK
  1

  0
CIRCLE
  5
AB3
330
AB2
100
AcDbEntity
  8
0
  6
ByBlock
 62
     0
100
AcDbCircle
 10
0.0
 20
0.0
 30
0.0
 40
0.5
  0
LINE
  5
AB4
330
AB2
100
AcDbEntity
  8
0
  6
ByBlock
 62
     0
100
AcDbLine
 10
-0.5
 20
0.0
 30
0.0
 11
-1.0
 21
0.0
 31
0.0
  0
ENDBLK
  5
AB6
330
AB2
100
AcDbEntity
  8
0
 62
     1
100
AcDbBlockEnd
  0
BLOCK
  5
ABB
330
AB7
100
AcDbEntity
  8
0
 62
     1
100
AcDbBlockBegin
  2
_OPEN30
 70
     0
 10
0.0
 20
0.0
 30
0.0
  3
_OPEN30
  1

  0
LINE
  5
AB8
330
AB7
100
AcDbEntity
  8
0
  6
ByBlock
 62
     0
100
AcDbLine
 10
-1.0
 20
0.26794919
 30
0.0
 11
0.0
 21
0.0
 31
0.0
  0
LINE
  5
AB9
330
AB7
100
AcDbEntity
  8
0
  6
ByBlock
 62
     0
100
AcDbLine
 10
0.0
 20
0.0
 30
0.0
 11
-1.0
 21
-0.26794919
 31
0.0
  0
LINE
  5
ABA
330
AB7
100
AcDbEntity
  8
0
  6
ByBlock
 62
     0
100
AcDbLine
 10
0.0
 20
0.0
 30
0.0
 11
-1.0
 21
0.0
 31
0.0
  0
ENDBLK
  5
ABC
330
AB7
100
AcDbEntity
  8
0
 62
     1
100
AcDbBlockEnd
  0
BLOCK
  5
DA6
330
D9C
100
AcDbEntity
  8
0
100
AcDbBlockBegin
  2
*D3
 70
     1
 10
0.0
 20
0.0
 30
0.0
  3
*D3
  1

  0
LINE
  5
113B
330
D9C
100
AcDbEntity
  8
SIZE
  6
Continuous
 62
     0
370
    -2
100
AcDbLine
 10
32.46448280219374
 20
-140.0
 30
0.0
 11
278.3224625841441
 21
-140.0000000000001
 31
0.0
  0
LINE
  5
113C
330
D9C
100
AcDbEntity
  8
SIZE
  6
Continuous
 62
     0
370
    -2
100
AcDbLine
 10
32.46448280219374
 20
140.0
 30
0.0
 11
278.3224625841443
 21
139.9999999999999
 31
0.0
  0
LINE
  5
113D
330
D9C
100
AcDbEntity
  8
SIZE
  6
Continuous
 62
     0
370
    -2
100
AcDbLine
 10
258.3224625841442
 20
-128.0000000000001
 30
0.0
 11
258.3224625841443
 21
127.9999999999999
 31
0.0
  0
INSERT
  5
113E
330
D9C
100
AcDbEntity
  8
SIZE
  6
Continuous
 62
     0
370
    -2
100
AcDbBlockReference
  2
_DOTBLANK
 10
258.3224625841442
 20
-140.0000000000001
 30
0.0
 41
12.0
 42
12.0
 43
12.0
 50
270.0
  0
INSERT
  5
113F
330
D9C
100
AcDbEntity
  8
SIZE
  6
Continuous
 62
     0
370
    -2
100
AcDbBlockReference
  2
_DOTBLANK
 10
258.3224625841443
 20
139.9999999999999
 30
0.0
 41
12.0
 42
12.0
 43
12.0
 50
90.0
  0
MTEXT
  5
1140
330
D9C
100
AcDbEntity
  8
SIZE
  6
Continuous
 62
     0
100
AcDbMText
 10
216.3224625841443
 20
-0.0000000000000391
 30
0.0
 40
64.0
 41
0.0
 71
     5
 72
     1
  1
\A1;280
 11
0.0000000000000001
 21
1.0
 31
0.0
 73
     1
 44
1.0
1001
ACAD
1000
MTEXTBEGIN
1070
    73
1070
     1
1070
    44
1040
1.0
1070
    74
1070
     0
1000
MTEXTEND
  0
POINT
  5
1141
330
D9C
100
AcDbEntity
  8
DEFPOINTS
  6
Continuous
 62
     0
100
AcDbPoint
 10
12.46448280219374
 20
-140.0
 30
0.0
  0
POINT
  5
1142
330
D9C
100
AcDbEntity
  8
DEFPOINTS
  6
Continuous
 62
     0
100
AcDbPoint
 10
12.46448280219374
 20
140.0
 30
0.0
  0
POINT
  5
1143
330
D9C
100
AcDbEntity
  8
DEFPOINTS
  6
Continuous
 62
     0
100
AcDbPoint
 10
258.3224625841443
 20
139.9999999999999
 30
0.0
  0
ENDBLK
  5
DA7
330
D9C
100
AcDbEntity
  8
0
100
AcDbBlockEnd
  0
BLOCK
  5
FD0
330
FC4
100
AcDbEntity
  8
0
100
AcDbBlockBegin
  2
*D4
 70
     1
 10
0.0
 20
0.0
 30
0.0
  3
*D4
  1

  0
LINE
  5
110F
330
FC4
100
AcDbEntity
  8
SIZE
  6
Continuous
 62
     0
370
    -2
100
AcDbLine
 10
-24.0
 20
-240.0828571428572
 30
0.0
 11
-24.00000000000001
 21
-358.0949273793142
 31
0.0
  0
LINE
  5
1110
330
FC4
100
AcDbEntity
  8
SIZE
  6
Continuous
 62
     0
370
    -2
100
AcDbLine
 10
-0.0000000000000012
 20
-177.5
 30
0.0
 11
-0.0000000000000123
 21
-358.0949273793142
 31
0.0
  0
LINE
  5
1111
330
FC4
100
AcDbEntity
  8
SIZE
  6
Continuous
 62
     0
370
    -2
100
AcDbLine
 10
-36.00000000000001
 20
-338.0949273793143
 30
0.0
 11
-48.0
 21
-338.0949273793143
 31
0.0
  0
LINE
  5
1112
330
FC4
100
AcDbEntity
  8
SIZE
  6
Continuous
 62
     0
370
    -2
100
AcDbLine
 10
11.99999999999999
 20
-338.0949273793143
 30
0.0
 11
140.0
 21
-338.0949273793143
 31
0.0
  0
LINE
  5
1113
330
FC4
100
AcDbEntity
  8
SIZE
  6
Continuous
 62
     0
370
    -2
100
AcDbLine
 10
-24.00000000000001
 20
-338.0949273793143
 30
0.0
 11
-0.0000000000000111
 21
-338.0949273793143
 31
0.0
  0
INSERT
  5
1114
330
FC4
100
AcDbEntity
  8
SIZE
  6
Continuous
 62
     0
370
    -2
100
AcDbBlockReference
  2
_DOTBLANK
 10
-24.00000000000001
 20
-338.0949273793143
 30
0.0
 41
12.0
 42
12.0
 43
12.0
  0
INSERT
  5
1115
330
FC4
100
AcDbEntity
  8
SIZE
  6
Continuous
 62
     0
370
    -2
100
AcDbBlockReference
  2
_DOTBLANK
 10
-0.0000000000000111
 20
-338.0949273793143
 30
0.0
 41
12.0
 42
12.0
 43
12.0
 50
180.0
  0
MTEXT
  5
1116
330
FC4
100
AcDbEntity
  8
SIZE
  6
Continuous
 62
     0
100
AcDbMText
 10
81.99999999999999
 20
-296.0949273793143
 30
0.0
 40
64.0
 41
0.0
 71
     5
 72
     1
  1
\A1;24
 73
     1
 44
1.0
1001
ACAD
1000
MTEXTBEGIN
1070
    73
1070
     1
1070
    44
1040
1.0
1070
    74
1070
     0
1000
MTEXTEND
  0
POINT
  5
1117
330
FC4
100
AcDbEntity
  8
DEFPOINTS
  6
Continuous
 62
     0
100
AcDbPoint
 10
-24.0
 20
-220.0828571428572
 30
0.0
  0
POINT
  5
1118
330
FC4
100
AcDbEntity
  8
DEFPOINTS
  6
Continuous
 62
     0
100
AcDbPoint
 10
0.0
 20
-157.5
 30
0.0
  0
POINT
  5
1119
330
FC4
100
AcDbEntity
  8
DEFPOINTS
  6
Continuous
 62
     0
100
AcDbPoint
 10
-0.0000000000000111
 20
-338.0949273793143
 30
0.0
  0
ENDBLK
  5
FD1
330
FC4
100
AcDbEntity
  8
0
100
AcDbBlockEnd
  0
BLOCK
  5
FDC
330
FD2
100
AcDbEntity
  8
0
100
AcDbBlockBegin
  2
*D5
 70
     1
 10
0.0
 20
0.0
 30
0.0
  3
*D5
  1

  0
LINE
  5
10DA
330
FD2
100
AcDbEntity
  8
SIZE
  6
Continuous
 62
     0
370
    -2
100
AcDbLine
 10
-260.0
 20
-263.3121218469543
 30
0.0
 11
-260.0
 21
-544.1924168160427
 31
0.0
  0
LINE
  5
10DB
330
FD2
100
AcDbEntity
  8
SIZE
  6
Continuous
 62
     0
370
    -2
100
AcDbLine
 10
-0.0000000000000012
 20
-177.5
 30
0.0
 11
-0.0000000000000237
 21
-544.1924168160427
 31
0.0
  0
LINE
  5
10DC
330
FD2
100
AcDbEntity
  8
SIZE
  6
Continuous
 62
     0
370
    -2
100
AcDbLine
 10
-248.0
 20
-524.1924168160427
 30
0.0
 11
-12.00000000000002
 21
-524.1924168160427
 31
0.0
  0
INSERT
  5
10DD
330
FD2
100
AcDbEntity
  8
SIZE
  6
Continuous
 62
     0
370
    -2
100
AcDbBlockReference
  2
_DOTBLANK
 10
-260.0
 20
-524.1924168160427
 30
0.0
 41
12.0
 42
12.0
 43
12.0
 50
180.0
  0
INSERT
  5
10DE
330
FD2
100
AcDbEntity
  8
SIZE
  6
Continuous
 62
     0
370
    -2
100
AcDbBlockReference
  2
_DOTBLANK
 10
-0.0000000000000225
 20
-524.1924168160427
 30
0.0
 41
12.0
 42
12.0
 43
12.0
  0
MTEXT
  5
10DF
330
FD2
100
AcDbEntity
  8
SIZE
  6
Continuous
 62
     0
100
AcDbMText
 10
-130.0
 20
-482.192416816043
 30
0.0
 40
64.0
 41
0.0
 71
     5
 72
     1
  1
\A1;260
 73
     1
 44
1.0
1001
ACAD
1000
MTEXTBEGIN
1070
    73
1070
     1
1070
    44
1040
1.0
1070
    74
1070
     0
1000
MTEXTEND
  0
POINT
  5
10E0
330
FD2
100
AcDbEntity
  8
DEFPOINTS
  6
Continuous
 62
     0
100
AcDbPoint
 10
-260.0
 20
-243.3121218469543
 30
0.0
  0
POINT
  5
10E1
330
FD2
100
AcDbEntity
  8
DEFPOINTS
  6
Continuous
 62
     0
100
AcDbPoint
 10
0.0
 20
-157.5
 30
0.0
  0
POINT
  5
10E2
330
FD2
100
AcDbEntity
  8
DEFPOINTS
  6
Continuous
 62
     0
100
AcDbPoint
 10
-0.0000000000000225
 20
-524.1924168160427
 30
0.0
  0
ENDBLK
  5
FDD
330
FD2
100
AcDbEntity
  8
0
100
AcDbBlockEnd
  0
BLOCK
  5
FEA
330
FDE
100
AcDbEntity
  8
0
100
AcDbBlockBegin
  2
*D6
 70
     1
 10
0.0
 20
0.0
 30
0.0
  3
*D6
  1

  0
LINE
  5
10EC
330
FDE
100
AcDbEntity
  8
SIZE
  6
Continuous
 62
     0
370
    -2
100
AcDbLine
 10
-260.0
 20
-263.3121218469543
 30
0.0
 11
-260.0
 21
-544.1924168160427
 31
0.0
  0
LINE
  5
10ED
330
FDE
100
AcDbEntity
  8
SIZE
  6
Continuous
 62
     0
370
    -2
100
AcDbLine
 10
-271.0
 20
-264.4885937960578
 30
0.0
 11
-271.0
 21
-544.1924168160427
 31
0.0
  0
LINE
  5
10EE
330
FDE
100
AcDbEntity
  8
SIZE
  6
Continuous
 62
     0
370
    -2
100
AcDbLine
 10
-248.0
 20
-524.1924168160427
 30
0.0
 11
-236.0
 21
-524.1924168160427
 31
0.0
  0
LINE
  5
10EF
330
FDE
100
AcDbEntity
  8
SIZE
  6
Continuous
 62
     0
370
    -2
100
AcDbLine
 10
-283.0
 20
-524.1924168160427
 30
0.0
 11
-411.839028557943
 21
-524.1924168160427
 31
0.0
  0
LINE
  5
10F0
330
FDE
100
AcDbEntity
  8
SIZE
  6
Continuous
 62
     0
370
    -2
100
AcDbLine
 10
-260.0
 20
-524.1924168160427
 30
0.0
 11
-271.0
 21
-524.1924168160427
 31
0.0
  0
INSERT
  5
10F1
330
FDE
100
AcDbEntity
  8
SIZE
  6
Continuous
 62
     0
370
    -2
100
AcDbBlockReference
  2
_DOTBLANK
 10
-260.0
 20
-524.1924168160427
 30
0.0
 41
12.0
 42
12.0
 43
12.0
 50
180.0
  0
INSERT
  5
10F2
330
FDE
100
AcDbEntity
  8
SIZE
  6
Continuous
 62
     0
370
    -2
100
AcDbBlockReference
  2
_DOTBLANK
 10
-271.0
 20
-524.1924168160427
 30
0.0
 41
12.0
 42
12.0
 43
12.0
  0
MTEXT
  5
10F3
330
FDE
100
AcDbEntity
  8
SIZE
  6
Continuous
 62
     0
100
AcDbMText
 10
-373.0390285579434
 20
-482.192416816043
 30
0.0
 40
64.0
 41
0.0
 71
     5
 72
     1
  1
\A1;11
 73
     1
 44
1.0
1001
ACAD
1000
MTEXTBEGIN
1070
    73
1070
     1
1070
    44
1040
1.0
1070
    74
1070
     0
1000
MTEXTEND
  0
POINT
  5
10F4
330
FDE
100
AcDbEntity
  8
DEFPOINTS
  6
Continuous
 62
     0
100
AcDbPoint
 10
-260.0
 20
-243.3121218469543
 30
0.0
  0
POINT
  5
10F5
330
FDE
100
AcDbEntity
  8
DEFPOINTS
  6
Continuous
 62
     0
100
AcDbPoint
 10
-271.0
 20
-244.4885937960578
 30
0.0
  0
POINT
  5
10F6
330
FDE
100
AcDbEntity
  8
DEFPOINTS
  6
Continuous
 62
     0
100
AcDbPoint
 10
-271.0
 20
-524.1924168160427
 30
0.0
  0
ENDBLK
  5
FEB
330
FDE
100
AcDbEntity
  8
0
100
AcDbBlockEnd
  0
BLOCK
  5
FF6
330
FEC
100
AcDbEntity
  8
0
100
AcDbBlockBegin
  2
*D7
 70
     1
 10
0.0
 20
0.0
 30
0.0
  3
*D7
  1

  0
LINE
  5
10E3
330
FEC
100
AcDbEntity
  8
SIZE
  6
Continuous
 62
     0
370
    -2
100
AcDbLine
 10
-35.0
 20
-239.2479228880185
 30
0.0
 11
-35.00000000000002
 21
-436.94193187061
 31
0.0
  0
LINE
  5
10E4
330
FEC
100
AcDbEntity
  8
SIZE
  6
Continuous
 62
     0
370
    -2
100
AcDbLine
 10
-260.0
 20
-263.3121218469542
 30
0.0
 11
-260.0
 21
-436.94193187061
 31
0.0
  0
LINE
  5
10E5
330
FEC
100
AcDbEntity
  8
SIZE
  6
Continuous
 62
     0
370
    -2
100
AcDbLine
 10
-47.00000000000001
 20
-416.9419318706101
 30
0.0
 11
-248.0
 21
-416.9419318706101
 31
0.0
  0
INSERT
  5
10E6
330
FEC
100
AcDbEntity
  8
SIZE
  6
Continuous
 62
     0
370
    -2
100
AcDbBlockReference
  2
_DOTBLANK
 10
-35.00000000000002
 20
-416.9419318706101
 30
0.0
 41
12.0
 42
12.0
 43
12.0
  0
INSERT
  5
10E7
330
FEC
100
AcDbEntity
  8
SIZE
  6
Continuous
 62
     0
370
    -2
100
AcDbBlockReference
  2
_DOTBLANK
 10
-260.0
 20
-416.9419318706101
 30
0.0
 41
12.0
 42
12.0
 43
12.0
 50
180.0
  0
MTEXT
  5
10E8
330
FEC
100
AcDbEntity
  8
SIZE
  6
Continuous
 62
     0
100
AcDbMText
 10
-147.5
 20
-374.9419318706101
 30
0.0
 40
64.0
 41
0.0
 71
     5
 72
     1
  1
\A1;225
 73
     1
 44
1.0
1001
ACAD
1000
MTEXTBEGIN
1070
    73
1070
     1
1070
    44
1040
1.0
1070
    74
1070
     0
1000
MTEXTEND
  0
POINT
  5
10E9
330
FEC
100
AcDbEntity
  8
DEFPOINTS
  6
Continuous
 62
     0
100
AcDbPoint
 10
-35.0
 20
-219.2479228880185
 30
0.0
  0
POINT
  5
10EA
330
FEC
100
AcDbEntity
  8
DEFPOINTS
  6
Continuous
 62
     0
100
AcDbPoint
 10
-260.0
 20
-243.3121218469543
 30
0.0
  0
POINT
  5
10EB
330
FEC
100
AcDbEntity
  8
DEFPOINTS
  6
Continuous
 62
     0
100
AcDbPoint
 10
-260.0
 20
-416.9419318706101
 30
0.0
  0
ENDBLK
  5
FF7
330
FEC
100
AcDbEntity
  8
0
100
AcDbBlockEnd
  0
BLOCK
  5
125E
330
125C
100
AcDbEntity
  8
0
100
AcDbBlockBegin
  2
GENAXEH
 70
     0
 10
0.0
 20
0.0
 30
0.0
  3
GENAXEH
  1

  0
LINE
  5
125D
330
125C
100
AcDbEntity
  8
0
100
AcDbLine
 10
-1.0
 20
0.0
 30
0.0
 11
1.0
 21
0.0
 31
0.0
  0
ENDBLK
  5
125F
330
125C
100
AcDbEntity
  8
0
100
AcDbBlockEnd
  0
BLOCK
  5
12F0
330
12EF
100
AcDbEntity
  8
0
100
AcDbBlockBegin
  2
*D9
 70
     1
 10
0.0
 20
0.0
 30
0.0
  3
*D9
  1

  0
LINE
  5
12F1
330
12EF
100
AcDbEntity
  8
SIZE
  6
Continuous
 62
     0
370
    -2
100
AcDbLine
 10
300.0
 20
-263.3121218469543
 30
0.0
 11
300.0
 21
-544.1924168160427
 31
0.0
  0
LINE
  5
12F2
330
12EF
100
AcDbEntity
  8
SIZE
  6
Continuous
 62
     0
370
    -2
100
AcDbLine
 10
-0.0000000000000012
 20
-177.5
 30
0.0
 11
-0.0000000000000237
 21
-544.1924168160427
 31
0.0
  0
LINE
  5
12F3
330
12EF
100
AcDbEntity
  8
SIZE
  6
Continuous
 62
     0
370
    -2
100
AcDbLine
 10
288.0
 20
-524.1924168160427
 30
0.0
 11
11.99999999999997
 21
-524.1924168160427
 31
0.0
  0
INSERT
  5
12F4
330
12EF
100
AcDbEntity
  8
SIZE
  6
Continuous
 62
     0
370
    -2
100
AcDbBlockReference
  2
_DOTBLANK
 10
300.0
 20
-524.1924168160427
 30
0.0
 41
12.0
 42
12.0
 43
12.0
  0
INSERT
  5
12F5
330
12EF
100
AcDbEntity
  8
SIZE
  6
Continuous
 62
     0
370
    -2
100
AcDbBlockReference
  2
_DOTBLANK
 10
-0.0000000000000225
 20
-524.1924168160427
 30
0.0
 41
12.0
 42
12.0
 43
12.0
 50
180.0
  0
MTEXT
  5
12F6
330
12EF
100
AcDbEntity
  8
SIZE
  6
Continuous
 62
     0
100
AcDbMText
 10
150.0
 20
-482.1924168160427
 30
0.0
 40
64.0
 41
0.0
 71
     5
 72
     1
  1
\A1;300
 73
     1
 44
1.0
1001
ACAD
1000
MTEXTBEGIN
1070
    73
1070
     1
1070
    44
1040
1.0
1070
    74
1070
     0
1000
MTEXTEND
  0
POINT
  5
12F7
330
12EF
100
AcDbEntity
  8
DEFPOINTS
  6
Continuous
 62
     0
100
AcDbPoint
 10
300.0
 20
-243.3121218469543
 30
0.0
  0
POINT
  5
12F8
330
12EF
100
AcDbEntity
  8
DEFPOINTS
  6
Continuous
 62
     0
100
AcDbPoint
 10
0.0
 20
-157.5
 30
0.0
  0
POINT
  5
12F9
330
12EF
100
AcDbEntity
  8
DEFPOINTS
  6
Continuous
 62
     0
100
AcDbPoint
 10
-0.0000000000000225
 20
-524.1924168160427
 30
0.0
  0
ENDBLK
  5
12FA
330
12EF
100
AcDbEntity
  8
0
100
AcDbBlockEnd
  0
BLOCK
  5
12FC
330
12FB
100
AcDbEntity
  8
0
100
AcDbBlockBegin
  2
*D10
 70
     1
 10
0.0
 20
0.0
 30
0.0
  3
*D10
  1

  0
LINE
  5
12FD
330
12FB
100
AcDbEntity
  8
SIZE
  6
Continuous
 62
     0
370
    -2
100
AcDbLine
 10
-20.0
 20
-123.5
 30
0.0
 11
-166.0601444877647
 21
-123.4999999999999
 31
0.0
  0
LINE
  5
12FE
330
12FB
100
AcDbEntity
  8
SIZE
  6
Continuous
 62
     0
370
    -2
100
AcDbLine
 10
-19.39999999999997
 20
121.5
 30
0.0
 11
-166.0601444877647
 21
121.5
 31
0.0
  0
LINE
  5
12FF
330
12FB
100
AcDbEntity
  8
SIZE
  6
Continuous
 62
     0
370
    -2
100
AcDbLine
 10
-146.0601444877647
 20
-111.4999999999999
 30
0.0
 11
-146.0601444877647
 21
109.5
 31
0.0
  0
INSERT
  5
1300
330
12FB
100
AcDbEntity
  8
SIZE
  6
Continuous
 62
     0
370
    -2
100
AcDbBlockReference
  2
_DOTBLANK
 10
-146.0601444877647
 20
-123.4999999999999
 30
0.0
 41
12.0
 42
12.0
 43
12.0
 50
270.0
  0
INSERT
  5
1301
330
12FB
100
AcDbEntity
  8
SIZE
  6
Continuous
 62
     0
370
    -2
100
AcDbBlockReference
  2
_DOTBLANK
 10
-146.0601444877647
 20
121.5
 30
0.0
 41
12.0
 42
12.0
 43
12.0
 50
90.0
  0
MTEXT
  5
1302
330
12FB
100
AcDbEntity
  8
SIZE
  6
Continuous
 62
     0
100
AcDbMText
 10
-188.0601444877647
 20
-0.9999999999999715
 30
0.0
 40
64.0
 41
0.0
 71
     5
 72
     1
  1
\A1;□245
 11
0.0000000000000001
 21
1.0
 31
0.0
 73
     1
 44
1.0
1001
ACAD
1000
MTEXTBEGIN
1070
    73
1070
     1
1070
    44
1040
1.0
1070
    74
1070
     0
1000
MTEXTEND
  0
POINT
  5
1303
330
12FB
100
AcDbEntity
  8
DEFPOINTS
  6
Continuous
 62
     0
100
AcDbPoint
 10
0.0
 20
-123.5
 30
0.0
  0
POINT
  5
1304
330
12FB
100
AcDbEntity
  8
DEFPOINTS
  6
Continuous
 62
     0
100
AcDbPoint
 10
0.6000000000000229
 20
121.5
 30
0.0
  0
POINT
  5
1305
330
12FB
100
AcDbEntity
  8
DEFPOINTS
  6
Continuous
 62
     0
100
AcDbPoint
 10
-146.0601444877647
 20
121.5
 30
0.0
  0
ENDBLK
  5
1306
330
12FB
100
AcDbEntity
  8
0
100
AcDbBlockEnd
  0
BLOCK
  5
1308
330
1307
100
AcDbEntity
  8
0
100
AcDbBlockBegin
  2
*D11
 70
     1
 10
0.0
 20
0.0
 30
0.0
  3
*D11
  1

  0
LINE
  5
1309
330
1307
100
AcDbEntity
  8
SIZE
  6
Continuous
 62
     0
370
    -2
100
AcDbLine
 10
75.0
 20
-232.8816215723389
 30
0.0
 11
74.99999999999999
 21
-436.9419318706101
 31
0.0
  0
LINE
  5
130A
330
1307
100
AcDbEntity
  8
SIZE
  6
Continuous
 62
     0
370
    -2
100
AcDbLine
 10
300.0
 20
-266.5
 30
0.0
 11
300.0
 21
-436.9419318706101
 31
0.0
  0
LINE
  5
130B
330
1307
100
AcDbEntity
  8
SIZE
  6
Continuous
 62
     0
370
    -2
100
AcDbLine
 10
86.99999999999999
 20
-416.9419318706101
 30
0.0
 11
288.0
 21
-416.9419318706101
 31
0.0
  0
INSERT
  5
130C
330
1307
100
AcDbEntity
  8
SIZE
  6
Continuous
 62
     0
370
    -2
100
AcDbBlockReference
  2
_DOTBLANK
 10
74.99999999999999
 20
-416.9419318706101
 30
0.0
 41
12.0
 42
12.0
 43
12.0
 50
180.0
  0
INSERT
  5
130D
330
1307
100
AcDbEntity
  8
SIZE
  6
Continuous
 62
     0
370
    -2
100
AcDbBlockReference
  2
_DOTBLANK
 10
300.0
 20
-416.9419318706101
 30
0.0
 41
12.0
 42
12.0
 43
12.0
  0
MTEXT
  5
130E
330
1307
100
AcDbEntity
  8
SIZE
  6
Continuous
 62
     0
100
AcDbMText
 10
187.5
 20
-374.9419318706101
 30
0.0
 40
64.0
 41
0.0
 71
     5
 72
     1
  1
\A1;225
 73
     1
 44
1.0
1001
ACAD
1000
MTEXTBEGIN
1070
    73
1070
     1
1070
    44
1040
1.0
1070
    74
1070
     0
1000
MTEXTEND
  0
POINT
  5
130F
330
1307
100
AcDbEntity
  8
DEFPOINTS
  6
Continuous
 62
     0
100
AcDbPoint
 10
75.0
 20
-212.8816215723389
 30
0.0
  0
POINT
  5
1310
330
1307
100
AcDbEntity
  8
DEFPOINTS
  6
Continuous
 62
     0
100
AcDbPoint
 10
300.0
 20
-246.5
 30
0.0
  0
POINT
  5
1311
330
1307
100
AcDbEntity
  8
DEFPOINTS
  6
Continuous
 62
     0
100
AcDbPoint
 10
300.0
 20
-416.9419318706101
 30
0.0
  0
ENDBLK
  5
1312
330
1307
100
AcDbEntity
  8
0
100
AcDbBlockEnd
  0
BLOCK
  5
1314
330
1313
100
AcDbEntity
  8
0
100
AcDbBlockBegin
  2
*D12
 70
     1
 10
0.0
 20
0.0
 30
0.0
  3
*D12
  1

  0
LINE
  5
1315
330
1313
100
AcDbEntity
  8
SIZE
  6
Continuous
 62
     0
370
    -2
100
AcDbLine
 10
300.0
 20
-266.5
 30
0.0
 11
300.0
 21
-544.1924168160427
 31
0.0
  0
LINE
  5
1316
330
1313
100
AcDbEntity
  8
SIZE
  6
Continuous
 62
     0
370
    -2
100
AcDbLine
 10
312.0
 20
-266.5
 30
0.0
 11
312.0
 21
-544.1924168160427
 31
0.0
  0
LINE
  5
1317
330
1313
100
AcDbEntity
  8
SIZE
  6
Continuous
 62
     0
370
    -2
100
AcDbLine
 10
288.0
 20
-524.1924168160427
 30
0.0
 11
276.0
 21
-524.1924168160427
 31
0.0
  0
LINE
  5
1318
330
1313
100
AcDbEntity
  8
SIZE
  6
Continuous
 62
     0
370
    -2
100
AcDbLine
 10
324.0
 20
-524.1924168160427
 30
0.0
 11
438.285714285714
 21
-524.1924168160427
 31
0.0
  0
LINE
  5
1319
330
1313
100
AcDbEntity
  8
SIZE
  6
Continuous
 62
     0
370
    -2
100
AcDbLine
 10
300.0
 20
-524.1924168160427
 30
0.0
 11
312.0
 21
-524.1924168160427
 31
0.0
  0
INSERT
  5
131A
330
1313
100
AcDbEntity
  8
SIZE
  6
Continuous
 62
     0
370
    -2
100
AcDbBlockReference
  2
_DOTBLANK
 10
300.0
 20
-524.1924168160427
 30
0.0
 41
12.0
 42
12.0
 43
12.0
  0
INSERT
  5
131B
330
1313
100
AcDbEntity
  8
SIZE
  6
Continuous
 62
     0
370
    -2
100
AcDbBlockReference
  2
_DOTBLANK
 10
312.0
 20
-524.1924168160427
 30
0.0
 41
12.0
 42
12.0
 43
12.0
 50
180.0
  0
MTEXT
  5
131C
330
1313
100
AcDbEntity
  8
SIZE
  6
Continuous
 62
     0
100
AcDbMText
 10
387.1428571428571
 20
-482.1924168160427
 30
0.0
 40
64.0
 41
0.0
 71
     5
 72
     1
  1
\A1;12
 73
     1
 44
1.0
1001
ACAD
1000
MTEXTBEGIN
1070
    73
1070
     1
1070
    44
1040
1.0
1070
    74
1070
     0
1000
MTEXTEND
  0
POINT
  5
131D
330
1313
100
AcDbEntity
  8
DEFPOINTS
  6
Continuous
 62
     0
100
AcDbPoint
 10
300.0
 20
-246.5
 30
0.0
  0
POINT
  5
131E
330
1313
100
AcDbEntity
  8
DEFPOINTS
  6
Continuous
 62
     0
100
AcDbPoint
 10
312.0
 20
-246.5000000000001
 30
0.0
  0
POINT
  5
131F
330
1313
100
AcDbEntity
  8
DEFPOINTS
  6
Continuous
 62
     0
100
AcDbPoint
 10
312.0
 20
-524.1924168160427
 30
0.0
  0
ENDBLK
  5
1320
330
1313
100
AcDbEntity
  8
0
100
AcDbBlockEnd
  0
BLOCK
  5
1322
330
1321
100
AcDbEntity
  8
0
100
AcDbBlockBegin
  2
*D13
 70
     1
 10
0.0
 20
0.0
 30
0.0
  3
*D13
  1

  0
LINE
  5
1323
330
1321
100
AcDbEntity
  8
SIZE
  6
Continuous
 62
     0
370
    -2
100
AcDbLine
 10
-12.0
 20
-124.0828571428571
 30
0.0
 11
-166.0601444877647
 21
-124.082857142857
 31
0.0
  0
LINE
  5
1324
330
1321
100
AcDbEntity
  8
SIZE
  6
Continuous
 62
     0
370
    -2
100
AcDbLine
 10
54.99999999999998
 20
-220.3828571428571
 30
0.0
 11
-166.0601444877647
 21
-220.382857142857
 31
0.0
  0
LINE
  5
1325
330
1321
100
AcDbEntity
  8
SIZE
  6
Continuous
 62
     0
370
    -2
100
AcDbLine
 10
-146.0601444877647
 20
-136.082857142857
 30
0.0
 11
-146.0601444877647
 21
-208.382857142857
 31
0.0
  0
INSERT
  5
1326
330
1321
100
AcDbEntity
  8
SIZE
  6
Continuous
 62
     0
370
    -2
100
AcDbBlockReference
  2
_DOTBLANK
 10
-146.0601444877647
 20
-124.082857142857
 30
0.0
 41
12.0
 42
12.0
 43
12.0
 50
90.0
  0
INSERT
  5
1327
330
1321
100
AcDbEntity
  8
SIZE
  6
Continuous
 62
     0
370
    -2
100
AcDbBlockReference
  2
_DOTBLANK
 10
-146.0601444877647
 20
-220.382857142857
 30
0.0
 41
12.0
 42
12.0
 43
12.0
 50
270.0
  0
MTEXT
  5
1328
330
1321
100
AcDbEntity
  8
SIZE
  6
Continuous
 62
     0
100
AcDbMText
 10
-188.0601444877647
 20
-172.2328571428571
 30
0.0
 40
64.0
 41
0.0
 71
     5
 72
     1
  1
\A1;96
 11
0.0000000000000001
 21
1.0
 31
0.0
 73
     1
 44
1.0
1001
ACAD
1000
MTEXTBEGIN
1070
    73
1070
     1
1070
    44
1040
1.0
1070
    74
1070
     0
1000
MTEXTEND
  0
POINT
  5
1329
330
1321
100
AcDbEntity
  8
DEFPOINTS
  6
Continuous
 62
     0
100
AcDbPoint
 10
8.0
 20
-124.0828571428571
 30
0.0
  0
POINT
  5
132A
330
1321
100
AcDbEntity
  8
DEFPOINTS
  6
Continuous
 62
     0
100
AcDbPoint
 10
74.99999999999999
 20
-220.3828571428571
 30
0.0
  0
POINT
  5
132B
330
1321
100
AcDbEntity
  8
DEFPOINTS
  6
Continuous
 62
     0
100
AcDbPoint
 10
-146.0601444877647
 20
-220.382857142857
 30
0.0
  0
ENDBLK
  5
132C
330
1321
100
AcDbEntity
  8
0
100
AcDbBlockEnd
  0
BLOCK
  5
132E
330
132D
100
AcDbEntity
  8
0
100
AcDbBlockBegin
  2
*D14
 70
     1
 10
0.0
 20
0.0
 30
0.0
  3
*D14
  1

  0
LINE
  5
132F
330
132D
100
AcDbEntity
  8
SIZE
  6
Continuous
 62
     0
370
    -2
100
AcDbLine
 10
63.08003422720044
 20
-238.9992329253439
 30
0.0
 11
63.08003422720044
 21
-358.0949273793144
 31
0.0
  0
LINE
  5
1330
330
132D
100
AcDbEntity
  8
SIZE
  6
Continuous
 62
     0
370
    -2
100
AcDbLine
 10
-0.0000000000000012
 20
-177.5
 30
0.0
 11
-0.0000000000000123
 21
-358.0949273793144
 31
0.0
  0
LINE
  5
1331
330
132D
100
AcDbEntity
  8
SIZE
  6
Continuous
 62
     0
370
    -2
100
AcDbLine
 10
51.08003422720045
 20
-338.0949273793143
 30
0.0
 11
11.99999999999999
 21
-338.0949273793143
 31
0.0
  0
LINE
  5
1332
330
132D
100
AcDbEntity
  8
SIZE
  6
Continuous
 62
     0
370
    -2
100
AcDbLine
 10
-0.0000000000000111
 20
-338.0949273793143
 30
0.0
 11
-125.2571428571428
 21
-338.0949273793143
 31
0.0
  0
INSERT
  5
1333
330
132D
100
AcDbEntity
  8
SIZE
  6
Continuous
 62
     0
370
    -2
100
AcDbBlockReference
  2
_DOTBLANK
 10
63.08003422720044
 20
-338.0949273793143
 30
0.0
 41
12.0
 42
12.0
 43
12.0
  0
INSERT
  5
1334
330
132D
100
AcDbEntity
  8
SIZE
  6
Continuous
 62
     0
370
    -2
100
AcDbBlockReference
  2
_DOTBLANK
 10
-0.0000000000000111
 20
-338.0949273793143
 30
0.0
 41
12.0
 42
12.0
 43
12.0
 50
180.0
  0
MTEXT
  5
1335
330
132D
100
AcDbEntity
  8
SIZE
  6
Continuous
 62
     0
100
AcDbMText
 10
-68.62857142857143
 20
-296.0949273793143
 30
0.0
 40
64.0
 41
0.0
 71
     5
 72
     1
  1
\A1;63
 73
     1
 44
1.0
1001
ACAD
1000
MTEXTBEGIN
1070
    73
1070
     1
1070
    44
1040
1.0
1070
    74
1070
     0
1000
MTEXTEND
  0
POINT
  5
1336
330
132D
100
AcDbEntity
  8
DEFPOINTS
  6
Continuous
 62
     0
100
AcDbPoint
 10
63.08003422720044
 20
-218.9992329253439
 30
0.0
  0
POINT
  5
1337
330
132D
100
AcDbEntity
  8
DEFPOINTS
  6
Continuous
 62
     0
100
AcDbPoint
 10
0.0
 20
-157.5
 30
0.0
  0
POINT
  5
1338
330
132D
100
AcDbEntity
  8
DEFPOINTS
  6
Continuous
 62
     0
100
AcDbPoint
 10
-0.0000000000000111
 20
-338.0949273793143
 30
0.0
  0
ENDBLK
  5
1339
330
132D
100
AcDbEntity
  8
0
100
AcDbBlockEnd
  0
BLOCK
  5
1388
330
1387
100
AcDbEntity
  8
0
100
AcDbBlockBegin
  2
*D15
 70
     1
 10
0.0
 20
0.0
 30
0.0
  3
*D15
  1

  0
LINE
  5
1481
330
1387
100
AcDbEntity
  8
SIZE
  6
Continuous
 62
     0
370
    -2
100
AcDbLine
 10
-122.4389986988458
 20
-260.4438517719275
 30
0.0
 11
-122.4389986988458
 21
-541.3241467410157
 31
0.0
  0
LINE
  5
1482
330
1387
100
AcDbEntity
  8
SIZE
  6
Continuous
 62
     0
370
    -2
100
AcDbLine
 10
177.5610013011541
 20
-174.6317299249732
 30
0.0
 11
177.5610013011541
 21
-541.3241467410157
 31
0.0
  0
LINE
  5
1483
330
1387
100
AcDbEntity
  8
SIZE
  6
Continuous
 62
     0
370
    -2
100
AcDbLine
 10
-110.4389986988458
 20
-521.3241467410157
 30
0.0
 11
165.5610013011541
 21
-521.3241467410157
 31
0.0
  0
INSERT
  5
1484
330
1387
100
AcDbEntity
  8
SIZE
  6
Continuous
 62
     0
370
    -2
100
AcDbBlockReference
  2
_DOTBLANK
 10
-122.4389986988458
 20
-521.3241467410157
 30
0.0
 41
12.0
 42
12.0
 43
12.0
 50
180.0
  0
INSERT
  5
1485
330
1387
100
AcDbEntity
  8
SIZE
  6
Continuous
 62
     0
370
    -2
100
AcDbBlockReference
  2
_DOTBLANK
 10
177.5610013011541
 20
-521.3241467410157
 30
0.0
 41
12.0
 42
12.0
 43
12.0
  0
MTEXT
  5
1486
330
1387
100
AcDbEntity
  8
SIZE
  6
Continuous
 62
     0
100
AcDbMText
 10
27.56100130115417
 20
-479.3241467410154
 30
0.0
 40
64.0
 41
0.0
 71
     5
 72
     1
  1
\A1;300
 73
     1
 44
1.0
1001
ACAD
1000
MTEXTBEGIN
1070
    73
1070
     1
1070
    44
1040
1.0
1070
    74
1070
     0
1000
MTEXTEND
  0
POINT
  5
1487
330
1387
100
AcDbEntity
  8
DEFPOINTS
  6
Continuous
 62
     0
100
AcDbPoint
 10
-122.4389986988458
 20
-240.4438517719275
 30
0.0
  0
POINT
  5
1488
330
1387
100
AcDbEntity
  8
DEFPOINTS
  6
Continuous
 62
     0
100
AcDbPoint
 10
177.5610013011541
 20
-154.6317299249732
 30
0.0
  0
POINT
  5
1489
330
1387
100
AcDbEntity
  8
DEFPOINTS
  6
Continuous
 62
     0
100
AcDbPoint
 10
177.5610013011541
 20
-521.3241467410157
 30
0.0
  0
ENDBLK
  5
1389
330
1387
100
AcDbEntity
  8
0
100
AcDbBlockEnd
  0
BLOCK
  5
1394
330
1393
100
AcDbEntity
  8
0
100
AcDbBlockBegin
  2
*D16
 70
     1
 10
0.0
 20
0.0
 30
0.0
  3
*D16
  1

  0
LINE
  5
1414
330
1393
100
AcDbEntity
  8
SIZE
  6
Continuous
 62
     0
370
    -2
100
AcDbLine
 10
1660.355735523924
 20
-319.7178657902711
 30
0.0
 11
1806.415880011689
 21
-319.7178657902711
 31
0.0
  0
LINE
  5
1415
330
1393
100
AcDbEntity
  8
SIZE
  6
Continuous
 62
     0
370
    -2
100
AcDbLine
 10
1659.755735523924
 20
-74.71786579027105
 30
0.0
 11
1806.415880011689
 21
-74.71786579027109
 31
0.0
  0
LINE
  5
1416
330
1393
100
AcDbEntity
  8
SIZE
  6
Continuous
 62
     0
370
    -2
100
AcDbLine
 10
1786.415880011689
 20
-307.7178657902711
 30
0.0
 11
1786.415880011689
 21
-86.71786579027109
 31
0.0
  0
INSERT
  5
1417
330
1393
100
AcDbEntity
  8
SIZE
  6
Continuous
 62
     0
370
    -2
100
AcDbBlockReference
  2
_DOTBLANK
 10
1786.415880011689
 20
-319.7178657902711
 30
0.0
 41
12.0
 42
12.0
 43
12.0
 50
270.0
  0
INSERT
  5
1418
330
1393
100
AcDbEntity
  8
SIZE
  6
Continuous
 62
     0
370
    -2
100
AcDbBlockReference
  2
_DOTBLANK
 10
1786.415880011689
 20
-74.71786579027109
 30
0.0
 41
12.0
 42
12.0
 43
12.0
 50
90.0
  0
MTEXT
  5
1419
330
1393
100
AcDbEntity
  8
SIZE
  6
Continuous
 62
     0
100
AcDbMText
 10
1744.415880011689
 20
-197.2178657902708
 30
0.0
 40
64.0
 41
0.0
 71
     5
 72
     1
  1
\A1;□245
 11
0.0000000000000001
 21
1.0
 31
0.0
 73
     1
 44
1.0
1001
ACAD
1000
MTEXTBEGIN
1070
    73
1070
     1
1070
    44
1040
1.0
1070
    74
1070
     0
1000
MTEXTEND
  0
POINT
  5
141A
330
1393
100
AcDbEntity
  8
DEFPOINTS
  6
Continuous
 62
     0
100
AcDbPoint
 10
1640.355735523924
 20
-319.7178657902711
 30
0.0
  0
POINT
  5
141B
330
1393
100
AcDbEntity
  8
DEFPOINTS
  6
Continuous
 62
     0
100
AcDbPoint
 10
1639.755735523924
 20
-74.71786579027105
 30
0.0
  0
POINT
  5
141C
330
1393
100
AcDbEntity
  8
DEFPOINTS
  6
Continuous
 62
     0
100
AcDbPoint
 10
1786.415880011689
 20
-74.71786579027109
 30
0.0
  0
ENDBLK
  5
1395
330
1393
100
AcDbEntity
  8
0
100
AcDbBlockEnd
  0
BLOCK
  5
13A0
330
139F
100
AcDbEntity
  8
0
100
AcDbBlockBegin
  2
*D17
 70
     1
 10
0.0
 20
0.0
 30
0.0
  3
*D17
  1

  0
LINE
  5
148A
330
139F
100
AcDbEntity
  8
SIZE
  6
Continuous
 62
     0
370
    -2
100
AcDbLine
 10
102.5610013011542
 20
-230.013351497312
 30
0.0
 11
102.5610013011541
 21
-434.0736617955831
 31
0.0
  0
LINE
  5
148B
330
139F
100
AcDbEntity
  8
SIZE
  6
Continuous
 62
     0
370
    -2
100
AcDbLine
 10
-122.4389986988458
 20
-263.6317299249732
 30
0.0
 11
-122.4389986988458
 21
-434.0736617955831
 31
0.0
  0
LINE
  5
148C
330
139F
100
AcDbEntity
  8
SIZE
  6
Continuous
 62
     0
370
    -2
100
AcDbLine
 10
90.56100130115416
 20
-414.0736617955829
 30
0.0
 11
-110.4389986988458
 21
-414.0736617955829
 31
0.0
  0
INSERT
  5
148D
330
139F
100
AcDbEntity
  8
SIZE
  6
Continuous
 62
     0
370
    -2
100
AcDbBlockReference
  2
_DOTBLANK
 10
102.5610013011541
 20
-414.0736617955829
 30
0.0
 41
12.0
 42
12.0
 43
12.0
  0
INSERT
  5
148E
330
139F
100
AcDbEntity
  8
SIZE
  6
Continuous
 62
     0
370
    -2
100
AcDbBlockReference
  2
_DOTBLANK
 10
-122.4389986988458
 20
-414.0736617955829
 30
0.0
 41
12.0
 42
12.0
 43
12.0
 50
180.0
  0
MTEXT
  5
148F
330
139F
100
AcDbEntity
  8
SIZE
  6
Continuous
 62
     0
100
AcDbMText
 10
-9.93899869884582
 20
-372.0736617955834
 30
0.0
 40
64.0
 41
0.0
 71
     5
 72
     1
  1
\A1;225
 73
     1
 44
1.0
1001
ACAD
1000
MTEXTBEGIN
1070
    73
1070
     1
1070
    44
1040
1.0
1070
    74
1070
     0
1000
MTEXTEND
  0
POINT
  5
1490
330
139F
100
AcDbEntity
  8
DEFPOINTS
  6
Continuous
 62
     0
100
AcDbPoint
 10
102.5610013011542
 20
-210.0133514973121
 30
0.0
  0
POINT
  5
1491
330
139F
100
AcDbEntity
  8
DEFPOINTS
  6
Continuous
 62
     0
100
AcDbPoint
 10
-122.4389986988458
 20
-243.6317299249732
 30
0.0
  0
POINT
  5
1492
330
139F
100
AcDbEntity
  8
DEFPOINTS
  6
Continuous
 62
     0
100
AcDbPoint
 10
-122.4389986988458
 20
-414.0736617955829
 30
0.0
  0
ENDBLK
  5
13A1
330
139F
100
AcDbEntity
  8
0
100
AcDbBlockEnd
  0
BLOCK
  5
13AC
330
13AB
100
AcDbEntity
  8
0
100
AcDbBlockBegin
  2
*D18
 70
     1
 10
0.0
 20
0.0
 30
0.0
  3
*D18
  1

  0
LINE
  5
1493
330
13AB
100
AcDbEntity
  8
SIZE
  6
Continuous
 62
     0
370
    -2
100
AcDbLine
 10
-122.4389986988458
 20
-263.6317299249732
 30
0.0
 11
-122.4389986988458
 21
-541.3241467410157
 31
0.0
  0
LINE
  5
1494
330
13AB
100
AcDbEntity
  8
SIZE
  6
Continuous
 62
     0
370
    -2
100
AcDbLine
 10
-134.4389986988458
 20
-263.6317299249732
 30
0.0
 11
-134.4389986988458
 21
-541.3241467410157
 31
0.0
  0
LINE
  5
1495
330
13AB
100
AcDbEntity
  8
SIZE
  6
Continuous
 62
     0
370
    -2
100
AcDbLine
 10
-110.4389986988458
 20
-521.3241467410157
 30
0.0
 11
-98.4389986988458
 21
-521.3241467410157
 31
0.0
  0
LINE
  5
1496
330
13AB
100
AcDbEntity
  8
SIZE
  6
Continuous
 62
     0
370
    -2
100
AcDbLine
 10
-146.4389986988458
 20
-521.3241467410157
 30
0.0
 11
-260.7247129845601
 21
-521.3241467410157
 31
0.0
  0
LINE
  5
1497
330
13AB
100
AcDbEntity
  8
SIZE
  6
Continuous
 62
     0
370
    -2
100
AcDbLine
 10
-122.4389986988458
 20
-521.3241467410157
 30
0.0
 11
-134.4389986988458
 21
-521.3241467410157
 31
0.0
  0
INSERT
  5
1498
330
13AB
100
AcDbEntity
  8
SIZE
  6
Continuous
 62
     0
370
    -2
100
AcDbBlockReference
  2
_DOTBLANK
 10
-122.4389986988458
 20
-521.3241467410157
 30
0.0
 41
12.0
 42
12.0
 43
12.0
 50
180.0
  0
INSERT
  5
1499
330
13AB
100
AcDbEntity
  8
SIZE
  6
Continuous
 62
     0
370
    -2
100
AcDbBlockReference
  2
_DOTBLANK
 10
-134.4389986988458
 20
-521.3241467410157
 30
0.0
 41
12.0
 42
12.0
 43
12.0
  0
MTEXT
  5
149A
330
13AB
100
AcDbEntity
  8
SIZE
  6
Continuous
 62
     0
100
AcDbMText
 10
-209.581855841703
 20
-479.3241467410154
 30
0.0
 40
64.0
 41
0.0
 71
     5
 72
     1
  1
\A1;12
 73
     1
 44
1.0
1001
ACAD
1000
MTEXTBEGIN
1070
    73
1070
     1
1070
    44
1040
1.0
1070
    74
1070
     0
1000
MTEXTEND
  0
POINT
  5
149B
330
13AB
100
AcDbEntity
  8
DEFPOINTS
  6
Continuous
 62
     0
100
AcDbPoint
 10
-122.4389986988458
 20
-243.6317299249732
 30
0.0
  0
POINT
  5
149C
330
13AB
100
AcDbEntity
  8
DEFPOINTS
  6
Continuous
 62
     0
100
AcDbPoint
 10
-134.4389986988458
 20
-243.6317299249732
 30
0.0
  0
POINT
  5
149D
330
13AB
100
AcDbEntity
  8
DEFPOINTS
  6
Continuous
 62
     0
100
AcDbPoint
 10
-134.4389986988458
 20
-521.3241467410157
 30
0.0
  0
ENDBLK
  5
13AD
330
13AB
100
AcDbEntity
  8
0
100
AcDbBlockEnd
  0
BLOCK
  5
13BA
330
13B9
100
AcDbEntity
  8
0
100
AcDbBlockBegin
  2
*D19
 70
     1
 10
0.0
 20
0.0
 30
0.0
  3
*D19
  1

  0
LINE
  5
1431
330
13B9
100
AcDbEntity
  8
SIZE
  6
Continuous
 62
     0
370
    -2
100
AcDbLine
 10
1652.355735523924
 20
-320.3007229331281
 30
0.0
 11
1806.415880011689
 21
-320.3007229331282
 31
0.0
  0
LINE
  5
1432
330
13B9
100
AcDbEntity
  8
SIZE
  6
Continuous
 62
     0
370
    -2
100
AcDbLine
 10
1585.355735523924
 20
-416.6007229331281
 30
0.0
 11
1806.415880011689
 21
-416.6007229331282
 31
0.0
  0
LINE
  5
1433
330
13B9
100
AcDbEntity
  8
SIZE
  6
Continuous
 62
     0
370
    -2
100
AcDbLine
 10
1786.415880011689
 20
-332.3007229331282
 30
0.0
 11
1786.415880011689
 21
-404.6007229331282
 31
0.0
  0
INSERT
  5
1434
330
13B9
100
AcDbEntity
  8
SIZE
  6
Continuous
 62
     0
370
    -2
100
AcDbBlockReference
  2
_DOTBLANK
 10
1786.415880011689
 20
-320.3007229331282
 30
0.0
 41
12.0
 42
12.0
 43
12.0
 50
90.0
  0
INSERT
  5
1435
330
13B9
100
AcDbEntity
  8
SIZE
  6
Continuous
 62
     0
370
    -2
100
AcDbBlockReference
  2
_DOTBLANK
 10
1786.415880011689
 20
-416.6007229331282
 30
0.0
 41
12.0
 42
12.0
 43
12.0
 50
270.0
  0
MTEXT
  5
1436
330
13B9
100
AcDbEntity
  8
SIZE
  6
Continuous
 62
     0
100
AcDbMText
 10
1744.415880011689
 20
-368.450722933128
 30
0.0
 40
64.0
 41
0.0
 71
     5
 72
     1
  1
\A1;96
 11
0.0000000000000001
 21
1.0
 31
0.0
 73
     1
 44
1.0
1001
ACAD
1000
MTEXTBEGIN
1070
    73
1070
     1
1070
    44
1040
1.0
1070
    74
1070
     0
1000
MTEXTEND
  0
POINT
  5
1437
330
13B9
100
AcDbEntity
  8
DEFPOINTS
  6
Continuous
 62
     0
100
AcDbPoint
 10
1632.355735523924
 20
-320.3007229331281
 30
0.0
  0
POINT
  5
1438
330
13B9
100
AcDbEntity
  8
DEFPOINTS
  6
Continuous
 62
     0
100
AcDbPoint
 10
1565.355735523923
 20
-416.6007229331281
 30
0.0
  0
POINT
  5
1439
330
13B9
100
AcDbEntity
  8
DEFPOINTS
  6
Continuous
 62
     0
100
AcDbPoint
 10
1786.415880011689
 20
-416.6007229331282
 30
0.0
  0
ENDBLK
  5
13BB
330
13B9
100
AcDbEntity
  8
0
100
AcDbBlockEnd
  0
BLOCK
  5
13C6
330
13C5
100
AcDbEntity
  8
0
100
AcDbBlockBegin
  2
*D20
 70
     1
 10
0.0
 20
0.0
 30
0.0
  3
*D20
  1

  0
LINE
  5
149E
330
13C5
100
AcDbEntity
  8
SIZE
  6
Continuous
 62
     0
370
    -2
100
AcDbLine
 10
114.4809670739537
 20
-236.1309628503171
 30
0.0
 11
114.4809670739537
 21
-355.2266573042875
 31
0.0
  0
LINE
  5
149F
330
13C5
100
AcDbEntity
  8
SIZE
  6
Continuous
 62
     0
370
    -2
100
AcDbLine
 10
177.5610013011541
 20
-174.6317299249732
 30
0.0
 11
177.5610013011541
 21
-355.2266573042875
 31
0.0
  0
LINE
  5
14A0
330
13C5
100
AcDbEntity
  8
SIZE
  6
Continuous
 62
     0
370
    -2
100
AcDbLine
 10
126.4809670739537
 20
-335.2266573042875
 30
0.0
 11
165.5610013011542
 21
-335.2266573042875
 31
0.0
  0
LINE
  5
14A1
330
13C5
100
AcDbEntity
  8
SIZE
  6
Continuous
 62
     0
370
    -2
100
AcDbLine
 10
177.5610013011541
 20
-335.2266573042875
 30
0.0
 11
302.8181441582972
 21
-335.2266573042875
 31
0.0
  0
INSERT
  5
14A2
330
13C5
100
AcDbEntity
  8
SIZE
  6
Continuous
 62
     0
370
    -2
100
AcDbBlockReference
  2
_DOTBLANK
 10
114.4809670739537
 20
-335.2266573042875
 30
0.0
 41
12.0
 42
12.0
 43
12.0
 50
180.0
  0
INSERT
  5
14A3
330
13C5
100
AcDbEntity
  8
SIZE
  6
Continuous
 62
     0
370
    -2
100
AcDbBlockReference
  2
_DOTBLANK
 10
177.5610013011541
 20
-335.2266573042875
 30
0.0
 41
12.0
 42
12.0
 43
12.0
  0
MTEXT
  5
14A4
330
13C5
100
AcDbEntity
  8
SIZE
  6
Continuous
 62
     0
100
AcDbMText
 10
246.1895727297258
 20
-293.2266573042875
 30
0.0
 40
64.0
 41
0.0
 71
     5
 72
     1
  1
\A1;63
 73
     1
 44
1.0
1001
ACAD
1000
MTEXTBEGIN
1070
    73
1070
     1
1070
    44
1040
1.0
1070
    74
1070
     0
1000
MTEXTEND
  0
POINT
  5
14A5
330
13C5
100
AcDbEntity
  8
DEFPOINTS
  6
Continuous
 62
     0
100
AcDbPoint
 10
114.4809670739537
 20
-216.1309628503171
 30
0.0
  0
POINT
  5
14A6
330
13C5
100
AcDbEntity
  8
DEFPOINTS
  6
Continuous
 62
     0
100
AcDbPoint
 10
177.5610013011541
 20
-154.6317299249732
 30
0.0
  0
POINT
  5
14A7
330
13C5
100
AcDbEntity
  8
DEFPOINTS
  6
Continuous
 62
     0
100
AcDbPoint
 10
177.5610013011541
 20
-335.2266573042875
 30
0.0
  0
ENDBLK
  5
13C7
330
13C5
100
AcDbEntity
  8
0
100
AcDbBlockEnd
  0
BLOCK
  5
1446
330
1445
100
AcDbEntity
  8
0
100
AcDbBlockBegin
  2
*D21
 70
     1
 10
0.0
 20
0.0
 30
0.0
  3
*D21
  1

  0
LINE
  5
14A8
330
1445
100
AcDbEntity
  8
SIZE
  6
Continuous
 62
     0
370
    -2
100
AcDbLine
 10
210.0254841033479
 20
142.8682700750268
 30
0.0
 11
419.6351921975876
 21
142.8682700750267
 31
0.0
  0
LINE
  5
14A9
330
1445
100
AcDbEntity
  8
SIZE
  6
Continuous
 62
     0
370
    -2
100
AcDbLine
 10
210.0254841033479
 20
-137.1317299249732
 30
0.0
 11
419.6351921975876
 21
-137.1317299249732
 31
0.0
  0
LINE
  5
14AA
330
1445
100
AcDbEntity
  8
SIZE
  6
Continuous
 62
     0
370
    -2
100
AcDbLine
 10
399.6351921975877
 20
130.8682700750267
 30
0.0
 11
399.6351921975877
 21
-125.1317299249732
 31
0.0
  0
INSERT
  5
14AB
330
1445
100
AcDbEntity
  8
SIZE
  6
Continuous
 62
     0
370
    -2
100
AcDbBlockReference
  2
_DOTBLANK
 10
399.6351921975877
 20
142.8682700750267
 30
0.0
 41
12.0
 42
12.0
 43
12.0
 50
90.0
  0
INSERT
  5
14AC
330
1445
100
AcDbEntity
  8
SIZE
  6
Continuous
 62
     0
370
    -2
100
AcDbBlockReference
  2
_DOTBLANK
 10
399.6351921975877
 20
-137.1317299249732
 30
0.0
 41
12.0
 42
12.0
 43
12.0
 50
270.0
  0
MTEXT
  5
14AD
330
1445
100
AcDbEntity
  8
SIZE
  6
Continuous
 62
     0
100
AcDbMText
 10
357.6351921975877
 20
2.868270075026837
 30
0.0
 40
64.0
 41
0.0
 71
     5
 72
     1
  1
\A1;280
 11
0.0000000000000001
 21
1.0
 31
0.0
 73
     1
 44
1.0
1001
ACAD
1000
MTEXTBEGIN
1070
    73
1070
     1
1070
    44
1040
1.0
1070
    74
1070
     0
1000
MTEXTEND
  0
POINT
  5
14AE
330
1445
100
AcDbEntity
  8
DEFPOINTS
  6
Continuous
 62
     0
100
AcDbPoint
 10
190.0254841033479
 20
142.8682700750268
 30
0.0
  0
POINT
  5
14AF
330
1445
100
AcDbEntity
  8
DEFPOINTS
  6
Continuous
 62
     0
100
AcDbPoint
 10
190.0254841033479
 20
-137.1317299249732
 30
0.0
  0
POINT
  5
14B0
330
1445
100
AcDbEntity
  8
DEFPOINTS
  6
Continuous
 62
     0
100
AcDbPoint
 10
399.6351921975877
 20
-137.1317299249732
 30
0.0
  0
ENDBLK
  5
1447
330
1445
100
AcDbEntity
  8
0
100
AcDbBlockEnd
  0
BLOCK
  5
14E1
330
14E0
100
AcDbEntity
  8
0
100
AcDbBlockBegin
  2
*D22
 70
     1
 10
0.0
 20
0.0
 30
0.0
  3
*D22
  1

  0
LINE
  5
14E2
330
14E0
100
AcDbEntity
  8
SIZE
  6
Continuous
 62
     0
370
    -2
100
AcDbLine
 10
300.0
 20
-263.3121218469543
 30
0.0
 11
300.0
 21
-544.1924168160427
 31
0.0
  0
LINE
  5
14E3
330
14E0
100
AcDbEntity
  8
SIZE
  6
Continuous
 62
     0
370
    -2
100
AcDbLine
 10
-0.0000000000000012
 20
-177.5
 30
0.0
 11
-0.0000000000000237
 21
-544.1924168160427
 31
0.0
  0
LINE
  5
14E4
330
14E0
100
AcDbEntity
  8
SIZE
  6
Continuous
 62
     0
370
    -2
100
AcDbLine
 10
288.0
 20
-524.1924168160427
 30
0.0
 11
11.99999999999997
 21
-524.1924168160427
 31
0.0
  0
INSERT
  5
14E5
330
14E0
100
AcDbEntity
  8
SIZE
  6
Continuous
 62
     0
370
    -2
100
AcDbBlockReference
  2
_DOTBLANK
 10
300.0
 20
-524.1924168160427
 30
0.0
 41
12.0
 42
12.0
 43
12.0
  0
INSERT
  5
14E6
330
14E0
100
AcDbEntity
  8
SIZE
  6
Continuous
 62
     0
370
    -2
100
AcDbBlockReference
  2
_DOTBLANK
 10
-0.0000000000000225
 20
-524.1924168160427
 30
0.0
 41
12.0
 42
12.0
 43
12.0
 50
180.0
  0
MTEXT
  5
14E7
330
14E0
100
AcDbEntity
  8
SIZE
  6
Continuous
 62
     0
100
AcDbMText
 10
150.0
 20
-482.1924168160427
 30
0.0
 40
64.0
 41
0.0
 71
     5
 72
     1
  1
\A1;300
 73
     1
 44
1.0
1001
ACAD
1000
MTEXTBEGIN
1070
    73
1070
     1
1070
    44
1040
1.0
1070
    74
1070
     0
1000
MTEXTEND
  0
POINT
  5
14E8
330
14E0
100
AcDbEntity
  8
DEFPOINTS
  6
Continuous
 62
     0
100
AcDbPoint
 10
300.0
 20
-243.3121218469543
 30
0.0
  0
POINT
  5
14E9
330
14E0
100
AcDbEntity
  8
DEFPOINTS
  6
Continuous
 62
     0
100
AcDbPoint
 10
0.0
 20
-157.5
 30
0.0
  0
POINT
  5
14EA
330
14E0
100
AcDbEntity
  8
DEFPOINTS
  6
Continuous
 62
     0
100
AcDbPoint
 10
-0.0000000000000225
 20
-524.1924168160427
 30
0.0
  0
ENDBLK
  5
14EB
330
14E0
100
AcDbEntity
  8
0
100
AcDbBlockEnd
  0
BLOCK
  5
14ED
330
14EC
100
AcDbEntity
  8
0
100
AcDbBlockBegin
  2
*D23
 70
     1
 10
0.0
 20
0.0
 30
0.0
  3
*D23
  1

  0
LINE
  5
14EE
330
14EC
100
AcDbEntity
  8
SIZE
  6
Continuous
 62
     0
370
    -2
100
AcDbLine
 10
-20.0
 20
-123.5
 30
0.0
 11
-166.0601444877647
 21
-123.4999999999999
 31
0.0
  0
LINE
  5
14EF
330
14EC
100
AcDbEntity
  8
SIZE
  6
Continuous
 62
     0
370
    -2
100
AcDbLine
 10
-19.39999999999997
 20
121.5
 30
0.0
 11
-166.0601444877647
 21
121.5
 31
0.0
  0
LINE
  5
14F0
330
14EC
100
AcDbEntity
  8
SIZE
  6
Continuous
 62
     0
370
    -2
100
AcDbLine
 10
-146.0601444877647
 20
-111.4999999999999
 30
0.0
 11
-146.0601444877647
 21
109.5
 31
0.0
  0
INSERT
  5
14F1
330
14EC
100
AcDbEntity
  8
SIZE
  6
Continuous
 62
     0
370
    -2
100
AcDbBlockReference
  2
_DOTBLANK
 10
-146.0601444877647
 20
-123.4999999999999
 30
0.0
 41
12.0
 42
12.0
 43
12.0
 50
270.0
  0
INSERT
  5
14F2
330
14EC
100
AcDbEntity
  8
SIZE
  6
Continuous
 62
     0
370
    -2
100
AcDbBlockReference
  2
_DOTBLANK
 10
-146.0601444877647
 20
121.5
 30
0.0
 41
12.0
 42
12.0
 43
12.0
 50
90.0
  0
MTEXT
  5
14F3
330
14EC
100
AcDbEntity
  8
SIZE
  6
Continuous
 62
     0
100
AcDbMText
 10
-188.0601444877647
 20
-0.9999999999999715
 30
0.0
 40
64.0
 41
0.0
 71
     5
 72
     1
  1
\A1;□245
 11
0.0000000000000001
 21
1.0
 31
0.0
 73
     1
 44
1.0
1001
ACAD
1000
MTEXTBEGIN
1070
    73
1070
     1
1070
    44
1040
1.0
1070
    74
1070
     0
1000
MTEXTEND
  0
POINT
  5
14F4
330
14EC
100
AcDbEntity
  8
DEFPOINTS
  6
Continuous
 62
     0
100
AcDbPoint
 10
0.0
 20
-123.5
 30
0.0
  0
POINT
  5
14F5
330
14EC
100
AcDbEntity
  8
DEFPOINTS
  6
Continuous
 62
     0
100
AcDbPoint
 10
0.6000000000000229
 20
121.5
 30
0.0
  0
POINT
  5
14F6
330
14EC
100
AcDbEntity
  8
DEFPOINTS
  6
Continuous
 62
     0
100
AcDbPoint
 10
-146.0601444877647
 20
121.5
 30
0.0
  0
ENDBLK
  5
14F7
330
14EC
100
AcDbEntity
  8
0
100
AcDbBlockEnd
  0
BLOCK
  5
14F9
330
14F8
100
AcDbEntity
  8
0
100
AcDbBlockBegin
  2
*D24
 70
     1
 10
0.0
 20
0.0
 30
0.0
  3
*D24
  1

  0
LINE
  5
14FA
330
14F8
100
AcDbEntity
  8
SIZE
  6
Continuous
 62
     0
370
    -2
100
AcDbLine
 10
75.0
 20
-232.8816215723389
 30
0.0
 11
74.99999999999999
 21
-436.9419318706101
 31
0.0
  0
LINE
  5
14FB
330
14F8
100
AcDbEntity
  8
SIZE
  6
Continuous
 62
     0
370
    -2
100
AcDbLine
 10
300.0
 20
-266.5
 30
0.0
 11
300.0
 21
-436.9419318706101
 31
0.0
  0
LINE
  5
14FC
330
14F8
100
AcDbEntity
  8
SIZE
  6
Continuous
 62
     0
370
    -2
100
AcDbLine
 10
86.99999999999999
 20
-416.9419318706101
 30
0.0
 11
288.0
 21
-416.9419318706101
 31
0.0
  0
INSERT
  5
14FD
330
14F8
100
AcDbEntity
  8
SIZE
  6
Continuous
 62
     0
370
    -2
100
AcDbBlockReference
  2
_DOTBLANK
 10
74.99999999999999
 20
-416.9419318706101
 30
0.0
 41
12.0
 42
12.0
 43
12.0
 50
180.0
  0
INSERT
  5
14FE
330
14F8
100
AcDbEntity
  8
SIZE
  6
Continuous
 62
     0
370
    -2
100
AcDbBlockReference
  2
_DOTBLANK
 10
300.0
 20
-416.9419318706101
 30
0.0
 41
12.0
 42
12.0
 43
12.0
  0
MTEXT
  5
14FF
330
14F8
100
AcDbEntity
  8
SIZE
  6
Continuous
 62
     0
100
AcDbMText
 10
187.5
 20
-374.9419318706101
 30
0.0
 40
64.0
 41
0.0
 71
     5
 72
     1
  1
\A1;225
 73
     1
 44
1.0
1001
ACAD
1000
MTEXTBEGIN
1070
    73
1070
     1
1070
    44
1040
1.0
1070
    74
1070
     0
1000
MTEXTEND
  0
POINT
  5
1500
330
14F8
100
AcDbEntity
  8
DEFPOINTS
  6
Continuous
 62
     0
100
AcDbPoint
 10
75.0
 20
-212.8816215723389
 30
0.0
  0
POINT
  5
1501
330
14F8
100
AcDbEntity
  8
DEFPOINTS
  6
Continuous
 62
     0
100
AcDbPoint
 10
300.0
 20
-246.5
 30
0.0
  0
POINT
  5
1502
330
14F8
100
AcDbEntity
  8
DEFPOINTS
  6
Continuous
 62
     0
100
AcDbPoint
 10
300.0
 20
-416.9419318706101
 30
0.0
  0
ENDBLK
  5
1503
330
14F8
100
AcDbEntity
  8
0
100
AcDbBlockEnd
  0
BLOCK
  5
1505
330
1504
100
AcDbEntity
  8
0
100
AcDbBlockBegin
  2
*D25
 70
     1
 10
0.0
 20
0.0
 30
0.0
  3
*D25
  1

  0
LINE
  5
1506
330
1504
100
AcDbEntity
  8
SIZE
  6
Continuous
 62
     0
370
    -2
100
AcDbLine
 10
300.0
 20
-266.5
 30
0.0
 11
300.0
 21
-544.1924168160427
 31
0.0
  0
LINE
  5
1507
330
1504
100
AcDbEntity
  8
SIZE
  6
Continuous
 62
     0
370
    -2
100
AcDbLine
 10
312.0
 20
-266.5
 30
0.0
 11
312.0
 21
-544.1924168160427
 31
0.0
  0
LINE
  5
1508
330
1504
100
AcDbEntity
  8
SIZE
  6
Continuous
 62
     0
370
    -2
100
AcDbLine
 10
288.0
 20
-524.1924168160427
 30
0.0
 11
276.0
 21
-524.1924168160427
 31
0.0
  0
LINE
  5
1509
330
1504
100
AcDbEntity
  8
SIZE
  6
Continuous
 62
     0
370
    -2
100
AcDbLine
 10
324.0
 20
-524.1924168160427
 30
0.0
 11
438.285714285714
 21
-524.1924168160427
 31
0.0
  0
LINE
  5
150A
330
1504
100
AcDbEntity
  8
SIZE
  6
Continuous
 62
     0
370
    -2
100
AcDbLine
 10
300.0
 20
-524.1924168160427
 30
0.0
 11
312.0
 21
-524.1924168160427
 31
0.0
  0
INSERT
  5
150B
330
1504
100
AcDbEntity
  8
SIZE
  6
Continuous
 62
     0
370
    -2
100
AcDbBlockReference
  2
_DOTBLANK
 10
300.0
 20
-524.1924168160427
 30
0.0
 41
12.0
 42
12.0
 43
12.0
  0
INSERT
  5
150C
330
1504
100
AcDbEntity
  8
SIZE
  6
Continuous
 62
     0
370
    -2
100
AcDbBlockReference
  2
_DOTBLANK
 10
312.0
 20
-524.1924168160427
 30
0.0
 41
12.0
 42
12.0
 43
12.0
 50
180.0
  0
MTEXT
  5
150D
330
1504
100
AcDbEntity
  8
SIZE
  6
Continuous
 62
     0
100
AcDbMText
 10
387.1428571428571
 20
-482.1924168160427
 30
0.0
 40
64.0
 41
0.0
 71
     5
 72
     1
  1
\A1;12
 73
     1
 44
1.0
1001
ACAD
1000
MTEXTBEGIN
1070
    73
1070
     1
1070
    44
1040
1.0
1070
    74
1070
     0
1000
MTEXTEND
  0
POINT
  5
150E
330
1504
100
AcDbEntity
  8
DEFPOINTS
  6
Continuous
 62
     0
100
AcDbPoint
 10
300.0
 20
-246.5
 30
0.0
  0
POINT
  5
150F
330
1504
100
AcDbEntity
  8
DEFPOINTS
  6
Continuous
 62
     0
100
AcDbPoint
 10
312.0
 20
-246.5000000000001
 30
0.0
  0
POINT
  5
1510
330
1504
100
AcDbEntity
  8
DEFPOINTS
  6
Continuous
 62
     0
100
AcDbPoint
 10
312.0
 20
-524.1924168160427
 30
0.0
  0
ENDBLK
  5
1511
330
1504
100
AcDbEntity
  8
0
100
AcDbBlockEnd
  0
BLOCK
  5
1513
330
1512
100
AcDbEntity
  8
0
100
AcDbBlockBegin
  2
*D26
 70
     1
 10
0.0
 20
0.0
 30
0.0
  3
*D26
  1

  0
LINE
  5
1514
330
1512
100
AcDbEntity
  8
SIZE
  6
Continuous
 62
     0
370
    -2
100
AcDbLine
 10
-12.0
 20
-124.0828571428571
 30
0.0
 11
-166.0601444877647
 21
-124.082857142857
 31
0.0
  0
LINE
  5
1515
330
1512
100
AcDbEntity
  8
SIZE
  6
Continuous
 62
     0
370
    -2
100
AcDbLine
 10
54.99999999999998
 20
-220.0828571428571
 30
0.0
 11
-166.0601444877647
 21
-220.082857142857
 31
0.0
  0
LINE
  5
1516
330
1512
100
AcDbEntity
  8
SIZE
  6
Continuous
 62
     0
370
    -2
100
AcDbLine
 10
-146.0601444877647
 20
-136.082857142857
 30
0.0
 11
-146.0601444877647
 21
-208.0828571428571
 31
0.0
  0
INSERT
  5
1517
330
1512
100
AcDbEntity
  8
SIZE
  6
Continuous
 62
     0
370
    -2
100
AcDbBlockReference
  2
_DOTBLANK
 10
-146.0601444877647
 20
-124.082857142857
 30
0.0
 41
12.0
 42
12.0
 43
12.0
 50
90.0
  0
INSERT
  5
1518
330
1512
100
AcDbEntity
  8
SIZE
  6
Continuous
 62
     0
370
    -2
100
AcDbBlockReference
  2
_DOTBLANK
 10
-146.0601444877647
 20
-220.0828571428571
 30
0.0
 41
12.0
 42
12.0
 43
12.0
 50
270.0
  0
MTEXT
  5
1519
330
1512
100
AcDbEntity
  8
SIZE
  6
Continuous
 62
     0
100
AcDbMText
 10
-188.0601444877647
 20
-172.0828571428571
 30
0.0
 40
64.0
 41
0.0
 71
     5
 72
     1
  1
\A1;96
 11
0.0000000000000001
 21
1.0
 31
0.0
 73
     1
 44
1.0
1001
ACAD
1000
MTEXTBEGIN
1070
    73
1070
     1
1070
    44
1040
1.0
1070
    74
1070
     0
1000
MTEXTEND
  0
POINT
  5
151A
330
1512
100
AcDbEntity
  8
DEFPOINTS
  6
Continuous
 62
     0
100
AcDbPoint
 10
8.0
 20
-124.0828571428571
 30
0.0
  0
POINT
  5
151B
330
1512
100
AcDbEntity
  8
DEFPOINTS
  6
Continuous
 62
     0
100
AcDbPoint
 10
74.99999999999999
 20
-220.0828571428571
 30
0.0
  0
POINT
  5
151C
330
1512
100
AcDbEntity
  8
DEFPOINTS
  6
Continuous
 62
     0
100
AcDbPoint
 10
-146.0601444877647
 20
-220.0828571428571
 30
0.0
  0
ENDBLK
  5
151D
330
1512
100
AcDbEntity
  8
0
100
AcDbBlockEnd
  0
BLOCK
  5
151F
330
151E
100
AcDbEntity
  8
0
100
AcDbBlockBegin
  2
*D27
 70
     1
 10
0.0
 20
0.0
 30
0.0
  3
*D27
  1

  0
LINE
  5
1520
330
151E
100
AcDbEntity
  8
SIZE
  6
Continuous
 62
     0
370
    -2
100
AcDbLine
 10
64.0
 20
-238.7913523809523
 30
0.0
 11
63.99999999999999
 21
-358.0949273793144
 31
0.0
  0
LINE
  5
1521
330
151E
100
AcDbEntity
  8
SIZE
  6
Continuous
 62
     0
370
    -2
100
AcDbLine
 10
-0.0000000000000012
 20
-177.5
 30
0.0
 11
-0.0000000000000123
 21
-358.0949273793144
 31
0.0
  0
LINE
  5
1522
330
151E
100
AcDbEntity
  8
SIZE
  6
Continuous
 62
     0
370
    -2
100
AcDbLine
 10
51.99999999999999
 20
-338.0949273793143
 30
0.0
 11
11.99999999999999
 21
-338.0949273793143
 31
0.0
  0
LINE
  5
1523
330
151E
100
AcDbEntity
  8
SIZE
  6
Continuous
 62
     0
370
    -2
100
AcDbLine
 10
-0.0000000000000111
 20
-338.0949273793143
 30
0.0
 11
-128.0
 21
-338.0949273793143
 31
0.0
  0
INSERT
  5
1524
330
151E
100
AcDbEntity
  8
SIZE
  6
Continuous
 62
     0
370
    -2
100
AcDbBlockReference
  2
_DOTBLANK
 10
63.99999999999999
 20
-338.0949273793143
 30
0.0
 41
12.0
 42
12.0
 43
12.0
  0
INSERT
  5
1525
330
151E
100
AcDbEntity
  8
SIZE
  6
Continuous
 62
     0
370
    -2
100
AcDbBlockReference
  2
_DOTBLANK
 10
-0.0000000000000111
 20
-338.0949273793143
 30
0.0
 41
12.0
 42
12.0
 43
12.0
 50
180.0
  0
MTEXT
  5
1526
330
151E
100
AcDbEntity
  8
SIZE
  6
Continuous
 62
     0
100
AcDbMText
 10
-70.00000000000001
 20
-296.0949273793143
 30
0.0
 40
64.0
 41
0.0
 71
     5
 72
     1
  1
\A1;64
 73
     1
 44
1.0
1001
ACAD
1000
MTEXTBEGIN
1070
    73
1070
     1
1070
    44
1040
1.0
1070
    74
1070
     0
1000
MTEXTEND
  0
POINT
  5
1527
330
151E
100
AcDbEntity
  8
DEFPOINTS
  6
Continuous
 62
     0
100
AcDbPoint
 10
64.0
 20
-218.7913523809523
 30
0.0
  0
POINT
  5
1528
330
151E
100
AcDbEntity
  8
DEFPOINTS
  6
Continuous
 62
     0
100
AcDbPoint
 10
0.0
 20
-157.5
 30
0.0
  0
POINT
  5
1529
330
151E
100
AcDbEntity
  8
DEFPOINTS
  6
Continuous
 62
     0
100
AcDbPoint
 10
-0.0000000000000111
 20
-338.0949273793143
 30
0.0
  0
ENDBLK
  5
152A
330
151E
100
AcDbEntity
  8
0
100
AcDbBlockEnd
  0
BLOCK
  5
1578
330
1577
100
AcDbEntity
  8
0
100
AcDbBlockBegin
  2
*D28
 70
     1
 10
0.0
 20
0.0
 30
0.0
  3
*D28
  1

  0
LINE
  5
164A
330
1577
100
AcDbEntity
  8
SIZE
  6
Continuous
 62
     0
370
    -2
100
AcDbLine
 10
247.4231468409085
 20
-214.9080297657609
 30
0.0
 11
247.4231468409085
 21
-418.9683400640322
 31
0.0
  0
LINE
  5
164B
330
1577
100
AcDbEntity
  8
SIZE
  6
Continuous
 62
     0
370
    -2
100
AcDbLine
 10
22.42314684090854
 20
-248.5264081934221
 30
0.0
 11
22.42314684090853
 21
-418.9683400640322
 31
0.0
  0
LINE
  5
164C
330
1577
100
AcDbEntity
  8
SIZE
  6
Continuous
 62
     0
370
    -2
100
AcDbLine
 10
235.4231468409086
 20
-398.9683400640322
 30
0.0
 11
34.42314684090853
 21
-398.9683400640322
 31
0.0
  0
INSERT
  5
164D
330
1577
100
AcDbEntity
  8
SIZE
  6
Continuous
 62
     0
370
    -2
100
AcDbBlockReference
  2
_DOTBLANK
 10
247.4231468409085
 20
-398.9683400640322
 30
0.0
 41
12.0
 42
12.0
 43
12.0
  0
INSERT
  5
164E
330
1577
100
AcDbEntity
  8
SIZE
  6
Continuous
 62
     0
370
    -2
100
AcDbBlockReference
  2
_DOTBLANK
 10
22.42314684090853
 20
-398.9683400640322
 30
0.0
 41
12.0
 42
12.0
 43
12.0
 50
180.0
  0
MTEXT
  5
164F
330
1577
100
AcDbEntity
  8
SIZE
  6
Continuous
 62
     0
100
AcDbMText
 10
134.9231468409085
 20
-356.9683400640322
 30
0.0
 40
64.0
 41
0.0
 71
     5
 72
     1
  1
\A1;225
 73
     1
 44
1.0
1001
ACAD
1000
MTEXTBEGIN
1070
    73
1070
     1
1070
    44
1040
1.0
1070
    74
1070
     0
1000
MTEXTEND
  0
POINT
  5
1650
330
1577
100
AcDbEntity
  8
DEFPOINTS
  6
Continuous
 62
     0
100
AcDbPoint
 10
247.4231468409085
 20
-194.9080297657609
 30
0.0
  0
POINT
  5
1651
330
1577
100
AcDbEntity
  8
DEFPOINTS
  6
Continuous
 62
     0
100
AcDbPoint
 10
22.42314684090854
 20
-228.5264081934221
 30
0.0
  0
POINT
  5
1652
330
1577
100
AcDbEntity
  8
DEFPOINTS
  6
Continuous
 62
     0
100
AcDbPoint
 10
22.42314684090853
 20
-398.9683400640322
 30
0.0
  0
ENDBLK
  5
1579
330
1577
100
AcDbEntity
  8
0
100
AcDbBlockEnd
  0
BLOCK
  5
1584
330
1583
100
AcDbEntity
  8
0
100
AcDbBlockBegin
  2
*D29
 70
     1
 10
0.0
 20
0.0
 30
0.0
  3
*D29
  1

  0
LINE
  5
1653
330
1583
100
AcDbEntity
  8
SIZE
  6
Continuous
 62
     0
370
    -2
100
AcDbLine
 10
22.42314684090854
 20
-248.5264081934221
 30
0.0
 11
22.42314684090853
 21
-526.2188250094648
 31
0.0
  0
LINE
  5
1654
330
1583
100
AcDbEntity
  8
SIZE
  6
Continuous
 62
     0
370
    -2
100
AcDbLine
 10
10.42314684090854
 20
-248.5264081934222
 30
0.0
 11
10.42314684090852
 21
-526.2188250094648
 31
0.0
  0
LINE
  5
1655
330
1583
100
AcDbEntity
  8
SIZE
  6
Continuous
 62
     0
370
    -2
100
AcDbLine
 10
34.42314684090853
 20
-506.2188250094648
 30
0.0
 11
46.42314684090853
 21
-506.2188250094648
 31
0.0
  0
LINE
  5
1656
330
1583
100
AcDbEntity
  8
SIZE
  6
Continuous
 62
     0
370
    -2
100
AcDbLine
 10
-1.576853159091474
 20
-506.2188250094648
 30
0.0
 11
-115.8625674448057
 21
-506.2188250094648
 31
0.0
  0
LINE
  5
1657
330
1583
100
AcDbEntity
  8
SIZE
  6
Continuous
 62
     0
370
    -2
100
AcDbLine
 10
22.42314684090853
 20
-506.2188250094648
 30
0.0
 11
10.42314684090852
 21
-506.2188250094648
 31
0.0
  0
INSERT
  5
1658
330
1583
100
AcDbEntity
  8
SIZE
  6
Continuous
 62
     0
370
    -2
100
AcDbBlockReference
  2
_DOTBLANK
 10
22.42314684090853
 20
-506.2188250094648
 30
0.0
 41
12.0
 42
12.0
 43
12.0
 50
180.0
  0
INSERT
  5
1659
330
1583
100
AcDbEntity
  8
SIZE
  6
Continuous
 62
     0
370
    -2
100
AcDbBlockReference
  2
_DOTBLANK
 10
10.42314684090852
 20
-506.2188250094648
 30
0.0
 41
12.0
 42
12.0
 43
12.0
  0
MTEXT
  5
165A
330
1583
100
AcDbEntity
  8
SIZE
  6
Continuous
 62
     0
100
AcDbMText
 10
-64.71971030194861
 20
-464.2188250094648
 30
0.0
 40
64.0
 41
0.0
 71
     5
 72
     1
  1
\A1;12
 73
     1
 44
1.0
1001
ACAD
1000
MTEXTBEGIN
1070
    73
1070
     1
1070
    44
1040
1.0
1070
    74
1070
     0
1000
MTEXTEND
  0
POINT
  5
165B
330
1583
100
AcDbEntity
  8
DEFPOINTS
  6
Continuous
 62
     0
100
AcDbPoint
 10
22.42314684090854
 20
-228.5264081934221
 30
0.0
  0
POINT
  5
165C
330
1583
100
AcDbEntity
  8
DEFPOINTS
  6
Continuous
 62
     0
100
AcDbPoint
 10
10.42314684090854
 20
-228.5264081934222
 30
0.0
  0
POINT
  5
165D
330
1583
100
AcDbEntity
  8
DEFPOINTS
  6
Continuous
 62
     0
100
AcDbPoint
 10
10.42314684090852
 20
-506.2188250094648
 30
0.0
  0
ENDBLK
  5
1585
330
1583
100
AcDbEntity
  8
0
100
AcDbBlockEnd
  0
BLOCK
  5
1592
330
1591
100
AcDbEntity
  8
0
100
AcDbBlockBegin
  2
*D30
 70
     1
 10
0.0
 20
0.0
 30
0.0
  3
*D30
  1

  0
LINE
  5
1621
330
1591
100
AcDbEntity
  8
SIZE
  6
Continuous
 62
     0
370
    -2
100
AcDbLine
 10
1034.262066088468
 20
-106.1092653362792
 30
0.0
 11
1188.322210576233
 21
-106.1092653362792
 31
0.0
  0
LINE
  5
1622
330
1591
100
AcDbEntity
  8
SIZE
  6
Continuous
 62
     0
370
    -2
100
AcDbLine
 10
967.2620660884684
 20
-202.1092653362792
 30
0.0
 11
1188.322210576233
 21
-202.1092653362792
 31
0.0
  0
LINE
  5
1623
330
1591
100
AcDbEntity
  8
SIZE
  6
Continuous
 62
     0
370
    -2
100
AcDbLine
 10
1168.322210576233
 20
-118.1092653362792
 30
0.0
 11
1168.322210576233
 21
-190.1092653362792
 31
0.0
  0
INSERT
  5
1624
330
1591
100
AcDbEntity
  8
SIZE
  6
Continuous
 62
     0
370
    -2
100
AcDbBlockReference
  2
_DOTBLANK
 10
1168.322210576233
 20
-106.1092653362792
 30
0.0
 41
12.0
 42
12.0
 43
12.0
 50
90.0
  0
INSERT
  5
1625
330
1591
100
AcDbEntity
  8
SIZE
  6
Continuous
 62
     0
370
    -2
100
AcDbBlockReference
  2
_DOTBLANK
 10
1168.322210576233
 20
-202.1092653362792
 30
0.0
 41
12.0
 42
12.0
 43
12.0
 50
270.0
  0
MTEXT
  5
1626
330
1591
100
AcDbEntity
  8
SIZE
  6
Continuous
 62
     0
100
AcDbMText
 10
1126.322210576233
 20
-154.1092653362789
 30
0.0
 40
64.0
 41
0.0
 71
     5
 72
     1
  1
\A1;96
 11
0.0000000000000001
 21
1.0
 31
0.0
 73
     1
 44
1.0
1001
ACAD
1000
MTEXTBEGIN
1070
    73
1070
     1
1070
    44
1040
1.0
1070
    74
1070
     0
1000
MTEXTEND
  0
POINT
  5
1627
330
1591
100
AcDbEntity
  8
DEFPOINTS
  6
Continuous
 62
     0
100
AcDbPoint
 10
1014.262066088468
 20
-106.1092653362792
 30
0.0
  0
POINT
  5
1628
330
1591
100
AcDbEntity
  8
DEFPOINTS
  6
Continuous
 62
     0
100
AcDbPoint
 10
947.2620660884681
 20
-202.1092653362791
 30
0.0
  0
POINT
  5
1629
330
1591
100
AcDbEntity
  8
DEFPOINTS
  6
Continuous
 62
     0
100
AcDbPoint
 10
1168.322210576233
 20
-202.1092653362792
 30
0.0
  0
ENDBLK
  5
1593
330
1591
100
AcDbEntity
  8
0
100
AcDbBlockEnd
  0
BLOCK
  5
159E
330
159D
100
AcDbEntity
  8
0
100
AcDbBlockBegin
  2
*D31
 70
     1
 10
0.0
 20
0.0
 30
0.0
  3
*D31
  1

  0
LINE
  5
165E
330
159D
100
AcDbEntity
  8
SIZE
  6
Continuous
 62
     0
370
    -2
100
AcDbLine
 10
258.4231468409086
 20
-220.8177605743744
 30
0.0
 11
258.4231468409086
 21
-340.1213355727364
 31
0.0
  0
LINE
  5
165F
330
159D
100
AcDbEntity
  8
SIZE
  6
Continuous
 62
     0
370
    -2
100
AcDbLine
 10
322.4231468409085
 20
-159.526408193422
 30
0.0
 11
322.4231468409085
 21
-340.1213355727364
 31
0.0
  0
LINE
  5
1660
330
159D
100
AcDbEntity
  8
SIZE
  6
Continuous
 62
     0
370
    -2
100
AcDbLine
 10
270.4231468409085
 20
-320.1213355727364
 30
0.0
 11
310.4231468409086
 21
-320.1213355727364
 31
0.0
  0
LINE
  5
1661
330
159D
100
AcDbEntity
  8
SIZE
  6
Continuous
 62
     0
370
    -2
100
AcDbLine
 10
322.4231468409085
 20
-320.1213355727364
 30
0.0
 11
450.4231468409082
 21
-320.1213355727364
 31
0.0
  0
INSERT
  5
1662
330
159D
100
AcDbEntity
  8
SIZE
  6
Continuous
 62
     0
370
    -2
100
AcDbBlockReference
  2
_DOTBLANK
 10
258.4231468409086
 20
-320.1213355727364
 30
0.0
 41
12.0
 42
12.0
 43
12.0
 50
180.0
  0
INSERT
  5
1663
330
159D
100
AcDbEntity
  8
SIZE
  6
Continuous
 62
     0
370
    -2
100
AcDbBlockReference
  2
_DOTBLANK
 10
322.4231468409085
 20
-320.1213355727364
 30
0.0
 41
12.0
 42
12.0
 43
12.0
  0
MTEXT
  5
1664
330
159D
100
AcDbEntity
  8
SIZE
  6
Continuous
 62
     0
100
AcDbMText
 10
392.4231468409087
 20
-278.1213355727364
 30
0.0
 40
64.0
 41
0.0
 71
     5
 72
     1
  1
\A1;64
 73
     1
 44
1.0
1001
ACAD
1000
MTEXTBEGIN
1070
    73
1070
     1
1070
    44
1040
1.0
1070
    74
1070
     0
1000
MTEXTEND
  0
POINT
  5
1665
330
159D
100
AcDbEntity
  8
DEFPOINTS
  6
Continuous
 62
     0
100
AcDbPoint
 10
258.4231468409086
 20
-200.8177605743743
 30
0.0
  0
POINT
  5
1666
330
159D
100
AcDbEntity
  8
DEFPOINTS
  6
Continuous
 62
     0
100
AcDbPoint
 10
322.4231468409085
 20
-139.5264081934221
 30
0.0
  0
POINT
  5
1667
330
159D
100
AcDbEntity
  8
DEFPOINTS
  6
Continuous
 62
     0
100
AcDbPoint
 10
322.4231468409085
 20
-320.1213355727364
 30
0.0
  0
ENDBLK
  5
159F
330
159D
100
AcDbEntity
  8
0
100
AcDbBlockEnd
  0
BLOCK
  5
15AB
330
15AA
100
AcDbEntity
  8
0
100
AcDbBlockBegin
  2
*D32
 70
     1
 10
0.0
 20
0.0
 30
0.0
  3
*D32
  1

  0
LINE
  5
1641
330
15AA
100
AcDbEntity
  8
SIZE
  6
Continuous
 62
     0
370
    -2
100
AcDbLine
 10
22.42314684090854
 20
-245.3385300403764
 30
0.0
 11
22.42314684090853
 21
-526.2188250094648
 31
0.0
  0
LINE
  5
1642
330
15AA
100
AcDbEntity
  8
SIZE
  6
Continuous
 62
     0
370
    -2
100
AcDbLine
 10
322.4231468409085
 20
-159.526408193422
 30
0.0
 11
322.4231468409085
 21
-526.2188250094648
 31
0.0
  0
LINE
  5
1643
330
15AA
100
AcDbEntity
  8
SIZE
  6
Continuous
 62
     0
370
    -2
100
AcDbLine
 10
34.42314684090853
 20
-506.2188250094648
 30
0.0
 11
310.4231468409086
 21
-506.2188250094648
 31
0.0
  0
INSERT
  5
1644
330
15AA
100
AcDbEntity
  8
SIZE
  6
Continuous
 62
     0
370
    -2
100
AcDbBlockReference
  2
_DOTBLANK
 10
22.42314684090853
 20
-506.2188250094648
 30
0.0
 41
12.0
 42
12.0
 43
12.0
 50
180.0
  0
INSERT
  5
1645
330
15AA
100
AcDbEntity
  8
SIZE
  6
Continuous
 62
     0
370
    -2
100
AcDbBlockReference
  2
_DOTBLANK
 10
322.4231468409085
 20
-506.2188250094648
 30
0.0
 41
12.0
 42
12.0
 43
12.0
  0
MTEXT
  5
1646
330
15AA
100
AcDbEntity
  8
SIZE
  6
Continuous
 62
     0
100
AcDbMText
 10
172.4231468409085
 20
-464.2188250094648
 30
0.0
 40
64.0
 41
0.0
 71
     5
 72
     1
  1
\A1;300
 73
     1
 44
1.0
1001
ACAD
1000
MTEXTBEGIN
1070
    73
1070
     1
1070
    44
1040
1.0
1070
    74
1070
     0
1000
MTEXTEND
  0
POINT
  5
1647
330
15AA
100
AcDbEntity
  8
DEFPOINTS
  6
Continuous
 62
     0
100
AcDbPoint
 10
22.42314684090854
 20
-225.3385300403764
 30
0.0
  0
POINT
  5
1648
330
15AA
100
AcDbEntity
  8
DEFPOINTS
  6
Continuous
 62
     0
100
AcDbPoint
 10
322.4231468409085
 20
-139.5264081934221
 30
0.0
  0
POINT
  5
1649
330
15AA
100
AcDbEntity
  8
DEFPOINTS
  6
Continuous
 62
     0
100
AcDbPoint
 10
322.4231468409085
 20
-506.2188250094648
 30
0.0
  0
ENDBLK
  5
15AC
330
15AA
100
AcDbEntity
  8
0
100
AcDbBlockEnd
  0
BLOCK
  5
15B7
330
15B6
100
AcDbEntity
  8
0
100
AcDbBlockBegin
  2
*D33
 70
     1
 10
0.0
 20
0.0
 30
0.0
  3
*D33
  1

  0
LINE
  5
1604
330
15B6
100
AcDbEntity
  8
SIZE
  6
Continuous
 62
     0
370
    -2
100
AcDbLine
 10
1042.262066088468
 20
-105.526408193422
 30
0.0
 11
1188.322210576233
 21
-105.5264081934221
 31
0.0
  0
LINE
  5
1605
330
15B6
100
AcDbEntity
  8
SIZE
  6
Continuous
 62
     0
370
    -2
100
AcDbLine
 10
1041.662066088468
 20
139.4735918065779
 30
0.0
 11
1188.322210576233
 21
139.4735918065779
 31
0.0
  0
LINE
  5
1606
330
15B6
100
AcDbEntity
  8
SIZE
  6
Continuous
 62
     0
370
    -2
100
AcDbLine
 10
1168.322210576233
 20
-93.52640819342212
 30
0.0
 11
1168.322210576233
 21
127.4735918065779
 31
0.0
  0
INSERT
  5
1607
330
15B6
100
AcDbEntity
  8
SIZE
  6
Continuous
 62
     0
370
    -2
100
AcDbBlockReference
  2
_DOTBLANK
 10
1168.322210576233
 20
-105.5264081934221
 30
0.0
 41
12.0
 42
12.0
 43
12.0
 50
270.0
  0
INSERT
  5
1608
330
15B6
100
AcDbEntity
  8
SIZE
  6
Continuous
 62
     0
370
    -2
100
AcDbBlockReference
  2
_DOTBLANK
 10
1168.322210576233
 20
139.4735918065779
 30
0.0
 41
12.0
 42
12.0
 43
12.0
 50
90.0
  0
MTEXT
  5
1609
330
15B6
100
AcDbEntity
  8
SIZE
  6
Continuous
 62
     0
100
AcDbMText
 10
1126.322210576233
 20
16.97359180657808
 30
0.0
 40
64.0
 41
0.0
 71
     5
 72
     1
  1
\A1;□245
 11
0.0000000000000001
 21
1.0
 31
0.0
 73
     1
 44
1.0
1001
ACAD
1000
MTEXTBEGIN
1070
    73
1070
     1
1070
    44
1040
1.0
1070
    74
1070
     0
1000
MTEXTEND
  0
POINT
  5
160A
330
15B6
100
AcDbEntity
  8
DEFPOINTS
  6
Continuous
 62
     0
100
AcDbPoint
 10
1022.262066088468
 20
-105.526408193422
 30
0.0
  0
POINT
  5
160B
330
15B6
100
AcDbEntity
  8
DEFPOINTS
  6
Continuous
 62
     0
100
AcDbPoint
 10
1021.662066088468
 20
139.4735918065779
 30
0.0
  0
POINT
  5
160C
330
15B6
100
AcDbEntity
  8
DEFPOINTS
  6
Continuous
 62
     0
100
AcDbPoint
 10
1168.322210576233
 20
139.4735918065779
 30
0.0
  0
ENDBLK
  5
15B8
330
15B6
100
AcDbEntity
  8
0
100
AcDbBlockEnd
  0
BLOCK
  5
1636
330
1635
100
AcDbEntity
  8
0
100
AcDbBlockBegin
  2
*D34
 70
     1
 10
0.0
 20
0.0
 30
0.0
  3
*D34
  1

  0
LINE
  5
1668
330
1635
100
AcDbEntity
  8
SIZE
  6
Continuous
 62
     0
370
    -2
100
AcDbLine
 10
354.8876296431024
 20
157.9735918065779
 30
0.0
 11
563.6350552189745
 21
157.9735918065779
 31
0.0
  0
LINE
  5
1669
330
1635
100
AcDbEntity
  8
SIZE
  6
Continuous
 62
     0
370
    -2
100
AcDbLine
 10
354.8876296431024
 20
-122.0264081934221
 30
0.0
 11
563.6350552189745
 21
-122.0264081934221
 31
0.0
  0
LINE
  5
166A
330
1635
100
AcDbEntity
  8
SIZE
  6
Continuous
 62
     0
370
    -2
100
AcDbLine
 10
543.6350552189745
 20
145.9735918065779
 30
0.0
 11
543.6350552189745
 21
-110.0264081934221
 31
0.0
  0
INSERT
  5
166B
330
1635
100
AcDbEntity
  8
SIZE
  6
Continuous
 62
     0
370
    -2
100
AcDbBlockReference
  2
_DOTBLANK
 10
543.6350552189745
 20
157.9735918065779
 30
0.0
 41
12.0
 42
12.0
 43
12.0
 50
90.0
  0
INSERT
  5
166C
330
1635
100
AcDbEntity
  8
SIZE
  6
Continuous
 62
     0
370
    -2
100
AcDbBlockReference
  2
_DOTBLANK
 10
543.6350552189745
 20
-122.0264081934221
 30
0.0
 41
12.0
 42
12.0
 43
12.0
 50
270.0
  0
MTEXT
  5
166D
330
1635
100
AcDbEntity
  8
SIZE
  6
Continuous
 62
     0
100
AcDbMText
 10
501.6350552189745
 20
17.97359180657797
 30
0.0
 40
64.0
 41
0.0
 71
     5
 72
     1
  1
\A1;280
 11
0.0000000000000001
 21
1.0
 31
0.0
 73
     1
 44
1.0
1001
ACAD
1000
MTEXTBEGIN
1070
    73
1070
     1
1070
    44
1040
1.0
1070
    74
1070
     0
1000
MTEXTEND
  0
POINT
  5
166E
330
1635
100
AcDbEntity
  8
DEFPOINTS
  6
Continuous
 62
     0
100
AcDbPoint
 10
334.8876296431023
 20
157.9735918065779
 30
0.0
  0
POINT
  5
166F
330
1635
100
AcDbEntity
  8
DEFPOINTS
  6
Continuous
 62
     0
100
AcDbPoint
 10
334.8876296431023
 20
-122.026408193422
 30
0.0
  0
POINT
  5
1670
330
1635
100
AcDbEntity
  8
DEFPOINTS
  6
Continuous
 62
     0
100
AcDbPoint
 10
543.6350552189745
 20
-122.0264081934221
 30
0.0
  0
ENDBLK
  5
1637
330
1635
100
AcDbEntity
  8
0
100
AcDbBlockEnd
  0
BLOCK
  5
1684
330
1683
100
AcDbEntity
  8
0
100
AcDbBlockBegin
  2
*D35
 70
     1
 10
0.0
 20
0.0
 30
0.0
  3
*D35
  1

  0
LINE
  5
1691
330
1683
100
AcDbEntity
  8
SIZE
  6
Continuous
 62
     0
370
    -2
100
AcDbLine
 10
314.4231468409085
 20
195.4735918065779
 30
0.0
 11
314.4231468409085
 21
277.8342040107263
 31
0.0
  0
LINE
  5
1692
330
1683
100
AcDbEntity
  8
SIZE
  6
Continuous
 62
     0
370
    -2
100
AcDbLine
 10
322.4231468409085
 20
195.4735918065779
 30
0.0
 11
322.4231468409085
 21
277.8342040107263
 31
0.0
  0
LINE
  5
1693
330
1683
100
AcDbEntity
  8
SIZE
  6
Continuous
 62
     0
370
    -2
100
AcDbLine
 10
302.4231468409085
 20
257.8342040107263
 30
0.0
 11
290.4231468409085
 21
257.8342040107263
 31
0.0
  0
LINE
  5
1694
330
1683
100
AcDbEntity
  8
SIZE
  6
Continuous
 62
     0
370
    -2
100
AcDbLine
 10
334.4231468409085
 20
257.8342040107263
 30
0.0
 11
421.7866098457093
 21
257.8342040107263
 31
0.0
  0
LINE
  5
1695
330
1683
100
AcDbEntity
  8
SIZE
  6
Continuous
 62
     0
370
    -2
100
AcDbLine
 10
314.4231468409085
 20
257.8342040107263
 30
0.0
 11
322.4231468409085
 21
257.8342040107263
 31
0.0
  0
INSERT
  5
1696
330
1683
100
AcDbEntity
  8
SIZE
  6
Continuous
 62
     0
370
    -2
100
AcDbBlockReference
  2
_DOTBLANK
 10
314.4231468409085
 20
257.8342040107263
 30
0.0
 41
12.0
 42
12.0
 43
12.0
  0
INSERT
  5
1697
330
1683
100
AcDbEntity
  8
SIZE
  6
Continuous
 62
     0
370
    -2
100
AcDbBlockReference
  2
_DOTBLANK
 10
322.4231468409085
 20
257.8342040107263
 30
0.0
 41
12.0
 42
12.0
 43
12.0
 50
180.0
  0
MTEXT
  5
1698
330
1683
100
AcDbEntity
  8
SIZE
  6
Continuous
 62
     0
100
AcDbMText
 10
392.5866098457094
 20
299.8342040107263
 30
0.0
 40
64.0
 41
0.0
 71
     5
 72
     1
  1
\A1;8
 73
     1
 44
1.0
1001
ACAD
1000
MTEXTBEGIN
1070
    73
1070
     1
1070
    44
1040
1.0
1070
    74
1070
     0
1000
MTEXTEND
  0
POINT
  5
1699
330
1683
100
AcDbEntity
  8
DEFPOINTS
  6
Continuous
 62
     0
100
AcDbPoint
 10
314.4231468409085
 20
175.4735918065779
 30
0.0
  0
POINT
  5
169A
330
1683
100
AcDbEntity
  8
DEFPOINTS
  6
Continuous
 62
     0
100
AcDbPoint
 10
322.4231468409085
 20
175.4735918065779
 30
0.0
  0
POINT
  5
169B
330
1683
100
AcDbEntity
  8
DEFPOINTS
  6
Continuous
 62
     0
100
AcDbPoint
 10
322.4231468409085
 20
257.8342040107263
 30
0.0
  0
ENDBLK
  5
1685
330
1683
100
AcDbEntity
  8
0
100
AcDbBlockEnd
  0
BLOCK
  5
178D
330
178C
100
AcDbEntity
  8
0
100
AcDbBlockBegin
  2
*D36
 70
     1
 10
0.0
 20
0.0
 30
0.0
  3
*D36
  1

  0
LINE
  5
178E
330
178C
100
AcDbEntity
  8
SIZE
 62
     0
370
    -2
100
AcDbLine
 10
-43020.93316628215
 20
2772.518320496485
 30
0.0
 11
-42894.13813754152
 21
2772.518320496485
 31
0.0
  0
LINE
  5
178F
330
178C
100
AcDbEntity
  8
SIZE
 62
     0
370
    -2
100
AcDbLine
 10
-43022.2228649903
 20
2487.518320496485
 30
0.0
 11
-42894.13813754152
 21
2487.518320496485
 31
0.0
  0
LINE
  5
1790
330
178C
100
AcDbEntity
  8
SIZE
 62
     0
370
    -2
100
AcDbLine
 10
-42914.13813754152
 20
2760.518320496486
 30
0.0
 11
-42914.13813754152
 21
2499.518320496485
 31
0.0
  0
INSERT
  5
1791
330
178C
100
AcDbEntity
  8
SIZE
 62
     0
370
    -2
100
AcDbBlockReference
  2
_DOTBLANK
 10
-42914.13813754152
 20
2772.518320496485
 30
0.0
 41
12.0
 42
12.0
 43
12.0
 50
90.0
  0
INSERT
  5
1792
330
178C
100
AcDbEntity
  8
SIZE
 62
     0
370
    -2
100
AcDbBlockReference
  2
_DOTBLANK
 10
-42914.13813754152
 20
2487.518320496485
 30
0.0
 41
12.0
 42
12.0
 43
12.0
 50
270.0
  0
MTEXT
  5
1793
330
178C
100
AcDbEntity
  8
SIZE
 62
     0
100
AcDbMText
 10
-42956.13813754152
 20
2630.018320496478
 30
0.0
 40
64.0
 41
0.0
 71
     5
 72
     1
  1
\A1;285
 11
0.0000000000000001
 21
1.0
 31
0.0
 73
     1
 44
1.0
1001
ACAD
1000
MTEXTBEGIN
1070
    73
1070
     1
1070
    44
1040
1.0
1070
    74
1070
     0
1000
MTEXTEND
  0
POINT
  5
1794
330
178C
100
AcDbEntity
  8
DEFPOINTS
 62
     0
100
AcDbPoint
 10
-43040.93316628215
 20
2772.518320496485
 30
0.0
  0
POINT
  5
1795
330
178C
100
AcDbEntity
  8
DEFPOINTS
 62
     0
100
AcDbPoint
 10
-43042.2228649903
 20
2487.518320496485
 30
0.0
  0
POINT
  5
1796
330
178C
100
AcDbEntity
  8
DEFPOINTS
 62
     0
100
AcDbPoint
 10
-42914.13813754152
 20
2487.518320496485
 30
0.0
  0
ENDBLK
  5
1797
330
178C
100
AcDbEntity
  8
0
100
AcDbBlockEnd
  0
BLOCK
  5
1799
330
1798
100
AcDbEntity
  8
0
100
AcDbBlockBegin
  2
*D37
 70
     1
 10
0.0
 20
0.0
 30
0.0
  3
*D37
  1

  0
LINE
  5
179A
330
1798
100
AcDbEntity
  8
SIZE
 62
     0
370
    -2
100
AcDbLine
 10
-43022.2228649903
 20
2487.518320496485
 30
0.0
 11
-42894.13813754152
 21
2487.518320496485
 31
0.0
  0
LINE
  5
179B
330
1798
100
AcDbEntity
  8
SIZE
 62
     0
370
    -2
100
AcDbLine
 10
-43022.2228649903
 20
2202.518320496485
 30
0.0
 11
-42894.13813754152
 21
2202.518320496485
 31
0.0
  0
LINE
  5
179C
330
1798
100
AcDbEntity
  8
SIZE
 62
     0
370
    -2
100
AcDbLine
 10
-42914.13813754152
 20
2475.518320496485
 30
0.0
 11
-42914.13813754152
 21
2214.518320496485
 31
0.0
  0
INSERT
  5
179D
330
1798
100
AcDbEntity
  8
SIZE
 62
     0
370
    -2
100
AcDbBlockReference
  2
_DOTBLANK
 10
-42914.13813754152
 20
2487.518320496485
 30
0.0
 41
12.0
 42
12.0
 43
12.0
 50
90.0
  0
INSERT
  5
179E
330
1798
100
AcDbEntity
  8
SIZE
 62
     0
370
    -2
100
AcDbBlockReference
  2
_DOTBLANK
 10
-42914.13813754152
 20
2202.518320496485
 30
0.0
 41
12.0
 42
12.0
 43
12.0
 50
270.0
  0
MTEXT
  5
179F
330
1798
100
AcDbEntity
  8
SIZE
 62
     0
100
AcDbMText
 10
-42956.13813754152
 20
2345.018320496478
 30
0.0
 40
64.0
 41
0.0
 71
     5
 72
     1
  1
\A1;285
 11
0.0000000000000001
 21
1.0
 31
0.0
 73
     1
 44
1.0
1001
ACAD
1000
MTEXTBEGIN
1070
    73
1070
     1
1070
    44
1040
1.0
1070
    74
1070
     0
1000
MTEXTEND
  0
POINT
  5
17A0
330
1798
100
AcDbEntity
  8
DEFPOINTS
 62
     0
100
AcDbPoint
 10
-43042.2228649903
 20
2487.518320496485
 30
0.0
  0
POINT
  5
17A1
330
1798
100
AcDbEntity
  8
DEFPOINTS
 62
     0
100
AcDbPoint
 10
-43042.2228649903
 20
2202.518320496485
 30
0.0
  0
POINT
  5
17A2
330
1798
100
AcDbEntity
  8
DEFPOINTS
 62
     0
100
AcDbPoint
 10
-42914.13813754152
 20
2202.518320496485
 30
0.0
  0
ENDBLK
  5
17A3
330
1798
100
AcDbEntity
  8
0
100
AcDbBlockEnd
  0
BLOCK
  5
17A5
330
17A4
100
AcDbEntity
  8
0
100
AcDbBlockBegin
  2
*D38
 70
     1
 10
0.0
 20
0.0
 30
0.0
  3
*D38
  1

  0
LINE
  5
17A6
330
17A4
100
AcDbEntity
  8
SIZE
 62
     0
370
    -2
100
AcDbLine
 10
-43023.02286499029
 20
2177.518320496485
 30
0.0
 11
-42767.16763666193
 21
2177.518320496485
 31
0.0
  0
LINE
  5
17A7
330
17A4
100
AcDbEntity
  8
SIZE
 62
     0
370
    -2
100
AcDbLine
 10
-43023.02286499029
 20
2798.318320496484
 30
0.0
 11
-42767.16763666193
 21
2798.318320496484
 31
0.0
  0
LINE
  5
17A8
330
17A4
100
AcDbEntity
  8
SIZE
 62
     0
370
    -2
100
AcDbLine
 10
-42787.16763666193
 20
2189.518320496485
 30
0.0
 11
-42787.16763666193
 21
2786.318320496484
 31
0.0
  0
INSERT
  5
17A9
330
17A4
100
AcDbEntity
  8
SIZE
 62
     0
370
    -2
100
AcDbBlockReference
  2
_DOTBLANK
 10
-42787.16763666193
 20
2177.518320496485
 30
0.0
 41
12.0
 42
12.0
 43
12.0
 50
270.0
  0
INSERT
  5
17AA
330
17A4
100
AcDbEntity
  8
SIZE
 62
     0
370
    -2
100
AcDbBlockReference
  2
_DOTBLANK
 10
-42787.16763666193
 20
2798.318320496484
 30
0.0
 41
12.0
 42
12.0
 43
12.0
 50
90.0
  0
MTEXT
  5
17AB
330
17A4
100
AcDbEntity
  8
SIZE
 62
     0
100
AcDbMText
 10
-42829.16763666193
 20
2487.918320496478
 30
0.0
 40
64.0
 41
0.0
 71
     5
 72
     1
  1
\A1;621
 11
0.0000000000000001
 21
1.0
 31
0.0
 73
     1
 44
1.0
1001
ACAD
1000
MTEXTBEGIN
1070
    73
1070
     1
1070
    44
1040
1.0
1070
    74
1070
     0
1000
MTEXTEND
  0
POINT
  5
17AC
330
17A4
100
AcDbEntity
  8
DEFPOINTS
 62
     0
100
AcDbPoint
 10
-43043.0228649903
 20
2177.518320496485
 30
0.0
  0
POINT
  5
17AD
330
17A4
100
AcDbEntity
  8
DEFPOINTS
 62
     0
100
AcDbPoint
 10
-43043.0228649903
 20
2798.318320496484
 30
0.0
  0
POINT
  5
17AE
330
17A4
100
AcDbEntity
  8
DEFPOINTS
 62
     0
100
AcDbPoint
 10
-42787.16763666193
 20
2798.318320496484
 30
0.0
  0
ENDBLK
  5
17AF
330
17A4
100
AcDbEntity
  8
0
100
AcDbBlockEnd
  0
BLOCK
  5
17B1
330
17B0
100
AcDbEntity
  8
0
100
AcDbBlockBegin
  2
*D39
 70
     1
 10
0.0
 20
0.0
 30
0.0
  3
*D39
  1

  0
LINE
  5
17B2
330
17B0
100
AcDbEntity
  8
SIZE
 62
     0
370
    -2
100
AcDbLine
 10
-43043.0228649903
 20
2818.318320496485
 30
0.0
 11
-43043.0228649903
 21
2879.270258274911
 31
0.0
  0
LINE
  5
17B3
330
17B0
100
AcDbEntity
  8
SIZE
 62
     0
370
    -2
100
AcDbLine
 10
-43349.14264871467
 20
2533.604300671286
 30
0.0
 11
-43349.14264871467
 21
2879.270258274911
 31
0.0
  0
LINE
  5
17B4
330
17B0
100
AcDbEntity
  8
SIZE
 62
     0
370
    -2
100
AcDbLine
 10
-43055.0228649903
 20
2859.27025827491
 30
0.0
 11
-43337.14264871466
 21
2859.27025827491
 31
0.0
  0
INSERT
  5
17B5
330
17B0
100
AcDbEntity
  8
SIZE
 62
     0
370
    -2
100
AcDbBlockReference
  2
_DOTBLANK
 10
-43043.0228649903
 20
2859.27025827491
 30
0.0
 41
12.0
 42
12.0
 43
12.0
  0
INSERT
  5
17B6
330
17B0
100
AcDbEntity
  8
SIZE
 62
     0
370
    -2
100
AcDbBlockReference
  2
_DOTBLANK
 10
-43349.14264871467
 20
2859.27025827491
 30
0.0
 41
12.0
 42
12.0
 43
12.0
 50
180.0
  0
MTEXT
  5
17B7
330
17B0
100
AcDbEntity
  8
SIZE
 62
     0
100
AcDbMText
 10
-43196.08275685248
 20
2901.270258274911
 30
0.0
 40
64.0
 41
0.0
 71
     5
 72
     1
  1
\A1;306
 73
     1
 44
1.0
1001
ACAD
1000
MTEXTBEGIN
1070
    73
1070
     1
1070
    44
1040
1.0
1070
    74
1070
     0
1000
MTEXTEND
  0
POINT
  5
17B8
330
17B0
100
AcDbEntity
  8
DEFPOINTS
 62
     0
100
AcDbPoint
 10
-43043.0228649903
 20
2798.318320496484
 30
0.0
  0
POINT
  5
17B9
330
17B0
100
AcDbEntity
  8
DEFPOINTS
 62
     0
100
AcDbPoint
 10
-43349.14264871467
 20
2513.604300671286
 30
0.0
  0
POINT
  5
17BA
330
17B0
100
AcDbEntity
  8
DEFPOINTS
 62
     0
100
AcDbPoint
 10
-43349.14264871467
 20
2859.27025827491
 30
0.0
  0
ENDBLK
  5
17BB
330
17B0
100
AcDbEntity
  8
0
100
AcDbBlockEnd
  0
BLOCK
  5
1848
330
1847
100
AcDbEntity
  8
0
100
AcDbBlockBegin
  2
*D40
 70
     1
 10
0.0
 20
0.0
 30
0.0
  3
*D40
  1

  0
LINE
  5
1877
330
1847
100
AcDbEntity
  8
SIZE
 62
     0
370
    -2
100
AcDbLine
 10
22.08969870815054
 20
284.9999999999996
 30
0.0
 11
148.884727448778
 21
284.9999999999995
 31
0.0
  0
LINE
  5
1878
330
1847
100
AcDbEntity
  8
SIZE
 62
     0
370
    -2
100
AcDbLine
 10
20.79999999999563
 20
-0.0000000000004604
 30
0.0
 11
148.884727448778
 21
-0.0000000000004967
 31
0.0
  0
LINE
  5
1879
330
1847
100
AcDbEntity
  8
SIZE
 62
     0
370
    -2
100
AcDbLine
 10
128.884727448778
 20
272.9999999999995
 30
0.0
 11
128.884727448778
 21
11.99999999999951
 31
0.0
  0
INSERT
  5
187A
330
1847
100
AcDbEntity
  8
SIZE
 62
     0
370
    -2
100
AcDbBlockReference
  2
_DOTBLANK
 10
128.884727448778
 20
284.9999999999995
 30
0.0
 41
12.0
 42
12.0
 43
12.0
 50
90.0
  0
INSERT
  5
187B
330
1847
100
AcDbEntity
  8
SIZE
 62
     0
370
    -2
100
AcDbBlockReference
  2
_DOTBLANK
 10
128.884727448778
 20
-0.000000000000491
 30
0.0
 41
12.0
 42
12.0
 43
12.0
 50
270.0
  0
MTEXT
  5
187C
330
1847
100
AcDbEntity
  8
SIZE
 62
     0
100
AcDbMText
 10
86.88472744877802
 20
142.4999999999995
 30
0.0
 40
64.0
 41
0.0
 71
     5
 72
     1
  1
\A1;285
 11
0.0000000000000001
 21
1.0
 31
0.0
 73
     1
 44
1.0
1001
ACAD
1000
MTEXTBEGIN
1070
    73
1070
     1
1070
    44
1040
1.0
1070
    74
1070
     0
1000
MTEXTEND
  0
POINT
  5
187D
330
1847
100
AcDbEntity
  8
DEFPOINTS
 62
     0
100
AcDbPoint
 10
2.089698708150534
 20
284.9999999999996
 30
0.0
  0
POINT
  5
187E
330
1847
100
AcDbEntity
  8
DEFPOINTS
 62
     0
100
AcDbPoint
 10
0.7999999999956346
 20
-0.0000000000004547
 30
0.0
  0
POINT
  5
187F
330
1847
100
AcDbEntity
  8
DEFPOINTS
 62
     0
100
AcDbPoint
 10
128.884727448778
 20
-0.000000000000491
 30
0.0
  0
ENDBLK
  5
1849
330
1847
100
AcDbEntity
  8
0
100
AcDbBlockEnd
  0
BLOCK
  5
1854
330
1853
100
AcDbEntity
  8
0
100
AcDbBlockBegin
  2
*D41
 70
     1
 10
0.0
 20
0.0
 30
0.0
  3
*D41
  1

  0
LINE
  5
1880
330
1853
100
AcDbEntity
  8
SIZE
 62
     0
370
    -2
100
AcDbLine
 10
20.79999999999563
 20
-0.0000000000004604
 30
0.0
 11
148.884727448778
 21
-0.0000000000004967
 31
0.0
  0
LINE
  5
1881
330
1853
100
AcDbEntity
  8
SIZE
 62
     0
370
    -2
100
AcDbLine
 10
20.79999999999563
 20
-285.0000000000004
 30
0.0
 11
148.884727448778
 21
-285.0000000000005
 31
0.0
  0
LINE
  5
1882
330
1853
100
AcDbEntity
  8
SIZE
 62
     0
370
    -2
100
AcDbLine
 10
128.884727448778
 20
-12.00000000000049
 30
0.0
 11
128.884727448778
 21
-273.0000000000005
 31
0.0
  0
INSERT
  5
1883
330
1853
100
AcDbEntity
  8
SIZE
 62
     0
370
    -2
100
AcDbBlockReference
  2
_DOTBLANK
 10
128.884727448778
 20
-0.000000000000491
 30
0.0
 41
12.0
 42
12.0
 43
12.0
 50
90.0
  0
INSERT
  5
1884
330
1853
100
AcDbEntity
  8
SIZE
 62
     0
370
    -2
100
AcDbBlockReference
  2
_DOTBLANK
 10
128.884727448778
 20
-285.0000000000005
 30
0.0
 41
12.0
 42
12.0
 43
12.0
 50
270.0
  0
MTEXT
  5
1885
330
1853
100
AcDbEntity
  8
SIZE
 62
     0
100
AcDbMText
 10
86.88472744877804
 20
-142.5000000000004
 30
0.0
 40
64.0
 41
0.0
 71
     5
 72
     1
  1
\A1;285
 11
0.0000000000000001
 21
1.0
 31
0.0
 73
     1
 44
1.0
1001
ACAD
1000
MTEXTBEGIN
1070
    73
1070
     1
1070
    44
1040
1.0
1070
    74
1070
     0
1000
MTEXTEND
  0
POINT
  5
1886
330
1853
100
AcDbEntity
  8
DEFPOINTS
 62
     0
100
AcDbPoint
 10
0.7999999999956346
 20
-0.0000000000004547
 30
0.0
  0
POINT
  5
1887
330
1853
100
AcDbEntity
  8
DEFPOINTS
 62
     0
100
AcDbPoint
 10
0.7999999999956346
 20
-285.0000000000004
 30
0.0
  0
POINT
  5
1888
330
1853
100
AcDbEntity
  8
DEFPOINTS
 62
     0
100
AcDbPoint
 10
128.884727448778
 20
-285.0000000000005
 30
0.0
  0
ENDBLK
  5
1855
330
1853
100
AcDbEntity
  8
0
100
AcDbBlockEnd
  0
BLOCK
  5
1860
330
185F
100
AcDbEntity
  8
0
100
AcDbBlockBegin
  2
*D42
 70
     1
 10
0.0
 20
0.0
 30
0.0
  3
*D42
  1

  0
LINE
  5
1889
330
185F
100
AcDbEntity
  8
SIZE
 62
     0
370
    -2
100
AcDbLine
 10
20.0
 20
-310.0000000000004
 30
0.0
 11
275.8552283283643
 21
-310.0000000000005
 31
0.0
  0
LINE
  5
188A
330
185F
100
AcDbEntity
  8
SIZE
 62
     0
370
    -2
100
AcDbLine
 10
20.0
 20
310.7999999999993
 30
0.0
 11
275.8552283283644
 21
310.7999999999992
 31
0.0
  0
LINE
  5
188B
330
185F
100
AcDbEntity
  8
SIZE
 62
     0
370
    -2
100
AcDbLine
 10
255.8552283283642
 20
-298.0000000000005
 30
0.0
 11
255.8552283283644
 21
298.7999999999992
 31
0.0
  0
INSERT
  5
188C
330
185F
100
AcDbEntity
  8
SIZE
 62
     0
370
    -2
100
AcDbBlockReference
  2
_DOTBLANK
 10
255.8552283283642
 20
-310.0000000000005
 30
0.0
 41
12.0
 42
12.0
 43
12.0
 50
270.0
  0
INSERT
  5
188D
330
185F
100
AcDbEntity
  8
SIZE
 62
     0
370
    -2
100
AcDbBlockReference
  2
_DOTBLANK
 10
255.8552283283644
 20
310.7999999999992
 30
0.0
 41
12.0
 42
12.0
 43
12.0
 50
90.0
  0
MTEXT
  5
188E
330
185F
100
AcDbEntity
  8
SIZE
 62
     0
100
AcDbMText
 10
213.8552283283643
 20
0.3999999999928201
 30
0.0
 40
64.0
 41
0.0
 71
     5
 72
     1
  1
\A1;621
 11
0.0000000000000001
 21
1.0
 31
0.0
 73
     1
 44
1.0
1001
ACAD
1000
MTEXTBEGIN
1070
    73
1070
     1
1070
    44
1040
1.0
1070
    74
1070
     0
1000
MTEXTEND
  0
POINT
  5
188F
330
185F
100
AcDbEntity
  8
DEFPOINTS
 62
     0
100
AcDbPoint
 10
0.0
 20
-310.0000000000004
 30
0.0
  0
POINT
  5
1890
330
185F
100
AcDbEntity
  8
DEFPOINTS
 62
     0
100
AcDbPoint
 10
0.0
 20
310.7999999999993
 30
0.0
  0
POINT
  5
1891
330
185F
100
AcDbEntity
  8
DEFPOINTS
 62
     0
100
AcDbPoint
 10
255.8552283283644
 20
310.7999999999992
 30
0.0
  0
ENDBLK
  5
1861
330
185F
100
AcDbEntity
  8
0
100
AcDbBlockEnd
  0
BLOCK
  5
186C
330
186B
100
AcDbEntity
  8
0
100
AcDbBlockBegin
  2
*D43
 70
     1
 10
0.0
 20
0.0
 30
0.0
  3
*D43
  1

  0
LINE
  5
1892
330
186B
100
AcDbEntity
  8
SIZE
 62
     0
370
    -2
100
AcDbLine
 10
0.0000000000000012
 20
330.7999999999993
 30
0.0
 11
0.000000000000005
 21
391.7519377784247
 31
0.0
  0
LINE
  5
1893
330
186B
100
AcDbEntity
  8
SIZE
 62
     0
370
    -2
100
AcDbLine
 10
-306.1197837243672
 20
46.08598017480018
 30
0.0
 11
-306.1197837243672
 21
391.7519377784247
 31
0.0
  0
LINE
  5
1894
330
186B
100
AcDbEntity
  8
SIZE
 62
     0
370
    -2
100
AcDbLine
 10
-11.99999999999999
 20
371.7519377784247
 30
0.0
 11
-294.1197837243672
 21
371.7519377784247
 31
0.0
  0
INSERT
  5
1895
330
186B
100
AcDbEntity
  8
SIZE
 62
     0
370
    -2
100
AcDbBlockReference
  2
_DOTBLANK
 10
0.0000000000000037
 20
371.7519377784247
 30
0.0
 41
12.0
 42
12.0
 43
12.0
  0
INSERT
  5
1896
330
186B
100
AcDbEntity
  8
SIZE
 62
     0
370
    -2
100
AcDbBlockReference
  2
_DOTBLANK
 10
-306.1197837243672
 20
371.7519377784247
 30
0.0
 41
12.0
 42
12.0
 43
12.0
 50
180.0
  0
MTEXT
  5
1897
330
186B
100
AcDbEntity
  8
SIZE
 62
     0
100
AcDbMText
 10
-153.0598918621836
 20
413.7519377784246
 30
0.0
 40
64.0
 41
0.0
 71
     5
 72
     1
  1
\A1;306
 73
     1
 44
1.0
1001
ACAD
1000
MTEXTBEGIN
1070
    73
1070
     1
1070
    44
1040
1.0
1070
    74
1070
     0
1000
MTEXTEND
  0
POINT
  5
1898
330
186B
100
AcDbEntity
  8
DEFPOINTS
 62
     0
100
AcDbPoint
 10
0.0
 20
310.7999999999993
 30
0.0
  0
POINT
  5
1899
330
186B
100
AcDbEntity
  8
DEFPOINTS
 62
     0
100
AcDbPoint
 10
-306.1197837243672
 20
26.08598017480018
 30
0.0
  0
POINT
  5
189A
330
186B
100
AcDbEntity
  8
DEFPOINTS
 62
     0
100
AcDbPoint
 10
-306.1197837243672
 20
371.7519377784247
 30
0.0
  0
ENDBLK
  5
186D
330
186B
100
AcDbEntity
  8
0
100
AcDbBlockEnd
  0
BLOCK
  5
1991
330
1990
100
AcDbEntity
  8
0
100
AcDbBlockBegin
  2
*D44
 70
     1
 10
0.0
 20
0.0
 30
0.0
  3
*D44
  1

  0
LINE
  5
1992
330
1990
100
AcDbEntity
  8
SIZE
  6
Continuous
 62
     0
370
    -2
100
AcDbLine
 10
-44668.29220410462
 20
1975.778516105435
 30
0.0
 11
-44459.35897446195
 21
1975.778516105435
 31
0.0
  0
LINE
  5
1993
330
1990
100
AcDbEntity
  8
SIZE
  6
Continuous
 62
     0
370
    -2
100
AcDbLine
 10
-44668.29220410462
 20
1567.778516105436
 30
0.0
 11
-44459.35897446195
 21
1567.778516105435
 31
0.0
  0
LINE
  5
1994
330
1990
100
AcDbEntity
  8
SIZE
  6
Continuous
 62
     0
370
    -2
100
AcDbLine
 10
-44479.35897446196
 20
1963.778516105436
 30
0.0
 11
-44479.35897446196
 21
1579.778516105435
 31
0.0
  0
INSERT
  5
1995
330
1990
100
AcDbEntity
  8
SIZE
  6
Continuous
 62
     0
370
    -2
100
AcDbBlockReference
  2
_DOTBLANK
 10
-44479.35897446196
 20
1975.778516105435
 30
0.0
 41
12.0
 42
12.0
 43
12.0
 50
90.0
  0
INSERT
  5
1996
330
1990
100
AcDbEntity
  8
SIZE
  6
Continuous
 62
     0
370
    -2
100
AcDbBlockReference
  2
_DOTBLANK
 10
-44479.35897446196
 20
1567.778516105435
 30
0.0
 41
12.0
 42
12.0
 43
12.0
 50
270.0
  0
MTEXT
  5
1997
330
1990
100
AcDbEntity
  8
SIZE
  6
Continuous
 62
     0
100
AcDbMText
 10
-44521.35897446196
 20
1771.778516105428
 30
0.0
 40
64.0
 41
0.0
 71
     5
 72
     1
  1
\A1;408
 11
0.0000000000000001
 21
1.0
 31
0.0
 73
     1
 44
1.0
1001
ACAD
1000
MTEXTBEGIN
1070
    73
1070
     1
1070
    44
1040
1.0
1070
    74
1070
     0
1000
MTEXTEND
  0
POINT
  5
1998
330
1990
100
AcDbEntity
  8
DEFPOINTS
  6
Continuous
 62
     0
100
AcDbPoint
 10
-44688.29220410465
 20
1975.778516105435
 30
0.0
  0
POINT
  5
1999
330
1990
100
AcDbEntity
  8
DEFPOINTS
  6
Continuous
 62
     0
100
AcDbPoint
 10
-44688.29220410465
 20
1567.778516105436
 30
0.0
  0
POINT
  5
199A
330
1990
100
AcDbEntity
  8
DEFPOINTS
  6
Continuous
 62
     0
100
AcDbPoint
 10
-44479.35897446196
 20
1567.778516105435
 30
0.0
  0
ENDBLK
  5
199B
330
1990
100
AcDbEntity
  8
0
100
AcDbBlockEnd
  0
BLOCK
  5
199D
330
199C
100
AcDbEntity
  8
0
100
AcDbBlockBegin
  2
*D45
 70
     1
 10
0.0
 20
0.0
 30
0.0
  3
*D45
  1

  0
LINE
  5
199E
330
199C
100
AcDbEntity
  8
SIZE
  6
Continuous
 62
     0
370
    -2
100
AcDbLine
 10
-44668.29220410462
 20
1567.778516105436
 30
0.0
 11
-44459.35897446195
 21
1567.778516105435
 31
0.0
  0
LINE
  5
199F
330
199C
100
AcDbEntity
  8
SIZE
  6
Continuous
 62
     0
370
    -2
100
AcDbLine
 10
-44668.29220410462
 20
1037.378516105436
 30
0.0
 11
-44459.35897446195
 21
1037.378516105436
 31
0.0
  0
LINE
  5
19A0
330
199C
100
AcDbEntity
  8
SIZE
  6
Continuous
 62
     0
370
    -2
100
AcDbLine
 10
-44479.35897446196
 20
1555.778516105436
 30
0.0
 11
-44479.35897446196
 21
1049.378516105435
 31
0.0
  0
INSERT
  5
19A1
330
199C
100
AcDbEntity
  8
SIZE
  6
Continuous
 62
     0
370
    -2
100
AcDbBlockReference
  2
_DOTBLANK
 10
-44479.35897446196
 20
1567.778516105435
 30
0.0
 41
12.0
 42
12.0
 43
12.0
 50
90.0
  0
INSERT
  5
19A2
330
199C
100
AcDbEntity
  8
SIZE
  6
Continuous
 62
     0
370
    -2
100
AcDbBlockReference
  2
_DOTBLANK
 10
-44479.35897446196
 20
1037.378516105436
 30
0.0
 41
12.0
 42
12.0
 43
12.0
 50
270.0
  0
MTEXT
  5
19A3
330
199C
100
AcDbEntity
  8
SIZE
  6
Continuous
 62
     0
100
AcDbMText
 10
-44521.35897446196
 20
1302.578516105429
 30
0.0
 40
64.0
 41
0.0
 71
     5
 72
     1
  1
\A1;530
 11
0.0000000000000001
 21
1.0
 31
0.0
 73
     1
 44
1.0
1001
ACAD
1000
MTEXTBEGIN
1070
    73
1070
     1
1070
    44
1040
1.0
1070
    74
1070
     0
1000
MTEXTEND
  0
POINT
  5
19A4
330
199C
100
AcDbEntity
  8
DEFPOINTS
  6
Continuous
 62
     0
100
AcDbPoint
 10
-44688.29220410465
 20
1567.778516105436
 30
0.0
  0
POINT
  5
19A5
330
199C
100
AcDbEntity
  8
DEFPOINTS
  6
Continuous
 62
     0
100
AcDbPoint
 10
-44688.29220410465
 20
1037.378516105436
 30
0.0
  0
POINT
  5
19A6
330
199C
100
AcDbEntity
  8
DEFPOINTS
  6
Continuous
 62
     0
100
AcDbPoint
 10
-44479.35897446196
 20
1037.378516105436
 30
0.0
  0
ENDBLK
  5
19A7
330
199C
100
AcDbEntity
  8
0
100
AcDbBlockEnd
  0
BLOCK
  5
19A9
330
19A8
100
AcDbEntity
  8
0
100
AcDbBlockBegin
  2
*D46
 70
     1
 10
0.0
 20
0.0
 30
0.0
  3
*D46
  1

  0
LINE
  5
19AA
330
19A8
100
AcDbEntity
  8
SIZE
  6
Continuous
 62
     0
370
    -2
100
AcDbLine
 10
-44682.30968727294
 20
2152.799362301062
 30
0.0
 11
-44324.33871363891
 21
2152.799362301062
 31
0.0
  0
LINE
  5
19AB
330
19A8
100
AcDbEntity
  8
SIZE
  6
Continuous
 62
     0
370
    -2
100
AcDbLine
 10
-44675.79220410462
 20
897.5785161054359
 30
0.0
 11
-44324.33871363891
 21
897.5785161054359
 31
0.0
  0
LINE
  5
19AC
330
19A8
100
AcDbEntity
  8
SIZE
  6
Continuous
 62
     0
370
    -2
100
AcDbLine
 10
-44344.33871363891
 20
2140.799362301062
 30
0.0
 11
-44344.33871363891
 21
909.5785161054356
 31
0.0
  0
INSERT
  5
19AD
330
19A8
100
AcDbEntity
  8
SIZE
  6
Continuous
 62
     0
370
    -2
100
AcDbBlockReference
  2
_DOTBLANK
 10
-44344.33871363891
 20
2152.799362301062
 30
0.0
 41
12.0
 42
12.0
 43
12.0
 50
90.0
  0
INSERT
  5
19AE
330
19A8
100
AcDbEntity
  8
SIZE
  6
Continuous
 62
     0
370
    -2
100
AcDbBlockReference
  2
_DOTBLANK
 10
-44344.33871363891
 20
897.5785161054359
 30
0.0
 41
12.0
 42
12.0
 43
12.0
 50
270.0
  0
MTEXT
  5
19AF
330
19A8
100
AcDbEntity
  8
SIZE
  6
Continuous
 62
     0
100
AcDbMText
 10
-44386.33871363891
 20
1525.188939203242
 30
0.0
 40
64.0
 41
0.0
 71
     5
 72
     1
  1
\A1;1255
 11
0.0000000000000001
 21
1.0
 31
0.0
 73
     1
 44
1.0
1001
ACAD
1000
MTEXTBEGIN
1070
    73
1070
     1
1070
    44
1040
1.0
1070
    74
1070
     0
1000
MTEXTEND
  0
POINT
  5
19B0
330
19A8
100
AcDbEntity
  8
DEFPOINTS
  6
Continuous
 62
     0
100
AcDbPoint
 10
-44702.30968727292
 20
2152.799362301062
 30
0.0
  0
POINT
  5
19B1
330
19A8
100
AcDbEntity
  8
DEFPOINTS
  6
Continuous
 62
     0
100
AcDbPoint
 10
-44695.79220410465
 20
897.5785161054359
 30
0.0
  0
POINT
  5
19B2
330
19A8
100
AcDbEntity
  8
DEFPOINTS
  6
Continuous
 62
     0
100
AcDbPoint
 10
-44344.33871363891
 20
897.5785161054359
 30
0.0
  0
ENDBLK
  5
19B3
330
19A8
100
AcDbEntity
  8
0
100
AcDbBlockEnd
  0
BLOCK
  5
19B5
330
19B4
100
AcDbEntity
  8
0
100
AcDbBlockBegin
  2
*D47
 70
     1
 10
0.0
 20
0.0
 30
0.0
  3
*D47
  1

  0
LINE
  5
19B6
330
19B4
100
AcDbEntity
  8
SIZE
  6
Continuous
 62
     0
370
    -2
100
AcDbLine
 10
-44701.39220410463
 20
2154.885695782409
 30
0.0
 11
-44701.39220410463
 21
2280.666939293501
 31
0.0
  0
LINE
  5
19B7
330
19B4
100
AcDbEntity
  8
SIZE
  6
Continuous
 62
     0
370
    -2
100
AcDbLine
 10
-45001.65521680631
 20
1982.856670190423
 30
0.0
 11
-45001.65521680631
 21
2280.666939293501
 31
0.0
  0
LINE
  5
19B8
330
19B4
100
AcDbEntity
  8
SIZE
  6
Continuous
 62
     0
370
    -2
100
AcDbLine
 10
-44713.39220410464
 20
2260.666939293501
 30
0.0
 11
-44989.65521680632
 21
2260.666939293501
 31
0.0
  0
INSERT
  5
19B9
330
19B4
100
AcDbEntity
  8
SIZE
  6
Continuous
 62
     0
370
    -2
100
AcDbBlockReference
  2
_DOTBLANK
 10
-44701.39220410463
 20
2260.666939293501
 30
0.0
 41
12.0
 42
12.0
 43
12.0
  0
INSERT
  5
19BA
330
19B4
100
AcDbEntity
  8
SIZE
  6
Continuous
 62
     0
370
    -2
100
AcDbBlockReference
  2
_DOTBLANK
 10
-45001.65521680631
 20
2260.666939293501
 30
0.0
 41
12.0
 42
12.0
 43
12.0
 50
180.0
  0
MTEXT
  5
19BB
330
19B4
100
AcDbEntity
  8
SIZE
  6
Continuous
 62
     0
100
AcDbMText
 10
-44851.52371045547
 20
2302.666939293501
 30
0.0
 40
64.0
 41
0.0
 71
     5
 72
     1
  1
\A1;300
 73
     1
 44
1.0
1001
ACAD
1000
MTEXTBEGIN
1070
    73
1070
     1
1070
    44
1040
1.0
1070
    74
1070
     0
1000
MTEXTEND
  0
POINT
  5
19BC
330
19B4
100
AcDbEntity
  8
DEFPOINTS
  6
Continuous
 62
     0
100
AcDbPoint
 10
-44701.39220410463
 20
2134.88569578241
 30
0.0
  0
POINT
  5
19BD
330
19B4
100
AcDbEntity
  8
DEFPOINTS
  6
Continuous
 62
     0
100
AcDbPoint
 10
-45001.65521680631
 20
1962.856670190424
 30
0.0
  0
POINT
  5
19BE
330
19B4
100
AcDbEntity
  8
DEFPOINTS
  6
Continuous
 62
     0
100
AcDbPoint
 10
-45001.65521680631
 20
2260.666939293501
 30
0.0
  0
ENDBLK
  5
19BF
330
19B4
100
AcDbEntity
  8
0
100
AcDbBlockEnd
  0
BLOCK
  5
19C1
330
19C0
100
AcDbEntity
  8
0
100
AcDbBlockBegin
  2
*D48
 70
     1
 10
0.0
 20
0.0
 30
0.0
  3
*D48
  1

  0
LINE
  5
19C2
330
19C0
100
AcDbEntity
  8
SIZE
  6
Continuous
 62
     0
370
    -2
100
AcDbLine
 10
-44695.79220410465
 20
2141.578516105436
 30
0.0
 11
-44695.79220410465
 21
2404.275415860471
 31
0.0
  0
LINE
  5
19C3
330
19C0
100
AcDbEntity
  8
SIZE
  6
Continuous
 62
     0
370
    -2
100
AcDbLine
 10
-45001.65521680631
 20
1982.856670190423
 30
0.0
 11
-45001.65521680631
 21
2404.275415860471
 31
0.0
  0
LINE
  5
19C4
330
19C0
100
AcDbEntity
  8
SIZE
  6
Continuous
 62
     0
370
    -2
100
AcDbLine
 10
-44707.79220410465
 20
2384.27541586047
 30
0.0
 11
-44989.65521680632
 21
2384.27541586047
 31
0.0
  0
INSERT
  5
19C5
330
19C0
100
AcDbEntity
  8
SIZE
  6
Continuous
 62
     0
370
    -2
100
AcDbBlockReference
  2
_DOTBLANK
 10
-44695.79220410465
 20
2384.27541586047
 30
0.0
 41
12.0
 42
12.0
 43
12.0
  0
INSERT
  5
19C6
330
19C0
100
AcDbEntity
  8
SIZE
  6
Continuous
 62
     0
370
    -2
100
AcDbBlockReference
  2
_DOTBLANK
 10
-45001.65521680631
 20
2384.27541586047
 30
0.0
 41
12.0
 42
12.0
 43
12.0
 50
180.0
  0
MTEXT
  5
19C7
330
19C0
100
AcDbEntity
  8
SIZE
  6
Continuous
 62
     0
100
AcDbMText
 10
-44848.72371045548
 20
2426.27541586047
 30
0.0
 40
64.0
 41
0.0
 71
     5
 72
     1
  1
\A1;306
 73
     1
 44
1.0
1001
ACAD
1000
MTEXTBEGIN
1070
    73
1070
     1
1070
    44
1040
1.0
1070
    74
1070
     0
1000
MTEXTEND
  0
POINT
  5
19C8
330
19C0
100
AcDbEntity
  8
DEFPOINTS
  6
Continuous
 62
     0
100
AcDbPoint
 10
-44695.79220410465
 20
2121.578516105436
 30
0.0
  0
POINT
  5
19C9
330
19C0
100
AcDbEntity
  8
DEFPOINTS
  6
Continuous
 62
     0
100
AcDbPoint
 10
-45001.65521680631
 20
1962.856670190424
 30
0.0
  0
POINT
  5
19CA
330
19C0
100
AcDbEntity
  8
DEFPOINTS
  6
Continuous
 62
     0
100
AcDbPoint
 10
-45001.65521680631
 20
2384.27541586047
 30
0.0
  0
ENDBLK
  5
19CB
330
19C0
100
AcDbEntity
  8
0
100
AcDbBlockEnd
  0
BLOCK
  5
1CAA
330
1CA9
100
AcDbEntity
  8
0
100
AcDbBlockBegin
  2
*D49
 70
     1
 10
0.0
 20
0.0
 30
0.0
  3
*D49
  1

  0
LINE
  5
1CE5
330
1CA9
100
AcDbEntity
  8
SIZE
  6
Continuous
 62
     0
370
    -2
100
AcDbLine
 10
27.50000000000728
 20
450.5895769021945
 30
0.0
 11
236.4332296426875
 21
450.5895769021942
 31
0.0
  0
LINE
  5
1CE6
330
1CA9
100
AcDbEntity
  8
SIZE
  6
Continuous
 62
     0
370
    -2
100
AcDbLine
 10
27.50000000000728
 20
42.58957690219449
 30
0.0
 11
236.4332296426874
 21
42.58957690219443
 31
0.0
  0
LINE
  5
1CE7
330
1CA9
100
AcDbEntity
  8
SIZE
  6
Continuous
 62
     0
370
    -2
100
AcDbLine
 10
216.4332296426874
 20
438.5895769021942
 30
0.0
 11
216.4332296426874
 21
54.58957690219443
 31
0.0
  0
INSERT
  5
1CE8
330
1CA9
100
AcDbEntity
  8
SIZE
  6
Continuous
 62
     0
370
    -2
100
AcDbBlockReference
  2
_DOTBLANK
 10
216.4332296426875
 20
450.5895769021942
 30
0.0
 41
12.0
 42
12.0
 43
12.0
 50
90.0
  0
INSERT
  5
1CE9
330
1CA9
100
AcDbEntity
  8
SIZE
  6
Continuous
 62
     0
370
    -2
100
AcDbBlockReference
  2
_DOTBLANK
 10
216.4332296426874
 20
42.58957690219443
 30
0.0
 41
12.0
 42
12.0
 43
12.0
 50
270.0
  0
MTEXT
  5
1CEA
330
1CA9
100
AcDbEntity
  8
SIZE
  6
Continuous
 62
     0
100
AcDbMText
 10
174.4332296426874
 20
246.5895769021945
 30
0.0
 40
64.0
 41
0.0
 71
     5
 72
     1
  1
\A1;408
 11
0.0000000000000001
 21
1.0
 31
0.0
 73
     1
 44
1.0
1001
ACAD
1000
MTEXTBEGIN
1070
    73
1070
     1
1070
    44
1040
1.0
1070
    74
1070
     0
1000
MTEXTEND
  0
POINT
  5
1CEB
330
1CA9
100
AcDbEntity
  8
DEFPOINTS
  6
Continuous
 62
     0
100
AcDbPoint
 10
7.500000000007275
 20
450.5895769021945
 30
0.0
  0
POINT
  5
1CEC
330
1CA9
100
AcDbEntity
  8
DEFPOINTS
  6
Continuous
 62
     0
100
AcDbPoint
 10
7.500000000007275
 20
42.58957690219449
 30
0.0
  0
POINT
  5
1CED
330
1CA9
100
AcDbEntity
  8
DEFPOINTS
  6
Continuous
 62
     0
100
AcDbPoint
 10
216.4332296426874
 20
42.58957690219443
 30
0.0
  0
ENDBLK
  5
1CAB
330
1CA9
100
AcDbEntity
  8
0
100
AcDbBlockEnd
  0
BLOCK
  5
1CB6
330
1CB5
100
AcDbEntity
  8
0
100
AcDbBlockBegin
  2
*D50
 70
     1
 10
0.0
 20
0.0
 30
0.0
  3
*D50
  1

  0
LINE
  5
1CEE
330
1CB5
100
AcDbEntity
  8
SIZE
  6
Continuous
 62
     0
370
    -2
100
AcDbLine
 10
27.50000000000728
 20
42.58957690219449
 30
0.0
 11
236.4332296426875
 21
42.58957690219443
 31
0.0
  0
LINE
  5
1CEF
330
1CB5
100
AcDbEntity
  8
SIZE
  6
Continuous
 62
     0
370
    -2
100
AcDbLine
 10
27.50000000000728
 20
-487.8104230978054
 30
0.0
 11
236.4332296426874
 21
-487.8104230978054
 31
0.0
  0
LINE
  5
1CF0
330
1CB5
100
AcDbEntity
  8
SIZE
  6
Continuous
 62
     0
370
    -2
100
AcDbLine
 10
216.4332296426875
 20
30.58957690219443
 30
0.0
 11
216.4332296426874
 21
-475.8104230978054
 31
0.0
  0
INSERT
  5
1CF1
330
1CB5
100
AcDbEntity
  8
SIZE
  6
Continuous
 62
     0
370
    -2
100
AcDbBlockReference
  2
_DOTBLANK
 10
216.4332296426875
 20
42.58957690219443
 30
0.0
 41
12.0
 42
12.0
 43
12.0
 50
90.0
  0
INSERT
  5
1CF2
330
1CB5
100
AcDbEntity
  8
SIZE
  6
Continuous
 62
     0
370
    -2
100
AcDbBlockReference
  2
_DOTBLANK
 10
216.4332296426874
 20
-487.8104230978054
 30
0.0
 41
12.0
 42
12.0
 43
12.0
 50
270.0
  0
MTEXT
  5
1CF3
330
1CB5
100
AcDbEntity
  8
SIZE
  6
Continuous
 62
     0
100
AcDbMText
 10
174.4332296426875
 20
-222.6104230978054
 30
0.0
 40
64.0
 41
0.0
 71
     5
 72
     1
  1
\A1;530
 11
0.0000000000000001
 21
1.0
 31
0.0
 73
     1
 44
1.0
1001
ACAD
1000
MTEXTBEGIN
1070
    73
1070
     1
1070
    44
1040
1.0
1070
    74
1070
     0
1000
MTEXTEND
  0
POINT
  5
1CF4
330
1CB5
100
AcDbEntity
  8
DEFPOINTS
  6
Continuous
 62
     0
100
AcDbPoint
 10
7.500000000007275
 20
42.58957690219449
 30
0.0
  0
POINT
  5
1CF5
330
1CB5
100
AcDbEntity
  8
DEFPOINTS
  6
Continuous
 62
     0
100
AcDbPoint
 10
7.500000000007275
 20
-487.8104230978054
 30
0.0
  0
POINT
  5
1CF6
330
1CB5
100
AcDbEntity
  8
DEFPOINTS
  6
Continuous
 62
     0
100
AcDbPoint
 10
216.4332296426874
 20
-487.8104230978054
 30
0.0
  0
ENDBLK
  5
1CB7
330
1CB5
100
AcDbEntity
  8
0
100
AcDbBlockEnd
  0
BLOCK
  5
1CC2
330
1CC1
100
AcDbEntity
  8
0
100
AcDbBlockBegin
  2
*D51
 70
     1
 10
0.0
 20
0.0
 30
0.0
  3
*D51
  1

  0
LINE
  5
1CF7
330
1CC1
100
AcDbEntity
  8
SIZE
  6
Continuous
 62
     0
370
    -2
100
AcDbLine
 10
13.48251683171111
 20
627.6104230978208
 30
0.0
 11
371.4534904657341
 21
627.6104230978205
 31
0.0
  0
LINE
  5
1CF8
330
1CC1
100
AcDbEntity
  8
SIZE
  6
Continuous
 62
     0
370
    -2
100
AcDbLine
 10
20.00000000000728
 20
-627.6104230978054
 30
0.0
 11
371.4534904657339
 21
-627.6104230978056
 31
0.0
  0
LINE
  5
1CF9
330
1CC1
100
AcDbEntity
  8
SIZE
  6
Continuous
 62
     0
370
    -2
100
AcDbLine
 10
351.4534904657342
 20
615.6104230978208
 30
0.0
 11
351.4534904657339
 21
-615.6104230978058
 31
0.0
  0
INSERT
  5
1CFA
330
1CC1
100
AcDbEntity
  8
SIZE
  6
Continuous
 62
     0
370
    -2
100
AcDbBlockReference
  2
_DOTBLANK
 10
351.4534904657342
 20
627.6104230978205
 30
0.0
 41
12.0
 42
12.0
 43
12.0
 50
90.0
  0
INSERT
  5
1CFB
330
1CC1
100
AcDbEntity
  8
SIZE
  6
Continuous
 62
     0
370
    -2
100
AcDbBlockReference
  2
_DOTBLANK
 10
351.4534904657339
 20
-627.6104230978056
 30
0.0
 41
12.0
 42
12.0
 43
12.0
 50
270.0
  0
MTEXT
  5
1CFC
330
1CC1
100
AcDbEntity
  8
SIZE
  6
Continuous
 62
     0
100
AcDbMText
 10
309.453490465734
 20
0.0000000000076006
 30
0.0
 40
64.0
 41
0.0
 71
     5
 72
     1
  1
\A1;1255
 11
0.0000000000000001
 21
1.0
 31
0.0
 73
     1
 44
1.0
1001
ACAD
1000
MTEXTBEGIN
1070
    73
1070
     1
1070
    44
1040
1.0
1070
    74
1070
     0
1000
MTEXTEND
  0
POINT
  5
1CFD
330
1CC1
100
AcDbEntity
  8
DEFPOINTS
  6
Continuous
 62
     0
100
AcDbPoint
 10
-6.517483168288888
 20
627.6104230978208
 30
0.0
  0
POINT
  5
1CFE
330
1CC1
100
AcDbEntity
  8
DEFPOINTS
  6
Continuous
 62
     0
100
AcDbPoint
 10
0.000000000007276
 20
-627.6104230978054
 30
0.0
  0
POINT
  5
1CFF
330
1CC1
100
AcDbEntity
  8
DEFPOINTS
  6
Continuous
 62
     0
100
AcDbPoint
 10
351.4534904657339
 20
-627.6104230978056
 30
0.0
  0
ENDBLK
  5
1CC3
330
1CC1
100
AcDbEntity
  8
0
100
AcDbBlockEnd
  0
BLOCK
  5
1CCE
330
1CCD
100
AcDbEntity
  8
0
100
AcDbBlockBegin
  2
*D52
 70
     1
 10
0.0
 20
0.0
 30
0.0
  3
*D52
  1

  0
LINE
  5
1D00
330
1CCD
100
AcDbEntity
  8
SIZE
  6
Continuous
 62
     0
370
    -2
100
AcDbLine
 10
-5.599999999991267
 20
629.6967565791674
 30
0.0
 11
-5.599999999991258
 21
755.4780000902597
 31
0.0
  0
LINE
  5
1D01
330
1CCD
100
AcDbEntity
  8
SIZE
  6
Continuous
 62
     0
370
    -2
100
AcDbLine
 10
-305.8630127016663
 20
457.6677309871824
 30
0.0
 11
-305.8630127016663
 21
755.4780000902597
 31
0.0
  0
LINE
  5
1D02
330
1CCD
100
AcDbEntity
  8
SIZE
  6
Continuous
 62
     0
370
    -2
100
AcDbLine
 10
-17.59999999999126
 20
735.4780000902596
 30
0.0
 11
-293.8630127016663
 21
735.4780000902596
 31
0.0
  0
INSERT
  5
1D03
330
1CCD
100
AcDbEntity
  8
SIZE
  6
Continuous
 62
     0
370
    -2
100
AcDbBlockReference
  2
_DOTBLANK
 10
-5.599999999991258
 20
735.4780000902596
 30
0.0
 41
12.0
 42
12.0
 43
12.0
  0
INSERT
  5
1D04
330
1CCD
100
AcDbEntity
  8
SIZE
  6
Continuous
 62
     0
370
    -2
100
AcDbBlockReference
  2
_DOTBLANK
 10
-305.8630127016663
 20
735.4780000902596
 30
0.0
 41
12.0
 42
12.0
 43
12.0
 50
180.0
  0
MTEXT
  5
1D05
330
1CCD
100
AcDbEntity
  8
SIZE
  6
Continuous
 62
     0
100
AcDbMText
 10
-155.7315063508288
 20
777.4780000902596
 30
0.0
 40
64.0
 41
0.0
 71
     5
 72
     1
  1
\A1;300
 73
     1
 44
1.0
1001
ACAD
1000
MTEXTBEGIN
1070
    73
1070
     1
1070
    44
1040
1.0
1070
    74
1070
     0
1000
MTEXTEND
  0
POINT
  5
1D06
330
1CCD
100
AcDbEntity
  8
DEFPOINTS
  6
Continuous
 62
     0
100
AcDbPoint
 10
-5.599999999991268
 20
609.6967565791674
 30
0.0
  0
POINT
  5
1D07
330
1CCD
100
AcDbEntity
  8
DEFPOINTS
  6
Continuous
 62
     0
100
AcDbPoint
 10
-305.8630127016663
 20
437.6677309871824
 30
0.0
  0
POINT
  5
1D08
330
1CCD
100
AcDbEntity
  8
DEFPOINTS
  6
Continuous
 62
     0
100
AcDbPoint
 10
-305.8630127016663
 20
735.4780000902596
 30
0.0
  0
ENDBLK
  5
1CCF
330
1CCD
100
AcDbEntity
  8
0
100
AcDbBlockEnd
  0
BLOCK
  5
1CDA
330
1CD9
100
AcDbEntity
  8
0
100
AcDbBlockBegin
  2
*D53
 70
     1
 10
0.0
 20
0.0
 30
0.0
  3
*D53
  1

  0
LINE
  5
1D09
330
1CD9
100
AcDbEntity
  8
SIZE
  6
Continuous
 62
     0
370
    -2
100
AcDbLine
 10
0.0000000000072772
 20
616.3895769021945
 30
0.0
 11
0.0000000000072933
 21
879.086476657229
 31
0.0
  0
LINE
  5
1D0A
330
1CD9
100
AcDbEntity
  8
SIZE
  6
Continuous
 62
     0
370
    -2
100
AcDbLine
 10
-305.8630127016663
 20
457.6677309871824
 30
0.0
 11
-305.8630127016663
 21
879.086476657229
 31
0.0
  0
LINE
  5
1D0B
330
1CD9
100
AcDbEntity
  8
SIZE
  6
Continuous
 62
     0
370
    -2
100
AcDbLine
 10
-11.9999999999927
 20
859.0864766572289
 30
0.0
 11
-293.8630127016663
 21
859.0864766572289
 31
0.0
  0
INSERT
  5
1D0C
330
1CD9
100
AcDbEntity
  8
SIZE
  6
Continuous
 62
     0
370
    -2
100
AcDbBlockReference
  2
_DOTBLANK
 10
0.000000000007292
 20
859.0864766572289
 30
0.0
 41
12.0
 42
12.0
 43
12.0
  0
INSERT
  5
1D0D
330
1CD9
100
AcDbEntity
  8
SIZE
  6
Continuous
 62
     0
370
    -2
100
AcDbBlockReference
  2
_DOTBLANK
 10
-305.8630127016663
 20
859.0864766572289
 30
0.0
 41
12.0
 42
12.0
 43
12.0
 50
180.0
  0
MTEXT
  5
1D0E
330
1CD9
100
AcDbEntity
  8
SIZE
  6
Continuous
 62
     0
100
AcDbMText
 10
-152.9315063508295
 20
901.0864766572286
 30
0.0
 40
64.0
 41
0.0
 71
     5
 72
     1
  1
\A1;306
 73
     1
 44
1.0
1001
ACAD
1000
MTEXTBEGIN
1070
    73
1070
     1
1070
    44
1040
1.0
1070
    74
1070
     0
1000
MTEXTEND
  0
POINT
  5
1D0F
330
1CD9
100
AcDbEntity
  8
DEFPOINTS
  6
Continuous
 62
     0
100
AcDbPoint
 10
0.000000000007276
 20
596.3895769021945
 30
0.0
  0
POINT
  5
1D10
330
1CD9
100
AcDbEntity
  8
DEFPOINTS
  6
Continuous
 62
     0
100
AcDbPoint
 10
-305.8630127016663
 20
437.6677309871824
 30
0.0
  0
POINT
  5
1D11
330
1CD9
100
AcDbEntity
  8
DEFPOINTS
  6
Continuous
 62
     0
100
AcDbPoint
 10
-305.8630127016663
 20
859.0864766572289
 30
0.0
  0
ENDBLK
  5
1CDB
330
1CD9
100
AcDbEntity
  8
0
100
AcDbBlockEnd
  0
BLOCK
  5
1E06
330
1E05
100
AcDbEntity
  8
0
100
AcDbBlockBegin
  2
*D54
 70
     1
 10
0.0
 20
0.0
 30
0.0
  3
*D54
  1

  0
LINE
  5
1E07
330
1E05
100
AcDbEntity
  8
SIZE
  6
Continuous
 62
     0
370
    -2
100
AcDbLine
 10
-44764.83977092722
 20
1412.392889393412
 30
0.0
 11
-44608.14486736526
 21
1412.392889393412
 31
0.0
  0
LINE
  5
1E08
330
1E05
100
AcDbEntity
  8
SIZE
  6
Continuous
 62
     0
370
    -2
100
AcDbLine
 10
-44764.83977092722
 20
800.3928893934116
 30
0.0
 11
-44608.14486736526
 21
800.3928893934116
 31
0.0
  0
LINE
  5
1E09
330
1E05
100
AcDbEntity
  8
SIZE
  6
Continuous
 62
     0
370
    -2
100
AcDbLine
 10
-44628.14486736526
 20
1400.392889393411
 30
0.0
 11
-44628.14486736526
 21
812.3928893934117
 31
0.0
  0
INSERT
  5
1E0A
330
1E05
100
AcDbEntity
  8
SIZE
  6
Continuous
 62
     0
370
    -2
100
AcDbBlockReference
  2
_DOTBLANK
 10
-44628.14486736526
 20
1412.392889393412
 30
0.0
 41
12.0
 42
12.0
 43
12.0
 50
90.0
  0
INSERT
  5
1E0B
330
1E05
100
AcDbEntity
  8
SIZE
  6
Continuous
 62
     0
370
    -2
100
AcDbBlockReference
  2
_DOTBLANK
 10
-44628.14486736526
 20
800.3928893934116
 30
0.0
 41
12.0
 42
12.0
 43
12.0
 50
270.0
  0
MTEXT
  5
1E0C
330
1E05
100
AcDbEntity
  8
SIZE
  6
Continuous
 62
     0
100
AcDbMText
 10
-44670.14486736526
 20
1106.392889393404
 30
0.0
 40
64.0
 41
0.0
 71
     5
 72
     1
  1
\A1;612
 11
0.0000000000000001
 21
1.0
 31
0.0
 73
     1
 44
1.0
1001
ACAD
1000
MTEXTBEGIN
1070
    73
1070
     1
1070
    44
1040
1.0
1070
    74
1070
     0
1000
MTEXTEND
  0
POINT
  5
1E0D
330
1E05
100
AcDbEntity
  8
DEFPOINTS
  6
Continuous
 62
     0
100
AcDbPoint
 10
-44784.83977092722
 20
1412.392889393412
 30
0.0
  0
POINT
  5
1E0E
330
1E05
100
AcDbEntity
  8
DEFPOINTS
  6
Continuous
 62
     0
100
AcDbPoint
 10
-44784.83977092722
 20
800.3928893934116
 30
0.0
  0
POINT
  5
1E0F
330
1E05
100
AcDbEntity
  8
DEFPOINTS
  6
Continuous
 62
     0
100
AcDbPoint
 10
-44628.14486736526
 20
800.3928893934116
 30
0.0
  0
ENDBLK
  5
1E10
330
1E05
100
AcDbEntity
  8
0
100
AcDbBlockEnd
  0
BLOCK
  5
1E12
330
1E11
100
AcDbEntity
  8
0
100
AcDbBlockBegin
  2
*D55
 70
     1
 10
0.0
 20
0.0
 30
0.0
  3
*D55
  1

  0
LINE
  5
1E13
330
1E11
100
AcDbEntity
  8
SIZE
  6
Continuous
 62
     0
370
    -2
100
AcDbLine
 10
-44764.83977092722
 20
800.3928893934116
 30
0.0
 11
-44608.14486736526
 21
800.3928893934116
 31
0.0
  0
LINE
  5
1E14
330
1E11
100
AcDbEntity
  8
SIZE
  6
Continuous
 62
     0
370
    -2
100
AcDbLine
 10
-44764.83977092722
 20
269.9928893934116
 30
0.0
 11
-44608.14486736526
 21
269.9928893934115
 31
0.0
  0
LINE
  5
1E15
330
1E11
100
AcDbEntity
  8
SIZE
  6
Continuous
 62
     0
370
    -2
100
AcDbLine
 10
-44628.14486736526
 20
788.3928893934116
 30
0.0
 11
-44628.14486736526
 21
281.9928893934115
 31
0.0
  0
INSERT
  5
1E16
330
1E11
100
AcDbEntity
  8
SIZE
  6
Continuous
 62
     0
370
    -2
100
AcDbBlockReference
  2
_DOTBLANK
 10
-44628.14486736526
 20
800.3928893934116
 30
0.0
 41
12.0
 42
12.0
 43
12.0
 50
90.0
  0
INSERT
  5
1E17
330
1E11
100
AcDbEntity
  8
SIZE
  6
Continuous
 62
     0
370
    -2
100
AcDbBlockReference
  2
_DOTBLANK
 10
-44628.14486736526
 20
269.9928893934115
 30
0.0
 41
12.0
 42
12.0
 43
12.0
 50
270.0
  0
MTEXT
  5
1E18
330
1E11
100
AcDbEntity
  8
SIZE
  6
Continuous
 62
     0
100
AcDbMText
 10
-44670.14486736526
 20
535.1928893934045
 30
0.0
 40
64.0
 41
0.0
 71
     5
 72
     1
  1
\A1;530
 11
0.0000000000000001
 21
1.0
 31
0.0
 73
     1
 44
1.0
1001
ACAD
1000
MTEXTBEGIN
1070
    73
1070
     1
1070
    44
1040
1.0
1070
    74
1070
     0
1000
MTEXTEND
  0
POINT
  5
1E19
330
1E11
100
AcDbEntity
  8
DEFPOINTS
  6
Continuous
 62
     0
100
AcDbPoint
 10
-44784.83977092722
 20
800.3928893934116
 30
0.0
  0
POINT
  5
1E1A
330
1E11
100
AcDbEntity
  8
DEFPOINTS
  6
Continuous
 62
     0
100
AcDbPoint
 10
-44784.83977092722
 20
269.9928893934116
 30
0.0
  0
POINT
  5
1E1B
330
1E11
100
AcDbEntity
  8
DEFPOINTS
  6
Continuous
 62
     0
100
AcDbPoint
 10
-44628.14486736526
 20
269.9928893934115
 30
0.0
  0
ENDBLK
  5
1E1C
330
1E11
100
AcDbEntity
  8
0
100
AcDbBlockEnd
  0
BLOCK
  5
1E1E
330
1E1D
100
AcDbEntity
  8
0
100
AcDbBlockBegin
  2
*D56
 70
     1
 10
0.0
 20
0.0
 30
0.0
  3
*D56
  1

  0
LINE
  5
1E1F
330
1E1D
100
AcDbEntity
  8
SIZE
  6
Continuous
 62
     0
370
    -2
100
AcDbLine
 10
-44773.46347092724
 20
1507.46373558904
 30
0.0
 11
-44437.16154360653
 21
1507.46373558904
 31
0.0
  0
LINE
  5
1E20
330
1E1D
100
AcDbEntity
  8
SIZE
  6
Continuous
 62
     0
370
    -2
100
AcDbLine
 10
-44772.33976997605
 20
252.5928893934192
 30
0.0
 11
-44437.16154360653
 21
252.5928893934191
 31
0.0
  0
LINE
  5
1E21
330
1E1D
100
AcDbEntity
  8
SIZE
  6
Continuous
 62
     0
370
    -2
100
AcDbLine
 10
-44457.16154360653
 20
1495.46373558904
 30
0.0
 11
-44457.16154360653
 21
264.5928893934191
 31
0.0
  0
INSERT
  5
1E22
330
1E1D
100
AcDbEntity
  8
SIZE
  6
Continuous
 62
     0
370
    -2
100
AcDbBlockReference
  2
_DOTBLANK
 10
-44457.16154360653
 20
1507.46373558904
 30
0.0
 41
12.0
 42
12.0
 43
12.0
 50
90.0
  0
INSERT
  5
1E23
330
1E1D
100
AcDbEntity
  8
SIZE
  6
Continuous
 62
     0
370
    -2
100
AcDbBlockReference
  2
_DOTBLANK
 10
-44457.16154360653
 20
252.5928893934191
 30
0.0
 41
12.0
 42
12.0
 43
12.0
 50
270.0
  0
MTEXT
  5
1E24
330
1E1D
100
AcDbEntity
  8
SIZE
  6
Continuous
 62
     0
100
AcDbMText
 10
-44499.16154360653
 20
880.0283124912223
 30
0.0
 40
64.0
 41
0.0
 71
     5
 72
     1
  1
\A1;1255
 11
0.0000000000000001
 21
1.0
 31
0.0
 73
     1
 44
1.0
1001
ACAD
1000
MTEXTBEGIN
1070
    73
1070
     1
1070
    44
1040
1.0
1070
    74
1070
     0
1000
MTEXTEND
  0
POINT
  5
1E25
330
1E1D
100
AcDbEntity
  8
DEFPOINTS
  6
Continuous
 62
     0
100
AcDbPoint
 10
-44793.46347092723
 20
1507.46373558904
 30
0.0
  0
POINT
  5
1E26
330
1E1D
100
AcDbEntity
  8
DEFPOINTS
  6
Continuous
 62
     0
100
AcDbPoint
 10
-44792.33976997605
 20
252.5928893934192
 30
0.0
  0
POINT
  5
1E27
330
1E1D
100
AcDbEntity
  8
DEFPOINTS
  6
Continuous
 62
     0
100
AcDbPoint
 10
-44457.16154360653
 20
252.5928893934191
 30
0.0
  0
ENDBLK
  5
1E28
330
1E1D
100
AcDbEntity
  8
0
100
AcDbBlockEnd
  0
BLOCK
  5
1E2A
330
1E29
100
AcDbEntity
  8
0
100
AcDbBlockBegin
  2
*D57
 70
     1
 10
0.0
 20
0.0
 30
0.0
  3
*D57
  1

  0
LINE
  5
1E2B
330
1E29
100
AcDbEntity
  8
SIZE
  6
Continuous
 62
     0
370
    -2
100
AcDbLine
 10
-44792.33976997605
 20
1510.59288939342
 30
0.0
 11
-44792.33976997605
 21
1643.056593464732
 31
0.0
  0
LINE
  5
1E2C
330
1E29
100
AcDbEntity
  8
SIZE
  6
Continuous
 62
     0
370
    -2
100
AcDbLine
 10
-45092.20278267796
 20
1337.871043478393
 30
0.0
 11
-45092.20278267796
 21
1643.056593464732
 31
0.0
  0
LINE
  5
1E2D
330
1E29
100
AcDbEntity
  8
SIZE
  6
Continuous
 62
     0
370
    -2
100
AcDbLine
 10
-44804.33976997605
 20
1623.056593464732
 30
0.0
 11
-45080.20278267796
 21
1623.056593464732
 31
0.0
  0
INSERT
  5
1E2E
330
1E29
100
AcDbEntity
  8
SIZE
  6
Continuous
 62
     0
370
    -2
100
AcDbBlockReference
  2
_DOTBLANK
 10
-44792.33976997605
 20
1623.056593464732
 30
0.0
 41
12.0
 42
12.0
 43
12.0
  0
INSERT
  5
1E2F
330
1E29
100
AcDbEntity
  8
SIZE
  6
Continuous
 62
     0
370
    -2
100
AcDbBlockReference
  2
_DOTBLANK
 10
-45092.20278267796
 20
1623.056593464732
 30
0.0
 41
12.0
 42
12.0
 43
12.0
 50
180.0
  0
MTEXT
  5
1E30
330
1E29
100
AcDbEntity
  8
SIZE
  6
Continuous
 62
     0
100
AcDbMText
 10
-44942.27127632701
 20
1665.056593464732
 30
0.0
 40
64.0
 41
0.0
 71
     5
 72
     1
  1
\A1;300
 73
     1
 44
1.0
1001
ACAD
1000
MTEXTBEGIN
1070
    73
1070
     1
1070
    44
1040
1.0
1070
    74
1070
     0
1000
MTEXTEND
  0
POINT
  5
1E31
330
1E29
100
AcDbEntity
  8
DEFPOINTS
  6
Continuous
 62
     0
100
AcDbPoint
 10
-44792.33976997605
 20
1490.592889393419
 30
0.0
  0
POINT
  5
1E32
330
1E29
100
AcDbEntity
  8
DEFPOINTS
  6
Continuous
 62
     0
100
AcDbPoint
 10
-45092.20278267796
 20
1317.871043478393
 30
0.0
  0
POINT
  5
1E33
330
1E29
100
AcDbEntity
  8
DEFPOINTS
  6
Continuous
 62
     0
100
AcDbPoint
 10
-45092.20278267796
 20
1623.056593464732
 30
0.0
  0
ENDBLK
  5
1E34
330
1E29
100
AcDbEntity
  8
0
100
AcDbBlockEnd
  0
BLOCK
  5
1F95
330
1F94
100
AcDbEntity
  8
0
100
AcDbBlockBegin
  2
*D58
 70
     1
 10
0.0
 20
0.0
 30
0.0
  3
*D58
  1

  0
LINE
  5
1FC4
330
1F94
100
AcDbEntity
  8
SIZE
  6
Continuous
 62
     0
370
    -2
100
AcDbLine
 10
27.49999904883589
 20
532.5395769021911
 30
0.0
 11
184.1949026107906
 21
532.5395769021911
 31
0.0
  0
LINE
  5
1FC5
330
1F94
100
AcDbEntity
  8
SIZE
  6
Continuous
 62
     0
370
    -2
100
AcDbLine
 10
27.49999904883589
 20
-79.46042309780887
 30
0.0
 11
184.1949026107904
 21
-79.46042309780892
 31
0.0
  0
LINE
  5
1FC6
330
1F94
100
AcDbEntity
  8
SIZE
  6
Continuous
 62
     0
370
    -2
100
AcDbLine
 10
164.1949026107906
 20
520.5395769021911
 30
0.0
 11
164.1949026107904
 21
-67.46042309780893
 31
0.0
  0
INSERT
  5
1FC7
330
1F94
100
AcDbEntity
  8
SIZE
  6
Continuous
 62
     0
370
    -2
100
AcDbBlockReference
  2
_DOTBLANK
 10
164.1949026107906
 20
532.5395769021911
 30
0.0
 41
12.0
 42
12.0
 43
12.0
 50
90.0
  0
INSERT
  5
1FC8
330
1F94
100
AcDbEntity
  8
SIZE
  6
Continuous
 62
     0
370
    -2
100
AcDbBlockReference
  2
_DOTBLANK
 10
164.1949026107904
 20
-79.46042309780892
 30
0.0
 41
12.0
 42
12.0
 43
12.0
 50
270.0
  0
MTEXT
  5
1FC9
330
1F94
100
AcDbEntity
  8
SIZE
  6
Continuous
 62
     0
100
AcDbMText
 10
122.1949026107905
 20
226.5395769021911
 30
0.0
 40
64.0
 41
0.0
 71
     5
 72
     1
  1
\A1;612
 11
0.0000000000000001
 21
1.0
 31
0.0
 73
     1
 44
1.0
1001
ACAD
1000
MTEXTBEGIN
1070
    73
1070
     1
1070
    44
1040
1.0
1070
    74
1070
     0
1000
MTEXTEND
  0
POINT
  5
1FCA
330
1F94
100
AcDbEntity
  8
DEFPOINTS
  6
Continuous
 62
     0
100
AcDbPoint
 10
7.499999048835888
 20
532.5395769021911
 30
0.0
  0
POINT
  5
1FCB
330
1F94
100
AcDbEntity
  8
DEFPOINTS
  6
Continuous
 62
     0
100
AcDbPoint
 10
7.499999048835888
 20
-79.46042309780887
 30
0.0
  0
POINT
  5
1FCC
330
1F94
100
AcDbEntity
  8
DEFPOINTS
  6
Continuous
 62
     0
100
AcDbPoint
 10
164.1949026107904
 20
-79.46042309780892
 30
0.0
  0
ENDBLK
  5
1F96
330
1F94
100
AcDbEntity
  8
0
100
AcDbBlockEnd
  0
BLOCK
  5
1FA1
330
1FA0
100
AcDbEntity
  8
0
100
AcDbBlockBegin
  2
*D59
 70
     1
 10
0.0
 20
0.0
 30
0.0
  3
*D59
  1

  0
LINE
  5
1FCD
330
1FA0
100
AcDbEntity
  8
SIZE
  6
Continuous
 62
     0
370
    -2
100
AcDbLine
 10
27.49999904883589
 20
-79.46042309780887
 30
0.0
 11
184.1949026107904
 21
-79.46042309780892
 31
0.0
  0
LINE
  5
1FCE
330
1FA0
100
AcDbEntity
  8
SIZE
  6
Continuous
 62
     0
370
    -2
100
AcDbLine
 10
27.49999904883589
 20
-609.8604230978089
 30
0.0
 11
184.1949026107904
 21
-609.8604230978089
 31
0.0
  0
LINE
  5
1FCF
330
1FA0
100
AcDbEntity
  8
SIZE
  6
Continuous
 62
     0
370
    -2
100
AcDbLine
 10
164.1949026107905
 20
-91.46042309780892
 30
0.0
 11
164.1949026107904
 21
-597.8604230978088
 31
0.0
  0
INSERT
  5
1FD0
330
1FA0
100
AcDbEntity
  8
SIZE
  6
Continuous
 62
     0
370
    -2
100
AcDbBlockReference
  2
_DOTBLANK
 10
164.1949026107905
 20
-79.46042309780892
 30
0.0
 41
12.0
 42
12.0
 43
12.0
 50
90.0
  0
INSERT
  5
1FD1
330
1FA0
100
AcDbEntity
  8
SIZE
  6
Continuous
 62
     0
370
    -2
100
AcDbBlockReference
  2
_DOTBLANK
 10
164.1949026107904
 20
-609.8604230978089
 30
0.0
 41
12.0
 42
12.0
 43
12.0
 50
270.0
  0
MTEXT
  5
1FD2
330
1FA0
100
AcDbEntity
  8
SIZE
  6
Continuous
 62
     0
100
AcDbMText
 10
122.1949026107906
 20
-344.6604230978089
 30
0.0
 40
64.0
 41
0.0
 71
     5
 72
     1
  1
\A1;530
 11
0.0000000000000001
 21
1.0
 31
0.0
 73
     1
 44
1.0
1001
ACAD
1000
MTEXTBEGIN
1070
    73
1070
     1
1070
    44
1040
1.0
1070
    74
1070
     0
1000
MTEXTEND
  0
POINT
  5
1FD3
330
1FA0
100
AcDbEntity
  8
DEFPOINTS
  6
Continuous
 62
     0
100
AcDbPoint
 10
7.499999048835888
 20
-79.46042309780887
 30
0.0
  0
POINT
  5
1FD4
330
1FA0
100
AcDbEntity
  8
DEFPOINTS
  6
Continuous
 62
     0
100
AcDbPoint
 10
7.499999048835888
 20
-609.8604230978089
 30
0.0
  0
POINT
  5
1FD5
330
1FA0
100
AcDbEntity
  8
DEFPOINTS
  6
Continuous
 62
     0
100
AcDbPoint
 10
164.1949026107904
 20
-609.8604230978089
 30
0.0
  0
ENDBLK
  5
1FA2
330
1FA0
100
AcDbEntity
  8
0
100
AcDbBlockEnd
  0
BLOCK
  5
1FAD
330
1FAC
100
AcDbEntity
  8
0
100
AcDbBlockBegin
  2
*D60
 70
     1
 10
0.0
 20
0.0
 30
0.0
  3
*D60
  1

  0
LINE
  5
1FD6
330
1FAC
100
AcDbEntity
  8
SIZE
  6
Continuous
 62
     0
370
    -2
100
AcDbLine
 10
18.8762990488176
 20
627.6104230978194
 30
0.0
 11
355.1782263695206
 21
627.6104230978192
 31
0.0
  0
LINE
  5
1FD7
330
1FAC
100
AcDbEntity
  8
SIZE
  6
Continuous
 62
     0
370
    -2
100
AcDbLine
 10
20.0
 20
-627.2604230978013
 30
0.0
 11
355.1782263695204
 21
-627.2604230978013
 31
0.0
  0
LINE
  5
1FD8
330
1FAC
100
AcDbEntity
  8
SIZE
  6
Continuous
 62
     0
370
    -2
100
AcDbLine
 10
335.1782263695207
 20
615.6104230978192
 30
0.0
 11
335.1782263695203
 21
-615.2604230978013
 31
0.0
  0
INSERT
  5
1FD9
330
1FAC
100
AcDbEntity
  8
SIZE
  6
Continuous
 62
     0
370
    -2
100
AcDbBlockReference
  2
_DOTBLANK
 10
335.1782263695207
 20
627.6104230978192
 30
0.0
 41
12.0
 42
12.0
 43
12.0
 50
90.0
  0
INSERT
  5
1FDA
330
1FAC
100
AcDbEntity
  8
SIZE
  6
Continuous
 62
     0
370
    -2
100
AcDbBlockReference
  2
_DOTBLANK
 10
335.1782263695203
 20
-627.2604230978013
 30
0.0
 41
12.0
 42
12.0
 43
12.0
 50
270.0
  0
MTEXT
  5
1FDB
330
1FAC
100
AcDbEntity
  8
SIZE
  6
Continuous
 62
     0
100
AcDbMText
 10
293.1782263695205
 20
0.1750000000090341
 30
0.0
 40
64.0
 41
0.0
 71
     5
 72
     1
  1
\A1;1255
 11
0.0000000000000001
 21
1.0
 31
0.0
 73
     1
 44
1.0
1001
ACAD
1000
MTEXTBEGIN
1070
    73
1070
     1
1070
    44
1040
1.0
1070
    74
1070
     0
1000
MTEXTEND
  0
POINT
  5
1FDC
330
1FAC
100
AcDbEntity
  8
DEFPOINTS
  6
Continuous
 62
     0
100
AcDbPoint
 10
-1.123700951182399
 20
627.6104230978194
 30
0.0
  0
POINT
  5
1FDD
330
1FAC
100
AcDbEntity
  8
DEFPOINTS
  6
Continuous
 62
     0
100
AcDbPoint
 10
0.0
 20
-627.2604230978013
 30
0.0
  0
POINT
  5
1FDE
330
1FAC
100
AcDbEntity
  8
DEFPOINTS
  6
Continuous
 62
     0
100
AcDbPoint
 10
335.1782263695203
 20
-627.2604230978013
 30
0.0
  0
ENDBLK
  5
1FAE
330
1FAC
100
AcDbEntity
  8
0
100
AcDbBlockEnd
  0
BLOCK
  5
1FB9
330
1FB8
100
AcDbEntity
  8
0
100
AcDbBlockBegin
  2
*D61
 70
     1
 10
0.0
 20
0.0
 30
0.0
  3
*D61
  1

  0
LINE
  5
1FDF
330
1FB8
100
AcDbEntity
  8
SIZE
  6
Continuous
 62
     0
370
    -2
100
AcDbLine
 10
0.0000000000000012
 20
630.7395769021991
 30
0.0
 11
0.0000000000000093
 21
763.2032809735115
 31
0.0
  0
LINE
  5
1FE0
330
1FB8
100
AcDbEntity
  8
SIZE
  6
Continuous
 62
     0
370
    -2
100
AcDbLine
 10
-299.863012701906
 20
458.0177309871728
 30
0.0
 11
-299.863012701906
 21
763.2032809735115
 31
0.0
  0
LINE
  5
1FE1
330
1FB8
100
AcDbEntity
  8
SIZE
  6
Continuous
 62
     0
370
    -2
100
AcDbLine
 10
-11.99999999999999
 20
743.2032809735114
 30
0.0
 11
-287.863012701906
 21
743.2032809735114
 31
0.0
  0
INSERT
  5
1FE2
330
1FB8
100
AcDbEntity
  8
SIZE
  6
Continuous
 62
     0
370
    -2
100
AcDbBlockReference
  2
_DOTBLANK
 10
0.0000000000000081
 20
743.2032809735114
 30
0.0
 41
12.0
 42
12.0
 43
12.0
  0
INSERT
  5
1FE3
330
1FB8
100
AcDbEntity
  8
SIZE
  6
Continuous
 62
     0
370
    -2
100
AcDbBlockReference
  2
_DOTBLANK
 10
-299.863012701906
 20
743.2032809735114
 30
0.0
 41
12.0
 42
12.0
 43
12.0
 50
180.0
  0
MTEXT
  5
1FE4
330
1FB8
100
AcDbEntity
  8
SIZE
  6
Continuous
 62
     0
100
AcDbMText
 10
-149.931506350953
 20
785.2032809735113
 30
0.0
 40
64.0
 41
0.0
 71
     5
 72
     1
  1
\A1;300
 73
     1
 44
1.0
1001
ACAD
1000
MTEXTBEGIN
1070
    73
1070
     1
1070
    44
1040
1.0
1070
    74
1070
     0
1000
MTEXTEND
  0
POINT
  5
1FE5
330
1FB8
100
AcDbEntity
  8
DEFPOINTS
  6
Continuous
 62
     0
100
AcDbPoint
 10
0.0
 20
610.7395769021991
 30
0.0
  0
POINT
  5
1FE6
330
1FB8
100
AcDbEntity
  8
DEFPOINTS
  6
Continuous
 62
     0
100
AcDbPoint
 10
-299.863012701906
 20
438.0177309871728
 30
0.0
  0
POINT
  5
1FE7
330
1FB8
100
AcDbEntity
  8
DEFPOINTS
  6
Continuous
 62
     0
100
AcDbPoint
 10
-299.863012701906
 20
743.2032809735114
 30
0.0
  0
ENDBLK
  5
1FBA
330
1FB8
100
AcDbEntity
  8
0
100
AcDbBlockEnd
  0
ENDSEC
  0
SECTION
  2
ENTITIES
  0
TEXT
  5
953
330
85F
100
AcDbEntity
  8
OUTLINE
  6
Continuous
 62
     3
100
AcDbText
 10
-418.231467
 20
13.715189
 30
0.0
 40
64.0
  1
 
 41
0.9
100
AcDbText
  0
TEXT
  5
954
330
85F
100
AcDbEntity
  8
OUTLINE
  6
Continuous
 62
     3
100
AcDbText
 10
-418.231467
 20
13.715189
 30
0.0
 40
64.0
  1
 
 41
0.9
100
AcDbText
  0
TEXT
  5
955
330
85F
100
AcDbEntity
  8
OUTLINE
  6
Continuous
 62
     3
100
AcDbText
 10
1341.41903
 20
-706.0588199999997
 30
0.0
 40
64.0
  1
 
 41
0.9
100
AcDbText
  0
TEXT
  5
956
330
85F
100
AcDbEntity
  8
OUTLINE
  6
Continuous
 62
     3
100
AcDbText
 10
1341.41903
 20
-706.0588199999997
 30
0.0
 40
64.0
  1
 
 41
0.9
100
AcDbText
  0
TEXT
  5
957
330
85F
100
AcDbEntity
  8
OUTLINE
  6
Continuous
 62
     3
100
AcDbText
 10
1341.41903
 20
-706.0588199999997
 30
0.0
 40
64.0
  1
 
 41
0.9
100
AcDbText
  0
TEXT
  5
958
330
85F
100
AcDbEntity
  8
OUTLINE
  6
Continuous
 62
     3
100
AcDbText
 10
1341.41903
 20
-706.0588199999997
 30
0.0
 40
64.0
  1
 
 41
0.9
100
AcDbText
  0
LINE
  5
1EE8
330
85F
100
AcDbEntity
  8
DETAIL
100
AcDbLine
 10
-7.0
 20
-154.2604230978013
 30
0.0
 11
-4.0
 21
-157.2604230978008
 31
0.0
  0
LINE
  5
1EE9
330
85F
100
AcDbEntity
  8
DETAIL
100
AcDbLine
 10
-4.0
 20
-135.7604230978013
 30
0.0
 11
-7.0
 21
-138.7604230978008
 31
0.0
  0
LINE
  5
1EEA
330
85F
100
AcDbEntity
  8
DETAIL
100
AcDbLine
 10
-7.0
 20
-154.2604230978013
 30
0.0
 11
-11.0
 21
-154.2604230978013
 31
0.0
  0
LINE
  5
1EEB
330
85F
100
AcDbEntity
  8
DETAIL
100
AcDbLine
 10
-11.0
 20
-138.7604230978008
 30
0.0
 11
-7.0
 21
-138.7604230978008
 31
0.0
  0
LINE
  5
1EEC
330
85F
100
AcDbEntity
  8
DETAIL
100
AcDbLine
 10
-11.0
 20
-154.2604230978013
 30
0.0
 11
-11.0
 21
-138.7604230978008
 31
0.0
  0
LINE
  5
1EED
330
85F
100
AcDbEntity
  8
DETAIL
100
AcDbLine
 10
-4.0
 20
-135.7604230978013
 30
0.0
 11
-4.0
 21
-119.7604230978008
 31
0.0
  0
LINE
  5
1EEE
330
85F
100
AcDbEntity
  8
DETAIL
100
AcDbLine
 10
-4.0
 20
-119.7604230978008
 30
0.0
 11
-0.900000000001455
 21
-119.7604230978008
 31
0.0
  0
LINE
  5
1EEF
330
85F
100
AcDbEntity
  8
DETAIL
100
AcDbLine
 10
-0.900000000001455
 20
-193.7604230978013
 30
0.0
 11
-4.0
 21
-193.7604230978013
 31
0.0
  0
LINE
  5
1EF0
330
85F
100
AcDbEntity
  8
DETAIL
100
AcDbLine
 10
-4.0
 20
-193.7604230978013
 30
0.0
 11
-4.0
 21
-157.2604230978008
 31
0.0
  0
LINE
  5
1EF1
330
85F
100
AcDbEntity
  8
DETAIL
100
AcDbLine
 10
0.0
 20
-119.7604230978008
 30
0.0
 11
-0.900000000001455
 21
-119.7604230978008
 31
0.0
  0
LINE
  5
1EF2
330
85F
100
AcDbEntity
  8
DETAIL
100
AcDbLine
 10
-0.900000000001455
 20
-193.7604230978013
 30
0.0
 11
0.0
 21
-193.7604230978013
 31
0.0
  0
LINE
  5
1EF3
330
85F
100
AcDbEntity
  8
DETAIL
100
AcDbLine
 10
-0.900000000001455
 20
-119.7604230978008
 30
0.0
 11
-0.900000000001455
 21
609.180731175386
 31
0.0
  0
LINE
  5
1EF4
330
85F
100
AcDbEntity
  8
DETAIL
100
AcDbLine
 10
-0.900000000001455
 20
-626.0506620825267
 30
0.0
 11
-0.900000000001455
 21
-193.7604230978013
 31
0.0
  0
LINE
  5
1EF5
330
85F
100
AcDbEntity
  8
DETAIL
100
AcDbLine
 10
0.0
 20
609.1807311753869
 30
0.0
 11
0.0
 21
-119.7604230978008
 31
0.0
  0
SPLINE
  5
1EF6
330
85F
100
AcDbEntity
  8
DETAIL
100
AcDbSpline
210
0.0
220
0.0
230
1.0
 70
     8
 71
     3
 72
    11
 73
     7
 74
     0
 42
0.0000000001
 43
0.0000000001
 40
0.0
 40
0.0
 40
0.0
 40
0.0
 40
1.437607986812995
 40
1.437607986812995
 40
1.437607986812995
 40
1.570796326794897
 40
1.570796326794897
 40
1.570796326794897
 40
1.570796326794897
 10
-0.900000000001455
 20
-626.0506620825267
 30
0.0
 10
-0.468717603958794
 20
-626.4197237421082
 30
0.0
 10
-0.0652429258916527
 20
-626.7887854016893
 30
0.0
 10
-0.0079708168486832
 20
-627.1578470612707
 30
0.0
 10
-0.0026647965714801
 20
-627.1920390734476
 30
0.0
 10
0.0
 20
-627.2262310856245
 30
0.0
 10
0.0
 20
-627.2604230978013
 30
0.0
  0
LINE
  5
1EF7
330
85F
100
AcDbEntity
  8
DETAIL
100
AcDbLine
 10
0.0
 20
-193.7604230978013
 30
0.0
 11
0.0
 21
-627.2604230978013
 31
0.0
  0
LINE
  5
1EF8
330
85F
100
AcDbEntity
  8
DETAIL
100
AcDbLine
 10
0.0
 20
-627.2604230978013
 30
0.0
 11
-0.8000000000029102
 21
-627.2604230978013
 31
0.0
  0
SPLINE
  5
1EF9
330
85F
100
AcDbEntity
  8
DETAIL
100
AcDbSpline
210
0.0
220
0.0
230
1.0
 70
     8
 71
     3
 72
     8
 73
     4
 74
     0
 42
0.0000000001
 43
0.0000000001
 40
0.0
 40
0.0
 40
0.0
 40
0.0
 40
1.570796326794897
 40
1.570796326794897
 40
1.570796326794897
 40
1.570796326794897
 10
-0.900000000001455
 20
-626.0506620825267
 30
0.0
 10
-0.8476401224397703
 20
-626.4539157542849
 30
0.0
 10
-0.8000000000029102
 20
-626.8571694260431
 30
0.0
 10
-0.8000000000029102
 20
-627.2604230978013
 30
0.0
  0
LINE
  5
1EFA
330
85F
100
AcDbEntity
  8
DETAIL
100
AcDbLine
 10
-0.900000000001455
 20
609.180731175386
 30
0.0
 11
-1.316025403786625
 21
608.9405387965221
 31
0.0
  0
LINE
  5
1EFB
330
85F
100
AcDbEntity
  8
DETAIL
100
AcDbLine
 10
-1.316025403786625
 20
608.9405387965221
 30
0.0
 11
-297.6633974596189
 21
437.8443037664459
 31
0.0
  0
LINE
  5
1EFC
330
85F
100
AcDbEntity
  8
DETAIL
100
AcDbLine
 10
-297.6633974596189
 20
437.8443037664459
 30
0.0
 11
-297.6583974596287
 21
437.8356435124082
 31
0.0
  0
LINE
  5
1EFD
330
85F
100
AcDbEntity
  8
DETAIL
100
AcDbLine
 10
-297.6583974596287
 20
437.8356435124082
 30
0.0
 11
-298.1999999999971
 21
437.5229491399263
 31
0.0
  0
LINE
  5
1EFE
330
85F
100
AcDbEntity
  8
DETAIL
100
AcDbLine
 10
-0.8000000000029102
 20
609.1807311753869
 30
0.0
 11
-0.8000000000029102
 21
610.7395769021991
 31
0.0
  0
LINE
  5
1EFF
330
85F
100
AcDbEntity
  8
DETAIL
100
AcDbLine
 10
-0.900000000001455
 20
609.1807311753869
 30
0.0
 11
0.0
 21
609.1807311753869
 31
0.0
  0
LINE
  5
1F00
330
85F
100
AcDbEntity
  8
DETAIL
100
AcDbLine
 10
0.0
 20
610.7395769021991
 30
0.0
 11
0.0
 21
609.1807311753869
 31
0.0
  0
LINE
  5
1F01
330
85F
100
AcDbEntity
  8
DETAIL
100
AcDbLine
 10
-298.1133974596232
 20
438.6237266298526
 30
0.0
 11
-1.76602540379099
 21
609.7199616599286
 31
0.0
  0
LINE
  5
1F02
330
85F
100
AcDbEntity
  8
DETAIL
100
AcDbLine
 10
-1.76602540379099
 20
609.7199616599278
 30
0.0
 11
-1.316025403786625
 21
608.9405387965221
 31
0.0
  0
LINE
  5
1F03
330
85F
100
AcDbEntity
  8
DETAIL
100
AcDbLine
 10
-298.1133974596232
 20
438.6237266298526
 30
0.0
 11
-297.6633974596189
 21
437.8443037664459
 31
0.0
  0
LINE
  5
1F04
330
85F
100
AcDbEntity
  8
DETAIL
100
AcDbLine
 10
0.0
 20
610.7395769021991
 30
0.0
 11
-0.8000000000029102
 21
610.7395769021991
 31
0.0
  0
LINE
  5
1F05
330
85F
100
AcDbEntity
  8
DETAIL
100
AcDbLine
 10
-298.1999999999971
 20
435.5329491399266
 30
0.0
 11
-298.1999999999971
 21
437.5229491399263
 31
0.0
  0
LINE
  5
1F06
330
85F
100
AcDbEntity
  8
DETAIL
100
AcDbLine
 10
-298.1999999999971
 20
-226.426273370148
 30
0.0
 11
-298.1999999999971
 21
-225.4362733701478
 31
0.0
  0
LINE
  5
1F07
330
85F
100
AcDbEntity
  8
DETAIL
100
AcDbLine
 10
-0.900000000001455
 20
-626.0506620825267
 30
0.0
 11
-298.1999999999971
 21
-226.426273370148
 31
0.0
  0
LINE
  5
1F08
330
85F
100
AcDbEntity
  8
DETAIL
100
AcDbLine
 10
-298.1999999999971
 20
435.5329491399266
 30
0.0
 11
-297.2900000000009
 21
435.5329491399266
 31
0.0
  0
LINE
  5
1F09
330
85F
100
AcDbEntity
  8
DETAIL
100
AcDbLine
 10
-297.2900000000009
 20
435.5329491399266
 30
0.0
 11
-297.2900000000009
 21
435.5229491399263
 31
0.0
  0
LINE
  5
1F0A
330
85F
100
AcDbEntity
  8
DETAIL
100
AcDbLine
 10
-297.2900000000009
 20
435.5229491399263
 30
0.0
 11
-297.3000000000029
 21
435.5229491399263
 31
0.0
  0
LINE
  5
1F0B
330
85F
100
AcDbEntity
  8
DETAIL
100
AcDbLine
 10
-297.3000000000029
 20
435.5229491399263
 30
0.0
 11
-297.3000000000029
 21
-225.426273370148
 31
0.0
  0
LINE
  5
1F0C
330
85F
100
AcDbEntity
  8
DETAIL
100
AcDbLine
 10
-297.3000000000029
 20
-225.426273370148
 30
0.0
 11
-297.2900000000009
 21
-225.426273370148
 31
0.0
  0
LINE
  5
1F0D
330
85F
100
AcDbEntity
  8
DETAIL
100
AcDbLine
 10
-297.2900000000009
 20
-225.426273370148
 30
0.0
 11
-297.2900000000009
 21
-225.4362733701478
 31
0.0
  0
LINE
  5
1F0E
330
85F
100
AcDbEntity
  8
DETAIL
100
AcDbLine
 10
-297.2900000000009
 20
-225.4362733701478
 30
0.0
 11
-298.1999999999971
 21
-225.4362733701478
 31
0.0
  0
LINE
  5
1F0F
330
85F
100
AcDbEntity
  8
DETAIL
100
AcDbLine
 10
-298.1999999999971
 20
-225.426273370148
 30
0.0
 11
-298.1999999999971
 21
435.5229491399263
 31
0.0
  0
LINE
  5
1F10
330
85F
100
AcDbEntity
  8
DETAIL
100
AcDbLine
 10
-298.1999999999971
 20
435.5229491399263
 30
0.0
 11
-297.3000000000029
 21
435.5229491399263
 31
0.0
  0
LINE
  5
1F11
330
85F
100
AcDbEntity
  8
DETAIL
100
AcDbLine
 10
-298.1999999999971
 20
-225.426273370148
 30
0.0
 11
-297.3000000000029
 21
-225.426273370148
 31
0.0
  0
LINE
  5
1F12
330
85F
100
AcDbEntity
  8
DETAIL
100
AcDbLine
 10
-299.0
 20
-224.4770508600732
 30
0.0
 11
-299.0
 21
-227.4770508600736
 31
0.0
  0
LINE
  5
1F13
330
85F
100
AcDbEntity
  8
DETAIL
100
AcDbLine
 10
-299.0
 20
-227.4770508600736
 30
0.0
 11
-298.1999999999971
 21
-227.4770508600736
 31
0.0
  0
LINE
  5
1F14
330
85F
100
AcDbEntity
  8
DETAIL
100
AcDbLine
 10
-298.1999999999971
 20
-227.4770508600736
 30
0.0
 11
-298.1999999999971
 21
-226.426273370148
 31
0.0
  0
LINE
  5
1F15
330
85F
100
AcDbEntity
  8
DETAIL
100
AcDbLine
 10
-298.1999999999971
 20
-225.4362733701482
 30
0.0
 11
-298.1999999999971
 21
-225.4262733701485
 31
0.0
  0
LINE
  5
1F16
330
85F
100
AcDbEntity
  8
DETAIL
100
AcDbLine
 10
-298.1999999999971
 20
-224.4770508600732
 30
0.0
 11
-299.0
 21
-224.4770508600732
 31
0.0
  0
LINE
  5
1F17
330
85F
100
AcDbEntity
  8
DETAIL
100
AcDbLine
 10
-299.0
 20
436.5229491399262
 30
0.0
 11
-299.0
 21
433.5229491399263
 31
0.0
  0
LINE
  5
1F18
330
85F
100
AcDbEntity
  8
DETAIL
100
AcDbLine
 10
-299.0
 20
433.5229491399263
 30
0.0
 11
-298.1999999999971
 21
433.5229491399263
 31
0.0
  0
LINE
  5
1F19
330
85F
100
AcDbEntity
  8
DETAIL
100
AcDbLine
 10
-298.1999999999971
 20
435.5229491399263
 30
0.0
 11
-298.1999999999971
 21
435.5329491399266
 31
0.0
  0
LINE
  5
1F1A
330
85F
100
AcDbEntity
  8
DETAIL
100
AcDbLine
 10
-298.1999999999971
 20
436.5229491399262
 30
0.0
 11
-299.0
 21
436.5229491399262
 31
0.0
  0
LINE
  5
1F1B
330
85F
100
AcDbEntity
  8
DETAIL
100
AcDbLine
 10
-298.2000000000044
 20
-227.4770508600736
 30
0.0
 11
-297.4182755693182
 21
-227.4770508600736
 31
0.0
  0
LINE
  5
1F1C
330
85F
100
AcDbEntity
  8
DETAIL
100
AcDbLine
 10
-297.4000000000087
 20
-225.4362733701478
 30
0.0
 11
-297.4000000000087
 21
-225.426273370148
 31
0.0
  0
LINE
  5
1F1D
330
85F
100
AcDbEntity
  8
DETAIL
100
AcDbLine
 10
-299.0
 20
433.5229491399263
 30
0.0
 11
-299.0
 21
-224.4770508600732
 31
0.0
  0
LINE
  5
1F1E
330
85F
100
AcDbEntity
  8
DETAIL
100
AcDbLine
 10
-299.863012701906
 20
421.0177309871729
 30
0.0
 11
-299.8630127019132
 21
418.0177309871736
 31
0.0
  0
LINE
  5
1F1F
330
85F
100
AcDbEntity
  8
DETAIL
100
AcDbLine
 10
-299.8630127019132
 20
418.0177309871736
 30
0.0
 11
-299.0630127019104
 21
418.0177309871736
 31
0.0
  0
LINE
  5
1F20
330
85F
100
AcDbEntity
  8
DETAIL
100
AcDbLine
 10
-299.0630127019104
 20
418.0177309871736
 30
0.0
 11
-299.0630127019104
 21
421.0177309871736
 31
0.0
  0
LINE
  5
1F21
330
85F
100
AcDbEntity
  8
DETAIL
100
AcDbLine
 10
-299.0630127019104
 20
421.0177309871729
 30
0.0
 11
-299.863012701906
 21
421.0177309871729
 31
0.0
  0
LINE
  5
1F22
330
85F
100
AcDbEntity
  8
DETAIL
100
AcDbLine
 10
-1.92370095118531
 20
627.6104230978194
 30
0.0
 11
-1.92370095118531
 21
624.6104230978184
 31
0.0
  0
LINE
  5
1F23
330
85F
100
AcDbEntity
  8
DETAIL
100
AcDbLine
 10
-1.92370095118531
 20
624.6104230978184
 30
0.0
 11
-1.123700951182399
 21
624.6104230978184
 31
0.0
  0
LINE
  5
1F24
330
85F
100
AcDbEntity
  8
DETAIL
100
AcDbLine
 10
-1.123700951182399
 20
624.6104230978184
 30
0.0
 11
-1.123700951182399
 21
627.6104230978194
 31
0.0
  0
LINE
  5
1F25
330
85F
100
AcDbEntity
  8
DETAIL
100
AcDbLine
 10
-1.123700951182399
 20
627.6104230978194
 30
0.0
 11
-1.92370095118531
 21
627.6104230978194
 31
0.0
  0
LINE
  5
1F26
330
85F
100
AcDbEntity
  8
DETAIL
100
AcDbLine
 10
-299.863012701906
 20
438.0177309871728
 30
0.0
 11
-299.863012701906
 21
421.0177309871729
 31
0.0
  0
LINE
  5
1F27
330
85F
100
AcDbEntity
  8
DETAIL
100
AcDbLine
 10
-1.123700951182399
 20
624.6104230978184
 30
0.0
 11
-1.123700951182399
 21
610.6104230978185
 31
0.0
  0
LINE
  5
1F28
330
85F
100
AcDbEntity
  8
DETAIL
100
AcDbLine
 10
-1.92370095118531
 20
624.6104230978184
 30
0.0
 11
-1.92370095118531
 21
610.6104230978185
 31
0.0
  0
LINE
  5
1F29
330
85F
100
AcDbEntity
  8
DETAIL
100
AcDbLine
 10
-1.973700951180944
 20
610.5238205574408
 30
0.0
 11
-299.4130127019016
 21
438.7971538505794
 31
0.0
  0
LINE
  5
1F2A
330
85F
100
AcDbEntity
  8
DETAIL
100
AcDbLine
 10
-1.573700951179488
 20
609.8310002344127
 30
0.0
 11
-1.76602540379099
 21
609.7199616599303
 31
0.0
  0
LINE
  5
1F2B
330
85F
100
AcDbEntity
  8
DETAIL
100
AcDbLine
 10
-298.1133974596232
 20
438.6237266298526
 30
0.0
 11
-299.0130127019074
 21
438.1043335275522
 31
0.0
  0
LINE
  5
1F2C
330
85F
100
AcDbEntity
  8
DETAIL
100
AcDbLine
 10
-299.0630127019104
 20
438.0177309871728
 30
0.0
 11
-299.0630127019104
 21
421.0177309871729
 31
0.0
  0
ARC
  5
1F2D
330
85F
100
AcDbEntity
  8
DETAIL
100
AcDbCircle
 10
-298.9630127019045
 20
438.0177309871736
 30
0.0
 40
0.0999999999999098
100
AcDbArc
 50
120.0000000000001
 51
180.0
  0
LINE
  5
1F2E
330
85F
100
AcDbEntity
  8
DETAIL
100
AcDbLine
 10
-299.4130127019016
 20
438.7971538505794
 30
0.0
 11
-299.0130127019074
 21
438.1043335275522
 31
0.0
  0
ARC
  5
1F2F
330
85F
100
AcDbEntity
  8
DETAIL
100
AcDbCircle
 10
-298.9630127019045
 20
438.0177309871728
 30
0.0
 40
0.8999999999999268
100
AcDbArc
 50
120.0000000000001
 51
180.0
  0
LINE
  5
1F30
330
85F
100
AcDbEntity
  8
DETAIL
100
AcDbLine
 10
-299.0630127019104
 20
438.0177309871728
 30
0.0
 11
-299.863012701906
 21
438.0177309871728
 31
0.0
  0
LINE
  5
1F31
330
85F
100
AcDbEntity
  8
DETAIL
100
AcDbLine
 10
-1.573700951179488
 20
609.8310002344127
 30
0.0
 11
-1.973700951180944
 21
610.5238205574408
 31
0.0
  0
ARC
  5
1F32
330
85F
100
AcDbEntity
  8
DETAIL
100
AcDbCircle
 10
-2.023700951176579
 20
610.6104230978185
 30
0.0
 40
0.1000000000000039
100
AcDbArc
 50
300.0000000000001
 51
0.0
  0
ARC
  5
1F33
330
85F
100
AcDbEntity
  8
DETAIL
100
AcDbCircle
 10
-2.023700951176579
 20
610.6104230978185
 30
0.0
 40
0.9000000000000037
100
AcDbArc
 50
300.0000000000001
 51
0.0
  0
LINE
  5
1F34
330
85F
100
AcDbEntity
  8
DETAIL
100
AcDbLine
 10
-1.92370095118531
 20
610.6104230978185
 30
0.0
 11
-1.123700951182399
 21
610.6104230978185
 31
0.0
  0
LINE
  5
1F35
330
85F
100
AcDbEntity
  8
NOTE
100
AcDbLine
 10
-8.623700951182398
 20
622.6104230978194
 30
0.0
 11
6.3762990488176
 21
622.6104230978194
 31
0.0
  0
LINE
  5
1F36
330
85F
100
AcDbEntity
  8
NOTE
100
AcDbLine
 10
-7.500000951164111
 20
532.5395769021911
 30
0.0
 11
7.499999048835888
 21
532.5395769021911
 31
0.0
  0
LINE
  5
1F37
330
85F
100
AcDbEntity
  8
NOTE
100
AcDbLine
 10
-7.500000951164111
 20
-79.46042309780887
 30
0.0
 11
7.499999048835888
 21
-79.46042309780887
 31
0.0
  0
LINE
  5
1F38
330
85F
100
AcDbEntity
  8
NOTE
100
AcDbLine
 10
-7.500000951164111
 20
-609.8604230978089
 30
0.0
 11
7.499999048835888
 21
-609.8604230978089
 31
0.0
  0
MTEXT
  5
1F3D
330
85F
100
AcDbEntity
  8
ETC
100
AcDbMText
 10
180.8270895787136
 20
1107.619530546514
 30
0.0
 40
64.0
 41
0.0
 71
     1
 72
     5
  1
{\Fromans,extfont|c128;\W0.9;AGJS-28SL-4}
  7
ADESK1
 73
     1
 44
1.0
1001
ACAD
1000
MTEXTBEGIN
1070
    73
1070
     1
1070
    44
1040
1.0
1070
    74
1070
     0
1000
MTEXTEND
  0
LINE
  5
1F40
330
85F
100
AcDbEntity
  8
ARRANGE
  6
Continuous
 62
     1
100
AcDbLine
 10
-16.68411756440764
 20
-16.684117564404
 30
0.0
 11
16.68411756440036
 21
16.684117564404
 31
0.0
  0
LINE
  5
1F41
330
85F
100
AcDbEntity
  8
ARRANGE
  6
Continuous
 62
     1
100
AcDbLine
 10
-16.68411756440764
 20
16.684117564404
 30
0.0
 11
16.68411756440036
 21
-16.684117564404
 31
0.0
  0
CIRCLE
  5
1F42
330
85F
100
AcDbEntity
  8
ARRANGE
100
AcDbCircle
 10
0.0
 20
0.0
 30
0.0
 40
15.0
  0
LINE
  5
1F43
330
85F
100
AcDbEntity
  8
BASIS
  6
DASHDOT
 62
     6
100
AcDbLine
 10
50.00000000000728
 20
0.0000000000001137
 30
0.0
 11
-349.0
 21
0.0000000000001137
 31
0.0
  0
LINE
  5
1F44
330
85F
100
AcDbEntity
  8
NOTE
100
AcDbLine
 10
0.0
 20
525.0395769021911
 30
0.0
 11
0.0
 21
540.0395769021911
 31
0.0
  0
LINE
  5
1F45
330
85F
100
AcDbEntity
  8
NOTE
100
AcDbLine
 10
0.0
 20
-86.96042309780887
 30
0.0
 11
0.0
 21
-71.96042309780887
 31
0.0
  0
LINE
  5
1F46
330
85F
100
AcDbEntity
  8
NOTE
100
AcDbLine
 10
0.0
 20
-617.3604230978085
 30
0.0
 11
0.0
 21
-602.3604230978085
 31
0.0
  0
LINE
  5
1F47
330
85F
100
AcDbEntity
  8
OUTLINE
100
AcDbLine
 10
-7.0
 20
-154.2604230978004
 30
0.0
 11
-4.0
 21
-157.2604230977999
 31
0.0
  0
LINE
  5
1F48
330
85F
100
AcDbEntity
  8
OUTLINE
100
AcDbLine
 10
-4.0
 20
-135.7604230978004
 30
0.0
 11
-7.0
 21
-138.7604230977999
 31
0.0
  0
LINE
  5
1F49
330
85F
100
AcDbEntity
  8
OUTLINE
100
AcDbLine
 10
-7.0
 20
-154.2604230978004
 30
0.0
 11
-11.0
 21
-154.2604230978004
 31
0.0
  0
LINE
  5
1F4A
330
85F
100
AcDbEntity
  8
OUTLINE
100
AcDbLine
 10
-11.0
 20
-138.7604230977999
 30
0.0
 11
-7.0
 21
-138.7604230977999
 31
0.0
  0
LINE
  5
1F4B
330
85F
100
AcDbEntity
  8
OUTLINE
100
AcDbLine
 10
-11.0
 20
-154.2604230978004
 30
0.0
 11
-11.0
 21
-138.7604230977999
 31
0.0
  0
LINE
  5
1F4C
330
85F
100
AcDbEntity
  8
OUTLINE
100
AcDbLine
 10
-4.0
 20
-135.7604230978004
 30
0.0
 11
-4.0
 21
-119.7604230977999
 31
0.0
  0
LINE
  5
1F4D
330
85F
100
AcDbEntity
  8
OUTLINE
100
AcDbLine
 10
-4.0
 20
-119.7604230977999
 30
0.0
 11
-0.900000000001455
 21
-119.7604230977999
 31
0.0
  0
LINE
  5
1F4E
330
85F
100
AcDbEntity
  8
OUTLINE
100
AcDbLine
 10
-0.900000000001455
 20
-193.7604230978004
 30
0.0
 11
-4.0
 21
-193.7604230978004
 31
0.0
  0
LINE
  5
1F4F
330
85F
100
AcDbEntity
  8
OUTLINE
100
AcDbLine
 10
-4.0
 20
-193.7604230978004
 30
0.0
 11
-4.0
 21
-157.2604230977999
 31
0.0
  0
LINE
  5
1F50
330
85F
100
AcDbEntity
  8
OUTLINE
100
AcDbLine
 10
0.0
 20
-119.7604230977999
 30
0.0
 11
-0.900000000001455
 21
-119.7604230977999
 31
0.0
  0
LINE
  5
1F51
330
85F
100
AcDbEntity
  8
OUTLINE
100
AcDbLine
 10
-0.900000000001455
 20
-193.7604230978004
 30
0.0
 11
0.0
 21
-193.7604230978004
 31
0.0
  0
LINE
  5
1F52
330
85F
100
AcDbEntity
  8
OUTLINE
100
AcDbLine
 10
-0.900000000001455
 20
-119.7604230977999
 30
0.0
 11
-0.900000000001455
 21
609.1807311753869
 31
0.0
  0
LINE
  5
1F53
330
85F
100
AcDbEntity
  8
OUTLINE
100
AcDbLine
 10
-0.900000000001455
 20
-626.0506620825258
 30
0.0
 11
-0.900000000001455
 21
-193.7604230978004
 31
0.0
  0
LINE
  5
1F54
330
85F
100
AcDbEntity
  8
OUTLINE
100
AcDbLine
 10
0.0
 20
609.1807311753877
 30
0.0
 11
0.0
 21
-119.7604230977999
 31
0.0
  0
SPLINE
  5
1F55
330
85F
100
AcDbEntity
  8
OUTLINE
100
AcDbSpline
210
0.0
220
0.0
230
1.0
 70
     8
 71
     3
 72
    11
 73
     7
 74
     0
 42
0.0000000001
 43
0.0000000001
 40
0.0
 40
0.0
 40
0.0
 40
0.0
 40
1.437607986812995
 40
1.437607986812995
 40
1.437607986812995
 40
1.570796326794897
 40
1.570796326794897
 40
1.570796326794897
 40
1.570796326794897
 10
-0.900000000001455
 20
-626.0506620825258
 30
0.0
 10
-0.468717603958794
 20
-626.4197237421073
 30
0.0
 10
-0.0652429258916527
 20
-626.7887854016885
 30
0.0
 10
-0.0079708168486832
 20
-627.1578470612698
 30
0.0
 10
-0.0026647965714801
 20
-627.1920390734467
 30
0.0
 10
0.0
 20
-627.2262310856234
 30
0.0
 10
0.0
 20
-627.2604230978004
 30
0.0
  0
LINE
  5
1F56
330
85F
100
AcDbEntity
  8
OUTLINE
100
AcDbLine
 10
0.0
 20
-193.7604230978004
 30
0.0
 11
0.0
 21
-627.2604230978004
 31
0.0
  0
LINE
  5
1F57
330
85F
100
AcDbEntity
  8
OUTLINE
100
AcDbLine
 10
0.0
 20
-627.2604230978004
 30
0.0
 11
-0.8000000000029102
 21
-627.2604230978004
 31
0.0
  0
SPLINE
  5
1F58
330
85F
100
AcDbEntity
  8
OUTLINE
100
AcDbSpline
210
0.0
220
0.0
230
1.0
 70
     8
 71
     3
 72
     8
 73
     4
 74
     0
 42
0.0000000001
 43
0.0000000001
 40
0.0
 40
0.0
 40
0.0
 40
0.0
 40
1.570796326794897
 40
1.570796326794897
 40
1.570796326794897
 40
1.570796326794897
 10
-0.900000000001455
 20
-626.0506620825258
 30
0.0
 10
-0.8476401224397703
 20
-626.453915754284
 30
0.0
 10
-0.8000000000029102
 20
-626.8571694260422
 30
0.0
 10
-0.8000000000029102
 20
-627.2604230978004
 30
0.0
  0
LINE
  5
1F59
330
85F
100
AcDbEntity
  8
OUTLINE
100
AcDbLine
 10
-0.900000000001455
 20
609.1807311753869
 30
0.0
 11
-1.316025403786625
 21
608.9405387965229
 31
0.0
  0
LINE
  5
1F5A
330
85F
100
AcDbEntity
  8
OUTLINE
100
AcDbLine
 10
-1.316025403786625
 20
608.9405387965229
 30
0.0
 11
-297.6633974596189
 21
437.8443037664468
 31
0.0
  0
LINE
  5
1F5B
330
85F
100
AcDbEntity
  8
OUTLINE
100
AcDbLine
 10
-297.6633974596189
 20
437.8443037664468
 30
0.0
 11
-297.6583974596287
 21
437.8356435124092
 31
0.0
  0
LINE
  5
1F5C
330
85F
100
AcDbEntity
  8
OUTLINE
100
AcDbLine
 10
-297.6583974596287
 20
437.8356435124092
 30
0.0
 11
-298.1999999999971
 21
437.5229491399273
 31
0.0
  0
LINE
  5
1F5D
330
85F
100
AcDbEntity
  8
OUTLINE
100
AcDbLine
 10
-0.8000000000029102
 20
609.1807311753877
 30
0.0
 11
-0.8000000000029102
 21
610.7395769022
 31
0.0
  0
LINE
  5
1F5E
330
85F
100
AcDbEntity
  8
OUTLINE
100
AcDbLine
 10
-0.900000000001455
 20
609.1807311753877
 30
0.0
 11
0.0
 21
609.1807311753877
 31
0.0
  0
LINE
  5
1F5F
330
85F
100
AcDbEntity
  8
OUTLINE
100
AcDbLine
 10
0.0
 20
610.7395769022
 30
0.0
 11
0.0
 21
609.1807311753877
 31
0.0
  0
LINE
  5
1F60
330
85F
100
AcDbEntity
  8
OUTLINE
100
AcDbLine
 10
-298.1133974596232
 20
438.6237266298535
 30
0.0
 11
-1.76602540379099
 21
609.7199616599294
 31
0.0
  0
LINE
  5
1F61
330
85F
100
AcDbEntity
  8
OUTLINE
100
AcDbLine
 10
-1.76602540379099
 20
609.7199616599286
 30
0.0
 11
-1.316025403786625
 21
608.9405387965229
 31
0.0
  0
LINE
  5
1F62
330
85F
100
AcDbEntity
  8
OUTLINE
100
AcDbLine
 10
-298.1133974596232
 20
438.6237266298535
 30
0.0
 11
-297.6633974596189
 21
437.8443037664468
 31
0.0
  0
LINE
  5
1F63
330
85F
100
AcDbEntity
  8
OUTLINE
100
AcDbLine
 10
0.0
 20
610.7395769022
 30
0.0
 11
-0.8000000000029102
 21
610.7395769022
 31
0.0
  0
LINE
  5
1F64
330
85F
100
AcDbEntity
  8
OUTLINE
100
AcDbLine
 10
-298.1999999999971
 20
435.5329491399275
 30
0.0
 11
-298.1999999999971
 21
437.5229491399273
 31
0.0
  0
LINE
  5
1F65
330
85F
100
AcDbEntity
  8
OUTLINE
100
AcDbLine
 10
-298.1999999999971
 20
-226.4262733701471
 30
0.0
 11
-298.1999999999971
 21
-225.4362733701469
 31
0.0
  0
LINE
  5
1F66
330
85F
100
AcDbEntity
  8
OUTLINE
100
AcDbLine
 10
-0.900000000001455
 20
-626.0506620825258
 30
0.0
 11
-298.1999999999971
 21
-226.4262733701471
 31
0.0
  0
LINE
  5
1F67
330
85F
100
AcDbEntity
  8
OUTLINE
100
AcDbLine
 10
-298.1999999999971
 20
435.5329491399275
 30
0.0
 11
-297.2900000000009
 21
435.5329491399275
 31
0.0
  0
LINE
  5
1F68
330
85F
100
AcDbEntity
  8
OUTLINE
100
AcDbLine
 10
-297.2900000000009
 20
435.5329491399275
 30
0.0
 11
-297.2900000000009
 21
435.5229491399271
 31
0.0
  0
LINE
  5
1F69
330
85F
100
AcDbEntity
  8
OUTLINE
100
AcDbLine
 10
-297.2900000000009
 20
435.5229491399271
 30
0.0
 11
-297.3000000000029
 21
435.5229491399271
 31
0.0
  0
LINE
  5
1F6A
330
85F
100
AcDbEntity
  8
OUTLINE
100
AcDbLine
 10
-297.3000000000029
 20
435.5229491399271
 30
0.0
 11
-297.3000000000029
 21
-225.4262733701471
 31
0.0
  0
LINE
  5
1F6B
330
85F
100
AcDbEntity
  8
OUTLINE
100
AcDbLine
 10
-297.3000000000029
 20
-225.4262733701471
 30
0.0
 11
-297.2900000000009
 21
-225.4262733701471
 31
0.0
  0
LINE
  5
1F6C
330
85F
100
AcDbEntity
  8
OUTLINE
100
AcDbLine
 10
-297.2900000000009
 20
-225.4262733701471
 30
0.0
 11
-297.2900000000009
 21
-225.4362733701469
 31
0.0
  0
LINE
  5
1F6D
330
85F
100
AcDbEntity
  8
OUTLINE
100
AcDbLine
 10
-297.2900000000009
 20
-225.4362733701469
 30
0.0
 11
-298.1999999999971
 21
-225.4362733701469
 31
0.0
  0
LINE
  5
1F6E
330
85F
100
AcDbEntity
  8
OUTLINE
100
AcDbLine
 10
-298.1999999999971
 20
-225.4262733701471
 30
0.0
 11
-298.1999999999971
 21
435.5229491399271
 31
0.0
  0
LINE
  5
1F6F
330
85F
100
AcDbEntity
  8
OUTLINE
100
AcDbLine
 10
-298.1999999999971
 20
435.5229491399271
 30
0.0
 11
-297.3000000000029
 21
435.5229491399271
 31
0.0
  0
LINE
  5
1F70
330
85F
100
AcDbEntity
  8
OUTLINE
100
AcDbLine
 10
-298.1999999999971
 20
-225.4262733701471
 30
0.0
 11
-297.3000000000029
 21
-225.4262733701471
 31
0.0
  0
LINE
  5
1F71
330
85F
100
AcDbEntity
  8
OUTLINE
100
AcDbLine
 10
-299.0
 20
-224.4770508600723
 30
0.0
 11
-299.0
 21
-227.4770508600727
 31
0.0
  0
LINE
  5
1F72
330
85F
100
AcDbEntity
  8
OUTLINE
100
AcDbLine
 10
-299.0
 20
-227.4770508600727
 30
0.0
 11
-298.1999999999971
 21
-227.4770508600727
 31
0.0
  0
LINE
  5
1F73
330
85F
100
AcDbEntity
  8
OUTLINE
100
AcDbLine
 10
-298.1999999999971
 20
-227.4770508600727
 30
0.0
 11
-298.1999999999971
 21
-226.4262733701471
 31
0.0
  0
LINE
  5
1F74
330
85F
100
AcDbEntity
  8
OUTLINE
100
AcDbLine
 10
-298.1999999999971
 20
-225.4362733701473
 30
0.0
 11
-298.1999999999971
 21
-225.4262733701476
 31
0.0
  0
LINE
  5
1F75
330
85F
100
AcDbEntity
  8
OUTLINE
100
AcDbLine
 10
-298.1999999999971
 20
-224.4770508600723
 30
0.0
 11
-299.0
 21
-224.4770508600723
 31
0.0
  0
LINE
  5
1F76
330
85F
100
AcDbEntity
  8
OUTLINE
100
AcDbLine
 10
-299.0
 20
436.5229491399272
 30
0.0
 11
-299.0
 21
433.5229491399273
 31
0.0
  0
LINE
  5
1F77
330
85F
100
AcDbEntity
  8
OUTLINE
100
AcDbLine
 10
-299.0
 20
433.5229491399273
 30
0.0
 11
-298.1999999999971
 21
433.5229491399273
 31
0.0
  0
LINE
  5
1F78
330
85F
100
AcDbEntity
  8
OUTLINE
100
AcDbLine
 10
-298.1999999999971
 20
435.5229491399271
 30
0.0
 11
-298.1999999999971
 21
435.5329491399275
 31
0.0
  0
LINE
  5
1F79
330
85F
100
AcDbEntity
  8
OUTLINE
100
AcDbLine
 10
-298.1999999999971
 20
436.5229491399272
 30
0.0
 11
-299.0
 21
436.5229491399272
 31
0.0
  0
LINE
  5
1F7A
330
85F
100
AcDbEntity
  8
OUTLINE
100
AcDbLine
 10
-298.2000000000044
 20
-227.4770508600727
 30
0.0
 11
-297.4182755693182
 21
-227.4770508600727
 31
0.0
  0
LINE
  5
1F7B
330
85F
100
AcDbEntity
  8
OUTLINE
100
AcDbLine
 10
-297.4000000000087
 20
-225.4362733701469
 30
0.0
 11
-297.4000000000087
 21
-225.4262733701471
 31
0.0
  0
LINE
  5
1F7C
330
85F
100
AcDbEntity
  8
OUTLINE
100
AcDbLine
 10
-299.0
 20
433.5229491399273
 30
0.0
 11
-299.0
 21
-224.4770508600723
 31
0.0
  0
LINE
  5
1F7D
330
85F
100
AcDbEntity
  8
OUTLINE
100
AcDbLine
 10
-299.863012701906
 20
421.0177309871736
 30
0.0
 11
-299.8630127019132
 21
418.0177309871746
 31
0.0
  0
LINE
  5
1F7E
330
85F
100
AcDbEntity
  8
OUTLINE
100
AcDbLine
 10
-299.8630127019132
 20
418.0177309871746
 30
0.0
 11
-299.0630127019104
 21
418.0177309871746
 31
0.0
  0
LINE
  5
1F7F
330
85F
100
AcDbEntity
  8
OUTLINE
100
AcDbLine
 10
-299.0630127019104
 20
418.0177309871746
 30
0.0
 11
-299.0630127019104
 21
421.0177309871745
 31
0.0
  0
LINE
  5
1F80
330
85F
100
AcDbEntity
  8
OUTLINE
100
AcDbLine
 10
-299.0630127019104
 20
421.0177309871736
 30
0.0
 11
-299.863012701906
 21
421.0177309871736
 31
0.0
  0
LINE
  5
1F81
330
85F
100
AcDbEntity
  8
OUTLINE
100
AcDbLine
 10
-1.92370095118531
 20
627.6104230978203
 30
0.0
 11
-1.92370095118531
 21
624.6104230978194
 31
0.0
  0
LINE
  5
1F82
330
85F
100
AcDbEntity
  8
OUTLINE
100
AcDbLine
 10
-1.92370095118531
 20
624.6104230978194
 30
0.0
 11
-1.123700951182399
 21
624.6104230978194
 31
0.0
  0
LINE
  5
1F83
330
85F
100
AcDbEntity
  8
OUTLINE
100
AcDbLine
 10
-1.123700951182399
 20
624.6104230978194
 30
0.0
 11
-1.123700951182399
 21
627.6104230978203
 31
0.0
  0
LINE
  5
1F84
330
85F
100
AcDbEntity
  8
OUTLINE
100
AcDbLine
 10
-1.123700951182399
 20
627.6104230978203
 30
0.0
 11
-1.92370095118531
 21
627.6104230978203
 31
0.0
  0
LINE
  5
1F85
330
85F
100
AcDbEntity
  8
OUTLINE
100
AcDbLine
 10
-299.863012701906
 20
438.0177309871736
 30
0.0
 11
-299.863012701906
 21
421.0177309871736
 31
0.0
  0
LINE
  5
1F86
330
85F
100
AcDbEntity
  8
OUTLINE
100
AcDbLine
 10
-1.123700951182399
 20
624.6104230978194
 30
0.0
 11
-1.123700951182399
 21
610.6104230978194
 31
0.0
  0
LINE
  5
1F87
330
85F
100
AcDbEntity
  8
OUTLINE
100
AcDbLine
 10
-1.92370095118531
 20
624.6104230978194
 30
0.0
 11
-1.92370095118531
 21
610.6104230978194
 31
0.0
  0
LINE
  5
1F88
330
85F
100
AcDbEntity
  8
OUTLINE
100
AcDbLine
 10
-1.973700951180944
 20
610.5238205574417
 30
0.0
 11
-299.4130127019016
 21
438.7971538505802
 31
0.0
  0
LINE
  5
1F89
330
85F
100
AcDbEntity
  8
OUTLINE
100
AcDbLine
 10
-1.573700951179488
 20
609.8310002344137
 30
0.0
 11
-1.76602540379099
 21
609.7199616599314
 31
0.0
  0
LINE
  5
1F8A
330
85F
100
AcDbEntity
  8
OUTLINE
100
AcDbLine
 10
-298.1133974596232
 20
438.6237266298535
 30
0.0
 11
-299.0130127019074
 21
438.104333527553
 31
0.0
  0
LINE
  5
1F8B
330
85F
100
AcDbEntity
  8
OUTLINE
100
AcDbLine
 10
-299.0630127019104
 20
438.0177309871736
 30
0.0
 11
-299.0630127019104
 21
421.0177309871736
 31
0.0
  0
ARC
  5
1F8C
330
85F
100
AcDbEntity
  8
OUTLINE
100
AcDbCircle
 10
-298.9630127019045
 20
438.0177309871746
 30
0.0
 40
0.0999999999999098
100
AcDbArc
 50
120.0000000000001
 51
180.0
  0
LINE
  5
1F8D
330
85F
100
AcDbEntity
  8
OUTLINE
100
AcDbLine
 10
-299.4130127019016
 20
438.7971538505802
 30
0.0
 11
-299.0130127019074
 21
438.104333527553
 31
0.0
  0
ARC
  5
1F8E
330
85F
100
AcDbEntity
  8
OUTLINE
100
AcDbCircle
 10
-298.9630127019045
 20
438.0177309871736
 30
0.0
 40
0.8999999999999268
100
AcDbArc
 50
120.0000000000001
 51
180.0
  0
LINE
  5
1F8F
330
85F
100
AcDbEntity
  8
OUTLINE
100
AcDbLine
 10
-299.0630127019104
 20
438.0177309871736
 30
0.0
 11
-299.863012701906
 21
438.0177309871736
 31
0.0
  0
LINE
  5
1F90
330
85F
100
AcDbEntity
  8
OUTLINE
100
AcDbLine
 10
-1.573700951179488
 20
609.8310002344137
 30
0.0
 11
-1.973700951180944
 21
610.5238205574417
 31
0.0
  0
ARC
  5
1F91
330
85F
100
AcDbEntity
  8
OUTLINE
100
AcDbCircle
 10
-2.023700951176579
 20
610.6104230978194
 30
0.0
 40
0.1000000000000039
100
AcDbArc
 50
300.0000000000001
 51
0.0
  0
ARC
  5
1F92
330
85F
100
AcDbEntity
  8
OUTLINE
100
AcDbCircle
 10
-2.023700951176579
 20
610.6104230978194
 30
0.0
 40
0.9000000000000037
100
AcDbArc
 50
300.0000000000001
 51
0.0
  0
LINE
  5
1F93
330
85F
100
AcDbEntity
  8
OUTLINE
100
AcDbLine
 10
-1.92370095118531
 20
610.6104230978194
 30
0.0
 11
-1.123700951182399
 21
610.6104230978194
 31
0.0
  0
LINE
  5
20D2
330
85F
100
AcDbEntity
  8
SIZE
  6
Continuous
100
AcDbLine
 10
18.8762990488176
 20
627.6104230978194
 30
0.0
 11
355.1782263695206
 21
627.6104230978192
 31
0.0
  0
LINE
  5
20D3
330
85F
100
AcDbEntity
  8
SIZE
  6
Continuous
100
AcDbLine
 10
20.0
 20
-627.2604230978013
 30
0.0
 11
355.1782263695204
 21
-627.2604230978013
 31
0.0
  0
LINE
  5
20D4
330
85F
100
AcDbEntity
  8
SIZE
  6
Continuous
100
AcDbLine
 10
335.1782263695207
 20
615.6104230978192
 30
0.0
 11
335.1782263695203
 21
-615.2604230978013
 31
0.0
  0
INSERT
  5
20D5
330
85F
100
AcDbEntity
  8
SIZE
  6
Continuous
100
AcDbBlockReference
  2
_DOTBLANK
 10
335.1782263695207
 20
627.6104230978192
 30
0.0
 41
12.0
 42
12.0
 43
12.0
 50
90.0
  0
INSERT
  5
20D6
330
85F
100
AcDbEntity
  8
SIZE
  6
Continuous
100
AcDbBlockReference
  2
_DOTBLANK
 10
335.1782263695203
 20
-627.2604230978013
 30
0.0
 41
12.0
 42
12.0
 43
12.0
 50
270.0
  0
MTEXT
  5
20D7
330
85F
100
AcDbEntity
  8
SIZE
  6
Continuous
100
AcDbMText
 10
293.1782263695205
 20
0.1750000000090341
 30
0.0
 40
64.0
 41
0.0
 71
     5
 72
     1
  1
\A1;1255
 11
0.0000000000000001
 21
1.0
 31
0.0
 73
     1
 44
1.0
1001
ACAD
1000
MTEXTBEGIN
1070
    73
1070
     1
1070
    44
1040
1.0
1070
    74
1070
     0
1000
MTEXTEND
  0
LINE
  5
20D8
330
85F
100
AcDbEntity
  8
SIZE
  6
Continuous
100
AcDbLine
 10
27.49999904883589
 20
-79.46042309780887
 30
0.0
 11
184.1949026107904
 21
-79.46042309780892
 31
0.0
  0
LINE
  5
20D9
330
85F
100
AcDbEntity
  8
SIZE
  6
Continuous
100
AcDbLine
 10
27.49999904883589
 20
-609.8604230978089
 30
0.0
 11
184.1949026107904
 21
-609.8604230978089
 31
0.0
  0
LINE
  5
20DA
330
85F
100
AcDbEntity
  8
SIZE
  6
Continuous
100
AcDbLine
 10
164.1949026107905
 20
-91.46042309780892
 30
0.0
 11
164.1949026107904
 21
-597.8604230978088
 31
0.0
  0
INSERT
  5
20DB
330
85F
100
AcDbEntity
  8
SIZE
  6
Continuous
100
AcDbBlockReference
  2
_DOTBLANK
 10
164.1949026107905
 20
-79.46042309780892
 30
0.0
 41
12.0
 42
12.0
 43
12.0
 50
90.0
  0
INSERT
  5
20DC
330
85F
100
AcDbEntity
  8
SIZE
  6
Continuous
100
AcDbBlockReference
  2
_DOTBLANK
 10
164.1949026107904
 20
-609.8604230978089
 30
0.0
 41
12.0
 42
12.0
 43
12.0
 50
270.0
  0
MTEXT
  5
20DD
330
85F
100
AcDbEntity
  8
SIZE
  6
Continuous
100
AcDbMText
 10
122.1949026107906
 20
-344.6604230978089
 30
0.0
 40
64.0
 41
0.0
 71
     5
 72
     1
  1
\A1;530
 11
0.0000000000000001
 21
1.0
 31
0.0
 73
     1
 44
1.0
1001
ACAD
1000
MTEXTBEGIN
1070
    73
1070
     1
1070
    44
1040
1.0
1070
    74
1070
     0
1000
MTEXTEND
  0
LINE
  5
20DE
330
85F
100
AcDbEntity
  8
SIZE
  6
Continuous
100
AcDbLine
 10
27.49999904883589
 20
532.5395769021911
 30
0.0
 11
184.1949026107906
 21
532.5395769021911
 31
0.0
  0
LINE
  5
20DF
330
85F
100
AcDbEntity
  8
SIZE
  6
Continuous
100
AcDbLine
 10
27.49999904883589
 20
-79.46042309780887
 30
0.0
 11
184.1949026107904
 21
-79.46042309780892
 31
0.0
  0
LINE
  5
20E0
330
85F
100
AcDbEntity
  8
SIZE
  6
Continuous
100
AcDbLine
 10
164.1949026107906
 20
520.5395769021911
 30
0.0
 11
164.1949026107904
 21
-67.46042309780893
 31
0.0
  0
INSERT
  5
20E1
330
85F
100
AcDbEntity
  8
SIZE
  6
Continuous
100
AcDbBlockReference
  2
_DOTBLANK
 10
164.1949026107906
 20
532.5395769021911
 30
0.0
 41
12.0
 42
12.0
 43
12.0
 50
90.0
  0
INSERT
  5
20E2
330
85F
100
AcDbEntity
  8
SIZE
  6
Continuous
100
AcDbBlockReference
  2
_DOTBLANK
 10
164.1949026107904
 20
-79.46042309780892
 30
0.0
 41
12.0
 42
12.0
 43
12.0
 50
270.0
  0
MTEXT
  5
20E3
330
85F
100
AcDbEntity
  8
SIZE
  6
Continuous
100
AcDbMText
 10
122.1949026107905
 20
226.5395769021911
 30
0.0
 40
64.0
 41
0.0
 71
     5
 72
     1
  1
\A1;612
 11
0.0000000000000001
 21
1.0
 31
0.0
 73
     1
 44
1.0
1001
ACAD
1000
MTEXTBEGIN
1070
    73
1070
     1
1070
    44
1040
1.0
1070
    74
1070
     0
1000
MTEXTEND
  0
TEXT
  5
20E4
330
85F
100
AcDbEntity
  8
NOTE
  6
Continuous
100
AcDbText
 10
134.6390998360293
 20
736.1375181558319
 30
0.0
 40
64.0
  1
8×φ6
 41
0.9
100
AcDbText
1001
ACAD
1000
MTEXTBEGIN
1070
    73
1070
     1
1070
    44
1040
1.0
1070
    74
1070
     0
1000
MTEXTEND
  0
INSERT
  5
20E5
330
85F
100
AcDbEntity
  8
NOTE
100
AcDbBlockReference
  2
_OPEN30
 10
-1.123700951182399
 20
622.6104230978194
 30
0.0
 41
12.0
 42
12.0
 43
12.0
 50
232.325890769332
1001
ACAD
1000
DSTYLE
1002
{
1070
    41
1040
12.0
1070
    42
1040
20.0
1070
    43
1040
200.0
1070
    44
1040
20.0
1070
    73
1070
     0
1070
    74
1070
     0
1070
    77
1070
     1
1070
    78
1070
     8
1070
   140
1040
64.0
1070
   147
1040
50.0
1070
   172
1070
     1
1070
   174
1070
     1
1070
   275
1070
     0
1070
   284
1070
     0
1070
   285
1070
     0
1070
   286
1070
     0
1070
   341
1005
AB7
1070
   342
1005
AB2
1002
}
  0
LWPOLYLINE
  5
20E6
330
85F
100
AcDbEntity
  8
NOTE
100
AcDbPolyline
 90
        3
 70
     0
 43
0.0
 10
6.210332332762648
 20
632.1084205599156
 10
72.63909983602935
 20
718.1375181558319
 10
363.393385550315
 20
718.1375181558319
1001
ACAD
1000
DSTYLE
1002
{
1070
    41
1040
12.0
1070
    42
1040
20.0
1070
    43
1040
200.0
1070
    44
1040
20.0
1070
    73
1070
     0
1070
    74
1070
     0
1070
    77
1070
     1
1070
    78
1070
     8
1070
   140
1040
64.0
1070
   147
1040
50.0
1070
   172
1070
     1
1070
   174
1070
     1
1070
   275
1070
     0
1070
   284
1070
     0
1070
   285
1070
     0
1070
   286
1070
     0
1070
   341
1005
AB7
1070
   342
1005
AB2
1002
}
  0
LINE
  5
20E7
330
85F
100
AcDbEntity
  8
SIZE
  6
Continuous
100
AcDbLine
 10
0.0000000000000012
 20
630.7395769021991
 30
0.0
 11
0.0000000000000093
 21
763.2032809735115
 31
0.0
  0
LINE
  5
20E8
330
85F
100
AcDbEntity
  8
SIZE
  6
Continuous
100
AcDbLine
 10
-299.863012701906
 20
458.0177309871728
 30
0.0
 11
-299.863012701906
 21
763.2032809735115
 31
0.0
  0
LINE
  5
20E9
330
85F
100
AcDbEntity
  8
SIZE
  6
Continuous
100
AcDbLine
 10
-11.99999999999999
 20
743.2032809735114
 30
0.0
 11
-287.863012701906
 21
743.2032809735114
 31
0.0
  0
INSERT
  5
20EA
330
85F
100
AcDbEntity
  8
SIZE
  6
Continuous
100
AcDbBlockReference
  2
_DOTBLANK
 10
0.0000000000000081
 20
743.2032809735114
 30
0.0
 41
12.0
 42
12.0
 43
12.0
  0
INSERT
  5
20EB
330
85F
100
AcDbEntity
  8
SIZE
  6
Continuous
100
AcDbBlockReference
  2
_DOTBLANK
 10
-299.863012701906
 20
743.2032809735114
 30
0.0
 41
12.0
 42
12.0
 43
12.0
 50
180.0
  0
MTEXT
  5
20EC
330
85F
100
AcDbEntity
  8
SIZE
  6
Continuous
100
AcDbMText
 10
-149.931506350953
 20
785.2032809735113
 30
0.0
 40
64.0
 41
0.0
 71
     5
 72
     1
  1
\A1;300
 73
     1
 44
1.0
1001
ACAD
1000
MTEXTBEGIN
1070
    73
1070
     1
1070
    44
1040
1.0
1070
    74
1070
     0
1000
MTEXTEND
  0
ENDSEC
  0
SECTION
  2
OBJECTS
  0
DICTIONARY
  5
84D
330
0
100
AcDbDictionary
281
     1
  3
ACAD_2007HEADERVARS_RT
350
20EF
  3
ACAD_COLOR
350
114B
  3
ACAD_GROUP
350
84E
  3
ACAD_LAYOUT
350
85A
  3
ACAD_MATERIAL
350
114A
  3
ACAD_MLEADERSTYLE
350
12E8
  3
ACAD_MLINESTYLE
350
857
  3
ACAD_PLOTSETTINGS
350
859
  3
ACAD_PLOTSTYLENAME
350
B82
  3
ACAD_SCALELIST
350
12C6
  3
ACAD_TABLESTYLE
350
114C
  3
ACAD_VISUALSTYLE
350
12B5
  3
AcadDim
350
E9C
  3
ACDB_RECOMPOSE_DATA
350
14CC
  3
AcDbVariableDictionary
350
B87
  3
AcmDictionary
350
1212
  3
AMG
350
1151
  3
AMGSNAPSETTINGS
350
1268
  3
DWGPROPS
350
20EE
1001
ACAD
1000
TREAT_AS_HARD
1070
     0
  0
DICTIONARY
  5
17C1
330
843
100
AcDbDictionary
280
     1
281
     1
  3
ACAD_LAYERSTATES
360
17C2
  0
DICTIONARY
  5
14B1
330
851
100
AcDbDictionary
280
     1
281
     1
  3
ADSK_XREC_LAYER_RECONCILED
360
14B2
  0
DICTIONARY
  5
14B3
330
863
100
AcDbDictionary
280
     1
281
     1
  3
ADSK_XREC_LAYER_RECONCILED
360
14B4
  0
DICTIONARY
  5
14B5
330
866
100
AcDbDictionary
280
     1
281
     1
  3
ADSK_XREC_LAYER_RECONCILED
360
14B6
  0
DICTIONARY
  5
14B7
330
867
100
AcDbDictionary
280
     1
281
     1
  3
ADSK_XREC_LAYER_RECONCILED
360
14B8
  0
DICTIONARY
  5
14B9
330
868
100
AcDbDictionary
280
     1
281
     1
  3
ADSK_XREC_LAYER_RECONCILED
360
14BA
  0
DICTIONARY
  5
14BB
330
869
100
AcDbDictionary
280
     1
281
     1
  3
ADSK_XREC_LAYER_RECONCILED
360
14BC
  0
DICTIONARY
  5
14BD
330
86B
100
AcDbDictionary
280
     1
281
     1
  3
ADSK_XREC_LAYER_RECONCILED
360
14BE
  0
DICTIONARY
  5
14BF
330
86C
100
AcDbDictionary
280
     1
281
     1
  3
ADSK_XREC_LAYER_RECONCILED
360
14C0
  0
DICTIONARY
  5
14C1
330
86D
100
AcDbDictionary
280
     1
281
     1
  3
ADSK_XREC_LAYER_RECONCILED
360
14C2
  0
DICTIONARY
  5
14C3
330
86E
100
AcDbDictionary
280
     1
281
     1
  3
ADSK_XREC_LAYER_RECONCILED
360
14C4
  0
DICTIONARY
  5
14C5
330
86F
100
AcDbDictionary
280
     1
281
     1
  3
ADSK_XREC_LAYER_RECONCILED
360
14C6
  0
DICTIONARY
  5
B4F
330
85F
100
AcDbDictionary
280
     1
281
     1
  3
ACAD_INDEX
360
126F
  3
ACAD_LAYOUTSELFREF
360
B50
  3
ACAD_SORTENTS
360
1297
  0
DICTIONARY
  5
B4D
330
85B
100
AcDbDictionary
280
     1
281
     1
  3
ACAD_LAYOUTSELFREF
360
B4E
  0
DICTIONARY
  5
20EF
102
{ACAD_REACTORS
330
84D
102
}
330
84D
100
AcDbDictionary
281
     1
  3
DIMARCSYM
350
20F0
  3
DIMLTEX1
350
20F2
  3
DIMLTEX2
350
20F3
  3
DIMLTYPE
350
20F1
  0
DICTIONARY
  5
114B
102
{ACAD_REACTORS
330
84D
102
}
330
84D
100
AcDbDictionary
281
     1
  0
DICTIONARY
  5
84E
102
{ACAD_REACTORS
330
84D
102
}
330
84D
100
AcDbDictionary
281
     1
1001
ACAD
1000
TREAT_AS_HARD
1070
     0
  0
DICTIONARY
  5
85A
102
{ACAD_REACTORS
330
84D
102
}
330
84D
100
AcDbDictionary
281
     1
  3
Model
350
B84
  3
ﾚｲｱｳﾄ1
350
B85
1001
ACAD
1000
TREAT_AS_HARD
1070
     0
  0
DICTIONARY
  5
114A
102
{ACAD_REACTORS
330
84D
102
}
330
84D
100
AcDbDictionary
281
     1
  3
ByBlock
350
12A5
  3
ByLayer
350
129D
  3
Global
350
12AD
  0
DICTIONARY
  5
12E8
102
{ACAD_REACTORS
330
84D
102
}
330
84D
100
AcDbDictionary
281
     1
  3
Standard
350
12E9
  0
DICTIONARY
  5
857
102
{ACAD_REACTORS
330
84D
102
}
330
84D
100
AcDbDictionary
281
     1
  3
STANDARD
350
858
1001
ACAD
1000
TREAT_AS_HARD
1070
     0
  0
DICTIONARY
  5
859
102
{ACAD_REACTORS
330
84D
102
}
330
84D
100
AcDbDictionary
281
     1
1001
ACAD
1000
TREAT_AS_HARD
1070
     0
  0
ACDBDICTIONARYWDFLT
  5
B82
102
{ACAD_REACTORS
330
84D
102
}
330
84D
100
AcDbDictionary
281
     1
  3
Normal
350
B83
100
AcDbDictionaryWithDefault
340
B83
  0
DICTIONARY
  5
12C6
102
{ACAD_REACTORS
330
84D
102
}
330
84D
100
AcDbDictionary
281
     1
  3
A0
350
12C7
  3
A1
350
12C8
  3
A2
350
12C9
  3
A3
350
12CA
  3
A4
350
12CB
  3
A5
350
12CC
  3
A6
350
12CD
  3
A7
350
12CE
  3
A8
350
12CF
  3
A9
350
12D0
  3
B0
350
12D1
  3
B1
350
12D2
  3
B2
350
12D3
  3
B3
350
12D4
  3
B4
350
12D5
  3
B5
350
12D6
  3
B6
350
12D7
  3
B7
350
12D8
  3
B8
350
12D9
  3
B9
350
12DA
  3
C0
350
12DB
  3
C1
350
12DC
  3
C2
350
12DD
  3
C3
350
12DE
  3
C4
350
12DF
  3
C5
350
12E0
  3
C6
350
12E1
  3
C7
350
12E2
  3
C8
350
12E3
  3
C9
350
12E4
  3
D0
350
12E5
  3
D1
350
12E6
  3
D2
350
12E7
  0
DICTIONARY
  5
114C
102
{ACAD_REACTORS
330
84D
102
}
330
84D
100
AcDbDictionary
281
     1
  3
Standard
350
114D
  0
DICTIONARY
  5
12B5
102
{ACAD_REACTORS
330
84D
102
}
330
84D
100
AcDbDictionary
281
     1
  3
2dWireframe
350
12BB
  3
3D Hidden
350
12BD
  3
3dWireframe
350
12BC
  3
Basic
350
12BA
  3
Brighten
350
12C1
  3
ColorChange
350
12C5
  3
Conceptual
350
12BE
  3
Dim
350
12C0
  3
Facepattern
350
12C4
  3
Flat
350
12B6
  3
FlatWithEdges
350
12B7
  3
Gouraud
350
12B8
  3
GouraudWithEdges
350
12B9
  3
Linepattern
350
12C3
  3
Realistic
350
12BF
  3
Thicken
350
12C2
  0
XRECORD
  5
E9C
102
{ACAD_REACTORS
330
84D
102
}
330
84D
100
AcDbXrecord
280
     1
 90
   990106
  3

 60
     0
 61
     0
 62
     1
 63
     3
 64
     0
 65
     0
 66
     0
 67
     3
 68
     1
 69
     0
 70
     0
 71
     0
 72
     0
 40
0.0
170
     0
340
E9E
  0
XRECORD
  5
14CC
102
{ACAD_REACTORS
330
84D
102
}
330
84D
100
AcDbXrecord
280
     1
 90
        1
330
114D
  0
DICTIONARY
  5
B87
102
{ACAD_REACTORS
330
84D
102
}
330
84D
100
AcDbDictionary
281
     1
  3
CANNOSCALE
350
14C8
  3
CMLEADERSTYLE
350
14C7
  3
CTABLESTYLE
350
127D
  3
DIMASSOC
350
B88
  3
INDEXCTL
350
127E
  3
PROJECTNAME
350
127F
  3
SORTENTS
350
14C9
  0
DICTIONARY
  5
1212
102
{ACAD_REACTORS
330
84D
102
}
330
84D
100
AcDbDictionary
281
     1
  3
AcmStdDictionary
350
121E
  3
AMDTSECTSYM_ARROWCOLOR
350
123E
  0
DICTIONARY
  5
1151
102
{ACAD_REACTORS
330
84D
102
}
330
84D
100
AcDbDictionary
281
     1
  3
AcMgSettings
350
1152
  0
DICTIONARY
  5
1268
102
{ACAD_REACTORS
330
84D
102
}
330
84D
100
AcDbDictionary
281
     1
  3
DIMENSION
350
126D
  3
FEA
350
126C
  3
HATCH (1)
350
1269
  3
HATCH (2)
350
126A
  3
SIMPLE WELD
350
126E
  3
SYMBOLS
350
126B
  0
XRECORD
  5
20EE
102
{ACAD_REACTORS
330
84D
102
}
330
84D
100
AcDbXrecord
280
     1
  1
DWGPROPS COOKIE
  2

  3

  4

  6

  7

  8
A988006
  9

300
AmdtFileType=84
301
=
302
=
303
=
304
=
305
=
306
=
307
=
308
=
309
=
 40
0.7478375810185185
 41
2452321.396199653
 42
2456533.551236181
  1

 90
        1
  0
DICTIONARY
  5
17C2
102
{ACAD_REACTORS
330
17C1
102
}
330
17C1
100
AcDbDictionary
281
     1
  0
XRECORD
  5
14B2
102
{ACAD_REACTORS
330
14B1
102
}
330
14B1
100
AcDbXrecord
280
     1
290
     1
  0
XRECORD
  5
14B4
102
{ACAD_REACTORS
330
14B3
102
}
330
14B3
100
AcDbXrecord
280
     1
290
     1
  0
XRECORD
  5
14B6
102
{ACAD_REACTORS
330
14B5
102
}
330
14B5
100
AcDbXrecord
280
     1
290
     1
  0
XRECORD
  5
14B8
102
{ACAD_REACTORS
330
14B7
102
}
330
14B7
100
AcDbXrecord
280
     1
290
     1
  0
XRECORD
  5
14BA
102
{ACAD_REACTORS
330
14B9
102
}
330
14B9
100
AcDbXrecord
280
     1
290
     1
  0
XRECORD
  5
14BC
102
{ACAD_REACTORS
330
14BB
102
}
330
14BB
100
AcDbXrecord
280
     1
290
     1
  0
XRECORD
  5
14BE
102
{ACAD_REACTORS
330
14BD
102
}
330
14BD
100
AcDbXrecord
280
     1
290
     1
  0
XRECORD
  5
14C0
102
{ACAD_REACTORS
330
14BF
102
}
330
14BF
100
AcDbXrecord
280
     1
290
     1
  0
XRECORD
  5
14C2
102
{ACAD_REACTORS
330
14C1
102
}
330
14C1
100
AcDbXrecord
280
     1
290
     1
  0
XRECORD
  5
14C4
102
{ACAD_REACTORS
330
14C3
102
}
330
14C3
100
AcDbXrecord
280
     1
290
     1
  0
XRECORD
  5
14C6
102
{ACAD_REACTORS
330
14C5
102
}
330
14C5
100
AcDbXrecord
280
     1
290
     1
  0
DICTIONARY
  5
126F
102
{ACAD_REACTORS
330
B4F
102
}
330
B4F
100
AcDbDictionary
281
     1
  3
*A1
350
1270
  0
XRECORD
  5
B50
102
{ACAD_REACTORS
330
B4F
102
}
330
B4F
100
AcDbXrecord
280
     1
340
85F
  0
SORTENTSTABLE
  5
1297
102
{ACAD_REACTORS
330
B4F
102
}
330
B4F
100
AcDbSortentsTable
330
85F
331
1F83
  5
20DC
331
1F52
  5
1F6D
331
1F41
  5
1F5C
331
1F69
  5
1F84
331
1F58
  5
1F73
331
20DF
  5
1F3D
331
1F28
  5
1F28
331
1F17
  5
1F17
331
1F06
  5
1F06
331
1EF5
  5
1EF5
331
1F84
  5
20DD
331
1F53
  5
1F6E
331
1F42
  5
1F5D
331
1F6A
  5
1F85
331
1F59
  5
1F74
331
20E0
  5
1F3E
331
1F29
  5
1F29
331
1F18
  5
1F18
331
1F07
  5
1F07
331
1EF6
  5
1EF6
331
1F85
  5
20DE
331
1F54
  5
1F6F
331
1F43
  5
1F5E
331
1F6B
  5
1F86
331
1F5A
  5
1F75
331
20E1
  5
1F3F
331
1F2A
  5
1F2A
331
1F19
  5
1F19
331
1F08
  5
1F08
331
1EF7
  5
1EF7
331
1F86
  5
20DF
331
1F55
  5
1F70
331
1F44
  5
1F5F
331
1F6C
  5
1F87
331
1F5B
  5
1F76
331
20E2
  5
1F40
331
1F38
  5
1F38
331
1F2B
  5
1F2B
331
1F1A
  5
1F1A
331
1F09
  5
1F09
331
1EF8
  5
1EF8
331
1F90
  5
20E9
331
1F87
  5
20E0
331
1F56
  5
1F71
331
1F45
  5
1F60
331
1F6D
  5
1F88
331
1F5C
  5
1F77
331
20E3
  5
1F41
331
20D2
  5
1F48
331
1F2C
  5
1F2C
331
1F1B
  5
1F1B
331
1F0A
  5
1F0A
331
1EF9
  5
1EF9
331
1EE8
  5
1EE8
331
1F91
  5
20EA
331
1F88
  5
20E1
331
1F57
  5
1F72
331
1F46
  5
1F61
331
1F6E
  5
1F89
331
1F5D
  5
1F78
331
20E4
  5
1F5A
331
20D3
  5
1F49
331
1F2D
  5
1F2D
331
1F1C
  5
1F1C
331
1F0B
  5
1F0B
331
1EFA
  5
1EFA
331
1EE9
  5
1EE9
331
1F92
  5
20EB
331
1F89
  5
20E2
331
1F78
  5
1F93
331
1F47
  5
1F62
331
1F6F
  5
1F8A
331
1F5E
  5
1F79
331
20E5
  5
1F58
331
20D4
  5
1F4A
331
1F2E
  5
1F2E
331
1F1D
  5
1F1D
331
1F0C
  5
1F0C
331
1EFB
  5
1EFB
331
1EEA
  5
1EEA
331
1F93
  5
20EC
331
1F70
  5
1F8B
331
1F8A
  5
20E3
331
1F79
  5
20D2
331
1F48
  5
1F63
331
1F5F
  5
1F7A
331
20E6
  5
1F59
331
20D5
  5
1F4B
331
1F2F
  5
1F2F
331
1F1E
  5
1F1E
331
1F0D
  5
1F0D
331
1EFC
  5
1EFC
331
1EEB
  5
1EEB
331
1F71
  5
1F8C
331
1F60
  5
1F7B
331
1F8B
  5
20E4
331
1F7A
  5
20D3
331
1F49
  5
1F64
331
1F3D
  5
1F57
331
20E7
  5
1F4F
331
20D6
  5
1F4C
331
1F30
  5
1F30
331
1F1F
  5
1F1F
331
1F0E
  5
1F0E
331
1EFD
  5
1EFD
331
1EEC
  5
1EEC
331
953
  5
953
331
1F72
  5
1F8D
331
1F61
  5
1F7C
331
20E8
  5
1F52
331
1F8C
  5
20E5
331
1F7B
  5
20D4
331
1F4A
  5
1F65
331
20D7
  5
1F4D
331
1F31
  5
1F31
331
1F20
  5
1F20
331
1F0F
  5
1F0F
331
1EFE
  5
1EFE
331
1EED
  5
1EED
331
954
  5
954
331
1F73
  5
1F8E
331
1F62
  5
1F7D
331
20E9
  5
1F53
331
20D8
  5
1F42
331
1F8D
  5
20E6
331
1F7C
  5
20D5
331
1F4B
  5
1F66
331
1F32
  5
1F32
331
1F21
  5
1F21
331
1F10
  5
1F10
331
1EFF
  5
1EFF
331
1EEE
  5
1EEE
331
955
  5
955
331
1F74
  5
1F8F
331
1F63
  5
1F7E
331
20EA
  5
1F54
331
20D9
  5
1F43
331
1F8E
  5
20E7
331
1F7D
  5
20D6
331
1F4C
  5
1F67
331
1F33
  5
1F33
331
1F22
  5
1F22
331
1F11
  5
1F11
331
1F00
  5
1F00
331
1EEF
  5
1EEF
331
956
  5
956
331
1F75
  5
1F90
331
1F64
  5
1F7F
331
20EB
  5
1F55
331
20DA
  5
1F44
331
1F8F
  5
20E8
331
1F7E
  5
20D7
331
1F4D
  5
1F68
331
1F34
  5
1F34
331
1F23
  5
1F23
331
1F12
  5
1F12
331
1F01
  5
1F01
331
1EF0
  5
1EF0
331
957
  5
957
331
1F76
  5
1F91
331
1F65
  5
1F80
331
20EC
  5
1F56
331
20DB
  5
1F45
331
1F7F
  5
20D8
331
1F4E
  5
1F69
331
1F35
  5
1F35
331
1F24
  5
1F24
331
1F13
  5
1F13
331
1F02
  5
1F02
331
1EF1
  5
1EF1
331
958
  5
958
331
1F80
  5
20D9
331
1F77
  5
1F92
331
1F66
  5
1F81
331
20DC
  5
1F46
331
1F4F
  5
1F6A
331
1F36
  5
1F36
331
1F25
  5
1F25
331
1F14
  5
1F14
331
1F03
  5
1F03
331
1EF2
  5
1EF2
331
1F81
  5
20DA
331
1F50
  5
1F6B
331
1F67
  5
1F82
331
20DD
  5
1F47
331
1F37
  5
1F37
331
1F26
  5
1F26
331
1F15
  5
1F15
331
1F04
  5
1F04
331
1EF3
  5
1EF3
331
1F82
  5
20DB
331
1F51
  5
1F6C
331
1F40
  5
1F5B
331
1F68
  5
1F83
331
20DE
  5
1F3C
331
1F27
  5
1F27
331
1F16
  5
1F16
331
1F05
  5
1F05
331
1EF4
  5
1EF4
  0
XRECORD
  5
B4E
102
{ACAD_REACTORS
330
B4D
102
}
330
B4D
100
AcDbXrecord
280
     1
340
85B
  0
XRECORD
  5
20F0
102
{ACAD_REACTORS
330
20EF
102
}
330
20EF
100
AcDbXrecord
280
     1
 70
     1
  0
XRECORD
  5
20F2
102
{ACAD_REACTORS
330
20EF
102
}
330
20EF
100
AcDbXrecord
280
     1
340
854
  0
XRECORD
  5
20F3
102
{ACAD_REACTORS
330
20EF
102
}
330
20EF
100
AcDbXrecord
280
     1
340
854
  0
XRECORD
  5
20F1
102
{ACAD_REACTORS
330
20EF
102
}
330
20EF
100
AcDbXrecord
280
     1
340
854
  0
LAYOUT
  5
B84
102
{ACAD_XDICTIONARY
360
20F4
102
}
102
{ACAD_REACTORS
330
85A
102
}
330
85A
100
AcDbPlotSettings
  1

  2
\\Server02\EPSON LP-9600SPD (3F)
  4

  6

 40
0.0
 41
0.0
 42
0.0
 43
0.0
 44
0.0
 45
0.0
 46
0.0
 47
0.0
 48
0.0
 49
0.0
140
0.0
141
0.0
142
1.0
143
1.0
 70
  1712
 72
     0
 73
     0
 74
     0
  7

 75
     0
147
1.0
148
0.0
149
0.0
100
AcDbLayout
  1
Model
 70
     1
 71
     0
 10
0.0
 20
0.0
 11
12.0
 21
9.0
 12
0.0
 22
0.0
 32
0.0
 14
0.0
 24
0.0
 34
0.0
 15
0.0
 25
0.0
 35
0.0
146
0.0
 13
0.0
 23
0.0
 33
0.0
 16
1.0
 26
0.0
 36
0.0
 17
0.0
 27
1.0
 37
0.0
 76
     0
330
85F
331
1298
  0
LAYOUT
  5
B85
102
{ACAD_XDICTIONARY
360
20F6
102
}
102
{ACAD_REACTORS
330
85A
102
}
330
85A
100
AcDbPlotSettings
  1

  2
\\Server02\EPSON LP-9600SPD (3F)
  4

  6

 40
0.0
 41
0.0
 42
0.0
 43
0.0
 44
0.0
 45
0.0
 46
0.0
 47
0.0
 48
0.0
 49
0.0
140
0.0
141
0.0
142
1.0
143
1.0
 70
   688
 72
     0
 73
     0
 74
     5
  7

 75
    16
147
1.0
148
0.0
149
0.0
100
AcDbLayout
  1
ﾚｲｱｳﾄ1
 70
     1
 71
     1
 10
0.0
 20
0.0
 11
12.0
 21
9.0
 12
0.0
 22
0.0
 32
0.0
 14
1.000000000000000E+20
 24
1.000000000000000E+20
 34
1.000000000000000E+20
 15
-1.000000000000000E+20
 25
-1.000000000000000E+20
 35
-1.000000000000000E+20
146
0.0
 13
0.0
 23
0.0
 33
0.0
 16
1.0
 26
0.0
 36
0.0
 17
0.0
 27
1.0
 37
0.0
 76
     0
330
85B
  0
MATERIAL
  5
12A5
102
{ACAD_XDICTIONARY
360
12A6
102
}
102
{ACAD_REACTORS
330
114A
102
}
330
114A
100
AcDbMaterial
  1
ByBlock
 72
     0
 43
0.0208333333333333
 43
0.0
 43
0.0
 43
0.0
 43
0.0
 43
0.0208333333333333
 43
0.0
 43
0.0
 43
0.0
 43
0.0
 43
1.0
 43
0.0
 43
0.0
 43
0.0
 43
0.0
 43
1.0
 77
     0
 47
0.0208333333333333
 47
0.0
 47
0.0
 47
0.0
 47
0.0
 47
0.0208333333333333
 47
0.0
 47
0.0
 47
0.0
 47
0.0
 47
1.0
 47
0.0
 47
0.0
 47
0.0
 47
0.0
 47
1.0
171
     0
 49
0.0208333333333333
 49
0.0
 49
0.0
 49
0.0
 49
0.0
 49
0.0208333333333333
 49
0.0
 49
0.0
 49
0.0
 49
0.0
 49
1.0
 49
0.0
 49
0.0
 49
0.0
 49
0.0
 49
1.0
175
     0
142
0.0208333333333333
142
0.0
142
0.0
142
0.0
142
0.0
142
0.0208333333333333
142
0.0
142
0.0
142
0.0
142
0.0
142
1.0
142
0.0
142
0.0
142
0.0
142
0.0
142
1.0
179
     0
144
0.0208333333333333
144
0.0
144
0.0
144
0.0
144
0.0
144
0.0208333333333333
144
0.0
144
0.0
144
0.0
144
0.0
144
1.0
144
0.0
144
0.0
144
0.0
144
0.0
144
1.0
147
0.0208333333333333
147
0.0
147
0.0
147
0.0
147
0.0
147
0.0208333333333333
147
0.0
147
0.0
147
0.0
147
0.0
147
1.0
147
0.0
147
0.0
147
0.0
147
0.0
147
1.0
  0
MATERIAL
  5
129D
102
{ACAD_XDICTIONARY
360
129E
102
}
102
{ACAD_REACTORS
330
114A
102
}
330
114A
100
AcDbMaterial
  1
ByLayer
 72
     0
 43
0.0208333333333333
 43
0.0
 43
0.0
 43
0.0
 43
0.0
 43
0.0208333333333333
 43
0.0
 43
0.0
 43
0.0
 43
0.0
 43
1.0
 43
0.0
 43
0.0
 43
0.0
 43
0.0
 43
1.0
 77
     0
 47
0.0208333333333333
 47
0.0
 47
0.0
 47
0.0
 47
0.0
 47
0.0208333333333333
 47
0.0
 47
0.0
 47
0.0
 47
0.0
 47
1.0
 47
0.0
 47
0.0
 47
0.0
 47
0.0
 47
1.0
171
     0
 49
0.0208333333333333
 49
0.0
 49
0.0
 49
0.0
 49
0.0
 49
0.0208333333333333
 49
0.0
 49
0.0
 49
0.0
 49
0.0
 49
1.0
 49
0.0
 49
0.0
 49
0.0
 49
0.0
 49
1.0
175
     0
142
0.0208333333333333
142
0.0
142
0.0
142
0.0
142
0.0
142
0.0208333333333333
142
0.0
142
0.0
142
0.0
142
0.0
142
1.0
142
0.0
142
0.0
142
0.0
142
0.0
142
1.0
179
     0
144
0.0208333333333333
144
0.0
144
0.0
144
0.0
144
0.0
144
0.0208333333333333
144
0.0
144
0.0
144
0.0
144
0.0
144
1.0
144
0.0
144
0.0
144
0.0
144
0.0
144
1.0
147
0.0208333333333333
147
0.0
147
0.0
147
0.0
147
0.0
147
0.0208333333333333
147
0.0
147
0.0
147
0.0
147
0.0
147
1.0
147
0.0
147
0.0
147
0.0
147
0.0
147
1.0
  0
MATERIAL
  5
12AD
102
{ACAD_XDICTIONARY
360
12AE
102
}
102
{ACAD_REACTORS
330
114A
102
}
330
114A
100
AcDbMaterial
  1
Global
 72
     0
 43
0.0208333333333333
 43
0.0
 43
0.0
 43
0.0
 43
0.0
 43
0.0208333333333333
 43
0.0
 43
0.0
 43
0.0
 43
0.0
 43
1.0
 43
0.0
 43
0.0
 43
0.0
 43
0.0
 43
1.0
 77
     0
 47
0.0208333333333333
 47
0.0
 47
0.0
 47
0.0
 47
0.0
 47
0.0208333333333333
 47
0.0
 47
0.0
 47
0.0
 47
0.0
 47
1.0
 47
0.0
 47
0.0
 47
0.0
 47
0.0
 47
1.0
171
     0
 49
0.0208333333333333
 49
0.0
 49
0.0
 49
0.0
 49
0.0
 49
0.0208333333333333
 49
0.0
 49
0.0
 49
0.0
 49
0.0
 49
1.0
 49
0.0
 49
0.0
 49
0.0
 49
0.0
 49
1.0
175
     0
142
0.0208333333333333
142
0.0
142
0.0
142
0.0
142
0.0
142
0.0208333333333333
142
0.0
142
0.0
142
0.0
142
0.0
142
1.0
142
0.0
142
0.0
142
0.0
142
0.0
142
1.0
179
     0
144
0.0208333333333333
144
0.0
144
0.0
144
0.0
144
0.0
144
0.0208333333333333
144
0.0
144
0.0
144
0.0
144
0.0
144
1.0
144
0.0
144
0.0
144
0.0
144
0.0
144
1.0
147
0.0208333333333333
147
0.0
147
0.0
147
0.0
147
0.0
147
0.0208333333333333
147
0.0
147
0.0
147
0.0
147
0.0
147
1.0
147
0.0
147
0.0
147
0.0
147
0.0
147
1.0
  0
MLEADERSTYLE
  5
12E9
102
{ACAD_REACTORS
330
12E8
102
}
330
12E8
100
AcDbMLeaderStyle
170
     2
171
     1
172
     0
 90
        2
 40
0.0
 41
0.0
173
     1
 91
-1056964608
340
854
 92
       -2
290
     1
 42
0.09
291
     1
 43
0.36
  3
Standard
 44
0.18
300

342
852
174
     1
178
     6
175
     1
176
     0
 93
-1056964608
 45
0.18
292
     0
297
     0
 46
0.18
 94
-1056964608
 47
1.0
 49
1.0
140
1.0
293
     1
141
0.0
294
     1
177
     0
142
1.0
295
     0
296
     0
143
0.125
1001
ACAD_MLEADERVER
1070
     2
  0
MLINESTYLE
  5
858
102
{ACAD_REACTORS
330
857
102
}
330
857
100
AcDbMlineStyle
  2
STANDARD
 70
     0
  3

 62
   256
 51
90.0
 52
90.0
 71
     2
 49
0.5
 62
   256
  6
BYLAYER
 49
-0.5
 62
   256
  6
BYLAYER
  0
ACDBPLACEHOLDER
  5
B83
102
{ACAD_REACTORS
330
B82
102
}
330
B82
  0
SCALE
  5
12C7
102
{ACAD_REACTORS
330
12C6
102
}
330
12C6
100
AcDbScale
 70
     0
300
1:1
140
1.0
141
1.0
290
     1
  0
SCALE
  5
12C8
102
{ACAD_REACTORS
330
12C6
102
}
330
12C6
100
AcDbScale
 70
     0
300
1:2
140
1.0
141
2.0
290
     0
  0
SCALE
  5
12C9
102
{ACAD_REACTORS
330
12C6
102
}
330
12C6
100
AcDbScale
 70
     0
300
1:4
140
1.0
141
4.0
290
     0
  0
SCALE
  5
12CA
102
{ACAD_REACTORS
330
12C6
102
}
330
12C6
100
AcDbScale
 70
     0
300
1:5
140
1.0
141
5.0
290
     0
  0
SCALE
  5
12CB
102
{ACAD_REACTORS
330
12C6
102
}
330
12C6
100
AcDbScale
 70
     0
300
1:8
140
1.0
141
8.0
290
     0
  0
SCALE
  5
12CC
102
{ACAD_REACTORS
330
12C6
102
}
330
12C6
100
AcDbScale
 70
     0
300
1:10
140
1.0
141
10.0
290
     0
  0
SCALE
  5
12CD
102
{ACAD_REACTORS
330
12C6
102
}
330
12C6
100
AcDbScale
 70
     0
300
1:16
140
1.0
141
16.0
290
     0
  0
SCALE
  5
12CE
102
{ACAD_REACTORS
330
12C6
102
}
330
12C6
100
AcDbScale
 70
     0
300
1:20
140
1.0
141
20.0
290
     0
  0
SCALE
  5
12CF
102
{ACAD_REACTORS
330
12C6
102
}
330
12C6
100
AcDbScale
 70
     0
300
1:30
140
1.0
141
30.0
290
     0
  0
SCALE
  5
12D0
102
{ACAD_REACTORS
330
12C6
102
}
330
12C6
100
AcDbScale
 70
     0
300
1:40
140
1.0
141
40.0
290
     0
  0
SCALE
  5
12D1
102
{ACAD_REACTORS
330
12C6
102
}
330
12C6
100
AcDbScale
 70
     0
300
1:50
140
1.0
141
50.0
290
     0
  0
SCALE
  5
12D2
102
{ACAD_REACTORS
330
12C6
102
}
330
12C6
100
AcDbScale
 70
     0
300
1:100
140
1.0
141
100.0
290
     0
  0
SCALE
  5
12D3
102
{ACAD_REACTORS
330
12C6
102
}
330
12C6
100
AcDbScale
 70
     0
300
2:1
140
2.0
141
1.0
290
     0
  0
SCALE
  5
12D4
102
{ACAD_REACTORS
330
12C6
102
}
330
12C6
100
AcDbScale
 70
     0
300
4:1
140
4.0
141
1.0
290
     0
  0
SCALE
  5
12D5
102
{ACAD_REACTORS
330
12C6
102
}
330
12C6
100
AcDbScale
 70
     0
300
8:1
140
8.0
141
1.0
290
     0
  0
SCALE
  5
12D6
102
{ACAD_REACTORS
330
12C6
102
}
330
12C6
100
AcDbScale
 70
     0
300
10:1
140
10.0
141
1.0
290
     0
  0
SCALE
  5
12D7
102
{ACAD_REACTORS
330
12C6
102
}
330
12C6
100
AcDbScale
 70
     0
300
100:1
140
100.0
141
1.0
290
     0
  0
SCALE
  5
12D8
102
{ACAD_REACTORS
330
12C6
102
}
330
12C6
100
AcDbScale
 70
     0
300
1/128" = 1'-0"
140
0.0078125
141
12.0
290
     0
  0
SCALE
  5
12D9
102
{ACAD_REACTORS
330
12C6
102
}
330
12C6
100
AcDbScale
 70
     0
300
1/64" = 1'-0"
140
0.015625
141
12.0
290
     0
  0
SCALE
  5
12DA
102
{ACAD_REACTORS
330
12C6
102
}
330
12C6
100
AcDbScale
 70
     0
300
1/32" = 1'-0"
140
0.03125
141
12.0
290
     0
  0
SCALE
  5
12DB
102
{ACAD_REACTORS
330
12C6
102
}
330
12C6
100
AcDbScale
 70
     0
300
1/16" = 1'-0"
140
0.0625
141
12.0
290
     0
  0
SCALE
  5
12DC
102
{ACAD_REACTORS
330
12C6
102
}
330
12C6
100
AcDbScale
 70
     0
300
3/32" = 1'-0"
140
0.09375
141
12.0
290
     0
  0
SCALE
  5
12DD
102
{ACAD_REACTORS
330
12C6
102
}
330
12C6
100
AcDbScale
 70
     0
300
1/8" = 1'-0"
140
0.125
141
12.0
290
     0
  0
SCALE
  5
12DE
102
{ACAD_REACTORS
330
12C6
102
}
330
12C6
100
AcDbScale
 70
     0
300
3/16" = 1'-0"
140
0.1875
141
12.0
290
     0
  0
SCALE
  5
12DF
102
{ACAD_REACTORS
330
12C6
102
}
330
12C6
100
AcDbScale
 70
     0
300
1/4" = 1'-0"
140
0.25
141
12.0
290
     0
  0
SCALE
  5
12E0
102
{ACAD_REACTORS
330
12C6
102
}
330
12C6
100
AcDbScale
 70
     0
300
3/8" = 1'-0"
140
0.375
141
12.0
290
     0
  0
SCALE
  5
12E1
102
{ACAD_REACTORS
330
12C6
102
}
330
12C6
100
AcDbScale
 70
     0
300
1/2" = 1'-0"
140
0.5
141
12.0
290
     0
  0
SCALE
  5
12E2
102
{ACAD_REACTORS
330
12C6
102
}
330
12C6
100
AcDbScale
 70
     0
300
3/4" = 1'-0"
140
0.75
141
12.0
290
     0
  0
SCALE
  5
12E3
102
{ACAD_REACTORS
330
12C6
102
}
330
12C6
100
AcDbScale
 70
     0
300
1" = 1'-0"
140
1.0
141
12.0
290
     0
  0
SCALE
  5
12E4
102
{ACAD_REACTORS
330
12C6
102
}
330
12C6
100
AcDbScale
 70
     0
300
1-1/2" = 1'-0"
140
1.5
141
12.0
290
     0
  0
SCALE
  5
12E5
102
{ACAD_REACTORS
330
12C6
102
}
330
12C6
100
AcDbScale
 70
     0
300
3" = 1'-0"
140
3.0
141
12.0
290
     0
  0
SCALE
  5
12E6
102
{ACAD_REACTORS
330
12C6
102
}
330
12C6
100
AcDbScale
 70
     0
300
6" = 1'-0"
140
6.0
141
12.0
290
     0
  0
SCALE
  5
12E7
102
{ACAD_REACTORS
330
12C6
102
}
330
12C6
100
AcDbScale
 70
     0
300
1'-0" = 1'-0"
140
12.0
141
12.0
290
     0
  0
TABLESTYLE
  5
114D
102
{ACAD_XDICTIONARY
360
14CA
102
}
102
{ACAD_REACTORS
330
114C
102
}
330
114C
100
AcDbTableStyle
  3
Standard
 70
     0
 71
     0
 40
0.06
 41
0.06
280
     0
281
     0
  7
STANDARD
140
0.18
170
     2
 62
     0
 63
     7
283
     0
274
    -2
284
     1
 64
     0
275
    -2
285
     1
 65
     0
276
    -2
286
     1
 66
     0
277
    -2
287
     1
 67
     0
278
    -2
288
     1
 68
     0
279
    -2
289
     1
 69
     0
  7
STANDARD
140
0.25
170
     5
 62
     0
 63
     7
283
     0
274
    -2
284
     1
 64
     0
275
    -2
285
     1
 65
     0
276
    -2
286
     1
 66
     0
277
    -2
287
     1
 67
     0
278
    -2
288
     1
 68
     0
279
    -2
289
     1
 69
     0
  7
STANDARD
140
0.18
170
     5
 62
     0
 63
     7
283
     0
274
    -2
284
     1
 64
     0
275
    -2
285
     1
 65
     0
276
    -2
286
     1
 66
     0
277
    -2
287
     1
 67
     0
278
    -2
288
     1
 68
     0
279
    -2
289
     1
 69
     0
  0
VISUALSTYLE
  5
12BB
102
{ACAD_REACTORS
330
12B5
102
}
330
12B5
100
AcDbVisualStyle
  2
2dWireframe
 70
     4
 71
     0
 72
     2
 73
     0
 90
        0
 40
-0.6
 41
-30.0
 62
     5
 63
     7
 74
     1
 91
        4
 64
     7
 65
   257
 75
     1
175
     1
 42
1.0
 92
        0
 66
   257
 43
1.0
 76
     1
 77
     6
 78
     2
 67
     7
 79
     5
170
     0
171
     0
290
     0
174
     0
 93
        1
 44
0.0
173
     0
291
     0
 45
0.0
1001
ACAD
1000
AcDbSavedByObjectVersion
1070
     0
1000
AcDbSavedByObjectVersion
1070
     0
1000
AcDbSavedByObjectVersion
1070
     0
1000
AcDbSavedByObjectVersion
1070
     0
1000
AcDbSavedByObjectVersion
1070
     0
1000
AcDbSavedByObjectVersion
1070
     0
1000
AcDbSavedByObjectVersion
1070
     0
  0
VISUALSTYLE
  5
12BD
102
{ACAD_REACTORS
330
12B5
102
}
330
12B5
100
AcDbVisualStyle
  2
3D Hidden
 70
     6
 71
     1
 72
     2
 73
     2
 90
        0
 40
-0.6
 41
-30.0
 62
     5
 63
     7
 74
     2
 91
        2
 64
     7
 65
   257
 75
     2
175
     1
 42
40.0
 92
        0
 66
   257
 43
1.0
 76
     1
 77
     6
 78
     2
 67
     7
 79
     3
170
     0
171
     0
290
     0
174
     0
 93
        1
 44
0.0
173
     0
291
     0
 45
0.0
1001
ACAD
1000
AcDbSavedByObjectVersion
1070
     0
1000
AcDbSavedByObjectVersion
1070
     0
1000
AcDbSavedByObjectVersion
1070
     0
1000
AcDbSavedByObjectVersion
1070
     0
1000
AcDbSavedByObjectVersion
1070
     0
1000
AcDbSavedByObjectVersion
1070
     0
1000
AcDbSavedByObjectVersion
1070
     0
  0
VISUALSTYLE
  5
12BC
102
{ACAD_REACTORS
330
12B5
102
}
330
12B5
100
AcDbVisualStyle
  2
3dWireframe
 70
     5
 71
     0
 72
     2
 73
     0
 90
        0
 40
-0.6
 41
-30.0
 62
     5
 63
     7
 74
     1
 91
        4
 64
     7
 65
   257
 75
     1
175
     1
 42
1.0
 92
        0
 66
   257
 43
1.0
 76
     1
 77
     6
 78
     2
 67
     7
 79
     5
170
     0
171
     0
290
     0
174
     0
 93
        1
 44
0.0
173
     0
291
     0
 45
0.0
1001
ACAD
1000
AcDbSavedByObjectVersion
1070
     0
1000
AcDbSavedByObjectVersion
1070
     0
1000
AcDbSavedByObjectVersion
1070
     0
1000
AcDbSavedByObjectVersion
1070
     0
1000
AcDbSavedByObjectVersion
1070
     0
1000
AcDbSavedByObjectVersion
1070
     0
1000
AcDbSavedByObjectVersion
1070
     0
  0
VISUALSTYLE
  5
12BA
102
{ACAD_REACTORS
330
12B5
102
}
330
12B5
100
AcDbVisualStyle
  2
Basic
 70
     7
 71
     1
 72
     0
 73
     1
 90
        0
 40
-0.6
 41
-30.0
 62
     5
 63
     7
 74
     0
 91
        4
 64
     7
 65
   257
 75
     1
175
     1
 42
1.0
 92
        8
 66
     7
 43
1.0
 76
     1
 77
     6
 78
     2
 67
     7
 79
     5
170
     0
171
     0
290
     0
174
     0
 93
        1
 44
0.0
173
     0
291
     1
 45
0.0
1001
ACAD
1000
AcDbSavedByObjectVersion
1070
     0
1000
AcDbSavedByObjectVersion
1070
     0
1000
AcDbSavedByObjectVersion
1070
     0
1000
AcDbSavedByObjectVersion
1070
     0
1000
AcDbSavedByObjectVersion
1070
     0
1000
AcDbSavedByObjectVersion
1070
     0
1000
AcDbSavedByObjectVersion
1070
     0
  0
VISUALSTYLE
  5
12C1
102
{ACAD_REACTORS
330
12B5
102
}
330
12B5
100
AcDbVisualStyle
  2
Brighten
 70
    12
 71
     2
 72
     2
 73
     0
 90
        0
 40
-0.6
 41
-30.0
 62
     5
 63
     7
 74
     1
 91
        4
 64
     7
 65
   257
 75
     1
175
     1
 42
1.0
 92
        8
 66
     7
 43
1.0
 76
     1
 77
     6
 78
     2
 67
     7
 79
     5
170
     0
171
     0
290
     0
174
     0
 93
        1
 44
50.0
173
     0
291
     1
 45
0.0
1001
ACAD
1000
AcDbSavedByObjectVersion
1070
     0
1000
AcDbSavedByObjectVersion
1070
     0
1000
AcDbSavedByObjectVersion
1070
     0
1000
AcDbSavedByObjectVersion
1070
     0
1000
AcDbSavedByObjectVersion
1070
     0
1000
AcDbSavedByObjectVersion
1070
     0
1000
AcDbSavedByObjectVersion
1070
     0
  0
VISUALSTYLE
  5
12C5
102
{ACAD_REACTORS
330
12B5
102
}
330
12B5
100
AcDbVisualStyle
  2
ColorChange
 70
    16
 71
     2
 72
     2
 73
     3
 90
        0
 40
-0.6
 41
-30.0
 62
     5
 63
     8
 74
     1
 91
        4
 64
     7
 65
   257
 75
     1
175
     1
 42
1.0
 92
        8
 66
     8
 43
1.0
 76
     1
 77
     6
 78
     2
 67
     7
 79
     5
170
     0
171
     0
290
     0
174
     0
 93
        1
 44
0.0
173
     0
291
     1
 45
0.0
1001
ACAD
1000
AcDbSavedByObjectVersion
1070
     0
1000
AcDbSavedByObjectVersion
1070
     0
1000
AcDbSavedByObjectVersion
1070
     0
1000
AcDbSavedByObjectVersion
1070
     0
1000
AcDbSavedByObjectVersion
1070
     0
1000
AcDbSavedByObjectVersion
1070
     0
1000
AcDbSavedByObjectVersion
1070
     0
  0
VISUALSTYLE
  5
12BE
102
{ACAD_REACTORS
330
12B5
102
}
330
12B5
100
AcDbVisualStyle
  2
Conceptual
 70
     9
 71
     3
 72
     2
 73
     0
 90
        0
 40
-0.6
 41
-30.0
 62
     5
 63
     7
 74
     2
 91
        2
 64
     7
 65
   257
 75
     1
175
     1
 42
40.0
 92
        8
 66
     7
 43
1.0
 76
     1
 77
     6
 78
     2
 67
     7
 79
     3
170
     0
171
     0
290
     0
174
     0
 93
        1
 44
0.0
173
     0
291
     0
 45
0.0
1001
ACAD
1000
AcDbSavedByObjectVersion
1070
     0
1000
AcDbSavedByObjectVersion
1070
     0
1000
AcDbSavedByObjectVersion
1070
     0
1000
AcDbSavedByObjectVersion
1070
     0
1000
AcDbSavedByObjectVersion
1070
     0
1000
AcDbSavedByObjectVersion
1070
     0
1000
AcDbSavedByObjectVersion
1070
     0
  0
VISUALSTYLE
  5
12C0
102
{ACAD_REACTORS
330
12B5
102
}
330
12B5
100
AcDbVisualStyle
  2
Dim
 70
    11
 71
     2
 72
     2
 73
     0
 90
        0
 40
-0.6
 41
-30.0
 62
     5
 63
     7
 74
     1
 91
        4
 64
     7
 65
   257
 75
     1
175
     1
 42
1.0
 92
        8
 66
     7
 43
1.0
 76
     1
 77
     6
 78
     2
 67
     7
 79
     5
170
     0
171
     0
290
     0
174
     0
 93
        1
 44
-50.0
173
     0
291
     1
 45
0.0
1001
ACAD
1000
AcDbSavedByObjectVersion
1070
     0
1000
AcDbSavedByObjectVersion
1070
     0
1000
AcDbSavedByObjectVersion
1070
     0
1000
AcDbSavedByObjectVersion
1070
     0
1000
AcDbSavedByObjectVersion
1070
     0
1000
AcDbSavedByObjectVersion
1070
     0
1000
AcDbSavedByObjectVersion
1070
     0
  0
VISUALSTYLE
  5
12C4
102
{ACAD_REACTORS
330
12B5
102
}
330
12B5
100
AcDbVisualStyle
  2
Facepattern
 70
    15
 71
     2
 72
     2
 73
     0
 90
        0
 40
-0.6
 41
-30.0
 62
     5
 63
     7
 74
     1
 91
        4
 64
     7
 65
   257
 75
     1
175
     1
 42
1.0
 92
        8
 66
     7
 43
1.0
 76
     1
 77
     6
 78
     2
 67
     7
 79
     5
170
     0
171
     0
290
     0
174
     0
 93
        1
 44
0.0
173
     0
291
     1
 45
0.0
1001
ACAD
1000
AcDbSavedByObjectVersion
1070
     0
1000
AcDbSavedByObjectVersion
1070
     0
1000
AcDbSavedByObjectVersion
1070
     0
1000
AcDbSavedByObjectVersion
1070
     0
1000
AcDbSavedByObjectVersion
1070
     0
1000
AcDbSavedByObjectVersion
1070
     0
1000
AcDbSavedByObjectVersion
1070
     0
  0
VISUALSTYLE
  5
12B6
102
{ACAD_REACTORS
330
12B5
102
}
330
12B5
100
AcDbVisualStyle
  2
Flat
 70
     0
 71
     2
 72
     1
 73
     1
 90
        2
 40
-0.6
 41
30.0
 62
     5
 63
     7
 74
     0
 91
        4
 64
     7
 65
   257
 75
     1
175
     1
 42
1.0
 92
        8
 66
     7
 43
1.0
 76
     1
 77
     6
 78
     2
 67
     7
 79
     5
170
     0
171
     0
290
     0
174
     0
 93
       13
 44
0.0
173
     0
291
     1
 45
0.0
1001
ACAD
1000
AcDbSavedByObjectVersion
1070
     0
1000
AcDbSavedByObjectVersion
1070
     0
1000
AcDbSavedByObjectVersion
1070
     0
1000
AcDbSavedByObjectVersion
1070
     0
1000
AcDbSavedByObjectVersion
1070
     0
1000
AcDbSavedByObjectVersion
1070
     0
1000
AcDbSavedByObjectVersion
1070
     0
  0
VISUALSTYLE
  5
12B7
102
{ACAD_REACTORS
330
12B5
102
}
330
12B5
100
AcDbVisualStyle
  2
FlatWithEdges
 70
     1
 71
     2
 72
     1
 73
     1
 90
        2
 40
-0.6
 41
30.0
 62
     5
 63
     7
 74
     1
 91
        4
 64
     7
 65
   257
 75
     1
175
     1
 42
1.0
 92
        0
 66
   257
 43
1.0
 76
     1
 77
     6
 78
     2
 67
     7
 79
     5
170
     0
171
     0
290
     0
174
     0
 93
       13
 44
0.0
173
     0
291
     1
 45
0.0
1001
ACAD
1000
AcDbSavedByObjectVersion
1070
     0
1000
AcDbSavedByObjectVersion
1070
     0
1000
AcDbSavedByObjectVersion
1070
     0
1000
AcDbSavedByObjectVersion
1070
     0
1000
AcDbSavedByObjectVersion
1070
     0
1000
AcDbSavedByObjectVersion
1070
     0
1000
AcDbSavedByObjectVersion
1070
     0
  0
VISUALSTYLE
  5
12B8
102
{ACAD_REACTORS
330
12B5
102
}
330
12B5
100
AcDbVisualStyle
  2
Gouraud
 70
     2
 71
     2
 72
     2
 73
     1
 90
        2
 40
-0.6
 41
30.0
 62
     5
 63
     7
 74
     0
 91
        4
 64
     7
 65
   257
 75
     1
175
     1
 42
1.0
 92
        0
 66
     7
 43
1.0
 76
     1
 77
     6
 78
     2
 67
     7
 79
     5
170
     0
171
     0
290
     0
174
     0
 93
       13
 44
0.0
173
     0
291
     1
 45
0.0
1001
ACAD
1000
AcDbSavedByObjectVersion
1070
     0
1000
AcDbSavedByObjectVersion
1070
     0
1000
AcDbSavedByObjectVersion
1070
     0
1000
AcDbSavedByObjectVersion
1070
     0
1000
AcDbSavedByObjectVersion
1070
     0
1000
AcDbSavedByObjectVersion
1070
     0
1000
AcDbSavedByObjectVersion
1070
     0
  0
VISUALSTYLE
  5
12B9
102
{ACAD_REACTORS
330
12B5
102
}
330
12B5
100
AcDbVisualStyle
  2
GouraudWithEdges
 70
     3
 71
     2
 72
     2
 73
     1
 90
        2
 40
-0.6
 41
30.0
 62
     5
 63
     7
 74
     1
 91
        4
 64
     7
 65
   257
 75
     1
175
     1
 42
1.0
 92
        0
 66
   257
 43
1.0
 76
     1
 77
     6
 78
     2
 67
     7
 79
     5
170
     0
171
     0
290
     0
174
     0
 93
       13
 44
0.0
173
     0
291
     1
 45
0.0
1001
ACAD
1000
AcDbSavedByObjectVersion
1070
     0
1000
AcDbSavedByObjectVersion
1070
     0
1000
AcDbSavedByObjectVersion
1070
     0
1000
AcDbSavedByObjectVersion
1070
     0
1000
AcDbSavedByObjectVersion
1070
     0
1000
AcDbSavedByObjectVersion
1070
     0
1000
AcDbSavedByObjectVersion
1070
     0
  0
VISUALSTYLE
  5
12C3
102
{ACAD_REACTORS
330
12B5
102
}
330
12B5
100
AcDbVisualStyle
  2
Linepattern
 70
    14
 71
     2
 72
     2
 73
     0
 90
        0
 40
-0.6
 41
-30.0
 62
     5
 63
     7
 74
     1
 91
        4
 64
     7
 65
   257
 75
     7
175
     7
 42
1.0
 92
        8
 66
     7
 43
1.0
 76
     1
 77
     6
 78
     2
 67
     7
 79
     5
170
     0
171
     0
290
     0
174
     0
 93
        1
 44
0.0
173
     0
291
     1
 45
0.0
1001
ACAD
1000
AcDbSavedByObjectVersion
1070
     0
1000
AcDbSavedByObjectVersion
1070
     0
1000
AcDbSavedByObjectVersion
1070
     0
1000
AcDbSavedByObjectVersion
1070
     0
1000
AcDbSavedByObjectVersion
1070
     0
1000
AcDbSavedByObjectVersion
1070
     0
1000
AcDbSavedByObjectVersion
1070
     0
  0
VISUALSTYLE
  5
12BF
102
{ACAD_REACTORS
330
12B5
102
}
330
12B5
100
AcDbVisualStyle
  2
Realistic
 70
     8
 71
     2
 72
     2
 73
     0
 90
        0
 40
-0.6
 41
-30.0
 62
     5
 63
     7
 74
     1
 91
        0
 64
     7
 65
   257
 75
     1
175
     1
 42
1.0
 92
        8
 66
     8
 43
1.0
 76
     1
 77
     6
 78
     2
 67
     7
 79
     5
170
     0
171
     0
290
     0
174
     0
 93
       13
 44
0.0
173
     0
291
     0
 45
0.0
1001
ACAD
1000
AcDbSavedByObjectVersion
1070
     0
1000
AcDbSavedByObjectVersion
1070
     0
1000
AcDbSavedByObjectVersion
1070
     0
1000
AcDbSavedByObjectVersion
1070
     0
1000
AcDbSavedByObjectVersion
1070
     0
1000
AcDbSavedByObjectVersion
1070
     0
1000
AcDbSavedByObjectVersion
1070
     0
  0
VISUALSTYLE
  5
12C2
102
{ACAD_REACTORS
330
12B5
102
}
330
12B5
100
AcDbVisualStyle
  2
Thicken
 70
    13
 71
     2
 72
     2
 73
     0
 90
        0
 40
-0.6
 41
-30.0
 62
     5
 63
     7
 74
     1
 91
        4
 64
     7
 65
   257
 75
     1
175
     1
 42
1.0
 92
       12
 66
     7
 43
1.0
 76
     1
 77
     6
 78
     2
 67
     7
 79
     5
170
     0
171
     0
290
     0
174
     0
 93
        1
 44
0.0
173
     0
291
     1
 45
0.0
1001
ACAD
1000
AcDbSavedByObjectVersion
1070
     0
1000
AcDbSavedByObjectVersion
1070
     0
1000
AcDbSavedByObjectVersion
1070
     0
1000
AcDbSavedByObjectVersion
1070
     0
1000
AcDbSavedByObjectVersion
1070
     0
1000
AcDbSavedByObjectVersion
1070
     0
1000
AcDbSavedByObjectVersion
1070
     0
  0
DICTIONARYVAR
  5
14C8
102
{ACAD_REACTORS
330
B87
102
}
330
B87
100
DictionaryVariables
280
     0
  1
1:1
  0
DICTIONARYVAR
  5
14C7
102
{ACAD_REACTORS
330
B87
102
}
330
B87
100
DictionaryVariables
280
     0
  1
STANDARD
  0
DICTIONARYVAR
  5
127D
102
{ACAD_REACTORS
330
B87
102
}
330
B87
100
DictionaryVariables
280
     0
  1
STANDARD
  0
DICTIONARYVAR
  5
B88
102
{ACAD_REACTORS
330
B87
102
}
330
B87
100
DictionaryVariables
280
     0
  1
1
  0
DICTIONARYVAR
  5
127E
102
{ACAD_REACTORS
330
B87
102
}
330
B87
100
DictionaryVariables
280
     0
  1
1
  0
DICTIONARYVAR
  5
127F
102
{ACAD_REACTORS
330
B87
102
}
330
B87
100
DictionaryVariables
280
     0
  1

  0
DICTIONARYVAR
  5
14C9
102
{ACAD_REACTORS
330
B87
102
}
330
B87
100
DictionaryVariables
280
     0
  1
127
  0
DICTIONARY
  5
121E
102
{ACAD_REACTORS
330
1212
102
}
330
1212
100
AcDbDictionary
281
     1
  0
XRECORD
  5
123E
102
{ACAD_REACTORS
330
1212
102
}
330
1212
100
AcDbXrecord
280
     1
 90
-1023410169
  0
DICTIONARY
  5
1152
102
{ACAD_REACTORS
330
1151
102
}
330
1151
100
AcDbDictionary
281
     1
  3
DWGSETTINGS
350
1FFD
  3
TRANSSETTINGS
350
1FFE
  0
ACAMGFILTERDAT
  5
126D
102
{ACAD_REACTORS
330
1268
102
}
330
1268
100
AcAmgFilterDat
 70
    15
  1
DIMENSION,AMDT_*_DIM
  2
*
  3
*
  4
*
  5
*
290
     1
1001
ACAD
1000
AcRTDxfName
1000
ACAMGFILTERDAT
  0
ACAMGFILTERDAT
  5
126C
102
{ACAD_REACTORS
330
1268
102
}
330
1268
100
AcAmgFilterDat
 70
    15
  1
*
  2
AM_FEA-AM_*
  3
*
  4
*
  5
*
290
     1
1001
ACAD
1000
AcRTDxfName
1000
ACAMGFILTERDAT
  0
ACAMGFILTERDAT
  5
1269
102
{ACAD_REACTORS
330
1268
102
}
330
1268
100
AcAmgFilterDat
 70
    15
  1
HATCH
  2
*
  3
*
  4
*
  5
*
290
     1
1001
ACAD
1000
AcRTDxfName
1000
ACAMGFILTERDAT
  0
ACAMGFILTERDAT
  5
126A
102
{ACAD_REACTORS
330
1268
102
}
330
1268
100
AcAmgFilterDat
 70
    15
  1
LINE
  2
8,8N,*-8,*-8N,AM_8,AM_8N,*-AM_8,*-AM_8N
  3
*
  4
*
  5
INSERT,STDPART2D
290
     1
1001
ACAD
1000
AcRTDxfName
1000
ACAMGFILTERDAT
  0
ACAMGFILTERDAT
  5
126E
102
{ACAD_REACTORS
330
1268
102
}
330
1268
100
AcAmgFilterDat
 70
    15
  1
ARC
  2
AM_5
  3
*
  4
2
  5
INSERT
290
     0
1001
ACAD
1000
AcRTDxfName
1000
ACAMGFILTERDAT
  0
ACAMGFILTERDAT
  5
126B
102
{ACAD_REACTORS
330
1268
102
}
330
1268
100
AcAmgFilterDat
 70
    15
  1
ACMFCFRAME,ACMDATUMTARGET,ACMDATUMID,ACMWELDSYM,ACMSURFSYM,ACMFEATID,ACMPARTREF,ACMBALLOON,AMDTEDGESYM,AMGSCREWCALCTABLE
  2
*
  3
*
  4
*
  5
*
290
     1
1001
ACAD
1000
AcRTDxfName
1000
ACAMGFILTERDAT
  0
LAYER_INDEX
  5
1270
102
{ACAD_REACTORS
330
126F
102
}
330
126F
100
AcDbIndex
 40
2456533.551236181
100
AcDbLayerIndex
  8
0
360
1271
 90
        0
  8
OUTLINE
360
1272
 90
       83
  8
SIZE
360
1273
 90
       24
  8
BASIS
360
1274
 90
        1
  8
DETAIL
360
1275
 90
       77
  8
ARRANGE
360
1276
 90
        3
  8
DEFPOINTS
360
1277
 90
        0
  8
ETC
360
1278
 90
        1
  8
FIX
360
1279
 90
        0
  8
NOTE
360
127A
 90
       10
  8
SERVICESPACE
360
127B
 90
        0
  8
SYMBOLLINE
360
127C
 90
        0
  0
DICTIONARY
  5
20F4
330
B84
100
AcDbDictionary
280
     1
281
     1
  3
ACAD_XREC_ROUNDTRIP
360
20F5
  0
DICTIONARY
  5
20F6
330
B85
100
AcDbDictionary
280
     1
281
     1
  3
ACAD_XREC_ROUNDTRIP
360
20F7
  0
DICTIONARY
  5
12A6
330
12A5
100
AcDbDictionary
280
     1
281
     1
  3
ACAD_XREC_ROUNDTRIP
360
14D6
  3
BUMPTILE
360
12A8
  3
DIFFUSETILE
360
12A7
  3
OPACITYTILE
360
12AB
  3
REFLECTIONTILE
360
12AA
  3
REFRACTIONTILE
360
12AC
  3
SPECULARTILE
360
12A9
  0
DICTIONARY
  5
129E
330
129D
100
AcDbDictionary
280
     1
281
     1
  3
ACAD_XREC_ROUNDTRIP
360
14D5
  3
BUMPTILE
360
12A0
  3
DIFFUSETILE
360
129F
  3
OPACITYTILE
360
12A3
  3
REFLECTIONTILE
360
12A2
  3
REFRACTIONTILE
360
12A4
  3
SPECULARTILE
360
12A1
  0
DICTIONARY
  5
12AE
330
12AD
100
AcDbDictionary
280
     1
281
     1
  3
ACAD_XREC_ROUNDTRIP
360
14D7
  3
BUMPTILE
360
12B0
  3
DIFFUSETILE
360
12AF
  3
OPACITYTILE
360
12B3
  3
REFLECTIONTILE
360
12B2
  3
REFRACTIONTILE
360
12B4
  3
SPECULARTILE
360
12B1
  0
DICTIONARY
  5
14CA
330
114D
100
AcDbDictionary
280
     1
281
     1
  3
ACAD_ROUNDTRIP_2008_TABLESTYLE_CELLSTYLEMAP
360
20ED
  3
ACAD_XREC_ROUNDTRIP
360
20F8
  0
IDBUFFER
  5
1271
330
0
100
AcDbIdBuffer
  0
IDBUFFER
  5
1272
330
0
100
AcDbIdBuffer
330
953
330
954
330
955
330
956
330
957
330
958
330
1F47
330
1F48
330
1F49
330
1F4A
330
1F4B
330
1F4C
330
1F4D
330
1F4E
330
1F4F
330
1F50
330
1F51
330
1F52
330
1F53
330
1F54
330
1F55
330
1F56
330
1F57
330
1F58
330
1F59
330
1F5A
330
1F5B
330
1F5C
330
1F5D
330
1F5E
330
1F5F
330
1F60
330
1F61
330
1F62
330
1F63
330
1F64
330
1F65
330
1F66
330
1F67
330
1F68
330
1F69
330
1F6A
330
1F6B
330
1F6C
330
1F6D
330
1F6E
330
1F6F
330
1F70
330
1F71
330
1F72
330
1F73
330
1F74
330
1F75
330
1F76
330
1F77
330
1F78
330
1F79
330
1F7A
330
1F7B
330
1F7C
330
1F7D
330
1F7E
330
1F7F
330
1F80
330
1F81
330
1F82
330
1F83
330
1F84
330
1F85
330
1F86
330
1F87
330
1F88
330
1F89
330
1F8A
330
1F8B
330
1F8C
330
1F8D
330
1F8E
330
1F8F
330
1F90
330
1F91
330
1F92
330
1F93
  0
IDBUFFER
  5
1273
330
0
100
AcDbIdBuffer
330
20DE
330
20DF
330
20E0
330
20E1
330
20E2
330
20E3
330
20E7
330
20E8
330
20E9
330
20EA
330
20EB
330
20EC
330
20D2
330
20D3
330
20D4
330
20D5
330
20D6
330
20D7
330
20D8
330
20D9
330
20DA
330
20DB
330
20DC
330
20DD
  0
IDBUFFER
  5
1274
330
0
100
AcDbIdBuffer
330
1F43
  0
IDBUFFER
  5
1275
330
0
100
AcDbIdBuffer
330
1EE8
330
1EE9
330
1EEA
330
1EEB
330
1EEC
330
1EED
330
1EEE
330
1EEF
330
1EF0
330
1EF1
330
1EF2
330
1EF3
330
1EF4
330
1EF5
330
1EF6
330
1EF7
330
1EF8
330
1EF9
330
1EFA
330
1EFB
330
1EFC
330
1EFD
330
1EFE
330
1EFF
330
1F00
330
1F01
330
1F02
330
1F03
330
1F04
330
1F05
330
1F06
330
1F07
330
1F08
330
1F09
330
1F0A
330
1F0B
330
1F0C
330
1F0D
330
1F0E
330
1F0F
330
1F10
330
1F11
330
1F12
330
1F13
330
1F14
330
1F15
330
1F16
330
1F17
330
1F18
330
1F19
330
1F1A
330
1F1B
330
1F1C
330
1F1D
330
1F1E
330
1F1F
330
1F20
330
1F21
330
1F22
330
1F23
330
1F24
330
1F25
330
1F26
330
1F27
330
1F28
330
1F29
330
1F2A
330
1F2B
330
1F2C
330
1F2D
330
1F2E
330
1F2F
330
1F30
330
1F31
330
1F32
330
1F33
330
1F34
  0
IDBUFFER
  5
1276
330
0
100
AcDbIdBuffer
330
1F40
330
1F41
330
1F42
  0
IDBUFFER
  5
1277
330
0
100
AcDbIdBuffer
  0
IDBUFFER
  5
1278
330
0
100
AcDbIdBuffer
330
1F3D
  0
IDBUFFER
  5
1279
330
0
100
AcDbIdBuffer
  0
IDBUFFER
  5
127A
330
0
100
AcDbIdBuffer
330
20E6
330
1F35
330
1F36
330
1F37
330
1F38
330
1F44
330
1F45
330
1F46
330
20E4
330
20E5
  0
IDBUFFER
  5
127B
330
0
100
AcDbIdBuffer
  0
IDBUFFER
  5
127C
330
0
100
AcDbIdBuffer
  0
XRECORD
  5
20F5
102
{ACAD_REACTORS
330
20F4
102
}
330
20F4
100
AcDbXrecord
280
     1
102
SHADEPLOT
 70
     0
102
SHADEPLOTRESLEVEL
 70
     2
102
SHADEPLOTCUSTOMDPI
 70
   300
  0
XRECORD
  5
20F7
102
{ACAD_REACTORS
330
20F6
102
}
330
20F6
100
AcDbXrecord
280
     1
102
SHADEPLOT
 70
     0
102
SHADEPLOTRESLEVEL
 70
     2
102
SHADEPLOTCUSTOMDPI
 70
   300
  0
XRECORD
  5
14D6
102
{ACAD_REACTORS
330
12A6
102
}
330
12A6
100
AcDbXrecord
280
     1
102
MATERIAL
148
0.0
149
0.0
149
0.0
 93
        0
 94
      127
282
     0
 72
     0
 77
     0
171
     0
175
     0
179
     0
273
     0
  0
XRECORD
  5
12A8
102
{ACAD_REACTORS
330
12A6
102
}
330
12A6
100
AcDbXrecord
280
     1
270
     1
271
     1
  0
XRECORD
  5
12A7
102
{ACAD_REACTORS
330
12A6
102
}
330
12A6
100
AcDbXrecord
280
     1
270
     1
271
     1
  0
XRECORD
  5
12AB
102
{ACAD_REACTORS
330
12A6
102
}
330
12A6
100
AcDbXrecord
280
     1
270
     1
271
     1
  0
XRECORD
  5
12AA
102
{ACAD_REACTORS
330
12A6
102
}
330
12A6
100
AcDbXrecord
280
     1
270
     1
271
     1
  0
XRECORD
  5
12AC
102
{ACAD_REACTORS
330
12A6
102
}
330
12A6
100
AcDbXrecord
280
     1
270
     1
271
     1
  0
XRECORD
  5
12A9
102
{ACAD_REACTORS
330
12A6
102
}
330
12A6
100
AcDbXrecord
280
     1
270
     1
271
     1
  0
XRECORD
  5
14D5
102
{ACAD_REACTORS
330
129E
102
}
330
129E
100
AcDbXrecord
280
     1
102
MATERIAL
148
0.0
149
0.0
149
0.0
 93
        0
 94
      127
282
     0
 72
     0
 77
     0
171
     0
175
     0
179
     0
273
     0
  0
XRECORD
  5
12A0
102
{ACAD_REACTORS
330
129E
102
}
330
129E
100
AcDbXrecord
280
     1
270
     1
271
     1
  0
XRECORD
  5
129F
102
{ACAD_REACTORS
330
129E
102
}
330
129E
100
AcDbXrecord
280
     1
270
     1
271
     1
  0
XRECORD
  5
12A3
102
{ACAD_REACTORS
330
129E
102
}
330
129E
100
AcDbXrecord
280
     1
270
     1
271
     1
  0
XRECORD
  5
12A2
102
{ACAD_REACTORS
330
129E
102
}
330
129E
100
AcDbXrecord
280
     1
270
     1
271
     1
  0
XRECORD
  5
12A4
102
{ACAD_REACTORS
330
129E
102
}
330
129E
100
AcDbXrecord
280
     1
270
     1
271
     1
  0
XRECORD
  5
12A1
102
{ACAD_REACTORS
330
129E
102
}
330
129E
100
AcDbXrecord
280
     1
270
     1
271
     1
  0
XRECORD
  5
14D7
102
{ACAD_REACTORS
330
12AE
102
}
330
12AE
100
AcDbXrecord
280
     1
102
MATERIAL
148
0.0
149
0.0
149
0.0
 93
        0
 94
      127
282
     0
 72
     0
 77
     0
171
     0
175
     0
179
     0
273
     0
  0
XRECORD
  5
12B0
102
{ACAD_REACTORS
330
12AE
102
}
330
12AE
100
AcDbXrecord
280
     1
270
     1
271
     1
  0
XRECORD
  5
12AF
102
{ACAD_REACTORS
330
12AE
102
}
330
12AE
100
AcDbXrecord
280
     1
270
     1
271
     1
  0
XRECORD
  5
12B3
102
{ACAD_REACTORS
330
12AE
102
}
330
12AE
100
AcDbXrecord
280
     1
270
     1
271
     1
  0
XRECORD
  5
12B2
102
{ACAD_REACTORS
330
12AE
102
}
330
12AE
100
AcDbXrecord
280
     1
270
     1
271
     1
  0
XRECORD
  5
12B4
102
{ACAD_REACTORS
330
12AE
102
}
330
12AE
100
AcDbXrecord
280
     1
270
     1
271
     1
  0
XRECORD
  5
12B1
102
{ACAD_REACTORS
330
12AE
102
}
330
12AE
100
AcDbXrecord
280
     1
270
     1
271
     1
  0
CELLSTYLEMAP
  5
20ED
102
{ACAD_REACTORS
330
14CA
102
}
330
14CA
100
AcDbCellStyleMap
 90
        3
300
CELLSTYLE
  1
TABLEFORMAT_BEGIN
 90
        5
170
     1
 91
        0
 92
    32768
 62
   257
 93
        1
300
CONTENTFORMAT
  1
CONTENTFORMAT_BEGIN
 90
        0
 91
        0
 92
        4
 93
        0
300

 40
0.0
140
1.0
 94
        5
 62
     0
340
852
144
0.25
309
CONTENTFORMAT_END
171
     1
301
MARGIN
  1
CELLMARGIN_BEGIN
 40
0.06
 40
0.06
 40
0.06
 40
0.06
 40
0.18
 40
0.18
309
CELLMARGIN_END
 94
        6
 95
        1
302
GRIDFORMAT
  1
GRIDFORMAT_BEGIN
 90
        0
 91
        1
 62
     0
 92
       -2
340
0
 93
        0
 40
0.045
309
GRIDFORMAT_END
 95
        2
302
GRIDFORMAT
  1
GRIDFORMAT_BEGIN
 90
        0
 91
        1
 62
     0
 92
       -2
340
0
 93
        0
 40
0.045
309
GRIDFORMAT_END
 95
        4
302
GRIDFORMAT
  1
GRIDFORMAT_BEGIN
 90
        0
 91
        1
 62
     0
 92
       -2
340
0
 93
        0
 40
0.045
309
GRIDFORMAT_END
 95
        8
302
GRIDFORMAT
  1
GRIDFORMAT_BEGIN
 90
        0
 91
        1
 62
     0
 92
       -2
340
0
 93
        0
 40
0.045
309
GRIDFORMAT_END
 95
       16
302
GRIDFORMAT
  1
GRIDFORMAT_BEGIN
 90
        0
 91
        1
 62
     0
 92
       -2
340
0
 93
        0
 40
0.045
309
GRIDFORMAT_END
 95
       32
302
GRIDFORMAT
  1
GRIDFORMAT_BEGIN
 90
        0
 91
        1
 62
     0
 92
       -2
340
0
 93
        0
 40
0.045
309
GRIDFORMAT_END
309
TABLEFORMAT_END
  1
CELLSTYLE_BEGIN
 90
        1
 91
        1
300
_TITLE
309
CELLSTYLE_END
300
CELLSTYLE
  1
TABLEFORMAT_BEGIN
 90
        5
170
     1
 91
        0
 92
        0
 62
   257
 93
        1
300
CONTENTFORMAT
  1
CONTENTFORMAT_BEGIN
 90
        0
 91
        0
 92
        4
 93
        0
300

 40
0.0
140
1.0
 94
        5
 62
     0
340
852
144
0.18
309
CONTENTFORMAT_END
171
     1
301
MARGIN
  1
CELLMARGIN_BEGIN
 40
0.06
 40
0.06
 40
0.06
 40
0.06
 40
0.18
 40
0.18
309
CELLMARGIN_END
 94
        6
 95
        1
302
GRIDFORMAT
  1
GRIDFORMAT_BEGIN
 90
        0
 91
        1
 62
     0
 92
       -2
340
0
 93
        0
 40
0.045
309
GRIDFORMAT_END
 95
        2
302
GRIDFORMAT
  1
GRIDFORMAT_BEGIN
 90
        0
 91
        1
 62
     0
 92
       -2
340
0
 93
        0
 40
0.045
309
GRIDFORMAT_END
 95
        4
302
GRIDFORMAT
  1
GRIDFORMAT_BEGIN
 90
        0
 91
        1
 62
     0
 92
       -2
340
0
 93
        0
 40
0.045
309
GRIDFORMAT_END
 95
        8
302
GRIDFORMAT
  1
GRIDFORMAT_BEGIN
 90
        0
 91
        1
 62
     0
 92
       -2
340
0
 93
        0
 40
0.045
309
GRIDFORMAT_END
 95
       16
302
GRIDFORMAT
  1
GRIDFORMAT_BEGIN
 90
        0
 91
        1
 62
     0
 92
       -2
340
0
 93
        0
 40
0.045
309
GRIDFORMAT_END
 95
       32
302
GRIDFORMAT
  1
GRIDFORMAT_BEGIN
 90
        0
 91
        1
 62
     0
 92
       -2
340
0
 93
        0
 40
0.045
309
GRIDFORMAT_END
309
TABLEFORMAT_END
  1
CELLSTYLE_BEGIN
 90
        2
 91
        1
300
_HEADER
309
CELLSTYLE_END
300
CELLSTYLE
  1
TABLEFORMAT_BEGIN
 90
        5
170
     1
 91
        0
 92
        0
 62
   257
 93
        1
300
CONTENTFORMAT
  1
CONTENTFORMAT_BEGIN
 90
        0
 91
        0
 92
        4
 93
        0
300

 40
0.0
140
1.0
 94
        2
 62
     0
340
852
144
0.18
309
CONTENTFORMAT_END
171
     1
301
MARGIN
  1
CELLMARGIN_BEGIN
 40
0.06
 40
0.06
 40
0.06
 40
0.06
 40
0.18
 40
0.18
309
CELLMARGIN_END
 94
        6
 95
        1
302
GRIDFORMAT
  1
GRIDFORMAT_BEGIN
 90
        0
 91
        1
 62
     0
 92
       -2
340
0
 93
        0
 40
0.045
309
GRIDFORMAT_END
 95
        2
302
GRIDFORMAT
  1
GRIDFORMAT_BEGIN
 90
        0
 91
        1
 62
     0
 92
       -2
340
0
 93
        0
 40
0.045
309
GRIDFORMAT_END
 95
        4
302
GRIDFORMAT
  1
GRIDFORMAT_BEGIN
 90
        0
 91
        1
 62
     0
 92
       -2
340
0
 93
        0
 40
0.045
309
GRIDFORMAT_END
 95
        8
302
GRIDFORMAT
  1
GRIDFORMAT_BEGIN
 90
        0
 91
        1
 62
     0
 92
       -2
340
0
 93
        0
 40
0.045
309
GRIDFORMAT_END
 95
       16
302
GRIDFORMAT
  1
GRIDFORMAT_BEGIN
 90
        0
 91
        1
 62
     0
 92
       -2
340
0
 93
        0
 40
0.045
309
GRIDFORMAT_END
 95
       32
302
GRIDFORMAT
  1
GRIDFORMAT_BEGIN
 90
        0
 91
        1
 62
     0
 92
       -2
340
0
 93
        0
 40
0.045
309
GRIDFORMAT_END
309
TABLEFORMAT_END
  1
CELLSTYLE_BEGIN
 90
        3
 91
        2
300
_DATA
309
CELLSTYLE_END
  0
XRECORD
  5
20F8
102
{ACAD_REACTORS
330
14CA
102
}
330
14CA
100
AcDbXrecord
280
     1
102
ACAD_ROUNDTRIP_PRE2007_TABLESTYLE
 90
        4
 91
        0
  1

 92
        4
 93
        0
  2

 94
        4
 95
        0
  3

  0
ENDSEC
  0
EOF
