  0
SECTION
  2
HEADER
  9
$ACADVER
  1
AC1015
  9
$ACADMAINTVER
 70
    20
  9
$DWGCODEPAGE
  3
ANSI_932
  9
$INSBASE
 10
0.0
 20
0.0
 30
0.0
  9
$EXTMIN
 10
-722.2614020234102
 20
-891.3921973806122
 30
0.0
  9
$EXTMAX
 10
930.458014049584
 20
894.2192993351115
 30
0.0
  9
$LIMMIN
 10
-2970.0
 20
-2100.0
  9
$LIMMAX
 10
2970.0
 20
2100.0
  9
$ORTHOMODE
 70
     1
  9
$REGENMODE
 70
     0
  9
$FILLMODE
 70
     1
  9
$QTEXTMODE
 70
     0
  9
$MIRRTEXT
 70
     0
  9
$LTSCALE
 40
20.0
  9
$ATTMODE
 70
     1
  9
$TEXTSIZE
 40
64.0
  9
$TRACEWID
 40
0.05
  9
$TEXTSTYLE
  7
STANDARD
  9
$CLAYER
  8
0
  9
$CELTYPE
  6
CONTINUOUS
  9
$CECOLOR
 62
   256
  9
$CELTSCALE
 40
1.0
  9
$DISPSILH
 70
     0
  9
$DIMSCALE
 40
1.0
  9
$DIMASZ
 40
0.12
  9
$DIMEXO
 40
0.05
  9
$DIMDLI
 40
0.5
  9
$DIMRND
 40
0.0
  9
$DIMDLE
 40
0.0
  9
$DIMEXE
 40
0.1
  9
$DIMTP
 40
0.1
  9
$DIMTM
 40
0.1
  9
$DIMTXT
 40
0.12
  9
$DIMCEN
 40
0.0
  9
$DIMTSZ
 40
0.0
  9
$DIMTOL
 70
     0
  9
$DIMLIM
 70
     0
  9
$DIMTIH
 70
     1
  9
$DIMTOH
 70
     1
  9
$DIMSE1
 70
     0
  9
$DIMSE2
 70
     0
  9
$DIMTAD
 70
     0
  9
$DIMZIN
 70
     7
  9
$DIMBLK
  1

  9
$DIMASO
 70
     1
  9
$DIMSHO
 70
     0
  9
$DIMPOST
  1

  9
$DIMAPOST
  1
mm
  9
$DIMALT
 70
     0
  9
$DIMALTD
 70
     2
  9
$DIMALTF
 40
25.4
  9
$DIMLFAC
 40
1.0
  9
$DIMTOFL
 70
     0
  9
$DIMTVP
 40
0.0
  9
$DIMTIX
 70
     0
  9
$DIMSOXD
 70
     0
  9
$DIMSAH
 70
     0
  9
$DIMBLK1
  1

  9
$DIMBLK2
  1

  9
$DIMSTYLE
  2
AM_ANSI
  9
$DIMCLRD
 70
   256
  9
$DIMCLRE
 70
   256
  9
$DIMCLRT
 70
     2
  9
$DIMTFAC
 40
0.71
  9
$DIMGAP
 40
0.06
  9
$DIMJUST
 70
     0
  9
$DIMSD1
 70
     0
  9
$DIMSD2
 70
     0
  9
$DIMTOLJ
 70
     1
  9
$DIMTZIN
 70
     7
  9
$DIMALTZ
 70
     0
  9
$DIMALTTZ
 70
     0
  9
$DIMUPT
 70
     0
  9
$DIMDEC
 70
     4
  9
$DIMTDEC
 70
     4
  9
$DIMALTU
 70
     2
  9
$DIMALTTD
 70
     4
  9
$DIMTXSTY
  7
STANDARD
  9
$DIMAUNIT
 70
     0
  9
$DIMADEC
 70
     0
  9
$DIMALTRND
 40
0.0
  9
$DIMAZIN
 70
     2
  9
$DIMDSEP
 70
    46
  9
$DIMATFIT
 70
     3
  9
$DIMFRAC
 70
     0
  9
$DIMLDRBLK
  1

  9
$DIMLUNIT
 70
     2
  9
$DIMLWD
 70
    -1
  9
$DIMLWE
 70
    -1
  9
$DIMTMOVE
 70
     0
  9
$LUNITS
 70
     2
  9
$LUPREC
 70
     4
  9
$SKETCHINC
 40
0.1
  9
$FILLETRAD
 40
4.0
  9
$AUNITS
 70
     1
  9
$AUPREC
 70
     3
  9
$MENU
  1
ACAD
  9
$ELEVATION
 40
0.0
  9
$PELEVATION
 40
0.0
  9
$THICKNESS
 40
50.0
  9
$LIMCHECK
 70
     0
  9
$CHAMFERA
 40
5.0
  9
$CHAMFERB
 40
5.0
  9
$CHAMFERC
 40
0.0
  9
$CHAMFERD
 40
0.0
  9
$SKPOLY
 70
     0
  9
$TDCREATE
 40
2452321.396199653
  9
$TDUCREATE
 40
2452321.021199653
  9
$TDUPDATE
 40
2457113.654898033
  9
$TDUUPDATE
 40
2457113.279898033
  9
$TDINDWG
 40
0.8176976505
  9
$TDUSRTIMER
 40
0.8176949769
  9
$USRTIMER
 70
     1
  9
$ANGBASE
 50
0.0
  9
$ANGDIR
 70
     0
  9
$PDMODE
 70
     3
  9
$PDSIZE
 40
-2.0
  9
$PLINEWID
 40
0.0
  9
$SPLFRAME
 70
     0
  9
$SPLINETYPE
 70
     6
  9
$SPLINESEGS
 70
     8
  9
$HANDSEED
  5
1E6C
  9
$SURFTAB1
 70
     6
  9
$SURFTAB2
 70
     6
  9
$SURFTYPE
 70
     6
  9
$SURFU
 70
     6
  9
$SURFV
 70
     6
  9
$UCSBASE
  2

  9
$UCSNAME
  2

  9
$UCSORG
 10
0.0
 20
0.0
 30
0.0
  9
$UCSXDIR
 10
1.0
 20
0.0
 30
0.0
  9
$UCSYDIR
 10
0.0
 20
1.0
 30
0.0
  9
$UCSORTHOREF
  2

  9
$UCSORTHOVIEW
 70
     0
  9
$UCSORGTOP
 10
0.0
 20
0.0
 30
0.0
  9
$UCSORGBOTTOM
 10
0.0
 20
0.0
 30
0.0
  9
$UCSORGLEFT
 10
0.0
 20
0.0
 30
0.0
  9
$UCSORGRIGHT
 10
0.0
 20
0.0
 30
0.0
  9
$UCSORGFRONT
 10
0.0
 20
0.0
 30
0.0
  9
$UCSORGBACK
 10
0.0
 20
0.0
 30
0.0
  9
$PUCSBASE
  2

  9
$PUCSNAME
  2

  9
$PUCSORG
 10
0.0
 20
0.0
 30
0.0
  9
$PUCSXDIR
 10
1.0
 20
0.0
 30
0.0
  9
$PUCSYDIR
 10
0.0
 20
1.0
 30
0.0
  9
$PUCSORTHOREF
  2

  9
$PUCSORTHOVIEW
 70
     0
  9
$PUCSORGTOP
 10
0.0
 20
0.0
 30
0.0
  9
$PUCSORGBOTTOM
 10
0.0
 20
0.0
 30
0.0
  9
$PUCSORGLEFT
 10
0.0
 20
0.0
 30
0.0
  9
$PUCSORGRIGHT
 10
0.0
 20
0.0
 30
0.0
  9
$PUCSORGFRONT
 10
0.0
 20
0.0
 30
0.0
  9
$PUCSORGBACK
 10
0.0
 20
0.0
 30
0.0
  9
$USERI1
 70
     0
  9
$USERI2
 70
     0
  9
$USERI3
 70
     0
  9
$USERI4
 70
     0
  9
$USERI5
 70
     0
  9
$USERR1
 40
20.0
  9
$USERR2
 40
0.0
  9
$USERR3
 40
0.0
  9
$USERR4
 40
0.0
  9
$USERR5
 40
0.0
  9
$WORLDVIEW
 70
     1
  9
$SHADEDGE
 70
     3
  9
$SHADEDIF
 70
    70
  9
$TILEMODE
 70
     1
  9
$MAXACTVP
 70
    64
  9
$PINSBASE
 10
0.0
 20
0.0
 30
0.0
  9
$PLIMCHECK
 70
     0
  9
$PEXTMIN
 10
1.000000000000000E+20
 20
1.000000000000000E+20
 30
1.000000000000000E+20
  9
$PEXTMAX
 10
-1.000000000000000E+20
 20
-1.000000000000000E+20
 30
-1.000000000000000E+20
  9
$PLIMMIN
 10
0.0
 20
0.0
  9
$PLIMMAX
 10
12.0
 20
9.0
  9
$UNITMODE
 70
     0
  9
$VISRETAIN
 70
     1
  9
$PLINEGEN
 70
     0
  9
$PSLTSCALE
 70
     1
  9
$TREEDEPTH
 70
  3020
  9
$CMLSTYLE
  2
STANDARD
  9
$CMLJUST
 70
     0
  9
$CMLSCALE
 40
1.0
  9
$PROXYGRAPHICS
 70
     1
  9
$MEASUREMENT
 70
     0
  9
$CELWEIGHT
370
    -1
  9
$ENDCAPS
280
     0
  9
$JOINSTYLE
280
     0
  9
$LWDISPLAY
290
     0
  9
$INSUNITS
 70
     0
  9
$HYPERLINKBASE
  1

  9
$STYLESHEET
  1

  9
$XEDIT
290
     1
  9
$CEPSNTYPE
380
     0
  9
$PSTYLEMODE
290
     1
  9
$FINGERPRINTGUID
  2
{68F3F60F-982D-43C0-B084-568AB2094408}
  9
$VERSIONGUID
  2
{7A3A4731-CEBC-4168-807B-1FF7D074F5BA}
  9
$EXTNAMES
290
     1
  9
$PSVPSCALE
 40
0.0
  9
$OLESTARTUP
290
     0
  0
ENDSEC
  0
SECTION
  2
CLASSES
  0
CLASS
  1
ACDBDICTIONARYWDFLT
  2
AcDbDictionaryWithDefault
  3
ObjectDBX Classes
 90
        0
280
     0
281
     0
  0
CLASS
  1
ACDBPLACEHOLDER
  2
AcDbPlaceHolder
  3
ObjectDBX Classes
 90
        0
280
     0
281
     0
  0
CLASS
  1
LAYOUT
  2
AcDbLayout
  3
ObjectDBX Classes
 90
        0
280
     0
281
     0
  0
CLASS
  1
DICTIONARYVAR
  2
AcDbDictionaryVar
  3
ObjectDBX Classes
 90
        0
280
     0
281
     0
  0
CLASS
  1
TABLESTYLE
  2
AcDbTableStyle
  3
ObjectDBX Classes
 90
     4095
280
     0
281
     0
  0
CLASS
  1
ACME_DOCUMENT
  2
AcMeDbDoc
  3
AcMeServices
 90
     1024
280
     0
281
     0
  0
CLASS
  1
AMGSETTINGSOBJ
  2
AmgSettingsObj
  3
"AcadM|Product Description: AutoCAD Mechanical|Company: Autodesk, Inc."
 90
     1024
280
     0
281
     0
  0
CLASS
  1
ACMESCOPE
  2
AcMeScope
  3
AcMeServices
 90
     1024
280
     0
281
     0
  0
CLASS
  1
ACMECOMMANDHISTORY
  2
AcMeCommandHistory
  3
AcMeServices
 90
     1024
280
     0
281
     0
  0
CLASS
  1
ACIMSYSVARMAN
  2
AcImSysVarManager
  3
AcMeServices
 90
     1024
280
     0
281
     0
  0
CLASS
  1
ACIMREALSYSVAR
  2
AcImRealSysVar
  3
AcMeServices
 90
     1024
280
     0
281
     0
  0
CLASS
  1
ACIMINTSYSVAR
  2
AcImIntSysVar
  3
AcMeServices
 90
     1024
280
     0
281
     0
  0
CLASS
  1
ACMEDRAWINGMAN
  2
AcMeDrawingMan
  3
AcMeServices
 90
     1024
280
     0
281
     0
  0
CLASS
  1
ACMEVIEW
  2
AcMeView
  3
AcMeServices
 90
     1024
280
     0
281
     0
  0
CLASS
  1
ACDBENTITYCACHE
  2
AcMeEntityCache
  3
AcMeServices
 90
     1024
280
     0
281
     0
  0
CLASS
  1
GSMANAGER
  2
AcMeGSManager
  3
AcMeServices
 90
     1024
280
     0
281
     0
  0
CLASS
  1
AMDTINTERNALREACTOR
  2
AmdtInternalReactor
  3
AcMeServices
 90
     1024
280
     0
281
     0
  0
CLASS
  1
ACMESTATEMGR
  2
AcMeStateMgr
  3
AcMeServices
 90
     1024
280
     0
281
     0
  0
CLASS
  1
ACGREFMASTER
  2
AcGrefMaster
  3
AcAttribServices
 90
     1024
280
     0
281
     0
  0
CLASS
  1
AM_DRAWING_MGR
  2
AcDmDwgMgr
  3
AcMechDwgViewMgmt
 90
     1024
280
     0
281
     0
  0
CLASS
  1
AM_DWG_DOCUMENT
  2
AcDmDwgDocument
  3
AcMechDwgViewMgmt
 90
     1024
280
     0
281
     0
  0
CLASS
  1
AM_DWG_SHEET
  2
AcDmSheet
  3
AcMechDwgViewMgmt
 90
     1024
280
     0
281
     0
  0
CLASS
  1
AM_VIEWDIMPARMAP
  2
AcDmViewDimParMap
  3
AcMechDwgViewMgmt
 90
     1024
280
     0
281
     0
  0
CLASS
  1
AM_DWGMGR_NAME
  2
AcDmDwgMgrName
  3
AcMechDwgViewMgmt
 90
     1024
280
     0
281
     0
  0
CLASS
  1
ACME_DATABASE
  2
AcMeDbDatabase
  3
AcMeServices
 90
     1024
280
     0
281
     0
  0
CLASS
  1
ACRFINSADJUSTERMGR
  2
AcRfInsAdjusterMgr
  3
AcMeServices
 90
     1024
280
     0
281
     0
  0
CLASS
  1
ACGREFACADMASTER
  2
AcGrefacadMaster
  3
AcGrefServices
 90
     1024
280
     0
281
     0
  0
CLASS
  1
AMDTMENUSTATEMGR
  2
AmdtMenuStateMgr
  3
McadcomServices
 90
     1024
280
     0
281
     0
  0
CLASS
  1
AMDTMCOMMENUSTATE
  2
AmdtMcomMenuState
  3
McadcomServices
 90
     1024
280
     0
281
     0
  0
CLASS
  1
AMIMASTER
  2
AmiMaster
  3
AmiServices
 90
     1024
280
     0
281
     0
  0
CLASS
  1
ASAPP
  2
AcAsAppObject
  3
AutoSurfServices
 90
     1024
280
     0
281
     0
  0
CLASS
  1
IM_STATIC_MAN
  2
AcImStaticVarManager
  3
AcMeServices
 90
     1024
280
     0
281
     0
  0
CLASS
  1
ACIMSTRSYSVAR
  2
AcImStrSysVar
  3
AcMeServices
 90
     1024
280
     0
281
     0
  0
CLASS
  1
ACIMDBLSTATICVAR
  2
AcImDblStaticVar
  3
AcMeServices
 90
     1024
280
     0
281
     0
  0
CLASS
  1
ACIMSTRSTATICVAR
  2
AcImStrStaticVar
  3
AcMeServices
 90
     1024
280
     0
281
     0
  0
CLASS
  1
ACIMINTSTATICVAR
  2
AcImIntStaticVar
  3
AcMeServices
 90
     1024
280
     0
281
     0
  0
CLASS
  1
ACASGREFMASTER
  2
AcAsGrefMaster
  3
AutoSurfResolverServices
 90
     1024
280
     0
281
     0
  0
CLASS
  1
ACADGREFMODULE
  2
AcAdGrefModule
  3
AdGrefServices
 90
     1024
280
     0
281
     0
  0
CLASS
  1
AMDTMAPISURFMOUDULE
  2
AmdtMApiSurfModule
  3
MApiSurfServices
 90
    33792
280
     0
281
     0
  0
CLASS
  1
MAPIAMMOUDLE
  2
MApiAmModule
  3
MApiAmServices
 90
     1024
280
     0
281
     0
  0
CLASS
  1
AMDTADMENUSTATE
  2
AmdtAdMenuState
  3
DesignerServices
 90
     1024
280
     0
281
     0
  0
CLASS
  1
ADAPPL
  2
AcAdAppl
  3
DesignerServices
 90
     1024
280
     0
281
     0
  0
CLASS
  1
DEPMGR
  2
AcAdDepMgr
  3
DesignerServices
 90
     1024
280
     0
281
     0
  0
CLASS
  1
PARAMMGR
  2
AcAdParamMgr
  3
DesignerServices
 90
     1024
280
     0
281
     0
  0
CLASS
  1
PARAMSCOPE
  2
AcAdParamScope
  3
DesignerServices
 90
     1024
280
     0
281
     0
  0
CLASS
  1
NAMEDAPPL
  2
AcAdNamedAppl
  3
DesignerServices
 90
     1024
280
     0
281
     0
  0
CLASS
  1
AMDTDMMENUSTATE
  2
AmdtDmMenuState
  3
AcMechDwgViewMgmt
 90
     1024
280
     0
281
     0
  0
CLASS
  1
MAPIADMODULE
  2
MApiAdModule
  3
MApiAdServices
 90
     1024
280
     0
281
     0
  0
CLASS
  1
AMDTAMMENUSTATE
  2
AmdtAmMenuState
  3
DesignerAssemblies
 90
     1024
280
     0
281
     0
  0
CLASS
  1
ACAMPROJECT
  2
AcAmProject
  3
DesignerAssemblies
 90
     1024
280
     0
281
     0
  0
CLASS
  1
ACAMGRCOMPDEF
  2
AcAmGrCompDef
  3
DesignerAssemblies
 90
     1024
280
     0
281
     0
  0
CLASS
  1
ACCMCONTEXT
  2
AcCmContext
  3
DesignerAssemblies
 90
     1024
280
     0
281
     0
  0
CLASS
  1
ACAMCOMPDEF
  2
AcAmCompDef
  3
DesignerAssemblies
 90
     1024
280
     0
281
     0
  0
CLASS
  1
ACAMCOMPDEFMGR
  2
AcAmCompDefMgr
  3
DesignerAssemblies
 90
     1024
280
     0
281
     0
  0
CLASS
  1
AMCONTEXTMGR
  2
AcAmContextMgr
  3
DesignerAssemblies
 90
     1024
280
     0
281
     0
  0
CLASS
  1
ACAMCONTEXTMODELER
  2
AcAmContextModeler
  3
DesignerAssemblies
 90
     1024
280
     0
281
     0
  0
CLASS
  1
ACMDATADICTIONARY
  2
AcmDataDictionary
  3
"AcmSymBB|Product Description: AutoCAD Mechanical|Company: Autodesk, Inc."
 90
     1024
280
     0
281
     0
  0
CLASS
  1
ACMDATAENTRYBLOCK
  2
AcmDataEntryBlock
  3
AcmSymBB|Product Description: AutoCAD Mechanical|Company: Autodesk, Inc.
 90
     1024
280
     0
281
     0
  0
CLASS
  1
CATALOGSTATE
  2
AcAmCatalogState
  3
DesignerAssemblies
 90
     1024
280
     0
281
     0
  0
CLASS
  1
ACAMGRCOMPDEFSET
  2
AcAmGrCompDefSet
  3
DesignerAssemblies
 90
     1024
280
     0
281
     0
  0
CLASS
  1
AMDTBROWSERDBTAB
  2
AmdtBrowserDbTab
  3
McadcomServices
 90
     1024
280
     0
281
     0
  0
CLASS
  1
CBROWSERAPPOBJECT
  2
CBrowserAppObject
  3
McadcomServices
 90
     1024
280
     0
281
     0
  0
CLASS
  1
DM_PLACEHOLDER
  2
AcDmSelsetPlaceholder
  3
AcMechDwgViewMgmt
 90
     1024
280
     0
281
     0
  0
CLASS
  1
ACMSTANDARDANSI
  2
AcmStandardANSI
  3
"Amdt_StdImp|Product Description: AutoCAD Mechanical|Company: Autodesk, Inc."
 90
     1024
280
     0
281
     0
  0
CLASS
  1
AMGOBJPROPCFG
  2
AmgObjPropCfg
  3
"AmgLay|Product Description: AutoCAD Mechanical|Company: Autodesk, Inc."
 90
     1025
280
     0
281
     0
  0
CLASS
  1
ACMSURFSTANDARDANSI
  2
AcmSurfTextStdANSI
  3
"Amdt_StdImp|Product Description: AutoCAD Mechanical|Company: Autodesk, Inc."
 90
     1024
280
     0
281
     0
  0
CLASS
  1
ACMFCFSTANDARDANSI
  2
AcmFCFStdANSI
  3
"Amdt_StdImp|Product Description: AutoCAD Mechanical|Company: Autodesk, Inc."
 90
     1024
280
     0
281
     0
  0
CLASS
  1
ACMWELDSTANDARDANSI
  2
AcmWeldingStdANSI
  3
"Amdt_StdImp|Product Description: AutoCAD Mechanical|Company: Autodesk, Inc."
 90
     1024
280
     0
281
     0
  0
CLASS
  1
ACMIDSTANDARDANSI
  2
AcmIdStdANSI
  3
"Amdt_StdImp|Product Description: AutoCAD Mechanical|Company: Autodesk, Inc."
 90
     1024
280
     0
281
     0
  0
CLASS
  1
ACMDATUMSTANDARDANSI
  2
AcmDatumStdANSI
  3
"Amdt_StdImp|Product Description: AutoCAD Mechanical|Company: Autodesk, Inc."
 90
     1024
280
     0
281
     0
  0
CLASS
  1
ACMBOMSTANDARDANSI
  2
AcmBOMStdANSI
  3
"Amdt_StdImp|Product Description: AutoCAD Mechanical|Company: Autodesk, Inc."
 90
     1024
280
     0
281
     0
  0
CLASS
  1
ACMDETAILSTANDARDANSI
  2
AmdtDetailSymStdANSI
  3
"Amdt_StdImp|Product Description: AutoCAD Mechanical|Company: Autodesk, Inc."
 90
     1024
280
     0
281
     0
  0
CLASS
  1
ACMSECTIONSTANDARDANSI
  2
AmdtSectionSymStdANSI
  3
"Amdt_StdImp|Product Description: AutoCAD Mechanical|Company: Autodesk, Inc."
 90
     1024
280
     0
281
     0
  0
CLASS
  1
ACMCENTERLINESTANDARDANSI
  2
AmdtCenterLineStdANSI
  3
"Amdt_StdImp|Product Description: AutoCAD Mechanical|Company: Autodesk, Inc."
 90
     1024
280
     0
281
     0
  0
CLASS
  1
ACMTHREADLINESTANDARDANSI
  2
AmdtThreadLineStdANSI
  3
"Amdt_StdImp|Product Description: AutoCAD Mechanical|Company: Autodesk, Inc."
 90
     1024
280
     0
281
     0
  0
CLASS
  1
ACMNOTESTANDARDANSI
  2
AmdtNoteStdANSI
  3
"Amdt_StdImp|Product Description: AutoCAD Mechanical|Company: Autodesk, Inc."
 90
     1024
280
     0
281
     0
  0
CLASS
  1
AMDTNOTETEMPLATEDB
  2
AmdtNoteTemplateDB
  3
AcmSymBB|Product Description: AutoCAD Mechanical|Company: Autodesk, Inc.
 90
     1024
280
     0
281
     0
  0
CLASS
  1
ACAMGLAYSTD
  2
AcAmgLayStd
  3
"AmgLay|Product Description: AutoCAD Mechanical|Company: Autodesk, Inc."
 90
     1024
280
     0
281
     0
  0
CLASS
  1
ACAMGDIMSTD
  2
AcAmgDimStd
  3
"AmgDim|Product Description: AutoCAD Mechanical|Company: Autodesk, Inc."
 90
     1024
280
     0
281
     0
  0
CLASS
  1
ACAMGHOLECHARTSTDANSI
  2
AcAmgHoleChartStdANSI
  3
AmgDim|Product Description: AutoCAD Mechanical|Company: Autodesk, Inc.
 90
     1024
280
     0
281
     0
  0
CLASS
  1
ACAMGTITLESTD
  2
AcAmgTitleStd
  3
"AmgTitle|Product Description: AutoCAD Mechanical|Company: Autodesk, Inc."
 90
     4095
280
     0
281
     0
  0
CLASS
  1
ACAMGFILTERDAT
  2
AcAmgFilterDat
  3
"AcadM|Product Description: AutoCAD Mechanical|Company: Autodesk, Inc."
 90
     1024
280
     0
281
     0
  0
CLASS
  1
LAYER_INDEX
  2
AcDbLayerIndex
  3
ObjectDBX Classes
 90
        0
280
     0
281
     0
  0
CLASS
  1
IDBUFFER
  2
AcDbIdBuffer
  3
ObjectDBX Classes
 90
        0
280
     0
281
     0
  0
CLASS
  1
SORTENTSTABLE
  2
AcDbSortentsTable
  3
ObjectDBX Classes
 90
        0
280
     0
281
     0
  0
CLASS
  1
MATERIAL
  2
AcDbMaterial
  3
ObjectDBX Classes
 90
     1153
280
     0
281
     0
  0
CLASS
  1
VISUALSTYLE
  2
AcDbVisualStyle
  3
ObjectDBX Classes
 90
     4095
280
     0
281
     0
  0
CLASS
  1
SCALE
  2
AcDbScale
  3
ObjectDBX Classes
 90
     1153
280
     0
281
     0
  0
CLASS
  1
MLEADERSTYLE
  2
AcDbMLeaderStyle
  3
ACDB_MLEADERSTYLE_CLASS
 90
     4095
280
     0
281
     0
  0
CLASS
  1
CELLSTYLEMAP
  2
AcDbCellStyleMap
  3
ObjectDBX Classes
 90
     1152
280
     0
281
     0
  0
CLASS
  1
ACRFATTGENMGR
  2
AcRfAttGeneralMgr
  3
AcAttribServices
 90
     1024
280
     0
281
     0
  0
CLASS
  1
ACRFOBJATTMGR
  2
AcRfObjAttGroupMgr
  3
AcAttribServices
 90
     1024
280
     0
281
     0
  0
CLASS
  1
ACRFMCADAPIATTHOLDER
  2
AcRfMCADAPIAttHolder
  3
AcAttribServices
 90
     1024
280
     0
281
     0
  0
CLASS
  1
AMDTSYSATTR
  2
AmdtSystemAttribute
  3
AcAttribServices
 90
     1024
280
     0
281
     0
  0
CLASS
  1
ACMTAPERSTANDARDANSI
  2
AcmTaperStdANSI
  3
"Amdt_StdImp|Product Description: AutoCAD Mechanical|Company: Autodesk, Inc."
 90
     1024
280
     0
281
     0
  0
CLASS
  1
ACMANOOTATIONVIEWSTANDARDANSI
  2
AmdtAnViewStdANSI
  3
"Amdt_StdImp|Product Description: AutoCAD Mechanical|Company: Autodesk, Inc."
 90
     1024
280
     0
281
     0
  0
ENDSEC
  0
SECTION
  2
TABLES
  0
TABLE
  2
VPORT
  5
849
330
0
100
AcDbSymbolTable
 70
     1
  0
VPORT
  5
139A
330
849
100
AcDbSymbolTableRecord
100
AcDbViewportTableRecord
  2
*Active
 70
     0
 10
0.0
 20
0.0
 11
1.0
 21
1.0
 12
0.0
 22
0.0
 13
0.0
 23
0.0
 14
1.0
 24
1.0
 15
0.0
 25
0.0
 16
0.0
 26
0.0
 36
1.0
 17
400.3620485972914
 27
1.41355097724974
 37
0.0
 40
1798.090083883035
 41
1.733421750663129
 42
50.0
 43
0.0
 44
0.0
 50
0.0
 51
0.0
 71
     0
 72
   100
 73
     1
 74
     0
 75
     0
 76
     0
 77
     0
 78
     0
281
     0
 65
     0
110
0.0
120
0.0
130
0.0
111
1.0
121
0.0
131
0.0
112
0.0
122
1.0
132
0.0
 79
     0
146
0.0
  0
ENDTAB
  0
TABLE
  2
LTYPE
  5
846
330
0
100
AcDbSymbolTable
 70
    20
  0
LTYPE
  5
854
330
846
100
AcDbSymbolTableRecord
100
AcDbLinetypeTableRecord
  2
BYBLOCK
 70
     0
  3

 72
    65
 73
     0
 40
0.0
  0
LTYPE
  5
855
330
846
100
AcDbSymbolTableRecord
100
AcDbLinetypeTableRecord
  2
BYLAYER
 70
     0
  3

 72
    65
 73
     0
 40
0.0
  0
LTYPE
  5
856
330
846
100
AcDbSymbolTableRecord
100
AcDbLinetypeTableRecord
  2
CONTINUOUS
 70
     0
  3
実線
 72
    65
 73
     0
 40
0.0
  0
LTYPE
  5
865
330
846
100
AcDbSymbolTableRecord
100
AcDbLinetypeTableRecord
  2
DASHDOT
 70
     0
  3
____ _ ____ _ ____ _ ____ _ ____ _ ____ _ ____
 72
    65
 73
     4
 40
5.5
 49
4.0
 74
     0
 49
-0.6
 74
     0
 49
0.3
 74
     0
 49
-0.6
 74
     0
  0
LTYPE
  5
11AA
330
846
100
AcDbSymbolTableRecord
100
AcDbLinetypeTableRecord
  2
HIDDEN
 70
     0
  3
Hidden __ __ __ __ __ __ __ __ __ __ __ __ __ _
 72
    65
 73
     2
 40
0.375
 49
0.25
 74
     0
 49
-0.125
 74
     0
  0
LTYPE
  5
11AB
330
846
100
AcDbSymbolTableRecord
100
AcDbLinetypeTableRecord
  2
PHANTOM2
 70
     0
  3
Phantom (.5x) ___ _ _ ___ _ _ ___ _ _ ___ _ _
 72
    65
 73
     6
 40
1.25
 49
0.625
 74
     0
 49
-0.125
 74
     0
 49
0.125
 74
     0
 49
-0.125
 74
     0
 49
0.125
 74
     0
 49
-0.125
 74
     0
  0
LTYPE
  5
11AC
330
846
100
AcDbSymbolTableRecord
100
AcDbLinetypeTableRecord
  2
CENTER
 70
     0
  3
Center ____ _ ____ _ ____ _ ____ _ ____ _ ____
 72
    65
 73
     4
 40
2.0
 49
1.25
 74
     0
 49
-0.25
 74
     0
 49
0.25
 74
     0
 49
-0.25
 74
     0
  0
LTYPE
  5
11FB
330
846
100
AcDbSymbolTableRecord
100
AcDbLinetypeTableRecord
  2
ASULTYPE
 70
     0
  3
実線
 72
    65
 73
     2
 40
3.0
 49
2.5
 74
     0
 49
0.5
 74
     0
  0
LTYPE
  5
11FC
330
846
100
AcDbSymbolTableRecord
100
AcDbLinetypeTableRecord
  2
ASVLTYPE
 70
     0
  3
__ __ __ __ __ __ __ __ __ __ __ __ __ __ __ __ __ __ __ __ __
 72
    65
 73
     2
 40
0.75
 49
0.5
 74
     0
 49
-0.25
 74
     0
  0
LTYPE
  5
1243
330
846
100
AcDbSymbolTableRecord
100
AcDbLinetypeTableRecord
  2
AM_ISO02W050
 70
     0
  3
__ __ __ __ __ __ __ __ __ __ __ __ __ __ __
 72
    65
 73
     2
 40
7.5
 49
6.0
 74
     0
 49
-1.5
 74
     0
  0
LTYPE
  5
1244
330
846
100
AcDbSymbolTableRecord
100
AcDbLinetypeTableRecord
  2
AM_ISO08W050
 70
     0
  3
____ . ____ . ____ . ____ . ____ . ____ . ____
 72
    65
 73
     4
 40
18.0
 49
12.0
 74
     0
 49
-1.5
 74
     0
 49
3.0
 74
     0
 49
-1.5
 74
     0
  0
LTYPE
  5
1245
330
846
100
AcDbSymbolTableRecord
100
AcDbLinetypeTableRecord
  2
AM_ISO09W050
 70
     0
  3
_____ . . _____ . . _____ . . ____ .. ____
 72
    65
 73
     6
 40
22.5
 49
12.0
 74
     0
 49
-1.5
 74
     0
 49
3.0
 74
     0
 49
-1.5
 74
     0
 49
3.0
 74
     0
 49
-1.5
 74
     0
  0
LTYPE
  5
1246
330
846
100
AcDbSymbolTableRecord
100
AcDbLinetypeTableRecord
  2
Amconstr
 70
     0
  3
_______________________
 72
    65
 73
     2
 40
9999.0
 49
9999.0
 74
     0
 49
0.0
 74
     0
  0
LTYPE
  5
1247
330
846
100
AcDbSymbolTableRecord
100
AcDbLinetypeTableRecord
  2
AM_ISO08W050x2
 70
     0
  3
__ . __ . __ . __ . __ . __
 72
    65
 73
     4
 40
9.0
 49
6.0
 74
     0
 49
-0.75
 74
     0
 49
1.5
 74
     0
 49
-0.75
 74
     0
  0
LTYPE
  5
1248
330
846
100
AcDbSymbolTableRecord
100
AcDbLinetypeTableRecord
  2
AM_ISO02W050x2
 70
     0
  3
 _ _ _ _ _ _ _ _ _ _ _ _
 72
    65
 73
     2
 40
3.75
 49
3.0
 74
     0
 49
-0.75
 74
     0
  0
LTYPE
  5
124B
330
846
100
AcDbSymbolTableRecord
100
AcDbLinetypeTableRecord
  2
Amzigzag
 70
     0
  3
/\/-/\/-/\/-/\/-/\/-/\/
 72
    65
 73
     2
 40
11.0001
 49
0.0001
 74
     4
 75
   136
340
124A
 46
0.04
 50
0.0
 44
0.0
 45
0.0
 49
-11.0
 74
     0
  0
LTYPE
  5
124C
330
846
100
AcDbSymbolTableRecord
100
AcDbLinetypeTableRecord
  2
CENTER2
 70
     0
  3
Center (.5x) ___ _ ___ _ ___ _ ___ _ ___ _ ___
 72
    65
 73
     4
 40
1.125
 49
0.75
 74
     0
 49
-0.125
 74
     0
 49
0.125
 74
     0
 49
-0.125
 74
     0
  0
LTYPE
  5
124D
330
846
100
AcDbSymbolTableRecord
100
AcDbLinetypeTableRecord
  2
HIDDEN2
 70
     0
  3
Hidden (.5x) _ _ _ _ _ _ _ _ _ _ _ _ _ _ _ _ _
 72
    65
 73
     2
 40
0.1875
 49
0.125
 74
     0
 49
-0.0625
 74
     0
  0
LTYPE
  5
124E
330
846
100
AcDbSymbolTableRecord
100
AcDbLinetypeTableRecord
  2
Amzigzag2
 70
     0
  3
/\/-/\/-/\/-/\/-/\/-/\/
 72
    65
 73
     2
 40
0.4401
 49
0.0001
 74
     4
 75
   136
340
124A
 46
0.0016
 50
0.0
 44
0.0
 45
0.0
 49
-0.4400000000000003
 74
     0
  0
LTYPE
  5
125C
330
846
100
AcDbSymbolTableRecord
100
AcDbLinetypeTableRecord
  2
ACANSTGB
 70
     0
  3
__ . . __ . .
 72
    65
 73
     6
 40
0.35433070866
 49
0.15748031496
 74
     0
 49
-0.03937007874
 74
     0
 49
0.03937007874
 74
     0
 49
-0.03937007874
 74
     0
 49
0.03937007874
 74
     0
 49
-0.03937007874
 74
     0
  0
LTYPE
  5
125D
330
846
100
AcDbSymbolTableRecord
100
AcDbLinetypeTableRecord
  2
ACANSTGL
 70
     0
  3
_ _ _ _ _
 72
    65
 73
     2
 40
0.11811023622
 49
0.07874015748
 74
     0
 49
-0.03937007874
 74
     0
  0
ENDTAB
  0
TABLE
  2
LAYER
  5
843
102
{ACAD_XDICTIONARY
360
15AB
102
}
330
0
100
AcDbSymbolTable
 70
    12
  0
LAYER
  5
851
102
{ACAD_XDICTIONARY
360
142F
102
}
330
843
100
AcDbSymbolTableRecord
100
AcDbLayerTableRecord
  2
0
 70
     0
 62
     7
  6
CONTINUOUS
370
    -3
390
B83
  0
LAYER
  5
863
102
{ACAD_XDICTIONARY
360
1431
102
}
330
843
100
AcDbSymbolTableRecord
100
AcDbLayerTableRecord
  2
OUTLINE
 70
     0
 62
     3
  6
CONTINUOUS
370
    -3
390
B83
  0
LAYER
  5
866
102
{ACAD_XDICTIONARY
360
1433
102
}
330
843
100
AcDbSymbolTableRecord
100
AcDbLayerTableRecord
  2
SIZE
 70
     0
 62
    30
  6
CONTINUOUS
370
    -3
390
B83
  0
LAYER
  5
867
102
{ACAD_XDICTIONARY
360
1435
102
}
330
843
100
AcDbSymbolTableRecord
100
AcDbLayerTableRecord
  2
BASIS
 70
     0
 62
     6
  6
DASHDOT
370
    -3
390
B83
  0
LAYER
  5
868
102
{ACAD_XDICTIONARY
360
1437
102
}
330
843
100
AcDbSymbolTableRecord
100
AcDbLayerTableRecord
  2
DETAIL
 70
     0
 62
     5
  6
CONTINUOUS
370
    -3
390
B83
  0
LAYER
  5
869
102
{ACAD_XDICTIONARY
360
1439
102
}
330
843
100
AcDbSymbolTableRecord
100
AcDbLayerTableRecord
  2
ARRANGE
 70
     0
 62
     1
  6
CONTINUOUS
370
    -3
390
B83
  0
LAYER
  5
86A
330
843
100
AcDbSymbolTableRecord
100
AcDbLayerTableRecord
  2
DEFPOINTS
 70
     0
 62
     7
  6
CONTINUOUS
290
     0
370
    -3
390
B83
  0
LAYER
  5
86B
102
{ACAD_XDICTIONARY
360
143B
102
}
330
843
100
AcDbSymbolTableRecord
100
AcDbLayerTableRecord
  2
ETC
 70
     0
 62
    61
  6
CONTINUOUS
370
    -3
390
B83
  0
LAYER
  5
86C
102
{ACAD_XDICTIONARY
360
143D
102
}
330
843
100
AcDbSymbolTableRecord
100
AcDbLayerTableRecord
  2
FIX
 70
     0
 62
    11
  6
CONTINUOUS
370
    -3
390
B83
  0
LAYER
  5
86D
102
{ACAD_XDICTIONARY
360
143F
102
}
330
843
100
AcDbSymbolTableRecord
100
AcDbLayerTableRecord
  2
NOTE
 70
     0
 62
     4
  6
CONTINUOUS
370
    -3
390
B83
  0
LAYER
  5
86E
102
{ACAD_XDICTIONARY
360
1441
102
}
330
843
100
AcDbSymbolTableRecord
100
AcDbLayerTableRecord
  2
SERVICESPACE
 70
     0
 62
     2
  6
DASHDOT
370
    -3
390
B83
  0
LAYER
  5
86F
102
{ACAD_XDICTIONARY
360
1443
102
}
330
843
100
AcDbSymbolTableRecord
100
AcDbLayerTableRecord
  2
SYMBOLLINE
 70
     0
 62
    15
  6
CONTINUOUS
370
    -3
390
B83
  0
ENDTAB
  0
TABLE
  2
STYLE
  5
844
330
0
100
AcDbSymbolTable
 70
     5
  0
STYLE
  5
852
330
844
100
AcDbSymbolTableRecord
100
AcDbTextStyleTableRecord
  2
STANDARD
 70
     0
 40
64.0
 41
0.9
 50
0.0
 71
     0
 42
64.0
  3
SIMPLEX.shx
  4
BIGFONT.shx
  0
STYLE
  5
124A
330
844
100
AcDbSymbolTableRecord
100
AcDbTextStyleTableRecord
  2

 70
     1
 40
0.0
 41
1.0
 50
0.0
 71
     0
 42
64.0
  3
genltshp.shx
  4

  0
STYLE
  5
124F
330
844
100
AcDbSymbolTableRecord
100
AcDbTextStyleTableRecord
  2
ACANSTS
 70
     0
 40
1.0
 41
1.0
 50
0.0
 71
     0
 42
64.0
  3
romans.shx
  4
extfont.shx
  0
STYLE
  5
125B
330
844
100
AcDbSymbolTableRecord
100
AcDbTextStyleTableRecord
  2
ACANSGDT
 70
     0
 40
0.0
 41
1.0
 50
0.0
 71
     0
 42
64.0
  3
amgdt.shx
  4

  0
STYLE
  5
15A5
330
844
100
AcDbSymbolTableRecord
100
AcDbTextStyleTableRecord
  2
ADESK1
 70
     0
 40
0.0
 41
1.0
 50
0.0
 71
     0
 42
0.12
  3
romanc.shx
  4
extfont.shx
  0
ENDTAB
  0
TABLE
  2
VIEW
  5
847
330
0
100
AcDbSymbolTable
 70
     1
  0
VIEW
  5
870
330
847
100
AcDbSymbolTableRecord
100
AcDbViewTableRecord
  2
ALL
 70
     0
 40
4282.619807999997
 10
0.0
 20
41.30990399999999
 41
5940.0
 11
0.0
 21
0.0
 31
1.0
 12
0.0
 22
0.0
 32
0.0
 42
50.0
 43
0.0
 44
0.0
 50
0.0
 71
     0
281
     0
 72
     0
  0
ENDTAB
  0
TABLE
  2
UCS
  5
848
330
0
100
AcDbSymbolTable
 70
     0
  0
ENDTAB
  0
TABLE
  2
APPID
  5
84A
330
0
100
AcDbSymbolTable
 70
    23
  0
APPID
  5
853
330
84A
100
AcDbSymbolTableRecord
100
AcDbRegAppTableRecord
  2
ACAD
 70
     0
  0
APPID
  5
1176
330
84A
100
AcDbSymbolTableRecord
100
AcDbRegAppTableRecord
  2
GENIUS_GENDIM_13
 70
     0
  0
APPID
  5
1177
330
84A
100
AcDbSymbolTableRecord
100
AcDbRegAppTableRecord
  2
GENIUS_GENDTOL_13
 70
     0
  0
APPID
  5
1178
330
84A
100
AcDbSymbolTableRecord
100
AcDbRegAppTableRecord
  2
GENIUS_GE3DTOL_13
 70
     0
  0
APPID
  5
117B
330
84A
100
AcDbSymbolTableRecord
100
AcDbRegAppTableRecord
  2
MCAD_NO_VIS
 70
     0
  0
APPID
  5
117C
330
84A
100
AcDbSymbolTableRecord
100
AcDbRegAppTableRecord
  2
ACAD_TEMP_GRAPHIC
 70
     0
  0
APPID
  5
11AE
330
84A
100
AcDbSymbolTableRecord
100
AcDbRegAppTableRecord
  2
AD_DRAW
 70
     0
  0
APPID
  5
11B1
330
84A
100
AcDbSymbolTableRecord
100
AcDbRegAppTableRecord
  2
ACATTRIBSERVICES
 70
     0
  0
APPID
  5
11FD
330
84A
100
AcDbSymbolTableRecord
100
AcDbRegAppTableRecord
  2
ASURF_PCURVE_APPNAME
 70
     0
  0
APPID
  5
1202
330
84A
100
AcDbSymbolTableRecord
100
AcDbRegAppTableRecord
  2
AMG_3D2D_5.0
 70
     0
  0
APPID
  5
1233
330
84A
100
AcDbSymbolTableRecord
100
AcDbRegAppTableRecord
  2
DESIGNERASSEMBLIES
 70
     0
  0
APPID
  5
123A
330
84A
100
AcDbSymbolTableRecord
100
AcDbRegAppTableRecord
  2
ACADM_DIM_EDIT
 70
     0
  0
APPID
  5
123B
330
84A
100
AcDbSymbolTableRecord
100
AcDbRegAppTableRecord
  2
AMDT_DM_ADJ
 70
     0
  0
APPID
  5
126A
330
84A
100
AcDbSymbolTableRecord
100
AcDbRegAppTableRecord
  2
ACAD_DSTYLE_DIMARC_LENGTH_SYMBOL
 70
     0
  0
APPID
  5
126B
330
84A
100
AcDbSymbolTableRecord
100
AcDbRegAppTableRecord
  2
ACAD_DSTYLE_DIMJOGGED_JOGANGLE_SYMBOL
 70
     0
  0
APPID
  5
13EC
330
84A
100
AcDbSymbolTableRecord
100
AcDbRegAppTableRecord
  2
ACAD_MLEADERVER
 70
     0
  0
APPID
  5
1561
330
84A
100
AcDbSymbolTableRecord
100
AcDbRegAppTableRecord
  2
ACAD_EXEMPT_FROM_CAD_STANDARDS
 70
     0
  0
APPID
  5
15A8
330
84A
100
AcDbSymbolTableRecord
100
AcDbRegAppTableRecord
  2
ACAD_PSEXT
 70
     0
  0
APPID
  5
15A9
330
84A
100
AcDbSymbolTableRecord
100
AcDbRegAppTableRecord
  2
ACAD_DSTYLE_DIMJAG
 70
     0
  0
APPID
  5
15AA
330
84A
100
AcDbSymbolTableRecord
100
AcDbRegAppTableRecord
  2
ACAD_DSTYLE_DIMTALN
 70
     0
  0
APPID
  5
1816
330
84A
100
AcDbSymbolTableRecord
100
AcDbRegAppTableRecord
  2
ACAD_DSTYLE_DIM_LINETYPE
 70
     0
  0
APPID
  5
1817
330
84A
100
AcDbSymbolTableRecord
100
AcDbRegAppTableRecord
  2
ACAD_DSTYLE_DIM_EXT1_LINETYPE
 70
     0
  0
APPID
  5
1818
330
84A
100
AcDbSymbolTableRecord
100
AcDbRegAppTableRecord
  2
ACAD_DSTYLE_DIM_EXT2_LINETYPE
 70
     0
  0
ENDTAB
  0
TABLE
  2
DIMSTYLE
  5
84B
330
0
100
AcDbSymbolTable
 70
     9
100
AcDbDimStyleTable
 71
     2
340
1269
340
871
  0
DIMSTYLE
105
871
330
84B
100
AcDbSymbolTableRecord
100
AcDbDimStyleTableRecord
  2
STANDARD
 70
     0
275
     1
284
     8
285
     8
286
     8
340
852
  0
DIMSTYLE
105
1269
330
84B
100
AcDbSymbolTableRecord
100
AcDbDimStyleTableRecord
  2
AM_ANSI
 70
     0
  4
mm
 41
0.12
 42
0.05
 43
0.5
 44
0.1
 47
0.1
 48
0.1
 78
     7
 79
     2
140
0.12
141
0.0
146
0.71
147
0.06
176
   256
177
   256
178
     2
274
     4
284
     7
340
852
371
    -1
372
    -1
1001
ACAD_DSTYLE_DIMJOGGED_JOGANGLE_SYMBOL
1070
   384
1040
0.7853981633974483
1001
ACAD_DSTYLE_DIMARC_LENGTH_SYMBOL
1070
   379
1070
     1
1001
ACAD_DSTYLE_DIM_LINETYPE
1070
   380
1005
854
1001
ACAD_DSTYLE_DIM_EXT1_LINETYPE
1070
   381
1005
854
1001
ACAD_DSTYLE_DIM_EXT2_LINETYPE
1070
   382
1005
854
  0
DIMSTYLE
105
1272
330
84B
100
AcDbSymbolTableRecord
100
AcDbDimStyleTableRecord
  2
AM_ANSI$3
 70
     0
  4
mm
 41
0.12
 42
0.05
 43
0.5
 44
0.1
 47
0.1
 48
0.1
 78
     7
 79
     2
140
0.12
141
0.0
146
0.71
147
0.06
176
   256
177
   256
178
     2
274
     4
284
     7
288
     1
289
     0
340
852
371
    -1
372
    -1
1001
ACAD_DSTYLE_DIMJOGGED_JOGANGLE_SYMBOL
1070
   384
1040
0.7853981633974483
1001
ACAD_DSTYLE_DIMARC_LENGTH_SYMBOL
1070
   379
1070
     1
1001
ACAD_DSTYLE_DIM_LINETYPE
1070
   380
1005
854
1001
ACAD_DSTYLE_DIM_EXT1_LINETYPE
1070
   381
1005
854
1001
ACAD_DSTYLE_DIM_EXT2_LINETYPE
1070
   382
1005
854
  0
DIMSTYLE
105
1275
330
84B
100
AcDbSymbolTableRecord
100
AcDbDimStyleTableRecord
  2
AM_ANSI$4
 70
     0
  4
mm
 41
0.12
 42
0.05
 43
0.5
 44
0.1
 47
0.1
 48
0.1
 78
     7
 79
     2
140
0.12
141
0.0
146
0.71
147
0.06
176
   256
177
   256
178
     2
274
     4
284
     7
340
852
371
    -1
372
    -1
1001
ACAD_DSTYLE_DIMJOGGED_JOGANGLE_SYMBOL
1070
   384
1040
0.7853981633974483
1001
ACAD_DSTYLE_DIMARC_LENGTH_SYMBOL
1070
   379
1070
     1
1001
ACAD_DSTYLE_DIM_LINETYPE
1070
   380
1005
854
1001
ACAD_DSTYLE_DIM_EXT1_LINETYPE
1070
   381
1005
854
1001
ACAD_DSTYLE_DIM_EXT2_LINETYPE
1070
   382
1005
854
  0
DIMSTYLE
105
127A
330
84B
100
AcDbSymbolTableRecord
100
AcDbDimStyleTableRecord
  2
AM_ANSI$7
 70
     0
  4
mm
 41
0.12
 42
0.05
 43
0.5
 44
0.1
 47
0.1
 48
0.1
 78
     7
 79
     2
140
0.12
141
0.0
146
0.71
147
0.06
176
   256
177
   256
178
     2
274
     4
284
     7
340
852
371
    -1
372
    -1
1001
ACAD_DSTYLE_DIMJOGGED_JOGANGLE_SYMBOL
1070
   384
1040
0.7853981633974483
1001
ACAD_DSTYLE_DIMARC_LENGTH_SYMBOL
1070
   379
1070
     1
1001
ACAD_DSTYLE_DIM_LINETYPE
1070
   380
1005
854
1001
ACAD_DSTYLE_DIM_EXT1_LINETYPE
1070
   381
1005
854
1001
ACAD_DSTYLE_DIM_EXT2_LINETYPE
1070
   382
1005
854
  0
DIMSTYLE
105
127D
330
84B
100
AcDbSymbolTableRecord
100
AcDbDimStyleTableRecord
  2
AM_ANSI$SF
 70
     0
  4
mm
 41
0.12
 42
0.05
 43
0.5
 44
0.1
 47
0.1
 48
0.1
 75
     1
 76
     1
 78
     7
 79
     2
140
0.12
141
0.0
146
0.71
147
0.06
176
   256
177
   256
178
     2
274
     4
284
     7
340
852
371
    -1
372
    -1
1001
ACAD_DSTYLE_DIMJOGGED_JOGANGLE_SYMBOL
1070
   384
1040
0.7853981633974483
1001
ACAD_DSTYLE_DIMARC_LENGTH_SYMBOL
1070
   379
1070
     1
1001
ACAD_DSTYLE_DIM_LINETYPE
1070
   380
1005
854
1001
ACAD_DSTYLE_DIM_EXT1_LINETYPE
1070
   381
1005
854
1001
ACAD_DSTYLE_DIM_EXT2_LINETYPE
1070
   382
1005
854
  0
DIMSTYLE
105
1284
330
84B
100
AcDbSymbolTableRecord
100
AcDbDimStyleTableRecord
  2
AM_ANSI$SH
 70
     0
  4
mm
 41
0.12
 42
0.05
 43
0.5
 44
0.1
 47
0.1
 48
0.1
 75
     1
 76
     1
 78
     7
 79
     2
140
0.12
141
0.0
146
0.71
147
0.06
173
     1
176
   256
177
   256
178
     2
274
     4
284
     7
340
852
343
127E
371
    -1
372
    -1
1001
ACAD_DSTYLE_DIMJOGGED_JOGANGLE_SYMBOL
1070
   384
1040
0.7853981633974483
1001
ACAD_DSTYLE_DIMARC_LENGTH_SYMBOL
1070
   379
1070
     1
1001
ACAD_DSTYLE_DIM_LINETYPE
1070
   380
1005
854
1001
ACAD_DSTYLE_DIM_EXT1_LINETYPE
1070
   381
1005
854
1001
ACAD_DSTYLE_DIM_EXT2_LINETYPE
1070
   382
1005
854
  0
DIMSTYLE
105
15A6
330
84B
100
AcDbSymbolTableRecord
100
AcDbDimStyleTableRecord
  2
STANDARD1
 70
     0
 40
6.0
 41
2.5
 42
0.625
 43
6.0
 44
1.25
 47
1.0
 48
0.5
 77
     1
 78
     8
140
2.5
141
0.0
146
0.6
147
1.0
173
     1
284
     1
340
852
341
AB7
343
AB7
344
AB7
  0
DIMSTYLE
105
15A7
330
84B
100
AcDbSymbolTableRecord
100
AcDbDimStyleTableRecord
  2
STANDARD$0
 70
     0
 41
12.0
 42
20.0
 44
20.0
 73
     0
 74
     0
 77
     1
 78
     9
140
64.0
141
0.0
147
10.0
271
     0
272
     0
275
     1
284
     8
285
     8
286
     8
340
852
341
AB7
342
AB2
1001
ACAD_DSTYLE_DIMJAG
1070
   388
1040
1.5
1001
ACAD_DSTYLE_DIMTALN
1070
   392
1070
     0
  0
ENDTAB
  0
TABLE
  2
BLOCK_RECORD
  5
842
330
0
100
AcDbSymbolTable
 70
    37
  0
BLOCK_RECORD
  5
85F
102
{ACAD_XDICTIONARY
360
B4F
102
}
330
842
100
AcDbSymbolTableRecord
100
AcDbBlockTableRecord
  2
*MODEL_SPACE
340
B84
  0
BLOCK_RECORD
  5
85B
102
{ACAD_XDICTIONARY
360
B4D
102
}
330
842
100
AcDbSymbolTableRecord
100
AcDbBlockTableRecord
  2
*PAPER_SPACE
340
B85
  0
BLOCK_RECORD
  5
87E
330
842
100
AcDbSymbolTableRecord
100
AcDbBlockTableRecord
  2
_ORIGIN
340
0
  0
BLOCK_RECORD
  5
AB2
330
842
100
AcDbSymbolTableRecord
100
AcDbBlockTableRecord
  2
_DOTBLANK
340
0
102
{BLKREFS
331
105B
331
105C
331
1064
331
1065
331
107F
331
1080
331
1088
331
1089
331
13FF
331
1400
331
1429
331
142A
331
146A
331
146B
331
1473
331
1474
331
156E
331
156F
331
157A
331
157B
331
1586
331
1587
331
1592
331
1593
331
159E
331
159F
331
17E0
331
17E1
331
17E9
331
17EA
331
17F2
331
17F3
331
17FB
331
17FC
331
1804
331
1805
331
1934
331
1935
331
1940
331
1941
331
194C
331
194D
331
1904
331
1905
331
1910
331
1911
331
191C
331
191D
331
1928
331
1929
331
1C21
331
1C22
331
1C2A
331
1C2B
331
1C33
331
1C34
331
1C3C
331
1C3D
331
1C45
331
1C46
331
1C4E
331
1C4F
331
1C57
331
1C58
331
1D4B
331
1D4C
331
1D51
331
1D52
331
1D57
331
1D58
331
1D5D
331
1D5E
331
1D63
331
1D64
331
1D6C
331
1D6D
331
1D72
331
1D73
102
}
  0
BLOCK_RECORD
  5
AB7
330
842
100
AcDbSymbolTableRecord
100
AcDbBlockTableRecord
  2
_OPEN30
340
0
102
{BLKREFS
331
1D67
102
}
  0
BLOCK_RECORD
  5
EF9
330
842
100
AcDbSymbolTableRecord
100
AcDbBlockTableRecord
  2
*D3
340
0
  0
BLOCK_RECORD
  5
F05
330
842
100
AcDbSymbolTableRecord
100
AcDbBlockTableRecord
  2
*D4
340
0
  0
BLOCK_RECORD
  5
F11
330
842
100
AcDbSymbolTableRecord
100
AcDbBlockTableRecord
  2
*D5
340
0
  0
BLOCK_RECORD
  5
F1D
330
842
100
AcDbSymbolTableRecord
100
AcDbBlockTableRecord
  2
*D6
340
0
  0
BLOCK_RECORD
  5
1121
330
842
100
AcDbSymbolTableRecord
100
AcDbBlockTableRecord
  2
*D7
340
0
  0
BLOCK_RECORD
  5
113B
330
842
100
AcDbSymbolTableRecord
100
AcDbBlockTableRecord
  2
*D8
340
0
  0
BLOCK_RECORD
  5
127E
330
842
100
AcDbSymbolTableRecord
100
AcDbBlockTableRecord
  2
GENAXEH
340
0
  0
BLOCK_RECORD
  5
13F7
330
842
100
AcDbSymbolTableRecord
100
AcDbBlockTableRecord
  2
*D10
340
0
  0
BLOCK_RECORD
  5
1421
330
842
100
AcDbSymbolTableRecord
100
AcDbBlockTableRecord
  2
*D11
340
0
  0
BLOCK_RECORD
  5
1569
330
842
100
AcDbSymbolTableRecord
100
AcDbBlockTableRecord
  2
*D12
340
0
  0
BLOCK_RECORD
  5
1575
330
842
100
AcDbSymbolTableRecord
100
AcDbBlockTableRecord
  2
*D13
340
0
  0
BLOCK_RECORD
  5
1581
330
842
100
AcDbSymbolTableRecord
100
AcDbBlockTableRecord
  2
*D14
340
0
  0
BLOCK_RECORD
  5
158D
330
842
100
AcDbSymbolTableRecord
100
AcDbBlockTableRecord
  2
*D15
340
0
  0
BLOCK_RECORD
  5
1599
330
842
100
AcDbSymbolTableRecord
100
AcDbBlockTableRecord
  2
*D16
340
0
  0
BLOCK_RECORD
  5
1747
330
842
100
AcDbSymbolTableRecord
100
AcDbBlockTableRecord
  2
*D17
340
0
  0
BLOCK_RECORD
  5
1753
330
842
100
AcDbSymbolTableRecord
100
AcDbBlockTableRecord
  2
*D18
340
0
  0
BLOCK_RECORD
  5
175F
330
842
100
AcDbSymbolTableRecord
100
AcDbBlockTableRecord
  2
*D19
340
0
  0
BLOCK_RECORD
  5
176B
330
842
100
AcDbSymbolTableRecord
100
AcDbBlockTableRecord
  2
*D20
340
0
  0
BLOCK_RECORD
  5
1777
330
842
100
AcDbSymbolTableRecord
100
AcDbBlockTableRecord
  2
*D21
340
0
  0
BLOCK_RECORD
  5
18FF
330
842
100
AcDbSymbolTableRecord
100
AcDbBlockTableRecord
  2
*D22
340
0
  0
BLOCK_RECORD
  5
190B
330
842
100
AcDbSymbolTableRecord
100
AcDbBlockTableRecord
  2
*D23
340
0
  0
BLOCK_RECORD
  5
1917
330
842
100
AcDbSymbolTableRecord
100
AcDbBlockTableRecord
  2
*D24
340
0
  0
BLOCK_RECORD
  5
1923
330
842
100
AcDbSymbolTableRecord
100
AcDbBlockTableRecord
  2
*D25
340
0
  0
BLOCK_RECORD
  5
192F
330
842
100
AcDbSymbolTableRecord
100
AcDbBlockTableRecord
  2
*D26
340
0
  0
BLOCK_RECORD
  5
193B
330
842
100
AcDbSymbolTableRecord
100
AcDbBlockTableRecord
  2
*D27
340
0
  0
BLOCK_RECORD
  5
1947
330
842
100
AcDbSymbolTableRecord
100
AcDbBlockTableRecord
  2
*D28
340
0
  0
BLOCK_RECORD
  5
1BCA
330
842
100
AcDbSymbolTableRecord
100
AcDbBlockTableRecord
  2
*D29
340
0
  0
BLOCK_RECORD
  5
1BD6
330
842
100
AcDbSymbolTableRecord
100
AcDbBlockTableRecord
  2
*D30
340
0
  0
BLOCK_RECORD
  5
1BE2
330
842
100
AcDbSymbolTableRecord
100
AcDbBlockTableRecord
  2
*D31
340
0
  0
BLOCK_RECORD
  5
1BEE
330
842
100
AcDbSymbolTableRecord
100
AcDbBlockTableRecord
  2
*D32
340
0
  0
BLOCK_RECORD
  5
1BFA
330
842
100
AcDbSymbolTableRecord
100
AcDbBlockTableRecord
  2
*D33
340
0
  0
BLOCK_RECORD
  5
1C06
330
842
100
AcDbSymbolTableRecord
100
AcDbBlockTableRecord
  2
*D34
340
0
  0
BLOCK_RECORD
  5
1C12
330
842
100
AcDbSymbolTableRecord
100
AcDbBlockTableRecord
  2
*D35
340
0
  0
ENDTAB
  0
ENDSEC
  0
SECTION
  2
BLOCKS
  0
BLOCK
  5
860
330
85F
100
AcDbEntity
  8
0
100
AcDbBlockBegin
  2
*MODEL_SPACE
 70
     0
 10
0.0
 20
0.0
 30
0.0
  3
*MODEL_SPACE
  1

  0
ENDBLK
  5
861
330
85F
100
AcDbEntity
  8
0
100
AcDbBlockEnd
  0
BLOCK
  5
85C
330
85B
100
AcDbEntity
 67
     1
  8
0
100
AcDbBlockBegin
  2
*PAPER_SPACE
 70
     0
 10
0.0
 20
0.0
 30
0.0
  3
*PAPER_SPACE
  1

  0
ENDBLK
  5
85D
330
85B
100
AcDbEntity
 67
     1
  8
0
100
AcDbBlockEnd
  0
BLOCK
  5
87F
330
87E
100
AcDbEntity
  8
0
100
AcDbBlockBegin
  2
_ORIGIN
 70
     0
 10
0.0
 20
0.0
 30
0.0
  3
_ORIGIN
  1

  0
CIRCLE
  5
880
330
87E
100
AcDbEntity
  8
0
  6
Continuous
 62
     7
100
AcDbCircle
 10
0.0
 20
0.0
 30
0.0
 40
0.5
  0
LINE
  5
881
330
87E
100
AcDbEntity
  8
0
  6
Continuous
 62
     7
100
AcDbLine
 10
0.0
 20
0.0
 30
0.0
 11
-1.0
 21
0.0
 31
0.0
  0
ENDBLK
  5
882
330
87E
100
AcDbEntity
  8
0
100
AcDbBlockEnd
  0
BLOCK
  5
AB5
330
AB2
100
AcDbEntity
  8
0
 62
     1
100
AcDbBlockBegin
  2
_DOTBLANK
 70
     0
 10
0.0
 20
0.0
 30
0.0
  3
_DOTBLANK
  1

  0
CIRCLE
  5
AB3
330
AB2
100
AcDbEntity
  8
0
  6
ByBlock
 62
     0
100
AcDbCircle
 10
0.0
 20
0.0
 30
0.0
 40
0.5
  0
LINE
  5
AB4
330
AB2
100
AcDbEntity
  8
0
  6
ByBlock
 62
     0
100
AcDbLine
 10
-0.5
 20
0.0
 30
0.0
 11
-1.0
 21
0.0
 31
0.0
  0
ENDBLK
  5
AB6
330
AB2
100
AcDbEntity
  8
0
 62
     1
100
AcDbBlockEnd
  0
BLOCK
  5
ABB
330
AB7
100
AcDbEntity
  8
0
 62
     1
100
AcDbBlockBegin
  2
_OPEN30
 70
     0
 10
0.0
 20
0.0
 30
0.0
  3
_OPEN30
  1

  0
LINE
  5
AB8
330
AB7
100
AcDbEntity
  8
0
  6
ByBlock
 62
     0
100
AcDbLine
 10
-1.0
 20
0.26794919
 30
0.0
 11
0.0
 21
0.0
 31
0.0
  0
LINE
  5
AB9
330
AB7
100
AcDbEntity
  8
0
  6
ByBlock
 62
     0
100
AcDbLine
 10
0.0
 20
0.0
 30
0.0
 11
-1.0
 21
-0.26794919
 31
0.0
  0
LINE
  5
ABA
330
AB7
100
AcDbEntity
  8
0
  6
ByBlock
 62
     0
100
AcDbLine
 10
0.0
 20
0.0
 30
0.0
 11
-1.0
 21
0.0
 31
0.0
  0
ENDBLK
  5
ABC
330
AB7
100
AcDbEntity
  8
0
 62
     1
100
AcDbBlockEnd
  0
BLOCK
  5
F03
330
EF9
100
AcDbEntity
  8
0
100
AcDbBlockBegin
  2
*D3
 70
     1
 10
0.0
 20
0.0
 30
0.0
  3
*D3
  1

  0
LINE
  5
1085
330
EF9
100
AcDbEntity
  8
SIZE
  6
Continuous
 62
     0
370
    -2
100
AcDbLine
 10
-167.5
 20
-154.0
 30
0.0
 11
-424.0027336080619
 21
-153.9999999999999
 31
0.0
  0
LINE
  5
1086
330
EF9
100
AcDbEntity
  8
SIZE
  6
Continuous
 62
     0
370
    -2
100
AcDbLine
 10
-167.5
 20
161.0
 30
0.0
 11
-424.0027336080619
 21
161.0000000000001
 31
0.0
  0
LINE
  5
1087
330
EF9
100
AcDbEntity
  8
SIZE
  6
Continuous
 62
     0
370
    -2
100
AcDbLine
 10
-404.0027336080621
 20
-141.9999999999999
 30
0.0
 11
-404.0027336080619
 21
149.0000000000001
 31
0.0
  0
INSERT
  5
1088
330
EF9
100
AcDbEntity
  8
SIZE
  6
Continuous
 62
     0
370
    -2
100
AcDbBlockReference
  2
_DOTBLANK
 10
-404.0027336080621
 20
-153.9999999999999
 30
0.0
 41
12.0
 42
12.0
 43
12.0
 50
270.0
  0
INSERT
  5
1089
330
EF9
100
AcDbEntity
  8
SIZE
  6
Continuous
 62
     0
370
    -2
100
AcDbBlockReference
  2
_DOTBLANK
 10
-404.0027336080619
 20
161.0000000000001
 30
0.0
 41
12.0
 42
12.0
 43
12.0
 50
90.0
  0
MTEXT
  5
108A
330
EF9
100
AcDbEntity
  8
SIZE
  6
Continuous
 62
     0
100
AcDbMText
 10
-446.002733608062
 20
3.500000000000028
 30
0.0
 40
64.0
 41
0.0
 71
     5
 72
     1
  1
\A1;315
 11
0.0000000000000001
 21
1.0
 31
0.0
 73
     1
 44
1.0
1001
ACAD
1000
MTEXTBEGIN
1070
    73
1070
     1
1070
    44
1040
1.0
1070
    74
1070
     0
1000
MTEXTEND
  0
POINT
  5
108B
330
EF9
100
AcDbEntity
  8
DEFPOINTS
  6
Continuous
 62
     0
100
AcDbPoint
 10
-147.5
 20
-154.0
 30
0.0
  0
POINT
  5
108C
330
EF9
100
AcDbEntity
  8
DEFPOINTS
  6
Continuous
 62
     0
100
AcDbPoint
 10
-147.5
 20
161.0
 30
0.0
  0
POINT
  5
108D
330
EF9
100
AcDbEntity
  8
DEFPOINTS
  6
Continuous
 62
     0
100
AcDbPoint
 10
-404.0027336080619
 20
161.0000000000001
 30
0.0
  0
ENDBLK
  5
F04
330
EF9
100
AcDbEntity
  8
0
100
AcDbBlockEnd
  0
BLOCK
  5
F0F
330
F05
100
AcDbEntity
  8
0
100
AcDbBlockBegin
  2
*D4
 70
     1
 10
0.0
 20
0.0
 30
0.0
  3
*D4
  1

  0
LINE
  5
107C
330
F05
100
AcDbEntity
  8
SIZE
  6
Continuous
 62
     0
370
    -2
100
AcDbLine
 10
-172.5
 20
143.5
 30
0.0
 11
-279.2869931611258
 21
143.5
 31
0.0
  0
LINE
  5
107D
330
F05
100
AcDbEntity
  8
SIZE
  6
Continuous
 62
     0
370
    -2
100
AcDbLine
 10
-172.5
 20
-136.5
 30
0.0
 11
-279.286993161126
 21
-136.4999999999999
 31
0.0
  0
LINE
  5
107E
330
F05
100
AcDbEntity
  8
SIZE
  6
Continuous
 62
     0
370
    -2
100
AcDbLine
 10
-259.2869931611259
 20
131.5
 30
0.0
 11
-259.2869931611259
 21
-124.4999999999999
 31
0.0
  0
INSERT
  5
107F
330
F05
100
AcDbEntity
  8
SIZE
  6
Continuous
 62
     0
370
    -2
100
AcDbBlockReference
  2
_DOTBLANK
 10
-259.2869931611259
 20
143.5
 30
0.0
 41
12.0
 42
12.0
 43
12.0
 50
90.0
  0
INSERT
  5
1080
330
F05
100
AcDbEntity
  8
SIZE
  6
Continuous
 62
     0
370
    -2
100
AcDbBlockReference
  2
_DOTBLANK
 10
-259.286993161126
 20
-136.4999999999999
 30
0.0
 41
12.0
 42
12.0
 43
12.0
 50
270.0
  0
MTEXT
  5
1081
330
F05
100
AcDbEntity
  8
SIZE
  6
Continuous
 62
     0
100
AcDbMText
 10
-301.2869931611259
 20
3.499999999999991
 30
0.0
 40
64.0
 41
0.0
 71
     5
 72
     1
  1
\A1;280
 11
0.0000000000000001
 21
1.0
 31
0.0
 73
     1
 44
1.0
1001
ACAD
1000
MTEXTBEGIN
1070
    73
1070
     1
1070
    44
1040
1.0
1070
    74
1070
     0
1000
MTEXTEND
  0
POINT
  5
1082
330
F05
100
AcDbEntity
  8
DEFPOINTS
  6
Continuous
 62
     0
100
AcDbPoint
 10
-152.5
 20
143.5
 30
0.0
  0
POINT
  5
1083
330
F05
100
AcDbEntity
  8
DEFPOINTS
  6
Continuous
 62
     0
100
AcDbPoint
 10
-152.5
 20
-136.5
 30
0.0
  0
POINT
  5
1084
330
F05
100
AcDbEntity
  8
DEFPOINTS
  6
Continuous
 62
     0
100
AcDbPoint
 10
-259.286993161126
 20
-136.4999999999999
 30
0.0
  0
ENDBLK
  5
F10
330
F05
100
AcDbEntity
  8
0
100
AcDbBlockEnd
  0
BLOCK
  5
F1B
330
F11
100
AcDbEntity
  8
0
100
AcDbBlockBegin
  2
*D5
 70
     1
 10
0.0
 20
0.0
 30
0.0
  3
*D5
  1

  0
LINE
  5
1061
330
F11
100
AcDbEntity
  8
SIZE
  6
Continuous
 62
     0
370
    -2
100
AcDbLine
 10
-140.0
 20
176.0
 30
0.0
 11
-140.0
 21
278.7870018026145
 31
0.0
  0
LINE
  5
1062
330
F11
100
AcDbEntity
  8
SIZE
  6
Continuous
 62
     0
370
    -2
100
AcDbLine
 10
140.0
 20
176.0
 30
0.0
 11
140.0
 21
278.7870018026145
 31
0.0
  0
LINE
  5
1063
330
F11
100
AcDbEntity
  8
SIZE
  6
Continuous
 62
     0
370
    -2
100
AcDbLine
 10
-128.0
 20
258.7870018026145
 30
0.0
 11
128.0
 21
258.7870018026145
 31
0.0
  0
INSERT
  5
1064
330
F11
100
AcDbEntity
  8
SIZE
  6
Continuous
 62
     0
370
    -2
100
AcDbBlockReference
  2
_DOTBLANK
 10
-140.0
 20
258.7870018026145
 30
0.0
 41
12.0
 42
12.0
 43
12.0
 50
180.0
  0
INSERT
  5
1065
330
F11
100
AcDbEntity
  8
SIZE
  6
Continuous
 62
     0
370
    -2
100
AcDbBlockReference
  2
_DOTBLANK
 10
140.0
 20
258.7870018026145
 30
0.0
 41
12.0
 42
12.0
 43
12.0
  0
MTEXT
  5
1066
330
F11
100
AcDbEntity
  8
SIZE
  6
Continuous
 62
     0
100
AcDbMText
 10
0.0000000000000026
 20
300.7870018026145
 30
0.0
 40
64.0
 41
0.0
 71
     5
 72
     1
  1
\A1;280
 73
     1
 44
1.0
1001
ACAD
1000
MTEXTBEGIN
1070
    73
1070
     1
1070
    44
1040
1.0
1070
    74
1070
     0
1000
MTEXTEND
  0
POINT
  5
1067
330
F11
100
AcDbEntity
  8
DEFPOINTS
  6
Continuous
 62
     0
100
AcDbPoint
 10
-140.0
 20
156.0
 30
0.0
  0
POINT
  5
1068
330
F11
100
AcDbEntity
  8
DEFPOINTS
  6
Continuous
 62
     0
100
AcDbPoint
 10
140.0
 20
156.0
 30
0.0
  0
POINT
  5
1069
330
F11
100
AcDbEntity
  8
DEFPOINTS
  6
Continuous
 62
     0
100
AcDbPoint
 10
140.0
 20
258.7870018026145
 30
0.0
  0
ENDBLK
  5
F1C
330
F11
100
AcDbEntity
  8
0
100
AcDbBlockEnd
  0
BLOCK
  5
F27
330
F1D
100
AcDbEntity
  8
0
100
AcDbBlockBegin
  2
*D6
 70
     1
 10
0.0
 20
0.0
 30
0.0
  3
*D6
  1

  0
LINE
  5
1058
330
F1D
100
AcDbEntity
  8
SIZE
  6
Continuous
 62
     0
370
    -2
100
AcDbLine
 10
-157.5
 20
171.0
 30
0.0
 11
-157.5
 21
380.6212162378291
 31
0.0
  0
LINE
  5
1059
330
F1D
100
AcDbEntity
  8
SIZE
  6
Continuous
 62
     0
370
    -2
100
AcDbLine
 10
157.5
 20
171.0
 30
0.0
 11
157.5
 21
380.6212162378291
 31
0.0
  0
LINE
  5
105A
330
F1D
100
AcDbEntity
  8
SIZE
  6
Continuous
 62
     0
370
    -2
100
AcDbLine
 10
-145.5
 20
360.6212162378291
 30
0.0
 11
145.5
 21
360.6212162378291
 31
0.0
  0
INSERT
  5
105B
330
F1D
100
AcDbEntity
  8
SIZE
  6
Continuous
 62
     0
370
    -2
100
AcDbBlockReference
  2
_DOTBLANK
 10
-157.5
 20
360.6212162378291
 30
0.0
 41
12.0
 42
12.0
 43
12.0
 50
180.0
  0
INSERT
  5
105C
330
F1D
100
AcDbEntity
  8
SIZE
  6
Continuous
 62
     0
370
    -2
100
AcDbBlockReference
  2
_DOTBLANK
 10
157.5
 20
360.6212162378291
 30
0.0
 41
12.0
 42
12.0
 43
12.0
  0
MTEXT
  5
105D
330
F1D
100
AcDbEntity
  8
SIZE
  6
Continuous
 62
     0
100
AcDbMText
 10
0.0000000000000026
 20
402.6212162378291
 30
0.0
 40
64.0
 41
0.0
 71
     5
 72
     1
  1
\A1;315
 73
     1
 44
1.0
1001
ACAD
1000
MTEXTBEGIN
1070
    73
1070
     1
1070
    44
1040
1.0
1070
    74
1070
     0
1000
MTEXTEND
  0
POINT
  5
105E
330
F1D
100
AcDbEntity
  8
DEFPOINTS
  6
Continuous
 62
     0
100
AcDbPoint
 10
-157.5
 20
151.0
 30
0.0
  0
POINT
  5
105F
330
F1D
100
AcDbEntity
  8
DEFPOINTS
  6
Continuous
 62
     0
100
AcDbPoint
 10
157.5
 20
151.0
 30
0.0
  0
POINT
  5
1060
330
F1D
100
AcDbEntity
  8
DEFPOINTS
  6
Continuous
 62
     0
100
AcDbPoint
 10
157.5
 20
360.6212162378291
 30
0.0
  0
ENDBLK
  5
F28
330
F1D
100
AcDbEntity
  8
0
100
AcDbBlockEnd
  0
BLOCK
  5
112B
330
1121
100
AcDbEntity
  8
0
100
AcDbBlockBegin
  2
*D7
 70
     1
 10
0.0
 20
0.0
 30
0.0
  3
*D7
  1

  0
LINE
  5
1470
330
1121
100
AcDbEntity
  8
SIZE
  6
Continuous
 62
     0
370
    -2
100
AcDbLine
 10
-134.5
 20
-263.0
 30
0.0
 11
-134.5
 21
-406.3942247564192
 31
0.0
  0
LINE
  5
1471
330
1121
100
AcDbEntity
  8
SIZE
  6
Continuous
 62
     0
370
    -2
100
AcDbLine
 10
134.5
 20
-263.0
 30
0.0
 11
134.5
 21
-406.3942247564192
 31
0.0
  0
LINE
  5
1472
330
1121
100
AcDbEntity
  8
SIZE
  6
Continuous
 62
     0
370
    -2
100
AcDbLine
 10
-122.5
 20
-386.3942247564192
 30
0.0
 11
122.5
 21
-386.3942247564192
 31
0.0
  0
INSERT
  5
1473
330
1121
100
AcDbEntity
  8
SIZE
  6
Continuous
 62
     0
370
    -2
100
AcDbBlockReference
  2
_DOTBLANK
 10
-134.5
 20
-386.3942247564192
 30
0.0
 41
12.0
 42
12.0
 43
12.0
 50
180.0
  0
INSERT
  5
1474
330
1121
100
AcDbEntity
  8
SIZE
  6
Continuous
 62
     0
370
    -2
100
AcDbBlockReference
  2
_DOTBLANK
 10
134.5
 20
-386.3942247564192
 30
0.0
 41
12.0
 42
12.0
 43
12.0
  0
MTEXT
  5
1475
330
1121
100
AcDbEntity
  8
SIZE
  6
Continuous
 62
     0
100
AcDbMText
 10
-0.0000000000000233
 20
-344.3942247564192
 30
0.0
 40
64.0
 41
0.0
 71
     5
 72
     1
  1
\A1;269
 73
     1
 44
1.0
1001
ACAD
1000
MTEXTBEGIN
1070
    73
1070
     1
1070
    44
1040
1.0
1070
    74
1070
     0
1000
MTEXTEND
  0
POINT
  5
1476
330
1121
100
AcDbEntity
  8
DEFPOINTS
  6
Continuous
 62
     0
100
AcDbPoint
 10
-134.5
 20
-243.0
 30
0.0
  0
POINT
  5
1477
330
1121
100
AcDbEntity
  8
DEFPOINTS
  6
Continuous
 62
     0
100
AcDbPoint
 10
134.5
 20
-243.0
 30
0.0
  0
POINT
  5
1478
330
1121
100
AcDbEntity
  8
DEFPOINTS
  6
Continuous
 62
     0
100
AcDbPoint
 10
134.5
 20
-386.3942247564192
 30
0.0
  0
ENDBLK
  5
112C
330
1121
100
AcDbEntity
  8
0
100
AcDbBlockEnd
  0
BLOCK
  5
1145
330
113B
100
AcDbEntity
  8
0
100
AcDbBlockBegin
  2
*D8
 70
     1
 10
0.0
 20
0.0
 30
0.0
  3
*D8
  1

  0
LINE
  5
1467
330
113B
100
AcDbEntity
  8
SIZE
  6
Continuous
 62
     0
370
    -2
100
AcDbLine
 10
-167.5
 20
161.0
 30
0.0
 11
-562.5059028843143
 21
161.0000000000001
 31
0.0
  0
LINE
  5
1468
330
113B
100
AcDbEntity
  8
SIZE
  6
Continuous
 62
     0
370
    -2
100
AcDbLine
 10
-154.5
 20
-243.0
 30
0.0
 11
-562.5059028843143
 21
-242.9999999999999
 31
0.0
  0
LINE
  5
1469
330
113B
100
AcDbEntity
  8
SIZE
  6
Continuous
 62
     0
370
    -2
100
AcDbLine
 10
-542.5059028843143
 20
149.0000000000001
 30
0.0
 11
-542.5059028843143
 21
-230.9999999999999
 31
0.0
  0
INSERT
  5
146A
330
113B
100
AcDbEntity
  8
SIZE
  6
Continuous
 62
     0
370
    -2
100
AcDbBlockReference
  2
_DOTBLANK
 10
-542.5059028843143
 20
161.0000000000001
 30
0.0
 41
12.0
 42
12.0
 43
12.0
 50
90.0
  0
INSERT
  5
146B
330
113B
100
AcDbEntity
  8
SIZE
  6
Continuous
 62
     0
370
    -2
100
AcDbBlockReference
  2
_DOTBLANK
 10
-542.5059028843143
 20
-242.9999999999999
 30
0.0
 41
12.0
 42
12.0
 43
12.0
 50
270.0
  0
MTEXT
  5
146C
330
113B
100
AcDbEntity
  8
SIZE
  6
Continuous
 62
     0
100
AcDbMText
 10
-584.5059028843142
 20
-40.99999999999996
 30
0.0
 40
64.0
 41
0.0
 71
     5
 72
     1
  1
\A1;404
 11
0.0000000000000001
 21
1.0
 31
0.0
 73
     1
 44
1.0
1001
ACAD
1000
MTEXTBEGIN
1070
    73
1070
     1
1070
    44
1040
1.0
1070
    74
1070
     0
1000
MTEXTEND
  0
POINT
  5
146D
330
113B
100
AcDbEntity
  8
DEFPOINTS
  6
Continuous
 62
     0
100
AcDbPoint
 10
-147.5
 20
161.0
 30
0.0
  0
POINT
  5
146E
330
113B
100
AcDbEntity
  8
DEFPOINTS
  6
Continuous
 62
     0
100
AcDbPoint
 10
-134.5
 20
-243.0
 30
0.0
  0
POINT
  5
146F
330
113B
100
AcDbEntity
  8
DEFPOINTS
  6
Continuous
 62
     0
100
AcDbPoint
 10
-542.5059028843143
 20
-242.9999999999999
 30
0.0
  0
ENDBLK
  5
1146
330
113B
100
AcDbEntity
  8
0
100
AcDbBlockEnd
  0
BLOCK
  5
1280
330
127E
100
AcDbEntity
  8
0
100
AcDbBlockBegin
  2
GENAXEH
 70
     0
 10
0.0
 20
0.0
 30
0.0
  3
GENAXEH
  1

  0
LINE
  5
127F
330
127E
100
AcDbEntity
  8
0
100
AcDbLine
 10
-1.0
 20
0.0
 30
0.0
 11
1.0
 21
0.0
 31
0.0
  0
ENDBLK
  5
1281
330
127E
100
AcDbEntity
  8
0
100
AcDbBlockEnd
  0
BLOCK
  5
13F8
330
13F7
100
AcDbEntity
  8
0
100
AcDbBlockBegin
  2
*D10
 70
     1
 10
0.0
 20
0.0
 30
0.0
  3
*D10
  1

  0
LINE
  5
13FA
330
13F7
100
AcDbEntity
  8
OUTLINE
  6
Continuous
 62
     0
370
    -2
100
AcDbLine
 10
137.9
 20
-233.5
 30
0.0
 11
200.6044516808926
 21
-233.5
 31
0.0
  0
LINE
  5
13FB
330
13F7
100
AcDbEntity
  8
OUTLINE
  6
Continuous
 62
     0
370
    -2
100
AcDbLine
 10
153.5
 20
-243.0
 30
0.0
 11
200.6044516808926
 21
-243.0
 31
0.0
  0
LINE
  5
13FC
330
13F7
100
AcDbEntity
  8
OUTLINE
  6
Continuous
 62
     0
370
    -2
100
AcDbLine
 10
180.6044516808926
 20
-221.5
 30
0.0
 11
180.6044516808926
 21
-209.5
 31
0.0
  0
LINE
  5
13FD
330
13F7
100
AcDbEntity
  8
OUTLINE
  6
Continuous
 62
     0
370
    -2
100
AcDbLine
 10
180.6044516808926
 20
-255.0
 30
0.0
 11
180.6044516808926
 21
-267.0000000000001
 31
0.0
  0
LINE
  5
13FE
330
13F7
100
AcDbEntity
  8
OUTLINE
  6
Continuous
 62
     0
370
    -2
100
AcDbLine
 10
180.6044516808926
 20
-233.5
 30
0.0
 11
180.6044516808926
 21
-243.0
 31
0.0
  0
INSERT
  5
13FF
330
13F7
100
AcDbEntity
  8
OUTLINE
  6
Continuous
 62
     0
370
    -2
100
AcDbBlockReference
  2
_DOTBLANK
 10
180.6044516808926
 20
-233.5
 30
0.0
 41
12.0
 42
12.0
 43
12.0
 50
270.0
  0
INSERT
  5
1400
330
13F7
100
AcDbEntity
  8
OUTLINE
  6
Continuous
 62
     0
370
    -2
100
AcDbBlockReference
  2
_DOTBLANK
 10
180.6044516808926
 20
-243.0
 30
0.0
 41
12.0
 42
12.0
 43
12.0
 50
90.0
  0
MTEXT
  5
1401
330
13F7
100
AcDbEntity
  8
OUTLINE
  6
Continuous
 62
     0
100
AcDbMText
 10
138.6044516808926
 20
-238.25
 30
0.0
 40
64.0
 41
0.0
 71
     5
 72
     1
  1
\A1;9.5
 11
0.0000000000000001
 21
1.0
 31
0.0
 73
     1
 44
1.0
1001
ACAD
1000
MTEXTBEGIN
1070
    73
1070
     1
1070
    44
1040
1.0
1070
    74
1070
     0
1000
MTEXTEND
  0
POINT
  5
1402
330
13F7
100
AcDbEntity
  8
DEFPOINTS
  6
Continuous
 62
     0
100
AcDbPoint
 10
117.9
 20
-233.5
 30
0.0
  0
POINT
  5
1403
330
13F7
100
AcDbEntity
  8
DEFPOINTS
  6
Continuous
 62
     0
100
AcDbPoint
 10
133.5
 20
-243.0
 30
0.0
  0
POINT
  5
1404
330
13F7
100
AcDbEntity
  8
DEFPOINTS
  6
Continuous
 62
     0
100
AcDbPoint
 10
180.6044516808926
 20
-243.0
 30
0.0
  0
ENDBLK
  5
13F9
330
13F7
100
AcDbEntity
  8
0
100
AcDbBlockEnd
  0
BLOCK
  5
1422
330
1421
100
AcDbEntity
  8
0
100
AcDbBlockBegin
  2
*D11
 70
     1
 10
0.0
 20
0.0
 30
0.0
  3
*D11
  1

  0
LINE
  5
1424
330
1421
100
AcDbEntity
  8
OUTLINE
  6
Continuous
 62
     0
370
    -2
100
AcDbLine
 10
-135.5
 20
-263.0
 30
0.0
 11
-135.5
 21
-275.2324432319168
 31
0.0
  0
LINE
  5
1425
330
1421
100
AcDbEntity
  8
OUTLINE
  6
Continuous
 62
     0
370
    -2
100
AcDbLine
 10
-123.5
 20
-263.0
 30
0.0
 11
-123.5
 21
-275.2324432319168
 31
0.0
  0
LINE
  5
1426
330
1421
100
AcDbEntity
  8
OUTLINE
  6
Continuous
 62
     0
370
    -2
100
AcDbLine
 10
-147.5
 20
-255.2324432319168
 30
0.0
 11
-159.5
 21
-255.2324432319168
 31
0.0
  0
LINE
  5
1427
330
1421
100
AcDbEntity
  8
OUTLINE
  6
Continuous
 62
     0
370
    -2
100
AcDbLine
 10
-111.5
 20
-255.2324432319168
 30
0.0
 11
-99.50000000000001
 21
-255.2324432319168
 31
0.0
  0
LINE
  5
1428
330
1421
100
AcDbEntity
  8
OUTLINE
  6
Continuous
 62
     0
370
    -2
100
AcDbLine
 10
-135.5
 20
-255.2324432319168
 30
0.0
 11
-123.5
 21
-255.2324432319168
 31
0.0
  0
INSERT
  5
1429
330
1421
100
AcDbEntity
  8
OUTLINE
  6
Continuous
 62
     0
370
    -2
100
AcDbBlockReference
  2
_DOTBLANK
 10
-135.5
 20
-255.2324432319168
 30
0.0
 41
12.0
 42
12.0
 43
12.0
  0
INSERT
  5
142A
330
1421
100
AcDbEntity
  8
OUTLINE
  6
Continuous
 62
     0
370
    -2
100
AcDbBlockReference
  2
_DOTBLANK
 10
-123.5
 20
-255.2324432319168
 30
0.0
 41
12.0
 42
12.0
 43
12.0
 50
180.0
  0
MTEXT
  5
142B
330
1421
100
AcDbEntity
  8
OUTLINE
  6
Continuous
 62
     0
100
AcDbMText
 10
-129.5
 20
-213.2324432319168
 30
0.0
 40
64.0
 41
0.0
 71
     5
 72
     1
  1
\A1;12
 73
     1
 44
1.0
1001
ACAD
1000
MTEXTBEGIN
1070
    73
1070
     1
1070
    44
1040
1.0
1070
    74
1070
     0
1000
MTEXTEND
  0
POINT
  5
142C
330
1421
100
AcDbEntity
  8
DEFPOINTS
  6
Continuous
 62
     0
100
AcDbPoint
 10
-135.5
 20
-243.0
 30
0.0
  0
POINT
  5
142D
330
1421
100
AcDbEntity
  8
DEFPOINTS
  6
Continuous
 62
     0
100
AcDbPoint
 10
-123.5
 20
-243.0
 30
0.0
  0
POINT
  5
142E
330
1421
100
AcDbEntity
  8
DEFPOINTS
  6
Continuous
 62
     0
100
AcDbPoint
 10
-123.5
 20
-255.2324432319168
 30
0.0
  0
ENDBLK
  5
1423
330
1421
100
AcDbEntity
  8
0
100
AcDbBlockEnd
  0
BLOCK
  5
156A
330
1569
100
AcDbEntity
  8
0
100
AcDbBlockBegin
  2
*D12
 70
     1
 10
0.0
 20
0.0
 30
0.0
  3
*D12
  1

  0
LINE
  5
156B
330
1569
100
AcDbEntity
  8
SIZE
 62
     0
370
    -2
100
AcDbLine
 10
-43498.31326757634
 20
4305.193042498664
 30
0.0
 11
-43542.0974700479
 21
4305.193042498664
 31
0.0
  0
LINE
  5
156C
330
1569
100
AcDbEntity
  8
SIZE
 62
     0
370
    -2
100
AcDbLine
 10
-43498.31326757634
 20
4020.193042498664
 30
0.0
 11
-43542.0974700479
 21
4020.193042498664
 31
0.0
  0
LINE
  5
156D
330
1569
100
AcDbEntity
  8
SIZE
 62
     0
370
    -2
100
AcDbLine
 10
-43522.09747004788
 20
4293.193042498663
 30
0.0
 11
-43522.09747004788
 21
4032.193042498664
 31
0.0
  0
INSERT
  5
156E
330
1569
100
AcDbEntity
  8
SIZE
 62
     0
370
    -2
100
AcDbBlockReference
  2
_DOTBLANK
 10
-43522.09747004788
 20
4305.193042498664
 30
0.0
 41
12.0
 42
12.0
 43
12.0
 50
90.0
  0
INSERT
  5
156F
330
1569
100
AcDbEntity
  8
SIZE
 62
     0
370
    -2
100
AcDbBlockReference
  2
_DOTBLANK
 10
-43522.09747004788
 20
4020.193042498664
 30
0.0
 41
12.0
 42
12.0
 43
12.0
 50
270.0
  0
MTEXT
  5
1570
330
1569
100
AcDbEntity
  8
SIZE
 62
     0
100
AcDbMText
 10
-43564.09747004788
 20
4162.693042498657
 30
0.0
 40
64.0
 41
0.0
 71
     5
 72
     1
  1
\A1;285
 11
0.0000000000000001
 21
1.0
 31
0.0
 73
     1
 44
1.0
1001
ACAD
1000
MTEXTBEGIN
1070
    73
1070
     1
1070
    44
1040
1.0
1070
    74
1070
     0
1000
MTEXTEND
  0
POINT
  5
1571
330
1569
100
AcDbEntity
  8
DEFPOINTS
 62
     0
100
AcDbPoint
 10
-43478.31326757634
 20
4305.193042498664
 30
0.0
  0
POINT
  5
1572
330
1569
100
AcDbEntity
  8
DEFPOINTS
 62
     0
100
AcDbPoint
 10
-43478.31326757634
 20
4020.193042498664
 30
0.0
  0
POINT
  5
1573
330
1569
100
AcDbEntity
  8
DEFPOINTS
 62
     0
100
AcDbPoint
 10
-43522.09747004788
 20
4020.193042498664
 30
0.0
  0
ENDBLK
  5
1574
330
1569
100
AcDbEntity
  8
0
100
AcDbBlockEnd
  0
BLOCK
  5
1576
330
1575
100
AcDbEntity
  8
0
100
AcDbBlockBegin
  2
*D13
 70
     1
 10
0.0
 20
0.0
 30
0.0
  3
*D13
  1

  0
LINE
  5
1577
330
1575
100
AcDbEntity
  8
SIZE
 62
     0
370
    -2
100
AcDbLine
 10
-43498.31326757634
 20
4020.193042498664
 30
0.0
 11
-43542.0974700479
 21
4020.193042498664
 31
0.0
  0
LINE
  5
1578
330
1575
100
AcDbEntity
  8
SIZE
 62
     0
370
    -2
100
AcDbLine
 10
-43498.31326757634
 20
3735.193042498663
 30
0.0
 11
-43542.0974700479
 21
3735.193042498663
 31
0.0
  0
LINE
  5
1579
330
1575
100
AcDbEntity
  8
SIZE
 62
     0
370
    -2
100
AcDbLine
 10
-43522.09747004788
 20
4008.193042498663
 30
0.0
 11
-43522.09747004788
 21
3747.193042498664
 31
0.0
  0
INSERT
  5
157A
330
1575
100
AcDbEntity
  8
SIZE
 62
     0
370
    -2
100
AcDbBlockReference
  2
_DOTBLANK
 10
-43522.09747004788
 20
4020.193042498664
 30
0.0
 41
12.0
 42
12.0
 43
12.0
 50
90.0
  0
INSERT
  5
157B
330
1575
100
AcDbEntity
  8
SIZE
 62
     0
370
    -2
100
AcDbBlockReference
  2
_DOTBLANK
 10
-43522.09747004788
 20
3735.193042498663
 30
0.0
 41
12.0
 42
12.0
 43
12.0
 50
270.0
  0
MTEXT
  5
157C
330
1575
100
AcDbEntity
  8
SIZE
 62
     0
100
AcDbMText
 10
-43564.09747004788
 20
3877.693042498658
 30
0.0
 40
64.0
 41
0.0
 71
     5
 72
     1
  1
\A1;285
 11
0.0000000000000001
 21
1.0
 31
0.0
 73
     1
 44
1.0
1001
ACAD
1000
MTEXTBEGIN
1070
    73
1070
     1
1070
    44
1040
1.0
1070
    74
1070
     0
1000
MTEXTEND
  0
POINT
  5
157D
330
1575
100
AcDbEntity
  8
DEFPOINTS
 62
     0
100
AcDbPoint
 10
-43478.31326757634
 20
4020.193042498664
 30
0.0
  0
POINT
  5
157E
330
1575
100
AcDbEntity
  8
DEFPOINTS
 62
     0
100
AcDbPoint
 10
-43478.31326757634
 20
3735.193042498663
 30
0.0
  0
POINT
  5
157F
330
1575
100
AcDbEntity
  8
DEFPOINTS
 62
     0
100
AcDbPoint
 10
-43522.09747004788
 20
3735.193042498663
 30
0.0
  0
ENDBLK
  5
1580
330
1575
100
AcDbEntity
  8
0
100
AcDbBlockEnd
  0
BLOCK
  5
1582
330
1581
100
AcDbEntity
  8
0
100
AcDbBlockBegin
  2
*D14
 70
     1
 10
0.0
 20
0.0
 30
0.0
  3
*D14
  1

  0
LINE
  5
1583
330
1581
100
AcDbEntity
  8
SIZE
 62
     0
370
    -2
100
AcDbLine
 10
-43501.20326757633
 20
3710.193042498663
 30
0.0
 11
-43662.43490991455
 21
3710.193042498663
 31
0.0
  0
LINE
  5
1584
330
1581
100
AcDbEntity
  8
SIZE
 62
     0
370
    -2
100
AcDbLine
 10
-43500.20326757634
 20
4330.993042498662
 30
0.0
 11
-43662.43490991455
 21
4330.993042498662
 31
0.0
  0
LINE
  5
1585
330
1581
100
AcDbEntity
  8
SIZE
 62
     0
370
    -2
100
AcDbLine
 10
-43642.43490991453
 20
3722.193042498664
 30
0.0
 11
-43642.43490991453
 21
4318.993042498664
 31
0.0
  0
INSERT
  5
1586
330
1581
100
AcDbEntity
  8
SIZE
 62
     0
370
    -2
100
AcDbBlockReference
  2
_DOTBLANK
 10
-43642.43490991453
 20
3710.193042498663
 30
0.0
 41
12.0
 42
12.0
 43
12.0
 50
270.0
  0
INSERT
  5
1587
330
1581
100
AcDbEntity
  8
SIZE
 62
     0
370
    -2
100
AcDbBlockReference
  2
_DOTBLANK
 10
-43642.43490991453
 20
4330.993042498662
 30
0.0
 41
12.0
 42
12.0
 43
12.0
 50
90.0
  0
MTEXT
  5
1588
330
1581
100
AcDbEntity
  8
SIZE
 62
     0
100
AcDbMText
 10
-43684.43490991453
 20
4020.593042498657
 30
0.0
 40
64.0
 41
0.0
 71
     5
 72
     1
  1
\A1;621
 11
0.0000000000000001
 21
1.0
 31
0.0
 73
     1
 44
1.0
1001
ACAD
1000
MTEXTBEGIN
1070
    73
1070
     1
1070
    44
1040
1.0
1070
    74
1070
     0
1000
MTEXTEND
  0
POINT
  5
1589
330
1581
100
AcDbEntity
  8
DEFPOINTS
 62
     0
100
AcDbPoint
 10
-43481.20326757634
 20
3710.193042498663
 30
0.0
  0
POINT
  5
158A
330
1581
100
AcDbEntity
  8
DEFPOINTS
 62
     0
100
AcDbPoint
 10
-43480.20326757634
 20
4330.993042498662
 30
0.0
  0
POINT
  5
158B
330
1581
100
AcDbEntity
  8
DEFPOINTS
 62
     0
100
AcDbPoint
 10
-43642.43490991453
 20
4330.993042498662
 30
0.0
  0
ENDBLK
  5
158C
330
1581
100
AcDbEntity
  8
0
100
AcDbBlockEnd
  0
BLOCK
  5
158E
330
158D
100
AcDbEntity
  8
0
100
AcDbBlockBegin
  2
*D15
 70
     1
 10
0.0
 20
0.0
 30
0.0
  3
*D15
  1

  0
LINE
  5
158F
330
158D
100
AcDbEntity
  8
SIZE
 62
     0
370
    -2
100
AcDbLine
 10
-43475.20326757634
 20
3707.693042498668
 30
0.0
 11
-43475.20326757634
 21
3553.77042621216
 31
0.0
  0
LINE
  5
1590
330
158D
100
AcDbEntity
  8
SIZE
 62
     0
370
    -2
100
AcDbLine
 10
-42837.20326757634
 20
3707.693042498668
 30
0.0
 11
-42837.20326757634
 21
3553.77042621216
 31
0.0
  0
LINE
  5
1591
330
158D
100
AcDbEntity
  8
SIZE
 62
     0
370
    -2
100
AcDbLine
 10
-43463.20326757633
 20
3573.77042621216
 30
0.0
 11
-42849.20326757633
 21
3573.77042621216
 31
0.0
  0
INSERT
  5
1592
330
158D
100
AcDbEntity
  8
SIZE
 62
     0
370
    -2
100
AcDbBlockReference
  2
_DOTBLANK
 10
-43475.20326757634
 20
3573.77042621216
 30
0.0
 41
12.0
 42
12.0
 43
12.0
 50
180.0
  0
INSERT
  5
1593
330
158D
100
AcDbEntity
  8
SIZE
 62
     0
370
    -2
100
AcDbBlockReference
  2
_DOTBLANK
 10
-42837.20326757634
 20
3573.77042621216
 30
0.0
 41
12.0
 42
12.0
 43
12.0
  0
MTEXT
  5
1594
330
158D
100
AcDbEntity
  8
SIZE
 62
     0
100
AcDbMText
 10
-43156.20326757634
 20
3615.770426212161
 30
0.0
 40
64.0
 41
0.0
 71
     5
 72
     1
  1
\A1;638
 73
     1
 44
1.0
1001
ACAD
1000
MTEXTBEGIN
1070
    73
1070
     1
1070
    44
1040
1.0
1070
    74
1070
     0
1000
MTEXTEND
  0
POINT
  5
1595
330
158D
100
AcDbEntity
  8
DEFPOINTS
 62
     0
100
AcDbPoint
 10
-43475.20326757634
 20
3727.693042498668
 30
0.0
  0
POINT
  5
1596
330
158D
100
AcDbEntity
  8
DEFPOINTS
 62
     0
100
AcDbPoint
 10
-42837.20326757634
 20
3727.693042498668
 30
0.0
  0
POINT
  5
1597
330
158D
100
AcDbEntity
  8
DEFPOINTS
 62
     0
100
AcDbPoint
 10
-42837.20326757634
 20
3573.77042621216
 30
0.0
  0
ENDBLK
  5
1598
330
158D
100
AcDbEntity
  8
0
100
AcDbBlockEnd
  0
BLOCK
  5
159A
330
1599
100
AcDbEntity
  8
0
100
AcDbBlockBegin
  2
*D16
 70
     1
 10
0.0
 20
0.0
 30
0.0
  3
*D16
  1

  0
LINE
  5
159B
330
1599
100
AcDbEntity
  8
SIZE
 62
     0
370
    -2
100
AcDbLine
 10
-43481.20326757634
 20
3690.193042498668
 30
0.0
 11
-43481.20326757634
 21
3437.284494408658
 31
0.0
  0
LINE
  5
159C
330
1599
100
AcDbEntity
  8
SIZE
 62
     0
370
    -2
100
AcDbLine
 10
-42831.20326757634
 20
3690.193042498668
 30
0.0
 11
-42831.20326757634
 21
3437.284494408658
 31
0.0
  0
LINE
  5
159D
330
1599
100
AcDbEntity
  8
SIZE
 62
     0
370
    -2
100
AcDbLine
 10
-43469.20326757634
 20
3457.284494408658
 30
0.0
 11
-42843.20326757634
 21
3457.284494408658
 31
0.0
  0
INSERT
  5
159E
330
1599
100
AcDbEntity
  8
SIZE
 62
     0
370
    -2
100
AcDbBlockReference
  2
_DOTBLANK
 10
-43481.20326757634
 20
3457.284494408658
 30
0.0
 41
12.0
 42
12.0
 43
12.0
 50
180.0
  0
INSERT
  5
159F
330
1599
100
AcDbEntity
  8
SIZE
 62
     0
370
    -2
100
AcDbBlockReference
  2
_DOTBLANK
 10
-42831.20326757634
 20
3457.284494408658
 30
0.0
 41
12.0
 42
12.0
 43
12.0
  0
MTEXT
  5
15A0
330
1599
100
AcDbEntity
  8
SIZE
 62
     0
100
AcDbMText
 10
-43156.20326757634
 20
3499.284494408659
 30
0.0
 40
64.0
 41
0.0
 71
     5
 72
     1
  1
\A1;650
 73
     1
 44
1.0
1001
ACAD
1000
MTEXTBEGIN
1070
    73
1070
     1
1070
    44
1040
1.0
1070
    74
1070
     0
1000
MTEXTEND
  0
POINT
  5
15A1
330
1599
100
AcDbEntity
  8
DEFPOINTS
 62
     0
100
AcDbPoint
 10
-43481.20326757634
 20
3710.193042498668
 30
0.0
  0
POINT
  5
15A2
330
1599
100
AcDbEntity
  8
DEFPOINTS
 62
     0
100
AcDbPoint
 10
-42831.20326757634
 20
3710.193042498668
 30
0.0
  0
POINT
  5
15A3
330
1599
100
AcDbEntity
  8
DEFPOINTS
 62
     0
100
AcDbPoint
 10
-42831.20326757634
 20
3457.284494408658
 30
0.0
  0
ENDBLK
  5
15A4
330
1599
100
AcDbEntity
  8
0
100
AcDbBlockEnd
  0
BLOCK
  5
1748
330
1747
100
AcDbEntity
  8
0
100
AcDbBlockBegin
  2
*D17
 70
     1
 10
0.0
 20
0.0
 30
0.0
  3
*D17
  1

  0
LINE
  5
17DD
330
1747
100
AcDbEntity
  8
SIZE
 62
     0
370
    -2
100
AcDbLine
 10
-342.1100000000006
 20
285.0
 30
0.0
 11
-385.8942024715578
 21
285.0000000000001
 31
0.0
  0
LINE
  5
17DE
330
1747
100
AcDbEntity
  8
SIZE
 62
     0
370
    -2
100
AcDbLine
 10
-342.1100000000006
 20
0.0000000000000057
 30
0.0
 11
-385.894202471558
 21
0.0000000000000181
 31
0.0
  0
LINE
  5
17DF
330
1747
100
AcDbEntity
  8
SIZE
 62
     0
370
    -2
100
AcDbLine
 10
-365.8942024715579
 20
273.0
 30
0.0
 11
-365.8942024715579
 21
12.00000000000001
 31
0.0
  0
INSERT
  5
17E0
330
1747
100
AcDbEntity
  8
SIZE
 62
     0
370
    -2
100
AcDbBlockReference
  2
_DOTBLANK
 10
-365.8942024715579
 20
285.0
 30
0.0
 41
12.0
 42
12.0
 43
12.0
 50
90.0
  0
INSERT
  5
17E1
330
1747
100
AcDbEntity
  8
SIZE
 62
     0
370
    -2
100
AcDbBlockReference
  2
_DOTBLANK
 10
-365.8942024715579
 20
0.0000000000000124
 30
0.0
 41
12.0
 42
12.0
 43
12.0
 50
270.0
  0
MTEXT
  5
17E2
330
1747
100
AcDbEntity
  8
SIZE
 62
     0
100
AcDbMText
 10
-407.8942024715578
 20
142.5
 30
0.0
 40
64.0
 41
0.0
 71
     5
 72
     1
  1
\A1;285
 11
0.0000000000000001
 21
1.0
 31
0.0
 73
     1
 44
1.0
1001
ACAD
1000
MTEXTBEGIN
1070
    73
1070
     1
1070
    44
1040
1.0
1070
    74
1070
     0
1000
MTEXTEND
  0
POINT
  5
17E3
330
1747
100
AcDbEntity
  8
DEFPOINTS
 62
     0
100
AcDbPoint
 10
-322.1100000000006
 20
285.0
 30
0.0
  0
POINT
  5
17E4
330
1747
100
AcDbEntity
  8
DEFPOINTS
 62
     0
100
AcDbPoint
 10
-322.1100000000006
 20
0.0
 30
0.0
  0
POINT
  5
17E5
330
1747
100
AcDbEntity
  8
DEFPOINTS
 62
     0
100
AcDbPoint
 10
-365.8942024715579
 20
0.0000000000000124
 30
0.0
  0
ENDBLK
  5
1749
330
1747
100
AcDbEntity
  8
0
100
AcDbBlockEnd
  0
BLOCK
  5
1754
330
1753
100
AcDbEntity
  8
0
100
AcDbBlockBegin
  2
*D18
 70
     1
 10
0.0
 20
0.0
 30
0.0
  3
*D18
  1

  0
LINE
  5
17E6
330
1753
100
AcDbEntity
  8
SIZE
 62
     0
370
    -2
100
AcDbLine
 10
-342.1100000000006
 20
0.0000000000000057
 30
0.0
 11
-385.8942024715578
 21
0.0000000000000181
 31
0.0
  0
LINE
  5
17E7
330
1753
100
AcDbEntity
  8
SIZE
 62
     0
370
    -2
100
AcDbLine
 10
-342.1100000000006
 20
-285.0000000000004
 30
0.0
 11
-385.894202471558
 21
-285.0000000000004
 31
0.0
  0
LINE
  5
17E8
330
1753
100
AcDbEntity
  8
SIZE
 62
     0
370
    -2
100
AcDbLine
 10
-365.8942024715579
 20
-11.99999999999999
 30
0.0
 11
-365.8942024715579
 21
-273.0000000000004
 31
0.0
  0
INSERT
  5
17E9
330
1753
100
AcDbEntity
  8
SIZE
 62
     0
370
    -2
100
AcDbBlockReference
  2
_DOTBLANK
 10
-365.8942024715579
 20
0.0000000000000124
 30
0.0
 41
12.0
 42
12.0
 43
12.0
 50
90.0
  0
INSERT
  5
17EA
330
1753
100
AcDbEntity
  8
SIZE
 62
     0
370
    -2
100
AcDbBlockReference
  2
_DOTBLANK
 10
-365.8942024715579
 20
-285.0000000000004
 30
0.0
 41
12.0
 42
12.0
 43
12.0
 50
270.0
  0
MTEXT
  5
17EB
330
1753
100
AcDbEntity
  8
SIZE
 62
     0
100
AcDbMText
 10
-407.8942024715578
 20
-142.5000000000002
 30
0.0
 40
64.0
 41
0.0
 71
     5
 72
     1
  1
\A1;285
 11
0.0000000000000001
 21
1.0
 31
0.0
 73
     1
 44
1.0
1001
ACAD
1000
MTEXTBEGIN
1070
    73
1070
     1
1070
    44
1040
1.0
1070
    74
1070
     0
1000
MTEXTEND
  0
POINT
  5
17EC
330
1753
100
AcDbEntity
  8
DEFPOINTS
 62
     0
100
AcDbPoint
 10
-322.1100000000006
 20
0.0
 30
0.0
  0
POINT
  5
17ED
330
1753
100
AcDbEntity
  8
DEFPOINTS
 62
     0
100
AcDbPoint
 10
-322.1100000000006
 20
-285.0000000000004
 30
0.0
  0
POINT
  5
17EE
330
1753
100
AcDbEntity
  8
DEFPOINTS
 62
     0
100
AcDbPoint
 10
-365.8942024715579
 20
-285.0000000000004
 30
0.0
  0
ENDBLK
  5
1755
330
1753
100
AcDbEntity
  8
0
100
AcDbBlockEnd
  0
BLOCK
  5
1760
330
175F
100
AcDbEntity
  8
0
100
AcDbBlockBegin
  2
*D19
 70
     1
 10
0.0
 20
0.0
 30
0.0
  3
*D19
  1

  0
LINE
  5
17EF
330
175F
100
AcDbEntity
  8
SIZE
 62
     0
370
    -2
100
AcDbLine
 10
-345.0
 20
-310.0000000000004
 30
0.0
 11
-506.2316423382069
 21
-310.0000000000004
 31
0.0
  0
LINE
  5
17F0
330
175F
100
AcDbEntity
  8
SIZE
 62
     0
370
    -2
100
AcDbLine
 10
-344.0
 20
310.7999999999993
 30
0.0
 11
-506.2316423382068
 21
310.7999999999993
 31
0.0
  0
LINE
  5
17F1
330
175F
100
AcDbEntity
  8
SIZE
 62
     0
370
    -2
100
AcDbLine
 10
-486.2316423382071
 20
-298.0000000000004
 30
0.0
 11
-486.2316423382071
 21
298.7999999999993
 31
0.0
  0
INSERT
  5
17F2
330
175F
100
AcDbEntity
  8
SIZE
 62
     0
370
    -2
100
AcDbBlockReference
  2
_DOTBLANK
 10
-486.2316423382071
 20
-310.0000000000004
 30
0.0
 41
12.0
 42
12.0
 43
12.0
 50
270.0
  0
INSERT
  5
17F3
330
175F
100
AcDbEntity
  8
SIZE
 62
     0
370
    -2
100
AcDbBlockReference
  2
_DOTBLANK
 10
-486.2316423382071
 20
310.7999999999993
 30
0.0
 41
12.0
 42
12.0
 43
12.0
 50
90.0
  0
MTEXT
  5
17F4
330
175F
100
AcDbEntity
  8
SIZE
 62
     0
100
AcDbMText
 10
-528.231642338207
 20
0.3999999999932749
 30
0.0
 40
64.0
 41
0.0
 71
     5
 72
     1
  1
\A1;621
 11
0.0000000000000001
 21
1.0
 31
0.0
 73
     1
 44
1.0
1001
ACAD
1000
MTEXTBEGIN
1070
    73
1070
     1
1070
    44
1040
1.0
1070
    74
1070
     0
1000
MTEXTEND
  0
POINT
  5
17F5
330
175F
100
AcDbEntity
  8
DEFPOINTS
 62
     0
100
AcDbPoint
 10
-325.0
 20
-310.0000000000004
 30
0.0
  0
POINT
  5
17F6
330
175F
100
AcDbEntity
  8
DEFPOINTS
 62
     0
100
AcDbPoint
 10
-324.0
 20
310.7999999999993
 30
0.0
  0
POINT
  5
17F7
330
175F
100
AcDbEntity
  8
DEFPOINTS
 62
     0
100
AcDbPoint
 10
-486.2316423382071
 20
310.7999999999993
 30
0.0
  0
ENDBLK
  5
1761
330
175F
100
AcDbEntity
  8
0
100
AcDbBlockEnd
  0
BLOCK
  5
176C
330
176B
100
AcDbEntity
  8
0
100
AcDbBlockBegin
  2
*D20
 70
     1
 10
0.0
 20
0.0
 30
0.0
  3
*D20
  1

  0
LINE
  5
17F8
330
176B
100
AcDbEntity
  8
SIZE
 62
     0
370
    -2
100
AcDbLine
 10
-319.0
 20
-312.4999999999964
 30
0.0
 11
-319.0
 21
-466.4226162865043
 31
0.0
  0
LINE
  5
17F9
330
176B
100
AcDbEntity
  8
SIZE
 62
     0
370
    -2
100
AcDbLine
 10
319.0
 20
-312.4999999999964
 30
0.0
 11
319.0
 21
-466.4226162865043
 31
0.0
  0
LINE
  5
17FA
330
176B
100
AcDbEntity
  8
SIZE
 62
     0
370
    -2
100
AcDbLine
 10
-307.0
 20
-446.4226162865043
 30
0.0
 11
307.0
 21
-446.4226162865043
 31
0.0
  0
INSERT
  5
17FB
330
176B
100
AcDbEntity
  8
SIZE
 62
     0
370
    -2
100
AcDbBlockReference
  2
_DOTBLANK
 10
-319.0
 20
-446.4226162865043
 30
0.0
 41
12.0
 42
12.0
 43
12.0
 50
180.0
  0
INSERT
  5
17FC
330
176B
100
AcDbEntity
  8
SIZE
 62
     0
370
    -2
100
AcDbBlockReference
  2
_DOTBLANK
 10
319.0
 20
-446.4226162865043
 30
0.0
 41
12.0
 42
12.0
 43
12.0
  0
MTEXT
  5
17FD
330
176B
100
AcDbEntity
  8
SIZE
 62
     0
100
AcDbMText
 10
0.0000000000000026
 20
-404.4226162865043
 30
0.0
 40
64.0
 41
0.0
 71
     5
 72
     1
  1
\A1;638
 73
     1
 44
1.0
1001
ACAD
1000
MTEXTBEGIN
1070
    73
1070
     1
1070
    44
1040
1.0
1070
    74
1070
     0
1000
MTEXTEND
  0
POINT
  5
17FE
330
176B
100
AcDbEntity
  8
DEFPOINTS
 62
     0
100
AcDbPoint
 10
-319.0
 20
-292.4999999999964
 30
0.0
  0
POINT
  5
17FF
330
176B
100
AcDbEntity
  8
DEFPOINTS
 62
     0
100
AcDbPoint
 10
319.0
 20
-292.4999999999964
 30
0.0
  0
POINT
  5
1800
330
176B
100
AcDbEntity
  8
DEFPOINTS
 62
     0
100
AcDbPoint
 10
319.0
 20
-446.4226162865043
 30
0.0
  0
ENDBLK
  5
176D
330
176B
100
AcDbEntity
  8
0
100
AcDbBlockEnd
  0
BLOCK
  5
1778
330
1777
100
AcDbEntity
  8
0
100
AcDbBlockBegin
  2
*D21
 70
     1
 10
0.0
 20
0.0
 30
0.0
  3
*D21
  1

  0
LINE
  5
1801
330
1777
100
AcDbEntity
  8
SIZE
 62
     0
370
    -2
100
AcDbLine
 10
-325.0
 20
-329.9999999999964
 30
0.0
 11
-325.0
 21
-582.9085480900057
 31
0.0
  0
LINE
  5
1802
330
1777
100
AcDbEntity
  8
SIZE
 62
     0
370
    -2
100
AcDbLine
 10
325.0
 20
-329.9999999999964
 30
0.0
 11
325.0
 21
-582.9085480900057
 31
0.0
  0
LINE
  5
1803
330
1777
100
AcDbEntity
  8
SIZE
 62
     0
370
    -2
100
AcDbLine
 10
-313.0
 20
-562.9085480900057
 30
0.0
 11
313.0
 21
-562.9085480900057
 31
0.0
  0
INSERT
  5
1804
330
1777
100
AcDbEntity
  8
SIZE
 62
     0
370
    -2
100
AcDbBlockReference
  2
_DOTBLANK
 10
-325.0
 20
-562.9085480900057
 30
0.0
 41
12.0
 42
12.0
 43
12.0
 50
180.0
  0
INSERT
  5
1805
330
1777
100
AcDbEntity
  8
SIZE
 62
     0
370
    -2
100
AcDbBlockReference
  2
_DOTBLANK
 10
325.0
 20
-562.9085480900057
 30
0.0
 41
12.0
 42
12.0
 43
12.0
  0
MTEXT
  5
1806
330
1777
100
AcDbEntity
  8
SIZE
 62
     0
100
AcDbMText
 10
0.0000000000000026
 20
-520.9085480900057
 30
0.0
 40
64.0
 41
0.0
 71
     5
 72
     1
  1
\A1;650
 73
     1
 44
1.0
1001
ACAD
1000
MTEXTBEGIN
1070
    73
1070
     1
1070
    44
1040
1.0
1070
    74
1070
     0
1000
MTEXTEND
  0
POINT
  5
1807
330
1777
100
AcDbEntity
  8
DEFPOINTS
 62
     0
100
AcDbPoint
 10
-325.0
 20
-309.9999999999964
 30
0.0
  0
POINT
  5
1808
330
1777
100
AcDbEntity
  8
DEFPOINTS
 62
     0
100
AcDbPoint
 10
325.0
 20
-309.9999999999964
 30
0.0
  0
POINT
  5
1809
330
1777
100
AcDbEntity
  8
DEFPOINTS
 62
     0
100
AcDbPoint
 10
325.0
 20
-562.9085480900057
 30
0.0
  0
ENDBLK
  5
1779
330
1777
100
AcDbEntity
  8
0
100
AcDbBlockEnd
  0
BLOCK
  5
1900
330
18FF
100
AcDbEntity
  8
0
100
AcDbBlockBegin
  2
*D22
 70
     1
 10
0.0
 20
0.0
 30
0.0
  3
*D22
  1

  0
LINE
  5
1901
330
18FF
100
AcDbEntity
  8
SIZE
  6
Continuous
 62
     0
370
    -2
100
AcDbLine
 10
-45355.37866409504
 20
4274.137030641877
 30
0.0
 11
-45355.37866409504
 21
4370.605303344865
 31
0.0
  0
LINE
  5
1902
330
18FF
100
AcDbEntity
  8
SIZE
  6
Continuous
 62
     0
370
    -2
100
AcDbLine
 10
-45026.57866409506
 20
4274.137030641885
 30
0.0
 11
-45026.57866409506
 21
4370.605303344865
 31
0.0
  0
LINE
  5
1903
330
18FF
100
AcDbEntity
  8
SIZE
  6
Continuous
 62
     0
370
    -2
100
AcDbLine
 10
-45343.37866409504
 20
4350.605303344867
 30
0.0
 11
-45038.57866409505
 21
4350.605303344867
 31
0.0
  0
INSERT
  5
1904
330
18FF
100
AcDbEntity
  8
SIZE
  6
Continuous
 62
     0
370
    -2
100
AcDbBlockReference
  2
_DOTBLANK
 10
-45355.37866409504
 20
4350.605303344867
 30
0.0
 41
12.0
 42
12.0
 43
12.0
 50
180.0
  0
INSERT
  5
1905
330
18FF
100
AcDbEntity
  8
SIZE
  6
Continuous
 62
     0
370
    -2
100
AcDbBlockReference
  2
_DOTBLANK
 10
-45026.57866409506
 20
4350.605303344867
 30
0.0
 41
12.0
 42
12.0
 43
12.0
  0
MTEXT
  5
1906
330
18FF
100
AcDbEntity
  8
SIZE
  6
Continuous
 62
     0
100
AcDbMText
 10
-45190.97866409505
 20
4392.605303344867
 30
0.0
 40
64.0
 41
0.0
 71
     5
 72
     1
  1
\A1;329
 73
     1
 44
1.0
1001
ACAD
1000
MTEXTBEGIN
1070
    73
1070
     1
1070
    44
1040
1.0
1070
    74
1070
     0
1000
MTEXTEND
  0
POINT
  5
1907
330
18FF
100
AcDbEntity
  8
DEFPOINTS
  6
Continuous
 62
     0
100
AcDbPoint
 10
-45355.37866409504
 20
4254.137030641873
 30
0.0
  0
POINT
  5
1908
330
18FF
100
AcDbEntity
  8
DEFPOINTS
  6
Continuous
 62
     0
100
AcDbPoint
 10
-45026.57866409506
 20
4254.137030641884
 30
0.0
  0
POINT
  5
1909
330
18FF
100
AcDbEntity
  8
DEFPOINTS
  6
Continuous
 62
     0
100
AcDbPoint
 10
-45026.57866409506
 20
4350.605303344867
 30
0.0
  0
ENDBLK
  5
190A
330
18FF
100
AcDbEntity
  8
0
100
AcDbBlockEnd
  0
BLOCK
  5
190C
330
190B
100
AcDbEntity
  8
0
100
AcDbBlockBegin
  2
*D23
 70
     1
 10
0.0
 20
0.0
 30
0.0
  3
*D23
  1

  0
LINE
  5
190D
330
190B
100
AcDbEntity
  8
SIZE
  6
Continuous
 62
     0
370
    -2
100
AcDbLine
 10
-45026.57866409506
 20
4274.137030641885
 30
0.0
 11
-45026.57866409506
 21
4370.605303344865
 31
0.0
  0
LINE
  5
190E
330
190B
100
AcDbEntity
  8
SIZE
  6
Continuous
 62
     0
370
    -2
100
AcDbLine
 10
-44722.57866409506
 20
4274.137030641892
 30
0.0
 11
-44722.57866409506
 21
4370.605303344865
 31
0.0
  0
LINE
  5
190F
330
190B
100
AcDbEntity
  8
SIZE
  6
Continuous
 62
     0
370
    -2
100
AcDbLine
 10
-45014.57866409506
 20
4350.605303344867
 30
0.0
 11
-44734.57866409506
 21
4350.605303344867
 31
0.0
  0
INSERT
  5
1910
330
190B
100
AcDbEntity
  8
SIZE
  6
Continuous
 62
     0
370
    -2
100
AcDbBlockReference
  2
_DOTBLANK
 10
-45026.57866409506
 20
4350.605303344867
 30
0.0
 41
12.0
 42
12.0
 43
12.0
 50
180.0
  0
INSERT
  5
1911
330
190B
100
AcDbEntity
  8
SIZE
  6
Continuous
 62
     0
370
    -2
100
AcDbBlockReference
  2
_DOTBLANK
 10
-44722.57866409506
 20
4350.605303344867
 30
0.0
 41
12.0
 42
12.0
 43
12.0
  0
MTEXT
  5
1912
330
190B
100
AcDbEntity
  8
SIZE
  6
Continuous
 62
     0
100
AcDbMText
 10
-44874.57866409505
 20
4392.605303344867
 30
0.0
 40
64.0
 41
0.0
 71
     5
 72
     1
  1
\A1;304
 73
     1
 44
1.0
1001
ACAD
1000
MTEXTBEGIN
1070
    73
1070
     1
1070
    44
1040
1.0
1070
    74
1070
     0
1000
MTEXTEND
  0
POINT
  5
1913
330
190B
100
AcDbEntity
  8
DEFPOINTS
  6
Continuous
 62
     0
100
AcDbPoint
 10
-45026.57866409506
 20
4254.137030641884
 30
0.0
  0
POINT
  5
1914
330
190B
100
AcDbEntity
  8
DEFPOINTS
  6
Continuous
 62
     0
100
AcDbPoint
 10
-44722.57866409506
 20
4254.137030641891
 30
0.0
  0
POINT
  5
1915
330
190B
100
AcDbEntity
  8
DEFPOINTS
  6
Continuous
 62
     0
100
AcDbPoint
 10
-44722.57866409506
 20
4350.605303344867
 30
0.0
  0
ENDBLK
  5
1916
330
190B
100
AcDbEntity
  8
0
100
AcDbBlockEnd
  0
BLOCK
  5
1918
330
1917
100
AcDbEntity
  8
0
100
AcDbBlockBegin
  2
*D24
 70
     1
 10
0.0
 20
0.0
 30
0.0
  3
*D24
  1

  0
LINE
  5
1919
330
1917
100
AcDbEntity
  8
SIZE
  6
Continuous
 62
     0
370
    -2
100
AcDbLine
 10
-45391.07866409503
 20
4074.61618444625
 30
0.0
 11
-45539.75737199871
 21
4074.61618444625
 31
0.0
  0
LINE
  5
191A
330
1917
100
AcDbEntity
  8
SIZE
  6
Continuous
 62
     0
370
    -2
100
AcDbLine
 10
-45391.07866409503
 20
3666.616184446249
 30
0.0
 11
-45539.75737199871
 21
3666.616184446249
 31
0.0
  0
LINE
  5
191B
330
1917
100
AcDbEntity
  8
SIZE
  6
Continuous
 62
     0
370
    -2
100
AcDbLine
 10
-45519.75737199871
 20
4062.616184446247
 30
0.0
 11
-45519.75737199871
 21
3678.616184446248
 31
0.0
  0
INSERT
  5
191C
330
1917
100
AcDbEntity
  8
SIZE
  6
Continuous
 62
     0
370
    -2
100
AcDbBlockReference
  2
_DOTBLANK
 10
-45519.75737199871
 20
4074.61618444625
 30
0.0
 41
12.0
 42
12.0
 43
12.0
 50
90.0
  0
INSERT
  5
191D
330
1917
100
AcDbEntity
  8
SIZE
  6
Continuous
 62
     0
370
    -2
100
AcDbBlockReference
  2
_DOTBLANK
 10
-45519.75737199871
 20
3666.616184446249
 30
0.0
 41
12.0
 42
12.0
 43
12.0
 50
270.0
  0
MTEXT
  5
191E
330
1917
100
AcDbEntity
  8
SIZE
  6
Continuous
 62
     0
100
AcDbMText
 10
-45561.75737199871
 20
3870.616184446242
 30
0.0
 40
64.0
 41
0.0
 71
     5
 72
     1
  1
\A1;408
 11
0.0000000000000001
 21
1.0
 31
0.0
 73
     1
 44
1.0
1001
ACAD
1000
MTEXTBEGIN
1070
    73
1070
     1
1070
    44
1040
1.0
1070
    74
1070
     0
1000
MTEXTEND
  0
POINT
  5
191F
330
1917
100
AcDbEntity
  8
DEFPOINTS
  6
Continuous
 62
     0
100
AcDbPoint
 10
-45371.07866409503
 20
4074.61618444625
 30
0.0
  0
POINT
  5
1920
330
1917
100
AcDbEntity
  8
DEFPOINTS
  6
Continuous
 62
     0
100
AcDbPoint
 10
-45371.07866409503
 20
3666.616184446249
 30
0.0
  0
POINT
  5
1921
330
1917
100
AcDbEntity
  8
DEFPOINTS
  6
Continuous
 62
     0
100
AcDbPoint
 10
-45519.75737199871
 20
3666.616184446249
 30
0.0
  0
ENDBLK
  5
1922
330
1917
100
AcDbEntity
  8
0
100
AcDbBlockEnd
  0
BLOCK
  5
1924
330
1923
100
AcDbEntity
  8
0
100
AcDbBlockBegin
  2
*D25
 70
     1
 10
0.0
 20
0.0
 30
0.0
  3
*D25
  1

  0
LINE
  5
1925
330
1923
100
AcDbEntity
  8
SIZE
  6
Continuous
 62
     0
370
    -2
100
AcDbLine
 10
-45391.07866409503
 20
3666.616184446249
 30
0.0
 11
-45539.75737199871
 21
3666.616184446249
 31
0.0
  0
LINE
  5
1926
330
1923
100
AcDbEntity
  8
SIZE
  6
Continuous
 62
     0
370
    -2
100
AcDbLine
 10
-45391.07866409503
 20
3136.216184446249
 30
0.0
 11
-45539.75737199871
 21
3136.216184446249
 31
0.0
  0
LINE
  5
1927
330
1923
100
AcDbEntity
  8
SIZE
  6
Continuous
 62
     0
370
    -2
100
AcDbLine
 10
-45519.75737199871
 20
3654.616184446249
 30
0.0
 11
-45519.75737199871
 21
3148.216184446249
 31
0.0
  0
INSERT
  5
1928
330
1923
100
AcDbEntity
  8
SIZE
  6
Continuous
 62
     0
370
    -2
100
AcDbBlockReference
  2
_DOTBLANK
 10
-45519.75737199871
 20
3666.616184446249
 30
0.0
 41
12.0
 42
12.0
 43
12.0
 50
90.0
  0
INSERT
  5
1929
330
1923
100
AcDbEntity
  8
SIZE
  6
Continuous
 62
     0
370
    -2
100
AcDbBlockReference
  2
_DOTBLANK
 10
-45519.75737199871
 20
3136.216184446249
 30
0.0
 41
12.0
 42
12.0
 43
12.0
 50
270.0
  0
MTEXT
  5
192A
330
1923
100
AcDbEntity
  8
SIZE
  6
Continuous
 62
     0
100
AcDbMText
 10
-45561.75737199871
 20
3401.416184446242
 30
0.0
 40
64.0
 41
0.0
 71
     5
 72
     1
  1
\A1;530
 11
0.0000000000000001
 21
1.0
 31
0.0
 73
     1
 44
1.0
1001
ACAD
1000
MTEXTBEGIN
1070
    73
1070
     1
1070
    44
1040
1.0
1070
    74
1070
     0
1000
MTEXTEND
  0
POINT
  5
192B
330
1923
100
AcDbEntity
  8
DEFPOINTS
  6
Continuous
 62
     0
100
AcDbPoint
 10
-45371.07866409503
 20
3666.616184446249
 30
0.0
  0
POINT
  5
192C
330
1923
100
AcDbEntity
  8
DEFPOINTS
  6
Continuous
 62
     0
100
AcDbPoint
 10
-45371.07866409503
 20
3136.216184446249
 30
0.0
  0
POINT
  5
192D
330
1923
100
AcDbEntity
  8
DEFPOINTS
  6
Continuous
 62
     0
100
AcDbPoint
 10
-45519.75737199871
 20
3136.216184446249
 30
0.0
  0
ENDBLK
  5
192E
330
1923
100
AcDbEntity
  8
0
100
AcDbBlockEnd
  0
BLOCK
  5
1930
330
192F
100
AcDbEntity
  8
0
100
AcDbBlockBegin
  2
*D26
 70
     1
 10
0.0
 20
0.0
 30
0.0
  3
*D26
  1

  0
LINE
  5
1931
330
192F
100
AcDbEntity
  8
SIZE
  6
Continuous
 62
     0
370
    -2
100
AcDbLine
 10
-45389.07866409505
 20
4251.637030641876
 30
0.0
 11
-45670.84006611843
 21
4251.637030641876
 31
0.0
  0
LINE
  5
1932
330
192F
100
AcDbEntity
  8
SIZE
  6
Continuous
 62
     0
370
    -2
100
AcDbLine
 10
-45392.17866409503
 20
2996.416184446248
 30
0.0
 11
-45670.84006611843
 21
2996.416184446248
 31
0.0
  0
LINE
  5
1933
330
192F
100
AcDbEntity
  8
SIZE
  6
Continuous
 62
     0
370
    -2
100
AcDbLine
 10
-45650.84006611844
 20
4239.637030641875
 30
0.0
 11
-45650.84006611844
 21
3008.416184446248
 31
0.0
  0
INSERT
  5
1934
330
192F
100
AcDbEntity
  8
SIZE
  6
Continuous
 62
     0
370
    -2
100
AcDbBlockReference
  2
_DOTBLANK
 10
-45650.84006611844
 20
4251.637030641876
 30
0.0
 41
12.0
 42
12.0
 43
12.0
 50
90.0
  0
INSERT
  5
1935
330
192F
100
AcDbEntity
  8
SIZE
  6
Continuous
 62
     0
370
    -2
100
AcDbBlockReference
  2
_DOTBLANK
 10
-45650.84006611844
 20
2996.416184446248
 30
0.0
 41
12.0
 42
12.0
 43
12.0
 50
270.0
  0
MTEXT
  5
1936
330
192F
100
AcDbEntity
  8
SIZE
  6
Continuous
 62
     0
100
AcDbMText
 10
-45692.84006611844
 20
3624.026607544055
 30
0.0
 40
64.0
 41
0.0
 71
     5
 72
     1
  1
\A1;1255
 11
0.0000000000000001
 21
1.0
 31
0.0
 73
     1
 44
1.0
1001
ACAD
1000
MTEXTBEGIN
1070
    73
1070
     1
1070
    44
1040
1.0
1070
    74
1070
     0
1000
MTEXTEND
  0
POINT
  5
1937
330
192F
100
AcDbEntity
  8
DEFPOINTS
  6
Continuous
 62
     0
100
AcDbPoint
 10
-45369.07866409506
 20
4251.637030641876
 30
0.0
  0
POINT
  5
1938
330
192F
100
AcDbEntity
  8
DEFPOINTS
  6
Continuous
 62
     0
100
AcDbPoint
 10
-45372.17866409505
 20
2996.416184446248
 30
0.0
  0
POINT
  5
1939
330
192F
100
AcDbEntity
  8
DEFPOINTS
  6
Continuous
 62
     0
100
AcDbPoint
 10
-45650.84006611844
 20
2996.416184446248
 30
0.0
  0
ENDBLK
  5
193A
330
192F
100
AcDbEntity
  8
0
100
AcDbBlockEnd
  0
BLOCK
  5
193C
330
193B
100
AcDbEntity
  8
0
100
AcDbBlockBegin
  2
*D27
 70
     1
 10
0.0
 20
0.0
 30
0.0
  3
*D27
  1

  0
LINE
  5
193D
330
193B
100
AcDbEntity
  8
SIZE
  6
Continuous
 62
     0
370
    -2
100
AcDbLine
 10
-45363.57866409503
 20
3108.716184446249
 30
0.0
 11
-45363.57866409503
 21
2831.807994652447
 31
0.0
  0
LINE
  5
193E
330
193B
100
AcDbEntity
  8
SIZE
  6
Continuous
 62
     0
370
    -2
100
AcDbLine
 10
-44641.57866409503
 20
3108.716184446249
 30
0.0
 11
-44641.57866409503
 21
2831.807994652447
 31
0.0
  0
LINE
  5
193F
330
193B
100
AcDbEntity
  8
SIZE
  6
Continuous
 62
     0
370
    -2
100
AcDbLine
 10
-45351.57866409504
 20
2851.807994652446
 30
0.0
 11
-44653.57866409503
 21
2851.807994652446
 31
0.0
  0
INSERT
  5
1940
330
193B
100
AcDbEntity
  8
SIZE
  6
Continuous
 62
     0
370
    -2
100
AcDbBlockReference
  2
_DOTBLANK
 10
-45363.57866409503
 20
2851.807994652446
 30
0.0
 41
12.0
 42
12.0
 43
12.0
 50
180.0
  0
INSERT
  5
1941
330
193B
100
AcDbEntity
  8
SIZE
  6
Continuous
 62
     0
370
    -2
100
AcDbBlockReference
  2
_DOTBLANK
 10
-44641.57866409503
 20
2851.807994652446
 30
0.0
 41
12.0
 42
12.0
 43
12.0
  0
MTEXT
  5
1942
330
193B
100
AcDbEntity
  8
SIZE
  6
Continuous
 62
     0
100
AcDbMText
 10
-45002.57866409504
 20
2893.807994652446
 30
0.0
 40
64.0
 41
0.0
 71
     5
 72
     1
  1
\A1;722
 73
     1
 44
1.0
1001
ACAD
1000
MTEXTBEGIN
1070
    73
1070
     1
1070
    44
1040
1.0
1070
    74
1070
     0
1000
MTEXTEND
  0
POINT
  5
1943
330
193B
100
AcDbEntity
  8
DEFPOINTS
  6
Continuous
 62
     0
100
AcDbPoint
 10
-45363.57866409503
 20
3128.716184446249
 30
0.0
  0
POINT
  5
1944
330
193B
100
AcDbEntity
  8
DEFPOINTS
  6
Continuous
 62
     0
100
AcDbPoint
 10
-44641.57866409503
 20
3128.716184446249
 30
0.0
  0
POINT
  5
1945
330
193B
100
AcDbEntity
  8
DEFPOINTS
  6
Continuous
 62
     0
100
AcDbPoint
 10
-44641.57866409503
 20
2851.807994652446
 30
0.0
  0
ENDBLK
  5
1946
330
193B
100
AcDbEntity
  8
0
100
AcDbBlockEnd
  0
BLOCK
  5
1948
330
1947
100
AcDbEntity
  8
0
100
AcDbBlockBegin
  2
*D28
 70
     1
 10
0.0
 20
0.0
 30
0.0
  3
*D28
  1

  0
LINE
  5
1949
330
1947
100
AcDbEntity
  8
SIZE
  6
Continuous
 62
     0
370
    -2
100
AcDbLine
 10
-45373.07866409505
 20
2977.625945461523
 30
0.0
 11
-45373.07866409505
 21
2732.634410163454
 31
0.0
  0
LINE
  5
194A
330
1947
100
AcDbEntity
  8
SIZE
  6
Continuous
 62
     0
370
    -2
100
AcDbLine
 10
-44633.07866409504
 20
2976.416184446249
 30
0.0
 11
-44633.07866409504
 21
2732.634410163454
 31
0.0
  0
LINE
  5
194B
330
1947
100
AcDbEntity
  8
SIZE
  6
Continuous
 62
     0
370
    -2
100
AcDbLine
 10
-45361.07866409504
 20
2752.634410163454
 30
0.0
 11
-44645.07866409504
 21
2752.634410163454
 31
0.0
  0
INSERT
  5
194C
330
1947
100
AcDbEntity
  8
SIZE
  6
Continuous
 62
     0
370
    -2
100
AcDbBlockReference
  2
_DOTBLANK
 10
-45373.07866409505
 20
2752.634410163454
 30
0.0
 41
12.0
 42
12.0
 43
12.0
 50
180.0
  0
INSERT
  5
194D
330
1947
100
AcDbEntity
  8
SIZE
  6
Continuous
 62
     0
370
    -2
100
AcDbBlockReference
  2
_DOTBLANK
 10
-44633.07866409504
 20
2752.634410163454
 30
0.0
 41
12.0
 42
12.0
 43
12.0
  0
MTEXT
  5
194E
330
1947
100
AcDbEntity
  8
SIZE
  6
Continuous
 62
     0
100
AcDbMText
 10
-45003.07866409504
 20
2794.634410163454
 30
0.0
 40
64.0
 41
0.0
 71
     5
 72
     1
  1
\A1;740
 73
     1
 44
1.0
1001
ACAD
1000
MTEXTBEGIN
1070
    73
1070
     1
1070
    44
1040
1.0
1070
    74
1070
     0
1000
MTEXTEND
  0
POINT
  5
194F
330
1947
100
AcDbEntity
  8
DEFPOINTS
  6
Continuous
 62
     0
100
AcDbPoint
 10
-45373.07866409505
 20
2997.625945461523
 30
0.0
  0
POINT
  5
1950
330
1947
100
AcDbEntity
  8
DEFPOINTS
  6
Continuous
 62
     0
100
AcDbPoint
 10
-44633.07866409504
 20
2996.416184446249
 30
0.0
  0
POINT
  5
1951
330
1947
100
AcDbEntity
  8
DEFPOINTS
  6
Continuous
 62
     0
100
AcDbPoint
 10
-44633.07866409504
 20
2752.634410163454
 30
0.0
  0
ENDBLK
  5
1952
330
1947
100
AcDbEntity
  8
0
100
AcDbBlockEnd
  0
BLOCK
  5
1BCB
330
1BCA
100
AcDbEntity
  8
0
100
AcDbBlockBegin
  2
*D29
 70
     1
 10
0.0
 20
0.0
 30
0.0
  3
*D29
  1

  0
LINE
  5
1C1E
330
1BCA
100
AcDbEntity
  8
SIZE
  6
Continuous
 62
     0
370
    -2
100
AcDbLine
 10
-352.8000000000174
 20
650.1104230978094
 30
0.0
 11
-352.8000000000174
 21
746.5786958008004
 31
0.0
  0
LINE
  5
1C1F
330
1BCA
100
AcDbEntity
  8
SIZE
  6
Continuous
 62
     0
370
    -2
100
AcDbLine
 10
-24.00000000001455
 20
650.1104230978185
 30
0.0
 11
-24.00000000001455
 21
746.5786958008004
 31
0.0
  0
LINE
  5
1C20
330
1BCA
100
AcDbEntity
  8
SIZE
  6
Continuous
 62
     0
370
    -2
100
AcDbLine
 10
-340.8000000000175
 20
726.5786958008008
 30
0.0
 11
-36.00000000001454
 21
726.5786958008008
 31
0.0
  0
INSERT
  5
1C21
330
1BCA
100
AcDbEntity
  8
SIZE
  6
Continuous
 62
     0
370
    -2
100
AcDbBlockReference
  2
_DOTBLANK
 10
-352.8000000000174
 20
726.5786958008008
 30
0.0
 41
12.0
 42
12.0
 43
12.0
 50
180.0
  0
INSERT
  5
1C22
330
1BCA
100
AcDbEntity
  8
SIZE
  6
Continuous
 62
     0
370
    -2
100
AcDbBlockReference
  2
_DOTBLANK
 10
-24.00000000001455
 20
726.5786958008008
 30
0.0
 41
12.0
 42
12.0
 43
12.0
  0
MTEXT
  5
1C23
330
1BCA
100
AcDbEntity
  8
SIZE
  6
Continuous
 62
     0
100
AcDbMText
 10
-188.400000000016
 20
768.5786958008008
 30
0.0
 40
64.0
 41
0.0
 71
     5
 72
     1
  1
\A1;329
 73
     1
 44
1.0
1001
ACAD
1000
MTEXTBEGIN
1070
    73
1070
     1
1070
    44
1040
1.0
1070
    74
1070
     0
1000
MTEXTEND
  0
POINT
  5
1C24
330
1BCA
100
AcDbEntity
  8
DEFPOINTS
  6
Continuous
 62
     0
100
AcDbPoint
 10
-352.8000000000174
 20
630.1104230978094
 30
0.0
  0
POINT
  5
1C25
330
1BCA
100
AcDbEntity
  8
DEFPOINTS
  6
Continuous
 62
     0
100
AcDbPoint
 10
-24.00000000001455
 20
630.1104230978185
 30
0.0
  0
POINT
  5
1C26
330
1BCA
100
AcDbEntity
  8
DEFPOINTS
  6
Continuous
 62
     0
100
AcDbPoint
 10
-24.00000000001455
 20
726.5786958008008
 30
0.0
  0
ENDBLK
  5
1BCC
330
1BCA
100
AcDbEntity
  8
0
100
AcDbBlockEnd
  0
BLOCK
  5
1BD7
330
1BD6
100
AcDbEntity
  8
0
100
AcDbBlockBegin
  2
*D30
 70
     1
 10
0.0
 20
0.0
 30
0.0
  3
*D30
  1

  0
LINE
  5
1C27
330
1BD6
100
AcDbEntity
  8
SIZE
  6
Continuous
 62
     0
370
    -2
100
AcDbLine
 10
-24.00000000001455
 20
650.1104230978185
 30
0.0
 11
-24.00000000001455
 21
746.5786958008004
 31
0.0
  0
LINE
  5
1C28
330
1BD6
100
AcDbEntity
  8
SIZE
  6
Continuous
 62
     0
370
    -2
100
AcDbLine
 10
279.9999999999855
 20
650.1104230978257
 30
0.0
 11
279.9999999999855
 21
746.5786958008004
 31
0.0
  0
LINE
  5
1C29
330
1BD6
100
AcDbEntity
  8
SIZE
  6
Continuous
 62
     0
370
    -2
100
AcDbLine
 10
-12.00000000001454
 20
726.5786958008008
 30
0.0
 11
267.9999999999854
 21
726.5786958008008
 31
0.0
  0
INSERT
  5
1C2A
330
1BD6
100
AcDbEntity
  8
SIZE
  6
Continuous
 62
     0
370
    -2
100
AcDbBlockReference
  2
_DOTBLANK
 10
-24.00000000001455
 20
726.5786958008008
 30
0.0
 41
12.0
 42
12.0
 43
12.0
 50
180.0
  0
INSERT
  5
1C2B
330
1BD6
100
AcDbEntity
  8
SIZE
  6
Continuous
 62
     0
370
    -2
100
AcDbBlockReference
  2
_DOTBLANK
 10
279.9999999999855
 20
726.5786958008008
 30
0.0
 41
12.0
 42
12.0
 43
12.0
  0
MTEXT
  5
1C2C
330
1BD6
100
AcDbEntity
  8
SIZE
  6
Continuous
 62
     0
100
AcDbMText
 10
127.9999999999854
 20
768.5786958008008
 30
0.0
 40
64.0
 41
0.0
 71
     5
 72
     1
  1
\A1;304
 73
     1
 44
1.0
1001
ACAD
1000
MTEXTBEGIN
1070
    73
1070
     1
1070
    44
1040
1.0
1070
    74
1070
     0
1000
MTEXTEND
  0
POINT
  5
1C2D
330
1BD6
100
AcDbEntity
  8
DEFPOINTS
  6
Continuous
 62
     0
100
AcDbPoint
 10
-24.00000000001455
 20
630.1104230978185
 30
0.0
  0
POINT
  5
1C2E
330
1BD6
100
AcDbEntity
  8
DEFPOINTS
  6
Continuous
 62
     0
100
AcDbPoint
 10
279.9999999999855
 20
630.1104230978258
 30
0.0
  0
POINT
  5
1C2F
330
1BD6
100
AcDbEntity
  8
DEFPOINTS
  6
Continuous
 62
     0
100
AcDbPoint
 10
279.9999999999855
 20
726.5786958008008
 30
0.0
  0
ENDBLK
  5
1BD8
330
1BD6
100
AcDbEntity
  8
0
100
AcDbBlockEnd
  0
BLOCK
  5
1BE3
330
1BE2
100
AcDbEntity
  8
0
100
AcDbBlockBegin
  2
*D31
 70
     1
 10
0.0
 20
0.0
 30
0.0
  3
*D31
  1

  0
LINE
  5
1C30
330
1BE2
100
AcDbEntity
  8
SIZE
  6
Continuous
 62
     0
370
    -2
100
AcDbLine
 10
-388.5
 20
450.5895769021831
 30
0.0
 11
-537.1787079036656
 21
450.5895769021831
 31
0.0
  0
LINE
  5
1C31
330
1BE2
100
AcDbEntity
  8
SIZE
  6
Continuous
 62
     0
370
    -2
100
AcDbLine
 10
-388.5
 20
42.5895769021822
 30
0.0
 11
-537.1787079036656
 21
42.58957690218226
 31
0.0
  0
LINE
  5
1C32
330
1BE2
100
AcDbEntity
  8
SIZE
  6
Continuous
 62
     0
370
    -2
100
AcDbLine
 10
-517.1787079036656
 20
438.5895769021831
 30
0.0
 11
-517.1787079036659
 21
54.58957690218224
 31
0.0
  0
INSERT
  5
1C33
330
1BE2
100
AcDbEntity
  8
SIZE
  6
Continuous
 62
     0
370
    -2
100
AcDbBlockReference
  2
_DOTBLANK
 10
-517.1787079036656
 20
450.5895769021831
 30
0.0
 41
12.0
 42
12.0
 43
12.0
 50
90.0
  0
INSERT
  5
1C34
330
1BE2
100
AcDbEntity
  8
SIZE
  6
Continuous
 62
     0
370
    -2
100
AcDbBlockReference
  2
_DOTBLANK
 10
-517.1787079036659
 20
42.58957690218225
 30
0.0
 41
12.0
 42
12.0
 43
12.0
 50
270.0
  0
MTEXT
  5
1C35
330
1BE2
100
AcDbEntity
  8
SIZE
  6
Continuous
 62
     0
100
AcDbMText
 10
-559.1787079036659
 20
246.5895769021826
 30
0.0
 40
64.0
 41
0.0
 71
     5
 72
     1
  1
\A1;408
 11
0.0000000000000001
 21
1.0
 31
0.0
 73
     1
 44
1.0
1001
ACAD
1000
MTEXTBEGIN
1070
    73
1070
     1
1070
    44
1040
1.0
1070
    74
1070
     0
1000
MTEXTEND
  0
POINT
  5
1C36
330
1BE2
100
AcDbEntity
  8
DEFPOINTS
  6
Continuous
 62
     0
100
AcDbPoint
 10
-368.5
 20
450.5895769021831
 30
0.0
  0
POINT
  5
1C37
330
1BE2
100
AcDbEntity
  8
DEFPOINTS
  6
Continuous
 62
     0
100
AcDbPoint
 10
-368.5
 20
42.5895769021822
 30
0.0
  0
POINT
  5
1C38
330
1BE2
100
AcDbEntity
  8
DEFPOINTS
  6
Continuous
 62
     0
100
AcDbPoint
 10
-517.1787079036659
 20
42.58957690218225
 30
0.0
  0
ENDBLK
  5
1BE4
330
1BE2
100
AcDbEntity
  8
0
100
AcDbBlockEnd
  0
BLOCK
  5
1BEF
330
1BEE
100
AcDbEntity
  8
0
100
AcDbBlockBegin
  2
*D32
 70
     1
 10
0.0
 20
0.0
 30
0.0
  3
*D32
  1

  0
LINE
  5
1C39
330
1BEE
100
AcDbEntity
  8
SIZE
  6
Continuous
 62
     0
370
    -2
100
AcDbLine
 10
-388.5
 20
42.5895769021822
 30
0.0
 11
-537.1787079036656
 21
42.58957690218226
 31
0.0
  0
LINE
  5
1C3A
330
1BEE
100
AcDbEntity
  8
SIZE
  6
Continuous
 62
     0
370
    -2
100
AcDbLine
 10
-388.5
 20
-487.8104230978178
 30
0.0
 11
-537.1787079036656
 21
-487.8104230978178
 31
0.0
  0
LINE
  5
1C3B
330
1BEE
100
AcDbEntity
  8
SIZE
  6
Continuous
 62
     0
370
    -2
100
AcDbLine
 10
-517.1787079036656
 20
30.58957690218225
 30
0.0
 11
-517.1787079036659
 21
-475.8104230978178
 31
0.0
  0
INSERT
  5
1C3C
330
1BEE
100
AcDbEntity
  8
SIZE
  6
Continuous
 62
     0
370
    -2
100
AcDbBlockReference
  2
_DOTBLANK
 10
-517.1787079036656
 20
42.58957690218225
 30
0.0
 41
12.0
 42
12.0
 43
12.0
 50
90.0
  0
INSERT
  5
1C3D
330
1BEE
100
AcDbEntity
  8
SIZE
  6
Continuous
 62
     0
370
    -2
100
AcDbBlockReference
  2
_DOTBLANK
 10
-517.1787079036659
 20
-487.8104230978178
 30
0.0
 41
12.0
 42
12.0
 43
12.0
 50
270.0
  0
MTEXT
  5
1C3E
330
1BEE
100
AcDbEntity
  8
SIZE
  6
Continuous
 62
     0
100
AcDbMText
 10
-559.1787079036656
 20
-222.6104230978179
 30
0.0
 40
64.0
 41
0.0
 71
     5
 72
     1
  1
\A1;530
 11
0.0000000000000001
 21
1.0
 31
0.0
 73
     1
 44
1.0
1001
ACAD
1000
MTEXTBEGIN
1070
    73
1070
     1
1070
    44
1040
1.0
1070
    74
1070
     0
1000
MTEXTEND
  0
POINT
  5
1C3F
330
1BEE
100
AcDbEntity
  8
DEFPOINTS
  6
Continuous
 62
     0
100
AcDbPoint
 10
-368.5
 20
42.5895769021822
 30
0.0
  0
POINT
  5
1C40
330
1BEE
100
AcDbEntity
  8
DEFPOINTS
  6
Continuous
 62
     0
100
AcDbPoint
 10
-368.5
 20
-487.8104230978178
 30
0.0
  0
POINT
  5
1C41
330
1BEE
100
AcDbEntity
  8
DEFPOINTS
  6
Continuous
 62
     0
100
AcDbPoint
 10
-517.1787079036659
 20
-487.8104230978178
 30
0.0
  0
ENDBLK
  5
1BF0
330
1BEE
100
AcDbEntity
  8
0
100
AcDbBlockEnd
  0
BLOCK
  5
1BFB
330
1BFA
100
AcDbEntity
  8
0
100
AcDbBlockBegin
  2
*D33
 70
     1
 10
0.0
 20
0.0
 30
0.0
  3
*D33
  1

  0
LINE
  5
1C42
330
1BFA
100
AcDbEntity
  8
SIZE
  6
Continuous
 62
     0
370
    -2
100
AcDbLine
 10
-386.5000000000145
 20
627.6104230978094
 30
0.0
 11
-668.2614020234102
 21
627.6104230978094
 31
0.0
  0
LINE
  5
1C43
330
1BFA
100
AcDbEntity
  8
SIZE
  6
Continuous
 62
     0
370
    -2
100
AcDbLine
 10
-389.5999999999986
 20
-627.6104230978178
 30
0.0
 11
-668.2614020234105
 21
-627.6104230978178
 31
0.0
  0
LINE
  5
1C44
330
1BFA
100
AcDbEntity
  8
SIZE
  6
Continuous
 62
     0
370
    -2
100
AcDbLine
 10
-648.2614020234102
 20
615.6104230978094
 30
0.0
 11
-648.2614020234104
 21
-615.6104230978178
 31
0.0
  0
INSERT
  5
1C45
330
1BFA
100
AcDbEntity
  8
SIZE
  6
Continuous
 62
     0
370
    -2
100
AcDbBlockReference
  2
_DOTBLANK
 10
-648.2614020234102
 20
627.6104230978094
 30
0.0
 41
12.0
 42
12.0
 43
12.0
 50
90.0
  0
INSERT
  5
1C46
330
1BFA
100
AcDbEntity
  8
SIZE
  6
Continuous
 62
     0
370
    -2
100
AcDbBlockReference
  2
_DOTBLANK
 10
-648.2614020234104
 20
-627.6104230978178
 30
0.0
 41
12.0
 42
12.0
 43
12.0
 50
270.0
  0
MTEXT
  5
1C47
330
1BFA
100
AcDbEntity
  8
SIZE
  6
Continuous
 62
     0
100
AcDbMText
 10
-690.2614020234101
 20
-0.0000000000043889
 30
0.0
 40
64.0
 41
0.0
 71
     5
 72
     1
  1
\A1;1255
 11
0.0000000000000001
 21
1.0
 31
0.0
 73
     1
 44
1.0
1001
ACAD
1000
MTEXTBEGIN
1070
    73
1070
     1
1070
    44
1040
1.0
1070
    74
1070
     0
1000
MTEXTEND
  0
POINT
  5
1C48
330
1BFA
100
AcDbEntity
  8
DEFPOINTS
  6
Continuous
 62
     0
100
AcDbPoint
 10
-366.5000000000147
 20
627.6104230978094
 30
0.0
  0
POINT
  5
1C49
330
1BFA
100
AcDbEntity
  8
DEFPOINTS
  6
Continuous
 62
     0
100
AcDbPoint
 10
-369.5999999999985
 20
-627.6104230978178
 30
0.0
  0
POINT
  5
1C4A
330
1BFA
100
AcDbEntity
  8
DEFPOINTS
  6
Continuous
 62
     0
100
AcDbPoint
 10
-648.2614020234104
 20
-627.6104230978178
 30
0.0
  0
ENDBLK
  5
1BFC
330
1BFA
100
AcDbEntity
  8
0
100
AcDbBlockEnd
  0
BLOCK
  5
1C07
330
1C06
100
AcDbEntity
  8
0
100
AcDbBlockBegin
  2
*D34
 70
     1
 10
0.0
 20
0.0
 30
0.0
  3
*D34
  1

  0
LINE
  5
1C4B
330
1C06
100
AcDbEntity
  8
SIZE
  6
Continuous
 62
     0
370
    -2
100
AcDbLine
 10
-361.0
 20
-515.3104230978178
 30
0.0
 11
-361.0
 21
-792.2186128916205
 31
0.0
  0
LINE
  5
1C4C
330
1C06
100
AcDbEntity
  8
SIZE
  6
Continuous
 62
     0
370
    -2
100
AcDbLine
 10
361.0000000000145
 20
-515.3104230978174
 30
0.0
 11
361.0000000000145
 21
-792.2186128916205
 31
0.0
  0
LINE
  5
1C4D
330
1C06
100
AcDbEntity
  8
SIZE
  6
Continuous
 62
     0
370
    -2
100
AcDbLine
 10
-349.0
 20
-772.2186128916205
 30
0.0
 11
349.0000000000145
 21
-772.2186128916205
 31
0.0
  0
INSERT
  5
1C4E
330
1C06
100
AcDbEntity
  8
SIZE
  6
Continuous
 62
     0
370
    -2
100
AcDbBlockReference
  2
_DOTBLANK
 10
-361.0
 20
-772.2186128916205
 30
0.0
 41
12.0
 42
12.0
 43
12.0
 50
180.0
  0
INSERT
  5
1C4F
330
1C06
100
AcDbEntity
  8
SIZE
  6
Continuous
 62
     0
370
    -2
100
AcDbBlockReference
  2
_DOTBLANK
 10
361.0000000000145
 20
-772.2186128916205
 30
0.0
 41
12.0
 42
12.0
 43
12.0
  0
MTEXT
  5
1C50
330
1C06
100
AcDbEntity
  8
SIZE
  6
Continuous
 62
     0
100
AcDbMText
 10
0.0000000000072785
 20
-730.2186128916205
 30
0.0
 40
64.0
 41
0.0
 71
     5
 72
     1
  1
\A1;722
 73
     1
 44
1.0
1001
ACAD
1000
MTEXTBEGIN
1070
    73
1070
     1
1070
    44
1040
1.0
1070
    74
1070
     0
1000
MTEXTEND
  0
POINT
  5
1C51
330
1C06
100
AcDbEntity
  8
DEFPOINTS
  6
Continuous
 62
     0
100
AcDbPoint
 10
-361.0
 20
-495.3104230978178
 30
0.0
  0
POINT
  5
1C52
330
1C06
100
AcDbEntity
  8
DEFPOINTS
  6
Continuous
 62
     0
100
AcDbPoint
 10
361.0000000000145
 20
-495.3104230978174
 30
0.0
  0
POINT
  5
1C53
330
1C06
100
AcDbEntity
  8
DEFPOINTS
  6
Continuous
 62
     0
100
AcDbPoint
 10
361.0000000000145
 20
-772.2186128916205
 30
0.0
  0
ENDBLK
  5
1C08
330
1C06
100
AcDbEntity
  8
0
100
AcDbBlockEnd
  0
BLOCK
  5
1C13
330
1C12
100
AcDbEntity
  8
0
100
AcDbBlockBegin
  2
*D35
 70
     1
 10
0.0
 20
0.0
 30
0.0
  3
*D35
  1

  0
LINE
  5
1C54
330
1C12
100
AcDbEntity
  8
SIZE
  6
Continuous
 62
     0
370
    -2
100
AcDbLine
 10
-370.5
 20
-646.400662082543
 30
0.0
 11
-370.5
 21
-891.3921973806122
 31
0.0
  0
LINE
  5
1C55
330
1C12
100
AcDbEntity
  8
SIZE
  6
Continuous
 62
     0
370
    -2
100
AcDbLine
 10
369.5000000000074
 20
-647.6104230978176
 30
0.0
 11
369.5000000000074
 21
-891.3921973806122
 31
0.0
  0
LINE
  5
1C56
330
1C12
100
AcDbEntity
  8
SIZE
  6
Continuous
 62
     0
370
    -2
100
AcDbLine
 10
-358.5
 20
-871.3921973806121
 30
0.0
 11
357.5000000000073
 21
-871.3921973806121
 31
0.0
  0
INSERT
  5
1C57
330
1C12
100
AcDbEntity
  8
SIZE
  6
Continuous
 62
     0
370
    -2
100
AcDbBlockReference
  2
_DOTBLANK
 10
-370.5
 20
-871.3921973806121
 30
0.0
 41
12.0
 42
12.0
 43
12.0
 50
180.0
  0
INSERT
  5
1C58
330
1C12
100
AcDbEntity
  8
SIZE
  6
Continuous
 62
     0
370
    -2
100
AcDbBlockReference
  2
_DOTBLANK
 10
369.5000000000074
 20
-871.3921973806121
 30
0.0
 41
12.0
 42
12.0
 43
12.0
  0
MTEXT
  5
1C59
330
1C12
100
AcDbEntity
  8
SIZE
  6
Continuous
 62
     0
100
AcDbMText
 10
-0.4999999999927215
 20
-829.3921973806121
 30
0.0
 40
64.0
 41
0.0
 71
     5
 72
     1
  1
\A1;740
 73
     1
 44
1.0
1001
ACAD
1000
MTEXTBEGIN
1070
    73
1070
     1
1070
    44
1040
1.0
1070
    74
1070
     0
1000
MTEXTEND
  0
POINT
  5
1C5A
330
1C12
100
AcDbEntity
  8
DEFPOINTS
  6
Continuous
 62
     0
100
AcDbPoint
 10
-370.5
 20
-626.400662082543
 30
0.0
  0
POINT
  5
1C5B
330
1C12
100
AcDbEntity
  8
DEFPOINTS
  6
Continuous
 62
     0
100
AcDbPoint
 10
369.5000000000074
 20
-627.6104230978176
 30
0.0
  0
POINT
  5
1C5C
330
1C12
100
AcDbEntity
  8
DEFPOINTS
  6
Continuous
 62
     0
100
AcDbPoint
 10
369.5000000000074
 20
-871.3921973806121
 30
0.0
  0
ENDBLK
  5
1C14
330
1C12
100
AcDbEntity
  8
0
100
AcDbBlockEnd
  0
ENDSEC
  0
SECTION
  2
ENTITIES
  0
TEXT
  5
953
330
85F
100
AcDbEntity
  8
OUTLINE
  6
Continuous
 62
     3
100
AcDbText
 10
-418.231467
 20
13.715189
 30
0.0
 40
64.0
  1
 
 41
0.9
100
AcDbText
  0
TEXT
  5
954
330
85F
100
AcDbEntity
  8
OUTLINE
  6
Continuous
 62
     3
100
AcDbText
 10
-418.231467
 20
13.715189
 30
0.0
 40
64.0
  1
 
 41
0.9
100
AcDbText
  0
TEXT
  5
955
330
85F
100
AcDbEntity
  8
OUTLINE
  6
Continuous
 62
     3
100
AcDbText
 10
1341.41903
 20
-706.0588199999997
 30
0.0
 40
64.0
  1
 
 41
0.9
100
AcDbText
  0
TEXT
  5
956
330
85F
100
AcDbEntity
  8
OUTLINE
  6
Continuous
 62
     3
100
AcDbText
 10
1341.41903
 20
-706.0588199999997
 30
0.0
 40
64.0
  1
 
 41
0.9
100
AcDbText
  0
TEXT
  5
957
330
85F
100
AcDbEntity
  8
OUTLINE
  6
Continuous
 62
     3
100
AcDbText
 10
1341.41903
 20
-706.0588199999997
 30
0.0
 40
64.0
  1
 
 41
0.9
100
AcDbText
  0
TEXT
  5
958
330
85F
100
AcDbEntity
  8
OUTLINE
  6
Continuous
 62
     3
100
AcDbText
 10
1341.41903
 20
-706.0588199999997
 30
0.0
 40
64.0
  1
 
 41
0.9
100
AcDbText
  0
LINE
  5
1A92
330
85F
100
AcDbEntity
  8
DETAIL
100
AcDbLine
 10
355.8125124603977
 20
433.1729491399113
 30
0.0
 11
366.1874875392677
 21
433.1729491399113
 31
0.0
  0
LINE
  5
1A93
330
85F
100
AcDbEntity
  8
DETAIL
100
AcDbLine
 10
353.4999999998254
 20
-53.61042309781715
 30
0.0
 11
353.4999999998254
 21
-68.61042309781715
 31
0.0
  0
LINE
  5
1A94
330
85F
100
AcDbEntity
  8
DETAIL
100
AcDbLine
 10
353.5000000000147
 20
-627.6104230978176
 30
0.0
 11
350.5000000000145
 21
-624.6104230978176
 31
0.0
  0
LINE
  5
1A95
330
85F
100
AcDbEntity
  8
DETAIL
100
AcDbLine
 10
350.5000000000145
 20
593.3895769021822
 30
0.0
 11
353.5000000000147
 21
596.3895769021823
 31
0.0
  0
LINE
  5
1A96
330
85F
100
AcDbEntity
  8
DETAIL
100
AcDbLine
 10
353.5000000000147
 20
558.3895769021824
 30
0.0
 11
350.5000000000145
 21
561.3895769021824
 31
0.0
  0
LINE
  5
1A97
330
85F
100
AcDbEntity
  8
DETAIL
100
AcDbLine
 10
365.5000000000145
 20
555.3895769021822
 30
0.0
 11
362.5000000000146
 21
558.3895769021824
 31
0.0
  0
LINE
  5
1A98
330
85F
100
AcDbEntity
  8
DETAIL
100
AcDbLine
 10
362.5000000000146
 20
525.089576902183
 30
0.0
 11
365.5000000000145
 21
528.0895769021831
 31
0.0
  0
LINE
  5
1A99
330
85F
100
AcDbEntity
  8
DETAIL
100
AcDbLine
 10
350.5000000000145
 20
522.0895769021831
 30
0.0
 11
353.5000000000147
 21
525.089576902183
 31
0.0
  0
LINE
  5
1A9A
330
85F
100
AcDbEntity
  8
DETAIL
100
AcDbLine
 10
353.5000000000147
 20
-53.61042309781715
 30
0.0
 11
350.5000000000145
 21
-50.61042309781715
 31
0.0
  0
LINE
  5
1A9B
330
85F
100
AcDbEntity
  8
DETAIL
100
AcDbLine
 10
365.5000000000073
 20
-56.6104230978176
 30
0.0
 11
362.5000000000146
 21
-53.61042309781715
 31
0.0
  0
LINE
  5
1A9C
330
85F
100
AcDbEntity
  8
DETAIL
100
AcDbLine
 10
362.5000000000146
 20
-68.61042309781715
 30
0.0
 11
365.5000000000073
 21
-65.6104230978176
 31
0.0
  0
LINE
  5
1A9D
330
85F
100
AcDbEntity
  8
DETAIL
100
AcDbLine
 10
350.5000000000145
 20
-71.61042309781715
 30
0.0
 11
353.5000000000147
 21
-68.61042309781715
 31
0.0
  0
LINE
  5
1A9E
330
85F
100
AcDbEntity
  8
DETAIL
100
AcDbLine
 10
353.5000000000147
 20
-461.6104230978171
 30
0.0
 11
350.5000000000145
 21
-458.6104230978166
 31
0.0
  0
LINE
  5
1A9F
330
85F
100
AcDbEntity
  8
DETAIL
100
AcDbLine
 10
365.5000000000073
 20
-464.6104230978171
 30
0.0
 11
362.5000000000073
 21
-461.6104230978171
 31
0.0
  0
LINE
  5
1AA0
330
85F
100
AcDbEntity
  8
DETAIL
100
AcDbLine
 10
362.5000000000073
 20
-476.6104230978176
 30
0.0
 11
365.5000000000073
 21
-473.6104230978176
 31
0.0
  0
LINE
  5
1AA1
330
85F
100
AcDbEntity
  8
DETAIL
100
AcDbLine
 10
350.5000000000145
 20
-479.6104230978175
 30
0.0
 11
353.5000000000147
 21
-476.6104230978176
 31
0.0
  0
LINE
  5
1AA2
330
85F
100
AcDbEntity
  8
DETAIL
100
AcDbLine
 10
368.6000000000058
 20
-627.6104230978176
 30
0.0
 11
353.5000000000147
 21
-627.6104230978176
 31
0.0
  0
LINE
  5
1AA3
330
85F
100
AcDbEntity
  8
DETAIL
100
AcDbLine
 10
350.5000000000145
 20
561.3895769021824
 30
0.0
 11
350.5000000000145
 21
593.3895769021822
 31
0.0
  0
LINE
  5
1AA4
330
85F
100
AcDbEntity
  8
DETAIL
100
AcDbLine
 10
350.5000000000145
 20
-50.61042309781715
 30
0.0
 11
350.5000000000145
 21
522.0895769021831
 31
0.0
  0
LINE
  5
1AA5
330
85F
100
AcDbEntity
  8
DETAIL
100
AcDbLine
 10
350.5000000000145
 20
-458.6104230978166
 30
0.0
 11
350.5000000000145
 21
-71.61042309781715
 31
0.0
  0
LINE
  5
1AA6
330
85F
100
AcDbEntity
  8
DETAIL
100
AcDbLine
 10
350.5000000000145
 20
-624.6104230978176
 30
0.0
 11
350.5000000000145
 21
-479.6104230978175
 31
0.0
  0
LINE
  5
1AA7
330
85F
100
AcDbEntity
  8
DETAIL
100
AcDbLine
 10
353.5000000000147
 20
558.3895769021824
 30
0.0
 11
362.5000000000146
 21
558.3895769021824
 31
0.0
  0
LINE
  5
1AA8
330
85F
100
AcDbEntity
  8
DETAIL
100
AcDbLine
 10
365.5000000000145
 20
555.3895769021822
 30
0.0
 11
365.5000000000145
 21
528.0895769021831
 31
0.0
  0
LINE
  5
1AA9
330
85F
100
AcDbEntity
  8
DETAIL
100
AcDbLine
 10
362.5000000000146
 20
525.089576902183
 30
0.0
 11
353.5000000000147
 21
525.089576902183
 31
0.0
  0
LINE
  5
1AAA
330
85F
100
AcDbEntity
  8
DETAIL
100
AcDbLine
 10
353.5000000000147
 20
-53.61042309781715
 30
0.0
 11
362.5000000000146
 21
-53.61042309781715
 31
0.0
  0
LINE
  5
1AAB
330
85F
100
AcDbEntity
  8
DETAIL
100
AcDbLine
 10
365.5000000000073
 20
-56.6104230978176
 30
0.0
 11
365.5000000000073
 21
-65.6104230978176
 31
0.0
  0
LINE
  5
1AAC
330
85F
100
AcDbEntity
  8
DETAIL
100
AcDbLine
 10
362.5000000000146
 20
-68.61042309781715
 30
0.0
 11
353.5000000000147
 21
-68.61042309781715
 31
0.0
  0
LINE
  5
1AAD
330
85F
100
AcDbEntity
  8
DETAIL
100
AcDbLine
 10
353.5000000000147
 20
-461.6104230978171
 30
0.0
 11
362.5000000000073
 21
-461.6104230978171
 31
0.0
  0
LINE
  5
1AAE
330
85F
100
AcDbEntity
  8
DETAIL
100
AcDbLine
 10
365.5000000000073
 20
-464.6104230978171
 30
0.0
 11
365.5000000000073
 21
-473.6104230978176
 31
0.0
  0
LINE
  5
1AAF
330
85F
100
AcDbEntity
  8
DETAIL
100
AcDbLine
 10
362.5000000000073
 20
-476.6104230978176
 30
0.0
 11
353.5000000000147
 21
-476.6104230978176
 31
0.0
  0
LINE
  5
1AB0
330
85F
100
AcDbEntity
  8
DETAIL
100
AcDbLine
 10
369.5000000000074
 20
596.3895769021823
 30
0.0
 11
369.5000000000074
 21
-627.6104230978176
 31
0.0
  0
LINE
  5
1AB1
330
85F
100
AcDbEntity
  8
DETAIL
100
AcDbLine
 10
368.6000000000058
 20
-627.6104230978176
 30
0.0
 11
368.6000000000058
 21
596.3895769021823
 31
0.0
  0
LINE
  5
1AB2
330
85F
100
AcDbEntity
  8
DETAIL
100
AcDbLine
 10
368.6000000000058
 20
-627.6104230978176
 30
0.0
 11
369.5000000000074
 21
-627.6104230978176
 31
0.0
  0
LINE
  5
1AB3
330
85F
100
AcDbEntity
  8
DETAIL
100
AcDbLine
 10
368.7000000000044
 20
596.3895769021823
 30
0.0
 11
368.7000000000044
 21
609.3503464176412
 31
0.0
  0
LINE
  5
1AB4
330
85F
100
AcDbEntity
  8
DETAIL
100
AcDbLine
 10
369.5000000000074
 20
609.3503464176412
 30
0.0
 11
369.5000000000074
 21
596.3895769021823
 31
0.0
  0
LINE
  5
1AB5
330
85F
100
AcDbEntity
  8
DETAIL
100
AcDbLine
 10
368.6000000000058
 20
596.3895769021823
 30
0.0
 11
353.5000000000147
 21
596.3895769021823
 31
0.0
  0
LINE
  5
1AB6
330
85F
100
AcDbEntity
  8
DETAIL
100
AcDbLine
 10
368.6000000000058
 20
596.3895769021823
 30
0.0
 11
369.5000000000074
 21
596.3895769021823
 31
0.0
  0
SPLINE
  5
1AB7
330
85F
100
AcDbEntity
  8
DETAIL
100
AcDbSpline
210
0.0
220
0.0
230
1.0
 70
     8
 71
     3
 72
    11
 73
     7
 74
     0
 42
0.0000000001
 43
0.0000000001
 40
0.0
 40
0.0
 40
0.0
 40
0.0
 40
1.437607986813
 40
1.437607986813
 40
1.437607986813
 40
1.570796326795043
 40
1.570796326795043
 40
1.570796326795043
 40
1.570796326795043
 10
369.5000000000074
 20
609.3503464176412
 30
0.0
 10
369.5
 20
609.8031074111627
 30
0.0
 10
369.1469781827109
 20
610.231786214496
 30
0.0
 10
368.7195154233195
 20
610.3606447981915
 30
0.0
 10
368.6799127946141
 20
610.3725830045807
 30
0.0
 10
368.6399565019966
 20
610.3822338441463
 30
0.0
 10
368.6000000000058
 20
610.3895769021824
 30
0.0
  0
LINE
  5
1AB8
330
85F
100
AcDbEntity
  8
DETAIL
100
AcDbLine
 10
368.5999999999913
 20
596.3895769021823
 30
0.0
 11
368.6000000000058
 21
609.6967565791551
 31
0.0
  0
LINE
  5
1AB9
330
85F
100
AcDbEntity
  8
DETAIL
100
AcDbLine
 10
368.6000000000058
 20
609.6967565791551
 30
0.0
 11
368.6000000000058
 21
610.3895769021824
 31
0.0
  0
SPLINE
  5
1ABA
330
85F
100
AcDbEntity
  8
DETAIL
100
AcDbSpline
210
0.0
220
0.0
230
1.0
 70
     8
 71
     3
 72
     8
 73
     4
 74
     0
 42
0.0000000001
 43
0.0000000001
 40
0.0
 40
0.0
 40
0.0
 40
0.0
 40
1.570796326795043
 40
1.570796326795043
 40
1.570796326795043
 40
1.570796326795043
 10
368.7000000000044
 20
609.3503464176412
 30
0.0
 10
368.7000000000044
 20
609.482293942126
 30
0.0
 10
368.6523598775675
 20
609.6101540387767
 30
0.0
 10
368.6000000000058
 20
609.6967565791551
 30
0.0
  0
LINE
  5
1ABB
330
85F
100
AcDbEntity
  8
DETAIL
100
AcDbLine
 10
369.1729577951337
 20
609.3503464176412
 30
0.0
 11
368.7000000000044
 21
609.3503464176412
 31
0.0
  0
LINE
  5
1ABC
330
85F
100
AcDbEntity
  8
DETAIL
100
AcDbLine
 10
369.5000000000074
 20
609.3503464176412
 30
0.0
 11
369.1729577951337
 21
609.3503464176412
 31
0.0
  0
LINE
  5
1ABD
330
85F
100
AcDbEntity
  8
DETAIL
100
AcDbLine
 10
354.56852280155
 20
438.0309063068083
 30
0.0
 11
367.4314771981082
 21
438.0309063068093
 31
0.0
  0
LINE
  5
1ABE
330
85F
100
AcDbEntity
  8
DETAIL
100
AcDbLine
 10
368.6000000000058
 20
609.6967565791551
 30
0.0
 11
353.5000000000073
 21
609.6967565791551
 31
0.0
  0
LINE
  5
1ABF
330
85F
100
AcDbEntity
  8
DETAIL
100
AcDbLine
 10
353.5000000000073
 20
609.6967565791551
 30
0.0
 11
353.4999999999927
 21
596.3895769021823
 31
0.0
  0
LINE
  5
1AC0
330
85F
100
AcDbEntity
  8
DETAIL
100
AcDbLine
 10
353.4999999999564
 20
558.3895769021824
 30
0.0
 11
353.49999999992
 21
525.089576902183
 31
0.0
  0
LINE
  5
1AC1
330
85F
100
AcDbEntity
  8
DETAIL
100
AcDbLine
 10
368.6000000000058
 20
610.3895769021824
 30
0.0
 11
353.5000000000073
 21
610.3895769021832
 31
0.0
  0
LINE
  5
1AC2
330
85F
100
AcDbEntity
  8
DETAIL
100
AcDbLine
 10
353.5000000000073
 20
609.6967565791551
 30
0.0
 11
353.5000000000073
 21
610.3895769021832
 31
0.0
  0
LINE
  5
1AC3
330
85F
100
AcDbEntity
  8
DETAIL
100
AcDbLine
 10
-369.6999999999971
 20
-139.1104230978176
 30
0.0
 11
-369.6999999999971
 21
-136.1104230978176
 31
0.0
  0
LINE
  5
1AC4
330
85F
100
AcDbEntity
  8
DETAIL
100
AcDbLine
 10
-369.6999999999971
 20
-136.1104230978176
 30
0.0
 11
-370.5
 21
-136.1104230978176
 31
0.0
  0
LINE
  5
1AC5
330
85F
100
AcDbEntity
  8
DETAIL
100
AcDbLine
 10
-370.5
 20
-136.1104230978176
 30
0.0
 11
-370.5
 21
-139.1104230978176
 31
0.0
  0
LINE
  5
1AC6
330
85F
100
AcDbEntity
  8
DETAIL
100
AcDbLine
 10
-370.5
 20
-139.1104230978176
 30
0.0
 11
-369.6999999999971
 21
-139.1104230978176
 31
0.0
  0
LINE
  5
1AC7
330
85F
100
AcDbEntity
  8
DETAIL
100
AcDbLine
 10
-370.5
 20
-154.6104230978176
 30
0.0
 11
-370.5
 21
-157.6104230978176
 31
0.0
  0
LINE
  5
1AC8
330
85F
100
AcDbEntity
  8
DETAIL
100
AcDbLine
 10
-370.5
 20
-157.6104230978176
 30
0.0
 11
-369.6999999999971
 21
-157.6104230978176
 31
0.0
  0
LINE
  5
1AC9
330
85F
100
AcDbEntity
  8
DETAIL
100
AcDbLine
 10
-369.6999999999971
 20
-157.6104230978176
 30
0.0
 11
-369.6999999999971
 21
-154.6104230978176
 31
0.0
  0
LINE
  5
1ACA
330
85F
100
AcDbEntity
  8
DETAIL
100
AcDbLine
 10
-369.6999999999971
 20
-154.6104230978176
 30
0.0
 11
-370.5
 21
-154.6104230978176
 31
0.0
  0
LINE
  5
1ACB
330
85F
100
AcDbEntity
  8
DETAIL
100
AcDbLine
 10
-370.5
 20
-136.1104230978176
 30
0.0
 11
-370.5
 21
-120.1104230978176
 31
0.0
  0
LINE
  5
1ACC
330
85F
100
AcDbEntity
  8
DETAIL
100
AcDbLine
 10
-370.5
 20
-194.1104230978176
 30
0.0
 11
-370.5
 21
-157.6104230978176
 31
0.0
  0
LINE
  5
1ACD
330
85F
100
AcDbEntity
  8
DETAIL
100
AcDbLine
 10
-369.6999999999971
 20
-120.1104230978176
 30
0.0
 11
-369.6999999999971
 21
-136.1104230978176
 31
0.0
  0
LINE
  5
1ACE
330
85F
100
AcDbEntity
  8
DETAIL
100
AcDbLine
 10
-369.6999999999971
 20
-157.6104230978176
 30
0.0
 11
-369.6999999999971
 21
-194.1104230978176
 31
0.0
  0
LINE
  5
1ACF
330
85F
100
AcDbEntity
  8
DETAIL
100
AcDbLine
 10
-369.5999999999985
 20
-120.1104230978176
 30
0.0
 11
-354.5
 21
-120.1104230978176
 31
0.0
  0
LINE
  5
1AD0
330
85F
100
AcDbEntity
  8
DETAIL
100
AcDbLine
 10
-369.5999999999985
 20
-120.1104230978176
 30
0.0
 11
-370.5
 21
-120.1104230978176
 31
0.0
  0
LINE
  5
1AD1
330
85F
100
AcDbEntity
  8
DETAIL
100
AcDbLine
 10
-370.5
 20
-194.1104230978176
 30
0.0
 11
-369.5999999999985
 21
-194.1104230978176
 31
0.0
  0
LINE
  5
1AD2
330
85F
100
AcDbEntity
  8
DETAIL
100
AcDbLine
 10
-354.5
 20
-194.1104230978176
 30
0.0
 11
-369.5999999999985
 21
-194.1104230978176
 31
0.0
  0
LINE
  5
1AD3
330
85F
100
AcDbEntity
  8
DETAIL
100
AcDbLine
 10
-370.5
 20
-120.1104230978176
 30
0.0
 11
-370.5
 21
608.830731175371
 31
0.0
  0
LINE
  5
1AD4
330
85F
100
AcDbEntity
  8
DETAIL
100
AcDbLine
 10
-370.5
 20
-626.400662082543
 30
0.0
 11
-370.5
 21
-194.1104230978176
 31
0.0
  0
LINE
  5
1AD5
330
85F
100
AcDbEntity
  8
DETAIL
100
AcDbLine
 10
-369.5999999999985
 20
600.3895769021823
 30
0.0
 11
-369.5999999999985
 21
-120.1104230978176
 31
0.0
  0
SPLINE
  5
1AD6
330
85F
100
AcDbEntity
  8
DETAIL
100
AcDbSpline
210
0.0
220
0.0
230
1.0
 70
     8
 71
     3
 72
    11
 73
     7
 74
     0
 42
0.0000000001
 43
0.0000000001
 40
0.0
 40
0.0
 40
0.0
 40
0.0
 40
1.437607986812995
 40
1.437607986812995
 40
1.437607986812995
 40
1.570796326794897
 40
1.570796326794897
 40
1.570796326794897
 40
1.570796326794897
 10
-370.5
 20
-626.400662082543
 30
0.0
 10
-370.5
 20
-626.7697237421248
 30
0.0
 10
-370.1469781827036
 20
-627.1387854017056
 30
0.0
 10
-369.7195154233122
 20
-627.5078470612875
 30
0.0
 10
-369.6799127946069
 20
-627.5420390734637
 30
0.0
 10
-369.6399565019965
 20
-627.5762310856407
 30
0.0
 10
-369.5999999999985
 20
-627.6104230978176
 30
0.0
  0
LINE
  5
1AD7
330
85F
100
AcDbEntity
  8
DETAIL
100
AcDbLine
 10
-369.5999999999985
 20
-194.1104230978176
 30
0.0
 11
-369.5999999999985
 21
-627.6104230978176
 31
0.0
  0
LINE
  5
1AD8
330
85F
100
AcDbEntity
  8
DETAIL
100
AcDbLine
 10
-370.5
 20
-154.6104230978176
 30
0.0
 11
-370.5
 21
-139.1104230978176
 31
0.0
  0
LINE
  5
1AD9
330
85F
100
AcDbEntity
  8
DETAIL
100
AcDbLine
 10
-369.7000000000044
 20
-139.1104230978176
 30
0.0
 11
-369.7000000000044
 21
-154.6104230978176
 31
0.0
  0
LINE
  5
1ADA
330
85F
100
AcDbEntity
  8
DETAIL
100
AcDbLine
 10
-366.179922240568
 20
433.1629491399112
 30
0.0
 11
-355.8200777597813
 21
433.1629491399112
 31
0.0
  0
LINE
  5
1ADB
330
85F
100
AcDbEntity
  8
DETAIL
100
AcDbLine
 10
-354.5000000001601
 20
-55.6104230978176
 30
0.0
 11
-354.5000000001601
 21
-73.61042309781757
 31
0.0
  0
LINE
  5
1ADC
330
85F
100
AcDbEntity
  8
DETAIL
100
AcDbLine
 10
-354.5000000001601
 20
-120.1104230978176
 30
0.0
 11
-354.5000000001601
 21
-194.1104230978176
 31
0.0
  0
LINE
  5
1ADD
330
85F
100
AcDbEntity
  8
DETAIL
100
AcDbLine
 10
-351.5
 20
-52.6104230978176
 30
0.0
 11
-354.5
 21
-55.6104230978176
 31
0.0
  0
LINE
  5
1ADE
330
85F
100
AcDbEntity
  8
DETAIL
100
AcDbLine
 10
-351.5
 20
-117.1104230978176
 30
0.0
 11
-354.5
 21
-120.1104230978176
 31
0.0
  0
LINE
  5
1ADF
330
85F
100
AcDbEntity
  8
DETAIL
100
AcDbLine
 10
-354.5
 20
-73.61042309781757
 30
0.0
 11
-351.5
 21
-76.61042309781759
 31
0.0
  0
LINE
  5
1AE0
330
85F
100
AcDbEntity
  8
DETAIL
100
AcDbLine
 10
-354.5
 20
-194.1104230978176
 30
0.0
 11
-351.5
 21
-197.1104230978176
 31
0.0
  0
LINE
  5
1AE1
330
85F
100
AcDbEntity
  8
DETAIL
100
AcDbLine
 10
-351.5
 20
-624.6104230978176
 30
0.0
 11
-354.5
 21
-627.6104230978176
 31
0.0
  0
LINE
  5
1AE2
330
85F
100
AcDbEntity
  8
DETAIL
100
AcDbLine
 10
-361.5
 20
-55.6104230978176
 30
0.0
 11
-354.5
 21
-55.6104230978176
 31
0.0
  0
LINE
  5
1AE3
330
85F
100
AcDbEntity
  8
DETAIL
100
AcDbLine
 10
-354.5
 20
-73.61042309781757
 30
0.0
 11
-361.5
 21
-73.61042309781757
 31
0.0
  0
LINE
  5
1AE4
330
85F
100
AcDbEntity
  8
DETAIL
100
AcDbLine
 10
-361.5
 20
-73.61042309781757
 30
0.0
 11
-361.5
 21
-55.6104230978176
 31
0.0
  0
LINE
  5
1AE5
330
85F
100
AcDbEntity
  8
DETAIL
100
AcDbLine
 10
-351.5
 20
-52.6104230978176
 30
0.0
 11
-351.5
 21
600.3895769021823
 31
0.0
  0
LINE
  5
1AE6
330
85F
100
AcDbEntity
  8
DETAIL
100
AcDbLine
 10
-351.5
 20
-117.1104230978176
 30
0.0
 11
-351.5
 21
-76.61042309781759
 31
0.0
  0
LINE
  5
1AE7
330
85F
100
AcDbEntity
  8
DETAIL
100
AcDbLine
 10
-351.5
 20
-624.6104230978176
 30
0.0
 11
-351.5
 21
-197.1104230978176
 31
0.0
  0
LINE
  5
1AE8
330
85F
100
AcDbEntity
  8
DETAIL
100
AcDbLine
 10
-369.5999999999985
 20
-627.6104230978176
 30
0.0
 11
-354.5
 21
-627.6104230978176
 31
0.0
  0
LINE
  5
1AE9
330
85F
100
AcDbEntity
  8
DETAIL
100
AcDbLine
 10
-351.5
 20
600.3895769021823
 30
0.0
 11
-369.5999999999985
 21
600.3895769021823
 31
0.0
  0
LINE
  5
1AEA
330
85F
100
AcDbEntity
  8
DETAIL
100
AcDbLine
 10
-370.494427190999
 20
600.3895769021823
 30
0.0
 11
-369.5999999999985
 21
600.3895769021823
 31
0.0
  0
LINE
  5
1AEB
330
85F
100
AcDbEntity
  8
DETAIL
100
AcDbLine
 10
-370.494427190999
 20
600.3895769021823
 30
0.0
 11
-370.494427190999
 21
608.830731175371
 31
0.0
  0
LINE
  5
1AEC
330
85F
100
AcDbEntity
  8
DETAIL
100
AcDbLine
 10
-369.5999999999985
 20
600.3895769021823
 30
0.0
 11
-369.5999999999985
 21
610.3895769021824
 31
0.0
  0
SPLINE
  5
1AED
330
85F
100
AcDbEntity
  8
DETAIL
100
AcDbSpline
210
0.0
220
0.0
230
1.0
 70
     8
 71
     3
 72
    16
 73
    12
 74
     0
 42
0.0000000001
 43
0.0000000001
 40
-0.1108813337714192
 40
-0.1108813337714192
 40
-0.1108813337714192
 40
-0.1108813337714192
 40
-0.0885143052683586
 40
-0.0885143052683586
 40
-0.0624610938086652
 40
-0.0624610938086652
 40
-0.0476654008385401
 40
-0.0476654008385401
 40
-0.0301638483130036
 40
-0.0301638483130036
 40
0.0
 40
0.0
 40
0.0
 40
0.0
 10
-370.494427190999
 20
609.9067929709823
 30
0.0
 10
-370.3961724524852
 20
609.9108056136834
 30
0.0
 10
-370.2802938236055
 20
609.91684406787
 30
0.0
 10
-370.0619199473077
 20
609.9377384685407
 30
0.0
 10
-369.9672622142534
 20
609.9532503733768
 30
0.0
 10
-369.852026240158
 20
609.9928355423584
 30
0.0
 10
-369.8170787288981
 20
610.0102688201554
 30
0.0
 10
-369.7512997117883
 20
610.0586789128051
 30
0.0
 10
-369.7230082562892
 20
610.0911509518096
 30
0.0
 10
-369.6564652223606
 20
610.2027914501207
 30
0.0
 10
-369.629094738164
 20
610.2933322830518
 30
0.0
 10
-369.5999999999985
 20
610.3895769021824
 30
0.0
  0
LINE
  5
1AEE
330
85F
100
AcDbEntity
  8
DETAIL
100
AcDbLine
 10
-370.5
 20
608.830731175371
 30
0.0
 11
-370.494427190999
 21
608.830731175371
 31
0.0
  0
LINE
  5
1AEF
330
85F
100
AcDbEntity
  8
DETAIL
100
AcDbLine
 10
-370.494427190999
 20
608.830731175371
 30
0.0
 11
-370.494427190999
 21
609.9067929709823
 31
0.0
  0
LINE
  5
1AF0
330
85F
100
AcDbEntity
  8
DETAIL
100
AcDbLine
 10
-369.6000000001514
 20
-120.1104230978176
 30
0.0
 11
-369.6000000001514
 21
-194.1104230978176
 31
0.0
  0
LINE
  5
1AF1
330
85F
100
AcDbEntity
  8
DETAIL
100
AcDbLine
 10
-354.5185961849347
 20
437.5809063068086
 30
0.0
 11
-367.4814038154145
 21
437.5809063068086
 31
0.0
  0
LINE
  5
1AF2
330
85F
100
AcDbEntity
  8
DETAIL
100
AcDbLine
 10
-369.5999999999985
 20
609.3699616599117
 30
0.0
 11
-354.5
 21
609.3699616599117
 31
0.0
  0
LINE
  5
1AF3
330
85F
100
AcDbEntity
  8
DETAIL
100
AcDbLine
 10
-369.5999999999985
 20
608.6771413368848
 30
0.0
 11
-354.5
 21
608.6771413368848
 31
0.0
  0
LINE
  5
1AF4
330
85F
100
AcDbEntity
  8
DETAIL
100
AcDbLine
 10
-354.5
 20
609.3699616599117
 30
0.0
 11
-354.5
 21
608.6771413368848
 31
0.0
  0
LINE
  5
1AF5
330
85F
100
AcDbEntity
  8
DETAIL
100
AcDbLine
 10
-354.5
 20
608.6771413368848
 30
0.0
 11
-354.5000000000073
 21
600.3895769021823
 31
0.0
  0
LINE
  5
1AF6
330
85F
100
AcDbEntity
  8
DETAIL
100
AcDbLine
 10
365.4999999998545
 20
433.3729491399112
 30
0.0
 11
366.332605186486
 21
433.3729491399112
 31
0.0
  0
LINE
  5
1AF7
330
85F
100
AcDbEntity
  8
DETAIL
100
AcDbLine
 10
366.8088968397133
 20
434.1729491399113
 30
0.0
 11
365.4999999998545
 21
434.1729491399113
 31
0.0
  0
LINE
  5
1AF8
330
85F
100
AcDbEntity
  8
DETAIL
100
AcDbLine
 10
365.4999999998545
 20
434.1729491399113
 30
0.0
 11
365.4999999998545
 21
433.3729491399112
 31
0.0
  0
LINE
  5
1AF9
330
85F
100
AcDbEntity
  8
DETAIL
100
AcDbLine
 10
-366.5000000001455
 20
433.6254752870138
 30
0.0
 11
-366.5000000001455
 21
434.1729491399105
 31
0.0
  0
LINE
  5
1AFA
330
85F
100
AcDbEntity
  8
DETAIL
100
AcDbLine
 10
-366.5000000001455
 20
434.1729491399105
 30
0.0
 11
-366.808896840048
 21
434.1729491399105
 31
0.0
  0
LINE
  5
1AFB
330
85F
100
AcDbEntity
  8
DETAIL
100
AcDbLine
 10
350.4999999998399
 20
-228.8270508600922
 30
0.0
 11
-351.5000000001673
 21
-228.8270508600922
 31
0.0
  0
LINE
  5
1AFC
330
85F
100
AcDbEntity
  8
DETAIL
100
AcDbLine
 10
-351.5000000001673
 20
-227.9270508600926
 30
0.0
 11
350.4999999998399
 21
-227.9270508600926
 31
0.0
  0
LINE
  5
1AFD
330
85F
100
AcDbEntity
  8
DETAIL
100
AcDbLine
 10
355.6673948131793
 20
433.3729491399112
 30
0.0
 11
365.4999999998545
 21
433.3729491399112
 31
0.0
  0
LINE
  5
1AFE
330
85F
100
AcDbEntity
  8
DETAIL
100
AcDbLine
 10
-366.3326051868207
 20
433.3729491399103
 30
0.0
 11
-355.667394813514
 21
433.3729491399103
 31
0.0
  0
LINE
  5
1AFF
330
85F
100
AcDbEntity
  8
DETAIL
100
AcDbLine
 10
-366.5000000001455
 20
434.1729491399105
 30
0.0
 11
-355.1911031602941
 21
434.1729491399105
 31
0.0
  0
LINE
  5
1B00
330
85F
100
AcDbEntity
  8
DETAIL
100
AcDbLine
 10
355.1911031599593
 20
434.1729491399113
 30
0.0
 11
365.4999999998545
 21
434.1729491399113
 31
0.0
  0
LINE
  5
1B01
330
85F
100
AcDbEntity
  8
DETAIL
100
AcDbLine
 10
-351.5000000001746
 20
434.1729491399105
 30
0.0
 11
350.4999999998399
 21
434.1729491399113
 31
0.0
  0
LINE
  5
1B02
330
85F
100
AcDbEntity
  8
DETAIL
100
AcDbLine
 10
350.4999999998399
 20
433.2729491399109
 30
0.0
 11
-351.5000000001673
 21
433.2729491399098
 31
0.0
  0
LINE
  5
1B03
330
85F
100
AcDbEntity
  8
DETAIL
100
AcDbLine
 10
-351.5000000001673
 20
-223.8270508601113
 30
0.0
 11
-349.5000000001455
 21
-221.8270508600931
 31
0.0
  0
LINE
  5
1B04
330
85F
100
AcDbEntity
  8
DETAIL
100
AcDbLine
 10
348.4999999998545
 20
-221.8270508600922
 30
0.0
 11
350.4999999998399
 21
-223.8270508600772
 31
0.0
  0
LINE
  5
1B05
330
85F
100
AcDbEntity
  8
DETAIL
100
AcDbLine
 10
-349.5000000001455
 20
427.1729491399105
 30
0.0
 11
-351.5000000001673
 21
429.1729491399296
 31
0.0
  0
LINE
  5
1B06
330
85F
100
AcDbEntity
  8
DETAIL
100
AcDbLine
 10
350.4999999998399
 20
429.1729491398968
 30
0.0
 11
348.4999999998545
 21
427.1729491399113
 31
0.0
  0
LINE
  5
1B07
330
85F
100
AcDbEntity
  8
DETAIL
100
AcDbLine
 10
348.4999999998545
 20
-221.8270508600922
 30
0.0
 11
-349.5000000001455
 21
-221.8270508600931
 31
0.0
  0
LINE
  5
1B08
330
85F
100
AcDbEntity
  8
DETAIL
100
AcDbLine
 10
-349.5000000001455
 20
427.1729491399105
 30
0.0
 11
348.4999999998545
 21
427.1729491399113
 31
0.0
  0
LINE
  5
1B09
330
85F
100
AcDbEntity
  8
DETAIL
100
AcDbLine
 10
366.2614971749936
 20
433.2729491399109
 30
0.0
 11
355.7385028246645
 21
433.2729491399109
 31
0.0
  0
LINE
  5
1B0A
330
85F
100
AcDbEntity
  8
DETAIL
100
AcDbLine
 10
-355.7385028250136
 20
433.2729491399098
 30
0.0
 11
-366.2614971753356
 21
433.2729491399098
 31
0.0
  0
LINE
  5
1B0B
330
85F
100
AcDbEntity
  8
DETAIL
100
AcDbLine
 10
-369.5000000000145
 20
624.6104230978094
 30
0.0
 11
-366.5000000000147
 21
627.6104230978094
 31
0.0
  0
LINE
  5
1B0C
330
85F
100
AcDbEntity
  8
DETAIL
100
AcDbLine
 10
365.4999999999855
 20
627.6104230978285
 30
0.0
 11
368.4999999999853
 21
624.6104230978285
 31
0.0
  0
LINE
  5
1B0D
330
85F
100
AcDbEntity
  8
DETAIL
100
AcDbLine
 10
365.4999999999855
 20
627.6104230978285
 30
0.0
 11
-366.5000000000147
 21
627.6104230978094
 31
0.0
  0
LINE
  5
1B0E
330
85F
100
AcDbEntity
  8
DETAIL
100
AcDbLine
 10
-369.5000000000145
 20
624.6104230978094
 30
0.0
 11
-369.5000000000145
 21
610.6104230978094
 31
0.0
  0
LINE
  5
1B0F
330
85F
100
AcDbEntity
  8
DETAIL
100
AcDbLine
 10
368.4999999999853
 20
610.6104230978285
 30
0.0
 11
368.4999999999853
 21
624.6104230978276
 31
0.0
  0
LINE
  5
1B10
330
85F
100
AcDbEntity
  8
DETAIL
100
AcDbLine
 10
-369.5000000000145
 20
609.8310002344027
 30
0.0
 11
-369.5000000000145
 21
609.3699616599101
 31
0.0
  0
LINE
  5
1B11
330
85F
100
AcDbEntity
  8
DETAIL
100
AcDbLine
 10
-369.5000000000145
 20
610.6104230978094
 30
0.0
 11
368.4999999999853
 21
610.6104230978285
 31
0.0
  0
LINE
  5
1B12
330
85F
100
AcDbEntity
  8
DETAIL
100
AcDbLine
 10
-369.5000000000145
 20
609.8310002344027
 30
0.0
 11
-369.5000000000145
 21
610.6104230978094
 31
0.0
  0
LINE
  5
1B13
330
85F
100
AcDbEntity
  8
DETAIL
100
AcDbLine
 10
368.4999999999853
 20
610.6104230978274
 30
0.0
 11
368.4999999999853
 21
610.3895769021824
 31
0.0
  0
LINE
  5
1B14
330
85F
100
AcDbEntity
  8
DETAIL
100
AcDbLine
 10
353.5
 20
609.8310002344218
 30
0.0
 11
-369.5000000000145
 21
609.8310002344027
 31
0.0
  0
LINE
  5
1B15
330
85F
100
AcDbEntity
  8
DETAIL
100
AcDbLine
 10
367.4742364686317
 20
437.6677309871896
 30
0.0
 11
354.5257635310263
 21
437.6677309871888
 31
0.0
  0
LINE
  5
1B16
330
85F
100
AcDbEntity
  8
DETAIL
100
AcDbLine
 10
350.4999999998254
 20
437.6677309871888
 30
0.0
 11
-351.5000000001746
 21
437.6677309871706
 31
0.0
  0
LINE
  5
1B17
330
85F
100
AcDbEntity
  8
DETAIL
100
AcDbLine
 10
-351.5000000001746
 20
437.7543335275499
 30
0.0
 11
350.4999999998254
 21
437.7543335275682
 31
0.0
  0
LINE
  5
1B18
330
85F
100
AcDbEntity
  8
DETAIL
100
AcDbLine
 10
354.5340817642645
 20
437.7543335275682
 30
0.0
 11
367.4659182353935
 21
437.7543335275682
 31
0.0
  0
LINE
  5
1B19
330
85F
100
AcDbEntity
  8
NOTE
100
AcDbLine
 10
361.0000000000145
 20
443.0895769021831
 30
0.0
 11
361.0000000000145
 21
458.0895769021831
 31
0.0
  0
CIRCLE
  5
1B1A
330
85F
100
AcDbEntity
  8
FIX
100
AcDbCircle
 10
361.0000000000145
 20
450.5895769021831
 30
0.0
 40
3.0
  0
LINE
  5
1B1B
330
85F
100
AcDbEntity
  8
NOTE
100
AcDbLine
 10
353.5000000000147
 20
450.5895769021831
 30
0.0
 11
368.5000000000147
 21
450.5895769021831
 31
0.0
  0
LINE
  5
1B1C
330
85F
100
AcDbEntity
  8
NOTE
100
AcDbLine
 10
361.0000000000145
 20
35.08957690218267
 30
0.0
 11
361.0000000000145
 21
50.08957690218267
 31
0.0
  0
CIRCLE
  5
1B1D
330
85F
100
AcDbEntity
  8
FIX
100
AcDbCircle
 10
361.0000000000145
 20
42.58957690218267
 30
0.0
 40
3.0
  0
LINE
  5
1B1E
330
85F
100
AcDbEntity
  8
NOTE
100
AcDbLine
 10
353.5000000000147
 20
42.58957690218267
 30
0.0
 11
368.5000000000147
 21
42.58957690218267
 31
0.0
  0
LINE
  5
1B1F
330
85F
100
AcDbEntity
  8
NOTE
100
AcDbLine
 10
361.0000000000145
 20
-495.3104230978174
 30
0.0
 11
361.0000000000145
 21
-480.3104230978172
 31
0.0
  0
CIRCLE
  5
1B20
330
85F
100
AcDbEntity
  8
FIX
100
AcDbCircle
 10
361.0000000000145
 20
-487.8104230978173
 30
0.0
 40
3.0
  0
LINE
  5
1B21
330
85F
100
AcDbEntity
  8
NOTE
100
AcDbLine
 10
353.5000000000147
 20
-487.8104230978173
 30
0.0
 11
368.5000000000147
 21
-487.8104230978173
 31
0.0
  0
LINE
  5
1B22
330
85F
100
AcDbEntity
  8
NOTE
100
AcDbLine
 10
-361.0
 20
-495.3104230978178
 30
0.0
 11
-361.0
 21
-480.3104230978178
 31
0.0
  0
CIRCLE
  5
1B23
330
85F
100
AcDbEntity
  8
FIX
100
AcDbCircle
 10
-361.0
 20
-487.8104230978178
 30
0.0
 40
3.0
  0
LINE
  5
1B24
330
85F
100
AcDbEntity
  8
NOTE
100
AcDbLine
 10
-368.5
 20
-487.8104230978178
 30
0.0
 11
-353.5
 21
-487.8104230978178
 31
0.0
  0
LINE
  5
1B25
330
85F
100
AcDbEntity
  8
NOTE
100
AcDbLine
 10
-361.0
 20
35.08957690218222
 30
0.0
 11
-361.0
 21
50.0895769021822
 31
0.0
  0
CIRCLE
  5
1B26
330
85F
100
AcDbEntity
  8
FIX
100
AcDbCircle
 10
-361.0
 20
42.5895769021822
 30
0.0
 40
3.0
  0
LINE
  5
1B27
330
85F
100
AcDbEntity
  8
NOTE
100
AcDbLine
 10
-368.5
 20
42.5895769021822
 30
0.0
 11
-353.5
 21
42.5895769021822
 31
0.0
  0
LINE
  5
1B28
330
85F
100
AcDbEntity
  8
NOTE
100
AcDbLine
 10
-361.0
 20
443.0895769021831
 30
0.0
 11
-361.0
 21
458.0895769021831
 31
0.0
  0
CIRCLE
  5
1B29
330
85F
100
AcDbEntity
  8
FIX
100
AcDbCircle
 10
-361.0
 20
450.5895769021831
 30
0.0
 40
3.0
  0
LINE
  5
1B2A
330
85F
100
AcDbEntity
  8
NOTE
100
AcDbLine
 10
-368.5
 20
450.5895769021831
 30
0.0
 11
-353.5
 21
450.5895769021831
 31
0.0
  0
LINE
  5
1B2B
330
85F
100
AcDbEntity
  8
NOTE
100
AcDbLine
 10
279.9999999999855
 20
615.1104230978257
 30
0.0
 11
279.9999999999855
 21
630.1104230978258
 31
0.0
  0
CIRCLE
  5
1B2C
330
85F
100
AcDbEntity
  8
FIX
100
AcDbCircle
 10
279.9999999999855
 20
622.6104230978258
 30
0.0
 40
3.0
  0
LINE
  5
1B2D
330
85F
100
AcDbEntity
  8
NOTE
100
AcDbLine
 10
272.4999999999854
 20
622.6104230978258
 30
0.0
 11
287.4999999999854
 21
622.6104230978258
 31
0.0
  0
LINE
  5
1B2E
330
85F
100
AcDbEntity
  8
NOTE
100
AcDbLine
 10
-24.00000000001455
 20
615.1104230978185
 30
0.0
 11
-24.00000000001455
 21
630.1104230978185
 31
0.0
  0
CIRCLE
  5
1B2F
330
85F
100
AcDbEntity
  8
FIX
100
AcDbCircle
 10
-24.00000000001455
 20
622.6104230978185
 30
0.0
 40
3.0
  0
LINE
  5
1B30
330
85F
100
AcDbEntity
  8
NOTE
100
AcDbLine
 10
-31.50000000001455
 20
622.6104230978185
 30
0.0
 11
-16.50000000001455
 21
622.6104230978185
 31
0.0
  0
LINE
  5
1B31
330
85F
100
AcDbEntity
  8
NOTE
100
AcDbLine
 10
-352.8000000000174
 20
615.1104230978094
 30
0.0
 11
-352.8000000000174
 21
630.1104230978094
 31
0.0
  0
CIRCLE
  5
1B32
330
85F
100
AcDbEntity
  8
FIX
100
AcDbCircle
 10
-352.8000000000174
 20
622.6104230978094
 30
0.0
 40
3.0
  0
LINE
  5
1B33
330
85F
100
AcDbEntity
  8
NOTE
100
AcDbLine
 10
-360.3000000000175
 20
622.6104230978094
 30
0.0
 11
-345.3000000000175
 21
622.6104230978094
 31
0.0
  0
MTEXT
  5
1B34
330
85F
100
AcDbEntity
  8
ETC
100
AcDbMText
 10
324.2865854781558
 20
894.219299335111
 30
0.0
 40
64.0
 41
0.0
 71
     1
 72
     5
  1
{\Fromans,extfont|c128;\W0.9;AGJT-28BL-3}
  7
ADESK1
 73
     1
 44
1.0
1001
ACAD
1000
MTEXTBEGIN
1070
    73
1070
     1
1070
    44
1040
1.0
1070
    74
1070
     0
1000
MTEXTEND
  0
LINE
  5
1B3E
330
85F
100
AcDbEntity
  8
BASIS
  6
DASHDOT
 62
     6
100
AcDbLine
 10
0.000000000007276
 20
-677.6104230978171
 30
0.0
 11
0.0
 21
677.6104230978194
 31
0.0
  0
LINE
  5
1B3F
330
85F
100
AcDbEntity
  8
ARRANGE
  6
Continuous
 62
     1
100
AcDbLine
 10
-16.68411756440764
 20
-16.684117564404
 30
0.0
 11
16.68411756440036
 21
16.68411756440309
 31
0.0
  0
LINE
  5
1B40
330
85F
100
AcDbEntity
  8
ARRANGE
  6
Continuous
 62
     1
100
AcDbLine
 10
-16.68411756440764
 20
16.68411756440309
 30
0.0
 11
16.68411756440036
 21
-16.684117564404
 31
0.0
  0
CIRCLE
  5
1B41
330
85F
100
AcDbEntity
  8
ARRANGE
100
AcDbCircle
 10
0.0
 20
0.0
 30
0.0
 40
15.0
  0
LINE
  5
1B42
330
85F
100
AcDbEntity
  8
BASIS
  6
DASHDOT
 62
     6
100
AcDbLine
 10
420.4999999999852
 20
0.0
 30
0.0
 11
-419.4999999999926
 21
0.0
 31
0.0
  0
LINE
  5
1B43
330
85F
100
AcDbEntity
  8
OUTLINE
100
AcDbLine
 10
355.8125124603977
 20
433.1729491399103
 30
0.0
 11
366.1874875392677
 21
433.1729491399103
 31
0.0
  0
LINE
  5
1B44
330
85F
100
AcDbEntity
  8
OUTLINE
100
AcDbLine
 10
353.4999999998254
 20
-53.6104230978176
 30
0.0
 11
353.4999999998254
 21
-68.6104230978176
 31
0.0
  0
LINE
  5
1B45
330
85F
100
AcDbEntity
  8
OUTLINE
100
AcDbLine
 10
353.5000000000147
 20
-627.6104230978185
 30
0.0
 11
350.5000000000145
 21
-624.6104230978184
 31
0.0
  0
LINE
  5
1B46
330
85F
100
AcDbEntity
  8
OUTLINE
100
AcDbLine
 10
350.5000000000145
 20
593.3895769021813
 30
0.0
 11
353.5000000000147
 21
596.3895769021815
 31
0.0
  0
LINE
  5
1B47
330
85F
100
AcDbEntity
  8
OUTLINE
100
AcDbLine
 10
353.5000000000147
 20
558.3895769021815
 30
0.0
 11
350.5000000000145
 21
561.3895769021815
 31
0.0
  0
LINE
  5
1B48
330
85F
100
AcDbEntity
  8
OUTLINE
100
AcDbLine
 10
365.5000000000145
 20
555.3895769021814
 30
0.0
 11
362.5000000000146
 21
558.3895769021815
 31
0.0
  0
LINE
  5
1B49
330
85F
100
AcDbEntity
  8
OUTLINE
100
AcDbLine
 10
362.5000000000146
 20
525.0895769021822
 30
0.0
 11
365.5000000000145
 21
528.0895769021822
 31
0.0
  0
LINE
  5
1B4A
330
85F
100
AcDbEntity
  8
OUTLINE
100
AcDbLine
 10
350.5000000000145
 20
522.0895769021821
 30
0.0
 11
353.5000000000147
 21
525.0895769021822
 31
0.0
  0
LINE
  5
1B4B
330
85F
100
AcDbEntity
  8
OUTLINE
100
AcDbLine
 10
353.5000000000147
 20
-53.6104230978176
 30
0.0
 11
350.5000000000145
 21
-50.6104230978176
 31
0.0
  0
LINE
  5
1B4C
330
85F
100
AcDbEntity
  8
OUTLINE
100
AcDbLine
 10
365.5000000000073
 20
-56.61042309781851
 30
0.0
 11
362.5000000000146
 21
-53.6104230978176
 31
0.0
  0
LINE
  5
1B4D
330
85F
100
AcDbEntity
  8
OUTLINE
100
AcDbLine
 10
362.5000000000146
 20
-68.6104230978176
 30
0.0
 11
365.5000000000073
 21
-65.61042309781851
 31
0.0
  0
LINE
  5
1B4E
330
85F
100
AcDbEntity
  8
OUTLINE
100
AcDbLine
 10
350.5000000000145
 20
-71.61042309781759
 30
0.0
 11
353.5000000000147
 21
-68.6104230978176
 31
0.0
  0
LINE
  5
1B4F
330
85F
100
AcDbEntity
  8
OUTLINE
100
AcDbLine
 10
353.5000000000147
 20
-461.6104230978176
 30
0.0
 11
350.5000000000145
 21
-458.6104230978175
 31
0.0
  0
LINE
  5
1B50
330
85F
100
AcDbEntity
  8
OUTLINE
100
AcDbLine
 10
365.5000000000073
 20
-464.6104230978176
 30
0.0
 11
362.5000000000073
 21
-461.6104230978176
 31
0.0
  0
LINE
  5
1B51
330
85F
100
AcDbEntity
  8
OUTLINE
100
AcDbLine
 10
362.5000000000073
 20
-476.6104230978185
 30
0.0
 11
365.5000000000073
 21
-473.6104230978185
 31
0.0
  0
LINE
  5
1B52
330
85F
100
AcDbEntity
  8
OUTLINE
100
AcDbLine
 10
350.5000000000145
 20
-479.6104230978185
 30
0.0
 11
353.5000000000147
 21
-476.6104230978185
 31
0.0
  0
LINE
  5
1B53
330
85F
100
AcDbEntity
  8
OUTLINE
100
AcDbLine
 10
368.6000000000058
 20
-627.6104230978185
 30
0.0
 11
353.5000000000147
 21
-627.6104230978185
 31
0.0
  0
LINE
  5
1B54
330
85F
100
AcDbEntity
  8
OUTLINE
100
AcDbLine
 10
350.5000000000145
 20
561.3895769021815
 30
0.0
 11
350.5000000000145
 21
593.3895769021813
 31
0.0
  0
LINE
  5
1B55
330
85F
100
AcDbEntity
  8
OUTLINE
100
AcDbLine
 10
350.5000000000145
 20
-50.6104230978176
 30
0.0
 11
350.5000000000145
 21
522.0895769021821
 31
0.0
  0
LINE
  5
1B56
330
85F
100
AcDbEntity
  8
OUTLINE
100
AcDbLine
 10
350.5000000000145
 20
-458.6104230978175
 30
0.0
 11
350.5000000000145
 21
-71.61042309781759
 31
0.0
  0
LINE
  5
1B57
330
85F
100
AcDbEntity
  8
OUTLINE
100
AcDbLine
 10
350.5000000000145
 20
-624.6104230978184
 30
0.0
 11
350.5000000000145
 21
-479.6104230978185
 31
0.0
  0
LINE
  5
1B58
330
85F
100
AcDbEntity
  8
OUTLINE
100
AcDbLine
 10
353.5000000000147
 20
558.3895769021815
 30
0.0
 11
362.5000000000146
 21
558.3895769021815
 31
0.0
  0
LINE
  5
1B59
330
85F
100
AcDbEntity
  8
OUTLINE
100
AcDbLine
 10
365.5000000000145
 20
555.3895769021814
 30
0.0
 11
365.5000000000145
 21
528.0895769021822
 31
0.0
  0
LINE
  5
1B5A
330
85F
100
AcDbEntity
  8
OUTLINE
100
AcDbLine
 10
362.5000000000146
 20
525.0895769021822
 30
0.0
 11
353.5000000000147
 21
525.0895769021822
 31
0.0
  0
LINE
  5
1B5B
330
85F
100
AcDbEntity
  8
OUTLINE
100
AcDbLine
 10
353.5000000000147
 20
-53.6104230978176
 30
0.0
 11
362.5000000000146
 21
-53.6104230978176
 31
0.0
  0
LINE
  5
1B5C
330
85F
100
AcDbEntity
  8
OUTLINE
100
AcDbLine
 10
365.5000000000073
 20
-56.61042309781851
 30
0.0
 11
365.5000000000073
 21
-65.61042309781851
 31
0.0
  0
LINE
  5
1B5D
330
85F
100
AcDbEntity
  8
OUTLINE
100
AcDbLine
 10
362.5000000000146
 20
-68.6104230978176
 30
0.0
 11
353.5000000000147
 21
-68.6104230978176
 31
0.0
  0
LINE
  5
1B5E
330
85F
100
AcDbEntity
  8
OUTLINE
100
AcDbLine
 10
353.5000000000147
 20
-461.6104230978176
 30
0.0
 11
362.5000000000073
 21
-461.6104230978176
 31
0.0
  0
LINE
  5
1B5F
330
85F
100
AcDbEntity
  8
OUTLINE
100
AcDbLine
 10
365.5000000000073
 20
-464.6104230978176
 30
0.0
 11
365.5000000000073
 21
-473.6104230978185
 31
0.0
  0
LINE
  5
1B60
330
85F
100
AcDbEntity
  8
OUTLINE
100
AcDbLine
 10
362.5000000000073
 20
-476.6104230978185
 30
0.0
 11
353.5000000000147
 21
-476.6104230978185
 31
0.0
  0
LINE
  5
1B61
330
85F
100
AcDbEntity
  8
OUTLINE
100
AcDbLine
 10
369.5000000000074
 20
596.3895769021815
 30
0.0
 11
369.5000000000074
 21
-627.6104230978185
 31
0.0
  0
LINE
  5
1B62
330
85F
100
AcDbEntity
  8
OUTLINE
100
AcDbLine
 10
368.6000000000058
 20
-627.6104230978185
 30
0.0
 11
368.6000000000058
 21
596.3895769021815
 31
0.0
  0
LINE
  5
1B63
330
85F
100
AcDbEntity
  8
OUTLINE
100
AcDbLine
 10
368.6000000000058
 20
-627.6104230978185
 30
0.0
 11
369.5000000000074
 21
-627.6104230978185
 31
0.0
  0
LINE
  5
1B64
330
85F
100
AcDbEntity
  8
OUTLINE
100
AcDbLine
 10
368.7000000000044
 20
596.3895769021815
 30
0.0
 11
368.7000000000044
 21
609.3503464176404
 31
0.0
  0
LINE
  5
1B65
330
85F
100
AcDbEntity
  8
OUTLINE
100
AcDbLine
 10
369.5000000000074
 20
609.3503464176404
 30
0.0
 11
369.5000000000074
 21
596.3895769021815
 31
0.0
  0
LINE
  5
1B66
330
85F
100
AcDbEntity
  8
OUTLINE
100
AcDbLine
 10
368.6000000000058
 20
596.3895769021815
 30
0.0
 11
353.5000000000147
 21
596.3895769021815
 31
0.0
  0
LINE
  5
1B67
330
85F
100
AcDbEntity
  8
OUTLINE
100
AcDbLine
 10
368.6000000000058
 20
596.3895769021815
 30
0.0
 11
369.5000000000074
 21
596.3895769021815
 31
0.0
  0
SPLINE
  5
1B68
330
85F
100
AcDbEntity
  8
OUTLINE
100
AcDbSpline
210
0.0
220
0.0
230
1.0
 70
     8
 71
     3
 72
    11
 73
     7
 74
     0
 42
0.0000000001
 43
0.0000000001
 40
0.0
 40
0.0
 40
0.0
 40
0.0
 40
1.437607986813
 40
1.437607986813
 40
1.437607986813
 40
1.570796326795043
 40
1.570796326795043
 40
1.570796326795043
 40
1.570796326795043
 10
369.5000000000074
 20
609.3503464176404
 30
0.0
 10
369.5
 20
609.8031074111617
 30
0.0
 10
369.1469781827109
 20
610.231786214495
 30
0.0
 10
368.7195154233195
 20
610.3606447981904
 30
0.0
 10
368.6799127946141
 20
610.3725830045798
 30
0.0
 10
368.6399565019966
 20
610.3822338441455
 30
0.0
 10
368.6000000000058
 20
610.3895769021812
 30
0.0
  0
LINE
  5
1B69
330
85F
100
AcDbEntity
  8
OUTLINE
100
AcDbLine
 10
368.5999999999913
 20
596.3895769021815
 30
0.0
 11
368.6000000000058
 21
609.6967565791542
 31
0.0
  0
LINE
  5
1B6A
330
85F
100
AcDbEntity
  8
OUTLINE
100
AcDbLine
 10
368.6000000000058
 20
609.6967565791542
 30
0.0
 11
368.6000000000058
 21
610.3895769021812
 31
0.0
  0
SPLINE
  5
1B6B
330
85F
100
AcDbEntity
  8
OUTLINE
100
AcDbSpline
210
0.0
220
0.0
230
1.0
 70
     8
 71
     3
 72
     8
 73
     4
 74
     0
 42
0.0000000001
 43
0.0000000001
 40
0.0
 40
0.0
 40
0.0
 40
0.0
 40
1.570796326795043
 40
1.570796326795043
 40
1.570796326795043
 40
1.570796326795043
 10
368.7000000000044
 20
609.3503464176404
 30
0.0
 10
368.7000000000044
 20
609.4822939421251
 30
0.0
 10
368.6523598775675
 20
609.6101540387758
 30
0.0
 10
368.6000000000058
 20
609.6967565791542
 30
0.0
  0
LINE
  5
1B6C
330
85F
100
AcDbEntity
  8
OUTLINE
100
AcDbLine
 10
369.1729577951337
 20
609.3503464176404
 30
0.0
 11
368.7000000000044
 21
609.3503464176404
 31
0.0
  0
LINE
  5
1B6D
330
85F
100
AcDbEntity
  8
OUTLINE
100
AcDbLine
 10
369.5000000000074
 20
609.3503464176404
 30
0.0
 11
369.1729577951337
 21
609.3503464176404
 31
0.0
  0
LINE
  5
1B6E
330
85F
100
AcDbEntity
  8
OUTLINE
100
AcDbLine
 10
354.56852280155
 20
438.0309063068074
 30
0.0
 11
367.4314771981082
 21
438.0309063068083
 31
0.0
  0
LINE
  5
1B6F
330
85F
100
AcDbEntity
  8
OUTLINE
100
AcDbLine
 10
368.6000000000058
 20
609.6967565791542
 30
0.0
 11
353.5000000000073
 21
609.6967565791542
 31
0.0
  0
LINE
  5
1B70
330
85F
100
AcDbEntity
  8
OUTLINE
100
AcDbLine
 10
353.5000000000073
 20
609.6967565791542
 30
0.0
 11
353.4999999999927
 21
596.3895769021815
 31
0.0
  0
LINE
  5
1B71
330
85F
100
AcDbEntity
  8
OUTLINE
100
AcDbLine
 10
353.4999999999564
 20
558.3895769021815
 30
0.0
 11
353.49999999992
 21
525.0895769021822
 31
0.0
  0
LINE
  5
1B72
330
85F
100
AcDbEntity
  8
OUTLINE
100
AcDbLine
 10
368.6000000000058
 20
610.3895769021812
 30
0.0
 11
353.5000000000073
 21
610.3895769021824
 31
0.0
  0
LINE
  5
1B73
330
85F
100
AcDbEntity
  8
OUTLINE
100
AcDbLine
 10
353.5000000000073
 20
609.6967565791542
 30
0.0
 11
353.5000000000073
 21
610.3895769021824
 31
0.0
  0
LINE
  5
1B74
330
85F
100
AcDbEntity
  8
OUTLINE
100
AcDbLine
 10
-369.6999999999971
 20
-139.1104230978185
 30
0.0
 11
-369.6999999999971
 21
-136.1104230978185
 31
0.0
  0
LINE
  5
1B75
330
85F
100
AcDbEntity
  8
OUTLINE
100
AcDbLine
 10
-369.6999999999971
 20
-136.1104230978185
 30
0.0
 11
-370.5
 21
-136.1104230978185
 31
0.0
  0
LINE
  5
1B76
330
85F
100
AcDbEntity
  8
OUTLINE
100
AcDbLine
 10
-370.5
 20
-136.1104230978185
 30
0.0
 11
-370.5
 21
-139.1104230978185
 31
0.0
  0
LINE
  5
1B77
330
85F
100
AcDbEntity
  8
OUTLINE
100
AcDbLine
 10
-370.5
 20
-139.1104230978185
 30
0.0
 11
-369.6999999999971
 21
-139.1104230978185
 31
0.0
  0
LINE
  5
1B78
330
85F
100
AcDbEntity
  8
OUTLINE
100
AcDbLine
 10
-370.5
 20
-154.6104230978185
 30
0.0
 11
-370.5
 21
-157.6104230978185
 31
0.0
  0
LINE
  5
1B79
330
85F
100
AcDbEntity
  8
OUTLINE
100
AcDbLine
 10
-370.5
 20
-157.6104230978185
 30
0.0
 11
-369.6999999999971
 21
-157.6104230978185
 31
0.0
  0
LINE
  5
1B7A
330
85F
100
AcDbEntity
  8
OUTLINE
100
AcDbLine
 10
-369.6999999999971
 20
-157.6104230978185
 30
0.0
 11
-369.6999999999971
 21
-154.6104230978185
 31
0.0
  0
LINE
  5
1B7B
330
85F
100
AcDbEntity
  8
OUTLINE
100
AcDbLine
 10
-369.6999999999971
 20
-154.6104230978185
 30
0.0
 11
-370.5
 21
-154.6104230978185
 31
0.0
  0
LINE
  5
1B7C
330
85F
100
AcDbEntity
  8
OUTLINE
100
AcDbLine
 10
-370.5
 20
-136.1104230978185
 30
0.0
 11
-370.5
 21
-120.1104230978185
 31
0.0
  0
LINE
  5
1B7D
330
85F
100
AcDbEntity
  8
OUTLINE
100
AcDbLine
 10
-370.5
 20
-194.1104230978185
 30
0.0
 11
-370.5
 21
-157.6104230978185
 31
0.0
  0
LINE
  5
1B7E
330
85F
100
AcDbEntity
  8
OUTLINE
100
AcDbLine
 10
-369.6999999999971
 20
-120.1104230978185
 30
0.0
 11
-369.6999999999971
 21
-136.1104230978185
 31
0.0
  0
LINE
  5
1B7F
330
85F
100
AcDbEntity
  8
OUTLINE
100
AcDbLine
 10
-369.6999999999971
 20
-157.6104230978185
 30
0.0
 11
-369.6999999999971
 21
-194.1104230978185
 31
0.0
  0
LINE
  5
1B80
330
85F
100
AcDbEntity
  8
OUTLINE
100
AcDbLine
 10
-369.5999999999985
 20
-120.1104230978185
 30
0.0
 11
-354.5
 21
-120.1104230978185
 31
0.0
  0
LINE
  5
1B81
330
85F
100
AcDbEntity
  8
OUTLINE
100
AcDbLine
 10
-369.5999999999985
 20
-120.1104230978185
 30
0.0
 11
-370.5
 21
-120.1104230978185
 31
0.0
  0
LINE
  5
1B82
330
85F
100
AcDbEntity
  8
OUTLINE
100
AcDbLine
 10
-370.5
 20
-194.1104230978185
 30
0.0
 11
-369.5999999999985
 21
-194.1104230978185
 31
0.0
  0
LINE
  5
1B83
330
85F
100
AcDbEntity
  8
OUTLINE
100
AcDbLine
 10
-354.5
 20
-194.1104230978185
 30
0.0
 11
-369.5999999999985
 21
-194.1104230978185
 31
0.0
  0
LINE
  5
1B84
330
85F
100
AcDbEntity
  8
OUTLINE
100
AcDbLine
 10
-370.5
 20
-120.1104230978185
 30
0.0
 11
-370.5
 21
608.8307311753701
 31
0.0
  0
LINE
  5
1B85
330
85F
100
AcDbEntity
  8
OUTLINE
100
AcDbLine
 10
-370.5
 20
-626.4006620825433
 30
0.0
 11
-370.5
 21
-194.1104230978185
 31
0.0
  0
LINE
  5
1B86
330
85F
100
AcDbEntity
  8
OUTLINE
100
AcDbLine
 10
-369.5999999999985
 20
600.3895769021815
 30
0.0
 11
-369.5999999999985
 21
-120.1104230978185
 31
0.0
  0
SPLINE
  5
1B87
330
85F
100
AcDbEntity
  8
OUTLINE
100
AcDbSpline
210
0.0
220
0.0
230
1.0
 70
     8
 71
     3
 72
    11
 73
     7
 74
     0
 42
0.0000000001
 43
0.0000000001
 40
0.0
 40
0.0
 40
0.0
 40
0.0
 40
1.437607986812995
 40
1.437607986812995
 40
1.437607986812995
 40
1.570796326794897
 40
1.570796326794897
 40
1.570796326794897
 40
1.570796326794897
 10
-370.5
 20
-626.4006620825433
 30
0.0
 10
-370.5
 20
-626.7697237421257
 30
0.0
 10
-370.1469781827036
 20
-627.1387854017063
 30
0.0
 10
-369.7195154233122
 20
-627.5078470612884
 30
0.0
 10
-369.6799127946069
 20
-627.5420390734646
 30
0.0
 10
-369.6399565019965
 20
-627.5762310856421
 30
0.0
 10
-369.5999999999985
 20
-627.6104230978185
 30
0.0
  0
LINE
  5
1B88
330
85F
100
AcDbEntity
  8
OUTLINE
100
AcDbLine
 10
-369.5999999999985
 20
-194.1104230978185
 30
0.0
 11
-369.5999999999985
 21
-627.6104230978185
 31
0.0
  0
LINE
  5
1B89
330
85F
100
AcDbEntity
  8
OUTLINE
100
AcDbLine
 10
-370.5
 20
-154.6104230978185
 30
0.0
 11
-370.5
 21
-139.1104230978185
 31
0.0
  0
LINE
  5
1B8A
330
85F
100
AcDbEntity
  8
OUTLINE
100
AcDbLine
 10
-369.7000000000044
 20
-139.1104230978185
 30
0.0
 11
-369.7000000000044
 21
-154.6104230978185
 31
0.0
  0
LINE
  5
1B8B
330
85F
100
AcDbEntity
  8
OUTLINE
100
AcDbLine
 10
-366.179922240568
 20
433.1629491399103
 30
0.0
 11
-355.8200777597813
 21
433.1629491399103
 31
0.0
  0
LINE
  5
1B8C
330
85F
100
AcDbEntity
  8
OUTLINE
100
AcDbLine
 10
-354.5000000001601
 20
-55.61042309781851
 30
0.0
 11
-354.5000000001601
 21
-73.61042309781851
 31
0.0
  0
LINE
  5
1B8D
330
85F
100
AcDbEntity
  8
OUTLINE
100
AcDbLine
 10
-354.5000000001601
 20
-120.1104230978185
 30
0.0
 11
-354.5000000001601
 21
-194.1104230978185
 31
0.0
  0
LINE
  5
1B8E
330
85F
100
AcDbEntity
  8
OUTLINE
100
AcDbLine
 10
-351.5
 20
-52.61042309781851
 30
0.0
 11
-354.5
 21
-55.61042309781851
 31
0.0
  0
LINE
  5
1B8F
330
85F
100
AcDbEntity
  8
OUTLINE
100
AcDbLine
 10
-351.5
 20
-117.1104230978185
 30
0.0
 11
-354.5
 21
-120.1104230978185
 31
0.0
  0
LINE
  5
1B90
330
85F
100
AcDbEntity
  8
OUTLINE
100
AcDbLine
 10
-354.5
 20
-73.61042309781851
 30
0.0
 11
-351.5
 21
-76.61042309781851
 31
0.0
  0
LINE
  5
1B91
330
85F
100
AcDbEntity
  8
OUTLINE
100
AcDbLine
 10
-354.5
 20
-194.1104230978185
 30
0.0
 11
-351.5
 21
-197.1104230978184
 31
0.0
  0
LINE
  5
1B92
330
85F
100
AcDbEntity
  8
OUTLINE
100
AcDbLine
 10
-351.5
 20
-624.6104230978184
 30
0.0
 11
-354.5
 21
-627.6104230978185
 31
0.0
  0
LINE
  5
1B93
330
85F
100
AcDbEntity
  8
OUTLINE
100
AcDbLine
 10
-361.5
 20
-55.61042309781851
 30
0.0
 11
-354.5
 21
-55.61042309781851
 31
0.0
  0
LINE
  5
1B94
330
85F
100
AcDbEntity
  8
OUTLINE
100
AcDbLine
 10
-354.5
 20
-73.61042309781851
 30
0.0
 11
-361.5
 21
-73.61042309781851
 31
0.0
  0
LINE
  5
1B95
330
85F
100
AcDbEntity
  8
OUTLINE
100
AcDbLine
 10
-361.5
 20
-73.61042309781851
 30
0.0
 11
-361.5
 21
-55.61042309781851
 31
0.0
  0
LINE
  5
1B96
330
85F
100
AcDbEntity
  8
OUTLINE
100
AcDbLine
 10
-351.5
 20
-52.61042309781851
 30
0.0
 11
-351.5
 21
600.3895769021815
 31
0.0
  0
LINE
  5
1B97
330
85F
100
AcDbEntity
  8
OUTLINE
100
AcDbLine
 10
-351.5
 20
-117.1104230978185
 30
0.0
 11
-351.5
 21
-76.61042309781851
 31
0.0
  0
LINE
  5
1B98
330
85F
100
AcDbEntity
  8
OUTLINE
100
AcDbLine
 10
-351.5
 20
-624.6104230978184
 30
0.0
 11
-351.5
 21
-197.1104230978184
 31
0.0
  0
LINE
  5
1B99
330
85F
100
AcDbEntity
  8
OUTLINE
100
AcDbLine
 10
-369.5999999999985
 20
-627.6104230978185
 30
0.0
 11
-354.5
 21
-627.6104230978185
 31
0.0
  0
LINE
  5
1B9A
330
85F
100
AcDbEntity
  8
OUTLINE
100
AcDbLine
 10
-351.5
 20
600.3895769021815
 30
0.0
 11
-369.5999999999985
 21
600.3895769021815
 31
0.0
  0
LINE
  5
1B9B
330
85F
100
AcDbEntity
  8
OUTLINE
100
AcDbLine
 10
-370.494427190999
 20
600.3895769021815
 30
0.0
 11
-369.5999999999985
 21
600.3895769021815
 31
0.0
  0
LINE
  5
1B9C
330
85F
100
AcDbEntity
  8
OUTLINE
100
AcDbLine
 10
-370.494427190999
 20
600.3895769021815
 30
0.0
 11
-370.494427190999
 21
608.8307311753701
 31
0.0
  0
LINE
  5
1B9D
330
85F
100
AcDbEntity
  8
OUTLINE
100
AcDbLine
 10
-369.5999999999985
 20
600.3895769021815
 30
0.0
 11
-369.5999999999985
 21
610.3895769021812
 31
0.0
  0
SPLINE
  5
1B9E
330
85F
100
AcDbEntity
  8
OUTLINE
100
AcDbSpline
210
0.0
220
0.0
230
1.0
 70
     8
 71
     3
 72
    16
 73
    12
 74
     0
 42
0.0000000001
 43
0.0000000001
 40
-0.1108813337714192
 40
-0.1108813337714192
 40
-0.1108813337714192
 40
-0.1108813337714192
 40
-0.0885143052683586
 40
-0.0885143052683586
 40
-0.0624610938086652
 40
-0.0624610938086652
 40
-0.0476654008385401
 40
-0.0476654008385401
 40
-0.0301638483130036
 40
-0.0301638483130036
 40
0.0
 40
0.0
 40
0.0
 40
0.0
 10
-370.494427190999
 20
609.9067929709812
 30
0.0
 10
-370.3961724524852
 20
609.9108056136824
 30
0.0
 10
-370.2802938236055
 20
609.916844067869
 30
0.0
 10
-370.0619199473077
 20
609.9377384685399
 30
0.0
 10
-369.9672622142534
 20
609.9532503733757
 30
0.0
 10
-369.852026240158
 20
609.9928355423576
 30
0.0
 10
-369.8170787288981
 20
610.0102688201546
 30
0.0
 10
-369.7512997117883
 20
610.0586789128042
 30
0.0
 10
-369.7230082562892
 20
610.0911509518088
 30
0.0
 10
-369.6564652223606
 20
610.2027914501197
 30
0.0
 10
-369.629094738164
 20
610.2933322830509
 30
0.0
 10
-369.5999999999985
 20
610.3895769021812
 30
0.0
  0
LINE
  5
1B9F
330
85F
100
AcDbEntity
  8
OUTLINE
100
AcDbLine
 10
-370.5
 20
608.8307311753701
 30
0.0
 11
-370.494427190999
 21
608.8307311753701
 31
0.0
  0
LINE
  5
1BA0
330
85F
100
AcDbEntity
  8
OUTLINE
100
AcDbLine
 10
-370.494427190999
 20
608.8307311753701
 30
0.0
 11
-370.494427190999
 21
609.9067929709812
 31
0.0
  0
LINE
  5
1BA1
330
85F
100
AcDbEntity
  8
OUTLINE
100
AcDbLine
 10
-369.6000000001514
 20
-120.1104230978185
 30
0.0
 11
-369.6000000001514
 21
-194.1104230978185
 31
0.0
  0
LINE
  5
1BA2
330
85F
100
AcDbEntity
  8
OUTLINE
100
AcDbLine
 10
-354.5185961849347
 20
437.5809063068077
 30
0.0
 11
-367.4814038154145
 21
437.5809063068077
 31
0.0
  0
LINE
  5
1BA3
330
85F
100
AcDbEntity
  8
OUTLINE
100
AcDbLine
 10
-369.5999999999985
 20
609.3699616599109
 30
0.0
 11
-354.5
 21
609.3699616599109
 31
0.0
  0
LINE
  5
1BA4
330
85F
100
AcDbEntity
  8
OUTLINE
100
AcDbLine
 10
-369.5999999999985
 20
608.6771413368837
 30
0.0
 11
-354.5
 21
608.6771413368837
 31
0.0
  0
LINE
  5
1BA5
330
85F
100
AcDbEntity
  8
OUTLINE
100
AcDbLine
 10
-354.5
 20
609.3699616599109
 30
0.0
 11
-354.5
 21
608.6771413368837
 31
0.0
  0
LINE
  5
1BA6
330
85F
100
AcDbEntity
  8
OUTLINE
100
AcDbLine
 10
-354.5
 20
608.6771413368837
 30
0.0
 11
-354.5000000000073
 21
600.3895769021815
 31
0.0
  0
LINE
  5
1BA7
330
85F
100
AcDbEntity
  8
OUTLINE
100
AcDbLine
 10
365.4999999998545
 20
433.3729491399103
 30
0.0
 11
366.332605186486
 21
433.3729491399103
 31
0.0
  0
LINE
  5
1BA8
330
85F
100
AcDbEntity
  8
OUTLINE
100
AcDbLine
 10
366.8088968397133
 20
434.1729491399105
 30
0.0
 11
365.4999999998545
 21
434.1729491399105
 31
0.0
  0
LINE
  5
1BA9
330
85F
100
AcDbEntity
  8
OUTLINE
100
AcDbLine
 10
365.4999999998545
 20
434.1729491399105
 30
0.0
 11
365.4999999998545
 21
433.3729491399103
 31
0.0
  0
LINE
  5
1BAA
330
85F
100
AcDbEntity
  8
OUTLINE
100
AcDbLine
 10
-366.5000000001455
 20
433.625475287013
 30
0.0
 11
-366.5000000001455
 21
434.1729491399095
 31
0.0
  0
LINE
  5
1BAB
330
85F
100
AcDbEntity
  8
OUTLINE
100
AcDbLine
 10
-366.5000000001455
 20
434.1729491399095
 30
0.0
 11
-366.808896840048
 21
434.1729491399095
 31
0.0
  0
LINE
  5
1BAC
330
85F
100
AcDbEntity
  8
OUTLINE
100
AcDbLine
 10
350.4999999998399
 20
-228.827050860093
 30
0.0
 11
-351.5000000001673
 21
-228.827050860093
 31
0.0
  0
LINE
  5
1BAD
330
85F
100
AcDbEntity
  8
OUTLINE
100
AcDbLine
 10
-351.5000000001673
 20
-227.9270508600935
 30
0.0
 11
350.4999999998399
 21
-227.9270508600935
 31
0.0
  0
LINE
  5
1BAE
330
85F
100
AcDbEntity
  8
OUTLINE
100
AcDbLine
 10
355.6673948131793
 20
433.3729491399103
 30
0.0
 11
365.4999999998545
 21
433.3729491399103
 31
0.0
  0
LINE
  5
1BAF
330
85F
100
AcDbEntity
  8
OUTLINE
100
AcDbLine
 10
-366.3326051868207
 20
433.3729491399092
 30
0.0
 11
-355.667394813514
 21
433.3729491399092
 31
0.0
  0
LINE
  5
1BB0
330
85F
100
AcDbEntity
  8
OUTLINE
100
AcDbLine
 10
-366.5000000001455
 20
434.1729491399095
 30
0.0
 11
-355.1911031602941
 21
434.1729491399095
 31
0.0
  0
LINE
  5
1BB1
330
85F
100
AcDbEntity
  8
OUTLINE
100
AcDbLine
 10
355.1911031599593
 20
434.1729491399105
 30
0.0
 11
365.4999999998545
 21
434.1729491399105
 31
0.0
  0
LINE
  5
1BB2
330
85F
100
AcDbEntity
  8
OUTLINE
100
AcDbLine
 10
-351.5000000001746
 20
434.1729491399095
 30
0.0
 11
350.4999999998399
 21
434.1729491399105
 31
0.0
  0
LINE
  5
1BB3
330
85F
100
AcDbEntity
  8
OUTLINE
100
AcDbLine
 10
350.4999999998399
 20
433.2729491399098
 30
0.0
 11
-351.5000000001673
 21
433.2729491399089
 31
0.0
  0
LINE
  5
1BB4
330
85F
100
AcDbEntity
  8
OUTLINE
100
AcDbLine
 10
-351.5000000001673
 20
-223.8270508601122
 30
0.0
 11
-349.5000000001455
 21
-221.827050860094
 31
0.0
  0
LINE
  5
1BB5
330
85F
100
AcDbEntity
  8
OUTLINE
100
AcDbLine
 10
348.4999999998545
 20
-221.8270508600931
 30
0.0
 11
350.4999999998399
 21
-223.8270508600777
 31
0.0
  0
LINE
  5
1BB6
330
85F
100
AcDbEntity
  8
OUTLINE
100
AcDbLine
 10
-349.5000000001455
 20
427.1729491399096
 30
0.0
 11
-351.5000000001673
 21
429.1729491399285
 31
0.0
  0
LINE
  5
1BB7
330
85F
100
AcDbEntity
  8
OUTLINE
100
AcDbLine
 10
350.4999999998399
 20
429.1729491398958
 30
0.0
 11
348.4999999998545
 21
427.1729491399105
 31
0.0
  0
LINE
  5
1BB8
330
85F
100
AcDbEntity
  8
OUTLINE
100
AcDbLine
 10
348.4999999998545
 20
-221.8270508600931
 30
0.0
 11
-349.5000000001455
 21
-221.827050860094
 31
0.0
  0
LINE
  5
1BB9
330
85F
100
AcDbEntity
  8
OUTLINE
100
AcDbLine
 10
-349.5000000001455
 20
427.1729491399096
 30
0.0
 11
348.4999999998545
 21
427.1729491399105
 31
0.0
  0
LINE
  5
1BBA
330
85F
100
AcDbEntity
  8
OUTLINE
100
AcDbLine
 10
366.2614971749936
 20
433.2729491399098
 30
0.0
 11
355.7385028246645
 21
433.2729491399098
 31
0.0
  0
LINE
  5
1BBB
330
85F
100
AcDbEntity
  8
OUTLINE
100
AcDbLine
 10
-355.7385028250136
 20
433.2729491399089
 30
0.0
 11
-366.2614971753356
 21
433.2729491399089
 31
0.0
  0
LINE
  5
1BBC
330
85F
100
AcDbEntity
  8
OUTLINE
100
AcDbLine
 10
-369.5000000000145
 20
624.6104230978085
 30
0.0
 11
-366.5000000000147
 21
627.6104230978083
 31
0.0
  0
LINE
  5
1BBD
330
85F
100
AcDbEntity
  8
OUTLINE
100
AcDbLine
 10
365.4999999999855
 20
627.6104230978276
 30
0.0
 11
368.4999999999853
 21
624.6104230978276
 31
0.0
  0
LINE
  5
1BBE
330
85F
100
AcDbEntity
  8
OUTLINE
100
AcDbLine
 10
365.4999999999855
 20
627.6104230978276
 30
0.0
 11
-366.5000000000147
 21
627.6104230978083
 31
0.0
  0
LINE
  5
1BBF
330
85F
100
AcDbEntity
  8
OUTLINE
100
AcDbLine
 10
-369.5000000000145
 20
624.6104230978085
 30
0.0
 11
-369.5000000000145
 21
610.6104230978083
 31
0.0
  0
LINE
  5
1BC0
330
85F
100
AcDbEntity
  8
OUTLINE
100
AcDbLine
 10
368.4999999999853
 20
610.6104230978274
 30
0.0
 11
368.4999999999853
 21
624.6104230978268
 31
0.0
  0
LINE
  5
1BC1
330
85F
100
AcDbEntity
  8
OUTLINE
100
AcDbLine
 10
-369.5000000000145
 20
609.8310002344017
 30
0.0
 11
-369.5000000000145
 21
609.3699616599093
 31
0.0
  0
LINE
  5
1BC2
330
85F
100
AcDbEntity
  8
OUTLINE
100
AcDbLine
 10
-369.5000000000145
 20
610.6104230978083
 30
0.0
 11
368.4999999999853
 21
610.6104230978274
 31
0.0
  0
LINE
  5
1BC3
330
85F
100
AcDbEntity
  8
OUTLINE
100
AcDbLine
 10
-369.5000000000145
 20
609.8310002344017
 30
0.0
 11
-369.5000000000145
 21
610.6104230978083
 31
0.0
  0
LINE
  5
1BC4
330
85F
100
AcDbEntity
  8
OUTLINE
100
AcDbLine
 10
368.4999999999853
 20
610.6104230978266
 30
0.0
 11
368.4999999999853
 21
610.3895769021812
 31
0.0
  0
LINE
  5
1BC5
330
85F
100
AcDbEntity
  8
OUTLINE
100
AcDbLine
 10
353.5
 20
609.831000234421
 30
0.0
 11
-369.5000000000145
 21
609.8310002344017
 31
0.0
  0
LINE
  5
1BC6
330
85F
100
AcDbEntity
  8
OUTLINE
100
AcDbLine
 10
367.4742364686317
 20
437.6677309871888
 30
0.0
 11
354.5257635310263
 21
437.6677309871879
 31
0.0
  0
LINE
  5
1BC7
330
85F
100
AcDbEntity
  8
OUTLINE
100
AcDbLine
 10
350.4999999998254
 20
437.6677309871879
 30
0.0
 11
-351.5000000001746
 21
437.6677309871698
 31
0.0
  0
LINE
  5
1BC8
330
85F
100
AcDbEntity
  8
OUTLINE
100
AcDbLine
 10
-351.5000000001746
 20
437.7543335275491
 30
0.0
 11
350.4999999998254
 21
437.7543335275673
 31
0.0
  0
LINE
  5
1BC9
330
85F
100
AcDbEntity
  8
OUTLINE
100
AcDbLine
 10
354.5340817642645
 20
437.7543335275673
 30
0.0
 11
367.4659182353935
 21
437.7543335275673
 31
0.0
  0
LINE
  5
1D48
330
85F
100
AcDbEntity
  8
SIZE
  6
Continuous
100
AcDbLine
 10
-24.00000000001455
 20
650.1104230978185
 30
0.0
 11
-24.00000000001455
 21
746.5786958008004
 31
0.0
  0
LINE
  5
1D49
330
85F
100
AcDbEntity
  8
SIZE
  6
Continuous
100
AcDbLine
 10
279.9999999999855
 20
650.1104230978257
 30
0.0
 11
279.9999999999855
 21
746.5786958008004
 31
0.0
  0
LINE
  5
1D4A
330
85F
100
AcDbEntity
  8
SIZE
  6
Continuous
100
AcDbLine
 10
-12.00000000001454
 20
726.5786958008008
 30
0.0
 11
267.9999999999854
 21
726.5786958008008
 31
0.0
  0
INSERT
  5
1D4B
330
85F
100
AcDbEntity
  8
SIZE
  6
Continuous
100
AcDbBlockReference
  2
_DOTBLANK
 10
-24.00000000001455
 20
726.5786958008008
 30
0.0
 41
12.0
 42
12.0
 43
12.0
 50
180.0
  0
INSERT
  5
1D4C
330
85F
100
AcDbEntity
  8
SIZE
  6
Continuous
100
AcDbBlockReference
  2
_DOTBLANK
 10
279.9999999999855
 20
726.5786958008008
 30
0.0
 41
12.0
 42
12.0
 43
12.0
  0
MTEXT
  5
1D4D
330
85F
100
AcDbEntity
  8
SIZE
  6
Continuous
100
AcDbMText
 10
127.9999999999854
 20
768.5786958008008
 30
0.0
 40
64.0
 41
0.0
 71
     5
 72
     1
  1
\A1;304
 73
     1
 44
1.0
1001
ACAD
1000
MTEXTBEGIN
1070
    73
1070
     1
1070
    44
1040
1.0
1070
    74
1070
     0
1000
MTEXTEND
  0
LINE
  5
1D4E
330
85F
100
AcDbEntity
  8
SIZE
  6
Continuous
100
AcDbLine
 10
-352.8000000000174
 20
650.1104230978094
 30
0.0
 11
-352.8000000000174
 21
746.5786958008004
 31
0.0
  0
LINE
  5
1D4F
330
85F
100
AcDbEntity
  8
SIZE
  6
Continuous
100
AcDbLine
 10
-24.00000000001455
 20
650.1104230978185
 30
0.0
 11
-24.00000000001455
 21
746.5786958008004
 31
0.0
  0
LINE
  5
1D50
330
85F
100
AcDbEntity
  8
SIZE
  6
Continuous
100
AcDbLine
 10
-340.8000000000175
 20
726.5786958008008
 30
0.0
 11
-36.00000000001454
 21
726.5786958008008
 31
0.0
  0
INSERT
  5
1D51
330
85F
100
AcDbEntity
  8
SIZE
  6
Continuous
100
AcDbBlockReference
  2
_DOTBLANK
 10
-352.8000000000174
 20
726.5786958008008
 30
0.0
 41
12.0
 42
12.0
 43
12.0
 50
180.0
  0
INSERT
  5
1D52
330
85F
100
AcDbEntity
  8
SIZE
  6
Continuous
100
AcDbBlockReference
  2
_DOTBLANK
 10
-24.00000000001455
 20
726.5786958008008
 30
0.0
 41
12.0
 42
12.0
 43
12.0
  0
MTEXT
  5
1D53
330
85F
100
AcDbEntity
  8
SIZE
  6
Continuous
100
AcDbMText
 10
-188.400000000016
 20
768.5786958008008
 30
0.0
 40
64.0
 41
0.0
 71
     5
 72
     1
  1
\A1;329
 73
     1
 44
1.0
1001
ACAD
1000
MTEXTBEGIN
1070
    73
1070
     1
1070
    44
1040
1.0
1070
    74
1070
     0
1000
MTEXTEND
  0
LINE
  5
1D54
330
85F
100
AcDbEntity
  8
SIZE
  6
Continuous
100
AcDbLine
 10
-386.5000000000145
 20
627.6104230978094
 30
0.0
 11
-668.2614020234102
 21
627.6104230978094
 31
0.0
  0
LINE
  5
1D55
330
85F
100
AcDbEntity
  8
SIZE
  6
Continuous
100
AcDbLine
 10
-389.5999999999986
 20
-627.6104230978178
 30
0.0
 11
-668.2614020234105
 21
-627.6104230978178
 31
0.0
  0
LINE
  5
1D56
330
85F
100
AcDbEntity
  8
SIZE
  6
Continuous
100
AcDbLine
 10
-648.2614020234102
 20
615.6104230978094
 30
0.0
 11
-648.2614020234104
 21
-615.6104230978178
 31
0.0
  0
INSERT
  5
1D57
330
85F
100
AcDbEntity
  8
SIZE
  6
Continuous
100
AcDbBlockReference
  2
_DOTBLANK
 10
-648.2614020234102
 20
627.6104230978094
 30
0.0
 41
12.0
 42
12.0
 43
12.0
 50
90.0
  0
INSERT
  5
1D58
330
85F
100
AcDbEntity
  8
SIZE
  6
Continuous
100
AcDbBlockReference
  2
_DOTBLANK
 10
-648.2614020234104
 20
-627.6104230978178
 30
0.0
 41
12.0
 42
12.0
 43
12.0
 50
270.0
  0
MTEXT
  5
1D59
330
85F
100
AcDbEntity
  8
SIZE
  6
Continuous
100
AcDbMText
 10
-690.2614020234101
 20
-0.0000000000043889
 30
0.0
 40
64.0
 41
0.0
 71
     5
 72
     1
  1
\A1;1255
 11
0.0000000000000001
 21
1.0
 31
0.0
 73
     1
 44
1.0
1001
ACAD
1000
MTEXTBEGIN
1070
    73
1070
     1
1070
    44
1040
1.0
1070
    74
1070
     0
1000
MTEXTEND
  0
LINE
  5
1D5A
330
85F
100
AcDbEntity
  8
SIZE
  6
Continuous
100
AcDbLine
 10
-388.5
 20
42.5895769021822
 30
0.0
 11
-537.1787079036656
 21
42.58957690218226
 31
0.0
  0
LINE
  5
1D5B
330
85F
100
AcDbEntity
  8
SIZE
  6
Continuous
100
AcDbLine
 10
-388.5
 20
-487.8104230978178
 30
0.0
 11
-537.1787079036656
 21
-487.8104230978178
 31
0.0
  0
LINE
  5
1D5C
330
85F
100
AcDbEntity
  8
SIZE
  6
Continuous
100
AcDbLine
 10
-517.1787079036656
 20
30.58957690218225
 30
0.0
 11
-517.1787079036659
 21
-475.8104230978178
 31
0.0
  0
INSERT
  5
1D5D
330
85F
100
AcDbEntity
  8
SIZE
  6
Continuous
100
AcDbBlockReference
  2
_DOTBLANK
 10
-517.1787079036656
 20
42.58957690218225
 30
0.0
 41
12.0
 42
12.0
 43
12.0
 50
90.0
  0
INSERT
  5
1D5E
330
85F
100
AcDbEntity
  8
SIZE
  6
Continuous
100
AcDbBlockReference
  2
_DOTBLANK
 10
-517.1787079036659
 20
-487.8104230978178
 30
0.0
 41
12.0
 42
12.0
 43
12.0
 50
270.0
  0
MTEXT
  5
1D5F
330
85F
100
AcDbEntity
  8
SIZE
  6
Continuous
100
AcDbMText
 10
-559.1787079036656
 20
-222.6104230978179
 30
0.0
 40
64.0
 41
0.0
 71
     5
 72
     1
  1
\A1;530
 11
0.0000000000000001
 21
1.0
 31
0.0
 73
     1
 44
1.0
1001
ACAD
1000
MTEXTBEGIN
1070
    73
1070
     1
1070
    44
1040
1.0
1070
    74
1070
     0
1000
MTEXTEND
  0
LINE
  5
1D60
330
85F
100
AcDbEntity
  8
SIZE
  6
Continuous
100
AcDbLine
 10
-388.5
 20
450.5895769021831
 30
0.0
 11
-537.1787079036656
 21
450.5895769021831
 31
0.0
  0
LINE
  5
1D61
330
85F
100
AcDbEntity
  8
SIZE
  6
Continuous
100
AcDbLine
 10
-388.5
 20
42.5895769021822
 30
0.0
 11
-537.1787079036656
 21
42.58957690218226
 31
0.0
  0
LINE
  5
1D62
330
85F
100
AcDbEntity
  8
SIZE
  6
Continuous
100
AcDbLine
 10
-517.1787079036656
 20
438.5895769021831
 30
0.0
 11
-517.1787079036659
 21
54.58957690218224
 31
0.0
  0
INSERT
  5
1D63
330
85F
100
AcDbEntity
  8
SIZE
  6
Continuous
100
AcDbBlockReference
  2
_DOTBLANK
 10
-517.1787079036656
 20
450.5895769021831
 30
0.0
 41
12.0
 42
12.0
 43
12.0
 50
90.0
  0
INSERT
  5
1D64
330
85F
100
AcDbEntity
  8
SIZE
  6
Continuous
100
AcDbBlockReference
  2
_DOTBLANK
 10
-517.1787079036659
 20
42.58957690218225
 30
0.0
 41
12.0
 42
12.0
 43
12.0
 50
270.0
  0
MTEXT
  5
1D65
330
85F
100
AcDbEntity
  8
SIZE
  6
Continuous
100
AcDbMText
 10
-559.1787079036659
 20
246.5895769021826
 30
0.0
 40
64.0
 41
0.0
 71
     5
 72
     1
  1
\A1;408
 11
0.0000000000000001
 21
1.0
 31
0.0
 73
     1
 44
1.0
1001
ACAD
1000
MTEXTBEGIN
1070
    73
1070
     1
1070
    44
1040
1.0
1070
    74
1070
     0
1000
MTEXTEND
  0
TEXT
  5
1D66
330
85F
100
AcDbEntity
  8
NOTE
  6
Continuous
100
AcDbText
 10
496.7628007872263
 20
-374.2833280398048
 30
0.0
 40
64.0
  1
9×φ6
 41
0.9
100
AcDbText
1001
ACAD
1000
MTEXTBEGIN
1070
    73
1070
     1
1070
    44
1040
1.0
1070
    74
1070
     0
1000
MTEXTEND
  0
INSERT
  5
1D67
330
85F
100
AcDbEntity
  8
NOTE
100
AcDbBlockReference
  2
_OPEN30
 10
361.0000000000145
 20
-487.8104230978173
 30
0.0
 41
12.0
 42
12.0
 43
12.0
 50
232.325890769332
1001
ACAD
1000
DSTYLE
1002
{
1070
    41
1040
12.0
1070
    42
1040
20.0
1070
    43
1040
200.0
1070
    44
1040
20.0
1070
    73
1070
     0
1070
    74
1070
     0
1070
    77
1070
     1
1070
    78
1070
     8
1070
   140
1040
64.0
1070
   147
1040
50.0
1070
   172
1070
     1
1070
   174
1070
     1
1070
   275
1070
     0
1070
   284
1070
     0
1070
   285
1070
     0
1070
   286
1070
     0
1070
   341
1005
AB7
1070
   342
1005
AB2
1002
}
  0
LWPOLYLINE
  5
1D68
330
85F
100
AcDbEntity
  8
NOTE
100
AcDbPolyline
 90
        3
 70
     0
 43
0.0
 10
368.3340332839597
 20
-478.312425635721
 10
434.7628007872263
 20
-392.2833280398048
 10
725.517086501512
 20
-392.2833280398048
1001
ACAD
1000
DSTYLE
1002
{
1070
    41
1040
12.0
1070
    42
1040
20.0
1070
    43
1040
200.0
1070
    44
1040
20.0
1070
    73
1070
     0
1070
    74
1070
     0
1070
    77
1070
     1
1070
    78
1070
     8
1070
   140
1040
64.0
1070
   147
1040
50.0
1070
   172
1070
     1
1070
   174
1070
     1
1070
   275
1070
     0
1070
   284
1070
     0
1070
   285
1070
     0
1070
   286
1070
     0
1070
   341
1005
AB7
1070
   342
1005
AB2
1002
}
  0
LINE
  5
1D69
330
85F
100
AcDbEntity
  8
SIZE
  6
Continuous
100
AcDbLine
 10
-361.0
 20
-515.3104230978178
 30
0.0
 11
-361.0
 21
-792.2186128916205
 31
0.0
  0
LINE
  5
1D6A
330
85F
100
AcDbEntity
  8
SIZE
  6
Continuous
100
AcDbLine
 10
361.0000000000145
 20
-515.3104230978174
 30
0.0
 11
361.0000000000145
 21
-792.2186128916205
 31
0.0
  0
LINE
  5
1D6B
330
85F
100
AcDbEntity
  8
SIZE
  6
Continuous
100
AcDbLine
 10
-349.0
 20
-772.2186128916205
 30
0.0
 11
349.0000000000145
 21
-772.2186128916205
 31
0.0
  0
INSERT
  5
1D6C
330
85F
100
AcDbEntity
  8
SIZE
  6
Continuous
100
AcDbBlockReference
  2
_DOTBLANK
 10
-361.0
 20
-772.2186128916205
 30
0.0
 41
12.0
 42
12.0
 43
12.0
 50
180.0
  0
INSERT
  5
1D6D
330
85F
100
AcDbEntity
  8
SIZE
  6
Continuous
100
AcDbBlockReference
  2
_DOTBLANK
 10
361.0000000000145
 20
-772.2186128916205
 30
0.0
 41
12.0
 42
12.0
 43
12.0
  0
MTEXT
  5
1D6E
330
85F
100
AcDbEntity
  8
SIZE
  6
Continuous
100
AcDbMText
 10
0.0000000000072785
 20
-730.2186128916205
 30
0.0
 40
64.0
 41
0.0
 71
     5
 72
     1
  1
\A1;722
 73
     1
 44
1.0
1001
ACAD
1000
MTEXTBEGIN
1070
    73
1070
     1
1070
    44
1040
1.0
1070
    74
1070
     0
1000
MTEXTEND
  0
LINE
  5
1D6F
330
85F
100
AcDbEntity
  8
SIZE
  6
Continuous
100
AcDbLine
 10
-370.5
 20
-646.400662082543
 30
0.0
 11
-370.5
 21
-891.3921973806122
 31
0.0
  0
LINE
  5
1D70
330
85F
100
AcDbEntity
  8
SIZE
  6
Continuous
100
AcDbLine
 10
369.5000000000074
 20
-647.6104230978176
 30
0.0
 11
369.5000000000074
 21
-891.3921973806122
 31
0.0
  0
LINE
  5
1D71
330
85F
100
AcDbEntity
  8
SIZE
  6
Continuous
100
AcDbLine
 10
-358.5
 20
-871.3921973806121
 30
0.0
 11
357.5000000000073
 21
-871.3921973806121
 31
0.0
  0
INSERT
  5
1D72
330
85F
100
AcDbEntity
  8
SIZE
  6
Continuous
100
AcDbBlockReference
  2
_DOTBLANK
 10
-370.5
 20
-871.3921973806121
 30
0.0
 41
12.0
 42
12.0
 43
12.0
 50
180.0
  0
INSERT
  5
1D73
330
85F
100
AcDbEntity
  8
SIZE
  6
Continuous
100
AcDbBlockReference
  2
_DOTBLANK
 10
369.5000000000074
 20
-871.3921973806121
 30
0.0
 41
12.0
 42
12.0
 43
12.0
  0
MTEXT
  5
1D74
330
85F
100
AcDbEntity
  8
SIZE
  6
Continuous
100
AcDbMText
 10
-0.4999999999927215
 20
-829.3921973806121
 30
0.0
 40
64.0
 41
0.0
 71
     5
 72
     1
  1
\A1;740
 73
     1
 44
1.0
1001
ACAD
1000
MTEXTBEGIN
1070
    73
1070
     1
1070
    44
1040
1.0
1070
    74
1070
     0
1000
MTEXTEND
  0
ENDSEC
  0
SECTION
  2
OBJECTS
  0
DICTIONARY
  5
84D
330
0
100
AcDbDictionary
281
     1
  3
ACAD_2007HEADERVARS_RT
350
1E62
  3
ACAD_COLOR
350
116D
  3
ACAD_GROUP
350
84E
  3
ACAD_LAYOUT
350
85A
  3
ACAD_MATERIAL
350
116C
  3
ACAD_MLEADERSTYLE
350
13EA
  3
ACAD_MLINESTYLE
350
857
  3
ACAD_PLOTSETTINGS
350
859
  3
ACAD_PLOTSTYLENAME
350
B82
  3
ACAD_SCALELIST
350
13C8
  3
ACAD_TABLESTYLE
350
116E
  3
ACAD_VISUALSTYLE
350
13B7
  3
AcadDim
350
1003
  3
ACDB_RECOMPOSE_DATA
350
144A
  3
AcDbVariableDictionary
350
B87
  3
AcmDictionary
350
1234
  3
AMG
350
1173
  3
AMGSNAPSETTINGS
350
128A
  3
DWGPROPS
350
1E61
1001
ACAD
1000
TREAT_AS_HARD
1070
     0
  0
DICTIONARY
  5
15AB
330
843
100
AcDbDictionary
280
     1
281
     1
  3
ACAD_LAYERSTATES
360
15AC
  0
DICTIONARY
  5
142F
330
851
100
AcDbDictionary
280
     1
281
     1
  3
ADSK_XREC_LAYER_RECONCILED
360
1430
  0
DICTIONARY
  5
1431
330
863
100
AcDbDictionary
280
     1
281
     1
  3
ADSK_XREC_LAYER_RECONCILED
360
1432
  0
DICTIONARY
  5
1433
330
866
100
AcDbDictionary
280
     1
281
     1
  3
ADSK_XREC_LAYER_RECONCILED
360
1434
  0
DICTIONARY
  5
1435
330
867
100
AcDbDictionary
280
     1
281
     1
  3
ADSK_XREC_LAYER_RECONCILED
360
1436
  0
DICTIONARY
  5
1437
330
868
100
AcDbDictionary
280
     1
281
     1
  3
ADSK_XREC_LAYER_RECONCILED
360
1438
  0
DICTIONARY
  5
1439
330
869
100
AcDbDictionary
280
     1
281
     1
  3
ADSK_XREC_LAYER_RECONCILED
360
143A
  0
DICTIONARY
  5
143B
330
86B
100
AcDbDictionary
280
     1
281
     1
  3
ADSK_XREC_LAYER_RECONCILED
360
143C
  0
DICTIONARY
  5
143D
330
86C
100
AcDbDictionary
280
     1
281
     1
  3
ADSK_XREC_LAYER_RECONCILED
360
143E
  0
DICTIONARY
  5
143F
330
86D
100
AcDbDictionary
280
     1
281
     1
  3
ADSK_XREC_LAYER_RECONCILED
360
1440
  0
DICTIONARY
  5
1441
330
86E
100
AcDbDictionary
280
     1
281
     1
  3
ADSK_XREC_LAYER_RECONCILED
360
1442
  0
DICTIONARY
  5
1443
330
86F
100
AcDbDictionary
280
     1
281
     1
  3
ADSK_XREC_LAYER_RECONCILED
360
1444
  0
DICTIONARY
  5
B4F
330
85F
100
AcDbDictionary
280
     1
281
     1
  3
ACAD_INDEX
360
1291
  3
ACAD_LAYOUTSELFREF
360
B50
  3
ACAD_SORTENTS
360
1399
  0
DICTIONARY
  5
B4D
330
85B
100
AcDbDictionary
280
     1
281
     1
  3
ACAD_LAYOUTSELFREF
360
B4E
  0
DICTIONARY
  5
1E62
102
{ACAD_REACTORS
330
84D
102
}
330
84D
100
AcDbDictionary
281
     1
  3
DIMARCSYM
350
1E63
  3
DIMLTEX1
350
1E65
  3
DIMLTEX2
350
1E66
  3
DIMLTYPE
350
1E64
  0
DICTIONARY
  5
116D
102
{ACAD_REACTORS
330
84D
102
}
330
84D
100
AcDbDictionary
281
     1
  0
DICTIONARY
  5
84E
102
{ACAD_REACTORS
330
84D
102
}
330
84D
100
AcDbDictionary
281
     1
1001
ACAD
1000
TREAT_AS_HARD
1070
     0
  0
DICTIONARY
  5
85A
102
{ACAD_REACTORS
330
84D
102
}
330
84D
100
AcDbDictionary
281
     1
  3
Model
350
B84
  3
ﾚｲｱｳﾄ1
350
B85
1001
ACAD
1000
TREAT_AS_HARD
1070
     0
  0
DICTIONARY
  5
116C
102
{ACAD_REACTORS
330
84D
102
}
330
84D
100
AcDbDictionary
281
     1
  3
ByBlock
350
13A7
  3
ByLayer
350
139F
  3
Global
350
13AF
  0
DICTIONARY
  5
13EA
102
{ACAD_REACTORS
330
84D
102
}
330
84D
100
AcDbDictionary
281
     1
  3
Standard
350
13EB
  0
DICTIONARY
  5
857
102
{ACAD_REACTORS
330
84D
102
}
330
84D
100
AcDbDictionary
281
     1
  3
STANDARD
350
858
1001
ACAD
1000
TREAT_AS_HARD
1070
     0
  0
DICTIONARY
  5
859
102
{ACAD_REACTORS
330
84D
102
}
330
84D
100
AcDbDictionary
281
     1
1001
ACAD
1000
TREAT_AS_HARD
1070
     0
  0
ACDBDICTIONARYWDFLT
  5
B82
102
{ACAD_REACTORS
330
84D
102
}
330
84D
100
AcDbDictionary
281
     1
  3
Normal
350
B83
100
AcDbDictionaryWithDefault
340
B83
  0
DICTIONARY
  5
13C8
102
{ACAD_REACTORS
330
84D
102
}
330
84D
100
AcDbDictionary
281
     1
  3
A0
350
13C9
  3
A1
350
13CA
  3
A2
350
13CB
  3
A3
350
13CC
  3
A4
350
13CD
  3
A5
350
13CE
  3
A6
350
13CF
  3
A7
350
13D0
  3
A8
350
13D1
  3
A9
350
13D2
  3
B0
350
13D3
  3
B1
350
13D4
  3
B2
350
13D5
  3
B3
350
13D6
  3
B4
350
13D7
  3
B5
350
13D8
  3
B6
350
13D9
  3
B7
350
13DA
  3
B8
350
13DB
  3
B9
350
13DC
  3
C0
350
13DD
  3
C1
350
13DE
  3
C2
350
13DF
  3
C3
350
13E0
  3
C4
350
13E1
  3
C5
350
13E2
  3
C6
350
13E3
  3
C7
350
13E4
  3
C8
350
13E5
  3
C9
350
13E6
  3
D0
350
13E7
  3
D1
350
13E8
  3
D2
350
13E9
  0
DICTIONARY
  5
116E
102
{ACAD_REACTORS
330
84D
102
}
330
84D
100
AcDbDictionary
281
     1
  3
Standard
350
116F
  0
DICTIONARY
  5
13B7
102
{ACAD_REACTORS
330
84D
102
}
330
84D
100
AcDbDictionary
281
     1
  3
2dWireframe
350
13BD
  3
3D Hidden
350
13BF
  3
3dWireframe
350
13BE
  3
Basic
350
13BC
  3
Brighten
350
13C3
  3
ColorChange
350
13C7
  3
Conceptual
350
13C0
  3
Dim
350
13C2
  3
Facepattern
350
13C6
  3
Flat
350
13B8
  3
FlatWithEdges
350
13B9
  3
Gouraud
350
13BA
  3
GouraudWithEdges
350
13BB
  3
Linepattern
350
13C5
  3
Realistic
350
13C1
  3
Thicken
350
13C4
  0
XRECORD
  5
1003
102
{ACAD_REACTORS
330
84D
102
}
330
84D
100
AcDbXrecord
280
     1
 90
   990106
  3

 60
     0
 61
     0
 62
     1
 63
     3
 64
     0
 65
     0
 66
     0
 67
     3
 68
     1
 69
     0
 70
     0
 71
     0
 72
     0
 40
0.0
170
     0
340
1002
  0
XRECORD
  5
144A
102
{ACAD_REACTORS
330
84D
102
}
330
84D
100
AcDbXrecord
280
     1
 90
        1
330
116F
  0
DICTIONARY
  5
B87
102
{ACAD_REACTORS
330
84D
102
}
330
84D
100
AcDbDictionary
281
     1
  3
CANNOSCALE
350
1446
  3
CMLEADERSTYLE
350
1445
  3
CTABLESTYLE
350
129F
  3
DIMASSOC
350
B88
  3
INDEXCTL
350
12A0
  3
PROJECTNAME
350
12A1
  3
SORTENTS
350
1447
  0
DICTIONARY
  5
1234
102
{ACAD_REACTORS
330
84D
102
}
330
84D
100
AcDbDictionary
281
     1
  3
AcmStdDictionary
350
1240
  3
AMDTSECTSYM_ARROWCOLOR
350
1260
  0
DICTIONARY
  5
1173
102
{ACAD_REACTORS
330
84D
102
}
330
84D
100
AcDbDictionary
281
     1
  3
AcMgSettings
350
1174
  0
DICTIONARY
  5
128A
102
{ACAD_REACTORS
330
84D
102
}
330
84D
100
AcDbDictionary
281
     1
  3
DIMENSION
350
128F
  3
FEA
350
128E
  3
HATCH (1)
350
128B
  3
HATCH (2)
350
128C
  3
SIMPLE WELD
350
1290
  3
SYMBOLS
350
128D
  0
XRECORD
  5
1E61
102
{ACAD_REACTORS
330
84D
102
}
330
84D
100
AcDbXrecord
280
     1
  1
DWGPROPS COOKIE
  2

  3

  4

  6

  7

  8
a090053
  9

300
AmdtFileType=84
301
=
302
=
303
=
304
=
305
=
306
=
307
=
308
=
309
=
 40
0.8176953009259259
 41
2452321.396199653
 42
2457113.654898033
  1

 90
        1
  0
DICTIONARY
  5
15AC
102
{ACAD_REACTORS
330
15AB
102
}
330
15AB
100
AcDbDictionary
281
     1
  0
XRECORD
  5
1430
102
{ACAD_REACTORS
330
142F
102
}
330
142F
100
AcDbXrecord
280
     1
290
     1
  0
XRECORD
  5
1432
102
{ACAD_REACTORS
330
1431
102
}
330
1431
100
AcDbXrecord
280
     1
290
     1
  0
XRECORD
  5
1434
102
{ACAD_REACTORS
330
1433
102
}
330
1433
100
AcDbXrecord
280
     1
290
     1
  0
XRECORD
  5
1436
102
{ACAD_REACTORS
330
1435
102
}
330
1435
100
AcDbXrecord
280
     1
290
     1
  0
XRECORD
  5
1438
102
{ACAD_REACTORS
330
1437
102
}
330
1437
100
AcDbXrecord
280
     1
290
     1
  0
XRECORD
  5
143A
102
{ACAD_REACTORS
330
1439
102
}
330
1439
100
AcDbXrecord
280
     1
290
     1
  0
XRECORD
  5
143C
102
{ACAD_REACTORS
330
143B
102
}
330
143B
100
AcDbXrecord
280
     1
290
     1
  0
XRECORD
  5
143E
102
{ACAD_REACTORS
330
143D
102
}
330
143D
100
AcDbXrecord
280
     1
290
     1
  0
XRECORD
  5
1440
102
{ACAD_REACTORS
330
143F
102
}
330
143F
100
AcDbXrecord
280
     1
290
     1
  0
XRECORD
  5
1442
102
{ACAD_REACTORS
330
1441
102
}
330
1441
100
AcDbXrecord
280
     1
290
     1
  0
XRECORD
  5
1444
102
{ACAD_REACTORS
330
1443
102
}
330
1443
100
AcDbXrecord
280
     1
290
     1
  0
DICTIONARY
  5
1291
102
{ACAD_REACTORS
330
B4F
102
}
330
B4F
100
AcDbDictionary
281
     1
  3
*A1
350
1292
  0
XRECORD
  5
B50
102
{ACAD_REACTORS
330
B4F
102
}
330
B4F
100
AcDbXrecord
280
     1
340
85F
  0
SORTENTSTABLE
  5
1399
102
{ACAD_REACTORS
330
B4F
102
}
330
B4F
100
AcDbSortentsTable
330
85F
331
1D66
  5
1B6A
331
1D62
  5
1B48
331
1ABC
  5
1ABC
331
1AB8
  5
1AB8
331
1AF7
  5
1AF7
331
1BAC
  5
1D57
331
1B32
  5
1B32
331
1B6D
  5
1B9A
331
1AB4
  5
1AB4
331
1AF3
  5
1AF3
331
1BA8
  5
1D53
331
1B2E
  5
1B2E
331
1B2A
  5
1B2A
331
1B69
  5
1B96
331
1BA4
  5
1D4F
331
1AB0
  5
1AB0
331
1BA0
  5
1D4B
331
1D5E
  5
1B50
331
1D5A
  5
1B4C
331
1D56
  5
1B54
331
1D52
  5
1B3B
331
1AEF
  5
1AEF
331
1BC9
  5
1D74
331
1AAC
  5
1AAC
331
1AEB
  5
1AEB
331
1B26
  5
1B26
331
1B65
  5
1B92
331
1AA8
  5
1AA8
331
1AE7
  5
1AE7
331
1B9C
  5
1BC9
331
1B22
  5
1B22
331
1B61
  5
1B8E
331
1B5D
  5
1B8A
331
1AA4
  5
1AA4
331
1AE3
  5
1AE3
331
1B98
  5
1BC5
331
1B1E
  5
1B1E
331
1B1A
  5
1B1A
331
1B59
  5
1B86
331
1B94
  5
1BC1
331
1AA0
  5
1AA0
331
1B90
  5
1BBD
331
1D4E
  5
1B37
331
1D4A
  5
1B3F
331
1ADF
  5
1ADF
331
1ADB
  5
1ADB
331
1B16
  5
1B16
331
1B55
  5
1B82
331
1A9C
  5
1A9C
331
1A98
  5
1A98
331
1AD7
  5
1AD7
331
1B8C
  5
1BB9
331
1B12
  5
1B12
331
1B51
  5
1B7E
331
1B4D
  5
1B7A
331
1A94
  5
1A94
331
1AD3
  5
1AD3
331
1B88
  5
1BB5
331
1BC7
  5
1D72
331
1B0E
  5
1B0E
331
1B0A
  5
1B0A
331
1B49
  5
1B76
331
1B84
  5
1BB1
331
1BC3
  5
1D6E
331
1B80
  5
1BAD
331
1D71
  5
1B64
331
1D6D
  5
1B5F
331
1D69
  5
1B59
331
1ACF
  5
1ACF
331
1ACB
  5
1ACB
331
1BBF
  5
1D6A
331
1B06
  5
1B06
331
1B45
  5
1B72
331
958
  5
958
331
1AC7
  5
1AC7
331
1BBB
  5
1D66
331
1B02
  5
1B02
331
1B41
  5
1B6E
331
1B7C
  5
1BA9
331
954
  5
954
331
1AC3
  5
1AC3
331
1B78
  5
1BA5
331
1BB7
  5
1D62
331
1AFE
  5
1AFE
331
1AFA
  5
1AFA
331
1B74
  5
1BA1
331
1BB3
  5
1D5E
331
1B70
  5
1B9D
331
1D65
  5
1B4B
331
1D61
  5
1B47
331
1ABF
  5
1ABF
331
1ABB
  5
1ABB
331
1BAF
  5
1D5A
331
1AB7
  5
1AB7
331
1AF6
  5
1AF6
331
1BAB
  5
1D56
331
1B31
  5
1B31
331
1B2D
  5
1B2D
331
1B6C
  5
1B99
331
1BA7
  5
1D52
331
1AB3
  5
1AB3
331
1AF2
  5
1AF2
331
1B29
  5
1B29
331
1B68
  5
1B95
331
1BA3
  5
1D4E
331
1D5D
  5
1B4F
331
1D59
  5
1B57
331
1D55
  5
1B53
331
1D51
  5
1B3A
331
1AEE
  5
1AEE
331
1AAF
  5
1AAF
331
1BC8
  5
1D73
331
1AAB
  5
1AAB
331
1AEA
  5
1AEA
331
1B25
  5
1B25
331
1B64
  5
1B91
331
1B9F
  5
1D4A
331
1B60
  5
1B8D
331
1AA7
  5
1AA7
331
1AE6
  5
1AE6
331
1B9B
  5
1BC8
331
1B21
  5
1B21
331
1B5C
  5
1B89
331
1AA3
  5
1AA3
331
1AE2
  5
1AE2
331
1B97
  5
1BC4
331
1B1D
  5
1B1D
331
1B19
  5
1B19
331
1B58
  5
1B85
331
1B93
  5
1BC0
331
1D4D
  5
1B42
331
1D49
  5
1B3E
331
1ADE
  5
1ADE
331
1A9F
  5
1A9F
331
1A9B
  5
1A9B
331
1ADA
  5
1ADA
331
1B15
  5
1B15
331
1B54
  5
1B81
331
1B8F
  5
1BBC
331
1A97
  5
1A97
331
1AD6
  5
1AD6
331
1B8B
  5
1BB8
331
1B11
  5
1B11
331
1B50
  5
1B7D
331
1B4C
  5
1B79
331
1A93
  5
1A93
331
1AD2
  5
1AD2
331
1B87
  5
1BB4
331
1BC6
  5
1D71
331
1B0D
  5
1B0D
331
1B09
  5
1B09
331
1B48
  5
1B75
331
1B83
  5
1BB0
331
1BC2
  5
1D6D
331
1D74
  5
1B67
331
1D70
  5
1B63
331
1D6C
  5
1B5E
331
1D68
  5
1B69
331
1ACE
  5
1ACE
331
1ACA
  5
1ACA
331
1BBE
  5
1D69
331
1B05
  5
1B05
331
1B44
  5
1B71
331
1B7F
  5
1BAC
331
957
  5
957
331
1AC6
  5
1AC6
331
1B7B
  5
1BA8
331
1BBA
  5
1D65
331
1B01
  5
1B01
331
1B40
  5
1B6D
331
953
  5
953
331
1AC2
  5
1AC2
331
1B77
  5
1BA4
331
1BB6
  5
1D61
331
1AFD
  5
1AFD
331
1AF9
  5
1AF9
331
1B73
  5
1BA0
331
1BB2
  5
1D5D
331
1D64
  5
1B4A
331
1D60
  5
1B46
331
1ABE
  5
1ABE
331
1ABA
  5
1ABA
331
1BAE
  5
1D59
331
1B34
  5
1B34
331
1B6F
  5
1B9C
331
1AB6
  5
1AB6
331
1AF5
  5
1AF5
331
1BAA
  5
1D55
331
1B30
  5
1B30
331
1B2C
  5
1B2C
331
1B6B
  5
1B98
331
1BA6
  5
1D51
331
1AB2
  5
1AB2
331
1AF1
  5
1AF1
331
1B28
  5
1B28
331
1BA2
  5
1D4D
331
1D5C
  5
1B4E
331
1D58
  5
1B56
331
1D54
  5
1B52
331
1D50
  5
1B39
331
1AED
  5
1AED
331
1B67
  5
1B94
331
1AAE
  5
1AAE
331
1AAA
  5
1AAA
331
1AE9
  5
1AE9
331
1B24
  5
1B24
331
1B63
  5
1B90
331
1B9E
  5
1D49
331
1B5F
  5
1B8C
331
1AA6
  5
1AA6
331
1AE5
  5
1AE5
331
1B9A
  5
1BC7
331
1B20
  5
1B20
331
1B1C
  5
1B1C
331
1B5B
  5
1B88
331
1B96
  5
1BC3
331
1AA2
  5
1AA2
331
1AE1
  5
1AE1
331
1B18
  5
1B18
331
1B92
  5
1BBF
331
1D4C
  5
1B41
331
1D48
  5
1B3D
331
1ADD
  5
1ADD
331
1B57
  5
1B84
331
1A9E
  5
1A9E
331
1A9A
  5
1A9A
331
1AD9
  5
1AD9
331
1B14
  5
1B14
331
1B53
  5
1B80
331
1B8E
  5
1BBB
331
1B4F
  5
1B7C
331
1A96
  5
1A96
331
1AD5
  5
1AD5
331
1B8A
  5
1BB7
331
1B10
  5
1B10
331
1B4B
  5
1B78
331
1A92
  5
1A92
331
1AD1
  5
1AD1
331
1B86
  5
1BB3
331
1BC5
  5
1D70
331
1B0C
  5
1B0C
331
1B08
  5
1B08
331
1B82
  5
1BAF
331
1BC1
  5
1D6C
331
1D73
  5
1B66
331
1D6F
  5
1B62
331
1D6B
  5
1B5D
331
1ACD
  5
1ACD
331
1B47
  5
1B74
331
1AC9
  5
1AC9
331
1BBD
  5
1D68
331
1B04
  5
1B04
331
1B43
  5
1B70
331
1B7E
  5
1BAB
331
956
  5
956
331
1AC5
  5
1AC5
331
1B7A
  5
1BA7
331
1BB9
  5
1D64
331
1B00
  5
1B00
331
1B3F
  5
1B6C
331
1AC1
  5
1AC1
331
1B76
  5
1BA3
331
1BB5
  5
1D60
331
1AFC
  5
1AFC
331
1AF8
  5
1AF8
331
1B72
  5
1B9F
331
1BB1
  5
1D5C
331
1D67
  5
1B68
331
1D63
  5
1B49
331
1ABD
  5
1ABD
331
1AB9
  5
1AB9
331
1BAD
  5
1D58
331
1B33
  5
1B33
331
1B6E
  5
1B9B
331
1AB5
  5
1AB5
331
1AF4
  5
1AF4
331
1BA9
  5
1D54
331
1B2F
  5
1B2F
331
1AF0
  5
1AF0
331
1B2B
  5
1B2B
331
1B6A
  5
1B97
331
1BA5
  5
1D50
331
1AB1
  5
1AB1
331
1BA1
  5
1D4C
331
1D5F
  5
1B51
331
1D5B
  5
1B4D
331
1D57
  5
1B55
331
1D53
  5
1B3C
331
1AEC
  5
1AEC
331
1B27
  5
1B27
331
1B66
  5
1B93
331
1AAD
  5
1AAD
331
1AA9
  5
1AA9
331
1AE8
  5
1AE8
331
1B9D
  5
1D48
331
1B23
  5
1B23
331
1B62
  5
1B8F
331
1B5E
  5
1B8B
331
1AA5
  5
1AA5
331
1AE4
  5
1AE4
331
1B99
  5
1BC6
331
1B1F
  5
1B1F
331
1B1B
  5
1B1B
331
1B5A
  5
1B87
331
1B95
  5
1BC2
331
1AA1
  5
1AA1
331
1AE0
  5
1AE0
331
1B91
  5
1BBE
331
1D4F
  5
1B38
331
1D4B
  5
1B40
331
1ADC
  5
1ADC
331
1B17
  5
1B17
331
1B56
  5
1B83
331
1A9D
  5
1A9D
331
1A99
  5
1A99
331
1AD8
  5
1AD8
331
1B13
  5
1B13
331
1B52
  5
1B7F
331
1B8D
  5
1BBA
331
1B4E
  5
1B7B
331
1A95
  5
1A95
331
1AD4
  5
1AD4
331
1B89
  5
1BB6
331
1B0F
  5
1B0F
331
1B0B
  5
1B0B
331
1B4A
  5
1B77
331
1B85
  5
1BB2
331
1BC4
  5
1D6F
331
1AD0
  5
1AD0
331
1B81
  5
1BAE
331
1BC0
  5
1D6B
331
1D72
  5
1B65
331
1D6E
  5
1B60
331
1D6A
  5
1B5C
331
1ACC
  5
1ACC
331
1B07
  5
1B07
331
1B46
  5
1B73
331
1AC8
  5
1AC8
331
1BBC
  5
1D67
331
1B03
  5
1B03
331
1B42
  5
1B6F
331
1B7D
  5
1BAA
331
1B3E
  5
1B6B
331
955
  5
955
331
1AC4
  5
1AC4
331
1B79
  5
1BA6
331
1BB8
  5
1D63
331
1AFF
  5
1AFF
331
1AC0
  5
1AC0
331
1B75
  5
1BA2
331
1BB4
  5
1D5F
331
1AFB
  5
1AFB
331
1B71
  5
1B9E
331
1BB0
  5
1D5B
  0
XRECORD
  5
B4E
102
{ACAD_REACTORS
330
B4D
102
}
330
B4D
100
AcDbXrecord
280
     1
340
85B
  0
XRECORD
  5
1E63
102
{ACAD_REACTORS
330
1E62
102
}
330
1E62
100
AcDbXrecord
280
     1
 70
     1
  0
XRECORD
  5
1E65
102
{ACAD_REACTORS
330
1E62
102
}
330
1E62
100
AcDbXrecord
280
     1
340
854
  0
XRECORD
  5
1E66
102
{ACAD_REACTORS
330
1E62
102
}
330
1E62
100
AcDbXrecord
280
     1
340
854
  0
XRECORD
  5
1E64
102
{ACAD_REACTORS
330
1E62
102
}
330
1E62
100
AcDbXrecord
280
     1
340
854
  0
LAYOUT
  5
B84
102
{ACAD_XDICTIONARY
360
1E67
102
}
102
{ACAD_REACTORS
330
85A
102
}
330
85A
100
AcDbPlotSettings
  1

  2
\\Server02\EPSON LP-9600SPD (3F)
  4

  6

 40
0.0
 41
0.0
 42
0.0
 43
0.0
 44
0.0
 45
0.0
 46
0.0
 47
0.0
 48
0.0
 49
0.0
140
0.0
141
0.0
142
1.0
143
1.0
 70
  1712
 72
     0
 73
     0
 74
     0
  7

 75
     0
147
1.0
148
0.0
149
0.0
100
AcDbLayout
  1
Model
 70
     1
 71
     0
 10
0.0
 20
0.0
 11
12.0
 21
9.0
 12
0.0
 22
0.0
 32
0.0
 14
0.0
 24
0.0
 34
0.0
 15
0.0
 25
0.0
 35
0.0
146
0.0
 13
0.0
 23
0.0
 33
0.0
 16
1.0
 26
0.0
 36
0.0
 17
0.0
 27
1.0
 37
0.0
 76
     0
330
85F
331
139A
  0
LAYOUT
  5
B85
102
{ACAD_XDICTIONARY
360
1E69
102
}
102
{ACAD_REACTORS
330
85A
102
}
330
85A
100
AcDbPlotSettings
  1

  2
\\Server02\EPSON LP-9600SPD (3F)
  4

  6

 40
0.0
 41
0.0
 42
0.0
 43
0.0
 44
0.0
 45
0.0
 46
0.0
 47
0.0
 48
0.0
 49
0.0
140
0.0
141
0.0
142
1.0
143
1.0
 70
   688
 72
     0
 73
     0
 74
     5
  7

 75
    16
147
1.0
148
0.0
149
0.0
100
AcDbLayout
  1
ﾚｲｱｳﾄ1
 70
     1
 71
     1
 10
0.0
 20
0.0
 11
12.0
 21
9.0
 12
0.0
 22
0.0
 32
0.0
 14
1.000000000000000E+20
 24
1.000000000000000E+20
 34
1.000000000000000E+20
 15
-1.000000000000000E+20
 25
-1.000000000000000E+20
 35
-1.000000000000000E+20
146
0.0
 13
0.0
 23
0.0
 33
0.0
 16
1.0
 26
0.0
 36
0.0
 17
0.0
 27
1.0
 37
0.0
 76
     0
330
85B
  0
MATERIAL
  5
13A7
102
{ACAD_XDICTIONARY
360
13A8
102
}
102
{ACAD_REACTORS
330
116C
102
}
330
116C
100
AcDbMaterial
  1
ByBlock
 72
     0
 43
0.0208333333333333
 43
0.0
 43
0.0
 43
0.0
 43
0.0
 43
0.0208333333333333
 43
0.0
 43
0.0
 43
0.0
 43
0.0
 43
1.0
 43
0.0
 43
0.0
 43
0.0
 43
0.0
 43
1.0
 77
     0
 47
0.0208333333333333
 47
0.0
 47
0.0
 47
0.0
 47
0.0
 47
0.0208333333333333
 47
0.0
 47
0.0
 47
0.0
 47
0.0
 47
1.0
 47
0.0
 47
0.0
 47
0.0
 47
0.0
 47
1.0
171
     0
 49
0.0208333333333333
 49
0.0
 49
0.0
 49
0.0
 49
0.0
 49
0.0208333333333333
 49
0.0
 49
0.0
 49
0.0
 49
0.0
 49
1.0
 49
0.0
 49
0.0
 49
0.0
 49
0.0
 49
1.0
175
     0
142
0.0208333333333333
142
0.0
142
0.0
142
0.0
142
0.0
142
0.0208333333333333
142
0.0
142
0.0
142
0.0
142
0.0
142
1.0
142
0.0
142
0.0
142
0.0
142
0.0
142
1.0
179
     0
144
0.0208333333333333
144
0.0
144
0.0
144
0.0
144
0.0
144
0.0208333333333333
144
0.0
144
0.0
144
0.0
144
0.0
144
1.0
144
0.0
144
0.0
144
0.0
144
0.0
144
1.0
147
0.0208333333333333
147
0.0
147
0.0
147
0.0
147
0.0
147
0.0208333333333333
147
0.0
147
0.0
147
0.0
147
0.0
147
1.0
147
0.0
147
0.0
147
0.0
147
0.0
147
1.0
  0
MATERIAL
  5
139F
102
{ACAD_XDICTIONARY
360
13A0
102
}
102
{ACAD_REACTORS
330
116C
102
}
330
116C
100
AcDbMaterial
  1
ByLayer
 72
     0
 43
0.0208333333333333
 43
0.0
 43
0.0
 43
0.0
 43
0.0
 43
0.0208333333333333
 43
0.0
 43
0.0
 43
0.0
 43
0.0
 43
1.0
 43
0.0
 43
0.0
 43
0.0
 43
0.0
 43
1.0
 77
     0
 47
0.0208333333333333
 47
0.0
 47
0.0
 47
0.0
 47
0.0
 47
0.0208333333333333
 47
0.0
 47
0.0
 47
0.0
 47
0.0
 47
1.0
 47
0.0
 47
0.0
 47
0.0
 47
0.0
 47
1.0
171
     0
 49
0.0208333333333333
 49
0.0
 49
0.0
 49
0.0
 49
0.0
 49
0.0208333333333333
 49
0.0
 49
0.0
 49
0.0
 49
0.0
 49
1.0
 49
0.0
 49
0.0
 49
0.0
 49
0.0
 49
1.0
175
     0
142
0.0208333333333333
142
0.0
142
0.0
142
0.0
142
0.0
142
0.0208333333333333
142
0.0
142
0.0
142
0.0
142
0.0
142
1.0
142
0.0
142
0.0
142
0.0
142
0.0
142
1.0
179
     0
144
0.0208333333333333
144
0.0
144
0.0
144
0.0
144
0.0
144
0.0208333333333333
144
0.0
144
0.0
144
0.0
144
0.0
144
1.0
144
0.0
144
0.0
144
0.0
144
0.0
144
1.0
147
0.0208333333333333
147
0.0
147
0.0
147
0.0
147
0.0
147
0.0208333333333333
147
0.0
147
0.0
147
0.0
147
0.0
147
1.0
147
0.0
147
0.0
147
0.0
147
0.0
147
1.0
  0
MATERIAL
  5
13AF
102
{ACAD_XDICTIONARY
360
13B0
102
}
102
{ACAD_REACTORS
330
116C
102
}
330
116C
100
AcDbMaterial
  1
Global
 72
     0
 43
0.0208333333333333
 43
0.0
 43
0.0
 43
0.0
 43
0.0
 43
0.0208333333333333
 43
0.0
 43
0.0
 43
0.0
 43
0.0
 43
1.0
 43
0.0
 43
0.0
 43
0.0
 43
0.0
 43
1.0
 77
     0
 47
0.0208333333333333
 47
0.0
 47
0.0
 47
0.0
 47
0.0
 47
0.0208333333333333
 47
0.0
 47
0.0
 47
0.0
 47
0.0
 47
1.0
 47
0.0
 47
0.0
 47
0.0
 47
0.0
 47
1.0
171
     0
 49
0.0208333333333333
 49
0.0
 49
0.0
 49
0.0
 49
0.0
 49
0.0208333333333333
 49
0.0
 49
0.0
 49
0.0
 49
0.0
 49
1.0
 49
0.0
 49
0.0
 49
0.0
 49
0.0
 49
1.0
175
     0
142
0.0208333333333333
142
0.0
142
0.0
142
0.0
142
0.0
142
0.0208333333333333
142
0.0
142
0.0
142
0.0
142
0.0
142
1.0
142
0.0
142
0.0
142
0.0
142
0.0
142
1.0
179
     0
144
0.0208333333333333
144
0.0
144
0.0
144
0.0
144
0.0
144
0.0208333333333333
144
0.0
144
0.0
144
0.0
144
0.0
144
1.0
144
0.0
144
0.0
144
0.0
144
0.0
144
1.0
147
0.0208333333333333
147
0.0
147
0.0
147
0.0
147
0.0
147
0.0208333333333333
147
0.0
147
0.0
147
0.0
147
0.0
147
1.0
147
0.0
147
0.0
147
0.0
147
0.0
147
1.0
  0
MLEADERSTYLE
  5
13EB
102
{ACAD_REACTORS
330
13EA
102
}
330
13EA
100
AcDbMLeaderStyle
170
     2
171
     1
172
     0
 90
        2
 40
0.0
 41
0.0
173
     1
 91
-1056964608
340
854
 92
       -2
290
     1
 42
0.09
291
     1
 43
0.36
  3
Standard
 44
0.18
300

342
852
174
     1
178
     6
175
     1
176
     0
 93
-1056964608
 45
0.18
292
     0
297
     0
 46
0.18
 94
-1056964608
 47
1.0
 49
1.0
140
1.0
293
     1
141
0.0
294
     1
177
     0
142
1.0
295
     0
296
     0
143
0.125
1001
ACAD_MLEADERVER
1070
     2
  0
MLINESTYLE
  5
858
102
{ACAD_REACTORS
330
857
102
}
330
857
100
AcDbMlineStyle
  2
STANDARD
 70
     0
  3

 62
   256
 51
90.0
 52
90.0
 71
     2
 49
0.5
 62
   256
  6
BYLAYER
 49
-0.5
 62
   256
  6
BYLAYER
  0
ACDBPLACEHOLDER
  5
B83
102
{ACAD_REACTORS
330
B82
102
}
330
B82
  0
SCALE
  5
13C9
102
{ACAD_REACTORS
330
13C8
102
}
330
13C8
100
AcDbScale
 70
     0
300
1:1
140
1.0
141
1.0
290
     1
  0
SCALE
  5
13CA
102
{ACAD_REACTORS
330
13C8
102
}
330
13C8
100
AcDbScale
 70
     0
300
1:2
140
1.0
141
2.0
290
     0
  0
SCALE
  5
13CB
102
{ACAD_REACTORS
330
13C8
102
}
330
13C8
100
AcDbScale
 70
     0
300
1:4
140
1.0
141
4.0
290
     0
  0
SCALE
  5
13CC
102
{ACAD_REACTORS
330
13C8
102
}
330
13C8
100
AcDbScale
 70
     0
300
1:5
140
1.0
141
5.0
290
     0
  0
SCALE
  5
13CD
102
{ACAD_REACTORS
330
13C8
102
}
330
13C8
100
AcDbScale
 70
     0
300
1:8
140
1.0
141
8.0
290
     0
  0
SCALE
  5
13CE
102
{ACAD_REACTORS
330
13C8
102
}
330
13C8
100
AcDbScale
 70
     0
300
1:10
140
1.0
141
10.0
290
     0
  0
SCALE
  5
13CF
102
{ACAD_REACTORS
330
13C8
102
}
330
13C8
100
AcDbScale
 70
     0
300
1:16
140
1.0
141
16.0
290
     0
  0
SCALE
  5
13D0
102
{ACAD_REACTORS
330
13C8
102
}
330
13C8
100
AcDbScale
 70
     0
300
1:20
140
1.0
141
20.0
290
     0
  0
SCALE
  5
13D1
102
{ACAD_REACTORS
330
13C8
102
}
330
13C8
100
AcDbScale
 70
     0
300
1:30
140
1.0
141
30.0
290
     0
  0
SCALE
  5
13D2
102
{ACAD_REACTORS
330
13C8
102
}
330
13C8
100
AcDbScale
 70
     0
300
1:40
140
1.0
141
40.0
290
     0
  0
SCALE
  5
13D3
102
{ACAD_REACTORS
330
13C8
102
}
330
13C8
100
AcDbScale
 70
     0
300
1:50
140
1.0
141
50.0
290
     0
  0
SCALE
  5
13D4
102
{ACAD_REACTORS
330
13C8
102
}
330
13C8
100
AcDbScale
 70
     0
300
1:100
140
1.0
141
100.0
290
     0
  0
SCALE
  5
13D5
102
{ACAD_REACTORS
330
13C8
102
}
330
13C8
100
AcDbScale
 70
     0
300
2:1
140
2.0
141
1.0
290
     0
  0
SCALE
  5
13D6
102
{ACAD_REACTORS
330
13C8
102
}
330
13C8
100
AcDbScale
 70
     0
300
4:1
140
4.0
141
1.0
290
     0
  0
SCALE
  5
13D7
102
{ACAD_REACTORS
330
13C8
102
}
330
13C8
100
AcDbScale
 70
     0
300
8:1
140
8.0
141
1.0
290
     0
  0
SCALE
  5
13D8
102
{ACAD_REACTORS
330
13C8
102
}
330
13C8
100
AcDbScale
 70
     0
300
10:1
140
10.0
141
1.0
290
     0
  0
SCALE
  5
13D9
102
{ACAD_REACTORS
330
13C8
102
}
330
13C8
100
AcDbScale
 70
     0
300
100:1
140
100.0
141
1.0
290
     0
  0
SCALE
  5
13DA
102
{ACAD_REACTORS
330
13C8
102
}
330
13C8
100
AcDbScale
 70
     0
300
1/128" = 1'-0"
140
0.0078125
141
12.0
290
     0
  0
SCALE
  5
13DB
102
{ACAD_REACTORS
330
13C8
102
}
330
13C8
100
AcDbScale
 70
     0
300
1/64" = 1'-0"
140
0.015625
141
12.0
290
     0
  0
SCALE
  5
13DC
102
{ACAD_REACTORS
330
13C8
102
}
330
13C8
100
AcDbScale
 70
     0
300
1/32" = 1'-0"
140
0.03125
141
12.0
290
     0
  0
SCALE
  5
13DD
102
{ACAD_REACTORS
330
13C8
102
}
330
13C8
100
AcDbScale
 70
     0
300
1/16" = 1'-0"
140
0.0625
141
12.0
290
     0
  0
SCALE
  5
13DE
102
{ACAD_REACTORS
330
13C8
102
}
330
13C8
100
AcDbScale
 70
     0
300
3/32" = 1'-0"
140
0.09375
141
12.0
290
     0
  0
SCALE
  5
13DF
102
{ACAD_REACTORS
330
13C8
102
}
330
13C8
100
AcDbScale
 70
     0
300
1/8" = 1'-0"
140
0.125
141
12.0
290
     0
  0
SCALE
  5
13E0
102
{ACAD_REACTORS
330
13C8
102
}
330
13C8
100
AcDbScale
 70
     0
300
3/16" = 1'-0"
140
0.1875
141
12.0
290
     0
  0
SCALE
  5
13E1
102
{ACAD_REACTORS
330
13C8
102
}
330
13C8
100
AcDbScale
 70
     0
300
1/4" = 1'-0"
140
0.25
141
12.0
290
     0
  0
SCALE
  5
13E2
102
{ACAD_REACTORS
330
13C8
102
}
330
13C8
100
AcDbScale
 70
     0
300
3/8" = 1'-0"
140
0.375
141
12.0
290
     0
  0
SCALE
  5
13E3
102
{ACAD_REACTORS
330
13C8
102
}
330
13C8
100
AcDbScale
 70
     0
300
1/2" = 1'-0"
140
0.5
141
12.0
290
     0
  0
SCALE
  5
13E4
102
{ACAD_REACTORS
330
13C8
102
}
330
13C8
100
AcDbScale
 70
     0
300
3/4" = 1'-0"
140
0.75
141
12.0
290
     0
  0
SCALE
  5
13E5
102
{ACAD_REACTORS
330
13C8
102
}
330
13C8
100
AcDbScale
 70
     0
300
1" = 1'-0"
140
1.0
141
12.0
290
     0
  0
SCALE
  5
13E6
102
{ACAD_REACTORS
330
13C8
102
}
330
13C8
100
AcDbScale
 70
     0
300
1-1/2" = 1'-0"
140
1.5
141
12.0
290
     0
  0
SCALE
  5
13E7
102
{ACAD_REACTORS
330
13C8
102
}
330
13C8
100
AcDbScale
 70
     0
300
3" = 1'-0"
140
3.0
141
12.0
290
     0
  0
SCALE
  5
13E8
102
{ACAD_REACTORS
330
13C8
102
}
330
13C8
100
AcDbScale
 70
     0
300
6" = 1'-0"
140
6.0
141
12.0
290
     0
  0
SCALE
  5
13E9
102
{ACAD_REACTORS
330
13C8
102
}
330
13C8
100
AcDbScale
 70
     0
300
1'-0" = 1'-0"
140
12.0
141
12.0
290
     0
  0
TABLESTYLE
  5
116F
102
{ACAD_XDICTIONARY
360
1448
102
}
102
{ACAD_REACTORS
330
116E
102
}
330
116E
100
AcDbTableStyle
  3
Standard
 70
     0
 71
     0
 40
0.06
 41
0.06
280
     0
281
     0
  7
STANDARD
140
0.18
170
     2
 62
     0
 63
     7
283
     0
274
    -2
284
     1
 64
     0
275
    -2
285
     1
 65
     0
276
    -2
286
     1
 66
     0
277
    -2
287
     1
 67
     0
278
    -2
288
     1
 68
     0
279
    -2
289
     1
 69
     0
  7
STANDARD
140
0.25
170
     5
 62
     0
 63
     7
283
     0
274
    -2
284
     1
 64
     0
275
    -2
285
     1
 65
     0
276
    -2
286
     1
 66
     0
277
    -2
287
     1
 67
     0
278
    -2
288
     1
 68
     0
279
    -2
289
     1
 69
     0
  7
STANDARD
140
0.18
170
     5
 62
     0
 63
     7
283
     0
274
    -2
284
     1
 64
     0
275
    -2
285
     1
 65
     0
276
    -2
286
     1
 66
     0
277
    -2
287
     1
 67
     0
278
    -2
288
     1
 68
     0
279
    -2
289
     1
 69
     0
  0
VISUALSTYLE
  5
13BD
102
{ACAD_REACTORS
330
13B7
102
}
330
13B7
100
AcDbVisualStyle
  2
2dWireframe
 70
     4
 71
     0
 72
     2
 73
     0
 90
        0
 40
-0.6
 41
-30.0
 62
     5
 63
     7
 74
     1
 91
        4
 64
     7
 65
   257
 75
     1
175
     1
 42
1.0
 92
        0
 66
   257
 43
1.0
 76
     1
 77
     6
 78
     2
 67
     7
 79
     5
170
     0
171
     0
290
     0
174
     0
 93
        1
 44
0.0
173
     0
291
     0
 45
0.0
1001
ACAD
1000
AcDbSavedByObjectVersion
1070
     0
1000
AcDbSavedByObjectVersion
1070
     0
1000
AcDbSavedByObjectVersion
1070
     0
1000
AcDbSavedByObjectVersion
1070
     0
1000
AcDbSavedByObjectVersion
1070
     0
1000
AcDbSavedByObjectVersion
1070
     0
  0
VISUALSTYLE
  5
13BF
102
{ACAD_REACTORS
330
13B7
102
}
330
13B7
100
AcDbVisualStyle
  2
3D Hidden
 70
     6
 71
     1
 72
     2
 73
     2
 90
        0
 40
-0.6
 41
-30.0
 62
     5
 63
     7
 74
     2
 91
        2
 64
     7
 65
   257
 75
     2
175
     1
 42
40.0
 92
        0
 66
   257
 43
1.0
 76
     1
 77
     6
 78
     2
 67
     7
 79
     3
170
     0
171
     0
290
     0
174
     0
 93
        1
 44
0.0
173
     0
291
     0
 45
0.0
1001
ACAD
1000
AcDbSavedByObjectVersion
1070
     0
1000
AcDbSavedByObjectVersion
1070
     0
1000
AcDbSavedByObjectVersion
1070
     0
1000
AcDbSavedByObjectVersion
1070
     0
1000
AcDbSavedByObjectVersion
1070
     0
1000
AcDbSavedByObjectVersion
1070
     0
  0
VISUALSTYLE
  5
13BE
102
{ACAD_REACTORS
330
13B7
102
}
330
13B7
100
AcDbVisualStyle
  2
3dWireframe
 70
     5
 71
     0
 72
     2
 73
     0
 90
        0
 40
-0.6
 41
-30.0
 62
     5
 63
     7
 74
     1
 91
        4
 64
     7
 65
   257
 75
     1
175
     1
 42
1.0
 92
        0
 66
   257
 43
1.0
 76
     1
 77
     6
 78
     2
 67
     7
 79
     5
170
     0
171
     0
290
     0
174
     0
 93
        1
 44
0.0
173
     0
291
     0
 45
0.0
1001
ACAD
1000
AcDbSavedByObjectVersion
1070
     0
1000
AcDbSavedByObjectVersion
1070
     0
1000
AcDbSavedByObjectVersion
1070
     0
1000
AcDbSavedByObjectVersion
1070
     0
1000
AcDbSavedByObjectVersion
1070
     0
1000
AcDbSavedByObjectVersion
1070
     0
  0
VISUALSTYLE
  5
13BC
102
{ACAD_REACTORS
330
13B7
102
}
330
13B7
100
AcDbVisualStyle
  2
Basic
 70
     7
 71
     1
 72
     0
 73
     1
 90
        0
 40
-0.6
 41
-30.0
 62
     5
 63
     7
 74
     0
 91
        4
 64
     7
 65
   257
 75
     1
175
     1
 42
1.0
 92
        8
 66
     7
 43
1.0
 76
     1
 77
     6
 78
     2
 67
     7
 79
     5
170
     0
171
     0
290
     0
174
     0
 93
        1
 44
0.0
173
     0
291
     1
 45
0.0
1001
ACAD
1000
AcDbSavedByObjectVersion
1070
     0
1000
AcDbSavedByObjectVersion
1070
     0
1000
AcDbSavedByObjectVersion
1070
     0
1000
AcDbSavedByObjectVersion
1070
     0
1000
AcDbSavedByObjectVersion
1070
     0
1000
AcDbSavedByObjectVersion
1070
     0
  0
VISUALSTYLE
  5
13C3
102
{ACAD_REACTORS
330
13B7
102
}
330
13B7
100
AcDbVisualStyle
  2
Brighten
 70
    12
 71
     2
 72
     2
 73
     0
 90
        0
 40
-0.6
 41
-30.0
 62
     5
 63
     7
 74
     1
 91
        4
 64
     7
 65
   257
 75
     1
175
     1
 42
1.0
 92
        8
 66
     7
 43
1.0
 76
     1
 77
     6
 78
     2
 67
     7
 79
     5
170
     0
171
     0
290
     0
174
     0
 93
        1
 44
50.0
173
     0
291
     1
 45
0.0
1001
ACAD
1000
AcDbSavedByObjectVersion
1070
     0
1000
AcDbSavedByObjectVersion
1070
     0
1000
AcDbSavedByObjectVersion
1070
     0
1000
AcDbSavedByObjectVersion
1070
     0
1000
AcDbSavedByObjectVersion
1070
     0
1000
AcDbSavedByObjectVersion
1070
     0
  0
VISUALSTYLE
  5
13C7
102
{ACAD_REACTORS
330
13B7
102
}
330
13B7
100
AcDbVisualStyle
  2
ColorChange
 70
    16
 71
     2
 72
     2
 73
     3
 90
        0
 40
-0.6
 41
-30.0
 62
     5
 63
     8
 74
     1
 91
        4
 64
     7
 65
   257
 75
     1
175
     1
 42
1.0
 92
        8
 66
     8
 43
1.0
 76
     1
 77
     6
 78
     2
 67
     7
 79
     5
170
     0
171
     0
290
     0
174
     0
 93
        1
 44
0.0
173
     0
291
     1
 45
0.0
1001
ACAD
1000
AcDbSavedByObjectVersion
1070
     0
1000
AcDbSavedByObjectVersion
1070
     0
1000
AcDbSavedByObjectVersion
1070
     0
1000
AcDbSavedByObjectVersion
1070
     0
1000
AcDbSavedByObjectVersion
1070
     0
1000
AcDbSavedByObjectVersion
1070
     0
  0
VISUALSTYLE
  5
13C0
102
{ACAD_REACTORS
330
13B7
102
}
330
13B7
100
AcDbVisualStyle
  2
Conceptual
 70
     9
 71
     3
 72
     2
 73
     0
 90
        0
 40
-0.6
 41
-30.0
 62
     5
 63
     7
 74
     2
 91
        2
 64
     7
 65
   257
 75
     1
175
     1
 42
40.0
 92
        8
 66
     7
 43
1.0
 76
     1
 77
     6
 78
     2
 67
     7
 79
     3
170
     0
171
     0
290
     0
174
     0
 93
        1
 44
0.0
173
     0
291
     0
 45
0.0
1001
ACAD
1000
AcDbSavedByObjectVersion
1070
     0
1000
AcDbSavedByObjectVersion
1070
     0
1000
AcDbSavedByObjectVersion
1070
     0
1000
AcDbSavedByObjectVersion
1070
     0
1000
AcDbSavedByObjectVersion
1070
     0
1000
AcDbSavedByObjectVersion
1070
     0
  0
VISUALSTYLE
  5
13C2
102
{ACAD_REACTORS
330
13B7
102
}
330
13B7
100
AcDbVisualStyle
  2
Dim
 70
    11
 71
     2
 72
     2
 73
     0
 90
        0
 40
-0.6
 41
-30.0
 62
     5
 63
     7
 74
     1
 91
        4
 64
     7
 65
   257
 75
     1
175
     1
 42
1.0
 92
        8
 66
     7
 43
1.0
 76
     1
 77
     6
 78
     2
 67
     7
 79
     5
170
     0
171
     0
290
     0
174
     0
 93
        1
 44
-50.0
173
     0
291
     1
 45
0.0
1001
ACAD
1000
AcDbSavedByObjectVersion
1070
     0
1000
AcDbSavedByObjectVersion
1070
     0
1000
AcDbSavedByObjectVersion
1070
     0
1000
AcDbSavedByObjectVersion
1070
     0
1000
AcDbSavedByObjectVersion
1070
     0
1000
AcDbSavedByObjectVersion
1070
     0
  0
VISUALSTYLE
  5
13C6
102
{ACAD_REACTORS
330
13B7
102
}
330
13B7
100
AcDbVisualStyle
  2
Facepattern
 70
    15
 71
     2
 72
     2
 73
     0
 90
        0
 40
-0.6
 41
-30.0
 62
     5
 63
     7
 74
     1
 91
        4
 64
     7
 65
   257
 75
     1
175
     1
 42
1.0
 92
        8
 66
     7
 43
1.0
 76
     1
 77
     6
 78
     2
 67
     7
 79
     5
170
     0
171
     0
290
     0
174
     0
 93
        1
 44
0.0
173
     0
291
     1
 45
0.0
1001
ACAD
1000
AcDbSavedByObjectVersion
1070
     0
1000
AcDbSavedByObjectVersion
1070
     0
1000
AcDbSavedByObjectVersion
1070
     0
1000
AcDbSavedByObjectVersion
1070
     0
1000
AcDbSavedByObjectVersion
1070
     0
1000
AcDbSavedByObjectVersion
1070
     0
  0
VISUALSTYLE
  5
13B8
102
{ACAD_REACTORS
330
13B7
102
}
330
13B7
100
AcDbVisualStyle
  2
Flat
 70
     0
 71
     2
 72
     1
 73
     1
 90
        2
 40
-0.6
 41
30.0
 62
     5
 63
     7
 74
     0
 91
        4
 64
     7
 65
   257
 75
     1
175
     1
 42
1.0
 92
        8
 66
     7
 43
1.0
 76
     1
 77
     6
 78
     2
 67
     7
 79
     5
170
     0
171
     0
290
     0
174
     0
 93
       13
 44
0.0
173
     0
291
     1
 45
0.0
1001
ACAD
1000
AcDbSavedByObjectVersion
1070
     0
1000
AcDbSavedByObjectVersion
1070
     0
1000
AcDbSavedByObjectVersion
1070
     0
1000
AcDbSavedByObjectVersion
1070
     0
1000
AcDbSavedByObjectVersion
1070
     0
1000
AcDbSavedByObjectVersion
1070
     0
  0
VISUALSTYLE
  5
13B9
102
{ACAD_REACTORS
330
13B7
102
}
330
13B7
100
AcDbVisualStyle
  2
FlatWithEdges
 70
     1
 71
     2
 72
     1
 73
     1
 90
        2
 40
-0.6
 41
30.0
 62
     5
 63
     7
 74
     1
 91
        4
 64
     7
 65
   257
 75
     1
175
     1
 42
1.0
 92
        0
 66
   257
 43
1.0
 76
     1
 77
     6
 78
     2
 67
     7
 79
     5
170
     0
171
     0
290
     0
174
     0
 93
       13
 44
0.0
173
     0
291
     1
 45
0.0
1001
ACAD
1000
AcDbSavedByObjectVersion
1070
     0
1000
AcDbSavedByObjectVersion
1070
     0
1000
AcDbSavedByObjectVersion
1070
     0
1000
AcDbSavedByObjectVersion
1070
     0
1000
AcDbSavedByObjectVersion
1070
     0
1000
AcDbSavedByObjectVersion
1070
     0
  0
VISUALSTYLE
  5
13BA
102
{ACAD_REACTORS
330
13B7
102
}
330
13B7
100
AcDbVisualStyle
  2
Gouraud
 70
     2
 71
     2
 72
     2
 73
     1
 90
        2
 40
-0.6
 41
30.0
 62
     5
 63
     7
 74
     0
 91
        4
 64
     7
 65
   257
 75
     1
175
     1
 42
1.0
 92
        0
 66
     7
 43
1.0
 76
     1
 77
     6
 78
     2
 67
     7
 79
     5
170
     0
171
     0
290
     0
174
     0
 93
       13
 44
0.0
173
     0
291
     1
 45
0.0
1001
ACAD
1000
AcDbSavedByObjectVersion
1070
     0
1000
AcDbSavedByObjectVersion
1070
     0
1000
AcDbSavedByObjectVersion
1070
     0
1000
AcDbSavedByObjectVersion
1070
     0
1000
AcDbSavedByObjectVersion
1070
     0
1000
AcDbSavedByObjectVersion
1070
     0
  0
VISUALSTYLE
  5
13BB
102
{ACAD_REACTORS
330
13B7
102
}
330
13B7
100
AcDbVisualStyle
  2
GouraudWithEdges
 70
     3
 71
     2
 72
     2
 73
     1
 90
        2
 40
-0.6
 41
30.0
 62
     5
 63
     7
 74
     1
 91
        4
 64
     7
 65
   257
 75
     1
175
     1
 42
1.0
 92
        0
 66
   257
 43
1.0
 76
     1
 77
     6
 78
     2
 67
     7
 79
     5
170
     0
171
     0
290
     0
174
     0
 93
       13
 44
0.0
173
     0
291
     1
 45
0.0
1001
ACAD
1000
AcDbSavedByObjectVersion
1070
     0
1000
AcDbSavedByObjectVersion
1070
     0
1000
AcDbSavedByObjectVersion
1070
     0
1000
AcDbSavedByObjectVersion
1070
     0
1000
AcDbSavedByObjectVersion
1070
     0
1000
AcDbSavedByObjectVersion
1070
     0
  0
VISUALSTYLE
  5
13C5
102
{ACAD_REACTORS
330
13B7
102
}
330
13B7
100
AcDbVisualStyle
  2
Linepattern
 70
    14
 71
     2
 72
     2
 73
     0
 90
        0
 40
-0.6
 41
-30.0
 62
     5
 63
     7
 74
     1
 91
        4
 64
     7
 65
   257
 75
     7
175
     7
 42
1.0
 92
        8
 66
     7
 43
1.0
 76
     1
 77
     6
 78
     2
 67
     7
 79
     5
170
     0
171
     0
290
     0
174
     0
 93
        1
 44
0.0
173
     0
291
     1
 45
0.0
1001
ACAD
1000
AcDbSavedByObjectVersion
1070
     0
1000
AcDbSavedByObjectVersion
1070
     0
1000
AcDbSavedByObjectVersion
1070
     0
1000
AcDbSavedByObjectVersion
1070
     0
1000
AcDbSavedByObjectVersion
1070
     0
1000
AcDbSavedByObjectVersion
1070
     0
  0
VISUALSTYLE
  5
13C1
102
{ACAD_REACTORS
330
13B7
102
}
330
13B7
100
AcDbVisualStyle
  2
Realistic
 70
     8
 71
     2
 72
     2
 73
     0
 90
        0
 40
-0.6
 41
-30.0
 62
     5
 63
     7
 74
     1
 91
        0
 64
     7
 65
   257
 75
     1
175
     1
 42
1.0
 92
        8
 66
     8
 43
1.0
 76
     1
 77
     6
 78
     2
 67
     7
 79
     5
170
     0
171
     0
290
     0
174
     0
 93
       13
 44
0.0
173
     0
291
     0
 45
0.0
1001
ACAD
1000
AcDbSavedByObjectVersion
1070
     0
1000
AcDbSavedByObjectVersion
1070
     0
1000
AcDbSavedByObjectVersion
1070
     0
1000
AcDbSavedByObjectVersion
1070
     0
1000
AcDbSavedByObjectVersion
1070
     0
1000
AcDbSavedByObjectVersion
1070
     0
  0
VISUALSTYLE
  5
13C4
102
{ACAD_REACTORS
330
13B7
102
}
330
13B7
100
AcDbVisualStyle
  2
Thicken
 70
    13
 71
     2
 72
     2
 73
     0
 90
        0
 40
-0.6
 41
-30.0
 62
     5
 63
     7
 74
     1
 91
        4
 64
     7
 65
   257
 75
     1
175
     1
 42
1.0
 92
       12
 66
     7
 43
1.0
 76
     1
 77
     6
 78
     2
 67
     7
 79
     5
170
     0
171
     0
290
     0
174
     0
 93
        1
 44
0.0
173
     0
291
     1
 45
0.0
1001
ACAD
1000
AcDbSavedByObjectVersion
1070
     0
1000
AcDbSavedByObjectVersion
1070
     0
1000
AcDbSavedByObjectVersion
1070
     0
1000
AcDbSavedByObjectVersion
1070
     0
1000
AcDbSavedByObjectVersion
1070
     0
1000
AcDbSavedByObjectVersion
1070
     0
  0
DICTIONARYVAR
  5
1446
102
{ACAD_REACTORS
330
B87
102
}
330
B87
100
DictionaryVariables
280
     0
  1
1:1
  0
DICTIONARYVAR
  5
1445
102
{ACAD_REACTORS
330
B87
102
}
330
B87
100
DictionaryVariables
280
     0
  1
STANDARD
  0
DICTIONARYVAR
  5
129F
102
{ACAD_REACTORS
330
B87
102
}
330
B87
100
DictionaryVariables
280
     0
  1
STANDARD
  0
DICTIONARYVAR
  5
B88
102
{ACAD_REACTORS
330
B87
102
}
330
B87
100
DictionaryVariables
280
     0
  1
1
  0
DICTIONARYVAR
  5
12A0
102
{ACAD_REACTORS
330
B87
102
}
330
B87
100
DictionaryVariables
280
     0
  1
1
  0
DICTIONARYVAR
  5
12A1
102
{ACAD_REACTORS
330
B87
102
}
330
B87
100
DictionaryVariables
280
     0
  1

  0
DICTIONARYVAR
  5
1447
102
{ACAD_REACTORS
330
B87
102
}
330
B87
100
DictionaryVariables
280
     0
  1
127
  0
DICTIONARY
  5
1240
102
{ACAD_REACTORS
330
1234
102
}
330
1234
100
AcDbDictionary
281
     1
  0
XRECORD
  5
1260
102
{ACAD_REACTORS
330
1234
102
}
330
1234
100
AcDbXrecord
280
     1
 90
-1023410169
  0
DICTIONARY
  5
1174
102
{ACAD_REACTORS
330
1173
102
}
330
1173
100
AcDbDictionary
281
     1
  3
DWGSETTINGS
350
1D8A
  3
TRANSSETTINGS
350
1D8B
  0
ACAMGFILTERDAT
  5
128F
102
{ACAD_REACTORS
330
128A
102
}
330
128A
100
AcAmgFilterDat
 70
    15
  1
DIMENSION,AMDT_*_DIM
  2
*
  3
*
  4
*
  5
*
290
     1
1001
ACAD
1000
AcRTDxfName
1000
ACAMGFILTERDAT
  0
ACAMGFILTERDAT
  5
128E
102
{ACAD_REACTORS
330
128A
102
}
330
128A
100
AcAmgFilterDat
 70
    15
  1
*
  2
AM_FEA-AM_*
  3
*
  4
*
  5
*
290
     1
1001
ACAD
1000
AcRTDxfName
1000
ACAMGFILTERDAT
  0
ACAMGFILTERDAT
  5
128B
102
{ACAD_REACTORS
330
128A
102
}
330
128A
100
AcAmgFilterDat
 70
    15
  1
HATCH
  2
*
  3
*
  4
*
  5
*
290
     1
1001
ACAD
1000
AcRTDxfName
1000
ACAMGFILTERDAT
  0
ACAMGFILTERDAT
  5
128C
102
{ACAD_REACTORS
330
128A
102
}
330
128A
100
AcAmgFilterDat
 70
    15
  1
LINE
  2
8,8N,*-8,*-8N,AM_8,AM_8N,*-AM_8,*-AM_8N
  3
*
  4
*
  5
INSERT,STDPART2D
290
     1
1001
ACAD
1000
AcRTDxfName
1000
ACAMGFILTERDAT
  0
ACAMGFILTERDAT
  5
1290
102
{ACAD_REACTORS
330
128A
102
}
330
128A
100
AcAmgFilterDat
 70
    15
  1
ARC
  2
AM_5
  3
*
  4
2
  5
INSERT
290
     0
1001
ACAD
1000
AcRTDxfName
1000
ACAMGFILTERDAT
  0
ACAMGFILTERDAT
  5
128D
102
{ACAD_REACTORS
330
128A
102
}
330
128A
100
AcAmgFilterDat
 70
    15
  1
ACMFCFRAME,ACMDATUMTARGET,ACMDATUMID,ACMWELDSYM,ACMSURFSYM,ACMFEATID,ACMPARTREF,ACMBALLOON,AMDTEDGESYM,AMGSCREWCALCTABLE
  2
*
  3
*
  4
*
  5
*
290
     1
1001
ACAD
1000
AcRTDxfName
1000
ACAMGFILTERDAT
  0
LAYER_INDEX
  5
1292
102
{ACAD_REACTORS
330
1291
102
}
330
1291
100
AcDbIndex
 40
2457113.654898033
100
AcDbLayerIndex
  8
0
360
1293
 90
        0
  8
OUTLINE
360
1294
 90
      141
  8
SIZE
360
1295
 90
       42
  8
BASIS
360
1296
 90
        2
  8
DETAIL
360
1297
 90
      135
  8
ARRANGE
360
1298
 90
        3
  8
DEFPOINTS
360
1299
 90
        0
  8
ETC
360
129A
 90
        1
  8
FIX
360
129B
 90
        9
  8
NOTE
360
129C
 90
       21
  8
SERVICESPACE
360
129D
 90
        0
  8
SYMBOLLINE
360
129E
 90
        0
  0
DICTIONARY
  5
1E67
330
B84
100
AcDbDictionary
280
     1
281
     1
  3
ACAD_XREC_ROUNDTRIP
360
1E68
  0
DICTIONARY
  5
1E69
330
B85
100
AcDbDictionary
280
     1
281
     1
  3
ACAD_XREC_ROUNDTRIP
360
1E6A
  0
DICTIONARY
  5
13A8
330
13A7
100
AcDbDictionary
280
     1
281
     1
  3
ACAD_XREC_ROUNDTRIP
360
1454
  3
BUMPTILE
360
13AA
  3
DIFFUSETILE
360
13A9
  3
OPACITYTILE
360
13AD
  3
REFLECTIONTILE
360
13AC
  3
REFRACTIONTILE
360
13AE
  3
SPECULARTILE
360
13AB
  0
DICTIONARY
  5
13A0
330
139F
100
AcDbDictionary
280
     1
281
     1
  3
ACAD_XREC_ROUNDTRIP
360
1453
  3
BUMPTILE
360
13A2
  3
DIFFUSETILE
360
13A1
  3
OPACITYTILE
360
13A5
  3
REFLECTIONTILE
360
13A4
  3
REFRACTIONTILE
360
13A6
  3
SPECULARTILE
360
13A3
  0
DICTIONARY
  5
13B0
330
13AF
100
AcDbDictionary
280
     1
281
     1
  3
ACAD_XREC_ROUNDTRIP
360
1455
  3
BUMPTILE
360
13B2
  3
DIFFUSETILE
360
13B1
  3
OPACITYTILE
360
13B5
  3
REFLECTIONTILE
360
13B4
  3
REFRACTIONTILE
360
13B6
  3
SPECULARTILE
360
13B3
  0
DICTIONARY
  5
1448
330
116F
100
AcDbDictionary
280
     1
281
     1
  3
ACAD_ROUNDTRIP_2008_TABLESTYLE_CELLSTYLEMAP
360
1E60
  3
ACAD_XREC_ROUNDTRIP
360
1E6B
  0
IDBUFFER
  5
1293
330
0
100
AcDbIdBuffer
  0
IDBUFFER
  5
1294
330
0
100
AcDbIdBuffer
330
953
330
954
330
955
330
956
330
957
330
958
330
1B43
330
1B44
330
1B45
330
1B46
330
1B47
330
1B48
330
1B49
330
1B4A
330
1B4B
330
1B4C
330
1B4D
330
1B4E
330
1B4F
330
1B50
330
1B51
330
1B52
330
1B53
330
1B54
330
1B55
330
1B56
330
1B57
330
1B58
330
1B59
330
1B5A
330
1B5B
330
1B5C
330
1B5D
330
1B5E
330
1B5F
330
1B60
330
1B61
330
1B62
330
1B63
330
1B64
330
1B65
330
1B66
330
1B67
330
1B68
330
1B69
330
1B6A
330
1B6B
330
1B6C
330
1B6D
330
1B6E
330
1B6F
330
1B70
330
1B71
330
1B72
330
1B73
330
1B74
330
1B75
330
1B76
330
1B77
330
1B78
330
1B79
330
1B7A
330
1B7B
330
1B7C
330
1B7D
330
1B7E
330
1B7F
330
1B80
330
1B81
330
1B82
330
1B83
330
1B84
330
1B85
330
1B86
330
1B87
330
1B88
330
1B89
330
1B8A
330
1B8B
330
1B8C
330
1B8D
330
1B8E
330
1B8F
330
1B90
330
1B91
330
1B92
330
1B93
330
1B94
330
1B95
330
1B96
330
1B97
330
1B98
330
1B99
330
1B9A
330
1B9B
330
1B9C
330
1B9D
330
1B9E
330
1B9F
330
1BA0
330
1BA1
330
1BA2
330
1BA3
330
1BA4
330
1BA5
330
1BA6
330
1BA7
330
1BA8
330
1BA9
330
1BAA
330
1BAB
330
1BAC
330
1BAD
330
1BAE
330
1BAF
330
1BB0
330
1BB1
330
1BB2
330
1BB3
330
1BB4
330
1BB5
330
1BB6
330
1BB7
330
1BB8
330
1BB9
330
1BBA
330
1BBB
330
1BBC
330
1BBD
330
1BBE
330
1BBF
330
1BC0
330
1BC1
330
1BC2
330
1BC3
330
1BC4
330
1BC5
330
1BC6
330
1BC7
330
1BC8
330
1BC9
  0
IDBUFFER
  5
1295
330
0
100
AcDbIdBuffer
330
1D48
330
1D49
330
1D4A
330
1D4B
330
1D4C
330
1D4D
330
1D4E
330
1D4F
330
1D50
330
1D51
330
1D52
330
1D53
330
1D54
330
1D55
330
1D56
330
1D57
330
1D58
330
1D59
330
1D5A
330
1D5B
330
1D5C
330
1D5D
330
1D5E
330
1D5F
330
1D60
330
1D61
330
1D62
330
1D63
330
1D64
330
1D65
330
1D69
330
1D6A
330
1D6B
330
1D6C
330
1D6D
330
1D6E
330
1D6F
330
1D70
330
1D71
330
1D72
330
1D73
330
1D74
  0
IDBUFFER
  5
1296
330
0
100
AcDbIdBuffer
330
1B3E
330
1B42
  0
IDBUFFER
  5
1297
330
0
100
AcDbIdBuffer
330
1A92
330
1A93
330
1A94
330
1A95
330
1A96
330
1A97
330
1A98
330
1A99
330
1A9A
330
1A9B
330
1A9C
330
1A9D
330
1A9E
330
1A9F
330
1AA0
330
1AA1
330
1AA2
330
1AA3
330
1AA4
330
1AA5
330
1AA6
330
1AA7
330
1AA8
330
1AA9
330
1AAA
330
1AAB
330
1AAC
330
1AAD
330
1AAE
330
1AAF
330
1AB0
330
1AB1
330
1AB2
330
1AB3
330
1AB4
330
1AB5
330
1AB6
330
1AB7
330
1AB8
330
1AB9
330
1ABA
330
1ABB
330
1ABC
330
1ABD
330
1ABE
330
1ABF
330
1AC0
330
1AC1
330
1AC2
330
1AC3
330
1AC4
330
1AC5
330
1AC6
330
1AC7
330
1AC8
330
1AC9
330
1ACA
330
1ACB
330
1ACC
330
1ACD
330
1ACE
330
1ACF
330
1AD0
330
1AD1
330
1AD2
330
1AD3
330
1AD4
330
1AD5
330
1AD6
330
1AD7
330
1AD8
330
1AD9
330
1ADA
330
1ADB
330
1ADC
330
1ADD
330
1ADE
330
1ADF
330
1AE0
330
1AE1
330
1AE2
330
1AE3
330
1AE4
330
1AE5
330
1AE6
330
1AE7
330
1AE8
330
1AE9
330
1AEA
330
1AEB
330
1AEC
330
1AED
330
1AEE
330
1AEF
330
1AF0
330
1AF1
330
1AF2
330
1AF3
330
1AF4
330
1AF5
330
1AF6
330
1AF7
330
1AF8
330
1AF9
330
1AFA
330
1AFB
330
1AFC
330
1AFD
330
1AFE
330
1AFF
330
1B00
330
1B01
330
1B02
330
1B03
330
1B04
330
1B05
330
1B06
330
1B07
330
1B08
330
1B09
330
1B0A
330
1B0B
330
1B0C
330
1B0D
330
1B0E
330
1B0F
330
1B10
330
1B11
330
1B12
330
1B13
330
1B14
330
1B15
330
1B16
330
1B17
330
1B18
  0
IDBUFFER
  5
1298
330
0
100
AcDbIdBuffer
330
1B3F
330
1B40
330
1B41
  0
IDBUFFER
  5
1299
330
0
100
AcDbIdBuffer
  0
IDBUFFER
  5
129A
330
0
100
AcDbIdBuffer
330
1B34
  0
IDBUFFER
  5
129B
330
0
100
AcDbIdBuffer
330
1B1A
330
1B1D
330
1B20
330
1B23
330
1B26
330
1B29
330
1B2C
330
1B2F
330
1B32
  0
IDBUFFER
  5
129C
330
0
100
AcDbIdBuffer
330
1B19
330
1B1B
330
1B1C
330
1B1E
330
1B1F
330
1B21
330
1B22
330
1B24
330
1B25
330
1B27
330
1B28
330
1B2A
330
1B2B
330
1B2D
330
1B2E
330
1B30
330
1B31
330
1B33
330
1D66
330
1D67
330
1D68
  0
IDBUFFER
  5
129D
330
0
100
AcDbIdBuffer
  0
IDBUFFER
  5
129E
330
0
100
AcDbIdBuffer
  0
XRECORD
  5
1E68
102
{ACAD_REACTORS
330
1E67
102
}
330
1E67
100
AcDbXrecord
280
     1
102
SHADEPLOT
 70
     0
102
SHADEPLOTRESLEVEL
 70
     2
102
SHADEPLOTCUSTOMDPI
 70
   300
  0
XRECORD
  5
1E6A
102
{ACAD_REACTORS
330
1E69
102
}
330
1E69
100
AcDbXrecord
280
     1
102
SHADEPLOT
 70
     0
102
SHADEPLOTRESLEVEL
 70
     2
102
SHADEPLOTCUSTOMDPI
 70
   300
  0
XRECORD
  5
1454
102
{ACAD_REACTORS
330
13A8
102
}
330
13A8
100
AcDbXrecord
280
     1
102
MATERIAL
148
0.0
149
0.0
149
0.0
 93
        0
 94
      127
282
     0
 72
     0
 77
     0
171
     0
175
     0
179
     0
273
     0
  0
XRECORD
  5
13AA
102
{ACAD_REACTORS
330
13A8
102
}
330
13A8
100
AcDbXrecord
280
     1
270
     1
271
     1
  0
XRECORD
  5
13A9
102
{ACAD_REACTORS
330
13A8
102
}
330
13A8
100
AcDbXrecord
280
     1
270
     1
271
     1
  0
XRECORD
  5
13AD
102
{ACAD_REACTORS
330
13A8
102
}
330
13A8
100
AcDbXrecord
280
     1
270
     1
271
     1
  0
XRECORD
  5
13AC
102
{ACAD_REACTORS
330
13A8
102
}
330
13A8
100
AcDbXrecord
280
     1
270
     1
271
     1
  0
XRECORD
  5
13AE
102
{ACAD_REACTORS
330
13A8
102
}
330
13A8
100
AcDbXrecord
280
     1
270
     1
271
     1
  0
XRECORD
  5
13AB
102
{ACAD_REACTORS
330
13A8
102
}
330
13A8
100
AcDbXrecord
280
     1
270
     1
271
     1
  0
XRECORD
  5
1453
102
{ACAD_REACTORS
330
13A0
102
}
330
13A0
100
AcDbXrecord
280
     1
102
MATERIAL
148
0.0
149
0.0
149
0.0
 93
        0
 94
      127
282
     0
 72
     0
 77
     0
171
     0
175
     0
179
     0
273
     0
  0
XRECORD
  5
13A2
102
{ACAD_REACTORS
330
13A0
102
}
330
13A0
100
AcDbXrecord
280
     1
270
     1
271
     1
  0
XRECORD
  5
13A1
102
{ACAD_REACTORS
330
13A0
102
}
330
13A0
100
AcDbXrecord
280
     1
270
     1
271
     1
  0
XRECORD
  5
13A5
102
{ACAD_REACTORS
330
13A0
102
}
330
13A0
100
AcDbXrecord
280
     1
270
     1
271
     1
  0
XRECORD
  5
13A4
102
{ACAD_REACTORS
330
13A0
102
}
330
13A0
100
AcDbXrecord
280
     1
270
     1
271
     1
  0
XRECORD
  5
13A6
102
{ACAD_REACTORS
330
13A0
102
}
330
13A0
100
AcDbXrecord
280
     1
270
     1
271
     1
  0
XRECORD
  5
13A3
102
{ACAD_REACTORS
330
13A0
102
}
330
13A0
100
AcDbXrecord
280
     1
270
     1
271
     1
  0
XRECORD
  5
1455
102
{ACAD_REACTORS
330
13B0
102
}
330
13B0
100
AcDbXrecord
280
     1
102
MATERIAL
148
0.0
149
0.0
149
0.0
 93
        0
 94
      127
282
     0
 72
     0
 77
     0
171
     0
175
     0
179
     0
273
     0
  0
XRECORD
  5
13B2
102
{ACAD_REACTORS
330
13B0
102
}
330
13B0
100
AcDbXrecord
280
     1
270
     1
271
     1
  0
XRECORD
  5
13B1
102
{ACAD_REACTORS
330
13B0
102
}
330
13B0
100
AcDbXrecord
280
     1
270
     1
271
     1
  0
XRECORD
  5
13B5
102
{ACAD_REACTORS
330
13B0
102
}
330
13B0
100
AcDbXrecord
280
     1
270
     1
271
     1
  0
XRECORD
  5
13B4
102
{ACAD_REACTORS
330
13B0
102
}
330
13B0
100
AcDbXrecord
280
     1
270
     1
271
     1
  0
XRECORD
  5
13B6
102
{ACAD_REACTORS
330
13B0
102
}
330
13B0
100
AcDbXrecord
280
     1
270
     1
271
     1
  0
XRECORD
  5
13B3
102
{ACAD_REACTORS
330
13B0
102
}
330
13B0
100
AcDbXrecord
280
     1
270
     1
271
     1
  0
CELLSTYLEMAP
  5
1E60
102
{ACAD_REACTORS
330
1448
102
}
330
1448
100
AcDbCellStyleMap
 90
        3
300
CELLSTYLE
  1
TABLEFORMAT_BEGIN
 90
        5
170
     1
 91
        0
 92
    32768
 62
   257
 93
        1
300
CONTENTFORMAT
  1
CONTENTFORMAT_BEGIN
 90
        0
 91
        0
 92
        4
 93
        0
300

 40
0.0
140
1.0
 94
        5
 62
     0
340
852
144
0.25
309
CONTENTFORMAT_END
171
     1
301
MARGIN
  1
CELLMARGIN_BEGIN
 40
0.06
 40
0.06
 40
0.06
 40
0.06
 40
0.18
 40
0.18
309
CELLMARGIN_END
 94
        6
 95
        1
302
GRIDFORMAT
  1
GRIDFORMAT_BEGIN
 90
        0
 91
        1
 62
     0
 92
       -2
340
0
 93
        0
 40
0.045
309
GRIDFORMAT_END
 95
        2
302
GRIDFORMAT
  1
GRIDFORMAT_BEGIN
 90
        0
 91
        1
 62
     0
 92
       -2
340
0
 93
        0
 40
0.045
309
GRIDFORMAT_END
 95
        4
302
GRIDFORMAT
  1
GRIDFORMAT_BEGIN
 90
        0
 91
        1
 62
     0
 92
       -2
340
0
 93
        0
 40
0.045
309
GRIDFORMAT_END
 95
        8
302
GRIDFORMAT
  1
GRIDFORMAT_BEGIN
 90
        0
 91
        1
 62
     0
 92
       -2
340
0
 93
        0
 40
0.045
309
GRIDFORMAT_END
 95
       16
302
GRIDFORMAT
  1
GRIDFORMAT_BEGIN
 90
        0
 91
        1
 62
     0
 92
       -2
340
0
 93
        0
 40
0.045
309
GRIDFORMAT_END
 95
       32
302
GRIDFORMAT
  1
GRIDFORMAT_BEGIN
 90
        0
 91
        1
 62
     0
 92
       -2
340
0
 93
        0
 40
0.045
309
GRIDFORMAT_END
309
TABLEFORMAT_END
  1
CELLSTYLE_BEGIN
 90
        1
 91
        1
300
_TITLE
309
CELLSTYLE_END
300
CELLSTYLE
  1
TABLEFORMAT_BEGIN
 90
        5
170
     1
 91
        0
 92
        0
 62
   257
 93
        1
300
CONTENTFORMAT
  1
CONTENTFORMAT_BEGIN
 90
        0
 91
        0
 92
        4
 93
        0
300

 40
0.0
140
1.0
 94
        5
 62
     0
340
852
144
0.18
309
CONTENTFORMAT_END
171
     1
301
MARGIN
  1
CELLMARGIN_BEGIN
 40
0.06
 40
0.06
 40
0.06
 40
0.06
 40
0.18
 40
0.18
309
CELLMARGIN_END
 94
        6
 95
        1
302
GRIDFORMAT
  1
GRIDFORMAT_BEGIN
 90
        0
 91
        1
 62
     0
 92
       -2
340
0
 93
        0
 40
0.045
309
GRIDFORMAT_END
 95
        2
302
GRIDFORMAT
  1
GRIDFORMAT_BEGIN
 90
        0
 91
        1
 62
     0
 92
       -2
340
0
 93
        0
 40
0.045
309
GRIDFORMAT_END
 95
        4
302
GRIDFORMAT
  1
GRIDFORMAT_BEGIN
 90
        0
 91
        1
 62
     0
 92
       -2
340
0
 93
        0
 40
0.045
309
GRIDFORMAT_END
 95
        8
302
GRIDFORMAT
  1
GRIDFORMAT_BEGIN
 90
        0
 91
        1
 62
     0
 92
       -2
340
0
 93
        0
 40
0.045
309
GRIDFORMAT_END
 95
       16
302
GRIDFORMAT
  1
GRIDFORMAT_BEGIN
 90
        0
 91
        1
 62
     0
 92
       -2
340
0
 93
        0
 40
0.045
309
GRIDFORMAT_END
 95
       32
302
GRIDFORMAT
  1
GRIDFORMAT_BEGIN
 90
        0
 91
        1
 62
     0
 92
       -2
340
0
 93
        0
 40
0.045
309
GRIDFORMAT_END
309
TABLEFORMAT_END
  1
CELLSTYLE_BEGIN
 90
        2
 91
        1
300
_HEADER
309
CELLSTYLE_END
300
CELLSTYLE
  1
TABLEFORMAT_BEGIN
 90
        5
170
     1
 91
        0
 92
        0
 62
   257
 93
        1
300
CONTENTFORMAT
  1
CONTENTFORMAT_BEGIN
 90
        0
 91
        0
 92
        4
 93
        0
300

 40
0.0
140
1.0
 94
        2
 62
     0
340
852
144
0.18
309
CONTENTFORMAT_END
171
     1
301
MARGIN
  1
CELLMARGIN_BEGIN
 40
0.06
 40
0.06
 40
0.06
 40
0.06
 40
0.18
 40
0.18
309
CELLMARGIN_END
 94
        6
 95
        1
302
GRIDFORMAT
  1
GRIDFORMAT_BEGIN
 90
        0
 91
        1
 62
     0
 92
       -2
340
0
 93
        0
 40
0.045
309
GRIDFORMAT_END
 95
        2
302
GRIDFORMAT
  1
GRIDFORMAT_BEGIN
 90
        0
 91
        1
 62
     0
 92
       -2
340
0
 93
        0
 40
0.045
309
GRIDFORMAT_END
 95
        4
302
GRIDFORMAT
  1
GRIDFORMAT_BEGIN
 90
        0
 91
        1
 62
     0
 92
       -2
340
0
 93
        0
 40
0.045
309
GRIDFORMAT_END
 95
        8
302
GRIDFORMAT
  1
GRIDFORMAT_BEGIN
 90
        0
 91
        1
 62
     0
 92
       -2
340
0
 93
        0
 40
0.045
309
GRIDFORMAT_END
 95
       16
302
GRIDFORMAT
  1
GRIDFORMAT_BEGIN
 90
        0
 91
        1
 62
     0
 92
       -2
340
0
 93
        0
 40
0.045
309
GRIDFORMAT_END
 95
       32
302
GRIDFORMAT
  1
GRIDFORMAT_BEGIN
 90
        0
 91
        1
 62
     0
 92
       -2
340
0
 93
        0
 40
0.045
309
GRIDFORMAT_END
309
TABLEFORMAT_END
  1
CELLSTYLE_BEGIN
 90
        3
 91
        2
300
_DATA
309
CELLSTYLE_END
  0
XRECORD
  5
1E6B
102
{ACAD_REACTORS
330
1448
102
}
330
1448
100
AcDbXrecord
280
     1
102
ACAD_ROUNDTRIP_PRE2007_TABLESTYLE
 90
        4
 91
        0
  1

 92
        4
 93
        0
  2

 94
        4
 95
        0
  3

  0
ENDSEC
  0
EOF
