  0
SECTION
  2
HEADER
  9
$ACADVER
  1
AC1015
  9
$ACADMAINTVER
 70
    20
  9
$DWGCODEPAGE
  3
ANSI_932
  9
$INSBASE
 10
0.0
 20
0.0
 30
0.0
  9
$EXTMIN
 10
-409.2269729348227
 20
-633.4991340216947
 30
-0.0015258207003583
  9
$EXTMAX
 10
854.7088736723035
 20
1027.95411009336
 30
0.0000000349246037
  9
$LIMMIN
 10
-2970.0
 20
-2100.0
  9
$LIMMAX
 10
2970.0
 20
2100.0
  9
$ORTHOMODE
 70
     1
  9
$REGENMODE
 70
     0
  9
$FILLMODE
 70
     1
  9
$QTEXTMODE
 70
     0
  9
$MIRRTEXT
 70
     0
  9
$LTSCALE
 40
20.0
  9
$ATTMODE
 70
     1
  9
$TEXTSIZE
 40
64.0
  9
$TRACEWID
 40
0.05
  9
$TEXTSTYLE
  7
STANDARD
  9
$CLAYER
  8
0
  9
$CELTYPE
  6
CONTINUOUS
  9
$CECOLOR
 62
   256
  9
$CELTSCALE
 40
1.0
  9
$DISPSILH
 70
     0
  9
$DIMSCALE
 40
1.0
  9
$DIMASZ
 40
0.12
  9
$DIMEXO
 40
0.05
  9
$DIMDLI
 40
0.5
  9
$DIMRND
 40
0.0
  9
$DIMDLE
 40
0.0
  9
$DIMEXE
 40
0.1
  9
$DIMTP
 40
0.1
  9
$DIMTM
 40
0.1
  9
$DIMTXT
 40
0.12
  9
$DIMCEN
 40
0.0
  9
$DIMTSZ
 40
0.0
  9
$DIMTOL
 70
     0
  9
$DIMLIM
 70
     0
  9
$DIMTIH
 70
     1
  9
$DIMTOH
 70
     1
  9
$DIMSE1
 70
     0
  9
$DIMSE2
 70
     0
  9
$DIMTAD
 70
     0
  9
$DIMZIN
 70
     7
  9
$DIMBLK
  1

  9
$DIMASO
 70
     1
  9
$DIMSHO
 70
     0
  9
$DIMPOST
  1

  9
$DIMAPOST
  1
mm
  9
$DIMALT
 70
     0
  9
$DIMALTD
 70
     2
  9
$DIMALTF
 40
25.4
  9
$DIMLFAC
 40
1.0
  9
$DIMTOFL
 70
     0
  9
$DIMTVP
 40
0.0
  9
$DIMTIX
 70
     0
  9
$DIMSOXD
 70
     0
  9
$DIMSAH
 70
     0
  9
$DIMBLK1
  1

  9
$DIMBLK2
  1

  9
$DIMSTYLE
  2
AM_ANSI
  9
$DIMCLRD
 70
   256
  9
$DIMCLRE
 70
   256
  9
$DIMCLRT
 70
     2
  9
$DIMTFAC
 40
0.71
  9
$DIMGAP
 40
0.06
  9
$DIMJUST
 70
     0
  9
$DIMSD1
 70
     0
  9
$DIMSD2
 70
     0
  9
$DIMTOLJ
 70
     1
  9
$DIMTZIN
 70
     7
  9
$DIMALTZ
 70
     0
  9
$DIMALTTZ
 70
     0
  9
$DIMUPT
 70
     0
  9
$DIMDEC
 70
     4
  9
$DIMTDEC
 70
     4
  9
$DIMALTU
 70
     2
  9
$DIMALTTD
 70
     4
  9
$DIMTXSTY
  7
STANDARD
  9
$DIMAUNIT
 70
     0
  9
$DIMADEC
 70
     0
  9
$DIMALTRND
 40
0.0
  9
$DIMAZIN
 70
     2
  9
$DIMDSEP
 70
    46
  9
$DIMATFIT
 70
     3
  9
$DIMFRAC
 70
     0
  9
$DIMLDRBLK
  1

  9
$DIMLUNIT
 70
     2
  9
$DIMLWD
 70
    -1
  9
$DIMLWE
 70
    -1
  9
$DIMTMOVE
 70
     0
  9
$LUNITS
 70
     2
  9
$LUPREC
 70
     4
  9
$SKETCHINC
 40
0.1
  9
$FILLETRAD
 40
4.0
  9
$AUNITS
 70
     1
  9
$AUPREC
 70
     3
  9
$MENU
  1
ACAD
  9
$ELEVATION
 40
0.0
  9
$PELEVATION
 40
0.0
  9
$THICKNESS
 40
50.0
  9
$LIMCHECK
 70
     0
  9
$CHAMFERA
 40
0.0
  9
$CHAMFERB
 40
0.0
  9
$CHAMFERC
 40
0.0
  9
$CHAMFERD
 40
0.0
  9
$SKPOLY
 70
     0
  9
$TDCREATE
 40
2452321.396199653
  9
$TDUCREATE
 40
2452321.021199653
  9
$TDUPDATE
 40
2457113.677673750
  9
$TDUUPDATE
 40
2457113.302673750
  9
$TDINDWG
 40
0.8284567940
  9
$TDUSRTIMER
 40
0.8284552315
  9
$USRTIMER
 70
     1
  9
$ANGBASE
 50
0.0
  9
$ANGDIR
 70
     0
  9
$PDMODE
 70
     3
  9
$PDSIZE
 40
-2.0
  9
$PLINEWID
 40
0.0
  9
$SPLFRAME
 70
     0
  9
$SPLINETYPE
 70
     6
  9
$SPLINESEGS
 70
     8
  9
$HANDSEED
  5
1D14
  9
$SURFTAB1
 70
     6
  9
$SURFTAB2
 70
     6
  9
$SURFTYPE
 70
     6
  9
$SURFU
 70
     6
  9
$SURFV
 70
     6
  9
$UCSBASE
  2

  9
$UCSNAME
  2

  9
$UCSORG
 10
0.0
 20
0.0
 30
0.0
  9
$UCSXDIR
 10
1.0
 20
0.0
 30
0.0
  9
$UCSYDIR
 10
0.0
 20
1.0
 30
0.0
  9
$UCSORTHOREF
  2

  9
$UCSORTHOVIEW
 70
     0
  9
$UCSORGTOP
 10
0.0
 20
0.0
 30
0.0
  9
$UCSORGBOTTOM
 10
0.0
 20
0.0
 30
0.0
  9
$UCSORGLEFT
 10
0.0
 20
0.0
 30
0.0
  9
$UCSORGRIGHT
 10
0.0
 20
0.0
 30
0.0
  9
$UCSORGFRONT
 10
0.0
 20
0.0
 30
0.0
  9
$UCSORGBACK
 10
0.0
 20
0.0
 30
0.0
  9
$PUCSBASE
  2

  9
$PUCSNAME
  2

  9
$PUCSORG
 10
0.0
 20
0.0
 30
0.0
  9
$PUCSXDIR
 10
1.0
 20
0.0
 30
0.0
  9
$PUCSYDIR
 10
0.0
 20
1.0
 30
0.0
  9
$PUCSORTHOREF
  2

  9
$PUCSORTHOVIEW
 70
     0
  9
$PUCSORGTOP
 10
0.0
 20
0.0
 30
0.0
  9
$PUCSORGBOTTOM
 10
0.0
 20
0.0
 30
0.0
  9
$PUCSORGLEFT
 10
0.0
 20
0.0
 30
0.0
  9
$PUCSORGRIGHT
 10
0.0
 20
0.0
 30
0.0
  9
$PUCSORGFRONT
 10
0.0
 20
0.0
 30
0.0
  9
$PUCSORGBACK
 10
0.0
 20
0.0
 30
0.0
  9
$USERI1
 70
     0
  9
$USERI2
 70
     0
  9
$USERI3
 70
     0
  9
$USERI4
 70
     0
  9
$USERI5
 70
     0
  9
$USERR1
 40
20.0
  9
$USERR2
 40
0.0
  9
$USERR3
 40
0.0
  9
$USERR4
 40
0.0
  9
$USERR5
 40
0.0
  9
$WORLDVIEW
 70
     1
  9
$SHADEDGE
 70
     3
  9
$SHADEDIF
 70
    70
  9
$TILEMODE
 70
     1
  9
$MAXACTVP
 70
    64
  9
$PINSBASE
 10
0.0
 20
0.0
 30
0.0
  9
$PLIMCHECK
 70
     0
  9
$PEXTMIN
 10
1.000000000000000E+20
 20
1.000000000000000E+20
 30
1.000000000000000E+20
  9
$PEXTMAX
 10
-1.000000000000000E+20
 20
-1.000000000000000E+20
 30
-1.000000000000000E+20
  9
$PLIMMIN
 10
0.0
 20
0.0
  9
$PLIMMAX
 10
12.0
 20
9.0
  9
$UNITMODE
 70
     0
  9
$VISRETAIN
 70
     1
  9
$PLINEGEN
 70
     0
  9
$PSLTSCALE
 70
     1
  9
$TREEDEPTH
 70
  3020
  9
$CMLSTYLE
  2
STANDARD
  9
$CMLJUST
 70
     0
  9
$CMLSCALE
 40
1.0
  9
$PROXYGRAPHICS
 70
     1
  9
$MEASUREMENT
 70
     0
  9
$CELWEIGHT
370
    -1
  9
$ENDCAPS
280
     0
  9
$JOINSTYLE
280
     0
  9
$LWDISPLAY
290
     0
  9
$INSUNITS
 70
     0
  9
$HYPERLINKBASE
  1

  9
$STYLESHEET
  1

  9
$XEDIT
290
     1
  9
$CEPSNTYPE
380
     0
  9
$PSTYLEMODE
290
     1
  9
$FINGERPRINTGUID
  2
{68F3F60F-982D-43C0-B084-568AB2094408}
  9
$VERSIONGUID
  2
{6053366E-AB41-4486-95CD-BD71C223279D}
  9
$EXTNAMES
290
     1
  9
$PSVPSCALE
 40
0.0
  9
$OLESTARTUP
290
     0
  0
ENDSEC
  0
SECTION
  2
CLASSES
  0
CLASS
  1
ACDBDICTIONARYWDFLT
  2
AcDbDictionaryWithDefault
  3
ObjectDBX Classes
 90
        0
280
     0
281
     0
  0
CLASS
  1
ACDBPLACEHOLDER
  2
AcDbPlaceHolder
  3
ObjectDBX Classes
 90
        0
280
     0
281
     0
  0
CLASS
  1
LAYOUT
  2
AcDbLayout
  3
ObjectDBX Classes
 90
        0
280
     0
281
     0
  0
CLASS
  1
DICTIONARYVAR
  2
AcDbDictionaryVar
  3
ObjectDBX Classes
 90
        0
280
     0
281
     0
  0
CLASS
  1
TABLESTYLE
  2
AcDbTableStyle
  3
ObjectDBX Classes
 90
     4095
280
     0
281
     0
  0
CLASS
  1
ACME_DOCUMENT
  2
AcMeDbDoc
  3
AcMeServices
 90
     1024
280
     0
281
     0
  0
CLASS
  1
AMGSETTINGSOBJ
  2
AmgSettingsObj
  3
"AcadM|Product Description: AutoCAD Mechanical|Company: Autodesk, Inc."
 90
     1024
280
     0
281
     0
  0
CLASS
  1
ACMESCOPE
  2
AcMeScope
  3
AcMeServices
 90
     1024
280
     0
281
     0
  0
CLASS
  1
ACMECOMMANDHISTORY
  2
AcMeCommandHistory
  3
AcMeServices
 90
     1024
280
     0
281
     0
  0
CLASS
  1
ACIMSYSVARMAN
  2
AcImSysVarManager
  3
AcMeServices
 90
     1024
280
     0
281
     0
  0
CLASS
  1
ACIMREALSYSVAR
  2
AcImRealSysVar
  3
AcMeServices
 90
     1024
280
     0
281
     0
  0
CLASS
  1
ACIMINTSYSVAR
  2
AcImIntSysVar
  3
AcMeServices
 90
     1024
280
     0
281
     0
  0
CLASS
  1
ACMEDRAWINGMAN
  2
AcMeDrawingMan
  3
AcMeServices
 90
     1024
280
     0
281
     0
  0
CLASS
  1
ACMEVIEW
  2
AcMeView
  3
AcMeServices
 90
     1024
280
     0
281
     0
  0
CLASS
  1
ACDBENTITYCACHE
  2
AcMeEntityCache
  3
AcMeServices
 90
     1024
280
     0
281
     0
  0
CLASS
  1
GSMANAGER
  2
AcMeGSManager
  3
AcMeServices
 90
     1024
280
     0
281
     0
  0
CLASS
  1
AMDTINTERNALREACTOR
  2
AmdtInternalReactor
  3
AcMeServices
 90
     1024
280
     0
281
     0
  0
CLASS
  1
ACMESTATEMGR
  2
AcMeStateMgr
  3
AcMeServices
 90
     1024
280
     0
281
     0
  0
CLASS
  1
ACGREFMASTER
  2
AcGrefMaster
  3
AcAttribServices
 90
     1024
280
     0
281
     0
  0
CLASS
  1
AM_DRAWING_MGR
  2
AcDmDwgMgr
  3
AcMechDwgViewMgmt
 90
     1024
280
     0
281
     0
  0
CLASS
  1
AM_DWG_DOCUMENT
  2
AcDmDwgDocument
  3
AcMechDwgViewMgmt
 90
     1024
280
     0
281
     0
  0
CLASS
  1
AM_DWG_SHEET
  2
AcDmSheet
  3
AcMechDwgViewMgmt
 90
     1024
280
     0
281
     0
  0
CLASS
  1
AM_VIEWDIMPARMAP
  2
AcDmViewDimParMap
  3
AcMechDwgViewMgmt
 90
     1024
280
     0
281
     0
  0
CLASS
  1
AM_DWGMGR_NAME
  2
AcDmDwgMgrName
  3
AcMechDwgViewMgmt
 90
     1024
280
     0
281
     0
  0
CLASS
  1
ACME_DATABASE
  2
AcMeDbDatabase
  3
AcMeServices
 90
     1024
280
     0
281
     0
  0
CLASS
  1
ACRFINSADJUSTERMGR
  2
AcRfInsAdjusterMgr
  3
AcMeServices
 90
     1024
280
     0
281
     0
  0
CLASS
  1
ACGREFACADMASTER
  2
AcGrefacadMaster
  3
AcGrefServices
 90
     1024
280
     0
281
     0
  0
CLASS
  1
AMDTMENUSTATEMGR
  2
AmdtMenuStateMgr
  3
McadcomServices
 90
     1024
280
     0
281
     0
  0
CLASS
  1
AMDTMCOMMENUSTATE
  2
AmdtMcomMenuState
  3
McadcomServices
 90
     1024
280
     0
281
     0
  0
CLASS
  1
AMIMASTER
  2
AmiMaster
  3
AmiServices
 90
     1024
280
     0
281
     0
  0
CLASS
  1
ASAPP
  2
AcAsAppObject
  3
AutoSurfServices
 90
     1024
280
     0
281
     0
  0
CLASS
  1
IM_STATIC_MAN
  2
AcImStaticVarManager
  3
AcMeServices
 90
     1024
280
     0
281
     0
  0
CLASS
  1
ACIMSTRSYSVAR
  2
AcImStrSysVar
  3
AcMeServices
 90
     1024
280
     0
281
     0
  0
CLASS
  1
ACIMDBLSTATICVAR
  2
AcImDblStaticVar
  3
AcMeServices
 90
     1024
280
     0
281
     0
  0
CLASS
  1
ACIMSTRSTATICVAR
  2
AcImStrStaticVar
  3
AcMeServices
 90
     1024
280
     0
281
     0
  0
CLASS
  1
ACIMINTSTATICVAR
  2
AcImIntStaticVar
  3
AcMeServices
 90
     1024
280
     0
281
     0
  0
CLASS
  1
ACASGREFMASTER
  2
AcAsGrefMaster
  3
AutoSurfResolverServices
 90
     1024
280
     0
281
     0
  0
CLASS
  1
ACADGREFMODULE
  2
AcAdGrefModule
  3
AdGrefServices
 90
     1024
280
     0
281
     0
  0
CLASS
  1
AMDTMAPISURFMOUDULE
  2
AmdtMApiSurfModule
  3
MApiSurfServices
 90
     1024
280
     0
281
     0
  0
CLASS
  1
MAPIAMMOUDLE
  2
MApiAmModule
  3
MApiAmServices
 90
     1024
280
     0
281
     0
  0
CLASS
  1
AMDTADMENUSTATE
  2
AmdtAdMenuState
  3
DesignerServices
 90
     1024
280
     0
281
     0
  0
CLASS
  1
ADAPPL
  2
AcAdAppl
  3
DesignerServices
 90
     1024
280
     0
281
     0
  0
CLASS
  1
DEPMGR
  2
AcAdDepMgr
  3
DesignerServices
 90
     1024
280
     0
281
     0
  0
CLASS
  1
PARAMMGR
  2
AcAdParamMgr
  3
DesignerServices
 90
     1024
280
     0
281
     0
  0
CLASS
  1
PARAMSCOPE
  2
AcAdParamScope
  3
DesignerServices
 90
     1024
280
     0
281
     0
  0
CLASS
  1
NAMEDAPPL
  2
AcAdNamedAppl
  3
DesignerServices
 90
     1024
280
     0
281
     0
  0
CLASS
  1
AMDTDMMENUSTATE
  2
AmdtDmMenuState
  3
AcMechDwgViewMgmt
 90
     1024
280
     0
281
     0
  0
CLASS
  1
MAPIADMODULE
  2
MApiAdModule
  3
MApiAdServices
 90
     1024
280
     0
281
     0
  0
CLASS
  1
AMDTAMMENUSTATE
  2
AmdtAmMenuState
  3
DesignerAssemblies
 90
     1024
280
     0
281
     0
  0
CLASS
  1
ACAMPROJECT
  2
AcAmProject
  3
DesignerAssemblies
 90
     1024
280
     0
281
     0
  0
CLASS
  1
ACAMGRCOMPDEF
  2
AcAmGrCompDef
  3
DesignerAssemblies
 90
     1024
280
     0
281
     0
  0
CLASS
  1
ACCMCONTEXT
  2
AcCmContext
  3
DesignerAssemblies
 90
     1024
280
     0
281
     0
  0
CLASS
  1
ACAMCOMPDEF
  2
AcAmCompDef
  3
DesignerAssemblies
 90
     1024
280
     0
281
     0
  0
CLASS
  1
ACAMCOMPDEFMGR
  2
AcAmCompDefMgr
  3
DesignerAssemblies
 90
     1024
280
     0
281
     0
  0
CLASS
  1
AMCONTEXTMGR
  2
AcAmContextMgr
  3
DesignerAssemblies
 90
     1024
280
     0
281
     0
  0
CLASS
  1
ACAMCONTEXTMODELER
  2
AcAmContextModeler
  3
DesignerAssemblies
 90
     1024
280
     0
281
     0
  0
CLASS
  1
ACMDATADICTIONARY
  2
AcmDataDictionary
  3
"AcmSymBB|Product Description: AutoCAD Mechanical|Company: Autodesk, Inc."
 90
     1024
280
     0
281
     0
  0
CLASS
  1
ACMDATAENTRYBLOCK
  2
AcmDataEntryBlock
  3
AcmSymBB|Product Description: AutoCAD Mechanical|Company: Autodesk, Inc.
 90
     1024
280
     0
281
     0
  0
CLASS
  1
CATALOGSTATE
  2
AcAmCatalogState
  3
DesignerAssemblies
 90
     1024
280
     0
281
     0
  0
CLASS
  1
ACAMGRCOMPDEFSET
  2
AcAmGrCompDefSet
  3
DesignerAssemblies
 90
     1024
280
     0
281
     0
  0
CLASS
  1
AMDTBROWSERDBTAB
  2
AmdtBrowserDbTab
  3
McadcomServices
 90
     1024
280
     0
281
     0
  0
CLASS
  1
CBROWSERAPPOBJECT
  2
CBrowserAppObject
  3
McadcomServices
 90
     1024
280
     0
281
     0
  0
CLASS
  1
DM_PLACEHOLDER
  2
AcDmSelsetPlaceholder
  3
AcMechDwgViewMgmt
 90
     1024
280
     0
281
     0
  0
CLASS
  1
ACMSTANDARDANSI
  2
AcmStandardANSI
  3
"Amdt_StdImp|Product Description: AutoCAD Mechanical|Company: Autodesk, Inc."
 90
     1024
280
     0
281
     0
  0
CLASS
  1
AMGOBJPROPCFG
  2
AmgObjPropCfg
  3
"AmgLay|Product Description: AutoCAD Mechanical|Company: Autodesk, Inc."
 90
     1025
280
     0
281
     0
  0
CLASS
  1
ACMSURFSTANDARDANSI
  2
AcmSurfTextStdANSI
  3
"Amdt_StdImp|Product Description: AutoCAD Mechanical|Company: Autodesk, Inc."
 90
     1024
280
     0
281
     0
  0
CLASS
  1
ACMFCFSTANDARDANSI
  2
AcmFCFStdANSI
  3
"Amdt_StdImp|Product Description: AutoCAD Mechanical|Company: Autodesk, Inc."
 90
     1024
280
     0
281
     0
  0
CLASS
  1
ACMWELDSTANDARDANSI
  2
AcmWeldingStdANSI
  3
"Amdt_StdImp|Product Description: AutoCAD Mechanical|Company: Autodesk, Inc."
 90
     1024
280
     0
281
     0
  0
CLASS
  1
ACMIDSTANDARDANSI
  2
AcmIdStdANSI
  3
"Amdt_StdImp|Product Description: AutoCAD Mechanical|Company: Autodesk, Inc."
 90
     1024
280
     0
281
     0
  0
CLASS
  1
ACMDATUMSTANDARDANSI
  2
AcmDatumStdANSI
  3
"Amdt_StdImp|Product Description: AutoCAD Mechanical|Company: Autodesk, Inc."
 90
     1024
280
     0
281
     0
  0
CLASS
  1
ACMBOMSTANDARDANSI
  2
AcmBOMStdANSI
  3
"Amdt_StdImp|Product Description: AutoCAD Mechanical|Company: Autodesk, Inc."
 90
     1024
280
     0
281
     0
  0
CLASS
  1
ACMDETAILSTANDARDANSI
  2
AmdtDetailSymStdANSI
  3
"Amdt_StdImp|Product Description: AutoCAD Mechanical|Company: Autodesk, Inc."
 90
     1024
280
     0
281
     0
  0
CLASS
  1
ACMSECTIONSTANDARDANSI
  2
AmdtSectionSymStdANSI
  3
"Amdt_StdImp|Product Description: AutoCAD Mechanical|Company: Autodesk, Inc."
 90
     1024
280
     0
281
     0
  0
CLASS
  1
ACMCENTERLINESTANDARDANSI
  2
AmdtCenterLineStdANSI
  3
"Amdt_StdImp|Product Description: AutoCAD Mechanical|Company: Autodesk, Inc."
 90
     1024
280
     0
281
     0
  0
CLASS
  1
ACMTHREADLINESTANDARDANSI
  2
AmdtThreadLineStdANSI
  3
"Amdt_StdImp|Product Description: AutoCAD Mechanical|Company: Autodesk, Inc."
 90
     1024
280
     0
281
     0
  0
CLASS
  1
ACMNOTESTANDARDANSI
  2
AmdtNoteStdANSI
  3
"Amdt_StdImp|Product Description: AutoCAD Mechanical|Company: Autodesk, Inc."
 90
     1024
280
     0
281
     0
  0
CLASS
  1
AMDTNOTETEMPLATEDB
  2
AmdtNoteTemplateDB
  3
AcmSymBB|Product Description: AutoCAD Mechanical|Company: Autodesk, Inc.
 90
     1024
280
     0
281
     0
  0
CLASS
  1
ACAMGLAYSTD
  2
AcAmgLayStd
  3
"AmgLay|Product Description: AutoCAD Mechanical|Company: Autodesk, Inc."
 90
     1024
280
     0
281
     0
  0
CLASS
  1
ACAMGDIMSTD
  2
AcAmgDimStd
  3
"AmgDim|Product Description: AutoCAD Mechanical|Company: Autodesk, Inc."
 90
     1024
280
     0
281
     0
  0
CLASS
  1
ACAMGHOLECHARTSTDANSI
  2
AcAmgHoleChartStdANSI
  3
AmgDim|Product Description: AutoCAD Mechanical|Company: Autodesk, Inc.
 90
     1024
280
     0
281
     0
  0
CLASS
  1
ACAMGTITLESTD
  2
AcAmgTitleStd
  3
"AmgTitle|Product Description: AutoCAD Mechanical|Company: Autodesk, Inc."
 90
     4095
280
     0
281
     0
  0
CLASS
  1
ACAMGFILTERDAT
  2
AcAmgFilterDat
  3
"AcadM|Product Description: AutoCAD Mechanical|Company: Autodesk, Inc."
 90
     1024
280
     0
281
     0
  0
CLASS
  1
LAYER_INDEX
  2
AcDbLayerIndex
  3
ObjectDBX Classes
 90
        0
280
     0
281
     0
  0
CLASS
  1
IDBUFFER
  2
AcDbIdBuffer
  3
ObjectDBX Classes
 90
        0
280
     0
281
     0
  0
CLASS
  1
SORTENTSTABLE
  2
AcDbSortentsTable
  3
ObjectDBX Classes
 90
        0
280
     0
281
     0
  0
CLASS
  1
MATERIAL
  2
AcDbMaterial
  3
ObjectDBX Classes
 90
     1153
280
     0
281
     0
  0
CLASS
  1
VISUALSTYLE
  2
AcDbVisualStyle
  3
ObjectDBX Classes
 90
     4095
280
     0
281
     0
  0
CLASS
  1
SCALE
  2
AcDbScale
  3
ObjectDBX Classes
 90
     1153
280
     0
281
     0
  0
CLASS
  1
MLEADERSTYLE
  2
AcDbMLeaderStyle
  3
ACDB_MLEADERSTYLE_CLASS
 90
     4095
280
     0
281
     0
  0
CLASS
  1
CELLSTYLEMAP
  2
AcDbCellStyleMap
  3
ObjectDBX Classes
 90
     1152
280
     0
281
     0
  0
CLASS
  1
ACRFATTGENMGR
  2
AcRfAttGeneralMgr
  3
AcAttribServices
 90
     1024
280
     0
281
     0
  0
CLASS
  1
ACRFOBJATTMGR
  2
AcRfObjAttGroupMgr
  3
AcAttribServices
 90
     1024
280
     0
281
     0
  0
CLASS
  1
ACRFMCADAPIATTHOLDER
  2
AcRfMCADAPIAttHolder
  3
AcAttribServices
 90
     1024
280
     0
281
     0
  0
CLASS
  1
AMDTSYSATTR
  2
AmdtSystemAttribute
  3
AcAttribServices
 90
     1024
280
     0
281
     0
  0
CLASS
  1
ACMTAPERSTANDARDANSI
  2
AcmTaperStdANSI
  3
"Amdt_StdImp|Product Description: AutoCAD Mechanical|Company: Autodesk, Inc."
 90
     1024
280
     0
281
     0
  0
CLASS
  1
ACMANOOTATIONVIEWSTANDARDANSI
  2
AmdtAnViewStdANSI
  3
"Amdt_StdImp|Product Description: AutoCAD Mechanical|Company: Autodesk, Inc."
 90
     1024
280
     0
281
     0
  0
ENDSEC
  0
SECTION
  2
TABLES
  0
TABLE
  2
VPORT
  5
849
330
0
100
AcDbSymbolTable
 70
     1
  0
VPORT
  5
129C
330
849
100
AcDbSymbolTableRecord
100
AcDbViewportTableRecord
  2
*Active
 70
     0
 10
0.0
 20
0.0
 11
1.0
 21
1.0
 12
-610.8770702806106
 22
171.3281286904387
 13
0.0
 23
0.0
 14
1.0
 24
1.0
 15
0.0
 25
0.0
 16
0.0
 26
0.0
 36
1.0
 17
833.6180206493509
 27
25.89935934539397
 37
0.0
 40
1674.656846055042
 41
1.733421750663129
 42
50.0
 43
0.0
 44
0.0
 50
0.0
 51
0.0
 71
     0
 72
   100
 73
     1
 74
     0
 75
     0
 76
     0
 77
     0
 78
     0
281
     0
 65
     0
110
0.0
120
0.0
130
0.0
111
1.0
121
0.0
131
0.0
112
0.0
122
1.0
132
0.0
 79
     0
146
0.0
  0
ENDTAB
  0
TABLE
  2
LTYPE
  5
846
330
0
100
AcDbSymbolTable
 70
    20
  0
LTYPE
  5
854
330
846
100
AcDbSymbolTableRecord
100
AcDbLinetypeTableRecord
  2
BYBLOCK
 70
     0
  3

 72
    65
 73
     0
 40
0.0
  0
LTYPE
  5
855
330
846
100
AcDbSymbolTableRecord
100
AcDbLinetypeTableRecord
  2
BYLAYER
 70
     0
  3

 72
    65
 73
     0
 40
0.0
  0
LTYPE
  5
856
330
846
100
AcDbSymbolTableRecord
100
AcDbLinetypeTableRecord
  2
CONTINUOUS
 70
     0
  3
実線
 72
    65
 73
     0
 40
0.0
  0
LTYPE
  5
865
330
846
100
AcDbSymbolTableRecord
100
AcDbLinetypeTableRecord
  2
DASHDOT
 70
     0
  3
____ _ ____ _ ____ _ ____ _ ____ _ ____ _ ____
 72
    65
 73
     4
 40
5.5
 49
4.0
 74
     0
 49
-0.6
 74
     0
 49
0.3
 74
     0
 49
-0.6
 74
     0
  0
LTYPE
  5
118C
330
846
100
AcDbSymbolTableRecord
100
AcDbLinetypeTableRecord
  2
HIDDEN
 70
     0
  3
Hidden __ __ __ __ __ __ __ __ __ __ __ __ __ _
 72
    65
 73
     2
 40
0.375
 49
0.25
 74
     0
 49
-0.125
 74
     0
  0
LTYPE
  5
118D
330
846
100
AcDbSymbolTableRecord
100
AcDbLinetypeTableRecord
  2
PHANTOM2
 70
     0
  3
Phantom (.5x) ___ _ _ ___ _ _ ___ _ _ ___ _ _
 72
    65
 73
     6
 40
1.25
 49
0.625
 74
     0
 49
-0.125
 74
     0
 49
0.125
 74
     0
 49
-0.125
 74
     0
 49
0.125
 74
     0
 49
-0.125
 74
     0
  0
LTYPE
  5
118E
330
846
100
AcDbSymbolTableRecord
100
AcDbLinetypeTableRecord
  2
CENTER
 70
     0
  3
Center ____ _ ____ _ ____ _ ____ _ ____ _ ____
 72
    65
 73
     4
 40
2.0
 49
1.25
 74
     0
 49
-0.25
 74
     0
 49
0.25
 74
     0
 49
-0.25
 74
     0
  0
LTYPE
  5
11DD
330
846
100
AcDbSymbolTableRecord
100
AcDbLinetypeTableRecord
  2
ASULTYPE
 70
     0
  3
実線
 72
    65
 73
     2
 40
3.0
 49
2.5
 74
     0
 49
0.5
 74
     0
  0
LTYPE
  5
11DE
330
846
100
AcDbSymbolTableRecord
100
AcDbLinetypeTableRecord
  2
ASVLTYPE
 70
     0
  3
__ __ __ __ __ __ __ __ __ __ __ __ __ __ __ __ __ __ __ __ __
 72
    65
 73
     2
 40
0.75
 49
0.5
 74
     0
 49
-0.25
 74
     0
  0
LTYPE
  5
1225
330
846
100
AcDbSymbolTableRecord
100
AcDbLinetypeTableRecord
  2
AM_ISO02W050
 70
     0
  3
__ __ __ __ __ __ __ __ __ __ __ __ __ __ __
 72
    65
 73
     2
 40
7.5
 49
6.0
 74
     0
 49
-1.5
 74
     0
  0
LTYPE
  5
1226
330
846
100
AcDbSymbolTableRecord
100
AcDbLinetypeTableRecord
  2
AM_ISO08W050
 70
     0
  3
____ . ____ . ____ . ____ . ____ . ____ . ____
 72
    65
 73
     4
 40
18.0
 49
12.0
 74
     0
 49
-1.5
 74
     0
 49
3.0
 74
     0
 49
-1.5
 74
     0
  0
LTYPE
  5
1227
330
846
100
AcDbSymbolTableRecord
100
AcDbLinetypeTableRecord
  2
AM_ISO09W050
 70
     0
  3
_____ . . _____ . . _____ . . ____ .. ____
 72
    65
 73
     6
 40
22.5
 49
12.0
 74
     0
 49
-1.5
 74
     0
 49
3.0
 74
     0
 49
-1.5
 74
     0
 49
3.0
 74
     0
 49
-1.5
 74
     0
  0
LTYPE
  5
1228
330
846
100
AcDbSymbolTableRecord
100
AcDbLinetypeTableRecord
  2
Amconstr
 70
     0
  3
_______________________
 72
    65
 73
     2
 40
9999.0
 49
9999.0
 74
     0
 49
0.0
 74
     0
  0
LTYPE
  5
1229
330
846
100
AcDbSymbolTableRecord
100
AcDbLinetypeTableRecord
  2
AM_ISO08W050x2
 70
     0
  3
__ . __ . __ . __ . __ . __
 72
    65
 73
     4
 40
9.0
 49
6.0
 74
     0
 49
-0.75
 74
     0
 49
1.5
 74
     0
 49
-0.75
 74
     0
  0
LTYPE
  5
122A
330
846
100
AcDbSymbolTableRecord
100
AcDbLinetypeTableRecord
  2
AM_ISO02W050x2
 70
     0
  3
 _ _ _ _ _ _ _ _ _ _ _ _
 72
    65
 73
     2
 40
3.75
 49
3.0
 74
     0
 49
-0.75
 74
     0
  0
LTYPE
  5
122D
330
846
100
AcDbSymbolTableRecord
100
AcDbLinetypeTableRecord
  2
Amzigzag
 70
     0
  3
/\/-/\/-/\/-/\/-/\/-/\/
 72
    65
 73
     2
 40
11.0001
 49
0.0001
 74
     4
 75
   136
340
122C
 46
0.04
 50
0.0
 44
0.0
 45
0.0
 49
-11.0
 74
     0
  0
LTYPE
  5
122E
330
846
100
AcDbSymbolTableRecord
100
AcDbLinetypeTableRecord
  2
CENTER2
 70
     0
  3
Center (.5x) ___ _ ___ _ ___ _ ___ _ ___ _ ___
 72
    65
 73
     4
 40
1.125
 49
0.75
 74
     0
 49
-0.125
 74
     0
 49
0.125
 74
     0
 49
-0.125
 74
     0
  0
LTYPE
  5
122F
330
846
100
AcDbSymbolTableRecord
100
AcDbLinetypeTableRecord
  2
HIDDEN2
 70
     0
  3
Hidden (.5x) _ _ _ _ _ _ _ _ _ _ _ _ _ _ _ _ _
 72
    65
 73
     2
 40
0.1875
 49
0.125
 74
     0
 49
-0.0625
 74
     0
  0
LTYPE
  5
1230
330
846
100
AcDbSymbolTableRecord
100
AcDbLinetypeTableRecord
  2
Amzigzag2
 70
     0
  3
/\/-/\/-/\/-/\/-/\/-/\/
 72
    65
 73
     2
 40
0.4401
 49
0.0001
 74
     4
 75
   136
340
122C
 46
0.0016
 50
0.0
 44
0.0
 45
0.0
 49
-0.4400000000000003
 74
     0
  0
LTYPE
  5
123E
330
846
100
AcDbSymbolTableRecord
100
AcDbLinetypeTableRecord
  2
ACANSTGB
 70
     0
  3
__ . . __ . .
 72
    65
 73
     6
 40
0.35433070866
 49
0.15748031496
 74
     0
 49
-0.03937007874
 74
     0
 49
0.03937007874
 74
     0
 49
-0.03937007874
 74
     0
 49
0.03937007874
 74
     0
 49
-0.03937007874
 74
     0
  0
LTYPE
  5
123F
330
846
100
AcDbSymbolTableRecord
100
AcDbLinetypeTableRecord
  2
ACANSTGL
 70
     0
  3
_ _ _ _ _
 72
    65
 73
     2
 40
0.11811023622
 49
0.07874015748
 74
     0
 49
-0.03937007874
 74
     0
  0
ENDTAB
  0
TABLE
  2
LAYER
  5
843
102
{ACAD_XDICTIONARY
360
146C
102
}
330
0
100
AcDbSymbolTable
 70
    12
  0
LAYER
  5
851
102
{ACAD_XDICTIONARY
360
1305
102
}
330
843
100
AcDbSymbolTableRecord
100
AcDbLayerTableRecord
  2
0
 70
     0
 62
     7
  6
CONTINUOUS
370
    -3
390
B83
  0
LAYER
  5
863
102
{ACAD_XDICTIONARY
360
1307
102
}
330
843
100
AcDbSymbolTableRecord
100
AcDbLayerTableRecord
  2
OUTLINE
 70
     0
 62
     3
  6
CONTINUOUS
370
    -3
390
B83
  0
LAYER
  5
866
102
{ACAD_XDICTIONARY
360
1309
102
}
330
843
100
AcDbSymbolTableRecord
100
AcDbLayerTableRecord
  2
SIZE
 70
     0
 62
    30
  6
CONTINUOUS
370
    -3
390
B83
  0
LAYER
  5
867
102
{ACAD_XDICTIONARY
360
130B
102
}
330
843
100
AcDbSymbolTableRecord
100
AcDbLayerTableRecord
  2
BASIS
 70
     0
 62
     6
  6
DASHDOT
370
    -3
390
B83
  0
LAYER
  5
868
102
{ACAD_XDICTIONARY
360
130D
102
}
330
843
100
AcDbSymbolTableRecord
100
AcDbLayerTableRecord
  2
DETAIL
 70
     0
 62
     5
  6
CONTINUOUS
370
    -3
390
B83
  0
LAYER
  5
869
102
{ACAD_XDICTIONARY
360
130F
102
}
330
843
100
AcDbSymbolTableRecord
100
AcDbLayerTableRecord
  2
ARRANGE
 70
     0
 62
     1
  6
CONTINUOUS
370
    -3
390
B83
  0
LAYER
  5
86A
330
843
100
AcDbSymbolTableRecord
100
AcDbLayerTableRecord
  2
DEFPOINTS
 70
     0
 62
     7
  6
CONTINUOUS
290
     0
370
    -3
390
B83
  0
LAYER
  5
86B
102
{ACAD_XDICTIONARY
360
1311
102
}
330
843
100
AcDbSymbolTableRecord
100
AcDbLayerTableRecord
  2
ETC
 70
     0
 62
    61
  6
CONTINUOUS
370
    -3
390
B83
  0
LAYER
  5
86C
102
{ACAD_XDICTIONARY
360
1313
102
}
330
843
100
AcDbSymbolTableRecord
100
AcDbLayerTableRecord
  2
FIX
 70
     0
 62
    11
  6
CONTINUOUS
370
    -3
390
B83
  0
LAYER
  5
86D
102
{ACAD_XDICTIONARY
360
1315
102
}
330
843
100
AcDbSymbolTableRecord
100
AcDbLayerTableRecord
  2
NOTE
 70
     0
 62
     4
  6
CONTINUOUS
370
    -3
390
B83
  0
LAYER
  5
86E
102
{ACAD_XDICTIONARY
360
1317
102
}
330
843
100
AcDbSymbolTableRecord
100
AcDbLayerTableRecord
  2
SERVICESPACE
 70
     0
 62
     2
  6
DASHDOT
370
    -3
390
B83
  0
LAYER
  5
86F
102
{ACAD_XDICTIONARY
360
1319
102
}
330
843
100
AcDbSymbolTableRecord
100
AcDbLayerTableRecord
  2
SYMBOLLINE
 70
     0
 62
    15
  6
CONTINUOUS
370
    -3
390
B83
  0
ENDTAB
  0
TABLE
  2
STYLE
  5
844
330
0
100
AcDbSymbolTable
 70
     5
  0
STYLE
  5
852
330
844
100
AcDbSymbolTableRecord
100
AcDbTextStyleTableRecord
  2
STANDARD
 70
     0
 40
64.0
 41
0.9
 50
0.0
 71
     0
 42
64.0
  3
SIMPLEX.shx
  4
BIGFONT.shx
  0
STYLE
  5
122C
330
844
100
AcDbSymbolTableRecord
100
AcDbTextStyleTableRecord
  2

 70
     1
 40
0.0
 41
1.0
 50
0.0
 71
     0
 42
64.0
  3
genltshp.shx
  4

  0
STYLE
  5
1231
330
844
100
AcDbSymbolTableRecord
100
AcDbTextStyleTableRecord
  2
ACANSTS
 70
     0
 40
1.0
 41
1.0
 50
0.0
 71
     0
 42
64.0
  3
romans.shx
  4
extfont.shx
  0
STYLE
  5
123D
330
844
100
AcDbSymbolTableRecord
100
AcDbTextStyleTableRecord
  2
ACANSGDT
 70
     0
 40
0.0
 41
1.0
 50
0.0
 71
     0
 42
64.0
  3
amgdt.shx
  4

  0
STYLE
  5
1466
330
844
100
AcDbSymbolTableRecord
100
AcDbTextStyleTableRecord
  2
ADESK1
 70
     0
 40
0.0
 41
1.0
 50
0.0
 71
     0
 42
0.12
  3
romanc.shx
  4
extfont.shx
  0
ENDTAB
  0
TABLE
  2
VIEW
  5
847
330
0
100
AcDbSymbolTable
 70
     1
  0
VIEW
  5
870
330
847
100
AcDbSymbolTableRecord
100
AcDbViewTableRecord
  2
ALL
 70
     0
 40
4282.619807999997
 10
0.0
 20
41.30990399999999
 41
5940.0
 11
0.0
 21
0.0
 31
1.0
 12
0.0
 22
0.0
 32
0.0
 42
50.0
 43
0.0
 44
0.0
 50
0.0
 71
     0
281
     0
 72
     0
  0
ENDTAB
  0
TABLE
  2
UCS
  5
848
330
0
100
AcDbSymbolTable
 70
     0
  0
ENDTAB
  0
TABLE
  2
APPID
  5
84A
330
0
100
AcDbSymbolTable
 70
    23
  0
APPID
  5
853
330
84A
100
AcDbSymbolTableRecord
100
AcDbRegAppTableRecord
  2
ACAD
 70
     0
  0
APPID
  5
1158
330
84A
100
AcDbSymbolTableRecord
100
AcDbRegAppTableRecord
  2
GENIUS_GENDIM_13
 70
     0
  0
APPID
  5
1159
330
84A
100
AcDbSymbolTableRecord
100
AcDbRegAppTableRecord
  2
GENIUS_GENDTOL_13
 70
     0
  0
APPID
  5
115A
330
84A
100
AcDbSymbolTableRecord
100
AcDbRegAppTableRecord
  2
GENIUS_GE3DTOL_13
 70
     0
  0
APPID
  5
115D
330
84A
100
AcDbSymbolTableRecord
100
AcDbRegAppTableRecord
  2
MCAD_NO_VIS
 70
     0
  0
APPID
  5
115E
330
84A
100
AcDbSymbolTableRecord
100
AcDbRegAppTableRecord
  2
ACAD_TEMP_GRAPHIC
 70
     0
  0
APPID
  5
1190
330
84A
100
AcDbSymbolTableRecord
100
AcDbRegAppTableRecord
  2
AD_DRAW
 70
     0
  0
APPID
  5
1193
330
84A
100
AcDbSymbolTableRecord
100
AcDbRegAppTableRecord
  2
ACATTRIBSERVICES
 70
     0
  0
APPID
  5
11DF
330
84A
100
AcDbSymbolTableRecord
100
AcDbRegAppTableRecord
  2
ASURF_PCURVE_APPNAME
 70
     0
  0
APPID
  5
11E4
330
84A
100
AcDbSymbolTableRecord
100
AcDbRegAppTableRecord
  2
AMG_3D2D_5.0
 70
     0
  0
APPID
  5
1215
330
84A
100
AcDbSymbolTableRecord
100
AcDbRegAppTableRecord
  2
DESIGNERASSEMBLIES
 70
     0
  0
APPID
  5
121C
330
84A
100
AcDbSymbolTableRecord
100
AcDbRegAppTableRecord
  2
ACADM_DIM_EDIT
 70
     0
  0
APPID
  5
121D
330
84A
100
AcDbSymbolTableRecord
100
AcDbRegAppTableRecord
  2
AMDT_DM_ADJ
 70
     0
  0
APPID
  5
124C
330
84A
100
AcDbSymbolTableRecord
100
AcDbRegAppTableRecord
  2
ACAD_DSTYLE_DIMARC_LENGTH_SYMBOL
 70
     0
  0
APPID
  5
124D
330
84A
100
AcDbSymbolTableRecord
100
AcDbRegAppTableRecord
  2
ACAD_DSTYLE_DIMJOGGED_JOGANGLE_SYMBOL
 70
     0
  0
APPID
  5
12EE
330
84A
100
AcDbSymbolTableRecord
100
AcDbRegAppTableRecord
  2
ACAD_MLEADERVER
 70
     0
  0
APPID
  5
142E
330
84A
100
AcDbSymbolTableRecord
100
AcDbRegAppTableRecord
  2
ACAD_EXEMPT_FROM_CAD_STANDARDS
 70
     0
  0
APPID
  5
1469
330
84A
100
AcDbSymbolTableRecord
100
AcDbRegAppTableRecord
  2
ACAD_PSEXT
 70
     0
  0
APPID
  5
146A
330
84A
100
AcDbSymbolTableRecord
100
AcDbRegAppTableRecord
  2
ACAD_DSTYLE_DIMJAG
 70
     0
  0
APPID
  5
146B
330
84A
100
AcDbSymbolTableRecord
100
AcDbRegAppTableRecord
  2
ACAD_DSTYLE_DIMTALN
 70
     0
  0
APPID
  5
1552
330
84A
100
AcDbSymbolTableRecord
100
AcDbRegAppTableRecord
  2
ACAD_DSTYLE_DIM_LINETYPE
 70
     0
  0
APPID
  5
1553
330
84A
100
AcDbSymbolTableRecord
100
AcDbRegAppTableRecord
  2
ACAD_DSTYLE_DIM_EXT1_LINETYPE
 70
     0
  0
APPID
  5
1554
330
84A
100
AcDbSymbolTableRecord
100
AcDbRegAppTableRecord
  2
ACAD_DSTYLE_DIM_EXT2_LINETYPE
 70
     0
  0
ENDTAB
  0
TABLE
  2
DIMSTYLE
  5
84B
330
0
100
AcDbSymbolTable
 70
     9
100
AcDbDimStyleTable
 71
     2
340
124B
340
871
  0
DIMSTYLE
105
871
330
84B
100
AcDbSymbolTableRecord
100
AcDbDimStyleTableRecord
  2
STANDARD
 70
     0
275
     1
284
     8
285
     8
286
     8
340
852
  0
DIMSTYLE
105
124B
330
84B
100
AcDbSymbolTableRecord
100
AcDbDimStyleTableRecord
  2
AM_ANSI
 70
     0
  4
mm
 41
0.12
 42
0.05
 43
0.5
 44
0.1
 47
0.1
 48
0.1
 78
     7
 79
     2
140
0.12
141
0.0
146
0.71
147
0.06
176
   256
177
   256
178
     2
274
     4
284
     7
340
852
371
    -1
372
    -1
1001
ACAD_DSTYLE_DIMJOGGED_JOGANGLE_SYMBOL
1070
   384
1040
0.7853981633974483
1001
ACAD_DSTYLE_DIMARC_LENGTH_SYMBOL
1070
   379
1070
     1
1001
ACAD_DSTYLE_DIM_LINETYPE
1070
   380
1005
854
1001
ACAD_DSTYLE_DIM_EXT1_LINETYPE
1070
   381
1005
854
1001
ACAD_DSTYLE_DIM_EXT2_LINETYPE
1070
   382
1005
854
  0
DIMSTYLE
105
1254
330
84B
100
AcDbSymbolTableRecord
100
AcDbDimStyleTableRecord
  2
AM_ANSI$3
 70
     0
  4
mm
 41
0.12
 42
0.05
 43
0.5
 44
0.1
 47
0.1
 48
0.1
 78
     7
 79
     2
140
0.12
141
0.0
146
0.71
147
0.06
176
   256
177
   256
178
     2
274
     4
284
     7
288
     1
289
     0
340
852
371
    -1
372
    -1
1001
ACAD_DSTYLE_DIMJOGGED_JOGANGLE_SYMBOL
1070
   384
1040
0.7853981633974483
1001
ACAD_DSTYLE_DIMARC_LENGTH_SYMBOL
1070
   379
1070
     1
1001
ACAD_DSTYLE_DIM_LINETYPE
1070
   380
1005
854
1001
ACAD_DSTYLE_DIM_EXT1_LINETYPE
1070
   381
1005
854
1001
ACAD_DSTYLE_DIM_EXT2_LINETYPE
1070
   382
1005
854
  0
DIMSTYLE
105
1257
330
84B
100
AcDbSymbolTableRecord
100
AcDbDimStyleTableRecord
  2
AM_ANSI$4
 70
     0
  4
mm
 41
0.12
 42
0.05
 43
0.5
 44
0.1
 47
0.1
 48
0.1
 78
     7
 79
     2
140
0.12
141
0.0
146
0.71
147
0.06
176
   256
177
   256
178
     2
274
     4
284
     7
340
852
371
    -1
372
    -1
1001
ACAD_DSTYLE_DIMJOGGED_JOGANGLE_SYMBOL
1070
   384
1040
0.7853981633974483
1001
ACAD_DSTYLE_DIMARC_LENGTH_SYMBOL
1070
   379
1070
     1
1001
ACAD_DSTYLE_DIM_LINETYPE
1070
   380
1005
854
1001
ACAD_DSTYLE_DIM_EXT1_LINETYPE
1070
   381
1005
854
1001
ACAD_DSTYLE_DIM_EXT2_LINETYPE
1070
   382
1005
854
  0
DIMSTYLE
105
125C
330
84B
100
AcDbSymbolTableRecord
100
AcDbDimStyleTableRecord
  2
AM_ANSI$7
 70
     0
  4
mm
 41
0.12
 42
0.05
 43
0.5
 44
0.1
 47
0.1
 48
0.1
 78
     7
 79
     2
140
0.12
141
0.0
146
0.71
147
0.06
176
   256
177
   256
178
     2
274
     4
284
     7
340
852
371
    -1
372
    -1
1001
ACAD_DSTYLE_DIMJOGGED_JOGANGLE_SYMBOL
1070
   384
1040
0.7853981633974483
1001
ACAD_DSTYLE_DIMARC_LENGTH_SYMBOL
1070
   379
1070
     1
1001
ACAD_DSTYLE_DIM_LINETYPE
1070
   380
1005
854
1001
ACAD_DSTYLE_DIM_EXT1_LINETYPE
1070
   381
1005
854
1001
ACAD_DSTYLE_DIM_EXT2_LINETYPE
1070
   382
1005
854
  0
DIMSTYLE
105
125F
330
84B
100
AcDbSymbolTableRecord
100
AcDbDimStyleTableRecord
  2
AM_ANSI$SF
 70
     0
  4
mm
 41
0.12
 42
0.05
 43
0.5
 44
0.1
 47
0.1
 48
0.1
 75
     1
 76
     1
 78
     7
 79
     2
140
0.12
141
0.0
146
0.71
147
0.06
176
   256
177
   256
178
     2
274
     4
284
     7
340
852
371
    -1
372
    -1
1001
ACAD_DSTYLE_DIMJOGGED_JOGANGLE_SYMBOL
1070
   384
1040
0.7853981633974483
1001
ACAD_DSTYLE_DIMARC_LENGTH_SYMBOL
1070
   379
1070
     1
1001
ACAD_DSTYLE_DIM_LINETYPE
1070
   380
1005
854
1001
ACAD_DSTYLE_DIM_EXT1_LINETYPE
1070
   381
1005
854
1001
ACAD_DSTYLE_DIM_EXT2_LINETYPE
1070
   382
1005
854
  0
DIMSTYLE
105
1266
330
84B
100
AcDbSymbolTableRecord
100
AcDbDimStyleTableRecord
  2
AM_ANSI$SH
 70
     0
  4
mm
 41
0.12
 42
0.05
 43
0.5
 44
0.1
 47
0.1
 48
0.1
 75
     1
 76
     1
 78
     7
 79
     2
140
0.12
141
0.0
146
0.71
147
0.06
173
     1
176
   256
177
   256
178
     2
274
     4
284
     7
340
852
343
1260
371
    -1
372
    -1
1001
ACAD_DSTYLE_DIMJOGGED_JOGANGLE_SYMBOL
1070
   384
1040
0.7853981633974483
1001
ACAD_DSTYLE_DIMARC_LENGTH_SYMBOL
1070
   379
1070
     1
1001
ACAD_DSTYLE_DIM_LINETYPE
1070
   380
1005
854
1001
ACAD_DSTYLE_DIM_EXT1_LINETYPE
1070
   381
1005
854
1001
ACAD_DSTYLE_DIM_EXT2_LINETYPE
1070
   382
1005
854
  0
DIMSTYLE
105
1467
330
84B
100
AcDbSymbolTableRecord
100
AcDbDimStyleTableRecord
  2
STANDARD1
 70
     0
 40
6.0
 41
2.5
 42
0.625
 43
6.0
 44
1.25
 47
1.0
 48
0.5
 77
     1
 78
     8
140
2.5
141
0.0
146
0.6
147
1.0
173
     1
284
     1
340
852
341
AB7
343
AB7
344
AB7
  0
DIMSTYLE
105
1468
330
84B
100
AcDbSymbolTableRecord
100
AcDbDimStyleTableRecord
  2
STANDARD$0
 70
     0
 41
12.0
 42
20.0
 44
20.0
 73
     0
 74
     0
 77
     1
 78
     9
140
64.0
141
0.0
147
10.0
271
     0
272
     0
275
     1
284
     8
285
     8
286
     8
340
852
341
AB7
342
AB2
1001
ACAD_DSTYLE_DIMJAG
1070
   388
1040
1.5
1001
ACAD_DSTYLE_DIMTALN
1070
   392
1070
     0
  0
ENDTAB
  0
TABLE
  2
BLOCK_RECORD
  5
842
330
0
100
AcDbSymbolTable
 70
    37
  0
BLOCK_RECORD
  5
85F
102
{ACAD_XDICTIONARY
360
B4F
102
}
330
842
100
AcDbSymbolTableRecord
100
AcDbBlockTableRecord
  2
*MODEL_SPACE
340
B84
  0
BLOCK_RECORD
  5
85B
102
{ACAD_XDICTIONARY
360
B4D
102
}
330
842
100
AcDbSymbolTableRecord
100
AcDbBlockTableRecord
  2
*PAPER_SPACE
340
B85
  0
BLOCK_RECORD
  5
87E
330
842
100
AcDbSymbolTableRecord
100
AcDbBlockTableRecord
  2
_ORIGIN
340
0
  0
BLOCK_RECORD
  5
AB2
330
842
100
AcDbSymbolTableRecord
100
AcDbBlockTableRecord
  2
_DOTBLANK
340
0
102
{BLKREFS
331
1009
331
100A
331
1012
331
1013
331
102D
331
102E
331
1036
331
1037
331
1146
331
1147
331
1340
331
1341
331
143B
331
143C
331
1447
331
1448
331
1453
331
1454
331
145F
331
1460
331
1525
331
1526
331
152E
331
152F
331
1537
331
1538
331
1540
331
1541
331
1640
331
1641
331
164C
331
164D
331
1658
331
1659
331
1664
331
1665
331
1670
331
1671
331
1803
331
1804
331
180C
331
180D
331
1815
331
1816
331
181E
331
181F
331
1827
331
1828
331
1925
331
1926
331
1931
331
1932
331
193D
331
193E
331
1949
331
194A
331
1AF6
331
1AF7
331
1AFF
331
1B00
331
1B08
331
1B09
331
1B11
331
1B12
331
1C04
331
1C05
331
1C0A
331
1C0B
331
1C10
331
1C11
331
1C16
331
1C17
102
}
  0
BLOCK_RECORD
  5
AB7
330
842
100
AcDbSymbolTableRecord
100
AcDbBlockTableRecord
  2
_OPEN30
340
0
102
{BLKREFS
331
1C1A
102
}
  0
BLOCK_RECORD
  5
E91
330
842
100
AcDbSymbolTableRecord
100
AcDbBlockTableRecord
  2
*D3
340
0
  0
BLOCK_RECORD
  5
E9D
330
842
100
AcDbSymbolTableRecord
100
AcDbBlockTableRecord
  2
*D4
340
0
  0
BLOCK_RECORD
  5
EA9
330
842
100
AcDbSymbolTableRecord
100
AcDbBlockTableRecord
  2
*D5
340
0
  0
BLOCK_RECORD
  5
EB5
330
842
100
AcDbSymbolTableRecord
100
AcDbBlockTableRecord
  2
*D6
340
0
  0
BLOCK_RECORD
  5
EC1
330
842
100
AcDbSymbolTableRecord
100
AcDbBlockTableRecord
  2
*D7
340
0
  0
BLOCK_RECORD
  5
111C
330
842
100
AcDbSymbolTableRecord
100
AcDbBlockTableRecord
  2
*D8
340
0
  0
BLOCK_RECORD
  5
1260
330
842
100
AcDbSymbolTableRecord
100
AcDbBlockTableRecord
  2
GENAXEH
340
0
  0
BLOCK_RECORD
  5
1436
330
842
100
AcDbSymbolTableRecord
100
AcDbBlockTableRecord
  2
*D10
340
0
  0
BLOCK_RECORD
  5
1442
330
842
100
AcDbSymbolTableRecord
100
AcDbBlockTableRecord
  2
*D11
340
0
  0
BLOCK_RECORD
  5
144E
330
842
100
AcDbSymbolTableRecord
100
AcDbBlockTableRecord
  2
*D12
340
0
  0
BLOCK_RECORD
  5
145A
330
842
100
AcDbSymbolTableRecord
100
AcDbBlockTableRecord
  2
*D13
340
0
  0
BLOCK_RECORD
  5
14F2
330
842
100
AcDbSymbolTableRecord
100
AcDbBlockTableRecord
  2
*D14
340
0
  0
BLOCK_RECORD
  5
14FE
330
842
100
AcDbSymbolTableRecord
100
AcDbBlockTableRecord
  2
*D15
340
0
  0
BLOCK_RECORD
  5
150A
330
842
100
AcDbSymbolTableRecord
100
AcDbBlockTableRecord
  2
*D16
340
0
  0
BLOCK_RECORD
  5
1516
330
842
100
AcDbSymbolTableRecord
100
AcDbBlockTableRecord
  2
*D17
340
0
  0
BLOCK_RECORD
  5
163B
330
842
100
AcDbSymbolTableRecord
100
AcDbBlockTableRecord
  2
*D18
340
0
  0
BLOCK_RECORD
  5
1647
330
842
100
AcDbSymbolTableRecord
100
AcDbBlockTableRecord
  2
*D19
340
0
  0
BLOCK_RECORD
  5
1653
330
842
100
AcDbSymbolTableRecord
100
AcDbBlockTableRecord
  2
*D20
340
0
  0
BLOCK_RECORD
  5
165F
330
842
100
AcDbSymbolTableRecord
100
AcDbBlockTableRecord
  2
*D21
340
0
  0
BLOCK_RECORD
  5
166B
330
842
100
AcDbSymbolTableRecord
100
AcDbBlockTableRecord
  2
*D22
340
0
  0
BLOCK_RECORD
  5
17C4
330
842
100
AcDbSymbolTableRecord
100
AcDbBlockTableRecord
  2
*D23
340
0
  0
BLOCK_RECORD
  5
17D0
330
842
100
AcDbSymbolTableRecord
100
AcDbBlockTableRecord
  2
*D24
340
0
  0
BLOCK_RECORD
  5
17DC
330
842
100
AcDbSymbolTableRecord
100
AcDbBlockTableRecord
  2
*D25
340
0
  0
BLOCK_RECORD
  5
17E8
330
842
100
AcDbSymbolTableRecord
100
AcDbBlockTableRecord
  2
*D26
340
0
  0
BLOCK_RECORD
  5
17F4
330
842
100
AcDbSymbolTableRecord
100
AcDbBlockTableRecord
  2
*D27
340
0
  0
BLOCK_RECORD
  5
1920
330
842
100
AcDbSymbolTableRecord
100
AcDbBlockTableRecord
  2
*D28
340
0
  0
BLOCK_RECORD
  5
192C
330
842
100
AcDbSymbolTableRecord
100
AcDbBlockTableRecord
  2
*D29
340
0
  0
BLOCK_RECORD
  5
1938
330
842
100
AcDbSymbolTableRecord
100
AcDbBlockTableRecord
  2
*D30
340
0
  0
BLOCK_RECORD
  5
1944
330
842
100
AcDbSymbolTableRecord
100
AcDbBlockTableRecord
  2
*D31
340
0
  0
BLOCK_RECORD
  5
1AC3
330
842
100
AcDbSymbolTableRecord
100
AcDbBlockTableRecord
  2
*D32
340
0
  0
BLOCK_RECORD
  5
1ACF
330
842
100
AcDbSymbolTableRecord
100
AcDbBlockTableRecord
  2
*D33
340
0
  0
BLOCK_RECORD
  5
1ADB
330
842
100
AcDbSymbolTableRecord
100
AcDbBlockTableRecord
  2
*D34
340
0
  0
BLOCK_RECORD
  5
1AE7
330
842
100
AcDbSymbolTableRecord
100
AcDbBlockTableRecord
  2
*D35
340
0
  0
ENDTAB
  0
ENDSEC
  0
SECTION
  2
BLOCKS
  0
BLOCK
  5
860
330
85F
100
AcDbEntity
  8
0
100
AcDbBlockBegin
  2
*MODEL_SPACE
 70
     0
 10
0.0
 20
0.0
 30
0.0
  3
*MODEL_SPACE
  1

  0
ENDBLK
  5
861
330
85F
100
AcDbEntity
  8
0
100
AcDbBlockEnd
  0
BLOCK
  5
85C
330
85B
100
AcDbEntity
 67
     1
  8
0
100
AcDbBlockBegin
  2
*PAPER_SPACE
 70
     0
 10
0.0
 20
0.0
 30
0.0
  3
*PAPER_SPACE
  1

  0
ENDBLK
  5
85D
330
85B
100
AcDbEntity
 67
     1
  8
0
100
AcDbBlockEnd
  0
BLOCK
  5
87F
330
87E
100
AcDbEntity
  8
0
100
AcDbBlockBegin
  2
_ORIGIN
 70
     0
 10
0.0
 20
0.0
 30
0.0
  3
_ORIGIN
  1

  0
CIRCLE
  5
880
330
87E
100
AcDbEntity
  8
0
  6
Continuous
 62
     7
100
AcDbCircle
 10
0.0
 20
0.0
 30
0.0
 40
0.5
  0
LINE
  5
881
330
87E
100
AcDbEntity
  8
0
  6
Continuous
 62
     7
100
AcDbLine
 10
0.0
 20
0.0
 30
0.0
 11
-1.0
 21
0.0
 31
0.0
  0
ENDBLK
  5
882
330
87E
100
AcDbEntity
  8
0
100
AcDbBlockEnd
  0
BLOCK
  5
AB5
330
AB2
100
AcDbEntity
  8
0
 62
     1
100
AcDbBlockBegin
  2
_DOTBLANK
 70
     0
 10
0.0
 20
0.0
 30
0.0
  3
_DOTBLANK
  1

  0
CIRCLE
  5
AB3
330
AB2
100
AcDbEntity
  8
0
  6
ByBlock
 62
     0
100
AcDbCircle
 10
0.0
 20
0.0
 30
0.0
 40
0.5
  0
LINE
  5
AB4
330
AB2
100
AcDbEntity
  8
0
  6
ByBlock
 62
     0
100
AcDbLine
 10
-0.5
 20
0.0
 30
0.0
 11
-1.0
 21
0.0
 31
0.0
  0
ENDBLK
  5
AB6
330
AB2
100
AcDbEntity
  8
0
 62
     1
100
AcDbBlockEnd
  0
BLOCK
  5
ABB
330
AB7
100
AcDbEntity
  8
0
 62
     1
100
AcDbBlockBegin
  2
_OPEN30
 70
     0
 10
0.0
 20
0.0
 30
0.0
  3
_OPEN30
  1

  0
LINE
  5
AB8
330
AB7
100
AcDbEntity
  8
0
  6
ByBlock
 62
     0
100
AcDbLine
 10
-1.0
 20
0.26794919
 30
0.0
 11
0.0
 21
0.0
 31
0.0
  0
LINE
  5
AB9
330
AB7
100
AcDbEntity
  8
0
  6
ByBlock
 62
     0
100
AcDbLine
 10
0.0
 20
0.0
 30
0.0
 11
-1.0
 21
-0.26794919
 31
0.0
  0
LINE
  5
ABA
330
AB7
100
AcDbEntity
  8
0
  6
ByBlock
 62
     0
100
AcDbLine
 10
0.0
 20
0.0
 30
0.0
 11
-1.0
 21
0.0
 31
0.0
  0
ENDBLK
  5
ABC
330
AB7
100
AcDbEntity
  8
0
 62
     1
100
AcDbBlockEnd
  0
BLOCK
  5
E9B
330
E91
100
AcDbEntity
  8
0
100
AcDbBlockBegin
  2
*D3
 70
     1
 10
0.0
 20
0.0
 30
0.0
  3
*D3
  1

  0
LINE
  5
102A
330
E91
100
AcDbEntity
  8
SIZE
  6
Continuous
 62
     0
370
    -2
100
AcDbLine
 10
-172.5
 20
140.0
 30
0.0
 11
-333.6665188469202
 21
140.0
 31
0.0
  0
LINE
  5
102B
330
E91
100
AcDbEntity
  8
SIZE
  6
Continuous
 62
     0
370
    -2
100
AcDbLine
 10
-172.5
 20
-140.0
 30
0.0
 11
-333.6665188469202
 21
-139.9999999999999
 31
0.0
  0
LINE
  5
102C
330
E91
100
AcDbEntity
  8
SIZE
  6
Continuous
 62
     0
370
    -2
100
AcDbLine
 10
-313.6665188469202
 20
128.0
 30
0.0
 11
-313.6665188469202
 21
-127.9999999999999
 31
0.0
  0
INSERT
  5
102D
330
E91
100
AcDbEntity
  8
SIZE
  6
Continuous
 62
     0
370
    -2
100
AcDbBlockReference
  2
_DOTBLANK
 10
-313.66651884692
 20
140.0
 30
0.0
 41
12.0
 42
12.0
 43
12.0
 50
90.0
  0
INSERT
  5
102E
330
E91
100
AcDbEntity
  8
SIZE
  6
Continuous
 62
     0
370
    -2
100
AcDbBlockReference
  2
_DOTBLANK
 10
-313.6665188469202
 20
-139.9999999999999
 30
0.0
 41
12.0
 42
12.0
 43
12.0
 50
270.0
  0
MTEXT
  5
102F
330
E91
100
AcDbEntity
  8
SIZE
  6
Continuous
 62
     0
100
AcDbMText
 10
-355.6665188469201
 20
-0.0000000000000041
 30
0.0
 40
64.0
 41
0.0
 71
     5
 72
     1
  1
\A1;280
 11
0.0000000000000001
 21
1.0
 31
0.0
 73
     1
 44
1.0
1001
ACAD
1000
MTEXTBEGIN
1070
    73
1070
     1
1070
    44
1040
1.0
1070
    74
1070
     0
1000
MTEXTEND
  0
POINT
  5
1030
330
E91
100
AcDbEntity
  8
DEFPOINTS
  6
Continuous
 62
     0
100
AcDbPoint
 10
-152.5
 20
140.0
 30
0.0
  0
POINT
  5
1031
330
E91
100
AcDbEntity
  8
DEFPOINTS
  6
Continuous
 62
     0
100
AcDbPoint
 10
-152.5
 20
-140.0
 30
0.0
  0
POINT
  5
1032
330
E91
100
AcDbEntity
  8
DEFPOINTS
  6
Continuous
 62
     0
100
AcDbPoint
 10
-313.6665188469202
 20
-139.9999999999999
 30
0.0
  0
ENDBLK
  5
E9C
330
E91
100
AcDbEntity
  8
0
100
AcDbBlockEnd
  0
BLOCK
  5
EA7
330
E9D
100
AcDbEntity
  8
0
100
AcDbBlockBegin
  2
*D4
 70
     1
 10
0.0
 20
0.0
 30
0.0
  3
*D4
  1

  0
LINE
  5
1033
330
E9D
100
AcDbEntity
  8
SIZE
  6
Continuous
 62
     0
370
    -2
100
AcDbLine
 10
-167.5
 20
-157.5
 30
0.0
 11
-498.738360622925
 21
-157.4999999999999
 31
0.0
  0
LINE
  5
1034
330
E9D
100
AcDbEntity
  8
SIZE
  6
Continuous
 62
     0
370
    -2
100
AcDbLine
 10
-167.5
 20
157.5
 30
0.0
 11
-498.7383606229246
 21
157.5000000000001
 31
0.0
  0
LINE
  5
1035
330
E9D
100
AcDbEntity
  8
SIZE
  6
Continuous
 62
     0
370
    -2
100
AcDbLine
 10
-478.7383606229248
 20
-145.4999999999999
 30
0.0
 11
-478.7383606229248
 21
145.5000000000001
 31
0.0
  0
INSERT
  5
1036
330
E9D
100
AcDbEntity
  8
SIZE
  6
Continuous
 62
     0
370
    -2
100
AcDbBlockReference
  2
_DOTBLANK
 10
-478.7383606229248
 20
-157.4999999999999
 30
0.0
 41
12.0
 42
12.0
 43
12.0
 50
270.0
  0
INSERT
  5
1037
330
E9D
100
AcDbEntity
  8
SIZE
  6
Continuous
 62
     0
370
    -2
100
AcDbBlockReference
  2
_DOTBLANK
 10
-478.7383606229248
 20
157.5000000000001
 30
0.0
 41
12.0
 42
12.0
 43
12.0
 50
90.0
  0
MTEXT
  5
1038
330
E9D
100
AcDbEntity
  8
SIZE
  6
Continuous
 62
     0
100
AcDbMText
 10
-520.7383606229248
 20
0.0000000000000345
 30
0.0
 40
64.0
 41
0.0
 71
     5
 72
     1
  1
\A1;315
 11
0.0000000000000001
 21
1.0
 31
0.0
 73
     1
 44
1.0
1001
ACAD
1000
MTEXTBEGIN
1070
    73
1070
     1
1070
    44
1040
1.0
1070
    74
1070
     0
1000
MTEXTEND
  0
POINT
  5
1039
330
E9D
100
AcDbEntity
  8
DEFPOINTS
  6
Continuous
 62
     0
100
AcDbPoint
 10
-147.5
 20
-157.5
 30
0.0
  0
POINT
  5
103A
330
E9D
100
AcDbEntity
  8
DEFPOINTS
  6
Continuous
 62
     0
100
AcDbPoint
 10
-147.5
 20
157.5
 30
0.0
  0
POINT
  5
103B
330
E9D
100
AcDbEntity
  8
DEFPOINTS
  6
Continuous
 62
     0
100
AcDbPoint
 10
-478.7383606229248
 20
157.5000000000001
 30
0.0
  0
ENDBLK
  5
EA8
330
E9D
100
AcDbEntity
  8
0
100
AcDbBlockEnd
  0
BLOCK
  5
EB3
330
EA9
100
AcDbEntity
  8
0
100
AcDbBlockBegin
  2
*D5
 70
     1
 10
0.0
 20
0.0
 30
0.0
  3
*D5
  1

  0
LINE
  5
1006
330
EA9
100
AcDbEntity
  8
SIZE
  6
Continuous
 62
     0
370
    -2
100
AcDbLine
 10
-140.0
 20
172.5
 30
0.0
 11
-140.0
 21
287.8579819360972
 31
0.0
  0
LINE
  5
1007
330
EA9
100
AcDbEntity
  8
SIZE
  6
Continuous
 62
     0
370
    -2
100
AcDbLine
 10
140.0
 20
172.5
 30
0.0
 11
140.0
 21
287.8579819360972
 31
0.0
  0
LINE
  5
1008
330
EA9
100
AcDbEntity
  8
SIZE
  6
Continuous
 62
     0
370
    -2
100
AcDbLine
 10
-128.0
 20
267.8579819360972
 30
0.0
 11
128.0
 21
267.8579819360972
 31
0.0
  0
INSERT
  5
1009
330
EA9
100
AcDbEntity
  8
SIZE
  6
Continuous
 62
     0
370
    -2
100
AcDbBlockReference
  2
_DOTBLANK
 10
-140.0
 20
267.8579819360972
 30
0.0
 41
12.0
 42
12.0
 43
12.0
 50
180.0
  0
INSERT
  5
100A
330
EA9
100
AcDbEntity
  8
SIZE
  6
Continuous
 62
     0
370
    -2
100
AcDbBlockReference
  2
_DOTBLANK
 10
140.0
 20
267.8579819360972
 30
0.0
 41
12.0
 42
12.0
 43
12.0
  0
MTEXT
  5
100B
330
EA9
100
AcDbEntity
  8
SIZE
  6
Continuous
 62
     0
100
AcDbMText
 10
0.0000000000000026
 20
309.8579819360972
 30
0.0
 40
64.0
 41
0.0
 71
     5
 72
     1
  1
\A1;280
 73
     1
 44
1.0
1001
ACAD
1000
MTEXTBEGIN
1070
    73
1070
     1
1070
    44
1040
1.0
1070
    74
1070
     0
1000
MTEXTEND
  0
POINT
  5
100C
330
EA9
100
AcDbEntity
  8
DEFPOINTS
  6
Continuous
 62
     0
100
AcDbPoint
 10
-140.0
 20
152.5
 30
0.0
  0
POINT
  5
100D
330
EA9
100
AcDbEntity
  8
DEFPOINTS
  6
Continuous
 62
     0
100
AcDbPoint
 10
140.0
 20
152.5
 30
0.0
  0
POINT
  5
100E
330
EA9
100
AcDbEntity
  8
DEFPOINTS
  6
Continuous
 62
     0
100
AcDbPoint
 10
140.0
 20
267.8579819360972
 30
0.0
  0
ENDBLK
  5
EB4
330
EA9
100
AcDbEntity
  8
0
100
AcDbBlockEnd
  0
BLOCK
  5
EBF
330
EB5
100
AcDbEntity
  8
0
100
AcDbBlockBegin
  2
*D6
 70
     1
 10
0.0
 20
0.0
 30
0.0
  3
*D6
  1

  0
LINE
  5
100F
330
EB5
100
AcDbEntity
  8
SIZE
  6
Continuous
 62
     0
370
    -2
100
AcDbLine
 10
-157.5
 20
167.5
 30
0.0
 11
-157.5
 21
403.7190496136179
 31
0.0
  0
LINE
  5
1010
330
EB5
100
AcDbEntity
  8
SIZE
  6
Continuous
 62
     0
370
    -2
100
AcDbLine
 10
157.5
 20
167.5
 30
0.0
 11
157.5
 21
403.7190496136179
 31
0.0
  0
LINE
  5
1011
330
EB5
100
AcDbEntity
  8
SIZE
  6
Continuous
 62
     0
370
    -2
100
AcDbLine
 10
-145.5
 20
383.719049613618
 30
0.0
 11
145.5
 21
383.719049613618
 31
0.0
  0
INSERT
  5
1012
330
EB5
100
AcDbEntity
  8
SIZE
  6
Continuous
 62
     0
370
    -2
100
AcDbBlockReference
  2
_DOTBLANK
 10
-157.5
 20
383.719049613618
 30
0.0
 41
12.0
 42
12.0
 43
12.0
 50
180.0
  0
INSERT
  5
1013
330
EB5
100
AcDbEntity
  8
SIZE
  6
Continuous
 62
     0
370
    -2
100
AcDbBlockReference
  2
_DOTBLANK
 10
157.5
 20
383.719049613618
 30
0.0
 41
12.0
 42
12.0
 43
12.0
  0
MTEXT
  5
1014
330
EB5
100
AcDbEntity
  8
SIZE
  6
Continuous
 62
     0
100
AcDbMText
 10
0.000000000000031
 20
425.7190496136177
 30
0.0
 40
64.0
 41
0.0
 71
     5
 72
     1
  1
\A1;315
 73
     1
 44
1.0
1001
ACAD
1000
MTEXTBEGIN
1070
    73
1070
     1
1070
    44
1040
1.0
1070
    74
1070
     0
1000
MTEXTEND
  0
POINT
  5
1015
330
EB5
100
AcDbEntity
  8
DEFPOINTS
  6
Continuous
 62
     0
100
AcDbPoint
 10
-157.5
 20
147.5
 30
0.0
  0
POINT
  5
1016
330
EB5
100
AcDbEntity
  8
DEFPOINTS
  6
Continuous
 62
     0
100
AcDbPoint
 10
157.5
 20
147.5
 30
0.0
  0
POINT
  5
1017
330
EB5
100
AcDbEntity
  8
DEFPOINTS
  6
Continuous
 62
     0
100
AcDbPoint
 10
157.5
 20
383.719049613618
 30
0.0
  0
ENDBLK
  5
EC0
330
EB5
100
AcDbEntity
  8
0
100
AcDbBlockEnd
  0
BLOCK
  5
ECB
330
EC1
100
AcDbEntity
  8
0
100
AcDbBlockBegin
  2
*D7
 70
     1
 10
0.0
 20
0.0
 30
0.0
  3
*D7
  1

  0
LINE
  5
133D
330
EC1
100
AcDbEntity
  8
OUTLINE
  6
Continuous
 62
     0
370
    -2
100
AcDbLine
 10
-134.5
 20
-263.0
 30
0.0
 11
-134.5
 21
-395.8549093633587
 31
0.0
  0
LINE
  5
133E
330
EC1
100
AcDbEntity
  8
OUTLINE
  6
Continuous
 62
     0
370
    -2
100
AcDbLine
 10
134.5
 20
-263.0
 30
0.0
 11
134.5
 21
-395.8549093633587
 31
0.0
  0
LINE
  5
133F
330
EC1
100
AcDbEntity
  8
OUTLINE
  6
Continuous
 62
     0
370
    -2
100
AcDbLine
 10
-122.5
 20
-375.8549093633587
 30
0.0
 11
122.5
 21
-375.8549093633587
 31
0.0
  0
INSERT
  5
1340
330
EC1
100
AcDbEntity
  8
OUTLINE
  6
Continuous
 62
     0
370
    -2
100
AcDbBlockReference
  2
_DOTBLANK
 10
-134.5
 20
-375.8549093633587
 30
0.0
 41
12.0
 42
12.0
 43
12.0
 50
180.0
  0
INSERT
  5
1341
330
EC1
100
AcDbEntity
  8
OUTLINE
  6
Continuous
 62
     0
370
    -2
100
AcDbBlockReference
  2
_DOTBLANK
 10
134.5
 20
-375.8549093633587
 30
0.0
 41
12.0
 42
12.0
 43
12.0
  0
MTEXT
  5
1342
330
EC1
100
AcDbEntity
  8
OUTLINE
  6
Continuous
 62
     0
100
AcDbMText
 10
-0.000000000000009
 20
-333.8549093633587
 30
0.0
 40
64.0
 41
0.0
 71
     5
 72
     1
  1
\A1;269
 73
     1
 44
1.0
1001
ACAD
1000
MTEXTBEGIN
1070
    73
1070
     1
1070
    44
1040
1.0
1070
    74
1070
     0
1000
MTEXTEND
  0
POINT
  5
1343
330
EC1
100
AcDbEntity
  8
DEFPOINTS
  6
Continuous
 62
     0
100
AcDbPoint
 10
-134.5
 20
-243.0
 30
0.0
  0
POINT
  5
1344
330
EC1
100
AcDbEntity
  8
DEFPOINTS
  6
Continuous
 62
     0
100
AcDbPoint
 10
134.5
 20
-243.0
 30
0.0
  0
POINT
  5
1345
330
EC1
100
AcDbEntity
  8
DEFPOINTS
  6
Continuous
 62
     0
100
AcDbPoint
 10
134.5
 20
-375.8549093633587
 30
0.0
  0
ENDBLK
  5
ECC
330
EC1
100
AcDbEntity
  8
0
100
AcDbBlockEnd
  0
BLOCK
  5
1126
330
111C
100
AcDbEntity
  8
0
100
AcDbBlockBegin
  2
*D8
 70
     1
 10
0.0
 20
0.0
 30
0.0
  3
*D8
  1

  0
LINE
  5
1143
330
111C
100
AcDbEntity
  8
SIZE
  6
Continuous
 62
     0
370
    -2
100
AcDbLine
 10
142.5
 20
-122.5
 30
0.0
 11
323.8416494985186
 21
-122.5
 31
0.0
  0
LINE
  5
1144
330
111C
100
AcDbEntity
  8
SIZE
  6
Continuous
 62
     0
370
    -2
100
AcDbLine
 10
142.5
 20
122.5
 30
0.0
 11
323.8416494985186
 21
122.4999999999999
 31
0.0
  0
LINE
  5
1145
330
111C
100
AcDbEntity
  8
SIZE
  6
Continuous
 62
     0
370
    -2
100
AcDbLine
 10
303.8416494985185
 20
-110.5
 30
0.0
 11
303.8416494985185
 21
110.4999999999999
 31
0.0
  0
INSERT
  5
1146
330
111C
100
AcDbEntity
  8
SIZE
  6
Continuous
 62
     0
370
    -2
100
AcDbBlockReference
  2
_DOTBLANK
 10
303.8416494985185
 20
-122.5
 30
0.0
 41
12.0
 42
12.0
 43
12.0
 50
270.0
  0
INSERT
  5
1147
330
111C
100
AcDbEntity
  8
SIZE
  6
Continuous
 62
     0
370
    -2
100
AcDbBlockReference
  2
_DOTBLANK
 10
303.8416494985185
 20
122.4999999999999
 30
0.0
 41
12.0
 42
12.0
 43
12.0
 50
90.0
  0
MTEXT
  5
1148
330
111C
100
AcDbEntity
  8
SIZE
  6
Continuous
 62
     0
100
AcDbMText
 10
261.8416494985186
 20
-0.9999999999999468
 30
0.0
 40
64.0
 41
0.0
 71
     5
 72
     1
  1
\A1;□245
 11
0.0000000000000001
 21
1.0
 31
0.0
 73
     1
 44
1.0
1001
ACAD
1000
MTEXTBEGIN
1070
    73
1070
     1
1070
    44
1040
1.0
1070
    74
1070
     0
1000
MTEXTEND
  0
POINT
  5
1149
330
111C
100
AcDbEntity
  8
DEFPOINTS
  6
Continuous
 62
     0
100
AcDbPoint
 10
122.5
 20
-122.5
 30
0.0
  0
POINT
  5
114A
330
111C
100
AcDbEntity
  8
DEFPOINTS
  6
Continuous
 62
     0
100
AcDbPoint
 10
122.5
 20
122.5
 30
0.0
  0
POINT
  5
114B
330
111C
100
AcDbEntity
  8
DEFPOINTS
  6
Continuous
 62
     0
100
AcDbPoint
 10
303.8416494985185
 20
122.4999999999999
 30
0.0
  0
ENDBLK
  5
1127
330
111C
100
AcDbEntity
  8
0
100
AcDbBlockEnd
  0
BLOCK
  5
1262
330
1260
100
AcDbEntity
  8
0
100
AcDbBlockBegin
  2
GENAXEH
 70
     0
 10
0.0
 20
0.0
 30
0.0
  3
GENAXEH
  1

  0
LINE
  5
1261
330
1260
100
AcDbEntity
  8
0
100
AcDbLine
 10
-1.0
 20
0.0
 30
0.0
 11
1.0
 21
0.0
 31
0.0
  0
ENDBLK
  5
1263
330
1260
100
AcDbEntity
  8
0
100
AcDbBlockEnd
  0
BLOCK
  5
1437
330
1436
100
AcDbEntity
  8
0
100
AcDbBlockBegin
  2
*D10
 70
     1
 10
0.0
 20
0.0
 30
0.0
  3
*D10
  1

  0
LINE
  5
1438
330
1436
100
AcDbEntity
  8
SIZE
 62
     0
370
    -2
100
AcDbLine
 10
-43146.17231510281
 20
1411.220049290764
 30
0.0
 11
-43207.10424386181
 21
1411.220049290764
 31
0.0
  0
LINE
  5
1439
330
1436
100
AcDbEntity
  8
SIZE
 62
     0
370
    -2
100
AcDbLine
 10
-43146.17231510281
 20
1126.220049290764
 30
0.0
 11
-43207.10424386181
 21
1126.220049290764
 31
0.0
  0
LINE
  5
143A
330
1436
100
AcDbEntity
  8
SIZE
 62
     0
370
    -2
100
AcDbLine
 10
-43187.10424386181
 20
1399.220049290764
 30
0.0
 11
-43187.10424386181
 21
1138.220049290764
 31
0.0
  0
INSERT
  5
143B
330
1436
100
AcDbEntity
  8
SIZE
 62
     0
370
    -2
100
AcDbBlockReference
  2
_DOTBLANK
 10
-43187.10424386181
 20
1411.220049290764
 30
0.0
 41
12.0
 42
12.0
 43
12.0
 50
90.0
  0
INSERT
  5
143C
330
1436
100
AcDbEntity
  8
SIZE
 62
     0
370
    -2
100
AcDbBlockReference
  2
_DOTBLANK
 10
-43187.10424386181
 20
1126.220049290764
 30
0.0
 41
12.0
 42
12.0
 43
12.0
 50
270.0
  0
MTEXT
  5
143D
330
1436
100
AcDbEntity
  8
SIZE
 62
     0
100
AcDbMText
 10
-43229.10424386181
 20
1268.720049290757
 30
0.0
 40
64.0
 41
0.0
 71
     5
 72
     1
  1
\A1;285
 11
0.0000000000000001
 21
1.0
 31
0.0
 73
     1
 44
1.0
1001
ACAD
1000
MTEXTBEGIN
1070
    73
1070
     1
1070
    44
1040
1.0
1070
    74
1070
     0
1000
MTEXTEND
  0
POINT
  5
143E
330
1436
100
AcDbEntity
  8
DEFPOINTS
 62
     0
100
AcDbPoint
 10
-43126.17231510281
 20
1411.220049290764
 30
0.0
  0
POINT
  5
143F
330
1436
100
AcDbEntity
  8
DEFPOINTS
 62
     0
100
AcDbPoint
 10
-43126.17231510281
 20
1126.220049290764
 30
0.0
  0
POINT
  5
1440
330
1436
100
AcDbEntity
  8
DEFPOINTS
 62
     0
100
AcDbPoint
 10
-43187.10424386181
 20
1126.220049290764
 30
0.0
  0
ENDBLK
  5
1441
330
1436
100
AcDbEntity
  8
0
100
AcDbBlockEnd
  0
BLOCK
  5
1443
330
1442
100
AcDbEntity
  8
0
100
AcDbBlockBegin
  2
*D11
 70
     1
 10
0.0
 20
0.0
 30
0.0
  3
*D11
  1

  0
LINE
  5
1444
330
1442
100
AcDbEntity
  8
SIZE
 62
     0
370
    -2
100
AcDbLine
 10
-43146.17231510281
 20
1126.220049290764
 30
0.0
 11
-43207.10424386181
 21
1126.220049290764
 31
0.0
  0
LINE
  5
1445
330
1442
100
AcDbEntity
  8
SIZE
 62
     0
370
    -2
100
AcDbLine
 10
-43146.17231510281
 20
841.2200492907651
 30
0.0
 11
-43207.10424386181
 21
841.2200492907651
 31
0.0
  0
LINE
  5
1446
330
1442
100
AcDbEntity
  8
SIZE
 62
     0
370
    -2
100
AcDbLine
 10
-43187.10424386181
 20
1114.220049290764
 30
0.0
 11
-43187.10424386181
 21
853.2200492907652
 31
0.0
  0
INSERT
  5
1447
330
1442
100
AcDbEntity
  8
SIZE
 62
     0
370
    -2
100
AcDbBlockReference
  2
_DOTBLANK
 10
-43187.10424386181
 20
1126.220049290764
 30
0.0
 41
12.0
 42
12.0
 43
12.0
 50
90.0
  0
INSERT
  5
1448
330
1442
100
AcDbEntity
  8
SIZE
 62
     0
370
    -2
100
AcDbBlockReference
  2
_DOTBLANK
 10
-43187.10424386181
 20
841.2200492907651
 30
0.0
 41
12.0
 42
12.0
 43
12.0
 50
270.0
  0
MTEXT
  5
1449
330
1442
100
AcDbEntity
  8
SIZE
 62
     0
100
AcDbMText
 10
-43229.10424386181
 20
983.7200492907577
 30
0.0
 40
64.0
 41
0.0
 71
     5
 72
     1
  1
\A1;285
 11
0.0000000000000001
 21
1.0
 31
0.0
 73
     1
 44
1.0
1001
ACAD
1000
MTEXTBEGIN
1070
    73
1070
     1
1070
    44
1040
1.0
1070
    74
1070
     0
1000
MTEXTEND
  0
POINT
  5
144A
330
1442
100
AcDbEntity
  8
DEFPOINTS
 62
     0
100
AcDbPoint
 10
-43126.17231510281
 20
1126.220049290764
 30
0.0
  0
POINT
  5
144B
330
1442
100
AcDbEntity
  8
DEFPOINTS
 62
     0
100
AcDbPoint
 10
-43126.17231510281
 20
841.2200492907651
 30
0.0
  0
POINT
  5
144C
330
1442
100
AcDbEntity
  8
DEFPOINTS
 62
     0
100
AcDbPoint
 10
-43187.10424386181
 20
841.2200492907651
 30
0.0
  0
ENDBLK
  5
144D
330
1442
100
AcDbEntity
  8
0
100
AcDbBlockEnd
  0
BLOCK
  5
144F
330
144E
100
AcDbEntity
  8
0
100
AcDbBlockBegin
  2
*D12
 70
     1
 10
0.0
 20
0.0
 30
0.0
  3
*D12
  1

  0
LINE
  5
1450
330
144E
100
AcDbEntity
  8
SIZE
 62
     0
370
    -2
100
AcDbLine
 10
-43145.37231510279
 20
816.2200492907651
 30
0.0
 11
-43337.78550811524
 21
816.2200492907651
 31
0.0
  0
LINE
  5
1451
330
144E
100
AcDbEntity
  8
SIZE
 62
     0
370
    -2
100
AcDbLine
 10
-43145.37231510279
 20
1437.020049290764
 30
0.0
 11
-43337.78550811524
 21
1437.020049290764
 31
0.0
  0
LINE
  5
1452
330
144E
100
AcDbEntity
  8
SIZE
 62
     0
370
    -2
100
AcDbLine
 10
-43317.78550811525
 20
828.2200492907652
 30
0.0
 11
-43317.78550811525
 21
1425.020049290764
 31
0.0
  0
INSERT
  5
1453
330
144E
100
AcDbEntity
  8
SIZE
 62
     0
370
    -2
100
AcDbBlockReference
  2
_DOTBLANK
 10
-43317.78550811525
 20
816.2200492907651
 30
0.0
 41
12.0
 42
12.0
 43
12.0
 50
270.0
  0
INSERT
  5
1454
330
144E
100
AcDbEntity
  8
SIZE
 62
     0
370
    -2
100
AcDbBlockReference
  2
_DOTBLANK
 10
-43317.78550811525
 20
1437.020049290764
 30
0.0
 41
12.0
 42
12.0
 43
12.0
 50
90.0
  0
MTEXT
  5
1455
330
144E
100
AcDbEntity
  8
SIZE
 62
     0
100
AcDbMText
 10
-43359.78550811525
 20
1126.620049290758
 30
0.0
 40
64.0
 41
0.0
 71
     5
 72
     1
  1
\A1;621
 11
0.0000000000000001
 21
1.0
 31
0.0
 73
     1
 44
1.0
1001
ACAD
1000
MTEXTBEGIN
1070
    73
1070
     1
1070
    44
1040
1.0
1070
    74
1070
     0
1000
MTEXTEND
  0
POINT
  5
1456
330
144E
100
AcDbEntity
  8
DEFPOINTS
 62
     0
100
AcDbPoint
 10
-43125.37231510281
 20
816.2200492907651
 30
0.0
  0
POINT
  5
1457
330
144E
100
AcDbEntity
  8
DEFPOINTS
 62
     0
100
AcDbPoint
 10
-43125.37231510281
 20
1437.020049290764
 30
0.0
  0
POINT
  5
1458
330
144E
100
AcDbEntity
  8
DEFPOINTS
 62
     0
100
AcDbPoint
 10
-43317.78550811525
 20
1437.020049290764
 30
0.0
  0
ENDBLK
  5
1459
330
144E
100
AcDbEntity
  8
0
100
AcDbBlockEnd
  0
BLOCK
  5
145B
330
145A
100
AcDbEntity
  8
0
100
AcDbBlockBegin
  2
*D13
 70
     1
 10
0.0
 20
0.0
 30
0.0
  3
*D13
  1

  0
LINE
  5
145C
330
145A
100
AcDbEntity
  8
SIZE
 62
     0
370
    -2
100
AcDbLine
 10
-43125.37231510281
 20
1457.020049290764
 30
0.0
 11
-43125.37231510281
 21
1524.469715385207
 31
0.0
  0
LINE
  5
145D
330
145A
100
AcDbEntity
  8
SIZE
 62
     0
370
    -2
100
AcDbLine
 10
-42819.25253137845
 20
1172.306029465565
 30
0.0
 11
-42819.25253137845
 21
1524.469715385207
 31
0.0
  0
LINE
  5
145E
330
145A
100
AcDbEntity
  8
SIZE
 62
     0
370
    -2
100
AcDbLine
 10
-43113.37231510281
 20
1504.469715385206
 30
0.0
 11
-42831.25253137844
 21
1504.469715385206
 31
0.0
  0
INSERT
  5
145F
330
145A
100
AcDbEntity
  8
SIZE
 62
     0
370
    -2
100
AcDbBlockReference
  2
_DOTBLANK
 10
-43125.37231510281
 20
1504.469715385206
 30
0.0
 41
12.0
 42
12.0
 43
12.0
 50
180.0
  0
INSERT
  5
1460
330
145A
100
AcDbEntity
  8
SIZE
 62
     0
370
    -2
100
AcDbBlockReference
  2
_DOTBLANK
 10
-42819.25253137845
 20
1504.469715385206
 30
0.0
 41
12.0
 42
12.0
 43
12.0
  0
MTEXT
  5
1461
330
145A
100
AcDbEntity
  8
SIZE
 62
     0
100
AcDbMText
 10
-42972.31242324063
 20
1546.469715385206
 30
0.0
 40
64.0
 41
0.0
 71
     5
 72
     1
  1
\A1;306
 73
     1
 44
1.0
1001
ACAD
1000
MTEXTBEGIN
1070
    73
1070
     1
1070
    44
1040
1.0
1070
    74
1070
     0
1000
MTEXTEND
  0
POINT
  5
1462
330
145A
100
AcDbEntity
  8
DEFPOINTS
 62
     0
100
AcDbPoint
 10
-43125.37231510281
 20
1437.020049290764
 30
0.0
  0
POINT
  5
1463
330
145A
100
AcDbEntity
  8
DEFPOINTS
 62
     0
100
AcDbPoint
 10
-42819.25253137845
 20
1152.306029465565
 30
0.0
  0
POINT
  5
1464
330
145A
100
AcDbEntity
  8
DEFPOINTS
 62
     0
100
AcDbPoint
 10
-42819.25253137845
 20
1504.469715385206
 30
0.0
  0
ENDBLK
  5
1465
330
145A
100
AcDbEntity
  8
0
100
AcDbBlockEnd
  0
BLOCK
  5
14F3
330
14F2
100
AcDbEntity
  8
0
100
AcDbBlockBegin
  2
*D14
 70
     1
 10
0.0
 20
0.0
 30
0.0
  3
*D14
  1

  0
LINE
  5
1522
330
14F2
100
AcDbEntity
  8
SIZE
 62
     0
370
    -2
100
AcDbLine
 10
-20.80000000000291
 20
285.0
 30
0.0
 11
-81.7319287589998
 21
285.0
 31
0.0
  0
LINE
  5
1523
330
14F2
100
AcDbEntity
  8
SIZE
 62
     0
370
    -2
100
AcDbLine
 10
-20.80000000000291
 20
0.0000000000000057
 30
0.0
 11
-81.73192875899983
 21
0.0000000000000229
 31
0.0
  0
LINE
  5
1524
330
14F2
100
AcDbEntity
  8
SIZE
 62
     0
370
    -2
100
AcDbLine
 10
-61.73192875899978
 20
273.0
 30
0.0
 11
-61.73192875899985
 21
12.00000000000002
 31
0.0
  0
INSERT
  5
1525
330
14F2
100
AcDbEntity
  8
SIZE
 62
     0
370
    -2
100
AcDbBlockReference
  2
_DOTBLANK
 10
-61.73192875899978
 20
285.0
 30
0.0
 41
12.0
 42
12.0
 43
12.0
 50
90.0
  0
INSERT
  5
1526
330
14F2
100
AcDbEntity
  8
SIZE
 62
     0
370
    -2
100
AcDbBlockReference
  2
_DOTBLANK
 10
-61.73192875899985
 20
0.0000000000000173
 30
0.0
 41
12.0
 42
12.0
 43
12.0
 50
270.0
  0
MTEXT
  5
1527
330
14F2
100
AcDbEntity
  8
SIZE
 62
     0
100
AcDbMText
 10
-103.7319287589998
 20
142.5
 30
0.0
 40
64.0
 41
0.0
 71
     5
 72
     1
  1
\A1;285
 11
0.0000000000000001
 21
1.0
 31
0.0
 73
     1
 44
1.0
1001
ACAD
1000
MTEXTBEGIN
1070
    73
1070
     1
1070
    44
1040
1.0
1070
    74
1070
     0
1000
MTEXTEND
  0
POINT
  5
1528
330
14F2
100
AcDbEntity
  8
DEFPOINTS
 62
     0
100
AcDbPoint
 10
-0.8000000000029102
 20
285.0
 30
0.0
  0
POINT
  5
1529
330
14F2
100
AcDbEntity
  8
DEFPOINTS
 62
     0
100
AcDbPoint
 10
-0.8000000000029102
 20
0.0
 30
0.0
  0
POINT
  5
152A
330
14F2
100
AcDbEntity
  8
DEFPOINTS
 62
     0
100
AcDbPoint
 10
-61.73192875899985
 20
0.0000000000000173
 30
0.0
  0
ENDBLK
  5
14F4
330
14F2
100
AcDbEntity
  8
0
100
AcDbBlockEnd
  0
BLOCK
  5
14FF
330
14FE
100
AcDbEntity
  8
0
100
AcDbBlockBegin
  2
*D15
 70
     1
 10
0.0
 20
0.0
 30
0.0
  3
*D15
  1

  0
LINE
  5
152B
330
14FE
100
AcDbEntity
  8
SIZE
 62
     0
370
    -2
100
AcDbLine
 10
-20.80000000000291
 20
0.0000000000000057
 30
0.0
 11
-81.7319287589998
 21
0.0000000000000229
 31
0.0
  0
LINE
  5
152C
330
14FE
100
AcDbEntity
  8
SIZE
 62
     0
370
    -2
100
AcDbLine
 10
-20.80000000000291
 20
-284.9999999999992
 30
0.0
 11
-81.73192875899983
 21
-284.9999999999992
 31
0.0
  0
LINE
  5
152D
330
14FE
100
AcDbEntity
  8
SIZE
 62
     0
370
    -2
100
AcDbLine
 10
-61.73192875899978
 20
-11.99999999999998
 30
0.0
 11
-61.73192875899985
 21
-272.9999999999991
 31
0.0
  0
INSERT
  5
152E
330
14FE
100
AcDbEntity
  8
SIZE
 62
     0
370
    -2
100
AcDbBlockReference
  2
_DOTBLANK
 10
-61.73192875899978
 20
0.0000000000000173
 30
0.0
 41
12.0
 42
12.0
 43
12.0
 50
90.0
  0
INSERT
  5
152F
330
14FE
100
AcDbEntity
  8
SIZE
 62
     0
370
    -2
100
AcDbBlockReference
  2
_DOTBLANK
 10
-61.73192875899985
 20
-284.9999999999992
 30
0.0
 41
12.0
 42
12.0
 43
12.0
 50
270.0
  0
MTEXT
  5
1530
330
14FE
100
AcDbEntity
  8
SIZE
 62
     0
100
AcDbMText
 10
-103.7319287589998
 20
-142.4999999999995
 30
0.0
 40
64.0
 41
0.0
 71
     5
 72
     1
  1
\A1;285
 11
0.0000000000000001
 21
1.0
 31
0.0
 73
     1
 44
1.0
1001
ACAD
1000
MTEXTBEGIN
1070
    73
1070
     1
1070
    44
1040
1.0
1070
    74
1070
     0
1000
MTEXTEND
  0
POINT
  5
1531
330
14FE
100
AcDbEntity
  8
DEFPOINTS
 62
     0
100
AcDbPoint
 10
-0.8000000000029102
 20
0.0
 30
0.0
  0
POINT
  5
1532
330
14FE
100
AcDbEntity
  8
DEFPOINTS
 62
     0
100
AcDbPoint
 10
-0.8000000000029102
 20
-284.9999999999992
 30
0.0
  0
POINT
  5
1533
330
14FE
100
AcDbEntity
  8
DEFPOINTS
 62
     0
100
AcDbPoint
 10
-61.73192875899985
 20
-284.9999999999992
 30
0.0
  0
ENDBLK
  5
1500
330
14FE
100
AcDbEntity
  8
0
100
AcDbBlockEnd
  0
BLOCK
  5
150B
330
150A
100
AcDbEntity
  8
0
100
AcDbBlockBegin
  2
*D16
 70
     1
 10
0.0
 20
0.0
 30
0.0
  3
*D16
  1

  0
LINE
  5
1534
330
150A
100
AcDbEntity
  8
SIZE
 62
     0
370
    -2
100
AcDbLine
 10
-20.0
 20
-309.9999999999992
 30
0.0
 11
-212.4131930124423
 21
-309.999999999999
 31
0.0
  0
LINE
  5
1535
330
150A
100
AcDbEntity
  8
SIZE
 62
     0
370
    -2
100
AcDbLine
 10
-20.0
 20
310.8000000000002
 30
0.0
 11
-212.4131930124422
 21
310.8000000000002
 31
0.0
  0
LINE
  5
1536
330
150A
100
AcDbEntity
  8
SIZE
 62
     0
370
    -2
100
AcDbLine
 10
-192.4131930124421
 20
-297.999999999999
 30
0.0
 11
-192.4131930124421
 21
298.8000000000003
 31
0.0
  0
INSERT
  5
1537
330
150A
100
AcDbEntity
  8
SIZE
 62
     0
370
    -2
100
AcDbBlockReference
  2
_DOTBLANK
 10
-192.4131930124421
 20
-309.999999999999
 30
0.0
 41
12.0
 42
12.0
 43
12.0
 50
270.0
  0
INSERT
  5
1538
330
150A
100
AcDbEntity
  8
SIZE
 62
     0
370
    -2
100
AcDbBlockReference
  2
_DOTBLANK
 10
-192.4131930124421
 20
310.8000000000002
 30
0.0
 41
12.0
 42
12.0
 43
12.0
 50
90.0
  0
MTEXT
  5
1539
330
150A
100
AcDbEntity
  8
SIZE
 62
     0
100
AcDbMText
 10
-234.4131930124422
 20
0.3999999999941844
 30
0.0
 40
64.0
 41
0.0
 71
     5
 72
     1
  1
\A1;621
 11
0.0000000000000001
 21
1.0
 31
0.0
 73
     1
 44
1.0
1001
ACAD
1000
MTEXTBEGIN
1070
    73
1070
     1
1070
    44
1040
1.0
1070
    74
1070
     0
1000
MTEXTEND
  0
POINT
  5
153A
330
150A
100
AcDbEntity
  8
DEFPOINTS
 62
     0
100
AcDbPoint
 10
0.0
 20
-309.9999999999992
 30
0.0
  0
POINT
  5
153B
330
150A
100
AcDbEntity
  8
DEFPOINTS
 62
     0
100
AcDbPoint
 10
0.0
 20
310.8000000000002
 30
0.0
  0
POINT
  5
153C
330
150A
100
AcDbEntity
  8
DEFPOINTS
 62
     0
100
AcDbPoint
 10
-192.4131930124421
 20
310.8000000000002
 30
0.0
  0
ENDBLK
  5
150C
330
150A
100
AcDbEntity
  8
0
100
AcDbBlockEnd
  0
BLOCK
  5
1517
330
1516
100
AcDbEntity
  8
0
100
AcDbBlockBegin
  2
*D17
 70
     1
 10
0.0
 20
0.0
 30
0.0
  3
*D17
  1

  0
LINE
  5
153D
330
1516
100
AcDbEntity
  8
SIZE
 62
     0
370
    -2
100
AcDbLine
 10
0.0000000000000012
 20
330.8000000000002
 30
0.0
 11
0.0000000000000054
 21
398.2496660944426
 31
0.0
  0
LINE
  5
153E
330
1516
100
AcDbEntity
  8
SIZE
 62
     0
370
    -2
100
AcDbLine
 10
306.1197837243599
 20
46.08598017480107
 30
0.0
 11
306.1197837243599
 21
398.2496660944426
 31
0.0
  0
LINE
  5
153F
330
1516
100
AcDbEntity
  8
SIZE
 62
     0
370
    -2
100
AcDbLine
 10
12.0
 20
378.2496660944425
 30
0.0
 11
294.1197837243599
 21
378.2496660944425
 31
0.0
  0
INSERT
  5
1540
330
1516
100
AcDbEntity
  8
SIZE
 62
     0
370
    -2
100
AcDbBlockReference
  2
_DOTBLANK
 10
0.0000000000000041
 20
378.2496660944425
 30
0.0
 41
12.0
 42
12.0
 43
12.0
 50
180.0
  0
INSERT
  5
1541
330
1516
100
AcDbEntity
  8
SIZE
 62
     0
370
    -2
100
AcDbBlockReference
  2
_DOTBLANK
 10
306.1197837243599
 20
378.2496660944425
 30
0.0
 41
12.0
 42
12.0
 43
12.0
  0
MTEXT
  5
1542
330
1516
100
AcDbEntity
  8
SIZE
 62
     0
100
AcDbMText
 10
153.0598918621836
 20
420.2496660944425
 30
0.0
 40
64.0
 41
0.0
 71
     5
 72
     1
  1
\A1;306
 73
     1
 44
1.0
1001
ACAD
1000
MTEXTBEGIN
1070
    73
1070
     1
1070
    44
1040
1.0
1070
    74
1070
     0
1000
MTEXTEND
  0
POINT
  5
1543
330
1516
100
AcDbEntity
  8
DEFPOINTS
 62
     0
100
AcDbPoint
 10
0.0
 20
310.8000000000002
 30
0.0
  0
POINT
  5
1544
330
1516
100
AcDbEntity
  8
DEFPOINTS
 62
     0
100
AcDbPoint
 10
306.1197837243599
 20
26.08598017480108
 30
0.0
  0
POINT
  5
1545
330
1516
100
AcDbEntity
  8
DEFPOINTS
 62
     0
100
AcDbPoint
 10
306.1197837243599
 20
378.2496660944425
 30
0.0
  0
ENDBLK
  5
1518
330
1516
100
AcDbEntity
  8
0
100
AcDbBlockEnd
  0
BLOCK
  5
163C
330
163B
100
AcDbEntity
  8
0
100
AcDbBlockBegin
  2
*D18
 70
     1
 10
0.0
 20
0.0
 30
0.0
  3
*D18
  1

  0
LINE
  5
163D
330
163B
100
AcDbEntity
  8
SIZE
  6
Continuous
 62
     0
370
    -2
100
AcDbLine
 10
-45129.40725898721
 20
-174.0747713908248
 30
0.0
 11
-45300.06903641999
 21
-174.0747713908248
 31
0.0
  0
LINE
  5
163E
330
163B
100
AcDbEntity
  8
SIZE
  6
Continuous
 62
     0
370
    -2
100
AcDbLine
 10
-45129.40725898721
 20
-582.0747713908249
 30
0.0
 11
-45300.06903641999
 21
-582.0747713908249
 31
0.0
  0
LINE
  5
163F
330
163B
100
AcDbEntity
  8
SIZE
  6
Continuous
 62
     0
370
    -2
100
AcDbLine
 10
-45280.06903641998
 20
-186.0747713908249
 30
0.0
 11
-45280.06903641998
 21
-570.0747713908249
 31
0.0
  0
INSERT
  5
1640
330
163B
100
AcDbEntity
  8
SIZE
  6
Continuous
 62
     0
370
    -2
100
AcDbBlockReference
  2
_DOTBLANK
 10
-45280.06903641998
 20
-174.0747713908248
 30
0.0
 41
12.0
 42
12.0
 43
12.0
 50
90.0
  0
INSERT
  5
1641
330
163B
100
AcDbEntity
  8
SIZE
  6
Continuous
 62
     0
370
    -2
100
AcDbBlockReference
  2
_DOTBLANK
 10
-45280.06903641998
 20
-582.0747713908249
 30
0.0
 41
12.0
 42
12.0
 43
12.0
 50
270.0
  0
MTEXT
  5
1642
330
163B
100
AcDbEntity
  8
SIZE
  6
Continuous
 62
     0
100
AcDbMText
 10
-45322.06903641998
 20
-378.0747713908322
 30
0.0
 40
64.0
 41
0.0
 71
     5
 72
     1
  1
\A1;408
 11
0.0000000000000001
 21
1.0
 31
0.0
 73
     1
 44
1.0
1001
ACAD
1000
MTEXTBEGIN
1070
    73
1070
     1
1070
    44
1040
1.0
1070
    74
1070
     0
1000
MTEXTEND
  0
POINT
  5
1643
330
163B
100
AcDbEntity
  8
DEFPOINTS
  6
Continuous
 62
     0
100
AcDbPoint
 10
-45109.40725898722
 20
-174.0747713908248
 30
0.0
  0
POINT
  5
1644
330
163B
100
AcDbEntity
  8
DEFPOINTS
  6
Continuous
 62
     0
100
AcDbPoint
 10
-45109.40725898722
 20
-582.0747713908249
 30
0.0
  0
POINT
  5
1645
330
163B
100
AcDbEntity
  8
DEFPOINTS
  6
Continuous
 62
     0
100
AcDbPoint
 10
-45280.06903641998
 20
-582.0747713908249
 30
0.0
  0
ENDBLK
  5
1646
330
163B
100
AcDbEntity
  8
0
100
AcDbBlockEnd
  0
BLOCK
  5
1648
330
1647
100
AcDbEntity
  8
0
100
AcDbBlockBegin
  2
*D19
 70
     1
 10
0.0
 20
0.0
 30
0.0
  3
*D19
  1

  0
LINE
  5
1649
330
1647
100
AcDbEntity
  8
SIZE
  6
Continuous
 62
     0
370
    -2
100
AcDbLine
 10
-45129.40725898721
 20
-582.0747713908249
 30
0.0
 11
-45300.06903641999
 21
-582.0747713908249
 31
0.0
  0
LINE
  5
164A
330
1647
100
AcDbEntity
  8
SIZE
  6
Continuous
 62
     0
370
    -2
100
AcDbLine
 10
-45129.40725898721
 20
-1112.474771390824
 30
0.0
 11
-45300.06903641999
 21
-1112.474771390824
 31
0.0
  0
LINE
  5
164B
330
1647
100
AcDbEntity
  8
SIZE
  6
Continuous
 62
     0
370
    -2
100
AcDbLine
 10
-45280.06903641998
 20
-594.0747713908249
 30
0.0
 11
-45280.06903641998
 21
-1100.474771390825
 31
0.0
  0
INSERT
  5
164C
330
1647
100
AcDbEntity
  8
SIZE
  6
Continuous
 62
     0
370
    -2
100
AcDbBlockReference
  2
_DOTBLANK
 10
-45280.06903641998
 20
-582.0747713908249
 30
0.0
 41
12.0
 42
12.0
 43
12.0
 50
90.0
  0
INSERT
  5
164D
330
1647
100
AcDbEntity
  8
SIZE
  6
Continuous
 62
     0
370
    -2
100
AcDbBlockReference
  2
_DOTBLANK
 10
-45280.06903641998
 20
-1112.474771390824
 30
0.0
 41
12.0
 42
12.0
 43
12.0
 50
270.0
  0
MTEXT
  5
164E
330
1647
100
AcDbEntity
  8
SIZE
  6
Continuous
 62
     0
100
AcDbMText
 10
-45322.06903641998
 20
-847.274771390832
 30
0.0
 40
64.0
 41
0.0
 71
     5
 72
     1
  1
\A1;530
 11
0.0000000000000001
 21
1.0
 31
0.0
 73
     1
 44
1.0
1001
ACAD
1000
MTEXTBEGIN
1070
    73
1070
     1
1070
    44
1040
1.0
1070
    74
1070
     0
1000
MTEXTEND
  0
POINT
  5
164F
330
1647
100
AcDbEntity
  8
DEFPOINTS
  6
Continuous
 62
     0
100
AcDbPoint
 10
-45109.40725898722
 20
-582.0747713908249
 30
0.0
  0
POINT
  5
1650
330
1647
100
AcDbEntity
  8
DEFPOINTS
  6
Continuous
 62
     0
100
AcDbPoint
 10
-45109.40725898722
 20
-1112.474771390824
 30
0.0
  0
POINT
  5
1651
330
1647
100
AcDbEntity
  8
DEFPOINTS
  6
Continuous
 62
     0
100
AcDbPoint
 10
-45280.06903641998
 20
-1112.474771390824
 30
0.0
  0
ENDBLK
  5
1652
330
1647
100
AcDbEntity
  8
0
100
AcDbBlockEnd
  0
BLOCK
  5
1654
330
1653
100
AcDbEntity
  8
0
100
AcDbBlockBegin
  2
*D20
 70
     1
 10
0.0
 20
0.0
 30
0.0
  3
*D20
  1

  0
LINE
  5
1655
330
1653
100
AcDbEntity
  8
SIZE
  6
Continuous
 62
     0
370
    -2
100
AcDbLine
 10
-45115.38977581892
 20
2.946074804801361
 30
0.0
 11
-45433.15854916898
 21
2.946074804801451
 31
0.0
  0
LINE
  5
1656
330
1653
100
AcDbEntity
  8
SIZE
  6
Continuous
 62
     0
370
    -2
100
AcDbLine
 10
-45121.90725898738
 20
-1252.274771390844
 30
0.0
 11
-45433.15854916898
 21
-1252.274771390844
 31
0.0
  0
LINE
  5
1657
330
1653
100
AcDbEntity
  8
SIZE
  6
Continuous
 62
     0
370
    -2
100
AcDbLine
 10
-45413.15854916899
 20
-9.053925195198551
 30
0.0
 11
-45413.15854916899
 21
-1240.274771390844
 31
0.0
  0
INSERT
  5
1658
330
1653
100
AcDbEntity
  8
SIZE
  6
Continuous
 62
     0
370
    -2
100
AcDbBlockReference
  2
_DOTBLANK
 10
-45413.15854916899
 20
2.946074804801444
 30
0.0
 41
12.0
 42
12.0
 43
12.0
 50
90.0
  0
INSERT
  5
1659
330
1653
100
AcDbEntity
  8
SIZE
  6
Continuous
 62
     0
370
    -2
100
AcDbBlockReference
  2
_DOTBLANK
 10
-45413.15854916899
 20
-1252.274771390844
 30
0.0
 41
12.0
 42
12.0
 43
12.0
 50
270.0
  0
MTEXT
  5
165A
330
1653
100
AcDbEntity
  8
SIZE
  6
Continuous
 62
     0
100
AcDbMText
 10
-45455.15854916899
 20
-624.6643482930287
 30
0.0
 40
64.0
 41
0.0
 71
     5
 72
     1
  1
\A1;1255
 11
0.0000000000000001
 21
1.0
 31
0.0
 73
     1
 44
1.0
1001
ACAD
1000
MTEXTBEGIN
1070
    73
1070
     1
1070
    44
1040
1.0
1070
    74
1070
     0
1000
MTEXTEND
  0
POINT
  5
165B
330
1653
100
AcDbEntity
  8
DEFPOINTS
  6
Continuous
 62
     0
100
AcDbPoint
 10
-45095.38977581891
 20
2.946074804801355
 30
0.0
  0
POINT
  5
165C
330
1653
100
AcDbEntity
  8
DEFPOINTS
  6
Continuous
 62
     0
100
AcDbPoint
 10
-45101.90725898738
 20
-1252.274771390844
 30
0.0
  0
POINT
  5
165D
330
1653
100
AcDbEntity
  8
DEFPOINTS
  6
Continuous
 62
     0
100
AcDbPoint
 10
-45413.15854916899
 20
-1252.274771390844
 30
0.0
  0
ENDBLK
  5
165E
330
1653
100
AcDbEntity
  8
0
100
AcDbBlockEnd
  0
BLOCK
  5
1660
330
165F
100
AcDbEntity
  8
0
100
AcDbBlockBegin
  2
*D21
 70
     1
 10
0.0
 20
0.0
 30
0.0
  3
*D21
  1

  0
LINE
  5
1661
330
165F
100
AcDbEntity
  8
SIZE
  6
Continuous
 62
     0
370
    -2
100
AcDbLine
 10
-45096.30725898738
 20
5.032408286128426
 30
0.0
 11
-45096.30725898738
 21
162.2025673556791
 31
0.0
  0
LINE
  5
1662
330
165F
100
AcDbEntity
  8
SIZE
  6
Continuous
 62
     0
370
    -2
100
AcDbLine
 10
-44796.04424628555
 20
-166.9966173058374
 30
0.0
 11
-44796.04424628555
 21
162.2025673556791
 31
0.0
  0
LINE
  5
1663
330
165F
100
AcDbEntity
  8
SIZE
  6
Continuous
 62
     0
370
    -2
100
AcDbLine
 10
-45084.30725898739
 20
142.2025673556791
 30
0.0
 11
-44808.04424628555
 21
142.2025673556791
 31
0.0
  0
INSERT
  5
1664
330
165F
100
AcDbEntity
  8
SIZE
  6
Continuous
 62
     0
370
    -2
100
AcDbBlockReference
  2
_DOTBLANK
 10
-45096.30725898738
 20
142.2025673556791
 30
0.0
 41
12.0
 42
12.0
 43
12.0
 50
180.0
  0
INSERT
  5
1665
330
165F
100
AcDbEntity
  8
SIZE
  6
Continuous
 62
     0
370
    -2
100
AcDbBlockReference
  2
_DOTBLANK
 10
-44796.04424628555
 20
142.2025673556791
 30
0.0
 41
12.0
 42
12.0
 43
12.0
  0
MTEXT
  5
1666
330
165F
100
AcDbEntity
  8
SIZE
  6
Continuous
 62
     0
100
AcDbMText
 10
-44946.17575263647
 20
184.2025673556791
 30
0.0
 40
64.0
 41
0.0
 71
     5
 72
     1
  1
\A1;300
 73
     1
 44
1.0
1001
ACAD
1000
MTEXTBEGIN
1070
    73
1070
     1
1070
    44
1040
1.0
1070
    74
1070
     0
1000
MTEXTEND
  0
POINT
  5
1667
330
165F
100
AcDbEntity
  8
DEFPOINTS
  6
Continuous
 62
     0
100
AcDbPoint
 10
-45096.30725898738
 20
-14.96759171387157
 30
0.0
  0
POINT
  5
1668
330
165F
100
AcDbEntity
  8
DEFPOINTS
  6
Continuous
 62
     0
100
AcDbPoint
 10
-44796.04424628555
 20
-186.9966173058374
 30
0.0
  0
POINT
  5
1669
330
165F
100
AcDbEntity
  8
DEFPOINTS
  6
Continuous
 62
     0
100
AcDbPoint
 10
-44796.04424628555
 20
142.2025673556791
 30
0.0
  0
ENDBLK
  5
166A
330
165F
100
AcDbEntity
  8
0
100
AcDbBlockEnd
  0
BLOCK
  5
166C
330
166B
100
AcDbEntity
  8
0
100
AcDbBlockBegin
  2
*D22
 70
     1
 10
0.0
 20
0.0
 30
0.0
  3
*D22
  1

  0
LINE
  5
166D
330
166B
100
AcDbEntity
  8
SIZE
  6
Continuous
 62
     0
370
    -2
100
AcDbLine
 10
-45101.90725898738
 20
-8.274771390844307
 30
0.0
 11
-45101.90725898738
 21
257.9027315773974
 31
0.0
  0
LINE
  5
166E
330
166B
100
AcDbEntity
  8
SIZE
  6
Continuous
 62
     0
370
    -2
100
AcDbLine
 10
-44796.04424628555
 20
-166.9966173058374
 30
0.0
 11
-44796.04424628555
 21
257.9027315773974
 31
0.0
  0
LINE
  5
166F
330
166B
100
AcDbEntity
  8
SIZE
  6
Continuous
 62
     0
370
    -2
100
AcDbLine
 10
-45089.9072589874
 20
237.9027315773974
 30
0.0
 11
-44808.04424628555
 21
237.9027315773974
 31
0.0
  0
INSERT
  5
1670
330
166B
100
AcDbEntity
  8
SIZE
  6
Continuous
 62
     0
370
    -2
100
AcDbBlockReference
  2
_DOTBLANK
 10
-45101.90725898738
 20
237.9027315773974
 30
0.0
 41
12.0
 42
12.0
 43
12.0
 50
180.0
  0
INSERT
  5
1671
330
166B
100
AcDbEntity
  8
SIZE
  6
Continuous
 62
     0
370
    -2
100
AcDbBlockReference
  2
_DOTBLANK
 10
-44796.04424628555
 20
237.9027315773974
 30
0.0
 41
12.0
 42
12.0
 43
12.0
  0
MTEXT
  5
1672
330
166B
100
AcDbEntity
  8
SIZE
  6
Continuous
 62
     0
100
AcDbMText
 10
-44948.97575263646
 20
279.9027315773975
 30
0.0
 40
64.0
 41
0.0
 71
     5
 72
     1
  1
\A1;306
 73
     1
 44
1.0
1001
ACAD
1000
MTEXTBEGIN
1070
    73
1070
     1
1070
    44
1040
1.0
1070
    74
1070
     0
1000
MTEXTEND
  0
POINT
  5
1673
330
166B
100
AcDbEntity
  8
DEFPOINTS
  6
Continuous
 62
     0
100
AcDbPoint
 10
-45101.90725898738
 20
-28.27477139084431
 30
0.0
  0
POINT
  5
1674
330
166B
100
AcDbEntity
  8
DEFPOINTS
  6
Continuous
 62
     0
100
AcDbPoint
 10
-44796.04424628555
 20
-186.9966173058374
 30
0.0
  0
POINT
  5
1675
330
166B
100
AcDbEntity
  8
DEFPOINTS
  6
Continuous
 62
     0
100
AcDbPoint
 10
-44796.04424628555
 20
237.9027315773974
 30
0.0
  0
ENDBLK
  5
1676
330
166B
100
AcDbEntity
  8
0
100
AcDbBlockEnd
  0
BLOCK
  5
17C5
330
17C4
100
AcDbEntity
  8
0
100
AcDbBlockBegin
  2
*D23
 70
     1
 10
0.0
 20
0.0
 30
0.0
  3
*D23
  1

  0
LINE
  5
1800
330
17C4
100
AcDbEntity
  8
SIZE
  6
Continuous
 62
     0
370
    -2
100
AcDbLine
 10
-27.50000000000728
 20
450.5895769021945
 30
0.0
 11
-198.1617774327823
 21
450.5895769021945
 31
0.0
  0
LINE
  5
1801
330
17C4
100
AcDbEntity
  8
SIZE
  6
Continuous
 62
     0
370
    -2
100
AcDbLine
 10
-27.50000000000728
 20
42.5895769021945
 30
0.0
 11
-198.1617774327824
 21
42.58957690219455
 31
0.0
  0
LINE
  5
1802
330
17C4
100
AcDbEntity
  8
SIZE
  6
Continuous
 62
     0
370
    -2
100
AcDbLine
 10
-178.1617774327823
 20
438.5895769021945
 30
0.0
 11
-178.1617774327824
 21
54.58957690219452
 31
0.0
  0
INSERT
  5
1803
330
17C4
100
AcDbEntity
  8
SIZE
  6
Continuous
 62
     0
370
    -2
100
AcDbBlockReference
  2
_DOTBLANK
 10
-178.1617774327823
 20
450.5895769021945
 30
0.0
 41
12.0
 42
12.0
 43
12.0
 50
90.0
  0
INSERT
  5
1804
330
17C4
100
AcDbEntity
  8
SIZE
  6
Continuous
 62
     0
370
    -2
100
AcDbBlockReference
  2
_DOTBLANK
 10
-178.1617774327824
 20
42.58957690219452
 30
0.0
 41
12.0
 42
12.0
 43
12.0
 50
270.0
  0
MTEXT
  5
1805
330
17C4
100
AcDbEntity
  8
SIZE
  6
Continuous
 62
     0
100
AcDbMText
 10
-220.1617774327824
 20
246.5895769021945
 30
0.0
 40
64.0
 41
0.0
 71
     5
 72
     1
  1
\A1;408
 11
0.0000000000000001
 21
1.0
 31
0.0
 73
     1
 44
1.0
1001
ACAD
1000
MTEXTBEGIN
1070
    73
1070
     1
1070
    44
1040
1.0
1070
    74
1070
     0
1000
MTEXTEND
  0
POINT
  5
1806
330
17C4
100
AcDbEntity
  8
DEFPOINTS
  6
Continuous
 62
     0
100
AcDbPoint
 10
-7.500000000007275
 20
450.5895769021945
 30
0.0
  0
POINT
  5
1807
330
17C4
100
AcDbEntity
  8
DEFPOINTS
  6
Continuous
 62
     0
100
AcDbPoint
 10
-7.500000000007275
 20
42.58957690219449
 30
0.0
  0
POINT
  5
1808
330
17C4
100
AcDbEntity
  8
DEFPOINTS
  6
Continuous
 62
     0
100
AcDbPoint
 10
-178.1617774327824
 20
42.58957690219452
 30
0.0
  0
ENDBLK
  5
17C6
330
17C4
100
AcDbEntity
  8
0
100
AcDbBlockEnd
  0
BLOCK
  5
17D1
330
17D0
100
AcDbEntity
  8
0
100
AcDbBlockBegin
  2
*D24
 70
     1
 10
0.0
 20
0.0
 30
0.0
  3
*D24
  1

  0
LINE
  5
1809
330
17D0
100
AcDbEntity
  8
SIZE
  6
Continuous
 62
     0
370
    -2
100
AcDbLine
 10
-27.50000000000728
 20
42.5895769021945
 30
0.0
 11
-198.1617774327823
 21
42.58957690219455
 31
0.0
  0
LINE
  5
180A
330
17D0
100
AcDbEntity
  8
SIZE
  6
Continuous
 62
     0
370
    -2
100
AcDbLine
 10
-27.50000000000728
 20
-487.8104230978054
 30
0.0
 11
-198.1617774327824
 21
-487.8104230978053
 31
0.0
  0
LINE
  5
180B
330
17D0
100
AcDbEntity
  8
SIZE
  6
Continuous
 62
     0
370
    -2
100
AcDbLine
 10
-178.1617774327823
 20
30.58957690219454
 30
0.0
 11
-178.1617774327824
 21
-475.8104230978053
 31
0.0
  0
INSERT
  5
180C
330
17D0
100
AcDbEntity
  8
SIZE
  6
Continuous
 62
     0
370
    -2
100
AcDbBlockReference
  2
_DOTBLANK
 10
-178.1617774327823
 20
42.58957690219452
 30
0.0
 41
12.0
 42
12.0
 43
12.0
 50
90.0
  0
INSERT
  5
180D
330
17D0
100
AcDbEntity
  8
SIZE
  6
Continuous
 62
     0
370
    -2
100
AcDbBlockReference
  2
_DOTBLANK
 10
-178.1617774327824
 20
-487.8104230978053
 30
0.0
 41
12.0
 42
12.0
 43
12.0
 50
270.0
  0
MTEXT
  5
180E
330
17D0
100
AcDbEntity
  8
SIZE
  6
Continuous
 62
     0
100
AcDbMText
 10
-220.1617774327823
 20
-222.6104230978054
 30
0.0
 40
64.0
 41
0.0
 71
     5
 72
     1
  1
\A1;530
 11
0.0000000000000001
 21
1.0
 31
0.0
 73
     1
 44
1.0
1001
ACAD
1000
MTEXTBEGIN
1070
    73
1070
     1
1070
    44
1040
1.0
1070
    74
1070
     0
1000
MTEXTEND
  0
POINT
  5
180F
330
17D0
100
AcDbEntity
  8
DEFPOINTS
  6
Continuous
 62
     0
100
AcDbPoint
 10
-7.500000000007275
 20
42.58957690219449
 30
0.0
  0
POINT
  5
1810
330
17D0
100
AcDbEntity
  8
DEFPOINTS
  6
Continuous
 62
     0
100
AcDbPoint
 10
-7.500000000007275
 20
-487.8104230978054
 30
0.0
  0
POINT
  5
1811
330
17D0
100
AcDbEntity
  8
DEFPOINTS
  6
Continuous
 62
     0
100
AcDbPoint
 10
-178.1617774327824
 20
-487.8104230978053
 30
0.0
  0
ENDBLK
  5
17D2
330
17D0
100
AcDbEntity
  8
0
100
AcDbBlockEnd
  0
BLOCK
  5
17DD
330
17DC
100
AcDbEntity
  8
0
100
AcDbBlockBegin
  2
*D25
 70
     1
 10
0.0
 20
0.0
 30
0.0
  3
*D25
  1

  0
LINE
  5
1812
330
17DC
100
AcDbEntity
  8
SIZE
  6
Continuous
 62
     0
370
    -2
100
AcDbLine
 10
-13.48251683171111
 20
627.6104230978208
 30
0.0
 11
-331.2512901817752
 21
627.6104230978209
 31
0.0
  0
LINE
  5
1813
330
17DC
100
AcDbEntity
  8
SIZE
  6
Continuous
 62
     0
370
    -2
100
AcDbLine
 10
-20.0000000001819
 20
-627.6104230978249
 30
0.0
 11
-331.2512901817754
 21
-627.6104230978249
 31
0.0
  0
LINE
  5
1814
330
17DC
100
AcDbEntity
  8
SIZE
  6
Continuous
 62
     0
370
    -2
100
AcDbLine
 10
-311.2512901817752
 20
615.6104230978209
 30
0.0
 11
-311.2512901817753
 21
-615.6104230978248
 31
0.0
  0
INSERT
  5
1815
330
17DC
100
AcDbEntity
  8
SIZE
  6
Continuous
 62
     0
370
    -2
100
AcDbBlockReference
  2
_DOTBLANK
 10
-311.2512901817752
 20
627.6104230978209
 30
0.0
 41
12.0
 42
12.0
 43
12.0
 50
90.0
  0
INSERT
  5
1816
330
17DC
100
AcDbEntity
  8
SIZE
  6
Continuous
 62
     0
370
    -2
100
AcDbBlockReference
  2
_DOTBLANK
 10
-311.2512901817753
 20
-627.6104230978249
 30
0.0
 41
12.0
 42
12.0
 43
12.0
 50
270.0
  0
MTEXT
  5
1817
330
17DC
100
AcDbEntity
  8
SIZE
  6
Continuous
 62
     0
100
AcDbMText
 10
-353.2512901817753
 20
-0.0000000000021358
 30
0.0
 40
64.0
 41
0.0
 71
     5
 72
     1
  1
\A1;1255
 11
0.0000000000000001
 21
1.0
 31
0.0
 73
     1
 44
1.0
1001
ACAD
1000
MTEXTBEGIN
1070
    73
1070
     1
1070
    44
1040
1.0
1070
    74
1070
     0
1000
MTEXTEND
  0
POINT
  5
1818
330
17DC
100
AcDbEntity
  8
DEFPOINTS
  6
Continuous
 62
     0
100
AcDbPoint
 10
6.517483168288888
 20
627.6104230978208
 30
0.0
  0
POINT
  5
1819
330
17DC
100
AcDbEntity
  8
DEFPOINTS
  6
Continuous
 62
     0
100
AcDbPoint
 10
-0.0000000001818989
 20
-627.6104230978249
 30
0.0
  0
POINT
  5
181A
330
17DC
100
AcDbEntity
  8
DEFPOINTS
  6
Continuous
 62
     0
100
AcDbPoint
 10
-311.2512901817753
 20
-627.6104230978249
 30
0.0
  0
ENDBLK
  5
17DE
330
17DC
100
AcDbEntity
  8
0
100
AcDbBlockEnd
  0
BLOCK
  5
17E9
330
17E8
100
AcDbEntity
  8
0
100
AcDbBlockBegin
  2
*D26
 70
     1
 10
0.0
 20
0.0
 30
0.0
  3
*D26
  1

  0
LINE
  5
181B
330
17E8
100
AcDbEntity
  8
SIZE
  6
Continuous
 62
     0
370
    -2
100
AcDbLine
 10
5.599999999816646
 20
629.6967565791477
 30
0.0
 11
5.599999999816656
 21
786.8669156486983
 31
0.0
  0
LINE
  5
181C
330
17E8
100
AcDbEntity
  8
SIZE
  6
Continuous
 62
     0
370
    -2
100
AcDbLine
 10
305.8630127016659
 20
457.6677309871818
 30
0.0
 11
305.8630127016659
 21
786.8669156486983
 31
0.0
  0
LINE
  5
181D
330
17E8
100
AcDbEntity
  8
SIZE
  6
Continuous
 62
     0
370
    -2
100
AcDbLine
 10
17.59999999981666
 20
766.8669156486984
 30
0.0
 11
293.8630127016659
 21
766.8669156486984
 31
0.0
  0
INSERT
  5
181E
330
17E8
100
AcDbEntity
  8
SIZE
  6
Continuous
 62
     0
370
    -2
100
AcDbBlockReference
  2
_DOTBLANK
 10
5.599999999816653
 20
766.8669156486984
 30
0.0
 41
12.0
 42
12.0
 43
12.0
 50
180.0
  0
INSERT
  5
181F
330
17E8
100
AcDbEntity
  8
SIZE
  6
Continuous
 62
     0
370
    -2
100
AcDbBlockReference
  2
_DOTBLANK
 10
305.8630127016659
 20
766.8669156486984
 30
0.0
 41
12.0
 42
12.0
 43
12.0
  0
MTEXT
  5
1820
330
17E8
100
AcDbEntity
  8
SIZE
  6
Continuous
 62
     0
100
AcDbMText
 10
155.7315063507412
 20
808.8669156486984
 30
0.0
 40
64.0
 41
0.0
 71
     5
 72
     1
  1
\A1;300
 73
     1
 44
1.0
1001
ACAD
1000
MTEXTBEGIN
1070
    73
1070
     1
1070
    44
1040
1.0
1070
    74
1070
     0
1000
MTEXTEND
  0
POINT
  5
1821
330
17E8
100
AcDbEntity
  8
DEFPOINTS
  6
Continuous
 62
     0
100
AcDbPoint
 10
5.599999999816643
 20
609.6967565791477
 30
0.0
  0
POINT
  5
1822
330
17E8
100
AcDbEntity
  8
DEFPOINTS
  6
Continuous
 62
     0
100
AcDbPoint
 10
305.8630127016659
 20
437.6677309871817
 30
0.0
  0
POINT
  5
1823
330
17E8
100
AcDbEntity
  8
DEFPOINTS
  6
Continuous
 62
     0
100
AcDbPoint
 10
305.8630127016659
 20
766.8669156486984
 30
0.0
  0
ENDBLK
  5
17EA
330
17E8
100
AcDbEntity
  8
0
100
AcDbBlockEnd
  0
BLOCK
  5
17F5
330
17F4
100
AcDbEntity
  8
0
100
AcDbBlockBegin
  2
*D27
 70
     1
 10
0.0
 20
0.0
 30
0.0
  3
*D27
  1

  0
LINE
  5
1824
330
17F4
100
AcDbEntity
  8
SIZE
  6
Continuous
 62
     0
370
    -2
100
AcDbLine
 10
-0.0000000001818977
 20
616.3895769021751
 30
0.0
 11
-0.0000000001818814
 21
882.5670798704166
 31
0.0
  0
LINE
  5
1825
330
17F4
100
AcDbEntity
  8
SIZE
  6
Continuous
 62
     0
370
    -2
100
AcDbLine
 10
305.8630127016659
 20
457.6677309871818
 30
0.0
 11
305.8630127016659
 21
882.5670798704166
 31
0.0
  0
LINE
  5
1826
330
17F4
100
AcDbEntity
  8
SIZE
  6
Continuous
 62
     0
370
    -2
100
AcDbLine
 10
11.99999999981812
 20
862.5670798704167
 30
0.0
 11
293.8630127016659
 21
862.5670798704167
 31
0.0
  0
INSERT
  5
1827
330
17F4
100
AcDbEntity
  8
SIZE
  6
Continuous
 62
     0
370
    -2
100
AcDbBlockReference
  2
_DOTBLANK
 10
-0.0000000001818826
 20
862.5670798704167
 30
0.0
 41
12.0
 42
12.0
 43
12.0
 50
180.0
  0
INSERT
  5
1828
330
17F4
100
AcDbEntity
  8
SIZE
  6
Continuous
 62
     0
370
    -2
100
AcDbBlockReference
  2
_DOTBLANK
 10
305.8630127016659
 20
862.5670798704167
 30
0.0
 41
12.0
 42
12.0
 43
12.0
  0
MTEXT
  5
1829
330
17F4
100
AcDbEntity
  8
SIZE
  6
Continuous
 62
     0
100
AcDbMText
 10
152.931506350742
 20
904.5670798704167
 30
0.0
 40
64.0
 41
0.0
 71
     5
 72
     1
  1
\A1;306
 73
     1
 44
1.0
1001
ACAD
1000
MTEXTBEGIN
1070
    73
1070
     1
1070
    44
1040
1.0
1070
    74
1070
     0
1000
MTEXTEND
  0
POINT
  5
182A
330
17F4
100
AcDbEntity
  8
DEFPOINTS
  6
Continuous
 62
     0
100
AcDbPoint
 10
-0.0000000001818989
 20
596.3895769021751
 30
0.0
  0
POINT
  5
182B
330
17F4
100
AcDbEntity
  8
DEFPOINTS
  6
Continuous
 62
     0
100
AcDbPoint
 10
305.8630127016659
 20
437.6677309871817
 30
0.0
  0
POINT
  5
182C
330
17F4
100
AcDbEntity
  8
DEFPOINTS
  6
Continuous
 62
     0
100
AcDbPoint
 10
305.8630127016659
 20
862.5670798704167
 30
0.0
  0
ENDBLK
  5
17F6
330
17F4
100
AcDbEntity
  8
0
100
AcDbBlockEnd
  0
BLOCK
  5
1921
330
1920
100
AcDbEntity
  8
0
100
AcDbBlockBegin
  2
*D28
 70
     1
 10
0.0
 20
0.0
 30
0.0
  3
*D28
  1

  0
LINE
  5
1922
330
1920
100
AcDbEntity
  8
SIZE
  6
Continuous
 62
     0
370
    -2
100
AcDbLine
 10
-45097.76169677213
 20
-538.0382203476811
 30
0.0
 11
-45254.45660033407
 21
-538.0382203476811
 31
0.0
  0
LINE
  5
1923
330
1920
100
AcDbEntity
  8
SIZE
  6
Continuous
 62
     0
370
    -2
100
AcDbLine
 10
-45097.76169677213
 20
-1150.038220347681
 30
0.0
 11
-45254.45660033407
 21
-1150.038220347681
 31
0.0
  0
LINE
  5
1924
330
1920
100
AcDbEntity
  8
SIZE
  6
Continuous
 62
     0
370
    -2
100
AcDbLine
 10
-45234.45660033408
 20
-550.0382203476808
 30
0.0
 11
-45234.45660033408
 21
-1138.038220347681
 31
0.0
  0
INSERT
  5
1925
330
1920
100
AcDbEntity
  8
SIZE
  6
Continuous
 62
     0
370
    -2
100
AcDbBlockReference
  2
_DOTBLANK
 10
-45234.45660033408
 20
-538.0382203476811
 30
0.0
 41
12.0
 42
12.0
 43
12.0
 50
90.0
  0
INSERT
  5
1926
330
1920
100
AcDbEntity
  8
SIZE
  6
Continuous
 62
     0
370
    -2
100
AcDbBlockReference
  2
_DOTBLANK
 10
-45234.45660033408
 20
-1150.038220347681
 30
0.0
 41
12.0
 42
12.0
 43
12.0
 50
270.0
  0
MTEXT
  5
1927
330
1920
100
AcDbEntity
  8
SIZE
  6
Continuous
 62
     0
100
AcDbMText
 10
-45276.45660033408
 20
-844.0382203476882
 30
0.0
 40
64.0
 41
0.0
 71
     5
 72
     1
  1
\A1;612
 11
0.0000000000000001
 21
1.0
 31
0.0
 73
     1
 44
1.0
1001
ACAD
1000
MTEXTBEGIN
1070
    73
1070
     1
1070
    44
1040
1.0
1070
    74
1070
     0
1000
MTEXTEND
  0
POINT
  5
1928
330
1920
100
AcDbEntity
  8
DEFPOINTS
  6
Continuous
 62
     0
100
AcDbPoint
 10
-45077.76169677212
 20
-538.0382203476811
 30
0.0
  0
POINT
  5
1929
330
1920
100
AcDbEntity
  8
DEFPOINTS
  6
Continuous
 62
     0
100
AcDbPoint
 10
-45077.76169677212
 20
-1150.038220347681
 30
0.0
  0
POINT
  5
192A
330
1920
100
AcDbEntity
  8
DEFPOINTS
  6
Continuous
 62
     0
100
AcDbPoint
 10
-45234.45660033408
 20
-1150.038220347681
 30
0.0
  0
ENDBLK
  5
192B
330
1920
100
AcDbEntity
  8
0
100
AcDbBlockEnd
  0
BLOCK
  5
192D
330
192C
100
AcDbEntity
  8
0
100
AcDbBlockBegin
  2
*D29
 70
     1
 10
0.0
 20
0.0
 30
0.0
  3
*D29
  1

  0
LINE
  5
192E
330
192C
100
AcDbEntity
  8
SIZE
  6
Continuous
 62
     0
370
    -2
100
AcDbLine
 10
-45097.76169677213
 20
-1150.038220347681
 30
0.0
 11
-45254.45660033407
 21
-1150.038220347681
 31
0.0
  0
LINE
  5
192F
330
192C
100
AcDbEntity
  8
SIZE
  6
Continuous
 62
     0
370
    -2
100
AcDbLine
 10
-45097.76169677213
 20
-1680.438220347681
 30
0.0
 11
-45254.45660033407
 21
-1680.438220347681
 31
0.0
  0
LINE
  5
1930
330
192C
100
AcDbEntity
  8
SIZE
  6
Continuous
 62
     0
370
    -2
100
AcDbLine
 10
-45234.45660033408
 20
-1162.038220347681
 30
0.0
 11
-45234.45660033408
 21
-1668.438220347681
 31
0.0
  0
INSERT
  5
1931
330
192C
100
AcDbEntity
  8
SIZE
  6
Continuous
 62
     0
370
    -2
100
AcDbBlockReference
  2
_DOTBLANK
 10
-45234.45660033408
 20
-1150.038220347681
 30
0.0
 41
12.0
 42
12.0
 43
12.0
 50
90.0
  0
INSERT
  5
1932
330
192C
100
AcDbEntity
  8
SIZE
  6
Continuous
 62
     0
370
    -2
100
AcDbBlockReference
  2
_DOTBLANK
 10
-45234.45660033408
 20
-1680.438220347681
 30
0.0
 41
12.0
 42
12.0
 43
12.0
 50
270.0
  0
MTEXT
  5
1933
330
192C
100
AcDbEntity
  8
SIZE
  6
Continuous
 62
     0
100
AcDbMText
 10
-45276.45660033408
 20
-1415.238220347688
 30
0.0
 40
64.0
 41
0.0
 71
     5
 72
     1
  1
\A1;530
 11
0.0000000000000001
 21
1.0
 31
0.0
 73
     1
 44
1.0
1001
ACAD
1000
MTEXTBEGIN
1070
    73
1070
     1
1070
    44
1040
1.0
1070
    74
1070
     0
1000
MTEXTEND
  0
POINT
  5
1934
330
192C
100
AcDbEntity
  8
DEFPOINTS
  6
Continuous
 62
     0
100
AcDbPoint
 10
-45077.76169677212
 20
-1150.038220347681
 30
0.0
  0
POINT
  5
1935
330
192C
100
AcDbEntity
  8
DEFPOINTS
  6
Continuous
 62
     0
100
AcDbPoint
 10
-45077.76169677212
 20
-1680.438220347681
 30
0.0
  0
POINT
  5
1936
330
192C
100
AcDbEntity
  8
DEFPOINTS
  6
Continuous
 62
     0
100
AcDbPoint
 10
-45234.45660033408
 20
-1680.438220347681
 30
0.0
  0
ENDBLK
  5
1937
330
192C
100
AcDbEntity
  8
0
100
AcDbBlockEnd
  0
BLOCK
  5
1939
330
1938
100
AcDbEntity
  8
0
100
AcDbBlockBegin
  2
*D30
 70
     1
 10
0.0
 20
0.0
 30
0.0
  3
*D30
  1

  0
LINE
  5
193A
330
1938
100
AcDbEntity
  8
SIZE
  6
Continuous
 62
     0
370
    -2
100
AcDbLine
 10
-45089.13799677211
 20
-442.9673741520526
 30
0.0
 11
-45425.43992409282
 21
-442.9673741520526
 31
0.0
  0
LINE
  5
193B
330
1938
100
AcDbEntity
  8
SIZE
  6
Continuous
 62
     0
370
    -2
100
AcDbLine
 10
-45090.26169772329
 20
-1697.838220347673
 30
0.0
 11
-45425.43992409282
 21
-1697.838220347673
 31
0.0
  0
LINE
  5
193C
330
1938
100
AcDbEntity
  8
SIZE
  6
Continuous
 62
     0
370
    -2
100
AcDbLine
 10
-45405.43992409282
 20
-454.9673741520527
 30
0.0
 11
-45405.43992409282
 21
-1685.838220347674
 31
0.0
  0
INSERT
  5
193D
330
1938
100
AcDbEntity
  8
SIZE
  6
Continuous
 62
     0
370
    -2
100
AcDbBlockReference
  2
_DOTBLANK
 10
-45405.43992409282
 20
-442.9673741520526
 30
0.0
 41
12.0
 42
12.0
 43
12.0
 50
90.0
  0
INSERT
  5
193E
330
1938
100
AcDbEntity
  8
SIZE
  6
Continuous
 62
     0
370
    -2
100
AcDbBlockReference
  2
_DOTBLANK
 10
-45405.43992409282
 20
-1697.838220347673
 30
0.0
 41
12.0
 42
12.0
 43
12.0
 50
270.0
  0
MTEXT
  5
193F
330
1938
100
AcDbEntity
  8
SIZE
  6
Continuous
 62
     0
100
AcDbMText
 10
-45447.43992409282
 20
-1070.40279724987
 30
0.0
 40
64.0
 41
0.0
 71
     5
 72
     1
  1
\A1;1255
 11
0.0000000000000001
 21
1.0
 31
0.0
 73
     1
 44
1.0
1001
ACAD
1000
MTEXTBEGIN
1070
    73
1070
     1
1070
    44
1040
1.0
1070
    74
1070
     0
1000
MTEXTEND
  0
POINT
  5
1940
330
1938
100
AcDbEntity
  8
DEFPOINTS
  6
Continuous
 62
     0
100
AcDbPoint
 10
-45069.1379967721
 20
-442.9673741520526
 30
0.0
  0
POINT
  5
1941
330
1938
100
AcDbEntity
  8
DEFPOINTS
  6
Continuous
 62
     0
100
AcDbPoint
 10
-45070.2616977233
 20
-1697.838220347673
 30
0.0
  0
POINT
  5
1942
330
1938
100
AcDbEntity
  8
DEFPOINTS
  6
Continuous
 62
     0
100
AcDbPoint
 10
-45405.43992409282
 20
-1697.838220347673
 30
0.0
  0
ENDBLK
  5
1943
330
1938
100
AcDbEntity
  8
0
100
AcDbBlockEnd
  0
BLOCK
  5
1945
330
1944
100
AcDbEntity
  8
0
100
AcDbBlockBegin
  2
*D31
 70
     1
 10
0.0
 20
0.0
 30
0.0
  3
*D31
  1

  0
LINE
  5
1946
330
1944
100
AcDbEntity
  8
SIZE
  6
Continuous
 62
     0
370
    -2
100
AcDbLine
 10
-45070.2616977233
 20
-439.8382203476731
 30
0.0
 11
-45070.2616977233
 21
-307.3745162763608
 31
0.0
  0
LINE
  5
1947
330
1944
100
AcDbEntity
  8
SIZE
  6
Continuous
 62
     0
370
    -2
100
AcDbLine
 10
-44770.39868502138
 20
-612.5600662626992
 30
0.0
 11
-44770.39868502138
 21
-307.3745162763608
 31
0.0
  0
LINE
  5
1948
330
1944
100
AcDbEntity
  8
SIZE
  6
Continuous
 62
     0
370
    -2
100
AcDbLine
 10
-45058.2616977233
 20
-327.3745162763607
 30
0.0
 11
-44782.39868502138
 21
-327.3745162763607
 31
0.0
  0
INSERT
  5
1949
330
1944
100
AcDbEntity
  8
SIZE
  6
Continuous
 62
     0
370
    -2
100
AcDbBlockReference
  2
_DOTBLANK
 10
-45070.2616977233
 20
-327.3745162763607
 30
0.0
 41
12.0
 42
12.0
 43
12.0
 50
180.0
  0
INSERT
  5
194A
330
1944
100
AcDbEntity
  8
SIZE
  6
Continuous
 62
     0
370
    -2
100
AcDbBlockReference
  2
_DOTBLANK
 10
-44770.39868502138
 20
-327.3745162763607
 30
0.0
 41
12.0
 42
12.0
 43
12.0
  0
MTEXT
  5
194B
330
1944
100
AcDbEntity
  8
SIZE
  6
Continuous
 62
     0
100
AcDbMText
 10
-44920.33019137233
 20
-285.3745162763607
 30
0.0
 40
64.0
 41
0.0
 71
     5
 72
     1
  1
\A1;300
 73
     1
 44
1.0
1001
ACAD
1000
MTEXTBEGIN
1070
    73
1070
     1
1070
    44
1040
1.0
1070
    74
1070
     0
1000
MTEXTEND
  0
POINT
  5
194C
330
1944
100
AcDbEntity
  8
DEFPOINTS
  6
Continuous
 62
     0
100
AcDbPoint
 10
-45070.2616977233
 20
-459.838220347673
 30
0.0
  0
POINT
  5
194D
330
1944
100
AcDbEntity
  8
DEFPOINTS
  6
Continuous
 62
     0
100
AcDbPoint
 10
-44770.39868502138
 20
-632.5600662626992
 30
0.0
  0
POINT
  5
194E
330
1944
100
AcDbEntity
  8
DEFPOINTS
  6
Continuous
 62
     0
100
AcDbPoint
 10
-44770.39868502138
 20
-327.3745162763607
 30
0.0
  0
ENDBLK
  5
194F
330
1944
100
AcDbEntity
  8
0
100
AcDbBlockEnd
  0
BLOCK
  5
1AC4
330
1AC3
100
AcDbEntity
  8
0
100
AcDbBlockBegin
  2
*D32
 70
     1
 10
0.0
 20
0.0
 30
0.0
  3
*D32
  1

  0
LINE
  5
1AF3
330
1AC3
100
AcDbEntity
  8
SIZE
  6
Continuous
 62
     0
370
    -2
100
AcDbLine
 10
-27.49999904883589
 20
532.5395769021911
 30
0.0
 11
-184.1949026107903
 21
532.5395769021911
 31
0.0
  0
LINE
  5
1AF4
330
1AC3
100
AcDbEntity
  8
SIZE
  6
Continuous
 62
     0
370
    -2
100
AcDbLine
 10
-27.49999904883589
 20
-79.46042309780887
 30
0.0
 11
-184.1949026107904
 21
-79.46042309780882
 31
0.0
  0
LINE
  5
1AF5
330
1AC3
100
AcDbEntity
  8
SIZE
  6
Continuous
 62
     0
370
    -2
100
AcDbLine
 10
-164.1949026107903
 20
520.5395769021911
 30
0.0
 11
-164.1949026107904
 21
-67.46042309780881
 31
0.0
  0
INSERT
  5
1AF6
330
1AC3
100
AcDbEntity
  8
SIZE
  6
Continuous
 62
     0
370
    -2
100
AcDbBlockReference
  2
_DOTBLANK
 10
-164.1949026107903
 20
532.5395769021911
 30
0.0
 41
12.0
 42
12.0
 43
12.0
 50
90.0
  0
INSERT
  5
1AF7
330
1AC3
100
AcDbEntity
  8
SIZE
  6
Continuous
 62
     0
370
    -2
100
AcDbBlockReference
  2
_DOTBLANK
 10
-164.1949026107904
 20
-79.46042309780882
 30
0.0
 41
12.0
 42
12.0
 43
12.0
 50
270.0
  0
MTEXT
  5
1AF8
330
1AC3
100
AcDbEntity
  8
SIZE
  6
Continuous
 62
     0
100
AcDbMText
 10
-206.1949026107904
 20
226.5395769021911
 30
0.0
 40
64.0
 41
0.0
 71
     5
 72
     1
  1
\A1;612
 11
0.0000000000000001
 21
1.0
 31
0.0
 73
     1
 44
1.0
1001
ACAD
1000
MTEXTBEGIN
1070
    73
1070
     1
1070
    44
1040
1.0
1070
    74
1070
     0
1000
MTEXTEND
  0
POINT
  5
1AF9
330
1AC3
100
AcDbEntity
  8
DEFPOINTS
  6
Continuous
 62
     0
100
AcDbPoint
 10
-7.499999048835888
 20
532.5395769021911
 30
0.0
  0
POINT
  5
1AFA
330
1AC3
100
AcDbEntity
  8
DEFPOINTS
  6
Continuous
 62
     0
100
AcDbPoint
 10
-7.499999048835888
 20
-79.46042309780887
 30
0.0
  0
POINT
  5
1AFB
330
1AC3
100
AcDbEntity
  8
DEFPOINTS
  6
Continuous
 62
     0
100
AcDbPoint
 10
-164.1949026107904
 20
-79.46042309780882
 30
0.0
  0
ENDBLK
  5
1AC5
330
1AC3
100
AcDbEntity
  8
0
100
AcDbBlockEnd
  0
BLOCK
  5
1AD0
330
1ACF
100
AcDbEntity
  8
0
100
AcDbBlockBegin
  2
*D33
 70
     1
 10
0.0
 20
0.0
 30
0.0
  3
*D33
  1

  0
LINE
  5
1AFC
330
1ACF
100
AcDbEntity
  8
SIZE
  6
Continuous
 62
     0
370
    -2
100
AcDbLine
 10
-27.49999904883589
 20
-79.46042309780887
 30
0.0
 11
-184.1949026107903
 21
-79.46042309780882
 31
0.0
  0
LINE
  5
1AFD
330
1ACF
100
AcDbEntity
  8
SIZE
  6
Continuous
 62
     0
370
    -2
100
AcDbLine
 10
-27.49999904883589
 20
-609.8604230978089
 30
0.0
 11
-184.1949026107904
 21
-609.8604230978089
 31
0.0
  0
LINE
  5
1AFE
330
1ACF
100
AcDbEntity
  8
SIZE
  6
Continuous
 62
     0
370
    -2
100
AcDbLine
 10
-164.1949026107903
 20
-91.46042309780879
 30
0.0
 11
-164.1949026107904
 21
-597.8604230978087
 31
0.0
  0
INSERT
  5
1AFF
330
1ACF
100
AcDbEntity
  8
SIZE
  6
Continuous
 62
     0
370
    -2
100
AcDbBlockReference
  2
_DOTBLANK
 10
-164.1949026107903
 20
-79.46042309780882
 30
0.0
 41
12.0
 42
12.0
 43
12.0
 50
90.0
  0
INSERT
  5
1B00
330
1ACF
100
AcDbEntity
  8
SIZE
  6
Continuous
 62
     0
370
    -2
100
AcDbBlockReference
  2
_DOTBLANK
 10
-164.1949026107904
 20
-609.8604230978089
 30
0.0
 41
12.0
 42
12.0
 43
12.0
 50
270.0
  0
MTEXT
  5
1B01
330
1ACF
100
AcDbEntity
  8
SIZE
  6
Continuous
 62
     0
100
AcDbMText
 10
-206.1949026107903
 20
-344.6604230978089
 30
0.0
 40
64.0
 41
0.0
 71
     5
 72
     1
  1
\A1;530
 11
0.0000000000000001
 21
1.0
 31
0.0
 73
     1
 44
1.0
1001
ACAD
1000
MTEXTBEGIN
1070
    73
1070
     1
1070
    44
1040
1.0
1070
    74
1070
     0
1000
MTEXTEND
  0
POINT
  5
1B02
330
1ACF
100
AcDbEntity
  8
DEFPOINTS
  6
Continuous
 62
     0
100
AcDbPoint
 10
-7.499999048835888
 20
-79.46042309780887
 30
0.0
  0
POINT
  5
1B03
330
1ACF
100
AcDbEntity
  8
DEFPOINTS
  6
Continuous
 62
     0
100
AcDbPoint
 10
-7.499999048835888
 20
-609.8604230978089
 30
0.0
  0
POINT
  5
1B04
330
1ACF
100
AcDbEntity
  8
DEFPOINTS
  6
Continuous
 62
     0
100
AcDbPoint
 10
-164.1949026107904
 20
-609.8604230978089
 30
0.0
  0
ENDBLK
  5
1AD1
330
1ACF
100
AcDbEntity
  8
0
100
AcDbBlockEnd
  0
BLOCK
  5
1ADC
330
1ADB
100
AcDbEntity
  8
0
100
AcDbBlockBegin
  2
*D34
 70
     1
 10
0.0
 20
0.0
 30
0.0
  3
*D34
  1

  0
LINE
  5
1B05
330
1ADB
100
AcDbEntity
  8
SIZE
  6
Continuous
 62
     0
370
    -2
100
AcDbLine
 10
-18.8762990488176
 20
627.6104230978194
 30
0.0
 11
-355.1782263695202
 21
627.6104230978195
 31
0.0
  0
LINE
  5
1B06
330
1ADB
100
AcDbEntity
  8
SIZE
  6
Continuous
 62
     0
370
    -2
100
AcDbLine
 10
-20.0
 20
-627.2604230978013
 30
0.0
 11
-355.1782263695204
 21
-627.2604230978013
 31
0.0
  0
LINE
  5
1B07
330
1ADB
100
AcDbEntity
  8
SIZE
  6
Continuous
 62
     0
370
    -2
100
AcDbLine
 10
-335.1782263695202
 20
615.6104230978195
 30
0.0
 11
-335.1782263695203
 21
-615.2604230978013
 31
0.0
  0
INSERT
  5
1B08
330
1ADB
100
AcDbEntity
  8
SIZE
  6
Continuous
 62
     0
370
    -2
100
AcDbBlockReference
  2
_DOTBLANK
 10
-335.1782263695202
 20
627.6104230978195
 30
0.0
 41
12.0
 42
12.0
 43
12.0
 50
90.0
  0
INSERT
  5
1B09
330
1ADB
100
AcDbEntity
  8
SIZE
  6
Continuous
 62
     0
370
    -2
100
AcDbBlockReference
  2
_DOTBLANK
 10
-335.1782263695203
 20
-627.2604230978013
 30
0.0
 41
12.0
 42
12.0
 43
12.0
 50
270.0
  0
MTEXT
  5
1B0A
330
1ADB
100
AcDbEntity
  8
SIZE
  6
Continuous
 62
     0
100
AcDbMText
 10
-377.1782263695204
 20
0.1750000000090751
 30
0.0
 40
64.0
 41
0.0
 71
     5
 72
     1
  1
\A1;1255
 11
0.0000000000000001
 21
1.0
 31
0.0
 73
     1
 44
1.0
1001
ACAD
1000
MTEXTBEGIN
1070
    73
1070
     1
1070
    44
1040
1.0
1070
    74
1070
     0
1000
MTEXTEND
  0
POINT
  5
1B0B
330
1ADB
100
AcDbEntity
  8
DEFPOINTS
  6
Continuous
 62
     0
100
AcDbPoint
 10
1.123700951182399
 20
627.6104230978194
 30
0.0
  0
POINT
  5
1B0C
330
1ADB
100
AcDbEntity
  8
DEFPOINTS
  6
Continuous
 62
     0
100
AcDbPoint
 10
0.0
 20
-627.2604230978013
 30
0.0
  0
POINT
  5
1B0D
330
1ADB
100
AcDbEntity
  8
DEFPOINTS
  6
Continuous
 62
     0
100
AcDbPoint
 10
-335.1782263695203
 20
-627.2604230978013
 30
0.0
  0
ENDBLK
  5
1ADD
330
1ADB
100
AcDbEntity
  8
0
100
AcDbBlockEnd
  0
BLOCK
  5
1AE8
330
1AE7
100
AcDbEntity
  8
0
100
AcDbBlockBegin
  2
*D35
 70
     1
 10
0.0
 20
0.0
 30
0.0
  3
*D35
  1

  0
LINE
  5
1B0E
330
1AE7
100
AcDbEntity
  8
SIZE
  6
Continuous
 62
     0
370
    -2
100
AcDbLine
 10
0.0000000000000012
 20
630.7395769021991
 30
0.0
 11
0.0000000000000093
 21
763.2032809735115
 31
0.0
  0
LINE
  5
1B0F
330
1AE7
100
AcDbEntity
  8
SIZE
  6
Continuous
 62
     0
370
    -2
100
AcDbLine
 10
299.863012701906
 20
458.0177309871728
 30
0.0
 11
299.863012701906
 21
763.2032809735115
 31
0.0
  0
LINE
  5
1B10
330
1AE7
100
AcDbEntity
  8
SIZE
  6
Continuous
 62
     0
370
    -2
100
AcDbLine
 10
12.00000000000001
 20
743.2032809735114
 30
0.0
 11
287.863012701906
 21
743.2032809735114
 31
0.0
  0
INSERT
  5
1B11
330
1AE7
100
AcDbEntity
  8
SIZE
  6
Continuous
 62
     0
370
    -2
100
AcDbBlockReference
  2
_DOTBLANK
 10
0.0000000000000081
 20
743.2032809735114
 30
0.0
 41
12.0
 42
12.0
 43
12.0
 50
180.0
  0
INSERT
  5
1B12
330
1AE7
100
AcDbEntity
  8
SIZE
  6
Continuous
 62
     0
370
    -2
100
AcDbBlockReference
  2
_DOTBLANK
 10
299.863012701906
 20
743.2032809735114
 30
0.0
 41
12.0
 42
12.0
 43
12.0
  0
MTEXT
  5
1B13
330
1AE7
100
AcDbEntity
  8
SIZE
  6
Continuous
 62
     0
100
AcDbMText
 10
149.931506350953
 20
785.2032809735113
 30
0.0
 40
64.0
 41
0.0
 71
     5
 72
     1
  1
\A1;300
 73
     1
 44
1.0
1001
ACAD
1000
MTEXTBEGIN
1070
    73
1070
     1
1070
    44
1040
1.0
1070
    74
1070
     0
1000
MTEXTEND
  0
POINT
  5
1B14
330
1AE7
100
AcDbEntity
  8
DEFPOINTS
  6
Continuous
 62
     0
100
AcDbPoint
 10
0.0
 20
610.7395769021991
 30
0.0
  0
POINT
  5
1B15
330
1AE7
100
AcDbEntity
  8
DEFPOINTS
  6
Continuous
 62
     0
100
AcDbPoint
 10
299.863012701906
 20
438.0177309871728
 30
0.0
  0
POINT
  5
1B16
330
1AE7
100
AcDbEntity
  8
DEFPOINTS
  6
Continuous
 62
     0
100
AcDbPoint
 10
299.863012701906
 20
743.2032809735114
 30
0.0
  0
ENDBLK
  5
1AE9
330
1AE7
100
AcDbEntity
  8
0
100
AcDbBlockEnd
  0
ENDSEC
  0
SECTION
  2
ENTITIES
  0
TEXT
  5
953
330
85F
100
AcDbEntity
  8
OUTLINE
  6
Continuous
 62
     3
100
AcDbText
 10
-418.231467
 20
13.715189
 30
0.0
 40
64.0
  1
 
 41
0.9
100
AcDbText
  0
TEXT
  5
954
330
85F
100
AcDbEntity
  8
OUTLINE
  6
Continuous
 62
     3
100
AcDbText
 10
-418.231467
 20
13.715189
 30
0.0
 40
64.0
  1
 
 41
0.9
100
AcDbText
  0
TEXT
  5
955
330
85F
100
AcDbEntity
  8
OUTLINE
  6
Continuous
 62
     3
100
AcDbText
 10
1341.41903
 20
-706.0588199999997
 30
0.0
 40
64.0
  1
 
 41
0.9
100
AcDbText
  0
TEXT
  5
956
330
85F
100
AcDbEntity
  8
OUTLINE
  6
Continuous
 62
     3
100
AcDbText
 10
1341.41903
 20
-706.0588199999997
 30
0.0
 40
64.0
  1
 
 41
0.9
100
AcDbText
  0
TEXT
  5
957
330
85F
100
AcDbEntity
  8
OUTLINE
  6
Continuous
 62
     3
100
AcDbText
 10
1341.41903
 20
-706.0588199999997
 30
0.0
 40
64.0
  1
 
 41
0.9
100
AcDbText
  0
TEXT
  5
958
330
85F
100
AcDbEntity
  8
OUTLINE
  6
Continuous
 62
     3
100
AcDbText
 10
1341.41903
 20
-706.0588199999997
 30
0.0
 40
64.0
  1
 
 41
0.9
100
AcDbText
  0
LINE
  5
1A0D
330
85F
100
AcDbEntity
  8
DETAIL
100
AcDbLine
 10
4.000000000014551
 20
-157.260423097809
 30
0.0
 11
7.000000000014551
 21
-154.260423097809
 31
0.0
  0
LINE
  5
1A0E
330
85F
100
AcDbEntity
  8
DETAIL
100
AcDbLine
 10
7.000000000014551
 20
-138.760423097809
 30
0.0
 11
4.000000000014551
 21
-135.760423097809
 31
0.0
  0
LINE
  5
1A0F
330
85F
100
AcDbEntity
  8
DETAIL
100
AcDbLine
 10
11.00000000001455
 20
-154.260423097809
 30
0.0
 11
7.000000000014551
 21
-154.260423097809
 31
0.0
  0
LINE
  5
1A10
330
85F
100
AcDbEntity
  8
DETAIL
100
AcDbLine
 10
7.000000000014551
 20
-138.760423097809
 30
0.0
 11
11.00000000001455
 21
-138.760423097809
 31
0.0
  0
LINE
  5
1A11
330
85F
100
AcDbEntity
  8
DETAIL
100
AcDbLine
 10
11.00000000001455
 20
-138.760423097809
 30
0.0
 11
11.00000000001455
 21
-154.260423097809
 31
0.0
  0
LINE
  5
1A12
330
85F
100
AcDbEntity
  8
DETAIL
100
AcDbLine
 10
4.000000000014551
 20
-157.260423097809
 30
0.0
 11
4.000000000014551
 21
-193.760423097809
 31
0.0
  0
LINE
  5
1A13
330
85F
100
AcDbEntity
  8
DETAIL
100
AcDbLine
 10
4.000000000014551
 20
-193.760423097809
 30
0.0
 11
0.9000000000087311
 21
-193.760423097809
 31
0.0
  0
LINE
  5
1A14
330
85F
100
AcDbEntity
  8
DETAIL
100
AcDbLine
 10
0.9000000000087311
 20
-119.760423097809
 30
0.0
 11
4.000000000014551
 21
-119.760423097809
 31
0.0
  0
LINE
  5
1A15
330
85F
100
AcDbEntity
  8
DETAIL
100
AcDbLine
 10
4.000000000014551
 20
-119.760423097809
 30
0.0
 11
4.000000000014551
 21
-135.760423097809
 31
0.0
  0
LINE
  5
1A16
330
85F
100
AcDbEntity
  8
DETAIL
100
AcDbLine
 10
0.0000000000145519
 20
-193.760423097809
 30
0.0
 11
0.9000000000087311
 21
-193.760423097809
 31
0.0
  0
LINE
  5
1A17
330
85F
100
AcDbEntity
  8
DETAIL
100
AcDbLine
 10
0.9000000000087311
 20
-119.760423097809
 30
0.0
 11
0.0000000000145519
 21
-119.760423097809
 31
0.0
  0
LINE
  5
1A18
330
85F
100
AcDbEntity
  8
DETAIL
100
AcDbLine
 10
0.9000000000087311
 20
-193.760423097809
 30
0.0
 11
0.9000000000087311
 21
-626.0506620825345
 31
0.0
  0
LINE
  5
1A19
330
85F
100
AcDbEntity
  8
DETAIL
100
AcDbLine
 10
0.9000000000087311
 20
609.1807311753796
 30
0.0
 11
0.9000000000087311
 21
-119.760423097809
 31
0.0
  0
LINE
  5
1A1A
330
85F
100
AcDbEntity
  8
DETAIL
100
AcDbLine
 10
0.0000000000145519
 20
-627.2604230978088
 30
0.0
 11
0.0000000000145519
 21
-193.760423097809
 31
0.0
  0
LINE
  5
1A1B
330
85F
100
AcDbEntity
  8
DETAIL
100
AcDbLine
 10
0.0000000000145519
 20
-119.760423097809
 30
0.0
 11
0.0000000000145519
 21
609.1807311753796
 31
0.0
  0
SPLINE
  5
1A1C
330
85F
100
AcDbEntity
  8
DETAIL
100
AcDbSpline
210
0.0
220
0.0
230
1.0
 70
     8
 71
     3
 72
    11
 73
     7
 74
     0
 42
0.0000000001
 43
0.0000000001
 40
0.0
 40
0.0
 40
0.0
 40
0.0
 40
1.437607986812996
 40
1.437607986812996
 40
1.437607986812996
 40
1.570796326794897
 40
1.570796326794897
 40
1.570796326794897
 40
1.570796326794897
 10
0.9000000000087311
 20
-626.0506620825345
 30
0.0
 10
0.4687176039660699
 20
-626.4197237421162
 30
0.0
 10
0.0652429258989287
 20
-626.7887854016971
 30
0.0
 10
0.0079708168632351
 20
-627.1578470612785
 30
0.0
 10
0.002664796586032
 20
-627.1920390734552
 30
0.0
 10
0.0000000000145519
 20
-627.2262310856322
 30
0.0
 10
0.0000000000145519
 20
-627.2604230978088
 30
0.0
  0
SPLINE
  5
1A1D
330
85F
100
AcDbEntity
  8
DETAIL
100
AcDbSpline
210
0.0
220
0.0
230
1.0
 70
     8
 71
     3
 72
     8
 73
     4
 74
     0
 42
0.0000000001
 43
0.0000000001
 40
0.0
 40
0.0
 40
0.0
 40
0.0
 40
1.570796326794897
 40
1.570796326794897
 40
1.570796326794897
 40
1.570796326794897
 10
0.9000000000087311
 20
-626.0506620825345
 30
0.0
 10
0.8476401224543224
 20
-626.4539157542928
 30
0.0
 10
0.8000000000101863
 20
-626.8571694260507
 30
0.0
 10
0.8000000000101863
 20
-627.2604230978088
 30
0.0
  0
LINE
  5
1A1E
330
85F
100
AcDbEntity
  8
DETAIL
100
AcDbLine
 10
0.8000000000101863
 20
-627.2604230978088
 30
0.0
 11
0.0000000000145519
 21
-627.2604230978088
 31
0.0
  0
LINE
  5
1A1F
330
85F
100
AcDbEntity
  8
DETAIL
100
AcDbLine
 10
298.2000000000116
 20
-226.4262733701557
 30
0.0
 11
0.9000000000087311
 21
-626.0506620825345
 31
0.0
  0
LINE
  5
1A20
330
85F
100
AcDbEntity
  8
DETAIL
100
AcDbLine
 10
298.2000000000116
 20
-225.4362733701559
 30
0.0
 11
298.2000000000116
 21
-226.4262733701557
 31
0.0
  0
LINE
  5
1A21
330
85F
100
AcDbEntity
  8
DETAIL
100
AcDbLine
 10
298.2000000000116
 20
437.5229491399188
 30
0.0
 11
298.2000000000116
 21
435.5329491399182
 31
0.0
  0
LINE
  5
1A22
330
85F
100
AcDbEntity
  8
DETAIL
100
AcDbLine
 10
298.2000000000116
 20
-225.4362733701559
 30
0.0
 11
297.2900000000081
 21
-225.4362733701559
 31
0.0
  0
LINE
  5
1A23
330
85F
100
AcDbEntity
  8
DETAIL
100
AcDbLine
 10
297.2900000000081
 20
-225.4362733701559
 30
0.0
 11
297.2900000000081
 21
-225.4262733701562
 31
0.0
  0
LINE
  5
1A24
330
85F
100
AcDbEntity
  8
DETAIL
100
AcDbLine
 10
297.2900000000081
 20
-225.4262733701562
 30
0.0
 11
297.3000000000102
 21
-225.4262733701562
 31
0.0
  0
LINE
  5
1A25
330
85F
100
AcDbEntity
  8
DETAIL
100
AcDbLine
 10
297.3000000000102
 20
-225.4262733701562
 30
0.0
 11
297.3000000000102
 21
435.5229491399192
 31
0.0
  0
LINE
  5
1A26
330
85F
100
AcDbEntity
  8
DETAIL
100
AcDbLine
 10
297.3000000000102
 20
435.5229491399192
 30
0.0
 11
297.2900000000081
 21
435.5229491399192
 31
0.0
  0
LINE
  5
1A27
330
85F
100
AcDbEntity
  8
DETAIL
100
AcDbLine
 10
297.2900000000081
 20
435.5229491399192
 30
0.0
 11
297.2900000000081
 21
435.5329491399182
 31
0.0
  0
LINE
  5
1A28
330
85F
100
AcDbEntity
  8
DETAIL
100
AcDbLine
 10
297.2900000000081
 20
435.5329491399182
 30
0.0
 11
298.2000000000116
 21
435.5329491399182
 31
0.0
  0
LINE
  5
1A29
330
85F
100
AcDbEntity
  8
DETAIL
100
AcDbLine
 10
298.2000000000116
 20
435.5229491399192
 30
0.0
 11
298.2000000000116
 21
-225.4262733701562
 31
0.0
  0
LINE
  5
1A2A
330
85F
100
AcDbEntity
  8
DETAIL
100
AcDbLine
 10
298.2000000000116
 20
435.5229491399192
 30
0.0
 11
297.3000000000102
 21
435.5229491399192
 31
0.0
  0
LINE
  5
1A2B
330
85F
100
AcDbEntity
  8
DETAIL
100
AcDbLine
 10
297.3000000000102
 20
-225.4262733701562
 30
0.0
 11
298.2000000000116
 21
-225.4262733701562
 31
0.0
  0
LINE
  5
1A2C
330
85F
100
AcDbEntity
  8
DETAIL
100
AcDbLine
 10
298.2000000000116
 20
437.5229491399188
 30
0.0
 11
296.8789745962276
 21
438.2856435124008
 31
0.0
  0
LINE
  5
1A2D
330
85F
100
AcDbEntity
  8
DETAIL
100
AcDbLine
 10
296.8789745962276
 20
438.2856435124008
 30
0.0
 11
296.883974596225
 21
438.2943037664386
 31
0.0
  0
LINE
  5
1A2E
330
85F
100
AcDbEntity
  8
DETAIL
100
AcDbLine
 10
296.883974596225
 20
438.2943037664386
 30
0.0
 11
1.316025403793899
 21
608.9405387965139
 31
0.0
  0
LINE
  5
1A2F
330
85F
100
AcDbEntity
  8
DETAIL
100
AcDbLine
 10
0.0000000000145519
 20
609.1807311753796
 30
0.0
 11
0.0000000000145519
 21
610.7395769021908
 31
0.0
  0
LINE
  5
1A30
330
85F
100
AcDbEntity
  8
DETAIL
100
AcDbLine
 10
0.8000000000101863
 20
610.7395769021908
 30
0.0
 11
0.8000000000101863
 21
609.1807311753796
 31
0.0
  0
LINE
  5
1A31
330
85F
100
AcDbEntity
  8
DETAIL
100
AcDbLine
 10
1.766025403798264
 20
609.7199616599205
 30
0.0
 11
297.3339745962294
 21
439.0737266298442
 31
0.0
  0
LINE
  5
1A32
330
85F
100
AcDbEntity
  8
DETAIL
100
AcDbLine
 10
297.3339745962294
 20
439.0737266298442
 30
0.0
 11
296.883974596225
 21
438.2943037664386
 31
0.0
  0
LINE
  5
1A33
330
85F
100
AcDbEntity
  8
DETAIL
100
AcDbLine
 10
1.766025403798264
 20
609.7199616599205
 30
0.0
 11
1.316025403793899
 21
608.9405387965139
 31
0.0
  0
LINE
  5
1A34
330
85F
100
AcDbEntity
  8
DETAIL
100
AcDbLine
 10
0.8000000000101863
 20
610.7395769021908
 30
0.0
 11
0.0000000000145519
 21
610.7395769021908
 31
0.0
  0
LINE
  5
1A35
330
85F
100
AcDbEntity
  8
DETAIL
100
AcDbLine
 10
0.0000000000145519
 20
609.1807311753796
 30
0.0
 11
0.9000000000087311
 21
609.1807311753796
 31
0.0
  0
LINE
  5
1A36
330
85F
100
AcDbEntity
  8
DETAIL
100
AcDbLine
 10
1.316025403793899
 20
608.9405387965139
 30
0.0
 11
0.9000000000087311
 21
609.1807311753796
 31
0.0
  0
LINE
  5
1A37
330
85F
100
AcDbEntity
  8
DETAIL
100
AcDbLine
 10
297.6583974597233
 20
437.8356435124
 30
0.0
 11
297.6633974597207
 21
437.8443037664379
 31
0.0
  0
LINE
  5
1A38
330
85F
100
AcDbEntity
  8
DETAIL
100
AcDbLine
 10
297.6633974597207
 20
437.8443037664379
 30
0.0
 11
296.8839745963196
 21
438.2943037664386
 31
0.0
  0
LINE
  5
1A39
330
85F
100
AcDbEntity
  8
DETAIL
100
AcDbLine
 10
297.7133974597236
 20
437.9309063068161
 30
0.0
 11
297.6633974597207
 21
437.8443037664379
 31
0.0
  0
LINE
  5
1A3A
330
85F
100
AcDbEntity
  8
DETAIL
100
AcDbLine
 10
298.1133974597178
 20
438.6237266298444
 30
0.0
 11
297.7133974597164
 21
437.9309063068172
 31
0.0
  0
LINE
  5
1A3B
330
85F
100
AcDbEntity
  8
DETAIL
100
AcDbLine
 10
296.9339745963152
 20
438.380906306816
 30
0.0
 11
297.7133974597164
 21
437.9309063068172
 31
0.0
  0
LINE
  5
1A3C
330
85F
100
AcDbEntity
  8
DETAIL
100
AcDbLine
 10
298.2000000000116
 20
-227.4770508600818
 30
0.0
 11
299.0000000000145
 21
-227.4770508600818
 31
0.0
  0
LINE
  5
1A3D
330
85F
100
AcDbEntity
  8
DETAIL
100
AcDbLine
 10
299.0000000000145
 20
433.5229491399181
 30
0.0
 11
299.0000000000145
 21
436.5229491399182
 31
0.0
  0
LINE
  5
1A3E
330
85F
100
AcDbEntity
  8
DETAIL
100
AcDbLine
 10
299.0000000000145
 20
-227.4770508600818
 30
0.0
 11
299.0000000000145
 21
-224.4770508600818
 31
0.0
  0
LINE
  5
1A3F
330
85F
100
AcDbEntity
  8
DETAIL
100
AcDbLine
 10
299.0000000000145
 20
-224.4770508600814
 30
0.0
 11
298.2000000000116
 21
-224.4770508600814
 31
0.0
  0
LINE
  5
1A40
330
85F
100
AcDbEntity
  8
DETAIL
100
AcDbLine
 10
298.2000000000116
 20
-225.4262733701562
 30
0.0
 11
298.2000000000116
 21
-225.4362733701559
 31
0.0
  0
LINE
  5
1A41
330
85F
100
AcDbEntity
  8
DETAIL
100
AcDbLine
 10
298.2000000000116
 20
-226.4262733701557
 30
0.0
 11
298.2000000000116
 21
-227.4770508600818
 31
0.0
  0
LINE
  5
1A42
330
85F
100
AcDbEntity
  8
DETAIL
100
AcDbLine
 10
298.2000000000116
 20
433.5229491399181
 30
0.0
 11
299.0000000000145
 21
433.5229491399181
 31
0.0
  0
LINE
  5
1A43
330
85F
100
AcDbEntity
  8
DETAIL
100
AcDbLine
 10
299.0000000000145
 20
436.5229491399182
 30
0.0
 11
298.2000000000116
 21
436.5229491399182
 31
0.0
  0
LINE
  5
1A44
330
85F
100
AcDbEntity
  8
DETAIL
100
AcDbLine
 10
298.2000000000116
 20
435.5329491399182
 30
0.0
 11
298.2000000000116
 21
435.5229491399182
 31
0.0
  0
LINE
  5
1A45
330
85F
100
AcDbEntity
  8
DETAIL
100
AcDbLine
 10
298.2000000000189
 20
-227.4770508600818
 30
0.0
 11
297.4182755693328
 21
-227.4770508600818
 31
0.0
  0
LINE
  5
1A46
330
85F
100
AcDbEntity
  8
DETAIL
100
AcDbLine
 10
297.400000000016
 20
-225.4262733701562
 30
0.0
 11
297.400000000016
 21
-225.4362733701559
 31
0.0
  0
LINE
  5
1A47
330
85F
100
AcDbEntity
  8
DETAIL
100
AcDbLine
 10
299.0000000000145
 20
-224.4770508600814
 30
0.0
 11
299.0000000000145
 21
433.5229491399181
 31
0.0
  0
LINE
  5
1A48
330
85F
100
AcDbEntity
  8
DETAIL
100
AcDbLine
 10
299.0630127019031
 20
418.0177309871735
 30
0.0
 11
299.863012701906
 21
418.0177309871735
 31
0.0
  0
LINE
  5
1A49
330
85F
100
AcDbEntity
  8
DETAIL
100
AcDbLine
 10
299.863012701906
 20
418.0177309871735
 30
0.0
 11
299.863012701906
 21
421.0177309871736
 31
0.0
  0
LINE
  5
1A4A
330
85F
100
AcDbEntity
  8
DETAIL
100
AcDbLine
 10
299.863012701906
 20
421.0177309871736
 30
0.0
 11
299.0630127019031
 21
421.0177309871736
 31
0.0
  0
LINE
  5
1A4B
330
85F
100
AcDbEntity
  8
DETAIL
100
AcDbLine
 10
299.0630127019031
 20
421.0177309871736
 30
0.0
 11
299.0630127019031
 21
418.0177309871735
 31
0.0
  0
LINE
  5
1A4C
330
85F
100
AcDbEntity
  8
DETAIL
100
AcDbLine
 10
1.923700951178034
 20
627.6104230978194
 30
0.0
 11
1.123700951182399
 21
627.6104230978194
 31
0.0
  0
LINE
  5
1A4D
330
85F
100
AcDbEntity
  8
DETAIL
100
AcDbLine
 10
1.123700951182399
 20
627.6104230978194
 30
0.0
 11
1.123700951175123
 21
624.6104230978194
 31
0.0
  0
LINE
  5
1A4E
330
85F
100
AcDbEntity
  8
DETAIL
100
AcDbLine
 10
1.923700951178034
 20
624.6104230978194
 30
0.0
 11
1.923700951178034
 21
627.6104230978194
 31
0.0
  0
LINE
  5
1A4F
330
85F
100
AcDbEntity
  8
DETAIL
100
AcDbLine
 10
1.123700951175123
 20
624.6104230978194
 30
0.0
 11
1.923700951178034
 21
624.6104230978194
 31
0.0
  0
LINE
  5
1A50
330
85F
100
AcDbEntity
  8
DETAIL
100
AcDbLine
 10
299.863012701906
 20
421.0177309871736
 30
0.0
 11
299.863012701906
 21
438.0177309871736
 31
0.0
  0
LINE
  5
1A51
330
85F
100
AcDbEntity
  8
DETAIL
100
AcDbLine
 10
1.123700951175123
 20
610.6104230978194
 30
0.0
 11
1.123700951175123
 21
624.6104230978194
 31
0.0
  0
LINE
  5
1A52
330
85F
100
AcDbEntity
  8
DETAIL
100
AcDbLine
 10
1.923700951178034
 20
610.6104230978194
 30
0.0
 11
1.923700951178034
 21
624.6104230978194
 31
0.0
  0
LINE
  5
1A53
330
85F
100
AcDbEntity
  8
DETAIL
100
AcDbLine
 10
299.4130127019016
 20
438.7971538505794
 30
0.0
 11
1.973700951180944
 21
610.5238205574401
 31
0.0
  0
LINE
  5
1A54
330
85F
100
AcDbEntity
  8
DETAIL
100
AcDbLine
 10
299.0130127019002
 20
438.1043335275522
 30
0.0
 11
297.3339745962294
 21
439.0737266298442
 31
0.0
  0
LINE
  5
1A55
330
85F
100
AcDbEntity
  8
DETAIL
100
AcDbLine
 10
1.766025403798264
 20
609.7199616599222
 30
0.0
 11
1.573700951179487
 21
609.8310002344127
 31
0.0
  0
LINE
  5
1A56
330
85F
100
AcDbEntity
  8
DETAIL
100
AcDbLine
 10
299.0630127019031
 20
421.0177309871736
 30
0.0
 11
299.0630127019031
 21
438.0177309871736
 31
0.0
  0
LINE
  5
1A57
330
85F
100
AcDbEntity
  8
DETAIL
100
AcDbLine
 10
1.123700951175123
 20
610.6104230978194
 30
0.0
 11
1.923700951178034
 21
610.6104230978194
 31
0.0
  0
LINE
  5
1A58
330
85F
100
AcDbEntity
  8
DETAIL
100
AcDbLine
 10
1.973700951180944
 20
610.5238205574401
 30
0.0
 11
1.573700951179487
 21
609.8310002344127
 31
0.0
  0
ARC
  5
1A59
330
85F
100
AcDbEntity
  8
DETAIL
100
AcDbCircle
 10
2.023700951176579
 20
610.6104230978194
 30
0.0
 40
0.1000000000000001
100
AcDbArc
 50
180.0
 51
239.9999999999999
  0
ARC
  5
1A5A
330
85F
100
AcDbEntity
  8
DETAIL
100
AcDbCircle
 10
2.023700951176579
 20
610.6104230978194
 30
0.0
 40
0.9000000000000017
100
AcDbArc
 50
180.0
 51
239.9999999999999
  0
ARC
  5
1A5B
330
85F
100
AcDbEntity
  8
DETAIL
100
AcDbCircle
 10
298.9630127019045
 20
438.0177309871736
 30
0.0
 40
0.1000000000001221
100
AcDbArc
 50
0.0
 51
59.99999999999985
  0
LINE
  5
1A5C
330
85F
100
AcDbEntity
  8
DETAIL
100
AcDbLine
 10
299.863012701906
 20
438.0177309871736
 30
0.0
 11
299.0630127019031
 21
438.0177309871736
 31
0.0
  0
ARC
  5
1A5D
330
85F
100
AcDbEntity
  8
DETAIL
100
AcDbCircle
 10
298.9630127019045
 20
438.0177309871736
 30
0.0
 40
0.900000000000239
100
AcDbArc
 50
0.0
 51
59.99999999999985
  0
LINE
  5
1A5E
330
85F
100
AcDbEntity
  8
DETAIL
100
AcDbLine
 10
299.0130127019002
 20
438.1043335275522
 30
0.0
 11
299.4130127019016
 21
438.7971538505794
 31
0.0
  0
LINE
  5
1A5F
330
85F
100
AcDbEntity
  8
NOTE
100
AcDbLine
 10
8.623700951182398
 20
622.6104230978194
 30
0.0
 11
-6.3762990488176
 21
622.6104230978194
 31
0.0
  0
LINE
  5
1A60
330
85F
100
AcDbEntity
  8
NOTE
100
AcDbLine
 10
7.500000951164111
 20
532.5395769021911
 30
0.0
 11
-7.499999048835888
 21
532.5395769021911
 31
0.0
  0
LINE
  5
1A61
330
85F
100
AcDbEntity
  8
NOTE
100
AcDbLine
 10
7.500000951164111
 20
-79.46042309780887
 30
0.0
 11
-7.499999048835888
 21
-79.46042309780887
 31
0.0
  0
LINE
  5
1A62
330
85F
100
AcDbEntity
  8
NOTE
100
AcDbLine
 10
7.500000951164111
 20
-609.8604230978089
 30
0.0
 11
-7.499999048835888
 21
-609.8604230978089
 31
0.0
  0
LINE
  5
1A69
330
85F
100
AcDbEntity
  8
ARRANGE
  6
Continuous
 62
     1
100
AcDbLine
 10
16.68411756440764
 20
-16.684117564404
 30
0.0
 11
-16.68411756440036
 21
16.684117564404
 31
0.0
  0
LINE
  5
1A6A
330
85F
100
AcDbEntity
  8
ARRANGE
  6
Continuous
 62
     1
100
AcDbLine
 10
16.68411756440764
 20
16.684117564404
 30
0.0
 11
-16.68411756440036
 21
-16.684117564404
 31
0.0
  0
CIRCLE
  5
1A6B
330
85F
100
AcDbEntity
  8
ARRANGE
100
AcDbCircle
 10
0.0
 20
0.0
 30
0.0
 40
15.0
  0
LINE
  5
1A6C
330
85F
100
AcDbEntity
  8
BASIS
  6
DASHDOT
 62
     6
100
AcDbLine
 10
-50.00000000000728
 20
0.0
 30
0.0
 11
349.0
 21
0.0
 31
0.0
  0
MTEXT
  5
1A6D
330
85F
100
AcDbEntity
  8
ETC
100
AcDbMText
 10
250.8543285745982
 20
1027.747052681015
 30
0.0
 40
64.0
 41
0.0
 71
     1
 72
     5
  1
{\Fromans,extfont|c128;\W0.9;AGJT-28SL-5}
  7
ADESK1
 73
     1
 44
1.0
1001
ACAD
1000
MTEXTBEGIN
1070
    73
1070
     1
1070
    44
1040
1.0
1070
    74
1070
     0
1000
MTEXTEND
  0
LINE
  5
1A6E
330
85F
100
AcDbEntity
  8
NOTE
100
AcDbLine
 10
0.0000000000145519
 20
525.0395769021911
 30
0.0
 11
0.0000000000145519
 21
540.0395769021911
 31
0.0
  0
LINE
  5
1A6F
330
85F
100
AcDbEntity
  8
NOTE
100
AcDbLine
 10
0.0000000000145519
 20
-86.96042309780796
 30
0.0
 11
0.0000000000145519
 21
-71.96042309780795
 31
0.0
  0
LINE
  5
1A70
330
85F
100
AcDbEntity
  8
NOTE
100
AcDbLine
 10
0.0000000000145519
 20
-617.3604230978094
 30
0.0
 11
0.0000000000145519
 21
-602.3604230978094
 31
0.0
  0
LINE
  5
1A71
330
85F
100
AcDbEntity
  8
OUTLINE
100
AcDbLine
 10
4.000000000014551
 20
-157.2604230978081
 30
0.0
 11
7.000000000014551
 21
-154.2604230978081
 31
0.0
  0
LINE
  5
1A72
330
85F
100
AcDbEntity
  8
OUTLINE
100
AcDbLine
 10
7.000000000014551
 20
-138.7604230978081
 30
0.0
 11
4.000000000014551
 21
-135.7604230978081
 31
0.0
  0
LINE
  5
1A73
330
85F
100
AcDbEntity
  8
OUTLINE
100
AcDbLine
 10
11.00000000001455
 20
-154.2604230978081
 30
0.0
 11
7.000000000014551
 21
-154.2604230978081
 31
0.0
  0
LINE
  5
1A74
330
85F
100
AcDbEntity
  8
OUTLINE
100
AcDbLine
 10
7.000000000014551
 20
-138.7604230978081
 30
0.0
 11
11.00000000001455
 21
-138.7604230978081
 31
0.0
  0
LINE
  5
1A75
330
85F
100
AcDbEntity
  8
OUTLINE
100
AcDbLine
 10
11.00000000001455
 20
-138.7604230978081
 30
0.0
 11
11.00000000001455
 21
-154.2604230978081
 31
0.0
  0
LINE
  5
1A76
330
85F
100
AcDbEntity
  8
OUTLINE
100
AcDbLine
 10
4.000000000014551
 20
-157.2604230978081
 30
0.0
 11
4.000000000014551
 21
-193.7604230978081
 31
0.0
  0
LINE
  5
1A77
330
85F
100
AcDbEntity
  8
OUTLINE
100
AcDbLine
 10
4.000000000014551
 20
-193.7604230978081
 30
0.0
 11
0.9000000000087311
 21
-193.7604230978081
 31
0.0
  0
LINE
  5
1A78
330
85F
100
AcDbEntity
  8
OUTLINE
100
AcDbLine
 10
0.9000000000087311
 20
-119.7604230978081
 30
0.0
 11
4.000000000014551
 21
-119.7604230978081
 31
0.0
  0
LINE
  5
1A79
330
85F
100
AcDbEntity
  8
OUTLINE
100
AcDbLine
 10
4.000000000014551
 20
-119.7604230978081
 30
0.0
 11
4.000000000014551
 21
-135.7604230978081
 31
0.0
  0
LINE
  5
1A7A
330
85F
100
AcDbEntity
  8
OUTLINE
100
AcDbLine
 10
0.0000000000145519
 20
-193.7604230978081
 30
0.0
 11
0.9000000000087311
 21
-193.7604230978081
 31
0.0
  0
LINE
  5
1A7B
330
85F
100
AcDbEntity
  8
OUTLINE
100
AcDbLine
 10
0.9000000000087311
 20
-119.7604230978081
 30
0.0
 11
0.0000000000145519
 21
-119.7604230978081
 31
0.0
  0
LINE
  5
1A7C
330
85F
100
AcDbEntity
  8
OUTLINE
100
AcDbLine
 10
0.9000000000087311
 20
-193.7604230978081
 30
0.0
 11
0.9000000000087311
 21
-626.0506620825333
 31
0.0
  0
LINE
  5
1A7D
330
85F
100
AcDbEntity
  8
OUTLINE
100
AcDbLine
 10
0.9000000000087311
 20
609.1807311753805
 30
0.0
 11
0.9000000000087311
 21
-119.7604230978081
 31
0.0
  0
LINE
  5
1A7E
330
85F
100
AcDbEntity
  8
OUTLINE
100
AcDbLine
 10
0.0000000000145519
 20
-627.2604230978081
 30
0.0
 11
0.0000000000145519
 21
-193.7604230978081
 31
0.0
  0
LINE
  5
1A7F
330
85F
100
AcDbEntity
  8
OUTLINE
100
AcDbLine
 10
0.0000000000145519
 20
-119.7604230978081
 30
0.0
 11
0.0000000000145519
 21
609.1807311753805
 31
0.0
  0
SPLINE
  5
1A80
330
85F
100
AcDbEntity
  8
OUTLINE
100
AcDbSpline
210
0.0
220
0.0
230
1.0
 70
     8
 71
     3
 72
    11
 73
     7
 74
     0
 42
0.0000000001
 43
0.0000000001
 40
0.0
 40
0.0
 40
0.0
 40
0.0
 40
1.437607986812996
 40
1.437607986812996
 40
1.437607986812996
 40
1.570796326794897
 40
1.570796326794897
 40
1.570796326794897
 40
1.570796326794897
 10
0.9000000000087311
 20
-626.0506620825333
 30
0.0
 10
0.4687176039660699
 20
-626.4197237421154
 30
0.0
 10
0.0652429258989287
 20
-626.7887854016962
 30
0.0
 10
0.0079708168632351
 20
-627.1578470612776
 30
0.0
 10
0.002664796586032
 20
-627.1920390734543
 30
0.0
 10
0.0000000000145519
 20
-627.2262310856312
 30
0.0
 10
0.0000000000145519
 20
-627.2604230978081
 30
0.0
  0
SPLINE
  5
1A81
330
85F
100
AcDbEntity
  8
OUTLINE
100
AcDbSpline
210
0.0
220
0.0
230
1.0
 70
     8
 71
     3
 72
     8
 73
     4
 74
     0
 42
0.0000000001
 43
0.0000000001
 40
0.0
 40
0.0
 40
0.0
 40
0.0
 40
1.570796326794897
 40
1.570796326794897
 40
1.570796326794897
 40
1.570796326794897
 10
0.9000000000087311
 20
-626.0506620825333
 30
0.0
 10
0.8476401224543224
 20
-626.4539157542917
 30
0.0
 10
0.8000000000101863
 20
-626.8571694260497
 30
0.0
 10
0.8000000000101863
 20
-627.2604230978081
 30
0.0
  0
LINE
  5
1A82
330
85F
100
AcDbEntity
  8
OUTLINE
100
AcDbLine
 10
0.8000000000101863
 20
-627.2604230978081
 30
0.0
 11
0.0000000000145519
 21
-627.2604230978081
 31
0.0
  0
LINE
  5
1A83
330
85F
100
AcDbEntity
  8
OUTLINE
100
AcDbLine
 10
298.2000000000116
 20
-226.4262733701548
 30
0.0
 11
0.9000000000087311
 21
-626.0506620825333
 31
0.0
  0
LINE
  5
1A84
330
85F
100
AcDbEntity
  8
OUTLINE
100
AcDbLine
 10
298.2000000000116
 20
-225.4362733701551
 30
0.0
 11
298.2000000000116
 21
-226.4262733701548
 31
0.0
  0
LINE
  5
1A85
330
85F
100
AcDbEntity
  8
OUTLINE
100
AcDbLine
 10
298.2000000000116
 20
437.52294913992
 30
0.0
 11
298.2000000000116
 21
435.5329491399191
 31
0.0
  0
LINE
  5
1A86
330
85F
100
AcDbEntity
  8
OUTLINE
100
AcDbLine
 10
298.2000000000116
 20
-225.4362733701551
 30
0.0
 11
297.2900000000081
 21
-225.4362733701551
 31
0.0
  0
LINE
  5
1A87
330
85F
100
AcDbEntity
  8
OUTLINE
100
AcDbLine
 10
297.2900000000081
 20
-225.4362733701551
 30
0.0
 11
297.2900000000081
 21
-225.4262733701553
 31
0.0
  0
LINE
  5
1A88
330
85F
100
AcDbEntity
  8
OUTLINE
100
AcDbLine
 10
297.2900000000081
 20
-225.4262733701553
 30
0.0
 11
297.3000000000102
 21
-225.4262733701553
 31
0.0
  0
LINE
  5
1A89
330
85F
100
AcDbEntity
  8
OUTLINE
100
AcDbLine
 10
297.3000000000102
 20
-225.4262733701553
 30
0.0
 11
297.3000000000102
 21
435.52294913992
 31
0.0
  0
LINE
  5
1A8A
330
85F
100
AcDbEntity
  8
OUTLINE
100
AcDbLine
 10
297.3000000000102
 20
435.52294913992
 30
0.0
 11
297.2900000000081
 21
435.52294913992
 31
0.0
  0
LINE
  5
1A8B
330
85F
100
AcDbEntity
  8
OUTLINE
100
AcDbLine
 10
297.2900000000081
 20
435.52294913992
 30
0.0
 11
297.2900000000081
 21
435.5329491399191
 31
0.0
  0
LINE
  5
1A8C
330
85F
100
AcDbEntity
  8
OUTLINE
100
AcDbLine
 10
297.2900000000081
 20
435.5329491399191
 30
0.0
 11
298.2000000000116
 21
435.5329491399191
 31
0.0
  0
LINE
  5
1A8D
330
85F
100
AcDbEntity
  8
OUTLINE
100
AcDbLine
 10
298.2000000000116
 20
435.52294913992
 30
0.0
 11
298.2000000000116
 21
-225.4262733701553
 31
0.0
  0
LINE
  5
1A8E
330
85F
100
AcDbEntity
  8
OUTLINE
100
AcDbLine
 10
298.2000000000116
 20
435.52294913992
 30
0.0
 11
297.3000000000102
 21
435.52294913992
 31
0.0
  0
LINE
  5
1A8F
330
85F
100
AcDbEntity
  8
OUTLINE
100
AcDbLine
 10
297.3000000000102
 20
-225.4262733701553
 30
0.0
 11
298.2000000000116
 21
-225.4262733701553
 31
0.0
  0
LINE
  5
1A90
330
85F
100
AcDbEntity
  8
OUTLINE
100
AcDbLine
 10
298.2000000000116
 20
437.52294913992
 30
0.0
 11
296.8789745962276
 21
438.2856435124018
 31
0.0
  0
LINE
  5
1A91
330
85F
100
AcDbEntity
  8
OUTLINE
100
AcDbLine
 10
296.8789745962276
 20
438.2856435124018
 30
0.0
 11
296.883974596225
 21
438.2943037664395
 31
0.0
  0
LINE
  5
1A92
330
85F
100
AcDbEntity
  8
OUTLINE
100
AcDbLine
 10
296.883974596225
 20
438.2943037664395
 30
0.0
 11
1.316025403793899
 21
608.9405387965147
 31
0.0
  0
LINE
  5
1A93
330
85F
100
AcDbEntity
  8
OUTLINE
100
AcDbLine
 10
0.0000000000145519
 20
609.1807311753805
 30
0.0
 11
0.0000000000145519
 21
610.7395769021917
 31
0.0
  0
LINE
  5
1A94
330
85F
100
AcDbEntity
  8
OUTLINE
100
AcDbLine
 10
0.8000000000101863
 20
610.7395769021917
 30
0.0
 11
0.8000000000101863
 21
609.1807311753805
 31
0.0
  0
LINE
  5
1A95
330
85F
100
AcDbEntity
  8
OUTLINE
100
AcDbLine
 10
1.766025403798264
 20
609.7199616599213
 30
0.0
 11
297.3339745962294
 21
439.0737266298451
 31
0.0
  0
LINE
  5
1A96
330
85F
100
AcDbEntity
  8
OUTLINE
100
AcDbLine
 10
297.3339745962294
 20
439.0737266298451
 30
0.0
 11
296.883974596225
 21
438.2943037664395
 31
0.0
  0
LINE
  5
1A97
330
85F
100
AcDbEntity
  8
OUTLINE
100
AcDbLine
 10
1.766025403798264
 20
609.7199616599213
 30
0.0
 11
1.316025403793899
 21
608.9405387965147
 31
0.0
  0
LINE
  5
1A98
330
85F
100
AcDbEntity
  8
OUTLINE
100
AcDbLine
 10
0.8000000000101863
 20
610.7395769021917
 30
0.0
 11
0.0000000000145519
 21
610.7395769021917
 31
0.0
  0
LINE
  5
1A99
330
85F
100
AcDbEntity
  8
OUTLINE
100
AcDbLine
 10
0.0000000000145519
 20
609.1807311753805
 30
0.0
 11
0.9000000000087311
 21
609.1807311753805
 31
0.0
  0
LINE
  5
1A9A
330
85F
100
AcDbEntity
  8
OUTLINE
100
AcDbLine
 10
1.316025403793899
 20
608.9405387965147
 30
0.0
 11
0.9000000000087311
 21
609.1807311753805
 31
0.0
  0
LINE
  5
1A9B
330
85F
100
AcDbEntity
  8
OUTLINE
100
AcDbLine
 10
297.6583974597233
 20
437.8356435124008
 30
0.0
 11
297.6633974597207
 21
437.8443037664387
 31
0.0
  0
LINE
  5
1A9C
330
85F
100
AcDbEntity
  8
OUTLINE
100
AcDbLine
 10
297.6633974597207
 20
437.8443037664387
 30
0.0
 11
296.8839745963196
 21
438.2943037664395
 31
0.0
  0
LINE
  5
1A9D
330
85F
100
AcDbEntity
  8
OUTLINE
100
AcDbLine
 10
297.7133974597236
 20
437.9309063068172
 30
0.0
 11
297.6633974597207
 21
437.8443037664387
 31
0.0
  0
LINE
  5
1A9E
330
85F
100
AcDbEntity
  8
OUTLINE
100
AcDbLine
 10
298.1133974597178
 20
438.6237266298453
 30
0.0
 11
297.7133974597164
 21
437.9309063068181
 31
0.0
  0
LINE
  5
1A9F
330
85F
100
AcDbEntity
  8
OUTLINE
100
AcDbLine
 10
296.9339745963152
 20
438.3809063068167
 30
0.0
 11
297.7133974597164
 21
437.9309063068181
 31
0.0
  0
LINE
  5
1AA0
330
85F
100
AcDbEntity
  8
OUTLINE
100
AcDbLine
 10
298.2000000000116
 20
-227.4770508600809
 30
0.0
 11
299.0000000000145
 21
-227.4770508600809
 31
0.0
  0
LINE
  5
1AA1
330
85F
100
AcDbEntity
  8
OUTLINE
100
AcDbLine
 10
299.0000000000145
 20
433.5229491399188
 30
0.0
 11
299.0000000000145
 21
436.522949139919
 31
0.0
  0
LINE
  5
1AA2
330
85F
100
AcDbEntity
  8
OUTLINE
100
AcDbLine
 10
299.0000000000145
 20
-227.4770508600809
 30
0.0
 11
299.0000000000145
 21
-224.4770508600809
 31
0.0
  0
LINE
  5
1AA3
330
85F
100
AcDbEntity
  8
OUTLINE
100
AcDbLine
 10
299.0000000000145
 20
-224.4770508600804
 30
0.0
 11
298.2000000000116
 21
-224.4770508600804
 31
0.0
  0
LINE
  5
1AA4
330
85F
100
AcDbEntity
  8
OUTLINE
100
AcDbLine
 10
298.2000000000116
 20
-225.4262733701553
 30
0.0
 11
298.2000000000116
 21
-225.4362733701551
 31
0.0
  0
LINE
  5
1AA5
330
85F
100
AcDbEntity
  8
OUTLINE
100
AcDbLine
 10
298.2000000000116
 20
-226.4262733701548
 30
0.0
 11
298.2000000000116
 21
-227.4770508600809
 31
0.0
  0
LINE
  5
1AA6
330
85F
100
AcDbEntity
  8
OUTLINE
100
AcDbLine
 10
298.2000000000116
 20
433.5229491399188
 30
0.0
 11
299.0000000000145
 21
433.5229491399188
 31
0.0
  0
LINE
  5
1AA7
330
85F
100
AcDbEntity
  8
OUTLINE
100
AcDbLine
 10
299.0000000000145
 20
436.522949139919
 30
0.0
 11
298.2000000000116
 21
436.522949139919
 31
0.0
  0
LINE
  5
1AA8
330
85F
100
AcDbEntity
  8
OUTLINE
100
AcDbLine
 10
298.2000000000116
 20
435.5329491399191
 30
0.0
 11
298.2000000000116
 21
435.5229491399192
 31
0.0
  0
LINE
  5
1AA9
330
85F
100
AcDbEntity
  8
OUTLINE
100
AcDbLine
 10
298.2000000000189
 20
-227.4770508600809
 30
0.0
 11
297.4182755693328
 21
-227.4770508600809
 31
0.0
  0
LINE
  5
1AAA
330
85F
100
AcDbEntity
  8
OUTLINE
100
AcDbLine
 10
297.400000000016
 20
-225.4262733701553
 30
0.0
 11
297.400000000016
 21
-225.4362733701551
 31
0.0
  0
LINE
  5
1AAB
330
85F
100
AcDbEntity
  8
OUTLINE
100
AcDbLine
 10
299.0000000000145
 20
-224.4770508600804
 30
0.0
 11
299.0000000000145
 21
433.5229491399188
 31
0.0
  0
LINE
  5
1AAC
330
85F
100
AcDbEntity
  8
OUTLINE
100
AcDbLine
 10
299.0630127019031
 20
418.0177309871746
 30
0.0
 11
299.863012701906
 21
418.0177309871746
 31
0.0
  0
LINE
  5
1AAD
330
85F
100
AcDbEntity
  8
OUTLINE
100
AcDbLine
 10
299.863012701906
 20
418.0177309871746
 30
0.0
 11
299.863012701906
 21
421.0177309871744
 31
0.0
  0
LINE
  5
1AAE
330
85F
100
AcDbEntity
  8
OUTLINE
100
AcDbLine
 10
299.863012701906
 20
421.0177309871744
 30
0.0
 11
299.0630127019031
 21
421.0177309871744
 31
0.0
  0
LINE
  5
1AAF
330
85F
100
AcDbEntity
  8
OUTLINE
100
AcDbLine
 10
299.0630127019031
 20
421.0177309871744
 30
0.0
 11
299.0630127019031
 21
418.0177309871746
 31
0.0
  0
LINE
  5
1AB0
330
85F
100
AcDbEntity
  8
OUTLINE
100
AcDbLine
 10
1.923700951178034
 20
627.6104230978203
 30
0.0
 11
1.123700951182399
 21
627.6104230978203
 31
0.0
  0
LINE
  5
1AB1
330
85F
100
AcDbEntity
  8
OUTLINE
100
AcDbLine
 10
1.123700951182399
 20
627.6104230978203
 30
0.0
 11
1.123700951175123
 21
624.6104230978203
 31
0.0
  0
LINE
  5
1AB2
330
85F
100
AcDbEntity
  8
OUTLINE
100
AcDbLine
 10
1.923700951178034
 20
624.6104230978203
 30
0.0
 11
1.923700951178034
 21
627.6104230978203
 31
0.0
  0
LINE
  5
1AB3
330
85F
100
AcDbEntity
  8
OUTLINE
100
AcDbLine
 10
1.123700951175123
 20
624.6104230978203
 30
0.0
 11
1.923700951178034
 21
624.6104230978203
 31
0.0
  0
LINE
  5
1AB4
330
85F
100
AcDbEntity
  8
OUTLINE
100
AcDbLine
 10
299.863012701906
 20
421.0177309871744
 30
0.0
 11
299.863012701906
 21
438.0177309871746
 31
0.0
  0
LINE
  5
1AB5
330
85F
100
AcDbEntity
  8
OUTLINE
100
AcDbLine
 10
1.123700951175123
 20
610.6104230978203
 30
0.0
 11
1.123700951175123
 21
624.6104230978203
 31
0.0
  0
LINE
  5
1AB6
330
85F
100
AcDbEntity
  8
OUTLINE
100
AcDbLine
 10
1.923700951178034
 20
610.6104230978203
 30
0.0
 11
1.923700951178034
 21
624.6104230978203
 31
0.0
  0
LINE
  5
1AB7
330
85F
100
AcDbEntity
  8
OUTLINE
100
AcDbLine
 10
299.4130127019016
 20
438.7971538505802
 30
0.0
 11
1.973700951180944
 21
610.5238205574407
 31
0.0
  0
LINE
  5
1AB8
330
85F
100
AcDbEntity
  8
OUTLINE
100
AcDbLine
 10
299.0130127019002
 20
438.104333527553
 30
0.0
 11
297.3339745962294
 21
439.0737266298451
 31
0.0
  0
LINE
  5
1AB9
330
85F
100
AcDbEntity
  8
OUTLINE
100
AcDbLine
 10
1.766025403798264
 20
609.7199616599232
 30
0.0
 11
1.573700951179487
 21
609.8310002344137
 31
0.0
  0
LINE
  5
1ABA
330
85F
100
AcDbEntity
  8
OUTLINE
100
AcDbLine
 10
299.0630127019031
 20
421.0177309871744
 30
0.0
 11
299.0630127019031
 21
438.0177309871746
 31
0.0
  0
LINE
  5
1ABB
330
85F
100
AcDbEntity
  8
OUTLINE
100
AcDbLine
 10
1.123700951175123
 20
610.6104230978203
 30
0.0
 11
1.923700951178034
 21
610.6104230978203
 31
0.0
  0
LINE
  5
1ABC
330
85F
100
AcDbEntity
  8
OUTLINE
100
AcDbLine
 10
1.973700951180944
 20
610.5238205574407
 30
0.0
 11
1.573700951179487
 21
609.8310002344137
 31
0.0
  0
ARC
  5
1ABD
330
85F
100
AcDbEntity
  8
OUTLINE
100
AcDbCircle
 10
2.023700951176579
 20
610.6104230978203
 30
0.0
 40
0.1000000000000001
100
AcDbArc
 50
180.0
 51
239.9999999999999
  0
ARC
  5
1ABE
330
85F
100
AcDbEntity
  8
OUTLINE
100
AcDbCircle
 10
2.023700951176579
 20
610.6104230978203
 30
0.0
 40
0.9000000000000017
100
AcDbArc
 50
180.0
 51
239.9999999999999
  0
ARC
  5
1ABF
330
85F
100
AcDbEntity
  8
OUTLINE
100
AcDbCircle
 10
298.9630127019045
 20
438.0177309871746
 30
0.0
 40
0.1000000000001221
100
AcDbArc
 50
0.0
 51
59.99999999999985
  0
LINE
  5
1AC0
330
85F
100
AcDbEntity
  8
OUTLINE
100
AcDbLine
 10
299.863012701906
 20
438.0177309871746
 30
0.0
 11
299.0630127019031
 21
438.0177309871746
 31
0.0
  0
ARC
  5
1AC1
330
85F
100
AcDbEntity
  8
OUTLINE
100
AcDbCircle
 10
298.9630127019045
 20
438.0177309871746
 30
0.0
 40
0.900000000000239
100
AcDbArc
 50
0.0
 51
59.99999999999985
  0
LINE
  5
1AC2
330
85F
100
AcDbEntity
  8
OUTLINE
100
AcDbLine
 10
299.0130127019002
 20
438.104333527553
 30
0.0
 11
299.4130127019016
 21
438.7971538505802
 31
0.0
  0
LINE
  5
1C01
330
85F
100
AcDbEntity
  8
SIZE
  6
Continuous
100
AcDbLine
 10
0.0000000000000012
 20
630.7395769021991
 30
0.0
 11
0.0000000000000093
 21
763.2032809735115
 31
0.0
  0
LINE
  5
1C02
330
85F
100
AcDbEntity
  8
SIZE
  6
Continuous
100
AcDbLine
 10
299.863012701906
 20
458.0177309871728
 30
0.0
 11
299.863012701906
 21
763.2032809735115
 31
0.0
  0
LINE
  5
1C03
330
85F
100
AcDbEntity
  8
SIZE
  6
Continuous
100
AcDbLine
 10
12.00000000000001
 20
743.2032809735114
 30
0.0
 11
287.863012701906
 21
743.2032809735114
 31
0.0
  0
INSERT
  5
1C04
330
85F
100
AcDbEntity
  8
SIZE
  6
Continuous
100
AcDbBlockReference
  2
_DOTBLANK
 10
0.0000000000000081
 20
743.2032809735114
 30
0.0
 41
12.0
 42
12.0
 43
12.0
 50
180.0
  0
INSERT
  5
1C05
330
85F
100
AcDbEntity
  8
SIZE
  6
Continuous
100
AcDbBlockReference
  2
_DOTBLANK
 10
299.863012701906
 20
743.2032809735114
 30
0.0
 41
12.0
 42
12.0
 43
12.0
  0
MTEXT
  5
1C06
330
85F
100
AcDbEntity
  8
SIZE
  6
Continuous
100
AcDbMText
 10
149.931506350953
 20
785.2032809735113
 30
0.0
 40
64.0
 41
0.0
 71
     5
 72
     1
  1
\A1;300
 73
     1
 44
1.0
1001
ACAD
1000
MTEXTBEGIN
1070
    73
1070
     1
1070
    44
1040
1.0
1070
    74
1070
     0
1000
MTEXTEND
  0
LINE
  5
1C07
330
85F
100
AcDbEntity
  8
SIZE
  6
Continuous
100
AcDbLine
 10
-18.8762990488176
 20
627.6104230978194
 30
0.0
 11
-355.1782263695202
 21
627.6104230978195
 31
0.0
  0
LINE
  5
1C08
330
85F
100
AcDbEntity
  8
SIZE
  6
Continuous
100
AcDbLine
 10
-20.0
 20
-627.2604230978013
 30
0.0
 11
-355.1782263695204
 21
-627.2604230978013
 31
0.0
  0
LINE
  5
1C09
330
85F
100
AcDbEntity
  8
SIZE
  6
Continuous
100
AcDbLine
 10
-335.1782263695202
 20
615.6104230978195
 30
0.0
 11
-335.1782263695203
 21
-615.2604230978013
 31
0.0
  0
INSERT
  5
1C0A
330
85F
100
AcDbEntity
  8
SIZE
  6
Continuous
100
AcDbBlockReference
  2
_DOTBLANK
 10
-335.1782263695202
 20
627.6104230978195
 30
0.0
 41
12.0
 42
12.0
 43
12.0
 50
90.0
  0
INSERT
  5
1C0B
330
85F
100
AcDbEntity
  8
SIZE
  6
Continuous
100
AcDbBlockReference
  2
_DOTBLANK
 10
-335.1782263695203
 20
-627.2604230978013
 30
0.0
 41
12.0
 42
12.0
 43
12.0
 50
270.0
  0
MTEXT
  5
1C0C
330
85F
100
AcDbEntity
  8
SIZE
  6
Continuous
100
AcDbMText
 10
-377.1782263695204
 20
0.1750000000090751
 30
0.0
 40
64.0
 41
0.0
 71
     5
 72
     1
  1
\A1;1255
 11
0.0000000000000001
 21
1.0
 31
0.0
 73
     1
 44
1.0
1001
ACAD
1000
MTEXTBEGIN
1070
    73
1070
     1
1070
    44
1040
1.0
1070
    74
1070
     0
1000
MTEXTEND
  0
LINE
  5
1C0D
330
85F
100
AcDbEntity
  8
SIZE
  6
Continuous
100
AcDbLine
 10
-27.49999904883589
 20
-79.46042309780887
 30
0.0
 11
-184.1949026107903
 21
-79.46042309780882
 31
0.0
  0
LINE
  5
1C0E
330
85F
100
AcDbEntity
  8
SIZE
  6
Continuous
100
AcDbLine
 10
-27.49999904883589
 20
-609.8604230978089
 30
0.0
 11
-184.1949026107904
 21
-609.8604230978089
 31
0.0
  0
LINE
  5
1C0F
330
85F
100
AcDbEntity
  8
SIZE
  6
Continuous
100
AcDbLine
 10
-164.1949026107903
 20
-91.46042309780879
 30
0.0
 11
-164.1949026107904
 21
-597.8604230978087
 31
0.0
  0
INSERT
  5
1C10
330
85F
100
AcDbEntity
  8
SIZE
  6
Continuous
100
AcDbBlockReference
  2
_DOTBLANK
 10
-164.1949026107903
 20
-79.46042309780882
 30
0.0
 41
12.0
 42
12.0
 43
12.0
 50
90.0
  0
INSERT
  5
1C11
330
85F
100
AcDbEntity
  8
SIZE
  6
Continuous
100
AcDbBlockReference
  2
_DOTBLANK
 10
-164.1949026107904
 20
-609.8604230978089
 30
0.0
 41
12.0
 42
12.0
 43
12.0
 50
270.0
  0
MTEXT
  5
1C12
330
85F
100
AcDbEntity
  8
SIZE
  6
Continuous
100
AcDbMText
 10
-206.1949026107903
 20
-344.6604230978089
 30
0.0
 40
64.0
 41
0.0
 71
     5
 72
     1
  1
\A1;530
 11
0.0000000000000001
 21
1.0
 31
0.0
 73
     1
 44
1.0
1001
ACAD
1000
MTEXTBEGIN
1070
    73
1070
     1
1070
    44
1040
1.0
1070
    74
1070
     0
1000
MTEXTEND
  0
LINE
  5
1C13
330
85F
100
AcDbEntity
  8
SIZE
  6
Continuous
100
AcDbLine
 10
-27.49999904883589
 20
532.5395769021911
 30
0.0
 11
-184.1949026107903
 21
532.5395769021911
 31
0.0
  0
LINE
  5
1C14
330
85F
100
AcDbEntity
  8
SIZE
  6
Continuous
100
AcDbLine
 10
-27.49999904883589
 20
-79.46042309780887
 30
0.0
 11
-184.1949026107904
 21
-79.46042309780882
 31
0.0
  0
LINE
  5
1C15
330
85F
100
AcDbEntity
  8
SIZE
  6
Continuous
100
AcDbLine
 10
-164.1949026107903
 20
520.5395769021911
 30
0.0
 11
-164.1949026107904
 21
-67.46042309780881
 31
0.0
  0
INSERT
  5
1C16
330
85F
100
AcDbEntity
  8
SIZE
  6
Continuous
100
AcDbBlockReference
  2
_DOTBLANK
 10
-164.1949026107903
 20
532.5395769021911
 30
0.0
 41
12.0
 42
12.0
 43
12.0
 50
90.0
  0
INSERT
  5
1C17
330
85F
100
AcDbEntity
  8
SIZE
  6
Continuous
100
AcDbBlockReference
  2
_DOTBLANK
 10
-164.1949026107904
 20
-79.46042309780882
 30
0.0
 41
12.0
 42
12.0
 43
12.0
 50
270.0
  0
MTEXT
  5
1C18
330
85F
100
AcDbEntity
  8
SIZE
  6
Continuous
100
AcDbMText
 10
-206.1949026107904
 20
226.5395769021911
 30
0.0
 40
64.0
 41
0.0
 71
     5
 72
     1
  1
\A1;612
 11
0.0000000000000001
 21
1.0
 31
0.0
 73
     1
 44
1.0
1001
ACAD
1000
MTEXTBEGIN
1070
    73
1070
     1
1070
    44
1040
1.0
1070
    74
1070
     0
1000
MTEXTEND
  0
TEXT
  5
1C19
330
85F
100
AcDbEntity
  8
NOTE
  6
Continuous
100
AcDbText
 10
-363.393385550315
 20
736.1375181558319
 30
0.0
 40
64.0
  1
8×φ6
 41
0.9
100
AcDbText
1001
ACAD
1000
MTEXTBEGIN
1070
    73
1070
     1
1070
    44
1040
1.0
1070
    74
1070
     0
1000
MTEXTEND
  0
INSERT
  5
1C1A
330
85F
100
AcDbEntity
  8
NOTE
100
AcDbBlockReference
  2
_OPEN30
 10
1.123700951182399
 20
622.6104230978194
 30
0.0
 41
12.0
 42
12.0
 43
12.0
 50
307.674109230668
1001
ACAD
1000
DSTYLE
1002
{
1070
    41
1040
12.0
1070
    42
1040
20.0
1070
    43
1040
200.0
1070
    44
1040
20.0
1070
    73
1070
     0
1070
    74
1070
     0
1070
    77
1070
     1
1070
    78
1070
     8
1070
   140
1040
64.0
1070
   147
1040
50.0
1070
   172
1070
     1
1070
   174
1070
     1
1070
   275
1070
     0
1070
   284
1070
     0
1070
   285
1070
     0
1070
   286
1070
     0
1070
   341
1005
AB7
1070
   342
1005
AB2
1002
}
  0
LWPOLYLINE
  5
1C1B
330
85F
100
AcDbEntity
  8
NOTE
100
AcDbPolyline
 90
        3
 70
     0
 43
0.0
 10
-6.210332332762651
 20
632.1084205599156
 10
-72.63909983602937
 20
718.1375181558319
 10
-363.3933855503151
 20
718.1375181558319
1001
ACAD
1000
DSTYLE
1002
{
1070
    41
1040
12.0
1070
    42
1040
20.0
1070
    43
1040
200.0
1070
    44
1040
20.0
1070
    73
1070
     0
1070
    74
1070
     0
1070
    77
1070
     1
1070
    78
1070
     8
1070
   140
1040
64.0
1070
   147
1040
50.0
1070
   172
1070
     1
1070
   174
1070
     1
1070
   275
1070
     0
1070
   284
1070
     0
1070
   285
1070
     0
1070
   286
1070
     0
1070
   341
1005
AB7
1070
   342
1005
AB2
1002
}
  0
ENDSEC
  0
SECTION
  2
OBJECTS
  0
DICTIONARY
  5
84D
330
0
100
AcDbDictionary
281
     1
  3
ACAD_2007HEADERVARS_RT
350
1D0A
  3
ACAD_COLOR
350
114F
  3
ACAD_GROUP
350
84E
  3
ACAD_LAYOUT
350
85A
  3
ACAD_MATERIAL
350
114E
  3
ACAD_MLEADERSTYLE
350
12EC
  3
ACAD_MLINESTYLE
350
857
  3
ACAD_PLOTSETTINGS
350
859
  3
ACAD_PLOTSTYLENAME
350
B82
  3
ACAD_SCALELIST
350
12CA
  3
ACAD_TABLESTYLE
350
1150
  3
ACAD_VISUALSTYLE
350
12B9
  3
AcadDim
350
F54
  3
ACDB_RECOMPOSE_DATA
350
1320
  3
AcDbVariableDictionary
350
B87
  3
AcmDictionary
350
1216
  3
AMG
350
1155
  3
AMGSNAPSETTINGS
350
126C
  3
DWGPROPS
350
1D09
  3
MAPISURF_MODULE
350
1CAF
1001
ACAD
1000
TREAT_AS_HARD
1070
     0
  0
DICTIONARY
  5
146C
330
843
100
AcDbDictionary
280
     1
281
     1
  3
ACAD_LAYERSTATES
360
146D
  0
DICTIONARY
  5
1305
330
851
100
AcDbDictionary
280
     1
281
     1
  3
ADSK_XREC_LAYER_RECONCILED
360
1306
  0
DICTIONARY
  5
1307
330
863
100
AcDbDictionary
280
     1
281
     1
  3
ADSK_XREC_LAYER_RECONCILED
360
1308
  0
DICTIONARY
  5
1309
330
866
100
AcDbDictionary
280
     1
281
     1
  3
ADSK_XREC_LAYER_RECONCILED
360
130A
  0
DICTIONARY
  5
130B
330
867
100
AcDbDictionary
280
     1
281
     1
  3
ADSK_XREC_LAYER_RECONCILED
360
130C
  0
DICTIONARY
  5
130D
330
868
100
AcDbDictionary
280
     1
281
     1
  3
ADSK_XREC_LAYER_RECONCILED
360
130E
  0
DICTIONARY
  5
130F
330
869
100
AcDbDictionary
280
     1
281
     1
  3
ADSK_XREC_LAYER_RECONCILED
360
1310
  0
DICTIONARY
  5
1311
330
86B
100
AcDbDictionary
280
     1
281
     1
  3
ADSK_XREC_LAYER_RECONCILED
360
1312
  0
DICTIONARY
  5
1313
330
86C
100
AcDbDictionary
280
     1
281
     1
  3
ADSK_XREC_LAYER_RECONCILED
360
1314
  0
DICTIONARY
  5
1315
330
86D
100
AcDbDictionary
280
     1
281
     1
  3
ADSK_XREC_LAYER_RECONCILED
360
1316
  0
DICTIONARY
  5
1317
330
86E
100
AcDbDictionary
280
     1
281
     1
  3
ADSK_XREC_LAYER_RECONCILED
360
1318
  0
DICTIONARY
  5
1319
330
86F
100
AcDbDictionary
280
     1
281
     1
  3
ADSK_XREC_LAYER_RECONCILED
360
131A
  0
DICTIONARY
  5
B4F
330
85F
100
AcDbDictionary
280
     1
281
     1
  3
ACAD_INDEX
360
1273
  3
ACAD_LAYOUTSELFREF
360
B50
  3
ACAD_SORTENTS
360
129B
  0
DICTIONARY
  5
B4D
330
85B
100
AcDbDictionary
280
     1
281
     1
  3
ACAD_LAYOUTSELFREF
360
B4E
  0
DICTIONARY
  5
1D0A
102
{ACAD_REACTORS
330
84D
102
}
330
84D
100
AcDbDictionary
281
     1
  3
DIMARCSYM
350
1D0B
  3
DIMLTEX1
350
1D0D
  3
DIMLTEX2
350
1D0E
  3
DIMLTYPE
350
1D0C
  0
DICTIONARY
  5
114F
102
{ACAD_REACTORS
330
84D
102
}
330
84D
100
AcDbDictionary
281
     1
  0
DICTIONARY
  5
84E
102
{ACAD_REACTORS
330
84D
102
}
330
84D
100
AcDbDictionary
281
     1
1001
ACAD
1000
TREAT_AS_HARD
1070
     0
  0
DICTIONARY
  5
85A
102
{ACAD_REACTORS
330
84D
102
}
330
84D
100
AcDbDictionary
281
     1
  3
Model
350
B84
  3
ﾚｲｱｳﾄ1
350
B85
1001
ACAD
1000
TREAT_AS_HARD
1070
     0
  0
DICTIONARY
  5
114E
102
{ACAD_REACTORS
330
84D
102
}
330
84D
100
AcDbDictionary
281
     1
  3
ByBlock
350
12A9
  3
ByLayer
350
12A1
  3
Global
350
12B1
  0
DICTIONARY
  5
12EC
102
{ACAD_REACTORS
330
84D
102
}
330
84D
100
AcDbDictionary
281
     1
  3
Standard
350
12ED
  0
DICTIONARY
  5
857
102
{ACAD_REACTORS
330
84D
102
}
330
84D
100
AcDbDictionary
281
     1
  3
STANDARD
350
858
1001
ACAD
1000
TREAT_AS_HARD
1070
     0
  0
DICTIONARY
  5
859
102
{ACAD_REACTORS
330
84D
102
}
330
84D
100
AcDbDictionary
281
     1
1001
ACAD
1000
TREAT_AS_HARD
1070
     0
  0
ACDBDICTIONARYWDFLT
  5
B82
102
{ACAD_REACTORS
330
84D
102
}
330
84D
100
AcDbDictionary
281
     1
  3
Normal
350
B83
100
AcDbDictionaryWithDefault
340
B83
  0
DICTIONARY
  5
12CA
102
{ACAD_REACTORS
330
84D
102
}
330
84D
100
AcDbDictionary
281
     1
  3
A0
350
12CB
  3
A1
350
12CC
  3
A2
350
12CD
  3
A3
350
12CE
  3
A4
350
12CF
  3
A5
350
12D0
  3
A6
350
12D1
  3
A7
350
12D2
  3
A8
350
12D3
  3
A9
350
12D4
  3
B0
350
12D5
  3
B1
350
12D6
  3
B2
350
12D7
  3
B3
350
12D8
  3
B4
350
12D9
  3
B5
350
12DA
  3
B6
350
12DB
  3
B7
350
12DC
  3
B8
350
12DD
  3
B9
350
12DE
  3
C0
350
12DF
  3
C1
350
12E0
  3
C2
350
12E1
  3
C3
350
12E2
  3
C4
350
12E3
  3
C5
350
12E4
  3
C6
350
12E5
  3
C7
350
12E6
  3
C8
350
12E7
  3
C9
350
12E8
  3
D0
350
12E9
  3
D1
350
12EA
  3
D2
350
12EB
  0
DICTIONARY
  5
1150
102
{ACAD_REACTORS
330
84D
102
}
330
84D
100
AcDbDictionary
281
     1
  3
Standard
350
1151
  0
DICTIONARY
  5
12B9
102
{ACAD_REACTORS
330
84D
102
}
330
84D
100
AcDbDictionary
281
     1
  3
2dWireframe
350
12BF
  3
3D Hidden
350
12C1
  3
3dWireframe
350
12C0
  3
Basic
350
12BE
  3
Brighten
350
12C5
  3
ColorChange
350
12C9
  3
Conceptual
350
12C2
  3
Dim
350
12C4
  3
Facepattern
350
12C8
  3
Flat
350
12BA
  3
FlatWithEdges
350
12BB
  3
Gouraud
350
12BC
  3
GouraudWithEdges
350
12BD
  3
Linepattern
350
12C7
  3
Realistic
350
12C3
  3
Thicken
350
12C6
  0
XRECORD
  5
F54
102
{ACAD_REACTORS
330
84D
102
}
330
84D
100
AcDbXrecord
280
     1
 90
   990106
  3

 60
     0
 61
     0
 62
     1
 63
     3
 64
     0
 65
     0
 66
     0
 67
     3
 68
     1
 69
     0
 70
     0
 71
     0
 72
     0
 40
0.0
170
     0
340
F56
  0
XRECORD
  5
1320
102
{ACAD_REACTORS
330
84D
102
}
330
84D
100
AcDbXrecord
280
     1
 90
        1
330
1151
  0
DICTIONARY
  5
B87
102
{ACAD_REACTORS
330
84D
102
}
330
84D
100
AcDbDictionary
281
     1
  3
CANNOSCALE
350
131C
  3
CMLEADERSTYLE
350
131B
  3
CTABLESTYLE
350
1281
  3
DIMASSOC
350
B88
  3
INDEXCTL
350
1282
  3
PROJECTNAME
350
1283
  3
SORTENTS
350
131D
  0
DICTIONARY
  5
1216
102
{ACAD_REACTORS
330
84D
102
}
330
84D
100
AcDbDictionary
281
     1
  3
AcmStdDictionary
350
1222
  3
AMDTSECTSYM_ARROWCOLOR
350
1242
  0
DICTIONARY
  5
1155
102
{ACAD_REACTORS
330
84D
102
}
330
84D
100
AcDbDictionary
281
     1
  3
AcMgSettings
350
1156
  0
DICTIONARY
  5
126C
102
{ACAD_REACTORS
330
84D
102
}
330
84D
100
AcDbDictionary
281
     1
  3
DIMENSION
350
1271
  3
FEA
350
1270
  3
HATCH (1)
350
126D
  3
HATCH (2)
350
126E
  3
SIMPLE WELD
350
1272
  3
SYMBOLS
350
126F
  0
XRECORD
  5
1D09
102
{ACAD_REACTORS
330
84D
102
}
330
84D
100
AcDbXrecord
280
     1
  1
DWGPROPS COOKIE
  2

  3

  4

  6

  7

  8
a090053
  9

300
AmdtFileType=84
301
=
302
=
303
=
304
=
305
=
306
=
307
=
308
=
309
=
 40
0.8284549884259259
 41
2452321.396199653
 42
2457113.67767375
  1

 90
        1
  0
DICTIONARY
  5
146D
102
{ACAD_REACTORS
330
146C
102
}
330
146C
100
AcDbDictionary
281
     1
  0
XRECORD
  5
1306
102
{ACAD_REACTORS
330
1305
102
}
330
1305
100
AcDbXrecord
280
     1
290
     1
  0
XRECORD
  5
1308
102
{ACAD_REACTORS
330
1307
102
}
330
1307
100
AcDbXrecord
280
     1
290
     1
  0
XRECORD
  5
130A
102
{ACAD_REACTORS
330
1309
102
}
330
1309
100
AcDbXrecord
280
     1
290
     1
  0
XRECORD
  5
130C
102
{ACAD_REACTORS
330
130B
102
}
330
130B
100
AcDbXrecord
280
     1
290
     1
  0
XRECORD
  5
130E
102
{ACAD_REACTORS
330
130D
102
}
330
130D
100
AcDbXrecord
280
     1
290
     1
  0
XRECORD
  5
1310
102
{ACAD_REACTORS
330
130F
102
}
330
130F
100
AcDbXrecord
280
     1
290
     1
  0
XRECORD
  5
1312
102
{ACAD_REACTORS
330
1311
102
}
330
1311
100
AcDbXrecord
280
     1
290
     1
  0
XRECORD
  5
1314
102
{ACAD_REACTORS
330
1313
102
}
330
1313
100
AcDbXrecord
280
     1
290
     1
  0
XRECORD
  5
1316
102
{ACAD_REACTORS
330
1315
102
}
330
1315
100
AcDbXrecord
280
     1
290
     1
  0
XRECORD
  5
1318
102
{ACAD_REACTORS
330
1317
102
}
330
1317
100
AcDbXrecord
280
     1
290
     1
  0
XRECORD
  5
131A
102
{ACAD_REACTORS
330
1319
102
}
330
1319
100
AcDbXrecord
280
     1
290
     1
  0
DICTIONARY
  5
1273
102
{ACAD_REACTORS
330
B4F
102
}
330
B4F
100
AcDbDictionary
281
     1
  3
*A1
350
1274
  0
XRECORD
  5
B50
102
{ACAD_REACTORS
330
B4F
102
}
330
B4F
100
AcDbXrecord
280
     1
340
85F
  0
SORTENTSTABLE
  5
129B
102
{ACAD_REACTORS
330
B4F
102
}
330
B4F
100
AcDbSortentsTable
330
85F
331
1C15
  5
1A69
331
1C11
  5
1A71
331
1A3F
  5
1A3F
331
1A3B
  5
1A3B
331
1A76
  5
1A91
331
954
  5
954
331
1A37
  5
1A37
331
1A33
  5
1A33
331
1A9E
  5
1AB9
331
1A72
  5
1A8D
331
1A9A
  5
1AB5
331
1C0D
  5
1A6D
331
1C09
  5
1A75
331
1C05
  5
1A7D
331
1C01
  5
1A79
331
1A2F
  5
1A2F
331
1A6E
  5
1A89
331
1A2B
  5
1A2B
331
1A96
  5
1AB1
331
1A6A
  5
1A85
331
1A27
  5
1A27
331
1A92
  5
1AAD
331
1A23
  5
1A23
331
1A8E
  5
1AA9
331
1A62
  5
1A62
331
1A8A
  5
1AA5
331
1ABF
  5
1C18
331
1ABB
  5
1C14
331
1AB7
  5
1C10
331
1A1F
  5
1A1F
331
1A5E
  5
1A5E
331
1AB3
  5
1C0C
331
1A1B
  5
1A1B
331
1A86
  5
1AA1
331
1A5A
  5
1A5A
331
1A56
  5
1A56
331
1A17
  5
1A17
331
1A82
  5
1A9D
331
1A13
  5
1A13
331
1A7E
  5
1A99
331
1A52
  5
1A52
331
1A7A
  5
1A95
331
1C18
  5
1A6C
331
1AAF
  5
1C08
331
1AAB
  5
1C04
331
1A0F
  5
1A0F
331
1A4E
  5
1A4E
331
1AA7
  5
1AC2
331
1AA3
  5
1ABE
331
1A4A
  5
1A4A
331
1A46
  5
1A46
331
1A42
  5
1A42
331
1C14
  5
1A68
331
1C10
  5
1A70
331
1A3E
  5
1A3E
331
957
  5
957
331
1A3A
  5
1A3A
331
1A75
  5
1A90
331
953
  5
953
331
1A36
  5
1A36
331
1A32
  5
1A32
331
1A9D
  5
1AB8
331
1A71
  5
1A8C
331
1AC2
  5
1C1B
331
1A99
  5
1AB4
331
1C0C
  5
1A78
331
1C08
  5
1A74
331
1C04
  5
1A7C
331
1A2E
  5
1A2E
331
1A6D
  5
1A88
331
1A2A
  5
1A2A
331
1A95
  5
1AB0
331
1A69
  5
1A84
331
1A91
  5
1AAC
331
1A26
  5
1A26
331
1A22
  5
1A22
331
1A8D
  5
1AA8
331
1A61
  5
1A61
331
1A89
  5
1AA4
331
1ABE
  5
1C17
331
1ABA
  5
1C13
331
1AB6
  5
1C0F
331
1A1E
  5
1A1E
331
1A5D
  5
1A5D
331
1AB2
  5
1C0B
331
1A1A
  5
1A1A
331
1A85
  5
1AA0
331
1A59
  5
1A59
331
1A55
  5
1A55
331
1A16
  5
1A16
331
1A81
  5
1A9C
331
1A12
  5
1A12
331
1A7D
  5
1A98
331
1A51
  5
1A51
331
1A79
  5
1A94
331
1C1B
  5
1A82
331
1AAE
  5
1C07
331
1AAA
  5
1C03
331
1AA6
  5
1AC1
331
1A0E
  5
1A0E
331
1A4D
  5
1A4D
331
1AA2
  5
1ABD
331
1A49
  5
1A49
331
1A45
  5
1A45
331
1A41
  5
1A41
331
1C17
  5
1A6B
331
1C13
  5
1A67
331
1A3D
  5
1A3D
331
956
  5
956
331
1A39
  5
1A39
331
1A35
  5
1A35
331
1A74
  5
1A8F
331
1A31
  5
1A31
331
1A9C
  5
1AB7
331
1A70
  5
1A8B
331
1AC1
  5
1C1A
331
1A98
  5
1AB3
331
1C0F
  5
1A6F
331
1C0B
  5
1A77
331
1C07
  5
1A73
331
1C03
  5
1A7B
331
1A2D
  5
1A2D
331
1A6C
  5
1A87
331
1A29
  5
1A29
331
1A94
  5
1AAF
331
1A90
  5
1AAB
331
1A25
  5
1A25
331
1A21
  5
1A21
331
1A8C
  5
1AA7
331
1A60
  5
1A60
331
1A88
  5
1AA3
331
1ABD
  5
1C16
331
1AB9
  5
1C12
331
1AB5
  5
1C0E
331
1A1D
  5
1A1D
331
1A5C
  5
1A5C
331
1AB1
  5
1C0A
331
1A19
  5
1A19
331
1A84
  5
1A9F
331
1A58
  5
1A58
331
1A54
  5
1A54
331
1A80
  5
1A9B
331
1A15
  5
1A15
331
1A11
  5
1A11
331
1A7C
  5
1A97
331
1A50
  5
1A50
331
1A78
  5
1A93
331
1C1A
  5
1A81
331
1AAD
  5
1C06
331
1AA9
  5
1C02
331
1AA5
  5
1AC0
331
1A0D
  5
1A0D
331
1A4C
  5
1A4C
331
1AA1
  5
1ABC
331
1A48
  5
1A48
331
1A44
  5
1A44
331
1A40
  5
1A40
331
1C16
  5
1A6A
331
1C12
  5
1A72
331
1A3C
  5
1A3C
331
1A77
  5
1A92
331
955
  5
955
331
1A38
  5
1A38
331
1A34
  5
1A34
331
1A9F
  5
1ABA
331
1A73
  5
1A8E
331
1A30
  5
1A30
331
1A9B
  5
1AB6
331
1AC0
  5
1C19
331
1C0E
  5
1A6E
331
1C0A
  5
1A76
331
1C06
  5
1A7E
331
1C02
  5
1A7A
331
1A6F
  5
1A8A
331
1A2C
  5
1A2C
331
1A97
  5
1AB2
331
1A6B
  5
1A86
331
1A28
  5
1A28
331
1A93
  5
1AAE
331
1A24
  5
1A24
331
1A8F
  5
1AAA
331
1A20
  5
1A20
331
1A8B
  5
1AA6
331
1ABC
  5
1C15
331
1A5F
  5
1A5F
331
1AB8
  5
1C11
331
1AB4
  5
1C0D
331
1A1C
  5
1A1C
331
1A87
  5
1AA2
331
1A5B
  5
1A5B
331
1A57
  5
1A57
331
1AB0
  5
1C09
331
1A18
  5
1A18
331
1A83
  5
1A9E
331
1A53
  5
1A53
331
1A7F
  5
1A9A
331
1A14
  5
1A14
331
1A10
  5
1A10
331
1A7B
  5
1A96
331
1C19
  5
1A83
331
1AAC
  5
1C05
331
1A4F
  5
1A4F
331
1AA8
  5
1C01
331
1AA4
  5
1ABF
331
1A4B
  5
1A4B
331
1AA0
  5
1ABB
331
1A47
  5
1A47
331
1A43
  5
1A43
331
958
  5
958
  0
XRECORD
  5
B4E
102
{ACAD_REACTORS
330
B4D
102
}
330
B4D
100
AcDbXrecord
280
     1
340
85B
  0
XRECORD
  5
1D0B
102
{ACAD_REACTORS
330
1D0A
102
}
330
1D0A
100
AcDbXrecord
280
     1
 70
     1
  0
XRECORD
  5
1D0D
102
{ACAD_REACTORS
330
1D0A
102
}
330
1D0A
100
AcDbXrecord
280
     1
340
854
  0
XRECORD
  5
1D0E
102
{ACAD_REACTORS
330
1D0A
102
}
330
1D0A
100
AcDbXrecord
280
     1
340
854
  0
XRECORD
  5
1D0C
102
{ACAD_REACTORS
330
1D0A
102
}
330
1D0A
100
AcDbXrecord
280
     1
340
854
  0
LAYOUT
  5
B84
102
{ACAD_XDICTIONARY
360
1D0F
102
}
102
{ACAD_REACTORS
330
85A
102
}
330
85A
100
AcDbPlotSettings
  1

  2
\\Server02\EPSON LP-9600SPD (3F)
  4

  6

 40
0.0
 41
0.0
 42
0.0
 43
0.0
 44
0.0
 45
0.0
 46
0.0
 47
0.0
 48
0.0
 49
0.0
140
0.0
141
0.0
142
1.0
143
1.0
 70
  1712
 72
     0
 73
     0
 74
     0
  7

 75
     0
147
1.0
148
0.0
149
0.0
100
AcDbLayout
  1
Model
 70
     1
 71
     0
 10
0.0
 20
0.0
 11
12.0
 21
9.0
 12
0.0
 22
0.0
 32
0.0
 14
0.0
 24
0.0
 34
0.0
 15
0.0
 25
0.0
 35
0.0
146
0.0
 13
0.0
 23
0.0
 33
0.0
 16
1.0
 26
0.0
 36
0.0
 17
0.0
 27
1.0
 37
0.0
 76
     0
330
85F
331
129C
  0
LAYOUT
  5
B85
102
{ACAD_XDICTIONARY
360
1D11
102
}
102
{ACAD_REACTORS
330
85A
102
}
330
85A
100
AcDbPlotSettings
  1

  2
\\Server02\EPSON LP-9600SPD (3F)
  4

  6

 40
0.0
 41
0.0
 42
0.0
 43
0.0
 44
0.0
 45
0.0
 46
0.0
 47
0.0
 48
0.0
 49
0.0
140
0.0
141
0.0
142
1.0
143
1.0
 70
   688
 72
     0
 73
     0
 74
     5
  7

 75
    16
147
1.0
148
0.0
149
0.0
100
AcDbLayout
  1
ﾚｲｱｳﾄ1
 70
     1
 71
     1
 10
0.0
 20
0.0
 11
12.0
 21
9.0
 12
0.0
 22
0.0
 32
0.0
 14
1.000000000000000E+20
 24
1.000000000000000E+20
 34
1.000000000000000E+20
 15
-1.000000000000000E+20
 25
-1.000000000000000E+20
 35
-1.000000000000000E+20
146
0.0
 13
0.0
 23
0.0
 33
0.0
 16
1.0
 26
0.0
 36
0.0
 17
0.0
 27
1.0
 37
0.0
 76
     0
330
85B
  0
MATERIAL
  5
12A9
102
{ACAD_XDICTIONARY
360
12AA
102
}
102
{ACAD_REACTORS
330
114E
102
}
330
114E
100
AcDbMaterial
  1
ByBlock
 72
     0
 43
0.0208333333333333
 43
0.0
 43
0.0
 43
0.0
 43
0.0
 43
0.0208333333333333
 43
0.0
 43
0.0
 43
0.0
 43
0.0
 43
1.0
 43
0.0
 43
0.0
 43
0.0
 43
0.0
 43
1.0
 77
     0
 47
0.0208333333333333
 47
0.0
 47
0.0
 47
0.0
 47
0.0
 47
0.0208333333333333
 47
0.0
 47
0.0
 47
0.0
 47
0.0
 47
1.0
 47
0.0
 47
0.0
 47
0.0
 47
0.0
 47
1.0
171
     0
 49
0.0208333333333333
 49
0.0
 49
0.0
 49
0.0
 49
0.0
 49
0.0208333333333333
 49
0.0
 49
0.0
 49
0.0
 49
0.0
 49
1.0
 49
0.0
 49
0.0
 49
0.0
 49
0.0
 49
1.0
175
     0
142
0.0208333333333333
142
0.0
142
0.0
142
0.0
142
0.0
142
0.0208333333333333
142
0.0
142
0.0
142
0.0
142
0.0
142
1.0
142
0.0
142
0.0
142
0.0
142
0.0
142
1.0
179
     0
144
0.0208333333333333
144
0.0
144
0.0
144
0.0
144
0.0
144
0.0208333333333333
144
0.0
144
0.0
144
0.0
144
0.0
144
1.0
144
0.0
144
0.0
144
0.0
144
0.0
144
1.0
147
0.0208333333333333
147
0.0
147
0.0
147
0.0
147
0.0
147
0.0208333333333333
147
0.0
147
0.0
147
0.0
147
0.0
147
1.0
147
0.0
147
0.0
147
0.0
147
0.0
147
1.0
  0
MATERIAL
  5
12A1
102
{ACAD_XDICTIONARY
360
12A2
102
}
102
{ACAD_REACTORS
330
114E
102
}
330
114E
100
AcDbMaterial
  1
ByLayer
 72
     0
 43
0.0208333333333333
 43
0.0
 43
0.0
 43
0.0
 43
0.0
 43
0.0208333333333333
 43
0.0
 43
0.0
 43
0.0
 43
0.0
 43
1.0
 43
0.0
 43
0.0
 43
0.0
 43
0.0
 43
1.0
 77
     0
 47
0.0208333333333333
 47
0.0
 47
0.0
 47
0.0
 47
0.0
 47
0.0208333333333333
 47
0.0
 47
0.0
 47
0.0
 47
0.0
 47
1.0
 47
0.0
 47
0.0
 47
0.0
 47
0.0
 47
1.0
171
     0
 49
0.0208333333333333
 49
0.0
 49
0.0
 49
0.0
 49
0.0
 49
0.0208333333333333
 49
0.0
 49
0.0
 49
0.0
 49
0.0
 49
1.0
 49
0.0
 49
0.0
 49
0.0
 49
0.0
 49
1.0
175
     0
142
0.0208333333333333
142
0.0
142
0.0
142
0.0
142
0.0
142
0.0208333333333333
142
0.0
142
0.0
142
0.0
142
0.0
142
1.0
142
0.0
142
0.0
142
0.0
142
0.0
142
1.0
179
     0
144
0.0208333333333333
144
0.0
144
0.0
144
0.0
144
0.0
144
0.0208333333333333
144
0.0
144
0.0
144
0.0
144
0.0
144
1.0
144
0.0
144
0.0
144
0.0
144
0.0
144
1.0
147
0.0208333333333333
147
0.0
147
0.0
147
0.0
147
0.0
147
0.0208333333333333
147
0.0
147
0.0
147
0.0
147
0.0
147
1.0
147
0.0
147
0.0
147
0.0
147
0.0
147
1.0
  0
MATERIAL
  5
12B1
102
{ACAD_XDICTIONARY
360
12B2
102
}
102
{ACAD_REACTORS
330
114E
102
}
330
114E
100
AcDbMaterial
  1
Global
 72
     0
 43
0.0208333333333333
 43
0.0
 43
0.0
 43
0.0
 43
0.0
 43
0.0208333333333333
 43
0.0
 43
0.0
 43
0.0
 43
0.0
 43
1.0
 43
0.0
 43
0.0
 43
0.0
 43
0.0
 43
1.0
 77
     0
 47
0.0208333333333333
 47
0.0
 47
0.0
 47
0.0
 47
0.0
 47
0.0208333333333333
 47
0.0
 47
0.0
 47
0.0
 47
0.0
 47
1.0
 47
0.0
 47
0.0
 47
0.0
 47
0.0
 47
1.0
171
     0
 49
0.0208333333333333
 49
0.0
 49
0.0
 49
0.0
 49
0.0
 49
0.0208333333333333
 49
0.0
 49
0.0
 49
0.0
 49
0.0
 49
1.0
 49
0.0
 49
0.0
 49
0.0
 49
0.0
 49
1.0
175
     0
142
0.0208333333333333
142
0.0
142
0.0
142
0.0
142
0.0
142
0.0208333333333333
142
0.0
142
0.0
142
0.0
142
0.0
142
1.0
142
0.0
142
0.0
142
0.0
142
0.0
142
1.0
179
     0
144
0.0208333333333333
144
0.0
144
0.0
144
0.0
144
0.0
144
0.0208333333333333
144
0.0
144
0.0
144
0.0
144
0.0
144
1.0
144
0.0
144
0.0
144
0.0
144
0.0
144
1.0
147
0.0208333333333333
147
0.0
147
0.0
147
0.0
147
0.0
147
0.0208333333333333
147
0.0
147
0.0
147
0.0
147
0.0
147
1.0
147
0.0
147
0.0
147
0.0
147
0.0
147
1.0
  0
MLEADERSTYLE
  5
12ED
102
{ACAD_REACTORS
330
12EC
102
}
330
12EC
100
AcDbMLeaderStyle
170
     2
171
     1
172
     0
 90
        2
 40
0.0
 41
0.0
173
     1
 91
-1056964608
340
854
 92
       -2
290
     1
 42
0.09
291
     1
 43
0.36
  3
Standard
 44
0.18
300

342
852
174
     1
178
     6
175
     1
176
     0
 93
-1056964608
 45
0.18
292
     0
297
     0
 46
0.18
 94
-1056964608
 47
1.0
 49
1.0
140
1.0
293
     1
141
0.0
294
     1
177
     0
142
1.0
295
     0
296
     0
143
0.125
1001
ACAD_MLEADERVER
1070
     2
  0
MLINESTYLE
  5
858
102
{ACAD_REACTORS
330
857
102
}
330
857
100
AcDbMlineStyle
  2
STANDARD
 70
     0
  3

 62
   256
 51
90.0
 52
90.0
 71
     2
 49
0.5
 62
   256
  6
BYLAYER
 49
-0.5
 62
   256
  6
BYLAYER
  0
ACDBPLACEHOLDER
  5
B83
102
{ACAD_REACTORS
330
B82
102
}
330
B82
  0
SCALE
  5
12CB
102
{ACAD_REACTORS
330
12CA
102
}
330
12CA
100
AcDbScale
 70
     0
300
1:1
140
1.0
141
1.0
290
     1
  0
SCALE
  5
12CC
102
{ACAD_REACTORS
330
12CA
102
}
330
12CA
100
AcDbScale
 70
     0
300
1:2
140
1.0
141
2.0
290
     0
  0
SCALE
  5
12CD
102
{ACAD_REACTORS
330
12CA
102
}
330
12CA
100
AcDbScale
 70
     0
300
1:4
140
1.0
141
4.0
290
     0
  0
SCALE
  5
12CE
102
{ACAD_REACTORS
330
12CA
102
}
330
12CA
100
AcDbScale
 70
     0
300
1:5
140
1.0
141
5.0
290
     0
  0
SCALE
  5
12CF
102
{ACAD_REACTORS
330
12CA
102
}
330
12CA
100
AcDbScale
 70
     0
300
1:8
140
1.0
141
8.0
290
     0
  0
SCALE
  5
12D0
102
{ACAD_REACTORS
330
12CA
102
}
330
12CA
100
AcDbScale
 70
     0
300
1:10
140
1.0
141
10.0
290
     0
  0
SCALE
  5
12D1
102
{ACAD_REACTORS
330
12CA
102
}
330
12CA
100
AcDbScale
 70
     0
300
1:16
140
1.0
141
16.0
290
     0
  0
SCALE
  5
12D2
102
{ACAD_REACTORS
330
12CA
102
}
330
12CA
100
AcDbScale
 70
     0
300
1:20
140
1.0
141
20.0
290
     0
  0
SCALE
  5
12D3
102
{ACAD_REACTORS
330
12CA
102
}
330
12CA
100
AcDbScale
 70
     0
300
1:30
140
1.0
141
30.0
290
     0
  0
SCALE
  5
12D4
102
{ACAD_REACTORS
330
12CA
102
}
330
12CA
100
AcDbScale
 70
     0
300
1:40
140
1.0
141
40.0
290
     0
  0
SCALE
  5
12D5
102
{ACAD_REACTORS
330
12CA
102
}
330
12CA
100
AcDbScale
 70
     0
300
1:50
140
1.0
141
50.0
290
     0
  0
SCALE
  5
12D6
102
{ACAD_REACTORS
330
12CA
102
}
330
12CA
100
AcDbScale
 70
     0
300
1:100
140
1.0
141
100.0
290
     0
  0
SCALE
  5
12D7
102
{ACAD_REACTORS
330
12CA
102
}
330
12CA
100
AcDbScale
 70
     0
300
2:1
140
2.0
141
1.0
290
     0
  0
SCALE
  5
12D8
102
{ACAD_REACTORS
330
12CA
102
}
330
12CA
100
AcDbScale
 70
     0
300
4:1
140
4.0
141
1.0
290
     0
  0
SCALE
  5
12D9
102
{ACAD_REACTORS
330
12CA
102
}
330
12CA
100
AcDbScale
 70
     0
300
8:1
140
8.0
141
1.0
290
     0
  0
SCALE
  5
12DA
102
{ACAD_REACTORS
330
12CA
102
}
330
12CA
100
AcDbScale
 70
     0
300
10:1
140
10.0
141
1.0
290
     0
  0
SCALE
  5
12DB
102
{ACAD_REACTORS
330
12CA
102
}
330
12CA
100
AcDbScale
 70
     0
300
100:1
140
100.0
141
1.0
290
     0
  0
SCALE
  5
12DC
102
{ACAD_REACTORS
330
12CA
102
}
330
12CA
100
AcDbScale
 70
     0
300
1/128" = 1'-0"
140
0.0078125
141
12.0
290
     0
  0
SCALE
  5
12DD
102
{ACAD_REACTORS
330
12CA
102
}
330
12CA
100
AcDbScale
 70
     0
300
1/64" = 1'-0"
140
0.015625
141
12.0
290
     0
  0
SCALE
  5
12DE
102
{ACAD_REACTORS
330
12CA
102
}
330
12CA
100
AcDbScale
 70
     0
300
1/32" = 1'-0"
140
0.03125
141
12.0
290
     0
  0
SCALE
  5
12DF
102
{ACAD_REACTORS
330
12CA
102
}
330
12CA
100
AcDbScale
 70
     0
300
1/16" = 1'-0"
140
0.0625
141
12.0
290
     0
  0
SCALE
  5
12E0
102
{ACAD_REACTORS
330
12CA
102
}
330
12CA
100
AcDbScale
 70
     0
300
3/32" = 1'-0"
140
0.09375
141
12.0
290
     0
  0
SCALE
  5
12E1
102
{ACAD_REACTORS
330
12CA
102
}
330
12CA
100
AcDbScale
 70
     0
300
1/8" = 1'-0"
140
0.125
141
12.0
290
     0
  0
SCALE
  5
12E2
102
{ACAD_REACTORS
330
12CA
102
}
330
12CA
100
AcDbScale
 70
     0
300
3/16" = 1'-0"
140
0.1875
141
12.0
290
     0
  0
SCALE
  5
12E3
102
{ACAD_REACTORS
330
12CA
102
}
330
12CA
100
AcDbScale
 70
     0
300
1/4" = 1'-0"
140
0.25
141
12.0
290
     0
  0
SCALE
  5
12E4
102
{ACAD_REACTORS
330
12CA
102
}
330
12CA
100
AcDbScale
 70
     0
300
3/8" = 1'-0"
140
0.375
141
12.0
290
     0
  0
SCALE
  5
12E5
102
{ACAD_REACTORS
330
12CA
102
}
330
12CA
100
AcDbScale
 70
     0
300
1/2" = 1'-0"
140
0.5
141
12.0
290
     0
  0
SCALE
  5
12E6
102
{ACAD_REACTORS
330
12CA
102
}
330
12CA
100
AcDbScale
 70
     0
300
3/4" = 1'-0"
140
0.75
141
12.0
290
     0
  0
SCALE
  5
12E7
102
{ACAD_REACTORS
330
12CA
102
}
330
12CA
100
AcDbScale
 70
     0
300
1" = 1'-0"
140
1.0
141
12.0
290
     0
  0
SCALE
  5
12E8
102
{ACAD_REACTORS
330
12CA
102
}
330
12CA
100
AcDbScale
 70
     0
300
1-1/2" = 1'-0"
140
1.5
141
12.0
290
     0
  0
SCALE
  5
12E9
102
{ACAD_REACTORS
330
12CA
102
}
330
12CA
100
AcDbScale
 70
     0
300
3" = 1'-0"
140
3.0
141
12.0
290
     0
  0
SCALE
  5
12EA
102
{ACAD_REACTORS
330
12CA
102
}
330
12CA
100
AcDbScale
 70
     0
300
6" = 1'-0"
140
6.0
141
12.0
290
     0
  0
SCALE
  5
12EB
102
{ACAD_REACTORS
330
12CA
102
}
330
12CA
100
AcDbScale
 70
     0
300
1'-0" = 1'-0"
140
12.0
141
12.0
290
     0
  0
TABLESTYLE
  5
1151
102
{ACAD_XDICTIONARY
360
131E
102
}
102
{ACAD_REACTORS
330
1150
102
}
330
1150
100
AcDbTableStyle
  3
Standard
 70
     0
 71
     0
 40
0.06
 41
0.06
280
     0
281
     0
  7
STANDARD
140
0.18
170
     2
 62
     0
 63
     7
283
     0
274
    -2
284
     1
 64
     0
275
    -2
285
     1
 65
     0
276
    -2
286
     1
 66
     0
277
    -2
287
     1
 67
     0
278
    -2
288
     1
 68
     0
279
    -2
289
     1
 69
     0
  7
STANDARD
140
0.25
170
     5
 62
     0
 63
     7
283
     0
274
    -2
284
     1
 64
     0
275
    -2
285
     1
 65
     0
276
    -2
286
     1
 66
     0
277
    -2
287
     1
 67
     0
278
    -2
288
     1
 68
     0
279
    -2
289
     1
 69
     0
  7
STANDARD
140
0.18
170
     5
 62
     0
 63
     7
283
     0
274
    -2
284
     1
 64
     0
275
    -2
285
     1
 65
     0
276
    -2
286
     1
 66
     0
277
    -2
287
     1
 67
     0
278
    -2
288
     1
 68
     0
279
    -2
289
     1
 69
     0
  0
VISUALSTYLE
  5
12BF
102
{ACAD_REACTORS
330
12B9
102
}
330
12B9
100
AcDbVisualStyle
  2
2dWireframe
 70
     4
 71
     0
 72
     2
 73
     0
 90
        0
 40
-0.6
 41
-30.0
 62
     5
 63
     7
 74
     1
 91
        4
 64
     7
 65
   257
 75
     1
175
     1
 42
1.0
 92
        0
 66
   257
 43
1.0
 76
     1
 77
     6
 78
     2
 67
     7
 79
     5
170
     0
171
     0
290
     0
174
     0
 93
        1
 44
0.0
173
     0
291
     0
 45
0.0
1001
ACAD
1000
AcDbSavedByObjectVersion
1070
     0
1000
AcDbSavedByObjectVersion
1070
     0
1000
AcDbSavedByObjectVersion
1070
     0
1000
AcDbSavedByObjectVersion
1070
     0
1000
AcDbSavedByObjectVersion
1070
     0
1000
AcDbSavedByObjectVersion
1070
     0
1000
AcDbSavedByObjectVersion
1070
     0
  0
VISUALSTYLE
  5
12C1
102
{ACAD_REACTORS
330
12B9
102
}
330
12B9
100
AcDbVisualStyle
  2
3D Hidden
 70
     6
 71
     1
 72
     2
 73
     2
 90
        0
 40
-0.6
 41
-30.0
 62
     5
 63
     7
 74
     2
 91
        2
 64
     7
 65
   257
 75
     2
175
     1
 42
40.0
 92
        0
 66
   257
 43
1.0
 76
     1
 77
     6
 78
     2
 67
     7
 79
     3
170
     0
171
     0
290
     0
174
     0
 93
        1
 44
0.0
173
     0
291
     0
 45
0.0
1001
ACAD
1000
AcDbSavedByObjectVersion
1070
     0
1000
AcDbSavedByObjectVersion
1070
     0
1000
AcDbSavedByObjectVersion
1070
     0
1000
AcDbSavedByObjectVersion
1070
     0
1000
AcDbSavedByObjectVersion
1070
     0
1000
AcDbSavedByObjectVersion
1070
     0
1000
AcDbSavedByObjectVersion
1070
     0
  0
VISUALSTYLE
  5
12C0
102
{ACAD_REACTORS
330
12B9
102
}
330
12B9
100
AcDbVisualStyle
  2
3dWireframe
 70
     5
 71
     0
 72
     2
 73
     0
 90
        0
 40
-0.6
 41
-30.0
 62
     5
 63
     7
 74
     1
 91
        4
 64
     7
 65
   257
 75
     1
175
     1
 42
1.0
 92
        0
 66
   257
 43
1.0
 76
     1
 77
     6
 78
     2
 67
     7
 79
     5
170
     0
171
     0
290
     0
174
     0
 93
        1
 44
0.0
173
     0
291
     0
 45
0.0
1001
ACAD
1000
AcDbSavedByObjectVersion
1070
     0
1000
AcDbSavedByObjectVersion
1070
     0
1000
AcDbSavedByObjectVersion
1070
     0
1000
AcDbSavedByObjectVersion
1070
     0
1000
AcDbSavedByObjectVersion
1070
     0
1000
AcDbSavedByObjectVersion
1070
     0
1000
AcDbSavedByObjectVersion
1070
     0
  0
VISUALSTYLE
  5
12BE
102
{ACAD_REACTORS
330
12B9
102
}
330
12B9
100
AcDbVisualStyle
  2
Basic
 70
     7
 71
     1
 72
     0
 73
     1
 90
        0
 40
-0.6
 41
-30.0
 62
     5
 63
     7
 74
     0
 91
        4
 64
     7
 65
   257
 75
     1
175
     1
 42
1.0
 92
        8
 66
     7
 43
1.0
 76
     1
 77
     6
 78
     2
 67
     7
 79
     5
170
     0
171
     0
290
     0
174
     0
 93
        1
 44
0.0
173
     0
291
     1
 45
0.0
1001
ACAD
1000
AcDbSavedByObjectVersion
1070
     0
1000
AcDbSavedByObjectVersion
1070
     0
1000
AcDbSavedByObjectVersion
1070
     0
1000
AcDbSavedByObjectVersion
1070
     0
1000
AcDbSavedByObjectVersion
1070
     0
1000
AcDbSavedByObjectVersion
1070
     0
1000
AcDbSavedByObjectVersion
1070
     0
  0
VISUALSTYLE
  5
12C5
102
{ACAD_REACTORS
330
12B9
102
}
330
12B9
100
AcDbVisualStyle
  2
Brighten
 70
    12
 71
     2
 72
     2
 73
     0
 90
        0
 40
-0.6
 41
-30.0
 62
     5
 63
     7
 74
     1
 91
        4
 64
     7
 65
   257
 75
     1
175
     1
 42
1.0
 92
        8
 66
     7
 43
1.0
 76
     1
 77
     6
 78
     2
 67
     7
 79
     5
170
     0
171
     0
290
     0
174
     0
 93
        1
 44
50.0
173
     0
291
     1
 45
0.0
1001
ACAD
1000
AcDbSavedByObjectVersion
1070
     0
1000
AcDbSavedByObjectVersion
1070
     0
1000
AcDbSavedByObjectVersion
1070
     0
1000
AcDbSavedByObjectVersion
1070
     0
1000
AcDbSavedByObjectVersion
1070
     0
1000
AcDbSavedByObjectVersion
1070
     0
1000
AcDbSavedByObjectVersion
1070
     0
  0
VISUALSTYLE
  5
12C9
102
{ACAD_REACTORS
330
12B9
102
}
330
12B9
100
AcDbVisualStyle
  2
ColorChange
 70
    16
 71
     2
 72
     2
 73
     3
 90
        0
 40
-0.6
 41
-30.0
 62
     5
 63
     8
 74
     1
 91
        4
 64
     7
 65
   257
 75
     1
175
     1
 42
1.0
 92
        8
 66
     8
 43
1.0
 76
     1
 77
     6
 78
     2
 67
     7
 79
     5
170
     0
171
     0
290
     0
174
     0
 93
        1
 44
0.0
173
     0
291
     1
 45
0.0
1001
ACAD
1000
AcDbSavedByObjectVersion
1070
     0
1000
AcDbSavedByObjectVersion
1070
     0
1000
AcDbSavedByObjectVersion
1070
     0
1000
AcDbSavedByObjectVersion
1070
     0
1000
AcDbSavedByObjectVersion
1070
     0
1000
AcDbSavedByObjectVersion
1070
     0
1000
AcDbSavedByObjectVersion
1070
     0
  0
VISUALSTYLE
  5
12C2
102
{ACAD_REACTORS
330
12B9
102
}
330
12B9
100
AcDbVisualStyle
  2
Conceptual
 70
     9
 71
     3
 72
     2
 73
     0
 90
        0
 40
-0.6
 41
-30.0
 62
     5
 63
     7
 74
     2
 91
        2
 64
     7
 65
   257
 75
     1
175
     1
 42
40.0
 92
        8
 66
     7
 43
1.0
 76
     1
 77
     6
 78
     2
 67
     7
 79
     3
170
     0
171
     0
290
     0
174
     0
 93
        1
 44
0.0
173
     0
291
     0
 45
0.0
1001
ACAD
1000
AcDbSavedByObjectVersion
1070
     0
1000
AcDbSavedByObjectVersion
1070
     0
1000
AcDbSavedByObjectVersion
1070
     0
1000
AcDbSavedByObjectVersion
1070
     0
1000
AcDbSavedByObjectVersion
1070
     0
1000
AcDbSavedByObjectVersion
1070
     0
1000
AcDbSavedByObjectVersion
1070
     0
  0
VISUALSTYLE
  5
12C4
102
{ACAD_REACTORS
330
12B9
102
}
330
12B9
100
AcDbVisualStyle
  2
Dim
 70
    11
 71
     2
 72
     2
 73
     0
 90
        0
 40
-0.6
 41
-30.0
 62
     5
 63
     7
 74
     1
 91
        4
 64
     7
 65
   257
 75
     1
175
     1
 42
1.0
 92
        8
 66
     7
 43
1.0
 76
     1
 77
     6
 78
     2
 67
     7
 79
     5
170
     0
171
     0
290
     0
174
     0
 93
        1
 44
-50.0
173
     0
291
     1
 45
0.0
1001
ACAD
1000
AcDbSavedByObjectVersion
1070
     0
1000
AcDbSavedByObjectVersion
1070
     0
1000
AcDbSavedByObjectVersion
1070
     0
1000
AcDbSavedByObjectVersion
1070
     0
1000
AcDbSavedByObjectVersion
1070
     0
1000
AcDbSavedByObjectVersion
1070
     0
1000
AcDbSavedByObjectVersion
1070
     0
  0
VISUALSTYLE
  5
12C8
102
{ACAD_REACTORS
330
12B9
102
}
330
12B9
100
AcDbVisualStyle
  2
Facepattern
 70
    15
 71
     2
 72
     2
 73
     0
 90
        0
 40
-0.6
 41
-30.0
 62
     5
 63
     7
 74
     1
 91
        4
 64
     7
 65
   257
 75
     1
175
     1
 42
1.0
 92
        8
 66
     7
 43
1.0
 76
     1
 77
     6
 78
     2
 67
     7
 79
     5
170
     0
171
     0
290
     0
174
     0
 93
        1
 44
0.0
173
     0
291
     1
 45
0.0
1001
ACAD
1000
AcDbSavedByObjectVersion
1070
     0
1000
AcDbSavedByObjectVersion
1070
     0
1000
AcDbSavedByObjectVersion
1070
     0
1000
AcDbSavedByObjectVersion
1070
     0
1000
AcDbSavedByObjectVersion
1070
     0
1000
AcDbSavedByObjectVersion
1070
     0
1000
AcDbSavedByObjectVersion
1070
     0
  0
VISUALSTYLE
  5
12BA
102
{ACAD_REACTORS
330
12B9
102
}
330
12B9
100
AcDbVisualStyle
  2
Flat
 70
     0
 71
     2
 72
     1
 73
     1
 90
        2
 40
-0.6
 41
30.0
 62
     5
 63
     7
 74
     0
 91
        4
 64
     7
 65
   257
 75
     1
175
     1
 42
1.0
 92
        8
 66
     7
 43
1.0
 76
     1
 77
     6
 78
     2
 67
     7
 79
     5
170
     0
171
     0
290
     0
174
     0
 93
       13
 44
0.0
173
     0
291
     1
 45
0.0
1001
ACAD
1000
AcDbSavedByObjectVersion
1070
     0
1000
AcDbSavedByObjectVersion
1070
     0
1000
AcDbSavedByObjectVersion
1070
     0
1000
AcDbSavedByObjectVersion
1070
     0
1000
AcDbSavedByObjectVersion
1070
     0
1000
AcDbSavedByObjectVersion
1070
     0
1000
AcDbSavedByObjectVersion
1070
     0
  0
VISUALSTYLE
  5
12BB
102
{ACAD_REACTORS
330
12B9
102
}
330
12B9
100
AcDbVisualStyle
  2
FlatWithEdges
 70
     1
 71
     2
 72
     1
 73
     1
 90
        2
 40
-0.6
 41
30.0
 62
     5
 63
     7
 74
     1
 91
        4
 64
     7
 65
   257
 75
     1
175
     1
 42
1.0
 92
        0
 66
   257
 43
1.0
 76
     1
 77
     6
 78
     2
 67
     7
 79
     5
170
     0
171
     0
290
     0
174
     0
 93
       13
 44
0.0
173
     0
291
     1
 45
0.0
1001
ACAD
1000
AcDbSavedByObjectVersion
1070
     0
1000
AcDbSavedByObjectVersion
1070
     0
1000
AcDbSavedByObjectVersion
1070
     0
1000
AcDbSavedByObjectVersion
1070
     0
1000
AcDbSavedByObjectVersion
1070
     0
1000
AcDbSavedByObjectVersion
1070
     0
1000
AcDbSavedByObjectVersion
1070
     0
  0
VISUALSTYLE
  5
12BC
102
{ACAD_REACTORS
330
12B9
102
}
330
12B9
100
AcDbVisualStyle
  2
Gouraud
 70
     2
 71
     2
 72
     2
 73
     1
 90
        2
 40
-0.6
 41
30.0
 62
     5
 63
     7
 74
     0
 91
        4
 64
     7
 65
   257
 75
     1
175
     1
 42
1.0
 92
        0
 66
     7
 43
1.0
 76
     1
 77
     6
 78
     2
 67
     7
 79
     5
170
     0
171
     0
290
     0
174
     0
 93
       13
 44
0.0
173
     0
291
     1
 45
0.0
1001
ACAD
1000
AcDbSavedByObjectVersion
1070
     0
1000
AcDbSavedByObjectVersion
1070
     0
1000
AcDbSavedByObjectVersion
1070
     0
1000
AcDbSavedByObjectVersion
1070
     0
1000
AcDbSavedByObjectVersion
1070
     0
1000
AcDbSavedByObjectVersion
1070
     0
1000
AcDbSavedByObjectVersion
1070
     0
  0
VISUALSTYLE
  5
12BD
102
{ACAD_REACTORS
330
12B9
102
}
330
12B9
100
AcDbVisualStyle
  2
GouraudWithEdges
 70
     3
 71
     2
 72
     2
 73
     1
 90
        2
 40
-0.6
 41
30.0
 62
     5
 63
     7
 74
     1
 91
        4
 64
     7
 65
   257
 75
     1
175
     1
 42
1.0
 92
        0
 66
   257
 43
1.0
 76
     1
 77
     6
 78
     2
 67
     7
 79
     5
170
     0
171
     0
290
     0
174
     0
 93
       13
 44
0.0
173
     0
291
     1
 45
0.0
1001
ACAD
1000
AcDbSavedByObjectVersion
1070
     0
1000
AcDbSavedByObjectVersion
1070
     0
1000
AcDbSavedByObjectVersion
1070
     0
1000
AcDbSavedByObjectVersion
1070
     0
1000
AcDbSavedByObjectVersion
1070
     0
1000
AcDbSavedByObjectVersion
1070
     0
1000
AcDbSavedByObjectVersion
1070
     0
  0
VISUALSTYLE
  5
12C7
102
{ACAD_REACTORS
330
12B9
102
}
330
12B9
100
AcDbVisualStyle
  2
Linepattern
 70
    14
 71
     2
 72
     2
 73
     0
 90
        0
 40
-0.6
 41
-30.0
 62
     5
 63
     7
 74
     1
 91
        4
 64
     7
 65
   257
 75
     7
175
     7
 42
1.0
 92
        8
 66
     7
 43
1.0
 76
     1
 77
     6
 78
     2
 67
     7
 79
     5
170
     0
171
     0
290
     0
174
     0
 93
        1
 44
0.0
173
     0
291
     1
 45
0.0
1001
ACAD
1000
AcDbSavedByObjectVersion
1070
     0
1000
AcDbSavedByObjectVersion
1070
     0
1000
AcDbSavedByObjectVersion
1070
     0
1000
AcDbSavedByObjectVersion
1070
     0
1000
AcDbSavedByObjectVersion
1070
     0
1000
AcDbSavedByObjectVersion
1070
     0
1000
AcDbSavedByObjectVersion
1070
     0
  0
VISUALSTYLE
  5
12C3
102
{ACAD_REACTORS
330
12B9
102
}
330
12B9
100
AcDbVisualStyle
  2
Realistic
 70
     8
 71
     2
 72
     2
 73
     0
 90
        0
 40
-0.6
 41
-30.0
 62
     5
 63
     7
 74
     1
 91
        0
 64
     7
 65
   257
 75
     1
175
     1
 42
1.0
 92
        8
 66
     8
 43
1.0
 76
     1
 77
     6
 78
     2
 67
     7
 79
     5
170
     0
171
     0
290
     0
174
     0
 93
       13
 44
0.0
173
     0
291
     0
 45
0.0
1001
ACAD
1000
AcDbSavedByObjectVersion
1070
     0
1000
AcDbSavedByObjectVersion
1070
     0
1000
AcDbSavedByObjectVersion
1070
     0
1000
AcDbSavedByObjectVersion
1070
     0
1000
AcDbSavedByObjectVersion
1070
     0
1000
AcDbSavedByObjectVersion
1070
     0
1000
AcDbSavedByObjectVersion
1070
     0
  0
VISUALSTYLE
  5
12C6
102
{ACAD_REACTORS
330
12B9
102
}
330
12B9
100
AcDbVisualStyle
  2
Thicken
 70
    13
 71
     2
 72
     2
 73
     0
 90
        0
 40
-0.6
 41
-30.0
 62
     5
 63
     7
 74
     1
 91
        4
 64
     7
 65
   257
 75
     1
175
     1
 42
1.0
 92
       12
 66
     7
 43
1.0
 76
     1
 77
     6
 78
     2
 67
     7
 79
     5
170
     0
171
     0
290
     0
174
     0
 93
        1
 44
0.0
173
     0
291
     1
 45
0.0
1001
ACAD
1000
AcDbSavedByObjectVersion
1070
     0
1000
AcDbSavedByObjectVersion
1070
     0
1000
AcDbSavedByObjectVersion
1070
     0
1000
AcDbSavedByObjectVersion
1070
     0
1000
AcDbSavedByObjectVersion
1070
     0
1000
AcDbSavedByObjectVersion
1070
     0
1000
AcDbSavedByObjectVersion
1070
     0
  0
DICTIONARYVAR
  5
131C
102
{ACAD_REACTORS
330
B87
102
}
330
B87
100
DictionaryVariables
280
     0
  1
1:1
  0
DICTIONARYVAR
  5
131B
102
{ACAD_REACTORS
330
B87
102
}
330
B87
100
DictionaryVariables
280
     0
  1
STANDARD
  0
DICTIONARYVAR
  5
1281
102
{ACAD_REACTORS
330
B87
102
}
330
B87
100
DictionaryVariables
280
     0
  1
STANDARD
  0
DICTIONARYVAR
  5
B88
102
{ACAD_REACTORS
330
B87
102
}
330
B87
100
DictionaryVariables
280
     0
  1
1
  0
DICTIONARYVAR
  5
1282
102
{ACAD_REACTORS
330
B87
102
}
330
B87
100
DictionaryVariables
280
     0
  1
1
  0
DICTIONARYVAR
  5
1283
102
{ACAD_REACTORS
330
B87
102
}
330
B87
100
DictionaryVariables
280
     0
  1

  0
DICTIONARYVAR
  5
131D
102
{ACAD_REACTORS
330
B87
102
}
330
B87
100
DictionaryVariables
280
     0
  1
127
  0
DICTIONARY
  5
1222
102
{ACAD_REACTORS
330
1216
102
}
330
1216
100
AcDbDictionary
281
     1
  0
XRECORD
  5
1242
102
{ACAD_REACTORS
330
1216
102
}
330
1216
100
AcDbXrecord
280
     1
 90
-1023410169
  0
DICTIONARY
  5
1156
102
{ACAD_REACTORS
330
1155
102
}
330
1155
100
AcDbDictionary
281
     1
  3
DWGSETTINGS
350
1C31
  3
TRANSSETTINGS
350
1C32
  0
ACAMGFILTERDAT
  5
1271
102
{ACAD_REACTORS
330
126C
102
}
330
126C
100
AcAmgFilterDat
 70
    15
  1
DIMENSION,AMDT_*_DIM
  2
*
  3
*
  4
*
  5
*
290
     1
1001
ACAD
1000
AcRTDxfName
1000
ACAMGFILTERDAT
  0
ACAMGFILTERDAT
  5
1270
102
{ACAD_REACTORS
330
126C
102
}
330
126C
100
AcAmgFilterDat
 70
    15
  1
*
  2
AM_FEA-AM_*
  3
*
  4
*
  5
*
290
     1
1001
ACAD
1000
AcRTDxfName
1000
ACAMGFILTERDAT
  0
ACAMGFILTERDAT
  5
126D
102
{ACAD_REACTORS
330
126C
102
}
330
126C
100
AcAmgFilterDat
 70
    15
  1
HATCH
  2
*
  3
*
  4
*
  5
*
290
     1
1001
ACAD
1000
AcRTDxfName
1000
ACAMGFILTERDAT
  0
ACAMGFILTERDAT
  5
126E
102
{ACAD_REACTORS
330
126C
102
}
330
126C
100
AcAmgFilterDat
 70
    15
  1
LINE
  2
8,8N,*-8,*-8N,AM_8,AM_8N,*-AM_8,*-AM_8N
  3
*
  4
*
  5
INSERT,STDPART2D
290
     1
1001
ACAD
1000
AcRTDxfName
1000
ACAMGFILTERDAT
  0
ACAMGFILTERDAT
  5
1272
102
{ACAD_REACTORS
330
126C
102
}
330
126C
100
AcAmgFilterDat
 70
    15
  1
ARC
  2
AM_5
  3
*
  4
2
  5
INSERT
290
     0
1001
ACAD
1000
AcRTDxfName
1000
ACAMGFILTERDAT
  0
ACAMGFILTERDAT
  5
126F
102
{ACAD_REACTORS
330
126C
102
}
330
126C
100
AcAmgFilterDat
 70
    15
  1
ACMFCFRAME,ACMDATUMTARGET,ACMDATUMID,ACMWELDSYM,ACMSURFSYM,ACMFEATID,ACMPARTREF,ACMBALLOON,AMDTEDGESYM,AMGSCREWCALCTABLE
  2
*
  3
*
  4
*
  5
*
290
     1
1001
ACAD
1000
AcRTDxfName
1000
ACAMGFILTERDAT
  0
LAYER_INDEX
  5
1274
102
{ACAD_REACTORS
330
1273
102
}
330
1273
100
AcDbIndex
 40
2457113.67767375
100
AcDbLayerIndex
  8
0
360
1275
 90
        0
  8
OUTLINE
360
1276
 90
       88
  8
SIZE
360
1277
 90
       24
  8
BASIS
360
1278
 90
        1
  8
DETAIL
360
1279
 90
       82
  8
ARRANGE
360
127A
 90
        3
  8
DEFPOINTS
360
127B
 90
        0
  8
ETC
360
127C
 90
        1
  8
FIX
360
127D
 90
        0
  8
NOTE
360
127E
 90
       10
  8
SERVICESPACE
360
127F
 90
        0
  8
SYMBOLLINE
360
1280
 90
        0
  0
DICTIONARY
  5
1D0F
330
B84
100
AcDbDictionary
280
     1
281
     1
  3
ACAD_XREC_ROUNDTRIP
360
1D10
  0
DICTIONARY
  5
1D11
330
B85
100
AcDbDictionary
280
     1
281
     1
  3
ACAD_XREC_ROUNDTRIP
360
1D12
  0
DICTIONARY
  5
12AA
330
12A9
100
AcDbDictionary
280
     1
281
     1
  3
ACAD_XREC_ROUNDTRIP
360
132A
  3
BUMPTILE
360
12AC
  3
DIFFUSETILE
360
12AB
  3
OPACITYTILE
360
12AF
  3
REFLECTIONTILE
360
12AE
  3
REFRACTIONTILE
360
12B0
  3
SPECULARTILE
360
12AD
  0
DICTIONARY
  5
12A2
330
12A1
100
AcDbDictionary
280
     1
281
     1
  3
ACAD_XREC_ROUNDTRIP
360
1329
  3
BUMPTILE
360
12A4
  3
DIFFUSETILE
360
12A3
  3
OPACITYTILE
360
12A7
  3
REFLECTIONTILE
360
12A6
  3
REFRACTIONTILE
360
12A8
  3
SPECULARTILE
360
12A5
  0
DICTIONARY
  5
12B2
330
12B1
100
AcDbDictionary
280
     1
281
     1
  3
ACAD_XREC_ROUNDTRIP
360
132B
  3
BUMPTILE
360
12B4
  3
DIFFUSETILE
360
12B3
  3
OPACITYTILE
360
12B7
  3
REFLECTIONTILE
360
12B6
  3
REFRACTIONTILE
360
12B8
  3
SPECULARTILE
360
12B5
  0
DICTIONARY
  5
131E
330
1151
100
AcDbDictionary
280
     1
281
     1
  3
ACAD_ROUNDTRIP_2008_TABLESTYLE_CELLSTYLEMAP
360
1D08
  3
ACAD_XREC_ROUNDTRIP
360
1D13
  0
IDBUFFER
  5
1275
330
0
100
AcDbIdBuffer
  0
IDBUFFER
  5
1276
330
0
100
AcDbIdBuffer
330
953
330
954
330
955
330
956
330
957
330
958
330
1A71
330
1A72
330
1A73
330
1A74
330
1A75
330
1A76
330
1A77
330
1A78
330
1A79
330
1A7A
330
1A7B
330
1A7C
330
1A7D
330
1A7E
330
1A7F
330
1A80
330
1A81
330
1A82
330
1A83
330
1A84
330
1A85
330
1A86
330
1A87
330
1A88
330
1A89
330
1A8A
330
1A8B
330
1A8C
330
1A8D
330
1A8E
330
1A8F
330
1A90
330
1A91
330
1A92
330
1A93
330
1A94
330
1A95
330
1A96
330
1A97
330
1A98
330
1A99
330
1A9A
330
1A9B
330
1A9C
330
1A9D
330
1A9E
330
1A9F
330
1AA0
330
1AA1
330
1AA2
330
1AA3
330
1AA4
330
1AA5
330
1AA6
330
1AA7
330
1AA8
330
1AA9
330
1AAA
330
1AAB
330
1AAC
330
1AAD
330
1AAE
330
1AAF
330
1AB0
330
1AB1
330
1AB2
330
1AB3
330
1AB4
330
1AB5
330
1AB6
330
1AB7
330
1AB8
330
1AB9
330
1ABA
330
1ABB
330
1ABC
330
1ABD
330
1ABE
330
1ABF
330
1AC0
330
1AC1
330
1AC2
  0
IDBUFFER
  5
1277
330
0
100
AcDbIdBuffer
330
1C01
330
1C02
330
1C03
330
1C04
330
1C05
330
1C06
330
1C07
330
1C08
330
1C09
330
1C0A
330
1C0B
330
1C0C
330
1C0D
330
1C0E
330
1C0F
330
1C10
330
1C11
330
1C12
330
1C13
330
1C14
330
1C15
330
1C16
330
1C17
330
1C18
  0
IDBUFFER
  5
1278
330
0
100
AcDbIdBuffer
330
1A6C
  0
IDBUFFER
  5
1279
330
0
100
AcDbIdBuffer
330
1A0D
330
1A0E
330
1A0F
330
1A10
330
1A11
330
1A12
330
1A13
330
1A14
330
1A15
330
1A16
330
1A17
330
1A18
330
1A19
330
1A1A
330
1A1B
330
1A1C
330
1A1D
330
1A1E
330
1A1F
330
1A20
330
1A21
330
1A22
330
1A23
330
1A24
330
1A25
330
1A26
330
1A27
330
1A28
330
1A29
330
1A2A
330
1A2B
330
1A2C
330
1A2D
330
1A2E
330
1A2F
330
1A30
330
1A31
330
1A32
330
1A33
330
1A34
330
1A35
330
1A36
330
1A37
330
1A38
330
1A39
330
1A3A
330
1A3B
330
1A3C
330
1A3D
330
1A3E
330
1A3F
330
1A40
330
1A41
330
1A42
330
1A43
330
1A44
330
1A45
330
1A46
330
1A47
330
1A48
330
1A49
330
1A4A
330
1A4B
330
1A4C
330
1A4D
330
1A4E
330
1A4F
330
1A50
330
1A51
330
1A52
330
1A53
330
1A54
330
1A55
330
1A56
330
1A57
330
1A58
330
1A59
330
1A5A
330
1A5B
330
1A5C
330
1A5D
330
1A5E
  0
IDBUFFER
  5
127A
330
0
100
AcDbIdBuffer
330
1A69
330
1A6A
330
1A6B
  0
IDBUFFER
  5
127B
330
0
100
AcDbIdBuffer
  0
IDBUFFER
  5
127C
330
0
100
AcDbIdBuffer
330
1A6D
  0
IDBUFFER
  5
127D
330
0
100
AcDbIdBuffer
  0
IDBUFFER
  5
127E
330
0
100
AcDbIdBuffer
330
1A5F
330
1A60
330
1A61
330
1A62
330
1A6E
330
1A6F
330
1A70
330
1C19
330
1C1A
330
1C1B
  0
IDBUFFER
  5
127F
330
0
100
AcDbIdBuffer
  0
IDBUFFER
  5
1280
330
0
100
AcDbIdBuffer
  0
XRECORD
  5
1D10
102
{ACAD_REACTORS
330
1D0F
102
}
330
1D0F
100
AcDbXrecord
280
     1
102
SHADEPLOT
 70
     0
102
SHADEPLOTRESLEVEL
 70
     2
102
SHADEPLOTCUSTOMDPI
 70
   300
  0
XRECORD
  5
1D12
102
{ACAD_REACTORS
330
1D11
102
}
330
1D11
100
AcDbXrecord
280
     1
102
SHADEPLOT
 70
     0
102
SHADEPLOTRESLEVEL
 70
     2
102
SHADEPLOTCUSTOMDPI
 70
   300
  0
XRECORD
  5
132A
102
{ACAD_REACTORS
330
12AA
102
}
330
12AA
100
AcDbXrecord
280
     1
102
MATERIAL
148
0.0
149
0.0
149
0.0
 93
        0
 94
      127
282
     0
 72
     0
 77
     0
171
     0
175
     0
179
     0
273
     0
  0
XRECORD
  5
12AC
102
{ACAD_REACTORS
330
12AA
102
}
330
12AA
100
AcDbXrecord
280
     1
270
     1
271
     1
  0
XRECORD
  5
12AB
102
{ACAD_REACTORS
330
12AA
102
}
330
12AA
100
AcDbXrecord
280
     1
270
     1
271
     1
  0
XRECORD
  5
12AF
102
{ACAD_REACTORS
330
12AA
102
}
330
12AA
100
AcDbXrecord
280
     1
270
     1
271
     1
  0
XRECORD
  5
12AE
102
{ACAD_REACTORS
330
12AA
102
}
330
12AA
100
AcDbXrecord
280
     1
270
     1
271
     1
  0
XRECORD
  5
12B0
102
{ACAD_REACTORS
330
12AA
102
}
330
12AA
100
AcDbXrecord
280
     1
270
     1
271
     1
  0
XRECORD
  5
12AD
102
{ACAD_REACTORS
330
12AA
102
}
330
12AA
100
AcDbXrecord
280
     1
270
     1
271
     1
  0
XRECORD
  5
1329
102
{ACAD_REACTORS
330
12A2
102
}
330
12A2
100
AcDbXrecord
280
     1
102
MATERIAL
148
0.0
149
0.0
149
0.0
 93
        0
 94
      127
282
     0
 72
     0
 77
     0
171
     0
175
     0
179
     0
273
     0
  0
XRECORD
  5
12A4
102
{ACAD_REACTORS
330
12A2
102
}
330
12A2
100
AcDbXrecord
280
     1
270
     1
271
     1
  0
XRECORD
  5
12A3
102
{ACAD_REACTORS
330
12A2
102
}
330
12A2
100
AcDbXrecord
280
     1
270
     1
271
     1
  0
XRECORD
  5
12A7
102
{ACAD_REACTORS
330
12A2
102
}
330
12A2
100
AcDbXrecord
280
     1
270
     1
271
     1
  0
XRECORD
  5
12A6
102
{ACAD_REACTORS
330
12A2
102
}
330
12A2
100
AcDbXrecord
280
     1
270
     1
271
     1
  0
XRECORD
  5
12A8
102
{ACAD_REACTORS
330
12A2
102
}
330
12A2
100
AcDbXrecord
280
     1
270
     1
271
     1
  0
XRECORD
  5
12A5
102
{ACAD_REACTORS
330
12A2
102
}
330
12A2
100
AcDbXrecord
280
     1
270
     1
271
     1
  0
XRECORD
  5
132B
102
{ACAD_REACTORS
330
12B2
102
}
330
12B2
100
AcDbXrecord
280
     1
102
MATERIAL
148
0.0
149
0.0
149
0.0
 93
        0
 94
      127
282
     0
 72
     0
 77
     0
171
     0
175
     0
179
     0
273
     0
  0
XRECORD
  5
12B4
102
{ACAD_REACTORS
330
12B2
102
}
330
12B2
100
AcDbXrecord
280
     1
270
     1
271
     1
  0
XRECORD
  5
12B3
102
{ACAD_REACTORS
330
12B2
102
}
330
12B2
100
AcDbXrecord
280
     1
270
     1
271
     1
  0
XRECORD
  5
12B7
102
{ACAD_REACTORS
330
12B2
102
}
330
12B2
100
AcDbXrecord
280
     1
270
     1
271
     1
  0
XRECORD
  5
12B6
102
{ACAD_REACTORS
330
12B2
102
}
330
12B2
100
AcDbXrecord
280
     1
270
     1
271
     1
  0
XRECORD
  5
12B8
102
{ACAD_REACTORS
330
12B2
102
}
330
12B2
100
AcDbXrecord
280
     1
270
     1
271
     1
  0
XRECORD
  5
12B5
102
{ACAD_REACTORS
330
12B2
102
}
330
12B2
100
AcDbXrecord
280
     1
270
     1
271
     1
  0
CELLSTYLEMAP
  5
1D08
102
{ACAD_REACTORS
330
131E
102
}
330
131E
100
AcDbCellStyleMap
 90
        3
300
CELLSTYLE
  1
TABLEFORMAT_BEGIN
 90
        5
170
     1
 91
        0
 92
    32768
 62
   257
 93
        1
300
CONTENTFORMAT
  1
CONTENTFORMAT_BEGIN
 90
        0
 91
        0
 92
        4
 93
        0
300

 40
0.0
140
1.0
 94
        5
 62
     0
340
852
144
0.25
309
CONTENTFORMAT_END
171
     1
301
MARGIN
  1
CELLMARGIN_BEGIN
 40
0.06
 40
0.06
 40
0.06
 40
0.06
 40
0.18
 40
0.18
309
CELLMARGIN_END
 94
        6
 95
        1
302
GRIDFORMAT
  1
GRIDFORMAT_BEGIN
 90
        0
 91
        1
 62
     0
 92
       -2
340
0
 93
        0
 40
0.045
309
GRIDFORMAT_END
 95
        2
302
GRIDFORMAT
  1
GRIDFORMAT_BEGIN
 90
        0
 91
        1
 62
     0
 92
       -2
340
0
 93
        0
 40
0.045
309
GRIDFORMAT_END
 95
        4
302
GRIDFORMAT
  1
GRIDFORMAT_BEGIN
 90
        0
 91
        1
 62
     0
 92
       -2
340
0
 93
        0
 40
0.045
309
GRIDFORMAT_END
 95
        8
302
GRIDFORMAT
  1
GRIDFORMAT_BEGIN
 90
        0
 91
        1
 62
     0
 92
       -2
340
0
 93
        0
 40
0.045
309
GRIDFORMAT_END
 95
       16
302
GRIDFORMAT
  1
GRIDFORMAT_BEGIN
 90
        0
 91
        1
 62
     0
 92
       -2
340
0
 93
        0
 40
0.045
309
GRIDFORMAT_END
 95
       32
302
GRIDFORMAT
  1
GRIDFORMAT_BEGIN
 90
        0
 91
        1
 62
     0
 92
       -2
340
0
 93
        0
 40
0.045
309
GRIDFORMAT_END
309
TABLEFORMAT_END
  1
CELLSTYLE_BEGIN
 90
        1
 91
        1
300
_TITLE
309
CELLSTYLE_END
300
CELLSTYLE
  1
TABLEFORMAT_BEGIN
 90
        5
170
     1
 91
        0
 92
        0
 62
   257
 93
        1
300
CONTENTFORMAT
  1
CONTENTFORMAT_BEGIN
 90
        0
 91
        0
 92
        4
 93
        0
300

 40
0.0
140
1.0
 94
        5
 62
     0
340
852
144
0.18
309
CONTENTFORMAT_END
171
     1
301
MARGIN
  1
CELLMARGIN_BEGIN
 40
0.06
 40
0.06
 40
0.06
 40
0.06
 40
0.18
 40
0.18
309
CELLMARGIN_END
 94
        6
 95
        1
302
GRIDFORMAT
  1
GRIDFORMAT_BEGIN
 90
        0
 91
        1
 62
     0
 92
       -2
340
0
 93
        0
 40
0.045
309
GRIDFORMAT_END
 95
        2
302
GRIDFORMAT
  1
GRIDFORMAT_BEGIN
 90
        0
 91
        1
 62
     0
 92
       -2
340
0
 93
        0
 40
0.045
309
GRIDFORMAT_END
 95
        4
302
GRIDFORMAT
  1
GRIDFORMAT_BEGIN
 90
        0
 91
        1
 62
     0
 92
       -2
340
0
 93
        0
 40
0.045
309
GRIDFORMAT_END
 95
        8
302
GRIDFORMAT
  1
GRIDFORMAT_BEGIN
 90
        0
 91
        1
 62
     0
 92
       -2
340
0
 93
        0
 40
0.045
309
GRIDFORMAT_END
 95
       16
302
GRIDFORMAT
  1
GRIDFORMAT_BEGIN
 90
        0
 91
        1
 62
     0
 92
       -2
340
0
 93
        0
 40
0.045
309
GRIDFORMAT_END
 95
       32
302
GRIDFORMAT
  1
GRIDFORMAT_BEGIN
 90
        0
 91
        1
 62
     0
 92
       -2
340
0
 93
        0
 40
0.045
309
GRIDFORMAT_END
309
TABLEFORMAT_END
  1
CELLSTYLE_BEGIN
 90
        2
 91
        1
300
_HEADER
309
CELLSTYLE_END
300
CELLSTYLE
  1
TABLEFORMAT_BEGIN
 90
        5
170
     1
 91
        0
 92
        0
 62
   257
 93
        1
300
CONTENTFORMAT
  1
CONTENTFORMAT_BEGIN
 90
        0
 91
        0
 92
        4
 93
        0
300

 40
0.0
140
1.0
 94
        2
 62
     0
340
852
144
0.18
309
CONTENTFORMAT_END
171
     1
301
MARGIN
  1
CELLMARGIN_BEGIN
 40
0.06
 40
0.06
 40
0.06
 40
0.06
 40
0.18
 40
0.18
309
CELLMARGIN_END
 94
        6
 95
        1
302
GRIDFORMAT
  1
GRIDFORMAT_BEGIN
 90
        0
 91
        1
 62
     0
 92
       -2
340
0
 93
        0
 40
0.045
309
GRIDFORMAT_END
 95
        2
302
GRIDFORMAT
  1
GRIDFORMAT_BEGIN
 90
        0
 91
        1
 62
     0
 92
       -2
340
0
 93
        0
 40
0.045
309
GRIDFORMAT_END
 95
        4
302
GRIDFORMAT
  1
GRIDFORMAT_BEGIN
 90
        0
 91
        1
 62
     0
 92
       -2
340
0
 93
        0
 40
0.045
309
GRIDFORMAT_END
 95
        8
302
GRIDFORMAT
  1
GRIDFORMAT_BEGIN
 90
        0
 91
        1
 62
     0
 92
       -2
340
0
 93
        0
 40
0.045
309
GRIDFORMAT_END
 95
       16
302
GRIDFORMAT
  1
GRIDFORMAT_BEGIN
 90
        0
 91
        1
 62
     0
 92
       -2
340
0
 93
        0
 40
0.045
309
GRIDFORMAT_END
 95
       32
302
GRIDFORMAT
  1
GRIDFORMAT_BEGIN
 90
        0
 91
        1
 62
     0
 92
       -2
340
0
 93
        0
 40
0.045
309
GRIDFORMAT_END
309
TABLEFORMAT_END
  1
CELLSTYLE_BEGIN
 90
        3
 91
        2
300
_DATA
309
CELLSTYLE_END
  0
XRECORD
  5
1D13
102
{ACAD_REACTORS
330
131E
102
}
330
131E
100
AcDbXrecord
280
     1
102
ACAD_ROUNDTRIP_PRE2007_TABLESTYLE
 90
        4
 91
        0
  1

 92
        4
 93
        0
  2

 94
        4
 95
        0
  3

  0
ENDSEC
  0
EOF
