  0
SECTION
  2
HEADER
  9
$ACADVER
  1
AC1015
  9
$ACADMAINTVER
 70
    20
  9
$DWGCODEPAGE
  3
ANSI_932
  9
$INSBASE
 10
0.0
 20
0.0
 30
0.0
  9
$EXTMIN
 10
-616.7861772780161
 20
-410.1562382538759
 30
-0.0015257624927045
  9
$EXTMAX
 10
786.7309683197291
 20
668.4265217841912
 30
50.00152599532333
  9
$LIMMIN
 10
-2970.0
 20
-2100.0
  9
$LIMMAX
 10
2970.0
 20
2100.0
  9
$ORTHOMODE
 70
     1
  9
$REGENMODE
 70
     0
  9
$FILLMODE
 70
     1
  9
$QTEXTMODE
 70
     0
  9
$MIRRTEXT
 70
     0
  9
$LTSCALE
 40
20.0
  9
$ATTMODE
 70
     1
  9
$TEXTSIZE
 40
64.0
  9
$TRACEWID
 40
0.05
  9
$TEXTSTYLE
  7
STANDARD
  9
$CLAYER
  8
0
  9
$CELTYPE
  6
ByLayer
  9
$CECOLOR
 62
   256
  9
$CELTSCALE
 40
1.0
  9
$DISPSILH
 70
     0
  9
$DIMSCALE
 40
1.0
  9
$DIMASZ
 40
0.12
  9
$DIMEXO
 40
0.05
  9
$DIMDLI
 40
0.5
  9
$DIMRND
 40
0.0
  9
$DIMDLE
 40
0.0
  9
$DIMEXE
 40
0.1
  9
$DIMTP
 40
0.1
  9
$DIMTM
 40
0.1
  9
$DIMTXT
 40
0.12
  9
$DIMCEN
 40
0.0
  9
$DIMTSZ
 40
0.0
  9
$DIMTOL
 70
     0
  9
$DIMLIM
 70
     0
  9
$DIMTIH
 70
     1
  9
$DIMTOH
 70
     1
  9
$DIMSE1
 70
     0
  9
$DIMSE2
 70
     0
  9
$DIMTAD
 70
     0
  9
$DIMZIN
 70
     7
  9
$DIMBLK
  1

  9
$DIMASO
 70
     1
  9
$DIMSHO
 70
     0
  9
$DIMPOST
  1

  9
$DIMAPOST
  1
mm
  9
$DIMALT
 70
     0
  9
$DIMALTD
 70
     2
  9
$DIMALTF
 40
25.4
  9
$DIMLFAC
 40
1.0
  9
$DIMTOFL
 70
     0
  9
$DIMTVP
 40
0.0
  9
$DIMTIX
 70
     0
  9
$DIMSOXD
 70
     0
  9
$DIMSAH
 70
     0
  9
$DIMBLK1
  1

  9
$DIMBLK2
  1

  9
$DIMSTYLE
  2
AM_ANSI
  9
$DIMCLRD
 70
   256
  9
$DIMCLRE
 70
   256
  9
$DIMCLRT
 70
     2
  9
$DIMTFAC
 40
0.71
  9
$DIMGAP
 40
0.06
  9
$DIMJUST
 70
     0
  9
$DIMSD1
 70
     0
  9
$DIMSD2
 70
     0
  9
$DIMTOLJ
 70
     1
  9
$DIMTZIN
 70
     7
  9
$DIMALTZ
 70
     0
  9
$DIMALTTZ
 70
     0
  9
$DIMUPT
 70
     0
  9
$DIMDEC
 70
     4
  9
$DIMTDEC
 70
     4
  9
$DIMALTU
 70
     2
  9
$DIMALTTD
 70
     4
  9
$DIMTXSTY
  7
STANDARD
  9
$DIMAUNIT
 70
     0
  9
$DIMADEC
 70
     0
  9
$DIMALTRND
 40
0.0
  9
$DIMAZIN
 70
     2
  9
$DIMDSEP
 70
    46
  9
$DIMATFIT
 70
     3
  9
$DIMFRAC
 70
     0
  9
$DIMLDRBLK
  1

  9
$DIMLUNIT
 70
     2
  9
$DIMLWD
 70
    -1
  9
$DIMLWE
 70
    -1
  9
$DIMTMOVE
 70
     0
  9
$LUNITS
 70
     2
  9
$LUPREC
 70
     4
  9
$SKETCHINC
 40
0.1
  9
$FILLETRAD
 40
4.0
  9
$AUNITS
 70
     1
  9
$AUPREC
 70
     3
  9
$MENU
  1
ACAD
  9
$ELEVATION
 40
0.0
  9
$PELEVATION
 40
0.0
  9
$THICKNESS
 40
50.0
  9
$LIMCHECK
 70
     0
  9
$CHAMFERA
 40
0.0
  9
$CHAMFERB
 40
0.0
  9
$CHAMFERC
 40
0.0
  9
$CHAMFERD
 40
0.0
  9
$SKPOLY
 70
     0
  9
$TDCREATE
 40
2452321.396199653
  9
$TDUCREATE
 40
2452321.021199653
  9
$TDUPDATE
 40
2456211.575591933
  9
$TDUUPDATE
 40
2456211.200591933
  9
$TDINDWG
 40
1.0412518287
  9
$TDUSRTIMER
 40
1.0412460648
  9
$USRTIMER
 70
     1
  9
$ANGBASE
 50
0.0
  9
$ANGDIR
 70
     0
  9
$PDMODE
 70
     3
  9
$PDSIZE
 40
-2.0
  9
$PLINEWID
 40
0.0
  9
$SPLFRAME
 70
     0
  9
$SPLINETYPE
 70
     6
  9
$SPLINESEGS
 70
     8
  9
$HANDSEED
  5
2702
  9
$SURFTAB1
 70
     6
  9
$SURFTAB2
 70
     6
  9
$SURFTYPE
 70
     6
  9
$SURFU
 70
     6
  9
$SURFV
 70
     6
  9
$UCSBASE
  2

  9
$UCSNAME
  2

  9
$UCSORG
 10
0.0
 20
0.0
 30
0.0
  9
$UCSXDIR
 10
1.0
 20
0.0
 30
0.0
  9
$UCSYDIR
 10
0.0
 20
1.0
 30
0.0
  9
$UCSORTHOREF
  2

  9
$UCSORTHOVIEW
 70
     0
  9
$UCSORGTOP
 10
0.0
 20
0.0
 30
0.0
  9
$UCSORGBOTTOM
 10
0.0
 20
0.0
 30
0.0
  9
$UCSORGLEFT
 10
0.0
 20
0.0
 30
0.0
  9
$UCSORGRIGHT
 10
0.0
 20
0.0
 30
0.0
  9
$UCSORGFRONT
 10
0.0
 20
0.0
 30
0.0
  9
$UCSORGBACK
 10
0.0
 20
0.0
 30
0.0
  9
$PUCSBASE
  2

  9
$PUCSNAME
  2

  9
$PUCSORG
 10
0.0
 20
0.0
 30
0.0
  9
$PUCSXDIR
 10
1.0
 20
0.0
 30
0.0
  9
$PUCSYDIR
 10
0.0
 20
1.0
 30
0.0
  9
$PUCSORTHOREF
  2

  9
$PUCSORTHOVIEW
 70
     0
  9
$PUCSORGTOP
 10
0.0
 20
0.0
 30
0.0
  9
$PUCSORGBOTTOM
 10
0.0
 20
0.0
 30
0.0
  9
$PUCSORGLEFT
 10
0.0
 20
0.0
 30
0.0
  9
$PUCSORGRIGHT
 10
0.0
 20
0.0
 30
0.0
  9
$PUCSORGFRONT
 10
0.0
 20
0.0
 30
0.0
  9
$PUCSORGBACK
 10
0.0
 20
0.0
 30
0.0
  9
$USERI1
 70
     0
  9
$USERI2
 70
     0
  9
$USERI3
 70
     0
  9
$USERI4
 70
     0
  9
$USERI5
 70
     0
  9
$USERR1
 40
20.0
  9
$USERR2
 40
0.0
  9
$USERR3
 40
0.0
  9
$USERR4
 40
0.0
  9
$USERR5
 40
0.0
  9
$WORLDVIEW
 70
     1
  9
$SHADEDGE
 70
     3
  9
$SHADEDIF
 70
    70
  9
$TILEMODE
 70
     1
  9
$MAXACTVP
 70
    64
  9
$PINSBASE
 10
0.0
 20
0.0
 30
0.0
  9
$PLIMCHECK
 70
     0
  9
$PEXTMIN
 10
1.000000000000000E+20
 20
1.000000000000000E+20
 30
1.000000000000000E+20
  9
$PEXTMAX
 10
-1.000000000000000E+20
 20
-1.000000000000000E+20
 30
-1.000000000000000E+20
  9
$PLIMMIN
 10
0.0
 20
0.0
  9
$PLIMMAX
 10
12.0
 20
9.0
  9
$UNITMODE
 70
     0
  9
$VISRETAIN
 70
     1
  9
$PLINEGEN
 70
     0
  9
$PSLTSCALE
 70
     1
  9
$TREEDEPTH
 70
  3020
  9
$CMLSTYLE
  2
Standard
  9
$CMLJUST
 70
     0
  9
$CMLSCALE
 40
1.0
  9
$PROXYGRAPHICS
 70
     1
  9
$MEASUREMENT
 70
     0
  9
$CELWEIGHT
370
    -1
  9
$ENDCAPS
280
     0
  9
$JOINSTYLE
280
     0
  9
$LWDISPLAY
290
     0
  9
$INSUNITS
 70
     0
  9
$HYPERLINKBASE
  1

  9
$STYLESHEET
  1

  9
$XEDIT
290
     1
  9
$CEPSNTYPE
380
     0
  9
$PSTYLEMODE
290
     1
  9
$FINGERPRINTGUID
  2
{D92C643A-BF1A-4176-B732-534452DEAB77}
  9
$VERSIONGUID
  2
{FAFB5F68-C818-4010-8080-79999AD8C752}
  9
$EXTNAMES
290
     1
  9
$PSVPSCALE
 40
0.0
  9
$OLESTARTUP
290
     0
  0
ENDSEC
  0
SECTION
  2
CLASSES
  0
CLASS
  1
ACDBDICTIONARYWDFLT
  2
AcDbDictionaryWithDefault
  3
ObjectDBX Classes
 90
        0
280
     0
281
     0
  0
CLASS
  1
MATERIAL
  2
AcDbMaterial
  3
ObjectDBX Classes
 90
     1153
280
     0
281
     0
  0
CLASS
  1
VISUALSTYLE
  2
AcDbVisualStyle
  3
ObjectDBX Classes
 90
     4095
280
     0
281
     0
  0
CLASS
  1
SCALE
  2
AcDbScale
  3
ObjectDBX Classes
 90
     1153
280
     0
281
     0
  0
CLASS
  1
TABLESTYLE
  2
AcDbTableStyle
  3
ObjectDBX Classes
 90
     4095
280
     0
281
     0
  0
CLASS
  1
MLEADERSTYLE
  2
AcDbMLeaderStyle
  3
ACDB_MLEADERSTYLE_CLASS
 90
     4095
280
     0
281
     0
  0
CLASS
  1
AMGSETTINGSOBJ
  2
AmgSettingsObj
  3
"AcadM|Product Description: AutoCAD Mechanical|Company: Autodesk, Inc."
 90
     1024
280
     0
281
     0
  0
CLASS
  1
ACME_DOCUMENT
  2
AcMeDbDoc
  3
AcMeServices
 90
     1024
280
     0
281
     0
  0
CLASS
  1
ACMESCOPE
  2
AcMeScope
  3
AcMeServices
 90
     1024
280
     0
281
     0
  0
CLASS
  1
ACMECOMMANDHISTORY
  2
AcMeCommandHistory
  3
AcMeServices
 90
     1024
280
     0
281
     0
  0
CLASS
  1
ACIMSYSVARMAN
  2
AcImSysVarManager
  3
AcMeServices
 90
     1024
280
     0
281
     0
  0
CLASS
  1
ACIMREALSYSVAR
  2
AcImRealSysVar
  3
AcMeServices
 90
     1024
280
     0
281
     0
  0
CLASS
  1
ACIMINTSYSVAR
  2
AcImIntSysVar
  3
AcMeServices
 90
     1024
280
     0
281
     0
  0
CLASS
  1
ACMEDRAWINGMAN
  2
AcMeDrawingMan
  3
AcMeServices
 90
     1024
280
     0
281
     0
  0
CLASS
  1
ACMEVIEW
  2
AcMeView
  3
AcMeServices
 90
     1024
280
     0
281
     0
  0
CLASS
  1
ACDBENTITYCACHE
  2
AcMeEntityCache
  3
AcMeServices
 90
     1024
280
     0
281
     0
  0
CLASS
  1
GSMANAGER
  2
AcMeGSManager
  3
AcMeServices
 90
     1024
280
     0
281
     0
  0
CLASS
  1
AMDTINTERNALREACTOR
  2
AmdtInternalReactor
  3
AcMeServices
 90
     1024
280
     0
281
     0
  0
CLASS
  1
ACMESTATEMGR
  2
AcMeStateMgr
  3
AcMeServices
 90
     1024
280
     0
281
     0
  0
CLASS
  1
ACGREFMASTER
  2
AcGrefMaster
  3
AcAttribServices
 90
     1024
280
     0
281
     0
  0
CLASS
  1
AM_DRAWING_MGR
  2
AcDmDwgMgr
  3
AcMechDwgViewMgmt
 90
     1024
280
     0
281
     0
  0
CLASS
  1
AM_DWG_DOCUMENT
  2
AcDmDwgDocument
  3
AcMechDwgViewMgmt
 90
     1024
280
     0
281
     0
  0
CLASS
  1
AM_DWG_SHEET
  2
AcDmSheet
  3
AcMechDwgViewMgmt
 90
     1024
280
     0
281
     0
  0
CLASS
  1
AM_VIEWDIMPARMAP
  2
AcDmViewDimParMap
  3
AcMechDwgViewMgmt
 90
     1024
280
     0
281
     0
  0
CLASS
  1
AM_DWGMGR_NAME
  2
AcDmDwgMgrName
  3
AcMechDwgViewMgmt
 90
     1024
280
     0
281
     0
  0
CLASS
  1
ACME_DATABASE
  2
AcMeDbDatabase
  3
AcMeServices
 90
     1024
280
     0
281
     0
  0
CLASS
  1
ACRFINSADJUSTERMGR
  2
AcRfInsAdjusterMgr
  3
AcMeServices
 90
     1024
280
     0
281
     0
  0
CLASS
  1
ACGREFACADMASTER
  2
AcGrefacadMaster
  3
AcGrefServices
 90
     1024
280
     0
281
     0
  0
CLASS
  1
AMDTMENUSTATEMGR
  2
AmdtMenuStateMgr
  3
McadcomServices
 90
     1024
280
     0
281
     0
  0
CLASS
  1
AMDTMCOMMENUSTATE
  2
AmdtMcomMenuState
  3
McadcomServices
 90
     1024
280
     0
281
     0
  0
CLASS
  1
AMIMASTER
  2
AmiMaster
  3
AmiServices
 90
     1024
280
     0
281
     0
  0
CLASS
  1
ASAPP
  2
AcAsAppObject
  3
AutoSurfServices
 90
     1024
280
     0
281
     0
  0
CLASS
  1
IM_STATIC_MAN
  2
AcImStaticVarManager
  3
AcMeServices
 90
     1024
280
     0
281
     0
  0
CLASS
  1
ACIMSTRSYSVAR
  2
AcImStrSysVar
  3
AcMeServices
 90
     1024
280
     0
281
     0
  0
CLASS
  1
ACIMDBLSTATICVAR
  2
AcImDblStaticVar
  3
AcMeServices
 90
     1024
280
     0
281
     0
  0
CLASS
  1
ACIMSTRSTATICVAR
  2
AcImStrStaticVar
  3
AcMeServices
 90
     1024
280
     0
281
     0
  0
CLASS
  1
ACIMINTSTATICVAR
  2
AcImIntStaticVar
  3
AcMeServices
 90
     1024
280
     0
281
     0
  0
CLASS
  1
ACASGREFMASTER
  2
AcAsGrefMaster
  3
AutoSurfResolverServices
 90
     1024
280
     0
281
     0
  0
CLASS
  1
ACADGREFMODULE
  2
AcAdGrefModule
  3
AdGrefServices
 90
     1024
280
     0
281
     0
  0
CLASS
  1
AMDTMAPISURFMOUDULE
  2
AmdtMApiSurfModule
  3
MApiSurfServices
 90
     1024
280
     0
281
     0
  0
CLASS
  1
MAPIAMMOUDLE
  2
MApiAmModule
  3
MApiAmServices
 90
     1024
280
     0
281
     0
  0
CLASS
  1
AMDTADMENUSTATE
  2
AmdtAdMenuState
  3
DesignerServices
 90
     1024
280
     0
281
     0
  0
CLASS
  1
ADAPPL
  2
AcAdAppl
  3
DesignerServices
 90
     1024
280
     0
281
     0
  0
CLASS
  1
DEPMGR
  2
AcAdDepMgr
  3
DesignerServices
 90
     1024
280
     0
281
     0
  0
CLASS
  1
PARAMMGR
  2
AcAdParamMgr
  3
DesignerServices
 90
     1024
280
     0
281
     0
  0
CLASS
  1
PARAMSCOPE
  2
AcAdParamScope
  3
DesignerServices
 90
     1024
280
     0
281
     0
  0
CLASS
  1
NAMEDAPPL
  2
AcAdNamedAppl
  3
DesignerServices
 90
     1024
280
     0
281
     0
  0
CLASS
  1
AMDTDMMENUSTATE
  2
AmdtDmMenuState
  3
AcMechDwgViewMgmt
 90
     1024
280
     0
281
     0
  0
CLASS
  1
MAPIADMODULE
  2
MApiAdModule
  3
MApiAdServices
 90
     1024
280
     0
281
     0
  0
CLASS
  1
AMDTAMMENUSTATE
  2
AmdtAmMenuState
  3
DesignerAssemblies
 90
     1024
280
     0
281
     0
  0
CLASS
  1
ACAMPROJECT
  2
AcAmProject
  3
DesignerAssemblies
 90
     1024
280
     0
281
     0
  0
CLASS
  1
ACAMGRCOMPDEF
  2
AcAmGrCompDef
  3
DesignerAssemblies
 90
     1024
280
     0
281
     0
  0
CLASS
  1
ACCMCONTEXT
  2
AcCmContext
  3
DesignerAssemblies
 90
     1024
280
     0
281
     0
  0
CLASS
  1
ACAMCOMPDEF
  2
AcAmCompDef
  3
DesignerAssemblies
 90
     1024
280
     0
281
     0
  0
CLASS
  1
ACAMCOMPDEFMGR
  2
AcAmCompDefMgr
  3
DesignerAssemblies
 90
     1024
280
     0
281
     0
  0
CLASS
  1
AMCONTEXTMGR
  2
AcAmContextMgr
  3
DesignerAssemblies
 90
     1024
280
     0
281
     0
  0
CLASS
  1
ACAMCONTEXTMODELER
  2
AcAmContextModeler
  3
DesignerAssemblies
 90
     1024
280
     0
281
     0
  0
CLASS
  1
ACMDATADICTIONARY
  2
AcmDataDictionary
  3
"AcmSymBB|Product Description: AutoCAD Mechanical|Company: Autodesk, Inc."
 90
     1024
280
     0
281
     0
  0
CLASS
  1
ACMDATAENTRYBLOCK
  2
AcmDataEntryBlock
  3
AcmSymBB|Product Description: AutoCAD Mechanical|Company: Autodesk, Inc.
 90
     1024
280
     0
281
     0
  0
CLASS
  1
ACRFATTGENMGR
  2
AcRfAttGeneralMgr
  3
AcAttribServices
 90
     1024
280
     0
281
     0
  0
CLASS
  1
ACRFOBJATTMGR
  2
AcRfObjAttGroupMgr
  3
AcAttribServices
 90
     1024
280
     0
281
     0
  0
CLASS
  1
ACRFMCADAPIATTHOLDER
  2
AcRfMCADAPIAttHolder
  3
AcAttribServices
 90
     1024
280
     0
281
     0
  0
CLASS
  1
AMDTSYSATTR
  2
AmdtSystemAttribute
  3
AcAttribServices
 90
     1024
280
     0
281
     0
  0
CLASS
  1
CATALOGSTATE
  2
AcAmCatalogState
  3
DesignerAssemblies
 90
     1024
280
     0
281
     0
  0
CLASS
  1
ACAMGRCOMPDEFSET
  2
AcAmGrCompDefSet
  3
DesignerAssemblies
 90
     1024
280
     0
281
     0
  0
CLASS
  1
AMDTBROWSERDBTAB
  2
AmdtBrowserDbTab
  3
McadcomServices
 90
     1024
280
     0
281
     0
  0
CLASS
  1
CBROWSERAPPOBJECT
  2
CBrowserAppObject
  3
McadcomServices
 90
     1024
280
     0
281
     0
  0
CLASS
  1
DM_PLACEHOLDER
  2
AcDmSelsetPlaceholder
  3
AcMechDwgViewMgmt
 90
     1024
280
     0
281
     0
  0
CLASS
  1
ACMSTANDARDANSI
  2
AcmStandardANSI
  3
"Amdt_StdImp|Product Description: AutoCAD Mechanical|Company: Autodesk, Inc."
 90
     1024
280
     0
281
     0
  0
CLASS
  1
ACMSURFSTANDARDANSI
  2
AcmSurfTextStdANSI
  3
"Amdt_StdImp|Product Description: AutoCAD Mechanical|Company: Autodesk, Inc."
 90
     1024
280
     0
281
     0
  0
CLASS
  1
ACMFCFSTANDARDANSI
  2
AcmFCFStdANSI
  3
"Amdt_StdImp|Product Description: AutoCAD Mechanical|Company: Autodesk, Inc."
 90
     1024
280
     0
281
     0
  0
CLASS
  1
ACMWELDSTANDARDANSI
  2
AcmWeldingStdANSI
  3
"Amdt_StdImp|Product Description: AutoCAD Mechanical|Company: Autodesk, Inc."
 90
     1024
280
     0
281
     0
  0
CLASS
  1
ACMIDSTANDARDANSI
  2
AcmIdStdANSI
  3
"Amdt_StdImp|Product Description: AutoCAD Mechanical|Company: Autodesk, Inc."
 90
     1024
280
     0
281
     0
  0
CLASS
  1
ACMDATUMSTANDARDANSI
  2
AcmDatumStdANSI
  3
"Amdt_StdImp|Product Description: AutoCAD Mechanical|Company: Autodesk, Inc."
 90
     1024
280
     0
281
     0
  0
CLASS
  1
ACMBOMSTANDARDANSI
  2
AcmBOMStdANSI
  3
"Amdt_StdImp|Product Description: AutoCAD Mechanical|Company: Autodesk, Inc."
 90
     1024
280
     0
281
     0
  0
CLASS
  1
ACMDETAILSTANDARDANSI
  2
AmdtDetailSymStdANSI
  3
"Amdt_StdImp|Product Description: AutoCAD Mechanical|Company: Autodesk, Inc."
 90
     1024
280
     0
281
     0
  0
CLASS
  1
ACMSECTIONSTANDARDANSI
  2
AmdtSectionSymStdANSI
  3
"Amdt_StdImp|Product Description: AutoCAD Mechanical|Company: Autodesk, Inc."
 90
     1024
280
     0
281
     0
  0
CLASS
  1
ACMCENTERLINESTANDARDANSI
  2
AmdtCenterLineStdANSI
  3
"Amdt_StdImp|Product Description: AutoCAD Mechanical|Company: Autodesk, Inc."
 90
     1024
280
     0
281
     0
  0
CLASS
  1
ACMTHREADLINESTANDARDANSI
  2
AmdtThreadLineStdANSI
  3
"Amdt_StdImp|Product Description: AutoCAD Mechanical|Company: Autodesk, Inc."
 90
     1024
280
     0
281
     0
  0
CLASS
  1
ACMNOTESTANDARDANSI
  2
AmdtNoteStdANSI
  3
"Amdt_StdImp|Product Description: AutoCAD Mechanical|Company: Autodesk, Inc."
 90
     1024
280
     0
281
     0
  0
CLASS
  1
ACMTAPERSTANDARDANSI
  2
AcmTaperStdANSI
  3
"Amdt_StdImp|Product Description: AutoCAD Mechanical|Company: Autodesk, Inc."
 90
     1024
280
     0
281
     0
  0
CLASS
  1
ACMANOOTATIONVIEWSTANDARDANSI
  2
AmdtAnViewStdANSI
  3
"Amdt_StdImp|Product Description: AutoCAD Mechanical|Company: Autodesk, Inc."
 90
     1024
280
     0
281
     0
  0
CLASS
  1
ACAMGLAYSTD
  2
AcAmgLayStd
  3
"AmgLay|Product Description: AutoCAD Mechanical|Company: Autodesk, Inc."
 90
     1024
280
     0
281
     0
  0
CLASS
  1
ACAMGDIMSTD
  2
AcAmgDimStd
  3
"AmgDim|Product Description: AutoCAD Mechanical|Company: Autodesk, Inc."
 90
     1024
280
     0
281
     0
  0
CLASS
  1
ACAMGHOLECHARTSTDANSI
  2
AcAmgHoleChartStdANSI
  3
AmgDim|Product Description: AutoCAD Mechanical|Company: Autodesk, Inc.
 90
     1024
280
     0
281
     0
  0
CLASS
  1
AMGOBJPROPCFG
  2
AmgObjPropCfg
  3
"AmgLay|Product Description: AutoCAD Mechanical|Company: Autodesk, Inc."
 90
     1025
280
     0
281
     0
  0
CLASS
  1
ACAMGTITLESTD
  2
AcAmgTitleStd
  3
"AmgTitle|Product Description: AutoCAD Mechanical|Company: Autodesk, Inc."
 90
     4095
280
     0
281
     0
  0
CLASS
  1
AMDTNOTETEMPLATEDB
  2
AmdtNoteTemplateDB
  3
AcmSymBB|Product Description: AutoCAD Mechanical|Company: Autodesk, Inc.
 90
     1024
280
     0
281
     0
  0
CLASS
  1
ACAMGFILTERDAT
  2
AcAmgFilterDat
  3
"AcadM|Product Description: AutoCAD Mechanical|Company: Autodesk, Inc."
 90
     1024
280
     0
281
     0
  0
CLASS
  1
LAYER_INDEX
  2
AcDbLayerIndex
  3
ObjectDBX Classes
 90
        0
280
     0
281
     0
  0
CLASS
  1
IDBUFFER
  2
AcDbIdBuffer
  3
ObjectDBX Classes
 90
        0
280
     0
281
     0
  0
CLASS
  1
DICTIONARYVAR
  2
AcDbDictionaryVar
  3
ObjectDBX Classes
 90
        0
280
     0
281
     0
  0
CLASS
  1
CELLSTYLEMAP
  2
AcDbCellStyleMap
  3
ObjectDBX Classes
 90
     1152
280
     0
281
     0
  0
CLASS
  1
ACDBPLACEHOLDER
  2
AcDbPlaceHolder
  3
ObjectDBX Classes
 90
        0
280
     0
281
     0
  0
CLASS
  1
LAYOUT
  2
AcDbLayout
  3
ObjectDBX Classes
 90
        0
280
     0
281
     0
  0
ENDSEC
  0
SECTION
  2
TABLES
  0
TABLE
  2
VPORT
  5
246B
330
0
100
AcDbSymbolTable
 70
     1
  0
VPORT
  5
24DB
330
246B
100
AcDbSymbolTableRecord
100
AcDbViewportTableRecord
  2
*ACTIVE
 70
     0
 10
0.0
 20
0.0
 11
1.0
 21
1.0
 12
-763.3001991885596
 22
99.99818042990098
 13
0.0
 23
0.0
 14
1.0
 24
1.0
 15
0.0
 25
0.0
 16
0.0
 26
0.0
 36
1.0
 17
848.2725947094161
 27
29.13696133525673
 37
0.0
 40
1085.702118190133
 41
1.712555066079295
 42
50.0
 43
0.0
 44
0.0
 50
0.0
 51
0.0
 71
     0
 72
   100
 73
     1
 74
     0
 75
     0
 76
     0
 77
     0
 78
     0
281
     0
 65
     0
110
0.0
120
0.0
130
0.0
111
1.0
121
0.0
131
0.0
112
0.0
122
1.0
132
0.0
 79
     0
146
0.0
  0
ENDTAB
  0
TABLE
  2
LTYPE
  5
2468
330
0
100
AcDbSymbolTable
 70
    19
  0
LTYPE
  5
24C5
330
2468
100
AcDbSymbolTableRecord
100
AcDbLinetypeTableRecord
  2
ByBlock
 70
     0
  3

 72
    65
 73
     0
 40
0.0
  0
LTYPE
  5
24C6
330
2468
100
AcDbSymbolTableRecord
100
AcDbLinetypeTableRecord
  2
ByLayer
 70
     0
  3

 72
    65
 73
     0
 40
0.0
  0
LTYPE
  5
24C7
330
2468
100
AcDbSymbolTableRecord
100
AcDbLinetypeTableRecord
  2
CONTINUOUS
 70
     0
  3
実線
 72
    65
 73
     0
 40
0.0
  0
LTYPE
  5
24DC
330
2468
100
AcDbSymbolTableRecord
100
AcDbLinetypeTableRecord
  2
DASHDOT
 70
     0
  3
____ _ ____ _ ____ _ ____ _ ____ _ ____ _ ____
 72
    65
 73
     4
 40
5.5
 49
4.0
 74
     0
 49
-0.6
 74
     0
 49
0.3
 74
     0
 49
-0.6
 74
     0
  0
LTYPE
  5
24DD
330
2468
100
AcDbSymbolTableRecord
100
AcDbLinetypeTableRecord
  2
HIDDEN
 70
     0
  3
Hidden __ __ __ __ __ __ __ __ __ __ __ __ __ _
 72
    65
 73
     2
 40
0.375
 49
0.25
 74
     0
 49
-0.125
 74
     0
  0
LTYPE
  5
24DE
330
2468
100
AcDbSymbolTableRecord
100
AcDbLinetypeTableRecord
  2
PHANTOM2
 70
     0
  3
Phantom (.5x) ___ _ _ ___ _ _ ___ _ _ ___ _ _
 72
    65
 73
     6
 40
1.25
 49
0.625
 74
     0
 49
-0.125
 74
     0
 49
0.125
 74
     0
 49
-0.125
 74
     0
 49
0.125
 74
     0
 49
-0.125
 74
     0
  0
LTYPE
  5
24DF
330
2468
100
AcDbSymbolTableRecord
100
AcDbLinetypeTableRecord
  2
CENTER
 70
     0
  3
Center ____ _ ____ _ ____ _ ____ _ ____ _ ____
 72
    65
 73
     4
 40
2.0
 49
1.25
 74
     0
 49
-0.25
 74
     0
 49
0.25
 74
     0
 49
-0.25
 74
     0
  0
LTYPE
  5
24E0
330
2468
100
AcDbSymbolTableRecord
100
AcDbLinetypeTableRecord
  2
ASULTYPE
 70
     0
  3
実線
 72
    65
 73
     2
 40
3.0
 49
2.5
 74
     0
 49
0.5
 74
     0
  0
LTYPE
  5
24E1
330
2468
100
AcDbSymbolTableRecord
100
AcDbLinetypeTableRecord
  2
ASVLTYPE
 70
     0
  3
__ __ __ __ __ __ __ __ __ __ __ __ __ __ __ __ __ __ __ __ __
 72
    65
 73
     2
 40
0.75
 49
0.5
 74
     0
 49
-0.25
 74
     0
  0
LTYPE
  5
24E2
330
2468
100
AcDbSymbolTableRecord
100
AcDbLinetypeTableRecord
  2
AM_ISO02W050
 70
     0
  3
__ __ __ __ __ __ __ __ __ __ __ __ __ __ __
 72
    65
 73
     2
 40
7.5
 49
6.0
 74
     0
 49
-1.5
 74
     0
  0
LTYPE
  5
24E3
330
2468
100
AcDbSymbolTableRecord
100
AcDbLinetypeTableRecord
  2
AM_ISO08W050
 70
     0
  3
____ . ____ . ____ . ____ . ____ . ____ . ____
 72
    65
 73
     4
 40
18.0
 49
12.0
 74
     0
 49
-1.5
 74
     0
 49
3.0
 74
     0
 49
-1.5
 74
     0
  0
LTYPE
  5
24E4
330
2468
100
AcDbSymbolTableRecord
100
AcDbLinetypeTableRecord
  2
AM_ISO09W050
 70
     0
  3
_____ . . _____ . . _____ . . ____ .. ____
 72
    65
 73
     6
 40
22.5
 49
12.0
 74
     0
 49
-1.5
 74
     0
 49
3.0
 74
     0
 49
-1.5
 74
     0
 49
3.0
 74
     0
 49
-1.5
 74
     0
  0
LTYPE
  5
24E5
330
2468
100
AcDbSymbolTableRecord
100
AcDbLinetypeTableRecord
  2
AMCONSTR
 70
     0
  3
_______________________
 72
    65
 73
     2
 40
9999.0
 49
9999.0
 74
     0
 49
0.0
 74
     0
  0
LTYPE
  5
24E6
330
2468
100
AcDbSymbolTableRecord
100
AcDbLinetypeTableRecord
  2
AM_ISO08W050X2
 70
     0
  3
__ . __ . __ . __ . __ . __
 72
    65
 73
     4
 40
9.0
 49
6.0
 74
     0
 49
-0.75
 74
     0
 49
1.5
 74
     0
 49
-0.75
 74
     0
  0
LTYPE
  5
24E7
330
2468
100
AcDbSymbolTableRecord
100
AcDbLinetypeTableRecord
  2
AM_ISO02W050X2
 70
     0
  3
 _ _ _ _ _ _ _ _ _ _ _ _
 72
    65
 73
     2
 40
3.75
 49
3.0
 74
     0
 49
-0.75
 74
     0
  0
LTYPE
  5
24E8
330
2468
100
AcDbSymbolTableRecord
100
AcDbLinetypeTableRecord
  2
AMZIGZAG
 70
     0
  3
/\/-/\/-/\/-/\/-/\/-/\/
 72
    65
 73
     2
 40
11.0001
 49
0.0001
 74
     0
 49
-11.0
 74
     0
  0
LTYPE
  5
24E9
330
2468
100
AcDbSymbolTableRecord
100
AcDbLinetypeTableRecord
  2
CENTER2
 70
     0
  3
Center (.5x) ___ _ ___ _ ___ _ ___ _ ___ _ ___
 72
    65
 73
     4
 40
1.125
 49
0.75
 74
     0
 49
-0.125
 74
     0
 49
0.125
 74
     0
 49
-0.125
 74
     0
  0
LTYPE
  5
24EA
330
2468
100
AcDbSymbolTableRecord
100
AcDbLinetypeTableRecord
  2
HIDDEN2
 70
     0
  3
Hidden (.5x) _ _ _ _ _ _ _ _ _ _ _ _ _ _ _ _ _
 72
    65
 73
     2
 40
0.1875
 49
0.125
 74
     0
 49
-0.0625
 74
     0
  0
LTYPE
  5
24EB
330
2468
100
AcDbSymbolTableRecord
100
AcDbLinetypeTableRecord
  2
AMZIGZAG2
 70
     0
  3
/\/-/\/-/\/-/\/-/\/-/\/
 72
    65
 73
     2
 40
0.4401
 49
0.0001
 74
     0
 49
-0.4400000000000003
 74
     0
  0
LTYPE
  5
24EC
330
2468
100
AcDbSymbolTableRecord
100
AcDbLinetypeTableRecord
  2
ACANSTGB
 70
     0
  3
__ . . __ . .
 72
    65
 73
     6
 40
0.35433070866
 49
0.15748031496
 74
     0
 49
-0.03937007874
 74
     0
 49
0.03937007874
 74
     0
 49
-0.03937007874
 74
     0
 49
0.03937007874
 74
     0
 49
-0.03937007874
 74
     0
  0
LTYPE
  5
24ED
330
2468
100
AcDbSymbolTableRecord
100
AcDbLinetypeTableRecord
  2
ACANSTGL
 70
     0
  3
_ _ _ _ _
 72
    65
 73
     2
 40
0.11811023622
 49
0.07874015748
 74
     0
 49
-0.03937007874
 74
     0
  0
ENDTAB
  0
TABLE
  2
LAYER
  5
2465
330
0
100
AcDbSymbolTable
 70
    12
  0
LAYER
  5
24BF
102
{ACAD_XDICTIONARY
360
26C1
102
}
330
2465
100
AcDbSymbolTableRecord
100
AcDbLayerTableRecord
  2
0
 70
     0
 62
     7
  6
CONTINUOUS
370
    -3
390
2472
  0
LAYER
  5
24EE
102
{ACAD_XDICTIONARY
360
26C3
102
}
330
2465
100
AcDbSymbolTableRecord
100
AcDbLayerTableRecord
  2
OUTLINE
 70
     0
 62
     3
  6
CONTINUOUS
370
    -3
390
2472
  0
LAYER
  5
24EF
102
{ACAD_XDICTIONARY
360
26C5
102
}
330
2465
100
AcDbSymbolTableRecord
100
AcDbLayerTableRecord
  2
SIZE
 70
     0
 62
    30
  6
CONTINUOUS
370
    -3
390
2472
  0
LAYER
  5
24F0
102
{ACAD_XDICTIONARY
360
26C7
102
}
330
2465
100
AcDbSymbolTableRecord
100
AcDbLayerTableRecord
  2
BASIS
 70
     0
 62
     6
  6
DASHDOT
370
    -3
390
2472
  0
LAYER
  5
24F1
102
{ACAD_XDICTIONARY
360
26C9
102
}
330
2465
100
AcDbSymbolTableRecord
100
AcDbLayerTableRecord
  2
DETAIL
 70
     0
 62
     5
  6
CONTINUOUS
370
    -3
390
2472
  0
LAYER
  5
24F2
102
{ACAD_XDICTIONARY
360
26CB
102
}
330
2465
100
AcDbSymbolTableRecord
100
AcDbLayerTableRecord
  2
ARRANGE
 70
     0
 62
     1
  6
CONTINUOUS
370
    -3
390
2472
  0
LAYER
  5
24F3
330
2465
100
AcDbSymbolTableRecord
100
AcDbLayerTableRecord
  2
DEFPOINTS
 70
     0
 62
     7
  6
CONTINUOUS
290
     0
370
    -3
390
2472
  0
LAYER
  5
24F4
102
{ACAD_XDICTIONARY
360
26CD
102
}
330
2465
100
AcDbSymbolTableRecord
100
AcDbLayerTableRecord
  2
ETC
 70
     0
 62
    61
  6
CONTINUOUS
370
    -3
390
2472
  0
LAYER
  5
24F5
102
{ACAD_XDICTIONARY
360
26CF
102
}
330
2465
100
AcDbSymbolTableRecord
100
AcDbLayerTableRecord
  2
FIX
 70
     0
 62
    11
  6
CONTINUOUS
370
    -3
390
2472
  0
LAYER
  5
24F6
102
{ACAD_XDICTIONARY
360
26D1
102
}
330
2465
100
AcDbSymbolTableRecord
100
AcDbLayerTableRecord
  2
NOTE
 70
     0
 62
     4
  6
CONTINUOUS
370
    -3
390
2472
  0
LAYER
  5
24F7
102
{ACAD_XDICTIONARY
360
26D3
102
}
330
2465
100
AcDbSymbolTableRecord
100
AcDbLayerTableRecord
  2
SERVICESPACE
 70
     0
 62
     2
  6
DASHDOT
370
    -3
390
2472
  0
LAYER
  5
24F8
102
{ACAD_XDICTIONARY
360
26D5
102
}
330
2465
100
AcDbSymbolTableRecord
100
AcDbLayerTableRecord
  2
SYMBOLLINE
 70
     0
 62
    15
  6
CONTINUOUS
370
    -3
390
2472
  0
ENDTAB
  0
TABLE
  2
STYLE
  5
2466
330
0
100
AcDbSymbolTable
 70
     5
  0
STYLE
  5
24C0
330
2466
100
AcDbSymbolTableRecord
100
AcDbTextStyleTableRecord
  2
STANDARD
 70
     0
 40
64.0
 41
0.9
 50
0.0
 71
     0
 42
64.0
  3
SIMPLEX.shx
  4
BIGFONT.shx
  0
STYLE
  5
24C4
330
2466
100
AcDbSymbolTableRecord
100
AcDbTextStyleTableRecord
  2
ANNOTATIVE
 70
     0
 40
0.0
 41
1.0
 50
0.0
 71
     0
 42
0.2
  3
txt
  4

1001
ACADANNOTATIVE
1000
AnnotativeData
1002
{
1070
     1
1070
     1
1002
}
  0
STYLE
  5
24F9
330
2466
100
AcDbSymbolTableRecord
100
AcDbTextStyleTableRecord
  2

 70
     1
 40
0.0
 41
1.0
 50
0.0
 71
     0
 42
64.0
  3
genltshp.shx
  4

  0
STYLE
  5
24FA
330
2466
100
AcDbSymbolTableRecord
100
AcDbTextStyleTableRecord
  2
ACANSTS
 70
     0
 40
1.0
 41
1.0
 50
0.0
 71
     0
 42
64.0
  3
romans.shx
  4
extfont.shx
  0
STYLE
  5
24FB
330
2466
100
AcDbSymbolTableRecord
100
AcDbTextStyleTableRecord
  2
ACANSGDT
 70
     0
 40
0.0
 41
1.0
 50
0.0
 71
     0
 42
64.0
  3
amgdt.shx
  4

  0
ENDTAB
  0
TABLE
  2
VIEW
  5
2469
330
0
100
AcDbSymbolTable
 70
     1
  0
VIEW
  5
24FC
330
2469
100
AcDbSymbolTableRecord
100
AcDbViewTableRecord
  2
ALL
 70
     0
 40
4282.619807999997
 10
0.0
 20
41.30990399999999
 41
5940.0
 11
0.0
 21
0.0
 31
1.0
 12
0.0
 22
0.0
 32
0.0
 42
50.0
 43
0.0
 44
0.0
 50
0.0
 71
     0
281
     0
 72
     1
110
0.0
120
0.0
130
0.0
111
1.0
121
0.0
131
0.0
112
0.0
122
1.0
132
0.0
 79
     0
146
0.0
  0
ENDTAB
  0
TABLE
  2
UCS
  5
246A
330
0
100
AcDbSymbolTable
 70
     0
  0
ENDTAB
  0
TABLE
  2
APPID
  5
246C
330
0
100
AcDbSymbolTable
 70
    27
  0
APPID
  5
24C1
330
246C
100
AcDbSymbolTableRecord
100
AcDbRegAppTableRecord
  2
ACAD
 70
     0
  0
APPID
  5
24C8
330
246C
100
AcDbSymbolTableRecord
100
AcDbRegAppTableRecord
  2
ACADANNOTATIVE
 70
     0
  0
APPID
  5
24D2
330
246C
100
AcDbSymbolTableRecord
100
AcDbRegAppTableRecord
  2
ACAD_MLEADERVER
 70
     0
  0
APPID
  5
24FD
330
246C
100
AcDbSymbolTableRecord
100
AcDbRegAppTableRecord
  2
GENIUS_GENDIM_13
 70
     0
  0
APPID
  5
24FE
330
246C
100
AcDbSymbolTableRecord
100
AcDbRegAppTableRecord
  2
GENIUS_GENDTOL_13
 70
     0
  0
APPID
  5
24FF
330
246C
100
AcDbSymbolTableRecord
100
AcDbRegAppTableRecord
  2
GENIUS_GE3DTOL_13
 70
     0
  0
APPID
  5
2500
330
246C
100
AcDbSymbolTableRecord
100
AcDbRegAppTableRecord
  2
MCAD_NO_VIS
 70
     0
  0
APPID
  5
2501
330
246C
100
AcDbSymbolTableRecord
100
AcDbRegAppTableRecord
  2
ACAD_TEMP_GRAPHIC
 70
     0
  0
APPID
  5
2502
330
246C
100
AcDbSymbolTableRecord
100
AcDbRegAppTableRecord
  2
AD_DRAW
 70
     0
  0
APPID
  5
2503
330
246C
100
AcDbSymbolTableRecord
100
AcDbRegAppTableRecord
  2
ACATTRIBSERVICES
 70
     0
  0
APPID
  5
2504
330
246C
100
AcDbSymbolTableRecord
100
AcDbRegAppTableRecord
  2
ASURF_PCURVE_APPNAME
 70
     0
  0
APPID
  5
2505
330
246C
100
AcDbSymbolTableRecord
100
AcDbRegAppTableRecord
  2
AMG_3D2D_5_0
 70
     0
  0
APPID
  5
2506
330
246C
100
AcDbSymbolTableRecord
100
AcDbRegAppTableRecord
  2
DESIGNERASSEMBLIES
 70
     0
  0
APPID
  5
2507
330
246C
100
AcDbSymbolTableRecord
100
AcDbRegAppTableRecord
  2
ACADM_DIM_EDIT
 70
     0
  0
APPID
  5
2508
330
246C
100
AcDbSymbolTableRecord
100
AcDbRegAppTableRecord
  2
AMDT_DM_ADJ
 70
     0
  0
APPID
  5
2509
330
246C
100
AcDbSymbolTableRecord
100
AcDbRegAppTableRecord
  2
ACAD_DSTYLE_DIMARC_LENGTH_
 70
     0
  0
APPID
  5
250A
330
246C
100
AcDbSymbolTableRecord
100
AcDbRegAppTableRecord
  2
ACAD_DSTYLE_DIMJOGGED_JOGA
 70
     0
  0
APPID
  5
250B
330
246C
100
AcDbSymbolTableRecord
100
AcDbRegAppTableRecord
  2
ACAD_PSEXT
 70
     0
  0
APPID
  5
250C
330
246C
100
AcDbSymbolTableRecord
100
AcDbRegAppTableRecord
  2
ACAD_EXEMPT_FROM_CAD_STANDARDS
 70
     0
  0
APPID
  5
250D
330
246C
100
AcDbSymbolTableRecord
100
AcDbRegAppTableRecord
  2
ACAD_DSTYLE_DIMJAG
 70
     0
  0
APPID
  5
250E
330
246C
100
AcDbSymbolTableRecord
100
AcDbRegAppTableRecord
  2
ACAD_DSTYLE_DIMTALN
 70
     0
  0
APPID
  5
250F
330
246C
100
AcDbSymbolTableRecord
100
AcDbRegAppTableRecord
  2
AMG_3D2D_5_00
 70
     0
  0
APPID
  5
2661
330
246C
100
AcDbSymbolTableRecord
100
AcDbRegAppTableRecord
  2
AMG_3D2D_5.0
 70
     0
  0
APPID
  5
26FE
330
246C
100
AcDbSymbolTableRecord
100
AcDbRegAppTableRecord
  2
ACAD_DSTYLE_DIMARC_LENGTH_SYMBOL
 70
     0
  0
APPID
  5
26FF
330
246C
100
AcDbSymbolTableRecord
100
AcDbRegAppTableRecord
  2
ACAD_DSTYLE_DIM_LINETYPE
 70
     0
  0
APPID
  5
2700
330
246C
100
AcDbSymbolTableRecord
100
AcDbRegAppTableRecord
  2
ACAD_DSTYLE_DIM_EXT1_LINETYPE
 70
     0
  0
APPID
  5
2701
330
246C
100
AcDbSymbolTableRecord
100
AcDbRegAppTableRecord
  2
ACAD_DSTYLE_DIM_EXT2_LINETYPE
 70
     0
  0
ENDTAB
  0
TABLE
  2
DIMSTYLE
  5
246D
330
0
100
AcDbSymbolTable
 70
    10
100
AcDbDimStyleTable
 71
     1
340
2510
  0
DIMSTYLE
105
24C2
330
246D
100
AcDbSymbolTableRecord
100
AcDbDimStyleTableRecord
  2
STANDARD
 70
     0
 41
12.0
 42
20.0
 44
20.0
 77
     1
 78
     8
140
64.0
141
0.0
147
10.0
275
     1
279
     2
284
     7
285
     7
286
     7
340
24C0
  0
DIMSTYLE
105
24C3
330
246D
100
AcDbSymbolTableRecord
100
AcDbDimStyleTableRecord
  2
ANNOTATIVE
 70
     0
275
     1
279
     2
284
     7
285
     7
286
     7
340
24C0
1001
ACADANNOTATIVE
1000
AnnotativeData
1002
{
1070
     1
1070
     1
1002
}
  0
DIMSTYLE
105
2510
330
246D
100
AcDbSymbolTableRecord
100
AcDbDimStyleTableRecord
  2
AM_ANSI
 70
     0
  4
mm
 41
0.12
 42
0.05
 43
0.5
 44
0.1
 47
0.1
 48
0.1
 78
     7
 79
     2
140
0.12
141
0.0
146
0.71
147
0.06
176
   256
177
   256
178
     2
274
     4
284
     7
340
24C0
371
    -1
372
    -1
1001
ACAD_DSTYLE_DIMARC_LENGTH_SYMBOL
1070
   379
1070
     1
1001
ACAD_DSTYLE_DIM_LINETYPE
1070
   380
1005
24C5
1001
ACAD_DSTYLE_DIM_EXT1_LINETYPE
1070
   381
1005
24C5
1001
ACAD_DSTYLE_DIM_EXT2_LINETYPE
1070
   382
1005
24C5
  0
DIMSTYLE
105
2511
330
246D
100
AcDbSymbolTableRecord
100
AcDbDimStyleTableRecord
  2
AM_ANSI$3
 70
     0
  4
mm
 41
0.12
 42
0.05
 43
0.5
 44
0.1
 47
0.1
 48
0.1
 78
     7
 79
     2
140
0.12
141
0.0
146
0.71
147
0.06
176
   256
177
   256
178
     2
274
     4
284
     7
288
     1
289
     0
340
24C0
371
    -1
372
    -1
1001
ACAD_DSTYLE_DIMARC_LENGTH_SYMBOL
1070
   379
1070
     1
1001
ACAD_DSTYLE_DIM_LINETYPE
1070
   380
1005
24C5
1001
ACAD_DSTYLE_DIM_EXT1_LINETYPE
1070
   381
1005
24C5
1001
ACAD_DSTYLE_DIM_EXT2_LINETYPE
1070
   382
1005
24C5
  0
DIMSTYLE
105
2512
330
246D
100
AcDbSymbolTableRecord
100
AcDbDimStyleTableRecord
  2
AM_ANSI$4
 70
     0
  4
mm
 41
0.12
 42
0.05
 43
0.5
 44
0.1
 47
0.1
 48
0.1
 78
     7
 79
     2
140
0.12
141
0.0
146
0.71
147
0.06
176
   256
177
   256
178
     2
274
     4
284
     7
340
24C0
371
    -1
372
    -1
1001
ACAD_DSTYLE_DIMARC_LENGTH_SYMBOL
1070
   379
1070
     1
1001
ACAD_DSTYLE_DIM_LINETYPE
1070
   380
1005
24C5
1001
ACAD_DSTYLE_DIM_EXT1_LINETYPE
1070
   381
1005
24C5
1001
ACAD_DSTYLE_DIM_EXT2_LINETYPE
1070
   382
1005
24C5
  0
DIMSTYLE
105
2513
330
246D
100
AcDbSymbolTableRecord
100
AcDbDimStyleTableRecord
  2
AM_ANSI$7
 70
     0
  4
mm
 41
0.12
 42
0.05
 43
0.5
 44
0.1
 47
0.1
 48
0.1
 78
     7
 79
     2
140
0.12
141
0.0
146
0.71
147
0.06
176
   256
177
   256
178
     2
274
     4
284
     7
340
24C0
371
    -1
372
    -1
1001
ACAD_DSTYLE_DIMARC_LENGTH_SYMBOL
1070
   379
1070
     1
1001
ACAD_DSTYLE_DIM_LINETYPE
1070
   380
1005
24C5
1001
ACAD_DSTYLE_DIM_EXT1_LINETYPE
1070
   381
1005
24C5
1001
ACAD_DSTYLE_DIM_EXT2_LINETYPE
1070
   382
1005
24C5
  0
DIMSTYLE
105
2514
330
246D
100
AcDbSymbolTableRecord
100
AcDbDimStyleTableRecord
  2
AM_ANSI$SF
 70
     0
  4
mm
 41
0.12
 42
0.05
 43
0.5
 44
0.1
 47
0.1
 48
0.1
 75
     1
 76
     1
 78
     7
 79
     2
140
0.12
141
0.0
146
0.71
147
0.06
176
   256
177
   256
178
     2
274
     4
284
     7
340
24C0
371
    -1
372
    -1
1001
ACAD_DSTYLE_DIMARC_LENGTH_SYMBOL
1070
   379
1070
     1
1001
ACAD_DSTYLE_DIM_LINETYPE
1070
   380
1005
24C5
1001
ACAD_DSTYLE_DIM_EXT1_LINETYPE
1070
   381
1005
24C5
1001
ACAD_DSTYLE_DIM_EXT2_LINETYPE
1070
   382
1005
24C5
  0
DIMSTYLE
105
2515
330
246D
100
AcDbSymbolTableRecord
100
AcDbDimStyleTableRecord
  2
AM_ANSI$SH
 70
     0
  4
mm
 41
0.12
 42
0.05
 43
0.5
 44
0.1
 47
0.1
 48
0.1
 75
     1
 76
     1
 78
     7
 79
     2
140
0.12
141
0.0
146
0.71
147
0.06
173
     1
176
   256
177
   256
178
     2
274
     4
284
     7
340
24C0
343
2535
371
    -1
372
    -1
1001
ACAD_DSTYLE_DIMARC_LENGTH_SYMBOL
1070
   379
1070
     1
1001
ACAD_DSTYLE_DIM_LINETYPE
1070
   380
1005
24C5
1001
ACAD_DSTYLE_DIM_EXT1_LINETYPE
1070
   381
1005
24C5
1001
ACAD_DSTYLE_DIM_EXT2_LINETYPE
1070
   382
1005
24C5
  0
DIMSTYLE
105
2516
330
246D
100
AcDbSymbolTableRecord
100
AcDbDimStyleTableRecord
  2
STANDARD1
 70
     0
 40
6.0
 41
2.5
 42
0.625
 43
6.0
 44
1.25
 47
1.0
 48
0.5
 77
     1
 78
     8
140
2.5
141
0.0
146
0.6
147
1.0
173
     1
275
     1
279
     2
284
     7
285
     7
286
     7
340
24C0
  0
DIMSTYLE
105
2517
330
246D
100
AcDbSymbolTableRecord
100
AcDbDimStyleTableRecord
  2
STANDARD$0
 70
     0
 41
12.0
 42
20.0
 44
20.0
 73
     0
 74
     0
 77
     1
 78
     8
140
64.0
141
0.0
147
10.0
275
     1
279
     2
284
     7
285
     7
286
     7
340
24C0
  0
ENDTAB
  0
TABLE
  2
BLOCK_RECORD
  5
2464
330
0
100
AcDbSymbolTable
 70
    97
  0
BLOCK_RECORD
  5
24D7
102
{ACAD_XDICTIONARY
360
26D7
102
}
330
2464
100
AcDbSymbolTableRecord
100
AcDbBlockTableRecord
  2
*Model_Space
340
24DA
  0
BLOCK_RECORD
  5
24D3
330
2464
100
AcDbSymbolTableRecord
100
AcDbBlockTableRecord
  2
*Paper_Space
340
24D6
  0
BLOCK_RECORD
  5
251F
330
2464
100
AcDbSymbolTableRecord
100
AcDbBlockTableRecord
  2
$MODEL_SPACE
340
0
  0
BLOCK_RECORD
  5
2521
330
2464
100
AcDbSymbolTableRecord
100
AcDbBlockTableRecord
  2
$PAPER_SPACE
340
0
  0
BLOCK_RECORD
  5
2523
330
2464
100
AcDbSymbolTableRecord
100
AcDbBlockTableRecord
  2
_ORIGIN
340
0
  0
BLOCK_RECORD
  5
2525
330
2464
100
AcDbSymbolTableRecord
100
AcDbBlockTableRecord
  2
_DOTBLANK
340
0
102
{BLKREFS
331
1299
331
129A
331
11AA
331
11AB
331
E80
331
E81
331
1123
331
1124
331
11C2
331
11C3
331
11EC
331
11ED
331
11F9
331
11FA
331
1287
331
1288
331
1417
331
1418
331
1423
331
1424
331
142F
331
1430
331
143B
331
143C
331
166E
331
166F
331
1677
331
1678
331
1680
331
1681
331
1689
331
168A
331
1696
331
1697
331
16A3
331
16A4
331
16AF
331
16B0
331
16BB
331
16BC
331
16C7
331
16C8
331
16D3
331
16D4
331
1D86
331
1D87
331
1D8F
331
1D90
331
1D98
331
1D99
331
1DA1
331
1DA2
331
1DAB
331
1DAC
331
1DB5
331
1DB6
331
1DC2
331
1DC3
331
1DCE
331
1DCF
331
1DDA
331
1DDB
331
1DE6
331
1DE7
331
1DF2
331
1DF3
331
1DFE
331
1DFF
331
1FAC
331
1FAD
331
1FB5
331
1FB6
331
1FBE
331
1FBF
331
1FC7
331
1FC8
331
1FD0
331
1FD1
331
1FD9
331
1FDA
331
20C1
331
20C2
331
20C7
331
20C8
331
20CD
331
20CE
331
20D3
331
20D4
331
20D9
331
20DA
331
20DF
331
20E0
102
}
  0
BLOCK_RECORD
  5
2527
330
2464
100
AcDbSymbolTableRecord
100
AcDbBlockTableRecord
  2
_OPEN30
340
0
102
{BLKREFS
331
2185
102
}
  0
BLOCK_RECORD
  5
2529
330
2464
100
AcDbSymbolTableRecord
100
AcDbBlockTableRecord
  2
*D5
340
0
  0
BLOCK_RECORD
  5
252B
330
2464
100
AcDbSymbolTableRecord
100
AcDbBlockTableRecord
  2
*U6
340
0
102
{BLKREFS
331
129B
102
}
  0
BLOCK_RECORD
  5
252D
330
2464
100
AcDbSymbolTableRecord
100
AcDbBlockTableRecord
  2
*D7
340
0
  0
BLOCK_RECORD
  5
252F
330
2464
100
AcDbSymbolTableRecord
100
AcDbBlockTableRecord
  2
*U8
340
0
102
{BLKREFS
331
11AC
102
}
  0
BLOCK_RECORD
  5
2531
330
2464
100
AcDbSymbolTableRecord
100
AcDbBlockTableRecord
  2
*D9
340
0
  0
BLOCK_RECORD
  5
2533
330
2464
100
AcDbSymbolTableRecord
100
AcDbBlockTableRecord
  2
*U10
340
0
102
{BLKREFS
331
E82
102
}
  0
BLOCK_RECORD
  5
2535
330
2464
100
AcDbSymbolTableRecord
100
AcDbBlockTableRecord
  2
GENAXEH
340
0
  0
BLOCK_RECORD
  5
2537
330
2464
100
AcDbSymbolTableRecord
100
AcDbBlockTableRecord
  2
*D12
340
0
  0
BLOCK_RECORD
  5
2539
330
2464
100
AcDbSymbolTableRecord
100
AcDbBlockTableRecord
  2
*U13
340
0
102
{BLKREFS
331
1125
102
}
  0
BLOCK_RECORD
  5
253B
330
2464
100
AcDbSymbolTableRecord
100
AcDbBlockTableRecord
  2
*D14
340
0
  0
BLOCK_RECORD
  5
253D
330
2464
100
AcDbSymbolTableRecord
100
AcDbBlockTableRecord
  2
*U15
340
0
102
{BLKREFS
331
11C4
102
}
  0
BLOCK_RECORD
  5
253F
330
2464
100
AcDbSymbolTableRecord
100
AcDbBlockTableRecord
  2
*D16
340
0
  0
BLOCK_RECORD
  5
2541
330
2464
100
AcDbSymbolTableRecord
100
AcDbBlockTableRecord
  2
*U17
340
0
102
{BLKREFS
331
11EE
102
}
  0
BLOCK_RECORD
  5
2543
330
2464
100
AcDbSymbolTableRecord
100
AcDbBlockTableRecord
  2
*D18
340
0
  0
BLOCK_RECORD
  5
2545
330
2464
100
AcDbSymbolTableRecord
100
AcDbBlockTableRecord
  2
*U19
340
0
102
{BLKREFS
331
11FB
102
}
  0
BLOCK_RECORD
  5
2547
330
2464
100
AcDbSymbolTableRecord
100
AcDbBlockTableRecord
  2
*D20
340
0
  0
BLOCK_RECORD
  5
2549
330
2464
100
AcDbSymbolTableRecord
100
AcDbBlockTableRecord
  2
*U21
340
0
102
{BLKREFS
331
1289
102
}
  0
BLOCK_RECORD
  5
254B
330
2464
100
AcDbSymbolTableRecord
100
AcDbBlockTableRecord
  2
*D22
340
0
  0
BLOCK_RECORD
  5
254D
330
2464
100
AcDbSymbolTableRecord
100
AcDbBlockTableRecord
  2
*U23
340
0
102
{BLKREFS
331
1419
102
}
  0
BLOCK_RECORD
  5
254F
330
2464
100
AcDbSymbolTableRecord
100
AcDbBlockTableRecord
  2
*D24
340
0
  0
BLOCK_RECORD
  5
2551
330
2464
100
AcDbSymbolTableRecord
100
AcDbBlockTableRecord
  2
*U25
340
0
102
{BLKREFS
331
1425
102
}
  0
BLOCK_RECORD
  5
2553
330
2464
100
AcDbSymbolTableRecord
100
AcDbBlockTableRecord
  2
*D26
340
0
  0
BLOCK_RECORD
  5
2555
330
2464
100
AcDbSymbolTableRecord
100
AcDbBlockTableRecord
  2
*U27
340
0
102
{BLKREFS
331
1431
102
}
  0
BLOCK_RECORD
  5
2557
330
2464
100
AcDbSymbolTableRecord
100
AcDbBlockTableRecord
  2
*D28
340
0
  0
BLOCK_RECORD
  5
2559
330
2464
100
AcDbSymbolTableRecord
100
AcDbBlockTableRecord
  2
*U29
340
0
102
{BLKREFS
331
143D
102
}
  0
BLOCK_RECORD
  5
255B
330
2464
100
AcDbSymbolTableRecord
100
AcDbBlockTableRecord
  2
*D30
340
0
  0
BLOCK_RECORD
  5
255D
330
2464
100
AcDbSymbolTableRecord
100
AcDbBlockTableRecord
  2
*U31
340
0
102
{BLKREFS
331
1670
102
}
  0
BLOCK_RECORD
  5
255F
330
2464
100
AcDbSymbolTableRecord
100
AcDbBlockTableRecord
  2
*D32
340
0
  0
BLOCK_RECORD
  5
2561
330
2464
100
AcDbSymbolTableRecord
100
AcDbBlockTableRecord
  2
*U33
340
0
102
{BLKREFS
331
1679
102
}
  0
BLOCK_RECORD
  5
2563
330
2464
100
AcDbSymbolTableRecord
100
AcDbBlockTableRecord
  2
*D34
340
0
  0
BLOCK_RECORD
  5
2565
330
2464
100
AcDbSymbolTableRecord
100
AcDbBlockTableRecord
  2
*U35
340
0
102
{BLKREFS
331
1682
102
}
  0
BLOCK_RECORD
  5
2567
330
2464
100
AcDbSymbolTableRecord
100
AcDbBlockTableRecord
  2
*D36
340
0
  0
BLOCK_RECORD
  5
2569
330
2464
100
AcDbSymbolTableRecord
100
AcDbBlockTableRecord
  2
*U37
340
0
102
{BLKREFS
331
168B
102
}
  0
BLOCK_RECORD
  5
256B
330
2464
100
AcDbSymbolTableRecord
100
AcDbBlockTableRecord
  2
*U38
340
0
  0
BLOCK_RECORD
  5
256D
330
2464
100
AcDbSymbolTableRecord
100
AcDbBlockTableRecord
  2
*D39
340
0
  0
BLOCK_RECORD
  5
256F
330
2464
100
AcDbSymbolTableRecord
100
AcDbBlockTableRecord
  2
*U40
340
0
102
{BLKREFS
331
1698
102
}
  0
BLOCK_RECORD
  5
2571
330
2464
100
AcDbSymbolTableRecord
100
AcDbBlockTableRecord
  2
*D41
340
0
  0
BLOCK_RECORD
  5
2573
330
2464
100
AcDbSymbolTableRecord
100
AcDbBlockTableRecord
  2
*U42
340
0
102
{BLKREFS
331
16A5
102
}
  0
BLOCK_RECORD
  5
2575
330
2464
100
AcDbSymbolTableRecord
100
AcDbBlockTableRecord
  2
*D43
340
0
  0
BLOCK_RECORD
  5
2577
330
2464
100
AcDbSymbolTableRecord
100
AcDbBlockTableRecord
  2
*U44
340
0
102
{BLKREFS
331
16B1
102
}
  0
BLOCK_RECORD
  5
2579
330
2464
100
AcDbSymbolTableRecord
100
AcDbBlockTableRecord
  2
*D45
340
0
  0
BLOCK_RECORD
  5
257B
330
2464
100
AcDbSymbolTableRecord
100
AcDbBlockTableRecord
  2
*U46
340
0
102
{BLKREFS
331
16BD
102
}
  0
BLOCK_RECORD
  5
257D
330
2464
100
AcDbSymbolTableRecord
100
AcDbBlockTableRecord
  2
*D47
340
0
  0
BLOCK_RECORD
  5
257F
330
2464
100
AcDbSymbolTableRecord
100
AcDbBlockTableRecord
  2
*U48
340
0
102
{BLKREFS
331
16C9
102
}
  0
BLOCK_RECORD
  5
2581
330
2464
100
AcDbSymbolTableRecord
100
AcDbBlockTableRecord
  2
*D49
340
0
  0
BLOCK_RECORD
  5
2583
330
2464
100
AcDbSymbolTableRecord
100
AcDbBlockTableRecord
  2
*U50
340
0
102
{BLKREFS
331
16D5
102
}
  0
BLOCK_RECORD
  5
2585
330
2464
100
AcDbSymbolTableRecord
100
AcDbBlockTableRecord
  2
*D51
340
0
  0
BLOCK_RECORD
  5
2587
330
2464
100
AcDbSymbolTableRecord
100
AcDbBlockTableRecord
  2
*U52
340
0
102
{BLKREFS
331
1D88
102
}
  0
BLOCK_RECORD
  5
2589
330
2464
100
AcDbSymbolTableRecord
100
AcDbBlockTableRecord
  2
*D53
340
0
  0
BLOCK_RECORD
  5
258B
330
2464
100
AcDbSymbolTableRecord
100
AcDbBlockTableRecord
  2
*U54
340
0
102
{BLKREFS
331
1D91
102
}
  0
BLOCK_RECORD
  5
258D
330
2464
100
AcDbSymbolTableRecord
100
AcDbBlockTableRecord
  2
*D55
340
0
  0
BLOCK_RECORD
  5
258F
330
2464
100
AcDbSymbolTableRecord
100
AcDbBlockTableRecord
  2
*U56
340
0
102
{BLKREFS
331
1D9A
102
}
  0
BLOCK_RECORD
  5
2591
330
2464
100
AcDbSymbolTableRecord
100
AcDbBlockTableRecord
  2
*D57
340
0
  0
BLOCK_RECORD
  5
2593
330
2464
100
AcDbSymbolTableRecord
100
AcDbBlockTableRecord
  2
*U58
340
0
102
{BLKREFS
331
1DA3
102
}
  0
BLOCK_RECORD
  5
2595
330
2464
100
AcDbSymbolTableRecord
100
AcDbBlockTableRecord
  2
*D59
340
0
  0
BLOCK_RECORD
  5
2597
330
2464
100
AcDbSymbolTableRecord
100
AcDbBlockTableRecord
  2
*U60
340
0
102
{BLKREFS
331
1DAD
102
}
  0
BLOCK_RECORD
  5
2599
330
2464
100
AcDbSymbolTableRecord
100
AcDbBlockTableRecord
  2
*D61
340
0
  0
BLOCK_RECORD
  5
259B
330
2464
100
AcDbSymbolTableRecord
100
AcDbBlockTableRecord
  2
*U62
340
0
102
{BLKREFS
331
1DB7
102
}
  0
BLOCK_RECORD
  5
259D
330
2464
100
AcDbSymbolTableRecord
100
AcDbBlockTableRecord
  2
*U63
340
0
  0
BLOCK_RECORD
  5
259F
330
2464
100
AcDbSymbolTableRecord
100
AcDbBlockTableRecord
  2
*D64
340
0
  0
BLOCK_RECORD
  5
25A1
330
2464
100
AcDbSymbolTableRecord
100
AcDbBlockTableRecord
  2
*U65
340
0
102
{BLKREFS
331
1DC4
102
}
  0
BLOCK_RECORD
  5
25A3
330
2464
100
AcDbSymbolTableRecord
100
AcDbBlockTableRecord
  2
*D66
340
0
  0
BLOCK_RECORD
  5
25A5
330
2464
100
AcDbSymbolTableRecord
100
AcDbBlockTableRecord
  2
*U67
340
0
102
{BLKREFS
331
1DD0
102
}
  0
BLOCK_RECORD
  5
25A7
330
2464
100
AcDbSymbolTableRecord
100
AcDbBlockTableRecord
  2
*D68
340
0
  0
BLOCK_RECORD
  5
25A9
330
2464
100
AcDbSymbolTableRecord
100
AcDbBlockTableRecord
  2
*U69
340
0
102
{BLKREFS
331
1DDC
102
}
  0
BLOCK_RECORD
  5
25AB
330
2464
100
AcDbSymbolTableRecord
100
AcDbBlockTableRecord
  2
*D70
340
0
  0
BLOCK_RECORD
  5
25AD
330
2464
100
AcDbSymbolTableRecord
100
AcDbBlockTableRecord
  2
*U71
340
0
102
{BLKREFS
331
1DE8
102
}
  0
BLOCK_RECORD
  5
25AF
330
2464
100
AcDbSymbolTableRecord
100
AcDbBlockTableRecord
  2
*D72
340
0
  0
BLOCK_RECORD
  5
25B1
330
2464
100
AcDbSymbolTableRecord
100
AcDbBlockTableRecord
  2
*U73
340
0
102
{BLKREFS
331
1DF4
102
}
  0
BLOCK_RECORD
  5
25B3
330
2464
100
AcDbSymbolTableRecord
100
AcDbBlockTableRecord
  2
*D74
340
0
  0
BLOCK_RECORD
  5
25B5
330
2464
100
AcDbSymbolTableRecord
100
AcDbBlockTableRecord
  2
*U75
340
0
102
{BLKREFS
331
1E00
102
}
  0
BLOCK_RECORD
  5
25B7
330
2464
100
AcDbSymbolTableRecord
100
AcDbBlockTableRecord
  2
*D76
340
0
  0
BLOCK_RECORD
  5
25B9
330
2464
100
AcDbSymbolTableRecord
100
AcDbBlockTableRecord
  2
*U77
340
0
102
{BLKREFS
331
1FAE
102
}
  0
BLOCK_RECORD
  5
25BB
330
2464
100
AcDbSymbolTableRecord
100
AcDbBlockTableRecord
  2
*D78
340
0
  0
BLOCK_RECORD
  5
25BD
330
2464
100
AcDbSymbolTableRecord
100
AcDbBlockTableRecord
  2
*U79
340
0
102
{BLKREFS
331
1FB7
102
}
  0
BLOCK_RECORD
  5
25BF
330
2464
100
AcDbSymbolTableRecord
100
AcDbBlockTableRecord
  2
*D80
340
0
  0
BLOCK_RECORD
  5
25C1
330
2464
100
AcDbSymbolTableRecord
100
AcDbBlockTableRecord
  2
*U81
340
0
102
{BLKREFS
331
1FC0
102
}
  0
BLOCK_RECORD
  5
25C3
330
2464
100
AcDbSymbolTableRecord
100
AcDbBlockTableRecord
  2
*D82
340
0
  0
BLOCK_RECORD
  5
25C5
330
2464
100
AcDbSymbolTableRecord
100
AcDbBlockTableRecord
  2
*U83
340
0
102
{BLKREFS
331
1FC9
102
}
  0
BLOCK_RECORD
  5
25C7
330
2464
100
AcDbSymbolTableRecord
100
AcDbBlockTableRecord
  2
*D84
340
0
  0
BLOCK_RECORD
  5
25C9
330
2464
100
AcDbSymbolTableRecord
100
AcDbBlockTableRecord
  2
*U85
340
0
102
{BLKREFS
331
1FD2
102
}
  0
BLOCK_RECORD
  5
25CB
330
2464
100
AcDbSymbolTableRecord
100
AcDbBlockTableRecord
  2
*D86
340
0
  0
BLOCK_RECORD
  5
25CD
330
2464
100
AcDbSymbolTableRecord
100
AcDbBlockTableRecord
  2
*U87
340
0
102
{BLKREFS
331
1FDB
102
}
  0
BLOCK_RECORD
  5
25CF
330
2464
100
AcDbSymbolTableRecord
100
AcDbBlockTableRecord
  2
*U88
340
0
102
{BLKREFS
331
1E80
102
}
  0
BLOCK_RECORD
  5
25D1
330
2464
100
AcDbSymbolTableRecord
100
AcDbBlockTableRecord
  2
*U89
340
0
102
{BLKREFS
331
1E81
102
}
  0
BLOCK_RECORD
  5
25D3
330
2464
100
AcDbSymbolTableRecord
100
AcDbBlockTableRecord
  2
*U90
340
0
  0
BLOCK_RECORD
  5
25D5
330
2464
100
AcDbSymbolTableRecord
100
AcDbBlockTableRecord
  2
*U91
340
0
  0
BLOCK_RECORD
  5
25D7
330
2464
100
AcDbSymbolTableRecord
100
AcDbBlockTableRecord
  2
*U92
340
0
  0
BLOCK_RECORD
  5
25D9
330
2464
100
AcDbSymbolTableRecord
100
AcDbBlockTableRecord
  2
*U93
340
0
  0
BLOCK_RECORD
  5
25DB
330
2464
100
AcDbSymbolTableRecord
100
AcDbBlockTableRecord
  2
*U94
340
0
  0
BLOCK_RECORD
  5
25DD
330
2464
100
AcDbSymbolTableRecord
100
AcDbBlockTableRecord
  2
*U95
340
0
  0
ENDTAB
  0
ENDSEC
  0
SECTION
  2
BLOCKS
  0
BLOCK
  5
24D8
330
24D7
100
AcDbEntity
  8
0
100
AcDbBlockBegin
  2
*Model_Space
 70
     0
 10
0.0
 20
0.0
 30
0.0
  3
*Model_Space
  1

  0
ENDBLK
  5
24D9
330
24D7
100
AcDbEntity
  8
0
100
AcDbBlockEnd
  0
BLOCK
  5
24D4
330
24D3
100
AcDbEntity
 67
     1
  8
0
100
AcDbBlockBegin
  2
*Paper_Space
 70
     0
 10
0.0
 20
0.0
 30
0.0
  3
*Paper_Space
  1

  0
ENDBLK
  5
24D5
330
24D3
100
AcDbEntity
 67
     1
  8
0
100
AcDbBlockEnd
  0
BLOCK
  5
2520
330
251F
100
AcDbEntity
  8
0
100
AcDbBlockBegin
  2
$MODEL_SPACE
 70
     0
 10
0.0
 20
0.0
 30
0.0
  3
$MODEL_SPACE
  1

  0
ENDBLK
  5
2236
330
251F
100
AcDbEntity
  8
0
100
AcDbBlockEnd
  0
BLOCK
  5
2522
330
2521
100
AcDbEntity
  8
0
100
AcDbBlockBegin
  2
$PAPER_SPACE
 70
     0
 10
0.0
 20
0.0
 30
0.0
  3
$PAPER_SPACE
  1

  0
ENDBLK
  5
2232
330
2521
100
AcDbEntity
  8
0
100
AcDbBlockEnd
  0
BLOCK
  5
2524
330
2523
100
AcDbEntity
  8
0
100
AcDbBlockBegin
  2
_ORIGIN
 70
     0
 10
0.0
 20
0.0
 30
0.0
  3
_ORIGIN
  1

  0
CIRCLE
  5
880
330
2523
100
AcDbEntity
  8
0
  6
Continuous
 62
     7
100
AcDbCircle
 10
0.0
 20
0.0
 30
0.0
 40
0.5
  0
LINE
  5
881
330
2523
100
AcDbEntity
  8
0
  6
Continuous
 62
     7
100
AcDbLine
 10
0.0
 20
0.0
 30
0.0
 11
-1.0
 21
0.0
 31
0.0
  0
ENDBLK
  5
882
330
2523
100
AcDbEntity
  8
0
100
AcDbBlockEnd
  0
BLOCK
  5
2526
330
2525
100
AcDbEntity
  8
0
 62
     1
100
AcDbBlockBegin
  2
_DOTBLANK
 70
     0
 10
0.0
 20
0.0
 30
0.0
  3
_DOTBLANK
  1

  0
CIRCLE
  5
AB3
330
2525
100
AcDbEntity
  8
0
  6
ByBlock
 62
     0
100
AcDbCircle
 10
0.0
 20
0.0
 30
0.0
 40
0.5
  0
LINE
  5
AB4
330
2525
100
AcDbEntity
  8
0
  6
ByBlock
 62
     0
100
AcDbLine
 10
-0.5
 20
0.0
 30
0.0
 11
-1.0
 21
0.0
 31
0.0
  0
ENDBLK
  5
AB6
330
2525
100
AcDbEntity
  8
0
 62
     1
100
AcDbBlockEnd
  0
BLOCK
  5
2528
330
2527
100
AcDbEntity
  8
0
 62
     1
100
AcDbBlockBegin
  2
_OPEN30
 70
     0
 10
0.0
 20
0.0
 30
0.0
  3
_OPEN30
  1

  0
LINE
  5
AB8
330
2527
100
AcDbEntity
  8
0
  6
ByBlock
 62
     0
100
AcDbLine
 10
-1.0
 20
0.26794919
 30
0.0
 11
0.0
 21
0.0
 31
0.0
  0
LINE
  5
AB9
330
2527
100
AcDbEntity
  8
0
  6
ByBlock
 62
     0
100
AcDbLine
 10
0.0
 20
0.0
 30
0.0
 11
-1.0
 21
-0.26794919
 31
0.0
  0
LINE
  5
ABA
330
2527
100
AcDbEntity
  8
0
  6
ByBlock
 62
     0
100
AcDbLine
 10
0.0
 20
0.0
 30
0.0
 11
-1.0
 21
0.0
 31
0.0
  0
ENDBLK
  5
ABC
330
2527
100
AcDbEntity
  8
0
 62
     1
100
AcDbBlockEnd
  0
BLOCK
  5
252A
330
2529
100
AcDbEntity
  8
0
100
AcDbBlockBegin
  2
*D5
 70
     1
 10
0.0
 20
0.0
 30
0.0
  3
*D5
  1

  0
LINE
  5
1296
330
2529
100
AcDbEntity
  8
SIZE
 62
     0
100
AcDbLine
 10
-134.5
 20
-320.0
 30
0.0
 11
-134.5
 21
-468.0173952306001
 31
0.0
  0
LINE
  5
1297
330
2529
100
AcDbEntity
  8
SIZE
 62
     0
100
AcDbLine
 10
134.5
 20
-320.0
 30
0.0
 11
134.5
 21
-468.0173952306001
 31
0.0
  0
LINE
  5
1298
330
2529
100
AcDbEntity
  8
SIZE
 62
     0
100
AcDbLine
 10
-122.5
 20
-448.0173952306
 30
0.0
 11
122.5
 21
-448.0173952306
 31
0.0
  0
INSERT
  5
1299
330
2529
100
AcDbEntity
  8
SIZE
 62
     0
100
AcDbBlockReference
  2
_DOTBLANK
 10
-134.5
 20
-448.0173952306
 30
0.0
 41
12.0
 42
12.0
 43
12.0
 50
180.0
  0
INSERT
  5
129A
330
2529
100
AcDbEntity
  8
SIZE
 62
     0
100
AcDbBlockReference
  2
_DOTBLANK
 10
134.5
 20
-448.0173952306
 30
0.0
 41
12.0
 42
12.0
 43
12.0
  0
INSERT
  5
129B
330
2529
100
AcDbEntity
  8
0
100
AcDbBlockReference
  2
*U6
 10
0.0
 20
0.0
 30
0.0
  0
POINT
  5
129C
330
2529
100
AcDbEntity
  8
DEFPOINTS
 62
     0
100
AcDbPoint
 10
-134.5
 20
-300.0
 30
0.0
  0
POINT
  5
129D
330
2529
100
AcDbEntity
  8
DEFPOINTS
 62
     0
100
AcDbPoint
 10
134.5
 20
-300.0
 30
0.0
  0
POINT
  5
129E
330
2529
100
AcDbEntity
  8
DEFPOINTS
 62
     0
100
AcDbPoint
 10
134.5
 20
-448.0173952306
 30
0.0
  0
ENDBLK
  5
D72
330
2529
100
AcDbEntity
  8
0
100
AcDbBlockEnd
  0
BLOCK
  5
252C
330
252B
100
AcDbEntity
  8
0
100
AcDbBlockBegin
  2
*U6
 70
     1
 10
0.0
 20
0.0
 30
0.0
  3
*U6
  1

  0
TEXT
  5
210B
330
252B
100
AcDbEntity
  8
SIZE
 62
     0
100
AcDbText
 10
-72.68571428571426
 20
-438.0173952305999
 30
0.0
 40
64.0
  1
269
 41
0.9
100
AcDbText
  0
ENDBLK
  5
210D
330
252B
100
AcDbEntity
  8
0
100
AcDbBlockEnd
  0
BLOCK
  5
252E
330
252D
100
AcDbEntity
  8
0
100
AcDbBlockBegin
  2
*D7
 70
     1
 10
0.0
 20
0.0
 30
0.0
  3
*D7
  1

  0
LINE
  5
11A7
330
252D
100
AcDbEntity
  8
SIZE
  6
Continuous
 62
     0
100
AcDbLine
 10
143.5
 20
-300.0
 30
0.0
 11
304.6432844803791
 21
-300.0
 31
0.0
  0
LINE
  5
11A8
330
252D
100
AcDbEntity
  8
SIZE
  6
Continuous
 62
     0
100
AcDbLine
 10
177.5
 20
-0.0000000000000057
 30
0.0
 11
304.6432844803792
 21
-0.0000000000000417
 31
0.0
  0
LINE
  5
11A9
330
252D
100
AcDbEntity
  8
SIZE
  6
Continuous
 62
     0
100
AcDbLine
 10
284.6432844803791
 20
-288.0000000000001
 30
0.0
 11
284.6432844803792
 21
-12.00000000000003
 31
0.0
  0
INSERT
  5
11AA
330
252D
100
AcDbEntity
  8
SIZE
  6
Continuous
 62
     0
100
AcDbBlockReference
  2
_DOTBLANK
 10
284.6432844803791
 20
-300.0
 30
0.0
 41
12.0
 42
12.0
 43
12.0
 50
270.0
  0
INSERT
  5
11AB
330
252D
100
AcDbEntity
  8
SIZE
  6
Continuous
 62
     0
100
AcDbBlockReference
  2
_DOTBLANK
 10
284.6432844803792
 20
-0.000000000000036
 30
0.0
 41
12.0
 42
12.0
 43
12.0
 50
90.0
  0
INSERT
  5
11AC
330
252D
100
AcDbEntity
  8
0
100
AcDbBlockReference
  2
*U8
 10
0.0
 20
0.0
 30
0.0
  0
POINT
  5
11AD
330
252D
100
AcDbEntity
  8
DEFPOINTS
  6
Continuous
 62
     0
100
AcDbPoint
 10
123.5
 20
-300.0
 30
0.0
  0
POINT
  5
11AE
330
252D
100
AcDbEntity
  8
DEFPOINTS
  6
Continuous
 62
     0
100
AcDbPoint
 10
157.5
 20
0.0
 30
0.0
  0
POINT
  5
11AF
330
252D
100
AcDbEntity
  8
DEFPOINTS
  6
Continuous
 62
     0
100
AcDbPoint
 10
284.6432844803792
 20
-0.000000000000036
 30
0.0
  0
ENDBLK
  5
E11
330
252D
100
AcDbEntity
  8
0
100
AcDbBlockEnd
  0
BLOCK
  5
2530
330
252F
100
AcDbEntity
  8
0
100
AcDbBlockBegin
  2
*U8
 70
     1
 10
0.0
 20
0.0
 30
0.0
  3
*U8
  1

  0
TEXT
  5
20F7
330
252F
100
AcDbEntity
  8
SIZE
 62
     0
100
AcDbText
 10
274.6432844803792
 20
-224.0571428571429
 30
0.0
 40
64.0
  1
300
 50
90.0
 41
0.9
100
AcDbText
  0
ENDBLK
  5
20F9
330
252F
100
AcDbEntity
  8
0
100
AcDbBlockEnd
  0
BLOCK
  5
2532
330
2531
100
AcDbEntity
  8
0
100
AcDbBlockBegin
  2
*D9
 70
     1
 10
0.0
 20
0.0
 30
0.0
  3
*D9
  1

  0
LINE
  5
E7D
330
2531
100
AcDbEntity
  8
SIZE
 62
     0
100
AcDbLine
 10
-139.9999999999998
 20
32.46448280219375
 30
0.0
 11
-139.9999999999998
 21
136.4516878685508
 31
0.0
  0
LINE
  5
E7E
330
2531
100
AcDbEntity
  8
SIZE
 62
     0
100
AcDbLine
 10
140.0
 20
32.46448280219375
 30
0.0
 11
140.0
 21
136.4516878685508
 31
0.0
  0
LINE
  5
E7F
330
2531
100
AcDbEntity
  8
SIZE
 62
     0
100
AcDbLine
 10
-128.0
 20
116.4516878685508
 30
0.0
 11
128.0
 21
116.4516878685508
 31
0.0
  0
INSERT
  5
E80
330
2531
100
AcDbEntity
  8
SIZE
 62
     0
100
AcDbBlockReference
  2
_DOTBLANK
 10
-139.9999999999998
 20
116.4516878685508
 30
0.0
 41
12.0
 42
12.0
 43
12.0
 50
180.0
  0
INSERT
  5
E81
330
2531
100
AcDbEntity
  8
SIZE
 62
     0
100
AcDbBlockReference
  2
_DOTBLANK
 10
140.0
 20
116.4516878685508
 30
0.0
 41
12.0
 42
12.0
 43
12.0
  0
INSERT
  5
E82
330
2531
100
AcDbEntity
  8
0
100
AcDbBlockReference
  2
*U10
 10
0.0
 20
0.0
 30
0.0
  0
POINT
  5
E83
330
2531
100
AcDbEntity
  8
DEFPOINTS
 62
     0
100
AcDbPoint
 10
-139.9999999999998
 20
12.46448280219374
 30
0.0
  0
POINT
  5
E84
330
2531
100
AcDbEntity
  8
DEFPOINTS
 62
     0
100
AcDbPoint
 10
140.0
 20
12.46448280219374
 30
0.0
  0
POINT
  5
E85
330
2531
100
AcDbEntity
  8
DEFPOINTS
 62
     0
100
AcDbPoint
 10
140.0
 20
116.4516878685508
 30
0.0
  0
ENDBLK
  5
E7C
330
2531
100
AcDbEntity
  8
0
100
AcDbBlockEnd
  0
BLOCK
  5
2534
330
2533
100
AcDbEntity
  8
0
100
AcDbBlockBegin
  2
*U10
 70
     1
 10
0.0
 20
0.0
 30
0.0
  3
*U10
  1

  0
TEXT
  5
20EE
330
2533
100
AcDbEntity
  8
SIZE
 62
     0
100
AcDbText
 10
-74.05714285714281
 20
126.4516878685508
 30
0.0
 40
64.0
  1
280
 41
0.9
100
AcDbText
  0
ENDBLK
  5
20F0
330
2533
100
AcDbEntity
  8
0
100
AcDbBlockEnd
  0
BLOCK
  5
2536
330
2535
100
AcDbEntity
  8
0
100
AcDbBlockBegin
  2
GENAXEH
 70
     0
 10
0.0
 20
0.0
 30
0.0
  3
GENAXEH
  1

  0
LINE
  5
FDB
330
2535
100
AcDbEntity
  8
0
100
AcDbLine
 10
-1.0
 20
0.0
 30
0.0
 11
1.0
 21
0.0
 31
0.0
  0
ENDBLK
  5
FDD
330
2535
100
AcDbEntity
  8
0
100
AcDbBlockEnd
  0
BLOCK
  5
2538
330
2537
100
AcDbEntity
  8
0
100
AcDbBlockBegin
  2
*D12
 70
     1
 10
0.0
 20
0.0
 30
0.0
  3
*D12
  1

  0
LINE
  5
1120
330
2537
100
AcDbEntity
  8
SIZE
 62
     0
100
AcDbLine
 10
-157.5
 20
20.0
 30
0.0
 11
-157.5
 21
245.5794621189598
 31
0.0
  0
LINE
  5
1121
330
2537
100
AcDbEntity
  8
SIZE
 62
     0
100
AcDbLine
 10
157.5
 20
20.0
 30
0.0
 11
157.5
 21
245.5794621189598
 31
0.0
  0
LINE
  5
1122
330
2537
100
AcDbEntity
  8
SIZE
 62
     0
100
AcDbLine
 10
-145.5
 20
225.5794621189598
 30
0.0
 11
145.5
 21
225.5794621189598
 31
0.0
  0
INSERT
  5
1123
330
2537
100
AcDbEntity
  8
SIZE
 62
     0
100
AcDbBlockReference
  2
_DOTBLANK
 10
-157.5
 20
225.5794621189598
 30
0.0
 41
12.0
 42
12.0
 43
12.0
 50
180.0
  0
INSERT
  5
1124
330
2537
100
AcDbEntity
  8
SIZE
 62
     0
100
AcDbBlockReference
  2
_DOTBLANK
 10
157.5
 20
225.5794621189598
 30
0.0
 41
12.0
 42
12.0
 43
12.0
  0
INSERT
  5
1125
330
2537
100
AcDbEntity
  8
0
100
AcDbBlockReference
  2
*U13
 10
0.0
 20
0.0
 30
0.0
  0
POINT
  5
1126
330
2537
100
AcDbEntity
  8
DEFPOINTS
 62
     0
100
AcDbPoint
 10
-157.5
 20
0.0
 30
0.0
  0
POINT
  5
1127
330
2537
100
AcDbEntity
  8
DEFPOINTS
 62
     0
100
AcDbPoint
 10
157.5
 20
0.0
 30
0.0
  0
POINT
  5
1128
330
2537
100
AcDbEntity
  8
DEFPOINTS
 62
     0
100
AcDbPoint
 10
157.5
 20
225.5794621189598
 30
0.0
  0
ENDBLK
  5
111F
330
2537
100
AcDbEntity
  8
0
100
AcDbBlockEnd
  0
BLOCK
  5
253A
330
2539
100
AcDbEntity
  8
0
100
AcDbBlockBegin
  2
*U13
 70
     1
 10
0.0
 20
0.0
 30
0.0
  3
*U13
  1

  0
TEXT
  5
20F3
330
2539
100
AcDbEntity
  8
SIZE
 62
     0
100
AcDbText
 10
-68.57142857142857
 20
235.5794621189599
 30
0.0
 40
64.0
  1
315
 41
0.9
100
AcDbText
  0
ENDBLK
  5
20F5
330
2539
100
AcDbEntity
  8
0
100
AcDbBlockEnd
  0
BLOCK
  5
253C
330
253B
100
AcDbEntity
  8
0
100
AcDbBlockBegin
  2
*D14
 70
     1
 10
0.0
 20
0.0
 30
0.0
  3
*D14
  1

  0
LINE
  5
11BD
330
253B
100
AcDbEntity
  8
NOTE
 62
     0
100
AcDbLine
 10
-123.4999999999999
 20
-320.0
 30
0.0
 11
-123.4999999999999
 21
-354.9529861856111
 31
0.0
  0
LINE
  5
11BE
330
253B
100
AcDbEntity
  8
NOTE
 62
     0
100
AcDbLine
 10
-133.4999999999998
 20
-331.2126909923287
 30
0.0
 11
-133.4999999999998
 21
-354.9529861856111
 31
0.0
  0
LINE
  5
11BF
330
253B
100
AcDbEntity
  8
NOTE
 62
     0
100
AcDbLine
 10
-111.4999999999999
 20
-334.9529861856112
 30
0.0
 11
-99.4999999999999
 21
-334.9529861856112
 31
0.0
  0
LINE
  5
11C0
330
253B
100
AcDbEntity
  8
NOTE
 62
     0
100
AcDbLine
 10
-145.4999999999998
 20
-334.9529861856112
 30
0.0
 11
-157.4999999999998
 21
-334.9529861856112
 31
0.0
  0
LINE
  5
11C1
330
253B
100
AcDbEntity
  8
NOTE
 62
     0
100
AcDbLine
 10
-123.4999999999999
 20
-334.9529861856112
 30
0.0
 11
-133.4999999999998
 21
-334.9529861856112
 31
0.0
  0
INSERT
  5
11C2
330
253B
100
AcDbEntity
  8
NOTE
 62
     0
100
AcDbBlockReference
  2
_DOTBLANK
 10
-123.4999999999999
 20
-334.9529861856112
 30
0.0
 41
12.0
 42
12.0
 43
12.0
 50
180.0
  0
INSERT
  5
11C3
330
253B
100
AcDbEntity
  8
NOTE
 62
     0
100
AcDbBlockReference
  2
_DOTBLANK
 10
-133.4999999999998
 20
-334.9529861856112
 30
0.0
 41
12.0
 42
12.0
 43
12.0
  0
INSERT
  5
11C4
330
253B
100
AcDbEntity
  8
0
100
AcDbBlockReference
  2
*U15
 10
0.0
 20
0.0
 30
0.0
  0
POINT
  5
11C5
330
253B
100
AcDbEntity
  8
DEFPOINTS
 62
     0
100
AcDbPoint
 10
-123.4999999999999
 20
-300.0
 30
0.0
  0
POINT
  5
11C6
330
253B
100
AcDbEntity
  8
DEFPOINTS
 62
     0
100
AcDbPoint
 10
-133.4999999999998
 20
-311.2126909923287
 30
0.0
  0
POINT
  5
11C7
330
253B
100
AcDbEntity
  8
DEFPOINTS
 62
     0
100
AcDbPoint
 10
-133.4999999999998
 20
-334.9529861856112
 30
0.0
  0
ENDBLK
  5
11BC
330
253B
100
AcDbEntity
  8
0
100
AcDbBlockEnd
  0
BLOCK
  5
253E
330
253D
100
AcDbEntity
  8
0
100
AcDbBlockBegin
  2
*U15
 70
     1
 10
0.0
 20
0.0
 30
0.0
  3
*U15
  1

  0
TEXT
  5
20FB
330
253D
100
AcDbEntity
  8
NOTE
 62
     0
100
AcDbText
 10
-169.642857142857
 20
-324.9529861856112
 30
0.0
 40
64.0
  1
10
 41
0.9
100
AcDbText
  0
ENDBLK
  5
20FD
330
253D
100
AcDbEntity
  8
0
100
AcDbBlockEnd
  0
BLOCK
  5
2540
330
253F
100
AcDbEntity
  8
0
100
AcDbBlockBegin
  2
*D16
 70
     1
 10
0.0
 20
0.0
 30
0.0
  3
*D16
  1

  0
LINE
  5
11E7
330
253F
100
AcDbEntity
  8
NOTE
 62
     0
100
AcDbLine
 10
-135.5
 20
-333.2126909923287
 30
0.0
 11
-135.5
 21
-386.2569421441843
 31
0.0
  0
LINE
  5
11E8
330
253F
100
AcDbEntity
  8
NOTE
 62
     0
100
AcDbLine
 10
-123.4999999999999
 20
-320.0
 30
0.0
 11
-123.4999999999999
 21
-386.2569421441843
 31
0.0
  0
LINE
  5
11E9
330
253F
100
AcDbEntity
  8
NOTE
 62
     0
100
AcDbLine
 10
-147.5
 20
-366.2569421441844
 30
0.0
 11
-159.5
 21
-366.2569421441844
 31
0.0
  0
LINE
  5
11EA
330
253F
100
AcDbEntity
  8
NOTE
 62
     0
100
AcDbLine
 10
-111.4999999999999
 20
-366.2569421441844
 30
0.0
 11
-99.4999999999999
 21
-366.2569421441844
 31
0.0
  0
LINE
  5
11EB
330
253F
100
AcDbEntity
  8
NOTE
 62
     0
100
AcDbLine
 10
-135.5
 20
-366.2569421441844
 30
0.0
 11
-123.4999999999999
 21
-366.2569421441844
 31
0.0
  0
INSERT
  5
11EC
330
253F
100
AcDbEntity
  8
NOTE
 62
     0
100
AcDbBlockReference
  2
_DOTBLANK
 10
-135.5
 20
-366.2569421441844
 30
0.0
 41
12.0
 42
12.0
 43
12.0
  0
INSERT
  5
11ED
330
253F
100
AcDbEntity
  8
NOTE
 62
     0
100
AcDbBlockReference
  2
_DOTBLANK
 10
-123.4999999999999
 20
-366.2569421441844
 30
0.0
 41
12.0
 42
12.0
 43
12.0
 50
180.0
  0
INSERT
  5
11EE
330
253F
100
AcDbEntity
  8
0
100
AcDbBlockReference
  2
*U17
 10
0.0
 20
0.0
 30
0.0
  0
POINT
  5
11EF
330
253F
100
AcDbEntity
  8
DEFPOINTS
 62
     0
100
AcDbPoint
 10
-135.5
 20
-313.2126909923287
 30
0.0
  0
POINT
  5
11F0
330
253F
100
AcDbEntity
  8
DEFPOINTS
 62
     0
100
AcDbPoint
 10
-123.4999999999999
 20
-300.0
 30
0.0
  0
POINT
  5
11F1
330
253F
100
AcDbEntity
  8
DEFPOINTS
 62
     0
100
AcDbPoint
 10
-123.4999999999999
 20
-366.2569421441844
 30
0.0
  0
ENDBLK
  5
11E6
330
253F
100
AcDbEntity
  8
0
100
AcDbBlockEnd
  0
BLOCK
  5
2542
330
2541
100
AcDbEntity
  8
0
100
AcDbBlockBegin
  2
*U17
 70
     1
 10
0.0
 20
0.0
 30
0.0
  3
*U17
  1

  0
TEXT
  5
20FF
330
2541
100
AcDbEntity
  8
NOTE
 62
     0
100
AcDbText
 10
-170.642857142857
 20
-356.2569421441843
 30
0.0
 40
64.0
  1
12
 41
0.9
100
AcDbText
  0
ENDBLK
  5
2101
330
2541
100
AcDbEntity
  8
0
100
AcDbBlockEnd
  0
BLOCK
  5
2544
330
2543
100
AcDbEntity
  8
0
100
AcDbBlockBegin
  2
*D18
 70
     1
 10
0.0
 20
0.0
 30
0.0
  3
*D18
  1

  0
LINE
  5
11F6
330
2543
100
AcDbEntity
  8
NOTE
 62
     0
100
AcDbLine
 10
-123.4999999999999
 20
-320.0
 30
0.0
 11
-123.4999999999999
 21
-583.8286022818904
 31
0.0
  0
LINE
  5
11F7
330
2543
100
AcDbEntity
  8
NOTE
 62
     0
100
AcDbLine
 10
123.5
 20
-320.0
 30
0.0
 11
123.5
 21
-583.8286022818904
 31
0.0
  0
LINE
  5
11F8
330
2543
100
AcDbEntity
  8
NOTE
 62
     0
100
AcDbLine
 10
-111.4999999999999
 20
-563.8286022818904
 30
0.0
 11
111.5
 21
-563.8286022818904
 31
0.0
  0
INSERT
  5
11F9
330
2543
100
AcDbEntity
  8
NOTE
 62
     0
100
AcDbBlockReference
  2
_DOTBLANK
 10
-123.4999999999999
 20
-563.8286022818904
 30
0.0
 41
12.0
 42
12.0
 43
12.0
 50
180.0
  0
INSERT
  5
11FA
330
2543
100
AcDbEntity
  8
NOTE
 62
     0
100
AcDbBlockReference
  2
_DOTBLANK
 10
123.5
 20
-563.8286022818904
 30
0.0
 41
12.0
 42
12.0
 43
12.0
  0
INSERT
  5
11FB
330
2543
100
AcDbEntity
  8
0
100
AcDbBlockReference
  2
*U19
 10
0.0
 20
0.0
 30
0.0
  0
POINT
  5
11FC
330
2543
100
AcDbEntity
  8
DEFPOINTS
 62
     0
100
AcDbPoint
 10
-123.4999999999999
 20
-300.0
 30
0.0
  0
POINT
  5
11FD
330
2543
100
AcDbEntity
  8
DEFPOINTS
 62
     0
100
AcDbPoint
 10
123.5
 20
-300.0
 30
0.0
  0
POINT
  5
11FE
330
2543
100
AcDbEntity
  8
DEFPOINTS
 62
     0
100
AcDbPoint
 10
123.5
 20
-563.8286022818904
 30
0.0
  0
ENDBLK
  5
11F5
330
2543
100
AcDbEntity
  8
0
100
AcDbBlockEnd
  0
BLOCK
  5
2546
330
2545
100
AcDbEntity
  8
0
100
AcDbBlockBegin
  2
*U19
 70
     1
 10
0.0
 20
0.0
 30
0.0
  3
*U19
  1

  0
TEXT
  5
2103
330
2545
100
AcDbEntity
  8
NOTE
 62
     0
100
AcDbText
 10
-74.05714285714281
 20
-553.8286022818904
 30
0.0
 40
64.0
  1
247
 41
0.9
100
AcDbText
  0
ENDBLK
  5
2105
330
2545
100
AcDbEntity
  8
0
100
AcDbBlockEnd
  0
BLOCK
  5
2548
330
2547
100
AcDbEntity
  8
0
100
AcDbBlockBegin
  2
*D20
 70
     1
 10
0.0
 20
0.0
 30
0.0
  3
*D20
  1

  0
LINE
  5
1284
330
2547
100
AcDbEntity
  8
NOTE
 62
     0
100
AcDbLine
 10
-123.5
 20
12.0
 30
0.0
 11
-123.5
 21
71.83630134534229
 31
0.0
  0
LINE
  5
1285
330
2547
100
AcDbEntity
  8
NOTE
 62
     0
100
AcDbLine
 10
123.5
 20
12.0
 30
0.0
 11
123.5
 21
71.83630134534229
 31
0.0
  0
LINE
  5
1286
330
2547
100
AcDbEntity
  8
NOTE
 62
     0
100
AcDbLine
 10
-111.5
 20
51.83630134534229
 30
0.0
 11
111.5
 21
51.83630134534229
 31
0.0
  0
INSERT
  5
1287
330
2547
100
AcDbEntity
  8
NOTE
 62
     0
100
AcDbBlockReference
  2
_DOTBLANK
 10
-123.5
 20
51.83630134534229
 30
0.0
 41
12.0
 42
12.0
 43
12.0
 50
180.0
  0
INSERT
  5
1288
330
2547
100
AcDbEntity
  8
NOTE
 62
     0
100
AcDbBlockReference
  2
_DOTBLANK
 10
123.5
 20
51.83630134534229
 30
0.0
 41
12.0
 42
12.0
 43
12.0
  0
INSERT
  5
1289
330
2547
100
AcDbEntity
  8
0
100
AcDbBlockReference
  2
*U21
 10
0.0
 20
0.0
 30
0.0
  0
POINT
  5
128A
330
2547
100
AcDbEntity
  8
DEFPOINTS
 62
     0
100
AcDbPoint
 10
-123.5
 20
-8.0
 30
0.0
  0
POINT
  5
128B
330
2547
100
AcDbEntity
  8
DEFPOINTS
 62
     0
100
AcDbPoint
 10
123.5
 20
-8.0
 30
0.0
  0
POINT
  5
128C
330
2547
100
AcDbEntity
  8
DEFPOINTS
 62
     0
100
AcDbPoint
 10
123.5
 20
51.83630134534229
 30
0.0
  0
ENDBLK
  5
1283
330
2547
100
AcDbEntity
  8
0
100
AcDbBlockEnd
  0
BLOCK
  5
254A
330
2549
100
AcDbEntity
  8
0
100
AcDbBlockBegin
  2
*U21
 70
     1
 10
0.0
 20
0.0
 30
0.0
  3
*U21
  1

  0
TEXT
  5
2107
330
2549
100
AcDbEntity
  8
NOTE
 62
     0
100
AcDbText
 10
-74.05714285714283
 20
61.83630134534229
 30
0.0
 40
64.0
  1
247
 41
0.9
100
AcDbText
  0
ENDBLK
  5
2109
330
2549
100
AcDbEntity
  8
0
100
AcDbBlockEnd
  0
BLOCK
  5
254C
330
254B
100
AcDbEntity
  8
0
100
AcDbBlockBegin
  2
*D22
 70
     1
 10
0.0
 20
0.0
 30
0.0
  3
*D22
  1

  0
LINE
  5
1414
330
254B
100
AcDbEntity
  8
SIZE
 62
     0
100
AcDbLine
 10
-22313.11521613997
 20
7365.702971374808
 30
0.0
 11
-22313.11521613997
 21
7217.685576144207
 31
0.0
  0
LINE
  5
1415
330
254B
100
AcDbEntity
  8
SIZE
 62
     0
100
AcDbLine
 10
-22044.11521613997
 20
7365.702971374808
 30
0.0
 11
-22044.11521613997
 21
7217.685576144207
 31
0.0
  0
LINE
  5
1416
330
254B
100
AcDbEntity
  8
SIZE
 62
     0
100
AcDbLine
 10
-22301.11521613997
 20
7237.685576144207
 30
0.0
 11
-22056.11521613997
 21
7237.685576144207
 31
0.0
  0
INSERT
  5
1417
330
254B
100
AcDbEntity
  8
SIZE
 62
     0
100
AcDbBlockReference
  2
_DOTBLANK
 10
-22313.11521613997
 20
7237.685576144207
 30
0.0
 41
12.0
 42
12.0
 43
12.0
 50
180.0
  0
INSERT
  5
1418
330
254B
100
AcDbEntity
  8
SIZE
 62
     0
100
AcDbBlockReference
  2
_DOTBLANK
 10
-22044.11521613997
 20
7237.685576144207
 30
0.0
 41
12.0
 42
12.0
 43
12.0
  0
INSERT
  5
1419
330
254B
100
AcDbEntity
  8
0
100
AcDbBlockReference
  2
*U23
 10
0.0
 20
0.0
 30
0.0
  0
POINT
  5
141A
330
254B
100
AcDbEntity
  8
DEFPOINTS
 62
     0
100
AcDbPoint
 10
-22313.11521613997
 20
7385.702971374808
 30
0.0
  0
POINT
  5
141B
330
254B
100
AcDbEntity
  8
DEFPOINTS
 62
     0
100
AcDbPoint
 10
-22044.11521613997
 20
7385.702971374808
 30
0.0
  0
POINT
  5
141C
330
254B
100
AcDbEntity
  8
DEFPOINTS
 62
     0
100
AcDbPoint
 10
-22044.11521613997
 20
7237.685576144207
 30
0.0
  0
ENDBLK
  5
141D
330
254B
100
AcDbEntity
  8
0
100
AcDbBlockEnd
  0
BLOCK
  5
254E
330
254D
100
AcDbEntity
  8
0
100
AcDbBlockBegin
  2
*U23
 70
     1
 10
0.0
 20
0.0
 30
0.0
  3
*U23
  1

  0
TEXT
  5
210F
330
254D
100
AcDbEntity
  8
SIZE
 62
     0
100
AcDbText
 10
-22251.30093042568
 20
7247.685576144205
 30
0.0
 40
64.0
  1
269
 41
0.9
100
AcDbText
  0
ENDBLK
  5
2111
330
254D
100
AcDbEntity
  8
0
100
AcDbBlockEnd
  0
BLOCK
  5
2550
330
254F
100
AcDbEntity
  8
0
100
AcDbBlockBegin
  2
*D24
 70
     1
 10
0.0
 20
0.0
 30
0.0
  3
*D24
  1

  0
LINE
  5
1420
330
254F
100
AcDbEntity
  8
SIZE
  6
Continuous
 62
     0
100
AcDbLine
 10
-22035.11521613997
 20
7385.702971374808
 30
0.0
 11
-21873.97193165959
 21
7385.702971374808
 31
0.0
  0
LINE
  5
1421
330
254F
100
AcDbEntity
  8
SIZE
  6
Continuous
 62
     0
100
AcDbLine
 10
-22001.11521613997
 20
7685.702971374808
 30
0.0
 11
-21873.97193165959
 21
7685.702971374808
 31
0.0
  0
LINE
  5
1422
330
254F
100
AcDbEntity
  8
SIZE
  6
Continuous
 62
     0
100
AcDbLine
 10
-21893.97193165959
 20
7397.702971374808
 30
0.0
 11
-21893.97193165959
 21
7673.702971374808
 31
0.0
  0
INSERT
  5
1423
330
254F
100
AcDbEntity
  8
SIZE
  6
Continuous
 62
     0
100
AcDbBlockReference
  2
_DOTBLANK
 10
-21893.97193165959
 20
7385.702971374808
 30
0.0
 41
12.0
 42
12.0
 43
12.0
 50
270.0
  0
INSERT
  5
1424
330
254F
100
AcDbEntity
  8
SIZE
  6
Continuous
 62
     0
100
AcDbBlockReference
  2
_DOTBLANK
 10
-21893.97193165959
 20
7685.702971374808
 30
0.0
 41
12.0
 42
12.0
 43
12.0
 50
90.0
  0
INSERT
  5
1425
330
254F
100
AcDbEntity
  8
0
100
AcDbBlockReference
  2
*U25
 10
0.0
 20
0.0
 30
0.0
  0
POINT
  5
1426
330
254F
100
AcDbEntity
  8
DEFPOINTS
  6
Continuous
 62
     0
100
AcDbPoint
 10
-22055.11521613997
 20
7385.702971374808
 30
0.0
  0
POINT
  5
1427
330
254F
100
AcDbEntity
  8
DEFPOINTS
  6
Continuous
 62
     0
100
AcDbPoint
 10
-22021.11521613997
 20
7685.702971374808
 30
0.0
  0
POINT
  5
1428
330
254F
100
AcDbEntity
  8
DEFPOINTS
  6
Continuous
 62
     0
100
AcDbPoint
 10
-21893.97193165959
 20
7685.702971374808
 30
0.0
  0
ENDBLK
  5
1429
330
254F
100
AcDbEntity
  8
0
100
AcDbBlockEnd
  0
BLOCK
  5
2552
330
2551
100
AcDbEntity
  8
0
100
AcDbBlockBegin
  2
*U25
 70
     1
 10
0.0
 20
0.0
 30
0.0
  3
*U25
  1

  0
TEXT
  5
2113
330
2551
100
AcDbEntity
  8
SIZE
 62
     0
100
AcDbText
 10
-21903.97193165959
 20
7461.645828517662
 30
0.0
 40
64.0
  1
300
 50
90.0
 41
0.9
100
AcDbText
  0
ENDBLK
  5
2115
330
2551
100
AcDbEntity
  8
0
100
AcDbBlockEnd
  0
BLOCK
  5
2554
330
2553
100
AcDbEntity
  8
0
100
AcDbBlockBegin
  2
*D26
 70
     1
 10
0.0
 20
0.0
 30
0.0
  3
*D26
  1

  0
LINE
  5
142C
330
2553
100
AcDbEntity
  8
SIZE
 62
     0
100
AcDbLine
 10
-22318.61521613997
 20
7718.167454177002
 30
0.0
 11
-22318.61521613997
 21
7822.154659243358
 31
0.0
  0
LINE
  5
142D
330
2553
100
AcDbEntity
  8
SIZE
 62
     0
100
AcDbLine
 10
-22038.61521613997
 20
7718.167454177002
 30
0.0
 11
-22038.61521613997
 21
7822.154659243358
 31
0.0
  0
LINE
  5
142E
330
2553
100
AcDbEntity
  8
SIZE
 62
     0
100
AcDbLine
 10
-22306.61521613997
 20
7802.154659243358
 30
0.0
 11
-22050.61521613997
 21
7802.154659243358
 31
0.0
  0
INSERT
  5
142F
330
2553
100
AcDbEntity
  8
SIZE
 62
     0
100
AcDbBlockReference
  2
_DOTBLANK
 10
-22318.61521613997
 20
7802.154659243358
 30
0.0
 41
12.0
 42
12.0
 43
12.0
 50
180.0
  0
INSERT
  5
1430
330
2553
100
AcDbEntity
  8
SIZE
 62
     0
100
AcDbBlockReference
  2
_DOTBLANK
 10
-22038.61521613997
 20
7802.154659243358
 30
0.0
 41
12.0
 42
12.0
 43
12.0
  0
INSERT
  5
1431
330
2553
100
AcDbEntity
  8
0
100
AcDbBlockReference
  2
*U27
 10
0.0
 20
0.0
 30
0.0
  0
POINT
  5
1432
330
2553
100
AcDbEntity
  8
DEFPOINTS
 62
     0
100
AcDbPoint
 10
-22318.61521613997
 20
7698.167454177002
 30
0.0
  0
POINT
  5
1433
330
2553
100
AcDbEntity
  8
DEFPOINTS
 62
     0
100
AcDbPoint
 10
-22038.61521613997
 20
7698.167454177002
 30
0.0
  0
POINT
  5
1434
330
2553
100
AcDbEntity
  8
DEFPOINTS
 62
     0
100
AcDbPoint
 10
-22038.61521613997
 20
7802.154659243358
 30
0.0
  0
ENDBLK
  5
1435
330
2553
100
AcDbEntity
  8
0
100
AcDbBlockEnd
  0
BLOCK
  5
2556
330
2555
100
AcDbEntity
  8
0
100
AcDbBlockBegin
  2
*U27
 70
     1
 10
0.0
 20
0.0
 30
0.0
  3
*U27
  1

  0
TEXT
  5
2117
330
2555
100
AcDbEntity
  8
SIZE
 62
     0
100
AcDbText
 10
-22252.6723589971
 20
7812.154659243358
 30
0.0
 40
64.0
  1
280
 41
0.9
100
AcDbText
  0
ENDBLK
  5
2119
330
2555
100
AcDbEntity
  8
0
100
AcDbBlockEnd
  0
BLOCK
  5
2558
330
2557
100
AcDbEntity
  8
0
100
AcDbBlockBegin
  2
*D28
 70
     1
 10
0.0
 20
0.0
 30
0.0
  3
*D28
  1

  0
LINE
  5
1438
330
2557
100
AcDbEntity
  8
SIZE
 62
     0
100
AcDbLine
 10
-22336.11521613997
 20
7705.702971374808
 30
0.0
 11
-22336.11521613997
 21
7931.282433493766
 31
0.0
  0
LINE
  5
1439
330
2557
100
AcDbEntity
  8
SIZE
 62
     0
100
AcDbLine
 10
-22021.11521613997
 20
7705.702971374808
 30
0.0
 11
-22021.11521613997
 21
7931.282433493766
 31
0.0
  0
LINE
  5
143A
330
2557
100
AcDbEntity
  8
SIZE
 62
     0
100
AcDbLine
 10
-22324.11521613997
 20
7911.282433493766
 30
0.0
 11
-22033.11521613997
 21
7911.282433493766
 31
0.0
  0
INSERT
  5
143B
330
2557
100
AcDbEntity
  8
SIZE
 62
     0
100
AcDbBlockReference
  2
_DOTBLANK
 10
-22336.11521613997
 20
7911.282433493766
 30
0.0
 41
12.0
 42
12.0
 43
12.0
 50
180.0
  0
INSERT
  5
143C
330
2557
100
AcDbEntity
  8
SIZE
 62
     0
100
AcDbBlockReference
  2
_DOTBLANK
 10
-22021.11521613997
 20
7911.282433493766
 30
0.0
 41
12.0
 42
12.0
 43
12.0
  0
INSERT
  5
143D
330
2557
100
AcDbEntity
  8
0
100
AcDbBlockReference
  2
*U29
 10
0.0
 20
0.0
 30
0.0
  0
POINT
  5
143E
330
2557
100
AcDbEntity
  8
DEFPOINTS
 62
     0
100
AcDbPoint
 10
-22336.11521613997
 20
7685.702971374808
 30
0.0
  0
POINT
  5
143F
330
2557
100
AcDbEntity
  8
DEFPOINTS
 62
     0
100
AcDbPoint
 10
-22021.11521613997
 20
7685.702971374808
 30
0.0
  0
POINT
  5
1440
330
2557
100
AcDbEntity
  8
DEFPOINTS
 62
     0
100
AcDbPoint
 10
-22021.11521613997
 20
7911.282433493766
 30
0.0
  0
ENDBLK
  5
1441
330
2557
100
AcDbEntity
  8
0
100
AcDbBlockEnd
  0
BLOCK
  5
255A
330
2559
100
AcDbEntity
  8
0
100
AcDbBlockBegin
  2
*U29
 70
     1
 10
0.0
 20
0.0
 30
0.0
  3
*U29
  1

  0
TEXT
  5
211B
330
2559
100
AcDbEntity
  8
SIZE
 62
     0
100
AcDbText
 10
-22247.18664471139
 20
7921.282433493766
 30
0.0
 40
64.0
  1
315
 41
0.9
100
AcDbText
  0
ENDBLK
  5
211D
330
2559
100
AcDbEntity
  8
0
100
AcDbBlockEnd
  0
BLOCK
  5
255C
330
255B
100
AcDbEntity
  8
0
100
AcDbBlockBegin
  2
*D30
 70
     1
 10
0.0
 20
0.0
 30
0.0
  3
*D30
  1

  0
LINE
  5
166B
330
255B
100
AcDbEntity
  8
SIZE
 62
     0
100
AcDbLine
 10
-134.5
 20
-320.0
 30
0.0
 11
-134.5
 21
-468.0173952306001
 31
0.0
  0
LINE
  5
166C
330
255B
100
AcDbEntity
  8
SIZE
 62
     0
100
AcDbLine
 10
134.5
 20
-320.0
 30
0.0
 11
134.5
 21
-468.0173952306001
 31
0.0
  0
LINE
  5
166D
330
255B
100
AcDbEntity
  8
SIZE
 62
     0
100
AcDbLine
 10
-122.5
 20
-448.0173952306
 30
0.0
 11
122.5
 21
-448.0173952306
 31
0.0
  0
INSERT
  5
166E
330
255B
100
AcDbEntity
  8
SIZE
 62
     0
100
AcDbBlockReference
  2
_DOTBLANK
 10
-134.5
 20
-448.0173952306
 30
0.0
 41
12.0
 42
12.0
 43
12.0
 50
180.0
  0
INSERT
  5
166F
330
255B
100
AcDbEntity
  8
SIZE
 62
     0
100
AcDbBlockReference
  2
_DOTBLANK
 10
134.5
 20
-448.0173952306
 30
0.0
 41
12.0
 42
12.0
 43
12.0
  0
INSERT
  5
1670
330
255B
100
AcDbEntity
  8
0
100
AcDbBlockReference
  2
*U31
 10
0.0
 20
0.0
 30
0.0
  0
POINT
  5
1671
330
255B
100
AcDbEntity
  8
DEFPOINTS
 62
     0
100
AcDbPoint
 10
-134.5
 20
-300.0
 30
0.0
  0
POINT
  5
1672
330
255B
100
AcDbEntity
  8
DEFPOINTS
 62
     0
100
AcDbPoint
 10
134.5
 20
-300.0
 30
0.0
  0
POINT
  5
1673
330
255B
100
AcDbEntity
  8
DEFPOINTS
 62
     0
100
AcDbPoint
 10
134.5
 20
-448.0173952306
 30
0.0
  0
ENDBLK
  5
14A7
330
255B
100
AcDbEntity
  8
0
100
AcDbBlockEnd
  0
BLOCK
  5
255E
330
255D
100
AcDbEntity
  8
0
100
AcDbBlockBegin
  2
*U31
 70
     1
 10
0.0
 20
0.0
 30
0.0
  3
*U31
  1

  0
TEXT
  5
211F
330
255D
100
AcDbEntity
  8
SIZE
 62
     0
100
AcDbText
 10
-72.68571428571426
 20
-438.0173952306002
 30
0.0
 40
64.0
  1
269
 41
0.9
100
AcDbText
  0
ENDBLK
  5
2121
330
255D
100
AcDbEntity
  8
0
100
AcDbBlockEnd
  0
BLOCK
  5
2560
330
255F
100
AcDbEntity
  8
0
100
AcDbBlockBegin
  2
*D32
 70
     1
 10
0.0
 20
0.0
 30
0.0
  3
*D32
  1

  0
LINE
  5
1674
330
255F
100
AcDbEntity
  8
SIZE
  6
Continuous
 62
     0
100
AcDbLine
 10
143.5
 20
-300.0
 30
0.0
 11
304.6432844803784
 21
-300.0
 31
0.0
  0
LINE
  5
1675
330
255F
100
AcDbEntity
  8
SIZE
  6
Continuous
 62
     0
100
AcDbLine
 10
177.5
 20
-0.0000000000000057
 30
0.0
 11
304.6432844803785
 21
-0.0000000000000417
 31
0.0
  0
LINE
  5
1676
330
255F
100
AcDbEntity
  8
SIZE
  6
Continuous
 62
     0
100
AcDbLine
 10
284.6432844803784
 20
-288.0000000000001
 30
0.0
 11
284.6432844803785
 21
-12.00000000000003
 31
0.0
  0
INSERT
  5
1677
330
255F
100
AcDbEntity
  8
SIZE
  6
Continuous
 62
     0
100
AcDbBlockReference
  2
_DOTBLANK
 10
284.6432844803784
 20
-300.0
 30
0.0
 41
12.0
 42
12.0
 43
12.0
 50
270.0
  0
INSERT
  5
1678
330
255F
100
AcDbEntity
  8
SIZE
  6
Continuous
 62
     0
100
AcDbBlockReference
  2
_DOTBLANK
 10
284.6432844803785
 20
-0.000000000000036
 30
0.0
 41
12.0
 42
12.0
 43
12.0
 50
90.0
  0
INSERT
  5
1679
330
255F
100
AcDbEntity
  8
0
100
AcDbBlockReference
  2
*U33
 10
0.0
 20
0.0
 30
0.0
  0
POINT
  5
167A
330
255F
100
AcDbEntity
  8
DEFPOINTS
  6
Continuous
 62
     0
100
AcDbPoint
 10
123.5
 20
-300.0
 30
0.0
  0
POINT
  5
167B
330
255F
100
AcDbEntity
  8
DEFPOINTS
  6
Continuous
 62
     0
100
AcDbPoint
 10
157.5
 20
0.0
 30
0.0
  0
POINT
  5
167C
330
255F
100
AcDbEntity
  8
DEFPOINTS
  6
Continuous
 62
     0
100
AcDbPoint
 10
284.6432844803785
 20
-0.000000000000036
 30
0.0
  0
ENDBLK
  5
14B3
330
255F
100
AcDbEntity
  8
0
100
AcDbBlockEnd
  0
BLOCK
  5
2562
330
2561
100
AcDbEntity
  8
0
100
AcDbBlockBegin
  2
*U33
 70
     1
 10
0.0
 20
0.0
 30
0.0
  3
*U33
  1

  0
TEXT
  5
2123
330
2561
100
AcDbEntity
  8
SIZE
 62
     0
100
AcDbText
 10
274.6432844803785
 20
-224.0571428571429
 30
0.0
 40
64.0
  1
300
 50
90.0
 41
0.9
100
AcDbText
  0
ENDBLK
  5
2125
330
2561
100
AcDbEntity
  8
0
100
AcDbBlockEnd
  0
BLOCK
  5
2564
330
2563
100
AcDbEntity
  8
0
100
AcDbBlockBegin
  2
*D34
 70
     1
 10
0.0
 20
0.0
 30
0.0
  3
*D34
  1

  0
LINE
  5
167D
330
2563
100
AcDbEntity
  8
SIZE
 62
     0
100
AcDbLine
 10
-140.0
 20
32.46448280219375
 30
0.0
 11
-140.0
 21
136.4516878685507
 31
0.0
  0
LINE
  5
167E
330
2563
100
AcDbEntity
  8
SIZE
 62
     0
100
AcDbLine
 10
140.0
 20
32.46448280219375
 30
0.0
 11
140.0
 21
136.4516878685507
 31
0.0
  0
LINE
  5
167F
330
2563
100
AcDbEntity
  8
SIZE
 62
     0
100
AcDbLine
 10
-128.0
 20
116.4516878685508
 30
0.0
 11
128.0
 21
116.4516878685508
 31
0.0
  0
INSERT
  5
1680
330
2563
100
AcDbEntity
  8
SIZE
 62
     0
100
AcDbBlockReference
  2
_DOTBLANK
 10
-140.0
 20
116.4516878685508
 30
0.0
 41
12.0
 42
12.0
 43
12.0
 50
180.0
  0
INSERT
  5
1681
330
2563
100
AcDbEntity
  8
SIZE
 62
     0
100
AcDbBlockReference
  2
_DOTBLANK
 10
140.0
 20
116.4516878685508
 30
0.0
 41
12.0
 42
12.0
 43
12.0
  0
INSERT
  5
1682
330
2563
100
AcDbEntity
  8
0
100
AcDbBlockReference
  2
*U35
 10
0.0
 20
0.0
 30
0.0
  0
POINT
  5
1683
330
2563
100
AcDbEntity
  8
DEFPOINTS
 62
     0
100
AcDbPoint
 10
-140.0
 20
12.46448280219374
 30
0.0
  0
POINT
  5
1684
330
2563
100
AcDbEntity
  8
DEFPOINTS
 62
     0
100
AcDbPoint
 10
140.0
 20
12.46448280219374
 30
0.0
  0
POINT
  5
1685
330
2563
100
AcDbEntity
  8
DEFPOINTS
 62
     0
100
AcDbPoint
 10
140.0
 20
116.4516878685508
 30
0.0
  0
ENDBLK
  5
14BF
330
2563
100
AcDbEntity
  8
0
100
AcDbBlockEnd
  0
BLOCK
  5
2566
330
2565
100
AcDbEntity
  8
0
100
AcDbBlockBegin
  2
*U35
 70
     1
 10
0.0
 20
0.0
 30
0.0
  3
*U35
  1

  0
TEXT
  5
2127
330
2565
100
AcDbEntity
  8
SIZE
 62
     0
100
AcDbText
 10
-74.05714285714283
 20
126.4516878685507
 30
0.0
 40
64.0
  1
280
 41
0.9
100
AcDbText
  0
ENDBLK
  5
2129
330
2565
100
AcDbEntity
  8
0
100
AcDbBlockEnd
  0
BLOCK
  5
2568
330
2567
100
AcDbEntity
  8
0
100
AcDbBlockBegin
  2
*D36
 70
     1
 10
0.0
 20
0.0
 30
0.0
  3
*D36
  1

  0
LINE
  5
1686
330
2567
100
AcDbEntity
  8
SIZE
 62
     0
100
AcDbLine
 10
-157.5
 20
20.0
 30
0.0
 11
-157.5
 21
245.5794621189598
 31
0.0
  0
LINE
  5
1687
330
2567
100
AcDbEntity
  8
SIZE
 62
     0
100
AcDbLine
 10
157.5
 20
20.0
 30
0.0
 11
157.5
 21
245.5794621189598
 31
0.0
  0
LINE
  5
1688
330
2567
100
AcDbEntity
  8
SIZE
 62
     0
100
AcDbLine
 10
-145.5
 20
225.5794621189598
 30
0.0
 11
145.5
 21
225.5794621189598
 31
0.0
  0
INSERT
  5
1689
330
2567
100
AcDbEntity
  8
SIZE
 62
     0
100
AcDbBlockReference
  2
_DOTBLANK
 10
-157.5
 20
225.5794621189598
 30
0.0
 41
12.0
 42
12.0
 43
12.0
 50
180.0
  0
INSERT
  5
168A
330
2567
100
AcDbEntity
  8
SIZE
 62
     0
100
AcDbBlockReference
  2
_DOTBLANK
 10
157.5
 20
225.5794621189598
 30
0.0
 41
12.0
 42
12.0
 43
12.0
  0
INSERT
  5
168B
330
2567
100
AcDbEntity
  8
0
100
AcDbBlockReference
  2
*U37
 10
0.0
 20
0.0
 30
0.0
  0
POINT
  5
168C
330
2567
100
AcDbEntity
  8
DEFPOINTS
 62
     0
100
AcDbPoint
 10
-157.5
 20
0.0
 30
0.0
  0
POINT
  5
168D
330
2567
100
AcDbEntity
  8
DEFPOINTS
 62
     0
100
AcDbPoint
 10
157.5
 20
0.0
 30
0.0
  0
POINT
  5
168E
330
2567
100
AcDbEntity
  8
DEFPOINTS
 62
     0
100
AcDbPoint
 10
157.5
 20
225.5794621189598
 30
0.0
  0
ENDBLK
  5
14CB
330
2567
100
AcDbEntity
  8
0
100
AcDbBlockEnd
  0
BLOCK
  5
256A
330
2569
100
AcDbEntity
  8
0
100
AcDbBlockBegin
  2
*U37
 70
     1
 10
0.0
 20
0.0
 30
0.0
  3
*U37
  1

  0
TEXT
  5
212B
330
2569
100
AcDbEntity
  8
SIZE
 62
     0
100
AcDbText
 10
-68.57142857142857
 20
235.5794621189598
 30
0.0
 40
64.0
  1
315
 41
0.9
100
AcDbText
  0
ENDBLK
  5
212D
330
2569
100
AcDbEntity
  8
0
100
AcDbBlockEnd
  0
BLOCK
  5
256C
330
256B
100
AcDbEntity
  8
0
100
AcDbBlockBegin
  2
*U38
 70
     1
 10
0.0
 20
0.0
 30
0.0
  3
*U38
  1

  0
ENDBLK
  5
15CF
330
256B
100
AcDbEntity
  8
0
100
AcDbBlockEnd
  0
BLOCK
  5
256E
330
256D
100
AcDbEntity
  8
0
100
AcDbBlockBegin
  2
*D39
 70
     1
 10
0.0
 20
0.0
 30
0.0
  3
*D39
  1

  0
LINE
  5
1692
330
256D
100
AcDbEntity
  8
SIZE
 62
     0
100
AcDbLine
 10
-25844.51823276502
 20
7685.702971374808
 30
0.0
 11
-25981.04465488371
 21
7685.702971374808
 31
0.0
  0
LINE
  5
1693
330
256D
100
AcDbEntity
  8
SIZE
 62
     0
100
AcDbLine
 10
-25844.51823276502
 20
7677.702971374808
 30
0.0
 11
-25981.04465488371
 21
7677.702971374808
 31
0.0
  0
LINE
  5
1694
330
256D
100
AcDbEntity
  8
SIZE
 62
     0
100
AcDbLine
 10
-25961.04465488371
 20
7697.702971374808
 30
0.0
 11
-25961.04465488371
 21
7709.702971374809
 31
0.0
  0
LINE
  5
1695
330
256D
100
AcDbEntity
  8
SIZE
 62
     0
100
AcDbLine
 10
-25961.04465488371
 20
7665.70297137481
 30
0.0
 11
-25961.04465488371
 21
7595.302971374808
 31
0.0
  0
INSERT
  5
1696
330
256D
100
AcDbEntity
  8
SIZE
 62
     0
100
AcDbBlockReference
  2
_DOTBLANK
 10
-25961.04465488371
 20
7685.702971374808
 30
0.0
 41
12.0
 42
12.0
 43
12.0
 50
270.0
  0
INSERT
  5
1697
330
256D
100
AcDbEntity
  8
SIZE
 62
     0
100
AcDbBlockReference
  2
_DOTBLANK
 10
-25961.04465488371
 20
7677.702971374808
 30
0.0
 41
12.0
 42
12.0
 43
12.0
 50
90.0
  0
INSERT
  5
1698
330
256D
100
AcDbEntity
  8
0
100
AcDbBlockReference
  2
*U40
 10
0.0
 20
0.0
 30
0.0
  0
POINT
  5
1699
330
256D
100
AcDbEntity
  8
DEFPOINTS
 62
     0
100
AcDbPoint
 10
-25824.51823276501
 20
7685.702971374808
 30
0.0
  0
POINT
  5
169A
330
256D
100
AcDbEntity
  8
DEFPOINTS
 62
     0
100
AcDbPoint
 10
-25824.51823276501
 20
7677.702971374808
 30
0.0
  0
POINT
  5
169B
330
256D
100
AcDbEntity
  8
DEFPOINTS
 62
     0
100
AcDbPoint
 10
-25961.04465488371
 20
7677.702971374808
 30
0.0
  0
ENDBLK
  5
169C
330
256D
100
AcDbEntity
  8
0
100
AcDbBlockEnd
  0
BLOCK
  5
2570
330
256F
100
AcDbEntity
  8
0
100
AcDbBlockBegin
  2
*U40
 70
     1
 10
0.0
 20
0.0
 30
0.0
  3
*U40
  1

  0
TEXT
  5
212F
330
256F
100
AcDbEntity
  8
SIZE
 62
     0
100
AcDbText
 10
-25971.04465488371
 20
7605.302971374804
 30
0.0
 40
64.0
  1
8
 50
90.0
 41
0.9
100
AcDbText
  0
ENDBLK
  5
2131
330
256F
100
AcDbEntity
  8
0
100
AcDbBlockEnd
  0
BLOCK
  5
2572
330
2571
100
AcDbEntity
  8
0
100
AcDbBlockBegin
  2
*D41
 70
     1
 10
0.0
 20
0.0
 30
0.0
  3
*D41
  1

  0
LINE
  5
169F
330
2571
100
AcDbEntity
  8
SIZE
 62
     0
100
AcDbLine
 10
-25512.51823276502
 20
7385.702971374808
 30
0.0
 11
-25362.37494828464
 21
7385.702971374808
 31
0.0
  0
LINE
  5
16A0
330
2571
100
AcDbEntity
  8
SIZE
 62
     0
100
AcDbLine
 10
-25523.51823276501
 20
7373.702971374808
 30
0.0
 11
-25362.37494828464
 21
7373.702971374808
 31
0.0
  0
LINE
  5
16A1
330
2571
100
AcDbEntity
  8
SIZE
 62
     0
100
AcDbLine
 10
-25382.37494828464
 20
7397.702971374808
 30
0.0
 11
-25382.37494828464
 21
7409.70297137481
 31
0.0
  0
LINE
  5
16A2
330
2571
100
AcDbEntity
  8
SIZE
 62
     0
100
AcDbLine
 10
-25382.37494828464
 20
7361.702971374808
 30
0.0
 11
-25382.37494828464
 21
7244.674399946237
 31
0.0
  0
INSERT
  5
16A3
330
2571
100
AcDbEntity
  8
SIZE
 62
     0
100
AcDbBlockReference
  2
_DOTBLANK
 10
-25382.37494828464
 20
7385.702971374808
 30
0.0
 41
12.0
 42
12.0
 43
12.0
 50
270.0
  0
INSERT
  5
16A4
330
2571
100
AcDbEntity
  8
SIZE
 62
     0
100
AcDbBlockReference
  2
_DOTBLANK
 10
-25382.37494828464
 20
7373.702971374808
 30
0.0
 41
12.0
 42
12.0
 43
12.0
 50
90.0
  0
INSERT
  5
16A5
330
2571
100
AcDbEntity
  8
0
100
AcDbBlockReference
  2
*U42
 10
0.0
 20
0.0
 30
0.0
  0
POINT
  5
16A6
330
2571
100
AcDbEntity
  8
DEFPOINTS
 62
     0
100
AcDbPoint
 10
-25532.51823276502
 20
7385.702971374808
 30
0.0
  0
POINT
  5
16A7
330
2571
100
AcDbEntity
  8
DEFPOINTS
 62
     0
100
AcDbPoint
 10
-25543.51823276502
 20
7373.702971374808
 30
0.0
  0
POINT
  5
16A8
330
2571
100
AcDbEntity
  8
DEFPOINTS
 62
     0
100
AcDbPoint
 10
-25382.37494828464
 20
7373.702971374808
 30
0.0
  0
ENDBLK
  5
16A9
330
2571
100
AcDbEntity
  8
0
100
AcDbBlockEnd
  0
BLOCK
  5
2574
330
2573
100
AcDbEntity
  8
0
100
AcDbBlockBegin
  2
*U42
 70
     1
 10
0.0
 20
0.0
 30
0.0
  3
*U42
  1

  0
TEXT
  5
2133
330
2573
100
AcDbEntity
  8
SIZE
 62
     0
100
AcDbText
 10
-25392.37494828464
 20
7256.045828517662
 30
0.0
 40
64.0
  1
12
 50
90.0
 41
0.9
100
AcDbText
  0
ENDBLK
  5
2135
330
2573
100
AcDbEntity
  8
0
100
AcDbBlockEnd
  0
BLOCK
  5
2576
330
2575
100
AcDbEntity
  8
0
100
AcDbBlockBegin
  2
*D43
 70
     1
 10
0.0
 20
0.0
 30
0.0
  3
*D43
  1

  0
LINE
  5
16AC
330
2575
100
AcDbEntity
  8
SIZE
 62
     0
100
AcDbLine
 10
-25801.51823276501
 20
7365.702971374808
 30
0.0
 11
-25801.51823276501
 21
7217.685576144207
 31
0.0
  0
LINE
  5
16AD
330
2575
100
AcDbEntity
  8
SIZE
 62
     0
100
AcDbLine
 10
-25532.51823276502
 20
7365.702971374808
 30
0.0
 11
-25532.51823276502
 21
7217.685576144207
 31
0.0
  0
LINE
  5
16AE
330
2575
100
AcDbEntity
  8
SIZE
 62
     0
100
AcDbLine
 10
-25789.51823276502
 20
7237.685576144207
 30
0.0
 11
-25544.51823276501
 21
7237.685576144207
 31
0.0
  0
INSERT
  5
16AF
330
2575
100
AcDbEntity
  8
SIZE
 62
     0
100
AcDbBlockReference
  2
_DOTBLANK
 10
-25801.51823276501
 20
7237.685576144207
 30
0.0
 41
12.0
 42
12.0
 43
12.0
 50
180.0
  0
INSERT
  5
16B0
330
2575
100
AcDbEntity
  8
SIZE
 62
     0
100
AcDbBlockReference
  2
_DOTBLANK
 10
-25532.51823276502
 20
7237.685576144207
 30
0.0
 41
12.0
 42
12.0
 43
12.0
  0
INSERT
  5
16B1
330
2575
100
AcDbEntity
  8
0
100
AcDbBlockReference
  2
*U44
 10
0.0
 20
0.0
 30
0.0
  0
POINT
  5
16B2
330
2575
100
AcDbEntity
  8
DEFPOINTS
 62
     0
100
AcDbPoint
 10
-25801.51823276501
 20
7385.702971374808
 30
0.0
  0
POINT
  5
16B3
330
2575
100
AcDbEntity
  8
DEFPOINTS
 62
     0
100
AcDbPoint
 10
-25532.51823276502
 20
7385.702971374808
 30
0.0
  0
POINT
  5
16B4
330
2575
100
AcDbEntity
  8
DEFPOINTS
 62
     0
100
AcDbPoint
 10
-25532.51823276502
 20
7237.685576144207
 30
0.0
  0
ENDBLK
  5
16B5
330
2575
100
AcDbEntity
  8
0
100
AcDbBlockEnd
  0
BLOCK
  5
2578
330
2577
100
AcDbEntity
  8
0
100
AcDbBlockBegin
  2
*U44
 70
     1
 10
0.0
 20
0.0
 30
0.0
  3
*U44
  1

  0
TEXT
  5
2137
330
2577
100
AcDbEntity
  8
SIZE
 62
     0
100
AcDbText
 10
-25739.70394705074
 20
7247.685576144205
 30
0.0
 40
64.0
  1
269
 41
0.9
100
AcDbText
  0
ENDBLK
  5
2139
330
2577
100
AcDbEntity
  8
0
100
AcDbBlockEnd
  0
BLOCK
  5
257A
330
2579
100
AcDbEntity
  8
0
100
AcDbBlockBegin
  2
*D45
 70
     1
 10
0.0
 20
0.0
 30
0.0
  3
*D45
  1

  0
LINE
  5
16B8
330
2579
100
AcDbEntity
  8
SIZE
 62
     0
100
AcDbLine
 10
-25512.51823276502
 20
7385.702971374808
 30
0.0
 11
-25362.37494828464
 21
7385.702971374808
 31
0.0
  0
LINE
  5
16B9
330
2579
100
AcDbEntity
  8
SIZE
 62
     0
100
AcDbLine
 10
-25489.51823276501
 20
7685.702971374808
 30
0.0
 11
-25362.37494828464
 21
7685.702971374808
 31
0.0
  0
LINE
  5
16BA
330
2579
100
AcDbEntity
  8
SIZE
 62
     0
100
AcDbLine
 10
-25382.37494828464
 20
7397.702971374808
 30
0.0
 11
-25382.37494828464
 21
7673.702971374808
 31
0.0
  0
INSERT
  5
16BB
330
2579
100
AcDbEntity
  8
SIZE
 62
     0
100
AcDbBlockReference
  2
_DOTBLANK
 10
-25382.37494828464
 20
7385.702971374808
 30
0.0
 41
12.0
 42
12.0
 43
12.0
 50
270.0
  0
INSERT
  5
16BC
330
2579
100
AcDbEntity
  8
SIZE
 62
     0
100
AcDbBlockReference
  2
_DOTBLANK
 10
-25382.37494828464
 20
7685.702971374808
 30
0.0
 41
12.0
 42
12.0
 43
12.0
 50
90.0
  0
INSERT
  5
16BD
330
2579
100
AcDbEntity
  8
0
100
AcDbBlockReference
  2
*U46
 10
0.0
 20
0.0
 30
0.0
  0
POINT
  5
16BE
330
2579
100
AcDbEntity
  8
DEFPOINTS
 62
     0
100
AcDbPoint
 10
-25532.51823276502
 20
7385.702971374808
 30
0.0
  0
POINT
  5
16BF
330
2579
100
AcDbEntity
  8
DEFPOINTS
 62
     0
100
AcDbPoint
 10
-25509.51823276502
 20
7685.702971374808
 30
0.0
  0
POINT
  5
16C0
330
2579
100
AcDbEntity
  8
DEFPOINTS
 62
     0
100
AcDbPoint
 10
-25382.37494828464
 20
7685.702971374808
 30
0.0
  0
ENDBLK
  5
16C1
330
2579
100
AcDbEntity
  8
0
100
AcDbBlockEnd
  0
BLOCK
  5
257C
330
257B
100
AcDbEntity
  8
0
100
AcDbBlockBegin
  2
*U46
 70
     1
 10
0.0
 20
0.0
 30
0.0
  3
*U46
  1

  0
TEXT
  5
213B
330
257B
100
AcDbEntity
  8
SIZE
 62
     0
100
AcDbText
 10
-25392.37494828464
 20
7461.645828517662
 30
0.0
 40
64.0
  1
300
 50
90.0
 41
0.9
100
AcDbText
  0
ENDBLK
  5
213D
330
257B
100
AcDbEntity
  8
0
100
AcDbBlockEnd
  0
BLOCK
  5
257E
330
257D
100
AcDbEntity
  8
0
100
AcDbBlockBegin
  2
*D47
 70
     1
 10
0.0
 20
0.0
 30
0.0
  3
*D47
  1

  0
LINE
  5
16C4
330
257D
100
AcDbEntity
  8
SIZE
 62
     0
100
AcDbLine
 10
-25807.01823276501
 20
7718.167454177002
 30
0.0
 11
-25807.01823276501
 21
7822.154659243358
 31
0.0
  0
LINE
  5
16C5
330
257D
100
AcDbEntity
  8
SIZE
 62
     0
100
AcDbLine
 10
-25527.01823276501
 20
7718.167454177002
 30
0.0
 11
-25527.01823276501
 21
7822.154659243358
 31
0.0
  0
LINE
  5
16C6
330
257D
100
AcDbEntity
  8
SIZE
 62
     0
100
AcDbLine
 10
-25795.01823276502
 20
7802.154659243358
 30
0.0
 11
-25539.01823276501
 21
7802.154659243358
 31
0.0
  0
INSERT
  5
16C7
330
257D
100
AcDbEntity
  8
SIZE
 62
     0
100
AcDbBlockReference
  2
_DOTBLANK
 10
-25807.01823276501
 20
7802.154659243358
 30
0.0
 41
12.0
 42
12.0
 43
12.0
 50
180.0
  0
INSERT
  5
16C8
330
257D
100
AcDbEntity
  8
SIZE
 62
     0
100
AcDbBlockReference
  2
_DOTBLANK
 10
-25527.01823276501
 20
7802.154659243358
 30
0.0
 41
12.0
 42
12.0
 43
12.0
  0
INSERT
  5
16C9
330
257D
100
AcDbEntity
  8
0
100
AcDbBlockReference
  2
*U48
 10
0.0
 20
0.0
 30
0.0
  0
POINT
  5
16CA
330
257D
100
AcDbEntity
  8
DEFPOINTS
 62
     0
100
AcDbPoint
 10
-25807.01823276501
 20
7698.167454177002
 30
0.0
  0
POINT
  5
16CB
330
257D
100
AcDbEntity
  8
DEFPOINTS
 62
     0
100
AcDbPoint
 10
-25527.01823276501
 20
7698.167454177002
 30
0.0
  0
POINT
  5
16CC
330
257D
100
AcDbEntity
  8
DEFPOINTS
 62
     0
100
AcDbPoint
 10
-25527.01823276501
 20
7802.154659243358
 30
0.0
  0
ENDBLK
  5
16CD
330
257D
100
AcDbEntity
  8
0
100
AcDbBlockEnd
  0
BLOCK
  5
2580
330
257F
100
AcDbEntity
  8
0
100
AcDbBlockBegin
  2
*U48
 70
     1
 10
0.0
 20
0.0
 30
0.0
  3
*U48
  1

  0
TEXT
  5
213F
330
257F
100
AcDbEntity
  8
SIZE
 62
     0
100
AcDbText
 10
-25741.07537562216
 20
7812.154659243358
 30
0.0
 40
64.0
  1
280
 41
0.9
100
AcDbText
  0
ENDBLK
  5
2141
330
257F
100
AcDbEntity
  8
0
100
AcDbBlockEnd
  0
BLOCK
  5
2582
330
2581
100
AcDbEntity
  8
0
100
AcDbBlockBegin
  2
*D49
 70
     1
 10
0.0
 20
0.0
 30
0.0
  3
*D49
  1

  0
LINE
  5
16D0
330
2581
100
AcDbEntity
  8
SIZE
 62
     0
100
AcDbLine
 10
-25824.51823276501
 20
7705.702971374808
 30
0.0
 11
-25824.51823276501
 21
7931.282433493766
 31
0.0
  0
LINE
  5
16D1
330
2581
100
AcDbEntity
  8
SIZE
 62
     0
100
AcDbLine
 10
-25509.51823276502
 20
7705.702971374808
 30
0.0
 11
-25509.51823276502
 21
7931.282433493766
 31
0.0
  0
LINE
  5
16D2
330
2581
100
AcDbEntity
  8
SIZE
 62
     0
100
AcDbLine
 10
-25812.51823276502
 20
7911.282433493766
 30
0.0
 11
-25521.51823276501
 21
7911.282433493766
 31
0.0
  0
INSERT
  5
16D3
330
2581
100
AcDbEntity
  8
SIZE
 62
     0
100
AcDbBlockReference
  2
_DOTBLANK
 10
-25824.51823276501
 20
7911.282433493766
 30
0.0
 41
12.0
 42
12.0
 43
12.0
 50
180.0
  0
INSERT
  5
16D4
330
2581
100
AcDbEntity
  8
SIZE
 62
     0
100
AcDbBlockReference
  2
_DOTBLANK
 10
-25509.51823276502
 20
7911.282433493766
 30
0.0
 41
12.0
 42
12.0
 43
12.0
  0
INSERT
  5
16D5
330
2581
100
AcDbEntity
  8
0
100
AcDbBlockReference
  2
*U50
 10
0.0
 20
0.0
 30
0.0
  0
POINT
  5
16D6
330
2581
100
AcDbEntity
  8
DEFPOINTS
 62
     0
100
AcDbPoint
 10
-25824.51823276501
 20
7685.702971374808
 30
0.0
  0
POINT
  5
16D7
330
2581
100
AcDbEntity
  8
DEFPOINTS
 62
     0
100
AcDbPoint
 10
-25509.51823276502
 20
7685.702971374808
 30
0.0
  0
POINT
  5
16D8
330
2581
100
AcDbEntity
  8
DEFPOINTS
 62
     0
100
AcDbPoint
 10
-25509.51823276502
 20
7911.282433493766
 30
0.0
  0
ENDBLK
  5
16D9
330
2581
100
AcDbEntity
  8
0
100
AcDbBlockEnd
  0
BLOCK
  5
2584
330
2583
100
AcDbEntity
  8
0
100
AcDbBlockBegin
  2
*U50
 70
     1
 10
0.0
 20
0.0
 30
0.0
  3
*U50
  1

  0
TEXT
  5
2143
330
2583
100
AcDbEntity
  8
SIZE
 62
     0
100
AcDbText
 10
-25735.58966133645
 20
7921.282433493766
 30
0.0
 40
64.0
  1
315
 41
0.9
100
AcDbText
  0
ENDBLK
  5
2145
330
2583
100
AcDbEntity
  8
0
100
AcDbBlockEnd
  0
BLOCK
  5
2586
330
2585
100
AcDbEntity
  8
0
100
AcDbBlockBegin
  2
*D51
 70
     1
 10
0.0
 20
0.0
 30
0.0
  3
*D51
  1

  0
LINE
  5
1D83
330
2585
100
AcDbEntity
  8
SIZE
 62
     0
100
AcDbLine
 10
-134.5
 20
-320.0
 30
0.0
 11
-134.5
 21
-468.0173952306001
 31
0.0
  0
LINE
  5
1D84
330
2585
100
AcDbEntity
  8
SIZE
 62
     0
100
AcDbLine
 10
134.5
 20
-320.0
 30
0.0
 11
134.5
 21
-468.0173952306001
 31
0.0
  0
LINE
  5
1D85
330
2585
100
AcDbEntity
  8
SIZE
 62
     0
100
AcDbLine
 10
-122.5
 20
-448.0173952306
 30
0.0
 11
122.5
 21
-448.0173952306
 31
0.0
  0
INSERT
  5
1D86
330
2585
100
AcDbEntity
  8
SIZE
 62
     0
100
AcDbBlockReference
  2
_DOTBLANK
 10
-134.5
 20
-448.0173952306
 30
0.0
 41
12.0
 42
12.0
 43
12.0
 50
180.0
  0
INSERT
  5
1D87
330
2585
100
AcDbEntity
  8
SIZE
 62
     0
100
AcDbBlockReference
  2
_DOTBLANK
 10
134.5
 20
-448.0173952306
 30
0.0
 41
12.0
 42
12.0
 43
12.0
  0
INSERT
  5
1D88
330
2585
100
AcDbEntity
  8
0
100
AcDbBlockReference
  2
*U52
 10
0.0
 20
0.0
 30
0.0
  0
POINT
  5
1D89
330
2585
100
AcDbEntity
  8
DEFPOINTS
 62
     0
100
AcDbPoint
 10
-134.5
 20
-300.0
 30
0.0
  0
POINT
  5
1D8A
330
2585
100
AcDbEntity
  8
DEFPOINTS
 62
     0
100
AcDbPoint
 10
134.5
 20
-300.0
 30
0.0
  0
POINT
  5
1D8B
330
2585
100
AcDbEntity
  8
DEFPOINTS
 62
     0
100
AcDbPoint
 10
134.5
 20
-448.0173952306
 30
0.0
  0
ENDBLK
  5
173D
330
2585
100
AcDbEntity
  8
0
100
AcDbBlockEnd
  0
BLOCK
  5
2588
330
2587
100
AcDbEntity
  8
0
100
AcDbBlockBegin
  2
*U52
 70
     1
 10
0.0
 20
0.0
 30
0.0
  3
*U52
  1

  0
TEXT
  5
2147
330
2587
100
AcDbEntity
  8
SIZE
 62
     0
100
AcDbText
 10
-72.68571428571426
 20
-438.0173952306003
 30
0.0
 40
64.0
  1
269
 41
0.9
100
AcDbText
  0
ENDBLK
  5
2149
330
2587
100
AcDbEntity
  8
0
100
AcDbBlockEnd
  0
BLOCK
  5
258A
330
2589
100
AcDbEntity
  8
0
100
AcDbBlockBegin
  2
*D53
 70
     1
 10
0.0
 20
0.0
 30
0.0
  3
*D53
  1

  0
LINE
  5
1D8C
330
2589
100
AcDbEntity
  8
SIZE
 62
     0
100
AcDbLine
 10
154.5
 20
-300.0
 30
0.0
 11
304.6432844803784
 21
-300.0
 31
0.0
  0
LINE
  5
1D8D
330
2589
100
AcDbEntity
  8
SIZE
 62
     0
100
AcDbLine
 10
177.5
 20
-0.0000000000000057
 30
0.0
 11
304.6432844803785
 21
-0.0000000000000417
 31
0.0
  0
LINE
  5
1D8E
330
2589
100
AcDbEntity
  8
SIZE
 62
     0
100
AcDbLine
 10
284.6432844803784
 20
-288.0
 30
0.0
 11
284.6432844803785
 21
-12.00000000000003
 31
0.0
  0
INSERT
  5
1D8F
330
2589
100
AcDbEntity
  8
SIZE
 62
     0
100
AcDbBlockReference
  2
_DOTBLANK
 10
284.6432844803784
 20
-300.0
 30
0.0
 41
12.0
 42
12.0
 43
12.0
 50
270.0
  0
INSERT
  5
1D90
330
2589
100
AcDbEntity
  8
SIZE
 62
     0
100
AcDbBlockReference
  2
_DOTBLANK
 10
284.6432844803785
 20
-0.000000000000036
 30
0.0
 41
12.0
 42
12.0
 43
12.0
 50
90.0
  0
INSERT
  5
1D91
330
2589
100
AcDbEntity
  8
0
100
AcDbBlockReference
  2
*U54
 10
0.0
 20
0.0
 30
0.0
  0
POINT
  5
1D92
330
2589
100
AcDbEntity
  8
DEFPOINTS
 62
     0
100
AcDbPoint
 10
134.5
 20
-300.0
 30
0.0
  0
POINT
  5
1D93
330
2589
100
AcDbEntity
  8
DEFPOINTS
 62
     0
100
AcDbPoint
 10
157.5
 20
0.0
 30
0.0
  0
POINT
  5
1D94
330
2589
100
AcDbEntity
  8
DEFPOINTS
 62
     0
100
AcDbPoint
 10
284.6432844803785
 20
-0.000000000000036
 30
0.0
  0
ENDBLK
  5
1749
330
2589
100
AcDbEntity
  8
0
100
AcDbBlockEnd
  0
BLOCK
  5
258C
330
258B
100
AcDbEntity
  8
0
100
AcDbBlockBegin
  2
*U54
 70
     1
 10
0.0
 20
0.0
 30
0.0
  3
*U54
  1

  0
TEXT
  5
214B
330
258B
100
AcDbEntity
  8
SIZE
 62
     0
100
AcDbText
 10
274.6432844803785
 20
-224.0571428571429
 30
0.0
 40
64.0
  1
300
 50
90.0
 41
0.9
100
AcDbText
  0
ENDBLK
  5
214D
330
258B
100
AcDbEntity
  8
0
100
AcDbBlockEnd
  0
BLOCK
  5
258E
330
258D
100
AcDbEntity
  8
0
100
AcDbBlockBegin
  2
*D55
 70
     1
 10
0.0
 20
0.0
 30
0.0
  3
*D55
  1

  0
LINE
  5
1D95
330
258D
100
AcDbEntity
  8
SIZE
 62
     0
100
AcDbLine
 10
-140.0
 20
32.46448280219375
 30
0.0
 11
-140.0
 21
136.4516878685508
 31
0.0
  0
LINE
  5
1D96
330
258D
100
AcDbEntity
  8
SIZE
 62
     0
100
AcDbLine
 10
140.0
 20
32.46448280219375
 30
0.0
 11
140.0
 21
136.4516878685508
 31
0.0
  0
LINE
  5
1D97
330
258D
100
AcDbEntity
  8
SIZE
 62
     0
100
AcDbLine
 10
-128.0
 20
116.4516878685508
 30
0.0
 11
128.0
 21
116.4516878685508
 31
0.0
  0
INSERT
  5
1D98
330
258D
100
AcDbEntity
  8
SIZE
 62
     0
100
AcDbBlockReference
  2
_DOTBLANK
 10
-140.0
 20
116.4516878685508
 30
0.0
 41
12.0
 42
12.0
 43
12.0
 50
180.0
  0
INSERT
  5
1D99
330
258D
100
AcDbEntity
  8
SIZE
 62
     0
100
AcDbBlockReference
  2
_DOTBLANK
 10
140.0
 20
116.4516878685508
 30
0.0
 41
12.0
 42
12.0
 43
12.0
  0
INSERT
  5
1D9A
330
258D
100
AcDbEntity
  8
0
100
AcDbBlockReference
  2
*U56
 10
0.0
 20
0.0
 30
0.0
  0
POINT
  5
1D9B
330
258D
100
AcDbEntity
  8
DEFPOINTS
 62
     0
100
AcDbPoint
 10
-140.0
 20
12.46448280219374
 30
0.0
  0
POINT
  5
1D9C
330
258D
100
AcDbEntity
  8
DEFPOINTS
 62
     0
100
AcDbPoint
 10
140.0
 20
12.46448280219374
 30
0.0
  0
POINT
  5
1D9D
330
258D
100
AcDbEntity
  8
DEFPOINTS
 62
     0
100
AcDbPoint
 10
140.0
 20
116.4516878685508
 30
0.0
  0
ENDBLK
  5
1755
330
258D
100
AcDbEntity
  8
0
100
AcDbBlockEnd
  0
BLOCK
  5
2590
330
258F
100
AcDbEntity
  8
0
100
AcDbBlockBegin
  2
*U56
 70
     1
 10
0.0
 20
0.0
 30
0.0
  3
*U56
  1

  0
TEXT
  5
214F
330
258F
100
AcDbEntity
  8
SIZE
 62
     0
100
AcDbText
 10
-74.05714285714283
 20
126.4516878685508
 30
0.0
 40
64.0
  1
280
 41
0.9
100
AcDbText
  0
ENDBLK
  5
2151
330
258F
100
AcDbEntity
  8
0
100
AcDbBlockEnd
  0
BLOCK
  5
2592
330
2591
100
AcDbEntity
  8
0
100
AcDbBlockBegin
  2
*D57
 70
     1
 10
0.0
 20
0.0
 30
0.0
  3
*D57
  1

  0
LINE
  5
1D9E
330
2591
100
AcDbEntity
  8
SIZE
 62
     0
100
AcDbLine
 10
-157.5
 20
20.0
 30
0.0
 11
-157.5
 21
245.5794621189598
 31
0.0
  0
LINE
  5
1D9F
330
2591
100
AcDbEntity
  8
SIZE
 62
     0
100
AcDbLine
 10
157.5
 20
20.0
 30
0.0
 11
157.5
 21
245.5794621189598
 31
0.0
  0
LINE
  5
1DA0
330
2591
100
AcDbEntity
  8
SIZE
 62
     0
100
AcDbLine
 10
-145.5
 20
225.5794621189598
 30
0.0
 11
145.5
 21
225.5794621189598
 31
0.0
  0
INSERT
  5
1DA1
330
2591
100
AcDbEntity
  8
SIZE
 62
     0
100
AcDbBlockReference
  2
_DOTBLANK
 10
-157.5
 20
225.5794621189598
 30
0.0
 41
12.0
 42
12.0
 43
12.0
 50
180.0
  0
INSERT
  5
1DA2
330
2591
100
AcDbEntity
  8
SIZE
 62
     0
100
AcDbBlockReference
  2
_DOTBLANK
 10
157.5
 20
225.5794621189598
 30
0.0
 41
12.0
 42
12.0
 43
12.0
  0
INSERT
  5
1DA3
330
2591
100
AcDbEntity
  8
0
100
AcDbBlockReference
  2
*U58
 10
0.0
 20
0.0
 30
0.0
  0
POINT
  5
1DA4
330
2591
100
AcDbEntity
  8
DEFPOINTS
 62
     0
100
AcDbPoint
 10
-157.5
 20
0.0
 30
0.0
  0
POINT
  5
1DA5
330
2591
100
AcDbEntity
  8
DEFPOINTS
 62
     0
100
AcDbPoint
 10
157.5
 20
0.0
 30
0.0
  0
POINT
  5
1DA6
330
2591
100
AcDbEntity
  8
DEFPOINTS
 62
     0
100
AcDbPoint
 10
157.5
 20
225.5794621189598
 30
0.0
  0
ENDBLK
  5
1761
330
2591
100
AcDbEntity
  8
0
100
AcDbBlockEnd
  0
BLOCK
  5
2594
330
2593
100
AcDbEntity
  8
0
100
AcDbBlockBegin
  2
*U58
 70
     1
 10
0.0
 20
0.0
 30
0.0
  3
*U58
  1

  0
TEXT
  5
2153
330
2593
100
AcDbEntity
  8
SIZE
 62
     0
100
AcDbText
 10
-68.57142857142857
 20
235.5794621189599
 30
0.0
 40
64.0
  1
315
 41
0.9
100
AcDbText
  0
ENDBLK
  5
2155
330
2593
100
AcDbEntity
  8
0
100
AcDbBlockEnd
  0
BLOCK
  5
2596
330
2595
100
AcDbEntity
  8
0
100
AcDbBlockBegin
  2
*D59
 70
     1
 10
0.0
 20
0.0
 30
0.0
  3
*D59
  1

  0
LINE
  5
1DA7
330
2595
100
AcDbEntity
  8
SIZE
 62
     0
100
AcDbLine
 10
-177.5
 20
0.0000000000000057
 30
0.0
 11
-314.0264221186908
 21
0.0000000000000443
 31
0.0
  0
LINE
  5
1DA8
330
2595
100
AcDbEntity
  8
SIZE
 62
     0
100
AcDbLine
 10
-177.5
 20
-7.999999999999995
 30
0.0
 11
-314.0264221186908
 21
-7.999999999999958
 31
0.0
  0
LINE
  5
1DA9
330
2595
100
AcDbEntity
  8
SIZE
 62
     0
100
AcDbLine
 10
-294.0264221186908
 20
12.00000000000003
 30
0.0
 11
-294.0264221186908
 21
24.00000000000004
 31
0.0
  0
LINE
  5
1DAA
330
2595
100
AcDbEntity
  8
SIZE
 62
     0
100
AcDbLine
 10
-294.0264221186908
 20
-19.99999999999996
 30
0.0
 11
-294.0264221186908
 21
-90.39999999999997
 31
0.0
  0
INSERT
  5
1DAB
330
2595
100
AcDbEntity
  8
SIZE
 62
     0
100
AcDbBlockReference
  2
_DOTBLANK
 10
-294.0264221186908
 20
0.0000000000000387
 30
0.0
 41
12.0
 42
12.0
 43
12.0
 50
270.0
  0
INSERT
  5
1DAC
330
2595
100
AcDbEntity
  8
SIZE
 62
     0
100
AcDbBlockReference
  2
_DOTBLANK
 10
-294.0264221186908
 20
-7.999999999999961
 30
0.0
 41
12.0
 42
12.0
 43
12.0
 50
90.0
  0
INSERT
  5
1DAD
330
2595
100
AcDbEntity
  8
0
100
AcDbBlockReference
  2
*U60
 10
0.0
 20
0.0
 30
0.0
  0
POINT
  5
1DAE
330
2595
100
AcDbEntity
  8
DEFPOINTS
 62
     0
100
AcDbPoint
 10
-157.5
 20
0.0
 30
0.0
  0
POINT
  5
1DAF
330
2595
100
AcDbEntity
  8
DEFPOINTS
 62
     0
100
AcDbPoint
 10
-157.5
 20
-8.000000000000003
 30
0.0
  0
POINT
  5
1DB0
330
2595
100
AcDbEntity
  8
DEFPOINTS
 62
     0
100
AcDbPoint
 10
-294.0264221186908
 20
-7.999999999999961
 30
0.0
  0
ENDBLK
  5
176D
330
2595
100
AcDbEntity
  8
0
100
AcDbBlockEnd
  0
BLOCK
  5
2598
330
2597
100
AcDbEntity
  8
0
100
AcDbBlockBegin
  2
*U60
 70
     1
 10
0.0
 20
0.0
 30
0.0
  3
*U60
  1

  0
TEXT
  5
2157
330
2597
100
AcDbEntity
  8
SIZE
 62
     0
100
AcDbText
 10
-304.0264221186908
 20
-80.4
 30
0.0
 40
64.0
  1
8
 50
90.0
 41
0.9
100
AcDbText
  0
ENDBLK
  5
2159
330
2597
100
AcDbEntity
  8
0
100
AcDbBlockEnd
  0
BLOCK
  5
259A
330
2599
100
AcDbEntity
  8
0
100
AcDbBlockBegin
  2
*D61
 70
     1
 10
0.0
 20
0.0
 30
0.0
  3
*D61
  1

  0
LINE
  5
1DB1
330
2599
100
AcDbEntity
  8
SIZE
 62
     0
100
AcDbLine
 10
154.5
 20
-300.0
 30
0.0
 11
304.6432844803785
 21
-300.0
 31
0.0
  0
LINE
  5
1DB2
330
2599
100
AcDbEntity
  8
SIZE
 62
     0
100
AcDbLine
 10
143.5
 20
-312.0
 30
0.0
 11
304.6432844803785
 21
-312.0
 31
0.0
  0
LINE
  5
1DB3
330
2599
100
AcDbEntity
  8
SIZE
 62
     0
100
AcDbLine
 10
284.6432844803785
 20
-288.0
 30
0.0
 11
284.6432844803785
 21
-276.0
 31
0.0
  0
LINE
  5
1DB4
330
2599
100
AcDbEntity
  8
SIZE
 62
     0
100
AcDbLine
 10
284.6432844803785
 20
-324.0000000000001
 30
0.0
 11
284.6432844803784
 21
-438.2857142857143
 31
0.0
  0
INSERT
  5
1DB5
330
2599
100
AcDbEntity
  8
SIZE
 62
     0
100
AcDbBlockReference
  2
_DOTBLANK
 10
284.6432844803785
 20
-300.0
 30
0.0
 41
12.0
 42
12.0
 43
12.0
 50
270.0
  0
INSERT
  5
1DB6
330
2599
100
AcDbEntity
  8
SIZE
 62
     0
100
AcDbBlockReference
  2
_DOTBLANK
 10
284.6432844803785
 20
-312.0
 30
0.0
 41
12.0
 42
12.0
 43
12.0
 50
90.0
  0
INSERT
  5
1DB7
330
2599
100
AcDbEntity
  8
0
100
AcDbBlockReference
  2
*U62
 10
0.0
 20
0.0
 30
0.0
  0
POINT
  5
1DB8
330
2599
100
AcDbEntity
  8
DEFPOINTS
 62
     0
100
AcDbPoint
 10
134.5
 20
-300.0
 30
0.0
  0
POINT
  5
1DB9
330
2599
100
AcDbEntity
  8
DEFPOINTS
 62
     0
100
AcDbPoint
 10
123.5
 20
-312.0
 30
0.0
  0
POINT
  5
1DBA
330
2599
100
AcDbEntity
  8
DEFPOINTS
 62
     0
100
AcDbPoint
 10
284.6432844803785
 20
-312.0
 30
0.0
  0
ENDBLK
  5
177B
330
2599
100
AcDbEntity
  8
0
100
AcDbBlockEnd
  0
BLOCK
  5
259C
330
259B
100
AcDbEntity
  8
0
100
AcDbBlockBegin
  2
*U62
 70
     1
 10
0.0
 20
0.0
 30
0.0
  3
*U62
  1

  0
TEXT
  5
215B
330
259B
100
AcDbEntity
  8
SIZE
 62
     0
100
AcDbText
 10
274.6432844803785
 20
-428.2857142857142
 30
0.0
 40
64.0
  1
12
 50
90.0
 41
0.9
100
AcDbText
  0
ENDBLK
  5
215D
330
259B
100
AcDbEntity
  8
0
100
AcDbBlockEnd
  0
BLOCK
  5
259E
330
259D
100
AcDbEntity
  8
0
100
AcDbBlockBegin
  2
*U63
 70
     1
 10
0.0
 20
0.0
 30
0.0
  3
*U63
  1

  0
ENDBLK
  5
1D57
330
259D
100
AcDbEntity
  8
0
100
AcDbBlockEnd
  0
BLOCK
  5
25A0
330
259F
100
AcDbEntity
  8
0
100
AcDbBlockBegin
  2
*D64
 70
     1
 10
0.0
 20
0.0
 30
0.0
  3
*D64
  1

  0
LINE
  5
1DBF
330
259F
100
AcDbEntity
  8
SIZE
 62
     0
100
AcDbLine
 10
-26088.72047887697
 20
5666.10923282105
 30
0.0
 11
-26335.22321248503
 21
5666.10923282105
 31
0.0
  0
LINE
  5
1DC0
330
259F
100
AcDbEntity
  8
SIZE
 62
     0
100
AcDbLine
 10
-26088.72047887697
 20
5981.10923282105
 30
0.0
 11
-26335.22321248503
 21
5981.10923282105
 31
0.0
  0
LINE
  5
1DC1
330
259F
100
AcDbEntity
  8
SIZE
 62
     0
100
AcDbLine
 10
-26315.22321248504
 20
5678.10923282105
 30
0.0
 11
-26315.22321248504
 21
5969.10923282105
 31
0.0
  0
INSERT
  5
1DC2
330
259F
100
AcDbEntity
  8
SIZE
 62
     0
100
AcDbBlockReference
  2
_DOTBLANK
 10
-26315.22321248504
 20
5666.10923282105
 30
0.0
 41
12.0
 42
12.0
 43
12.0
 50
270.0
  0
INSERT
  5
1DC3
330
259F
100
AcDbEntity
  8
SIZE
 62
     0
100
AcDbBlockReference
  2
_DOTBLANK
 10
-26315.22321248504
 20
5981.10923282105
 30
0.0
 41
12.0
 42
12.0
 43
12.0
 50
90.0
  0
INSERT
  5
1DC4
330
259F
100
AcDbEntity
  8
0
100
AcDbBlockReference
  2
*U65
 10
0.0
 20
0.0
 30
0.0
  0
POINT
  5
1DC5
330
259F
100
AcDbEntity
  8
DEFPOINTS
 62
     0
100
AcDbPoint
 10
-26068.72047887697
 20
5666.10923282105
 30
0.0
  0
POINT
  5
1DC6
330
259F
100
AcDbEntity
  8
DEFPOINTS
 62
     0
100
AcDbPoint
 10
-26068.72047887697
 20
5981.10923282105
 30
0.0
  0
POINT
  5
1DC7
330
259F
100
AcDbEntity
  8
DEFPOINTS
 62
     0
100
AcDbPoint
 10
-26315.22321248504
 20
5981.10923282105
 30
0.0
  0
ENDBLK
  5
1DC8
330
259F
100
AcDbEntity
  8
0
100
AcDbBlockEnd
  0
BLOCK
  5
25A2
330
25A1
100
AcDbEntity
  8
0
100
AcDbBlockBegin
  2
*U65
 70
     1
 10
0.0
 20
0.0
 30
0.0
  3
*U65
  1

  0
TEXT
  5
215F
330
25A1
100
AcDbEntity
  8
SIZE
 62
     0
100
AcDbText
 10
-26325.22321248504
 20
5755.037804249621
 30
0.0
 40
64.0
  1
315
 50
90.0
 41
0.9
100
AcDbText
  0
ENDBLK
  5
2161
330
25A1
100
AcDbEntity
  8
0
100
AcDbBlockEnd
  0
BLOCK
  5
25A4
330
25A3
100
AcDbEntity
  8
0
100
AcDbBlockBegin
  2
*D66
 70
     1
 10
0.0
 20
0.0
 30
0.0
  3
*D66
  1

  0
LINE
  5
1DCB
330
25A3
100
AcDbEntity
  8
SIZE
 62
     0
100
AcDbLine
 10
-26083.72047887697
 20
5963.60923282105
 30
0.0
 11
-26190.50747203809
 21
5963.60923282105
 31
0.0
  0
LINE
  5
1DCC
330
25A3
100
AcDbEntity
  8
SIZE
 62
     0
100
AcDbLine
 10
-26083.72047887697
 20
5683.60923282105
 30
0.0
 11
-26190.50747203809
 21
5683.60923282105
 31
0.0
  0
LINE
  5
1DCD
330
25A3
100
AcDbEntity
  8
SIZE
 62
     0
100
AcDbLine
 10
-26170.50747203809
 20
5951.609232821049
 30
0.0
 11
-26170.50747203809
 21
5695.60923282105
 31
0.0
  0
INSERT
  5
1DCE
330
25A3
100
AcDbEntity
  8
SIZE
 62
     0
100
AcDbBlockReference
  2
_DOTBLANK
 10
-26170.50747203809
 20
5963.60923282105
 30
0.0
 41
12.0
 42
12.0
 43
12.0
 50
90.0
  0
INSERT
  5
1DCF
330
25A3
100
AcDbEntity
  8
SIZE
 62
     0
100
AcDbBlockReference
  2
_DOTBLANK
 10
-26170.50747203809
 20
5683.60923282105
 30
0.0
 41
12.0
 42
12.0
 43
12.0
 50
270.0
  0
INSERT
  5
1DD0
330
25A3
100
AcDbEntity
  8
0
100
AcDbBlockReference
  2
*U67
 10
0.0
 20
0.0
 30
0.0
  0
POINT
  5
1DD1
330
25A3
100
AcDbEntity
  8
DEFPOINTS
 62
     0
100
AcDbPoint
 10
-26063.72047887697
 20
5963.60923282105
 30
0.0
  0
POINT
  5
1DD2
330
25A3
100
AcDbEntity
  8
DEFPOINTS
 62
     0
100
AcDbPoint
 10
-26063.72047887697
 20
5683.60923282105
 30
0.0
  0
POINT
  5
1DD3
330
25A3
100
AcDbEntity
  8
DEFPOINTS
 62
     0
100
AcDbPoint
 10
-26170.50747203809
 20
5683.60923282105
 30
0.0
  0
ENDBLK
  5
1DD4
330
25A3
100
AcDbEntity
  8
0
100
AcDbBlockEnd
  0
BLOCK
  5
25A6
330
25A5
100
AcDbEntity
  8
0
100
AcDbBlockBegin
  2
*U67
 70
     1
 10
0.0
 20
0.0
 30
0.0
  3
*U67
  1

  0
TEXT
  5
2163
330
25A5
100
AcDbEntity
  8
SIZE
 62
     0
100
AcDbText
 10
-26180.50747203809
 20
5749.552089963906
 30
0.0
 40
64.0
  1
280
 50
90.0
 41
0.9
100
AcDbText
  0
ENDBLK
  5
2165
330
25A5
100
AcDbEntity
  8
0
100
AcDbBlockEnd
  0
BLOCK
  5
25A8
330
25A7
100
AcDbEntity
  8
0
100
AcDbBlockBegin
  2
*D68
 70
     1
 10
0.0
 20
0.0
 30
0.0
  3
*D68
  1

  0
LINE
  5
1DD7
330
25A7
100
AcDbEntity
  8
SIZE
 62
     0
100
AcDbLine
 10
-26051.22047887697
 20
5996.10923282105
 30
0.0
 11
-26051.22047887697
 21
6098.896234623666
 31
0.0
  0
LINE
  5
1DD8
330
25A7
100
AcDbEntity
  8
SIZE
 62
     0
100
AcDbLine
 10
-25771.22047887697
 20
5996.10923282105
 30
0.0
 11
-25771.22047887697
 21
6098.896234623666
 31
0.0
  0
LINE
  5
1DD9
330
25A7
100
AcDbEntity
  8
SIZE
 62
     0
100
AcDbLine
 10
-26039.22047887697
 20
6078.896234623666
 30
0.0
 11
-25783.22047887697
 21
6078.896234623666
 31
0.0
  0
INSERT
  5
1DDA
330
25A7
100
AcDbEntity
  8
SIZE
 62
     0
100
AcDbBlockReference
  2
_DOTBLANK
 10
-26051.22047887697
 20
6078.896234623666
 30
0.0
 41
12.0
 42
12.0
 43
12.0
 50
180.0
  0
INSERT
  5
1DDB
330
25A7
100
AcDbEntity
  8
SIZE
 62
     0
100
AcDbBlockReference
  2
_DOTBLANK
 10
-25771.22047887697
 20
6078.896234623666
 30
0.0
 41
12.0
 42
12.0
 43
12.0
  0
INSERT
  5
1DDC
330
25A7
100
AcDbEntity
  8
0
100
AcDbBlockReference
  2
*U69
 10
0.0
 20
0.0
 30
0.0
  0
POINT
  5
1DDD
330
25A7
100
AcDbEntity
  8
DEFPOINTS
 62
     0
100
AcDbPoint
 10
-26051.22047887697
 20
5976.10923282105
 30
0.0
  0
POINT
  5
1DDE
330
25A7
100
AcDbEntity
  8
DEFPOINTS
 62
     0
100
AcDbPoint
 10
-25771.22047887697
 20
5976.10923282105
 30
0.0
  0
POINT
  5
1DDF
330
25A7
100
AcDbEntity
  8
DEFPOINTS
 62
     0
100
AcDbPoint
 10
-25771.22047887697
 20
6078.896234623666
 30
0.0
  0
ENDBLK
  5
1DE0
330
25A7
100
AcDbEntity
  8
0
100
AcDbBlockEnd
  0
BLOCK
  5
25AA
330
25A9
100
AcDbEntity
  8
0
100
AcDbBlockBegin
  2
*U69
 70
     1
 10
0.0
 20
0.0
 30
0.0
  3
*U69
  1

  0
TEXT
  5
2167
330
25A9
100
AcDbEntity
  8
SIZE
 62
     0
100
AcDbText
 10
-25985.27762173411
 20
6088.896234623666
 30
0.0
 40
64.0
  1
280
 41
0.9
100
AcDbText
  0
ENDBLK
  5
2169
330
25A9
100
AcDbEntity
  8
0
100
AcDbBlockEnd
  0
BLOCK
  5
25AC
330
25AB
100
AcDbEntity
  8
0
100
AcDbBlockBegin
  2
*D70
 70
     1
 10
0.0
 20
0.0
 30
0.0
  3
*D70
  1

  0
LINE
  5
1DE3
330
25AB
100
AcDbEntity
  8
SIZE
 62
     0
100
AcDbLine
 10
-26068.72047887697
 20
6001.10923282105
 30
0.0
 11
-26068.72047887697
 21
6200.730449058879
 31
0.0
  0
LINE
  5
1DE4
330
25AB
100
AcDbEntity
  8
SIZE
 62
     0
100
AcDbLine
 10
-25753.72047887697
 20
6001.10923282105
 30
0.0
 11
-25753.72047887697
 21
6200.730449058879
 31
0.0
  0
LINE
  5
1DE5
330
25AB
100
AcDbEntity
  8
SIZE
 62
     0
100
AcDbLine
 10
-26056.72047887697
 20
6180.730449058881
 30
0.0
 11
-25765.72047887697
 21
6180.730449058881
 31
0.0
  0
INSERT
  5
1DE6
330
25AB
100
AcDbEntity
  8
SIZE
 62
     0
100
AcDbBlockReference
  2
_DOTBLANK
 10
-26068.72047887697
 20
6180.730449058881
 30
0.0
 41
12.0
 42
12.0
 43
12.0
 50
180.0
  0
INSERT
  5
1DE7
330
25AB
100
AcDbEntity
  8
SIZE
 62
     0
100
AcDbBlockReference
  2
_DOTBLANK
 10
-25753.72047887697
 20
6180.730449058881
 30
0.0
 41
12.0
 42
12.0
 43
12.0
  0
INSERT
  5
1DE8
330
25AB
100
AcDbEntity
  8
0
100
AcDbBlockReference
  2
*U71
 10
0.0
 20
0.0
 30
0.0
  0
POINT
  5
1DE9
330
25AB
100
AcDbEntity
  8
DEFPOINTS
 62
     0
100
AcDbPoint
 10
-26068.72047887697
 20
5981.10923282105
 30
0.0
  0
POINT
  5
1DEA
330
25AB
100
AcDbEntity
  8
DEFPOINTS
 62
     0
100
AcDbPoint
 10
-25753.72047887697
 20
5981.10923282105
 30
0.0
  0
POINT
  5
1DEB
330
25AB
100
AcDbEntity
  8
DEFPOINTS
 62
     0
100
AcDbPoint
 10
-25753.72047887697
 20
6180.730449058881
 30
0.0
  0
ENDBLK
  5
1DEC
330
25AB
100
AcDbEntity
  8
0
100
AcDbBlockEnd
  0
BLOCK
  5
25AE
330
25AD
100
AcDbEntity
  8
0
100
AcDbBlockBegin
  2
*U71
 70
     1
 10
0.0
 20
0.0
 30
0.0
  3
*U71
  1

  0
TEXT
  5
216B
330
25AD
100
AcDbEntity
  8
SIZE
 62
     0
100
AcDbText
 10
-25979.79190744839
 20
6190.730449058881
 30
0.0
 40
64.0
  1
315
 41
0.9
100
AcDbText
  0
ENDBLK
  5
216D
330
25AD
100
AcDbEntity
  8
0
100
AcDbBlockEnd
  0
BLOCK
  5
25B0
330
25AF
100
AcDbEntity
  8
0
100
AcDbBlockBegin
  2
*D72
 70
     1
 10
0.0
 20
0.0
 30
0.0
  3
*D72
  1

  0
LINE
  5
1DEF
330
25AF
100
AcDbEntity
  8
SIZE
 62
     0
100
AcDbLine
 10
-26045.72047887697
 20
5557.10923282105
 30
0.0
 11
-26045.72047887697
 21
5413.715008064631
 31
0.0
  0
LINE
  5
1DF0
330
25AF
100
AcDbEntity
  8
SIZE
 62
     0
100
AcDbLine
 10
-25776.72047887697
 20
5557.10923282105
 30
0.0
 11
-25776.72047887697
 21
5413.715008064631
 31
0.0
  0
LINE
  5
1DF1
330
25AF
100
AcDbEntity
  8
SIZE
 62
     0
100
AcDbLine
 10
-26033.72047887697
 20
5433.715008064631
 30
0.0
 11
-25788.72047887697
 21
5433.715008064631
 31
0.0
  0
INSERT
  5
1DF2
330
25AF
100
AcDbEntity
  8
SIZE
 62
     0
100
AcDbBlockReference
  2
_DOTBLANK
 10
-26045.72047887697
 20
5433.715008064631
 30
0.0
 41
12.0
 42
12.0
 43
12.0
 50
180.0
  0
INSERT
  5
1DF3
330
25AF
100
AcDbEntity
  8
SIZE
 62
     0
100
AcDbBlockReference
  2
_DOTBLANK
 10
-25776.72047887697
 20
5433.715008064631
 30
0.0
 41
12.0
 42
12.0
 43
12.0
  0
INSERT
  5
1DF4
330
25AF
100
AcDbEntity
  8
0
100
AcDbBlockReference
  2
*U73
 10
0.0
 20
0.0
 30
0.0
  0
POINT
  5
1DF5
330
25AF
100
AcDbEntity
  8
DEFPOINTS
 62
     0
100
AcDbPoint
 10
-26045.72047887697
 20
5577.10923282105
 30
0.0
  0
POINT
  5
1DF6
330
25AF
100
AcDbEntity
  8
DEFPOINTS
 62
     0
100
AcDbPoint
 10
-25776.72047887697
 20
5577.10923282105
 30
0.0
  0
POINT
  5
1DF7
330
25AF
100
AcDbEntity
  8
DEFPOINTS
 62
     0
100
AcDbPoint
 10
-25776.72047887697
 20
5433.715008064631
 30
0.0
  0
ENDBLK
  5
1DF8
330
25AF
100
AcDbEntity
  8
0
100
AcDbBlockEnd
  0
BLOCK
  5
25B2
330
25B1
100
AcDbEntity
  8
0
100
AcDbBlockBegin
  2
*U73
 70
     1
 10
0.0
 20
0.0
 30
0.0
  3
*U73
  1

  0
TEXT
  5
216F
330
25B1
100
AcDbEntity
  8
SIZE
 62
     0
100
AcDbText
 10
-25983.90619316268
 20
5443.715008064632
 30
0.0
 40
64.0
  1
269
 41
0.9
100
AcDbText
  0
ENDBLK
  5
2171
330
25B1
100
AcDbEntity
  8
0
100
AcDbBlockEnd
  0
BLOCK
  5
25B4
330
25B3
100
AcDbEntity
  8
0
100
AcDbBlockBegin
  2
*D74
 70
     1
 10
0.0
 20
0.0
 30
0.0
  3
*D74
  1

  0
LINE
  5
1DFB
330
25B3
100
AcDbEntity
  8
SIZE
 62
     0
100
AcDbLine
 10
-26088.72047887697
 20
5981.10923282105
 30
0.0
 11
-26473.72638176128
 21
5981.10923282105
 31
0.0
  0
LINE
  5
1DFC
330
25B3
100
AcDbEntity
  8
SIZE
 62
     0
100
AcDbLine
 10
-26065.72047887697
 20
5577.10923282105
 30
0.0
 11
-26473.72638176128
 21
5577.10923282105
 31
0.0
  0
LINE
  5
1DFD
330
25B3
100
AcDbEntity
  8
SIZE
 62
     0
100
AcDbLine
 10
-26453.72638176128
 20
5969.10923282105
 30
0.0
 11
-26453.72638176128
 21
5589.10923282105
 31
0.0
  0
INSERT
  5
1DFE
330
25B3
100
AcDbEntity
  8
SIZE
 62
     0
100
AcDbBlockReference
  2
_DOTBLANK
 10
-26453.72638176128
 20
5981.10923282105
 30
0.0
 41
12.0
 42
12.0
 43
12.0
 50
90.0
  0
INSERT
  5
1DFF
330
25B3
100
AcDbEntity
  8
SIZE
 62
     0
100
AcDbBlockReference
  2
_DOTBLANK
 10
-26453.72638176128
 20
5577.10923282105
 30
0.0
 41
12.0
 42
12.0
 43
12.0
 50
270.0
  0
INSERT
  5
1E00
330
25B3
100
AcDbEntity
  8
0
100
AcDbBlockReference
  2
*U75
 10
0.0
 20
0.0
 30
0.0
  0
POINT
  5
1E01
330
25B3
100
AcDbEntity
  8
DEFPOINTS
 62
     0
100
AcDbPoint
 10
-26068.72047887697
 20
5981.10923282105
 30
0.0
  0
POINT
  5
1E02
330
25B3
100
AcDbEntity
  8
DEFPOINTS
 62
     0
100
AcDbPoint
 10
-26045.72047887697
 20
5577.10923282105
 30
0.0
  0
POINT
  5
1E03
330
25B3
100
AcDbEntity
  8
DEFPOINTS
 62
     0
100
AcDbPoint
 10
-26453.72638176128
 20
5577.10923282105
 30
0.0
  0
ENDBLK
  5
1E04
330
25B3
100
AcDbEntity
  8
0
100
AcDbBlockEnd
  0
BLOCK
  5
25B6
330
25B5
100
AcDbEntity
  8
0
100
AcDbBlockBegin
  2
*U75
 70
     1
 10
0.0
 20
0.0
 30
0.0
  3
*U75
  1

  0
TEXT
  5
2173
330
25B5
100
AcDbEntity
  8
SIZE
 62
     0
100
AcDbText
 10
-26463.72638176128
 20
5703.680661392475
 30
0.0
 40
64.0
  1
404
 50
90.0
 41
0.9
100
AcDbText
  0
ENDBLK
  5
2175
330
25B5
100
AcDbEntity
  8
0
100
AcDbBlockEnd
  0
BLOCK
  5
25B8
330
25B7
100
AcDbEntity
  8
0
100
AcDbBlockBegin
  2
*D76
 70
     1
 10
0.0
 20
0.0
 30
0.0
  3
*D76
  1

  0
LINE
  5
1FA9
330
25B7
100
AcDbEntity
  8
SIZE
 62
     0
100
AcDbLine
 10
-177.5
 20
-157.5
 30
0.0
 11
-424.0027336080602
 21
-157.4999999999998
 31
0.0
  0
LINE
  5
1FAA
330
25B7
100
AcDbEntity
  8
SIZE
 62
     0
100
AcDbLine
 10
-177.5
 20
157.5
 30
0.0
 11
-424.0027336080602
 21
157.5000000000001
 31
0.0
  0
LINE
  5
1FAB
330
25B7
100
AcDbEntity
  8
SIZE
 62
     0
100
AcDbLine
 10
-404.00273360806
 20
-145.4999999999998
 30
0.0
 11
-404.00273360806
 21
145.5000000000001
 31
0.0
  0
INSERT
  5
1FAC
330
25B7
100
AcDbEntity
  8
SIZE
 62
     0
100
AcDbBlockReference
  2
_DOTBLANK
 10
-404.00273360806
 20
-157.4999999999998
 30
0.0
 41
12.0
 42
12.0
 43
12.0
 50
270.0
  0
INSERT
  5
1FAD
330
25B7
100
AcDbEntity
  8
SIZE
 62
     0
100
AcDbBlockReference
  2
_DOTBLANK
 10
-404.00273360806
 20
157.5000000000001
 30
0.0
 41
12.0
 42
12.0
 43
12.0
 50
90.0
  0
INSERT
  5
1FAE
330
25B7
100
AcDbEntity
  8
0
100
AcDbBlockReference
  2
*U77
 10
0.0
 20
0.0
 30
0.0
  0
POINT
  5
1FAF
330
25B7
100
AcDbEntity
  8
DEFPOINTS
 62
     0
100
AcDbPoint
 10
-157.5
 20
-157.5
 30
0.0
  0
POINT
  5
1FB0
330
25B7
100
AcDbEntity
  8
DEFPOINTS
 62
     0
100
AcDbPoint
 10
-157.5
 20
157.5
 30
0.0
  0
POINT
  5
1FB1
330
25B7
100
AcDbEntity
  8
DEFPOINTS
 62
     0
100
AcDbPoint
 10
-404.00273360806
 20
157.5000000000001
 30
0.0
  0
ENDBLK
  5
1E8B
330
25B7
100
AcDbEntity
  8
0
100
AcDbBlockEnd
  0
BLOCK
  5
25BA
330
25B9
100
AcDbEntity
  8
0
100
AcDbBlockBegin
  2
*U77
 70
     1
 10
0.0
 20
0.0
 30
0.0
  3
*U77
  1

  0
TEXT
  5
2192
330
25B9
100
AcDbEntity
  8
SIZE
 62
     0
100
AcDbText
 10
-414.0027336080599
 20
-68.57142857142854
 30
0.0
 40
64.0
  1
315
 50
90.0
 41
0.9
100
AcDbText
  0
ENDBLK
  5
2194
330
25B9
100
AcDbEntity
  8
0
100
AcDbBlockEnd
  0
BLOCK
  5
25BC
330
25BB
100
AcDbEntity
  8
0
100
AcDbBlockBegin
  2
*D78
 70
     1
 10
0.0
 20
0.0
 30
0.0
  3
*D78
  1

  0
LINE
  5
1FB2
330
25BB
100
AcDbEntity
  8
SIZE
 62
     0
100
AcDbLine
 10
-172.5
 20
140.0
 30
0.0
 11
-279.2869931611239
 21
140.0
 31
0.0
  0
LINE
  5
1FB3
330
25BB
100
AcDbEntity
  8
SIZE
 62
     0
100
AcDbLine
 10
-172.5
 20
-140.0
 30
0.0
 11
-279.286993161124
 21
-139.9999999999998
 31
0.0
  0
LINE
  5
1FB4
330
25BB
100
AcDbEntity
  8
SIZE
 62
     0
100
AcDbLine
 10
-259.2869931611239
 20
128.0
 30
0.0
 11
-259.286993161124
 21
-128.0
 31
0.0
  0
INSERT
  5
1FB5
330
25BB
100
AcDbEntity
  8
SIZE
 62
     0
100
AcDbBlockReference
  2
_DOTBLANK
 10
-259.2869931611239
 20
140.0
 30
0.0
 41
12.0
 42
12.0
 43
12.0
 50
90.0
  0
INSERT
  5
1FB6
330
25BB
100
AcDbEntity
  8
SIZE
 62
     0
100
AcDbBlockReference
  2
_DOTBLANK
 10
-259.286993161124
 20
-139.9999999999998
 30
0.0
 41
12.0
 42
12.0
 43
12.0
 50
270.0
  0
INSERT
  5
1FB7
330
25BB
100
AcDbEntity
  8
0
100
AcDbBlockReference
  2
*U79
 10
0.0
 20
0.0
 30
0.0
  0
POINT
  5
1FB8
330
25BB
100
AcDbEntity
  8
DEFPOINTS
 62
     0
100
AcDbPoint
 10
-152.5
 20
140.0
 30
0.0
  0
POINT
  5
1FB9
330
25BB
100
AcDbEntity
  8
DEFPOINTS
 62
     0
100
AcDbPoint
 10
-152.5
 20
-140.0
 30
0.0
  0
POINT
  5
1FBA
330
25BB
100
AcDbEntity
  8
DEFPOINTS
 62
     0
100
AcDbPoint
 10
-259.286993161124
 20
-139.9999999999998
 30
0.0
  0
ENDBLK
  5
1E97
330
25BB
100
AcDbEntity
  8
0
100
AcDbBlockEnd
  0
BLOCK
  5
25BE
330
25BD
100
AcDbEntity
  8
0
100
AcDbBlockBegin
  2
*U79
 70
     1
 10
0.0
 20
0.0
 30
0.0
  3
*U79
  1

  0
TEXT
  5
2196
330
25BD
100
AcDbEntity
  8
SIZE
 62
     0
100
AcDbText
 10
-269.2869931611239
 20
-74.05714285714283
 30
0.0
 40
64.0
  1
280
 50
90.0
 41
0.9
100
AcDbText
  0
ENDBLK
  5
2198
330
25BD
100
AcDbEntity
  8
0
100
AcDbBlockEnd
  0
BLOCK
  5
25C0
330
25BF
100
AcDbEntity
  8
0
100
AcDbBlockBegin
  2
*D80
 70
     1
 10
0.0
 20
0.0
 30
0.0
  3
*D80
  1

  0
LINE
  5
1FBB
330
25BF
100
AcDbEntity
  8
SIZE
 62
     0
100
AcDbLine
 10
-140.0
 20
172.5
 30
0.0
 11
-140.0
 21
275.287001802615
 31
0.0
  0
LINE
  5
1FBC
330
25BF
100
AcDbEntity
  8
SIZE
 62
     0
100
AcDbLine
 10
140.0
 20
172.5
 30
0.0
 11
140.0
 21
275.287001802615
 31
0.0
  0
LINE
  5
1FBD
330
25BF
100
AcDbEntity
  8
SIZE
 62
     0
100
AcDbLine
 10
-128.0
 20
255.2870018026151
 30
0.0
 11
128.0
 21
255.2870018026151
 31
0.0
  0
INSERT
  5
1FBE
330
25BF
100
AcDbEntity
  8
SIZE
 62
     0
100
AcDbBlockReference
  2
_DOTBLANK
 10
-140.0
 20
255.2870018026151
 30
0.0
 41
12.0
 42
12.0
 43
12.0
 50
180.0
  0
INSERT
  5
1FBF
330
25BF
100
AcDbEntity
  8
SIZE
 62
     0
100
AcDbBlockReference
  2
_DOTBLANK
 10
140.0
 20
255.2870018026151
 30
0.0
 41
12.0
 42
12.0
 43
12.0
  0
INSERT
  5
1FC0
330
25BF
100
AcDbEntity
  8
0
100
AcDbBlockReference
  2
*U81
 10
0.0
 20
0.0
 30
0.0
  0
POINT
  5
1FC1
330
25BF
100
AcDbEntity
  8
DEFPOINTS
 62
     0
100
AcDbPoint
 10
-140.0
 20
152.5
 30
0.0
  0
POINT
  5
1FC2
330
25BF
100
AcDbEntity
  8
DEFPOINTS
 62
     0
100
AcDbPoint
 10
140.0
 20
152.5
 30
0.0
  0
POINT
  5
1FC3
330
25BF
100
AcDbEntity
  8
DEFPOINTS
 62
     0
100
AcDbPoint
 10
140.0
 20
255.2870018026151
 30
0.0
  0
ENDBLK
  5
1EA3
330
25BF
100
AcDbEntity
  8
0
100
AcDbBlockEnd
  0
BLOCK
  5
25C2
330
25C1
100
AcDbEntity
  8
0
100
AcDbBlockBegin
  2
*U81
 70
     1
 10
0.0
 20
0.0
 30
0.0
  3
*U81
  1

  0
TEXT
  5
219A
330
25C1
100
AcDbEntity
  8
SIZE
 62
     0
100
AcDbText
 10
-74.05714285714283
 20
265.2870018026151
 30
0.0
 40
64.0
  1
280
 41
0.9
100
AcDbText
  0
ENDBLK
  5
219C
330
25C1
100
AcDbEntity
  8
0
100
AcDbBlockEnd
  0
BLOCK
  5
25C4
330
25C3
100
AcDbEntity
  8
0
100
AcDbBlockBegin
  2
*D82
 70
     1
 10
0.0
 20
0.0
 30
0.0
  3
*D82
  1

  0
LINE
  5
1FC4
330
25C3
100
AcDbEntity
  8
SIZE
 62
     0
100
AcDbLine
 10
-157.5
 20
177.5
 30
0.0
 11
-157.5
 21
377.1212162378297
 31
0.0
  0
LINE
  5
1FC5
330
25C3
100
AcDbEntity
  8
SIZE
 62
     0
100
AcDbLine
 10
157.5
 20
177.5
 30
0.0
 11
157.5
 21
377.1212162378297
 31
0.0
  0
LINE
  5
1FC6
330
25C3
100
AcDbEntity
  8
SIZE
 62
     0
100
AcDbLine
 10
-145.5
 20
357.1212162378297
 30
0.0
 11
145.5
 21
357.1212162378297
 31
0.0
  0
INSERT
  5
1FC7
330
25C3
100
AcDbEntity
  8
SIZE
 62
     0
100
AcDbBlockReference
  2
_DOTBLANK
 10
-157.5
 20
357.1212162378297
 30
0.0
 41
12.0
 42
12.0
 43
12.0
 50
180.0
  0
INSERT
  5
1FC8
330
25C3
100
AcDbEntity
  8
SIZE
 62
     0
100
AcDbBlockReference
  2
_DOTBLANK
 10
157.5
 20
357.1212162378297
 30
0.0
 41
12.0
 42
12.0
 43
12.0
  0
INSERT
  5
1FC9
330
25C3
100
AcDbEntity
  8
0
100
AcDbBlockReference
  2
*U83
 10
0.0
 20
0.0
 30
0.0
  0
POINT
  5
1FCA
330
25C3
100
AcDbEntity
  8
DEFPOINTS
 62
     0
100
AcDbPoint
 10
-157.5
 20
157.5
 30
0.0
  0
POINT
  5
1FCB
330
25C3
100
AcDbEntity
  8
DEFPOINTS
 62
     0
100
AcDbPoint
 10
157.5
 20
157.5
 30
0.0
  0
POINT
  5
1FCC
330
25C3
100
AcDbEntity
  8
DEFPOINTS
 62
     0
100
AcDbPoint
 10
157.5
 20
357.1212162378297
 30
0.0
  0
ENDBLK
  5
1EAF
330
25C3
100
AcDbEntity
  8
0
100
AcDbBlockEnd
  0
BLOCK
  5
25C6
330
25C5
100
AcDbEntity
  8
0
100
AcDbBlockBegin
  2
*U83
 70
     1
 10
0.0
 20
0.0
 30
0.0
  3
*U83
  1

  0
TEXT
  5
219E
330
25C5
100
AcDbEntity
  8
SIZE
 62
     0
100
AcDbText
 10
-68.57142857142857
 20
367.1212162378297
 30
0.0
 40
64.0
  1
315
 41
0.9
100
AcDbText
  0
ENDBLK
  5
21A0
330
25C5
100
AcDbEntity
  8
0
100
AcDbBlockEnd
  0
BLOCK
  5
25C8
330
25C7
100
AcDbEntity
  8
0
100
AcDbBlockBegin
  2
*D84
 70
     1
 10
0.0
 20
0.0
 30
0.0
  3
*D84
  1

  0
LINE
  5
1FCD
330
25C7
100
AcDbEntity
  8
SIZE
 62
     0
100
AcDbLine
 10
-134.5
 20
-266.5
 30
0.0
 11
-134.5
 21
-409.8942247564191
 31
0.0
  0
LINE
  5
1FCE
330
25C7
100
AcDbEntity
  8
SIZE
 62
     0
100
AcDbLine
 10
134.5
 20
-266.5
 30
0.0
 11
134.5
 21
-409.8942247564191
 31
0.0
  0
LINE
  5
1FCF
330
25C7
100
AcDbEntity
  8
SIZE
 62
     0
100
AcDbLine
 10
-122.5
 20
-389.8942247564191
 30
0.0
 11
122.5
 21
-389.8942247564191
 31
0.0
  0
INSERT
  5
1FD0
330
25C7
100
AcDbEntity
  8
SIZE
 62
     0
100
AcDbBlockReference
  2
_DOTBLANK
 10
-134.5
 20
-389.8942247564191
 30
0.0
 41
12.0
 42
12.0
 43
12.0
 50
180.0
  0
INSERT
  5
1FD1
330
25C7
100
AcDbEntity
  8
SIZE
 62
     0
100
AcDbBlockReference
  2
_DOTBLANK
 10
134.5
 20
-389.8942247564191
 30
0.0
 41
12.0
 42
12.0
 43
12.0
  0
INSERT
  5
1FD2
330
25C7
100
AcDbEntity
  8
0
100
AcDbBlockReference
  2
*U85
 10
0.0
 20
0.0
 30
0.0
  0
POINT
  5
1FD3
330
25C7
100
AcDbEntity
  8
DEFPOINTS
 62
     0
100
AcDbPoint
 10
-134.5
 20
-246.5
 30
0.0
  0
POINT
  5
1FD4
330
25C7
100
AcDbEntity
  8
DEFPOINTS
 62
     0
100
AcDbPoint
 10
134.5
 20
-246.5
 30
0.0
  0
POINT
  5
1FD5
330
25C7
100
AcDbEntity
  8
DEFPOINTS
 62
     0
100
AcDbPoint
 10
134.5
 20
-389.8942247564191
 30
0.0
  0
ENDBLK
  5
1EBB
330
25C7
100
AcDbEntity
  8
0
100
AcDbBlockEnd
  0
BLOCK
  5
25CA
330
25C9
100
AcDbEntity
  8
0
100
AcDbBlockBegin
  2
*U85
 70
     1
 10
0.0
 20
0.0
 30
0.0
  3
*U85
  1

  0
TEXT
  5
21A2
330
25C9
100
AcDbEntity
  8
SIZE
 62
     0
100
AcDbText
 10
-72.68571428571426
 20
-379.8942247564192
 30
0.0
 40
64.0
  1
269
 41
0.9
100
AcDbText
  0
ENDBLK
  5
21A4
330
25C9
100
AcDbEntity
  8
0
100
AcDbBlockEnd
  0
BLOCK
  5
25CC
330
25CB
100
AcDbEntity
  8
0
100
AcDbBlockBegin
  2
*D86
 70
     1
 10
0.0
 20
0.0
 30
0.0
  3
*D86
  1

  0
LINE
  5
1FD6
330
25CB
100
AcDbEntity
  8
SIZE
 62
     0
100
AcDbLine
 10
-177.5
 20
157.5
 30
0.0
 11
-562.5059028843134
 21
157.5000000000001
 31
0.0
  0
LINE
  5
1FD7
330
25CB
100
AcDbEntity
  8
SIZE
 62
     0
100
AcDbLine
 10
-154.5
 20
-246.5
 30
0.0
 11
-562.5059028843134
 21
-246.4999999999999
 31
0.0
  0
LINE
  5
1FD8
330
25CB
100
AcDbEntity
  8
SIZE
 62
     0
100
AcDbLine
 10
-542.5059028843134
 20
145.5000000000001
 30
0.0
 11
-542.5059028843134
 21
-234.4999999999999
 31
0.0
  0
INSERT
  5
1FD9
330
25CB
100
AcDbEntity
  8
SIZE
 62
     0
100
AcDbBlockReference
  2
_DOTBLANK
 10
-542.5059028843134
 20
157.5000000000001
 30
0.0
 41
12.0
 42
12.0
 43
12.0
 50
90.0
  0
INSERT
  5
1FDA
330
25CB
100
AcDbEntity
  8
SIZE
 62
     0
100
AcDbBlockReference
  2
_DOTBLANK
 10
-542.5059028843134
 20
-246.4999999999999
 30
0.0
 41
12.0
 42
12.0
 43
12.0
 50
270.0
  0
INSERT
  5
1FDB
330
25CB
100
AcDbEntity
  8
0
100
AcDbBlockReference
  2
*U87
 10
0.0
 20
0.0
 30
0.0
  0
POINT
  5
1FDC
330
25CB
100
AcDbEntity
  8
DEFPOINTS
 62
     0
100
AcDbPoint
 10
-157.5
 20
157.5
 30
0.0
  0
POINT
  5
1FDD
330
25CB
100
AcDbEntity
  8
DEFPOINTS
 62
     0
100
AcDbPoint
 10
-134.5
 20
-246.5
 30
0.0
  0
POINT
  5
1FDE
330
25CB
100
AcDbEntity
  8
DEFPOINTS
 62
     0
100
AcDbPoint
 10
-542.5059028843134
 20
-246.4999999999999
 30
0.0
  0
ENDBLK
  5
1EC7
330
25CB
100
AcDbEntity
  8
0
100
AcDbBlockEnd
  0
BLOCK
  5
25CE
330
25CD
100
AcDbEntity
  8
0
100
AcDbBlockBegin
  2
*U87
 70
     1
 10
0.0
 20
0.0
 30
0.0
  3
*U87
  1

  0
TEXT
  5
21A6
330
25CD
100
AcDbEntity
  8
SIZE
 62
     0
100
AcDbText
 10
-552.5059028843132
 20
-119.9285714285714
 30
0.0
 40
64.0
  1
404
 50
90.0
 41
0.9
100
AcDbText
  0
ENDBLK
  5
21A8
330
25CD
100
AcDbEntity
  8
0
100
AcDbBlockEnd
  0
BLOCK
  5
25D0
330
25CF
100
AcDbEntity
  8
0
100
AcDbBlockBegin
  2
*U88
 70
     1
 10
0.0
 20
0.0
 30
0.0
  3
*U88
  1

  0
INSERT
  5
2185
330
25CF
100
AcDbEntity
  8
NOTE
100
AcDbBlockReference
  2
_OPEN30
 10
140.0
 20
140.0
 30
0.0
 41
12.0
 42
12.0
 43
12.0
 50
230.7091310502217
  0
POLYLINE
  5
2186
330
25CF
100
AcDbEntity
  8
NOTE
100
AcDb2dPolyline
 66
     1
 10
0.0
 20
0.0
 30
0.0
  0
VERTEX
  5
2187
330
2186
100
AcDbEntity
  8
NOTE
100
AcDbVertex
100
AcDb2dVertex
 10
147.599090480922
 20
149.2872936780722
 30
0.0
  0
VERTEX
  5
2188
330
2186
100
AcDbEntity
  8
NOTE
100
AcDbVertex
100
AcDb2dVertex
 10
203.4345623698609
 20
217.5270950580134
 30
0.0
  0
VERTEX
  5
2189
330
2186
100
AcDbEntity
  8
NOTE
100
AcDbVertex
100
AcDb2dVertex
 10
749.2745623698612
 20
217.5270950580134
 30
0.0
  0
SEQEND
  5
218A
330
2186
100
AcDbEntity
  8
NOTE
  0
ENDBLK
  5
218C
330
25CF
100
AcDbEntity
  8
0
100
AcDbBlockEnd
  0
BLOCK
  5
25D2
330
25D1
100
AcDbEntity
  8
0
100
AcDbBlockBegin
  2
*U89
 70
     1
 10
0.0
 20
0.0
 30
0.0
  3
*U89
  1

  0
TEXT
  5
218E
330
25D1
100
AcDbEntity
  8
NOTE
100
AcDbText
 10
265.4345623698609
 20
235.5270950580135
 30
0.0
 40
64.0
  1
4×φ10取付穴
 41
0.9
100
AcDbText
  0
ENDBLK
  5
2190
330
25D1
100
AcDbEntity
  8
0
100
AcDbBlockEnd
  0
BLOCK
  5
25D4
330
25D3
100
AcDbEntity
  8
0
100
AcDbBlockBegin
  2
*U90
 70
     1
 10
0.0
 20
0.0
 30
0.0
  3
*U90
  1

  0
TEXT
  5
21AA
330
25D3
100
AcDbEntity
  8
SIZE
100
AcDbText
 10
-68.57142857142857
 20
367.1212162378297
 30
0.0
 40
64.0
  1
315
 41
0.9
100
AcDbText
  0
ENDBLK
  5
21AC
330
25D3
100
AcDbEntity
  8
0
100
AcDbBlockEnd
  0
BLOCK
  5
25D6
330
25D5
100
AcDbEntity
  8
0
100
AcDbBlockBegin
  2
*U91
 70
     1
 10
0.0
 20
0.0
 30
0.0
  3
*U91
  1

  0
TEXT
  5
21AE
330
25D5
100
AcDbEntity
  8
SIZE
100
AcDbText
 10
-74.05714285714283
 20
265.2870018026151
 30
0.0
 40
64.0
  1
280
 41
0.9
100
AcDbText
  0
ENDBLK
  5
21B0
330
25D5
100
AcDbEntity
  8
0
100
AcDbBlockEnd
  0
BLOCK
  5
25D8
330
25D7
100
AcDbEntity
  8
0
100
AcDbBlockBegin
  2
*U92
 70
     1
 10
0.0
 20
0.0
 30
0.0
  3
*U92
  1

  0
TEXT
  5
21B2
330
25D7
100
AcDbEntity
  8
SIZE
100
AcDbText
 10
-552.5059028843132
 20
-119.9285714285714
 30
0.0
 40
64.0
  1
404
 50
90.0
 41
0.9
100
AcDbText
  0
ENDBLK
  5
21B4
330
25D7
100
AcDbEntity
  8
0
100
AcDbBlockEnd
  0
BLOCK
  5
25DA
330
25D9
100
AcDbEntity
  8
0
100
AcDbBlockBegin
  2
*U93
 70
     1
 10
0.0
 20
0.0
 30
0.0
  3
*U93
  1

  0
TEXT
  5
21B6
330
25D9
100
AcDbEntity
  8
SIZE
100
AcDbText
 10
-269.2869931611239
 20
-74.05714285714283
 30
0.0
 40
64.0
  1
280
 50
90.0
 41
0.9
100
AcDbText
  0
ENDBLK
  5
21B8
330
25D9
100
AcDbEntity
  8
0
100
AcDbBlockEnd
  0
BLOCK
  5
25DC
330
25DB
100
AcDbEntity
  8
0
100
AcDbBlockBegin
  2
*U94
 70
     1
 10
0.0
 20
0.0
 30
0.0
  3
*U94
  1

  0
TEXT
  5
21BA
330
25DB
100
AcDbEntity
  8
SIZE
100
AcDbText
 10
-414.0027336080599
 20
-68.57142857142854
 30
0.0
 40
64.0
  1
315
 50
90.0
 41
0.9
100
AcDbText
  0
ENDBLK
  5
21BC
330
25DB
100
AcDbEntity
  8
0
100
AcDbBlockEnd
  0
BLOCK
  5
25DE
330
25DD
100
AcDbEntity
  8
0
100
AcDbBlockBegin
  2
*U95
 70
     1
 10
0.0
 20
0.0
 30
0.0
  3
*U95
  1

  0
TEXT
  5
21BE
330
25DD
100
AcDbEntity
  8
SIZE
100
AcDbText
 10
-72.68571428571426
 20
-379.8942247564192
 30
0.0
 40
64.0
  1
269
 41
0.9
100
AcDbText
  0
ENDBLK
  5
21C0
330
25DD
100
AcDbEntity
  8
0
100
AcDbBlockEnd
  0
ENDSEC
  0
SECTION
  2
ENTITIES
  0
TEXT
  5
953
330
24D7
100
AcDbEntity
  8
OUTLINE
  6
Continuous
 62
     3
100
AcDbText
 10
-418.231467
 20
13.715189
 30
0.0
 40
64.0
  1
 
 41
0.9
100
AcDbText
  0
TEXT
  5
954
330
24D7
100
AcDbEntity
  8
OUTLINE
  6
Continuous
 62
     3
100
AcDbText
 10
-418.231467
 20
13.715189
 30
0.0
 40
64.0
  1
 
 41
0.9
100
AcDbText
  0
TEXT
  5
955
330
24D7
100
AcDbEntity
  8
OUTLINE
  6
Continuous
 62
     3
100
AcDbText
 10
1341.41903
 20
-706.0588199999997
 30
0.0
 40
64.0
  1
 
 41
0.9
100
AcDbText
  0
TEXT
  5
956
330
24D7
100
AcDbEntity
  8
OUTLINE
  6
Continuous
 62
     3
100
AcDbText
 10
1341.41903
 20
-706.0588199999997
 30
0.0
 40
64.0
  1
 
 41
0.9
100
AcDbText
  0
TEXT
  5
957
330
24D7
100
AcDbEntity
  8
OUTLINE
  6
Continuous
 62
     3
100
AcDbText
 10
1341.41903
 20
-706.0588199999997
 30
0.0
 40
64.0
  1
 
 41
0.9
100
AcDbText
  0
TEXT
  5
958
330
24D7
100
AcDbEntity
  8
OUTLINE
  6
Continuous
 62
     3
100
AcDbText
 10
1341.41903
 20
-706.0588199999997
 30
0.0
 40
64.0
  1
 
 41
0.9
100
AcDbText
  0
TEXT
  5
1E56
330
24D7
100
AcDbEntity
  8
ETC
100
AcDbText
 10
256.2468308916468
 20
503.4403000770334
 30
0.0
 40
64.0
  1
システム部材
 41
0.9
100
AcDbText
  0
TEXT
  5
1E57
330
24D7
100
AcDbEntity
  8
ETC
100
AcDbText
 10
262.4548288916485
 20
604.3236260770336
 30
0.0
 40
64.0
  1
QW-20SB_2
 41
0.9
100
AcDbText
  0
LINE
  5
1E5C
330
24D7
100
AcDbEntity
  8
NOTE
100
AcDbLine
 10
-140.0
 20
-152.5
 30
0.0
 11
-140.0
 21
-127.5
 31
0.0
  0
LINE
  5
1E5D
330
24D7
100
AcDbEntity
  8
NOTE
100
AcDbLine
 10
-152.5
 20
-140.0
 30
0.0
 11
-127.5
 21
-140.0
 31
0.0
  0
CIRCLE
  5
1E5E
330
24D7
100
AcDbEntity
  8
FIX
100
AcDbCircle
 10
-140.0
 20
-140.0
 30
0.0
 40
5.0
  0
LINE
  5
1E5F
330
24D7
100
AcDbEntity
  8
NOTE
100
AcDbLine
 10
-140.0
 20
127.5
 30
0.0
 11
-140.0
 21
152.5
 31
0.0
  0
CIRCLE
  5
1E60
330
24D7
100
AcDbEntity
  8
FIX
100
AcDbCircle
 10
-140.0
 20
140.0
 30
0.0
 40
5.0
  0
LINE
  5
1E61
330
24D7
100
AcDbEntity
  8
NOTE
100
AcDbLine
 10
-152.5
 20
140.0
 30
0.0
 11
-127.5
 21
140.0
 31
0.0
  0
LINE
  5
1E62
330
24D7
100
AcDbEntity
  8
NOTE
100
AcDbLine
 10
140.0
 20
-152.5
 30
0.0
 11
140.0
 21
-127.5
 31
0.0
  0
CIRCLE
  5
1E63
330
24D7
100
AcDbEntity
  8
FIX
100
AcDbCircle
 10
140.0
 20
-140.0
 30
0.0
 40
5.0
  0
LINE
  5
1E64
330
24D7
100
AcDbEntity
  8
NOTE
100
AcDbLine
 10
127.5
 20
-140.0
 30
0.0
 11
152.5
 21
-140.0
 31
0.0
  0
LINE
  5
1E65
330
24D7
100
AcDbEntity
  8
NOTE
100
AcDbLine
 10
140.0
 20
127.5
 30
0.0
 11
140.0
 21
152.5
 31
0.0
  0
CIRCLE
  5
1E66
330
24D7
100
AcDbEntity
  8
FIX
100
AcDbCircle
 10
140.0
 20
140.0
 30
0.0
 40
5.0
  0
LINE
  5
1E67
330
24D7
100
AcDbEntity
  8
NOTE
100
AcDbLine
 10
127.5
 20
140.0
 30
0.0
 11
152.5
 21
140.0
 31
0.0
  0
LINE
  5
1E68
330
24D7
100
AcDbEntity
  8
DETAIL
100
AcDbLine
 10
123.5
 20
123.5
 30
0.0
 11
-123.5
 21
123.5
 31
0.0
  0
LINE
  5
1E69
330
24D7
100
AcDbEntity
  8
DETAIL
100
AcDbLine
 10
123.5
 20
-246.5
 30
0.0
 11
123.5
 21
123.5
 31
0.0
  0
LINE
  5
1E6A
330
24D7
100
AcDbEntity
  8
DETAIL
100
AcDbLine
 10
118.5
 20
-237.0
 30
0.0
 11
123.5
 21
-242.0
 31
0.0
  0
LINE
  5
1E6B
330
24D7
100
AcDbEntity
  8
DETAIL
100
AcDbLine
 10
-123.5
 20
123.5
 30
0.0
 11
-123.5
 21
-246.5
 31
0.0
  0
LINE
  5
1E6C
330
24D7
100
AcDbEntity
  8
DETAIL
100
AcDbLine
 10
134.5
 20
-246.5
 30
0.0
 11
134.5
 21
-218.0941986649423
 31
0.0
  0
LINE
  5
1E6D
330
24D7
100
AcDbEntity
  8
DETAIL
100
AcDbLine
 10
-134.5
 20
-246.5
 30
0.0
 11
-134.5
 21
-218.0941986649423
 31
0.0
  0
LINE
  5
1E6E
330
24D7
100
AcDbEntity
  8
DETAIL
100
AcDbLine
 10
134.5
 20
-218.0941986649423
 30
0.0
 11
123.5
 21
-218.0941986649423
 31
0.0
  0
LINE
  5
1E6F
330
24D7
100
AcDbEntity
  8
DETAIL
100
AcDbLine
 10
-134.5
 20
-246.5
 30
0.0
 11
134.5
 21
-246.5
 31
0.0
  0
LINE
  5
1E70
330
24D7
100
AcDbEntity
  8
DETAIL
100
AcDbLine
 10
-118.4999999999963
 20
-237.0
 30
0.0
 11
118.5
 21
-237.0
 31
0.0
  0
LINE
  5
1E71
330
24D7
100
AcDbEntity
  8
DETAIL
100
AcDbLine
 10
-123.4999999999963
 20
-242.0
 30
0.0
 11
-118.4999999999963
 21
-237.0
 31
0.0
  0
LINE
  5
1E72
330
24D7
100
AcDbEntity
  8
DETAIL
100
AcDbLine
 10
-123.5
 20
-218.0941986649423
 30
0.0
 11
-134.5
 21
-218.0941986649423
 31
0.0
  0
POLYLINE
  5
1E75
330
24D7
100
AcDbEntity
  8
DETAIL
100
AcDb2dPolyline
 66
     1
 10
0.0
 20
0.0
 30
0.0
  0
VERTEX
  5
2176
330
1E75
100
AcDbEntity
  8
DETAIL
100
AcDbVertex
100
AcDb2dVertex
 10
-123.5
 20
-157.5
 30
0.0
  0
VERTEX
  5
2177
330
1E75
100
AcDbEntity
  8
DETAIL
100
AcDbVertex
100
AcDb2dVertex
 10
-157.5
 20
-157.5
 30
0.0
  0
VERTEX
  5
2178
330
1E75
100
AcDbEntity
  8
DETAIL
100
AcDbVertex
100
AcDb2dVertex
 10
-157.5
 20
157.5
 30
0.0
  0
VERTEX
  5
2179
330
1E75
100
AcDbEntity
  8
DETAIL
100
AcDbVertex
100
AcDb2dVertex
 10
157.5
 20
157.5
 30
0.0
  0
VERTEX
  5
217A
330
1E75
100
AcDbEntity
  8
DETAIL
100
AcDbVertex
100
AcDb2dVertex
 10
157.5
 20
-157.5
 30
0.0
  0
VERTEX
  5
217B
330
1E75
100
AcDbEntity
  8
DETAIL
100
AcDbVertex
100
AcDb2dVertex
 10
123.5
 20
-157.5
 30
0.0
  0
SEQEND
  5
217C
330
1E75
100
AcDbEntity
  8
DETAIL
  0
LINE
  5
1E76
330
24D7
100
AcDbEntity
  8
OUTLINE
100
AcDbLine
 10
123.5
 20
123.5
 30
0.0
 11
-123.5
 21
123.5
 31
0.0
  0
LINE
  5
1E77
330
24D7
100
AcDbEntity
  8
OUTLINE
100
AcDbLine
 10
123.5
 20
-246.5
 30
0.0
 11
123.5
 21
123.5
 31
0.0
  0
LINE
  5
1E78
330
24D7
100
AcDbEntity
  8
OUTLINE
100
AcDbLine
 10
-123.5
 20
123.5
 30
0.0
 11
-123.5
 21
-246.5
 31
0.0
  0
LINE
  5
1E79
330
24D7
100
AcDbEntity
  8
OUTLINE
100
AcDbLine
 10
134.5
 20
-246.5
 30
0.0
 11
134.5
 21
-218.0941986649423
 31
0.0
  0
LINE
  5
1E7A
330
24D7
100
AcDbEntity
  8
OUTLINE
100
AcDbLine
 10
-134.5
 20
-246.5
 30
0.0
 11
-134.5
 21
-218.0941986649423
 31
0.0
  0
LINE
  5
1E7B
330
24D7
100
AcDbEntity
  8
OUTLINE
100
AcDbLine
 10
134.5
 20
-218.0941986649423
 30
0.0
 11
123.5
 21
-218.0941986649423
 31
0.0
  0
LINE
  5
1E7C
330
24D7
100
AcDbEntity
  8
OUTLINE
100
AcDbLine
 10
-134.5
 20
-246.5
 30
0.0
 11
134.5
 21
-246.5
 31
0.0
  0
LINE
  5
1E7D
330
24D7
100
AcDbEntity
  8
OUTLINE
100
AcDbLine
 10
-123.5
 20
-218.0941986649423
 30
0.0
 11
-134.5
 21
-218.0941986649423
 31
0.0
  0
POLYLINE
  5
1E7E
330
24D7
100
AcDbEntity
  8
OUTLINE
100
AcDb2dPolyline
 66
     1
 10
0.0
 20
0.0
 30
0.0
  0
VERTEX
  5
217D
330
1E7E
100
AcDbEntity
  8
OUTLINE
100
AcDbVertex
100
AcDb2dVertex
 10
-123.5
 20
-157.5
 30
0.0
  0
VERTEX
  5
217E
330
1E7E
100
AcDbEntity
  8
OUTLINE
100
AcDbVertex
100
AcDb2dVertex
 10
-157.5
 20
-157.5
 30
0.0
  0
VERTEX
  5
217F
330
1E7E
100
AcDbEntity
  8
OUTLINE
100
AcDbVertex
100
AcDb2dVertex
 10
-157.5
 20
157.5
 30
0.0
  0
VERTEX
  5
2180
330
1E7E
100
AcDbEntity
  8
OUTLINE
100
AcDbVertex
100
AcDb2dVertex
 10
157.5
 20
157.5
 30
0.0
  0
VERTEX
  5
2181
330
1E7E
100
AcDbEntity
  8
OUTLINE
100
AcDbVertex
100
AcDb2dVertex
 10
157.5
 20
-157.5
 30
0.0
  0
VERTEX
  5
2182
330
1E7E
100
AcDbEntity
  8
OUTLINE
100
AcDbVertex
100
AcDb2dVertex
 10
123.5
 20
-157.5
 30
0.0
  0
SEQEND
  5
2183
330
1E7E
100
AcDbEntity
  8
OUTLINE
  0
TEXT
  5
1E7F
330
24D7
100
AcDbEntity
  8
ETC
100
AcDbText
 10
256.2468308916468
 20
401.0403000770336
 30
0.0
 40
64.0
  1
QW-20SB
 41
0.9
100
AcDbText
  0
INSERT
  5
1E80
330
24D7
100
AcDbEntity
  8
0
100
AcDbBlockReference
  2
*U88
 10
0.0
 20
0.0
 30
0.0
1001
ACAD
1000
DSTYLE
1002
{
1070
    41
1040
12.0
1070
    42
1040
20.0
1070
    43
1040
200.0
1070
    44
1040
20.0
1070
    73
1070
     0
1070
    74
1070
     0
1070
    77
1070
     1
1070
    78
1070
     8
1070
   140
1040
64.0
1070
   147
1040
50.0
1070
   172
1070
     1
1070
   174
1070
     1
1070
   275
1070
     0
1070
   284
1070
     0
1070
   285
1070
     0
1070
   286
1070
     0
1070
   341
1005
AB7
1070
   342
1005
AB2
1002
}
  0
INSERT
  5
1E81
330
24D7
100
AcDbEntity
  8
0
100
AcDbBlockReference
  2
*U89
 10
0.0
 20
0.0
 30
0.0
  0
POINT
  5
1E82
330
24D7
100
AcDbEntity
  8
ARRANGE
100
AcDbPoint
 10
0.0
 20
0.0
 30
0.0
 39
50.0
  0
CIRCLE
  5
1E83
330
24D7
100
AcDbEntity
  8
ARRANGE
100
AcDbCircle
 10
0.0
 20
0.0
 30
0.0
 40
40.0
  0
LINE
  5
1E84
330
24D7
100
AcDbEntity
  8
BASIS
100
AcDbLine
 10
182.5
 20
0.0
 30
0.0
 11
-182.5
 21
0.0
 31
0.0
  0
LINE
  5
1E85
330
24D7
100
AcDbEntity
  8
BASIS
100
AcDbLine
 10
-0.000000000003638
 20
-271.4999999999991
 30
0.0
 11
0.0
 21
182.5
 31
0.0
  0
LINE
  5
1E86
330
24D7
100
AcDbEntity
  8
OUTLINE
100
AcDbLine
 10
118.4999999999963
 20
-237.0000000000036
 30
0.0
 11
123.4999999999963
 21
-242.0000000000036
 31
0.0
  0
LINE
  5
1E87
330
24D7
100
AcDbEntity
  8
OUTLINE
100
AcDbLine
 10
-118.5
 20
-237.0000000000036
 30
0.0
 11
118.4999999999963
 21
-237.0000000000036
 31
0.0
  0
LINE
  5
1E88
330
24D7
100
AcDbEntity
  8
OUTLINE
100
AcDbLine
 10
-123.5
 20
-242.0000000000036
 30
0.0
 11
-118.5
 21
-237.0000000000036
 31
0.0
  0
LINE
  5
20BE
330
24D7
100
AcDbEntity
  8
SIZE
100
AcDbLine
 10
-157.5
 20
177.5
 30
0.0
 11
-157.5
 21
377.1212162378297
 31
0.0
  0
LINE
  5
20BF
330
24D7
100
AcDbEntity
  8
SIZE
100
AcDbLine
 10
157.5
 20
177.5
 30
0.0
 11
157.5
 21
377.1212162378297
 31
0.0
  0
LINE
  5
20C0
330
24D7
100
AcDbEntity
  8
SIZE
100
AcDbLine
 10
-145.5
 20
357.1212162378297
 30
0.0
 11
145.5
 21
357.1212162378297
 31
0.0
  0
INSERT
  5
20C1
330
24D7
100
AcDbEntity
  8
SIZE
100
AcDbBlockReference
  2
_DOTBLANK
 10
-157.5
 20
357.1212162378297
 30
0.0
 41
12.0
 42
12.0
 43
12.0
 50
180.0
  0
INSERT
  5
20C2
330
24D7
100
AcDbEntity
  8
SIZE
100
AcDbBlockReference
  2
_DOTBLANK
 10
157.5
 20
357.1212162378297
 30
0.0
 41
12.0
 42
12.0
 43
12.0
  0
LINE
  5
20C4
330
24D7
100
AcDbEntity
  8
SIZE
100
AcDbLine
 10
-140.0
 20
172.5
 30
0.0
 11
-140.0
 21
275.287001802615
 31
0.0
  0
LINE
  5
20C5
330
24D7
100
AcDbEntity
  8
SIZE
100
AcDbLine
 10
140.0
 20
172.5
 30
0.0
 11
140.0
 21
275.287001802615
 31
0.0
  0
LINE
  5
20C6
330
24D7
100
AcDbEntity
  8
SIZE
100
AcDbLine
 10
-128.0
 20
255.2870018026151
 30
0.0
 11
128.0
 21
255.2870018026151
 31
0.0
  0
INSERT
  5
20C7
330
24D7
100
AcDbEntity
  8
SIZE
100
AcDbBlockReference
  2
_DOTBLANK
 10
-140.0
 20
255.2870018026151
 30
0.0
 41
12.0
 42
12.0
 43
12.0
 50
180.0
  0
INSERT
  5
20C8
330
24D7
100
AcDbEntity
  8
SIZE
100
AcDbBlockReference
  2
_DOTBLANK
 10
140.0
 20
255.2870018026151
 30
0.0
 41
12.0
 42
12.0
 43
12.0
  0
LINE
  5
20CA
330
24D7
100
AcDbEntity
  8
SIZE
100
AcDbLine
 10
-177.5
 20
157.5
 30
0.0
 11
-562.5059028843134
 21
157.5000000000001
 31
0.0
  0
LINE
  5
20CB
330
24D7
100
AcDbEntity
  8
SIZE
100
AcDbLine
 10
-154.5
 20
-246.5
 30
0.0
 11
-562.5059028843134
 21
-246.4999999999999
 31
0.0
  0
LINE
  5
20CC
330
24D7
100
AcDbEntity
  8
SIZE
100
AcDbLine
 10
-542.5059028843134
 20
145.5000000000001
 30
0.0
 11
-542.5059028843134
 21
-234.4999999999999
 31
0.0
  0
INSERT
  5
20CD
330
24D7
100
AcDbEntity
  8
SIZE
100
AcDbBlockReference
  2
_DOTBLANK
 10
-542.5059028843134
 20
157.5000000000001
 30
0.0
 41
12.0
 42
12.0
 43
12.0
 50
90.0
  0
INSERT
  5
20CE
330
24D7
100
AcDbEntity
  8
SIZE
100
AcDbBlockReference
  2
_DOTBLANK
 10
-542.5059028843134
 20
-246.4999999999999
 30
0.0
 41
12.0
 42
12.0
 43
12.0
 50
270.0
  0
LINE
  5
20D0
330
24D7
100
AcDbEntity
  8
SIZE
100
AcDbLine
 10
-172.5
 20
140.0
 30
0.0
 11
-279.2869931611239
 21
140.0
 31
0.0
  0
LINE
  5
20D1
330
24D7
100
AcDbEntity
  8
SIZE
100
AcDbLine
 10
-172.5
 20
-140.0
 30
0.0
 11
-279.286993161124
 21
-139.9999999999998
 31
0.0
  0
LINE
  5
20D2
330
24D7
100
AcDbEntity
  8
SIZE
100
AcDbLine
 10
-259.2869931611239
 20
128.0
 30
0.0
 11
-259.286993161124
 21
-128.0
 31
0.0
  0
INSERT
  5
20D3
330
24D7
100
AcDbEntity
  8
SIZE
100
AcDbBlockReference
  2
_DOTBLANK
 10
-259.2869931611239
 20
140.0
 30
0.0
 41
12.0
 42
12.0
 43
12.0
 50
90.0
  0
INSERT
  5
20D4
330
24D7
100
AcDbEntity
  8
SIZE
100
AcDbBlockReference
  2
_DOTBLANK
 10
-259.286993161124
 20
-139.9999999999998
 30
0.0
 41
12.0
 42
12.0
 43
12.0
 50
270.0
  0
LINE
  5
20D6
330
24D7
100
AcDbEntity
  8
SIZE
100
AcDbLine
 10
-177.5
 20
-157.5
 30
0.0
 11
-424.0027336080602
 21
-157.4999999999998
 31
0.0
  0
LINE
  5
20D7
330
24D7
100
AcDbEntity
  8
SIZE
100
AcDbLine
 10
-177.5
 20
157.5
 30
0.0
 11
-424.0027336080602
 21
157.5000000000001
 31
0.0
  0
LINE
  5
20D8
330
24D7
100
AcDbEntity
  8
SIZE
100
AcDbLine
 10
-404.00273360806
 20
-145.4999999999998
 30
0.0
 11
-404.00273360806
 21
145.5000000000001
 31
0.0
  0
INSERT
  5
20D9
330
24D7
100
AcDbEntity
  8
SIZE
100
AcDbBlockReference
  2
_DOTBLANK
 10
-404.00273360806
 20
-157.4999999999998
 30
0.0
 41
12.0
 42
12.0
 43
12.0
 50
270.0
  0
INSERT
  5
20DA
330
24D7
100
AcDbEntity
  8
SIZE
100
AcDbBlockReference
  2
_DOTBLANK
 10
-404.00273360806
 20
157.5000000000001
 30
0.0
 41
12.0
 42
12.0
 43
12.0
 50
90.0
  0
LINE
  5
20DC
330
24D7
100
AcDbEntity
  8
SIZE
100
AcDbLine
 10
-134.5
 20
-266.5
 30
0.0
 11
-134.5
 21
-409.8942247564191
 31
0.0
  0
LINE
  5
20DD
330
24D7
100
AcDbEntity
  8
SIZE
100
AcDbLine
 10
134.5
 20
-266.5
 30
0.0
 11
134.5
 21
-409.8942247564191
 31
0.0
  0
LINE
  5
20DE
330
24D7
100
AcDbEntity
  8
SIZE
100
AcDbLine
 10
-122.5
 20
-389.8942247564191
 30
0.0
 11
122.5
 21
-389.8942247564191
 31
0.0
  0
INSERT
  5
20DF
330
24D7
100
AcDbEntity
  8
SIZE
100
AcDbBlockReference
  2
_DOTBLANK
 10
-134.5
 20
-389.8942247564191
 30
0.0
 41
12.0
 42
12.0
 43
12.0
 50
180.0
  0
INSERT
  5
20E0
330
24D7
100
AcDbEntity
  8
SIZE
100
AcDbBlockReference
  2
_DOTBLANK
 10
134.5
 20
-389.8942247564191
 30
0.0
 41
12.0
 42
12.0
 43
12.0
  0
TEXT
  5
2421
330
24D7
100
AcDbEntity
  8
SIZE
100
AcDbText
 10
-74.05714285714283
 20
265.2870018026151
 30
0.0
 40
64.0
  1
280
 41
0.9
100
AcDbText
  0
TEXT
  5
2424
330
24D7
100
AcDbEntity
  8
SIZE
100
AcDbText
 10
-68.57142857142857
 20
367.1212162378297
 30
0.0
 40
64.0
  1
315
 41
0.9
100
AcDbText
  0
TEXT
  5
2425
330
24D7
100
AcDbEntity
  8
SIZE
100
AcDbText
 10
-269.2869931611239
 20
-74.05714285714283
 30
0.0
 40
64.0
  1
280
 50
90.0
 41
0.9
100
AcDbText
  0
TEXT
  5
2426
330
24D7
100
AcDbEntity
  8
SIZE
100
AcDbText
 10
-414.0027336080599
 20
-68.57142857142854
 30
0.0
 40
64.0
  1
315
 50
90.0
 41
0.9
100
AcDbText
  0
TEXT
  5
2427
330
24D7
100
AcDbEntity
  8
SIZE
100
AcDbText
 10
-552.5059028843132
 20
-119.9285714285714
 30
0.0
 40
64.0
  1
404
 50
90.0
 41
0.9
100
AcDbText
  0
TEXT
  5
2428
330
24D7
100
AcDbEntity
  8
SIZE
100
AcDbText
 10
-72.68571428571426
 20
-379.8942247564192
 30
0.0
 40
64.0
  1
269
 41
0.9
100
AcDbText
  0
ENDSEC
  0
SECTION
  2
OBJECTS
  0
DICTIONARY
  5
246F
330
0
100
AcDbDictionary
281
     1
  3
ACAD_2007HEADERVARS_RT
350
26F1
  3
ACAD_COLOR
350
24CD
  3
ACAD_GROUP
350
2470
  3
ACAD_LAYOUT
350
24CC
  3
ACAD_MATERIAL
350
2473
  3
ACAD_MLEADERSTYLE
350
24D0
  3
ACAD_MLINESTYLE
350
24C9
  3
ACAD_PLOTSETTINGS
350
24CB
  3
ACAD_PLOTSTYLENAME
350
2471
  3
ACAD_SCALELIST
350
249D
  3
ACAD_TABLESTYLE
350
24CE
  3
ACAD_VISUALSTYLE
350
248C
  3
ACDB_RECOMPOSE_DATA
350
26EF
  3
AcDbVariableDictionary
350
26E6
  3
AcmDictionary
350
2692
  3
AMG
350
25DF
  3
AMGSNAPSETTINGS
350
26BA
  3
DWGPROPS
350
26F0
  3
MAPISURF_MODULE
350
265F
  0
DICTIONARY
  5
26C1
330
24BF
100
AcDbDictionary
280
     1
281
     1
  3
ADSK_XREC_LAYER_RECONCILED
360
26C2
  0
DICTIONARY
  5
26C3
330
24EE
100
AcDbDictionary
280
     1
281
     1
  3
ADSK_XREC_LAYER_RECONCILED
360
26C4
  0
DICTIONARY
  5
26C5
330
24EF
100
AcDbDictionary
280
     1
281
     1
  3
ADSK_XREC_LAYER_RECONCILED
360
26C6
  0
DICTIONARY
  5
26C7
330
24F0
100
AcDbDictionary
280
     1
281
     1
  3
ADSK_XREC_LAYER_RECONCILED
360
26C8
  0
DICTIONARY
  5
26C9
330
24F1
100
AcDbDictionary
280
     1
281
     1
  3
ADSK_XREC_LAYER_RECONCILED
360
26CA
  0
DICTIONARY
  5
26CB
330
24F2
100
AcDbDictionary
280
     1
281
     1
  3
ADSK_XREC_LAYER_RECONCILED
360
26CC
  0
DICTIONARY
  5
26CD
330
24F4
100
AcDbDictionary
280
     1
281
     1
  3
ADSK_XREC_LAYER_RECONCILED
360
26CE
  0
DICTIONARY
  5
26CF
330
24F5
100
AcDbDictionary
280
     1
281
     1
  3
ADSK_XREC_LAYER_RECONCILED
360
26D0
  0
DICTIONARY
  5
26D1
330
24F6
100
AcDbDictionary
280
     1
281
     1
  3
ADSK_XREC_LAYER_RECONCILED
360
26D2
  0
DICTIONARY
  5
26D3
330
24F7
100
AcDbDictionary
280
     1
281
     1
  3
ADSK_XREC_LAYER_RECONCILED
360
26D4
  0
DICTIONARY
  5
26D5
330
24F8
100
AcDbDictionary
280
     1
281
     1
  3
ADSK_XREC_LAYER_RECONCILED
360
26D6
  0
DICTIONARY
  5
26D7
330
24D7
100
AcDbDictionary
280
     1
281
     1
  3
ACAD_INDEX
360
26D8
  0
DICTIONARY
  5
26F1
102
{ACAD_REACTORS
330
246F
102
}
330
246F
100
AcDbDictionary
281
     1
  3
DIMARCSYM
350
26F2
  3
DIMLTEX1
350
26F4
  3
DIMLTEX2
350
26F5
  3
DIMLTYPE
350
26F3
  0
DICTIONARY
  5
24CD
102
{ACAD_REACTORS
330
246F
102
}
330
246F
100
AcDbDictionary
281
     1
  0
DICTIONARY
  5
2470
102
{ACAD_REACTORS
330
246F
102
}
330
246F
100
AcDbDictionary
281
     1
  0
DICTIONARY
  5
24CC
102
{ACAD_REACTORS
330
246F
102
}
330
246F
100
AcDbDictionary
281
     1
  3
Model
350
24DA
  3
レイアウト1
350
24D6
  0
DICTIONARY
  5
2473
102
{ACAD_REACTORS
330
246F
102
}
330
246F
100
AcDbDictionary
281
     1
  3
ByBlock
350
247C
  3
ByLayer
350
2474
  3
Global
350
2484
  0
DICTIONARY
  5
24D0
102
{ACAD_REACTORS
330
246F
102
}
330
246F
100
AcDbDictionary
281
     1
  3
Standard
350
24D1
  0
DICTIONARY
  5
24C9
102
{ACAD_REACTORS
330
246F
102
}
330
246F
100
AcDbDictionary
281
     1
  3
Standard
350
24CA
  0
DICTIONARY
  5
24CB
102
{ACAD_REACTORS
330
246F
102
}
330
246F
100
AcDbDictionary
281
     1
  0
ACDBDICTIONARYWDFLT
  5
2471
102
{ACAD_REACTORS
330
246F
102
}
330
246F
100
AcDbDictionary
281
     1
  3
Normal
350
2472
100
AcDbDictionaryWithDefault
340
2472
  0
DICTIONARY
  5
249D
102
{ACAD_REACTORS
330
246F
102
}
330
246F
100
AcDbDictionary
281
     1
  3
A0
350
249E
  3
A1
350
249F
  3
A2
350
24A0
  3
A3
350
24A1
  3
A4
350
24A2
  3
A5
350
24A3
  3
A6
350
24A4
  3
A7
350
24A5
  3
A8
350
24A6
  3
A9
350
24A7
  3
B0
350
24A8
  3
B1
350
24A9
  3
B2
350
24AA
  3
B3
350
24AB
  3
B4
350
24AC
  3
B5
350
24AD
  3
B6
350
24AE
  3
B7
350
24AF
  3
B8
350
24B0
  3
B9
350
24B1
  3
C0
350
24B2
  3
C1
350
24B3
  3
C2
350
24B4
  3
C3
350
24B5
  3
C4
350
24B6
  3
C5
350
24B7
  3
C6
350
24B8
  3
C7
350
24B9
  3
C8
350
24BA
  3
C9
350
24BB
  3
D0
350
24BC
  3
D1
350
24BD
  3
D2
350
24BE
  0
DICTIONARY
  5
24CE
102
{ACAD_REACTORS
330
246F
102
}
330
246F
100
AcDbDictionary
281
     1
  3
Standard
350
24CF
  0
DICTIONARY
  5
248C
102
{ACAD_REACTORS
330
246F
102
}
330
246F
100
AcDbDictionary
281
     1
  3
2dWireframe
350
2492
  3
3D Hidden
350
2494
  3
3dWireframe
350
2493
  3
Basic
350
2491
  3
Brighten
350
2498
  3
ColorChange
350
249C
  3
Conceptual
350
2495
  3
Dim
350
2497
  3
Facepattern
350
249B
  3
Flat
350
248D
  3
FlatWithEdges
350
248E
  3
Gouraud
350
248F
  3
GouraudWithEdges
350
2490
  3
Linepattern
350
249A
  3
Realistic
350
2496
  3
Thicken
350
2499
  0
XRECORD
  5
26EF
102
{ACAD_REACTORS
330
246F
102
}
330
246F
100
AcDbXrecord
280
     1
 90
        1
330
24CF
  0
DICTIONARY
  5
26E6
102
{ACAD_REACTORS
330
246F
102
}
330
246F
100
AcDbDictionary
281
     1
  3
CANNOSCALE
350
26E9
  3
CMLEADERSTYLE
350
26E8
  3
CTABLESTYLE
350
26E7
  3
DIMASSOC
350
26EC
  3
INDEXCTL
350
26EB
  3
SORTENTS
350
26EA
  0
DICTIONARY
  5
2692
102
{ACAD_REACTORS
330
246F
102
}
330
246F
100
AcDbDictionary
281
     1
  3
AcmStdDictionary
350
26A0
  0
DICTIONARY
  5
25DF
102
{ACAD_REACTORS
330
246F
102
}
330
246F
100
AcDbDictionary
281
     1
  3
AcMgSettings
350
25E0
  0
DICTIONARY
  5
26BA
102
{ACAD_REACTORS
330
246F
102
}
330
246F
100
AcDbDictionary
281
     1
  3
DIMENSION
350
26BF
  3
FEA
350
26BE
  3
HATCH (1)
350
26BB
  3
HATCH (2)
350
26BC
  3
SIMPLE WELD
350
26C0
  3
SYMBOLS
350
26BD
  0
XRECORD
  5
26F0
102
{ACAD_REACTORS
330
246F
102
}
330
246F
100
AcDbXrecord
280
     1
  1
DWGPROPS COOKIE
  2

  3

  4

  6

  7

  8
A090053
  9

300
AmdtFileType=84
301
=
302
=
303
=
304
=
305
=
306
=
307
=
308
=
309
=
 40
1.041251828703703
 41
2452321.396199653
 42
2456211.575591933
  1

 90
        1
  0
XRECORD
  5
26C2
102
{ACAD_REACTORS
330
26C1
102
}
330
26C1
100
AcDbXrecord
280
     1
290
     1
  0
XRECORD
  5
26C4
102
{ACAD_REACTORS
330
26C3
102
}
330
26C3
100
AcDbXrecord
280
     1
290
     1
  0
XRECORD
  5
26C6
102
{ACAD_REACTORS
330
26C5
102
}
330
26C5
100
AcDbXrecord
280
     1
290
     1
  0
XRECORD
  5
26C8
102
{ACAD_REACTORS
330
26C7
102
}
330
26C7
100
AcDbXrecord
280
     1
290
     1
  0
XRECORD
  5
26CA
102
{ACAD_REACTORS
330
26C9
102
}
330
26C9
100
AcDbXrecord
280
     1
290
     1
  0
XRECORD
  5
26CC
102
{ACAD_REACTORS
330
26CB
102
}
330
26CB
100
AcDbXrecord
280
     1
290
     1
  0
XRECORD
  5
26CE
102
{ACAD_REACTORS
330
26CD
102
}
330
26CD
100
AcDbXrecord
280
     1
290
     1
  0
XRECORD
  5
26D0
102
{ACAD_REACTORS
330
26CF
102
}
330
26CF
100
AcDbXrecord
280
     1
290
     1
  0
XRECORD
  5
26D2
102
{ACAD_REACTORS
330
26D1
102
}
330
26D1
100
AcDbXrecord
280
     1
290
     1
  0
XRECORD
  5
26D4
102
{ACAD_REACTORS
330
26D3
102
}
330
26D3
100
AcDbXrecord
280
     1
290
     1
  0
XRECORD
  5
26D6
102
{ACAD_REACTORS
330
26D5
102
}
330
26D5
100
AcDbXrecord
280
     1
290
     1
  0
DICTIONARY
  5
26D8
102
{ACAD_REACTORS
330
26D7
102
}
330
26D7
100
AcDbDictionary
281
     1
  3
*A1
350
26D9
  0
XRECORD
  5
26F2
102
{ACAD_REACTORS
330
26F1
102
}
330
26F1
100
AcDbXrecord
280
     1
 70
     1
  0
XRECORD
  5
26F4
102
{ACAD_REACTORS
330
26F1
102
}
330
26F1
100
AcDbXrecord
280
     1
340
24C5
  0
XRECORD
  5
26F5
102
{ACAD_REACTORS
330
26F1
102
}
330
26F1
100
AcDbXrecord
280
     1
340
24C5
  0
XRECORD
  5
26F3
102
{ACAD_REACTORS
330
26F1
102
}
330
26F1
100
AcDbXrecord
280
     1
340
24C5
  0
LAYOUT
  5
24DA
102
{ACAD_XDICTIONARY
360
26FC
102
}
102
{ACAD_REACTORS
330
24CC
102
}
330
24CC
100
AcDbPlotSettings
  1

  2
自動 EPSON LP-9600S (W2450527 上)
  4

  6

 40
0.0
 41
0.0
 42
0.0
 43
0.0
 44
0.0
 45
0.0
 46
0.0
 47
0.0
 48
0.0
 49
0.0
140
0.0
141
0.0
142
1.0
143
1.0
 70
  1712
 72
     0
 73
     0
 74
     0
  7

 75
     0
147
1.0
148
0.0
149
0.0
100
AcDbLayout
  1
Model
 70
     1
 71
     0
 10
0.0
 20
0.0
 11
12.0
 21
9.0
 12
0.0
 22
0.0
 32
0.0
 14
0.0
 24
0.0
 34
0.0
 15
0.0
 25
0.0
 35
0.0
146
0.0
 13
0.0
 23
0.0
 33
0.0
 16
1.0
 26
0.0
 36
0.0
 17
0.0
 27
1.0
 37
0.0
 76
     0
330
24D7
331
24DB
  0
LAYOUT
  5
24D6
102
{ACAD_XDICTIONARY
360
26FA
102
}
102
{ACAD_REACTORS
330
24CC
102
}
330
24CC
100
AcDbPlotSettings
  1

  2
自動 EPSON LP-9600S (W2450527 上)
  4

  6

 40
0.0
 41
0.0
 42
0.0
 43
0.0
 44
0.0
 45
0.0
 46
0.0
 47
0.0
 48
0.0
 49
0.0
140
0.0
141
0.0
142
1.0
143
1.0
 70
   688
 72
     0
 73
     0
 74
     5
  7

 75
    16
147
1.0
148
0.0
149
0.0
100
AcDbLayout
  1
レイアウト1
 70
     1
 71
     1
 10
0.0
 20
0.0
 11
12.0
 21
9.0
 12
0.0
 22
0.0
 32
0.0
 14
1.000000000000000E+20
 24
1.000000000000000E+20
 34
1.000000000000000E+20
 15
-1.000000000000000E+20
 25
-1.000000000000000E+20
 35
-1.000000000000000E+20
146
0.0
 13
0.0
 23
0.0
 33
0.0
 16
1.0
 26
0.0
 36
0.0
 17
0.0
 27
1.0
 37
0.0
 76
     0
330
24D3
  0
MATERIAL
  5
247C
102
{ACAD_XDICTIONARY
360
247D
102
}
102
{ACAD_REACTORS
330
2473
102
}
330
2473
100
AcDbMaterial
  1
ByBlock
 72
     0
 43
0.0208333333333333
 43
0.0
 43
0.0
 43
0.0
 43
0.0
 43
0.0208333333333333
 43
0.0
 43
0.0
 43
0.0
 43
0.0
 43
1.0
 43
0.0
 43
0.0
 43
0.0
 43
0.0
 43
1.0
 77
     0
 47
0.0208333333333333
 47
0.0
 47
0.0
 47
0.0
 47
0.0
 47
0.0208333333333333
 47
0.0
 47
0.0
 47
0.0
 47
0.0
 47
1.0
 47
0.0
 47
0.0
 47
0.0
 47
0.0
 47
1.0
171
     0
 49
0.0208333333333333
 49
0.0
 49
0.0
 49
0.0
 49
0.0
 49
0.0208333333333333
 49
0.0
 49
0.0
 49
0.0
 49
0.0
 49
1.0
 49
0.0
 49
0.0
 49
0.0
 49
0.0
 49
1.0
175
     0
142
0.0208333333333333
142
0.0
142
0.0
142
0.0
142
0.0
142
0.0208333333333333
142
0.0
142
0.0
142
0.0
142
0.0
142
1.0
142
0.0
142
0.0
142
0.0
142
0.0
142
1.0
179
     0
144
0.0208333333333333
144
0.0
144
0.0
144
0.0
144
0.0
144
0.0208333333333333
144
0.0
144
0.0
144
0.0
144
0.0
144
1.0
144
0.0
144
0.0
144
0.0
144
0.0
144
1.0
147
0.0208333333333333
147
0.0
147
0.0
147
0.0
147
0.0
147
0.0208333333333333
147
0.0
147
0.0
147
0.0
147
0.0
147
1.0
147
0.0
147
0.0
147
0.0
147
0.0
147
1.0
  0
MATERIAL
  5
2474
102
{ACAD_XDICTIONARY
360
2475
102
}
102
{ACAD_REACTORS
330
2473
102
}
330
2473
100
AcDbMaterial
  1
ByLayer
 72
     0
 43
0.0208333333333333
 43
0.0
 43
0.0
 43
0.0
 43
0.0
 43
0.0208333333333333
 43
0.0
 43
0.0
 43
0.0
 43
0.0
 43
1.0
 43
0.0
 43
0.0
 43
0.0
 43
0.0
 43
1.0
 77
     0
 47
0.0208333333333333
 47
0.0
 47
0.0
 47
0.0
 47
0.0
 47
0.0208333333333333
 47
0.0
 47
0.0
 47
0.0
 47
0.0
 47
1.0
 47
0.0
 47
0.0
 47
0.0
 47
0.0
 47
1.0
171
     0
 49
0.0208333333333333
 49
0.0
 49
0.0
 49
0.0
 49
0.0
 49
0.0208333333333333
 49
0.0
 49
0.0
 49
0.0
 49
0.0
 49
1.0
 49
0.0
 49
0.0
 49
0.0
 49
0.0
 49
1.0
175
     0
142
0.0208333333333333
142
0.0
142
0.0
142
0.0
142
0.0
142
0.0208333333333333
142
0.0
142
0.0
142
0.0
142
0.0
142
1.0
142
0.0
142
0.0
142
0.0
142
0.0
142
1.0
179
     0
144
0.0208333333333333
144
0.0
144
0.0
144
0.0
144
0.0
144
0.0208333333333333
144
0.0
144
0.0
144
0.0
144
0.0
144
1.0
144
0.0
144
0.0
144
0.0
144
0.0
144
1.0
147
0.0208333333333333
147
0.0
147
0.0
147
0.0
147
0.0
147
0.0208333333333333
147
0.0
147
0.0
147
0.0
147
0.0
147
1.0
147
0.0
147
0.0
147
0.0
147
0.0
147
1.0
  0
MATERIAL
  5
2484
102
{ACAD_XDICTIONARY
360
2485
102
}
102
{ACAD_REACTORS
330
2473
102
}
330
2473
100
AcDbMaterial
  1
Global
 72
     0
 43
0.0208333333333333
 43
0.0
 43
0.0
 43
0.0
 43
0.0
 43
0.0208333333333333
 43
0.0
 43
0.0
 43
0.0
 43
0.0
 43
1.0
 43
0.0
 43
0.0
 43
0.0
 43
0.0
 43
1.0
 77
     0
 47
0.0208333333333333
 47
0.0
 47
0.0
 47
0.0
 47
0.0
 47
0.0208333333333333
 47
0.0
 47
0.0
 47
0.0
 47
0.0
 47
1.0
 47
0.0
 47
0.0
 47
0.0
 47
0.0
 47
1.0
171
     0
 49
0.0208333333333333
 49
0.0
 49
0.0
 49
0.0
 49
0.0
 49
0.0208333333333333
 49
0.0
 49
0.0
 49
0.0
 49
0.0
 49
1.0
 49
0.0
 49
0.0
 49
0.0
 49
0.0
 49
1.0
175
     0
142
0.0208333333333333
142
0.0
142
0.0
142
0.0
142
0.0
142
0.0208333333333333
142
0.0
142
0.0
142
0.0
142
0.0
142
1.0
142
0.0
142
0.0
142
0.0
142
0.0
142
1.0
179
     0
144
0.0208333333333333
144
0.0
144
0.0
144
0.0
144
0.0
144
0.0208333333333333
144
0.0
144
0.0
144
0.0
144
0.0
144
1.0
144
0.0
144
0.0
144
0.0
144
0.0
144
1.0
147
0.0208333333333333
147
0.0
147
0.0
147
0.0
147
0.0
147
0.0208333333333333
147
0.0
147
0.0
147
0.0
147
0.0
147
1.0
147
0.0
147
0.0
147
0.0
147
0.0
147
1.0
  0
MLEADERSTYLE
  5
24D1
102
{ACAD_REACTORS
330
24D0
102
}
330
24D0
100
AcDbMLeaderStyle
170
     2
171
     1
172
     0
 90
        2
 40
0.0
 41
0.0
173
     1
 91
-1056964608
340
24C5
 92
       -2
290
     1
 42
0.09
291
     1
 43
0.36
  3
Standard
 44
0.18
300

342
24C0
174
     1
178
     6
175
     1
176
     0
 93
-1056964608
 45
0.18
292
     0
297
     0
 46
0.18
 94
-1056964608
 47
1.0
 49
1.0
140
1.0
293
     1
141
0.0
294
     1
177
     0
142
1.0
295
     0
296
     0
143
0.125
1001
ACAD_MLEADERVER
1070
     2
  0
MLINESTYLE
  5
24CA
102
{ACAD_REACTORS
330
24C9
102
}
330
24C9
100
AcDbMlineStyle
  2
STANDARD
 70
     0
  3

 62
   256
 51
90.0
 52
90.0
 71
     2
 49
0.5
 62
   256
  6
BYLAYER
 49
-0.5
 62
   256
  6
BYLAYER
  0
ACDBPLACEHOLDER
  5
2472
102
{ACAD_REACTORS
330
2471
102
}
330
2471
  0
SCALE
  5
249E
102
{ACAD_REACTORS
330
249D
102
}
330
249D
100
AcDbScale
 70
     0
300
1:1
140
1.0
141
1.0
290
     1
  0
SCALE
  5
249F
102
{ACAD_REACTORS
330
249D
102
}
330
249D
100
AcDbScale
 70
     0
300
1:2
140
1.0
141
2.0
290
     0
  0
SCALE
  5
24A0
102
{ACAD_REACTORS
330
249D
102
}
330
249D
100
AcDbScale
 70
     0
300
1:4
140
1.0
141
4.0
290
     0
  0
SCALE
  5
24A1
102
{ACAD_REACTORS
330
249D
102
}
330
249D
100
AcDbScale
 70
     0
300
1:5
140
1.0
141
5.0
290
     0
  0
SCALE
  5
24A2
102
{ACAD_REACTORS
330
249D
102
}
330
249D
100
AcDbScale
 70
     0
300
1:8
140
1.0
141
8.0
290
     0
  0
SCALE
  5
24A3
102
{ACAD_REACTORS
330
249D
102
}
330
249D
100
AcDbScale
 70
     0
300
1:10
140
1.0
141
10.0
290
     0
  0
SCALE
  5
24A4
102
{ACAD_REACTORS
330
249D
102
}
330
249D
100
AcDbScale
 70
     0
300
1:16
140
1.0
141
16.0
290
     0
  0
SCALE
  5
24A5
102
{ACAD_REACTORS
330
249D
102
}
330
249D
100
AcDbScale
 70
     0
300
1:20
140
1.0
141
20.0
290
     0
  0
SCALE
  5
24A6
102
{ACAD_REACTORS
330
249D
102
}
330
249D
100
AcDbScale
 70
     0
300
1:30
140
1.0
141
30.0
290
     0
  0
SCALE
  5
24A7
102
{ACAD_REACTORS
330
249D
102
}
330
249D
100
AcDbScale
 70
     0
300
1:40
140
1.0
141
40.0
290
     0
  0
SCALE
  5
24A8
102
{ACAD_REACTORS
330
249D
102
}
330
249D
100
AcDbScale
 70
     0
300
1:50
140
1.0
141
50.0
290
     0
  0
SCALE
  5
24A9
102
{ACAD_REACTORS
330
249D
102
}
330
249D
100
AcDbScale
 70
     0
300
1:100
140
1.0
141
100.0
290
     0
  0
SCALE
  5
24AA
102
{ACAD_REACTORS
330
249D
102
}
330
249D
100
AcDbScale
 70
     0
300
2:1
140
2.0
141
1.0
290
     0
  0
SCALE
  5
24AB
102
{ACAD_REACTORS
330
249D
102
}
330
249D
100
AcDbScale
 70
     0
300
4:1
140
4.0
141
1.0
290
     0
  0
SCALE
  5
24AC
102
{ACAD_REACTORS
330
249D
102
}
330
249D
100
AcDbScale
 70
     0
300
8:1
140
8.0
141
1.0
290
     0
  0
SCALE
  5
24AD
102
{ACAD_REACTORS
330
249D
102
}
330
249D
100
AcDbScale
 70
     0
300
10:1
140
10.0
141
1.0
290
     0
  0
SCALE
  5
24AE
102
{ACAD_REACTORS
330
249D
102
}
330
249D
100
AcDbScale
 70
     0
300
100:1
140
100.0
141
1.0
290
     0
  0
SCALE
  5
24AF
102
{ACAD_REACTORS
330
249D
102
}
330
249D
100
AcDbScale
 70
     0
300
1/128" = 1'-0"
140
0.0078125
141
12.0
290
     0
  0
SCALE
  5
24B0
102
{ACAD_REACTORS
330
249D
102
}
330
249D
100
AcDbScale
 70
     0
300
1/64" = 1'-0"
140
0.015625
141
12.0
290
     0
  0
SCALE
  5
24B1
102
{ACAD_REACTORS
330
249D
102
}
330
249D
100
AcDbScale
 70
     0
300
1/32" = 1'-0"
140
0.03125
141
12.0
290
     0
  0
SCALE
  5
24B2
102
{ACAD_REACTORS
330
249D
102
}
330
249D
100
AcDbScale
 70
     0
300
1/16" = 1'-0"
140
0.0625
141
12.0
290
     0
  0
SCALE
  5
24B3
102
{ACAD_REACTORS
330
249D
102
}
330
249D
100
AcDbScale
 70
     0
300
3/32" = 1'-0"
140
0.09375
141
12.0
290
     0
  0
SCALE
  5
24B4
102
{ACAD_REACTORS
330
249D
102
}
330
249D
100
AcDbScale
 70
     0
300
1/8" = 1'-0"
140
0.125
141
12.0
290
     0
  0
SCALE
  5
24B5
102
{ACAD_REACTORS
330
249D
102
}
330
249D
100
AcDbScale
 70
     0
300
3/16" = 1'-0"
140
0.1875
141
12.0
290
     0
  0
SCALE
  5
24B6
102
{ACAD_REACTORS
330
249D
102
}
330
249D
100
AcDbScale
 70
     0
300
1/4" = 1'-0"
140
0.25
141
12.0
290
     0
  0
SCALE
  5
24B7
102
{ACAD_REACTORS
330
249D
102
}
330
249D
100
AcDbScale
 70
     0
300
3/8" = 1'-0"
140
0.375
141
12.0
290
     0
  0
SCALE
  5
24B8
102
{ACAD_REACTORS
330
249D
102
}
330
249D
100
AcDbScale
 70
     0
300
1/2" = 1'-0"
140
0.5
141
12.0
290
     0
  0
SCALE
  5
24B9
102
{ACAD_REACTORS
330
249D
102
}
330
249D
100
AcDbScale
 70
     0
300
3/4" = 1'-0"
140
0.75
141
12.0
290
     0
  0
SCALE
  5
24BA
102
{ACAD_REACTORS
330
249D
102
}
330
249D
100
AcDbScale
 70
     0
300
1" = 1'-0"
140
1.0
141
12.0
290
     0
  0
SCALE
  5
24BB
102
{ACAD_REACTORS
330
249D
102
}
330
249D
100
AcDbScale
 70
     0
300
1-1/2" = 1'-0"
140
1.5
141
12.0
290
     0
  0
SCALE
  5
24BC
102
{ACAD_REACTORS
330
249D
102
}
330
249D
100
AcDbScale
 70
     0
300
3" = 1'-0"
140
3.0
141
12.0
290
     0
  0
SCALE
  5
24BD
102
{ACAD_REACTORS
330
249D
102
}
330
249D
100
AcDbScale
 70
     0
300
6" = 1'-0"
140
6.0
141
12.0
290
     0
  0
SCALE
  5
24BE
102
{ACAD_REACTORS
330
249D
102
}
330
249D
100
AcDbScale
 70
     0
300
1'-0" = 1'-0"
140
12.0
141
12.0
290
     0
  0
TABLESTYLE
  5
24CF
102
{ACAD_XDICTIONARY
360
26ED
102
}
102
{ACAD_REACTORS
330
24CE
102
}
330
24CE
100
AcDbTableStyle
  3
Standard
 70
     0
 71
     0
 40
0.06
 41
0.06
280
     0
281
     0
  7
STANDARD
140
0.18
170
     2
 62
     0
 63
     7
283
     0
274
    -2
284
     1
 64
     0
275
    -2
285
     1
 65
     0
276
    -2
286
     1
 66
     0
277
    -2
287
     1
 67
     0
278
    -2
288
     1
 68
     0
279
    -2
289
     1
 69
     0
  7
STANDARD
140
0.25
170
     5
 62
     0
 63
     7
283
     0
274
    -2
284
     1
 64
     0
275
    -2
285
     1
 65
     0
276
    -2
286
     1
 66
     0
277
    -2
287
     1
 67
     0
278
    -2
288
     1
 68
     0
279
    -2
289
     1
 69
     0
  7
STANDARD
140
0.18
170
     5
 62
     0
 63
     7
283
     0
274
    -2
284
     1
 64
     0
275
    -2
285
     1
 65
     0
276
    -2
286
     1
 66
     0
277
    -2
287
     1
 67
     0
278
    -2
288
     1
 68
     0
279
    -2
289
     1
 69
     0
  0
VISUALSTYLE
  5
2492
102
{ACAD_REACTORS
330
248C
102
}
330
248C
100
AcDbVisualStyle
  2
2dWireframe
 70
     4
 71
     0
 72
     2
 73
     0
 90
        0
 40
-0.6
 41
-30.0
 62
     5
 63
     7
 74
     1
 91
        4
 64
     7
 65
   257
 75
     1
175
     1
 42
1.0
 92
        0
 66
   257
 43
1.0
 76
     1
 77
     6
 78
     2
 67
     7
 79
     5
170
     0
171
     0
290
     0
174
     0
 93
        1
 44
0.0
173
     0
291
     0
 45
0.0
1001
ACAD
1000
AcDbSavedByObjectVersion
1070
     0
  0
VISUALSTYLE
  5
2494
102
{ACAD_REACTORS
330
248C
102
}
330
248C
100
AcDbVisualStyle
  2
3D Hidden
 70
     6
 71
     1
 72
     2
 73
     2
 90
        0
 40
-0.6
 41
-30.0
 62
     5
 63
     7
 74
     2
 91
        2
 64
     7
 65
   257
 75
     2
175
     1
 42
40.0
 92
        0
 66
   257
 43
1.0
 76
     1
 77
     6
 78
     2
 67
     7
 79
     3
170
     0
171
     0
290
     0
174
     0
 93
        1
 44
0.0
173
     0
291
     0
 45
0.0
1001
ACAD
1000
AcDbSavedByObjectVersion
1070
     0
  0
VISUALSTYLE
  5
2493
102
{ACAD_REACTORS
330
248C
102
}
330
248C
100
AcDbVisualStyle
  2
3dWireframe
 70
     5
 71
     0
 72
     2
 73
     0
 90
        0
 40
-0.6
 41
-30.0
 62
     5
 63
     7
 74
     1
 91
        4
 64
     7
 65
   257
 75
     1
175
     1
 42
1.0
 92
        0
 66
   257
 43
1.0
 76
     1
 77
     6
 78
     2
 67
     7
 79
     5
170
     0
171
     0
290
     0
174
     0
 93
        1
 44
0.0
173
     0
291
     0
 45
0.0
1001
ACAD
1000
AcDbSavedByObjectVersion
1070
     0
  0
VISUALSTYLE
  5
2491
102
{ACAD_REACTORS
330
248C
102
}
330
248C
100
AcDbVisualStyle
  2
Basic
 70
     7
 71
     1
 72
     0
 73
     1
 90
        0
 40
-0.6
 41
-30.0
 62
     5
 63
     7
 74
     0
 91
        4
 64
     7
 65
   257
 75
     1
175
     1
 42
1.0
 92
        8
 66
     7
 43
1.0
 76
     1
 77
     6
 78
     2
 67
     7
 79
     5
170
     0
171
     0
290
     0
174
     0
 93
        1
 44
0.0
173
     0
291
     1
 45
0.0
1001
ACAD
1000
AcDbSavedByObjectVersion
1070
     0
  0
VISUALSTYLE
  5
2498
102
{ACAD_REACTORS
330
248C
102
}
330
248C
100
AcDbVisualStyle
  2
Brighten
 70
    12
 71
     2
 72
     2
 73
     0
 90
        0
 40
-0.6
 41
-30.0
 62
     5
 63
     7
 74
     1
 91
        4
 64
     7
 65
   257
 75
     1
175
     1
 42
1.0
 92
        8
 66
     7
 43
1.0
 76
     1
 77
     6
 78
     2
 67
     7
 79
     5
170
     0
171
     0
290
     0
174
     0
 93
        1
 44
50.0
173
     0
291
     1
 45
0.0
1001
ACAD
1000
AcDbSavedByObjectVersion
1070
     0
  0
VISUALSTYLE
  5
249C
102
{ACAD_REACTORS
330
248C
102
}
330
248C
100
AcDbVisualStyle
  2
ColorChange
 70
    16
 71
     2
 72
     2
 73
     3
 90
        0
 40
-0.6
 41
-30.0
 62
     5
 63
     8
 74
     1
 91
        4
 64
     7
 65
   257
 75
     1
175
     1
 42
1.0
 92
        8
 66
     8
 43
1.0
 76
     1
 77
     6
 78
     2
 67
     7
 79
     5
170
     0
171
     0
290
     0
174
     0
 93
        1
 44
0.0
173
     0
291
     1
 45
0.0
1001
ACAD
1000
AcDbSavedByObjectVersion
1070
     0
  0
VISUALSTYLE
  5
2495
102
{ACAD_REACTORS
330
248C
102
}
330
248C
100
AcDbVisualStyle
  2
Conceptual
 70
     9
 71
     3
 72
     2
 73
     0
 90
        0
 40
-0.6
 41
-30.0
 62
     5
 63
     7
 74
     2
 91
        2
 64
     7
 65
   257
 75
     1
175
     1
 42
40.0
 92
        8
 66
     7
 43
1.0
 76
     1
 77
     6
 78
     2
 67
     7
 79
     3
170
     0
171
     0
290
     0
174
     0
 93
        1
 44
0.0
173
     0
291
     0
 45
0.0
1001
ACAD
1000
AcDbSavedByObjectVersion
1070
     0
  0
VISUALSTYLE
  5
2497
102
{ACAD_REACTORS
330
248C
102
}
330
248C
100
AcDbVisualStyle
  2
Dim
 70
    11
 71
     2
 72
     2
 73
     0
 90
        0
 40
-0.6
 41
-30.0
 62
     5
 63
     7
 74
     1
 91
        4
 64
     7
 65
   257
 75
     1
175
     1
 42
1.0
 92
        8
 66
     7
 43
1.0
 76
     1
 77
     6
 78
     2
 67
     7
 79
     5
170
     0
171
     0
290
     0
174
     0
 93
        1
 44
-50.0
173
     0
291
     1
 45
0.0
1001
ACAD
1000
AcDbSavedByObjectVersion
1070
     0
  0
VISUALSTYLE
  5
249B
102
{ACAD_REACTORS
330
248C
102
}
330
248C
100
AcDbVisualStyle
  2
Facepattern
 70
    15
 71
     2
 72
     2
 73
     0
 90
        0
 40
-0.6
 41
-30.0
 62
     5
 63
     7
 74
     1
 91
        4
 64
     7
 65
   257
 75
     1
175
     1
 42
1.0
 92
        8
 66
     7
 43
1.0
 76
     1
 77
     6
 78
     2
 67
     7
 79
     5
170
     0
171
     0
290
     0
174
     0
 93
        1
 44
0.0
173
     0
291
     1
 45
0.0
1001
ACAD
1000
AcDbSavedByObjectVersion
1070
     0
  0
VISUALSTYLE
  5
248D
102
{ACAD_REACTORS
330
248C
102
}
330
248C
100
AcDbVisualStyle
  2
Flat
 70
     0
 71
     2
 72
     1
 73
     1
 90
        2
 40
-0.6
 41
30.0
 62
     5
 63
     7
 74
     0
 91
        4
 64
     7
 65
   257
 75
     1
175
     1
 42
1.0
 92
        8
 66
     7
 43
1.0
 76
     1
 77
     6
 78
     2
 67
     7
 79
     5
170
     0
171
     0
290
     0
174
     0
 93
       13
 44
0.0
173
     0
291
     1
 45
0.0
1001
ACAD
1000
AcDbSavedByObjectVersion
1070
     0
  0
VISUALSTYLE
  5
248E
102
{ACAD_REACTORS
330
248C
102
}
330
248C
100
AcDbVisualStyle
  2
FlatWithEdges
 70
     1
 71
     2
 72
     1
 73
     1
 90
        2
 40
-0.6
 41
30.0
 62
     5
 63
     7
 74
     1
 91
        4
 64
     7
 65
   257
 75
     1
175
     1
 42
1.0
 92
        0
 66
   257
 43
1.0
 76
     1
 77
     6
 78
     2
 67
     7
 79
     5
170
     0
171
     0
290
     0
174
     0
 93
       13
 44
0.0
173
     0
291
     1
 45
0.0
1001
ACAD
1000
AcDbSavedByObjectVersion
1070
     0
  0
VISUALSTYLE
  5
248F
102
{ACAD_REACTORS
330
248C
102
}
330
248C
100
AcDbVisualStyle
  2
Gouraud
 70
     2
 71
     2
 72
     2
 73
     1
 90
        2
 40
-0.6
 41
30.0
 62
     5
 63
     7
 74
     0
 91
        4
 64
     7
 65
   257
 75
     1
175
     1
 42
1.0
 92
        0
 66
     7
 43
1.0
 76
     1
 77
     6
 78
     2
 67
     7
 79
     5
170
     0
171
     0
290
     0
174
     0
 93
       13
 44
0.0
173
     0
291
     1
 45
0.0
1001
ACAD
1000
AcDbSavedByObjectVersion
1070
     0
  0
VISUALSTYLE
  5
2490
102
{ACAD_REACTORS
330
248C
102
}
330
248C
100
AcDbVisualStyle
  2
GouraudWithEdges
 70
     3
 71
     2
 72
     2
 73
     1
 90
        2
 40
-0.6
 41
30.0
 62
     5
 63
     7
 74
     1
 91
        4
 64
     7
 65
   257
 75
     1
175
     1
 42
1.0
 92
        0
 66
   257
 43
1.0
 76
     1
 77
     6
 78
     2
 67
     7
 79
     5
170
     0
171
     0
290
     0
174
     0
 93
       13
 44
0.0
173
     0
291
     1
 45
0.0
1001
ACAD
1000
AcDbSavedByObjectVersion
1070
     0
  0
VISUALSTYLE
  5
249A
102
{ACAD_REACTORS
330
248C
102
}
330
248C
100
AcDbVisualStyle
  2
Linepattern
 70
    14
 71
     2
 72
     2
 73
     0
 90
        0
 40
-0.6
 41
-30.0
 62
     5
 63
     7
 74
     1
 91
        4
 64
     7
 65
   257
 75
     7
175
     7
 42
1.0
 92
        8
 66
     7
 43
1.0
 76
     1
 77
     6
 78
     2
 67
     7
 79
     5
170
     0
171
     0
290
     0
174
     0
 93
        1
 44
0.0
173
     0
291
     1
 45
0.0
1001
ACAD
1000
AcDbSavedByObjectVersion
1070
     0
  0
VISUALSTYLE
  5
2496
102
{ACAD_REACTORS
330
248C
102
}
330
248C
100
AcDbVisualStyle
  2
Realistic
 70
     8
 71
     2
 72
     2
 73
     0
 90
        0
 40
-0.6
 41
-30.0
 62
     5
 63
     7
 74
     1
 91
        0
 64
     7
 65
   257
 75
     1
175
     1
 42
1.0
 92
        8
 66
     8
 43
1.0
 76
     1
 77
     6
 78
     2
 67
     7
 79
     5
170
     0
171
     0
290
     0
174
     0
 93
       13
 44
0.0
173
     0
291
     0
 45
0.0
1001
ACAD
1000
AcDbSavedByObjectVersion
1070
     0
  0
VISUALSTYLE
  5
2499
102
{ACAD_REACTORS
330
248C
102
}
330
248C
100
AcDbVisualStyle
  2
Thicken
 70
    13
 71
     2
 72
     2
 73
     0
 90
        0
 40
-0.6
 41
-30.0
 62
     5
 63
     7
 74
     1
 91
        4
 64
     7
 65
   257
 75
     1
175
     1
 42
1.0
 92
       12
 66
     7
 43
1.0
 76
     1
 77
     6
 78
     2
 67
     7
 79
     5
170
     0
171
     0
290
     0
174
     0
 93
        1
 44
0.0
173
     0
291
     1
 45
0.0
1001
ACAD
1000
AcDbSavedByObjectVersion
1070
     0
  0
DICTIONARYVAR
  5
26E9
102
{ACAD_REACTORS
330
26E6
102
}
330
26E6
100
DictionaryVariables
280
     0
  1
1:1
  0
DICTIONARYVAR
  5
26E8
102
{ACAD_REACTORS
330
26E6
102
}
330
26E6
100
DictionaryVariables
280
     0
  1
STANDARD
  0
DICTIONARYVAR
  5
26E7
102
{ACAD_REACTORS
330
26E6
102
}
330
26E6
100
DictionaryVariables
280
     0
  1
STANDARD
  0
DICTIONARYVAR
  5
26EC
102
{ACAD_REACTORS
330
26E6
102
}
330
26E6
100
DictionaryVariables
280
     0
  1
1
  0
DICTIONARYVAR
  5
26EB
102
{ACAD_REACTORS
330
26E6
102
}
330
26E6
100
DictionaryVariables
280
     0
  1
1
  0
DICTIONARYVAR
  5
26EA
102
{ACAD_REACTORS
330
26E6
102
}
330
26E6
100
DictionaryVariables
280
     0
  1
127
  0
DICTIONARY
  5
26A0
102
{ACAD_REACTORS
330
2692
102
}
330
2692
100
AcDbDictionary
281
     1
  0
DICTIONARY
  5
25E0
102
{ACAD_REACTORS
330
25DF
102
}
330
25DF
100
AcDbDictionary
281
     1
  3
DWGSETTINGS
350
25E1
  3
TRANSSETTINGS
350
25E2
  0
ACAMGFILTERDAT
  5
26BF
102
{ACAD_REACTORS
330
26BA
102
}
330
26BA
100
AcAmgFilterDat
 70
    15
  1
DIMENSION,AMDT_*_DIM
  2
*
  3
*
  4
*
  5
*
290
     1
  0
ACAMGFILTERDAT
  5
26BE
102
{ACAD_REACTORS
330
26BA
102
}
330
26BA
100
AcAmgFilterDat
 70
    15
  1
*
  2
AM_FEA-AM_*
  3
*
  4
*
  5
*
290
     1
  0
ACAMGFILTERDAT
  5
26BB
102
{ACAD_REACTORS
330
26BA
102
}
330
26BA
100
AcAmgFilterDat
 70
    15
  1
HATCH
  2
*
  3
*
  4
*
  5
*
290
     1
  0
ACAMGFILTERDAT
  5
26BC
102
{ACAD_REACTORS
330
26BA
102
}
330
26BA
100
AcAmgFilterDat
 70
    15
  1
LINE
  2
8,8N,*-8,*-8N,AM_8,AM_8N,*-AM_8,*-AM_8N
  3
*
  4
*
  5
INSERT,STDPART2D
290
     1
  0
ACAMGFILTERDAT
  5
26C0
102
{ACAD_REACTORS
330
26BA
102
}
330
26BA
100
AcAmgFilterDat
 70
    15
  1
ARC
  2
AM_5
  3
*
  4
2
  5
INSERT
290
     0
  0
ACAMGFILTERDAT
  5
26BD
102
{ACAD_REACTORS
330
26BA
102
}
330
26BA
100
AcAmgFilterDat
 70
    15
  1
ACMFCFRAME,ACMDATUMTARGET,ACMDATUMID,ACMWELDSYM,ACMSURFSYM,ACMFEATID,ACMPARTREF,ACMBALLOON,AMDTEDGESYM,AMGSCREWCALCTABLE,ACMMARKSTAMP
  2
*
  3
*
  4
*
  5
*
290
     1
  0
LAYER_INDEX
  5
26D9
102
{ACAD_REACTORS
330
26D8
102
}
330
26D8
100
AcDbIndex
 40
2456211.575591933
100
AcDbLayerIndex
  8
0
360
26DA
 90
        2
  8
OUTLINE
360
26DB
 90
       18
  8
SIZE
360
26DC
 90
       36
  8
BASIS
360
26DD
 90
        2
  8
DETAIL
360
26DE
 90
       12
  8
ARRANGE
360
26DF
 90
        2
  8
DEFPOINTS
360
26E0
 90
        0
  8
ETC
360
26E1
 90
        3
  8
FIX
360
26E2
 90
        4
  8
NOTE
360
26E3
 90
        8
  8
SERVICESPACE
360
26E4
 90
        0
  8
SYMBOLLINE
360
26E5
 90
        0
  0
DICTIONARY
  5
26FC
330
24DA
100
AcDbDictionary
280
     1
281
     1
  3
ACAD_XREC_ROUNDTRIP
360
26FD
  0
DICTIONARY
  5
26FA
330
24D6
100
AcDbDictionary
280
     1
281
     1
  3
ACAD_XREC_ROUNDTRIP
360
26FB
  0
DICTIONARY
  5
247D
330
247C
100
AcDbDictionary
280
     1
281
     1
  3
ACAD_XREC_ROUNDTRIP
360
26F7
  3
BUMPTILE
360
247F
  3
DIFFUSETILE
360
247E
  3
OPACITYTILE
360
2482
  3
REFLECTIONTILE
360
2481
  3
REFRACTIONTILE
360
2483
  3
SPECULARTILE
360
2480
  0
DICTIONARY
  5
2475
330
2474
100
AcDbDictionary
280
     1
281
     1
  3
ACAD_XREC_ROUNDTRIP
360
26F6
  3
BUMPTILE
360
2477
  3
DIFFUSETILE
360
2476
  3
OPACITYTILE
360
247A
  3
REFLECTIONTILE
360
2479
  3
REFRACTIONTILE
360
247B
  3
SPECULARTILE
360
2478
  0
DICTIONARY
  5
2485
330
2484
100
AcDbDictionary
280
     1
281
     1
  3
ACAD_XREC_ROUNDTRIP
360
26F8
  3
BUMPTILE
360
2487
  3
DIFFUSETILE
360
2486
  3
OPACITYTILE
360
248A
  3
REFLECTIONTILE
360
2489
  3
REFRACTIONTILE
360
248B
  3
SPECULARTILE
360
2488
  0
DICTIONARY
  5
26ED
330
24CF
100
AcDbDictionary
280
     1
281
     1
  3
ACAD_ROUNDTRIP_2008_TABLESTYLE_CELLSTYLEMAP
360
26EE
  3
ACAD_XREC_ROUNDTRIP
360
26F9
  0
IDBUFFER
  5
26DA
330
0
100
AcDbIdBuffer
330
1E80
330
1E81
  0
IDBUFFER
  5
26DB
330
0
100
AcDbIdBuffer
330
1E87
330
1E88
330
953
330
954
330
955
330
956
330
957
330
958
330
1E76
330
1E77
330
1E78
330
1E79
330
1E7A
330
1E7B
330
1E7C
330
1E7D
330
1E7E
330
1E86
  0
IDBUFFER
  5
26DC
330
0
100
AcDbIdBuffer
330
20D1
330
20D2
330
20D3
330
20D4
330
20D6
330
20D7
330
20D8
330
20D9
330
20DA
330
20DC
330
20DD
330
20DE
330
20DF
330
20E0
330
2421
330
2424
330
2425
330
2426
330
2427
330
2428
330
20BE
330
20BF
330
20C0
330
20C1
330
20C2
330
20C4
330
20C5
330
20C6
330
20C7
330
20C8
330
20CA
330
20CB
330
20CC
330
20CD
330
20CE
330
20D0
  0
IDBUFFER
  5
26DD
330
0
100
AcDbIdBuffer
330
1E84
330
1E85
  0
IDBUFFER
  5
26DE
330
0
100
AcDbIdBuffer
330
1E68
330
1E69
330
1E6A
330
1E6B
330
1E6C
330
1E6D
330
1E6E
330
1E6F
330
1E70
330
1E71
330
1E72
330
1E75
  0
IDBUFFER
  5
26DF
330
0
100
AcDbIdBuffer
330
1E82
330
1E83
  0
IDBUFFER
  5
26E0
330
0
100
AcDbIdBuffer
  0
IDBUFFER
  5
26E1
330
0
100
AcDbIdBuffer
330
1E56
330
1E57
330
1E7F
  0
IDBUFFER
  5
26E2
330
0
100
AcDbIdBuffer
330
1E5E
330
1E60
330
1E63
330
1E66
  0
IDBUFFER
  5
26E3
330
0
100
AcDbIdBuffer
330
1E5C
330
1E5D
330
1E5F
330
1E61
330
1E62
330
1E64
330
1E65
330
1E67
  0
IDBUFFER
  5
26E4
330
0
100
AcDbIdBuffer
  0
IDBUFFER
  5
26E5
330
0
100
AcDbIdBuffer
  0
XRECORD
  5
26FD
102
{ACAD_REACTORS
330
26FC
102
}
330
26FC
100
AcDbXrecord
280
     1
102
SHADEPLOT
 70
     0
102
SHADEPLOTRESLEVEL
 70
     2
102
SHADEPLOTCUSTOMDPI
 70
   300
  0
XRECORD
  5
26FB
102
{ACAD_REACTORS
330
26FA
102
}
330
26FA
100
AcDbXrecord
280
     1
102
SHADEPLOT
 70
     0
102
SHADEPLOTRESLEVEL
 70
     2
102
SHADEPLOTCUSTOMDPI
 70
   300
  0
XRECORD
  5
26F7
102
{ACAD_REACTORS
330
247D
102
}
330
247D
100
AcDbXrecord
280
     1
102
MATERIAL
148
0.0
149
0.0
149
0.0
 93
        0
 94
      127
282
     0
 72
     0
 77
     0
171
     0
175
     0
179
     0
273
     0
  0
XRECORD
  5
247F
102
{ACAD_REACTORS
330
247D
102
}
330
247D
100
AcDbXrecord
280
     1
270
     1
271
     1
  0
XRECORD
  5
247E
102
{ACAD_REACTORS
330
247D
102
}
330
247D
100
AcDbXrecord
280
     1
270
     1
271
     1
  0
XRECORD
  5
2482
102
{ACAD_REACTORS
330
247D
102
}
330
247D
100
AcDbXrecord
280
     1
270
     1
271
     1
  0
XRECORD
  5
2481
102
{ACAD_REACTORS
330
247D
102
}
330
247D
100
AcDbXrecord
280
     1
270
     1
271
     1
  0
XRECORD
  5
2483
102
{ACAD_REACTORS
330
247D
102
}
330
247D
100
AcDbXrecord
280
     1
270
     1
271
     1
  0
XRECORD
  5
2480
102
{ACAD_REACTORS
330
247D
102
}
330
247D
100
AcDbXrecord
280
     1
270
     1
271
     1
  0
XRECORD
  5
26F6
102
{ACAD_REACTORS
330
2475
102
}
330
2475
100
AcDbXrecord
280
     1
102
MATERIAL
148
0.0
149
0.0
149
0.0
 93
        0
 94
      127
282
     0
 72
     0
 77
     0
171
     0
175
     0
179
     0
273
     0
  0
XRECORD
  5
2477
102
{ACAD_REACTORS
330
2475
102
}
330
2475
100
AcDbXrecord
280
     1
270
     1
271
     1
  0
XRECORD
  5
2476
102
{ACAD_REACTORS
330
2475
102
}
330
2475
100
AcDbXrecord
280
     1
270
     1
271
     1
  0
XRECORD
  5
247A
102
{ACAD_REACTORS
330
2475
102
}
330
2475
100
AcDbXrecord
280
     1
270
     1
271
     1
  0
XRECORD
  5
2479
102
{ACAD_REACTORS
330
2475
102
}
330
2475
100
AcDbXrecord
280
     1
270
     1
271
     1
  0
XRECORD
  5
247B
102
{ACAD_REACTORS
330
2475
102
}
330
2475
100
AcDbXrecord
280
     1
270
     1
271
     1
  0
XRECORD
  5
2478
102
{ACAD_REACTORS
330
2475
102
}
330
2475
100
AcDbXrecord
280
     1
270
     1
271
     1
  0
XRECORD
  5
26F8
102
{ACAD_REACTORS
330
2485
102
}
330
2485
100
AcDbXrecord
280
     1
102
MATERIAL
148
0.0
149
0.0
149
0.0
 93
        0
 94
      127
282
     0
 72
     0
 77
     0
171
     0
175
     0
179
     0
273
     0
  0
XRECORD
  5
2487
102
{ACAD_REACTORS
330
2485
102
}
330
2485
100
AcDbXrecord
280
     1
270
     1
271
     1
  0
XRECORD
  5
2486
102
{ACAD_REACTORS
330
2485
102
}
330
2485
100
AcDbXrecord
280
     1
270
     1
271
     1
  0
XRECORD
  5
248A
102
{ACAD_REACTORS
330
2485
102
}
330
2485
100
AcDbXrecord
280
     1
270
     1
271
     1
  0
XRECORD
  5
2489
102
{ACAD_REACTORS
330
2485
102
}
330
2485
100
AcDbXrecord
280
     1
270
     1
271
     1
  0
XRECORD
  5
248B
102
{ACAD_REACTORS
330
2485
102
}
330
2485
100
AcDbXrecord
280
     1
270
     1
271
     1
  0
XRECORD
  5
2488
102
{ACAD_REACTORS
330
2485
102
}
330
2485
100
AcDbXrecord
280
     1
270
     1
271
     1
  0
CELLSTYLEMAP
  5
26EE
102
{ACAD_REACTORS
330
26ED
102
}
330
26ED
100
AcDbCellStyleMap
 90
        3
300
CELLSTYLE
  1
TABLEFORMAT_BEGIN
 90
        5
170
     1
 91
        0
 92
    32768
 62
   257
 93
        1
300
CONTENTFORMAT
  1
CONTENTFORMAT_BEGIN
 90
        0
 91
        0
 92
      512
 93
        0
300

 40
0.0
140
1.0
 94
        5
 62
     0
340
24C0
144
0.25
309
CONTENTFORMAT_END
171
     0
 94
        0
309
TABLEFORMAT_END
  1
CELLSTYLE_BEGIN
 90
        1
 91
        1
300
_TITLE
309
CELLSTYLE_END
300
CELLSTYLE
  1
TABLEFORMAT_BEGIN
 90
        5
170
     1
 91
        0
 92
        0
 62
   257
 93
        1
300
CONTENTFORMAT
  1
CONTENTFORMAT_BEGIN
 90
        0
 91
        0
 92
      512
 93
        0
300

 40
0.0
140
1.0
 94
        5
 62
     0
340
24C0
144
0.18
309
CONTENTFORMAT_END
171
     0
 94
        0
309
TABLEFORMAT_END
  1
CELLSTYLE_BEGIN
 90
        2
 91
        1
300
_HEADER
309
CELLSTYLE_END
300
CELLSTYLE
  1
TABLEFORMAT_BEGIN
 90
        5
170
     1
 91
        0
 92
        0
 62
   257
 93
        1
300
CONTENTFORMAT
  1
CONTENTFORMAT_BEGIN
 90
        0
 91
        0
 92
      512
 93
        0
300

 40
0.0
140
1.0
 94
        2
 62
     0
340
24C0
144
0.18
309
CONTENTFORMAT_END
171
     0
 94
        0
309
TABLEFORMAT_END
  1
CELLSTYLE_BEGIN
 90
        3
 91
        2
300
_DATA
309
CELLSTYLE_END
  0
XRECORD
  5
26F9
102
{ACAD_REACTORS
330
26ED
102
}
330
26ED
100
AcDbXrecord
280
     1
102
ACAD_ROUNDTRIP_PRE2007_TABLESTYLE
 90
      512
 91
        0
  1

 92
      512
 93
        0
  2

 94
      512
 95
        0
  3

  0
ENDSEC
  0
EOF
