  0
SECTION
  2
HEADER
  9
$ACADVER
  1
AC1015
  9
$ACADMAINTVER
 70
    20
  9
$DWGCODEPAGE
  3
ANSI_932
  9
$INSBASE
 10
0.0
 20
0.0
 30
0.0
  9
$EXTMIN
 10
-823.8921955855257
 20
-575.5004767276131
 30
-0.0007624039136971
  9
$EXTMAX
 10
878.7277335635463
 20
550.8270343425992
 30
50.00076310244821
  9
$LIMMIN
 10
-2970.0
 20
-2100.0
  9
$LIMMAX
 10
2970.0
 20
2100.0
  9
$ORTHOMODE
 70
     1
  9
$REGENMODE
 70
     0
  9
$FILLMODE
 70
     1
  9
$QTEXTMODE
 70
     0
  9
$MIRRTEXT
 70
     0
  9
$LTSCALE
 40
20.0
  9
$ATTMODE
 70
     1
  9
$TEXTSIZE
 40
64.0
  9
$TRACEWID
 40
0.05
  9
$TEXTSTYLE
  7
STANDARD
  9
$CLAYER
  8
0
  9
$CELTYPE
  6
ByLayer
  9
$CECOLOR
 62
   256
  9
$CELTSCALE
 40
1.0
  9
$DISPSILH
 70
     0
  9
$DIMSCALE
 40
1.0
  9
$DIMASZ
 40
0.12
  9
$DIMEXO
 40
0.05
  9
$DIMDLI
 40
0.5
  9
$DIMRND
 40
0.0
  9
$DIMDLE
 40
0.0
  9
$DIMEXE
 40
0.1
  9
$DIMTP
 40
0.1
  9
$DIMTM
 40
0.1
  9
$DIMTXT
 40
0.12
  9
$DIMCEN
 40
0.0
  9
$DIMTSZ
 40
0.0
  9
$DIMTOL
 70
     0
  9
$DIMLIM
 70
     0
  9
$DIMTIH
 70
     1
  9
$DIMTOH
 70
     1
  9
$DIMSE1
 70
     0
  9
$DIMSE2
 70
     0
  9
$DIMTAD
 70
     0
  9
$DIMZIN
 70
     7
  9
$DIMBLK
  1

  9
$DIMASO
 70
     1
  9
$DIMSHO
 70
     0
  9
$DIMPOST
  1

  9
$DIMAPOST
  1
mm
  9
$DIMALT
 70
     0
  9
$DIMALTD
 70
     2
  9
$DIMALTF
 40
25.4
  9
$DIMLFAC
 40
1.0
  9
$DIMTOFL
 70
     0
  9
$DIMTVP
 40
0.0
  9
$DIMTIX
 70
     0
  9
$DIMSOXD
 70
     0
  9
$DIMSAH
 70
     0
  9
$DIMBLK1
  1

  9
$DIMBLK2
  1

  9
$DIMSTYLE
  2
AM_ANSI
  9
$DIMCLRD
 70
   256
  9
$DIMCLRE
 70
   256
  9
$DIMCLRT
 70
     2
  9
$DIMTFAC
 40
0.71
  9
$DIMGAP
 40
0.06
  9
$DIMJUST
 70
     0
  9
$DIMSD1
 70
     0
  9
$DIMSD2
 70
     0
  9
$DIMTOLJ
 70
     1
  9
$DIMTZIN
 70
     7
  9
$DIMALTZ
 70
     0
  9
$DIMALTTZ
 70
     0
  9
$DIMUPT
 70
     0
  9
$DIMDEC
 70
     4
  9
$DIMTDEC
 70
     4
  9
$DIMALTU
 70
     2
  9
$DIMALTTD
 70
     4
  9
$DIMTXSTY
  7
STANDARD
  9
$DIMAUNIT
 70
     0
  9
$DIMADEC
 70
     0
  9
$DIMALTRND
 40
0.0
  9
$DIMAZIN
 70
     2
  9
$DIMDSEP
 70
    46
  9
$DIMATFIT
 70
     3
  9
$DIMFRAC
 70
     0
  9
$DIMLDRBLK
  1

  9
$DIMLUNIT
 70
     2
  9
$DIMLWD
 70
    -1
  9
$DIMLWE
 70
    -1
  9
$DIMTMOVE
 70
     0
  9
$LUNITS
 70
     2
  9
$LUPREC
 70
     4
  9
$SKETCHINC
 40
0.1
  9
$FILLETRAD
 40
4.0
  9
$AUNITS
 70
     1
  9
$AUPREC
 70
     3
  9
$MENU
  1
ACAD
  9
$ELEVATION
 40
0.0
  9
$PELEVATION
 40
0.0
  9
$THICKNESS
 40
50.0
  9
$LIMCHECK
 70
     0
  9
$CHAMFERA
 40
0.0
  9
$CHAMFERB
 40
0.0
  9
$CHAMFERC
 40
0.0
  9
$CHAMFERD
 40
0.0
  9
$SKPOLY
 70
     0
  9
$TDCREATE
 40
2452321.396199653
  9
$TDUCREATE
 40
2452321.021199653
  9
$TDUPDATE
 40
2456211.581160637
  9
$TDUUPDATE
 40
2456211.206160637
  9
$TDINDWG
 40
1.0409757292
  9
$TDUSRTIMER
 40
1.0409699653
  9
$USRTIMER
 70
     1
  9
$ANGBASE
 50
0.0
  9
$ANGDIR
 70
     0
  9
$PDMODE
 70
     3
  9
$PDSIZE
 40
-2.0
  9
$PLINEWID
 40
0.0
  9
$SPLFRAME
 70
     0
  9
$SPLINETYPE
 70
     6
  9
$SPLINESEGS
 70
     8
  9
$HANDSEED
  5
2D77
  9
$SURFTAB1
 70
     6
  9
$SURFTAB2
 70
     6
  9
$SURFTYPE
 70
     6
  9
$SURFU
 70
     6
  9
$SURFV
 70
     6
  9
$UCSBASE
  2

  9
$UCSNAME
  2

  9
$UCSORG
 10
0.0
 20
0.0
 30
0.0
  9
$UCSXDIR
 10
1.0
 20
0.0
 30
0.0
  9
$UCSYDIR
 10
0.0
 20
1.0
 30
0.0
  9
$UCSORTHOREF
  2

  9
$UCSORTHOVIEW
 70
     0
  9
$UCSORGTOP
 10
0.0
 20
0.0
 30
0.0
  9
$UCSORGBOTTOM
 10
0.0
 20
0.0
 30
0.0
  9
$UCSORGLEFT
 10
0.0
 20
0.0
 30
0.0
  9
$UCSORGRIGHT
 10
0.0
 20
0.0
 30
0.0
  9
$UCSORGFRONT
 10
0.0
 20
0.0
 30
0.0
  9
$UCSORGBACK
 10
0.0
 20
0.0
 30
0.0
  9
$PUCSBASE
  2

  9
$PUCSNAME
  2

  9
$PUCSORG
 10
0.0
 20
0.0
 30
0.0
  9
$PUCSXDIR
 10
1.0
 20
0.0
 30
0.0
  9
$PUCSYDIR
 10
0.0
 20
1.0
 30
0.0
  9
$PUCSORTHOREF
  2

  9
$PUCSORTHOVIEW
 70
     0
  9
$PUCSORGTOP
 10
0.0
 20
0.0
 30
0.0
  9
$PUCSORGBOTTOM
 10
0.0
 20
0.0
 30
0.0
  9
$PUCSORGLEFT
 10
0.0
 20
0.0
 30
0.0
  9
$PUCSORGRIGHT
 10
0.0
 20
0.0
 30
0.0
  9
$PUCSORGFRONT
 10
0.0
 20
0.0
 30
0.0
  9
$PUCSORGBACK
 10
0.0
 20
0.0
 30
0.0
  9
$USERI1
 70
     0
  9
$USERI2
 70
     0
  9
$USERI3
 70
     0
  9
$USERI4
 70
     0
  9
$USERI5
 70
     0
  9
$USERR1
 40
20.0
  9
$USERR2
 40
0.0
  9
$USERR3
 40
0.0
  9
$USERR4
 40
0.0
  9
$USERR5
 40
0.0
  9
$WORLDVIEW
 70
     1
  9
$SHADEDGE
 70
     3
  9
$SHADEDIF
 70
    70
  9
$TILEMODE
 70
     1
  9
$MAXACTVP
 70
    64
  9
$PINSBASE
 10
0.0
 20
0.0
 30
0.0
  9
$PLIMCHECK
 70
     0
  9
$PEXTMIN
 10
1.000000000000000E+20
 20
1.000000000000000E+20
 30
1.000000000000000E+20
  9
$PEXTMAX
 10
-1.000000000000000E+20
 20
-1.000000000000000E+20
 30
-1.000000000000000E+20
  9
$PLIMMIN
 10
0.0
 20
0.0
  9
$PLIMMAX
 10
12.0
 20
9.0
  9
$UNITMODE
 70
     0
  9
$VISRETAIN
 70
     1
  9
$PLINEGEN
 70
     0
  9
$PSLTSCALE
 70
     1
  9
$TREEDEPTH
 70
  3020
  9
$CMLSTYLE
  2
Standard
  9
$CMLJUST
 70
     0
  9
$CMLSCALE
 40
1.0
  9
$PROXYGRAPHICS
 70
     1
  9
$MEASUREMENT
 70
     0
  9
$CELWEIGHT
370
    -1
  9
$ENDCAPS
280
     0
  9
$JOINSTYLE
280
     0
  9
$LWDISPLAY
290
     0
  9
$INSUNITS
 70
     0
  9
$HYPERLINKBASE
  1

  9
$STYLESHEET
  1

  9
$XEDIT
290
     1
  9
$CEPSNTYPE
380
     0
  9
$PSTYLEMODE
290
     1
  9
$FINGERPRINTGUID
  2
{A1EE87E8-2C56-4AEC-8FCB-9D1BAFEF2D86}
  9
$VERSIONGUID
  2
{30CC0F84-5528-44C8-BEEF-9A26EF77D3F6}
  9
$EXTNAMES
290
     1
  9
$PSVPSCALE
 40
0.0
  9
$OLESTARTUP
290
     0
  0
ENDSEC
  0
SECTION
  2
CLASSES
  0
CLASS
  1
ACDBDICTIONARYWDFLT
  2
AcDbDictionaryWithDefault
  3
ObjectDBX Classes
 90
        0
280
     0
281
     0
  0
CLASS
  1
MATERIAL
  2
AcDbMaterial
  3
ObjectDBX Classes
 90
     1153
280
     0
281
     0
  0
CLASS
  1
VISUALSTYLE
  2
AcDbVisualStyle
  3
ObjectDBX Classes
 90
     4095
280
     0
281
     0
  0
CLASS
  1
SCALE
  2
AcDbScale
  3
ObjectDBX Classes
 90
     1153
280
     0
281
     0
  0
CLASS
  1
TABLESTYLE
  2
AcDbTableStyle
  3
ObjectDBX Classes
 90
     4095
280
     0
281
     0
  0
CLASS
  1
MLEADERSTYLE
  2
AcDbMLeaderStyle
  3
ACDB_MLEADERSTYLE_CLASS
 90
     4095
280
     0
281
     0
  0
CLASS
  1
AMGSETTINGSOBJ
  2
AmgSettingsObj
  3
"AcadM|Product Description: AutoCAD Mechanical|Company: Autodesk, Inc."
 90
     1024
280
     0
281
     0
  0
CLASS
  1
ACME_DOCUMENT
  2
AcMeDbDoc
  3
AcMeServices
 90
     1024
280
     0
281
     0
  0
CLASS
  1
ACMESCOPE
  2
AcMeScope
  3
AcMeServices
 90
     1024
280
     0
281
     0
  0
CLASS
  1
ACMECOMMANDHISTORY
  2
AcMeCommandHistory
  3
AcMeServices
 90
     1024
280
     0
281
     0
  0
CLASS
  1
ACIMSYSVARMAN
  2
AcImSysVarManager
  3
AcMeServices
 90
     1024
280
     0
281
     0
  0
CLASS
  1
ACIMREALSYSVAR
  2
AcImRealSysVar
  3
AcMeServices
 90
     1024
280
     0
281
     0
  0
CLASS
  1
ACIMINTSYSVAR
  2
AcImIntSysVar
  3
AcMeServices
 90
     1024
280
     0
281
     0
  0
CLASS
  1
ACMEDRAWINGMAN
  2
AcMeDrawingMan
  3
AcMeServices
 90
     1024
280
     0
281
     0
  0
CLASS
  1
ACMEVIEW
  2
AcMeView
  3
AcMeServices
 90
     1024
280
     0
281
     0
  0
CLASS
  1
ACDBENTITYCACHE
  2
AcMeEntityCache
  3
AcMeServices
 90
     1024
280
     0
281
     0
  0
CLASS
  1
GSMANAGER
  2
AcMeGSManager
  3
AcMeServices
 90
     1024
280
     0
281
     0
  0
CLASS
  1
AMDTINTERNALREACTOR
  2
AmdtInternalReactor
  3
AcMeServices
 90
     1024
280
     0
281
     0
  0
CLASS
  1
ACMESTATEMGR
  2
AcMeStateMgr
  3
AcMeServices
 90
     1024
280
     0
281
     0
  0
CLASS
  1
ACGREFMASTER
  2
AcGrefMaster
  3
AcAttribServices
 90
     1024
280
     0
281
     0
  0
CLASS
  1
AM_DRAWING_MGR
  2
AcDmDwgMgr
  3
AcMechDwgViewMgmt
 90
     1024
280
     0
281
     0
  0
CLASS
  1
AM_DWG_DOCUMENT
  2
AcDmDwgDocument
  3
AcMechDwgViewMgmt
 90
     1024
280
     0
281
     0
  0
CLASS
  1
AM_DWG_SHEET
  2
AcDmSheet
  3
AcMechDwgViewMgmt
 90
     1024
280
     0
281
     0
  0
CLASS
  1
AM_VIEWDIMPARMAP
  2
AcDmViewDimParMap
  3
AcMechDwgViewMgmt
 90
     1024
280
     0
281
     0
  0
CLASS
  1
AM_DWGMGR_NAME
  2
AcDmDwgMgrName
  3
AcMechDwgViewMgmt
 90
     1024
280
     0
281
     0
  0
CLASS
  1
ACME_DATABASE
  2
AcMeDbDatabase
  3
AcMeServices
 90
     1024
280
     0
281
     0
  0
CLASS
  1
ACRFINSADJUSTERMGR
  2
AcRfInsAdjusterMgr
  3
AcMeServices
 90
     1024
280
     0
281
     0
  0
CLASS
  1
ACGREFACADMASTER
  2
AcGrefacadMaster
  3
AcGrefServices
 90
     1024
280
     0
281
     0
  0
CLASS
  1
AMDTMENUSTATEMGR
  2
AmdtMenuStateMgr
  3
McadcomServices
 90
     1024
280
     0
281
     0
  0
CLASS
  1
AMDTMCOMMENUSTATE
  2
AmdtMcomMenuState
  3
McadcomServices
 90
     1024
280
     0
281
     0
  0
CLASS
  1
AMIMASTER
  2
AmiMaster
  3
AmiServices
 90
     1024
280
     0
281
     0
  0
CLASS
  1
ASAPP
  2
AcAsAppObject
  3
AutoSurfServices
 90
     1024
280
     0
281
     0
  0
CLASS
  1
IM_STATIC_MAN
  2
AcImStaticVarManager
  3
AcMeServices
 90
     1024
280
     0
281
     0
  0
CLASS
  1
ACIMSTRSYSVAR
  2
AcImStrSysVar
  3
AcMeServices
 90
     1024
280
     0
281
     0
  0
CLASS
  1
ACIMDBLSTATICVAR
  2
AcImDblStaticVar
  3
AcMeServices
 90
     1024
280
     0
281
     0
  0
CLASS
  1
ACIMSTRSTATICVAR
  2
AcImStrStaticVar
  3
AcMeServices
 90
     1024
280
     0
281
     0
  0
CLASS
  1
ACIMINTSTATICVAR
  2
AcImIntStaticVar
  3
AcMeServices
 90
     1024
280
     0
281
     0
  0
CLASS
  1
ACASGREFMASTER
  2
AcAsGrefMaster
  3
AutoSurfResolverServices
 90
     1024
280
     0
281
     0
  0
CLASS
  1
ACADGREFMODULE
  2
AcAdGrefModule
  3
AdGrefServices
 90
     1024
280
     0
281
     0
  0
CLASS
  1
AMDTMAPISURFMOUDULE
  2
AmdtMApiSurfModule
  3
MApiSurfServices
 90
     1024
280
     0
281
     0
  0
CLASS
  1
MAPIAMMOUDLE
  2
MApiAmModule
  3
MApiAmServices
 90
     1024
280
     0
281
     0
  0
CLASS
  1
AMDTADMENUSTATE
  2
AmdtAdMenuState
  3
DesignerServices
 90
     1024
280
     0
281
     0
  0
CLASS
  1
ADAPPL
  2
AcAdAppl
  3
DesignerServices
 90
     1024
280
     0
281
     0
  0
CLASS
  1
DEPMGR
  2
AcAdDepMgr
  3
DesignerServices
 90
     1024
280
     0
281
     0
  0
CLASS
  1
PARAMMGR
  2
AcAdParamMgr
  3
DesignerServices
 90
     1024
280
     0
281
     0
  0
CLASS
  1
PARAMSCOPE
  2
AcAdParamScope
  3
DesignerServices
 90
     1024
280
     0
281
     0
  0
CLASS
  1
NAMEDAPPL
  2
AcAdNamedAppl
  3
DesignerServices
 90
     1024
280
     0
281
     0
  0
CLASS
  1
AMDTDMMENUSTATE
  2
AmdtDmMenuState
  3
AcMechDwgViewMgmt
 90
     1024
280
     0
281
     0
  0
CLASS
  1
MAPIADMODULE
  2
MApiAdModule
  3
MApiAdServices
 90
     1024
280
     0
281
     0
  0
CLASS
  1
AMDTAMMENUSTATE
  2
AmdtAmMenuState
  3
DesignerAssemblies
 90
     1024
280
     0
281
     0
  0
CLASS
  1
ACAMPROJECT
  2
AcAmProject
  3
DesignerAssemblies
 90
     1024
280
     0
281
     0
  0
CLASS
  1
ACAMGRCOMPDEF
  2
AcAmGrCompDef
  3
DesignerAssemblies
 90
     1024
280
     0
281
     0
  0
CLASS
  1
ACCMCONTEXT
  2
AcCmContext
  3
DesignerAssemblies
 90
     1024
280
     0
281
     0
  0
CLASS
  1
ACAMCOMPDEF
  2
AcAmCompDef
  3
DesignerAssemblies
 90
     1024
280
     0
281
     0
  0
CLASS
  1
ACAMCOMPDEFMGR
  2
AcAmCompDefMgr
  3
DesignerAssemblies
 90
     1024
280
     0
281
     0
  0
CLASS
  1
AMCONTEXTMGR
  2
AcAmContextMgr
  3
DesignerAssemblies
 90
     1024
280
     0
281
     0
  0
CLASS
  1
ACAMCONTEXTMODELER
  2
AcAmContextModeler
  3
DesignerAssemblies
 90
     1024
280
     0
281
     0
  0
CLASS
  1
ACMDATADICTIONARY
  2
AcmDataDictionary
  3
"AcmSymBB|Product Description: AutoCAD Mechanical|Company: Autodesk, Inc."
 90
     1024
280
     0
281
     0
  0
CLASS
  1
ACMDATAENTRYBLOCK
  2
AcmDataEntryBlock
  3
AcmSymBB|Product Description: AutoCAD Mechanical|Company: Autodesk, Inc.
 90
     1024
280
     0
281
     0
  0
CLASS
  1
ACRFATTGENMGR
  2
AcRfAttGeneralMgr
  3
AcAttribServices
 90
     1024
280
     0
281
     0
  0
CLASS
  1
ACRFOBJATTMGR
  2
AcRfObjAttGroupMgr
  3
AcAttribServices
 90
     1024
280
     0
281
     0
  0
CLASS
  1
ACRFMCADAPIATTHOLDER
  2
AcRfMCADAPIAttHolder
  3
AcAttribServices
 90
     1024
280
     0
281
     0
  0
CLASS
  1
AMDTSYSATTR
  2
AmdtSystemAttribute
  3
AcAttribServices
 90
     1024
280
     0
281
     0
  0
CLASS
  1
CATALOGSTATE
  2
AcAmCatalogState
  3
DesignerAssemblies
 90
     1024
280
     0
281
     0
  0
CLASS
  1
ACAMGRCOMPDEFSET
  2
AcAmGrCompDefSet
  3
DesignerAssemblies
 90
     1024
280
     0
281
     0
  0
CLASS
  1
AMDTBROWSERDBTAB
  2
AmdtBrowserDbTab
  3
McadcomServices
 90
     1024
280
     0
281
     0
  0
CLASS
  1
CBROWSERAPPOBJECT
  2
CBrowserAppObject
  3
McadcomServices
 90
     1024
280
     0
281
     0
  0
CLASS
  1
DM_PLACEHOLDER
  2
AcDmSelsetPlaceholder
  3
AcMechDwgViewMgmt
 90
     1024
280
     0
281
     0
  0
CLASS
  1
ACMSTANDARDANSI
  2
AcmStandardANSI
  3
"Amdt_StdImp|Product Description: AutoCAD Mechanical|Company: Autodesk, Inc."
 90
     1024
280
     0
281
     0
  0
CLASS
  1
ACMSURFSTANDARDANSI
  2
AcmSurfTextStdANSI
  3
"Amdt_StdImp|Product Description: AutoCAD Mechanical|Company: Autodesk, Inc."
 90
     1024
280
     0
281
     0
  0
CLASS
  1
ACMFCFSTANDARDANSI
  2
AcmFCFStdANSI
  3
"Amdt_StdImp|Product Description: AutoCAD Mechanical|Company: Autodesk, Inc."
 90
     1024
280
     0
281
     0
  0
CLASS
  1
ACMWELDSTANDARDANSI
  2
AcmWeldingStdANSI
  3
"Amdt_StdImp|Product Description: AutoCAD Mechanical|Company: Autodesk, Inc."
 90
     1024
280
     0
281
     0
  0
CLASS
  1
ACMIDSTANDARDANSI
  2
AcmIdStdANSI
  3
"Amdt_StdImp|Product Description: AutoCAD Mechanical|Company: Autodesk, Inc."
 90
     1024
280
     0
281
     0
  0
CLASS
  1
ACMDATUMSTANDARDANSI
  2
AcmDatumStdANSI
  3
"Amdt_StdImp|Product Description: AutoCAD Mechanical|Company: Autodesk, Inc."
 90
     1024
280
     0
281
     0
  0
CLASS
  1
ACMBOMSTANDARDANSI
  2
AcmBOMStdANSI
  3
"Amdt_StdImp|Product Description: AutoCAD Mechanical|Company: Autodesk, Inc."
 90
     1024
280
     0
281
     0
  0
CLASS
  1
ACMDETAILSTANDARDANSI
  2
AmdtDetailSymStdANSI
  3
"Amdt_StdImp|Product Description: AutoCAD Mechanical|Company: Autodesk, Inc."
 90
     1024
280
     0
281
     0
  0
CLASS
  1
ACMSECTIONSTANDARDANSI
  2
AmdtSectionSymStdANSI
  3
"Amdt_StdImp|Product Description: AutoCAD Mechanical|Company: Autodesk, Inc."
 90
     1024
280
     0
281
     0
  0
CLASS
  1
ACMCENTERLINESTANDARDANSI
  2
AmdtCenterLineStdANSI
  3
"Amdt_StdImp|Product Description: AutoCAD Mechanical|Company: Autodesk, Inc."
 90
     1024
280
     0
281
     0
  0
CLASS
  1
ACMTHREADLINESTANDARDANSI
  2
AmdtThreadLineStdANSI
  3
"Amdt_StdImp|Product Description: AutoCAD Mechanical|Company: Autodesk, Inc."
 90
     1024
280
     0
281
     0
  0
CLASS
  1
ACMNOTESTANDARDANSI
  2
AmdtNoteStdANSI
  3
"Amdt_StdImp|Product Description: AutoCAD Mechanical|Company: Autodesk, Inc."
 90
     1024
280
     0
281
     0
  0
CLASS
  1
ACMTAPERSTANDARDANSI
  2
AcmTaperStdANSI
  3
"Amdt_StdImp|Product Description: AutoCAD Mechanical|Company: Autodesk, Inc."
 90
     1024
280
     0
281
     0
  0
CLASS
  1
ACMANOOTATIONVIEWSTANDARDANSI
  2
AmdtAnViewStdANSI
  3
"Amdt_StdImp|Product Description: AutoCAD Mechanical|Company: Autodesk, Inc."
 90
     1024
280
     0
281
     0
  0
CLASS
  1
ACAMGLAYSTD
  2
AcAmgLayStd
  3
"AmgLay|Product Description: AutoCAD Mechanical|Company: Autodesk, Inc."
 90
     1024
280
     0
281
     0
  0
CLASS
  1
ACAMGDIMSTD
  2
AcAmgDimStd
  3
"AmgDim|Product Description: AutoCAD Mechanical|Company: Autodesk, Inc."
 90
     1024
280
     0
281
     0
  0
CLASS
  1
ACAMGHOLECHARTSTDANSI
  2
AcAmgHoleChartStdANSI
  3
AmgDim|Product Description: AutoCAD Mechanical|Company: Autodesk, Inc.
 90
     1024
280
     0
281
     0
  0
CLASS
  1
AMGOBJPROPCFG
  2
AmgObjPropCfg
  3
"AmgLay|Product Description: AutoCAD Mechanical|Company: Autodesk, Inc."
 90
     1025
280
     0
281
     0
  0
CLASS
  1
ACAMGTITLESTD
  2
AcAmgTitleStd
  3
"AmgTitle|Product Description: AutoCAD Mechanical|Company: Autodesk, Inc."
 90
     4095
280
     0
281
     0
  0
CLASS
  1
AMDTNOTETEMPLATEDB
  2
AmdtNoteTemplateDB
  3
AcmSymBB|Product Description: AutoCAD Mechanical|Company: Autodesk, Inc.
 90
     1024
280
     0
281
     0
  0
CLASS
  1
ACAMGFILTERDAT
  2
AcAmgFilterDat
  3
"AcadM|Product Description: AutoCAD Mechanical|Company: Autodesk, Inc."
 90
     1024
280
     0
281
     0
  0
CLASS
  1
LAYER_INDEX
  2
AcDbLayerIndex
  3
ObjectDBX Classes
 90
        0
280
     0
281
     0
  0
CLASS
  1
IDBUFFER
  2
AcDbIdBuffer
  3
ObjectDBX Classes
 90
        0
280
     0
281
     0
  0
CLASS
  1
DICTIONARYVAR
  2
AcDbDictionaryVar
  3
ObjectDBX Classes
 90
        0
280
     0
281
     0
  0
CLASS
  1
CELLSTYLEMAP
  2
AcDbCellStyleMap
  3
ObjectDBX Classes
 90
     1152
280
     0
281
     0
  0
CLASS
  1
ACDBPLACEHOLDER
  2
AcDbPlaceHolder
  3
ObjectDBX Classes
 90
        0
280
     0
281
     0
  0
CLASS
  1
LAYOUT
  2
AcDbLayout
  3
ObjectDBX Classes
 90
        0
280
     0
281
     0
  0
ENDSEC
  0
SECTION
  2
TABLES
  0
TABLE
  2
VPORT
  5
2B05
330
0
100
AcDbSymbolTable
 70
     1
  0
VPORT
  5
2B75
330
2B05
100
AcDbSymbolTableRecord
100
AcDbViewportTableRecord
  2
*ACTIVE
 70
     0
 10
0.0
 20
0.0
 11
1.0
 21
1.0
 12
-0.0000000000002984
 22
-12.00414907121285
 13
0.0
 23
0.0
 14
1.0
 24
1.0
 15
0.0
 25
0.0
 16
0.0
 26
0.0
 36
1.0
 17
27.41776898901043
 27
-0.3325721212941062
 37
0.0
 40
1133.762016093778
 41
1.712555066079295
 42
50.0
 43
0.0
 44
0.0
 50
0.0
 51
0.0
 71
     0
 72
   100
 73
     1
 74
     0
 75
     0
 76
     0
 77
     0
 78
     0
281
     0
 65
     0
110
0.0
120
0.0
130
0.0
111
1.0
121
0.0
131
0.0
112
0.0
122
1.0
132
0.0
 79
     0
146
0.0
  0
ENDTAB
  0
TABLE
  2
LTYPE
  5
2B02
330
0
100
AcDbSymbolTable
 70
    19
  0
LTYPE
  5
2B5F
330
2B02
100
AcDbSymbolTableRecord
100
AcDbLinetypeTableRecord
  2
ByBlock
 70
     0
  3

 72
    65
 73
     0
 40
0.0
  0
LTYPE
  5
2B60
330
2B02
100
AcDbSymbolTableRecord
100
AcDbLinetypeTableRecord
  2
ByLayer
 70
     0
  3

 72
    65
 73
     0
 40
0.0
  0
LTYPE
  5
2B61
330
2B02
100
AcDbSymbolTableRecord
100
AcDbLinetypeTableRecord
  2
CONTINUOUS
 70
     0
  3
実線
 72
    65
 73
     0
 40
0.0
  0
LTYPE
  5
2B76
330
2B02
100
AcDbSymbolTableRecord
100
AcDbLinetypeTableRecord
  2
DASHDOT
 70
     0
  3
____ _ ____ _ ____ _ ____ _ ____ _ ____ _ ____
 72
    65
 73
     4
 40
5.5
 49
4.0
 74
     0
 49
-0.6
 74
     0
 49
0.3
 74
     0
 49
-0.6
 74
     0
  0
LTYPE
  5
2B77
330
2B02
100
AcDbSymbolTableRecord
100
AcDbLinetypeTableRecord
  2
HIDDEN
 70
     0
  3
Hidden __ __ __ __ __ __ __ __ __ __ __ __ __ _
 72
    65
 73
     2
 40
0.375
 49
0.25
 74
     0
 49
-0.125
 74
     0
  0
LTYPE
  5
2B78
330
2B02
100
AcDbSymbolTableRecord
100
AcDbLinetypeTableRecord
  2
PHANTOM2
 70
     0
  3
Phantom (.5x) ___ _ _ ___ _ _ ___ _ _ ___ _ _
 72
    65
 73
     6
 40
1.25
 49
0.625
 74
     0
 49
-0.125
 74
     0
 49
0.125
 74
     0
 49
-0.125
 74
     0
 49
0.125
 74
     0
 49
-0.125
 74
     0
  0
LTYPE
  5
2B79
330
2B02
100
AcDbSymbolTableRecord
100
AcDbLinetypeTableRecord
  2
CENTER
 70
     0
  3
Center ____ _ ____ _ ____ _ ____ _ ____ _ ____
 72
    65
 73
     4
 40
2.0
 49
1.25
 74
     0
 49
-0.25
 74
     0
 49
0.25
 74
     0
 49
-0.25
 74
     0
  0
LTYPE
  5
2B7A
330
2B02
100
AcDbSymbolTableRecord
100
AcDbLinetypeTableRecord
  2
ASULTYPE
 70
     0
  3
実線
 72
    65
 73
     2
 40
3.0
 49
2.5
 74
     0
 49
0.5
 74
     0
  0
LTYPE
  5
2B7B
330
2B02
100
AcDbSymbolTableRecord
100
AcDbLinetypeTableRecord
  2
ASVLTYPE
 70
     0
  3
__ __ __ __ __ __ __ __ __ __ __ __ __ __ __ __ __ __ __ __ __
 72
    65
 73
     2
 40
0.75
 49
0.5
 74
     0
 49
-0.25
 74
     0
  0
LTYPE
  5
2B7C
330
2B02
100
AcDbSymbolTableRecord
100
AcDbLinetypeTableRecord
  2
AM_ISO02W050
 70
     0
  3
__ __ __ __ __ __ __ __ __ __ __ __ __ __ __
 72
    65
 73
     2
 40
7.5
 49
6.0
 74
     0
 49
-1.5
 74
     0
  0
LTYPE
  5
2B7D
330
2B02
100
AcDbSymbolTableRecord
100
AcDbLinetypeTableRecord
  2
AM_ISO08W050
 70
     0
  3
____ . ____ . ____ . ____ . ____ . ____ . ____
 72
    65
 73
     4
 40
18.0
 49
12.0
 74
     0
 49
-1.5
 74
     0
 49
3.0
 74
     0
 49
-1.5
 74
     0
  0
LTYPE
  5
2B7E
330
2B02
100
AcDbSymbolTableRecord
100
AcDbLinetypeTableRecord
  2
AM_ISO09W050
 70
     0
  3
_____ . . _____ . . _____ . . ____ .. ____
 72
    65
 73
     6
 40
22.5
 49
12.0
 74
     0
 49
-1.5
 74
     0
 49
3.0
 74
     0
 49
-1.5
 74
     0
 49
3.0
 74
     0
 49
-1.5
 74
     0
  0
LTYPE
  5
2B7F
330
2B02
100
AcDbSymbolTableRecord
100
AcDbLinetypeTableRecord
  2
AMCONSTR
 70
     0
  3
_______________________
 72
    65
 73
     2
 40
9999.0
 49
9999.0
 74
     0
 49
0.0
 74
     0
  0
LTYPE
  5
2B80
330
2B02
100
AcDbSymbolTableRecord
100
AcDbLinetypeTableRecord
  2
AM_ISO08W050X2
 70
     0
  3
__ . __ . __ . __ . __ . __
 72
    65
 73
     4
 40
9.0
 49
6.0
 74
     0
 49
-0.75
 74
     0
 49
1.5
 74
     0
 49
-0.75
 74
     0
  0
LTYPE
  5
2B81
330
2B02
100
AcDbSymbolTableRecord
100
AcDbLinetypeTableRecord
  2
AM_ISO02W050X2
 70
     0
  3
 _ _ _ _ _ _ _ _ _ _ _ _
 72
    65
 73
     2
 40
3.75
 49
3.0
 74
     0
 49
-0.75
 74
     0
  0
LTYPE
  5
2B82
330
2B02
100
AcDbSymbolTableRecord
100
AcDbLinetypeTableRecord
  2
AMZIGZAG
 70
     0
  3
/\/-/\/-/\/-/\/-/\/-/\/
 72
    65
 73
     2
 40
11.0001
 49
0.0001
 74
     0
 49
-11.0
 74
     0
  0
LTYPE
  5
2B83
330
2B02
100
AcDbSymbolTableRecord
100
AcDbLinetypeTableRecord
  2
CENTER2
 70
     0
  3
Center (.5x) ___ _ ___ _ ___ _ ___ _ ___ _ ___
 72
    65
 73
     4
 40
1.125
 49
0.75
 74
     0
 49
-0.125
 74
     0
 49
0.125
 74
     0
 49
-0.125
 74
     0
  0
LTYPE
  5
2B84
330
2B02
100
AcDbSymbolTableRecord
100
AcDbLinetypeTableRecord
  2
HIDDEN2
 70
     0
  3
Hidden (.5x) _ _ _ _ _ _ _ _ _ _ _ _ _ _ _ _ _
 72
    65
 73
     2
 40
0.1875
 49
0.125
 74
     0
 49
-0.0625
 74
     0
  0
LTYPE
  5
2B85
330
2B02
100
AcDbSymbolTableRecord
100
AcDbLinetypeTableRecord
  2
AMZIGZAG2
 70
     0
  3
/\/-/\/-/\/-/\/-/\/-/\/
 72
    65
 73
     2
 40
0.4401
 49
0.0001
 74
     0
 49
-0.4400000000000003
 74
     0
  0
LTYPE
  5
2B86
330
2B02
100
AcDbSymbolTableRecord
100
AcDbLinetypeTableRecord
  2
ACANSTGB
 70
     0
  3
__ . . __ . .
 72
    65
 73
     6
 40
0.35433070866
 49
0.15748031496
 74
     0
 49
-0.03937007874
 74
     0
 49
0.03937007874
 74
     0
 49
-0.03937007874
 74
     0
 49
0.03937007874
 74
     0
 49
-0.03937007874
 74
     0
  0
LTYPE
  5
2B87
330
2B02
100
AcDbSymbolTableRecord
100
AcDbLinetypeTableRecord
  2
ACANSTGL
 70
     0
  3
_ _ _ _ _
 72
    65
 73
     2
 40
0.11811023622
 49
0.07874015748
 74
     0
 49
-0.03937007874
 74
     0
  0
ENDTAB
  0
TABLE
  2
LAYER
  5
2AFF
330
0
100
AcDbSymbolTable
 70
    12
  0
LAYER
  5
2B59
102
{ACAD_XDICTIONARY
360
2D36
102
}
330
2AFF
100
AcDbSymbolTableRecord
100
AcDbLayerTableRecord
  2
0
 70
     0
 62
     7
  6
CONTINUOUS
370
    -3
390
2B0C
  0
LAYER
  5
2B88
102
{ACAD_XDICTIONARY
360
2D38
102
}
330
2AFF
100
AcDbSymbolTableRecord
100
AcDbLayerTableRecord
  2
OUTLINE
 70
     0
 62
     3
  6
CONTINUOUS
370
    -3
390
2B0C
  0
LAYER
  5
2B89
102
{ACAD_XDICTIONARY
360
2D3A
102
}
330
2AFF
100
AcDbSymbolTableRecord
100
AcDbLayerTableRecord
  2
SIZE
 70
     0
 62
    30
  6
CONTINUOUS
370
    -3
390
2B0C
  0
LAYER
  5
2B8A
102
{ACAD_XDICTIONARY
360
2D3C
102
}
330
2AFF
100
AcDbSymbolTableRecord
100
AcDbLayerTableRecord
  2
BASIS
 70
     0
 62
     6
  6
DASHDOT
370
    -3
390
2B0C
  0
LAYER
  5
2B8B
102
{ACAD_XDICTIONARY
360
2D3E
102
}
330
2AFF
100
AcDbSymbolTableRecord
100
AcDbLayerTableRecord
  2
DETAIL
 70
     0
 62
     5
  6
CONTINUOUS
370
    -3
390
2B0C
  0
LAYER
  5
2B8C
102
{ACAD_XDICTIONARY
360
2D40
102
}
330
2AFF
100
AcDbSymbolTableRecord
100
AcDbLayerTableRecord
  2
ARRANGE
 70
     0
 62
     1
  6
CONTINUOUS
370
    -3
390
2B0C
  0
LAYER
  5
2B8D
330
2AFF
100
AcDbSymbolTableRecord
100
AcDbLayerTableRecord
  2
DEFPOINTS
 70
     0
 62
     7
  6
CONTINUOUS
290
     0
370
    -3
390
2B0C
  0
LAYER
  5
2B8E
102
{ACAD_XDICTIONARY
360
2D42
102
}
330
2AFF
100
AcDbSymbolTableRecord
100
AcDbLayerTableRecord
  2
ETC
 70
     0
 62
    61
  6
CONTINUOUS
370
    -3
390
2B0C
  0
LAYER
  5
2B8F
102
{ACAD_XDICTIONARY
360
2D44
102
}
330
2AFF
100
AcDbSymbolTableRecord
100
AcDbLayerTableRecord
  2
FIX
 70
     0
 62
    11
  6
CONTINUOUS
370
    -3
390
2B0C
  0
LAYER
  5
2B90
102
{ACAD_XDICTIONARY
360
2D46
102
}
330
2AFF
100
AcDbSymbolTableRecord
100
AcDbLayerTableRecord
  2
NOTE
 70
     0
 62
     4
  6
CONTINUOUS
370
    -3
390
2B0C
  0
LAYER
  5
2B91
102
{ACAD_XDICTIONARY
360
2D48
102
}
330
2AFF
100
AcDbSymbolTableRecord
100
AcDbLayerTableRecord
  2
SERVICESPACE
 70
     0
 62
     2
  6
DASHDOT
370
    -3
390
2B0C
  0
LAYER
  5
2B92
102
{ACAD_XDICTIONARY
360
2D4A
102
}
330
2AFF
100
AcDbSymbolTableRecord
100
AcDbLayerTableRecord
  2
SYMBOLLINE
 70
     0
 62
    15
  6
CONTINUOUS
370
    -3
390
2B0C
  0
ENDTAB
  0
TABLE
  2
STYLE
  5
2B00
330
0
100
AcDbSymbolTable
 70
     5
  0
STYLE
  5
2B5A
330
2B00
100
AcDbSymbolTableRecord
100
AcDbTextStyleTableRecord
  2
STANDARD
 70
     0
 40
64.0
 41
0.9
 50
0.0
 71
     0
 42
64.0
  3
SIMPLEX.shx
  4
BIGFONT.shx
  0
STYLE
  5
2B5E
330
2B00
100
AcDbSymbolTableRecord
100
AcDbTextStyleTableRecord
  2
ANNOTATIVE
 70
     0
 40
0.0
 41
1.0
 50
0.0
 71
     0
 42
0.2
  3
txt
  4

1001
ACADANNOTATIVE
1000
AnnotativeData
1002
{
1070
     1
1070
     1
1002
}
  0
STYLE
  5
2B93
330
2B00
100
AcDbSymbolTableRecord
100
AcDbTextStyleTableRecord
  2

 70
     1
 40
0.0
 41
1.0
 50
0.0
 71
     0
 42
64.0
  3
genltshp.shx
  4

  0
STYLE
  5
2B94
330
2B00
100
AcDbSymbolTableRecord
100
AcDbTextStyleTableRecord
  2
ACANSTS
 70
     0
 40
1.0
 41
1.0
 50
0.0
 71
     0
 42
64.0
  3
romans.shx
  4
extfont.shx
  0
STYLE
  5
2B95
330
2B00
100
AcDbSymbolTableRecord
100
AcDbTextStyleTableRecord
  2
ACANSGDT
 70
     0
 40
0.0
 41
1.0
 50
0.0
 71
     0
 42
64.0
  3
amgdt.shx
  4

  0
ENDTAB
  0
TABLE
  2
VIEW
  5
2B03
330
0
100
AcDbSymbolTable
 70
     1
  0
VIEW
  5
2B96
330
2B03
100
AcDbSymbolTableRecord
100
AcDbViewTableRecord
  2
ALL
 70
     0
 40
4282.619807999997
 10
0.0
 20
41.30990399999999
 41
5940.0
 11
0.0
 21
0.0
 31
1.0
 12
0.0
 22
0.0
 32
0.0
 42
50.0
 43
0.0
 44
0.0
 50
0.0
 71
     0
281
     0
 72
     1
110
0.0
120
0.0
130
0.0
111
1.0
121
0.0
131
0.0
112
0.0
122
1.0
132
0.0
 79
     0
146
0.0
  0
ENDTAB
  0
TABLE
  2
UCS
  5
2B04
330
0
100
AcDbSymbolTable
 70
     0
  0
ENDTAB
  0
TABLE
  2
APPID
  5
2B06
330
0
100
AcDbSymbolTable
 70
    26
  0
APPID
  5
2B5B
330
2B06
100
AcDbSymbolTableRecord
100
AcDbRegAppTableRecord
  2
ACAD
 70
     0
  0
APPID
  5
2B62
330
2B06
100
AcDbSymbolTableRecord
100
AcDbRegAppTableRecord
  2
ACADANNOTATIVE
 70
     0
  0
APPID
  5
2B6C
330
2B06
100
AcDbSymbolTableRecord
100
AcDbRegAppTableRecord
  2
ACAD_MLEADERVER
 70
     0
  0
APPID
  5
2B97
330
2B06
100
AcDbSymbolTableRecord
100
AcDbRegAppTableRecord
  2
GENIUS_GENDIM_13
 70
     0
  0
APPID
  5
2B98
330
2B06
100
AcDbSymbolTableRecord
100
AcDbRegAppTableRecord
  2
GENIUS_GENDTOL_13
 70
     0
  0
APPID
  5
2B99
330
2B06
100
AcDbSymbolTableRecord
100
AcDbRegAppTableRecord
  2
GENIUS_GE3DTOL_13
 70
     0
  0
APPID
  5
2B9A
330
2B06
100
AcDbSymbolTableRecord
100
AcDbRegAppTableRecord
  2
MCAD_NO_VIS
 70
     0
  0
APPID
  5
2B9B
330
2B06
100
AcDbSymbolTableRecord
100
AcDbRegAppTableRecord
  2
ACAD_TEMP_GRAPHIC
 70
     0
  0
APPID
  5
2B9C
330
2B06
100
AcDbSymbolTableRecord
100
AcDbRegAppTableRecord
  2
AD_DRAW
 70
     0
  0
APPID
  5
2B9D
330
2B06
100
AcDbSymbolTableRecord
100
AcDbRegAppTableRecord
  2
ACATTRIBSERVICES
 70
     0
  0
APPID
  5
2B9E
330
2B06
100
AcDbSymbolTableRecord
100
AcDbRegAppTableRecord
  2
ASURF_PCURVE_APPNAME
 70
     0
  0
APPID
  5
2B9F
330
2B06
100
AcDbSymbolTableRecord
100
AcDbRegAppTableRecord
  2
AMG_3D2D_5_0
 70
     0
  0
APPID
  5
2BA0
330
2B06
100
AcDbSymbolTableRecord
100
AcDbRegAppTableRecord
  2
DESIGNERASSEMBLIES
 70
     0
  0
APPID
  5
2BA1
330
2B06
100
AcDbSymbolTableRecord
100
AcDbRegAppTableRecord
  2
ACADM_DIM_EDIT
 70
     0
  0
APPID
  5
2BA2
330
2B06
100
AcDbSymbolTableRecord
100
AcDbRegAppTableRecord
  2
AMDT_DM_ADJ
 70
     0
  0
APPID
  5
2BA3
330
2B06
100
AcDbSymbolTableRecord
100
AcDbRegAppTableRecord
  2
ACAD_DSTYLE_DIMARC_LENGTH_
 70
     0
  0
APPID
  5
2BA4
330
2B06
100
AcDbSymbolTableRecord
100
AcDbRegAppTableRecord
  2
ACAD_DSTYLE_DIMJOGGED_JOGA
 70
     0
  0
APPID
  5
2BA5
330
2B06
100
AcDbSymbolTableRecord
100
AcDbRegAppTableRecord
  2
ACAD_PSEXT
 70
     0
  0
APPID
  5
2BA6
330
2B06
100
AcDbSymbolTableRecord
100
AcDbRegAppTableRecord
  2
ACAD_EXEMPT_FROM_CAD_STANDARDS
 70
     0
  0
APPID
  5
2BA7
330
2B06
100
AcDbSymbolTableRecord
100
AcDbRegAppTableRecord
  2
ACAD_DSTYLE_DIMJAG
 70
     0
  0
APPID
  5
2BA8
330
2B06
100
AcDbSymbolTableRecord
100
AcDbRegAppTableRecord
  2
ACAD_DSTYLE_DIMTALN
 70
     0
  0
APPID
  5
2CD6
330
2B06
100
AcDbSymbolTableRecord
100
AcDbRegAppTableRecord
  2
AMG_3D2D_5.0
 70
     0
  0
APPID
  5
2D73
330
2B06
100
AcDbSymbolTableRecord
100
AcDbRegAppTableRecord
  2
ACAD_DSTYLE_DIMARC_LENGTH_SYMBOL
 70
     0
  0
APPID
  5
2D74
330
2B06
100
AcDbSymbolTableRecord
100
AcDbRegAppTableRecord
  2
ACAD_DSTYLE_DIM_LINETYPE
 70
     0
  0
APPID
  5
2D75
330
2B06
100
AcDbSymbolTableRecord
100
AcDbRegAppTableRecord
  2
ACAD_DSTYLE_DIM_EXT1_LINETYPE
 70
     0
  0
APPID
  5
2D76
330
2B06
100
AcDbSymbolTableRecord
100
AcDbRegAppTableRecord
  2
ACAD_DSTYLE_DIM_EXT2_LINETYPE
 70
     0
  0
ENDTAB
  0
TABLE
  2
DIMSTYLE
  5
2B07
330
0
100
AcDbSymbolTable
 70
    10
100
AcDbDimStyleTable
 71
     1
340
2BA9
  0
DIMSTYLE
105
2B5C
330
2B07
100
AcDbSymbolTableRecord
100
AcDbDimStyleTableRecord
  2
STANDARD
 70
     0
 41
12.0
 42
20.0
 44
20.0
 77
     1
 78
     8
140
64.0
141
0.0
147
10.0
275
     1
279
     2
284
     7
285
     7
286
     7
340
2B5A
  0
DIMSTYLE
105
2B5D
330
2B07
100
AcDbSymbolTableRecord
100
AcDbDimStyleTableRecord
  2
ANNOTATIVE
 70
     0
275
     1
279
     2
284
     7
285
     7
286
     7
340
2B5A
1001
ACADANNOTATIVE
1000
AnnotativeData
1002
{
1070
     1
1070
     1
1002
}
  0
DIMSTYLE
105
2BA9
330
2B07
100
AcDbSymbolTableRecord
100
AcDbDimStyleTableRecord
  2
AM_ANSI
 70
     0
  4
mm
 41
0.12
 42
0.05
 43
0.5
 44
0.1
 47
0.1
 48
0.1
 78
     7
 79
     2
140
0.12
141
0.0
146
0.71
147
0.06
176
   256
177
   256
178
     2
274
     4
284
     7
340
2B5A
371
    -1
372
    -1
1001
ACAD_DSTYLE_DIMARC_LENGTH_SYMBOL
1070
   379
1070
     1
1001
ACAD_DSTYLE_DIM_LINETYPE
1070
   380
1005
2B5F
1001
ACAD_DSTYLE_DIM_EXT1_LINETYPE
1070
   381
1005
2B5F
1001
ACAD_DSTYLE_DIM_EXT2_LINETYPE
1070
   382
1005
2B5F
  0
DIMSTYLE
105
2BAA
330
2B07
100
AcDbSymbolTableRecord
100
AcDbDimStyleTableRecord
  2
AM_ANSI$3
 70
     0
  4
mm
 41
0.12
 42
0.05
 43
0.5
 44
0.1
 47
0.1
 48
0.1
 78
     7
 79
     2
140
0.12
141
0.0
146
0.71
147
0.06
176
   256
177
   256
178
     2
274
     4
284
     7
288
     1
289
     0
340
2B5A
371
    -1
372
    -1
1001
ACAD_DSTYLE_DIMARC_LENGTH_SYMBOL
1070
   379
1070
     1
1001
ACAD_DSTYLE_DIM_LINETYPE
1070
   380
1005
2B5F
1001
ACAD_DSTYLE_DIM_EXT1_LINETYPE
1070
   381
1005
2B5F
1001
ACAD_DSTYLE_DIM_EXT2_LINETYPE
1070
   382
1005
2B5F
  0
DIMSTYLE
105
2BAB
330
2B07
100
AcDbSymbolTableRecord
100
AcDbDimStyleTableRecord
  2
AM_ANSI$4
 70
     0
  4
mm
 41
0.12
 42
0.05
 43
0.5
 44
0.1
 47
0.1
 48
0.1
 78
     7
 79
     2
140
0.12
141
0.0
146
0.71
147
0.06
176
   256
177
   256
178
     2
274
     4
284
     7
340
2B5A
371
    -1
372
    -1
1001
ACAD_DSTYLE_DIMARC_LENGTH_SYMBOL
1070
   379
1070
     1
1001
ACAD_DSTYLE_DIM_LINETYPE
1070
   380
1005
2B5F
1001
ACAD_DSTYLE_DIM_EXT1_LINETYPE
1070
   381
1005
2B5F
1001
ACAD_DSTYLE_DIM_EXT2_LINETYPE
1070
   382
1005
2B5F
  0
DIMSTYLE
105
2BAC
330
2B07
100
AcDbSymbolTableRecord
100
AcDbDimStyleTableRecord
  2
AM_ANSI$7
 70
     0
  4
mm
 41
0.12
 42
0.05
 43
0.5
 44
0.1
 47
0.1
 48
0.1
 78
     7
 79
     2
140
0.12
141
0.0
146
0.71
147
0.06
176
   256
177
   256
178
     2
274
     4
284
     7
340
2B5A
371
    -1
372
    -1
1001
ACAD_DSTYLE_DIMARC_LENGTH_SYMBOL
1070
   379
1070
     1
1001
ACAD_DSTYLE_DIM_LINETYPE
1070
   380
1005
2B5F
1001
ACAD_DSTYLE_DIM_EXT1_LINETYPE
1070
   381
1005
2B5F
1001
ACAD_DSTYLE_DIM_EXT2_LINETYPE
1070
   382
1005
2B5F
  0
DIMSTYLE
105
2BAD
330
2B07
100
AcDbSymbolTableRecord
100
AcDbDimStyleTableRecord
  2
AM_ANSI$SF
 70
     0
  4
mm
 41
0.12
 42
0.05
 43
0.5
 44
0.1
 47
0.1
 48
0.1
 75
     1
 76
     1
 78
     7
 79
     2
140
0.12
141
0.0
146
0.71
147
0.06
176
   256
177
   256
178
     2
274
     4
284
     7
340
2B5A
371
    -1
372
    -1
1001
ACAD_DSTYLE_DIMARC_LENGTH_SYMBOL
1070
   379
1070
     1
1001
ACAD_DSTYLE_DIM_LINETYPE
1070
   380
1005
2B5F
1001
ACAD_DSTYLE_DIM_EXT1_LINETYPE
1070
   381
1005
2B5F
1001
ACAD_DSTYLE_DIM_EXT2_LINETYPE
1070
   382
1005
2B5F
  0
DIMSTYLE
105
2BAE
330
2B07
100
AcDbSymbolTableRecord
100
AcDbDimStyleTableRecord
  2
AM_ANSI$SH
 70
     0
  4
mm
 41
0.12
 42
0.05
 43
0.5
 44
0.1
 47
0.1
 48
0.1
 75
     1
 76
     1
 78
     7
 79
     2
140
0.12
141
0.0
146
0.71
147
0.06
173
     1
176
   256
177
   256
178
     2
274
     4
284
     7
340
2B5A
343
2BCE
371
    -1
372
    -1
1001
ACAD_DSTYLE_DIMARC_LENGTH_SYMBOL
1070
   379
1070
     1
1001
ACAD_DSTYLE_DIM_LINETYPE
1070
   380
1005
2B5F
1001
ACAD_DSTYLE_DIM_EXT1_LINETYPE
1070
   381
1005
2B5F
1001
ACAD_DSTYLE_DIM_EXT2_LINETYPE
1070
   382
1005
2B5F
  0
DIMSTYLE
105
2BAF
330
2B07
100
AcDbSymbolTableRecord
100
AcDbDimStyleTableRecord
  2
STANDARD1
 70
     0
 40
6.0
 41
2.5
 42
0.625
 43
6.0
 44
1.25
 47
1.0
 48
0.5
 77
     1
 78
     8
140
2.5
141
0.0
146
0.6
147
1.0
173
     1
275
     1
279
     2
284
     7
285
     7
286
     7
340
2B5A
  0
DIMSTYLE
105
2BB0
330
2B07
100
AcDbSymbolTableRecord
100
AcDbDimStyleTableRecord
  2
STANDARD$0
 70
     0
 41
12.0
 42
20.0
 44
20.0
 73
     0
 74
     0
 77
     1
 78
     8
140
64.0
141
0.0
147
10.0
275
     1
279
     2
284
     7
285
     7
286
     7
340
2B5A
  0
ENDTAB
  0
TABLE
  2
BLOCK_RECORD
  5
2AFE
330
0
100
AcDbSymbolTable
 70
    79
  0
BLOCK_RECORD
  5
2B71
102
{ACAD_XDICTIONARY
360
2D4C
102
}
330
2AFE
100
AcDbSymbolTableRecord
100
AcDbBlockTableRecord
  2
*Model_Space
340
2B74
  0
BLOCK_RECORD
  5
2B6D
330
2AFE
100
AcDbSymbolTableRecord
100
AcDbBlockTableRecord
  2
*Paper_Space
340
2B70
  0
BLOCK_RECORD
  5
2BB8
330
2AFE
100
AcDbSymbolTableRecord
100
AcDbBlockTableRecord
  2
$MODEL_SPACE
340
0
  0
BLOCK_RECORD
  5
2BBA
330
2AFE
100
AcDbSymbolTableRecord
100
AcDbBlockTableRecord
  2
$PAPER_SPACE
340
0
  0
BLOCK_RECORD
  5
2BBC
330
2AFE
100
AcDbSymbolTableRecord
100
AcDbBlockTableRecord
  2
_ORIGIN
340
0
  0
BLOCK_RECORD
  5
2BBE
330
2AFE
100
AcDbSymbolTableRecord
100
AcDbBlockTableRecord
  2
_DOTBLANK
340
0
102
{BLKREFS
331
1299
331
129A
331
11AA
331
11AB
331
E80
331
E81
331
1123
331
1124
331
11C2
331
11C3
331
11EC
331
11ED
331
11F9
331
11FA
331
1287
331
1288
331
1417
331
1418
331
1423
331
1424
331
142F
331
1430
331
143B
331
143C
331
166E
331
166F
331
1677
331
1678
331
1680
331
1681
331
1689
331
168A
331
1696
331
1697
331
16A3
331
16A4
331
16AF
331
16B0
331
16BB
331
16BC
331
16C7
331
16C8
331
16D3
331
16D4
331
1D86
331
1D87
331
1D8F
331
1D90
331
1D98
331
1D99
331
1DA1
331
1DA2
331
1DAB
331
1DAC
331
1DB5
331
1DB6
331
28AA
331
28AB
331
28AF
331
28B0
331
28B5
331
28B6
331
28BA
331
28BB
331
28C0
331
28C1
331
28C5
331
28C6
102
}
  0
BLOCK_RECORD
  5
2BC0
330
2AFE
100
AcDbSymbolTableRecord
100
AcDbBlockTableRecord
  2
_OPEN30
340
0
102
{BLKREFS
331
2087
331
216B
331
224B
331
2347
331
248F
331
25E4
102
}
  0
BLOCK_RECORD
  5
2BC2
330
2AFE
100
AcDbSymbolTableRecord
100
AcDbBlockTableRecord
  2
*D5
340
0
  0
BLOCK_RECORD
  5
2BC4
330
2AFE
100
AcDbSymbolTableRecord
100
AcDbBlockTableRecord
  2
*U6
340
0
102
{BLKREFS
331
129B
102
}
  0
BLOCK_RECORD
  5
2BC6
330
2AFE
100
AcDbSymbolTableRecord
100
AcDbBlockTableRecord
  2
*D7
340
0
  0
BLOCK_RECORD
  5
2BC8
330
2AFE
100
AcDbSymbolTableRecord
100
AcDbBlockTableRecord
  2
*U8
340
0
102
{BLKREFS
331
11AC
102
}
  0
BLOCK_RECORD
  5
2BCA
330
2AFE
100
AcDbSymbolTableRecord
100
AcDbBlockTableRecord
  2
*D9
340
0
  0
BLOCK_RECORD
  5
2BCC
330
2AFE
100
AcDbSymbolTableRecord
100
AcDbBlockTableRecord
  2
*U10
340
0
102
{BLKREFS
331
E82
102
}
  0
BLOCK_RECORD
  5
2BCE
330
2AFE
100
AcDbSymbolTableRecord
100
AcDbBlockTableRecord
  2
GENAXEH
340
0
  0
BLOCK_RECORD
  5
2BD0
330
2AFE
100
AcDbSymbolTableRecord
100
AcDbBlockTableRecord
  2
*D12
340
0
  0
BLOCK_RECORD
  5
2BD2
330
2AFE
100
AcDbSymbolTableRecord
100
AcDbBlockTableRecord
  2
*U13
340
0
102
{BLKREFS
331
1125
102
}
  0
BLOCK_RECORD
  5
2BD4
330
2AFE
100
AcDbSymbolTableRecord
100
AcDbBlockTableRecord
  2
*D14
340
0
  0
BLOCK_RECORD
  5
2BD6
330
2AFE
100
AcDbSymbolTableRecord
100
AcDbBlockTableRecord
  2
*U15
340
0
102
{BLKREFS
331
11C4
102
}
  0
BLOCK_RECORD
  5
2BD8
330
2AFE
100
AcDbSymbolTableRecord
100
AcDbBlockTableRecord
  2
*D16
340
0
  0
BLOCK_RECORD
  5
2BDA
330
2AFE
100
AcDbSymbolTableRecord
100
AcDbBlockTableRecord
  2
*U17
340
0
102
{BLKREFS
331
11EE
102
}
  0
BLOCK_RECORD
  5
2BDC
330
2AFE
100
AcDbSymbolTableRecord
100
AcDbBlockTableRecord
  2
*D18
340
0
  0
BLOCK_RECORD
  5
2BDE
330
2AFE
100
AcDbSymbolTableRecord
100
AcDbBlockTableRecord
  2
*U19
340
0
102
{BLKREFS
331
11FB
102
}
  0
BLOCK_RECORD
  5
2BE0
330
2AFE
100
AcDbSymbolTableRecord
100
AcDbBlockTableRecord
  2
*D20
340
0
  0
BLOCK_RECORD
  5
2BE2
330
2AFE
100
AcDbSymbolTableRecord
100
AcDbBlockTableRecord
  2
*U21
340
0
102
{BLKREFS
331
1289
102
}
  0
BLOCK_RECORD
  5
2BE4
330
2AFE
100
AcDbSymbolTableRecord
100
AcDbBlockTableRecord
  2
*D22
340
0
  0
BLOCK_RECORD
  5
2BE6
330
2AFE
100
AcDbSymbolTableRecord
100
AcDbBlockTableRecord
  2
*U23
340
0
102
{BLKREFS
331
1419
102
}
  0
BLOCK_RECORD
  5
2BE8
330
2AFE
100
AcDbSymbolTableRecord
100
AcDbBlockTableRecord
  2
*D24
340
0
  0
BLOCK_RECORD
  5
2BEA
330
2AFE
100
AcDbSymbolTableRecord
100
AcDbBlockTableRecord
  2
*U25
340
0
102
{BLKREFS
331
1425
102
}
  0
BLOCK_RECORD
  5
2BEC
330
2AFE
100
AcDbSymbolTableRecord
100
AcDbBlockTableRecord
  2
*D26
340
0
  0
BLOCK_RECORD
  5
2BEE
330
2AFE
100
AcDbSymbolTableRecord
100
AcDbBlockTableRecord
  2
*U27
340
0
102
{BLKREFS
331
1431
102
}
  0
BLOCK_RECORD
  5
2BF0
330
2AFE
100
AcDbSymbolTableRecord
100
AcDbBlockTableRecord
  2
*D28
340
0
  0
BLOCK_RECORD
  5
2BF2
330
2AFE
100
AcDbSymbolTableRecord
100
AcDbBlockTableRecord
  2
*U29
340
0
102
{BLKREFS
331
143D
102
}
  0
BLOCK_RECORD
  5
2BF4
330
2AFE
100
AcDbSymbolTableRecord
100
AcDbBlockTableRecord
  2
*D30
340
0
  0
BLOCK_RECORD
  5
2BF6
330
2AFE
100
AcDbSymbolTableRecord
100
AcDbBlockTableRecord
  2
*U31
340
0
102
{BLKREFS
331
1670
102
}
  0
BLOCK_RECORD
  5
2BF8
330
2AFE
100
AcDbSymbolTableRecord
100
AcDbBlockTableRecord
  2
*D32
340
0
  0
BLOCK_RECORD
  5
2BFA
330
2AFE
100
AcDbSymbolTableRecord
100
AcDbBlockTableRecord
  2
*U33
340
0
102
{BLKREFS
331
1679
102
}
  0
BLOCK_RECORD
  5
2BFC
330
2AFE
100
AcDbSymbolTableRecord
100
AcDbBlockTableRecord
  2
*D34
340
0
  0
BLOCK_RECORD
  5
2BFE
330
2AFE
100
AcDbSymbolTableRecord
100
AcDbBlockTableRecord
  2
*U35
340
0
102
{BLKREFS
331
1682
102
}
  0
BLOCK_RECORD
  5
2C00
330
2AFE
100
AcDbSymbolTableRecord
100
AcDbBlockTableRecord
  2
*D36
340
0
  0
BLOCK_RECORD
  5
2C02
330
2AFE
100
AcDbSymbolTableRecord
100
AcDbBlockTableRecord
  2
*U37
340
0
102
{BLKREFS
331
168B
102
}
  0
BLOCK_RECORD
  5
2C04
330
2AFE
100
AcDbSymbolTableRecord
100
AcDbBlockTableRecord
  2
*U38
340
0
  0
BLOCK_RECORD
  5
2C06
330
2AFE
100
AcDbSymbolTableRecord
100
AcDbBlockTableRecord
  2
*D39
340
0
  0
BLOCK_RECORD
  5
2C08
330
2AFE
100
AcDbSymbolTableRecord
100
AcDbBlockTableRecord
  2
*U40
340
0
102
{BLKREFS
331
1698
102
}
  0
BLOCK_RECORD
  5
2C0A
330
2AFE
100
AcDbSymbolTableRecord
100
AcDbBlockTableRecord
  2
*D41
340
0
  0
BLOCK_RECORD
  5
2C0C
330
2AFE
100
AcDbSymbolTableRecord
100
AcDbBlockTableRecord
  2
*U42
340
0
102
{BLKREFS
331
16A5
102
}
  0
BLOCK_RECORD
  5
2C0E
330
2AFE
100
AcDbSymbolTableRecord
100
AcDbBlockTableRecord
  2
*D43
340
0
  0
BLOCK_RECORD
  5
2C10
330
2AFE
100
AcDbSymbolTableRecord
100
AcDbBlockTableRecord
  2
*U44
340
0
102
{BLKREFS
331
16B1
102
}
  0
BLOCK_RECORD
  5
2C12
330
2AFE
100
AcDbSymbolTableRecord
100
AcDbBlockTableRecord
  2
*D45
340
0
  0
BLOCK_RECORD
  5
2C14
330
2AFE
100
AcDbSymbolTableRecord
100
AcDbBlockTableRecord
  2
*U46
340
0
102
{BLKREFS
331
16BD
102
}
  0
BLOCK_RECORD
  5
2C16
330
2AFE
100
AcDbSymbolTableRecord
100
AcDbBlockTableRecord
  2
*D47
340
0
  0
BLOCK_RECORD
  5
2C18
330
2AFE
100
AcDbSymbolTableRecord
100
AcDbBlockTableRecord
  2
*U48
340
0
102
{BLKREFS
331
16C9
102
}
  0
BLOCK_RECORD
  5
2C1A
330
2AFE
100
AcDbSymbolTableRecord
100
AcDbBlockTableRecord
  2
*D49
340
0
  0
BLOCK_RECORD
  5
2C1C
330
2AFE
100
AcDbSymbolTableRecord
100
AcDbBlockTableRecord
  2
*U50
340
0
102
{BLKREFS
331
16D5
102
}
  0
BLOCK_RECORD
  5
2C1E
330
2AFE
100
AcDbSymbolTableRecord
100
AcDbBlockTableRecord
  2
*D51
340
0
  0
BLOCK_RECORD
  5
2C20
330
2AFE
100
AcDbSymbolTableRecord
100
AcDbBlockTableRecord
  2
*U52
340
0
102
{BLKREFS
331
1D88
102
}
  0
BLOCK_RECORD
  5
2C22
330
2AFE
100
AcDbSymbolTableRecord
100
AcDbBlockTableRecord
  2
*D53
340
0
  0
BLOCK_RECORD
  5
2C24
330
2AFE
100
AcDbSymbolTableRecord
100
AcDbBlockTableRecord
  2
*U54
340
0
102
{BLKREFS
331
1D91
102
}
  0
BLOCK_RECORD
  5
2C26
330
2AFE
100
AcDbSymbolTableRecord
100
AcDbBlockTableRecord
  2
*D55
340
0
  0
BLOCK_RECORD
  5
2C28
330
2AFE
100
AcDbSymbolTableRecord
100
AcDbBlockTableRecord
  2
*U56
340
0
102
{BLKREFS
331
1D9A
102
}
  0
BLOCK_RECORD
  5
2C2A
330
2AFE
100
AcDbSymbolTableRecord
100
AcDbBlockTableRecord
  2
*D57
340
0
  0
BLOCK_RECORD
  5
2C2C
330
2AFE
100
AcDbSymbolTableRecord
100
AcDbBlockTableRecord
  2
*U58
340
0
102
{BLKREFS
331
1DA3
102
}
  0
BLOCK_RECORD
  5
2C2E
330
2AFE
100
AcDbSymbolTableRecord
100
AcDbBlockTableRecord
  2
*D59
340
0
  0
BLOCK_RECORD
  5
2C30
330
2AFE
100
AcDbSymbolTableRecord
100
AcDbBlockTableRecord
  2
*U60
340
0
102
{BLKREFS
331
1DAD
102
}
  0
BLOCK_RECORD
  5
2C32
330
2AFE
100
AcDbSymbolTableRecord
100
AcDbBlockTableRecord
  2
*D61
340
0
  0
BLOCK_RECORD
  5
2C34
330
2AFE
100
AcDbSymbolTableRecord
100
AcDbBlockTableRecord
  2
*U62
340
0
102
{BLKREFS
331
1DB7
102
}
  0
BLOCK_RECORD
  5
2C36
330
2AFE
100
AcDbSymbolTableRecord
100
AcDbBlockTableRecord
  2
*U63
340
0
  0
BLOCK_RECORD
  5
2C38
330
2AFE
100
AcDbSymbolTableRecord
100
AcDbBlockTableRecord
  2
*U64
340
0
  0
BLOCK_RECORD
  5
2C3A
330
2AFE
100
AcDbSymbolTableRecord
100
AcDbBlockTableRecord
  2
*U65
340
0
  0
BLOCK_RECORD
  5
2C3C
330
2AFE
100
AcDbSymbolTableRecord
100
AcDbBlockTableRecord
  2
*U66
340
0
  0
BLOCK_RECORD
  5
2C3E
330
2AFE
100
AcDbSymbolTableRecord
100
AcDbBlockTableRecord
  2
*U67
340
0
  0
BLOCK_RECORD
  5
2C40
330
2AFE
100
AcDbSymbolTableRecord
100
AcDbBlockTableRecord
  2
*U68
340
0
  0
BLOCK_RECORD
  5
2C42
330
2AFE
100
AcDbSymbolTableRecord
100
AcDbBlockTableRecord
  2
*U69
340
0
  0
BLOCK_RECORD
  5
2C44
330
2AFE
100
AcDbSymbolTableRecord
100
AcDbBlockTableRecord
  2
*U70
340
0
  0
BLOCK_RECORD
  5
2C46
330
2AFE
100
AcDbSymbolTableRecord
100
AcDbBlockTableRecord
  2
*U71
340
0
  0
BLOCK_RECORD
  5
2C48
330
2AFE
100
AcDbSymbolTableRecord
100
AcDbBlockTableRecord
  2
*U72
340
0
  0
BLOCK_RECORD
  5
2C4A
330
2AFE
100
AcDbSymbolTableRecord
100
AcDbBlockTableRecord
  2
*U73
340
0
  0
BLOCK_RECORD
  5
2C4C
330
2AFE
100
AcDbSymbolTableRecord
100
AcDbBlockTableRecord
  2
*U74
340
0
102
{BLKREFS
331
288D
102
}
  0
BLOCK_RECORD
  5
2C4E
330
2AFE
100
AcDbSymbolTableRecord
100
AcDbBlockTableRecord
  2
*U75
340
0
102
{BLKREFS
331
288E
102
}
  0
BLOCK_RECORD
  5
2C50
330
2AFE
100
AcDbSymbolTableRecord
100
AcDbBlockTableRecord
  2
*X76
340
0
102
{BLKREFS
331
28A1
102
}
  0
BLOCK_RECORD
  5
2C52
330
2AFE
100
AcDbSymbolTableRecord
100
AcDbBlockTableRecord
  2
*X77
340
0
102
{BLKREFS
331
28A2
102
}
  0
ENDTAB
  0
ENDSEC
  0
SECTION
  2
BLOCKS
  0
BLOCK
  5
2B72
330
2B71
100
AcDbEntity
  8
0
100
AcDbBlockBegin
  2
*Model_Space
 70
     0
 10
0.0
 20
0.0
 30
0.0
  3
*Model_Space
  1

  0
ENDBLK
  5
2B73
330
2B71
100
AcDbEntity
  8
0
100
AcDbBlockEnd
  0
BLOCK
  5
2B6E
330
2B6D
100
AcDbEntity
 67
     1
  8
0
100
AcDbBlockBegin
  2
*Paper_Space
 70
     0
 10
0.0
 20
0.0
 30
0.0
  3
*Paper_Space
  1

  0
ENDBLK
  5
2B6F
330
2B6D
100
AcDbEntity
 67
     1
  8
0
100
AcDbBlockEnd
  0
BLOCK
  5
2BB9
330
2BB8
100
AcDbEntity
  8
0
100
AcDbBlockBegin
  2
$MODEL_SPACE
 70
     0
 10
0.0
 20
0.0
 30
0.0
  3
$MODEL_SPACE
  1

  0
ENDBLK
  5
29C3
330
2BB8
100
AcDbEntity
  8
0
100
AcDbBlockEnd
  0
BLOCK
  5
2BBB
330
2BBA
100
AcDbEntity
  8
0
100
AcDbBlockBegin
  2
$PAPER_SPACE
 70
     0
 10
0.0
 20
0.0
 30
0.0
  3
$PAPER_SPACE
  1

  0
ENDBLK
  5
29BF
330
2BBA
100
AcDbEntity
  8
0
100
AcDbBlockEnd
  0
BLOCK
  5
2BBD
330
2BBC
100
AcDbEntity
  8
0
100
AcDbBlockBegin
  2
_ORIGIN
 70
     0
 10
0.0
 20
0.0
 30
0.0
  3
_ORIGIN
  1

  0
CIRCLE
  5
880
330
2BBC
100
AcDbEntity
  8
0
  6
Continuous
 62
     7
100
AcDbCircle
 10
0.0
 20
0.0
 30
0.0
 40
0.5
  0
LINE
  5
881
330
2BBC
100
AcDbEntity
  8
0
  6
Continuous
 62
     7
100
AcDbLine
 10
0.0
 20
0.0
 30
0.0
 11
-1.0
 21
0.0
 31
0.0
  0
ENDBLK
  5
882
330
2BBC
100
AcDbEntity
  8
0
100
AcDbBlockEnd
  0
BLOCK
  5
2BBF
330
2BBE
100
AcDbEntity
  8
0
 62
     1
100
AcDbBlockBegin
  2
_DOTBLANK
 70
     0
 10
0.0
 20
0.0
 30
0.0
  3
_DOTBLANK
  1

  0
CIRCLE
  5
AB3
330
2BBE
100
AcDbEntity
  8
0
  6
ByBlock
 62
     0
100
AcDbCircle
 10
0.0
 20
0.0
 30
0.0
 40
0.5
  0
LINE
  5
AB4
330
2BBE
100
AcDbEntity
  8
0
  6
ByBlock
 62
     0
100
AcDbLine
 10
-0.5
 20
0.0
 30
0.0
 11
-1.0
 21
0.0
 31
0.0
  0
ENDBLK
  5
AB6
330
2BBE
100
AcDbEntity
  8
0
 62
     1
100
AcDbBlockEnd
  0
BLOCK
  5
2BC1
330
2BC0
100
AcDbEntity
  8
0
 62
     1
100
AcDbBlockBegin
  2
_OPEN30
 70
     0
 10
0.0
 20
0.0
 30
0.0
  3
_OPEN30
  1

  0
LINE
  5
AB8
330
2BC0
100
AcDbEntity
  8
0
  6
ByBlock
 62
     0
100
AcDbLine
 10
-1.0
 20
0.26794919
 30
0.0
 11
0.0
 21
0.0
 31
0.0
  0
LINE
  5
AB9
330
2BC0
100
AcDbEntity
  8
0
  6
ByBlock
 62
     0
100
AcDbLine
 10
0.0
 20
0.0
 30
0.0
 11
-1.0
 21
-0.26794919
 31
0.0
  0
LINE
  5
ABA
330
2BC0
100
AcDbEntity
  8
0
  6
ByBlock
 62
     0
100
AcDbLine
 10
0.0
 20
0.0
 30
0.0
 11
-1.0
 21
0.0
 31
0.0
  0
ENDBLK
  5
ABC
330
2BC0
100
AcDbEntity
  8
0
 62
     1
100
AcDbBlockEnd
  0
BLOCK
  5
2BC3
330
2BC2
100
AcDbEntity
  8
0
100
AcDbBlockBegin
  2
*D5
 70
     1
 10
0.0
 20
0.0
 30
0.0
  3
*D5
  1

  0
LINE
  5
1296
330
2BC2
100
AcDbEntity
  8
SIZE
 62
     0
100
AcDbLine
 10
-134.5
 20
-320.0
 30
0.0
 11
-134.5
 21
-468.0173952306001
 31
0.0
  0
LINE
  5
1297
330
2BC2
100
AcDbEntity
  8
SIZE
 62
     0
100
AcDbLine
 10
134.5
 20
-320.0
 30
0.0
 11
134.5
 21
-468.0173952306001
 31
0.0
  0
LINE
  5
1298
330
2BC2
100
AcDbEntity
  8
SIZE
 62
     0
100
AcDbLine
 10
-122.5
 20
-448.0173952306
 30
0.0
 11
122.5
 21
-448.0173952306
 31
0.0
  0
INSERT
  5
1299
330
2BC2
100
AcDbEntity
  8
SIZE
 62
     0
100
AcDbBlockReference
  2
_DOTBLANK
 10
-134.5
 20
-448.0173952306
 30
0.0
 41
12.0
 42
12.0
 43
12.0
 50
180.0
  0
INSERT
  5
129A
330
2BC2
100
AcDbEntity
  8
SIZE
 62
     0
100
AcDbBlockReference
  2
_DOTBLANK
 10
134.5
 20
-448.0173952306
 30
0.0
 41
12.0
 42
12.0
 43
12.0
  0
INSERT
  5
129B
330
2BC2
100
AcDbEntity
  8
0
100
AcDbBlockReference
  2
*U6
 10
0.0
 20
0.0
 30
0.0
  0
POINT
  5
129C
330
2BC2
100
AcDbEntity
  8
DEFPOINTS
 62
     0
100
AcDbPoint
 10
-134.5
 20
-300.0
 30
0.0
  0
POINT
  5
129D
330
2BC2
100
AcDbEntity
  8
DEFPOINTS
 62
     0
100
AcDbPoint
 10
134.5
 20
-300.0
 30
0.0
  0
POINT
  5
129E
330
2BC2
100
AcDbEntity
  8
DEFPOINTS
 62
     0
100
AcDbPoint
 10
134.5
 20
-448.0173952306
 30
0.0
  0
ENDBLK
  5
D72
330
2BC2
100
AcDbEntity
  8
0
100
AcDbBlockEnd
  0
BLOCK
  5
2BC5
330
2BC4
100
AcDbEntity
  8
0
100
AcDbBlockBegin
  2
*U6
 70
     1
 10
0.0
 20
0.0
 30
0.0
  3
*U6
  1

  0
TEXT
  5
1EF5
330
2BC4
100
AcDbEntity
  8
SIZE
 62
     0
100
AcDbText
 10
-72.68571428571426
 20
-438.0173952305999
 30
0.0
 40
64.0
  1
269
 41
0.9
100
AcDbText
  0
ENDBLK
  5
1EF7
330
2BC4
100
AcDbEntity
  8
0
100
AcDbBlockEnd
  0
BLOCK
  5
2BC7
330
2BC6
100
AcDbEntity
  8
0
100
AcDbBlockBegin
  2
*D7
 70
     1
 10
0.0
 20
0.0
 30
0.0
  3
*D7
  1

  0
LINE
  5
11A7
330
2BC6
100
AcDbEntity
  8
SIZE
  6
Continuous
 62
     0
100
AcDbLine
 10
143.5
 20
-300.0
 30
0.0
 11
304.6432844803791
 21
-300.0
 31
0.0
  0
LINE
  5
11A8
330
2BC6
100
AcDbEntity
  8
SIZE
  6
Continuous
 62
     0
100
AcDbLine
 10
177.5
 20
-0.0000000000000057
 30
0.0
 11
304.6432844803792
 21
-0.0000000000000417
 31
0.0
  0
LINE
  5
11A9
330
2BC6
100
AcDbEntity
  8
SIZE
  6
Continuous
 62
     0
100
AcDbLine
 10
284.6432844803791
 20
-288.0000000000001
 30
0.0
 11
284.6432844803792
 21
-12.00000000000003
 31
0.0
  0
INSERT
  5
11AA
330
2BC6
100
AcDbEntity
  8
SIZE
  6
Continuous
 62
     0
100
AcDbBlockReference
  2
_DOTBLANK
 10
284.6432844803791
 20
-300.0
 30
0.0
 41
12.0
 42
12.0
 43
12.0
 50
270.0
  0
INSERT
  5
11AB
330
2BC6
100
AcDbEntity
  8
SIZE
  6
Continuous
 62
     0
100
AcDbBlockReference
  2
_DOTBLANK
 10
284.6432844803792
 20
-0.000000000000036
 30
0.0
 41
12.0
 42
12.0
 43
12.0
 50
90.0
  0
INSERT
  5
11AC
330
2BC6
100
AcDbEntity
  8
0
100
AcDbBlockReference
  2
*U8
 10
0.0
 20
0.0
 30
0.0
  0
POINT
  5
11AD
330
2BC6
100
AcDbEntity
  8
DEFPOINTS
  6
Continuous
 62
     0
100
AcDbPoint
 10
123.5
 20
-300.0
 30
0.0
  0
POINT
  5
11AE
330
2BC6
100
AcDbEntity
  8
DEFPOINTS
  6
Continuous
 62
     0
100
AcDbPoint
 10
157.5
 20
0.0
 30
0.0
  0
POINT
  5
11AF
330
2BC6
100
AcDbEntity
  8
DEFPOINTS
  6
Continuous
 62
     0
100
AcDbPoint
 10
284.6432844803792
 20
-0.000000000000036
 30
0.0
  0
ENDBLK
  5
E11
330
2BC6
100
AcDbEntity
  8
0
100
AcDbBlockEnd
  0
BLOCK
  5
2BC9
330
2BC8
100
AcDbEntity
  8
0
100
AcDbBlockBegin
  2
*U8
 70
     1
 10
0.0
 20
0.0
 30
0.0
  3
*U8
  1

  0
TEXT
  5
1EE1
330
2BC8
100
AcDbEntity
  8
SIZE
 62
     0
100
AcDbText
 10
274.6432844803792
 20
-224.0571428571429
 30
0.0
 40
64.0
  1
300
 50
90.0
 41
0.9
100
AcDbText
  0
ENDBLK
  5
1EE3
330
2BC8
100
AcDbEntity
  8
0
100
AcDbBlockEnd
  0
BLOCK
  5
2BCB
330
2BCA
100
AcDbEntity
  8
0
100
AcDbBlockBegin
  2
*D9
 70
     1
 10
0.0
 20
0.0
 30
0.0
  3
*D9
  1

  0
LINE
  5
E7D
330
2BCA
100
AcDbEntity
  8
SIZE
 62
     0
100
AcDbLine
 10
-139.9999999999998
 20
32.46448280219375
 30
0.0
 11
-139.9999999999998
 21
136.4516878685508
 31
0.0
  0
LINE
  5
E7E
330
2BCA
100
AcDbEntity
  8
SIZE
 62
     0
100
AcDbLine
 10
140.0
 20
32.46448280219375
 30
0.0
 11
140.0
 21
136.4516878685508
 31
0.0
  0
LINE
  5
E7F
330
2BCA
100
AcDbEntity
  8
SIZE
 62
     0
100
AcDbLine
 10
-128.0
 20
116.4516878685508
 30
0.0
 11
128.0
 21
116.4516878685508
 31
0.0
  0
INSERT
  5
E80
330
2BCA
100
AcDbEntity
  8
SIZE
 62
     0
100
AcDbBlockReference
  2
_DOTBLANK
 10
-139.9999999999998
 20
116.4516878685508
 30
0.0
 41
12.0
 42
12.0
 43
12.0
 50
180.0
  0
INSERT
  5
E81
330
2BCA
100
AcDbEntity
  8
SIZE
 62
     0
100
AcDbBlockReference
  2
_DOTBLANK
 10
140.0
 20
116.4516878685508
 30
0.0
 41
12.0
 42
12.0
 43
12.0
  0
INSERT
  5
E82
330
2BCA
100
AcDbEntity
  8
0
100
AcDbBlockReference
  2
*U10
 10
0.0
 20
0.0
 30
0.0
  0
POINT
  5
E83
330
2BCA
100
AcDbEntity
  8
DEFPOINTS
 62
     0
100
AcDbPoint
 10
-139.9999999999998
 20
12.46448280219374
 30
0.0
  0
POINT
  5
E84
330
2BCA
100
AcDbEntity
  8
DEFPOINTS
 62
     0
100
AcDbPoint
 10
140.0
 20
12.46448280219374
 30
0.0
  0
POINT
  5
E85
330
2BCA
100
AcDbEntity
  8
DEFPOINTS
 62
     0
100
AcDbPoint
 10
140.0
 20
116.4516878685508
 30
0.0
  0
ENDBLK
  5
E7C
330
2BCA
100
AcDbEntity
  8
0
100
AcDbBlockEnd
  0
BLOCK
  5
2BCD
330
2BCC
100
AcDbEntity
  8
0
100
AcDbBlockBegin
  2
*U10
 70
     1
 10
0.0
 20
0.0
 30
0.0
  3
*U10
  1

  0
TEXT
  5
1ED8
330
2BCC
100
AcDbEntity
  8
SIZE
 62
     0
100
AcDbText
 10
-74.05714285714281
 20
126.4516878685508
 30
0.0
 40
64.0
  1
280
 41
0.9
100
AcDbText
  0
ENDBLK
  5
1EDA
330
2BCC
100
AcDbEntity
  8
0
100
AcDbBlockEnd
  0
BLOCK
  5
2BCF
330
2BCE
100
AcDbEntity
  8
0
100
AcDbBlockBegin
  2
GENAXEH
 70
     0
 10
0.0
 20
0.0
 30
0.0
  3
GENAXEH
  1

  0
LINE
  5
FDB
330
2BCE
100
AcDbEntity
  8
0
100
AcDbLine
 10
-1.0
 20
0.0
 30
0.0
 11
1.0
 21
0.0
 31
0.0
  0
ENDBLK
  5
FDD
330
2BCE
100
AcDbEntity
  8
0
100
AcDbBlockEnd
  0
BLOCK
  5
2BD1
330
2BD0
100
AcDbEntity
  8
0
100
AcDbBlockBegin
  2
*D12
 70
     1
 10
0.0
 20
0.0
 30
0.0
  3
*D12
  1

  0
LINE
  5
1120
330
2BD0
100
AcDbEntity
  8
SIZE
 62
     0
100
AcDbLine
 10
-157.5
 20
20.0
 30
0.0
 11
-157.5
 21
245.5794621189598
 31
0.0
  0
LINE
  5
1121
330
2BD0
100
AcDbEntity
  8
SIZE
 62
     0
100
AcDbLine
 10
157.5
 20
20.0
 30
0.0
 11
157.5
 21
245.5794621189598
 31
0.0
  0
LINE
  5
1122
330
2BD0
100
AcDbEntity
  8
SIZE
 62
     0
100
AcDbLine
 10
-145.5
 20
225.5794621189598
 30
0.0
 11
145.5
 21
225.5794621189598
 31
0.0
  0
INSERT
  5
1123
330
2BD0
100
AcDbEntity
  8
SIZE
 62
     0
100
AcDbBlockReference
  2
_DOTBLANK
 10
-157.5
 20
225.5794621189598
 30
0.0
 41
12.0
 42
12.0
 43
12.0
 50
180.0
  0
INSERT
  5
1124
330
2BD0
100
AcDbEntity
  8
SIZE
 62
     0
100
AcDbBlockReference
  2
_DOTBLANK
 10
157.5
 20
225.5794621189598
 30
0.0
 41
12.0
 42
12.0
 43
12.0
  0
INSERT
  5
1125
330
2BD0
100
AcDbEntity
  8
0
100
AcDbBlockReference
  2
*U13
 10
0.0
 20
0.0
 30
0.0
  0
POINT
  5
1126
330
2BD0
100
AcDbEntity
  8
DEFPOINTS
 62
     0
100
AcDbPoint
 10
-157.5
 20
0.0
 30
0.0
  0
POINT
  5
1127
330
2BD0
100
AcDbEntity
  8
DEFPOINTS
 62
     0
100
AcDbPoint
 10
157.5
 20
0.0
 30
0.0
  0
POINT
  5
1128
330
2BD0
100
AcDbEntity
  8
DEFPOINTS
 62
     0
100
AcDbPoint
 10
157.5
 20
225.5794621189598
 30
0.0
  0
ENDBLK
  5
111F
330
2BD0
100
AcDbEntity
  8
0
100
AcDbBlockEnd
  0
BLOCK
  5
2BD3
330
2BD2
100
AcDbEntity
  8
0
100
AcDbBlockBegin
  2
*U13
 70
     1
 10
0.0
 20
0.0
 30
0.0
  3
*U13
  1

  0
TEXT
  5
1EDD
330
2BD2
100
AcDbEntity
  8
SIZE
 62
     0
100
AcDbText
 10
-68.57142857142857
 20
235.5794621189599
 30
0.0
 40
64.0
  1
315
 41
0.9
100
AcDbText
  0
ENDBLK
  5
1EDF
330
2BD2
100
AcDbEntity
  8
0
100
AcDbBlockEnd
  0
BLOCK
  5
2BD5
330
2BD4
100
AcDbEntity
  8
0
100
AcDbBlockBegin
  2
*D14
 70
     1
 10
0.0
 20
0.0
 30
0.0
  3
*D14
  1

  0
LINE
  5
11BD
330
2BD4
100
AcDbEntity
  8
NOTE
 62
     0
100
AcDbLine
 10
-123.4999999999999
 20
-320.0
 30
0.0
 11
-123.4999999999999
 21
-354.9529861856111
 31
0.0
  0
LINE
  5
11BE
330
2BD4
100
AcDbEntity
  8
NOTE
 62
     0
100
AcDbLine
 10
-133.4999999999998
 20
-331.2126909923287
 30
0.0
 11
-133.4999999999998
 21
-354.9529861856111
 31
0.0
  0
LINE
  5
11BF
330
2BD4
100
AcDbEntity
  8
NOTE
 62
     0
100
AcDbLine
 10
-111.4999999999999
 20
-334.9529861856112
 30
0.0
 11
-99.4999999999999
 21
-334.9529861856112
 31
0.0
  0
LINE
  5
11C0
330
2BD4
100
AcDbEntity
  8
NOTE
 62
     0
100
AcDbLine
 10
-145.4999999999998
 20
-334.9529861856112
 30
0.0
 11
-157.4999999999998
 21
-334.9529861856112
 31
0.0
  0
LINE
  5
11C1
330
2BD4
100
AcDbEntity
  8
NOTE
 62
     0
100
AcDbLine
 10
-123.4999999999999
 20
-334.9529861856112
 30
0.0
 11
-133.4999999999998
 21
-334.9529861856112
 31
0.0
  0
INSERT
  5
11C2
330
2BD4
100
AcDbEntity
  8
NOTE
 62
     0
100
AcDbBlockReference
  2
_DOTBLANK
 10
-123.4999999999999
 20
-334.9529861856112
 30
0.0
 41
12.0
 42
12.0
 43
12.0
 50
180.0
  0
INSERT
  5
11C3
330
2BD4
100
AcDbEntity
  8
NOTE
 62
     0
100
AcDbBlockReference
  2
_DOTBLANK
 10
-133.4999999999998
 20
-334.9529861856112
 30
0.0
 41
12.0
 42
12.0
 43
12.0
  0
INSERT
  5
11C4
330
2BD4
100
AcDbEntity
  8
0
100
AcDbBlockReference
  2
*U15
 10
0.0
 20
0.0
 30
0.0
  0
POINT
  5
11C5
330
2BD4
100
AcDbEntity
  8
DEFPOINTS
 62
     0
100
AcDbPoint
 10
-123.4999999999999
 20
-300.0
 30
0.0
  0
POINT
  5
11C6
330
2BD4
100
AcDbEntity
  8
DEFPOINTS
 62
     0
100
AcDbPoint
 10
-133.4999999999998
 20
-311.2126909923287
 30
0.0
  0
POINT
  5
11C7
330
2BD4
100
AcDbEntity
  8
DEFPOINTS
 62
     0
100
AcDbPoint
 10
-133.4999999999998
 20
-334.9529861856112
 30
0.0
  0
ENDBLK
  5
11BC
330
2BD4
100
AcDbEntity
  8
0
100
AcDbBlockEnd
  0
BLOCK
  5
2BD7
330
2BD6
100
AcDbEntity
  8
0
100
AcDbBlockBegin
  2
*U15
 70
     1
 10
0.0
 20
0.0
 30
0.0
  3
*U15
  1

  0
TEXT
  5
1EE5
330
2BD6
100
AcDbEntity
  8
NOTE
 62
     0
100
AcDbText
 10
-169.642857142857
 20
-324.9529861856112
 30
0.0
 40
64.0
  1
10
 41
0.9
100
AcDbText
  0
ENDBLK
  5
1EE7
330
2BD6
100
AcDbEntity
  8
0
100
AcDbBlockEnd
  0
BLOCK
  5
2BD9
330
2BD8
100
AcDbEntity
  8
0
100
AcDbBlockBegin
  2
*D16
 70
     1
 10
0.0
 20
0.0
 30
0.0
  3
*D16
  1

  0
LINE
  5
11E7
330
2BD8
100
AcDbEntity
  8
NOTE
 62
     0
100
AcDbLine
 10
-135.5
 20
-333.2126909923287
 30
0.0
 11
-135.5
 21
-386.2569421441843
 31
0.0
  0
LINE
  5
11E8
330
2BD8
100
AcDbEntity
  8
NOTE
 62
     0
100
AcDbLine
 10
-123.4999999999999
 20
-320.0
 30
0.0
 11
-123.4999999999999
 21
-386.2569421441843
 31
0.0
  0
LINE
  5
11E9
330
2BD8
100
AcDbEntity
  8
NOTE
 62
     0
100
AcDbLine
 10
-147.5
 20
-366.2569421441844
 30
0.0
 11
-159.5
 21
-366.2569421441844
 31
0.0
  0
LINE
  5
11EA
330
2BD8
100
AcDbEntity
  8
NOTE
 62
     0
100
AcDbLine
 10
-111.4999999999999
 20
-366.2569421441844
 30
0.0
 11
-99.4999999999999
 21
-366.2569421441844
 31
0.0
  0
LINE
  5
11EB
330
2BD8
100
AcDbEntity
  8
NOTE
 62
     0
100
AcDbLine
 10
-135.5
 20
-366.2569421441844
 30
0.0
 11
-123.4999999999999
 21
-366.2569421441844
 31
0.0
  0
INSERT
  5
11EC
330
2BD8
100
AcDbEntity
  8
NOTE
 62
     0
100
AcDbBlockReference
  2
_DOTBLANK
 10
-135.5
 20
-366.2569421441844
 30
0.0
 41
12.0
 42
12.0
 43
12.0
  0
INSERT
  5
11ED
330
2BD8
100
AcDbEntity
  8
NOTE
 62
     0
100
AcDbBlockReference
  2
_DOTBLANK
 10
-123.4999999999999
 20
-366.2569421441844
 30
0.0
 41
12.0
 42
12.0
 43
12.0
 50
180.0
  0
INSERT
  5
11EE
330
2BD8
100
AcDbEntity
  8
0
100
AcDbBlockReference
  2
*U17
 10
0.0
 20
0.0
 30
0.0
  0
POINT
  5
11EF
330
2BD8
100
AcDbEntity
  8
DEFPOINTS
 62
     0
100
AcDbPoint
 10
-135.5
 20
-313.2126909923287
 30
0.0
  0
POINT
  5
11F0
330
2BD8
100
AcDbEntity
  8
DEFPOINTS
 62
     0
100
AcDbPoint
 10
-123.4999999999999
 20
-300.0
 30
0.0
  0
POINT
  5
11F1
330
2BD8
100
AcDbEntity
  8
DEFPOINTS
 62
     0
100
AcDbPoint
 10
-123.4999999999999
 20
-366.2569421441844
 30
0.0
  0
ENDBLK
  5
11E6
330
2BD8
100
AcDbEntity
  8
0
100
AcDbBlockEnd
  0
BLOCK
  5
2BDB
330
2BDA
100
AcDbEntity
  8
0
100
AcDbBlockBegin
  2
*U17
 70
     1
 10
0.0
 20
0.0
 30
0.0
  3
*U17
  1

  0
TEXT
  5
1EE9
330
2BDA
100
AcDbEntity
  8
NOTE
 62
     0
100
AcDbText
 10
-170.642857142857
 20
-356.2569421441843
 30
0.0
 40
64.0
  1
12
 41
0.9
100
AcDbText
  0
ENDBLK
  5
1EEB
330
2BDA
100
AcDbEntity
  8
0
100
AcDbBlockEnd
  0
BLOCK
  5
2BDD
330
2BDC
100
AcDbEntity
  8
0
100
AcDbBlockBegin
  2
*D18
 70
     1
 10
0.0
 20
0.0
 30
0.0
  3
*D18
  1

  0
LINE
  5
11F6
330
2BDC
100
AcDbEntity
  8
NOTE
 62
     0
100
AcDbLine
 10
-123.4999999999999
 20
-320.0
 30
0.0
 11
-123.4999999999999
 21
-583.8286022818904
 31
0.0
  0
LINE
  5
11F7
330
2BDC
100
AcDbEntity
  8
NOTE
 62
     0
100
AcDbLine
 10
123.5
 20
-320.0
 30
0.0
 11
123.5
 21
-583.8286022818904
 31
0.0
  0
LINE
  5
11F8
330
2BDC
100
AcDbEntity
  8
NOTE
 62
     0
100
AcDbLine
 10
-111.4999999999999
 20
-563.8286022818904
 30
0.0
 11
111.5
 21
-563.8286022818904
 31
0.0
  0
INSERT
  5
11F9
330
2BDC
100
AcDbEntity
  8
NOTE
 62
     0
100
AcDbBlockReference
  2
_DOTBLANK
 10
-123.4999999999999
 20
-563.8286022818904
 30
0.0
 41
12.0
 42
12.0
 43
12.0
 50
180.0
  0
INSERT
  5
11FA
330
2BDC
100
AcDbEntity
  8
NOTE
 62
     0
100
AcDbBlockReference
  2
_DOTBLANK
 10
123.5
 20
-563.8286022818904
 30
0.0
 41
12.0
 42
12.0
 43
12.0
  0
INSERT
  5
11FB
330
2BDC
100
AcDbEntity
  8
0
100
AcDbBlockReference
  2
*U19
 10
0.0
 20
0.0
 30
0.0
  0
POINT
  5
11FC
330
2BDC
100
AcDbEntity
  8
DEFPOINTS
 62
     0
100
AcDbPoint
 10
-123.4999999999999
 20
-300.0
 30
0.0
  0
POINT
  5
11FD
330
2BDC
100
AcDbEntity
  8
DEFPOINTS
 62
     0
100
AcDbPoint
 10
123.5
 20
-300.0
 30
0.0
  0
POINT
  5
11FE
330
2BDC
100
AcDbEntity
  8
DEFPOINTS
 62
     0
100
AcDbPoint
 10
123.5
 20
-563.8286022818904
 30
0.0
  0
ENDBLK
  5
11F5
330
2BDC
100
AcDbEntity
  8
0
100
AcDbBlockEnd
  0
BLOCK
  5
2BDF
330
2BDE
100
AcDbEntity
  8
0
100
AcDbBlockBegin
  2
*U19
 70
     1
 10
0.0
 20
0.0
 30
0.0
  3
*U19
  1

  0
TEXT
  5
1EED
330
2BDE
100
AcDbEntity
  8
NOTE
 62
     0
100
AcDbText
 10
-74.05714285714281
 20
-553.8286022818904
 30
0.0
 40
64.0
  1
247
 41
0.9
100
AcDbText
  0
ENDBLK
  5
1EEF
330
2BDE
100
AcDbEntity
  8
0
100
AcDbBlockEnd
  0
BLOCK
  5
2BE1
330
2BE0
100
AcDbEntity
  8
0
100
AcDbBlockBegin
  2
*D20
 70
     1
 10
0.0
 20
0.0
 30
0.0
  3
*D20
  1

  0
LINE
  5
1284
330
2BE0
100
AcDbEntity
  8
NOTE
 62
     0
100
AcDbLine
 10
-123.5
 20
12.0
 30
0.0
 11
-123.5
 21
71.83630134534229
 31
0.0
  0
LINE
  5
1285
330
2BE0
100
AcDbEntity
  8
NOTE
 62
     0
100
AcDbLine
 10
123.5
 20
12.0
 30
0.0
 11
123.5
 21
71.83630134534229
 31
0.0
  0
LINE
  5
1286
330
2BE0
100
AcDbEntity
  8
NOTE
 62
     0
100
AcDbLine
 10
-111.5
 20
51.83630134534229
 30
0.0
 11
111.5
 21
51.83630134534229
 31
0.0
  0
INSERT
  5
1287
330
2BE0
100
AcDbEntity
  8
NOTE
 62
     0
100
AcDbBlockReference
  2
_DOTBLANK
 10
-123.5
 20
51.83630134534229
 30
0.0
 41
12.0
 42
12.0
 43
12.0
 50
180.0
  0
INSERT
  5
1288
330
2BE0
100
AcDbEntity
  8
NOTE
 62
     0
100
AcDbBlockReference
  2
_DOTBLANK
 10
123.5
 20
51.83630134534229
 30
0.0
 41
12.0
 42
12.0
 43
12.0
  0
INSERT
  5
1289
330
2BE0
100
AcDbEntity
  8
0
100
AcDbBlockReference
  2
*U21
 10
0.0
 20
0.0
 30
0.0
  0
POINT
  5
128A
330
2BE0
100
AcDbEntity
  8
DEFPOINTS
 62
     0
100
AcDbPoint
 10
-123.5
 20
-8.0
 30
0.0
  0
POINT
  5
128B
330
2BE0
100
AcDbEntity
  8
DEFPOINTS
 62
     0
100
AcDbPoint
 10
123.5
 20
-8.0
 30
0.0
  0
POINT
  5
128C
330
2BE0
100
AcDbEntity
  8
DEFPOINTS
 62
     0
100
AcDbPoint
 10
123.5
 20
51.83630134534229
 30
0.0
  0
ENDBLK
  5
1283
330
2BE0
100
AcDbEntity
  8
0
100
AcDbBlockEnd
  0
BLOCK
  5
2BE3
330
2BE2
100
AcDbEntity
  8
0
100
AcDbBlockBegin
  2
*U21
 70
     1
 10
0.0
 20
0.0
 30
0.0
  3
*U21
  1

  0
TEXT
  5
1EF1
330
2BE2
100
AcDbEntity
  8
NOTE
 62
     0
100
AcDbText
 10
-74.05714285714283
 20
61.83630134534229
 30
0.0
 40
64.0
  1
247
 41
0.9
100
AcDbText
  0
ENDBLK
  5
1EF3
330
2BE2
100
AcDbEntity
  8
0
100
AcDbBlockEnd
  0
BLOCK
  5
2BE5
330
2BE4
100
AcDbEntity
  8
0
100
AcDbBlockBegin
  2
*D22
 70
     1
 10
0.0
 20
0.0
 30
0.0
  3
*D22
  1

  0
LINE
  5
1414
330
2BE4
100
AcDbEntity
  8
SIZE
 62
     0
100
AcDbLine
 10
-22313.11521613997
 20
7365.702971374808
 30
0.0
 11
-22313.11521613997
 21
7217.685576144207
 31
0.0
  0
LINE
  5
1415
330
2BE4
100
AcDbEntity
  8
SIZE
 62
     0
100
AcDbLine
 10
-22044.11521613997
 20
7365.702971374808
 30
0.0
 11
-22044.11521613997
 21
7217.685576144207
 31
0.0
  0
LINE
  5
1416
330
2BE4
100
AcDbEntity
  8
SIZE
 62
     0
100
AcDbLine
 10
-22301.11521613997
 20
7237.685576144207
 30
0.0
 11
-22056.11521613997
 21
7237.685576144207
 31
0.0
  0
INSERT
  5
1417
330
2BE4
100
AcDbEntity
  8
SIZE
 62
     0
100
AcDbBlockReference
  2
_DOTBLANK
 10
-22313.11521613997
 20
7237.685576144207
 30
0.0
 41
12.0
 42
12.0
 43
12.0
 50
180.0
  0
INSERT
  5
1418
330
2BE4
100
AcDbEntity
  8
SIZE
 62
     0
100
AcDbBlockReference
  2
_DOTBLANK
 10
-22044.11521613997
 20
7237.685576144207
 30
0.0
 41
12.0
 42
12.0
 43
12.0
  0
INSERT
  5
1419
330
2BE4
100
AcDbEntity
  8
0
100
AcDbBlockReference
  2
*U23
 10
0.0
 20
0.0
 30
0.0
  0
POINT
  5
141A
330
2BE4
100
AcDbEntity
  8
DEFPOINTS
 62
     0
100
AcDbPoint
 10
-22313.11521613997
 20
7385.702971374808
 30
0.0
  0
POINT
  5
141B
330
2BE4
100
AcDbEntity
  8
DEFPOINTS
 62
     0
100
AcDbPoint
 10
-22044.11521613997
 20
7385.702971374808
 30
0.0
  0
POINT
  5
141C
330
2BE4
100
AcDbEntity
  8
DEFPOINTS
 62
     0
100
AcDbPoint
 10
-22044.11521613997
 20
7237.685576144207
 30
0.0
  0
ENDBLK
  5
141D
330
2BE4
100
AcDbEntity
  8
0
100
AcDbBlockEnd
  0
BLOCK
  5
2BE7
330
2BE6
100
AcDbEntity
  8
0
100
AcDbBlockBegin
  2
*U23
 70
     1
 10
0.0
 20
0.0
 30
0.0
  3
*U23
  1

  0
TEXT
  5
1EF9
330
2BE6
100
AcDbEntity
  8
SIZE
 62
     0
100
AcDbText
 10
-22251.30093042568
 20
7247.685576144205
 30
0.0
 40
64.0
  1
269
 41
0.9
100
AcDbText
  0
ENDBLK
  5
1EFB
330
2BE6
100
AcDbEntity
  8
0
100
AcDbBlockEnd
  0
BLOCK
  5
2BE9
330
2BE8
100
AcDbEntity
  8
0
100
AcDbBlockBegin
  2
*D24
 70
     1
 10
0.0
 20
0.0
 30
0.0
  3
*D24
  1

  0
LINE
  5
1420
330
2BE8
100
AcDbEntity
  8
SIZE
  6
Continuous
 62
     0
100
AcDbLine
 10
-22035.11521613997
 20
7385.702971374808
 30
0.0
 11
-21873.97193165959
 21
7385.702971374808
 31
0.0
  0
LINE
  5
1421
330
2BE8
100
AcDbEntity
  8
SIZE
  6
Continuous
 62
     0
100
AcDbLine
 10
-22001.11521613997
 20
7685.702971374808
 30
0.0
 11
-21873.97193165959
 21
7685.702971374808
 31
0.0
  0
LINE
  5
1422
330
2BE8
100
AcDbEntity
  8
SIZE
  6
Continuous
 62
     0
100
AcDbLine
 10
-21893.97193165959
 20
7397.702971374808
 30
0.0
 11
-21893.97193165959
 21
7673.702971374808
 31
0.0
  0
INSERT
  5
1423
330
2BE8
100
AcDbEntity
  8
SIZE
  6
Continuous
 62
     0
100
AcDbBlockReference
  2
_DOTBLANK
 10
-21893.97193165959
 20
7385.702971374808
 30
0.0
 41
12.0
 42
12.0
 43
12.0
 50
270.0
  0
INSERT
  5
1424
330
2BE8
100
AcDbEntity
  8
SIZE
  6
Continuous
 62
     0
100
AcDbBlockReference
  2
_DOTBLANK
 10
-21893.97193165959
 20
7685.702971374808
 30
0.0
 41
12.0
 42
12.0
 43
12.0
 50
90.0
  0
INSERT
  5
1425
330
2BE8
100
AcDbEntity
  8
0
100
AcDbBlockReference
  2
*U25
 10
0.0
 20
0.0
 30
0.0
  0
POINT
  5
1426
330
2BE8
100
AcDbEntity
  8
DEFPOINTS
  6
Continuous
 62
     0
100
AcDbPoint
 10
-22055.11521613997
 20
7385.702971374808
 30
0.0
  0
POINT
  5
1427
330
2BE8
100
AcDbEntity
  8
DEFPOINTS
  6
Continuous
 62
     0
100
AcDbPoint
 10
-22021.11521613997
 20
7685.702971374808
 30
0.0
  0
POINT
  5
1428
330
2BE8
100
AcDbEntity
  8
DEFPOINTS
  6
Continuous
 62
     0
100
AcDbPoint
 10
-21893.97193165959
 20
7685.702971374808
 30
0.0
  0
ENDBLK
  5
1429
330
2BE8
100
AcDbEntity
  8
0
100
AcDbBlockEnd
  0
BLOCK
  5
2BEB
330
2BEA
100
AcDbEntity
  8
0
100
AcDbBlockBegin
  2
*U25
 70
     1
 10
0.0
 20
0.0
 30
0.0
  3
*U25
  1

  0
TEXT
  5
1EFD
330
2BEA
100
AcDbEntity
  8
SIZE
 62
     0
100
AcDbText
 10
-21903.97193165959
 20
7461.645828517662
 30
0.0
 40
64.0
  1
300
 50
90.0
 41
0.9
100
AcDbText
  0
ENDBLK
  5
1EFF
330
2BEA
100
AcDbEntity
  8
0
100
AcDbBlockEnd
  0
BLOCK
  5
2BED
330
2BEC
100
AcDbEntity
  8
0
100
AcDbBlockBegin
  2
*D26
 70
     1
 10
0.0
 20
0.0
 30
0.0
  3
*D26
  1

  0
LINE
  5
142C
330
2BEC
100
AcDbEntity
  8
SIZE
 62
     0
100
AcDbLine
 10
-22318.61521613997
 20
7718.167454177002
 30
0.0
 11
-22318.61521613997
 21
7822.154659243358
 31
0.0
  0
LINE
  5
142D
330
2BEC
100
AcDbEntity
  8
SIZE
 62
     0
100
AcDbLine
 10
-22038.61521613997
 20
7718.167454177002
 30
0.0
 11
-22038.61521613997
 21
7822.154659243358
 31
0.0
  0
LINE
  5
142E
330
2BEC
100
AcDbEntity
  8
SIZE
 62
     0
100
AcDbLine
 10
-22306.61521613997
 20
7802.154659243358
 30
0.0
 11
-22050.61521613997
 21
7802.154659243358
 31
0.0
  0
INSERT
  5
142F
330
2BEC
100
AcDbEntity
  8
SIZE
 62
     0
100
AcDbBlockReference
  2
_DOTBLANK
 10
-22318.61521613997
 20
7802.154659243358
 30
0.0
 41
12.0
 42
12.0
 43
12.0
 50
180.0
  0
INSERT
  5
1430
330
2BEC
100
AcDbEntity
  8
SIZE
 62
     0
100
AcDbBlockReference
  2
_DOTBLANK
 10
-22038.61521613997
 20
7802.154659243358
 30
0.0
 41
12.0
 42
12.0
 43
12.0
  0
INSERT
  5
1431
330
2BEC
100
AcDbEntity
  8
0
100
AcDbBlockReference
  2
*U27
 10
0.0
 20
0.0
 30
0.0
  0
POINT
  5
1432
330
2BEC
100
AcDbEntity
  8
DEFPOINTS
 62
     0
100
AcDbPoint
 10
-22318.61521613997
 20
7698.167454177002
 30
0.0
  0
POINT
  5
1433
330
2BEC
100
AcDbEntity
  8
DEFPOINTS
 62
     0
100
AcDbPoint
 10
-22038.61521613997
 20
7698.167454177002
 30
0.0
  0
POINT
  5
1434
330
2BEC
100
AcDbEntity
  8
DEFPOINTS
 62
     0
100
AcDbPoint
 10
-22038.61521613997
 20
7802.154659243358
 30
0.0
  0
ENDBLK
  5
1435
330
2BEC
100
AcDbEntity
  8
0
100
AcDbBlockEnd
  0
BLOCK
  5
2BEF
330
2BEE
100
AcDbEntity
  8
0
100
AcDbBlockBegin
  2
*U27
 70
     1
 10
0.0
 20
0.0
 30
0.0
  3
*U27
  1

  0
TEXT
  5
1F01
330
2BEE
100
AcDbEntity
  8
SIZE
 62
     0
100
AcDbText
 10
-22252.6723589971
 20
7812.154659243358
 30
0.0
 40
64.0
  1
280
 41
0.9
100
AcDbText
  0
ENDBLK
  5
1F03
330
2BEE
100
AcDbEntity
  8
0
100
AcDbBlockEnd
  0
BLOCK
  5
2BF1
330
2BF0
100
AcDbEntity
  8
0
100
AcDbBlockBegin
  2
*D28
 70
     1
 10
0.0
 20
0.0
 30
0.0
  3
*D28
  1

  0
LINE
  5
1438
330
2BF0
100
AcDbEntity
  8
SIZE
 62
     0
100
AcDbLine
 10
-22336.11521613997
 20
7705.702971374808
 30
0.0
 11
-22336.11521613997
 21
7931.282433493766
 31
0.0
  0
LINE
  5
1439
330
2BF0
100
AcDbEntity
  8
SIZE
 62
     0
100
AcDbLine
 10
-22021.11521613997
 20
7705.702971374808
 30
0.0
 11
-22021.11521613997
 21
7931.282433493766
 31
0.0
  0
LINE
  5
143A
330
2BF0
100
AcDbEntity
  8
SIZE
 62
     0
100
AcDbLine
 10
-22324.11521613997
 20
7911.282433493766
 30
0.0
 11
-22033.11521613997
 21
7911.282433493766
 31
0.0
  0
INSERT
  5
143B
330
2BF0
100
AcDbEntity
  8
SIZE
 62
     0
100
AcDbBlockReference
  2
_DOTBLANK
 10
-22336.11521613997
 20
7911.282433493766
 30
0.0
 41
12.0
 42
12.0
 43
12.0
 50
180.0
  0
INSERT
  5
143C
330
2BF0
100
AcDbEntity
  8
SIZE
 62
     0
100
AcDbBlockReference
  2
_DOTBLANK
 10
-22021.11521613997
 20
7911.282433493766
 30
0.0
 41
12.0
 42
12.0
 43
12.0
  0
INSERT
  5
143D
330
2BF0
100
AcDbEntity
  8
0
100
AcDbBlockReference
  2
*U29
 10
0.0
 20
0.0
 30
0.0
  0
POINT
  5
143E
330
2BF0
100
AcDbEntity
  8
DEFPOINTS
 62
     0
100
AcDbPoint
 10
-22336.11521613997
 20
7685.702971374808
 30
0.0
  0
POINT
  5
143F
330
2BF0
100
AcDbEntity
  8
DEFPOINTS
 62
     0
100
AcDbPoint
 10
-22021.11521613997
 20
7685.702971374808
 30
0.0
  0
POINT
  5
1440
330
2BF0
100
AcDbEntity
  8
DEFPOINTS
 62
     0
100
AcDbPoint
 10
-22021.11521613997
 20
7911.282433493766
 30
0.0
  0
ENDBLK
  5
1441
330
2BF0
100
AcDbEntity
  8
0
100
AcDbBlockEnd
  0
BLOCK
  5
2BF3
330
2BF2
100
AcDbEntity
  8
0
100
AcDbBlockBegin
  2
*U29
 70
     1
 10
0.0
 20
0.0
 30
0.0
  3
*U29
  1

  0
TEXT
  5
1F05
330
2BF2
100
AcDbEntity
  8
SIZE
 62
     0
100
AcDbText
 10
-22247.18664471139
 20
7921.282433493766
 30
0.0
 40
64.0
  1
315
 41
0.9
100
AcDbText
  0
ENDBLK
  5
1F07
330
2BF2
100
AcDbEntity
  8
0
100
AcDbBlockEnd
  0
BLOCK
  5
2BF5
330
2BF4
100
AcDbEntity
  8
0
100
AcDbBlockBegin
  2
*D30
 70
     1
 10
0.0
 20
0.0
 30
0.0
  3
*D30
  1

  0
LINE
  5
166B
330
2BF4
100
AcDbEntity
  8
SIZE
 62
     0
100
AcDbLine
 10
-134.5
 20
-320.0
 30
0.0
 11
-134.5
 21
-468.0173952306001
 31
0.0
  0
LINE
  5
166C
330
2BF4
100
AcDbEntity
  8
SIZE
 62
     0
100
AcDbLine
 10
134.5
 20
-320.0
 30
0.0
 11
134.5
 21
-468.0173952306001
 31
0.0
  0
LINE
  5
166D
330
2BF4
100
AcDbEntity
  8
SIZE
 62
     0
100
AcDbLine
 10
-122.5
 20
-448.0173952306
 30
0.0
 11
122.5
 21
-448.0173952306
 31
0.0
  0
INSERT
  5
166E
330
2BF4
100
AcDbEntity
  8
SIZE
 62
     0
100
AcDbBlockReference
  2
_DOTBLANK
 10
-134.5
 20
-448.0173952306
 30
0.0
 41
12.0
 42
12.0
 43
12.0
 50
180.0
  0
INSERT
  5
166F
330
2BF4
100
AcDbEntity
  8
SIZE
 62
     0
100
AcDbBlockReference
  2
_DOTBLANK
 10
134.5
 20
-448.0173952306
 30
0.0
 41
12.0
 42
12.0
 43
12.0
  0
INSERT
  5
1670
330
2BF4
100
AcDbEntity
  8
0
100
AcDbBlockReference
  2
*U31
 10
0.0
 20
0.0
 30
0.0
  0
POINT
  5
1671
330
2BF4
100
AcDbEntity
  8
DEFPOINTS
 62
     0
100
AcDbPoint
 10
-134.5
 20
-300.0
 30
0.0
  0
POINT
  5
1672
330
2BF4
100
AcDbEntity
  8
DEFPOINTS
 62
     0
100
AcDbPoint
 10
134.5
 20
-300.0
 30
0.0
  0
POINT
  5
1673
330
2BF4
100
AcDbEntity
  8
DEFPOINTS
 62
     0
100
AcDbPoint
 10
134.5
 20
-448.0173952306
 30
0.0
  0
ENDBLK
  5
14A7
330
2BF4
100
AcDbEntity
  8
0
100
AcDbBlockEnd
  0
BLOCK
  5
2BF7
330
2BF6
100
AcDbEntity
  8
0
100
AcDbBlockBegin
  2
*U31
 70
     1
 10
0.0
 20
0.0
 30
0.0
  3
*U31
  1

  0
TEXT
  5
1F09
330
2BF6
100
AcDbEntity
  8
SIZE
 62
     0
100
AcDbText
 10
-72.68571428571426
 20
-438.0173952306002
 30
0.0
 40
64.0
  1
269
 41
0.9
100
AcDbText
  0
ENDBLK
  5
1F0B
330
2BF6
100
AcDbEntity
  8
0
100
AcDbBlockEnd
  0
BLOCK
  5
2BF9
330
2BF8
100
AcDbEntity
  8
0
100
AcDbBlockBegin
  2
*D32
 70
     1
 10
0.0
 20
0.0
 30
0.0
  3
*D32
  1

  0
LINE
  5
1674
330
2BF8
100
AcDbEntity
  8
SIZE
  6
Continuous
 62
     0
100
AcDbLine
 10
143.5
 20
-300.0
 30
0.0
 11
304.6432844803784
 21
-300.0
 31
0.0
  0
LINE
  5
1675
330
2BF8
100
AcDbEntity
  8
SIZE
  6
Continuous
 62
     0
100
AcDbLine
 10
177.5
 20
-0.0000000000000057
 30
0.0
 11
304.6432844803785
 21
-0.0000000000000417
 31
0.0
  0
LINE
  5
1676
330
2BF8
100
AcDbEntity
  8
SIZE
  6
Continuous
 62
     0
100
AcDbLine
 10
284.6432844803784
 20
-288.0000000000001
 30
0.0
 11
284.6432844803785
 21
-12.00000000000003
 31
0.0
  0
INSERT
  5
1677
330
2BF8
100
AcDbEntity
  8
SIZE
  6
Continuous
 62
     0
100
AcDbBlockReference
  2
_DOTBLANK
 10
284.6432844803784
 20
-300.0
 30
0.0
 41
12.0
 42
12.0
 43
12.0
 50
270.0
  0
INSERT
  5
1678
330
2BF8
100
AcDbEntity
  8
SIZE
  6
Continuous
 62
     0
100
AcDbBlockReference
  2
_DOTBLANK
 10
284.6432844803785
 20
-0.000000000000036
 30
0.0
 41
12.0
 42
12.0
 43
12.0
 50
90.0
  0
INSERT
  5
1679
330
2BF8
100
AcDbEntity
  8
0
100
AcDbBlockReference
  2
*U33
 10
0.0
 20
0.0
 30
0.0
  0
POINT
  5
167A
330
2BF8
100
AcDbEntity
  8
DEFPOINTS
  6
Continuous
 62
     0
100
AcDbPoint
 10
123.5
 20
-300.0
 30
0.0
  0
POINT
  5
167B
330
2BF8
100
AcDbEntity
  8
DEFPOINTS
  6
Continuous
 62
     0
100
AcDbPoint
 10
157.5
 20
0.0
 30
0.0
  0
POINT
  5
167C
330
2BF8
100
AcDbEntity
  8
DEFPOINTS
  6
Continuous
 62
     0
100
AcDbPoint
 10
284.6432844803785
 20
-0.000000000000036
 30
0.0
  0
ENDBLK
  5
14B3
330
2BF8
100
AcDbEntity
  8
0
100
AcDbBlockEnd
  0
BLOCK
  5
2BFB
330
2BFA
100
AcDbEntity
  8
0
100
AcDbBlockBegin
  2
*U33
 70
     1
 10
0.0
 20
0.0
 30
0.0
  3
*U33
  1

  0
TEXT
  5
1F0D
330
2BFA
100
AcDbEntity
  8
SIZE
 62
     0
100
AcDbText
 10
274.6432844803785
 20
-224.0571428571429
 30
0.0
 40
64.0
  1
300
 50
90.0
 41
0.9
100
AcDbText
  0
ENDBLK
  5
1F0F
330
2BFA
100
AcDbEntity
  8
0
100
AcDbBlockEnd
  0
BLOCK
  5
2BFD
330
2BFC
100
AcDbEntity
  8
0
100
AcDbBlockBegin
  2
*D34
 70
     1
 10
0.0
 20
0.0
 30
0.0
  3
*D34
  1

  0
LINE
  5
167D
330
2BFC
100
AcDbEntity
  8
SIZE
 62
     0
100
AcDbLine
 10
-140.0
 20
32.46448280219375
 30
0.0
 11
-140.0
 21
136.4516878685507
 31
0.0
  0
LINE
  5
167E
330
2BFC
100
AcDbEntity
  8
SIZE
 62
     0
100
AcDbLine
 10
140.0
 20
32.46448280219375
 30
0.0
 11
140.0
 21
136.4516878685507
 31
0.0
  0
LINE
  5
167F
330
2BFC
100
AcDbEntity
  8
SIZE
 62
     0
100
AcDbLine
 10
-128.0
 20
116.4516878685508
 30
0.0
 11
128.0
 21
116.4516878685508
 31
0.0
  0
INSERT
  5
1680
330
2BFC
100
AcDbEntity
  8
SIZE
 62
     0
100
AcDbBlockReference
  2
_DOTBLANK
 10
-140.0
 20
116.4516878685508
 30
0.0
 41
12.0
 42
12.0
 43
12.0
 50
180.0
  0
INSERT
  5
1681
330
2BFC
100
AcDbEntity
  8
SIZE
 62
     0
100
AcDbBlockReference
  2
_DOTBLANK
 10
140.0
 20
116.4516878685508
 30
0.0
 41
12.0
 42
12.0
 43
12.0
  0
INSERT
  5
1682
330
2BFC
100
AcDbEntity
  8
0
100
AcDbBlockReference
  2
*U35
 10
0.0
 20
0.0
 30
0.0
  0
POINT
  5
1683
330
2BFC
100
AcDbEntity
  8
DEFPOINTS
 62
     0
100
AcDbPoint
 10
-140.0
 20
12.46448280219374
 30
0.0
  0
POINT
  5
1684
330
2BFC
100
AcDbEntity
  8
DEFPOINTS
 62
     0
100
AcDbPoint
 10
140.0
 20
12.46448280219374
 30
0.0
  0
POINT
  5
1685
330
2BFC
100
AcDbEntity
  8
DEFPOINTS
 62
     0
100
AcDbPoint
 10
140.0
 20
116.4516878685508
 30
0.0
  0
ENDBLK
  5
14BF
330
2BFC
100
AcDbEntity
  8
0
100
AcDbBlockEnd
  0
BLOCK
  5
2BFF
330
2BFE
100
AcDbEntity
  8
0
100
AcDbBlockBegin
  2
*U35
 70
     1
 10
0.0
 20
0.0
 30
0.0
  3
*U35
  1

  0
TEXT
  5
1F11
330
2BFE
100
AcDbEntity
  8
SIZE
 62
     0
100
AcDbText
 10
-74.05714285714283
 20
126.4516878685507
 30
0.0
 40
64.0
  1
280
 41
0.9
100
AcDbText
  0
ENDBLK
  5
1F13
330
2BFE
100
AcDbEntity
  8
0
100
AcDbBlockEnd
  0
BLOCK
  5
2C01
330
2C00
100
AcDbEntity
  8
0
100
AcDbBlockBegin
  2
*D36
 70
     1
 10
0.0
 20
0.0
 30
0.0
  3
*D36
  1

  0
LINE
  5
1686
330
2C00
100
AcDbEntity
  8
SIZE
 62
     0
100
AcDbLine
 10
-157.5
 20
20.0
 30
0.0
 11
-157.5
 21
245.5794621189598
 31
0.0
  0
LINE
  5
1687
330
2C00
100
AcDbEntity
  8
SIZE
 62
     0
100
AcDbLine
 10
157.5
 20
20.0
 30
0.0
 11
157.5
 21
245.5794621189598
 31
0.0
  0
LINE
  5
1688
330
2C00
100
AcDbEntity
  8
SIZE
 62
     0
100
AcDbLine
 10
-145.5
 20
225.5794621189598
 30
0.0
 11
145.5
 21
225.5794621189598
 31
0.0
  0
INSERT
  5
1689
330
2C00
100
AcDbEntity
  8
SIZE
 62
     0
100
AcDbBlockReference
  2
_DOTBLANK
 10
-157.5
 20
225.5794621189598
 30
0.0
 41
12.0
 42
12.0
 43
12.0
 50
180.0
  0
INSERT
  5
168A
330
2C00
100
AcDbEntity
  8
SIZE
 62
     0
100
AcDbBlockReference
  2
_DOTBLANK
 10
157.5
 20
225.5794621189598
 30
0.0
 41
12.0
 42
12.0
 43
12.0
  0
INSERT
  5
168B
330
2C00
100
AcDbEntity
  8
0
100
AcDbBlockReference
  2
*U37
 10
0.0
 20
0.0
 30
0.0
  0
POINT
  5
168C
330
2C00
100
AcDbEntity
  8
DEFPOINTS
 62
     0
100
AcDbPoint
 10
-157.5
 20
0.0
 30
0.0
  0
POINT
  5
168D
330
2C00
100
AcDbEntity
  8
DEFPOINTS
 62
     0
100
AcDbPoint
 10
157.5
 20
0.0
 30
0.0
  0
POINT
  5
168E
330
2C00
100
AcDbEntity
  8
DEFPOINTS
 62
     0
100
AcDbPoint
 10
157.5
 20
225.5794621189598
 30
0.0
  0
ENDBLK
  5
14CB
330
2C00
100
AcDbEntity
  8
0
100
AcDbBlockEnd
  0
BLOCK
  5
2C03
330
2C02
100
AcDbEntity
  8
0
100
AcDbBlockBegin
  2
*U37
 70
     1
 10
0.0
 20
0.0
 30
0.0
  3
*U37
  1

  0
TEXT
  5
1F15
330
2C02
100
AcDbEntity
  8
SIZE
 62
     0
100
AcDbText
 10
-68.57142857142857
 20
235.5794621189598
 30
0.0
 40
64.0
  1
315
 41
0.9
100
AcDbText
  0
ENDBLK
  5
1F17
330
2C02
100
AcDbEntity
  8
0
100
AcDbBlockEnd
  0
BLOCK
  5
2C05
330
2C04
100
AcDbEntity
  8
0
100
AcDbBlockBegin
  2
*U38
 70
     1
 10
0.0
 20
0.0
 30
0.0
  3
*U38
  1

  0
ENDBLK
  5
15CF
330
2C04
100
AcDbEntity
  8
0
100
AcDbBlockEnd
  0
BLOCK
  5
2C07
330
2C06
100
AcDbEntity
  8
0
100
AcDbBlockBegin
  2
*D39
 70
     1
 10
0.0
 20
0.0
 30
0.0
  3
*D39
  1

  0
LINE
  5
1692
330
2C06
100
AcDbEntity
  8
SIZE
 62
     0
100
AcDbLine
 10
-25844.51823276502
 20
7685.702971374808
 30
0.0
 11
-25981.04465488371
 21
7685.702971374808
 31
0.0
  0
LINE
  5
1693
330
2C06
100
AcDbEntity
  8
SIZE
 62
     0
100
AcDbLine
 10
-25844.51823276502
 20
7677.702971374808
 30
0.0
 11
-25981.04465488371
 21
7677.702971374808
 31
0.0
  0
LINE
  5
1694
330
2C06
100
AcDbEntity
  8
SIZE
 62
     0
100
AcDbLine
 10
-25961.04465488371
 20
7697.702971374808
 30
0.0
 11
-25961.04465488371
 21
7709.702971374809
 31
0.0
  0
LINE
  5
1695
330
2C06
100
AcDbEntity
  8
SIZE
 62
     0
100
AcDbLine
 10
-25961.04465488371
 20
7665.70297137481
 30
0.0
 11
-25961.04465488371
 21
7595.302971374808
 31
0.0
  0
INSERT
  5
1696
330
2C06
100
AcDbEntity
  8
SIZE
 62
     0
100
AcDbBlockReference
  2
_DOTBLANK
 10
-25961.04465488371
 20
7685.702971374808
 30
0.0
 41
12.0
 42
12.0
 43
12.0
 50
270.0
  0
INSERT
  5
1697
330
2C06
100
AcDbEntity
  8
SIZE
 62
     0
100
AcDbBlockReference
  2
_DOTBLANK
 10
-25961.04465488371
 20
7677.702971374808
 30
0.0
 41
12.0
 42
12.0
 43
12.0
 50
90.0
  0
INSERT
  5
1698
330
2C06
100
AcDbEntity
  8
0
100
AcDbBlockReference
  2
*U40
 10
0.0
 20
0.0
 30
0.0
  0
POINT
  5
1699
330
2C06
100
AcDbEntity
  8
DEFPOINTS
 62
     0
100
AcDbPoint
 10
-25824.51823276501
 20
7685.702971374808
 30
0.0
  0
POINT
  5
169A
330
2C06
100
AcDbEntity
  8
DEFPOINTS
 62
     0
100
AcDbPoint
 10
-25824.51823276501
 20
7677.702971374808
 30
0.0
  0
POINT
  5
169B
330
2C06
100
AcDbEntity
  8
DEFPOINTS
 62
     0
100
AcDbPoint
 10
-25961.04465488371
 20
7677.702971374808
 30
0.0
  0
ENDBLK
  5
169C
330
2C06
100
AcDbEntity
  8
0
100
AcDbBlockEnd
  0
BLOCK
  5
2C09
330
2C08
100
AcDbEntity
  8
0
100
AcDbBlockBegin
  2
*U40
 70
     1
 10
0.0
 20
0.0
 30
0.0
  3
*U40
  1

  0
TEXT
  5
1F19
330
2C08
100
AcDbEntity
  8
SIZE
 62
     0
100
AcDbText
 10
-25971.04465488371
 20
7605.302971374804
 30
0.0
 40
64.0
  1
8
 50
90.0
 41
0.9
100
AcDbText
  0
ENDBLK
  5
1F1B
330
2C08
100
AcDbEntity
  8
0
100
AcDbBlockEnd
  0
BLOCK
  5
2C0B
330
2C0A
100
AcDbEntity
  8
0
100
AcDbBlockBegin
  2
*D41
 70
     1
 10
0.0
 20
0.0
 30
0.0
  3
*D41
  1

  0
LINE
  5
169F
330
2C0A
100
AcDbEntity
  8
SIZE
 62
     0
100
AcDbLine
 10
-25512.51823276502
 20
7385.702971374808
 30
0.0
 11
-25362.37494828464
 21
7385.702971374808
 31
0.0
  0
LINE
  5
16A0
330
2C0A
100
AcDbEntity
  8
SIZE
 62
     0
100
AcDbLine
 10
-25523.51823276501
 20
7373.702971374808
 30
0.0
 11
-25362.37494828464
 21
7373.702971374808
 31
0.0
  0
LINE
  5
16A1
330
2C0A
100
AcDbEntity
  8
SIZE
 62
     0
100
AcDbLine
 10
-25382.37494828464
 20
7397.702971374808
 30
0.0
 11
-25382.37494828464
 21
7409.70297137481
 31
0.0
  0
LINE
  5
16A2
330
2C0A
100
AcDbEntity
  8
SIZE
 62
     0
100
AcDbLine
 10
-25382.37494828464
 20
7361.702971374808
 30
0.0
 11
-25382.37494828464
 21
7244.674399946238
 31
0.0
  0
INSERT
  5
16A3
330
2C0A
100
AcDbEntity
  8
SIZE
 62
     0
100
AcDbBlockReference
  2
_DOTBLANK
 10
-25382.37494828464
 20
7385.702971374808
 30
0.0
 41
12.0
 42
12.0
 43
12.0
 50
270.0
  0
INSERT
  5
16A4
330
2C0A
100
AcDbEntity
  8
SIZE
 62
     0
100
AcDbBlockReference
  2
_DOTBLANK
 10
-25382.37494828464
 20
7373.702971374808
 30
0.0
 41
12.0
 42
12.0
 43
12.0
 50
90.0
  0
INSERT
  5
16A5
330
2C0A
100
AcDbEntity
  8
0
100
AcDbBlockReference
  2
*U42
 10
0.0
 20
0.0
 30
0.0
  0
POINT
  5
16A6
330
2C0A
100
AcDbEntity
  8
DEFPOINTS
 62
     0
100
AcDbPoint
 10
-25532.51823276502
 20
7385.702971374808
 30
0.0
  0
POINT
  5
16A7
330
2C0A
100
AcDbEntity
  8
DEFPOINTS
 62
     0
100
AcDbPoint
 10
-25543.51823276502
 20
7373.702971374808
 30
0.0
  0
POINT
  5
16A8
330
2C0A
100
AcDbEntity
  8
DEFPOINTS
 62
     0
100
AcDbPoint
 10
-25382.37494828464
 20
7373.702971374808
 30
0.0
  0
ENDBLK
  5
16A9
330
2C0A
100
AcDbEntity
  8
0
100
AcDbBlockEnd
  0
BLOCK
  5
2C0D
330
2C0C
100
AcDbEntity
  8
0
100
AcDbBlockBegin
  2
*U42
 70
     1
 10
0.0
 20
0.0
 30
0.0
  3
*U42
  1

  0
TEXT
  5
1F1D
330
2C0C
100
AcDbEntity
  8
SIZE
 62
     0
100
AcDbText
 10
-25392.37494828464
 20
7256.045828517662
 30
0.0
 40
64.0
  1
12
 50
90.0
 41
0.9
100
AcDbText
  0
ENDBLK
  5
1F1F
330
2C0C
100
AcDbEntity
  8
0
100
AcDbBlockEnd
  0
BLOCK
  5
2C0F
330
2C0E
100
AcDbEntity
  8
0
100
AcDbBlockBegin
  2
*D43
 70
     1
 10
0.0
 20
0.0
 30
0.0
  3
*D43
  1

  0
LINE
  5
16AC
330
2C0E
100
AcDbEntity
  8
SIZE
 62
     0
100
AcDbLine
 10
-25801.51823276501
 20
7365.702971374808
 30
0.0
 11
-25801.51823276501
 21
7217.685576144207
 31
0.0
  0
LINE
  5
16AD
330
2C0E
100
AcDbEntity
  8
SIZE
 62
     0
100
AcDbLine
 10
-25532.51823276502
 20
7365.702971374808
 30
0.0
 11
-25532.51823276502
 21
7217.685576144207
 31
0.0
  0
LINE
  5
16AE
330
2C0E
100
AcDbEntity
  8
SIZE
 62
     0
100
AcDbLine
 10
-25789.51823276502
 20
7237.685576144207
 30
0.0
 11
-25544.51823276501
 21
7237.685576144207
 31
0.0
  0
INSERT
  5
16AF
330
2C0E
100
AcDbEntity
  8
SIZE
 62
     0
100
AcDbBlockReference
  2
_DOTBLANK
 10
-25801.51823276501
 20
7237.685576144207
 30
0.0
 41
12.0
 42
12.0
 43
12.0
 50
180.0
  0
INSERT
  5
16B0
330
2C0E
100
AcDbEntity
  8
SIZE
 62
     0
100
AcDbBlockReference
  2
_DOTBLANK
 10
-25532.51823276502
 20
7237.685576144207
 30
0.0
 41
12.0
 42
12.0
 43
12.0
  0
INSERT
  5
16B1
330
2C0E
100
AcDbEntity
  8
0
100
AcDbBlockReference
  2
*U44
 10
0.0
 20
0.0
 30
0.0
  0
POINT
  5
16B2
330
2C0E
100
AcDbEntity
  8
DEFPOINTS
 62
     0
100
AcDbPoint
 10
-25801.51823276501
 20
7385.702971374808
 30
0.0
  0
POINT
  5
16B3
330
2C0E
100
AcDbEntity
  8
DEFPOINTS
 62
     0
100
AcDbPoint
 10
-25532.51823276502
 20
7385.702971374808
 30
0.0
  0
POINT
  5
16B4
330
2C0E
100
AcDbEntity
  8
DEFPOINTS
 62
     0
100
AcDbPoint
 10
-25532.51823276502
 20
7237.685576144207
 30
0.0
  0
ENDBLK
  5
16B5
330
2C0E
100
AcDbEntity
  8
0
100
AcDbBlockEnd
  0
BLOCK
  5
2C11
330
2C10
100
AcDbEntity
  8
0
100
AcDbBlockBegin
  2
*U44
 70
     1
 10
0.0
 20
0.0
 30
0.0
  3
*U44
  1

  0
TEXT
  5
1F21
330
2C10
100
AcDbEntity
  8
SIZE
 62
     0
100
AcDbText
 10
-25739.70394705074
 20
7247.685576144205
 30
0.0
 40
64.0
  1
269
 41
0.9
100
AcDbText
  0
ENDBLK
  5
1F23
330
2C10
100
AcDbEntity
  8
0
100
AcDbBlockEnd
  0
BLOCK
  5
2C13
330
2C12
100
AcDbEntity
  8
0
100
AcDbBlockBegin
  2
*D45
 70
     1
 10
0.0
 20
0.0
 30
0.0
  3
*D45
  1

  0
LINE
  5
16B8
330
2C12
100
AcDbEntity
  8
SIZE
 62
     0
100
AcDbLine
 10
-25512.51823276502
 20
7385.702971374808
 30
0.0
 11
-25362.37494828464
 21
7385.702971374808
 31
0.0
  0
LINE
  5
16B9
330
2C12
100
AcDbEntity
  8
SIZE
 62
     0
100
AcDbLine
 10
-25489.51823276501
 20
7685.702971374808
 30
0.0
 11
-25362.37494828464
 21
7685.702971374808
 31
0.0
  0
LINE
  5
16BA
330
2C12
100
AcDbEntity
  8
SIZE
 62
     0
100
AcDbLine
 10
-25382.37494828464
 20
7397.702971374808
 30
0.0
 11
-25382.37494828464
 21
7673.702971374808
 31
0.0
  0
INSERT
  5
16BB
330
2C12
100
AcDbEntity
  8
SIZE
 62
     0
100
AcDbBlockReference
  2
_DOTBLANK
 10
-25382.37494828464
 20
7385.702971374808
 30
0.0
 41
12.0
 42
12.0
 43
12.0
 50
270.0
  0
INSERT
  5
16BC
330
2C12
100
AcDbEntity
  8
SIZE
 62
     0
100
AcDbBlockReference
  2
_DOTBLANK
 10
-25382.37494828464
 20
7685.702971374808
 30
0.0
 41
12.0
 42
12.0
 43
12.0
 50
90.0
  0
INSERT
  5
16BD
330
2C12
100
AcDbEntity
  8
0
100
AcDbBlockReference
  2
*U46
 10
0.0
 20
0.0
 30
0.0
  0
POINT
  5
16BE
330
2C12
100
AcDbEntity
  8
DEFPOINTS
 62
     0
100
AcDbPoint
 10
-25532.51823276502
 20
7385.702971374808
 30
0.0
  0
POINT
  5
16BF
330
2C12
100
AcDbEntity
  8
DEFPOINTS
 62
     0
100
AcDbPoint
 10
-25509.51823276502
 20
7685.702971374808
 30
0.0
  0
POINT
  5
16C0
330
2C12
100
AcDbEntity
  8
DEFPOINTS
 62
     0
100
AcDbPoint
 10
-25382.37494828464
 20
7685.702971374808
 30
0.0
  0
ENDBLK
  5
16C1
330
2C12
100
AcDbEntity
  8
0
100
AcDbBlockEnd
  0
BLOCK
  5
2C15
330
2C14
100
AcDbEntity
  8
0
100
AcDbBlockBegin
  2
*U46
 70
     1
 10
0.0
 20
0.0
 30
0.0
  3
*U46
  1

  0
TEXT
  5
1F25
330
2C14
100
AcDbEntity
  8
SIZE
 62
     0
100
AcDbText
 10
-25392.37494828464
 20
7461.645828517662
 30
0.0
 40
64.0
  1
300
 50
90.0
 41
0.9
100
AcDbText
  0
ENDBLK
  5
1F27
330
2C14
100
AcDbEntity
  8
0
100
AcDbBlockEnd
  0
BLOCK
  5
2C17
330
2C16
100
AcDbEntity
  8
0
100
AcDbBlockBegin
  2
*D47
 70
     1
 10
0.0
 20
0.0
 30
0.0
  3
*D47
  1

  0
LINE
  5
16C4
330
2C16
100
AcDbEntity
  8
SIZE
 62
     0
100
AcDbLine
 10
-25807.01823276501
 20
7718.167454177002
 30
0.0
 11
-25807.01823276501
 21
7822.154659243358
 31
0.0
  0
LINE
  5
16C5
330
2C16
100
AcDbEntity
  8
SIZE
 62
     0
100
AcDbLine
 10
-25527.01823276501
 20
7718.167454177002
 30
0.0
 11
-25527.01823276501
 21
7822.154659243358
 31
0.0
  0
LINE
  5
16C6
330
2C16
100
AcDbEntity
  8
SIZE
 62
     0
100
AcDbLine
 10
-25795.01823276502
 20
7802.154659243358
 30
0.0
 11
-25539.01823276501
 21
7802.154659243358
 31
0.0
  0
INSERT
  5
16C7
330
2C16
100
AcDbEntity
  8
SIZE
 62
     0
100
AcDbBlockReference
  2
_DOTBLANK
 10
-25807.01823276501
 20
7802.154659243358
 30
0.0
 41
12.0
 42
12.0
 43
12.0
 50
180.0
  0
INSERT
  5
16C8
330
2C16
100
AcDbEntity
  8
SIZE
 62
     0
100
AcDbBlockReference
  2
_DOTBLANK
 10
-25527.01823276501
 20
7802.154659243358
 30
0.0
 41
12.0
 42
12.0
 43
12.0
  0
INSERT
  5
16C9
330
2C16
100
AcDbEntity
  8
0
100
AcDbBlockReference
  2
*U48
 10
0.0
 20
0.0
 30
0.0
  0
POINT
  5
16CA
330
2C16
100
AcDbEntity
  8
DEFPOINTS
 62
     0
100
AcDbPoint
 10
-25807.01823276501
 20
7698.167454177002
 30
0.0
  0
POINT
  5
16CB
330
2C16
100
AcDbEntity
  8
DEFPOINTS
 62
     0
100
AcDbPoint
 10
-25527.01823276501
 20
7698.167454177002
 30
0.0
  0
POINT
  5
16CC
330
2C16
100
AcDbEntity
  8
DEFPOINTS
 62
     0
100
AcDbPoint
 10
-25527.01823276501
 20
7802.154659243358
 30
0.0
  0
ENDBLK
  5
16CD
330
2C16
100
AcDbEntity
  8
0
100
AcDbBlockEnd
  0
BLOCK
  5
2C19
330
2C18
100
AcDbEntity
  8
0
100
AcDbBlockBegin
  2
*U48
 70
     1
 10
0.0
 20
0.0
 30
0.0
  3
*U48
  1

  0
TEXT
  5
1F29
330
2C18
100
AcDbEntity
  8
SIZE
 62
     0
100
AcDbText
 10
-25741.07537562216
 20
7812.154659243358
 30
0.0
 40
64.0
  1
280
 41
0.9
100
AcDbText
  0
ENDBLK
  5
1F2B
330
2C18
100
AcDbEntity
  8
0
100
AcDbBlockEnd
  0
BLOCK
  5
2C1B
330
2C1A
100
AcDbEntity
  8
0
100
AcDbBlockBegin
  2
*D49
 70
     1
 10
0.0
 20
0.0
 30
0.0
  3
*D49
  1

  0
LINE
  5
16D0
330
2C1A
100
AcDbEntity
  8
SIZE
 62
     0
100
AcDbLine
 10
-25824.51823276501
 20
7705.702971374808
 30
0.0
 11
-25824.51823276501
 21
7931.282433493766
 31
0.0
  0
LINE
  5
16D1
330
2C1A
100
AcDbEntity
  8
SIZE
 62
     0
100
AcDbLine
 10
-25509.51823276502
 20
7705.702971374808
 30
0.0
 11
-25509.51823276502
 21
7931.282433493766
 31
0.0
  0
LINE
  5
16D2
330
2C1A
100
AcDbEntity
  8
SIZE
 62
     0
100
AcDbLine
 10
-25812.51823276502
 20
7911.282433493766
 30
0.0
 11
-25521.51823276501
 21
7911.282433493766
 31
0.0
  0
INSERT
  5
16D3
330
2C1A
100
AcDbEntity
  8
SIZE
 62
     0
100
AcDbBlockReference
  2
_DOTBLANK
 10
-25824.51823276501
 20
7911.282433493766
 30
0.0
 41
12.0
 42
12.0
 43
12.0
 50
180.0
  0
INSERT
  5
16D4
330
2C1A
100
AcDbEntity
  8
SIZE
 62
     0
100
AcDbBlockReference
  2
_DOTBLANK
 10
-25509.51823276502
 20
7911.282433493766
 30
0.0
 41
12.0
 42
12.0
 43
12.0
  0
INSERT
  5
16D5
330
2C1A
100
AcDbEntity
  8
0
100
AcDbBlockReference
  2
*U50
 10
0.0
 20
0.0
 30
0.0
  0
POINT
  5
16D6
330
2C1A
100
AcDbEntity
  8
DEFPOINTS
 62
     0
100
AcDbPoint
 10
-25824.51823276501
 20
7685.702971374808
 30
0.0
  0
POINT
  5
16D7
330
2C1A
100
AcDbEntity
  8
DEFPOINTS
 62
     0
100
AcDbPoint
 10
-25509.51823276502
 20
7685.702971374808
 30
0.0
  0
POINT
  5
16D8
330
2C1A
100
AcDbEntity
  8
DEFPOINTS
 62
     0
100
AcDbPoint
 10
-25509.51823276502
 20
7911.282433493766
 30
0.0
  0
ENDBLK
  5
16D9
330
2C1A
100
AcDbEntity
  8
0
100
AcDbBlockEnd
  0
BLOCK
  5
2C1D
330
2C1C
100
AcDbEntity
  8
0
100
AcDbBlockBegin
  2
*U50
 70
     1
 10
0.0
 20
0.0
 30
0.0
  3
*U50
  1

  0
TEXT
  5
1F2D
330
2C1C
100
AcDbEntity
  8
SIZE
 62
     0
100
AcDbText
 10
-25735.58966133645
 20
7921.282433493766
 30
0.0
 40
64.0
  1
315
 41
0.9
100
AcDbText
  0
ENDBLK
  5
1F2F
330
2C1C
100
AcDbEntity
  8
0
100
AcDbBlockEnd
  0
BLOCK
  5
2C1F
330
2C1E
100
AcDbEntity
  8
0
100
AcDbBlockBegin
  2
*D51
 70
     1
 10
0.0
 20
0.0
 30
0.0
  3
*D51
  1

  0
LINE
  5
1D83
330
2C1E
100
AcDbEntity
  8
SIZE
 62
     0
100
AcDbLine
 10
-134.5
 20
-320.0
 30
0.0
 11
-134.5
 21
-468.0173952306001
 31
0.0
  0
LINE
  5
1D84
330
2C1E
100
AcDbEntity
  8
SIZE
 62
     0
100
AcDbLine
 10
134.5
 20
-320.0
 30
0.0
 11
134.5
 21
-468.0173952306001
 31
0.0
  0
LINE
  5
1D85
330
2C1E
100
AcDbEntity
  8
SIZE
 62
     0
100
AcDbLine
 10
-122.5
 20
-448.0173952306
 30
0.0
 11
122.5
 21
-448.0173952306
 31
0.0
  0
INSERT
  5
1D86
330
2C1E
100
AcDbEntity
  8
SIZE
 62
     0
100
AcDbBlockReference
  2
_DOTBLANK
 10
-134.5
 20
-448.0173952306
 30
0.0
 41
12.0
 42
12.0
 43
12.0
 50
180.0
  0
INSERT
  5
1D87
330
2C1E
100
AcDbEntity
  8
SIZE
 62
     0
100
AcDbBlockReference
  2
_DOTBLANK
 10
134.5
 20
-448.0173952306
 30
0.0
 41
12.0
 42
12.0
 43
12.0
  0
INSERT
  5
1D88
330
2C1E
100
AcDbEntity
  8
0
100
AcDbBlockReference
  2
*U52
 10
0.0
 20
0.0
 30
0.0
  0
POINT
  5
1D89
330
2C1E
100
AcDbEntity
  8
DEFPOINTS
 62
     0
100
AcDbPoint
 10
-134.5
 20
-300.0
 30
0.0
  0
POINT
  5
1D8A
330
2C1E
100
AcDbEntity
  8
DEFPOINTS
 62
     0
100
AcDbPoint
 10
134.5
 20
-300.0
 30
0.0
  0
POINT
  5
1D8B
330
2C1E
100
AcDbEntity
  8
DEFPOINTS
 62
     0
100
AcDbPoint
 10
134.5
 20
-448.0173952306
 30
0.0
  0
ENDBLK
  5
173D
330
2C1E
100
AcDbEntity
  8
0
100
AcDbBlockEnd
  0
BLOCK
  5
2C21
330
2C20
100
AcDbEntity
  8
0
100
AcDbBlockBegin
  2
*U52
 70
     1
 10
0.0
 20
0.0
 30
0.0
  3
*U52
  1

  0
TEXT
  5
1F31
330
2C20
100
AcDbEntity
  8
SIZE
 62
     0
100
AcDbText
 10
-72.68571428571426
 20
-438.0173952306003
 30
0.0
 40
64.0
  1
269
 41
0.9
100
AcDbText
  0
ENDBLK
  5
1F33
330
2C20
100
AcDbEntity
  8
0
100
AcDbBlockEnd
  0
BLOCK
  5
2C23
330
2C22
100
AcDbEntity
  8
0
100
AcDbBlockBegin
  2
*D53
 70
     1
 10
0.0
 20
0.0
 30
0.0
  3
*D53
  1

  0
LINE
  5
1D8C
330
2C22
100
AcDbEntity
  8
SIZE
 62
     0
100
AcDbLine
 10
154.5
 20
-300.0
 30
0.0
 11
304.6432844803784
 21
-300.0
 31
0.0
  0
LINE
  5
1D8D
330
2C22
100
AcDbEntity
  8
SIZE
 62
     0
100
AcDbLine
 10
177.5
 20
-0.0000000000000057
 30
0.0
 11
304.6432844803785
 21
-0.0000000000000417
 31
0.0
  0
LINE
  5
1D8E
330
2C22
100
AcDbEntity
  8
SIZE
 62
     0
100
AcDbLine
 10
284.6432844803784
 20
-288.0
 30
0.0
 11
284.6432844803785
 21
-12.00000000000003
 31
0.0
  0
INSERT
  5
1D8F
330
2C22
100
AcDbEntity
  8
SIZE
 62
     0
100
AcDbBlockReference
  2
_DOTBLANK
 10
284.6432844803784
 20
-300.0
 30
0.0
 41
12.0
 42
12.0
 43
12.0
 50
270.0
  0
INSERT
  5
1D90
330
2C22
100
AcDbEntity
  8
SIZE
 62
     0
100
AcDbBlockReference
  2
_DOTBLANK
 10
284.6432844803785
 20
-0.000000000000036
 30
0.0
 41
12.0
 42
12.0
 43
12.0
 50
90.0
  0
INSERT
  5
1D91
330
2C22
100
AcDbEntity
  8
0
100
AcDbBlockReference
  2
*U54
 10
0.0
 20
0.0
 30
0.0
  0
POINT
  5
1D92
330
2C22
100
AcDbEntity
  8
DEFPOINTS
 62
     0
100
AcDbPoint
 10
134.5
 20
-300.0
 30
0.0
  0
POINT
  5
1D93
330
2C22
100
AcDbEntity
  8
DEFPOINTS
 62
     0
100
AcDbPoint
 10
157.5
 20
0.0
 30
0.0
  0
POINT
  5
1D94
330
2C22
100
AcDbEntity
  8
DEFPOINTS
 62
     0
100
AcDbPoint
 10
284.6432844803785
 20
-0.000000000000036
 30
0.0
  0
ENDBLK
  5
1749
330
2C22
100
AcDbEntity
  8
0
100
AcDbBlockEnd
  0
BLOCK
  5
2C25
330
2C24
100
AcDbEntity
  8
0
100
AcDbBlockBegin
  2
*U54
 70
     1
 10
0.0
 20
0.0
 30
0.0
  3
*U54
  1

  0
TEXT
  5
1F35
330
2C24
100
AcDbEntity
  8
SIZE
 62
     0
100
AcDbText
 10
274.6432844803785
 20
-224.0571428571429
 30
0.0
 40
64.0
  1
300
 50
90.0
 41
0.9
100
AcDbText
  0
ENDBLK
  5
1F37
330
2C24
100
AcDbEntity
  8
0
100
AcDbBlockEnd
  0
BLOCK
  5
2C27
330
2C26
100
AcDbEntity
  8
0
100
AcDbBlockBegin
  2
*D55
 70
     1
 10
0.0
 20
0.0
 30
0.0
  3
*D55
  1

  0
LINE
  5
1D95
330
2C26
100
AcDbEntity
  8
SIZE
 62
     0
100
AcDbLine
 10
-140.0
 20
32.46448280219375
 30
0.0
 11
-140.0
 21
136.4516878685508
 31
0.0
  0
LINE
  5
1D96
330
2C26
100
AcDbEntity
  8
SIZE
 62
     0
100
AcDbLine
 10
140.0
 20
32.46448280219375
 30
0.0
 11
140.0
 21
136.4516878685508
 31
0.0
  0
LINE
  5
1D97
330
2C26
100
AcDbEntity
  8
SIZE
 62
     0
100
AcDbLine
 10
-128.0
 20
116.4516878685508
 30
0.0
 11
128.0
 21
116.4516878685508
 31
0.0
  0
INSERT
  5
1D98
330
2C26
100
AcDbEntity
  8
SIZE
 62
     0
100
AcDbBlockReference
  2
_DOTBLANK
 10
-140.0
 20
116.4516878685508
 30
0.0
 41
12.0
 42
12.0
 43
12.0
 50
180.0
  0
INSERT
  5
1D99
330
2C26
100
AcDbEntity
  8
SIZE
 62
     0
100
AcDbBlockReference
  2
_DOTBLANK
 10
140.0
 20
116.4516878685508
 30
0.0
 41
12.0
 42
12.0
 43
12.0
  0
INSERT
  5
1D9A
330
2C26
100
AcDbEntity
  8
0
100
AcDbBlockReference
  2
*U56
 10
0.0
 20
0.0
 30
0.0
  0
POINT
  5
1D9B
330
2C26
100
AcDbEntity
  8
DEFPOINTS
 62
     0
100
AcDbPoint
 10
-140.0
 20
12.46448280219374
 30
0.0
  0
POINT
  5
1D9C
330
2C26
100
AcDbEntity
  8
DEFPOINTS
 62
     0
100
AcDbPoint
 10
140.0
 20
12.46448280219374
 30
0.0
  0
POINT
  5
1D9D
330
2C26
100
AcDbEntity
  8
DEFPOINTS
 62
     0
100
AcDbPoint
 10
140.0
 20
116.4516878685508
 30
0.0
  0
ENDBLK
  5
1755
330
2C26
100
AcDbEntity
  8
0
100
AcDbBlockEnd
  0
BLOCK
  5
2C29
330
2C28
100
AcDbEntity
  8
0
100
AcDbBlockBegin
  2
*U56
 70
     1
 10
0.0
 20
0.0
 30
0.0
  3
*U56
  1

  0
TEXT
  5
1F39
330
2C28
100
AcDbEntity
  8
SIZE
 62
     0
100
AcDbText
 10
-74.05714285714283
 20
126.4516878685508
 30
0.0
 40
64.0
  1
280
 41
0.9
100
AcDbText
  0
ENDBLK
  5
1F3B
330
2C28
100
AcDbEntity
  8
0
100
AcDbBlockEnd
  0
BLOCK
  5
2C2B
330
2C2A
100
AcDbEntity
  8
0
100
AcDbBlockBegin
  2
*D57
 70
     1
 10
0.0
 20
0.0
 30
0.0
  3
*D57
  1

  0
LINE
  5
1D9E
330
2C2A
100
AcDbEntity
  8
SIZE
 62
     0
100
AcDbLine
 10
-157.5
 20
20.0
 30
0.0
 11
-157.5
 21
245.5794621189598
 31
0.0
  0
LINE
  5
1D9F
330
2C2A
100
AcDbEntity
  8
SIZE
 62
     0
100
AcDbLine
 10
157.5
 20
20.0
 30
0.0
 11
157.5
 21
245.5794621189598
 31
0.0
  0
LINE
  5
1DA0
330
2C2A
100
AcDbEntity
  8
SIZE
 62
     0
100
AcDbLine
 10
-145.5
 20
225.5794621189598
 30
0.0
 11
145.5
 21
225.5794621189598
 31
0.0
  0
INSERT
  5
1DA1
330
2C2A
100
AcDbEntity
  8
SIZE
 62
     0
100
AcDbBlockReference
  2
_DOTBLANK
 10
-157.5
 20
225.5794621189598
 30
0.0
 41
12.0
 42
12.0
 43
12.0
 50
180.0
  0
INSERT
  5
1DA2
330
2C2A
100
AcDbEntity
  8
SIZE
 62
     0
100
AcDbBlockReference
  2
_DOTBLANK
 10
157.5
 20
225.5794621189598
 30
0.0
 41
12.0
 42
12.0
 43
12.0
  0
INSERT
  5
1DA3
330
2C2A
100
AcDbEntity
  8
0
100
AcDbBlockReference
  2
*U58
 10
0.0
 20
0.0
 30
0.0
  0
POINT
  5
1DA4
330
2C2A
100
AcDbEntity
  8
DEFPOINTS
 62
     0
100
AcDbPoint
 10
-157.5
 20
0.0
 30
0.0
  0
POINT
  5
1DA5
330
2C2A
100
AcDbEntity
  8
DEFPOINTS
 62
     0
100
AcDbPoint
 10
157.5
 20
0.0
 30
0.0
  0
POINT
  5
1DA6
330
2C2A
100
AcDbEntity
  8
DEFPOINTS
 62
     0
100
AcDbPoint
 10
157.5
 20
225.5794621189598
 30
0.0
  0
ENDBLK
  5
1761
330
2C2A
100
AcDbEntity
  8
0
100
AcDbBlockEnd
  0
BLOCK
  5
2C2D
330
2C2C
100
AcDbEntity
  8
0
100
AcDbBlockBegin
  2
*U58
 70
     1
 10
0.0
 20
0.0
 30
0.0
  3
*U58
  1

  0
TEXT
  5
1F3D
330
2C2C
100
AcDbEntity
  8
SIZE
 62
     0
100
AcDbText
 10
-68.57142857142857
 20
235.5794621189599
 30
0.0
 40
64.0
  1
315
 41
0.9
100
AcDbText
  0
ENDBLK
  5
1F3F
330
2C2C
100
AcDbEntity
  8
0
100
AcDbBlockEnd
  0
BLOCK
  5
2C2F
330
2C2E
100
AcDbEntity
  8
0
100
AcDbBlockBegin
  2
*D59
 70
     1
 10
0.0
 20
0.0
 30
0.0
  3
*D59
  1

  0
LINE
  5
1DA7
330
2C2E
100
AcDbEntity
  8
SIZE
 62
     0
100
AcDbLine
 10
-177.5
 20
0.0000000000000057
 30
0.0
 11
-314.0264221186908
 21
0.0000000000000443
 31
0.0
  0
LINE
  5
1DA8
330
2C2E
100
AcDbEntity
  8
SIZE
 62
     0
100
AcDbLine
 10
-177.5
 20
-7.999999999999993
 30
0.0
 11
-314.0264221186908
 21
-7.999999999999958
 31
0.0
  0
LINE
  5
1DA9
330
2C2E
100
AcDbEntity
  8
SIZE
 62
     0
100
AcDbLine
 10
-294.0264221186908
 20
12.00000000000003
 30
0.0
 11
-294.0264221186908
 21
24.00000000000004
 31
0.0
  0
LINE
  5
1DAA
330
2C2E
100
AcDbEntity
  8
SIZE
 62
     0
100
AcDbLine
 10
-294.0264221186908
 20
-19.99999999999996
 30
0.0
 11
-294.0264221186908
 21
-90.39999999999997
 31
0.0
  0
INSERT
  5
1DAB
330
2C2E
100
AcDbEntity
  8
SIZE
 62
     0
100
AcDbBlockReference
  2
_DOTBLANK
 10
-294.0264221186908
 20
0.0000000000000387
 30
0.0
 41
12.0
 42
12.0
 43
12.0
 50
270.0
  0
INSERT
  5
1DAC
330
2C2E
100
AcDbEntity
  8
SIZE
 62
     0
100
AcDbBlockReference
  2
_DOTBLANK
 10
-294.0264221186908
 20
-7.999999999999961
 30
0.0
 41
12.0
 42
12.0
 43
12.0
 50
90.0
  0
INSERT
  5
1DAD
330
2C2E
100
AcDbEntity
  8
0
100
AcDbBlockReference
  2
*U60
 10
0.0
 20
0.0
 30
0.0
  0
POINT
  5
1DAE
330
2C2E
100
AcDbEntity
  8
DEFPOINTS
 62
     0
100
AcDbPoint
 10
-157.5
 20
0.0
 30
0.0
  0
POINT
  5
1DAF
330
2C2E
100
AcDbEntity
  8
DEFPOINTS
 62
     0
100
AcDbPoint
 10
-157.5
 20
-8.000000000000003
 30
0.0
  0
POINT
  5
1DB0
330
2C2E
100
AcDbEntity
  8
DEFPOINTS
 62
     0
100
AcDbPoint
 10
-294.0264221186908
 20
-7.999999999999961
 30
0.0
  0
ENDBLK
  5
176D
330
2C2E
100
AcDbEntity
  8
0
100
AcDbBlockEnd
  0
BLOCK
  5
2C31
330
2C30
100
AcDbEntity
  8
0
100
AcDbBlockBegin
  2
*U60
 70
     1
 10
0.0
 20
0.0
 30
0.0
  3
*U60
  1

  0
TEXT
  5
1F41
330
2C30
100
AcDbEntity
  8
SIZE
 62
     0
100
AcDbText
 10
-304.0264221186908
 20
-80.4
 30
0.0
 40
64.0
  1
8
 50
90.0
 41
0.9
100
AcDbText
  0
ENDBLK
  5
1F43
330
2C30
100
AcDbEntity
  8
0
100
AcDbBlockEnd
  0
BLOCK
  5
2C33
330
2C32
100
AcDbEntity
  8
0
100
AcDbBlockBegin
  2
*D61
 70
     1
 10
0.0
 20
0.0
 30
0.0
  3
*D61
  1

  0
LINE
  5
1DB1
330
2C32
100
AcDbEntity
  8
SIZE
 62
     0
100
AcDbLine
 10
154.5
 20
-300.0
 30
0.0
 11
304.6432844803785
 21
-300.0
 31
0.0
  0
LINE
  5
1DB2
330
2C32
100
AcDbEntity
  8
SIZE
 62
     0
100
AcDbLine
 10
143.5
 20
-312.0
 30
0.0
 11
304.6432844803785
 21
-312.0
 31
0.0
  0
LINE
  5
1DB3
330
2C32
100
AcDbEntity
  8
SIZE
 62
     0
100
AcDbLine
 10
284.6432844803785
 20
-288.0
 30
0.0
 11
284.6432844803785
 21
-276.0
 31
0.0
  0
LINE
  5
1DB4
330
2C32
100
AcDbEntity
  8
SIZE
 62
     0
100
AcDbLine
 10
284.6432844803785
 20
-324.0000000000001
 30
0.0
 11
284.6432844803784
 21
-438.2857142857143
 31
0.0
  0
INSERT
  5
1DB5
330
2C32
100
AcDbEntity
  8
SIZE
 62
     0
100
AcDbBlockReference
  2
_DOTBLANK
 10
284.6432844803785
 20
-300.0
 30
0.0
 41
12.0
 42
12.0
 43
12.0
 50
270.0
  0
INSERT
  5
1DB6
330
2C32
100
AcDbEntity
  8
SIZE
 62
     0
100
AcDbBlockReference
  2
_DOTBLANK
 10
284.6432844803785
 20
-312.0
 30
0.0
 41
12.0
 42
12.0
 43
12.0
 50
90.0
  0
INSERT
  5
1DB7
330
2C32
100
AcDbEntity
  8
0
100
AcDbBlockReference
  2
*U62
 10
0.0
 20
0.0
 30
0.0
  0
POINT
  5
1DB8
330
2C32
100
AcDbEntity
  8
DEFPOINTS
 62
     0
100
AcDbPoint
 10
134.5
 20
-300.0
 30
0.0
  0
POINT
  5
1DB9
330
2C32
100
AcDbEntity
  8
DEFPOINTS
 62
     0
100
AcDbPoint
 10
123.5
 20
-312.0
 30
0.0
  0
POINT
  5
1DBA
330
2C32
100
AcDbEntity
  8
DEFPOINTS
 62
     0
100
AcDbPoint
 10
284.6432844803785
 20
-312.0
 30
0.0
  0
ENDBLK
  5
177B
330
2C32
100
AcDbEntity
  8
0
100
AcDbBlockEnd
  0
BLOCK
  5
2C35
330
2C34
100
AcDbEntity
  8
0
100
AcDbBlockBegin
  2
*U62
 70
     1
 10
0.0
 20
0.0
 30
0.0
  3
*U62
  1

  0
TEXT
  5
1F45
330
2C34
100
AcDbEntity
  8
SIZE
 62
     0
100
AcDbText
 10
274.6432844803785
 20
-428.2857142857142
 30
0.0
 40
64.0
  1
12
 50
90.0
 41
0.9
100
AcDbText
  0
ENDBLK
  5
1F47
330
2C34
100
AcDbEntity
  8
0
100
AcDbBlockEnd
  0
BLOCK
  5
2C37
330
2C36
100
AcDbEntity
  8
0
100
AcDbBlockBegin
  2
*U63
 70
     1
 10
0.0
 20
0.0
 30
0.0
  3
*U63
  1

  0
ENDBLK
  5
1D57
330
2C36
100
AcDbEntity
  8
0
100
AcDbBlockEnd
  0
BLOCK
  5
2C39
330
2C38
100
AcDbEntity
  8
0
100
AcDbBlockBegin
  2
*U64
 70
     1
 10
0.0
 20
0.0
 30
0.0
  3
*U64
  1

  0
INSERT
  5
2087
330
2C38
100
AcDbEntity
  8
NOTE
100
AcDbBlockReference
  2
_OPEN30
 10
-190.0
 20
0.0
 30
0.0
 41
12.0
 42
12.0
 43
12.0
 50
312.6090116116894
  0
POLYLINE
  5
2088
330
2C38
100
AcDbEntity
  8
NOTE
100
AcDb2dPolyline
 66
     1
 10
0.0
 20
0.0
 30
0.0
  0
VERTEX
  5
2AC5
330
2088
100
AcDbEntity
  8
NOTE
100
AcDbVertex
100
AcDb2dVertex
 10
-198.1239008361895
 20
8.831887408915475
 30
0.0
  0
VERTEX
  5
2AC6
330
2088
100
AcDbEntity
  8
NOTE
100
AcDbVertex
100
AcDb2dVertex
 10
-277.8693999922543
 20
95.5270950580134
 30
0.0
  0
VERTEX
  5
2AC7
330
2088
100
AcDbEntity
  8
NOTE
100
AcDbVertex
100
AcDb2dVertex
 10
-826.4522571351115
 20
95.5270950580134
 30
0.0
  0
SEQEND
  5
2AC8
330
2088
100
AcDbEntity
  8
NOTE
  0
ENDBLK
  5
2089
330
2C38
100
AcDbEntity
  8
0
100
AcDbBlockEnd
  0
BLOCK
  5
2C3B
330
2C3A
100
AcDbEntity
  8
0
100
AcDbBlockBegin
  2
*U65
 70
     1
 10
0.0
 20
0.0
 30
0.0
  3
*U65
  1

  0
TEXT
  5
208C
330
2C3A
100
AcDbEntity
  8
NOTE
100
AcDbText
 10
-823.709399992254
 20
113.5270950580134
 30
0.0
 40
64.0
  1
4×φ10取付穴
 41
0.9
100
AcDbText
  0
ENDBLK
  5
208D
330
2C3A
100
AcDbEntity
  8
0
100
AcDbBlockEnd
  0
BLOCK
  5
2C3D
330
2C3C
100
AcDbEntity
  8
0
100
AcDbBlockBegin
  2
*U66
 70
     1
 10
0.0
 20
0.0
 30
0.0
  3
*U66
  1

  0
INSERT
  5
216B
330
2C3C
100
AcDbEntity
  8
NOTE
100
AcDbBlockReference
  2
_OPEN30
 10
190.0
 20
190.0
 30
0.0
 41
12.0
 42
12.0
 43
12.0
 50
230.7091310502217
  0
POLYLINE
  5
216C
330
2C3C
100
AcDbEntity
  8
NOTE
100
AcDb2dPolyline
 66
     1
 10
0.0
 20
0.0
 30
0.0
  0
VERTEX
  5
2AC9
330
216C
100
AcDbEntity
  8
NOTE
100
AcDbVertex
100
AcDb2dVertex
 10
197.599090480922
 20
199.2872936780721
 30
0.0
  0
VERTEX
  5
2ACA
330
216C
100
AcDbEntity
  8
NOTE
100
AcDbVertex
100
AcDb2dVertex
 10
253.4345623698609
 20
267.5270950580134
 30
0.0
  0
VERTEX
  5
2ACB
330
216C
100
AcDbEntity
  8
NOTE
100
AcDbVertex
100
AcDb2dVertex
 10
802.0174195127182
 20
267.5270950580134
 30
0.0
  0
SEQEND
  5
2ACC
330
216C
100
AcDbEntity
  8
NOTE
  0
ENDBLK
  5
216D
330
2C3C
100
AcDbEntity
  8
0
100
AcDbBlockEnd
  0
BLOCK
  5
2C3F
330
2C3E
100
AcDbEntity
  8
0
100
AcDbBlockBegin
  2
*U67
 70
     1
 10
0.0
 20
0.0
 30
0.0
  3
*U67
  1

  0
TEXT
  5
2170
330
2C3E
100
AcDbEntity
  8
NOTE
100
AcDbText
 10
315.4345623698609
 20
285.5270950580134
 30
0.0
 40
64.0
  1
4×φ10取付穴
 41
0.9
100
AcDbText
  0
ENDBLK
  5
2171
330
2C3E
100
AcDbEntity
  8
0
100
AcDbBlockEnd
  0
BLOCK
  5
2C41
330
2C40
100
AcDbEntity
  8
0
100
AcDbBlockBegin
  2
*U68
 70
     1
 10
0.0
 20
0.0
 30
0.0
  3
*U68
  1

  0
INSERT
  5
224B
330
2C40
100
AcDbEntity
  8
NOTE
100
AcDbBlockReference
  2
_OPEN30
 10
190.0
 20
190.0
 30
0.0
 41
12.0
 42
12.0
 43
12.0
 50
232.3258907693334
  0
POLYLINE
  5
224C
330
2C40
100
AcDbEntity
  8
NOTE
100
AcDb2dPolyline
 66
     1
 10
0.0
 20
0.0
 30
0.0
  0
VERTEX
  5
2ACD
330
224C
100
AcDbEntity
  8
NOTE
100
AcDbVertex
100
AcDb2dVertex
 10
197.3340332839448
 20
199.4979974620964
 30
0.0
  0
VERTEX
  5
2ACE
330
224C
100
AcDbEntity
  8
NOTE
100
AcDbVertex
100
AcDb2dVertex
 10
263.7628007872081
 20
285.5270950580125
 30
0.0
  0
VERTEX
  5
2ACF
330
224C
100
AcDbEntity
  8
NOTE
100
AcDbVertex
100
AcDb2dVertex
 10
809.6028007872082
 20
285.5270950580125
 30
0.0
  0
SEQEND
  5
2AD0
330
224C
100
AcDbEntity
  8
NOTE
  0
ENDBLK
  5
224D
330
2C40
100
AcDbEntity
  8
0
100
AcDbBlockEnd
  0
BLOCK
  5
2C43
330
2C42
100
AcDbEntity
  8
0
100
AcDbBlockBegin
  2
*U69
 70
     1
 10
0.0
 20
0.0
 30
0.0
  3
*U69
  1

  0
TEXT
  5
2250
330
2C42
100
AcDbEntity
  8
NOTE
100
AcDbText
 10
325.7628007872083
 20
303.5270950580125
 30
0.0
 40
64.0
  1
4×φ10取付穴
 41
0.9
100
AcDbText
  0
ENDBLK
  5
2251
330
2C42
100
AcDbEntity
  8
0
100
AcDbBlockEnd
  0
BLOCK
  5
2C45
330
2C44
100
AcDbEntity
  8
0
100
AcDbBlockBegin
  2
*U70
 70
     1
 10
0.0
 20
0.0
 30
0.0
  3
*U70
  1

  0
INSERT
  5
2347
330
2C44
100
AcDbEntity
  8
NOTE
100
AcDbBlockReference
  2
_OPEN30
 10
0.0
 20
190.0
 30
0.0
 41
12.0
 42
12.0
 43
12.0
 50
312.6090116116895
  0
POLYLINE
  5
2348
330
2C44
100
AcDbEntity
  8
NOTE
100
AcDb2dPolyline
 66
     1
 10
0.0
 20
0.0
 30
0.0
  0
VERTEX
  5
2AD1
330
2348
100
AcDbEntity
  8
NOTE
100
AcDbVertex
100
AcDb2dVertex
 10
-8.123900836189513
 20
198.8318874089154
 30
0.0
  0
VERTEX
  5
2AD2
330
2348
100
AcDbEntity
  8
NOTE
100
AcDbVertex
100
AcDb2dVertex
 10
-87.86939999225436
 20
285.527095058013
 30
0.0
  0
VERTEX
  5
2AD3
330
2348
100
AcDbEntity
  8
NOTE
100
AcDbVertex
100
AcDb2dVertex
 10
-633.7093999922545
 20
285.527095058013
 30
0.0
  0
SEQEND
  5
2AD4
330
2348
100
AcDbEntity
  8
NOTE
  0
ENDBLK
  5
2349
330
2C44
100
AcDbEntity
  8
0
100
AcDbBlockEnd
  0
BLOCK
  5
2C47
330
2C46
100
AcDbEntity
  8
0
100
AcDbBlockBegin
  2
*U71
 70
     1
 10
0.0
 20
0.0
 30
0.0
  3
*U71
  1

  0
TEXT
  5
234C
330
2C46
100
AcDbEntity
  8
NOTE
100
AcDbText
 10
-633.7093999922545
 20
303.5270950580129
 30
0.0
 40
64.0
  1
4×φ10取付穴
 41
0.9
100
AcDbText
  0
ENDBLK
  5
234D
330
2C46
100
AcDbEntity
  8
0
100
AcDbBlockEnd
  0
BLOCK
  5
2C49
330
2C48
100
AcDbEntity
  8
0
100
AcDbBlockBegin
  2
*U72
 70
     1
 10
0.0
 20
0.0
 30
0.0
  3
*U72
  1

  0
INSERT
  5
248F
330
2C48
100
AcDbEntity
  8
NOTE
100
AcDbBlockReference
  2
_OPEN30
 10
0.0
 20
190.0
 30
0.0
 41
12.0
 42
12.0
 43
12.0
 50
227.3909883883105
  0
POLYLINE
  5
2490
330
2C48
100
AcDbEntity
  8
NOTE
100
AcDb2dPolyline
 66
     1
 10
0.0
 20
0.0
 30
0.0
  0
VERTEX
  5
2AD5
330
2490
100
AcDbEntity
  8
NOTE
100
AcDbVertex
100
AcDb2dVertex
 10
8.123900836189513
 20
198.8318874089154
 30
0.0
  0
VERTEX
  5
2AD6
330
2490
100
AcDbEntity
  8
NOTE
100
AcDbVertex
100
AcDb2dVertex
 10
87.86939999225436
 20
285.527095058013
 30
0.0
  0
VERTEX
  5
2AD7
330
2490
100
AcDbEntity
  8
NOTE
100
AcDbVertex
100
AcDb2dVertex
 10
633.7093999922545
 20
285.527095058013
 30
0.0
  0
SEQEND
  5
2AD8
330
2490
100
AcDbEntity
  8
NOTE
  0
ENDBLK
  5
2491
330
2C48
100
AcDbEntity
  8
0
100
AcDbBlockEnd
  0
BLOCK
  5
2C4B
330
2C4A
100
AcDbEntity
  8
0
100
AcDbBlockBegin
  2
*U73
 70
     1
 10
0.0
 20
0.0
 30
0.0
  3
*U73
  1

  0
TEXT
  5
2494
330
2C4A
100
AcDbEntity
  8
NOTE
100
AcDbText
 10
149.8693999922543
 20
303.5270950580129
 30
0.0
 40
64.0
  1
4×φ10取付穴
 41
0.9
100
AcDbText
  0
ENDBLK
  5
2495
330
2C4A
100
AcDbEntity
  8
0
100
AcDbBlockEnd
  0
BLOCK
  5
2C4D
330
2C4C
100
AcDbEntity
  8
0
100
AcDbBlockBegin
  2
*U74
 70
     1
 10
0.0
 20
0.0
 30
0.0
  3
*U74
  1

  0
INSERT
  5
25E4
330
2C4C
100
AcDbEntity
  8
NOTE
100
AcDbBlockReference
  2
_OPEN30
 10
-190.0
 20
0.0
 30
0.0
 41
12.0
 42
12.0
 43
12.0
 50
312.6090116116894
  0
POLYLINE
  5
25E5
330
2C4C
100
AcDbEntity
  8
NOTE
100
AcDb2dPolyline
 66
     1
 10
0.0
 20
0.0
 30
0.0
  0
VERTEX
  5
2AD9
330
25E5
100
AcDbEntity
  8
NOTE
100
AcDbVertex
100
AcDb2dVertex
 10
-198.1239008361895
 20
8.831887408915475
 30
0.0
  0
VERTEX
  5
2ADA
330
25E5
100
AcDbEntity
  8
NOTE
100
AcDbVertex
100
AcDb2dVertex
 10
-277.8693999922543
 20
95.52709505801338
 30
0.0
  0
VERTEX
  5
2ADB
330
25E5
100
AcDbEntity
  8
NOTE
100
AcDbVertex
100
AcDb2dVertex
 10
-823.709399992254
 20
95.52709505801338
 30
0.0
  0
SEQEND
  5
2ADC
330
25E5
100
AcDbEntity
  8
NOTE
  0
ENDBLK
  5
25E6
330
2C4C
100
AcDbEntity
  8
0
100
AcDbBlockEnd
  0
BLOCK
  5
2C4F
330
2C4E
100
AcDbEntity
  8
0
100
AcDbBlockBegin
  2
*U75
 70
     1
 10
0.0
 20
0.0
 30
0.0
  3
*U75
  1

  0
TEXT
  5
25E9
330
2C4E
100
AcDbEntity
  8
NOTE
100
AcDbText
 10
-823.709399992254
 20
113.5270950580134
 30
0.0
 40
64.0
  1
4×φ10取付穴
 41
0.9
100
AcDbText
  0
ENDBLK
  5
25EA
330
2C4E
100
AcDbEntity
  8
0
100
AcDbBlockEnd
  0
BLOCK
  5
2C51
330
2C50
100
AcDbEntity
  8
0
100
AcDbBlockBegin
  2
*X76
 70
     1
 10
0.0
 20
0.0
 30
0.0
  3
*X76
  1

  0
LINE
  5
25ED
330
2C50
100
AcDbEntity
  8
0
 62
     0
100
AcDbLine
 10
156.2447224440601
 20
-364.4000000000033
 30
0.0
 11
157.8999999999869
 21
-363.2964844472481
 31
0.0
  0
LINE
  5
25EE
330
2C50
100
AcDbEntity
  8
0
 62
     0
100
AcDbLine
 10
151.7447611501793
 20
-364.4000000000015
 30
0.0
 11
157.8999999999887
 21
-360.2965179118311
 31
0.0
  0
LINE
  5
25EF
330
2C50
100
AcDbEntity
  8
0
 62
     0
100
AcDbLine
 10
147.2447998562929
 20
-364.4000000000033
 30
0.0
 11
157.8999999999905
 21
-357.2965513764139
 31
0.0
  0
LINE
  5
25F0
330
2C50
100
AcDbEntity
  8
0
 62
     0
100
AcDbLine
 10
142.7448385624066
 20
-364.4000000000033
 30
0.0
 11
157.8999999999887
 21
-354.2965848409985
 31
0.0
  0
LINE
  5
25F1
330
2C50
100
AcDbEntity
  8
0
 62
     0
100
AcDbLine
 10
138.2448772685202
 20
-364.4000000000033
 30
0.0
 11
157.8999999999887
 21
-351.2966183055796
 31
0.0
  0
LINE
  5
25F2
330
2C50
100
AcDbEntity
  8
0
 62
     0
100
AcDbLine
 10
133.7449159746375
 20
-364.4000000000015
 30
0.0
 11
157.8999999999887
 21
-348.2966517701661
 31
0.0
  0
LINE
  5
25F3
330
2C50
100
AcDbEntity
  8
0
 62
     0
100
AcDbLine
 10
129.2449546807493
 20
-364.4000000000015
 30
0.0
 11
157.8999999999887
 21
-345.2966852347491
 31
0.0
  0
LINE
  5
25F4
330
2C50
100
AcDbEntity
  8
0
 62
     0
100
AcDbLine
 10
124.7449933868629
 20
-364.4000000000033
 30
0.0
 11
157.8999999999869
 21
-342.2967186993337
 31
0.0
  0
LINE
  5
25F5
330
2C50
100
AcDbEntity
  8
0
 62
     0
100
AcDbLine
 10
120.2450320929802
 20
-364.4000000000015
 30
0.0
 11
157.8999999999887
 21
-339.2967521639166
 31
0.0
  0
LINE
  5
25F6
330
2C50
100
AcDbEntity
  8
0
 62
     0
100
AcDbLine
 10
115.7450707990956
 20
-364.4000000000033
 30
0.0
 11
157.8999999999887
 21
-336.2967856285012
 31
0.0
  0
LINE
  5
25F7
330
2C50
100
AcDbEntity
  8
0
 62
     0
100
AcDbLine
 10
111.2451095052074
 20
-364.4000000000015
 30
0.0
 11
157.8999999999887
 21
-333.2968190930842
 31
0.0
  0
LINE
  5
25F8
330
2C50
100
AcDbEntity
  8
0
 62
     0
100
AcDbLine
 10
106.745148211321
 20
-364.4000000000033
 30
0.0
 11
157.8999999999869
 21
-330.2968525576707
 31
0.0
  0
LINE
  5
25F9
330
2C50
100
AcDbEntity
  8
0
 62
     0
100
AcDbLine
 10
102.2451869174383
 20
-364.4000000000015
 30
0.0
 11
157.8999999999887
 21
-327.2968860222517
 31
0.0
  0
LINE
  5
25FA
330
2C50
100
AcDbEntity
  8
0
 62
     0
100
AcDbLine
 10
97.74522562355196
 20
-364.4000000000033
 30
0.0
 11
157.8999999999905
 21
-324.2969194868365
 31
0.0
  0
LINE
  5
25FB
330
2C50
100
AcDbEntity
  8
0
 62
     0
100
AcDbLine
 10
93.24526432966377
 20
-364.4000000000033
 30
0.0
 11
157.8999999999869
 21
-321.2969529514194
 31
0.0
  0
LINE
  5
25FC
330
2C50
100
AcDbEntity
  8
0
 62
     0
100
AcDbLine
 10
88.74530303577923
 20
-364.4000000000033
 30
0.0
 11
157.8999999999905
 21
-318.2969864160041
 31
0.0
  0
LINE
  5
25FD
330
2C50
100
AcDbEntity
  8
0
 62
     0
100
AcDbLine
 10
84.24534174189648
 20
-364.4000000000015
 30
0.0
 11
157.8999999999887
 21
-315.2970198805888
 31
0.0
  0
LINE
  5
25FE
330
2C50
100
AcDbEntity
  8
0
 62
     0
100
AcDbLine
 10
79.7453804480083
 20
-364.4000000000015
 30
0.0
 11
157.8999999999887
 21
-312.2970533451697
 31
0.0
  0
LINE
  5
25FF
330
2C50
100
AcDbEntity
  8
0
 62
     0
100
AcDbLine
 10
75.24541915412374
 20
-364.4000000000033
 30
0.0
 11
157.8999999999869
 21
-309.2970868097564
 31
0.0
  0
LINE
  5
2600
330
2C50
100
AcDbEntity
  8
0
 62
     0
100
AcDbLine
 10
70.74545786024102
 20
-364.4000000000015
 30
0.0
 11
157.8999999999905
 21
-306.2971202743374
 31
0.0
  0
LINE
  5
2601
330
2C50
100
AcDbEntity
  8
0
 62
     0
100
AcDbLine
 10
66.24549656635281
 20
-364.4000000000015
 30
0.0
 11
157.8999999999869
 21
-303.297153738924
 31
0.0
  0
LINE
  5
2602
330
2C50
100
AcDbEntity
  8
0
 62
     0
100
AcDbLine
 10
61.74553527246644
 20
-364.4000000000015
 30
0.0
 11
157.8999999999887
 21
-300.2971872035051
 31
0.0
  0
LINE
  5
2603
330
2C50
100
AcDbEntity
  8
0
 62
     0
100
AcDbLine
 10
57.24557397858188
 20
-364.4000000000033
 30
0.0
 11
157.8999999999869
 21
-297.2972206680915
 31
0.0
  0
LINE
  5
2604
330
2C50
100
AcDbEntity
  8
0
 62
     0
100
AcDbLine
 10
52.74561268469733
 20
-364.4000000000015
 30
0.0
 11
157.8999999999887
 21
-294.2972541326744
 31
0.0
  0
LINE
  5
2605
330
2C50
100
AcDbEntity
  8
0
 62
     0
100
AcDbLine
 10
48.24565139080914
 20
-364.4000000000033
 30
0.0
 11
157.8999999999887
 21
-291.2972875972572
 31
0.0
  0
LINE
  5
2606
330
2C50
100
AcDbEntity
  8
0
 62
     0
100
AcDbLine
 10
43.74569009692459
 20
-364.4000000000015
 30
0.0
 11
157.8999999999887
 21
-288.297321061842
 31
0.0
  0
LINE
  5
2607
330
2C50
100
AcDbEntity
  8
0
 62
     0
100
AcDbLine
 10
39.24572880304004
 20
-364.4000000000033
 30
0.0
 11
157.8999999999905
 21
-285.2973545264248
 31
0.0
  0
LINE
  5
2608
330
2C50
100
AcDbEntity
  8
0
 62
     0
100
AcDbLine
 10
154.7460739328726
 20
-284.4000000000015
 30
0.0
 11
157.8999999999887
 21
-282.2973879910096
 31
0.0
  0
LINE
  5
2609
330
2C50
100
AcDbEntity
  8
0
 62
     0
100
AcDbLine
 10
34.74576750915549
 20
-364.4000000000015
 30
0.0
 11
154.7460739328726
 21
-284.4000000000015
 31
0.0
  0
LINE
  5
260A
330
2C50
100
AcDbEntity
  8
0
 62
     0
100
AcDbLine
 10
150.2461126389898
 20
-284.4000000000015
 30
0.0
 11
157.8999999999887
 21
-279.2974214555943
 31
0.0
  0
LINE
  5
260B
330
2C50
100
AcDbEntity
  8
0
 62
     0
100
AcDbLine
 10
30.24580621526548
 20
-364.400000000005
 30
0.0
 11
150.2461126389898
 21
-284.4000000000015
 31
0.0
  0
LINE
  5
260C
330
2C50
100
AcDbEntity
  8
0
 62
     0
100
AcDbLine
 10
145.7461513451035
 20
-284.3999999999996
 30
0.0
 11
157.8999999999887
 21
-276.2974549201772
 31
0.0
  0
LINE
  5
260D
330
2C50
100
AcDbEntity
  8
0
 62
     0
100
AcDbLine
 10
25.74584492138274
 20
-364.4000000000033
 30
0.0
 11
145.7461513451035
 21
-284.3999999999996
 31
0.0
  0
LINE
  5
260E
330
2C50
100
AcDbEntity
  8
0
 62
     0
100
AcDbLine
 10
141.2461900512171
 20
-284.3999999999996
 30
0.0
 11
157.8999999999887
 21
-273.2974883847601
 31
0.0
  0
LINE
  5
260F
330
2C50
100
AcDbEntity
  8
0
 62
     0
100
AcDbLine
 10
21.24588362749637
 20
-364.4000000000015
 30
0.0
 11
141.2461900512171
 21
-284.3999999999996
 31
0.0
  0
LINE
  5
2610
330
2C50
100
AcDbEntity
  8
0
 62
     0
100
AcDbLine
 10
136.7462287573307
 20
-284.4000000000015
 30
0.0
 11
157.8999999999887
 21
-270.2975218493429
 31
0.0
  0
LINE
  5
2611
330
2C50
100
AcDbEntity
  8
0
 62
     0
100
AcDbLine
 10
16.74592233361181
 20
-364.4000000000015
 30
0.0
 11
136.7462287573307
 21
-284.4000000000015
 31
0.0
  0
LINE
  5
2612
330
2C50
100
AcDbEntity
  8
0
 62
     0
100
AcDbLine
 10
132.246267463448
 20
-284.3999999999996
 30
0.0
 11
157.8999999999887
 21
-267.2975553139277
 31
0.0
  0
LINE
  5
2613
330
2C50
100
AcDbEntity
  8
0
 62
     0
100
AcDbLine
 10
12.24596103972726
 20
-364.4000000000015
 30
0.0
 11
132.246267463448
 21
-284.3999999999996
 31
0.0
  0
LINE
  5
2614
330
2C50
100
AcDbEntity
  8
0
 62
     0
100
AcDbLine
 10
127.7463061695616
 20
-284.4000000000015
 30
0.0
 11
157.8999999999905
 21
-264.2975887785123
 31
0.0
  0
LINE
  5
2615
330
2C50
100
AcDbEntity
  8
0
 62
     0
100
AcDbLine
 10
7.745999745840889
 20
-364.4000000000033
 30
0.0
 11
127.7463061695616
 21
-284.4000000000015
 31
0.0
  0
LINE
  5
2616
330
2C50
100
AcDbEntity
  8
0
 62
     0
100
AcDbLine
 10
123.2463448756752
 20
-284.3999999999996
 30
0.0
 11
157.8999999999887
 21
-261.2976222430952
 31
0.0
  0
LINE
  5
2617
330
2C50
100
AcDbEntity
  8
0
 62
     0
100
AcDbLine
 10
3.246038451956334
 20
-364.4000000000015
 30
0.0
 11
123.2463448756752
 21
-284.3999999999996
 31
0.0
  0
LINE
  5
2618
330
2C50
100
AcDbEntity
  8
0
 62
     0
100
AcDbLine
 10
118.7463835817889
 20
-284.4000000000015
 30
0.0
 11
157.8999999999887
 21
-258.29765570768
 31
0.0
  0
LINE
  5
2619
330
2C50
100
AcDbEntity
  8
0
 62
     0
100
AcDbLine
 10
-1.253922841933672
 20
-364.4000000000033
 30
0.0
 11
118.7463835817889
 21
-284.4000000000015
 31
0.0
  0
LINE
  5
261A
330
2C50
100
AcDbEntity
  8
0
 62
     0
100
AcDbLine
 10
114.2464222879062
 20
-284.3999999999996
 30
0.0
 11
157.8999999999887
 21
-255.2976891722628
 31
0.0
  0
LINE
  5
261B
330
2C50
100
AcDbEntity
  8
0
 62
     0
100
AcDbLine
 10
-5.753884135814587
 20
-364.4000000000015
 30
0.0
 11
114.2464222879062
 21
-284.3999999999996
 31
0.0
  0
LINE
  5
261C
330
2C50
100
AcDbEntity
  8
0
 62
     0
100
AcDbLine
 10
109.746460994018
 20
-284.4000000000015
 30
0.0
 11
157.8999999999887
 21
-252.2977226368475
 31
0.0
  0
LINE
  5
261D
330
2C50
100
AcDbEntity
  8
0
 62
     0
100
AcDbLine
 10
-10.25384542970278
 20
-364.4000000000033
 30
0.0
 11
109.746460994018
 21
-284.4000000000015
 31
0.0
  0
LINE
  5
261E
330
2C50
100
AcDbEntity
  8
0
 62
     0
100
AcDbLine
 10
105.2464997001316
 20
-284.4000000000015
 30
0.0
 11
157.8999999999905
 21
-249.2977561014304
 31
0.0
  0
LINE
  5
261F
330
2C50
100
AcDbEntity
  8
0
 62
     0
100
AcDbLine
 10
-14.75380672358733
 20
-364.4000000000015
 30
0.0
 11
105.2464997001316
 21
-284.4000000000015
 31
0.0
  0
LINE
  5
2620
330
2C50
100
AcDbEntity
  8
0
 62
     0
100
AcDbLine
 10
100.7465384062488
 20
-284.3999999999996
 30
0.0
 11
157.8999999999887
 21
-246.2977895660151
 31
0.0
  0
LINE
  5
2621
330
2C50
100
AcDbEntity
  8
0
 62
     0
100
AcDbLine
 10
-19.25376801747552
 20
-364.400000000005
 30
0.0
 11
100.7465384062488
 21
-284.3999999999996
 31
0.0
  0
LINE
  5
2622
330
2C50
100
AcDbEntity
  8
0
 62
     0
100
AcDbLine
 10
96.2465771123643
 20
-284.3999999999996
 30
0.0
 11
157.8999999999905
 21
-243.297823030598
 31
0.0
  0
LINE
  5
2623
330
2C50
100
AcDbEntity
  8
0
 62
     0
100
AcDbLine
 10
-23.75372931135644
 20
-364.4000000000015
 30
0.0
 11
96.2465771123643
 21
-284.3999999999996
 31
0.0
  0
LINE
  5
2624
330
2C50
100
AcDbEntity
  8
0
 62
     0
100
AcDbLine
 10
91.74661581847431
 20
-284.4000000000015
 30
0.0
 11
157.8999999999869
 21
-240.2978564951827
 31
0.0
  0
LINE
  5
2625
330
2C50
100
AcDbEntity
  8
0
 62
     0
100
AcDbLine
 10
-28.25369060524645
 20
-364.4000000000033
 30
0.0
 11
91.74661581847431
 21
-284.4000000000015
 31
0.0
  0
LINE
  5
2626
330
2C50
100
AcDbEntity
  8
0
 62
     0
100
AcDbLine
 10
87.24665452458976
 20
-284.4000000000015
 30
0.0
 11
157.8999999999887
 21
-237.2978899597656
 31
0.0
  0
LINE
  5
2627
330
2C50
100
AcDbEntity
  8
0
 62
     0
100
AcDbLine
 10
-32.75365189912918
 20
-364.4000000000015
 30
0.0
 11
87.24665452458976
 21
-284.4000000000015
 31
0.0
  0
LINE
  5
2628
330
2C50
100
AcDbEntity
  8
0
 62
     0
100
AcDbLine
 10
82.74669323070702
 20
-284.3999999999996
 30
0.0
 11
157.8999999999887
 21
-234.2979234243503
 31
0.0
  0
LINE
  5
2629
330
2C50
100
AcDbEntity
  8
0
 62
     0
100
AcDbLine
 10
-37.25361319301374
 20
-364.4000000000015
 30
0.0
 11
82.74669323070702
 21
-284.3999999999996
 31
0.0
  0
LINE
  5
262A
330
2C50
100
AcDbEntity
  8
0
 62
     0
100
AcDbLine
 10
78.24673193682066
 20
-284.3999999999996
 30
0.0
 11
157.8999999999887
 21
-231.2979568889332
 31
0.0
  0
LINE
  5
262B
330
2C50
100
AcDbEntity
  8
0
 62
     0
100
AcDbLine
 10
-41.7535744869001
 20
-364.4000000000033
 30
0.0
 11
78.24673193682066
 21
-284.3999999999996
 31
0.0
  0
LINE
  5
262C
330
2C50
100
AcDbEntity
  8
0
 62
     0
100
AcDbLine
 10
73.74677064293428
 20
-284.3999999999996
 30
0.0
 11
157.8999999999905
 21
-228.2979903535161
 31
0.0
  0
LINE
  5
262D
330
2C50
100
AcDbEntity
  8
0
 62
     0
100
AcDbLine
 10
-46.25353578078826
 20
-364.4000000000015
 30
0.0
 11
73.74677064293428
 21
-284.3999999999996
 31
0.0
  0
LINE
  5
262E
330
2C50
100
AcDbEntity
  8
0
 62
     0
100
AcDbLine
 10
69.24680934904791
 20
-284.4000000000015
 30
0.0
 11
157.8999999999887
 21
-225.2980238181008
 31
0.0
  0
LINE
  5
262F
330
2C50
100
AcDbEntity
  8
0
 62
     0
100
AcDbLine
 10
-50.75349707467285
 20
-364.4000000000033
 30
0.0
 11
69.24680934904791
 21
-284.4000000000015
 31
0.0
  0
LINE
  5
2630
330
2C50
100
AcDbEntity
  8
0
 62
     0
100
AcDbLine
 10
64.74684805516336
 20
-284.3999999999996
 30
0.0
 11
157.8999999999905
 21
-222.2980572826837
 31
0.0
  0
LINE
  5
2631
330
2C50
100
AcDbEntity
  8
0
 62
     0
100
AcDbLine
 10
-55.25345836855739
 20
-364.4000000000015
 30
0.0
 11
64.74684805516336
 21
-284.3999999999996
 31
0.0
  0
LINE
  5
2632
330
2C50
100
AcDbEntity
  8
0
 62
     0
100
AcDbLine
 10
60.24688676127698
 20
-284.4000000000015
 30
0.0
 11
157.8999999999869
 21
-219.2980907472702
 31
0.0
  0
LINE
  5
2633
330
2C50
100
AcDbEntity
  8
0
 62
     0
100
AcDbLine
 10
-59.75341966244378
 20
-364.4000000000033
 30
0.0
 11
60.24688676127698
 21
-284.4000000000015
 31
0.0
  0
LINE
  5
2634
330
2C50
100
AcDbEntity
  8
0
 62
     0
100
AcDbLine
 10
55.74692546739242
 20
-284.3999999999996
 30
0.0
 11
157.8999999999905
 21
-216.2981242118513
 31
0.0
  0
LINE
  5
2635
330
2C50
100
AcDbEntity
  8
0
 62
     0
100
AcDbLine
 10
-64.25338095632651
 20
-364.4000000000015
 30
0.0
 11
55.74692546739242
 21
-284.3999999999996
 31
0.0
  0
LINE
  5
2636
330
2C50
100
AcDbEntity
  8
0
 62
     0
100
AcDbLine
 10
51.24696417350968
 20
-284.3999999999996
 30
0.0
 11
157.8999999999887
 21
-213.2981576764378
 31
0.0
  0
LINE
  5
2637
330
2C50
100
AcDbEntity
  8
0
 62
     0
100
AcDbLine
 10
-68.7533422502147
 20
-364.400000000005
 30
0.0
 11
51.24696417350968
 21
-284.3999999999996
 31
0.0
  0
LINE
  5
2638
330
2C50
100
AcDbEntity
  8
0
 62
     0
100
AcDbLine
 10
46.74700287962149
 20
-284.3999999999996
 30
0.0
 11
157.8999999999905
 21
-210.2981911410188
 31
0.0
  0
LINE
  5
2639
330
2C50
100
AcDbEntity
  8
0
 62
     0
100
AcDbLine
 10
-73.25330354409925
 20
-364.4000000000015
 30
0.0
 11
46.74700287962149
 21
-284.3999999999996
 31
0.0
  0
LINE
  5
263A
330
2C50
100
AcDbEntity
  8
0
 62
     0
100
AcDbLine
 10
42.24704158573513
 20
-284.4000000000015
 30
0.0
 11
157.8999999999905
 21
-207.2982246056035
 31
0.0
  0
LINE
  5
263B
330
2C50
100
AcDbEntity
  8
0
 62
     0
100
AcDbLine
 10
-77.75326483798562
 20
-364.4000000000033
 30
0.0
 11
42.24704158573513
 21
-284.4000000000015
 31
0.0
  0
LINE
  5
263C
330
2C50
100
AcDbEntity
  8
0
 62
     0
100
AcDbLine
 10
37.74708029185058
 20
-284.4000000000015
 30
0.0
 11
157.8999999999905
 21
-204.2982580701882
 31
0.0
  0
LINE
  5
263D
330
2C50
100
AcDbEntity
  8
0
 62
     0
100
AcDbLine
 10
-82.25322613186836
 20
-364.4000000000015
 30
0.0
 11
37.74708029185058
 21
-284.4000000000015
 31
0.0
  0
LINE
  5
263E
330
2C50
100
AcDbEntity
  8
0
 62
     0
100
AcDbLine
 10
33.24711899796604
 20
-284.3999999999996
 30
0.0
 11
157.8999999999905
 21
-201.2982915347711
 31
0.0
  0
LINE
  5
263F
330
2C50
100
AcDbEntity
  8
0
 62
     0
100
AcDbLine
 10
-86.75318742575838
 20
-364.400000000005
 30
0.0
 11
33.24711899796604
 21
-284.3999999999996
 31
0.0
  0
LINE
  5
2640
330
2C50
100
AcDbEntity
  8
0
 62
     0
100
AcDbLine
 10
28.74715770407784
 20
-284.3999999999996
 30
0.0
 11
157.8999999999887
 21
-198.2983249993558
 31
0.0
  0
LINE
  5
2641
330
2C50
100
AcDbEntity
  8
0
 62
     0
100
AcDbLine
 10
-91.25314871964292
 20
-364.4000000000015
 30
0.0
 11
28.74715770407784
 21
-284.3999999999996
 31
0.0
  0
LINE
  5
2642
330
2C50
100
AcDbEntity
  8
0
 62
     0
100
AcDbLine
 10
24.24719641019328
 20
-284.3999999999996
 30
0.0
 11
157.8999999999905
 21
-195.2983584639369
 31
0.0
  0
LINE
  5
2643
330
2C50
100
AcDbEntity
  8
0
 62
     0
100
AcDbLine
 10
-95.7531100135275
 20
-364.4000000000015
 30
0.0
 11
24.24719641019328
 21
-284.3999999999996
 31
0.0
  0
LINE
  5
2644
330
2C50
100
AcDbEntity
  8
0
 62
     0
100
AcDbLine
 10
19.74723511630873
 20
-284.4000000000015
 30
0.0
 11
157.8999999999905
 21
-192.2983919285233
 31
0.0
  0
LINE
  5
2645
330
2C50
100
AcDbEntity
  8
0
 62
     0
100
AcDbLine
 10
-100.2530713074138
 20
-364.4000000000033
 30
0.0
 11
19.74723511630873
 21
-284.4000000000015
 31
0.0
  0
LINE
  5
2646
330
2C50
100
AcDbEntity
  8
0
 62
     0
100
AcDbLine
 10
15.24727382242236
 20
-284.3999999999996
 30
0.0
 11
157.8999999999887
 21
-189.2984253931045
 31
0.0
  0
LINE
  5
2647
330
2C50
100
AcDbEntity
  8
0
 62
     0
100
AcDbLine
 10
-104.7530326012984
 20
-364.4000000000015
 30
0.0
 11
15.24727382242236
 21
-284.3999999999996
 31
0.0
  0
LINE
  5
2648
330
2C50
100
AcDbEntity
  8
0
 62
     0
100
AcDbLine
 10
10.74731252853416
 20
-284.4000000000032
 30
0.0
 11
157.8999999999887
 21
-186.298458857691
 31
0.0
  0
LINE
  5
2649
330
2C50
100
AcDbEntity
  8
0
 62
     0
100
AcDbLine
 10
-109.2529938951847
 20
-364.4000000000033
 30
0.0
 11
10.74731252853416
 21
-284.4000000000032
 31
0.0
  0
LINE
  5
264A
330
2C50
100
AcDbEntity
  8
0
 62
     0
100
AcDbLine
 10
6.247351234651429
 20
-284.3999999999996
 30
0.0
 11
157.8999999999942
 21
-183.298492322272
 31
0.0
  0
LINE
  5
264B
330
2C50
100
AcDbEntity
  8
0
 62
     0
100
AcDbLine
 10
-113.7529551890657
 20
-364.3999999999997
 30
0.0
 11
6.247351234651429
 21
-284.3999999999996
 31
0.0
  0
LINE
  5
264C
330
2C50
100
AcDbEntity
  8
0
 62
     0
100
AcDbLine
 10
1.747389940765059
 20
-284.4000000000015
 30
0.0
 11
157.8999999999942
 21
-180.2985257868549
 31
0.0
  0
LINE
  5
264D
330
2C50
100
AcDbEntity
  8
0
 62
     0
100
AcDbLine
 10
-118.2529164829575
 20
-364.4000000000033
 30
0.0
 11
1.747389940765059
 21
-284.4000000000015
 31
0.0
  0
LINE
  5
264E
330
2C50
100
AcDbEntity
  8
0
 62
     0
100
AcDbLine
 10
-2.752571353119491
 20
-284.3999999999996
 30
0.0
 11
157.8999999999923
 21
-177.2985592514396
 31
0.0
  0
LINE
  5
264F
330
2C50
100
AcDbEntity
  8
0
 62
     0
100
AcDbLine
 10
-122.7528777768402
 20
-364.4000000000015
 30
0.0
 11
-2.752571353119491
 21
-284.3999999999996
 31
0.0
  0
LINE
  5
2650
330
2C50
100
AcDbEntity
  8
0
 62
     0
100
AcDbLine
 10
-7.252532647004042
 20
-284.4000000000015
 30
0.0
 11
157.8999999999942
 21
-174.2985927160225
 31
0.0
  0
LINE
  5
2651
330
2C50
100
AcDbEntity
  8
0
 62
     0
100
AcDbLine
 10
-127.2528390707265
 20
-364.4000000000033
 30
0.0
 11
-7.252532647004042
 21
-284.4000000000015
 31
0.0
  0
LINE
  5
2652
330
2C50
100
AcDbEntity
  8
0
 62
     0
100
AcDbLine
 10
-11.75249394089223
 20
-284.4000000000015
 30
0.0
 11
157.8999999999923
 21
-171.2986261806072
 31
0.0
  0
LINE
  5
2653
330
2C50
100
AcDbEntity
  8
0
 62
     0
100
AcDbLine
 10
-131.752800364613
 20
-364.4000000000033
 30
0.0
 11
-11.75249394089223
 21
-284.4000000000015
 31
0.0
  0
LINE
  5
2654
330
2C50
100
AcDbEntity
  8
0
 62
     0
100
AcDbLine
 10
-16.25245523477679
 20
-284.3999999999996
 30
0.0
 11
157.8999999999923
 21
-168.2986596451901
 31
0.0
  0
LINE
  5
2655
330
2C50
100
AcDbEntity
  8
0
 62
     0
100
AcDbLine
 10
-136.2527616584993
 20
-364.400000000005
 30
0.0
 11
-16.25245523477679
 21
-284.3999999999996
 31
0.0
  0
LINE
  5
2656
330
2C50
100
AcDbEntity
  8
0
 62
     0
100
AcDbLine
 10
-20.75241652866134
 20
-284.3999999999996
 30
0.0
 11
157.8999999999923
 21
-165.2986931097748
 31
0.0
  0
LINE
  5
2657
330
2C50
100
AcDbEntity
  8
0
 62
     0
100
AcDbLine
 10
-140.7527229523821
 20
-364.4000000000015
 30
0.0
 11
-20.75241652866134
 21
-284.3999999999996
 31
0.0
  0
LINE
  5
2658
330
2C50
100
AcDbEntity
  8
0
 62
     0
100
AcDbLine
 10
-25.2523778225459
 20
-284.4000000000015
 30
0.0
 11
157.8999999999942
 21
-162.2987265743595
 31
0.0
  0
LINE
  5
2659
330
2C50
100
AcDbEntity
  8
0
 62
     0
100
AcDbLine
 10
-145.2526842462684
 20
-364.4000000000033
 30
0.0
 11
-25.2523778225459
 21
-284.4000000000015
 31
0.0
  0
LINE
  5
265A
330
2C50
100
AcDbEntity
  8
0
 62
     0
100
AcDbLine
 10
-29.75233911643409
 20
-284.4000000000015
 30
0.0
 11
157.8999999999942
 21
-159.2987600389406
 31
0.0
  0
LINE
  5
265B
330
2C50
100
AcDbEntity
  8
0
 62
     0
100
AcDbLine
 10
-149.7526455401548
 20
-364.4000000000033
 30
0.0
 11
-29.75233911643409
 21
-284.4000000000015
 31
0.0
  0
LINE
  5
265C
330
2C50
100
AcDbEntity
  8
0
 62
     0
100
AcDbLine
 10
-34.25230041031864
 20
-284.3999999999996
 30
0.0
 11
157.8999999999923
 21
-156.2987935035271
 31
0.0
  0
LINE
  5
265D
330
2C50
100
AcDbEntity
  8
0
 62
     0
100
AcDbLine
 10
-154.2526068340412
 20
-364.400000000005
 30
0.0
 11
-34.25230041031864
 21
-284.3999999999996
 31
0.0
  0
LINE
  5
265E
330
2C50
100
AcDbEntity
  8
0
 62
     0
100
AcDbLine
 10
-38.75226170420683
 20
-284.4000000000015
 30
0.0
 11
157.8999999999942
 21
-153.2988269681082
 31
0.0
  0
LINE
  5
265F
330
2C50
100
AcDbEntity
  8
0
 62
     0
100
AcDbLine
 10
-157.9000000000104
 20
-363.8316226994302
 30
0.0
 11
-38.75226170420683
 21
-284.4000000000015
 31
0.0
  0
LINE
  5
2660
330
2C50
100
AcDbEntity
  8
0
 62
     0
100
AcDbLine
 10
-43.25222299808956
 20
-284.3999999999996
 30
0.0
 11
157.8999999999923
 21
-150.2988604326928
 31
0.0
  0
LINE
  5
2661
330
2C50
100
AcDbEntity
  8
0
 62
     0
100
AcDbLine
 10
-157.9000000000104
 20
-360.8316561640112
 30
0.0
 11
-43.25222299808956
 21
-284.3999999999996
 31
0.0
  0
LINE
  5
2662
330
2C50
100
AcDbEntity
  8
0
 62
     0
100
AcDbLine
 10
-47.75218429197773
 20
-284.4000000000015
 30
0.0
 11
157.8999999999923
 21
-147.2988938972776
 31
0.0
  0
LINE
  5
2663
330
2C50
100
AcDbEntity
  8
0
 62
     0
100
AcDbLine
 10
-157.9000000000104
 20
-357.8316896285959
 30
0.0
 11
-47.75218429197773
 21
-284.4000000000015
 31
0.0
  0
LINE
  5
2664
330
2C50
100
AcDbEntity
  8
0
 62
     0
100
AcDbLine
 10
-52.25214558585867
 20
-284.3999999999996
 30
0.0
 11
157.8999999999923
 21
-144.2989273618604
 31
0.0
  0
LINE
  5
2665
330
2C50
100
AcDbEntity
  8
0
 62
     0
100
AcDbLine
 10
-157.9000000000104
 20
-354.8317230931789
 30
0.0
 11
-52.25214558585867
 21
-284.3999999999996
 31
0.0
  0
LINE
  5
2666
330
2C50
100
AcDbEntity
  8
0
 62
     0
100
AcDbLine
 10
-56.75210687974503
 20
-284.4000000000015
 30
0.0
 11
157.8999999999942
 21
-141.2989608264451
 31
0.0
  0
LINE
  5
2667
330
2C50
100
AcDbEntity
  8
0
 62
     0
100
AcDbLine
 10
-157.9000000000086
 20
-351.8317565577636
 30
0.0
 11
-56.75210687974503
 21
-284.4000000000015
 31
0.0
  0
LINE
  5
2668
330
2C50
100
AcDbEntity
  8
0
 62
     0
100
AcDbLine
 10
-57.90000000000509
 20
-282.1652935906404
 30
0.0
 11
157.8999999999923
 21
-138.2989942910299
 31
0.0
  0
LINE
  5
2669
330
2C50
100
AcDbEntity
  8
0
 62
     0
100
AcDbLine
 10
-157.9000000000104
 20
-348.8317900223464
 30
0.0
 11
-57.90000000000509
 21
-282.1652935906404
 31
0.0
  0
LINE
  5
266A
330
2C50
100
AcDbEntity
  8
0
 62
     0
100
AcDbLine
 10
-57.90000000000691
 20
-279.165327055227
 30
0.0
 11
157.8999999999923
 21
-135.2990277556127
 31
0.0
  0
LINE
  5
266B
330
2C50
100
AcDbEntity
  8
0
 62
     0
100
AcDbLine
 10
-157.9000000000104
 20
-345.8318234869312
 30
0.0
 11
-57.90000000000691
 21
-279.165327055227
 31
0.0
  0
LINE
  5
266C
330
2C50
100
AcDbEntity
  8
0
 62
     0
100
AcDbLine
 10
-57.90000000000509
 20
-276.165360519808
 30
0.0
 11
157.899999999996
 21
-132.2990612201956
 31
0.0
  0
LINE
  5
266D
330
2C50
100
AcDbEntity
  8
0
 62
     0
100
AcDbLine
 10
-157.9000000000104
 20
-342.8318569515159
 30
0.0
 11
-57.90000000000509
 21
-276.165360519808
 31
0.0
  0
LINE
  5
266E
330
2C50
100
AcDbEntity
  8
0
 62
     0
100
AcDbLine
 10
-57.90000000000691
 20
-273.1653939843944
 30
0.0
 11
157.8999999999923
 21
-129.2990946847803
 31
0.0
  0
LINE
  5
266F
330
2C50
100
AcDbEntity
  8
0
 62
     0
100
AcDbLine
 10
-157.9000000000104
 20
-339.8318904160988
 30
0.0
 11
-57.90000000000691
 21
-273.1653939843944
 31
0.0
  0
LINE
  5
2670
330
2C50
100
AcDbEntity
  8
0
 62
     0
100
AcDbLine
 10
-57.90000000000691
 20
-270.1654274489774
 30
0.0
 11
157.8999999999923
 21
-126.2991281493632
 31
0.0
  0
LINE
  5
2671
330
2C50
100
AcDbEntity
  8
0
 62
     0
100
AcDbLine
 10
-157.9000000000086
 20
-336.8319238806817
 30
0.0
 11
-57.90000000000691
 21
-270.1654274489774
 31
0.0
  0
LINE
  5
2672
330
2C50
100
AcDbEntity
  8
0
 62
     0
100
AcDbLine
 10
-57.90000000000691
 20
-267.1654609135621
 30
0.0
 11
157.8999999999923
 21
-123.2991616139479
 31
0.0
  0
LINE
  5
2673
330
2C50
100
AcDbEntity
  8
0
 62
     0
100
AcDbLine
 10
-157.9000000000104
 20
-333.8319573452663
 30
0.0
 11
-57.90000000000691
 21
-267.1654609135621
 31
0.0
  0
LINE
  5
2674
330
2C50
100
AcDbEntity
  8
0
 62
     0
100
AcDbLine
 10
-57.90000000000509
 20
-264.165494378145
 30
0.0
 11
157.8999999999942
 21
-120.2991950785308
 31
0.0
  0
LINE
  5
2675
330
2C50
100
AcDbEntity
  8
0
 62
     0
100
AcDbLine
 10
-157.9000000000086
 20
-330.8319908098492
 30
0.0
 11
-57.90000000000509
 21
-264.165494378145
 31
0.0
  0
LINE
  5
2676
330
2C50
100
AcDbEntity
  8
0
 62
     0
100
AcDbLine
 10
-57.90000000000509
 20
-261.1655278427279
 30
0.0
 11
157.8999999999905
 21
-117.2992285431172
 31
0.0
  0
LINE
  5
2677
330
2C50
100
AcDbEntity
  8
0
 62
     0
100
AcDbLine
 10
-157.9000000000123
 20
-327.8320242744357
 30
0.0
 11
-57.90000000000509
 21
-261.1655278427279
 31
0.0
  0
LINE
  5
2678
330
2C50
100
AcDbEntity
  8
0
 62
     0
100
AcDbLine
 10
-57.90000000000691
 20
-258.1655613073126
 30
0.0
 11
157.8999999999923
 21
-114.2992620076984
 31
0.0
  0
LINE
  5
2679
330
2C50
100
AcDbEntity
  8
0
 62
     0
100
AcDbLine
 10
-157.9000000000104
 20
-324.8320577390168
 30
0.0
 11
-57.90000000000691
 21
-258.1655613073126
 31
0.0
  0
LINE
  5
267A
330
2C50
100
AcDbEntity
  8
0
 62
     0
100
AcDbLine
 10
-57.90000000000327
 20
-255.1655947718937
 30
0.0
 11
157.8999999999923
 21
-111.2992954722831
 31
0.0
  0
LINE
  5
267B
330
2C50
100
AcDbEntity
  8
0
 62
     0
100
AcDbLine
 10
-157.9000000000104
 20
-321.8320912036015
 30
0.0
 11
-57.90000000000327
 21
-255.1655947718937
 31
0.0
  0
LINE
  5
267C
330
2C50
100
AcDbEntity
  8
0
 62
     0
100
AcDbLine
 10
-57.90000000000691
 20
-252.1656282364801
 30
0.0
 11
157.8999999999923
 21
-108.299328936866
 31
0.0
  0
LINE
  5
267D
330
2C50
100
AcDbEntity
  8
0
 62
     0
100
AcDbLine
 10
-157.9000000000104
 20
-318.8321246681844
 30
0.0
 11
-57.90000000000691
 21
-252.1656282364801
 31
0.0
  0
LINE
  5
267E
330
2C50
100
AcDbEntity
  8
0
 62
     0
100
AcDbLine
 10
-57.90000000000509
 20
-249.1656617010631
 30
0.0
 11
157.8999999999942
 21
-105.2993624014489
 31
0.0
  0
LINE
  5
267F
330
2C50
100
AcDbEntity
  8
0
 62
     0
100
AcDbLine
 10
-157.9000000000123
 20
-315.8321581327691
 30
0.0
 11
-57.90000000000509
 21
-249.1656617010631
 31
0.0
  0
LINE
  5
2680
330
2C50
100
AcDbEntity
  8
0
 62
     0
100
AcDbLine
 10
-57.90000000000691
 20
-246.1656951656478
 30
0.0
 11
157.8999999999923
 21
-102.2993958660354
 31
0.0
  0
LINE
  5
2681
330
2C50
100
AcDbEntity
  8
0
 62
     0
100
AcDbLine
 10
-157.9000000000104
 20
-312.8321915973538
 30
0.0
 11
-57.90000000000691
 21
-246.1656951656478
 31
0.0
  0
LINE
  5
2682
330
2C50
100
AcDbEntity
  8
0
 62
     0
100
AcDbLine
 10
-57.90000000000509
 20
-243.1657286302307
 30
0.0
 11
157.8999999999942
 21
-99.29942933061649
 31
0.0
  0
LINE
  5
2683
330
2C50
100
AcDbEntity
  8
0
 62
     0
100
AcDbLine
 10
-157.9000000000086
 20
-309.8322250619349
 30
0.0
 11
-57.90000000000509
 21
-243.1657286302307
 31
0.0
  0
LINE
  5
2684
330
2C50
100
AcDbEntity
  8
0
 62
     0
100
AcDbLine
 10
-57.90000000000509
 20
-240.1657620948135
 30
0.0
 11
157.8999999999905
 21
-96.29946279520302
 31
0.0
  0
LINE
  5
2685
330
2C50
100
AcDbEntity
  8
0
 62
     0
100
AcDbLine
 10
-157.9000000000123
 20
-306.8322585265214
 30
0.0
 11
-57.90000000000509
 21
-240.1657620948135
 31
0.0
  0
LINE
  5
2686
330
2C50
100
AcDbEntity
  8
0
 62
     0
100
AcDbLine
 10
-57.90000000000509
 20
-237.1657955593982
 30
0.0
 11
157.8999999999942
 21
-93.29949625978406
 31
0.0
  0
LINE
  5
2687
330
2C50
100
AcDbEntity
  8
0
 62
     0
100
AcDbLine
 10
-157.9000000000086
 20
-303.8322919911025
 30
0.0
 11
-57.90000000000509
 21
-237.1657955593982
 31
0.0
  0
LINE
  5
2688
330
2C50
100
AcDbEntity
  8
0
 62
     0
100
AcDbLine
 10
-57.90000000000327
 20
-234.165829023983
 30
0.0
 11
157.4492934356567
 21
-90.6000000000022
 31
0.0
  0
LINE
  5
2689
330
2C50
100
AcDbEntity
  8
0
 62
     0
100
AcDbLine
 10
-157.9000000000104
 20
-300.8323254556889
 30
0.0
 11
-57.90000000000327
 21
-234.165829023983
 31
0.0
  0
LINE
  5
268A
330
2C50
100
AcDbEntity
  8
0
 62
     0
100
AcDbLine
 10
-57.90000000000509
 20
-231.1658624885658
 30
0.0
 11
152.9493321417649
 21
-90.600000000004
 31
0.0
  0
LINE
  5
268B
330
2C50
100
AcDbEntity
  8
0
 62
     0
100
AcDbLine
 10
-157.9000000000086
 20
-297.8323589202719
 30
0.0
 11
-57.90000000000509
 21
-231.1658624885658
 31
0.0
  0
LINE
  5
268C
330
2C50
100
AcDbEntity
  8
0
 62
     0
100
AcDbLine
 10
-57.90000000000509
 20
-228.1658959531505
 30
0.0
 11
148.4493708478821
 21
-90.600000000004
 31
0.0
  0
LINE
  5
268D
330
2C50
100
AcDbEntity
  8
0
 62
     0
100
AcDbLine
 10
-157.9000000000123
 20
-294.8323923848566
 30
0.0
 11
-57.90000000000509
 21
-228.1658959531505
 31
0.0
  0
LINE
  5
268E
330
2C50
100
AcDbEntity
  8
0
 62
     0
100
AcDbLine
 10
-57.90000000000509
 20
-225.1659294177352
 30
0.0
 11
143.9494095539958
 21
-90.6000000000022
 31
0.0
  0
LINE
  5
268F
330
2C50
100
AcDbEntity
  8
0
 62
     0
100
AcDbLine
 10
-157.9000000000086
 20
-291.8324258494394
 30
0.0
 11
-57.90000000000509
 21
-225.1659294177352
 31
0.0
  0
LINE
  5
2690
330
2C50
100
AcDbEntity
  8
0
 62
     0
100
AcDbLine
 10
-57.90000000000509
 20
-222.1659628823181
 30
0.0
 11
139.4494482601094
 21
-90.600000000004
 31
0.0
  0
LINE
  5
2691
330
2C50
100
AcDbEntity
  8
0
 62
     0
100
AcDbLine
 10
-157.9000000000123
 20
-288.8324593140242
 30
0.0
 11
-57.90000000000509
 21
-222.1659628823181
 31
0.0
  0
LINE
  5
2692
330
2C50
100
AcDbEntity
  8
0
 62
     0
100
AcDbLine
 10
-57.90000000000873
 20
-219.1659963469028
 30
0.0
 11
134.949486966223
 21
-90.600000000004
 31
0.0
  0
LINE
  5
2693
330
2C50
100
AcDbEntity
  8
0
 62
     0
100
AcDbLine
 10
-157.9000000000104
 20
-285.8324927786071
 30
0.0
 11
-57.90000000000873
 21
-219.1659963469028
 31
0.0
  0
LINE
  5
2694
330
2C50
100
AcDbEntity
  8
0
 62
     0
100
AcDbLine
 10
-57.90000000000509
 20
-216.1660298114839
 30
0.0
 11
130.4495256723403
 21
-90.6000000000022
 31
0.0
  0
LINE
  5
2695
330
2C50
100
AcDbEntity
  8
0
 62
     0
100
AcDbLine
 10
-157.9000000000086
 20
-282.8325262431881
 30
0.0
 11
-57.90000000000509
 21
-216.1660298114839
 31
0.0
  0
LINE
  5
2696
330
2C50
100
AcDbEntity
  8
0
 62
     0
100
AcDbLine
 10
-57.90000000000691
 20
-213.1660632760704
 30
0.0
 11
125.9495643784539
 21
-90.600000000004
 31
0.0
  0
LINE
  5
2697
330
2C50
100
AcDbEntity
  8
0
 62
     0
100
AcDbLine
 10
-157.9000000000086
 20
-279.8325597077745
 30
0.0
 11
-57.90000000000691
 21
-213.1660632760704
 31
0.0
  0
LINE
  5
2698
330
2C50
100
AcDbEntity
  8
0
 62
     0
100
AcDbLine
 10
-57.90000000000691
 20
-210.1660967406516
 30
0.0
 11
121.4496030845657
 21
-90.6000000000022
 31
0.0
  0
LINE
  5
2699
330
2C50
100
AcDbEntity
  8
0
 62
     0
100
AcDbLine
 10
-157.9000000000104
 20
-276.8325931723575
 30
0.0
 11
-57.90000000000691
 21
-210.1660967406516
 31
0.0
  0
LINE
  5
269A
330
2C50
100
AcDbEntity
  8
0
 62
     0
100
AcDbLine
 10
-57.90000000000509
 20
-207.1661302052361
 30
0.0
 11
116.949641790683
 21
-90.6000000000022
 31
0.0
  0
LINE
  5
269B
330
2C50
100
AcDbEntity
  8
0
 62
     0
100
AcDbLine
 10
-157.9000000000104
 20
-273.8326266369423
 30
0.0
 11
-57.90000000000509
 21
-207.1661302052361
 31
0.0
  0
LINE
  5
269C
330
2C50
100
AcDbEntity
  8
0
 62
     0
100
AcDbLine
 10
-57.90000000000509
 20
-204.1661636698209
 30
0.0
 11
112.4496804967984
 21
-90.6000000000022
 31
0.0
  0
LINE
  5
269D
330
2C50
100
AcDbEntity
  8
0
 62
     0
100
AcDbLine
 10
-157.9000000000086
 20
-270.8326601015251
 30
0.0
 11
-57.90000000000509
 21
-204.1661636698209
 31
0.0
  0
LINE
  5
269E
330
2C50
100
AcDbEntity
  8
0
 62
     0
100
AcDbLine
 10
-57.90000000000509
 20
-201.1661971344038
 30
0.0
 11
107.9497192029139
 21
-90.6000000000022
 31
0.0
  0
LINE
  5
269F
330
2C50
100
AcDbEntity
  8
0
 62
     0
100
AcDbLine
 10
-157.9000000000104
 20
-267.8326935661116
 30
0.0
 11
-57.90000000000509
 21
-201.1661971344038
 31
0.0
  0
LINE
  5
26A0
330
2C50
100
AcDbEntity
  8
0
 62
     0
100
AcDbLine
 10
-57.90000000000691
 20
-198.1662305989884
 30
0.0
 11
103.4497579090239
 21
-90.600000000004
 31
0.0
  0
LINE
  5
26A1
330
2C50
100
AcDbEntity
  8
0
 62
     0
100
AcDbLine
 10
-157.9000000000104
 20
-264.8327270306927
 30
0.0
 11
-57.90000000000691
 21
-198.1662305989884
 31
0.0
  0
LINE
  5
26A2
330
2C50
100
AcDbEntity
  8
0
 62
     0
100
AcDbLine
 10
-57.90000000000509
 20
-195.1662640635713
 30
0.0
 11
98.94979661514117
 21
-90.6000000000022
 31
0.0
  0
LINE
  5
26A3
330
2C50
100
AcDbEntity
  8
0
 62
     0
100
AcDbLine
 10
-157.9000000000086
 20
-261.8327604952774
 30
0.0
 11
-57.90000000000509
 21
-195.1662640635713
 31
0.0
  0
LINE
  5
26A4
330
2C50
100
AcDbEntity
  8
0
 62
     0
100
AcDbLine
 10
-57.90000000000691
 20
-192.166297528156
 30
0.0
 11
94.44983532125478
 21
-90.6000000000022
 31
0.0
  0
LINE
  5
26A5
330
2C50
100
AcDbEntity
  8
0
 62
     0
100
AcDbLine
 10
-157.9000000000104
 20
-258.8327939598603
 30
0.0
 11
-57.90000000000691
 21
-192.166297528156
 31
0.0
  0
LINE
  5
26A6
330
2C50
100
AcDbEntity
  8
0
 62
     0
100
AcDbLine
 10
-57.90000000000691
 20
-189.1663309927407
 30
0.0
 11
89.9498740273666
 21
-90.600000000004
 31
0.0
  0
LINE
  5
26A7
330
2C50
100
AcDbEntity
  8
0
 62
     0
100
AcDbLine
 10
-157.9000000000104
 20
-255.832827424445
 30
0.0
 11
-57.90000000000691
 21
-189.1663309927407
 31
0.0
  0
LINE
  5
26A8
330
2C50
100
AcDbEntity
  8
0
 62
     0
100
AcDbLine
 10
-57.90000000000509
 20
-186.1663644573218
 30
0.0
 11
85.44991273348205
 21
-90.600000000004
 31
0.0
  0
LINE
  5
26A9
330
2C50
100
AcDbEntity
  8
0
 62
     0
100
AcDbLine
 10
-157.9000000000104
 20
-252.8328608890279
 30
0.0
 11
-57.90000000000509
 21
-186.1663644573218
 31
0.0
  0
LINE
  5
26AA
330
2C50
100
AcDbEntity
  8
0
 62
     0
100
AcDbLine
 10
-57.90000000000509
 20
-183.1663979219083
 30
0.0
 11
80.94995143959932
 21
-90.600000000004
 31
0.0
  0
LINE
  5
26AB
330
2C50
100
AcDbEntity
  8
0
 62
     0
100
AcDbLine
 10
-157.9000000000086
 20
-249.8328943536126
 30
0.0
 11
-57.90000000000509
 21
-183.1663979219083
 31
0.0
  0
LINE
  5
26AC
330
2C50
100
AcDbEntity
  8
0
 62
     0
100
AcDbLine
 10
-57.90000000000509
 20
-180.1664313864893
 30
0.0
 11
76.44999014571294
 21
-90.6000000000022
 31
0.0
  0
LINE
  5
26AD
330
2C50
100
AcDbEntity
  8
0
 62
     0
100
AcDbLine
 10
-157.9000000000104
 20
-246.8329278181973
 30
0.0
 11
-57.90000000000509
 21
-180.1664313864893
 31
0.0
  0
LINE
  5
26AE
330
2C50
100
AcDbEntity
  8
0
 62
     0
100
AcDbLine
 10
-57.90000000000691
 20
-177.1664648510741
 30
0.0
 11
71.95002885182656
 21
-90.6000000000022
 31
0.0
  0
LINE
  5
26AF
330
2C50
100
AcDbEntity
  8
0
 62
     0
100
AcDbLine
 10
-157.9000000000104
 20
-243.8329612827784
 30
0.0
 11
-57.90000000000691
 21
-177.1664648510741
 31
0.0
  0
LINE
  5
26B0
330
2C50
100
AcDbEntity
  8
0
 62
     0
100
AcDbLine
 10
-57.90000000000509
 20
-174.1664983156588
 30
0.0
 11
67.4500675579402
 21
-90.600000000004
 31
0.0
  0
LINE
  5
26B1
330
2C50
100
AcDbEntity
  8
0
 62
     0
100
AcDbLine
 10
-157.9000000000069
 20
-240.832994747363
 30
0.0
 11
-57.90000000000509
 21
-174.1664983156588
 31
0.0
  0
LINE
  5
26B2
330
2C50
100
AcDbEntity
  8
0
 62
     0
100
AcDbLine
 10
-57.90000000000691
 20
-171.1665317802417
 30
0.0
 11
62.95010626405566
 21
-90.6000000000022
 31
0.0
  0
LINE
  5
26B3
330
2C50
100
AcDbEntity
  8
0
 62
     0
100
AcDbLine
 10
-157.9000000000104
 20
-237.8330282119459
 30
0.0
 11
-57.90000000000691
 21
-171.1665317802417
 31
0.0
  0
LINE
  5
26B4
330
2C50
100
AcDbEntity
  8
0
 62
     0
100
AcDbLine
 10
-57.90000000000691
 20
-168.1665652448264
 30
0.0
 11
58.45014497016927
 21
-90.600000000004
 31
0.0
  0
LINE
  5
26B5
330
2C50
100
AcDbEntity
  8
0
 62
     0
100
AcDbLine
 10
-157.9000000000086
 20
-234.8330616765306
 30
0.0
 11
-57.90000000000691
 21
-168.1665652448264
 31
0.0
  0
LINE
  5
26B6
330
2C50
100
AcDbEntity
  8
0
 62
     0
100
AcDbLine
 10
-57.90000000000691
 20
-165.1665987094093
 30
0.0
 11
53.95018367628472
 21
-90.6000000000022
 31
0.0
  0
LINE
  5
26B7
330
2C50
100
AcDbEntity
  8
0
 62
     0
100
AcDbLine
 10
-157.9000000000104
 20
-231.8330951411152
 30
0.0
 11
-57.90000000000691
 21
-165.1665987094093
 31
0.0
  0
LINE
  5
26B8
330
2C50
100
AcDbEntity
  8
0
 62
     0
100
AcDbLine
 10
-57.90000000000509
 20
-162.166632173994
 30
0.0
 11
49.45022238240198
 21
-90.6000000000022
 31
0.0
  0
LINE
  5
26B9
330
2C50
100
AcDbEntity
  8
0
 62
     0
100
AcDbLine
 10
-157.9000000000051
 20
-228.8331286056964
 30
0.0
 11
-57.90000000000509
 21
-162.166632173994
 31
0.0
  0
LINE
  5
26BA
330
2C50
100
AcDbEntity
  8
0
 62
     0
100
AcDbLine
 10
-57.90000000000691
 20
-159.1666656385787
 30
0.0
 11
44.95026108851377
 21
-90.6000000000022
 31
0.0
  0
LINE
  5
26BB
330
2C50
100
AcDbEntity
  8
0
 62
     0
100
AcDbLine
 10
-157.9000000000069
 20
-225.8331620702811
 30
0.0
 11
-57.90000000000691
 21
-159.1666656385787
 31
0.0
  0
LINE
  5
26BC
330
2C50
100
AcDbEntity
  8
0
 62
     0
100
AcDbLine
 10
-57.90000000000691
 20
-156.1666991031616
 30
0.0
 11
40.45029979462738
 21
-90.600000000004
 31
0.0
  0
LINE
  5
26BD
330
2C50
100
AcDbEntity
  8
0
 62
     0
100
AcDbLine
 10
-157.9000000000069
 20
-222.833195534864
 30
0.0
 11
-57.90000000000691
 21
-156.1666991031616
 31
0.0
  0
LINE
  5
26BE
330
2C50
100
AcDbEntity
  8
0
 62
     0
100
AcDbLine
 10
-57.90000000000327
 20
-153.1667325677444
 30
0.0
 11
35.95033850074287
 21
-90.600000000004
 31
0.0
  0
LINE
  5
26BF
330
2C50
100
AcDbEntity
  8
0
 62
     0
100
AcDbLine
 10
-157.9000000000069
 20
-219.8332289994487
 30
0.0
 11
-57.90000000000327
 21
-153.1667325677444
 31
0.0
  0
LINE
  5
26C0
330
2C50
100
AcDbEntity
  8
0
 62
     0
100
AcDbLine
 10
-57.90000000000691
 20
-150.1667660323292
 30
0.0
 11
31.45037720685832
 21
-90.6000000000022
 31
0.0
  0
LINE
  5
26C1
330
2C50
100
AcDbEntity
  8
0
 62
     0
100
AcDbLine
 10
-157.9000000000069
 20
-216.8332624640316
 30
0.0
 11
-57.90000000000691
 21
-150.1667660323292
 31
0.0
  0
LINE
  5
26C2
330
2C50
100
AcDbEntity
  8
0
 62
     0
100
AcDbLine
 10
-57.90000000000509
 20
-147.166799496912
 30
0.0
 11
26.95041591297013
 21
-90.6000000000022
 31
0.0
  0
LINE
  5
26C3
330
2C50
100
AcDbEntity
  8
0
 62
     0
100
AcDbLine
 10
-157.9000000000069
 20
-213.8332959286145
 30
0.0
 11
-57.90000000000509
 21
-147.166799496912
 31
0.0
  0
LINE
  5
26C4
330
2C50
100
AcDbEntity
  8
0
 62
     0
100
AcDbLine
 10
-57.90000000000691
 20
-144.1668329614986
 30
0.0
 11
22.45045461908558
 21
-90.600000000004
 31
0.0
  0
LINE
  5
26C5
330
2C50
100
AcDbEntity
  8
0
 62
     0
100
AcDbLine
 10
-157.9000000000069
 20
-210.833329393201
 30
0.0
 11
-57.90000000000691
 21
-144.1668329614986
 31
0.0
  0
LINE
  5
26C6
330
2C50
100
AcDbEntity
  8
0
 62
     0
100
AcDbLine
 10
-57.90000000000327
 20
-141.1668664260796
 30
0.0
 11
17.95049332520102
 21
-90.600000000004
 31
0.0
  0
LINE
  5
26C7
330
2C50
100
AcDbEntity
  8
0
 62
     0
100
AcDbLine
 10
-157.9000000000051
 20
-207.8333628577821
 30
0.0
 11
-57.90000000000327
 21
-141.1668664260796
 31
0.0
  0
LINE
  5
26C8
330
2C50
100
AcDbEntity
  8
0
 62
     0
100
AcDbLine
 10
-57.90000000000873
 20
-138.1668998906643
 30
0.0
 11
13.45053203131465
 21
-90.6000000000022
 31
0.0
  0
LINE
  5
26C9
330
2C50
100
AcDbEntity
  8
0
 62
     0
100
AcDbLine
 10
-157.9000000000086
 20
-204.8333963223667
 30
0.0
 11
-57.90000000000873
 21
-138.1668998906643
 31
0.0
  0
LINE
  5
26CA
330
2C50
100
AcDbEntity
  8
0
 62
     0
100
AcDbLine
 10
-57.90000000000509
 20
-135.1669333552472
 30
0.0
 11
8.950570737430098
 21
-90.6000000000022
 31
0.0
  0
LINE
  5
26CB
330
2C50
100
AcDbEntity
  8
0
 62
     0
100
AcDbLine
 10
-157.9000000000069
 20
-201.8334297869496
 30
0.0
 11
-57.90000000000509
 21
-135.1669333552472
 31
0.0
  0
LINE
  5
26CC
330
2C50
100
AcDbEntity
  8
0
 62
     0
100
AcDbLine
 10
-57.90000000000327
 20
-132.16696681983
 30
0.0
 11
4.450609443543726
 21
-90.6000000000022
 31
0.0
  0
LINE
  5
26CD
330
2C50
100
AcDbEntity
  8
0
 62
     0
100
AcDbLine
 10
-157.9000000000069
 20
-198.8334632515343
 30
0.0
 11
-57.90000000000327
 21
-132.16696681983
 31
0.0
  0
LINE
  5
26CE
330
2C50
100
AcDbEntity
  8
0
 62
     0
100
AcDbLine
 10
-57.90000000000509
 20
-129.1670002844166
 30
0.0
 11
-0.0493518503408268
 21
-90.6000000000022
 31
0.0
  0
LINE
  5
26CF
330
2C50
100
AcDbEntity
  8
0
 62
     0
100
AcDbLine
 10
-157.9000000000069
 20
-195.8334967161189
 30
0.0
 11
-57.90000000000509
 21
-129.1670002844166
 31
0.0
  0
LINE
  5
26D0
330
2C50
100
AcDbEntity
  8
0
 62
     0
100
AcDbLine
 10
-57.90000000000509
 20
-126.1670337489977
 30
0.0
 11
-4.549313144227197
 21
-90.6000000000022
 31
0.0
  0
LINE
  5
26D1
330
2C50
100
AcDbEntity
  8
0
 62
     0
100
AcDbLine
 10
-157.9000000000086
 20
-192.8335301807019
 30
0.0
 11
-57.90000000000509
 21
-126.1670337489977
 31
0.0
  0
LINE
  5
26D2
330
2C50
100
AcDbEntity
  8
0
 62
     0
100
AcDbLine
 10
-57.90000000000509
 20
-123.1670672135842
 30
0.0
 11
-9.049274438111751
 21
-90.600000000004
 31
0.0
  0
LINE
  5
26D3
330
2C50
100
AcDbEntity
  8
0
 62
     0
100
AcDbLine
 10
-157.9000000000069
 20
-189.8335636452866
 30
0.0
 11
-57.90000000000509
 21
-123.1670672135842
 31
0.0
  0
LINE
  5
26D4
330
2C50
100
AcDbEntity
  8
0
 62
     0
100
AcDbLine
 10
-57.90000000000509
 20
-120.1671006781653
 30
0.0
 11
-13.54923573199994
 21
-90.6000000000022
 31
0.0
  0
LINE
  5
26D5
330
2C50
100
AcDbEntity
  8
0
 62
     0
100
AcDbLine
 10
-157.9000000000051
 20
-186.8335971098677
 30
0.0
 11
-57.90000000000509
 21
-120.1671006781653
 31
0.0
  0
LINE
  5
26D6
330
2C50
100
AcDbEntity
  8
0
 62
     0
100
AcDbLine
 10
-57.90000000000691
 20
-117.1671341427518
 30
0.0
 11
-18.04919702588449
 21
-90.6000000000022
 31
0.0
  0
LINE
  5
26D7
330
2C50
100
AcDbEntity
  8
0
 62
     0
100
AcDbLine
 10
-157.9000000000086
 20
-183.833630574454
 30
0.0
 11
-57.90000000000691
 21
-117.1671341427518
 31
0.0
  0
LINE
  5
26D8
330
2C50
100
AcDbEntity
  8
0
 62
     0
100
AcDbLine
 10
-57.90000000000509
 20
-114.1671676073329
 30
0.0
 11
-22.54915831976905
 21
-90.6000000000022
 31
0.0
  0
LINE
  5
26D9
330
2C50
100
AcDbEntity
  8
0
 62
     0
100
AcDbLine
 10
-157.9000000000051
 20
-180.8336640390371
 30
0.0
 11
-57.90000000000509
 21
-114.1671676073329
 31
0.0
  0
LINE
  5
26DA
330
2C50
100
AcDbEntity
  8
0
 62
     0
100
AcDbLine
 10
-57.90000000000509
 20
-111.1672010719194
 30
0.0
 11
-27.0491196136536
 21
-90.600000000004
 31
0.0
  0
LINE
  5
26DB
330
2C50
100
AcDbEntity
  8
0
 62
     0
100
AcDbLine
 10
-157.9000000000069
 20
-177.8336975036218
 30
0.0
 11
-57.90000000000509
 21
-111.1672010719194
 31
0.0
  0
LINE
  5
26DC
330
2C50
100
AcDbEntity
  8
0
 62
     0
100
AcDbLine
 10
-57.90000000000509
 20
-108.1672345365023
 30
0.0
 11
-31.54908090754179
 21
-90.600000000004
 31
0.0
  0
LINE
  5
26DD
330
2C50
100
AcDbEntity
  8
0
 62
     0
100
AcDbLine
 10
-157.9000000000051
 20
-174.8337309682047
 30
0.0
 11
-57.90000000000509
 21
-108.1672345365023
 31
0.0
  0
LINE
  5
26DE
330
2C50
100
AcDbEntity
  8
0
 62
     0
100
AcDbLine
 10
-57.90000000000509
 20
-105.1672680010852
 30
0.0
 11
-36.04904220142636
 21
-90.6000000000022
 31
0.0
  0
LINE
  5
26DF
330
2C50
100
AcDbEntity
  8
0
 62
     0
100
AcDbLine
 10
-157.9000000000086
 20
-171.8337644327894
 30
0.0
 11
-57.90000000000691
 21
-105.167268001087
 31
0.0
  0
LINE
  5
26E0
330
2C50
100
AcDbEntity
  8
0
 62
     0
100
AcDbLine
 10
-57.90000000000509
 20
-102.1673014656699
 30
0.0
 11
-40.5490034953109
 21
-90.6000000000022
 31
0.0
  0
LINE
  5
26E1
330
2C50
100
AcDbEntity
  8
0
 62
     0
100
AcDbLine
 10
-157.9000000000051
 20
-168.8337978973722
 30
0.0
 11
-57.90000000000509
 21
-102.1673014656699
 31
0.0
  0
LINE
  5
26E2
330
2C50
100
AcDbEntity
  8
0
 62
     0
100
AcDbLine
 10
-57.90000000000509
 20
-99.16733493025093
 30
0.0
 11
-45.04896478919727
 21
-90.6000000000022
 31
0.0
  0
LINE
  5
26E3
330
2C50
100
AcDbEntity
  8
0
 62
     0
100
AcDbLine
 10
-157.9000000000086
 20
-165.833831361957
 30
0.0
 11
-57.90000000000509
 21
-99.16733493025093
 31
0.0
  0
LINE
  5
26E4
330
2C50
100
AcDbEntity
  8
0
 62
     0
100
AcDbLine
 10
-57.90000000000691
 20
-96.16736839483744
 30
0.0
 11
-49.54892608308546
 21
-90.600000000004
 31
0.0
  0
LINE
  5
26E5
330
2C50
100
AcDbEntity
  8
0
 62
     0
100
AcDbLine
 10
-157.9000000000069
 20
-162.8338648265398
 30
0.0
 11
-57.90000000000691
 21
-96.16736839483744
 31
0.0
  0
LINE
  5
26E6
330
2C50
100
AcDbEntity
  8
0
 62
     0
100
AcDbLine
 10
-57.90000000000509
 20
-93.16740185942036
 30
0.0
 11
-54.04888737696637
 21
-90.6000000000022
 31
0.0
  0
LINE
  5
26E7
330
2C50
100
AcDbEntity
  8
0
 62
     0
100
AcDbLine
 10
-157.9000000000051
 20
-159.8338982911227
 30
0.0
 11
-57.90000000000509
 21
-93.16740185942036
 31
0.0
  0
LINE
  5
26E8
330
2C50
100
AcDbEntity
  8
0
 62
     0
100
AcDbLine
 10
-157.9000000000051
 20
-156.8339317557074
 30
0.0
 11
-58.54884867085274
 21
-90.6000000000022
 31
0.0
  0
LINE
  5
26E9
330
2C50
100
AcDbEntity
  8
0
 62
     0
100
AcDbLine
 10
-157.9000000000069
 20
-153.8339652202903
 30
0.0
 11
-63.04880996474093
 21
-90.6000000000022
 31
0.0
  0
LINE
  5
26EA
330
2C50
100
AcDbEntity
  8
0
 62
     0
100
AcDbLine
 10
-157.9000000000069
 20
-150.8339986848768
 30
0.0
 11
-67.54877125862368
 21
-90.6000000000022
 31
0.0
  0
LINE
  5
26EB
330
2C50
100
AcDbEntity
  8
0
 62
     0
100
AcDbLine
 10
-157.9000000000051
 20
-147.8340321494579
 30
0.0
 11
-72.04873255250823
 21
-90.6000000000022
 31
0.0
  0
LINE
  5
26EC
330
2C50
100
AcDbEntity
  8
0
 62
     0
100
AcDbLine
 10
-157.9000000000069
 20
-144.8340656140444
 30
0.0
 11
-76.54869384639642
 21
-90.600000000004
 31
0.0
  0
LINE
  5
26ED
330
2C50
100
AcDbEntity
  8
0
 62
     0
100
AcDbLine
 10
-157.9000000000069
 20
-141.8340990786255
 30
0.0
 11
-81.04865514028279
 21
-90.6000000000022
 31
0.0
  0
LINE
  5
26EE
330
2C50
100
AcDbEntity
  8
0
 62
     0
100
AcDbLine
 10
-157.9000000000051
 20
-138.8341325432102
 30
0.0
 11
-85.54861643416549
 21
-90.6000000000022
 31
0.0
  0
LINE
  5
26EF
330
2C50
100
AcDbEntity
  8
0
 62
     0
100
AcDbLine
 10
-157.9000000000069
 20
-135.8341660077948
 30
0.0
 11
-90.04857772805189
 21
-90.6000000000022
 31
0.0
  0
LINE
  5
26F0
330
2C50
100
AcDbEntity
  8
0
 62
     0
100
AcDbLine
 10
-157.9000000000069
 20
-132.8341994723778
 30
0.0
 11
-94.54853902194008
 21
-90.600000000004
 31
0.0
  0
LINE
  5
26F1
330
2C50
100
AcDbEntity
  8
0
 62
     0
100
AcDbLine
 10
-157.9000000000069
 20
-129.8342329369625
 30
0.0
 11
-99.04850031582464
 21
-90.600000000004
 31
0.0
  0
LINE
  5
26F2
330
2C50
100
AcDbEntity
  8
0
 62
     0
100
AcDbLine
 10
-157.9000000000051
 20
-126.8342664015436
 30
0.0
 11
-103.5484616097073
 21
-90.60000000000036
 31
0.0
  0
LINE
  5
26F3
330
2C50
100
AcDbEntity
  8
0
 62
     0
100
AcDbLine
 10
-157.9000000000069
 20
-123.8342998661301
 30
0.0
 11
-108.0484229035937
 21
-90.6000000000022
 31
0.0
  0
LINE
  5
26F4
330
2C50
100
AcDbEntity
  8
0
 62
     0
100
AcDbLine
 10
-157.9000000000069
 20
-120.834333330713
 30
0.0
 11
-112.5483841974818
 21
-90.6000000000022
 31
0.0
  0
LINE
  5
26F5
330
2C50
100
AcDbEntity
  8
0
 62
     0
100
AcDbLine
 10
-157.9000000000069
 20
-117.8343667952977
 30
0.0
 11
-117.0483454913628
 21
-90.6000000000022
 31
0.0
  0
LINE
  5
26F6
330
2C50
100
AcDbEntity
  8
0
 62
     0
100
AcDbLine
 10
-157.9000000000069
 20
-114.8344002598805
 30
0.0
 11
-121.548306785251
 21
-90.6000000000022
 31
0.0
  0
LINE
  5
26F7
330
2C50
100
AcDbEntity
  8
0
 62
     0
100
AcDbLine
 10
-157.9000000000051
 20
-111.8344337244634
 30
0.0
 11
-126.0482680791356
 21
-90.60000000000036
 31
0.0
  0
LINE
  5
26F8
330
2C50
100
AcDbEntity
  8
0
 62
     0
100
AcDbLine
 10
-157.9000000000069
 20
-108.8344671890481
 30
0.0
 11
-130.5482293730238
 21
-90.6000000000022
 31
0.0
  0
LINE
  5
26F9
330
2C50
100
AcDbEntity
  8
0
 62
     0
100
AcDbLine
 10
-157.9000000000033
 20
-105.834500653631
 30
0.0
 11
-135.0481906669047
 21
-90.6000000000022
 31
0.0
  0
LINE
  5
26FA
330
2C50
100
AcDbEntity
  8
0
 62
     0
100
AcDbLine
 10
-157.9000000000069
 20
-102.8345341182157
 30
0.0
 11
-139.5481519607927
 21
-90.6000000000022
 31
0.0
  0
LINE
  5
26FB
330
2C50
100
AcDbEntity
  8
0
 62
     0
100
AcDbLine
 10
-157.9000000000051
 20
-99.83456758280045
 30
0.0
 11
-144.0481132546774
 21
-90.6000000000022
 31
0.0
  0
LINE
  5
26FC
330
2C50
100
AcDbEntity
  8
0
 62
     0
100
AcDbLine
 10
-157.9000000000069
 20
-96.8346010473833
 30
0.0
 11
-148.5480745485656
 21
-90.600000000004
 31
0.0
  0
LINE
  5
26FD
330
2C50
100
AcDbEntity
  8
0
 62
     0
100
AcDbLine
 10
-157.9000000000069
 20
-93.83463451196803
 30
0.0
 11
-153.0480358424483
 21
-90.6000000000022
 31
0.0
  0
LINE
  5
26FE
330
2C50
100
AcDbEntity
  8
0
 62
     0
100
AcDbLine
 10
-157.9000000000086
 20
-90.83466797655271
 30
0.0
 11
-157.5479971363365
 21
-90.6000000000022
 31
0.0
  0
ENDBLK
  5
26FF
330
2C50
100
AcDbEntity
  8
0
100
AcDbBlockEnd
  0
BLOCK
  5
2C53
330
2C52
100
AcDbEntity
  8
0
100
AcDbBlockBegin
  2
*X77
 70
     1
 10
0.0
 20
0.0
 30
0.0
  3
*X77
  1

  0
LINE
  5
2702
330
2C52
100
AcDbEntity
  8
0
 62
     0
100
AcDbLine
 10
-157.9000000000014
 20
-362.9313771232101
 30
0.0
 11
-155.6970600595541
 21
-364.4000000000015
 31
0.0
  0
LINE
  5
2703
330
2C52
100
AcDbEntity
  8
0
 62
     0
100
AcDbLine
 10
-157.9000000000014
 20
-359.931410587793
 30
0.0
 11
-151.1970987656676
 21
-364.4000000000015
 31
0.0
  0
LINE
  5
2704
330
2C52
100
AcDbEntity
  8
0
 62
     0
100
AcDbLine
 10
-157.9000000000051
 20
-356.9314440523776
 30
0.0
 11
-146.6971374717832
 21
-364.4000000000015
 31
0.0
  0
LINE
  5
2705
330
2C52
100
AcDbEntity
  8
0
 62
     0
100
AcDbLine
 10
-157.9000000000014
 20
-353.9314775169605
 30
0.0
 11
-142.1971761778986
 21
-364.3999999999997
 31
0.0
  0
LINE
  5
2706
330
2C52
100
AcDbEntity
  8
0
 62
     0
100
AcDbLine
 10
-157.9000000000033
 20
-350.9315109815434
 30
0.0
 11
-137.6972148840122
 21
-364.3999999999997
 31
0.0
  0
LINE
  5
2707
330
2C52
100
AcDbEntity
  8
0
 62
     0
100
AcDbLine
 10
-157.9000000000033
 20
-347.9315444461282
 30
0.0
 11
-133.1972535901259
 21
-364.4000000000015
 31
0.0
  0
LINE
  5
2708
330
2C52
100
AcDbEntity
  8
0
 62
     0
100
AcDbLine
 10
-157.9000000000033
 20
-344.9315779107109
 30
0.0
 11
-128.6972922962432
 21
-364.3999999999997
 31
0.0
  0
LINE
  5
2709
330
2C52
100
AcDbEntity
  8
0
 62
     0
100
AcDbLine
 10
-157.9000000000014
 20
-341.9316113752957
 30
0.0
 11
-124.197331002355
 21
-364.3999999999997
 31
0.0
  0
LINE
  5
270A
330
2C52
100
AcDbEntity
  8
0
 62
     0
100
AcDbLine
 10
-157.9000000000033
 20
-338.9316448398786
 30
0.0
 11
-119.6973697084704
 21
-364.3999999999997
 31
0.0
  0
LINE
  5
270B
330
2C52
100
AcDbEntity
  8
0
 62
     0
100
AcDbLine
 10
-157.9000000000033
 20
-335.9316783044632
 30
0.0
 11
-115.1974084145859
 21
-364.4000000000015
 31
0.0
  0
LINE
  5
270C
330
2C52
100
AcDbEntity
  8
0
 62
     0
100
AcDbLine
 10
-157.9000000000033
 20
-332.9317117690461
 30
0.0
 11
-110.6974471207013
 21
-364.3999999999997
 31
0.0
  0
LINE
  5
270D
330
2C52
100
AcDbEntity
  8
0
 62
     0
100
AcDbLine
 10
-157.9000000000033
 20
-329.9317452336309
 30
0.0
 11
-106.1974858268131
 21
-364.4000000000015
 31
0.0
  0
LINE
  5
270E
330
2C52
100
AcDbEntity
  8
0
 62
     0
100
AcDbLine
 10
-157.9000000000033
 20
-326.9317786982156
 30
0.0
 11
-101.6975245329285
 21
-364.3999999999997
 31
0.0
  0
LINE
  5
270F
330
2C52
100
AcDbEntity
  8
0
 62
     0
100
AcDbLine
 10
-157.9000000000033
 20
-323.9318121627984
 30
0.0
 11
-97.19756323904221
 21
-364.4000000000015
 31
0.0
  0
LINE
  5
2710
330
2C52
100
AcDbEntity
  8
0
 62
     0
100
AcDbLine
 10
-157.9000000000033
 20
-320.9318456273812
 30
0.0
 11
-92.69760194515765
 21
-364.3999999999997
 31
0.0
  0
LINE
  5
2711
330
2C52
100
AcDbEntity
  8
0
 62
     0
100
AcDbLine
 10
-157.9000000000033
 20
-317.931879091966
 30
0.0
 11
-88.19764065127129
 21
-364.4000000000015
 31
0.0
  0
LINE
  5
2712
330
2C52
100
AcDbEntity
  8
0
 62
     0
100
AcDbLine
 10
-157.9000000000033
 20
-314.9319125565507
 30
0.0
 11
-83.69767935738673
 21
-364.4000000000015
 31
0.0
  0
LINE
  5
2713
330
2C52
100
AcDbEntity
  8
0
 62
     0
100
AcDbLine
 10
-157.9000000000014
 20
-311.9319460211336
 30
0.0
 11
-79.19771806350034
 21
-364.3999999999977
 31
0.0
  0
LINE
  5
2714
330
2C52
100
AcDbEntity
  8
0
 62
     0
100
AcDbLine
 10
-157.9000000000014
 20
-308.9319794857182
 30
0.0
 11
-74.69775676961581
 21
-364.3999999999997
 31
0.0
  0
LINE
  5
2715
330
2C52
100
AcDbEntity
  8
0
 62
     0
100
AcDbLine
 10
-157.9000000000033
 20
-305.9320129503011
 30
0.0
 11
-70.19779547572944
 21
-364.3999999999997
 31
0.0
  0
LINE
  5
2716
330
2C52
100
AcDbEntity
  8
0
 62
     0
100
AcDbLine
 10
-157.9000000000033
 20
-302.9320464148841
 30
0.0
 11
-65.69783418184306
 21
-364.4000000000015
 31
0.0
  0
LINE
  5
2717
330
2C52
100
AcDbEntity
  8
0
 62
     0
100
AcDbLine
 10
-157.9000000000014
 20
-299.9320798794688
 30
0.0
 11
-61.19787288795851
 21
-364.3999999999997
 31
0.0
  0
LINE
  5
2718
330
2C52
100
AcDbEntity
  8
0
 62
     0
100
AcDbLine
 10
-157.9000000000033
 20
-296.9321133440535
 30
0.0
 11
-56.69791159407032
 21
-364.4000000000033
 31
0.0
  0
LINE
  5
2719
330
2C52
100
AcDbEntity
  8
0
 62
     0
100
AcDbLine
 10
-157.9000000000033
 20
-293.9321468086362
 30
0.0
 11
-52.19795030018758
 21
-364.3999999999997
 31
0.0
  0
LINE
  5
271A
330
2C52
100
AcDbEntity
  8
0
 62
     0
100
AcDbLine
 10
-157.9000000000014
 20
-290.9321802732208
 30
0.0
 11
-47.69798900629938
 21
-364.4000000000015
 31
0.0
  0
LINE
  5
271B
330
2C52
100
AcDbEntity
  8
0
 62
     0
100
AcDbLine
 10
-157.9000000000033
 20
-287.932213737804
 30
0.0
 11
-43.19802771241666
 21
-364.3999999999997
 31
0.0
  0
LINE
  5
271C
330
2C52
100
AcDbEntity
  8
0
 62
     0
100
AcDbLine
 10
-157.9000000000033
 20
-284.9322472023887
 30
0.0
 11
-38.69806641852847
 21
-364.4000000000033
 31
0.0
  0
LINE
  5
271D
330
2C52
100
AcDbEntity
  8
0
 62
     0
100
AcDbLine
 10
-157.9000000000033
 20
-281.9322806669715
 30
0.0
 11
-34.19810512464575
 21
-364.3999999999997
 31
0.0
  0
LINE
  5
271E
330
2C52
100
AcDbEntity
  8
0
 62
     0
100
AcDbLine
 10
-157.9000000000014
 20
-278.9323141315563
 30
0.0
 11
-29.69814383075755
 21
-364.4000000000015
 31
0.0
  0
LINE
  5
271F
330
2C52
100
AcDbEntity
  8
0
 62
     0
100
AcDbLine
 10
-157.9000000000051
 20
-275.9323475961391
 30
0.0
 11
-25.19818253687481
 21
-364.3999999999997
 31
0.0
  0
LINE
  5
2720
330
2C52
100
AcDbEntity
  8
0
 62
     0
100
AcDbLine
 10
-157.9000000000014
 20
-272.9323810607239
 30
0.0
 11
-20.69822124298844
 21
-364.4000000000015
 31
0.0
  0
LINE
  5
2721
330
2C52
100
AcDbEntity
  8
0
 62
     0
100
AcDbLine
 10
-157.9000000000033
 20
-269.9324145253068
 30
0.0
 11
-16.19825994910207
 21
-364.4000000000015
 31
0.0
  0
LINE
  5
2722
330
2C52
100
AcDbEntity
  8
0
 62
     0
100
AcDbLine
 10
-157.9000000000033
 20
-266.9324479898896
 30
0.0
 11
-11.69829865521933
 21
-364.3999999999977
 31
0.0
  0
LINE
  5
2723
330
2C52
100
AcDbEntity
  8
0
 62
     0
100
AcDbLine
 10
-157.9000000000051
 20
-263.9324814544744
 30
0.0
 11
-7.198337361331137
 21
-364.4000000000015
 31
0.0
  0
LINE
  5
2724
330
2C52
100
AcDbEntity
  8
0
 62
     0
100
AcDbLine
 10
-157.9000000000014
 20
-260.9325149190572
 30
0.0
 11
-2.698376067444768
 21
-364.3999999999997
 31
0.0
  0
LINE
  5
2725
330
2C52
100
AcDbEntity
  8
0
 62
     0
100
AcDbLine
 10
-157.9000000000014
 20
-257.9325483836419
 30
0.0
 11
1.80158522643978
 21
-364.4000000000015
 31
0.0
  0
LINE
  5
2726
330
2C52
100
AcDbEntity
  8
0
 62
     0
100
AcDbLine
 10
-157.9000000000033
 20
-254.9325818482248
 30
0.0
 11
6.301546520322513
 21
-364.3999999999997
 31
0.0
  0
LINE
  5
2727
330
2C52
100
AcDbEntity
  8
0
 62
     0
100
AcDbLine
 10
-157.9000000000014
 20
-251.9326153128113
 30
0.0
 11
10.80150781421252
 21
-364.4000000000033
 31
0.0
  0
LINE
  5
2728
330
2C52
100
AcDbEntity
  8
0
 62
     0
100
AcDbLine
 10
-157.9000000000033
 20
-248.9326487773924
 30
0.0
 11
15.30146910809708
 21
-364.3999999999997
 31
0.0
  0
LINE
  5
2729
330
2C52
100
AcDbEntity
  8
0
 62
     0
100
AcDbLine
 10
-157.9000000000014
 20
-245.9326822419789
 30
0.0
 11
19.80143040198163
 21
-364.4000000000015
 31
0.0
  0
LINE
  5
272A
330
2C52
100
AcDbEntity
  8
0
 62
     0
100
AcDbLine
 10
-157.9000000000033
 20
-242.93271570656
 30
0.0
 11
24.30139169586983
 21
-364.4000000000015
 31
0.0
  0
LINE
  5
272B
330
2C52
100
AcDbEntity
  8
0
 62
     0
100
AcDbLine
 10
-157.9000000000014
 20
-239.9327491711447
 30
0.0
 11
28.80135298975256
 21
-364.4000000000015
 31
0.0
  0
LINE
  5
272C
330
2C52
100
AcDbEntity
  8
0
 62
     0
100
AcDbLine
 10
-157.9000000000033
 20
-236.9327826357276
 30
0.0
 11
33.30131428363893
 21
-364.4000000000015
 31
0.0
  0
LINE
  5
272D
330
2C52
100
AcDbEntity
  8
0
 62
     0
100
AcDbLine
 10
-157.9000000000033
 20
-233.9328161003141
 30
0.0
 11
37.80127557752166
 21
-364.3999999999997
 31
0.0
  0
LINE
  5
272E
330
2C52
100
AcDbEntity
  8
0
 62
     0
100
AcDbLine
 10
-157.9000000000033
 20
-230.932849564897
 30
0.0
 11
42.30123687141167
 21
-364.4000000000015
 31
0.0
  0
LINE
  5
272F
330
2C52
100
AcDbEntity
  8
0
 62
     0
100
AcDbLine
 10
-157.8999999999996
 20
-227.9328830294817
 30
0.0
 11
46.80119816529439
 21
-364.3999999999997
 31
0.0
  0
LINE
  5
2730
330
2C52
100
AcDbEntity
  8
0
 62
     0
100
AcDbLine
 10
-157.8999999999996
 20
-224.9329164940664
 30
0.0
 11
51.30115945918078
 21
-364.4000000000015
 31
0.0
  0
LINE
  5
2731
330
2C52
100
AcDbEntity
  8
0
 62
     0
100
AcDbLine
 10
-157.8999999999996
 20
-221.9329499586493
 30
0.0
 11
55.80112075306715
 21
-364.4000000000015
 31
0.0
  0
LINE
  5
2732
330
2C52
100
AcDbEntity
  8
0
 62
     0
100
AcDbLine
 10
-157.8999999999996
 20
-218.9329834232339
 30
0.0
 11
60.30108204695534
 21
-364.4000000000015
 31
0.0
  0
LINE
  5
2733
330
2C52
100
AcDbEntity
  8
0
 62
     0
100
AcDbLine
 10
-57.89999999999782
 20
-282.5995133195192
 30
0.0
 11
-55.1992630828845
 21
-284.3999999999978
 31
0.0
  0
LINE
  5
2734
330
2C52
100
AcDbEntity
  8
0
 62
     0
100
AcDbLine
 10
-55.1992630828845
 20
-284.3999999999978
 30
0.0
 11
64.80104334083626
 21
-364.3999999999997
 31
0.0
  0
LINE
  5
2735
330
2C52
100
AcDbEntity
  8
0
 62
     0
100
AcDbLine
 10
-157.8999999999996
 20
-215.9330168878168
 30
0.0
 11
-57.89999999999782
 21
-282.5995133195192
 31
0.0
  0
LINE
  5
2736
330
2C52
100
AcDbEntity
  8
0
 62
     0
100
AcDbLine
 10
-57.89999999999962
 20
-279.5995467841058
 30
0.0
 11
-50.69930178900175
 21
-284.3999999999978
 31
0.0
  0
LINE
  5
2737
330
2C52
100
AcDbEntity
  8
0
 62
     0
100
AcDbLine
 10
-50.69930178900175
 20
-284.3999999999978
 30
0.0
 11
69.30100463472263
 21
-364.4000000000015
 31
0.0
  0
LINE
  5
2738
330
2C52
100
AcDbEntity
  8
0
 62
     0
100
AcDbLine
 10
-157.9000000000014
 20
-212.9330503524016
 30
0.0
 11
-57.89999999999962
 21
-279.5995467841058
 31
0.0
  0
LINE
  5
2739
330
2C52
100
AcDbEntity
  8
0
 62
     0
100
AcDbLine
 10
-57.89999999999962
 20
-276.5995802486868
 30
0.0
 11
-46.19934049511175
 21
-284.3999999999996
 31
0.0
  0
LINE
  5
273A
330
2C52
100
AcDbEntity
  8
0
 62
     0
100
AcDbLine
 10
-46.19934049511175
 20
-284.3999999999996
 30
0.0
 11
73.80096592860898
 21
-364.4000000000015
 31
0.0
  0
LINE
  5
273B
330
2C52
100
AcDbEntity
  8
0
 62
     0
100
AcDbLine
 10
-157.8999999999996
 20
-209.9330838169844
 30
0.0
 11
-57.89999999999962
 21
-276.5995802486868
 31
0.0
  0
LINE
  5
273C
330
2C52
100
AcDbEntity
  8
0
 62
     0
100
AcDbLine
 10
-57.89999999999782
 20
-273.5996137132734
 30
0.0
 11
-41.6993792012272
 21
-284.3999999999978
 31
0.0
  0
LINE
  5
273D
330
2C52
100
AcDbEntity
  8
0
 62
     0
100
AcDbLine
 10
-41.6993792012272
 20
-284.3999999999978
 30
0.0
 11
78.3009272224972
 21
-364.4000000000033
 31
0.0
  0
LINE
  5
273E
330
2C52
100
AcDbEntity
  8
0
 62
     0
100
AcDbLine
 10
-157.8999999999996
 20
-206.9331172815692
 30
0.0
 11
-57.89999999999782
 21
-273.5996137132734
 31
0.0
  0
LINE
  5
273F
330
2C52
100
AcDbEntity
  8
0
 62
     0
100
AcDbLine
 10
-57.89999999999962
 20
-270.5996471778544
 30
0.0
 11
-37.19941790734265
 21
-284.3999999999978
 31
0.0
  0
LINE
  5
2740
330
2C52
100
AcDbEntity
  8
0
 62
     0
100
AcDbLine
 10
-37.19941790734265
 20
-284.3999999999978
 30
0.0
 11
82.80088851637811
 21
-364.3999999999997
 31
0.0
  0
LINE
  5
2741
330
2C52
100
AcDbEntity
  8
0
 62
     0
100
AcDbLine
 10
-157.8999999999996
 20
-203.933150746152
 30
0.0
 11
-57.89999999999962
 21
-270.5996471778544
 31
0.0
  0
LINE
  5
2742
330
2C52
100
AcDbEntity
  8
0
 62
     0
100
AcDbLine
 10
-57.89999999999962
 20
-267.5996806424392
 30
0.0
 11
-32.69945661345629
 21
-284.3999999999996
 31
0.0
  0
LINE
  5
2743
330
2C52
100
AcDbEntity
  8
0
 62
     0
100
AcDbLine
 10
-32.69945661345629
 20
-284.3999999999996
 30
0.0
 11
87.3008498102663
 21
-364.4000000000015
 31
0.0
  0
LINE
  5
2744
330
2C52
100
AcDbEntity
  8
0
 62
     0
100
AcDbLine
 10
-157.8999999999996
 20
-200.9331842107367
 30
0.0
 11
-57.89999999999962
 21
-267.5996806424392
 31
0.0
  0
LINE
  5
2745
330
2C52
100
AcDbEntity
  8
0
 62
     0
100
AcDbLine
 10
-57.89999999999782
 20
-264.599714107022
 30
0.0
 11
-28.19949531956808
 21
-284.3999999999996
 31
0.0
  0
LINE
  5
2746
330
2C52
100
AcDbEntity
  8
0
 62
     0
100
AcDbLine
 10
-28.19949531956808
 20
-284.3999999999996
 30
0.0
 11
91.80081110415269
 21
-364.4000000000015
 31
0.0
  0
LINE
  5
2747
330
2C52
100
AcDbEntity
  8
0
 62
     0
100
AcDbLine
 10
-157.8999999999978
 20
-197.9332176753196
 30
0.0
 11
-57.89999999999782
 21
-264.599714107022
 31
0.0
  0
LINE
  5
2748
330
2C52
100
AcDbEntity
  8
0
 62
     0
100
AcDbLine
 10
-57.89999999999962
 20
-261.5997475716085
 30
0.0
 11
-23.69953402568535
 21
-284.3999999999996
 31
0.0
  0
LINE
  5
2749
330
2C52
100
AcDbEntity
  8
0
 62
     0
100
AcDbLine
 10
-23.69953402568535
 20
-284.3999999999996
 30
0.0
 11
96.3007723980354
 21
-364.4000000000015
 31
0.0
  0
LINE
  5
274A
330
2C52
100
AcDbEntity
  8
0
 62
     0
100
AcDbLine
 10
-157.9000000000014
 20
-194.9332511399043
 30
0.0
 11
-57.89999999999962
 21
-261.5997475716085
 31
0.0
  0
LINE
  5
274B
330
2C52
100
AcDbEntity
  8
0
 62
     0
100
AcDbLine
 10
-57.89999999999962
 20
-258.5997810361914
 30
0.0
 11
-19.1995727318008
 21
-284.3999999999978
 31
0.0
  0
LINE
  5
274C
330
2C52
100
AcDbEntity
  8
0
 62
     0
100
AcDbLine
 10
-19.1995727318008
 20
-284.3999999999978
 30
0.0
 11
100.8007336919199
 21
-364.4000000000015
 31
0.0
  0
LINE
  5
274D
330
2C52
100
AcDbEntity
  8
0
 62
     0
100
AcDbLine
 10
-157.9000000000014
 20
-191.9332846044872
 30
0.0
 11
-57.89999999999962
 21
-258.5997810361914
 31
0.0
  0
LINE
  5
274E
330
2C52
100
AcDbEntity
  8
0
 62
     0
100
AcDbLine
 10
-57.89999999999782
 20
-255.5998145007743
 30
0.0
 11
-14.69961143791261
 21
-284.3999999999978
 31
0.0
  0
LINE
  5
274F
330
2C52
100
AcDbEntity
  8
0
 62
     0
100
AcDbLine
 10
-14.69961143791261
 20
-284.3999999999978
 30
0.0
 11
105.3006949858099
 21
-364.3999999999997
 31
0.0
  0
LINE
  5
2750
330
2C52
100
AcDbEntity
  8
0
 62
     0
100
AcDbLine
 10
-157.8999999999996
 20
-188.9333180690701
 30
0.0
 11
-57.89999999999782
 21
-255.5998145007743
 31
0.0
  0
LINE
  5
2751
330
2C52
100
AcDbEntity
  8
0
 62
     0
100
AcDbLine
 10
-57.89999999999782
 20
-252.599847965359
 30
0.0
 11
-10.19965014402623
 21
-284.3999999999996
 31
0.0
  0
LINE
  5
2752
330
2C52
100
AcDbEntity
  8
0
 62
     0
100
AcDbLine
 10
-10.19965014402623
 20
-284.3999999999996
 30
0.0
 11
109.8006562796945
 21
-364.4000000000015
 31
0.0
  0
LINE
  5
2753
330
2C52
100
AcDbEntity
  8
0
 62
     0
100
AcDbLine
 10
-157.8999999999996
 20
-185.9333515336548
 30
0.0
 11
-57.89999999999782
 21
-252.599847965359
 31
0.0
  0
LINE
  5
2754
330
2C52
100
AcDbEntity
  8
0
 62
     0
100
AcDbLine
 10
-57.90000000000144
 20
-249.5998814299401
 30
0.0
 11
-5.699688850143502
 21
-284.3999999999978
 31
0.0
  0
LINE
  5
2755
330
2C52
100
AcDbEntity
  8
0
 62
     0
100
AcDbLine
 10
-5.699688850143502
 20
-284.3999999999978
 30
0.0
 11
114.3006175735772
 21
-364.3999999999997
 31
0.0
  0
LINE
  5
2756
330
2C52
100
AcDbEntity
  8
0
 62
     0
100
AcDbLine
 10
-157.9000000000014
 20
-182.9333849982377
 30
0.0
 11
-57.90000000000144
 21
-249.5998814299401
 31
0.0
  0
LINE
  5
2757
330
2C52
100
AcDbEntity
  8
0
 62
     0
100
AcDbLine
 10
-57.89999999999962
 20
-246.5999148945265
 30
0.0
 11
-1.199727556257129
 21
-284.3999999999996
 31
0.0
  0
LINE
  5
2758
330
2C52
100
AcDbEntity
  8
0
 62
     0
100
AcDbLine
 10
-1.199727556257129
 20
-284.3999999999996
 30
0.0
 11
118.8005788674672
 21
-364.4000000000033
 31
0.0
  0
LINE
  5
2759
330
2C52
100
AcDbEntity
  8
0
 62
     0
100
AcDbLine
 10
-157.8999999999996
 20
-179.9334184628222
 30
0.0
 11
-57.89999999999962
 21
-246.5999148945265
 31
0.0
  0
LINE
  5
275A
330
2C52
100
AcDbEntity
  8
0
 62
     0
100
AcDbLine
 10
-57.89999999999782
 20
-243.5999483591095
 30
0.0
 11
3.300233737629238
 21
-284.3999999999978
 31
0.0
  0
LINE
  5
275B
330
2C52
100
AcDbEntity
  8
0
 62
     0
100
AcDbLine
 10
3.300233737629238
 20
-284.3999999999978
 30
0.0
 11
123.3005401613518
 21
-364.4000000000015
 31
0.0
  0
LINE
  5
275C
330
2C52
100
AcDbEntity
  8
0
 62
     0
100
AcDbLine
 10
-157.8999999999996
 20
-176.9334519274071
 30
0.0
 11
-57.89999999999782
 21
-243.5999483591095
 31
0.0
  0
LINE
  5
275D
330
2C52
100
AcDbEntity
  8
0
 62
     0
100
AcDbLine
 10
-57.89999999999962
 20
-240.5999818236942
 30
0.0
 11
7.800195031511974
 21
-284.3999999999978
 31
0.0
  0
LINE
  5
275E
330
2C52
100
AcDbEntity
  8
0
 62
     0
100
AcDbLine
 10
7.800195031511974
 20
-284.3999999999978
 30
0.0
 11
127.8005014552364
 21
-364.4000000000015
 31
0.0
  0
LINE
  5
275F
330
2C52
100
AcDbEntity
  8
0
 62
     0
100
AcDbLine
 10
-157.8999999999996
 20
-173.9334853919918
 30
0.0
 11
-57.89999999999962
 21
-240.5999818236942
 31
0.0
  0
LINE
  5
2760
330
2C52
100
AcDbEntity
  8
0
 62
     0
100
AcDbLine
 10
-57.89999999999782
 20
-237.6000152882771
 30
0.0
 11
12.30015632539835
 21
-284.3999999999978
 31
0.0
  0
LINE
  5
2761
330
2C52
100
AcDbEntity
  8
0
 62
     0
100
AcDbLine
 10
12.30015632540198
 20
-284.3999999999996
 30
0.0
 11
132.3004627491209
 21
-364.3999999999997
 31
0.0
  0
LINE
  5
2762
330
2C52
100
AcDbEntity
  8
0
 62
     0
100
AcDbLine
 10
-157.8999999999996
 20
-170.9335188565744
 30
0.0
 11
-57.89999999999782
 21
-237.6000152882771
 31
0.0
  0
LINE
  5
2763
330
2C52
100
AcDbEntity
  8
0
 62
     0
100
AcDbLine
 10
-57.89999999999782
 20
-234.6000487528618
 30
0.0
 11
16.80011761928654
 21
-284.3999999999996
 31
0.0
  0
LINE
  5
2764
330
2C52
100
AcDbEntity
  8
0
 62
     0
100
AcDbLine
 10
16.80011761928654
 20
-284.3999999999996
 30
0.0
 11
136.8004240430073
 21
-364.4000000000015
 31
0.0
  0
LINE
  5
2765
330
2C52
100
AcDbEntity
  8
0
 62
     0
100
AcDbLine
 10
-157.8999999999978
 20
-167.9335523211593
 30
0.0
 11
-57.89999999999782
 21
-234.6000487528618
 31
0.0
  0
LINE
  5
2766
330
2C52
100
AcDbEntity
  8
0
 62
     0
100
AcDbLine
 10
-57.89999999999782
 20
-231.6000822174447
 30
0.0
 11
21.30007891317108
 21
-284.3999999999996
 31
0.0
  0
LINE
  5
2767
330
2C52
100
AcDbEntity
  8
0
 62
     0
100
AcDbLine
 10
21.30007891317108
 20
-284.3999999999996
 30
0.0
 11
141.3003853368936
 21
-364.4000000000015
 31
0.0
  0
LINE
  5
2768
330
2C52
100
AcDbEntity
  8
0
 62
     0
100
AcDbLine
 10
-157.8999999999996
 20
-164.9335857857422
 30
0.0
 11
-57.89999999999782
 21
-231.6000822174447
 31
0.0
  0
LINE
  5
2769
330
2C52
100
AcDbEntity
  8
0
 62
     0
100
AcDbLine
 10
-57.89999999999962
 20
-228.6001156820294
 30
0.0
 11
25.80004020705383
 21
-284.3999999999978
 31
0.0
  0
LINE
  5
276A
330
2C52
100
AcDbEntity
  8
0
 62
     0
100
AcDbLine
 10
25.80004020705747
 20
-284.3999999999996
 30
0.0
 11
145.8003466307746
 21
-364.4000000000015
 31
0.0
  0
LINE
  5
276B
330
2C52
100
AcDbEntity
  8
0
 62
     0
100
AcDbLine
 10
-157.9000000000014
 20
-161.9336192503251
 30
0.0
 11
-57.89999999999962
 21
-228.6001156820294
 31
0.0
  0
LINE
  5
276C
330
2C52
100
AcDbEntity
  8
0
 62
     0
100
AcDbLine
 10
-57.89999999999782
 20
-225.6001491466122
 30
0.0
 11
30.3000015009402
 21
-284.3999999999978
 31
0.0
  0
LINE
  5
276D
330
2C52
100
AcDbEntity
  8
0
 62
     0
100
AcDbLine
 10
30.30000150094384
 20
-284.3999999999996
 30
0.0
 11
150.3003079246646
 21
-364.4000000000015
 31
0.0
  0
LINE
  5
276E
330
2C52
100
AcDbEntity
  8
0
 62
     0
100
AcDbLine
 10
-157.8999999999996
 20
-158.9336527149098
 30
0.0
 11
-57.89999999999782
 21
-225.6001491466122
 31
0.0
  0
LINE
  5
276F
330
2C52
100
AcDbEntity
  8
0
 62
     0
100
AcDbLine
 10
-57.89999999999962
 20
-222.600182611197
 30
0.0
 11
34.79996279482839
 21
-284.3999999999996
 31
0.0
  0
LINE
  5
2770
330
2C52
100
AcDbEntity
  8
0
 62
     0
100
AcDbLine
 10
34.79996279482839
 20
-284.3999999999996
 30
0.0
 11
154.8002692185491
 21
-364.4000000000015
 31
0.0
  0
LINE
  5
2771
330
2C52
100
AcDbEntity
  8
0
 62
     0
100
AcDbLine
 10
-157.8999999999996
 20
-155.9336861794944
 30
0.0
 11
-57.89999999999962
 21
-222.600182611197
 31
0.0
  0
LINE
  5
2772
330
2C52
100
AcDbEntity
  8
0
 62
     0
100
AcDbLine
 10
-57.89999999999962
 20
-219.6002160757798
 30
0.0
 11
39.29992408871294
 21
-284.3999999999996
 31
0.0
  0
LINE
  5
2773
330
2C52
100
AcDbEntity
  8
0
 62
     0
100
AcDbLine
 10
39.29992408871476
 20
-284.3999999999996
 30
0.0
 11
157.8999999999942
 21
-363.4665153753904
 31
0.0
  0
LINE
  5
2774
330
2C52
100
AcDbEntity
  8
0
 62
     0
100
AcDbLine
 10
-157.8999999999996
 20
-152.9337196440774
 30
0.0
 11
-57.89999999999962
 21
-219.6002160757798
 31
0.0
  0
LINE
  5
2775
330
2C52
100
AcDbEntity
  8
0
 62
     0
100
AcDbLine
 10
-57.89999999999962
 20
-216.6002495403627
 30
0.0
 11
43.79988538259749
 21
-284.3999999999978
 31
0.0
  0
LINE
  5
2776
330
2C52
100
AcDbEntity
  8
0
 62
     0
100
AcDbLine
 10
43.79988538260113
 20
-284.3999999999996
 30
0.0
 11
157.899999999996
 21
-360.4665488399732
 31
0.0
  0
LINE
  5
2777
330
2C52
100
AcDbEntity
  8
0
 62
     0
100
AcDbLine
 10
-157.8999999999996
 20
-149.9337531086603
 30
0.0
 11
-57.89999999999962
 21
-216.6002495403627
 31
0.0
  0
LINE
  5
2778
330
2C52
100
AcDbEntity
  8
0
 62
     0
100
AcDbLine
 10
-57.89999999999782
 20
-213.6002830049474
 30
0.0
 11
48.29984667648385
 21
-284.3999999999978
 31
0.0
  0
LINE
  5
2779
330
2C52
100
AcDbEntity
  8
0
 62
     0
100
AcDbLine
 10
48.29984667648568
 20
-284.3999999999996
 30
0.0
 11
157.899999999996
 21
-357.466582304558
 31
0.0
  0
LINE
  5
277A
330
2C52
100
AcDbEntity
  8
0
 62
     0
100
AcDbLine
 10
-157.8999999999978
 20
-146.933786573245
 30
0.0
 11
-57.89999999999782
 21
-213.6002830049474
 31
0.0
  0
LINE
  5
277B
330
2C52
100
AcDbEntity
  8
0
 62
     0
100
AcDbLine
 10
-57.89999999999962
 20
-210.6003164695303
 30
0.0
 11
52.79980797037024
 21
-284.3999999999978
 31
0.0
  0
LINE
  5
277C
330
2C52
100
AcDbEntity
  8
0
 62
     0
100
AcDbLine
 10
52.79980797037207
 20
-284.3999999999996
 30
0.0
 11
157.8999999999942
 21
-354.4666157691409
 31
0.0
  0
LINE
  5
277D
330
2C52
100
AcDbEntity
  8
0
 62
     0
100
AcDbLine
 10
-157.8999999999996
 20
-143.9338200378279
 30
0.0
 11
-57.89999999999962
 21
-210.6003164695303
 31
0.0
  0
LINE
  5
277E
330
2C52
100
AcDbEntity
  8
0
 62
     0
100
AcDbLine
 10
-57.89999999999962
 20
-207.600349934115
 30
0.0
 11
57.29976926425297
 21
-284.3999999999978
 31
0.0
  0
LINE
  5
277F
330
2C52
100
AcDbEntity
  8
0
 62
     0
100
AcDbLine
 10
57.29976926425661
 20
-284.4000000000015
 30
0.0
 11
157.8999999999942
 21
-351.4666492337255
 31
0.0
  0
LINE
  5
2780
330
2C52
100
AcDbEntity
  8
0
 62
     0
100
AcDbLine
 10
-157.9000000000014
 20
-140.9338535024126
 30
0.0
 11
-57.89999999999962
 21
-207.600349934115
 31
0.0
  0
LINE
  5
2781
330
2C52
100
AcDbEntity
  8
0
 62
     0
100
AcDbLine
 10
-57.89999999999782
 20
-204.6003833986979
 30
0.0
 11
61.79973055814116
 21
-284.3999999999978
 31
0.0
  0
LINE
  5
2782
330
2C52
100
AcDbEntity
  8
0
 62
     0
100
AcDbLine
 10
61.7997305581448
 20
-284.3999999999996
 30
0.0
 11
157.899999999996
 21
-348.4666826983084
 31
0.0
  0
LINE
  5
2783
330
2C52
100
AcDbEntity
  8
0
 62
     0
100
AcDbLine
 10
-157.8999999999978
 20
-137.9338869669955
 30
0.0
 11
-57.89999999999782
 21
-204.6003833986979
 31
0.0
  0
LINE
  5
2784
330
2C52
100
AcDbEntity
  8
0
 62
     0
100
AcDbLine
 10
-57.89999999999782
 20
-201.6004168632844
 30
0.0
 11
66.29969185202572
 21
-284.3999999999996
 31
0.0
  0
LINE
  5
2785
330
2C52
100
AcDbEntity
  8
0
 62
     0
100
AcDbLine
 10
66.29969185202753
 20
-284.3999999999996
 30
0.0
 11
157.899999999996
 21
-345.4667161628931
 31
0.0
  0
LINE
  5
2786
330
2C52
100
AcDbEntity
  8
0
 62
     0
100
AcDbLine
 10
-157.8999999999996
 20
-134.9339204315802
 30
0.0
 11
-57.89999999999782
 21
-201.6004168632844
 31
0.0
  0
LINE
  5
2787
330
2C52
100
AcDbEntity
  8
0
 62
     0
100
AcDbLine
 10
-57.89999999999962
 20
-198.6004503278673
 30
0.0
 11
70.79965314591209
 21
-284.3999999999978
 31
0.0
  0
LINE
  5
2788
330
2C52
100
AcDbEntity
  8
0
 62
     0
100
AcDbLine
 10
70.79965314591574
 20
-284.4000000000015
 30
0.0
 11
157.8999999999942
 21
-342.466749627476
 31
0.0
  0
LINE
  5
2789
330
2C52
100
AcDbEntity
  8
0
 62
     0
100
AcDbLine
 10
-157.9000000000014
 20
-131.933953896163
 30
0.0
 11
-57.89999999999962
 21
-198.6004503278673
 31
0.0
  0
LINE
  5
278A
330
2C52
100
AcDbEntity
  8
0
 62
     0
100
AcDbLine
 10
-57.89999999999962
 20
-195.6004837924502
 30
0.0
 11
75.29961443979482
 21
-284.3999999999978
 31
0.0
  0
LINE
  5
278B
330
2C52
100
AcDbEntity
  8
0
 62
     0
100
AcDbLine
 10
75.29961443980027
 20
-284.4000000000015
 30
0.0
 11
157.899999999996
 21
-339.4667830920607
 31
0.0
  0
LINE
  5
278C
330
2C52
100
AcDbEntity
  8
0
 62
     0
100
AcDbLine
 10
-157.8999999999996
 20
-128.9339873607477
 30
0.0
 11
-57.89999999999962
 21
-195.6004837924502
 31
0.0
  0
LINE
  5
278D
330
2C52
100
AcDbEntity
  8
0
 62
     0
100
AcDbLine
 10
-57.89999999999962
 20
-192.600517257033
 30
0.0
 11
79.79957573368301
 21
-284.3999999999978
 31
0.0
  0
LINE
  5
278E
330
2C52
100
AcDbEntity
  8
0
 62
     0
100
AcDbLine
 10
79.79957573368665
 20
-284.4000000000015
 30
0.0
 11
157.899999999996
 21
-336.4668165566436
 31
0.0
  0
LINE
  5
278F
330
2C52
100
AcDbEntity
  8
0
 62
     0
100
AcDbLine
 10
-157.8999999999996
 20
-125.9340208253306
 30
0.0
 11
-57.89999999999962
 21
-192.600517257033
 31
0.0
  0
LINE
  5
2790
330
2C52
100
AcDbEntity
  8
0
 62
     0
100
AcDbLine
 10
-57.89999999999962
 20
-189.6005507216177
 30
0.0
 11
84.29953702756755
 21
-284.3999999999996
 31
0.0
  0
LINE
  5
2791
330
2C52
100
AcDbEntity
  8
0
 62
     0
100
AcDbLine
 10
84.29953702756938
 20
-284.3999999999996
 30
0.0
 11
157.899999999996
 21
-333.4668500212283
 31
0.0
  0
LINE
  5
2792
330
2C52
100
AcDbEntity
  8
0
 62
     0
100
AcDbLine
 10
-157.8999999999996
 20
-122.9340542899153
 30
0.0
 11
-57.89999999999962
 21
-189.6005507216177
 31
0.0
  0
LINE
  5
2793
330
2C52
100
AcDbEntity
  8
0
 62
     0
100
AcDbLine
 10
-57.89999999999782
 20
-186.6005841862005
 30
0.0
 11
88.79949832145573
 21
-284.3999999999996
 31
0.0
  0
LINE
  5
2794
330
2C52
100
AcDbEntity
  8
0
 62
     0
100
AcDbLine
 10
88.79949832145756
 20
-284.3999999999996
 30
0.0
 11
157.899999999996
 21
-330.466883485813
 31
0.0
  0
LINE
  5
2795
330
2C52
100
AcDbEntity
  8
0
 62
     0
100
AcDbLine
 10
-157.8999999999996
 20
-119.9340877544982
 30
0.0
 11
-57.89999999999782
 21
-186.6005841862005
 31
0.0
  0
LINE
  5
2796
330
2C52
100
AcDbEntity
  8
0
 62
     0
100
AcDbLine
 10
-57.89999999999782
 20
-183.600617650787
 30
0.0
 11
93.2994596153385
 21
-284.3999999999978
 31
0.0
  0
LINE
  5
2797
330
2C52
100
AcDbEntity
  8
0
 62
     0
100
AcDbLine
 10
93.29945961534395
 20
-284.4000000000015
 30
0.0
 11
157.899999999996
 21
-327.4669169503959
 31
0.0
  0
LINE
  5
2798
330
2C52
100
AcDbEntity
  8
0
 62
     0
100
AcDbLine
 10
-157.8999999999978
 20
-116.9341212190829
 30
0.0
 11
-57.89999999999782
 21
-183.600617650787
 31
0.0
  0
LINE
  5
2799
330
2C52
100
AcDbEntity
  8
0
 62
     0
100
AcDbLine
 10
-57.89999999999782
 20
-180.60065111537
 30
0.0
 11
97.79942090922483
 21
-284.3999999999978
 31
0.0
  0
LINE
  5
279A
330
2C52
100
AcDbEntity
  8
0
 62
     0
100
AcDbLine
 10
97.79942090922668
 20
-284.3999999999996
 30
0.0
 11
157.8999999999942
 21
-324.4669504149789
 31
0.0
  0
LINE
  5
279B
330
2C52
100
AcDbEntity
  8
0
 62
     0
100
AcDbLine
 10
-157.8999999999996
 20
-113.9341546836658
 30
0.0
 11
-57.89999999999782
 21
-180.60065111537
 31
0.0
  0
LINE
  5
279C
330
2C52
100
AcDbEntity
  8
0
 62
     0
100
AcDbLine
 10
-57.89999999999962
 20
-177.6006845799529
 30
0.0
 11
102.2993822031094
 21
-284.3999999999978
 31
0.0
  0
LINE
  5
279D
330
2C52
100
AcDbEntity
  8
0
 62
     0
100
AcDbLine
 10
102.2993822031148
 20
-284.4000000000015
 30
0.0
 11
157.8999999999942
 21
-321.4669838795617
 31
0.0
  0
LINE
  5
279E
330
2C52
100
AcDbEntity
  8
0
 62
     0
100
AcDbLine
 10
-157.9000000000014
 20
-110.9341881482487
 30
0.0
 11
-57.89999999999962
 21
-177.6006845799529
 31
0.0
  0
LINE
  5
279F
330
2C52
100
AcDbEntity
  8
0
 62
     0
100
AcDbLine
 10
-57.89999999999782
 20
-174.6007180445376
 30
0.0
 11
106.7993434969976
 21
-284.3999999999996
 31
0.0
  0
LINE
  5
27A0
330
2C52
100
AcDbEntity
  8
0
 62
     0
100
AcDbLine
 10
106.7993434969976
 20
-284.3999999999996
 30
0.0
 11
157.8999999999942
 21
-318.4670173441464
 31
0.0
  0
LINE
  5
27A1
330
2C52
100
AcDbEntity
  8
0
 62
     0
100
AcDbLine
 10
-157.8999999999996
 20
-107.9342216128334
 30
0.0
 11
-57.89999999999962
 21
-174.6007180445358
 31
0.0
  0
LINE
  5
27A2
330
2C52
100
AcDbEntity
  8
0
 62
     0
100
AcDbLine
 10
-57.89999999999782
 20
-171.6007515091205
 30
0.0
 11
111.2993047908803
 21
-284.3999999999978
 31
0.0
  0
LINE
  5
27A3
330
2C52
100
AcDbEntity
  8
0
 62
     0
100
AcDbLine
 10
111.2993047908858
 20
-284.3999999999996
 30
0.0
 11
157.899999999996
 21
-315.4670508087292
 31
0.0
  0
LINE
  5
27A4
330
2C52
100
AcDbEntity
  8
0
 62
     0
100
AcDbLine
 10
-157.8999999999996
 20
-104.9342550774163
 30
0.0
 11
-57.89999999999962
 21
-171.6007515091187
 31
0.0
  0
LINE
  5
27A5
330
2C52
100
AcDbEntity
  8
0
 62
     0
100
AcDbLine
 10
-57.89999999999962
 20
-168.6007849737052
 30
0.0
 11
115.7992660847667
 21
-284.3999999999978
 31
0.0
  0
LINE
  5
27A6
330
2C52
100
AcDbEntity
  8
0
 62
     0
100
AcDbLine
 10
115.7992660847703
 20
-284.4000000000015
 30
0.0
 11
157.8999999999942
 21
-312.4670842733157
 31
0.0
  0
LINE
  5
27A7
330
2C52
100
AcDbEntity
  8
0
 62
     0
100
AcDbLine
 10
-157.8999999999996
 20
-101.934288542001
 30
0.0
 11
-57.89999999999962
 21
-168.6007849737052
 31
0.0
  0
LINE
  5
27A8
330
2C52
100
AcDbEntity
  8
0
 62
     0
100
AcDbLine
 10
-57.89999999999962
 20
-165.6008184382881
 30
0.0
 11
120.2992273786531
 21
-284.3999999999978
 31
0.0
  0
LINE
  5
27A9
330
2C52
100
AcDbEntity
  8
0
 62
     0
100
AcDbLine
 10
120.2992273786585
 20
-284.4000000000015
 30
0.0
 11
157.899999999996
 21
-309.4671177378988
 31
0.0
  0
LINE
  5
27AA
330
2C52
100
AcDbEntity
  8
0
 62
     0
100
AcDbLine
 10
-157.8999999999996
 20
-98.93432200658388
 30
0.0
 11
-57.89999999999962
 21
-165.6008184382881
 31
0.0
  0
LINE
  5
27AB
330
2C52
100
AcDbEntity
  8
0
 62
     0
100
AcDbLine
 10
-57.89999999999782
 20
-162.6008519028728
 30
0.0
 11
124.7991886725376
 21
-284.3999999999978
 31
0.0
  0
LINE
  5
27AC
330
2C52
100
AcDbEntity
  8
0
 62
     0
100
AcDbLine
 10
124.7991886725412
 20
-284.4000000000015
 30
0.0
 11
157.899999999996
 21
-306.4671512024816
 31
0.0
  0
LINE
  5
27AD
330
2C52
100
AcDbEntity
  8
0
 62
     0
100
AcDbLine
 10
-157.8999999999978
 20
-95.93435547117042
 30
0.0
 11
-57.89999999999782
 21
-162.6008519028728
 31
0.0
  0
LINE
  5
27AE
330
2C52
100
AcDbEntity
  8
0
 62
     0
100
AcDbLine
 10
-57.89999999999962
 20
-159.6008853674557
 30
0.0
 11
129.2991499664222
 21
-284.3999999999978
 31
0.0
  0
LINE
  5
27AF
330
2C52
100
AcDbEntity
  8
0
 62
     0
100
AcDbLine
 10
129.2991499664276
 20
-284.3999999999996
 30
0.0
 11
157.8999999999942
 21
-303.4671846670644
 31
0.0
  0
LINE
  5
27B0
330
2C52
100
AcDbEntity
  8
0
 62
     0
100
AcDbLine
 10
-157.8999999999996
 20
-92.93438893575329
 30
0.0
 11
-57.89999999999962
 21
-159.6008853674557
 31
0.0
  0
LINE
  5
27B1
330
2C52
100
AcDbEntity
  8
0
 62
     0
100
AcDbLine
 10
-57.89999999999962
 20
-156.6009188320404
 30
0.0
 11
133.7991112603085
 21
-284.3999999999996
 31
0.0
  0
LINE
  5
27B2
330
2C52
100
AcDbEntity
  8
0
 62
     0
100
AcDbLine
 10
133.7991112603122
 20
-284.4000000000015
 30
0.0
 11
157.8999999999942
 21
-300.4672181316491
 31
0.0
  0
LINE
  5
27B3
330
2C52
100
AcDbEntity
  8
0
 62
     0
100
AcDbLine
 10
-156.901631051147
 20
-90.60000000000036
 30
0.0
 11
-57.89999999999962
 21
-156.6009188320404
 31
0.0
  0
LINE
  5
27B4
330
2C52
100
AcDbEntity
  8
0
 62
     0
100
AcDbLine
 10
-57.89999999999962
 20
-153.6009522966233
 30
0.0
 11
138.2990725541949
 21
-284.3999999999978
 31
0.0
  0
LINE
  5
27B5
330
2C52
100
AcDbEntity
  8
0
 62
     0
100
AcDbLine
 10
138.2990725542004
 20
-284.4000000000015
 30
0.0
 11
157.8999999999942
 21
-297.4672515962339
 31
0.0
  0
LINE
  5
27B6
330
2C52
100
AcDbEntity
  8
0
 62
     0
100
AcDbLine
 10
-152.4016697572604
 20
-90.60000000000036
 30
0.0
 11
-57.89999999999962
 21
-153.6009522966233
 31
0.0
  0
LINE
  5
27B7
330
2C52
100
AcDbEntity
  8
0
 62
     0
100
AcDbLine
 10
-57.89999999999782
 20
-150.600985761208
 30
0.0
 11
142.7990338480794
 21
-284.3999999999978
 31
0.0
  0
LINE
  5
27B8
330
2C52
100
AcDbEntity
  8
0
 62
     0
100
AcDbLine
 10
142.7990338480831
 20
-284.4000000000015
 30
0.0
 11
157.899999999996
 21
-294.4672850608185
 31
0.0
  0
LINE
  5
27B9
330
2C52
100
AcDbEntity
  8
0
 62
     0
100
AcDbLine
 10
-147.9017084633724
 20
-90.60000000000036
 30
0.0
 11
-57.89999999999782
 21
-150.600985761208
 31
0.0
  0
LINE
  5
27BA
330
2C52
100
AcDbEntity
  8
0
 62
     0
100
AcDbLine
 10
-57.89999999999962
 20
-147.6010192257908
 30
0.0
 11
147.2989951419677
 21
-284.3999999999996
 31
0.0
  0
LINE
  5
27BB
330
2C52
100
AcDbEntity
  8
0
 62
     0
100
AcDbLine
 10
147.2989951419695
 20
-284.4000000000015
 30
0.0
 11
157.8999999999942
 21
-291.4673185254014
 31
0.0
  0
LINE
  5
27BC
330
2C52
100
AcDbEntity
  8
0
 62
     0
100
AcDbLine
 10
-143.4017471694878
 20
-90.60000000000036
 30
0.0
 11
-57.90000000000144
 21
-147.6010192257908
 31
0.0
  0
LINE
  5
27BD
330
2C52
100
AcDbEntity
  8
0
 62
     0
100
AcDbLine
 10
-57.89999999999782
 20
-144.6010526903755
 30
0.0
 11
151.7989564358521
 21
-284.3999999999996
 31
0.0
  0
LINE
  5
27BE
330
2C52
100
AcDbEntity
  8
0
 62
     0
100
AcDbLine
 10
151.7989564358559
 20
-284.4000000000032
 30
0.0
 11
157.899999999996
 21
-288.4673519899861
 31
0.0
  0
LINE
  5
27BF
330
2C52
100
AcDbEntity
  8
0
 62
     0
100
AcDbLine
 10
-138.9017858756033
 20
-90.60000000000036
 30
0.0
 11
-57.89999999999962
 21
-144.6010526903755
 31
0.0
  0
LINE
  5
27C0
330
2C52
100
AcDbEntity
  8
0
 62
     0
100
AcDbLine
 10
-57.89999999999962
 20
-141.6010861549584
 30
0.0
 11
156.2989177297386
 21
-284.3999999999996
 31
0.0
  0
LINE
  5
27C1
330
2C52
100
AcDbEntity
  8
0
 62
     0
100
AcDbLine
 10
156.2989177297404
 20
-284.3999999999996
 30
0.0
 11
157.899999999996
 21
-285.467385454569
 31
0.0
  0
LINE
  5
27C2
330
2C52
100
AcDbEntity
  8
0
 62
     0
100
AcDbLine
 10
-134.4018245817169
 20
-90.60000000000036
 30
0.0
 11
-57.89999999999962
 21
-141.6010861549584
 31
0.0
  0
LINE
  5
27C3
330
2C52
100
AcDbEntity
  8
0
 62
     0
100
AcDbLine
 10
-57.89999999999962
 20
-138.6011196195432
 30
0.0
 11
157.899999999996
 21
-282.4674189191537
 31
0.0
  0
LINE
  5
27C4
330
2C52
100
AcDbEntity
  8
0
 62
     0
100
AcDbLine
 10
-129.9018632878305
 20
-90.6000000000022
 30
0.0
 11
-57.89999999999962
 21
-138.6011196195432
 31
0.0
  0
LINE
  5
27C5
330
2C52
100
AcDbEntity
  8
0
 62
     0
100
AcDbLine
 10
-57.90000000000144
 20
-135.601153084126
 30
0.0
 11
157.8999999999942
 21
-279.4674523837366
 31
0.0
  0
LINE
  5
27C6
330
2C52
100
AcDbEntity
  8
0
 62
     0
100
AcDbLine
 10
-125.4019019939496
 20
-90.59999999999854
 30
0.0
 11
-57.90000000000144
 21
-135.601153084126
 31
0.0
  0
LINE
  5
27C7
330
2C52
100
AcDbEntity
  8
0
 62
     0
100
AcDbLine
 10
-57.89999999999782
 20
-132.6011865487089
 30
0.0
 11
157.8999999999978
 21
-276.4674858483195
 31
0.0
  0
LINE
  5
27C8
330
2C52
100
AcDbEntity
  8
0
 62
     0
100
AcDbLine
 10
-120.9019407000596
 20
-90.59999999999854
 30
0.0
 11
-57.89999999999782
 21
-132.6011865487089
 31
0.0
  0
LINE
  5
27C9
330
2C52
100
AcDbEntity
  8
0
 62
     0
100
AcDbLine
 10
-57.89999999999962
 20
-129.6012200132936
 30
0.0
 11
157.899999999996
 21
-273.4675193129042
 31
0.0
  0
LINE
  5
27CA
330
2C52
100
AcDbEntity
  8
0
 62
     0
100
AcDbLine
 10
-116.4019794061769
 20
-90.59999999999854
 30
0.0
 11
-57.89999999999962
 21
-129.6012200132936
 31
0.0
  0
LINE
  5
27CB
330
2C52
100
AcDbEntity
  8
0
 62
     0
100
AcDbLine
 10
-57.89999999999962
 20
-126.6012534778765
 30
0.0
 11
157.899999999996
 21
-270.4675527774871
 31
0.0
  0
LINE
  5
27CC
330
2C52
100
AcDbEntity
  8
0
 62
     0
100
AcDbLine
 10
-111.9020181122887
 20
-90.60000000000036
 30
0.0
 11
-57.89999999999962
 21
-126.6012534778765
 31
0.0
  0
LINE
  5
27CD
330
2C52
100
AcDbEntity
  8
0
 62
     0
100
AcDbLine
 10
-57.89999999999782
 20
-123.6012869424612
 30
0.0
 11
157.899999999996
 21
-267.4675862420736
 31
0.0
  0
LINE
  5
27CE
330
2C52
100
AcDbEntity
  8
0
 62
     0
100
AcDbLine
 10
-107.4020568184059
 20
-90.60000000000036
 30
0.0
 11
-57.89999999999782
 21
-123.6012869424612
 31
0.0
  0
LINE
  5
27CF
330
2C52
100
AcDbEntity
  8
0
 62
     0
100
AcDbLine
 10
-57.89999999999962
 20
-120.601320407044
 30
0.0
 11
157.8999999999978
 21
-264.4676197066565
 31
0.0
  0
LINE
  5
27D0
330
2C52
100
AcDbEntity
  8
0
 62
     0
100
AcDbLine
 10
-102.9020955245178
 20
-90.59999999999854
 30
0.0
 11
-57.89999999999962
 21
-120.601320407044
 31
0.0
  0
LINE
  5
27D1
330
2C52
100
AcDbEntity
  8
0
 62
     0
100
AcDbLine
 10
-57.89999999999962
 20
-117.6013538716288
 30
0.0
 11
157.8999999999942
 21
-261.4676531712394
 31
0.0
  0
LINE
  5
27D2
330
2C52
100
AcDbEntity
  8
0
 62
     0
100
AcDbLine
 10
-98.40213423063506
 20
-90.59999999999854
 30
0.0
 11
-57.89999999999962
 21
-117.6013538716288
 31
0.0
  0
LINE
  5
27D3
330
2C52
100
AcDbEntity
  8
0
 62
     0
100
AcDbLine
 10
-57.89999999999962
 20
-114.6013873362117
 30
0.0
 11
157.8999999999978
 21
-258.4676866358241
 31
0.0
  0
LINE
  5
27D4
330
2C52
100
AcDbEntity
  8
0
 62
     0
100
AcDbLine
 10
-93.90217293674504
 20
-90.60000000000036
 30
0.0
 11
-57.89999999999962
 21
-114.6013873362117
 31
0.0
  0
LINE
  5
27D5
330
2C52
100
AcDbEntity
  8
0
 62
     0
100
AcDbLine
 10
-57.89999999999782
 20
-111.6014208007964
 30
0.0
 11
157.899999999996
 21
-255.467720100407
 31
0.0
  0
LINE
  5
27D6
330
2C52
100
AcDbEntity
  8
0
 62
     0
100
AcDbLine
 10
-89.4022116428623
 20
-90.60000000000036
 30
0.0
 11
-57.89999999999782
 21
-111.6014208007964
 31
0.0
  0
LINE
  5
27D7
330
2C52
100
AcDbEntity
  8
0
 62
     0
100
AcDbLine
 10
-57.89999999999962
 20
-108.6014542653793
 30
0.0
 11
157.899999999996
 21
-252.4677535649898
 31
0.0
  0
LINE
  5
27D8
330
2C52
100
AcDbEntity
  8
0
 62
     0
100
AcDbLine
 10
-84.90225034897594
 20
-90.60000000000036
 30
0.0
 11
-57.89999999999962
 21
-108.6014542653793
 31
0.0
  0
LINE
  5
27D9
330
2C52
100
AcDbEntity
  8
0
 62
     0
100
AcDbLine
 10
-57.89999999999962
 20
-105.6014877299658
 30
0.0
 11
157.8999999999942
 21
-249.4677870295764
 31
0.0
  0
LINE
  5
27DA
330
2C52
100
AcDbEntity
  8
0
 62
     0
100
AcDbLine
 10
-80.40228905509136
 20
-90.6000000000022
 30
0.0
 11
-57.89999999999962
 21
-105.6014877299658
 31
0.0
  0
LINE
  5
27DB
330
2C52
100
AcDbEntity
  8
0
 62
     0
100
AcDbLine
 10
-57.89999999999962
 20
-102.6015211945487
 30
0.0
 11
157.899999999996
 21
-246.4678204941592
 31
0.0
  0
LINE
  5
27DC
330
2C52
100
AcDbEntity
  8
0
 62
     0
100
AcDbLine
 10
-75.90232776120683
 20
-90.59999999999854
 30
0.0
 11
-57.89999999999962
 21
-102.6015211945487
 31
0.0
  0
LINE
  5
27DD
330
2C52
100
AcDbEntity
  8
0
 62
     0
100
AcDbLine
 10
-57.89999999999782
 20
-99.60155465913341
 30
0.0
 11
157.899999999996
 21
-243.4678539587439
 31
0.0
  0
LINE
  5
27DE
330
2C52
100
AcDbEntity
  8
0
 62
     0
100
AcDbLine
 10
-71.40236646732045
 20
-90.60000000000036
 30
0.0
 11
-57.89999999999962
 21
-99.6015546591316
 31
0.0
  0
LINE
  5
27DF
330
2C52
100
AcDbEntity
  8
0
 62
     0
100
AcDbLine
 10
-57.89999999999962
 20
-96.60158812371628
 30
0.0
 11
157.899999999996
 21
-240.4678874233268
 31
0.0
  0
LINE
  5
27E0
330
2C52
100
AcDbEntity
  8
0
 62
     0
100
AcDbLine
 10
-66.90240517343773
 20
-90.59999999999854
 30
0.0
 11
-57.90000000000144
 21
-96.60158812371445
 31
0.0
  0
LINE
  5
27E1
330
2C52
100
AcDbEntity
  8
0
 62
     0
100
AcDbLine
 10
-57.89999999999962
 20
-93.60162158829735
 30
0.0
 11
157.899999999996
 21
-237.4679208879097
 31
0.0
  0
LINE
  5
27E2
330
2C52
100
AcDbEntity
  8
0
 62
     0
100
AcDbLine
 10
-62.40244387954771
 20
-90.60000000000036
 30
0.0
 11
-57.89999999999962
 21
-93.60162158829735
 31
0.0
  0
LINE
  5
27E3
330
2C52
100
AcDbEntity
  8
0
 62
     0
100
AcDbLine
 10
-57.89999999999962
 20
-90.60165505288201
 30
0.0
 11
157.899999999996
 21
-234.4679543524944
 31
0.0
  0
LINE
  5
27E4
330
2C52
100
AcDbEntity
  8
0
 62
     0
100
AcDbLine
 10
-57.90248258566315
 20
-90.59999999999854
 30
0.0
 11
-57.89999999999962
 21
-90.60165505288201
 31
0.0
  0
LINE
  5
27E5
330
2C52
100
AcDbEntity
  8
0
 62
     0
100
AcDbLine
 10
-53.40252129177861
 20
-90.59999999999854
 30
0.0
 11
157.899999999996
 21
-231.4679878170773
 31
0.0
  0
LINE
  5
27E6
330
2C52
100
AcDbEntity
  8
0
 62
     0
100
AcDbLine
 10
-48.90255999789587
 20
-90.59999999999854
 30
0.0
 11
157.8999999999942
 21
-228.468021281662
 31
0.0
  0
LINE
  5
27E7
330
2C52
100
AcDbEntity
  8
0
 62
     0
100
AcDbLine
 10
-44.40259870400405
 20
-90.60000000000036
 30
0.0
 11
157.8999999999978
 21
-225.4680547462449
 31
0.0
  0
LINE
  5
27E8
330
2C52
100
AcDbEntity
  8
0
 62
     0
100
AcDbLine
 10
-39.90263741012132
 20
-90.60000000000036
 30
0.0
 11
157.899999999996
 21
-222.4680882108296
 31
0.0
  0
LINE
  5
27E9
330
2C52
100
AcDbEntity
  8
0
 62
     0
100
AcDbLine
 10
-35.40267611623676
 20
-90.60000000000036
 30
0.0
 11
157.899999999996
 21
-219.4681216754125
 31
0.0
  0
LINE
  5
27EA
330
2C52
100
AcDbEntity
  8
0
 62
     0
100
AcDbLine
 10
-30.90271482235221
 20
-90.59999999999854
 30
0.0
 11
157.899999999996
 21
-216.4681551399972
 31
0.0
  0
LINE
  5
27EB
330
2C52
100
AcDbEntity
  8
0
 62
     0
100
AcDbLine
 10
-26.4027535284622
 20
-90.60000000000036
 30
0.0
 11
157.8999999999978
 21
-213.4681886045801
 31
0.0
  0
LINE
  5
27EC
330
2C52
100
AcDbEntity
  8
0
 62
     0
100
AcDbLine
 10
-21.90279223457947
 20
-90.60000000000036
 30
0.0
 11
157.899999999996
 21
-210.4682220691648
 31
0.0
  0
LINE
  5
27ED
330
2C52
100
AcDbEntity
  8
0
 62
     0
100
AcDbLine
 10
-17.40283094069308
 20
-90.60000000000036
 30
0.0
 11
157.8999999999978
 21
-207.4682555337477
 31
0.0
  0
LINE
  5
27EE
330
2C52
100
AcDbEntity
  8
0
 62
     0
100
AcDbLine
 10
-12.9028696468049
 20
-90.6000000000022
 30
0.0
 11
157.8999999999978
 21
-204.4682889983342
 31
0.0
  0
LINE
  5
27EF
330
2C52
100
AcDbEntity
  8
0
 62
     0
100
AcDbLine
 10
-8.402908352923985
 20
-90.59999999999854
 30
0.0
 11
157.899999999996
 21
-201.4683224629152
 31
0.0
  0
LINE
  5
27F0
330
2C52
100
AcDbEntity
  8
0
 62
     0
100
AcDbLine
 10
-3.902947059037614
 20
-90.59999999999854
 30
0.0
 11
157.899999999996
 21
-198.4683559274999
 31
0.0
  0
LINE
  5
27F1
330
2C52
100
AcDbEntity
  8
0
 62
     0
100
AcDbLine
 10
0.5970142348451191
 20
-90.59999999999854
 30
0.0
 11
157.899999999996
 21
-195.4683893920828
 31
0.0
  0
LINE
  5
27F2
330
2C52
100
AcDbEntity
  8
0
 62
     0
100
AcDbLine
 10
5.096975528736948
 20
-90.60000000000036
 30
0.0
 11
157.899999999996
 21
-192.4684228566657
 31
0.0
  0
LINE
  5
27F3
330
2C52
100
AcDbEntity
  8
0
 62
     0
100
AcDbLine
 10
9.596936822617864
 20
-90.59999999999854
 30
0.0
 11
157.899999999996
 21
-189.4684563212521
 31
0.0
  0
LINE
  5
27F4
330
2C52
100
AcDbEntity
  8
0
 62
     0
100
AcDbLine
 10
14.09689811650605
 20
-90.59999999999854
 30
0.0
 11
157.899999999996
 21
-186.4684897858351
 31
0.0
  0
LINE
  5
27F5
330
2C52
100
AcDbEntity
  8
0
 62
     0
100
AcDbLine
 10
18.59685941038879
 20
-90.59999999999854
 30
0.0
 11
157.9000000000014
 21
-183.4685232504216
 31
0.0
  0
LINE
  5
27F6
330
2C52
100
AcDbEntity
  8
0
 62
     0
100
AcDbLine
 10
23.09682070427697
 20
-90.60000000000036
 30
0.0
 11
157.8999999999996
 21
-180.4685567150045
 31
0.0
  0
LINE
  5
27F7
330
2C52
100
AcDbEntity
  8
0
 62
     0
100
AcDbLine
 10
27.59678199815971
 20
-90.60000000000036
 30
0.0
 11
157.8999999999996
 21
-177.4685901795892
 31
0.0
  0
LINE
  5
27F8
330
2C52
100
AcDbEntity
  8
0
 62
     0
100
AcDbLine
 10
32.09674329204791
 20
-90.60000000000036
 30
0.0
 11
157.8999999999996
 21
-174.4686236441721
 31
0.0
  0
LINE
  5
27F9
330
2C52
100
AcDbEntity
  8
0
 62
     0
100
AcDbLine
 10
36.59670458593428
 20
-90.60000000000036
 30
0.0
 11
157.9000000000014
 21
-171.4686571087568
 31
0.0
  0
LINE
  5
27FA
330
2C52
100
AcDbEntity
  8
0
 62
     0
100
AcDbLine
 10
41.09666587981701
 20
-90.59999999999854
 30
0.0
 11
157.8999999999978
 21
-168.4686905733397
 31
0.0
  0
LINE
  5
27FB
330
2C52
100
AcDbEntity
  8
0
 62
     0
100
AcDbLine
 10
45.59662717370338
 20
-90.60000000000036
 30
0.0
 11
157.8999999999996
 21
-165.4687240379244
 31
0.0
  0
LINE
  5
27FC
330
2C52
100
AcDbEntity
  8
0
 62
     0
100
AcDbLine
 10
50.09658846759157
 20
-90.60000000000036
 30
0.0
 11
157.8999999999996
 21
-162.4687575025073
 31
0.0
  0
LINE
  5
27FD
330
2C52
100
AcDbEntity
  8
0
 62
     0
100
AcDbLine
 10
54.59654976147612
 20
-90.60000000000036
 30
0.0
 11
157.8999999999996
 21
-159.46879096709
 31
0.0
  0
LINE
  5
27FE
330
2C52
100
AcDbEntity
  8
0
 62
     0
100
AcDbLine
 10
59.09651105535886
 20
-90.59999999999854
 30
0.0
 11
157.8999999999978
 21
-156.4688244316748
 31
0.0
  0
LINE
  5
27FF
330
2C52
100
AcDbEntity
  8
0
 62
     0
100
AcDbLine
 10
63.59647234924704
 20
-90.59999999999854
 30
0.0
 11
157.9000000000014
 21
-153.4688578962577
 31
0.0
  0
LINE
  5
2800
330
2C52
100
AcDbEntity
  8
0
 62
     0
100
AcDbLine
 10
68.09643364312977
 20
-90.59999999999854
 30
0.0
 11
157.8999999999996
 21
-150.4688913608424
 31
0.0
  0
LINE
  5
2801
330
2C52
100
AcDbEntity
  8
0
 62
     0
100
AcDbLine
 10
72.59639493701796
 20
-90.60000000000036
 30
0.0
 11
157.8999999999996
 21
-147.4689248254253
 31
0.0
  0
LINE
  5
2802
330
2C52
100
AcDbEntity
  8
0
 62
     0
100
AcDbLine
 10
77.09635623090254
 20
-90.60000000000036
 30
0.0
 11
157.8999999999996
 21
-144.4689582900118
 31
0.0
  0
LINE
  5
2803
330
2C52
100
AcDbEntity
  8
0
 62
     0
100
AcDbLine
 10
81.5963175247889
 20
-90.59999999999854
 30
0.0
 11
157.8999999999996
 21
-141.4689917545929
 31
0.0
  0
LINE
  5
2804
330
2C52
100
AcDbEntity
  8
0
 62
     0
100
AcDbLine
 10
86.09627881867345
 20
-90.60000000000036
 30
0.0
 11
157.8999999999996
 21
-138.4690252191776
 31
0.0
  0
LINE
  5
2805
330
2C52
100
AcDbEntity
  8
0
 62
     0
100
AcDbLine
 10
90.59624011256165
 20
-90.60000000000036
 30
0.0
 11
157.8999999999996
 21
-135.4690586837605
 31
0.0
  0
LINE
  5
2806
330
2C52
100
AcDbEntity
  8
0
 62
     0
100
AcDbLine
 10
95.09620140644619
 20
-90.60000000000036
 30
0.0
 11
157.9000000000014
 21
-132.4690921483452
 31
0.0
  0
LINE
  5
2807
330
2C52
100
AcDbEntity
  8
0
 62
     0
100
AcDbLine
 10
99.59616270033077
 20
-90.60000000000036
 30
0.0
 11
157.8999999999996
 21
-129.4691256129299
 31
0.0
  0
LINE
  5
2808
330
2C52
100
AcDbEntity
  8
0
 62
     0
100
AcDbLine
 10
104.0961239942153
 20
-90.60000000000036
 30
0.0
 11
157.8999999999996
 21
-126.4691590775146
 31
0.0
  0
LINE
  5
2809
330
2C52
100
AcDbEntity
  8
0
 62
     0
100
AcDbLine
 10
108.5960852880998
 20
-90.59999999999854
 30
0.0
 11
157.8999999999996
 21
-123.4691925420975
 31
0.0
  0
LINE
  5
280A
330
2C52
100
AcDbEntity
  8
0
 62
     0
100
AcDbLine
 10
113.096046581988
 20
-90.59999999999854
 30
0.0
 11
157.9000000000014
 21
-120.4692260066804
 31
0.0
  0
LINE
  5
280B
330
2C52
100
AcDbEntity
  8
0
 62
     0
100
AcDbLine
 10
117.5960078758689
 20
-90.59999999999854
 30
0.0
 11
157.8999999999996
 21
-117.4692594712651
 31
0.0
  0
LINE
  5
280C
330
2C52
100
AcDbEntity
  8
0
 62
     0
100
AcDbLine
 10
122.0959691697589
 20
-90.60000000000036
 30
0.0
 11
157.9000000000014
 21
-114.469292935848
 31
0.0
  0
LINE
  5
280D
330
2C52
100
AcDbEntity
  8
0
 62
     0
100
AcDbLine
 10
126.5959304636435
 20
-90.59999999999854
 30
0.0
 11
157.9000000000014
 21
-111.4693264004327
 31
0.0
  0
LINE
  5
280E
330
2C52
100
AcDbEntity
  8
0
 62
     0
100
AcDbLine
 10
131.0958917575299
 20
-90.59999999999854
 30
0.0
 11
157.8999999999996
 21
-108.4693598650156
 31
0.0
  0
LINE
  5
280F
330
2C52
100
AcDbEntity
  8
0
 62
     0
100
AcDbLine
 10
135.5958530514108
 20
-90.59999999999854
 30
0.0
 11
157.8999999999978
 21
-105.4693933296003
 31
0.0
  0
LINE
  5
2810
330
2C52
100
AcDbEntity
  8
0
 62
     0
100
AcDbLine
 10
140.0958143453026
 20
-90.60000000000036
 30
0.0
 11
157.9000000000014
 21
-102.469426794183
 31
0.0
  0
LINE
  5
2811
330
2C52
100
AcDbEntity
  8
0
 62
     0
100
AcDbLine
 10
144.5957756391852
 20
-90.60000000000036
 30
0.0
 11
157.8999999999996
 21
-99.46946025876785
 31
0.0
  0
LINE
  5
2812
330
2C52
100
AcDbEntity
  8
0
 62
     0
100
AcDbLine
 10
149.0957369330699
 20
-90.59999999999854
 30
0.0
 11
157.8999999999996
 21
-96.46949372335077
 31
0.0
  0
LINE
  5
2813
330
2C52
100
AcDbEntity
  8
0
 62
     0
100
AcDbLine
 10
153.5956982269581
 20
-90.60000000000036
 30
0.0
 11
157.8999999999996
 21
-93.46952718793543
 31
0.0
  0
ENDBLK
  5
2814
330
2C52
100
AcDbEntity
  8
0
100
AcDbBlockEnd
  0
ENDSEC
  0
SECTION
  2
ENTITIES
  0
TEXT
  5
953
330
2B71
100
AcDbEntity
  8
OUTLINE
  6
Continuous
 62
     3
100
AcDbText
 10
-418.231467
 20
13.715189
 30
0.0
 40
64.0
  1
 
 41
0.9
100
AcDbText
  0
TEXT
  5
954
330
2B71
100
AcDbEntity
  8
OUTLINE
  6
Continuous
 62
     3
100
AcDbText
 10
-418.231467
 20
13.715189
 30
0.0
 40
64.0
  1
 
 41
0.9
100
AcDbText
  0
TEXT
  5
955
330
2B71
100
AcDbEntity
  8
OUTLINE
  6
Continuous
 62
     3
100
AcDbText
 10
1341.41903
 20
-706.0588199999997
 30
0.0
 40
64.0
  1
 
 41
0.9
100
AcDbText
  0
TEXT
  5
956
330
2B71
100
AcDbEntity
  8
OUTLINE
  6
Continuous
 62
     3
100
AcDbText
 10
1341.41903
 20
-706.0588199999997
 30
0.0
 40
64.0
  1
 
 41
0.9
100
AcDbText
  0
TEXT
  5
957
330
2B71
100
AcDbEntity
  8
OUTLINE
  6
Continuous
 62
     3
100
AcDbText
 10
1341.41903
 20
-706.0588199999997
 30
0.0
 40
64.0
  1
 
 41
0.9
100
AcDbText
  0
TEXT
  5
958
330
2B71
100
AcDbEntity
  8
OUTLINE
  6
Continuous
 62
     3
100
AcDbText
 10
1341.41903
 20
-706.0588199999997
 30
0.0
 40
64.0
  1
 
 41
0.9
100
AcDbText
  0
TEXT
  5
2873
330
2B71
100
AcDbEntity
  8
ETC
100
AcDbText
 10
285.1592598005518
 20
385.6938606493238
 30
0.0
 40
64.0
  1
システム部材
 41
0.9
100
AcDbText
  0
TEXT
  5
2874
330
2B71
100
AcDbEntity
  8
ETC
100
AcDbText
 10
291.3672578005499
 20
486.5771866493234
 30
0.0
 40
64.0
  1
QW-30SBM_6
 41
0.9
100
AcDbText
  0
TEXT
  5
2875
330
2B71
100
AcDbEntity
  8
ETC
100
AcDbText
 10
285.1592598005518
 20
285.6938606493237
 30
0.0
 40
64.0
  1
QW-30SBM
 41
0.9
100
AcDbText
  0
POINT
  5
2876
330
2B71
100
AcDbEntity
  8
ARRANGE
100
AcDbPoint
 10
0.0
 20
0.0
 30
0.0
 39
50.0
  0
LINE
  5
2877
330
2B71
100
AcDbEntity
  8
OUTLINE
100
AcDbLine
 10
173.5
 20
-75.0
 30
0.0
 11
173.5
 21
-380.0000000000001
 31
0.0
  0
LINE
  5
2878
330
2B71
100
AcDbEntity
  8
DETAIL
100
AcDbLine
 10
173.5
 20
-75.0
 30
0.0
 11
173.5
 21
-392.0000000000005
 31
0.0
  0
LINE
  5
2879
330
2B71
100
AcDbEntity
  8
DETAIL
100
AcDbLine
 10
-173.5
 20
-75.0
 30
0.0
 11
-173.5
 21
-391.9999999999999
 31
0.0
  0
LINE
  5
287A
330
2B71
100
AcDbEntity
  8
DETAIL
100
AcDbLine
 10
184.5
 20
-63.0
 30
0.0
 11
184.5
 21
-380.0000000000001
 31
0.0
  0
LINE
  5
287B
330
2B71
100
AcDbEntity
  8
DETAIL
100
AcDbLine
 10
-184.5
 20
-63.0
 30
0.0
 11
-184.5
 21
-380.0000000000001
 31
0.0
  0
LINE
  5
287C
330
2B71
100
AcDbEntity
  8
DETAIL
100
AcDbLine
 10
157.9000000000014
 20
-90.59999999999986
 30
0.0
 11
157.9000000000014
 21
-364.4000000000001
 31
0.0
  0
LINE
  5
287D
330
2B71
100
AcDbEntity
  8
DETAIL
100
AcDbLine
 10
-157.9000000000014
 20
-90.59999999999986
 30
0.0
 11
-157.9000000000014
 21
-364.4000000000001
 31
0.0
  0
LINE
  5
287E
330
2B71
100
AcDbEntity
  8
BASIS
100
AcDbLine
 10
0.0
 20
25.0
 30
0.0
 11
0.0
 21
-417.0000000000005
 31
0.0
  0
LINE
  5
287F
330
2B71
100
AcDbEntity
  8
DETAIL
100
AcDbLine
 10
-184.5
 20
-63.0
 30
0.0
 11
184.5
 21
-63.0
 31
0.0
  0
POLYLINE
  5
2880
330
2B71
100
AcDbEntity
  8
DETAIL
100
AcDb2dPolyline
 66
     1
 10
0.0
 20
0.0
 30
0.0
  0
VERTEX
  5
2ADD
330
2880
100
AcDbEntity
  8
DETAIL
100
AcDbVertex
100
AcDb2dVertex
 10
-173.5
 20
-75.0
 30
0.0
  0
VERTEX
  5
2ADE
330
2880
100
AcDbEntity
  8
DETAIL
100
AcDbVertex
100
AcDb2dVertex
 10
173.5
 20
-75.0
 30
0.0
  0
SEQEND
  5
2ADF
330
2880
100
AcDbEntity
  8
DETAIL
  0
POLYLINE
  5
2881
330
2B71
100
AcDbEntity
  8
DETAIL
100
AcDb2dPolyline
 66
     1
 10
0.0
 20
0.0
 30
0.0
  0
VERTEX
  5
2AE0
330
2881
100
AcDbEntity
  8
DETAIL
100
AcDbVertex
100
AcDb2dVertex
 10
-207.5
 20
0.0
 30
0.0
  0
VERTEX
  5
2AE1
330
2881
100
AcDbEntity
  8
DETAIL
100
AcDbVertex
100
AcDb2dVertex
 10
207.5
 20
0.0
 30
0.0
  0
SEQEND
  5
2AE2
330
2881
100
AcDbEntity
  8
DETAIL
  0
POLYLINE
  5
2882
330
2B71
100
AcDbEntity
  8
DETAIL
100
AcDb2dPolyline
 66
     1
 10
0.0
 20
0.0
 30
0.0
  0
VERTEX
  5
2AE3
330
2882
100
AcDbEntity
  8
DETAIL
100
AcDbVertex
100
AcDb2dVertex
 10
-207.5
 20
-8.0
 30
0.0
  0
VERTEX
  5
2AE4
330
2882
100
AcDbEntity
  8
DETAIL
100
AcDbVertex
100
AcDb2dVertex
 10
207.5
 20
-8.0
 30
0.0
  0
SEQEND
  5
2AE5
330
2882
100
AcDbEntity
  8
DETAIL
  0
LINE
  5
2883
330
2B71
100
AcDbEntity
  8
DETAIL
100
AcDbLine
 10
-207.5
 20
-8.0
 30
0.0
 11
-207.5
 21
0.0
 31
0.0
  0
LINE
  5
2884
330
2B71
100
AcDbEntity
  8
DETAIL
100
AcDbLine
 10
-173.5
 20
-8.0
 30
0.0
 11
-173.5
 21
-63.00000000000046
 31
0.0
  0
POLYLINE
  5
2885
330
2B71
100
AcDbEntity
  8
DETAIL
100
AcDb2dPolyline
 66
     1
 10
0.0
 20
0.0
 30
0.0
  0
VERTEX
  5
2AE6
330
2885
100
AcDbEntity
  8
DETAIL
100
AcDbVertex
100
AcDb2dVertex
 10
-157.9000000000014
 20
-90.59999999999986
 30
0.0
  0
VERTEX
  5
2AE7
330
2885
100
AcDbEntity
  8
DETAIL
100
AcDbVertex
100
AcDb2dVertex
 10
157.9000000000014
 20
-90.59999999999986
 30
0.0
  0
SEQEND
  5
2AE8
330
2885
100
AcDbEntity
  8
DETAIL
  0
CIRCLE
  5
2886
330
2B71
100
AcDbEntity
  8
ARRANGE
100
AcDbCircle
 10
0.0
 20
0.0
 30
0.0
 40
40.0
  0
LINE
  5
2887
330
2B71
100
AcDbEntity
  8
OUTLINE
100
AcDbLine
 10
173.5
 20
-8.0
 30
0.0
 11
173.5
 21
-63.00000000000046
 31
0.0
  0
LINE
  5
2888
330
2B71
100
AcDbEntity
  8
DETAIL
100
AcDbLine
 10
173.5
 20
-8.0
 30
0.0
 11
173.5
 21
-63.00000000000046
 31
0.0
  0
LINE
  5
2889
330
2B71
100
AcDbEntity
  8
DETAIL
100
AcDbLine
 10
207.5
 20
-8.0
 30
0.0
 11
207.5
 21
0.0
 31
0.0
  0
LINE
  5
288A
330
2B71
100
AcDbEntity
  8
DETAIL
100
AcDbLine
 10
-184.5
 20
-380.0000000000001
 30
0.0
 11
184.5
 21
-380.0000000000001
 31
0.0
  0
LINE
  5
288B
330
2B71
100
AcDbEntity
  8
DETAIL
100
AcDbLine
 10
-157.9000000000014
 20
-364.4000000000001
 30
0.0
 11
157.9000000000014
 21
-364.4000000000001
 31
0.0
  0
LINE
  5
288C
330
2B71
100
AcDbEntity
  8
DETAIL
100
AcDbLine
 10
-173.5
 20
-391.9999999999999
 30
0.0
 11
173.5
 21
-392.0000000000005
 31
0.0
  0
INSERT
  5
288D
330
2B71
100
AcDbEntity
  8
0
100
AcDbBlockReference
  2
*U74
 10
0.0
 20
0.0
 30
0.0
1001
ACAD
1000
DSTYLE
1002
{
1070
    41
1040
12.0
1070
    42
1040
20.0
1070
    43
1040
200.0
1070
    44
1040
20.0
1070
    73
1070
     0
1070
    74
1070
     0
1070
    77
1070
     1
1070
    78
1070
     8
1070
   140
1040
64.0
1070
   147
1040
50.0
1070
   172
1070
     1
1070
   174
1070
     1
1070
   275
1070
     0
1070
   284
1070
     0
1070
   285
1070
     0
1070
   286
1070
     0
1070
   341
1005
0
1070
   342
1005
0
1002
}
  0
INSERT
  5
288E
330
2B71
100
AcDbEntity
  8
0
100
AcDbBlockReference
  2
*U75
 10
0.0
 20
0.0
 30
0.0
  0
LINE
  5
288F
330
2B71
100
AcDbEntity
  8
OUTLINE
100
AcDbLine
 10
173.5
 20
-75.0
 30
0.0
 11
173.5
 21
-392.0000000000005
 31
0.0
  0
LINE
  5
2890
330
2B71
100
AcDbEntity
  8
OUTLINE
100
AcDbLine
 10
-173.5
 20
-75.0
 30
0.0
 11
-173.5
 21
-391.9999999999999
 31
0.0
  0
LINE
  5
2891
330
2B71
100
AcDbEntity
  8
OUTLINE
100
AcDbLine
 10
184.5
 20
-63.0
 30
0.0
 11
184.5
 21
-380.0000000000001
 31
0.0
  0
LINE
  5
2892
330
2B71
100
AcDbEntity
  8
OUTLINE
100
AcDbLine
 10
-184.5
 20
-63.0
 30
0.0
 11
-184.5
 21
-380.0000000000001
 31
0.0
  0
LINE
  5
2893
330
2B71
100
AcDbEntity
  8
OUTLINE
100
AcDbLine
 10
-184.5
 20
-63.0
 30
0.0
 11
184.5
 21
-63.0
 31
0.0
  0
POLYLINE
  5
2894
330
2B71
100
AcDbEntity
  8
OUTLINE
100
AcDb2dPolyline
 66
     1
 10
0.0
 20
0.0
 30
0.0
  0
VERTEX
  5
2AE9
330
2894
100
AcDbEntity
  8
OUTLINE
100
AcDbVertex
100
AcDb2dVertex
 10
-173.5
 20
-75.0
 30
0.0
  0
VERTEX
  5
2AEA
330
2894
100
AcDbEntity
  8
OUTLINE
100
AcDbVertex
100
AcDb2dVertex
 10
173.5
 20
-75.0
 30
0.0
  0
SEQEND
  5
2AEB
330
2894
100
AcDbEntity
  8
OUTLINE
  0
POLYLINE
  5
2895
330
2B71
100
AcDbEntity
  8
OUTLINE
100
AcDb2dPolyline
 66
     1
 10
0.0
 20
0.0
 30
0.0
  0
VERTEX
  5
2AEC
330
2895
100
AcDbEntity
  8
OUTLINE
100
AcDbVertex
100
AcDb2dVertex
 10
-207.5
 20
-8.0
 30
0.0
  0
VERTEX
  5
2AED
330
2895
100
AcDbEntity
  8
OUTLINE
100
AcDbVertex
100
AcDb2dVertex
 10
207.5
 20
-8.0
 30
0.0
  0
SEQEND
  5
2AEE
330
2895
100
AcDbEntity
  8
OUTLINE
  0
LINE
  5
2896
330
2B71
100
AcDbEntity
  8
OUTLINE
100
AcDbLine
 10
-207.5
 20
-8.0
 30
0.0
 11
-207.5
 21
0.0
 31
0.0
  0
LINE
  5
2897
330
2B71
100
AcDbEntity
  8
OUTLINE
100
AcDbLine
 10
-173.5
 20
-8.0
 30
0.0
 11
-173.5
 21
-63.00000000000046
 31
0.0
  0
LINE
  5
2898
330
2B71
100
AcDbEntity
  8
OUTLINE
100
AcDbLine
 10
173.5
 20
-8.0
 30
0.0
 11
173.5
 21
-63.00000000000046
 31
0.0
  0
LINE
  5
2899
330
2B71
100
AcDbEntity
  8
OUTLINE
100
AcDbLine
 10
207.5
 20
-8.0
 30
0.0
 11
207.5
 21
0.0
 31
0.0
  0
LINE
  5
289A
330
2B71
100
AcDbEntity
  8
OUTLINE
100
AcDbLine
 10
-184.5
 20
-380.0000000000001
 30
0.0
 11
184.5
 21
-380.0000000000001
 31
0.0
  0
LINE
  5
289B
330
2B71
100
AcDbEntity
  8
OUTLINE
100
AcDbLine
 10
-173.5
 20
-391.9999999999999
 30
0.0
 11
173.5
 21
-392.0000000000005
 31
0.0
  0
LINE
  5
289C
330
2B71
100
AcDbEntity
  8
NOTE
100
AcDbLine
 10
-190.0
 20
12.49999999999999
 30
0.0
 11
-190.0
 21
-12.5
 31
0.0
  0
LINE
  5
289D
330
2B71
100
AcDbEntity
  8
NOTE
100
AcDbLine
 10
190.0
 20
12.49999999999999
 30
0.0
 11
190.0
 21
-12.5
 31
0.0
  0
LINE
  5
289E
330
2B71
100
AcDbEntity
  8
NOTE
100
AcDbLine
 10
-177.5
 20
0.0
 30
0.0
 11
-202.5
 21
0.0
 31
0.0
  0
LINE
  5
289F
330
2B71
100
AcDbEntity
  8
NOTE
100
AcDbLine
 10
202.5
 20
0.0
 30
0.0
 11
177.5
 21
0.0
 31
0.0
  0
LINE
  5
28A0
330
2B71
100
AcDbEntity
  8
OUTLINE
100
AcDbLine
 39
50.0
 10
-207.5
 20
0.0
 30
0.0
 11
207.5
 21
0.0
 31
0.0
  0
INSERT
  5
28A1
330
2B71
100
AcDbEntity
  8
DETAIL
  6
Continuous
100
AcDbBlockReference
  2
*X76
 10
0.0
 20
0.0
 30
0.0
1001
ACADANNOTATIVE
1000
AnnotativeData
1002
{
1070
     1
1070
     0
1002
}
1001
ACAD
1000
HATCH
1002
{
1070
    19
1000
LINE
1040
19.969
1040
0.5880014249968896
1000
R14_HATCH_DATA
1000
39F3
1011
1.0
1021
0.0
1031
0.0
1011
0.0
1021
1.0
1031
0.0
1011
0.0
1021
0.0
1031
1.0
1040
0.0
1010
0.0
1020
0.0
1030
1.0
1000
LINE
1070
     0
1070
     0
1071
        2
1071
        7
1070
     0
1070
     1
1071
        6
1040
-57.89999999999782
1040
-90.59999999999993
1040
-157.8999999999978
1040
-90.59999999999993
1040
-157.9000000000014
1040
-364.4000000000005
1040
157.8999999999978
1040
-364.4000000000005
1040
157.8999999999978
1040
-284.4000000000001
1040
-57.89999999999782
1040
-284.3999999999996
1071
        0
1071
        7
1070
     0
1070
     1
1071
        4
1040
157.9000000000014
1040
-90.60000000000036
1040
-57.89999999999782
1040
-90.60000000000036
1040
-57.89999999999782
1040
-284.3999999999996
1040
157.8999999999978
1040
-284.3999999999996
1071
        0
1070
     0
1070
     1
1040
0.5880014249968896
1040
19.969
1070
     0
1070
     1
1040
0.5880014249968896
1040
20569.59690554311
1040
3497.575431169336
1040
-1.384598579568018
1040
2.076903172775084
1070
     0
1040
0.6036262587467213
1071
        2
1040
-102.5825242502506
1040
-186.250257451667
1040
0.0
1040
88.48330888505007
1040
-209.3214214842228
1040
0.0
1002
}
  0
INSERT
  5
28A2
330
2B71
100
AcDbEntity
  8
DETAIL
  6
Continuous
100
AcDbBlockReference
  2
*X77
 10
0.0
 20
0.0
 30
0.0
1001
ACADANNOTATIVE
1000
AnnotativeData
1002
{
1070
     1
1070
     0
1002
}
1001
ACAD
1000
HATCH
1002
{
1070
    19
1000
LINE
1040
19.969
1040
5.695183882182695
1000
R14_HATCH_DATA
1000
39F9
1011
1.0
1021
0.0
1031
0.0
1011
0.0
1021
1.0
1031
0.0
1011
0.0
1021
0.0
1031
1.0
1040
0.0
1010
0.0
1020
0.0
1030
1.0
1000
LINE
1070
     0
1070
     0
1071
        2
1071
        7
1070
     0
1070
     1
1071
        6
1040
-57.89999999999782
1040
-90.59999999999993
1040
-157.8999999999978
1040
-90.59999999999993
1040
-157.9000000000014
1040
-364.4000000000005
1040
157.8999999999978
1040
-364.4000000000005
1040
157.8999999999978
1040
-284.4000000000001
1040
-57.89999999999782
1040
-284.3999999999996
1071
        0
1071
        7
1070
     0
1070
     1
1071
        4
1040
-57.89999999999782
1040
-90.59999999999943
1040
-57.89999999999782
1040
-284.3999999999996
1040
157.8999999999978
1040
-284.3999999999996
1040
157.9000000000014
1040
-90.60000000000036
1071
        0
1070
     0
1070
     1
1040
5.695183882182695
1040
19.969
1070
     0
1070
     1
1040
5.695183882182695
1040
20569.59690554311
1040
3497.575431169336
1040
1.384598579568018
1040
2.076903172775084
1070
     0
1040
1.072193615192194
1071
        2
1040
-98.9574962102597
1040
-127.6936027590832
1040
0.0
1040
53.47801823268674
1040
-135.9693230282428
1040
0.0
1002
}
  0
LINE
  5
28A3
330
2B71
100
AcDbEntity
  8
DETAIL
100
AcDbLine
 10
157.9000000000014
 20
-90.59999999999986
 30
0.0
 11
157.9000000000014
 21
-364.4000000000001
 31
0.0
  0
LINE
  5
28A4
330
2B71
100
AcDbEntity
  8
DETAIL
100
AcDbLine
 10
-157.9000000000014
 20
-90.59999999999986
 30
0.0
 11
-157.9000000000014
 21
-364.4000000000001
 31
0.0
  0
POLYLINE
  5
28A5
330
2B71
100
AcDbEntity
  8
DETAIL
100
AcDb2dPolyline
 66
     1
 10
0.0
 20
0.0
 30
0.0
  0
VERTEX
  5
2AEF
330
28A5
100
AcDbEntity
  8
DETAIL
100
AcDbVertex
100
AcDb2dVertex
 10
-157.9000000000014
 20
-90.59999999999986
 30
0.0
  0
VERTEX
  5
2AF0
330
28A5
100
AcDbEntity
  8
DETAIL
100
AcDbVertex
100
AcDb2dVertex
 10
157.9000000000014
 20
-90.59999999999986
 30
0.0
  0
SEQEND
  5
2AF1
330
28A5
100
AcDbEntity
  8
DETAIL
  0
LINE
  5
28A6
330
2B71
100
AcDbEntity
  8
DETAIL
100
AcDbLine
 10
-157.9000000000014
 20
-364.4000000000001
 30
0.0
 11
157.9000000000014
 21
-364.4000000000001
 31
0.0
  0
LINE
  5
28A7
330
2B71
100
AcDbEntity
  8
SIZE
100
AcDbLine
 10
190.0
 20
31.93073517022959
 30
0.0
 11
190.0
 21
180.9320910096169
 31
0.0
  0
LINE
  5
28A8
330
2B71
100
AcDbEntity
  8
SIZE
100
AcDbLine
 10
-190.0
 20
31.93073517022959
 30
0.0
 11
-190.0
 21
180.9320910096169
 31
0.0
  0
LINE
  5
28A9
330
2B71
100
AcDbEntity
  8
SIZE
100
AcDbLine
 10
178.0
 20
160.9320910096171
 30
0.0
 11
-178.0
 21
160.9320910096171
 31
0.0
  0
INSERT
  5
28AA
330
2B71
100
AcDbEntity
  8
SIZE
100
AcDbBlockReference
  2
_DOTBLANK
 10
190.0
 20
160.9320910096171
 30
0.0
 41
12.0
 42
12.0
 43
12.0
  0
INSERT
  5
28AB
330
2B71
100
AcDbEntity
  8
SIZE
100
AcDbBlockReference
  2
_DOTBLANK
 10
-190.0
 20
160.9320910096171
 30
0.0
 41
12.0
 42
12.0
 43
12.0
 50
180.0
  0
LINE
  5
28AC
330
2B71
100
AcDbEntity
  8
SIZE
100
AcDbLine
 10
207.5
 20
20.0
 30
0.0
 11
207.5
 21
299.486592936517
 31
0.0
  0
LINE
  5
28AD
330
2B71
100
AcDbEntity
  8
SIZE
100
AcDbLine
 10
-207.5
 20
20.0
 30
0.0
 11
-207.5
 21
299.486592936517
 31
0.0
  0
LINE
  5
28AE
330
2B71
100
AcDbEntity
  8
SIZE
100
AcDbLine
 10
195.5
 20
279.4865929365167
 30
0.0
 11
-195.5
 21
279.4865929365167
 31
0.0
  0
INSERT
  5
28AF
330
2B71
100
AcDbEntity
  8
SIZE
100
AcDbBlockReference
  2
_DOTBLANK
 10
207.5
 20
279.4865929365167
 30
0.0
 41
12.0
 42
12.0
 43
12.0
  0
INSERT
  5
28B0
330
2B71
100
AcDbEntity
  8
SIZE
100
AcDbBlockReference
  2
_DOTBLANK
 10
-207.5
 20
279.4865929365167
 30
0.0
 41
12.0
 42
12.0
 43
12.0
 50
180.0
  0
LINE
  5
28B1
330
2B71
100
AcDbEntity
  8
SIZE
100
AcDbLine
 10
227.5
 20
0.0
 30
0.0
 11
346.4022881873934
 21
0.0
 31
0.0
  0
LINE
  5
28B2
330
2B71
100
AcDbEntity
  8
SIZE
100
AcDbLine
 10
227.5
 20
-8.0
 30
0.0
 11
346.4022881873934
 21
-8.0
 31
0.0
  0
LINE
  5
28B3
330
2B71
100
AcDbEntity
  8
SIZE
100
AcDbLine
 10
326.4022881873935
 20
11.99999999999999
 30
0.0
 11
326.4022881873935
 21
24.0
 31
0.0
  0
LINE
  5
28B4
330
2B71
100
AcDbEntity
  8
SIZE
100
AcDbLine
 10
326.4022881873935
 20
-20.0
 30
0.0
 11
326.4022881873935
 21
-90.39999999999997
 31
0.0
  0
INSERT
  5
28B5
330
2B71
100
AcDbEntity
  8
SIZE
100
AcDbBlockReference
  2
_DOTBLANK
 10
326.4022881873935
 20
0.0
 30
0.0
 41
12.0
 42
12.0
 43
12.0
 50
270.0
  0
INSERT
  5
28B6
330
2B71
100
AcDbEntity
  8
SIZE
100
AcDbBlockReference
  2
_DOTBLANK
 10
326.4022881873935
 20
-8.0
 30
0.0
 41
12.0
 42
12.0
 43
12.0
 50
90.0
  0
LINE
  5
28B7
330
2B71
100
AcDbEntity
  8
SIZE
100
AcDbLine
 10
184.5
 20
-400.0
 30
0.0
 11
184.5
 21
-575.2132566652845
 31
0.0
  0
LINE
  5
28B8
330
2B71
100
AcDbEntity
  8
SIZE
100
AcDbLine
 10
-184.5
 20
-400.0
 30
0.0
 11
-184.5
 21
-575.2132566652845
 31
0.0
  0
LINE
  5
28B9
330
2B71
100
AcDbEntity
  8
SIZE
100
AcDbLine
 10
172.5
 20
-555.2132566652844
 30
0.0
 11
-172.5
 21
-555.2132566652844
 31
0.0
  0
INSERT
  5
28BA
330
2B71
100
AcDbEntity
  8
SIZE
100
AcDbBlockReference
  2
_DOTBLANK
 10
184.5
 20
-555.2132566652844
 30
0.0
 41
12.0
 42
12.0
 43
12.0
  0
INSERT
  5
28BB
330
2B71
100
AcDbEntity
  8
SIZE
100
AcDbBlockReference
  2
_DOTBLANK
 10
-184.5
 20
-555.2132566652844
 30
0.0
 41
12.0
 42
12.0
 43
12.0
 50
180.0
  0
LINE
  5
28BC
330
2B71
100
AcDbEntity
  8
SIZE
100
AcDbLine
 10
-204.5
 20
-380.0000000000001
 30
0.0
 11
-337.5374835979164
 21
-380.0000000000001
 31
0.0
  0
LINE
  5
28BD
330
2B71
100
AcDbEntity
  8
SIZE
100
AcDbLine
 10
-193.5
 20
-391.9999999999999
 30
0.0
 11
-337.5374835979164
 21
-391.9999999999999
 31
0.0
  0
LINE
  5
28BE
330
2B71
100
AcDbEntity
  8
SIZE
100
AcDbLine
 10
-317.5374835979164
 20
-368.0000000000001
 30
0.0
 11
-317.5374835979164
 21
-356.0
 31
0.0
  0
LINE
  5
28BF
330
2B71
100
AcDbEntity
  8
SIZE
100
AcDbLine
 10
-317.5374835979164
 20
-404.0
 30
0.0
 11
-317.5374835979164
 21
-518.2857142857143
 31
0.0
  0
INSERT
  5
28C0
330
2B71
100
AcDbEntity
  8
SIZE
100
AcDbBlockReference
  2
_DOTBLANK
 10
-317.5374835979164
 20
-380.0000000000001
 30
0.0
 41
12.0
 42
12.0
 43
12.0
 50
270.0
  0
INSERT
  5
28C1
330
2B71
100
AcDbEntity
  8
SIZE
100
AcDbBlockReference
  2
_DOTBLANK
 10
-317.5374835979164
 20
-391.9999999999999
 30
0.0
 41
12.0
 42
12.0
 43
12.0
 50
90.0
  0
LINE
  5
28C2
330
2B71
100
AcDbEntity
  8
SIZE
100
AcDbLine
 10
-227.5
 20
0.0
 30
0.0
 11
-337.5374835979164
 21
0.0
 31
0.0
  0
LINE
  5
28C3
330
2B71
100
AcDbEntity
  8
SIZE
100
AcDbLine
 10
-204.5
 20
-380.0000000000001
 30
0.0
 11
-337.5374835979164
 21
-380.0000000000001
 31
0.0
  0
LINE
  5
28C4
330
2B71
100
AcDbEntity
  8
SIZE
100
AcDbLine
 10
-317.5374835979164
 20
-11.99999999999999
 30
0.0
 11
-317.5374835979164
 21
-368.0000000000001
 31
0.0
  0
INSERT
  5
28C5
330
2B71
100
AcDbEntity
  8
SIZE
100
AcDbBlockReference
  2
_DOTBLANK
 10
-317.5374835979164
 20
0.0
 30
0.0
 41
12.0
 42
12.0
 43
12.0
 50
90.0
  0
INSERT
  5
28C6
330
2B71
100
AcDbEntity
  8
SIZE
100
AcDbBlockReference
  2
_DOTBLANK
 10
-317.5374835979164
 20
-380.0000000000001
 30
0.0
 41
12.0
 42
12.0
 43
12.0
 50
270.0
  0
TEXT
  5
28C7
330
2B71
100
AcDbEntity
  8
SIZE
100
AcDbText
 10
-72.6857142857143
 20
-545.2132566652846
 30
0.0
 40
64.0
  1
369
 41
0.9
100
AcDbText
  0
TEXT
  5
28C8
330
2B71
100
AcDbEntity
  8
SIZE
100
AcDbText
 10
-327.5374835979164
 20
-508.2857142857142
 30
0.0
 40
64.0
  1
12
 50
90.0
 41
0.9
100
AcDbText
  0
TEXT
  5
28C9
330
2B71
100
AcDbEntity
  8
SIZE
100
AcDbText
 10
-327.5374835979164
 20
-264.0571428571428
 30
0.0
 40
64.0
  1
380
 50
90.0
 41
0.9
100
AcDbText
  0
TEXT
  5
28CA
330
2B71
100
AcDbEntity
  8
SIZE
100
AcDbText
 10
-74.61302049113578
 20
170.9320910096169
 30
0.0
 40
64.0
  1
380
 41
0.9
100
AcDbText
  0
TEXT
  5
28CB
330
2B71
100
AcDbEntity
  8
SIZE
100
AcDbText
 10
-68.57142857142865
 20
289.4865929365167
 30
0.0
 40
64.0
  1
415
 41
0.9
100
AcDbText
  0
TEXT
  5
28CC
330
2B71
100
AcDbEntity
  8
SIZE
100
AcDbText
 10
316.4022881873932
 20
-80.39999999999997
 30
0.0
 40
64.0
  1
8
 50
90.0
 41
0.9
100
AcDbText
  0
ENDSEC
  0
SECTION
  2
OBJECTS
  0
DICTIONARY
  5
2B09
330
0
100
AcDbDictionary
281
     1
  3
ACAD_2007HEADERVARS_RT
350
2D66
  3
ACAD_COLOR
350
2B67
  3
ACAD_GROUP
350
2B0A
  3
ACAD_LAYOUT
350
2B66
  3
ACAD_MATERIAL
350
2B0D
  3
ACAD_MLEADERSTYLE
350
2B6A
  3
ACAD_MLINESTYLE
350
2B63
  3
ACAD_PLOTSETTINGS
350
2B65
  3
ACAD_PLOTSTYLENAME
350
2B0B
  3
ACAD_SCALELIST
350
2B37
  3
ACAD_TABLESTYLE
350
2B68
  3
ACAD_VISUALSTYLE
350
2B26
  3
ACDB_RECOMPOSE_DATA
350
2D64
  3
AcDbVariableDictionary
350
2D5B
  3
AcmDictionary
350
2D07
  3
AMG
350
2C54
  3
AMGSNAPSETTINGS
350
2D2F
  3
DWGPROPS
350
2D65
  3
MAPISURF_MODULE
350
2CD4
  0
DICTIONARY
  5
2D36
330
2B59
100
AcDbDictionary
280
     1
281
     1
  3
ADSK_XREC_LAYER_RECONCILED
360
2D37
  0
DICTIONARY
  5
2D38
330
2B88
100
AcDbDictionary
280
     1
281
     1
  3
ADSK_XREC_LAYER_RECONCILED
360
2D39
  0
DICTIONARY
  5
2D3A
330
2B89
100
AcDbDictionary
280
     1
281
     1
  3
ADSK_XREC_LAYER_RECONCILED
360
2D3B
  0
DICTIONARY
  5
2D3C
330
2B8A
100
AcDbDictionary
280
     1
281
     1
  3
ADSK_XREC_LAYER_RECONCILED
360
2D3D
  0
DICTIONARY
  5
2D3E
330
2B8B
100
AcDbDictionary
280
     1
281
     1
  3
ADSK_XREC_LAYER_RECONCILED
360
2D3F
  0
DICTIONARY
  5
2D40
330
2B8C
100
AcDbDictionary
280
     1
281
     1
  3
ADSK_XREC_LAYER_RECONCILED
360
2D41
  0
DICTIONARY
  5
2D42
330
2B8E
100
AcDbDictionary
280
     1
281
     1
  3
ADSK_XREC_LAYER_RECONCILED
360
2D43
  0
DICTIONARY
  5
2D44
330
2B8F
100
AcDbDictionary
280
     1
281
     1
  3
ADSK_XREC_LAYER_RECONCILED
360
2D45
  0
DICTIONARY
  5
2D46
330
2B90
100
AcDbDictionary
280
     1
281
     1
  3
ADSK_XREC_LAYER_RECONCILED
360
2D47
  0
DICTIONARY
  5
2D48
330
2B91
100
AcDbDictionary
280
     1
281
     1
  3
ADSK_XREC_LAYER_RECONCILED
360
2D49
  0
DICTIONARY
  5
2D4A
330
2B92
100
AcDbDictionary
280
     1
281
     1
  3
ADSK_XREC_LAYER_RECONCILED
360
2D4B
  0
DICTIONARY
  5
2D4C
330
2B71
100
AcDbDictionary
280
     1
281
     1
  3
ACAD_INDEX
360
2D4D
  0
DICTIONARY
  5
2D66
102
{ACAD_REACTORS
330
2B09
102
}
330
2B09
100
AcDbDictionary
281
     1
  3
DIMARCSYM
350
2D67
  3
DIMLTEX1
350
2D69
  3
DIMLTEX2
350
2D6A
  3
DIMLTYPE
350
2D68
  0
DICTIONARY
  5
2B67
102
{ACAD_REACTORS
330
2B09
102
}
330
2B09
100
AcDbDictionary
281
     1
  0
DICTIONARY
  5
2B0A
102
{ACAD_REACTORS
330
2B09
102
}
330
2B09
100
AcDbDictionary
281
     1
  0
DICTIONARY
  5
2B66
102
{ACAD_REACTORS
330
2B09
102
}
330
2B09
100
AcDbDictionary
281
     1
  3
Model
350
2B74
  3
レイアウト1
350
2B70
  0
DICTIONARY
  5
2B0D
102
{ACAD_REACTORS
330
2B09
102
}
330
2B09
100
AcDbDictionary
281
     1
  3
ByBlock
350
2B16
  3
ByLayer
350
2B0E
  3
Global
350
2B1E
  0
DICTIONARY
  5
2B6A
102
{ACAD_REACTORS
330
2B09
102
}
330
2B09
100
AcDbDictionary
281
     1
  3
Standard
350
2B6B
  0
DICTIONARY
  5
2B63
102
{ACAD_REACTORS
330
2B09
102
}
330
2B09
100
AcDbDictionary
281
     1
  3
Standard
350
2B64
  0
DICTIONARY
  5
2B65
102
{ACAD_REACTORS
330
2B09
102
}
330
2B09
100
AcDbDictionary
281
     1
  0
ACDBDICTIONARYWDFLT
  5
2B0B
102
{ACAD_REACTORS
330
2B09
102
}
330
2B09
100
AcDbDictionary
281
     1
  3
Normal
350
2B0C
100
AcDbDictionaryWithDefault
340
2B0C
  0
DICTIONARY
  5
2B37
102
{ACAD_REACTORS
330
2B09
102
}
330
2B09
100
AcDbDictionary
281
     1
  3
A0
350
2B38
  3
A1
350
2B39
  3
A2
350
2B3A
  3
A3
350
2B3B
  3
A4
350
2B3C
  3
A5
350
2B3D
  3
A6
350
2B3E
  3
A7
350
2B3F
  3
A8
350
2B40
  3
A9
350
2B41
  3
B0
350
2B42
  3
B1
350
2B43
  3
B2
350
2B44
  3
B3
350
2B45
  3
B4
350
2B46
  3
B5
350
2B47
  3
B6
350
2B48
  3
B7
350
2B49
  3
B8
350
2B4A
  3
B9
350
2B4B
  3
C0
350
2B4C
  3
C1
350
2B4D
  3
C2
350
2B4E
  3
C3
350
2B4F
  3
C4
350
2B50
  3
C5
350
2B51
  3
C6
350
2B52
  3
C7
350
2B53
  3
C8
350
2B54
  3
C9
350
2B55
  3
D0
350
2B56
  3
D1
350
2B57
  3
D2
350
2B58
  0
DICTIONARY
  5
2B68
102
{ACAD_REACTORS
330
2B09
102
}
330
2B09
100
AcDbDictionary
281
     1
  3
Standard
350
2B69
  0
DICTIONARY
  5
2B26
102
{ACAD_REACTORS
330
2B09
102
}
330
2B09
100
AcDbDictionary
281
     1
  3
2dWireframe
350
2B2C
  3
3D Hidden
350
2B2E
  3
3dWireframe
350
2B2D
  3
Basic
350
2B2B
  3
Brighten
350
2B32
  3
ColorChange
350
2B36
  3
Conceptual
350
2B2F
  3
Dim
350
2B31
  3
Facepattern
350
2B35
  3
Flat
350
2B27
  3
FlatWithEdges
350
2B28
  3
Gouraud
350
2B29
  3
GouraudWithEdges
350
2B2A
  3
Linepattern
350
2B34
  3
Realistic
350
2B30
  3
Thicken
350
2B33
  0
XRECORD
  5
2D64
102
{ACAD_REACTORS
330
2B09
102
}
330
2B09
100
AcDbXrecord
280
     1
 90
        1
330
2B69
  0
DICTIONARY
  5
2D5B
102
{ACAD_REACTORS
330
2B09
102
}
330
2B09
100
AcDbDictionary
281
     1
  3
CANNOSCALE
350
2D5E
  3
CMLEADERSTYLE
350
2D5D
  3
CTABLESTYLE
350
2D5C
  3
DIMASSOC
350
2D61
  3
INDEXCTL
350
2D60
  3
SORTENTS
350
2D5F
  0
DICTIONARY
  5
2D07
102
{ACAD_REACTORS
330
2B09
102
}
330
2B09
100
AcDbDictionary
281
     1
  3
AcmStdDictionary
350
2D15
  0
DICTIONARY
  5
2C54
102
{ACAD_REACTORS
330
2B09
102
}
330
2B09
100
AcDbDictionary
281
     1
  3
AcMgSettings
350
2C55
  0
DICTIONARY
  5
2D2F
102
{ACAD_REACTORS
330
2B09
102
}
330
2B09
100
AcDbDictionary
281
     1
  3
DIMENSION
350
2D34
  3
FEA
350
2D33
  3
HATCH (1)
350
2D30
  3
HATCH (2)
350
2D31
  3
SIMPLE WELD
350
2D35
  3
SYMBOLS
350
2D32
  0
XRECORD
  5
2D65
102
{ACAD_REACTORS
330
2B09
102
}
330
2B09
100
AcDbXrecord
280
     1
  1
DWGPROPS COOKIE
  2

  3

  4

  6

  7

  8
A090053
  9

300
AmdtFileType=84
301
=
302
=
303
=
304
=
305
=
306
=
307
=
308
=
309
=
 40
1.040975729166666
 41
2452321.396199653
 42
2456211.581160637
  1

 90
        1
  0
XRECORD
  5
2D37
102
{ACAD_REACTORS
330
2D36
102
}
330
2D36
100
AcDbXrecord
280
     1
290
     1
  0
XRECORD
  5
2D39
102
{ACAD_REACTORS
330
2D38
102
}
330
2D38
100
AcDbXrecord
280
     1
290
     1
  0
XRECORD
  5
2D3B
102
{ACAD_REACTORS
330
2D3A
102
}
330
2D3A
100
AcDbXrecord
280
     1
290
     1
  0
XRECORD
  5
2D3D
102
{ACAD_REACTORS
330
2D3C
102
}
330
2D3C
100
AcDbXrecord
280
     1
290
     1
  0
XRECORD
  5
2D3F
102
{ACAD_REACTORS
330
2D3E
102
}
330
2D3E
100
AcDbXrecord
280
     1
290
     1
  0
XRECORD
  5
2D41
102
{ACAD_REACTORS
330
2D40
102
}
330
2D40
100
AcDbXrecord
280
     1
290
     1
  0
XRECORD
  5
2D43
102
{ACAD_REACTORS
330
2D42
102
}
330
2D42
100
AcDbXrecord
280
     1
290
     1
  0
XRECORD
  5
2D45
102
{ACAD_REACTORS
330
2D44
102
}
330
2D44
100
AcDbXrecord
280
     1
290
     1
  0
XRECORD
  5
2D47
102
{ACAD_REACTORS
330
2D46
102
}
330
2D46
100
AcDbXrecord
280
     1
290
     1
  0
XRECORD
  5
2D49
102
{ACAD_REACTORS
330
2D48
102
}
330
2D48
100
AcDbXrecord
280
     1
290
     1
  0
XRECORD
  5
2D4B
102
{ACAD_REACTORS
330
2D4A
102
}
330
2D4A
100
AcDbXrecord
280
     1
290
     1
  0
DICTIONARY
  5
2D4D
102
{ACAD_REACTORS
330
2D4C
102
}
330
2D4C
100
AcDbDictionary
281
     1
  3
*A1
350
2D4E
  0
XRECORD
  5
2D67
102
{ACAD_REACTORS
330
2D66
102
}
330
2D66
100
AcDbXrecord
280
     1
 70
     1
  0
XRECORD
  5
2D69
102
{ACAD_REACTORS
330
2D66
102
}
330
2D66
100
AcDbXrecord
280
     1
340
2B5F
  0
XRECORD
  5
2D6A
102
{ACAD_REACTORS
330
2D66
102
}
330
2D66
100
AcDbXrecord
280
     1
340
2B5F
  0
XRECORD
  5
2D68
102
{ACAD_REACTORS
330
2D66
102
}
330
2D66
100
AcDbXrecord
280
     1
340
2B5F
  0
LAYOUT
  5
2B74
102
{ACAD_XDICTIONARY
360
2D71
102
}
102
{ACAD_REACTORS
330
2B66
102
}
330
2B66
100
AcDbPlotSettings
  1

  2
自動 EPSON LP-9600S (W2450527 上)
  4

  6

 40
0.0
 41
0.0
 42
0.0
 43
0.0
 44
0.0
 45
0.0
 46
0.0
 47
0.0
 48
0.0
 49
0.0
140
0.0
141
0.0
142
1.0
143
1.0
 70
  1712
 72
     0
 73
     0
 74
     0
  7

 75
     0
147
1.0
148
0.0
149
0.0
100
AcDbLayout
  1
Model
 70
     1
 71
     0
 10
0.0
 20
0.0
 11
12.0
 21
9.0
 12
0.0
 22
0.0
 32
0.0
 14
0.0
 24
0.0
 34
0.0
 15
0.0
 25
0.0
 35
0.0
146
0.0
 13
0.0
 23
0.0
 33
0.0
 16
1.0
 26
0.0
 36
0.0
 17
0.0
 27
1.0
 37
0.0
 76
     0
330
2B71
331
2B75
  0
LAYOUT
  5
2B70
102
{ACAD_XDICTIONARY
360
2D6F
102
}
102
{ACAD_REACTORS
330
2B66
102
}
330
2B66
100
AcDbPlotSettings
  1

  2
自動 EPSON LP-9600S (W2450527 上)
  4

  6

 40
0.0
 41
0.0
 42
0.0
 43
0.0
 44
0.0
 45
0.0
 46
0.0
 47
0.0
 48
0.0
 49
0.0
140
0.0
141
0.0
142
1.0
143
1.0
 70
   688
 72
     0
 73
     0
 74
     5
  7

 75
    16
147
1.0
148
0.0
149
0.0
100
AcDbLayout
  1
レイアウト1
 70
     1
 71
     1
 10
0.0
 20
0.0
 11
12.0
 21
9.0
 12
0.0
 22
0.0
 32
0.0
 14
1.000000000000000E+20
 24
1.000000000000000E+20
 34
1.000000000000000E+20
 15
-1.000000000000000E+20
 25
-1.000000000000000E+20
 35
-1.000000000000000E+20
146
0.0
 13
0.0
 23
0.0
 33
0.0
 16
1.0
 26
0.0
 36
0.0
 17
0.0
 27
1.0
 37
0.0
 76
     0
330
2B6D
  0
MATERIAL
  5
2B16
102
{ACAD_XDICTIONARY
360
2B17
102
}
102
{ACAD_REACTORS
330
2B0D
102
}
330
2B0D
100
AcDbMaterial
  1
ByBlock
 72
     0
 43
0.0208333333333333
 43
0.0
 43
0.0
 43
0.0
 43
0.0
 43
0.0208333333333333
 43
0.0
 43
0.0
 43
0.0
 43
0.0
 43
1.0
 43
0.0
 43
0.0
 43
0.0
 43
0.0
 43
1.0
 77
     0
 47
0.0208333333333333
 47
0.0
 47
0.0
 47
0.0
 47
0.0
 47
0.0208333333333333
 47
0.0
 47
0.0
 47
0.0
 47
0.0
 47
1.0
 47
0.0
 47
0.0
 47
0.0
 47
0.0
 47
1.0
171
     0
 49
0.0208333333333333
 49
0.0
 49
0.0
 49
0.0
 49
0.0
 49
0.0208333333333333
 49
0.0
 49
0.0
 49
0.0
 49
0.0
 49
1.0
 49
0.0
 49
0.0
 49
0.0
 49
0.0
 49
1.0
175
     0
142
0.0208333333333333
142
0.0
142
0.0
142
0.0
142
0.0
142
0.0208333333333333
142
0.0
142
0.0
142
0.0
142
0.0
142
1.0
142
0.0
142
0.0
142
0.0
142
0.0
142
1.0
179
     0
144
0.0208333333333333
144
0.0
144
0.0
144
0.0
144
0.0
144
0.0208333333333333
144
0.0
144
0.0
144
0.0
144
0.0
144
1.0
144
0.0
144
0.0
144
0.0
144
0.0
144
1.0
147
0.0208333333333333
147
0.0
147
0.0
147
0.0
147
0.0
147
0.0208333333333333
147
0.0
147
0.0
147
0.0
147
0.0
147
1.0
147
0.0
147
0.0
147
0.0
147
0.0
147
1.0
  0
MATERIAL
  5
2B0E
102
{ACAD_XDICTIONARY
360
2B0F
102
}
102
{ACAD_REACTORS
330
2B0D
102
}
330
2B0D
100
AcDbMaterial
  1
ByLayer
 72
     0
 43
0.0208333333333333
 43
0.0
 43
0.0
 43
0.0
 43
0.0
 43
0.0208333333333333
 43
0.0
 43
0.0
 43
0.0
 43
0.0
 43
1.0
 43
0.0
 43
0.0
 43
0.0
 43
0.0
 43
1.0
 77
     0
 47
0.0208333333333333
 47
0.0
 47
0.0
 47
0.0
 47
0.0
 47
0.0208333333333333
 47
0.0
 47
0.0
 47
0.0
 47
0.0
 47
1.0
 47
0.0
 47
0.0
 47
0.0
 47
0.0
 47
1.0
171
     0
 49
0.0208333333333333
 49
0.0
 49
0.0
 49
0.0
 49
0.0
 49
0.0208333333333333
 49
0.0
 49
0.0
 49
0.0
 49
0.0
 49
1.0
 49
0.0
 49
0.0
 49
0.0
 49
0.0
 49
1.0
175
     0
142
0.0208333333333333
142
0.0
142
0.0
142
0.0
142
0.0
142
0.0208333333333333
142
0.0
142
0.0
142
0.0
142
0.0
142
1.0
142
0.0
142
0.0
142
0.0
142
0.0
142
1.0
179
     0
144
0.0208333333333333
144
0.0
144
0.0
144
0.0
144
0.0
144
0.0208333333333333
144
0.0
144
0.0
144
0.0
144
0.0
144
1.0
144
0.0
144
0.0
144
0.0
144
0.0
144
1.0
147
0.0208333333333333
147
0.0
147
0.0
147
0.0
147
0.0
147
0.0208333333333333
147
0.0
147
0.0
147
0.0
147
0.0
147
1.0
147
0.0
147
0.0
147
0.0
147
0.0
147
1.0
  0
MATERIAL
  5
2B1E
102
{ACAD_XDICTIONARY
360
2B1F
102
}
102
{ACAD_REACTORS
330
2B0D
102
}
330
2B0D
100
AcDbMaterial
  1
Global
 72
     0
 43
0.0208333333333333
 43
0.0
 43
0.0
 43
0.0
 43
0.0
 43
0.0208333333333333
 43
0.0
 43
0.0
 43
0.0
 43
0.0
 43
1.0
 43
0.0
 43
0.0
 43
0.0
 43
0.0
 43
1.0
 77
     0
 47
0.0208333333333333
 47
0.0
 47
0.0
 47
0.0
 47
0.0
 47
0.0208333333333333
 47
0.0
 47
0.0
 47
0.0
 47
0.0
 47
1.0
 47
0.0
 47
0.0
 47
0.0
 47
0.0
 47
1.0
171
     0
 49
0.0208333333333333
 49
0.0
 49
0.0
 49
0.0
 49
0.0
 49
0.0208333333333333
 49
0.0
 49
0.0
 49
0.0
 49
0.0
 49
1.0
 49
0.0
 49
0.0
 49
0.0
 49
0.0
 49
1.0
175
     0
142
0.0208333333333333
142
0.0
142
0.0
142
0.0
142
0.0
142
0.0208333333333333
142
0.0
142
0.0
142
0.0
142
0.0
142
1.0
142
0.0
142
0.0
142
0.0
142
0.0
142
1.0
179
     0
144
0.0208333333333333
144
0.0
144
0.0
144
0.0
144
0.0
144
0.0208333333333333
144
0.0
144
0.0
144
0.0
144
0.0
144
1.0
144
0.0
144
0.0
144
0.0
144
0.0
144
1.0
147
0.0208333333333333
147
0.0
147
0.0
147
0.0
147
0.0
147
0.0208333333333333
147
0.0
147
0.0
147
0.0
147
0.0
147
1.0
147
0.0
147
0.0
147
0.0
147
0.0
147
1.0
  0
MLEADERSTYLE
  5
2B6B
102
{ACAD_REACTORS
330
2B6A
102
}
330
2B6A
100
AcDbMLeaderStyle
170
     2
171
     1
172
     0
 90
        2
 40
0.0
 41
0.0
173
     1
 91
-1056964608
340
2B5F
 92
       -2
290
     1
 42
0.09
291
     1
 43
0.36
  3
Standard
 44
0.18
300

342
2B5A
174
     1
178
     6
175
     1
176
     0
 93
-1056964608
 45
0.18
292
     0
297
     0
 46
0.18
 94
-1056964608
 47
1.0
 49
1.0
140
1.0
293
     1
141
0.0
294
     1
177
     0
142
1.0
295
     0
296
     0
143
0.125
1001
ACAD_MLEADERVER
1070
     2
  0
MLINESTYLE
  5
2B64
102
{ACAD_REACTORS
330
2B63
102
}
330
2B63
100
AcDbMlineStyle
  2
STANDARD
 70
     0
  3

 62
   256
 51
90.0
 52
90.0
 71
     2
 49
0.5
 62
   256
  6
BYLAYER
 49
-0.5
 62
   256
  6
BYLAYER
  0
ACDBPLACEHOLDER
  5
2B0C
102
{ACAD_REACTORS
330
2B0B
102
}
330
2B0B
  0
SCALE
  5
2B38
102
{ACAD_REACTORS
330
2B37
102
}
330
2B37
100
AcDbScale
 70
     0
300
1:1
140
1.0
141
1.0
290
     1
  0
SCALE
  5
2B39
102
{ACAD_REACTORS
330
2B37
102
}
330
2B37
100
AcDbScale
 70
     0
300
1:2
140
1.0
141
2.0
290
     0
  0
SCALE
  5
2B3A
102
{ACAD_REACTORS
330
2B37
102
}
330
2B37
100
AcDbScale
 70
     0
300
1:4
140
1.0
141
4.0
290
     0
  0
SCALE
  5
2B3B
102
{ACAD_REACTORS
330
2B37
102
}
330
2B37
100
AcDbScale
 70
     0
300
1:5
140
1.0
141
5.0
290
     0
  0
SCALE
  5
2B3C
102
{ACAD_REACTORS
330
2B37
102
}
330
2B37
100
AcDbScale
 70
     0
300
1:8
140
1.0
141
8.0
290
     0
  0
SCALE
  5
2B3D
102
{ACAD_REACTORS
330
2B37
102
}
330
2B37
100
AcDbScale
 70
     0
300
1:10
140
1.0
141
10.0
290
     0
  0
SCALE
  5
2B3E
102
{ACAD_REACTORS
330
2B37
102
}
330
2B37
100
AcDbScale
 70
     0
300
1:16
140
1.0
141
16.0
290
     0
  0
SCALE
  5
2B3F
102
{ACAD_REACTORS
330
2B37
102
}
330
2B37
100
AcDbScale
 70
     0
300
1:20
140
1.0
141
20.0
290
     0
  0
SCALE
  5
2B40
102
{ACAD_REACTORS
330
2B37
102
}
330
2B37
100
AcDbScale
 70
     0
300
1:30
140
1.0
141
30.0
290
     0
  0
SCALE
  5
2B41
102
{ACAD_REACTORS
330
2B37
102
}
330
2B37
100
AcDbScale
 70
     0
300
1:40
140
1.0
141
40.0
290
     0
  0
SCALE
  5
2B42
102
{ACAD_REACTORS
330
2B37
102
}
330
2B37
100
AcDbScale
 70
     0
300
1:50
140
1.0
141
50.0
290
     0
  0
SCALE
  5
2B43
102
{ACAD_REACTORS
330
2B37
102
}
330
2B37
100
AcDbScale
 70
     0
300
1:100
140
1.0
141
100.0
290
     0
  0
SCALE
  5
2B44
102
{ACAD_REACTORS
330
2B37
102
}
330
2B37
100
AcDbScale
 70
     0
300
2:1
140
2.0
141
1.0
290
     0
  0
SCALE
  5
2B45
102
{ACAD_REACTORS
330
2B37
102
}
330
2B37
100
AcDbScale
 70
     0
300
4:1
140
4.0
141
1.0
290
     0
  0
SCALE
  5
2B46
102
{ACAD_REACTORS
330
2B37
102
}
330
2B37
100
AcDbScale
 70
     0
300
8:1
140
8.0
141
1.0
290
     0
  0
SCALE
  5
2B47
102
{ACAD_REACTORS
330
2B37
102
}
330
2B37
100
AcDbScale
 70
     0
300
10:1
140
10.0
141
1.0
290
     0
  0
SCALE
  5
2B48
102
{ACAD_REACTORS
330
2B37
102
}
330
2B37
100
AcDbScale
 70
     0
300
100:1
140
100.0
141
1.0
290
     0
  0
SCALE
  5
2B49
102
{ACAD_REACTORS
330
2B37
102
}
330
2B37
100
AcDbScale
 70
     0
300
1/128" = 1'-0"
140
0.0078125
141
12.0
290
     0
  0
SCALE
  5
2B4A
102
{ACAD_REACTORS
330
2B37
102
}
330
2B37
100
AcDbScale
 70
     0
300
1/64" = 1'-0"
140
0.015625
141
12.0
290
     0
  0
SCALE
  5
2B4B
102
{ACAD_REACTORS
330
2B37
102
}
330
2B37
100
AcDbScale
 70
     0
300
1/32" = 1'-0"
140
0.03125
141
12.0
290
     0
  0
SCALE
  5
2B4C
102
{ACAD_REACTORS
330
2B37
102
}
330
2B37
100
AcDbScale
 70
     0
300
1/16" = 1'-0"
140
0.0625
141
12.0
290
     0
  0
SCALE
  5
2B4D
102
{ACAD_REACTORS
330
2B37
102
}
330
2B37
100
AcDbScale
 70
     0
300
3/32" = 1'-0"
140
0.09375
141
12.0
290
     0
  0
SCALE
  5
2B4E
102
{ACAD_REACTORS
330
2B37
102
}
330
2B37
100
AcDbScale
 70
     0
300
1/8" = 1'-0"
140
0.125
141
12.0
290
     0
  0
SCALE
  5
2B4F
102
{ACAD_REACTORS
330
2B37
102
}
330
2B37
100
AcDbScale
 70
     0
300
3/16" = 1'-0"
140
0.1875
141
12.0
290
     0
  0
SCALE
  5
2B50
102
{ACAD_REACTORS
330
2B37
102
}
330
2B37
100
AcDbScale
 70
     0
300
1/4" = 1'-0"
140
0.25
141
12.0
290
     0
  0
SCALE
  5
2B51
102
{ACAD_REACTORS
330
2B37
102
}
330
2B37
100
AcDbScale
 70
     0
300
3/8" = 1'-0"
140
0.375
141
12.0
290
     0
  0
SCALE
  5
2B52
102
{ACAD_REACTORS
330
2B37
102
}
330
2B37
100
AcDbScale
 70
     0
300
1/2" = 1'-0"
140
0.5
141
12.0
290
     0
  0
SCALE
  5
2B53
102
{ACAD_REACTORS
330
2B37
102
}
330
2B37
100
AcDbScale
 70
     0
300
3/4" = 1'-0"
140
0.75
141
12.0
290
     0
  0
SCALE
  5
2B54
102
{ACAD_REACTORS
330
2B37
102
}
330
2B37
100
AcDbScale
 70
     0
300
1" = 1'-0"
140
1.0
141
12.0
290
     0
  0
SCALE
  5
2B55
102
{ACAD_REACTORS
330
2B37
102
}
330
2B37
100
AcDbScale
 70
     0
300
1-1/2" = 1'-0"
140
1.5
141
12.0
290
     0
  0
SCALE
  5
2B56
102
{ACAD_REACTORS
330
2B37
102
}
330
2B37
100
AcDbScale
 70
     0
300
3" = 1'-0"
140
3.0
141
12.0
290
     0
  0
SCALE
  5
2B57
102
{ACAD_REACTORS
330
2B37
102
}
330
2B37
100
AcDbScale
 70
     0
300
6" = 1'-0"
140
6.0
141
12.0
290
     0
  0
SCALE
  5
2B58
102
{ACAD_REACTORS
330
2B37
102
}
330
2B37
100
AcDbScale
 70
     0
300
1'-0" = 1'-0"
140
12.0
141
12.0
290
     0
  0
TABLESTYLE
  5
2B69
102
{ACAD_XDICTIONARY
360
2D62
102
}
102
{ACAD_REACTORS
330
2B68
102
}
330
2B68
100
AcDbTableStyle
  3
Standard
 70
     0
 71
     0
 40
0.06
 41
0.06
280
     0
281
     0
  7
STANDARD
140
0.18
170
     2
 62
     0
 63
     7
283
     0
274
    -2
284
     1
 64
     0
275
    -2
285
     1
 65
     0
276
    -2
286
     1
 66
     0
277
    -2
287
     1
 67
     0
278
    -2
288
     1
 68
     0
279
    -2
289
     1
 69
     0
  7
STANDARD
140
0.25
170
     5
 62
     0
 63
     7
283
     0
274
    -2
284
     1
 64
     0
275
    -2
285
     1
 65
     0
276
    -2
286
     1
 66
     0
277
    -2
287
     1
 67
     0
278
    -2
288
     1
 68
     0
279
    -2
289
     1
 69
     0
  7
STANDARD
140
0.18
170
     5
 62
     0
 63
     7
283
     0
274
    -2
284
     1
 64
     0
275
    -2
285
     1
 65
     0
276
    -2
286
     1
 66
     0
277
    -2
287
     1
 67
     0
278
    -2
288
     1
 68
     0
279
    -2
289
     1
 69
     0
  0
VISUALSTYLE
  5
2B2C
102
{ACAD_REACTORS
330
2B26
102
}
330
2B26
100
AcDbVisualStyle
  2
2dWireframe
 70
     4
 71
     0
 72
     2
 73
     0
 90
        0
 40
-0.6
 41
-30.0
 62
     5
 63
     7
 74
     1
 91
        4
 64
     7
 65
   257
 75
     1
175
     1
 42
1.0
 92
        0
 66
   257
 43
1.0
 76
     1
 77
     6
 78
     2
 67
     7
 79
     5
170
     0
171
     0
290
     0
174
     0
 93
        1
 44
0.0
173
     0
291
     0
 45
0.0
1001
ACAD
1000
AcDbSavedByObjectVersion
1070
     0
  0
VISUALSTYLE
  5
2B2E
102
{ACAD_REACTORS
330
2B26
102
}
330
2B26
100
AcDbVisualStyle
  2
3D Hidden
 70
     6
 71
     1
 72
     2
 73
     2
 90
        0
 40
-0.6
 41
-30.0
 62
     5
 63
     7
 74
     2
 91
        2
 64
     7
 65
   257
 75
     2
175
     1
 42
40.0
 92
        0
 66
   257
 43
1.0
 76
     1
 77
     6
 78
     2
 67
     7
 79
     3
170
     0
171
     0
290
     0
174
     0
 93
        1
 44
0.0
173
     0
291
     0
 45
0.0
1001
ACAD
1000
AcDbSavedByObjectVersion
1070
     0
  0
VISUALSTYLE
  5
2B2D
102
{ACAD_REACTORS
330
2B26
102
}
330
2B26
100
AcDbVisualStyle
  2
3dWireframe
 70
     5
 71
     0
 72
     2
 73
     0
 90
        0
 40
-0.6
 41
-30.0
 62
     5
 63
     7
 74
     1
 91
        4
 64
     7
 65
   257
 75
     1
175
     1
 42
1.0
 92
        0
 66
   257
 43
1.0
 76
     1
 77
     6
 78
     2
 67
     7
 79
     5
170
     0
171
     0
290
     0
174
     0
 93
        1
 44
0.0
173
     0
291
     0
 45
0.0
1001
ACAD
1000
AcDbSavedByObjectVersion
1070
     0
  0
VISUALSTYLE
  5
2B2B
102
{ACAD_REACTORS
330
2B26
102
}
330
2B26
100
AcDbVisualStyle
  2
Basic
 70
     7
 71
     1
 72
     0
 73
     1
 90
        0
 40
-0.6
 41
-30.0
 62
     5
 63
     7
 74
     0
 91
        4
 64
     7
 65
   257
 75
     1
175
     1
 42
1.0
 92
        8
 66
     7
 43
1.0
 76
     1
 77
     6
 78
     2
 67
     7
 79
     5
170
     0
171
     0
290
     0
174
     0
 93
        1
 44
0.0
173
     0
291
     1
 45
0.0
1001
ACAD
1000
AcDbSavedByObjectVersion
1070
     0
  0
VISUALSTYLE
  5
2B32
102
{ACAD_REACTORS
330
2B26
102
}
330
2B26
100
AcDbVisualStyle
  2
Brighten
 70
    12
 71
     2
 72
     2
 73
     0
 90
        0
 40
-0.6
 41
-30.0
 62
     5
 63
     7
 74
     1
 91
        4
 64
     7
 65
   257
 75
     1
175
     1
 42
1.0
 92
        8
 66
     7
 43
1.0
 76
     1
 77
     6
 78
     2
 67
     7
 79
     5
170
     0
171
     0
290
     0
174
     0
 93
        1
 44
50.0
173
     0
291
     1
 45
0.0
1001
ACAD
1000
AcDbSavedByObjectVersion
1070
     0
  0
VISUALSTYLE
  5
2B36
102
{ACAD_REACTORS
330
2B26
102
}
330
2B26
100
AcDbVisualStyle
  2
ColorChange
 70
    16
 71
     2
 72
     2
 73
     3
 90
        0
 40
-0.6
 41
-30.0
 62
     5
 63
     8
 74
     1
 91
        4
 64
     7
 65
   257
 75
     1
175
     1
 42
1.0
 92
        8
 66
     8
 43
1.0
 76
     1
 77
     6
 78
     2
 67
     7
 79
     5
170
     0
171
     0
290
     0
174
     0
 93
        1
 44
0.0
173
     0
291
     1
 45
0.0
1001
ACAD
1000
AcDbSavedByObjectVersion
1070
     0
  0
VISUALSTYLE
  5
2B2F
102
{ACAD_REACTORS
330
2B26
102
}
330
2B26
100
AcDbVisualStyle
  2
Conceptual
 70
     9
 71
     3
 72
     2
 73
     0
 90
        0
 40
-0.6
 41
-30.0
 62
     5
 63
     7
 74
     2
 91
        2
 64
     7
 65
   257
 75
     1
175
     1
 42
40.0
 92
        8
 66
     7
 43
1.0
 76
     1
 77
     6
 78
     2
 67
     7
 79
     3
170
     0
171
     0
290
     0
174
     0
 93
        1
 44
0.0
173
     0
291
     0
 45
0.0
1001
ACAD
1000
AcDbSavedByObjectVersion
1070
     0
  0
VISUALSTYLE
  5
2B31
102
{ACAD_REACTORS
330
2B26
102
}
330
2B26
100
AcDbVisualStyle
  2
Dim
 70
    11
 71
     2
 72
     2
 73
     0
 90
        0
 40
-0.6
 41
-30.0
 62
     5
 63
     7
 74
     1
 91
        4
 64
     7
 65
   257
 75
     1
175
     1
 42
1.0
 92
        8
 66
     7
 43
1.0
 76
     1
 77
     6
 78
     2
 67
     7
 79
     5
170
     0
171
     0
290
     0
174
     0
 93
        1
 44
-50.0
173
     0
291
     1
 45
0.0
1001
ACAD
1000
AcDbSavedByObjectVersion
1070
     0
  0
VISUALSTYLE
  5
2B35
102
{ACAD_REACTORS
330
2B26
102
}
330
2B26
100
AcDbVisualStyle
  2
Facepattern
 70
    15
 71
     2
 72
     2
 73
     0
 90
        0
 40
-0.6
 41
-30.0
 62
     5
 63
     7
 74
     1
 91
        4
 64
     7
 65
   257
 75
     1
175
     1
 42
1.0
 92
        8
 66
     7
 43
1.0
 76
     1
 77
     6
 78
     2
 67
     7
 79
     5
170
     0
171
     0
290
     0
174
     0
 93
        1
 44
0.0
173
     0
291
     1
 45
0.0
1001
ACAD
1000
AcDbSavedByObjectVersion
1070
     0
  0
VISUALSTYLE
  5
2B27
102
{ACAD_REACTORS
330
2B26
102
}
330
2B26
100
AcDbVisualStyle
  2
Flat
 70
     0
 71
     2
 72
     1
 73
     1
 90
        2
 40
-0.6
 41
30.0
 62
     5
 63
     7
 74
     0
 91
        4
 64
     7
 65
   257
 75
     1
175
     1
 42
1.0
 92
        8
 66
     7
 43
1.0
 76
     1
 77
     6
 78
     2
 67
     7
 79
     5
170
     0
171
     0
290
     0
174
     0
 93
       13
 44
0.0
173
     0
291
     1
 45
0.0
1001
ACAD
1000
AcDbSavedByObjectVersion
1070
     0
  0
VISUALSTYLE
  5
2B28
102
{ACAD_REACTORS
330
2B26
102
}
330
2B26
100
AcDbVisualStyle
  2
FlatWithEdges
 70
     1
 71
     2
 72
     1
 73
     1
 90
        2
 40
-0.6
 41
30.0
 62
     5
 63
     7
 74
     1
 91
        4
 64
     7
 65
   257
 75
     1
175
     1
 42
1.0
 92
        0
 66
   257
 43
1.0
 76
     1
 77
     6
 78
     2
 67
     7
 79
     5
170
     0
171
     0
290
     0
174
     0
 93
       13
 44
0.0
173
     0
291
     1
 45
0.0
1001
ACAD
1000
AcDbSavedByObjectVersion
1070
     0
  0
VISUALSTYLE
  5
2B29
102
{ACAD_REACTORS
330
2B26
102
}
330
2B26
100
AcDbVisualStyle
  2
Gouraud
 70
     2
 71
     2
 72
     2
 73
     1
 90
        2
 40
-0.6
 41
30.0
 62
     5
 63
     7
 74
     0
 91
        4
 64
     7
 65
   257
 75
     1
175
     1
 42
1.0
 92
        0
 66
     7
 43
1.0
 76
     1
 77
     6
 78
     2
 67
     7
 79
     5
170
     0
171
     0
290
     0
174
     0
 93
       13
 44
0.0
173
     0
291
     1
 45
0.0
1001
ACAD
1000
AcDbSavedByObjectVersion
1070
     0
  0
VISUALSTYLE
  5
2B2A
102
{ACAD_REACTORS
330
2B26
102
}
330
2B26
100
AcDbVisualStyle
  2
GouraudWithEdges
 70
     3
 71
     2
 72
     2
 73
     1
 90
        2
 40
-0.6
 41
30.0
 62
     5
 63
     7
 74
     1
 91
        4
 64
     7
 65
   257
 75
     1
175
     1
 42
1.0
 92
        0
 66
   257
 43
1.0
 76
     1
 77
     6
 78
     2
 67
     7
 79
     5
170
     0
171
     0
290
     0
174
     0
 93
       13
 44
0.0
173
     0
291
     1
 45
0.0
1001
ACAD
1000
AcDbSavedByObjectVersion
1070
     0
  0
VISUALSTYLE
  5
2B34
102
{ACAD_REACTORS
330
2B26
102
}
330
2B26
100
AcDbVisualStyle
  2
Linepattern
 70
    14
 71
     2
 72
     2
 73
     0
 90
        0
 40
-0.6
 41
-30.0
 62
     5
 63
     7
 74
     1
 91
        4
 64
     7
 65
   257
 75
     7
175
     7
 42
1.0
 92
        8
 66
     7
 43
1.0
 76
     1
 77
     6
 78
     2
 67
     7
 79
     5
170
     0
171
     0
290
     0
174
     0
 93
        1
 44
0.0
173
     0
291
     1
 45
0.0
1001
ACAD
1000
AcDbSavedByObjectVersion
1070
     0
  0
VISUALSTYLE
  5
2B30
102
{ACAD_REACTORS
330
2B26
102
}
330
2B26
100
AcDbVisualStyle
  2
Realistic
 70
     8
 71
     2
 72
     2
 73
     0
 90
        0
 40
-0.6
 41
-30.0
 62
     5
 63
     7
 74
     1
 91
        0
 64
     7
 65
   257
 75
     1
175
     1
 42
1.0
 92
        8
 66
     8
 43
1.0
 76
     1
 77
     6
 78
     2
 67
     7
 79
     5
170
     0
171
     0
290
     0
174
     0
 93
       13
 44
0.0
173
     0
291
     0
 45
0.0
1001
ACAD
1000
AcDbSavedByObjectVersion
1070
     0
  0
VISUALSTYLE
  5
2B33
102
{ACAD_REACTORS
330
2B26
102
}
330
2B26
100
AcDbVisualStyle
  2
Thicken
 70
    13
 71
     2
 72
     2
 73
     0
 90
        0
 40
-0.6
 41
-30.0
 62
     5
 63
     7
 74
     1
 91
        4
 64
     7
 65
   257
 75
     1
175
     1
 42
1.0
 92
       12
 66
     7
 43
1.0
 76
     1
 77
     6
 78
     2
 67
     7
 79
     5
170
     0
171
     0
290
     0
174
     0
 93
        1
 44
0.0
173
     0
291
     1
 45
0.0
1001
ACAD
1000
AcDbSavedByObjectVersion
1070
     0
  0
DICTIONARYVAR
  5
2D5E
102
{ACAD_REACTORS
330
2D5B
102
}
330
2D5B
100
DictionaryVariables
280
     0
  1
1:1
  0
DICTIONARYVAR
  5
2D5D
102
{ACAD_REACTORS
330
2D5B
102
}
330
2D5B
100
DictionaryVariables
280
     0
  1
STANDARD
  0
DICTIONARYVAR
  5
2D5C
102
{ACAD_REACTORS
330
2D5B
102
}
330
2D5B
100
DictionaryVariables
280
     0
  1
STANDARD
  0
DICTIONARYVAR
  5
2D61
102
{ACAD_REACTORS
330
2D5B
102
}
330
2D5B
100
DictionaryVariables
280
     0
  1
1
  0
DICTIONARYVAR
  5
2D60
102
{ACAD_REACTORS
330
2D5B
102
}
330
2D5B
100
DictionaryVariables
280
     0
  1
1
  0
DICTIONARYVAR
  5
2D5F
102
{ACAD_REACTORS
330
2D5B
102
}
330
2D5B
100
DictionaryVariables
280
     0
  1
127
  0
DICTIONARY
  5
2D15
102
{ACAD_REACTORS
330
2D07
102
}
330
2D07
100
AcDbDictionary
281
     1
  0
DICTIONARY
  5
2C55
102
{ACAD_REACTORS
330
2C54
102
}
330
2C54
100
AcDbDictionary
281
     1
  3
DWGSETTINGS
350
2C56
  3
TRANSSETTINGS
350
2C57
  0
ACAMGFILTERDAT
  5
2D34
102
{ACAD_REACTORS
330
2D2F
102
}
330
2D2F
100
AcAmgFilterDat
 70
    15
  1
DIMENSION,AMDT_*_DIM
  2
*
  3
*
  4
*
  5
*
290
     1
  0
ACAMGFILTERDAT
  5
2D33
102
{ACAD_REACTORS
330
2D2F
102
}
330
2D2F
100
AcAmgFilterDat
 70
    15
  1
*
  2
AM_FEA-AM_*
  3
*
  4
*
  5
*
290
     1
  0
ACAMGFILTERDAT
  5
2D30
102
{ACAD_REACTORS
330
2D2F
102
}
330
2D2F
100
AcAmgFilterDat
 70
    15
  1
HATCH
  2
*
  3
*
  4
*
  5
*
290
     1
  0
ACAMGFILTERDAT
  5
2D31
102
{ACAD_REACTORS
330
2D2F
102
}
330
2D2F
100
AcAmgFilterDat
 70
    15
  1
LINE
  2
8,8N,*-8,*-8N,AM_8,AM_8N,*-AM_8,*-AM_8N
  3
*
  4
*
  5
INSERT,STDPART2D
290
     1
  0
ACAMGFILTERDAT
  5
2D35
102
{ACAD_REACTORS
330
2D2F
102
}
330
2D2F
100
AcAmgFilterDat
 70
    15
  1
ARC
  2
AM_5
  3
*
  4
2
  5
INSERT
290
     0
  0
ACAMGFILTERDAT
  5
2D32
102
{ACAD_REACTORS
330
2D2F
102
}
330
2D2F
100
AcAmgFilterDat
 70
    15
  1
ACMFCFRAME,ACMDATUMTARGET,ACMDATUMID,ACMWELDSYM,ACMSURFSYM,ACMFEATID,ACMPARTREF,ACMBALLOON,AMDTEDGESYM,AMGSCREWCALCTABLE,ACMMARKSTAMP
  2
*
  3
*
  4
*
  5
*
290
     1
  0
LAYER_INDEX
  5
2D4E
102
{ACAD_REACTORS
330
2D4D
102
}
330
2D4D
100
AcDbIndex
 40
2456211.581160637
100
AcDbLayerIndex
  8
0
360
2D4F
 90
        2
  8
OUTLINE
360
2D50
 90
       22
  8
SIZE
360
2D51
 90
       38
  8
BASIS
360
2D52
 90
        1
  8
DETAIL
360
2D53
 90
       24
  8
ARRANGE
360
2D54
 90
        2
  8
DEFPOINTS
360
2D55
 90
        0
  8
ETC
360
2D56
 90
        3
  8
FIX
360
2D57
 90
        0
  8
NOTE
360
2D58
 90
        4
  8
SERVICESPACE
360
2D59
 90
        0
  8
SYMBOLLINE
360
2D5A
 90
        0
  0
DICTIONARY
  5
2D71
330
2B74
100
AcDbDictionary
280
     1
281
     1
  3
ACAD_XREC_ROUNDTRIP
360
2D72
  0
DICTIONARY
  5
2D6F
330
2B70
100
AcDbDictionary
280
     1
281
     1
  3
ACAD_XREC_ROUNDTRIP
360
2D70
  0
DICTIONARY
  5
2B17
330
2B16
100
AcDbDictionary
280
     1
281
     1
  3
ACAD_XREC_ROUNDTRIP
360
2D6C
  3
BUMPTILE
360
2B19
  3
DIFFUSETILE
360
2B18
  3
OPACITYTILE
360
2B1C
  3
REFLECTIONTILE
360
2B1B
  3
REFRACTIONTILE
360
2B1D
  3
SPECULARTILE
360
2B1A
  0
DICTIONARY
  5
2B0F
330
2B0E
100
AcDbDictionary
280
     1
281
     1
  3
ACAD_XREC_ROUNDTRIP
360
2D6B
  3
BUMPTILE
360
2B11
  3
DIFFUSETILE
360
2B10
  3
OPACITYTILE
360
2B14
  3
REFLECTIONTILE
360
2B13
  3
REFRACTIONTILE
360
2B15
  3
SPECULARTILE
360
2B12
  0
DICTIONARY
  5
2B1F
330
2B1E
100
AcDbDictionary
280
     1
281
     1
  3
ACAD_XREC_ROUNDTRIP
360
2D6D
  3
BUMPTILE
360
2B21
  3
DIFFUSETILE
360
2B20
  3
OPACITYTILE
360
2B24
  3
REFLECTIONTILE
360
2B23
  3
REFRACTIONTILE
360
2B25
  3
SPECULARTILE
360
2B22
  0
DICTIONARY
  5
2D62
330
2B69
100
AcDbDictionary
280
     1
281
     1
  3
ACAD_ROUNDTRIP_2008_TABLESTYLE_CELLSTYLEMAP
360
2D63
  3
ACAD_XREC_ROUNDTRIP
360
2D6E
  0
IDBUFFER
  5
2D4F
330
0
100
AcDbIdBuffer
330
288D
330
288E
  0
IDBUFFER
  5
2D50
330
0
100
AcDbIdBuffer
330
2897
330
2898
330
2899
330
289A
330
289B
330
28A0
330
953
330
954
330
955
330
956
330
957
330
958
330
2877
330
2887
330
288F
330
2890
330
2891
330
2892
330
2893
330
2894
330
2895
330
2896
  0
IDBUFFER
  5
2D51
330
0
100
AcDbIdBuffer
330
28B7
330
28B8
330
28B9
330
28BA
330
28BB
330
28BC
330
28BD
330
28BE
330
28BF
330
28C0
330
28C1
330
28C2
330
28C3
330
28C4
330
28C5
330
28C6
330
28C7
330
28C8
330
28C9
330
28CA
330
28CB
330
28CC
330
28A7
330
28A8
330
28A9
330
28AA
330
28AB
330
28AC
330
28AD
330
28AE
330
28AF
330
28B0
330
28B1
330
28B2
330
28B3
330
28B4
330
28B5
330
28B6
  0
IDBUFFER
  5
2D52
330
0
100
AcDbIdBuffer
330
287E
  0
IDBUFFER
  5
2D53
330
0
100
AcDbIdBuffer
330
288B
330
288C
330
28A1
330
28A2
330
28A3
330
28A4
330
28A5
330
28A6
330
2878
330
2879
330
287A
330
287B
330
287C
330
287D
330
287F
330
2880
330
2881
330
2882
330
2883
330
2884
330
2885
330
2888
330
2889
330
288A
  0
IDBUFFER
  5
2D54
330
0
100
AcDbIdBuffer
330
2876
330
2886
  0
IDBUFFER
  5
2D55
330
0
100
AcDbIdBuffer
  0
IDBUFFER
  5
2D56
330
0
100
AcDbIdBuffer
330
2873
330
2874
330
2875
  0
IDBUFFER
  5
2D57
330
0
100
AcDbIdBuffer
  0
IDBUFFER
  5
2D58
330
0
100
AcDbIdBuffer
330
289C
330
289D
330
289E
330
289F
  0
IDBUFFER
  5
2D59
330
0
100
AcDbIdBuffer
  0
IDBUFFER
  5
2D5A
330
0
100
AcDbIdBuffer
  0
XRECORD
  5
2D72
102
{ACAD_REACTORS
330
2D71
102
}
330
2D71
100
AcDbXrecord
280
     1
102
SHADEPLOT
 70
     0
102
SHADEPLOTRESLEVEL
 70
     2
102
SHADEPLOTCUSTOMDPI
 70
   300
  0
XRECORD
  5
2D70
102
{ACAD_REACTORS
330
2D6F
102
}
330
2D6F
100
AcDbXrecord
280
     1
102
SHADEPLOT
 70
     0
102
SHADEPLOTRESLEVEL
 70
     2
102
SHADEPLOTCUSTOMDPI
 70
   300
  0
XRECORD
  5
2D6C
102
{ACAD_REACTORS
330
2B17
102
}
330
2B17
100
AcDbXrecord
280
     1
102
MATERIAL
148
0.0
149
0.0
149
0.0
 93
        0
 94
      127
282
     0
 72
     0
 77
     0
171
     0
175
     0
179
     0
273
     0
  0
XRECORD
  5
2B19
102
{ACAD_REACTORS
330
2B17
102
}
330
2B17
100
AcDbXrecord
280
     1
270
     1
271
     1
  0
XRECORD
  5
2B18
102
{ACAD_REACTORS
330
2B17
102
}
330
2B17
100
AcDbXrecord
280
     1
270
     1
271
     1
  0
XRECORD
  5
2B1C
102
{ACAD_REACTORS
330
2B17
102
}
330
2B17
100
AcDbXrecord
280
     1
270
     1
271
     1
  0
XRECORD
  5
2B1B
102
{ACAD_REACTORS
330
2B17
102
}
330
2B17
100
AcDbXrecord
280
     1
270
     1
271
     1
  0
XRECORD
  5
2B1D
102
{ACAD_REACTORS
330
2B17
102
}
330
2B17
100
AcDbXrecord
280
     1
270
     1
271
     1
  0
XRECORD
  5
2B1A
102
{ACAD_REACTORS
330
2B17
102
}
330
2B17
100
AcDbXrecord
280
     1
270
     1
271
     1
  0
XRECORD
  5
2D6B
102
{ACAD_REACTORS
330
2B0F
102
}
330
2B0F
100
AcDbXrecord
280
     1
102
MATERIAL
148
0.0
149
0.0
149
0.0
 93
        0
 94
      127
282
     0
 72
     0
 77
     0
171
     0
175
     0
179
     0
273
     0
  0
XRECORD
  5
2B11
102
{ACAD_REACTORS
330
2B0F
102
}
330
2B0F
100
AcDbXrecord
280
     1
270
     1
271
     1
  0
XRECORD
  5
2B10
102
{ACAD_REACTORS
330
2B0F
102
}
330
2B0F
100
AcDbXrecord
280
     1
270
     1
271
     1
  0
XRECORD
  5
2B14
102
{ACAD_REACTORS
330
2B0F
102
}
330
2B0F
100
AcDbXrecord
280
     1
270
     1
271
     1
  0
XRECORD
  5
2B13
102
{ACAD_REACTORS
330
2B0F
102
}
330
2B0F
100
AcDbXrecord
280
     1
270
     1
271
     1
  0
XRECORD
  5
2B15
102
{ACAD_REACTORS
330
2B0F
102
}
330
2B0F
100
AcDbXrecord
280
     1
270
     1
271
     1
  0
XRECORD
  5
2B12
102
{ACAD_REACTORS
330
2B0F
102
}
330
2B0F
100
AcDbXrecord
280
     1
270
     1
271
     1
  0
XRECORD
  5
2D6D
102
{ACAD_REACTORS
330
2B1F
102
}
330
2B1F
100
AcDbXrecord
280
     1
102
MATERIAL
148
0.0
149
0.0
149
0.0
 93
        0
 94
      127
282
     0
 72
     0
 77
     0
171
     0
175
     0
179
     0
273
     0
  0
XRECORD
  5
2B21
102
{ACAD_REACTORS
330
2B1F
102
}
330
2B1F
100
AcDbXrecord
280
     1
270
     1
271
     1
  0
XRECORD
  5
2B20
102
{ACAD_REACTORS
330
2B1F
102
}
330
2B1F
100
AcDbXrecord
280
     1
270
     1
271
     1
  0
XRECORD
  5
2B24
102
{ACAD_REACTORS
330
2B1F
102
}
330
2B1F
100
AcDbXrecord
280
     1
270
     1
271
     1
  0
XRECORD
  5
2B23
102
{ACAD_REACTORS
330
2B1F
102
}
330
2B1F
100
AcDbXrecord
280
     1
270
     1
271
     1
  0
XRECORD
  5
2B25
102
{ACAD_REACTORS
330
2B1F
102
}
330
2B1F
100
AcDbXrecord
280
     1
270
     1
271
     1
  0
XRECORD
  5
2B22
102
{ACAD_REACTORS
330
2B1F
102
}
330
2B1F
100
AcDbXrecord
280
     1
270
     1
271
     1
  0
CELLSTYLEMAP
  5
2D63
102
{ACAD_REACTORS
330
2D62
102
}
330
2D62
100
AcDbCellStyleMap
 90
        3
300
CELLSTYLE
  1
TABLEFORMAT_BEGIN
 90
        5
170
     1
 91
        0
 92
    32768
 62
   257
 93
        1
300
CONTENTFORMAT
  1
CONTENTFORMAT_BEGIN
 90
        0
 91
        0
 92
      512
 93
        0
300

 40
0.0
140
1.0
 94
        5
 62
     0
340
2B5A
144
0.25
309
CONTENTFORMAT_END
171
     0
 94
        0
309
TABLEFORMAT_END
  1
CELLSTYLE_BEGIN
 90
        1
 91
        1
300
_TITLE
309
CELLSTYLE_END
300
CELLSTYLE
  1
TABLEFORMAT_BEGIN
 90
        5
170
     1
 91
        0
 92
        0
 62
   257
 93
        1
300
CONTENTFORMAT
  1
CONTENTFORMAT_BEGIN
 90
        0
 91
        0
 92
      512
 93
        0
300

 40
0.0
140
1.0
 94
        5
 62
     0
340
2B5A
144
0.18
309
CONTENTFORMAT_END
171
     0
 94
        0
309
TABLEFORMAT_END
  1
CELLSTYLE_BEGIN
 90
        2
 91
        1
300
_HEADER
309
CELLSTYLE_END
300
CELLSTYLE
  1
TABLEFORMAT_BEGIN
 90
        5
170
     1
 91
        0
 92
        0
 62
   257
 93
        1
300
CONTENTFORMAT
  1
CONTENTFORMAT_BEGIN
 90
        0
 91
        0
 92
      512
 93
        0
300

 40
0.0
140
1.0
 94
        2
 62
     0
340
2B5A
144
0.18
309
CONTENTFORMAT_END
171
     0
 94
        0
309
TABLEFORMAT_END
  1
CELLSTYLE_BEGIN
 90
        3
 91
        2
300
_DATA
309
CELLSTYLE_END
  0
XRECORD
  5
2D6E
102
{ACAD_REACTORS
330
2D62
102
}
330
2D62
100
AcDbXrecord
280
     1
102
ACAD_ROUNDTRIP_PRE2007_TABLESTYLE
 90
      512
 91
        0
  1

 92
      512
 93
        0
  2

 94
      512
 95
        0
  3

  0
ENDSEC
  0
EOF
