  0
SECTION
  2
HEADER
  9
$ACADVER
  1
AC1015
  9
$ACADMAINTVER
 70
    20
  9
$DWGCODEPAGE
  3
ANSI_932
  9
$INSBASE
 10
0.0
 20
0.0
 30
0.0
  9
$EXTMIN
 10
-851.0833577265549
 20
-628.6926154614102
 30
-0.0022882129575947
  9
$EXTMAX
 10
849.7238272797822
 20
698.2269368579454
 30
50.00228914432991
  9
$LIMMIN
 10
-2970.0
 20
-2100.0
  9
$LIMMAX
 10
2970.0
 20
2100.0
  9
$ORTHOMODE
 70
     1
  9
$REGENMODE
 70
     0
  9
$FILLMODE
 70
     1
  9
$QTEXTMODE
 70
     0
  9
$MIRRTEXT
 70
     0
  9
$LTSCALE
 40
20.0
  9
$ATTMODE
 70
     1
  9
$TEXTSIZE
 40
64.0
  9
$TRACEWID
 40
0.05
  9
$TEXTSTYLE
  7
STANDARD
  9
$CLAYER
  8
0
  9
$CELTYPE
  6
ByLayer
  9
$CECOLOR
 62
   256
  9
$CELTSCALE
 40
1.0
  9
$DISPSILH
 70
     0
  9
$DIMSCALE
 40
1.0
  9
$DIMASZ
 40
0.12
  9
$DIMEXO
 40
0.05
  9
$DIMDLI
 40
0.5
  9
$DIMRND
 40
0.0
  9
$DIMDLE
 40
0.0
  9
$DIMEXE
 40
0.1
  9
$DIMTP
 40
0.1
  9
$DIMTM
 40
0.1
  9
$DIMTXT
 40
0.12
  9
$DIMCEN
 40
0.0
  9
$DIMTSZ
 40
0.0
  9
$DIMTOL
 70
     0
  9
$DIMLIM
 70
     0
  9
$DIMTIH
 70
     1
  9
$DIMTOH
 70
     1
  9
$DIMSE1
 70
     0
  9
$DIMSE2
 70
     0
  9
$DIMTAD
 70
     0
  9
$DIMZIN
 70
     7
  9
$DIMBLK
  1

  9
$DIMASO
 70
     1
  9
$DIMSHO
 70
     0
  9
$DIMPOST
  1

  9
$DIMAPOST
  1
mm
  9
$DIMALT
 70
     0
  9
$DIMALTD
 70
     2
  9
$DIMALTF
 40
25.4
  9
$DIMLFAC
 40
1.0
  9
$DIMTOFL
 70
     0
  9
$DIMTVP
 40
0.0
  9
$DIMTIX
 70
     0
  9
$DIMSOXD
 70
     0
  9
$DIMSAH
 70
     0
  9
$DIMBLK1
  1

  9
$DIMBLK2
  1

  9
$DIMSTYLE
  2
AM_ANSI
  9
$DIMCLRD
 70
   256
  9
$DIMCLRE
 70
   256
  9
$DIMCLRT
 70
     2
  9
$DIMTFAC
 40
0.71
  9
$DIMGAP
 40
0.06
  9
$DIMJUST
 70
     0
  9
$DIMSD1
 70
     0
  9
$DIMSD2
 70
     0
  9
$DIMTOLJ
 70
     1
  9
$DIMTZIN
 70
     7
  9
$DIMALTZ
 70
     0
  9
$DIMALTTZ
 70
     0
  9
$DIMUPT
 70
     0
  9
$DIMDEC
 70
     4
  9
$DIMTDEC
 70
     4
  9
$DIMALTU
 70
     2
  9
$DIMALTTD
 70
     4
  9
$DIMTXSTY
  7
STANDARD
  9
$DIMAUNIT
 70
     0
  9
$DIMADEC
 70
     0
  9
$DIMALTRND
 40
0.0
  9
$DIMAZIN
 70
     2
  9
$DIMDSEP
 70
    46
  9
$DIMATFIT
 70
     3
  9
$DIMFRAC
 70
     0
  9
$DIMLDRBLK
  1

  9
$DIMLUNIT
 70
     2
  9
$DIMLWD
 70
    -1
  9
$DIMLWE
 70
    -1
  9
$DIMTMOVE
 70
     0
  9
$LUNITS
 70
     2
  9
$LUPREC
 70
     4
  9
$SKETCHINC
 40
0.1
  9
$FILLETRAD
 40
4.0
  9
$AUNITS
 70
     1
  9
$AUPREC
 70
     3
  9
$MENU
  1
ACAD
  9
$ELEVATION
 40
0.0
  9
$PELEVATION
 40
0.0
  9
$THICKNESS
 40
50.0
  9
$LIMCHECK
 70
     0
  9
$CHAMFERA
 40
0.0
  9
$CHAMFERB
 40
0.0
  9
$CHAMFERC
 40
0.0
  9
$CHAMFERD
 40
0.0
  9
$SKPOLY
 70
     0
  9
$TDCREATE
 40
2452321.396199653
  9
$TDUCREATE
 40
2452321.021199653
  9
$TDUPDATE
 40
2456211.582936169
  9
$TDUUPDATE
 40
2456211.207936169
  9
$TDINDWG
 40
1.0406873032
  9
$TDUSRTIMER
 40
1.0406818981
  9
$USRTIMER
 70
     1
  9
$ANGBASE
 50
0.0
  9
$ANGDIR
 70
     0
  9
$PDMODE
 70
     3
  9
$PDSIZE
 40
-2.0
  9
$PLINEWID
 40
0.0
  9
$SPLFRAME
 70
     0
  9
$SPLINETYPE
 70
     6
  9
$SPLINESEGS
 70
     8
  9
$HANDSEED
  5
2E35
  9
$SURFTAB1
 70
     6
  9
$SURFTAB2
 70
     6
  9
$SURFTYPE
 70
     6
  9
$SURFU
 70
     6
  9
$SURFV
 70
     6
  9
$UCSBASE
  2

  9
$UCSNAME
  2

  9
$UCSORG
 10
0.0
 20
0.0
 30
0.0
  9
$UCSXDIR
 10
1.0
 20
0.0
 30
0.0
  9
$UCSYDIR
 10
0.0
 20
1.0
 30
0.0
  9
$UCSORTHOREF
  2

  9
$UCSORTHOVIEW
 70
     0
  9
$UCSORGTOP
 10
0.0
 20
0.0
 30
0.0
  9
$UCSORGBOTTOM
 10
0.0
 20
0.0
 30
0.0
  9
$UCSORGLEFT
 10
0.0
 20
0.0
 30
0.0
  9
$UCSORGRIGHT
 10
0.0
 20
0.0
 30
0.0
  9
$UCSORGFRONT
 10
0.0
 20
0.0
 30
0.0
  9
$UCSORGBACK
 10
0.0
 20
0.0
 30
0.0
  9
$PUCSBASE
  2

  9
$PUCSNAME
  2

  9
$PUCSORG
 10
0.0
 20
0.0
 30
0.0
  9
$PUCSXDIR
 10
1.0
 20
0.0
 30
0.0
  9
$PUCSYDIR
 10
0.0
 20
1.0
 30
0.0
  9
$PUCSORTHOREF
  2

  9
$PUCSORTHOVIEW
 70
     0
  9
$PUCSORGTOP
 10
0.0
 20
0.0
 30
0.0
  9
$PUCSORGBOTTOM
 10
0.0
 20
0.0
 30
0.0
  9
$PUCSORGLEFT
 10
0.0
 20
0.0
 30
0.0
  9
$PUCSORGRIGHT
 10
0.0
 20
0.0
 30
0.0
  9
$PUCSORGFRONT
 10
0.0
 20
0.0
 30
0.0
  9
$PUCSORGBACK
 10
0.0
 20
0.0
 30
0.0
  9
$USERI1
 70
     0
  9
$USERI2
 70
     0
  9
$USERI3
 70
     0
  9
$USERI4
 70
     0
  9
$USERI5
 70
     0
  9
$USERR1
 40
20.0
  9
$USERR2
 40
0.0
  9
$USERR3
 40
0.0
  9
$USERR4
 40
0.0
  9
$USERR5
 40
0.0
  9
$WORLDVIEW
 70
     1
  9
$SHADEDGE
 70
     3
  9
$SHADEDIF
 70
    70
  9
$TILEMODE
 70
     1
  9
$MAXACTVP
 70
    64
  9
$PINSBASE
 10
0.0
 20
0.0
 30
0.0
  9
$PLIMCHECK
 70
     0
  9
$PEXTMIN
 10
1.000000000000000E+20
 20
1.000000000000000E+20
 30
1.000000000000000E+20
  9
$PEXTMAX
 10
-1.000000000000000E+20
 20
-1.000000000000000E+20
 30
-1.000000000000000E+20
  9
$PLIMMIN
 10
0.0
 20
0.0
  9
$PLIMMAX
 10
12.0
 20
9.0
  9
$UNITMODE
 70
     0
  9
$VISRETAIN
 70
     1
  9
$PLINEGEN
 70
     0
  9
$PSLTSCALE
 70
     1
  9
$TREEDEPTH
 70
  3020
  9
$CMLSTYLE
  2
Standard
  9
$CMLJUST
 70
     0
  9
$CMLSCALE
 40
1.0
  9
$PROXYGRAPHICS
 70
     1
  9
$MEASUREMENT
 70
     0
  9
$CELWEIGHT
370
    -1
  9
$ENDCAPS
280
     0
  9
$JOINSTYLE
280
     0
  9
$LWDISPLAY
290
     0
  9
$INSUNITS
 70
     0
  9
$HYPERLINKBASE
  1

  9
$STYLESHEET
  1

  9
$XEDIT
290
     1
  9
$CEPSNTYPE
380
     0
  9
$PSTYLEMODE
290
     1
  9
$FINGERPRINTGUID
  2
{34CD7097-A85F-403B-85E9-61FAB6BB8FEC}
  9
$VERSIONGUID
  2
{A3D59FA1-79B7-4A69-903D-6077B3154145}
  9
$EXTNAMES
290
     1
  9
$PSVPSCALE
 40
0.0
  9
$OLESTARTUP
290
     0
  0
ENDSEC
  0
SECTION
  2
CLASSES
  0
CLASS
  1
ACDBDICTIONARYWDFLT
  2
AcDbDictionaryWithDefault
  3
ObjectDBX Classes
 90
        0
280
     0
281
     0
  0
CLASS
  1
MATERIAL
  2
AcDbMaterial
  3
ObjectDBX Classes
 90
     1153
280
     0
281
     0
  0
CLASS
  1
VISUALSTYLE
  2
AcDbVisualStyle
  3
ObjectDBX Classes
 90
     4095
280
     0
281
     0
  0
CLASS
  1
SCALE
  2
AcDbScale
  3
ObjectDBX Classes
 90
     1153
280
     0
281
     0
  0
CLASS
  1
TABLESTYLE
  2
AcDbTableStyle
  3
ObjectDBX Classes
 90
     4095
280
     0
281
     0
  0
CLASS
  1
MLEADERSTYLE
  2
AcDbMLeaderStyle
  3
ACDB_MLEADERSTYLE_CLASS
 90
     4095
280
     0
281
     0
  0
CLASS
  1
AMGSETTINGSOBJ
  2
AmgSettingsObj
  3
"AcadM|Product Description: AutoCAD Mechanical|Company: Autodesk, Inc."
 90
     1024
280
     0
281
     0
  0
CLASS
  1
ACME_DOCUMENT
  2
AcMeDbDoc
  3
AcMeServices
 90
     1024
280
     0
281
     0
  0
CLASS
  1
ACMESCOPE
  2
AcMeScope
  3
AcMeServices
 90
     1024
280
     0
281
     0
  0
CLASS
  1
ACMECOMMANDHISTORY
  2
AcMeCommandHistory
  3
AcMeServices
 90
     1024
280
     0
281
     0
  0
CLASS
  1
ACIMSYSVARMAN
  2
AcImSysVarManager
  3
AcMeServices
 90
     1024
280
     0
281
     0
  0
CLASS
  1
ACIMREALSYSVAR
  2
AcImRealSysVar
  3
AcMeServices
 90
     1024
280
     0
281
     0
  0
CLASS
  1
ACIMINTSYSVAR
  2
AcImIntSysVar
  3
AcMeServices
 90
     1024
280
     0
281
     0
  0
CLASS
  1
ACMEDRAWINGMAN
  2
AcMeDrawingMan
  3
AcMeServices
 90
     1024
280
     0
281
     0
  0
CLASS
  1
ACMEVIEW
  2
AcMeView
  3
AcMeServices
 90
     1024
280
     0
281
     0
  0
CLASS
  1
ACDBENTITYCACHE
  2
AcMeEntityCache
  3
AcMeServices
 90
     1024
280
     0
281
     0
  0
CLASS
  1
GSMANAGER
  2
AcMeGSManager
  3
AcMeServices
 90
     1024
280
     0
281
     0
  0
CLASS
  1
AMDTINTERNALREACTOR
  2
AmdtInternalReactor
  3
AcMeServices
 90
     1024
280
     0
281
     0
  0
CLASS
  1
ACMESTATEMGR
  2
AcMeStateMgr
  3
AcMeServices
 90
     1024
280
     0
281
     0
  0
CLASS
  1
ACGREFMASTER
  2
AcGrefMaster
  3
AcAttribServices
 90
     1024
280
     0
281
     0
  0
CLASS
  1
AM_DRAWING_MGR
  2
AcDmDwgMgr
  3
AcMechDwgViewMgmt
 90
     1024
280
     0
281
     0
  0
CLASS
  1
AM_DWG_DOCUMENT
  2
AcDmDwgDocument
  3
AcMechDwgViewMgmt
 90
     1024
280
     0
281
     0
  0
CLASS
  1
AM_DWG_SHEET
  2
AcDmSheet
  3
AcMechDwgViewMgmt
 90
     1024
280
     0
281
     0
  0
CLASS
  1
AM_VIEWDIMPARMAP
  2
AcDmViewDimParMap
  3
AcMechDwgViewMgmt
 90
     1024
280
     0
281
     0
  0
CLASS
  1
AM_DWGMGR_NAME
  2
AcDmDwgMgrName
  3
AcMechDwgViewMgmt
 90
     1024
280
     0
281
     0
  0
CLASS
  1
ACME_DATABASE
  2
AcMeDbDatabase
  3
AcMeServices
 90
     1024
280
     0
281
     0
  0
CLASS
  1
ACRFINSADJUSTERMGR
  2
AcRfInsAdjusterMgr
  3
AcMeServices
 90
     1024
280
     0
281
     0
  0
CLASS
  1
ACGREFACADMASTER
  2
AcGrefacadMaster
  3
AcGrefServices
 90
     1024
280
     0
281
     0
  0
CLASS
  1
AMDTMENUSTATEMGR
  2
AmdtMenuStateMgr
  3
McadcomServices
 90
     1024
280
     0
281
     0
  0
CLASS
  1
AMDTMCOMMENUSTATE
  2
AmdtMcomMenuState
  3
McadcomServices
 90
     1024
280
     0
281
     0
  0
CLASS
  1
AMIMASTER
  2
AmiMaster
  3
AmiServices
 90
     1024
280
     0
281
     0
  0
CLASS
  1
ASAPP
  2
AcAsAppObject
  3
AutoSurfServices
 90
     1024
280
     0
281
     0
  0
CLASS
  1
IM_STATIC_MAN
  2
AcImStaticVarManager
  3
AcMeServices
 90
     1024
280
     0
281
     0
  0
CLASS
  1
ACIMSTRSYSVAR
  2
AcImStrSysVar
  3
AcMeServices
 90
     1024
280
     0
281
     0
  0
CLASS
  1
ACIMDBLSTATICVAR
  2
AcImDblStaticVar
  3
AcMeServices
 90
     1024
280
     0
281
     0
  0
CLASS
  1
ACIMSTRSTATICVAR
  2
AcImStrStaticVar
  3
AcMeServices
 90
     1024
280
     0
281
     0
  0
CLASS
  1
ACIMINTSTATICVAR
  2
AcImIntStaticVar
  3
AcMeServices
 90
     1024
280
     0
281
     0
  0
CLASS
  1
ACASGREFMASTER
  2
AcAsGrefMaster
  3
AutoSurfResolverServices
 90
     1024
280
     0
281
     0
  0
CLASS
  1
ACADGREFMODULE
  2
AcAdGrefModule
  3
AdGrefServices
 90
     1024
280
     0
281
     0
  0
CLASS
  1
AMDTMAPISURFMOUDULE
  2
AmdtMApiSurfModule
  3
MApiSurfServices
 90
     1024
280
     0
281
     0
  0
CLASS
  1
MAPIAMMOUDLE
  2
MApiAmModule
  3
MApiAmServices
 90
     1024
280
     0
281
     0
  0
CLASS
  1
AMDTADMENUSTATE
  2
AmdtAdMenuState
  3
DesignerServices
 90
     1024
280
     0
281
     0
  0
CLASS
  1
ADAPPL
  2
AcAdAppl
  3
DesignerServices
 90
     1024
280
     0
281
     0
  0
CLASS
  1
DEPMGR
  2
AcAdDepMgr
  3
DesignerServices
 90
     1024
280
     0
281
     0
  0
CLASS
  1
PARAMMGR
  2
AcAdParamMgr
  3
DesignerServices
 90
     1024
280
     0
281
     0
  0
CLASS
  1
PARAMSCOPE
  2
AcAdParamScope
  3
DesignerServices
 90
     1024
280
     0
281
     0
  0
CLASS
  1
NAMEDAPPL
  2
AcAdNamedAppl
  3
DesignerServices
 90
     1024
280
     0
281
     0
  0
CLASS
  1
AMDTDMMENUSTATE
  2
AmdtDmMenuState
  3
AcMechDwgViewMgmt
 90
     1024
280
     0
281
     0
  0
CLASS
  1
MAPIADMODULE
  2
MApiAdModule
  3
MApiAdServices
 90
     1024
280
     0
281
     0
  0
CLASS
  1
AMDTAMMENUSTATE
  2
AmdtAmMenuState
  3
DesignerAssemblies
 90
     1024
280
     0
281
     0
  0
CLASS
  1
ACAMPROJECT
  2
AcAmProject
  3
DesignerAssemblies
 90
     1024
280
     0
281
     0
  0
CLASS
  1
ACAMGRCOMPDEF
  2
AcAmGrCompDef
  3
DesignerAssemblies
 90
     1024
280
     0
281
     0
  0
CLASS
  1
ACCMCONTEXT
  2
AcCmContext
  3
DesignerAssemblies
 90
     1024
280
     0
281
     0
  0
CLASS
  1
ACAMCOMPDEF
  2
AcAmCompDef
  3
DesignerAssemblies
 90
     1024
280
     0
281
     0
  0
CLASS
  1
ACAMCOMPDEFMGR
  2
AcAmCompDefMgr
  3
DesignerAssemblies
 90
     1024
280
     0
281
     0
  0
CLASS
  1
AMCONTEXTMGR
  2
AcAmContextMgr
  3
DesignerAssemblies
 90
     1024
280
     0
281
     0
  0
CLASS
  1
ACAMCONTEXTMODELER
  2
AcAmContextModeler
  3
DesignerAssemblies
 90
     1024
280
     0
281
     0
  0
CLASS
  1
ACMDATADICTIONARY
  2
AcmDataDictionary
  3
"AcmSymBB|Product Description: AutoCAD Mechanical|Company: Autodesk, Inc."
 90
     1024
280
     0
281
     0
  0
CLASS
  1
ACMDATAENTRYBLOCK
  2
AcmDataEntryBlock
  3
AcmSymBB|Product Description: AutoCAD Mechanical|Company: Autodesk, Inc.
 90
     1024
280
     0
281
     0
  0
CLASS
  1
ACRFATTGENMGR
  2
AcRfAttGeneralMgr
  3
AcAttribServices
 90
     1024
280
     0
281
     0
  0
CLASS
  1
ACRFOBJATTMGR
  2
AcRfObjAttGroupMgr
  3
AcAttribServices
 90
     1024
280
     0
281
     0
  0
CLASS
  1
ACRFMCADAPIATTHOLDER
  2
AcRfMCADAPIAttHolder
  3
AcAttribServices
 90
     1024
280
     0
281
     0
  0
CLASS
  1
AMDTSYSATTR
  2
AmdtSystemAttribute
  3
AcAttribServices
 90
     1024
280
     0
281
     0
  0
CLASS
  1
CATALOGSTATE
  2
AcAmCatalogState
  3
DesignerAssemblies
 90
     1024
280
     0
281
     0
  0
CLASS
  1
ACAMGRCOMPDEFSET
  2
AcAmGrCompDefSet
  3
DesignerAssemblies
 90
     1024
280
     0
281
     0
  0
CLASS
  1
AMDTBROWSERDBTAB
  2
AmdtBrowserDbTab
  3
McadcomServices
 90
     1024
280
     0
281
     0
  0
CLASS
  1
CBROWSERAPPOBJECT
  2
CBrowserAppObject
  3
McadcomServices
 90
     1024
280
     0
281
     0
  0
CLASS
  1
DM_PLACEHOLDER
  2
AcDmSelsetPlaceholder
  3
AcMechDwgViewMgmt
 90
     1024
280
     0
281
     0
  0
CLASS
  1
ACMSTANDARDANSI
  2
AcmStandardANSI
  3
"Amdt_StdImp|Product Description: AutoCAD Mechanical|Company: Autodesk, Inc."
 90
     1024
280
     0
281
     0
  0
CLASS
  1
ACMSURFSTANDARDANSI
  2
AcmSurfTextStdANSI
  3
"Amdt_StdImp|Product Description: AutoCAD Mechanical|Company: Autodesk, Inc."
 90
     1024
280
     0
281
     0
  0
CLASS
  1
ACMFCFSTANDARDANSI
  2
AcmFCFStdANSI
  3
"Amdt_StdImp|Product Description: AutoCAD Mechanical|Company: Autodesk, Inc."
 90
     1024
280
     0
281
     0
  0
CLASS
  1
ACMWELDSTANDARDANSI
  2
AcmWeldingStdANSI
  3
"Amdt_StdImp|Product Description: AutoCAD Mechanical|Company: Autodesk, Inc."
 90
     1024
280
     0
281
     0
  0
CLASS
  1
ACMIDSTANDARDANSI
  2
AcmIdStdANSI
  3
"Amdt_StdImp|Product Description: AutoCAD Mechanical|Company: Autodesk, Inc."
 90
     1024
280
     0
281
     0
  0
CLASS
  1
ACMDATUMSTANDARDANSI
  2
AcmDatumStdANSI
  3
"Amdt_StdImp|Product Description: AutoCAD Mechanical|Company: Autodesk, Inc."
 90
     1024
280
     0
281
     0
  0
CLASS
  1
ACMBOMSTANDARDANSI
  2
AcmBOMStdANSI
  3
"Amdt_StdImp|Product Description: AutoCAD Mechanical|Company: Autodesk, Inc."
 90
     1024
280
     0
281
     0
  0
CLASS
  1
ACMDETAILSTANDARDANSI
  2
AmdtDetailSymStdANSI
  3
"Amdt_StdImp|Product Description: AutoCAD Mechanical|Company: Autodesk, Inc."
 90
     1024
280
     0
281
     0
  0
CLASS
  1
ACMSECTIONSTANDARDANSI
  2
AmdtSectionSymStdANSI
  3
"Amdt_StdImp|Product Description: AutoCAD Mechanical|Company: Autodesk, Inc."
 90
     1024
280
     0
281
     0
  0
CLASS
  1
ACMCENTERLINESTANDARDANSI
  2
AmdtCenterLineStdANSI
  3
"Amdt_StdImp|Product Description: AutoCAD Mechanical|Company: Autodesk, Inc."
 90
     1024
280
     0
281
     0
  0
CLASS
  1
ACMTHREADLINESTANDARDANSI
  2
AmdtThreadLineStdANSI
  3
"Amdt_StdImp|Product Description: AutoCAD Mechanical|Company: Autodesk, Inc."
 90
     1024
280
     0
281
     0
  0
CLASS
  1
ACMNOTESTANDARDANSI
  2
AmdtNoteStdANSI
  3
"Amdt_StdImp|Product Description: AutoCAD Mechanical|Company: Autodesk, Inc."
 90
     1024
280
     0
281
     0
  0
CLASS
  1
ACMTAPERSTANDARDANSI
  2
AcmTaperStdANSI
  3
"Amdt_StdImp|Product Description: AutoCAD Mechanical|Company: Autodesk, Inc."
 90
     1024
280
     0
281
     0
  0
CLASS
  1
ACMANOOTATIONVIEWSTANDARDANSI
  2
AmdtAnViewStdANSI
  3
"Amdt_StdImp|Product Description: AutoCAD Mechanical|Company: Autodesk, Inc."
 90
     1024
280
     0
281
     0
  0
CLASS
  1
ACAMGLAYSTD
  2
AcAmgLayStd
  3
"AmgLay|Product Description: AutoCAD Mechanical|Company: Autodesk, Inc."
 90
     1024
280
     0
281
     0
  0
CLASS
  1
ACAMGDIMSTD
  2
AcAmgDimStd
  3
"AmgDim|Product Description: AutoCAD Mechanical|Company: Autodesk, Inc."
 90
     1024
280
     0
281
     0
  0
CLASS
  1
ACAMGHOLECHARTSTDANSI
  2
AcAmgHoleChartStdANSI
  3
AmgDim|Product Description: AutoCAD Mechanical|Company: Autodesk, Inc.
 90
     1024
280
     0
281
     0
  0
CLASS
  1
AMGOBJPROPCFG
  2
AmgObjPropCfg
  3
"AmgLay|Product Description: AutoCAD Mechanical|Company: Autodesk, Inc."
 90
     1025
280
     0
281
     0
  0
CLASS
  1
ACAMGTITLESTD
  2
AcAmgTitleStd
  3
"AmgTitle|Product Description: AutoCAD Mechanical|Company: Autodesk, Inc."
 90
     4095
280
     0
281
     0
  0
CLASS
  1
AMDTNOTETEMPLATEDB
  2
AmdtNoteTemplateDB
  3
AcmSymBB|Product Description: AutoCAD Mechanical|Company: Autodesk, Inc.
 90
     1024
280
     0
281
     0
  0
CLASS
  1
ACAMGFILTERDAT
  2
AcAmgFilterDat
  3
"AcadM|Product Description: AutoCAD Mechanical|Company: Autodesk, Inc."
 90
     1024
280
     0
281
     0
  0
CLASS
  1
LAYER_INDEX
  2
AcDbLayerIndex
  3
ObjectDBX Classes
 90
        0
280
     0
281
     0
  0
CLASS
  1
IDBUFFER
  2
AcDbIdBuffer
  3
ObjectDBX Classes
 90
        0
280
     0
281
     0
  0
CLASS
  1
DICTIONARYVAR
  2
AcDbDictionaryVar
  3
ObjectDBX Classes
 90
        0
280
     0
281
     0
  0
CLASS
  1
CELLSTYLEMAP
  2
AcDbCellStyleMap
  3
ObjectDBX Classes
 90
     1152
280
     0
281
     0
  0
CLASS
  1
ACDBPLACEHOLDER
  2
AcDbPlaceHolder
  3
ObjectDBX Classes
 90
        0
280
     0
281
     0
  0
CLASS
  1
LAYOUT
  2
AcDbLayout
  3
ObjectDBX Classes
 90
        0
280
     0
281
     0
  0
ENDSEC
  0
SECTION
  2
TABLES
  0
TABLE
  2
VPORT
  5
2BC3
330
0
100
AcDbSymbolTable
 70
     1
  0
VPORT
  5
2C33
330
2BC3
100
AcDbSymbolTableRecord
100
AcDbViewportTableRecord
  2
*ACTIVE
 70
     0
 10
0.0
 20
0.0
 11
1.0
 21
1.0
 12
-0.0000000000001705
 22
-14.14201460498293
 13
0.0
 23
0.0
 14
1.0
 24
1.0
 15
0.0
 25
0.0
 16
0.0
 26
0.0
 36
1.0
 17
-0.6797652233861414
 27
48.90917530325054
 37
0.0
 40
1335.678097219153
 41
1.712555066079295
 42
50.0
 43
0.0
 44
0.0
 50
0.0
 51
0.0
 71
     0
 72
   100
 73
     1
 74
     0
 75
     0
 76
     0
 77
     0
 78
     0
281
     0
 65
     0
110
0.0
120
0.0
130
0.0
111
1.0
121
0.0
131
0.0
112
0.0
122
1.0
132
0.0
 79
     0
146
0.0
  0
ENDTAB
  0
TABLE
  2
LTYPE
  5
2BC0
330
0
100
AcDbSymbolTable
 70
    19
  0
LTYPE
  5
2C1D
330
2BC0
100
AcDbSymbolTableRecord
100
AcDbLinetypeTableRecord
  2
ByBlock
 70
     0
  3

 72
    65
 73
     0
 40
0.0
  0
LTYPE
  5
2C1E
330
2BC0
100
AcDbSymbolTableRecord
100
AcDbLinetypeTableRecord
  2
ByLayer
 70
     0
  3

 72
    65
 73
     0
 40
0.0
  0
LTYPE
  5
2C1F
330
2BC0
100
AcDbSymbolTableRecord
100
AcDbLinetypeTableRecord
  2
CONTINUOUS
 70
     0
  3
実線
 72
    65
 73
     0
 40
0.0
  0
LTYPE
  5
2C34
330
2BC0
100
AcDbSymbolTableRecord
100
AcDbLinetypeTableRecord
  2
DASHDOT
 70
     0
  3
____ _ ____ _ ____ _ ____ _ ____ _ ____ _ ____
 72
    65
 73
     4
 40
5.5
 49
4.0
 74
     0
 49
-0.6
 74
     0
 49
0.3
 74
     0
 49
-0.6
 74
     0
  0
LTYPE
  5
2C35
330
2BC0
100
AcDbSymbolTableRecord
100
AcDbLinetypeTableRecord
  2
HIDDEN
 70
     0
  3
Hidden __ __ __ __ __ __ __ __ __ __ __ __ __ _
 72
    65
 73
     2
 40
0.375
 49
0.25
 74
     0
 49
-0.125
 74
     0
  0
LTYPE
  5
2C36
330
2BC0
100
AcDbSymbolTableRecord
100
AcDbLinetypeTableRecord
  2
PHANTOM2
 70
     0
  3
Phantom (.5x) ___ _ _ ___ _ _ ___ _ _ ___ _ _
 72
    65
 73
     6
 40
1.25
 49
0.625
 74
     0
 49
-0.125
 74
     0
 49
0.125
 74
     0
 49
-0.125
 74
     0
 49
0.125
 74
     0
 49
-0.125
 74
     0
  0
LTYPE
  5
2C37
330
2BC0
100
AcDbSymbolTableRecord
100
AcDbLinetypeTableRecord
  2
CENTER
 70
     0
  3
Center ____ _ ____ _ ____ _ ____ _ ____ _ ____
 72
    65
 73
     4
 40
2.0
 49
1.25
 74
     0
 49
-0.25
 74
     0
 49
0.25
 74
     0
 49
-0.25
 74
     0
  0
LTYPE
  5
2C38
330
2BC0
100
AcDbSymbolTableRecord
100
AcDbLinetypeTableRecord
  2
ASULTYPE
 70
     0
  3
実線
 72
    65
 73
     2
 40
3.0
 49
2.5
 74
     0
 49
0.5
 74
     0
  0
LTYPE
  5
2C39
330
2BC0
100
AcDbSymbolTableRecord
100
AcDbLinetypeTableRecord
  2
ASVLTYPE
 70
     0
  3
__ __ __ __ __ __ __ __ __ __ __ __ __ __ __ __ __ __ __ __ __
 72
    65
 73
     2
 40
0.75
 49
0.5
 74
     0
 49
-0.25
 74
     0
  0
LTYPE
  5
2C3A
330
2BC0
100
AcDbSymbolTableRecord
100
AcDbLinetypeTableRecord
  2
AM_ISO02W050
 70
     0
  3
__ __ __ __ __ __ __ __ __ __ __ __ __ __ __
 72
    65
 73
     2
 40
7.5
 49
6.0
 74
     0
 49
-1.5
 74
     0
  0
LTYPE
  5
2C3B
330
2BC0
100
AcDbSymbolTableRecord
100
AcDbLinetypeTableRecord
  2
AM_ISO08W050
 70
     0
  3
____ . ____ . ____ . ____ . ____ . ____ . ____
 72
    65
 73
     4
 40
18.0
 49
12.0
 74
     0
 49
-1.5
 74
     0
 49
3.0
 74
     0
 49
-1.5
 74
     0
  0
LTYPE
  5
2C3C
330
2BC0
100
AcDbSymbolTableRecord
100
AcDbLinetypeTableRecord
  2
AM_ISO09W050
 70
     0
  3
_____ . . _____ . . _____ . . ____ .. ____
 72
    65
 73
     6
 40
22.5
 49
12.0
 74
     0
 49
-1.5
 74
     0
 49
3.0
 74
     0
 49
-1.5
 74
     0
 49
3.0
 74
     0
 49
-1.5
 74
     0
  0
LTYPE
  5
2C3D
330
2BC0
100
AcDbSymbolTableRecord
100
AcDbLinetypeTableRecord
  2
AMCONSTR
 70
     0
  3
_______________________
 72
    65
 73
     2
 40
9999.0
 49
9999.0
 74
     0
 49
0.0
 74
     0
  0
LTYPE
  5
2C3E
330
2BC0
100
AcDbSymbolTableRecord
100
AcDbLinetypeTableRecord
  2
AM_ISO08W050X2
 70
     0
  3
__ . __ . __ . __ . __ . __
 72
    65
 73
     4
 40
9.0
 49
6.0
 74
     0
 49
-0.75
 74
     0
 49
1.5
 74
     0
 49
-0.75
 74
     0
  0
LTYPE
  5
2C3F
330
2BC0
100
AcDbSymbolTableRecord
100
AcDbLinetypeTableRecord
  2
AM_ISO02W050X2
 70
     0
  3
 _ _ _ _ _ _ _ _ _ _ _ _
 72
    65
 73
     2
 40
3.75
 49
3.0
 74
     0
 49
-0.75
 74
     0
  0
LTYPE
  5
2C40
330
2BC0
100
AcDbSymbolTableRecord
100
AcDbLinetypeTableRecord
  2
AMZIGZAG
 70
     0
  3
/\/-/\/-/\/-/\/-/\/-/\/
 72
    65
 73
     2
 40
11.0001
 49
0.0001
 74
     0
 49
-11.0
 74
     0
  0
LTYPE
  5
2C41
330
2BC0
100
AcDbSymbolTableRecord
100
AcDbLinetypeTableRecord
  2
CENTER2
 70
     0
  3
Center (.5x) ___ _ ___ _ ___ _ ___ _ ___ _ ___
 72
    65
 73
     4
 40
1.125
 49
0.75
 74
     0
 49
-0.125
 74
     0
 49
0.125
 74
     0
 49
-0.125
 74
     0
  0
LTYPE
  5
2C42
330
2BC0
100
AcDbSymbolTableRecord
100
AcDbLinetypeTableRecord
  2
HIDDEN2
 70
     0
  3
Hidden (.5x) _ _ _ _ _ _ _ _ _ _ _ _ _ _ _ _ _
 72
    65
 73
     2
 40
0.1875
 49
0.125
 74
     0
 49
-0.0625
 74
     0
  0
LTYPE
  5
2C43
330
2BC0
100
AcDbSymbolTableRecord
100
AcDbLinetypeTableRecord
  2
AMZIGZAG2
 70
     0
  3
/\/-/\/-/\/-/\/-/\/-/\/
 72
    65
 73
     2
 40
0.4401
 49
0.0001
 74
     0
 49
-0.4400000000000003
 74
     0
  0
LTYPE
  5
2C44
330
2BC0
100
AcDbSymbolTableRecord
100
AcDbLinetypeTableRecord
  2
ACANSTGB
 70
     0
  3
__ . . __ . .
 72
    65
 73
     6
 40
0.35433070866
 49
0.15748031496
 74
     0
 49
-0.03937007874
 74
     0
 49
0.03937007874
 74
     0
 49
-0.03937007874
 74
     0
 49
0.03937007874
 74
     0
 49
-0.03937007874
 74
     0
  0
LTYPE
  5
2C45
330
2BC0
100
AcDbSymbolTableRecord
100
AcDbLinetypeTableRecord
  2
ACANSTGL
 70
     0
  3
_ _ _ _ _
 72
    65
 73
     2
 40
0.11811023622
 49
0.07874015748
 74
     0
 49
-0.03937007874
 74
     0
  0
ENDTAB
  0
TABLE
  2
LAYER
  5
2BBD
330
0
100
AcDbSymbolTable
 70
    12
  0
LAYER
  5
2C17
102
{ACAD_XDICTIONARY
360
2DF4
102
}
330
2BBD
100
AcDbSymbolTableRecord
100
AcDbLayerTableRecord
  2
0
 70
     0
 62
     7
  6
CONTINUOUS
370
    -3
390
2BCA
  0
LAYER
  5
2C46
102
{ACAD_XDICTIONARY
360
2DF6
102
}
330
2BBD
100
AcDbSymbolTableRecord
100
AcDbLayerTableRecord
  2
OUTLINE
 70
     0
 62
     3
  6
CONTINUOUS
370
    -3
390
2BCA
  0
LAYER
  5
2C47
102
{ACAD_XDICTIONARY
360
2DF8
102
}
330
2BBD
100
AcDbSymbolTableRecord
100
AcDbLayerTableRecord
  2
SIZE
 70
     0
 62
    30
  6
CONTINUOUS
370
    -3
390
2BCA
  0
LAYER
  5
2C48
102
{ACAD_XDICTIONARY
360
2DFA
102
}
330
2BBD
100
AcDbSymbolTableRecord
100
AcDbLayerTableRecord
  2
BASIS
 70
     0
 62
     6
  6
DASHDOT
370
    -3
390
2BCA
  0
LAYER
  5
2C49
102
{ACAD_XDICTIONARY
360
2DFC
102
}
330
2BBD
100
AcDbSymbolTableRecord
100
AcDbLayerTableRecord
  2
DETAIL
 70
     0
 62
     5
  6
CONTINUOUS
370
    -3
390
2BCA
  0
LAYER
  5
2C4A
102
{ACAD_XDICTIONARY
360
2DFE
102
}
330
2BBD
100
AcDbSymbolTableRecord
100
AcDbLayerTableRecord
  2
ARRANGE
 70
     0
 62
     1
  6
CONTINUOUS
370
    -3
390
2BCA
  0
LAYER
  5
2C4B
330
2BBD
100
AcDbSymbolTableRecord
100
AcDbLayerTableRecord
  2
DEFPOINTS
 70
     0
 62
     7
  6
CONTINUOUS
290
     0
370
    -3
390
2BCA
  0
LAYER
  5
2C4C
102
{ACAD_XDICTIONARY
360
2E00
102
}
330
2BBD
100
AcDbSymbolTableRecord
100
AcDbLayerTableRecord
  2
ETC
 70
     0
 62
    61
  6
CONTINUOUS
370
    -3
390
2BCA
  0
LAYER
  5
2C4D
102
{ACAD_XDICTIONARY
360
2E02
102
}
330
2BBD
100
AcDbSymbolTableRecord
100
AcDbLayerTableRecord
  2
FIX
 70
     0
 62
    11
  6
CONTINUOUS
370
    -3
390
2BCA
  0
LAYER
  5
2C4E
102
{ACAD_XDICTIONARY
360
2E04
102
}
330
2BBD
100
AcDbSymbolTableRecord
100
AcDbLayerTableRecord
  2
NOTE
 70
     0
 62
     4
  6
CONTINUOUS
370
    -3
390
2BCA
  0
LAYER
  5
2C4F
102
{ACAD_XDICTIONARY
360
2E06
102
}
330
2BBD
100
AcDbSymbolTableRecord
100
AcDbLayerTableRecord
  2
SERVICESPACE
 70
     0
 62
     2
  6
DASHDOT
370
    -3
390
2BCA
  0
LAYER
  5
2C50
102
{ACAD_XDICTIONARY
360
2E08
102
}
330
2BBD
100
AcDbSymbolTableRecord
100
AcDbLayerTableRecord
  2
SYMBOLLINE
 70
     0
 62
    15
  6
CONTINUOUS
370
    -3
390
2BCA
  0
ENDTAB
  0
TABLE
  2
STYLE
  5
2BBE
330
0
100
AcDbSymbolTable
 70
     5
  0
STYLE
  5
2C18
330
2BBE
100
AcDbSymbolTableRecord
100
AcDbTextStyleTableRecord
  2
STANDARD
 70
     0
 40
64.0
 41
0.9
 50
0.0
 71
     0
 42
64.0
  3
SIMPLEX.shx
  4
BIGFONT.shx
  0
STYLE
  5
2C1C
330
2BBE
100
AcDbSymbolTableRecord
100
AcDbTextStyleTableRecord
  2
ANNOTATIVE
 70
     0
 40
0.0
 41
1.0
 50
0.0
 71
     0
 42
0.2
  3
txt
  4

1001
ACADANNOTATIVE
1000
AnnotativeData
1002
{
1070
     1
1070
     1
1002
}
  0
STYLE
  5
2C51
330
2BBE
100
AcDbSymbolTableRecord
100
AcDbTextStyleTableRecord
  2

 70
     1
 40
0.0
 41
1.0
 50
0.0
 71
     0
 42
64.0
  3
genltshp.shx
  4

  0
STYLE
  5
2C52
330
2BBE
100
AcDbSymbolTableRecord
100
AcDbTextStyleTableRecord
  2
ACANSTS
 70
     0
 40
1.0
 41
1.0
 50
0.0
 71
     0
 42
64.0
  3
romans.shx
  4
extfont.shx
  0
STYLE
  5
2C53
330
2BBE
100
AcDbSymbolTableRecord
100
AcDbTextStyleTableRecord
  2
ACANSGDT
 70
     0
 40
0.0
 41
1.0
 50
0.0
 71
     0
 42
64.0
  3
amgdt.shx
  4

  0
ENDTAB
  0
TABLE
  2
VIEW
  5
2BC1
330
0
100
AcDbSymbolTable
 70
     1
  0
VIEW
  5
2C54
330
2BC1
100
AcDbSymbolTableRecord
100
AcDbViewTableRecord
  2
ALL
 70
     0
 40
4282.619807999997
 10
0.0
 20
41.30990399999999
 41
5940.0
 11
0.0
 21
0.0
 31
1.0
 12
0.0
 22
0.0
 32
0.0
 42
50.0
 43
0.0
 44
0.0
 50
0.0
 71
     0
281
     0
 72
     1
110
0.0
120
0.0
130
0.0
111
1.0
121
0.0
131
0.0
112
0.0
122
1.0
132
0.0
 79
     0
146
0.0
  0
ENDTAB
  0
TABLE
  2
UCS
  5
2BC2
330
0
100
AcDbSymbolTable
 70
     0
  0
ENDTAB
  0
TABLE
  2
APPID
  5
2BC4
330
0
100
AcDbSymbolTable
 70
    26
  0
APPID
  5
2C19
330
2BC4
100
AcDbSymbolTableRecord
100
AcDbRegAppTableRecord
  2
ACAD
 70
     0
  0
APPID
  5
2C20
330
2BC4
100
AcDbSymbolTableRecord
100
AcDbRegAppTableRecord
  2
ACADANNOTATIVE
 70
     0
  0
APPID
  5
2C2A
330
2BC4
100
AcDbSymbolTableRecord
100
AcDbRegAppTableRecord
  2
ACAD_MLEADERVER
 70
     0
  0
APPID
  5
2C55
330
2BC4
100
AcDbSymbolTableRecord
100
AcDbRegAppTableRecord
  2
GENIUS_GENDIM_13
 70
     0
  0
APPID
  5
2C56
330
2BC4
100
AcDbSymbolTableRecord
100
AcDbRegAppTableRecord
  2
GENIUS_GENDTOL_13
 70
     0
  0
APPID
  5
2C57
330
2BC4
100
AcDbSymbolTableRecord
100
AcDbRegAppTableRecord
  2
GENIUS_GE3DTOL_13
 70
     0
  0
APPID
  5
2C58
330
2BC4
100
AcDbSymbolTableRecord
100
AcDbRegAppTableRecord
  2
MCAD_NO_VIS
 70
     0
  0
APPID
  5
2C59
330
2BC4
100
AcDbSymbolTableRecord
100
AcDbRegAppTableRecord
  2
ACAD_TEMP_GRAPHIC
 70
     0
  0
APPID
  5
2C5A
330
2BC4
100
AcDbSymbolTableRecord
100
AcDbRegAppTableRecord
  2
AD_DRAW
 70
     0
  0
APPID
  5
2C5B
330
2BC4
100
AcDbSymbolTableRecord
100
AcDbRegAppTableRecord
  2
ACATTRIBSERVICES
 70
     0
  0
APPID
  5
2C5C
330
2BC4
100
AcDbSymbolTableRecord
100
AcDbRegAppTableRecord
  2
ASURF_PCURVE_APPNAME
 70
     0
  0
APPID
  5
2C5D
330
2BC4
100
AcDbSymbolTableRecord
100
AcDbRegAppTableRecord
  2
AMG_3D2D_5_0
 70
     0
  0
APPID
  5
2C5E
330
2BC4
100
AcDbSymbolTableRecord
100
AcDbRegAppTableRecord
  2
DESIGNERASSEMBLIES
 70
     0
  0
APPID
  5
2C5F
330
2BC4
100
AcDbSymbolTableRecord
100
AcDbRegAppTableRecord
  2
ACADM_DIM_EDIT
 70
     0
  0
APPID
  5
2C60
330
2BC4
100
AcDbSymbolTableRecord
100
AcDbRegAppTableRecord
  2
AMDT_DM_ADJ
 70
     0
  0
APPID
  5
2C61
330
2BC4
100
AcDbSymbolTableRecord
100
AcDbRegAppTableRecord
  2
ACAD_DSTYLE_DIMARC_LENGTH_
 70
     0
  0
APPID
  5
2C62
330
2BC4
100
AcDbSymbolTableRecord
100
AcDbRegAppTableRecord
  2
ACAD_DSTYLE_DIMJOGGED_JOGA
 70
     0
  0
APPID
  5
2C63
330
2BC4
100
AcDbSymbolTableRecord
100
AcDbRegAppTableRecord
  2
ACAD_PSEXT
 70
     0
  0
APPID
  5
2C64
330
2BC4
100
AcDbSymbolTableRecord
100
AcDbRegAppTableRecord
  2
ACAD_EXEMPT_FROM_CAD_STANDARDS
 70
     0
  0
APPID
  5
2C65
330
2BC4
100
AcDbSymbolTableRecord
100
AcDbRegAppTableRecord
  2
ACAD_DSTYLE_DIMJAG
 70
     0
  0
APPID
  5
2C66
330
2BC4
100
AcDbSymbolTableRecord
100
AcDbRegAppTableRecord
  2
ACAD_DSTYLE_DIMTALN
 70
     0
  0
APPID
  5
2D94
330
2BC4
100
AcDbSymbolTableRecord
100
AcDbRegAppTableRecord
  2
AMG_3D2D_5.0
 70
     0
  0
APPID
  5
2E31
330
2BC4
100
AcDbSymbolTableRecord
100
AcDbRegAppTableRecord
  2
ACAD_DSTYLE_DIMARC_LENGTH_SYMBOL
 70
     0
  0
APPID
  5
2E32
330
2BC4
100
AcDbSymbolTableRecord
100
AcDbRegAppTableRecord
  2
ACAD_DSTYLE_DIM_LINETYPE
 70
     0
  0
APPID
  5
2E33
330
2BC4
100
AcDbSymbolTableRecord
100
AcDbRegAppTableRecord
  2
ACAD_DSTYLE_DIM_EXT1_LINETYPE
 70
     0
  0
APPID
  5
2E34
330
2BC4
100
AcDbSymbolTableRecord
100
AcDbRegAppTableRecord
  2
ACAD_DSTYLE_DIM_EXT2_LINETYPE
 70
     0
  0
ENDTAB
  0
TABLE
  2
DIMSTYLE
  5
2BC5
330
0
100
AcDbSymbolTable
 70
    10
100
AcDbDimStyleTable
 71
     1
340
2C67
  0
DIMSTYLE
105
2C1A
330
2BC5
100
AcDbSymbolTableRecord
100
AcDbDimStyleTableRecord
  2
STANDARD
 70
     0
 41
12.0
 42
20.0
 44
20.0
 77
     1
 78
     8
140
64.0
141
0.0
147
10.0
275
     1
279
     2
284
     7
285
     7
286
     7
340
2C18
  0
DIMSTYLE
105
2C1B
330
2BC5
100
AcDbSymbolTableRecord
100
AcDbDimStyleTableRecord
  2
ANNOTATIVE
 70
     0
275
     1
279
     2
284
     7
285
     7
286
     7
340
2C18
1001
ACADANNOTATIVE
1000
AnnotativeData
1002
{
1070
     1
1070
     1
1002
}
  0
DIMSTYLE
105
2C67
330
2BC5
100
AcDbSymbolTableRecord
100
AcDbDimStyleTableRecord
  2
AM_ANSI
 70
     0
  4
mm
 41
0.12
 42
0.05
 43
0.5
 44
0.1
 47
0.1
 48
0.1
 78
     7
 79
     2
140
0.12
141
0.0
146
0.71
147
0.06
176
   256
177
   256
178
     2
274
     4
284
     7
340
2C18
371
    -1
372
    -1
1001
ACAD_DSTYLE_DIMARC_LENGTH_SYMBOL
1070
   379
1070
     1
1001
ACAD_DSTYLE_DIM_LINETYPE
1070
   380
1005
2C1D
1001
ACAD_DSTYLE_DIM_EXT1_LINETYPE
1070
   381
1005
2C1D
1001
ACAD_DSTYLE_DIM_EXT2_LINETYPE
1070
   382
1005
2C1D
  0
DIMSTYLE
105
2C68
330
2BC5
100
AcDbSymbolTableRecord
100
AcDbDimStyleTableRecord
  2
AM_ANSI$3
 70
     0
  4
mm
 41
0.12
 42
0.05
 43
0.5
 44
0.1
 47
0.1
 48
0.1
 78
     7
 79
     2
140
0.12
141
0.0
146
0.71
147
0.06
176
   256
177
   256
178
     2
274
     4
284
     7
288
     1
289
     0
340
2C18
371
    -1
372
    -1
1001
ACAD_DSTYLE_DIMARC_LENGTH_SYMBOL
1070
   379
1070
     1
1001
ACAD_DSTYLE_DIM_LINETYPE
1070
   380
1005
2C1D
1001
ACAD_DSTYLE_DIM_EXT1_LINETYPE
1070
   381
1005
2C1D
1001
ACAD_DSTYLE_DIM_EXT2_LINETYPE
1070
   382
1005
2C1D
  0
DIMSTYLE
105
2C69
330
2BC5
100
AcDbSymbolTableRecord
100
AcDbDimStyleTableRecord
  2
AM_ANSI$4
 70
     0
  4
mm
 41
0.12
 42
0.05
 43
0.5
 44
0.1
 47
0.1
 48
0.1
 78
     7
 79
     2
140
0.12
141
0.0
146
0.71
147
0.06
176
   256
177
   256
178
     2
274
     4
284
     7
340
2C18
371
    -1
372
    -1
1001
ACAD_DSTYLE_DIMARC_LENGTH_SYMBOL
1070
   379
1070
     1
1001
ACAD_DSTYLE_DIM_LINETYPE
1070
   380
1005
2C1D
1001
ACAD_DSTYLE_DIM_EXT1_LINETYPE
1070
   381
1005
2C1D
1001
ACAD_DSTYLE_DIM_EXT2_LINETYPE
1070
   382
1005
2C1D
  0
DIMSTYLE
105
2C6A
330
2BC5
100
AcDbSymbolTableRecord
100
AcDbDimStyleTableRecord
  2
AM_ANSI$7
 70
     0
  4
mm
 41
0.12
 42
0.05
 43
0.5
 44
0.1
 47
0.1
 48
0.1
 78
     7
 79
     2
140
0.12
141
0.0
146
0.71
147
0.06
176
   256
177
   256
178
     2
274
     4
284
     7
340
2C18
371
    -1
372
    -1
1001
ACAD_DSTYLE_DIMARC_LENGTH_SYMBOL
1070
   379
1070
     1
1001
ACAD_DSTYLE_DIM_LINETYPE
1070
   380
1005
2C1D
1001
ACAD_DSTYLE_DIM_EXT1_LINETYPE
1070
   381
1005
2C1D
1001
ACAD_DSTYLE_DIM_EXT2_LINETYPE
1070
   382
1005
2C1D
  0
DIMSTYLE
105
2C6B
330
2BC5
100
AcDbSymbolTableRecord
100
AcDbDimStyleTableRecord
  2
AM_ANSI$SF
 70
     0
  4
mm
 41
0.12
 42
0.05
 43
0.5
 44
0.1
 47
0.1
 48
0.1
 75
     1
 76
     1
 78
     7
 79
     2
140
0.12
141
0.0
146
0.71
147
0.06
176
   256
177
   256
178
     2
274
     4
284
     7
340
2C18
371
    -1
372
    -1
1001
ACAD_DSTYLE_DIMARC_LENGTH_SYMBOL
1070
   379
1070
     1
1001
ACAD_DSTYLE_DIM_LINETYPE
1070
   380
1005
2C1D
1001
ACAD_DSTYLE_DIM_EXT1_LINETYPE
1070
   381
1005
2C1D
1001
ACAD_DSTYLE_DIM_EXT2_LINETYPE
1070
   382
1005
2C1D
  0
DIMSTYLE
105
2C6C
330
2BC5
100
AcDbSymbolTableRecord
100
AcDbDimStyleTableRecord
  2
AM_ANSI$SH
 70
     0
  4
mm
 41
0.12
 42
0.05
 43
0.5
 44
0.1
 47
0.1
 48
0.1
 75
     1
 76
     1
 78
     7
 79
     2
140
0.12
141
0.0
146
0.71
147
0.06
173
     1
176
   256
177
   256
178
     2
274
     4
284
     7
340
2C18
343
2C8C
371
    -1
372
    -1
1001
ACAD_DSTYLE_DIMARC_LENGTH_SYMBOL
1070
   379
1070
     1
1001
ACAD_DSTYLE_DIM_LINETYPE
1070
   380
1005
2C1D
1001
ACAD_DSTYLE_DIM_EXT1_LINETYPE
1070
   381
1005
2C1D
1001
ACAD_DSTYLE_DIM_EXT2_LINETYPE
1070
   382
1005
2C1D
  0
DIMSTYLE
105
2C6D
330
2BC5
100
AcDbSymbolTableRecord
100
AcDbDimStyleTableRecord
  2
STANDARD1
 70
     0
 40
6.0
 41
2.5
 42
0.625
 43
6.0
 44
1.25
 47
1.0
 48
0.5
 77
     1
 78
     8
140
2.5
141
0.0
146
0.6
147
1.0
173
     1
275
     1
279
     2
284
     7
285
     7
286
     7
340
2C18
  0
DIMSTYLE
105
2C6E
330
2BC5
100
AcDbSymbolTableRecord
100
AcDbDimStyleTableRecord
  2
STANDARD$0
 70
     0
 41
12.0
 42
20.0
 44
20.0
 73
     0
 74
     0
 77
     1
 78
     8
140
64.0
141
0.0
147
10.0
275
     1
279
     2
284
     7
285
     7
286
     7
340
2C18
  0
ENDTAB
  0
TABLE
  2
BLOCK_RECORD
  5
2BBC
330
0
100
AcDbSymbolTable
 70
    79
  0
BLOCK_RECORD
  5
2C2F
102
{ACAD_XDICTIONARY
360
2E0A
102
}
330
2BBC
100
AcDbSymbolTableRecord
100
AcDbBlockTableRecord
  2
*Model_Space
340
2C32
  0
BLOCK_RECORD
  5
2C2B
330
2BBC
100
AcDbSymbolTableRecord
100
AcDbBlockTableRecord
  2
*Paper_Space
340
2C2E
  0
BLOCK_RECORD
  5
2C76
330
2BBC
100
AcDbSymbolTableRecord
100
AcDbBlockTableRecord
  2
$MODEL_SPACE
340
0
  0
BLOCK_RECORD
  5
2C78
330
2BBC
100
AcDbSymbolTableRecord
100
AcDbBlockTableRecord
  2
$PAPER_SPACE
340
0
  0
BLOCK_RECORD
  5
2C7A
330
2BBC
100
AcDbSymbolTableRecord
100
AcDbBlockTableRecord
  2
_ORIGIN
340
0
  0
BLOCK_RECORD
  5
2C7C
330
2BBC
100
AcDbSymbolTableRecord
100
AcDbBlockTableRecord
  2
_DOTBLANK
340
0
102
{BLKREFS
331
1299
331
129A
331
11AA
331
11AB
331
E80
331
E81
331
1123
331
1124
331
11C2
331
11C3
331
11EC
331
11ED
331
11F9
331
11FA
331
1287
331
1288
331
1417
331
1418
331
1423
331
1424
331
142F
331
1430
331
143B
331
143C
331
166E
331
166F
331
1677
331
1678
331
1680
331
1681
331
1689
331
168A
331
1696
331
1697
331
16A3
331
16A4
331
16AF
331
16B0
331
16BB
331
16BC
331
16C7
331
16C8
331
16D3
331
16D4
331
1D86
331
1D87
331
1D8F
331
1D90
331
1D98
331
1D99
331
1DA1
331
1DA2
331
1DAB
331
1DAC
331
1DB5
331
1DB6
331
29D6
331
29D7
331
29DB
331
29DC
331
29E1
331
29E2
331
29E6
331
29E7
331
29EC
331
29ED
331
29F1
331
29F2
102
}
  0
BLOCK_RECORD
  5
2C7E
330
2BBC
100
AcDbSymbolTableRecord
100
AcDbBlockTableRecord
  2
_OPEN30
340
0
102
{BLKREFS
331
2087
331
215D
331
2234
331
2327
331
259E
331
293A
102
}
  0
BLOCK_RECORD
  5
2C80
330
2BBC
100
AcDbSymbolTableRecord
100
AcDbBlockTableRecord
  2
*D5
340
0
  0
BLOCK_RECORD
  5
2C82
330
2BBC
100
AcDbSymbolTableRecord
100
AcDbBlockTableRecord
  2
*U6
340
0
102
{BLKREFS
331
129B
102
}
  0
BLOCK_RECORD
  5
2C84
330
2BBC
100
AcDbSymbolTableRecord
100
AcDbBlockTableRecord
  2
*D7
340
0
  0
BLOCK_RECORD
  5
2C86
330
2BBC
100
AcDbSymbolTableRecord
100
AcDbBlockTableRecord
  2
*U8
340
0
102
{BLKREFS
331
11AC
102
}
  0
BLOCK_RECORD
  5
2C88
330
2BBC
100
AcDbSymbolTableRecord
100
AcDbBlockTableRecord
  2
*D9
340
0
  0
BLOCK_RECORD
  5
2C8A
330
2BBC
100
AcDbSymbolTableRecord
100
AcDbBlockTableRecord
  2
*U10
340
0
102
{BLKREFS
331
E82
102
}
  0
BLOCK_RECORD
  5
2C8C
330
2BBC
100
AcDbSymbolTableRecord
100
AcDbBlockTableRecord
  2
GENAXEH
340
0
  0
BLOCK_RECORD
  5
2C8E
330
2BBC
100
AcDbSymbolTableRecord
100
AcDbBlockTableRecord
  2
*D12
340
0
  0
BLOCK_RECORD
  5
2C90
330
2BBC
100
AcDbSymbolTableRecord
100
AcDbBlockTableRecord
  2
*U13
340
0
102
{BLKREFS
331
1125
102
}
  0
BLOCK_RECORD
  5
2C92
330
2BBC
100
AcDbSymbolTableRecord
100
AcDbBlockTableRecord
  2
*D14
340
0
  0
BLOCK_RECORD
  5
2C94
330
2BBC
100
AcDbSymbolTableRecord
100
AcDbBlockTableRecord
  2
*U15
340
0
102
{BLKREFS
331
11C4
102
}
  0
BLOCK_RECORD
  5
2C96
330
2BBC
100
AcDbSymbolTableRecord
100
AcDbBlockTableRecord
  2
*D16
340
0
  0
BLOCK_RECORD
  5
2C98
330
2BBC
100
AcDbSymbolTableRecord
100
AcDbBlockTableRecord
  2
*U17
340
0
102
{BLKREFS
331
11EE
102
}
  0
BLOCK_RECORD
  5
2C9A
330
2BBC
100
AcDbSymbolTableRecord
100
AcDbBlockTableRecord
  2
*D18
340
0
  0
BLOCK_RECORD
  5
2C9C
330
2BBC
100
AcDbSymbolTableRecord
100
AcDbBlockTableRecord
  2
*U19
340
0
102
{BLKREFS
331
11FB
102
}
  0
BLOCK_RECORD
  5
2C9E
330
2BBC
100
AcDbSymbolTableRecord
100
AcDbBlockTableRecord
  2
*D20
340
0
  0
BLOCK_RECORD
  5
2CA0
330
2BBC
100
AcDbSymbolTableRecord
100
AcDbBlockTableRecord
  2
*U21
340
0
102
{BLKREFS
331
1289
102
}
  0
BLOCK_RECORD
  5
2CA2
330
2BBC
100
AcDbSymbolTableRecord
100
AcDbBlockTableRecord
  2
*D22
340
0
  0
BLOCK_RECORD
  5
2CA4
330
2BBC
100
AcDbSymbolTableRecord
100
AcDbBlockTableRecord
  2
*U23
340
0
102
{BLKREFS
331
1419
102
}
  0
BLOCK_RECORD
  5
2CA6
330
2BBC
100
AcDbSymbolTableRecord
100
AcDbBlockTableRecord
  2
*D24
340
0
  0
BLOCK_RECORD
  5
2CA8
330
2BBC
100
AcDbSymbolTableRecord
100
AcDbBlockTableRecord
  2
*U25
340
0
102
{BLKREFS
331
1425
102
}
  0
BLOCK_RECORD
  5
2CAA
330
2BBC
100
AcDbSymbolTableRecord
100
AcDbBlockTableRecord
  2
*D26
340
0
  0
BLOCK_RECORD
  5
2CAC
330
2BBC
100
AcDbSymbolTableRecord
100
AcDbBlockTableRecord
  2
*U27
340
0
102
{BLKREFS
331
1431
102
}
  0
BLOCK_RECORD
  5
2CAE
330
2BBC
100
AcDbSymbolTableRecord
100
AcDbBlockTableRecord
  2
*D28
340
0
  0
BLOCK_RECORD
  5
2CB0
330
2BBC
100
AcDbSymbolTableRecord
100
AcDbBlockTableRecord
  2
*U29
340
0
102
{BLKREFS
331
143D
102
}
  0
BLOCK_RECORD
  5
2CB2
330
2BBC
100
AcDbSymbolTableRecord
100
AcDbBlockTableRecord
  2
*D30
340
0
  0
BLOCK_RECORD
  5
2CB4
330
2BBC
100
AcDbSymbolTableRecord
100
AcDbBlockTableRecord
  2
*U31
340
0
102
{BLKREFS
331
1670
102
}
  0
BLOCK_RECORD
  5
2CB6
330
2BBC
100
AcDbSymbolTableRecord
100
AcDbBlockTableRecord
  2
*D32
340
0
  0
BLOCK_RECORD
  5
2CB8
330
2BBC
100
AcDbSymbolTableRecord
100
AcDbBlockTableRecord
  2
*U33
340
0
102
{BLKREFS
331
1679
102
}
  0
BLOCK_RECORD
  5
2CBA
330
2BBC
100
AcDbSymbolTableRecord
100
AcDbBlockTableRecord
  2
*D34
340
0
  0
BLOCK_RECORD
  5
2CBC
330
2BBC
100
AcDbSymbolTableRecord
100
AcDbBlockTableRecord
  2
*U35
340
0
102
{BLKREFS
331
1682
102
}
  0
BLOCK_RECORD
  5
2CBE
330
2BBC
100
AcDbSymbolTableRecord
100
AcDbBlockTableRecord
  2
*D36
340
0
  0
BLOCK_RECORD
  5
2CC0
330
2BBC
100
AcDbSymbolTableRecord
100
AcDbBlockTableRecord
  2
*U37
340
0
102
{BLKREFS
331
168B
102
}
  0
BLOCK_RECORD
  5
2CC2
330
2BBC
100
AcDbSymbolTableRecord
100
AcDbBlockTableRecord
  2
*U38
340
0
  0
BLOCK_RECORD
  5
2CC4
330
2BBC
100
AcDbSymbolTableRecord
100
AcDbBlockTableRecord
  2
*D39
340
0
  0
BLOCK_RECORD
  5
2CC6
330
2BBC
100
AcDbSymbolTableRecord
100
AcDbBlockTableRecord
  2
*U40
340
0
102
{BLKREFS
331
1698
102
}
  0
BLOCK_RECORD
  5
2CC8
330
2BBC
100
AcDbSymbolTableRecord
100
AcDbBlockTableRecord
  2
*D41
340
0
  0
BLOCK_RECORD
  5
2CCA
330
2BBC
100
AcDbSymbolTableRecord
100
AcDbBlockTableRecord
  2
*U42
340
0
102
{BLKREFS
331
16A5
102
}
  0
BLOCK_RECORD
  5
2CCC
330
2BBC
100
AcDbSymbolTableRecord
100
AcDbBlockTableRecord
  2
*D43
340
0
  0
BLOCK_RECORD
  5
2CCE
330
2BBC
100
AcDbSymbolTableRecord
100
AcDbBlockTableRecord
  2
*U44
340
0
102
{BLKREFS
331
16B1
102
}
  0
BLOCK_RECORD
  5
2CD0
330
2BBC
100
AcDbSymbolTableRecord
100
AcDbBlockTableRecord
  2
*D45
340
0
  0
BLOCK_RECORD
  5
2CD2
330
2BBC
100
AcDbSymbolTableRecord
100
AcDbBlockTableRecord
  2
*U46
340
0
102
{BLKREFS
331
16BD
102
}
  0
BLOCK_RECORD
  5
2CD4
330
2BBC
100
AcDbSymbolTableRecord
100
AcDbBlockTableRecord
  2
*D47
340
0
  0
BLOCK_RECORD
  5
2CD6
330
2BBC
100
AcDbSymbolTableRecord
100
AcDbBlockTableRecord
  2
*U48
340
0
102
{BLKREFS
331
16C9
102
}
  0
BLOCK_RECORD
  5
2CD8
330
2BBC
100
AcDbSymbolTableRecord
100
AcDbBlockTableRecord
  2
*D49
340
0
  0
BLOCK_RECORD
  5
2CDA
330
2BBC
100
AcDbSymbolTableRecord
100
AcDbBlockTableRecord
  2
*U50
340
0
102
{BLKREFS
331
16D5
102
}
  0
BLOCK_RECORD
  5
2CDC
330
2BBC
100
AcDbSymbolTableRecord
100
AcDbBlockTableRecord
  2
*D51
340
0
  0
BLOCK_RECORD
  5
2CDE
330
2BBC
100
AcDbSymbolTableRecord
100
AcDbBlockTableRecord
  2
*U52
340
0
102
{BLKREFS
331
1D88
102
}
  0
BLOCK_RECORD
  5
2CE0
330
2BBC
100
AcDbSymbolTableRecord
100
AcDbBlockTableRecord
  2
*D53
340
0
  0
BLOCK_RECORD
  5
2CE2
330
2BBC
100
AcDbSymbolTableRecord
100
AcDbBlockTableRecord
  2
*U54
340
0
102
{BLKREFS
331
1D91
102
}
  0
BLOCK_RECORD
  5
2CE4
330
2BBC
100
AcDbSymbolTableRecord
100
AcDbBlockTableRecord
  2
*D55
340
0
  0
BLOCK_RECORD
  5
2CE6
330
2BBC
100
AcDbSymbolTableRecord
100
AcDbBlockTableRecord
  2
*U56
340
0
102
{BLKREFS
331
1D9A
102
}
  0
BLOCK_RECORD
  5
2CE8
330
2BBC
100
AcDbSymbolTableRecord
100
AcDbBlockTableRecord
  2
*D57
340
0
  0
BLOCK_RECORD
  5
2CEA
330
2BBC
100
AcDbSymbolTableRecord
100
AcDbBlockTableRecord
  2
*U58
340
0
102
{BLKREFS
331
1DA3
102
}
  0
BLOCK_RECORD
  5
2CEC
330
2BBC
100
AcDbSymbolTableRecord
100
AcDbBlockTableRecord
  2
*D59
340
0
  0
BLOCK_RECORD
  5
2CEE
330
2BBC
100
AcDbSymbolTableRecord
100
AcDbBlockTableRecord
  2
*U60
340
0
102
{BLKREFS
331
1DAD
102
}
  0
BLOCK_RECORD
  5
2CF0
330
2BBC
100
AcDbSymbolTableRecord
100
AcDbBlockTableRecord
  2
*D61
340
0
  0
BLOCK_RECORD
  5
2CF2
330
2BBC
100
AcDbSymbolTableRecord
100
AcDbBlockTableRecord
  2
*U62
340
0
102
{BLKREFS
331
1DB7
102
}
  0
BLOCK_RECORD
  5
2CF4
330
2BBC
100
AcDbSymbolTableRecord
100
AcDbBlockTableRecord
  2
*U63
340
0
  0
BLOCK_RECORD
  5
2CF6
330
2BBC
100
AcDbSymbolTableRecord
100
AcDbBlockTableRecord
  2
*U64
340
0
  0
BLOCK_RECORD
  5
2CF8
330
2BBC
100
AcDbSymbolTableRecord
100
AcDbBlockTableRecord
  2
*U65
340
0
  0
BLOCK_RECORD
  5
2CFA
330
2BBC
100
AcDbSymbolTableRecord
100
AcDbBlockTableRecord
  2
*U66
340
0
  0
BLOCK_RECORD
  5
2CFC
330
2BBC
100
AcDbSymbolTableRecord
100
AcDbBlockTableRecord
  2
*U67
340
0
  0
BLOCK_RECORD
  5
2CFE
330
2BBC
100
AcDbSymbolTableRecord
100
AcDbBlockTableRecord
  2
*U68
340
0
  0
BLOCK_RECORD
  5
2D00
330
2BBC
100
AcDbSymbolTableRecord
100
AcDbBlockTableRecord
  2
*U69
340
0
  0
BLOCK_RECORD
  5
2D02
330
2BBC
100
AcDbSymbolTableRecord
100
AcDbBlockTableRecord
  2
*U70
340
0
  0
BLOCK_RECORD
  5
2D04
330
2BBC
100
AcDbSymbolTableRecord
100
AcDbBlockTableRecord
  2
*U71
340
0
  0
BLOCK_RECORD
  5
2D06
330
2BBC
100
AcDbSymbolTableRecord
100
AcDbBlockTableRecord
  2
*U72
340
0
  0
BLOCK_RECORD
  5
2D08
330
2BBC
100
AcDbSymbolTableRecord
100
AcDbBlockTableRecord
  2
*U73
340
0
  0
BLOCK_RECORD
  5
2D0A
330
2BBC
100
AcDbSymbolTableRecord
100
AcDbBlockTableRecord
  2
*X74
340
0
102
{BLKREFS
331
299F
102
}
  0
BLOCK_RECORD
  5
2D0C
330
2BBC
100
AcDbSymbolTableRecord
100
AcDbBlockTableRecord
  2
*X75
340
0
102
{BLKREFS
331
29A0
102
}
  0
BLOCK_RECORD
  5
2D0E
330
2BBC
100
AcDbSymbolTableRecord
100
AcDbBlockTableRecord
  2
*U76
340
0
102
{BLKREFS
331
29B9
102
}
  0
BLOCK_RECORD
  5
2D10
330
2BBC
100
AcDbSymbolTableRecord
100
AcDbBlockTableRecord
  2
*U77
340
0
102
{BLKREFS
331
29BA
102
}
  0
ENDTAB
  0
ENDSEC
  0
SECTION
  2
BLOCKS
  0
BLOCK
  5
2C30
330
2C2F
100
AcDbEntity
  8
0
100
AcDbBlockBegin
  2
*Model_Space
 70
     0
 10
0.0
 20
0.0
 30
0.0
  3
*Model_Space
  1

  0
ENDBLK
  5
2C31
330
2C2F
100
AcDbEntity
  8
0
100
AcDbBlockEnd
  0
BLOCK
  5
2C2C
330
2C2B
100
AcDbEntity
 67
     1
  8
0
100
AcDbBlockBegin
  2
*Paper_Space
 70
     0
 10
0.0
 20
0.0
 30
0.0
  3
*Paper_Space
  1

  0
ENDBLK
  5
2C2D
330
2C2B
100
AcDbEntity
 67
     1
  8
0
100
AcDbBlockEnd
  0
BLOCK
  5
2C77
330
2C76
100
AcDbEntity
  8
0
100
AcDbBlockBegin
  2
$MODEL_SPACE
 70
     0
 10
0.0
 20
0.0
 30
0.0
  3
$MODEL_SPACE
  1

  0
ENDBLK
  5
2A96
330
2C76
100
AcDbEntity
  8
0
100
AcDbBlockEnd
  0
BLOCK
  5
2C79
330
2C78
100
AcDbEntity
  8
0
100
AcDbBlockBegin
  2
$PAPER_SPACE
 70
     0
 10
0.0
 20
0.0
 30
0.0
  3
$PAPER_SPACE
  1

  0
ENDBLK
  5
2A92
330
2C78
100
AcDbEntity
  8
0
100
AcDbBlockEnd
  0
BLOCK
  5
2C7B
330
2C7A
100
AcDbEntity
  8
0
100
AcDbBlockBegin
  2
_ORIGIN
 70
     0
 10
0.0
 20
0.0
 30
0.0
  3
_ORIGIN
  1

  0
CIRCLE
  5
880
330
2C7A
100
AcDbEntity
  8
0
  6
Continuous
 62
     7
100
AcDbCircle
 10
0.0
 20
0.0
 30
0.0
 40
0.5
  0
LINE
  5
881
330
2C7A
100
AcDbEntity
  8
0
  6
Continuous
 62
     7
100
AcDbLine
 10
0.0
 20
0.0
 30
0.0
 11
-1.0
 21
0.0
 31
0.0
  0
ENDBLK
  5
882
330
2C7A
100
AcDbEntity
  8
0
100
AcDbBlockEnd
  0
BLOCK
  5
2C7D
330
2C7C
100
AcDbEntity
  8
0
 62
     1
100
AcDbBlockBegin
  2
_DOTBLANK
 70
     0
 10
0.0
 20
0.0
 30
0.0
  3
_DOTBLANK
  1

  0
CIRCLE
  5
AB3
330
2C7C
100
AcDbEntity
  8
0
  6
ByBlock
 62
     0
100
AcDbCircle
 10
0.0
 20
0.0
 30
0.0
 40
0.5
  0
LINE
  5
AB4
330
2C7C
100
AcDbEntity
  8
0
  6
ByBlock
 62
     0
100
AcDbLine
 10
-0.5
 20
0.0
 30
0.0
 11
-1.0
 21
0.0
 31
0.0
  0
ENDBLK
  5
AB6
330
2C7C
100
AcDbEntity
  8
0
 62
     1
100
AcDbBlockEnd
  0
BLOCK
  5
2C7F
330
2C7E
100
AcDbEntity
  8
0
 62
     1
100
AcDbBlockBegin
  2
_OPEN30
 70
     0
 10
0.0
 20
0.0
 30
0.0
  3
_OPEN30
  1

  0
LINE
  5
AB8
330
2C7E
100
AcDbEntity
  8
0
  6
ByBlock
 62
     0
100
AcDbLine
 10
-1.0
 20
0.26794919
 30
0.0
 11
0.0
 21
0.0
 31
0.0
  0
LINE
  5
AB9
330
2C7E
100
AcDbEntity
  8
0
  6
ByBlock
 62
     0
100
AcDbLine
 10
0.0
 20
0.0
 30
0.0
 11
-1.0
 21
-0.26794919
 31
0.0
  0
LINE
  5
ABA
330
2C7E
100
AcDbEntity
  8
0
  6
ByBlock
 62
     0
100
AcDbLine
 10
0.0
 20
0.0
 30
0.0
 11
-1.0
 21
0.0
 31
0.0
  0
ENDBLK
  5
ABC
330
2C7E
100
AcDbEntity
  8
0
 62
     1
100
AcDbBlockEnd
  0
BLOCK
  5
2C81
330
2C80
100
AcDbEntity
  8
0
100
AcDbBlockBegin
  2
*D5
 70
     1
 10
0.0
 20
0.0
 30
0.0
  3
*D5
  1

  0
LINE
  5
1296
330
2C80
100
AcDbEntity
  8
SIZE
 62
     0
100
AcDbLine
 10
-134.5
 20
-320.0
 30
0.0
 11
-134.5
 21
-468.0173952306001
 31
0.0
  0
LINE
  5
1297
330
2C80
100
AcDbEntity
  8
SIZE
 62
     0
100
AcDbLine
 10
134.5
 20
-320.0
 30
0.0
 11
134.5
 21
-468.0173952306001
 31
0.0
  0
LINE
  5
1298
330
2C80
100
AcDbEntity
  8
SIZE
 62
     0
100
AcDbLine
 10
-122.5
 20
-448.0173952306
 30
0.0
 11
122.5
 21
-448.0173952306
 31
0.0
  0
INSERT
  5
1299
330
2C80
100
AcDbEntity
  8
SIZE
 62
     0
100
AcDbBlockReference
  2
_DOTBLANK
 10
-134.5
 20
-448.0173952306
 30
0.0
 41
12.0
 42
12.0
 43
12.0
 50
180.0
  0
INSERT
  5
129A
330
2C80
100
AcDbEntity
  8
SIZE
 62
     0
100
AcDbBlockReference
  2
_DOTBLANK
 10
134.5
 20
-448.0173952306
 30
0.0
 41
12.0
 42
12.0
 43
12.0
  0
INSERT
  5
129B
330
2C80
100
AcDbEntity
  8
0
100
AcDbBlockReference
  2
*U6
 10
0.0
 20
0.0
 30
0.0
  0
POINT
  5
129C
330
2C80
100
AcDbEntity
  8
DEFPOINTS
 62
     0
100
AcDbPoint
 10
-134.5
 20
-300.0
 30
0.0
  0
POINT
  5
129D
330
2C80
100
AcDbEntity
  8
DEFPOINTS
 62
     0
100
AcDbPoint
 10
134.5
 20
-300.0
 30
0.0
  0
POINT
  5
129E
330
2C80
100
AcDbEntity
  8
DEFPOINTS
 62
     0
100
AcDbPoint
 10
134.5
 20
-448.0173952306
 30
0.0
  0
ENDBLK
  5
D72
330
2C80
100
AcDbEntity
  8
0
100
AcDbBlockEnd
  0
BLOCK
  5
2C83
330
2C82
100
AcDbEntity
  8
0
100
AcDbBlockBegin
  2
*U6
 70
     1
 10
0.0
 20
0.0
 30
0.0
  3
*U6
  1

  0
TEXT
  5
1EF5
330
2C82
100
AcDbEntity
  8
SIZE
 62
     0
100
AcDbText
 10
-72.68571428571426
 20
-438.0173952305999
 30
0.0
 40
64.0
  1
269
 41
0.9
100
AcDbText
  0
ENDBLK
  5
1EF7
330
2C82
100
AcDbEntity
  8
0
100
AcDbBlockEnd
  0
BLOCK
  5
2C85
330
2C84
100
AcDbEntity
  8
0
100
AcDbBlockBegin
  2
*D7
 70
     1
 10
0.0
 20
0.0
 30
0.0
  3
*D7
  1

  0
LINE
  5
11A7
330
2C84
100
AcDbEntity
  8
SIZE
  6
Continuous
 62
     0
100
AcDbLine
 10
143.5
 20
-300.0
 30
0.0
 11
304.6432844803791
 21
-300.0
 31
0.0
  0
LINE
  5
11A8
330
2C84
100
AcDbEntity
  8
SIZE
  6
Continuous
 62
     0
100
AcDbLine
 10
177.5
 20
-0.0000000000000057
 30
0.0
 11
304.6432844803792
 21
-0.0000000000000417
 31
0.0
  0
LINE
  5
11A9
330
2C84
100
AcDbEntity
  8
SIZE
  6
Continuous
 62
     0
100
AcDbLine
 10
284.6432844803791
 20
-288.0000000000001
 30
0.0
 11
284.6432844803792
 21
-12.00000000000003
 31
0.0
  0
INSERT
  5
11AA
330
2C84
100
AcDbEntity
  8
SIZE
  6
Continuous
 62
     0
100
AcDbBlockReference
  2
_DOTBLANK
 10
284.6432844803791
 20
-300.0
 30
0.0
 41
12.0
 42
12.0
 43
12.0
 50
270.0
  0
INSERT
  5
11AB
330
2C84
100
AcDbEntity
  8
SIZE
  6
Continuous
 62
     0
100
AcDbBlockReference
  2
_DOTBLANK
 10
284.6432844803792
 20
-0.000000000000036
 30
0.0
 41
12.0
 42
12.0
 43
12.0
 50
90.0
  0
INSERT
  5
11AC
330
2C84
100
AcDbEntity
  8
0
100
AcDbBlockReference
  2
*U8
 10
0.0
 20
0.0
 30
0.0
  0
POINT
  5
11AD
330
2C84
100
AcDbEntity
  8
DEFPOINTS
  6
Continuous
 62
     0
100
AcDbPoint
 10
123.5
 20
-300.0
 30
0.0
  0
POINT
  5
11AE
330
2C84
100
AcDbEntity
  8
DEFPOINTS
  6
Continuous
 62
     0
100
AcDbPoint
 10
157.5
 20
0.0
 30
0.0
  0
POINT
  5
11AF
330
2C84
100
AcDbEntity
  8
DEFPOINTS
  6
Continuous
 62
     0
100
AcDbPoint
 10
284.6432844803792
 20
-0.000000000000036
 30
0.0
  0
ENDBLK
  5
E11
330
2C84
100
AcDbEntity
  8
0
100
AcDbBlockEnd
  0
BLOCK
  5
2C87
330
2C86
100
AcDbEntity
  8
0
100
AcDbBlockBegin
  2
*U8
 70
     1
 10
0.0
 20
0.0
 30
0.0
  3
*U8
  1

  0
TEXT
  5
1EE1
330
2C86
100
AcDbEntity
  8
SIZE
 62
     0
100
AcDbText
 10
274.6432844803792
 20
-224.0571428571429
 30
0.0
 40
64.0
  1
300
 50
90.0
 41
0.9
100
AcDbText
  0
ENDBLK
  5
1EE3
330
2C86
100
AcDbEntity
  8
0
100
AcDbBlockEnd
  0
BLOCK
  5
2C89
330
2C88
100
AcDbEntity
  8
0
100
AcDbBlockBegin
  2
*D9
 70
     1
 10
0.0
 20
0.0
 30
0.0
  3
*D9
  1

  0
LINE
  5
E7D
330
2C88
100
AcDbEntity
  8
SIZE
 62
     0
100
AcDbLine
 10
-139.9999999999998
 20
32.46448280219375
 30
0.0
 11
-139.9999999999998
 21
136.4516878685508
 31
0.0
  0
LINE
  5
E7E
330
2C88
100
AcDbEntity
  8
SIZE
 62
     0
100
AcDbLine
 10
140.0
 20
32.46448280219375
 30
0.0
 11
140.0
 21
136.4516878685508
 31
0.0
  0
LINE
  5
E7F
330
2C88
100
AcDbEntity
  8
SIZE
 62
     0
100
AcDbLine
 10
-128.0
 20
116.4516878685508
 30
0.0
 11
128.0
 21
116.4516878685508
 31
0.0
  0
INSERT
  5
E80
330
2C88
100
AcDbEntity
  8
SIZE
 62
     0
100
AcDbBlockReference
  2
_DOTBLANK
 10
-139.9999999999998
 20
116.4516878685508
 30
0.0
 41
12.0
 42
12.0
 43
12.0
 50
180.0
  0
INSERT
  5
E81
330
2C88
100
AcDbEntity
  8
SIZE
 62
     0
100
AcDbBlockReference
  2
_DOTBLANK
 10
140.0
 20
116.4516878685508
 30
0.0
 41
12.0
 42
12.0
 43
12.0
  0
INSERT
  5
E82
330
2C88
100
AcDbEntity
  8
0
100
AcDbBlockReference
  2
*U10
 10
0.0
 20
0.0
 30
0.0
  0
POINT
  5
E83
330
2C88
100
AcDbEntity
  8
DEFPOINTS
 62
     0
100
AcDbPoint
 10
-139.9999999999998
 20
12.46448280219374
 30
0.0
  0
POINT
  5
E84
330
2C88
100
AcDbEntity
  8
DEFPOINTS
 62
     0
100
AcDbPoint
 10
140.0
 20
12.46448280219374
 30
0.0
  0
POINT
  5
E85
330
2C88
100
AcDbEntity
  8
DEFPOINTS
 62
     0
100
AcDbPoint
 10
140.0
 20
116.4516878685508
 30
0.0
  0
ENDBLK
  5
E7C
330
2C88
100
AcDbEntity
  8
0
100
AcDbBlockEnd
  0
BLOCK
  5
2C8B
330
2C8A
100
AcDbEntity
  8
0
100
AcDbBlockBegin
  2
*U10
 70
     1
 10
0.0
 20
0.0
 30
0.0
  3
*U10
  1

  0
TEXT
  5
1ED8
330
2C8A
100
AcDbEntity
  8
SIZE
 62
     0
100
AcDbText
 10
-74.05714285714281
 20
126.4516878685508
 30
0.0
 40
64.0
  1
280
 41
0.9
100
AcDbText
  0
ENDBLK
  5
1EDA
330
2C8A
100
AcDbEntity
  8
0
100
AcDbBlockEnd
  0
BLOCK
  5
2C8D
330
2C8C
100
AcDbEntity
  8
0
100
AcDbBlockBegin
  2
GENAXEH
 70
     0
 10
0.0
 20
0.0
 30
0.0
  3
GENAXEH
  1

  0
LINE
  5
FDB
330
2C8C
100
AcDbEntity
  8
0
100
AcDbLine
 10
-1.0
 20
0.0
 30
0.0
 11
1.0
 21
0.0
 31
0.0
  0
ENDBLK
  5
FDD
330
2C8C
100
AcDbEntity
  8
0
100
AcDbBlockEnd
  0
BLOCK
  5
2C8F
330
2C8E
100
AcDbEntity
  8
0
100
AcDbBlockBegin
  2
*D12
 70
     1
 10
0.0
 20
0.0
 30
0.0
  3
*D12
  1

  0
LINE
  5
1120
330
2C8E
100
AcDbEntity
  8
SIZE
 62
     0
100
AcDbLine
 10
-157.5
 20
20.0
 30
0.0
 11
-157.5
 21
245.5794621189598
 31
0.0
  0
LINE
  5
1121
330
2C8E
100
AcDbEntity
  8
SIZE
 62
     0
100
AcDbLine
 10
157.5
 20
20.0
 30
0.0
 11
157.5
 21
245.5794621189598
 31
0.0
  0
LINE
  5
1122
330
2C8E
100
AcDbEntity
  8
SIZE
 62
     0
100
AcDbLine
 10
-145.5
 20
225.5794621189598
 30
0.0
 11
145.5
 21
225.5794621189598
 31
0.0
  0
INSERT
  5
1123
330
2C8E
100
AcDbEntity
  8
SIZE
 62
     0
100
AcDbBlockReference
  2
_DOTBLANK
 10
-157.5
 20
225.5794621189598
 30
0.0
 41
12.0
 42
12.0
 43
12.0
 50
180.0
  0
INSERT
  5
1124
330
2C8E
100
AcDbEntity
  8
SIZE
 62
     0
100
AcDbBlockReference
  2
_DOTBLANK
 10
157.5
 20
225.5794621189598
 30
0.0
 41
12.0
 42
12.0
 43
12.0
  0
INSERT
  5
1125
330
2C8E
100
AcDbEntity
  8
0
100
AcDbBlockReference
  2
*U13
 10
0.0
 20
0.0
 30
0.0
  0
POINT
  5
1126
330
2C8E
100
AcDbEntity
  8
DEFPOINTS
 62
     0
100
AcDbPoint
 10
-157.5
 20
0.0
 30
0.0
  0
POINT
  5
1127
330
2C8E
100
AcDbEntity
  8
DEFPOINTS
 62
     0
100
AcDbPoint
 10
157.5
 20
0.0
 30
0.0
  0
POINT
  5
1128
330
2C8E
100
AcDbEntity
  8
DEFPOINTS
 62
     0
100
AcDbPoint
 10
157.5
 20
225.5794621189598
 30
0.0
  0
ENDBLK
  5
111F
330
2C8E
100
AcDbEntity
  8
0
100
AcDbBlockEnd
  0
BLOCK
  5
2C91
330
2C90
100
AcDbEntity
  8
0
100
AcDbBlockBegin
  2
*U13
 70
     1
 10
0.0
 20
0.0
 30
0.0
  3
*U13
  1

  0
TEXT
  5
1EDD
330
2C90
100
AcDbEntity
  8
SIZE
 62
     0
100
AcDbText
 10
-68.57142857142857
 20
235.5794621189599
 30
0.0
 40
64.0
  1
315
 41
0.9
100
AcDbText
  0
ENDBLK
  5
1EDF
330
2C90
100
AcDbEntity
  8
0
100
AcDbBlockEnd
  0
BLOCK
  5
2C93
330
2C92
100
AcDbEntity
  8
0
100
AcDbBlockBegin
  2
*D14
 70
     1
 10
0.0
 20
0.0
 30
0.0
  3
*D14
  1

  0
LINE
  5
11BD
330
2C92
100
AcDbEntity
  8
NOTE
 62
     0
100
AcDbLine
 10
-123.4999999999999
 20
-320.0
 30
0.0
 11
-123.4999999999999
 21
-354.9529861856111
 31
0.0
  0
LINE
  5
11BE
330
2C92
100
AcDbEntity
  8
NOTE
 62
     0
100
AcDbLine
 10
-133.4999999999998
 20
-331.2126909923287
 30
0.0
 11
-133.4999999999998
 21
-354.9529861856111
 31
0.0
  0
LINE
  5
11BF
330
2C92
100
AcDbEntity
  8
NOTE
 62
     0
100
AcDbLine
 10
-111.4999999999999
 20
-334.9529861856112
 30
0.0
 11
-99.4999999999999
 21
-334.9529861856112
 31
0.0
  0
LINE
  5
11C0
330
2C92
100
AcDbEntity
  8
NOTE
 62
     0
100
AcDbLine
 10
-145.4999999999998
 20
-334.9529861856112
 30
0.0
 11
-157.4999999999998
 21
-334.9529861856112
 31
0.0
  0
LINE
  5
11C1
330
2C92
100
AcDbEntity
  8
NOTE
 62
     0
100
AcDbLine
 10
-123.4999999999999
 20
-334.9529861856112
 30
0.0
 11
-133.4999999999998
 21
-334.9529861856112
 31
0.0
  0
INSERT
  5
11C2
330
2C92
100
AcDbEntity
  8
NOTE
 62
     0
100
AcDbBlockReference
  2
_DOTBLANK
 10
-123.4999999999999
 20
-334.9529861856112
 30
0.0
 41
12.0
 42
12.0
 43
12.0
 50
180.0
  0
INSERT
  5
11C3
330
2C92
100
AcDbEntity
  8
NOTE
 62
     0
100
AcDbBlockReference
  2
_DOTBLANK
 10
-133.4999999999998
 20
-334.9529861856112
 30
0.0
 41
12.0
 42
12.0
 43
12.0
  0
INSERT
  5
11C4
330
2C92
100
AcDbEntity
  8
0
100
AcDbBlockReference
  2
*U15
 10
0.0
 20
0.0
 30
0.0
  0
POINT
  5
11C5
330
2C92
100
AcDbEntity
  8
DEFPOINTS
 62
     0
100
AcDbPoint
 10
-123.4999999999999
 20
-300.0
 30
0.0
  0
POINT
  5
11C6
330
2C92
100
AcDbEntity
  8
DEFPOINTS
 62
     0
100
AcDbPoint
 10
-133.4999999999998
 20
-311.2126909923287
 30
0.0
  0
POINT
  5
11C7
330
2C92
100
AcDbEntity
  8
DEFPOINTS
 62
     0
100
AcDbPoint
 10
-133.4999999999998
 20
-334.9529861856112
 30
0.0
  0
ENDBLK
  5
11BC
330
2C92
100
AcDbEntity
  8
0
100
AcDbBlockEnd
  0
BLOCK
  5
2C95
330
2C94
100
AcDbEntity
  8
0
100
AcDbBlockBegin
  2
*U15
 70
     1
 10
0.0
 20
0.0
 30
0.0
  3
*U15
  1

  0
TEXT
  5
1EE5
330
2C94
100
AcDbEntity
  8
NOTE
 62
     0
100
AcDbText
 10
-169.642857142857
 20
-324.9529861856112
 30
0.0
 40
64.0
  1
10
 41
0.9
100
AcDbText
  0
ENDBLK
  5
1EE7
330
2C94
100
AcDbEntity
  8
0
100
AcDbBlockEnd
  0
BLOCK
  5
2C97
330
2C96
100
AcDbEntity
  8
0
100
AcDbBlockBegin
  2
*D16
 70
     1
 10
0.0
 20
0.0
 30
0.0
  3
*D16
  1

  0
LINE
  5
11E7
330
2C96
100
AcDbEntity
  8
NOTE
 62
     0
100
AcDbLine
 10
-135.5
 20
-333.2126909923287
 30
0.0
 11
-135.5
 21
-386.2569421441843
 31
0.0
  0
LINE
  5
11E8
330
2C96
100
AcDbEntity
  8
NOTE
 62
     0
100
AcDbLine
 10
-123.4999999999999
 20
-320.0
 30
0.0
 11
-123.4999999999999
 21
-386.2569421441843
 31
0.0
  0
LINE
  5
11E9
330
2C96
100
AcDbEntity
  8
NOTE
 62
     0
100
AcDbLine
 10
-147.5
 20
-366.2569421441844
 30
0.0
 11
-159.5
 21
-366.2569421441844
 31
0.0
  0
LINE
  5
11EA
330
2C96
100
AcDbEntity
  8
NOTE
 62
     0
100
AcDbLine
 10
-111.4999999999999
 20
-366.2569421441844
 30
0.0
 11
-99.4999999999999
 21
-366.2569421441844
 31
0.0
  0
LINE
  5
11EB
330
2C96
100
AcDbEntity
  8
NOTE
 62
     0
100
AcDbLine
 10
-135.5
 20
-366.2569421441844
 30
0.0
 11
-123.4999999999999
 21
-366.2569421441844
 31
0.0
  0
INSERT
  5
11EC
330
2C96
100
AcDbEntity
  8
NOTE
 62
     0
100
AcDbBlockReference
  2
_DOTBLANK
 10
-135.5
 20
-366.2569421441844
 30
0.0
 41
12.0
 42
12.0
 43
12.0
  0
INSERT
  5
11ED
330
2C96
100
AcDbEntity
  8
NOTE
 62
     0
100
AcDbBlockReference
  2
_DOTBLANK
 10
-123.4999999999999
 20
-366.2569421441844
 30
0.0
 41
12.0
 42
12.0
 43
12.0
 50
180.0
  0
INSERT
  5
11EE
330
2C96
100
AcDbEntity
  8
0
100
AcDbBlockReference
  2
*U17
 10
0.0
 20
0.0
 30
0.0
  0
POINT
  5
11EF
330
2C96
100
AcDbEntity
  8
DEFPOINTS
 62
     0
100
AcDbPoint
 10
-135.5
 20
-313.2126909923287
 30
0.0
  0
POINT
  5
11F0
330
2C96
100
AcDbEntity
  8
DEFPOINTS
 62
     0
100
AcDbPoint
 10
-123.4999999999999
 20
-300.0
 30
0.0
  0
POINT
  5
11F1
330
2C96
100
AcDbEntity
  8
DEFPOINTS
 62
     0
100
AcDbPoint
 10
-123.4999999999999
 20
-366.2569421441844
 30
0.0
  0
ENDBLK
  5
11E6
330
2C96
100
AcDbEntity
  8
0
100
AcDbBlockEnd
  0
BLOCK
  5
2C99
330
2C98
100
AcDbEntity
  8
0
100
AcDbBlockBegin
  2
*U17
 70
     1
 10
0.0
 20
0.0
 30
0.0
  3
*U17
  1

  0
TEXT
  5
1EE9
330
2C98
100
AcDbEntity
  8
NOTE
 62
     0
100
AcDbText
 10
-170.642857142857
 20
-356.2569421441843
 30
0.0
 40
64.0
  1
12
 41
0.9
100
AcDbText
  0
ENDBLK
  5
1EEB
330
2C98
100
AcDbEntity
  8
0
100
AcDbBlockEnd
  0
BLOCK
  5
2C9B
330
2C9A
100
AcDbEntity
  8
0
100
AcDbBlockBegin
  2
*D18
 70
     1
 10
0.0
 20
0.0
 30
0.0
  3
*D18
  1

  0
LINE
  5
11F6
330
2C9A
100
AcDbEntity
  8
NOTE
 62
     0
100
AcDbLine
 10
-123.4999999999999
 20
-320.0
 30
0.0
 11
-123.4999999999999
 21
-583.8286022818904
 31
0.0
  0
LINE
  5
11F7
330
2C9A
100
AcDbEntity
  8
NOTE
 62
     0
100
AcDbLine
 10
123.5
 20
-320.0
 30
0.0
 11
123.5
 21
-583.8286022818904
 31
0.0
  0
LINE
  5
11F8
330
2C9A
100
AcDbEntity
  8
NOTE
 62
     0
100
AcDbLine
 10
-111.4999999999999
 20
-563.8286022818904
 30
0.0
 11
111.5
 21
-563.8286022818904
 31
0.0
  0
INSERT
  5
11F9
330
2C9A
100
AcDbEntity
  8
NOTE
 62
     0
100
AcDbBlockReference
  2
_DOTBLANK
 10
-123.4999999999999
 20
-563.8286022818904
 30
0.0
 41
12.0
 42
12.0
 43
12.0
 50
180.0
  0
INSERT
  5
11FA
330
2C9A
100
AcDbEntity
  8
NOTE
 62
     0
100
AcDbBlockReference
  2
_DOTBLANK
 10
123.5
 20
-563.8286022818904
 30
0.0
 41
12.0
 42
12.0
 43
12.0
  0
INSERT
  5
11FB
330
2C9A
100
AcDbEntity
  8
0
100
AcDbBlockReference
  2
*U19
 10
0.0
 20
0.0
 30
0.0
  0
POINT
  5
11FC
330
2C9A
100
AcDbEntity
  8
DEFPOINTS
 62
     0
100
AcDbPoint
 10
-123.4999999999999
 20
-300.0
 30
0.0
  0
POINT
  5
11FD
330
2C9A
100
AcDbEntity
  8
DEFPOINTS
 62
     0
100
AcDbPoint
 10
123.5
 20
-300.0
 30
0.0
  0
POINT
  5
11FE
330
2C9A
100
AcDbEntity
  8
DEFPOINTS
 62
     0
100
AcDbPoint
 10
123.5
 20
-563.8286022818904
 30
0.0
  0
ENDBLK
  5
11F5
330
2C9A
100
AcDbEntity
  8
0
100
AcDbBlockEnd
  0
BLOCK
  5
2C9D
330
2C9C
100
AcDbEntity
  8
0
100
AcDbBlockBegin
  2
*U19
 70
     1
 10
0.0
 20
0.0
 30
0.0
  3
*U19
  1

  0
TEXT
  5
1EED
330
2C9C
100
AcDbEntity
  8
NOTE
 62
     0
100
AcDbText
 10
-74.05714285714281
 20
-553.8286022818904
 30
0.0
 40
64.0
  1
247
 41
0.9
100
AcDbText
  0
ENDBLK
  5
1EEF
330
2C9C
100
AcDbEntity
  8
0
100
AcDbBlockEnd
  0
BLOCK
  5
2C9F
330
2C9E
100
AcDbEntity
  8
0
100
AcDbBlockBegin
  2
*D20
 70
     1
 10
0.0
 20
0.0
 30
0.0
  3
*D20
  1

  0
LINE
  5
1284
330
2C9E
100
AcDbEntity
  8
NOTE
 62
     0
100
AcDbLine
 10
-123.5
 20
12.0
 30
0.0
 11
-123.5
 21
71.83630134534229
 31
0.0
  0
LINE
  5
1285
330
2C9E
100
AcDbEntity
  8
NOTE
 62
     0
100
AcDbLine
 10
123.5
 20
12.0
 30
0.0
 11
123.5
 21
71.83630134534229
 31
0.0
  0
LINE
  5
1286
330
2C9E
100
AcDbEntity
  8
NOTE
 62
     0
100
AcDbLine
 10
-111.5
 20
51.83630134534229
 30
0.0
 11
111.5
 21
51.83630134534229
 31
0.0
  0
INSERT
  5
1287
330
2C9E
100
AcDbEntity
  8
NOTE
 62
     0
100
AcDbBlockReference
  2
_DOTBLANK
 10
-123.5
 20
51.83630134534229
 30
0.0
 41
12.0
 42
12.0
 43
12.0
 50
180.0
  0
INSERT
  5
1288
330
2C9E
100
AcDbEntity
  8
NOTE
 62
     0
100
AcDbBlockReference
  2
_DOTBLANK
 10
123.5
 20
51.83630134534229
 30
0.0
 41
12.0
 42
12.0
 43
12.0
  0
INSERT
  5
1289
330
2C9E
100
AcDbEntity
  8
0
100
AcDbBlockReference
  2
*U21
 10
0.0
 20
0.0
 30
0.0
  0
POINT
  5
128A
330
2C9E
100
AcDbEntity
  8
DEFPOINTS
 62
     0
100
AcDbPoint
 10
-123.5
 20
-8.0
 30
0.0
  0
POINT
  5
128B
330
2C9E
100
AcDbEntity
  8
DEFPOINTS
 62
     0
100
AcDbPoint
 10
123.5
 20
-8.0
 30
0.0
  0
POINT
  5
128C
330
2C9E
100
AcDbEntity
  8
DEFPOINTS
 62
     0
100
AcDbPoint
 10
123.5
 20
51.83630134534229
 30
0.0
  0
ENDBLK
  5
1283
330
2C9E
100
AcDbEntity
  8
0
100
AcDbBlockEnd
  0
BLOCK
  5
2CA1
330
2CA0
100
AcDbEntity
  8
0
100
AcDbBlockBegin
  2
*U21
 70
     1
 10
0.0
 20
0.0
 30
0.0
  3
*U21
  1

  0
TEXT
  5
1EF1
330
2CA0
100
AcDbEntity
  8
NOTE
 62
     0
100
AcDbText
 10
-74.05714285714283
 20
61.83630134534229
 30
0.0
 40
64.0
  1
247
 41
0.9
100
AcDbText
  0
ENDBLK
  5
1EF3
330
2CA0
100
AcDbEntity
  8
0
100
AcDbBlockEnd
  0
BLOCK
  5
2CA3
330
2CA2
100
AcDbEntity
  8
0
100
AcDbBlockBegin
  2
*D22
 70
     1
 10
0.0
 20
0.0
 30
0.0
  3
*D22
  1

  0
LINE
  5
1414
330
2CA2
100
AcDbEntity
  8
SIZE
 62
     0
100
AcDbLine
 10
-22313.11521613997
 20
7365.702971374808
 30
0.0
 11
-22313.11521613997
 21
7217.685576144207
 31
0.0
  0
LINE
  5
1415
330
2CA2
100
AcDbEntity
  8
SIZE
 62
     0
100
AcDbLine
 10
-22044.11521613997
 20
7365.702971374808
 30
0.0
 11
-22044.11521613997
 21
7217.685576144207
 31
0.0
  0
LINE
  5
1416
330
2CA2
100
AcDbEntity
  8
SIZE
 62
     0
100
AcDbLine
 10
-22301.11521613997
 20
7237.685576144207
 30
0.0
 11
-22056.11521613997
 21
7237.685576144207
 31
0.0
  0
INSERT
  5
1417
330
2CA2
100
AcDbEntity
  8
SIZE
 62
     0
100
AcDbBlockReference
  2
_DOTBLANK
 10
-22313.11521613997
 20
7237.685576144207
 30
0.0
 41
12.0
 42
12.0
 43
12.0
 50
180.0
  0
INSERT
  5
1418
330
2CA2
100
AcDbEntity
  8
SIZE
 62
     0
100
AcDbBlockReference
  2
_DOTBLANK
 10
-22044.11521613997
 20
7237.685576144207
 30
0.0
 41
12.0
 42
12.0
 43
12.0
  0
INSERT
  5
1419
330
2CA2
100
AcDbEntity
  8
0
100
AcDbBlockReference
  2
*U23
 10
0.0
 20
0.0
 30
0.0
  0
POINT
  5
141A
330
2CA2
100
AcDbEntity
  8
DEFPOINTS
 62
     0
100
AcDbPoint
 10
-22313.11521613997
 20
7385.702971374808
 30
0.0
  0
POINT
  5
141B
330
2CA2
100
AcDbEntity
  8
DEFPOINTS
 62
     0
100
AcDbPoint
 10
-22044.11521613997
 20
7385.702971374808
 30
0.0
  0
POINT
  5
141C
330
2CA2
100
AcDbEntity
  8
DEFPOINTS
 62
     0
100
AcDbPoint
 10
-22044.11521613997
 20
7237.685576144207
 30
0.0
  0
ENDBLK
  5
141D
330
2CA2
100
AcDbEntity
  8
0
100
AcDbBlockEnd
  0
BLOCK
  5
2CA5
330
2CA4
100
AcDbEntity
  8
0
100
AcDbBlockBegin
  2
*U23
 70
     1
 10
0.0
 20
0.0
 30
0.0
  3
*U23
  1

  0
TEXT
  5
1EF9
330
2CA4
100
AcDbEntity
  8
SIZE
 62
     0
100
AcDbText
 10
-22251.30093042568
 20
7247.685576144205
 30
0.0
 40
64.0
  1
269
 41
0.9
100
AcDbText
  0
ENDBLK
  5
1EFB
330
2CA4
100
AcDbEntity
  8
0
100
AcDbBlockEnd
  0
BLOCK
  5
2CA7
330
2CA6
100
AcDbEntity
  8
0
100
AcDbBlockBegin
  2
*D24
 70
     1
 10
0.0
 20
0.0
 30
0.0
  3
*D24
  1

  0
LINE
  5
1420
330
2CA6
100
AcDbEntity
  8
SIZE
  6
Continuous
 62
     0
100
AcDbLine
 10
-22035.11521613997
 20
7385.702971374808
 30
0.0
 11
-21873.97193165959
 21
7385.702971374808
 31
0.0
  0
LINE
  5
1421
330
2CA6
100
AcDbEntity
  8
SIZE
  6
Continuous
 62
     0
100
AcDbLine
 10
-22001.11521613997
 20
7685.702971374808
 30
0.0
 11
-21873.97193165959
 21
7685.702971374808
 31
0.0
  0
LINE
  5
1422
330
2CA6
100
AcDbEntity
  8
SIZE
  6
Continuous
 62
     0
100
AcDbLine
 10
-21893.97193165959
 20
7397.702971374808
 30
0.0
 11
-21893.97193165959
 21
7673.702971374808
 31
0.0
  0
INSERT
  5
1423
330
2CA6
100
AcDbEntity
  8
SIZE
  6
Continuous
 62
     0
100
AcDbBlockReference
  2
_DOTBLANK
 10
-21893.97193165959
 20
7385.702971374808
 30
0.0
 41
12.0
 42
12.0
 43
12.0
 50
270.0
  0
INSERT
  5
1424
330
2CA6
100
AcDbEntity
  8
SIZE
  6
Continuous
 62
     0
100
AcDbBlockReference
  2
_DOTBLANK
 10
-21893.97193165959
 20
7685.702971374808
 30
0.0
 41
12.0
 42
12.0
 43
12.0
 50
90.0
  0
INSERT
  5
1425
330
2CA6
100
AcDbEntity
  8
0
100
AcDbBlockReference
  2
*U25
 10
0.0
 20
0.0
 30
0.0
  0
POINT
  5
1426
330
2CA6
100
AcDbEntity
  8
DEFPOINTS
  6
Continuous
 62
     0
100
AcDbPoint
 10
-22055.11521613997
 20
7385.702971374808
 30
0.0
  0
POINT
  5
1427
330
2CA6
100
AcDbEntity
  8
DEFPOINTS
  6
Continuous
 62
     0
100
AcDbPoint
 10
-22021.11521613997
 20
7685.702971374808
 30
0.0
  0
POINT
  5
1428
330
2CA6
100
AcDbEntity
  8
DEFPOINTS
  6
Continuous
 62
     0
100
AcDbPoint
 10
-21893.97193165959
 20
7685.702971374808
 30
0.0
  0
ENDBLK
  5
1429
330
2CA6
100
AcDbEntity
  8
0
100
AcDbBlockEnd
  0
BLOCK
  5
2CA9
330
2CA8
100
AcDbEntity
  8
0
100
AcDbBlockBegin
  2
*U25
 70
     1
 10
0.0
 20
0.0
 30
0.0
  3
*U25
  1

  0
TEXT
  5
1EFD
330
2CA8
100
AcDbEntity
  8
SIZE
 62
     0
100
AcDbText
 10
-21903.97193165959
 20
7461.645828517662
 30
0.0
 40
64.0
  1
300
 50
90.0
 41
0.9
100
AcDbText
  0
ENDBLK
  5
1EFF
330
2CA8
100
AcDbEntity
  8
0
100
AcDbBlockEnd
  0
BLOCK
  5
2CAB
330
2CAA
100
AcDbEntity
  8
0
100
AcDbBlockBegin
  2
*D26
 70
     1
 10
0.0
 20
0.0
 30
0.0
  3
*D26
  1

  0
LINE
  5
142C
330
2CAA
100
AcDbEntity
  8
SIZE
 62
     0
100
AcDbLine
 10
-22318.61521613997
 20
7718.167454177002
 30
0.0
 11
-22318.61521613997
 21
7822.154659243358
 31
0.0
  0
LINE
  5
142D
330
2CAA
100
AcDbEntity
  8
SIZE
 62
     0
100
AcDbLine
 10
-22038.61521613997
 20
7718.167454177002
 30
0.0
 11
-22038.61521613997
 21
7822.154659243358
 31
0.0
  0
LINE
  5
142E
330
2CAA
100
AcDbEntity
  8
SIZE
 62
     0
100
AcDbLine
 10
-22306.61521613997
 20
7802.154659243358
 30
0.0
 11
-22050.61521613997
 21
7802.154659243358
 31
0.0
  0
INSERT
  5
142F
330
2CAA
100
AcDbEntity
  8
SIZE
 62
     0
100
AcDbBlockReference
  2
_DOTBLANK
 10
-22318.61521613997
 20
7802.154659243358
 30
0.0
 41
12.0
 42
12.0
 43
12.0
 50
180.0
  0
INSERT
  5
1430
330
2CAA
100
AcDbEntity
  8
SIZE
 62
     0
100
AcDbBlockReference
  2
_DOTBLANK
 10
-22038.61521613997
 20
7802.154659243358
 30
0.0
 41
12.0
 42
12.0
 43
12.0
  0
INSERT
  5
1431
330
2CAA
100
AcDbEntity
  8
0
100
AcDbBlockReference
  2
*U27
 10
0.0
 20
0.0
 30
0.0
  0
POINT
  5
1432
330
2CAA
100
AcDbEntity
  8
DEFPOINTS
 62
     0
100
AcDbPoint
 10
-22318.61521613997
 20
7698.167454177002
 30
0.0
  0
POINT
  5
1433
330
2CAA
100
AcDbEntity
  8
DEFPOINTS
 62
     0
100
AcDbPoint
 10
-22038.61521613997
 20
7698.167454177002
 30
0.0
  0
POINT
  5
1434
330
2CAA
100
AcDbEntity
  8
DEFPOINTS
 62
     0
100
AcDbPoint
 10
-22038.61521613997
 20
7802.154659243358
 30
0.0
  0
ENDBLK
  5
1435
330
2CAA
100
AcDbEntity
  8
0
100
AcDbBlockEnd
  0
BLOCK
  5
2CAD
330
2CAC
100
AcDbEntity
  8
0
100
AcDbBlockBegin
  2
*U27
 70
     1
 10
0.0
 20
0.0
 30
0.0
  3
*U27
  1

  0
TEXT
  5
1F01
330
2CAC
100
AcDbEntity
  8
SIZE
 62
     0
100
AcDbText
 10
-22252.6723589971
 20
7812.154659243358
 30
0.0
 40
64.0
  1
280
 41
0.9
100
AcDbText
  0
ENDBLK
  5
1F03
330
2CAC
100
AcDbEntity
  8
0
100
AcDbBlockEnd
  0
BLOCK
  5
2CAF
330
2CAE
100
AcDbEntity
  8
0
100
AcDbBlockBegin
  2
*D28
 70
     1
 10
0.0
 20
0.0
 30
0.0
  3
*D28
  1

  0
LINE
  5
1438
330
2CAE
100
AcDbEntity
  8
SIZE
 62
     0
100
AcDbLine
 10
-22336.11521613997
 20
7705.702971374808
 30
0.0
 11
-22336.11521613997
 21
7931.282433493766
 31
0.0
  0
LINE
  5
1439
330
2CAE
100
AcDbEntity
  8
SIZE
 62
     0
100
AcDbLine
 10
-22021.11521613997
 20
7705.702971374808
 30
0.0
 11
-22021.11521613997
 21
7931.282433493766
 31
0.0
  0
LINE
  5
143A
330
2CAE
100
AcDbEntity
  8
SIZE
 62
     0
100
AcDbLine
 10
-22324.11521613997
 20
7911.282433493766
 30
0.0
 11
-22033.11521613997
 21
7911.282433493766
 31
0.0
  0
INSERT
  5
143B
330
2CAE
100
AcDbEntity
  8
SIZE
 62
     0
100
AcDbBlockReference
  2
_DOTBLANK
 10
-22336.11521613997
 20
7911.282433493766
 30
0.0
 41
12.0
 42
12.0
 43
12.0
 50
180.0
  0
INSERT
  5
143C
330
2CAE
100
AcDbEntity
  8
SIZE
 62
     0
100
AcDbBlockReference
  2
_DOTBLANK
 10
-22021.11521613997
 20
7911.282433493766
 30
0.0
 41
12.0
 42
12.0
 43
12.0
  0
INSERT
  5
143D
330
2CAE
100
AcDbEntity
  8
0
100
AcDbBlockReference
  2
*U29
 10
0.0
 20
0.0
 30
0.0
  0
POINT
  5
143E
330
2CAE
100
AcDbEntity
  8
DEFPOINTS
 62
     0
100
AcDbPoint
 10
-22336.11521613997
 20
7685.702971374808
 30
0.0
  0
POINT
  5
143F
330
2CAE
100
AcDbEntity
  8
DEFPOINTS
 62
     0
100
AcDbPoint
 10
-22021.11521613997
 20
7685.702971374808
 30
0.0
  0
POINT
  5
1440
330
2CAE
100
AcDbEntity
  8
DEFPOINTS
 62
     0
100
AcDbPoint
 10
-22021.11521613997
 20
7911.282433493766
 30
0.0
  0
ENDBLK
  5
1441
330
2CAE
100
AcDbEntity
  8
0
100
AcDbBlockEnd
  0
BLOCK
  5
2CB1
330
2CB0
100
AcDbEntity
  8
0
100
AcDbBlockBegin
  2
*U29
 70
     1
 10
0.0
 20
0.0
 30
0.0
  3
*U29
  1

  0
TEXT
  5
1F05
330
2CB0
100
AcDbEntity
  8
SIZE
 62
     0
100
AcDbText
 10
-22247.18664471139
 20
7921.282433493766
 30
0.0
 40
64.0
  1
315
 41
0.9
100
AcDbText
  0
ENDBLK
  5
1F07
330
2CB0
100
AcDbEntity
  8
0
100
AcDbBlockEnd
  0
BLOCK
  5
2CB3
330
2CB2
100
AcDbEntity
  8
0
100
AcDbBlockBegin
  2
*D30
 70
     1
 10
0.0
 20
0.0
 30
0.0
  3
*D30
  1

  0
LINE
  5
166B
330
2CB2
100
AcDbEntity
  8
SIZE
 62
     0
100
AcDbLine
 10
-134.5
 20
-320.0
 30
0.0
 11
-134.5
 21
-468.0173952306001
 31
0.0
  0
LINE
  5
166C
330
2CB2
100
AcDbEntity
  8
SIZE
 62
     0
100
AcDbLine
 10
134.5
 20
-320.0
 30
0.0
 11
134.5
 21
-468.0173952306001
 31
0.0
  0
LINE
  5
166D
330
2CB2
100
AcDbEntity
  8
SIZE
 62
     0
100
AcDbLine
 10
-122.5
 20
-448.0173952306
 30
0.0
 11
122.5
 21
-448.0173952306
 31
0.0
  0
INSERT
  5
166E
330
2CB2
100
AcDbEntity
  8
SIZE
 62
     0
100
AcDbBlockReference
  2
_DOTBLANK
 10
-134.5
 20
-448.0173952306
 30
0.0
 41
12.0
 42
12.0
 43
12.0
 50
180.0
  0
INSERT
  5
166F
330
2CB2
100
AcDbEntity
  8
SIZE
 62
     0
100
AcDbBlockReference
  2
_DOTBLANK
 10
134.5
 20
-448.0173952306
 30
0.0
 41
12.0
 42
12.0
 43
12.0
  0
INSERT
  5
1670
330
2CB2
100
AcDbEntity
  8
0
100
AcDbBlockReference
  2
*U31
 10
0.0
 20
0.0
 30
0.0
  0
POINT
  5
1671
330
2CB2
100
AcDbEntity
  8
DEFPOINTS
 62
     0
100
AcDbPoint
 10
-134.5
 20
-300.0
 30
0.0
  0
POINT
  5
1672
330
2CB2
100
AcDbEntity
  8
DEFPOINTS
 62
     0
100
AcDbPoint
 10
134.5
 20
-300.0
 30
0.0
  0
POINT
  5
1673
330
2CB2
100
AcDbEntity
  8
DEFPOINTS
 62
     0
100
AcDbPoint
 10
134.5
 20
-448.0173952306
 30
0.0
  0
ENDBLK
  5
14A7
330
2CB2
100
AcDbEntity
  8
0
100
AcDbBlockEnd
  0
BLOCK
  5
2CB5
330
2CB4
100
AcDbEntity
  8
0
100
AcDbBlockBegin
  2
*U31
 70
     1
 10
0.0
 20
0.0
 30
0.0
  3
*U31
  1

  0
TEXT
  5
1F09
330
2CB4
100
AcDbEntity
  8
SIZE
 62
     0
100
AcDbText
 10
-72.68571428571426
 20
-438.0173952306002
 30
0.0
 40
64.0
  1
269
 41
0.9
100
AcDbText
  0
ENDBLK
  5
1F0B
330
2CB4
100
AcDbEntity
  8
0
100
AcDbBlockEnd
  0
BLOCK
  5
2CB7
330
2CB6
100
AcDbEntity
  8
0
100
AcDbBlockBegin
  2
*D32
 70
     1
 10
0.0
 20
0.0
 30
0.0
  3
*D32
  1

  0
LINE
  5
1674
330
2CB6
100
AcDbEntity
  8
SIZE
  6
Continuous
 62
     0
100
AcDbLine
 10
143.5
 20
-300.0
 30
0.0
 11
304.6432844803784
 21
-300.0
 31
0.0
  0
LINE
  5
1675
330
2CB6
100
AcDbEntity
  8
SIZE
  6
Continuous
 62
     0
100
AcDbLine
 10
177.5
 20
-0.0000000000000057
 30
0.0
 11
304.6432844803785
 21
-0.0000000000000417
 31
0.0
  0
LINE
  5
1676
330
2CB6
100
AcDbEntity
  8
SIZE
  6
Continuous
 62
     0
100
AcDbLine
 10
284.6432844803784
 20
-288.0000000000001
 30
0.0
 11
284.6432844803785
 21
-12.00000000000003
 31
0.0
  0
INSERT
  5
1677
330
2CB6
100
AcDbEntity
  8
SIZE
  6
Continuous
 62
     0
100
AcDbBlockReference
  2
_DOTBLANK
 10
284.6432844803784
 20
-300.0
 30
0.0
 41
12.0
 42
12.0
 43
12.0
 50
270.0
  0
INSERT
  5
1678
330
2CB6
100
AcDbEntity
  8
SIZE
  6
Continuous
 62
     0
100
AcDbBlockReference
  2
_DOTBLANK
 10
284.6432844803785
 20
-0.000000000000036
 30
0.0
 41
12.0
 42
12.0
 43
12.0
 50
90.0
  0
INSERT
  5
1679
330
2CB6
100
AcDbEntity
  8
0
100
AcDbBlockReference
  2
*U33
 10
0.0
 20
0.0
 30
0.0
  0
POINT
  5
167A
330
2CB6
100
AcDbEntity
  8
DEFPOINTS
  6
Continuous
 62
     0
100
AcDbPoint
 10
123.5
 20
-300.0
 30
0.0
  0
POINT
  5
167B
330
2CB6
100
AcDbEntity
  8
DEFPOINTS
  6
Continuous
 62
     0
100
AcDbPoint
 10
157.5
 20
0.0
 30
0.0
  0
POINT
  5
167C
330
2CB6
100
AcDbEntity
  8
DEFPOINTS
  6
Continuous
 62
     0
100
AcDbPoint
 10
284.6432844803785
 20
-0.000000000000036
 30
0.0
  0
ENDBLK
  5
14B3
330
2CB6
100
AcDbEntity
  8
0
100
AcDbBlockEnd
  0
BLOCK
  5
2CB9
330
2CB8
100
AcDbEntity
  8
0
100
AcDbBlockBegin
  2
*U33
 70
     1
 10
0.0
 20
0.0
 30
0.0
  3
*U33
  1

  0
TEXT
  5
1F0D
330
2CB8
100
AcDbEntity
  8
SIZE
 62
     0
100
AcDbText
 10
274.6432844803785
 20
-224.0571428571429
 30
0.0
 40
64.0
  1
300
 50
90.0
 41
0.9
100
AcDbText
  0
ENDBLK
  5
1F0F
330
2CB8
100
AcDbEntity
  8
0
100
AcDbBlockEnd
  0
BLOCK
  5
2CBB
330
2CBA
100
AcDbEntity
  8
0
100
AcDbBlockBegin
  2
*D34
 70
     1
 10
0.0
 20
0.0
 30
0.0
  3
*D34
  1

  0
LINE
  5
167D
330
2CBA
100
AcDbEntity
  8
SIZE
 62
     0
100
AcDbLine
 10
-140.0
 20
32.46448280219375
 30
0.0
 11
-140.0
 21
136.4516878685507
 31
0.0
  0
LINE
  5
167E
330
2CBA
100
AcDbEntity
  8
SIZE
 62
     0
100
AcDbLine
 10
140.0
 20
32.46448280219375
 30
0.0
 11
140.0
 21
136.4516878685507
 31
0.0
  0
LINE
  5
167F
330
2CBA
100
AcDbEntity
  8
SIZE
 62
     0
100
AcDbLine
 10
-128.0
 20
116.4516878685508
 30
0.0
 11
128.0
 21
116.4516878685508
 31
0.0
  0
INSERT
  5
1680
330
2CBA
100
AcDbEntity
  8
SIZE
 62
     0
100
AcDbBlockReference
  2
_DOTBLANK
 10
-140.0
 20
116.4516878685508
 30
0.0
 41
12.0
 42
12.0
 43
12.0
 50
180.0
  0
INSERT
  5
1681
330
2CBA
100
AcDbEntity
  8
SIZE
 62
     0
100
AcDbBlockReference
  2
_DOTBLANK
 10
140.0
 20
116.4516878685508
 30
0.0
 41
12.0
 42
12.0
 43
12.0
  0
INSERT
  5
1682
330
2CBA
100
AcDbEntity
  8
0
100
AcDbBlockReference
  2
*U35
 10
0.0
 20
0.0
 30
0.0
  0
POINT
  5
1683
330
2CBA
100
AcDbEntity
  8
DEFPOINTS
 62
     0
100
AcDbPoint
 10
-140.0
 20
12.46448280219374
 30
0.0
  0
POINT
  5
1684
330
2CBA
100
AcDbEntity
  8
DEFPOINTS
 62
     0
100
AcDbPoint
 10
140.0
 20
12.46448280219374
 30
0.0
  0
POINT
  5
1685
330
2CBA
100
AcDbEntity
  8
DEFPOINTS
 62
     0
100
AcDbPoint
 10
140.0
 20
116.4516878685508
 30
0.0
  0
ENDBLK
  5
14BF
330
2CBA
100
AcDbEntity
  8
0
100
AcDbBlockEnd
  0
BLOCK
  5
2CBD
330
2CBC
100
AcDbEntity
  8
0
100
AcDbBlockBegin
  2
*U35
 70
     1
 10
0.0
 20
0.0
 30
0.0
  3
*U35
  1

  0
TEXT
  5
1F11
330
2CBC
100
AcDbEntity
  8
SIZE
 62
     0
100
AcDbText
 10
-74.05714285714283
 20
126.4516878685507
 30
0.0
 40
64.0
  1
280
 41
0.9
100
AcDbText
  0
ENDBLK
  5
1F13
330
2CBC
100
AcDbEntity
  8
0
100
AcDbBlockEnd
  0
BLOCK
  5
2CBF
330
2CBE
100
AcDbEntity
  8
0
100
AcDbBlockBegin
  2
*D36
 70
     1
 10
0.0
 20
0.0
 30
0.0
  3
*D36
  1

  0
LINE
  5
1686
330
2CBE
100
AcDbEntity
  8
SIZE
 62
     0
100
AcDbLine
 10
-157.5
 20
20.0
 30
0.0
 11
-157.5
 21
245.5794621189598
 31
0.0
  0
LINE
  5
1687
330
2CBE
100
AcDbEntity
  8
SIZE
 62
     0
100
AcDbLine
 10
157.5
 20
20.0
 30
0.0
 11
157.5
 21
245.5794621189598
 31
0.0
  0
LINE
  5
1688
330
2CBE
100
AcDbEntity
  8
SIZE
 62
     0
100
AcDbLine
 10
-145.5
 20
225.5794621189598
 30
0.0
 11
145.5
 21
225.5794621189598
 31
0.0
  0
INSERT
  5
1689
330
2CBE
100
AcDbEntity
  8
SIZE
 62
     0
100
AcDbBlockReference
  2
_DOTBLANK
 10
-157.5
 20
225.5794621189598
 30
0.0
 41
12.0
 42
12.0
 43
12.0
 50
180.0
  0
INSERT
  5
168A
330
2CBE
100
AcDbEntity
  8
SIZE
 62
     0
100
AcDbBlockReference
  2
_DOTBLANK
 10
157.5
 20
225.5794621189598
 30
0.0
 41
12.0
 42
12.0
 43
12.0
  0
INSERT
  5
168B
330
2CBE
100
AcDbEntity
  8
0
100
AcDbBlockReference
  2
*U37
 10
0.0
 20
0.0
 30
0.0
  0
POINT
  5
168C
330
2CBE
100
AcDbEntity
  8
DEFPOINTS
 62
     0
100
AcDbPoint
 10
-157.5
 20
0.0
 30
0.0
  0
POINT
  5
168D
330
2CBE
100
AcDbEntity
  8
DEFPOINTS
 62
     0
100
AcDbPoint
 10
157.5
 20
0.0
 30
0.0
  0
POINT
  5
168E
330
2CBE
100
AcDbEntity
  8
DEFPOINTS
 62
     0
100
AcDbPoint
 10
157.5
 20
225.5794621189598
 30
0.0
  0
ENDBLK
  5
14CB
330
2CBE
100
AcDbEntity
  8
0
100
AcDbBlockEnd
  0
BLOCK
  5
2CC1
330
2CC0
100
AcDbEntity
  8
0
100
AcDbBlockBegin
  2
*U37
 70
     1
 10
0.0
 20
0.0
 30
0.0
  3
*U37
  1

  0
TEXT
  5
1F15
330
2CC0
100
AcDbEntity
  8
SIZE
 62
     0
100
AcDbText
 10
-68.57142857142857
 20
235.5794621189598
 30
0.0
 40
64.0
  1
315
 41
0.9
100
AcDbText
  0
ENDBLK
  5
1F17
330
2CC0
100
AcDbEntity
  8
0
100
AcDbBlockEnd
  0
BLOCK
  5
2CC3
330
2CC2
100
AcDbEntity
  8
0
100
AcDbBlockBegin
  2
*U38
 70
     1
 10
0.0
 20
0.0
 30
0.0
  3
*U38
  1

  0
ENDBLK
  5
15CF
330
2CC2
100
AcDbEntity
  8
0
100
AcDbBlockEnd
  0
BLOCK
  5
2CC5
330
2CC4
100
AcDbEntity
  8
0
100
AcDbBlockBegin
  2
*D39
 70
     1
 10
0.0
 20
0.0
 30
0.0
  3
*D39
  1

  0
LINE
  5
1692
330
2CC4
100
AcDbEntity
  8
SIZE
 62
     0
100
AcDbLine
 10
-25844.51823276502
 20
7685.702971374808
 30
0.0
 11
-25981.04465488371
 21
7685.702971374808
 31
0.0
  0
LINE
  5
1693
330
2CC4
100
AcDbEntity
  8
SIZE
 62
     0
100
AcDbLine
 10
-25844.51823276502
 20
7677.702971374808
 30
0.0
 11
-25981.04465488371
 21
7677.702971374808
 31
0.0
  0
LINE
  5
1694
330
2CC4
100
AcDbEntity
  8
SIZE
 62
     0
100
AcDbLine
 10
-25961.04465488371
 20
7697.702971374808
 30
0.0
 11
-25961.04465488371
 21
7709.702971374809
 31
0.0
  0
LINE
  5
1695
330
2CC4
100
AcDbEntity
  8
SIZE
 62
     0
100
AcDbLine
 10
-25961.04465488371
 20
7665.70297137481
 30
0.0
 11
-25961.04465488371
 21
7595.302971374808
 31
0.0
  0
INSERT
  5
1696
330
2CC4
100
AcDbEntity
  8
SIZE
 62
     0
100
AcDbBlockReference
  2
_DOTBLANK
 10
-25961.04465488371
 20
7685.702971374808
 30
0.0
 41
12.0
 42
12.0
 43
12.0
 50
270.0
  0
INSERT
  5
1697
330
2CC4
100
AcDbEntity
  8
SIZE
 62
     0
100
AcDbBlockReference
  2
_DOTBLANK
 10
-25961.04465488371
 20
7677.702971374808
 30
0.0
 41
12.0
 42
12.0
 43
12.0
 50
90.0
  0
INSERT
  5
1698
330
2CC4
100
AcDbEntity
  8
0
100
AcDbBlockReference
  2
*U40
 10
0.0
 20
0.0
 30
0.0
  0
POINT
  5
1699
330
2CC4
100
AcDbEntity
  8
DEFPOINTS
 62
     0
100
AcDbPoint
 10
-25824.51823276501
 20
7685.702971374808
 30
0.0
  0
POINT
  5
169A
330
2CC4
100
AcDbEntity
  8
DEFPOINTS
 62
     0
100
AcDbPoint
 10
-25824.51823276501
 20
7677.702971374808
 30
0.0
  0
POINT
  5
169B
330
2CC4
100
AcDbEntity
  8
DEFPOINTS
 62
     0
100
AcDbPoint
 10
-25961.04465488371
 20
7677.702971374808
 30
0.0
  0
ENDBLK
  5
169C
330
2CC4
100
AcDbEntity
  8
0
100
AcDbBlockEnd
  0
BLOCK
  5
2CC7
330
2CC6
100
AcDbEntity
  8
0
100
AcDbBlockBegin
  2
*U40
 70
     1
 10
0.0
 20
0.0
 30
0.0
  3
*U40
  1

  0
TEXT
  5
1F19
330
2CC6
100
AcDbEntity
  8
SIZE
 62
     0
100
AcDbText
 10
-25971.04465488371
 20
7605.302971374804
 30
0.0
 40
64.0
  1
8
 50
90.0
 41
0.9
100
AcDbText
  0
ENDBLK
  5
1F1B
330
2CC6
100
AcDbEntity
  8
0
100
AcDbBlockEnd
  0
BLOCK
  5
2CC9
330
2CC8
100
AcDbEntity
  8
0
100
AcDbBlockBegin
  2
*D41
 70
     1
 10
0.0
 20
0.0
 30
0.0
  3
*D41
  1

  0
LINE
  5
169F
330
2CC8
100
AcDbEntity
  8
SIZE
 62
     0
100
AcDbLine
 10
-25512.51823276502
 20
7385.702971374808
 30
0.0
 11
-25362.37494828464
 21
7385.702971374808
 31
0.0
  0
LINE
  5
16A0
330
2CC8
100
AcDbEntity
  8
SIZE
 62
     0
100
AcDbLine
 10
-25523.51823276501
 20
7373.702971374808
 30
0.0
 11
-25362.37494828464
 21
7373.702971374808
 31
0.0
  0
LINE
  5
16A1
330
2CC8
100
AcDbEntity
  8
SIZE
 62
     0
100
AcDbLine
 10
-25382.37494828464
 20
7397.702971374808
 30
0.0
 11
-25382.37494828464
 21
7409.70297137481
 31
0.0
  0
LINE
  5
16A2
330
2CC8
100
AcDbEntity
  8
SIZE
 62
     0
100
AcDbLine
 10
-25382.37494828464
 20
7361.702971374808
 30
0.0
 11
-25382.37494828464
 21
7244.674399946237
 31
0.0
  0
INSERT
  5
16A3
330
2CC8
100
AcDbEntity
  8
SIZE
 62
     0
100
AcDbBlockReference
  2
_DOTBLANK
 10
-25382.37494828464
 20
7385.702971374808
 30
0.0
 41
12.0
 42
12.0
 43
12.0
 50
270.0
  0
INSERT
  5
16A4
330
2CC8
100
AcDbEntity
  8
SIZE
 62
     0
100
AcDbBlockReference
  2
_DOTBLANK
 10
-25382.37494828464
 20
7373.702971374808
 30
0.0
 41
12.0
 42
12.0
 43
12.0
 50
90.0
  0
INSERT
  5
16A5
330
2CC8
100
AcDbEntity
  8
0
100
AcDbBlockReference
  2
*U42
 10
0.0
 20
0.0
 30
0.0
  0
POINT
  5
16A6
330
2CC8
100
AcDbEntity
  8
DEFPOINTS
 62
     0
100
AcDbPoint
 10
-25532.51823276502
 20
7385.702971374808
 30
0.0
  0
POINT
  5
16A7
330
2CC8
100
AcDbEntity
  8
DEFPOINTS
 62
     0
100
AcDbPoint
 10
-25543.51823276502
 20
7373.702971374808
 30
0.0
  0
POINT
  5
16A8
330
2CC8
100
AcDbEntity
  8
DEFPOINTS
 62
     0
100
AcDbPoint
 10
-25382.37494828464
 20
7373.702971374808
 30
0.0
  0
ENDBLK
  5
16A9
330
2CC8
100
AcDbEntity
  8
0
100
AcDbBlockEnd
  0
BLOCK
  5
2CCB
330
2CCA
100
AcDbEntity
  8
0
100
AcDbBlockBegin
  2
*U42
 70
     1
 10
0.0
 20
0.0
 30
0.0
  3
*U42
  1

  0
TEXT
  5
1F1D
330
2CCA
100
AcDbEntity
  8
SIZE
 62
     0
100
AcDbText
 10
-25392.37494828464
 20
7256.045828517662
 30
0.0
 40
64.0
  1
12
 50
90.0
 41
0.9
100
AcDbText
  0
ENDBLK
  5
1F1F
330
2CCA
100
AcDbEntity
  8
0
100
AcDbBlockEnd
  0
BLOCK
  5
2CCD
330
2CCC
100
AcDbEntity
  8
0
100
AcDbBlockBegin
  2
*D43
 70
     1
 10
0.0
 20
0.0
 30
0.0
  3
*D43
  1

  0
LINE
  5
16AC
330
2CCC
100
AcDbEntity
  8
SIZE
 62
     0
100
AcDbLine
 10
-25801.51823276501
 20
7365.702971374808
 30
0.0
 11
-25801.51823276501
 21
7217.685576144207
 31
0.0
  0
LINE
  5
16AD
330
2CCC
100
AcDbEntity
  8
SIZE
 62
     0
100
AcDbLine
 10
-25532.51823276502
 20
7365.702971374808
 30
0.0
 11
-25532.51823276502
 21
7217.685576144207
 31
0.0
  0
LINE
  5
16AE
330
2CCC
100
AcDbEntity
  8
SIZE
 62
     0
100
AcDbLine
 10
-25789.51823276502
 20
7237.685576144207
 30
0.0
 11
-25544.51823276501
 21
7237.685576144207
 31
0.0
  0
INSERT
  5
16AF
330
2CCC
100
AcDbEntity
  8
SIZE
 62
     0
100
AcDbBlockReference
  2
_DOTBLANK
 10
-25801.51823276501
 20
7237.685576144207
 30
0.0
 41
12.0
 42
12.0
 43
12.0
 50
180.0
  0
INSERT
  5
16B0
330
2CCC
100
AcDbEntity
  8
SIZE
 62
     0
100
AcDbBlockReference
  2
_DOTBLANK
 10
-25532.51823276502
 20
7237.685576144207
 30
0.0
 41
12.0
 42
12.0
 43
12.0
  0
INSERT
  5
16B1
330
2CCC
100
AcDbEntity
  8
0
100
AcDbBlockReference
  2
*U44
 10
0.0
 20
0.0
 30
0.0
  0
POINT
  5
16B2
330
2CCC
100
AcDbEntity
  8
DEFPOINTS
 62
     0
100
AcDbPoint
 10
-25801.51823276501
 20
7385.702971374808
 30
0.0
  0
POINT
  5
16B3
330
2CCC
100
AcDbEntity
  8
DEFPOINTS
 62
     0
100
AcDbPoint
 10
-25532.51823276502
 20
7385.702971374808
 30
0.0
  0
POINT
  5
16B4
330
2CCC
100
AcDbEntity
  8
DEFPOINTS
 62
     0
100
AcDbPoint
 10
-25532.51823276502
 20
7237.685576144207
 30
0.0
  0
ENDBLK
  5
16B5
330
2CCC
100
AcDbEntity
  8
0
100
AcDbBlockEnd
  0
BLOCK
  5
2CCF
330
2CCE
100
AcDbEntity
  8
0
100
AcDbBlockBegin
  2
*U44
 70
     1
 10
0.0
 20
0.0
 30
0.0
  3
*U44
  1

  0
TEXT
  5
1F21
330
2CCE
100
AcDbEntity
  8
SIZE
 62
     0
100
AcDbText
 10
-25739.70394705074
 20
7247.685576144205
 30
0.0
 40
64.0
  1
269
 41
0.9
100
AcDbText
  0
ENDBLK
  5
1F23
330
2CCE
100
AcDbEntity
  8
0
100
AcDbBlockEnd
  0
BLOCK
  5
2CD1
330
2CD0
100
AcDbEntity
  8
0
100
AcDbBlockBegin
  2
*D45
 70
     1
 10
0.0
 20
0.0
 30
0.0
  3
*D45
  1

  0
LINE
  5
16B8
330
2CD0
100
AcDbEntity
  8
SIZE
 62
     0
100
AcDbLine
 10
-25512.51823276502
 20
7385.702971374808
 30
0.0
 11
-25362.37494828464
 21
7385.702971374808
 31
0.0
  0
LINE
  5
16B9
330
2CD0
100
AcDbEntity
  8
SIZE
 62
     0
100
AcDbLine
 10
-25489.51823276501
 20
7685.702971374808
 30
0.0
 11
-25362.37494828464
 21
7685.702971374808
 31
0.0
  0
LINE
  5
16BA
330
2CD0
100
AcDbEntity
  8
SIZE
 62
     0
100
AcDbLine
 10
-25382.37494828464
 20
7397.702971374808
 30
0.0
 11
-25382.37494828464
 21
7673.702971374808
 31
0.0
  0
INSERT
  5
16BB
330
2CD0
100
AcDbEntity
  8
SIZE
 62
     0
100
AcDbBlockReference
  2
_DOTBLANK
 10
-25382.37494828464
 20
7385.702971374808
 30
0.0
 41
12.0
 42
12.0
 43
12.0
 50
270.0
  0
INSERT
  5
16BC
330
2CD0
100
AcDbEntity
  8
SIZE
 62
     0
100
AcDbBlockReference
  2
_DOTBLANK
 10
-25382.37494828464
 20
7685.702971374808
 30
0.0
 41
12.0
 42
12.0
 43
12.0
 50
90.0
  0
INSERT
  5
16BD
330
2CD0
100
AcDbEntity
  8
0
100
AcDbBlockReference
  2
*U46
 10
0.0
 20
0.0
 30
0.0
  0
POINT
  5
16BE
330
2CD0
100
AcDbEntity
  8
DEFPOINTS
 62
     0
100
AcDbPoint
 10
-25532.51823276502
 20
7385.702971374808
 30
0.0
  0
POINT
  5
16BF
330
2CD0
100
AcDbEntity
  8
DEFPOINTS
 62
     0
100
AcDbPoint
 10
-25509.51823276502
 20
7685.702971374808
 30
0.0
  0
POINT
  5
16C0
330
2CD0
100
AcDbEntity
  8
DEFPOINTS
 62
     0
100
AcDbPoint
 10
-25382.37494828464
 20
7685.702971374808
 30
0.0
  0
ENDBLK
  5
16C1
330
2CD0
100
AcDbEntity
  8
0
100
AcDbBlockEnd
  0
BLOCK
  5
2CD3
330
2CD2
100
AcDbEntity
  8
0
100
AcDbBlockBegin
  2
*U46
 70
     1
 10
0.0
 20
0.0
 30
0.0
  3
*U46
  1

  0
TEXT
  5
1F25
330
2CD2
100
AcDbEntity
  8
SIZE
 62
     0
100
AcDbText
 10
-25392.37494828464
 20
7461.645828517662
 30
0.0
 40
64.0
  1
300
 50
90.0
 41
0.9
100
AcDbText
  0
ENDBLK
  5
1F27
330
2CD2
100
AcDbEntity
  8
0
100
AcDbBlockEnd
  0
BLOCK
  5
2CD5
330
2CD4
100
AcDbEntity
  8
0
100
AcDbBlockBegin
  2
*D47
 70
     1
 10
0.0
 20
0.0
 30
0.0
  3
*D47
  1

  0
LINE
  5
16C4
330
2CD4
100
AcDbEntity
  8
SIZE
 62
     0
100
AcDbLine
 10
-25807.01823276501
 20
7718.167454177002
 30
0.0
 11
-25807.01823276501
 21
7822.154659243358
 31
0.0
  0
LINE
  5
16C5
330
2CD4
100
AcDbEntity
  8
SIZE
 62
     0
100
AcDbLine
 10
-25527.01823276501
 20
7718.167454177002
 30
0.0
 11
-25527.01823276501
 21
7822.154659243358
 31
0.0
  0
LINE
  5
16C6
330
2CD4
100
AcDbEntity
  8
SIZE
 62
     0
100
AcDbLine
 10
-25795.01823276502
 20
7802.154659243358
 30
0.0
 11
-25539.01823276501
 21
7802.154659243358
 31
0.0
  0
INSERT
  5
16C7
330
2CD4
100
AcDbEntity
  8
SIZE
 62
     0
100
AcDbBlockReference
  2
_DOTBLANK
 10
-25807.01823276501
 20
7802.154659243358
 30
0.0
 41
12.0
 42
12.0
 43
12.0
 50
180.0
  0
INSERT
  5
16C8
330
2CD4
100
AcDbEntity
  8
SIZE
 62
     0
100
AcDbBlockReference
  2
_DOTBLANK
 10
-25527.01823276501
 20
7802.154659243358
 30
0.0
 41
12.0
 42
12.0
 43
12.0
  0
INSERT
  5
16C9
330
2CD4
100
AcDbEntity
  8
0
100
AcDbBlockReference
  2
*U48
 10
0.0
 20
0.0
 30
0.0
  0
POINT
  5
16CA
330
2CD4
100
AcDbEntity
  8
DEFPOINTS
 62
     0
100
AcDbPoint
 10
-25807.01823276501
 20
7698.167454177002
 30
0.0
  0
POINT
  5
16CB
330
2CD4
100
AcDbEntity
  8
DEFPOINTS
 62
     0
100
AcDbPoint
 10
-25527.01823276501
 20
7698.167454177002
 30
0.0
  0
POINT
  5
16CC
330
2CD4
100
AcDbEntity
  8
DEFPOINTS
 62
     0
100
AcDbPoint
 10
-25527.01823276501
 20
7802.154659243358
 30
0.0
  0
ENDBLK
  5
16CD
330
2CD4
100
AcDbEntity
  8
0
100
AcDbBlockEnd
  0
BLOCK
  5
2CD7
330
2CD6
100
AcDbEntity
  8
0
100
AcDbBlockBegin
  2
*U48
 70
     1
 10
0.0
 20
0.0
 30
0.0
  3
*U48
  1

  0
TEXT
  5
1F29
330
2CD6
100
AcDbEntity
  8
SIZE
 62
     0
100
AcDbText
 10
-25741.07537562216
 20
7812.154659243358
 30
0.0
 40
64.0
  1
280
 41
0.9
100
AcDbText
  0
ENDBLK
  5
1F2B
330
2CD6
100
AcDbEntity
  8
0
100
AcDbBlockEnd
  0
BLOCK
  5
2CD9
330
2CD8
100
AcDbEntity
  8
0
100
AcDbBlockBegin
  2
*D49
 70
     1
 10
0.0
 20
0.0
 30
0.0
  3
*D49
  1

  0
LINE
  5
16D0
330
2CD8
100
AcDbEntity
  8
SIZE
 62
     0
100
AcDbLine
 10
-25824.51823276501
 20
7705.702971374808
 30
0.0
 11
-25824.51823276501
 21
7931.282433493766
 31
0.0
  0
LINE
  5
16D1
330
2CD8
100
AcDbEntity
  8
SIZE
 62
     0
100
AcDbLine
 10
-25509.51823276502
 20
7705.702971374808
 30
0.0
 11
-25509.51823276502
 21
7931.282433493766
 31
0.0
  0
LINE
  5
16D2
330
2CD8
100
AcDbEntity
  8
SIZE
 62
     0
100
AcDbLine
 10
-25812.51823276502
 20
7911.282433493766
 30
0.0
 11
-25521.51823276501
 21
7911.282433493766
 31
0.0
  0
INSERT
  5
16D3
330
2CD8
100
AcDbEntity
  8
SIZE
 62
     0
100
AcDbBlockReference
  2
_DOTBLANK
 10
-25824.51823276501
 20
7911.282433493766
 30
0.0
 41
12.0
 42
12.0
 43
12.0
 50
180.0
  0
INSERT
  5
16D4
330
2CD8
100
AcDbEntity
  8
SIZE
 62
     0
100
AcDbBlockReference
  2
_DOTBLANK
 10
-25509.51823276502
 20
7911.282433493766
 30
0.0
 41
12.0
 42
12.0
 43
12.0
  0
INSERT
  5
16D5
330
2CD8
100
AcDbEntity
  8
0
100
AcDbBlockReference
  2
*U50
 10
0.0
 20
0.0
 30
0.0
  0
POINT
  5
16D6
330
2CD8
100
AcDbEntity
  8
DEFPOINTS
 62
     0
100
AcDbPoint
 10
-25824.51823276501
 20
7685.702971374808
 30
0.0
  0
POINT
  5
16D7
330
2CD8
100
AcDbEntity
  8
DEFPOINTS
 62
     0
100
AcDbPoint
 10
-25509.51823276502
 20
7685.702971374808
 30
0.0
  0
POINT
  5
16D8
330
2CD8
100
AcDbEntity
  8
DEFPOINTS
 62
     0
100
AcDbPoint
 10
-25509.51823276502
 20
7911.282433493766
 30
0.0
  0
ENDBLK
  5
16D9
330
2CD8
100
AcDbEntity
  8
0
100
AcDbBlockEnd
  0
BLOCK
  5
2CDB
330
2CDA
100
AcDbEntity
  8
0
100
AcDbBlockBegin
  2
*U50
 70
     1
 10
0.0
 20
0.0
 30
0.0
  3
*U50
  1

  0
TEXT
  5
1F2D
330
2CDA
100
AcDbEntity
  8
SIZE
 62
     0
100
AcDbText
 10
-25735.58966133645
 20
7921.282433493766
 30
0.0
 40
64.0
  1
315
 41
0.9
100
AcDbText
  0
ENDBLK
  5
1F2F
330
2CDA
100
AcDbEntity
  8
0
100
AcDbBlockEnd
  0
BLOCK
  5
2CDD
330
2CDC
100
AcDbEntity
  8
0
100
AcDbBlockBegin
  2
*D51
 70
     1
 10
0.0
 20
0.0
 30
0.0
  3
*D51
  1

  0
LINE
  5
1D83
330
2CDC
100
AcDbEntity
  8
SIZE
 62
     0
100
AcDbLine
 10
-134.5
 20
-320.0
 30
0.0
 11
-134.5
 21
-468.0173952306001
 31
0.0
  0
LINE
  5
1D84
330
2CDC
100
AcDbEntity
  8
SIZE
 62
     0
100
AcDbLine
 10
134.5
 20
-320.0
 30
0.0
 11
134.5
 21
-468.0173952306001
 31
0.0
  0
LINE
  5
1D85
330
2CDC
100
AcDbEntity
  8
SIZE
 62
     0
100
AcDbLine
 10
-122.5
 20
-448.0173952306
 30
0.0
 11
122.5
 21
-448.0173952306
 31
0.0
  0
INSERT
  5
1D86
330
2CDC
100
AcDbEntity
  8
SIZE
 62
     0
100
AcDbBlockReference
  2
_DOTBLANK
 10
-134.5
 20
-448.0173952306
 30
0.0
 41
12.0
 42
12.0
 43
12.0
 50
180.0
  0
INSERT
  5
1D87
330
2CDC
100
AcDbEntity
  8
SIZE
 62
     0
100
AcDbBlockReference
  2
_DOTBLANK
 10
134.5
 20
-448.0173952306
 30
0.0
 41
12.0
 42
12.0
 43
12.0
  0
INSERT
  5
1D88
330
2CDC
100
AcDbEntity
  8
0
100
AcDbBlockReference
  2
*U52
 10
0.0
 20
0.0
 30
0.0
  0
POINT
  5
1D89
330
2CDC
100
AcDbEntity
  8
DEFPOINTS
 62
     0
100
AcDbPoint
 10
-134.5
 20
-300.0
 30
0.0
  0
POINT
  5
1D8A
330
2CDC
100
AcDbEntity
  8
DEFPOINTS
 62
     0
100
AcDbPoint
 10
134.5
 20
-300.0
 30
0.0
  0
POINT
  5
1D8B
330
2CDC
100
AcDbEntity
  8
DEFPOINTS
 62
     0
100
AcDbPoint
 10
134.5
 20
-448.0173952306
 30
0.0
  0
ENDBLK
  5
173D
330
2CDC
100
AcDbEntity
  8
0
100
AcDbBlockEnd
  0
BLOCK
  5
2CDF
330
2CDE
100
AcDbEntity
  8
0
100
AcDbBlockBegin
  2
*U52
 70
     1
 10
0.0
 20
0.0
 30
0.0
  3
*U52
  1

  0
TEXT
  5
1F31
330
2CDE
100
AcDbEntity
  8
SIZE
 62
     0
100
AcDbText
 10
-72.68571428571426
 20
-438.0173952306003
 30
0.0
 40
64.0
  1
269
 41
0.9
100
AcDbText
  0
ENDBLK
  5
1F33
330
2CDE
100
AcDbEntity
  8
0
100
AcDbBlockEnd
  0
BLOCK
  5
2CE1
330
2CE0
100
AcDbEntity
  8
0
100
AcDbBlockBegin
  2
*D53
 70
     1
 10
0.0
 20
0.0
 30
0.0
  3
*D53
  1

  0
LINE
  5
1D8C
330
2CE0
100
AcDbEntity
  8
SIZE
 62
     0
100
AcDbLine
 10
154.5
 20
-300.0
 30
0.0
 11
304.6432844803784
 21
-300.0
 31
0.0
  0
LINE
  5
1D8D
330
2CE0
100
AcDbEntity
  8
SIZE
 62
     0
100
AcDbLine
 10
177.5
 20
-0.0000000000000057
 30
0.0
 11
304.6432844803785
 21
-0.0000000000000417
 31
0.0
  0
LINE
  5
1D8E
330
2CE0
100
AcDbEntity
  8
SIZE
 62
     0
100
AcDbLine
 10
284.6432844803784
 20
-288.0
 30
0.0
 11
284.6432844803785
 21
-12.00000000000003
 31
0.0
  0
INSERT
  5
1D8F
330
2CE0
100
AcDbEntity
  8
SIZE
 62
     0
100
AcDbBlockReference
  2
_DOTBLANK
 10
284.6432844803784
 20
-300.0
 30
0.0
 41
12.0
 42
12.0
 43
12.0
 50
270.0
  0
INSERT
  5
1D90
330
2CE0
100
AcDbEntity
  8
SIZE
 62
     0
100
AcDbBlockReference
  2
_DOTBLANK
 10
284.6432844803785
 20
-0.000000000000036
 30
0.0
 41
12.0
 42
12.0
 43
12.0
 50
90.0
  0
INSERT
  5
1D91
330
2CE0
100
AcDbEntity
  8
0
100
AcDbBlockReference
  2
*U54
 10
0.0
 20
0.0
 30
0.0
  0
POINT
  5
1D92
330
2CE0
100
AcDbEntity
  8
DEFPOINTS
 62
     0
100
AcDbPoint
 10
134.5
 20
-300.0
 30
0.0
  0
POINT
  5
1D93
330
2CE0
100
AcDbEntity
  8
DEFPOINTS
 62
     0
100
AcDbPoint
 10
157.5
 20
0.0
 30
0.0
  0
POINT
  5
1D94
330
2CE0
100
AcDbEntity
  8
DEFPOINTS
 62
     0
100
AcDbPoint
 10
284.6432844803785
 20
-0.000000000000036
 30
0.0
  0
ENDBLK
  5
1749
330
2CE0
100
AcDbEntity
  8
0
100
AcDbBlockEnd
  0
BLOCK
  5
2CE3
330
2CE2
100
AcDbEntity
  8
0
100
AcDbBlockBegin
  2
*U54
 70
     1
 10
0.0
 20
0.0
 30
0.0
  3
*U54
  1

  0
TEXT
  5
1F35
330
2CE2
100
AcDbEntity
  8
SIZE
 62
     0
100
AcDbText
 10
274.6432844803785
 20
-224.0571428571429
 30
0.0
 40
64.0
  1
300
 50
90.0
 41
0.9
100
AcDbText
  0
ENDBLK
  5
1F37
330
2CE2
100
AcDbEntity
  8
0
100
AcDbBlockEnd
  0
BLOCK
  5
2CE5
330
2CE4
100
AcDbEntity
  8
0
100
AcDbBlockBegin
  2
*D55
 70
     1
 10
0.0
 20
0.0
 30
0.0
  3
*D55
  1

  0
LINE
  5
1D95
330
2CE4
100
AcDbEntity
  8
SIZE
 62
     0
100
AcDbLine
 10
-140.0
 20
32.46448280219375
 30
0.0
 11
-140.0
 21
136.4516878685508
 31
0.0
  0
LINE
  5
1D96
330
2CE4
100
AcDbEntity
  8
SIZE
 62
     0
100
AcDbLine
 10
140.0
 20
32.46448280219375
 30
0.0
 11
140.0
 21
136.4516878685508
 31
0.0
  0
LINE
  5
1D97
330
2CE4
100
AcDbEntity
  8
SIZE
 62
     0
100
AcDbLine
 10
-128.0
 20
116.4516878685508
 30
0.0
 11
128.0
 21
116.4516878685508
 31
0.0
  0
INSERT
  5
1D98
330
2CE4
100
AcDbEntity
  8
SIZE
 62
     0
100
AcDbBlockReference
  2
_DOTBLANK
 10
-140.0
 20
116.4516878685508
 30
0.0
 41
12.0
 42
12.0
 43
12.0
 50
180.0
  0
INSERT
  5
1D99
330
2CE4
100
AcDbEntity
  8
SIZE
 62
     0
100
AcDbBlockReference
  2
_DOTBLANK
 10
140.0
 20
116.4516878685508
 30
0.0
 41
12.0
 42
12.0
 43
12.0
  0
INSERT
  5
1D9A
330
2CE4
100
AcDbEntity
  8
0
100
AcDbBlockReference
  2
*U56
 10
0.0
 20
0.0
 30
0.0
  0
POINT
  5
1D9B
330
2CE4
100
AcDbEntity
  8
DEFPOINTS
 62
     0
100
AcDbPoint
 10
-140.0
 20
12.46448280219374
 30
0.0
  0
POINT
  5
1D9C
330
2CE4
100
AcDbEntity
  8
DEFPOINTS
 62
     0
100
AcDbPoint
 10
140.0
 20
12.46448280219374
 30
0.0
  0
POINT
  5
1D9D
330
2CE4
100
AcDbEntity
  8
DEFPOINTS
 62
     0
100
AcDbPoint
 10
140.0
 20
116.4516878685508
 30
0.0
  0
ENDBLK
  5
1755
330
2CE4
100
AcDbEntity
  8
0
100
AcDbBlockEnd
  0
BLOCK
  5
2CE7
330
2CE6
100
AcDbEntity
  8
0
100
AcDbBlockBegin
  2
*U56
 70
     1
 10
0.0
 20
0.0
 30
0.0
  3
*U56
  1

  0
TEXT
  5
1F39
330
2CE6
100
AcDbEntity
  8
SIZE
 62
     0
100
AcDbText
 10
-74.05714285714283
 20
126.4516878685508
 30
0.0
 40
64.0
  1
280
 41
0.9
100
AcDbText
  0
ENDBLK
  5
1F3B
330
2CE6
100
AcDbEntity
  8
0
100
AcDbBlockEnd
  0
BLOCK
  5
2CE9
330
2CE8
100
AcDbEntity
  8
0
100
AcDbBlockBegin
  2
*D57
 70
     1
 10
0.0
 20
0.0
 30
0.0
  3
*D57
  1

  0
LINE
  5
1D9E
330
2CE8
100
AcDbEntity
  8
SIZE
 62
     0
100
AcDbLine
 10
-157.5
 20
20.0
 30
0.0
 11
-157.5
 21
245.5794621189598
 31
0.0
  0
LINE
  5
1D9F
330
2CE8
100
AcDbEntity
  8
SIZE
 62
     0
100
AcDbLine
 10
157.5
 20
20.0
 30
0.0
 11
157.5
 21
245.5794621189598
 31
0.0
  0
LINE
  5
1DA0
330
2CE8
100
AcDbEntity
  8
SIZE
 62
     0
100
AcDbLine
 10
-145.5
 20
225.5794621189598
 30
0.0
 11
145.5
 21
225.5794621189598
 31
0.0
  0
INSERT
  5
1DA1
330
2CE8
100
AcDbEntity
  8
SIZE
 62
     0
100
AcDbBlockReference
  2
_DOTBLANK
 10
-157.5
 20
225.5794621189598
 30
0.0
 41
12.0
 42
12.0
 43
12.0
 50
180.0
  0
INSERT
  5
1DA2
330
2CE8
100
AcDbEntity
  8
SIZE
 62
     0
100
AcDbBlockReference
  2
_DOTBLANK
 10
157.5
 20
225.5794621189598
 30
0.0
 41
12.0
 42
12.0
 43
12.0
  0
INSERT
  5
1DA3
330
2CE8
100
AcDbEntity
  8
0
100
AcDbBlockReference
  2
*U58
 10
0.0
 20
0.0
 30
0.0
  0
POINT
  5
1DA4
330
2CE8
100
AcDbEntity
  8
DEFPOINTS
 62
     0
100
AcDbPoint
 10
-157.5
 20
0.0
 30
0.0
  0
POINT
  5
1DA5
330
2CE8
100
AcDbEntity
  8
DEFPOINTS
 62
     0
100
AcDbPoint
 10
157.5
 20
0.0
 30
0.0
  0
POINT
  5
1DA6
330
2CE8
100
AcDbEntity
  8
DEFPOINTS
 62
     0
100
AcDbPoint
 10
157.5
 20
225.5794621189598
 30
0.0
  0
ENDBLK
  5
1761
330
2CE8
100
AcDbEntity
  8
0
100
AcDbBlockEnd
  0
BLOCK
  5
2CEB
330
2CEA
100
AcDbEntity
  8
0
100
AcDbBlockBegin
  2
*U58
 70
     1
 10
0.0
 20
0.0
 30
0.0
  3
*U58
  1

  0
TEXT
  5
1F3D
330
2CEA
100
AcDbEntity
  8
SIZE
 62
     0
100
AcDbText
 10
-68.57142857142857
 20
235.5794621189599
 30
0.0
 40
64.0
  1
315
 41
0.9
100
AcDbText
  0
ENDBLK
  5
1F3F
330
2CEA
100
AcDbEntity
  8
0
100
AcDbBlockEnd
  0
BLOCK
  5
2CED
330
2CEC
100
AcDbEntity
  8
0
100
AcDbBlockBegin
  2
*D59
 70
     1
 10
0.0
 20
0.0
 30
0.0
  3
*D59
  1

  0
LINE
  5
1DA7
330
2CEC
100
AcDbEntity
  8
SIZE
 62
     0
100
AcDbLine
 10
-177.5
 20
0.0000000000000057
 30
0.0
 11
-314.0264221186908
 21
0.0000000000000443
 31
0.0
  0
LINE
  5
1DA8
330
2CEC
100
AcDbEntity
  8
SIZE
 62
     0
100
AcDbLine
 10
-177.5
 20
-7.999999999999993
 30
0.0
 11
-314.0264221186908
 21
-7.999999999999958
 31
0.0
  0
LINE
  5
1DA9
330
2CEC
100
AcDbEntity
  8
SIZE
 62
     0
100
AcDbLine
 10
-294.0264221186908
 20
12.00000000000003
 30
0.0
 11
-294.0264221186908
 21
24.00000000000004
 31
0.0
  0
LINE
  5
1DAA
330
2CEC
100
AcDbEntity
  8
SIZE
 62
     0
100
AcDbLine
 10
-294.0264221186908
 20
-19.99999999999996
 30
0.0
 11
-294.0264221186908
 21
-90.39999999999997
 31
0.0
  0
INSERT
  5
1DAB
330
2CEC
100
AcDbEntity
  8
SIZE
 62
     0
100
AcDbBlockReference
  2
_DOTBLANK
 10
-294.0264221186908
 20
0.0000000000000387
 30
0.0
 41
12.0
 42
12.0
 43
12.0
 50
270.0
  0
INSERT
  5
1DAC
330
2CEC
100
AcDbEntity
  8
SIZE
 62
     0
100
AcDbBlockReference
  2
_DOTBLANK
 10
-294.0264221186908
 20
-7.999999999999961
 30
0.0
 41
12.0
 42
12.0
 43
12.0
 50
90.0
  0
INSERT
  5
1DAD
330
2CEC
100
AcDbEntity
  8
0
100
AcDbBlockReference
  2
*U60
 10
0.0
 20
0.0
 30
0.0
  0
POINT
  5
1DAE
330
2CEC
100
AcDbEntity
  8
DEFPOINTS
 62
     0
100
AcDbPoint
 10
-157.5
 20
0.0
 30
0.0
  0
POINT
  5
1DAF
330
2CEC
100
AcDbEntity
  8
DEFPOINTS
 62
     0
100
AcDbPoint
 10
-157.5
 20
-8.000000000000003
 30
0.0
  0
POINT
  5
1DB0
330
2CEC
100
AcDbEntity
  8
DEFPOINTS
 62
     0
100
AcDbPoint
 10
-294.0264221186908
 20
-7.999999999999961
 30
0.0
  0
ENDBLK
  5
176D
330
2CEC
100
AcDbEntity
  8
0
100
AcDbBlockEnd
  0
BLOCK
  5
2CEF
330
2CEE
100
AcDbEntity
  8
0
100
AcDbBlockBegin
  2
*U60
 70
     1
 10
0.0
 20
0.0
 30
0.0
  3
*U60
  1

  0
TEXT
  5
1F41
330
2CEE
100
AcDbEntity
  8
SIZE
 62
     0
100
AcDbText
 10
-304.0264221186908
 20
-80.4
 30
0.0
 40
64.0
  1
8
 50
90.0
 41
0.9
100
AcDbText
  0
ENDBLK
  5
1F43
330
2CEE
100
AcDbEntity
  8
0
100
AcDbBlockEnd
  0
BLOCK
  5
2CF1
330
2CF0
100
AcDbEntity
  8
0
100
AcDbBlockBegin
  2
*D61
 70
     1
 10
0.0
 20
0.0
 30
0.0
  3
*D61
  1

  0
LINE
  5
1DB1
330
2CF0
100
AcDbEntity
  8
SIZE
 62
     0
100
AcDbLine
 10
154.5
 20
-300.0
 30
0.0
 11
304.6432844803785
 21
-300.0
 31
0.0
  0
LINE
  5
1DB2
330
2CF0
100
AcDbEntity
  8
SIZE
 62
     0
100
AcDbLine
 10
143.5
 20
-312.0
 30
0.0
 11
304.6432844803785
 21
-312.0
 31
0.0
  0
LINE
  5
1DB3
330
2CF0
100
AcDbEntity
  8
SIZE
 62
     0
100
AcDbLine
 10
284.6432844803785
 20
-288.0
 30
0.0
 11
284.6432844803785
 21
-276.0
 31
0.0
  0
LINE
  5
1DB4
330
2CF0
100
AcDbEntity
  8
SIZE
 62
     0
100
AcDbLine
 10
284.6432844803785
 20
-324.0000000000001
 30
0.0
 11
284.6432844803784
 21
-438.2857142857143
 31
0.0
  0
INSERT
  5
1DB5
330
2CF0
100
AcDbEntity
  8
SIZE
 62
     0
100
AcDbBlockReference
  2
_DOTBLANK
 10
284.6432844803785
 20
-300.0
 30
0.0
 41
12.0
 42
12.0
 43
12.0
 50
270.0
  0
INSERT
  5
1DB6
330
2CF0
100
AcDbEntity
  8
SIZE
 62
     0
100
AcDbBlockReference
  2
_DOTBLANK
 10
284.6432844803785
 20
-312.0
 30
0.0
 41
12.0
 42
12.0
 43
12.0
 50
90.0
  0
INSERT
  5
1DB7
330
2CF0
100
AcDbEntity
  8
0
100
AcDbBlockReference
  2
*U62
 10
0.0
 20
0.0
 30
0.0
  0
POINT
  5
1DB8
330
2CF0
100
AcDbEntity
  8
DEFPOINTS
 62
     0
100
AcDbPoint
 10
134.5
 20
-300.0
 30
0.0
  0
POINT
  5
1DB9
330
2CF0
100
AcDbEntity
  8
DEFPOINTS
 62
     0
100
AcDbPoint
 10
123.5
 20
-312.0
 30
0.0
  0
POINT
  5
1DBA
330
2CF0
100
AcDbEntity
  8
DEFPOINTS
 62
     0
100
AcDbPoint
 10
284.6432844803785
 20
-312.0
 30
0.0
  0
ENDBLK
  5
177B
330
2CF0
100
AcDbEntity
  8
0
100
AcDbBlockEnd
  0
BLOCK
  5
2CF3
330
2CF2
100
AcDbEntity
  8
0
100
AcDbBlockBegin
  2
*U62
 70
     1
 10
0.0
 20
0.0
 30
0.0
  3
*U62
  1

  0
TEXT
  5
1F45
330
2CF2
100
AcDbEntity
  8
SIZE
 62
     0
100
AcDbText
 10
274.6432844803785
 20
-428.2857142857142
 30
0.0
 40
64.0
  1
12
 50
90.0
 41
0.9
100
AcDbText
  0
ENDBLK
  5
1F47
330
2CF2
100
AcDbEntity
  8
0
100
AcDbBlockEnd
  0
BLOCK
  5
2CF5
330
2CF4
100
AcDbEntity
  8
0
100
AcDbBlockBegin
  2
*U63
 70
     1
 10
0.0
 20
0.0
 30
0.0
  3
*U63
  1

  0
ENDBLK
  5
1D57
330
2CF4
100
AcDbEntity
  8
0
100
AcDbBlockEnd
  0
BLOCK
  5
2CF7
330
2CF6
100
AcDbEntity
  8
0
100
AcDbBlockBegin
  2
*U64
 70
     1
 10
0.0
 20
0.0
 30
0.0
  3
*U64
  1

  0
INSERT
  5
2087
330
2CF6
100
AcDbEntity
  8
NOTE
100
AcDbBlockReference
  2
_OPEN30
 10
-217.0
 20
0.0
 30
0.0
 41
12.0
 42
12.0
 43
12.0
 50
312.6090116116894
  0
POLYLINE
  5
2088
330
2CF6
100
AcDbEntity
  8
NOTE
100
AcDb2dPolyline
 66
     1
 10
0.0
 20
0.0
 30
0.0
  0
VERTEX
  5
2B98
330
2088
100
AcDbEntity
  8
NOTE
100
AcDbVertex
100
AcDb2dVertex
 10
-225.1239008361896
 20
8.831887408915475
 30
0.0
  0
VERTEX
  5
2B99
330
2088
100
AcDbEntity
  8
NOTE
100
AcDbVertex
100
AcDb2dVertex
 10
-304.8693999922543
 20
95.5270950580134
 30
0.0
  0
VERTEX
  5
2B9A
330
2088
100
AcDbEntity
  8
NOTE
100
AcDbVertex
100
AcDb2dVertex
 10
-853.4522571351114
 20
95.5270950580134
 30
0.0
  0
SEQEND
  5
2B9B
330
2088
100
AcDbEntity
  8
NOTE
  0
ENDBLK
  5
2089
330
2CF6
100
AcDbEntity
  8
0
100
AcDbBlockEnd
  0
BLOCK
  5
2CF9
330
2CF8
100
AcDbEntity
  8
0
100
AcDbBlockBegin
  2
*U65
 70
     1
 10
0.0
 20
0.0
 30
0.0
  3
*U65
  1

  0
TEXT
  5
208C
330
2CF8
100
AcDbEntity
  8
NOTE
100
AcDbText
 10
-850.7093999922542
 20
113.5270950580134
 30
0.0
 40
64.0
  1
4×φ15取付穴
 41
0.9
100
AcDbText
  0
ENDBLK
  5
208D
330
2CF8
100
AcDbEntity
  8
0
100
AcDbBlockEnd
  0
BLOCK
  5
2CFB
330
2CFA
100
AcDbEntity
  8
0
100
AcDbBlockBegin
  2
*U66
 70
     1
 10
0.0
 20
0.0
 30
0.0
  3
*U66
  1

  0
INSERT
  5
215D
330
2CFA
100
AcDbEntity
  8
NOTE
100
AcDbBlockReference
  2
_OPEN30
 10
217.0
 20
217.0
 30
0.0
 41
12.0
 42
12.0
 43
12.0
 50
230.7091310502217
  0
POLYLINE
  5
215E
330
2CFA
100
AcDbEntity
  8
NOTE
100
AcDb2dPolyline
 66
     1
 10
0.0
 20
0.0
 30
0.0
  0
VERTEX
  5
2B9C
330
215E
100
AcDbEntity
  8
NOTE
100
AcDbVertex
100
AcDb2dVertex
 10
224.599090480922
 20
226.2872936780722
 30
0.0
  0
VERTEX
  5
2B9D
330
215E
100
AcDbEntity
  8
NOTE
100
AcDbVertex
100
AcDb2dVertex
 10
280.4345623698609
 20
294.5270950580134
 30
0.0
  0
VERTEX
  5
2B9E
330
215E
100
AcDbEntity
  8
NOTE
100
AcDbVertex
100
AcDb2dVertex
 10
829.0174195127182
 20
294.5270950580134
 30
0.0
  0
SEQEND
  5
2B9F
330
215E
100
AcDbEntity
  8
NOTE
  0
ENDBLK
  5
215F
330
2CFA
100
AcDbEntity
  8
0
100
AcDbBlockEnd
  0
BLOCK
  5
2CFD
330
2CFC
100
AcDbEntity
  8
0
100
AcDbBlockBegin
  2
*U67
 70
     1
 10
0.0
 20
0.0
 30
0.0
  3
*U67
  1

  0
TEXT
  5
2162
330
2CFC
100
AcDbEntity
  8
NOTE
100
AcDbText
 10
342.4345623698609
 20
312.5270950580134
 30
0.0
 40
64.0
  1
4×φ15取付穴
 41
0.9
100
AcDbText
  0
ENDBLK
  5
2163
330
2CFC
100
AcDbEntity
  8
0
100
AcDbBlockEnd
  0
BLOCK
  5
2CFF
330
2CFE
100
AcDbEntity
  8
0
100
AcDbBlockBegin
  2
*U68
 70
     1
 10
0.0
 20
0.0
 30
0.0
  3
*U68
  1

  0
INSERT
  5
2234
330
2CFE
100
AcDbEntity
  8
NOTE
100
AcDbBlockReference
  2
_OPEN30
 10
217.0
 20
216.9999999999995
 30
0.0
 41
12.0
 42
12.0
 43
12.0
 50
232.3258907693334
  0
POLYLINE
  5
2235
330
2CFE
100
AcDbEntity
  8
NOTE
100
AcDb2dPolyline
 66
     1
 10
0.0
 20
0.0
 30
0.0
  0
VERTEX
  5
2BA0
330
2235
100
AcDbEntity
  8
NOTE
100
AcDbVertex
100
AcDb2dVertex
 10
224.3340332839448
 20
226.4979974620959
 30
0.0
  0
VERTEX
  5
2BA1
330
2235
100
AcDbEntity
  8
NOTE
100
AcDbVertex
100
AcDb2dVertex
 10
290.7628007872083
 20
312.527095058012
 30
0.0
  0
VERTEX
  5
2BA2
330
2235
100
AcDbEntity
  8
NOTE
100
AcDbVertex
100
AcDb2dVertex
 10
836.6028007872081
 20
312.527095058012
 30
0.0
  0
SEQEND
  5
2BA3
330
2235
100
AcDbEntity
  8
NOTE
  0
ENDBLK
  5
2236
330
2CFE
100
AcDbEntity
  8
0
100
AcDbBlockEnd
  0
BLOCK
  5
2D01
330
2D00
100
AcDbEntity
  8
0
100
AcDbBlockBegin
  2
*U69
 70
     1
 10
0.0
 20
0.0
 30
0.0
  3
*U69
  1

  0
TEXT
  5
2239
330
2D00
100
AcDbEntity
  8
NOTE
100
AcDbText
 10
352.7628007872081
 20
330.527095058012
 30
0.0
 40
64.0
  1
4×φ15取付穴
 41
0.9
100
AcDbText
  0
ENDBLK
  5
223A
330
2D00
100
AcDbEntity
  8
0
100
AcDbBlockEnd
  0
BLOCK
  5
2D03
330
2D02
100
AcDbEntity
  8
0
100
AcDbBlockBegin
  2
*U70
 70
     1
 10
0.0
 20
0.0
 30
0.0
  3
*U70
  1

  0
INSERT
  5
2327
330
2D02
100
AcDbEntity
  8
NOTE
100
AcDbBlockReference
  2
_OPEN30
 10
0.0
 20
217.0
 30
0.0
 41
12.0
 42
12.0
 43
12.0
 50
312.6090116116895
  0
POLYLINE
  5
2328
330
2D02
100
AcDbEntity
  8
NOTE
100
AcDb2dPolyline
 66
     1
 10
0.0
 20
0.0
 30
0.0
  0
VERTEX
  5
2BA4
330
2328
100
AcDbEntity
  8
NOTE
100
AcDbVertex
100
AcDb2dVertex
 10
-8.123900836189513
 20
225.8318874089155
 30
0.0
  0
VERTEX
  5
2BA5
330
2328
100
AcDbEntity
  8
NOTE
100
AcDbVertex
100
AcDb2dVertex
 10
-87.86939999225436
 20
312.527095058013
 30
0.0
  0
VERTEX
  5
2BA6
330
2328
100
AcDbEntity
  8
NOTE
100
AcDbVertex
100
AcDb2dVertex
 10
-633.7093999922545
 20
312.527095058013
 30
0.0
  0
SEQEND
  5
2BA7
330
2328
100
AcDbEntity
  8
NOTE
  0
ENDBLK
  5
2329
330
2D02
100
AcDbEntity
  8
0
100
AcDbBlockEnd
  0
BLOCK
  5
2D05
330
2D04
100
AcDbEntity
  8
0
100
AcDbBlockBegin
  2
*U71
 70
     1
 10
0.0
 20
0.0
 30
0.0
  3
*U71
  1

  0
TEXT
  5
232C
330
2D04
100
AcDbEntity
  8
NOTE
100
AcDbText
 10
-633.7093999922545
 20
330.5270950580129
 30
0.0
 40
64.0
  1
4×φ15取付穴
 41
0.9
100
AcDbText
  0
ENDBLK
  5
232D
330
2D04
100
AcDbEntity
  8
0
100
AcDbBlockEnd
  0
BLOCK
  5
2D07
330
2D06
100
AcDbEntity
  8
0
100
AcDbBlockBegin
  2
*U72
 70
     1
 10
0.0
 20
0.0
 30
0.0
  3
*U72
  1

  0
INSERT
  5
259E
330
2D06
100
AcDbEntity
  8
NOTE
100
AcDbBlockReference
  2
_OPEN30
 10
0.0
 20
217.0
 30
0.0
 41
12.0
 42
12.0
 43
12.0
 50
227.3909883883105
  0
POLYLINE
  5
259F
330
2D06
100
AcDbEntity
  8
NOTE
100
AcDb2dPolyline
 66
     1
 10
0.0
 20
0.0
 30
0.0
  0
VERTEX
  5
2BA8
330
259F
100
AcDbEntity
  8
NOTE
100
AcDbVertex
100
AcDb2dVertex
 10
8.123900836189513
 20
225.8318874089155
 30
0.0
  0
VERTEX
  5
2BA9
330
259F
100
AcDbEntity
  8
NOTE
100
AcDbVertex
100
AcDb2dVertex
 10
87.86939999225436
 20
312.527095058013
 30
0.0
  0
VERTEX
  5
2BAA
330
259F
100
AcDbEntity
  8
NOTE
100
AcDbVertex
100
AcDb2dVertex
 10
633.7093999922545
 20
312.527095058013
 30
0.0
  0
SEQEND
  5
2BAB
330
259F
100
AcDbEntity
  8
NOTE
  0
ENDBLK
  5
25A0
330
2D06
100
AcDbEntity
  8
0
100
AcDbBlockEnd
  0
BLOCK
  5
2D09
330
2D08
100
AcDbEntity
  8
0
100
AcDbBlockBegin
  2
*U73
 70
     1
 10
0.0
 20
0.0
 30
0.0
  3
*U73
  1

  0
TEXT
  5
25A3
330
2D08
100
AcDbEntity
  8
NOTE
100
AcDbText
 10
149.8693999922543
 20
330.5270950580129
 30
0.0
 40
64.0
  1
4×φ15取付穴
 41
0.9
100
AcDbText
  0
ENDBLK
  5
25A4
330
2D08
100
AcDbEntity
  8
0
100
AcDbBlockEnd
  0
BLOCK
  5
2D0B
330
2D0A
100
AcDbEntity
  8
0
100
AcDbBlockBegin
  2
*X74
 70
     1
 10
0.0
 20
0.0
 30
0.0
  3
*X74
  1

  0
LINE
  5
26D8
330
2D0A
100
AcDbEntity
  8
0
 62
     0
100
AcDbLine
 10
183.002150630009
 20
-434.4000000000014
 30
0.0
 11
187.3999999999904
 21
-431.4681079066922
 31
0.0
  0
LINE
  5
26D9
330
2D0A
100
AcDbEntity
  8
0
 62
     0
100
AcDbLine
 10
178.5021893361227
 20
-434.4000000000014
 30
0.0
 11
187.3999999999869
 21
-428.4681413712751
 31
0.0
  0
LINE
  5
26DA
330
2D0A
100
AcDbEntity
  8
0
 62
     0
100
AcDbLine
 10
174.0022280422381
 20
-434.4000000000033
 30
0.0
 11
187.3999999999904
 21
-425.4681748358597
 31
0.0
  0
LINE
  5
26DB
330
2D0A
100
AcDbEntity
  8
0
 62
     0
100
AcDbLine
 10
169.5022667483534
 20
-434.3999999999996
 30
0.0
 11
187.3999999999869
 21
-422.4682083004443
 31
0.0
  0
LINE
  5
26DC
330
2D0A
100
AcDbEntity
  8
0
 62
     0
100
AcDbLine
 10
165.0023054544672
 20
-434.4000000000014
 30
0.0
 11
187.3999999999904
 21
-419.4682417650274
 31
0.0
  0
LINE
  5
26DD
330
2D0A
100
AcDbEntity
  8
0
 62
     0
100
AcDbLine
 10
160.5023441605844
 20
-434.3999999999996
 30
0.0
 11
187.3999999999904
 21
-416.4682752296102
 31
0.0
  0
LINE
  5
26DE
330
2D0A
100
AcDbEntity
  8
0
 62
     0
100
AcDbLine
 10
156.0023828666944
 20
-434.4000000000033
 30
0.0
 11
187.3999999999884
 21
-413.468308694195
 31
0.0
  0
LINE
  5
26DF
330
2D0A
100
AcDbEntity
  8
0
 62
     0
100
AcDbLine
 10
151.5024215728116
 20
-434.4000000000014
 30
0.0
 11
187.3999999999904
 21
-410.4683421587777
 31
0.0
  0
LINE
  5
26E0
330
2D0A
100
AcDbEntity
  8
0
 62
     0
100
AcDbLine
 10
147.0024602789235
 20
-434.4000000000014
 30
0.0
 11
187.3999999999884
 21
-407.4683756233643
 31
0.0
  0
LINE
  5
26E1
330
2D0A
100
AcDbEntity
  8
0
 62
     0
100
AcDbLine
 10
142.5024989850371
 20
-434.4000000000014
 30
0.0
 11
187.3999999999884
 21
-404.4684090879455
 31
0.0
  0
LINE
  5
26E2
330
2D0A
100
AcDbEntity
  8
0
 62
     0
100
AcDbLine
 10
138.0025376911526
 20
-434.4000000000033
 30
0.0
 11
187.3999999999884
 21
-401.4684425525319
 31
0.0
  0
LINE
  5
26E3
330
2D0A
100
AcDbEntity
  8
0
 62
     0
100
AcDbLine
 10
133.5025763972699
 20
-434.4000000000014
 30
0.0
 11
187.3999999999904
 21
-398.4684760171131
 31
0.0
  0
LINE
  5
26E4
330
2D0A
100
AcDbEntity
  8
0
 62
     0
100
AcDbLine
 10
129.0026151033835
 20
-434.4000000000014
 30
0.0
 11
187.3999999999884
 21
-395.4685094816978
 31
0.0
  0
LINE
  5
26E5
330
2D0A
100
AcDbEntity
  8
0
 62
     0
100
AcDbLine
 10
124.5026538094953
 20
-434.4000000000014
 30
0.0
 11
187.3999999999884
 21
-392.4685429462824
 31
0.0
  0
LINE
  5
26E6
330
2D0A
100
AcDbEntity
  8
0
 62
     0
100
AcDbLine
 10
120.0026925156125
 20
-434.3999999999996
 30
0.0
 11
187.3999999999884
 21
-389.4685764108654
 31
0.0
  0
LINE
  5
26E7
330
2D0A
100
AcDbEntity
  8
0
 62
     0
100
AcDbLine
 10
115.5027312217262
 20
-434.4000000000014
 30
0.0
 11
187.3999999999884
 21
-386.4686098754501
 31
0.0
  0
LINE
  5
26E8
330
2D0A
100
AcDbEntity
  8
0
 62
     0
100
AcDbLine
 10
111.0027699278416
 20
-434.3999999999996
 30
0.0
 11
187.3999999999884
 21
-383.4686433400311
 31
0.0
  0
LINE
  5
26E9
330
2D0A
100
AcDbEntity
  8
0
 62
     0
100
AcDbLine
 10
106.5028086339534
 20
-434.4000000000033
 30
0.0
 11
187.3999999999884
 21
-380.4686768046177
 31
0.0
  0
LINE
  5
26EA
330
2D0A
100
AcDbEntity
  8
0
 62
     0
100
AcDbLine
 10
102.0028473400689
 20
-434.3999999999996
 30
0.0
 11
187.3999999999884
 21
-377.4687102692005
 31
0.0
  0
LINE
  5
26EB
330
2D0A
100
AcDbEntity
  8
0
 62
     0
100
AcDbLine
 10
97.50288604618438
 20
-434.4000000000014
 30
0.0
 11
187.3999999999904
 21
-374.4687437337834
 31
0.0
  0
LINE
  5
26EC
330
2D0A
100
AcDbEntity
  8
0
 62
     0
100
AcDbLine
 10
93.00292475229799
 20
-434.4000000000014
 30
0.0
 11
187.3999999999884
 21
-371.4687771983681
 31
0.0
  0
LINE
  5
26ED
330
2D0A
100
AcDbEntity
  8
0
 62
     0
100
AcDbLine
 10
88.50296345841162
 20
-434.4000000000033
 30
0.0
 11
187.3999999999942
 21
-368.4688106629492
 31
0.0
  0
LINE
  5
26EE
330
2D0A
100
AcDbEntity
  8
0
 62
     0
100
AcDbLine
 10
84.00300216452706
 20
-434.4000000000014
 30
0.0
 11
187.3999999999923
 21
-365.4688441275337
 31
0.0
  0
LINE
  5
26EF
330
2D0A
100
AcDbEntity
  8
0
 62
     0
100
AcDbLine
 10
79.50304087064067
 20
-434.4000000000014
 30
0.0
 11
187.3999999999923
 21
-362.4688775921168
 31
0.0
  0
LINE
  5
26F0
330
2D0A
100
AcDbEntity
  8
0
 62
     0
100
AcDbLine
 10
75.00307957675612
 20
-434.4000000000014
 30
0.0
 11
187.3999999999923
 21
-359.4689110567015
 31
0.0
  0
LINE
  5
26F1
330
2D0A
100
AcDbEntity
  8
0
 62
     0
100
AcDbLine
 10
70.50311828286793
 20
-434.4000000000033
 30
0.0
 11
187.3999999999923
 21
-356.4689445212862
 31
0.0
  0
LINE
  5
26F2
330
2D0A
100
AcDbEntity
  8
0
 62
     0
100
AcDbLine
 10
66.00315698898521
 20
-434.4000000000014
 30
0.0
 11
187.3999999999904
 21
-353.4689779858691
 31
0.0
  0
LINE
  5
26F3
330
2D0A
100
AcDbEntity
  8
0
 62
     0
100
AcDbLine
 10
61.50319569509885
 20
-434.4000000000014
 30
0.0
 11
187.3999999999923
 21
-350.469011450452
 31
0.0
  0
LINE
  5
26F4
330
2D0A
100
AcDbEntity
  8
0
 62
     0
100
AcDbLine
 10
57.00323440121429
 20
-434.4000000000014
 30
0.0
 11
187.3999999999942
 21
-347.4690449150348
 31
0.0
  0
LINE
  5
26F5
330
2D0A
100
AcDbEntity
  8
0
 62
     0
100
AcDbLine
 10
52.50327310732973
 20
-434.3999999999996
 30
0.0
 11
187.3999999999923
 21
-344.4690783796195
 31
0.0
  0
LINE
  5
26F6
330
2D0A
100
AcDbEntity
  8
0
 62
     0
100
AcDbLine
 10
48.00331181344335
 20
-434.4000000000014
 30
0.0
 11
187.3999999999923
 21
-341.4691118442042
 31
0.0
  0
LINE
  5
26F7
330
2D0A
100
AcDbEntity
  8
0
 62
     0
100
AcDbLine
 10
43.50335051956061
 20
-434.3999999999996
 30
0.0
 11
187.3999999999923
 21
-338.4691453087871
 31
0.0
  0
LINE
  5
26F8
330
2D0A
100
AcDbEntity
  8
0
 62
     0
100
AcDbLine
 10
39.00338922567062
 20
-434.4000000000033
 30
0.0
 11
187.3999999999923
 21
-335.4691787733718
 31
0.0
  0
LINE
  5
26F9
330
2D0A
100
AcDbEntity
  8
0
 62
     0
100
AcDbLine
 10
34.50342793178606
 20
-434.3999999999996
 30
0.0
 11
187.3999999999904
 21
-332.4692122379548
 31
0.0
  0
LINE
  5
26FA
330
2D0A
100
AcDbEntity
  8
0
 62
     0
100
AcDbLine
 10
30.00346663790151
 20
-434.4000000000014
 30
0.0
 11
187.3999999999923
 21
-329.4692457025393
 31
0.0
  0
LINE
  5
26FB
330
2D0A
100
AcDbEntity
  8
0
 62
     0
100
AcDbLine
 10
25.50350534401332
 20
-434.4000000000014
 30
0.0
 11
187.3999999999904
 21
-326.4692791671241
 31
0.0
  0
LINE
  5
26FC
330
2D0A
100
AcDbEntity
  8
0
 62
     0
100
AcDbLine
 10
21.00354405013058
 20
-434.4000000000014
 30
0.0
 11
187.3999999999923
 21
-323.469312631707
 31
0.0
  0
LINE
  5
26FD
330
2D0A
100
AcDbEntity
  8
0
 62
     0
100
AcDbLine
 10
16.50358275624421
 20
-434.4000000000014
 30
0.0
 11
187.3999999999942
 21
-320.4693460962899
 31
0.0
  0
LINE
  5
26FE
330
2D0A
100
AcDbEntity
  8
0
 62
     0
100
AcDbLine
 10
12.00362146236148
 20
-434.3999999999996
 30
0.0
 11
187.3999999999923
 21
-317.4693795608746
 31
0.0
  0
LINE
  5
26FF
330
2D0A
100
AcDbEntity
  8
0
 62
     0
100
AcDbLine
 10
7.503660168471468
 20
-434.4000000000014
 30
0.0
 11
187.3999999999942
 21
-314.4694130254576
 31
0.0
  0
LINE
  5
2700
330
2D0A
100
AcDbEntity
  8
0
 62
     0
100
AcDbLine
 10
3.003698874588735
 20
-434.3999999999996
 30
0.0
 11
187.3999999999904
 21
-311.4694464900422
 31
0.0
  0
LINE
  5
2701
330
2D0A
100
AcDbEntity
  8
0
 62
     0
100
AcDbLine
 10
186.0042163677644
 20
-309.3999999999996
 30
0.0
 11
187.3999999999942
 21
-308.4694799546251
 31
0.0
  0
LINE
  5
2702
330
2D0A
100
AcDbEntity
  8
0
 62
     0
100
AcDbLine
 10
-1.496262419297635
 20
-434.4000000000014
 30
0.0
 11
186.004216367759
 21
-309.4000000000032
 31
0.0
  0
LINE
  5
2703
330
2D0A
100
AcDbEntity
  8
0
 62
     0
100
AcDbLine
 10
181.5042550738781
 20
-309.3999999999996
 30
0.0
 11
187.3999999999904
 21
-305.4695134192098
 31
0.0
  0
LINE
  5
2704
330
2D0A
100
AcDbEntity
  8
0
 62
     0
100
AcDbLine
 10
-5.996223713182185
 20
-434.3999999999996
 30
0.0
 11
181.5042550738744
 21
-309.4000000000014
 31
0.0
  0
LINE
  5
2705
330
2D0A
100
AcDbEntity
  8
0
 62
     0
100
AcDbLine
 10
177.0042937799917
 20
-309.4000000000014
 30
0.0
 11
187.3999999999942
 21
-302.4695468837927
 31
0.0
  0
LINE
  5
2706
330
2D0A
100
AcDbEntity
  8
0
 62
     0
100
AcDbLine
 10
-10.49618500707038
 20
-434.4000000000014
 30
0.0
 11
177.0042937799899
 21
-309.4000000000032
 31
0.0
  0
LINE
  5
2707
330
2D0A
100
AcDbEntity
  8
0
 62
     0
100
AcDbLine
 10
172.5043324861053
 20
-309.3999999999996
 30
0.0
 11
187.3999999999904
 21
-299.4695803483773
 31
0.0
  0
LINE
  5
2708
330
2D0A
100
AcDbEntity
  8
0
 62
     0
100
AcDbLine
 10
-14.99614630095311
 20
-434.3999999999996
 30
0.0
 11
172.5043324861053
 21
-309.3999999999996
 31
0.0
  0
LINE
  5
2709
330
2D0A
100
AcDbEntity
  8
0
 62
     0
100
AcDbLine
 10
168.004371192219
 20
-309.4000000000014
 30
0.0
 11
187.3999999999942
 21
-296.4696138129602
 31
0.0
  0
LINE
  5
270A
330
2D0A
100
AcDbEntity
  8
0
 62
     0
100
AcDbLine
 10
-19.49610759483948
 20
-434.4000000000014
 30
0.0
 11
168.0043711922171
 21
-309.4000000000032
 31
0.0
  0
LINE
  5
270B
330
2D0A
100
AcDbEntity
  8
0
 62
     0
100
AcDbLine
 10
163.5044098983362
 20
-309.3999999999996
 30
0.0
 11
187.3999999999942
 21
-293.4696472775431
 31
0.0
  0
LINE
  5
270C
330
2D0A
100
AcDbEntity
  8
0
 62
     0
100
AcDbLine
 10
-23.99606888872586
 20
-434.4000000000014
 30
0.0
 11
163.5044098983326
 21
-309.4000000000014
 31
0.0
  0
LINE
  5
270D
330
2D0A
100
AcDbEntity
  8
0
 62
     0
100
AcDbLine
 10
159.0044486044462
 20
-309.4000000000032
 30
0.0
 11
187.3999999999923
 21
-290.4696807421296
 31
0.0
  0
LINE
  5
270E
330
2D0A
100
AcDbEntity
  8
0
 62
     0
100
AcDbLine
 10
-28.49603018261041
 20
-434.4000000000014
 30
0.0
 11
159.0044486044462
 21
-309.4000000000032
 31
0.0
  0
LINE
  5
270F
330
2D0A
100
AcDbEntity
  8
0
 62
     0
100
AcDbLine
 10
154.5044873105634
 20
-309.4000000000014
 30
0.0
 11
187.3999999999942
 21
-287.4697142067108
 31
0.0
  0
LINE
  5
2710
330
2D0A
100
AcDbEntity
  8
0
 62
     0
100
AcDbLine
 10
-32.99599147649497
 20
-434.3999999999996
 30
0.0
 11
154.5044873105634
 21
-309.4000000000014
 31
0.0
  0
LINE
  5
2711
330
2D0A
100
AcDbEntity
  8
0
 62
     0
100
AcDbLine
 10
150.0045260166789
 20
-309.3999999999996
 30
0.0
 11
187.3999999999923
 21
-284.4697476712973
 31
0.0
  0
LINE
  5
2712
330
2D0A
100
AcDbEntity
  8
0
 62
     0
100
AcDbLine
 10
-37.49595277037953
 20
-434.3999999999996
 30
0.0
 11
150.0045260166753
 21
-309.4000000000014
 31
0.0
  0
LINE
  5
2713
330
2D0A
100
AcDbEntity
  8
0
 62
     0
100
AcDbLine
 10
145.5045647227925
 20
-309.3999999999996
 30
0.0
 11
187.3999999999923
 21
-281.4697811358783
 31
0.0
  0
LINE
  5
2714
330
2D0A
100
AcDbEntity
  8
0
 62
     0
100
AcDbLine
 10
-41.99591406426953
 20
-434.4000000000014
 30
0.0
 11
145.5045647227889
 21
-309.4000000000014
 31
0.0
  0
LINE
  5
2715
330
2D0A
100
AcDbEntity
  8
0
 62
     0
100
AcDbLine
 10
141.0046034289062
 20
-309.4000000000014
 30
0.0
 11
187.3999999999923
 21
-278.4698146004648
 31
0.0
  0
LINE
  5
2716
330
2D0A
100
AcDbEntity
  8
0
 62
     0
100
AcDbLine
 10
-46.49587535815224
 20
-434.4000000000014
 30
0.0
 11
141.0046034289062
 21
-309.4000000000014
 31
0.0
  0
LINE
  5
2717
330
2D0A
100
AcDbEntity
  8
0
 62
     0
100
AcDbLine
 10
136.5046421350216
 20
-309.4000000000014
 30
0.0
 11
187.3999999999942
 21
-275.4698480650477
 31
0.0
  0
LINE
  5
2718
330
2D0A
100
AcDbEntity
  8
0
 62
     0
100
AcDbLine
 10
-50.99583665203681
 20
-434.4000000000014
 30
0.0
 11
136.504642135018
 21
-309.4000000000032
 31
0.0
  0
LINE
  5
2719
330
2D0A
100
AcDbEntity
  8
0
 62
     0
100
AcDbLine
 10
132.0046808411371
 20
-309.3999999999996
 30
0.0
 11
187.3999999999942
 21
-272.4698815296288
 31
0.0
  0
LINE
  5
271A
330
2D0A
100
AcDbEntity
  8
0
 62
     0
100
AcDbLine
 10
-55.49579794592136
 20
-434.3999999999978
 30
0.0
 11
132.0046808411353
 21
-309.4000000000014
 31
0.0
  0
LINE
  5
271B
330
2D0A
100
AcDbEntity
  8
0
 62
     0
100
AcDbLine
 10
127.504719547247
 20
-309.4000000000014
 30
0.0
 11
187.3999999999923
 21
-269.4699149942153
 31
0.0
  0
LINE
  5
271C
330
2D0A
100
AcDbEntity
  8
0
 62
     0
100
AcDbLine
 10
-59.99575923981137
 20
-434.4000000000014
 30
0.0
 11
127.504719547247
 21
-309.4000000000014
 31
0.0
  0
LINE
  5
271D
330
2D0A
100
AcDbEntity
  8
0
 62
     0
100
AcDbLine
 10
123.0047582533643
 20
-309.3999999999996
 30
0.0
 11
187.3999999999942
 21
-266.4699484587964
 31
0.0
  0
LINE
  5
271E
330
2D0A
100
AcDbEntity
  8
0
 62
     0
100
AcDbLine
 10
-64.49572053369411
 20
-434.3999999999996
 30
0.0
 11
123.0047582533643
 21
-309.3999999999996
 31
0.0
  0
LINE
  5
271F
330
2D0A
100
AcDbEntity
  8
0
 62
     0
100
AcDbLine
 10
118.5047969594816
 20
-309.3999999999996
 30
0.0
 11
187.3999999999923
 21
-263.4699819233829
 31
0.0
  0
LINE
  5
2720
330
2D0A
100
AcDbEntity
  8
0
 62
     0
100
AcDbLine
 10
-68.99568182758049
 20
-434.4000000000014
 30
0.0
 11
118.5047969594743
 21
-309.4000000000032
 31
0.0
  0
LINE
  5
2721
330
2D0A
100
AcDbEntity
  8
0
 62
     0
100
AcDbLine
 10
114.0048356655916
 20
-309.4000000000014
 30
0.0
 11
187.3999999999923
 21
-260.4700153879659
 31
0.0
  0
LINE
  5
2722
330
2D0A
100
AcDbEntity
  8
0
 62
     0
100
AcDbLine
 10
-73.49564312146502
 20
-434.3999999999996
 30
0.0
 11
114.0048356655916
 21
-309.4000000000014
 31
0.0
  0
LINE
  5
2723
330
2D0A
100
AcDbEntity
  8
0
 62
     0
100
AcDbLine
 10
109.5048743717088
 20
-309.4000000000014
 30
0.0
 11
187.3999999999923
 21
-257.4700488525504
 31
0.0
  0
LINE
  5
2724
330
2D0A
100
AcDbEntity
  8
0
 62
     0
100
AcDbLine
 10
-77.99560441535323
 20
-434.4000000000033
 30
0.0
 11
109.5048743717052
 21
-309.4000000000032
 31
0.0
  0
LINE
  5
2725
330
2D0A
100
AcDbEntity
  8
0
 62
     0
100
AcDbLine
 10
105.0049130778206
 20
-309.3999999999996
 30
0.0
 11
187.3999999999923
 21
-254.4700823171333
 31
0.0
  0
LINE
  5
2726
330
2D0A
100
AcDbEntity
  8
0
 62
     0
100
AcDbLine
 10
-82.49556570923777
 20
-434.3999999999996
 30
0.0
 11
105.0049130778206
 21
-309.3999999999996
 31
0.0
  0
LINE
  5
2727
330
2D0A
100
AcDbEntity
  8
0
 62
     0
100
AcDbLine
 10
100.5049517839361
 20
-309.4000000000014
 30
0.0
 11
187.3999999999923
 21
-251.4701157817181
 31
0.0
  0
LINE
  5
2728
330
2D0A
100
AcDbEntity
  8
0
 62
     0
100
AcDbLine
 10
-86.99552700312235
 20
-434.4000000000014
 30
0.0
 11
100.5049517839361
 21
-309.4000000000014
 31
0.0
  0
LINE
  5
2729
330
2D0A
100
AcDbEntity
  8
0
 62
     0
100
AcDbLine
 10
96.00499049004977
 20
-309.4000000000014
 30
0.0
 11
187.3999999999923
 21
-248.4701492463009
 31
0.0
  0
LINE
  5
272A
330
2D0A
100
AcDbEntity
  8
0
 62
     0
100
AcDbLine
 10
-91.49548829701052
 20
-434.4000000000014
 30
0.0
 11
96.00499049004977
 21
-309.4000000000014
 31
0.0
  0
LINE
  5
272B
330
2D0A
100
AcDbEntity
  8
0
 62
     0
100
AcDbLine
 10
91.50502919616698
 20
-309.4000000000014
 30
0.0
 11
187.3999999999923
 21
-245.4701827108875
 31
0.0
  0
LINE
  5
272C
330
2D0A
100
AcDbEntity
  8
0
 62
     0
100
AcDbLine
 10
-95.99544959089142
 20
-434.4000000000014
 30
0.0
 11
91.50502919616698
 21
-309.4000000000014
 31
0.0
  0
LINE
  5
272D
330
2D0A
100
AcDbEntity
  8
0
 62
     0
100
AcDbLine
 10
87.00506790228244
 20
-309.3999999999978
 30
0.0
 11
187.3999999999923
 21
-242.4702161754685
 31
0.0
  0
LINE
  5
272E
330
2D0A
100
AcDbEntity
  8
0
 62
     0
100
AcDbLine
 10
-100.4954108847796
 20
-434.3999999999996
 30
0.0
 11
87.00506790227699
 21
-309.4000000000032
 31
0.0
  0
LINE
  5
272F
330
2D0A
100
AcDbEntity
  8
0
 62
     0
100
AcDbLine
 10
82.50510660839244
 20
-309.4000000000014
 30
0.0
 11
187.3999999999923
 21
-239.4702496400532
 31
0.0
  0
LINE
  5
2730
330
2D0A
100
AcDbEntity
  8
0
 62
     0
100
AcDbLine
 10
-104.9953721786642
 20
-434.3999999999996
 30
0.0
 11
82.50510660839244
 21
-309.4000000000014
 31
0.0
  0
LINE
  5
2731
330
2D0A
100
AcDbEntity
  8
0
 62
     0
100
AcDbLine
 10
78.0051453145097
 20
-309.3999999999996
 30
0.0
 11
187.3999999999923
 21
-236.4702831046361
 31
0.0
  0
LINE
  5
2732
330
2D0A
100
AcDbEntity
  8
0
 62
     0
100
AcDbLine
 10
-109.4953334725524
 20
-434.4000000000014
 30
0.0
 11
78.0051453145079
 21
-309.4000000000014
 31
0.0
  0
LINE
  5
2733
330
2D0A
100
AcDbEntity
  8
0
 62
     0
100
AcDbLine
 10
73.50518402062334
 20
-309.3999999999996
 30
0.0
 11
187.3999999999923
 21
-233.4703165692189
 31
0.0
  0
LINE
  5
2734
330
2D0A
100
AcDbEntity
  8
0
 62
     0
100
AcDbLine
 10
-113.995294766435
 20
-434.3999999999996
 30
0.0
 11
73.50518402062334
 21
-309.3999999999996
 31
0.0
  0
LINE
  5
2735
330
2D0A
100
AcDbEntity
  8
0
 62
     0
100
AcDbLine
 10
69.00522272673697
 20
-309.4000000000014
 30
0.0
 11
187.3999999999904
 21
-230.4703500338054
 31
0.0
  0
LINE
  5
2736
330
2D0A
100
AcDbEntity
  8
0
 62
     0
100
AcDbLine
 10
-118.4952560603233
 20
-434.4000000000014
 30
0.0
 11
69.00522272673334
 21
-309.4000000000032
 31
0.0
  0
LINE
  5
2737
330
2D0A
100
AcDbEntity
  8
0
 62
     0
100
AcDbLine
 10
64.5052614328506
 20
-309.4000000000014
 30
0.0
 11
187.3999999999923
 21
-227.4703834983866
 31
0.0
  0
LINE
  5
2738
330
2D0A
100
AcDbEntity
  8
0
 62
     0
100
AcDbLine
 10
-122.9952173542042
 20
-434.3999999999978
 30
0.0
 11
64.5052614328506
 21
-309.4000000000014
 31
0.0
  0
LINE
  5
2739
330
2D0A
100
AcDbEntity
  8
0
 62
     0
100
AcDbLine
 10
60.00530013896604
 20
-309.4000000000014
 30
0.0
 11
187.3999999999923
 21
-224.4704169629731
 31
0.0
  0
LINE
  5
273A
330
2D0A
100
AcDbEntity
  8
0
 62
     0
100
AcDbLine
 10
-127.4951786480942
 20
-434.4000000000014
 30
0.0
 11
60.00530013896604
 21
-309.4000000000014
 31
0.0
  0
LINE
  5
273B
330
2D0A
100
AcDbEntity
  8
0
 62
     0
100
AcDbLine
 10
55.50533884508149
 20
-309.3999999999996
 30
0.0
 11
187.3999999999923
 21
-221.4704504275541
 31
0.0
  0
LINE
  5
273C
330
2D0A
100
AcDbEntity
  8
0
 62
     0
100
AcDbLine
 10
-131.9951399419769
 20
-434.3999999999996
 30
0.0
 11
55.50533884508149
 21
-309.3999999999996
 31
0.0
  0
LINE
  5
273D
330
2D0A
100
AcDbEntity
  8
0
 62
     0
100
AcDbLine
 10
51.00537755119147
 20
-309.4000000000032
 30
0.0
 11
187.3999999999904
 21
-218.4704838921407
 31
0.0
  0
LINE
  5
273E
330
2D0A
100
AcDbEntity
  8
0
 62
     0
100
AcDbLine
 10
-136.495101235865
 20
-434.4000000000014
 30
0.0
 11
51.00537755119147
 21
-309.4000000000032
 31
0.0
  0
LINE
  5
273F
330
2D0A
100
AcDbEntity
  8
0
 62
     0
100
AcDbLine
 10
46.50541625730875
 20
-309.4000000000014
 30
0.0
 11
187.3999999999923
 21
-215.4705173567236
 31
0.0
  0
LINE
  5
2740
330
2D0A
100
AcDbEntity
  8
0
 62
     0
100
AcDbLine
 10
-140.9950625297496
 20
-434.4000000000014
 30
0.0
 11
46.50541625730875
 21
-309.4000000000014
 31
0.0
  0
LINE
  5
2741
330
2D0A
100
AcDbEntity
  8
0
 62
     0
100
AcDbLine
 10
42.0054549634242
 20
-309.4000000000014
 30
0.0
 11
187.3999999999904
 21
-212.4705508213083
 31
0.0
  0
LINE
  5
2742
330
2D0A
100
AcDbEntity
  8
0
 62
     0
100
AcDbLine
 10
-145.4950238236342
 20
-434.3999999999996
 30
0.0
 11
42.00545496342239
 21
-309.4000000000032
 31
0.0
  0
LINE
  5
2743
330
2D0A
100
AcDbEntity
  8
0
 62
     0
100
AcDbLine
 10
37.50549366953783
 20
-309.3999999999996
 30
0.0
 11
187.3999999999884
 21
-209.470584285893
 31
0.0
  0
LINE
  5
2744
330
2D0A
100
AcDbEntity
  8
0
 62
     0
100
AcDbLine
 10
-149.9949851175206
 20
-434.3999999999996
 30
0.0
 11
37.50549366953419
 21
-309.4000000000032
 31
0.0
  0
LINE
  5
2745
330
2D0A
100
AcDbEntity
  8
0
 62
     0
100
AcDbLine
 10
33.00553237565328
 20
-309.4000000000014
 30
0.0
 11
187.3999999999904
 21
-206.4706177504759
 31
0.0
  0
LINE
  5
2746
330
2D0A
100
AcDbEntity
  8
0
 62
     0
100
AcDbLine
 10
-154.4949464114033
 20
-434.3999999999996
 30
0.0
 11
33.00553237564964
 21
-309.4000000000032
 31
0.0
  0
LINE
  5
2747
330
2D0A
100
AcDbEntity
  8
0
 62
     0
100
AcDbLine
 10
28.50557108176508
 20
-309.4000000000014
 30
0.0
 11
187.3999999999884
 21
-203.4706512150606
 31
0.0
  0
LINE
  5
2748
330
2D0A
100
AcDbEntity
  8
0
 62
     0
100
AcDbLine
 10
-158.9949077052933
 20
-434.4000000000014
 30
0.0
 11
28.50557108176508
 21
-309.4000000000014
 31
0.0
  0
LINE
  5
2749
330
2D0A
100
AcDbEntity
  8
0
 62
     0
100
AcDbLine
 10
24.00560978788053
 20
-309.4000000000032
 30
0.0
 11
187.3999999999904
 21
-200.4706846796453
 31
0.0
  0
LINE
  5
274A
330
2D0A
100
AcDbEntity
  8
0
 62
     0
100
AcDbLine
 10
-163.4948689991761
 20
-434.4000000000014
 30
0.0
 11
24.00560978788053
 21
-309.4000000000032
 31
0.0
  0
LINE
  5
274B
330
2D0A
100
AcDbEntity
  8
0
 62
     0
100
AcDbLine
 10
19.50564849399233
 20
-309.4000000000032
 30
0.0
 11
187.3999999999884
 21
-197.4707181442281
 31
0.0
  0
LINE
  5
274C
330
2D0A
100
AcDbEntity
  8
0
 62
     0
100
AcDbLine
 10
-167.9948302930625
 20
-434.3999999999996
 30
0.0
 11
19.50564849399233
 21
-309.4000000000032
 31
0.0
  0
LINE
  5
274D
330
2D0A
100
AcDbEntity
  8
0
 62
     0
100
AcDbLine
 10
15.00568720010778
 20
-309.4000000000032
 30
0.0
 11
187.3999999999904
 21
-194.470751608811
 31
0.0
  0
LINE
  5
274E
330
2D0A
100
AcDbEntity
  8
0
 62
     0
100
AcDbLine
 10
-172.4947915869452
 20
-434.3999999999978
 30
0.0
 11
15.00568720010778
 21
-309.4000000000032
 31
0.0
  0
LINE
  5
274F
330
2D0A
100
AcDbEntity
  8
0
 62
     0
100
AcDbLine
 10
10.50572590622687
 20
-309.3999999999996
 30
0.0
 11
187.3999999999884
 21
-191.4707850733957
 31
0.0
  0
LINE
  5
2750
330
2D0A
100
AcDbEntity
  8
0
 62
     0
100
AcDbLine
 10
-176.9947528808352
 20
-434.4000000000014
 30
0.0
 11
10.50572590622323
 21
-309.4000000000014
 31
0.0
  0
LINE
  5
2751
330
2D0A
100
AcDbEntity
  8
0
 62
     0
100
AcDbLine
 10
6.005764612340499
 20
-309.3999999999996
 30
0.0
 11
187.3999999999884
 21
-188.4708185379786
 31
0.0
  0
LINE
  5
2752
330
2D0A
100
AcDbEntity
  8
0
 62
     0
100
AcDbLine
 10
-181.4947141747198
 20
-434.3999999999996
 30
0.0
 11
6.00576461233686
 21
-309.4000000000014
 31
0.0
  0
LINE
  5
2753
330
2D0A
100
AcDbEntity
  8
0
 62
     0
100
AcDbLine
 10
1.505803318454127
 20
-309.4000000000014
 30
0.0
 11
187.3999999999884
 21
-185.4708520025651
 31
0.0
  0
LINE
  5
2754
330
2D0A
100
AcDbEntity
  8
0
 62
     0
100
AcDbLine
 10
-185.9946754686043
 20
-434.4000000000014
 30
0.0
 11
1.505803318450489
 21
-309.4000000000032
 31
0.0
  0
LINE
  5
2755
330
2D0A
100
AcDbEntity
  8
0
 62
     0
100
AcDbLine
 10
-2.99415797543224
 20
-309.4000000000014
 30
0.0
 11
187.3999999999884
 21
-182.4708854671461
 31
0.0
  0
LINE
  5
2756
330
2D0A
100
AcDbEntity
  8
0
 62
     0
100
AcDbLine
 10
-187.4000000000032
 20
-432.3369140931625
 30
0.0
 11
-2.99415797543224
 21
-309.4000000000014
 31
0.0
  0
LINE
  5
2757
330
2D0A
100
AcDbEntity
  8
0
 62
     0
100
AcDbLine
 10
-7.494119269318614
 20
-309.4000000000032
 30
0.0
 11
187.3999999999904
 21
-179.4709189317309
 31
0.0
  0
LINE
  5
2758
330
2D0A
100
AcDbEntity
  8
0
 62
     0
100
AcDbLine
 10
-187.4000000000032
 20
-429.336947557747
 30
0.0
 11
-7.494119269318614
 21
-309.4000000000032
 31
0.0
  0
LINE
  5
2759
330
2D0A
100
AcDbEntity
  8
0
 62
     0
100
AcDbLine
 10
-11.99408056320499
 20
-309.4000000000014
 30
0.0
 11
187.3999999999884
 21
-176.4709523963138
 31
0.0
  0
LINE
  5
275A
330
2D0A
100
AcDbEntity
  8
0
 62
     0
100
AcDbLine
 10
-187.4000000000032
 20
-426.3369810223298
 30
0.0
 11
-11.99408056320499
 21
-309.4000000000014
 31
0.0
  0
LINE
  5
275B
330
2D0A
100
AcDbEntity
  8
0
 62
     0
100
AcDbLine
 10
-16.49404185709136
 20
-309.4000000000032
 30
0.0
 11
187.3999999999904
 21
-173.4709858608985
 31
0.0
  0
LINE
  5
275C
330
2D0A
100
AcDbEntity
  8
0
 62
     0
100
AcDbLine
 10
-187.4000000000014
 20
-423.3370144869131
 30
0.0
 11
-16.49404185709136
 21
-309.4000000000032
 31
0.0
  0
LINE
  5
275D
330
2D0A
100
AcDbEntity
  8
0
 62
     0
100
AcDbLine
 10
-20.99400315097228
 20
-309.3999999999996
 30
0.0
 11
187.3999999999884
 21
-170.4710193254832
 31
0.0
  0
LINE
  5
275E
330
2D0A
100
AcDbEntity
  8
0
 62
     0
100
AcDbLine
 10
-187.4000000000032
 20
-420.3370479514976
 30
0.0
 11
-20.9940031509741
 21
-309.4000000000014
 31
0.0
  0
LINE
  5
275F
330
2D0A
100
AcDbEntity
  8
0
 62
     0
100
AcDbLine
 10
-25.49396444486229
 20
-309.4000000000032
 30
0.0
 11
187.3999999999884
 21
-167.4710527900661
 31
0.0
  0
LINE
  5
2760
330
2D0A
100
AcDbEntity
  8
0
 62
     0
100
AcDbLine
 10
-187.4000000000032
 20
-417.3370814160807
 30
0.0
 11
-25.49396444486229
 21
-309.4000000000032
 31
0.0
  0
LINE
  5
2761
330
2D0A
100
AcDbEntity
  8
0
 62
     0
100
AcDbLine
 10
-28.40000000000511
 20
-308.3373855542597
 30
0.0
 11
187.3999999999884
 21
-164.4710862546508
 31
0.0
  0
LINE
  5
2762
330
2D0A
100
AcDbEntity
  8
0
 62
     0
100
AcDbLine
 10
-187.4000000000032
 20
-414.3371148806655
 30
0.0
 11
-28.40000000000511
 21
-308.3373855542597
 31
0.0
  0
LINE
  5
2763
330
2D0A
100
AcDbEntity
  8
0
 62
     0
100
AcDbLine
 10
-28.40000000000691
 20
-305.337419018846
 30
0.0
 11
187.3999999999884
 21
-161.4711197192337
 31
0.0
  0
LINE
  5
2764
330
2D0A
100
AcDbEntity
  8
0
 62
     0
100
AcDbLine
 10
-187.4000000000032
 20
-411.3371483452501
 30
0.0
 11
-28.40000000000691
 21
-305.337419018846
 31
0.0
  0
LINE
  5
2765
330
2D0A
100
AcDbEntity
  8
0
 62
     0
100
AcDbLine
 10
-28.40000000000691
 20
-302.3374524834289
 30
0.0
 11
187.3999999999869
 21
-158.4711531838184
 31
0.0
  0
LINE
  5
2766
330
2D0A
100
AcDbEntity
  8
0
 62
     0
100
AcDbLine
 10
-187.4000000000051
 20
-408.337181809833
 30
0.0
 11
-28.40000000000691
 21
-302.3374524834289
 31
0.0
  0
LINE
  5
2767
330
2D0A
100
AcDbEntity
  8
0
 62
     0
100
AcDbLine
 10
-28.40000000000511
 20
-299.33748594801
 30
0.0
 11
187.3999999999884
 21
-155.4711866484012
 31
0.0
  0
LINE
  5
2768
330
2D0A
100
AcDbEntity
  8
0
 62
     0
100
AcDbLine
 10
-187.4000000000032
 20
-405.3372152744159
 30
0.0
 11
-28.40000000000691
 21
-299.3374859480118
 31
0.0
  0
LINE
  5
2769
330
2D0A
100
AcDbEntity
  8
0
 62
     0
100
AcDbLine
 10
-28.40000000000511
 20
-296.3375194125965
 30
0.0
 11
187.3999999999884
 21
-152.4712201129859
 31
0.0
  0
LINE
  5
276A
330
2D0A
100
AcDbEntity
  8
0
 62
     0
100
AcDbLine
 10
-187.4000000000032
 20
-402.3372487390024
 30
0.0
 11
-28.40000000000511
 21
-296.3375194125965
 31
0.0
  0
LINE
  5
276B
330
2D0A
100
AcDbEntity
  8
0
 62
     0
100
AcDbLine
 10
-28.40000000000691
 20
-293.3375528771794
 30
0.0
 11
187.3999999999884
 21
-149.4712535775688
 31
0.0
  0
LINE
  5
276C
330
2D0A
100
AcDbEntity
  8
0
 62
     0
100
AcDbLine
 10
-187.4000000000032
 20
-399.3372822035835
 30
0.0
 11
-28.40000000000691
 21
-293.3375528771794
 31
0.0
  0
LINE
  5
276D
330
2D0A
100
AcDbEntity
  8
0
 62
     0
100
AcDbLine
 10
-28.40000000000691
 20
-290.337586341764
 30
0.0
 11
187.3999999999904
 21
-146.4712870421517
 31
0.0
  0
LINE
  5
276E
330
2D0A
100
AcDbEntity
  8
0
 62
     0
100
AcDbLine
 10
-187.4000000000051
 20
-396.3373156681701
 30
0.0
 11
-28.40000000000691
 21
-290.337586341764
 31
0.0
  0
LINE
  5
276F
330
2D0A
100
AcDbEntity
  8
0
 62
     0
100
AcDbLine
 10
-28.40000000000511
 20
-287.3376198063452
 30
0.0
 11
187.3999999999884
 21
-143.4713205067364
 31
0.0
  0
LINE
  5
2770
330
2D0A
100
AcDbEntity
  8
0
 62
     0
100
AcDbLine
 10
-187.4000000000032
 20
-393.3373491327512
 30
0.0
 11
-28.40000000000511
 21
-287.3376198063452
 31
0.0
  0
LINE
  5
2771
330
2D0A
100
AcDbEntity
  8
0
 62
     0
100
AcDbLine
 10
-28.40000000000691
 20
-284.3376532709317
 30
0.0
 11
187.3999999999884
 21
-140.4713539713193
 31
0.0
  0
LINE
  5
2772
330
2D0A
100
AcDbEntity
  8
0
 62
     0
100
AcDbLine
 10
-187.4000000000014
 20
-390.3373825973358
 30
0.0
 11
-28.40000000000691
 21
-284.3376532709317
 31
0.0
  0
LINE
  5
2773
330
2D0A
100
AcDbEntity
  8
0
 62
     0
100
AcDbLine
 10
-28.40000000000691
 20
-281.3376867355146
 30
0.0
 11
187.3999999999869
 21
-137.471387435904
 31
0.0
  0
LINE
  5
2774
330
2D0A
100
AcDbEntity
  8
0
 62
     0
100
AcDbLine
 10
-187.4000000000051
 20
-387.3374160619205
 30
0.0
 11
-28.40000000000691
 21
-281.3376867355146
 31
0.0
  0
LINE
  5
2775
330
2D0A
100
AcDbEntity
  8
0
 62
     0
100
AcDbLine
 10
-28.40000000000691
 20
-278.3377202000993
 30
0.0
 11
187.3999999999884
 21
-134.4714209004887
 31
0.0
  0
LINE
  5
2776
330
2D0A
100
AcDbEntity
  8
0
 62
     0
100
AcDbLine
 10
-187.4000000000014
 20
-384.3374495265034
 30
0.0
 11
-28.40000000000691
 21
-278.3377202000993
 31
0.0
  0
LINE
  5
2777
330
2D0A
100
AcDbEntity
  8
0
 62
     0
100
AcDbLine
 10
-28.40000000000691
 20
-275.3377536646822
 30
0.0
 11
187.3999999999869
 21
-131.4714543650716
 31
0.0
  0
LINE
  5
2778
330
2D0A
100
AcDbEntity
  8
0
 62
     0
100
AcDbLine
 10
-187.4000000000051
 20
-381.337482991088
 30
0.0
 11
-28.40000000000691
 21
-275.3377536646822
 31
0.0
  0
LINE
  5
2779
330
2D0A
100
AcDbEntity
  8
0
 62
     0
100
AcDbLine
 10
-28.40000000000691
 20
-272.3377871292687
 30
0.0
 11
187.3999999999884
 21
-128.4714878296563
 31
0.0
  0
LINE
  5
277A
330
2D0A
100
AcDbEntity
  8
0
 62
     0
100
AcDbLine
 10
-187.4000000000014
 20
-378.3375164556709
 30
0.0
 11
-28.40000000000691
 21
-272.3377871292687
 31
0.0
  0
LINE
  5
277B
330
2D0A
100
AcDbEntity
  8
0
 62
     0
100
AcDbLine
 10
-28.40000000000691
 20
-269.3378205938497
 30
0.0
 11
187.3999999999904
 21
-125.4715212942374
 31
0.0
  0
LINE
  5
277C
330
2D0A
100
AcDbEntity
  8
0
 62
     0
100
AcDbLine
 10
-187.4000000000051
 20
-375.3375499202556
 30
0.0
 11
-28.40000000000691
 21
-269.3378205938497
 31
0.0
  0
LINE
  5
277D
330
2D0A
100
AcDbEntity
  8
0
 62
     0
100
AcDbLine
 10
-28.40000000000328
 20
-266.3378540584345
 30
0.0
 11
187.3999999999884
 21
-122.4715547588239
 31
0.0
  0
LINE
  5
277E
330
2D0A
100
AcDbEntity
  8
0
 62
     0
100
AcDbLine
 10
-187.4000000000014
 20
-372.3375833848386
 30
0.0
 11
-28.40000000000691
 21
-266.3378540584363
 31
0.0
  0
LINE
  5
277F
330
2D0A
100
AcDbEntity
  8
0
 62
     0
100
AcDbLine
 10
-28.40000000000691
 20
-263.3378875230174
 30
0.0
 11
187.3999999999904
 21
-119.4715882234068
 31
0.0
  0
LINE
  5
2780
330
2D0A
100
AcDbEntity
  8
0
 62
     0
100
AcDbLine
 10
-187.4000000000051
 20
-369.3376168494233
 30
0.0
 11
-28.40000000000691
 21
-263.3378875230174
 31
0.0
  0
LINE
  5
2781
330
2D0A
100
AcDbEntity
  8
0
 62
     0
100
AcDbLine
 10
-28.40000000000511
 20
-260.3379209876002
 30
0.0
 11
187.3999999999869
 21
-116.4716216879897
 31
0.0
  0
LINE
  5
2782
330
2D0A
100
AcDbEntity
  8
0
 62
     0
100
AcDbLine
 10
-187.4000000000032
 20
-366.3376503140063
 30
0.0
 11
-28.40000000000511
 21
-260.3379209876002
 31
0.0
  0
LINE
  5
2783
330
2D0A
100
AcDbEntity
  8
0
 62
     0
100
AcDbLine
 10
-28.40000000000691
 20
-257.3379544521849
 30
0.0
 11
184.2074745766567
 21
-115.6000000000022
 31
0.0
  0
LINE
  5
2784
330
2D0A
100
AcDbEntity
  8
0
 62
     0
100
AcDbLine
 10
-187.4000000000051
 20
-363.3376837785909
 30
0.0
 11
-28.40000000000691
 21
-257.3379544521849
 31
0.0
  0
LINE
  5
2785
330
2D0A
100
AcDbEntity
  8
0
 62
     0
100
AcDbLine
 10
-28.40000000000511
 20
-254.3379879167678
 30
0.0
 11
179.7075132827704
 21
-115.6000000000022
 31
0.0
  0
LINE
  5
2786
330
2D0A
100
AcDbEntity
  8
0
 62
     0
100
AcDbLine
 10
-187.4000000000032
 20
-360.3377172431738
 30
0.0
 11
-28.40000000000511
 21
-254.3379879167678
 31
0.0
  0
LINE
  5
2787
330
2D0A
100
AcDbEntity
  8
0
 62
     0
100
AcDbLine
 10
-28.40000000000873
 20
-251.3380213813543
 30
0.0
 11
175.2075519888822
 21
-115.6000000000022
 31
0.0
  0
LINE
  5
2788
330
2D0A
100
AcDbEntity
  8
0
 62
     0
100
AcDbLine
 10
-187.4000000000032
 20
-357.3377507077566
 30
0.0
 11
-28.40000000000873
 21
-251.3380213813543
 31
0.0
  0
LINE
  5
2789
330
2D0A
100
AcDbEntity
  8
0
 62
     0
100
AcDbLine
 10
-28.40000000000511
 20
-248.3380548459354
 30
0.0
 11
170.7075906949994
 21
-115.6000000000003
 31
0.0
  0
LINE
  5
278A
330
2D0A
100
AcDbEntity
  8
0
 62
     0
100
AcDbLine
 10
-187.4000000000068
 20
-354.3377841723432
 30
0.0
 11
-28.40000000000511
 21
-248.3380548459354
 31
0.0
  0
LINE
  5
278B
330
2D0A
100
AcDbEntity
  8
0
 62
     0
100
AcDbLine
 10
-28.40000000000328
 20
-245.3380883105201
 30
0.0
 11
166.2076294011149
 21
-115.6000000000022
 31
0.0
  0
LINE
  5
278C
330
2D0A
100
AcDbEntity
  8
0
 62
     0
100
AcDbLine
 10
-187.4000000000051
 20
-351.3378176369279
 30
0.0
 11
-28.40000000000328
 21
-245.3380883105201
 31
0.0
  0
LINE
  5
278D
330
2D0A
100
AcDbEntity
  8
0
 62
     0
100
AcDbLine
 10
-28.40000000000511
 20
-242.338121775103
 30
0.0
 11
161.7076681072285
 21
-115.6000000000022
 31
0.0
  0
LINE
  5
278E
330
2D0A
100
AcDbEntity
  8
0
 62
     0
100
AcDbLine
 10
-187.4000000000068
 20
-348.3378511015108
 30
0.0
 11
-28.40000000000511
 21
-242.338121775103
 31
0.0
  0
LINE
  5
278F
330
2D0A
100
AcDbEntity
  8
0
 62
     0
100
AcDbLine
 10
-28.40000000000511
 20
-239.3381552396877
 30
0.0
 11
157.2077068133438
 21
-115.6000000000022
 31
0.0
  0
LINE
  5
2790
330
2D0A
100
AcDbEntity
  8
0
 62
     0
100
AcDbLine
 10
-187.4000000000068
 20
-345.3378845660953
 30
0.0
 11
-28.40000000000511
 21
-239.3381552396877
 31
0.0
  0
LINE
  5
2791
330
2D0A
100
AcDbEntity
  8
0
 62
     0
100
AcDbLine
 10
-28.40000000000691
 20
-236.3381887042724
 30
0.0
 11
152.7077455194594
 21
-115.6000000000003
 31
0.0
  0
LINE
  5
2792
330
2D0A
100
AcDbEntity
  8
0
 62
     0
100
AcDbLine
 10
-187.4000000000068
 20
-342.3379180306802
 30
0.0
 11
-28.40000000000691
 21
-236.3381887042724
 31
0.0
  0
LINE
  5
2793
330
2D0A
100
AcDbEntity
  8
0
 62
     0
100
AcDbLine
 10
-28.40000000000511
 20
-233.3382221688553
 30
0.0
 11
148.2077842255712
 21
-115.6000000000022
 31
0.0
  0
LINE
  5
2794
330
2D0A
100
AcDbEntity
  8
0
 62
     0
100
AcDbLine
 10
-187.4000000000068
 20
-339.3379514952632
 30
0.0
 11
-28.40000000000511
 21
-233.3382221688553
 31
0.0
  0
LINE
  5
2795
330
2D0A
100
AcDbEntity
  8
0
 62
     0
100
AcDbLine
 10
-28.40000000000873
 20
-230.33825563344
 30
0.0
 11
143.7078229316848
 21
-115.6000000000022
 31
0.0
  0
LINE
  5
2796
330
2D0A
100
AcDbEntity
  8
0
 62
     0
100
AcDbLine
 10
-187.4000000000087
 20
-336.3379849598477
 30
0.0
 11
-28.40000000000873
 21
-230.33825563344
 31
0.0
  0
LINE
  5
2797
330
2D0A
100
AcDbEntity
  8
0
 62
     0
100
AcDbLine
 10
-28.40000000000511
 20
-227.3382890980229
 30
0.0
 11
139.2078616378021
 21
-115.6000000000022
 31
0.0
  0
LINE
  5
2798
330
2D0A
100
AcDbEntity
  8
0
 62
     0
100
AcDbLine
 10
-187.4000000000068
 20
-333.3380184244306
 30
0.0
 11
-28.40000000000511
 21
-227.3382890980229
 31
0.0
  0
LINE
  5
2799
330
2D0A
100
AcDbEntity
  8
0
 62
     0
100
AcDbLine
 10
-28.40000000000691
 20
-224.3383225626076
 30
0.0
 11
134.7079003439175
 21
-115.6000000000022
 31
0.0
  0
LINE
  5
279A
330
2D0A
100
AcDbEntity
  8
0
 62
     0
100
AcDbLine
 10
-187.4000000000032
 20
-330.3380518890135
 30
0.0
 11
-28.40000000000691
 21
-224.3383225626076
 31
0.0
  0
LINE
  5
279B
330
2D0A
100
AcDbEntity
  8
0
 62
     0
100
AcDbLine
 10
-28.40000000000511
 20
-221.3383560271923
 30
0.0
 11
130.2079390500294
 21
-115.6000000000022
 31
0.0
  0
LINE
  5
279C
330
2D0A
100
AcDbEntity
  8
0
 62
     0
100
AcDbLine
 10
-187.4000000000068
 20
-327.3380853536
 30
0.0
 11
-28.40000000000511
 21
-221.3383560271923
 31
0.0
  0
LINE
  5
279D
330
2D0A
100
AcDbEntity
  8
0
 62
     0
100
AcDbLine
 10
-28.40000000000873
 20
-218.3383894917751
 30
0.0
 11
125.707977756143
 21
-115.6000000000022
 31
0.0
  0
LINE
  5
279E
330
2D0A
100
AcDbEntity
  8
0
 62
     0
100
AcDbLine
 10
-187.4000000000051
 20
-324.3381188181811
 30
0.0
 11
-28.40000000000873
 21
-218.3383894917751
 31
0.0
  0
LINE
  5
279F
330
2D0A
100
AcDbEntity
  8
0
 62
     0
100
AcDbLine
 10
-28.40000000000511
 20
-215.338422956358
 30
0.0
 11
121.2080164622602
 21
-115.6000000000003
 31
0.0
  0
LINE
  5
27A0
330
2D0A
100
AcDbEntity
  8
0
 62
     0
100
AcDbLine
 10
-187.4000000000068
 20
-321.3381522827658
 30
0.0
 11
-28.40000000000511
 21
-215.338422956358
 31
0.0
  0
LINE
  5
27A1
330
2D0A
100
AcDbEntity
  8
0
 62
     0
100
AcDbLine
 10
-28.40000000000511
 20
-212.3384564209409
 30
0.0
 11
116.7080551683739
 21
-115.6000000000022
 31
0.0
  0
LINE
  5
27A2
330
2D0A
100
AcDbEntity
  8
0
 62
     0
100
AcDbLine
 10
-187.4000000000051
 20
-318.3381857473487
 30
0.0
 11
-28.40000000000511
 21
-212.3384564209409
 31
0.0
  0
LINE
  5
27A3
330
2D0A
100
AcDbEntity
  8
0
 62
     0
100
AcDbLine
 10
-28.40000000000691
 20
-209.3384898855256
 30
0.0
 11
112.2080938744857
 21
-115.6000000000022
 31
0.0
  0
LINE
  5
27A4
330
2D0A
100
AcDbEntity
  8
0
 62
     0
100
AcDbLine
 10
-187.4000000000087
 20
-315.3382192119334
 30
0.0
 11
-28.40000000000691
 21
-209.3384898855256
 31
0.0
  0
LINE
  5
27A5
330
2D0A
100
AcDbEntity
  8
0
 62
     0
100
AcDbLine
 10
-28.40000000000511
 20
-206.3385233501104
 30
0.0
 11
107.7081325806011
 21
-115.6000000000022
 31
0.0
  0
LINE
  5
27A6
330
2D0A
100
AcDbEntity
  8
0
 62
     0
100
AcDbLine
 10
-187.4000000000051
 20
-312.3382526765163
 30
0.0
 11
-28.40000000000511
 21
-206.3385233501104
 31
0.0
  0
LINE
  5
27A7
330
2D0A
100
AcDbEntity
  8
0
 62
     0
100
AcDbLine
 10
-28.40000000000511
 20
-203.3385568146932
 30
0.0
 11
103.2081712867184
 21
-115.6000000000003
 31
0.0
  0
LINE
  5
27A8
330
2D0A
100
AcDbEntity
  8
0
 62
     0
100
AcDbLine
 10
-187.4000000000032
 20
-309.3382861410991
 30
0.0
 11
-28.40000000000511
 21
-203.3385568146932
 31
0.0
  0
LINE
  5
27A9
330
2D0A
100
AcDbEntity
  8
0
 62
     0
100
AcDbLine
 10
-28.40000000000691
 20
-200.3385902792778
 30
0.0
 11
98.70820999283024
 21
-115.6000000000022
 31
0.0
  0
LINE
  5
27AA
330
2D0A
100
AcDbEntity
  8
0
 62
     0
100
AcDbLine
 10
-187.4000000000087
 20
-306.3383196056857
 30
0.0
 11
-28.40000000000691
 21
-200.3385902792778
 31
0.0
  0
LINE
  5
27AB
330
2D0A
100
AcDbEntity
  8
0
 62
     0
100
AcDbLine
 10
-28.40000000000691
 20
-197.3386237438608
 30
0.0
 11
94.20824869894387
 21
-115.6000000000022
 31
0.0
  0
LINE
  5
27AC
330
2D0A
100
AcDbEntity
  8
0
 62
     0
100
AcDbLine
 10
-187.4000000000051
 20
-303.3383530702668
 30
0.0
 11
-28.40000000000691
 21
-197.3386237438608
 31
0.0
  0
LINE
  5
27AD
330
2D0A
100
AcDbEntity
  8
0
 62
     0
100
AcDbLine
 10
-28.40000000000511
 20
-194.3386572084455
 30
0.0
 11
89.70828740506295
 21
-115.6000000000022
 31
0.0
  0
LINE
  5
27AE
330
2D0A
100
AcDbEntity
  8
0
 62
     0
100
AcDbLine
 10
-187.4000000000068
 20
-300.3383865348533
 30
0.0
 11
-28.40000000000511
 21
-194.3386572084455
 31
0.0
  0
LINE
  5
27AF
330
2D0A
100
AcDbEntity
  8
0
 62
     0
100
AcDbLine
 10
-28.40000000000511
 20
-191.3386906730266
 30
0.0
 11
85.20832611117475
 21
-115.6000000000003
 31
0.0
  0
LINE
  5
27B0
330
2D0A
100
AcDbEntity
  8
0
 62
     0
100
AcDbLine
 10
-187.4000000000051
 20
-297.3384199994344
 30
0.0
 11
-28.40000000000511
 21
-191.3386906730266
 31
0.0
  0
LINE
  5
27B1
330
2D0A
100
AcDbEntity
  8
0
 62
     0
100
AcDbLine
 10
-28.40000000000691
 20
-188.3387241376131
 30
0.0
 11
80.70836481728838
 21
-115.6000000000022
 31
0.0
  0
LINE
  5
27B2
330
2D0A
100
AcDbEntity
  8
0
 62
     0
100
AcDbLine
 10
-187.4000000000087
 20
-294.3384534640209
 30
0.0
 11
-28.40000000000691
 21
-188.3387241376131
 31
0.0
  0
LINE
  5
27B3
330
2D0A
100
AcDbEntity
  8
0
 62
     0
100
AcDbLine
 10
-28.40000000000511
 20
-185.338757602196
 30
0.0
 11
76.20840352340201
 21
-115.6000000000022
 31
0.0
  0
LINE
  5
27B4
330
2D0A
100
AcDbEntity
  8
0
 62
     0
100
AcDbLine
 10
-187.4000000000051
 20
-291.3384869286037
 30
0.0
 11
-28.40000000000511
 21
-185.338757602196
 31
0.0
  0
LINE
  5
27B5
330
2D0A
100
AcDbEntity
  8
0
 62
     0
100
AcDbLine
 10
-28.40000000000691
 20
-182.3387910667807
 30
0.0
 11
71.70844222951926
 21
-115.6000000000022
 31
0.0
  0
LINE
  5
27B6
330
2D0A
100
AcDbEntity
  8
0
 62
     0
100
AcDbLine
 10
-187.4000000000087
 20
-288.3385203931884
 30
0.0
 11
-28.40000000000691
 21
-182.3387910667807
 31
0.0
  0
LINE
  5
27B7
330
2D0A
100
AcDbEntity
  8
0
 62
     0
100
AcDbLine
 10
-28.40000000000691
 20
-179.3388245313636
 30
0.0
 11
67.20848093563109
 21
-115.6000000000022
 31
0.0
  0
LINE
  5
27B8
330
2D0A
100
AcDbEntity
  8
0
 62
     0
100
AcDbLine
 10
-187.4000000000068
 20
-285.3385538577713
 30
0.0
 11
-28.40000000000691
 21
-179.3388245313636
 31
0.0
  0
LINE
  5
27B9
330
2D0A
100
AcDbEntity
  8
0
 62
     0
100
AcDbLine
 10
-28.40000000000691
 20
-176.3388579959483
 30
0.0
 11
62.70851964174653
 21
-115.6000000000003
 31
0.0
  0
LINE
  5
27BA
330
2D0A
100
AcDbEntity
  8
0
 62
     0
100
AcDbLine
 10
-187.4000000000087
 20
-282.3385873223542
 30
0.0
 11
-28.40000000000691
 21
-176.3388579959483
 31
0.0
  0
LINE
  5
27BB
330
2D0A
100
AcDbEntity
  8
0
 62
     0
100
AcDbLine
 10
-28.40000000000511
 20
-173.3388914605311
 30
0.0
 11
58.20855834786016
 21
-115.6000000000022
 31
0.0
  0
LINE
  5
27BC
330
2D0A
100
AcDbEntity
  8
0
 62
     0
100
AcDbLine
 10
-187.4000000000051
 20
-279.3386207869389
 30
0.0
 11
-28.40000000000511
 21
-173.3388914605311
 31
0.0
  0
LINE
  5
27BD
330
2D0A
100
AcDbEntity
  8
0
 62
     0
100
AcDbLine
 10
-28.40000000000691
 20
-170.3389249251158
 30
0.0
 11
53.70859705397744
 21
-115.6000000000003
 31
0.0
  0
LINE
  5
27BE
330
2D0A
100
AcDbEntity
  8
0
 62
     0
100
AcDbLine
 10
-187.4000000000051
 20
-276.3386542515218
 30
0.0
 11
-28.40000000000691
 21
-170.3389249251158
 31
0.0
  0
LINE
  5
27BF
330
2D0A
100
AcDbEntity
  8
0
 62
     0
100
AcDbLine
 10
-28.40000000000691
 20
-167.3389583896987
 30
0.0
 11
49.20863576008922
 21
-115.6000000000022
 31
0.0
  0
LINE
  5
27C0
330
2D0A
100
AcDbEntity
  8
0
 62
     0
100
AcDbLine
 10
-187.4000000000068
 20
-273.3386877161064
 30
0.0
 11
-28.40000000000691
 21
-167.3389583896987
 31
0.0
  0
LINE
  5
27C1
330
2D0A
100
AcDbEntity
  8
0
 62
     0
100
AcDbLine
 10
-28.40000000000691
 20
-164.3389918542834
 30
0.0
 11
44.70867446620468
 21
-115.6000000000022
 31
0.0
  0
LINE
  5
27C2
330
2D0A
100
AcDbEntity
  8
0
 62
     0
100
AcDbLine
 10
-187.4000000000051
 20
-270.3387211806894
 30
0.0
 11
-28.40000000000691
 21
-164.3389918542834
 31
0.0
  0
LINE
  5
27C3
330
2D0A
100
AcDbEntity
  8
0
 62
     0
100
AcDbLine
 10
-28.40000000000691
 20
-161.3390253188663
 30
0.0
 11
40.20871317231649
 21
-115.600000000004
 31
0.0
  0
LINE
  5
27C4
330
2D0A
100
AcDbEntity
  8
0
 62
     0
100
AcDbLine
 10
-187.4000000000068
 20
-267.3387546452741
 30
0.0
 11
-28.40000000000691
 21
-161.3390253188663
 31
0.0
  0
LINE
  5
27C5
330
2D0A
100
AcDbEntity
  8
0
 62
     0
100
AcDbLine
 10
-28.40000000000511
 20
-158.3390587834492
 30
0.0
 11
35.70875187843376
 21
-115.6000000000003
 31
0.0
  0
LINE
  5
27C6
330
2D0A
100
AcDbEntity
  8
0
 62
     0
100
AcDbLine
 10
-187.4000000000068
 20
-264.338788109857
 30
0.0
 11
-28.40000000000511
 21
-158.3390587834492
 31
0.0
  0
LINE
  5
27C7
330
2D0A
100
AcDbEntity
  8
0
 62
     0
100
AcDbLine
 10
-28.40000000000691
 20
-155.3390922480357
 30
0.0
 11
31.20879058454557
 21
-115.600000000004
 31
0.0
  0
LINE
  5
27C8
330
2D0A
100
AcDbEntity
  8
0
 62
     0
100
AcDbLine
 10
-187.4000000000068
 20
-261.3388215744435
 30
0.0
 11
-28.40000000000691
 21
-155.3390922480357
 31
0.0
  0
LINE
  5
27C9
330
2D0A
100
AcDbEntity
  8
0
 62
     0
100
AcDbLine
 10
-28.40000000000328
 20
-152.3391257126168
 30
0.0
 11
26.70882929066284
 21
-115.6000000000022
 31
0.0
  0
LINE
  5
27CA
330
2D0A
100
AcDbEntity
  8
0
 62
     0
100
AcDbLine
 10
-187.4000000000051
 20
-258.3388550390246
 30
0.0
 11
-28.40000000000328
 21
-152.3391257126168
 31
0.0
  0
LINE
  5
27CB
330
2D0A
100
AcDbEntity
  8
0
 62
     0
100
AcDbLine
 10
-28.40000000000873
 20
-149.3391591772033
 30
0.0
 11
22.20886799677282
 21
-115.600000000004
 31
0.0
  0
LINE
  5
27CC
330
2D0A
100
AcDbEntity
  8
0
 62
     0
100
AcDbLine
 10
-187.4000000000087
 20
-255.3388885036111
 30
0.0
 11
-28.40000000000873
 21
-149.3391591772033
 31
0.0
  0
LINE
  5
27CD
330
2D0A
100
AcDbEntity
  8
0
 62
     0
100
AcDbLine
 10
-28.40000000000511
 20
-146.3391926417844
 30
0.0
 11
17.7089067028919
 21
-115.6000000000003
 31
0.0
  0
LINE
  5
27CE
330
2D0A
100
AcDbEntity
  8
0
 62
     0
100
AcDbLine
 10
-187.4000000000068
 20
-252.3389219681921
 30
0.0
 11
-28.40000000000511
 21
-146.3391926417844
 31
0.0
  0
LINE
  5
27CF
330
2D0A
100
AcDbEntity
  8
0
 62
     0
100
AcDbLine
 10
-28.40000000000691
 20
-143.3392261063708
 30
0.0
 11
13.20894540900553
 21
-115.6000000000022
 31
0.0
  0
LINE
  5
27D0
330
2D0A
100
AcDbEntity
  8
0
 62
     0
100
AcDbLine
 10
-187.4000000000068
 20
-249.3389554327787
 30
0.0
 11
-28.40000000000691
 21
-143.3392261063708
 31
0.0
  0
LINE
  5
27D1
330
2D0A
100
AcDbEntity
  8
0
 62
     0
100
AcDbLine
 10
-28.40000000000511
 20
-140.3392595709538
 30
0.0
 11
8.708984115119163
 21
-115.6000000000022
 31
0.0
  0
LINE
  5
27D2
330
2D0A
100
AcDbEntity
  8
0
 62
     0
100
AcDbLine
 10
-187.4000000000068
 20
-246.3389888973615
 30
0.0
 11
-28.40000000000511
 21
-140.3392595709538
 31
0.0
  0
LINE
  5
27D3
330
2D0A
100
AcDbEntity
  8
0
 62
     0
100
AcDbLine
 10
-28.40000000000511
 20
-137.3392930355348
 30
0.0
 11
4.209022821234611
 21
-115.6000000000003
 31
0.0
  0
LINE
  5
27D4
330
2D0A
100
AcDbEntity
  8
0
 62
     0
100
AcDbLine
 10
-187.4000000000068
 20
-243.3390223619426
 30
0.0
 11
-28.40000000000511
 21
-137.3392930355348
 31
0.0
  0
LINE
  5
27D5
330
2D0A
100
AcDbEntity
  8
0
 62
     0
100
AcDbLine
 10
-28.40000000000511
 20
-134.3393265001214
 30
0.0
 11
-0.2909384726535791
 21
-115.600000000004
 31
0.0
  0
LINE
  5
27D6
330
2D0A
100
AcDbEntity
  8
0
 62
     0
100
AcDbLine
 10
-187.4000000000068
 20
-240.3390558265292
 30
0.0
 11
-28.40000000000511
 21
-134.3393265001214
 31
0.0
  0
LINE
  5
27D7
330
2D0A
100
AcDbEntity
  8
0
 62
     0
100
AcDbLine
 10
-28.40000000000511
 20
-131.3393599647024
 30
0.0
 11
-4.790899766538132
 21
-115.6000000000003
 31
0.0
  0
LINE
  5
27D8
330
2D0A
100
AcDbEntity
  8
0
 62
     0
100
AcDbLine
 10
-187.4000000000068
 20
-237.3390892911102
 30
0.0
 11
-28.40000000000511
 21
-131.3393599647024
 31
0.0
  0
LINE
  5
27D9
330
2D0A
100
AcDbEntity
  8
0
 62
     0
100
AcDbLine
 10
-28.40000000000691
 20
-128.3393934292889
 30
0.0
 11
-9.290861060424504
 21
-115.6000000000022
 31
0.0
  0
LINE
  5
27DA
330
2D0A
100
AcDbEntity
  8
0
 62
     0
100
AcDbLine
 10
-187.4000000000087
 20
-234.3391227556967
 30
0.0
 11
-28.40000000000691
 21
-128.3393934292889
 31
0.0
  0
LINE
  5
27DB
330
2D0A
100
AcDbEntity
  8
0
 62
     0
100
AcDbLine
 10
-28.40000000000511
 20
-125.3394268938718
 30
0.0
 11
-13.79082235430724
 21
-115.6000000000003
 31
0.0
  0
LINE
  5
27DC
330
2D0A
100
AcDbEntity
  8
0
 62
     0
100
AcDbLine
 10
-187.4000000000068
 20
-231.3391562202796
 30
0.0
 11
-28.40000000000511
 21
-125.3394268938718
 31
0.0
  0
LINE
  5
27DD
330
2D0A
100
AcDbEntity
  8
0
 62
     0
100
AcDbLine
 10
-28.40000000000511
 20
-122.3394603584565
 30
0.0
 11
-18.2907836481954
 21
-115.600000000004
 31
0.0
  0
LINE
  5
27DE
330
2D0A
100
AcDbEntity
  8
0
 62
     0
100
AcDbLine
 10
-187.4000000000068
 20
-228.3391896848643
 30
0.0
 11
-28.40000000000511
 21
-122.3394603584565
 31
0.0
  0
LINE
  5
27DF
330
2D0A
100
AcDbEntity
  8
0
 62
     0
100
AcDbLine
 10
-28.40000000000511
 20
-119.3394938230394
 30
0.0
 11
-22.79074494207998
 21
-115.6000000000022
 31
0.0
  0
LINE
  5
27E0
330
2D0A
100
AcDbEntity
  8
0
 62
     0
100
AcDbLine
 10
-187.4000000000068
 20
-225.3392231494472
 30
0.0
 11
-28.40000000000511
 21
-119.3394938230394
 31
0.0
  0
LINE
  5
27E1
330
2D0A
100
AcDbEntity
  8
0
 62
     0
100
AcDbLine
 10
-28.40000000000873
 20
-116.3395272876241
 30
0.0
 11
-27.29070623596636
 21
-115.600000000004
 31
0.0
  0
LINE
  5
27E2
330
2D0A
100
AcDbEntity
  8
0
 62
     0
100
AcDbLine
 10
-187.4000000000087
 20
-222.3392566140319
 30
0.0
 11
-28.40000000000873
 21
-116.3395272876241
 31
0.0
  0
LINE
  5
27E3
330
2D0A
100
AcDbEntity
  8
0
 62
     0
100
AcDbLine
 10
-187.4000000000068
 20
-219.3392900786148
 30
0.0
 11
-31.79066752985091
 21
-115.6000000000022
 31
0.0
  0
LINE
  5
27E4
330
2D0A
100
AcDbEntity
  8
0
 62
     0
100
AcDbLine
 10
-187.4000000000087
 20
-216.3393235432013
 30
0.0
 11
-36.29062882373546
 21
-115.6000000000022
 31
0.0
  0
LINE
  5
27E5
330
2D0A
100
AcDbEntity
  8
0
 62
     0
100
AcDbLine
 10
-187.4000000000087
 20
-213.3393570077824
 30
0.0
 11
-40.79059011762365
 21
-115.6000000000022
 31
0.0
  0
LINE
  5
27E6
330
2D0A
100
AcDbEntity
  8
0
 62
     0
100
AcDbLine
 10
-187.4000000000051
 20
-210.3393904723672
 30
0.0
 11
-45.2905514115082
 21
-115.600000000004
 31
0.0
  0
LINE
  5
27E7
330
2D0A
100
AcDbEntity
  8
0
 62
     0
100
AcDbLine
 10
-187.4000000000068
 20
-207.33942393695
 30
0.0
 11
-49.79051270539276
 21
-115.600000000004
 31
0.0
  0
LINE
  5
27E8
330
2D0A
100
AcDbEntity
  8
0
 62
     0
100
AcDbLine
 10
-187.4000000000051
 20
-204.3394574015329
 30
0.0
 11
-54.29047399927732
 21
-115.6000000000003
 31
0.0
  0
LINE
  5
27E9
330
2D0A
100
AcDbEntity
  8
0
 62
     0
100
AcDbLine
 10
-187.4000000000087
 20
-201.3394908661194
 30
0.0
 11
-58.79043529316368
 21
-115.6000000000022
 31
0.0
  0
LINE
  5
27EA
330
2D0A
100
AcDbEntity
  8
0
 62
     0
100
AcDbLine
 10
-187.4000000000051
 20
-198.3395243307004
 30
0.0
 11
-63.2903965870464
 21
-115.6000000000003
 31
0.0
  0
LINE
  5
27EB
330
2D0A
100
AcDbEntity
  8
0
 62
     0
100
AcDbLine
 10
-187.4000000000087
 20
-195.3395577952869
 30
0.0
 11
-67.79035788093643
 21
-115.600000000004
 31
0.0
  0
LINE
  5
27EC
330
2D0A
100
AcDbEntity
  8
0
 62
     0
100
AcDbLine
 10
-187.4000000000105
 20
-192.3395912598697
 30
0.0
 11
-72.29031917482098
 21
-115.6000000000022
 31
0.0
  0
LINE
  5
27ED
330
2D0A
100
AcDbEntity
  8
0
 62
     0
100
AcDbLine
 10
-187.4000000000124
 20
-189.3396247244563
 30
0.0
 11
-76.79028046870555
 21
-115.6000000000022
 31
0.0
  0
LINE
  5
27EE
330
2D0A
100
AcDbEntity
  8
0
 62
     0
100
AcDbLine
 10
-187.4000000000087
 20
-186.3396581890392
 30
0.0
 11
-81.29024176259191
 21
-115.6000000000022
 31
0.0
  0
LINE
  5
27EF
330
2D0A
100
AcDbEntity
  8
0
 62
     0
100
AcDbLine
 10
-187.4000000000105
 20
-183.3396916536221
 30
0.0
 11
-85.79020305648009
 21
-115.600000000004
 31
0.0
  0
LINE
  5
27F0
330
2D0A
100
AcDbEntity
  8
0
 62
     0
100
AcDbLine
 10
-187.4000000000105
 20
-180.3397251182068
 30
0.0
 11
-90.29016435036281
 21
-115.6000000000022
 31
0.0
  0
LINE
  5
27F1
330
2D0A
100
AcDbEntity
  8
0
 62
     0
100
AcDbLine
 10
-187.4000000000087
 20
-177.3397585827897
 30
0.0
 11
-94.79012564424738
 21
-115.600000000004
 31
0.0
  0
LINE
  5
27F2
330
2D0A
100
AcDbEntity
  8
0
 62
     0
100
AcDbLine
 10
-187.4000000000105
 20
-174.3397920473744
 30
0.0
 11
-99.29008693813557
 21
-115.6000000000022
 31
0.0
  0
LINE
  5
27F3
330
2D0A
100
AcDbEntity
  8
0
 62
     0
100
AcDbLine
 10
-187.4000000000105
 20
-171.3398255119591
 30
0.0
 11
-103.7900482320201
 21
-115.6000000000022
 31
0.0
  0
LINE
  5
27F4
330
2D0A
100
AcDbEntity
  8
0
 62
     0
100
AcDbLine
 10
-187.4000000000105
 20
-168.339858976542
 30
0.0
 11
-108.2900095259047
 21
-115.6000000000022
 31
0.0
  0
LINE
  5
27F5
330
2D0A
100
AcDbEntity
  8
0
 62
     0
100
AcDbLine
 10
-187.4000000000105
 20
-165.3398924411249
 30
0.0
 11
-112.7899708197892
 21
-115.6000000000003
 31
0.0
  0
LINE
  5
27F6
330
2D0A
100
AcDbEntity
  8
0
 62
     0
100
AcDbLine
 10
-187.4000000000105
 20
-162.3399259057078
 30
0.0
 11
-117.2899321136792
 21
-115.600000000004
 31
0.0
  0
LINE
  5
27F7
330
2D0A
100
AcDbEntity
  8
0
 62
     0
100
AcDbLine
 10
-187.4000000000105
 20
-159.3399593702924
 30
0.0
 11
-121.7898934075601
 21
-115.6000000000003
 31
0.0
  0
LINE
  5
27F8
330
2D0A
100
AcDbEntity
  8
0
 62
     0
100
AcDbLine
 10
-187.4000000000087
 20
-156.3399928348772
 30
0.0
 11
-126.2898547014465
 21
-115.6000000000022
 31
0.0
  0
LINE
  5
27F9
330
2D0A
100
AcDbEntity
  8
0
 62
     0
100
AcDbLine
 10
-187.4000000000105
 20
-153.3400262994601
 30
0.0
 11
-130.7898159953329
 21
-115.6000000000022
 31
0.0
  0
LINE
  5
27FA
330
2D0A
100
AcDbEntity
  8
0
 62
     0
100
AcDbLine
 10
-187.4000000000105
 20
-150.3400597640448
 30
0.0
 11
-135.289777289221
 21
-115.600000000004
 31
0.0
  0
LINE
  5
27FB
330
2D0A
100
AcDbEntity
  8
0
 62
     0
100
AcDbLine
 10
-187.4000000000105
 20
-147.3400932286275
 30
0.0
 11
-139.789738583102
 21
-115.6000000000022
 31
0.0
  0
LINE
  5
27FC
330
2D0A
100
AcDbEntity
  8
0
 62
     0
100
AcDbLine
 10
-187.4000000000105
 20
-144.3401266932123
 30
0.0
 11
-144.2896998769902
 21
-115.6000000000022
 31
0.0
  0
LINE
  5
27FD
330
2D0A
100
AcDbEntity
  8
0
 62
     0
100
AcDbLine
 10
-187.4000000000124
 20
-141.340160157797
 30
0.0
 11
-148.7896611708765
 21
-115.6000000000022
 31
0.0
  0
LINE
  5
27FE
330
2D0A
100
AcDbEntity
  8
0
 62
     0
100
AcDbLine
 10
-187.4000000000105
 20
-138.3401936223799
 30
0.0
 11
-153.2896224647629
 21
-115.600000000004
 31
0.0
  0
LINE
  5
27FF
330
2D0A
100
AcDbEntity
  8
0
 62
     0
100
AcDbLine
 10
-187.4000000000105
 20
-135.3402270869646
 30
0.0
 11
-157.7895837586438
 21
-115.6000000000022
 31
0.0
  0
LINE
  5
2800
330
2D0A
100
AcDbEntity
  8
0
 62
     0
100
AcDbLine
 10
-187.4000000000124
 20
-132.3402605515475
 30
0.0
 11
-162.2895450525339
 21
-115.600000000004
 31
0.0
  0
LINE
  5
2801
330
2D0A
100
AcDbEntity
  8
0
 62
     0
100
AcDbLine
 10
-187.4000000000087
 20
-129.3402940161304
 30
0.0
 11
-166.7895063464184
 21
-115.6000000000022
 31
0.0
  0
LINE
  5
2802
330
2D0A
100
AcDbEntity
  8
0
 62
     0
100
AcDbLine
 10
-187.4000000000105
 20
-126.3403274807151
 30
0.0
 11
-171.2894676403011
 21
-115.6000000000003
 31
0.0
  0
LINE
  5
2803
330
2D0A
100
AcDbEntity
  8
0
 62
     0
100
AcDbLine
 10
-187.4000000000087
 20
-123.340360945298
 30
0.0
 11
-175.7894289341875
 21
-115.6000000000022
 31
0.0
  0
LINE
  5
2804
330
2D0A
100
AcDbEntity
  8
0
 62
     0
100
AcDbLine
 10
-187.4000000000124
 20
-120.3403944098827
 30
0.0
 11
-180.2893902280757
 21
-115.6000000000022
 31
0.0
  0
LINE
  5
2805
330
2D0A
100
AcDbEntity
  8
0
 62
     0
100
AcDbLine
 10
-187.4000000000087
 20
-117.3404278744656
 30
0.0
 11
-184.7893515219602
 21
-115.600000000004
 31
0.0
  0
ENDBLK
  5
2806
330
2D0A
100
AcDbEntity
  8
0
100
AcDbBlockEnd
  0
BLOCK
  5
2D0D
330
2D0C
100
AcDbEntity
  8
0
100
AcDbBlockBegin
  2
*X75
 70
     1
 10
0.0
 20
0.0
 30
0.0
  3
*X75
  1

  0
LINE
  5
2809
330
2D0C
100
AcDbEntity
  8
0
 62
     0
100
AcDbLine
 10
-187.399999999996
 20
-432.6143463832567
 30
0.0
 11
-184.7215127352956
 21
-434.4000000000014
 31
0.0
  0
LINE
  5
280A
330
2D0C
100
AcDbEntity
  8
0
 62
     0
100
AcDbLine
 10
-187.399999999996
 20
-429.6143798478396
 30
0.0
 11
-180.2215514414129
 21
-434.3999999999996
 31
0.0
  0
LINE
  5
280B
330
2D0C
100
AcDbEntity
  8
0
 62
     0
100
AcDbLine
 10
-187.3999999999977
 20
-426.6144133124217
 30
0.0
 11
-175.7215901475265
 21
-434.3999999999986
 31
0.0
  0
LINE
  5
280C
330
2D0C
100
AcDbEntity
  8
0
 62
     0
100
AcDbLine
 10
-187.399999999996
 20
-423.6144467770072
 30
0.0
 11
-171.2216288536401
 21
-434.4000000000005
 31
0.0
  0
LINE
  5
280D
330
2D0C
100
AcDbEntity
  8
0
 62
     0
100
AcDbLine
 10
-187.399999999996
 20
-420.6144802415897
 30
0.0
 11
-166.7216675597556
 21
-434.3999999999986
 31
0.0
  0
LINE
  5
280E
330
2D0C
100
AcDbEntity
  8
0
 62
     0
100
AcDbLine
 10
-187.3999999999977
 20
-417.6145137061748
 30
0.0
 11
-162.221706265871
 21
-434.3999999999996
 31
0.0
  0
LINE
  5
280F
330
2D0C
100
AcDbEntity
  8
0
 62
     0
100
AcDbLine
 10
-187.399999999996
 20
-414.6145471707574
 30
0.0
 11
-157.7217449719828
 21
-434.3999999999996
 31
0.0
  0
LINE
  5
2810
330
2D0C
100
AcDbEntity
  8
0
 62
     0
100
AcDbLine
 10
-187.399999999996
 20
-411.6145806353424
 30
0.0
 11
-153.2217836780964
 21
-434.4000000000005
 31
0.0
  0
LINE
  5
2811
330
2D0C
100
AcDbEntity
  8
0
 62
     0
100
AcDbLine
 10
-187.399999999996
 20
-408.6146140999251
 30
0.0
 11
-148.7218223842137
 21
-434.3999999999986
 31
0.0
  0
LINE
  5
2812
330
2D0C
100
AcDbEntity
  8
0
 62
     0
100
AcDbLine
 10
-187.3999999999977
 20
-405.6146475645089
 30
0.0
 11
-144.2218610903292
 21
-434.4000000000005
 31
0.0
  0
LINE
  5
2813
330
2D0C
100
AcDbEntity
  8
0
 62
     0
100
AcDbLine
 10
-187.3999999999977
 20
-402.6146810290929
 30
0.0
 11
-139.721899796441
 21
-434.3999999999996
 31
0.0
  0
LINE
  5
2814
330
2D0C
100
AcDbEntity
  8
0
 62
     0
100
AcDbLine
 10
-187.399999999996
 20
-399.6147144936776
 30
0.0
 11
-135.2219385025546
 21
-434.4000000000014
 31
0.0
  0
LINE
  5
2815
330
2D0C
100
AcDbEntity
  8
0
 62
     0
100
AcDbLine
 10
-187.3999999999977
 20
-396.6147479582605
 30
0.0
 11
-130.7219772086719
 21
-434.3999999999986
 31
0.0
  0
LINE
  5
2816
330
2D0C
100
AcDbEntity
  8
0
 62
     0
100
AcDbLine
 10
-187.399999999996
 20
-393.6147814228452
 30
0.0
 11
-126.2220159147855
 21
-434.4000000000005
 31
0.0
  0
LINE
  5
2817
330
2D0C
100
AcDbEntity
  8
0
 62
     0
100
AcDbLine
 10
-187.399999999996
 20
-390.614814887428
 30
0.0
 11
-121.7220546208973
 21
-434.4000000000005
 31
0.0
  0
LINE
  5
2818
330
2D0C
100
AcDbEntity
  8
0
 62
     0
100
AcDbLine
 10
-187.399999999996
 20
-387.6148483520119
 30
0.0
 11
-117.2220933270127
 21
-434.3999999999996
 31
0.0
  0
LINE
  5
2819
330
2D0C
100
AcDbEntity
  8
0
 62
     0
100
AcDbLine
 10
-187.3999999999977
 20
-384.6148818165966
 30
0.0
 11
-112.72213203313
 21
-434.3999999999996
 31
0.0
  0
LINE
  5
281A
330
2D0C
100
AcDbEntity
  8
0
 62
     0
100
AcDbLine
 10
-187.3999999999942
 20
-381.6149152811794
 30
0.0
 11
-108.2221707392418
 21
-434.3999999999986
 31
0.0
  0
LINE
  5
281B
330
2D0C
100
AcDbEntity
  8
0
 62
     0
100
AcDbLine
 10
-187.3999999999977
 20
-378.6149487457632
 30
0.0
 11
-103.7222094453555
 21
-434.4000000000005
 31
0.0
  0
LINE
  5
281C
330
2D0C
100
AcDbEntity
  8
0
 62
     0
100
AcDbLine
 10
-187.3999999999977
 20
-375.6149822103462
 30
0.0
 11
-99.22224815147458
 21
-434.3999999999986
 31
0.0
  0
LINE
  5
281D
330
2D0C
100
AcDbEntity
  8
0
 62
     0
100
AcDbLine
 10
-187.3999999999977
 20
-372.6150156749317
 30
0.0
 11
-94.72228685758636
 21
-434.3999999999996
 31
0.0
  0
LINE
  5
281E
330
2D0C
100
AcDbEntity
  8
0
 62
     0
100
AcDbLine
 10
-187.399999999996
 20
-369.6150491395148
 30
0.0
 11
-90.2223255637018
 21
-434.3999999999978
 31
0.0
  0
LINE
  5
281F
330
2D0C
100
AcDbEntity
  8
0
 62
     0
100
AcDbLine
 10
-187.3999999999977
 20
-366.6150826040994
 30
0.0
 11
-85.72236426981362
 21
-434.4000000000014
 31
0.0
  0
LINE
  5
2820
330
2D0C
100
AcDbEntity
  8
0
 62
     0
100
AcDbLine
 10
-187.399999999996
 20
-363.6151160686822
 30
0.0
 11
-81.22240297593091
 21
-434.3999999999986
 31
0.0
  0
LINE
  5
2821
330
2D0C
100
AcDbEntity
  8
0
 62
     0
100
AcDbLine
 10
-187.399999999996
 20
-360.6151495332671
 30
0.0
 11
-76.7224416820427
 21
-434.4000000000005
 31
0.0
  0
LINE
  5
2822
330
2D0C
100
AcDbEntity
  8
0
 62
     0
100
AcDbLine
 10
-187.3999999999977
 20
-357.6151829978489
 30
0.0
 11
-72.22248038815997
 21
-434.3999999999978
 31
0.0
  0
LINE
  5
2823
330
2D0C
100
AcDbEntity
  8
0
 62
     0
100
AcDbLine
 10
-187.4000000000014
 20
-354.6152164624318
 30
0.0
 11
-67.72251909427179
 21
-434.4000000000014
 31
0.0
  0
LINE
  5
2824
330
2D0C
100
AcDbEntity
  8
0
 62
     0
100
AcDbLine
 10
-187.4000000000014
 20
-351.6152499270156
 30
0.0
 11
-63.22255780038904
 21
-434.3999999999986
 31
0.0
  0
LINE
  5
2825
330
2D0C
100
AcDbEntity
  8
0
 62
     0
100
AcDbLine
 10
-187.3999999999996
 20
-348.6152833915985
 30
0.0
 11
-58.72259650650086
 21
-434.3999999999986
 31
0.0
  0
LINE
  5
2826
330
2D0C
100
AcDbEntity
  8
0
 62
     0
100
AcDbLine
 10
-187.3999999999996
 20
-345.6153168561832
 30
0.0
 11
-54.2226352126163
 21
-434.4000000000005
 31
0.0
  0
LINE
  5
2827
330
2D0C
100
AcDbEntity
  8
0
 62
     0
100
AcDbLine
 10
-187.3999999999996
 20
-342.6153503207661
 30
0.0
 11
-49.72267391872811
 21
-434.3999999999996
 31
0.0
  0
LINE
  5
2828
330
2D0C
100
AcDbEntity
  8
0
 62
     0
100
AcDbLine
 10
-187.3999999999977
 20
-339.6153837853508
 30
0.0
 11
-45.22271262484537
 21
-434.3999999999996
 31
0.0
  0
LINE
  5
2829
330
2D0C
100
AcDbEntity
  8
0
 62
     0
100
AcDbLine
 10
-187.4000000000014
 20
-336.6154172499337
 30
0.0
 11
-40.72275133095899
 21
-434.3999999999996
 31
0.0
  0
LINE
  5
282A
330
2D0C
100
AcDbEntity
  8
0
 62
     0
100
AcDbLine
 10
-187.3999999999996
 20
-333.6154507145192
 30
0.0
 11
-36.22279003707447
 21
-434.4000000000005
 31
0.0
  0
LINE
  5
282B
330
2D0C
100
AcDbEntity
  8
0
 62
     0
100
AcDbLine
 10
-187.4000000000014
 20
-330.6154841791013
 30
0.0
 11
-31.7228287431899
 21
-434.3999999999986
 31
0.0
  0
LINE
  5
282C
330
2D0C
100
AcDbEntity
  8
0
 62
     0
100
AcDbLine
 10
-187.3999999999996
 20
-327.6155176436859
 30
0.0
 11
-27.22286744930352
 21
-434.3999999999996
 31
0.0
  0
LINE
  5
282D
330
2D0C
100
AcDbEntity
  8
0
 62
     0
100
AcDbLine
 10
-187.4000000000014
 20
-324.6155511082688
 30
0.0
 11
-22.72290615542079
 21
-434.3999999999978
 31
0.0
  0
LINE
  5
282E
330
2D0C
100
AcDbEntity
  8
0
 62
     0
100
AcDbLine
 10
-187.3999999999996
 20
-321.6155845728545
 30
0.0
 11
-18.22294486153078
 21
-434.4000000000014
 31
0.0
  0
LINE
  5
282F
330
2D0C
100
AcDbEntity
  8
0
 62
     0
100
AcDbLine
 10
-187.3999999999996
 20
-318.6156180374374
 30
0.0
 11
-13.72298356764622
 21
-434.3999999999986
 31
0.0
  0
LINE
  5
2830
330
2D0C
100
AcDbEntity
  8
0
 62
     0
100
AcDbLine
 10
-187.3999999999996
 20
-315.615651502022
 30
0.0
 11
-9.223022273761671
 21
-434.4000000000005
 31
0.0
  0
LINE
  5
2831
330
2D0C
100
AcDbEntity
  8
0
 62
     0
100
AcDbLine
 10
-187.4000000000014
 20
-312.6156849666049
 30
0.0
 11
-4.723060979878937
 21
-434.3999999999978
 31
0.0
  0
LINE
  5
2832
330
2D0C
100
AcDbEntity
  8
0
 62
     0
100
AcDbLine
 10
-187.3999999999996
 20
-309.6157184311869
 30
0.0
 11
-0.2230996859871084
 21
-434.3999999999996
 31
0.0
  0
LINE
  5
2833
330
2D0C
100
AcDbEntity
  8
0
 62
     0
100
AcDbLine
 10
-187.3999999999996
 20
-306.6157518957734
 30
0.0
 11
4.276861607895622
 21
-434.3999999999986
 31
0.0
  0
LINE
  5
2834
330
2D0C
100
AcDbEntity
  8
0
 62
     0
100
AcDbLine
 10
-187.4000000000014
 20
-303.6157853603554
 30
0.0
 11
8.776822901780176
 21
-434.3999999999986
 31
0.0
  0
LINE
  5
2835
330
2D0C
100
AcDbEntity
  8
0
 62
     0
100
AcDbLine
 10
-187.4000000000014
 20
-300.6158188249401
 30
0.0
 11
13.27678419566837
 21
-434.4000000000005
 31
0.0
  0
LINE
  5
2836
330
2D0C
100
AcDbEntity
  8
0
 62
     0
100
AcDbLine
 10
-187.3999999999996
 20
-297.6158522895229
 30
0.0
 11
17.7767454895511
 21
-434.3999999999978
 31
0.0
  0
LINE
  5
2837
330
2D0C
100
AcDbEntity
  8
0
 62
     0
100
AcDbLine
 10
-187.4000000000014
 20
-294.6158857541077
 30
0.0
 11
22.27670678343748
 21
-434.3999999999996
 31
0.0
  0
LINE
  5
2838
330
2D0C
100
AcDbEntity
  8
0
 62
     0
100
AcDbLine
 10
-187.3999999999996
 20
-291.6159192186906
 30
0.0
 11
26.77666807732022
 21
-434.3999999999968
 31
0.0
  0
LINE
  5
2839
330
2D0C
100
AcDbEntity
  8
0
 62
     0
100
AcDbLine
 10
-187.3999999999996
 20
-288.6159526832753
 30
0.0
 11
31.27662937121022
 21
-434.4000000000005
 31
0.0
  0
LINE
  5
283A
330
2D0C
100
AcDbEntity
  8
0
 62
     0
100
AcDbLine
 10
-187.3999999999996
 20
-285.6159861478591
 30
0.0
 11
35.77659066509295
 21
-434.3999999999986
 31
0.0
  0
LINE
  5
283B
330
2D0C
100
AcDbEntity
  8
0
 62
     0
100
AcDbLine
 10
-187.4000000000014
 20
-282.6160196124429
 30
0.0
 11
40.2765519589793
 21
-434.3999999999996
 31
0.0
  0
LINE
  5
283C
330
2D0C
100
AcDbEntity
  8
0
 62
     0
100
AcDbLine
 10
-187.4000000000014
 20
-279.6160530770257
 30
0.0
 11
44.77651325286568
 21
-434.3999999999996
 31
0.0
  0
LINE
  5
283D
330
2D0C
100
AcDbEntity
  8
0
 62
     0
100
AcDbLine
 10
-187.3999999999996
 20
-276.6160865416105
 30
0.0
 11
49.27647454675207
 21
-434.4000000000014
 31
0.0
  0
LINE
  5
283E
330
2D0C
100
AcDbEntity
  8
0
 62
     0
100
AcDbLine
 10
-187.4000000000014
 20
-273.6161200061943
 30
0.0
 11
53.77643584063481
 21
-434.3999999999986
 31
0.0
  0
LINE
  5
283F
330
2D0C
100
AcDbEntity
  8
0
 62
     0
100
AcDbLine
 10
-187.3999999999996
 20
-270.6161534707789
 30
0.0
 11
58.27639713452297
 21
-434.4000000000005
 31
0.0
  0
LINE
  5
2840
330
2D0C
100
AcDbEntity
  8
0
 62
     0
100
AcDbLine
 10
-187.3999999999996
 20
-267.6161869353617
 30
0.0
 11
62.7763584284057
 21
-434.3999999999978
 31
0.0
  0
LINE
  5
2841
330
2D0C
100
AcDbEntity
  8
0
 62
     0
100
AcDbLine
 10
-187.3999999999996
 20
-264.6162203999447
 30
0.0
 11
67.27631972229392
 21
-434.3999999999996
 31
0.0
  0
LINE
  5
2842
330
2D0C
100
AcDbEntity
  8
0
 62
     0
100
AcDbLine
 10
-187.4000000000032
 20
-261.6162538645284
 30
0.0
 11
71.77628101617665
 21
-434.3999999999996
 31
0.0
  0
LINE
  5
2843
330
2D0C
100
AcDbEntity
  8
0
 62
     0
100
AcDbLine
 10
-187.3999999999996
 20
-258.6162873291114
 30
0.0
 11
76.27624231006665
 21
-434.3999999999986
 31
0.0
  0
LINE
  5
2844
330
2D0C
100
AcDbEntity
  8
0
 62
     0
100
AcDbLine
 10
-187.4000000000014
 20
-255.616320793697
 30
0.0
 11
80.77620360395121
 21
-434.4000000000005
 31
0.0
  0
LINE
  5
2845
330
2D0C
100
AcDbEntity
  8
0
 62
     0
100
AcDbLine
 10
-187.4000000000014
 20
-252.6163542582799
 30
0.0
 11
85.27616489783577
 21
-434.4000000000005
 31
0.0
  0
LINE
  5
2846
330
2D0C
100
AcDbEntity
  8
0
 62
     0
100
AcDbLine
 10
-187.4000000000014
 20
-249.6163877228646
 30
0.0
 11
89.77612619172035
 21
-434.3999999999996
 31
0.0
  0
LINE
  5
2847
330
2D0C
100
AcDbEntity
  8
0
 62
     0
100
AcDbLine
 10
-187.3999999999996
 20
-246.6164211874474
 30
0.0
 11
94.2760874856067
 21
-434.3999999999996
 31
0.0
  0
LINE
  5
2848
330
2D0C
100
AcDbEntity
  8
0
 62
     0
100
AcDbLine
 10
-187.4000000000014
 20
-243.6164546520322
 30
0.0
 11
98.77604877949307
 21
-434.4000000000005
 31
0.0
  0
LINE
  5
2849
330
2D0C
100
AcDbEntity
  8
0
 62
     0
100
AcDbLine
 10
-187.3999999999996
 20
-240.616488116616
 30
0.0
 11
103.2760100733776
 21
-434.3999999999986
 31
0.0
  0
LINE
  5
284A
330
2D0C
100
AcDbEntity
  8
0
 62
     0
100
AcDbLine
 10
-187.3999999999996
 20
-237.6165215812007
 30
0.0
 11
107.775971367264
 21
-434.3999999999996
 31
0.0
  0
LINE
  5
284B
330
2D0C
100
AcDbEntity
  8
0
 62
     0
100
AcDbLine
 10
-187.4000000000014
 20
-234.6165550457826
 30
0.0
 11
112.2759326611467
 21
-434.3999999999978
 31
0.0
  0
LINE
  5
284C
330
2D0C
100
AcDbEntity
  8
0
 62
     0
100
AcDbLine
 10
-187.4000000000014
 20
-231.6165885103674
 30
0.0
 11
116.7758939550349
 21
-434.4000000000014
 31
0.0
  0
LINE
  5
284D
330
2D0C
100
AcDbEntity
  8
0
 62
     0
100
AcDbLine
 10
-187.4000000000014
 20
-228.6166219749503
 30
0.0
 11
121.2758552489194
 21
-434.3999999999986
 31
0.0
  0
LINE
  5
284E
330
2D0C
100
AcDbEntity
  8
0
 62
     0
100
AcDbLine
 10
-187.3999999999996
 20
-225.6166554395341
 30
0.0
 11
125.7758165428058
 21
-434.3999999999986
 31
0.0
  0
LINE
  5
284F
330
2D0C
100
AcDbEntity
  8
0
 62
     0
100
AcDbLine
 10
-187.4000000000014
 20
-222.6166889041187
 30
0.0
 11
130.2757778366904
 21
-434.4000000000005
 31
0.0
  0
LINE
  5
2850
330
2D0C
100
AcDbEntity
  8
0
 62
     0
100
AcDbLine
 10
-187.4000000000014
 20
-219.6167223687007
 30
0.0
 11
134.7757391305786
 21
-434.3999999999996
 31
0.0
  0
LINE
  5
2851
330
2D0C
100
AcDbEntity
  8
0
 62
     0
100
AcDbLine
 10
-187.3999999999996
 20
-216.6167558332863
 30
0.0
 11
139.2757004244631
 21
-434.3999999999996
 31
0.0
  0
LINE
  5
2852
330
2D0C
100
AcDbEntity
  8
0
 62
     0
100
AcDbLine
 10
-187.4000000000014
 20
-213.6167892978683
 30
0.0
 11
143.7756617183477
 21
-434.3999999999986
 31
0.0
  0
LINE
  5
2853
330
2D0C
100
AcDbEntity
  8
0
 62
     0
100
AcDbLine
 10
-187.4000000000032
 20
-210.616822762453
 30
0.0
 11
148.2756230122322
 21
-434.4000000000005
 31
0.0
  0
LINE
  5
2854
330
2D0C
100
AcDbEntity
  8
0
 62
     0
100
AcDbLine
 10
-187.4000000000014
 20
-207.6168562270368
 30
0.0
 11
152.7755843061204
 21
-434.4000000000005
 31
0.0
  0
LINE
  5
2855
330
2D0C
100
AcDbEntity
  8
0
 62
     0
100
AcDbLine
 10
-187.4000000000014
 20
-204.6168896916215
 30
0.0
 11
157.2755456000031
 21
-434.3999999999996
 31
0.0
  0
LINE
  5
2856
330
2D0C
100
AcDbEntity
  8
0
 62
     0
100
AcDbLine
 10
-28.40000000000145
 20
-307.6166524826121
 30
0.0
 11
-25.72497189317073
 21
-309.3999999999987
 31
0.0
  0
LINE
  5
2857
330
2D0C
100
AcDbEntity
  8
0
 62
     0
100
AcDbLine
 10
-25.72497189317073
 20
-309.3999999999987
 30
0.0
 11
161.7755068938895
 21
-434.3999999999996
 31
0.0
  0
LINE
  5
2858
330
2D0C
100
AcDbEntity
  8
0
 62
     0
100
AcDbLine
 10
-187.4000000000014
 20
-201.6169231562044
 30
0.0
 11
-28.40000000000145
 21
-307.6166524826121
 31
0.0
  0
LINE
  5
2859
330
2D0C
100
AcDbEntity
  8
0
 62
     0
100
AcDbLine
 10
-28.39999999999964
 20
-304.6166859471969
 30
0.0
 11
-21.22501059928436
 21
-309.4000000000006
 31
0.0
  0
LINE
  5
285A
330
2D0C
100
AcDbEntity
  8
0
 62
     0
100
AcDbLine
 10
-21.22501059928436
 20
-309.4000000000006
 30
0.0
 11
166.2754681877759
 21
-434.4000000000005
 31
0.0
  0
LINE
  5
285B
330
2D0C
100
AcDbEntity
  8
0
 62
     0
100
AcDbLine
 10
-187.4000000000014
 20
-198.6169566207891
 30
0.0
 11
-28.39999999999964
 21
-304.6166859471969
 31
0.0
  0
LINE
  5
285C
330
2D0C
100
AcDbEntity
  8
0
 62
     0
100
AcDbLine
 10
-28.39999999999964
 20
-301.6167194117798
 30
0.0
 11
-16.72504930539617
 21
-309.3999999999996
 31
0.0
  0
LINE
  5
285D
330
2D0C
100
AcDbEntity
  8
0
 62
     0
100
AcDbLine
 10
-16.72504930539617
 20
-309.3999999999996
 30
0.0
 11
170.7754294816604
 21
-434.3999999999986
 31
0.0
  0
LINE
  5
285E
330
2D0C
100
AcDbEntity
  8
0
 62
     0
100
AcDbLine
 10
-187.3999999999996
 20
-195.6169900853729
 30
0.0
 11
-28.39999999999964
 21
-301.6167194117798
 31
0.0
  0
LINE
  5
285F
330
2D0C
100
AcDbEntity
  8
0
 62
     0
100
AcDbLine
 10
-28.39999999999964
 20
-298.6167528763654
 30
0.0
 11
-12.22508801151162
 21
-309.4000000000014
 31
0.0
  0
LINE
  5
2860
330
2D0C
100
AcDbEntity
  8
0
 62
     0
100
AcDbLine
 10
-12.22508801151162
 20
-309.4000000000014
 30
0.0
 11
175.275390775545
 21
-434.3999999999996
 31
0.0
  0
LINE
  5
2861
330
2D0C
100
AcDbEntity
  8
0
 62
     0
100
AcDbLine
 10
-187.4000000000051
 20
-192.6170235499539
 30
0.0
 11
-28.39999999999964
 21
-298.6167528763654
 31
0.0
  0
LINE
  5
2862
330
2D0C
100
AcDbEntity
  8
0
 62
     0
100
AcDbLine
 10
-28.39999999999964
 20
-295.6167863409482
 30
0.0
 11
-7.725126717628882
 21
-309.3999999999987
 31
0.0
  0
LINE
  5
2863
330
2D0C
100
AcDbEntity
  8
0
 62
     0
100
AcDbLine
 10
-7.725126717628882
 20
-309.3999999999987
 30
0.0
 11
179.7753520694277
 21
-434.3999999999978
 31
0.0
  0
LINE
  5
2864
330
2D0C
100
AcDbEntity
  8
0
 62
     0
100
AcDbLine
 10
-187.4000000000051
 20
-189.6170570145386
 30
0.0
 11
-28.39999999999964
 21
-295.6167863409482
 31
0.0
  0
LINE
  5
2865
330
2D0C
100
AcDbEntity
  8
0
 62
     0
100
AcDbLine
 10
-28.39999999999964
 20
-292.6168198055302
 30
0.0
 11
-3.225165423740691
 21
-309.3999999999987
 31
0.0
  0
LINE
  5
2866
330
2D0C
100
AcDbEntity
  8
0
 62
     0
100
AcDbLine
 10
-3.225165423740691
 20
-309.3999999999987
 30
0.0
 11
184.2753133633196
 21
-434.3999999999996
 31
0.0
  0
LINE
  5
2867
330
2D0C
100
AcDbEntity
  8
0
 62
     0
100
AcDbLine
 10
-187.4000000000032
 20
-186.6170904791206
 30
0.0
 11
-28.39999999999964
 21
-292.6168198055302
 31
0.0
  0
LINE
  5
2868
330
2D0C
100
AcDbEntity
  8
0
 62
     0
100
AcDbLine
 10
-28.39999999999964
 20
-289.6168532701149
 30
0.0
 11
1.27479587014568
 21
-309.4000000000006
 31
0.0
  0
LINE
  5
2869
330
2D0C
100
AcDbEntity
  8
0
 62
     0
100
AcDbLine
 10
1.27479587014568
 20
-309.4000000000006
 30
0.0
 11
187.3999999999977
 21
-433.483152569727
 31
0.0
  0
LINE
  5
286A
330
2D0C
100
AcDbEntity
  8
0
 62
     0
100
AcDbLine
 10
-187.4000000000051
 20
-183.6171239437053
 30
0.0
 11
-28.39999999999964
 21
-289.6168532701149
 31
0.0
  0
LINE
  5
286B
330
2D0C
100
AcDbEntity
  8
0
 62
     0
100
AcDbLine
 10
-28.40000000000145
 20
-286.6168867346978
 30
0.0
 11
5.774757164030233
 21
-309.3999999999996
 31
0.0
  0
LINE
  5
286C
330
2D0C
100
AcDbEntity
  8
0
 62
     0
100
AcDbLine
 10
5.774757164030233
 20
-309.3999999999996
 30
0.0
 11
187.399999999996
 21
-430.4831860343098
 31
0.0
  0
LINE
  5
286D
330
2D0C
100
AcDbEntity
  8
0
 62
     0
100
AcDbLine
 10
-187.4000000000051
 20
-180.617157408288
 30
0.0
 11
-28.40000000000145
 21
-286.6168867346978
 31
0.0
  0
LINE
  5
286E
330
2D0C
100
AcDbEntity
  8
0
 62
     0
100
AcDbLine
 10
-28.39999999999964
 20
-283.6169201992825
 30
0.0
 11
10.27471845791478
 21
-309.3999999999996
 31
0.0
  0
LINE
  5
286F
330
2D0C
100
AcDbEntity
  8
0
 62
     0
100
AcDbLine
 10
10.27471845791478
 20
-309.3999999999996
 30
0.0
 11
187.3999999999977
 21
-427.4832194988957
 31
0.0
  0
LINE
  5
2870
330
2D0C
100
AcDbEntity
  8
0
 62
     0
100
AcDbLine
 10
-187.4000000000051
 20
-177.6171908728729
 30
0.0
 11
-28.39999999999964
 21
-283.6169201992825
 31
0.0
  0
LINE
  5
2871
330
2D0C
100
AcDbEntity
  8
0
 62
     0
100
AcDbLine
 10
-28.39999999999964
 20
-280.6169536638663
 30
0.0
 11
14.77467975180116
 21
-309.3999999999987
 31
0.0
  0
LINE
  5
2872
330
2D0C
100
AcDbEntity
  8
0
 62
     0
100
AcDbLine
 10
14.77467975180116
 20
-309.3999999999987
 30
0.0
 11
187.3999999999977
 21
-424.4832529634776
 31
0.0
  0
LINE
  5
2873
330
2D0C
100
AcDbEntity
  8
0
 62
     0
100
AcDbLine
 10
-187.4000000000032
 20
-174.6172243374567
 30
0.0
 11
-28.39999999999964
 21
-280.6169536638663
 31
0.0
  0
LINE
  5
2874
330
2D0C
100
AcDbEntity
  8
0
 62
     0
100
AcDbLine
 10
-28.39999999999964
 20
-277.616987128451
 30
0.0
 11
19.27464104568753
 21
-309.4000000000006
 31
0.0
  0
LINE
  5
2875
330
2D0C
100
AcDbEntity
  8
0
 62
     0
100
AcDbLine
 10
19.27464104568753
 20
-309.4000000000006
 30
0.0
 11
187.399999999996
 21
-421.4832864280622
 31
0.0
  0
LINE
  5
2876
330
2D0C
100
AcDbEntity
  8
0
 62
     0
100
AcDbLine
 10
-187.4000000000032
 20
-171.6172578020414
 30
0.0
 11
-28.39999999999964
 21
-277.616987128451
 31
0.0
  0
LINE
  5
2877
330
2D0C
100
AcDbEntity
  8
0
 62
     0
100
AcDbLine
 10
-28.39999999999964
 20
-274.6170205930339
 30
0.0
 11
23.77460233957389
 21
-309.4000000000006
 31
0.0
  0
LINE
  5
2878
330
2D0C
100
AcDbEntity
  8
0
 62
     0
100
AcDbLine
 10
23.77460233957389
 20
-309.4000000000006
 30
0.0
 11
187.3999999999977
 21
-418.4833198926453
 31
0.0
  0
LINE
  5
2879
330
2D0C
100
AcDbEntity
  8
0
 62
     0
100
AcDbLine
 10
-187.4000000000032
 20
-168.6172912666243
 30
0.0
 11
-28.39999999999964
 21
-274.6170205930339
 31
0.0
  0
LINE
  5
287A
330
2D0C
100
AcDbEntity
  8
0
 62
     0
100
AcDbLine
 10
-28.39999999999782
 20
-271.6170540576186
 30
0.0
 11
28.27456363345845
 21
-309.3999999999996
 31
0.0
  0
LINE
  5
287B
330
2D0C
100
AcDbEntity
  8
0
 62
     0
100
AcDbLine
 10
28.27456363345845
 20
-309.3999999999996
 30
0.0
 11
187.3999999999977
 21
-415.4833533572309
 31
0.0
  0
LINE
  5
287C
330
2D0C
100
AcDbEntity
  8
0
 62
     0
100
AcDbLine
 10
-187.4000000000032
 20
-165.6173247312081
 30
0.0
 11
-28.39999999999782
 21
-271.6170540576186
 31
0.0
  0
LINE
  5
287D
330
2D0C
100
AcDbEntity
  8
0
 62
     0
100
AcDbLine
 10
-28.39999999999964
 20
-268.6170875222015
 30
0.0
 11
32.77452492734301
 21
-309.3999999999996
 31
0.0
  0
LINE
  5
287E
330
2D0C
100
AcDbEntity
  8
0
 62
     0
100
AcDbLine
 10
32.77452492734301
 20
-309.3999999999996
 30
0.0
 11
187.3999999999977
 21
-412.4833868218137
 31
0.0
  0
LINE
  5
287F
330
2D0C
100
AcDbEntity
  8
0
 62
     0
100
AcDbLine
 10
-187.4000000000032
 20
-162.6173581957918
 30
0.0
 11
-28.39999999999964
 21
-268.6170875222015
 31
0.0
  0
LINE
  5
2880
330
2D0C
100
AcDbEntity
  8
0
 62
     0
100
AcDbLine
 10
-28.40000000000145
 20
-265.6171209867862
 30
0.0
 11
37.27448622122756
 21
-309.4000000000014
 31
0.0
  0
LINE
  5
2881
330
2D0C
100
AcDbEntity
  8
0
 62
     0
100
AcDbLine
 10
37.27448622122756
 20
-309.4000000000014
 30
0.0
 11
187.399999999996
 21
-409.4834202863983
 31
0.0
  0
LINE
  5
2882
330
2D0C
100
AcDbEntity
  8
0
 62
     0
100
AcDbLine
 10
-187.4000000000051
 20
-159.6173916603757
 30
0.0
 11
-28.40000000000145
 21
-265.6171209867862
 31
0.0
  0
LINE
  5
2883
330
2D0C
100
AcDbEntity
  8
0
 62
     0
100
AcDbLine
 10
-28.40000000000145
 20
-262.6171544513691
 30
0.0
 11
41.77444751511209
 21
-309.3999999999987
 31
0.0
  0
LINE
  5
2884
330
2D0C
100
AcDbEntity
  8
0
 62
     0
100
AcDbLine
 10
41.77444751511209
 20
-309.3999999999987
 30
0.0
 11
187.3999999999977
 21
-406.4834537509814
 31
0.0
  0
LINE
  5
2885
330
2D0C
100
AcDbEntity
  8
0
 62
     0
100
AcDbLine
 10
-187.4000000000051
 20
-156.6174251249595
 30
0.0
 11
-28.40000000000145
 21
-262.6171544513691
 31
0.0
  0
LINE
  5
2886
330
2D0C
100
AcDbEntity
  8
0
 62
     0
100
AcDbLine
 10
-28.39999999999964
 20
-259.6171879159538
 30
0.0
 11
46.27440880900031
 21
-309.4000000000006
 31
0.0
  0
LINE
  5
2887
330
2D0C
100
AcDbEntity
  8
0
 62
     0
100
AcDbLine
 10
46.27440880900031
 20
-309.4000000000006
 30
0.0
 11
187.399999999996
 21
-403.4834872155649
 31
0.0
  0
LINE
  5
2888
330
2D0C
100
AcDbEntity
  8
0
 62
     0
100
AcDbLine
 10
-187.4000000000032
 20
-153.6174585895442
 30
0.0
 11
-28.39999999999964
 21
-259.6171879159538
 31
0.0
  0
LINE
  5
2889
330
2D0C
100
AcDbEntity
  8
0
 62
     0
100
AcDbLine
 10
-28.40000000000145
 20
-256.6172213805367
 30
0.0
 11
50.77437010288668
 21
-309.4000000000006
 31
0.0
  0
LINE
  5
288A
330
2D0C
100
AcDbEntity
  8
0
 62
     0
100
AcDbLine
 10
50.77437010288668
 20
-309.4000000000006
 30
0.0
 11
187.3999999999977
 21
-400.4835206801499
 31
0.0
  0
LINE
  5
288B
330
2D0C
100
AcDbEntity
  8
0
 62
     0
100
AcDbLine
 10
-187.4000000000051
 20
-150.617492054127
 30
0.0
 11
-28.40000000000145
 21
-256.6172213805367
 31
0.0
  0
LINE
  5
288C
330
2D0C
100
AcDbEntity
  8
0
 62
     0
100
AcDbLine
 10
-28.39999999999964
 20
-253.6172548451195
 30
0.0
 11
55.27433139677123
 21
-309.3999999999996
 31
0.0
  0
LINE
  5
288D
330
2D0C
100
AcDbEntity
  8
0
 62
     0
100
AcDbLine
 10
55.27433139677123
 20
-309.3999999999996
 30
0.0
 11
187.399999999996
 21
-397.4835541447319
 31
0.0
  0
LINE
  5
288E
330
2D0C
100
AcDbEntity
  8
0
 62
     0
100
AcDbLine
 10
-187.4000000000032
 20
-147.6175255187099
 30
0.0
 11
-28.39999999999964
 21
-253.6172548451195
 31
0.0
  0
LINE
  5
288F
330
2D0C
100
AcDbEntity
  8
0
 62
     0
100
AcDbLine
 10
-28.39999999999964
 20
-250.6172883097051
 30
0.0
 11
59.7742926906576
 21
-309.4000000000006
 31
0.0
  0
LINE
  5
2890
330
2D0C
100
AcDbEntity
  8
0
 62
     0
100
AcDbLine
 10
59.7742926906576
 20
-309.4000000000006
 30
0.0
 11
187.3999999999977
 21
-394.4835876093168
 31
0.0
  0
LINE
  5
2891
330
2D0C
100
AcDbEntity
  8
0
 62
     0
100
AcDbLine
 10
-187.4000000000051
 20
-144.6175589832937
 30
0.0
 11
-28.39999999999964
 21
-250.6172883097051
 31
0.0
  0
LINE
  5
2892
330
2D0C
100
AcDbEntity
  8
0
 62
     0
100
AcDbLine
 10
-28.39999999999964
 20
-247.617321774288
 30
0.0
 11
64.27425398454215
 21
-309.3999999999987
 31
0.0
  0
LINE
  5
2893
330
2D0C
100
AcDbEntity
  8
0
 62
     0
100
AcDbLine
 10
64.27425398454215
 20
-309.3999999999987
 30
0.0
 11
187.399999999996
 21
-391.4836210738995
 31
0.0
  0
LINE
  5
2894
330
2D0C
100
AcDbEntity
  8
0
 62
     0
100
AcDbLine
 10
-187.4000000000032
 20
-141.6175924478784
 30
0.0
 11
-28.39999999999964
 21
-247.617321774288
 31
0.0
  0
LINE
  5
2895
330
2D0C
100
AcDbEntity
  8
0
 62
     0
100
AcDbLine
 10
-28.40000000000145
 20
-244.6173552388728
 30
0.0
 11
68.7742152784267
 21
-309.4000000000006
 31
0.0
  0
LINE
  5
2896
330
2D0C
100
AcDbEntity
  8
0
 62
     0
100
AcDbLine
 10
68.7742152784267
 20
-309.4000000000006
 30
0.0
 11
187.399999999996
 21
-388.4836545384842
 31
0.0
  0
LINE
  5
2897
330
2D0C
100
AcDbEntity
  8
0
 62
     0
100
AcDbLine
 10
-187.4000000000068
 20
-138.6176259124622
 30
0.0
 11
-28.40000000000145
 21
-244.6173552388728
 31
0.0
  0
LINE
  5
2898
330
2D0C
100
AcDbEntity
  8
0
 62
     0
100
AcDbLine
 10
-28.39999999999782
 20
-241.6173887034556
 30
0.0
 11
73.27417657231491
 21
-309.3999999999987
 31
0.0
  0
LINE
  5
2899
330
2D0C
100
AcDbEntity
  8
0
 62
     0
100
AcDbLine
 10
73.27417657231491
 20
-309.3999999999987
 30
0.0
 11
187.3999999999996
 21
-385.4836880030671
 31
0.0
  0
LINE
  5
289A
330
2D0C
100
AcDbEntity
  8
0
 62
     0
100
AcDbLine
 10
-187.4000000000032
 20
-135.6176593770451
 30
0.0
 11
-28.39999999999782
 21
-241.6173887034556
 31
0.0
  0
LINE
  5
289B
330
2D0C
100
AcDbEntity
  8
0
 62
     0
100
AcDbLine
 10
-28.39999999999964
 20
-238.6174221680394
 30
0.0
 11
77.77413786619762
 21
-309.3999999999996
 31
0.0
  0
LINE
  5
289C
330
2D0C
100
AcDbEntity
  8
0
 62
     0
100
AcDbLine
 10
77.77413786619762
 20
-309.3999999999996
 30
0.0
 11
187.3999999999977
 21
-382.4837214676528
 31
0.0
  0
LINE
  5
289D
330
2D0C
100
AcDbEntity
  8
0
 62
     0
100
AcDbLine
 10
-187.4000000000051
 20
-132.6176928416298
 30
0.0
 11
-28.39999999999964
 21
-238.6174221680394
 31
0.0
  0
LINE
  5
289E
330
2D0C
100
AcDbEntity
  8
0
 62
     0
100
AcDbLine
 10
-28.40000000000145
 20
-235.6174556326223
 30
0.0
 11
82.27409916008218
 21
-309.3999999999978
 31
0.0
  0
LINE
  5
289F
330
2D0C
100
AcDbEntity
  8
0
 62
     0
100
AcDbLine
 10
82.27409916008218
 20
-309.3999999999978
 30
0.0
 11
187.3999999999977
 21
-379.4837549322356
 31
0.0
  0
LINE
  5
28A0
330
2D0C
100
AcDbEntity
  8
0
 62
     0
100
AcDbLine
 10
-187.4000000000051
 20
-129.6177263062127
 30
0.0
 11
-28.40000000000145
 21
-235.6174556326223
 31
0.0
  0
LINE
  5
28A1
330
2D0C
100
AcDbEntity
  8
0
 62
     0
100
AcDbLine
 10
-28.39999999999964
 20
-232.6174890972079
 30
0.0
 11
86.77406045397038
 21
-309.4000000000006
 31
0.0
  0
LINE
  5
28A2
330
2D0C
100
AcDbEntity
  8
0
 62
     0
100
AcDbLine
 10
86.77406045397038
 20
-309.4000000000006
 30
0.0
 11
187.399999999996
 21
-376.4837883968194
 31
0.0
  0
LINE
  5
28A3
330
2D0C
100
AcDbEntity
  8
0
 62
     0
100
AcDbLine
 10
-187.4000000000051
 20
-126.6177597707983
 30
0.0
 11
-28.39999999999964
 21
-232.6174890972079
 31
0.0
  0
LINE
  5
28A4
330
2D0C
100
AcDbEntity
  8
0
 62
     0
100
AcDbLine
 10
-28.39999999999964
 20
-229.6175225617908
 30
0.0
 11
91.27402174785492
 21
-309.3999999999996
 31
0.0
  0
LINE
  5
28A5
330
2D0C
100
AcDbEntity
  8
0
 62
     0
100
AcDbLine
 10
91.27402174785492
 20
-309.3999999999996
 30
0.0
 11
187.3999999999977
 21
-373.4838218614023
 31
0.0
  0
LINE
  5
28A6
330
2D0C
100
AcDbEntity
  8
0
 62
     0
100
AcDbLine
 10
-187.4000000000032
 20
-123.6177932353812
 30
0.0
 11
-28.39999999999964
 21
-229.6175225617908
 31
0.0
  0
LINE
  5
28A7
330
2D0C
100
AcDbEntity
  8
0
 62
     0
100
AcDbLine
 10
-28.39999999999964
 20
-226.6175560263755
 30
0.0
 11
95.77398304173948
 21
-309.3999999999996
 31
0.0
  0
LINE
  5
28A8
330
2D0C
100
AcDbEntity
  8
0
 62
     0
100
AcDbLine
 10
95.77398304173948
 20
-309.3999999999996
 30
0.0
 11
187.399999999996
 21
-370.4838553259869
 31
0.0
  0
LINE
  5
28A9
330
2D0C
100
AcDbEntity
  8
0
 62
     0
100
AcDbLine
 10
-187.4000000000051
 20
-120.6178266999659
 30
0.0
 11
-28.39999999999964
 21
-226.6175560263755
 31
0.0
  0
LINE
  5
28AA
330
2D0C
100
AcDbEntity
  8
0
 62
     0
100
AcDbLine
 10
-28.39999999999964
 20
-223.6175894909584
 30
0.0
 11
100.2739443356277
 21
-309.4000000000006
 31
0.0
  0
LINE
  5
28AB
330
2D0C
100
AcDbEntity
  8
0
 62
     0
100
AcDbLine
 10
100.2739443356277
 20
-309.4000000000006
 30
0.0
 11
187.3999999999996
 21
-367.4838887905717
 31
0.0
  0
LINE
  5
28AC
330
2D0C
100
AcDbEntity
  8
0
 62
     0
100
AcDbLine
 10
-187.4000000000051
 20
-117.6178601645479
 30
0.0
 11
-28.39999999999964
 21
-223.6175894909584
 31
0.0
  0
LINE
  5
28AD
330
2D0C
100
AcDbEntity
  8
0
 62
     0
100
AcDbLine
 10
-28.39999999999782
 20
-220.6176229555431
 30
0.0
 11
104.773905629514
 21
-309.4000000000014
 31
0.0
  0
LINE
  5
28AE
330
2D0C
100
AcDbEntity
  8
0
 62
     0
100
AcDbLine
 10
104.773905629514
 20
-309.4000000000014
 30
0.0
 11
187.3999999999996
 21
-364.4839222551564
 31
0.0
  0
LINE
  5
28AF
330
2D0C
100
AcDbEntity
  8
0
 62
     0
100
AcDbLine
 10
-185.9268366819415
 20
-115.6000000000022
 30
0.0
 11
-28.39999999999782
 21
-220.6176229555431
 31
0.0
  0
LINE
  5
28B0
330
2D0C
100
AcDbEntity
  8
0
 62
     0
100
AcDbLine
 10
-28.39999999999964
 20
-217.6176564201269
 30
0.0
 11
109.2738669233968
 21
-309.3999999999996
 31
0.0
  0
LINE
  5
28B1
330
2D0C
100
AcDbEntity
  8
0
 62
     0
100
AcDbLine
 10
109.2738669233968
 20
-309.3999999999996
 30
0.0
 11
187.3999999999996
 21
-361.4839557197393
 31
0.0
  0
LINE
  5
28B2
330
2D0C
100
AcDbEntity
  8
0
 62
     0
100
AcDbLine
 10
-181.4268753880588
 20
-115.5999999999994
 30
0.0
 11
-28.39999999999964
 21
-217.6176564201269
 31
0.0
  0
LINE
  5
28B3
330
2D0C
100
AcDbEntity
  8
0
 62
     0
100
AcDbLine
 10
-28.39999999999964
 20
-214.6176898847097
 30
0.0
 11
113.7738282172813
 21
-309.3999999999987
 31
0.0
  0
LINE
  5
28B4
330
2D0C
100
AcDbEntity
  8
0
 62
     0
100
AcDbLine
 10
113.7738282172813
 20
-309.3999999999987
 30
0.0
 11
187.3999999999977
 21
-358.4839891843221
 31
0.0
  0
LINE
  5
28B5
330
2D0C
100
AcDbEntity
  8
0
 62
     0
100
AcDbLine
 10
-176.9269140941742
 20
-115.5999999999994
 30
0.0
 11
-28.39999999999964
 21
-214.6176898847097
 31
0.0
  0
LINE
  5
28B6
330
2D0C
100
AcDbEntity
  8
0
 62
     0
100
AcDbLine
 10
-28.40000000000145
 20
-211.6177233492936
 30
0.0
 11
118.2737895111677
 21
-309.3999999999996
 31
0.0
  0
LINE
  5
28B7
330
2D0C
100
AcDbEntity
  8
0
 62
     0
100
AcDbLine
 10
118.2737895111677
 20
-309.3999999999996
 30
0.0
 11
187.3999999999996
 21
-355.4840226489068
 31
0.0
  0
LINE
  5
28B8
330
2D0C
100
AcDbEntity
  8
0
 62
     0
100
AcDbLine
 10
-172.426952800286
 20
-115.6000000000013
 30
0.0
 11
-28.40000000000145
 21
-211.6177233492936
 31
0.0
  0
LINE
  5
28B9
330
2D0C
100
AcDbEntity
  8
0
 62
     0
100
AcDbLine
 10
-28.39999999999964
 20
-208.6177568138765
 30
0.0
 11
122.7737508050541
 21
-309.3999999999987
 31
0.0
  0
LINE
  5
28BA
330
2D0C
100
AcDbEntity
  8
0
 62
     0
100
AcDbLine
 10
122.7737508050541
 20
-309.3999999999987
 30
0.0
 11
187.3999999999977
 21
-352.4840561134896
 31
0.0
  0
LINE
  5
28BB
330
2D0C
100
AcDbEntity
  8
0
 62
     0
100
AcDbLine
 10
-167.9269915063995
 20
-115.6000000000003
 30
0.0
 11
-28.39999999999964
 21
-208.6177568138765
 31
0.0
  0
LINE
  5
28BC
330
2D0C
100
AcDbEntity
  8
0
 62
     0
100
AcDbLine
 10
-28.40000000000145
 20
-205.6177902784611
 30
0.0
 11
127.2737120989386
 21
-309.3999999999987
 31
0.0
  0
LINE
  5
28BD
330
2D0C
100
AcDbEntity
  8
0
 62
     0
100
AcDbLine
 10
127.2737120989386
 20
-309.3999999999987
 30
0.0
 11
187.3999999999996
 21
-349.4840895780753
 31
0.0
  0
LINE
  5
28BE
330
2D0C
100
AcDbEntity
  8
0
 62
     0
100
AcDbLine
 10
-163.4270302125169
 20
-115.6000000000003
 30
0.0
 11
-28.40000000000145
 21
-205.6177902784611
 31
0.0
  0
LINE
  5
28BF
330
2D0C
100
AcDbEntity
  8
0
 62
     0
100
AcDbLine
 10
-28.39999999999964
 20
-202.6178237430449
 30
0.0
 11
131.7736733928231
 21
-309.3999999999978
 31
0.0
  0
LINE
  5
28C0
330
2D0C
100
AcDbEntity
  8
0
 62
     0
100
AcDbLine
 10
131.7736733928231
 20
-309.3999999999978
 30
0.0
 11
187.3999999999977
 21
-346.4841230426573
 31
0.0
  0
LINE
  5
28C1
330
2D0C
100
AcDbEntity
  8
0
 62
     0
100
AcDbLine
 10
-158.9270689186269
 20
-115.6000000000022
 30
0.0
 11
-28.39999999999964
 21
-202.6178237430449
 31
0.0
  0
LINE
  5
28C2
330
2D0C
100
AcDbEntity
  8
0
 62
     0
100
AcDbLine
 10
-28.39999999999964
 20
-199.6178572076296
 30
0.0
 11
136.2736346867114
 21
-309.4000000000006
 31
0.0
  0
LINE
  5
28C3
330
2D0C
100
AcDbEntity
  8
0
 62
     0
100
AcDbLine
 10
136.2736346867114
 20
-309.4000000000006
 30
0.0
 11
187.3999999999996
 21
-343.484156507242
 31
0.0
  0
LINE
  5
28C4
330
2D0C
100
AcDbEntity
  8
0
 62
     0
100
AcDbLine
 10
-154.4271076247423
 20
-115.6000000000013
 30
0.0
 11
-28.39999999999964
 21
-199.6178572076296
 31
0.0
  0
LINE
  5
28C5
330
2D0C
100
AcDbEntity
  8
0
 62
     0
100
AcDbLine
 10
-28.39999999999964
 20
-196.6178906722125
 30
0.0
 11
140.7735959805959
 21
-309.3999999999987
 31
0.0
  0
LINE
  5
28C6
330
2D0C
100
AcDbEntity
  8
0
 62
     0
100
AcDbLine
 10
140.7735959805959
 20
-309.3999999999987
 30
0.0
 11
187.3999999999977
 21
-340.4841899718249
 31
0.0
  0
LINE
  5
28C7
330
2D0C
100
AcDbEntity
  8
0
 62
     0
100
AcDbLine
 10
-149.9271463308578
 20
-115.6000000000013
 30
0.0
 11
-28.39999999999964
 21
-196.6178906722125
 31
0.0
  0
LINE
  5
28C8
330
2D0C
100
AcDbEntity
  8
0
 62
     0
100
AcDbLine
 10
-28.40000000000145
 20
-193.6179241367971
 30
0.0
 11
145.2735572744805
 21
-309.3999999999996
 31
0.0
  0
LINE
  5
28C9
330
2D0C
100
AcDbEntity
  8
0
 62
     0
100
AcDbLine
 10
145.2735572744805
 20
-309.3999999999996
 30
0.0
 11
187.3999999999977
 21
-337.4842234364105
 31
0.0
  0
LINE
  5
28CA
330
2D0C
100
AcDbEntity
  8
0
 62
     0
100
AcDbLine
 10
-145.427185036975
 20
-115.6000000000003
 30
0.0
 11
-28.40000000000145
 21
-193.6179241367971
 31
0.0
  0
LINE
  5
28CB
330
2D0C
100
AcDbEntity
  8
0
 62
     0
100
AcDbLine
 10
-28.40000000000145
 20
-190.6179576013792
 30
0.0
 11
149.7735185683685
 21
-309.4000000000006
 31
0.0
  0
LINE
  5
28CC
330
2D0C
100
AcDbEntity
  8
0
 62
     0
100
AcDbLine
 10
149.7735185683685
 20
-309.4000000000006
 30
0.0
 11
187.3999999999977
 21
-334.4842569009934
 31
0.0
  0
LINE
  5
28CD
330
2D0C
100
AcDbEntity
  8
0
 62
     0
100
AcDbLine
 10
-140.9272237430887
 20
-115.6000000000003
 30
0.0
 11
-28.40000000000145
 21
-190.6179576013792
 31
0.0
  0
LINE
  5
28CE
330
2D0C
100
AcDbEntity
  8
0
 62
     0
100
AcDbLine
 10
-28.39999999999964
 20
-187.6179910659657
 30
0.0
 11
154.2734798622532
 21
-309.4000000000006
 31
0.0
  0
LINE
  5
28CF
330
2D0C
100
AcDbEntity
  8
0
 62
     0
100
AcDbLine
 10
154.2734798622532
 20
-309.4000000000006
 30
0.0
 11
187.3999999999996
 21
-331.4842903655781
 31
0.0
  0
LINE
  5
28D0
330
2D0C
100
AcDbEntity
  8
0
 62
     0
100
AcDbLine
 10
-136.4272624492005
 20
-115.6000000000022
 30
0.0
 11
-28.39999999999964
 21
-187.6179910659657
 31
0.0
  0
LINE
  5
28D1
330
2D0C
100
AcDbEntity
  8
0
 62
     0
100
AcDbLine
 10
-28.40000000000145
 20
-184.6180245305476
 30
0.0
 11
158.7734411561378
 21
-309.3999999999996
 31
0.0
  0
LINE
  5
28D2
330
2D0C
100
AcDbEntity
  8
0
 62
     0
100
AcDbLine
 10
158.7734411561378
 20
-309.3999999999996
 30
0.0
 11
187.3999999999977
 21
-328.4843238301609
 31
0.0
  0
LINE
  5
28D3
330
2D0C
100
AcDbEntity
  8
0
 62
     0
100
AcDbLine
 10
-131.9273011553196
 20
-115.5999999999994
 30
0.0
 11
-28.40000000000145
 21
-184.6180245305476
 31
0.0
  0
LINE
  5
28D4
330
2D0C
100
AcDbEntity
  8
0
 62
     0
100
AcDbLine
 10
-28.39999999999964
 20
-181.6180579951324
 30
0.0
 11
163.2734024500223
 21
-309.3999999999996
 31
0.0
  0
LINE
  5
28D5
330
2D0C
100
AcDbEntity
  8
0
 62
     0
100
AcDbLine
 10
163.2734024500223
 20
-309.3999999999996
 30
0.0
 11
187.3999999999977
 21
-325.4843572947448
 31
0.0
  0
LINE
  5
28D6
330
2D0C
100
AcDbEntity
  8
0
 62
     0
100
AcDbLine
 10
-127.4273398614314
 20
-115.6000000000013
 30
0.0
 11
-28.39999999999964
 21
-181.6180579951324
 31
0.0
  0
LINE
  5
28D7
330
2D0C
100
AcDbEntity
  8
0
 62
     0
100
AcDbLine
 10
-28.39999999999964
 20
-178.6180914597152
 30
0.0
 11
167.7733637439123
 21
-309.4000000000006
 31
0.0
  0
LINE
  5
28D8
330
2D0C
100
AcDbEntity
  8
0
 62
     0
100
AcDbLine
 10
167.7733637439123
 20
-309.4000000000006
 30
0.0
 11
187.3999999999996
 21
-322.4843907593295
 31
0.0
  0
LINE
  5
28D9
330
2D0C
100
AcDbEntity
  8
0
 62
     0
100
AcDbLine
 10
-122.927378567545
 20
-115.6000000000003
 30
0.0
 11
-28.39999999999964
 21
-178.6180914597152
 31
0.0
  0
LINE
  5
28DA
330
2D0C
100
AcDbEntity
  8
0
 62
     0
100
AcDbLine
 10
-28.39999999999964
 20
-175.6181249243
 30
0.0
 11
172.2733250377951
 21
-309.4000000000014
 31
0.0
  0
LINE
  5
28DB
330
2D0C
100
AcDbEntity
  8
0
 62
     0
100
AcDbLine
 10
172.2733250377951
 20
-309.4000000000014
 30
0.0
 11
187.3999999999977
 21
-319.4844242239132
 31
0.0
  0
LINE
  5
28DC
330
2D0C
100
AcDbEntity
  8
0
 62
     0
100
AcDbLine
 10
-118.4274172736604
 20
-115.6000000000022
 30
0.0
 11
-28.39999999999964
 21
-175.6181249243
 31
0.0
  0
LINE
  5
28DD
330
2D0C
100
AcDbEntity
  8
0
 62
     0
100
AcDbLine
 10
-28.40000000000145
 20
-172.6181583888838
 30
0.0
 11
176.7732863316796
 21
-309.3999999999996
 31
0.0
  0
LINE
  5
28DE
330
2D0C
100
AcDbEntity
  8
0
 62
     0
100
AcDbLine
 10
176.7732863316796
 20
-309.3999999999996
 30
0.0
 11
187.3999999999977
 21
-316.4844576884962
 31
0.0
  0
LINE
  5
28DF
330
2D0C
100
AcDbEntity
  8
0
 62
     0
100
AcDbLine
 10
-113.9274559797777
 20
-115.5999999999994
 30
0.0
 11
-28.40000000000145
 21
-172.6181583888838
 31
0.0
  0
LINE
  5
28E0
330
2D0C
100
AcDbEntity
  8
0
 62
     0
100
AcDbLine
 10
-28.39999999999782
 20
-169.6181918534666
 30
0.0
 11
181.273247625566
 21
-309.3999999999978
 31
0.0
  0
LINE
  5
28E1
330
2D0C
100
AcDbEntity
  8
0
 62
     0
100
AcDbLine
 10
181.273247625566
 20
-309.3999999999987
 30
0.0
 11
187.3999999999996
 21
-313.4844911530791
 31
0.0
  0
LINE
  5
28E2
330
2D0C
100
AcDbEntity
  8
0
 62
     0
100
AcDbLine
 10
-109.4274946858859
 20
-115.6000000000013
 30
0.0
 11
-28.39999999999782
 21
-169.6181918534666
 31
0.0
  0
LINE
  5
28E3
330
2D0C
100
AcDbEntity
  8
0
 62
     0
100
AcDbLine
 10
-28.39999999999964
 20
-166.6182253180513
 30
0.0
 11
185.7732089194505
 21
-309.3999999999987
 31
0.0
  0
LINE
  5
28E4
330
2D0C
100
AcDbEntity
  8
0
 62
     0
100
AcDbLine
 10
185.7732089194523
 20
-309.3999999999996
 30
0.0
 11
187.3999999999996
 21
-310.4845246176637
 31
0.0
  0
LINE
  5
28E5
330
2D0C
100
AcDbEntity
  8
0
 62
     0
100
AcDbLine
 10
-104.9275333920032
 20
-115.6000000000013
 30
0.0
 11
-28.39999999999964
 21
-166.6182253180513
 31
0.0
  0
LINE
  5
28E6
330
2D0C
100
AcDbEntity
  8
0
 62
     0
100
AcDbLine
 10
-28.40000000000145
 20
-163.6182587826333
 30
0.0
 11
187.3999999999977
 21
-307.4845580822466
 31
0.0
  0
LINE
  5
28E7
330
2D0C
100
AcDbEntity
  8
0
 62
     0
100
AcDbLine
 10
-100.4275720981186
 20
-115.6000000000003
 30
0.0
 11
-28.40000000000145
 21
-163.6182587826333
 31
0.0
  0
LINE
  5
28E8
330
2D0C
100
AcDbEntity
  8
0
 62
     0
100
AcDbLine
 10
-28.39999999999964
 20
-160.6182922472189
 30
0.0
 11
187.3999999999996
 21
-304.4845915468322
 31
0.0
  0
LINE
  5
28E9
330
2D0C
100
AcDbEntity
  8
0
 62
     0
100
AcDbLine
 10
-95.92761080423406
 20
-115.6000000000003
 30
0.0
 11
-28.39999999999964
 21
-160.6182922472189
 31
0.0
  0
LINE
  5
28EA
330
2D0C
100
AcDbEntity
  8
0
 62
     0
100
AcDbLine
 10
-28.39999999999964
 20
-157.6183257118009
 30
0.0
 11
187.3999999999996
 21
-301.4846250114151
 31
0.0
  0
LINE
  5
28EB
330
2D0C
100
AcDbEntity
  8
0
 62
     0
100
AcDbLine
 10
-91.42764951034587
 20
-115.6000000000003
 30
0.0
 11
-28.39999999999964
 21
-157.6183257118009
 31
0.0
  0
LINE
  5
28EC
330
2D0C
100
AcDbEntity
  8
0
 62
     0
100
AcDbLine
 10
-28.40000000000145
 20
-154.6183591763864
 30
0.0
 11
187.3999999999996
 21
-298.4846584759998
 31
0.0
  0
LINE
  5
28ED
330
2D0C
100
AcDbEntity
  8
0
 62
     0
100
AcDbLine
 10
-86.92768821646129
 20
-115.6000000000013
 30
0.0
 11
-28.40000000000145
 21
-154.6183591763864
 31
0.0
  0
LINE
  5
28EE
330
2D0C
100
AcDbEntity
  8
0
 62
     0
100
AcDbLine
 10
-28.39999999999964
 20
-151.6183926409694
 30
0.0
 11
187.3999999999996
 21
-295.4846919405827
 31
0.0
  0
LINE
  5
28EF
330
2D0C
100
AcDbEntity
  8
0
 62
     0
100
AcDbLine
 10
-82.42772692257677
 20
-115.5999999999994
 30
0.0
 11
-28.39999999999964
 21
-151.6183926409694
 31
0.0
  0
LINE
  5
28F0
330
2D0C
100
AcDbEntity
  8
0
 62
     0
100
AcDbLine
 10
-28.39999999999964
 20
-148.6184261055541
 30
0.0
 11
187.4000000000014
 21
-292.4847254051674
 31
0.0
  0
LINE
  5
28F1
330
2D0C
100
AcDbEntity
  8
0
 62
     0
100
AcDbLine
 10
-77.92776562868676
 20
-115.6000000000031
 30
0.0
 11
-28.39999999999964
 21
-148.6184261055541
 31
0.0
  0
LINE
  5
28F2
330
2D0C
100
AcDbEntity
  8
0
 62
     0
100
AcDbLine
 10
-28.39999999999964
 20
-145.618459570137
 30
0.0
 11
187.3999999999996
 21
-289.4847588697512
 31
0.0
  0
LINE
  5
28F3
330
2D0C
100
AcDbEntity
  8
0
 62
     0
100
AcDbLine
 10
-73.42780433480402
 20
-115.6000000000003
 30
0.0
 11
-28.39999999999964
 21
-145.618459570137
 31
0.0
  0
LINE
  5
28F4
330
2D0C
100
AcDbEntity
  8
0
 62
     0
100
AcDbLine
 10
-28.40000000000145
 20
-142.6184930347216
 30
0.0
 11
187.3999999999996
 21
-286.484792334336
 31
0.0
  0
LINE
  5
28F5
330
2D0C
100
AcDbEntity
  8
0
 62
     0
100
AcDbLine
 10
-68.92784304091946
 20
-115.6000000000022
 30
0.0
 11
-28.40000000000145
 21
-142.6184930347216
 31
0.0
  0
LINE
  5
28F6
330
2D0C
100
AcDbEntity
  8
0
 62
     0
100
AcDbLine
 10
-28.39999999999964
 20
-139.6185264993055
 30
0.0
 11
187.3999999999977
 21
-283.4848257989179
 31
0.0
  0
LINE
  5
28F7
330
2D0C
100
AcDbEntity
  8
0
 62
     0
100
AcDbLine
 10
-64.42788174703491
 20
-115.5999999999994
 30
0.0
 11
-28.39999999999964
 21
-139.6185264993055
 31
0.0
  0
LINE
  5
28F8
330
2D0C
100
AcDbEntity
  8
0
 62
     0
100
AcDbLine
 10
-28.39999999999964
 20
-136.6185599638893
 30
0.0
 11
187.3999999999996
 21
-280.4848592635026
 31
0.0
  0
LINE
  5
28F9
330
2D0C
100
AcDbEntity
  8
0
 62
     0
100
AcDbLine
 10
-59.9279204531449
 20
-115.6000000000031
 30
0.0
 11
-28.39999999999964
 21
-136.6185599638893
 31
0.0
  0
LINE
  5
28FA
330
2D0C
100
AcDbEntity
  8
0
 62
     0
100
AcDbLine
 10
-28.39999999999964
 20
-133.6185934284731
 30
0.0
 11
187.3999999999977
 21
-277.4848927280856
 31
0.0
  0
LINE
  5
28FB
330
2D0C
100
AcDbEntity
  8
0
 62
     0
100
AcDbLine
 10
-55.42795915926399
 20
-115.6000000000003
 30
0.0
 11
-28.39999999999964
 21
-133.6185934284731
 31
0.0
  0
LINE
  5
28FC
330
2D0C
100
AcDbEntity
  8
0
 62
     0
100
AcDbLine
 10
-28.39999999999964
 20
-130.6186268930551
 30
0.0
 11
187.3999999999996
 21
-274.4849261926693
 31
0.0
  0
LINE
  5
28FD
330
2D0C
100
AcDbEntity
  8
0
 62
     0
100
AcDbLine
 10
-50.92799786537579
 20
-115.6000000000003
 30
0.0
 11
-28.39999999999964
 21
-130.6186268930551
 31
0.0
  0
LINE
  5
28FE
330
2D0C
100
AcDbEntity
  8
0
 62
     0
100
AcDbLine
 10
-28.39999999999964
 20
-127.6186603576398
 30
0.0
 11
187.3999999999996
 21
-271.484959657254
 31
0.0
  0
LINE
  5
28FF
330
2D0C
100
AcDbEntity
  8
0
 62
     0
100
AcDbLine
 10
-46.42803657149125
 20
-115.6000000000003
 30
0.0
 11
-28.39999999999964
 21
-127.6186603576398
 31
0.0
  0
LINE
  5
2900
330
2D0C
100
AcDbEntity
  8
0
 62
     0
100
AcDbLine
 10
-28.39999999999964
 20
-124.6186938222235
 30
0.0
 11
187.3999999999996
 21
-268.4849931218368
 31
0.0
  0
LINE
  5
2901
330
2D0C
100
AcDbEntity
  8
0
 62
     0
100
AcDbLine
 10
-41.92807527760304
 20
-115.6000000000013
 30
0.0
 11
-28.39999999999964
 21
-124.6186938222235
 31
0.0
  0
LINE
  5
2902
330
2D0C
100
AcDbEntity
  8
0
 62
     0
100
AcDbLine
 10
-28.40000000000145
 20
-121.6187272868083
 30
0.0
 11
187.3999999999977
 21
-265.4850265864205
 31
0.0
  0
LINE
  5
2903
330
2D0C
100
AcDbEntity
  8
0
 62
     0
100
AcDbLine
 10
-37.42811398372215
 20
-115.6000000000013
 30
0.0
 11
-28.40000000000145
 21
-121.6187272868083
 31
0.0
  0
LINE
  5
2904
330
2D0C
100
AcDbEntity
  8
0
 62
     0
100
AcDbLine
 10
-28.39999999999782
 20
-118.6187607513911
 30
0.0
 11
187.4000000000014
 21
-262.4850600510044
 31
0.0
  0
LINE
  5
2905
330
2D0C
100
AcDbEntity
  8
0
 62
     0
100
AcDbLine
 10
-32.92815268983213
 20
-115.6000000000013
 30
0.0
 11
-28.39999999999782
 21
-118.6187607513911
 31
0.0
  0
LINE
  5
2906
330
2D0C
100
AcDbEntity
  8
0
 62
     0
100
AcDbLine
 10
-28.39999999999964
 20
-115.6187942159758
 30
0.0
 11
187.3999999999996
 21
-259.4850935155891
 31
0.0
  0
LINE
  5
2907
330
2D0C
100
AcDbEntity
  8
0
 62
     0
100
AcDbLine
 10
-28.42819139594757
 20
-115.6000000000022
 30
0.0
 11
-28.40000000000145
 21
-115.6187942159749
 31
0.0
  0
LINE
  5
2908
330
2D0C
100
AcDbEntity
  8
0
 62
     0
100
AcDbLine
 10
-23.92823010206484
 20
-115.6000000000003
 30
0.0
 11
187.3999999999977
 21
-256.485126980172
 31
0.0
  0
LINE
  5
2909
330
2D0C
100
AcDbEntity
  8
0
 62
     0
100
AcDbLine
 10
-19.42826880817847
 20
-115.6000000000013
 30
0.0
 11
187.3999999999996
 21
-253.4851604447567
 31
0.0
  0
LINE
  5
290A
330
2D0C
100
AcDbEntity
  8
0
 62
     0
100
AcDbLine
 10
-14.92830751429392
 20
-115.5999999999994
 30
0.0
 11
187.3999999999996
 21
-250.4851939093396
 31
0.0
  0
LINE
  5
290B
330
2D0C
100
AcDbEntity
  8
0
 62
     0
100
AcDbLine
 10
-10.42834622040573
 20
-115.6000000000031
 30
0.0
 11
187.3999999999996
 21
-247.4852273739243
 31
0.0
  0
LINE
  5
290C
330
2D0C
100
AcDbEntity
  8
0
 62
     0
100
AcDbLine
 10
-5.928384926521172
 20
-115.6000000000003
 30
0.0
 11
187.3999999999996
 21
-244.4852608385081
 31
0.0
  0
LINE
  5
290D
330
2D0C
100
AcDbEntity
  8
0
 62
     0
100
AcDbLine
 10
-1.428423632634803
 20
-115.6000000000022
 30
0.0
 11
187.4000000000014
 21
-241.4852943030928
 31
0.0
  0
LINE
  5
290E
330
2D0C
100
AcDbEntity
  8
0
 62
     0
100
AcDbLine
 10
3.071537661247928
 20
-115.5999999999994
 30
0.0
 11
187.3999999999977
 21
-238.4853277676748
 31
0.0
  0
LINE
  5
290F
330
2D0C
100
AcDbEntity
  8
0
 62
     0
100
AcDbLine
 10
7.571498955136121
 20
-115.6000000000013
 30
0.0
 11
187.3999999999996
 21
-235.4853612322586
 31
0.0
  0
LINE
  5
2910
330
2D0C
100
AcDbEntity
  8
0
 62
     0
100
AcDbLine
 10
12.07146024902067
 20
-115.6000000000013
 30
0.0
 11
187.3999999999977
 21
-232.4853946968424
 31
0.0
  0
LINE
  5
2911
330
2D0C
100
AcDbEntity
  8
0
 62
     0
100
AcDbLine
 10
16.57142154290704
 20
-115.6000000000003
 30
0.0
 11
187.3999999999996
 21
-229.4854281614253
 31
0.0
  0
LINE
  5
2912
330
2D0C
100
AcDbEntity
  8
0
 62
     0
100
AcDbLine
 10
21.07138283678978
 20
-115.6000000000003
 30
0.0
 11
187.3999999999977
 21
-226.4854616260109
 31
0.0
  0
LINE
  5
2913
330
2D0C
100
AcDbEntity
  8
0
 62
     0
100
AcDbLine
 10
25.57134413067615
 20
-115.5999999999994
 30
0.0
 11
187.3999999999996
 21
-223.4854950905937
 31
0.0
  0
LINE
  5
2914
330
2D0C
100
AcDbEntity
  8
0
 62
     0
100
AcDbLine
 10
30.07130542456434
 20
-115.6000000000013
 30
0.0
 11
187.3999999999996
 21
-220.4855285551785
 31
0.0
  0
LINE
  5
2915
330
2D0C
100
AcDbEntity
  8
0
 62
     0
100
AcDbLine
 10
34.5712667184489
 20
-115.6000000000013
 30
0.0
 11
187.3999999999996
 21
-217.4855620197614
 31
0.0
  0
LINE
  5
2916
330
2D0C
100
AcDbEntity
  8
0
 62
     0
100
AcDbLine
 10
39.07122801233527
 20
-115.6000000000022
 30
0.0
 11
187.3999999999977
 21
-214.485595484346
 31
0.0
  0
LINE
  5
2917
330
2D0C
100
AcDbEntity
  8
0
 62
     0
100
AcDbLine
 10
43.571189306218
 20
-115.6000000000003
 30
0.0
 11
187.3999999999977
 21
-211.4856289489289
 31
0.0
  0
LINE
  5
2918
330
2D0C
100
AcDbEntity
  8
0
 62
     0
100
AcDbLine
 10
48.0711506001062
 20
-115.6000000000013
 30
0.0
 11
187.3999999999996
 21
-208.4856624135146
 31
0.0
  0
LINE
  5
2919
330
2D0C
100
AcDbEntity
  8
0
 62
     0
100
AcDbLine
 10
52.57111189398893
 20
-115.5999999999994
 30
0.0
 11
187.3999999999977
 21
-205.4856958780965
 31
0.0
  0
LINE
  5
291A
330
2D0C
100
AcDbEntity
  8
0
 62
     0
100
AcDbLine
 10
57.0710731878753
 20
-115.6000000000003
 30
0.0
 11
187.3999999999996
 21
-202.4857293426812
 31
0.0
  0
LINE
  5
291B
330
2D0C
100
AcDbEntity
  8
0
 62
     0
100
AcDbLine
 10
61.57103448176167
 20
-115.6000000000003
 30
0.0
 11
187.3999999999996
 21
-199.4857628072641
 31
0.0
  0
LINE
  5
291C
330
2D0C
100
AcDbEntity
  8
0
 62
     0
100
AcDbLine
 10
66.0709957756444
 20
-115.5999999999985
 30
0.0
 11
187.3999999999996
 21
-196.4857962718479
 31
0.0
  0
LINE
  5
291D
330
2D0C
100
AcDbEntity
  8
0
 62
     0
100
AcDbLine
 10
70.57095706952896
 20
-115.5999999999994
 30
0.0
 11
187.3999999999977
 21
-193.4858297364326
 31
0.0
  0
LINE
  5
291E
330
2D0C
100
AcDbEntity
  8
0
 62
     0
100
AcDbLine
 10
75.07091836341898
 20
-115.5999999999994
 30
0.0
 11
187.4000000000014
 21
-190.4858632010154
 31
0.0
  0
LINE
  5
291F
330
2D0C
100
AcDbEntity
  8
0
 62
     0
100
AcDbLine
 10
79.57087965730352
 20
-115.6000000000013
 30
0.0
 11
187.3999999999996
 21
-187.4858966656001
 31
0.0
  0
LINE
  5
2920
330
2D0C
100
AcDbEntity
  8
0
 62
     0
100
AcDbLine
 10
84.07084095118626
 20
-115.5999999999985
 30
0.0
 11
187.3999999999977
 21
-184.4859301301822
 31
0.0
  0
LINE
  5
2921
330
2D0C
100
AcDbEntity
  8
0
 62
     0
100
AcDbLine
 10
88.57080224507628
 20
-115.6000000000022
 30
0.0
 11
187.3999999999996
 21
-181.4859635947686
 31
0.0
  0
LINE
  5
2922
330
2D0C
100
AcDbEntity
  8
0
 62
     0
100
AcDbLine
 10
93.07076353896082
 20
-115.5999999999994
 30
0.0
 11
187.3999999999996
 21
-178.4859970593505
 31
0.0
  0
LINE
  5
2923
330
2D0C
100
AcDbEntity
  8
0
 62
     0
100
AcDbLine
 10
97.57072483284538
 20
-115.6000000000013
 30
0.0
 11
187.3999999999977
 21
-175.4860305239353
 31
0.0
  0
LINE
  5
2924
330
2D0C
100
AcDbEntity
  8
0
 62
     0
100
AcDbLine
 10
102.0706861267299
 20
-115.5999999999985
 30
0.0
 11
187.3999999999996
 21
-172.4860639885181
 31
0.0
  0
LINE
  5
2925
330
2D0C
100
AcDbEntity
  8
0
 62
     0
100
AcDbLine
 10
106.5706474206199
 20
-115.6000000000022
 30
0.0
 11
187.3999999999996
 21
-169.4860974531029
 31
0.0
  0
LINE
  5
2926
330
2D0C
100
AcDbEntity
  8
0
 62
     0
100
AcDbLine
 10
111.0706087145026
 20
-115.6000000000003
 30
0.0
 11
187.3999999999996
 21
-166.4861309176858
 31
0.0
  0
LINE
  5
2927
330
2D0C
100
AcDbEntity
  8
0
 62
     0
100
AcDbLine
 10
115.5705700083872
 20
-115.6000000000013
 30
0.0
 11
187.3999999999977
 21
-163.4861643822714
 31
0.0
  0
LINE
  5
2928
330
2D0C
100
AcDbEntity
  8
0
 62
     0
100
AcDbLine
 10
120.0705313022718
 20
-115.5999999999994
 30
0.0
 11
187.3999999999996
 21
-160.4861978468543
 31
0.0
  0
LINE
  5
2929
330
2D0C
100
AcDbEntity
  8
0
 62
     0
100
AcDbLine
 10
124.5704925961581
 20
-115.5999999999994
 30
0.0
 11
187.3999999999977
 21
-157.4862313114363
 31
0.0
  0
LINE
  5
292A
330
2D0C
100
AcDbEntity
  8
0
 62
     0
100
AcDbLine
 10
129.0704538900445
 20
-115.6000000000003
 30
0.0
 11
187.3999999999996
 21
-154.4862647760219
 31
0.0
  0
LINE
  5
292B
330
2D0C
100
AcDbEntity
  8
0
 62
     0
100
AcDbLine
 10
133.5704151839272
 20
-115.5999999999985
 30
0.0
 11
187.3999999999996
 21
-151.4862982406039
 31
0.0
  0
LINE
  5
292C
330
2D0C
100
AcDbEntity
  8
0
 62
     0
100
AcDbLine
 10
138.0703764778191
 20
-115.6000000000022
 30
0.0
 11
187.3999999999996
 21
-148.4863317051895
 31
0.0
  0
LINE
  5
292D
330
2D0C
100
AcDbEntity
  8
0
 62
     0
100
AcDbLine
 10
142.5703377717
 20
-115.5999999999994
 30
0.0
 11
187.3999999999996
 21
-145.4863651697724
 31
0.0
  0
LINE
  5
292E
330
2D0C
100
AcDbEntity
  8
0
 62
     0
100
AcDbLine
 10
147.0702990655864
 20
-115.6000000000013
 30
0.0
 11
187.3999999999977
 21
-142.4863986343571
 31
0.0
  0
LINE
  5
292F
330
2D0C
100
AcDbEntity
  8
0
 62
     0
100
AcDbLine
 10
151.5702603594709
 20
-115.5999999999985
 30
0.0
 11
187.4000000000014
 21
-139.48643209894
 31
0.0
  0
LINE
  5
2930
330
2D0C
100
AcDbEntity
  8
0
 62
     0
100
AcDbLine
 10
156.0702216533609
 20
-115.6000000000022
 30
0.0
 11
187.3999999999996
 21
-136.4864655635247
 31
0.0
  0
LINE
  5
2931
330
2D0C
100
AcDbEntity
  8
0
 62
     0
100
AcDbLine
 10
160.5701829472418
 20
-115.5999999999994
 30
0.0
 11
187.3999999999996
 21
-133.4864990281085
 31
0.0
  0
LINE
  5
2932
330
2D0C
100
AcDbEntity
  8
0
 62
     0
100
AcDbLine
 10
165.07014424113
 20
-115.6000000000013
 30
0.0
 11
187.3999999999977
 21
-130.4865324926923
 31
0.0
  0
LINE
  5
2933
330
2D0C
100
AcDbEntity
  8
0
 62
     0
100
AcDbLine
 10
169.5701055350127
 20
-115.5999999999994
 30
0.0
 11
187.3999999999996
 21
-127.4865659572751
 31
0.0
  0
LINE
  5
2934
330
2D0C
100
AcDbEntity
  8
0
 62
     0
100
AcDbLine
 10
174.0700668288991
 20
-115.6000000000003
 30
0.0
 11
187.3999999999977
 21
-124.4865994218598
 31
0.0
  0
LINE
  5
2935
330
2D0C
100
AcDbEntity
  8
0
 62
     0
100
AcDbLine
 10
178.5700281227854
 20
-115.6000000000003
 30
0.0
 11
187.3999999999996
 21
-121.4866328864427
 31
0.0
  0
LINE
  5
2936
330
2D0C
100
AcDbEntity
  8
0
 62
     0
100
AcDbLine
 10
183.06998941667
 20
-115.5999999999976
 30
0.0
 11
187.3999999999996
 21
-118.4866663510256
 31
0.0
  0
ENDBLK
  5
2937
330
2D0C
100
AcDbEntity
  8
0
100
AcDbBlockEnd
  0
BLOCK
  5
2D0F
330
2D0E
100
AcDbEntity
  8
0
100
AcDbBlockBegin
  2
*U76
 70
     1
 10
0.0
 20
0.0
 30
0.0
  3
*U76
  1

  0
INSERT
  5
293A
330
2D0E
100
AcDbEntity
  8
NOTE
100
AcDbBlockReference
  2
_OPEN30
 10
-217.0
 20
0.0
 30
0.0
 41
12.0
 42
12.0
 43
12.0
 50
312.6090116116894
  0
POLYLINE
  5
293B
330
2D0E
100
AcDbEntity
  8
NOTE
100
AcDb2dPolyline
 66
     1
 10
0.0
 20
0.0
 30
0.0
  0
VERTEX
  5
2BAC
330
293B
100
AcDbEntity
  8
NOTE
100
AcDbVertex
100
AcDb2dVertex
 10
-225.1239008361896
 20
8.831887408915475
 30
0.0
  0
VERTEX
  5
2BAD
330
293B
100
AcDbEntity
  8
NOTE
100
AcDbVertex
100
AcDb2dVertex
 10
-304.8693999922543
 20
95.52709505801338
 30
0.0
  0
VERTEX
  5
2BAE
330
293B
100
AcDbEntity
  8
NOTE
100
AcDbVertex
100
AcDb2dVertex
 10
-850.7093999922542
 20
95.52709505801338
 30
0.0
  0
SEQEND
  5
2BAF
330
293B
100
AcDbEntity
  8
NOTE
  0
ENDBLK
  5
293C
330
2D0E
100
AcDbEntity
  8
0
100
AcDbBlockEnd
  0
BLOCK
  5
2D11
330
2D10
100
AcDbEntity
  8
0
100
AcDbBlockBegin
  2
*U77
 70
     1
 10
0.0
 20
0.0
 30
0.0
  3
*U77
  1

  0
TEXT
  5
293F
330
2D10
100
AcDbEntity
  8
NOTE
100
AcDbText
 10
-850.7093999922542
 20
113.5270950580134
 30
0.0
 40
64.0
  1
4×φ15取付穴
 41
0.9
100
AcDbText
  0
ENDBLK
  5
2940
330
2D10
100
AcDbEntity
  8
0
100
AcDbBlockEnd
  0
ENDSEC
  0
SECTION
  2
ENTITIES
  0
TEXT
  5
953
330
2C2F
100
AcDbEntity
  8
OUTLINE
  6
Continuous
 62
     3
100
AcDbText
 10
-418.231467
 20
13.715189
 30
0.0
 40
64.0
  1
 
 41
0.9
100
AcDbText
  0
TEXT
  5
954
330
2C2F
100
AcDbEntity
  8
OUTLINE
  6
Continuous
 62
     3
100
AcDbText
 10
-418.231467
 20
13.715189
 30
0.0
 40
64.0
  1
 
 41
0.9
100
AcDbText
  0
TEXT
  5
955
330
2C2F
100
AcDbEntity
  8
OUTLINE
  6
Continuous
 62
     3
100
AcDbText
 10
1341.41903
 20
-706.0588199999997
 30
0.0
 40
64.0
  1
 
 41
0.9
100
AcDbText
  0
TEXT
  5
956
330
2C2F
100
AcDbEntity
  8
OUTLINE
  6
Continuous
 62
     3
100
AcDbText
 10
1341.41903
 20
-706.0588199999997
 30
0.0
 40
64.0
  1
 
 41
0.9
100
AcDbText
  0
TEXT
  5
957
330
2C2F
100
AcDbEntity
  8
OUTLINE
  6
Continuous
 62
     3
100
AcDbText
 10
1341.41903
 20
-706.0588199999997
 30
0.0
 40
64.0
  1
 
 41
0.9
100
AcDbText
  0
TEXT
  5
958
330
2C2F
100
AcDbEntity
  8
OUTLINE
  6
Continuous
 62
     3
100
AcDbText
 10
1341.41903
 20
-706.0588199999997
 30
0.0
 40
64.0
  1
 
 41
0.9
100
AcDbText
  0
INSERT
  5
299F
330
2C2F
100
AcDbEntity
  8
DETAIL
  6
Continuous
100
AcDbBlockReference
  2
*X74
 10
0.0
 20
0.0
 30
0.0
1001
ACADANNOTATIVE
1000
AnnotativeData
1002
{
1070
     1
1070
     0
1002
}
1001
ACAD
1000
HATCH
1002
{
1070
    19
1000
LINE
1040
19.969
1040
0.5880014249968896
1000
R14_HATCH_DATA
1000
489B
1011
1.0
1021
0.0
1031
0.0
1011
0.0
1021
1.0
1031
0.0
1011
0.0
1021
0.0
1031
1.0
1040
0.0
1010
0.0
1020
0.0
1030
1.0
1000
LINE
1070
     0
1070
     0
1071
        2
1071
        7
1070
     0
1070
     1
1071
        6
1040
-28.39999999999782
1040
-115.6000000000003
1040
-187.4000000000014
1040
-115.6000000000003
1040
-187.3999999999942
1040
-434.3999999999996
1040
187.3999999999977
1040
-434.3999999999996
1040
187.4000000000014
1040
-309.3999999999987
1040
-28.39999999999782
1040
-309.3999999999996
1071
        0
1071
       23
1070
     0
1070
     1
1071
        4
1040
187.3999999999977
1040
-115.6000000000003
1040
-28.39999999999782
1040
-115.6000000000003
1040
-28.39999999999782
1040
-309.3999999999996
1040
187.4000000000014
1040
-309.3999999999996
1071
        0
1070
     0
1070
     1
1040
0.5880014249968896
1040
19.969
1070
     0
1070
     1
1040
0.5880014249968896
1040
19733.72057328244
1040
4037.474507531935
1040
-1.384598579568018
1040
2.076903172775084
1070
     0
1040
0.8096234466403329
1071
        2
1040
-105.7850310763569
1040
-258.5828374240455
1040
0.0
1040
117.98330888505
1040
-234.3214214842228
1040
0.0
1002
}
  0
INSERT
  5
29A0
330
2C2F
100
AcDbEntity
  8
DETAIL
  6
Continuous
100
AcDbBlockReference
  2
*X75
 10
0.0
 20
0.0
 30
0.0
1001
ACADANNOTATIVE
1000
AnnotativeData
1002
{
1070
     1
1070
     0
1002
}
1001
ACAD
1000
HATCH
1002
{
1070
    19
1000
LINE
1040
19.969
1040
5.695183882182695
1000
R14_HATCH_DATA
1000
48A1
1011
1.0
1021
0.0
1031
0.0
1011
0.0
1021
1.0
1031
0.0
1011
0.0
1021
0.0
1031
1.0
1040
0.0
1010
0.0
1020
0.0
1030
1.0
1000
LINE
1070
     0
1070
     0
1071
        2
1071
        7
1070
     0
1070
     1
1071
        6
1040
-28.39999999999782
1040
-115.6000000000003
1040
-187.4000000000014
1040
-115.6000000000003
1040
-187.3999999999942
1040
-434.3999999999996
1040
187.3999999999977
1040
-434.3999999999996
1040
187.4000000000014
1040
-309.3999999999987
1040
-28.39999999999782
1040
-309.3999999999996
1071
        0
1071
       23
1070
     0
1070
     1
1071
        4
1040
-28.39999999999782
1040
-115.6000000000003
1040
-28.39999999999782
1040
-309.3999999999996
1040
187.4000000000014
1040
-309.3999999999996
1040
187.4000000000014
1040
-115.6000000000003
1071
        0
1070
     0
1070
     1
1040
5.695183882182695
1040
19.969
1070
     0
1070
     1
1040
5.695183882182695
1040
19733.72057328244
1040
4037.474507531935
1040
1.384598579568018
1040
2.076903172775084
1070
     0
1040
0.4602610330013285
1071
        2
1040
-82.91296464096737
1040
-269.3954169144281
1040
0.0
1040
82.97801823268674
1040
-160.9693230282428
1040
0.0
1002
}
  0
TEXT
  5
29A1
330
2C2F
100
AcDbEntity
  8
ETC
100
AcDbText
 10
256.2468308916505
 20
533.1745702105763
 30
0.0
 40
64.0
  1
システム部材
 41
0.9
100
AcDbText
  0
TEXT
  5
29A2
330
2C2F
100
AcDbEntity
  8
ETC
100
AcDbText
 10
262.4548288916485
 20
634.0578962105762
 30
0.0
 40
64.0
  1
QW-35SBM_6
 41
0.9
100
AcDbText
  0
TEXT
  5
29A3
330
2C2F
100
AcDbEntity
  8
ETC
100
AcDbText
 10
256.2468308916505
 20
433.1745702105761
 30
0.0
 40
64.0
  1
QW-35SBM
 41
0.9
100
AcDbText
  0
LINE
  5
29A4
330
2C2F
100
AcDbEntity
  8
DETAIL
100
AcDbLine
 10
-187.3999999999977
 20
-115.6000000000003
 30
0.0
 11
187.4000000000014
 21
-115.6000000000003
 31
0.0
  0
LINE
  5
29A5
330
2C2F
100
AcDbEntity
  8
DETAIL
100
AcDbLine
 10
-187.3999999999977
 20
-434.3999999999994
 30
0.0
 11
187.4000000000014
 21
-434.3999999999994
 31
0.0
  0
LINE
  5
29A6
330
2C2F
100
AcDbEntity
  8
DETAIL
100
AcDbLine
 10
-217.0
 20
-85.0
 30
0.0
 11
217.0
 21
-85.0
 31
0.0
  0
LINE
  5
29A7
330
2C2F
100
AcDbEntity
  8
DETAIL
100
AcDbLine
 10
-203.0
 20
-100.0
 30
0.0
 11
203.0
 21
-100.0
 31
0.0
  0
LINE
  5
29A8
330
2C2F
100
AcDbEntity
  8
DETAIL
100
AcDbLine
 10
-242.0
 20
-7.999999999999998
 30
0.0
 11
242.0
 21
-7.999999999999998
 31
0.0
  0
LINE
  5
29A9
330
2C2F
100
AcDbEntity
  8
DETAIL
100
AcDbLine
 10
-217.0
 20
-450.0
 30
0.0
 11
217.0
 21
-450.0
 31
0.0
  0
LINE
  5
29AA
330
2C2F
100
AcDbEntity
  8
DETAIL
100
AcDbLine
 10
-187.3999999999977
 20
-434.3999999999994
 30
0.0
 11
-187.3999999999977
 21
-115.6000000000003
 31
0.0
  0
LINE
  5
29AB
330
2C2F
100
AcDbEntity
  8
DETAIL
100
AcDbLine
 10
-203.0
 20
-471.0
 30
0.0
 11
-203.0
 21
-100.0000000000009
 31
0.0
  0
LINE
  5
29AC
330
2C2F
100
AcDbEntity
  8
DETAIL
100
AcDbLine
 10
-217.0
 20
-85.0
 30
0.0
 11
-217.0
 21
-450.0
 31
0.0
  0
LINE
  5
29AD
330
2C2F
100
AcDbEntity
  8
NOTE
100
AcDbLine
 10
-217.0
 20
12.5
 30
0.0
 11
-217.0
 21
-12.5
 31
0.0
  0
LINE
  5
29AE
330
2C2F
100
AcDbEntity
  8
DETAIL
100
AcDbLine
 10
-242.0
 20
-7.999999999999998
 30
0.0
 11
-242.0
 21
0.0
 31
0.0
  0
LINE
  5
29AF
330
2C2F
100
AcDbEntity
  8
DETAIL
100
AcDbLine
 10
-203.0
 20
-85.0
 30
0.0
 11
-203.0
 21
-7.999999999999998
 31
0.0
  0
POINT
  5
29B0
330
2C2F
100
AcDbEntity
  8
ARRANGE
100
AcDbPoint
 10
0.0
 20
0.0
 30
0.0
 39
50.0
  0
LINE
  5
29B1
330
2C2F
100
AcDbEntity
  8
DETAIL
100
AcDbLine
 10
187.4000000000014
 20
-434.3999999999994
 30
0.0
 11
187.4000000000014
 21
-115.6000000000003
 31
0.0
  0
LINE
  5
29B2
330
2C2F
100
AcDbEntity
  8
DETAIL
100
AcDbLine
 10
203.0
 20
-471.0
 30
0.0
 11
203.0
 21
-100.0
 31
0.0
  0
LINE
  5
29B3
330
2C2F
100
AcDbEntity
  8
DETAIL
100
AcDbLine
 10
217.0
 20
-85.0
 30
0.0
 11
217.0
 21
-450.0
 31
0.0
  0
LINE
  5
29B4
330
2C2F
100
AcDbEntity
  8
BASIS
100
AcDbLine
 10
0.0
 20
25.0
 30
0.0
 11
0.0
 21
-496.0
 31
0.0
  0
CIRCLE
  5
29B5
330
2C2F
100
AcDbEntity
  8
ARRANGE
100
AcDbCircle
 10
0.0
 20
0.0
 30
0.0
 40
40.0
  0
LINE
  5
29B6
330
2C2F
100
AcDbEntity
  8
DETAIL
100
AcDbLine
 10
203.0
 20
-85.0
 30
0.0
 11
203.0
 21
-7.999999999999998
 31
0.0
  0
LINE
  5
29B7
330
2C2F
100
AcDbEntity
  8
DETAIL
100
AcDbLine
 10
242.0
 20
0.0
 30
0.0
 11
242.0
 21
-7.999999999999998
 31
0.0
  0
LINE
  5
29B8
330
2C2F
100
AcDbEntity
  8
DETAIL
100
AcDbLine
 39
50.0
 10
-203.0
 20
-471.0
 30
0.0
 11
203.0
 21
-471.0
 31
0.0
  0
INSERT
  5
29B9
330
2C2F
100
AcDbEntity
  8
0
100
AcDbBlockReference
  2
*U76
 10
0.0
 20
0.0
 30
0.0
1001
ACAD
1000
DSTYLE
1002
{
1070
    41
1040
12.0
1070
    42
1040
20.0
1070
    43
1040
200.0
1070
    44
1040
20.0
1070
    73
1070
     0
1070
    74
1070
     0
1070
    77
1070
     1
1070
    78
1070
     8
1070
   140
1040
64.0
1070
   147
1040
50.0
1070
   172
1070
     1
1070
   174
1070
     1
1070
   275
1070
     0
1070
   284
1070
     0
1070
   285
1070
     0
1070
   286
1070
     0
1070
   341
1005
0
1070
   342
1005
0
1002
}
  0
INSERT
  5
29BA
330
2C2F
100
AcDbEntity
  8
0
100
AcDbBlockReference
  2
*U77
 10
0.0
 20
0.0
 30
0.0
  0
LINE
  5
29BB
330
2C2F
100
AcDbEntity
  8
NOTE
100
AcDbLine
 10
217.0
 20
12.5
 30
0.0
 11
217.0
 21
-12.5
 31
0.0
  0
LINE
  5
29BC
330
2C2F
100
AcDbEntity
  8
OUTLINE
100
AcDbLine
 10
-217.0
 20
-85.0
 30
0.0
 11
217.0
 21
-85.0
 31
0.0
  0
LINE
  5
29BD
330
2C2F
100
AcDbEntity
  8
OUTLINE
100
AcDbLine
 10
-203.0
 20
-100.0
 30
0.0
 11
203.0
 21
-100.0
 31
0.0
  0
LINE
  5
29BE
330
2C2F
100
AcDbEntity
  8
OUTLINE
100
AcDbLine
 10
-242.0
 20
-7.999999999999998
 30
0.0
 11
242.0
 21
-7.999999999999998
 31
0.0
  0
LINE
  5
29BF
330
2C2F
100
AcDbEntity
  8
OUTLINE
100
AcDbLine
 10
-217.0
 20
-450.0
 30
0.0
 11
217.0
 21
-450.0
 31
0.0
  0
LINE
  5
29C0
330
2C2F
100
AcDbEntity
  8
OUTLINE
100
AcDbLine
 10
-203.0
 20
-471.0
 30
0.0
 11
-203.0
 21
-100.0000000000009
 31
0.0
  0
LINE
  5
29C1
330
2C2F
100
AcDbEntity
  8
OUTLINE
100
AcDbLine
 10
-217.0
 20
-85.0
 30
0.0
 11
-217.0
 21
-450.0
 31
0.0
  0
LINE
  5
29C2
330
2C2F
100
AcDbEntity
  8
OUTLINE
100
AcDbLine
 10
-242.0
 20
-7.999999999999998
 30
0.0
 11
-242.0
 21
0.0
 31
0.0
  0
LINE
  5
29C3
330
2C2F
100
AcDbEntity
  8
OUTLINE
100
AcDbLine
 10
203.0
 20
-471.0
 30
0.0
 11
203.0
 21
-100.0
 31
0.0
  0
LINE
  5
29C4
330
2C2F
100
AcDbEntity
  8
OUTLINE
100
AcDbLine
 10
217.0
 20
-85.0
 30
0.0
 11
217.0
 21
-450.0
 31
0.0
  0
LINE
  5
29C5
330
2C2F
100
AcDbEntity
  8
OUTLINE
100
AcDbLine
 10
203.0
 20
-85.0
 30
0.0
 11
203.0
 21
-7.999999999999998
 31
0.0
  0
LINE
  5
29C6
330
2C2F
100
AcDbEntity
  8
OUTLINE
100
AcDbLine
 10
242.0
 20
0.0
 30
0.0
 11
242.0
 21
-7.999999999999998
 31
0.0
  0
LINE
  5
29C7
330
2C2F
100
AcDbEntity
  8
OUTLINE
100
AcDbLine
 39
50.0
 10
-203.0
 20
-471.0
 30
0.0
 11
203.0
 21
-471.0
 31
0.0
  0
LINE
  5
29C8
330
2C2F
100
AcDbEntity
  8
DETAIL
100
AcDbLine
 39
50.0
 10
-242.0
 20
0.0
 30
0.0
 11
242.0
 21
0.0
 31
0.0
  0
LINE
  5
29C9
330
2C2F
100
AcDbEntity
  8
NOTE
100
AcDbLine
 39
50.0
 10
-204.5
 20
0.0
 30
0.0
 11
-229.5
 21
0.0
 31
0.0
  0
LINE
  5
29CA
330
2C2F
100
AcDbEntity
  8
NOTE
100
AcDbLine
 39
50.0
 10
229.5
 20
0.0
 30
0.0
 11
204.5
 21
0.0
 31
0.0
  0
LINE
  5
29CB
330
2C2F
100
AcDbEntity
  8
OUTLINE
100
AcDbLine
 10
-203.0
 20
-85.0
 30
0.0
 11
-203.0
 21
-7.999999999999998
 31
0.0
  0
LINE
  5
29CC
330
2C2F
100
AcDbEntity
  8
DETAIL
100
AcDbLine
 39
50.0
 10
-203.0
 20
-465.0
 30
0.0
 11
203.0
 21
-465.0
 31
0.0
  0
LINE
  5
29CD
330
2C2F
100
AcDbEntity
  8
OUTLINE
100
AcDbLine
 39
50.0
 10
-203.0
 20
-465.0
 30
0.0
 11
203.0
 21
-465.0
 31
0.0
  0
LINE
  5
29CE
330
2C2F
100
AcDbEntity
  8
OUTLINE
100
AcDbLine
 39
50.0
 10
-242.0
 20
0.0
 30
0.0
 11
242.0
 21
0.0
 31
0.0
  0
LINE
  5
29CF
330
2C2F
100
AcDbEntity
  8
DETAIL
100
AcDbLine
 10
-187.3999999999977
 20
-115.6000000000003
 30
0.0
 11
187.4000000000014
 21
-115.6000000000003
 31
0.0
  0
LINE
  5
29D0
330
2C2F
100
AcDbEntity
  8
DETAIL
100
AcDbLine
 10
-187.3999999999977
 20
-434.3999999999994
 30
0.0
 11
187.4000000000014
 21
-434.3999999999994
 31
0.0
  0
LINE
  5
29D1
330
2C2F
100
AcDbEntity
  8
DETAIL
100
AcDbLine
 10
-187.3999999999977
 20
-434.3999999999994
 30
0.0
 11
-187.3999999999977
 21
-115.6000000000003
 31
0.0
  0
LINE
  5
29D2
330
2C2F
100
AcDbEntity
  8
DETAIL
100
AcDbLine
 10
187.4000000000014
 20
-434.3999999999994
 30
0.0
 11
187.4000000000014
 21
-115.6000000000003
 31
0.0
  0
LINE
  5
29D3
330
2C2F
100
AcDbEntity
  8
SIZE
100
AcDbLine
 10
217.0
 20
32.5
 30
0.0
 11
217.0
 21
180.9320910096169
 31
0.0
  0
LINE
  5
29D4
330
2C2F
100
AcDbEntity
  8
SIZE
100
AcDbLine
 10
-217.0
 20
32.5
 30
0.0
 11
-217.0
 21
180.9320910096169
 31
0.0
  0
LINE
  5
29D5
330
2C2F
100
AcDbEntity
  8
SIZE
100
AcDbLine
 10
205.0
 20
160.9320910096171
 30
0.0
 11
-205.0
 21
160.9320910096171
 31
0.0
  0
INSERT
  5
29D6
330
2C2F
100
AcDbEntity
  8
SIZE
100
AcDbBlockReference
  2
_DOTBLANK
 10
217.0
 20
160.9320910096171
 30
0.0
 41
12.0
 42
12.0
 43
12.0
  0
INSERT
  5
29D7
330
2C2F
100
AcDbEntity
  8
SIZE
100
AcDbBlockReference
  2
_DOTBLANK
 10
-217.0
 20
160.9320910096171
 30
0.0
 41
12.0
 42
12.0
 43
12.0
 50
180.0
  0
LINE
  5
29D8
330
2C2F
100
AcDbEntity
  8
SIZE
100
AcDbLine
 10
242.0
 20
20.0
 30
0.0
 11
242.0
 21
299.4865929365169
 31
0.0
  0
LINE
  5
29D9
330
2C2F
100
AcDbEntity
  8
SIZE
100
AcDbLine
 10
-242.0
 20
20.0
 30
0.0
 11
-242.0
 21
299.4865929365169
 31
0.0
  0
LINE
  5
29DA
330
2C2F
100
AcDbEntity
  8
SIZE
100
AcDbLine
 10
230.0
 20
279.4865929365169
 30
0.0
 11
-230.0
 21
279.4865929365169
 31
0.0
  0
INSERT
  5
29DB
330
2C2F
100
AcDbEntity
  8
SIZE
100
AcDbBlockReference
  2
_DOTBLANK
 10
242.0
 20
279.4865929365169
 30
0.0
 41
12.0
 42
12.0
 43
12.0
  0
INSERT
  5
29DC
330
2C2F
100
AcDbEntity
  8
SIZE
100
AcDbBlockReference
  2
_DOTBLANK
 10
-242.0
 20
279.4865929365169
 30
0.0
 41
12.0
 42
12.0
 43
12.0
 50
180.0
  0
LINE
  5
29DD
330
2C2F
100
AcDbEntity
  8
SIZE
100
AcDbLine
 10
262.0
 20
0.0
 30
0.0
 11
358.7143006159713
 21
0.0
 31
0.0
  0
LINE
  5
29DE
330
2C2F
100
AcDbEntity
  8
SIZE
100
AcDbLine
 10
262.0
 20
-7.999999999999998
 30
0.0
 11
358.7143006159713
 21
-7.999999999999998
 31
0.0
  0
LINE
  5
29DF
330
2C2F
100
AcDbEntity
  8
SIZE
100
AcDbLine
 10
338.7143006159713
 20
12.0
 30
0.0
 11
338.7143006159713
 21
24.0
 31
0.0
  0
LINE
  5
29E0
330
2C2F
100
AcDbEntity
  8
SIZE
100
AcDbLine
 10
338.7143006159713
 20
-20.0
 30
0.0
 11
338.7143006159713
 21
-90.39999999999997
 31
0.0
  0
INSERT
  5
29E1
330
2C2F
100
AcDbEntity
  8
SIZE
100
AcDbBlockReference
  2
_DOTBLANK
 10
338.7143006159713
 20
0.0
 30
0.0
 41
12.0
 42
12.0
 43
12.0
 50
270.0
  0
INSERT
  5
29E2
330
2C2F
100
AcDbEntity
  8
SIZE
100
AcDbBlockReference
  2
_DOTBLANK
 10
338.7143006159713
 20
-7.999999999999998
 30
0.0
 41
12.0
 42
12.0
 43
12.0
 50
90.0
  0
LINE
  5
29E3
330
2C2F
100
AcDbEntity
  8
SIZE
100
AcDbLine
 10
217.0
 20
-469.9999999999997
 30
0.0
 11
217.0
 21
-628.4781626827473
 31
0.0
  0
LINE
  5
29E4
330
2C2F
100
AcDbEntity
  8
SIZE
100
AcDbLine
 10
-217.0
 20
-469.9999999999997
 30
0.0
 11
-217.0
 21
-628.4781626827473
 31
0.0
  0
LINE
  5
29E5
330
2C2F
100
AcDbEntity
  8
SIZE
100
AcDbLine
 10
205.0
 20
-608.478162682747
 30
0.0
 11
-205.0
 21
-608.478162682747
 31
0.0
  0
INSERT
  5
29E6
330
2C2F
100
AcDbEntity
  8
SIZE
100
AcDbBlockReference
  2
_DOTBLANK
 10
217.0
 20
-608.478162682747
 30
0.0
 41
12.0
 42
12.0
 43
12.0
  0
INSERT
  5
29E7
330
2C2F
100
AcDbEntity
  8
SIZE
100
AcDbBlockReference
  2
_DOTBLANK
 10
-217.0
 20
-608.478162682747
 30
0.0
 41
12.0
 42
12.0
 43
12.0
 50
180.0
  0
LINE
  5
29E8
330
2C2F
100
AcDbEntity
  8
SIZE
100
AcDbLine
 10
-237.0
 20
-450.0
 30
0.0
 11
-460.2017037420736
 21
-449.9999999999996
 31
0.0
  0
LINE
  5
29E9
330
2C2F
100
AcDbEntity
  8
SIZE
100
AcDbLine
 10
-223.0
 20
-471.0
 30
0.0
 11
-460.2017037420736
 21
-470.9999999999996
 31
0.0
  0
LINE
  5
29EA
330
2C2F
100
AcDbEntity
  8
SIZE
100
AcDbLine
 10
-440.2017037420736
 20
-437.9999999999996
 30
0.0
 11
-440.2017037420736
 21
-425.9999999999996
 31
0.0
  0
LINE
  5
29EB
330
2C2F
100
AcDbEntity
  8
SIZE
100
AcDbLine
 10
-440.2017037420736
 20
-482.9999999999996
 30
0.0
 11
-440.2017037420736
 21
-583.5714285714285
 31
0.0
  0
INSERT
  5
29EC
330
2C2F
100
AcDbEntity
  8
SIZE
100
AcDbBlockReference
  2
_DOTBLANK
 10
-440.2017037420736
 20
-449.9999999999996
 30
0.0
 41
12.0
 42
12.0
 43
12.0
 50
270.0
  0
INSERT
  5
29ED
330
2C2F
100
AcDbEntity
  8
SIZE
100
AcDbBlockReference
  2
_DOTBLANK
 10
-440.2017037420736
 20
-470.9999999999996
 30
0.0
 41
12.0
 42
12.0
 43
12.0
 50
90.0
  0
LINE
  5
29EE
330
2C2F
100
AcDbEntity
  8
SIZE
100
AcDbLine
 10
-237.0
 20
-450.0
 30
0.0
 11
-460.2017037420736
 21
-449.9999999999996
 31
0.0
  0
LINE
  5
29EF
330
2C2F
100
AcDbEntity
  8
SIZE
100
AcDbLine
 10
-262.0
 20
0.0
 30
0.0
 11
-460.2017037420736
 21
0.0000000000001137
 31
0.0
  0
LINE
  5
29F0
330
2C2F
100
AcDbEntity
  8
SIZE
100
AcDbLine
 10
-440.2017037420736
 20
-437.9999999999996
 30
0.0
 11
-440.2017037420736
 21
-11.99999999999988
 31
0.0
  0
INSERT
  5
29F1
330
2C2F
100
AcDbEntity
  8
SIZE
100
AcDbBlockReference
  2
_DOTBLANK
 10
-440.2017037420736
 20
-449.9999999999996
 30
0.0
 41
12.0
 42
12.0
 43
12.0
 50
270.0
  0
INSERT
  5
29F2
330
2C2F
100
AcDbEntity
  8
SIZE
100
AcDbBlockReference
  2
_DOTBLANK
 10
-440.2017037420736
 20
0.0
 30
0.0
 41
12.0
 42
12.0
 43
12.0
 50
90.0
  0
TEXT
  5
29F3
330
2C2F
100
AcDbEntity
  8
SIZE
100
AcDbText
 10
-75.42857142857155
 20
-598.4781626827468
 30
0.0
 40
64.0
  1
434
 41
0.9
100
AcDbText
  0
TEXT
  5
29F4
330
2C2F
100
AcDbEntity
  8
SIZE
100
AcDbText
 10
-450.2017037420737
 20
-573.5714285714285
 30
0.0
 40
64.0
  1
21
 50
90.0
 41
0.9
100
AcDbText
  0
TEXT
  5
29F5
330
2C2F
100
AcDbEntity
  8
SIZE
100
AcDbText
 10
-450.2017037420737
 20
-289.8292179399987
 30
0.0
 40
64.0
  1
450
 50
90.0
 41
0.9
100
AcDbText
  0
TEXT
  5
29F6
330
2C2F
100
AcDbEntity
  8
SIZE
100
AcDbText
 10
-75.98444906256462
 20
170.932091009617
 30
0.0
 40
64.0
  1
434
 41
0.9
100
AcDbText
  0
TEXT
  5
29F7
330
2C2F
100
AcDbEntity
  8
SIZE
100
AcDbText
 10
-75.42857142857155
 20
289.4865929365169
 30
0.0
 40
64.0
  1
484
 41
0.9
100
AcDbText
  0
TEXT
  5
29F8
330
2C2F
100
AcDbEntity
  8
SIZE
100
AcDbText
 10
328.7143006159713
 20
-80.39999999999997
 30
0.0
 40
64.0
  1
8
 50
90.0
 41
0.9
100
AcDbText
  0
ENDSEC
  0
SECTION
  2
OBJECTS
  0
DICTIONARY
  5
2BC7
330
0
100
AcDbDictionary
281
     1
  3
ACAD_2007HEADERVARS_RT
350
2E24
  3
ACAD_COLOR
350
2C25
  3
ACAD_GROUP
350
2BC8
  3
ACAD_LAYOUT
350
2C24
  3
ACAD_MATERIAL
350
2BCB
  3
ACAD_MLEADERSTYLE
350
2C28
  3
ACAD_MLINESTYLE
350
2C21
  3
ACAD_PLOTSETTINGS
350
2C23
  3
ACAD_PLOTSTYLENAME
350
2BC9
  3
ACAD_SCALELIST
350
2BF5
  3
ACAD_TABLESTYLE
350
2C26
  3
ACAD_VISUALSTYLE
350
2BE4
  3
ACDB_RECOMPOSE_DATA
350
2E22
  3
AcDbVariableDictionary
350
2E19
  3
AcmDictionary
350
2DC5
  3
AMG
350
2D12
  3
AMGSNAPSETTINGS
350
2DED
  3
DWGPROPS
350
2E23
  3
MAPISURF_MODULE
350
2D92
  0
DICTIONARY
  5
2DF4
330
2C17
100
AcDbDictionary
280
     1
281
     1
  3
ADSK_XREC_LAYER_RECONCILED
360
2DF5
  0
DICTIONARY
  5
2DF6
330
2C46
100
AcDbDictionary
280
     1
281
     1
  3
ADSK_XREC_LAYER_RECONCILED
360
2DF7
  0
DICTIONARY
  5
2DF8
330
2C47
100
AcDbDictionary
280
     1
281
     1
  3
ADSK_XREC_LAYER_RECONCILED
360
2DF9
  0
DICTIONARY
  5
2DFA
330
2C48
100
AcDbDictionary
280
     1
281
     1
  3
ADSK_XREC_LAYER_RECONCILED
360
2DFB
  0
DICTIONARY
  5
2DFC
330
2C49
100
AcDbDictionary
280
     1
281
     1
  3
ADSK_XREC_LAYER_RECONCILED
360
2DFD
  0
DICTIONARY
  5
2DFE
330
2C4A
100
AcDbDictionary
280
     1
281
     1
  3
ADSK_XREC_LAYER_RECONCILED
360
2DFF
  0
DICTIONARY
  5
2E00
330
2C4C
100
AcDbDictionary
280
     1
281
     1
  3
ADSK_XREC_LAYER_RECONCILED
360
2E01
  0
DICTIONARY
  5
2E02
330
2C4D
100
AcDbDictionary
280
     1
281
     1
  3
ADSK_XREC_LAYER_RECONCILED
360
2E03
  0
DICTIONARY
  5
2E04
330
2C4E
100
AcDbDictionary
280
     1
281
     1
  3
ADSK_XREC_LAYER_RECONCILED
360
2E05
  0
DICTIONARY
  5
2E06
330
2C4F
100
AcDbDictionary
280
     1
281
     1
  3
ADSK_XREC_LAYER_RECONCILED
360
2E07
  0
DICTIONARY
  5
2E08
330
2C50
100
AcDbDictionary
280
     1
281
     1
  3
ADSK_XREC_LAYER_RECONCILED
360
2E09
  0
DICTIONARY
  5
2E0A
330
2C2F
100
AcDbDictionary
280
     1
281
     1
  3
ACAD_INDEX
360
2E0B
  0
DICTIONARY
  5
2E24
102
{ACAD_REACTORS
330
2BC7
102
}
330
2BC7
100
AcDbDictionary
281
     1
  3
DIMARCSYM
350
2E25
  3
DIMLTEX1
350
2E27
  3
DIMLTEX2
350
2E28
  3
DIMLTYPE
350
2E26
  0
DICTIONARY
  5
2C25
102
{ACAD_REACTORS
330
2BC7
102
}
330
2BC7
100
AcDbDictionary
281
     1
  0
DICTIONARY
  5
2BC8
102
{ACAD_REACTORS
330
2BC7
102
}
330
2BC7
100
AcDbDictionary
281
     1
  0
DICTIONARY
  5
2C24
102
{ACAD_REACTORS
330
2BC7
102
}
330
2BC7
100
AcDbDictionary
281
     1
  3
Model
350
2C32
  3
レイアウト1
350
2C2E
  0
DICTIONARY
  5
2BCB
102
{ACAD_REACTORS
330
2BC7
102
}
330
2BC7
100
AcDbDictionary
281
     1
  3
ByBlock
350
2BD4
  3
ByLayer
350
2BCC
  3
Global
350
2BDC
  0
DICTIONARY
  5
2C28
102
{ACAD_REACTORS
330
2BC7
102
}
330
2BC7
100
AcDbDictionary
281
     1
  3
Standard
350
2C29
  0
DICTIONARY
  5
2C21
102
{ACAD_REACTORS
330
2BC7
102
}
330
2BC7
100
AcDbDictionary
281
     1
  3
Standard
350
2C22
  0
DICTIONARY
  5
2C23
102
{ACAD_REACTORS
330
2BC7
102
}
330
2BC7
100
AcDbDictionary
281
     1
  0
ACDBDICTIONARYWDFLT
  5
2BC9
102
{ACAD_REACTORS
330
2BC7
102
}
330
2BC7
100
AcDbDictionary
281
     1
  3
Normal
350
2BCA
100
AcDbDictionaryWithDefault
340
2BCA
  0
DICTIONARY
  5
2BF5
102
{ACAD_REACTORS
330
2BC7
102
}
330
2BC7
100
AcDbDictionary
281
     1
  3
A0
350
2BF6
  3
A1
350
2BF7
  3
A2
350
2BF8
  3
A3
350
2BF9
  3
A4
350
2BFA
  3
A5
350
2BFB
  3
A6
350
2BFC
  3
A7
350
2BFD
  3
A8
350
2BFE
  3
A9
350
2BFF
  3
B0
350
2C00
  3
B1
350
2C01
  3
B2
350
2C02
  3
B3
350
2C03
  3
B4
350
2C04
  3
B5
350
2C05
  3
B6
350
2C06
  3
B7
350
2C07
  3
B8
350
2C08
  3
B9
350
2C09
  3
C0
350
2C0A
  3
C1
350
2C0B
  3
C2
350
2C0C
  3
C3
350
2C0D
  3
C4
350
2C0E
  3
C5
350
2C0F
  3
C6
350
2C10
  3
C7
350
2C11
  3
C8
350
2C12
  3
C9
350
2C13
  3
D0
350
2C14
  3
D1
350
2C15
  3
D2
350
2C16
  0
DICTIONARY
  5
2C26
102
{ACAD_REACTORS
330
2BC7
102
}
330
2BC7
100
AcDbDictionary
281
     1
  3
Standard
350
2C27
  0
DICTIONARY
  5
2BE4
102
{ACAD_REACTORS
330
2BC7
102
}
330
2BC7
100
AcDbDictionary
281
     1
  3
2dWireframe
350
2BEA
  3
3D Hidden
350
2BEC
  3
3dWireframe
350
2BEB
  3
Basic
350
2BE9
  3
Brighten
350
2BF0
  3
ColorChange
350
2BF4
  3
Conceptual
350
2BED
  3
Dim
350
2BEF
  3
Facepattern
350
2BF3
  3
Flat
350
2BE5
  3
FlatWithEdges
350
2BE6
  3
Gouraud
350
2BE7
  3
GouraudWithEdges
350
2BE8
  3
Linepattern
350
2BF2
  3
Realistic
350
2BEE
  3
Thicken
350
2BF1
  0
XRECORD
  5
2E22
102
{ACAD_REACTORS
330
2BC7
102
}
330
2BC7
100
AcDbXrecord
280
     1
 90
        1
330
2C27
  0
DICTIONARY
  5
2E19
102
{ACAD_REACTORS
330
2BC7
102
}
330
2BC7
100
AcDbDictionary
281
     1
  3
CANNOSCALE
350
2E1C
  3
CMLEADERSTYLE
350
2E1B
  3
CTABLESTYLE
350
2E1A
  3
DIMASSOC
350
2E1F
  3
INDEXCTL
350
2E1E
  3
SORTENTS
350
2E1D
  0
DICTIONARY
  5
2DC5
102
{ACAD_REACTORS
330
2BC7
102
}
330
2BC7
100
AcDbDictionary
281
     1
  3
AcmStdDictionary
350
2DD3
  0
DICTIONARY
  5
2D12
102
{ACAD_REACTORS
330
2BC7
102
}
330
2BC7
100
AcDbDictionary
281
     1
  3
AcMgSettings
350
2D13
  0
DICTIONARY
  5
2DED
102
{ACAD_REACTORS
330
2BC7
102
}
330
2BC7
100
AcDbDictionary
281
     1
  3
DIMENSION
350
2DF2
  3
FEA
350
2DF1
  3
HATCH (1)
350
2DEE
  3
HATCH (2)
350
2DEF
  3
SIMPLE WELD
350
2DF3
  3
SYMBOLS
350
2DF0
  0
XRECORD
  5
2E23
102
{ACAD_REACTORS
330
2BC7
102
}
330
2BC7
100
AcDbXrecord
280
     1
  1
DWGPROPS COOKIE
  2

  3

  4

  6

  7

  8
A090053
  9

300
AmdtFileType=84
301
=
302
=
303
=
304
=
305
=
306
=
307
=
308
=
309
=
 40
1.04068730324074
 41
2452321.396199653
 42
2456211.582936169
  1

 90
        1
  0
XRECORD
  5
2DF5
102
{ACAD_REACTORS
330
2DF4
102
}
330
2DF4
100
AcDbXrecord
280
     1
290
     1
  0
XRECORD
  5
2DF7
102
{ACAD_REACTORS
330
2DF6
102
}
330
2DF6
100
AcDbXrecord
280
     1
290
     1
  0
XRECORD
  5
2DF9
102
{ACAD_REACTORS
330
2DF8
102
}
330
2DF8
100
AcDbXrecord
280
     1
290
     1
  0
XRECORD
  5
2DFB
102
{ACAD_REACTORS
330
2DFA
102
}
330
2DFA
100
AcDbXrecord
280
     1
290
     1
  0
XRECORD
  5
2DFD
102
{ACAD_REACTORS
330
2DFC
102
}
330
2DFC
100
AcDbXrecord
280
     1
290
     1
  0
XRECORD
  5
2DFF
102
{ACAD_REACTORS
330
2DFE
102
}
330
2DFE
100
AcDbXrecord
280
     1
290
     1
  0
XRECORD
  5
2E01
102
{ACAD_REACTORS
330
2E00
102
}
330
2E00
100
AcDbXrecord
280
     1
290
     1
  0
XRECORD
  5
2E03
102
{ACAD_REACTORS
330
2E02
102
}
330
2E02
100
AcDbXrecord
280
     1
290
     1
  0
XRECORD
  5
2E05
102
{ACAD_REACTORS
330
2E04
102
}
330
2E04
100
AcDbXrecord
280
     1
290
     1
  0
XRECORD
  5
2E07
102
{ACAD_REACTORS
330
2E06
102
}
330
2E06
100
AcDbXrecord
280
     1
290
     1
  0
XRECORD
  5
2E09
102
{ACAD_REACTORS
330
2E08
102
}
330
2E08
100
AcDbXrecord
280
     1
290
     1
  0
DICTIONARY
  5
2E0B
102
{ACAD_REACTORS
330
2E0A
102
}
330
2E0A
100
AcDbDictionary
281
     1
  3
*A1
350
2E0C
  0
XRECORD
  5
2E25
102
{ACAD_REACTORS
330
2E24
102
}
330
2E24
100
AcDbXrecord
280
     1
 70
     1
  0
XRECORD
  5
2E27
102
{ACAD_REACTORS
330
2E24
102
}
330
2E24
100
AcDbXrecord
280
     1
340
2C1D
  0
XRECORD
  5
2E28
102
{ACAD_REACTORS
330
2E24
102
}
330
2E24
100
AcDbXrecord
280
     1
340
2C1D
  0
XRECORD
  5
2E26
102
{ACAD_REACTORS
330
2E24
102
}
330
2E24
100
AcDbXrecord
280
     1
340
2C1D
  0
LAYOUT
  5
2C32
102
{ACAD_XDICTIONARY
360
2E2F
102
}
102
{ACAD_REACTORS
330
2C24
102
}
330
2C24
100
AcDbPlotSettings
  1

  2
自動 EPSON LP-9600S (W2450527 上)
  4

  6

 40
0.0
 41
0.0
 42
0.0
 43
0.0
 44
0.0
 45
0.0
 46
0.0
 47
0.0
 48
0.0
 49
0.0
140
0.0
141
0.0
142
1.0
143
1.0
 70
  1712
 72
     0
 73
     0
 74
     0
  7

 75
     0
147
1.0
148
0.0
149
0.0
100
AcDbLayout
  1
Model
 70
     1
 71
     0
 10
0.0
 20
0.0
 11
12.0
 21
9.0
 12
0.0
 22
0.0
 32
0.0
 14
0.0
 24
0.0
 34
0.0
 15
0.0
 25
0.0
 35
0.0
146
0.0
 13
0.0
 23
0.0
 33
0.0
 16
1.0
 26
0.0
 36
0.0
 17
0.0
 27
1.0
 37
0.0
 76
     0
330
2C2F
331
2C33
  0
LAYOUT
  5
2C2E
102
{ACAD_XDICTIONARY
360
2E2D
102
}
102
{ACAD_REACTORS
330
2C24
102
}
330
2C24
100
AcDbPlotSettings
  1

  2
自動 EPSON LP-9600S (W2450527 上)
  4

  6

 40
0.0
 41
0.0
 42
0.0
 43
0.0
 44
0.0
 45
0.0
 46
0.0
 47
0.0
 48
0.0
 49
0.0
140
0.0
141
0.0
142
1.0
143
1.0
 70
   688
 72
     0
 73
     0
 74
     5
  7

 75
    16
147
1.0
148
0.0
149
0.0
100
AcDbLayout
  1
レイアウト1
 70
     1
 71
     1
 10
0.0
 20
0.0
 11
12.0
 21
9.0
 12
0.0
 22
0.0
 32
0.0
 14
1.000000000000000E+20
 24
1.000000000000000E+20
 34
1.000000000000000E+20
 15
-1.000000000000000E+20
 25
-1.000000000000000E+20
 35
-1.000000000000000E+20
146
0.0
 13
0.0
 23
0.0
 33
0.0
 16
1.0
 26
0.0
 36
0.0
 17
0.0
 27
1.0
 37
0.0
 76
     0
330
2C2B
  0
MATERIAL
  5
2BD4
102
{ACAD_XDICTIONARY
360
2BD5
102
}
102
{ACAD_REACTORS
330
2BCB
102
}
330
2BCB
100
AcDbMaterial
  1
ByBlock
 72
     0
 43
0.0208333333333333
 43
0.0
 43
0.0
 43
0.0
 43
0.0
 43
0.0208333333333333
 43
0.0
 43
0.0
 43
0.0
 43
0.0
 43
1.0
 43
0.0
 43
0.0
 43
0.0
 43
0.0
 43
1.0
 77
     0
 47
0.0208333333333333
 47
0.0
 47
0.0
 47
0.0
 47
0.0
 47
0.0208333333333333
 47
0.0
 47
0.0
 47
0.0
 47
0.0
 47
1.0
 47
0.0
 47
0.0
 47
0.0
 47
0.0
 47
1.0
171
     0
 49
0.0208333333333333
 49
0.0
 49
0.0
 49
0.0
 49
0.0
 49
0.0208333333333333
 49
0.0
 49
0.0
 49
0.0
 49
0.0
 49
1.0
 49
0.0
 49
0.0
 49
0.0
 49
0.0
 49
1.0
175
     0
142
0.0208333333333333
142
0.0
142
0.0
142
0.0
142
0.0
142
0.0208333333333333
142
0.0
142
0.0
142
0.0
142
0.0
142
1.0
142
0.0
142
0.0
142
0.0
142
0.0
142
1.0
179
     0
144
0.0208333333333333
144
0.0
144
0.0
144
0.0
144
0.0
144
0.0208333333333333
144
0.0
144
0.0
144
0.0
144
0.0
144
1.0
144
0.0
144
0.0
144
0.0
144
0.0
144
1.0
147
0.0208333333333333
147
0.0
147
0.0
147
0.0
147
0.0
147
0.0208333333333333
147
0.0
147
0.0
147
0.0
147
0.0
147
1.0
147
0.0
147
0.0
147
0.0
147
0.0
147
1.0
  0
MATERIAL
  5
2BCC
102
{ACAD_XDICTIONARY
360
2BCD
102
}
102
{ACAD_REACTORS
330
2BCB
102
}
330
2BCB
100
AcDbMaterial
  1
ByLayer
 72
     0
 43
0.0208333333333333
 43
0.0
 43
0.0
 43
0.0
 43
0.0
 43
0.0208333333333333
 43
0.0
 43
0.0
 43
0.0
 43
0.0
 43
1.0
 43
0.0
 43
0.0
 43
0.0
 43
0.0
 43
1.0
 77
     0
 47
0.0208333333333333
 47
0.0
 47
0.0
 47
0.0
 47
0.0
 47
0.0208333333333333
 47
0.0
 47
0.0
 47
0.0
 47
0.0
 47
1.0
 47
0.0
 47
0.0
 47
0.0
 47
0.0
 47
1.0
171
     0
 49
0.0208333333333333
 49
0.0
 49
0.0
 49
0.0
 49
0.0
 49
0.0208333333333333
 49
0.0
 49
0.0
 49
0.0
 49
0.0
 49
1.0
 49
0.0
 49
0.0
 49
0.0
 49
0.0
 49
1.0
175
     0
142
0.0208333333333333
142
0.0
142
0.0
142
0.0
142
0.0
142
0.0208333333333333
142
0.0
142
0.0
142
0.0
142
0.0
142
1.0
142
0.0
142
0.0
142
0.0
142
0.0
142
1.0
179
     0
144
0.0208333333333333
144
0.0
144
0.0
144
0.0
144
0.0
144
0.0208333333333333
144
0.0
144
0.0
144
0.0
144
0.0
144
1.0
144
0.0
144
0.0
144
0.0
144
0.0
144
1.0
147
0.0208333333333333
147
0.0
147
0.0
147
0.0
147
0.0
147
0.0208333333333333
147
0.0
147
0.0
147
0.0
147
0.0
147
1.0
147
0.0
147
0.0
147
0.0
147
0.0
147
1.0
  0
MATERIAL
  5
2BDC
102
{ACAD_XDICTIONARY
360
2BDD
102
}
102
{ACAD_REACTORS
330
2BCB
102
}
330
2BCB
100
AcDbMaterial
  1
Global
 72
     0
 43
0.0208333333333333
 43
0.0
 43
0.0
 43
0.0
 43
0.0
 43
0.0208333333333333
 43
0.0
 43
0.0
 43
0.0
 43
0.0
 43
1.0
 43
0.0
 43
0.0
 43
0.0
 43
0.0
 43
1.0
 77
     0
 47
0.0208333333333333
 47
0.0
 47
0.0
 47
0.0
 47
0.0
 47
0.0208333333333333
 47
0.0
 47
0.0
 47
0.0
 47
0.0
 47
1.0
 47
0.0
 47
0.0
 47
0.0
 47
0.0
 47
1.0
171
     0
 49
0.0208333333333333
 49
0.0
 49
0.0
 49
0.0
 49
0.0
 49
0.0208333333333333
 49
0.0
 49
0.0
 49
0.0
 49
0.0
 49
1.0
 49
0.0
 49
0.0
 49
0.0
 49
0.0
 49
1.0
175
     0
142
0.0208333333333333
142
0.0
142
0.0
142
0.0
142
0.0
142
0.0208333333333333
142
0.0
142
0.0
142
0.0
142
0.0
142
1.0
142
0.0
142
0.0
142
0.0
142
0.0
142
1.0
179
     0
144
0.0208333333333333
144
0.0
144
0.0
144
0.0
144
0.0
144
0.0208333333333333
144
0.0
144
0.0
144
0.0
144
0.0
144
1.0
144
0.0
144
0.0
144
0.0
144
0.0
144
1.0
147
0.0208333333333333
147
0.0
147
0.0
147
0.0
147
0.0
147
0.0208333333333333
147
0.0
147
0.0
147
0.0
147
0.0
147
1.0
147
0.0
147
0.0
147
0.0
147
0.0
147
1.0
  0
MLEADERSTYLE
  5
2C29
102
{ACAD_REACTORS
330
2C28
102
}
330
2C28
100
AcDbMLeaderStyle
170
     2
171
     1
172
     0
 90
        2
 40
0.0
 41
0.0
173
     1
 91
-1056964608
340
2C1D
 92
       -2
290
     1
 42
0.09
291
     1
 43
0.36
  3
Standard
 44
0.18
300

342
2C18
174
     1
178
     6
175
     1
176
     0
 93
-1056964608
 45
0.18
292
     0
297
     0
 46
0.18
 94
-1056964608
 47
1.0
 49
1.0
140
1.0
293
     1
141
0.0
294
     1
177
     0
142
1.0
295
     0
296
     0
143
0.125
1001
ACAD_MLEADERVER
1070
     2
  0
MLINESTYLE
  5
2C22
102
{ACAD_REACTORS
330
2C21
102
}
330
2C21
100
AcDbMlineStyle
  2
STANDARD
 70
     0
  3

 62
   256
 51
90.0
 52
90.0
 71
     2
 49
0.5
 62
   256
  6
BYLAYER
 49
-0.5
 62
   256
  6
BYLAYER
  0
ACDBPLACEHOLDER
  5
2BCA
102
{ACAD_REACTORS
330
2BC9
102
}
330
2BC9
  0
SCALE
  5
2BF6
102
{ACAD_REACTORS
330
2BF5
102
}
330
2BF5
100
AcDbScale
 70
     0
300
1:1
140
1.0
141
1.0
290
     1
  0
SCALE
  5
2BF7
102
{ACAD_REACTORS
330
2BF5
102
}
330
2BF5
100
AcDbScale
 70
     0
300
1:2
140
1.0
141
2.0
290
     0
  0
SCALE
  5
2BF8
102
{ACAD_REACTORS
330
2BF5
102
}
330
2BF5
100
AcDbScale
 70
     0
300
1:4
140
1.0
141
4.0
290
     0
  0
SCALE
  5
2BF9
102
{ACAD_REACTORS
330
2BF5
102
}
330
2BF5
100
AcDbScale
 70
     0
300
1:5
140
1.0
141
5.0
290
     0
  0
SCALE
  5
2BFA
102
{ACAD_REACTORS
330
2BF5
102
}
330
2BF5
100
AcDbScale
 70
     0
300
1:8
140
1.0
141
8.0
290
     0
  0
SCALE
  5
2BFB
102
{ACAD_REACTORS
330
2BF5
102
}
330
2BF5
100
AcDbScale
 70
     0
300
1:10
140
1.0
141
10.0
290
     0
  0
SCALE
  5
2BFC
102
{ACAD_REACTORS
330
2BF5
102
}
330
2BF5
100
AcDbScale
 70
     0
300
1:16
140
1.0
141
16.0
290
     0
  0
SCALE
  5
2BFD
102
{ACAD_REACTORS
330
2BF5
102
}
330
2BF5
100
AcDbScale
 70
     0
300
1:20
140
1.0
141
20.0
290
     0
  0
SCALE
  5
2BFE
102
{ACAD_REACTORS
330
2BF5
102
}
330
2BF5
100
AcDbScale
 70
     0
300
1:30
140
1.0
141
30.0
290
     0
  0
SCALE
  5
2BFF
102
{ACAD_REACTORS
330
2BF5
102
}
330
2BF5
100
AcDbScale
 70
     0
300
1:40
140
1.0
141
40.0
290
     0
  0
SCALE
  5
2C00
102
{ACAD_REACTORS
330
2BF5
102
}
330
2BF5
100
AcDbScale
 70
     0
300
1:50
140
1.0
141
50.0
290
     0
  0
SCALE
  5
2C01
102
{ACAD_REACTORS
330
2BF5
102
}
330
2BF5
100
AcDbScale
 70
     0
300
1:100
140
1.0
141
100.0
290
     0
  0
SCALE
  5
2C02
102
{ACAD_REACTORS
330
2BF5
102
}
330
2BF5
100
AcDbScale
 70
     0
300
2:1
140
2.0
141
1.0
290
     0
  0
SCALE
  5
2C03
102
{ACAD_REACTORS
330
2BF5
102
}
330
2BF5
100
AcDbScale
 70
     0
300
4:1
140
4.0
141
1.0
290
     0
  0
SCALE
  5
2C04
102
{ACAD_REACTORS
330
2BF5
102
}
330
2BF5
100
AcDbScale
 70
     0
300
8:1
140
8.0
141
1.0
290
     0
  0
SCALE
  5
2C05
102
{ACAD_REACTORS
330
2BF5
102
}
330
2BF5
100
AcDbScale
 70
     0
300
10:1
140
10.0
141
1.0
290
     0
  0
SCALE
  5
2C06
102
{ACAD_REACTORS
330
2BF5
102
}
330
2BF5
100
AcDbScale
 70
     0
300
100:1
140
100.0
141
1.0
290
     0
  0
SCALE
  5
2C07
102
{ACAD_REACTORS
330
2BF5
102
}
330
2BF5
100
AcDbScale
 70
     0
300
1/128" = 1'-0"
140
0.0078125
141
12.0
290
     0
  0
SCALE
  5
2C08
102
{ACAD_REACTORS
330
2BF5
102
}
330
2BF5
100
AcDbScale
 70
     0
300
1/64" = 1'-0"
140
0.015625
141
12.0
290
     0
  0
SCALE
  5
2C09
102
{ACAD_REACTORS
330
2BF5
102
}
330
2BF5
100
AcDbScale
 70
     0
300
1/32" = 1'-0"
140
0.03125
141
12.0
290
     0
  0
SCALE
  5
2C0A
102
{ACAD_REACTORS
330
2BF5
102
}
330
2BF5
100
AcDbScale
 70
     0
300
1/16" = 1'-0"
140
0.0625
141
12.0
290
     0
  0
SCALE
  5
2C0B
102
{ACAD_REACTORS
330
2BF5
102
}
330
2BF5
100
AcDbScale
 70
     0
300
3/32" = 1'-0"
140
0.09375
141
12.0
290
     0
  0
SCALE
  5
2C0C
102
{ACAD_REACTORS
330
2BF5
102
}
330
2BF5
100
AcDbScale
 70
     0
300
1/8" = 1'-0"
140
0.125
141
12.0
290
     0
  0
SCALE
  5
2C0D
102
{ACAD_REACTORS
330
2BF5
102
}
330
2BF5
100
AcDbScale
 70
     0
300
3/16" = 1'-0"
140
0.1875
141
12.0
290
     0
  0
SCALE
  5
2C0E
102
{ACAD_REACTORS
330
2BF5
102
}
330
2BF5
100
AcDbScale
 70
     0
300
1/4" = 1'-0"
140
0.25
141
12.0
290
     0
  0
SCALE
  5
2C0F
102
{ACAD_REACTORS
330
2BF5
102
}
330
2BF5
100
AcDbScale
 70
     0
300
3/8" = 1'-0"
140
0.375
141
12.0
290
     0
  0
SCALE
  5
2C10
102
{ACAD_REACTORS
330
2BF5
102
}
330
2BF5
100
AcDbScale
 70
     0
300
1/2" = 1'-0"
140
0.5
141
12.0
290
     0
  0
SCALE
  5
2C11
102
{ACAD_REACTORS
330
2BF5
102
}
330
2BF5
100
AcDbScale
 70
     0
300
3/4" = 1'-0"
140
0.75
141
12.0
290
     0
  0
SCALE
  5
2C12
102
{ACAD_REACTORS
330
2BF5
102
}
330
2BF5
100
AcDbScale
 70
     0
300
1" = 1'-0"
140
1.0
141
12.0
290
     0
  0
SCALE
  5
2C13
102
{ACAD_REACTORS
330
2BF5
102
}
330
2BF5
100
AcDbScale
 70
     0
300
1-1/2" = 1'-0"
140
1.5
141
12.0
290
     0
  0
SCALE
  5
2C14
102
{ACAD_REACTORS
330
2BF5
102
}
330
2BF5
100
AcDbScale
 70
     0
300
3" = 1'-0"
140
3.0
141
12.0
290
     0
  0
SCALE
  5
2C15
102
{ACAD_REACTORS
330
2BF5
102
}
330
2BF5
100
AcDbScale
 70
     0
300
6" = 1'-0"
140
6.0
141
12.0
290
     0
  0
SCALE
  5
2C16
102
{ACAD_REACTORS
330
2BF5
102
}
330
2BF5
100
AcDbScale
 70
     0
300
1'-0" = 1'-0"
140
12.0
141
12.0
290
     0
  0
TABLESTYLE
  5
2C27
102
{ACAD_XDICTIONARY
360
2E20
102
}
102
{ACAD_REACTORS
330
2C26
102
}
330
2C26
100
AcDbTableStyle
  3
Standard
 70
     0
 71
     0
 40
0.06
 41
0.06
280
     0
281
     0
  7
STANDARD
140
0.18
170
     2
 62
     0
 63
     7
283
     0
274
    -2
284
     1
 64
     0
275
    -2
285
     1
 65
     0
276
    -2
286
     1
 66
     0
277
    -2
287
     1
 67
     0
278
    -2
288
     1
 68
     0
279
    -2
289
     1
 69
     0
  7
STANDARD
140
0.25
170
     5
 62
     0
 63
     7
283
     0
274
    -2
284
     1
 64
     0
275
    -2
285
     1
 65
     0
276
    -2
286
     1
 66
     0
277
    -2
287
     1
 67
     0
278
    -2
288
     1
 68
     0
279
    -2
289
     1
 69
     0
  7
STANDARD
140
0.18
170
     5
 62
     0
 63
     7
283
     0
274
    -2
284
     1
 64
     0
275
    -2
285
     1
 65
     0
276
    -2
286
     1
 66
     0
277
    -2
287
     1
 67
     0
278
    -2
288
     1
 68
     0
279
    -2
289
     1
 69
     0
  0
VISUALSTYLE
  5
2BEA
102
{ACAD_REACTORS
330
2BE4
102
}
330
2BE4
100
AcDbVisualStyle
  2
2dWireframe
 70
     4
 71
     0
 72
     2
 73
     0
 90
        0
 40
-0.6
 41
-30.0
 62
     5
 63
     7
 74
     1
 91
        4
 64
     7
 65
   257
 75
     1
175
     1
 42
1.0
 92
        0
 66
   257
 43
1.0
 76
     1
 77
     6
 78
     2
 67
     7
 79
     5
170
     0
171
     0
290
     0
174
     0
 93
        1
 44
0.0
173
     0
291
     0
 45
0.0
1001
ACAD
1000
AcDbSavedByObjectVersion
1070
     0
  0
VISUALSTYLE
  5
2BEC
102
{ACAD_REACTORS
330
2BE4
102
}
330
2BE4
100
AcDbVisualStyle
  2
3D Hidden
 70
     6
 71
     1
 72
     2
 73
     2
 90
        0
 40
-0.6
 41
-30.0
 62
     5
 63
     7
 74
     2
 91
        2
 64
     7
 65
   257
 75
     2
175
     1
 42
40.0
 92
        0
 66
   257
 43
1.0
 76
     1
 77
     6
 78
     2
 67
     7
 79
     3
170
     0
171
     0
290
     0
174
     0
 93
        1
 44
0.0
173
     0
291
     0
 45
0.0
1001
ACAD
1000
AcDbSavedByObjectVersion
1070
     0
  0
VISUALSTYLE
  5
2BEB
102
{ACAD_REACTORS
330
2BE4
102
}
330
2BE4
100
AcDbVisualStyle
  2
3dWireframe
 70
     5
 71
     0
 72
     2
 73
     0
 90
        0
 40
-0.6
 41
-30.0
 62
     5
 63
     7
 74
     1
 91
        4
 64
     7
 65
   257
 75
     1
175
     1
 42
1.0
 92
        0
 66
   257
 43
1.0
 76
     1
 77
     6
 78
     2
 67
     7
 79
     5
170
     0
171
     0
290
     0
174
     0
 93
        1
 44
0.0
173
     0
291
     0
 45
0.0
1001
ACAD
1000
AcDbSavedByObjectVersion
1070
     0
  0
VISUALSTYLE
  5
2BE9
102
{ACAD_REACTORS
330
2BE4
102
}
330
2BE4
100
AcDbVisualStyle
  2
Basic
 70
     7
 71
     1
 72
     0
 73
     1
 90
        0
 40
-0.6
 41
-30.0
 62
     5
 63
     7
 74
     0
 91
        4
 64
     7
 65
   257
 75
     1
175
     1
 42
1.0
 92
        8
 66
     7
 43
1.0
 76
     1
 77
     6
 78
     2
 67
     7
 79
     5
170
     0
171
     0
290
     0
174
     0
 93
        1
 44
0.0
173
     0
291
     1
 45
0.0
1001
ACAD
1000
AcDbSavedByObjectVersion
1070
     0
  0
VISUALSTYLE
  5
2BF0
102
{ACAD_REACTORS
330
2BE4
102
}
330
2BE4
100
AcDbVisualStyle
  2
Brighten
 70
    12
 71
     2
 72
     2
 73
     0
 90
        0
 40
-0.6
 41
-30.0
 62
     5
 63
     7
 74
     1
 91
        4
 64
     7
 65
   257
 75
     1
175
     1
 42
1.0
 92
        8
 66
     7
 43
1.0
 76
     1
 77
     6
 78
     2
 67
     7
 79
     5
170
     0
171
     0
290
     0
174
     0
 93
        1
 44
50.0
173
     0
291
     1
 45
0.0
1001
ACAD
1000
AcDbSavedByObjectVersion
1070
     0
  0
VISUALSTYLE
  5
2BF4
102
{ACAD_REACTORS
330
2BE4
102
}
330
2BE4
100
AcDbVisualStyle
  2
ColorChange
 70
    16
 71
     2
 72
     2
 73
     3
 90
        0
 40
-0.6
 41
-30.0
 62
     5
 63
     8
 74
     1
 91
        4
 64
     7
 65
   257
 75
     1
175
     1
 42
1.0
 92
        8
 66
     8
 43
1.0
 76
     1
 77
     6
 78
     2
 67
     7
 79
     5
170
     0
171
     0
290
     0
174
     0
 93
        1
 44
0.0
173
     0
291
     1
 45
0.0
1001
ACAD
1000
AcDbSavedByObjectVersion
1070
     0
  0
VISUALSTYLE
  5
2BED
102
{ACAD_REACTORS
330
2BE4
102
}
330
2BE4
100
AcDbVisualStyle
  2
Conceptual
 70
     9
 71
     3
 72
     2
 73
     0
 90
        0
 40
-0.6
 41
-30.0
 62
     5
 63
     7
 74
     2
 91
        2
 64
     7
 65
   257
 75
     1
175
     1
 42
40.0
 92
        8
 66
     7
 43
1.0
 76
     1
 77
     6
 78
     2
 67
     7
 79
     3
170
     0
171
     0
290
     0
174
     0
 93
        1
 44
0.0
173
     0
291
     0
 45
0.0
1001
ACAD
1000
AcDbSavedByObjectVersion
1070
     0
  0
VISUALSTYLE
  5
2BEF
102
{ACAD_REACTORS
330
2BE4
102
}
330
2BE4
100
AcDbVisualStyle
  2
Dim
 70
    11
 71
     2
 72
     2
 73
     0
 90
        0
 40
-0.6
 41
-30.0
 62
     5
 63
     7
 74
     1
 91
        4
 64
     7
 65
   257
 75
     1
175
     1
 42
1.0
 92
        8
 66
     7
 43
1.0
 76
     1
 77
     6
 78
     2
 67
     7
 79
     5
170
     0
171
     0
290
     0
174
     0
 93
        1
 44
-50.0
173
     0
291
     1
 45
0.0
1001
ACAD
1000
AcDbSavedByObjectVersion
1070
     0
  0
VISUALSTYLE
  5
2BF3
102
{ACAD_REACTORS
330
2BE4
102
}
330
2BE4
100
AcDbVisualStyle
  2
Facepattern
 70
    15
 71
     2
 72
     2
 73
     0
 90
        0
 40
-0.6
 41
-30.0
 62
     5
 63
     7
 74
     1
 91
        4
 64
     7
 65
   257
 75
     1
175
     1
 42
1.0
 92
        8
 66
     7
 43
1.0
 76
     1
 77
     6
 78
     2
 67
     7
 79
     5
170
     0
171
     0
290
     0
174
     0
 93
        1
 44
0.0
173
     0
291
     1
 45
0.0
1001
ACAD
1000
AcDbSavedByObjectVersion
1070
     0
  0
VISUALSTYLE
  5
2BE5
102
{ACAD_REACTORS
330
2BE4
102
}
330
2BE4
100
AcDbVisualStyle
  2
Flat
 70
     0
 71
     2
 72
     1
 73
     1
 90
        2
 40
-0.6
 41
30.0
 62
     5
 63
     7
 74
     0
 91
        4
 64
     7
 65
   257
 75
     1
175
     1
 42
1.0
 92
        8
 66
     7
 43
1.0
 76
     1
 77
     6
 78
     2
 67
     7
 79
     5
170
     0
171
     0
290
     0
174
     0
 93
       13
 44
0.0
173
     0
291
     1
 45
0.0
1001
ACAD
1000
AcDbSavedByObjectVersion
1070
     0
  0
VISUALSTYLE
  5
2BE6
102
{ACAD_REACTORS
330
2BE4
102
}
330
2BE4
100
AcDbVisualStyle
  2
FlatWithEdges
 70
     1
 71
     2
 72
     1
 73
     1
 90
        2
 40
-0.6
 41
30.0
 62
     5
 63
     7
 74
     1
 91
        4
 64
     7
 65
   257
 75
     1
175
     1
 42
1.0
 92
        0
 66
   257
 43
1.0
 76
     1
 77
     6
 78
     2
 67
     7
 79
     5
170
     0
171
     0
290
     0
174
     0
 93
       13
 44
0.0
173
     0
291
     1
 45
0.0
1001
ACAD
1000
AcDbSavedByObjectVersion
1070
     0
  0
VISUALSTYLE
  5
2BE7
102
{ACAD_REACTORS
330
2BE4
102
}
330
2BE4
100
AcDbVisualStyle
  2
Gouraud
 70
     2
 71
     2
 72
     2
 73
     1
 90
        2
 40
-0.6
 41
30.0
 62
     5
 63
     7
 74
     0
 91
        4
 64
     7
 65
   257
 75
     1
175
     1
 42
1.0
 92
        0
 66
     7
 43
1.0
 76
     1
 77
     6
 78
     2
 67
     7
 79
     5
170
     0
171
     0
290
     0
174
     0
 93
       13
 44
0.0
173
     0
291
     1
 45
0.0
1001
ACAD
1000
AcDbSavedByObjectVersion
1070
     0
  0
VISUALSTYLE
  5
2BE8
102
{ACAD_REACTORS
330
2BE4
102
}
330
2BE4
100
AcDbVisualStyle
  2
GouraudWithEdges
 70
     3
 71
     2
 72
     2
 73
     1
 90
        2
 40
-0.6
 41
30.0
 62
     5
 63
     7
 74
     1
 91
        4
 64
     7
 65
   257
 75
     1
175
     1
 42
1.0
 92
        0
 66
   257
 43
1.0
 76
     1
 77
     6
 78
     2
 67
     7
 79
     5
170
     0
171
     0
290
     0
174
     0
 93
       13
 44
0.0
173
     0
291
     1
 45
0.0
1001
ACAD
1000
AcDbSavedByObjectVersion
1070
     0
  0
VISUALSTYLE
  5
2BF2
102
{ACAD_REACTORS
330
2BE4
102
}
330
2BE4
100
AcDbVisualStyle
  2
Linepattern
 70
    14
 71
     2
 72
     2
 73
     0
 90
        0
 40
-0.6
 41
-30.0
 62
     5
 63
     7
 74
     1
 91
        4
 64
     7
 65
   257
 75
     7
175
     7
 42
1.0
 92
        8
 66
     7
 43
1.0
 76
     1
 77
     6
 78
     2
 67
     7
 79
     5
170
     0
171
     0
290
     0
174
     0
 93
        1
 44
0.0
173
     0
291
     1
 45
0.0
1001
ACAD
1000
AcDbSavedByObjectVersion
1070
     0
  0
VISUALSTYLE
  5
2BEE
102
{ACAD_REACTORS
330
2BE4
102
}
330
2BE4
100
AcDbVisualStyle
  2
Realistic
 70
     8
 71
     2
 72
     2
 73
     0
 90
        0
 40
-0.6
 41
-30.0
 62
     5
 63
     7
 74
     1
 91
        0
 64
     7
 65
   257
 75
     1
175
     1
 42
1.0
 92
        8
 66
     8
 43
1.0
 76
     1
 77
     6
 78
     2
 67
     7
 79
     5
170
     0
171
     0
290
     0
174
     0
 93
       13
 44
0.0
173
     0
291
     0
 45
0.0
1001
ACAD
1000
AcDbSavedByObjectVersion
1070
     0
  0
VISUALSTYLE
  5
2BF1
102
{ACAD_REACTORS
330
2BE4
102
}
330
2BE4
100
AcDbVisualStyle
  2
Thicken
 70
    13
 71
     2
 72
     2
 73
     0
 90
        0
 40
-0.6
 41
-30.0
 62
     5
 63
     7
 74
     1
 91
        4
 64
     7
 65
   257
 75
     1
175
     1
 42
1.0
 92
       12
 66
     7
 43
1.0
 76
     1
 77
     6
 78
     2
 67
     7
 79
     5
170
     0
171
     0
290
     0
174
     0
 93
        1
 44
0.0
173
     0
291
     1
 45
0.0
1001
ACAD
1000
AcDbSavedByObjectVersion
1070
     0
  0
DICTIONARYVAR
  5
2E1C
102
{ACAD_REACTORS
330
2E19
102
}
330
2E19
100
DictionaryVariables
280
     0
  1
1:1
  0
DICTIONARYVAR
  5
2E1B
102
{ACAD_REACTORS
330
2E19
102
}
330
2E19
100
DictionaryVariables
280
     0
  1
STANDARD
  0
DICTIONARYVAR
  5
2E1A
102
{ACAD_REACTORS
330
2E19
102
}
330
2E19
100
DictionaryVariables
280
     0
  1
STANDARD
  0
DICTIONARYVAR
  5
2E1F
102
{ACAD_REACTORS
330
2E19
102
}
330
2E19
100
DictionaryVariables
280
     0
  1
1
  0
DICTIONARYVAR
  5
2E1E
102
{ACAD_REACTORS
330
2E19
102
}
330
2E19
100
DictionaryVariables
280
     0
  1
1
  0
DICTIONARYVAR
  5
2E1D
102
{ACAD_REACTORS
330
2E19
102
}
330
2E19
100
DictionaryVariables
280
     0
  1
127
  0
DICTIONARY
  5
2DD3
102
{ACAD_REACTORS
330
2DC5
102
}
330
2DC5
100
AcDbDictionary
281
     1
  0
DICTIONARY
  5
2D13
102
{ACAD_REACTORS
330
2D12
102
}
330
2D12
100
AcDbDictionary
281
     1
  3
DWGSETTINGS
350
2D14
  3
TRANSSETTINGS
350
2D15
  0
ACAMGFILTERDAT
  5
2DF2
102
{ACAD_REACTORS
330
2DED
102
}
330
2DED
100
AcAmgFilterDat
 70
    15
  1
DIMENSION,AMDT_*_DIM
  2
*
  3
*
  4
*
  5
*
290
     1
  0
ACAMGFILTERDAT
  5
2DF1
102
{ACAD_REACTORS
330
2DED
102
}
330
2DED
100
AcAmgFilterDat
 70
    15
  1
*
  2
AM_FEA-AM_*
  3
*
  4
*
  5
*
290
     1
  0
ACAMGFILTERDAT
  5
2DEE
102
{ACAD_REACTORS
330
2DED
102
}
330
2DED
100
AcAmgFilterDat
 70
    15
  1
HATCH
  2
*
  3
*
  4
*
  5
*
290
     1
  0
ACAMGFILTERDAT
  5
2DEF
102
{ACAD_REACTORS
330
2DED
102
}
330
2DED
100
AcAmgFilterDat
 70
    15
  1
LINE
  2
8,8N,*-8,*-8N,AM_8,AM_8N,*-AM_8,*-AM_8N
  3
*
  4
*
  5
INSERT,STDPART2D
290
     1
  0
ACAMGFILTERDAT
  5
2DF3
102
{ACAD_REACTORS
330
2DED
102
}
330
2DED
100
AcAmgFilterDat
 70
    15
  1
ARC
  2
AM_5
  3
*
  4
2
  5
INSERT
290
     0
  0
ACAMGFILTERDAT
  5
2DF0
102
{ACAD_REACTORS
330
2DED
102
}
330
2DED
100
AcAmgFilterDat
 70
    15
  1
ACMFCFRAME,ACMDATUMTARGET,ACMDATUMID,ACMWELDSYM,ACMSURFSYM,ACMFEATID,ACMPARTREF,ACMBALLOON,AMDTEDGESYM,AMGSCREWCALCTABLE,ACMMARKSTAMP
  2
*
  3
*
  4
*
  5
*
290
     1
  0
LAYER_INDEX
  5
2E0C
102
{ACAD_REACTORS
330
2E0B
102
}
330
2E0B
100
AcDbIndex
 40
2456211.582936169
100
AcDbLayerIndex
  8
0
360
2E0D
 90
        2
  8
OUTLINE
360
2E0E
 90
       21
  8
SIZE
360
2E0F
 90
       38
  8
BASIS
360
2E10
 90
        1
  8
DETAIL
360
2E11
 90
       25
  8
ARRANGE
360
2E12
 90
        2
  8
DEFPOINTS
360
2E13
 90
        0
  8
ETC
360
2E14
 90
        3
  8
FIX
360
2E15
 90
        0
  8
NOTE
360
2E16
 90
        4
  8
SERVICESPACE
360
2E17
 90
        0
  8
SYMBOLLINE
360
2E18
 90
        0
  0
DICTIONARY
  5
2E2F
330
2C32
100
AcDbDictionary
280
     1
281
     1
  3
ACAD_XREC_ROUNDTRIP
360
2E30
  0
DICTIONARY
  5
2E2D
330
2C2E
100
AcDbDictionary
280
     1
281
     1
  3
ACAD_XREC_ROUNDTRIP
360
2E2E
  0
DICTIONARY
  5
2BD5
330
2BD4
100
AcDbDictionary
280
     1
281
     1
  3
ACAD_XREC_ROUNDTRIP
360
2E2A
  3
BUMPTILE
360
2BD7
  3
DIFFUSETILE
360
2BD6
  3
OPACITYTILE
360
2BDA
  3
REFLECTIONTILE
360
2BD9
  3
REFRACTIONTILE
360
2BDB
  3
SPECULARTILE
360
2BD8
  0
DICTIONARY
  5
2BCD
330
2BCC
100
AcDbDictionary
280
     1
281
     1
  3
ACAD_XREC_ROUNDTRIP
360
2E29
  3
BUMPTILE
360
2BCF
  3
DIFFUSETILE
360
2BCE
  3
OPACITYTILE
360
2BD2
  3
REFLECTIONTILE
360
2BD1
  3
REFRACTIONTILE
360
2BD3
  3
SPECULARTILE
360
2BD0
  0
DICTIONARY
  5
2BDD
330
2BDC
100
AcDbDictionary
280
     1
281
     1
  3
ACAD_XREC_ROUNDTRIP
360
2E2B
  3
BUMPTILE
360
2BDF
  3
DIFFUSETILE
360
2BDE
  3
OPACITYTILE
360
2BE2
  3
REFLECTIONTILE
360
2BE1
  3
REFRACTIONTILE
360
2BE3
  3
SPECULARTILE
360
2BE0
  0
DICTIONARY
  5
2E20
330
2C27
100
AcDbDictionary
280
     1
281
     1
  3
ACAD_ROUNDTRIP_2008_TABLESTYLE_CELLSTYLEMAP
360
2E21
  3
ACAD_XREC_ROUNDTRIP
360
2E2C
  0
IDBUFFER
  5
2E0D
330
0
100
AcDbIdBuffer
330
29B9
330
29BA
  0
IDBUFFER
  5
2E0E
330
0
100
AcDbIdBuffer
330
29C6
330
29C7
330
29CB
330
29CD
330
29CE
330
953
330
954
330
955
330
956
330
957
330
958
330
29BC
330
29BD
330
29BE
330
29BF
330
29C0
330
29C1
330
29C2
330
29C3
330
29C4
330
29C5
  0
IDBUFFER
  5
2E0F
330
0
100
AcDbIdBuffer
330
29E3
330
29E4
330
29E5
330
29E6
330
29E7
330
29E8
330
29E9
330
29EA
330
29EB
330
29EC
330
29ED
330
29EE
330
29EF
330
29F0
330
29F1
330
29F2
330
29F3
330
29F4
330
29F5
330
29F6
330
29F7
330
29F8
330
29D3
330
29D4
330
29D5
330
29D6
330
29D7
330
29D8
330
29D9
330
29DA
330
29DB
330
29DC
330
29DD
330
29DE
330
29DF
330
29E0
330
29E1
330
29E2
  0
IDBUFFER
  5
2E10
330
0
100
AcDbIdBuffer
330
29B4
  0
IDBUFFER
  5
2E11
330
0
100
AcDbIdBuffer
330
29B6
330
29B7
330
29B8
330
29C8
330
29CC
330
29CF
330
29D0
330
29D1
330
29D2
330
299F
330
29A0
330
29A4
330
29A5
330
29A6
330
29A7
330
29A8
330
29A9
330
29AA
330
29AB
330
29AC
330
29AE
330
29AF
330
29B1
330
29B2
330
29B3
  0
IDBUFFER
  5
2E12
330
0
100
AcDbIdBuffer
330
29B0
330
29B5
  0
IDBUFFER
  5
2E13
330
0
100
AcDbIdBuffer
  0
IDBUFFER
  5
2E14
330
0
100
AcDbIdBuffer
330
29A1
330
29A2
330
29A3
  0
IDBUFFER
  5
2E15
330
0
100
AcDbIdBuffer
  0
IDBUFFER
  5
2E16
330
0
100
AcDbIdBuffer
330
29AD
330
29BB
330
29C9
330
29CA
  0
IDBUFFER
  5
2E17
330
0
100
AcDbIdBuffer
  0
IDBUFFER
  5
2E18
330
0
100
AcDbIdBuffer
  0
XRECORD
  5
2E30
102
{ACAD_REACTORS
330
2E2F
102
}
330
2E2F
100
AcDbXrecord
280
     1
102
SHADEPLOT
 70
     0
102
SHADEPLOTRESLEVEL
 70
     2
102
SHADEPLOTCUSTOMDPI
 70
   300
  0
XRECORD
  5
2E2E
102
{ACAD_REACTORS
330
2E2D
102
}
330
2E2D
100
AcDbXrecord
280
     1
102
SHADEPLOT
 70
     0
102
SHADEPLOTRESLEVEL
 70
     2
102
SHADEPLOTCUSTOMDPI
 70
   300
  0
XRECORD
  5
2E2A
102
{ACAD_REACTORS
330
2BD5
102
}
330
2BD5
100
AcDbXrecord
280
     1
102
MATERIAL
148
0.0
149
0.0
149
0.0
 93
        0
 94
      127
282
     0
 72
     0
 77
     0
171
     0
175
     0
179
     0
273
     0
  0
XRECORD
  5
2BD7
102
{ACAD_REACTORS
330
2BD5
102
}
330
2BD5
100
AcDbXrecord
280
     1
270
     1
271
     1
  0
XRECORD
  5
2BD6
102
{ACAD_REACTORS
330
2BD5
102
}
330
2BD5
100
AcDbXrecord
280
     1
270
     1
271
     1
  0
XRECORD
  5
2BDA
102
{ACAD_REACTORS
330
2BD5
102
}
330
2BD5
100
AcDbXrecord
280
     1
270
     1
271
     1
  0
XRECORD
  5
2BD9
102
{ACAD_REACTORS
330
2BD5
102
}
330
2BD5
100
AcDbXrecord
280
     1
270
     1
271
     1
  0
XRECORD
  5
2BDB
102
{ACAD_REACTORS
330
2BD5
102
}
330
2BD5
100
AcDbXrecord
280
     1
270
     1
271
     1
  0
XRECORD
  5
2BD8
102
{ACAD_REACTORS
330
2BD5
102
}
330
2BD5
100
AcDbXrecord
280
     1
270
     1
271
     1
  0
XRECORD
  5
2E29
102
{ACAD_REACTORS
330
2BCD
102
}
330
2BCD
100
AcDbXrecord
280
     1
102
MATERIAL
148
0.0
149
0.0
149
0.0
 93
        0
 94
      127
282
     0
 72
     0
 77
     0
171
     0
175
     0
179
     0
273
     0
  0
XRECORD
  5
2BCF
102
{ACAD_REACTORS
330
2BCD
102
}
330
2BCD
100
AcDbXrecord
280
     1
270
     1
271
     1
  0
XRECORD
  5
2BCE
102
{ACAD_REACTORS
330
2BCD
102
}
330
2BCD
100
AcDbXrecord
280
     1
270
     1
271
     1
  0
XRECORD
  5
2BD2
102
{ACAD_REACTORS
330
2BCD
102
}
330
2BCD
100
AcDbXrecord
280
     1
270
     1
271
     1
  0
XRECORD
  5
2BD1
102
{ACAD_REACTORS
330
2BCD
102
}
330
2BCD
100
AcDbXrecord
280
     1
270
     1
271
     1
  0
XRECORD
  5
2BD3
102
{ACAD_REACTORS
330
2BCD
102
}
330
2BCD
100
AcDbXrecord
280
     1
270
     1
271
     1
  0
XRECORD
  5
2BD0
102
{ACAD_REACTORS
330
2BCD
102
}
330
2BCD
100
AcDbXrecord
280
     1
270
     1
271
     1
  0
XRECORD
  5
2E2B
102
{ACAD_REACTORS
330
2BDD
102
}
330
2BDD
100
AcDbXrecord
280
     1
102
MATERIAL
148
0.0
149
0.0
149
0.0
 93
        0
 94
      127
282
     0
 72
     0
 77
     0
171
     0
175
     0
179
     0
273
     0
  0
XRECORD
  5
2BDF
102
{ACAD_REACTORS
330
2BDD
102
}
330
2BDD
100
AcDbXrecord
280
     1
270
     1
271
     1
  0
XRECORD
  5
2BDE
102
{ACAD_REACTORS
330
2BDD
102
}
330
2BDD
100
AcDbXrecord
280
     1
270
     1
271
     1
  0
XRECORD
  5
2BE2
102
{ACAD_REACTORS
330
2BDD
102
}
330
2BDD
100
AcDbXrecord
280
     1
270
     1
271
     1
  0
XRECORD
  5
2BE1
102
{ACAD_REACTORS
330
2BDD
102
}
330
2BDD
100
AcDbXrecord
280
     1
270
     1
271
     1
  0
XRECORD
  5
2BE3
102
{ACAD_REACTORS
330
2BDD
102
}
330
2BDD
100
AcDbXrecord
280
     1
270
     1
271
     1
  0
XRECORD
  5
2BE0
102
{ACAD_REACTORS
330
2BDD
102
}
330
2BDD
100
AcDbXrecord
280
     1
270
     1
271
     1
  0
CELLSTYLEMAP
  5
2E21
102
{ACAD_REACTORS
330
2E20
102
}
330
2E20
100
AcDbCellStyleMap
 90
        3
300
CELLSTYLE
  1
TABLEFORMAT_BEGIN
 90
        5
170
     1
 91
        0
 92
    32768
 62
   257
 93
        1
300
CONTENTFORMAT
  1
CONTENTFORMAT_BEGIN
 90
        0
 91
        0
 92
      512
 93
        0
300

 40
0.0
140
1.0
 94
        5
 62
     0
340
2C18
144
0.25
309
CONTENTFORMAT_END
171
     0
 94
        0
309
TABLEFORMAT_END
  1
CELLSTYLE_BEGIN
 90
        1
 91
        1
300
_TITLE
309
CELLSTYLE_END
300
CELLSTYLE
  1
TABLEFORMAT_BEGIN
 90
        5
170
     1
 91
        0
 92
        0
 62
   257
 93
        1
300
CONTENTFORMAT
  1
CONTENTFORMAT_BEGIN
 90
        0
 91
        0
 92
      512
 93
        0
300

 40
0.0
140
1.0
 94
        5
 62
     0
340
2C18
144
0.18
309
CONTENTFORMAT_END
171
     0
 94
        0
309
TABLEFORMAT_END
  1
CELLSTYLE_BEGIN
 90
        2
 91
        1
300
_HEADER
309
CELLSTYLE_END
300
CELLSTYLE
  1
TABLEFORMAT_BEGIN
 90
        5
170
     1
 91
        0
 92
        0
 62
   257
 93
        1
300
CONTENTFORMAT
  1
CONTENTFORMAT_BEGIN
 90
        0
 91
        0
 92
      512
 93
        0
300

 40
0.0
140
1.0
 94
        2
 62
     0
340
2C18
144
0.18
309
CONTENTFORMAT_END
171
     0
 94
        0
309
TABLEFORMAT_END
  1
CELLSTYLE_BEGIN
 90
        3
 91
        2
300
_DATA
309
CELLSTYLE_END
  0
XRECORD
  5
2E2C
102
{ACAD_REACTORS
330
2E20
102
}
330
2E20
100
AcDbXrecord
280
     1
102
ACAD_ROUNDTRIP_PRE2007_TABLESTYLE
 90
      512
 91
        0
  1

 92
      512
 93
        0
  2

 94
      512
 95
        0
  3

  0
ENDSEC
  0
EOF
