  0
SECTION
  2
HEADER
  9
$ACADVER
  1
AC1015
  9
$ACADMAINTVER
 70
    20
  9
$DWGCODEPAGE
  3
ANSI_932
  9
$INSBASE
 10
0.0
 20
0.0
 30
0.0
  9
$EXTMIN
 10
-863.7725667257019
 20
-698.5473518708586
 30
-0.0007624039136971
  9
$EXTMAX
 10
961.6607780936865
 20
531.6009601014666
 30
50.00076310244821
  9
$LIMMIN
 10
-2970.0
 20
-2100.0
  9
$LIMMAX
 10
2970.0
 20
2100.0
  9
$ORTHOMODE
 70
     1
  9
$REGENMODE
 70
     0
  9
$FILLMODE
 70
     1
  9
$QTEXTMODE
 70
     0
  9
$MIRRTEXT
 70
     0
  9
$LTSCALE
 40
20.0
  9
$ATTMODE
 70
     1
  9
$TEXTSIZE
 40
64.0
  9
$TRACEWID
 40
0.05
  9
$TEXTSTYLE
  7
STANDARD
  9
$CLAYER
  8
0
  9
$CELTYPE
  6
ByLayer
  9
$CECOLOR
 62
   256
  9
$CELTSCALE
 40
1.0
  9
$DISPSILH
 70
     0
  9
$DIMSCALE
 40
1.0
  9
$DIMASZ
 40
0.12
  9
$DIMEXO
 40
0.05
  9
$DIMDLI
 40
0.5
  9
$DIMRND
 40
0.0
  9
$DIMDLE
 40
0.0
  9
$DIMEXE
 40
0.1
  9
$DIMTP
 40
0.1
  9
$DIMTM
 40
0.1
  9
$DIMTXT
 40
0.12
  9
$DIMCEN
 40
0.0
  9
$DIMTSZ
 40
0.0
  9
$DIMTOL
 70
     0
  9
$DIMLIM
 70
     0
  9
$DIMTIH
 70
     1
  9
$DIMTOH
 70
     1
  9
$DIMSE1
 70
     0
  9
$DIMSE2
 70
     0
  9
$DIMTAD
 70
     0
  9
$DIMZIN
 70
     7
  9
$DIMBLK
  1

  9
$DIMASO
 70
     1
  9
$DIMSHO
 70
     0
  9
$DIMPOST
  1

  9
$DIMAPOST
  1
mm
  9
$DIMALT
 70
     0
  9
$DIMALTD
 70
     2
  9
$DIMALTF
 40
25.4
  9
$DIMLFAC
 40
1.0
  9
$DIMTOFL
 70
     0
  9
$DIMTVP
 40
0.0
  9
$DIMTIX
 70
     0
  9
$DIMSOXD
 70
     0
  9
$DIMSAH
 70
     0
  9
$DIMBLK1
  1

  9
$DIMBLK2
  1

  9
$DIMSTYLE
  2
AM_ANSI
  9
$DIMCLRD
 70
   256
  9
$DIMCLRE
 70
   256
  9
$DIMCLRT
 70
     2
  9
$DIMTFAC
 40
0.71
  9
$DIMGAP
 40
0.06
  9
$DIMJUST
 70
     0
  9
$DIMSD1
 70
     0
  9
$DIMSD2
 70
     0
  9
$DIMTOLJ
 70
     1
  9
$DIMTZIN
 70
     7
  9
$DIMALTZ
 70
     0
  9
$DIMALTTZ
 70
     0
  9
$DIMUPT
 70
     0
  9
$DIMDEC
 70
     4
  9
$DIMTDEC
 70
     4
  9
$DIMALTU
 70
     2
  9
$DIMALTTD
 70
     4
  9
$DIMTXSTY
  7
STANDARD
  9
$DIMAUNIT
 70
     0
  9
$DIMADEC
 70
     0
  9
$DIMALTRND
 40
0.0
  9
$DIMAZIN
 70
     2
  9
$DIMDSEP
 70
    46
  9
$DIMATFIT
 70
     3
  9
$DIMFRAC
 70
     0
  9
$DIMLDRBLK
  1

  9
$DIMLUNIT
 70
     2
  9
$DIMLWD
 70
    -1
  9
$DIMLWE
 70
    -1
  9
$DIMTMOVE
 70
     0
  9
$LUNITS
 70
     2
  9
$LUPREC
 70
     4
  9
$SKETCHINC
 40
0.1
  9
$FILLETRAD
 40
4.0
  9
$AUNITS
 70
     1
  9
$AUPREC
 70
     3
  9
$MENU
  1
ACAD
  9
$ELEVATION
 40
0.0
  9
$PELEVATION
 40
0.0
  9
$THICKNESS
 40
50.0
  9
$LIMCHECK
 70
     0
  9
$CHAMFERA
 40
0.0
  9
$CHAMFERB
 40
0.0
  9
$CHAMFERC
 40
0.0
  9
$CHAMFERD
 40
0.0
  9
$SKPOLY
 70
     0
  9
$TDCREATE
 40
2452321.396199653
  9
$TDUCREATE
 40
2452321.021199653
  9
$TDUPDATE
 40
2456211.584886759
  9
$TDUUPDATE
 40
2456211.209886759
  9
$TDINDWG
 40
1.0406298843
  9
$TDUSRTIMER
 40
1.0406239236
  9
$USRTIMER
 70
     1
  9
$ANGBASE
 50
0.0
  9
$ANGDIR
 70
     0
  9
$PDMODE
 70
     3
  9
$PDSIZE
 40
-2.0
  9
$PLINEWID
 40
0.0
  9
$SPLFRAME
 70
     0
  9
$SPLINETYPE
 70
     6
  9
$SPLINESEGS
 70
     8
  9
$HANDSEED
  5
2D33
  9
$SURFTAB1
 70
     6
  9
$SURFTAB2
 70
     6
  9
$SURFTYPE
 70
     6
  9
$SURFU
 70
     6
  9
$SURFV
 70
     6
  9
$UCSBASE
  2

  9
$UCSNAME
  2

  9
$UCSORG
 10
0.0
 20
0.0
 30
0.0
  9
$UCSXDIR
 10
1.0
 20
0.0
 30
0.0
  9
$UCSYDIR
 10
0.0
 20
1.0
 30
0.0
  9
$UCSORTHOREF
  2

  9
$UCSORTHOVIEW
 70
     0
  9
$UCSORGTOP
 10
0.0
 20
0.0
 30
0.0
  9
$UCSORGBOTTOM
 10
0.0
 20
0.0
 30
0.0
  9
$UCSORGLEFT
 10
0.0
 20
0.0
 30
0.0
  9
$UCSORGRIGHT
 10
0.0
 20
0.0
 30
0.0
  9
$UCSORGFRONT
 10
0.0
 20
0.0
 30
0.0
  9
$UCSORGBACK
 10
0.0
 20
0.0
 30
0.0
  9
$PUCSBASE
  2

  9
$PUCSNAME
  2

  9
$PUCSORG
 10
0.0
 20
0.0
 30
0.0
  9
$PUCSXDIR
 10
1.0
 20
0.0
 30
0.0
  9
$PUCSYDIR
 10
0.0
 20
1.0
 30
0.0
  9
$PUCSORTHOREF
  2

  9
$PUCSORTHOVIEW
 70
     0
  9
$PUCSORGTOP
 10
0.0
 20
0.0
 30
0.0
  9
$PUCSORGBOTTOM
 10
0.0
 20
0.0
 30
0.0
  9
$PUCSORGLEFT
 10
0.0
 20
0.0
 30
0.0
  9
$PUCSORGRIGHT
 10
0.0
 20
0.0
 30
0.0
  9
$PUCSORGFRONT
 10
0.0
 20
0.0
 30
0.0
  9
$PUCSORGBACK
 10
0.0
 20
0.0
 30
0.0
  9
$USERI1
 70
     0
  9
$USERI2
 70
     0
  9
$USERI3
 70
     0
  9
$USERI4
 70
     0
  9
$USERI5
 70
     0
  9
$USERR1
 40
20.0
  9
$USERR2
 40
0.0
  9
$USERR3
 40
0.0
  9
$USERR4
 40
0.0
  9
$USERR5
 40
0.0
  9
$WORLDVIEW
 70
     1
  9
$SHADEDGE
 70
     3
  9
$SHADEDIF
 70
    70
  9
$TILEMODE
 70
     1
  9
$MAXACTVP
 70
    64
  9
$PINSBASE
 10
0.0
 20
0.0
 30
0.0
  9
$PLIMCHECK
 70
     0
  9
$PEXTMIN
 10
1.000000000000000E+20
 20
1.000000000000000E+20
 30
1.000000000000000E+20
  9
$PEXTMAX
 10
-1.000000000000000E+20
 20
-1.000000000000000E+20
 30
-1.000000000000000E+20
  9
$PLIMMIN
 10
0.0
 20
0.0
  9
$PLIMMAX
 10
12.0
 20
9.0
  9
$UNITMODE
 70
     0
  9
$VISRETAIN
 70
     1
  9
$PLINEGEN
 70
     0
  9
$PSLTSCALE
 70
     1
  9
$TREEDEPTH
 70
  3020
  9
$CMLSTYLE
  2
Standard
  9
$CMLJUST
 70
     0
  9
$CMLSCALE
 40
1.0
  9
$PROXYGRAPHICS
 70
     1
  9
$MEASUREMENT
 70
     0
  9
$CELWEIGHT
370
    -1
  9
$ENDCAPS
280
     0
  9
$JOINSTYLE
280
     0
  9
$LWDISPLAY
290
     0
  9
$INSUNITS
 70
     0
  9
$HYPERLINKBASE
  1

  9
$STYLESHEET
  1

  9
$XEDIT
290
     1
  9
$CEPSNTYPE
380
     0
  9
$PSTYLEMODE
290
     1
  9
$FINGERPRINTGUID
  2
{F5F86CAC-F737-4246-8338-AC580305A0D9}
  9
$VERSIONGUID
  2
{3C7CFFDE-FDA3-4C10-8AEA-08CB193A8A95}
  9
$EXTNAMES
290
     1
  9
$PSVPSCALE
 40
0.0
  9
$OLESTARTUP
290
     0
  0
ENDSEC
  0
SECTION
  2
CLASSES
  0
CLASS
  1
ACDBDICTIONARYWDFLT
  2
AcDbDictionaryWithDefault
  3
ObjectDBX Classes
 90
        0
280
     0
281
     0
  0
CLASS
  1
MATERIAL
  2
AcDbMaterial
  3
ObjectDBX Classes
 90
     1153
280
     0
281
     0
  0
CLASS
  1
VISUALSTYLE
  2
AcDbVisualStyle
  3
ObjectDBX Classes
 90
     4095
280
     0
281
     0
  0
CLASS
  1
SCALE
  2
AcDbScale
  3
ObjectDBX Classes
 90
     1153
280
     0
281
     0
  0
CLASS
  1
TABLESTYLE
  2
AcDbTableStyle
  3
ObjectDBX Classes
 90
     4095
280
     0
281
     0
  0
CLASS
  1
MLEADERSTYLE
  2
AcDbMLeaderStyle
  3
ACDB_MLEADERSTYLE_CLASS
 90
     4095
280
     0
281
     0
  0
CLASS
  1
AMGSETTINGSOBJ
  2
AmgSettingsObj
  3
"AcadM|Product Description: AutoCAD Mechanical|Company: Autodesk, Inc."
 90
     1024
280
     0
281
     0
  0
CLASS
  1
ACME_DOCUMENT
  2
AcMeDbDoc
  3
AcMeServices
 90
     1024
280
     0
281
     0
  0
CLASS
  1
ACMESCOPE
  2
AcMeScope
  3
AcMeServices
 90
     1024
280
     0
281
     0
  0
CLASS
  1
ACMECOMMANDHISTORY
  2
AcMeCommandHistory
  3
AcMeServices
 90
     1024
280
     0
281
     0
  0
CLASS
  1
ACIMSYSVARMAN
  2
AcImSysVarManager
  3
AcMeServices
 90
     1024
280
     0
281
     0
  0
CLASS
  1
ACIMREALSYSVAR
  2
AcImRealSysVar
  3
AcMeServices
 90
     1024
280
     0
281
     0
  0
CLASS
  1
ACIMINTSYSVAR
  2
AcImIntSysVar
  3
AcMeServices
 90
     1024
280
     0
281
     0
  0
CLASS
  1
ACMEDRAWINGMAN
  2
AcMeDrawingMan
  3
AcMeServices
 90
     1024
280
     0
281
     0
  0
CLASS
  1
ACMEVIEW
  2
AcMeView
  3
AcMeServices
 90
     1024
280
     0
281
     0
  0
CLASS
  1
ACDBENTITYCACHE
  2
AcMeEntityCache
  3
AcMeServices
 90
     1024
280
     0
281
     0
  0
CLASS
  1
GSMANAGER
  2
AcMeGSManager
  3
AcMeServices
 90
     1024
280
     0
281
     0
  0
CLASS
  1
AMDTINTERNALREACTOR
  2
AmdtInternalReactor
  3
AcMeServices
 90
     1024
280
     0
281
     0
  0
CLASS
  1
ACMESTATEMGR
  2
AcMeStateMgr
  3
AcMeServices
 90
     1024
280
     0
281
     0
  0
CLASS
  1
ACGREFMASTER
  2
AcGrefMaster
  3
AcAttribServices
 90
     1024
280
     0
281
     0
  0
CLASS
  1
AM_DRAWING_MGR
  2
AcDmDwgMgr
  3
AcMechDwgViewMgmt
 90
     1024
280
     0
281
     0
  0
CLASS
  1
AM_DWG_DOCUMENT
  2
AcDmDwgDocument
  3
AcMechDwgViewMgmt
 90
     1024
280
     0
281
     0
  0
CLASS
  1
AM_DWG_SHEET
  2
AcDmSheet
  3
AcMechDwgViewMgmt
 90
     1024
280
     0
281
     0
  0
CLASS
  1
AM_VIEWDIMPARMAP
  2
AcDmViewDimParMap
  3
AcMechDwgViewMgmt
 90
     1024
280
     0
281
     0
  0
CLASS
  1
AM_DWGMGR_NAME
  2
AcDmDwgMgrName
  3
AcMechDwgViewMgmt
 90
     1024
280
     0
281
     0
  0
CLASS
  1
ACME_DATABASE
  2
AcMeDbDatabase
  3
AcMeServices
 90
     1024
280
     0
281
     0
  0
CLASS
  1
ACRFINSADJUSTERMGR
  2
AcRfInsAdjusterMgr
  3
AcMeServices
 90
     1024
280
     0
281
     0
  0
CLASS
  1
ACGREFACADMASTER
  2
AcGrefacadMaster
  3
AcGrefServices
 90
     1024
280
     0
281
     0
  0
CLASS
  1
AMDTMENUSTATEMGR
  2
AmdtMenuStateMgr
  3
McadcomServices
 90
     1024
280
     0
281
     0
  0
CLASS
  1
AMDTMCOMMENUSTATE
  2
AmdtMcomMenuState
  3
McadcomServices
 90
     1024
280
     0
281
     0
  0
CLASS
  1
AMIMASTER
  2
AmiMaster
  3
AmiServices
 90
     1024
280
     0
281
     0
  0
CLASS
  1
ASAPP
  2
AcAsAppObject
  3
AutoSurfServices
 90
     1024
280
     0
281
     0
  0
CLASS
  1
IM_STATIC_MAN
  2
AcImStaticVarManager
  3
AcMeServices
 90
     1024
280
     0
281
     0
  0
CLASS
  1
ACIMSTRSYSVAR
  2
AcImStrSysVar
  3
AcMeServices
 90
     1024
280
     0
281
     0
  0
CLASS
  1
ACIMDBLSTATICVAR
  2
AcImDblStaticVar
  3
AcMeServices
 90
     1024
280
     0
281
     0
  0
CLASS
  1
ACIMSTRSTATICVAR
  2
AcImStrStaticVar
  3
AcMeServices
 90
     1024
280
     0
281
     0
  0
CLASS
  1
ACIMINTSTATICVAR
  2
AcImIntStaticVar
  3
AcMeServices
 90
     1024
280
     0
281
     0
  0
CLASS
  1
ACASGREFMASTER
  2
AcAsGrefMaster
  3
AutoSurfResolverServices
 90
     1024
280
     0
281
     0
  0
CLASS
  1
ACADGREFMODULE
  2
AcAdGrefModule
  3
AdGrefServices
 90
     1024
280
     0
281
     0
  0
CLASS
  1
AMDTMAPISURFMOUDULE
  2
AmdtMApiSurfModule
  3
MApiSurfServices
 90
     1024
280
     0
281
     0
  0
CLASS
  1
MAPIAMMOUDLE
  2
MApiAmModule
  3
MApiAmServices
 90
     1024
280
     0
281
     0
  0
CLASS
  1
AMDTADMENUSTATE
  2
AmdtAdMenuState
  3
DesignerServices
 90
     1024
280
     0
281
     0
  0
CLASS
  1
ADAPPL
  2
AcAdAppl
  3
DesignerServices
 90
     1024
280
     0
281
     0
  0
CLASS
  1
DEPMGR
  2
AcAdDepMgr
  3
DesignerServices
 90
     1024
280
     0
281
     0
  0
CLASS
  1
PARAMMGR
  2
AcAdParamMgr
  3
DesignerServices
 90
     1024
280
     0
281
     0
  0
CLASS
  1
PARAMSCOPE
  2
AcAdParamScope
  3
DesignerServices
 90
     1024
280
     0
281
     0
  0
CLASS
  1
NAMEDAPPL
  2
AcAdNamedAppl
  3
DesignerServices
 90
     1024
280
     0
281
     0
  0
CLASS
  1
AMDTDMMENUSTATE
  2
AmdtDmMenuState
  3
AcMechDwgViewMgmt
 90
     1024
280
     0
281
     0
  0
CLASS
  1
MAPIADMODULE
  2
MApiAdModule
  3
MApiAdServices
 90
     1024
280
     0
281
     0
  0
CLASS
  1
AMDTAMMENUSTATE
  2
AmdtAmMenuState
  3
DesignerAssemblies
 90
     1024
280
     0
281
     0
  0
CLASS
  1
ACAMPROJECT
  2
AcAmProject
  3
DesignerAssemblies
 90
     1024
280
     0
281
     0
  0
CLASS
  1
ACAMGRCOMPDEF
  2
AcAmGrCompDef
  3
DesignerAssemblies
 90
     1024
280
     0
281
     0
  0
CLASS
  1
ACCMCONTEXT
  2
AcCmContext
  3
DesignerAssemblies
 90
     1024
280
     0
281
     0
  0
CLASS
  1
ACAMCOMPDEF
  2
AcAmCompDef
  3
DesignerAssemblies
 90
     1024
280
     0
281
     0
  0
CLASS
  1
ACAMCOMPDEFMGR
  2
AcAmCompDefMgr
  3
DesignerAssemblies
 90
     1024
280
     0
281
     0
  0
CLASS
  1
AMCONTEXTMGR
  2
AcAmContextMgr
  3
DesignerAssemblies
 90
     1024
280
     0
281
     0
  0
CLASS
  1
ACAMCONTEXTMODELER
  2
AcAmContextModeler
  3
DesignerAssemblies
 90
     1024
280
     0
281
     0
  0
CLASS
  1
ACMDATADICTIONARY
  2
AcmDataDictionary
  3
"AcmSymBB|Product Description: AutoCAD Mechanical|Company: Autodesk, Inc."
 90
     1024
280
     0
281
     0
  0
CLASS
  1
ACMDATAENTRYBLOCK
  2
AcmDataEntryBlock
  3
AcmSymBB|Product Description: AutoCAD Mechanical|Company: Autodesk, Inc.
 90
     1024
280
     0
281
     0
  0
CLASS
  1
ACRFATTGENMGR
  2
AcRfAttGeneralMgr
  3
AcAttribServices
 90
     1024
280
     0
281
     0
  0
CLASS
  1
ACRFOBJATTMGR
  2
AcRfObjAttGroupMgr
  3
AcAttribServices
 90
     1024
280
     0
281
     0
  0
CLASS
  1
ACRFMCADAPIATTHOLDER
  2
AcRfMCADAPIAttHolder
  3
AcAttribServices
 90
     1024
280
     0
281
     0
  0
CLASS
  1
AMDTSYSATTR
  2
AmdtSystemAttribute
  3
AcAttribServices
 90
     1024
280
     0
281
     0
  0
CLASS
  1
CATALOGSTATE
  2
AcAmCatalogState
  3
DesignerAssemblies
 90
     1024
280
     0
281
     0
  0
CLASS
  1
ACAMGRCOMPDEFSET
  2
AcAmGrCompDefSet
  3
DesignerAssemblies
 90
     1024
280
     0
281
     0
  0
CLASS
  1
AMDTBROWSERDBTAB
  2
AmdtBrowserDbTab
  3
McadcomServices
 90
     1024
280
     0
281
     0
  0
CLASS
  1
CBROWSERAPPOBJECT
  2
CBrowserAppObject
  3
McadcomServices
 90
     1024
280
     0
281
     0
  0
CLASS
  1
DM_PLACEHOLDER
  2
AcDmSelsetPlaceholder
  3
AcMechDwgViewMgmt
 90
     1024
280
     0
281
     0
  0
CLASS
  1
ACMSTANDARDANSI
  2
AcmStandardANSI
  3
"Amdt_StdImp|Product Description: AutoCAD Mechanical|Company: Autodesk, Inc."
 90
     1024
280
     0
281
     0
  0
CLASS
  1
ACMSURFSTANDARDANSI
  2
AcmSurfTextStdANSI
  3
"Amdt_StdImp|Product Description: AutoCAD Mechanical|Company: Autodesk, Inc."
 90
     1024
280
     0
281
     0
  0
CLASS
  1
ACMFCFSTANDARDANSI
  2
AcmFCFStdANSI
  3
"Amdt_StdImp|Product Description: AutoCAD Mechanical|Company: Autodesk, Inc."
 90
     1024
280
     0
281
     0
  0
CLASS
  1
ACMWELDSTANDARDANSI
  2
AcmWeldingStdANSI
  3
"Amdt_StdImp|Product Description: AutoCAD Mechanical|Company: Autodesk, Inc."
 90
     1024
280
     0
281
     0
  0
CLASS
  1
ACMIDSTANDARDANSI
  2
AcmIdStdANSI
  3
"Amdt_StdImp|Product Description: AutoCAD Mechanical|Company: Autodesk, Inc."
 90
     1024
280
     0
281
     0
  0
CLASS
  1
ACMDATUMSTANDARDANSI
  2
AcmDatumStdANSI
  3
"Amdt_StdImp|Product Description: AutoCAD Mechanical|Company: Autodesk, Inc."
 90
     1024
280
     0
281
     0
  0
CLASS
  1
ACMBOMSTANDARDANSI
  2
AcmBOMStdANSI
  3
"Amdt_StdImp|Product Description: AutoCAD Mechanical|Company: Autodesk, Inc."
 90
     1024
280
     0
281
     0
  0
CLASS
  1
ACMDETAILSTANDARDANSI
  2
AmdtDetailSymStdANSI
  3
"Amdt_StdImp|Product Description: AutoCAD Mechanical|Company: Autodesk, Inc."
 90
     1024
280
     0
281
     0
  0
CLASS
  1
ACMSECTIONSTANDARDANSI
  2
AmdtSectionSymStdANSI
  3
"Amdt_StdImp|Product Description: AutoCAD Mechanical|Company: Autodesk, Inc."
 90
     1024
280
     0
281
     0
  0
CLASS
  1
ACMCENTERLINESTANDARDANSI
  2
AmdtCenterLineStdANSI
  3
"Amdt_StdImp|Product Description: AutoCAD Mechanical|Company: Autodesk, Inc."
 90
     1024
280
     0
281
     0
  0
CLASS
  1
ACMTHREADLINESTANDARDANSI
  2
AmdtThreadLineStdANSI
  3
"Amdt_StdImp|Product Description: AutoCAD Mechanical|Company: Autodesk, Inc."
 90
     1024
280
     0
281
     0
  0
CLASS
  1
ACMNOTESTANDARDANSI
  2
AmdtNoteStdANSI
  3
"Amdt_StdImp|Product Description: AutoCAD Mechanical|Company: Autodesk, Inc."
 90
     1024
280
     0
281
     0
  0
CLASS
  1
ACMTAPERSTANDARDANSI
  2
AcmTaperStdANSI
  3
"Amdt_StdImp|Product Description: AutoCAD Mechanical|Company: Autodesk, Inc."
 90
     1024
280
     0
281
     0
  0
CLASS
  1
ACMANOOTATIONVIEWSTANDARDANSI
  2
AmdtAnViewStdANSI
  3
"Amdt_StdImp|Product Description: AutoCAD Mechanical|Company: Autodesk, Inc."
 90
     1024
280
     0
281
     0
  0
CLASS
  1
ACAMGLAYSTD
  2
AcAmgLayStd
  3
"AmgLay|Product Description: AutoCAD Mechanical|Company: Autodesk, Inc."
 90
     1024
280
     0
281
     0
  0
CLASS
  1
ACAMGDIMSTD
  2
AcAmgDimStd
  3
"AmgDim|Product Description: AutoCAD Mechanical|Company: Autodesk, Inc."
 90
     1024
280
     0
281
     0
  0
CLASS
  1
ACAMGHOLECHARTSTDANSI
  2
AcAmgHoleChartStdANSI
  3
AmgDim|Product Description: AutoCAD Mechanical|Company: Autodesk, Inc.
 90
     1024
280
     0
281
     0
  0
CLASS
  1
AMGOBJPROPCFG
  2
AmgObjPropCfg
  3
"AmgLay|Product Description: AutoCAD Mechanical|Company: Autodesk, Inc."
 90
     1025
280
     0
281
     0
  0
CLASS
  1
ACAMGTITLESTD
  2
AcAmgTitleStd
  3
"AmgTitle|Product Description: AutoCAD Mechanical|Company: Autodesk, Inc."
 90
     4095
280
     0
281
     0
  0
CLASS
  1
AMDTNOTETEMPLATEDB
  2
AmdtNoteTemplateDB
  3
AcmSymBB|Product Description: AutoCAD Mechanical|Company: Autodesk, Inc.
 90
     1024
280
     0
281
     0
  0
CLASS
  1
ACAMGFILTERDAT
  2
AcAmgFilterDat
  3
"AcadM|Product Description: AutoCAD Mechanical|Company: Autodesk, Inc."
 90
     1024
280
     0
281
     0
  0
CLASS
  1
LAYER_INDEX
  2
AcDbLayerIndex
  3
ObjectDBX Classes
 90
        0
280
     0
281
     0
  0
CLASS
  1
IDBUFFER
  2
AcDbIdBuffer
  3
ObjectDBX Classes
 90
        0
280
     0
281
     0
  0
CLASS
  1
DICTIONARYVAR
  2
AcDbDictionaryVar
  3
ObjectDBX Classes
 90
        0
280
     0
281
     0
  0
CLASS
  1
CELLSTYLEMAP
  2
AcDbCellStyleMap
  3
ObjectDBX Classes
 90
     1152
280
     0
281
     0
  0
CLASS
  1
ACDBPLACEHOLDER
  2
AcDbPlaceHolder
  3
ObjectDBX Classes
 90
        0
280
     0
281
     0
  0
CLASS
  1
LAYOUT
  2
AcDbLayout
  3
ObjectDBX Classes
 90
        0
280
     0
281
     0
  0
ENDSEC
  0
SECTION
  2
TABLES
  0
TABLE
  2
VPORT
  5
2AC1
330
0
100
AcDbSymbolTable
 70
     1
  0
VPORT
  5
2B31
330
2AC1
100
AcDbSymbolTableRecord
100
AcDbViewportTableRecord
  2
*ACTIVE
 70
     0
 10
0.0
 20
0.0
 11
1.0
 21
1.0
 12
0.0000000000001705
 22
-13.11064816536839
 13
0.0
 23
0.0
 14
1.0
 24
1.0
 15
0.0
 25
0.0
 16
0.0
 26
0.0
 36
1.0
 17
48.94410568399229
 27
-70.3625477193276
 37
0.0
 40
1238.268102810426
 41
1.712555066079295
 42
50.0
 43
0.0
 44
0.0
 50
0.0
 51
0.0
 71
     0
 72
   100
 73
     1
 74
     0
 75
     0
 76
     0
 77
     0
 78
     0
281
     0
 65
     0
110
0.0
120
0.0
130
0.0
111
1.0
121
0.0
131
0.0
112
0.0
122
1.0
132
0.0
 79
     0
146
0.0
  0
ENDTAB
  0
TABLE
  2
LTYPE
  5
2ABE
330
0
100
AcDbSymbolTable
 70
    19
  0
LTYPE
  5
2B1B
330
2ABE
100
AcDbSymbolTableRecord
100
AcDbLinetypeTableRecord
  2
ByBlock
 70
     0
  3

 72
    65
 73
     0
 40
0.0
  0
LTYPE
  5
2B1C
330
2ABE
100
AcDbSymbolTableRecord
100
AcDbLinetypeTableRecord
  2
ByLayer
 70
     0
  3

 72
    65
 73
     0
 40
0.0
  0
LTYPE
  5
2B1D
330
2ABE
100
AcDbSymbolTableRecord
100
AcDbLinetypeTableRecord
  2
CONTINUOUS
 70
     0
  3
実線
 72
    65
 73
     0
 40
0.0
  0
LTYPE
  5
2B32
330
2ABE
100
AcDbSymbolTableRecord
100
AcDbLinetypeTableRecord
  2
DASHDOT
 70
     0
  3
____ _ ____ _ ____ _ ____ _ ____ _ ____ _ ____
 72
    65
 73
     4
 40
5.5
 49
4.0
 74
     0
 49
-0.6
 74
     0
 49
0.3
 74
     0
 49
-0.6
 74
     0
  0
LTYPE
  5
2B33
330
2ABE
100
AcDbSymbolTableRecord
100
AcDbLinetypeTableRecord
  2
HIDDEN
 70
     0
  3
Hidden __ __ __ __ __ __ __ __ __ __ __ __ __ _
 72
    65
 73
     2
 40
0.375
 49
0.25
 74
     0
 49
-0.125
 74
     0
  0
LTYPE
  5
2B34
330
2ABE
100
AcDbSymbolTableRecord
100
AcDbLinetypeTableRecord
  2
PHANTOM2
 70
     0
  3
Phantom (.5x) ___ _ _ ___ _ _ ___ _ _ ___ _ _
 72
    65
 73
     6
 40
1.25
 49
0.625
 74
     0
 49
-0.125
 74
     0
 49
0.125
 74
     0
 49
-0.125
 74
     0
 49
0.125
 74
     0
 49
-0.125
 74
     0
  0
LTYPE
  5
2B35
330
2ABE
100
AcDbSymbolTableRecord
100
AcDbLinetypeTableRecord
  2
CENTER
 70
     0
  3
Center ____ _ ____ _ ____ _ ____ _ ____ _ ____
 72
    65
 73
     4
 40
2.0
 49
1.25
 74
     0
 49
-0.25
 74
     0
 49
0.25
 74
     0
 49
-0.25
 74
     0
  0
LTYPE
  5
2B36
330
2ABE
100
AcDbSymbolTableRecord
100
AcDbLinetypeTableRecord
  2
ASULTYPE
 70
     0
  3
実線
 72
    65
 73
     2
 40
3.0
 49
2.5
 74
     0
 49
0.5
 74
     0
  0
LTYPE
  5
2B37
330
2ABE
100
AcDbSymbolTableRecord
100
AcDbLinetypeTableRecord
  2
ASVLTYPE
 70
     0
  3
__ __ __ __ __ __ __ __ __ __ __ __ __ __ __ __ __ __ __ __ __
 72
    65
 73
     2
 40
0.75
 49
0.5
 74
     0
 49
-0.25
 74
     0
  0
LTYPE
  5
2B38
330
2ABE
100
AcDbSymbolTableRecord
100
AcDbLinetypeTableRecord
  2
AM_ISO02W050
 70
     0
  3
__ __ __ __ __ __ __ __ __ __ __ __ __ __ __
 72
    65
 73
     2
 40
7.5
 49
6.0
 74
     0
 49
-1.5
 74
     0
  0
LTYPE
  5
2B39
330
2ABE
100
AcDbSymbolTableRecord
100
AcDbLinetypeTableRecord
  2
AM_ISO08W050
 70
     0
  3
____ . ____ . ____ . ____ . ____ . ____ . ____
 72
    65
 73
     4
 40
18.0
 49
12.0
 74
     0
 49
-1.5
 74
     0
 49
3.0
 74
     0
 49
-1.5
 74
     0
  0
LTYPE
  5
2B3A
330
2ABE
100
AcDbSymbolTableRecord
100
AcDbLinetypeTableRecord
  2
AM_ISO09W050
 70
     0
  3
_____ . . _____ . . _____ . . ____ .. ____
 72
    65
 73
     6
 40
22.5
 49
12.0
 74
     0
 49
-1.5
 74
     0
 49
3.0
 74
     0
 49
-1.5
 74
     0
 49
3.0
 74
     0
 49
-1.5
 74
     0
  0
LTYPE
  5
2B3B
330
2ABE
100
AcDbSymbolTableRecord
100
AcDbLinetypeTableRecord
  2
AMCONSTR
 70
     0
  3
_______________________
 72
    65
 73
     2
 40
9999.0
 49
9999.0
 74
     0
 49
0.0
 74
     0
  0
LTYPE
  5
2B3C
330
2ABE
100
AcDbSymbolTableRecord
100
AcDbLinetypeTableRecord
  2
AM_ISO08W050X2
 70
     0
  3
__ . __ . __ . __ . __ . __
 72
    65
 73
     4
 40
9.0
 49
6.0
 74
     0
 49
-0.75
 74
     0
 49
1.5
 74
     0
 49
-0.75
 74
     0
  0
LTYPE
  5
2B3D
330
2ABE
100
AcDbSymbolTableRecord
100
AcDbLinetypeTableRecord
  2
AM_ISO02W050X2
 70
     0
  3
 _ _ _ _ _ _ _ _ _ _ _ _
 72
    65
 73
     2
 40
3.75
 49
3.0
 74
     0
 49
-0.75
 74
     0
  0
LTYPE
  5
2B3E
330
2ABE
100
AcDbSymbolTableRecord
100
AcDbLinetypeTableRecord
  2
AMZIGZAG
 70
     0
  3
/\/-/\/-/\/-/\/-/\/-/\/
 72
    65
 73
     2
 40
11.0001
 49
0.0001
 74
     0
 49
-11.0
 74
     0
  0
LTYPE
  5
2B3F
330
2ABE
100
AcDbSymbolTableRecord
100
AcDbLinetypeTableRecord
  2
CENTER2
 70
     0
  3
Center (.5x) ___ _ ___ _ ___ _ ___ _ ___ _ ___
 72
    65
 73
     4
 40
1.125
 49
0.75
 74
     0
 49
-0.125
 74
     0
 49
0.125
 74
     0
 49
-0.125
 74
     0
  0
LTYPE
  5
2B40
330
2ABE
100
AcDbSymbolTableRecord
100
AcDbLinetypeTableRecord
  2
HIDDEN2
 70
     0
  3
Hidden (.5x) _ _ _ _ _ _ _ _ _ _ _ _ _ _ _ _ _
 72
    65
 73
     2
 40
0.1875
 49
0.125
 74
     0
 49
-0.0625
 74
     0
  0
LTYPE
  5
2B41
330
2ABE
100
AcDbSymbolTableRecord
100
AcDbLinetypeTableRecord
  2
AMZIGZAG2
 70
     0
  3
/\/-/\/-/\/-/\/-/\/-/\/
 72
    65
 73
     2
 40
0.4401
 49
0.0001
 74
     0
 49
-0.4400000000000003
 74
     0
  0
LTYPE
  5
2B42
330
2ABE
100
AcDbSymbolTableRecord
100
AcDbLinetypeTableRecord
  2
ACANSTGB
 70
     0
  3
__ . . __ . .
 72
    65
 73
     6
 40
0.35433070866
 49
0.15748031496
 74
     0
 49
-0.03937007874
 74
     0
 49
0.03937007874
 74
     0
 49
-0.03937007874
 74
     0
 49
0.03937007874
 74
     0
 49
-0.03937007874
 74
     0
  0
LTYPE
  5
2B43
330
2ABE
100
AcDbSymbolTableRecord
100
AcDbLinetypeTableRecord
  2
ACANSTGL
 70
     0
  3
_ _ _ _ _
 72
    65
 73
     2
 40
0.11811023622
 49
0.07874015748
 74
     0
 49
-0.03937007874
 74
     0
  0
ENDTAB
  0
TABLE
  2
LAYER
  5
2ABB
330
0
100
AcDbSymbolTable
 70
    12
  0
LAYER
  5
2B15
102
{ACAD_XDICTIONARY
360
2CF2
102
}
330
2ABB
100
AcDbSymbolTableRecord
100
AcDbLayerTableRecord
  2
0
 70
     0
 62
     7
  6
CONTINUOUS
370
    -3
390
2AC8
  0
LAYER
  5
2B44
102
{ACAD_XDICTIONARY
360
2CF4
102
}
330
2ABB
100
AcDbSymbolTableRecord
100
AcDbLayerTableRecord
  2
OUTLINE
 70
     0
 62
     3
  6
CONTINUOUS
370
    -3
390
2AC8
  0
LAYER
  5
2B45
102
{ACAD_XDICTIONARY
360
2CF6
102
}
330
2ABB
100
AcDbSymbolTableRecord
100
AcDbLayerTableRecord
  2
SIZE
 70
     0
 62
    30
  6
CONTINUOUS
370
    -3
390
2AC8
  0
LAYER
  5
2B46
102
{ACAD_XDICTIONARY
360
2CF8
102
}
330
2ABB
100
AcDbSymbolTableRecord
100
AcDbLayerTableRecord
  2
BASIS
 70
     0
 62
     6
  6
DASHDOT
370
    -3
390
2AC8
  0
LAYER
  5
2B47
102
{ACAD_XDICTIONARY
360
2CFA
102
}
330
2ABB
100
AcDbSymbolTableRecord
100
AcDbLayerTableRecord
  2
DETAIL
 70
     0
 62
     5
  6
CONTINUOUS
370
    -3
390
2AC8
  0
LAYER
  5
2B48
102
{ACAD_XDICTIONARY
360
2CFC
102
}
330
2ABB
100
AcDbSymbolTableRecord
100
AcDbLayerTableRecord
  2
ARRANGE
 70
     0
 62
     1
  6
CONTINUOUS
370
    -3
390
2AC8
  0
LAYER
  5
2B49
330
2ABB
100
AcDbSymbolTableRecord
100
AcDbLayerTableRecord
  2
DEFPOINTS
 70
     0
 62
     7
  6
CONTINUOUS
290
     0
370
    -3
390
2AC8
  0
LAYER
  5
2B4A
102
{ACAD_XDICTIONARY
360
2CFE
102
}
330
2ABB
100
AcDbSymbolTableRecord
100
AcDbLayerTableRecord
  2
ETC
 70
     0
 62
    61
  6
CONTINUOUS
370
    -3
390
2AC8
  0
LAYER
  5
2B4B
102
{ACAD_XDICTIONARY
360
2D00
102
}
330
2ABB
100
AcDbSymbolTableRecord
100
AcDbLayerTableRecord
  2
FIX
 70
     0
 62
    11
  6
CONTINUOUS
370
    -3
390
2AC8
  0
LAYER
  5
2B4C
102
{ACAD_XDICTIONARY
360
2D02
102
}
330
2ABB
100
AcDbSymbolTableRecord
100
AcDbLayerTableRecord
  2
NOTE
 70
     0
 62
     4
  6
CONTINUOUS
370
    -3
390
2AC8
  0
LAYER
  5
2B4D
102
{ACAD_XDICTIONARY
360
2D04
102
}
330
2ABB
100
AcDbSymbolTableRecord
100
AcDbLayerTableRecord
  2
SERVICESPACE
 70
     0
 62
     2
  6
DASHDOT
370
    -3
390
2AC8
  0
LAYER
  5
2B4E
102
{ACAD_XDICTIONARY
360
2D06
102
}
330
2ABB
100
AcDbSymbolTableRecord
100
AcDbLayerTableRecord
  2
SYMBOLLINE
 70
     0
 62
    15
  6
CONTINUOUS
370
    -3
390
2AC8
  0
ENDTAB
  0
TABLE
  2
STYLE
  5
2ABC
330
0
100
AcDbSymbolTable
 70
     5
  0
STYLE
  5
2B16
330
2ABC
100
AcDbSymbolTableRecord
100
AcDbTextStyleTableRecord
  2
STANDARD
 70
     0
 40
64.0
 41
0.9
 50
0.0
 71
     0
 42
64.0
  3
SIMPLEX.shx
  4
BIGFONT.shx
  0
STYLE
  5
2B1A
330
2ABC
100
AcDbSymbolTableRecord
100
AcDbTextStyleTableRecord
  2
ANNOTATIVE
 70
     0
 40
0.0
 41
1.0
 50
0.0
 71
     0
 42
0.2
  3
txt
  4

1001
ACADANNOTATIVE
1000
AnnotativeData
1002
{
1070
     1
1070
     1
1002
}
  0
STYLE
  5
2B4F
330
2ABC
100
AcDbSymbolTableRecord
100
AcDbTextStyleTableRecord
  2

 70
     1
 40
0.0
 41
1.0
 50
0.0
 71
     0
 42
64.0
  3
genltshp.shx
  4

  0
STYLE
  5
2B50
330
2ABC
100
AcDbSymbolTableRecord
100
AcDbTextStyleTableRecord
  2
ACANSTS
 70
     0
 40
1.0
 41
1.0
 50
0.0
 71
     0
 42
64.0
  3
romans.shx
  4
extfont.shx
  0
STYLE
  5
2B51
330
2ABC
100
AcDbSymbolTableRecord
100
AcDbTextStyleTableRecord
  2
ACANSGDT
 70
     0
 40
0.0
 41
1.0
 50
0.0
 71
     0
 42
64.0
  3
amgdt.shx
  4

  0
ENDTAB
  0
TABLE
  2
VIEW
  5
2ABF
330
0
100
AcDbSymbolTable
 70
     1
  0
VIEW
  5
2B52
330
2ABF
100
AcDbSymbolTableRecord
100
AcDbViewTableRecord
  2
ALL
 70
     0
 40
4282.619807999997
 10
0.0
 20
41.30990399999999
 41
5940.0
 11
0.0
 21
0.0
 31
1.0
 12
0.0
 22
0.0
 32
0.0
 42
50.0
 43
0.0
 44
0.0
 50
0.0
 71
     0
281
     0
 72
     1
110
0.0
120
0.0
130
0.0
111
1.0
121
0.0
131
0.0
112
0.0
122
1.0
132
0.0
 79
     0
146
0.0
  0
ENDTAB
  0
TABLE
  2
UCS
  5
2AC0
330
0
100
AcDbSymbolTable
 70
     0
  0
ENDTAB
  0
TABLE
  2
APPID
  5
2AC2
330
0
100
AcDbSymbolTable
 70
    26
  0
APPID
  5
2B17
330
2AC2
100
AcDbSymbolTableRecord
100
AcDbRegAppTableRecord
  2
ACAD
 70
     0
  0
APPID
  5
2B1E
330
2AC2
100
AcDbSymbolTableRecord
100
AcDbRegAppTableRecord
  2
ACADANNOTATIVE
 70
     0
  0
APPID
  5
2B28
330
2AC2
100
AcDbSymbolTableRecord
100
AcDbRegAppTableRecord
  2
ACAD_MLEADERVER
 70
     0
  0
APPID
  5
2B53
330
2AC2
100
AcDbSymbolTableRecord
100
AcDbRegAppTableRecord
  2
GENIUS_GENDIM_13
 70
     0
  0
APPID
  5
2B54
330
2AC2
100
AcDbSymbolTableRecord
100
AcDbRegAppTableRecord
  2
GENIUS_GENDTOL_13
 70
     0
  0
APPID
  5
2B55
330
2AC2
100
AcDbSymbolTableRecord
100
AcDbRegAppTableRecord
  2
GENIUS_GE3DTOL_13
 70
     0
  0
APPID
  5
2B56
330
2AC2
100
AcDbSymbolTableRecord
100
AcDbRegAppTableRecord
  2
MCAD_NO_VIS
 70
     0
  0
APPID
  5
2B57
330
2AC2
100
AcDbSymbolTableRecord
100
AcDbRegAppTableRecord
  2
ACAD_TEMP_GRAPHIC
 70
     0
  0
APPID
  5
2B58
330
2AC2
100
AcDbSymbolTableRecord
100
AcDbRegAppTableRecord
  2
AD_DRAW
 70
     0
  0
APPID
  5
2B59
330
2AC2
100
AcDbSymbolTableRecord
100
AcDbRegAppTableRecord
  2
ACATTRIBSERVICES
 70
     0
  0
APPID
  5
2B5A
330
2AC2
100
AcDbSymbolTableRecord
100
AcDbRegAppTableRecord
  2
ASURF_PCURVE_APPNAME
 70
     0
  0
APPID
  5
2B5B
330
2AC2
100
AcDbSymbolTableRecord
100
AcDbRegAppTableRecord
  2
AMG_3D2D_5_0
 70
     0
  0
APPID
  5
2B5C
330
2AC2
100
AcDbSymbolTableRecord
100
AcDbRegAppTableRecord
  2
DESIGNERASSEMBLIES
 70
     0
  0
APPID
  5
2B5D
330
2AC2
100
AcDbSymbolTableRecord
100
AcDbRegAppTableRecord
  2
ACADM_DIM_EDIT
 70
     0
  0
APPID
  5
2B5E
330
2AC2
100
AcDbSymbolTableRecord
100
AcDbRegAppTableRecord
  2
AMDT_DM_ADJ
 70
     0
  0
APPID
  5
2B5F
330
2AC2
100
AcDbSymbolTableRecord
100
AcDbRegAppTableRecord
  2
ACAD_DSTYLE_DIMARC_LENGTH_
 70
     0
  0
APPID
  5
2B60
330
2AC2
100
AcDbSymbolTableRecord
100
AcDbRegAppTableRecord
  2
ACAD_DSTYLE_DIMJOGGED_JOGA
 70
     0
  0
APPID
  5
2B61
330
2AC2
100
AcDbSymbolTableRecord
100
AcDbRegAppTableRecord
  2
ACAD_PSEXT
 70
     0
  0
APPID
  5
2B62
330
2AC2
100
AcDbSymbolTableRecord
100
AcDbRegAppTableRecord
  2
ACAD_EXEMPT_FROM_CAD_STANDARDS
 70
     0
  0
APPID
  5
2B63
330
2AC2
100
AcDbSymbolTableRecord
100
AcDbRegAppTableRecord
  2
ACAD_DSTYLE_DIMJAG
 70
     0
  0
APPID
  5
2B64
330
2AC2
100
AcDbSymbolTableRecord
100
AcDbRegAppTableRecord
  2
ACAD_DSTYLE_DIMTALN
 70
     0
  0
APPID
  5
2C92
330
2AC2
100
AcDbSymbolTableRecord
100
AcDbRegAppTableRecord
  2
AMG_3D2D_5.0
 70
     0
  0
APPID
  5
2D2F
330
2AC2
100
AcDbSymbolTableRecord
100
AcDbRegAppTableRecord
  2
ACAD_DSTYLE_DIMARC_LENGTH_SYMBOL
 70
     0
  0
APPID
  5
2D30
330
2AC2
100
AcDbSymbolTableRecord
100
AcDbRegAppTableRecord
  2
ACAD_DSTYLE_DIM_LINETYPE
 70
     0
  0
APPID
  5
2D31
330
2AC2
100
AcDbSymbolTableRecord
100
AcDbRegAppTableRecord
  2
ACAD_DSTYLE_DIM_EXT1_LINETYPE
 70
     0
  0
APPID
  5
2D32
330
2AC2
100
AcDbSymbolTableRecord
100
AcDbRegAppTableRecord
  2
ACAD_DSTYLE_DIM_EXT2_LINETYPE
 70
     0
  0
ENDTAB
  0
TABLE
  2
DIMSTYLE
  5
2AC3
330
0
100
AcDbSymbolTable
 70
    10
100
AcDbDimStyleTable
 71
     1
340
2B65
  0
DIMSTYLE
105
2B18
330
2AC3
100
AcDbSymbolTableRecord
100
AcDbDimStyleTableRecord
  2
STANDARD
 70
     0
 41
12.0
 42
20.0
 44
20.0
 77
     1
 78
     8
140
64.0
141
0.0
147
10.0
275
     1
279
     2
284
     7
285
     7
286
     7
340
2B16
  0
DIMSTYLE
105
2B19
330
2AC3
100
AcDbSymbolTableRecord
100
AcDbDimStyleTableRecord
  2
ANNOTATIVE
 70
     0
275
     1
279
     2
284
     7
285
     7
286
     7
340
2B16
1001
ACADANNOTATIVE
1000
AnnotativeData
1002
{
1070
     1
1070
     1
1002
}
  0
DIMSTYLE
105
2B65
330
2AC3
100
AcDbSymbolTableRecord
100
AcDbDimStyleTableRecord
  2
AM_ANSI
 70
     0
  4
mm
 41
0.12
 42
0.05
 43
0.5
 44
0.1
 47
0.1
 48
0.1
 78
     7
 79
     2
140
0.12
141
0.0
146
0.71
147
0.06
176
   256
177
   256
178
     2
274
     4
284
     7
340
2B16
371
    -1
372
    -1
1001
ACAD_DSTYLE_DIMARC_LENGTH_SYMBOL
1070
   379
1070
     1
1001
ACAD_DSTYLE_DIM_LINETYPE
1070
   380
1005
2B1B
1001
ACAD_DSTYLE_DIM_EXT1_LINETYPE
1070
   381
1005
2B1B
1001
ACAD_DSTYLE_DIM_EXT2_LINETYPE
1070
   382
1005
2B1B
  0
DIMSTYLE
105
2B66
330
2AC3
100
AcDbSymbolTableRecord
100
AcDbDimStyleTableRecord
  2
AM_ANSI$3
 70
     0
  4
mm
 41
0.12
 42
0.05
 43
0.5
 44
0.1
 47
0.1
 48
0.1
 78
     7
 79
     2
140
0.12
141
0.0
146
0.71
147
0.06
176
   256
177
   256
178
     2
274
     4
284
     7
288
     1
289
     0
340
2B16
371
    -1
372
    -1
1001
ACAD_DSTYLE_DIMARC_LENGTH_SYMBOL
1070
   379
1070
     1
1001
ACAD_DSTYLE_DIM_LINETYPE
1070
   380
1005
2B1B
1001
ACAD_DSTYLE_DIM_EXT1_LINETYPE
1070
   381
1005
2B1B
1001
ACAD_DSTYLE_DIM_EXT2_LINETYPE
1070
   382
1005
2B1B
  0
DIMSTYLE
105
2B67
330
2AC3
100
AcDbSymbolTableRecord
100
AcDbDimStyleTableRecord
  2
AM_ANSI$4
 70
     0
  4
mm
 41
0.12
 42
0.05
 43
0.5
 44
0.1
 47
0.1
 48
0.1
 78
     7
 79
     2
140
0.12
141
0.0
146
0.71
147
0.06
176
   256
177
   256
178
     2
274
     4
284
     7
340
2B16
371
    -1
372
    -1
1001
ACAD_DSTYLE_DIMARC_LENGTH_SYMBOL
1070
   379
1070
     1
1001
ACAD_DSTYLE_DIM_LINETYPE
1070
   380
1005
2B1B
1001
ACAD_DSTYLE_DIM_EXT1_LINETYPE
1070
   381
1005
2B1B
1001
ACAD_DSTYLE_DIM_EXT2_LINETYPE
1070
   382
1005
2B1B
  0
DIMSTYLE
105
2B68
330
2AC3
100
AcDbSymbolTableRecord
100
AcDbDimStyleTableRecord
  2
AM_ANSI$7
 70
     0
  4
mm
 41
0.12
 42
0.05
 43
0.5
 44
0.1
 47
0.1
 48
0.1
 78
     7
 79
     2
140
0.12
141
0.0
146
0.71
147
0.06
176
   256
177
   256
178
     2
274
     4
284
     7
340
2B16
371
    -1
372
    -1
1001
ACAD_DSTYLE_DIMARC_LENGTH_SYMBOL
1070
   379
1070
     1
1001
ACAD_DSTYLE_DIM_LINETYPE
1070
   380
1005
2B1B
1001
ACAD_DSTYLE_DIM_EXT1_LINETYPE
1070
   381
1005
2B1B
1001
ACAD_DSTYLE_DIM_EXT2_LINETYPE
1070
   382
1005
2B1B
  0
DIMSTYLE
105
2B69
330
2AC3
100
AcDbSymbolTableRecord
100
AcDbDimStyleTableRecord
  2
AM_ANSI$SF
 70
     0
  4
mm
 41
0.12
 42
0.05
 43
0.5
 44
0.1
 47
0.1
 48
0.1
 75
     1
 76
     1
 78
     7
 79
     2
140
0.12
141
0.0
146
0.71
147
0.06
176
   256
177
   256
178
     2
274
     4
284
     7
340
2B16
371
    -1
372
    -1
1001
ACAD_DSTYLE_DIMARC_LENGTH_SYMBOL
1070
   379
1070
     1
1001
ACAD_DSTYLE_DIM_LINETYPE
1070
   380
1005
2B1B
1001
ACAD_DSTYLE_DIM_EXT1_LINETYPE
1070
   381
1005
2B1B
1001
ACAD_DSTYLE_DIM_EXT2_LINETYPE
1070
   382
1005
2B1B
  0
DIMSTYLE
105
2B6A
330
2AC3
100
AcDbSymbolTableRecord
100
AcDbDimStyleTableRecord
  2
AM_ANSI$SH
 70
     0
  4
mm
 41
0.12
 42
0.05
 43
0.5
 44
0.1
 47
0.1
 48
0.1
 75
     1
 76
     1
 78
     7
 79
     2
140
0.12
141
0.0
146
0.71
147
0.06
173
     1
176
   256
177
   256
178
     2
274
     4
284
     7
340
2B16
343
2B8A
371
    -1
372
    -1
1001
ACAD_DSTYLE_DIMARC_LENGTH_SYMBOL
1070
   379
1070
     1
1001
ACAD_DSTYLE_DIM_LINETYPE
1070
   380
1005
2B1B
1001
ACAD_DSTYLE_DIM_EXT1_LINETYPE
1070
   381
1005
2B1B
1001
ACAD_DSTYLE_DIM_EXT2_LINETYPE
1070
   382
1005
2B1B
  0
DIMSTYLE
105
2B6B
330
2AC3
100
AcDbSymbolTableRecord
100
AcDbDimStyleTableRecord
  2
STANDARD1
 70
     0
 40
6.0
 41
2.5
 42
0.625
 43
6.0
 44
1.25
 47
1.0
 48
0.5
 77
     1
 78
     8
140
2.5
141
0.0
146
0.6
147
1.0
173
     1
275
     1
279
     2
284
     7
285
     7
286
     7
340
2B16
  0
DIMSTYLE
105
2B6C
330
2AC3
100
AcDbSymbolTableRecord
100
AcDbDimStyleTableRecord
  2
STANDARD$0
 70
     0
 41
12.0
 42
20.0
 44
20.0
 73
     0
 74
     0
 77
     1
 78
     8
140
64.0
141
0.0
147
10.0
275
     1
279
     2
284
     7
285
     7
286
     7
340
2B16
  0
ENDTAB
  0
TABLE
  2
BLOCK_RECORD
  5
2ABA
330
0
100
AcDbSymbolTable
 70
    79
  0
BLOCK_RECORD
  5
2B2D
102
{ACAD_XDICTIONARY
360
2D08
102
}
330
2ABA
100
AcDbSymbolTableRecord
100
AcDbBlockTableRecord
  2
*Model_Space
340
2B30
  0
BLOCK_RECORD
  5
2B29
330
2ABA
100
AcDbSymbolTableRecord
100
AcDbBlockTableRecord
  2
*Paper_Space
340
2B2C
  0
BLOCK_RECORD
  5
2B74
330
2ABA
100
AcDbSymbolTableRecord
100
AcDbBlockTableRecord
  2
$MODEL_SPACE
340
0
  0
BLOCK_RECORD
  5
2B76
330
2ABA
100
AcDbSymbolTableRecord
100
AcDbBlockTableRecord
  2
$PAPER_SPACE
340
0
  0
BLOCK_RECORD
  5
2B78
330
2ABA
100
AcDbSymbolTableRecord
100
AcDbBlockTableRecord
  2
_ORIGIN
340
0
  0
BLOCK_RECORD
  5
2B7A
330
2ABA
100
AcDbSymbolTableRecord
100
AcDbBlockTableRecord
  2
_DOTBLANK
340
0
102
{BLKREFS
331
1299
331
129A
331
11AA
331
11AB
331
E80
331
E81
331
1123
331
1124
331
11C2
331
11C3
331
11EC
331
11ED
331
11F9
331
11FA
331
1287
331
1288
331
1417
331
1418
331
1423
331
1424
331
142F
331
1430
331
143B
331
143C
331
166E
331
166F
331
1677
331
1678
331
1680
331
1681
331
1689
331
168A
331
1696
331
1697
331
16A3
331
16A4
331
16AF
331
16B0
331
16BB
331
16BC
331
16C7
331
16C8
331
16D3
331
16D4
331
1D86
331
1D87
331
1D8F
331
1D90
331
1D98
331
1D99
331
1DA1
331
1DA2
331
1DAB
331
1DAC
331
1DB5
331
1DB6
331
28C0
331
28C1
331
28C5
331
28C6
331
28CB
331
28CC
331
28D0
331
28D1
331
28D6
331
28D7
331
28DB
331
28DC
102
}
  0
BLOCK_RECORD
  5
2B7C
330
2ABA
100
AcDbSymbolTableRecord
100
AcDbBlockTableRecord
  2
_OPEN30
340
0
102
{BLKREFS
331
2087
331
215D
331
2234
331
2327
331
2454
331
2814
102
}
  0
BLOCK_RECORD
  5
2B7E
330
2ABA
100
AcDbSymbolTableRecord
100
AcDbBlockTableRecord
  2
*D5
340
0
  0
BLOCK_RECORD
  5
2B80
330
2ABA
100
AcDbSymbolTableRecord
100
AcDbBlockTableRecord
  2
*U6
340
0
102
{BLKREFS
331
129B
102
}
  0
BLOCK_RECORD
  5
2B82
330
2ABA
100
AcDbSymbolTableRecord
100
AcDbBlockTableRecord
  2
*D7
340
0
  0
BLOCK_RECORD
  5
2B84
330
2ABA
100
AcDbSymbolTableRecord
100
AcDbBlockTableRecord
  2
*U8
340
0
102
{BLKREFS
331
11AC
102
}
  0
BLOCK_RECORD
  5
2B86
330
2ABA
100
AcDbSymbolTableRecord
100
AcDbBlockTableRecord
  2
*D9
340
0
  0
BLOCK_RECORD
  5
2B88
330
2ABA
100
AcDbSymbolTableRecord
100
AcDbBlockTableRecord
  2
*U10
340
0
102
{BLKREFS
331
E82
102
}
  0
BLOCK_RECORD
  5
2B8A
330
2ABA
100
AcDbSymbolTableRecord
100
AcDbBlockTableRecord
  2
GENAXEH
340
0
  0
BLOCK_RECORD
  5
2B8C
330
2ABA
100
AcDbSymbolTableRecord
100
AcDbBlockTableRecord
  2
*D12
340
0
  0
BLOCK_RECORD
  5
2B8E
330
2ABA
100
AcDbSymbolTableRecord
100
AcDbBlockTableRecord
  2
*U13
340
0
102
{BLKREFS
331
1125
102
}
  0
BLOCK_RECORD
  5
2B90
330
2ABA
100
AcDbSymbolTableRecord
100
AcDbBlockTableRecord
  2
*D14
340
0
  0
BLOCK_RECORD
  5
2B92
330
2ABA
100
AcDbSymbolTableRecord
100
AcDbBlockTableRecord
  2
*U15
340
0
102
{BLKREFS
331
11C4
102
}
  0
BLOCK_RECORD
  5
2B94
330
2ABA
100
AcDbSymbolTableRecord
100
AcDbBlockTableRecord
  2
*D16
340
0
  0
BLOCK_RECORD
  5
2B96
330
2ABA
100
AcDbSymbolTableRecord
100
AcDbBlockTableRecord
  2
*U17
340
0
102
{BLKREFS
331
11EE
102
}
  0
BLOCK_RECORD
  5
2B98
330
2ABA
100
AcDbSymbolTableRecord
100
AcDbBlockTableRecord
  2
*D18
340
0
  0
BLOCK_RECORD
  5
2B9A
330
2ABA
100
AcDbSymbolTableRecord
100
AcDbBlockTableRecord
  2
*U19
340
0
102
{BLKREFS
331
11FB
102
}
  0
BLOCK_RECORD
  5
2B9C
330
2ABA
100
AcDbSymbolTableRecord
100
AcDbBlockTableRecord
  2
*D20
340
0
  0
BLOCK_RECORD
  5
2B9E
330
2ABA
100
AcDbSymbolTableRecord
100
AcDbBlockTableRecord
  2
*U21
340
0
102
{BLKREFS
331
1289
102
}
  0
BLOCK_RECORD
  5
2BA0
330
2ABA
100
AcDbSymbolTableRecord
100
AcDbBlockTableRecord
  2
*D22
340
0
  0
BLOCK_RECORD
  5
2BA2
330
2ABA
100
AcDbSymbolTableRecord
100
AcDbBlockTableRecord
  2
*U23
340
0
102
{BLKREFS
331
1419
102
}
  0
BLOCK_RECORD
  5
2BA4
330
2ABA
100
AcDbSymbolTableRecord
100
AcDbBlockTableRecord
  2
*D24
340
0
  0
BLOCK_RECORD
  5
2BA6
330
2ABA
100
AcDbSymbolTableRecord
100
AcDbBlockTableRecord
  2
*U25
340
0
102
{BLKREFS
331
1425
102
}
  0
BLOCK_RECORD
  5
2BA8
330
2ABA
100
AcDbSymbolTableRecord
100
AcDbBlockTableRecord
  2
*D26
340
0
  0
BLOCK_RECORD
  5
2BAA
330
2ABA
100
AcDbSymbolTableRecord
100
AcDbBlockTableRecord
  2
*U27
340
0
102
{BLKREFS
331
1431
102
}
  0
BLOCK_RECORD
  5
2BAC
330
2ABA
100
AcDbSymbolTableRecord
100
AcDbBlockTableRecord
  2
*D28
340
0
  0
BLOCK_RECORD
  5
2BAE
330
2ABA
100
AcDbSymbolTableRecord
100
AcDbBlockTableRecord
  2
*U29
340
0
102
{BLKREFS
331
143D
102
}
  0
BLOCK_RECORD
  5
2BB0
330
2ABA
100
AcDbSymbolTableRecord
100
AcDbBlockTableRecord
  2
*D30
340
0
  0
BLOCK_RECORD
  5
2BB2
330
2ABA
100
AcDbSymbolTableRecord
100
AcDbBlockTableRecord
  2
*U31
340
0
102
{BLKREFS
331
1670
102
}
  0
BLOCK_RECORD
  5
2BB4
330
2ABA
100
AcDbSymbolTableRecord
100
AcDbBlockTableRecord
  2
*D32
340
0
  0
BLOCK_RECORD
  5
2BB6
330
2ABA
100
AcDbSymbolTableRecord
100
AcDbBlockTableRecord
  2
*U33
340
0
102
{BLKREFS
331
1679
102
}
  0
BLOCK_RECORD
  5
2BB8
330
2ABA
100
AcDbSymbolTableRecord
100
AcDbBlockTableRecord
  2
*D34
340
0
  0
BLOCK_RECORD
  5
2BBA
330
2ABA
100
AcDbSymbolTableRecord
100
AcDbBlockTableRecord
  2
*U35
340
0
102
{BLKREFS
331
1682
102
}
  0
BLOCK_RECORD
  5
2BBC
330
2ABA
100
AcDbSymbolTableRecord
100
AcDbBlockTableRecord
  2
*D36
340
0
  0
BLOCK_RECORD
  5
2BBE
330
2ABA
100
AcDbSymbolTableRecord
100
AcDbBlockTableRecord
  2
*U37
340
0
102
{BLKREFS
331
168B
102
}
  0
BLOCK_RECORD
  5
2BC0
330
2ABA
100
AcDbSymbolTableRecord
100
AcDbBlockTableRecord
  2
*U38
340
0
  0
BLOCK_RECORD
  5
2BC2
330
2ABA
100
AcDbSymbolTableRecord
100
AcDbBlockTableRecord
  2
*D39
340
0
  0
BLOCK_RECORD
  5
2BC4
330
2ABA
100
AcDbSymbolTableRecord
100
AcDbBlockTableRecord
  2
*U40
340
0
102
{BLKREFS
331
1698
102
}
  0
BLOCK_RECORD
  5
2BC6
330
2ABA
100
AcDbSymbolTableRecord
100
AcDbBlockTableRecord
  2
*D41
340
0
  0
BLOCK_RECORD
  5
2BC8
330
2ABA
100
AcDbSymbolTableRecord
100
AcDbBlockTableRecord
  2
*U42
340
0
102
{BLKREFS
331
16A5
102
}
  0
BLOCK_RECORD
  5
2BCA
330
2ABA
100
AcDbSymbolTableRecord
100
AcDbBlockTableRecord
  2
*D43
340
0
  0
BLOCK_RECORD
  5
2BCC
330
2ABA
100
AcDbSymbolTableRecord
100
AcDbBlockTableRecord
  2
*U44
340
0
102
{BLKREFS
331
16B1
102
}
  0
BLOCK_RECORD
  5
2BCE
330
2ABA
100
AcDbSymbolTableRecord
100
AcDbBlockTableRecord
  2
*D45
340
0
  0
BLOCK_RECORD
  5
2BD0
330
2ABA
100
AcDbSymbolTableRecord
100
AcDbBlockTableRecord
  2
*U46
340
0
102
{BLKREFS
331
16BD
102
}
  0
BLOCK_RECORD
  5
2BD2
330
2ABA
100
AcDbSymbolTableRecord
100
AcDbBlockTableRecord
  2
*D47
340
0
  0
BLOCK_RECORD
  5
2BD4
330
2ABA
100
AcDbSymbolTableRecord
100
AcDbBlockTableRecord
  2
*U48
340
0
102
{BLKREFS
331
16C9
102
}
  0
BLOCK_RECORD
  5
2BD6
330
2ABA
100
AcDbSymbolTableRecord
100
AcDbBlockTableRecord
  2
*D49
340
0
  0
BLOCK_RECORD
  5
2BD8
330
2ABA
100
AcDbSymbolTableRecord
100
AcDbBlockTableRecord
  2
*U50
340
0
102
{BLKREFS
331
16D5
102
}
  0
BLOCK_RECORD
  5
2BDA
330
2ABA
100
AcDbSymbolTableRecord
100
AcDbBlockTableRecord
  2
*D51
340
0
  0
BLOCK_RECORD
  5
2BDC
330
2ABA
100
AcDbSymbolTableRecord
100
AcDbBlockTableRecord
  2
*U52
340
0
102
{BLKREFS
331
1D88
102
}
  0
BLOCK_RECORD
  5
2BDE
330
2ABA
100
AcDbSymbolTableRecord
100
AcDbBlockTableRecord
  2
*D53
340
0
  0
BLOCK_RECORD
  5
2BE0
330
2ABA
100
AcDbSymbolTableRecord
100
AcDbBlockTableRecord
  2
*U54
340
0
102
{BLKREFS
331
1D91
102
}
  0
BLOCK_RECORD
  5
2BE2
330
2ABA
100
AcDbSymbolTableRecord
100
AcDbBlockTableRecord
  2
*D55
340
0
  0
BLOCK_RECORD
  5
2BE4
330
2ABA
100
AcDbSymbolTableRecord
100
AcDbBlockTableRecord
  2
*U56
340
0
102
{BLKREFS
331
1D9A
102
}
  0
BLOCK_RECORD
  5
2BE6
330
2ABA
100
AcDbSymbolTableRecord
100
AcDbBlockTableRecord
  2
*D57
340
0
  0
BLOCK_RECORD
  5
2BE8
330
2ABA
100
AcDbSymbolTableRecord
100
AcDbBlockTableRecord
  2
*U58
340
0
102
{BLKREFS
331
1DA3
102
}
  0
BLOCK_RECORD
  5
2BEA
330
2ABA
100
AcDbSymbolTableRecord
100
AcDbBlockTableRecord
  2
*D59
340
0
  0
BLOCK_RECORD
  5
2BEC
330
2ABA
100
AcDbSymbolTableRecord
100
AcDbBlockTableRecord
  2
*U60
340
0
102
{BLKREFS
331
1DAD
102
}
  0
BLOCK_RECORD
  5
2BEE
330
2ABA
100
AcDbSymbolTableRecord
100
AcDbBlockTableRecord
  2
*D61
340
0
  0
BLOCK_RECORD
  5
2BF0
330
2ABA
100
AcDbSymbolTableRecord
100
AcDbBlockTableRecord
  2
*U62
340
0
102
{BLKREFS
331
1DB7
102
}
  0
BLOCK_RECORD
  5
2BF2
330
2ABA
100
AcDbSymbolTableRecord
100
AcDbBlockTableRecord
  2
*U63
340
0
  0
BLOCK_RECORD
  5
2BF4
330
2ABA
100
AcDbSymbolTableRecord
100
AcDbBlockTableRecord
  2
*U64
340
0
  0
BLOCK_RECORD
  5
2BF6
330
2ABA
100
AcDbSymbolTableRecord
100
AcDbBlockTableRecord
  2
*U65
340
0
  0
BLOCK_RECORD
  5
2BF8
330
2ABA
100
AcDbSymbolTableRecord
100
AcDbBlockTableRecord
  2
*U66
340
0
  0
BLOCK_RECORD
  5
2BFA
330
2ABA
100
AcDbSymbolTableRecord
100
AcDbBlockTableRecord
  2
*U67
340
0
  0
BLOCK_RECORD
  5
2BFC
330
2ABA
100
AcDbSymbolTableRecord
100
AcDbBlockTableRecord
  2
*U68
340
0
  0
BLOCK_RECORD
  5
2BFE
330
2ABA
100
AcDbSymbolTableRecord
100
AcDbBlockTableRecord
  2
*U69
340
0
  0
BLOCK_RECORD
  5
2C00
330
2ABA
100
AcDbSymbolTableRecord
100
AcDbBlockTableRecord
  2
*U70
340
0
  0
BLOCK_RECORD
  5
2C02
330
2ABA
100
AcDbSymbolTableRecord
100
AcDbBlockTableRecord
  2
*U71
340
0
  0
BLOCK_RECORD
  5
2C04
330
2ABA
100
AcDbSymbolTableRecord
100
AcDbBlockTableRecord
  2
*U72
340
0
  0
BLOCK_RECORD
  5
2C06
330
2ABA
100
AcDbSymbolTableRecord
100
AcDbBlockTableRecord
  2
*U73
340
0
  0
BLOCK_RECORD
  5
2C08
330
2ABA
100
AcDbSymbolTableRecord
100
AcDbBlockTableRecord
  2
*X74
340
0
102
{BLKREFS
331
2881
102
}
  0
BLOCK_RECORD
  5
2C0A
330
2ABA
100
AcDbSymbolTableRecord
100
AcDbBlockTableRecord
  2
*X75
340
0
102
{BLKREFS
331
2882
102
}
  0
BLOCK_RECORD
  5
2C0C
330
2ABA
100
AcDbSymbolTableRecord
100
AcDbBlockTableRecord
  2
*U76
340
0
102
{BLKREFS
331
2883
102
}
  0
BLOCK_RECORD
  5
2C0E
330
2ABA
100
AcDbSymbolTableRecord
100
AcDbBlockTableRecord
  2
*U77
340
0
102
{BLKREFS
331
2884
102
}
  0
ENDTAB
  0
ENDSEC
  0
SECTION
  2
BLOCKS
  0
BLOCK
  5
2B2E
330
2B2D
100
AcDbEntity
  8
0
100
AcDbBlockBegin
  2
*Model_Space
 70
     0
 10
0.0
 20
0.0
 30
0.0
  3
*Model_Space
  1

  0
ENDBLK
  5
2B2F
330
2B2D
100
AcDbEntity
  8
0
100
AcDbBlockEnd
  0
BLOCK
  5
2B2A
330
2B29
100
AcDbEntity
 67
     1
  8
0
100
AcDbBlockBegin
  2
*Paper_Space
 70
     0
 10
0.0
 20
0.0
 30
0.0
  3
*Paper_Space
  1

  0
ENDBLK
  5
2B2B
330
2B29
100
AcDbEntity
 67
     1
  8
0
100
AcDbBlockEnd
  0
BLOCK
  5
2B75
330
2B74
100
AcDbEntity
  8
0
100
AcDbBlockBegin
  2
$MODEL_SPACE
 70
     0
 10
0.0
 20
0.0
 30
0.0
  3
$MODEL_SPACE
  1

  0
ENDBLK
  5
2994
330
2B74
100
AcDbEntity
  8
0
100
AcDbBlockEnd
  0
BLOCK
  5
2B77
330
2B76
100
AcDbEntity
  8
0
100
AcDbBlockBegin
  2
$PAPER_SPACE
 70
     0
 10
0.0
 20
0.0
 30
0.0
  3
$PAPER_SPACE
  1

  0
ENDBLK
  5
2990
330
2B76
100
AcDbEntity
  8
0
100
AcDbBlockEnd
  0
BLOCK
  5
2B79
330
2B78
100
AcDbEntity
  8
0
100
AcDbBlockBegin
  2
_ORIGIN
 70
     0
 10
0.0
 20
0.0
 30
0.0
  3
_ORIGIN
  1

  0
CIRCLE
  5
880
330
2B78
100
AcDbEntity
  8
0
  6
Continuous
 62
     7
100
AcDbCircle
 10
0.0
 20
0.0
 30
0.0
 40
0.5
  0
LINE
  5
881
330
2B78
100
AcDbEntity
  8
0
  6
Continuous
 62
     7
100
AcDbLine
 10
0.0
 20
0.0
 30
0.0
 11
-1.0
 21
0.0
 31
0.0
  0
ENDBLK
  5
882
330
2B78
100
AcDbEntity
  8
0
100
AcDbBlockEnd
  0
BLOCK
  5
2B7B
330
2B7A
100
AcDbEntity
  8
0
 62
     1
100
AcDbBlockBegin
  2
_DOTBLANK
 70
     0
 10
0.0
 20
0.0
 30
0.0
  3
_DOTBLANK
  1

  0
CIRCLE
  5
AB3
330
2B7A
100
AcDbEntity
  8
0
  6
ByBlock
 62
     0
100
AcDbCircle
 10
0.0
 20
0.0
 30
0.0
 40
0.5
  0
LINE
  5
AB4
330
2B7A
100
AcDbEntity
  8
0
  6
ByBlock
 62
     0
100
AcDbLine
 10
-0.5
 20
0.0
 30
0.0
 11
-1.0
 21
0.0
 31
0.0
  0
ENDBLK
  5
AB6
330
2B7A
100
AcDbEntity
  8
0
 62
     1
100
AcDbBlockEnd
  0
BLOCK
  5
2B7D
330
2B7C
100
AcDbEntity
  8
0
 62
     1
100
AcDbBlockBegin
  2
_OPEN30
 70
     0
 10
0.0
 20
0.0
 30
0.0
  3
_OPEN30
  1

  0
LINE
  5
AB8
330
2B7C
100
AcDbEntity
  8
0
  6
ByBlock
 62
     0
100
AcDbLine
 10
-1.0
 20
0.26794919
 30
0.0
 11
0.0
 21
0.0
 31
0.0
  0
LINE
  5
AB9
330
2B7C
100
AcDbEntity
  8
0
  6
ByBlock
 62
     0
100
AcDbLine
 10
0.0
 20
0.0
 30
0.0
 11
-1.0
 21
-0.26794919
 31
0.0
  0
LINE
  5
ABA
330
2B7C
100
AcDbEntity
  8
0
  6
ByBlock
 62
     0
100
AcDbLine
 10
0.0
 20
0.0
 30
0.0
 11
-1.0
 21
0.0
 31
0.0
  0
ENDBLK
  5
ABC
330
2B7C
100
AcDbEntity
  8
0
 62
     1
100
AcDbBlockEnd
  0
BLOCK
  5
2B7F
330
2B7E
100
AcDbEntity
  8
0
100
AcDbBlockBegin
  2
*D5
 70
     1
 10
0.0
 20
0.0
 30
0.0
  3
*D5
  1

  0
LINE
  5
1296
330
2B7E
100
AcDbEntity
  8
SIZE
 62
     0
100
AcDbLine
 10
-134.5
 20
-320.0
 30
0.0
 11
-134.5
 21
-468.0173952306001
 31
0.0
  0
LINE
  5
1297
330
2B7E
100
AcDbEntity
  8
SIZE
 62
     0
100
AcDbLine
 10
134.5
 20
-320.0
 30
0.0
 11
134.5
 21
-468.0173952306001
 31
0.0
  0
LINE
  5
1298
330
2B7E
100
AcDbEntity
  8
SIZE
 62
     0
100
AcDbLine
 10
-122.5
 20
-448.0173952306
 30
0.0
 11
122.5
 21
-448.0173952306
 31
0.0
  0
INSERT
  5
1299
330
2B7E
100
AcDbEntity
  8
SIZE
 62
     0
100
AcDbBlockReference
  2
_DOTBLANK
 10
-134.5
 20
-448.0173952306
 30
0.0
 41
12.0
 42
12.0
 43
12.0
 50
180.0
  0
INSERT
  5
129A
330
2B7E
100
AcDbEntity
  8
SIZE
 62
     0
100
AcDbBlockReference
  2
_DOTBLANK
 10
134.5
 20
-448.0173952306
 30
0.0
 41
12.0
 42
12.0
 43
12.0
  0
INSERT
  5
129B
330
2B7E
100
AcDbEntity
  8
0
100
AcDbBlockReference
  2
*U6
 10
0.0
 20
0.0
 30
0.0
  0
POINT
  5
129C
330
2B7E
100
AcDbEntity
  8
DEFPOINTS
 62
     0
100
AcDbPoint
 10
-134.5
 20
-300.0
 30
0.0
  0
POINT
  5
129D
330
2B7E
100
AcDbEntity
  8
DEFPOINTS
 62
     0
100
AcDbPoint
 10
134.5
 20
-300.0
 30
0.0
  0
POINT
  5
129E
330
2B7E
100
AcDbEntity
  8
DEFPOINTS
 62
     0
100
AcDbPoint
 10
134.5
 20
-448.0173952306
 30
0.0
  0
ENDBLK
  5
D72
330
2B7E
100
AcDbEntity
  8
0
100
AcDbBlockEnd
  0
BLOCK
  5
2B81
330
2B80
100
AcDbEntity
  8
0
100
AcDbBlockBegin
  2
*U6
 70
     1
 10
0.0
 20
0.0
 30
0.0
  3
*U6
  1

  0
TEXT
  5
1EF5
330
2B80
100
AcDbEntity
  8
SIZE
 62
     0
100
AcDbText
 10
-72.68571428571426
 20
-438.0173952305999
 30
0.0
 40
64.0
  1
269
 41
0.9
100
AcDbText
  0
ENDBLK
  5
1EF7
330
2B80
100
AcDbEntity
  8
0
100
AcDbBlockEnd
  0
BLOCK
  5
2B83
330
2B82
100
AcDbEntity
  8
0
100
AcDbBlockBegin
  2
*D7
 70
     1
 10
0.0
 20
0.0
 30
0.0
  3
*D7
  1

  0
LINE
  5
11A7
330
2B82
100
AcDbEntity
  8
SIZE
  6
Continuous
 62
     0
100
AcDbLine
 10
143.5
 20
-300.0
 30
0.0
 11
304.6432844803791
 21
-300.0
 31
0.0
  0
LINE
  5
11A8
330
2B82
100
AcDbEntity
  8
SIZE
  6
Continuous
 62
     0
100
AcDbLine
 10
177.5
 20
-0.0000000000000057
 30
0.0
 11
304.6432844803792
 21
-0.0000000000000417
 31
0.0
  0
LINE
  5
11A9
330
2B82
100
AcDbEntity
  8
SIZE
  6
Continuous
 62
     0
100
AcDbLine
 10
284.6432844803791
 20
-288.0000000000001
 30
0.0
 11
284.6432844803792
 21
-12.00000000000003
 31
0.0
  0
INSERT
  5
11AA
330
2B82
100
AcDbEntity
  8
SIZE
  6
Continuous
 62
     0
100
AcDbBlockReference
  2
_DOTBLANK
 10
284.6432844803791
 20
-300.0
 30
0.0
 41
12.0
 42
12.0
 43
12.0
 50
270.0
  0
INSERT
  5
11AB
330
2B82
100
AcDbEntity
  8
SIZE
  6
Continuous
 62
     0
100
AcDbBlockReference
  2
_DOTBLANK
 10
284.6432844803792
 20
-0.000000000000036
 30
0.0
 41
12.0
 42
12.0
 43
12.0
 50
90.0
  0
INSERT
  5
11AC
330
2B82
100
AcDbEntity
  8
0
100
AcDbBlockReference
  2
*U8
 10
0.0
 20
0.0
 30
0.0
  0
POINT
  5
11AD
330
2B82
100
AcDbEntity
  8
DEFPOINTS
  6
Continuous
 62
     0
100
AcDbPoint
 10
123.5
 20
-300.0
 30
0.0
  0
POINT
  5
11AE
330
2B82
100
AcDbEntity
  8
DEFPOINTS
  6
Continuous
 62
     0
100
AcDbPoint
 10
157.5
 20
0.0
 30
0.0
  0
POINT
  5
11AF
330
2B82
100
AcDbEntity
  8
DEFPOINTS
  6
Continuous
 62
     0
100
AcDbPoint
 10
284.6432844803792
 20
-0.000000000000036
 30
0.0
  0
ENDBLK
  5
E11
330
2B82
100
AcDbEntity
  8
0
100
AcDbBlockEnd
  0
BLOCK
  5
2B85
330
2B84
100
AcDbEntity
  8
0
100
AcDbBlockBegin
  2
*U8
 70
     1
 10
0.0
 20
0.0
 30
0.0
  3
*U8
  1

  0
TEXT
  5
1EE1
330
2B84
100
AcDbEntity
  8
SIZE
 62
     0
100
AcDbText
 10
274.6432844803792
 20
-224.0571428571429
 30
0.0
 40
64.0
  1
300
 50
90.0
 41
0.9
100
AcDbText
  0
ENDBLK
  5
1EE3
330
2B84
100
AcDbEntity
  8
0
100
AcDbBlockEnd
  0
BLOCK
  5
2B87
330
2B86
100
AcDbEntity
  8
0
100
AcDbBlockBegin
  2
*D9
 70
     1
 10
0.0
 20
0.0
 30
0.0
  3
*D9
  1

  0
LINE
  5
E7D
330
2B86
100
AcDbEntity
  8
SIZE
 62
     0
100
AcDbLine
 10
-139.9999999999998
 20
32.46448280219375
 30
0.0
 11
-139.9999999999998
 21
136.4516878685508
 31
0.0
  0
LINE
  5
E7E
330
2B86
100
AcDbEntity
  8
SIZE
 62
     0
100
AcDbLine
 10
140.0
 20
32.46448280219375
 30
0.0
 11
140.0
 21
136.4516878685508
 31
0.0
  0
LINE
  5
E7F
330
2B86
100
AcDbEntity
  8
SIZE
 62
     0
100
AcDbLine
 10
-128.0
 20
116.4516878685508
 30
0.0
 11
128.0
 21
116.4516878685508
 31
0.0
  0
INSERT
  5
E80
330
2B86
100
AcDbEntity
  8
SIZE
 62
     0
100
AcDbBlockReference
  2
_DOTBLANK
 10
-139.9999999999998
 20
116.4516878685508
 30
0.0
 41
12.0
 42
12.0
 43
12.0
 50
180.0
  0
INSERT
  5
E81
330
2B86
100
AcDbEntity
  8
SIZE
 62
     0
100
AcDbBlockReference
  2
_DOTBLANK
 10
140.0
 20
116.4516878685508
 30
0.0
 41
12.0
 42
12.0
 43
12.0
  0
INSERT
  5
E82
330
2B86
100
AcDbEntity
  8
0
100
AcDbBlockReference
  2
*U10
 10
0.0
 20
0.0
 30
0.0
  0
POINT
  5
E83
330
2B86
100
AcDbEntity
  8
DEFPOINTS
 62
     0
100
AcDbPoint
 10
-139.9999999999998
 20
12.46448280219374
 30
0.0
  0
POINT
  5
E84
330
2B86
100
AcDbEntity
  8
DEFPOINTS
 62
     0
100
AcDbPoint
 10
140.0
 20
12.46448280219374
 30
0.0
  0
POINT
  5
E85
330
2B86
100
AcDbEntity
  8
DEFPOINTS
 62
     0
100
AcDbPoint
 10
140.0
 20
116.4516878685508
 30
0.0
  0
ENDBLK
  5
E7C
330
2B86
100
AcDbEntity
  8
0
100
AcDbBlockEnd
  0
BLOCK
  5
2B89
330
2B88
100
AcDbEntity
  8
0
100
AcDbBlockBegin
  2
*U10
 70
     1
 10
0.0
 20
0.0
 30
0.0
  3
*U10
  1

  0
TEXT
  5
1ED8
330
2B88
100
AcDbEntity
  8
SIZE
 62
     0
100
AcDbText
 10
-74.05714285714281
 20
126.4516878685508
 30
0.0
 40
64.0
  1
280
 41
0.9
100
AcDbText
  0
ENDBLK
  5
1EDA
330
2B88
100
AcDbEntity
  8
0
100
AcDbBlockEnd
  0
BLOCK
  5
2B8B
330
2B8A
100
AcDbEntity
  8
0
100
AcDbBlockBegin
  2
GENAXEH
 70
     0
 10
0.0
 20
0.0
 30
0.0
  3
GENAXEH
  1

  0
LINE
  5
FDB
330
2B8A
100
AcDbEntity
  8
0
100
AcDbLine
 10
-1.0
 20
0.0
 30
0.0
 11
1.0
 21
0.0
 31
0.0
  0
ENDBLK
  5
FDD
330
2B8A
100
AcDbEntity
  8
0
100
AcDbBlockEnd
  0
BLOCK
  5
2B8D
330
2B8C
100
AcDbEntity
  8
0
100
AcDbBlockBegin
  2
*D12
 70
     1
 10
0.0
 20
0.0
 30
0.0
  3
*D12
  1

  0
LINE
  5
1120
330
2B8C
100
AcDbEntity
  8
SIZE
 62
     0
100
AcDbLine
 10
-157.5
 20
20.0
 30
0.0
 11
-157.5
 21
245.5794621189598
 31
0.0
  0
LINE
  5
1121
330
2B8C
100
AcDbEntity
  8
SIZE
 62
     0
100
AcDbLine
 10
157.5
 20
20.0
 30
0.0
 11
157.5
 21
245.5794621189598
 31
0.0
  0
LINE
  5
1122
330
2B8C
100
AcDbEntity
  8
SIZE
 62
     0
100
AcDbLine
 10
-145.5
 20
225.5794621189598
 30
0.0
 11
145.5
 21
225.5794621189598
 31
0.0
  0
INSERT
  5
1123
330
2B8C
100
AcDbEntity
  8
SIZE
 62
     0
100
AcDbBlockReference
  2
_DOTBLANK
 10
-157.5
 20
225.5794621189598
 30
0.0
 41
12.0
 42
12.0
 43
12.0
 50
180.0
  0
INSERT
  5
1124
330
2B8C
100
AcDbEntity
  8
SIZE
 62
     0
100
AcDbBlockReference
  2
_DOTBLANK
 10
157.5
 20
225.5794621189598
 30
0.0
 41
12.0
 42
12.0
 43
12.0
  0
INSERT
  5
1125
330
2B8C
100
AcDbEntity
  8
0
100
AcDbBlockReference
  2
*U13
 10
0.0
 20
0.0
 30
0.0
  0
POINT
  5
1126
330
2B8C
100
AcDbEntity
  8
DEFPOINTS
 62
     0
100
AcDbPoint
 10
-157.5
 20
0.0
 30
0.0
  0
POINT
  5
1127
330
2B8C
100
AcDbEntity
  8
DEFPOINTS
 62
     0
100
AcDbPoint
 10
157.5
 20
0.0
 30
0.0
  0
POINT
  5
1128
330
2B8C
100
AcDbEntity
  8
DEFPOINTS
 62
     0
100
AcDbPoint
 10
157.5
 20
225.5794621189598
 30
0.0
  0
ENDBLK
  5
111F
330
2B8C
100
AcDbEntity
  8
0
100
AcDbBlockEnd
  0
BLOCK
  5
2B8F
330
2B8E
100
AcDbEntity
  8
0
100
AcDbBlockBegin
  2
*U13
 70
     1
 10
0.0
 20
0.0
 30
0.0
  3
*U13
  1

  0
TEXT
  5
1EDD
330
2B8E
100
AcDbEntity
  8
SIZE
 62
     0
100
AcDbText
 10
-68.57142857142857
 20
235.5794621189599
 30
0.0
 40
64.0
  1
315
 41
0.9
100
AcDbText
  0
ENDBLK
  5
1EDF
330
2B8E
100
AcDbEntity
  8
0
100
AcDbBlockEnd
  0
BLOCK
  5
2B91
330
2B90
100
AcDbEntity
  8
0
100
AcDbBlockBegin
  2
*D14
 70
     1
 10
0.0
 20
0.0
 30
0.0
  3
*D14
  1

  0
LINE
  5
11BD
330
2B90
100
AcDbEntity
  8
NOTE
 62
     0
100
AcDbLine
 10
-123.4999999999999
 20
-320.0
 30
0.0
 11
-123.4999999999999
 21
-354.9529861856111
 31
0.0
  0
LINE
  5
11BE
330
2B90
100
AcDbEntity
  8
NOTE
 62
     0
100
AcDbLine
 10
-133.4999999999998
 20
-331.2126909923287
 30
0.0
 11
-133.4999999999998
 21
-354.9529861856111
 31
0.0
  0
LINE
  5
11BF
330
2B90
100
AcDbEntity
  8
NOTE
 62
     0
100
AcDbLine
 10
-111.4999999999999
 20
-334.9529861856112
 30
0.0
 11
-99.4999999999999
 21
-334.9529861856112
 31
0.0
  0
LINE
  5
11C0
330
2B90
100
AcDbEntity
  8
NOTE
 62
     0
100
AcDbLine
 10
-145.4999999999998
 20
-334.9529861856112
 30
0.0
 11
-157.4999999999998
 21
-334.9529861856112
 31
0.0
  0
LINE
  5
11C1
330
2B90
100
AcDbEntity
  8
NOTE
 62
     0
100
AcDbLine
 10
-123.4999999999999
 20
-334.9529861856112
 30
0.0
 11
-133.4999999999998
 21
-334.9529861856112
 31
0.0
  0
INSERT
  5
11C2
330
2B90
100
AcDbEntity
  8
NOTE
 62
     0
100
AcDbBlockReference
  2
_DOTBLANK
 10
-123.4999999999999
 20
-334.9529861856112
 30
0.0
 41
12.0
 42
12.0
 43
12.0
 50
180.0
  0
INSERT
  5
11C3
330
2B90
100
AcDbEntity
  8
NOTE
 62
     0
100
AcDbBlockReference
  2
_DOTBLANK
 10
-133.4999999999998
 20
-334.9529861856112
 30
0.0
 41
12.0
 42
12.0
 43
12.0
  0
INSERT
  5
11C4
330
2B90
100
AcDbEntity
  8
0
100
AcDbBlockReference
  2
*U15
 10
0.0
 20
0.0
 30
0.0
  0
POINT
  5
11C5
330
2B90
100
AcDbEntity
  8
DEFPOINTS
 62
     0
100
AcDbPoint
 10
-123.4999999999999
 20
-300.0
 30
0.0
  0
POINT
  5
11C6
330
2B90
100
AcDbEntity
  8
DEFPOINTS
 62
     0
100
AcDbPoint
 10
-133.4999999999998
 20
-311.2126909923287
 30
0.0
  0
POINT
  5
11C7
330
2B90
100
AcDbEntity
  8
DEFPOINTS
 62
     0
100
AcDbPoint
 10
-133.4999999999998
 20
-334.9529861856112
 30
0.0
  0
ENDBLK
  5
11BC
330
2B90
100
AcDbEntity
  8
0
100
AcDbBlockEnd
  0
BLOCK
  5
2B93
330
2B92
100
AcDbEntity
  8
0
100
AcDbBlockBegin
  2
*U15
 70
     1
 10
0.0
 20
0.0
 30
0.0
  3
*U15
  1

  0
TEXT
  5
1EE5
330
2B92
100
AcDbEntity
  8
NOTE
 62
     0
100
AcDbText
 10
-169.642857142857
 20
-324.9529861856112
 30
0.0
 40
64.0
  1
10
 41
0.9
100
AcDbText
  0
ENDBLK
  5
1EE7
330
2B92
100
AcDbEntity
  8
0
100
AcDbBlockEnd
  0
BLOCK
  5
2B95
330
2B94
100
AcDbEntity
  8
0
100
AcDbBlockBegin
  2
*D16
 70
     1
 10
0.0
 20
0.0
 30
0.0
  3
*D16
  1

  0
LINE
  5
11E7
330
2B94
100
AcDbEntity
  8
NOTE
 62
     0
100
AcDbLine
 10
-135.5
 20
-333.2126909923287
 30
0.0
 11
-135.5
 21
-386.2569421441843
 31
0.0
  0
LINE
  5
11E8
330
2B94
100
AcDbEntity
  8
NOTE
 62
     0
100
AcDbLine
 10
-123.4999999999999
 20
-320.0
 30
0.0
 11
-123.4999999999999
 21
-386.2569421441843
 31
0.0
  0
LINE
  5
11E9
330
2B94
100
AcDbEntity
  8
NOTE
 62
     0
100
AcDbLine
 10
-147.5
 20
-366.2569421441844
 30
0.0
 11
-159.5
 21
-366.2569421441844
 31
0.0
  0
LINE
  5
11EA
330
2B94
100
AcDbEntity
  8
NOTE
 62
     0
100
AcDbLine
 10
-111.4999999999999
 20
-366.2569421441844
 30
0.0
 11
-99.4999999999999
 21
-366.2569421441844
 31
0.0
  0
LINE
  5
11EB
330
2B94
100
AcDbEntity
  8
NOTE
 62
     0
100
AcDbLine
 10
-135.5
 20
-366.2569421441844
 30
0.0
 11
-123.4999999999999
 21
-366.2569421441844
 31
0.0
  0
INSERT
  5
11EC
330
2B94
100
AcDbEntity
  8
NOTE
 62
     0
100
AcDbBlockReference
  2
_DOTBLANK
 10
-135.5
 20
-366.2569421441844
 30
0.0
 41
12.0
 42
12.0
 43
12.0
  0
INSERT
  5
11ED
330
2B94
100
AcDbEntity
  8
NOTE
 62
     0
100
AcDbBlockReference
  2
_DOTBLANK
 10
-123.4999999999999
 20
-366.2569421441844
 30
0.0
 41
12.0
 42
12.0
 43
12.0
 50
180.0
  0
INSERT
  5
11EE
330
2B94
100
AcDbEntity
  8
0
100
AcDbBlockReference
  2
*U17
 10
0.0
 20
0.0
 30
0.0
  0
POINT
  5
11EF
330
2B94
100
AcDbEntity
  8
DEFPOINTS
 62
     0
100
AcDbPoint
 10
-135.5
 20
-313.2126909923287
 30
0.0
  0
POINT
  5
11F0
330
2B94
100
AcDbEntity
  8
DEFPOINTS
 62
     0
100
AcDbPoint
 10
-123.4999999999999
 20
-300.0
 30
0.0
  0
POINT
  5
11F1
330
2B94
100
AcDbEntity
  8
DEFPOINTS
 62
     0
100
AcDbPoint
 10
-123.4999999999999
 20
-366.2569421441844
 30
0.0
  0
ENDBLK
  5
11E6
330
2B94
100
AcDbEntity
  8
0
100
AcDbBlockEnd
  0
BLOCK
  5
2B97
330
2B96
100
AcDbEntity
  8
0
100
AcDbBlockBegin
  2
*U17
 70
     1
 10
0.0
 20
0.0
 30
0.0
  3
*U17
  1

  0
TEXT
  5
1EE9
330
2B96
100
AcDbEntity
  8
NOTE
 62
     0
100
AcDbText
 10
-170.642857142857
 20
-356.2569421441843
 30
0.0
 40
64.0
  1
12
 41
0.9
100
AcDbText
  0
ENDBLK
  5
1EEB
330
2B96
100
AcDbEntity
  8
0
100
AcDbBlockEnd
  0
BLOCK
  5
2B99
330
2B98
100
AcDbEntity
  8
0
100
AcDbBlockBegin
  2
*D18
 70
     1
 10
0.0
 20
0.0
 30
0.0
  3
*D18
  1

  0
LINE
  5
11F6
330
2B98
100
AcDbEntity
  8
NOTE
 62
     0
100
AcDbLine
 10
-123.4999999999999
 20
-320.0
 30
0.0
 11
-123.4999999999999
 21
-583.8286022818904
 31
0.0
  0
LINE
  5
11F7
330
2B98
100
AcDbEntity
  8
NOTE
 62
     0
100
AcDbLine
 10
123.5
 20
-320.0
 30
0.0
 11
123.5
 21
-583.8286022818904
 31
0.0
  0
LINE
  5
11F8
330
2B98
100
AcDbEntity
  8
NOTE
 62
     0
100
AcDbLine
 10
-111.4999999999999
 20
-563.8286022818904
 30
0.0
 11
111.5
 21
-563.8286022818904
 31
0.0
  0
INSERT
  5
11F9
330
2B98
100
AcDbEntity
  8
NOTE
 62
     0
100
AcDbBlockReference
  2
_DOTBLANK
 10
-123.4999999999999
 20
-563.8286022818904
 30
0.0
 41
12.0
 42
12.0
 43
12.0
 50
180.0
  0
INSERT
  5
11FA
330
2B98
100
AcDbEntity
  8
NOTE
 62
     0
100
AcDbBlockReference
  2
_DOTBLANK
 10
123.5
 20
-563.8286022818904
 30
0.0
 41
12.0
 42
12.0
 43
12.0
  0
INSERT
  5
11FB
330
2B98
100
AcDbEntity
  8
0
100
AcDbBlockReference
  2
*U19
 10
0.0
 20
0.0
 30
0.0
  0
POINT
  5
11FC
330
2B98
100
AcDbEntity
  8
DEFPOINTS
 62
     0
100
AcDbPoint
 10
-123.4999999999999
 20
-300.0
 30
0.0
  0
POINT
  5
11FD
330
2B98
100
AcDbEntity
  8
DEFPOINTS
 62
     0
100
AcDbPoint
 10
123.5
 20
-300.0
 30
0.0
  0
POINT
  5
11FE
330
2B98
100
AcDbEntity
  8
DEFPOINTS
 62
     0
100
AcDbPoint
 10
123.5
 20
-563.8286022818904
 30
0.0
  0
ENDBLK
  5
11F5
330
2B98
100
AcDbEntity
  8
0
100
AcDbBlockEnd
  0
BLOCK
  5
2B9B
330
2B9A
100
AcDbEntity
  8
0
100
AcDbBlockBegin
  2
*U19
 70
     1
 10
0.0
 20
0.0
 30
0.0
  3
*U19
  1

  0
TEXT
  5
1EED
330
2B9A
100
AcDbEntity
  8
NOTE
 62
     0
100
AcDbText
 10
-74.05714285714281
 20
-553.8286022818904
 30
0.0
 40
64.0
  1
247
 41
0.9
100
AcDbText
  0
ENDBLK
  5
1EEF
330
2B9A
100
AcDbEntity
  8
0
100
AcDbBlockEnd
  0
BLOCK
  5
2B9D
330
2B9C
100
AcDbEntity
  8
0
100
AcDbBlockBegin
  2
*D20
 70
     1
 10
0.0
 20
0.0
 30
0.0
  3
*D20
  1

  0
LINE
  5
1284
330
2B9C
100
AcDbEntity
  8
NOTE
 62
     0
100
AcDbLine
 10
-123.5
 20
12.0
 30
0.0
 11
-123.5
 21
71.83630134534229
 31
0.0
  0
LINE
  5
1285
330
2B9C
100
AcDbEntity
  8
NOTE
 62
     0
100
AcDbLine
 10
123.5
 20
12.0
 30
0.0
 11
123.5
 21
71.83630134534229
 31
0.0
  0
LINE
  5
1286
330
2B9C
100
AcDbEntity
  8
NOTE
 62
     0
100
AcDbLine
 10
-111.5
 20
51.83630134534229
 30
0.0
 11
111.5
 21
51.83630134534229
 31
0.0
  0
INSERT
  5
1287
330
2B9C
100
AcDbEntity
  8
NOTE
 62
     0
100
AcDbBlockReference
  2
_DOTBLANK
 10
-123.5
 20
51.83630134534229
 30
0.0
 41
12.0
 42
12.0
 43
12.0
 50
180.0
  0
INSERT
  5
1288
330
2B9C
100
AcDbEntity
  8
NOTE
 62
     0
100
AcDbBlockReference
  2
_DOTBLANK
 10
123.5
 20
51.83630134534229
 30
0.0
 41
12.0
 42
12.0
 43
12.0
  0
INSERT
  5
1289
330
2B9C
100
AcDbEntity
  8
0
100
AcDbBlockReference
  2
*U21
 10
0.0
 20
0.0
 30
0.0
  0
POINT
  5
128A
330
2B9C
100
AcDbEntity
  8
DEFPOINTS
 62
     0
100
AcDbPoint
 10
-123.5
 20
-8.0
 30
0.0
  0
POINT
  5
128B
330
2B9C
100
AcDbEntity
  8
DEFPOINTS
 62
     0
100
AcDbPoint
 10
123.5
 20
-8.0
 30
0.0
  0
POINT
  5
128C
330
2B9C
100
AcDbEntity
  8
DEFPOINTS
 62
     0
100
AcDbPoint
 10
123.5
 20
51.83630134534229
 30
0.0
  0
ENDBLK
  5
1283
330
2B9C
100
AcDbEntity
  8
0
100
AcDbBlockEnd
  0
BLOCK
  5
2B9F
330
2B9E
100
AcDbEntity
  8
0
100
AcDbBlockBegin
  2
*U21
 70
     1
 10
0.0
 20
0.0
 30
0.0
  3
*U21
  1

  0
TEXT
  5
1EF1
330
2B9E
100
AcDbEntity
  8
NOTE
 62
     0
100
AcDbText
 10
-74.05714285714283
 20
61.83630134534229
 30
0.0
 40
64.0
  1
247
 41
0.9
100
AcDbText
  0
ENDBLK
  5
1EF3
330
2B9E
100
AcDbEntity
  8
0
100
AcDbBlockEnd
  0
BLOCK
  5
2BA1
330
2BA0
100
AcDbEntity
  8
0
100
AcDbBlockBegin
  2
*D22
 70
     1
 10
0.0
 20
0.0
 30
0.0
  3
*D22
  1

  0
LINE
  5
1414
330
2BA0
100
AcDbEntity
  8
SIZE
 62
     0
100
AcDbLine
 10
-22313.11521613997
 20
7365.702971374808
 30
0.0
 11
-22313.11521613997
 21
7217.685576144207
 31
0.0
  0
LINE
  5
1415
330
2BA0
100
AcDbEntity
  8
SIZE
 62
     0
100
AcDbLine
 10
-22044.11521613997
 20
7365.702971374808
 30
0.0
 11
-22044.11521613997
 21
7217.685576144207
 31
0.0
  0
LINE
  5
1416
330
2BA0
100
AcDbEntity
  8
SIZE
 62
     0
100
AcDbLine
 10
-22301.11521613997
 20
7237.685576144207
 30
0.0
 11
-22056.11521613997
 21
7237.685576144207
 31
0.0
  0
INSERT
  5
1417
330
2BA0
100
AcDbEntity
  8
SIZE
 62
     0
100
AcDbBlockReference
  2
_DOTBLANK
 10
-22313.11521613997
 20
7237.685576144207
 30
0.0
 41
12.0
 42
12.0
 43
12.0
 50
180.0
  0
INSERT
  5
1418
330
2BA0
100
AcDbEntity
  8
SIZE
 62
     0
100
AcDbBlockReference
  2
_DOTBLANK
 10
-22044.11521613997
 20
7237.685576144207
 30
0.0
 41
12.0
 42
12.0
 43
12.0
  0
INSERT
  5
1419
330
2BA0
100
AcDbEntity
  8
0
100
AcDbBlockReference
  2
*U23
 10
0.0
 20
0.0
 30
0.0
  0
POINT
  5
141A
330
2BA0
100
AcDbEntity
  8
DEFPOINTS
 62
     0
100
AcDbPoint
 10
-22313.11521613997
 20
7385.702971374808
 30
0.0
  0
POINT
  5
141B
330
2BA0
100
AcDbEntity
  8
DEFPOINTS
 62
     0
100
AcDbPoint
 10
-22044.11521613997
 20
7385.702971374808
 30
0.0
  0
POINT
  5
141C
330
2BA0
100
AcDbEntity
  8
DEFPOINTS
 62
     0
100
AcDbPoint
 10
-22044.11521613997
 20
7237.685576144207
 30
0.0
  0
ENDBLK
  5
141D
330
2BA0
100
AcDbEntity
  8
0
100
AcDbBlockEnd
  0
BLOCK
  5
2BA3
330
2BA2
100
AcDbEntity
  8
0
100
AcDbBlockBegin
  2
*U23
 70
     1
 10
0.0
 20
0.0
 30
0.0
  3
*U23
  1

  0
TEXT
  5
1EF9
330
2BA2
100
AcDbEntity
  8
SIZE
 62
     0
100
AcDbText
 10
-22251.30093042568
 20
7247.685576144205
 30
0.0
 40
64.0
  1
269
 41
0.9
100
AcDbText
  0
ENDBLK
  5
1EFB
330
2BA2
100
AcDbEntity
  8
0
100
AcDbBlockEnd
  0
BLOCK
  5
2BA5
330
2BA4
100
AcDbEntity
  8
0
100
AcDbBlockBegin
  2
*D24
 70
     1
 10
0.0
 20
0.0
 30
0.0
  3
*D24
  1

  0
LINE
  5
1420
330
2BA4
100
AcDbEntity
  8
SIZE
  6
Continuous
 62
     0
100
AcDbLine
 10
-22035.11521613997
 20
7385.702971374808
 30
0.0
 11
-21873.97193165959
 21
7385.702971374808
 31
0.0
  0
LINE
  5
1421
330
2BA4
100
AcDbEntity
  8
SIZE
  6
Continuous
 62
     0
100
AcDbLine
 10
-22001.11521613997
 20
7685.702971374808
 30
0.0
 11
-21873.97193165959
 21
7685.702971374808
 31
0.0
  0
LINE
  5
1422
330
2BA4
100
AcDbEntity
  8
SIZE
  6
Continuous
 62
     0
100
AcDbLine
 10
-21893.97193165959
 20
7397.702971374808
 30
0.0
 11
-21893.97193165959
 21
7673.702971374808
 31
0.0
  0
INSERT
  5
1423
330
2BA4
100
AcDbEntity
  8
SIZE
  6
Continuous
 62
     0
100
AcDbBlockReference
  2
_DOTBLANK
 10
-21893.97193165959
 20
7385.702971374808
 30
0.0
 41
12.0
 42
12.0
 43
12.0
 50
270.0
  0
INSERT
  5
1424
330
2BA4
100
AcDbEntity
  8
SIZE
  6
Continuous
 62
     0
100
AcDbBlockReference
  2
_DOTBLANK
 10
-21893.97193165959
 20
7685.702971374808
 30
0.0
 41
12.0
 42
12.0
 43
12.0
 50
90.0
  0
INSERT
  5
1425
330
2BA4
100
AcDbEntity
  8
0
100
AcDbBlockReference
  2
*U25
 10
0.0
 20
0.0
 30
0.0
  0
POINT
  5
1426
330
2BA4
100
AcDbEntity
  8
DEFPOINTS
  6
Continuous
 62
     0
100
AcDbPoint
 10
-22055.11521613997
 20
7385.702971374808
 30
0.0
  0
POINT
  5
1427
330
2BA4
100
AcDbEntity
  8
DEFPOINTS
  6
Continuous
 62
     0
100
AcDbPoint
 10
-22021.11521613997
 20
7685.702971374808
 30
0.0
  0
POINT
  5
1428
330
2BA4
100
AcDbEntity
  8
DEFPOINTS
  6
Continuous
 62
     0
100
AcDbPoint
 10
-21893.97193165959
 20
7685.702971374808
 30
0.0
  0
ENDBLK
  5
1429
330
2BA4
100
AcDbEntity
  8
0
100
AcDbBlockEnd
  0
BLOCK
  5
2BA7
330
2BA6
100
AcDbEntity
  8
0
100
AcDbBlockBegin
  2
*U25
 70
     1
 10
0.0
 20
0.0
 30
0.0
  3
*U25
  1

  0
TEXT
  5
1EFD
330
2BA6
100
AcDbEntity
  8
SIZE
 62
     0
100
AcDbText
 10
-21903.97193165959
 20
7461.645828517662
 30
0.0
 40
64.0
  1
300
 50
90.0
 41
0.9
100
AcDbText
  0
ENDBLK
  5
1EFF
330
2BA6
100
AcDbEntity
  8
0
100
AcDbBlockEnd
  0
BLOCK
  5
2BA9
330
2BA8
100
AcDbEntity
  8
0
100
AcDbBlockBegin
  2
*D26
 70
     1
 10
0.0
 20
0.0
 30
0.0
  3
*D26
  1

  0
LINE
  5
142C
330
2BA8
100
AcDbEntity
  8
SIZE
 62
     0
100
AcDbLine
 10
-22318.61521613997
 20
7718.167454177002
 30
0.0
 11
-22318.61521613997
 21
7822.154659243358
 31
0.0
  0
LINE
  5
142D
330
2BA8
100
AcDbEntity
  8
SIZE
 62
     0
100
AcDbLine
 10
-22038.61521613997
 20
7718.167454177002
 30
0.0
 11
-22038.61521613997
 21
7822.154659243358
 31
0.0
  0
LINE
  5
142E
330
2BA8
100
AcDbEntity
  8
SIZE
 62
     0
100
AcDbLine
 10
-22306.61521613997
 20
7802.154659243358
 30
0.0
 11
-22050.61521613997
 21
7802.154659243358
 31
0.0
  0
INSERT
  5
142F
330
2BA8
100
AcDbEntity
  8
SIZE
 62
     0
100
AcDbBlockReference
  2
_DOTBLANK
 10
-22318.61521613997
 20
7802.154659243358
 30
0.0
 41
12.0
 42
12.0
 43
12.0
 50
180.0
  0
INSERT
  5
1430
330
2BA8
100
AcDbEntity
  8
SIZE
 62
     0
100
AcDbBlockReference
  2
_DOTBLANK
 10
-22038.61521613997
 20
7802.154659243358
 30
0.0
 41
12.0
 42
12.0
 43
12.0
  0
INSERT
  5
1431
330
2BA8
100
AcDbEntity
  8
0
100
AcDbBlockReference
  2
*U27
 10
0.0
 20
0.0
 30
0.0
  0
POINT
  5
1432
330
2BA8
100
AcDbEntity
  8
DEFPOINTS
 62
     0
100
AcDbPoint
 10
-22318.61521613997
 20
7698.167454177002
 30
0.0
  0
POINT
  5
1433
330
2BA8
100
AcDbEntity
  8
DEFPOINTS
 62
     0
100
AcDbPoint
 10
-22038.61521613997
 20
7698.167454177002
 30
0.0
  0
POINT
  5
1434
330
2BA8
100
AcDbEntity
  8
DEFPOINTS
 62
     0
100
AcDbPoint
 10
-22038.61521613997
 20
7802.154659243358
 30
0.0
  0
ENDBLK
  5
1435
330
2BA8
100
AcDbEntity
  8
0
100
AcDbBlockEnd
  0
BLOCK
  5
2BAB
330
2BAA
100
AcDbEntity
  8
0
100
AcDbBlockBegin
  2
*U27
 70
     1
 10
0.0
 20
0.0
 30
0.0
  3
*U27
  1

  0
TEXT
  5
1F01
330
2BAA
100
AcDbEntity
  8
SIZE
 62
     0
100
AcDbText
 10
-22252.6723589971
 20
7812.154659243358
 30
0.0
 40
64.0
  1
280
 41
0.9
100
AcDbText
  0
ENDBLK
  5
1F03
330
2BAA
100
AcDbEntity
  8
0
100
AcDbBlockEnd
  0
BLOCK
  5
2BAD
330
2BAC
100
AcDbEntity
  8
0
100
AcDbBlockBegin
  2
*D28
 70
     1
 10
0.0
 20
0.0
 30
0.0
  3
*D28
  1

  0
LINE
  5
1438
330
2BAC
100
AcDbEntity
  8
SIZE
 62
     0
100
AcDbLine
 10
-22336.11521613997
 20
7705.702971374808
 30
0.0
 11
-22336.11521613997
 21
7931.282433493766
 31
0.0
  0
LINE
  5
1439
330
2BAC
100
AcDbEntity
  8
SIZE
 62
     0
100
AcDbLine
 10
-22021.11521613997
 20
7705.702971374808
 30
0.0
 11
-22021.11521613997
 21
7931.282433493766
 31
0.0
  0
LINE
  5
143A
330
2BAC
100
AcDbEntity
  8
SIZE
 62
     0
100
AcDbLine
 10
-22324.11521613997
 20
7911.282433493766
 30
0.0
 11
-22033.11521613997
 21
7911.282433493766
 31
0.0
  0
INSERT
  5
143B
330
2BAC
100
AcDbEntity
  8
SIZE
 62
     0
100
AcDbBlockReference
  2
_DOTBLANK
 10
-22336.11521613997
 20
7911.282433493766
 30
0.0
 41
12.0
 42
12.0
 43
12.0
 50
180.0
  0
INSERT
  5
143C
330
2BAC
100
AcDbEntity
  8
SIZE
 62
     0
100
AcDbBlockReference
  2
_DOTBLANK
 10
-22021.11521613997
 20
7911.282433493766
 30
0.0
 41
12.0
 42
12.0
 43
12.0
  0
INSERT
  5
143D
330
2BAC
100
AcDbEntity
  8
0
100
AcDbBlockReference
  2
*U29
 10
0.0
 20
0.0
 30
0.0
  0
POINT
  5
143E
330
2BAC
100
AcDbEntity
  8
DEFPOINTS
 62
     0
100
AcDbPoint
 10
-22336.11521613997
 20
7685.702971374808
 30
0.0
  0
POINT
  5
143F
330
2BAC
100
AcDbEntity
  8
DEFPOINTS
 62
     0
100
AcDbPoint
 10
-22021.11521613997
 20
7685.702971374808
 30
0.0
  0
POINT
  5
1440
330
2BAC
100
AcDbEntity
  8
DEFPOINTS
 62
     0
100
AcDbPoint
 10
-22021.11521613997
 20
7911.282433493766
 30
0.0
  0
ENDBLK
  5
1441
330
2BAC
100
AcDbEntity
  8
0
100
AcDbBlockEnd
  0
BLOCK
  5
2BAF
330
2BAE
100
AcDbEntity
  8
0
100
AcDbBlockBegin
  2
*U29
 70
     1
 10
0.0
 20
0.0
 30
0.0
  3
*U29
  1

  0
TEXT
  5
1F05
330
2BAE
100
AcDbEntity
  8
SIZE
 62
     0
100
AcDbText
 10
-22247.18664471139
 20
7921.282433493766
 30
0.0
 40
64.0
  1
315
 41
0.9
100
AcDbText
  0
ENDBLK
  5
1F07
330
2BAE
100
AcDbEntity
  8
0
100
AcDbBlockEnd
  0
BLOCK
  5
2BB1
330
2BB0
100
AcDbEntity
  8
0
100
AcDbBlockBegin
  2
*D30
 70
     1
 10
0.0
 20
0.0
 30
0.0
  3
*D30
  1

  0
LINE
  5
166B
330
2BB0
100
AcDbEntity
  8
SIZE
 62
     0
100
AcDbLine
 10
-134.5
 20
-320.0
 30
0.0
 11
-134.5
 21
-468.0173952306001
 31
0.0
  0
LINE
  5
166C
330
2BB0
100
AcDbEntity
  8
SIZE
 62
     0
100
AcDbLine
 10
134.5
 20
-320.0
 30
0.0
 11
134.5
 21
-468.0173952306001
 31
0.0
  0
LINE
  5
166D
330
2BB0
100
AcDbEntity
  8
SIZE
 62
     0
100
AcDbLine
 10
-122.5
 20
-448.0173952306
 30
0.0
 11
122.5
 21
-448.0173952306
 31
0.0
  0
INSERT
  5
166E
330
2BB0
100
AcDbEntity
  8
SIZE
 62
     0
100
AcDbBlockReference
  2
_DOTBLANK
 10
-134.5
 20
-448.0173952306
 30
0.0
 41
12.0
 42
12.0
 43
12.0
 50
180.0
  0
INSERT
  5
166F
330
2BB0
100
AcDbEntity
  8
SIZE
 62
     0
100
AcDbBlockReference
  2
_DOTBLANK
 10
134.5
 20
-448.0173952306
 30
0.0
 41
12.0
 42
12.0
 43
12.0
  0
INSERT
  5
1670
330
2BB0
100
AcDbEntity
  8
0
100
AcDbBlockReference
  2
*U31
 10
0.0
 20
0.0
 30
0.0
  0
POINT
  5
1671
330
2BB0
100
AcDbEntity
  8
DEFPOINTS
 62
     0
100
AcDbPoint
 10
-134.5
 20
-300.0
 30
0.0
  0
POINT
  5
1672
330
2BB0
100
AcDbEntity
  8
DEFPOINTS
 62
     0
100
AcDbPoint
 10
134.5
 20
-300.0
 30
0.0
  0
POINT
  5
1673
330
2BB0
100
AcDbEntity
  8
DEFPOINTS
 62
     0
100
AcDbPoint
 10
134.5
 20
-448.0173952306
 30
0.0
  0
ENDBLK
  5
14A7
330
2BB0
100
AcDbEntity
  8
0
100
AcDbBlockEnd
  0
BLOCK
  5
2BB3
330
2BB2
100
AcDbEntity
  8
0
100
AcDbBlockBegin
  2
*U31
 70
     1
 10
0.0
 20
0.0
 30
0.0
  3
*U31
  1

  0
TEXT
  5
1F09
330
2BB2
100
AcDbEntity
  8
SIZE
 62
     0
100
AcDbText
 10
-72.68571428571426
 20
-438.0173952306002
 30
0.0
 40
64.0
  1
269
 41
0.9
100
AcDbText
  0
ENDBLK
  5
1F0B
330
2BB2
100
AcDbEntity
  8
0
100
AcDbBlockEnd
  0
BLOCK
  5
2BB5
330
2BB4
100
AcDbEntity
  8
0
100
AcDbBlockBegin
  2
*D32
 70
     1
 10
0.0
 20
0.0
 30
0.0
  3
*D32
  1

  0
LINE
  5
1674
330
2BB4
100
AcDbEntity
  8
SIZE
  6
Continuous
 62
     0
100
AcDbLine
 10
143.5
 20
-300.0
 30
0.0
 11
304.6432844803784
 21
-300.0
 31
0.0
  0
LINE
  5
1675
330
2BB4
100
AcDbEntity
  8
SIZE
  6
Continuous
 62
     0
100
AcDbLine
 10
177.5
 20
-0.0000000000000057
 30
0.0
 11
304.6432844803785
 21
-0.0000000000000417
 31
0.0
  0
LINE
  5
1676
330
2BB4
100
AcDbEntity
  8
SIZE
  6
Continuous
 62
     0
100
AcDbLine
 10
284.6432844803784
 20
-288.0000000000001
 30
0.0
 11
284.6432844803785
 21
-12.00000000000003
 31
0.0
  0
INSERT
  5
1677
330
2BB4
100
AcDbEntity
  8
SIZE
  6
Continuous
 62
     0
100
AcDbBlockReference
  2
_DOTBLANK
 10
284.6432844803784
 20
-300.0
 30
0.0
 41
12.0
 42
12.0
 43
12.0
 50
270.0
  0
INSERT
  5
1678
330
2BB4
100
AcDbEntity
  8
SIZE
  6
Continuous
 62
     0
100
AcDbBlockReference
  2
_DOTBLANK
 10
284.6432844803785
 20
-0.000000000000036
 30
0.0
 41
12.0
 42
12.0
 43
12.0
 50
90.0
  0
INSERT
  5
1679
330
2BB4
100
AcDbEntity
  8
0
100
AcDbBlockReference
  2
*U33
 10
0.0
 20
0.0
 30
0.0
  0
POINT
  5
167A
330
2BB4
100
AcDbEntity
  8
DEFPOINTS
  6
Continuous
 62
     0
100
AcDbPoint
 10
123.5
 20
-300.0
 30
0.0
  0
POINT
  5
167B
330
2BB4
100
AcDbEntity
  8
DEFPOINTS
  6
Continuous
 62
     0
100
AcDbPoint
 10
157.5
 20
0.0
 30
0.0
  0
POINT
  5
167C
330
2BB4
100
AcDbEntity
  8
DEFPOINTS
  6
Continuous
 62
     0
100
AcDbPoint
 10
284.6432844803785
 20
-0.000000000000036
 30
0.0
  0
ENDBLK
  5
14B3
330
2BB4
100
AcDbEntity
  8
0
100
AcDbBlockEnd
  0
BLOCK
  5
2BB7
330
2BB6
100
AcDbEntity
  8
0
100
AcDbBlockBegin
  2
*U33
 70
     1
 10
0.0
 20
0.0
 30
0.0
  3
*U33
  1

  0
TEXT
  5
1F0D
330
2BB6
100
AcDbEntity
  8
SIZE
 62
     0
100
AcDbText
 10
274.6432844803785
 20
-224.0571428571429
 30
0.0
 40
64.0
  1
300
 50
90.0
 41
0.9
100
AcDbText
  0
ENDBLK
  5
1F0F
330
2BB6
100
AcDbEntity
  8
0
100
AcDbBlockEnd
  0
BLOCK
  5
2BB9
330
2BB8
100
AcDbEntity
  8
0
100
AcDbBlockBegin
  2
*D34
 70
     1
 10
0.0
 20
0.0
 30
0.0
  3
*D34
  1

  0
LINE
  5
167D
330
2BB8
100
AcDbEntity
  8
SIZE
 62
     0
100
AcDbLine
 10
-140.0
 20
32.46448280219375
 30
0.0
 11
-140.0
 21
136.4516878685507
 31
0.0
  0
LINE
  5
167E
330
2BB8
100
AcDbEntity
  8
SIZE
 62
     0
100
AcDbLine
 10
140.0
 20
32.46448280219375
 30
0.0
 11
140.0
 21
136.4516878685507
 31
0.0
  0
LINE
  5
167F
330
2BB8
100
AcDbEntity
  8
SIZE
 62
     0
100
AcDbLine
 10
-128.0
 20
116.4516878685508
 30
0.0
 11
128.0
 21
116.4516878685508
 31
0.0
  0
INSERT
  5
1680
330
2BB8
100
AcDbEntity
  8
SIZE
 62
     0
100
AcDbBlockReference
  2
_DOTBLANK
 10
-140.0
 20
116.4516878685508
 30
0.0
 41
12.0
 42
12.0
 43
12.0
 50
180.0
  0
INSERT
  5
1681
330
2BB8
100
AcDbEntity
  8
SIZE
 62
     0
100
AcDbBlockReference
  2
_DOTBLANK
 10
140.0
 20
116.4516878685508
 30
0.0
 41
12.0
 42
12.0
 43
12.0
  0
INSERT
  5
1682
330
2BB8
100
AcDbEntity
  8
0
100
AcDbBlockReference
  2
*U35
 10
0.0
 20
0.0
 30
0.0
  0
POINT
  5
1683
330
2BB8
100
AcDbEntity
  8
DEFPOINTS
 62
     0
100
AcDbPoint
 10
-140.0
 20
12.46448280219374
 30
0.0
  0
POINT
  5
1684
330
2BB8
100
AcDbEntity
  8
DEFPOINTS
 62
     0
100
AcDbPoint
 10
140.0
 20
12.46448280219374
 30
0.0
  0
POINT
  5
1685
330
2BB8
100
AcDbEntity
  8
DEFPOINTS
 62
     0
100
AcDbPoint
 10
140.0
 20
116.4516878685508
 30
0.0
  0
ENDBLK
  5
14BF
330
2BB8
100
AcDbEntity
  8
0
100
AcDbBlockEnd
  0
BLOCK
  5
2BBB
330
2BBA
100
AcDbEntity
  8
0
100
AcDbBlockBegin
  2
*U35
 70
     1
 10
0.0
 20
0.0
 30
0.0
  3
*U35
  1

  0
TEXT
  5
1F11
330
2BBA
100
AcDbEntity
  8
SIZE
 62
     0
100
AcDbText
 10
-74.05714285714283
 20
126.4516878685507
 30
0.0
 40
64.0
  1
280
 41
0.9
100
AcDbText
  0
ENDBLK
  5
1F13
330
2BBA
100
AcDbEntity
  8
0
100
AcDbBlockEnd
  0
BLOCK
  5
2BBD
330
2BBC
100
AcDbEntity
  8
0
100
AcDbBlockBegin
  2
*D36
 70
     1
 10
0.0
 20
0.0
 30
0.0
  3
*D36
  1

  0
LINE
  5
1686
330
2BBC
100
AcDbEntity
  8
SIZE
 62
     0
100
AcDbLine
 10
-157.5
 20
20.0
 30
0.0
 11
-157.5
 21
245.5794621189598
 31
0.0
  0
LINE
  5
1687
330
2BBC
100
AcDbEntity
  8
SIZE
 62
     0
100
AcDbLine
 10
157.5
 20
20.0
 30
0.0
 11
157.5
 21
245.5794621189598
 31
0.0
  0
LINE
  5
1688
330
2BBC
100
AcDbEntity
  8
SIZE
 62
     0
100
AcDbLine
 10
-145.5
 20
225.5794621189598
 30
0.0
 11
145.5
 21
225.5794621189598
 31
0.0
  0
INSERT
  5
1689
330
2BBC
100
AcDbEntity
  8
SIZE
 62
     0
100
AcDbBlockReference
  2
_DOTBLANK
 10
-157.5
 20
225.5794621189598
 30
0.0
 41
12.0
 42
12.0
 43
12.0
 50
180.0
  0
INSERT
  5
168A
330
2BBC
100
AcDbEntity
  8
SIZE
 62
     0
100
AcDbBlockReference
  2
_DOTBLANK
 10
157.5
 20
225.5794621189598
 30
0.0
 41
12.0
 42
12.0
 43
12.0
  0
INSERT
  5
168B
330
2BBC
100
AcDbEntity
  8
0
100
AcDbBlockReference
  2
*U37
 10
0.0
 20
0.0
 30
0.0
  0
POINT
  5
168C
330
2BBC
100
AcDbEntity
  8
DEFPOINTS
 62
     0
100
AcDbPoint
 10
-157.5
 20
0.0
 30
0.0
  0
POINT
  5
168D
330
2BBC
100
AcDbEntity
  8
DEFPOINTS
 62
     0
100
AcDbPoint
 10
157.5
 20
0.0
 30
0.0
  0
POINT
  5
168E
330
2BBC
100
AcDbEntity
  8
DEFPOINTS
 62
     0
100
AcDbPoint
 10
157.5
 20
225.5794621189598
 30
0.0
  0
ENDBLK
  5
14CB
330
2BBC
100
AcDbEntity
  8
0
100
AcDbBlockEnd
  0
BLOCK
  5
2BBF
330
2BBE
100
AcDbEntity
  8
0
100
AcDbBlockBegin
  2
*U37
 70
     1
 10
0.0
 20
0.0
 30
0.0
  3
*U37
  1

  0
TEXT
  5
1F15
330
2BBE
100
AcDbEntity
  8
SIZE
 62
     0
100
AcDbText
 10
-68.57142857142857
 20
235.5794621189598
 30
0.0
 40
64.0
  1
315
 41
0.9
100
AcDbText
  0
ENDBLK
  5
1F17
330
2BBE
100
AcDbEntity
  8
0
100
AcDbBlockEnd
  0
BLOCK
  5
2BC1
330
2BC0
100
AcDbEntity
  8
0
100
AcDbBlockBegin
  2
*U38
 70
     1
 10
0.0
 20
0.0
 30
0.0
  3
*U38
  1

  0
ENDBLK
  5
15CF
330
2BC0
100
AcDbEntity
  8
0
100
AcDbBlockEnd
  0
BLOCK
  5
2BC3
330
2BC2
100
AcDbEntity
  8
0
100
AcDbBlockBegin
  2
*D39
 70
     1
 10
0.0
 20
0.0
 30
0.0
  3
*D39
  1

  0
LINE
  5
1692
330
2BC2
100
AcDbEntity
  8
SIZE
 62
     0
100
AcDbLine
 10
-25844.51823276502
 20
7685.702971374808
 30
0.0
 11
-25981.04465488371
 21
7685.702971374808
 31
0.0
  0
LINE
  5
1693
330
2BC2
100
AcDbEntity
  8
SIZE
 62
     0
100
AcDbLine
 10
-25844.51823276502
 20
7677.702971374808
 30
0.0
 11
-25981.04465488371
 21
7677.702971374808
 31
0.0
  0
LINE
  5
1694
330
2BC2
100
AcDbEntity
  8
SIZE
 62
     0
100
AcDbLine
 10
-25961.04465488371
 20
7697.702971374808
 30
0.0
 11
-25961.04465488371
 21
7709.702971374809
 31
0.0
  0
LINE
  5
1695
330
2BC2
100
AcDbEntity
  8
SIZE
 62
     0
100
AcDbLine
 10
-25961.04465488371
 20
7665.70297137481
 30
0.0
 11
-25961.04465488371
 21
7595.302971374808
 31
0.0
  0
INSERT
  5
1696
330
2BC2
100
AcDbEntity
  8
SIZE
 62
     0
100
AcDbBlockReference
  2
_DOTBLANK
 10
-25961.04465488371
 20
7685.702971374808
 30
0.0
 41
12.0
 42
12.0
 43
12.0
 50
270.0
  0
INSERT
  5
1697
330
2BC2
100
AcDbEntity
  8
SIZE
 62
     0
100
AcDbBlockReference
  2
_DOTBLANK
 10
-25961.04465488371
 20
7677.702971374808
 30
0.0
 41
12.0
 42
12.0
 43
12.0
 50
90.0
  0
INSERT
  5
1698
330
2BC2
100
AcDbEntity
  8
0
100
AcDbBlockReference
  2
*U40
 10
0.0
 20
0.0
 30
0.0
  0
POINT
  5
1699
330
2BC2
100
AcDbEntity
  8
DEFPOINTS
 62
     0
100
AcDbPoint
 10
-25824.51823276501
 20
7685.702971374808
 30
0.0
  0
POINT
  5
169A
330
2BC2
100
AcDbEntity
  8
DEFPOINTS
 62
     0
100
AcDbPoint
 10
-25824.51823276501
 20
7677.702971374808
 30
0.0
  0
POINT
  5
169B
330
2BC2
100
AcDbEntity
  8
DEFPOINTS
 62
     0
100
AcDbPoint
 10
-25961.04465488371
 20
7677.702971374808
 30
0.0
  0
ENDBLK
  5
169C
330
2BC2
100
AcDbEntity
  8
0
100
AcDbBlockEnd
  0
BLOCK
  5
2BC5
330
2BC4
100
AcDbEntity
  8
0
100
AcDbBlockBegin
  2
*U40
 70
     1
 10
0.0
 20
0.0
 30
0.0
  3
*U40
  1

  0
TEXT
  5
1F19
330
2BC4
100
AcDbEntity
  8
SIZE
 62
     0
100
AcDbText
 10
-25971.04465488371
 20
7605.302971374804
 30
0.0
 40
64.0
  1
8
 50
90.0
 41
0.9
100
AcDbText
  0
ENDBLK
  5
1F1B
330
2BC4
100
AcDbEntity
  8
0
100
AcDbBlockEnd
  0
BLOCK
  5
2BC7
330
2BC6
100
AcDbEntity
  8
0
100
AcDbBlockBegin
  2
*D41
 70
     1
 10
0.0
 20
0.0
 30
0.0
  3
*D41
  1

  0
LINE
  5
169F
330
2BC6
100
AcDbEntity
  8
SIZE
 62
     0
100
AcDbLine
 10
-25512.51823276502
 20
7385.702971374808
 30
0.0
 11
-25362.37494828464
 21
7385.702971374808
 31
0.0
  0
LINE
  5
16A0
330
2BC6
100
AcDbEntity
  8
SIZE
 62
     0
100
AcDbLine
 10
-25523.51823276501
 20
7373.702971374808
 30
0.0
 11
-25362.37494828464
 21
7373.702971374808
 31
0.0
  0
LINE
  5
16A1
330
2BC6
100
AcDbEntity
  8
SIZE
 62
     0
100
AcDbLine
 10
-25382.37494828464
 20
7397.702971374808
 30
0.0
 11
-25382.37494828464
 21
7409.70297137481
 31
0.0
  0
LINE
  5
16A2
330
2BC6
100
AcDbEntity
  8
SIZE
 62
     0
100
AcDbLine
 10
-25382.37494828464
 20
7361.702971374808
 30
0.0
 11
-25382.37494828464
 21
7244.674399946238
 31
0.0
  0
INSERT
  5
16A3
330
2BC6
100
AcDbEntity
  8
SIZE
 62
     0
100
AcDbBlockReference
  2
_DOTBLANK
 10
-25382.37494828464
 20
7385.702971374808
 30
0.0
 41
12.0
 42
12.0
 43
12.0
 50
270.0
  0
INSERT
  5
16A4
330
2BC6
100
AcDbEntity
  8
SIZE
 62
     0
100
AcDbBlockReference
  2
_DOTBLANK
 10
-25382.37494828464
 20
7373.702971374808
 30
0.0
 41
12.0
 42
12.0
 43
12.0
 50
90.0
  0
INSERT
  5
16A5
330
2BC6
100
AcDbEntity
  8
0
100
AcDbBlockReference
  2
*U42
 10
0.0
 20
0.0
 30
0.0
  0
POINT
  5
16A6
330
2BC6
100
AcDbEntity
  8
DEFPOINTS
 62
     0
100
AcDbPoint
 10
-25532.51823276502
 20
7385.702971374808
 30
0.0
  0
POINT
  5
16A7
330
2BC6
100
AcDbEntity
  8
DEFPOINTS
 62
     0
100
AcDbPoint
 10
-25543.51823276502
 20
7373.702971374808
 30
0.0
  0
POINT
  5
16A8
330
2BC6
100
AcDbEntity
  8
DEFPOINTS
 62
     0
100
AcDbPoint
 10
-25382.37494828464
 20
7373.702971374808
 30
0.0
  0
ENDBLK
  5
16A9
330
2BC6
100
AcDbEntity
  8
0
100
AcDbBlockEnd
  0
BLOCK
  5
2BC9
330
2BC8
100
AcDbEntity
  8
0
100
AcDbBlockBegin
  2
*U42
 70
     1
 10
0.0
 20
0.0
 30
0.0
  3
*U42
  1

  0
TEXT
  5
1F1D
330
2BC8
100
AcDbEntity
  8
SIZE
 62
     0
100
AcDbText
 10
-25392.37494828464
 20
7256.045828517662
 30
0.0
 40
64.0
  1
12
 50
90.0
 41
0.9
100
AcDbText
  0
ENDBLK
  5
1F1F
330
2BC8
100
AcDbEntity
  8
0
100
AcDbBlockEnd
  0
BLOCK
  5
2BCB
330
2BCA
100
AcDbEntity
  8
0
100
AcDbBlockBegin
  2
*D43
 70
     1
 10
0.0
 20
0.0
 30
0.0
  3
*D43
  1

  0
LINE
  5
16AC
330
2BCA
100
AcDbEntity
  8
SIZE
 62
     0
100
AcDbLine
 10
-25801.51823276501
 20
7365.702971374808
 30
0.0
 11
-25801.51823276501
 21
7217.685576144207
 31
0.0
  0
LINE
  5
16AD
330
2BCA
100
AcDbEntity
  8
SIZE
 62
     0
100
AcDbLine
 10
-25532.51823276502
 20
7365.702971374808
 30
0.0
 11
-25532.51823276502
 21
7217.685576144207
 31
0.0
  0
LINE
  5
16AE
330
2BCA
100
AcDbEntity
  8
SIZE
 62
     0
100
AcDbLine
 10
-25789.51823276502
 20
7237.685576144207
 30
0.0
 11
-25544.51823276501
 21
7237.685576144207
 31
0.0
  0
INSERT
  5
16AF
330
2BCA
100
AcDbEntity
  8
SIZE
 62
     0
100
AcDbBlockReference
  2
_DOTBLANK
 10
-25801.51823276501
 20
7237.685576144207
 30
0.0
 41
12.0
 42
12.0
 43
12.0
 50
180.0
  0
INSERT
  5
16B0
330
2BCA
100
AcDbEntity
  8
SIZE
 62
     0
100
AcDbBlockReference
  2
_DOTBLANK
 10
-25532.51823276502
 20
7237.685576144207
 30
0.0
 41
12.0
 42
12.0
 43
12.0
  0
INSERT
  5
16B1
330
2BCA
100
AcDbEntity
  8
0
100
AcDbBlockReference
  2
*U44
 10
0.0
 20
0.0
 30
0.0
  0
POINT
  5
16B2
330
2BCA
100
AcDbEntity
  8
DEFPOINTS
 62
     0
100
AcDbPoint
 10
-25801.51823276501
 20
7385.702971374808
 30
0.0
  0
POINT
  5
16B3
330
2BCA
100
AcDbEntity
  8
DEFPOINTS
 62
     0
100
AcDbPoint
 10
-25532.51823276502
 20
7385.702971374808
 30
0.0
  0
POINT
  5
16B4
330
2BCA
100
AcDbEntity
  8
DEFPOINTS
 62
     0
100
AcDbPoint
 10
-25532.51823276502
 20
7237.685576144207
 30
0.0
  0
ENDBLK
  5
16B5
330
2BCA
100
AcDbEntity
  8
0
100
AcDbBlockEnd
  0
BLOCK
  5
2BCD
330
2BCC
100
AcDbEntity
  8
0
100
AcDbBlockBegin
  2
*U44
 70
     1
 10
0.0
 20
0.0
 30
0.0
  3
*U44
  1

  0
TEXT
  5
1F21
330
2BCC
100
AcDbEntity
  8
SIZE
 62
     0
100
AcDbText
 10
-25739.70394705074
 20
7247.685576144205
 30
0.0
 40
64.0
  1
269
 41
0.9
100
AcDbText
  0
ENDBLK
  5
1F23
330
2BCC
100
AcDbEntity
  8
0
100
AcDbBlockEnd
  0
BLOCK
  5
2BCF
330
2BCE
100
AcDbEntity
  8
0
100
AcDbBlockBegin
  2
*D45
 70
     1
 10
0.0
 20
0.0
 30
0.0
  3
*D45
  1

  0
LINE
  5
16B8
330
2BCE
100
AcDbEntity
  8
SIZE
 62
     0
100
AcDbLine
 10
-25512.51823276502
 20
7385.702971374808
 30
0.0
 11
-25362.37494828464
 21
7385.702971374808
 31
0.0
  0
LINE
  5
16B9
330
2BCE
100
AcDbEntity
  8
SIZE
 62
     0
100
AcDbLine
 10
-25489.51823276501
 20
7685.702971374808
 30
0.0
 11
-25362.37494828464
 21
7685.702971374808
 31
0.0
  0
LINE
  5
16BA
330
2BCE
100
AcDbEntity
  8
SIZE
 62
     0
100
AcDbLine
 10
-25382.37494828464
 20
7397.702971374808
 30
0.0
 11
-25382.37494828464
 21
7673.702971374808
 31
0.0
  0
INSERT
  5
16BB
330
2BCE
100
AcDbEntity
  8
SIZE
 62
     0
100
AcDbBlockReference
  2
_DOTBLANK
 10
-25382.37494828464
 20
7385.702971374808
 30
0.0
 41
12.0
 42
12.0
 43
12.0
 50
270.0
  0
INSERT
  5
16BC
330
2BCE
100
AcDbEntity
  8
SIZE
 62
     0
100
AcDbBlockReference
  2
_DOTBLANK
 10
-25382.37494828464
 20
7685.702971374808
 30
0.0
 41
12.0
 42
12.0
 43
12.0
 50
90.0
  0
INSERT
  5
16BD
330
2BCE
100
AcDbEntity
  8
0
100
AcDbBlockReference
  2
*U46
 10
0.0
 20
0.0
 30
0.0
  0
POINT
  5
16BE
330
2BCE
100
AcDbEntity
  8
DEFPOINTS
 62
     0
100
AcDbPoint
 10
-25532.51823276502
 20
7385.702971374808
 30
0.0
  0
POINT
  5
16BF
330
2BCE
100
AcDbEntity
  8
DEFPOINTS
 62
     0
100
AcDbPoint
 10
-25509.51823276502
 20
7685.702971374808
 30
0.0
  0
POINT
  5
16C0
330
2BCE
100
AcDbEntity
  8
DEFPOINTS
 62
     0
100
AcDbPoint
 10
-25382.37494828464
 20
7685.702971374808
 30
0.0
  0
ENDBLK
  5
16C1
330
2BCE
100
AcDbEntity
  8
0
100
AcDbBlockEnd
  0
BLOCK
  5
2BD1
330
2BD0
100
AcDbEntity
  8
0
100
AcDbBlockBegin
  2
*U46
 70
     1
 10
0.0
 20
0.0
 30
0.0
  3
*U46
  1

  0
TEXT
  5
1F25
330
2BD0
100
AcDbEntity
  8
SIZE
 62
     0
100
AcDbText
 10
-25392.37494828464
 20
7461.645828517662
 30
0.0
 40
64.0
  1
300
 50
90.0
 41
0.9
100
AcDbText
  0
ENDBLK
  5
1F27
330
2BD0
100
AcDbEntity
  8
0
100
AcDbBlockEnd
  0
BLOCK
  5
2BD3
330
2BD2
100
AcDbEntity
  8
0
100
AcDbBlockBegin
  2
*D47
 70
     1
 10
0.0
 20
0.0
 30
0.0
  3
*D47
  1

  0
LINE
  5
16C4
330
2BD2
100
AcDbEntity
  8
SIZE
 62
     0
100
AcDbLine
 10
-25807.01823276501
 20
7718.167454177002
 30
0.0
 11
-25807.01823276501
 21
7822.154659243358
 31
0.0
  0
LINE
  5
16C5
330
2BD2
100
AcDbEntity
  8
SIZE
 62
     0
100
AcDbLine
 10
-25527.01823276501
 20
7718.167454177002
 30
0.0
 11
-25527.01823276501
 21
7822.154659243358
 31
0.0
  0
LINE
  5
16C6
330
2BD2
100
AcDbEntity
  8
SIZE
 62
     0
100
AcDbLine
 10
-25795.01823276502
 20
7802.154659243358
 30
0.0
 11
-25539.01823276501
 21
7802.154659243358
 31
0.0
  0
INSERT
  5
16C7
330
2BD2
100
AcDbEntity
  8
SIZE
 62
     0
100
AcDbBlockReference
  2
_DOTBLANK
 10
-25807.01823276501
 20
7802.154659243358
 30
0.0
 41
12.0
 42
12.0
 43
12.0
 50
180.0
  0
INSERT
  5
16C8
330
2BD2
100
AcDbEntity
  8
SIZE
 62
     0
100
AcDbBlockReference
  2
_DOTBLANK
 10
-25527.01823276501
 20
7802.154659243358
 30
0.0
 41
12.0
 42
12.0
 43
12.0
  0
INSERT
  5
16C9
330
2BD2
100
AcDbEntity
  8
0
100
AcDbBlockReference
  2
*U48
 10
0.0
 20
0.0
 30
0.0
  0
POINT
  5
16CA
330
2BD2
100
AcDbEntity
  8
DEFPOINTS
 62
     0
100
AcDbPoint
 10
-25807.01823276501
 20
7698.167454177002
 30
0.0
  0
POINT
  5
16CB
330
2BD2
100
AcDbEntity
  8
DEFPOINTS
 62
     0
100
AcDbPoint
 10
-25527.01823276501
 20
7698.167454177002
 30
0.0
  0
POINT
  5
16CC
330
2BD2
100
AcDbEntity
  8
DEFPOINTS
 62
     0
100
AcDbPoint
 10
-25527.01823276501
 20
7802.154659243358
 30
0.0
  0
ENDBLK
  5
16CD
330
2BD2
100
AcDbEntity
  8
0
100
AcDbBlockEnd
  0
BLOCK
  5
2BD5
330
2BD4
100
AcDbEntity
  8
0
100
AcDbBlockBegin
  2
*U48
 70
     1
 10
0.0
 20
0.0
 30
0.0
  3
*U48
  1

  0
TEXT
  5
1F29
330
2BD4
100
AcDbEntity
  8
SIZE
 62
     0
100
AcDbText
 10
-25741.07537562216
 20
7812.154659243358
 30
0.0
 40
64.0
  1
280
 41
0.9
100
AcDbText
  0
ENDBLK
  5
1F2B
330
2BD4
100
AcDbEntity
  8
0
100
AcDbBlockEnd
  0
BLOCK
  5
2BD7
330
2BD6
100
AcDbEntity
  8
0
100
AcDbBlockBegin
  2
*D49
 70
     1
 10
0.0
 20
0.0
 30
0.0
  3
*D49
  1

  0
LINE
  5
16D0
330
2BD6
100
AcDbEntity
  8
SIZE
 62
     0
100
AcDbLine
 10
-25824.51823276501
 20
7705.702971374808
 30
0.0
 11
-25824.51823276501
 21
7931.282433493766
 31
0.0
  0
LINE
  5
16D1
330
2BD6
100
AcDbEntity
  8
SIZE
 62
     0
100
AcDbLine
 10
-25509.51823276502
 20
7705.702971374808
 30
0.0
 11
-25509.51823276502
 21
7931.282433493766
 31
0.0
  0
LINE
  5
16D2
330
2BD6
100
AcDbEntity
  8
SIZE
 62
     0
100
AcDbLine
 10
-25812.51823276502
 20
7911.282433493766
 30
0.0
 11
-25521.51823276501
 21
7911.282433493766
 31
0.0
  0
INSERT
  5
16D3
330
2BD6
100
AcDbEntity
  8
SIZE
 62
     0
100
AcDbBlockReference
  2
_DOTBLANK
 10
-25824.51823276501
 20
7911.282433493766
 30
0.0
 41
12.0
 42
12.0
 43
12.0
 50
180.0
  0
INSERT
  5
16D4
330
2BD6
100
AcDbEntity
  8
SIZE
 62
     0
100
AcDbBlockReference
  2
_DOTBLANK
 10
-25509.51823276502
 20
7911.282433493766
 30
0.0
 41
12.0
 42
12.0
 43
12.0
  0
INSERT
  5
16D5
330
2BD6
100
AcDbEntity
  8
0
100
AcDbBlockReference
  2
*U50
 10
0.0
 20
0.0
 30
0.0
  0
POINT
  5
16D6
330
2BD6
100
AcDbEntity
  8
DEFPOINTS
 62
     0
100
AcDbPoint
 10
-25824.51823276501
 20
7685.702971374808
 30
0.0
  0
POINT
  5
16D7
330
2BD6
100
AcDbEntity
  8
DEFPOINTS
 62
     0
100
AcDbPoint
 10
-25509.51823276502
 20
7685.702971374808
 30
0.0
  0
POINT
  5
16D8
330
2BD6
100
AcDbEntity
  8
DEFPOINTS
 62
     0
100
AcDbPoint
 10
-25509.51823276502
 20
7911.282433493766
 30
0.0
  0
ENDBLK
  5
16D9
330
2BD6
100
AcDbEntity
  8
0
100
AcDbBlockEnd
  0
BLOCK
  5
2BD9
330
2BD8
100
AcDbEntity
  8
0
100
AcDbBlockBegin
  2
*U50
 70
     1
 10
0.0
 20
0.0
 30
0.0
  3
*U50
  1

  0
TEXT
  5
1F2D
330
2BD8
100
AcDbEntity
  8
SIZE
 62
     0
100
AcDbText
 10
-25735.58966133645
 20
7921.282433493766
 30
0.0
 40
64.0
  1
315
 41
0.9
100
AcDbText
  0
ENDBLK
  5
1F2F
330
2BD8
100
AcDbEntity
  8
0
100
AcDbBlockEnd
  0
BLOCK
  5
2BDB
330
2BDA
100
AcDbEntity
  8
0
100
AcDbBlockBegin
  2
*D51
 70
     1
 10
0.0
 20
0.0
 30
0.0
  3
*D51
  1

  0
LINE
  5
1D83
330
2BDA
100
AcDbEntity
  8
SIZE
 62
     0
100
AcDbLine
 10
-134.5
 20
-320.0
 30
0.0
 11
-134.5
 21
-468.0173952306001
 31
0.0
  0
LINE
  5
1D84
330
2BDA
100
AcDbEntity
  8
SIZE
 62
     0
100
AcDbLine
 10
134.5
 20
-320.0
 30
0.0
 11
134.5
 21
-468.0173952306001
 31
0.0
  0
LINE
  5
1D85
330
2BDA
100
AcDbEntity
  8
SIZE
 62
     0
100
AcDbLine
 10
-122.5
 20
-448.0173952306
 30
0.0
 11
122.5
 21
-448.0173952306
 31
0.0
  0
INSERT
  5
1D86
330
2BDA
100
AcDbEntity
  8
SIZE
 62
     0
100
AcDbBlockReference
  2
_DOTBLANK
 10
-134.5
 20
-448.0173952306
 30
0.0
 41
12.0
 42
12.0
 43
12.0
 50
180.0
  0
INSERT
  5
1D87
330
2BDA
100
AcDbEntity
  8
SIZE
 62
     0
100
AcDbBlockReference
  2
_DOTBLANK
 10
134.5
 20
-448.0173952306
 30
0.0
 41
12.0
 42
12.0
 43
12.0
  0
INSERT
  5
1D88
330
2BDA
100
AcDbEntity
  8
0
100
AcDbBlockReference
  2
*U52
 10
0.0
 20
0.0
 30
0.0
  0
POINT
  5
1D89
330
2BDA
100
AcDbEntity
  8
DEFPOINTS
 62
     0
100
AcDbPoint
 10
-134.5
 20
-300.0
 30
0.0
  0
POINT
  5
1D8A
330
2BDA
100
AcDbEntity
  8
DEFPOINTS
 62
     0
100
AcDbPoint
 10
134.5
 20
-300.0
 30
0.0
  0
POINT
  5
1D8B
330
2BDA
100
AcDbEntity
  8
DEFPOINTS
 62
     0
100
AcDbPoint
 10
134.5
 20
-448.0173952306
 30
0.0
  0
ENDBLK
  5
173D
330
2BDA
100
AcDbEntity
  8
0
100
AcDbBlockEnd
  0
BLOCK
  5
2BDD
330
2BDC
100
AcDbEntity
  8
0
100
AcDbBlockBegin
  2
*U52
 70
     1
 10
0.0
 20
0.0
 30
0.0
  3
*U52
  1

  0
TEXT
  5
1F31
330
2BDC
100
AcDbEntity
  8
SIZE
 62
     0
100
AcDbText
 10
-72.68571428571426
 20
-438.0173952306003
 30
0.0
 40
64.0
  1
269
 41
0.9
100
AcDbText
  0
ENDBLK
  5
1F33
330
2BDC
100
AcDbEntity
  8
0
100
AcDbBlockEnd
  0
BLOCK
  5
2BDF
330
2BDE
100
AcDbEntity
  8
0
100
AcDbBlockBegin
  2
*D53
 70
     1
 10
0.0
 20
0.0
 30
0.0
  3
*D53
  1

  0
LINE
  5
1D8C
330
2BDE
100
AcDbEntity
  8
SIZE
 62
     0
100
AcDbLine
 10
154.5
 20
-300.0
 30
0.0
 11
304.6432844803784
 21
-300.0
 31
0.0
  0
LINE
  5
1D8D
330
2BDE
100
AcDbEntity
  8
SIZE
 62
     0
100
AcDbLine
 10
177.5
 20
-0.0000000000000057
 30
0.0
 11
304.6432844803785
 21
-0.0000000000000417
 31
0.0
  0
LINE
  5
1D8E
330
2BDE
100
AcDbEntity
  8
SIZE
 62
     0
100
AcDbLine
 10
284.6432844803784
 20
-288.0
 30
0.0
 11
284.6432844803785
 21
-12.00000000000003
 31
0.0
  0
INSERT
  5
1D8F
330
2BDE
100
AcDbEntity
  8
SIZE
 62
     0
100
AcDbBlockReference
  2
_DOTBLANK
 10
284.6432844803784
 20
-300.0
 30
0.0
 41
12.0
 42
12.0
 43
12.0
 50
270.0
  0
INSERT
  5
1D90
330
2BDE
100
AcDbEntity
  8
SIZE
 62
     0
100
AcDbBlockReference
  2
_DOTBLANK
 10
284.6432844803785
 20
-0.000000000000036
 30
0.0
 41
12.0
 42
12.0
 43
12.0
 50
90.0
  0
INSERT
  5
1D91
330
2BDE
100
AcDbEntity
  8
0
100
AcDbBlockReference
  2
*U54
 10
0.0
 20
0.0
 30
0.0
  0
POINT
  5
1D92
330
2BDE
100
AcDbEntity
  8
DEFPOINTS
 62
     0
100
AcDbPoint
 10
134.5
 20
-300.0
 30
0.0
  0
POINT
  5
1D93
330
2BDE
100
AcDbEntity
  8
DEFPOINTS
 62
     0
100
AcDbPoint
 10
157.5
 20
0.0
 30
0.0
  0
POINT
  5
1D94
330
2BDE
100
AcDbEntity
  8
DEFPOINTS
 62
     0
100
AcDbPoint
 10
284.6432844803785
 20
-0.000000000000036
 30
0.0
  0
ENDBLK
  5
1749
330
2BDE
100
AcDbEntity
  8
0
100
AcDbBlockEnd
  0
BLOCK
  5
2BE1
330
2BE0
100
AcDbEntity
  8
0
100
AcDbBlockBegin
  2
*U54
 70
     1
 10
0.0
 20
0.0
 30
0.0
  3
*U54
  1

  0
TEXT
  5
1F35
330
2BE0
100
AcDbEntity
  8
SIZE
 62
     0
100
AcDbText
 10
274.6432844803785
 20
-224.0571428571429
 30
0.0
 40
64.0
  1
300
 50
90.0
 41
0.9
100
AcDbText
  0
ENDBLK
  5
1F37
330
2BE0
100
AcDbEntity
  8
0
100
AcDbBlockEnd
  0
BLOCK
  5
2BE3
330
2BE2
100
AcDbEntity
  8
0
100
AcDbBlockBegin
  2
*D55
 70
     1
 10
0.0
 20
0.0
 30
0.0
  3
*D55
  1

  0
LINE
  5
1D95
330
2BE2
100
AcDbEntity
  8
SIZE
 62
     0
100
AcDbLine
 10
-140.0
 20
32.46448280219375
 30
0.0
 11
-140.0
 21
136.4516878685508
 31
0.0
  0
LINE
  5
1D96
330
2BE2
100
AcDbEntity
  8
SIZE
 62
     0
100
AcDbLine
 10
140.0
 20
32.46448280219375
 30
0.0
 11
140.0
 21
136.4516878685508
 31
0.0
  0
LINE
  5
1D97
330
2BE2
100
AcDbEntity
  8
SIZE
 62
     0
100
AcDbLine
 10
-128.0
 20
116.4516878685508
 30
0.0
 11
128.0
 21
116.4516878685508
 31
0.0
  0
INSERT
  5
1D98
330
2BE2
100
AcDbEntity
  8
SIZE
 62
     0
100
AcDbBlockReference
  2
_DOTBLANK
 10
-140.0
 20
116.4516878685508
 30
0.0
 41
12.0
 42
12.0
 43
12.0
 50
180.0
  0
INSERT
  5
1D99
330
2BE2
100
AcDbEntity
  8
SIZE
 62
     0
100
AcDbBlockReference
  2
_DOTBLANK
 10
140.0
 20
116.4516878685508
 30
0.0
 41
12.0
 42
12.0
 43
12.0
  0
INSERT
  5
1D9A
330
2BE2
100
AcDbEntity
  8
0
100
AcDbBlockReference
  2
*U56
 10
0.0
 20
0.0
 30
0.0
  0
POINT
  5
1D9B
330
2BE2
100
AcDbEntity
  8
DEFPOINTS
 62
     0
100
AcDbPoint
 10
-140.0
 20
12.46448280219374
 30
0.0
  0
POINT
  5
1D9C
330
2BE2
100
AcDbEntity
  8
DEFPOINTS
 62
     0
100
AcDbPoint
 10
140.0
 20
12.46448280219374
 30
0.0
  0
POINT
  5
1D9D
330
2BE2
100
AcDbEntity
  8
DEFPOINTS
 62
     0
100
AcDbPoint
 10
140.0
 20
116.4516878685508
 30
0.0
  0
ENDBLK
  5
1755
330
2BE2
100
AcDbEntity
  8
0
100
AcDbBlockEnd
  0
BLOCK
  5
2BE5
330
2BE4
100
AcDbEntity
  8
0
100
AcDbBlockBegin
  2
*U56
 70
     1
 10
0.0
 20
0.0
 30
0.0
  3
*U56
  1

  0
TEXT
  5
1F39
330
2BE4
100
AcDbEntity
  8
SIZE
 62
     0
100
AcDbText
 10
-74.05714285714283
 20
126.4516878685508
 30
0.0
 40
64.0
  1
280
 41
0.9
100
AcDbText
  0
ENDBLK
  5
1F3B
330
2BE4
100
AcDbEntity
  8
0
100
AcDbBlockEnd
  0
BLOCK
  5
2BE7
330
2BE6
100
AcDbEntity
  8
0
100
AcDbBlockBegin
  2
*D57
 70
     1
 10
0.0
 20
0.0
 30
0.0
  3
*D57
  1

  0
LINE
  5
1D9E
330
2BE6
100
AcDbEntity
  8
SIZE
 62
     0
100
AcDbLine
 10
-157.5
 20
20.0
 30
0.0
 11
-157.5
 21
245.5794621189598
 31
0.0
  0
LINE
  5
1D9F
330
2BE6
100
AcDbEntity
  8
SIZE
 62
     0
100
AcDbLine
 10
157.5
 20
20.0
 30
0.0
 11
157.5
 21
245.5794621189598
 31
0.0
  0
LINE
  5
1DA0
330
2BE6
100
AcDbEntity
  8
SIZE
 62
     0
100
AcDbLine
 10
-145.5
 20
225.5794621189598
 30
0.0
 11
145.5
 21
225.5794621189598
 31
0.0
  0
INSERT
  5
1DA1
330
2BE6
100
AcDbEntity
  8
SIZE
 62
     0
100
AcDbBlockReference
  2
_DOTBLANK
 10
-157.5
 20
225.5794621189598
 30
0.0
 41
12.0
 42
12.0
 43
12.0
 50
180.0
  0
INSERT
  5
1DA2
330
2BE6
100
AcDbEntity
  8
SIZE
 62
     0
100
AcDbBlockReference
  2
_DOTBLANK
 10
157.5
 20
225.5794621189598
 30
0.0
 41
12.0
 42
12.0
 43
12.0
  0
INSERT
  5
1DA3
330
2BE6
100
AcDbEntity
  8
0
100
AcDbBlockReference
  2
*U58
 10
0.0
 20
0.0
 30
0.0
  0
POINT
  5
1DA4
330
2BE6
100
AcDbEntity
  8
DEFPOINTS
 62
     0
100
AcDbPoint
 10
-157.5
 20
0.0
 30
0.0
  0
POINT
  5
1DA5
330
2BE6
100
AcDbEntity
  8
DEFPOINTS
 62
     0
100
AcDbPoint
 10
157.5
 20
0.0
 30
0.0
  0
POINT
  5
1DA6
330
2BE6
100
AcDbEntity
  8
DEFPOINTS
 62
     0
100
AcDbPoint
 10
157.5
 20
225.5794621189598
 30
0.0
  0
ENDBLK
  5
1761
330
2BE6
100
AcDbEntity
  8
0
100
AcDbBlockEnd
  0
BLOCK
  5
2BE9
330
2BE8
100
AcDbEntity
  8
0
100
AcDbBlockBegin
  2
*U58
 70
     1
 10
0.0
 20
0.0
 30
0.0
  3
*U58
  1

  0
TEXT
  5
1F3D
330
2BE8
100
AcDbEntity
  8
SIZE
 62
     0
100
AcDbText
 10
-68.57142857142857
 20
235.5794621189599
 30
0.0
 40
64.0
  1
315
 41
0.9
100
AcDbText
  0
ENDBLK
  5
1F3F
330
2BE8
100
AcDbEntity
  8
0
100
AcDbBlockEnd
  0
BLOCK
  5
2BEB
330
2BEA
100
AcDbEntity
  8
0
100
AcDbBlockBegin
  2
*D59
 70
     1
 10
0.0
 20
0.0
 30
0.0
  3
*D59
  1

  0
LINE
  5
1DA7
330
2BEA
100
AcDbEntity
  8
SIZE
 62
     0
100
AcDbLine
 10
-177.5
 20
0.0000000000000057
 30
0.0
 11
-314.0264221186908
 21
0.0000000000000443
 31
0.0
  0
LINE
  5
1DA8
330
2BEA
100
AcDbEntity
  8
SIZE
 62
     0
100
AcDbLine
 10
-177.5
 20
-7.999999999999993
 30
0.0
 11
-314.0264221186908
 21
-7.999999999999958
 31
0.0
  0
LINE
  5
1DA9
330
2BEA
100
AcDbEntity
  8
SIZE
 62
     0
100
AcDbLine
 10
-294.0264221186908
 20
12.00000000000003
 30
0.0
 11
-294.0264221186908
 21
24.00000000000004
 31
0.0
  0
LINE
  5
1DAA
330
2BEA
100
AcDbEntity
  8
SIZE
 62
     0
100
AcDbLine
 10
-294.0264221186908
 20
-19.99999999999996
 30
0.0
 11
-294.0264221186908
 21
-90.39999999999997
 31
0.0
  0
INSERT
  5
1DAB
330
2BEA
100
AcDbEntity
  8
SIZE
 62
     0
100
AcDbBlockReference
  2
_DOTBLANK
 10
-294.0264221186908
 20
0.0000000000000387
 30
0.0
 41
12.0
 42
12.0
 43
12.0
 50
270.0
  0
INSERT
  5
1DAC
330
2BEA
100
AcDbEntity
  8
SIZE
 62
     0
100
AcDbBlockReference
  2
_DOTBLANK
 10
-294.0264221186908
 20
-7.999999999999961
 30
0.0
 41
12.0
 42
12.0
 43
12.0
 50
90.0
  0
INSERT
  5
1DAD
330
2BEA
100
AcDbEntity
  8
0
100
AcDbBlockReference
  2
*U60
 10
0.0
 20
0.0
 30
0.0
  0
POINT
  5
1DAE
330
2BEA
100
AcDbEntity
  8
DEFPOINTS
 62
     0
100
AcDbPoint
 10
-157.5
 20
0.0
 30
0.0
  0
POINT
  5
1DAF
330
2BEA
100
AcDbEntity
  8
DEFPOINTS
 62
     0
100
AcDbPoint
 10
-157.5
 20
-8.000000000000003
 30
0.0
  0
POINT
  5
1DB0
330
2BEA
100
AcDbEntity
  8
DEFPOINTS
 62
     0
100
AcDbPoint
 10
-294.0264221186908
 20
-7.999999999999961
 30
0.0
  0
ENDBLK
  5
176D
330
2BEA
100
AcDbEntity
  8
0
100
AcDbBlockEnd
  0
BLOCK
  5
2BED
330
2BEC
100
AcDbEntity
  8
0
100
AcDbBlockBegin
  2
*U60
 70
     1
 10
0.0
 20
0.0
 30
0.0
  3
*U60
  1

  0
TEXT
  5
1F41
330
2BEC
100
AcDbEntity
  8
SIZE
 62
     0
100
AcDbText
 10
-304.0264221186908
 20
-80.4
 30
0.0
 40
64.0
  1
8
 50
90.0
 41
0.9
100
AcDbText
  0
ENDBLK
  5
1F43
330
2BEC
100
AcDbEntity
  8
0
100
AcDbBlockEnd
  0
BLOCK
  5
2BEF
330
2BEE
100
AcDbEntity
  8
0
100
AcDbBlockBegin
  2
*D61
 70
     1
 10
0.0
 20
0.0
 30
0.0
  3
*D61
  1

  0
LINE
  5
1DB1
330
2BEE
100
AcDbEntity
  8
SIZE
 62
     0
100
AcDbLine
 10
154.5
 20
-300.0
 30
0.0
 11
304.6432844803785
 21
-300.0
 31
0.0
  0
LINE
  5
1DB2
330
2BEE
100
AcDbEntity
  8
SIZE
 62
     0
100
AcDbLine
 10
143.5
 20
-312.0
 30
0.0
 11
304.6432844803785
 21
-312.0
 31
0.0
  0
LINE
  5
1DB3
330
2BEE
100
AcDbEntity
  8
SIZE
 62
     0
100
AcDbLine
 10
284.6432844803785
 20
-288.0
 30
0.0
 11
284.6432844803785
 21
-276.0
 31
0.0
  0
LINE
  5
1DB4
330
2BEE
100
AcDbEntity
  8
SIZE
 62
     0
100
AcDbLine
 10
284.6432844803785
 20
-324.0000000000001
 30
0.0
 11
284.6432844803784
 21
-438.2857142857143
 31
0.0
  0
INSERT
  5
1DB5
330
2BEE
100
AcDbEntity
  8
SIZE
 62
     0
100
AcDbBlockReference
  2
_DOTBLANK
 10
284.6432844803785
 20
-300.0
 30
0.0
 41
12.0
 42
12.0
 43
12.0
 50
270.0
  0
INSERT
  5
1DB6
330
2BEE
100
AcDbEntity
  8
SIZE
 62
     0
100
AcDbBlockReference
  2
_DOTBLANK
 10
284.6432844803785
 20
-312.0
 30
0.0
 41
12.0
 42
12.0
 43
12.0
 50
90.0
  0
INSERT
  5
1DB7
330
2BEE
100
AcDbEntity
  8
0
100
AcDbBlockReference
  2
*U62
 10
0.0
 20
0.0
 30
0.0
  0
POINT
  5
1DB8
330
2BEE
100
AcDbEntity
  8
DEFPOINTS
 62
     0
100
AcDbPoint
 10
134.5
 20
-300.0
 30
0.0
  0
POINT
  5
1DB9
330
2BEE
100
AcDbEntity
  8
DEFPOINTS
 62
     0
100
AcDbPoint
 10
123.5
 20
-312.0
 30
0.0
  0
POINT
  5
1DBA
330
2BEE
100
AcDbEntity
  8
DEFPOINTS
 62
     0
100
AcDbPoint
 10
284.6432844803785
 20
-312.0
 30
0.0
  0
ENDBLK
  5
177B
330
2BEE
100
AcDbEntity
  8
0
100
AcDbBlockEnd
  0
BLOCK
  5
2BF1
330
2BF0
100
AcDbEntity
  8
0
100
AcDbBlockBegin
  2
*U62
 70
     1
 10
0.0
 20
0.0
 30
0.0
  3
*U62
  1

  0
TEXT
  5
1F45
330
2BF0
100
AcDbEntity
  8
SIZE
 62
     0
100
AcDbText
 10
274.6432844803785
 20
-428.2857142857142
 30
0.0
 40
64.0
  1
12
 50
90.0
 41
0.9
100
AcDbText
  0
ENDBLK
  5
1F47
330
2BF0
100
AcDbEntity
  8
0
100
AcDbBlockEnd
  0
BLOCK
  5
2BF3
330
2BF2
100
AcDbEntity
  8
0
100
AcDbBlockBegin
  2
*U63
 70
     1
 10
0.0
 20
0.0
 30
0.0
  3
*U63
  1

  0
ENDBLK
  5
1D57
330
2BF2
100
AcDbEntity
  8
0
100
AcDbBlockEnd
  0
BLOCK
  5
2BF5
330
2BF4
100
AcDbEntity
  8
0
100
AcDbBlockBegin
  2
*U64
 70
     1
 10
0.0
 20
0.0
 30
0.0
  3
*U64
  1

  0
INSERT
  5
2087
330
2BF4
100
AcDbEntity
  8
NOTE
100
AcDbBlockReference
  2
_OPEN30
 10
-230.0000000000036
 20
0.0
 30
0.0
 41
12.0
 42
12.0
 43
12.0
 50
312.6090116116894
  0
POLYLINE
  5
2088
330
2BF4
100
AcDbEntity
  8
NOTE
100
AcDb2dPolyline
 66
     1
 10
0.0
 20
0.0
 30
0.0
  0
VERTEX
  5
2A96
330
2088
100
AcDbEntity
  8
NOTE
100
AcDbVertex
100
AcDb2dVertex
 10
-238.1239008361931
 20
8.83188740891547
 30
0.0
  0
VERTEX
  5
2A97
330
2088
100
AcDbEntity
  8
NOTE
100
AcDbVertex
100
AcDb2dVertex
 10
-317.869399992258
 20
95.5270950580134
 30
0.0
  0
VERTEX
  5
2A98
330
2088
100
AcDbEntity
  8
NOTE
100
AcDbVertex
100
AcDb2dVertex
 10
-866.4522571351151
 20
95.5270950580134
 30
0.0
  0
SEQEND
  5
2A99
330
2088
100
AcDbEntity
  8
NOTE
  0
ENDBLK
  5
2089
330
2BF4
100
AcDbEntity
  8
0
100
AcDbBlockEnd
  0
BLOCK
  5
2BF7
330
2BF6
100
AcDbEntity
  8
0
100
AcDbBlockBegin
  2
*U65
 70
     1
 10
0.0
 20
0.0
 30
0.0
  3
*U65
  1

  0
TEXT
  5
208C
330
2BF6
100
AcDbEntity
  8
NOTE
100
AcDbText
 10
-863.7093999922583
 20
113.5270950580134
 30
0.0
 40
64.0
  1
4×φ15取付穴
 41
0.9
100
AcDbText
  0
ENDBLK
  5
208D
330
2BF6
100
AcDbEntity
  8
0
100
AcDbBlockEnd
  0
BLOCK
  5
2BF9
330
2BF8
100
AcDbEntity
  8
0
100
AcDbBlockBegin
  2
*U66
 70
     1
 10
0.0
 20
0.0
 30
0.0
  3
*U66
  1

  0
INSERT
  5
215D
330
2BF8
100
AcDbEntity
  8
NOTE
100
AcDbBlockReference
  2
_OPEN30
 10
230.0
 20
230.0
 30
0.0
 41
12.0
 42
12.0
 43
12.0
 50
230.7091310502217
  0
POLYLINE
  5
215E
330
2BF8
100
AcDbEntity
  8
NOTE
100
AcDb2dPolyline
 66
     1
 10
0.0
 20
0.0
 30
0.0
  0
VERTEX
  5
2A9A
330
215E
100
AcDbEntity
  8
NOTE
100
AcDbVertex
100
AcDb2dVertex
 10
237.599090480922
 20
239.2872936780721
 30
0.0
  0
VERTEX
  5
2A9B
330
215E
100
AcDbEntity
  8
NOTE
100
AcDbVertex
100
AcDb2dVertex
 10
293.4345623698609
 20
307.5270950580134
 30
0.0
  0
VERTEX
  5
2A9C
330
215E
100
AcDbEntity
  8
NOTE
100
AcDbVertex
100
AcDb2dVertex
 10
842.0174195127183
 20
307.5270950580134
 30
0.0
  0
SEQEND
  5
2A9D
330
215E
100
AcDbEntity
  8
NOTE
  0
ENDBLK
  5
215F
330
2BF8
100
AcDbEntity
  8
0
100
AcDbBlockEnd
  0
BLOCK
  5
2BFB
330
2BFA
100
AcDbEntity
  8
0
100
AcDbBlockBegin
  2
*U67
 70
     1
 10
0.0
 20
0.0
 30
0.0
  3
*U67
  1

  0
TEXT
  5
2162
330
2BFA
100
AcDbEntity
  8
NOTE
100
AcDbText
 10
355.4345623698608
 20
325.5270950580134
 30
0.0
 40
64.0
  1
4×φ15取付穴
 41
0.9
100
AcDbText
  0
ENDBLK
  5
2163
330
2BFA
100
AcDbEntity
  8
0
100
AcDbBlockEnd
  0
BLOCK
  5
2BFD
330
2BFC
100
AcDbEntity
  8
0
100
AcDbBlockBegin
  2
*U68
 70
     1
 10
0.0
 20
0.0
 30
0.0
  3
*U68
  1

  0
INSERT
  5
2234
330
2BFC
100
AcDbEntity
  8
NOTE
100
AcDbBlockReference
  2
_OPEN30
 10
230.0000001193762
 20
229.9999999999993
 30
0.0
 41
12.0
 42
12.0
 43
12.0
 50
232.3258907693334
  0
POLYLINE
  5
2235
330
2BFC
100
AcDbEntity
  8
NOTE
100
AcDb2dPolyline
 66
     1
 10
0.0
 20
0.0
 30
0.0
  0
VERTEX
  5
2A9E
330
2235
100
AcDbEntity
  8
NOTE
100
AcDbVertex
100
AcDb2dVertex
 10
237.334033403321
 20
239.4979974620957
 30
0.0
  0
VERTEX
  5
2A9F
330
2235
100
AcDbEntity
  8
NOTE
100
AcDbVertex
100
AcDb2dVertex
 10
303.7628009065842
 20
325.5270950580118
 30
0.0
  0
VERTEX
  5
2AA0
330
2235
100
AcDbEntity
  8
NOTE
100
AcDbVertex
100
AcDb2dVertex
 10
849.6028009065843
 20
325.5270950580118
 30
0.0
  0
SEQEND
  5
2AA1
330
2235
100
AcDbEntity
  8
NOTE
  0
ENDBLK
  5
2236
330
2BFC
100
AcDbEntity
  8
0
100
AcDbBlockEnd
  0
BLOCK
  5
2BFF
330
2BFE
100
AcDbEntity
  8
0
100
AcDbBlockBegin
  2
*U69
 70
     1
 10
0.0
 20
0.0
 30
0.0
  3
*U69
  1

  0
TEXT
  5
2239
330
2BFE
100
AcDbEntity
  8
NOTE
100
AcDbText
 10
365.7628009065842
 20
343.5270950580118
 30
0.0
 40
64.0
  1
4×φ15取付穴
 41
0.9
100
AcDbText
  0
ENDBLK
  5
223A
330
2BFE
100
AcDbEntity
  8
0
100
AcDbBlockEnd
  0
BLOCK
  5
2C01
330
2C00
100
AcDbEntity
  8
0
100
AcDbBlockBegin
  2
*U70
 70
     1
 10
0.0
 20
0.0
 30
0.0
  3
*U70
  1

  0
INSERT
  5
2327
330
2C00
100
AcDbEntity
  8
NOTE
100
AcDbBlockReference
  2
_OPEN30
 10
0.0
 20
230.0
 30
0.0
 41
12.0
 42
12.0
 43
12.0
 50
312.6090116116895
  0
POLYLINE
  5
2328
330
2C00
100
AcDbEntity
  8
NOTE
100
AcDb2dPolyline
 66
     1
 10
0.0
 20
0.0
 30
0.0
  0
VERTEX
  5
2AA2
330
2328
100
AcDbEntity
  8
NOTE
100
AcDbVertex
100
AcDb2dVertex
 10
-8.123900836189513
 20
238.8318874089155
 30
0.0
  0
VERTEX
  5
2AA3
330
2328
100
AcDbEntity
  8
NOTE
100
AcDbVertex
100
AcDb2dVertex
 10
-87.86939999225436
 20
325.527095058013
 30
0.0
  0
VERTEX
  5
2AA4
330
2328
100
AcDbEntity
  8
NOTE
100
AcDbVertex
100
AcDb2dVertex
 10
-633.7093999922545
 20
325.527095058013
 30
0.0
  0
SEQEND
  5
2AA5
330
2328
100
AcDbEntity
  8
NOTE
  0
ENDBLK
  5
2329
330
2C00
100
AcDbEntity
  8
0
100
AcDbBlockEnd
  0
BLOCK
  5
2C03
330
2C02
100
AcDbEntity
  8
0
100
AcDbBlockBegin
  2
*U71
 70
     1
 10
0.0
 20
0.0
 30
0.0
  3
*U71
  1

  0
TEXT
  5
232C
330
2C02
100
AcDbEntity
  8
NOTE
100
AcDbText
 10
-633.7093999922545
 20
343.5270950580129
 30
0.0
 40
64.0
  1
4×φ15取付穴
 41
0.9
100
AcDbText
  0
ENDBLK
  5
232D
330
2C02
100
AcDbEntity
  8
0
100
AcDbBlockEnd
  0
BLOCK
  5
2C05
330
2C04
100
AcDbEntity
  8
0
100
AcDbBlockBegin
  2
*U72
 70
     1
 10
0.0
 20
0.0
 30
0.0
  3
*U72
  1

  0
INSERT
  5
2454
330
2C04
100
AcDbEntity
  8
NOTE
100
AcDbBlockReference
  2
_OPEN30
 10
0.0
 20
230.0
 30
0.0
 41
12.0
 42
12.0
 43
12.0
 50
227.3909883883105
  0
POLYLINE
  5
2455
330
2C04
100
AcDbEntity
  8
NOTE
100
AcDb2dPolyline
 66
     1
 10
0.0
 20
0.0
 30
0.0
  0
VERTEX
  5
2AA6
330
2455
100
AcDbEntity
  8
NOTE
100
AcDbVertex
100
AcDb2dVertex
 10
8.123900836189513
 20
238.8318874089155
 30
0.0
  0
VERTEX
  5
2AA7
330
2455
100
AcDbEntity
  8
NOTE
100
AcDbVertex
100
AcDb2dVertex
 10
87.86939999225436
 20
325.527095058013
 30
0.0
  0
VERTEX
  5
2AA8
330
2455
100
AcDbEntity
  8
NOTE
100
AcDbVertex
100
AcDb2dVertex
 10
633.7093999922545
 20
325.527095058013
 30
0.0
  0
SEQEND
  5
2AA9
330
2455
100
AcDbEntity
  8
NOTE
  0
ENDBLK
  5
2456
330
2C04
100
AcDbEntity
  8
0
100
AcDbBlockEnd
  0
BLOCK
  5
2C07
330
2C06
100
AcDbEntity
  8
0
100
AcDbBlockBegin
  2
*U73
 70
     1
 10
0.0
 20
0.0
 30
0.0
  3
*U73
  1

  0
TEXT
  5
2459
330
2C06
100
AcDbEntity
  8
NOTE
100
AcDbText
 10
149.8693999922543
 20
343.5270950580129
 30
0.0
 40
64.0
  1
4×φ15取付穴
 41
0.9
100
AcDbText
  0
ENDBLK
  5
245A
330
2C06
100
AcDbEntity
  8
0
100
AcDbBlockEnd
  0
BLOCK
  5
2C09
330
2C08
100
AcDbEntity
  8
0
100
AcDbBlockBegin
  2
*X74
 70
     1
 10
0.0
 20
0.0
 30
0.0
  3
*X74
  1

  0
LINE
  5
2585
330
2C08
100
AcDbEntity
  8
0
 62
     0
100
AcDbLine
 10
200.3018732995552
 20
-484.4000000000014
 30
0.0
 11
200.3999999999942
 21
-484.334582366755
 31
0.0
  0
LINE
  5
2586
330
2C08
100
AcDbEntity
  8
0
 62
     0
100
AcDbLine
 10
195.8019120056688
 20
-484.3999999999996
 30
0.0
 11
200.3999999999904
 21
-481.3346158313398
 31
0.0
  0
LINE
  5
2587
330
2C08
100
AcDbEntity
  8
0
 62
     0
100
AcDbLine
 10
191.3019507117842
 20
-484.3999999999996
 30
0.0
 11
200.3999999999942
 21
-478.3346492959207
 31
0.0
  0
LINE
  5
2588
330
2C08
100
AcDbEntity
  8
0
 62
     0
100
AcDbLine
 10
186.8019894178996
 20
-484.3999999999996
 30
0.0
 11
200.3999999999942
 21
-475.3346827605055
 31
0.0
  0
LINE
  5
2589
330
2C08
100
AcDbEntity
  8
0
 62
     0
100
AcDbLine
 10
182.3020281240095
 20
-484.4000000000033
 30
0.0
 11
200.3999999999924
 21
-472.3347162250902
 31
0.0
  0
LINE
  5
258A
330
2C08
100
AcDbEntity
  8
0
 62
     0
100
AcDbLine
 10
177.8020668301269
 20
-484.4000000000014
 30
0.0
 11
200.3999999999942
 21
-469.3347496896731
 31
0.0
  0
LINE
  5
258B
330
2C08
100
AcDbEntity
  8
0
 62
     0
100
AcDbLine
 10
173.3021055362442
 20
-484.3999999999978
 30
0.0
 11
200.3999999999942
 21
-466.3347831542576
 31
0.0
  0
LINE
  5
258C
330
2C08
100
AcDbEntity
  8
0
 62
     0
100
AcDbLine
 10
168.8021442423578
 20
-484.3999999999996
 30
0.0
 11
200.3999999999942
 21
-463.3348166188405
 31
0.0
  0
LINE
  5
258D
330
2C08
100
AcDbEntity
  8
0
 62
     0
100
AcDbLine
 10
164.3021829484714
 20
-484.4000000000014
 30
0.0
 11
200.3999999999924
 21
-460.3348500834272
 31
0.0
  0
LINE
  5
258E
330
2C08
100
AcDbEntity
  8
0
 62
     0
100
AcDbLine
 10
159.8022216545851
 20
-484.4000000000014
 30
0.0
 11
200.3999999999942
 21
-457.3348835480079
 31
0.0
  0
LINE
  5
258F
330
2C08
100
AcDbEntity
  8
0
 62
     0
100
AcDbLine
 10
155.3022603606987
 20
-484.4000000000014
 30
0.0
 11
200.3999999999942
 21
-454.3349170125911
 31
0.0
  0
LINE
  5
2590
330
2C08
100
AcDbEntity
  8
0
 62
     0
100
AcDbLine
 10
150.8022990668104
 20
-484.4000000000014
 30
0.0
 11
200.3999999999924
 21
-451.3349504771776
 31
0.0
  0
LINE
  5
2591
330
2C08
100
AcDbEntity
  8
0
 62
     0
100
AcDbLine
 10
146.3023377729259
 20
-484.4000000000033
 30
0.0
 11
200.3999999999942
 21
-448.3349839417606
 31
0.0
  0
LINE
  5
2592
330
2C08
100
AcDbEntity
  8
0
 62
     0
100
AcDbLine
 10
141.8023764790431
 20
-484.4000000000014
 30
0.0
 11
200.3999999999942
 21
-445.3350174063452
 31
0.0
  0
LINE
  5
2593
330
2C08
100
AcDbEntity
  8
0
 62
     0
100
AcDbLine
 10
137.3024151851568
 20
-484.3999999999996
 30
0.0
 11
200.3999999999924
 21
-442.3350508709263
 31
0.0
  0
LINE
  5
2594
330
2C08
100
AcDbEntity
  8
0
 62
     0
100
AcDbLine
 10
132.8024538912723
 20
-484.3999999999996
 30
0.0
 11
200.3999999999924
 21
-439.335084335511
 31
0.0
  0
LINE
  5
2595
330
2C08
100
AcDbEntity
  8
0
 62
     0
100
AcDbLine
 10
128.3024925973877
 20
-484.3999999999996
 30
0.0
 11
200.3999999999942
 21
-436.3351178000938
 31
0.0
  0
LINE
  5
2596
330
2C08
100
AcDbEntity
  8
0
 62
     0
100
AcDbLine
 10
123.8025313034995
 20
-484.4000000000014
 30
0.0
 11
200.3999999999924
 21
-433.3351512646804
 31
0.0
  0
LINE
  5
2597
330
2C08
100
AcDbEntity
  8
0
 62
     0
100
AcDbLine
 10
119.3025700096168
 20
-484.3999999999996
 30
0.0
 11
200.3999999999924
 21
-430.3351847292631
 31
0.0
  0
LINE
  5
2598
330
2C08
100
AcDbEntity
  8
0
 62
     0
100
AcDbLine
 10
114.8026087157268
 20
-484.4000000000014
 30
0.0
 11
200.3999999999924
 21
-427.3352181938462
 31
0.0
  0
LINE
  5
2599
330
2C08
100
AcDbEntity
  8
0
 62
     0
100
AcDbLine
 10
110.3026474218441
 20
-484.4000000000014
 30
0.0
 11
200.3999999999924
 21
-424.3352516584307
 31
0.0
  0
LINE
  5
259A
330
2C08
100
AcDbEntity
  8
0
 62
     0
100
AcDbLine
 10
105.8026861279595
 20
-484.3999999999996
 30
0.0
 11
200.3999999999924
 21
-421.3352851230137
 31
0.0
  0
LINE
  5
259B
330
2C08
100
AcDbEntity
  8
0
 62
     0
100
AcDbLine
 10
101.3027248340713
 20
-484.4000000000014
 30
0.0
 11
200.3999999999924
 21
-418.3353185875985
 31
0.0
  0
LINE
  5
259C
330
2C08
100
AcDbEntity
  8
0
 62
     0
100
AcDbLine
 10
96.80276354018859
 20
-484.3999999999996
 30
0.0
 11
200.3999999999942
 21
-415.3353520521815
 31
0.0
  0
LINE
  5
259D
330
2C08
100
AcDbEntity
  8
0
 62
     0
100
AcDbLine
 10
92.30280224630224
 20
-484.4000000000014
 30
0.0
 11
200.3999999999924
 21
-412.335385516766
 31
0.0
  0
LINE
  5
259E
330
2C08
100
AcDbEntity
  8
0
 62
     0
100
AcDbLine
 10
87.80284095241405
 20
-484.4000000000033
 30
0.0
 11
200.3999999999924
 21
-409.3354189813505
 31
0.0
  0
LINE
  5
259F
330
2C08
100
AcDbEntity
  8
0
 62
     0
100
AcDbLine
 10
83.30287965852948
 20
-484.4000000000033
 30
0.0
 11
200.3999999999924
 21
-406.3354524459334
 31
0.0
  0
LINE
  5
25A0
330
2C08
100
AcDbEntity
  8
0
 62
     0
100
AcDbLine
 10
78.80291836464493
 20
-484.3999999999996
 30
0.0
 11
200.3999999999924
 21
-403.3354859105164
 31
0.0
  0
LINE
  5
25A1
330
2C08
100
AcDbEntity
  8
0
 62
     0
100
AcDbLine
 10
74.30295707076037
 20
-484.3999999999978
 30
0.0
 11
200.3999999999942
 21
-400.3355193750993
 31
0.0
  0
LINE
  5
25A2
330
2C08
100
AcDbEntity
  8
0
 62
     0
100
AcDbLine
 10
69.80299577687583
 20
-484.3999999999996
 30
0.0
 11
200.3999999999924
 21
-397.3355528396842
 31
0.0
  0
LINE
  5
25A3
330
2C08
100
AcDbEntity
  8
0
 62
     0
100
AcDbLine
 10
65.30303448299128
 20
-484.4000000000014
 30
0.0
 11
200.3999999999924
 21
-394.3355863042707
 31
0.0
  0
LINE
  5
25A4
330
2C08
100
AcDbEntity
  8
0
 62
     0
100
AcDbLine
 10
60.8030731891031
 20
-484.3999999999996
 30
0.0
 11
200.3999999999924
 21
-391.3356197688518
 31
0.0
  0
LINE
  5
25A5
330
2C08
100
AcDbEntity
  8
0
 62
     0
100
AcDbLine
 10
56.30311189521671
 20
-484.3999999999996
 30
0.0
 11
200.3999999999942
 21
-388.3356532334346
 31
0.0
  0
LINE
  5
25A6
330
2C08
100
AcDbEntity
  8
0
 62
     0
100
AcDbLine
 10
51.80315060133034
 20
-484.4000000000014
 30
0.0
 11
200.3999999999924
 21
-385.3356866980212
 31
0.0
  0
LINE
  5
25A7
330
2C08
100
AcDbEntity
  8
0
 62
     0
100
AcDbLine
 10
47.3031893074476
 20
-484.4000000000014
 30
0.0
 11
200.3999999999942
 21
-382.335720162604
 31
0.0
  0
LINE
  5
25A8
330
2C08
100
AcDbEntity
  8
0
 62
     0
100
AcDbLine
 10
42.80322801355938
 20
-484.4000000000014
 30
0.0
 11
200.3999999999904
 21
-379.3357536271888
 31
0.0
  0
LINE
  5
25A9
330
2C08
100
AcDbEntity
  8
0
 62
     0
100
AcDbLine
 10
38.30326671967851
 20
-484.3999999999978
 30
0.0
 11
200.3999999999942
 21
-376.3357870917697
 31
0.0
  0
LINE
  5
25AA
330
2C08
100
AcDbEntity
  8
0
 62
     0
100
AcDbLine
 10
33.8033054257885
 20
-484.4000000000014
 30
0.0
 11
200.3999999999924
 21
-373.3358205563563
 31
0.0
  0
LINE
  5
25AB
330
2C08
100
AcDbEntity
  8
0
 62
     0
100
AcDbLine
 10
29.30334413190394
 20
-484.4000000000014
 30
0.0
 11
200.3999999999924
 21
-370.3358540209412
 31
0.0
  0
LINE
  5
25AC
330
2C08
100
AcDbEntity
  8
0
 62
     0
100
AcDbLine
 10
24.80338283801757
 20
-484.4000000000014
 30
0.0
 11
200.3999999999942
 21
-367.3358874855221
 31
0.0
  0
LINE
  5
25AD
330
2C08
100
AcDbEntity
  8
0
 62
     0
100
AcDbLine
 10
20.30342154413665
 20
-484.3999999999996
 30
0.0
 11
200.3999999999942
 21
-364.3359209501068
 31
0.0
  0
LINE
  5
25AE
330
2C08
100
AcDbEntity
  8
0
 62
     0
100
AcDbLine
 10
15.80346025024664
 20
-484.4000000000033
 30
0.0
 11
200.3999999999942
 21
-361.3359544146897
 31
0.0
  0
LINE
  5
25AF
330
2C08
100
AcDbEntity
  8
0
 62
     0
100
AcDbLine
 10
11.30349895636209
 20
-484.3999999999996
 30
0.0
 11
200.3999999999924
 21
-358.3359878792744
 31
0.0
  0
LINE
  5
25B0
330
2C08
100
AcDbEntity
  8
0
 62
     0
100
AcDbLine
 10
6.803537662475719
 20
-484.4000000000014
 30
0.0
 11
200.3999999999942
 21
-355.3360213438591
 31
0.0
  0
LINE
  5
25B1
330
2C08
100
AcDbEntity
  8
0
 62
     0
100
AcDbLine
 10
2.303576368589347
 20
-484.4000000000014
 30
0.0
 11
200.3999999999924
 21
-352.336054808442
 31
0.0
  0
LINE
  5
25B2
330
2C08
100
AcDbEntity
  8
0
 62
     0
100
AcDbLine
 10
-2.196384925295205
 20
-484.3999999999996
 30
0.0
 11
200.3999999999924
 21
-349.3360882730249
 31
0.0
  0
LINE
  5
25B3
330
2C08
100
AcDbEntity
  8
0
 62
     0
100
AcDbLine
 10
-6.696346219179758
 20
-484.3999999999996
 30
0.0
 11
200.3999999999942
 21
-346.3361217376077
 31
0.0
  0
LINE
  5
25B4
330
2C08
100
AcDbEntity
  8
0
 62
     0
100
AcDbLine
 10
-11.19630751306249
 20
-484.3999999999996
 30
0.0
 11
200.3999999999942
 21
-343.3361552021943
 31
0.0
  0
LINE
  5
25B5
330
2C08
100
AcDbEntity
  8
0
 62
     0
100
AcDbLine
 10
-15.6962688069525
 20
-484.4000000000014
 30
0.0
 11
200.3999999999942
 21
-340.3361886667752
 31
0.0
  0
LINE
  5
25B6
330
2C08
100
AcDbEntity
  8
0
 62
     0
100
AcDbLine
 10
-20.19623010083706
 20
-484.3999999999996
 30
0.0
 11
200.3999999999924
 21
-337.33622213136
 31
0.0
  0
LINE
  5
25B7
330
2C08
100
AcDbEntity
  8
0
 62
     0
100
AcDbLine
 10
-24.69619139472161
 20
-484.4000000000014
 30
0.0
 11
200.3999999999942
 21
-334.3362555959448
 31
0.0
  0
LINE
  5
25B8
330
2C08
100
AcDbEntity
  8
0
 62
     0
100
AcDbLine
 10
-29.19615268860616
 20
-484.3999999999996
 30
0.0
 11
200.3999999999924
 21
-331.3362890605294
 31
0.0
  0
LINE
  5
25B9
330
2C08
100
AcDbEntity
  8
0
 62
     0
100
AcDbLine
 10
-33.69611398249617
 20
-484.4000000000014
 30
0.0
 11
200.3999999999924
 21
-328.3363225251124
 31
0.0
  0
LINE
  5
25BA
330
2C08
100
AcDbEntity
  8
0
 62
     0
100
AcDbLine
 10
-38.19607527637891
 20
-484.3999999999996
 30
0.0
 11
200.3999999999924
 21
-325.3363559896969
 31
0.0
  0
LINE
  5
25BB
330
2C08
100
AcDbEntity
  8
0
 62
     0
100
AcDbLine
 10
-42.69603657026345
 20
-484.4000000000014
 30
0.0
 11
200.3999999999942
 21
-322.3363894542799
 31
0.0
  0
LINE
  5
25BC
330
2C08
100
AcDbEntity
  8
0
 62
     0
100
AcDbLine
 10
-47.19599786415165
 20
-484.4000000000014
 30
0.0
 11
200.3999999999904
 21
-319.3364229188646
 31
0.0
  0
LINE
  5
25BD
330
2C08
100
AcDbEntity
  8
0
 62
     0
100
AcDbLine
 10
-51.69595915803802
 20
-484.4000000000033
 30
0.0
 11
200.3999999999924
 21
-316.3364563834475
 31
0.0
  0
LINE
  5
25BE
330
2C08
100
AcDbEntity
  8
0
 62
     0
100
AcDbLine
 10
-56.19592045192074
 20
-484.3999999999996
 30
0.0
 11
200.3999999999942
 21
-313.3364898480302
 31
0.0
  0
LINE
  5
25BF
330
2C08
100
AcDbEntity
  8
0
 62
     0
100
AcDbLine
 10
-60.69588174580712
 20
-484.3999999999996
 30
0.0
 11
200.3999999999924
 21
-310.3365233126133
 31
0.0
  0
LINE
  5
25C0
330
2C08
100
AcDbEntity
  8
0
 62
     0
100
AcDbLine
 10
197.3048272621908
 20
-309.4000000000014
 30
0.0
 11
200.3999999999869
 21
-307.3365567772016
 31
0.0
  0
LINE
  5
25C1
330
2C08
100
AcDbEntity
  8
0
 62
     0
100
AcDbLine
 10
-65.1958430396935
 20
-484.4000000000014
 30
0.0
 11
197.3048272621908
 21
-309.4000000000014
 31
0.0
  0
LINE
  5
25C2
330
2C08
100
AcDbEntity
  8
0
 62
     0
100
AcDbLine
 10
192.8048659683044
 20
-309.4000000000014
 30
0.0
 11
200.3999999999887
 21
-304.3365902417864
 31
0.0
  0
LINE
  5
25C3
330
2C08
100
AcDbEntity
  8
0
 62
     0
100
AcDbLine
 10
-69.69580433357624
 20
-484.4000000000014
 30
0.0
 11
192.8048659683044
 21
-309.4000000000014
 31
0.0
  0
LINE
  5
25C4
330
2C08
100
AcDbEntity
  8
0
 62
     0
100
AcDbLine
 10
188.3049046744181
 20
-309.4000000000014
 30
0.0
 11
200.3999999999869
 21
-301.3366237063692
 31
0.0
  0
LINE
  5
25C5
330
2C08
100
AcDbEntity
  8
0
 62
     0
100
AcDbLine
 10
-74.19576562746442
 20
-484.4000000000014
 30
0.0
 11
188.3049046744181
 21
-309.4000000000014
 31
0.0
  0
LINE
  5
25C6
330
2C08
100
AcDbEntity
  8
0
 62
     0
100
AcDbLine
 10
183.8049433805336
 20
-309.3999999999996
 30
0.0
 11
200.3999999999869
 21
-298.3366571709521
 31
0.0
  0
LINE
  5
25C7
330
2C08
100
AcDbEntity
  8
0
 62
     0
100
AcDbLine
 10
-78.69572692134717
 20
-484.3999999999978
 30
0.0
 11
183.8049433805336
 21
-309.3999999999996
 31
0.0
  0
LINE
  5
25C8
330
2C08
100
AcDbEntity
  8
0
 62
     0
100
AcDbLine
 10
179.304982086649
 20
-309.4000000000014
 30
0.0
 11
200.3999999999869
 21
-295.3366906355386
 31
0.0
  0
LINE
  5
25C9
330
2C08
100
AcDbEntity
  8
0
 62
     0
100
AcDbLine
 10
-83.19568821523535
 20
-484.4000000000014
 30
0.0
 11
179.304982086649
 21
-309.4000000000014
 31
0.0
  0
LINE
  5
25CA
330
2C08
100
AcDbEntity
  8
0
 62
     0
100
AcDbLine
 10
174.8050207927663
 20
-309.3999999999996
 30
0.0
 11
200.3999999999887
 21
-292.3367241001215
 31
0.0
  0
LINE
  5
25CB
330
2C08
100
AcDbEntity
  8
0
 62
     0
100
AcDbLine
 10
-87.69564950911808
 20
-484.4000000000014
 30
0.0
 11
174.8050207927663
 21
-309.3999999999996
 31
0.0
  0
LINE
  5
25CC
330
2C08
100
AcDbEntity
  8
0
 62
     0
100
AcDbLine
 10
170.3050594988763
 20
-309.4000000000014
 30
0.0
 11
200.3999999999869
 21
-289.3367575647062
 31
0.0
  0
LINE
  5
25CD
330
2C08
100
AcDbEntity
  8
0
 62
     0
100
AcDbLine
 10
-92.19561080300628
 20
-484.4000000000014
 30
0.0
 11
170.3050594988763
 21
-309.4000000000014
 31
0.0
  0
LINE
  5
25CE
330
2C08
100
AcDbEntity
  8
0
 62
     0
100
AcDbLine
 10
165.8050982049917
 20
-309.3999999999996
 30
0.0
 11
200.3999999999869
 21
-286.3367910292873
 31
0.0
  0
LINE
  5
25CF
330
2C08
100
AcDbEntity
  8
0
 62
     0
100
AcDbLine
 10
-96.69557209689266
 20
-484.4000000000014
 30
0.0
 11
165.8050982049917
 21
-309.3999999999996
 31
0.0
  0
LINE
  5
25D0
330
2C08
100
AcDbEntity
  8
0
 62
     0
100
AcDbLine
 10
161.3051369111072
 20
-309.4000000000014
 30
0.0
 11
200.3999999999904
 21
-283.336824493872
 31
0.0
  0
LINE
  5
25D1
330
2C08
100
AcDbEntity
  8
0
 62
     0
100
AcDbLine
 10
-101.1955333907772
 20
-484.4000000000014
 30
0.0
 11
161.3051369111072
 21
-309.4000000000014
 31
0.0
  0
LINE
  5
25D2
330
2C08
100
AcDbEntity
  8
0
 62
     0
100
AcDbLine
 10
156.805175617219
 20
-309.4000000000014
 30
0.0
 11
200.3999999999869
 21
-280.3368579584567
 31
0.0
  0
LINE
  5
25D3
330
2C08
100
AcDbEntity
  8
0
 62
     0
100
AcDbLine
 10
-105.6954946846617
 20
-484.3999999999996
 30
0.0
 11
156.805175617219
 21
-309.4000000000014
 31
0.0
  0
LINE
  5
25D4
330
2C08
100
AcDbEntity
  8
0
 62
     0
100
AcDbLine
 10
152.3052143233326
 20
-309.4000000000032
 30
0.0
 11
200.3999999999887
 21
-277.3368914230395
 31
0.0
  0
LINE
  5
25D5
330
2C08
100
AcDbEntity
  8
0
 62
     0
100
AcDbLine
 10
-110.1954559785481
 20
-484.4000000000014
 30
0.0
 11
152.3052143233326
 21
-309.4000000000032
 31
0.0
  0
LINE
  5
25D6
330
2C08
100
AcDbEntity
  8
0
 62
     0
100
AcDbLine
 10
147.8052530294499
 20
-309.3999999999996
 30
0.0
 11
200.3999999999869
 21
-274.3369248876243
 31
0.0
  0
LINE
  5
25D7
330
2C08
100
AcDbEntity
  8
0
 62
     0
100
AcDbLine
 10
-114.6954172724345
 20
-484.4000000000014
 30
0.0
 11
147.8052530294499
 21
-309.3999999999996
 31
0.0
  0
LINE
  5
25D8
330
2C08
100
AcDbEntity
  8
0
 62
     0
100
AcDbLine
 10
143.3052917355653
 20
-309.3999999999996
 30
0.0
 11
200.3999999999904
 21
-271.3369583522053
 31
0.0
  0
LINE
  5
25D9
330
2C08
100
AcDbEntity
  8
0
 62
     0
100
AcDbLine
 10
-119.1953785663172
 20
-484.3999999999978
 30
0.0
 11
143.3052917355653
 21
-309.3999999999996
 31
0.0
  0
LINE
  5
25DA
330
2C08
100
AcDbEntity
  8
0
 62
     0
100
AcDbLine
 10
138.8053304416771
 20
-309.4000000000014
 30
0.0
 11
200.3999999999869
 21
-268.3369918167918
 31
0.0
  0
LINE
  5
25DB
330
2C08
100
AcDbEntity
  8
0
 62
     0
100
AcDbLine
 10
-123.6953398602036
 20
-484.3999999999996
 30
0.0
 11
138.8053304416771
 21
-309.4000000000014
 31
0.0
  0
LINE
  5
25DC
330
2C08
100
AcDbEntity
  8
0
 62
     0
100
AcDbLine
 10
134.3053691477944
 20
-309.4000000000014
 30
0.0
 11
200.3999999999887
 21
-265.3370252813766
 31
0.0
  0
LINE
  5
25DD
330
2C08
100
AcDbEntity
  8
0
 62
     0
100
AcDbLine
 10
-128.1953011540898
 20
-484.4000000000014
 30
0.0
 11
134.3053691477944
 21
-309.4000000000014
 31
0.0
  0
LINE
  5
25DE
330
2C08
100
AcDbEntity
  8
0
 62
     0
100
AcDbLine
 10
129.805407853908
 20
-309.4000000000014
 30
0.0
 11
200.3999999999904
 21
-262.3370587459576
 31
0.0
  0
LINE
  5
25DF
330
2C08
100
AcDbEntity
  8
0
 62
     0
100
AcDbLine
 10
-132.6952624479763
 20
-484.4000000000014
 30
0.0
 11
129.805407853908
 21
-309.4000000000014
 31
0.0
  0
LINE
  5
25E0
330
2C08
100
AcDbEntity
  8
0
 62
     0
100
AcDbLine
 10
125.3054465600235
 20
-309.3999999999978
 30
0.0
 11
200.3999999999887
 21
-259.3370922105423
 31
0.0
  0
LINE
  5
25E1
330
2C08
100
AcDbEntity
  8
0
 62
     0
100
AcDbLine
 10
-137.1952237418609
 20
-484.3999999999996
 30
0.0
 11
125.3054465600216
 21
-309.3999999999996
 31
0.0
  0
LINE
  5
25E2
330
2C08
100
AcDbEntity
  8
0
 62
     0
100
AcDbLine
 10
120.8054852661335
 20
-309.4000000000014
 30
0.0
 11
200.3999999999887
 21
-256.3371256751252
 31
0.0
  0
LINE
  5
25E3
330
2C08
100
AcDbEntity
  8
0
 62
     0
100
AcDbLine
 10
-141.6951850357472
 20
-484.4000000000014
 30
0.0
 11
120.8054852661335
 21
-309.4000000000014
 31
0.0
  0
LINE
  5
25E4
330
2C08
100
AcDbEntity
  8
0
 62
     0
100
AcDbLine
 10
116.3055239722525
 20
-309.4000000000014
 30
0.0
 11
200.3999999999887
 21
-253.3371591397117
 31
0.0
  0
LINE
  5
25E5
330
2C08
100
AcDbEntity
  8
0
 62
     0
100
AcDbLine
 10
-146.1951463296318
 20
-484.4000000000014
 30
0.0
 11
116.3055239722525
 21
-309.4000000000014
 31
0.0
  0
LINE
  5
25E6
330
2C08
100
AcDbEntity
  8
0
 62
     0
100
AcDbLine
 10
111.8055626783662
 20
-309.4000000000014
 30
0.0
 11
200.3999999999904
 21
-250.3371926042928
 31
0.0
  0
LINE
  5
25E7
330
2C08
100
AcDbEntity
  8
0
 62
     0
100
AcDbLine
 10
-150.6951076235181
 20
-484.4000000000014
 30
0.0
 11
111.8055626783662
 21
-309.4000000000014
 31
0.0
  0
LINE
  5
25E8
330
2C08
100
AcDbEntity
  8
0
 62
     0
100
AcDbLine
 10
107.3056013844798
 20
-309.3999999999978
 30
0.0
 11
200.3999999999869
 21
-247.3372260688775
 31
0.0
  0
LINE
  5
25E9
330
2C08
100
AcDbEntity
  8
0
 62
     0
100
AcDbLine
 10
-155.1950689174045
 20
-484.3999999999996
 30
0.0
 11
107.305601384478
 21
-309.4000000000014
 31
0.0
  0
LINE
  5
25EA
330
2C08
100
AcDbEntity
  8
0
 62
     0
100
AcDbLine
 10
102.8056400905916
 20
-309.4000000000014
 30
0.0
 11
200.3999999999887
 21
-244.3372595334622
 31
0.0
  0
LINE
  5
25EB
330
2C08
100
AcDbEntity
  8
0
 62
     0
100
AcDbLine
 10
-159.6950302112891
 20
-484.4000000000014
 30
0.0
 11
102.8056400905916
 21
-309.4000000000014
 31
0.0
  0
LINE
  5
25EC
330
2C08
100
AcDbEntity
  8
0
 62
     0
100
AcDbLine
 10
98.30567879671072
 20
-309.4000000000014
 30
0.0
 11
200.3999999999887
 21
-241.3372929980469
 31
0.0
  0
LINE
  5
25ED
330
2C08
100
AcDbEntity
  8
0
 62
     0
100
AcDbLine
 10
-164.1949915051736
 20
-484.4000000000033
 30
0.0
 11
98.30567879671072
 21
-309.4000000000014
 31
0.0
  0
LINE
  5
25EE
330
2C08
100
AcDbEntity
  8
0
 62
     0
100
AcDbLine
 10
93.80571750282252
 20
-309.4000000000014
 30
0.0
 11
200.3999999999887
 21
-238.3373264626297
 31
0.0
  0
LINE
  5
25EF
330
2C08
100
AcDbEntity
  8
0
 62
     0
100
AcDbLine
 10
-168.6949527990618
 20
-484.4000000000014
 30
0.0
 11
93.80571750282069
 21
-309.4000000000032
 31
0.0
  0
LINE
  5
25F0
330
2C08
100
AcDbEntity
  8
0
 62
     0
100
AcDbLine
 10
89.30575620893611
 20
-309.4000000000014
 30
0.0
 11
200.3999999999869
 21
-235.3373599272145
 31
0.0
  0
LINE
  5
25F1
330
2C08
100
AcDbEntity
  8
0
 62
     0
100
AcDbLine
 10
-173.1949140929446
 20
-484.3999999999996
 30
0.0
 11
89.30575620893611
 21
-309.4000000000014
 31
0.0
  0
LINE
  5
25F2
330
2C08
100
AcDbEntity
  8
0
 62
     0
100
AcDbLine
 10
84.80579491504981
 20
-309.4000000000014
 30
0.0
 11
200.3999999999887
 21
-232.3373933917955
 31
0.0
  0
LINE
  5
25F3
330
2C08
100
AcDbEntity
  8
0
 62
     0
100
AcDbLine
 10
-177.6948753868308
 20
-484.3999999999996
 30
0.0
 11
84.80579491504981
 21
-309.4000000000014
 31
0.0
  0
LINE
  5
25F4
330
2C08
100
AcDbEntity
  8
0
 62
     0
100
AcDbLine
 10
80.30583362116706
 20
-309.3999999999996
 30
0.0
 11
200.3999999999887
 21
-229.3374268563803
 31
0.0
  0
LINE
  5
25F5
330
2C08
100
AcDbEntity
  8
0
 62
     0
100
AcDbLine
 10
-182.1948366807173
 20
-484.4000000000014
 30
0.0
 11
80.30583362116706
 21
-309.3999999999996
 31
0.0
  0
LINE
  5
25F6
330
2C08
100
AcDbEntity
  8
0
 62
     0
100
AcDbLine
 10
75.80587232727885
 20
-309.4000000000014
 30
0.0
 11
200.3999999999869
 21
-226.337460320965
 31
0.0
  0
LINE
  5
25F7
330
2C08
100
AcDbEntity
  8
0
 62
     0
100
AcDbLine
 10
-186.6947979746019
 20
-484.4000000000014
 30
0.0
 11
75.80587232727885
 21
-309.4000000000014
 31
0.0
  0
LINE
  5
25F8
330
2C08
100
AcDbEntity
  8
0
 62
     0
100
AcDbLine
 10
71.3059110333943
 20
-309.4000000000014
 30
0.0
 11
200.3999999999887
 21
-223.3374937855479
 31
0.0
  0
LINE
  5
25F9
330
2C08
100
AcDbEntity
  8
0
 62
     0
100
AcDbLine
 10
-191.1947592684864
 20
-484.3999999999996
 30
0.0
 11
71.3059110333943
 21
-309.4000000000014
 31
0.0
  0
LINE
  5
25FA
330
2C08
100
AcDbEntity
  8
0
 62
     0
100
AcDbLine
 10
66.80594973951156
 20
-309.3999999999996
 30
0.0
 11
200.3999999999887
 21
-220.3375272501325
 31
0.0
  0
LINE
  5
25FB
330
2C08
100
AcDbEntity
  8
0
 62
     0
100
AcDbLine
 10
-195.6947205623692
 20
-484.3999999999978
 30
0.0
 11
66.80594973951156
 21
-309.3999999999996
 31
0.0
  0
LINE
  5
25FC
330
2C08
100
AcDbEntity
  8
0
 62
     0
100
AcDbLine
 10
62.30598844562519
 20
-309.4000000000014
 30
0.0
 11
200.3999999999887
 21
-217.3375607147154
 31
0.0
  0
LINE
  5
25FD
330
2C08
100
AcDbEntity
  8
0
 62
     0
100
AcDbLine
 10
-200.1946818562592
 20
-484.4000000000014
 30
0.0
 11
62.30598844562519
 21
-309.4000000000014
 31
0.0
  0
LINE
  5
25FE
330
2C08
100
AcDbEntity
  8
0
 62
     0
100
AcDbLine
 10
57.80602715174063
 20
-309.3999999999996
 30
0.0
 11
200.3999999999869
 21
-214.337594179302
 31
0.0
  0
LINE
  5
25FF
330
2C08
100
AcDbEntity
  8
0
 62
     0
100
AcDbLine
 10
-200.4000000000051
 20
-481.5369118775596
 30
0.0
 11
57.80602715173699
 21
-309.4000000000014
 31
0.0
  0
LINE
  5
2600
330
2C08
100
AcDbEntity
  8
0
 62
     0
100
AcDbLine
 10
53.30606585785243
 20
-309.4000000000014
 30
0.0
 11
200.3999999999887
 21
-211.337627643883
 31
0.0
  0
LINE
  5
2601
330
2C08
100
AcDbEntity
  8
0
 62
     0
100
AcDbLine
 10
-200.4000000000033
 20
-478.5369453421425
 30
0.0
 11
53.30606585785243
 21
-309.4000000000014
 31
0.0
  0
LINE
  5
2602
330
2C08
100
AcDbEntity
  8
0
 62
     0
100
AcDbLine
 10
48.80610456396788
 20
-309.3999999999996
 30
0.0
 11
200.3999999999904
 21
-208.3376611084659
 31
0.0
  0
LINE
  5
2603
330
2C08
100
AcDbEntity
  8
0
 62
     0
100
AcDbLine
 10
-200.4000000000051
 20
-475.5369788067254
 30
0.0
 11
48.80610456396788
 21
-309.3999999999996
 31
0.0
  0
LINE
  5
2604
330
2C08
100
AcDbEntity
  8
0
 62
     0
100
AcDbLine
 10
44.30614327008152
 20
-309.4000000000014
 30
0.0
 11
200.3999999999869
 21
-205.3376945730506
 31
0.0
  0
LINE
  5
2605
330
2C08
100
AcDbEntity
  8
0
 62
     0
100
AcDbLine
 10
-200.4000000000051
 20
-472.5370122713098
 30
0.0
 11
44.30614327008152
 21
-309.4000000000014
 31
0.0
  0
LINE
  5
2606
330
2C08
100
AcDbEntity
  8
0
 62
     0
100
AcDbLine
 10
39.80618197619515
 20
-309.4000000000032
 30
0.0
 11
200.3999999999887
 21
-202.3377280376353
 31
0.0
  0
LINE
  5
2607
330
2C08
100
AcDbEntity
  8
0
 62
     0
100
AcDbLine
 10
-200.4000000000051
 20
-469.5370457358947
 30
0.0
 11
39.80618197619515
 21
-309.4000000000032
 31
0.0
  0
LINE
  5
2608
330
2C08
100
AcDbEntity
  8
0
 62
     0
100
AcDbLine
 10
35.30622068231423
 20
-309.3999999999996
 30
0.0
 11
200.3999999999887
 21
-199.33776150222
 31
0.0
  0
LINE
  5
2609
330
2C08
100
AcDbEntity
  8
0
 62
     0
100
AcDbLine
 10
-200.4000000000033
 20
-466.5370792004775
 30
0.0
 11
35.30622068231423
 21
-309.3999999999996
 31
0.0
  0
LINE
  5
260A
330
2C08
100
AcDbEntity
  8
0
 62
     0
100
AcDbLine
 10
30.80625938842604
 20
-309.3999999999996
 30
0.0
 11
200.3999999999887
 21
-196.3377949668011
 31
0.0
  0
LINE
  5
260B
330
2C08
100
AcDbEntity
  8
0
 62
     0
100
AcDbLine
 10
-200.4000000000033
 20
-463.5371126650603
 30
0.0
 11
30.80625938842604
 21
-309.3999999999996
 31
0.0
  0
LINE
  5
260C
330
2C08
100
AcDbEntity
  8
0
 62
     0
100
AcDbLine
 10
26.30629809454149
 20
-309.3999999999978
 30
0.0
 11
200.3999999999869
 21
-193.3378284313857
 31
0.0
  0
LINE
  5
260D
330
2C08
100
AcDbEntity
  8
0
 62
     0
100
AcDbLine
 10
-200.4000000000051
 20
-460.5371461296434
 30
0.0
 11
26.30629809453967
 21
-309.3999999999996
 31
0.0
  0
LINE
  5
260E
330
2C08
100
AcDbEntity
  8
0
 62
     0
100
AcDbLine
 10
21.8063368006533
 20
-309.4000000000014
 30
0.0
 11
200.3999999999887
 21
-190.3378618959687
 31
0.0
  0
LINE
  5
260F
330
2C08
100
AcDbEntity
  8
0
 62
     0
100
AcDbLine
 10
-200.4000000000051
 20
-457.5371795942301
 30
0.0
 11
21.8063368006533
 21
-309.4000000000014
 31
0.0
  0
LINE
  5
2610
330
2C08
100
AcDbEntity
  8
0
 62
     0
100
AcDbLine
 10
17.30637550677056
 20
-309.4000000000014
 30
0.0
 11
200.3999999999869
 21
-187.3378953605552
 31
0.0
  0
LINE
  5
2611
330
2C08
100
AcDbEntity
  8
0
 62
     0
100
AcDbLine
 10
-200.4000000000051
 20
-454.5372130588129
 30
0.0
 11
17.30637550677056
 21
-309.4000000000014
 31
0.0
  0
LINE
  5
2612
330
2C08
100
AcDbEntity
  8
0
 62
     0
100
AcDbLine
 10
12.80641421288237
 20
-309.3999999999996
 30
0.0
 11
200.3999999999869
 21
-184.337928825138
 31
0.0
  0
LINE
  5
2613
330
2C08
100
AcDbEntity
  8
0
 62
     0
100
AcDbLine
 10
-200.4000000000051
 20
-451.5372465233959
 30
0.0
 11
12.80641421288055
 21
-309.4000000000014
 31
0.0
  0
LINE
  5
2614
330
2C08
100
AcDbEntity
  8
0
 62
     0
100
AcDbLine
 10
8.306452919001458
 20
-309.3999999999978
 30
0.0
 11
200.3999999999904
 21
-181.3379622897191
 31
0.0
  0
LINE
  5
2615
330
2C08
100
AcDbEntity
  8
0
 62
     0
100
AcDbLine
 10
-200.4000000000051
 20
-448.5372799879804
 30
0.0
 11
8.30645291899782
 21
-309.3999999999996
 31
0.0
  0
LINE
  5
2616
330
2C08
100
AcDbEntity
  8
0
 62
     0
100
AcDbLine
 10
3.806491625109627
 20
-309.4000000000014
 30
0.0
 11
200.3999999999869
 21
-178.3379957543056
 31
0.0
  0
LINE
  5
2617
330
2C08
100
AcDbEntity
  8
0
 62
     0
100
AcDbLine
 10
-200.4000000000051
 20
-445.5373134525633
 30
0.0
 11
3.806491625109627
 21
-309.4000000000014
 31
0.0
  0
LINE
  5
2618
330
2C08
100
AcDbEntity
  8
0
 62
     0
100
AcDbLine
 10
-0.6934696687731048
 20
-309.4000000000014
 30
0.0
 11
200.3999999999887
 21
-175.3380292188884
 31
0.0
  0
LINE
  5
2619
330
2C08
100
AcDbEntity
  8
0
 62
     0
100
AcDbLine
 10
-200.4000000000068
 20
-442.53734691715
 30
0.0
 11
-0.6934696687731048
 21
-309.4000000000014
 31
0.0
  0
LINE
  5
261A
330
2C08
100
AcDbEntity
  8
0
 62
     0
100
AcDbLine
 10
-5.193430962659475
 20
-309.4000000000014
 30
0.0
 11
200.3999999999869
 21
-172.3380626834732
 31
0.0
  0
LINE
  5
261B
330
2C08
100
AcDbEntity
  8
0
 62
     0
100
AcDbLine
 10
-200.4000000000051
 20
-439.537380381731
 30
0.0
 11
-5.193430962659475
 21
-309.4000000000014
 31
0.0
  0
LINE
  5
261C
330
2C08
100
AcDbEntity
  8
0
 62
     0
100
AcDbLine
 10
-9.693392256540391
 20
-309.3999999999978
 30
0.0
 11
200.3999999999904
 21
-169.3380961480561
 31
0.0
  0
LINE
  5
261D
330
2C08
100
AcDbEntity
  8
0
 62
     0
100
AcDbLine
 10
-200.4000000000051
 20
-436.5374138463157
 30
0.0
 11
-9.693392256544028
 21
-309.3999999999996
 31
0.0
  0
LINE
  5
261E
330
2C08
100
AcDbEntity
  8
0
 62
     0
100
AcDbLine
 10
-14.19335355042858
 20
-309.3999999999996
 30
0.0
 11
200.3999999999869
 21
-166.3381296126408
 31
0.0
  0
LINE
  5
261F
330
2C08
100
AcDbEntity
  8
0
 62
     0
100
AcDbLine
 10
-200.4000000000051
 20
-433.5374473109005
 30
0.0
 11
-14.19335355042858
 21
-309.3999999999996
 31
0.0
  0
LINE
  5
2620
330
2C08
100
AcDbEntity
  8
0
 62
     0
100
AcDbLine
 10
-15.40000000000872
 20
-307.204462376836
 30
0.0
 11
200.3999999999887
 21
-163.3381630772255
 31
0.0
  0
LINE
  5
2621
330
2C08
100
AcDbEntity
  8
0
 62
     0
100
AcDbLine
 10
-200.4000000000033
 20
-430.5374807754831
 30
0.0
 11
-15.40000000000872
 21
-307.204462376836
 31
0.0
  0
LINE
  5
2622
330
2C08
100
AcDbEntity
  8
0
 62
     0
100
AcDbLine
 10
-15.40000000000872
 20
-304.2044958414208
 30
0.0
 11
200.3999999999869
 21
-160.3381965418084
 31
0.0
  0
LINE
  5
2623
330
2C08
100
AcDbEntity
  8
0
 62
     0
100
AcDbLine
 10
-200.4000000000051
 20
-427.537514240068
 30
0.0
 11
-15.40000000000872
 21
-304.2044958414208
 31
0.0
  0
LINE
  5
2624
330
2C08
100
AcDbEntity
  8
0
 62
     0
100
AcDbLine
 10
-15.40000000000872
 20
-301.2045293060037
 30
0.0
 11
200.3999999999887
 21
-157.3382300063913
 31
0.0
  0
LINE
  5
2625
330
2C08
100
AcDbEntity
  8
0
 62
     0
100
AcDbLine
 10
-200.4000000000033
 20
-424.5375477046491
 30
0.0
 11
-15.40000000000872
 21
-301.2045293060037
 31
0.0
  0
LINE
  5
2626
330
2C08
100
AcDbEntity
  8
0
 62
     0
100
AcDbLine
 10
-15.40000000001055
 20
-298.2045627705866
 30
0.0
 11
200.3999999999887
 21
-154.3382634709741
 31
0.0
  0
LINE
  5
2627
330
2C08
100
AcDbEntity
  8
0
 62
     0
100
AcDbLine
 10
-200.4000000000068
 20
-421.5375811692338
 30
0.0
 11
-15.40000000001055
 21
-298.2045627705866
 31
0.0
  0
LINE
  5
2628
330
2C08
100
AcDbEntity
  8
0
 62
     0
100
AcDbLine
 10
-15.40000000000872
 20
-295.2045962351713
 30
0.0
 11
200.3999999999887
 21
-151.3382969355589
 31
0.0
  0
LINE
  5
2629
330
2C08
100
AcDbEntity
  8
0
 62
     0
100
AcDbLine
 10
-200.4000000000033
 20
-418.5376146338184
 30
0.0
 11
-15.40000000000872
 21
-295.2045962351713
 31
0.0
  0
LINE
  5
262A
330
2C08
100
AcDbEntity
  8
0
 62
     0
100
AcDbLine
 10
-15.40000000000691
 20
-292.2046296997542
 30
0.0
 11
200.3999999999904
 21
-148.3383304001434
 31
0.0
  0
LINE
  5
262B
330
2C08
100
AcDbEntity
  8
0
 62
     0
100
AcDbLine
 10
-200.4000000000051
 20
-415.5376480984029
 30
0.0
 11
-15.40000000000872
 21
-292.204629699756
 31
0.0
  0
LINE
  5
262C
330
2C08
100
AcDbEntity
  8
0
 62
     0
100
AcDbLine
 10
-15.40000000000872
 20
-289.2046631643388
 30
0.0
 11
200.3999999999887
 21
-145.3383638647264
 31
0.0
  0
LINE
  5
262D
330
2C08
100
AcDbEntity
  8
0
 62
     0
100
AcDbLine
 10
-200.4000000000051
 20
-412.5376815629858
 30
0.0
 11
-15.40000000000872
 21
-289.2046631643388
 31
0.0
  0
LINE
  5
262E
330
2C08
100
AcDbEntity
  8
0
 62
     0
100
AcDbLine
 10
-15.40000000000872
 20
-286.2046966289217
 30
0.0
 11
200.3999999999887
 21
-142.3383973293092
 31
0.0
  0
LINE
  5
262F
330
2C08
100
AcDbEntity
  8
0
 62
     0
100
AcDbLine
 10
-200.4000000000068
 20
-409.5377150275687
 30
0.0
 11
-15.40000000001055
 21
-286.2046966289236
 31
0.0
  0
LINE
  5
2630
330
2C08
100
AcDbEntity
  8
0
 62
     0
100
AcDbLine
 10
-15.40000000000872
 20
-283.2047300935064
 30
0.0
 11
200.3999999999887
 21
-139.3384307938959
 31
0.0
  0
LINE
  5
2631
330
2C08
100
AcDbEntity
  8
0
 62
     0
100
AcDbLine
 10
-200.4000000000051
 20
-406.5377484921537
 30
0.0
 11
-15.40000000000872
 21
-283.2047300935064
 31
0.0
  0
LINE
  5
2632
330
2C08
100
AcDbEntity
  8
0
 62
     0
100
AcDbLine
 10
-15.40000000000872
 20
-280.2047635580911
 30
0.0
 11
200.3999999999887
 21
-136.3384642584785
 31
0.0
  0
LINE
  5
2633
330
2C08
100
AcDbEntity
  8
0
 62
     0
100
AcDbLine
 10
-200.4000000000068
 20
-403.5377819567401
 30
0.0
 11
-15.40000000000872
 21
-280.2047635580911
 31
0.0
  0
LINE
  5
2634
330
2C08
100
AcDbEntity
  8
0
 62
     0
100
AcDbLine
 10
-15.40000000001055
 20
-277.204797022674
 30
0.0
 11
200.3999999999869
 21
-133.3384977230634
 31
0.0
  0
LINE
  5
2635
330
2C08
100
AcDbEntity
  8
0
 62
     0
100
AcDbLine
 10
-200.4000000000068
 20
-400.5378154213213
 30
0.0
 11
-15.40000000001055
 21
-277.204797022674
 31
0.0
  0
LINE
  5
2636
330
2C08
100
AcDbEntity
  8
0
 62
     0
100
AcDbLine
 10
-15.40000000000872
 20
-274.2048304872569
 30
0.0
 11
200.3999999999887
 21
-130.3385311876445
 31
0.0
  0
LINE
  5
2637
330
2C08
100
AcDbEntity
  8
0
 62
     0
100
AcDbLine
 10
-200.4000000000033
 20
-397.5378488859042
 30
0.0
 11
-15.40000000000872
 21
-274.2048304872569
 31
0.0
  0
LINE
  5
2638
330
2C08
100
AcDbEntity
  8
0
 62
     0
100
AcDbLine
 10
-15.40000000000872
 20
-271.2048639518434
 30
0.0
 11
200.3999999999904
 21
-127.3385646522292
 31
0.0
  0
LINE
  5
2639
330
2C08
100
AcDbEntity
  8
0
 62
     0
100
AcDbLine
 10
-200.4000000000051
 20
-394.5378823504889
 30
0.0
 11
-15.40000000000872
 21
-271.2048639518434
 31
0.0
  0
LINE
  5
263A
330
2C08
100
AcDbEntity
  8
0
 62
     0
100
AcDbLine
 10
-15.40000000001055
 20
-268.2048974164263
 30
0.0
 11
200.3999999999869
 21
-124.3385981168158
 31
0.0
  0
LINE
  5
263B
330
2C08
100
AcDbEntity
  8
0
 62
     0
100
AcDbLine
 10
-200.4000000000051
 20
-391.5379158150736
 30
0.0
 11
-15.40000000001055
 21
-268.2048974164263
 31
0.0
  0
LINE
  5
263C
330
2C08
100
AcDbEntity
  8
0
 62
     0
100
AcDbLine
 10
-15.40000000000691
 20
-265.2049308810092
 30
0.0
 11
200.3999999999887
 21
-121.3386315813968
 31
0.0
  0
LINE
  5
263D
330
2C08
100
AcDbEntity
  8
0
 62
     0
100
AcDbLine
 10
-200.4000000000068
 20
-388.5379492796583
 30
0.0
 11
-15.40000000001055
 21
-265.204930881011
 31
0.0
  0
LINE
  5
263E
330
2C08
100
AcDbEntity
  8
0
 62
     0
100
AcDbLine
 10
-15.40000000000872
 20
-262.2049643455921
 30
0.0
 11
200.3999999999887
 21
-118.3386650459815
 31
0.0
  0
LINE
  5
263F
330
2C08
100
AcDbEntity
  8
0
 62
     0
100
AcDbLine
 10
-200.4000000000033
 20
-385.5379827442393
 30
0.0
 11
-15.40000000000872
 21
-262.2049643455921
 31
0.0
  0
LINE
  5
2640
330
2C08
100
AcDbEntity
  8
0
 62
     0
100
AcDbLine
 10
-15.40000000000691
 20
-259.204997810175
 30
0.0
 11
200.0080467649732
 21
-115.5999999999985
 31
0.0
  0
LINE
  5
2641
330
2C08
100
AcDbEntity
  8
0
 62
     0
100
AcDbLine
 10
-200.4000000000068
 20
-382.538016208824
 30
0.0
 11
-15.40000000000691
 21
-259.204997810175
 31
0.0
  0
LINE
  5
2642
330
2C08
100
AcDbEntity
  8
0
 62
     0
100
AcDbLine
 10
-15.40000000001055
 20
-256.2050312747615
 30
0.0
 11
195.5080854710886
 21
-115.5999999999985
 31
0.0
  0
LINE
  5
2643
330
2C08
100
AcDbEntity
  8
0
 62
     0
100
AcDbLine
 10
-200.4000000000051
 20
-379.5380496734069
 30
0.0
 11
-15.40000000001055
 21
-256.2050312747615
 31
0.0
  0
LINE
  5
2644
330
2C08
100
AcDbEntity
  8
0
 62
     0
100
AcDbLine
 10
-15.40000000000691
 20
-253.2050647393444
 30
0.0
 11
191.0081241772022
 21
-115.6000000000003
 31
0.0
  0
LINE
  5
2645
330
2C08
100
AcDbEntity
  8
0
 62
     0
100
AcDbLine
 10
-200.4000000000033
 20
-376.5380831379916
 30
0.0
 11
-15.40000000000691
 21
-253.2050647393444
 31
0.0
  0
LINE
  5
2646
330
2C08
100
AcDbEntity
  8
0
 62
     0
100
AcDbLine
 10
-15.40000000001055
 20
-250.2050982039291
 30
0.0
 11
186.5081628833159
 21
-115.6000000000003
 31
0.0
  0
LINE
  5
2647
330
2C08
100
AcDbEntity
  8
0
 62
     0
100
AcDbLine
 10
-200.4000000000051
 20
-373.5381166025744
 30
0.0
 11
-15.40000000001055
 21
-250.2050982039291
 31
0.0
  0
LINE
  5
2648
330
2C08
100
AcDbEntity
  8
0
 62
     0
100
AcDbLine
 10
-15.40000000000872
 20
-247.2051316685102
 30
0.0
 11
182.0082015894312
 21
-115.5999999999985
 31
0.0
  0
LINE
  5
2649
330
2C08
100
AcDbEntity
  8
0
 62
     0
100
AcDbLine
 10
-200.4000000000087
 20
-370.5381500671592
 30
0.0
 11
-15.40000000000872
 21
-247.2051316685102
 31
0.0
  0
LINE
  5
264A
330
2C08
100
AcDbEntity
  8
0
 62
     0
100
AcDbLine
 10
-15.40000000001055
 20
-244.2051651330967
 30
0.0
 11
177.5082402955468
 21
-115.5999999999985
 31
0.0
  0
LINE
  5
264B
330
2C08
100
AcDbEntity
  8
0
 62
     0
100
AcDbLine
 10
-200.4000000000051
 20
-367.5381835317439
 30
0.0
 11
-15.40000000001055
 21
-244.2051651330967
 31
0.0
  0
LINE
  5
264C
330
2C08
100
AcDbEntity
  8
0
 62
     0
100
AcDbLine
 10
-15.40000000000691
 20
-241.2051985976814
 30
0.0
 11
173.0082790016622
 21
-115.6000000000003
 31
0.0
  0
LINE
  5
264D
330
2C08
100
AcDbEntity
  8
0
 62
     0
100
AcDbLine
 10
-200.4000000000033
 20
-364.5382169963268
 30
0.0
 11
-15.40000000000691
 21
-241.2051985976814
 31
0.0
  0
LINE
  5
264E
330
2C08
100
AcDbEntity
  8
0
 62
     0
100
AcDbLine
 10
-15.40000000000691
 20
-238.2052320622624
 30
0.0
 11
168.508317707774
 21
-115.6000000000003
 31
0.0
  0
LINE
  5
264F
330
2C08
100
AcDbEntity
  8
0
 62
     0
100
AcDbLine
 10
-200.4000000000051
 20
-361.5382504609115
 30
0.0
 11
-15.40000000001055
 21
-238.2052320622642
 31
0.0
  0
LINE
  5
2650
330
2C08
100
AcDbEntity
  8
0
 62
     0
100
AcDbLine
 10
-15.40000000000872
 20
-235.2052655268471
 30
0.0
 11
164.0083564138894
 21
-115.5999999999985
 31
0.0
  0
LINE
  5
2651
330
2C08
100
AcDbEntity
  8
0
 62
     0
100
AcDbLine
 10
-200.4000000000051
 20
-358.5382839254926
 30
0.0
 11
-15.40000000000872
 21
-235.2052655268471
 31
0.0
  0
LINE
  5
2652
330
2C08
100
AcDbEntity
  8
0
 62
     0
100
AcDbLine
 10
-15.40000000000691
 20
-232.20529899143
 30
0.0
 11
159.5083951200013
 21
-115.6000000000022
 31
0.0
  0
LINE
  5
2653
330
2C08
100
AcDbEntity
  8
0
 62
     0
100
AcDbLine
 10
-200.4000000000051
 20
-355.5383173900791
 30
0.0
 11
-15.40000000001055
 21
-232.2052989914317
 31
0.0
  0
LINE
  5
2654
330
2C08
100
AcDbEntity
  8
0
 62
     0
100
AcDbLine
 10
-15.40000000000872
 20
-229.2053324560165
 30
0.0
 11
155.0084338261186
 21
-115.6000000000003
 31
0.0
  0
LINE
  5
2655
330
2C08
100
AcDbEntity
  8
0
 62
     0
100
AcDbLine
 10
-200.4000000000051
 20
-352.5383508546639
 30
0.0
 11
-15.40000000000872
 21
-229.2053324560165
 31
0.0
  0
LINE
  5
2656
330
2C08
100
AcDbEntity
  8
0
 62
     0
100
AcDbLine
 10
-15.40000000000872
 20
-226.2053659205976
 30
0.0
 11
150.5084725322303
 21
-115.6000000000003
 31
0.0
  0
LINE
  5
2657
330
2C08
100
AcDbEntity
  8
0
 62
     0
100
AcDbLine
 10
-200.4000000000068
 20
-349.5383843192467
 30
0.0
 11
-15.40000000000872
 21
-226.2053659205976
 31
0.0
  0
LINE
  5
2658
330
2C08
100
AcDbEntity
  8
0
 62
     0
100
AcDbLine
 10
-15.40000000000872
 20
-223.2053993851823
 30
0.0
 11
146.0085112383476
 21
-115.5999999999985
 31
0.0
  0
LINE
  5
2659
330
2C08
100
AcDbEntity
  8
0
 62
     0
100
AcDbLine
 10
-200.4000000000051
 20
-346.5384177838296
 30
0.0
 11
-15.40000000000872
 21
-223.2053993851823
 31
0.0
  0
LINE
  5
265A
330
2C08
100
AcDbEntity
  8
0
 62
     0
100
AcDbLine
 10
-15.40000000000691
 20
-220.2054328497652
 30
0.0
 11
141.5085499444594
 21
-115.6000000000003
 31
0.0
  0
LINE
  5
265B
330
2C08
100
AcDbEntity
  8
0
 62
     0
100
AcDbLine
 10
-200.4000000000033
 20
-343.5384512484106
 30
0.0
 11
-15.40000000000691
 21
-220.2054328497652
 31
0.0
  0
LINE
  5
265C
330
2C08
100
AcDbEntity
  8
0
 62
     0
100
AcDbLine
 10
-15.40000000000872
 20
-217.2054663143499
 30
0.0
 11
137.0085886505767
 21
-115.6000000000003
 31
0.0
  0
LINE
  5
265D
330
2C08
100
AcDbEntity
  8
0
 62
     0
100
AcDbLine
 10
-200.4000000000051
 20
-340.5384847129972
 30
0.0
 11
-15.40000000000872
 21
-217.2054663143499
 31
0.0
  0
LINE
  5
265E
330
2C08
100
AcDbEntity
  8
0
 62
     0
100
AcDbLine
 10
-15.40000000000872
 20
-214.2054997789346
 30
0.0
 11
132.5086273566885
 21
-115.6000000000022
 31
0.0
  0
LINE
  5
265F
330
2C08
100
AcDbEntity
  8
0
 62
     0
100
AcDbLine
 10
-200.4000000000051
 20
-337.5385181775819
 30
0.0
 11
-15.40000000000872
 21
-214.2054997789346
 31
0.0
  0
LINE
  5
2660
330
2C08
100
AcDbEntity
  8
0
 62
     0
100
AcDbLine
 10
-15.40000000000691
 20
-211.2055332435157
 30
0.0
 11
128.0086660628039
 21
-115.6000000000003
 31
0.0
  0
LINE
  5
2661
330
2C08
100
AcDbEntity
  8
0
 62
     0
100
AcDbLine
 10
-200.4000000000051
 20
-334.5385516421647
 30
0.0
 11
-15.40000000000872
 21
-211.2055332435193
 31
0.0
  0
LINE
  5
2662
330
2C08
100
AcDbEntity
  8
0
 62
     0
100
AcDbLine
 10
-15.40000000000872
 20
-208.2055667081004
 30
0.0
 11
123.5087047689194
 21
-115.5999999999985
 31
0.0
  0
LINE
  5
2663
330
2C08
100
AcDbEntity
  8
0
 62
     0
100
AcDbLine
 10
-200.4000000000051
 20
-331.5385851067476
 30
0.0
 11
-15.40000000000872
 21
-208.2055667081004
 31
0.0
  0
LINE
  5
2664
330
2C08
100
AcDbEntity
  8
0
 62
     0
100
AcDbLine
 10
-15.40000000000872
 20
-205.2056001726851
 30
0.0
 11
119.008743475033
 21
-115.6000000000003
 31
0.0
  0
LINE
  5
2665
330
2C08
100
AcDbEntity
  8
0
 62
     0
100
AcDbLine
 10
-200.4000000000068
 20
-328.5386185713322
 30
0.0
 11
-15.40000000000872
 21
-205.2056001726851
 31
0.0
  0
LINE
  5
2666
330
2C08
100
AcDbEntity
  8
0
 62
     0
100
AcDbLine
 10
-15.40000000000872
 20
-202.2056336372698
 30
0.0
 11
114.5087821811503
 21
-115.6000000000003
 31
0.0
  0
LINE
  5
2667
330
2C08
100
AcDbEntity
  8
0
 62
     0
100
AcDbLine
 10
-200.4000000000051
 20
-325.5386520359169
 30
0.0
 11
-15.40000000000872
 21
-202.2056336372698
 31
0.0
  0
LINE
  5
2668
330
2C08
100
AcDbEntity
  8
0
 62
     0
100
AcDbLine
 10
-15.40000000000872
 20
-199.2056671018526
 30
0.0
 11
110.0088208872603
 21
-115.6000000000022
 31
0.0
  0
LINE
  5
2669
330
2C08
100
AcDbEntity
  8
0
 62
     0
100
AcDbLine
 10
-200.4000000000068
 20
-322.5386855005017
 30
0.0
 11
-15.40000000000872
 21
-199.2056671018526
 31
0.0
  0
LINE
  5
266A
330
2C08
100
AcDbEntity
  8
0
 62
     0
100
AcDbLine
 10
-15.40000000001055
 20
-196.2057005664355
 30
0.0
 11
105.5088595933757
 21
-115.5999999999985
 31
0.0
  0
LINE
  5
266B
330
2C08
100
AcDbEntity
  8
0
 62
     0
100
AcDbLine
 10
-200.4000000000068
 20
-319.5387189650828
 30
0.0
 11
-15.40000000001055
 21
-196.2057005664355
 31
0.0
  0
LINE
  5
266C
330
2C08
100
AcDbEntity
  8
0
 62
     0
100
AcDbLine
 10
-15.40000000000872
 20
-193.2057340310202
 30
0.0
 11
101.0088982994912
 21
-115.6000000000003
 31
0.0
  0
LINE
  5
266D
330
2C08
100
AcDbEntity
  8
0
 62
     0
100
AcDbLine
 10
-200.4000000000068
 20
-316.5387524296694
 30
0.0
 11
-15.40000000000872
 21
-193.2057340310202
 31
0.0
  0
LINE
  5
266E
330
2C08
100
AcDbEntity
  8
0
 62
     0
100
AcDbLine
 10
-15.40000000000872
 20
-190.2057674956068
 30
0.0
 11
96.50893700560482
 21
-115.6000000000022
 31
0.0
  0
LINE
  5
266F
330
2C08
100
AcDbEntity
  8
0
 62
     0
100
AcDbLine
 10
-200.4000000000051
 20
-313.5387858942522
 30
0.0
 11
-15.40000000000872
 21
-190.2057674956068
 31
0.0
  0
LINE
  5
2670
330
2C08
100
AcDbEntity
  8
0
 62
     0
100
AcDbLine
 10
-15.40000000000872
 20
-187.2058009601877
 30
0.0
 11
92.00897571171845
 21
-115.6000000000022
 31
0.0
  0
LINE
  5
2671
330
2C08
100
AcDbEntity
  8
0
 62
     0
100
AcDbLine
 10
-200.4000000000033
 20
-310.5388193588352
 30
0.0
 11
-15.40000000000872
 21
-187.2058009601877
 31
0.0
  0
LINE
  5
2672
330
2C08
100
AcDbEntity
  8
0
 62
     0
100
AcDbLine
 10
-15.40000000000691
 20
-184.2058344247707
 30
0.0
 11
87.50901441783389
 21
-115.6000000000003
 31
0.0
  0
LINE
  5
2673
330
2C08
100
AcDbEntity
  8
0
 62
     0
100
AcDbLine
 10
-200.4000000000068
 20
-307.5388528234198
 30
0.0
 11
-15.40000000000691
 21
-184.2058344247707
 31
0.0
  0
LINE
  5
2674
330
2C08
100
AcDbEntity
  8
0
 62
     0
100
AcDbLine
 10
-15.40000000000872
 20
-181.2058678893536
 30
0.0
 11
83.00905312394935
 21
-115.5999999999985
 31
0.0
  0
LINE
  5
2675
330
2C08
100
AcDbEntity
  8
0
 62
     0
100
AcDbLine
 10
-200.4000000000033
 20
-304.5388862880009
 30
0.0
 11
-15.40000000000872
 21
-181.2058678893536
 31
0.0
  0
LINE
  5
2676
330
2C08
100
AcDbEntity
  8
0
 62
     0
100
AcDbLine
 10
-15.40000000000872
 20
-178.2059013539383
 30
0.0
 11
78.50909183006116
 21
-115.6000000000003
 31
0.0
  0
LINE
  5
2677
330
2C08
100
AcDbEntity
  8
0
 62
     0
100
AcDbLine
 10
-200.4000000000068
 20
-301.5389197525872
 30
0.0
 11
-15.40000000000872
 21
-178.2059013539383
 31
0.0
  0
LINE
  5
2678
330
2C08
100
AcDbEntity
  8
0
 62
     0
100
AcDbLine
 10
-15.40000000001055
 20
-175.2059348185248
 30
0.0
 11
74.0091305361784
 21
-115.6000000000003
 31
0.0
  0
LINE
  5
2679
330
2C08
100
AcDbEntity
  8
0
 62
     0
100
AcDbLine
 10
-200.4000000000051
 20
-298.5389532171703
 30
0.0
 11
-15.40000000001055
 21
-175.2059348185248
 31
0.0
  0
LINE
  5
267A
330
2C08
100
AcDbEntity
  8
0
 62
     0
100
AcDbLine
 10
-15.40000000000872
 20
-172.2059682831059
 30
0.0
 11
69.50916924229204
 21
-115.6000000000003
 31
0.0
  0
LINE
  5
267B
330
2C08
100
AcDbEntity
  8
0
 62
     0
100
AcDbLine
 10
-200.4000000000068
 20
-295.538986681755
 30
0.0
 11
-15.40000000000872
 21
-172.2059682831059
 31
0.0
  0
LINE
  5
267C
330
2C08
100
AcDbEntity
  8
0
 62
     0
100
AcDbLine
 10
-15.40000000000872
 20
-169.2060017476906
 30
0.0
 11
65.00920794840749
 21
-115.6000000000003
 31
0.0
  0
LINE
  5
267D
330
2C08
100
AcDbEntity
  8
0
 62
     0
100
AcDbLine
 10
-200.4000000000051
 20
-292.5390201463379
 30
0.0
 11
-15.40000000000872
 21
-169.2060017476906
 31
0.0
  0
LINE
  5
267E
330
2C08
100
AcDbEntity
  8
0
 62
     0
100
AcDbLine
 10
-15.40000000000872
 20
-166.2060352122734
 30
0.0
 11
60.5092466545193
 21
-115.6000000000003
 31
0.0
  0
LINE
  5
267F
330
2C08
100
AcDbEntity
  8
0
 62
     0
100
AcDbLine
 10
-200.4000000000068
 20
-289.5390536109226
 30
0.0
 11
-15.40000000000872
 21
-166.2060352122734
 31
0.0
  0
LINE
  5
2680
330
2C08
100
AcDbEntity
  8
0
 62
     0
100
AcDbLine
 10
-15.40000000001055
 20
-163.20606867686
 30
0.0
 11
56.00928536063657
 21
-115.6000000000003
 31
0.0
  0
LINE
  5
2681
330
2C08
100
AcDbEntity
  8
0
 62
     0
100
AcDbLine
 10
-200.4000000000068
 20
-286.5390870755073
 30
0.0
 11
-15.40000000001055
 21
-163.20606867686
 31
0.0
  0
LINE
  5
2682
330
2C08
100
AcDbEntity
  8
0
 62
     0
100
AcDbLine
 10
-15.40000000000872
 20
-160.2061021414429
 30
0.0
 11
51.50932406675018
 21
-115.6000000000003
 31
0.0
  0
LINE
  5
2683
330
2C08
100
AcDbEntity
  8
0
 62
     0
100
AcDbLine
 10
-200.4000000000033
 20
-283.5391205400882
 30
0.0
 11
-15.40000000000872
 21
-160.2061021414429
 31
0.0
  0
LINE
  5
2684
330
2C08
100
AcDbEntity
  8
0
 62
     0
100
AcDbLine
 10
-15.40000000001055
 20
-157.2061356060258
 30
0.0
 11
47.00936277286381
 21
-115.6000000000003
 31
0.0
  0
LINE
  5
2685
330
2C08
100
AcDbEntity
  8
0
 62
     0
100
AcDbLine
 10
-200.4000000000068
 20
-280.5391540046731
 30
0.0
 11
-15.40000000001055
 21
-157.2061356060258
 31
0.0
  0
LINE
  5
2686
330
2C08
100
AcDbEntity
  8
0
 62
     0
100
AcDbLine
 10
-15.40000000001055
 20
-154.2061690706105
 30
0.0
 11
42.50940147897927
 21
-115.5999999999985
 31
0.0
  0
LINE
  5
2687
330
2C08
100
AcDbEntity
  8
0
 62
     0
100
AcDbLine
 10
-200.4000000000051
 20
-277.5391874692559
 30
0.0
 11
-15.40000000001055
 21
-154.2061690706105
 31
0.0
  0
LINE
  5
2688
330
2C08
100
AcDbEntity
  8
0
 62
     0
100
AcDbLine
 10
-15.40000000000691
 20
-151.2062025351933
 30
0.0
 11
38.00944018509472
 21
-115.6000000000003
 31
0.0
  0
LINE
  5
2689
330
2C08
100
AcDbEntity
  8
0
 62
     0
100
AcDbLine
 10
-200.4000000000068
 20
-274.5392209338425
 30
0.0
 11
-15.40000000000691
 21
-151.2062025351933
 31
0.0
  0
LINE
  5
268A
330
2C08
100
AcDbEntity
  8
0
 62
     0
100
AcDbLine
 10
-15.40000000000872
 20
-148.206235999778
 30
0.0
 11
33.50947889120836
 21
-115.6000000000003
 31
0.0
  0
LINE
  5
268B
330
2C08
100
AcDbEntity
  8
0
 62
     0
100
AcDbLine
 10
-200.4000000000033
 20
-271.5392543984253
 30
0.0
 11
-15.40000000000872
 21
-148.206235999778
 31
0.0
  0
LINE
  5
268C
330
2C08
100
AcDbEntity
  8
0
 62
     0
100
AcDbLine
 10
-15.40000000000872
 20
-145.2062694643609
 30
0.0
 11
29.00951759732016
 21
-115.6000000000003
 31
0.0
  0
LINE
  5
268D
330
2C08
100
AcDbEntity
  8
0
 62
     0
100
AcDbLine
 10
-200.4000000000087
 20
-268.5392878630082
 30
0.0
 11
-15.40000000000872
 21
-145.2062694643609
 31
0.0
  0
LINE
  5
268E
330
2C08
100
AcDbEntity
  8
0
 62
     0
100
AcDbLine
 10
-15.40000000001055
 20
-142.2063029289438
 30
0.0
 11
24.50955630343742
 21
-115.5999999999985
 31
0.0
  0
LINE
  5
268F
330
2C08
100
AcDbEntity
  8
0
 62
     0
100
AcDbLine
 10
-200.4000000000051
 20
-265.5393213275911
 30
0.0
 11
-15.40000000001055
 21
-142.2063029289438
 31
0.0
  0
LINE
  5
2690
330
2C08
100
AcDbEntity
  8
0
 62
     0
100
AcDbLine
 10
-15.40000000000691
 20
-139.2063363935285
 30
0.0
 11
20.00959500955287
 21
-115.6000000000003
 31
0.0
  0
LINE
  5
2691
330
2C08
100
AcDbEntity
  8
0
 62
     0
100
AcDbLine
 10
-200.4000000000068
 20
-262.5393547921776
 30
0.0
 11
-15.40000000000691
 21
-139.2063363935285
 31
0.0
  0
LINE
  5
2692
330
2C08
100
AcDbEntity
  8
0
 62
     0
100
AcDbLine
 10
-15.40000000001055
 20
-136.2063698581132
 30
0.0
 11
15.50963371566467
 21
-115.6000000000003
 31
0.0
  0
LINE
  5
2693
330
2C08
100
AcDbEntity
  8
0
 62
     0
100
AcDbLine
 10
-200.4000000000051
 20
-259.5393882567605
 30
0.0
 11
-15.40000000001055
 21
-136.2063698581132
 31
0.0
  0
LINE
  5
2694
330
2C08
100
AcDbEntity
  8
0
 62
     0
100
AcDbLine
 10
-15.40000000000872
 20
-133.2064033226961
 30
0.0
 11
11.0096724217783
 21
-115.6000000000003
 31
0.0
  0
LINE
  5
2695
330
2C08
100
AcDbEntity
  8
0
 62
     0
100
AcDbLine
 10
-200.4000000000051
 20
-256.5394217213434
 30
0.0
 11
-15.40000000000872
 21
-133.2064033226961
 31
0.0
  0
LINE
  5
2696
330
2C08
100
AcDbEntity
  8
0
 62
     0
100
AcDbLine
 10
-15.40000000000691
 20
-130.2064367872772
 30
0.0
 11
6.509711127895569
 21
-115.5999999999985
 31
0.0
  0
LINE
  5
2697
330
2C08
100
AcDbEntity
  8
0
 62
     0
100
AcDbLine
 10
-200.4000000000051
 20
-253.5394551859263
 30
0.0
 11
-15.40000000000691
 21
-130.2064367872772
 31
0.0
  0
LINE
  5
2698
330
2C08
100
AcDbEntity
  8
0
 62
     0
100
AcDbLine
 10
-15.40000000000872
 20
-127.2064702518637
 30
0.0
 11
2.009749834005559
 21
-115.6000000000022
 31
0.0
  0
LINE
  5
2699
330
2C08
100
AcDbEntity
  8
0
 62
     0
100
AcDbLine
 10
-200.4000000000051
 20
-250.539488650511
 30
0.0
 11
-15.40000000000872
 21
-127.2064702518637
 31
0.0
  0
LINE
  5
269A
330
2C08
100
AcDbEntity
  8
0
 62
     0
100
AcDbLine
 10
-15.40000000000872
 20
-124.2065037164484
 30
0.0
 11
-2.490211459878992
 21
-115.6000000000022
 31
0.0
  0
LINE
  5
269B
330
2C08
100
AcDbEntity
  8
0
 62
     0
100
AcDbLine
 10
-200.4000000000068
 20
-247.5395221150957
 30
0.0
 11
-15.40000000000872
 21
-124.2065037164484
 31
0.0
  0
LINE
  5
269C
330
2C08
100
AcDbEntity
  8
0
 62
     0
100
AcDbLine
 10
-15.40000000000872
 20
-121.2065371810313
 30
0.0
 11
-6.990172753763545
 21
-115.6000000000003
 31
0.0
  0
LINE
  5
269D
330
2C08
100
AcDbEntity
  8
0
 62
     0
100
AcDbLine
 10
-200.4000000000051
 20
-244.5395555796785
 30
0.0
 11
-15.40000000000872
 21
-121.2065371810313
 31
0.0
  0
LINE
  5
269E
330
2C08
100
AcDbEntity
  8
0
 62
     0
100
AcDbLine
 10
-15.40000000000691
 20
-118.2065706456142
 30
0.0
 11
-11.49013404764628
 21
-115.5999999999985
 31
0.0
  0
LINE
  5
269F
330
2C08
100
AcDbEntity
  8
0
 62
     0
100
AcDbLine
 10
-200.4000000000051
 20
-241.5395890442633
 30
0.0
 11
-15.40000000000691
 21
-118.2065706456142
 31
0.0
  0
LINE
  5
26A0
330
2C08
100
AcDbEntity
  8
0
 62
     0
100
AcDbLine
 10
-200.4000000000051
 20
-238.5396225088462
 30
0.0
 11
-15.99009534153265
 21
-115.6000000000003
 31
0.0
  0
LINE
  5
26A1
330
2C08
100
AcDbEntity
  8
0
 62
     0
100
AcDbLine
 10
-200.4000000000068
 20
-235.5396559734327
 30
0.0
 11
-20.49005663542084
 21
-115.6000000000022
 31
0.0
  0
LINE
  5
26A2
330
2C08
100
AcDbEntity
  8
0
 62
     0
100
AcDbLine
 10
-200.4000000000051
 20
-232.5396894380137
 30
0.0
 11
-24.99001792930176
 21
-115.6000000000003
 31
0.0
  0
LINE
  5
26A3
330
2C08
100
AcDbEntity
  8
0
 62
     0
100
AcDbLine
 10
-200.4000000000068
 20
-229.5397229025984
 30
0.0
 11
-29.48997922318995
 21
-115.5999999999985
 31
0.0
  0
LINE
  5
26A4
330
2C08
100
AcDbEntity
  8
0
 62
     0
100
AcDbLine
 10
-200.4000000000068
 20
-226.5397563671813
 30
0.0
 11
-33.98994051707632
 21
-115.5999999999985
 31
0.0
  0
LINE
  5
26A5
330
2C08
100
AcDbEntity
  8
0
 62
     0
100
AcDbLine
 10
-200.4000000000051
 20
-223.5397898317642
 30
0.0
 11
-38.48990181096269
 21
-115.6000000000003
 31
0.0
  0
LINE
  5
26A6
330
2C08
100
AcDbEntity
  8
0
 62
     0
100
AcDbLine
 10
-200.4000000000051
 20
-220.5398232963507
 30
0.0
 11
-42.98986310484361
 21
-115.6000000000003
 31
0.0
  0
LINE
  5
26A7
330
2C08
100
AcDbEntity
  8
0
 62
     0
100
AcDbLine
 10
-200.4000000000051
 20
-217.5398567609318
 30
0.0
 11
-47.48982439873359
 21
-115.6000000000022
 31
0.0
  0
LINE
  5
26A8
330
2C08
100
AcDbEntity
  8
0
 62
     0
100
AcDbLine
 10
-200.4000000000068
 20
-214.5398902255165
 30
0.0
 11
-51.98978569261817
 21
-115.5999999999985
 31
0.0
  0
LINE
  5
26A9
330
2C08
100
AcDbEntity
  8
0
 62
     0
100
AcDbLine
 10
-200.4000000000051
 20
-211.5399236901012
 30
0.0
 11
-56.48974698650271
 21
-115.6000000000003
 31
0.0
  0
LINE
  5
26AA
330
2C08
100
AcDbEntity
  8
0
 62
     0
100
AcDbLine
 10
-200.4000000000068
 20
-208.5399571546859
 30
0.0
 11
-60.98970828038727
 21
-115.6000000000003
 31
0.0
  0
LINE
  5
26AB
330
2C08
100
AcDbEntity
  8
0
 62
     0
100
AcDbLine
 10
-200.4000000000087
 20
-205.5399906192706
 30
0.0
 11
-65.48966957427547
 21
-115.6000000000003
 31
0.0
  0
LINE
  5
26AC
330
2C08
100
AcDbEntity
  8
0
 62
     0
100
AcDbLine
 10
-200.4000000000106
 20
-202.5400240838553
 30
0.0
 11
-69.98963086816002
 21
-115.6000000000003
 31
0.0
  0
LINE
  5
26AD
330
2C08
100
AcDbEntity
  8
0
 62
     0
100
AcDbLine
 10
-200.4000000000068
 20
-199.5400575484382
 30
0.0
 11
-74.48959216204276
 21
-115.5999999999985
 31
0.0
  0
LINE
  5
26AE
330
2C08
100
AcDbEntity
  8
0
 62
     0
100
AcDbLine
 10
-200.4000000000087
 20
-196.5400910130229
 30
0.0
 11
-78.98955345593458
 21
-115.6000000000022
 31
0.0
  0
LINE
  5
26AF
330
2C08
100
AcDbEntity
  8
0
 62
     0
100
AcDbLine
 10
-200.4000000000087
 20
-193.5401244776057
 30
0.0
 11
-83.48951474981729
 21
-115.6000000000003
 31
0.0
  0
LINE
  5
26B0
330
2C08
100
AcDbEntity
  8
0
 62
     0
100
AcDbLine
 10
-200.4000000000068
 20
-190.5401579421886
 30
0.0
 11
-87.98947604370189
 21
-115.6000000000003
 31
0.0
  0
LINE
  5
26B1
330
2C08
100
AcDbEntity
  8
0
 62
     0
100
AcDbLine
 10
-200.4000000000087
 20
-187.5401914067733
 30
0.0
 11
-92.48943733758641
 21
-115.5999999999985
 31
0.0
  0
LINE
  5
26B2
330
2C08
100
AcDbEntity
  8
0
 62
     0
100
AcDbLine
 10
-200.4000000000087
 20
-184.5402248713562
 30
0.0
 11
-96.98939863147643
 21
-115.6000000000003
 31
0.0
  0
LINE
  5
26B3
330
2C08
100
AcDbEntity
  8
0
 62
     0
100
AcDbLine
 10
-200.4000000000087
 20
-181.5402583359428
 30
0.0
 11
-101.4893599253591
 21
-115.6000000000003
 31
0.0
  0
LINE
  5
26B4
330
2C08
100
AcDbEntity
  8
0
 62
     0
100
AcDbLine
 10
-200.4000000000087
 20
-178.5402918005238
 30
0.0
 11
-105.9893212192455
 21
-115.6000000000003
 31
0.0
  0
LINE
  5
26B5
330
2C08
100
AcDbEntity
  8
0
 62
     0
100
AcDbLine
 10
-200.4000000000124
 20
-175.5403252651085
 30
0.0
 11
-110.4892825131301
 21
-115.5999999999985
 31
0.0
  0
LINE
  5
26B6
330
2C08
100
AcDbEntity
  8
0
 62
     0
100
AcDbLine
 10
-200.4000000000087
 20
-172.5403587296914
 30
0.0
 11
-114.9892438070183
 21
-115.6000000000022
 31
0.0
  0
LINE
  5
26B7
330
2C08
100
AcDbEntity
  8
0
 62
     0
100
AcDbLine
 10
-200.4000000000106
 20
-169.5403921942779
 30
0.0
 11
-119.4892051008992
 21
-115.6000000000003
 31
0.0
  0
LINE
  5
26B8
330
2C08
100
AcDbEntity
  8
0
 62
     0
100
AcDbLine
 10
-200.4000000000087
 20
-166.5404256588608
 30
0.0
 11
-123.9891663947874
 21
-115.6000000000003
 31
0.0
  0
LINE
  5
26B9
330
2C08
100
AcDbEntity
  8
0
 62
     0
100
AcDbLine
 10
-200.4000000000087
 20
-163.5404591234419
 30
0.0
 11
-128.4891276886737
 21
-115.6000000000003
 31
0.0
  0
LINE
  5
26BA
330
2C08
100
AcDbEntity
  8
0
 62
     0
100
AcDbLine
 10
-200.4000000000087
 20
-160.5404925880284
 30
0.0
 11
-132.9890889825565
 21
-115.6000000000003
 31
0.0
  0
LINE
  5
26BB
330
2C08
100
AcDbEntity
  8
0
 62
     0
100
AcDbLine
 10
-200.4000000000087
 20
-157.5405260526113
 30
0.0
 11
-137.4890502764428
 21
-115.6000000000022
 31
0.0
  0
LINE
  5
26BC
330
2C08
100
AcDbEntity
  8
0
 62
     0
100
AcDbLine
 10
-200.4000000000106
 20
-154.540559517196
 30
0.0
 11
-141.9890115703274
 21
-115.5999999999985
 31
0.0
  0
LINE
  5
26BD
330
2C08
100
AcDbEntity
  8
0
 62
     0
100
AcDbLine
 10
-200.4000000000087
 20
-151.5405929817789
 30
0.0
 11
-146.4889728642156
 21
-115.6000000000003
 31
0.0
  0
LINE
  5
26BE
330
2C08
100
AcDbEntity
  8
0
 62
     0
100
AcDbLine
 10
-200.4000000000087
 20
-148.5406264463618
 30
0.0
 11
-150.9889341580983
 21
-115.5999999999985
 31
0.0
  0
LINE
  5
26BF
330
2C08
100
AcDbEntity
  8
0
 62
     0
100
AcDbLine
 10
-200.4000000000106
 20
-145.5406599109464
 30
0.0
 11
-155.4888954519865
 21
-115.6000000000003
 31
0.0
  0
LINE
  5
26C0
330
2C08
100
AcDbEntity
  8
0
 62
     0
100
AcDbLine
 10
-200.4000000000106
 20
-142.5406933755312
 30
0.0
 11
-159.9888567458729
 21
-115.6000000000022
 31
0.0
  0
LINE
  5
26C1
330
2C08
100
AcDbEntity
  8
0
 62
     0
100
AcDbLine
 10
-200.4000000000087
 20
-139.540726840114
 30
0.0
 11
-164.4888180397574
 21
-115.6000000000022
 31
0.0
  0
LINE
  5
26C2
330
2C08
100
AcDbEntity
  8
0
 62
     0
100
AcDbLine
 10
-200.4000000000087
 20
-136.5407603046969
 30
0.0
 11
-168.988779333642
 21
-115.5999999999985
 31
0.0
  0
LINE
  5
26C3
330
2C08
100
AcDbEntity
  8
0
 62
     0
100
AcDbLine
 10
-200.4000000000106
 20
-133.5407937692816
 30
0.0
 11
-173.4887406275284
 21
-115.6000000000003
 31
0.0
  0
LINE
  5
26C4
330
2C08
100
AcDbEntity
  8
0
 62
     0
100
AcDbLine
 10
-200.4000000000087
 20
-130.5408272338663
 30
0.0
 11
-177.9887019214146
 21
-115.6000000000022
 31
0.0
  0
LINE
  5
26C5
330
2C08
100
AcDbEntity
  8
0
 62
     0
100
AcDbLine
 10
-200.4000000000106
 20
-127.5408606984492
 30
0.0
 11
-182.4886632152974
 21
-115.6000000000003
 31
0.0
  0
LINE
  5
26C6
330
2C08
100
AcDbEntity
  8
0
 62
     0
100
AcDbLine
 10
-200.4000000000106
 20
-124.5408941630321
 30
0.0
 11
-186.9886245091857
 21
-115.5999999999985
 31
0.0
  0
LINE
  5
26C7
330
2C08
100
AcDbEntity
  8
0
 62
     0
100
AcDbLine
 10
-200.4000000000106
 20
-121.5409276276186
 30
0.0
 11
-191.4885858030684
 21
-115.5999999999985
 31
0.0
  0
LINE
  5
26C8
330
2C08
100
AcDbEntity
  8
0
 62
     0
100
AcDbLine
 10
-200.4000000000087
 20
-118.5409610922015
 30
0.0
 11
-195.9885470969566
 21
-115.6000000000022
 31
0.0
  0
ENDBLK
  5
26C9
330
2C08
100
AcDbEntity
  8
0
100
AcDbBlockEnd
  0
BLOCK
  5
2C0B
330
2C0A
100
AcDbEntity
  8
0
100
AcDbBlockBegin
  2
*X75
 70
     1
 10
0.0
 20
0.0
 30
0.0
  3
*X75
  1

  0
LINE
  5
26CC
330
2C0A
100
AcDbEntity
  8
0
 62
     0
100
AcDbLine
 10
-200.4000000000015
 20
-483.0411544175631
 30
0.0
 11
-198.3617264215627
 21
-484.4000000000023
 31
0.0
  0
LINE
  5
26CD
330
2C0A
100
AcDbEntity
  8
0
 62
     0
100
AcDbLine
 10
-200.4000000000051
 20
-480.0411878821448
 30
0.0
 11
-193.86176512768
 21
-484.3999999999996
 31
0.0
  0
LINE
  5
26CE
330
2C0A
100
AcDbEntity
  8
0
 62
     0
100
AcDbLine
 10
-200.4000000000051
 20
-477.0412213467298
 30
0.0
 11
-189.3618038337936
 21
-484.4000000000014
 31
0.0
  0
LINE
  5
26CF
330
2C0A
100
AcDbEntity
  8
0
 62
     0
100
AcDbLine
 10
-200.4000000000033
 20
-474.0412548113126
 30
0.0
 11
-184.861842539909
 21
-484.3999999999986
 31
0.0
  0
LINE
  5
26D0
330
2C0A
100
AcDbEntity
  8
0
 62
     0
100
AcDbLine
 10
-200.4000000000033
 20
-471.0412882758983
 30
0.0
 11
-180.3618812460208
 21
-484.4000000000023
 31
0.0
  0
LINE
  5
26D1
330
2C0A
100
AcDbEntity
  8
0
 62
     0
100
AcDbLine
 10
-200.4000000000051
 20
-468.0413217404812
 30
0.0
 11
-175.8619199521381
 21
-484.4000000000005
 31
0.0
  0
LINE
  5
26D2
330
2C0A
100
AcDbEntity
  8
0
 62
     0
100
AcDbLine
 10
-200.4000000000033
 20
-465.0413552050657
 30
0.0
 11
-171.3619586582499
 21
-484.4000000000014
 31
0.0
  0
LINE
  5
26D3
330
2C0A
100
AcDbEntity
  8
0
 62
     0
100
AcDbLine
 10
-200.4000000000033
 20
-462.0413886696487
 30
0.0
 11
-166.8619973643635
 21
-484.4000000000014
 31
0.0
  0
LINE
  5
26D4
330
2C0A
100
AcDbEntity
  8
0
 62
     0
100
AcDbLine
 10
-200.4000000000033
 20
-459.0414221342343
 30
0.0
 11
-162.362036070479
 21
-484.4000000000033
 31
0.0
  0
LINE
  5
26D5
330
2C0A
100
AcDbEntity
  8
0
 62
     0
100
AcDbLine
 10
-200.4000000000033
 20
-456.0414555988172
 30
0.0
 11
-157.8620747765944
 21
-484.4000000000005
 31
0.0
  0
LINE
  5
26D6
330
2C0A
100
AcDbEntity
  8
0
 62
     0
100
AcDbLine
 10
-200.4000000000033
 20
-453.041489063401
 30
0.0
 11
-153.3621134827081
 21
-484.4000000000023
 31
0.0
  0
LINE
  5
26D7
330
2C0A
100
AcDbEntity
  8
0
 62
     0
100
AcDbLine
 10
-200.4000000000033
 20
-450.0415225279839
 30
0.0
 11
-148.8621521888217
 21
-484.4000000000023
 31
0.0
  0
LINE
  5
26D8
330
2C0A
100
AcDbEntity
  8
0
 62
     0
100
AcDbLine
 10
-200.4000000000051
 20
-447.0415559925686
 30
0.0
 11
-144.3621908949388
 21
-484.4000000000014
 31
0.0
  0
LINE
  5
26D9
330
2C0A
100
AcDbEntity
  8
0
 62
     0
100
AcDbLine
 10
-200.4000000000033
 20
-444.0415894571514
 30
0.0
 11
-139.8622296010524
 21
-484.4000000000014
 31
0.0
  0
LINE
  5
26DA
330
2C0A
100
AcDbEntity
  8
0
 62
     0
100
AcDbLine
 10
-200.4000000000033
 20
-441.0416229217351
 30
0.0
 11
-135.362268307168
 21
-484.3999999999986
 31
0.0
  0
LINE
  5
26DB
330
2C0A
100
AcDbEntity
  8
0
 62
     0
100
AcDbLine
 10
-200.4000000000033
 20
-438.0416563863199
 30
0.0
 11
-130.8623070132798
 21
-484.4000000000023
 31
0.0
  0
LINE
  5
26DC
330
2C0A
100
AcDbEntity
  8
0
 62
     0
100
AcDbLine
 10
-200.4000000000033
 20
-435.0416898509029
 30
0.0
 11
-126.3623457193953
 21
-484.3999999999996
 31
0.0
  0
LINE
  5
26DD
330
2C0A
100
AcDbEntity
  8
0
 62
     0
100
AcDbLine
 10
-200.4000000000015
 20
-432.0417233154876
 30
0.0
 11
-121.8623844255089
 21
-484.4000000000014
 31
0.0
  0
LINE
  5
26DE
330
2C0A
100
AcDbEntity
  8
0
 62
     0
100
AcDbLine
 10
-200.4000000000033
 20
-429.0417567800703
 30
0.0
 11
-117.3624231316262
 21
-484.3999999999996
 31
0.0
  0
LINE
  5
26DF
330
2C0A
100
AcDbEntity
  8
0
 62
     0
100
AcDbLine
 10
-200.4000000000051
 20
-426.0417902446551
 30
0.0
 11
-112.862461837738
 21
-484.4000000000023
 31
0.0
  0
LINE
  5
26E0
330
2C0A
100
AcDbEntity
  8
0
 62
     0
100
AcDbLine
 10
-200.4000000000015
 20
-423.0418237092388
 30
0.0
 11
-108.3625005438516
 21
-484.4000000000005
 31
0.0
  0
LINE
  5
26E1
330
2C0A
100
AcDbEntity
  8
0
 62
     0
100
AcDbLine
 10
-200.4000000000033
 20
-420.0418571738228
 30
0.0
 11
-103.8625392499671
 21
-484.4000000000014
 31
0.0
  0
LINE
  5
26E2
330
2C0A
100
AcDbEntity
  8
0
 62
     0
100
AcDbLine
 10
-200.4000000000051
 20
-417.0418906384056
 30
0.0
 11
-99.36257795608256
 21
-484.4000000000014
 31
0.0
  0
LINE
  5
26E3
330
2C0A
100
AcDbEntity
  8
0
 62
     0
100
AcDbLine
 10
-200.4000000000033
 20
-414.0419241029903
 30
0.0
 11
-94.86261666219791
 21
-484.4000000000014
 31
0.0
  0
LINE
  5
26E4
330
2C0A
100
AcDbEntity
  8
0
 62
     0
100
AcDbLine
 10
-200.4000000000033
 20
-411.0419575675742
 30
0.0
 11
-90.36265536831159
 21
-484.4000000000005
 31
0.0
  0
LINE
  5
26E5
330
2C0A
100
AcDbEntity
  8
0
 62
     0
100
AcDbLine
 10
-200.4000000000033
 20
-408.0419910321587
 30
0.0
 11
-85.86269407442886
 21
-484.4000000000005
 31
0.0
  0
LINE
  5
26E6
330
2C0A
100
AcDbEntity
  8
0
 62
     0
100
AcDbLine
 10
-200.4000000000033
 20
-405.0420244967416
 30
0.0
 11
-81.36273278053886
 21
-484.4000000000023
 31
0.0
  0
LINE
  5
26E7
330
2C0A
100
AcDbEntity
  8
0
 62
     0
100
AcDbLine
 10
-200.4000000000015
 20
-402.0420579613245
 30
0.0
 11
-76.86277148665431
 21
-484.3999999999996
 31
0.0
  0
LINE
  5
26E8
330
2C0A
100
AcDbEntity
  8
0
 62
     0
100
AcDbLine
 10
-200.4000000000033
 20
-399.0420914259093
 30
0.0
 11
-72.36281019276974
 21
-484.4000000000014
 31
0.0
  0
LINE
  5
26E9
330
2C0A
100
AcDbEntity
  8
0
 62
     0
100
AcDbLine
 10
-200.4000000000033
 20
-396.0421248904932
 30
0.0
 11
-67.86284889888702
 21
-484.3999999999986
 31
0.0
  0
LINE
  5
26EA
330
2C0A
100
AcDbEntity
  8
0
 62
     0
100
AcDbLine
 10
-200.4000000000033
 20
-393.0421583550769
 30
0.0
 11
-63.36288760499702
 21
-484.4000000000023
 31
0.0
  0
LINE
  5
26EB
330
2C0A
100
AcDbEntity
  8
0
 62
     0
100
AcDbLine
 10
-200.4000000000033
 20
-390.0421918196598
 30
0.0
 11
-58.86292631111246
 21
-484.3999999999996
 31
0.0
  0
LINE
  5
26EC
330
2C0A
100
AcDbEntity
  8
0
 62
     0
100
AcDbLine
 10
-200.4000000000033
 20
-387.0422252842445
 30
0.0
 11
-54.36296501722789
 21
-484.4000000000014
 31
0.0
  0
LINE
  5
26ED
330
2C0A
100
AcDbEntity
  8
0
 62
     0
100
AcDbLine
 10
-200.4000000000033
 20
-384.0422587488274
 30
0.0
 11
-49.86300372334335
 21
-484.3999999999996
 31
0.0
  0
LINE
  5
26EE
330
2C0A
100
AcDbEntity
  8
0
 62
     0
100
AcDbLine
 10
-200.4000000000015
 20
-381.0422922134121
 30
0.0
 11
-45.36304242945334
 21
-484.4000000000023
 31
0.0
  0
LINE
  5
26EF
330
2C0A
100
AcDbEntity
  8
0
 62
     0
100
AcDbLine
 10
-200.4000000000033
 20
-378.0423256779959
 30
0.0
 11
-40.86308113557061
 21
-484.4000000000005
 31
0.0
  0
LINE
  5
26F0
330
2C0A
100
AcDbEntity
  8
0
 62
     0
100
AcDbLine
 10
-200.4000000000033
 20
-375.0423591425807
 30
0.0
 11
-36.36311984168605
 21
-484.4000000000023
 31
0.0
  0
LINE
  5
26F1
330
2C0A
100
AcDbEntity
  8
0
 62
     0
100
AcDbLine
 10
-200.4000000000033
 20
-372.0423926071635
 30
0.0
 11
-31.86315854779787
 21
-484.4000000000014
 31
0.0
  0
LINE
  5
26F2
330
2C0A
100
AcDbEntity
  8
0
 62
     0
100
AcDbLine
 10
-200.4000000000015
 20
-369.0424260717482
 30
0.0
 11
-27.36319725391513
 21
-484.4000000000014
 31
0.0
  0
LINE
  5
26F3
330
2C0A
100
AcDbEntity
  8
0
 62
     0
100
AcDbLine
 10
-200.4000000000051
 20
-366.0424595363303
 30
0.0
 11
-22.86323596002876
 21
-484.4000000000005
 31
0.0
  0
LINE
  5
26F4
330
2C0A
100
AcDbEntity
  8
0
 62
     0
100
AcDbLine
 10
-200.4000000000033
 20
-363.042493000914
 30
0.0
 11
-18.3632746661442
 21
-484.3999999999986
 31
0.0
  0
LINE
  5
26F5
330
2C0A
100
AcDbEntity
  8
0
 62
     0
100
AcDbLine
 10
-200.4000000000033
 20
-360.0425264654987
 30
0.0
 11
-13.8633133722542
 21
-484.4000000000023
 31
0.0
  0
LINE
  5
26F6
330
2C0A
100
AcDbEntity
  8
0
 62
     0
100
AcDbLine
 10
-200.4000000000033
 20
-357.0425599300815
 30
0.0
 11
-9.36335207837328
 21
-484.3999999999996
 31
0.0
  0
LINE
  5
26F7
330
2C0A
100
AcDbEntity
  8
0
 62
     0
100
AcDbLine
 10
-200.4000000000051
 20
-354.0425933946663
 30
0.0
 11
-4.863390784486909
 21
-484.4000000000014
 31
0.0
  0
LINE
  5
26F8
330
2C0A
100
AcDbEntity
  8
0
 62
     0
100
AcDbLine
 10
-200.4000000000015
 20
-351.0426268592492
 30
0.0
 11
-0.363429490600538
 21
-484.3999999999986
 31
0.0
  0
LINE
  5
26F9
330
2C0A
100
AcDbEntity
  8
0
 62
     0
100
AcDbLine
 10
-200.4000000000033
 20
-348.0426603238349
 30
0.0
 11
4.136531803287653
 21
-484.4000000000023
 31
0.0
  0
LINE
  5
26FA
330
2C0A
100
AcDbEntity
  8
0
 62
     0
100
AcDbLine
 10
-200.4000000000033
 20
-345.0426937884176
 30
0.0
 11
8.636493097168568
 21
-484.4000000000005
 31
0.0
  0
LINE
  5
26FB
330
2C0A
100
AcDbEntity
  8
0
 62
     0
100
AcDbLine
 10
-200.4000000000033
 20
-342.0427272530022
 30
0.0
 11
13.13645439105676
 21
-484.4000000000014
 31
0.0
  0
LINE
  5
26FC
330
2C0A
100
AcDbEntity
  8
0
 62
     0
100
AcDbLine
 10
-200.4000000000033
 20
-339.0427607175843
 30
0.0
 11
17.63641568494131
 21
-484.3999999999996
 31
0.0
  0
LINE
  5
26FD
330
2C0A
100
AcDbEntity
  8
0
 62
     0
100
AcDbLine
 10
-200.4000000000033
 20
-336.0427941821699
 30
0.0
 11
22.13637697882587
 21
-484.4000000000005
 31
0.0
  0
LINE
  5
26FE
330
2C0A
100
AcDbEntity
  8
0
 62
     0
100
AcDbLine
 10
-200.4000000000033
 20
-333.0428276467519
 30
0.0
 11
26.63633827271224
 21
-484.4000000000005
 31
0.0
  0
LINE
  5
26FF
330
2C0A
100
AcDbEntity
  8
0
 62
     0
100
AcDbLine
 10
-200.4000000000015
 20
-330.0428611113375
 30
0.0
 11
31.13629956659679
 21
-484.3999999999996
 31
0.0
  0
LINE
  5
2700
330
2C0A
100
AcDbEntity
  8
0
 62
     0
100
AcDbLine
 10
-200.4000000000033
 20
-327.0428945759204
 30
0.0
 11
35.63626086048497
 21
-484.4000000000014
 31
0.0
  0
LINE
  5
2701
330
2C0A
100
AcDbEntity
  8
0
 62
     0
100
AcDbLine
 10
-200.4000000000033
 20
-324.0429280405032
 30
0.0
 11
40.13622215436767
 21
-484.3999999999996
 31
0.0
  0
LINE
  5
2702
330
2C0A
100
AcDbEntity
  8
0
 62
     0
100
AcDbLine
 10
-200.4000000000033
 20
-321.042961505088
 30
0.0
 11
44.63618344825408
 21
-484.4000000000005
 31
0.0
  0
LINE
  5
2703
330
2C0A
100
AcDbEntity
  8
0
 62
     0
100
AcDbLine
 10
-200.4000000000015
 20
-318.0429949696709
 30
0.0
 11
49.13614474213864
 21
-484.3999999999986
 31
0.0
  0
LINE
  5
2704
330
2C0A
100
AcDbEntity
  8
0
 62
     0
100
AcDbLine
 10
-200.4000000000033
 20
-315.0430284342566
 30
0.0
 11
53.63610603602683
 21
-484.4000000000023
 31
0.0
  0
LINE
  5
2705
330
2C0A
100
AcDbEntity
  8
0
 62
     0
100
AcDbLine
 10
-200.4000000000033
 20
-312.0430618988385
 30
0.0
 11
58.13606732991138
 21
-484.3999999999996
 31
0.0
  0
LINE
  5
2706
330
2C0A
100
AcDbEntity
  8
0
 62
     0
100
AcDbLine
 10
-200.4000000000033
 20
-309.0430953634232
 30
0.0
 11
62.63602862379594
 21
-484.4000000000005
 31
0.0
  0
LINE
  5
2707
330
2C0A
100
AcDbEntity
  8
0
 62
     0
100
AcDbLine
 10
-200.4000000000033
 20
-306.0431288280061
 30
0.0
 11
67.13598991768049
 21
-484.3999999999986
 31
0.0
  0
LINE
  5
2708
330
2C0A
100
AcDbEntity
  8
0
 62
     0
100
AcDbLine
 10
-200.4000000000051
 20
-303.0431622925907
 30
0.0
 11
71.63595121156686
 21
-484.4000000000014
 31
0.0
  0
LINE
  5
2709
330
2C0A
100
AcDbEntity
  8
0
 62
     0
100
AcDbLine
 10
-200.4000000000015
 20
-300.0431957571745
 30
0.0
 11
76.13591250545507
 21
-484.4000000000005
 31
0.0
  0
LINE
  5
270A
330
2C0A
100
AcDbEntity
  8
0
 62
     0
100
AcDbLine
 10
-200.4000000000033
 20
-297.0432292217592
 30
0.0
 11
80.63587379933776
 21
-484.4000000000005
 31
0.0
  0
LINE
  5
270B
330
2C0A
100
AcDbEntity
  8
0
 62
     0
100
AcDbLine
 10
-200.4000000000033
 20
-294.0432626863421
 30
0.0
 11
85.13583509322234
 21
-484.3999999999996
 31
0.0
  0
LINE
  5
270C
330
2C0A
100
AcDbEntity
  8
0
 62
     0
100
AcDbLine
 10
-200.4000000000033
 20
-291.0432961509268
 30
0.0
 11
89.63579638711054
 21
-484.4000000000014
 31
0.0
  0
LINE
  5
270D
330
2C0A
100
AcDbEntity
  8
0
 62
     0
100
AcDbLine
 10
-200.4000000000015
 20
-288.0433296155096
 30
0.0
 11
94.13575768099692
 21
-484.4000000000005
 31
0.0
  0
LINE
  5
270E
330
2C0A
100
AcDbEntity
  8
0
 62
     0
100
AcDbLine
 10
-200.4000000000033
 20
-285.0433630800953
 30
0.0
 11
98.63571897487965
 21
-484.4000000000014
 31
0.0
  0
LINE
  5
270F
330
2C0A
100
AcDbEntity
  8
0
 62
     0
100
AcDbLine
 10
-200.4000000000015
 20
-282.0433965446783
 30
0.0
 11
103.1356802687696
 21
-484.4000000000014
 31
0.0
  0
LINE
  5
2710
330
2C0A
100
AcDbEntity
  8
0
 62
     0
100
AcDbLine
 10
-200.4000000000015
 20
-279.0434300092601
 30
0.0
 11
107.6356415626542
 21
-484.4000000000005
 31
0.0
  0
LINE
  5
2711
330
2C0A
100
AcDbEntity
  8
0
 62
     0
100
AcDbLine
 10
-200.4000000000033
 20
-276.0434634738449
 30
0.0
 11
112.1356028565387
 21
-484.4000000000005
 31
0.0
  0
LINE
  5
2712
330
2C0A
100
AcDbEntity
  8
0
 62
     0
100
AcDbLine
 10
-200.4000000000033
 20
-273.0434969384277
 30
0.0
 11
116.6355641504215
 21
-484.3999999999996
 31
0.0
  0
LINE
  5
2713
330
2C0A
100
AcDbEntity
  8
0
 62
     0
100
AcDbLine
 10
-200.4000000000033
 20
-270.0435304030125
 30
0.0
 11
121.1355254443096
 21
-484.4000000000014
 31
0.0
  0
LINE
  5
2714
330
2C0A
100
AcDbEntity
  8
0
 62
     0
100
AcDbLine
 10
-200.4000000000015
 20
-267.0435638675963
 30
0.0
 11
125.6354867381942
 21
-484.3999999999996
 31
0.0
  0
LINE
  5
2715
330
2C0A
100
AcDbEntity
  8
0
 62
     0
100
AcDbLine
 10
-200.4000000000033
 20
-264.043597332181
 30
0.0
 11
130.1354480320788
 21
-484.4000000000005
 31
0.0
  0
LINE
  5
2716
330
2C0A
100
AcDbEntity
  8
0
 62
     0
100
AcDbLine
 10
-200.4000000000015
 20
-261.0436307967638
 30
0.0
 11
134.6354093259633
 21
-484.3999999999986
 31
0.0
  0
LINE
  5
2717
330
2C0A
100
AcDbEntity
  8
0
 62
     0
100
AcDbLine
 10
-200.4000000000015
 20
-258.0436642613486
 30
0.0
 11
139.1353706198533
 21
-484.4000000000014
 31
0.0
  0
LINE
  5
2718
330
2C0A
100
AcDbEntity
  8
0
 62
     0
100
AcDbLine
 10
-200.4000000000015
 20
-255.0436977259316
 30
0.0
 11
143.635331913736
 21
-484.4000000000005
 31
0.0
  0
LINE
  5
2719
330
2C0A
100
AcDbEntity
  8
0
 62
     0
100
AcDbLine
 10
-200.4000000000051
 20
-252.0437311905161
 30
0.0
 11
148.1352932076206
 21
-484.4000000000005
 31
0.0
  0
LINE
  5
271A
330
2C0A
100
AcDbEntity
  8
0
 62
     0
100
AcDbLine
 10
-200.4000000000033
 20
-249.043764655099
 30
0.0
 11
152.6352545015088
 21
-484.4000000000014
 31
0.0
  0
LINE
  5
271B
330
2C0A
100
AcDbEntity
  8
0
 62
     0
100
AcDbLine
 10
-200.4000000000033
 20
-246.0437981196837
 30
0.0
 11
157.1352157953952
 21
-484.4000000000023
 31
0.0
  0
LINE
  5
271C
330
2C0A
100
AcDbEntity
  8
0
 62
     0
100
AcDbLine
 10
-200.4000000000033
 20
-243.0438315842666
 30
0.0
 11
161.6351770892779
 21
-484.4000000000005
 31
0.0
  0
LINE
  5
271D
330
2C0A
100
AcDbEntity
  8
0
 62
     0
100
AcDbLine
 10
-200.4000000000033
 20
-240.0438650488495
 30
0.0
 11
166.1351383831643
 21
-484.3999999999996
 31
0.0
  0
LINE
  5
271E
330
2C0A
100
AcDbEntity
  8
0
 62
     0
100
AcDbLine
 10
-200.4000000000015
 20
-237.0438985134351
 30
0.0
 11
170.6350996770507
 21
-484.4000000000005
 31
0.0
  0
LINE
  5
271F
330
2C0A
100
AcDbEntity
  8
0
 62
     0
100
AcDbLine
 10
-200.4000000000033
 20
-234.043931978018
 30
0.0
 11
175.1350609709352
 21
-484.3999999999996
 31
0.0
  0
LINE
  5
2720
330
2C0A
100
AcDbEntity
  8
0
 62
     0
100
AcDbLine
 10
-200.4000000000033
 20
-231.0439654426027
 30
0.0
 11
179.6350222648179
 21
-484.3999999999996
 31
0.0
  0
LINE
  5
2721
330
2C0A
100
AcDbEntity
  8
0
 62
     0
100
AcDbLine
 10
-200.4000000000015
 20
-228.0439989071856
 30
0.0
 11
184.1349835587061
 21
-484.3999999999986
 31
0.0
  0
LINE
  5
2722
330
2C0A
100
AcDbEntity
  8
0
 62
     0
100
AcDbLine
 10
-200.4000000000033
 20
-225.0440323717694
 30
0.0
 11
188.6349448525925
 21
-484.4000000000014
 31
0.0
  0
LINE
  5
2723
330
2C0A
100
AcDbEntity
  8
0
 62
     0
100
AcDbLine
 10
-200.4000000000033
 20
-222.0440658363523
 30
0.0
 11
193.1349061464771
 21
-484.3999999999996
 31
0.0
  0
LINE
  5
2724
330
2C0A
100
AcDbEntity
  8
0
 62
     0
100
AcDbLine
 10
-200.4000000000033
 20
-219.0440993009379
 30
0.0
 11
197.6348674403616
 21
-484.4000000000005
 31
0.0
  0
LINE
  5
2725
330
2C0A
100
AcDbEntity
  8
0
 62
     0
100
AcDbLine
 10
-200.4000000000015
 20
-216.0441327655208
 30
0.0
 11
200.4000000000015
 21
-483.2434504637856
 31
0.0
  0
LINE
  5
2726
330
2C0A
100
AcDbEntity
  8
0
 62
     0
100
AcDbLine
 10
-200.4000000000033
 20
-213.0441662301055
 30
0.0
 11
200.3999999999978
 21
-480.2434839283695
 31
0.0
  0
LINE
  5
2727
330
2C0A
100
AcDbEntity
  8
0
 62
     0
100
AcDbLine
 10
-200.4000000000015
 20
-210.0441996946884
 30
0.0
 11
200.4000000000015
 21
-477.2435173929543
 31
0.0
  0
LINE
  5
2728
330
2C0A
100
AcDbEntity
  8
0
 62
     0
100
AcDbLine
 10
-200.4000000000015
 20
-207.044233159273
 30
0.0
 11
200.3999999999996
 21
-474.2435508575381
 31
0.0
  0
LINE
  5
2729
330
2C0A
100
AcDbEntity
  8
0
 62
     0
100
AcDbLine
 10
-200.4000000000015
 20
-204.0442666238568
 30
0.0
 11
200.3999999999996
 21
-471.2435843221209
 31
0.0
  0
LINE
  5
272A
330
2C0A
100
AcDbEntity
  8
0
 62
     0
100
AcDbLine
 10
-200.4000000000033
 20
-201.0443000884397
 30
0.0
 11
200.3999999999978
 21
-468.2436177867039
 31
0.0
  0
LINE
  5
272B
330
2C0A
100
AcDbEntity
  8
0
 62
     0
100
AcDbLine
 10
-200.4000000000033
 20
-198.0443335530235
 30
0.0
 11
200.3999999999996
 21
-465.2436512512886
 31
0.0
  0
LINE
  5
272C
330
2C0A
100
AcDbEntity
  8
0
 62
     0
100
AcDbLine
 10
-200.4000000000033
 20
-195.0443670176064
 30
0.0
 11
200.3999999999996
 21
-462.2436847158723
 31
0.0
  0
LINE
  5
272D
330
2C0A
100
AcDbEntity
  8
0
 62
     0
100
AcDbLine
 10
-200.4000000000033
 20
-192.0444004821911
 30
0.0
 11
200.3999999999996
 21
-459.2437181804568
 31
0.0
  0
LINE
  5
272E
330
2C0A
100
AcDbEntity
  8
0
 62
     0
100
AcDbLine
 10
-200.4000000000033
 20
-189.0444339467748
 30
0.0
 11
200.3999999999996
 21
-456.2437516450398
 31
0.0
  0
LINE
  5
272F
330
2C0A
100
AcDbEntity
  8
0
 62
     0
100
AcDbLine
 10
-15.40000000000145
 20
-309.3774858100096
 30
0.0
 11
-15.36622862877812
 21
-309.4000000000006
 31
0.0
  0
LINE
  5
2730
330
2C0A
100
AcDbEntity
  8
0
 62
     0
100
AcDbLine
 10
-15.36622862877812
 20
-309.4000000000006
 30
0.0
 11
200.3999999999996
 21
-453.2437851096237
 31
0.0
  0
LINE
  5
2731
330
2C0A
100
AcDbEntity
  8
0
 62
     0
100
AcDbLine
 10
-200.4000000000015
 20
-186.0444674113596
 30
0.0
 11
-15.40000000000145
 21
-309.3774858100096
 31
0.0
  0
LINE
  5
2732
330
2C0A
100
AcDbEntity
  8
0
 62
     0
100
AcDbLine
 10
-15.40000000000327
 20
-306.3775192745925
 30
0.0
 11
-10.86626733489356
 21
-309.3999999999996
 31
0.0
  0
LINE
  5
2733
330
2C0A
100
AcDbEntity
  8
0
 62
     0
100
AcDbLine
 10
-10.86626733489356
 20
-309.3999999999996
 30
0.0
 11
200.3999999999978
 21
-450.2438185742064
 31
0.0
  0
LINE
  5
2734
330
2C0A
100
AcDbEntity
  8
0
 62
     0
100
AcDbLine
 10
-200.4000000000033
 20
-183.0445008759425
 30
0.0
 11
-15.40000000000327
 21
-306.3775192745925
 31
0.0
  0
LINE
  5
2735
330
2C0A
100
AcDbEntity
  8
0
 62
     0
100
AcDbLine
 10
-15.40000000000327
 20
-303.3775527391772
 30
0.0
 11
-6.36630604101083
 21
-309.3999999999996
 31
0.0
  0
LINE
  5
2736
330
2C0A
100
AcDbEntity
  8
0
 62
     0
100
AcDbLine
 10
-6.36630604101083
 20
-309.3999999999996
 30
0.0
 11
200.3999999999978
 21
-447.2438520387923
 31
0.0
  0
LINE
  5
2737
330
2C0A
100
AcDbEntity
  8
0
 62
     0
100
AcDbLine
 10
-200.4000000000033
 20
-180.0445343405272
 30
0.0
 11
-15.40000000000327
 21
-303.3775527391772
 31
0.0
  0
LINE
  5
2738
330
2C0A
100
AcDbEntity
  8
0
 62
     0
100
AcDbLine
 10
-15.40000000000327
 20
-300.3775862037601
 30
0.0
 11
-1.866344747124458
 21
-309.3999999999987
 31
0.0
  0
LINE
  5
2739
330
2C0A
100
AcDbEntity
  8
0
 62
     0
100
AcDbLine
 10
-1.866344747124458
 20
-309.3999999999987
 30
0.0
 11
200.3999999999978
 21
-444.2438855033751
 31
0.0
  0
LINE
  5
273A
330
2C0A
100
AcDbEntity
  8
0
 62
     0
100
AcDbLine
 10
-200.4000000000033
 20
-177.0445678051101
 30
0.0
 11
-15.40000000000327
 21
-300.3775862037601
 31
0.0
  0
LINE
  5
273B
330
2C0A
100
AcDbEntity
  8
0
 62
     0
100
AcDbLine
 10
-15.40000000000145
 20
-297.3776196683448
 30
0.0
 11
2.633616546763732
 21
-309.4000000000006
 31
0.0
  0
LINE
  5
273C
330
2C0A
100
AcDbEntity
  8
0
 62
     0
100
AcDbLine
 10
2.633616546763732
 20
-309.4000000000006
 30
0.0
 11
200.3999999999996
 21
-441.2439189679599
 31
0.0
  0
LINE
  5
273D
330
2C0A
100
AcDbEntity
  8
0
 62
     0
100
AcDbLine
 10
-200.4000000000015
 20
-174.0446012696957
 30
0.0
 11
-15.40000000000145
 21
-297.3776196683448
 31
0.0
  0
LINE
  5
273E
330
2C0A
100
AcDbEntity
  8
0
 62
     0
100
AcDbLine
 10
-15.40000000000145
 20
-294.3776531329286
 30
0.0
 11
7.133577840648285
 21
-309.4000000000006
 31
0.0
  0
LINE
  5
273F
330
2C0A
100
AcDbEntity
  8
0
 62
     0
100
AcDbLine
 10
7.133577840648285
 20
-309.4000000000006
 30
0.0
 11
200.3999999999996
 21
-438.2439524325427
 31
0.0
  0
LINE
  5
2740
330
2C0A
100
AcDbEntity
  8
0
 62
     0
100
AcDbLine
 10
-200.4000000000033
 20
-171.0446347342786
 30
0.0
 11
-15.40000000000145
 21
-294.3776531329286
 31
0.0
  0
LINE
  5
2741
330
2C0A
100
AcDbEntity
  8
0
 62
     0
100
AcDbLine
 10
-15.40000000000327
 20
-291.3776865975123
 30
0.0
 11
11.63353913453284
 21
-309.3999999999996
 31
0.0
  0
LINE
  5
2742
330
2C0A
100
AcDbEntity
  8
0
 62
     0
100
AcDbLine
 10
11.63353913453284
 20
-309.3999999999996
 30
0.0
 11
200.3999999999996
 21
-435.2439858971274
 31
0.0
  0
LINE
  5
2743
330
2C0A
100
AcDbEntity
  8
0
 62
     0
100
AcDbLine
 10
-200.4000000000015
 20
-168.0446681988632
 30
0.0
 11
-15.40000000000327
 21
-291.3776865975123
 31
0.0
  0
LINE
  5
2744
330
2C0A
100
AcDbEntity
  8
0
 62
     0
100
AcDbLine
 10
-15.40000000000145
 20
-288.3777200620952
 30
0.0
 11
16.13350042841921
 21
-309.3999999999996
 31
0.0
  0
LINE
  5
2745
330
2C0A
100
AcDbEntity
  8
0
 62
     0
100
AcDbLine
 10
16.13350042841921
 20
-309.3999999999996
 30
0.0
 11
200.4000000000015
 21
-432.2440193617111
 31
0.0
  0
LINE
  5
2746
330
2C0A
100
AcDbEntity
  8
0
 62
     0
100
AcDbLine
 10
-200.4000000000015
 20
-165.0447016634451
 30
0.0
 11
-15.40000000000145
 21
-288.3777200620952
 31
0.0
  0
LINE
  5
2747
330
2C0A
100
AcDbEntity
  8
0
 62
     0
100
AcDbLine
 10
-15.40000000000327
 20
-285.3777535266782
 30
0.0
 11
20.63346172230376
 21
-309.3999999999996
 31
0.0
  0
LINE
  5
2748
330
2C0A
100
AcDbEntity
  8
0
 62
     0
100
AcDbLine
 10
20.63346172230376
 20
-309.3999999999996
 30
0.0
 11
200.3999999999996
 21
-429.244052826294
 31
0.0
  0
LINE
  5
2749
330
2C0A
100
AcDbEntity
  8
0
 62
     0
100
AcDbLine
 10
-200.4000000000033
 20
-162.0447351280281
 30
0.0
 11
-15.40000000000327
 21
-285.3777535266782
 31
0.0
  0
LINE
  5
274A
330
2C0A
100
AcDbEntity
  8
0
 62
     0
100
AcDbLine
 10
-15.40000000000145
 20
-282.3777869912628
 30
0.0
 11
25.13342301619196
 21
-309.4000000000006
 31
0.0
  0
LINE
  5
274B
330
2C0A
100
AcDbEntity
  8
0
 62
     0
100
AcDbLine
 10
25.13342301619196
 20
-309.4000000000006
 30
0.0
 11
200.3999999999996
 21
-426.2440862908777
 31
0.0
  0
LINE
  5
274C
330
2C0A
100
AcDbEntity
  8
0
 62
     0
100
AcDbLine
 10
-200.4000000000015
 20
-159.0447685926137
 30
0.0
 11
-15.40000000000145
 21
-282.3777869912628
 31
0.0
  0
LINE
  5
274D
330
2C0A
100
AcDbEntity
  8
0
 62
     0
100
AcDbLine
 10
-15.40000000000145
 20
-279.3778204558456
 30
0.0
 11
29.63338431007651
 21
-309.3999999999987
 31
0.0
  0
LINE
  5
274E
330
2C0A
100
AcDbEntity
  8
0
 62
     0
100
AcDbLine
 10
29.63338431007651
 20
-309.3999999999987
 30
0.0
 11
200.3999999999996
 21
-423.2441197554606
 31
0.0
  0
LINE
  5
274F
330
2C0A
100
AcDbEntity
  8
0
 62
     0
100
AcDbLine
 10
-200.4000000000015
 20
-156.0448020571966
 30
0.0
 11
-15.40000000000145
 21
-279.3778204558456
 31
0.0
  0
LINE
  5
2750
330
2C0A
100
AcDbEntity
  8
0
 62
     0
100
AcDbLine
 10
-15.40000000000145
 20
-276.3778539204313
 30
0.0
 11
34.13334560396106
 21
-309.3999999999996
 31
0.0
  0
LINE
  5
2751
330
2C0A
100
AcDbEntity
  8
0
 62
     0
100
AcDbLine
 10
34.13334560396106
 20
-309.3999999999996
 30
0.0
 11
200.3999999999996
 21
-420.2441532200452
 31
0.0
  0
LINE
  5
2752
330
2C0A
100
AcDbEntity
  8
0
 62
     0
100
AcDbLine
 10
-200.4000000000015
 20
-153.0448355217813
 30
0.0
 11
-15.40000000000145
 21
-276.3778539204313
 31
0.0
  0
LINE
  5
2753
330
2C0A
100
AcDbEntity
  8
0
 62
     0
100
AcDbLine
 10
-15.40000000000327
 20
-273.3778873850143
 30
0.0
 11
38.63330689784561
 21
-309.3999999999996
 31
0.0
  0
LINE
  5
2754
330
2C0A
100
AcDbEntity
  8
0
 62
     0
100
AcDbLine
 10
38.63330689784561
 20
-309.3999999999996
 30
0.0
 11
200.3999999999978
 21
-417.2441866846282
 31
0.0
  0
LINE
  5
2755
330
2C0A
100
AcDbEntity
  8
0
 62
     0
100
AcDbLine
 10
-200.4000000000033
 20
-150.0448689863642
 30
0.0
 11
-15.40000000000327
 21
-273.3778873850143
 31
0.0
  0
LINE
  5
2756
330
2C0A
100
AcDbEntity
  8
0
 62
     0
100
AcDbLine
 10
-15.40000000000145
 20
-270.3779208495989
 30
0.0
 11
43.13326819173013
 21
-309.3999999999987
 31
0.0
  0
LINE
  5
2757
330
2C0A
100
AcDbEntity
  8
0
 62
     0
100
AcDbLine
 10
43.13326819173013
 20
-309.3999999999987
 30
0.0
 11
200.3999999999996
 21
-414.244220149214
 31
0.0
  0
LINE
  5
2758
330
2C0A
100
AcDbEntity
  8
0
 62
     0
100
AcDbLine
 10
-200.4000000000015
 20
-147.0449024509489
 30
0.0
 11
-15.40000000000145
 21
-270.3779208495989
 31
0.0
  0
LINE
  5
2759
330
2C0A
100
AcDbEntity
  8
0
 62
     0
100
AcDbLine
 10
-15.40000000000145
 20
-267.3779543141818
 30
0.0
 11
47.63322948561834
 21
-309.3999999999987
 31
0.0
  0
LINE
  5
275A
330
2C0A
100
AcDbEntity
  8
0
 62
     0
100
AcDbLine
 10
47.63322948561834
 20
-309.3999999999987
 30
0.0
 11
200.3999999999996
 21
-411.2442536137968
 31
0.0
  0
LINE
  5
275B
330
2C0A
100
AcDbEntity
  8
0
 62
     0
100
AcDbLine
 10
-200.4000000000015
 20
-144.0449359155326
 30
0.0
 11
-15.40000000000327
 21
-267.3779543141809
 31
0.0
  0
LINE
  5
275C
330
2C0A
100
AcDbEntity
  8
0
 62
     0
100
AcDbLine
 10
-15.40000000000327
 20
-264.3779877787656
 30
0.0
 11
52.1331907795029
 21
-309.4000000000006
 31
0.0
  0
LINE
  5
275D
330
2C0A
100
AcDbEntity
  8
0
 62
     0
100
AcDbLine
 10
52.1331907795029
 20
-309.4000000000006
 30
0.0
 11
200.3999999999996
 21
-408.2442870783816
 31
0.0
  0
LINE
  5
275E
330
2C0A
100
AcDbEntity
  8
0
 62
     0
100
AcDbLine
 10
-200.4000000000015
 20
-141.0449693801174
 30
0.0
 11
-15.40000000000327
 21
-264.3779877787656
 31
0.0
  0
LINE
  5
275F
330
2C0A
100
AcDbEntity
  8
0
 62
     0
100
AcDbLine
 10
-15.40000000000327
 20
-261.3780212433494
 30
0.0
 11
56.63315207338929
 21
-309.3999999999996
 31
0.0
  0
LINE
  5
2760
330
2C0A
100
AcDbEntity
  8
0
 62
     0
100
AcDbLine
 10
56.63315207338929
 20
-309.3999999999996
 30
0.0
 11
200.3999999999996
 21
-405.2443205429645
 31
0.0
  0
LINE
  5
2761
330
2C0A
100
AcDbEntity
  8
0
 62
     0
100
AcDbLine
 10
-200.4000000000033
 20
-138.0450028446994
 30
0.0
 11
-15.40000000000327
 21
-261.3780212433494
 31
0.0
  0
LINE
  5
2762
330
2C0A
100
AcDbEntity
  8
0
 62
     0
100
AcDbLine
 10
-15.40000000000145
 20
-258.3780547079341
 30
0.0
 11
61.13311336727385
 21
-309.3999999999996
 31
0.0
  0
LINE
  5
2763
330
2C0A
100
AcDbEntity
  8
0
 62
     0
100
AcDbLine
 10
61.13311336727385
 20
-309.3999999999996
 30
0.0
 11
200.4000000000015
 21
-402.2443540075489
 31
0.0
  0
LINE
  5
2764
330
2C0A
100
AcDbEntity
  8
0
 62
     0
100
AcDbLine
 10
-200.4000000000015
 20
-135.0450363092841
 30
0.0
 11
-15.40000000000145
 21
-258.3780547079341
 31
0.0
  0
LINE
  5
2765
330
2C0A
100
AcDbEntity
  8
0
 62
     0
100
AcDbLine
 10
-15.40000000000327
 20
-255.378088172517
 30
0.0
 11
65.63307466116021
 21
-309.3999999999996
 31
0.0
  0
LINE
  5
2766
330
2C0A
100
AcDbEntity
  8
0
 62
     0
100
AcDbLine
 10
65.63307466116021
 20
-309.3999999999996
 30
0.0
 11
200.3999999999978
 21
-399.244387472132
 31
0.0
  0
LINE
  5
2767
330
2C0A
100
AcDbEntity
  8
0
 62
     0
100
AcDbLine
 10
-200.4000000000033
 20
-132.045069773867
 30
0.0
 11
-15.40000000000327
 21
-255.378088172517
 31
0.0
  0
LINE
  5
2768
330
2C0A
100
AcDbEntity
  8
0
 62
     0
100
AcDbLine
 10
-15.40000000000327
 20
-252.3781216371017
 30
0.0
 11
70.13303595504476
 21
-309.4000000000006
 31
0.0
  0
LINE
  5
2769
330
2C0A
100
AcDbEntity
  8
0
 62
     0
100
AcDbLine
 10
70.13303595504476
 20
-309.4000000000006
 30
0.0
 11
200.3999999999978
 21
-396.2444209367168
 31
0.0
  0
LINE
  5
276A
330
2C0A
100
AcDbEntity
  8
0
 62
     0
100
AcDbLine
 10
-200.4000000000033
 20
-129.0451032384517
 30
0.0
 11
-15.40000000000327
 21
-252.3781216371017
 31
0.0
  0
LINE
  5
276B
330
2C0A
100
AcDbEntity
  8
0
 62
     0
100
AcDbLine
 10
-15.40000000000327
 20
-249.3781551016846
 30
0.0
 11
74.63299724892931
 21
-309.3999999999996
 31
0.0
  0
LINE
  5
276C
330
2C0A
100
AcDbEntity
  8
0
 62
     0
100
AcDbLine
 10
74.63299724892931
 20
-309.3999999999996
 30
0.0
 11
200.3999999999978
 21
-393.2444544012997
 31
0.0
  0
LINE
  5
276D
330
2C0A
100
AcDbEntity
  8
0
 62
     0
100
AcDbLine
 10
-200.4000000000033
 20
-126.0451367030355
 30
0.0
 11
-15.40000000000327
 21
-249.3781551016846
 31
0.0
  0
LINE
  5
276E
330
2C0A
100
AcDbEntity
  8
0
 62
     0
100
AcDbLine
 10
-15.40000000000145
 20
-246.3781885662684
 30
0.0
 11
79.13295854281568
 21
-309.3999999999978
 31
0.0
  0
LINE
  5
276F
330
2C0A
100
AcDbEntity
  8
0
 62
     0
100
AcDbLine
 10
79.13295854281568
 20
-309.3999999999978
 30
0.0
 11
200.3999999999996
 21
-390.2444878658826
 31
0.0
  0
LINE
  5
2770
330
2C0A
100
AcDbEntity
  8
0
 62
     0
100
AcDbLine
 10
-200.4000000000015
 20
-123.0451701676184
 30
0.0
 11
-15.40000000000327
 21
-246.3781885662665
 31
0.0
  0
LINE
  5
2771
330
2C0A
100
AcDbEntity
  8
0
 62
     0
100
AcDbLine
 10
-15.40000000000327
 20
-243.3782220308531
 30
0.0
 11
83.63291983670022
 21
-309.3999999999987
 31
0.0
  0
LINE
  5
2772
330
2C0A
100
AcDbEntity
  8
0
 62
     0
100
AcDbLine
 10
83.63291983670022
 20
-309.3999999999987
 30
0.0
 11
200.3999999999978
 21
-387.2445213304672
 31
0.0
  0
LINE
  5
2773
330
2C0A
100
AcDbEntity
  8
0
 62
     0
100
AcDbLine
 10
-200.4000000000033
 20
-120.0452036322031
 30
0.0
 11
-15.40000000000327
 21
-243.3782220308521
 31
0.0
  0
LINE
  5
2774
330
2C0A
100
AcDbEntity
  8
0
 62
     0
100
AcDbLine
 10
-15.40000000000145
 20
-240.3782554954358
 30
0.0
 11
88.13288113058845
 21
-309.3999999999996
 31
0.0
  0
LINE
  5
2775
330
2C0A
100
AcDbEntity
  8
0
 62
     0
100
AcDbLine
 10
88.13288113058845
 20
-309.3999999999996
 30
0.0
 11
200.3999999999996
 21
-384.244554795051
 31
0.0
  0
LINE
  5
2776
330
2C0A
100
AcDbEntity
  8
0
 62
     0
100
AcDbLine
 10
-200.4000000000015
 20
-117.045237096786
 30
0.0
 11
-15.40000000000327
 21
-240.3782554954351
 31
0.0
  0
LINE
  5
2777
330
2C0A
100
AcDbEntity
  8
0
 62
     0
100
AcDbLine
 10
-15.40000000000145
 20
-237.3782889600197
 30
0.0
 11
92.63284242447298
 21
-309.3999999999996
 31
0.0
  0
LINE
  5
2778
330
2C0A
100
AcDbEntity
  8
0
 62
     0
100
AcDbLine
 10
92.63284242447298
 20
-309.3999999999996
 30
0.0
 11
200.4000000000015
 21
-381.2445882596358
 31
0.0
  0
LINE
  5
2779
330
2C0A
100
AcDbEntity
  8
0
 62
     0
100
AcDbLine
 10
-198.0678998869825
 20
-115.5999999999994
 30
0.0
 11
-15.40000000000145
 21
-237.3782889600197
 31
0.0
  0
LINE
  5
277A
330
2C0A
100
AcDbEntity
  8
0
 62
     0
100
AcDbLine
 10
-15.40000000000327
 20
-234.3783224246026
 30
0.0
 11
97.13280371835752
 21
-309.3999999999987
 31
0.0
  0
LINE
  5
277B
330
2C0A
100
AcDbEntity
  8
0
 62
     0
100
AcDbLine
 10
97.13280371835752
 20
-309.3999999999987
 30
0.0
 11
200.3999999999996
 21
-378.2446217242186
 31
0.0
  0
LINE
  5
277C
330
2C0A
100
AcDbEntity
  8
0
 62
     0
100
AcDbLine
 10
-193.567938593098
 20
-115.5999999999994
 30
0.0
 11
-15.40000000000327
 21
-234.3783224246026
 31
0.0
  0
LINE
  5
277D
330
2C0A
100
AcDbEntity
  8
0
 62
     0
100
AcDbLine
 10
-15.40000000000327
 20
-231.3783558891874
 30
0.0
 11
101.6327650122438
 21
-309.4000000000006
 31
0.0
  0
LINE
  5
277E
330
2C0A
100
AcDbEntity
  8
0
 62
     0
100
AcDbLine
 10
101.6327650122438
 20
-309.4000000000006
 30
0.0
 11
200.3999999999996
 21
-375.2446551888033
 31
0.0
  0
LINE
  5
277F
330
2C0A
100
AcDbEntity
  8
0
 62
     0
100
AcDbLine
 10
-189.0679772992116
 20
-115.6000000000013
 30
0.0
 11
-15.40000000000327
 21
-231.3783558891874
 31
0.0
  0
LINE
  5
2780
330
2C0A
100
AcDbEntity
  8
0
 62
     0
100
AcDbLine
 10
-15.40000000000145
 20
-228.3783893537711
 30
0.0
 11
106.1327263061321
 21
-309.3999999999996
 31
0.0
  0
LINE
  5
2781
330
2C0A
100
AcDbEntity
  8
0
 62
     0
100
AcDbLine
 10
106.1327263061321
 20
-309.3999999999996
 30
0.0
 11
200.3999999999996
 21
-372.2446886533853
 31
0.0
  0
LINE
  5
2782
330
2C0A
100
AcDbEntity
  8
0
 62
     0
100
AcDbLine
 10
-184.5680160053271
 20
-115.5999999999985
 30
0.0
 11
-15.40000000000145
 21
-228.3783893537711
 31
0.0
  0
LINE
  5
2783
330
2C0A
100
AcDbEntity
  8
0
 62
     0
100
AcDbLine
 10
-15.40000000000145
 20
-225.3784228183558
 30
0.0
 11
110.6326876000148
 21
-309.4000000000006
 31
0.0
  0
LINE
  5
2784
330
2C0A
100
AcDbEntity
  8
0
 62
     0
100
AcDbLine
 10
110.6326876000148
 20
-309.4000000000006
 30
0.0
 11
200.3999999999996
 21
-369.2447221179699
 31
0.0
  0
LINE
  5
2785
330
2C0A
100
AcDbEntity
  8
0
 62
     0
100
AcDbLine
 10
-180.0680547114407
 20
-115.6000000000003
 30
0.0
 11
-15.40000000000145
 21
-225.3784228183558
 31
0.0
  0
LINE
  5
2786
330
2C0A
100
AcDbEntity
  8
0
 62
     0
100
AcDbLine
 10
-15.40000000000327
 20
-222.3784562829387
 30
0.0
 11
115.1326488938994
 21
-309.3999999999987
 31
0.0
  0
LINE
  5
2787
330
2C0A
100
AcDbEntity
  8
0
 62
     0
100
AcDbLine
 10
115.1326488938994
 20
-309.3999999999987
 30
0.0
 11
200.3999999999978
 21
-366.2447555825538
 31
0.0
  0
LINE
  5
2788
330
2C0A
100
AcDbEntity
  8
0
 62
     0
100
AcDbLine
 10
-175.568093417556
 20
-115.6000000000003
 30
0.0
 11
-15.40000000000509
 21
-222.3784562829378
 31
0.0
  0
LINE
  5
2789
330
2C0A
100
AcDbEntity
  8
0
 62
     0
100
AcDbLine
 10
-15.40000000000145
 20
-219.3784897475234
 30
0.0
 11
119.6326101877857
 21
-309.4000000000006
 31
0.0
  0
LINE
  5
278A
330
2C0A
100
AcDbEntity
  8
0
 62
     0
100
AcDbLine
 10
119.6326101877857
 20
-309.4000000000006
 30
0.0
 11
200.3999999999996
 21
-363.2447890471385
 31
0.0
  0
LINE
  5
278B
330
2C0A
100
AcDbEntity
  8
0
 62
     0
100
AcDbLine
 10
-171.0681321236716
 20
-115.5999999999994
 30
0.0
 11
-15.40000000000327
 21
-219.3784897475225
 31
0.0
  0
LINE
  5
278C
330
2C0A
100
AcDbEntity
  8
0
 62
     0
100
AcDbLine
 10
-15.40000000000145
 20
-216.3785232121063
 30
0.0
 11
124.1325714816721
 21
-309.3999999999987
 31
0.0
  0
LINE
  5
278D
330
2C0A
100
AcDbEntity
  8
0
 62
     0
100
AcDbLine
 10
124.1325714816721
 20
-309.3999999999987
 30
0.0
 11
200.3999999999996
 21
-360.2448225117214
 31
0.0
  0
LINE
  5
278E
330
2C0A
100
AcDbEntity
  8
0
 62
     0
100
AcDbLine
 10
-166.5681708297816
 20
-115.6000000000013
 30
0.0
 11
-15.40000000000327
 21
-216.3785232121054
 31
0.0
  0
LINE
  5
278F
330
2C0A
100
AcDbEntity
  8
0
 62
     0
100
AcDbLine
 10
-15.40000000000145
 20
-213.3785566766919
 30
0.0
 11
128.6325327755567
 21
-309.3999999999996
 31
0.0
  0
LINE
  5
2790
330
2C0A
100
AcDbEntity
  8
0
 62
     0
100
AcDbLine
 10
128.6325327755567
 20
-309.3999999999996
 30
0.0
 11
200.3999999999996
 21
-357.2448559763062
 31
0.0
  0
LINE
  5
2791
330
2C0A
100
AcDbEntity
  8
0
 62
     0
100
AcDbLine
 10
-162.0682095358988
 20
-115.6000000000003
 30
0.0
 11
-15.40000000000327
 21
-213.378556676691
 31
0.0
  0
LINE
  5
2792
330
2C0A
100
AcDbEntity
  8
0
 62
     0
100
AcDbLine
 10
-15.40000000000327
 20
-210.3785901412739
 30
0.0
 11
133.1324940694412
 21
-309.3999999999978
 31
0.0
  0
LINE
  5
2793
330
2C0A
100
AcDbEntity
  8
0
 62
     0
100
AcDbLine
 10
133.1324940694412
 20
-309.3999999999978
 30
0.0
 11
200.3999999999996
 21
-354.2448894408889
 31
0.0
  0
LINE
  5
2794
330
2C0A
100
AcDbEntity
  8
0
 62
     0
100
AcDbLine
 10
-157.5682482420124
 20
-115.6000000000003
 30
0.0
 11
-15.40000000000509
 21
-210.3785901412721
 31
0.0
  0
LINE
  5
2795
330
2C0A
100
AcDbEntity
  8
0
 62
     0
100
AcDbLine
 10
-15.40000000000145
 20
-207.3786236058586
 30
0.0
 11
137.6324553633294
 21
-309.4000000000006
 31
0.0
  0
LINE
  5
2796
330
2C0A
100
AcDbEntity
  8
0
 62
     0
100
AcDbLine
 10
137.6324553633294
 20
-309.4000000000006
 30
0.0
 11
200.4000000000015
 21
-351.2449229054746
 31
0.0
  0
LINE
  5
2797
330
2C0A
100
AcDbEntity
  8
0
 62
     0
100
AcDbLine
 10
-153.0682869481279
 20
-115.5999999999994
 30
0.0
 11
-15.40000000000509
 21
-207.3786236058568
 31
0.0
  0
LINE
  5
2798
330
2C0A
100
AcDbEntity
  8
0
 62
     0
100
AcDbLine
 10
-15.40000000000327
 20
-204.3786570704415
 30
0.0
 11
142.132416657214
 21
-309.3999999999996
 31
0.0
  0
LINE
  5
2799
330
2C0A
100
AcDbEntity
  8
0
 62
     0
100
AcDbLine
 10
142.132416657214
 20
-309.3999999999996
 30
0.0
 11
200.3999999999996
 21
-348.2449563700575
 31
0.0
  0
LINE
  5
279A
330
2C0A
100
AcDbEntity
  8
0
 62
     0
100
AcDbLine
 10
-148.5683256542397
 20
-115.6000000000013
 30
0.0
 11
-15.40000000000509
 21
-204.3786570704396
 31
0.0
  0
LINE
  5
279B
330
2C0A
100
AcDbEntity
  8
0
 62
     0
100
AcDbLine
 10
-15.40000000000327
 20
-201.3786905350244
 30
0.0
 11
146.6323779510967
 21
-309.3999999999978
 31
0.0
  0
LINE
  5
279C
330
2C0A
100
AcDbEntity
  8
0
 62
     0
100
AcDbLine
 10
146.6323779510967
 20
-309.3999999999978
 30
0.0
 11
200.3999999999978
 21
-345.2449898346395
 31
0.0
  0
LINE
  5
279D
330
2C0A
100
AcDbEntity
  8
0
 62
     0
100
AcDbLine
 10
-144.068364360357
 20
-115.5999999999994
 30
0.0
 11
-15.40000000000691
 21
-201.3786905350225
 31
0.0
  0
LINE
  5
279E
330
2C0A
100
AcDbEntity
  8
0
 62
     0
100
AcDbLine
 10
-15.40000000000327
 20
-198.37872399961
 30
0.0
 11
151.1323392449831
 21
-309.3999999999987
 31
0.0
  0
LINE
  5
279F
330
2C0A
100
AcDbEntity
  8
0
 62
     0
100
AcDbLine
 10
151.1323392449867
 20
-309.4000000000006
 30
0.0
 11
200.3999999999978
 21
-342.2450232992241
 31
0.0
  0
LINE
  5
27A0
330
2C0A
100
AcDbEntity
  8
0
 62
     0
100
AcDbLine
 10
-139.5684030664706
 20
-115.6000000000003
 30
0.0
 11
-15.40000000000509
 21
-198.3787239996072
 31
0.0
  0
LINE
  5
27A1
330
2C0A
100
AcDbEntity
  8
0
 62
     0
100
AcDbLine
 10
-15.40000000000145
 20
-195.3787574641928
 30
0.0
 11
155.6323005388712
 21
-309.3999999999996
 31
0.0
  0
LINE
  5
27A2
330
2C0A
100
AcDbEntity
  8
0
 62
     0
100
AcDbLine
 10
155.6323005388712
 20
-309.3999999999996
 30
0.0
 11
200.3999999999996
 21
-339.2450567638069
 31
0.0
  0
LINE
  5
27A3
330
2C0A
100
AcDbEntity
  8
0
 62
     0
100
AcDbLine
 10
-135.0684417725842
 20
-115.6000000000003
 30
0.0
 11
-15.40000000000691
 21
-195.3787574641892
 31
0.0
  0
LINE
  5
27A4
330
2C0A
100
AcDbEntity
  8
0
 62
     0
100
AcDbLine
 10
-15.40000000000327
 20
-192.3787909287775
 30
0.0
 11
160.1322618327558
 21
-309.3999999999996
 31
0.0
  0
LINE
  5
27A5
330
2C0A
100
AcDbEntity
  8
0
 62
     0
100
AcDbLine
 10
160.1322618327558
 20
-309.3999999999996
 30
0.0
 11
200.3999999999978
 21
-336.2450902283928
 31
0.0
  0
LINE
  5
27A6
330
2C0A
100
AcDbEntity
  8
0
 62
     0
100
AcDbLine
 10
-130.5684804787015
 20
-115.6000000000003
 30
0.0
 11
-15.40000000000691
 21
-192.3787909287748
 31
0.0
  0
LINE
  5
27A7
330
2C0A
100
AcDbEntity
  8
0
 62
     0
100
AcDbLine
 10
-15.40000000000327
 20
-189.3788243933595
 30
0.0
 11
164.6322231266404
 21
-309.3999999999987
 31
0.0
  0
LINE
  5
27A8
330
2C0A
100
AcDbEntity
  8
0
 62
     0
100
AcDbLine
 10
164.6322231266404
 20
-309.3999999999987
 30
0.0
 11
200.3999999999996
 21
-333.2451236929756
 31
0.0
  0
LINE
  5
27A9
330
2C0A
100
AcDbEntity
  8
0
 62
     0
100
AcDbLine
 10
-126.0685191848132
 20
-115.5999999999994
 30
0.0
 11
-15.40000000000691
 21
-189.3788243933577
 31
0.0
  0
LINE
  5
27AA
330
2C0A
100
AcDbEntity
  8
0
 62
     0
100
AcDbLine
 10
-15.40000000000145
 20
-186.3788578579451
 30
0.0
 11
169.1321844205304
 21
-309.4000000000014
 31
0.0
  0
LINE
  5
27AB
330
2C0A
100
AcDbEntity
  8
0
 62
     0
100
AcDbLine
 10
169.1321844205304
 20
-309.4000000000014
 30
0.0
 11
200.3999999999996
 21
-330.2451571575602
 31
0.0
  0
LINE
  5
27AC
330
2C0A
100
AcDbEntity
  8
0
 62
     0
100
AcDbLine
 10
-121.5685578909306
 20
-115.5999999999994
 30
0.0
 11
-15.40000000000509
 21
-186.3788578579424
 31
0.0
  0
LINE
  5
27AD
330
2C0A
100
AcDbEntity
  8
0
 62
     0
100
AcDbLine
 10
-15.40000000000327
 20
-183.3788913225271
 30
0.0
 11
173.6321457144131
 21
-309.3999999999996
 31
0.0
  0
LINE
  5
27AE
330
2C0A
100
AcDbEntity
  8
0
 62
     0
100
AcDbLine
 10
173.6321457144131
 20
-309.3999999999996
 30
0.0
 11
200.3999999999996
 21
-327.2451906221432
 31
0.0
  0
LINE
  5
27AF
330
2C0A
100
AcDbEntity
  8
0
 62
     0
100
AcDbLine
 10
-117.0685965970424
 20
-115.6000000000003
 30
0.0
 11
-15.40000000000691
 21
-183.3788913225253
 31
0.0
  0
LINE
  5
27B0
330
2C0A
100
AcDbEntity
  8
0
 62
     0
100
AcDbLine
 10
-15.40000000000327
 20
-180.3789247871127
 30
0.0
 11
178.1321070082977
 21
-309.4000000000006
 31
0.0
  0
LINE
  5
27B1
330
2C0A
100
AcDbEntity
  8
0
 62
     0
100
AcDbLine
 10
178.1321070082977
 20
-309.4000000000006
 30
0.0
 11
200.3999999999978
 21
-324.2452240867278
 31
0.0
  0
LINE
  5
27B2
330
2C0A
100
AcDbEntity
  8
0
 62
     0
100
AcDbLine
 10
-112.5686353031597
 20
-115.6000000000003
 30
0.0
 11
-15.40000000000691
 21
-180.3789247871099
 31
0.0
  0
LINE
  5
27B3
330
2C0A
100
AcDbEntity
  8
0
 62
     0
100
AcDbLine
 10
-15.40000000000327
 20
-177.3789582516956
 30
0.0
 11
182.6320683021822
 21
-309.3999999999987
 31
0.0
  0
LINE
  5
27B4
330
2C0A
100
AcDbEntity
  8
0
 62
     0
100
AcDbLine
 10
182.632068302184
 20
-309.3999999999996
 30
0.0
 11
200.3999999999996
 21
-321.2452575513116
 31
0.0
  0
LINE
  5
27B5
330
2C0A
100
AcDbEntity
  8
0
 62
     0
100
AcDbLine
 10
-108.0686740092715
 20
-115.6000000000003
 30
0.0
 11
-15.40000000000509
 21
-177.3789582516938
 31
0.0
  0
LINE
  5
27B6
330
2C0A
100
AcDbEntity
  8
0
 62
     0
100
AcDbLine
 10
-15.40000000000145
 20
-174.3789917162803
 30
0.0
 11
187.1320295960704
 21
-309.4000000000006
 31
0.0
  0
LINE
  5
27B7
330
2C0A
100
AcDbEntity
  8
0
 62
     0
100
AcDbLine
 10
187.1320295960704
 20
-309.4000000000006
 30
0.0
 11
200.3999999999996
 21
-318.2452910158954
 31
0.0
  0
LINE
  5
27B8
330
2C0A
100
AcDbEntity
  8
0
 62
     0
100
AcDbLine
 10
-103.5687127153851
 20
-115.6000000000013
 30
0.0
 11
-15.40000000000691
 21
-174.3789917162775
 31
0.0
  0
LINE
  5
27B9
330
2C0A
100
AcDbEntity
  8
0
 62
     0
100
AcDbLine
 10
-15.40000000000327
 20
-171.3790251808632
 30
0.0
 11
191.6319908899531
 21
-309.3999999999987
 31
0.0
  0
LINE
  5
27BA
330
2C0A
100
AcDbEntity
  8
0
 62
     0
100
AcDbLine
 10
191.6319908899531
 20
-309.3999999999987
 30
0.0
 11
200.3999999999978
 21
-315.2453244804783
 31
0.0
  0
LINE
  5
27BB
330
2C0A
100
AcDbEntity
  8
0
 62
     0
100
AcDbLine
 10
-99.06875142150056
 20
-115.6000000000013
 30
0.0
 11
-15.40000000000691
 21
-171.3790251808605
 31
0.0
  0
LINE
  5
27BC
330
2C0A
100
AcDbEntity
  8
0
 62
     0
100
AcDbLine
 10
-15.40000000000145
 20
-168.3790586454479
 30
0.0
 11
196.1319521838395
 21
-309.3999999999996
 31
0.0
  0
LINE
  5
27BD
330
2C0A
100
AcDbEntity
  8
0
 62
     0
100
AcDbLine
 10
196.1319521838395
 20
-309.3999999999996
 30
0.0
 11
200.3999999999996
 21
-312.245357945063
 31
0.0
  0
LINE
  5
27BE
330
2C0A
100
AcDbEntity
  8
0
 62
     0
100
AcDbLine
 10
-94.56879012761602
 20
-115.6000000000003
 30
0.0
 11
-15.40000000000691
 21
-168.3790586454452
 31
0.0
  0
LINE
  5
27BF
330
2C0A
100
AcDbEntity
  8
0
 62
     0
100
AcDbLine
 10
-15.40000000000145
 20
-165.3790921100317
 30
0.0
 11
200.3999999999978
 21
-309.2453914096449
 31
0.0
  0
LINE
  5
27C0
330
2C0A
100
AcDbEntity
  8
0
 62
     0
100
AcDbLine
 10
-90.06882883372782
 20
-115.6000000000003
 30
0.0
 11
-15.40000000000509
 21
-165.3790921100281
 31
0.0
  0
LINE
  5
27C1
330
2C0A
100
AcDbEntity
  8
0
 62
     0
100
AcDbLine
 10
-15.40000000000327
 20
-162.3791255746137
 30
0.0
 11
200.399999999996
 21
-306.245424874227
 31
0.0
  0
LINE
  5
27C2
330
2C0A
100
AcDbEntity
  8
0
 62
     0
100
AcDbLine
 10
-85.56886753984327
 20
-115.6000000000003
 30
0.0
 11
-15.40000000000691
 21
-162.3791255746118
 31
0.0
  0
LINE
  5
27C3
330
2C0A
100
AcDbEntity
  8
0
 62
     0
100
AcDbLine
 10
-15.40000000000509
 20
-159.3791590391984
 30
0.0
 11
200.399999999996
 21
-303.2454583388116
 31
0.0
  0
LINE
  5
27C4
330
2C0A
100
AcDbEntity
  8
0
 62
     0
100
AcDbLine
 10
-81.0689062459587
 20
-115.6000000000013
 30
0.0
 11
-15.40000000000691
 21
-159.3791590391965
 31
0.0
  0
LINE
  5
27C5
330
2C0A
100
AcDbEntity
  8
0
 62
     0
100
AcDbLine
 10
-15.40000000000145
 20
-156.3791925037812
 30
0.0
 11
200.3999999999978
 21
-300.2454918033955
 31
0.0
  0
LINE
  5
27C6
330
2C0A
100
AcDbEntity
  8
0
 62
     0
100
AcDbLine
 10
-76.56894495207234
 20
-115.5999999999994
 30
0.0
 11
-15.40000000000509
 21
-156.3791925037794
 31
0.0
  0
LINE
  5
27C7
330
2C0A
100
AcDbEntity
  8
0
 62
     0
100
AcDbLine
 10
-15.40000000000327
 20
-153.3792259683659
 30
0.0
 11
200.3999999999978
 21
-297.2455252679802
 31
0.0
  0
LINE
  5
27C8
330
2C0A
100
AcDbEntity
  8
0
 62
     0
100
AcDbLine
 10
-72.0689836581878
 20
-115.6000000000003
 30
0.0
 11
-15.40000000000691
 21
-153.3792259683632
 31
0.0
  0
LINE
  5
27C9
330
2C0A
100
AcDbEntity
  8
0
 62
     0
100
AcDbLine
 10
-15.40000000000327
 20
-150.3792594329497
 30
0.0
 11
200.399999999996
 21
-294.2455587325629
 31
0.0
  0
LINE
  5
27CA
330
2C0A
100
AcDbEntity
  8
0
 62
     0
100
AcDbLine
 10
-67.56902236430142
 20
-115.6000000000003
 30
0.0
 11
-15.40000000000872
 21
-150.3792594329461
 31
0.0
  0
LINE
  5
27CB
330
2C0A
100
AcDbEntity
  8
0
 62
     0
100
AcDbLine
 10
-15.40000000000327
 20
-147.3792928975344
 30
0.0
 11
200.3999999999978
 21
-291.2455921971477
 31
0.0
  0
LINE
  5
27CC
330
2C0A
100
AcDbEntity
  8
0
 62
     0
100
AcDbLine
 10
-63.06906107041687
 20
-115.6000000000003
 30
0.0
 11
-15.40000000000691
 21
-147.3792928975308
 31
0.0
  0
LINE
  5
27CD
330
2C0A
100
AcDbEntity
  8
0
 62
     0
100
AcDbLine
 10
-15.40000000000145
 20
-144.3793263621173
 30
0.0
 11
200.3999999999978
 21
-288.2456256617306
 31
0.0
  0
LINE
  5
27CE
330
2C0A
100
AcDbEntity
  8
0
 62
     0
100
AcDbLine
 10
-58.56909977653049
 20
-115.5999999999994
 30
0.0
 11
-15.40000000000691
 21
-144.3793263621146
 31
0.0
  0
LINE
  5
27CF
330
2C0A
100
AcDbEntity
  8
0
 62
     0
100
AcDbLine
 10
-15.40000000000327
 20
-141.379359826702
 30
0.0
 11
200.3999999999978
 21
-285.2456591263162
 31
0.0
  0
LINE
  5
27D0
330
2C0A
100
AcDbEntity
  8
0
 62
     0
100
AcDbLine
 10
-54.06913848264593
 20
-115.6000000000013
 30
0.0
 11
-15.40000000000691
 21
-141.3793598266993
 31
0.0
  0
LINE
  5
27D1
330
2C0A
100
AcDbEntity
  8
0
 62
     0
100
AcDbLine
 10
-15.40000000000145
 20
-138.3793932912849
 30
0.0
 11
200.3999999999978
 21
-282.2456925908992
 31
0.0
  0
LINE
  5
27D2
330
2C0A
100
AcDbEntity
  8
0
 62
     0
100
AcDbLine
 10
-49.56917718875775
 20
-115.6000000000013
 30
0.0
 11
-15.40000000000691
 21
-138.3793932912822
 31
0.0
  0
LINE
  5
27D3
330
2C0A
100
AcDbEntity
  8
0
 62
     0
100
AcDbLine
 10
-15.40000000000145
 20
-135.3794267558687
 30
0.0
 11
200.3999999999978
 21
-279.2457260554829
 31
0.0
  0
LINE
  5
27D4
330
2C0A
100
AcDbEntity
  8
0
 62
     0
100
AcDbLine
 10
-45.06921589487318
 20
-115.6000000000003
 30
0.0
 11
-15.40000000000509
 21
-135.3794267558668
 31
0.0
  0
LINE
  5
27D5
330
2C0A
100
AcDbEntity
  8
0
 62
     0
100
AcDbLine
 10
-15.40000000000327
 20
-132.3794602204525
 30
0.0
 11
200.399999999996
 21
-276.2457595200658
 31
0.0
  0
LINE
  5
27D6
330
2C0A
100
AcDbEntity
  8
0
 62
     0
100
AcDbLine
 10
-40.569254600985
 20
-115.6000000000022
 30
0.0
 11
-15.40000000000691
 21
-132.3794602204498
 31
0.0
  0
LINE
  5
27D7
330
2C0A
100
AcDbEntity
  8
0
 62
     0
100
AcDbLine
 10
-15.40000000000327
 20
-129.3794936850372
 30
0.0
 11
200.399999999996
 21
-273.2457929846504
 31
0.0
  0
LINE
  5
27D8
330
2C0A
100
AcDbEntity
  8
0
 62
     0
100
AcDbLine
 10
-36.06929330710409
 20
-115.6000000000013
 30
0.0
 11
-15.40000000000691
 21
-129.3794936850354
 31
0.0
  0
LINE
  5
27D9
330
2C0A
100
AcDbEntity
  8
0
 62
     0
100
AcDbLine
 10
-15.40000000000327
 20
-126.3795271496201
 30
0.0
 11
200.399999999996
 21
-270.2458264492343
 31
0.0
  0
LINE
  5
27DA
330
2C0A
100
AcDbEntity
  8
0
 62
     0
100
AcDbLine
 10
-31.5693320132159
 20
-115.6000000000013
 30
0.0
 11
-15.40000000000691
 21
-126.3795271496174
 31
0.0
  0
LINE
  5
27DB
330
2C0A
100
AcDbEntity
  8
0
 62
     0
100
AcDbLine
 10
-15.40000000000145
 20
-123.379560614203
 30
0.0
 11
200.3999999999978
 21
-267.2458599138172
 31
0.0
  0
LINE
  5
27DC
330
2C0A
100
AcDbEntity
  8
0
 62
     0
100
AcDbLine
 10
-27.06937071932954
 20
-115.6000000000013
 30
0.0
 11
-15.40000000000691
 21
-123.3795606142003
 31
0.0
  0
LINE
  5
27DD
330
2C0A
100
AcDbEntity
  8
0
 62
     0
100
AcDbLine
 10
-15.40000000000327
 20
-120.3795940787886
 30
0.0
 11
200.399999999996
 21
-264.2458933784019
 31
0.0
  0
LINE
  5
27DE
330
2C0A
100
AcDbEntity
  8
0
 62
     0
100
AcDbLine
 10
-22.56940942544677
 20
-115.6000000000003
 30
0.0
 11
-15.40000000000691
 21
-120.379594078785
 31
0.0
  0
LINE
  5
27DF
330
2C0A
100
AcDbEntity
  8
0
 62
     0
100
AcDbLine
 10
-15.40000000000145
 20
-117.3796275433715
 30
0.0
 11
200.3999999999978
 21
-261.2459268429848
 31
0.0
  0
LINE
  5
27E0
330
2C0A
100
AcDbEntity
  8
0
 62
     0
100
AcDbLine
 10
-18.06944813156042
 20
-115.6000000000003
 30
0.0
 11
-15.40000000000691
 21
-117.3796275433678
 31
0.0
  0
LINE
  5
27E1
330
2C0A
100
AcDbEntity
  8
0
 62
     0
100
AcDbLine
 10
-13.56948683767587
 20
-115.5999999999994
 30
0.0
 11
200.3999999999978
 21
-258.2459603075695
 31
0.0
  0
LINE
  5
27E2
330
2C0A
100
AcDbEntity
  8
0
 62
     0
100
AcDbLine
 10
-9.069525543787676
 20
-115.6000000000013
 30
0.0
 11
200.3999999999978
 21
-255.2459937721533
 31
0.0
  0
LINE
  5
27E3
330
2C0A
100
AcDbEntity
  8
0
 62
     0
100
AcDbLine
 10
-4.56956424990494
 20
-115.6000000000013
 30
0.0
 11
200.399999999996
 21
-252.2460272367371
 31
0.0
  0
LINE
  5
27E4
330
2C0A
100
AcDbEntity
  8
0
 62
     0
100
AcDbLine
 10
-0.0696029560167517
 20
-115.6000000000003
 30
0.0
 11
200.3999999999978
 21
-249.24606070132
 31
0.0
  0
LINE
  5
27E5
330
2C0A
100
AcDbEntity
  8
0
 62
     0
100
AcDbLine
 10
4.43035833786962
 20
-115.6000000000022
 30
0.0
 11
200.3999999999978
 21
-246.2460941659045
 31
0.0
  0
LINE
  5
27E6
330
2C0A
100
AcDbEntity
  8
0
 62
     0
100
AcDbLine
 10
8.930319631754173
 20
-115.6000000000022
 30
0.0
 11
200.399999999996
 21
-243.2461276304875
 31
0.0
  0
LINE
  5
27E7
330
2C0A
100
AcDbEntity
  8
0
 62
     0
100
AcDbLine
 10
13.43028092563872
 20
-115.6000000000013
 30
0.0
 11
200.3999999999978
 21
-240.2461610950723
 31
0.0
  0
LINE
  5
27E8
330
2C0A
100
AcDbEntity
  8
0
 62
     0
100
AcDbLine
 10
17.9302422195251
 20
-115.6000000000013
 30
0.0
 11
200.3999999999978
 21
-237.246194559656
 31
0.0
  0
LINE
  5
27E9
330
2C0A
100
AcDbEntity
  8
0
 62
     0
100
AcDbLine
 10
22.43020351341147
 20
-115.6000000000022
 30
0.0
 11
200.3999999999978
 21
-234.2462280242407
 31
0.0
  0
LINE
  5
27EA
330
2C0A
100
AcDbEntity
  8
0
 62
     0
100
AcDbLine
 10
26.93016480729421
 20
-115.6000000000003
 30
0.0
 11
200.3999999999978
 21
-231.2462614888236
 31
0.0
  0
LINE
  5
27EB
330
2C0A
100
AcDbEntity
  8
0
 62
     0
100
AcDbLine
 10
31.4301261011824
 20
-115.5999999999994
 30
0.0
 11
200.3999999999996
 21
-228.2462949534065
 31
0.0
  0
LINE
  5
27EC
330
2C0A
100
AcDbEntity
  8
0
 62
     0
100
AcDbLine
 10
35.93008739506697
 20
-115.6000000000013
 30
0.0
 11
200.3999999999978
 21
-225.2463284179921
 31
0.0
  0
LINE
  5
27ED
330
2C0A
100
AcDbEntity
  8
0
 62
     0
100
AcDbLine
 10
40.43004868895332
 20
-115.6000000000013
 30
0.0
 11
200.3999999999978
 21
-222.246361882575
 31
0.0
  0
LINE
  5
27EE
330
2C0A
100
AcDbEntity
  8
0
 62
     0
100
AcDbLine
 10
44.93000998283604
 20
-115.6000000000003
 30
0.0
 11
200.399999999996
 21
-219.2463953471588
 31
0.0
  0
LINE
  5
27EF
330
2C0A
100
AcDbEntity
  8
0
 62
     0
100
AcDbLine
 10
49.42997127672424
 20
-115.6000000000003
 30
0.0
 11
200.3999999999978
 21
-216.2464288117417
 31
0.0
  0
LINE
  5
27F0
330
2C0A
100
AcDbEntity
  8
0
 62
     0
100
AcDbLine
 10
53.92993257060514
 20
-115.5999999999994
 30
0.0
 11
200.399999999996
 21
-213.2464622763264
 31
0.0
  0
LINE
  5
27F1
330
2C0A
100
AcDbEntity
  8
0
 62
     0
100
AcDbLine
 10
58.42989386449698
 20
-115.6000000000013
 30
0.0
 11
200.3999999999996
 21
-210.2464957409111
 31
0.0
  0
LINE
  5
27F2
330
2C0A
100
AcDbEntity
  8
0
 62
     0
100
AcDbLine
 10
62.92985515837973
 20
-115.6000000000013
 30
0.0
 11
200.3999999999996
 21
-207.2465292054958
 31
0.0
  0
LINE
  5
27F3
330
2C0A
100
AcDbEntity
  8
0
 62
     0
100
AcDbLine
 10
67.42981645226428
 20
-115.5999999999994
 30
0.0
 11
200.3999999999996
 21
-204.2465626700787
 31
0.0
  0
LINE
  5
27F4
330
2C0A
100
AcDbEntity
  8
0
 62
     0
100
AcDbLine
 10
71.92977774615066
 20
-115.6000000000022
 30
0.0
 11
200.3999999999978
 21
-201.2465961346634
 31
0.0
  0
LINE
  5
27F5
330
2C0A
100
AcDbEntity
  8
0
 62
     0
100
AcDbLine
 10
76.42973904003698
 20
-115.6000000000003
 30
0.0
 11
200.3999999999996
 21
-198.2466295992461
 31
0.0
  0
LINE
  5
27F6
330
2C0A
100
AcDbEntity
  8
0
 62
     0
100
AcDbLine
 10
80.92970033392154
 20
-115.6000000000013
 30
0.0
 11
200.3999999999978
 21
-195.24666306383
 31
0.0
  0
LINE
  5
27F7
330
2C0A
100
AcDbEntity
  8
0
 62
     0
100
AcDbLine
 10
85.42966162780611
 20
-115.6000000000003
 30
0.0
 11
200.3999999999978
 21
-192.2466965284137
 31
0.0
  0
LINE
  5
27F8
330
2C0A
100
AcDbEntity
  8
0
 62
     0
100
AcDbLine
 10
89.9296229216943
 20
-115.6000000000003
 30
0.0
 11
200.3999999999978
 21
-189.2467299929967
 31
0.0
  0
LINE
  5
27F9
330
2C0A
100
AcDbEntity
  8
0
 62
     0
100
AcDbLine
 10
94.42958421558069
 20
-115.6000000000013
 30
0.0
 11
200.3999999999996
 21
-186.2467634575814
 31
0.0
  0
LINE
  5
27FA
330
2C0A
100
AcDbEntity
  8
0
 62
     0
100
AcDbLine
 10
98.92954550946342
 20
-115.5999999999994
 30
0.0
 11
200.3999999999978
 21
-183.2467969221642
 31
0.0
  0
LINE
  5
27FB
330
2C0A
100
AcDbEntity
  8
0
 62
     0
100
AcDbLine
 10
103.4295068033479
 20
-115.6000000000003
 30
0.0
 11
200.3999999999978
 21
-180.246830386749
 31
0.0
  0
LINE
  5
27FC
330
2C0A
100
AcDbEntity
  8
0
 62
     0
100
AcDbLine
 10
107.929468097238
 20
-115.6000000000013
 30
0.0
 11
200.3999999999996
 21
-177.2468638513328
 31
0.0
  0
LINE
  5
27FD
330
2C0A
100
AcDbEntity
  8
0
 62
     0
100
AcDbLine
 10
112.4294293911225
 20
-115.6000000000013
 30
0.0
 11
200.3999999999996
 21
-174.2468973159174
 31
0.0
  0
LINE
  5
27FE
330
2C0A
100
AcDbEntity
  8
0
 62
     0
100
AcDbLine
 10
116.9293906850052
 20
-115.6000000000003
 30
0.0
 11
200.3999999999978
 21
-171.2469307805004
 31
0.0
  0
LINE
  5
27FF
330
2C0A
100
AcDbEntity
  8
0
 62
     0
100
AcDbLine
 10
121.4293519788934
 20
-115.6000000000022
 30
0.0
 11
200.3999999999996
 21
-168.2469642450851
 31
0.0
  0
LINE
  5
2800
330
2C0A
100
AcDbEntity
  8
0
 62
     0
100
AcDbLine
 10
125.929313272778
 20
-115.6000000000003
 30
0.0
 11
200.3999999999996
 21
-165.246997709668
 31
0.0
  0
LINE
  5
2801
330
2C0A
100
AcDbEntity
  8
0
 62
     0
100
AcDbLine
 10
130.4292745666626
 20
-115.6000000000013
 30
0.0
 11
200.3999999999978
 21
-162.2470311742526
 31
0.0
  0
LINE
  5
2802
330
2C0A
100
AcDbEntity
  8
0
 62
     0
100
AcDbLine
 10
134.9292358605471
 20
-115.5999999999994
 30
0.0
 11
200.3999999999996
 21
-159.2470646388355
 31
0.0
  0
LINE
  5
2803
330
2C0A
100
AcDbEntity
  8
0
 62
     0
100
AcDbLine
 10
139.4291971544371
 20
-115.6000000000022
 30
0.0
 11
200.3999999999996
 21
-156.2470981034203
 31
0.0
  0
LINE
  5
2804
330
2C0A
100
AcDbEntity
  8
0
 62
     0
100
AcDbLine
 10
143.9291584483198
 20
-115.6000000000013
 30
0.0
 11
200.3999999999996
 21
-153.2471315680032
 31
0.0
  0
LINE
  5
2805
330
2C0A
100
AcDbEntity
  8
0
 62
     0
100
AcDbLine
 10
148.4291197422044
 20
-115.6000000000013
 30
0.0
 11
200.3999999999978
 21
-150.2471650325879
 31
0.0
  0
LINE
  5
2806
330
2C0A
100
AcDbEntity
  8
0
 62
     0
100
AcDbLine
 10
152.9290810360888
 20
-115.6000000000003
 30
0.0
 11
200.3999999999996
 21
-147.2471984971716
 31
0.0
  0
LINE
  5
2807
330
2C0A
100
AcDbEntity
  8
0
 62
     0
100
AcDbLine
 10
157.4290423299771
 20
-115.6000000000003
 30
0.0
 11
200.3999999999996
 21
-144.2472319617544
 31
0.0
  0
LINE
  5
2808
330
2C0A
100
AcDbEntity
  8
0
 62
     0
100
AcDbLine
 10
161.9290036238617
 20
-115.6000000000013
 30
0.0
 11
200.3999999999996
 21
-141.2472654263392
 31
0.0
  0
LINE
  5
2809
330
2C0A
100
AcDbEntity
  8
0
 62
     0
100
AcDbLine
 10
166.4289649177481
 20
-115.6000000000003
 30
0.0
 11
200.3999999999996
 21
-138.2472988909221
 31
0.0
  0
LINE
  5
280A
330
2C0A
100
AcDbEntity
  8
0
 62
     0
100
AcDbLine
 10
170.9289262116326
 20
-115.6000000000003
 30
0.0
 11
200.3999999999996
 21
-135.2473323555059
 31
0.0
  0
LINE
  5
280B
330
2C0A
100
AcDbEntity
  8
0
 62
     0
100
AcDbLine
 10
175.428887505519
 20
-115.6000000000003
 30
0.0
 11
200.3999999999978
 21
-132.2473658200888
 31
0.0
  0
LINE
  5
280C
330
2C0A
100
AcDbEntity
  8
0
 62
     0
100
AcDbLine
 10
179.9288487994017
 20
-115.6000000000003
 30
0.0
 11
200.3999999999978
 21
-129.2473992846744
 31
0.0
  0
LINE
  5
280D
330
2C0A
100
AcDbEntity
  8
0
 62
     0
100
AcDbLine
 10
184.4288100932899
 20
-115.5999999999994
 30
0.0
 11
200.3999999999996
 21
-126.2474327492573
 31
0.0
  0
LINE
  5
280E
330
2C0A
100
AcDbEntity
  8
0
 62
     0
100
AcDbLine
 10
188.9287713871763
 20
-115.6000000000022
 30
0.0
 11
200.3999999999996
 21
-123.247466213842
 31
0.0
  0
LINE
  5
280F
330
2C0A
100
AcDbEntity
  8
0
 62
     0
100
AcDbLine
 10
193.4287326810608
 20
-115.6000000000003
 30
0.0
 11
200.3999999999978
 21
-120.2474996784249
 31
0.0
  0
LINE
  5
2810
330
2C0A
100
AcDbEntity
  8
0
 62
     0
100
AcDbLine
 10
197.9286939749453
 20
-115.6000000000013
 30
0.0
 11
200.3999999999996
 21
-117.2475331430096
 31
0.0
  0
ENDBLK
  5
2811
330
2C0A
100
AcDbEntity
  8
0
100
AcDbBlockEnd
  0
BLOCK
  5
2C0D
330
2C0C
100
AcDbEntity
  8
0
100
AcDbBlockBegin
  2
*U76
 70
     1
 10
0.0
 20
0.0
 30
0.0
  3
*U76
  1

  0
INSERT
  5
2814
330
2C0C
100
AcDbEntity
  8
NOTE
100
AcDbBlockReference
  2
_OPEN30
 10
-230.0
 20
0.0
 30
0.0
 41
12.0
 42
12.0
 43
12.0
 50
312.6090116116894
  0
POLYLINE
  5
2815
330
2C0C
100
AcDbEntity
  8
NOTE
100
AcDb2dPolyline
 66
     1
 10
0.0
 20
0.0
 30
0.0
  0
VERTEX
  5
2AAA
330
2815
100
AcDbEntity
  8
NOTE
100
AcDbVertex
100
AcDb2dVertex
 10
-238.1239008361895
 20
8.831887408915475
 30
0.0
  0
VERTEX
  5
2AAB
330
2815
100
AcDbEntity
  8
NOTE
100
AcDbVertex
100
AcDb2dVertex
 10
-317.8693999922543
 20
95.52709505801338
 30
0.0
  0
VERTEX
  5
2AAC
330
2815
100
AcDbEntity
  8
NOTE
100
AcDbVertex
100
AcDb2dVertex
 10
-863.7093999922541
 20
95.52709505801338
 30
0.0
  0
SEQEND
  5
2AAD
330
2815
100
AcDbEntity
  8
NOTE
  0
ENDBLK
  5
2816
330
2C0C
100
AcDbEntity
  8
0
100
AcDbBlockEnd
  0
BLOCK
  5
2C0F
330
2C0E
100
AcDbEntity
  8
0
100
AcDbBlockBegin
  2
*U77
 70
     1
 10
0.0
 20
0.0
 30
0.0
  3
*U77
  1

  0
TEXT
  5
2819
330
2C0E
100
AcDbEntity
  8
NOTE
100
AcDbText
 10
-863.7093999922541
 20
113.5270950580134
 30
0.0
 40
64.0
  1
4×φ15取付穴
 41
0.9
100
AcDbText
  0
ENDBLK
  5
281A
330
2C0E
100
AcDbEntity
  8
0
100
AcDbBlockEnd
  0
ENDSEC
  0
SECTION
  2
ENTITIES
  0
TEXT
  5
953
330
2B2D
100
AcDbEntity
  8
OUTLINE
  6
Continuous
 62
     3
100
AcDbText
 10
-418.231467
 20
13.715189
 30
0.0
 40
64.0
  1
 
 41
0.9
100
AcDbText
  0
TEXT
  5
954
330
2B2D
100
AcDbEntity
  8
OUTLINE
  6
Continuous
 62
     3
100
AcDbText
 10
-418.231467
 20
13.715189
 30
0.0
 40
64.0
  1
 
 41
0.9
100
AcDbText
  0
TEXT
  5
955
330
2B2D
100
AcDbEntity
  8
OUTLINE
  6
Continuous
 62
     3
100
AcDbText
 10
1341.41903
 20
-706.0588199999997
 30
0.0
 40
64.0
  1
 
 41
0.9
100
AcDbText
  0
TEXT
  5
956
330
2B2D
100
AcDbEntity
  8
OUTLINE
  6
Continuous
 62
     3
100
AcDbText
 10
1341.41903
 20
-706.0588199999997
 30
0.0
 40
64.0
  1
 
 41
0.9
100
AcDbText
  0
TEXT
  5
957
330
2B2D
100
AcDbEntity
  8
OUTLINE
  6
Continuous
 62
     3
100
AcDbText
 10
1341.41903
 20
-706.0588199999997
 30
0.0
 40
64.0
  1
 
 41
0.9
100
AcDbText
  0
TEXT
  5
958
330
2B2D
100
AcDbEntity
  8
OUTLINE
  6
Continuous
 62
     3
100
AcDbText
 10
1341.41903
 20
-706.0588199999997
 30
0.0
 40
64.0
  1
 
 41
0.9
100
AcDbText
  0
INSERT
  5
2881
330
2B2D
100
AcDbEntity
  8
DETAIL
  6
Continuous
100
AcDbBlockReference
  2
*X74
 10
0.0
 20
0.0
 30
0.0
1001
ACADANNOTATIVE
1000
AnnotativeData
1002
{
1070
     1
1070
     0
1002
}
1001
ACAD
1000
HATCH
1002
{
1070
    19
1000
LINE
1040
19.969
1040
0.5880014249968896
1000
R14_HATCH_DATA
1000
49FB
1011
1.0
1021
0.0
1031
0.0
1011
0.0
1021
1.0
1031
0.0
1011
0.0
1021
0.0
1031
1.0
1040
0.0
1010
0.0
1020
0.0
1030
1.0
1000
LINE
1070
     0
1070
     0
1071
        2
1071
        7
1070
     0
1070
     1
1071
        6
1040
-15.40000000000145
1040
-115.5999999999994
1040
-200.4000000000015
1040
-115.5999999999998
1040
-200.3999999999942
1040
-484.3999999999992
1040
200.4000000000015
1040
-484.3999999999996
1040
200.4000000000015
1040
-309.3999999999992
1040
-15.40000000000145
1040
-309.3999999999992
1071
        0
1071
       23
1070
     0
1070
     1
1071
        4
1040
200.3999999999978
1040
-115.5999999999994
1040
-15.40000000000145
1040
-115.5999999999994
1040
-15.40000000000145
1040
-309.3999999999996
1040
200.3999999999978
1040
-309.3999999999996
1071
        0
1070
     0
1070
     1
1040
0.5880014249968896
1040
19.969
1070
     0
1070
     1
1040
0.5880014249968896
1040
19753.55017294962
1040
3359.168115452887
1040
-1.384598579568018
1040
2.076903172775084
1070
     0
1040
0.9703301130971906
1071
        2
1040
-120.379948154019
1040
-172.8227690304747
1040
0.0
1040
130.9833088850464
1040
-234.3214214842224
1040
0.0
1002
}
  0
INSERT
  5
2882
330
2B2D
100
AcDbEntity
  8
DETAIL
  6
Continuous
100
AcDbBlockReference
  2
*X75
 10
0.0
 20
0.0
 30
0.0
1001
ACADANNOTATIVE
1000
AnnotativeData
1002
{
1070
     1
1070
     0
1002
}
1001
ACAD
1000
HATCH
1002
{
1070
    19
1000
LINE
1040
19.969
1040
5.695183882182695
1000
R14_HATCH_DATA
1000
4A01
1011
1.0
1021
0.0
1031
0.0
1011
0.0
1021
1.0
1031
0.0
1011
0.0
1021
0.0
1031
1.0
1040
0.0
1010
0.0
1020
0.0
1030
1.0
1000
LINE
1070
     0
1070
     0
1071
        2
1071
        7
1070
     0
1070
     1
1071
        6
1040
-15.40000000000145
1040
-115.5999999999998
1040
-200.4000000000015
1040
-115.6000000000003
1040
-200.4000000000015
1040
-484.4000000000005
1040
200.4000000000015
1040
-484.3999999999992
1040
200.4000000000015
1040
-309.3999999999992
1040
-15.40000000000145
1040
-309.3999999999992
1071
        0
1071
        7
1070
     0
1070
     1
1071
        4
1040
-15.40000000000509
1040
-115.5999999999998
1040
-15.40000000000145
1040
-309.3999999999996
1040
200.3999999999978
1040
-309.3999999999996
1040
200.4000000000015
1040
-115.5999999999994
1071
        0
1070
     0
1070
     1
1040
5.695183882182695
1040
19.969
1070
     0
1070
     1
1040
5.695183882182695
1040
19753.55017294962
1040
3359.168115452887
1040
1.384598579568018
1040
2.076903172775084
1070
     0
1040
0.9893960273053558
1071
        2
1040
-106.2965206084772
1040
-182.7828048002166
1040
0.0
1040
95.97801823268309
1040
-160.9693230282423
1040
0.0
1002
}
  0
INSERT
  5
2883
330
2B2D
100
AcDbEntity
  8
0
100
AcDbBlockReference
  2
*U76
 10
0.0
 20
0.0
 30
0.0
1001
ACAD
1000
DSTYLE
1002
{
1070
    41
1040
12.0
1070
    42
1040
20.0
1070
    43
1040
200.0
1070
    44
1040
20.0
1070
    73
1070
     0
1070
    74
1070
     0
1070
    77
1070
     1
1070
    78
1070
     8
1070
   140
1040
64.0
1070
   147
1040
50.0
1070
   172
1070
     1
1070
   174
1070
     1
1070
   275
1070
     0
1070
   284
1070
     0
1070
   285
1070
     0
1070
   286
1070
     0
1070
   341
1005
0
1070
   342
1005
0
1002
}
  0
INSERT
  5
2884
330
2B2D
100
AcDbEntity
  8
0
100
AcDbBlockReference
  2
*U77
 10
0.0
 20
0.0
 30
0.0
  0
TEXT
  5
2885
330
2B2D
100
AcDbEntity
  8
ETC
100
AcDbText
 10
368.2334138162223
 20
366.5051254023888
 30
0.0
 40
64.0
  1
システム部材
 41
0.9
100
AcDbText
  0
TEXT
  5
2886
330
2B2D
100
AcDbEntity
  8
ETC
100
AcDbText
 10
374.4414118162203
 20
467.3884514023882
 30
0.0
 40
64.0
  1
QW-40SBM_6
 41
0.9
100
AcDbText
  0
TEXT
  5
2887
330
2B2D
100
AcDbEntity
  8
ETC
100
AcDbText
 10
368.2334138162223
 20
266.5051254023888
 30
0.0
 40
64.0
  1
QW-40SBM
 41
0.9
100
AcDbText
  0
POINT
  5
2888
330
2B2D
100
AcDbEntity
  8
ARRANGE
100
AcDbPoint
 10
0.0
 20
0.0
 30
0.0
 39
50.0
  0
LINE
  5
2889
330
2B2D
100
AcDbEntity
  8
DETAIL
100
AcDbLine
 10
200.3999999999978
 20
-484.3999999999994
 30
0.0
 11
200.3999999999978
 21
-115.5999999999994
 31
0.0
  0
LINE
  5
288A
330
2B2D
100
AcDbEntity
  8
DETAIL
100
AcDbLine
 10
-200.3999999999978
 20
-484.3999999999994
 30
0.0
 11
-200.3999999999978
 21
-115.5999999999998
 31
0.0
  0
LINE
  5
288B
330
2B2D
100
AcDbEntity
  8
BASIS
100
AcDbLine
 10
0.0
 20
25.0
 30
0.0
 11
0.0
 21
-545.9999999999991
 31
0.0
  0
LINE
  5
288C
330
2B2D
100
AcDbEntity
  8
DETAIL
100
AcDbLine
 10
-200.3999999999978
 20
-115.5999999999998
 30
0.0
 11
200.3999999999978
 21
-115.5999999999994
 31
0.0
  0
LINE
  5
288D
330
2B2D
100
AcDbEntity
  8
NOTE
100
AcDbLine
 10
-230.0
 20
12.49999999999999
 30
0.0
 11
-230.0
 21
-12.5
 31
0.0
  0
CIRCLE
  5
288E
330
2B2D
100
AcDbEntity
  8
ARRANGE
100
AcDbCircle
 10
0.0
 20
0.0
 30
0.0
 40
40.0
  0
LINE
  5
288F
330
2B2D
100
AcDbEntity
  8
NOTE
100
AcDbLine
 10
230.0
 20
-12.5
 30
0.0
 11
230.0
 21
12.49999999999999
 31
0.0
  0
LINE
  5
2890
330
2B2D
100
AcDbEntity
  8
DETAIL
100
AcDbLine
 10
-200.3999999999978
 20
-484.3999999999994
 30
0.0
 11
200.3999999999978
 21
-484.3999999999994
 31
0.0
  0
LINE
  5
2891
330
2B2D
100
AcDbEntity
  8
DETAIL
100
AcDbLine
 10
216.0
 20
-520.9999999999991
 30
0.0
 11
216.0
 21
-99.99999999999994
 31
0.0
  0
LINE
  5
2892
330
2B2D
100
AcDbEntity
  8
DETAIL
100
AcDbLine
 10
-216.0
 20
-520.9999999999991
 30
0.0
 11
-216.0
 21
-99.99999999999994
 31
0.0
  0
LINE
  5
2893
330
2B2D
100
AcDbEntity
  8
DETAIL
100
AcDbLine
 10
230.0
 20
-85.0
 30
0.0
 11
230.0
 21
-499.9999999999998
 31
0.0
  0
LINE
  5
2894
330
2B2D
100
AcDbEntity
  8
DETAIL
100
AcDbLine
 10
-230.0
 20
-85.0
 30
0.0
 11
-230.0
 21
-499.9999999999998
 31
0.0
  0
LINE
  5
2895
330
2B2D
100
AcDbEntity
  8
DETAIL
100
AcDbLine
 10
-230.0
 20
-85.0
 30
0.0
 11
230.0
 21
-85.0
 31
0.0
  0
LINE
  5
2896
330
2B2D
100
AcDbEntity
  8
DETAIL
100
AcDbLine
 10
-216.0
 20
-99.99999999999994
 30
0.0
 11
216.0
 21
-99.99999999999994
 31
0.0
  0
LINE
  5
2897
330
2B2D
100
AcDbEntity
  8
DETAIL
100
AcDbLine
 10
-255.0
 20
-8.0
 30
0.0
 11
255.0
 21
-8.0
 31
0.0
  0
LINE
  5
2898
330
2B2D
100
AcDbEntity
  8
DETAIL
100
AcDbLine
 10
-216.0
 20
-199.9999999999999
 30
0.0
 11
-216.0
 21
-99.99999999999994
 31
0.0
  0
LINE
  5
2899
330
2B2D
100
AcDbEntity
  8
DETAIL
100
AcDbLine
 10
-216.0
 20
-85.0
 30
0.0
 11
-216.0
 21
-8.0
 31
0.0
  0
LINE
  5
289A
330
2B2D
100
AcDbEntity
  8
DETAIL
100
AcDbLine
 10
-216.0
 20
-85.0
 30
0.0
 11
-216.0
 21
-8.0
 31
0.0
  0
LINE
  5
289B
330
2B2D
100
AcDbEntity
  8
DETAIL
100
AcDbLine
 10
-255.0
 20
-8.0
 30
0.0
 11
-255.0
 21
0.0
 31
0.0
  0
LINE
  5
289C
330
2B2D
100
AcDbEntity
  8
DETAIL
100
AcDbLine
 10
216.0
 20
-85.0
 30
0.0
 11
216.0
 21
-8.0
 31
0.0
  0
LINE
  5
289D
330
2B2D
100
AcDbEntity
  8
DETAIL
100
AcDbLine
 10
230.0
 20
-85.0
 30
0.0
 11
230.0
 21
-85.22603069026216
 31
0.0
  0
LINE
  5
289E
330
2B2D
100
AcDbEntity
  8
DETAIL
100
AcDbLine
 10
255.0
 20
-8.0
 30
0.0
 11
255.0
 21
0.0
 31
0.0
  0
LINE
  5
289F
330
2B2D
100
AcDbEntity
  8
DETAIL
100
AcDbLine
 10
-230.0
 20
-499.9999999999998
 30
0.0
 11
216.0
 21
-499.9999999999998
 31
0.0
  0
LINE
  5
28A0
330
2B2D
100
AcDbEntity
  8
DETAIL
100
AcDbLine
 10
84.0
 20
-499.9999999999998
 30
0.0
 11
230.0
 21
-499.9999999999998
 31
0.0
  0
LINE
  5
28A1
330
2B2D
100
AcDbEntity
  8
DETAIL
100
AcDbLine
 10
-216.0
 20
-514.9999999999994
 30
0.0
 11
216.0
 21
-515.0
 31
0.0
  0
LINE
  5
28A2
330
2B2D
100
AcDbEntity
  8
DETAIL
100
AcDbLine
 10
-216.0
 20
-520.9999999999991
 30
0.0
 11
216.0
 21
-520.9999999999991
 31
0.0
  0
LINE
  5
28A3
330
2B2D
100
AcDbEntity
  8
OUTLINE
100
AcDbLine
 10
216.0
 20
-520.9999999999991
 30
0.0
 11
216.0
 21
-99.99999999999994
 31
0.0
  0
LINE
  5
28A4
330
2B2D
100
AcDbEntity
  8
OUTLINE
100
AcDbLine
 10
-216.0
 20
-520.9999999999991
 30
0.0
 11
-216.0
 21
-99.99999999999994
 31
0.0
  0
LINE
  5
28A5
330
2B2D
100
AcDbEntity
  8
OUTLINE
100
AcDbLine
 10
230.0
 20
-85.0
 30
0.0
 11
230.0
 21
-499.9999999999998
 31
0.0
  0
LINE
  5
28A6
330
2B2D
100
AcDbEntity
  8
OUTLINE
100
AcDbLine
 10
-230.0
 20
-85.0
 30
0.0
 11
-230.0
 21
-499.9999999999998
 31
0.0
  0
LINE
  5
28A7
330
2B2D
100
AcDbEntity
  8
OUTLINE
100
AcDbLine
 10
-230.0
 20
-85.0
 30
0.0
 11
230.0
 21
-85.0
 31
0.0
  0
LINE
  5
28A8
330
2B2D
100
AcDbEntity
  8
OUTLINE
100
AcDbLine
 10
-216.0
 20
-99.99999999999994
 30
0.0
 11
216.0
 21
-99.99999999999994
 31
0.0
  0
LINE
  5
28A9
330
2B2D
100
AcDbEntity
  8
OUTLINE
100
AcDbLine
 10
-255.0
 20
-8.0
 30
0.0
 11
255.0
 21
-8.0
 31
0.0
  0
LINE
  5
28AA
330
2B2D
100
AcDbEntity
  8
OUTLINE
100
AcDbLine
 10
-216.0
 20
-199.9999999999999
 30
0.0
 11
-216.0
 21
-99.99999999999994
 31
0.0
  0
LINE
  5
28AB
330
2B2D
100
AcDbEntity
  8
OUTLINE
100
AcDbLine
 10
-216.0
 20
-85.0
 30
0.0
 11
-216.0
 21
-8.0
 31
0.0
  0
LINE
  5
28AC
330
2B2D
100
AcDbEntity
  8
OUTLINE
100
AcDbLine
 10
-216.0
 20
-85.0
 30
0.0
 11
-216.0
 21
-8.0
 31
0.0
  0
LINE
  5
28AD
330
2B2D
100
AcDbEntity
  8
OUTLINE
100
AcDbLine
 10
-255.0
 20
-8.0
 30
0.0
 11
-255.0
 21
0.0
 31
0.0
  0
LINE
  5
28AE
330
2B2D
100
AcDbEntity
  8
OUTLINE
100
AcDbLine
 10
216.0
 20
-85.0
 30
0.0
 11
216.0
 21
-8.0
 31
0.0
  0
LINE
  5
28AF
330
2B2D
100
AcDbEntity
  8
OUTLINE
100
AcDbLine
 10
230.0
 20
-85.0
 30
0.0
 11
230.0
 21
-85.22603069026216
 31
0.0
  0
LINE
  5
28B0
330
2B2D
100
AcDbEntity
  8
OUTLINE
100
AcDbLine
 10
255.0
 20
-8.0
 30
0.0
 11
255.0
 21
0.0
 31
0.0
  0
LINE
  5
28B1
330
2B2D
100
AcDbEntity
  8
OUTLINE
100
AcDbLine
 10
-230.0
 20
-499.9999999999998
 30
0.0
 11
216.0
 21
-499.9999999999998
 31
0.0
  0
LINE
  5
28B2
330
2B2D
100
AcDbEntity
  8
OUTLINE
100
AcDbLine
 10
84.0
 20
-499.9999999999998
 30
0.0
 11
230.0
 21
-499.9999999999998
 31
0.0
  0
LINE
  5
28B3
330
2B2D
100
AcDbEntity
  8
OUTLINE
100
AcDbLine
 10
-216.0
 20
-514.9999999999994
 30
0.0
 11
216.0
 21
-515.0
 31
0.0
  0
LINE
  5
28B4
330
2B2D
100
AcDbEntity
  8
OUTLINE
100
AcDbLine
 10
-216.0
 20
-520.9999999999991
 30
0.0
 11
216.0
 21
-520.9999999999991
 31
0.0
  0
LINE
  5
28B5
330
2B2D
100
AcDbEntity
  8
DETAIL
100
AcDbLine
 39
50.0
 10
-255.0
 20
0.0
 30
0.0
 11
255.0
 21
0.0
 31
0.0
  0
LINE
  5
28B6
330
2B2D
100
AcDbEntity
  8
NOTE
100
AcDbLine
 39
50.0
 10
-217.5
 20
0.0
 30
0.0
 11
-242.5
 21
0.0
 31
0.0
  0
LINE
  5
28B7
330
2B2D
100
AcDbEntity
  8
NOTE
100
AcDbLine
 39
50.0
 10
242.5
 20
0.0
 30
0.0
 11
217.5
 21
0.0
 31
0.0
  0
LINE
  5
28B8
330
2B2D
100
AcDbEntity
  8
OUTLINE
100
AcDbLine
 39
50.0
 10
-255.0
 20
0.0
 30
0.0
 11
255.0
 21
0.0
 31
0.0
  0
LINE
  5
28B9
330
2B2D
100
AcDbEntity
  8
DETAIL
100
AcDbLine
 10
200.3999999999978
 20
-484.3999999999994
 30
0.0
 11
200.3999999999978
 21
-115.5999999999994
 31
0.0
  0
LINE
  5
28BA
330
2B2D
100
AcDbEntity
  8
DETAIL
100
AcDbLine
 10
-200.3999999999978
 20
-484.3999999999994
 30
0.0
 11
-200.3999999999978
 21
-115.5999999999998
 31
0.0
  0
LINE
  5
28BB
330
2B2D
100
AcDbEntity
  8
DETAIL
100
AcDbLine
 10
-200.3999999999978
 20
-115.5999999999998
 30
0.0
 11
200.3999999999978
 21
-115.5999999999994
 31
0.0
  0
LINE
  5
28BC
330
2B2D
100
AcDbEntity
  8
DETAIL
100
AcDbLine
 10
-200.3999999999978
 20
-484.3999999999994
 30
0.0
 11
200.3999999999978
 21
-484.3999999999994
 31
0.0
  0
LINE
  5
28BD
330
2B2D
100
AcDbEntity
  8
SIZE
100
AcDbLine
 10
255.0
 20
20.0
 30
0.0
 11
255.0
 21
298.8865929365169
 31
0.0
  0
LINE
  5
28BE
330
2B2D
100
AcDbEntity
  8
SIZE
100
AcDbLine
 10
-255.0
 20
20.0
 30
0.0
 11
-255.0
 21
298.8865929365169
 31
0.0
  0
LINE
  5
28BF
330
2B2D
100
AcDbEntity
  8
SIZE
100
AcDbLine
 10
243.0
 20
278.8865929365169
 30
0.0
 11
-243.0
 21
278.8865929365169
 31
0.0
  0
INSERT
  5
28C0
330
2B2D
100
AcDbEntity
  8
SIZE
100
AcDbBlockReference
  2
_DOTBLANK
 10
255.0
 20
278.8865929365169
 30
0.0
 41
12.0
 42
12.0
 43
12.0
  0
INSERT
  5
28C1
330
2B2D
100
AcDbEntity
  8
SIZE
100
AcDbBlockReference
  2
_DOTBLANK
 10
-255.0
 20
278.8865929365169
 30
0.0
 41
12.0
 42
12.0
 43
12.0
 50
180.0
  0
LINE
  5
28C2
330
2B2D
100
AcDbEntity
  8
SIZE
100
AcDbLine
 10
230.0
 20
32.50000000000001
 30
0.0
 11
230.0
 21
180.9320910096174
 31
0.0
  0
LINE
  5
28C3
330
2B2D
100
AcDbEntity
  8
SIZE
100
AcDbLine
 10
-230.0
 20
32.50000000000001
 30
0.0
 11
-230.0
 21
180.9320910096174
 31
0.0
  0
LINE
  5
28C4
330
2B2D
100
AcDbEntity
  8
SIZE
100
AcDbLine
 10
218.0
 20
160.9320910096174
 30
0.0
 11
-218.0
 21
160.9320910096174
 31
0.0
  0
INSERT
  5
28C5
330
2B2D
100
AcDbEntity
  8
SIZE
100
AcDbBlockReference
  2
_DOTBLANK
 10
230.0
 20
160.9320910096174
 30
0.0
 41
12.0
 42
12.0
 43
12.0
  0
INSERT
  5
28C6
330
2B2D
100
AcDbEntity
  8
SIZE
100
AcDbBlockReference
  2
_DOTBLANK
 10
-230.0
 20
160.9320910096174
 30
0.0
 41
12.0
 42
12.0
 43
12.0
 50
180.0
  0
LINE
  5
28C7
330
2B2D
100
AcDbEntity
  8
SIZE
100
AcDbLine
 10
275.0
 20
0.0
 30
0.0
 11
382.6076138600983
 21
0.0
 31
0.0
  0
LINE
  5
28C8
330
2B2D
100
AcDbEntity
  8
SIZE
100
AcDbLine
 10
275.0
 20
-8.0
 30
0.0
 11
382.6076138600983
 21
-8.0
 31
0.0
  0
LINE
  5
28C9
330
2B2D
100
AcDbEntity
  8
SIZE
100
AcDbLine
 10
362.6076138600983
 20
11.99999999999999
 30
0.0
 11
362.6076138600983
 21
24.0
 31
0.0
  0
LINE
  5
28CA
330
2B2D
100
AcDbEntity
  8
SIZE
100
AcDbLine
 10
362.6076138600983
 20
-20.0
 30
0.0
 11
362.6076138600983
 21
-90.40000000000008
 31
0.0
  0
INSERT
  5
28CB
330
2B2D
100
AcDbEntity
  8
SIZE
100
AcDbBlockReference
  2
_DOTBLANK
 10
362.6076138600983
 20
0.0
 30
0.0
 41
12.0
 42
12.0
 43
12.0
 50
270.0
  0
INSERT
  5
28CC
330
2B2D
100
AcDbEntity
  8
SIZE
100
AcDbBlockReference
  2
_DOTBLANK
 10
362.6076138600983
 20
-8.0
 30
0.0
 41
12.0
 42
12.0
 43
12.0
 50
90.0
  0
LINE
  5
28CD
330
2B2D
100
AcDbEntity
  8
SIZE
100
AcDbLine
 10
230.0
 20
-520.0
 30
0.0
 11
230.0
 21
-698.4598795376378
 31
0.0
  0
LINE
  5
28CE
330
2B2D
100
AcDbEntity
  8
SIZE
100
AcDbLine
 10
-230.0
 20
-520.0
 30
0.0
 11
-230.0
 21
-698.4598795376378
 31
0.0
  0
LINE
  5
28CF
330
2B2D
100
AcDbEntity
  8
SIZE
100
AcDbLine
 10
218.0
 20
-678.4598795376374
 30
0.0
 11
-218.0
 21
-678.4598795376374
 31
0.0
  0
INSERT
  5
28D0
330
2B2D
100
AcDbEntity
  8
SIZE
100
AcDbBlockReference
  2
_DOTBLANK
 10
230.0
 20
-678.4598795376374
 30
0.0
 41
12.0
 42
12.0
 43
12.0
  0
INSERT
  5
28D1
330
2B2D
100
AcDbEntity
  8
SIZE
100
AcDbBlockReference
  2
_DOTBLANK
 10
-230.0
 20
-678.4598795376374
 30
0.0
 41
12.0
 42
12.0
 43
12.0
 50
180.0
  0
LINE
  5
28D2
330
2B2D
100
AcDbEntity
  8
SIZE
100
AcDbLine
 10
-250.0
 20
-499.9999999999998
 30
0.0
 11
-456.9212747256532
 21
-499.9999999999996
 31
0.0
  0
LINE
  5
28D3
330
2B2D
100
AcDbEntity
  8
SIZE
100
AcDbLine
 10
-236.0
 20
-520.9999999999991
 30
0.0
 11
-456.9212747256532
 21
-520.9999999999991
 31
0.0
  0
LINE
  5
28D4
330
2B2D
100
AcDbEntity
  8
SIZE
100
AcDbLine
 10
-436.9212747256532
 20
-487.9999999999997
 30
0.0
 11
-436.9212747256532
 21
-475.9999999999997
 31
0.0
  0
LINE
  5
28D5
330
2B2D
100
AcDbEntity
  8
SIZE
100
AcDbLine
 10
-436.9212747256532
 20
-532.9999999999992
 30
0.0
 11
-436.9212747256532
 21
-633.571428571428
 31
0.0
  0
INSERT
  5
28D6
330
2B2D
100
AcDbEntity
  8
SIZE
100
AcDbBlockReference
  2
_DOTBLANK
 10
-436.9212747256532
 20
-499.9999999999996
 30
0.0
 41
12.0
 42
12.0
 43
12.0
 50
270.0
  0
INSERT
  5
28D7
330
2B2D
100
AcDbEntity
  8
SIZE
100
AcDbBlockReference
  2
_DOTBLANK
 10
-436.9212747256532
 20
-520.9999999999991
 30
0.0
 41
12.0
 42
12.0
 43
12.0
 50
90.0
  0
LINE
  5
28D8
330
2B2D
100
AcDbEntity
  8
SIZE
100
AcDbLine
 10
-275.0
 20
0.0
 30
0.0
 11
-456.9212747256532
 21
0.0000000000001137
 31
0.0
  0
LINE
  5
28D9
330
2B2D
100
AcDbEntity
  8
SIZE
100
AcDbLine
 10
-250.0
 20
-499.9999999999998
 30
0.0
 11
-456.9212747256532
 21
-499.9999999999996
 31
0.0
  0
LINE
  5
28DA
330
2B2D
100
AcDbEntity
  8
SIZE
100
AcDbLine
 10
-436.9212747256532
 20
-11.99999999999999
 30
0.0
 11
-436.9212747256532
 21
-487.9999999999997
 31
0.0
  0
INSERT
  5
28DB
330
2B2D
100
AcDbEntity
  8
SIZE
100
AcDbBlockReference
  2
_DOTBLANK
 10
-436.9212747256532
 20
0.0
 30
0.0
 41
12.0
 42
12.0
 43
12.0
 50
90.0
  0
INSERT
  5
28DC
330
2B2D
100
AcDbEntity
  8
SIZE
100
AcDbBlockReference
  2
_DOTBLANK
 10
-436.9212747256532
 20
-499.9999999999996
 30
0.0
 41
12.0
 42
12.0
 43
12.0
 50
270.0
  0
TEXT
  5
28DD
330
2B2D
100
AcDbEntity
  8
SIZE
100
AcDbText
 10
-74.05714285714293
 20
-668.4598795376378
 30
0.0
 40
64.0
  1
460
 41
0.9
100
AcDbText
  0
TEXT
  5
28DE
330
2B2D
100
AcDbEntity
  8
SIZE
100
AcDbText
 10
-446.9212747256532
 20
-623.571428571428
 30
0.0
 40
64.0
  1
21
 50
90.0
 41
0.9
100
AcDbText
  0
TEXT
  5
28DF
330
2B2D
100
AcDbEntity
  8
SIZE
100
AcDbText
 10
-446.9212747256532
 20
-324.0571428571428
 30
0.0
 40
64.0
  1
500
 50
90.0
 41
0.9
100
AcDbText
  0
TEXT
  5
28E0
330
2B2D
100
AcDbEntity
  8
SIZE
100
AcDbText
 10
-74.61302049113601
 20
170.9320910096174
 30
0.0
 40
64.0
  1
460
 41
0.9
100
AcDbText
  0
TEXT
  5
28E1
330
2B2D
100
AcDbEntity
  8
SIZE
100
AcDbText
 10
-68.57142857142844
 20
288.8865929365169
 30
0.0
 40
64.0
  1
510
 41
0.9
100
AcDbText
  0
TEXT
  5
28E2
330
2B2D
100
AcDbEntity
  8
SIZE
100
AcDbText
 10
352.6076138600984
 20
-80.39999999999997
 30
0.0
 40
64.0
  1
8
 50
90.0
 41
0.9
100
AcDbText
  0
ENDSEC
  0
SECTION
  2
OBJECTS
  0
DICTIONARY
  5
2AC5
330
0
100
AcDbDictionary
281
     1
  3
ACAD_2007HEADERVARS_RT
350
2D22
  3
ACAD_COLOR
350
2B23
  3
ACAD_GROUP
350
2AC6
  3
ACAD_LAYOUT
350
2B22
  3
ACAD_MATERIAL
350
2AC9
  3
ACAD_MLEADERSTYLE
350
2B26
  3
ACAD_MLINESTYLE
350
2B1F
  3
ACAD_PLOTSETTINGS
350
2B21
  3
ACAD_PLOTSTYLENAME
350
2AC7
  3
ACAD_SCALELIST
350
2AF3
  3
ACAD_TABLESTYLE
350
2B24
  3
ACAD_VISUALSTYLE
350
2AE2
  3
ACDB_RECOMPOSE_DATA
350
2D20
  3
AcDbVariableDictionary
350
2D17
  3
AcmDictionary
350
2CC3
  3
AMG
350
2C10
  3
AMGSNAPSETTINGS
350
2CEB
  3
DWGPROPS
350
2D21
  3
MAPISURF_MODULE
350
2C90
  0
DICTIONARY
  5
2CF2
330
2B15
100
AcDbDictionary
280
     1
281
     1
  3
ADSK_XREC_LAYER_RECONCILED
360
2CF3
  0
DICTIONARY
  5
2CF4
330
2B44
100
AcDbDictionary
280
     1
281
     1
  3
ADSK_XREC_LAYER_RECONCILED
360
2CF5
  0
DICTIONARY
  5
2CF6
330
2B45
100
AcDbDictionary
280
     1
281
     1
  3
ADSK_XREC_LAYER_RECONCILED
360
2CF7
  0
DICTIONARY
  5
2CF8
330
2B46
100
AcDbDictionary
280
     1
281
     1
  3
ADSK_XREC_LAYER_RECONCILED
360
2CF9
  0
DICTIONARY
  5
2CFA
330
2B47
100
AcDbDictionary
280
     1
281
     1
  3
ADSK_XREC_LAYER_RECONCILED
360
2CFB
  0
DICTIONARY
  5
2CFC
330
2B48
100
AcDbDictionary
280
     1
281
     1
  3
ADSK_XREC_LAYER_RECONCILED
360
2CFD
  0
DICTIONARY
  5
2CFE
330
2B4A
100
AcDbDictionary
280
     1
281
     1
  3
ADSK_XREC_LAYER_RECONCILED
360
2CFF
  0
DICTIONARY
  5
2D00
330
2B4B
100
AcDbDictionary
280
     1
281
     1
  3
ADSK_XREC_LAYER_RECONCILED
360
2D01
  0
DICTIONARY
  5
2D02
330
2B4C
100
AcDbDictionary
280
     1
281
     1
  3
ADSK_XREC_LAYER_RECONCILED
360
2D03
  0
DICTIONARY
  5
2D04
330
2B4D
100
AcDbDictionary
280
     1
281
     1
  3
ADSK_XREC_LAYER_RECONCILED
360
2D05
  0
DICTIONARY
  5
2D06
330
2B4E
100
AcDbDictionary
280
     1
281
     1
  3
ADSK_XREC_LAYER_RECONCILED
360
2D07
  0
DICTIONARY
  5
2D08
330
2B2D
100
AcDbDictionary
280
     1
281
     1
  3
ACAD_INDEX
360
2D09
  0
DICTIONARY
  5
2D22
102
{ACAD_REACTORS
330
2AC5
102
}
330
2AC5
100
AcDbDictionary
281
     1
  3
DIMARCSYM
350
2D23
  3
DIMLTEX1
350
2D25
  3
DIMLTEX2
350
2D26
  3
DIMLTYPE
350
2D24
  0
DICTIONARY
  5
2B23
102
{ACAD_REACTORS
330
2AC5
102
}
330
2AC5
100
AcDbDictionary
281
     1
  0
DICTIONARY
  5
2AC6
102
{ACAD_REACTORS
330
2AC5
102
}
330
2AC5
100
AcDbDictionary
281
     1
  0
DICTIONARY
  5
2B22
102
{ACAD_REACTORS
330
2AC5
102
}
330
2AC5
100
AcDbDictionary
281
     1
  3
Model
350
2B30
  3
レイアウト1
350
2B2C
  0
DICTIONARY
  5
2AC9
102
{ACAD_REACTORS
330
2AC5
102
}
330
2AC5
100
AcDbDictionary
281
     1
  3
ByBlock
350
2AD2
  3
ByLayer
350
2ACA
  3
Global
350
2ADA
  0
DICTIONARY
  5
2B26
102
{ACAD_REACTORS
330
2AC5
102
}
330
2AC5
100
AcDbDictionary
281
     1
  3
Standard
350
2B27
  0
DICTIONARY
  5
2B1F
102
{ACAD_REACTORS
330
2AC5
102
}
330
2AC5
100
AcDbDictionary
281
     1
  3
Standard
350
2B20
  0
DICTIONARY
  5
2B21
102
{ACAD_REACTORS
330
2AC5
102
}
330
2AC5
100
AcDbDictionary
281
     1
  0
ACDBDICTIONARYWDFLT
  5
2AC7
102
{ACAD_REACTORS
330
2AC5
102
}
330
2AC5
100
AcDbDictionary
281
     1
  3
Normal
350
2AC8
100
AcDbDictionaryWithDefault
340
2AC8
  0
DICTIONARY
  5
2AF3
102
{ACAD_REACTORS
330
2AC5
102
}
330
2AC5
100
AcDbDictionary
281
     1
  3
A0
350
2AF4
  3
A1
350
2AF5
  3
A2
350
2AF6
  3
A3
350
2AF7
  3
A4
350
2AF8
  3
A5
350
2AF9
  3
A6
350
2AFA
  3
A7
350
2AFB
  3
A8
350
2AFC
  3
A9
350
2AFD
  3
B0
350
2AFE
  3
B1
350
2AFF
  3
B2
350
2B00
  3
B3
350
2B01
  3
B4
350
2B02
  3
B5
350
2B03
  3
B6
350
2B04
  3
B7
350
2B05
  3
B8
350
2B06
  3
B9
350
2B07
  3
C0
350
2B08
  3
C1
350
2B09
  3
C2
350
2B0A
  3
C3
350
2B0B
  3
C4
350
2B0C
  3
C5
350
2B0D
  3
C6
350
2B0E
  3
C7
350
2B0F
  3
C8
350
2B10
  3
C9
350
2B11
  3
D0
350
2B12
  3
D1
350
2B13
  3
D2
350
2B14
  0
DICTIONARY
  5
2B24
102
{ACAD_REACTORS
330
2AC5
102
}
330
2AC5
100
AcDbDictionary
281
     1
  3
Standard
350
2B25
  0
DICTIONARY
  5
2AE2
102
{ACAD_REACTORS
330
2AC5
102
}
330
2AC5
100
AcDbDictionary
281
     1
  3
2dWireframe
350
2AE8
  3
3D Hidden
350
2AEA
  3
3dWireframe
350
2AE9
  3
Basic
350
2AE7
  3
Brighten
350
2AEE
  3
ColorChange
350
2AF2
  3
Conceptual
350
2AEB
  3
Dim
350
2AED
  3
Facepattern
350
2AF1
  3
Flat
350
2AE3
  3
FlatWithEdges
350
2AE4
  3
Gouraud
350
2AE5
  3
GouraudWithEdges
350
2AE6
  3
Linepattern
350
2AF0
  3
Realistic
350
2AEC
  3
Thicken
350
2AEF
  0
XRECORD
  5
2D20
102
{ACAD_REACTORS
330
2AC5
102
}
330
2AC5
100
AcDbXrecord
280
     1
 90
        1
330
2B25
  0
DICTIONARY
  5
2D17
102
{ACAD_REACTORS
330
2AC5
102
}
330
2AC5
100
AcDbDictionary
281
     1
  3
CANNOSCALE
350
2D1A
  3
CMLEADERSTYLE
350
2D19
  3
CTABLESTYLE
350
2D18
  3
DIMASSOC
350
2D1D
  3
INDEXCTL
350
2D1C
  3
SORTENTS
350
2D1B
  0
DICTIONARY
  5
2CC3
102
{ACAD_REACTORS
330
2AC5
102
}
330
2AC5
100
AcDbDictionary
281
     1
  3
AcmStdDictionary
350
2CD1
  0
DICTIONARY
  5
2C10
102
{ACAD_REACTORS
330
2AC5
102
}
330
2AC5
100
AcDbDictionary
281
     1
  3
AcMgSettings
350
2C11
  0
DICTIONARY
  5
2CEB
102
{ACAD_REACTORS
330
2AC5
102
}
330
2AC5
100
AcDbDictionary
281
     1
  3
DIMENSION
350
2CF0
  3
FEA
350
2CEF
  3
HATCH (1)
350
2CEC
  3
HATCH (2)
350
2CED
  3
SIMPLE WELD
350
2CF1
  3
SYMBOLS
350
2CEE
  0
XRECORD
  5
2D21
102
{ACAD_REACTORS
330
2AC5
102
}
330
2AC5
100
AcDbXrecord
280
     1
  1
DWGPROPS COOKIE
  2

  3

  4

  6

  7

  8
A090053
  9

300
AmdtFileType=84
301
=
302
=
303
=
304
=
305
=
306
=
307
=
308
=
309
=
 40
1.040629699074073
 41
2452321.396199653
 42
2456211.584886759
  1

 90
        1
  0
XRECORD
  5
2CF3
102
{ACAD_REACTORS
330
2CF2
102
}
330
2CF2
100
AcDbXrecord
280
     1
290
     1
  0
XRECORD
  5
2CF5
102
{ACAD_REACTORS
330
2CF4
102
}
330
2CF4
100
AcDbXrecord
280
     1
290
     1
  0
XRECORD
  5
2CF7
102
{ACAD_REACTORS
330
2CF6
102
}
330
2CF6
100
AcDbXrecord
280
     1
290
     1
  0
XRECORD
  5
2CF9
102
{ACAD_REACTORS
330
2CF8
102
}
330
2CF8
100
AcDbXrecord
280
     1
290
     1
  0
XRECORD
  5
2CFB
102
{ACAD_REACTORS
330
2CFA
102
}
330
2CFA
100
AcDbXrecord
280
     1
290
     1
  0
XRECORD
  5
2CFD
102
{ACAD_REACTORS
330
2CFC
102
}
330
2CFC
100
AcDbXrecord
280
     1
290
     1
  0
XRECORD
  5
2CFF
102
{ACAD_REACTORS
330
2CFE
102
}
330
2CFE
100
AcDbXrecord
280
     1
290
     1
  0
XRECORD
  5
2D01
102
{ACAD_REACTORS
330
2D00
102
}
330
2D00
100
AcDbXrecord
280
     1
290
     1
  0
XRECORD
  5
2D03
102
{ACAD_REACTORS
330
2D02
102
}
330
2D02
100
AcDbXrecord
280
     1
290
     1
  0
XRECORD
  5
2D05
102
{ACAD_REACTORS
330
2D04
102
}
330
2D04
100
AcDbXrecord
280
     1
290
     1
  0
XRECORD
  5
2D07
102
{ACAD_REACTORS
330
2D06
102
}
330
2D06
100
AcDbXrecord
280
     1
290
     1
  0
DICTIONARY
  5
2D09
102
{ACAD_REACTORS
330
2D08
102
}
330
2D08
100
AcDbDictionary
281
     1
  3
*A1
350
2D0A
  0
XRECORD
  5
2D23
102
{ACAD_REACTORS
330
2D22
102
}
330
2D22
100
AcDbXrecord
280
     1
 70
     1
  0
XRECORD
  5
2D25
102
{ACAD_REACTORS
330
2D22
102
}
330
2D22
100
AcDbXrecord
280
     1
340
2B1B
  0
XRECORD
  5
2D26
102
{ACAD_REACTORS
330
2D22
102
}
330
2D22
100
AcDbXrecord
280
     1
340
2B1B
  0
XRECORD
  5
2D24
102
{ACAD_REACTORS
330
2D22
102
}
330
2D22
100
AcDbXrecord
280
     1
340
2B1B
  0
LAYOUT
  5
2B30
102
{ACAD_XDICTIONARY
360
2D2D
102
}
102
{ACAD_REACTORS
330
2B22
102
}
330
2B22
100
AcDbPlotSettings
  1

  2
自動 EPSON LP-9600S (W2450527 上)
  4

  6

 40
0.0
 41
0.0
 42
0.0
 43
0.0
 44
0.0
 45
0.0
 46
0.0
 47
0.0
 48
0.0
 49
0.0
140
0.0
141
0.0
142
1.0
143
1.0
 70
  1712
 72
     0
 73
     0
 74
     0
  7

 75
     0
147
1.0
148
0.0
149
0.0
100
AcDbLayout
  1
Model
 70
     1
 71
     0
 10
0.0
 20
0.0
 11
12.0
 21
9.0
 12
0.0
 22
0.0
 32
0.0
 14
0.0
 24
0.0
 34
0.0
 15
0.0
 25
0.0
 35
0.0
146
0.0
 13
0.0
 23
0.0
 33
0.0
 16
1.0
 26
0.0
 36
0.0
 17
0.0
 27
1.0
 37
0.0
 76
     0
330
2B2D
331
2B31
  0
LAYOUT
  5
2B2C
102
{ACAD_XDICTIONARY
360
2D2B
102
}
102
{ACAD_REACTORS
330
2B22
102
}
330
2B22
100
AcDbPlotSettings
  1

  2
自動 EPSON LP-9600S (W2450527 上)
  4

  6

 40
0.0
 41
0.0
 42
0.0
 43
0.0
 44
0.0
 45
0.0
 46
0.0
 47
0.0
 48
0.0
 49
0.0
140
0.0
141
0.0
142
1.0
143
1.0
 70
   688
 72
     0
 73
     0
 74
     5
  7

 75
    16
147
1.0
148
0.0
149
0.0
100
AcDbLayout
  1
レイアウト1
 70
     1
 71
     1
 10
0.0
 20
0.0
 11
12.0
 21
9.0
 12
0.0
 22
0.0
 32
0.0
 14
1.000000000000000E+20
 24
1.000000000000000E+20
 34
1.000000000000000E+20
 15
-1.000000000000000E+20
 25
-1.000000000000000E+20
 35
-1.000000000000000E+20
146
0.0
 13
0.0
 23
0.0
 33
0.0
 16
1.0
 26
0.0
 36
0.0
 17
0.0
 27
1.0
 37
0.0
 76
     0
330
2B29
  0
MATERIAL
  5
2AD2
102
{ACAD_XDICTIONARY
360
2AD3
102
}
102
{ACAD_REACTORS
330
2AC9
102
}
330
2AC9
100
AcDbMaterial
  1
ByBlock
 72
     0
 43
0.0208333333333333
 43
0.0
 43
0.0
 43
0.0
 43
0.0
 43
0.0208333333333333
 43
0.0
 43
0.0
 43
0.0
 43
0.0
 43
1.0
 43
0.0
 43
0.0
 43
0.0
 43
0.0
 43
1.0
 77
     0
 47
0.0208333333333333
 47
0.0
 47
0.0
 47
0.0
 47
0.0
 47
0.0208333333333333
 47
0.0
 47
0.0
 47
0.0
 47
0.0
 47
1.0
 47
0.0
 47
0.0
 47
0.0
 47
0.0
 47
1.0
171
     0
 49
0.0208333333333333
 49
0.0
 49
0.0
 49
0.0
 49
0.0
 49
0.0208333333333333
 49
0.0
 49
0.0
 49
0.0
 49
0.0
 49
1.0
 49
0.0
 49
0.0
 49
0.0
 49
0.0
 49
1.0
175
     0
142
0.0208333333333333
142
0.0
142
0.0
142
0.0
142
0.0
142
0.0208333333333333
142
0.0
142
0.0
142
0.0
142
0.0
142
1.0
142
0.0
142
0.0
142
0.0
142
0.0
142
1.0
179
     0
144
0.0208333333333333
144
0.0
144
0.0
144
0.0
144
0.0
144
0.0208333333333333
144
0.0
144
0.0
144
0.0
144
0.0
144
1.0
144
0.0
144
0.0
144
0.0
144
0.0
144
1.0
147
0.0208333333333333
147
0.0
147
0.0
147
0.0
147
0.0
147
0.0208333333333333
147
0.0
147
0.0
147
0.0
147
0.0
147
1.0
147
0.0
147
0.0
147
0.0
147
0.0
147
1.0
  0
MATERIAL
  5
2ACA
102
{ACAD_XDICTIONARY
360
2ACB
102
}
102
{ACAD_REACTORS
330
2AC9
102
}
330
2AC9
100
AcDbMaterial
  1
ByLayer
 72
     0
 43
0.0208333333333333
 43
0.0
 43
0.0
 43
0.0
 43
0.0
 43
0.0208333333333333
 43
0.0
 43
0.0
 43
0.0
 43
0.0
 43
1.0
 43
0.0
 43
0.0
 43
0.0
 43
0.0
 43
1.0
 77
     0
 47
0.0208333333333333
 47
0.0
 47
0.0
 47
0.0
 47
0.0
 47
0.0208333333333333
 47
0.0
 47
0.0
 47
0.0
 47
0.0
 47
1.0
 47
0.0
 47
0.0
 47
0.0
 47
0.0
 47
1.0
171
     0
 49
0.0208333333333333
 49
0.0
 49
0.0
 49
0.0
 49
0.0
 49
0.0208333333333333
 49
0.0
 49
0.0
 49
0.0
 49
0.0
 49
1.0
 49
0.0
 49
0.0
 49
0.0
 49
0.0
 49
1.0
175
     0
142
0.0208333333333333
142
0.0
142
0.0
142
0.0
142
0.0
142
0.0208333333333333
142
0.0
142
0.0
142
0.0
142
0.0
142
1.0
142
0.0
142
0.0
142
0.0
142
0.0
142
1.0
179
     0
144
0.0208333333333333
144
0.0
144
0.0
144
0.0
144
0.0
144
0.0208333333333333
144
0.0
144
0.0
144
0.0
144
0.0
144
1.0
144
0.0
144
0.0
144
0.0
144
0.0
144
1.0
147
0.0208333333333333
147
0.0
147
0.0
147
0.0
147
0.0
147
0.0208333333333333
147
0.0
147
0.0
147
0.0
147
0.0
147
1.0
147
0.0
147
0.0
147
0.0
147
0.0
147
1.0
  0
MATERIAL
  5
2ADA
102
{ACAD_XDICTIONARY
360
2ADB
102
}
102
{ACAD_REACTORS
330
2AC9
102
}
330
2AC9
100
AcDbMaterial
  1
Global
 72
     0
 43
0.0208333333333333
 43
0.0
 43
0.0
 43
0.0
 43
0.0
 43
0.0208333333333333
 43
0.0
 43
0.0
 43
0.0
 43
0.0
 43
1.0
 43
0.0
 43
0.0
 43
0.0
 43
0.0
 43
1.0
 77
     0
 47
0.0208333333333333
 47
0.0
 47
0.0
 47
0.0
 47
0.0
 47
0.0208333333333333
 47
0.0
 47
0.0
 47
0.0
 47
0.0
 47
1.0
 47
0.0
 47
0.0
 47
0.0
 47
0.0
 47
1.0
171
     0
 49
0.0208333333333333
 49
0.0
 49
0.0
 49
0.0
 49
0.0
 49
0.0208333333333333
 49
0.0
 49
0.0
 49
0.0
 49
0.0
 49
1.0
 49
0.0
 49
0.0
 49
0.0
 49
0.0
 49
1.0
175
     0
142
0.0208333333333333
142
0.0
142
0.0
142
0.0
142
0.0
142
0.0208333333333333
142
0.0
142
0.0
142
0.0
142
0.0
142
1.0
142
0.0
142
0.0
142
0.0
142
0.0
142
1.0
179
     0
144
0.0208333333333333
144
0.0
144
0.0
144
0.0
144
0.0
144
0.0208333333333333
144
0.0
144
0.0
144
0.0
144
0.0
144
1.0
144
0.0
144
0.0
144
0.0
144
0.0
144
1.0
147
0.0208333333333333
147
0.0
147
0.0
147
0.0
147
0.0
147
0.0208333333333333
147
0.0
147
0.0
147
0.0
147
0.0
147
1.0
147
0.0
147
0.0
147
0.0
147
0.0
147
1.0
  0
MLEADERSTYLE
  5
2B27
102
{ACAD_REACTORS
330
2B26
102
}
330
2B26
100
AcDbMLeaderStyle
170
     2
171
     1
172
     0
 90
        2
 40
0.0
 41
0.0
173
     1
 91
-1056964608
340
2B1B
 92
       -2
290
     1
 42
0.09
291
     1
 43
0.36
  3
Standard
 44
0.18
300

342
2B16
174
     1
178
     6
175
     1
176
     0
 93
-1056964608
 45
0.18
292
     0
297
     0
 46
0.18
 94
-1056964608
 47
1.0
 49
1.0
140
1.0
293
     1
141
0.0
294
     1
177
     0
142
1.0
295
     0
296
     0
143
0.125
1001
ACAD_MLEADERVER
1070
     2
  0
MLINESTYLE
  5
2B20
102
{ACAD_REACTORS
330
2B1F
102
}
330
2B1F
100
AcDbMlineStyle
  2
STANDARD
 70
     0
  3

 62
   256
 51
90.0
 52
90.0
 71
     2
 49
0.5
 62
   256
  6
BYLAYER
 49
-0.5
 62
   256
  6
BYLAYER
  0
ACDBPLACEHOLDER
  5
2AC8
102
{ACAD_REACTORS
330
2AC7
102
}
330
2AC7
  0
SCALE
  5
2AF4
102
{ACAD_REACTORS
330
2AF3
102
}
330
2AF3
100
AcDbScale
 70
     0
300
1:1
140
1.0
141
1.0
290
     1
  0
SCALE
  5
2AF5
102
{ACAD_REACTORS
330
2AF3
102
}
330
2AF3
100
AcDbScale
 70
     0
300
1:2
140
1.0
141
2.0
290
     0
  0
SCALE
  5
2AF6
102
{ACAD_REACTORS
330
2AF3
102
}
330
2AF3
100
AcDbScale
 70
     0
300
1:4
140
1.0
141
4.0
290
     0
  0
SCALE
  5
2AF7
102
{ACAD_REACTORS
330
2AF3
102
}
330
2AF3
100
AcDbScale
 70
     0
300
1:5
140
1.0
141
5.0
290
     0
  0
SCALE
  5
2AF8
102
{ACAD_REACTORS
330
2AF3
102
}
330
2AF3
100
AcDbScale
 70
     0
300
1:8
140
1.0
141
8.0
290
     0
  0
SCALE
  5
2AF9
102
{ACAD_REACTORS
330
2AF3
102
}
330
2AF3
100
AcDbScale
 70
     0
300
1:10
140
1.0
141
10.0
290
     0
  0
SCALE
  5
2AFA
102
{ACAD_REACTORS
330
2AF3
102
}
330
2AF3
100
AcDbScale
 70
     0
300
1:16
140
1.0
141
16.0
290
     0
  0
SCALE
  5
2AFB
102
{ACAD_REACTORS
330
2AF3
102
}
330
2AF3
100
AcDbScale
 70
     0
300
1:20
140
1.0
141
20.0
290
     0
  0
SCALE
  5
2AFC
102
{ACAD_REACTORS
330
2AF3
102
}
330
2AF3
100
AcDbScale
 70
     0
300
1:30
140
1.0
141
30.0
290
     0
  0
SCALE
  5
2AFD
102
{ACAD_REACTORS
330
2AF3
102
}
330
2AF3
100
AcDbScale
 70
     0
300
1:40
140
1.0
141
40.0
290
     0
  0
SCALE
  5
2AFE
102
{ACAD_REACTORS
330
2AF3
102
}
330
2AF3
100
AcDbScale
 70
     0
300
1:50
140
1.0
141
50.0
290
     0
  0
SCALE
  5
2AFF
102
{ACAD_REACTORS
330
2AF3
102
}
330
2AF3
100
AcDbScale
 70
     0
300
1:100
140
1.0
141
100.0
290
     0
  0
SCALE
  5
2B00
102
{ACAD_REACTORS
330
2AF3
102
}
330
2AF3
100
AcDbScale
 70
     0
300
2:1
140
2.0
141
1.0
290
     0
  0
SCALE
  5
2B01
102
{ACAD_REACTORS
330
2AF3
102
}
330
2AF3
100
AcDbScale
 70
     0
300
4:1
140
4.0
141
1.0
290
     0
  0
SCALE
  5
2B02
102
{ACAD_REACTORS
330
2AF3
102
}
330
2AF3
100
AcDbScale
 70
     0
300
8:1
140
8.0
141
1.0
290
     0
  0
SCALE
  5
2B03
102
{ACAD_REACTORS
330
2AF3
102
}
330
2AF3
100
AcDbScale
 70
     0
300
10:1
140
10.0
141
1.0
290
     0
  0
SCALE
  5
2B04
102
{ACAD_REACTORS
330
2AF3
102
}
330
2AF3
100
AcDbScale
 70
     0
300
100:1
140
100.0
141
1.0
290
     0
  0
SCALE
  5
2B05
102
{ACAD_REACTORS
330
2AF3
102
}
330
2AF3
100
AcDbScale
 70
     0
300
1/128" = 1'-0"
140
0.0078125
141
12.0
290
     0
  0
SCALE
  5
2B06
102
{ACAD_REACTORS
330
2AF3
102
}
330
2AF3
100
AcDbScale
 70
     0
300
1/64" = 1'-0"
140
0.015625
141
12.0
290
     0
  0
SCALE
  5
2B07
102
{ACAD_REACTORS
330
2AF3
102
}
330
2AF3
100
AcDbScale
 70
     0
300
1/32" = 1'-0"
140
0.03125
141
12.0
290
     0
  0
SCALE
  5
2B08
102
{ACAD_REACTORS
330
2AF3
102
}
330
2AF3
100
AcDbScale
 70
     0
300
1/16" = 1'-0"
140
0.0625
141
12.0
290
     0
  0
SCALE
  5
2B09
102
{ACAD_REACTORS
330
2AF3
102
}
330
2AF3
100
AcDbScale
 70
     0
300
3/32" = 1'-0"
140
0.09375
141
12.0
290
     0
  0
SCALE
  5
2B0A
102
{ACAD_REACTORS
330
2AF3
102
}
330
2AF3
100
AcDbScale
 70
     0
300
1/8" = 1'-0"
140
0.125
141
12.0
290
     0
  0
SCALE
  5
2B0B
102
{ACAD_REACTORS
330
2AF3
102
}
330
2AF3
100
AcDbScale
 70
     0
300
3/16" = 1'-0"
140
0.1875
141
12.0
290
     0
  0
SCALE
  5
2B0C
102
{ACAD_REACTORS
330
2AF3
102
}
330
2AF3
100
AcDbScale
 70
     0
300
1/4" = 1'-0"
140
0.25
141
12.0
290
     0
  0
SCALE
  5
2B0D
102
{ACAD_REACTORS
330
2AF3
102
}
330
2AF3
100
AcDbScale
 70
     0
300
3/8" = 1'-0"
140
0.375
141
12.0
290
     0
  0
SCALE
  5
2B0E
102
{ACAD_REACTORS
330
2AF3
102
}
330
2AF3
100
AcDbScale
 70
     0
300
1/2" = 1'-0"
140
0.5
141
12.0
290
     0
  0
SCALE
  5
2B0F
102
{ACAD_REACTORS
330
2AF3
102
}
330
2AF3
100
AcDbScale
 70
     0
300
3/4" = 1'-0"
140
0.75
141
12.0
290
     0
  0
SCALE
  5
2B10
102
{ACAD_REACTORS
330
2AF3
102
}
330
2AF3
100
AcDbScale
 70
     0
300
1" = 1'-0"
140
1.0
141
12.0
290
     0
  0
SCALE
  5
2B11
102
{ACAD_REACTORS
330
2AF3
102
}
330
2AF3
100
AcDbScale
 70
     0
300
1-1/2" = 1'-0"
140
1.5
141
12.0
290
     0
  0
SCALE
  5
2B12
102
{ACAD_REACTORS
330
2AF3
102
}
330
2AF3
100
AcDbScale
 70
     0
300
3" = 1'-0"
140
3.0
141
12.0
290
     0
  0
SCALE
  5
2B13
102
{ACAD_REACTORS
330
2AF3
102
}
330
2AF3
100
AcDbScale
 70
     0
300
6" = 1'-0"
140
6.0
141
12.0
290
     0
  0
SCALE
  5
2B14
102
{ACAD_REACTORS
330
2AF3
102
}
330
2AF3
100
AcDbScale
 70
     0
300
1'-0" = 1'-0"
140
12.0
141
12.0
290
     0
  0
TABLESTYLE
  5
2B25
102
{ACAD_XDICTIONARY
360
2D1E
102
}
102
{ACAD_REACTORS
330
2B24
102
}
330
2B24
100
AcDbTableStyle
  3
Standard
 70
     0
 71
     0
 40
0.06
 41
0.06
280
     0
281
     0
  7
STANDARD
140
0.18
170
     2
 62
     0
 63
     7
283
     0
274
    -2
284
     1
 64
     0
275
    -2
285
     1
 65
     0
276
    -2
286
     1
 66
     0
277
    -2
287
     1
 67
     0
278
    -2
288
     1
 68
     0
279
    -2
289
     1
 69
     0
  7
STANDARD
140
0.25
170
     5
 62
     0
 63
     7
283
     0
274
    -2
284
     1
 64
     0
275
    -2
285
     1
 65
     0
276
    -2
286
     1
 66
     0
277
    -2
287
     1
 67
     0
278
    -2
288
     1
 68
     0
279
    -2
289
     1
 69
     0
  7
STANDARD
140
0.18
170
     5
 62
     0
 63
     7
283
     0
274
    -2
284
     1
 64
     0
275
    -2
285
     1
 65
     0
276
    -2
286
     1
 66
     0
277
    -2
287
     1
 67
     0
278
    -2
288
     1
 68
     0
279
    -2
289
     1
 69
     0
  0
VISUALSTYLE
  5
2AE8
102
{ACAD_REACTORS
330
2AE2
102
}
330
2AE2
100
AcDbVisualStyle
  2
2dWireframe
 70
     4
 71
     0
 72
     2
 73
     0
 90
        0
 40
-0.6
 41
-30.0
 62
     5
 63
     7
 74
     1
 91
        4
 64
     7
 65
   257
 75
     1
175
     1
 42
1.0
 92
        0
 66
   257
 43
1.0
 76
     1
 77
     6
 78
     2
 67
     7
 79
     5
170
     0
171
     0
290
     0
174
     0
 93
        1
 44
0.0
173
     0
291
     0
 45
0.0
1001
ACAD
1000
AcDbSavedByObjectVersion
1070
     0
  0
VISUALSTYLE
  5
2AEA
102
{ACAD_REACTORS
330
2AE2
102
}
330
2AE2
100
AcDbVisualStyle
  2
3D Hidden
 70
     6
 71
     1
 72
     2
 73
     2
 90
        0
 40
-0.6
 41
-30.0
 62
     5
 63
     7
 74
     2
 91
        2
 64
     7
 65
   257
 75
     2
175
     1
 42
40.0
 92
        0
 66
   257
 43
1.0
 76
     1
 77
     6
 78
     2
 67
     7
 79
     3
170
     0
171
     0
290
     0
174
     0
 93
        1
 44
0.0
173
     0
291
     0
 45
0.0
1001
ACAD
1000
AcDbSavedByObjectVersion
1070
     0
  0
VISUALSTYLE
  5
2AE9
102
{ACAD_REACTORS
330
2AE2
102
}
330
2AE2
100
AcDbVisualStyle
  2
3dWireframe
 70
     5
 71
     0
 72
     2
 73
     0
 90
        0
 40
-0.6
 41
-30.0
 62
     5
 63
     7
 74
     1
 91
        4
 64
     7
 65
   257
 75
     1
175
     1
 42
1.0
 92
        0
 66
   257
 43
1.0
 76
     1
 77
     6
 78
     2
 67
     7
 79
     5
170
     0
171
     0
290
     0
174
     0
 93
        1
 44
0.0
173
     0
291
     0
 45
0.0
1001
ACAD
1000
AcDbSavedByObjectVersion
1070
     0
  0
VISUALSTYLE
  5
2AE7
102
{ACAD_REACTORS
330
2AE2
102
}
330
2AE2
100
AcDbVisualStyle
  2
Basic
 70
     7
 71
     1
 72
     0
 73
     1
 90
        0
 40
-0.6
 41
-30.0
 62
     5
 63
     7
 74
     0
 91
        4
 64
     7
 65
   257
 75
     1
175
     1
 42
1.0
 92
        8
 66
     7
 43
1.0
 76
     1
 77
     6
 78
     2
 67
     7
 79
     5
170
     0
171
     0
290
     0
174
     0
 93
        1
 44
0.0
173
     0
291
     1
 45
0.0
1001
ACAD
1000
AcDbSavedByObjectVersion
1070
     0
  0
VISUALSTYLE
  5
2AEE
102
{ACAD_REACTORS
330
2AE2
102
}
330
2AE2
100
AcDbVisualStyle
  2
Brighten
 70
    12
 71
     2
 72
     2
 73
     0
 90
        0
 40
-0.6
 41
-30.0
 62
     5
 63
     7
 74
     1
 91
        4
 64
     7
 65
   257
 75
     1
175
     1
 42
1.0
 92
        8
 66
     7
 43
1.0
 76
     1
 77
     6
 78
     2
 67
     7
 79
     5
170
     0
171
     0
290
     0
174
     0
 93
        1
 44
50.0
173
     0
291
     1
 45
0.0
1001
ACAD
1000
AcDbSavedByObjectVersion
1070
     0
  0
VISUALSTYLE
  5
2AF2
102
{ACAD_REACTORS
330
2AE2
102
}
330
2AE2
100
AcDbVisualStyle
  2
ColorChange
 70
    16
 71
     2
 72
     2
 73
     3
 90
        0
 40
-0.6
 41
-30.0
 62
     5
 63
     8
 74
     1
 91
        4
 64
     7
 65
   257
 75
     1
175
     1
 42
1.0
 92
        8
 66
     8
 43
1.0
 76
     1
 77
     6
 78
     2
 67
     7
 79
     5
170
     0
171
     0
290
     0
174
     0
 93
        1
 44
0.0
173
     0
291
     1
 45
0.0
1001
ACAD
1000
AcDbSavedByObjectVersion
1070
     0
  0
VISUALSTYLE
  5
2AEB
102
{ACAD_REACTORS
330
2AE2
102
}
330
2AE2
100
AcDbVisualStyle
  2
Conceptual
 70
     9
 71
     3
 72
     2
 73
     0
 90
        0
 40
-0.6
 41
-30.0
 62
     5
 63
     7
 74
     2
 91
        2
 64
     7
 65
   257
 75
     1
175
     1
 42
40.0
 92
        8
 66
     7
 43
1.0
 76
     1
 77
     6
 78
     2
 67
     7
 79
     3
170
     0
171
     0
290
     0
174
     0
 93
        1
 44
0.0
173
     0
291
     0
 45
0.0
1001
ACAD
1000
AcDbSavedByObjectVersion
1070
     0
  0
VISUALSTYLE
  5
2AED
102
{ACAD_REACTORS
330
2AE2
102
}
330
2AE2
100
AcDbVisualStyle
  2
Dim
 70
    11
 71
     2
 72
     2
 73
     0
 90
        0
 40
-0.6
 41
-30.0
 62
     5
 63
     7
 74
     1
 91
        4
 64
     7
 65
   257
 75
     1
175
     1
 42
1.0
 92
        8
 66
     7
 43
1.0
 76
     1
 77
     6
 78
     2
 67
     7
 79
     5
170
     0
171
     0
290
     0
174
     0
 93
        1
 44
-50.0
173
     0
291
     1
 45
0.0
1001
ACAD
1000
AcDbSavedByObjectVersion
1070
     0
  0
VISUALSTYLE
  5
2AF1
102
{ACAD_REACTORS
330
2AE2
102
}
330
2AE2
100
AcDbVisualStyle
  2
Facepattern
 70
    15
 71
     2
 72
     2
 73
     0
 90
        0
 40
-0.6
 41
-30.0
 62
     5
 63
     7
 74
     1
 91
        4
 64
     7
 65
   257
 75
     1
175
     1
 42
1.0
 92
        8
 66
     7
 43
1.0
 76
     1
 77
     6
 78
     2
 67
     7
 79
     5
170
     0
171
     0
290
     0
174
     0
 93
        1
 44
0.0
173
     0
291
     1
 45
0.0
1001
ACAD
1000
AcDbSavedByObjectVersion
1070
     0
  0
VISUALSTYLE
  5
2AE3
102
{ACAD_REACTORS
330
2AE2
102
}
330
2AE2
100
AcDbVisualStyle
  2
Flat
 70
     0
 71
     2
 72
     1
 73
     1
 90
        2
 40
-0.6
 41
30.0
 62
     5
 63
     7
 74
     0
 91
        4
 64
     7
 65
   257
 75
     1
175
     1
 42
1.0
 92
        8
 66
     7
 43
1.0
 76
     1
 77
     6
 78
     2
 67
     7
 79
     5
170
     0
171
     0
290
     0
174
     0
 93
       13
 44
0.0
173
     0
291
     1
 45
0.0
1001
ACAD
1000
AcDbSavedByObjectVersion
1070
     0
  0
VISUALSTYLE
  5
2AE4
102
{ACAD_REACTORS
330
2AE2
102
}
330
2AE2
100
AcDbVisualStyle
  2
FlatWithEdges
 70
     1
 71
     2
 72
     1
 73
     1
 90
        2
 40
-0.6
 41
30.0
 62
     5
 63
     7
 74
     1
 91
        4
 64
     7
 65
   257
 75
     1
175
     1
 42
1.0
 92
        0
 66
   257
 43
1.0
 76
     1
 77
     6
 78
     2
 67
     7
 79
     5
170
     0
171
     0
290
     0
174
     0
 93
       13
 44
0.0
173
     0
291
     1
 45
0.0
1001
ACAD
1000
AcDbSavedByObjectVersion
1070
     0
  0
VISUALSTYLE
  5
2AE5
102
{ACAD_REACTORS
330
2AE2
102
}
330
2AE2
100
AcDbVisualStyle
  2
Gouraud
 70
     2
 71
     2
 72
     2
 73
     1
 90
        2
 40
-0.6
 41
30.0
 62
     5
 63
     7
 74
     0
 91
        4
 64
     7
 65
   257
 75
     1
175
     1
 42
1.0
 92
        0
 66
     7
 43
1.0
 76
     1
 77
     6
 78
     2
 67
     7
 79
     5
170
     0
171
     0
290
     0
174
     0
 93
       13
 44
0.0
173
     0
291
     1
 45
0.0
1001
ACAD
1000
AcDbSavedByObjectVersion
1070
     0
  0
VISUALSTYLE
  5
2AE6
102
{ACAD_REACTORS
330
2AE2
102
}
330
2AE2
100
AcDbVisualStyle
  2
GouraudWithEdges
 70
     3
 71
     2
 72
     2
 73
     1
 90
        2
 40
-0.6
 41
30.0
 62
     5
 63
     7
 74
     1
 91
        4
 64
     7
 65
   257
 75
     1
175
     1
 42
1.0
 92
        0
 66
   257
 43
1.0
 76
     1
 77
     6
 78
     2
 67
     7
 79
     5
170
     0
171
     0
290
     0
174
     0
 93
       13
 44
0.0
173
     0
291
     1
 45
0.0
1001
ACAD
1000
AcDbSavedByObjectVersion
1070
     0
  0
VISUALSTYLE
  5
2AF0
102
{ACAD_REACTORS
330
2AE2
102
}
330
2AE2
100
AcDbVisualStyle
  2
Linepattern
 70
    14
 71
     2
 72
     2
 73
     0
 90
        0
 40
-0.6
 41
-30.0
 62
     5
 63
     7
 74
     1
 91
        4
 64
     7
 65
   257
 75
     7
175
     7
 42
1.0
 92
        8
 66
     7
 43
1.0
 76
     1
 77
     6
 78
     2
 67
     7
 79
     5
170
     0
171
     0
290
     0
174
     0
 93
        1
 44
0.0
173
     0
291
     1
 45
0.0
1001
ACAD
1000
AcDbSavedByObjectVersion
1070
     0
  0
VISUALSTYLE
  5
2AEC
102
{ACAD_REACTORS
330
2AE2
102
}
330
2AE2
100
AcDbVisualStyle
  2
Realistic
 70
     8
 71
     2
 72
     2
 73
     0
 90
        0
 40
-0.6
 41
-30.0
 62
     5
 63
     7
 74
     1
 91
        0
 64
     7
 65
   257
 75
     1
175
     1
 42
1.0
 92
        8
 66
     8
 43
1.0
 76
     1
 77
     6
 78
     2
 67
     7
 79
     5
170
     0
171
     0
290
     0
174
     0
 93
       13
 44
0.0
173
     0
291
     0
 45
0.0
1001
ACAD
1000
AcDbSavedByObjectVersion
1070
     0
  0
VISUALSTYLE
  5
2AEF
102
{ACAD_REACTORS
330
2AE2
102
}
330
2AE2
100
AcDbVisualStyle
  2
Thicken
 70
    13
 71
     2
 72
     2
 73
     0
 90
        0
 40
-0.6
 41
-30.0
 62
     5
 63
     7
 74
     1
 91
        4
 64
     7
 65
   257
 75
     1
175
     1
 42
1.0
 92
       12
 66
     7
 43
1.0
 76
     1
 77
     6
 78
     2
 67
     7
 79
     5
170
     0
171
     0
290
     0
174
     0
 93
        1
 44
0.0
173
     0
291
     1
 45
0.0
1001
ACAD
1000
AcDbSavedByObjectVersion
1070
     0
  0
DICTIONARYVAR
  5
2D1A
102
{ACAD_REACTORS
330
2D17
102
}
330
2D17
100
DictionaryVariables
280
     0
  1
1:1
  0
DICTIONARYVAR
  5
2D19
102
{ACAD_REACTORS
330
2D17
102
}
330
2D17
100
DictionaryVariables
280
     0
  1
STANDARD
  0
DICTIONARYVAR
  5
2D18
102
{ACAD_REACTORS
330
2D17
102
}
330
2D17
100
DictionaryVariables
280
     0
  1
STANDARD
  0
DICTIONARYVAR
  5
2D1D
102
{ACAD_REACTORS
330
2D17
102
}
330
2D17
100
DictionaryVariables
280
     0
  1
1
  0
DICTIONARYVAR
  5
2D1C
102
{ACAD_REACTORS
330
2D17
102
}
330
2D17
100
DictionaryVariables
280
     0
  1
1
  0
DICTIONARYVAR
  5
2D1B
102
{ACAD_REACTORS
330
2D17
102
}
330
2D17
100
DictionaryVariables
280
     0
  1
127
  0
DICTIONARY
  5
2CD1
102
{ACAD_REACTORS
330
2CC3
102
}
330
2CC3
100
AcDbDictionary
281
     1
  0
DICTIONARY
  5
2C11
102
{ACAD_REACTORS
330
2C10
102
}
330
2C10
100
AcDbDictionary
281
     1
  3
DWGSETTINGS
350
2C12
  3
TRANSSETTINGS
350
2C13
  0
ACAMGFILTERDAT
  5
2CF0
102
{ACAD_REACTORS
330
2CEB
102
}
330
2CEB
100
AcAmgFilterDat
 70
    15
  1
DIMENSION,AMDT_*_DIM
  2
*
  3
*
  4
*
  5
*
290
     1
  0
ACAMGFILTERDAT
  5
2CEF
102
{ACAD_REACTORS
330
2CEB
102
}
330
2CEB
100
AcAmgFilterDat
 70
    15
  1
*
  2
AM_FEA-AM_*
  3
*
  4
*
  5
*
290
     1
  0
ACAMGFILTERDAT
  5
2CEC
102
{ACAD_REACTORS
330
2CEB
102
}
330
2CEB
100
AcAmgFilterDat
 70
    15
  1
HATCH
  2
*
  3
*
  4
*
  5
*
290
     1
  0
ACAMGFILTERDAT
  5
2CED
102
{ACAD_REACTORS
330
2CEB
102
}
330
2CEB
100
AcAmgFilterDat
 70
    15
  1
LINE
  2
8,8N,*-8,*-8N,AM_8,AM_8N,*-AM_8,*-AM_8N
  3
*
  4
*
  5
INSERT,STDPART2D
290
     1
  0
ACAMGFILTERDAT
  5
2CF1
102
{ACAD_REACTORS
330
2CEB
102
}
330
2CEB
100
AcAmgFilterDat
 70
    15
  1
ARC
  2
AM_5
  3
*
  4
2
  5
INSERT
290
     0
  0
ACAMGFILTERDAT
  5
2CEE
102
{ACAD_REACTORS
330
2CEB
102
}
330
2CEB
100
AcAmgFilterDat
 70
    15
  1
ACMFCFRAME,ACMDATUMTARGET,ACMDATUMID,ACMWELDSYM,ACMSURFSYM,ACMFEATID,ACMPARTREF,ACMBALLOON,AMDTEDGESYM,AMGSCREWCALCTABLE,ACMMARKSTAMP
  2
*
  3
*
  4
*
  5
*
290
     1
  0
LAYER_INDEX
  5
2D0A
102
{ACAD_REACTORS
330
2D09
102
}
330
2D09
100
AcDbIndex
 40
2456211.584886759
100
AcDbLayerIndex
  8
0
360
2D0B
 90
        2
  8
OUTLINE
360
2D0C
 90
       25
  8
SIZE
360
2D0D
 90
       38
  8
BASIS
360
2D0E
 90
        1
  8
DETAIL
360
2D0F
 90
       29
  8
ARRANGE
360
2D10
 90
        2
  8
DEFPOINTS
360
2D11
 90
        0
  8
ETC
360
2D12
 90
        3
  8
FIX
360
2D13
 90
        0
  8
NOTE
360
2D14
 90
        4
  8
SERVICESPACE
360
2D15
 90
        0
  8
SYMBOLLINE
360
2D16
 90
        0
  0
DICTIONARY
  5
2D2D
330
2B30
100
AcDbDictionary
280
     1
281
     1
  3
ACAD_XREC_ROUNDTRIP
360
2D2E
  0
DICTIONARY
  5
2D2B
330
2B2C
100
AcDbDictionary
280
     1
281
     1
  3
ACAD_XREC_ROUNDTRIP
360
2D2C
  0
DICTIONARY
  5
2AD3
330
2AD2
100
AcDbDictionary
280
     1
281
     1
  3
ACAD_XREC_ROUNDTRIP
360
2D28
  3
BUMPTILE
360
2AD5
  3
DIFFUSETILE
360
2AD4
  3
OPACITYTILE
360
2AD8
  3
REFLECTIONTILE
360
2AD7
  3
REFRACTIONTILE
360
2AD9
  3
SPECULARTILE
360
2AD6
  0
DICTIONARY
  5
2ACB
330
2ACA
100
AcDbDictionary
280
     1
281
     1
  3
ACAD_XREC_ROUNDTRIP
360
2D27
  3
BUMPTILE
360
2ACD
  3
DIFFUSETILE
360
2ACC
  3
OPACITYTILE
360
2AD0
  3
REFLECTIONTILE
360
2ACF
  3
REFRACTIONTILE
360
2AD1
  3
SPECULARTILE
360
2ACE
  0
DICTIONARY
  5
2ADB
330
2ADA
100
AcDbDictionary
280
     1
281
     1
  3
ACAD_XREC_ROUNDTRIP
360
2D29
  3
BUMPTILE
360
2ADD
  3
DIFFUSETILE
360
2ADC
  3
OPACITYTILE
360
2AE0
  3
REFLECTIONTILE
360
2ADF
  3
REFRACTIONTILE
360
2AE1
  3
SPECULARTILE
360
2ADE
  0
DICTIONARY
  5
2D1E
330
2B25
100
AcDbDictionary
280
     1
281
     1
  3
ACAD_ROUNDTRIP_2008_TABLESTYLE_CELLSTYLEMAP
360
2D1F
  3
ACAD_XREC_ROUNDTRIP
360
2D2A
  0
IDBUFFER
  5
2D0B
330
0
100
AcDbIdBuffer
330
2883
330
2884
  0
IDBUFFER
  5
2D0C
330
0
100
AcDbIdBuffer
330
28AD
330
28AE
330
28AF
330
28B0
330
28B1
330
28B2
330
28B3
330
28B4
330
28B8
330
953
330
954
330
955
330
956
330
957
330
958
330
28A3
330
28A4
330
28A5
330
28A6
330
28A7
330
28A8
330
28A9
330
28AA
330
28AB
330
28AC
  0
IDBUFFER
  5
2D0D
330
0
100
AcDbIdBuffer
330
28CD
330
28CE
330
28CF
330
28D0
330
28D1
330
28D2
330
28D3
330
28D4
330
28D5
330
28D6
330
28D7
330
28D8
330
28D9
330
28DA
330
28DB
330
28DC
330
28DD
330
28DE
330
28DF
330
28E0
330
28E1
330
28E2
330
28BD
330
28BE
330
28BF
330
28C0
330
28C1
330
28C2
330
28C3
330
28C4
330
28C5
330
28C6
330
28C7
330
28C8
330
28C9
330
28CA
330
28CB
330
28CC
  0
IDBUFFER
  5
2D0E
330
0
100
AcDbIdBuffer
330
288B
  0
IDBUFFER
  5
2D0F
330
0
100
AcDbIdBuffer
330
289B
330
289C
330
289D
330
289E
330
289F
330
28A0
330
28A1
330
28A2
330
28B5
330
28B9
330
28BA
330
28BB
330
28BC
330
2881
330
2882
330
2889
330
288A
330
288C
330
2890
330
2891
330
2892
330
2893
330
2894
330
2895
330
2896
330
2897
330
2898
330
2899
330
289A
  0
IDBUFFER
  5
2D10
330
0
100
AcDbIdBuffer
330
2888
330
288E
  0
IDBUFFER
  5
2D11
330
0
100
AcDbIdBuffer
  0
IDBUFFER
  5
2D12
330
0
100
AcDbIdBuffer
330
2885
330
2886
330
2887
  0
IDBUFFER
  5
2D13
330
0
100
AcDbIdBuffer
  0
IDBUFFER
  5
2D14
330
0
100
AcDbIdBuffer
330
288D
330
288F
330
28B6
330
28B7
  0
IDBUFFER
  5
2D15
330
0
100
AcDbIdBuffer
  0
IDBUFFER
  5
2D16
330
0
100
AcDbIdBuffer
  0
XRECORD
  5
2D2E
102
{ACAD_REACTORS
330
2D2D
102
}
330
2D2D
100
AcDbXrecord
280
     1
102
SHADEPLOT
 70
     0
102
SHADEPLOTRESLEVEL
 70
     2
102
SHADEPLOTCUSTOMDPI
 70
   300
  0
XRECORD
  5
2D2C
102
{ACAD_REACTORS
330
2D2B
102
}
330
2D2B
100
AcDbXrecord
280
     1
102
SHADEPLOT
 70
     0
102
SHADEPLOTRESLEVEL
 70
     2
102
SHADEPLOTCUSTOMDPI
 70
   300
  0
XRECORD
  5
2D28
102
{ACAD_REACTORS
330
2AD3
102
}
330
2AD3
100
AcDbXrecord
280
     1
102
MATERIAL
148
0.0
149
0.0
149
0.0
 93
        0
 94
      127
282
     0
 72
     0
 77
     0
171
     0
175
     0
179
     0
273
     0
  0
XRECORD
  5
2AD5
102
{ACAD_REACTORS
330
2AD3
102
}
330
2AD3
100
AcDbXrecord
280
     1
270
     1
271
     1
  0
XRECORD
  5
2AD4
102
{ACAD_REACTORS
330
2AD3
102
}
330
2AD3
100
AcDbXrecord
280
     1
270
     1
271
     1
  0
XRECORD
  5
2AD8
102
{ACAD_REACTORS
330
2AD3
102
}
330
2AD3
100
AcDbXrecord
280
     1
270
     1
271
     1
  0
XRECORD
  5
2AD7
102
{ACAD_REACTORS
330
2AD3
102
}
330
2AD3
100
AcDbXrecord
280
     1
270
     1
271
     1
  0
XRECORD
  5
2AD9
102
{ACAD_REACTORS
330
2AD3
102
}
330
2AD3
100
AcDbXrecord
280
     1
270
     1
271
     1
  0
XRECORD
  5
2AD6
102
{ACAD_REACTORS
330
2AD3
102
}
330
2AD3
100
AcDbXrecord
280
     1
270
     1
271
     1
  0
XRECORD
  5
2D27
102
{ACAD_REACTORS
330
2ACB
102
}
330
2ACB
100
AcDbXrecord
280
     1
102
MATERIAL
148
0.0
149
0.0
149
0.0
 93
        0
 94
      127
282
     0
 72
     0
 77
     0
171
     0
175
     0
179
     0
273
     0
  0
XRECORD
  5
2ACD
102
{ACAD_REACTORS
330
2ACB
102
}
330
2ACB
100
AcDbXrecord
280
     1
270
     1
271
     1
  0
XRECORD
  5
2ACC
102
{ACAD_REACTORS
330
2ACB
102
}
330
2ACB
100
AcDbXrecord
280
     1
270
     1
271
     1
  0
XRECORD
  5
2AD0
102
{ACAD_REACTORS
330
2ACB
102
}
330
2ACB
100
AcDbXrecord
280
     1
270
     1
271
     1
  0
XRECORD
  5
2ACF
102
{ACAD_REACTORS
330
2ACB
102
}
330
2ACB
100
AcDbXrecord
280
     1
270
     1
271
     1
  0
XRECORD
  5
2AD1
102
{ACAD_REACTORS
330
2ACB
102
}
330
2ACB
100
AcDbXrecord
280
     1
270
     1
271
     1
  0
XRECORD
  5
2ACE
102
{ACAD_REACTORS
330
2ACB
102
}
330
2ACB
100
AcDbXrecord
280
     1
270
     1
271
     1
  0
XRECORD
  5
2D29
102
{ACAD_REACTORS
330
2ADB
102
}
330
2ADB
100
AcDbXrecord
280
     1
102
MATERIAL
148
0.0
149
0.0
149
0.0
 93
        0
 94
      127
282
     0
 72
     0
 77
     0
171
     0
175
     0
179
     0
273
     0
  0
XRECORD
  5
2ADD
102
{ACAD_REACTORS
330
2ADB
102
}
330
2ADB
100
AcDbXrecord
280
     1
270
     1
271
     1
  0
XRECORD
  5
2ADC
102
{ACAD_REACTORS
330
2ADB
102
}
330
2ADB
100
AcDbXrecord
280
     1
270
     1
271
     1
  0
XRECORD
  5
2AE0
102
{ACAD_REACTORS
330
2ADB
102
}
330
2ADB
100
AcDbXrecord
280
     1
270
     1
271
     1
  0
XRECORD
  5
2ADF
102
{ACAD_REACTORS
330
2ADB
102
}
330
2ADB
100
AcDbXrecord
280
     1
270
     1
271
     1
  0
XRECORD
  5
2AE1
102
{ACAD_REACTORS
330
2ADB
102
}
330
2ADB
100
AcDbXrecord
280
     1
270
     1
271
     1
  0
XRECORD
  5
2ADE
102
{ACAD_REACTORS
330
2ADB
102
}
330
2ADB
100
AcDbXrecord
280
     1
270
     1
271
     1
  0
CELLSTYLEMAP
  5
2D1F
102
{ACAD_REACTORS
330
2D1E
102
}
330
2D1E
100
AcDbCellStyleMap
 90
        3
300
CELLSTYLE
  1
TABLEFORMAT_BEGIN
 90
        5
170
     1
 91
        0
 92
    32768
 62
   257
 93
        1
300
CONTENTFORMAT
  1
CONTENTFORMAT_BEGIN
 90
        0
 91
        0
 92
      512
 93
        0
300

 40
0.0
140
1.0
 94
        5
 62
     0
340
2B16
144
0.25
309
CONTENTFORMAT_END
171
     0
 94
        0
309
TABLEFORMAT_END
  1
CELLSTYLE_BEGIN
 90
        1
 91
        1
300
_TITLE
309
CELLSTYLE_END
300
CELLSTYLE
  1
TABLEFORMAT_BEGIN
 90
        5
170
     1
 91
        0
 92
        0
 62
   257
 93
        1
300
CONTENTFORMAT
  1
CONTENTFORMAT_BEGIN
 90
        0
 91
        0
 92
      512
 93
        0
300

 40
0.0
140
1.0
 94
        5
 62
     0
340
2B16
144
0.18
309
CONTENTFORMAT_END
171
     0
 94
        0
309
TABLEFORMAT_END
  1
CELLSTYLE_BEGIN
 90
        2
 91
        1
300
_HEADER
309
CELLSTYLE_END
300
CELLSTYLE
  1
TABLEFORMAT_BEGIN
 90
        5
170
     1
 91
        0
 92
        0
 62
   257
 93
        1
300
CONTENTFORMAT
  1
CONTENTFORMAT_BEGIN
 90
        0
 91
        0
 92
      512
 93
        0
300

 40
0.0
140
1.0
 94
        2
 62
     0
340
2B16
144
0.18
309
CONTENTFORMAT_END
171
     0
 94
        0
309
TABLEFORMAT_END
  1
CELLSTYLE_BEGIN
 90
        3
 91
        2
300
_DATA
309
CELLSTYLE_END
  0
XRECORD
  5
2D2A
102
{ACAD_REACTORS
330
2D1E
102
}
330
2D1E
100
AcDbXrecord
280
     1
102
ACAD_ROUNDTRIP_PRE2007_TABLESTYLE
 90
      512
 91
        0
  1

 92
      512
 93
        0
  2

 94
      512
 95
        0
  3

  0
ENDSEC
  0
EOF
