  0
SECTION
  2
HEADER
  9
$ACADVER
  1
AC1015
  9
$ACADMAINTVER
 70
    20
  9
$DWGCODEPAGE
  3
ANSI_932
  9
$INSBASE
 10
0.0
 20
0.0
 30
0.0
  9
$EXTMIN
 10
-914.0762166866061
 20
-790.1916390869209
 30
-0.0030516181105611
  9
$EXTMAX
 10
1057.736217658657
 20
411.4379960943916
 30
50.00305208378603
  9
$LIMMIN
 10
-2970.0
 20
-2100.0
  9
$LIMMAX
 10
2970.0
 20
2100.0
  9
$ORTHOMODE
 70
     1
  9
$REGENMODE
 70
     0
  9
$FILLMODE
 70
     1
  9
$QTEXTMODE
 70
     0
  9
$MIRRTEXT
 70
     0
  9
$LTSCALE
 40
20.0
  9
$ATTMODE
 70
     1
  9
$TEXTSIZE
 40
64.0
  9
$TRACEWID
 40
0.05
  9
$TEXTSTYLE
  7
STANDARD
  9
$CLAYER
  8
0
  9
$CELTYPE
  6
ByLayer
  9
$CECOLOR
 62
   256
  9
$CELTSCALE
 40
1.0
  9
$DISPSILH
 70
     0
  9
$DIMSCALE
 40
1.0
  9
$DIMASZ
 40
0.12
  9
$DIMEXO
 40
0.05
  9
$DIMDLI
 40
0.5
  9
$DIMRND
 40
0.0
  9
$DIMDLE
 40
0.0
  9
$DIMEXE
 40
0.1
  9
$DIMTP
 40
0.1
  9
$DIMTM
 40
0.1
  9
$DIMTXT
 40
0.12
  9
$DIMCEN
 40
0.0
  9
$DIMTSZ
 40
0.0
  9
$DIMTOL
 70
     0
  9
$DIMLIM
 70
     0
  9
$DIMTIH
 70
     1
  9
$DIMTOH
 70
     1
  9
$DIMSE1
 70
     0
  9
$DIMSE2
 70
     0
  9
$DIMTAD
 70
     0
  9
$DIMZIN
 70
     7
  9
$DIMBLK
  1

  9
$DIMASO
 70
     1
  9
$DIMSHO
 70
     0
  9
$DIMPOST
  1

  9
$DIMAPOST
  1
mm
  9
$DIMALT
 70
     0
  9
$DIMALTD
 70
     2
  9
$DIMALTF
 40
25.4
  9
$DIMLFAC
 40
1.0
  9
$DIMTOFL
 70
     0
  9
$DIMTVP
 40
0.0
  9
$DIMTIX
 70
     0
  9
$DIMSOXD
 70
     0
  9
$DIMSAH
 70
     0
  9
$DIMBLK1
  1

  9
$DIMBLK2
  1

  9
$DIMSTYLE
  2
AM_ANSI
  9
$DIMCLRD
 70
   256
  9
$DIMCLRE
 70
   256
  9
$DIMCLRT
 70
     2
  9
$DIMTFAC
 40
0.71
  9
$DIMGAP
 40
0.06
  9
$DIMJUST
 70
     0
  9
$DIMSD1
 70
     0
  9
$DIMSD2
 70
     0
  9
$DIMTOLJ
 70
     1
  9
$DIMTZIN
 70
     7
  9
$DIMALTZ
 70
     0
  9
$DIMALTTZ
 70
     0
  9
$DIMUPT
 70
     0
  9
$DIMDEC
 70
     4
  9
$DIMTDEC
 70
     4
  9
$DIMALTU
 70
     2
  9
$DIMALTTD
 70
     4
  9
$DIMTXSTY
  7
STANDARD
  9
$DIMAUNIT
 70
     0
  9
$DIMADEC
 70
     0
  9
$DIMALTRND
 40
0.0
  9
$DIMAZIN
 70
     2
  9
$DIMDSEP
 70
    46
  9
$DIMATFIT
 70
     3
  9
$DIMFRAC
 70
     0
  9
$DIMLDRBLK
  1

  9
$DIMLUNIT
 70
     2
  9
$DIMLWD
 70
    -1
  9
$DIMLWE
 70
    -1
  9
$DIMTMOVE
 70
     0
  9
$LUNITS
 70
     2
  9
$LUPREC
 70
     4
  9
$SKETCHINC
 40
0.1
  9
$FILLETRAD
 40
4.0
  9
$AUNITS
 70
     1
  9
$AUPREC
 70
     3
  9
$MENU
  1
ACAD
  9
$ELEVATION
 40
0.0
  9
$PELEVATION
 40
0.0
  9
$THICKNESS
 40
50.0
  9
$LIMCHECK
 70
     0
  9
$CHAMFERA
 40
0.0
  9
$CHAMFERB
 40
0.0
  9
$CHAMFERC
 40
0.0
  9
$CHAMFERD
 40
0.0
  9
$SKPOLY
 70
     0
  9
$TDCREATE
 40
2452321.396199653
  9
$TDUCREATE
 40
2452321.021199653
  9
$TDUPDATE
 40
2456211.586763461
  9
$TDUUPDATE
 40
2456211.211763461
  9
$TDINDWG
 40
1.0403360880
  9
$TDUSRTIMER
 40
1.0403303125
  9
$USRTIMER
 70
     1
  9
$ANGBASE
 50
0.0
  9
$ANGDIR
 70
     0
  9
$PDMODE
 70
     3
  9
$PDSIZE
 40
-2.0
  9
$PLINEWID
 40
0.0
  9
$SPLFRAME
 70
     0
  9
$SPLINETYPE
 70
     6
  9
$SPLINESEGS
 70
     8
  9
$HANDSEED
  5
2C0E
  9
$SURFTAB1
 70
     6
  9
$SURFTAB2
 70
     6
  9
$SURFTYPE
 70
     6
  9
$SURFU
 70
     6
  9
$SURFV
 70
     6
  9
$UCSBASE
  2

  9
$UCSNAME
  2

  9
$UCSORG
 10
0.0
 20
0.0
 30
0.0
  9
$UCSXDIR
 10
1.0
 20
0.0
 30
0.0
  9
$UCSYDIR
 10
0.0
 20
1.0
 30
0.0
  9
$UCSORTHOREF
  2

  9
$UCSORTHOVIEW
 70
     0
  9
$UCSORGTOP
 10
0.0
 20
0.0
 30
0.0
  9
$UCSORGBOTTOM
 10
0.0
 20
0.0
 30
0.0
  9
$UCSORGLEFT
 10
0.0
 20
0.0
 30
0.0
  9
$UCSORGRIGHT
 10
0.0
 20
0.0
 30
0.0
  9
$UCSORGFRONT
 10
0.0
 20
0.0
 30
0.0
  9
$UCSORGBACK
 10
0.0
 20
0.0
 30
0.0
  9
$PUCSBASE
  2

  9
$PUCSNAME
  2

  9
$PUCSORG
 10
0.0
 20
0.0
 30
0.0
  9
$PUCSXDIR
 10
1.0
 20
0.0
 30
0.0
  9
$PUCSYDIR
 10
0.0
 20
1.0
 30
0.0
  9
$PUCSORTHOREF
  2

  9
$PUCSORTHOVIEW
 70
     0
  9
$PUCSORGTOP
 10
0.0
 20
0.0
 30
0.0
  9
$PUCSORGBOTTOM
 10
0.0
 20
0.0
 30
0.0
  9
$PUCSORGLEFT
 10
0.0
 20
0.0
 30
0.0
  9
$PUCSORGRIGHT
 10
0.0
 20
0.0
 30
0.0
  9
$PUCSORGFRONT
 10
0.0
 20
0.0
 30
0.0
  9
$PUCSORGBACK
 10
0.0
 20
0.0
 30
0.0
  9
$USERI1
 70
     0
  9
$USERI2
 70
     0
  9
$USERI3
 70
     0
  9
$USERI4
 70
     0
  9
$USERI5
 70
     0
  9
$USERR1
 40
20.0
  9
$USERR2
 40
0.0
  9
$USERR3
 40
0.0
  9
$USERR4
 40
0.0
  9
$USERR5
 40
0.0
  9
$WORLDVIEW
 70
     1
  9
$SHADEDGE
 70
     3
  9
$SHADEDIF
 70
    70
  9
$TILEMODE
 70
     1
  9
$MAXACTVP
 70
    64
  9
$PINSBASE
 10
0.0
 20
0.0
 30
0.0
  9
$PLIMCHECK
 70
     0
  9
$PEXTMIN
 10
1.000000000000000E+20
 20
1.000000000000000E+20
 30
1.000000000000000E+20
  9
$PEXTMAX
 10
-1.000000000000000E+20
 20
-1.000000000000000E+20
 30
-1.000000000000000E+20
  9
$PLIMMIN
 10
0.0
 20
0.0
  9
$PLIMMAX
 10
12.0
 20
9.0
  9
$UNITMODE
 70
     0
  9
$VISRETAIN
 70
     1
  9
$PLINEGEN
 70
     0
  9
$PSLTSCALE
 70
     1
  9
$TREEDEPTH
 70
  3020
  9
$CMLSTYLE
  2
Standard
  9
$CMLJUST
 70
     0
  9
$CMLSCALE
 40
1.0
  9
$PROXYGRAPHICS
 70
     1
  9
$MEASUREMENT
 70
     0
  9
$CELWEIGHT
370
    -1
  9
$ENDCAPS
280
     0
  9
$JOINSTYLE
280
     0
  9
$LWDISPLAY
290
     0
  9
$INSUNITS
 70
     0
  9
$HYPERLINKBASE
  1

  9
$STYLESHEET
  1

  9
$XEDIT
290
     1
  9
$CEPSNTYPE
380
     0
  9
$PSTYLEMODE
290
     1
  9
$FINGERPRINTGUID
  2
{878EB4A1-6961-406C-B08F-9E089AD4D1FF}
  9
$VERSIONGUID
  2
{548A4A70-B650-45DB-B1C6-C378B78EB4B5}
  9
$EXTNAMES
290
     1
  9
$PSVPSCALE
 40
0.0
  9
$OLESTARTUP
290
     0
  0
ENDSEC
  0
SECTION
  2
CLASSES
  0
CLASS
  1
ACDBDICTIONARYWDFLT
  2
AcDbDictionaryWithDefault
  3
ObjectDBX Classes
 90
        0
280
     0
281
     0
  0
CLASS
  1
MATERIAL
  2
AcDbMaterial
  3
ObjectDBX Classes
 90
     1153
280
     0
281
     0
  0
CLASS
  1
VISUALSTYLE
  2
AcDbVisualStyle
  3
ObjectDBX Classes
 90
     4095
280
     0
281
     0
  0
CLASS
  1
SCALE
  2
AcDbScale
  3
ObjectDBX Classes
 90
     1153
280
     0
281
     0
  0
CLASS
  1
TABLESTYLE
  2
AcDbTableStyle
  3
ObjectDBX Classes
 90
     4095
280
     0
281
     0
  0
CLASS
  1
MLEADERSTYLE
  2
AcDbMLeaderStyle
  3
ACDB_MLEADERSTYLE_CLASS
 90
     4095
280
     0
281
     0
  0
CLASS
  1
AMGSETTINGSOBJ
  2
AmgSettingsObj
  3
"AcadM|Product Description: AutoCAD Mechanical|Company: Autodesk, Inc."
 90
     1024
280
     0
281
     0
  0
CLASS
  1
ACME_DOCUMENT
  2
AcMeDbDoc
  3
AcMeServices
 90
     1024
280
     0
281
     0
  0
CLASS
  1
ACMESCOPE
  2
AcMeScope
  3
AcMeServices
 90
     1024
280
     0
281
     0
  0
CLASS
  1
ACMECOMMANDHISTORY
  2
AcMeCommandHistory
  3
AcMeServices
 90
     1024
280
     0
281
     0
  0
CLASS
  1
ACIMSYSVARMAN
  2
AcImSysVarManager
  3
AcMeServices
 90
     1024
280
     0
281
     0
  0
CLASS
  1
ACIMREALSYSVAR
  2
AcImRealSysVar
  3
AcMeServices
 90
     1024
280
     0
281
     0
  0
CLASS
  1
ACIMINTSYSVAR
  2
AcImIntSysVar
  3
AcMeServices
 90
     1024
280
     0
281
     0
  0
CLASS
  1
ACMEDRAWINGMAN
  2
AcMeDrawingMan
  3
AcMeServices
 90
     1024
280
     0
281
     0
  0
CLASS
  1
ACMEVIEW
  2
AcMeView
  3
AcMeServices
 90
     1024
280
     0
281
     0
  0
CLASS
  1
ACDBENTITYCACHE
  2
AcMeEntityCache
  3
AcMeServices
 90
     1024
280
     0
281
     0
  0
CLASS
  1
GSMANAGER
  2
AcMeGSManager
  3
AcMeServices
 90
     1024
280
     0
281
     0
  0
CLASS
  1
AMDTINTERNALREACTOR
  2
AmdtInternalReactor
  3
AcMeServices
 90
     1024
280
     0
281
     0
  0
CLASS
  1
ACMESTATEMGR
  2
AcMeStateMgr
  3
AcMeServices
 90
     1024
280
     0
281
     0
  0
CLASS
  1
ACGREFMASTER
  2
AcGrefMaster
  3
AcAttribServices
 90
     1024
280
     0
281
     0
  0
CLASS
  1
AM_DRAWING_MGR
  2
AcDmDwgMgr
  3
AcMechDwgViewMgmt
 90
     1024
280
     0
281
     0
  0
CLASS
  1
AM_DWG_DOCUMENT
  2
AcDmDwgDocument
  3
AcMechDwgViewMgmt
 90
     1024
280
     0
281
     0
  0
CLASS
  1
AM_DWG_SHEET
  2
AcDmSheet
  3
AcMechDwgViewMgmt
 90
     1024
280
     0
281
     0
  0
CLASS
  1
AM_VIEWDIMPARMAP
  2
AcDmViewDimParMap
  3
AcMechDwgViewMgmt
 90
     1024
280
     0
281
     0
  0
CLASS
  1
AM_DWGMGR_NAME
  2
AcDmDwgMgrName
  3
AcMechDwgViewMgmt
 90
     1024
280
     0
281
     0
  0
CLASS
  1
ACME_DATABASE
  2
AcMeDbDatabase
  3
AcMeServices
 90
     1024
280
     0
281
     0
  0
CLASS
  1
ACRFINSADJUSTERMGR
  2
AcRfInsAdjusterMgr
  3
AcMeServices
 90
     1024
280
     0
281
     0
  0
CLASS
  1
ACGREFACADMASTER
  2
AcGrefacadMaster
  3
AcGrefServices
 90
     1024
280
     0
281
     0
  0
CLASS
  1
AMDTMENUSTATEMGR
  2
AmdtMenuStateMgr
  3
McadcomServices
 90
     1024
280
     0
281
     0
  0
CLASS
  1
AMDTMCOMMENUSTATE
  2
AmdtMcomMenuState
  3
McadcomServices
 90
     1024
280
     0
281
     0
  0
CLASS
  1
AMIMASTER
  2
AmiMaster
  3
AmiServices
 90
     1024
280
     0
281
     0
  0
CLASS
  1
ASAPP
  2
AcAsAppObject
  3
AutoSurfServices
 90
     1024
280
     0
281
     0
  0
CLASS
  1
IM_STATIC_MAN
  2
AcImStaticVarManager
  3
AcMeServices
 90
     1024
280
     0
281
     0
  0
CLASS
  1
ACIMSTRSYSVAR
  2
AcImStrSysVar
  3
AcMeServices
 90
     1024
280
     0
281
     0
  0
CLASS
  1
ACIMDBLSTATICVAR
  2
AcImDblStaticVar
  3
AcMeServices
 90
     1024
280
     0
281
     0
  0
CLASS
  1
ACIMSTRSTATICVAR
  2
AcImStrStaticVar
  3
AcMeServices
 90
     1024
280
     0
281
     0
  0
CLASS
  1
ACIMINTSTATICVAR
  2
AcImIntStaticVar
  3
AcMeServices
 90
     1024
280
     0
281
     0
  0
CLASS
  1
ACASGREFMASTER
  2
AcAsGrefMaster
  3
AutoSurfResolverServices
 90
     1024
280
     0
281
     0
  0
CLASS
  1
ACADGREFMODULE
  2
AcAdGrefModule
  3
AdGrefServices
 90
     1024
280
     0
281
     0
  0
CLASS
  1
AMDTMAPISURFMOUDULE
  2
AmdtMApiSurfModule
  3
MApiSurfServices
 90
     1024
280
     0
281
     0
  0
CLASS
  1
MAPIAMMOUDLE
  2
MApiAmModule
  3
MApiAmServices
 90
     1024
280
     0
281
     0
  0
CLASS
  1
AMDTADMENUSTATE
  2
AmdtAdMenuState
  3
DesignerServices
 90
     1024
280
     0
281
     0
  0
CLASS
  1
ADAPPL
  2
AcAdAppl
  3
DesignerServices
 90
     1024
280
     0
281
     0
  0
CLASS
  1
DEPMGR
  2
AcAdDepMgr
  3
DesignerServices
 90
     1024
280
     0
281
     0
  0
CLASS
  1
PARAMMGR
  2
AcAdParamMgr
  3
DesignerServices
 90
     1024
280
     0
281
     0
  0
CLASS
  1
PARAMSCOPE
  2
AcAdParamScope
  3
DesignerServices
 90
     1024
280
     0
281
     0
  0
CLASS
  1
NAMEDAPPL
  2
AcAdNamedAppl
  3
DesignerServices
 90
     1024
280
     0
281
     0
  0
CLASS
  1
AMDTDMMENUSTATE
  2
AmdtDmMenuState
  3
AcMechDwgViewMgmt
 90
     1024
280
     0
281
     0
  0
CLASS
  1
MAPIADMODULE
  2
MApiAdModule
  3
MApiAdServices
 90
     1024
280
     0
281
     0
  0
CLASS
  1
AMDTAMMENUSTATE
  2
AmdtAmMenuState
  3
DesignerAssemblies
 90
     1024
280
     0
281
     0
  0
CLASS
  1
ACAMPROJECT
  2
AcAmProject
  3
DesignerAssemblies
 90
     1024
280
     0
281
     0
  0
CLASS
  1
ACAMGRCOMPDEF
  2
AcAmGrCompDef
  3
DesignerAssemblies
 90
     1024
280
     0
281
     0
  0
CLASS
  1
ACCMCONTEXT
  2
AcCmContext
  3
DesignerAssemblies
 90
     1024
280
     0
281
     0
  0
CLASS
  1
ACAMCOMPDEF
  2
AcAmCompDef
  3
DesignerAssemblies
 90
     1024
280
     0
281
     0
  0
CLASS
  1
ACAMCOMPDEFMGR
  2
AcAmCompDefMgr
  3
DesignerAssemblies
 90
     1024
280
     0
281
     0
  0
CLASS
  1
AMCONTEXTMGR
  2
AcAmContextMgr
  3
DesignerAssemblies
 90
     1024
280
     0
281
     0
  0
CLASS
  1
ACAMCONTEXTMODELER
  2
AcAmContextModeler
  3
DesignerAssemblies
 90
     1024
280
     0
281
     0
  0
CLASS
  1
ACMDATADICTIONARY
  2
AcmDataDictionary
  3
"AcmSymBB|Product Description: AutoCAD Mechanical|Company: Autodesk, Inc."
 90
     1024
280
     0
281
     0
  0
CLASS
  1
ACMDATAENTRYBLOCK
  2
AcmDataEntryBlock
  3
AcmSymBB|Product Description: AutoCAD Mechanical|Company: Autodesk, Inc.
 90
     1024
280
     0
281
     0
  0
CLASS
  1
ACRFATTGENMGR
  2
AcRfAttGeneralMgr
  3
AcAttribServices
 90
     1024
280
     0
281
     0
  0
CLASS
  1
ACRFOBJATTMGR
  2
AcRfObjAttGroupMgr
  3
AcAttribServices
 90
     1024
280
     0
281
     0
  0
CLASS
  1
ACRFMCADAPIATTHOLDER
  2
AcRfMCADAPIAttHolder
  3
AcAttribServices
 90
     1024
280
     0
281
     0
  0
CLASS
  1
AMDTSYSATTR
  2
AmdtSystemAttribute
  3
AcAttribServices
 90
     1024
280
     0
281
     0
  0
CLASS
  1
CATALOGSTATE
  2
AcAmCatalogState
  3
DesignerAssemblies
 90
     1024
280
     0
281
     0
  0
CLASS
  1
ACAMGRCOMPDEFSET
  2
AcAmGrCompDefSet
  3
DesignerAssemblies
 90
     1024
280
     0
281
     0
  0
CLASS
  1
AMDTBROWSERDBTAB
  2
AmdtBrowserDbTab
  3
McadcomServices
 90
     1024
280
     0
281
     0
  0
CLASS
  1
CBROWSERAPPOBJECT
  2
CBrowserAppObject
  3
McadcomServices
 90
     1024
280
     0
281
     0
  0
CLASS
  1
DM_PLACEHOLDER
  2
AcDmSelsetPlaceholder
  3
AcMechDwgViewMgmt
 90
     1024
280
     0
281
     0
  0
CLASS
  1
ACMSTANDARDANSI
  2
AcmStandardANSI
  3
"Amdt_StdImp|Product Description: AutoCAD Mechanical|Company: Autodesk, Inc."
 90
     1024
280
     0
281
     0
  0
CLASS
  1
ACMSURFSTANDARDANSI
  2
AcmSurfTextStdANSI
  3
"Amdt_StdImp|Product Description: AutoCAD Mechanical|Company: Autodesk, Inc."
 90
     1024
280
     0
281
     0
  0
CLASS
  1
ACMFCFSTANDARDANSI
  2
AcmFCFStdANSI
  3
"Amdt_StdImp|Product Description: AutoCAD Mechanical|Company: Autodesk, Inc."
 90
     1024
280
     0
281
     0
  0
CLASS
  1
ACMWELDSTANDARDANSI
  2
AcmWeldingStdANSI
  3
"Amdt_StdImp|Product Description: AutoCAD Mechanical|Company: Autodesk, Inc."
 90
     1024
280
     0
281
     0
  0
CLASS
  1
ACMIDSTANDARDANSI
  2
AcmIdStdANSI
  3
"Amdt_StdImp|Product Description: AutoCAD Mechanical|Company: Autodesk, Inc."
 90
     1024
280
     0
281
     0
  0
CLASS
  1
ACMDATUMSTANDARDANSI
  2
AcmDatumStdANSI
  3
"Amdt_StdImp|Product Description: AutoCAD Mechanical|Company: Autodesk, Inc."
 90
     1024
280
     0
281
     0
  0
CLASS
  1
ACMBOMSTANDARDANSI
  2
AcmBOMStdANSI
  3
"Amdt_StdImp|Product Description: AutoCAD Mechanical|Company: Autodesk, Inc."
 90
     1024
280
     0
281
     0
  0
CLASS
  1
ACMDETAILSTANDARDANSI
  2
AmdtDetailSymStdANSI
  3
"Amdt_StdImp|Product Description: AutoCAD Mechanical|Company: Autodesk, Inc."
 90
     1024
280
     0
281
     0
  0
CLASS
  1
ACMSECTIONSTANDARDANSI
  2
AmdtSectionSymStdANSI
  3
"Amdt_StdImp|Product Description: AutoCAD Mechanical|Company: Autodesk, Inc."
 90
     1024
280
     0
281
     0
  0
CLASS
  1
ACMCENTERLINESTANDARDANSI
  2
AmdtCenterLineStdANSI
  3
"Amdt_StdImp|Product Description: AutoCAD Mechanical|Company: Autodesk, Inc."
 90
     1024
280
     0
281
     0
  0
CLASS
  1
ACMTHREADLINESTANDARDANSI
  2
AmdtThreadLineStdANSI
  3
"Amdt_StdImp|Product Description: AutoCAD Mechanical|Company: Autodesk, Inc."
 90
     1024
280
     0
281
     0
  0
CLASS
  1
ACMNOTESTANDARDANSI
  2
AmdtNoteStdANSI
  3
"Amdt_StdImp|Product Description: AutoCAD Mechanical|Company: Autodesk, Inc."
 90
     1024
280
     0
281
     0
  0
CLASS
  1
ACMTAPERSTANDARDANSI
  2
AcmTaperStdANSI
  3
"Amdt_StdImp|Product Description: AutoCAD Mechanical|Company: Autodesk, Inc."
 90
     1024
280
     0
281
     0
  0
CLASS
  1
ACMANOOTATIONVIEWSTANDARDANSI
  2
AmdtAnViewStdANSI
  3
"Amdt_StdImp|Product Description: AutoCAD Mechanical|Company: Autodesk, Inc."
 90
     1024
280
     0
281
     0
  0
CLASS
  1
ACAMGLAYSTD
  2
AcAmgLayStd
  3
"AmgLay|Product Description: AutoCAD Mechanical|Company: Autodesk, Inc."
 90
     1024
280
     0
281
     0
  0
CLASS
  1
ACAMGDIMSTD
  2
AcAmgDimStd
  3
"AmgDim|Product Description: AutoCAD Mechanical|Company: Autodesk, Inc."
 90
     1024
280
     0
281
     0
  0
CLASS
  1
ACAMGHOLECHARTSTDANSI
  2
AcAmgHoleChartStdANSI
  3
AmgDim|Product Description: AutoCAD Mechanical|Company: Autodesk, Inc.
 90
     1024
280
     0
281
     0
  0
CLASS
  1
AMGOBJPROPCFG
  2
AmgObjPropCfg
  3
"AmgLay|Product Description: AutoCAD Mechanical|Company: Autodesk, Inc."
 90
     1025
280
     0
281
     0
  0
CLASS
  1
ACAMGTITLESTD
  2
AcAmgTitleStd
  3
"AmgTitle|Product Description: AutoCAD Mechanical|Company: Autodesk, Inc."
 90
     4095
280
     0
281
     0
  0
CLASS
  1
AMDTNOTETEMPLATEDB
  2
AmdtNoteTemplateDB
  3
AcmSymBB|Product Description: AutoCAD Mechanical|Company: Autodesk, Inc.
 90
     1024
280
     0
281
     0
  0
CLASS
  1
ACAMGFILTERDAT
  2
AcAmgFilterDat
  3
"AcadM|Product Description: AutoCAD Mechanical|Company: Autodesk, Inc."
 90
     1024
280
     0
281
     0
  0
CLASS
  1
LAYER_INDEX
  2
AcDbLayerIndex
  3
ObjectDBX Classes
 90
        0
280
     0
281
     0
  0
CLASS
  1
IDBUFFER
  2
AcDbIdBuffer
  3
ObjectDBX Classes
 90
        0
280
     0
281
     0
  0
CLASS
  1
DICTIONARYVAR
  2
AcDbDictionaryVar
  3
ObjectDBX Classes
 90
        0
280
     0
281
     0
  0
CLASS
  1
CELLSTYLEMAP
  2
AcDbCellStyleMap
  3
ObjectDBX Classes
 90
     1152
280
     0
281
     0
  0
CLASS
  1
ACDBPLACEHOLDER
  2
AcDbPlaceHolder
  3
ObjectDBX Classes
 90
        0
280
     0
281
     0
  0
CLASS
  1
LAYOUT
  2
AcDbLayout
  3
ObjectDBX Classes
 90
        0
280
     0
281
     0
  0
ENDSEC
  0
SECTION
  2
TABLES
  0
TABLE
  2
VPORT
  5
299C
330
0
100
AcDbSymbolTable
 70
     1
  0
VPORT
  5
2A0C
330
299C
100
AcDbSymbolTableRecord
100
AcDbViewportTableRecord
  2
*ACTIVE
 70
     0
 10
0.0
 20
0.0
 11
1.0
 21
1.0
 12
-0.000000000000135
 22
-78.21162622888721
 13
0.0
 23
0.0
 14
1.0
 24
1.0
 15
0.0
 25
0.0
 16
0.0
 26
0.0
 36
1.0
 17
71.83000048602588
 27
-111.1651952673775
 37
0.0
 40
1209.561183928384
 41
1.712555066079295
 42
50.0
 43
0.0
 44
0.0
 50
0.0
 51
0.0
 71
     0
 72
   100
 73
     1
 74
     0
 75
     0
 76
     0
 77
     0
 78
     0
281
     0
 65
     0
110
0.0
120
0.0
130
0.0
111
1.0
121
0.0
131
0.0
112
0.0
122
1.0
132
0.0
 79
     0
146
0.0
  0
ENDTAB
  0
TABLE
  2
LTYPE
  5
2999
330
0
100
AcDbSymbolTable
 70
    19
  0
LTYPE
  5
29F6
330
2999
100
AcDbSymbolTableRecord
100
AcDbLinetypeTableRecord
  2
ByBlock
 70
     0
  3

 72
    65
 73
     0
 40
0.0
  0
LTYPE
  5
29F7
330
2999
100
AcDbSymbolTableRecord
100
AcDbLinetypeTableRecord
  2
ByLayer
 70
     0
  3

 72
    65
 73
     0
 40
0.0
  0
LTYPE
  5
29F8
330
2999
100
AcDbSymbolTableRecord
100
AcDbLinetypeTableRecord
  2
CONTINUOUS
 70
     0
  3
実線
 72
    65
 73
     0
 40
0.0
  0
LTYPE
  5
2A0D
330
2999
100
AcDbSymbolTableRecord
100
AcDbLinetypeTableRecord
  2
DASHDOT
 70
     0
  3
____ _ ____ _ ____ _ ____ _ ____ _ ____ _ ____
 72
    65
 73
     4
 40
5.5
 49
4.0
 74
     0
 49
-0.6
 74
     0
 49
0.3
 74
     0
 49
-0.6
 74
     0
  0
LTYPE
  5
2A0E
330
2999
100
AcDbSymbolTableRecord
100
AcDbLinetypeTableRecord
  2
HIDDEN
 70
     0
  3
Hidden __ __ __ __ __ __ __ __ __ __ __ __ __ _
 72
    65
 73
     2
 40
0.375
 49
0.25
 74
     0
 49
-0.125
 74
     0
  0
LTYPE
  5
2A0F
330
2999
100
AcDbSymbolTableRecord
100
AcDbLinetypeTableRecord
  2
PHANTOM2
 70
     0
  3
Phantom (.5x) ___ _ _ ___ _ _ ___ _ _ ___ _ _
 72
    65
 73
     6
 40
1.25
 49
0.625
 74
     0
 49
-0.125
 74
     0
 49
0.125
 74
     0
 49
-0.125
 74
     0
 49
0.125
 74
     0
 49
-0.125
 74
     0
  0
LTYPE
  5
2A10
330
2999
100
AcDbSymbolTableRecord
100
AcDbLinetypeTableRecord
  2
CENTER
 70
     0
  3
Center ____ _ ____ _ ____ _ ____ _ ____ _ ____
 72
    65
 73
     4
 40
2.0
 49
1.25
 74
     0
 49
-0.25
 74
     0
 49
0.25
 74
     0
 49
-0.25
 74
     0
  0
LTYPE
  5
2A11
330
2999
100
AcDbSymbolTableRecord
100
AcDbLinetypeTableRecord
  2
ASULTYPE
 70
     0
  3
実線
 72
    65
 73
     2
 40
3.0
 49
2.5
 74
     0
 49
0.5
 74
     0
  0
LTYPE
  5
2A12
330
2999
100
AcDbSymbolTableRecord
100
AcDbLinetypeTableRecord
  2
ASVLTYPE
 70
     0
  3
__ __ __ __ __ __ __ __ __ __ __ __ __ __ __ __ __ __ __ __ __
 72
    65
 73
     2
 40
0.75
 49
0.5
 74
     0
 49
-0.25
 74
     0
  0
LTYPE
  5
2A13
330
2999
100
AcDbSymbolTableRecord
100
AcDbLinetypeTableRecord
  2
AM_ISO02W050
 70
     0
  3
__ __ __ __ __ __ __ __ __ __ __ __ __ __ __
 72
    65
 73
     2
 40
7.5
 49
6.0
 74
     0
 49
-1.5
 74
     0
  0
LTYPE
  5
2A14
330
2999
100
AcDbSymbolTableRecord
100
AcDbLinetypeTableRecord
  2
AM_ISO08W050
 70
     0
  3
____ . ____ . ____ . ____ . ____ . ____ . ____
 72
    65
 73
     4
 40
18.0
 49
12.0
 74
     0
 49
-1.5
 74
     0
 49
3.0
 74
     0
 49
-1.5
 74
     0
  0
LTYPE
  5
2A15
330
2999
100
AcDbSymbolTableRecord
100
AcDbLinetypeTableRecord
  2
AM_ISO09W050
 70
     0
  3
_____ . . _____ . . _____ . . ____ .. ____
 72
    65
 73
     6
 40
22.5
 49
12.0
 74
     0
 49
-1.5
 74
     0
 49
3.0
 74
     0
 49
-1.5
 74
     0
 49
3.0
 74
     0
 49
-1.5
 74
     0
  0
LTYPE
  5
2A16
330
2999
100
AcDbSymbolTableRecord
100
AcDbLinetypeTableRecord
  2
AMCONSTR
 70
     0
  3
_______________________
 72
    65
 73
     2
 40
9999.0
 49
9999.0
 74
     0
 49
0.0
 74
     0
  0
LTYPE
  5
2A17
330
2999
100
AcDbSymbolTableRecord
100
AcDbLinetypeTableRecord
  2
AM_ISO08W050X2
 70
     0
  3
__ . __ . __ . __ . __ . __
 72
    65
 73
     4
 40
9.0
 49
6.0
 74
     0
 49
-0.75
 74
     0
 49
1.5
 74
     0
 49
-0.75
 74
     0
  0
LTYPE
  5
2A18
330
2999
100
AcDbSymbolTableRecord
100
AcDbLinetypeTableRecord
  2
AM_ISO02W050X2
 70
     0
  3
 _ _ _ _ _ _ _ _ _ _ _ _
 72
    65
 73
     2
 40
3.75
 49
3.0
 74
     0
 49
-0.75
 74
     0
  0
LTYPE
  5
2A19
330
2999
100
AcDbSymbolTableRecord
100
AcDbLinetypeTableRecord
  2
AMZIGZAG
 70
     0
  3
/\/-/\/-/\/-/\/-/\/-/\/
 72
    65
 73
     2
 40
11.0001
 49
0.0001
 74
     0
 49
-11.0
 74
     0
  0
LTYPE
  5
2A1A
330
2999
100
AcDbSymbolTableRecord
100
AcDbLinetypeTableRecord
  2
CENTER2
 70
     0
  3
Center (.5x) ___ _ ___ _ ___ _ ___ _ ___ _ ___
 72
    65
 73
     4
 40
1.125
 49
0.75
 74
     0
 49
-0.125
 74
     0
 49
0.125
 74
     0
 49
-0.125
 74
     0
  0
LTYPE
  5
2A1B
330
2999
100
AcDbSymbolTableRecord
100
AcDbLinetypeTableRecord
  2
HIDDEN2
 70
     0
  3
Hidden (.5x) _ _ _ _ _ _ _ _ _ _ _ _ _ _ _ _ _
 72
    65
 73
     2
 40
0.1875
 49
0.125
 74
     0
 49
-0.0625
 74
     0
  0
LTYPE
  5
2A1C
330
2999
100
AcDbSymbolTableRecord
100
AcDbLinetypeTableRecord
  2
AMZIGZAG2
 70
     0
  3
/\/-/\/-/\/-/\/-/\/-/\/
 72
    65
 73
     2
 40
0.4401
 49
0.0001
 74
     0
 49
-0.4400000000000003
 74
     0
  0
LTYPE
  5
2A1D
330
2999
100
AcDbSymbolTableRecord
100
AcDbLinetypeTableRecord
  2
ACANSTGB
 70
     0
  3
__ . . __ . .
 72
    65
 73
     6
 40
0.35433070866
 49
0.15748031496
 74
     0
 49
-0.03937007874
 74
     0
 49
0.03937007874
 74
     0
 49
-0.03937007874
 74
     0
 49
0.03937007874
 74
     0
 49
-0.03937007874
 74
     0
  0
LTYPE
  5
2A1E
330
2999
100
AcDbSymbolTableRecord
100
AcDbLinetypeTableRecord
  2
ACANSTGL
 70
     0
  3
_ _ _ _ _
 72
    65
 73
     2
 40
0.11811023622
 49
0.07874015748
 74
     0
 49
-0.03937007874
 74
     0
  0
ENDTAB
  0
TABLE
  2
LAYER
  5
2996
330
0
100
AcDbSymbolTable
 70
    12
  0
LAYER
  5
29F0
102
{ACAD_XDICTIONARY
360
2BCD
102
}
330
2996
100
AcDbSymbolTableRecord
100
AcDbLayerTableRecord
  2
0
 70
     0
 62
     7
  6
CONTINUOUS
370
    -3
390
29A3
  0
LAYER
  5
2A1F
102
{ACAD_XDICTIONARY
360
2BCF
102
}
330
2996
100
AcDbSymbolTableRecord
100
AcDbLayerTableRecord
  2
OUTLINE
 70
     0
 62
     3
  6
CONTINUOUS
370
    -3
390
29A3
  0
LAYER
  5
2A20
102
{ACAD_XDICTIONARY
360
2BD1
102
}
330
2996
100
AcDbSymbolTableRecord
100
AcDbLayerTableRecord
  2
SIZE
 70
     0
 62
    30
  6
CONTINUOUS
370
    -3
390
29A3
  0
LAYER
  5
2A21
102
{ACAD_XDICTIONARY
360
2BD3
102
}
330
2996
100
AcDbSymbolTableRecord
100
AcDbLayerTableRecord
  2
BASIS
 70
     0
 62
     6
  6
DASHDOT
370
    -3
390
29A3
  0
LAYER
  5
2A22
102
{ACAD_XDICTIONARY
360
2BD5
102
}
330
2996
100
AcDbSymbolTableRecord
100
AcDbLayerTableRecord
  2
DETAIL
 70
     0
 62
     5
  6
CONTINUOUS
370
    -3
390
29A3
  0
LAYER
  5
2A23
102
{ACAD_XDICTIONARY
360
2BD7
102
}
330
2996
100
AcDbSymbolTableRecord
100
AcDbLayerTableRecord
  2
ARRANGE
 70
     0
 62
     1
  6
CONTINUOUS
370
    -3
390
29A3
  0
LAYER
  5
2A24
330
2996
100
AcDbSymbolTableRecord
100
AcDbLayerTableRecord
  2
DEFPOINTS
 70
     0
 62
     7
  6
CONTINUOUS
290
     0
370
    -3
390
29A3
  0
LAYER
  5
2A25
102
{ACAD_XDICTIONARY
360
2BD9
102
}
330
2996
100
AcDbSymbolTableRecord
100
AcDbLayerTableRecord
  2
ETC
 70
     0
 62
    61
  6
CONTINUOUS
370
    -3
390
29A3
  0
LAYER
  5
2A26
102
{ACAD_XDICTIONARY
360
2BDB
102
}
330
2996
100
AcDbSymbolTableRecord
100
AcDbLayerTableRecord
  2
FIX
 70
     0
 62
    11
  6
CONTINUOUS
370
    -3
390
29A3
  0
LAYER
  5
2A27
102
{ACAD_XDICTIONARY
360
2BDD
102
}
330
2996
100
AcDbSymbolTableRecord
100
AcDbLayerTableRecord
  2
NOTE
 70
     0
 62
     4
  6
CONTINUOUS
370
    -3
390
29A3
  0
LAYER
  5
2A28
102
{ACAD_XDICTIONARY
360
2BDF
102
}
330
2996
100
AcDbSymbolTableRecord
100
AcDbLayerTableRecord
  2
SERVICESPACE
 70
     0
 62
     2
  6
DASHDOT
370
    -3
390
29A3
  0
LAYER
  5
2A29
102
{ACAD_XDICTIONARY
360
2BE1
102
}
330
2996
100
AcDbSymbolTableRecord
100
AcDbLayerTableRecord
  2
SYMBOLLINE
 70
     0
 62
    15
  6
CONTINUOUS
370
    -3
390
29A3
  0
ENDTAB
  0
TABLE
  2
STYLE
  5
2997
330
0
100
AcDbSymbolTable
 70
     5
  0
STYLE
  5
29F1
330
2997
100
AcDbSymbolTableRecord
100
AcDbTextStyleTableRecord
  2
STANDARD
 70
     0
 40
64.0
 41
0.9
 50
0.0
 71
     0
 42
64.0
  3
SIMPLEX.shx
  4
BIGFONT.shx
  0
STYLE
  5
29F5
330
2997
100
AcDbSymbolTableRecord
100
AcDbTextStyleTableRecord
  2
ANNOTATIVE
 70
     0
 40
0.0
 41
1.0
 50
0.0
 71
     0
 42
0.2
  3
txt
  4

1001
ACADANNOTATIVE
1000
AnnotativeData
1002
{
1070
     1
1070
     1
1002
}
  0
STYLE
  5
2A2A
330
2997
100
AcDbSymbolTableRecord
100
AcDbTextStyleTableRecord
  2

 70
     1
 40
0.0
 41
1.0
 50
0.0
 71
     0
 42
64.0
  3
genltshp.shx
  4

  0
STYLE
  5
2A2B
330
2997
100
AcDbSymbolTableRecord
100
AcDbTextStyleTableRecord
  2
ACANSTS
 70
     0
 40
1.0
 41
1.0
 50
0.0
 71
     0
 42
64.0
  3
romans.shx
  4
extfont.shx
  0
STYLE
  5
2A2C
330
2997
100
AcDbSymbolTableRecord
100
AcDbTextStyleTableRecord
  2
ACANSGDT
 70
     0
 40
0.0
 41
1.0
 50
0.0
 71
     0
 42
64.0
  3
amgdt.shx
  4

  0
ENDTAB
  0
TABLE
  2
VIEW
  5
299A
330
0
100
AcDbSymbolTable
 70
     1
  0
VIEW
  5
2A2D
330
299A
100
AcDbSymbolTableRecord
100
AcDbViewTableRecord
  2
ALL
 70
     0
 40
4282.619807999997
 10
0.0
 20
41.30990399999999
 41
5940.0
 11
0.0
 21
0.0
 31
1.0
 12
0.0
 22
0.0
 32
0.0
 42
50.0
 43
0.0
 44
0.0
 50
0.0
 71
     0
281
     0
 72
     1
110
0.0
120
0.0
130
0.0
111
1.0
121
0.0
131
0.0
112
0.0
122
1.0
132
0.0
 79
     0
146
0.0
  0
ENDTAB
  0
TABLE
  2
UCS
  5
299B
330
0
100
AcDbSymbolTable
 70
     0
  0
ENDTAB
  0
TABLE
  2
APPID
  5
299D
330
0
100
AcDbSymbolTable
 70
    26
  0
APPID
  5
29F2
330
299D
100
AcDbSymbolTableRecord
100
AcDbRegAppTableRecord
  2
ACAD
 70
     0
  0
APPID
  5
29F9
330
299D
100
AcDbSymbolTableRecord
100
AcDbRegAppTableRecord
  2
ACADANNOTATIVE
 70
     0
  0
APPID
  5
2A03
330
299D
100
AcDbSymbolTableRecord
100
AcDbRegAppTableRecord
  2
ACAD_MLEADERVER
 70
     0
  0
APPID
  5
2A2E
330
299D
100
AcDbSymbolTableRecord
100
AcDbRegAppTableRecord
  2
GENIUS_GENDIM_13
 70
     0
  0
APPID
  5
2A2F
330
299D
100
AcDbSymbolTableRecord
100
AcDbRegAppTableRecord
  2
GENIUS_GENDTOL_13
 70
     0
  0
APPID
  5
2A30
330
299D
100
AcDbSymbolTableRecord
100
AcDbRegAppTableRecord
  2
GENIUS_GE3DTOL_13
 70
     0
  0
APPID
  5
2A31
330
299D
100
AcDbSymbolTableRecord
100
AcDbRegAppTableRecord
  2
MCAD_NO_VIS
 70
     0
  0
APPID
  5
2A32
330
299D
100
AcDbSymbolTableRecord
100
AcDbRegAppTableRecord
  2
ACAD_TEMP_GRAPHIC
 70
     0
  0
APPID
  5
2A33
330
299D
100
AcDbSymbolTableRecord
100
AcDbRegAppTableRecord
  2
AD_DRAW
 70
     0
  0
APPID
  5
2A34
330
299D
100
AcDbSymbolTableRecord
100
AcDbRegAppTableRecord
  2
ACATTRIBSERVICES
 70
     0
  0
APPID
  5
2A35
330
299D
100
AcDbSymbolTableRecord
100
AcDbRegAppTableRecord
  2
ASURF_PCURVE_APPNAME
 70
     0
  0
APPID
  5
2A36
330
299D
100
AcDbSymbolTableRecord
100
AcDbRegAppTableRecord
  2
AMG_3D2D_5_0
 70
     0
  0
APPID
  5
2A37
330
299D
100
AcDbSymbolTableRecord
100
AcDbRegAppTableRecord
  2
DESIGNERASSEMBLIES
 70
     0
  0
APPID
  5
2A38
330
299D
100
AcDbSymbolTableRecord
100
AcDbRegAppTableRecord
  2
ACADM_DIM_EDIT
 70
     0
  0
APPID
  5
2A39
330
299D
100
AcDbSymbolTableRecord
100
AcDbRegAppTableRecord
  2
AMDT_DM_ADJ
 70
     0
  0
APPID
  5
2A3A
330
299D
100
AcDbSymbolTableRecord
100
AcDbRegAppTableRecord
  2
ACAD_DSTYLE_DIMARC_LENGTH_
 70
     0
  0
APPID
  5
2A3B
330
299D
100
AcDbSymbolTableRecord
100
AcDbRegAppTableRecord
  2
ACAD_DSTYLE_DIMJOGGED_JOGA
 70
     0
  0
APPID
  5
2A3C
330
299D
100
AcDbSymbolTableRecord
100
AcDbRegAppTableRecord
  2
ACAD_PSEXT
 70
     0
  0
APPID
  5
2A3D
330
299D
100
AcDbSymbolTableRecord
100
AcDbRegAppTableRecord
  2
ACAD_EXEMPT_FROM_CAD_STANDARDS
 70
     0
  0
APPID
  5
2A3E
330
299D
100
AcDbSymbolTableRecord
100
AcDbRegAppTableRecord
  2
ACAD_DSTYLE_DIMJAG
 70
     0
  0
APPID
  5
2A3F
330
299D
100
AcDbSymbolTableRecord
100
AcDbRegAppTableRecord
  2
ACAD_DSTYLE_DIMTALN
 70
     0
  0
APPID
  5
2B6D
330
299D
100
AcDbSymbolTableRecord
100
AcDbRegAppTableRecord
  2
AMG_3D2D_5.0
 70
     0
  0
APPID
  5
2C0A
330
299D
100
AcDbSymbolTableRecord
100
AcDbRegAppTableRecord
  2
ACAD_DSTYLE_DIMARC_LENGTH_SYMBOL
 70
     0
  0
APPID
  5
2C0B
330
299D
100
AcDbSymbolTableRecord
100
AcDbRegAppTableRecord
  2
ACAD_DSTYLE_DIM_LINETYPE
 70
     0
  0
APPID
  5
2C0C
330
299D
100
AcDbSymbolTableRecord
100
AcDbRegAppTableRecord
  2
ACAD_DSTYLE_DIM_EXT1_LINETYPE
 70
     0
  0
APPID
  5
2C0D
330
299D
100
AcDbSymbolTableRecord
100
AcDbRegAppTableRecord
  2
ACAD_DSTYLE_DIM_EXT2_LINETYPE
 70
     0
  0
ENDTAB
  0
TABLE
  2
DIMSTYLE
  5
299E
330
0
100
AcDbSymbolTable
 70
    10
100
AcDbDimStyleTable
 71
     1
340
2A40
  0
DIMSTYLE
105
29F3
330
299E
100
AcDbSymbolTableRecord
100
AcDbDimStyleTableRecord
  2
STANDARD
 70
     0
 41
12.0
 42
20.0
 44
20.0
 77
     1
 78
     8
140
64.0
141
0.0
147
10.0
275
     1
279
     2
284
     7
285
     7
286
     7
340
29F1
  0
DIMSTYLE
105
29F4
330
299E
100
AcDbSymbolTableRecord
100
AcDbDimStyleTableRecord
  2
ANNOTATIVE
 70
     0
275
     1
279
     2
284
     7
285
     7
286
     7
340
29F1
1001
ACADANNOTATIVE
1000
AnnotativeData
1002
{
1070
     1
1070
     1
1002
}
  0
DIMSTYLE
105
2A40
330
299E
100
AcDbSymbolTableRecord
100
AcDbDimStyleTableRecord
  2
AM_ANSI
 70
     0
  4
mm
 41
0.12
 42
0.05
 43
0.5
 44
0.1
 47
0.1
 48
0.1
 78
     7
 79
     2
140
0.12
141
0.0
146
0.71
147
0.06
176
   256
177
   256
178
     2
274
     4
284
     7
340
29F1
371
    -1
372
    -1
1001
ACAD_DSTYLE_DIMARC_LENGTH_SYMBOL
1070
   379
1070
     1
1001
ACAD_DSTYLE_DIM_LINETYPE
1070
   380
1005
29F6
1001
ACAD_DSTYLE_DIM_EXT1_LINETYPE
1070
   381
1005
29F6
1001
ACAD_DSTYLE_DIM_EXT2_LINETYPE
1070
   382
1005
29F6
  0
DIMSTYLE
105
2A41
330
299E
100
AcDbSymbolTableRecord
100
AcDbDimStyleTableRecord
  2
AM_ANSI$3
 70
     0
  4
mm
 41
0.12
 42
0.05
 43
0.5
 44
0.1
 47
0.1
 48
0.1
 78
     7
 79
     2
140
0.12
141
0.0
146
0.71
147
0.06
176
   256
177
   256
178
     2
274
     4
284
     7
288
     1
289
     0
340
29F1
371
    -1
372
    -1
1001
ACAD_DSTYLE_DIMARC_LENGTH_SYMBOL
1070
   379
1070
     1
1001
ACAD_DSTYLE_DIM_LINETYPE
1070
   380
1005
29F6
1001
ACAD_DSTYLE_DIM_EXT1_LINETYPE
1070
   381
1005
29F6
1001
ACAD_DSTYLE_DIM_EXT2_LINETYPE
1070
   382
1005
29F6
  0
DIMSTYLE
105
2A42
330
299E
100
AcDbSymbolTableRecord
100
AcDbDimStyleTableRecord
  2
AM_ANSI$4
 70
     0
  4
mm
 41
0.12
 42
0.05
 43
0.5
 44
0.1
 47
0.1
 48
0.1
 78
     7
 79
     2
140
0.12
141
0.0
146
0.71
147
0.06
176
   256
177
   256
178
     2
274
     4
284
     7
340
29F1
371
    -1
372
    -1
1001
ACAD_DSTYLE_DIMARC_LENGTH_SYMBOL
1070
   379
1070
     1
1001
ACAD_DSTYLE_DIM_LINETYPE
1070
   380
1005
29F6
1001
ACAD_DSTYLE_DIM_EXT1_LINETYPE
1070
   381
1005
29F6
1001
ACAD_DSTYLE_DIM_EXT2_LINETYPE
1070
   382
1005
29F6
  0
DIMSTYLE
105
2A43
330
299E
100
AcDbSymbolTableRecord
100
AcDbDimStyleTableRecord
  2
AM_ANSI$7
 70
     0
  4
mm
 41
0.12
 42
0.05
 43
0.5
 44
0.1
 47
0.1
 48
0.1
 78
     7
 79
     2
140
0.12
141
0.0
146
0.71
147
0.06
176
   256
177
   256
178
     2
274
     4
284
     7
340
29F1
371
    -1
372
    -1
1001
ACAD_DSTYLE_DIMARC_LENGTH_SYMBOL
1070
   379
1070
     1
1001
ACAD_DSTYLE_DIM_LINETYPE
1070
   380
1005
29F6
1001
ACAD_DSTYLE_DIM_EXT1_LINETYPE
1070
   381
1005
29F6
1001
ACAD_DSTYLE_DIM_EXT2_LINETYPE
1070
   382
1005
29F6
  0
DIMSTYLE
105
2A44
330
299E
100
AcDbSymbolTableRecord
100
AcDbDimStyleTableRecord
  2
AM_ANSI$SF
 70
     0
  4
mm
 41
0.12
 42
0.05
 43
0.5
 44
0.1
 47
0.1
 48
0.1
 75
     1
 76
     1
 78
     7
 79
     2
140
0.12
141
0.0
146
0.71
147
0.06
176
   256
177
   256
178
     2
274
     4
284
     7
340
29F1
371
    -1
372
    -1
1001
ACAD_DSTYLE_DIMARC_LENGTH_SYMBOL
1070
   379
1070
     1
1001
ACAD_DSTYLE_DIM_LINETYPE
1070
   380
1005
29F6
1001
ACAD_DSTYLE_DIM_EXT1_LINETYPE
1070
   381
1005
29F6
1001
ACAD_DSTYLE_DIM_EXT2_LINETYPE
1070
   382
1005
29F6
  0
DIMSTYLE
105
2A45
330
299E
100
AcDbSymbolTableRecord
100
AcDbDimStyleTableRecord
  2
AM_ANSI$SH
 70
     0
  4
mm
 41
0.12
 42
0.05
 43
0.5
 44
0.1
 47
0.1
 48
0.1
 75
     1
 76
     1
 78
     7
 79
     2
140
0.12
141
0.0
146
0.71
147
0.06
173
     1
176
   256
177
   256
178
     2
274
     4
284
     7
340
29F1
343
2A65
371
    -1
372
    -1
1001
ACAD_DSTYLE_DIMARC_LENGTH_SYMBOL
1070
   379
1070
     1
1001
ACAD_DSTYLE_DIM_LINETYPE
1070
   380
1005
29F6
1001
ACAD_DSTYLE_DIM_EXT1_LINETYPE
1070
   381
1005
29F6
1001
ACAD_DSTYLE_DIM_EXT2_LINETYPE
1070
   382
1005
29F6
  0
DIMSTYLE
105
2A46
330
299E
100
AcDbSymbolTableRecord
100
AcDbDimStyleTableRecord
  2
STANDARD1
 70
     0
 40
6.0
 41
2.5
 42
0.625
 43
6.0
 44
1.25
 47
1.0
 48
0.5
 77
     1
 78
     8
140
2.5
141
0.0
146
0.6
147
1.0
173
     1
275
     1
279
     2
284
     7
285
     7
286
     7
340
29F1
  0
DIMSTYLE
105
2A47
330
299E
100
AcDbSymbolTableRecord
100
AcDbDimStyleTableRecord
  2
STANDARD$0
 70
     0
 41
12.0
 42
20.0
 44
20.0
 73
     0
 74
     0
 77
     1
 78
     8
140
64.0
141
0.0
147
10.0
275
     1
279
     2
284
     7
285
     7
286
     7
340
29F1
  0
ENDTAB
  0
TABLE
  2
BLOCK_RECORD
  5
2995
330
0
100
AcDbSymbolTable
 70
    79
  0
BLOCK_RECORD
  5
2A08
102
{ACAD_XDICTIONARY
360
2BE3
102
}
330
2995
100
AcDbSymbolTableRecord
100
AcDbBlockTableRecord
  2
*Model_Space
340
2A0B
  0
BLOCK_RECORD
  5
2A04
330
2995
100
AcDbSymbolTableRecord
100
AcDbBlockTableRecord
  2
*Paper_Space
340
2A07
  0
BLOCK_RECORD
  5
2A4F
330
2995
100
AcDbSymbolTableRecord
100
AcDbBlockTableRecord
  2
$MODEL_SPACE
340
0
  0
BLOCK_RECORD
  5
2A51
330
2995
100
AcDbSymbolTableRecord
100
AcDbBlockTableRecord
  2
$PAPER_SPACE
340
0
  0
BLOCK_RECORD
  5
2A53
330
2995
100
AcDbSymbolTableRecord
100
AcDbBlockTableRecord
  2
_ORIGIN
340
0
  0
BLOCK_RECORD
  5
2A55
330
2995
100
AcDbSymbolTableRecord
100
AcDbBlockTableRecord
  2
_DOTBLANK
340
0
102
{BLKREFS
331
1299
331
129A
331
11AA
331
11AB
331
E80
331
E81
331
1123
331
1124
331
11C2
331
11C3
331
11EC
331
11ED
331
11F9
331
11FA
331
1287
331
1288
331
1417
331
1418
331
1423
331
1424
331
142F
331
1430
331
143B
331
143C
331
166E
331
166F
331
1677
331
1678
331
1680
331
1681
331
1689
331
168A
331
1696
331
1697
331
16A3
331
16A4
331
16AF
331
16B0
331
16BB
331
16BC
331
16C7
331
16C8
331
16D3
331
16D4
331
1D86
331
1D87
331
1D8F
331
1D90
331
1D98
331
1D99
331
1DA1
331
1DA2
331
1DAB
331
1DAC
331
1DB5
331
1DB6
331
292D
331
292E
331
2932
331
2933
331
2938
331
2939
331
293D
331
293E
331
2943
331
2944
331
2948
331
2949
102
}
  0
BLOCK_RECORD
  5
2A57
330
2995
100
AcDbSymbolTableRecord
100
AcDbBlockTableRecord
  2
_OPEN30
340
0
102
{BLKREFS
331
2087
331
2165
331
223C
331
232F
331
245C
331
2885
102
}
  0
BLOCK_RECORD
  5
2A59
330
2995
100
AcDbSymbolTableRecord
100
AcDbBlockTableRecord
  2
*D5
340
0
  0
BLOCK_RECORD
  5
2A5B
330
2995
100
AcDbSymbolTableRecord
100
AcDbBlockTableRecord
  2
*U6
340
0
102
{BLKREFS
331
129B
102
}
  0
BLOCK_RECORD
  5
2A5D
330
2995
100
AcDbSymbolTableRecord
100
AcDbBlockTableRecord
  2
*D7
340
0
  0
BLOCK_RECORD
  5
2A5F
330
2995
100
AcDbSymbolTableRecord
100
AcDbBlockTableRecord
  2
*U8
340
0
102
{BLKREFS
331
11AC
102
}
  0
BLOCK_RECORD
  5
2A61
330
2995
100
AcDbSymbolTableRecord
100
AcDbBlockTableRecord
  2
*D9
340
0
  0
BLOCK_RECORD
  5
2A63
330
2995
100
AcDbSymbolTableRecord
100
AcDbBlockTableRecord
  2
*U10
340
0
102
{BLKREFS
331
E82
102
}
  0
BLOCK_RECORD
  5
2A65
330
2995
100
AcDbSymbolTableRecord
100
AcDbBlockTableRecord
  2
GENAXEH
340
0
  0
BLOCK_RECORD
  5
2A67
330
2995
100
AcDbSymbolTableRecord
100
AcDbBlockTableRecord
  2
*D12
340
0
  0
BLOCK_RECORD
  5
2A69
330
2995
100
AcDbSymbolTableRecord
100
AcDbBlockTableRecord
  2
*U13
340
0
102
{BLKREFS
331
1125
102
}
  0
BLOCK_RECORD
  5
2A6B
330
2995
100
AcDbSymbolTableRecord
100
AcDbBlockTableRecord
  2
*D14
340
0
  0
BLOCK_RECORD
  5
2A6D
330
2995
100
AcDbSymbolTableRecord
100
AcDbBlockTableRecord
  2
*U15
340
0
102
{BLKREFS
331
11C4
102
}
  0
BLOCK_RECORD
  5
2A6F
330
2995
100
AcDbSymbolTableRecord
100
AcDbBlockTableRecord
  2
*D16
340
0
  0
BLOCK_RECORD
  5
2A71
330
2995
100
AcDbSymbolTableRecord
100
AcDbBlockTableRecord
  2
*U17
340
0
102
{BLKREFS
331
11EE
102
}
  0
BLOCK_RECORD
  5
2A73
330
2995
100
AcDbSymbolTableRecord
100
AcDbBlockTableRecord
  2
*D18
340
0
  0
BLOCK_RECORD
  5
2A75
330
2995
100
AcDbSymbolTableRecord
100
AcDbBlockTableRecord
  2
*U19
340
0
102
{BLKREFS
331
11FB
102
}
  0
BLOCK_RECORD
  5
2A77
330
2995
100
AcDbSymbolTableRecord
100
AcDbBlockTableRecord
  2
*D20
340
0
  0
BLOCK_RECORD
  5
2A79
330
2995
100
AcDbSymbolTableRecord
100
AcDbBlockTableRecord
  2
*U21
340
0
102
{BLKREFS
331
1289
102
}
  0
BLOCK_RECORD
  5
2A7B
330
2995
100
AcDbSymbolTableRecord
100
AcDbBlockTableRecord
  2
*D22
340
0
  0
BLOCK_RECORD
  5
2A7D
330
2995
100
AcDbSymbolTableRecord
100
AcDbBlockTableRecord
  2
*U23
340
0
102
{BLKREFS
331
1419
102
}
  0
BLOCK_RECORD
  5
2A7F
330
2995
100
AcDbSymbolTableRecord
100
AcDbBlockTableRecord
  2
*D24
340
0
  0
BLOCK_RECORD
  5
2A81
330
2995
100
AcDbSymbolTableRecord
100
AcDbBlockTableRecord
  2
*U25
340
0
102
{BLKREFS
331
1425
102
}
  0
BLOCK_RECORD
  5
2A83
330
2995
100
AcDbSymbolTableRecord
100
AcDbBlockTableRecord
  2
*D26
340
0
  0
BLOCK_RECORD
  5
2A85
330
2995
100
AcDbSymbolTableRecord
100
AcDbBlockTableRecord
  2
*U27
340
0
102
{BLKREFS
331
1431
102
}
  0
BLOCK_RECORD
  5
2A87
330
2995
100
AcDbSymbolTableRecord
100
AcDbBlockTableRecord
  2
*D28
340
0
  0
BLOCK_RECORD
  5
2A89
330
2995
100
AcDbSymbolTableRecord
100
AcDbBlockTableRecord
  2
*U29
340
0
102
{BLKREFS
331
143D
102
}
  0
BLOCK_RECORD
  5
2A8B
330
2995
100
AcDbSymbolTableRecord
100
AcDbBlockTableRecord
  2
*D30
340
0
  0
BLOCK_RECORD
  5
2A8D
330
2995
100
AcDbSymbolTableRecord
100
AcDbBlockTableRecord
  2
*U31
340
0
102
{BLKREFS
331
1670
102
}
  0
BLOCK_RECORD
  5
2A8F
330
2995
100
AcDbSymbolTableRecord
100
AcDbBlockTableRecord
  2
*D32
340
0
  0
BLOCK_RECORD
  5
2A91
330
2995
100
AcDbSymbolTableRecord
100
AcDbBlockTableRecord
  2
*U33
340
0
102
{BLKREFS
331
1679
102
}
  0
BLOCK_RECORD
  5
2A93
330
2995
100
AcDbSymbolTableRecord
100
AcDbBlockTableRecord
  2
*D34
340
0
  0
BLOCK_RECORD
  5
2A95
330
2995
100
AcDbSymbolTableRecord
100
AcDbBlockTableRecord
  2
*U35
340
0
102
{BLKREFS
331
1682
102
}
  0
BLOCK_RECORD
  5
2A97
330
2995
100
AcDbSymbolTableRecord
100
AcDbBlockTableRecord
  2
*D36
340
0
  0
BLOCK_RECORD
  5
2A99
330
2995
100
AcDbSymbolTableRecord
100
AcDbBlockTableRecord
  2
*U37
340
0
102
{BLKREFS
331
168B
102
}
  0
BLOCK_RECORD
  5
2A9B
330
2995
100
AcDbSymbolTableRecord
100
AcDbBlockTableRecord
  2
*U38
340
0
  0
BLOCK_RECORD
  5
2A9D
330
2995
100
AcDbSymbolTableRecord
100
AcDbBlockTableRecord
  2
*D39
340
0
  0
BLOCK_RECORD
  5
2A9F
330
2995
100
AcDbSymbolTableRecord
100
AcDbBlockTableRecord
  2
*U40
340
0
102
{BLKREFS
331
1698
102
}
  0
BLOCK_RECORD
  5
2AA1
330
2995
100
AcDbSymbolTableRecord
100
AcDbBlockTableRecord
  2
*D41
340
0
  0
BLOCK_RECORD
  5
2AA3
330
2995
100
AcDbSymbolTableRecord
100
AcDbBlockTableRecord
  2
*U42
340
0
102
{BLKREFS
331
16A5
102
}
  0
BLOCK_RECORD
  5
2AA5
330
2995
100
AcDbSymbolTableRecord
100
AcDbBlockTableRecord
  2
*D43
340
0
  0
BLOCK_RECORD
  5
2AA7
330
2995
100
AcDbSymbolTableRecord
100
AcDbBlockTableRecord
  2
*U44
340
0
102
{BLKREFS
331
16B1
102
}
  0
BLOCK_RECORD
  5
2AA9
330
2995
100
AcDbSymbolTableRecord
100
AcDbBlockTableRecord
  2
*D45
340
0
  0
BLOCK_RECORD
  5
2AAB
330
2995
100
AcDbSymbolTableRecord
100
AcDbBlockTableRecord
  2
*U46
340
0
102
{BLKREFS
331
16BD
102
}
  0
BLOCK_RECORD
  5
2AAD
330
2995
100
AcDbSymbolTableRecord
100
AcDbBlockTableRecord
  2
*D47
340
0
  0
BLOCK_RECORD
  5
2AAF
330
2995
100
AcDbSymbolTableRecord
100
AcDbBlockTableRecord
  2
*U48
340
0
102
{BLKREFS
331
16C9
102
}
  0
BLOCK_RECORD
  5
2AB1
330
2995
100
AcDbSymbolTableRecord
100
AcDbBlockTableRecord
  2
*D49
340
0
  0
BLOCK_RECORD
  5
2AB3
330
2995
100
AcDbSymbolTableRecord
100
AcDbBlockTableRecord
  2
*U50
340
0
102
{BLKREFS
331
16D5
102
}
  0
BLOCK_RECORD
  5
2AB5
330
2995
100
AcDbSymbolTableRecord
100
AcDbBlockTableRecord
  2
*D51
340
0
  0
BLOCK_RECORD
  5
2AB7
330
2995
100
AcDbSymbolTableRecord
100
AcDbBlockTableRecord
  2
*U52
340
0
102
{BLKREFS
331
1D88
102
}
  0
BLOCK_RECORD
  5
2AB9
330
2995
100
AcDbSymbolTableRecord
100
AcDbBlockTableRecord
  2
*D53
340
0
  0
BLOCK_RECORD
  5
2ABB
330
2995
100
AcDbSymbolTableRecord
100
AcDbBlockTableRecord
  2
*U54
340
0
102
{BLKREFS
331
1D91
102
}
  0
BLOCK_RECORD
  5
2ABD
330
2995
100
AcDbSymbolTableRecord
100
AcDbBlockTableRecord
  2
*D55
340
0
  0
BLOCK_RECORD
  5
2ABF
330
2995
100
AcDbSymbolTableRecord
100
AcDbBlockTableRecord
  2
*U56
340
0
102
{BLKREFS
331
1D9A
102
}
  0
BLOCK_RECORD
  5
2AC1
330
2995
100
AcDbSymbolTableRecord
100
AcDbBlockTableRecord
  2
*D57
340
0
  0
BLOCK_RECORD
  5
2AC3
330
2995
100
AcDbSymbolTableRecord
100
AcDbBlockTableRecord
  2
*U58
340
0
102
{BLKREFS
331
1DA3
102
}
  0
BLOCK_RECORD
  5
2AC5
330
2995
100
AcDbSymbolTableRecord
100
AcDbBlockTableRecord
  2
*D59
340
0
  0
BLOCK_RECORD
  5
2AC7
330
2995
100
AcDbSymbolTableRecord
100
AcDbBlockTableRecord
  2
*U60
340
0
102
{BLKREFS
331
1DAD
102
}
  0
BLOCK_RECORD
  5
2AC9
330
2995
100
AcDbSymbolTableRecord
100
AcDbBlockTableRecord
  2
*D61
340
0
  0
BLOCK_RECORD
  5
2ACB
330
2995
100
AcDbSymbolTableRecord
100
AcDbBlockTableRecord
  2
*U62
340
0
102
{BLKREFS
331
1DB7
102
}
  0
BLOCK_RECORD
  5
2ACD
330
2995
100
AcDbSymbolTableRecord
100
AcDbBlockTableRecord
  2
*U63
340
0
  0
BLOCK_RECORD
  5
2ACF
330
2995
100
AcDbSymbolTableRecord
100
AcDbBlockTableRecord
  2
*U64
340
0
  0
BLOCK_RECORD
  5
2AD1
330
2995
100
AcDbSymbolTableRecord
100
AcDbBlockTableRecord
  2
*U65
340
0
  0
BLOCK_RECORD
  5
2AD3
330
2995
100
AcDbSymbolTableRecord
100
AcDbBlockTableRecord
  2
*U66
340
0
  0
BLOCK_RECORD
  5
2AD5
330
2995
100
AcDbSymbolTableRecord
100
AcDbBlockTableRecord
  2
*U67
340
0
  0
BLOCK_RECORD
  5
2AD7
330
2995
100
AcDbSymbolTableRecord
100
AcDbBlockTableRecord
  2
*U68
340
0
  0
BLOCK_RECORD
  5
2AD9
330
2995
100
AcDbSymbolTableRecord
100
AcDbBlockTableRecord
  2
*U69
340
0
  0
BLOCK_RECORD
  5
2ADB
330
2995
100
AcDbSymbolTableRecord
100
AcDbBlockTableRecord
  2
*U70
340
0
  0
BLOCK_RECORD
  5
2ADD
330
2995
100
AcDbSymbolTableRecord
100
AcDbBlockTableRecord
  2
*U71
340
0
  0
BLOCK_RECORD
  5
2ADF
330
2995
100
AcDbSymbolTableRecord
100
AcDbBlockTableRecord
  2
*U72
340
0
  0
BLOCK_RECORD
  5
2AE1
330
2995
100
AcDbSymbolTableRecord
100
AcDbBlockTableRecord
  2
*U73
340
0
  0
BLOCK_RECORD
  5
2AE3
330
2995
100
AcDbSymbolTableRecord
100
AcDbBlockTableRecord
  2
*X74
340
0
102
{BLKREFS
331
28F0
102
}
  0
BLOCK_RECORD
  5
2AE5
330
2995
100
AcDbSymbolTableRecord
100
AcDbBlockTableRecord
  2
*X75
340
0
102
{BLKREFS
331
28F1
102
}
  0
BLOCK_RECORD
  5
2AE7
330
2995
100
AcDbSymbolTableRecord
100
AcDbBlockTableRecord
  2
*U76
340
0
102
{BLKREFS
331
28F2
102
}
  0
BLOCK_RECORD
  5
2AE9
330
2995
100
AcDbSymbolTableRecord
100
AcDbBlockTableRecord
  2
*U77
340
0
102
{BLKREFS
331
28F3
102
}
  0
ENDTAB
  0
ENDSEC
  0
SECTION
  2
BLOCKS
  0
BLOCK
  5
2A09
330
2A08
100
AcDbEntity
  8
0
100
AcDbBlockBegin
  2
*Model_Space
 70
     0
 10
0.0
 20
0.0
 30
0.0
  3
*Model_Space
  1

  0
ENDBLK
  5
2A0A
330
2A08
100
AcDbEntity
  8
0
100
AcDbBlockEnd
  0
BLOCK
  5
2A05
330
2A04
100
AcDbEntity
 67
     1
  8
0
100
AcDbBlockBegin
  2
*Paper_Space
 70
     0
 10
0.0
 20
0.0
 30
0.0
  3
*Paper_Space
  1

  0
ENDBLK
  5
2A06
330
2A04
100
AcDbEntity
 67
     1
  8
0
100
AcDbBlockEnd
  0
BLOCK
  5
2A50
330
2A4F
100
AcDbEntity
  8
0
100
AcDbBlockBegin
  2
$MODEL_SPACE
 70
     0
 10
0.0
 20
0.0
 30
0.0
  3
$MODEL_SPACE
  1

  0
ENDBLK
  5
1FC1
330
2A4F
100
AcDbEntity
  8
0
100
AcDbBlockEnd
  0
BLOCK
  5
2A52
330
2A51
100
AcDbEntity
  8
0
100
AcDbBlockBegin
  2
$PAPER_SPACE
 70
     0
 10
0.0
 20
0.0
 30
0.0
  3
$PAPER_SPACE
  1

  0
ENDBLK
  5
1FBD
330
2A51
100
AcDbEntity
  8
0
100
AcDbBlockEnd
  0
BLOCK
  5
2A54
330
2A53
100
AcDbEntity
  8
0
100
AcDbBlockBegin
  2
_ORIGIN
 70
     0
 10
0.0
 20
0.0
 30
0.0
  3
_ORIGIN
  1

  0
CIRCLE
  5
880
330
2A53
100
AcDbEntity
  8
0
  6
Continuous
 62
     7
100
AcDbCircle
 10
0.0
 20
0.0
 30
0.0
 40
0.5
  0
LINE
  5
881
330
2A53
100
AcDbEntity
  8
0
  6
Continuous
 62
     7
100
AcDbLine
 10
0.0
 20
0.0
 30
0.0
 11
-1.0
 21
0.0
 31
0.0
  0
ENDBLK
  5
882
330
2A53
100
AcDbEntity
  8
0
100
AcDbBlockEnd
  0
BLOCK
  5
2A56
330
2A55
100
AcDbEntity
  8
0
 62
     1
100
AcDbBlockBegin
  2
_DOTBLANK
 70
     0
 10
0.0
 20
0.0
 30
0.0
  3
_DOTBLANK
  1

  0
CIRCLE
  5
AB3
330
2A55
100
AcDbEntity
  8
0
  6
ByBlock
 62
     0
100
AcDbCircle
 10
0.0
 20
0.0
 30
0.0
 40
0.5
  0
LINE
  5
AB4
330
2A55
100
AcDbEntity
  8
0
  6
ByBlock
 62
     0
100
AcDbLine
 10
-0.5
 20
0.0
 30
0.0
 11
-1.0
 21
0.0
 31
0.0
  0
ENDBLK
  5
AB6
330
2A55
100
AcDbEntity
  8
0
 62
     1
100
AcDbBlockEnd
  0
BLOCK
  5
2A58
330
2A57
100
AcDbEntity
  8
0
 62
     1
100
AcDbBlockBegin
  2
_OPEN30
 70
     0
 10
0.0
 20
0.0
 30
0.0
  3
_OPEN30
  1

  0
LINE
  5
AB8
330
2A57
100
AcDbEntity
  8
0
  6
ByBlock
 62
     0
100
AcDbLine
 10
-1.0
 20
0.26794919
 30
0.0
 11
0.0
 21
0.0
 31
0.0
  0
LINE
  5
AB9
330
2A57
100
AcDbEntity
  8
0
  6
ByBlock
 62
     0
100
AcDbLine
 10
0.0
 20
0.0
 30
0.0
 11
-1.0
 21
-0.26794919
 31
0.0
  0
LINE
  5
ABA
330
2A57
100
AcDbEntity
  8
0
  6
ByBlock
 62
     0
100
AcDbLine
 10
0.0
 20
0.0
 30
0.0
 11
-1.0
 21
0.0
 31
0.0
  0
ENDBLK
  5
ABC
330
2A57
100
AcDbEntity
  8
0
 62
     1
100
AcDbBlockEnd
  0
BLOCK
  5
2A5A
330
2A59
100
AcDbEntity
  8
0
100
AcDbBlockBegin
  2
*D5
 70
     1
 10
0.0
 20
0.0
 30
0.0
  3
*D5
  1

  0
LINE
  5
1296
330
2A59
100
AcDbEntity
  8
SIZE
 62
     0
100
AcDbLine
 10
-134.5
 20
-320.0
 30
0.0
 11
-134.5
 21
-468.0173952306001
 31
0.0
  0
LINE
  5
1297
330
2A59
100
AcDbEntity
  8
SIZE
 62
     0
100
AcDbLine
 10
134.5
 20
-320.0
 30
0.0
 11
134.5
 21
-468.0173952306001
 31
0.0
  0
LINE
  5
1298
330
2A59
100
AcDbEntity
  8
SIZE
 62
     0
100
AcDbLine
 10
-122.5
 20
-448.0173952306
 30
0.0
 11
122.5
 21
-448.0173952306
 31
0.0
  0
INSERT
  5
1299
330
2A59
100
AcDbEntity
  8
SIZE
 62
     0
100
AcDbBlockReference
  2
_DOTBLANK
 10
-134.5
 20
-448.0173952306
 30
0.0
 41
12.0
 42
12.0
 43
12.0
 50
180.0
  0
INSERT
  5
129A
330
2A59
100
AcDbEntity
  8
SIZE
 62
     0
100
AcDbBlockReference
  2
_DOTBLANK
 10
134.5
 20
-448.0173952306
 30
0.0
 41
12.0
 42
12.0
 43
12.0
  0
INSERT
  5
129B
330
2A59
100
AcDbEntity
  8
0
100
AcDbBlockReference
  2
*U6
 10
0.0
 20
0.0
 30
0.0
  0
POINT
  5
129C
330
2A59
100
AcDbEntity
  8
DEFPOINTS
 62
     0
100
AcDbPoint
 10
-134.5
 20
-300.0
 30
0.0
  0
POINT
  5
129D
330
2A59
100
AcDbEntity
  8
DEFPOINTS
 62
     0
100
AcDbPoint
 10
134.5
 20
-300.0
 30
0.0
  0
POINT
  5
129E
330
2A59
100
AcDbEntity
  8
DEFPOINTS
 62
     0
100
AcDbPoint
 10
134.5
 20
-448.0173952306
 30
0.0
  0
ENDBLK
  5
D72
330
2A59
100
AcDbEntity
  8
0
100
AcDbBlockEnd
  0
BLOCK
  5
2A5C
330
2A5B
100
AcDbEntity
  8
0
100
AcDbBlockBegin
  2
*U6
 70
     1
 10
0.0
 20
0.0
 30
0.0
  3
*U6
  1

  0
TEXT
  5
1EF5
330
2A5B
100
AcDbEntity
  8
SIZE
 62
     0
100
AcDbText
 10
-72.68571428571426
 20
-438.0173952305999
 30
0.0
 40
64.0
  1
269
 41
0.9
100
AcDbText
  0
ENDBLK
  5
1EF7
330
2A5B
100
AcDbEntity
  8
0
100
AcDbBlockEnd
  0
BLOCK
  5
2A5E
330
2A5D
100
AcDbEntity
  8
0
100
AcDbBlockBegin
  2
*D7
 70
     1
 10
0.0
 20
0.0
 30
0.0
  3
*D7
  1

  0
LINE
  5
11A7
330
2A5D
100
AcDbEntity
  8
SIZE
  6
Continuous
 62
     0
100
AcDbLine
 10
143.5
 20
-300.0
 30
0.0
 11
304.6432844803791
 21
-300.0
 31
0.0
  0
LINE
  5
11A8
330
2A5D
100
AcDbEntity
  8
SIZE
  6
Continuous
 62
     0
100
AcDbLine
 10
177.5
 20
-0.0000000000000057
 30
0.0
 11
304.6432844803792
 21
-0.0000000000000417
 31
0.0
  0
LINE
  5
11A9
330
2A5D
100
AcDbEntity
  8
SIZE
  6
Continuous
 62
     0
100
AcDbLine
 10
284.6432844803791
 20
-288.0000000000001
 30
0.0
 11
284.6432844803792
 21
-12.00000000000003
 31
0.0
  0
INSERT
  5
11AA
330
2A5D
100
AcDbEntity
  8
SIZE
  6
Continuous
 62
     0
100
AcDbBlockReference
  2
_DOTBLANK
 10
284.6432844803791
 20
-300.0
 30
0.0
 41
12.0
 42
12.0
 43
12.0
 50
270.0
  0
INSERT
  5
11AB
330
2A5D
100
AcDbEntity
  8
SIZE
  6
Continuous
 62
     0
100
AcDbBlockReference
  2
_DOTBLANK
 10
284.6432844803792
 20
-0.000000000000036
 30
0.0
 41
12.0
 42
12.0
 43
12.0
 50
90.0
  0
INSERT
  5
11AC
330
2A5D
100
AcDbEntity
  8
0
100
AcDbBlockReference
  2
*U8
 10
0.0
 20
0.0
 30
0.0
  0
POINT
  5
11AD
330
2A5D
100
AcDbEntity
  8
DEFPOINTS
  6
Continuous
 62
     0
100
AcDbPoint
 10
123.5
 20
-300.0
 30
0.0
  0
POINT
  5
11AE
330
2A5D
100
AcDbEntity
  8
DEFPOINTS
  6
Continuous
 62
     0
100
AcDbPoint
 10
157.5
 20
0.0
 30
0.0
  0
POINT
  5
11AF
330
2A5D
100
AcDbEntity
  8
DEFPOINTS
  6
Continuous
 62
     0
100
AcDbPoint
 10
284.6432844803792
 20
-0.000000000000036
 30
0.0
  0
ENDBLK
  5
E11
330
2A5D
100
AcDbEntity
  8
0
100
AcDbBlockEnd
  0
BLOCK
  5
2A60
330
2A5F
100
AcDbEntity
  8
0
100
AcDbBlockBegin
  2
*U8
 70
     1
 10
0.0
 20
0.0
 30
0.0
  3
*U8
  1

  0
TEXT
  5
1EE1
330
2A5F
100
AcDbEntity
  8
SIZE
 62
     0
100
AcDbText
 10
274.6432844803792
 20
-224.0571428571429
 30
0.0
 40
64.0
  1
300
 50
90.0
 41
0.9
100
AcDbText
  0
ENDBLK
  5
1EE3
330
2A5F
100
AcDbEntity
  8
0
100
AcDbBlockEnd
  0
BLOCK
  5
2A62
330
2A61
100
AcDbEntity
  8
0
100
AcDbBlockBegin
  2
*D9
 70
     1
 10
0.0
 20
0.0
 30
0.0
  3
*D9
  1

  0
LINE
  5
E7D
330
2A61
100
AcDbEntity
  8
SIZE
 62
     0
100
AcDbLine
 10
-139.9999999999998
 20
32.46448280219375
 30
0.0
 11
-139.9999999999998
 21
136.4516878685508
 31
0.0
  0
LINE
  5
E7E
330
2A61
100
AcDbEntity
  8
SIZE
 62
     0
100
AcDbLine
 10
140.0
 20
32.46448280219375
 30
0.0
 11
140.0
 21
136.4516878685508
 31
0.0
  0
LINE
  5
E7F
330
2A61
100
AcDbEntity
  8
SIZE
 62
     0
100
AcDbLine
 10
-128.0
 20
116.4516878685508
 30
0.0
 11
128.0
 21
116.4516878685508
 31
0.0
  0
INSERT
  5
E80
330
2A61
100
AcDbEntity
  8
SIZE
 62
     0
100
AcDbBlockReference
  2
_DOTBLANK
 10
-139.9999999999998
 20
116.4516878685508
 30
0.0
 41
12.0
 42
12.0
 43
12.0
 50
180.0
  0
INSERT
  5
E81
330
2A61
100
AcDbEntity
  8
SIZE
 62
     0
100
AcDbBlockReference
  2
_DOTBLANK
 10
140.0
 20
116.4516878685508
 30
0.0
 41
12.0
 42
12.0
 43
12.0
  0
INSERT
  5
E82
330
2A61
100
AcDbEntity
  8
0
100
AcDbBlockReference
  2
*U10
 10
0.0
 20
0.0
 30
0.0
  0
POINT
  5
E83
330
2A61
100
AcDbEntity
  8
DEFPOINTS
 62
     0
100
AcDbPoint
 10
-139.9999999999998
 20
12.46448280219374
 30
0.0
  0
POINT
  5
E84
330
2A61
100
AcDbEntity
  8
DEFPOINTS
 62
     0
100
AcDbPoint
 10
140.0
 20
12.46448280219374
 30
0.0
  0
POINT
  5
E85
330
2A61
100
AcDbEntity
  8
DEFPOINTS
 62
     0
100
AcDbPoint
 10
140.0
 20
116.4516878685508
 30
0.0
  0
ENDBLK
  5
E7C
330
2A61
100
AcDbEntity
  8
0
100
AcDbBlockEnd
  0
BLOCK
  5
2A64
330
2A63
100
AcDbEntity
  8
0
100
AcDbBlockBegin
  2
*U10
 70
     1
 10
0.0
 20
0.0
 30
0.0
  3
*U10
  1

  0
TEXT
  5
1ED8
330
2A63
100
AcDbEntity
  8
SIZE
 62
     0
100
AcDbText
 10
-74.05714285714281
 20
126.4516878685508
 30
0.0
 40
64.0
  1
280
 41
0.9
100
AcDbText
  0
ENDBLK
  5
1EDA
330
2A63
100
AcDbEntity
  8
0
100
AcDbBlockEnd
  0
BLOCK
  5
2A66
330
2A65
100
AcDbEntity
  8
0
100
AcDbBlockBegin
  2
GENAXEH
 70
     0
 10
0.0
 20
0.0
 30
0.0
  3
GENAXEH
  1

  0
LINE
  5
FDB
330
2A65
100
AcDbEntity
  8
0
100
AcDbLine
 10
-1.0
 20
0.0
 30
0.0
 11
1.0
 21
0.0
 31
0.0
  0
ENDBLK
  5
FDD
330
2A65
100
AcDbEntity
  8
0
100
AcDbBlockEnd
  0
BLOCK
  5
2A68
330
2A67
100
AcDbEntity
  8
0
100
AcDbBlockBegin
  2
*D12
 70
     1
 10
0.0
 20
0.0
 30
0.0
  3
*D12
  1

  0
LINE
  5
1120
330
2A67
100
AcDbEntity
  8
SIZE
 62
     0
100
AcDbLine
 10
-157.5
 20
20.0
 30
0.0
 11
-157.5
 21
245.5794621189598
 31
0.0
  0
LINE
  5
1121
330
2A67
100
AcDbEntity
  8
SIZE
 62
     0
100
AcDbLine
 10
157.5
 20
20.0
 30
0.0
 11
157.5
 21
245.5794621189598
 31
0.0
  0
LINE
  5
1122
330
2A67
100
AcDbEntity
  8
SIZE
 62
     0
100
AcDbLine
 10
-145.5
 20
225.5794621189598
 30
0.0
 11
145.5
 21
225.5794621189598
 31
0.0
  0
INSERT
  5
1123
330
2A67
100
AcDbEntity
  8
SIZE
 62
     0
100
AcDbBlockReference
  2
_DOTBLANK
 10
-157.5
 20
225.5794621189598
 30
0.0
 41
12.0
 42
12.0
 43
12.0
 50
180.0
  0
INSERT
  5
1124
330
2A67
100
AcDbEntity
  8
SIZE
 62
     0
100
AcDbBlockReference
  2
_DOTBLANK
 10
157.5
 20
225.5794621189598
 30
0.0
 41
12.0
 42
12.0
 43
12.0
  0
INSERT
  5
1125
330
2A67
100
AcDbEntity
  8
0
100
AcDbBlockReference
  2
*U13
 10
0.0
 20
0.0
 30
0.0
  0
POINT
  5
1126
330
2A67
100
AcDbEntity
  8
DEFPOINTS
 62
     0
100
AcDbPoint
 10
-157.5
 20
0.0
 30
0.0
  0
POINT
  5
1127
330
2A67
100
AcDbEntity
  8
DEFPOINTS
 62
     0
100
AcDbPoint
 10
157.5
 20
0.0
 30
0.0
  0
POINT
  5
1128
330
2A67
100
AcDbEntity
  8
DEFPOINTS
 62
     0
100
AcDbPoint
 10
157.5
 20
225.5794621189598
 30
0.0
  0
ENDBLK
  5
111F
330
2A67
100
AcDbEntity
  8
0
100
AcDbBlockEnd
  0
BLOCK
  5
2A6A
330
2A69
100
AcDbEntity
  8
0
100
AcDbBlockBegin
  2
*U13
 70
     1
 10
0.0
 20
0.0
 30
0.0
  3
*U13
  1

  0
TEXT
  5
1EDD
330
2A69
100
AcDbEntity
  8
SIZE
 62
     0
100
AcDbText
 10
-68.57142857142857
 20
235.5794621189599
 30
0.0
 40
64.0
  1
315
 41
0.9
100
AcDbText
  0
ENDBLK
  5
1EDF
330
2A69
100
AcDbEntity
  8
0
100
AcDbBlockEnd
  0
BLOCK
  5
2A6C
330
2A6B
100
AcDbEntity
  8
0
100
AcDbBlockBegin
  2
*D14
 70
     1
 10
0.0
 20
0.0
 30
0.0
  3
*D14
  1

  0
LINE
  5
11BD
330
2A6B
100
AcDbEntity
  8
NOTE
 62
     0
100
AcDbLine
 10
-123.4999999999999
 20
-320.0
 30
0.0
 11
-123.4999999999999
 21
-354.9529861856111
 31
0.0
  0
LINE
  5
11BE
330
2A6B
100
AcDbEntity
  8
NOTE
 62
     0
100
AcDbLine
 10
-133.4999999999998
 20
-331.2126909923287
 30
0.0
 11
-133.4999999999998
 21
-354.9529861856111
 31
0.0
  0
LINE
  5
11BF
330
2A6B
100
AcDbEntity
  8
NOTE
 62
     0
100
AcDbLine
 10
-111.4999999999999
 20
-334.9529861856112
 30
0.0
 11
-99.4999999999999
 21
-334.9529861856112
 31
0.0
  0
LINE
  5
11C0
330
2A6B
100
AcDbEntity
  8
NOTE
 62
     0
100
AcDbLine
 10
-145.4999999999998
 20
-334.9529861856112
 30
0.0
 11
-157.4999999999998
 21
-334.9529861856112
 31
0.0
  0
LINE
  5
11C1
330
2A6B
100
AcDbEntity
  8
NOTE
 62
     0
100
AcDbLine
 10
-123.4999999999999
 20
-334.9529861856112
 30
0.0
 11
-133.4999999999998
 21
-334.9529861856112
 31
0.0
  0
INSERT
  5
11C2
330
2A6B
100
AcDbEntity
  8
NOTE
 62
     0
100
AcDbBlockReference
  2
_DOTBLANK
 10
-123.4999999999999
 20
-334.9529861856112
 30
0.0
 41
12.0
 42
12.0
 43
12.0
 50
180.0
  0
INSERT
  5
11C3
330
2A6B
100
AcDbEntity
  8
NOTE
 62
     0
100
AcDbBlockReference
  2
_DOTBLANK
 10
-133.4999999999998
 20
-334.9529861856112
 30
0.0
 41
12.0
 42
12.0
 43
12.0
  0
INSERT
  5
11C4
330
2A6B
100
AcDbEntity
  8
0
100
AcDbBlockReference
  2
*U15
 10
0.0
 20
0.0
 30
0.0
  0
POINT
  5
11C5
330
2A6B
100
AcDbEntity
  8
DEFPOINTS
 62
     0
100
AcDbPoint
 10
-123.4999999999999
 20
-300.0
 30
0.0
  0
POINT
  5
11C6
330
2A6B
100
AcDbEntity
  8
DEFPOINTS
 62
     0
100
AcDbPoint
 10
-133.4999999999998
 20
-311.2126909923287
 30
0.0
  0
POINT
  5
11C7
330
2A6B
100
AcDbEntity
  8
DEFPOINTS
 62
     0
100
AcDbPoint
 10
-133.4999999999998
 20
-334.9529861856112
 30
0.0
  0
ENDBLK
  5
11BC
330
2A6B
100
AcDbEntity
  8
0
100
AcDbBlockEnd
  0
BLOCK
  5
2A6E
330
2A6D
100
AcDbEntity
  8
0
100
AcDbBlockBegin
  2
*U15
 70
     1
 10
0.0
 20
0.0
 30
0.0
  3
*U15
  1

  0
TEXT
  5
1EE5
330
2A6D
100
AcDbEntity
  8
NOTE
 62
     0
100
AcDbText
 10
-169.642857142857
 20
-324.9529861856112
 30
0.0
 40
64.0
  1
10
 41
0.9
100
AcDbText
  0
ENDBLK
  5
1EE7
330
2A6D
100
AcDbEntity
  8
0
100
AcDbBlockEnd
  0
BLOCK
  5
2A70
330
2A6F
100
AcDbEntity
  8
0
100
AcDbBlockBegin
  2
*D16
 70
     1
 10
0.0
 20
0.0
 30
0.0
  3
*D16
  1

  0
LINE
  5
11E7
330
2A6F
100
AcDbEntity
  8
NOTE
 62
     0
100
AcDbLine
 10
-135.5
 20
-333.2126909923287
 30
0.0
 11
-135.5
 21
-386.2569421441843
 31
0.0
  0
LINE
  5
11E8
330
2A6F
100
AcDbEntity
  8
NOTE
 62
     0
100
AcDbLine
 10
-123.4999999999999
 20
-320.0
 30
0.0
 11
-123.4999999999999
 21
-386.2569421441843
 31
0.0
  0
LINE
  5
11E9
330
2A6F
100
AcDbEntity
  8
NOTE
 62
     0
100
AcDbLine
 10
-147.5
 20
-366.2569421441844
 30
0.0
 11
-159.5
 21
-366.2569421441844
 31
0.0
  0
LINE
  5
11EA
330
2A6F
100
AcDbEntity
  8
NOTE
 62
     0
100
AcDbLine
 10
-111.4999999999999
 20
-366.2569421441844
 30
0.0
 11
-99.4999999999999
 21
-366.2569421441844
 31
0.0
  0
LINE
  5
11EB
330
2A6F
100
AcDbEntity
  8
NOTE
 62
     0
100
AcDbLine
 10
-135.5
 20
-366.2569421441844
 30
0.0
 11
-123.4999999999999
 21
-366.2569421441844
 31
0.0
  0
INSERT
  5
11EC
330
2A6F
100
AcDbEntity
  8
NOTE
 62
     0
100
AcDbBlockReference
  2
_DOTBLANK
 10
-135.5
 20
-366.2569421441844
 30
0.0
 41
12.0
 42
12.0
 43
12.0
  0
INSERT
  5
11ED
330
2A6F
100
AcDbEntity
  8
NOTE
 62
     0
100
AcDbBlockReference
  2
_DOTBLANK
 10
-123.4999999999999
 20
-366.2569421441844
 30
0.0
 41
12.0
 42
12.0
 43
12.0
 50
180.0
  0
INSERT
  5
11EE
330
2A6F
100
AcDbEntity
  8
0
100
AcDbBlockReference
  2
*U17
 10
0.0
 20
0.0
 30
0.0
  0
POINT
  5
11EF
330
2A6F
100
AcDbEntity
  8
DEFPOINTS
 62
     0
100
AcDbPoint
 10
-135.5
 20
-313.2126909923287
 30
0.0
  0
POINT
  5
11F0
330
2A6F
100
AcDbEntity
  8
DEFPOINTS
 62
     0
100
AcDbPoint
 10
-123.4999999999999
 20
-300.0
 30
0.0
  0
POINT
  5
11F1
330
2A6F
100
AcDbEntity
  8
DEFPOINTS
 62
     0
100
AcDbPoint
 10
-123.4999999999999
 20
-366.2569421441844
 30
0.0
  0
ENDBLK
  5
11E6
330
2A6F
100
AcDbEntity
  8
0
100
AcDbBlockEnd
  0
BLOCK
  5
2A72
330
2A71
100
AcDbEntity
  8
0
100
AcDbBlockBegin
  2
*U17
 70
     1
 10
0.0
 20
0.0
 30
0.0
  3
*U17
  1

  0
TEXT
  5
1EE9
330
2A71
100
AcDbEntity
  8
NOTE
 62
     0
100
AcDbText
 10
-170.642857142857
 20
-356.2569421441843
 30
0.0
 40
64.0
  1
12
 41
0.9
100
AcDbText
  0
ENDBLK
  5
1EEB
330
2A71
100
AcDbEntity
  8
0
100
AcDbBlockEnd
  0
BLOCK
  5
2A74
330
2A73
100
AcDbEntity
  8
0
100
AcDbBlockBegin
  2
*D18
 70
     1
 10
0.0
 20
0.0
 30
0.0
  3
*D18
  1

  0
LINE
  5
11F6
330
2A73
100
AcDbEntity
  8
NOTE
 62
     0
100
AcDbLine
 10
-123.4999999999999
 20
-320.0
 30
0.0
 11
-123.4999999999999
 21
-583.8286022818904
 31
0.0
  0
LINE
  5
11F7
330
2A73
100
AcDbEntity
  8
NOTE
 62
     0
100
AcDbLine
 10
123.5
 20
-320.0
 30
0.0
 11
123.5
 21
-583.8286022818904
 31
0.0
  0
LINE
  5
11F8
330
2A73
100
AcDbEntity
  8
NOTE
 62
     0
100
AcDbLine
 10
-111.4999999999999
 20
-563.8286022818904
 30
0.0
 11
111.5
 21
-563.8286022818904
 31
0.0
  0
INSERT
  5
11F9
330
2A73
100
AcDbEntity
  8
NOTE
 62
     0
100
AcDbBlockReference
  2
_DOTBLANK
 10
-123.4999999999999
 20
-563.8286022818904
 30
0.0
 41
12.0
 42
12.0
 43
12.0
 50
180.0
  0
INSERT
  5
11FA
330
2A73
100
AcDbEntity
  8
NOTE
 62
     0
100
AcDbBlockReference
  2
_DOTBLANK
 10
123.5
 20
-563.8286022818904
 30
0.0
 41
12.0
 42
12.0
 43
12.0
  0
INSERT
  5
11FB
330
2A73
100
AcDbEntity
  8
0
100
AcDbBlockReference
  2
*U19
 10
0.0
 20
0.0
 30
0.0
  0
POINT
  5
11FC
330
2A73
100
AcDbEntity
  8
DEFPOINTS
 62
     0
100
AcDbPoint
 10
-123.4999999999999
 20
-300.0
 30
0.0
  0
POINT
  5
11FD
330
2A73
100
AcDbEntity
  8
DEFPOINTS
 62
     0
100
AcDbPoint
 10
123.5
 20
-300.0
 30
0.0
  0
POINT
  5
11FE
330
2A73
100
AcDbEntity
  8
DEFPOINTS
 62
     0
100
AcDbPoint
 10
123.5
 20
-563.8286022818904
 30
0.0
  0
ENDBLK
  5
11F5
330
2A73
100
AcDbEntity
  8
0
100
AcDbBlockEnd
  0
BLOCK
  5
2A76
330
2A75
100
AcDbEntity
  8
0
100
AcDbBlockBegin
  2
*U19
 70
     1
 10
0.0
 20
0.0
 30
0.0
  3
*U19
  1

  0
TEXT
  5
1EED
330
2A75
100
AcDbEntity
  8
NOTE
 62
     0
100
AcDbText
 10
-74.05714285714281
 20
-553.8286022818904
 30
0.0
 40
64.0
  1
247
 41
0.9
100
AcDbText
  0
ENDBLK
  5
1EEF
330
2A75
100
AcDbEntity
  8
0
100
AcDbBlockEnd
  0
BLOCK
  5
2A78
330
2A77
100
AcDbEntity
  8
0
100
AcDbBlockBegin
  2
*D20
 70
     1
 10
0.0
 20
0.0
 30
0.0
  3
*D20
  1

  0
LINE
  5
1284
330
2A77
100
AcDbEntity
  8
NOTE
 62
     0
100
AcDbLine
 10
-123.5
 20
12.0
 30
0.0
 11
-123.5
 21
71.83630134534229
 31
0.0
  0
LINE
  5
1285
330
2A77
100
AcDbEntity
  8
NOTE
 62
     0
100
AcDbLine
 10
123.5
 20
12.0
 30
0.0
 11
123.5
 21
71.83630134534229
 31
0.0
  0
LINE
  5
1286
330
2A77
100
AcDbEntity
  8
NOTE
 62
     0
100
AcDbLine
 10
-111.5
 20
51.83630134534229
 30
0.0
 11
111.5
 21
51.83630134534229
 31
0.0
  0
INSERT
  5
1287
330
2A77
100
AcDbEntity
  8
NOTE
 62
     0
100
AcDbBlockReference
  2
_DOTBLANK
 10
-123.5
 20
51.83630134534229
 30
0.0
 41
12.0
 42
12.0
 43
12.0
 50
180.0
  0
INSERT
  5
1288
330
2A77
100
AcDbEntity
  8
NOTE
 62
     0
100
AcDbBlockReference
  2
_DOTBLANK
 10
123.5
 20
51.83630134534229
 30
0.0
 41
12.0
 42
12.0
 43
12.0
  0
INSERT
  5
1289
330
2A77
100
AcDbEntity
  8
0
100
AcDbBlockReference
  2
*U21
 10
0.0
 20
0.0
 30
0.0
  0
POINT
  5
128A
330
2A77
100
AcDbEntity
  8
DEFPOINTS
 62
     0
100
AcDbPoint
 10
-123.5
 20
-8.0
 30
0.0
  0
POINT
  5
128B
330
2A77
100
AcDbEntity
  8
DEFPOINTS
 62
     0
100
AcDbPoint
 10
123.5
 20
-8.0
 30
0.0
  0
POINT
  5
128C
330
2A77
100
AcDbEntity
  8
DEFPOINTS
 62
     0
100
AcDbPoint
 10
123.5
 20
51.83630134534229
 30
0.0
  0
ENDBLK
  5
1283
330
2A77
100
AcDbEntity
  8
0
100
AcDbBlockEnd
  0
BLOCK
  5
2A7A
330
2A79
100
AcDbEntity
  8
0
100
AcDbBlockBegin
  2
*U21
 70
     1
 10
0.0
 20
0.0
 30
0.0
  3
*U21
  1

  0
TEXT
  5
1EF1
330
2A79
100
AcDbEntity
  8
NOTE
 62
     0
100
AcDbText
 10
-74.05714285714283
 20
61.83630134534229
 30
0.0
 40
64.0
  1
247
 41
0.9
100
AcDbText
  0
ENDBLK
  5
1EF3
330
2A79
100
AcDbEntity
  8
0
100
AcDbBlockEnd
  0
BLOCK
  5
2A7C
330
2A7B
100
AcDbEntity
  8
0
100
AcDbBlockBegin
  2
*D22
 70
     1
 10
0.0
 20
0.0
 30
0.0
  3
*D22
  1

  0
LINE
  5
1414
330
2A7B
100
AcDbEntity
  8
SIZE
 62
     0
100
AcDbLine
 10
-22313.11521613997
 20
7365.702971374808
 30
0.0
 11
-22313.11521613997
 21
7217.685576144207
 31
0.0
  0
LINE
  5
1415
330
2A7B
100
AcDbEntity
  8
SIZE
 62
     0
100
AcDbLine
 10
-22044.11521613997
 20
7365.702971374808
 30
0.0
 11
-22044.11521613997
 21
7217.685576144207
 31
0.0
  0
LINE
  5
1416
330
2A7B
100
AcDbEntity
  8
SIZE
 62
     0
100
AcDbLine
 10
-22301.11521613997
 20
7237.685576144207
 30
0.0
 11
-22056.11521613997
 21
7237.685576144207
 31
0.0
  0
INSERT
  5
1417
330
2A7B
100
AcDbEntity
  8
SIZE
 62
     0
100
AcDbBlockReference
  2
_DOTBLANK
 10
-22313.11521613997
 20
7237.685576144207
 30
0.0
 41
12.0
 42
12.0
 43
12.0
 50
180.0
  0
INSERT
  5
1418
330
2A7B
100
AcDbEntity
  8
SIZE
 62
     0
100
AcDbBlockReference
  2
_DOTBLANK
 10
-22044.11521613997
 20
7237.685576144207
 30
0.0
 41
12.0
 42
12.0
 43
12.0
  0
INSERT
  5
1419
330
2A7B
100
AcDbEntity
  8
0
100
AcDbBlockReference
  2
*U23
 10
0.0
 20
0.0
 30
0.0
  0
POINT
  5
141A
330
2A7B
100
AcDbEntity
  8
DEFPOINTS
 62
     0
100
AcDbPoint
 10
-22313.11521613997
 20
7385.702971374808
 30
0.0
  0
POINT
  5
141B
330
2A7B
100
AcDbEntity
  8
DEFPOINTS
 62
     0
100
AcDbPoint
 10
-22044.11521613997
 20
7385.702971374808
 30
0.0
  0
POINT
  5
141C
330
2A7B
100
AcDbEntity
  8
DEFPOINTS
 62
     0
100
AcDbPoint
 10
-22044.11521613997
 20
7237.685576144207
 30
0.0
  0
ENDBLK
  5
141D
330
2A7B
100
AcDbEntity
  8
0
100
AcDbBlockEnd
  0
BLOCK
  5
2A7E
330
2A7D
100
AcDbEntity
  8
0
100
AcDbBlockBegin
  2
*U23
 70
     1
 10
0.0
 20
0.0
 30
0.0
  3
*U23
  1

  0
TEXT
  5
1EF9
330
2A7D
100
AcDbEntity
  8
SIZE
 62
     0
100
AcDbText
 10
-22251.30093042568
 20
7247.685576144205
 30
0.0
 40
64.0
  1
269
 41
0.9
100
AcDbText
  0
ENDBLK
  5
1EFB
330
2A7D
100
AcDbEntity
  8
0
100
AcDbBlockEnd
  0
BLOCK
  5
2A80
330
2A7F
100
AcDbEntity
  8
0
100
AcDbBlockBegin
  2
*D24
 70
     1
 10
0.0
 20
0.0
 30
0.0
  3
*D24
  1

  0
LINE
  5
1420
330
2A7F
100
AcDbEntity
  8
SIZE
  6
Continuous
 62
     0
100
AcDbLine
 10
-22035.11521613997
 20
7385.702971374808
 30
0.0
 11
-21873.97193165959
 21
7385.702971374808
 31
0.0
  0
LINE
  5
1421
330
2A7F
100
AcDbEntity
  8
SIZE
  6
Continuous
 62
     0
100
AcDbLine
 10
-22001.11521613997
 20
7685.702971374808
 30
0.0
 11
-21873.97193165959
 21
7685.702971374808
 31
0.0
  0
LINE
  5
1422
330
2A7F
100
AcDbEntity
  8
SIZE
  6
Continuous
 62
     0
100
AcDbLine
 10
-21893.97193165959
 20
7397.702971374808
 30
0.0
 11
-21893.97193165959
 21
7673.702971374808
 31
0.0
  0
INSERT
  5
1423
330
2A7F
100
AcDbEntity
  8
SIZE
  6
Continuous
 62
     0
100
AcDbBlockReference
  2
_DOTBLANK
 10
-21893.97193165959
 20
7385.702971374808
 30
0.0
 41
12.0
 42
12.0
 43
12.0
 50
270.0
  0
INSERT
  5
1424
330
2A7F
100
AcDbEntity
  8
SIZE
  6
Continuous
 62
     0
100
AcDbBlockReference
  2
_DOTBLANK
 10
-21893.97193165959
 20
7685.702971374808
 30
0.0
 41
12.0
 42
12.0
 43
12.0
 50
90.0
  0
INSERT
  5
1425
330
2A7F
100
AcDbEntity
  8
0
100
AcDbBlockReference
  2
*U25
 10
0.0
 20
0.0
 30
0.0
  0
POINT
  5
1426
330
2A7F
100
AcDbEntity
  8
DEFPOINTS
  6
Continuous
 62
     0
100
AcDbPoint
 10
-22055.11521613997
 20
7385.702971374808
 30
0.0
  0
POINT
  5
1427
330
2A7F
100
AcDbEntity
  8
DEFPOINTS
  6
Continuous
 62
     0
100
AcDbPoint
 10
-22021.11521613997
 20
7685.702971374808
 30
0.0
  0
POINT
  5
1428
330
2A7F
100
AcDbEntity
  8
DEFPOINTS
  6
Continuous
 62
     0
100
AcDbPoint
 10
-21893.97193165959
 20
7685.702971374808
 30
0.0
  0
ENDBLK
  5
1429
330
2A7F
100
AcDbEntity
  8
0
100
AcDbBlockEnd
  0
BLOCK
  5
2A82
330
2A81
100
AcDbEntity
  8
0
100
AcDbBlockBegin
  2
*U25
 70
     1
 10
0.0
 20
0.0
 30
0.0
  3
*U25
  1

  0
TEXT
  5
1EFD
330
2A81
100
AcDbEntity
  8
SIZE
 62
     0
100
AcDbText
 10
-21903.97193165959
 20
7461.645828517662
 30
0.0
 40
64.0
  1
300
 50
90.0
 41
0.9
100
AcDbText
  0
ENDBLK
  5
1EFF
330
2A81
100
AcDbEntity
  8
0
100
AcDbBlockEnd
  0
BLOCK
  5
2A84
330
2A83
100
AcDbEntity
  8
0
100
AcDbBlockBegin
  2
*D26
 70
     1
 10
0.0
 20
0.0
 30
0.0
  3
*D26
  1

  0
LINE
  5
142C
330
2A83
100
AcDbEntity
  8
SIZE
 62
     0
100
AcDbLine
 10
-22318.61521613997
 20
7718.167454177002
 30
0.0
 11
-22318.61521613997
 21
7822.154659243358
 31
0.0
  0
LINE
  5
142D
330
2A83
100
AcDbEntity
  8
SIZE
 62
     0
100
AcDbLine
 10
-22038.61521613997
 20
7718.167454177002
 30
0.0
 11
-22038.61521613997
 21
7822.154659243358
 31
0.0
  0
LINE
  5
142E
330
2A83
100
AcDbEntity
  8
SIZE
 62
     0
100
AcDbLine
 10
-22306.61521613997
 20
7802.154659243358
 30
0.0
 11
-22050.61521613997
 21
7802.154659243358
 31
0.0
  0
INSERT
  5
142F
330
2A83
100
AcDbEntity
  8
SIZE
 62
     0
100
AcDbBlockReference
  2
_DOTBLANK
 10
-22318.61521613997
 20
7802.154659243358
 30
0.0
 41
12.0
 42
12.0
 43
12.0
 50
180.0
  0
INSERT
  5
1430
330
2A83
100
AcDbEntity
  8
SIZE
 62
     0
100
AcDbBlockReference
  2
_DOTBLANK
 10
-22038.61521613997
 20
7802.154659243358
 30
0.0
 41
12.0
 42
12.0
 43
12.0
  0
INSERT
  5
1431
330
2A83
100
AcDbEntity
  8
0
100
AcDbBlockReference
  2
*U27
 10
0.0
 20
0.0
 30
0.0
  0
POINT
  5
1432
330
2A83
100
AcDbEntity
  8
DEFPOINTS
 62
     0
100
AcDbPoint
 10
-22318.61521613997
 20
7698.167454177002
 30
0.0
  0
POINT
  5
1433
330
2A83
100
AcDbEntity
  8
DEFPOINTS
 62
     0
100
AcDbPoint
 10
-22038.61521613997
 20
7698.167454177002
 30
0.0
  0
POINT
  5
1434
330
2A83
100
AcDbEntity
  8
DEFPOINTS
 62
     0
100
AcDbPoint
 10
-22038.61521613997
 20
7802.154659243358
 30
0.0
  0
ENDBLK
  5
1435
330
2A83
100
AcDbEntity
  8
0
100
AcDbBlockEnd
  0
BLOCK
  5
2A86
330
2A85
100
AcDbEntity
  8
0
100
AcDbBlockBegin
  2
*U27
 70
     1
 10
0.0
 20
0.0
 30
0.0
  3
*U27
  1

  0
TEXT
  5
1F01
330
2A85
100
AcDbEntity
  8
SIZE
 62
     0
100
AcDbText
 10
-22252.6723589971
 20
7812.154659243358
 30
0.0
 40
64.0
  1
280
 41
0.9
100
AcDbText
  0
ENDBLK
  5
1F03
330
2A85
100
AcDbEntity
  8
0
100
AcDbBlockEnd
  0
BLOCK
  5
2A88
330
2A87
100
AcDbEntity
  8
0
100
AcDbBlockBegin
  2
*D28
 70
     1
 10
0.0
 20
0.0
 30
0.0
  3
*D28
  1

  0
LINE
  5
1438
330
2A87
100
AcDbEntity
  8
SIZE
 62
     0
100
AcDbLine
 10
-22336.11521613997
 20
7705.702971374808
 30
0.0
 11
-22336.11521613997
 21
7931.282433493766
 31
0.0
  0
LINE
  5
1439
330
2A87
100
AcDbEntity
  8
SIZE
 62
     0
100
AcDbLine
 10
-22021.11521613997
 20
7705.702971374808
 30
0.0
 11
-22021.11521613997
 21
7931.282433493766
 31
0.0
  0
LINE
  5
143A
330
2A87
100
AcDbEntity
  8
SIZE
 62
     0
100
AcDbLine
 10
-22324.11521613997
 20
7911.282433493766
 30
0.0
 11
-22033.11521613997
 21
7911.282433493766
 31
0.0
  0
INSERT
  5
143B
330
2A87
100
AcDbEntity
  8
SIZE
 62
     0
100
AcDbBlockReference
  2
_DOTBLANK
 10
-22336.11521613997
 20
7911.282433493766
 30
0.0
 41
12.0
 42
12.0
 43
12.0
 50
180.0
  0
INSERT
  5
143C
330
2A87
100
AcDbEntity
  8
SIZE
 62
     0
100
AcDbBlockReference
  2
_DOTBLANK
 10
-22021.11521613997
 20
7911.282433493766
 30
0.0
 41
12.0
 42
12.0
 43
12.0
  0
INSERT
  5
143D
330
2A87
100
AcDbEntity
  8
0
100
AcDbBlockReference
  2
*U29
 10
0.0
 20
0.0
 30
0.0
  0
POINT
  5
143E
330
2A87
100
AcDbEntity
  8
DEFPOINTS
 62
     0
100
AcDbPoint
 10
-22336.11521613997
 20
7685.702971374808
 30
0.0
  0
POINT
  5
143F
330
2A87
100
AcDbEntity
  8
DEFPOINTS
 62
     0
100
AcDbPoint
 10
-22021.11521613997
 20
7685.702971374808
 30
0.0
  0
POINT
  5
1440
330
2A87
100
AcDbEntity
  8
DEFPOINTS
 62
     0
100
AcDbPoint
 10
-22021.11521613997
 20
7911.282433493766
 30
0.0
  0
ENDBLK
  5
1441
330
2A87
100
AcDbEntity
  8
0
100
AcDbBlockEnd
  0
BLOCK
  5
2A8A
330
2A89
100
AcDbEntity
  8
0
100
AcDbBlockBegin
  2
*U29
 70
     1
 10
0.0
 20
0.0
 30
0.0
  3
*U29
  1

  0
TEXT
  5
1F05
330
2A89
100
AcDbEntity
  8
SIZE
 62
     0
100
AcDbText
 10
-22247.18664471139
 20
7921.282433493766
 30
0.0
 40
64.0
  1
315
 41
0.9
100
AcDbText
  0
ENDBLK
  5
1F07
330
2A89
100
AcDbEntity
  8
0
100
AcDbBlockEnd
  0
BLOCK
  5
2A8C
330
2A8B
100
AcDbEntity
  8
0
100
AcDbBlockBegin
  2
*D30
 70
     1
 10
0.0
 20
0.0
 30
0.0
  3
*D30
  1

  0
LINE
  5
166B
330
2A8B
100
AcDbEntity
  8
SIZE
 62
     0
100
AcDbLine
 10
-134.5
 20
-320.0
 30
0.0
 11
-134.5
 21
-468.0173952306001
 31
0.0
  0
LINE
  5
166C
330
2A8B
100
AcDbEntity
  8
SIZE
 62
     0
100
AcDbLine
 10
134.5
 20
-320.0
 30
0.0
 11
134.5
 21
-468.0173952306001
 31
0.0
  0
LINE
  5
166D
330
2A8B
100
AcDbEntity
  8
SIZE
 62
     0
100
AcDbLine
 10
-122.5
 20
-448.0173952306
 30
0.0
 11
122.5
 21
-448.0173952306
 31
0.0
  0
INSERT
  5
166E
330
2A8B
100
AcDbEntity
  8
SIZE
 62
     0
100
AcDbBlockReference
  2
_DOTBLANK
 10
-134.5
 20
-448.0173952306
 30
0.0
 41
12.0
 42
12.0
 43
12.0
 50
180.0
  0
INSERT
  5
166F
330
2A8B
100
AcDbEntity
  8
SIZE
 62
     0
100
AcDbBlockReference
  2
_DOTBLANK
 10
134.5
 20
-448.0173952306
 30
0.0
 41
12.0
 42
12.0
 43
12.0
  0
INSERT
  5
1670
330
2A8B
100
AcDbEntity
  8
0
100
AcDbBlockReference
  2
*U31
 10
0.0
 20
0.0
 30
0.0
  0
POINT
  5
1671
330
2A8B
100
AcDbEntity
  8
DEFPOINTS
 62
     0
100
AcDbPoint
 10
-134.5
 20
-300.0
 30
0.0
  0
POINT
  5
1672
330
2A8B
100
AcDbEntity
  8
DEFPOINTS
 62
     0
100
AcDbPoint
 10
134.5
 20
-300.0
 30
0.0
  0
POINT
  5
1673
330
2A8B
100
AcDbEntity
  8
DEFPOINTS
 62
     0
100
AcDbPoint
 10
134.5
 20
-448.0173952306
 30
0.0
  0
ENDBLK
  5
14A7
330
2A8B
100
AcDbEntity
  8
0
100
AcDbBlockEnd
  0
BLOCK
  5
2A8E
330
2A8D
100
AcDbEntity
  8
0
100
AcDbBlockBegin
  2
*U31
 70
     1
 10
0.0
 20
0.0
 30
0.0
  3
*U31
  1

  0
TEXT
  5
1F09
330
2A8D
100
AcDbEntity
  8
SIZE
 62
     0
100
AcDbText
 10
-72.68571428571426
 20
-438.0173952306002
 30
0.0
 40
64.0
  1
269
 41
0.9
100
AcDbText
  0
ENDBLK
  5
1F0B
330
2A8D
100
AcDbEntity
  8
0
100
AcDbBlockEnd
  0
BLOCK
  5
2A90
330
2A8F
100
AcDbEntity
  8
0
100
AcDbBlockBegin
  2
*D32
 70
     1
 10
0.0
 20
0.0
 30
0.0
  3
*D32
  1

  0
LINE
  5
1674
330
2A8F
100
AcDbEntity
  8
SIZE
  6
Continuous
 62
     0
100
AcDbLine
 10
143.5
 20
-300.0
 30
0.0
 11
304.6432844803784
 21
-300.0
 31
0.0
  0
LINE
  5
1675
330
2A8F
100
AcDbEntity
  8
SIZE
  6
Continuous
 62
     0
100
AcDbLine
 10
177.5
 20
-0.0000000000000057
 30
0.0
 11
304.6432844803785
 21
-0.0000000000000417
 31
0.0
  0
LINE
  5
1676
330
2A8F
100
AcDbEntity
  8
SIZE
  6
Continuous
 62
     0
100
AcDbLine
 10
284.6432844803784
 20
-288.0000000000001
 30
0.0
 11
284.6432844803785
 21
-12.00000000000003
 31
0.0
  0
INSERT
  5
1677
330
2A8F
100
AcDbEntity
  8
SIZE
  6
Continuous
 62
     0
100
AcDbBlockReference
  2
_DOTBLANK
 10
284.6432844803784
 20
-300.0
 30
0.0
 41
12.0
 42
12.0
 43
12.0
 50
270.0
  0
INSERT
  5
1678
330
2A8F
100
AcDbEntity
  8
SIZE
  6
Continuous
 62
     0
100
AcDbBlockReference
  2
_DOTBLANK
 10
284.6432844803785
 20
-0.000000000000036
 30
0.0
 41
12.0
 42
12.0
 43
12.0
 50
90.0
  0
INSERT
  5
1679
330
2A8F
100
AcDbEntity
  8
0
100
AcDbBlockReference
  2
*U33
 10
0.0
 20
0.0
 30
0.0
  0
POINT
  5
167A
330
2A8F
100
AcDbEntity
  8
DEFPOINTS
  6
Continuous
 62
     0
100
AcDbPoint
 10
123.5
 20
-300.0
 30
0.0
  0
POINT
  5
167B
330
2A8F
100
AcDbEntity
  8
DEFPOINTS
  6
Continuous
 62
     0
100
AcDbPoint
 10
157.5
 20
0.0
 30
0.0
  0
POINT
  5
167C
330
2A8F
100
AcDbEntity
  8
DEFPOINTS
  6
Continuous
 62
     0
100
AcDbPoint
 10
284.6432844803785
 20
-0.000000000000036
 30
0.0
  0
ENDBLK
  5
14B3
330
2A8F
100
AcDbEntity
  8
0
100
AcDbBlockEnd
  0
BLOCK
  5
2A92
330
2A91
100
AcDbEntity
  8
0
100
AcDbBlockBegin
  2
*U33
 70
     1
 10
0.0
 20
0.0
 30
0.0
  3
*U33
  1

  0
TEXT
  5
1F0D
330
2A91
100
AcDbEntity
  8
SIZE
 62
     0
100
AcDbText
 10
274.6432844803785
 20
-224.0571428571429
 30
0.0
 40
64.0
  1
300
 50
90.0
 41
0.9
100
AcDbText
  0
ENDBLK
  5
1F0F
330
2A91
100
AcDbEntity
  8
0
100
AcDbBlockEnd
  0
BLOCK
  5
2A94
330
2A93
100
AcDbEntity
  8
0
100
AcDbBlockBegin
  2
*D34
 70
     1
 10
0.0
 20
0.0
 30
0.0
  3
*D34
  1

  0
LINE
  5
167D
330
2A93
100
AcDbEntity
  8
SIZE
 62
     0
100
AcDbLine
 10
-140.0
 20
32.46448280219375
 30
0.0
 11
-140.0
 21
136.4516878685507
 31
0.0
  0
LINE
  5
167E
330
2A93
100
AcDbEntity
  8
SIZE
 62
     0
100
AcDbLine
 10
140.0
 20
32.46448280219375
 30
0.0
 11
140.0
 21
136.4516878685507
 31
0.0
  0
LINE
  5
167F
330
2A93
100
AcDbEntity
  8
SIZE
 62
     0
100
AcDbLine
 10
-128.0
 20
116.4516878685508
 30
0.0
 11
128.0
 21
116.4516878685508
 31
0.0
  0
INSERT
  5
1680
330
2A93
100
AcDbEntity
  8
SIZE
 62
     0
100
AcDbBlockReference
  2
_DOTBLANK
 10
-140.0
 20
116.4516878685508
 30
0.0
 41
12.0
 42
12.0
 43
12.0
 50
180.0
  0
INSERT
  5
1681
330
2A93
100
AcDbEntity
  8
SIZE
 62
     0
100
AcDbBlockReference
  2
_DOTBLANK
 10
140.0
 20
116.4516878685508
 30
0.0
 41
12.0
 42
12.0
 43
12.0
  0
INSERT
  5
1682
330
2A93
100
AcDbEntity
  8
0
100
AcDbBlockReference
  2
*U35
 10
0.0
 20
0.0
 30
0.0
  0
POINT
  5
1683
330
2A93
100
AcDbEntity
  8
DEFPOINTS
 62
     0
100
AcDbPoint
 10
-140.0
 20
12.46448280219374
 30
0.0
  0
POINT
  5
1684
330
2A93
100
AcDbEntity
  8
DEFPOINTS
 62
     0
100
AcDbPoint
 10
140.0
 20
12.46448280219374
 30
0.0
  0
POINT
  5
1685
330
2A93
100
AcDbEntity
  8
DEFPOINTS
 62
     0
100
AcDbPoint
 10
140.0
 20
116.4516878685508
 30
0.0
  0
ENDBLK
  5
14BF
330
2A93
100
AcDbEntity
  8
0
100
AcDbBlockEnd
  0
BLOCK
  5
2A96
330
2A95
100
AcDbEntity
  8
0
100
AcDbBlockBegin
  2
*U35
 70
     1
 10
0.0
 20
0.0
 30
0.0
  3
*U35
  1

  0
TEXT
  5
1F11
330
2A95
100
AcDbEntity
  8
SIZE
 62
     0
100
AcDbText
 10
-74.05714285714283
 20
126.4516878685507
 30
0.0
 40
64.0
  1
280
 41
0.9
100
AcDbText
  0
ENDBLK
  5
1F13
330
2A95
100
AcDbEntity
  8
0
100
AcDbBlockEnd
  0
BLOCK
  5
2A98
330
2A97
100
AcDbEntity
  8
0
100
AcDbBlockBegin
  2
*D36
 70
     1
 10
0.0
 20
0.0
 30
0.0
  3
*D36
  1

  0
LINE
  5
1686
330
2A97
100
AcDbEntity
  8
SIZE
 62
     0
100
AcDbLine
 10
-157.5
 20
20.0
 30
0.0
 11
-157.5
 21
245.5794621189598
 31
0.0
  0
LINE
  5
1687
330
2A97
100
AcDbEntity
  8
SIZE
 62
     0
100
AcDbLine
 10
157.5
 20
20.0
 30
0.0
 11
157.5
 21
245.5794621189598
 31
0.0
  0
LINE
  5
1688
330
2A97
100
AcDbEntity
  8
SIZE
 62
     0
100
AcDbLine
 10
-145.5
 20
225.5794621189598
 30
0.0
 11
145.5
 21
225.5794621189598
 31
0.0
  0
INSERT
  5
1689
330
2A97
100
AcDbEntity
  8
SIZE
 62
     0
100
AcDbBlockReference
  2
_DOTBLANK
 10
-157.5
 20
225.5794621189598
 30
0.0
 41
12.0
 42
12.0
 43
12.0
 50
180.0
  0
INSERT
  5
168A
330
2A97
100
AcDbEntity
  8
SIZE
 62
     0
100
AcDbBlockReference
  2
_DOTBLANK
 10
157.5
 20
225.5794621189598
 30
0.0
 41
12.0
 42
12.0
 43
12.0
  0
INSERT
  5
168B
330
2A97
100
AcDbEntity
  8
0
100
AcDbBlockReference
  2
*U37
 10
0.0
 20
0.0
 30
0.0
  0
POINT
  5
168C
330
2A97
100
AcDbEntity
  8
DEFPOINTS
 62
     0
100
AcDbPoint
 10
-157.5
 20
0.0
 30
0.0
  0
POINT
  5
168D
330
2A97
100
AcDbEntity
  8
DEFPOINTS
 62
     0
100
AcDbPoint
 10
157.5
 20
0.0
 30
0.0
  0
POINT
  5
168E
330
2A97
100
AcDbEntity
  8
DEFPOINTS
 62
     0
100
AcDbPoint
 10
157.5
 20
225.5794621189598
 30
0.0
  0
ENDBLK
  5
14CB
330
2A97
100
AcDbEntity
  8
0
100
AcDbBlockEnd
  0
BLOCK
  5
2A9A
330
2A99
100
AcDbEntity
  8
0
100
AcDbBlockBegin
  2
*U37
 70
     1
 10
0.0
 20
0.0
 30
0.0
  3
*U37
  1

  0
TEXT
  5
1F15
330
2A99
100
AcDbEntity
  8
SIZE
 62
     0
100
AcDbText
 10
-68.57142857142857
 20
235.5794621189598
 30
0.0
 40
64.0
  1
315
 41
0.9
100
AcDbText
  0
ENDBLK
  5
1F17
330
2A99
100
AcDbEntity
  8
0
100
AcDbBlockEnd
  0
BLOCK
  5
2A9C
330
2A9B
100
AcDbEntity
  8
0
100
AcDbBlockBegin
  2
*U38
 70
     1
 10
0.0
 20
0.0
 30
0.0
  3
*U38
  1

  0
ENDBLK
  5
15CF
330
2A9B
100
AcDbEntity
  8
0
100
AcDbBlockEnd
  0
BLOCK
  5
2A9E
330
2A9D
100
AcDbEntity
  8
0
100
AcDbBlockBegin
  2
*D39
 70
     1
 10
0.0
 20
0.0
 30
0.0
  3
*D39
  1

  0
LINE
  5
1692
330
2A9D
100
AcDbEntity
  8
SIZE
 62
     0
100
AcDbLine
 10
-25844.51823276502
 20
7685.702971374808
 30
0.0
 11
-25981.04465488371
 21
7685.702971374808
 31
0.0
  0
LINE
  5
1693
330
2A9D
100
AcDbEntity
  8
SIZE
 62
     0
100
AcDbLine
 10
-25844.51823276502
 20
7677.702971374808
 30
0.0
 11
-25981.04465488371
 21
7677.702971374808
 31
0.0
  0
LINE
  5
1694
330
2A9D
100
AcDbEntity
  8
SIZE
 62
     0
100
AcDbLine
 10
-25961.04465488371
 20
7697.702971374808
 30
0.0
 11
-25961.04465488371
 21
7709.702971374809
 31
0.0
  0
LINE
  5
1695
330
2A9D
100
AcDbEntity
  8
SIZE
 62
     0
100
AcDbLine
 10
-25961.04465488371
 20
7665.70297137481
 30
0.0
 11
-25961.04465488371
 21
7595.302971374808
 31
0.0
  0
INSERT
  5
1696
330
2A9D
100
AcDbEntity
  8
SIZE
 62
     0
100
AcDbBlockReference
  2
_DOTBLANK
 10
-25961.04465488371
 20
7685.702971374808
 30
0.0
 41
12.0
 42
12.0
 43
12.0
 50
270.0
  0
INSERT
  5
1697
330
2A9D
100
AcDbEntity
  8
SIZE
 62
     0
100
AcDbBlockReference
  2
_DOTBLANK
 10
-25961.04465488371
 20
7677.702971374808
 30
0.0
 41
12.0
 42
12.0
 43
12.0
 50
90.0
  0
INSERT
  5
1698
330
2A9D
100
AcDbEntity
  8
0
100
AcDbBlockReference
  2
*U40
 10
0.0
 20
0.0
 30
0.0
  0
POINT
  5
1699
330
2A9D
100
AcDbEntity
  8
DEFPOINTS
 62
     0
100
AcDbPoint
 10
-25824.51823276501
 20
7685.702971374808
 30
0.0
  0
POINT
  5
169A
330
2A9D
100
AcDbEntity
  8
DEFPOINTS
 62
     0
100
AcDbPoint
 10
-25824.51823276501
 20
7677.702971374808
 30
0.0
  0
POINT
  5
169B
330
2A9D
100
AcDbEntity
  8
DEFPOINTS
 62
     0
100
AcDbPoint
 10
-25961.04465488371
 20
7677.702971374808
 30
0.0
  0
ENDBLK
  5
169C
330
2A9D
100
AcDbEntity
  8
0
100
AcDbBlockEnd
  0
BLOCK
  5
2AA0
330
2A9F
100
AcDbEntity
  8
0
100
AcDbBlockBegin
  2
*U40
 70
     1
 10
0.0
 20
0.0
 30
0.0
  3
*U40
  1

  0
TEXT
  5
1F19
330
2A9F
100
AcDbEntity
  8
SIZE
 62
     0
100
AcDbText
 10
-25971.04465488371
 20
7605.302971374804
 30
0.0
 40
64.0
  1
8
 50
90.0
 41
0.9
100
AcDbText
  0
ENDBLK
  5
1F1B
330
2A9F
100
AcDbEntity
  8
0
100
AcDbBlockEnd
  0
BLOCK
  5
2AA2
330
2AA1
100
AcDbEntity
  8
0
100
AcDbBlockBegin
  2
*D41
 70
     1
 10
0.0
 20
0.0
 30
0.0
  3
*D41
  1

  0
LINE
  5
169F
330
2AA1
100
AcDbEntity
  8
SIZE
 62
     0
100
AcDbLine
 10
-25512.51823276502
 20
7385.702971374808
 30
0.0
 11
-25362.37494828464
 21
7385.702971374808
 31
0.0
  0
LINE
  5
16A0
330
2AA1
100
AcDbEntity
  8
SIZE
 62
     0
100
AcDbLine
 10
-25523.51823276501
 20
7373.702971374808
 30
0.0
 11
-25362.37494828464
 21
7373.702971374808
 31
0.0
  0
LINE
  5
16A1
330
2AA1
100
AcDbEntity
  8
SIZE
 62
     0
100
AcDbLine
 10
-25382.37494828464
 20
7397.702971374808
 30
0.0
 11
-25382.37494828464
 21
7409.70297137481
 31
0.0
  0
LINE
  5
16A2
330
2AA1
100
AcDbEntity
  8
SIZE
 62
     0
100
AcDbLine
 10
-25382.37494828464
 20
7361.702971374808
 30
0.0
 11
-25382.37494828464
 21
7244.674399946237
 31
0.0
  0
INSERT
  5
16A3
330
2AA1
100
AcDbEntity
  8
SIZE
 62
     0
100
AcDbBlockReference
  2
_DOTBLANK
 10
-25382.37494828464
 20
7385.702971374808
 30
0.0
 41
12.0
 42
12.0
 43
12.0
 50
270.0
  0
INSERT
  5
16A4
330
2AA1
100
AcDbEntity
  8
SIZE
 62
     0
100
AcDbBlockReference
  2
_DOTBLANK
 10
-25382.37494828464
 20
7373.702971374808
 30
0.0
 41
12.0
 42
12.0
 43
12.0
 50
90.0
  0
INSERT
  5
16A5
330
2AA1
100
AcDbEntity
  8
0
100
AcDbBlockReference
  2
*U42
 10
0.0
 20
0.0
 30
0.0
  0
POINT
  5
16A6
330
2AA1
100
AcDbEntity
  8
DEFPOINTS
 62
     0
100
AcDbPoint
 10
-25532.51823276502
 20
7385.702971374808
 30
0.0
  0
POINT
  5
16A7
330
2AA1
100
AcDbEntity
  8
DEFPOINTS
 62
     0
100
AcDbPoint
 10
-25543.51823276502
 20
7373.702971374808
 30
0.0
  0
POINT
  5
16A8
330
2AA1
100
AcDbEntity
  8
DEFPOINTS
 62
     0
100
AcDbPoint
 10
-25382.37494828464
 20
7373.702971374808
 30
0.0
  0
ENDBLK
  5
16A9
330
2AA1
100
AcDbEntity
  8
0
100
AcDbBlockEnd
  0
BLOCK
  5
2AA4
330
2AA3
100
AcDbEntity
  8
0
100
AcDbBlockBegin
  2
*U42
 70
     1
 10
0.0
 20
0.0
 30
0.0
  3
*U42
  1

  0
TEXT
  5
1F1D
330
2AA3
100
AcDbEntity
  8
SIZE
 62
     0
100
AcDbText
 10
-25392.37494828464
 20
7256.045828517662
 30
0.0
 40
64.0
  1
12
 50
90.0
 41
0.9
100
AcDbText
  0
ENDBLK
  5
1F1F
330
2AA3
100
AcDbEntity
  8
0
100
AcDbBlockEnd
  0
BLOCK
  5
2AA6
330
2AA5
100
AcDbEntity
  8
0
100
AcDbBlockBegin
  2
*D43
 70
     1
 10
0.0
 20
0.0
 30
0.0
  3
*D43
  1

  0
LINE
  5
16AC
330
2AA5
100
AcDbEntity
  8
SIZE
 62
     0
100
AcDbLine
 10
-25801.51823276501
 20
7365.702971374808
 30
0.0
 11
-25801.51823276501
 21
7217.685576144207
 31
0.0
  0
LINE
  5
16AD
330
2AA5
100
AcDbEntity
  8
SIZE
 62
     0
100
AcDbLine
 10
-25532.51823276502
 20
7365.702971374808
 30
0.0
 11
-25532.51823276502
 21
7217.685576144207
 31
0.0
  0
LINE
  5
16AE
330
2AA5
100
AcDbEntity
  8
SIZE
 62
     0
100
AcDbLine
 10
-25789.51823276502
 20
7237.685576144207
 30
0.0
 11
-25544.51823276501
 21
7237.685576144207
 31
0.0
  0
INSERT
  5
16AF
330
2AA5
100
AcDbEntity
  8
SIZE
 62
     0
100
AcDbBlockReference
  2
_DOTBLANK
 10
-25801.51823276501
 20
7237.685576144207
 30
0.0
 41
12.0
 42
12.0
 43
12.0
 50
180.0
  0
INSERT
  5
16B0
330
2AA5
100
AcDbEntity
  8
SIZE
 62
     0
100
AcDbBlockReference
  2
_DOTBLANK
 10
-25532.51823276502
 20
7237.685576144207
 30
0.0
 41
12.0
 42
12.0
 43
12.0
  0
INSERT
  5
16B1
330
2AA5
100
AcDbEntity
  8
0
100
AcDbBlockReference
  2
*U44
 10
0.0
 20
0.0
 30
0.0
  0
POINT
  5
16B2
330
2AA5
100
AcDbEntity
  8
DEFPOINTS
 62
     0
100
AcDbPoint
 10
-25801.51823276501
 20
7385.702971374808
 30
0.0
  0
POINT
  5
16B3
330
2AA5
100
AcDbEntity
  8
DEFPOINTS
 62
     0
100
AcDbPoint
 10
-25532.51823276502
 20
7385.702971374808
 30
0.0
  0
POINT
  5
16B4
330
2AA5
100
AcDbEntity
  8
DEFPOINTS
 62
     0
100
AcDbPoint
 10
-25532.51823276502
 20
7237.685576144207
 30
0.0
  0
ENDBLK
  5
16B5
330
2AA5
100
AcDbEntity
  8
0
100
AcDbBlockEnd
  0
BLOCK
  5
2AA8
330
2AA7
100
AcDbEntity
  8
0
100
AcDbBlockBegin
  2
*U44
 70
     1
 10
0.0
 20
0.0
 30
0.0
  3
*U44
  1

  0
TEXT
  5
1F21
330
2AA7
100
AcDbEntity
  8
SIZE
 62
     0
100
AcDbText
 10
-25739.70394705074
 20
7247.685576144205
 30
0.0
 40
64.0
  1
269
 41
0.9
100
AcDbText
  0
ENDBLK
  5
1F23
330
2AA7
100
AcDbEntity
  8
0
100
AcDbBlockEnd
  0
BLOCK
  5
2AAA
330
2AA9
100
AcDbEntity
  8
0
100
AcDbBlockBegin
  2
*D45
 70
     1
 10
0.0
 20
0.0
 30
0.0
  3
*D45
  1

  0
LINE
  5
16B8
330
2AA9
100
AcDbEntity
  8
SIZE
 62
     0
100
AcDbLine
 10
-25512.51823276502
 20
7385.702971374808
 30
0.0
 11
-25362.37494828464
 21
7385.702971374808
 31
0.0
  0
LINE
  5
16B9
330
2AA9
100
AcDbEntity
  8
SIZE
 62
     0
100
AcDbLine
 10
-25489.51823276501
 20
7685.702971374808
 30
0.0
 11
-25362.37494828464
 21
7685.702971374808
 31
0.0
  0
LINE
  5
16BA
330
2AA9
100
AcDbEntity
  8
SIZE
 62
     0
100
AcDbLine
 10
-25382.37494828464
 20
7397.702971374808
 30
0.0
 11
-25382.37494828464
 21
7673.702971374808
 31
0.0
  0
INSERT
  5
16BB
330
2AA9
100
AcDbEntity
  8
SIZE
 62
     0
100
AcDbBlockReference
  2
_DOTBLANK
 10
-25382.37494828464
 20
7385.702971374808
 30
0.0
 41
12.0
 42
12.0
 43
12.0
 50
270.0
  0
INSERT
  5
16BC
330
2AA9
100
AcDbEntity
  8
SIZE
 62
     0
100
AcDbBlockReference
  2
_DOTBLANK
 10
-25382.37494828464
 20
7685.702971374808
 30
0.0
 41
12.0
 42
12.0
 43
12.0
 50
90.0
  0
INSERT
  5
16BD
330
2AA9
100
AcDbEntity
  8
0
100
AcDbBlockReference
  2
*U46
 10
0.0
 20
0.0
 30
0.0
  0
POINT
  5
16BE
330
2AA9
100
AcDbEntity
  8
DEFPOINTS
 62
     0
100
AcDbPoint
 10
-25532.51823276502
 20
7385.702971374808
 30
0.0
  0
POINT
  5
16BF
330
2AA9
100
AcDbEntity
  8
DEFPOINTS
 62
     0
100
AcDbPoint
 10
-25509.51823276502
 20
7685.702971374808
 30
0.0
  0
POINT
  5
16C0
330
2AA9
100
AcDbEntity
  8
DEFPOINTS
 62
     0
100
AcDbPoint
 10
-25382.37494828464
 20
7685.702971374808
 30
0.0
  0
ENDBLK
  5
16C1
330
2AA9
100
AcDbEntity
  8
0
100
AcDbBlockEnd
  0
BLOCK
  5
2AAC
330
2AAB
100
AcDbEntity
  8
0
100
AcDbBlockBegin
  2
*U46
 70
     1
 10
0.0
 20
0.0
 30
0.0
  3
*U46
  1

  0
TEXT
  5
1F25
330
2AAB
100
AcDbEntity
  8
SIZE
 62
     0
100
AcDbText
 10
-25392.37494828464
 20
7461.645828517662
 30
0.0
 40
64.0
  1
300
 50
90.0
 41
0.9
100
AcDbText
  0
ENDBLK
  5
1F27
330
2AAB
100
AcDbEntity
  8
0
100
AcDbBlockEnd
  0
BLOCK
  5
2AAE
330
2AAD
100
AcDbEntity
  8
0
100
AcDbBlockBegin
  2
*D47
 70
     1
 10
0.0
 20
0.0
 30
0.0
  3
*D47
  1

  0
LINE
  5
16C4
330
2AAD
100
AcDbEntity
  8
SIZE
 62
     0
100
AcDbLine
 10
-25807.01823276501
 20
7718.167454177002
 30
0.0
 11
-25807.01823276501
 21
7822.154659243358
 31
0.0
  0
LINE
  5
16C5
330
2AAD
100
AcDbEntity
  8
SIZE
 62
     0
100
AcDbLine
 10
-25527.01823276501
 20
7718.167454177002
 30
0.0
 11
-25527.01823276501
 21
7822.154659243358
 31
0.0
  0
LINE
  5
16C6
330
2AAD
100
AcDbEntity
  8
SIZE
 62
     0
100
AcDbLine
 10
-25795.01823276502
 20
7802.154659243358
 30
0.0
 11
-25539.01823276501
 21
7802.154659243358
 31
0.0
  0
INSERT
  5
16C7
330
2AAD
100
AcDbEntity
  8
SIZE
 62
     0
100
AcDbBlockReference
  2
_DOTBLANK
 10
-25807.01823276501
 20
7802.154659243358
 30
0.0
 41
12.0
 42
12.0
 43
12.0
 50
180.0
  0
INSERT
  5
16C8
330
2AAD
100
AcDbEntity
  8
SIZE
 62
     0
100
AcDbBlockReference
  2
_DOTBLANK
 10
-25527.01823276501
 20
7802.154659243358
 30
0.0
 41
12.0
 42
12.0
 43
12.0
  0
INSERT
  5
16C9
330
2AAD
100
AcDbEntity
  8
0
100
AcDbBlockReference
  2
*U48
 10
0.0
 20
0.0
 30
0.0
  0
POINT
  5
16CA
330
2AAD
100
AcDbEntity
  8
DEFPOINTS
 62
     0
100
AcDbPoint
 10
-25807.01823276501
 20
7698.167454177002
 30
0.0
  0
POINT
  5
16CB
330
2AAD
100
AcDbEntity
  8
DEFPOINTS
 62
     0
100
AcDbPoint
 10
-25527.01823276501
 20
7698.167454177002
 30
0.0
  0
POINT
  5
16CC
330
2AAD
100
AcDbEntity
  8
DEFPOINTS
 62
     0
100
AcDbPoint
 10
-25527.01823276501
 20
7802.154659243358
 30
0.0
  0
ENDBLK
  5
16CD
330
2AAD
100
AcDbEntity
  8
0
100
AcDbBlockEnd
  0
BLOCK
  5
2AB0
330
2AAF
100
AcDbEntity
  8
0
100
AcDbBlockBegin
  2
*U48
 70
     1
 10
0.0
 20
0.0
 30
0.0
  3
*U48
  1

  0
TEXT
  5
1F29
330
2AAF
100
AcDbEntity
  8
SIZE
 62
     0
100
AcDbText
 10
-25741.07537562216
 20
7812.154659243358
 30
0.0
 40
64.0
  1
280
 41
0.9
100
AcDbText
  0
ENDBLK
  5
1F2B
330
2AAF
100
AcDbEntity
  8
0
100
AcDbBlockEnd
  0
BLOCK
  5
2AB2
330
2AB1
100
AcDbEntity
  8
0
100
AcDbBlockBegin
  2
*D49
 70
     1
 10
0.0
 20
0.0
 30
0.0
  3
*D49
  1

  0
LINE
  5
16D0
330
2AB1
100
AcDbEntity
  8
SIZE
 62
     0
100
AcDbLine
 10
-25824.51823276501
 20
7705.702971374808
 30
0.0
 11
-25824.51823276501
 21
7931.282433493766
 31
0.0
  0
LINE
  5
16D1
330
2AB1
100
AcDbEntity
  8
SIZE
 62
     0
100
AcDbLine
 10
-25509.51823276502
 20
7705.702971374808
 30
0.0
 11
-25509.51823276502
 21
7931.282433493766
 31
0.0
  0
LINE
  5
16D2
330
2AB1
100
AcDbEntity
  8
SIZE
 62
     0
100
AcDbLine
 10
-25812.51823276502
 20
7911.282433493766
 30
0.0
 11
-25521.51823276501
 21
7911.282433493766
 31
0.0
  0
INSERT
  5
16D3
330
2AB1
100
AcDbEntity
  8
SIZE
 62
     0
100
AcDbBlockReference
  2
_DOTBLANK
 10
-25824.51823276501
 20
7911.282433493766
 30
0.0
 41
12.0
 42
12.0
 43
12.0
 50
180.0
  0
INSERT
  5
16D4
330
2AB1
100
AcDbEntity
  8
SIZE
 62
     0
100
AcDbBlockReference
  2
_DOTBLANK
 10
-25509.51823276502
 20
7911.282433493766
 30
0.0
 41
12.0
 42
12.0
 43
12.0
  0
INSERT
  5
16D5
330
2AB1
100
AcDbEntity
  8
0
100
AcDbBlockReference
  2
*U50
 10
0.0
 20
0.0
 30
0.0
  0
POINT
  5
16D6
330
2AB1
100
AcDbEntity
  8
DEFPOINTS
 62
     0
100
AcDbPoint
 10
-25824.51823276501
 20
7685.702971374808
 30
0.0
  0
POINT
  5
16D7
330
2AB1
100
AcDbEntity
  8
DEFPOINTS
 62
     0
100
AcDbPoint
 10
-25509.51823276502
 20
7685.702971374808
 30
0.0
  0
POINT
  5
16D8
330
2AB1
100
AcDbEntity
  8
DEFPOINTS
 62
     0
100
AcDbPoint
 10
-25509.51823276502
 20
7911.282433493766
 30
0.0
  0
ENDBLK
  5
16D9
330
2AB1
100
AcDbEntity
  8
0
100
AcDbBlockEnd
  0
BLOCK
  5
2AB4
330
2AB3
100
AcDbEntity
  8
0
100
AcDbBlockBegin
  2
*U50
 70
     1
 10
0.0
 20
0.0
 30
0.0
  3
*U50
  1

  0
TEXT
  5
1F2D
330
2AB3
100
AcDbEntity
  8
SIZE
 62
     0
100
AcDbText
 10
-25735.58966133645
 20
7921.282433493766
 30
0.0
 40
64.0
  1
315
 41
0.9
100
AcDbText
  0
ENDBLK
  5
1F2F
330
2AB3
100
AcDbEntity
  8
0
100
AcDbBlockEnd
  0
BLOCK
  5
2AB6
330
2AB5
100
AcDbEntity
  8
0
100
AcDbBlockBegin
  2
*D51
 70
     1
 10
0.0
 20
0.0
 30
0.0
  3
*D51
  1

  0
LINE
  5
1D83
330
2AB5
100
AcDbEntity
  8
SIZE
 62
     0
100
AcDbLine
 10
-134.5
 20
-320.0
 30
0.0
 11
-134.5
 21
-468.0173952306001
 31
0.0
  0
LINE
  5
1D84
330
2AB5
100
AcDbEntity
  8
SIZE
 62
     0
100
AcDbLine
 10
134.5
 20
-320.0
 30
0.0
 11
134.5
 21
-468.0173952306001
 31
0.0
  0
LINE
  5
1D85
330
2AB5
100
AcDbEntity
  8
SIZE
 62
     0
100
AcDbLine
 10
-122.5
 20
-448.0173952306
 30
0.0
 11
122.5
 21
-448.0173952306
 31
0.0
  0
INSERT
  5
1D86
330
2AB5
100
AcDbEntity
  8
SIZE
 62
     0
100
AcDbBlockReference
  2
_DOTBLANK
 10
-134.5
 20
-448.0173952306
 30
0.0
 41
12.0
 42
12.0
 43
12.0
 50
180.0
  0
INSERT
  5
1D87
330
2AB5
100
AcDbEntity
  8
SIZE
 62
     0
100
AcDbBlockReference
  2
_DOTBLANK
 10
134.5
 20
-448.0173952306
 30
0.0
 41
12.0
 42
12.0
 43
12.0
  0
INSERT
  5
1D88
330
2AB5
100
AcDbEntity
  8
0
100
AcDbBlockReference
  2
*U52
 10
0.0
 20
0.0
 30
0.0
  0
POINT
  5
1D89
330
2AB5
100
AcDbEntity
  8
DEFPOINTS
 62
     0
100
AcDbPoint
 10
-134.5
 20
-300.0
 30
0.0
  0
POINT
  5
1D8A
330
2AB5
100
AcDbEntity
  8
DEFPOINTS
 62
     0
100
AcDbPoint
 10
134.5
 20
-300.0
 30
0.0
  0
POINT
  5
1D8B
330
2AB5
100
AcDbEntity
  8
DEFPOINTS
 62
     0
100
AcDbPoint
 10
134.5
 20
-448.0173952306
 30
0.0
  0
ENDBLK
  5
173D
330
2AB5
100
AcDbEntity
  8
0
100
AcDbBlockEnd
  0
BLOCK
  5
2AB8
330
2AB7
100
AcDbEntity
  8
0
100
AcDbBlockBegin
  2
*U52
 70
     1
 10
0.0
 20
0.0
 30
0.0
  3
*U52
  1

  0
TEXT
  5
1F31
330
2AB7
100
AcDbEntity
  8
SIZE
 62
     0
100
AcDbText
 10
-72.68571428571426
 20
-438.0173952306003
 30
0.0
 40
64.0
  1
269
 41
0.9
100
AcDbText
  0
ENDBLK
  5
1F33
330
2AB7
100
AcDbEntity
  8
0
100
AcDbBlockEnd
  0
BLOCK
  5
2ABA
330
2AB9
100
AcDbEntity
  8
0
100
AcDbBlockBegin
  2
*D53
 70
     1
 10
0.0
 20
0.0
 30
0.0
  3
*D53
  1

  0
LINE
  5
1D8C
330
2AB9
100
AcDbEntity
  8
SIZE
 62
     0
100
AcDbLine
 10
154.5
 20
-300.0
 30
0.0
 11
304.6432844803784
 21
-300.0
 31
0.0
  0
LINE
  5
1D8D
330
2AB9
100
AcDbEntity
  8
SIZE
 62
     0
100
AcDbLine
 10
177.5
 20
-0.0000000000000057
 30
0.0
 11
304.6432844803785
 21
-0.0000000000000417
 31
0.0
  0
LINE
  5
1D8E
330
2AB9
100
AcDbEntity
  8
SIZE
 62
     0
100
AcDbLine
 10
284.6432844803784
 20
-288.0
 30
0.0
 11
284.6432844803785
 21
-12.00000000000003
 31
0.0
  0
INSERT
  5
1D8F
330
2AB9
100
AcDbEntity
  8
SIZE
 62
     0
100
AcDbBlockReference
  2
_DOTBLANK
 10
284.6432844803784
 20
-300.0
 30
0.0
 41
12.0
 42
12.0
 43
12.0
 50
270.0
  0
INSERT
  5
1D90
330
2AB9
100
AcDbEntity
  8
SIZE
 62
     0
100
AcDbBlockReference
  2
_DOTBLANK
 10
284.6432844803785
 20
-0.000000000000036
 30
0.0
 41
12.0
 42
12.0
 43
12.0
 50
90.0
  0
INSERT
  5
1D91
330
2AB9
100
AcDbEntity
  8
0
100
AcDbBlockReference
  2
*U54
 10
0.0
 20
0.0
 30
0.0
  0
POINT
  5
1D92
330
2AB9
100
AcDbEntity
  8
DEFPOINTS
 62
     0
100
AcDbPoint
 10
134.5
 20
-300.0
 30
0.0
  0
POINT
  5
1D93
330
2AB9
100
AcDbEntity
  8
DEFPOINTS
 62
     0
100
AcDbPoint
 10
157.5
 20
0.0
 30
0.0
  0
POINT
  5
1D94
330
2AB9
100
AcDbEntity
  8
DEFPOINTS
 62
     0
100
AcDbPoint
 10
284.6432844803785
 20
-0.000000000000036
 30
0.0
  0
ENDBLK
  5
1749
330
2AB9
100
AcDbEntity
  8
0
100
AcDbBlockEnd
  0
BLOCK
  5
2ABC
330
2ABB
100
AcDbEntity
  8
0
100
AcDbBlockBegin
  2
*U54
 70
     1
 10
0.0
 20
0.0
 30
0.0
  3
*U54
  1

  0
TEXT
  5
1F35
330
2ABB
100
AcDbEntity
  8
SIZE
 62
     0
100
AcDbText
 10
274.6432844803785
 20
-224.0571428571429
 30
0.0
 40
64.0
  1
300
 50
90.0
 41
0.9
100
AcDbText
  0
ENDBLK
  5
1F37
330
2ABB
100
AcDbEntity
  8
0
100
AcDbBlockEnd
  0
BLOCK
  5
2ABE
330
2ABD
100
AcDbEntity
  8
0
100
AcDbBlockBegin
  2
*D55
 70
     1
 10
0.0
 20
0.0
 30
0.0
  3
*D55
  1

  0
LINE
  5
1D95
330
2ABD
100
AcDbEntity
  8
SIZE
 62
     0
100
AcDbLine
 10
-140.0
 20
32.46448280219375
 30
0.0
 11
-140.0
 21
136.4516878685508
 31
0.0
  0
LINE
  5
1D96
330
2ABD
100
AcDbEntity
  8
SIZE
 62
     0
100
AcDbLine
 10
140.0
 20
32.46448280219375
 30
0.0
 11
140.0
 21
136.4516878685508
 31
0.0
  0
LINE
  5
1D97
330
2ABD
100
AcDbEntity
  8
SIZE
 62
     0
100
AcDbLine
 10
-128.0
 20
116.4516878685508
 30
0.0
 11
128.0
 21
116.4516878685508
 31
0.0
  0
INSERT
  5
1D98
330
2ABD
100
AcDbEntity
  8
SIZE
 62
     0
100
AcDbBlockReference
  2
_DOTBLANK
 10
-140.0
 20
116.4516878685508
 30
0.0
 41
12.0
 42
12.0
 43
12.0
 50
180.0
  0
INSERT
  5
1D99
330
2ABD
100
AcDbEntity
  8
SIZE
 62
     0
100
AcDbBlockReference
  2
_DOTBLANK
 10
140.0
 20
116.4516878685508
 30
0.0
 41
12.0
 42
12.0
 43
12.0
  0
INSERT
  5
1D9A
330
2ABD
100
AcDbEntity
  8
0
100
AcDbBlockReference
  2
*U56
 10
0.0
 20
0.0
 30
0.0
  0
POINT
  5
1D9B
330
2ABD
100
AcDbEntity
  8
DEFPOINTS
 62
     0
100
AcDbPoint
 10
-140.0
 20
12.46448280219374
 30
0.0
  0
POINT
  5
1D9C
330
2ABD
100
AcDbEntity
  8
DEFPOINTS
 62
     0
100
AcDbPoint
 10
140.0
 20
12.46448280219374
 30
0.0
  0
POINT
  5
1D9D
330
2ABD
100
AcDbEntity
  8
DEFPOINTS
 62
     0
100
AcDbPoint
 10
140.0
 20
116.4516878685508
 30
0.0
  0
ENDBLK
  5
1755
330
2ABD
100
AcDbEntity
  8
0
100
AcDbBlockEnd
  0
BLOCK
  5
2AC0
330
2ABF
100
AcDbEntity
  8
0
100
AcDbBlockBegin
  2
*U56
 70
     1
 10
0.0
 20
0.0
 30
0.0
  3
*U56
  1

  0
TEXT
  5
1F39
330
2ABF
100
AcDbEntity
  8
SIZE
 62
     0
100
AcDbText
 10
-74.05714285714283
 20
126.4516878685508
 30
0.0
 40
64.0
  1
280
 41
0.9
100
AcDbText
  0
ENDBLK
  5
1F3B
330
2ABF
100
AcDbEntity
  8
0
100
AcDbBlockEnd
  0
BLOCK
  5
2AC2
330
2AC1
100
AcDbEntity
  8
0
100
AcDbBlockBegin
  2
*D57
 70
     1
 10
0.0
 20
0.0
 30
0.0
  3
*D57
  1

  0
LINE
  5
1D9E
330
2AC1
100
AcDbEntity
  8
SIZE
 62
     0
100
AcDbLine
 10
-157.5
 20
20.0
 30
0.0
 11
-157.5
 21
245.5794621189598
 31
0.0
  0
LINE
  5
1D9F
330
2AC1
100
AcDbEntity
  8
SIZE
 62
     0
100
AcDbLine
 10
157.5
 20
20.0
 30
0.0
 11
157.5
 21
245.5794621189598
 31
0.0
  0
LINE
  5
1DA0
330
2AC1
100
AcDbEntity
  8
SIZE
 62
     0
100
AcDbLine
 10
-145.5
 20
225.5794621189598
 30
0.0
 11
145.5
 21
225.5794621189598
 31
0.0
  0
INSERT
  5
1DA1
330
2AC1
100
AcDbEntity
  8
SIZE
 62
     0
100
AcDbBlockReference
  2
_DOTBLANK
 10
-157.5
 20
225.5794621189598
 30
0.0
 41
12.0
 42
12.0
 43
12.0
 50
180.0
  0
INSERT
  5
1DA2
330
2AC1
100
AcDbEntity
  8
SIZE
 62
     0
100
AcDbBlockReference
  2
_DOTBLANK
 10
157.5
 20
225.5794621189598
 30
0.0
 41
12.0
 42
12.0
 43
12.0
  0
INSERT
  5
1DA3
330
2AC1
100
AcDbEntity
  8
0
100
AcDbBlockReference
  2
*U58
 10
0.0
 20
0.0
 30
0.0
  0
POINT
  5
1DA4
330
2AC1
100
AcDbEntity
  8
DEFPOINTS
 62
     0
100
AcDbPoint
 10
-157.5
 20
0.0
 30
0.0
  0
POINT
  5
1DA5
330
2AC1
100
AcDbEntity
  8
DEFPOINTS
 62
     0
100
AcDbPoint
 10
157.5
 20
0.0
 30
0.0
  0
POINT
  5
1DA6
330
2AC1
100
AcDbEntity
  8
DEFPOINTS
 62
     0
100
AcDbPoint
 10
157.5
 20
225.5794621189598
 30
0.0
  0
ENDBLK
  5
1761
330
2AC1
100
AcDbEntity
  8
0
100
AcDbBlockEnd
  0
BLOCK
  5
2AC4
330
2AC3
100
AcDbEntity
  8
0
100
AcDbBlockBegin
  2
*U58
 70
     1
 10
0.0
 20
0.0
 30
0.0
  3
*U58
  1

  0
TEXT
  5
1F3D
330
2AC3
100
AcDbEntity
  8
SIZE
 62
     0
100
AcDbText
 10
-68.57142857142857
 20
235.5794621189599
 30
0.0
 40
64.0
  1
315
 41
0.9
100
AcDbText
  0
ENDBLK
  5
1F3F
330
2AC3
100
AcDbEntity
  8
0
100
AcDbBlockEnd
  0
BLOCK
  5
2AC6
330
2AC5
100
AcDbEntity
  8
0
100
AcDbBlockBegin
  2
*D59
 70
     1
 10
0.0
 20
0.0
 30
0.0
  3
*D59
  1

  0
LINE
  5
1DA7
330
2AC5
100
AcDbEntity
  8
SIZE
 62
     0
100
AcDbLine
 10
-177.5
 20
0.0000000000000057
 30
0.0
 11
-314.0264221186908
 21
0.0000000000000443
 31
0.0
  0
LINE
  5
1DA8
330
2AC5
100
AcDbEntity
  8
SIZE
 62
     0
100
AcDbLine
 10
-177.5
 20
-7.999999999999995
 30
0.0
 11
-314.0264221186908
 21
-7.999999999999958
 31
0.0
  0
LINE
  5
1DA9
330
2AC5
100
AcDbEntity
  8
SIZE
 62
     0
100
AcDbLine
 10
-294.0264221186908
 20
12.00000000000003
 30
0.0
 11
-294.0264221186908
 21
24.00000000000004
 31
0.0
  0
LINE
  5
1DAA
330
2AC5
100
AcDbEntity
  8
SIZE
 62
     0
100
AcDbLine
 10
-294.0264221186908
 20
-19.99999999999996
 30
0.0
 11
-294.0264221186908
 21
-90.39999999999997
 31
0.0
  0
INSERT
  5
1DAB
330
2AC5
100
AcDbEntity
  8
SIZE
 62
     0
100
AcDbBlockReference
  2
_DOTBLANK
 10
-294.0264221186908
 20
0.0000000000000387
 30
0.0
 41
12.0
 42
12.0
 43
12.0
 50
270.0
  0
INSERT
  5
1DAC
330
2AC5
100
AcDbEntity
  8
SIZE
 62
     0
100
AcDbBlockReference
  2
_DOTBLANK
 10
-294.0264221186908
 20
-7.999999999999961
 30
0.0
 41
12.0
 42
12.0
 43
12.0
 50
90.0
  0
INSERT
  5
1DAD
330
2AC5
100
AcDbEntity
  8
0
100
AcDbBlockReference
  2
*U60
 10
0.0
 20
0.0
 30
0.0
  0
POINT
  5
1DAE
330
2AC5
100
AcDbEntity
  8
DEFPOINTS
 62
     0
100
AcDbPoint
 10
-157.5
 20
0.0
 30
0.0
  0
POINT
  5
1DAF
330
2AC5
100
AcDbEntity
  8
DEFPOINTS
 62
     0
100
AcDbPoint
 10
-157.5
 20
-8.000000000000003
 30
0.0
  0
POINT
  5
1DB0
330
2AC5
100
AcDbEntity
  8
DEFPOINTS
 62
     0
100
AcDbPoint
 10
-294.0264221186908
 20
-7.999999999999961
 30
0.0
  0
ENDBLK
  5
176D
330
2AC5
100
AcDbEntity
  8
0
100
AcDbBlockEnd
  0
BLOCK
  5
2AC8
330
2AC7
100
AcDbEntity
  8
0
100
AcDbBlockBegin
  2
*U60
 70
     1
 10
0.0
 20
0.0
 30
0.0
  3
*U60
  1

  0
TEXT
  5
1F41
330
2AC7
100
AcDbEntity
  8
SIZE
 62
     0
100
AcDbText
 10
-304.0264221186908
 20
-80.4
 30
0.0
 40
64.0
  1
8
 50
90.0
 41
0.9
100
AcDbText
  0
ENDBLK
  5
1F43
330
2AC7
100
AcDbEntity
  8
0
100
AcDbBlockEnd
  0
BLOCK
  5
2ACA
330
2AC9
100
AcDbEntity
  8
0
100
AcDbBlockBegin
  2
*D61
 70
     1
 10
0.0
 20
0.0
 30
0.0
  3
*D61
  1

  0
LINE
  5
1DB1
330
2AC9
100
AcDbEntity
  8
SIZE
 62
     0
100
AcDbLine
 10
154.5
 20
-300.0
 30
0.0
 11
304.6432844803785
 21
-300.0
 31
0.0
  0
LINE
  5
1DB2
330
2AC9
100
AcDbEntity
  8
SIZE
 62
     0
100
AcDbLine
 10
143.5
 20
-312.0
 30
0.0
 11
304.6432844803785
 21
-312.0
 31
0.0
  0
LINE
  5
1DB3
330
2AC9
100
AcDbEntity
  8
SIZE
 62
     0
100
AcDbLine
 10
284.6432844803785
 20
-288.0
 30
0.0
 11
284.6432844803785
 21
-276.0
 31
0.0
  0
LINE
  5
1DB4
330
2AC9
100
AcDbEntity
  8
SIZE
 62
     0
100
AcDbLine
 10
284.6432844803785
 20
-324.0000000000001
 30
0.0
 11
284.6432844803784
 21
-438.2857142857143
 31
0.0
  0
INSERT
  5
1DB5
330
2AC9
100
AcDbEntity
  8
SIZE
 62
     0
100
AcDbBlockReference
  2
_DOTBLANK
 10
284.6432844803785
 20
-300.0
 30
0.0
 41
12.0
 42
12.0
 43
12.0
 50
270.0
  0
INSERT
  5
1DB6
330
2AC9
100
AcDbEntity
  8
SIZE
 62
     0
100
AcDbBlockReference
  2
_DOTBLANK
 10
284.6432844803785
 20
-312.0
 30
0.0
 41
12.0
 42
12.0
 43
12.0
 50
90.0
  0
INSERT
  5
1DB7
330
2AC9
100
AcDbEntity
  8
0
100
AcDbBlockReference
  2
*U62
 10
0.0
 20
0.0
 30
0.0
  0
POINT
  5
1DB8
330
2AC9
100
AcDbEntity
  8
DEFPOINTS
 62
     0
100
AcDbPoint
 10
134.5
 20
-300.0
 30
0.0
  0
POINT
  5
1DB9
330
2AC9
100
AcDbEntity
  8
DEFPOINTS
 62
     0
100
AcDbPoint
 10
123.5
 20
-312.0
 30
0.0
  0
POINT
  5
1DBA
330
2AC9
100
AcDbEntity
  8
DEFPOINTS
 62
     0
100
AcDbPoint
 10
284.6432844803785
 20
-312.0
 30
0.0
  0
ENDBLK
  5
177B
330
2AC9
100
AcDbEntity
  8
0
100
AcDbBlockEnd
  0
BLOCK
  5
2ACC
330
2ACB
100
AcDbEntity
  8
0
100
AcDbBlockBegin
  2
*U62
 70
     1
 10
0.0
 20
0.0
 30
0.0
  3
*U62
  1

  0
TEXT
  5
1F45
330
2ACB
100
AcDbEntity
  8
SIZE
 62
     0
100
AcDbText
 10
274.6432844803785
 20
-428.2857142857142
 30
0.0
 40
64.0
  1
12
 50
90.0
 41
0.9
100
AcDbText
  0
ENDBLK
  5
1F47
330
2ACB
100
AcDbEntity
  8
0
100
AcDbBlockEnd
  0
BLOCK
  5
2ACE
330
2ACD
100
AcDbEntity
  8
0
100
AcDbBlockBegin
  2
*U63
 70
     1
 10
0.0
 20
0.0
 30
0.0
  3
*U63
  1

  0
ENDBLK
  5
1D57
330
2ACD
100
AcDbEntity
  8
0
100
AcDbBlockEnd
  0
BLOCK
  5
2AD0
330
2ACF
100
AcDbEntity
  8
0
100
AcDbBlockBegin
  2
*U64
 70
     1
 10
0.0
 20
0.0
 30
0.0
  3
*U64
  1

  0
INSERT
  5
2087
330
2ACF
100
AcDbEntity
  8
NOTE
100
AcDbBlockReference
  2
_OPEN30
 10
-279.9999999999997
 20
0.0
 30
0.0
 41
12.0
 42
12.0
 43
12.0
 50
312.6090116116894
  0
POLYLINE
  5
2088
330
2ACF
100
AcDbEntity
  8
NOTE
100
AcDb2dPolyline
 66
     1
 10
0.0
 20
0.0
 30
0.0
  0
VERTEX
  5
2969
330
2088
100
AcDbEntity
  8
NOTE
100
AcDbVertex
100
AcDb2dVertex
 10
-288.1239008361892
 20
8.831887408915475
 30
0.0
  0
VERTEX
  5
296A
330
2088
100
AcDbEntity
  8
NOTE
100
AcDbVertex
100
AcDb2dVertex
 10
-367.8693999922541
 20
95.5270950580134
 30
0.0
  0
VERTEX
  5
296B
330
2088
100
AcDbEntity
  8
NOTE
100
AcDbVertex
100
AcDb2dVertex
 10
-916.4522571351112
 20
95.5270950580134
 30
0.0
  0
SEQEND
  5
296C
330
2088
100
AcDbEntity
  8
NOTE
  0
ENDBLK
  5
2089
330
2ACF
100
AcDbEntity
  8
0
100
AcDbBlockEnd
  0
BLOCK
  5
2AD2
330
2AD1
100
AcDbEntity
  8
0
100
AcDbBlockBegin
  2
*U65
 70
     1
 10
0.0
 20
0.0
 30
0.0
  3
*U65
  1

  0
TEXT
  5
208C
330
2AD1
100
AcDbEntity
  8
NOTE
100
AcDbText
 10
-913.7093999922541
 20
113.5270950580134
 30
0.0
 40
64.0
  1
4×φ15取付穴
 41
0.9
100
AcDbText
  0
ENDBLK
  5
208D
330
2AD1
100
AcDbEntity
  8
0
100
AcDbBlockEnd
  0
BLOCK
  5
2AD4
330
2AD3
100
AcDbEntity
  8
0
100
AcDbBlockBegin
  2
*U66
 70
     1
 10
0.0
 20
0.0
 30
0.0
  3
*U66
  1

  0
INSERT
  5
2165
330
2AD3
100
AcDbEntity
  8
NOTE
100
AcDbBlockReference
  2
_OPEN30
 10
280.0
 20
280.0
 30
0.0
 41
12.0
 42
12.0
 43
12.0
 50
230.7091310502217
  0
POLYLINE
  5
2166
330
2AD3
100
AcDbEntity
  8
NOTE
100
AcDb2dPolyline
 66
     1
 10
0.0
 20
0.0
 30
0.0
  0
VERTEX
  5
296D
330
2166
100
AcDbEntity
  8
NOTE
100
AcDbVertex
100
AcDb2dVertex
 10
287.599090480922
 20
289.2872936780722
 30
0.0
  0
VERTEX
  5
296E
330
2166
100
AcDbEntity
  8
NOTE
100
AcDbVertex
100
AcDb2dVertex
 10
343.4345623698608
 20
357.5270950580134
 30
0.0
  0
VERTEX
  5
296F
330
2166
100
AcDbEntity
  8
NOTE
100
AcDbVertex
100
AcDb2dVertex
 10
892.0174195127176
 20
357.5270950580134
 30
0.0
  0
SEQEND
  5
2970
330
2166
100
AcDbEntity
  8
NOTE
  0
ENDBLK
  5
2167
330
2AD3
100
AcDbEntity
  8
0
100
AcDbBlockEnd
  0
BLOCK
  5
2AD6
330
2AD5
100
AcDbEntity
  8
0
100
AcDbBlockBegin
  2
*U67
 70
     1
 10
0.0
 20
0.0
 30
0.0
  3
*U67
  1

  0
TEXT
  5
216A
330
2AD5
100
AcDbEntity
  8
NOTE
100
AcDbText
 10
405.4345623698607
 20
375.5270950580134
 30
0.0
 40
64.0
  1
4×φ15取付穴
 41
0.9
100
AcDbText
  0
ENDBLK
  5
216B
330
2AD5
100
AcDbEntity
  8
0
100
AcDbBlockEnd
  0
BLOCK
  5
2AD8
330
2AD7
100
AcDbEntity
  8
0
100
AcDbBlockBegin
  2
*U68
 70
     1
 10
0.0
 20
0.0
 30
0.0
  3
*U68
  1

  0
INSERT
  5
223C
330
2AD7
100
AcDbEntity
  8
NOTE
100
AcDbBlockReference
  2
_OPEN30
 10
280.0
 20
279.9999999999991
 30
0.0
 41
12.0
 42
12.0
 43
12.0
 50
232.3258907693334
  0
POLYLINE
  5
223D
330
2AD7
100
AcDbEntity
  8
NOTE
100
AcDb2dPolyline
 66
     1
 10
0.0
 20
0.0
 30
0.0
  0
VERTEX
  5
2971
330
223D
100
AcDbEntity
  8
NOTE
100
AcDbVertex
100
AcDb2dVertex
 10
287.3340332839448
 20
289.4979974620955
 30
0.0
  0
VERTEX
  5
2972
330
223D
100
AcDbEntity
  8
NOTE
100
AcDbVertex
100
AcDb2dVertex
 10
353.7628007872081
 20
375.5270950580116
 30
0.0
  0
VERTEX
  5
2973
330
223D
100
AcDbEntity
  8
NOTE
100
AcDbVertex
100
AcDb2dVertex
 10
899.6028007872082
 20
375.5270950580116
 30
0.0
  0
SEQEND
  5
2974
330
223D
100
AcDbEntity
  8
NOTE
  0
ENDBLK
  5
223E
330
2AD7
100
AcDbEntity
  8
0
100
AcDbBlockEnd
  0
BLOCK
  5
2ADA
330
2AD9
100
AcDbEntity
  8
0
100
AcDbBlockBegin
  2
*U69
 70
     1
 10
0.0
 20
0.0
 30
0.0
  3
*U69
  1

  0
TEXT
  5
2241
330
2AD9
100
AcDbEntity
  8
NOTE
100
AcDbText
 10
415.7628007872081
 20
393.5270950580116
 30
0.0
 40
64.0
  1
4×φ15取付穴
 41
0.9
100
AcDbText
  0
ENDBLK
  5
2242
330
2AD9
100
AcDbEntity
  8
0
100
AcDbBlockEnd
  0
BLOCK
  5
2ADC
330
2ADB
100
AcDbEntity
  8
0
100
AcDbBlockBegin
  2
*U70
 70
     1
 10
0.0
 20
0.0
 30
0.0
  3
*U70
  1

  0
INSERT
  5
232F
330
2ADB
100
AcDbEntity
  8
NOTE
100
AcDbBlockReference
  2
_OPEN30
 10
0.0
 20
279.9999999999999
 30
0.0
 41
12.0
 42
12.0
 43
12.0
 50
312.6090116116897
  0
POLYLINE
  5
2330
330
2ADB
100
AcDbEntity
  8
NOTE
100
AcDb2dPolyline
 66
     1
 10
0.0
 20
0.0
 30
0.0
  0
VERTEX
  5
2989
330
2330
100
AcDbEntity
  8
NOTE
100
AcDbVertex
100
AcDb2dVertex
 10
-8.123900836189516
 20
288.8318874089152
 30
0.0
  0
VERTEX
  5
298A
330
2330
100
AcDbEntity
  8
NOTE
100
AcDbVertex
100
AcDb2dVertex
 10
-87.86939999225436
 20
375.5270950580128
 30
0.0
  0
VERTEX
  5
298B
330
2330
100
AcDbEntity
  8
NOTE
100
AcDbVertex
100
AcDb2dVertex
 10
-633.7093999922545
 20
375.5270950580128
 30
0.0
  0
SEQEND
  5
298C
330
2330
100
AcDbEntity
  8
NOTE
  0
ENDBLK
  5
2331
330
2ADB
100
AcDbEntity
  8
0
100
AcDbBlockEnd
  0
BLOCK
  5
2ADE
330
2ADD
100
AcDbEntity
  8
0
100
AcDbBlockBegin
  2
*U71
 70
     1
 10
0.0
 20
0.0
 30
0.0
  3
*U71
  1

  0
TEXT
  5
2334
330
2ADD
100
AcDbEntity
  8
NOTE
100
AcDbText
 10
-633.7093999922545
 20
393.5270950580128
 30
0.0
 40
64.0
  1
4×φ15取付穴
 41
0.9
100
AcDbText
  0
ENDBLK
  5
2335
330
2ADD
100
AcDbEntity
  8
0
100
AcDbBlockEnd
  0
BLOCK
  5
2AE0
330
2ADF
100
AcDbEntity
  8
0
100
AcDbBlockBegin
  2
*U72
 70
     1
 10
0.0
 20
0.0
 30
0.0
  3
*U72
  1

  0
INSERT
  5
245C
330
2ADF
100
AcDbEntity
  8
NOTE
100
AcDbBlockReference
  2
_OPEN30
 10
0.0
 20
279.9999999999999
 30
0.0
 41
12.0
 42
12.0
 43
12.0
 50
227.3909883883104
  0
POLYLINE
  5
245D
330
2ADF
100
AcDbEntity
  8
NOTE
100
AcDb2dPolyline
 66
     1
 10
0.0
 20
0.0
 30
0.0
  0
VERTEX
  5
298D
330
245D
100
AcDbEntity
  8
NOTE
100
AcDbVertex
100
AcDb2dVertex
 10
8.123900836189516
 20
288.8318874089152
 30
0.0
  0
VERTEX
  5
298E
330
245D
100
AcDbEntity
  8
NOTE
100
AcDbVertex
100
AcDb2dVertex
 10
87.86939999225436
 20
375.5270950580128
 30
0.0
  0
VERTEX
  5
298F
330
245D
100
AcDbEntity
  8
NOTE
100
AcDbVertex
100
AcDb2dVertex
 10
633.7093999922545
 20
375.5270950580128
 30
0.0
  0
SEQEND
  5
2990
330
245D
100
AcDbEntity
  8
NOTE
  0
ENDBLK
  5
245E
330
2ADF
100
AcDbEntity
  8
0
100
AcDbBlockEnd
  0
BLOCK
  5
2AE2
330
2AE1
100
AcDbEntity
  8
0
100
AcDbBlockBegin
  2
*U73
 70
     1
 10
0.0
 20
0.0
 30
0.0
  3
*U73
  1

  0
TEXT
  5
2461
330
2AE1
100
AcDbEntity
  8
NOTE
100
AcDbText
 10
149.8693999922543
 20
393.5270950580128
 30
0.0
 40
64.0
  1
4×φ15取付穴
 41
0.9
100
AcDbText
  0
ENDBLK
  5
2462
330
2AE1
100
AcDbEntity
  8
0
100
AcDbBlockEnd
  0
BLOCK
  5
2AE4
330
2AE3
100
AcDbEntity
  8
0
100
AcDbBlockBegin
  2
*X74
 70
     1
 10
0.0
 20
0.0
 30
0.0
  3
*X74
  1

  0
LINE
  5
258D
330
2AE3
100
AcDbEntity
  8
0
 62
     0
100
AcDbLine
 10
249.5252036356433
 20
-574.2000000000007
 30
0.0
 11
250.6999999999898
 21
-573.416804423683
 31
0.0
  0
LINE
  5
258E
330
2AE3
100
AcDbEntity
  8
0
 62
     0
100
AcDbLine
 10
245.0252423417551
 20
-574.2000000000042
 30
0.0
 11
250.699999999988
 21
-570.4168378882696
 31
0.0
  0
LINE
  5
258F
330
2AE3
100
AcDbEntity
  8
0
 62
     0
100
AcDbLine
 10
240.5252810478705
 20
-574.2000000000025
 30
0.0
 11
250.6999999999898
 21
-567.4168713528525
 31
0.0
  0
LINE
  5
2590
330
2AE3
100
AcDbEntity
  8
0
 62
     0
100
AcDbLine
 10
236.0253197539841
 20
-574.2000000000025
 30
0.0
 11
250.699999999988
 21
-564.4169048174369
 31
0.0
  0
LINE
  5
2591
330
2AE3
100
AcDbEntity
  8
0
 62
     0
100
AcDbLine
 10
231.5253584601014
 20
-574.2000000000007
 30
0.0
 11
250.6999999999898
 21
-561.41693828202
 31
0.0
  0
LINE
  5
2592
330
2AE3
100
AcDbEntity
  8
0
 62
     0
100
AcDbLine
 10
227.0253971662132
 20
-574.2000000000007
 30
0.0
 11
250.6999999999898
 21
-558.4169717466011
 31
0.0
  0
LINE
  5
2593
330
2AE3
100
AcDbEntity
  8
0
 62
     0
100
AcDbLine
 10
222.5254358723287
 20
-574.2000000000025
 30
0.0
 11
250.6999999999898
 21
-555.4170052111876
 31
0.0
  0
LINE
  5
2594
330
2AE3
100
AcDbEntity
  8
0
 62
     0
100
AcDbLine
 10
218.0254745784441
 20
-574.2000000000007
 30
0.0
 11
250.6999999999898
 21
-552.4170386757705
 31
0.0
  0
LINE
  5
2595
330
2AE3
100
AcDbEntity
  8
0
 62
     0
100
AcDbLine
 10
213.5255132845577
 20
-574.2000000000007
 30
0.0
 11
250.699999999988
 21
-549.4170721403552
 31
0.0
  0
LINE
  5
2596
330
2AE3
100
AcDbEntity
  8
0
 62
     0
100
AcDbLine
 10
209.0255519906714
 20
-574.2000000000007
 30
0.0
 11
250.6999999999898
 21
-546.4171056049377
 31
0.0
  0
LINE
  5
2597
330
2AE3
100
AcDbEntity
  8
0
 62
     0
100
AcDbLine
 10
204.5255906967868
 20
-574.2000000000025
 30
0.0
 11
250.6999999999898
 21
-543.4171390695228
 31
0.0
  0
LINE
  5
2598
330
2AE3
100
AcDbEntity
  8
0
 62
     0
100
AcDbLine
 10
200.0256294029023
 20
-574.2000000000025
 30
0.0
 11
250.6999999999898
 21
-540.4171725341075
 31
0.0
  0
LINE
  5
2599
330
2AE3
100
AcDbEntity
  8
0
 62
     0
100
AcDbLine
 10
195.5256681090121
 20
-574.2000000000042
 30
0.0
 11
250.699999999988
 21
-537.4172059986903
 31
0.0
  0
LINE
  5
259A
330
2AE3
100
AcDbEntity
  8
0
 62
     0
100
AcDbLine
 10
191.0257068151295
 20
-574.2000000000007
 30
0.0
 11
250.6999999999898
 21
-534.4172394632733
 31
0.0
  0
LINE
  5
259B
330
2AE3
100
AcDbEntity
  8
0
 62
     0
100
AcDbLine
 10
186.5257455212431
 20
-574.2000000000025
 30
0.0
 11
250.6999999999898
 21
-531.4172729278578
 31
0.0
  0
LINE
  5
259C
330
2AE3
100
AcDbEntity
  8
0
 62
     0
100
AcDbLine
 10
182.0257842273586
 20
-574.2000000000025
 30
0.0
 11
250.699999999988
 21
-528.4173063924423
 31
0.0
  0
LINE
  5
259D
330
2AE3
100
AcDbEntity
  8
0
 62
     0
100
AcDbLine
 10
177.5258229334704
 20
-574.2000000000042
 30
0.0
 11
250.6999999999898
 21
-525.4173398570255
 31
0.0
  0
LINE
  5
259E
330
2AE3
100
AcDbEntity
  8
0
 62
     0
100
AcDbLine
 10
173.0258616395877
 20
-574.2000000000025
 30
0.0
 11
250.6999999999898
 21
-522.4173733216083
 31
0.0
  0
LINE
  5
259F
330
2AE3
100
AcDbEntity
  8
0
 62
     0
100
AcDbLine
 10
168.5259003457013
 20
-574.2000000000025
 30
0.0
 11
250.6999999999898
 21
-519.417406786193
 31
0.0
  0
LINE
  5
25A0
330
2AE3
100
AcDbEntity
  8
0
 62
     0
100
AcDbLine
 10
164.0259390518167
 20
-574.2000000000007
 30
0.0
 11
250.699999999988
 21
-516.4174402507779
 31
0.0
  0
LINE
  5
25A1
330
2AE3
100
AcDbEntity
  8
0
 62
     0
100
AcDbLine
 10
159.5259777579322
 20
-574.2000000000025
 30
0.0
 11
250.6999999999898
 21
-513.4174737153607
 31
0.0
  0
LINE
  5
25A2
330
2AE3
100
AcDbEntity
  8
0
 62
     0
100
AcDbLine
 10
155.0260164640458
 20
-574.2000000000025
 30
0.0
 11
250.6999999999916
 21
-510.4175071799436
 31
0.0
  0
LINE
  5
25A3
330
2AE3
100
AcDbEntity
  8
0
 62
     0
100
AcDbLine
 10
150.5260551701612
 20
-574.1999999999989
 30
0.0
 11
250.699999999988
 21
-507.4175406445265
 31
0.0
  0
LINE
  5
25A4
330
2AE3
100
AcDbEntity
  8
0
 62
     0
100
AcDbLine
 10
146.026093876273
 20
-574.2000000000025
 30
0.0
 11
250.6999999999916
 21
-504.4175741091112
 31
0.0
  0
LINE
  5
25A5
330
2AE3
100
AcDbEntity
  8
0
 62
     0
100
AcDbLine
 10
141.5261325823903
 20
-574.2000000000025
 30
0.0
 11
250.6999999999898
 21
-501.4176075736976
 31
0.0
  0
LINE
  5
25A6
330
2AE3
100
AcDbEntity
  8
0
 62
     0
100
AcDbLine
 10
137.0261712885021
 20
-574.2000000000025
 30
0.0
 11
250.6999999999898
 21
-498.4176410382786
 31
0.0
  0
LINE
  5
25A7
330
2AE3
100
AcDbEntity
  8
0
 62
     0
100
AcDbLine
 10
132.5262099946194
 20
-574.2000000000007
 30
0.0
 11
250.699999999988
 21
-495.4176745028632
 31
0.0
  0
LINE
  5
25A8
330
2AE3
100
AcDbEntity
  8
0
 62
     0
100
AcDbLine
 10
128.0262487007312
 20
-574.2000000000042
 30
0.0
 11
250.6999999999916
 21
-492.4177079674462
 31
0.0
  0
LINE
  5
25A9
330
2AE3
100
AcDbEntity
  8
0
 62
     0
100
AcDbLine
 10
123.5262874068467
 20
-574.2000000000025
 30
0.0
 11
250.6999999999916
 21
-489.4177414320311
 31
0.0
  0
LINE
  5
25AA
330
2AE3
100
AcDbEntity
  8
0
 62
     0
100
AcDbLine
 10
119.0263261129603
 20
-574.2000000000025
 30
0.0
 11
250.699999999988
 21
-486.417774896614
 31
0.0
  0
LINE
  5
25AB
330
2AE3
100
AcDbEntity
  8
0
 62
     0
100
AcDbLine
 10
114.5263648190775
 20
-574.2000000000007
 30
0.0
 11
250.6999999999916
 21
-483.4178083611968
 31
0.0
  0
LINE
  5
25AC
330
2AE3
100
AcDbEntity
  8
0
 62
     0
100
AcDbLine
 10
110.0264035251893
 20
-574.2000000000025
 30
0.0
 11
250.699999999988
 21
-480.4178418257832
 31
0.0
  0
LINE
  5
25AD
330
2AE3
100
AcDbEntity
  8
0
 62
     0
100
AcDbLine
 10
105.526442231303
 20
-574.2000000000025
 30
0.0
 11
250.6999999999898
 21
-477.4178752903644
 31
0.0
  0
LINE
  5
25AE
330
2AE3
100
AcDbEntity
  8
0
 62
     0
100
AcDbLine
 10
101.0264809374184
 20
-574.2000000000025
 30
0.0
 11
250.699999999988
 21
-474.4179087549508
 31
0.0
  0
LINE
  5
25AF
330
2AE3
100
AcDbEntity
  8
0
 62
     0
100
AcDbLine
 10
96.52651964353209
 20
-574.2000000000025
 30
0.0
 11
250.6999999999916
 21
-471.4179422195321
 31
0.0
  0
LINE
  5
25B0
330
2AE3
100
AcDbEntity
  8
0
 62
     0
100
AcDbLine
 10
92.02655834964932
 20
-574.2000000000007
 30
0.0
 11
250.699999999988
 21
-468.4179756841166
 31
0.0
  0
LINE
  5
25B1
330
2AE3
100
AcDbEntity
  8
0
 62
     0
100
AcDbLine
 10
87.52659705576117
 20
-574.2000000000025
 30
0.0
 11
250.6999999999898
 21
-465.4180091487011
 31
0.0
  0
LINE
  5
25B2
330
2AE3
100
AcDbEntity
  8
0
 62
     0
100
AcDbLine
 10
83.02663576187843
 20
-574.2000000000007
 30
0.0
 11
250.699999999988
 21
-462.4180426132861
 31
0.0
  0
LINE
  5
25B3
330
2AE3
100
AcDbEntity
  8
0
 62
     0
100
AcDbLine
 10
78.52667446798843
 20
-574.2000000000025
 30
0.0
 11
250.6999999999898
 21
-459.4180760778688
 31
0.0
  0
LINE
  5
25B4
330
2AE3
100
AcDbEntity
  8
0
 62
     0
100
AcDbLine
 10
74.02671317410571
 20
-574.2000000000007
 30
0.0
 11
250.6999999999898
 21
-456.41810954245
 31
0.0
  0
LINE
  5
25B5
330
2AE3
100
AcDbEntity
  8
0
 62
     0
100
AcDbLine
 10
69.52675188021929
 20
-574.2000000000025
 30
0.0
 11
250.6999999999898
 21
-453.4181430070366
 31
0.0
  0
LINE
  5
25B6
330
2AE3
100
AcDbEntity
  8
0
 62
     0
100
AcDbLine
 10
65.02679058633657
 20
-574.2000000000025
 30
0.0
 11
250.6999999999916
 21
-450.4181764716212
 31
0.0
  0
LINE
  5
25B7
330
2AE3
100
AcDbEntity
  8
0
 62
     0
100
AcDbLine
 10
60.52682929244475
 20
-574.2000000000042
 30
0.0
 11
250.699999999988
 21
-447.4182099362042
 31
0.0
  0
LINE
  5
25B8
330
2AE3
100
AcDbEntity
  8
0
 62
     0
100
AcDbLine
 10
56.02686799856382
 20
-574.2000000000007
 30
0.0
 11
250.6999999999898
 21
-444.4182434007871
 31
0.0
  0
LINE
  5
25B9
330
2AE3
100
AcDbEntity
  8
0
 62
     0
100
AcDbLine
 10
51.52690670467745
 20
-574.2000000000025
 30
0.0
 11
250.6999999999916
 21
-441.41827686537
 31
0.0
  0
LINE
  5
25BA
330
2AE3
100
AcDbEntity
  8
0
 62
     0
100
AcDbLine
 10
47.02694541079107
 20
-574.2000000000025
 30
0.0
 11
250.6999999999933
 21
-438.4183103299529
 31
0.0
  0
LINE
  5
25BB
330
2AE3
100
AcDbEntity
  8
0
 62
     0
100
AcDbLine
 10
42.52698411690653
 20
-574.2000000000025
 30
0.0
 11
250.6999999999898
 21
-435.418343794539
 31
0.0
  0
LINE
  5
25BC
330
2AE3
100
AcDbEntity
  8
0
 62
     0
100
AcDbLine
 10
38.02702282302198
 20
-574.2000000000025
 30
0.0
 11
250.6999999999933
 21
-432.4183772591204
 31
0.0
  0
LINE
  5
25BD
330
2AE3
100
AcDbEntity
  8
0
 62
     0
100
AcDbLine
 10
33.52706152913743
 20
-574.1999999999989
 30
0.0
 11
250.6999999999933
 21
-429.4184107237032
 31
0.0
  0
LINE
  5
25BE
330
2AE3
100
AcDbEntity
  8
0
 62
     0
100
AcDbLine
 10
29.02710023524742
 20
-574.2000000000025
 30
0.0
 11
250.6999999999916
 21
-426.4184441882879
 31
0.0
  0
LINE
  5
25BF
330
2AE3
100
AcDbEntity
  8
0
 62
     0
100
AcDbLine
 10
24.52713894136469
 20
-574.2000000000025
 30
0.0
 11
250.6999999999933
 21
-423.4184776528724
 31
0.0
  0
LINE
  5
25C0
330
2AE3
100
AcDbEntity
  8
0
 62
     0
100
AcDbLine
 10
20.02717764748012
 20
-574.2000000000025
 30
0.0
 11
250.6999999999933
 21
-420.4185111174571
 31
0.0
  0
LINE
  5
25C1
330
2AE3
100
AcDbEntity
  8
0
 62
     0
100
AcDbLine
 10
15.52721635359558
 20
-574.2000000000007
 30
0.0
 11
250.6999999999933
 21
-417.4185445820385
 31
0.0
  0
LINE
  5
25C2
330
2AE3
100
AcDbEntity
  8
0
 62
     0
100
AcDbLine
 10
11.02725505970556
 20
-574.2000000000025
 30
0.0
 11
250.6999999999916
 21
-414.4185780466249
 31
0.0
  0
LINE
  5
25C3
330
2AE3
100
AcDbEntity
  8
0
 62
     0
100
AcDbLine
 10
6.527293765822832
 20
-574.2000000000025
 30
0.0
 11
250.6999999999933
 21
-411.4186115112079
 31
0.0
  0
LINE
  5
25C4
330
2AE3
100
AcDbEntity
  8
0
 62
     0
100
AcDbLine
 10
2.02733247193646
 20
-574.2000000000025
 30
0.0
 11
250.6999999999933
 21
-408.4186449757908
 31
0.0
  0
LINE
  5
25C5
330
2AE3
100
AcDbEntity
  8
0
 62
     0
100
AcDbLine
 10
-2.47262882195173
 20
-574.2000000000025
 30
0.0
 11
250.6999999999916
 21
-405.4186784403737
 31
0.0
  0
LINE
  5
25C6
330
2AE3
100
AcDbEntity
  8
0
 62
     0
100
AcDbLine
 10
-6.972590115836283
 20
-574.2000000000042
 30
0.0
 11
250.6999999999933
 21
-402.4187119049583
 31
0.0
  0
LINE
  5
25C7
330
2AE3
100
AcDbEntity
  8
0
 62
     0
100
AcDbLine
 10
-11.47255140971902
 20
-574.2000000000025
 30
0.0
 11
250.6999999999933
 21
-399.4187453695449
 31
0.0
  0
LINE
  5
25C8
330
2AE3
100
AcDbEntity
  8
0
 62
     0
100
AcDbLine
 10
-15.97251270360539
 20
-574.2000000000025
 30
0.0
 11
250.6999999999933
 21
-396.418778834126
 31
0.0
  0
LINE
  5
25C9
330
2AE3
100
AcDbEntity
  8
0
 62
     0
100
AcDbLine
 10
-20.47247399749358
 20
-574.2000000000025
 30
0.0
 11
250.6999999999916
 21
-393.4188122987107
 31
0.0
  0
LINE
  5
25CA
330
2AE3
100
AcDbEntity
  8
0
 62
     0
100
AcDbLine
 10
-24.97243529137449
 20
-574.2000000000007
 30
0.0
 11
250.6999999999933
 21
-390.4188457632918
 31
0.0
  0
LINE
  5
25CB
330
2AE3
100
AcDbEntity
  8
0
 62
     0
100
AcDbLine
 10
-29.47239658526269
 20
-574.2000000000025
 30
0.0
 11
250.6999999999953
 21
-387.4188792278765
 31
0.0
  0
LINE
  5
25CC
330
2AE3
100
AcDbEntity
  8
0
 62
     0
100
AcDbLine
 10
-33.97235787914542
 20
-574.2000000000007
 30
0.0
 11
250.6999999999916
 21
-384.4189126924629
 31
0.0
  0
LINE
  5
25CD
330
2AE3
100
AcDbEntity
  8
0
 62
     0
100
AcDbLine
 10
-38.47231917303543
 20
-574.2000000000025
 30
0.0
 11
250.6999999999953
 21
-381.418946157044
 31
0.0
  0
LINE
  5
25CE
330
2AE3
100
AcDbEntity
  8
0
 62
     0
100
AcDbLine
 10
-42.97228046691635
 20
-574.2000000000007
 30
0.0
 11
250.6999999999933
 21
-378.4189796216288
 31
0.0
  0
LINE
  5
25CF
330
2AE3
100
AcDbEntity
  8
0
 62
     0
100
AcDbLine
 10
-47.47224176080634
 20
-574.2000000000025
 30
0.0
 11
250.6999999999933
 21
-375.4190130862117
 31
0.0
  0
LINE
  5
25D0
330
2AE3
100
AcDbEntity
  8
0
 62
     0
100
AcDbLine
 10
-51.97220305469089
 20
-574.2000000000042
 30
0.0
 11
250.6999999999916
 21
-372.4190465507983
 31
0.0
  0
LINE
  5
25D1
330
2AE3
100
AcDbEntity
  8
0
 62
     0
100
AcDbLine
 10
-56.47216434857546
 20
-574.2000000000025
 30
0.0
 11
250.6999999999933
 21
-369.4190800153811
 31
0.0
  0
LINE
  5
25D2
330
2AE3
100
AcDbEntity
  8
0
 62
     0
100
AcDbLine
 10
-60.97212564246001
 20
-574.2000000000007
 30
0.0
 11
250.6999999999916
 21
-366.4191134799639
 31
0.0
  0
LINE
  5
25D3
330
2AE3
100
AcDbEntity
  8
0
 62
     0
100
AcDbLine
 10
-65.47208693634821
 20
-574.2000000000025
 30
0.0
 11
250.6999999999916
 21
-363.4191469445486
 31
0.0
  0
LINE
  5
25D4
330
2AE3
100
AcDbEntity
  8
0
 62
     0
100
AcDbLine
 10
-69.97204823023276
 20
-574.2000000000042
 30
0.0
 11
250.6999999999916
 21
-360.4191804091332
 31
0.0
  0
LINE
  5
25D5
330
2AE3
100
AcDbEntity
  8
0
 62
     0
100
AcDbLine
 10
-74.47200952411731
 20
-574.2000000000025
 30
0.0
 11
250.6999999999916
 21
-357.4192138737163
 31
0.0
  0
LINE
  5
25D6
330
2AE3
100
AcDbEntity
  8
0
 62
     0
100
AcDbLine
 10
-78.97197081800368
 20
-574.2000000000007
 30
0.0
 11
250.6999999999933
 21
-354.4192473382991
 31
0.0
  0
LINE
  5
25D7
330
2AE3
100
AcDbEntity
  8
0
 62
     0
100
AcDbLine
 10
-83.47193211188644
 20
-574.1999999999989
 30
0.0
 11
250.6999999999916
 21
-351.419280802882
 31
0.0
  0
LINE
  5
25D8
330
2AE3
100
AcDbEntity
  8
0
 62
     0
100
AcDbLine
 10
-87.97189340577459
 20
-574.2000000000025
 30
0.0
 11
250.6999999999953
 21
-348.4193142674666
 31
0.0
  0
LINE
  5
25D9
330
2AE3
100
AcDbEntity
  8
0
 62
     0
100
AcDbLine
 10
-92.47185469965916
 20
-574.2000000000025
 30
0.0
 11
250.6999999999916
 21
-345.4193477320514
 31
0.0
  0
LINE
  5
25DA
330
2AE3
100
AcDbEntity
  8
0
 62
     0
100
AcDbLine
 10
-96.97181599354555
 20
-574.2000000000025
 30
0.0
 11
250.6999999999933
 21
-342.4193811966343
 31
0.0
  0
LINE
  5
25DB
330
2AE3
100
AcDbEntity
  8
0
 62
     0
100
AcDbLine
 10
-101.4717772874319
 20
-574.2000000000007
 30
0.0
 11
250.6999999999916
 21
-339.4194146612189
 31
0.0
  0
LINE
  5
25DC
330
2AE3
100
AcDbEntity
  8
0
 62
     0
100
AcDbLine
 10
-105.9717385813182
 20
-574.2000000000025
 30
0.0
 11
250.6999999999933
 21
-336.4194481258019
 31
0.0
  0
LINE
  5
25DD
330
2AE3
100
AcDbEntity
  8
0
 62
     0
100
AcDbLine
 10
-110.4716998752028
 20
-574.2000000000025
 30
0.0
 11
250.6999999999933
 21
-333.4194815903866
 31
0.0
  0
LINE
  5
25DE
330
2AE3
100
AcDbEntity
  8
0
 62
     0
100
AcDbLine
 10
-114.9716611690874
 20
-574.2000000000025
 30
0.0
 11
250.6999999999933
 21
-330.4195150549694
 31
0.0
  0
LINE
  5
25DF
330
2AE3
100
AcDbEntity
  8
0
 62
     0
100
AcDbLine
 10
-119.4716224629737
 20
-574.2000000000025
 30
0.0
 11
250.6999999999953
 21
-327.4195485195523
 31
0.0
  0
LINE
  5
25E0
330
2AE3
100
AcDbEntity
  8
0
 62
     0
100
AcDbLine
 10
-123.9715837568619
 20
-574.2000000000042
 30
0.0
 11
250.6999999999916
 21
-324.4195819841388
 31
0.0
  0
LINE
  5
25E1
330
2AE3
100
AcDbEntity
  8
0
 62
     0
100
AcDbLine
 10
-128.4715450507446
 20
-574.2000000000025
 30
0.0
 11
250.6999999999933
 21
-321.4196154487217
 31
0.0
  0
LINE
  5
25E2
330
2AE3
100
AcDbEntity
  8
0
 62
     0
100
AcDbLine
 10
-132.9715063446292
 20
-574.2000000000025
 30
0.0
 11
250.6999999999933
 21
-318.4196489133065
 31
0.0
  0
LINE
  5
25E3
330
2AE3
100
AcDbEntity
  8
0
 62
     0
100
AcDbLine
 10
-137.4714676385156
 20
-574.2000000000025
 30
0.0
 11
250.6999999999933
 21
-315.4196823778875
 31
0.0
  0
LINE
  5
25E4
330
2AE3
100
AcDbEntity
  8
0
 62
     0
100
AcDbLine
 10
-141.9714289324001
 20
-574.2000000000007
 30
0.0
 11
250.6999999999933
 21
-312.4197158424702
 31
0.0
  0
LINE
  5
25E5
330
2AE3
100
AcDbEntity
  8
0
 62
     0
100
AcDbLine
 10
250.4296232701581
 20
-309.600000000004
 30
0.0
 11
250.6999999999898
 21
-309.4197493070587
 31
0.0
  0
LINE
  5
25E6
330
2AE3
100
AcDbEntity
  8
0
 62
     0
100
AcDbLine
 10
-146.4713902262865
 20
-574.2000000000007
 30
0.0
 11
250.4296232701581
 21
-309.600000000004
 31
0.0
  0
LINE
  5
25E7
330
2AE3
100
AcDbEntity
  8
0
 62
     0
100
AcDbLine
 10
245.9296619762754
 20
-309.6000000000022
 30
0.0
 11
250.699999999988
 21
-306.4197827716435
 31
0.0
  0
LINE
  5
25E8
330
2AE3
100
AcDbEntity
  8
0
 62
     0
100
AcDbLine
 10
-150.9713515201729
 20
-574.2000000000025
 30
0.0
 11
245.9296619762754
 21
-309.6000000000022
 31
0.0
  0
LINE
  5
25E9
330
2AE3
100
AcDbEntity
  8
0
 62
     0
100
AcDbLine
 10
241.4297006823872
 20
-309.6000000000022
 30
0.0
 11
250.699999999988
 21
-303.4198162362263
 31
0.0
  0
LINE
  5
25EA
330
2AE3
100
AcDbEntity
  8
0
 62
     0
100
AcDbLine
 10
-155.4713128140592
 20
-574.2000000000025
 30
0.0
 11
241.4297006823872
 21
-309.6000000000022
 31
0.0
  0
LINE
  5
25EB
330
2AE3
100
AcDbEntity
  8
0
 62
     0
100
AcDbLine
 10
236.9297393885063
 20
-309.6000000000004
 30
0.0
 11
250.699999999988
 21
-300.4198497008092
 31
0.0
  0
LINE
  5
25EC
330
2AE3
100
AcDbEntity
  8
0
 62
     0
100
AcDbLine
 10
-159.971274107942
 20
-574.2000000000007
 30
0.0
 11
236.9297393885026
 21
-309.6000000000022
 31
0.0
  0
LINE
  5
25ED
330
2AE3
100
AcDbEntity
  8
0
 62
     0
100
AcDbLine
 10
232.4297780946163
 20
-309.600000000004
 30
0.0
 11
250.6999999999898
 21
-297.4198831653941
 31
0.0
  0
LINE
  5
25EE
330
2AE3
100
AcDbEntity
  8
0
 62
     0
100
AcDbLine
 10
-164.4712354018284
 20
-574.2000000000025
 30
0.0
 11
232.4297780946163
 21
-309.600000000004
 31
0.0
  0
LINE
  5
25EF
330
2AE3
100
AcDbEntity
  8
0
 62
     0
100
AcDbLine
 10
227.9298168007335
 20
-309.600000000004
 30
0.0
 11
250.6999999999916
 21
-294.4199166299786
 31
0.0
  0
LINE
  5
25F0
330
2AE3
100
AcDbEntity
  8
0
 62
     0
100
AcDbLine
 10
-168.9711966957147
 20
-574.2000000000025
 30
0.0
 11
227.9298168007335
 21
-309.600000000004
 31
0.0
  0
LINE
  5
25F1
330
2AE3
100
AcDbEntity
  8
0
 62
     0
100
AcDbLine
 10
223.4298555068453
 20
-309.6000000000022
 30
0.0
 11
250.699999999988
 21
-291.4199500945615
 31
0.0
  0
LINE
  5
25F2
330
2AE3
100
AcDbEntity
  8
0
 62
     0
100
AcDbLine
 10
-173.4711579896011
 20
-574.2000000000025
 30
0.0
 11
223.4298555068453
 21
-309.6000000000022
 31
0.0
  0
LINE
  5
25F3
330
2AE3
100
AcDbEntity
  8
0
 62
     0
100
AcDbLine
 10
218.9298942129608
 20
-309.6000000000022
 30
0.0
 11
250.6999999999916
 21
-288.4199835591444
 31
0.0
  0
LINE
  5
25F4
330
2AE3
100
AcDbEntity
  8
0
 62
     0
100
AcDbLine
 10
-177.9711192834838
 20
-574.2000000000007
 30
0.0
 11
218.9298942129608
 21
-309.6000000000022
 31
0.0
  0
LINE
  5
25F5
330
2AE3
100
AcDbEntity
  8
0
 62
     0
100
AcDbLine
 10
214.4299329190744
 20
-309.600000000004
 30
0.0
 11
250.699999999988
 21
-285.4200170237291
 31
0.0
  0
LINE
  5
25F6
330
2AE3
100
AcDbEntity
  8
0
 62
     0
100
AcDbLine
 10
-182.471080577372
 20
-574.2000000000025
 30
0.0
 11
214.4299329190744
 21
-309.600000000004
 31
0.0
  0
LINE
  5
25F7
330
2AE3
100
AcDbEntity
  8
0
 62
     0
100
AcDbLine
 10
209.9299716251898
 20
-309.600000000004
 30
0.0
 11
250.6999999999898
 21
-282.4200504883137
 31
0.0
  0
LINE
  5
25F8
330
2AE3
100
AcDbEntity
  8
0
 62
     0
100
AcDbLine
 10
-186.9710418712584
 20
-574.2000000000042
 30
0.0
 11
209.9299716251898
 21
-309.600000000004
 31
0.0
  0
LINE
  5
25F9
330
2AE3
100
AcDbEntity
  8
0
 62
     0
100
AcDbLine
 10
205.4300103313035
 20
-309.600000000004
 30
0.0
 11
250.699999999988
 21
-279.4200839528985
 31
0.0
  0
LINE
  5
25FA
330
2AE3
100
AcDbEntity
  8
0
 62
     0
100
AcDbLine
 10
-191.4710031651411
 20
-574.2000000000007
 30
0.0
 11
205.4300103313035
 21
-309.600000000004
 31
0.0
  0
LINE
  5
25FB
330
2AE3
100
AcDbEntity
  8
0
 62
     0
100
AcDbLine
 10
200.9300490374188
 20
-309.6000000000022
 30
0.0
 11
250.6999999999916
 21
-276.4201174174796
 31
0.0
  0
LINE
  5
25FC
330
2AE3
100
AcDbEntity
  8
0
 62
     0
100
AcDbLine
 10
-195.9709644590257
 20
-574.2000000000007
 30
0.0
 11
200.9300490374188
 21
-309.6000000000022
 31
0.0
  0
LINE
  5
25FD
330
2AE3
100
AcDbEntity
  8
0
 62
     0
100
AcDbLine
 10
196.4300877435344
 20
-309.6000000000004
 30
0.0
 11
250.699999999988
 21
-273.4201508820643
 31
0.0
  0
LINE
  5
25FE
330
2AE3
100
AcDbEntity
  8
0
 62
     0
100
AcDbLine
 10
-200.4709257529121
 20
-574.2000000000007
 30
0.0
 11
196.4300877435344
 21
-309.6000000000004
 31
0.0
  0
LINE
  5
25FF
330
2AE3
100
AcDbEntity
  8
0
 62
     0
100
AcDbLine
 10
191.930126449648
 20
-309.6000000000022
 30
0.0
 11
250.6999999999898
 21
-270.4201843466472
 31
0.0
  0
LINE
  5
2600
330
2AE3
100
AcDbEntity
  8
0
 62
     0
100
AcDbLine
 10
-204.9708870468003
 20
-574.2000000000025
 30
0.0
 11
191.930126449648
 21
-309.6000000000022
 31
0.0
  0
LINE
  5
2601
330
2AE3
100
AcDbEntity
  8
0
 62
     0
100
AcDbLine
 10
187.4301651557653
 20
-309.6000000000022
 30
0.0
 11
250.699999999988
 21
-267.4202178112337
 31
0.0
  0
LINE
  5
2602
330
2AE3
100
AcDbEntity
  8
0
 62
     0
100
AcDbLine
 10
-209.470848340683
 20
-574.2000000000025
 30
0.0
 11
187.4301651557616
 21
-309.600000000004
 31
0.0
  0
LINE
  5
2603
330
2AE3
100
AcDbEntity
  8
0
 62
     0
100
AcDbLine
 10
182.9302038618753
 20
-309.600000000004
 30
0.0
 11
250.6999999999898
 21
-264.4202512758166
 31
0.0
  0
LINE
  5
2604
330
2AE3
100
AcDbEntity
  8
0
 62
     0
100
AcDbLine
 10
-213.9708096345694
 20
-574.2000000000007
 30
0.0
 11
182.9302038618753
 21
-309.600000000004
 31
0.0
  0
LINE
  5
2605
330
2AE3
100
AcDbEntity
  8
0
 62
     0
100
AcDbLine
 10
178.4302425679907
 20
-309.6000000000004
 30
0.0
 11
250.6999999999898
 21
-261.4202847403976
 31
0.0
  0
LINE
  5
2606
330
2AE3
100
AcDbEntity
  8
0
 62
     0
100
AcDbLine
 10
-218.4707709284558
 20
-574.2000000000007
 30
0.0
 11
178.4302425679907
 21
-309.6000000000004
 31
0.0
  0
LINE
  5
2607
330
2AE3
100
AcDbEntity
  8
0
 62
     0
100
AcDbLine
 10
173.9302812741061
 20
-309.6000000000022
 30
0.0
 11
250.6999999999898
 21
-258.4203182049841
 31
0.0
  0
LINE
  5
2608
330
2AE3
100
AcDbEntity
  8
0
 62
     0
100
AcDbLine
 10
-222.9707322223421
 20
-574.2000000000025
 30
0.0
 11
173.9302812741061
 21
-309.6000000000022
 31
0.0
  0
LINE
  5
2609
330
2AE3
100
AcDbEntity
  8
0
 62
     0
100
AcDbLine
 10
169.4303199802198
 20
-309.600000000004
 30
0.0
 11
250.6999999999916
 21
-255.420351669567
 31
0.0
  0
LINE
  5
260A
330
2AE3
100
AcDbEntity
  8
0
 62
     0
100
AcDbLine
 10
-227.4706935162249
 20
-574.2000000000025
 30
0.0
 11
169.4303199802198
 21
-309.600000000004
 31
0.0
  0
LINE
  5
260B
330
2AE3
100
AcDbEntity
  8
0
 62
     0
100
AcDbLine
 10
164.9303586863316
 20
-309.600000000004
 30
0.0
 11
250.699999999988
 21
-252.4203851341517
 31
0.0
  0
LINE
  5
260C
330
2AE3
100
AcDbEntity
  8
0
 62
     0
100
AcDbLine
 10
-231.970654810113
 20
-574.2000000000025
 30
0.0
 11
164.9303586863316
 21
-309.600000000004
 31
0.0
  0
LINE
  5
260D
330
2AE3
100
AcDbEntity
  8
0
 62
     0
100
AcDbLine
 10
160.4303973924488
 20
-309.6000000000022
 30
0.0
 11
250.6999999999898
 21
-249.4204185987328
 31
0.0
  0
LINE
  5
260E
330
2AE3
100
AcDbEntity
  8
0
 62
     0
100
AcDbLine
 10
-236.4706161039976
 20
-574.2000000000025
 30
0.0
 11
160.4303973924488
 21
-309.6000000000022
 31
0.0
  0
LINE
  5
260F
330
2AE3
100
AcDbEntity
  8
0
 62
     0
100
AcDbLine
 10
155.9304360985643
 20
-309.6000000000022
 30
0.0
 11
250.699999999988
 21
-246.4204520633193
 31
0.0
  0
LINE
  5
2610
330
2AE3
100
AcDbEntity
  8
0
 62
     0
100
AcDbLine
 10
-240.970577397884
 20
-574.2000000000025
 30
0.0
 11
155.9304360985643
 21
-309.6000000000022
 31
0.0
  0
LINE
  5
2611
330
2AE3
100
AcDbEntity
  8
0
 62
     0
100
AcDbLine
 10
151.4304748046779
 20
-309.600000000004
 30
0.0
 11
250.6999999999898
 21
-243.420485527904
 31
0.0
  0
LINE
  5
2612
330
2AE3
100
AcDbEntity
  8
0
 62
     0
100
AcDbLine
 10
-245.4705386917685
 20
-574.2000000000025
 30
0.0
 11
151.4304748046779
 21
-309.600000000004
 31
0.0
  0
LINE
  5
2613
330
2AE3
100
AcDbEntity
  8
0
 62
     0
100
AcDbLine
 10
146.9305135107897
 20
-309.600000000004
 30
0.0
 11
250.6999999999898
 21
-240.4205189924851
 31
0.0
  0
LINE
  5
2614
330
2AE3
100
AcDbEntity
  8
0
 62
     0
100
AcDbLine
 10
-249.9704999856549
 20
-574.2000000000025
 30
0.0
 11
146.9305135107897
 21
-309.600000000004
 31
0.0
  0
LINE
  5
2615
330
2AE3
100
AcDbEntity
  8
0
 62
     0
100
AcDbLine
 10
142.430552216907
 20
-309.6000000000022
 30
0.0
 11
250.6999999999898
 21
-237.4205524570697
 31
0.0
  0
LINE
  5
2616
330
2AE3
100
AcDbEntity
  8
0
 62
     0
100
AcDbLine
 10
-250.7000000000044
 20
-571.6863655656216
 30
0.0
 11
142.430552216907
 21
-309.6000000000022
 31
0.0
  0
LINE
  5
2617
330
2AE3
100
AcDbEntity
  8
0
 62
     0
100
AcDbLine
 10
137.9305909230206
 20
-309.6000000000022
 30
0.0
 11
250.6999999999898
 21
-234.4205859216509
 31
0.0
  0
LINE
  5
2618
330
2AE3
100
AcDbEntity
  8
0
 62
     0
100
AcDbLine
 10
-250.7000000000062
 20
-568.6863990302062
 30
0.0
 11
137.9305909230206
 21
-309.6000000000022
 31
0.0
  0
LINE
  5
2619
330
2AE3
100
AcDbEntity
  8
0
 62
     0
100
AcDbLine
 10
133.4306296291343
 20
-309.6000000000022
 30
0.0
 11
250.699999999988
 21
-231.4206193862374
 31
0.0
  0
LINE
  5
261A
330
2AE3
100
AcDbEntity
  8
0
 62
     0
100
AcDbLine
 10
-250.7000000000062
 20
-565.6864324947893
 30
0.0
 11
133.4306296291343
 21
-309.6000000000022
 31
0.0
  0
LINE
  5
261B
330
2AE3
100
AcDbEntity
  8
0
 62
     0
100
AcDbLine
 10
128.9306683352515
 20
-309.6000000000022
 30
0.0
 11
250.6999999999898
 21
-228.4206528508221
 31
0.0
  0
LINE
  5
261C
330
2AE3
100
AcDbEntity
  8
0
 62
     0
100
AcDbLine
 10
-250.7000000000044
 20
-562.6864659593738
 30
0.0
 11
128.9306683352515
 21
-309.6000000000022
 31
0.0
  0
LINE
  5
261D
330
2AE3
100
AcDbEntity
  8
0
 62
     0
100
AcDbLine
 10
124.4307070413651
 20
-309.6000000000022
 30
0.0
 11
250.6999999999898
 21
-225.4206863154049
 31
0.0
  0
LINE
  5
261E
330
2AE3
100
AcDbEntity
  8
0
 62
     0
100
AcDbLine
 10
-250.7000000000044
 20
-559.6864994239568
 30
0.0
 11
124.4307070413633
 21
-309.600000000004
 31
0.0
  0
LINE
  5
261F
330
2AE3
100
AcDbEntity
  8
0
 62
     0
100
AcDbLine
 10
119.9307457474788
 20
-309.6000000000022
 30
0.0
 11
250.6999999999898
 21
-222.4207197799878
 31
0.0
  0
LINE
  5
2620
330
2AE3
100
AcDbEntity
  8
0
 62
     0
100
AcDbLine
 10
-250.7000000000044
 20
-556.6865328885397
 30
0.0
 11
119.9307457474788
 21
-309.6000000000022
 31
0.0
  0
LINE
  5
2621
330
2AE3
100
AcDbEntity
  8
0
 62
     0
100
AcDbLine
 10
115.4307844535924
 20
-309.600000000004
 30
0.0
 11
250.6999999999898
 21
-219.4207532445707
 31
0.0
  0
LINE
  5
2622
330
2AE3
100
AcDbEntity
  8
0
 62
     0
100
AcDbLine
 10
-250.7000000000062
 20
-553.6865663531259
 30
0.0
 11
115.4307844535924
 21
-309.600000000004
 31
0.0
  0
LINE
  5
2623
330
2AE3
100
AcDbEntity
  8
0
 62
     0
100
AcDbLine
 10
110.9308231597097
 20
-309.6000000000022
 30
0.0
 11
250.6999999999898
 21
-216.4207867091572
 31
0.0
  0
LINE
  5
2624
330
2AE3
100
AcDbEntity
  8
0
 62
     0
100
AcDbLine
 10
-250.7000000000044
 20
-550.6865998177089
 30
0.0
 11
110.9308231597097
 21
-309.6000000000022
 31
0.0
  0
LINE
  5
2625
330
2AE3
100
AcDbEntity
  8
0
 62
     0
100
AcDbLine
 10
106.4308618658215
 20
-309.6000000000022
 30
0.0
 11
250.6999999999898
 21
-213.4208201737401
 31
0.0
  0
LINE
  5
2626
330
2AE3
100
AcDbEntity
  8
0
 62
     0
100
AcDbLine
 10
-250.7000000000062
 20
-547.6866332822936
 30
0.0
 11
106.4308618658196
 21
-309.600000000004
 31
0.0
  0
LINE
  5
2627
330
2AE3
100
AcDbEntity
  8
0
 62
     0
100
AcDbLine
 10
101.9309005719351
 20
-309.6000000000022
 30
0.0
 11
250.6999999999916
 21
-210.4208536383212
 31
0.0
  0
LINE
  5
2628
330
2AE3
100
AcDbEntity
  8
0
 62
     0
100
AcDbLine
 10
-250.7000000000062
 20
-544.6866667468748
 30
0.0
 11
101.9309005719351
 21
-309.6000000000022
 31
0.0
  0
LINE
  5
2629
330
2AE3
100
AcDbEntity
  8
0
 62
     0
100
AcDbLine
 10
97.43093927805055
 20
-309.600000000004
 30
0.0
 11
250.6999999999933
 21
-207.4208871029059
 31
0.0
  0
LINE
  5
262A
330
2AE3
100
AcDbEntity
  8
0
 62
     0
100
AcDbLine
 10
-250.7000000000062
 20
-541.6867002114612
 30
0.0
 11
97.43093927805055
 21
-309.600000000004
 31
0.0
  0
LINE
  5
262B
330
2AE3
100
AcDbEntity
  8
0
 62
     0
100
AcDbLine
 10
92.93097798416786
 20
-309.600000000004
 30
0.0
 11
250.6999999999933
 21
-204.4209205674906
 31
0.0
  0
LINE
  5
262C
330
2AE3
100
AcDbEntity
  8
0
 62
     0
100
AcDbLine
 10
-250.7000000000044
 20
-538.6867336760459
 30
0.0
 11
92.9309779841642
 21
-309.6000000000058
 31
0.0
  0
LINE
  5
262D
330
2AE3
100
AcDbEntity
  8
0
 62
     0
100
AcDbLine
 10
88.43101669027962
 20
-309.6000000000022
 30
0.0
 11
250.6999999999916
 21
-201.4209540320735
 31
0.0
  0
LINE
  5
262E
330
2AE3
100
AcDbEntity
  8
0
 62
     0
100
AcDbLine
 10
-250.700000000008
 20
-535.6867671406289
 30
0.0
 11
88.43101669027962
 21
-309.6000000000022
 31
0.0
  0
LINE
  5
262F
330
2AE3
100
AcDbEntity
  8
0
 62
     0
100
AcDbLine
 10
83.93105539639327
 20
-309.6000000000022
 30
0.0
 11
250.6999999999916
 21
-198.4209874966581
 31
0.0
  0
LINE
  5
2630
330
2AE3
100
AcDbEntity
  8
0
 62
     0
100
AcDbLine
 10
-250.7000000000062
 20
-532.6868006052118
 30
0.0
 11
83.93105539639327
 21
-309.6000000000022
 31
0.0
  0
LINE
  5
2631
330
2AE3
100
AcDbEntity
  8
0
 62
     0
100
AcDbLine
 10
79.43109410251054
 20
-309.6000000000004
 30
0.0
 11
250.6999999999933
 21
-195.4210209612393
 31
0.0
  0
LINE
  5
2632
330
2AE3
100
AcDbEntity
  8
0
 62
     0
100
AcDbLine
 10
-250.7000000000025
 20
-529.6868340697929
 30
0.0
 11
79.43109410251054
 21
-309.6000000000004
 31
0.0
  0
LINE
  5
2633
330
2AE3
100
AcDbEntity
  8
0
 62
     0
100
AcDbLine
 10
74.93113280862417
 20
-309.6000000000022
 30
0.0
 11
250.6999999999933
 21
-192.4210544258239
 31
0.0
  0
LINE
  5
2634
330
2AE3
100
AcDbEntity
  8
0
 62
     0
100
AcDbLine
 10
-250.7000000000062
 20
-526.6868675343792
 30
0.0
 11
74.93113280862053
 21
-309.600000000004
 31
0.0
  0
LINE
  5
2635
330
2AE3
100
AcDbEntity
  8
0
 62
     0
100
AcDbLine
 10
70.43117151473778
 20
-309.600000000004
 30
0.0
 11
250.6999999999916
 21
-189.4210878904085
 31
0.0
  0
LINE
  5
2636
330
2AE3
100
AcDbEntity
  8
0
 62
     0
100
AcDbLine
 10
-250.7000000000044
 20
-523.6869009989641
 30
0.0
 11
70.43117151473778
 21
-309.600000000004
 31
0.0
  0
LINE
  5
2637
330
2AE3
100
AcDbEntity
  8
0
 62
     0
100
AcDbLine
 10
65.93121022085142
 20
-309.6000000000022
 30
0.0
 11
250.6999999999933
 21
-186.4211213549915
 31
0.0
  0
LINE
  5
2638
330
2AE3
100
AcDbEntity
  8
0
 62
     0
100
AcDbLine
 10
-250.7000000000062
 20
-520.686934463547
 30
0.0
 11
65.93121022085142
 21
-309.6000000000022
 31
0.0
  0
LINE
  5
2639
330
2AE3
100
AcDbEntity
  8
0
 62
     0
100
AcDbLine
 10
61.43124892696686
 20
-309.6000000000004
 30
0.0
 11
250.6999999999916
 21
-183.4211548195744
 31
0.0
  0
LINE
  5
263A
330
2AE3
100
AcDbEntity
  8
0
 62
     0
100
AcDbLine
 10
-250.7000000000044
 20
-517.6869679281296
 30
0.0
 11
61.43124892696505
 21
-309.6000000000022
 31
0.0
  0
LINE
  5
263B
330
2AE3
100
AcDbEntity
  8
0
 62
     0
100
AcDbLine
 10
56.9312876330805
 20
-309.6000000000022
 30
0.0
 11
250.6999999999916
 21
-180.4211882841591
 31
0.0
  0
LINE
  5
263C
330
2AE3
100
AcDbEntity
  8
0
 62
     0
100
AcDbLine
 10
-250.700000000008
 20
-514.6870013927146
 30
0.0
 11
56.93128763307687
 21
-309.600000000004
 31
0.0
  0
LINE
  5
263D
330
2AE3
100
AcDbEntity
  8
0
 62
     0
100
AcDbLine
 10
52.43132633919594
 20
-309.600000000004
 30
0.0
 11
250.6999999999916
 21
-177.4212217487456
 31
0.0
  0
LINE
  5
263E
330
2AE3
100
AcDbEntity
  8
0
 62
     0
100
AcDbLine
 10
-250.7000000000044
 20
-511.6870348572994
 30
0.0
 11
52.43132633919594
 21
-309.600000000004
 31
0.0
  0
LINE
  5
263F
330
2AE3
100
AcDbEntity
  8
0
 62
     0
100
AcDbLine
 10
47.93136504530957
 20
-309.600000000004
 30
0.0
 11
250.6999999999933
 21
-174.4212552133267
 31
0.0
  0
LINE
  5
2640
330
2AE3
100
AcDbEntity
  8
0
 62
     0
100
AcDbLine
 10
-250.7000000000025
 20
-508.6870683218803
 30
0.0
 11
47.93136504530957
 21
-309.600000000004
 31
0.0
  0
LINE
  5
2641
330
2AE3
100
AcDbEntity
  8
0
 62
     0
100
AcDbLine
 10
43.43140375142502
 20
-309.6000000000004
 30
0.0
 11
250.6999999999953
 21
-171.4212886779096
 31
0.0
  0
LINE
  5
2642
330
2AE3
100
AcDbEntity
  8
0
 62
     0
100
AcDbLine
 10
-250.7000000000044
 20
-505.6871017864648
 30
0.0
 11
43.4314037514232
 21
-309.6000000000022
 31
0.0
  0
LINE
  5
2643
330
2AE3
100
AcDbEntity
  8
0
 62
     0
100
AcDbLine
 10
38.93144245753865
 20
-309.6000000000022
 30
0.0
 11
250.6999999999916
 21
-168.4213221424943
 31
0.0
  0
LINE
  5
2644
330
2AE3
100
AcDbEntity
  8
0
 62
     0
100
AcDbLine
 10
-250.7000000000044
 20
-502.6871352510496
 30
0.0
 11
38.93144245753502
 21
-309.600000000004
 31
0.0
  0
LINE
  5
2645
330
2AE3
100
AcDbEntity
  8
0
 62
     0
100
AcDbLine
 10
34.89999999999236
 20
-309.2876549066951
 30
0.0
 11
250.6999999999953
 21
-165.421355607079
 31
0.0
  0
LINE
  5
2646
330
2AE3
100
AcDbEntity
  8
0
 62
     0
100
AcDbLine
 10
-250.7000000000044
 20
-499.6871687156343
 30
0.0
 11
34.89999999999236
 21
-309.2876549066951
 31
0.0
  0
LINE
  5
2647
330
2AE3
100
AcDbEntity
  8
0
 62
     0
100
AcDbLine
 10
34.89999999999236
 20
-306.287688371276
 30
0.0
 11
250.6999999999916
 21
-162.4213890716637
 31
0.0
  0
LINE
  5
2648
330
2AE3
100
AcDbEntity
  8
0
 62
     0
100
AcDbLine
 10
-250.7000000000044
 20
-496.6872021802172
 30
0.0
 11
34.89999999998872
 21
-306.2876883712779
 31
0.0
  0
LINE
  5
2649
330
2AE3
100
AcDbEntity
  8
0
 62
     0
100
AcDbLine
 10
34.89999999999236
 20
-303.287721835859
 30
0.0
 11
250.6999999999933
 21
-159.4214225362448
 31
0.0
  0
LINE
  5
264A
330
2AE3
100
AcDbEntity
  8
0
 62
     0
100
AcDbLine
 10
-250.7000000000062
 20
-493.6872356448017
 30
0.0
 11
34.89999999999054
 21
-303.2877218358609
 31
0.0
  0
LINE
  5
264B
330
2AE3
100
AcDbEntity
  8
0
 62
     0
100
AcDbLine
 10
34.89999999999236
 20
-300.2877553004437
 30
0.0
 11
250.6999999999916
 21
-156.4214560008294
 31
0.0
  0
LINE
  5
264C
330
2AE3
100
AcDbEntity
  8
0
 62
     0
100
AcDbLine
 10
-250.7000000000044
 20
-490.687269109383
 30
0.0
 11
34.89999999998872
 21
-300.2877553004455
 31
0.0
  0
LINE
  5
264D
330
2AE3
100
AcDbEntity
  8
0
 62
     0
100
AcDbLine
 10
34.89999999999418
 20
-297.2877887650266
 30
0.0
 11
250.6999999999953
 21
-153.4214894654124
 31
0.0
  0
LINE
  5
264E
330
2AE3
100
AcDbEntity
  8
0
 62
     0
100
AcDbLine
 10
-250.7000000000062
 20
-487.6873025739696
 30
0.0
 11
34.89999999999236
 21
-297.2877887650284
 31
0.0
  0
LINE
  5
264F
330
2AE3
100
AcDbEntity
  8
0
 62
     0
100
AcDbLine
 10
34.89999999999236
 20
-294.2878222296131
 30
0.0
 11
250.6999999999916
 21
-150.4215229299989
 31
0.0
  0
LINE
  5
2650
330
2AE3
100
AcDbEntity
  8
0
 62
     0
100
AcDbLine
 10
-250.7000000000044
 20
-484.6873360385524
 30
0.0
 11
34.89999999998872
 21
-294.2878222296148
 31
0.0
  0
LINE
  5
2651
330
2AE3
100
AcDbEntity
  8
0
 62
     0
100
AcDbLine
 10
34.89999999999236
 20
-291.2878556941942
 30
0.0
 11
250.6999999999933
 21
-147.4215563945818
 31
0.0
  0
LINE
  5
2652
330
2AE3
100
AcDbEntity
  8
0
 62
     0
100
AcDbLine
 10
-250.700000000008
 20
-481.6873695031372
 30
0.0
 11
34.89999999999054
 21
-291.287855694196
 31
0.0
  0
LINE
  5
2653
330
2AE3
100
AcDbEntity
  8
0
 62
     0
100
AcDbLine
 10
34.89999999999236
 20
-288.2878891587789
 30
0.0
 11
250.6999999999953
 21
-144.4215898591628
 31
0.0
  0
LINE
  5
2654
330
2AE3
100
AcDbEntity
  8
0
 62
     0
100
AcDbLine
 10
-250.7000000000044
 20
-478.6874029677183
 30
0.0
 11
34.89999999999236
 21
-288.2878891587789
 31
0.0
  0
LINE
  5
2655
330
2AE3
100
AcDbEntity
  8
0
 62
     0
100
AcDbLine
 10
34.89999999999236
 20
-285.2879226233635
 30
0.0
 11
250.6999999999933
 21
-141.4216233237493
 31
0.0
  0
LINE
  5
2656
330
2AE3
100
AcDbEntity
  8
0
 62
     0
100
AcDbLine
 10
-250.7000000000044
 20
-475.687436432303
 30
0.0
 11
34.89999999999054
 21
-285.2879226233654
 31
0.0
  0
LINE
  5
2657
330
2AE3
100
AcDbEntity
  8
0
 62
     0
100
AcDbLine
 10
34.89999999999054
 20
-282.2879560879483
 30
0.0
 11
250.6999999999933
 21
-138.4216567883322
 31
0.0
  0
LINE
  5
2658
330
2AE3
100
AcDbEntity
  8
0
 62
     0
100
AcDbLine
 10
-250.7000000000062
 20
-472.6874698968893
 30
0.0
 11
34.89999999999054
 21
-282.2879560879483
 31
0.0
  0
LINE
  5
2659
330
2AE3
100
AcDbEntity
  8
0
 62
     0
100
AcDbLine
 10
34.89999999999236
 20
-279.2879895525311
 30
0.0
 11
250.6999999999933
 21
-135.4216902529169
 31
0.0
  0
LINE
  5
265A
330
2AE3
100
AcDbEntity
  8
0
 62
     0
100
AcDbLine
 10
-250.7000000000044
 20
-469.6875033614706
 30
0.0
 11
34.89999999999054
 21
-279.287989552533
 31
0.0
  0
LINE
  5
265B
330
2AE3
100
AcDbEntity
  8
0
 62
     0
100
AcDbLine
 10
34.899999999996
 20
-276.2880230171122
 30
0.0
 11
250.6999999999953
 21
-132.4217237174998
 31
0.0
  0
LINE
  5
265C
330
2AE3
100
AcDbEntity
  8
0
 62
     0
100
AcDbLine
 10
-250.7000000000044
 20
-466.6875368260552
 30
0.0
 11
34.89999999999236
 21
-276.288023017114
 31
0.0
  0
LINE
  5
265D
330
2AE3
100
AcDbEntity
  8
0
 62
     0
100
AcDbLine
 10
34.89999999999054
 20
-273.2880564816987
 30
0.0
 11
250.6999999999898
 21
-129.4217571820845
 31
0.0
  0
LINE
  5
265E
330
2AE3
100
AcDbEntity
  8
0
 62
     0
100
AcDbLine
 10
-250.7000000000062
 20
-463.6875702906378
 30
0.0
 11
34.89999999998872
 21
-273.2880564817005
 31
0.0
  0
LINE
  5
265F
330
2AE3
100
AcDbEntity
  8
0
 62
     0
100
AcDbLine
 10
34.89999999999418
 20
-270.2880899462816
 30
0.0
 11
250.6999999999933
 21
-126.4217906466692
 31
0.0
  0
LINE
  5
2660
330
2AE3
100
AcDbEntity
  8
0
 62
     0
100
AcDbLine
 10
-250.7000000000062
 20
-460.6876037552247
 30
0.0
 11
34.89999999999054
 21
-270.2880899462853
 31
0.0
  0
LINE
  5
2661
330
2AE3
100
AcDbEntity
  8
0
 62
     0
100
AcDbLine
 10
34.89999999999236
 20
-267.2881234108663
 30
0.0
 11
250.6999999999916
 21
-123.4218241112521
 31
0.0
  0
LINE
  5
2662
330
2AE3
100
AcDbEntity
  8
0
 62
     0
100
AcDbLine
 10
-250.7000000000044
 20
-457.6876372198076
 30
0.0
 11
34.89999999999054
 21
-267.2881234108682
 31
0.0
  0
LINE
  5
2663
330
2AE3
100
AcDbEntity
  8
0
 62
     0
100
AcDbLine
 10
34.89999999999418
 20
-264.2881568754492
 30
0.0
 11
250.6999999999933
 21
-120.421857575835
 31
0.0
  0
LINE
  5
2664
330
2AE3
100
AcDbEntity
  8
0
 62
     0
100
AcDbLine
 10
-250.7000000000044
 20
-454.6876706843884
 30
0.0
 11
34.89999999999054
 21
-264.288156875451
 31
0.0
  0
LINE
  5
2665
330
2AE3
100
AcDbEntity
  8
0
 62
     0
100
AcDbLine
 10
34.89999999999054
 20
-261.2881903400321
 30
0.0
 11
250.6999999999933
 21
-117.4218910404161
 31
0.0
  0
LINE
  5
2666
330
2AE3
100
AcDbEntity
  8
0
 62
     0
100
AcDbLine
 10
-250.7000000000062
 20
-451.6877041489733
 30
0.0
 11
34.89999999999054
 21
-261.2881903400321
 31
0.0
  0
LINE
  5
2667
330
2AE3
100
AcDbEntity
  8
0
 62
     0
100
AcDbLine
 10
34.89999999999418
 20
-258.2882238046168
 30
0.0
 11
248.6328814790577
 21
-115.8000000000011
 31
0.0
  0
LINE
  5
2668
330
2AE3
100
AcDbEntity
  8
0
 62
     0
100
AcDbLine
 10
-250.7000000000044
 20
-448.6877376135562
 30
0.0
 11
34.89999999999054
 21
-258.2882238046186
 31
0.0
  0
LINE
  5
2669
330
2AE3
100
AcDbEntity
  8
0
 62
     0
100
AcDbLine
 10
34.89999999999054
 20
-255.2882572692033
 30
0.0
 11
244.1329201851731
 21
-115.8000000000011
 31
0.0
  0
LINE
  5
266A
330
2AE3
100
AcDbEntity
  8
0
 62
     0
100
AcDbLine
 10
-250.7000000000062
 20
-445.6877710781427
 30
0.0
 11
34.89999999999054
 21
-255.2882572692033
 31
0.0
  0
LINE
  5
266B
330
2AE3
100
AcDbEntity
  8
0
 62
     0
100
AcDbLine
 10
34.89999999999236
 20
-252.2882907337844
 30
0.0
 11
239.6329588912831
 21
-115.8000000000029
 31
0.0
  0
LINE
  5
266C
330
2AE3
100
AcDbEntity
  8
0
 62
     0
100
AcDbLine
 10
-250.7000000000062
 20
-442.6878045427256
 30
0.0
 11
34.89999999998872
 21
-252.2882907337862
 31
0.0
  0
LINE
  5
266D
330
2AE3
100
AcDbEntity
  8
0
 62
     0
100
AcDbLine
 10
34.89999999999418
 20
-249.2883241983673
 30
0.0
 11
235.1329975974004
 21
-115.8000000000011
 31
0.0
  0
LINE
  5
266E
330
2AE3
100
AcDbEntity
  8
0
 62
     0
100
AcDbLine
 10
-250.7000000000062
 20
-439.6878380073085
 30
0.0
 11
34.89999999999054
 21
-249.2883241983691
 31
0.0
  0
LINE
  5
266F
330
2AE3
100
AcDbEntity
  8
0
 62
     0
100
AcDbLine
 10
34.89999999999418
 20
-246.288357662952
 30
0.0
 11
230.6330363035158
 21
-115.8000000000011
 31
0.0
  0
LINE
  5
2670
330
2AE3
100
AcDbEntity
  8
0
 62
     0
100
AcDbLine
 10
-250.7000000000044
 20
-436.6878714718931
 30
0.0
 11
34.89999999999054
 21
-246.2883576629538
 31
0.0
  0
LINE
  5
2671
330
2AE3
100
AcDbEntity
  8
0
 62
     0
100
AcDbLine
 10
34.89999999999418
 20
-243.2883911275367
 30
0.0
 11
226.1330750096313
 21
-115.8000000000011
 31
0.0
  0
LINE
  5
2672
330
2AE3
100
AcDbEntity
  8
0
 62
     0
100
AcDbLine
 10
-250.7000000000062
 20
-433.6879049364776
 30
0.0
 11
34.89999999999054
 21
-243.2883911275385
 31
0.0
  0
LINE
  5
2673
330
2AE3
100
AcDbEntity
  8
0
 62
     0
100
AcDbLine
 10
34.89999999999236
 20
-240.2884245921196
 30
0.0
 11
221.6331137157413
 21
-115.8000000000029
 31
0.0
  0
LINE
  5
2674
330
2AE3
100
AcDbEntity
  8
0
 62
     0
100
AcDbLine
 10
-250.7000000000062
 20
-430.6879384010608
 30
0.0
 11
34.89999999998872
 21
-240.2884245921232
 31
0.0
  0
LINE
  5
2675
330
2AE3
100
AcDbEntity
  8
0
 62
     0
100
AcDbLine
 10
34.89999999999418
 20
-237.2884580567024
 30
0.0
 11
217.1331524218585
 21
-115.8000000000011
 31
0.0
  0
LINE
  5
2676
330
2AE3
100
AcDbEntity
  8
0
 62
     0
100
AcDbLine
 10
-250.7000000000062
 20
-427.6879718656455
 30
0.0
 11
34.89999999999054
 21
-237.2884580567042
 31
0.0
  0
LINE
  5
2677
330
2AE3
100
AcDbEntity
  8
0
 62
     0
100
AcDbLine
 10
34.89999999999236
 20
-234.288491521289
 30
0.0
 11
212.6331911279722
 21
-115.8000000000029
 31
0.0
  0
LINE
  5
2678
330
2AE3
100
AcDbEntity
  8
0
 62
     0
100
AcDbLine
 10
-250.7000000000062
 20
-424.6880053302281
 30
0.0
 11
34.89999999999236
 21
-234.288491521289
 31
0.0
  0
LINE
  5
2679
330
2AE3
100
AcDbEntity
  8
0
 62
     0
100
AcDbLine
 10
34.89999999999236
 20
-231.2885249858719
 30
0.0
 11
208.133229834084
 21
-115.8000000000047
 31
0.0
  0
LINE
  5
267A
330
2AE3
100
AcDbEntity
  8
0
 62
     0
100
AcDbLine
 10
-250.7000000000044
 20
-421.6880387948132
 30
0.0
 11
34.89999999998872
 21
-231.2885249858737
 31
0.0
  0
LINE
  5
267B
330
2AE3
100
AcDbEntity
  8
0
 62
     0
100
AcDbLine
 10
34.89999999999054
 20
-228.2885584504565
 30
0.0
 11
203.6332685401994
 21
-115.8000000000029
 31
0.0
  0
LINE
  5
267C
330
2AE3
100
AcDbEntity
  8
0
 62
     0
100
AcDbLine
 10
-250.7000000000062
 20
-418.688072259396
 30
0.0
 11
34.89999999999054
 21
-228.2885584504565
 31
0.0
  0
LINE
  5
267D
330
2AE3
100
AcDbEntity
  8
0
 62
     0
100
AcDbLine
 10
34.89999999999418
 20
-225.2885919150376
 30
0.0
 11
199.1333072463167
 21
-115.8000000000011
 31
0.0
  0
LINE
  5
267E
330
2AE3
100
AcDbEntity
  8
0
 62
     0
100
AcDbLine
 10
-250.7000000000025
 20
-415.6881057239789
 30
0.0
 11
34.89999999999054
 21
-225.2885919150413
 31
0.0
  0
LINE
  5
267F
330
2AE3
100
AcDbEntity
  8
0
 62
     0
100
AcDbLine
 10
34.89999999998872
 20
-222.2886253796223
 30
0.0
 11
194.6333459524285
 21
-115.8000000000011
 31
0.0
  0
LINE
  5
2680
330
2AE3
100
AcDbEntity
  8
0
 62
     0
100
AcDbLine
 10
-250.700000000008
 20
-412.6881391885635
 30
0.0
 11
34.89999999998872
 21
-222.2886253796223
 31
0.0
  0
LINE
  5
2681
330
2AE3
100
AcDbEntity
  8
0
 62
     0
100
AcDbLine
 10
34.89999999999236
 20
-219.288658844207
 30
0.0
 11
190.1333846585439
 21
-115.8000000000029
 31
0.0
  0
LINE
  5
2682
330
2AE3
100
AcDbEntity
  8
0
 62
     0
100
AcDbLine
 10
-250.7000000000044
 20
-409.6881726531463
 30
0.0
 11
34.89999999998872
 21
-219.2886588442088
 31
0.0
  0
LINE
  5
2683
330
2AE3
100
AcDbEntity
  8
0
 62
     0
100
AcDbLine
 10
34.89999999999418
 20
-216.2886923087899
 30
0.0
 11
185.6334233646611
 21
-115.8000000000011
 31
0.0
  0
LINE
  5
2684
330
2AE3
100
AcDbEntity
  8
0
 62
     0
100
AcDbLine
 10
-250.7000000000062
 20
-406.6882061177328
 30
0.0
 11
34.89999999999054
 21
-216.2886923087917
 31
0.0
  0
LINE
  5
2685
330
2AE3
100
AcDbEntity
  8
0
 62
     0
100
AcDbLine
 10
34.89999999999236
 20
-213.2887257733746
 30
0.0
 11
181.1334620707728
 21
-115.8000000000011
 31
0.0
  0
LINE
  5
2686
330
2AE3
100
AcDbEntity
  8
0
 62
     0
100
AcDbLine
 10
-250.7000000000044
 20
-403.6882395823138
 30
0.0
 11
34.89999999998872
 21
-213.2887257733764
 31
0.0
  0
LINE
  5
2687
330
2AE3
100
AcDbEntity
  8
0
 62
     0
100
AcDbLine
 10
34.89999999998872
 20
-210.2887592379593
 30
0.0
 11
176.6335007768866
 21
-115.8000000000011
 31
0.0
  0
LINE
  5
2688
330
2AE3
100
AcDbEntity
  8
0
 62
     0
100
AcDbLine
 10
-250.7000000000044
 20
-400.6882730468968
 30
0.0
 11
34.89999999998872
 21
-210.2887592379593
 31
0.0
  0
LINE
  5
2689
330
2AE3
100
AcDbEntity
  8
0
 62
     0
100
AcDbLine
 10
34.89999999999236
 20
-207.2887927025422
 30
0.0
 11
172.1335394830021
 21
-115.8000000000029
 31
0.0
  0
LINE
  5
268A
330
2AE3
100
AcDbEntity
  8
0
 62
     0
100
AcDbLine
 10
-250.7000000000044
 20
-397.6883065114835
 30
0.0
 11
34.89999999999236
 21
-207.2887927025422
 31
0.0
  0
LINE
  5
268B
330
2AE3
100
AcDbEntity
  8
0
 62
     0
100
AcDbLine
 10
34.89999999998872
 20
-204.2888261671287
 30
0.0
 11
167.6335781891174
 21
-115.8000000000029
 31
0.0
  0
LINE
  5
268C
330
2AE3
100
AcDbEntity
  8
0
 62
     0
100
AcDbLine
 10
-250.7000000000044
 20
-394.6883399760663
 30
0.0
 11
34.89999999998872
 21
-204.2888261671287
 31
0.0
  0
LINE
  5
268D
330
2AE3
100
AcDbEntity
  8
0
 62
     0
100
AcDbLine
 10
34.89999999999054
 20
-201.2888596317098
 30
0.0
 11
163.1336168952293
 21
-115.8000000000029
 31
0.0
  0
LINE
  5
268E
330
2AE3
100
AcDbEntity
  8
0
 62
     0
100
AcDbLine
 10
-250.7000000000062
 20
-391.6883734406511
 30
0.0
 11
34.89999999999054
 21
-201.2888596317098
 31
0.0
  0
LINE
  5
268F
330
2AE3
100
AcDbEntity
  8
0
 62
     0
100
AcDbLine
 10
34.89999999998872
 20
-198.2888930962945
 30
0.0
 11
158.6336556013448
 21
-115.8000000000011
 31
0.0
  0
LINE
  5
2690
330
2AE3
100
AcDbEntity
  8
0
 62
     0
100
AcDbLine
 10
-250.7000000000044
 20
-388.6884069052321
 30
0.0
 11
34.89999999998872
 21
-198.2888930962945
 31
0.0
  0
LINE
  5
2691
330
2AE3
100
AcDbEntity
  8
0
 62
     0
100
AcDbLine
 10
34.89999999999236
 20
-195.2889265608772
 30
0.0
 11
154.1336943074602
 21
-115.8000000000029
 31
0.0
  0
LINE
  5
2692
330
2AE3
100
AcDbEntity
  8
0
 62
     0
100
AcDbLine
 10
-250.7000000000044
 20
-385.6884403698186
 30
0.0
 11
34.89999999999236
 21
-195.2889265608772
 31
0.0
  0
LINE
  5
2693
330
2AE3
100
AcDbEntity
  8
0
 62
     0
100
AcDbLine
 10
34.89999999999236
 20
-192.288960025462
 30
0.0
 11
149.6337330135757
 21
-115.8000000000029
 31
0.0
  0
LINE
  5
2694
330
2AE3
100
AcDbEntity
  8
0
 62
     0
100
AcDbLine
 10
-250.7000000000044
 20
-382.6884738344014
 30
0.0
 11
34.89999999998872
 21
-192.2889600254638
 31
0.0
  0
LINE
  5
2695
330
2AE3
100
AcDbEntity
  8
0
 62
     0
100
AcDbLine
 10
34.89999999999054
 20
-189.2889934900468
 30
0.0
 11
145.1337717196875
 21
-115.8000000000029
 31
0.0
  0
LINE
  5
2696
330
2AE3
100
AcDbEntity
  8
0
 62
     0
100
AcDbLine
 10
-250.7000000000062
 20
-379.6885072989863
 30
0.0
 11
34.89999999999054
 21
-189.2889934900468
 31
0.0
  0
LINE
  5
2697
330
2AE3
100
AcDbEntity
  8
0
 62
     0
100
AcDbLine
 10
34.89999999999236
 20
-186.2890269546277
 30
0.0
 11
140.6338104258029
 21
-115.8000000000029
 31
0.0
  0
LINE
  5
2698
330
2AE3
100
AcDbEntity
  8
0
 62
     0
100
AcDbLine
 10
-250.7000000000044
 20
-376.6885407635691
 30
0.0
 11
34.89999999998872
 21
-186.2890269546296
 31
0.0
  0
LINE
  5
2699
330
2AE3
100
AcDbEntity
  8
0
 62
     0
100
AcDbLine
 10
34.89999999999054
 20
-183.2890604192124
 30
0.0
 11
136.1338491319184
 21
-115.7999999999993
 31
0.0
  0
LINE
  5
269A
330
2AE3
100
AcDbEntity
  8
0
 62
     0
100
AcDbLine
 10
-250.7000000000062
 20
-373.688574228152
 30
0.0
 11
34.89999999999054
 21
-183.2890604192124
 31
0.0
  0
LINE
  5
269B
330
2AE3
100
AcDbEntity
  8
0
 62
     0
100
AcDbLine
 10
34.89999999999054
 20
-180.2890938837954
 30
0.0
 11
131.633887838032
 21
-115.8000000000011
 31
0.0
  0
LINE
  5
269C
330
2AE3
100
AcDbEntity
  8
0
 62
     0
100
AcDbLine
 10
-250.7000000000062
 20
-370.6886076927367
 30
0.0
 11
34.89999999999054
 21
-180.2890938837954
 31
0.0
  0
LINE
  5
269D
330
2AE3
100
AcDbEntity
  8
0
 62
     0
100
AcDbLine
 10
34.89999999999054
 20
-177.2891273483819
 30
0.0
 11
127.1339265441475
 21
-115.8000000000029
 31
0.0
  0
LINE
  5
269E
330
2AE3
100
AcDbEntity
  8
0
 62
     0
100
AcDbLine
 10
-250.7000000000044
 20
-367.6886411573196
 30
0.0
 11
34.89999999999054
 21
-177.2891273483819
 31
0.0
  0
LINE
  5
269F
330
2AE3
100
AcDbEntity
  8
0
 62
     0
100
AcDbLine
 10
34.89999999999236
 20
-174.2891608129648
 30
0.0
 11
122.6339652502611
 21
-115.8000000000029
 31
0.0
  0
LINE
  5
26A0
330
2AE3
100
AcDbEntity
  8
0
 62
     0
100
AcDbLine
 10
-250.7000000000044
 20
-364.6886746219042
 30
0.0
 11
34.89999999999236
 21
-174.2891608129648
 31
0.0
  0
LINE
  5
26A1
330
2AE3
100
AcDbEntity
  8
0
 62
     0
100
AcDbLine
 10
34.89999999999054
 20
-171.2891942775477
 30
0.0
 11
118.1340039563765
 21
-115.8000000000011
 31
0.0
  0
LINE
  5
26A2
330
2AE3
100
AcDbEntity
  8
0
 62
     0
100
AcDbLine
 10
-250.7000000000044
 20
-361.6887080864872
 30
0.0
 11
34.89999999999054
 21
-171.2891942775477
 31
0.0
  0
LINE
  5
26A3
330
2AE3
100
AcDbEntity
  8
0
 62
     0
100
AcDbLine
 10
34.89999999999054
 20
-168.2892277421324
 30
0.0
 11
113.6340426624901
 21
-115.8000000000011
 31
0.0
  0
LINE
  5
26A4
330
2AE3
100
AcDbEntity
  8
0
 62
     0
100
AcDbLine
 10
-250.7000000000062
 20
-358.6887415510719
 30
0.0
 11
34.89999999999054
 21
-168.2892277421324
 31
0.0
  0
LINE
  5
26A5
330
2AE3
100
AcDbEntity
  8
0
 62
     0
100
AcDbLine
 10
34.89999999999054
 20
-165.2892612067171
 30
0.0
 11
109.1340813686056
 21
-115.8000000000029
 31
0.0
  0
LINE
  5
26A6
330
2AE3
100
AcDbEntity
  8
0
 62
     0
100
AcDbLine
 10
-250.7000000000044
 20
-355.6887750156566
 30
0.0
 11
34.89999999999054
 21
-165.2892612067171
 31
0.0
  0
LINE
  5
26A7
330
2AE3
100
AcDbEntity
  8
0
 62
     0
100
AcDbLine
 10
34.89999999999054
 20
-162.2892946712999
 30
0.0
 11
104.6341200747174
 21
-115.8000000000029
 31
0.0
  0
LINE
  5
26A8
330
2AE3
100
AcDbEntity
  8
0
 62
     0
100
AcDbLine
 10
-250.7000000000062
 20
-352.6888084802412
 30
0.0
 11
34.89999999999054
 21
-162.2892946712999
 31
0.0
  0
LINE
  5
26A9
330
2AE3
100
AcDbEntity
  8
0
 62
     0
100
AcDbLine
 10
34.89999999999054
 20
-159.2893281358829
 30
0.0
 11
100.1341587808328
 21
-115.8000000000011
 31
0.0
  0
LINE
  5
26AA
330
2AE3
100
AcDbEntity
  8
0
 62
     0
100
AcDbLine
 10
-250.7000000000062
 20
-349.6888419448222
 30
0.0
 11
34.89999999999054
 21
-159.2893281358829
 31
0.0
  0
LINE
  5
26AB
330
2AE3
100
AcDbEntity
  8
0
 62
     0
100
AcDbLine
 10
34.89999999999054
 20
-156.2893616004676
 30
0.0
 11
95.63419748694469
 21
-115.8000000000047
 31
0.0
  0
LINE
  5
26AC
330
2AE3
100
AcDbEntity
  8
0
 62
     0
100
AcDbLine
 10
-250.7000000000044
 20
-346.6888754094071
 30
0.0
 11
34.89999999999054
 21
-156.2893616004676
 31
0.0
  0
LINE
  5
26AD
330
2AE3
100
AcDbEntity
  8
0
 62
     0
100
AcDbLine
 10
34.89999999999236
 20
-153.2893950650523
 30
0.0
 11
91.13423619306377
 21
-115.8000000000029
 31
0.0
  0
LINE
  5
26AE
330
2AE3
100
AcDbEntity
  8
0
 62
     0
100
AcDbLine
 10
-250.7000000000044
 20
-343.6889088739917
 30
0.0
 11
34.89999999999236
 21
-153.2893950650523
 31
0.0
  0
LINE
  5
26AF
330
2AE3
100
AcDbEntity
  8
0
 62
     0
100
AcDbLine
 10
34.89999999998872
 20
-150.2894285296352
 30
0.0
 11
86.63427489917378
 21
-115.8000000000029
 31
0.0
  0
LINE
  5
26B0
330
2AE3
100
AcDbEntity
  8
0
 62
     0
100
AcDbLine
 10
-250.7000000000062
 20
-340.6889423385746
 30
0.0
 11
34.89999999998872
 21
-150.2894285296352
 31
0.0
  0
LINE
  5
26B1
330
2AE3
100
AcDbEntity
  8
0
 62
     0
100
AcDbLine
 10
34.89999999999054
 20
-147.2894619942181
 30
0.0
 11
82.13431360529101
 21
-115.8000000000011
 31
0.0
  0
LINE
  5
26B2
330
2AE3
100
AcDbEntity
  8
0
 62
     0
100
AcDbLine
 10
-250.7000000000062
 20
-337.6889758031575
 30
0.0
 11
34.89999999999054
 21
-147.2894619942181
 31
0.0
  0
LINE
  5
26B3
330
2AE3
100
AcDbEntity
  8
0
 62
     0
100
AcDbLine
 10
34.89999999999054
 20
-144.2894954588046
 30
0.0
 11
77.63435231140644
 21
-115.8000000000029
 31
0.0
  0
LINE
  5
26B4
330
2AE3
100
AcDbEntity
  8
0
 62
     0
100
AcDbLine
 10
-250.7000000000044
 20
-334.6890092677422
 30
0.0
 11
34.89999999999054
 21
-144.2894954588046
 31
0.0
  0
LINE
  5
26B5
330
2AE3
100
AcDbEntity
  8
0
 62
     0
100
AcDbLine
 10
34.89999999999054
 20
-141.2895289233856
 30
0.0
 11
73.13439101752009
 21
-115.8000000000029
 31
0.0
  0
LINE
  5
26B6
330
2AE3
100
AcDbEntity
  8
0
 62
     0
100
AcDbLine
 10
-250.7000000000062
 20
-331.6890427323269
 30
0.0
 11
34.89999999999054
 21
-141.2895289233856
 31
0.0
  0
LINE
  5
26B7
330
2AE3
100
AcDbEntity
  8
0
 62
     0
100
AcDbLine
 10
34.89999999998872
 20
-138.2895623879722
 30
0.0
 11
68.63442972363554
 21
-115.8000000000011
 31
0.0
  0
LINE
  5
26B8
330
2AE3
100
AcDbEntity
  8
0
 62
     0
100
AcDbLine
 10
-250.7000000000062
 20
-328.6890761969098
 30
0.0
 11
34.89999999998872
 21
-138.2895623879722
 31
0.0
  0
LINE
  5
26B9
330
2AE3
100
AcDbEntity
  8
0
 62
     0
100
AcDbLine
 10
34.89999999999054
 20
-135.2895958525532
 30
0.0
 11
64.13446842974734
 21
-115.8000000000029
 31
0.0
  0
LINE
  5
26BA
330
2AE3
100
AcDbEntity
  8
0
 62
     0
100
AcDbLine
 10
-250.7000000000062
 20
-325.6891096614944
 30
0.0
 11
34.89999999999054
 21
-135.2895958525532
 31
0.0
  0
LINE
  5
26BB
330
2AE3
100
AcDbEntity
  8
0
 62
     0
100
AcDbLine
 10
34.89999999998872
 20
-132.2896293171378
 30
0.0
 11
59.63450713586279
 21
-115.8000000000011
 31
0.0
  0
LINE
  5
26BC
330
2AE3
100
AcDbEntity
  8
0
 62
     0
100
AcDbLine
 10
-250.7000000000062
 20
-322.6891431260757
 30
0.0
 11
34.89999999998872
 21
-132.2896293171378
 31
0.0
  0
LINE
  5
26BD
330
2AE3
100
AcDbEntity
  8
0
 62
     0
100
AcDbLine
 10
34.89999999998872
 20
-129.2896627817226
 30
0.0
 11
55.13454584197643
 21
-115.8000000000029
 31
0.0
  0
LINE
  5
26BE
330
2AE3
100
AcDbEntity
  8
0
 62
     0
100
AcDbLine
 10
-250.7000000000044
 20
-319.6891765906602
 30
0.0
 11
34.89999999998872
 21
-129.2896627817226
 31
0.0
  0
LINE
  5
26BF
330
2AE3
100
AcDbEntity
  8
0
 62
     0
100
AcDbLine
 10
34.89999999999236
 20
-126.2896962463055
 30
0.0
 11
50.6345845480937
 21
-115.8000000000029
 31
0.0
  0
LINE
  5
26C0
330
2AE3
100
AcDbEntity
  8
0
 62
     0
100
AcDbLine
 10
-250.7000000000062
 20
-316.6892100552468
 30
0.0
 11
34.89999999999236
 21
-126.2896962463055
 31
0.0
  0
LINE
  5
26C1
330
2AE3
100
AcDbEntity
  8
0
 62
     0
100
AcDbLine
 10
34.89999999999054
 20
-123.2897297108902
 30
0.0
 11
46.1346232542055
 21
-115.8000000000029
 31
0.0
  0
LINE
  5
26C2
330
2AE3
100
AcDbEntity
  8
0
 62
     0
100
AcDbLine
 10
-250.7000000000025
 20
-313.6892435198279
 30
0.0
 11
34.89999999999054
 21
-123.2897297108902
 31
0.0
  0
LINE
  5
26C3
330
2AE3
100
AcDbEntity
  8
0
 62
     0
100
AcDbLine
 10
34.89999999999236
 20
-120.2897631754713
 30
0.0
 11
41.63466196032096
 21
-115.8000000000011
 31
0.0
  0
LINE
  5
26C4
330
2AE3
100
AcDbEntity
  8
0
 62
     0
100
AcDbLine
 10
-250.7000000000062
 20
-310.6892769844126
 30
0.0
 11
34.89999999999236
 21
-120.2897631754713
 31
0.0
  0
LINE
  5
26C5
330
2AE3
100
AcDbEntity
  8
0
 62
     0
100
AcDbLine
 10
34.89999999998872
 20
-117.2897966400578
 30
0.0
 11
37.13470066643458
 21
-115.8000000000029
 31
0.0
  0
LINE
  5
26C6
330
2AE3
100
AcDbEntity
  8
0
 62
     0
100
AcDbLine
 10
-250.7000000000044
 20
-307.6893104489955
 30
0.0
 11
34.89999999998872
 21
-117.2897966400578
 31
0.0
  0
LINE
  5
26C7
330
2AE3
100
AcDbEntity
  8
0
 62
     0
100
AcDbLine
 10
-250.7000000000062
 20
-304.689343913582
 30
0.0
 11
32.63473937255185
 21
-115.8000000000029
 31
0.0
  0
LINE
  5
26C8
330
2AE3
100
AcDbEntity
  8
0
 62
     0
100
AcDbLine
 10
-250.7000000000044
 20
-301.6893773781649
 30
0.0
 11
28.13477807866548
 21
-115.8000000000029
 31
0.0
  0
LINE
  5
26C9
330
2AE3
100
AcDbEntity
  8
0
 62
     0
100
AcDbLine
 10
-250.700000000008
 20
-298.6894108427478
 30
0.0
 11
23.63481678478092
 21
-115.7999999999993
 31
0.0
  0
LINE
  5
26CA
330
2AE3
100
AcDbEntity
  8
0
 62
     0
100
AcDbLine
 10
-250.7000000000044
 20
-295.6894443073324
 30
0.0
 11
19.13485549089455
 21
-115.8000000000011
 31
0.0
  0
LINE
  5
26CB
330
2AE3
100
AcDbEntity
  8
0
 62
     0
100
AcDbLine
 10
-250.7000000000025
 20
-292.6894777719135
 30
0.0
 11
14.63489419701
 21
-115.8000000000011
 31
0.0
  0
LINE
  5
26CC
330
2AE3
100
AcDbEntity
  8
0
 62
     0
100
AcDbLine
 10
-250.7000000000044
 20
-289.6895112365001
 30
0.0
 11
10.13493290312544
 21
-115.8000000000011
 31
0.0
  0
LINE
  5
26CD
330
2AE3
100
AcDbEntity
  8
0
 62
     0
100
AcDbLine
 10
-250.7000000000044
 20
-286.6895447010829
 30
0.0
 11
5.634971609235432
 21
-115.8000000000029
 31
0.0
  0
LINE
  5
26CE
330
2AE3
100
AcDbEntity
  8
0
 62
     0
100
AcDbLine
 10
-250.7000000000044
 20
-283.6895781656658
 30
0.0
 11
1.135010315352698
 21
-115.7999999999993
 31
0.0
  0
LINE
  5
26CF
330
2AE3
100
AcDbEntity
  8
0
 62
     0
100
AcDbLine
 10
-250.7000000000044
 20
-280.6896116302505
 30
0.0
 11
-3.364950978533668
 21
-115.8000000000011
 31
0.0
  0
LINE
  5
26D0
330
2AE3
100
AcDbEntity
  8
0
 62
     0
100
AcDbLine
 10
-250.7000000000062
 20
-277.6896450948352
 30
0.0
 11
-7.86491227241822
 21
-115.8000000000011
 31
0.0
  0
LINE
  5
26D1
330
2AE3
100
AcDbEntity
  8
0
 62
     0
100
AcDbLine
 10
-250.7000000000044
 20
-274.6896785594181
 30
0.0
 11
-12.36487356630641
 21
-115.8000000000029
 31
0.0
  0
LINE
  5
26D2
330
2AE3
100
AcDbEntity
  8
0
 62
     0
100
AcDbLine
 10
-250.7000000000062
 20
-271.6897120240028
 30
0.0
 11
-16.86483486018915
 21
-115.8000000000011
 31
0.0
  0
LINE
  5
26D3
330
2AE3
100
AcDbEntity
  8
0
 62
     0
100
AcDbLine
 10
-250.7000000000062
 20
-268.6897454885857
 30
0.0
 11
-21.36479615407734
 21
-115.8000000000011
 31
0.0
  0
LINE
  5
26D4
330
2AE3
100
AcDbEntity
  8
0
 62
     0
100
AcDbLine
 10
-250.7000000000044
 20
-265.6897789531704
 30
0.0
 11
-25.86475744796189
 21
-115.8000000000029
 31
0.0
  0
LINE
  5
26D5
330
2AE3
100
AcDbEntity
  8
0
 62
     0
100
AcDbLine
 10
-250.7000000000044
 20
-262.6898124177533
 30
0.0
 11
-30.36471874184826
 21
-115.8000000000029
 31
0.0
  0
LINE
  5
26D6
330
2AE3
100
AcDbEntity
  8
0
 62
     0
100
AcDbLine
 10
-250.7000000000044
 20
-259.6898458823361
 30
0.0
 11
-34.864680035731
 21
-115.8000000000011
 31
0.0
  0
LINE
  5
26D7
330
2AE3
100
AcDbEntity
  8
0
 62
     0
100
AcDbLine
 10
-250.7000000000062
 20
-256.6898793469227
 30
0.0
 11
-39.36464132961919
 21
-115.8000000000029
 31
0.0
  0
LINE
  5
26D8
330
2AE3
100
AcDbEntity
  8
0
 62
     0
100
AcDbLine
 10
-250.7000000000044
 20
-253.6899128115038
 30
0.0
 11
-43.86460262350374
 21
-115.8000000000011
 31
0.0
  0
LINE
  5
26D9
330
2AE3
100
AcDbEntity
  8
0
 62
     0
100
AcDbLine
 10
-250.7000000000062
 20
-250.6899462760903
 30
0.0
 11
-48.36456391738829
 21
-115.8000000000011
 31
0.0
  0
LINE
  5
26DA
330
2AE3
100
AcDbEntity
  8
0
 62
     0
100
AcDbLine
 10
-250.7000000000062
 20
-247.6899797406713
 30
0.0
 11
-52.86452521127465
 21
-115.8000000000011
 31
0.0
  0
LINE
  5
26DB
330
2AE3
100
AcDbEntity
  8
0
 62
     0
100
AcDbLine
 10
-250.7000000000062
 20
-244.690013205256
 30
0.0
 11
-57.3644865051574
 21
-115.7999999999993
 31
0.0
  0
LINE
  5
26DC
330
2AE3
100
AcDbEntity
  8
0
 62
     0
100
AcDbLine
 10
-250.7000000000044
 20
-241.6900466698389
 30
0.0
 11
-61.86444779904559
 21
-115.8000000000029
 31
0.0
  0
LINE
  5
26DD
330
2AE3
100
AcDbEntity
  8
0
 62
     0
100
AcDbLine
 10
-250.7000000000044
 20
-238.6900801344236
 30
0.0
 11
-66.36440909293014
 21
-115.8000000000011
 31
0.0
  0
LINE
  5
26DE
330
2AE3
100
AcDbEntity
  8
0
 62
     0
100
AcDbLine
 10
-250.7000000000062
 20
-235.6901135990083
 30
0.0
 11
-70.8643703868165
 21
-115.8000000000011
 31
0.0
  0
LINE
  5
26DF
330
2AE3
100
AcDbEntity
  8
0
 62
     0
100
AcDbLine
 10
-250.7000000000044
 20
-232.6901470635894
 30
0.0
 11
-75.36433168070286
 21
-115.8000000000011
 31
0.0
  0
LINE
  5
26E0
330
2AE3
100
AcDbEntity
  8
0
 62
     0
100
AcDbLine
 10
-250.7000000000062
 20
-229.6901805281759
 30
0.0
 11
-79.86429297458926
 21
-115.8000000000029
 31
0.0
  0
LINE
  5
26E1
330
2AE3
100
AcDbEntity
  8
0
 62
     0
100
AcDbLine
 10
-250.7000000000062
 20
-226.6902139927588
 30
0.0
 11
-84.36425426847382
 21
-115.8000000000029
 31
0.0
  0
LINE
  5
26E2
330
2AE3
100
AcDbEntity
  8
0
 62
     0
100
AcDbLine
 10
-250.7000000000062
 20
-223.6902474573435
 30
0.0
 11
-88.86421556235834
 21
-115.8000000000011
 31
0.0
  0
LINE
  5
26E3
330
2AE3
100
AcDbEntity
  8
0
 62
     0
100
AcDbLine
 10
-250.7000000000044
 20
-220.6902809219264
 30
0.0
 11
-93.36417685624471
 21
-115.8000000000011
 31
0.0
  0
LINE
  5
26E4
330
2AE3
100
AcDbEntity
  8
0
 62
     0
100
AcDbLine
 10
-250.700000000008
 20
-217.6903143865111
 30
0.0
 11
-97.86413815012927
 21
-115.8000000000011
 31
0.0
  0
LINE
  5
26E5
330
2AE3
100
AcDbEntity
  8
0
 62
     0
100
AcDbLine
 10
-250.7000000000062
 20
-214.6903478510957
 30
0.0
 11
-102.3640994440156
 21
-115.8000000000029
 31
0.0
  0
LINE
  5
26E6
330
2AE3
100
AcDbEntity
  8
0
 62
     0
100
AcDbLine
 10
-250.7000000000062
 20
-211.6903813156787
 30
0.0
 11
-106.8640607378984
 21
-115.8000000000011
 31
0.0
  0
LINE
  5
26E7
330
2AE3
100
AcDbEntity
  8
0
 62
     0
100
AcDbLine
 10
-250.7000000000062
 20
-208.6904147802616
 30
0.0
 11
-111.3640220317884
 21
-115.8000000000011
 31
0.0
  0
LINE
  5
26E8
330
2AE3
100
AcDbEntity
  8
0
 62
     0
100
AcDbLine
 10
-250.7000000000044
 20
-205.6904482448445
 30
0.0
 11
-115.8639833256711
 21
-115.7999999999993
 31
0.0
  0
LINE
  5
26E9
330
2AE3
100
AcDbEntity
  8
0
 62
     0
100
AcDbLine
 10
-250.7000000000062
 20
-202.6904817094291
 30
0.0
 11
-120.3639446195575
 21
-115.8000000000011
 31
0.0
  0
LINE
  5
26EA
330
2AE3
100
AcDbEntity
  8
0
 62
     0
100
AcDbLine
 10
-250.7000000000044
 20
-199.6905151740138
 30
0.0
 11
-124.8639059134439
 21
-115.8000000000029
 31
0.0
  0
LINE
  5
26EB
330
2AE3
100
AcDbEntity
  8
0
 62
     0
100
AcDbLine
 10
-250.700000000008
 20
-196.6905486385967
 30
0.0
 11
-129.3638672073321
 21
-115.8000000000029
 31
0.0
  0
LINE
  5
26EC
330
2AE3
100
AcDbEntity
  8
0
 62
     0
100
AcDbLine
 10
-250.7000000000044
 20
-193.6905821031796
 30
0.0
 11
-133.863828501213
 21
-115.7999999999993
 31
0.0
  0
LINE
  5
26ED
330
2AE3
100
AcDbEntity
  8
0
 62
     0
100
AcDbLine
 10
-250.7000000000062
 20
-190.6906155677661
 30
0.0
 11
-138.3637897950993
 21
-115.8000000000011
 31
0.0
  0
LINE
  5
26EE
330
2AE3
100
AcDbEntity
  8
0
 62
     0
100
AcDbLine
 10
-250.7000000000044
 20
-187.690649032349
 30
0.0
 11
-142.8637510889857
 21
-115.8000000000029
 31
0.0
  0
LINE
  5
26EF
330
2AE3
100
AcDbEntity
  8
0
 62
     0
100
AcDbLine
 10
-250.7000000000044
 20
-184.6906824969319
 30
0.0
 11
-147.3637123828739
 21
-115.8000000000029
 31
0.0
  0
LINE
  5
26F0
330
2AE3
100
AcDbEntity
  8
0
 62
     0
100
AcDbLine
 10
-250.7000000000044
 20
-181.6907159615148
 30
0.0
 11
-151.8636736767548
 21
-115.8000000000011
 31
0.0
  0
LINE
  5
26F1
330
2AE3
100
AcDbEntity
  8
0
 62
     0
100
AcDbLine
 10
-250.7000000000044
 20
-178.6907494260995
 30
0.0
 11
-156.363634970643
 21
-115.8000000000011
 31
0.0
  0
LINE
  5
26F2
330
2AE3
100
AcDbEntity
  8
0
 62
     0
100
AcDbLine
 10
-250.7000000000062
 20
-175.690782890686
 30
0.0
 11
-160.8635962645294
 21
-115.8000000000029
 31
0.0
  0
LINE
  5
26F3
330
2AE3
100
AcDbEntity
  8
0
 62
     0
100
AcDbLine
 10
-250.7000000000044
 20
-172.6908163552671
 30
0.0
 11
-165.3635575584121
 21
-115.8000000000011
 31
0.0
  0
LINE
  5
26F4
330
2AE3
100
AcDbEntity
  8
0
 62
     0
100
AcDbLine
 10
-250.7000000000044
 20
-169.6908498198518
 30
0.0
 11
-169.8635188522967
 21
-115.8000000000011
 31
0.0
  0
LINE
  5
26F5
330
2AE3
100
AcDbEntity
  8
0
 62
     0
100
AcDbLine
 10
-250.7000000000044
 20
-166.6908832844328
 30
0.0
 11
-174.3634801461849
 21
-115.8000000000011
 31
0.0
  0
LINE
  5
26F6
330
2AE3
100
AcDbEntity
  8
0
 62
     0
100
AcDbLine
 10
-250.7000000000062
 20
-163.6909167490194
 30
0.0
 11
-178.8634414400712
 21
-115.8000000000029
 31
0.0
  0
LINE
  5
26F7
330
2AE3
100
AcDbEntity
  8
0
 62
     0
100
AcDbLine
 10
-250.7000000000044
 20
-160.6909502136041
 30
0.0
 11
-183.363402733954
 21
-115.8000000000011
 31
0.0
  0
LINE
  5
26F8
330
2AE3
100
AcDbEntity
  8
0
 62
     0
100
AcDbLine
 10
-250.7000000000044
 20
-157.6909836781851
 30
0.0
 11
-187.8633640278403
 21
-115.8000000000011
 31
0.0
  0
LINE
  5
26F9
330
2AE3
100
AcDbEntity
  8
0
 62
     0
100
AcDbLine
 10
-250.7000000000062
 20
-154.6910171427698
 30
0.0
 11
-192.3633253217285
 21
-115.8000000000011
 31
0.0
  0
LINE
  5
26FA
330
2AE3
100
AcDbEntity
  8
0
 62
     0
100
AcDbLine
 10
-250.7000000000044
 20
-151.6910506073527
 30
0.0
 11
-196.8632866156131
 21
-115.8000000000029
 31
0.0
  0
LINE
  5
26FB
330
2AE3
100
AcDbEntity
  8
0
 62
     0
100
AcDbLine
 10
-250.7000000000062
 20
-148.6910840719392
 30
0.0
 11
-201.3632479094976
 21
-115.8000000000011
 31
0.0
  0
LINE
  5
26FC
330
2AE3
100
AcDbEntity
  8
0
 62
     0
100
AcDbLine
 10
-250.7000000000062
 20
-145.6911175365203
 30
0.0
 11
-205.863209203384
 21
-115.8000000000011
 31
0.0
  0
LINE
  5
26FD
330
2AE3
100
AcDbEntity
  8
0
 62
     0
100
AcDbLine
 10
-250.7000000000062
 20
-142.691151001105
 30
0.0
 11
-210.3631704972704
 21
-115.8000000000011
 31
0.0
  0
LINE
  5
26FE
330
2AE3
100
AcDbEntity
  8
0
 62
     0
100
AcDbLine
 10
-250.7000000000044
 20
-139.6911844656897
 30
0.0
 11
-214.8631317911513
 21
-115.8000000000011
 31
0.0
  0
LINE
  5
26FF
330
2AE3
100
AcDbEntity
  8
0
 62
     0
100
AcDbLine
 10
-250.7000000000062
 20
-136.6912179302744
 30
0.0
 11
-219.3630930850395
 21
-115.8000000000029
 31
0.0
  0
LINE
  5
2700
330
2AE3
100
AcDbEntity
  8
0
 62
     0
100
AcDbLine
 10
-250.7000000000062
 20
-133.6912513948572
 30
0.0
 11
-223.8630543789259
 21
-115.8000000000011
 31
0.0
  0
LINE
  5
2701
330
2AE3
100
AcDbEntity
  8
0
 62
     0
100
AcDbLine
 10
-250.7000000000044
 20
-130.6912848594384
 30
0.0
 11
-228.3630156728104
 21
-115.8000000000011
 31
0.0
  0
LINE
  5
2702
330
2AE3
100
AcDbEntity
  8
0
 62
     0
100
AcDbLine
 10
-250.7000000000062
 20
-127.6913183240231
 30
0.0
 11
-232.862976966695
 21
-115.7999999999993
 31
0.0
  0
LINE
  5
2703
330
2AE3
100
AcDbEntity
  8
0
 62
     0
100
AcDbLine
 10
-250.7000000000062
 20
-124.6913517886078
 30
0.0
 11
-237.3629382605832
 21
-115.8000000000011
 31
0.0
  0
LINE
  5
2704
330
2AE3
100
AcDbEntity
  8
0
 62
     0
100
AcDbLine
 10
-250.7000000000062
 20
-121.6913852531924
 30
0.0
 11
-241.8628995544677
 21
-115.8000000000029
 31
0.0
  0
LINE
  5
2705
330
2AE3
100
AcDbEntity
  8
0
 62
     0
100
AcDbLine
 10
-250.7000000000044
 20
-118.6914187177753
 30
0.0
 11
-246.3628608483523
 21
-115.8000000000029
 31
0.0
  0
ENDBLK
  5
2706
330
2AE3
100
AcDbEntity
  8
0
100
AcDbBlockEnd
  0
BLOCK
  5
2AE6
330
2AE5
100
AcDbEntity
  8
0
100
AcDbBlockBegin
  2
*X75
 70
     1
 10
0.0
 20
0.0
 30
0.0
  3
*X75
  1

  0
LINE
  5
2709
330
2AE5
100
AcDbEntity
  8
0
 62
     0
100
AcDbLine
 10
-250.6999999999953
 20
-573.4954541510822
 30
0.0
 11
-249.6431785279948
 21
-574.2000000000025
 31
0.0
  0
LINE
  5
270A
330
2AE5
100
AcDbEntity
  8
0
 62
     0
100
AcDbLine
 10
-250.6999999999953
 20
-570.4954876156641
 30
0.0
 11
-245.1432172341101
 21
-574.2000000000016
 31
0.0
  0
LINE
  5
270B
330
2AE5
100
AcDbEntity
  8
0
 62
     0
100
AcDbLine
 10
-250.6999999999971
 20
-567.4955210802473
 30
0.0
 11
-240.6432559402256
 21
-574.1999999999998
 31
0.0
  0
LINE
  5
270C
330
2AE5
100
AcDbEntity
  8
0
 62
     0
100
AcDbLine
 10
-250.6999999999953
 20
-564.49555454483
 30
0.0
 11
-236.1432946463392
 21
-574.1999999999989
 31
0.0
  0
LINE
  5
270D
330
2AE5
100
AcDbEntity
  8
0
 62
     0
100
AcDbLine
 10
-250.6999999999953
 20
-561.4955880094177
 30
0.0
 11
-231.643333352451
 21
-574.2000000000034
 31
0.0
  0
LINE
  5
270E
330
2AE5
100
AcDbEntity
  8
0
 62
     0
100
AcDbLine
 10
-250.6999999999953
 20
-558.4956214740002
 30
0.0
 11
-227.1433720585683
 21
-574.2000000000016
 31
0.0
  0
LINE
  5
270F
330
2AE5
100
AcDbEntity
  8
0
 62
     0
100
AcDbLine
 10
-250.6999999999971
 20
-555.4956549385832
 30
0.0
 11
-222.6434107646837
 21
-574.2000000000007
 31
0.0
  0
LINE
  5
2710
330
2AE5
100
AcDbEntity
  8
0
 62
     0
100
AcDbLine
 10
-250.6999999999933
 20
-552.4956884031662
 30
0.0
 11
-218.1434494707955
 21
-574.1999999999989
 31
0.0
  0
LINE
  5
2711
330
2AE5
100
AcDbEntity
  8
0
 62
     0
100
AcDbLine
 10
-250.6999999999953
 20
-549.4957218677519
 30
0.0
 11
-213.643488176911
 21
-574.2000000000025
 31
0.0
  0
LINE
  5
2712
330
2AE5
100
AcDbEntity
  8
0
 62
     0
100
AcDbLine
 10
-250.6999999999953
 20
-546.4957553323365
 30
0.0
 11
-209.1435268830264
 21
-574.2000000000007
 31
0.0
  0
LINE
  5
2713
330
2AE5
100
AcDbEntity
  8
0
 62
     0
100
AcDbLine
 10
-250.6999999999953
 20
-543.4957887969185
 30
0.0
 11
-204.6435655891419
 21
-574.1999999999998
 31
0.0
  0
LINE
  5
2714
330
2AE5
100
AcDbEntity
  8
0
 62
     0
100
AcDbLine
 10
-250.6999999999953
 20
-540.4958222615014
 30
0.0
 11
-200.1436042952537
 21
-574.2000000000007
 31
0.0
  0
LINE
  5
2715
330
2AE5
100
AcDbEntity
  8
0
 62
     0
100
AcDbLine
 10
-250.6999999999953
 20
-537.495855726088
 30
0.0
 11
-195.6436430013691
 21
-574.2000000000025
 31
0.0
  0
LINE
  5
2716
330
2AE5
100
AcDbEntity
  8
0
 62
     0
100
AcDbLine
 10
-250.6999999999953
 20
-534.4958891906708
 30
0.0
 11
-191.1436817074844
 21
-574.2000000000016
 31
0.0
  0
LINE
  5
2717
330
2AE5
100
AcDbEntity
  8
0
 62
     0
100
AcDbLine
 10
-250.6999999999933
 20
-531.4959226552546
 30
0.0
 11
-186.6437204135982
 21
-574.1999999999998
 31
0.0
  0
LINE
  5
2718
330
2AE5
100
AcDbEntity
  8
0
 62
     0
100
AcDbLine
 10
-250.6999999999953
 20
-528.4959561198375
 30
0.0
 11
-182.1437591197118
 21
-574.2000000000007
 31
0.0
  0
LINE
  5
2719
330
2AE5
100
AcDbEntity
  8
0
 62
     0
100
AcDbLine
 10
-250.6999999999953
 20
-525.49598958442
 30
0.0
 11
-177.6437978258273
 21
-574.1999999999998
 31
0.0
  0
LINE
  5
271A
330
2AE5
100
AcDbEntity
  8
0
 62
     0
100
AcDbLine
 10
-250.6999999999971
 20
-522.496023049006
 30
0.0
 11
-173.1438365319426
 21
-574.2000000000016
 31
0.0
  0
LINE
  5
271B
330
2AE5
100
AcDbEntity
  8
0
 62
     0
100
AcDbLine
 10
-250.6999999999933
 20
-519.4960565135898
 30
0.0
 11
-168.6438752380563
 21
-574.2000000000007
 31
0.0
  0
LINE
  5
271C
330
2AE5
100
AcDbEntity
  8
0
 62
     0
100
AcDbLine
 10
-250.6999999999971
 20
-516.4960899781716
 30
0.0
 11
-164.14391394417
 21
-574.2000000000016
 31
0.0
  0
LINE
  5
271D
330
2AE5
100
AcDbEntity
  8
0
 62
     0
100
AcDbLine
 10
-250.6999999999953
 20
-513.4961234427557
 30
0.0
 11
-159.6439526502836
 21
-574.1999999999998
 31
0.0
  0
LINE
  5
271E
330
2AE5
100
AcDbEntity
  8
0
 62
     0
100
AcDbLine
 10
-250.6999999999953
 20
-510.4961569073418
 30
0.0
 11
-155.143991356399
 21
-574.2000000000025
 31
0.0
  0
LINE
  5
271F
330
2AE5
100
AcDbEntity
  8
0
 62
     0
100
AcDbLine
 10
-250.6999999999953
 20
-507.4961903719247
 30
0.0
 11
-150.6440300625145
 21
-574.2000000000007
 31
0.0
  0
LINE
  5
2720
330
2AE5
100
AcDbEntity
  8
0
 62
     0
100
AcDbLine
 10
-250.6999999999971
 20
-504.4962238365077
 30
0.0
 11
-146.1440687686298
 21
-574.2000000000007
 31
0.0
  0
LINE
  5
2721
330
2AE5
100
AcDbEntity
  8
0
 62
     0
100
AcDbLine
 10
-250.6999999999933
 20
-501.4962573010904
 30
0.0
 11
-141.6441074747417
 21
-574.1999999999998
 31
0.0
  0
LINE
  5
2722
330
2AE5
100
AcDbEntity
  8
0
 62
     0
100
AcDbLine
 10
-250.6999999999953
 20
-498.4962907656782
 30
0.0
 11
-137.144146180859
 21
-574.2000000000016
 31
0.0
  0
LINE
  5
2723
330
2AE5
100
AcDbEntity
  8
0
 62
     0
100
AcDbLine
 10
-250.6999999999971
 20
-495.4963242302601
 30
0.0
 11
-132.6441848869708
 21
-574.2000000000025
 31
0.0
  0
LINE
  5
2724
330
2AE5
100
AcDbEntity
  8
0
 62
     0
100
AcDbLine
 10
-250.6999999999953
 20
-492.4963576948439
 30
0.0
 11
-128.1442235930863
 21
-574.2000000000007
 31
0.0
  0
LINE
  5
2725
330
2AE5
100
AcDbEntity
  8
0
 62
     0
100
AcDbLine
 10
-250.6999999999953
 20
-489.4963911594259
 30
0.0
 11
-123.6442622991998
 21
-574.1999999999998
 31
0.0
  0
LINE
  5
2726
330
2AE5
100
AcDbEntity
  8
0
 62
     0
100
AcDbLine
 10
-250.6999999999953
 20
-486.4964246240123
 30
0.0
 11
-119.1443010053172
 21
-574.2000000000025
 31
0.0
  0
LINE
  5
2727
330
2AE5
100
AcDbEntity
  8
0
 62
     0
100
AcDbLine
 10
-250.6999999999953
 20
-483.4964580885959
 30
0.0
 11
-114.6443397114271
 21
-574.2000000000025
 31
0.0
  0
LINE
  5
2728
330
2AE5
100
AcDbEntity
  8
0
 62
     0
100
AcDbLine
 10
-250.6999999999933
 20
-480.4964915531789
 30
0.0
 11
-110.1443784175426
 21
-574.2000000000016
 31
0.0
  0
LINE
  5
2729
330
2AE5
100
AcDbEntity
  8
0
 62
     0
100
AcDbLine
 10
-250.6999999999953
 20
-477.4965250177618
 30
0.0
 11
-105.644417123658
 21
-574.1999999999998
 31
0.0
  0
LINE
  5
272A
330
2AE5
100
AcDbEntity
  8
0
 62
     0
100
AcDbLine
 10
-250.6999999999953
 20
-474.4965584823447
 30
0.0
 11
-101.1444558297753
 21
-574.1999999999989
 31
0.0
  0
LINE
  5
272B
330
2AE5
100
AcDbEntity
  8
0
 62
     0
100
AcDbLine
 10
-250.6999999999953
 20
-471.4965919469314
 30
0.0
 11
-96.64449453588714
 21
-574.2000000000025
 31
0.0
  0
LINE
  5
272C
330
2AE5
100
AcDbEntity
  8
0
 62
     0
100
AcDbLine
 10
-250.6999999999953
 20
-468.4966254115129
 30
0.0
 11
-92.14453324200258
 21
-574.2000000000007
 31
0.0
  0
LINE
  5
272D
330
2AE5
100
AcDbEntity
  8
0
 62
     0
100
AcDbLine
 10
-250.6999999999953
 20
-465.4966588760981
 30
0.0
 11
-87.64457194811802
 21
-574.1999999999998
 31
0.0
  0
LINE
  5
272E
330
2AE5
100
AcDbEntity
  8
0
 62
     0
100
AcDbLine
 10
-250.6999999999953
 20
-462.49669234068
 30
0.0
 11
-83.14461065423165
 21
-574.1999999999989
 31
0.0
  0
LINE
  5
272F
330
2AE5
100
AcDbEntity
  8
0
 62
     0
100
AcDbLine
 10
-250.6999999999953
 20
-459.4967258052665
 30
0.0
 11
-78.64464936034345
 21
-574.2000000000025
 31
0.0
  0
LINE
  5
2730
330
2AE5
100
AcDbEntity
  8
0
 62
     0
100
AcDbLine
 10
-250.6999999999953
 20
-456.4967592698494
 30
0.0
 11
-74.14468806646073
 21
-574.2000000000016
 31
0.0
  0
LINE
  5
2731
330
2AE5
100
AcDbEntity
  8
0
 62
     0
100
AcDbLine
 10
-250.6999999999971
 20
-453.4967927344331
 30
0.0
 11
-69.64472677257616
 21
-574.1999999999998
 31
0.0
  0
LINE
  5
2732
330
2AE5
100
AcDbEntity
  8
0
 62
     0
100
AcDbLine
 10
-250.6999999999953
 20
-450.496826199016
 30
0.0
 11
-65.14476547868799
 21
-574.2000000000007
 31
0.0
  0
LINE
  5
2733
330
2AE5
100
AcDbEntity
  8
0
 62
     0
100
AcDbLine
 10
-250.6999999999953
 20
-447.4968596636026
 30
0.0
 11
-60.64480418480162
 21
-574.2000000000025
 31
0.0
  0
LINE
  5
2734
330
2AE5
100
AcDbEntity
  8
0
 62
     0
100
AcDbLine
 10
-250.6999999999953
 20
-444.4968931281855
 30
0.0
 11
-56.1448428909189
 21
-574.2000000000016
 31
0.0
  0
LINE
  5
2735
330
2AE5
100
AcDbEntity
  8
0
 62
     0
100
AcDbLine
 10
-250.6999999999953
 20
-441.4969265927673
 30
0.0
 11
-51.6448815970325
 21
-574.2000000000007
 31
0.0
  0
LINE
  5
2736
330
2AE5
100
AcDbEntity
  8
0
 62
     0
100
AcDbLine
 10
-250.6999999999933
 20
-438.4969600573522
 30
0.0
 11
-47.14492030314429
 21
-574.2000000000007
 31
0.0
  0
LINE
  5
2737
330
2AE5
100
AcDbEntity
  8
0
 62
     0
100
AcDbLine
 10
-250.6999999999953
 20
-435.4969935219342
 30
0.0
 11
-42.64495900925974
 21
-574.1999999999998
 31
0.0
  0
LINE
  5
2738
330
2AE5
100
AcDbEntity
  8
0
 62
     0
100
AcDbLine
 10
-250.6999999999971
 20
-432.4970269865207
 30
0.0
 11
-38.14499771537703
 21
-574.2000000000016
 31
0.0
  0
LINE
  5
2739
330
2AE5
100
AcDbEntity
  8
0
 62
     0
100
AcDbLine
 10
-250.6999999999933
 20
-429.4970604511036
 30
0.0
 11
-33.64503642148884
 21
-574.2000000000007
 31
0.0
  0
LINE
  5
273A
330
2AE5
100
AcDbEntity
  8
0
 62
     0
100
AcDbLine
 10
-250.6999999999953
 20
-426.4970939156865
 30
0.0
 11
-29.14507512760429
 21
-574.2000000000007
 31
0.0
  0
LINE
  5
273B
330
2AE5
100
AcDbEntity
  8
0
 62
     0
100
AcDbLine
 10
-250.6999999999953
 20
-423.4971273802694
 30
0.0
 11
-24.64511383371974
 21
-574.1999999999989
 31
0.0
  0
LINE
  5
273C
330
2AE5
100
AcDbEntity
  8
0
 62
     0
100
AcDbLine
 10
-250.6999999999953
 20
-420.4971608448568
 30
0.0
 11
-20.14515253983518
 21
-574.2000000000016
 31
0.0
  0
LINE
  5
273D
330
2AE5
100
AcDbEntity
  8
0
 62
     0
100
AcDbLine
 10
-250.6999999999933
 20
-417.4971943094396
 30
0.0
 11
-15.64519124594881
 21
-574.1999999999998
 31
0.0
  0
LINE
  5
273E
330
2AE5
100
AcDbEntity
  8
0
 62
     0
100
AcDbLine
 10
-250.6999999999971
 20
-414.4972277740215
 30
0.0
 11
-11.14522995206242
 21
-574.2000000000007
 31
0.0
  0
LINE
  5
273F
330
2AE5
100
AcDbEntity
  8
0
 62
     0
100
AcDbLine
 10
-250.6999999999933
 20
-411.4972612386051
 30
0.0
 11
-6.645268658176063
 21
-574.1999999999998
 31
0.0
  0
LINE
  5
2740
330
2AE5
100
AcDbEntity
  8
0
 62
     0
100
AcDbLine
 10
-250.6999999999953
 20
-408.4972947031911
 30
0.0
 11
-2.145307364291511
 21
-574.2000000000016
 31
0.0
  0
LINE
  5
2741
330
2AE5
100
AcDbEntity
  8
0
 62
     0
100
AcDbLine
 10
-250.6999999999953
 20
-405.4973281677749
 30
0.0
 11
2.35465392959304
 21
-574.2000000000007
 31
0.0
  0
LINE
  5
2742
330
2AE5
100
AcDbEntity
  8
0
 62
     0
100
AcDbLine
 10
-250.6999999999971
 20
-402.4973616323577
 30
0.0
 11
6.854615223479409
 21
-574.2000000000016
 31
0.0
  0
LINE
  5
2743
330
2AE5
100
AcDbEntity
  8
0
 62
     0
100
AcDbLine
 10
-250.6999999999953
 20
-399.4973950969407
 30
0.0
 11
11.35457651736578
 21
-574.1999999999998
 31
0.0
  0
LINE
  5
2744
330
2AE5
100
AcDbEntity
  8
0
 62
     0
100
AcDbLine
 10
-250.6999999999953
 20
-396.4974285615235
 30
0.0
 11
15.85453781125034
 21
-574.1999999999989
 31
0.0
  0
LINE
  5
2745
330
2AE5
100
AcDbEntity
  8
0
 62
     0
100
AcDbLine
 10
-250.6999999999953
 20
-393.4974620261101
 30
0.0
 11
20.35449910513671
 21
-574.2000000000016
 31
0.0
  0
LINE
  5
2746
330
2AE5
100
AcDbEntity
  8
0
 62
     0
100
AcDbLine
 10
-250.6999999999953
 20
-390.4974954906937
 30
0.0
 11
24.85446039902126
 21
-574.2000000000007
 31
0.0
  0
LINE
  5
2747
330
2AE5
100
AcDbEntity
  8
0
 62
     0
100
AcDbLine
 10
-250.6999999999953
 20
-387.4975289552758
 30
0.0
 11
29.35442169290947
 21
-574.2000000000007
 31
0.0
  0
LINE
  5
2748
330
2AE5
100
AcDbEntity
  8
0
 62
     0
100
AcDbLine
 10
-250.6999999999953
 20
-384.4975624198596
 30
0.0
 11
33.85438298679221
 21
-574.1999999999989
 31
0.0
  0
LINE
  5
2749
330
2AE5
100
AcDbEntity
  8
0
 62
     0
100
AcDbLine
 10
-250.6999999999971
 20
-381.4975958844452
 30
0.0
 11
38.35434428067856
 21
-574.2000000000025
 31
0.0
  0
LINE
  5
274A
330
2AE5
100
AcDbEntity
  8
0
 62
     0
100
AcDbLine
 10
-250.6999999999953
 20
-378.4976293490281
 30
0.0
 11
42.85430557456311
 21
-574.2000000000007
 31
0.0
  0
LINE
  5
274B
330
2AE5
100
AcDbEntity
  8
0
 62
     0
100
AcDbLine
 10
-250.6999999999953
 20
-375.4976628136108
 30
0.0
 11
47.35426686844948
 21
-574.1999999999998
 31
0.0
  0
LINE
  5
274C
330
2AE5
100
AcDbEntity
  8
0
 62
     0
100
AcDbLine
 10
-250.6999999999953
 20
-372.4976962781948
 30
0.0
 11
51.85422816233222
 21
-574.199999999998
 31
0.0
  0
LINE
  5
274D
330
2AE5
100
AcDbEntity
  8
0
 62
     0
100
AcDbLine
 10
-250.6999999999953
 20
-369.4977297427813
 30
0.0
 11
56.35418945622223
 21
-574.2000000000025
 31
0.0
  0
LINE
  5
274E
330
2AE5
100
AcDbEntity
  8
0
 62
     0
100
AcDbLine
 10
-250.6999999999933
 20
-366.4977632073642
 30
0.0
 11
60.85415075010678
 21
-574.2000000000016
 31
0.0
  0
LINE
  5
274F
330
2AE5
100
AcDbEntity
  8
0
 62
     0
100
AcDbLine
 10
-250.6999999999953
 20
-363.4977966719471
 30
0.0
 11
65.35411204399135
 21
-574.1999999999998
 31
0.0
  0
LINE
  5
2750
330
2AE5
100
AcDbEntity
  8
0
 62
     0
100
AcDbLine
 10
-250.6999999999953
 20
-360.4978301365289
 30
0.0
 11
69.85407333787954
 21
-574.2000000000007
 31
0.0
  0
LINE
  5
2751
330
2AE5
100
AcDbEntity
  8
0
 62
     0
100
AcDbLine
 10
-250.6999999999933
 20
-357.4978636011138
 30
0.0
 11
74.35403463176591
 21
-574.1999999999998
 31
0.0
  0
LINE
  5
2752
330
2AE5
100
AcDbEntity
  8
0
 62
     0
100
AcDbLine
 10
-250.6999999999953
 20
-354.4978970656995
 30
0.0
 11
78.85399592564862
 21
-574.2000000000016
 31
0.0
  0
LINE
  5
2753
330
2AE5
100
AcDbEntity
  8
0
 62
     0
100
AcDbLine
 10
-250.6999999999971
 20
-351.4979305302822
 30
0.0
 11
83.35395721953318
 21
-574.2000000000007
 31
0.0
  0
LINE
  5
2754
330
2AE5
100
AcDbEntity
  8
0
 62
     0
100
AcDbLine
 10
-250.6999999999953
 20
-348.497963994865
 30
0.0
 11
87.85391851341955
 21
-574.1999999999998
 31
0.0
  0
LINE
  5
2755
330
2AE5
100
AcDbEntity
  8
0
 62
     0
100
AcDbLine
 10
-250.6999999999953
 20
-345.497997459448
 30
0.0
 11
92.35387980730592
 21
-574.1999999999989
 31
0.0
  0
LINE
  5
2756
330
2AE5
100
AcDbEntity
  8
0
 62
     0
100
AcDbLine
 10
-250.6999999999953
 20
-342.4980309240354
 30
0.0
 11
96.85384110118867
 21
-574.2000000000007
 31
0.0
  0
LINE
  5
2757
330
2AE5
100
AcDbEntity
  8
0
 62
     0
100
AcDbLine
 10
-250.6999999999971
 20
-339.4980643886165
 30
0.0
 11
101.353802395075
 21
-574.1999999999998
 31
0.0
  0
LINE
  5
2758
330
2AE5
100
AcDbEntity
  8
0
 62
     0
100
AcDbLine
 10
-250.6999999999971
 20
-336.4980978531994
 30
0.0
 11
105.8537636889632
 21
-574.2000000000007
 31
0.0
  0
LINE
  5
2759
330
2AE5
100
AcDbEntity
  8
0
 62
     0
100
AcDbLine
 10
-250.6999999999989
 20
-333.4981313177814
 30
0.0
 11
110.3537249828478
 21
-574.1999999999989
 31
0.0
  0
LINE
  5
275A
330
2AE5
100
AcDbEntity
  8
0
 62
     0
100
AcDbLine
 10
-250.7000000000007
 20
-330.4981647823677
 30
0.0
 11
114.8536862767305
 21
-574.2000000000016
 31
0.0
  0
LINE
  5
275B
330
2AE5
100
AcDbEntity
  8
0
 62
     0
100
AcDbLine
 10
-250.6999999999989
 20
-327.4981982469508
 30
0.0
 11
119.3536475706187
 21
-574.2000000000025
 31
0.0
  0
LINE
  5
275C
330
2AE5
100
AcDbEntity
  8
0
 62
     0
100
AcDbLine
 10
-250.6999999999989
 20
-324.4982317115337
 30
0.0
 11
123.853608864505
 21
-574.2000000000007
 31
0.0
  0
LINE
  5
275D
330
2AE5
100
AcDbEntity
  8
0
 62
     0
100
AcDbLine
 10
-250.6999999999989
 20
-321.4982651761175
 30
0.0
 11
128.3535701583896
 21
-574.1999999999998
 31
0.0
  0
LINE
  5
275E
330
2AE5
100
AcDbEntity
  8
0
 62
     0
100
AcDbLine
 10
-250.6999999999989
 20
-318.4982986407003
 30
0.0
 11
132.8535314522742
 21
-574.199999999998
 31
0.0
  0
LINE
  5
275F
330
2AE5
100
AcDbEntity
  8
0
 62
     0
100
AcDbLine
 10
-250.6999999999971
 20
-315.4983321052869
 30
0.0
 11
137.3534927461623
 21
-574.2000000000016
 31
0.0
  0
LINE
  5
2760
330
2AE5
100
AcDbEntity
  8
0
 62
     0
100
AcDbLine
 10
-250.6999999999989
 20
-312.4983655698697
 30
0.0
 11
141.8534540400469
 21
-574.2000000000016
 31
0.0
  0
LINE
  5
2761
330
2AE5
100
AcDbEntity
  8
0
 62
     0
100
AcDbLine
 10
-250.6999999999989
 20
-309.4983990344526
 30
0.0
 11
146.3534153339296
 21
-574.1999999999998
 31
0.0
  0
LINE
  5
2762
330
2AE5
100
AcDbEntity
  8
0
 62
     0
100
AcDbLine
 10
-250.6999999999971
 20
-306.4984324990355
 30
0.0
 11
150.8533766278178
 21
-574.1999999999989
 31
0.0
  0
LINE
  5
2763
330
2AE5
100
AcDbEntity
  8
0
 62
     0
100
AcDbLine
 10
-250.6999999999989
 20
-303.498465963622
 30
0.0
 11
155.3533379217024
 21
-574.2000000000016
 31
0.0
  0
LINE
  5
2764
330
2AE5
100
AcDbEntity
  8
0
 62
     0
100
AcDbLine
 10
-250.6999999999989
 20
-300.4984994282049
 30
0.0
 11
159.8532992155869
 21
-574.2000000000007
 31
0.0
  0
LINE
  5
2765
330
2AE5
100
AcDbEntity
  8
0
 62
     0
100
AcDbLine
 10
-250.6999999999989
 20
-297.4985328927878
 30
0.0
 11
164.3532605094733
 21
-574.1999999999998
 31
0.0
  0
LINE
  5
2766
330
2AE5
100
AcDbEntity
  8
0
 62
     0
100
AcDbLine
 10
-250.6999999999971
 20
-294.4985663573707
 30
0.0
 11
168.8532218033614
 21
-574.1999999999998
 31
0.0
  0
LINE
  5
2767
330
2AE5
100
AcDbEntity
  8
0
 62
     0
100
AcDbLine
 10
-250.6999999999989
 20
-291.4985998219581
 30
0.0
 11
173.3531830972442
 21
-574.2000000000025
 31
0.0
  0
LINE
  5
2768
330
2AE5
100
AcDbEntity
  8
0
 62
     0
100
AcDbLine
 10
-250.6999999999971
 20
-288.498633286541
 30
0.0
 11
177.8531443911306
 21
-574.2000000000007
 31
0.0
  0
LINE
  5
2769
330
2AE5
100
AcDbEntity
  8
0
 62
     0
100
AcDbLine
 10
-250.6999999999971
 20
-285.4986667511239
 30
0.0
 11
182.353105685017
 21
-574.1999999999998
 31
0.0
  0
LINE
  5
276A
330
2AE5
100
AcDbEntity
  8
0
 62
     0
100
AcDbLine
 10
-250.6999999999971
 20
-282.4987002157068
 30
0.0
 11
186.8530669789033
 21
-574.2000000000007
 31
0.0
  0
LINE
  5
276B
330
2AE5
100
AcDbEntity
  8
0
 62
     0
100
AcDbLine
 10
-250.7000000000007
 20
-279.4987336802888
 30
0.0
 11
191.3530282727861
 21
-574.1999999999989
 31
0.0
  0
LINE
  5
276C
330
2AE5
100
AcDbEntity
  8
0
 62
     0
100
AcDbLine
 10
-250.6999999999989
 20
-276.4987671448753
 30
0.0
 11
195.8529895666725
 21
-574.2000000000016
 31
0.0
  0
LINE
  5
276D
330
2AE5
100
AcDbEntity
  8
0
 62
     0
100
AcDbLine
 10
-250.6999999999989
 20
-273.4988006094591
 30
0.0
 11
200.3529508605589
 21
-574.1999999999998
 31
0.0
  0
LINE
  5
276E
330
2AE5
100
AcDbEntity
  8
0
 62
     0
100
AcDbLine
 10
-250.6999999999989
 20
-270.498834074042
 30
0.0
 11
204.8529121544434
 21
-574.1999999999998
 31
0.0
  0
LINE
  5
276F
330
2AE5
100
AcDbEntity
  8
0
 62
     0
100
AcDbLine
 10
-250.6999999999989
 20
-267.4988675386249
 30
0.0
 11
209.352873448328
 21
-574.1999999999989
 31
0.0
  0
LINE
  5
2770
330
2AE5
100
AcDbEntity
  8
0
 62
     0
100
AcDbLine
 10
-250.6999999999971
 20
-264.4989010032114
 30
0.0
 11
213.8528347422143
 21
-574.2000000000007
 31
0.0
  0
LINE
  5
2771
330
2AE5
100
AcDbEntity
  8
0
 62
     0
100
AcDbLine
 10
-250.6999999999989
 20
-261.4989344677943
 30
0.0
 11
218.3527960361007
 21
-574.2000000000016
 31
0.0
  0
LINE
  5
2772
330
2AE5
100
AcDbEntity
  8
0
 62
     0
100
AcDbLine
 10
-250.6999999999989
 20
-258.498967932378
 30
0.0
 11
222.8527573299853
 21
-574.1999999999998
 31
0.0
  0
LINE
  5
2773
330
2AE5
100
AcDbEntity
  8
0
 62
     0
100
AcDbLine
 10
-250.6999999999989
 20
-255.4990013969609
 30
0.0
 11
227.3527186238698
 21
-574.1999999999989
 31
0.0
  0
LINE
  5
2774
330
2AE5
100
AcDbEntity
  8
0
 62
     0
100
AcDbLine
 10
-250.6999999999989
 20
-252.4990348615465
 30
0.0
 11
231.8526799177562
 21
-574.2000000000016
 31
0.0
  0
LINE
  5
2775
330
2AE5
100
AcDbEntity
  8
0
 62
     0
100
AcDbLine
 10
-250.6999999999989
 20
-249.4990683261294
 30
0.0
 11
236.3526412116426
 21
-574.2000000000016
 31
0.0
  0
LINE
  5
2776
330
2AE5
100
AcDbEntity
  8
0
 62
     0
100
AcDbLine
 10
-250.6999999999989
 20
-246.4991017907123
 30
0.0
 11
240.8526025055289
 21
-574.2000000000007
 31
0.0
  0
LINE
  5
2777
330
2AE5
100
AcDbEntity
  8
0
 62
     0
100
AcDbLine
 10
-250.6999999999971
 20
-243.4991352552961
 30
0.0
 11
245.3525637994135
 21
-574.1999999999989
 31
0.0
  0
LINE
  5
2778
330
2AE5
100
AcDbEntity
  8
0
 62
     0
100
AcDbLine
 10
-250.6999999999989
 20
-240.499168719879
 30
0.0
 11
249.852525093298
 21
-574.199999999998
 31
0.0
  0
LINE
  5
2779
330
2AE5
100
AcDbEntity
  8
0
 62
     0
100
AcDbLine
 10
-250.6999999999989
 20
-237.4992021844655
 30
0.0
 11
250.6999999999989
 21
-571.765015293021
 31
0.0
  0
LINE
  5
277A
330
2AE5
100
AcDbEntity
  8
0
 62
     0
100
AcDbLine
 10
-250.6999999999971
 20
-234.4992356490484
 30
0.0
 11
250.7000000000007
 21
-568.7650487576039
 31
0.0
  0
LINE
  5
277B
330
2AE5
100
AcDbEntity
  8
0
 62
     0
100
AcDbLine
 10
-250.6999999999971
 20
-231.4992691136313
 30
0.0
 11
250.7000000000007
 21
-565.7650822221865
 31
0.0
  0
LINE
  5
277C
330
2AE5
100
AcDbEntity
  8
0
 62
     0
100
AcDbLine
 10
-250.6999999999989
 20
-228.4993025782151
 30
0.0
 11
250.6999999999989
 21
-562.7651156867687
 31
0.0
  0
LINE
  5
277D
330
2AE5
100
AcDbEntity
  8
0
 62
     0
100
AcDbLine
 10
-250.6999999999989
 20
-225.4993360428007
 30
0.0
 11
250.7000000000007
 21
-559.765149151356
 31
0.0
  0
LINE
  5
277E
330
2AE5
100
AcDbEntity
  8
0
 62
     0
100
AcDbLine
 10
-250.6999999999989
 20
-222.4993695073836
 30
0.0
 11
250.7000000000007
 21
-556.7651826159381
 31
0.0
  0
LINE
  5
277F
330
2AE5
100
AcDbEntity
  8
0
 62
     0
100
AcDbLine
 10
-250.6999999999989
 20
-219.4994029719664
 30
0.0
 11
250.6999999999989
 21
-553.7652160805219
 31
0.0
  0
LINE
  5
2780
330
2AE5
100
AcDbEntity
  8
0
 62
     0
100
AcDbLine
 10
-250.6999999999989
 20
-216.4994364365493
 30
0.0
 11
250.7000000000007
 21
-550.7652495451047
 31
0.0
  0
LINE
  5
2781
330
2AE5
100
AcDbEntity
  8
0
 62
     0
100
AcDbLine
 10
-250.6999999999971
 20
-213.4994699011358
 30
0.0
 11
250.7000000000007
 21
-547.7652830096912
 31
0.0
  0
LINE
  5
2782
330
2AE5
100
AcDbEntity
  8
0
 62
     0
100
AcDbLine
 10
-250.6999999999989
 20
-210.4995033657196
 30
0.0
 11
250.7000000000007
 21
-544.7653164742741
 31
0.0
  0
LINE
  5
2783
330
2AE5
100
AcDbEntity
  8
0
 62
     0
100
AcDbLine
 10
-250.6999999999989
 20
-207.4995368303025
 30
0.0
 11
250.6999999999989
 21
-541.765349938857
 31
0.0
  0
LINE
  5
2784
330
2AE5
100
AcDbEntity
  8
0
 62
     0
100
AcDbLine
 10
-250.6999999999989
 20
-204.4995702948863
 30
0.0
 11
250.7000000000007
 21
-538.7653834034416
 31
0.0
  0
LINE
  5
2785
330
2AE5
100
AcDbEntity
  8
0
 62
     0
100
AcDbLine
 10
-250.6999999999971
 20
-201.4996037594692
 30
0.0
 11
250.6999999999989
 21
-535.7654168680237
 31
0.0
  0
LINE
  5
2786
330
2AE5
100
AcDbEntity
  8
0
 62
     0
100
AcDbLine
 10
-250.6999999999989
 20
-198.499637224053
 30
0.0
 11
250.7000000000007
 21
-532.7654503326092
 31
0.0
  0
LINE
  5
2787
330
2AE5
100
AcDbEntity
  8
0
 62
     0
100
AcDbLine
 10
-250.6999999999989
 20
-195.4996706886368
 30
0.0
 11
250.6999999999989
 21
-529.7654837971913
 31
0.0
  0
LINE
  5
2788
330
2AE5
100
AcDbEntity
  8
0
 62
     0
100
AcDbLine
 10
-250.6999999999971
 20
-192.4997041532215
 30
0.0
 11
250.7000000000007
 21
-526.7655172617759
 31
0.0
  0
LINE
  5
2789
330
2AE5
100
AcDbEntity
  8
0
 62
     0
100
AcDbLine
 10
-250.6999999999989
 20
-189.4997376178044
 30
0.0
 11
250.6999999999989
 21
-523.7655507263598
 31
0.0
  0
LINE
  5
278A
330
2AE5
100
AcDbEntity
  8
0
 62
     0
100
AcDbLine
 10
-250.6999999999989
 20
-186.4997710823891
 30
0.0
 11
250.6999999999989
 21
-520.7655841909445
 31
0.0
  0
LINE
  5
278B
330
2AE5
100
AcDbEntity
  8
0
 62
     0
100
AcDbLine
 10
-250.6999999999971
 20
-183.4998045469719
 30
0.0
 11
250.7000000000007
 21
-517.7656176555273
 31
0.0
  0
LINE
  5
278C
330
2AE5
100
AcDbEntity
  8
0
 62
     0
100
AcDbLine
 10
-250.6999999999971
 20
-180.4998380115575
 30
0.0
 11
250.7000000000007
 21
-514.765651120112
 31
0.0
  0
LINE
  5
278D
330
2AE5
100
AcDbEntity
  8
0
 62
     0
100
AcDbLine
 10
-250.6999999999989
 20
-177.4998714761404
 30
0.0
 11
250.6999999999989
 21
-511.765684584695
 31
0.0
  0
LINE
  5
278E
330
2AE5
100
AcDbEntity
  8
0
 62
     0
100
AcDbLine
 10
-250.6999999999971
 20
-174.4999049407252
 30
0.0
 11
250.6999999999989
 21
-508.7657180492786
 31
0.0
  0
LINE
  5
278F
330
2AE5
100
AcDbEntity
  8
0
 62
     0
100
AcDbLine
 10
-250.6999999999989
 20
-171.4999384053071
 30
0.0
 11
250.7000000000007
 21
-505.7657515138625
 31
0.0
  0
LINE
  5
2790
330
2AE5
100
AcDbEntity
  8
0
 62
     0
100
AcDbLine
 10
-250.6999999999989
 20
-168.4999718698918
 30
0.0
 11
250.6999999999989
 21
-502.7657849784473
 31
0.0
  0
LINE
  5
2791
330
2AE5
100
AcDbEntity
  8
0
 62
     0
100
AcDbLine
 10
-250.6999999999989
 20
-165.5000053344747
 30
0.0
 11
250.7000000000007
 21
-499.7658184430298
 31
0.0
  0
LINE
  5
2792
330
2AE5
100
AcDbEntity
  8
0
 62
     0
100
AcDbLine
 10
-250.6999999999971
 20
-162.5000387990585
 30
0.0
 11
250.7000000000007
 21
-496.7658519076128
 31
0.0
  0
LINE
  5
2793
330
2AE5
100
AcDbEntity
  8
0
 62
     0
100
AcDbLine
 10
-250.6999999999989
 20
-159.5000722636432
 30
0.0
 11
250.7000000000007
 21
-493.7658853721977
 31
0.0
  0
LINE
  5
2794
330
2AE5
100
AcDbEntity
  8
0
 62
     0
100
AcDbLine
 10
-250.6999999999989
 20
-156.5001057282261
 30
0.0
 11
250.6999999999989
 21
-490.7659188367814
 31
0.0
  0
LINE
  5
2795
330
2AE5
100
AcDbEntity
  8
0
 62
     0
100
AcDbLine
 10
-250.6999999999989
 20
-153.5001391928108
 30
0.0
 11
250.7000000000007
 21
-487.7659523013663
 31
0.0
  0
LINE
  5
2796
330
2AE5
100
AcDbEntity
  8
0
 62
     0
100
AcDbLine
 10
-250.6999999999971
 20
-150.5001726573937
 30
0.0
 11
250.7000000000007
 21
-484.7659857659492
 31
0.0
  0
LINE
  5
2797
330
2AE5
100
AcDbEntity
  8
0
 62
     0
100
AcDbLine
 10
-250.6999999999989
 20
-147.5002061219792
 30
0.0
 11
250.6999999999989
 21
-481.7660192305328
 31
0.0
  0
LINE
  5
2798
330
2AE5
100
AcDbEntity
  8
0
 62
     0
100
AcDbLine
 10
-250.6999999999989
 20
-144.5002395865613
 30
0.0
 11
250.6999999999989
 21
-478.7660526951156
 31
0.0
  0
LINE
  5
2799
330
2AE5
100
AcDbEntity
  8
0
 62
     0
100
AcDbLine
 10
-250.6999999999971
 20
-141.500273051146
 30
0.0
 11
250.7000000000007
 21
-475.7660861597011
 31
0.0
  0
LINE
  5
279A
330
2AE5
100
AcDbEntity
  8
0
 62
     0
100
AcDbLine
 10
-250.6999999999989
 20
-138.5003065157289
 30
0.0
 11
250.6999999999989
 21
-472.7661196242841
 31
0.0
  0
LINE
  5
279B
330
2AE5
100
AcDbEntity
  8
0
 62
     0
100
AcDbLine
 10
-250.6999999999989
 20
-135.5003399803136
 30
0.0
 11
250.6999999999989
 21
-469.7661530888687
 31
0.0
  0
LINE
  5
279C
330
2AE5
100
AcDbEntity
  8
0
 62
     0
100
AcDbLine
 10
-250.6999999999989
 20
-132.5003734448974
 30
0.0
 11
250.6999999999989
 21
-466.7661865534519
 31
0.0
  0
LINE
  5
279D
330
2AE5
100
AcDbEntity
  8
0
 62
     0
100
AcDbLine
 10
-250.6999999999971
 20
-129.5004069094821
 30
0.0
 11
250.7000000000007
 21
-463.7662200180367
 31
0.0
  0
LINE
  5
279E
330
2AE5
100
AcDbEntity
  8
0
 62
     0
100
AcDbLine
 10
-250.6999999999989
 20
-126.5004403740649
 30
0.0
 11
250.6999999999989
 21
-460.7662534826184
 31
0.0
  0
LINE
  5
279F
330
2AE5
100
AcDbEntity
  8
0
 62
     0
100
AcDbLine
 10
-250.6999999999989
 20
-123.5004738386469
 30
0.0
 11
250.6999999999989
 21
-457.7662869472024
 31
0.0
  0
LINE
  5
27A0
330
2AE5
100
AcDbEntity
  8
0
 62
     0
100
AcDbLine
 10
-250.6999999999989
 20
-120.5005073032316
 30
0.0
 11
250.7000000000007
 21
-454.7663204117871
 31
0.0
  0
LINE
  5
27A1
330
2AE5
100
AcDbEntity
  8
0
 62
     0
100
AcDbLine
 10
34.90000000000146
 20
-307.9000545767576
 30
0.0
 11
37.44992464615825
 21
-309.5999999999995
 31
0.0
  0
LINE
  5
27A2
330
2AE5
100
AcDbEntity
  8
0
 62
     0
100
AcDbLine
 10
37.44992464615825
 20
-309.5999999999995
 30
0.0
 11
250.6999999999989
 21
-451.76635387637
 31
0.0
  0
LINE
  5
27A3
330
2AE5
100
AcDbEntity
  8
0
 62
     0
100
AcDbLine
 10
-250.6999999999989
 20
-117.5005407678145
 30
0.0
 11
34.899999999996
 21
-307.900054576754
 31
0.0
  0
LINE
  5
27A4
330
2AE5
100
AcDbEntity
  8
0
 62
     0
100
AcDbLine
 10
34.89999999999782
 20
-304.9000880413414
 30
0.0
 11
41.94988594004279
 21
-309.5999999999995
 31
0.0
  0
LINE
  5
27A5
330
2AE5
100
AcDbEntity
  8
0
 62
     0
100
AcDbLine
 10
41.94988594004279
 20
-309.5999999999995
 30
0.0
 11
250.6999999999989
 21
-448.7663873409545
 31
0.0
  0
LINE
  5
27A6
330
2AE5
100
AcDbEntity
  8
0
 62
     0
100
AcDbLine
 10
-248.7508563714127
 20
-115.8000000000011
 30
0.0
 11
34.899999999996
 21
-304.9000880413396
 31
0.0
  0
LINE
  5
27A7
330
2AE5
100
AcDbEntity
  8
0
 62
     0
100
AcDbLine
 10
34.90000000000146
 20
-301.9001215059243
 30
0.0
 11
46.449847233931
 21
-309.5999999999985
 31
0.0
  0
LINE
  5
27A8
330
2AE5
100
AcDbEntity
  8
0
 62
     0
100
AcDbLine
 10
46.449847233931
 20
-309.5999999999995
 30
0.0
 11
250.7000000000007
 21
-445.7664208055373
 31
0.0
  0
LINE
  5
27A9
330
2AE5
100
AcDbEntity
  8
0
 62
     0
100
AcDbLine
 10
-244.2508950775245
 20
-115.7999999999993
 30
0.0
 11
34.89999999999782
 21
-301.9001215059225
 31
0.0
  0
LINE
  5
27AA
330
2AE5
100
AcDbEntity
  8
0
 62
     0
100
AcDbLine
 10
34.89999999999965
 20
-298.9001549705089
 30
0.0
 11
50.94980852781554
 21
-309.6000000000004
 31
0.0
  0
LINE
  5
27AB
330
2AE5
100
AcDbEntity
  8
0
 62
     0
100
AcDbLine
 10
50.94980852781554
 20
-309.6000000000004
 30
0.0
 11
250.7000000000007
 21
-442.7664542701231
 31
0.0
  0
LINE
  5
27AC
330
2AE5
100
AcDbEntity
  8
0
 62
     0
100
AcDbLine
 10
-239.7509337836418
 20
-115.8000000000002
 30
0.0
 11
34.89999999999782
 21
-298.9001549705072
 31
0.0
  0
LINE
  5
27AD
330
2AE5
100
AcDbEntity
  8
0
 62
     0
100
AcDbLine
 10
34.89999999999965
 20
-295.9001884350919
 30
0.0
 11
55.44976982170011
 21
-309.5999999999985
 31
0.0
  0
LINE
  5
27AE
330
2AE5
100
AcDbEntity
  8
0
 62
     0
100
AcDbLine
 10
55.44976982170011
 20
-309.5999999999985
 30
0.0
 11
250.6999999999953
 21
-439.7664877347041
 31
0.0
  0
LINE
  5
27AF
330
2AE5
100
AcDbEntity
  8
0
 62
     0
100
AcDbLine
 10
-235.2509724897554
 20
-115.8000000000002
 30
0.0
 11
34.899999999996
 21
-295.9001884350901
 31
0.0
  0
LINE
  5
27B0
330
2AE5
100
AcDbEntity
  8
0
 62
     0
100
AcDbLine
 10
34.89999999999965
 20
-292.9002218996775
 30
0.0
 11
59.94973111558465
 21
-309.5999999999995
 31
0.0
  0
LINE
  5
27B1
330
2AE5
100
AcDbEntity
  8
0
 62
     0
100
AcDbLine
 10
59.94973111558465
 20
-309.5999999999995
 30
0.0
 11
250.6999999999971
 21
-436.7665211992887
 31
0.0
  0
LINE
  5
27B2
330
2AE5
100
AcDbEntity
  8
0
 62
     0
100
AcDbLine
 10
-230.7510111958709
 20
-115.8000000000002
 30
0.0
 11
34.89999999999782
 21
-292.9002218996748
 31
0.0
  0
LINE
  5
27B3
330
2AE5
100
AcDbEntity
  8
0
 62
     0
100
AcDbLine
 10
34.90000000000146
 20
-289.9002553642604
 30
0.0
 11
64.44969240947284
 21
-309.6000000000004
 31
0.0
  0
LINE
  5
27B4
330
2AE5
100
AcDbEntity
  8
0
 62
     0
100
AcDbLine
 10
64.44969240947284
 20
-309.6000000000004
 30
0.0
 11
250.6999999999971
 21
-433.7665546638708
 31
0.0
  0
LINE
  5
27B5
330
2AE5
100
AcDbEntity
  8
0
 62
     0
100
AcDbLine
 10
-226.2510499019845
 20
-115.7999999999993
 30
0.0
 11
34.899999999996
 21
-289.9002553642567
 31
0.0
  0
LINE
  5
27B6
330
2AE5
100
AcDbEntity
  8
0
 62
     0
100
AcDbLine
 10
34.89999999999965
 20
-286.9002888288451
 30
0.0
 11
68.94965370335738
 21
-309.6000000000004
 31
0.0
  0
LINE
  5
27B7
330
2AE5
100
AcDbEntity
  8
0
 62
     0
100
AcDbLine
 10
68.94965370335738
 20
-309.6000000000004
 30
0.0
 11
250.6999999999953
 21
-430.7665881284556
 31
0.0
  0
LINE
  5
27B8
330
2AE5
100
AcDbEntity
  8
0
 62
     0
100
AcDbLine
 10
-221.7510886080981
 20
-115.800000000002
 30
0.0
 11
34.899999999996
 21
-286.9002888288424
 31
0.0
  0
LINE
  5
27B9
330
2AE5
100
AcDbEntity
  8
0
 62
     0
100
AcDbLine
 10
34.90000000000146
 20
-283.900322293428
 30
0.0
 11
73.44961499724195
 21
-309.5999999999995
 31
0.0
  0
LINE
  5
27BA
330
2AE5
100
AcDbEntity
  8
0
 62
     0
100
AcDbLine
 10
73.44961499724195
 20
-309.5999999999995
 30
0.0
 11
250.6999999999971
 21
-427.7666215930385
 31
0.0
  0
LINE
  5
27BB
330
2AE5
100
AcDbEntity
  8
0
 62
     0
100
AcDbLine
 10
-217.2511273142118
 20
-115.8000000000002
 30
0.0
 11
34.899999999996
 21
-283.9003222934252
 31
0.0
  0
LINE
  5
27BC
330
2AE5
100
AcDbEntity
  8
0
 62
     0
100
AcDbLine
 10
34.90000000000146
 20
-280.9003557580127
 30
0.0
 11
77.94957629112831
 21
-309.5999999999995
 31
0.0
  0
LINE
  5
27BD
330
2AE5
100
AcDbEntity
  8
0
 62
     0
100
AcDbLine
 10
77.94957629112831
 20
-309.5999999999995
 30
0.0
 11
250.6999999999971
 21
-424.7666550576239
 31
0.0
  0
LINE
  5
27BE
330
2AE5
100
AcDbEntity
  8
0
 62
     0
100
AcDbLine
 10
-212.7511660203272
 20
-115.8000000000011
 30
0.0
 11
34.89999999999782
 21
-280.90035575801
 31
0.0
  0
LINE
  5
27BF
330
2AE5
100
AcDbEntity
  8
0
 62
     0
100
AcDbLine
 10
34.89999999999965
 20
-277.9003892225946
 30
0.0
 11
82.44953758501468
 21
-309.6000000000004
 31
0.0
  0
LINE
  5
27C0
330
2AE5
100
AcDbEntity
  8
0
 62
     0
100
AcDbLine
 10
82.44953758501468
 20
-309.6000000000004
 30
0.0
 11
250.6999999999971
 21
-421.766688522207
 31
0.0
  0
LINE
  5
27C1
330
2AE5
100
AcDbEntity
  8
0
 62
     0
100
AcDbLine
 10
-208.2512047264426
 20
-115.7999999999993
 30
0.0
 11
34.899999999996
 21
-277.9003892225928
 31
0.0
  0
LINE
  5
27C2
330
2AE5
100
AcDbEntity
  8
0
 62
     0
100
AcDbLine
 10
34.89999999999965
 20
-274.9004226871802
 30
0.0
 11
86.94949887889924
 21
-309.6000000000013
 31
0.0
  0
LINE
  5
27C3
330
2AE5
100
AcDbEntity
  8
0
 62
     0
100
AcDbLine
 10
86.94949887889924
 20
-309.6000000000013
 30
0.0
 11
250.6999999999953
 21
-418.7667219867917
 31
0.0
  0
LINE
  5
27C4
330
2AE5
100
AcDbEntity
  8
0
 62
     0
100
AcDbLine
 10
-203.7512434325563
 20
-115.800000000002
 30
0.0
 11
34.899999999996
 21
-274.9004226871775
 31
0.0
  0
LINE
  5
27C5
330
2AE5
100
AcDbEntity
  8
0
 62
     0
100
AcDbLine
 10
34.89999999999965
 20
-271.9004561517631
 30
0.0
 11
91.44946017278376
 21
-309.5999999999995
 31
0.0
  0
LINE
  5
27C6
330
2AE5
100
AcDbEntity
  8
0
 62
     0
100
AcDbLine
 10
91.44946017278376
 20
-309.5999999999995
 30
0.0
 11
250.6999999999971
 21
-415.7667554513746
 31
0.0
  0
LINE
  5
27C7
330
2AE5
100
AcDbEntity
  8
0
 62
     0
100
AcDbLine
 10
-199.2512821386699
 20
-115.8000000000002
 30
0.0
 11
34.899999999996
 21
-271.9004561517613
 31
0.0
  0
LINE
  5
27C8
330
2AE5
100
AcDbEntity
  8
0
 62
     0
100
AcDbLine
 10
34.90000000000146
 20
-268.900489616346
 30
0.0
 11
95.94942146667014
 21
-309.5999999999985
 31
0.0
  0
LINE
  5
27C9
330
2AE5
100
AcDbEntity
  8
0
 62
     0
100
AcDbLine
 10
95.9494214666738
 20
-309.6000000000004
 30
0.0
 11
250.6999999999953
 21
-412.7667889159566
 31
0.0
  0
LINE
  5
27CA
330
2AE5
100
AcDbEntity
  8
0
 62
     0
100
AcDbLine
 10
-194.7513208447853
 20
-115.7999999999993
 30
0.0
 11
34.899999999996
 21
-268.9004896163433
 31
0.0
  0
LINE
  5
27CB
330
2AE5
100
AcDbEntity
  8
0
 62
     0
100
AcDbLine
 10
34.89999999999965
 20
-265.9005230809307
 30
0.0
 11
100.4493827605565
 21
-309.6000000000004
 31
0.0
  0
LINE
  5
27CC
330
2AE5
100
AcDbEntity
  8
0
 62
     0
100
AcDbLine
 10
100.4493827605565
 20
-309.6000000000004
 30
0.0
 11
250.6999999999971
 21
-409.7668223805428
 31
0.0
  0
LINE
  5
27CD
330
2AE5
100
AcDbEntity
  8
0
 62
     0
100
AcDbLine
 10
-190.2513595509008
 20
-115.8000000000002
 30
0.0
 11
34.899999999996
 21
-265.9005230809289
 31
0.0
  0
LINE
  5
27CE
330
2AE5
100
AcDbEntity
  8
0
 62
     0
100
AcDbLine
 10
34.90000000000146
 20
-262.9005565455145
 30
0.0
 11
104.9493440544429
 21
-309.5999999999995
 31
0.0
  0
LINE
  5
27CF
330
2AE5
100
AcDbEntity
  8
0
 62
     0
100
AcDbLine
 10
104.9493440544429
 20
-309.5999999999995
 30
0.0
 11
250.6999999999953
 21
-406.7668558451249
 31
0.0
  0
LINE
  5
27D0
330
2AE5
100
AcDbEntity
  8
0
 62
     0
100
AcDbLine
 10
-185.7513982570126
 20
-115.8000000000002
 30
0.0
 11
34.899999999996
 21
-262.9005565455109
 31
0.0
  0
LINE
  5
27D1
330
2AE5
100
AcDbEntity
  8
0
 62
     0
100
AcDbLine
 10
34.90000000000146
 20
-259.9005900100991
 30
0.0
 11
109.4493053483274
 21
-309.6000000000004
 31
0.0
  0
LINE
  5
27D2
330
2AE5
100
AcDbEntity
  8
0
 62
     0
100
AcDbLine
 10
109.4493053483274
 20
-309.6000000000004
 30
0.0
 11
250.6999999999971
 21
-403.7668893097094
 31
0.0
  0
LINE
  5
27D3
330
2AE5
100
AcDbEntity
  8
0
 62
     0
100
AcDbLine
 10
-181.2514369631262
 20
-115.8000000000011
 30
0.0
 11
34.89999999999782
 21
-259.9005900100956
 31
0.0
  0
LINE
  5
27D4
330
2AE5
100
AcDbEntity
  8
0
 62
     0
100
AcDbLine
 10
34.90000000000146
 20
-256.9006234746821
 30
0.0
 11
113.9492666422138
 21
-309.5999999999995
 31
0.0
  0
LINE
  5
27D5
330
2AE5
100
AcDbEntity
  8
0
 62
     0
100
AcDbLine
 10
113.9492666422138
 20
-309.5999999999995
 30
0.0
 11
250.6999999999953
 21
-400.7669227742925
 31
0.0
  0
LINE
  5
27D6
330
2AE5
100
AcDbEntity
  8
0
 62
     0
100
AcDbLine
 10
-176.7514756692435
 20
-115.7999999999993
 30
0.0
 11
34.899999999996
 21
-256.9006234746794
 31
0.0
  0
LINE
  5
27D7
330
2AE5
100
AcDbEntity
  8
0
 62
     0
100
AcDbLine
 10
34.89999999999965
 20
-253.9006569392668
 30
0.0
 11
118.4492279360966
 21
-309.6000000000004
 31
0.0
  0
LINE
  5
27D8
330
2AE5
100
AcDbEntity
  8
0
 62
     0
100
AcDbLine
 10
118.4492279360966
 20
-309.6000000000004
 30
0.0
 11
250.6999999999953
 21
-397.7669562388773
 31
0.0
  0
LINE
  5
27D9
330
2AE5
100
AcDbEntity
  8
0
 62
     0
100
AcDbLine
 10
-172.2515143753571
 20
-115.8000000000011
 30
0.0
 11
34.899999999996
 21
-253.9006569392641
 31
0.0
  0
LINE
  5
27DA
330
2AE5
100
AcDbEntity
  8
0
 62
     0
100
AcDbLine
 10
34.90000000000146
 20
-250.9006904038488
 30
0.0
 11
122.9491892299847
 21
-309.5999999999985
 31
0.0
  0
LINE
  5
27DB
330
2AE5
100
AcDbEntity
  8
0
 62
     0
100
AcDbLine
 10
122.9491892299847
 20
-309.5999999999985
 30
0.0
 11
250.6999999999971
 21
-394.7669897034602
 31
0.0
  0
LINE
  5
27DC
330
2AE5
100
AcDbEntity
  8
0
 62
     0
100
AcDbLine
 10
-167.7515530814708
 20
-115.8000000000002
 30
0.0
 11
34.89999999999782
 21
-250.900690403847
 31
0.0
  0
LINE
  5
27DD
330
2AE5
100
AcDbEntity
  8
0
 62
     0
100
AcDbLine
 10
34.89999999999965
 20
-247.9007238684335
 30
0.0
 11
127.4491505238675
 21
-309.5999999999995
 31
0.0
  0
LINE
  5
27DE
330
2AE5
100
AcDbEntity
  8
0
 62
     0
100
AcDbLine
 10
127.4491505238675
 20
-309.5999999999995
 30
0.0
 11
250.6999999999971
 21
-391.767023168046
 31
0.0
  0
LINE
  5
27DF
330
2AE5
100
AcDbEntity
  8
0
 62
     0
100
AcDbLine
 10
-163.2515917875862
 20
-115.8000000000002
 30
0.0
 11
34.89999999999782
 21
-247.9007238684317
 31
0.0
  0
LINE
  5
27E0
330
2AE5
100
AcDbEntity
  8
0
 62
     0
100
AcDbLine
 10
34.89999999999965
 20
-244.9007573330173
 30
0.0
 11
131.9491118177557
 21
-309.6000000000004
 31
0.0
  0
LINE
  5
27E1
330
2AE5
100
AcDbEntity
  8
0
 62
     0
100
AcDbLine
 10
131.9491118177557
 20
-309.6000000000004
 30
0.0
 11
250.6999999999953
 21
-388.7670566326288
 31
0.0
  0
LINE
  5
27E2
330
2AE5
100
AcDbEntity
  8
0
 62
     0
100
AcDbLine
 10
-158.7516304937034
 20
-115.7999999999993
 30
0.0
 11
34.899999999996
 21
-244.9007573330145
 31
0.0
  0
LINE
  5
27E3
330
2AE5
100
AcDbEntity
  8
0
 62
     0
100
AcDbLine
 10
34.89999999999965
 20
-241.900790797602
 30
0.0
 11
136.4490731116402
 21
-309.6000000000004
 31
0.0
  0
LINE
  5
27E4
330
2AE5
100
AcDbEntity
  8
0
 62
     0
100
AcDbLine
 10
136.4490731116402
 20
-309.6000000000004
 30
0.0
 11
250.6999999999953
 21
-385.7670900972125
 31
0.0
  0
LINE
  5
27E5
330
2AE5
100
AcDbEntity
  8
0
 62
     0
100
AcDbLine
 10
-154.2516691998135
 20
-115.800000000002
 30
0.0
 11
34.899999999996
 21
-241.9007907975982
 31
0.0
  0
LINE
  5
27E6
330
2AE5
100
AcDbEntity
  8
0
 62
     0
100
AcDbLine
 10
34.90000000000146
 20
-238.9008242621849
 30
0.0
 11
140.9490344055266
 21
-309.5999999999995
 31
0.0
  0
LINE
  5
27E7
330
2AE5
100
AcDbEntity
  8
0
 62
     0
100
AcDbLine
 10
140.9490344055266
 20
-309.5999999999995
 30
0.0
 11
250.6999999999971
 21
-382.7671235617963
 31
0.0
  0
LINE
  5
27E8
330
2AE5
100
AcDbEntity
  8
0
 62
     0
100
AcDbLine
 10
-149.7517079059289
 20
-115.8000000000002
 30
0.0
 11
34.899999999996
 21
-238.9008242621821
 31
0.0
  0
LINE
  5
27E9
330
2AE5
100
AcDbEntity
  8
0
 62
     0
100
AcDbLine
 10
34.89999999999965
 20
-235.9008577267696
 30
0.0
 11
145.4489956994093
 21
-309.5999999999995
 31
0.0
  0
LINE
  5
27EA
330
2AE5
100
AcDbEntity
  8
0
 62
     0
100
AcDbLine
 10
145.448995699413
 20
-309.6000000000022
 30
0.0
 11
250.6999999999953
 21
-379.7671570263801
 31
0.0
  0
LINE
  5
27EB
330
2AE5
100
AcDbEntity
  8
0
 62
     0
100
AcDbLine
 10
-145.2517466120443
 20
-115.8000000000011
 30
0.0
 11
34.899999999996
 21
-235.9008577267668
 31
0.0
  0
LINE
  5
27EC
330
2AE5
100
AcDbEntity
  8
0
 62
     0
100
AcDbLine
 10
34.90000000000146
 20
-232.9008911913525
 30
0.0
 11
149.9489569932993
 21
-309.6000000000004
 31
0.0
  0
LINE
  5
27ED
330
2AE5
100
AcDbEntity
  8
0
 62
     0
100
AcDbLine
 10
149.9489569932993
 20
-309.6000000000004
 30
0.0
 11
250.6999999999971
 21
-376.767190490964
 31
0.0
  0
LINE
  5
27EE
330
2AE5
100
AcDbEntity
  8
0
 62
     0
100
AcDbLine
 10
-140.7517853181562
 20
-115.8000000000011
 30
0.0
 11
34.899999999996
 21
-232.9008911913497
 31
0.0
  0
LINE
  5
27EF
330
2AE5
100
AcDbEntity
  8
0
 62
     0
100
AcDbLine
 10
34.90000000000146
 20
-229.9009246559363
 30
0.0
 11
154.4489182871839
 21
-309.5999999999995
 31
0.0
  0
LINE
  5
27F0
330
2AE5
100
AcDbEntity
  8
0
 62
     0
100
AcDbLine
 10
154.4489182871839
 20
-309.5999999999995
 30
0.0
 11
250.6999999999971
 21
-373.7672239555468
 31
0.0
  0
LINE
  5
27F1
330
2AE5
100
AcDbEntity
  8
0
 62
     0
100
AcDbLine
 10
-136.2518240242716
 20
-115.8000000000002
 30
0.0
 11
34.89999999999782
 21
-229.9009246559326
 31
0.0
  0
LINE
  5
27F2
330
2AE5
100
AcDbEntity
  8
0
 62
     0
100
AcDbLine
 10
34.90000000000146
 20
-226.900958120521
 30
0.0
 11
158.9488795810684
 21
-309.5999999999995
 31
0.0
  0
LINE
  5
27F3
330
2AE5
100
AcDbEntity
  8
0
 62
     0
100
AcDbLine
 10
158.9488795810684
 20
-309.5999999999995
 30
0.0
 11
250.6999999999971
 21
-370.7672574201315
 31
0.0
  0
LINE
  5
27F4
330
2AE5
100
AcDbEntity
  8
0
 62
     0
100
AcDbLine
 10
-131.7518627303871
 20
-115.8000000000011
 30
0.0
 11
34.899999999996
 21
-226.9009581205172
 31
0.0
  0
LINE
  5
27F5
330
2AE5
100
AcDbEntity
  8
0
 62
     0
100
AcDbLine
 10
34.89999999999965
 20
-223.9009915851029
 30
0.0
 11
163.448840874953
 21
-309.5999999999995
 31
0.0
  0
LINE
  5
27F6
330
2AE5
100
AcDbEntity
  8
0
 62
     0
100
AcDbLine
 10
163.448840874953
 20
-309.5999999999995
 30
0.0
 11
250.6999999999953
 21
-367.7672908847143
 31
0.0
  0
LINE
  5
27F7
330
2AE5
100
AcDbEntity
  8
0
 62
     0
100
AcDbLine
 10
-127.2519014365025
 20
-115.7999999999993
 30
0.0
 11
34.899999999996
 21
-223.9009915851011
 31
0.0
  0
LINE
  5
27F8
330
2AE5
100
AcDbEntity
  8
0
 62
     0
100
AcDbLine
 10
34.89999999999965
 20
-220.9010250496876
 30
0.0
 11
167.9488021688394
 21
-309.5999999999995
 31
0.0
  0
LINE
  5
27F9
330
2AE5
100
AcDbEntity
  8
0
 62
     0
100
AcDbLine
 10
167.9488021688394
 20
-309.5999999999995
 30
0.0
 11
250.6999999999971
 21
-364.7673243492991
 31
0.0
  0
LINE
  5
27FA
330
2AE5
100
AcDbEntity
  8
0
 62
     0
100
AcDbLine
 10
-122.7519401426161
 20
-115.8000000000011
 30
0.0
 11
34.899999999996
 21
-220.9010250496858
 31
0.0
  0
LINE
  5
27FB
330
2AE5
100
AcDbEntity
  8
0
 62
     0
100
AcDbLine
 10
34.90000000000146
 20
-217.9010585142705
 30
0.0
 11
172.4487634627239
 21
-309.5999999999985
 31
0.0
  0
LINE
  5
27FC
330
2AE5
100
AcDbEntity
  8
0
 62
     0
100
AcDbLine
 10
172.4487634627239
 20
-309.5999999999985
 30
0.0
 11
250.6999999999971
 21
-361.7673578138829
 31
0.0
  0
LINE
  5
27FD
330
2AE5
100
AcDbEntity
  8
0
 62
     0
100
AcDbLine
 10
-118.2519788487297
 20
-115.7999999999993
 30
0.0
 11
34.89999999999782
 21
-217.9010585142687
 31
0.0
  0
LINE
  5
27FE
330
2AE5
100
AcDbEntity
  8
0
 62
     0
100
AcDbLine
 10
34.89999999999965
 20
-214.9010919788561
 30
0.0
 11
176.9487247566085
 21
-309.5999999999985
 31
0.0
  0
LINE
  5
27FF
330
2AE5
100
AcDbEntity
  8
0
 62
     0
100
AcDbLine
 10
176.9487247566085
 20
-309.5999999999985
 30
0.0
 11
250.6999999999953
 21
-358.7673912784667
 31
0.0
  0
LINE
  5
2800
330
2AE5
100
AcDbEntity
  8
0
 62
     0
100
AcDbLine
 10
-113.752017554847
 20
-115.8000000000002
 30
0.0
 11
34.899999999996
 21
-214.9010919788524
 31
0.0
  0
LINE
  5
2801
330
2AE5
100
AcDbEntity
  8
0
 62
     0
100
AcDbLine
 10
34.90000000000146
 20
-211.901125443439
 30
0.0
 11
181.4486860504966
 21
-309.5999999999995
 31
0.0
  0
LINE
  5
2802
330
2AE5
100
AcDbEntity
  8
0
 62
     0
100
AcDbLine
 10
181.4486860504966
 20
-309.5999999999995
 30
0.0
 11
250.6999999999971
 21
-355.7674247430505
 31
0.0
  0
LINE
  5
2803
330
2AE5
100
AcDbEntity
  8
0
 62
     0
100
AcDbLine
 10
-109.2520562609607
 20
-115.7999999999983
 30
0.0
 11
34.899999999996
 21
-211.9011254434354
 31
0.0
  0
LINE
  5
2804
330
2AE5
100
AcDbEntity
  8
0
 62
     0
100
AcDbLine
 10
34.90000000000146
 20
-208.9011589080237
 30
0.0
 11
185.948647344383
 21
-309.6000000000004
 31
0.0
  0
LINE
  5
2805
330
2AE5
100
AcDbEntity
  8
0
 62
     0
100
AcDbLine
 10
185.948647344383
 20
-309.6000000000004
 30
0.0
 11
250.6999999999971
 21
-352.7674582076343
 31
0.0
  0
LINE
  5
2806
330
2AE5
100
AcDbEntity
  8
0
 62
     0
100
AcDbLine
 10
-104.7520949670724
 20
-115.8000000000011
 30
0.0
 11
34.89999999999782
 21
-208.901158908021
 31
0.0
  0
LINE
  5
2807
330
2AE5
100
AcDbEntity
  8
0
 62
     0
100
AcDbLine
 10
34.90000000000146
 20
-205.9011923726066
 30
0.0
 11
190.4486086382658
 21
-309.5999999999985
 31
0.0
  0
LINE
  5
2808
330
2AE5
100
AcDbEntity
  8
0
 62
     0
100
AcDbLine
 10
190.4486086382658
 20
-309.5999999999985
 30
0.0
 11
250.6999999999953
 21
-349.7674916722171
 31
0.0
  0
LINE
  5
2809
330
2AE5
100
AcDbEntity
  8
0
 62
     0
100
AcDbLine
 10
-100.2521336731879
 20
-115.8000000000002
 30
0.0
 11
34.899999999996
 21
-205.9011923726039
 31
0.0
  0
LINE
  5
280A
330
2AE5
100
AcDbEntity
  8
0
 62
     0
100
AcDbLine
 10
34.89999999999965
 20
-202.9012258371913
 30
0.0
 11
194.948569932154
 21
-309.6000000000013
 31
0.0
  0
LINE
  5
280B
330
2AE5
100
AcDbEntity
  8
0
 62
     0
100
AcDbLine
 10
194.948569932154
 20
-309.6000000000013
 30
0.0
 11
250.6999999999953
 21
-346.7675251368019
 31
0.0
  0
LINE
  5
280C
330
2AE5
100
AcDbEntity
  8
0
 62
     0
100
AcDbLine
 10
-95.75217237930521
 20
-115.8000000000002
 30
0.0
 11
34.899999999996
 21
-202.9012258371886
 31
0.0
  0
LINE
  5
280D
330
2AE5
100
AcDbEntity
  8
0
 62
     0
100
AcDbLine
 10
34.90000000000146
 20
-199.9012593017751
 30
0.0
 11
199.4485312260385
 21
-309.6000000000004
 31
0.0
  0
LINE
  5
280E
330
2AE5
100
AcDbEntity
  8
0
 62
     0
100
AcDbLine
 10
199.4485312260385
 20
-309.6000000000004
 30
0.0
 11
250.6999999999953
 21
-343.7675586013857
 31
0.0
  0
LINE
  5
280F
330
2AE5
100
AcDbEntity
  8
0
 62
     0
100
AcDbLine
 10
-91.25221108541699
 20
-115.8000000000011
 30
0.0
 11
34.899999999996
 21
-199.9012593017715
 31
0.0
  0
LINE
  5
2810
330
2AE5
100
AcDbEntity
  8
0
 62
     0
100
AcDbLine
 10
34.89999999999965
 20
-196.9012927663588
 30
0.0
 11
203.9484925199249
 21
-309.6000000000004
 31
0.0
  0
LINE
  5
2811
330
2AE5
100
AcDbEntity
  8
0
 62
     0
100
AcDbLine
 10
203.9484925199249
 20
-309.6000000000004
 30
0.0
 11
250.6999999999971
 21
-340.7675920659703
 31
0.0
  0
LINE
  5
2812
330
2AE5
100
AcDbEntity
  8
0
 62
     0
100
AcDbLine
 10
-86.75224979153062
 20
-115.800000000002
 30
0.0
 11
34.89999999999782
 21
-196.9012927663561
 31
0.0
  0
LINE
  5
2813
330
2AE5
100
AcDbEntity
  8
0
 62
     0
100
AcDbLine
 10
34.89999999999965
 20
-193.9013262309418
 30
0.0
 11
208.4484538138076
 21
-309.5999999999995
 31
0.0
  0
LINE
  5
2814
330
2AE5
100
AcDbEntity
  8
0
 62
     0
100
AcDbLine
 10
208.4484538138076
 20
-309.5999999999995
 30
0.0
 11
250.6999999999953
 21
-337.7676255305523
 31
0.0
  0
LINE
  5
2815
330
2AE5
100
AcDbEntity
  8
0
 62
     0
100
AcDbLine
 10
-82.25228849764787
 20
-115.8000000000002
 30
0.0
 11
34.899999999996
 21
-193.9013262309399
 31
0.0
  0
LINE
  5
2816
330
2AE5
100
AcDbEntity
  8
0
 62
     0
100
AcDbLine
 10
34.89999999999965
 20
-190.9013596955246
 30
0.0
 11
212.9484151076958
 21
-309.6000000000004
 31
0.0
  0
LINE
  5
2817
330
2AE5
100
AcDbEntity
  8
0
 62
     0
100
AcDbLine
 10
212.9484151076958
 20
-309.6000000000004
 30
0.0
 11
250.6999999999971
 21
-334.767658995136
 31
0.0
  0
LINE
  5
2818
330
2AE5
100
AcDbEntity
  8
0
 62
     0
100
AcDbLine
 10
-77.75232720376152
 20
-115.7999999999993
 30
0.0
 11
34.89999999999782
 21
-190.9013596955228
 31
0.0
  0
LINE
  5
2819
330
2AE5
100
AcDbEntity
  8
0
 62
     0
100
AcDbLine
 10
34.90000000000146
 20
-187.9013931601091
 30
0.0
 11
217.4483764015822
 21
-309.6000000000004
 31
0.0
  0
LINE
  5
281A
330
2AE5
100
AcDbEntity
  8
0
 62
     0
100
AcDbLine
 10
217.4483764015822
 20
-309.6000000000004
 30
0.0
 11
250.6999999999971
 21
-331.7676924597199
 31
0.0
  0
LINE
  5
281B
330
2AE5
100
AcDbEntity
  8
0
 62
     0
100
AcDbLine
 10
-73.25236590987332
 20
-115.800000000002
 30
0.0
 11
34.899999999996
 21
-187.9013931601066
 31
0.0
  0
LINE
  5
281C
330
2AE5
100
AcDbEntity
  8
0
 62
     0
100
AcDbLine
 10
34.89999999999965
 20
-184.9014266246921
 30
0.0
 11
221.9483376954668
 21
-309.5999999999995
 31
0.0
  0
LINE
  5
281D
330
2AE5
100
AcDbEntity
  8
0
 62
     0
100
AcDbLine
 10
221.9483376954668
 20
-309.5999999999995
 30
0.0
 11
250.6999999999953
 21
-328.7677259243037
 31
0.0
  0
LINE
  5
281E
330
2AE5
100
AcDbEntity
  8
0
 62
     0
100
AcDbLine
 10
-68.75240461598878
 20
-115.8000000000002
 30
0.0
 11
34.899999999996
 21
-184.9014266246895
 31
0.0
  0
LINE
  5
281F
330
2AE5
100
AcDbEntity
  8
0
 62
     0
100
AcDbLine
 10
34.89999999999965
 20
-181.9014600892778
 30
0.0
 11
226.4482989893495
 21
-309.5999999999995
 31
0.0
  0
LINE
  5
2820
330
2AE5
100
AcDbEntity
  8
0
 62
     0
100
AcDbLine
 10
226.4482989893495
 20
-309.5999999999995
 30
0.0
 11
250.6999999999953
 21
-325.7677593888884
 31
0.0
  0
LINE
  5
2821
330
2AE5
100
AcDbEntity
  8
0
 62
     0
100
AcDbLine
 10
-64.25244332210604
 20
-115.8000000000011
 30
0.0
 11
34.89999999999418
 21
-181.9014600892741
 31
0.0
  0
LINE
  5
2822
330
2AE5
100
AcDbEntity
  8
0
 62
     0
100
AcDbLine
 10
34.90000000000146
 20
-178.9014935538607
 30
0.0
 11
230.9482602832395
 21
-309.5999999999995
 31
0.0
  0
LINE
  5
2823
330
2AE5
100
AcDbEntity
  8
0
 62
     0
100
AcDbLine
 10
230.9482602832395
 20
-309.5999999999995
 30
0.0
 11
250.6999999999971
 21
-322.7677928534713
 31
0.0
  0
LINE
  5
2824
330
2AE5
100
AcDbEntity
  8
0
 62
     0
100
AcDbLine
 10
-59.75248202821602
 20
-115.8000000000002
 30
0.0
 11
34.89999999999782
 21
-178.9014935538579
 31
0.0
  0
LINE
  5
2825
330
2AE5
100
AcDbEntity
  8
0
 62
     0
100
AcDbLine
 10
34.90000000000146
 20
-175.9015270184454
 30
0.0
 11
235.4482215771223
 21
-309.5999999999995
 31
0.0
  0
LINE
  5
2826
330
2AE5
100
AcDbEntity
  8
0
 62
     0
100
AcDbLine
 10
235.4482215771223
 20
-309.5999999999995
 30
0.0
 11
250.6999999999971
 21
-319.767826318056
 31
0.0
  0
LINE
  5
2827
330
2AE5
100
AcDbEntity
  8
0
 62
     0
100
AcDbLine
 10
-55.25252073433327
 20
-115.8000000000011
 30
0.0
 11
34.899999999996
 21
-175.9015270184427
 31
0.0
  0
LINE
  5
2828
330
2AE5
100
AcDbEntity
  8
0
 62
     0
100
AcDbLine
 10
34.89999999999965
 20
-172.9015604830283
 30
0.0
 11
239.9481828710068
 21
-309.5999999999985
 31
0.0
  0
LINE
  5
2829
330
2AE5
100
AcDbEntity
  8
0
 62
     0
100
AcDbLine
 10
239.9481828710068
 20
-309.5999999999985
 30
0.0
 11
250.6999999999953
 21
-316.7678597826389
 31
0.0
  0
LINE
  5
282A
330
2AE5
100
AcDbEntity
  8
0
 62
     0
100
AcDbLine
 10
-50.75255944044874
 20
-115.7999999999993
 30
0.0
 11
34.899999999996
 21
-172.9015604830256
 31
0.0
  0
LINE
  5
282B
330
2AE5
100
AcDbEntity
  8
0
 62
     0
100
AcDbLine
 10
34.89999999999965
 20
-169.9015939476121
 30
0.0
 11
244.448144164895
 21
-309.6000000000013
 31
0.0
  0
LINE
  5
282C
330
2AE5
100
AcDbEntity
  8
0
 62
     0
100
AcDbLine
 10
244.448144164895
 20
-309.6000000000013
 30
0.0
 11
250.6999999999971
 21
-313.7678932472245
 31
0.0
  0
LINE
  5
282D
330
2AE5
100
AcDbEntity
  8
0
 62
     0
100
AcDbLine
 10
-46.25259814656238
 20
-115.8000000000002
 30
0.0
 11
34.899999999996
 21
-169.9015939476103
 31
0.0
  0
LINE
  5
282E
330
2AE5
100
AcDbEntity
  8
0
 62
     0
100
AcDbLine
 10
34.90000000000146
 20
-166.9016274121958
 30
0.0
 11
248.9481054587813
 21
-309.5999999999995
 31
0.0
  0
LINE
  5
282F
330
2AE5
100
AcDbEntity
  8
0
 62
     0
100
AcDbLine
 10
248.9481054587813
 20
-309.5999999999995
 30
0.0
 11
250.6999999999953
 21
-310.7679267118065
 31
0.0
  0
LINE
  5
2830
330
2AE5
100
AcDbEntity
  8
0
 62
     0
100
AcDbLine
 10
-41.75263685267417
 20
-115.8000000000011
 30
0.0
 11
34.89999999999782
 21
-166.9016274121932
 31
0.0
  0
LINE
  5
2831
330
2AE5
100
AcDbEntity
  8
0
 62
     0
100
AcDbLine
 10
34.89999999999965
 20
-163.9016608767806
 30
0.0
 11
250.6999999999953
 21
-307.7679601763913
 31
0.0
  0
LINE
  5
2832
330
2AE5
100
AcDbEntity
  8
0
 62
     0
100
AcDbLine
 10
-37.25267555879145
 20
-115.8000000000011
 30
0.0
 11
34.899999999996
 21
-163.9016608767788
 31
0.0
  0
LINE
  5
2833
330
2AE5
100
AcDbEntity
  8
0
 62
     0
100
AcDbLine
 10
34.90000000000146
 20
-160.9016943413635
 30
0.0
 11
250.6999999999953
 21
-304.767993640974
 31
0.0
  0
LINE
  5
2834
330
2AE5
100
AcDbEntity
  8
0
 62
     0
100
AcDbLine
 10
-32.75271426490507
 20
-115.8000000000002
 30
0.0
 11
34.899999999996
 21
-160.9016943413608
 31
0.0
  0
LINE
  5
2835
330
2AE5
100
AcDbEntity
  8
0
 62
     0
100
AcDbLine
 10
34.90000000000146
 20
-157.9017278059481
 30
0.0
 11
250.6999999999971
 21
-301.7680271055588
 31
0.0
  0
LINE
  5
2836
330
2AE5
100
AcDbEntity
  8
0
 62
     0
100
AcDbLine
 10
-28.25275297101689
 20
-115.8000000000029
 30
0.0
 11
34.89999999999782
 21
-157.9017278059455
 31
0.0
  0
LINE
  5
2837
330
2AE5
100
AcDbEntity
  8
0
 62
     0
100
AcDbLine
 10
34.90000000000146
 20
-154.9017612705311
 30
0.0
 11
250.6999999999953
 21
-298.7680605701417
 31
0.0
  0
LINE
  5
2838
330
2AE5
100
AcDbEntity
  8
0
 62
     0
100
AcDbLine
 10
-23.75279167713234
 20
-115.8000000000011
 30
0.0
 11
34.899999999996
 21
-154.9017612705283
 31
0.0
  0
LINE
  5
2839
330
2AE5
100
AcDbEntity
  8
0
 62
     0
100
AcDbLine
 10
34.89999999999965
 20
-151.9017947351149
 30
0.0
 11
250.6999999999953
 21
-295.7680940347255
 31
0.0
  0
LINE
  5
283A
330
2AE5
100
AcDbEntity
  8
0
 62
     0
100
AcDbLine
 10
-19.2528303832496
 20
-115.8000000000002
 30
0.0
 11
34.899999999996
 21
-151.9017947351111
 31
0.0
  0
LINE
  5
283B
330
2AE5
100
AcDbEntity
  8
0
 62
     0
100
AcDbLine
 10
34.90000000000146
 20
-148.9018281996996
 30
0.0
 11
250.6999999999953
 21
-292.7681274993101
 31
0.0
  0
LINE
  5
283C
330
2AE5
100
AcDbEntity
  8
0
 62
     0
100
AcDbLine
 10
-14.75286908936323
 20
-115.8000000000002
 30
0.0
 11
34.899999999996
 21
-148.9018281996959
 31
0.0
  0
LINE
  5
283D
330
2AE5
100
AcDbEntity
  8
0
 62
     0
100
AcDbLine
 10
34.90000000000146
 20
-145.9018616642824
 30
0.0
 11
250.6999999999971
 21
-289.768160963893
 31
0.0
  0
LINE
  5
283E
330
2AE5
100
AcDbEntity
  8
0
 62
     0
100
AcDbLine
 10
-10.25290779547685
 20
-115.8000000000002
 30
0.0
 11
34.89999999999782
 21
-145.9018616642797
 31
0.0
  0
LINE
  5
283F
330
2AE5
100
AcDbEntity
  8
0
 62
     0
100
AcDbLine
 10
34.89999999999965
 20
-142.9018951288663
 30
0.0
 11
250.6999999999953
 21
-286.7681944284777
 31
0.0
  0
LINE
  5
2840
330
2AE5
100
AcDbEntity
  8
0
 62
     0
100
AcDbLine
 10
-5.752946501592305
 20
-115.8000000000002
 30
0.0
 11
34.899999999996
 21
-142.9018951288644
 31
0.0
  0
LINE
  5
2841
330
2AE5
100
AcDbEntity
  8
0
 62
     0
100
AcDbLine
 10
34.89999999999965
 20
-139.9019285934491
 30
0.0
 11
250.6999999999953
 21
-283.7682278930597
 31
0.0
  0
LINE
  5
2842
330
2AE5
100
AcDbEntity
  8
0
 62
     0
100
AcDbLine
 10
-1.252985207707751
 20
-115.7999999999993
 30
0.0
 11
34.899999999996
 21
-139.9019285934464
 31
0.0
  0
LINE
  5
2843
330
2AE5
100
AcDbEntity
  8
0
 62
     0
100
AcDbLine
 10
34.90000000000146
 20
-136.9019620580338
 30
0.0
 11
250.6999999999971
 21
-280.7682613576453
 31
0.0
  0
LINE
  5
2844
330
2AE5
100
AcDbEntity
  8
0
 62
     0
100
AcDbLine
 10
3.246976086182256
 20
-115.800000000002
 30
0.0
 11
34.899999999996
 21
-136.9019620580311
 31
0.0
  0
LINE
  5
2845
330
2AE5
100
AcDbEntity
  8
0
 62
     0
100
AcDbLine
 10
34.89999999999965
 20
-133.9019955226176
 30
0.0
 11
250.6999999999953
 21
-277.7682948222282
 31
0.0
  0
LINE
  5
2846
330
2AE5
100
AcDbEntity
  8
0
 62
     0
100
AcDbLine
 10
7.746937380064991
 20
-115.8000000000002
 30
0.0
 11
34.899999999996
 21
-133.901995522614
 31
0.0
  0
LINE
  5
2847
330
2AE5
100
AcDbEntity
  8
0
 62
     0
100
AcDbLine
 10
34.89999999999965
 20
-130.9020289872023
 30
0.0
 11
250.6999999999953
 21
-274.7683282868129
 31
0.0
  0
LINE
  5
2848
330
2AE5
100
AcDbEntity
  8
0
 62
     0
100
AcDbLine
 10
12.24689867394954
 20
-115.8000000000011
 30
0.0
 11
34.89999999999418
 21
-130.9020289871996
 31
0.0
  0
LINE
  5
2849
330
2AE5
100
AcDbEntity
  8
0
 62
     0
100
AcDbLine
 10
34.90000000000146
 20
-127.9020624517852
 30
0.0
 11
250.6999999999971
 21
-271.7683617513958
 31
0.0
  0
LINE
  5
284A
330
2AE5
100
AcDbEntity
  8
0
 62
     0
100
AcDbLine
 10
16.74685996783592
 20
-115.7999999999993
 30
0.0
 11
34.89999999999782
 21
-127.9020624517825
 31
0.0
  0
LINE
  5
284B
330
2AE5
100
AcDbEntity
  8
0
 62
     0
100
AcDbLine
 10
34.90000000000146
 20
-124.9020959163699
 30
0.0
 11
250.6999999999971
 21
-268.7683952159805
 31
0.0
  0
LINE
  5
284C
330
2AE5
100
AcDbEntity
  8
0
 62
     0
100
AcDbLine
 10
21.24682126172412
 20
-115.800000000002
 30
0.0
 11
34.899999999996
 21
-124.9020959163672
 31
0.0
  0
LINE
  5
284D
330
2AE5
100
AcDbEntity
  8
0
 62
     0
100
AcDbLine
 10
34.89999999999965
 20
-121.9021293809519
 30
0.0
 11
250.6999999999953
 21
-265.7684286805643
 31
0.0
  0
LINE
  5
284E
330
2AE5
100
AcDbEntity
  8
0
 62
     0
100
AcDbLine
 10
25.74678255560684
 20
-115.8000000000011
 30
0.0
 11
34.899999999996
 21
-121.9021293809501
 31
0.0
  0
LINE
  5
284F
330
2AE5
100
AcDbEntity
  8
0
 62
     0
100
AcDbLine
 10
34.90000000000146
 20
-118.9021628455384
 30
0.0
 11
250.6999999999971
 21
-262.768462145149
 31
0.0
  0
LINE
  5
2850
330
2AE5
100
AcDbEntity
  8
0
 62
     0
100
AcDbLine
 10
30.24674384949321
 20
-115.8000000000011
 30
0.0
 11
34.899999999996
 21
-118.9021628455348
 31
0.0
  0
LINE
  5
2851
330
2AE5
100
AcDbEntity
  8
0
 62
     0
100
AcDbLine
 10
34.90000000000146
 20
-115.9021963101204
 30
0.0
 11
250.6999999999971
 21
-259.7684956097319
 31
0.0
  0
LINE
  5
2852
330
2AE5
100
AcDbEntity
  8
0
 62
     0
100
AcDbLine
 10
34.74670514338142
 20
-115.800000000002
 30
0.0
 11
34.89999999999782
 21
-115.9021963101186
 31
0.0
  0
LINE
  5
2853
330
2AE5
100
AcDbEntity
  8
0
 62
     0
100
AcDbLine
 10
39.24666643726596
 20
-115.8000000000011
 30
0.0
 11
250.6999999999971
 21
-256.7685290743148
 31
0.0
  0
LINE
  5
2854
330
2AE5
100
AcDbEntity
  8
0
 62
     0
100
AcDbLine
 10
43.7466277311505
 20
-115.8000000000011
 30
0.0
 11
250.6999999999971
 21
-253.7685625388995
 31
0.0
  0
LINE
  5
2855
330
2AE5
100
AcDbEntity
  8
0
 62
     0
100
AcDbLine
 10
48.24658902503689
 20
-115.8000000000002
 30
0.0
 11
250.6999999999971
 21
-250.7685960034824
 31
0.0
  0
LINE
  5
2856
330
2AE5
100
AcDbEntity
  8
0
 62
     0
100
AcDbLine
 10
52.74655031892145
 20
-115.8000000000011
 30
0.0
 11
250.6999999999953
 21
-247.768629468067
 31
0.0
  0
LINE
  5
2857
330
2AE5
100
AcDbEntity
  8
0
 62
     0
100
AcDbLine
 10
57.246511612806
 20
-115.8000000000002
 30
0.0
 11
250.6999999999953
 21
-244.7686629326499
 31
0.0
  0
LINE
  5
2858
330
2AE5
100
AcDbEntity
  8
0
 62
     0
100
AcDbLine
 10
61.74647290669054
 20
-115.8000000000011
 30
0.0
 11
250.6999999999953
 21
-241.7686963972347
 31
0.0
  0
LINE
  5
2859
330
2AE5
100
AcDbEntity
  8
0
 62
     0
100
AcDbLine
 10
66.24643420058055
 20
-115.8000000000011
 30
0.0
 11
250.6999999999971
 21
-238.7687298618175
 31
0.0
  0
LINE
  5
285A
330
2AE5
100
AcDbEntity
  8
0
 62
     0
100
AcDbLine
 10
70.7463954944633
 20
-115.800000000002
 30
0.0
 11
250.6999999999953
 21
-235.7687633264031
 31
0.0
  0
LINE
  5
285B
330
2AE5
100
AcDbEntity
  8
0
 62
     0
100
AcDbLine
 10
75.24635678834963
 20
-115.8000000000002
 30
0.0
 11
250.6999999999971
 21
-232.768796790986
 31
0.0
  0
LINE
  5
285C
330
2AE5
100
AcDbEntity
  8
0
 62
     0
100
AcDbLine
 10
79.7463180822342
 20
-115.8000000000011
 30
0.0
 11
250.6999999999971
 21
-229.7688302555707
 31
0.0
  0
LINE
  5
285D
330
2AE5
100
AcDbEntity
  8
0
 62
     0
100
AcDbLine
 10
84.24627937612058
 20
-115.800000000002
 30
0.0
 11
250.6999999999971
 21
-226.7688637201536
 31
0.0
  0
LINE
  5
285E
330
2AE5
100
AcDbEntity
  8
0
 62
     0
100
AcDbLine
 10
88.74624067000516
 20
-115.800000000002
 30
0.0
 11
250.6999999999953
 21
-223.7688971847374
 31
0.0
  0
LINE
  5
285F
330
2AE5
100
AcDbEntity
  8
0
 62
     0
100
AcDbLine
 10
93.24620196389151
 20
-115.8000000000011
 30
0.0
 11
250.6999999999953
 21
-220.7689306493203
 31
0.0
  0
LINE
  5
2860
330
2AE5
100
AcDbEntity
  8
0
 62
     0
100
AcDbLine
 10
97.74616325777607
 20
-115.8000000000011
 30
0.0
 11
250.6999999999971
 21
-217.7689641139059
 31
0.0
  0
LINE
  5
2861
330
2AE5
100
AcDbEntity
  8
0
 62
     0
100
AcDbLine
 10
102.2461245516624
 20
-115.8000000000011
 30
0.0
 11
250.6999999999953
 21
-214.7689975784888
 31
0.0
  0
LINE
  5
2862
330
2AE5
100
AcDbEntity
  8
0
 62
     0
100
AcDbLine
 10
106.746085845547
 20
-115.8000000000002
 30
0.0
 11
250.6999999999989
 21
-211.7690310430735
 31
0.0
  0
LINE
  5
2863
330
2AE5
100
AcDbEntity
  8
0
 62
     0
100
AcDbLine
 10
111.2460471394333
 20
-115.8000000000002
 30
0.0
 11
250.7000000000007
 21
-208.7690645076582
 31
0.0
  0
LINE
  5
2864
330
2AE5
100
AcDbEntity
  8
0
 62
     0
100
AcDbLine
 10
115.7460084333161
 20
-115.7999999999993
 30
0.0
 11
250.6999999999989
 21
-205.769097972242
 31
0.0
  0
LINE
  5
2865
330
2AE5
100
AcDbEntity
  8
0
 62
     0
100
AcDbLine
 10
120.2459697272043
 20
-115.8000000000011
 30
0.0
 11
250.6999999999989
 21
-202.7691314368267
 31
0.0
  0
LINE
  5
2866
330
2AE5
100
AcDbEntity
  8
0
 62
     0
100
AcDbLine
 10
124.7459310210906
 20
-115.8000000000002
 30
0.0
 11
250.7000000000007
 21
-199.7691649014095
 31
0.0
  0
LINE
  5
2867
330
2AE5
100
AcDbEntity
  8
0
 62
     0
100
AcDbLine
 10
129.2458923149752
 20
-115.8000000000011
 30
0.0
 11
250.6999999999989
 21
-196.7691983659933
 31
0.0
  0
LINE
  5
2868
330
2AE5
100
AcDbEntity
  8
0
 62
     0
100
AcDbLine
 10
133.7458536088615
 20
-115.8000000000011
 30
0.0
 11
250.6999999999971
 21
-193.7692318305762
 31
0.0
  0
LINE
  5
2869
330
2AE5
100
AcDbEntity
  8
0
 62
     0
100
AcDbLine
 10
138.2458149027461
 20
-115.800000000002
 30
0.0
 11
250.6999999999989
 21
-190.7692652951618
 31
0.0
  0
LINE
  5
286A
330
2AE5
100
AcDbEntity
  8
0
 62
     0
100
AcDbLine
 10
142.7457761966325
 20
-115.8000000000002
 30
0.0
 11
250.6999999999989
 21
-187.7692987597447
 31
0.0
  0
LINE
  5
286B
330
2AE5
100
AcDbEntity
  8
0
 62
     0
100
AcDbLine
 10
147.245737490517
 20
-115.8000000000011
 30
0.0
 11
250.6999999999989
 21
-184.7693322243294
 31
0.0
  0
LINE
  5
286C
330
2AE5
100
AcDbEntity
  8
0
 62
     0
100
AcDbLine
 10
151.7456987844052
 20
-115.800000000002
 30
0.0
 11
250.6999999999989
 21
-181.7693656889123
 31
0.0
  0
LINE
  5
286D
330
2AE5
100
AcDbEntity
  8
0
 62
     0
100
AcDbLine
 10
156.2456600782898
 20
-115.800000000002
 30
0.0
 11
250.7000000000007
 21
-178.769399153497
 31
0.0
  0
LINE
  5
286E
330
2AE5
100
AcDbEntity
  8
0
 62
     0
100
AcDbLine
 10
160.7456213721743
 20
-115.8000000000011
 30
0.0
 11
250.7000000000007
 21
-175.7694326180808
 31
0.0
  0
LINE
  5
286F
330
2AE5
100
AcDbEntity
  8
0
 62
     0
100
AcDbLine
 10
165.2455826660589
 20
-115.7999999999993
 30
0.0
 11
250.6999999999989
 21
-172.7694660826637
 31
0.0
  0
LINE
  5
2870
330
2AE5
100
AcDbEntity
  8
0
 62
     0
100
AcDbLine
 10
169.7455439599452
 20
-115.8000000000011
 30
0.0
 11
250.6999999999989
 21
-169.7694995472475
 31
0.0
  0
LINE
  5
2871
330
2AE5
100
AcDbEntity
  8
0
 62
     0
100
AcDbLine
 10
174.2455052538316
 20
-115.8000000000002
 30
0.0
 11
250.6999999999989
 21
-166.7695330118304
 31
0.0
  0
LINE
  5
2872
330
2AE5
100
AcDbEntity
  8
0
 62
     0
100
AcDbLine
 10
178.7454665477144
 20
-115.8000000000002
 30
0.0
 11
250.6999999999989
 21
-163.7695664764151
 31
0.0
  0
LINE
  5
2873
330
2AE5
100
AcDbEntity
  8
0
 62
     0
100
AcDbLine
 10
183.2454278416026
 20
-115.8000000000011
 30
0.0
 11
250.6999999999989
 21
-160.769599940998
 31
0.0
  0
LINE
  5
2874
330
2AE5
100
AcDbEntity
  8
0
 62
     0
100
AcDbLine
 10
187.7453891354889
 20
-115.800000000002
 30
0.0
 11
250.7000000000007
 21
-157.7696334055836
 31
0.0
  0
LINE
  5
2875
330
2AE5
100
AcDbEntity
  8
0
 62
     0
100
AcDbLine
 10
192.2453504293717
 20
-115.8000000000002
 30
0.0
 11
250.6999999999989
 21
-154.7696668701665
 31
0.0
  0
LINE
  5
2876
330
2AE5
100
AcDbEntity
  8
0
 62
     0
100
AcDbLine
 10
196.7453117232562
 20
-115.8000000000011
 30
0.0
 11
250.6999999999989
 21
-151.7697003347512
 31
0.0
  0
LINE
  5
2877
330
2AE5
100
AcDbEntity
  8
0
 62
     0
100
AcDbLine
 10
201.2452730171462
 20
-115.8000000000011
 30
0.0
 11
250.7000000000007
 21
-148.769733799334
 31
0.0
  0
LINE
  5
2878
330
2AE5
100
AcDbEntity
  8
0
 62
     0
100
AcDbLine
 10
205.7452343110308
 20
-115.800000000002
 30
0.0
 11
250.7000000000007
 21
-145.7697672639187
 31
0.0
  0
LINE
  5
2879
330
2AE5
100
AcDbEntity
  8
0
 62
     0
100
AcDbLine
 10
210.2451956049135
 20
-115.8000000000011
 30
0.0
 11
250.6999999999989
 21
-142.7698007285025
 31
0.0
  0
LINE
  5
287A
330
2AE5
100
AcDbEntity
  8
0
 62
     0
100
AcDbLine
 10
214.7451568987999
 20
-115.8000000000011
 30
0.0
 11
250.7000000000007
 21
-139.7698341930872
 31
0.0
  0
LINE
  5
287B
330
2AE5
100
AcDbEntity
  8
0
 62
     0
100
AcDbLine
 10
219.2451181926863
 20
-115.8000000000011
 30
0.0
 11
250.6999999999989
 21
-136.7698676576692
 31
0.0
  0
LINE
  5
287C
330
2AE5
100
AcDbEntity
  8
0
 62
     0
100
AcDbLine
 10
223.7450794865708
 20
-115.7999999999993
 30
0.0
 11
250.6999999999989
 21
-133.7699011222521
 31
0.0
  0
LINE
  5
287D
330
2AE5
100
AcDbEntity
  8
0
 62
     0
100
AcDbLine
 10
228.2450407804572
 20
-115.8000000000002
 30
0.0
 11
250.6999999999989
 21
-130.7699345868368
 31
0.0
  0
LINE
  5
287E
330
2AE5
100
AcDbEntity
  8
0
 62
     0
100
AcDbLine
 10
232.7450020743417
 20
-115.7999999999983
 30
0.0
 11
250.7000000000007
 21
-127.7699680514206
 31
0.0
  0
LINE
  5
287F
330
2AE5
100
AcDbEntity
  8
0
 62
     0
100
AcDbLine
 10
237.2449633682281
 20
-115.8000000000011
 30
0.0
 11
250.6999999999989
 21
-124.7700015160053
 31
0.0
  0
LINE
  5
2880
330
2AE5
100
AcDbEntity
  8
0
 62
     0
100
AcDbLine
 10
241.7449246621127
 20
-115.8000000000002
 30
0.0
 11
250.6999999999989
 21
-121.7700349805882
 31
0.0
  0
LINE
  5
2881
330
2AE5
100
AcDbEntity
  8
0
 62
     0
100
AcDbLine
 10
246.244885955999
 20
-115.8000000000002
 30
0.0
 11
250.6999999999989
 21
-118.7700684451729
 31
0.0
  0
ENDBLK
  5
2882
330
2AE5
100
AcDbEntity
  8
0
100
AcDbBlockEnd
  0
BLOCK
  5
2AE8
330
2AE7
100
AcDbEntity
  8
0
100
AcDbBlockBegin
  2
*U76
 70
     1
 10
0.0
 20
0.0
 30
0.0
  3
*U76
  1

  0
INSERT
  5
2885
330
2AE7
100
AcDbEntity
  8
NOTE
100
AcDbBlockReference
  2
_OPEN30
 10
-280.0
 20
0.0
 30
0.0
 41
12.0
 42
12.0
 43
12.0
 50
312.6090116116894
  0
POLYLINE
  5
2886
330
2AE7
100
AcDbEntity
  8
NOTE
100
AcDb2dPolyline
 66
     1
 10
0.0
 20
0.0
 30
0.0
  0
VERTEX
  5
2991
330
2886
100
AcDbEntity
  8
NOTE
100
AcDbVertex
100
AcDb2dVertex
 10
-288.1239008361895
 20
8.831887408915472
 30
0.0
  0
VERTEX
  5
2992
330
2886
100
AcDbEntity
  8
NOTE
100
AcDbVertex
100
AcDb2dVertex
 10
-367.8693999922543
 20
95.52709505801338
 30
0.0
  0
VERTEX
  5
2993
330
2886
100
AcDbEntity
  8
NOTE
100
AcDbVertex
100
AcDb2dVertex
 10
-913.7093999922541
 20
95.52709505801338
 30
0.0
  0
SEQEND
  5
2994
330
2886
100
AcDbEntity
  8
NOTE
  0
ENDBLK
  5
2887
330
2AE7
100
AcDbEntity
  8
0
100
AcDbBlockEnd
  0
BLOCK
  5
2AEA
330
2AE9
100
AcDbEntity
  8
0
100
AcDbBlockBegin
  2
*U77
 70
     1
 10
0.0
 20
0.0
 30
0.0
  3
*U77
  1

  0
TEXT
  5
288A
330
2AE9
100
AcDbEntity
  8
NOTE
100
AcDbText
 10
-913.7093999922541
 20
113.5270950580134
 30
0.0
 40
64.0
  1
4×φ15取付穴
 41
0.9
100
AcDbText
  0
ENDBLK
  5
288B
330
2AE9
100
AcDbEntity
  8
0
100
AcDbBlockEnd
  0
ENDSEC
  0
SECTION
  2
ENTITIES
  0
TEXT
  5
953
330
2A08
100
AcDbEntity
  8
OUTLINE
  6
Continuous
 62
     3
100
AcDbText
 10
-418.231467
 20
13.715189
 30
0.0
 40
64.0
  1
 
 41
0.9
100
AcDbText
  0
TEXT
  5
954
330
2A08
100
AcDbEntity
  8
OUTLINE
  6
Continuous
 62
     3
100
AcDbText
 10
-418.231467
 20
13.715189
 30
0.0
 40
64.0
  1
 
 41
0.9
100
AcDbText
  0
TEXT
  5
955
330
2A08
100
AcDbEntity
  8
OUTLINE
  6
Continuous
 62
     3
100
AcDbText
 10
1341.41903
 20
-706.0588199999997
 30
0.0
 40
64.0
  1
 
 41
0.9
100
AcDbText
  0
TEXT
  5
956
330
2A08
100
AcDbEntity
  8
OUTLINE
  6
Continuous
 62
     3
100
AcDbText
 10
1341.41903
 20
-706.0588199999997
 30
0.0
 40
64.0
  1
 
 41
0.9
100
AcDbText
  0
TEXT
  5
957
330
2A08
100
AcDbEntity
  8
OUTLINE
  6
Continuous
 62
     3
100
AcDbText
 10
1341.41903
 20
-706.0588199999997
 30
0.0
 40
64.0
  1
 
 41
0.9
100
AcDbText
  0
TEXT
  5
958
330
2A08
100
AcDbEntity
  8
OUTLINE
  6
Continuous
 62
     3
100
AcDbText
 10
1341.41903
 20
-706.0588199999997
 30
0.0
 40
64.0
  1
 
 41
0.9
100
AcDbText
  0
INSERT
  5
28F0
330
2A08
100
AcDbEntity
  8
DETAIL
  6
Continuous
100
AcDbBlockReference
  2
*X74
 10
0.0
 20
0.0
 30
0.0
1001
ACADANNOTATIVE
1000
AnnotativeData
1002
{
1070
     1
1070
     0
1002
}
1001
ACAD
1000
HATCH
1002
{
1070
    19
1000
LINE
1040
19.969
1040
0.5880014249968896
1000
R14_HATCH_DATA
1000
4C07
1011
1.0
1021
0.0
1031
0.0
1011
0.0
1021
1.0
1031
0.0
1011
0.0
1021
0.0
1031
1.0
1040
0.0
1010
0.0
1020
0.0
1030
1.0
1000
LINE
1070
     0
1070
     0
1071
        2
1071
        7
1070
     0
1070
     1
1071
        6
1040
34.89999999999783
1040
-115.7999999999993
1040
-250.6999999999971
1040
-115.7999999999997
1040
-250.6999999999971
1040
-574.1999999999998
1040
250.6999999999971
1040
-574.2000000000001
1040
250.7000000000007
1040
-309.6000000000004
1040
34.89999999999783
1040
-309.6000000000008
1071
        0
1071
       23
1070
     0
1070
     1
1071
        4
1040
250.7000000000007
1040
-115.8000000000006
1040
34.89999999999783
1040
-115.8000000000006
1040
34.90000000000146
1040
-309.5999999999999
1040
250.6999999999971
1040
-309.6000000000004
1071
        0
1070
     0
1070
     1
1040
0.5880014249968896
1040
19.969
1070
     0
1070
     1
1040
0.5880014249968896
1040
19421.77395696386
1040
3345.365385395212
1040
-1.384598579568018
1040
2.076903172775084
1070
     0
1040
0.8686145429760394
1071
        2
1040
-115.1934448955617
1040
-229.318445765934
1040
0.0
1040
181.2833088850493
1040
-234.5214214842231
1040
0.0
1002
}
  0
INSERT
  5
28F1
330
2A08
100
AcDbEntity
  8
DETAIL
  6
Continuous
100
AcDbBlockReference
  2
*X75
 10
0.0
 20
0.0
 30
0.0
1001
ACADANNOTATIVE
1000
AnnotativeData
1002
{
1070
     1
1070
     0
1002
}
1001
ACAD
1000
HATCH
1002
{
1070
    19
1000
LINE
1040
19.969
1040
5.695183882182695
1000
R14_HATCH_DATA
1000
4C0D
1011
1.0
1021
0.0
1031
0.0
1011
0.0
1021
1.0
1031
0.0
1011
0.0
1021
0.0
1031
1.0
1040
0.0
1010
0.0
1020
0.0
1030
1.0
1000
LINE
1070
     0
1070
     0
1071
        2
1071
        7
1070
     0
1070
     1
1071
        6
1040
34.90000000000146
1040
-115.8000000000002
1040
-250.6999999999971
1040
-115.8000000000002
1040
-250.6999999999933
1040
-574.2000000000001
1040
250.7000000000007
1040
-574.2000000000001
1040
250.6999999999971
1040
-309.6000000000004
1040
34.90000000000146
1040
-309.5999999999995
1071
        0
1071
       23
1070
     0
1070
     1
1071
        4
1040
34.89999999999783
1040
-115.8000000000002
1040
34.89999999999783
1040
-309.6000000000004
1040
250.6999999999971
1040
-309.6000000000004
1040
250.7000000000007
1040
-115.8000000000002
1071
        0
1070
     0
1070
     1
1040
5.695183882182695
1040
19.969
1070
     0
1070
     1
1040
5.695183882182695
1040
19421.77395696386
1040
3345.365385395212
1040
1.384598579568018
1040
2.076903172775084
1070
     0
1040
2.87716741337424
1071
        2
1040
-158.9149599969787
1040
-200.0781878850617
1040
0.0
1040
146.278018232686
1040
-161.169323028243
1040
0.0
1002
}
  0
INSERT
  5
28F2
330
2A08
100
AcDbEntity
  8
0
100
AcDbBlockReference
  2
*U76
 10
0.0
 20
0.0
 30
0.0
1001
ACAD
1000
DSTYLE
1002
{
1070
    41
1040
12.0
1070
    42
1040
20.0
1070
    43
1040
200.0
1070
    44
1040
20.0
1070
    73
1070
     0
1070
    74
1070
     0
1070
    77
1070
     1
1070
    78
1070
     8
1070
   140
1040
64.0
1070
   147
1040
50.0
1070
   172
1070
     1
1070
   174
1070
     1
1070
   275
1070
     0
1070
   284
1070
     0
1070
   285
1070
     0
1070
   286
1070
     0
1070
   341
1005
0
1070
   342
1005
0
1002
}
  0
INSERT
  5
28F3
330
2A08
100
AcDbEntity
  8
0
100
AcDbBlockReference
  2
*U77
 10
0.0
 20
0.0
 30
0.0
  0
TEXT
  5
28F4
330
2A08
100
AcDbEntity
  8
ETC
100
AcDbText
 10
464.2937580189609
 20
246.2353749327341
 30
0.0
 40
64.0
  1
システム部材
 41
0.9
100
AcDbText
  0
TEXT
  5
28F5
330
2A08
100
AcDbEntity
  8
ETC
100
AcDbText
 10
470.5017560189588
 20
347.1187009327346
 30
0.0
 40
64.0
  1
QW-50SBM_6
 41
0.9
100
AcDbText
  0
TEXT
  5
28F6
330
2A08
100
AcDbEntity
  8
ETC
100
AcDbText
 10
464.2937580189609
 20
146.2353749327338
 30
0.0
 40
64.0
  1
QW-50SBM
 41
0.9
100
AcDbText
  0
POINT
  5
28F7
330
2A08
100
AcDbEntity
  8
ARRANGE
100
AcDbPoint
 10
0.0
 20
0.0
 30
0.0
 39
50.0
  0
LINE
  5
28F8
330
2A08
100
AcDbEntity
  8
DETAIL
100
AcDbLine
 10
250.7000000000007
 20
-574.1999999999998
 30
0.0
 11
250.7000000000007
 21
-115.8000000000002
 31
0.0
  0
LINE
  5
28F9
330
2A08
100
AcDbEntity
  8
DETAIL
100
AcDbLine
 10
-250.6999999999971
 20
-115.7999999999997
 30
0.0
 11
-250.6999999999971
 21
-574.1999999999998
 31
0.0
  0
LINE
  5
28FA
330
2A08
100
AcDbEntity
  8
BASIS
100
AcDbLine
 10
0.0
 20
25.0
 30
0.0
 11
0.0
 21
-635.9999999999994
 31
0.0
  0
LINE
  5
28FB
330
2A08
100
AcDbEntity
  8
DETAIL
100
AcDbLine
 10
-250.6999999999971
 20
-115.7999999999997
 30
0.0
 11
250.7000000000007
 21
-115.8000000000002
 31
0.0
  0
LINE
  5
28FC
330
2A08
100
AcDbEntity
  8
NOTE
100
AcDbLine
 10
-280.0
 20
12.5
 30
0.0
 11
-280.0
 21
-12.50000000000045
 31
0.0
  0
CIRCLE
  5
28FD
330
2A08
100
AcDbEntity
  8
ARRANGE
100
AcDbCircle
 10
0.0
 20
0.0
 30
0.0
 40
40.0
  0
LINE
  5
28FE
330
2A08
100
AcDbEntity
  8
NOTE
100
AcDbLine
 10
280.0
 20
-12.49999999999954
 30
0.0
 11
280.0
 21
12.5
 31
0.0
  0
LINE
  5
28FF
330
2A08
100
AcDbEntity
  8
DETAIL
100
AcDbLine
 10
250.7000000000007
 20
-574.1999999999998
 30
0.0
 11
-250.6999999999971
 21
-574.1999999999998
 31
0.0
  0
LINE
  5
2900
330
2A08
100
AcDbEntity
  8
DETAIL
100
AcDbLine
 10
-266.5
 20
-100.0
 30
0.0
 11
-266.5
 21
-610.9999999999994
 31
0.0
  0
LINE
  5
2901
330
2A08
100
AcDbEntity
  8
DETAIL
100
AcDbLine
 10
266.5
 20
-611.0
 30
0.0
 11
266.5
 21
-100.0
 31
0.0
  0
LINE
  5
2902
330
2A08
100
AcDbEntity
  8
DETAIL
100
AcDbLine
 10
280.0
 20
-589.9999999999994
 30
0.0
 11
280.0
 21
-85.0
 31
0.0
  0
LINE
  5
2903
330
2A08
100
AcDbEntity
  8
DETAIL
100
AcDbLine
 10
-280.0
 20
-85.0
 30
0.0
 11
-280.0
 21
-590.0
 31
0.0
  0
LINE
  5
2904
330
2A08
100
AcDbEntity
  8
DETAIL
100
AcDbLine
 10
-280.0
 20
-85.0
 30
0.0
 11
280.0
 21
-85.0
 31
0.0
  0
LINE
  5
2905
330
2A08
100
AcDbEntity
  8
DETAIL
100
AcDbLine
 10
-266.5
 20
-100.0
 30
0.0
 11
266.5
 21
-100.0
 31
0.0
  0
LINE
  5
2906
330
2A08
100
AcDbEntity
  8
DETAIL
100
AcDbLine
 10
-305.0
 20
0.0
 30
0.0
 11
305.0
 21
0.0
 31
0.0
  0
LINE
  5
2907
330
2A08
100
AcDbEntity
  8
DETAIL
100
AcDbLine
 10
-305.0
 20
-8.0
 30
0.0
 11
305.0
 21
-8.0
 31
0.0
  0
LINE
  5
2908
330
2A08
100
AcDbEntity
  8
DETAIL
100
AcDbLine
 10
-266.5
 20
-200.0
 30
0.0
 11
-266.5
 21
-100.0
 31
0.0
  0
LINE
  5
2909
330
2A08
100
AcDbEntity
  8
DETAIL
100
AcDbLine
 10
-305.0
 20
-8.0
 30
0.0
 11
-305.0
 21
0.0
 31
0.0
  0
LINE
  5
290A
330
2A08
100
AcDbEntity
  8
DETAIL
100
AcDbLine
 10
-266.5
 20
-8.0
 30
0.0
 11
-266.5
 21
-85.0
 31
0.0
  0
LINE
  5
290B
330
2A08
100
AcDbEntity
  8
DETAIL
100
AcDbLine
 10
-266.5
 20
-85.0
 30
0.0
 11
-266.5
 21
-8.0
 31
0.0
  0
LINE
  5
290C
330
2A08
100
AcDbEntity
  8
DETAIL
100
AcDbLine
 10
266.5
 20
-85.0
 30
0.0
 11
266.5
 21
-8.0
 31
0.0
  0
LINE
  5
290D
330
2A08
100
AcDbEntity
  8
DETAIL
100
AcDbLine
 10
305.0
 20
-8.0
 30
0.0
 11
305.0
 21
0.0
 31
0.0
  0
LINE
  5
290E
330
2A08
100
AcDbEntity
  8
DETAIL
100
AcDbLine
 10
266.5
 20
-590.0
 30
0.0
 11
-280.0
 21
-590.0
 31
0.0
  0
LINE
  5
290F
330
2A08
100
AcDbEntity
  8
DETAIL
100
AcDbLine
 10
123.5
 20
-590.0
 30
0.0
 11
280.0
 21
-590.0
 31
0.0
  0
LINE
  5
2910
330
2A08
100
AcDbEntity
  8
DETAIL
100
AcDbLine
 10
266.5
 20
-605.0
 30
0.0
 11
-266.5
 21
-605.0
 31
0.0
  0
LINE
  5
2911
330
2A08
100
AcDbEntity
  8
DETAIL
100
AcDbLine
 10
266.5
 20
-611.0
 30
0.0
 11
-266.5
 21
-610.9999999999994
 31
0.0
  0
LINE
  5
2912
330
2A08
100
AcDbEntity
  8
OUTLINE
100
AcDbLine
 10
-266.5
 20
-100.0
 30
0.0
 11
-266.5
 21
-610.9999999999994
 31
0.0
  0
LINE
  5
2913
330
2A08
100
AcDbEntity
  8
OUTLINE
100
AcDbLine
 10
266.5
 20
-611.0
 30
0.0
 11
266.5
 21
-100.0
 31
0.0
  0
LINE
  5
2914
330
2A08
100
AcDbEntity
  8
OUTLINE
100
AcDbLine
 10
280.0
 20
-589.9999999999994
 30
0.0
 11
280.0
 21
-85.0
 31
0.0
  0
LINE
  5
2915
330
2A08
100
AcDbEntity
  8
OUTLINE
100
AcDbLine
 10
-280.0
 20
-85.0
 30
0.0
 11
-280.0
 21
-590.0
 31
0.0
  0
LINE
  5
2916
330
2A08
100
AcDbEntity
  8
OUTLINE
100
AcDbLine
 10
-280.0
 20
-85.0
 30
0.0
 11
280.0
 21
-85.0
 31
0.0
  0
LINE
  5
2917
330
2A08
100
AcDbEntity
  8
OUTLINE
100
AcDbLine
 10
-266.5
 20
-100.0
 30
0.0
 11
266.5
 21
-100.0
 31
0.0
  0
LINE
  5
2918
330
2A08
100
AcDbEntity
  8
OUTLINE
100
AcDbLine
 10
-305.0
 20
-8.0
 30
0.0
 11
305.0
 21
-8.0
 31
0.0
  0
LINE
  5
2919
330
2A08
100
AcDbEntity
  8
OUTLINE
100
AcDbLine
 10
-266.5
 20
-200.0
 30
0.0
 11
-266.5
 21
-100.0
 31
0.0
  0
LINE
  5
291A
330
2A08
100
AcDbEntity
  8
OUTLINE
100
AcDbLine
 10
-305.0
 20
-8.0
 30
0.0
 11
-305.0
 21
0.0
 31
0.0
  0
LINE
  5
291B
330
2A08
100
AcDbEntity
  8
OUTLINE
100
AcDbLine
 10
-266.5
 20
-8.0
 30
0.0
 11
-266.5
 21
-85.0
 31
0.0
  0
LINE
  5
291C
330
2A08
100
AcDbEntity
  8
OUTLINE
100
AcDbLine
 10
-266.5
 20
-85.0
 30
0.0
 11
-266.5
 21
-8.0
 31
0.0
  0
LINE
  5
291D
330
2A08
100
AcDbEntity
  8
OUTLINE
100
AcDbLine
 10
266.5
 20
-85.0
 30
0.0
 11
266.5
 21
-8.0
 31
0.0
  0
LINE
  5
291E
330
2A08
100
AcDbEntity
  8
OUTLINE
100
AcDbLine
 10
305.0
 20
-8.0
 30
0.0
 11
305.0
 21
0.0
 31
0.0
  0
LINE
  5
291F
330
2A08
100
AcDbEntity
  8
OUTLINE
100
AcDbLine
 10
266.5
 20
-590.0
 30
0.0
 11
-280.0
 21
-590.0
 31
0.0
  0
LINE
  5
2920
330
2A08
100
AcDbEntity
  8
OUTLINE
100
AcDbLine
 10
123.5
 20
-590.0
 30
0.0
 11
280.0
 21
-590.0
 31
0.0
  0
LINE
  5
2921
330
2A08
100
AcDbEntity
  8
OUTLINE
100
AcDbLine
 10
266.5
 20
-605.0
 30
0.0
 11
-266.5
 21
-605.0
 31
0.0
  0
LINE
  5
2922
330
2A08
100
AcDbEntity
  8
OUTLINE
100
AcDbLine
 10
266.5
 20
-611.0
 30
0.0
 11
-266.5
 21
-610.9999999999994
 31
0.0
  0
LINE
  5
2923
330
2A08
100
AcDbEntity
  8
NOTE
100
AcDbLine
 39
50.0
 10
-292.5
 20
0.0
 30
0.0
 11
-267.5
 21
0.0
 31
0.0
  0
LINE
  5
2924
330
2A08
100
AcDbEntity
  8
NOTE
100
AcDbLine
 39
50.0
 10
267.5
 20
0.0
 30
0.0
 11
292.5
 21
0.0
 31
0.0
  0
LINE
  5
2925
330
2A08
100
AcDbEntity
  8
OUTLINE
100
AcDbLine
 39
50.0
 10
-305.0
 20
0.0
 30
0.0
 11
305.0
 21
0.0
 31
0.0
  0
LINE
  5
2926
330
2A08
100
AcDbEntity
  8
DETAIL
100
AcDbLine
 10
250.7000000000007
 20
-574.1999999999998
 30
0.0
 11
250.7000000000007
 21
-115.8000000000002
 31
0.0
  0
LINE
  5
2927
330
2A08
100
AcDbEntity
  8
DETAIL
100
AcDbLine
 10
-250.6999999999971
 20
-115.7999999999997
 30
0.0
 11
-250.6999999999971
 21
-574.1999999999998
 31
0.0
  0
LINE
  5
2928
330
2A08
100
AcDbEntity
  8
DETAIL
100
AcDbLine
 10
-250.6999999999971
 20
-115.7999999999997
 30
0.0
 11
250.7000000000007
 21
-115.8000000000002
 31
0.0
  0
LINE
  5
2929
330
2A08
100
AcDbEntity
  8
DETAIL
100
AcDbLine
 10
250.7000000000007
 20
-574.1999999999998
 30
0.0
 11
-250.6999999999971
 21
-574.1999999999998
 31
0.0
  0
LINE
  5
292A
330
2A08
100
AcDbEntity
  8
SIZE
100
AcDbLine
 10
305.0
 20
20.0
 30
0.0
 11
305.0
 21
299.6865929365171
 31
0.0
  0
LINE
  5
292B
330
2A08
100
AcDbEntity
  8
SIZE
100
AcDbLine
 10
-305.0
 20
20.0
 30
0.0
 11
-305.0
 21
299.6865929365171
 31
0.0
  0
LINE
  5
292C
330
2A08
100
AcDbEntity
  8
SIZE
100
AcDbLine
 10
293.0
 20
279.686592936517
 30
0.0
 11
-293.0
 21
279.686592936517
 31
0.0
  0
INSERT
  5
292D
330
2A08
100
AcDbEntity
  8
SIZE
100
AcDbBlockReference
  2
_DOTBLANK
 10
305.0
 20
279.686592936517
 30
0.0
 41
12.0
 42
12.0
 43
12.0
  0
INSERT
  5
292E
330
2A08
100
AcDbEntity
  8
SIZE
100
AcDbBlockReference
  2
_DOTBLANK
 10
-305.0
 20
279.686592936517
 30
0.0
 41
12.0
 42
12.0
 43
12.0
 50
180.0
  0
LINE
  5
292F
330
2A08
100
AcDbEntity
  8
SIZE
100
AcDbLine
 10
280.0
 20
32.5
 30
0.0
 11
280.0
 21
181.1320910096174
 31
0.0
  0
LINE
  5
2930
330
2A08
100
AcDbEntity
  8
SIZE
100
AcDbLine
 10
-280.0
 20
32.5
 30
0.0
 11
-280.0
 21
181.1320910096174
 31
0.0
  0
LINE
  5
2931
330
2A08
100
AcDbEntity
  8
SIZE
100
AcDbLine
 10
268.0
 20
161.1320910096174
 30
0.0
 11
-268.0
 21
161.1320910096174
 31
0.0
  0
INSERT
  5
2932
330
2A08
100
AcDbEntity
  8
SIZE
100
AcDbBlockReference
  2
_DOTBLANK
 10
280.0
 20
161.1320910096174
 30
0.0
 41
12.0
 42
12.0
 43
12.0
  0
INSERT
  5
2933
330
2A08
100
AcDbEntity
  8
SIZE
100
AcDbBlockReference
  2
_DOTBLANK
 10
-280.0
 20
161.1320910096174
 30
0.0
 41
12.0
 42
12.0
 43
12.0
 50
180.0
  0
LINE
  5
2934
330
2A08
100
AcDbEntity
  8
SIZE
100
AcDbLine
 10
325.0
 20
0.0
 30
0.0
 11
426.4152835010571
 21
0.0
 31
0.0
  0
LINE
  5
2935
330
2A08
100
AcDbEntity
  8
SIZE
100
AcDbLine
 10
325.0
 20
-8.0
 30
0.0
 11
426.4152835010571
 21
-8.0
 31
0.0
  0
LINE
  5
2936
330
2A08
100
AcDbEntity
  8
SIZE
100
AcDbLine
 10
406.4152835010572
 20
12.0
 30
0.0
 11
406.4152835010572
 21
24.0
 31
0.0
  0
LINE
  5
2937
330
2A08
100
AcDbEntity
  8
SIZE
100
AcDbLine
 10
406.4152835010572
 20
-20.0
 30
0.0
 11
406.4152835010572
 21
-90.39999999999997
 31
0.0
  0
INSERT
  5
2938
330
2A08
100
AcDbEntity
  8
SIZE
100
AcDbBlockReference
  2
_DOTBLANK
 10
406.4152835010572
 20
0.0
 30
0.0
 41
12.0
 42
12.0
 43
12.0
 50
270.0
  0
INSERT
  5
2939
330
2A08
100
AcDbEntity
  8
SIZE
100
AcDbBlockReference
  2
_DOTBLANK
 10
406.4152835010572
 20
-8.0
 30
0.0
 41
12.0
 42
12.0
 43
12.0
 50
90.0
  0
LINE
  5
293A
330
2A08
100
AcDbEntity
  8
SIZE
100
AcDbLine
 10
280.0
 20
-610.0
 30
0.0
 11
280.0
 21
-789.9689853962842
 31
0.0
  0
LINE
  5
293B
330
2A08
100
AcDbEntity
  8
SIZE
100
AcDbLine
 10
-280.0
 20
-610.0
 30
0.0
 11
-280.0
 21
-789.9689853962842
 31
0.0
  0
LINE
  5
293C
330
2A08
100
AcDbEntity
  8
SIZE
100
AcDbLine
 10
268.0
 20
-769.9689853962842
 30
0.0
 11
-268.0
 21
-769.9689853962842
 31
0.0
  0
INSERT
  5
293D
330
2A08
100
AcDbEntity
  8
SIZE
100
AcDbBlockReference
  2
_DOTBLANK
 10
280.0
 20
-769.9689853962842
 30
0.0
 41
12.0
 42
12.0
 43
12.0
  0
INSERT
  5
293E
330
2A08
100
AcDbEntity
  8
SIZE
100
AcDbBlockReference
  2
_DOTBLANK
 10
-280.0
 20
-769.9689853962842
 30
0.0
 41
12.0
 42
12.0
 43
12.0
 50
180.0
  0
LINE
  5
293F
330
2A08
100
AcDbEntity
  8
SIZE
100
AcDbLine
 10
-300.0
 20
-590.0
 30
0.0
 11
-551.7312593367242
 21
-590.0
 31
0.0
  0
LINE
  5
2940
330
2A08
100
AcDbEntity
  8
SIZE
100
AcDbLine
 10
-286.5
 20
-610.9999999999994
 30
0.0
 11
-551.7312593367242
 21
-610.9999999999994
 31
0.0
  0
LINE
  5
2941
330
2A08
100
AcDbEntity
  8
SIZE
100
AcDbLine
 10
-531.7312593367237
 20
-578.0
 30
0.0
 11
-531.7312593367237
 21
-566.0
 31
0.0
  0
LINE
  5
2942
330
2A08
100
AcDbEntity
  8
SIZE
100
AcDbLine
 10
-531.7312593367237
 20
-622.9999999999994
 30
0.0
 11
-531.7312593367237
 21
-723.5714285714281
 31
0.0
  0
INSERT
  5
2943
330
2A08
100
AcDbEntity
  8
SIZE
100
AcDbBlockReference
  2
_DOTBLANK
 10
-531.7312593367237
 20
-590.0
 30
0.0
 41
12.0
 42
12.0
 43
12.0
 50
270.0
  0
INSERT
  5
2944
330
2A08
100
AcDbEntity
  8
SIZE
100
AcDbBlockReference
  2
_DOTBLANK
 10
-531.7312593367237
 20
-610.9999999999994
 30
0.0
 41
12.0
 42
12.0
 43
12.0
 50
90.0
  0
LINE
  5
2945
330
2A08
100
AcDbEntity
  8
SIZE
100
AcDbLine
 10
-300.0
 20
-590.0
 30
0.0
 11
-551.7312593367242
 21
-590.0
 31
0.0
  0
LINE
  5
2946
330
2A08
100
AcDbEntity
  8
SIZE
100
AcDbLine
 10
-325.0
 20
0.0
 30
0.0
 11
-551.7312593367242
 21
0.0000000000001137
 31
0.0
  0
LINE
  5
2947
330
2A08
100
AcDbEntity
  8
SIZE
100
AcDbLine
 10
-531.7312593367237
 20
-578.0
 30
0.0
 11
-531.7312593367237
 21
-11.99999999999988
 31
0.0
  0
INSERT
  5
2948
330
2A08
100
AcDbEntity
  8
SIZE
100
AcDbBlockReference
  2
_DOTBLANK
 10
-531.7312593367237
 20
-590.0
 30
0.0
 41
12.0
 42
12.0
 43
12.0
 50
270.0
  0
INSERT
  5
2949
330
2A08
100
AcDbEntity
  8
SIZE
100
AcDbBlockReference
  2
_DOTBLANK
 10
-531.7312593367237
 20
0.0000000000001137
 30
0.0
 41
12.0
 42
12.0
 43
12.0
 50
90.0
  0
TEXT
  5
294A
330
2A08
100
AcDbEntity
  8
SIZE
100
AcDbText
 10
-74.05714285714293
 20
-759.9689853962842
 30
0.0
 40
64.0
  1
560
 41
0.9
100
AcDbText
  0
TEXT
  5
294B
330
2A08
100
AcDbEntity
  8
SIZE
100
AcDbText
 10
-541.7312593367237
 20
-713.571428571428
 30
0.0
 40
64.0
  1
21
 50
90.0
 41
0.9
100
AcDbText
  0
TEXT
  5
294C
330
2A08
100
AcDbEntity
  8
SIZE
100
AcDbText
 10
-541.7312593367237
 20
-369.0571428571427
 30
0.0
 40
64.0
  1
590
 50
90.0
 41
0.9
100
AcDbText
  0
TEXT
  5
294D
330
2A08
100
AcDbEntity
  8
SIZE
100
AcDbText
 10
-74.61302049113601
 20
171.1320910096174
 30
0.0
 40
64.0
  1
560
 41
0.9
100
AcDbText
  0
TEXT
  5
294E
330
2A08
100
AcDbEntity
  8
SIZE
100
AcDbText
 10
-68.57142857142844
 20
289.6865929365171
 30
0.0
 40
64.0
  1
610
 41
0.9
100
AcDbText
  0
TEXT
  5
294F
330
2A08
100
AcDbEntity
  8
SIZE
100
AcDbText
 10
396.4152835010573
 20
-80.39999999999997
 30
0.0
 40
64.0
  1
8
 50
90.0
 41
0.9
100
AcDbText
  0
ENDSEC
  0
SECTION
  2
OBJECTS
  0
DICTIONARY
  5
29A0
330
0
100
AcDbDictionary
281
     1
  3
ACAD_2007HEADERVARS_RT
350
2BFD
  3
ACAD_COLOR
350
29FE
  3
ACAD_GROUP
350
29A1
  3
ACAD_LAYOUT
350
29FD
  3
ACAD_MATERIAL
350
29A4
  3
ACAD_MLEADERSTYLE
350
2A01
  3
ACAD_MLINESTYLE
350
29FA
  3
ACAD_PLOTSETTINGS
350
29FC
  3
ACAD_PLOTSTYLENAME
350
29A2
  3
ACAD_SCALELIST
350
29CE
  3
ACAD_TABLESTYLE
350
29FF
  3
ACAD_VISUALSTYLE
350
29BD
  3
ACDB_RECOMPOSE_DATA
350
2BFB
  3
AcDbVariableDictionary
350
2BF2
  3
AcmDictionary
350
2B9E
  3
AMG
350
2AEB
  3
AMGSNAPSETTINGS
350
2BC6
  3
DWGPROPS
350
2BFC
  3
MAPISURF_MODULE
350
2B6B
  0
DICTIONARY
  5
2BCD
330
29F0
100
AcDbDictionary
280
     1
281
     1
  3
ADSK_XREC_LAYER_RECONCILED
360
2BCE
  0
DICTIONARY
  5
2BCF
330
2A1F
100
AcDbDictionary
280
     1
281
     1
  3
ADSK_XREC_LAYER_RECONCILED
360
2BD0
  0
DICTIONARY
  5
2BD1
330
2A20
100
AcDbDictionary
280
     1
281
     1
  3
ADSK_XREC_LAYER_RECONCILED
360
2BD2
  0
DICTIONARY
  5
2BD3
330
2A21
100
AcDbDictionary
280
     1
281
     1
  3
ADSK_XREC_LAYER_RECONCILED
360
2BD4
  0
DICTIONARY
  5
2BD5
330
2A22
100
AcDbDictionary
280
     1
281
     1
  3
ADSK_XREC_LAYER_RECONCILED
360
2BD6
  0
DICTIONARY
  5
2BD7
330
2A23
100
AcDbDictionary
280
     1
281
     1
  3
ADSK_XREC_LAYER_RECONCILED
360
2BD8
  0
DICTIONARY
  5
2BD9
330
2A25
100
AcDbDictionary
280
     1
281
     1
  3
ADSK_XREC_LAYER_RECONCILED
360
2BDA
  0
DICTIONARY
  5
2BDB
330
2A26
100
AcDbDictionary
280
     1
281
     1
  3
ADSK_XREC_LAYER_RECONCILED
360
2BDC
  0
DICTIONARY
  5
2BDD
330
2A27
100
AcDbDictionary
280
     1
281
     1
  3
ADSK_XREC_LAYER_RECONCILED
360
2BDE
  0
DICTIONARY
  5
2BDF
330
2A28
100
AcDbDictionary
280
     1
281
     1
  3
ADSK_XREC_LAYER_RECONCILED
360
2BE0
  0
DICTIONARY
  5
2BE1
330
2A29
100
AcDbDictionary
280
     1
281
     1
  3
ADSK_XREC_LAYER_RECONCILED
360
2BE2
  0
DICTIONARY
  5
2BE3
330
2A08
100
AcDbDictionary
280
     1
281
     1
  3
ACAD_INDEX
360
2BE4
  0
DICTIONARY
  5
2BFD
102
{ACAD_REACTORS
330
29A0
102
}
330
29A0
100
AcDbDictionary
281
     1
  3
DIMARCSYM
350
2BFE
  3
DIMLTEX1
350
2C00
  3
DIMLTEX2
350
2C01
  3
DIMLTYPE
350
2BFF
  0
DICTIONARY
  5
29FE
102
{ACAD_REACTORS
330
29A0
102
}
330
29A0
100
AcDbDictionary
281
     1
  0
DICTIONARY
  5
29A1
102
{ACAD_REACTORS
330
29A0
102
}
330
29A0
100
AcDbDictionary
281
     1
  0
DICTIONARY
  5
29FD
102
{ACAD_REACTORS
330
29A0
102
}
330
29A0
100
AcDbDictionary
281
     1
  3
Model
350
2A0B
  3
レイアウト1
350
2A07
  0
DICTIONARY
  5
29A4
102
{ACAD_REACTORS
330
29A0
102
}
330
29A0
100
AcDbDictionary
281
     1
  3
ByBlock
350
29AD
  3
ByLayer
350
29A5
  3
Global
350
29B5
  0
DICTIONARY
  5
2A01
102
{ACAD_REACTORS
330
29A0
102
}
330
29A0
100
AcDbDictionary
281
     1
  3
Standard
350
2A02
  0
DICTIONARY
  5
29FA
102
{ACAD_REACTORS
330
29A0
102
}
330
29A0
100
AcDbDictionary
281
     1
  3
Standard
350
29FB
  0
DICTIONARY
  5
29FC
102
{ACAD_REACTORS
330
29A0
102
}
330
29A0
100
AcDbDictionary
281
     1
  0
ACDBDICTIONARYWDFLT
  5
29A2
102
{ACAD_REACTORS
330
29A0
102
}
330
29A0
100
AcDbDictionary
281
     1
  3
Normal
350
29A3
100
AcDbDictionaryWithDefault
340
29A3
  0
DICTIONARY
  5
29CE
102
{ACAD_REACTORS
330
29A0
102
}
330
29A0
100
AcDbDictionary
281
     1
  3
A0
350
29CF
  3
A1
350
29D0
  3
A2
350
29D1
  3
A3
350
29D2
  3
A4
350
29D3
  3
A5
350
29D4
  3
A6
350
29D5
  3
A7
350
29D6
  3
A8
350
29D7
  3
A9
350
29D8
  3
B0
350
29D9
  3
B1
350
29DA
  3
B2
350
29DB
  3
B3
350
29DC
  3
B4
350
29DD
  3
B5
350
29DE
  3
B6
350
29DF
  3
B7
350
29E0
  3
B8
350
29E1
  3
B9
350
29E2
  3
C0
350
29E3
  3
C1
350
29E4
  3
C2
350
29E5
  3
C3
350
29E6
  3
C4
350
29E7
  3
C5
350
29E8
  3
C6
350
29E9
  3
C7
350
29EA
  3
C8
350
29EB
  3
C9
350
29EC
  3
D0
350
29ED
  3
D1
350
29EE
  3
D2
350
29EF
  0
DICTIONARY
  5
29FF
102
{ACAD_REACTORS
330
29A0
102
}
330
29A0
100
AcDbDictionary
281
     1
  3
Standard
350
2A00
  0
DICTIONARY
  5
29BD
102
{ACAD_REACTORS
330
29A0
102
}
330
29A0
100
AcDbDictionary
281
     1
  3
2dWireframe
350
29C3
  3
3D Hidden
350
29C5
  3
3dWireframe
350
29C4
  3
Basic
350
29C2
  3
Brighten
350
29C9
  3
ColorChange
350
29CD
  3
Conceptual
350
29C6
  3
Dim
350
29C8
  3
Facepattern
350
29CC
  3
Flat
350
29BE
  3
FlatWithEdges
350
29BF
  3
Gouraud
350
29C0
  3
GouraudWithEdges
350
29C1
  3
Linepattern
350
29CB
  3
Realistic
350
29C7
  3
Thicken
350
29CA
  0
XRECORD
  5
2BFB
102
{ACAD_REACTORS
330
29A0
102
}
330
29A0
100
AcDbXrecord
280
     1
 90
        1
330
2A00
  0
DICTIONARY
  5
2BF2
102
{ACAD_REACTORS
330
29A0
102
}
330
29A0
100
AcDbDictionary
281
     1
  3
CANNOSCALE
350
2BF5
  3
CMLEADERSTYLE
350
2BF4
  3
CTABLESTYLE
350
2BF3
  3
DIMASSOC
350
2BF8
  3
INDEXCTL
350
2BF7
  3
SORTENTS
350
2BF6
  0
DICTIONARY
  5
2B9E
102
{ACAD_REACTORS
330
29A0
102
}
330
29A0
100
AcDbDictionary
281
     1
  3
AcmStdDictionary
350
2BAC
  0
DICTIONARY
  5
2AEB
102
{ACAD_REACTORS
330
29A0
102
}
330
29A0
100
AcDbDictionary
281
     1
  3
AcMgSettings
350
2AEC
  0
DICTIONARY
  5
2BC6
102
{ACAD_REACTORS
330
29A0
102
}
330
29A0
100
AcDbDictionary
281
     1
  3
DIMENSION
350
2BCB
  3
FEA
350
2BCA
  3
HATCH (1)
350
2BC7
  3
HATCH (2)
350
2BC8
  3
SIMPLE WELD
350
2BCC
  3
SYMBOLS
350
2BC9
  0
XRECORD
  5
2BFC
102
{ACAD_REACTORS
330
29A0
102
}
330
29A0
100
AcDbXrecord
280
     1
  1
DWGPROPS COOKIE
  2

  3

  4

  6

  7

  8
A090053
  9

300
AmdtFileType=84
301
=
302
=
303
=
304
=
305
=
306
=
307
=
308
=
309
=
 40
1.040336087962963
 41
2452321.396199653
 42
2456211.586763461
  1

 90
        1
  0
XRECORD
  5
2BCE
102
{ACAD_REACTORS
330
2BCD
102
}
330
2BCD
100
AcDbXrecord
280
     1
290
     1
  0
XRECORD
  5
2BD0
102
{ACAD_REACTORS
330
2BCF
102
}
330
2BCF
100
AcDbXrecord
280
     1
290
     1
  0
XRECORD
  5
2BD2
102
{ACAD_REACTORS
330
2BD1
102
}
330
2BD1
100
AcDbXrecord
280
     1
290
     1
  0
XRECORD
  5
2BD4
102
{ACAD_REACTORS
330
2BD3
102
}
330
2BD3
100
AcDbXrecord
280
     1
290
     1
  0
XRECORD
  5
2BD6
102
{ACAD_REACTORS
330
2BD5
102
}
330
2BD5
100
AcDbXrecord
280
     1
290
     1
  0
XRECORD
  5
2BD8
102
{ACAD_REACTORS
330
2BD7
102
}
330
2BD7
100
AcDbXrecord
280
     1
290
     1
  0
XRECORD
  5
2BDA
102
{ACAD_REACTORS
330
2BD9
102
}
330
2BD9
100
AcDbXrecord
280
     1
290
     1
  0
XRECORD
  5
2BDC
102
{ACAD_REACTORS
330
2BDB
102
}
330
2BDB
100
AcDbXrecord
280
     1
290
     1
  0
XRECORD
  5
2BDE
102
{ACAD_REACTORS
330
2BDD
102
}
330
2BDD
100
AcDbXrecord
280
     1
290
     1
  0
XRECORD
  5
2BE0
102
{ACAD_REACTORS
330
2BDF
102
}
330
2BDF
100
AcDbXrecord
280
     1
290
     1
  0
XRECORD
  5
2BE2
102
{ACAD_REACTORS
330
2BE1
102
}
330
2BE1
100
AcDbXrecord
280
     1
290
     1
  0
DICTIONARY
  5
2BE4
102
{ACAD_REACTORS
330
2BE3
102
}
330
2BE3
100
AcDbDictionary
281
     1
  3
*A1
350
2BE5
  0
XRECORD
  5
2BFE
102
{ACAD_REACTORS
330
2BFD
102
}
330
2BFD
100
AcDbXrecord
280
     1
 70
     1
  0
XRECORD
  5
2C00
102
{ACAD_REACTORS
330
2BFD
102
}
330
2BFD
100
AcDbXrecord
280
     1
340
29F6
  0
XRECORD
  5
2C01
102
{ACAD_REACTORS
330
2BFD
102
}
330
2BFD
100
AcDbXrecord
280
     1
340
29F6
  0
XRECORD
  5
2BFF
102
{ACAD_REACTORS
330
2BFD
102
}
330
2BFD
100
AcDbXrecord
280
     1
340
29F6
  0
LAYOUT
  5
2A0B
102
{ACAD_XDICTIONARY
360
2C08
102
}
102
{ACAD_REACTORS
330
29FD
102
}
330
29FD
100
AcDbPlotSettings
  1

  2
自動 EPSON LP-9600S (W2450527 上)
  4

  6

 40
0.0
 41
0.0
 42
0.0
 43
0.0
 44
0.0
 45
0.0
 46
0.0
 47
0.0
 48
0.0
 49
0.0
140
0.0
141
0.0
142
1.0
143
1.0
 70
  1712
 72
     0
 73
     0
 74
     0
  7

 75
     0
147
1.0
148
0.0
149
0.0
100
AcDbLayout
  1
Model
 70
     1
 71
     0
 10
0.0
 20
0.0
 11
12.0
 21
9.0
 12
0.0
 22
0.0
 32
0.0
 14
0.0
 24
0.0
 34
0.0
 15
0.0
 25
0.0
 35
0.0
146
0.0
 13
0.0
 23
0.0
 33
0.0
 16
1.0
 26
0.0
 36
0.0
 17
0.0
 27
1.0
 37
0.0
 76
     0
330
2A08
331
2A0C
  0
LAYOUT
  5
2A07
102
{ACAD_XDICTIONARY
360
2C06
102
}
102
{ACAD_REACTORS
330
29FD
102
}
330
29FD
100
AcDbPlotSettings
  1

  2
自動 EPSON LP-9600S (W2450527 上)
  4

  6

 40
0.0
 41
0.0
 42
0.0
 43
0.0
 44
0.0
 45
0.0
 46
0.0
 47
0.0
 48
0.0
 49
0.0
140
0.0
141
0.0
142
1.0
143
1.0
 70
   688
 72
     0
 73
     0
 74
     5
  7

 75
    16
147
1.0
148
0.0
149
0.0
100
AcDbLayout
  1
レイアウト1
 70
     1
 71
     1
 10
0.0
 20
0.0
 11
12.0
 21
9.0
 12
0.0
 22
0.0
 32
0.0
 14
1.000000000000000E+20
 24
1.000000000000000E+20
 34
1.000000000000000E+20
 15
-1.000000000000000E+20
 25
-1.000000000000000E+20
 35
-1.000000000000000E+20
146
0.0
 13
0.0
 23
0.0
 33
0.0
 16
1.0
 26
0.0
 36
0.0
 17
0.0
 27
1.0
 37
0.0
 76
     0
330
2A04
  0
MATERIAL
  5
29AD
102
{ACAD_XDICTIONARY
360
29AE
102
}
102
{ACAD_REACTORS
330
29A4
102
}
330
29A4
100
AcDbMaterial
  1
ByBlock
 72
     0
 43
0.0208333333333333
 43
0.0
 43
0.0
 43
0.0
 43
0.0
 43
0.0208333333333333
 43
0.0
 43
0.0
 43
0.0
 43
0.0
 43
1.0
 43
0.0
 43
0.0
 43
0.0
 43
0.0
 43
1.0
 77
     0
 47
0.0208333333333333
 47
0.0
 47
0.0
 47
0.0
 47
0.0
 47
0.0208333333333333
 47
0.0
 47
0.0
 47
0.0
 47
0.0
 47
1.0
 47
0.0
 47
0.0
 47
0.0
 47
0.0
 47
1.0
171
     0
 49
0.0208333333333333
 49
0.0
 49
0.0
 49
0.0
 49
0.0
 49
0.0208333333333333
 49
0.0
 49
0.0
 49
0.0
 49
0.0
 49
1.0
 49
0.0
 49
0.0
 49
0.0
 49
0.0
 49
1.0
175
     0
142
0.0208333333333333
142
0.0
142
0.0
142
0.0
142
0.0
142
0.0208333333333333
142
0.0
142
0.0
142
0.0
142
0.0
142
1.0
142
0.0
142
0.0
142
0.0
142
0.0
142
1.0
179
     0
144
0.0208333333333333
144
0.0
144
0.0
144
0.0
144
0.0
144
0.0208333333333333
144
0.0
144
0.0
144
0.0
144
0.0
144
1.0
144
0.0
144
0.0
144
0.0
144
0.0
144
1.0
147
0.0208333333333333
147
0.0
147
0.0
147
0.0
147
0.0
147
0.0208333333333333
147
0.0
147
0.0
147
0.0
147
0.0
147
1.0
147
0.0
147
0.0
147
0.0
147
0.0
147
1.0
  0
MATERIAL
  5
29A5
102
{ACAD_XDICTIONARY
360
29A6
102
}
102
{ACAD_REACTORS
330
29A4
102
}
330
29A4
100
AcDbMaterial
  1
ByLayer
 72
     0
 43
0.0208333333333333
 43
0.0
 43
0.0
 43
0.0
 43
0.0
 43
0.0208333333333333
 43
0.0
 43
0.0
 43
0.0
 43
0.0
 43
1.0
 43
0.0
 43
0.0
 43
0.0
 43
0.0
 43
1.0
 77
     0
 47
0.0208333333333333
 47
0.0
 47
0.0
 47
0.0
 47
0.0
 47
0.0208333333333333
 47
0.0
 47
0.0
 47
0.0
 47
0.0
 47
1.0
 47
0.0
 47
0.0
 47
0.0
 47
0.0
 47
1.0
171
     0
 49
0.0208333333333333
 49
0.0
 49
0.0
 49
0.0
 49
0.0
 49
0.0208333333333333
 49
0.0
 49
0.0
 49
0.0
 49
0.0
 49
1.0
 49
0.0
 49
0.0
 49
0.0
 49
0.0
 49
1.0
175
     0
142
0.0208333333333333
142
0.0
142
0.0
142
0.0
142
0.0
142
0.0208333333333333
142
0.0
142
0.0
142
0.0
142
0.0
142
1.0
142
0.0
142
0.0
142
0.0
142
0.0
142
1.0
179
     0
144
0.0208333333333333
144
0.0
144
0.0
144
0.0
144
0.0
144
0.0208333333333333
144
0.0
144
0.0
144
0.0
144
0.0
144
1.0
144
0.0
144
0.0
144
0.0
144
0.0
144
1.0
147
0.0208333333333333
147
0.0
147
0.0
147
0.0
147
0.0
147
0.0208333333333333
147
0.0
147
0.0
147
0.0
147
0.0
147
1.0
147
0.0
147
0.0
147
0.0
147
0.0
147
1.0
  0
MATERIAL
  5
29B5
102
{ACAD_XDICTIONARY
360
29B6
102
}
102
{ACAD_REACTORS
330
29A4
102
}
330
29A4
100
AcDbMaterial
  1
Global
 72
     0
 43
0.0208333333333333
 43
0.0
 43
0.0
 43
0.0
 43
0.0
 43
0.0208333333333333
 43
0.0
 43
0.0
 43
0.0
 43
0.0
 43
1.0
 43
0.0
 43
0.0
 43
0.0
 43
0.0
 43
1.0
 77
     0
 47
0.0208333333333333
 47
0.0
 47
0.0
 47
0.0
 47
0.0
 47
0.0208333333333333
 47
0.0
 47
0.0
 47
0.0
 47
0.0
 47
1.0
 47
0.0
 47
0.0
 47
0.0
 47
0.0
 47
1.0
171
     0
 49
0.0208333333333333
 49
0.0
 49
0.0
 49
0.0
 49
0.0
 49
0.0208333333333333
 49
0.0
 49
0.0
 49
0.0
 49
0.0
 49
1.0
 49
0.0
 49
0.0
 49
0.0
 49
0.0
 49
1.0
175
     0
142
0.0208333333333333
142
0.0
142
0.0
142
0.0
142
0.0
142
0.0208333333333333
142
0.0
142
0.0
142
0.0
142
0.0
142
1.0
142
0.0
142
0.0
142
0.0
142
0.0
142
1.0
179
     0
144
0.0208333333333333
144
0.0
144
0.0
144
0.0
144
0.0
144
0.0208333333333333
144
0.0
144
0.0
144
0.0
144
0.0
144
1.0
144
0.0
144
0.0
144
0.0
144
0.0
144
1.0
147
0.0208333333333333
147
0.0
147
0.0
147
0.0
147
0.0
147
0.0208333333333333
147
0.0
147
0.0
147
0.0
147
0.0
147
1.0
147
0.0
147
0.0
147
0.0
147
0.0
147
1.0
  0
MLEADERSTYLE
  5
2A02
102
{ACAD_REACTORS
330
2A01
102
}
330
2A01
100
AcDbMLeaderStyle
170
     2
171
     1
172
     0
 90
        2
 40
0.0
 41
0.0
173
     1
 91
-1056964608
340
29F6
 92
       -2
290
     1
 42
0.09
291
     1
 43
0.36
  3
Standard
 44
0.18
300

342
29F1
174
     1
178
     6
175
     1
176
     0
 93
-1056964608
 45
0.18
292
     0
297
     0
 46
0.18
 94
-1056964608
 47
1.0
 49
1.0
140
1.0
293
     1
141
0.0
294
     1
177
     0
142
1.0
295
     0
296
     0
143
0.125
1001
ACAD_MLEADERVER
1070
     2
  0
MLINESTYLE
  5
29FB
102
{ACAD_REACTORS
330
29FA
102
}
330
29FA
100
AcDbMlineStyle
  2
STANDARD
 70
     0
  3

 62
   256
 51
90.0
 52
90.0
 71
     2
 49
0.5
 62
   256
  6
BYLAYER
 49
-0.5
 62
   256
  6
BYLAYER
  0
ACDBPLACEHOLDER
  5
29A3
102
{ACAD_REACTORS
330
29A2
102
}
330
29A2
  0
SCALE
  5
29CF
102
{ACAD_REACTORS
330
29CE
102
}
330
29CE
100
AcDbScale
 70
     0
300
1:1
140
1.0
141
1.0
290
     1
  0
SCALE
  5
29D0
102
{ACAD_REACTORS
330
29CE
102
}
330
29CE
100
AcDbScale
 70
     0
300
1:2
140
1.0
141
2.0
290
     0
  0
SCALE
  5
29D1
102
{ACAD_REACTORS
330
29CE
102
}
330
29CE
100
AcDbScale
 70
     0
300
1:4
140
1.0
141
4.0
290
     0
  0
SCALE
  5
29D2
102
{ACAD_REACTORS
330
29CE
102
}
330
29CE
100
AcDbScale
 70
     0
300
1:5
140
1.0
141
5.0
290
     0
  0
SCALE
  5
29D3
102
{ACAD_REACTORS
330
29CE
102
}
330
29CE
100
AcDbScale
 70
     0
300
1:8
140
1.0
141
8.0
290
     0
  0
SCALE
  5
29D4
102
{ACAD_REACTORS
330
29CE
102
}
330
29CE
100
AcDbScale
 70
     0
300
1:10
140
1.0
141
10.0
290
     0
  0
SCALE
  5
29D5
102
{ACAD_REACTORS
330
29CE
102
}
330
29CE
100
AcDbScale
 70
     0
300
1:16
140
1.0
141
16.0
290
     0
  0
SCALE
  5
29D6
102
{ACAD_REACTORS
330
29CE
102
}
330
29CE
100
AcDbScale
 70
     0
300
1:20
140
1.0
141
20.0
290
     0
  0
SCALE
  5
29D7
102
{ACAD_REACTORS
330
29CE
102
}
330
29CE
100
AcDbScale
 70
     0
300
1:30
140
1.0
141
30.0
290
     0
  0
SCALE
  5
29D8
102
{ACAD_REACTORS
330
29CE
102
}
330
29CE
100
AcDbScale
 70
     0
300
1:40
140
1.0
141
40.0
290
     0
  0
SCALE
  5
29D9
102
{ACAD_REACTORS
330
29CE
102
}
330
29CE
100
AcDbScale
 70
     0
300
1:50
140
1.0
141
50.0
290
     0
  0
SCALE
  5
29DA
102
{ACAD_REACTORS
330
29CE
102
}
330
29CE
100
AcDbScale
 70
     0
300
1:100
140
1.0
141
100.0
290
     0
  0
SCALE
  5
29DB
102
{ACAD_REACTORS
330
29CE
102
}
330
29CE
100
AcDbScale
 70
     0
300
2:1
140
2.0
141
1.0
290
     0
  0
SCALE
  5
29DC
102
{ACAD_REACTORS
330
29CE
102
}
330
29CE
100
AcDbScale
 70
     0
300
4:1
140
4.0
141
1.0
290
     0
  0
SCALE
  5
29DD
102
{ACAD_REACTORS
330
29CE
102
}
330
29CE
100
AcDbScale
 70
     0
300
8:1
140
8.0
141
1.0
290
     0
  0
SCALE
  5
29DE
102
{ACAD_REACTORS
330
29CE
102
}
330
29CE
100
AcDbScale
 70
     0
300
10:1
140
10.0
141
1.0
290
     0
  0
SCALE
  5
29DF
102
{ACAD_REACTORS
330
29CE
102
}
330
29CE
100
AcDbScale
 70
     0
300
100:1
140
100.0
141
1.0
290
     0
  0
SCALE
  5
29E0
102
{ACAD_REACTORS
330
29CE
102
}
330
29CE
100
AcDbScale
 70
     0
300
1/128" = 1'-0"
140
0.0078125
141
12.0
290
     0
  0
SCALE
  5
29E1
102
{ACAD_REACTORS
330
29CE
102
}
330
29CE
100
AcDbScale
 70
     0
300
1/64" = 1'-0"
140
0.015625
141
12.0
290
     0
  0
SCALE
  5
29E2
102
{ACAD_REACTORS
330
29CE
102
}
330
29CE
100
AcDbScale
 70
     0
300
1/32" = 1'-0"
140
0.03125
141
12.0
290
     0
  0
SCALE
  5
29E3
102
{ACAD_REACTORS
330
29CE
102
}
330
29CE
100
AcDbScale
 70
     0
300
1/16" = 1'-0"
140
0.0625
141
12.0
290
     0
  0
SCALE
  5
29E4
102
{ACAD_REACTORS
330
29CE
102
}
330
29CE
100
AcDbScale
 70
     0
300
3/32" = 1'-0"
140
0.09375
141
12.0
290
     0
  0
SCALE
  5
29E5
102
{ACAD_REACTORS
330
29CE
102
}
330
29CE
100
AcDbScale
 70
     0
300
1/8" = 1'-0"
140
0.125
141
12.0
290
     0
  0
SCALE
  5
29E6
102
{ACAD_REACTORS
330
29CE
102
}
330
29CE
100
AcDbScale
 70
     0
300
3/16" = 1'-0"
140
0.1875
141
12.0
290
     0
  0
SCALE
  5
29E7
102
{ACAD_REACTORS
330
29CE
102
}
330
29CE
100
AcDbScale
 70
     0
300
1/4" = 1'-0"
140
0.25
141
12.0
290
     0
  0
SCALE
  5
29E8
102
{ACAD_REACTORS
330
29CE
102
}
330
29CE
100
AcDbScale
 70
     0
300
3/8" = 1'-0"
140
0.375
141
12.0
290
     0
  0
SCALE
  5
29E9
102
{ACAD_REACTORS
330
29CE
102
}
330
29CE
100
AcDbScale
 70
     0
300
1/2" = 1'-0"
140
0.5
141
12.0
290
     0
  0
SCALE
  5
29EA
102
{ACAD_REACTORS
330
29CE
102
}
330
29CE
100
AcDbScale
 70
     0
300
3/4" = 1'-0"
140
0.75
141
12.0
290
     0
  0
SCALE
  5
29EB
102
{ACAD_REACTORS
330
29CE
102
}
330
29CE
100
AcDbScale
 70
     0
300
1" = 1'-0"
140
1.0
141
12.0
290
     0
  0
SCALE
  5
29EC
102
{ACAD_REACTORS
330
29CE
102
}
330
29CE
100
AcDbScale
 70
     0
300
1-1/2" = 1'-0"
140
1.5
141
12.0
290
     0
  0
SCALE
  5
29ED
102
{ACAD_REACTORS
330
29CE
102
}
330
29CE
100
AcDbScale
 70
     0
300
3" = 1'-0"
140
3.0
141
12.0
290
     0
  0
SCALE
  5
29EE
102
{ACAD_REACTORS
330
29CE
102
}
330
29CE
100
AcDbScale
 70
     0
300
6" = 1'-0"
140
6.0
141
12.0
290
     0
  0
SCALE
  5
29EF
102
{ACAD_REACTORS
330
29CE
102
}
330
29CE
100
AcDbScale
 70
     0
300
1'-0" = 1'-0"
140
12.0
141
12.0
290
     0
  0
TABLESTYLE
  5
2A00
102
{ACAD_XDICTIONARY
360
2BF9
102
}
102
{ACAD_REACTORS
330
29FF
102
}
330
29FF
100
AcDbTableStyle
  3
Standard
 70
     0
 71
     0
 40
0.06
 41
0.06
280
     0
281
     0
  7
STANDARD
140
0.18
170
     2
 62
     0
 63
     7
283
     0
274
    -2
284
     1
 64
     0
275
    -2
285
     1
 65
     0
276
    -2
286
     1
 66
     0
277
    -2
287
     1
 67
     0
278
    -2
288
     1
 68
     0
279
    -2
289
     1
 69
     0
  7
STANDARD
140
0.25
170
     5
 62
     0
 63
     7
283
     0
274
    -2
284
     1
 64
     0
275
    -2
285
     1
 65
     0
276
    -2
286
     1
 66
     0
277
    -2
287
     1
 67
     0
278
    -2
288
     1
 68
     0
279
    -2
289
     1
 69
     0
  7
STANDARD
140
0.18
170
     5
 62
     0
 63
     7
283
     0
274
    -2
284
     1
 64
     0
275
    -2
285
     1
 65
     0
276
    -2
286
     1
 66
     0
277
    -2
287
     1
 67
     0
278
    -2
288
     1
 68
     0
279
    -2
289
     1
 69
     0
  0
VISUALSTYLE
  5
29C3
102
{ACAD_REACTORS
330
29BD
102
}
330
29BD
100
AcDbVisualStyle
  2
2dWireframe
 70
     4
 71
     0
 72
     2
 73
     0
 90
        0
 40
-0.6
 41
-30.0
 62
     5
 63
     7
 74
     1
 91
        4
 64
     7
 65
   257
 75
     1
175
     1
 42
1.0
 92
        0
 66
   257
 43
1.0
 76
     1
 77
     6
 78
     2
 67
     7
 79
     5
170
     0
171
     0
290
     0
174
     0
 93
        1
 44
0.0
173
     0
291
     0
 45
0.0
1001
ACAD
1000
AcDbSavedByObjectVersion
1070
     0
  0
VISUALSTYLE
  5
29C5
102
{ACAD_REACTORS
330
29BD
102
}
330
29BD
100
AcDbVisualStyle
  2
3D Hidden
 70
     6
 71
     1
 72
     2
 73
     2
 90
        0
 40
-0.6
 41
-30.0
 62
     5
 63
     7
 74
     2
 91
        2
 64
     7
 65
   257
 75
     2
175
     1
 42
40.0
 92
        0
 66
   257
 43
1.0
 76
     1
 77
     6
 78
     2
 67
     7
 79
     3
170
     0
171
     0
290
     0
174
     0
 93
        1
 44
0.0
173
     0
291
     0
 45
0.0
1001
ACAD
1000
AcDbSavedByObjectVersion
1070
     0
  0
VISUALSTYLE
  5
29C4
102
{ACAD_REACTORS
330
29BD
102
}
330
29BD
100
AcDbVisualStyle
  2
3dWireframe
 70
     5
 71
     0
 72
     2
 73
     0
 90
        0
 40
-0.6
 41
-30.0
 62
     5
 63
     7
 74
     1
 91
        4
 64
     7
 65
   257
 75
     1
175
     1
 42
1.0
 92
        0
 66
   257
 43
1.0
 76
     1
 77
     6
 78
     2
 67
     7
 79
     5
170
     0
171
     0
290
     0
174
     0
 93
        1
 44
0.0
173
     0
291
     0
 45
0.0
1001
ACAD
1000
AcDbSavedByObjectVersion
1070
     0
  0
VISUALSTYLE
  5
29C2
102
{ACAD_REACTORS
330
29BD
102
}
330
29BD
100
AcDbVisualStyle
  2
Basic
 70
     7
 71
     1
 72
     0
 73
     1
 90
        0
 40
-0.6
 41
-30.0
 62
     5
 63
     7
 74
     0
 91
        4
 64
     7
 65
   257
 75
     1
175
     1
 42
1.0
 92
        8
 66
     7
 43
1.0
 76
     1
 77
     6
 78
     2
 67
     7
 79
     5
170
     0
171
     0
290
     0
174
     0
 93
        1
 44
0.0
173
     0
291
     1
 45
0.0
1001
ACAD
1000
AcDbSavedByObjectVersion
1070
     0
  0
VISUALSTYLE
  5
29C9
102
{ACAD_REACTORS
330
29BD
102
}
330
29BD
100
AcDbVisualStyle
  2
Brighten
 70
    12
 71
     2
 72
     2
 73
     0
 90
        0
 40
-0.6
 41
-30.0
 62
     5
 63
     7
 74
     1
 91
        4
 64
     7
 65
   257
 75
     1
175
     1
 42
1.0
 92
        8
 66
     7
 43
1.0
 76
     1
 77
     6
 78
     2
 67
     7
 79
     5
170
     0
171
     0
290
     0
174
     0
 93
        1
 44
50.0
173
     0
291
     1
 45
0.0
1001
ACAD
1000
AcDbSavedByObjectVersion
1070
     0
  0
VISUALSTYLE
  5
29CD
102
{ACAD_REACTORS
330
29BD
102
}
330
29BD
100
AcDbVisualStyle
  2
ColorChange
 70
    16
 71
     2
 72
     2
 73
     3
 90
        0
 40
-0.6
 41
-30.0
 62
     5
 63
     8
 74
     1
 91
        4
 64
     7
 65
   257
 75
     1
175
     1
 42
1.0
 92
        8
 66
     8
 43
1.0
 76
     1
 77
     6
 78
     2
 67
     7
 79
     5
170
     0
171
     0
290
     0
174
     0
 93
        1
 44
0.0
173
     0
291
     1
 45
0.0
1001
ACAD
1000
AcDbSavedByObjectVersion
1070
     0
  0
VISUALSTYLE
  5
29C6
102
{ACAD_REACTORS
330
29BD
102
}
330
29BD
100
AcDbVisualStyle
  2
Conceptual
 70
     9
 71
     3
 72
     2
 73
     0
 90
        0
 40
-0.6
 41
-30.0
 62
     5
 63
     7
 74
     2
 91
        2
 64
     7
 65
   257
 75
     1
175
     1
 42
40.0
 92
        8
 66
     7
 43
1.0
 76
     1
 77
     6
 78
     2
 67
     7
 79
     3
170
     0
171
     0
290
     0
174
     0
 93
        1
 44
0.0
173
     0
291
     0
 45
0.0
1001
ACAD
1000
AcDbSavedByObjectVersion
1070
     0
  0
VISUALSTYLE
  5
29C8
102
{ACAD_REACTORS
330
29BD
102
}
330
29BD
100
AcDbVisualStyle
  2
Dim
 70
    11
 71
     2
 72
     2
 73
     0
 90
        0
 40
-0.6
 41
-30.0
 62
     5
 63
     7
 74
     1
 91
        4
 64
     7
 65
   257
 75
     1
175
     1
 42
1.0
 92
        8
 66
     7
 43
1.0
 76
     1
 77
     6
 78
     2
 67
     7
 79
     5
170
     0
171
     0
290
     0
174
     0
 93
        1
 44
-50.0
173
     0
291
     1
 45
0.0
1001
ACAD
1000
AcDbSavedByObjectVersion
1070
     0
  0
VISUALSTYLE
  5
29CC
102
{ACAD_REACTORS
330
29BD
102
}
330
29BD
100
AcDbVisualStyle
  2
Facepattern
 70
    15
 71
     2
 72
     2
 73
     0
 90
        0
 40
-0.6
 41
-30.0
 62
     5
 63
     7
 74
     1
 91
        4
 64
     7
 65
   257
 75
     1
175
     1
 42
1.0
 92
        8
 66
     7
 43
1.0
 76
     1
 77
     6
 78
     2
 67
     7
 79
     5
170
     0
171
     0
290
     0
174
     0
 93
        1
 44
0.0
173
     0
291
     1
 45
0.0
1001
ACAD
1000
AcDbSavedByObjectVersion
1070
     0
  0
VISUALSTYLE
  5
29BE
102
{ACAD_REACTORS
330
29BD
102
}
330
29BD
100
AcDbVisualStyle
  2
Flat
 70
     0
 71
     2
 72
     1
 73
     1
 90
        2
 40
-0.6
 41
30.0
 62
     5
 63
     7
 74
     0
 91
        4
 64
     7
 65
   257
 75
     1
175
     1
 42
1.0
 92
        8
 66
     7
 43
1.0
 76
     1
 77
     6
 78
     2
 67
     7
 79
     5
170
     0
171
     0
290
     0
174
     0
 93
       13
 44
0.0
173
     0
291
     1
 45
0.0
1001
ACAD
1000
AcDbSavedByObjectVersion
1070
     0
  0
VISUALSTYLE
  5
29BF
102
{ACAD_REACTORS
330
29BD
102
}
330
29BD
100
AcDbVisualStyle
  2
FlatWithEdges
 70
     1
 71
     2
 72
     1
 73
     1
 90
        2
 40
-0.6
 41
30.0
 62
     5
 63
     7
 74
     1
 91
        4
 64
     7
 65
   257
 75
     1
175
     1
 42
1.0
 92
        0
 66
   257
 43
1.0
 76
     1
 77
     6
 78
     2
 67
     7
 79
     5
170
     0
171
     0
290
     0
174
     0
 93
       13
 44
0.0
173
     0
291
     1
 45
0.0
1001
ACAD
1000
AcDbSavedByObjectVersion
1070
     0
  0
VISUALSTYLE
  5
29C0
102
{ACAD_REACTORS
330
29BD
102
}
330
29BD
100
AcDbVisualStyle
  2
Gouraud
 70
     2
 71
     2
 72
     2
 73
     1
 90
        2
 40
-0.6
 41
30.0
 62
     5
 63
     7
 74
     0
 91
        4
 64
     7
 65
   257
 75
     1
175
     1
 42
1.0
 92
        0
 66
     7
 43
1.0
 76
     1
 77
     6
 78
     2
 67
     7
 79
     5
170
     0
171
     0
290
     0
174
     0
 93
       13
 44
0.0
173
     0
291
     1
 45
0.0
1001
ACAD
1000
AcDbSavedByObjectVersion
1070
     0
  0
VISUALSTYLE
  5
29C1
102
{ACAD_REACTORS
330
29BD
102
}
330
29BD
100
AcDbVisualStyle
  2
GouraudWithEdges
 70
     3
 71
     2
 72
     2
 73
     1
 90
        2
 40
-0.6
 41
30.0
 62
     5
 63
     7
 74
     1
 91
        4
 64
     7
 65
   257
 75
     1
175
     1
 42
1.0
 92
        0
 66
   257
 43
1.0
 76
     1
 77
     6
 78
     2
 67
     7
 79
     5
170
     0
171
     0
290
     0
174
     0
 93
       13
 44
0.0
173
     0
291
     1
 45
0.0
1001
ACAD
1000
AcDbSavedByObjectVersion
1070
     0
  0
VISUALSTYLE
  5
29CB
102
{ACAD_REACTORS
330
29BD
102
}
330
29BD
100
AcDbVisualStyle
  2
Linepattern
 70
    14
 71
     2
 72
     2
 73
     0
 90
        0
 40
-0.6
 41
-30.0
 62
     5
 63
     7
 74
     1
 91
        4
 64
     7
 65
   257
 75
     7
175
     7
 42
1.0
 92
        8
 66
     7
 43
1.0
 76
     1
 77
     6
 78
     2
 67
     7
 79
     5
170
     0
171
     0
290
     0
174
     0
 93
        1
 44
0.0
173
     0
291
     1
 45
0.0
1001
ACAD
1000
AcDbSavedByObjectVersion
1070
     0
  0
VISUALSTYLE
  5
29C7
102
{ACAD_REACTORS
330
29BD
102
}
330
29BD
100
AcDbVisualStyle
  2
Realistic
 70
     8
 71
     2
 72
     2
 73
     0
 90
        0
 40
-0.6
 41
-30.0
 62
     5
 63
     7
 74
     1
 91
        0
 64
     7
 65
   257
 75
     1
175
     1
 42
1.0
 92
        8
 66
     8
 43
1.0
 76
     1
 77
     6
 78
     2
 67
     7
 79
     5
170
     0
171
     0
290
     0
174
     0
 93
       13
 44
0.0
173
     0
291
     0
 45
0.0
1001
ACAD
1000
AcDbSavedByObjectVersion
1070
     0
  0
VISUALSTYLE
  5
29CA
102
{ACAD_REACTORS
330
29BD
102
}
330
29BD
100
AcDbVisualStyle
  2
Thicken
 70
    13
 71
     2
 72
     2
 73
     0
 90
        0
 40
-0.6
 41
-30.0
 62
     5
 63
     7
 74
     1
 91
        4
 64
     7
 65
   257
 75
     1
175
     1
 42
1.0
 92
       12
 66
     7
 43
1.0
 76
     1
 77
     6
 78
     2
 67
     7
 79
     5
170
     0
171
     0
290
     0
174
     0
 93
        1
 44
0.0
173
     0
291
     1
 45
0.0
1001
ACAD
1000
AcDbSavedByObjectVersion
1070
     0
  0
DICTIONARYVAR
  5
2BF5
102
{ACAD_REACTORS
330
2BF2
102
}
330
2BF2
100
DictionaryVariables
280
     0
  1
1:1
  0
DICTIONARYVAR
  5
2BF4
102
{ACAD_REACTORS
330
2BF2
102
}
330
2BF2
100
DictionaryVariables
280
     0
  1
STANDARD
  0
DICTIONARYVAR
  5
2BF3
102
{ACAD_REACTORS
330
2BF2
102
}
330
2BF2
100
DictionaryVariables
280
     0
  1
STANDARD
  0
DICTIONARYVAR
  5
2BF8
102
{ACAD_REACTORS
330
2BF2
102
}
330
2BF2
100
DictionaryVariables
280
     0
  1
1
  0
DICTIONARYVAR
  5
2BF7
102
{ACAD_REACTORS
330
2BF2
102
}
330
2BF2
100
DictionaryVariables
280
     0
  1
1
  0
DICTIONARYVAR
  5
2BF6
102
{ACAD_REACTORS
330
2BF2
102
}
330
2BF2
100
DictionaryVariables
280
     0
  1
127
  0
DICTIONARY
  5
2BAC
102
{ACAD_REACTORS
330
2B9E
102
}
330
2B9E
100
AcDbDictionary
281
     1
  0
DICTIONARY
  5
2AEC
102
{ACAD_REACTORS
330
2AEB
102
}
330
2AEB
100
AcDbDictionary
281
     1
  3
DWGSETTINGS
350
2AED
  3
TRANSSETTINGS
350
2AEE
  0
ACAMGFILTERDAT
  5
2BCB
102
{ACAD_REACTORS
330
2BC6
102
}
330
2BC6
100
AcAmgFilterDat
 70
    15
  1
DIMENSION,AMDT_*_DIM
  2
*
  3
*
  4
*
  5
*
290
     1
  0
ACAMGFILTERDAT
  5
2BCA
102
{ACAD_REACTORS
330
2BC6
102
}
330
2BC6
100
AcAmgFilterDat
 70
    15
  1
*
  2
AM_FEA-AM_*
  3
*
  4
*
  5
*
290
     1
  0
ACAMGFILTERDAT
  5
2BC7
102
{ACAD_REACTORS
330
2BC6
102
}
330
2BC6
100
AcAmgFilterDat
 70
    15
  1
HATCH
  2
*
  3
*
  4
*
  5
*
290
     1
  0
ACAMGFILTERDAT
  5
2BC8
102
{ACAD_REACTORS
330
2BC6
102
}
330
2BC6
100
AcAmgFilterDat
 70
    15
  1
LINE
  2
8,8N,*-8,*-8N,AM_8,AM_8N,*-AM_8,*-AM_8N
  3
*
  4
*
  5
INSERT,STDPART2D
290
     1
  0
ACAMGFILTERDAT
  5
2BCC
102
{ACAD_REACTORS
330
2BC6
102
}
330
2BC6
100
AcAmgFilterDat
 70
    15
  1
ARC
  2
AM_5
  3
*
  4
2
  5
INSERT
290
     0
  0
ACAMGFILTERDAT
  5
2BC9
102
{ACAD_REACTORS
330
2BC6
102
}
330
2BC6
100
AcAmgFilterDat
 70
    15
  1
ACMFCFRAME,ACMDATUMTARGET,ACMDATUMID,ACMWELDSYM,ACMSURFSYM,ACMFEATID,ACMPARTREF,ACMBALLOON,AMDTEDGESYM,AMGSCREWCALCTABLE,ACMMARKSTAMP
  2
*
  3
*
  4
*
  5
*
290
     1
  0
LAYER_INDEX
  5
2BE5
102
{ACAD_REACTORS
330
2BE4
102
}
330
2BE4
100
AcDbIndex
 40
2456211.586763461
100
AcDbLayerIndex
  8
0
360
2BE6
 90
        2
  8
OUTLINE
360
2BE7
 90
       24
  8
SIZE
360
2BE8
 90
       38
  8
BASIS
360
2BE9
 90
        1
  8
DETAIL
360
2BEA
 90
       28
  8
ARRANGE
360
2BEB
 90
        2
  8
DEFPOINTS
360
2BEC
 90
        0
  8
ETC
360
2BED
 90
        3
  8
FIX
360
2BEE
 90
        0
  8
NOTE
360
2BEF
 90
        4
  8
SERVICESPACE
360
2BF0
 90
        0
  8
SYMBOLLINE
360
2BF1
 90
        0
  0
DICTIONARY
  5
2C08
330
2A0B
100
AcDbDictionary
280
     1
281
     1
  3
ACAD_XREC_ROUNDTRIP
360
2C09
  0
DICTIONARY
  5
2C06
330
2A07
100
AcDbDictionary
280
     1
281
     1
  3
ACAD_XREC_ROUNDTRIP
360
2C07
  0
DICTIONARY
  5
29AE
330
29AD
100
AcDbDictionary
280
     1
281
     1
  3
ACAD_XREC_ROUNDTRIP
360
2C03
  3
BUMPTILE
360
29B0
  3
DIFFUSETILE
360
29AF
  3
OPACITYTILE
360
29B3
  3
REFLECTIONTILE
360
29B2
  3
REFRACTIONTILE
360
29B4
  3
SPECULARTILE
360
29B1
  0
DICTIONARY
  5
29A6
330
29A5
100
AcDbDictionary
280
     1
281
     1
  3
ACAD_XREC_ROUNDTRIP
360
2C02
  3
BUMPTILE
360
29A8
  3
DIFFUSETILE
360
29A7
  3
OPACITYTILE
360
29AB
  3
REFLECTIONTILE
360
29AA
  3
REFRACTIONTILE
360
29AC
  3
SPECULARTILE
360
29A9
  0
DICTIONARY
  5
29B6
330
29B5
100
AcDbDictionary
280
     1
281
     1
  3
ACAD_XREC_ROUNDTRIP
360
2C04
  3
BUMPTILE
360
29B8
  3
DIFFUSETILE
360
29B7
  3
OPACITYTILE
360
29BB
  3
REFLECTIONTILE
360
29BA
  3
REFRACTIONTILE
360
29BC
  3
SPECULARTILE
360
29B9
  0
DICTIONARY
  5
2BF9
330
2A00
100
AcDbDictionary
280
     1
281
     1
  3
ACAD_ROUNDTRIP_2008_TABLESTYLE_CELLSTYLEMAP
360
2BFA
  3
ACAD_XREC_ROUNDTRIP
360
2C05
  0
IDBUFFER
  5
2BE6
330
0
100
AcDbIdBuffer
330
28F2
330
28F3
  0
IDBUFFER
  5
2BE7
330
0
100
AcDbIdBuffer
330
291C
330
291D
330
291E
330
291F
330
2920
330
2921
330
2922
330
2925
330
953
330
954
330
955
330
956
330
957
330
958
330
2912
330
2913
330
2914
330
2915
330
2916
330
2917
330
2918
330
2919
330
291A
330
291B
  0
IDBUFFER
  5
2BE8
330
0
100
AcDbIdBuffer
330
293A
330
293B
330
293C
330
293D
330
293E
330
293F
330
2940
330
2941
330
2942
330
2943
330
2944
330
2945
330
2946
330
2947
330
2948
330
2949
330
294A
330
294B
330
294C
330
294D
330
294E
330
294F
330
292A
330
292B
330
292C
330
292D
330
292E
330
292F
330
2930
330
2931
330
2932
330
2933
330
2934
330
2935
330
2936
330
2937
330
2938
330
2939
  0
IDBUFFER
  5
2BE9
330
0
100
AcDbIdBuffer
330
28FA
  0
IDBUFFER
  5
2BEA
330
0
100
AcDbIdBuffer
330
290A
330
290B
330
290C
330
290D
330
290E
330
290F
330
2910
330
2911
330
2926
330
2927
330
2928
330
2929
330
28F0
330
28F1
330
28F8
330
28F9
330
28FB
330
28FF
330
2900
330
2901
330
2902
330
2903
330
2904
330
2905
330
2906
330
2907
330
2908
330
2909
  0
IDBUFFER
  5
2BEB
330
0
100
AcDbIdBuffer
330
28F7
330
28FD
  0
IDBUFFER
  5
2BEC
330
0
100
AcDbIdBuffer
  0
IDBUFFER
  5
2BED
330
0
100
AcDbIdBuffer
330
28F4
330
28F5
330
28F6
  0
IDBUFFER
  5
2BEE
330
0
100
AcDbIdBuffer
  0
IDBUFFER
  5
2BEF
330
0
100
AcDbIdBuffer
330
28FC
330
28FE
330
2923
330
2924
  0
IDBUFFER
  5
2BF0
330
0
100
AcDbIdBuffer
  0
IDBUFFER
  5
2BF1
330
0
100
AcDbIdBuffer
  0
XRECORD
  5
2C09
102
{ACAD_REACTORS
330
2C08
102
}
330
2C08
100
AcDbXrecord
280
     1
102
SHADEPLOT
 70
     0
102
SHADEPLOTRESLEVEL
 70
     2
102
SHADEPLOTCUSTOMDPI
 70
   300
  0
XRECORD
  5
2C07
102
{ACAD_REACTORS
330
2C06
102
}
330
2C06
100
AcDbXrecord
280
     1
102
SHADEPLOT
 70
     0
102
SHADEPLOTRESLEVEL
 70
     2
102
SHADEPLOTCUSTOMDPI
 70
   300
  0
XRECORD
  5
2C03
102
{ACAD_REACTORS
330
29AE
102
}
330
29AE
100
AcDbXrecord
280
     1
102
MATERIAL
148
0.0
149
0.0
149
0.0
 93
        0
 94
      127
282
     0
 72
     0
 77
     0
171
     0
175
     0
179
     0
273
     0
  0
XRECORD
  5
29B0
102
{ACAD_REACTORS
330
29AE
102
}
330
29AE
100
AcDbXrecord
280
     1
270
     1
271
     1
  0
XRECORD
  5
29AF
102
{ACAD_REACTORS
330
29AE
102
}
330
29AE
100
AcDbXrecord
280
     1
270
     1
271
     1
  0
XRECORD
  5
29B3
102
{ACAD_REACTORS
330
29AE
102
}
330
29AE
100
AcDbXrecord
280
     1
270
     1
271
     1
  0
XRECORD
  5
29B2
102
{ACAD_REACTORS
330
29AE
102
}
330
29AE
100
AcDbXrecord
280
     1
270
     1
271
     1
  0
XRECORD
  5
29B4
102
{ACAD_REACTORS
330
29AE
102
}
330
29AE
100
AcDbXrecord
280
     1
270
     1
271
     1
  0
XRECORD
  5
29B1
102
{ACAD_REACTORS
330
29AE
102
}
330
29AE
100
AcDbXrecord
280
     1
270
     1
271
     1
  0
XRECORD
  5
2C02
102
{ACAD_REACTORS
330
29A6
102
}
330
29A6
100
AcDbXrecord
280
     1
102
MATERIAL
148
0.0
149
0.0
149
0.0
 93
        0
 94
      127
282
     0
 72
     0
 77
     0
171
     0
175
     0
179
     0
273
     0
  0
XRECORD
  5
29A8
102
{ACAD_REACTORS
330
29A6
102
}
330
29A6
100
AcDbXrecord
280
     1
270
     1
271
     1
  0
XRECORD
  5
29A7
102
{ACAD_REACTORS
330
29A6
102
}
330
29A6
100
AcDbXrecord
280
     1
270
     1
271
     1
  0
XRECORD
  5
29AB
102
{ACAD_REACTORS
330
29A6
102
}
330
29A6
100
AcDbXrecord
280
     1
270
     1
271
     1
  0
XRECORD
  5
29AA
102
{ACAD_REACTORS
330
29A6
102
}
330
29A6
100
AcDbXrecord
280
     1
270
     1
271
     1
  0
XRECORD
  5
29AC
102
{ACAD_REACTORS
330
29A6
102
}
330
29A6
100
AcDbXrecord
280
     1
270
     1
271
     1
  0
XRECORD
  5
29A9
102
{ACAD_REACTORS
330
29A6
102
}
330
29A6
100
AcDbXrecord
280
     1
270
     1
271
     1
  0
XRECORD
  5
2C04
102
{ACAD_REACTORS
330
29B6
102
}
330
29B6
100
AcDbXrecord
280
     1
102
MATERIAL
148
0.0
149
0.0
149
0.0
 93
        0
 94
      127
282
     0
 72
     0
 77
     0
171
     0
175
     0
179
     0
273
     0
  0
XRECORD
  5
29B8
102
{ACAD_REACTORS
330
29B6
102
}
330
29B6
100
AcDbXrecord
280
     1
270
     1
271
     1
  0
XRECORD
  5
29B7
102
{ACAD_REACTORS
330
29B6
102
}
330
29B6
100
AcDbXrecord
280
     1
270
     1
271
     1
  0
XRECORD
  5
29BB
102
{ACAD_REACTORS
330
29B6
102
}
330
29B6
100
AcDbXrecord
280
     1
270
     1
271
     1
  0
XRECORD
  5
29BA
102
{ACAD_REACTORS
330
29B6
102
}
330
29B6
100
AcDbXrecord
280
     1
270
     1
271
     1
  0
XRECORD
  5
29BC
102
{ACAD_REACTORS
330
29B6
102
}
330
29B6
100
AcDbXrecord
280
     1
270
     1
271
     1
  0
XRECORD
  5
29B9
102
{ACAD_REACTORS
330
29B6
102
}
330
29B6
100
AcDbXrecord
280
     1
270
     1
271
     1
  0
CELLSTYLEMAP
  5
2BFA
102
{ACAD_REACTORS
330
2BF9
102
}
330
2BF9
100
AcDbCellStyleMap
 90
        3
300
CELLSTYLE
  1
TABLEFORMAT_BEGIN
 90
        5
170
     1
 91
        0
 92
    32768
 62
   257
 93
        1
300
CONTENTFORMAT
  1
CONTENTFORMAT_BEGIN
 90
        0
 91
        0
 92
      512
 93
        0
300

 40
0.0
140
1.0
 94
        5
 62
     0
340
29F1
144
0.25
309
CONTENTFORMAT_END
171
     0
 94
        0
309
TABLEFORMAT_END
  1
CELLSTYLE_BEGIN
 90
        1
 91
        1
300
_TITLE
309
CELLSTYLE_END
300
CELLSTYLE
  1
TABLEFORMAT_BEGIN
 90
        5
170
     1
 91
        0
 92
        0
 62
   257
 93
        1
300
CONTENTFORMAT
  1
CONTENTFORMAT_BEGIN
 90
        0
 91
        0
 92
      512
 93
        0
300

 40
0.0
140
1.0
 94
        5
 62
     0
340
29F1
144
0.18
309
CONTENTFORMAT_END
171
     0
 94
        0
309
TABLEFORMAT_END
  1
CELLSTYLE_BEGIN
 90
        2
 91
        1
300
_HEADER
309
CELLSTYLE_END
300
CELLSTYLE
  1
TABLEFORMAT_BEGIN
 90
        5
170
     1
 91
        0
 92
        0
 62
   257
 93
        1
300
CONTENTFORMAT
  1
CONTENTFORMAT_BEGIN
 90
        0
 91
        0
 92
      512
 93
        0
300

 40
0.0
140
1.0
 94
        2
 62
     0
340
29F1
144
0.18
309
CONTENTFORMAT_END
171
     0
 94
        0
309
TABLEFORMAT_END
  1
CELLSTYLE_BEGIN
 90
        3
 91
        2
300
_DATA
309
CELLSTYLE_END
  0
XRECORD
  5
2C05
102
{ACAD_REACTORS
330
2BF9
102
}
330
2BF9
100
AcDbXrecord
280
     1
102
ACAD_ROUNDTRIP_PRE2007_TABLESTYLE
 90
      512
 91
        0
  1

 92
      512
 93
        0
  2

 94
      512
 95
        0
  3

  0
ENDSEC
  0
EOF
