  0
SECTION
  2
HEADER
  9
$ACADVER
  1
AC1015
  9
$ACADMAINTVER
 70
    20
  9
$DWGCODEPAGE
  3
ANSI_932
  9
$INSBASE
 10
0.0
 20
0.0
 30
0.0
  9
$EXTMIN
 10
-1077.676375568468
 20
-1096.527088662293
 30
-0.0030516181105611
  9
$EXTMAX
 10
1284.782421536256
 20
613.9526447676489
 30
50.00305208378603
  9
$LIMMIN
 10
-2970.0
 20
-2100.0
  9
$LIMMAX
 10
2970.0
 20
2100.0
  9
$ORTHOMODE
 70
     1
  9
$REGENMODE
 70
     0
  9
$FILLMODE
 70
     1
  9
$QTEXTMODE
 70
     0
  9
$MIRRTEXT
 70
     0
  9
$LTSCALE
 40
20.0
  9
$ATTMODE
 70
     1
  9
$TEXTSIZE
 40
64.0
  9
$TRACEWID
 40
0.05
  9
$TEXTSTYLE
  7
STANDARD
  9
$CLAYER
  8
0
  9
$CELTYPE
  6
ByLayer
  9
$CECOLOR
 62
   256
  9
$CELTSCALE
 40
1.0
  9
$DISPSILH
 70
     0
  9
$DIMSCALE
 40
1.0
  9
$DIMASZ
 40
0.12
  9
$DIMEXO
 40
0.05
  9
$DIMDLI
 40
0.5
  9
$DIMRND
 40
0.0
  9
$DIMDLE
 40
0.0
  9
$DIMEXE
 40
0.1
  9
$DIMTP
 40
0.1
  9
$DIMTM
 40
0.1
  9
$DIMTXT
 40
0.12
  9
$DIMCEN
 40
0.0
  9
$DIMTSZ
 40
0.0
  9
$DIMTOL
 70
     0
  9
$DIMLIM
 70
     0
  9
$DIMTIH
 70
     1
  9
$DIMTOH
 70
     1
  9
$DIMSE1
 70
     0
  9
$DIMSE2
 70
     0
  9
$DIMTAD
 70
     0
  9
$DIMZIN
 70
     7
  9
$DIMBLK
  1

  9
$DIMASO
 70
     1
  9
$DIMSHO
 70
     0
  9
$DIMPOST
  1

  9
$DIMAPOST
  1
mm
  9
$DIMALT
 70
     0
  9
$DIMALTD
 70
     2
  9
$DIMALTF
 40
25.4
  9
$DIMLFAC
 40
1.0
  9
$DIMTOFL
 70
     0
  9
$DIMTVP
 40
0.0
  9
$DIMTIX
 70
     0
  9
$DIMSOXD
 70
     0
  9
$DIMSAH
 70
     0
  9
$DIMBLK1
  1

  9
$DIMBLK2
  1

  9
$DIMSTYLE
  2
AM_ANSI
  9
$DIMCLRD
 70
   256
  9
$DIMCLRE
 70
   256
  9
$DIMCLRT
 70
     2
  9
$DIMTFAC
 40
0.71
  9
$DIMGAP
 40
0.06
  9
$DIMJUST
 70
     0
  9
$DIMSD1
 70
     0
  9
$DIMSD2
 70
     0
  9
$DIMTOLJ
 70
     1
  9
$DIMTZIN
 70
     7
  9
$DIMALTZ
 70
     0
  9
$DIMALTTZ
 70
     0
  9
$DIMUPT
 70
     0
  9
$DIMDEC
 70
     4
  9
$DIMTDEC
 70
     4
  9
$DIMALTU
 70
     2
  9
$DIMALTTD
 70
     4
  9
$DIMTXSTY
  7
STANDARD
  9
$DIMAUNIT
 70
     0
  9
$DIMADEC
 70
     0
  9
$DIMALTRND
 40
0.0
  9
$DIMAZIN
 70
     2
  9
$DIMDSEP
 70
    46
  9
$DIMATFIT
 70
     3
  9
$DIMFRAC
 70
     0
  9
$DIMLDRBLK
  1

  9
$DIMLUNIT
 70
     2
  9
$DIMLWD
 70
    -1
  9
$DIMLWE
 70
    -1
  9
$DIMTMOVE
 70
     0
  9
$LUNITS
 70
     2
  9
$LUPREC
 70
     4
  9
$SKETCHINC
 40
0.1
  9
$FILLETRAD
 40
4.0
  9
$AUNITS
 70
     1
  9
$AUPREC
 70
     3
  9
$MENU
  1
ACAD
  9
$ELEVATION
 40
0.0
  9
$PELEVATION
 40
0.0
  9
$THICKNESS
 40
50.0
  9
$LIMCHECK
 70
     0
  9
$CHAMFERA
 40
0.0
  9
$CHAMFERB
 40
0.0
  9
$CHAMFERC
 40
0.0
  9
$CHAMFERD
 40
0.0
  9
$SKPOLY
 70
     0
  9
$TDCREATE
 40
2452321.396199653
  9
$TDUCREATE
 40
2452321.021199653
  9
$TDUPDATE
 40
2456211.589736748
  9
$TDUUPDATE
 40
2456211.214736748
  9
$TDINDWG
 40
1.0399636806
  9
$TDUSRTIMER
 40
1.0399582755
  9
$USRTIMER
 70
     1
  9
$ANGBASE
 50
0.0
  9
$ANGDIR
 70
     0
  9
$PDMODE
 70
     3
  9
$PDSIZE
 40
-2.0
  9
$PLINEWID
 40
0.0
  9
$SPLFRAME
 70
     0
  9
$SPLINETYPE
 70
     6
  9
$SPLINESEGS
 70
     8
  9
$HANDSEED
  5
2B40
  9
$SURFTAB1
 70
     6
  9
$SURFTAB2
 70
     6
  9
$SURFTYPE
 70
     6
  9
$SURFU
 70
     6
  9
$SURFV
 70
     6
  9
$UCSBASE
  2

  9
$UCSNAME
  2

  9
$UCSORG
 10
0.0
 20
0.0
 30
0.0
  9
$UCSXDIR
 10
1.0
 20
0.0
 30
0.0
  9
$UCSYDIR
 10
0.0
 20
1.0
 30
0.0
  9
$UCSORTHOREF
  2

  9
$UCSORTHOVIEW
 70
     0
  9
$UCSORGTOP
 10
0.0
 20
0.0
 30
0.0
  9
$UCSORGBOTTOM
 10
0.0
 20
0.0
 30
0.0
  9
$UCSORGLEFT
 10
0.0
 20
0.0
 30
0.0
  9
$UCSORGRIGHT
 10
0.0
 20
0.0
 30
0.0
  9
$UCSORGFRONT
 10
0.0
 20
0.0
 30
0.0
  9
$UCSORGBACK
 10
0.0
 20
0.0
 30
0.0
  9
$PUCSBASE
  2

  9
$PUCSNAME
  2

  9
$PUCSORG
 10
0.0
 20
0.0
 30
0.0
  9
$PUCSXDIR
 10
1.0
 20
0.0
 30
0.0
  9
$PUCSYDIR
 10
0.0
 20
1.0
 30
0.0
  9
$PUCSORTHOREF
  2

  9
$PUCSORTHOVIEW
 70
     0
  9
$PUCSORGTOP
 10
0.0
 20
0.0
 30
0.0
  9
$PUCSORGBOTTOM
 10
0.0
 20
0.0
 30
0.0
  9
$PUCSORGLEFT
 10
0.0
 20
0.0
 30
0.0
  9
$PUCSORGRIGHT
 10
0.0
 20
0.0
 30
0.0
  9
$PUCSORGFRONT
 10
0.0
 20
0.0
 30
0.0
  9
$PUCSORGBACK
 10
0.0
 20
0.0
 30
0.0
  9
$USERI1
 70
     0
  9
$USERI2
 70
     0
  9
$USERI3
 70
     0
  9
$USERI4
 70
     0
  9
$USERI5
 70
     0
  9
$USERR1
 40
20.0
  9
$USERR2
 40
0.0
  9
$USERR3
 40
0.0
  9
$USERR4
 40
0.0
  9
$USERR5
 40
0.0
  9
$WORLDVIEW
 70
     1
  9
$SHADEDGE
 70
     3
  9
$SHADEDIF
 70
    70
  9
$TILEMODE
 70
     1
  9
$MAXACTVP
 70
    64
  9
$PINSBASE
 10
0.0
 20
0.0
 30
0.0
  9
$PLIMCHECK
 70
     0
  9
$PEXTMIN
 10
1.000000000000000E+20
 20
1.000000000000000E+20
 30
1.000000000000000E+20
  9
$PEXTMAX
 10
-1.000000000000000E+20
 20
-1.000000000000000E+20
 30
-1.000000000000000E+20
  9
$PLIMMIN
 10
0.0
 20
0.0
  9
$PLIMMAX
 10
12.0
 20
9.0
  9
$UNITMODE
 70
     0
  9
$VISRETAIN
 70
     1
  9
$PLINEGEN
 70
     0
  9
$PSLTSCALE
 70
     1
  9
$TREEDEPTH
 70
  3020
  9
$CMLSTYLE
  2
Standard
  9
$CMLJUST
 70
     0
  9
$CMLSCALE
 40
1.0
  9
$PROXYGRAPHICS
 70
     1
  9
$MEASUREMENT
 70
     0
  9
$CELWEIGHT
370
    -1
  9
$ENDCAPS
280
     0
  9
$JOINSTYLE
280
     0
  9
$LWDISPLAY
290
     0
  9
$INSUNITS
 70
     0
  9
$HYPERLINKBASE
  1

  9
$STYLESHEET
  1

  9
$XEDIT
290
     1
  9
$CEPSNTYPE
380
     0
  9
$PSTYLEMODE
290
     1
  9
$FINGERPRINTGUID
  2
{8383B99C-B017-4D96-BEEB-E3FCA6F74400}
  9
$VERSIONGUID
  2
{EB989A61-855C-4F56-879D-9F130F9F716E}
  9
$EXTNAMES
290
     1
  9
$PSVPSCALE
 40
0.0
  9
$OLESTARTUP
290
     0
  0
ENDSEC
  0
SECTION
  2
CLASSES
  0
CLASS
  1
ACDBDICTIONARYWDFLT
  2
AcDbDictionaryWithDefault
  3
ObjectDBX Classes
 90
        0
280
     0
281
     0
  0
CLASS
  1
MATERIAL
  2
AcDbMaterial
  3
ObjectDBX Classes
 90
     1153
280
     0
281
     0
  0
CLASS
  1
VISUALSTYLE
  2
AcDbVisualStyle
  3
ObjectDBX Classes
 90
     4095
280
     0
281
     0
  0
CLASS
  1
SCALE
  2
AcDbScale
  3
ObjectDBX Classes
 90
     1153
280
     0
281
     0
  0
CLASS
  1
TABLESTYLE
  2
AcDbTableStyle
  3
ObjectDBX Classes
 90
     4095
280
     0
281
     0
  0
CLASS
  1
MLEADERSTYLE
  2
AcDbMLeaderStyle
  3
ACDB_MLEADERSTYLE_CLASS
 90
     4095
280
     0
281
     0
  0
CLASS
  1
AMGSETTINGSOBJ
  2
AmgSettingsObj
  3
"AcadM|Product Description: AutoCAD Mechanical|Company: Autodesk, Inc."
 90
     1024
280
     0
281
     0
  0
CLASS
  1
ACME_DOCUMENT
  2
AcMeDbDoc
  3
AcMeServices
 90
     1024
280
     0
281
     0
  0
CLASS
  1
ACMESCOPE
  2
AcMeScope
  3
AcMeServices
 90
     1024
280
     0
281
     0
  0
CLASS
  1
ACMECOMMANDHISTORY
  2
AcMeCommandHistory
  3
AcMeServices
 90
     1024
280
     0
281
     0
  0
CLASS
  1
ACIMSYSVARMAN
  2
AcImSysVarManager
  3
AcMeServices
 90
     1024
280
     0
281
     0
  0
CLASS
  1
ACIMREALSYSVAR
  2
AcImRealSysVar
  3
AcMeServices
 90
     1024
280
     0
281
     0
  0
CLASS
  1
ACIMINTSYSVAR
  2
AcImIntSysVar
  3
AcMeServices
 90
     1024
280
     0
281
     0
  0
CLASS
  1
ACMEDRAWINGMAN
  2
AcMeDrawingMan
  3
AcMeServices
 90
     1024
280
     0
281
     0
  0
CLASS
  1
ACMEVIEW
  2
AcMeView
  3
AcMeServices
 90
     1024
280
     0
281
     0
  0
CLASS
  1
ACDBENTITYCACHE
  2
AcMeEntityCache
  3
AcMeServices
 90
     1024
280
     0
281
     0
  0
CLASS
  1
GSMANAGER
  2
AcMeGSManager
  3
AcMeServices
 90
     1024
280
     0
281
     0
  0
CLASS
  1
AMDTINTERNALREACTOR
  2
AmdtInternalReactor
  3
AcMeServices
 90
     1024
280
     0
281
     0
  0
CLASS
  1
ACMESTATEMGR
  2
AcMeStateMgr
  3
AcMeServices
 90
     1024
280
     0
281
     0
  0
CLASS
  1
ACGREFMASTER
  2
AcGrefMaster
  3
AcAttribServices
 90
     1024
280
     0
281
     0
  0
CLASS
  1
AM_DRAWING_MGR
  2
AcDmDwgMgr
  3
AcMechDwgViewMgmt
 90
     1024
280
     0
281
     0
  0
CLASS
  1
AM_DWG_DOCUMENT
  2
AcDmDwgDocument
  3
AcMechDwgViewMgmt
 90
     1024
280
     0
281
     0
  0
CLASS
  1
AM_DWG_SHEET
  2
AcDmSheet
  3
AcMechDwgViewMgmt
 90
     1024
280
     0
281
     0
  0
CLASS
  1
AM_VIEWDIMPARMAP
  2
AcDmViewDimParMap
  3
AcMechDwgViewMgmt
 90
     1024
280
     0
281
     0
  0
CLASS
  1
AM_DWGMGR_NAME
  2
AcDmDwgMgrName
  3
AcMechDwgViewMgmt
 90
     1024
280
     0
281
     0
  0
CLASS
  1
ACME_DATABASE
  2
AcMeDbDatabase
  3
AcMeServices
 90
     1024
280
     0
281
     0
  0
CLASS
  1
ACRFINSADJUSTERMGR
  2
AcRfInsAdjusterMgr
  3
AcMeServices
 90
     1024
280
     0
281
     0
  0
CLASS
  1
ACGREFACADMASTER
  2
AcGrefacadMaster
  3
AcGrefServices
 90
     1024
280
     0
281
     0
  0
CLASS
  1
AMDTMENUSTATEMGR
  2
AmdtMenuStateMgr
  3
McadcomServices
 90
     1024
280
     0
281
     0
  0
CLASS
  1
AMDTMCOMMENUSTATE
  2
AmdtMcomMenuState
  3
McadcomServices
 90
     1024
280
     0
281
     0
  0
CLASS
  1
AMIMASTER
  2
AmiMaster
  3
AmiServices
 90
     1024
280
     0
281
     0
  0
CLASS
  1
ASAPP
  2
AcAsAppObject
  3
AutoSurfServices
 90
     1024
280
     0
281
     0
  0
CLASS
  1
IM_STATIC_MAN
  2
AcImStaticVarManager
  3
AcMeServices
 90
     1024
280
     0
281
     0
  0
CLASS
  1
ACIMSTRSYSVAR
  2
AcImStrSysVar
  3
AcMeServices
 90
     1024
280
     0
281
     0
  0
CLASS
  1
ACIMDBLSTATICVAR
  2
AcImDblStaticVar
  3
AcMeServices
 90
     1024
280
     0
281
     0
  0
CLASS
  1
ACIMSTRSTATICVAR
  2
AcImStrStaticVar
  3
AcMeServices
 90
     1024
280
     0
281
     0
  0
CLASS
  1
ACIMINTSTATICVAR
  2
AcImIntStaticVar
  3
AcMeServices
 90
     1024
280
     0
281
     0
  0
CLASS
  1
ACASGREFMASTER
  2
AcAsGrefMaster
  3
AutoSurfResolverServices
 90
     1024
280
     0
281
     0
  0
CLASS
  1
ACADGREFMODULE
  2
AcAdGrefModule
  3
AdGrefServices
 90
     1024
280
     0
281
     0
  0
CLASS
  1
AMDTMAPISURFMOUDULE
  2
AmdtMApiSurfModule
  3
MApiSurfServices
 90
     1024
280
     0
281
     0
  0
CLASS
  1
MAPIAMMOUDLE
  2
MApiAmModule
  3
MApiAmServices
 90
     1024
280
     0
281
     0
  0
CLASS
  1
AMDTADMENUSTATE
  2
AmdtAdMenuState
  3
DesignerServices
 90
     1024
280
     0
281
     0
  0
CLASS
  1
ADAPPL
  2
AcAdAppl
  3
DesignerServices
 90
     1024
280
     0
281
     0
  0
CLASS
  1
DEPMGR
  2
AcAdDepMgr
  3
DesignerServices
 90
     1024
280
     0
281
     0
  0
CLASS
  1
PARAMMGR
  2
AcAdParamMgr
  3
DesignerServices
 90
     1024
280
     0
281
     0
  0
CLASS
  1
PARAMSCOPE
  2
AcAdParamScope
  3
DesignerServices
 90
     1024
280
     0
281
     0
  0
CLASS
  1
NAMEDAPPL
  2
AcAdNamedAppl
  3
DesignerServices
 90
     1024
280
     0
281
     0
  0
CLASS
  1
AMDTDMMENUSTATE
  2
AmdtDmMenuState
  3
AcMechDwgViewMgmt
 90
     1024
280
     0
281
     0
  0
CLASS
  1
MAPIADMODULE
  2
MApiAdModule
  3
MApiAdServices
 90
     1024
280
     0
281
     0
  0
CLASS
  1
AMDTAMMENUSTATE
  2
AmdtAmMenuState
  3
DesignerAssemblies
 90
     1024
280
     0
281
     0
  0
CLASS
  1
ACAMPROJECT
  2
AcAmProject
  3
DesignerAssemblies
 90
     1024
280
     0
281
     0
  0
CLASS
  1
ACAMGRCOMPDEF
  2
AcAmGrCompDef
  3
DesignerAssemblies
 90
     1024
280
     0
281
     0
  0
CLASS
  1
ACCMCONTEXT
  2
AcCmContext
  3
DesignerAssemblies
 90
     1024
280
     0
281
     0
  0
CLASS
  1
ACAMCOMPDEF
  2
AcAmCompDef
  3
DesignerAssemblies
 90
     1024
280
     0
281
     0
  0
CLASS
  1
ACAMCOMPDEFMGR
  2
AcAmCompDefMgr
  3
DesignerAssemblies
 90
     1024
280
     0
281
     0
  0
CLASS
  1
AMCONTEXTMGR
  2
AcAmContextMgr
  3
DesignerAssemblies
 90
     1024
280
     0
281
     0
  0
CLASS
  1
ACAMCONTEXTMODELER
  2
AcAmContextModeler
  3
DesignerAssemblies
 90
     1024
280
     0
281
     0
  0
CLASS
  1
ACMDATADICTIONARY
  2
AcmDataDictionary
  3
"AcmSymBB|Product Description: AutoCAD Mechanical|Company: Autodesk, Inc."
 90
     1024
280
     0
281
     0
  0
CLASS
  1
ACMDATAENTRYBLOCK
  2
AcmDataEntryBlock
  3
AcmSymBB|Product Description: AutoCAD Mechanical|Company: Autodesk, Inc.
 90
     1024
280
     0
281
     0
  0
CLASS
  1
ACRFATTGENMGR
  2
AcRfAttGeneralMgr
  3
AcAttribServices
 90
     1024
280
     0
281
     0
  0
CLASS
  1
ACRFOBJATTMGR
  2
AcRfObjAttGroupMgr
  3
AcAttribServices
 90
     1024
280
     0
281
     0
  0
CLASS
  1
ACRFMCADAPIATTHOLDER
  2
AcRfMCADAPIAttHolder
  3
AcAttribServices
 90
     1024
280
     0
281
     0
  0
CLASS
  1
AMDTSYSATTR
  2
AmdtSystemAttribute
  3
AcAttribServices
 90
     1024
280
     0
281
     0
  0
CLASS
  1
CATALOGSTATE
  2
AcAmCatalogState
  3
DesignerAssemblies
 90
     1024
280
     0
281
     0
  0
CLASS
  1
ACAMGRCOMPDEFSET
  2
AcAmGrCompDefSet
  3
DesignerAssemblies
 90
     1024
280
     0
281
     0
  0
CLASS
  1
AMDTBROWSERDBTAB
  2
AmdtBrowserDbTab
  3
McadcomServices
 90
     1024
280
     0
281
     0
  0
CLASS
  1
CBROWSERAPPOBJECT
  2
CBrowserAppObject
  3
McadcomServices
 90
     1024
280
     0
281
     0
  0
CLASS
  1
DM_PLACEHOLDER
  2
AcDmSelsetPlaceholder
  3
AcMechDwgViewMgmt
 90
     1024
280
     0
281
     0
  0
CLASS
  1
ACMSTANDARDANSI
  2
AcmStandardANSI
  3
"Amdt_StdImp|Product Description: AutoCAD Mechanical|Company: Autodesk, Inc."
 90
     1024
280
     0
281
     0
  0
CLASS
  1
ACMSURFSTANDARDANSI
  2
AcmSurfTextStdANSI
  3
"Amdt_StdImp|Product Description: AutoCAD Mechanical|Company: Autodesk, Inc."
 90
     1024
280
     0
281
     0
  0
CLASS
  1
ACMFCFSTANDARDANSI
  2
AcmFCFStdANSI
  3
"Amdt_StdImp|Product Description: AutoCAD Mechanical|Company: Autodesk, Inc."
 90
     1024
280
     0
281
     0
  0
CLASS
  1
ACMWELDSTANDARDANSI
  2
AcmWeldingStdANSI
  3
"Amdt_StdImp|Product Description: AutoCAD Mechanical|Company: Autodesk, Inc."
 90
     1024
280
     0
281
     0
  0
CLASS
  1
ACMIDSTANDARDANSI
  2
AcmIdStdANSI
  3
"Amdt_StdImp|Product Description: AutoCAD Mechanical|Company: Autodesk, Inc."
 90
     1024
280
     0
281
     0
  0
CLASS
  1
ACMDATUMSTANDARDANSI
  2
AcmDatumStdANSI
  3
"Amdt_StdImp|Product Description: AutoCAD Mechanical|Company: Autodesk, Inc."
 90
     1024
280
     0
281
     0
  0
CLASS
  1
ACMBOMSTANDARDANSI
  2
AcmBOMStdANSI
  3
"Amdt_StdImp|Product Description: AutoCAD Mechanical|Company: Autodesk, Inc."
 90
     1024
280
     0
281
     0
  0
CLASS
  1
ACMDETAILSTANDARDANSI
  2
AmdtDetailSymStdANSI
  3
"Amdt_StdImp|Product Description: AutoCAD Mechanical|Company: Autodesk, Inc."
 90
     1024
280
     0
281
     0
  0
CLASS
  1
ACMSECTIONSTANDARDANSI
  2
AmdtSectionSymStdANSI
  3
"Amdt_StdImp|Product Description: AutoCAD Mechanical|Company: Autodesk, Inc."
 90
     1024
280
     0
281
     0
  0
CLASS
  1
ACMCENTERLINESTANDARDANSI
  2
AmdtCenterLineStdANSI
  3
"Amdt_StdImp|Product Description: AutoCAD Mechanical|Company: Autodesk, Inc."
 90
     1024
280
     0
281
     0
  0
CLASS
  1
ACMTHREADLINESTANDARDANSI
  2
AmdtThreadLineStdANSI
  3
"Amdt_StdImp|Product Description: AutoCAD Mechanical|Company: Autodesk, Inc."
 90
     1024
280
     0
281
     0
  0
CLASS
  1
ACMNOTESTANDARDANSI
  2
AmdtNoteStdANSI
  3
"Amdt_StdImp|Product Description: AutoCAD Mechanical|Company: Autodesk, Inc."
 90
     1024
280
     0
281
     0
  0
CLASS
  1
ACMTAPERSTANDARDANSI
  2
AcmTaperStdANSI
  3
"Amdt_StdImp|Product Description: AutoCAD Mechanical|Company: Autodesk, Inc."
 90
     1024
280
     0
281
     0
  0
CLASS
  1
ACMANOOTATIONVIEWSTANDARDANSI
  2
AmdtAnViewStdANSI
  3
"Amdt_StdImp|Product Description: AutoCAD Mechanical|Company: Autodesk, Inc."
 90
     1024
280
     0
281
     0
  0
CLASS
  1
ACAMGLAYSTD
  2
AcAmgLayStd
  3
"AmgLay|Product Description: AutoCAD Mechanical|Company: Autodesk, Inc."
 90
     1024
280
     0
281
     0
  0
CLASS
  1
ACAMGDIMSTD
  2
AcAmgDimStd
  3
"AmgDim|Product Description: AutoCAD Mechanical|Company: Autodesk, Inc."
 90
     1024
280
     0
281
     0
  0
CLASS
  1
ACAMGHOLECHARTSTDANSI
  2
AcAmgHoleChartStdANSI
  3
AmgDim|Product Description: AutoCAD Mechanical|Company: Autodesk, Inc.
 90
     1024
280
     0
281
     0
  0
CLASS
  1
AMGOBJPROPCFG
  2
AmgObjPropCfg
  3
"AmgLay|Product Description: AutoCAD Mechanical|Company: Autodesk, Inc."
 90
     1025
280
     0
281
     0
  0
CLASS
  1
ACAMGTITLESTD
  2
AcAmgTitleStd
  3
"AmgTitle|Product Description: AutoCAD Mechanical|Company: Autodesk, Inc."
 90
     4095
280
     0
281
     0
  0
CLASS
  1
AMDTNOTETEMPLATEDB
  2
AmdtNoteTemplateDB
  3
AcmSymBB|Product Description: AutoCAD Mechanical|Company: Autodesk, Inc.
 90
     1024
280
     0
281
     0
  0
CLASS
  1
ACAMGFILTERDAT
  2
AcAmgFilterDat
  3
"AcadM|Product Description: AutoCAD Mechanical|Company: Autodesk, Inc."
 90
     1024
280
     0
281
     0
  0
CLASS
  1
LAYER_INDEX
  2
AcDbLayerIndex
  3
ObjectDBX Classes
 90
        0
280
     0
281
     0
  0
CLASS
  1
IDBUFFER
  2
AcDbIdBuffer
  3
ObjectDBX Classes
 90
        0
280
     0
281
     0
  0
CLASS
  1
DICTIONARYVAR
  2
AcDbDictionaryVar
  3
ObjectDBX Classes
 90
        0
280
     0
281
     0
  0
CLASS
  1
CELLSTYLEMAP
  2
AcDbCellStyleMap
  3
ObjectDBX Classes
 90
     1152
280
     0
281
     0
  0
CLASS
  1
ACDBPLACEHOLDER
  2
AcDbPlaceHolder
  3
ObjectDBX Classes
 90
        0
280
     0
281
     0
  0
CLASS
  1
LAYOUT
  2
AcDbLayout
  3
ObjectDBX Classes
 90
        0
280
     0
281
     0
  0
ENDSEC
  0
SECTION
  2
TABLES
  0
TABLE
  2
VPORT
  5
28CC
330
0
100
AcDbSymbolTable
 70
     1
  0
VPORT
  5
293C
330
28CC
100
AcDbSymbolTableRecord
100
AcDbViewportTableRecord
  2
*ACTIVE
 70
     0
 10
0.0
 20
0.0
 11
1.0
 21
1.0
 12
-0.0000000000001137
 22
-107.0997462455063
 13
0.0
 23
0.0
 14
1.0
 24
1.0
 15
0.0
 25
0.0
 16
0.0
 26
0.0
 36
1.0
 17
103.5530229838944
 27
-134.1874757018156
 37
0.0
 40
1721.770028700106
 41
1.712555066079295
 42
50.0
 43
0.0
 44
0.0
 50
0.0
 51
0.0
 71
     0
 72
   100
 73
     1
 74
     0
 75
     0
 76
     0
 77
     0
 78
     0
281
     0
 65
     0
110
0.0
120
0.0
130
0.0
111
1.0
121
0.0
131
0.0
112
0.0
122
1.0
132
0.0
 79
     0
146
0.0
  0
ENDTAB
  0
TABLE
  2
LTYPE
  5
28C9
330
0
100
AcDbSymbolTable
 70
    19
  0
LTYPE
  5
2926
330
28C9
100
AcDbSymbolTableRecord
100
AcDbLinetypeTableRecord
  2
ByBlock
 70
     0
  3

 72
    65
 73
     0
 40
0.0
  0
LTYPE
  5
2927
330
28C9
100
AcDbSymbolTableRecord
100
AcDbLinetypeTableRecord
  2
ByLayer
 70
     0
  3

 72
    65
 73
     0
 40
0.0
  0
LTYPE
  5
2928
330
28C9
100
AcDbSymbolTableRecord
100
AcDbLinetypeTableRecord
  2
CONTINUOUS
 70
     0
  3
実線
 72
    65
 73
     0
 40
0.0
  0
LTYPE
  5
293D
330
28C9
100
AcDbSymbolTableRecord
100
AcDbLinetypeTableRecord
  2
DASHDOT
 70
     0
  3
____ _ ____ _ ____ _ ____ _ ____ _ ____ _ ____
 72
    65
 73
     4
 40
5.5
 49
4.0
 74
     0
 49
-0.6
 74
     0
 49
0.3
 74
     0
 49
-0.6
 74
     0
  0
LTYPE
  5
293E
330
28C9
100
AcDbSymbolTableRecord
100
AcDbLinetypeTableRecord
  2
HIDDEN
 70
     0
  3
Hidden __ __ __ __ __ __ __ __ __ __ __ __ __ _
 72
    65
 73
     2
 40
0.375
 49
0.25
 74
     0
 49
-0.125
 74
     0
  0
LTYPE
  5
293F
330
28C9
100
AcDbSymbolTableRecord
100
AcDbLinetypeTableRecord
  2
PHANTOM2
 70
     0
  3
Phantom (.5x) ___ _ _ ___ _ _ ___ _ _ ___ _ _
 72
    65
 73
     6
 40
1.25
 49
0.625
 74
     0
 49
-0.125
 74
     0
 49
0.125
 74
     0
 49
-0.125
 74
     0
 49
0.125
 74
     0
 49
-0.125
 74
     0
  0
LTYPE
  5
2940
330
28C9
100
AcDbSymbolTableRecord
100
AcDbLinetypeTableRecord
  2
CENTER
 70
     0
  3
Center ____ _ ____ _ ____ _ ____ _ ____ _ ____
 72
    65
 73
     4
 40
2.0
 49
1.25
 74
     0
 49
-0.25
 74
     0
 49
0.25
 74
     0
 49
-0.25
 74
     0
  0
LTYPE
  5
2941
330
28C9
100
AcDbSymbolTableRecord
100
AcDbLinetypeTableRecord
  2
ASULTYPE
 70
     0
  3
実線
 72
    65
 73
     2
 40
3.0
 49
2.5
 74
     0
 49
0.5
 74
     0
  0
LTYPE
  5
2942
330
28C9
100
AcDbSymbolTableRecord
100
AcDbLinetypeTableRecord
  2
ASVLTYPE
 70
     0
  3
__ __ __ __ __ __ __ __ __ __ __ __ __ __ __ __ __ __ __ __ __
 72
    65
 73
     2
 40
0.75
 49
0.5
 74
     0
 49
-0.25
 74
     0
  0
LTYPE
  5
2943
330
28C9
100
AcDbSymbolTableRecord
100
AcDbLinetypeTableRecord
  2
AM_ISO02W050
 70
     0
  3
__ __ __ __ __ __ __ __ __ __ __ __ __ __ __
 72
    65
 73
     2
 40
7.5
 49
6.0
 74
     0
 49
-1.5
 74
     0
  0
LTYPE
  5
2944
330
28C9
100
AcDbSymbolTableRecord
100
AcDbLinetypeTableRecord
  2
AM_ISO08W050
 70
     0
  3
____ . ____ . ____ . ____ . ____ . ____ . ____
 72
    65
 73
     4
 40
18.0
 49
12.0
 74
     0
 49
-1.5
 74
     0
 49
3.0
 74
     0
 49
-1.5
 74
     0
  0
LTYPE
  5
2945
330
28C9
100
AcDbSymbolTableRecord
100
AcDbLinetypeTableRecord
  2
AM_ISO09W050
 70
     0
  3
_____ . . _____ . . _____ . . ____ .. ____
 72
    65
 73
     6
 40
22.5
 49
12.0
 74
     0
 49
-1.5
 74
     0
 49
3.0
 74
     0
 49
-1.5
 74
     0
 49
3.0
 74
     0
 49
-1.5
 74
     0
  0
LTYPE
  5
2946
330
28C9
100
AcDbSymbolTableRecord
100
AcDbLinetypeTableRecord
  2
AMCONSTR
 70
     0
  3
_______________________
 72
    65
 73
     2
 40
9999.0
 49
9999.0
 74
     0
 49
0.0
 74
     0
  0
LTYPE
  5
2947
330
28C9
100
AcDbSymbolTableRecord
100
AcDbLinetypeTableRecord
  2
AM_ISO08W050X2
 70
     0
  3
__ . __ . __ . __ . __ . __
 72
    65
 73
     4
 40
9.0
 49
6.0
 74
     0
 49
-0.75
 74
     0
 49
1.5
 74
     0
 49
-0.75
 74
     0
  0
LTYPE
  5
2948
330
28C9
100
AcDbSymbolTableRecord
100
AcDbLinetypeTableRecord
  2
AM_ISO02W050X2
 70
     0
  3
 _ _ _ _ _ _ _ _ _ _ _ _
 72
    65
 73
     2
 40
3.75
 49
3.0
 74
     0
 49
-0.75
 74
     0
  0
LTYPE
  5
2949
330
28C9
100
AcDbSymbolTableRecord
100
AcDbLinetypeTableRecord
  2
AMZIGZAG
 70
     0
  3
/\/-/\/-/\/-/\/-/\/-/\/
 72
    65
 73
     2
 40
11.0001
 49
0.0001
 74
     0
 49
-11.0
 74
     0
  0
LTYPE
  5
294A
330
28C9
100
AcDbSymbolTableRecord
100
AcDbLinetypeTableRecord
  2
CENTER2
 70
     0
  3
Center (.5x) ___ _ ___ _ ___ _ ___ _ ___ _ ___
 72
    65
 73
     4
 40
1.125
 49
0.75
 74
     0
 49
-0.125
 74
     0
 49
0.125
 74
     0
 49
-0.125
 74
     0
  0
LTYPE
  5
294B
330
28C9
100
AcDbSymbolTableRecord
100
AcDbLinetypeTableRecord
  2
HIDDEN2
 70
     0
  3
Hidden (.5x) _ _ _ _ _ _ _ _ _ _ _ _ _ _ _ _ _
 72
    65
 73
     2
 40
0.1875
 49
0.125
 74
     0
 49
-0.0625
 74
     0
  0
LTYPE
  5
294C
330
28C9
100
AcDbSymbolTableRecord
100
AcDbLinetypeTableRecord
  2
AMZIGZAG2
 70
     0
  3
/\/-/\/-/\/-/\/-/\/-/\/
 72
    65
 73
     2
 40
0.4401
 49
0.0001
 74
     0
 49
-0.4400000000000003
 74
     0
  0
LTYPE
  5
294D
330
28C9
100
AcDbSymbolTableRecord
100
AcDbLinetypeTableRecord
  2
ACANSTGB
 70
     0
  3
__ . . __ . .
 72
    65
 73
     6
 40
0.35433070866
 49
0.15748031496
 74
     0
 49
-0.03937007874
 74
     0
 49
0.03937007874
 74
     0
 49
-0.03937007874
 74
     0
 49
0.03937007874
 74
     0
 49
-0.03937007874
 74
     0
  0
LTYPE
  5
294E
330
28C9
100
AcDbSymbolTableRecord
100
AcDbLinetypeTableRecord
  2
ACANSTGL
 70
     0
  3
_ _ _ _ _
 72
    65
 73
     2
 40
0.11811023622
 49
0.07874015748
 74
     0
 49
-0.03937007874
 74
     0
  0
ENDTAB
  0
TABLE
  2
LAYER
  5
28C6
330
0
100
AcDbSymbolTable
 70
    12
  0
LAYER
  5
2920
102
{ACAD_XDICTIONARY
360
2AFF
102
}
330
28C6
100
AcDbSymbolTableRecord
100
AcDbLayerTableRecord
  2
0
 70
     0
 62
     7
  6
CONTINUOUS
370
    -3
390
28D3
  0
LAYER
  5
294F
102
{ACAD_XDICTIONARY
360
2B01
102
}
330
28C6
100
AcDbSymbolTableRecord
100
AcDbLayerTableRecord
  2
OUTLINE
 70
     0
 62
     3
  6
CONTINUOUS
370
    -3
390
28D3
  0
LAYER
  5
2950
102
{ACAD_XDICTIONARY
360
2B03
102
}
330
28C6
100
AcDbSymbolTableRecord
100
AcDbLayerTableRecord
  2
SIZE
 70
     0
 62
    30
  6
CONTINUOUS
370
    -3
390
28D3
  0
LAYER
  5
2951
102
{ACAD_XDICTIONARY
360
2B05
102
}
330
28C6
100
AcDbSymbolTableRecord
100
AcDbLayerTableRecord
  2
BASIS
 70
     0
 62
     6
  6
DASHDOT
370
    -3
390
28D3
  0
LAYER
  5
2952
102
{ACAD_XDICTIONARY
360
2B07
102
}
330
28C6
100
AcDbSymbolTableRecord
100
AcDbLayerTableRecord
  2
DETAIL
 70
     0
 62
     5
  6
CONTINUOUS
370
    -3
390
28D3
  0
LAYER
  5
2953
102
{ACAD_XDICTIONARY
360
2B09
102
}
330
28C6
100
AcDbSymbolTableRecord
100
AcDbLayerTableRecord
  2
ARRANGE
 70
     0
 62
     1
  6
CONTINUOUS
370
    -3
390
28D3
  0
LAYER
  5
2954
330
28C6
100
AcDbSymbolTableRecord
100
AcDbLayerTableRecord
  2
DEFPOINTS
 70
     0
 62
     7
  6
CONTINUOUS
290
     0
370
    -3
390
28D3
  0
LAYER
  5
2955
102
{ACAD_XDICTIONARY
360
2B0B
102
}
330
28C6
100
AcDbSymbolTableRecord
100
AcDbLayerTableRecord
  2
ETC
 70
     0
 62
    61
  6
CONTINUOUS
370
    -3
390
28D3
  0
LAYER
  5
2956
102
{ACAD_XDICTIONARY
360
2B0D
102
}
330
28C6
100
AcDbSymbolTableRecord
100
AcDbLayerTableRecord
  2
FIX
 70
     0
 62
    11
  6
CONTINUOUS
370
    -3
390
28D3
  0
LAYER
  5
2957
102
{ACAD_XDICTIONARY
360
2B0F
102
}
330
28C6
100
AcDbSymbolTableRecord
100
AcDbLayerTableRecord
  2
NOTE
 70
     0
 62
     4
  6
CONTINUOUS
370
    -3
390
28D3
  0
LAYER
  5
2958
102
{ACAD_XDICTIONARY
360
2B11
102
}
330
28C6
100
AcDbSymbolTableRecord
100
AcDbLayerTableRecord
  2
SERVICESPACE
 70
     0
 62
     2
  6
DASHDOT
370
    -3
390
28D3
  0
LAYER
  5
2959
102
{ACAD_XDICTIONARY
360
2B13
102
}
330
28C6
100
AcDbSymbolTableRecord
100
AcDbLayerTableRecord
  2
SYMBOLLINE
 70
     0
 62
    15
  6
CONTINUOUS
370
    -3
390
28D3
  0
ENDTAB
  0
TABLE
  2
STYLE
  5
28C7
330
0
100
AcDbSymbolTable
 70
     5
  0
STYLE
  5
2921
330
28C7
100
AcDbSymbolTableRecord
100
AcDbTextStyleTableRecord
  2
STANDARD
 70
     0
 40
64.0
 41
0.9
 50
0.0
 71
     0
 42
64.0
  3
SIMPLEX.shx
  4
BIGFONT.shx
  0
STYLE
  5
2925
330
28C7
100
AcDbSymbolTableRecord
100
AcDbTextStyleTableRecord
  2
ANNOTATIVE
 70
     0
 40
0.0
 41
1.0
 50
0.0
 71
     0
 42
0.2
  3
txt
  4

1001
ACADANNOTATIVE
1000
AnnotativeData
1002
{
1070
     1
1070
     1
1002
}
  0
STYLE
  5
295A
330
28C7
100
AcDbSymbolTableRecord
100
AcDbTextStyleTableRecord
  2

 70
     1
 40
0.0
 41
1.0
 50
0.0
 71
     0
 42
64.0
  3
genltshp.shx
  4

  0
STYLE
  5
295B
330
28C7
100
AcDbSymbolTableRecord
100
AcDbTextStyleTableRecord
  2
ACANSTS
 70
     0
 40
1.0
 41
1.0
 50
0.0
 71
     0
 42
64.0
  3
romans.shx
  4
extfont.shx
  0
STYLE
  5
295C
330
28C7
100
AcDbSymbolTableRecord
100
AcDbTextStyleTableRecord
  2
ACANSGDT
 70
     0
 40
0.0
 41
1.0
 50
0.0
 71
     0
 42
64.0
  3
amgdt.shx
  4

  0
ENDTAB
  0
TABLE
  2
VIEW
  5
28CA
330
0
100
AcDbSymbolTable
 70
     1
  0
VIEW
  5
295D
330
28CA
100
AcDbSymbolTableRecord
100
AcDbViewTableRecord
  2
ALL
 70
     0
 40
4282.619807999997
 10
0.0
 20
41.30990399999999
 41
5940.0
 11
0.0
 21
0.0
 31
1.0
 12
0.0
 22
0.0
 32
0.0
 42
50.0
 43
0.0
 44
0.0
 50
0.0
 71
     0
281
     0
 72
     1
110
0.0
120
0.0
130
0.0
111
1.0
121
0.0
131
0.0
112
0.0
122
1.0
132
0.0
 79
     0
146
0.0
  0
ENDTAB
  0
TABLE
  2
UCS
  5
28CB
330
0
100
AcDbSymbolTable
 70
     0
  0
ENDTAB
  0
TABLE
  2
APPID
  5
28CD
330
0
100
AcDbSymbolTable
 70
    26
  0
APPID
  5
2922
330
28CD
100
AcDbSymbolTableRecord
100
AcDbRegAppTableRecord
  2
ACAD
 70
     0
  0
APPID
  5
2929
330
28CD
100
AcDbSymbolTableRecord
100
AcDbRegAppTableRecord
  2
ACADANNOTATIVE
 70
     0
  0
APPID
  5
2933
330
28CD
100
AcDbSymbolTableRecord
100
AcDbRegAppTableRecord
  2
ACAD_MLEADERVER
 70
     0
  0
APPID
  5
295E
330
28CD
100
AcDbSymbolTableRecord
100
AcDbRegAppTableRecord
  2
GENIUS_GENDIM_13
 70
     0
  0
APPID
  5
295F
330
28CD
100
AcDbSymbolTableRecord
100
AcDbRegAppTableRecord
  2
GENIUS_GENDTOL_13
 70
     0
  0
APPID
  5
2960
330
28CD
100
AcDbSymbolTableRecord
100
AcDbRegAppTableRecord
  2
GENIUS_GE3DTOL_13
 70
     0
  0
APPID
  5
2961
330
28CD
100
AcDbSymbolTableRecord
100
AcDbRegAppTableRecord
  2
MCAD_NO_VIS
 70
     0
  0
APPID
  5
2962
330
28CD
100
AcDbSymbolTableRecord
100
AcDbRegAppTableRecord
  2
ACAD_TEMP_GRAPHIC
 70
     0
  0
APPID
  5
2963
330
28CD
100
AcDbSymbolTableRecord
100
AcDbRegAppTableRecord
  2
AD_DRAW
 70
     0
  0
APPID
  5
2964
330
28CD
100
AcDbSymbolTableRecord
100
AcDbRegAppTableRecord
  2
ACATTRIBSERVICES
 70
     0
  0
APPID
  5
2965
330
28CD
100
AcDbSymbolTableRecord
100
AcDbRegAppTableRecord
  2
ASURF_PCURVE_APPNAME
 70
     0
  0
APPID
  5
2966
330
28CD
100
AcDbSymbolTableRecord
100
AcDbRegAppTableRecord
  2
AMG_3D2D_5_0
 70
     0
  0
APPID
  5
2967
330
28CD
100
AcDbSymbolTableRecord
100
AcDbRegAppTableRecord
  2
DESIGNERASSEMBLIES
 70
     0
  0
APPID
  5
2968
330
28CD
100
AcDbSymbolTableRecord
100
AcDbRegAppTableRecord
  2
ACADM_DIM_EDIT
 70
     0
  0
APPID
  5
2969
330
28CD
100
AcDbSymbolTableRecord
100
AcDbRegAppTableRecord
  2
AMDT_DM_ADJ
 70
     0
  0
APPID
  5
296A
330
28CD
100
AcDbSymbolTableRecord
100
AcDbRegAppTableRecord
  2
ACAD_DSTYLE_DIMARC_LENGTH_
 70
     0
  0
APPID
  5
296B
330
28CD
100
AcDbSymbolTableRecord
100
AcDbRegAppTableRecord
  2
ACAD_DSTYLE_DIMJOGGED_JOGA
 70
     0
  0
APPID
  5
296C
330
28CD
100
AcDbSymbolTableRecord
100
AcDbRegAppTableRecord
  2
ACAD_PSEXT
 70
     0
  0
APPID
  5
296D
330
28CD
100
AcDbSymbolTableRecord
100
AcDbRegAppTableRecord
  2
ACAD_EXEMPT_FROM_CAD_STANDARDS
 70
     0
  0
APPID
  5
296E
330
28CD
100
AcDbSymbolTableRecord
100
AcDbRegAppTableRecord
  2
ACAD_DSTYLE_DIMJAG
 70
     0
  0
APPID
  5
296F
330
28CD
100
AcDbSymbolTableRecord
100
AcDbRegAppTableRecord
  2
ACAD_DSTYLE_DIMTALN
 70
     0
  0
APPID
  5
2A9F
330
28CD
100
AcDbSymbolTableRecord
100
AcDbRegAppTableRecord
  2
AMG_3D2D_5.0
 70
     0
  0
APPID
  5
2B3C
330
28CD
100
AcDbSymbolTableRecord
100
AcDbRegAppTableRecord
  2
ACAD_DSTYLE_DIMARC_LENGTH_SYMBOL
 70
     0
  0
APPID
  5
2B3D
330
28CD
100
AcDbSymbolTableRecord
100
AcDbRegAppTableRecord
  2
ACAD_DSTYLE_DIM_LINETYPE
 70
     0
  0
APPID
  5
2B3E
330
28CD
100
AcDbSymbolTableRecord
100
AcDbRegAppTableRecord
  2
ACAD_DSTYLE_DIM_EXT1_LINETYPE
 70
     0
  0
APPID
  5
2B3F
330
28CD
100
AcDbSymbolTableRecord
100
AcDbRegAppTableRecord
  2
ACAD_DSTYLE_DIM_EXT2_LINETYPE
 70
     0
  0
ENDTAB
  0
TABLE
  2
DIMSTYLE
  5
28CE
330
0
100
AcDbSymbolTable
 70
    10
100
AcDbDimStyleTable
 71
     1
340
2970
  0
DIMSTYLE
105
2923
330
28CE
100
AcDbSymbolTableRecord
100
AcDbDimStyleTableRecord
  2
STANDARD
 70
     0
 41
12.0
 42
20.0
 44
20.0
 77
     1
 78
     8
140
64.0
141
0.0
147
10.0
275
     1
279
     2
284
     7
285
     7
286
     7
340
2921
  0
DIMSTYLE
105
2924
330
28CE
100
AcDbSymbolTableRecord
100
AcDbDimStyleTableRecord
  2
ANNOTATIVE
 70
     0
275
     1
279
     2
284
     7
285
     7
286
     7
340
2921
1001
ACADANNOTATIVE
1000
AnnotativeData
1002
{
1070
     1
1070
     1
1002
}
  0
DIMSTYLE
105
2970
330
28CE
100
AcDbSymbolTableRecord
100
AcDbDimStyleTableRecord
  2
AM_ANSI
 70
     0
  4
mm
 41
0.12
 42
0.05
 43
0.5
 44
0.1
 47
0.1
 48
0.1
 78
     7
 79
     2
140
0.12
141
0.0
146
0.71
147
0.06
176
   256
177
   256
178
     2
274
     4
284
     7
340
2921
371
    -1
372
    -1
1001
ACAD_DSTYLE_DIMARC_LENGTH_SYMBOL
1070
   379
1070
     1
1001
ACAD_DSTYLE_DIM_LINETYPE
1070
   380
1005
2926
1001
ACAD_DSTYLE_DIM_EXT1_LINETYPE
1070
   381
1005
2926
1001
ACAD_DSTYLE_DIM_EXT2_LINETYPE
1070
   382
1005
2926
  0
DIMSTYLE
105
2971
330
28CE
100
AcDbSymbolTableRecord
100
AcDbDimStyleTableRecord
  2
AM_ANSI$3
 70
     0
  4
mm
 41
0.12
 42
0.05
 43
0.5
 44
0.1
 47
0.1
 48
0.1
 78
     7
 79
     2
140
0.12
141
0.0
146
0.71
147
0.06
176
   256
177
   256
178
     2
274
     4
284
     7
288
     1
289
     0
340
2921
371
    -1
372
    -1
1001
ACAD_DSTYLE_DIMARC_LENGTH_SYMBOL
1070
   379
1070
     1
1001
ACAD_DSTYLE_DIM_LINETYPE
1070
   380
1005
2926
1001
ACAD_DSTYLE_DIM_EXT1_LINETYPE
1070
   381
1005
2926
1001
ACAD_DSTYLE_DIM_EXT2_LINETYPE
1070
   382
1005
2926
  0
DIMSTYLE
105
2972
330
28CE
100
AcDbSymbolTableRecord
100
AcDbDimStyleTableRecord
  2
AM_ANSI$4
 70
     0
  4
mm
 41
0.12
 42
0.05
 43
0.5
 44
0.1
 47
0.1
 48
0.1
 78
     7
 79
     2
140
0.12
141
0.0
146
0.71
147
0.06
176
   256
177
   256
178
     2
274
     4
284
     7
340
2921
371
    -1
372
    -1
1001
ACAD_DSTYLE_DIMARC_LENGTH_SYMBOL
1070
   379
1070
     1
1001
ACAD_DSTYLE_DIM_LINETYPE
1070
   380
1005
2926
1001
ACAD_DSTYLE_DIM_EXT1_LINETYPE
1070
   381
1005
2926
1001
ACAD_DSTYLE_DIM_EXT2_LINETYPE
1070
   382
1005
2926
  0
DIMSTYLE
105
2973
330
28CE
100
AcDbSymbolTableRecord
100
AcDbDimStyleTableRecord
  2
AM_ANSI$7
 70
     0
  4
mm
 41
0.12
 42
0.05
 43
0.5
 44
0.1
 47
0.1
 48
0.1
 78
     7
 79
     2
140
0.12
141
0.0
146
0.71
147
0.06
176
   256
177
   256
178
     2
274
     4
284
     7
340
2921
371
    -1
372
    -1
1001
ACAD_DSTYLE_DIMARC_LENGTH_SYMBOL
1070
   379
1070
     1
1001
ACAD_DSTYLE_DIM_LINETYPE
1070
   380
1005
2926
1001
ACAD_DSTYLE_DIM_EXT1_LINETYPE
1070
   381
1005
2926
1001
ACAD_DSTYLE_DIM_EXT2_LINETYPE
1070
   382
1005
2926
  0
DIMSTYLE
105
2974
330
28CE
100
AcDbSymbolTableRecord
100
AcDbDimStyleTableRecord
  2
AM_ANSI$SF
 70
     0
  4
mm
 41
0.12
 42
0.05
 43
0.5
 44
0.1
 47
0.1
 48
0.1
 75
     1
 76
     1
 78
     7
 79
     2
140
0.12
141
0.0
146
0.71
147
0.06
176
   256
177
   256
178
     2
274
     4
284
     7
340
2921
371
    -1
372
    -1
1001
ACAD_DSTYLE_DIMARC_LENGTH_SYMBOL
1070
   379
1070
     1
1001
ACAD_DSTYLE_DIM_LINETYPE
1070
   380
1005
2926
1001
ACAD_DSTYLE_DIM_EXT1_LINETYPE
1070
   381
1005
2926
1001
ACAD_DSTYLE_DIM_EXT2_LINETYPE
1070
   382
1005
2926
  0
DIMSTYLE
105
2975
330
28CE
100
AcDbSymbolTableRecord
100
AcDbDimStyleTableRecord
  2
AM_ANSI$SH
 70
     0
  4
mm
 41
0.12
 42
0.05
 43
0.5
 44
0.1
 47
0.1
 48
0.1
 75
     1
 76
     1
 78
     7
 79
     2
140
0.12
141
0.0
146
0.71
147
0.06
173
     1
176
   256
177
   256
178
     2
274
     4
284
     7
340
2921
343
2995
371
    -1
372
    -1
1001
ACAD_DSTYLE_DIMARC_LENGTH_SYMBOL
1070
   379
1070
     1
1001
ACAD_DSTYLE_DIM_LINETYPE
1070
   380
1005
2926
1001
ACAD_DSTYLE_DIM_EXT1_LINETYPE
1070
   381
1005
2926
1001
ACAD_DSTYLE_DIM_EXT2_LINETYPE
1070
   382
1005
2926
  0
DIMSTYLE
105
2976
330
28CE
100
AcDbSymbolTableRecord
100
AcDbDimStyleTableRecord
  2
STANDARD1
 70
     0
 40
6.0
 41
2.5
 42
0.625
 43
6.0
 44
1.25
 47
1.0
 48
0.5
 77
     1
 78
     8
140
2.5
141
0.0
146
0.6
147
1.0
173
     1
275
     1
279
     2
284
     7
285
     7
286
     7
340
2921
  0
DIMSTYLE
105
2977
330
28CE
100
AcDbSymbolTableRecord
100
AcDbDimStyleTableRecord
  2
STANDARD$0
 70
     0
 41
12.0
 42
20.0
 44
20.0
 73
     0
 74
     0
 77
     1
 78
     8
140
64.0
141
0.0
147
10.0
275
     1
279
     2
284
     7
285
     7
286
     7
340
2921
  0
ENDTAB
  0
TABLE
  2
BLOCK_RECORD
  5
28C5
330
0
100
AcDbSymbolTable
 70
    80
  0
BLOCK_RECORD
  5
2938
102
{ACAD_XDICTIONARY
360
2B15
102
}
330
28C5
100
AcDbSymbolTableRecord
100
AcDbBlockTableRecord
  2
*Model_Space
340
293B
  0
BLOCK_RECORD
  5
2934
330
28C5
100
AcDbSymbolTableRecord
100
AcDbBlockTableRecord
  2
*Paper_Space
340
2937
  0
BLOCK_RECORD
  5
297F
330
28C5
100
AcDbSymbolTableRecord
100
AcDbBlockTableRecord
  2
$MODEL_SPACE
340
0
  0
BLOCK_RECORD
  5
2981
330
28C5
100
AcDbSymbolTableRecord
100
AcDbBlockTableRecord
  2
$PAPER_SPACE
340
0
  0
BLOCK_RECORD
  5
2983
330
28C5
100
AcDbSymbolTableRecord
100
AcDbBlockTableRecord
  2
_ORIGIN
340
0
  0
BLOCK_RECORD
  5
2985
330
28C5
100
AcDbSymbolTableRecord
100
AcDbBlockTableRecord
  2
_DOTBLANK
340
0
102
{BLKREFS
331
1299
331
129A
331
11AA
331
11AB
331
E80
331
E81
331
1123
331
1124
331
11C2
331
11C3
331
11EC
331
11ED
331
11F9
331
11FA
331
1287
331
1288
331
1417
331
1418
331
1423
331
1424
331
142F
331
1430
331
143B
331
143C
331
166E
331
166F
331
1677
331
1678
331
1680
331
1681
331
1689
331
168A
331
1696
331
1697
331
16A3
331
16A4
331
16AF
331
16B0
331
16BB
331
16BC
331
16C7
331
16C8
331
16D3
331
16D4
331
1D86
331
1D87
331
1D8F
331
1D90
331
1D98
331
1D99
331
1DA1
331
1DA2
331
1DAB
331
1DAC
331
1DB5
331
1DB6
331
285B
331
285C
331
2860
331
2861
331
2866
331
2867
331
286E
331
286F
331
2874
331
2875
331
2879
331
287A
102
}
  0
BLOCK_RECORD
  5
2987
330
28C5
100
AcDbSymbolTableRecord
100
AcDbBlockTableRecord
  2
_OPEN30
340
0
102
{BLKREFS
331
266C
102
}
  0
BLOCK_RECORD
  5
2989
330
28C5
100
AcDbSymbolTableRecord
100
AcDbBlockTableRecord
  2
*D5
340
0
  0
BLOCK_RECORD
  5
298B
330
28C5
100
AcDbSymbolTableRecord
100
AcDbBlockTableRecord
  2
*U6
340
0
102
{BLKREFS
331
129B
102
}
  0
BLOCK_RECORD
  5
298D
330
28C5
100
AcDbSymbolTableRecord
100
AcDbBlockTableRecord
  2
*D7
340
0
  0
BLOCK_RECORD
  5
298F
330
28C5
100
AcDbSymbolTableRecord
100
AcDbBlockTableRecord
  2
*U8
340
0
102
{BLKREFS
331
11AC
102
}
  0
BLOCK_RECORD
  5
2991
330
28C5
100
AcDbSymbolTableRecord
100
AcDbBlockTableRecord
  2
*D9
340
0
  0
BLOCK_RECORD
  5
2993
330
28C5
100
AcDbSymbolTableRecord
100
AcDbBlockTableRecord
  2
*U10
340
0
102
{BLKREFS
331
E82
102
}
  0
BLOCK_RECORD
  5
2995
330
28C5
100
AcDbSymbolTableRecord
100
AcDbBlockTableRecord
  2
GENAXEH
340
0
  0
BLOCK_RECORD
  5
2997
330
28C5
100
AcDbSymbolTableRecord
100
AcDbBlockTableRecord
  2
*D12
340
0
  0
BLOCK_RECORD
  5
2999
330
28C5
100
AcDbSymbolTableRecord
100
AcDbBlockTableRecord
  2
*U13
340
0
102
{BLKREFS
331
1125
102
}
  0
BLOCK_RECORD
  5
299B
330
28C5
100
AcDbSymbolTableRecord
100
AcDbBlockTableRecord
  2
*D14
340
0
  0
BLOCK_RECORD
  5
299D
330
28C5
100
AcDbSymbolTableRecord
100
AcDbBlockTableRecord
  2
*U15
340
0
102
{BLKREFS
331
11C4
102
}
  0
BLOCK_RECORD
  5
299F
330
28C5
100
AcDbSymbolTableRecord
100
AcDbBlockTableRecord
  2
*D16
340
0
  0
BLOCK_RECORD
  5
29A1
330
28C5
100
AcDbSymbolTableRecord
100
AcDbBlockTableRecord
  2
*U17
340
0
102
{BLKREFS
331
11EE
102
}
  0
BLOCK_RECORD
  5
29A3
330
28C5
100
AcDbSymbolTableRecord
100
AcDbBlockTableRecord
  2
*D18
340
0
  0
BLOCK_RECORD
  5
29A5
330
28C5
100
AcDbSymbolTableRecord
100
AcDbBlockTableRecord
  2
*U19
340
0
102
{BLKREFS
331
11FB
102
}
  0
BLOCK_RECORD
  5
29A7
330
28C5
100
AcDbSymbolTableRecord
100
AcDbBlockTableRecord
  2
*D20
340
0
  0
BLOCK_RECORD
  5
29A9
330
28C5
100
AcDbSymbolTableRecord
100
AcDbBlockTableRecord
  2
*U21
340
0
102
{BLKREFS
331
1289
102
}
  0
BLOCK_RECORD
  5
29AB
330
28C5
100
AcDbSymbolTableRecord
100
AcDbBlockTableRecord
  2
*D22
340
0
  0
BLOCK_RECORD
  5
29AD
330
28C5
100
AcDbSymbolTableRecord
100
AcDbBlockTableRecord
  2
*U23
340
0
102
{BLKREFS
331
1419
102
}
  0
BLOCK_RECORD
  5
29AF
330
28C5
100
AcDbSymbolTableRecord
100
AcDbBlockTableRecord
  2
*D24
340
0
  0
BLOCK_RECORD
  5
29B1
330
28C5
100
AcDbSymbolTableRecord
100
AcDbBlockTableRecord
  2
*U25
340
0
102
{BLKREFS
331
1425
102
}
  0
BLOCK_RECORD
  5
29B3
330
28C5
100
AcDbSymbolTableRecord
100
AcDbBlockTableRecord
  2
*D26
340
0
  0
BLOCK_RECORD
  5
29B5
330
28C5
100
AcDbSymbolTableRecord
100
AcDbBlockTableRecord
  2
*U27
340
0
102
{BLKREFS
331
1431
102
}
  0
BLOCK_RECORD
  5
29B7
330
28C5
100
AcDbSymbolTableRecord
100
AcDbBlockTableRecord
  2
*D28
340
0
  0
BLOCK_RECORD
  5
29B9
330
28C5
100
AcDbSymbolTableRecord
100
AcDbBlockTableRecord
  2
*U29
340
0
102
{BLKREFS
331
143D
102
}
  0
BLOCK_RECORD
  5
29BB
330
28C5
100
AcDbSymbolTableRecord
100
AcDbBlockTableRecord
  2
*D30
340
0
  0
BLOCK_RECORD
  5
29BD
330
28C5
100
AcDbSymbolTableRecord
100
AcDbBlockTableRecord
  2
*U31
340
0
102
{BLKREFS
331
1670
102
}
  0
BLOCK_RECORD
  5
29BF
330
28C5
100
AcDbSymbolTableRecord
100
AcDbBlockTableRecord
  2
*D32
340
0
  0
BLOCK_RECORD
  5
29C1
330
28C5
100
AcDbSymbolTableRecord
100
AcDbBlockTableRecord
  2
*U33
340
0
102
{BLKREFS
331
1679
102
}
  0
BLOCK_RECORD
  5
29C3
330
28C5
100
AcDbSymbolTableRecord
100
AcDbBlockTableRecord
  2
*D34
340
0
  0
BLOCK_RECORD
  5
29C5
330
28C5
100
AcDbSymbolTableRecord
100
AcDbBlockTableRecord
  2
*U35
340
0
102
{BLKREFS
331
1682
102
}
  0
BLOCK_RECORD
  5
29C7
330
28C5
100
AcDbSymbolTableRecord
100
AcDbBlockTableRecord
  2
*D36
340
0
  0
BLOCK_RECORD
  5
29C9
330
28C5
100
AcDbSymbolTableRecord
100
AcDbBlockTableRecord
  2
*U37
340
0
102
{BLKREFS
331
168B
102
}
  0
BLOCK_RECORD
  5
29CB
330
28C5
100
AcDbSymbolTableRecord
100
AcDbBlockTableRecord
  2
*U38
340
0
  0
BLOCK_RECORD
  5
29CD
330
28C5
100
AcDbSymbolTableRecord
100
AcDbBlockTableRecord
  2
*D39
340
0
  0
BLOCK_RECORD
  5
29CF
330
28C5
100
AcDbSymbolTableRecord
100
AcDbBlockTableRecord
  2
*U40
340
0
102
{BLKREFS
331
1698
102
}
  0
BLOCK_RECORD
  5
29D1
330
28C5
100
AcDbSymbolTableRecord
100
AcDbBlockTableRecord
  2
*D41
340
0
  0
BLOCK_RECORD
  5
29D3
330
28C5
100
AcDbSymbolTableRecord
100
AcDbBlockTableRecord
  2
*U42
340
0
102
{BLKREFS
331
16A5
102
}
  0
BLOCK_RECORD
  5
29D5
330
28C5
100
AcDbSymbolTableRecord
100
AcDbBlockTableRecord
  2
*D43
340
0
  0
BLOCK_RECORD
  5
29D7
330
28C5
100
AcDbSymbolTableRecord
100
AcDbBlockTableRecord
  2
*U44
340
0
102
{BLKREFS
331
16B1
102
}
  0
BLOCK_RECORD
  5
29D9
330
28C5
100
AcDbSymbolTableRecord
100
AcDbBlockTableRecord
  2
*D45
340
0
  0
BLOCK_RECORD
  5
29DB
330
28C5
100
AcDbSymbolTableRecord
100
AcDbBlockTableRecord
  2
*U46
340
0
102
{BLKREFS
331
16BD
102
}
  0
BLOCK_RECORD
  5
29DD
330
28C5
100
AcDbSymbolTableRecord
100
AcDbBlockTableRecord
  2
*D47
340
0
  0
BLOCK_RECORD
  5
29DF
330
28C5
100
AcDbSymbolTableRecord
100
AcDbBlockTableRecord
  2
*U48
340
0
102
{BLKREFS
331
16C9
102
}
  0
BLOCK_RECORD
  5
29E1
330
28C5
100
AcDbSymbolTableRecord
100
AcDbBlockTableRecord
  2
*D49
340
0
  0
BLOCK_RECORD
  5
29E3
330
28C5
100
AcDbSymbolTableRecord
100
AcDbBlockTableRecord
  2
*U50
340
0
102
{BLKREFS
331
16D5
102
}
  0
BLOCK_RECORD
  5
29E5
330
28C5
100
AcDbSymbolTableRecord
100
AcDbBlockTableRecord
  2
*D51
340
0
  0
BLOCK_RECORD
  5
29E7
330
28C5
100
AcDbSymbolTableRecord
100
AcDbBlockTableRecord
  2
*U52
340
0
102
{BLKREFS
331
1D88
102
}
  0
BLOCK_RECORD
  5
29E9
330
28C5
100
AcDbSymbolTableRecord
100
AcDbBlockTableRecord
  2
*D53
340
0
  0
BLOCK_RECORD
  5
29EB
330
28C5
100
AcDbSymbolTableRecord
100
AcDbBlockTableRecord
  2
*U54
340
0
102
{BLKREFS
331
1D91
102
}
  0
BLOCK_RECORD
  5
29ED
330
28C5
100
AcDbSymbolTableRecord
100
AcDbBlockTableRecord
  2
*D55
340
0
  0
BLOCK_RECORD
  5
29EF
330
28C5
100
AcDbSymbolTableRecord
100
AcDbBlockTableRecord
  2
*U56
340
0
102
{BLKREFS
331
1D9A
102
}
  0
BLOCK_RECORD
  5
29F1
330
28C5
100
AcDbSymbolTableRecord
100
AcDbBlockTableRecord
  2
*D57
340
0
  0
BLOCK_RECORD
  5
29F3
330
28C5
100
AcDbSymbolTableRecord
100
AcDbBlockTableRecord
  2
*U58
340
0
102
{BLKREFS
331
1DA3
102
}
  0
BLOCK_RECORD
  5
29F5
330
28C5
100
AcDbSymbolTableRecord
100
AcDbBlockTableRecord
  2
*D59
340
0
  0
BLOCK_RECORD
  5
29F7
330
28C5
100
AcDbSymbolTableRecord
100
AcDbBlockTableRecord
  2
*U60
340
0
102
{BLKREFS
331
1DAD
102
}
  0
BLOCK_RECORD
  5
29F9
330
28C5
100
AcDbSymbolTableRecord
100
AcDbBlockTableRecord
  2
*D61
340
0
  0
BLOCK_RECORD
  5
29FB
330
28C5
100
AcDbSymbolTableRecord
100
AcDbBlockTableRecord
  2
*U62
340
0
102
{BLKREFS
331
1DB7
102
}
  0
BLOCK_RECORD
  5
29FD
330
28C5
100
AcDbSymbolTableRecord
100
AcDbBlockTableRecord
  2
*U63
340
0
  0
BLOCK_RECORD
  5
29FF
330
28C5
100
AcDbSymbolTableRecord
100
AcDbBlockTableRecord
  2
*U64
340
0
102
{BLKREFS
331
282C
102
}
  0
BLOCK_RECORD
  5
2A01
330
28C5
100
AcDbSymbolTableRecord
100
AcDbBlockTableRecord
  2
*U65
340
0
102
{BLKREFS
331
282D
102
}
  0
BLOCK_RECORD
  5
2A03
330
28C5
100
AcDbSymbolTableRecord
100
AcDbBlockTableRecord
  2
*X66
340
0
102
{BLKREFS
331
2852
102
}
  0
BLOCK_RECORD
  5
2A05
330
28C5
100
AcDbSymbolTableRecord
100
AcDbBlockTableRecord
  2
*X67
340
0
102
{BLKREFS
331
2853
102
}
  0
BLOCK_RECORD
  5
2A07
330
28C5
100
AcDbSymbolTableRecord
100
AcDbBlockTableRecord
  2
*U68
340
0
  0
BLOCK_RECORD
  5
2A09
330
28C5
100
AcDbSymbolTableRecord
100
AcDbBlockTableRecord
  2
*U69
340
0
  0
BLOCK_RECORD
  5
2A0B
330
28C5
100
AcDbSymbolTableRecord
100
AcDbBlockTableRecord
  2
*U70
340
0
  0
BLOCK_RECORD
  5
2A0D
330
28C5
100
AcDbSymbolTableRecord
100
AcDbBlockTableRecord
  2
*U71
340
0
  0
BLOCK_RECORD
  5
2A0F
330
28C5
100
AcDbSymbolTableRecord
100
AcDbBlockTableRecord
  2
*U72
340
0
  0
BLOCK_RECORD
  5
2A11
330
28C5
100
AcDbSymbolTableRecord
100
AcDbBlockTableRecord
  2
*U73
340
0
  0
BLOCK_RECORD
  5
2A13
330
28C5
100
AcDbSymbolTableRecord
100
AcDbBlockTableRecord
  2
*U74
340
0
  0
BLOCK_RECORD
  5
2A15
330
28C5
100
AcDbSymbolTableRecord
100
AcDbBlockTableRecord
  2
*U75
340
0
  0
BLOCK_RECORD
  5
2A17
330
28C5
100
AcDbSymbolTableRecord
100
AcDbBlockTableRecord
  2
*U76
340
0
  0
BLOCK_RECORD
  5
2A19
330
28C5
100
AcDbSymbolTableRecord
100
AcDbBlockTableRecord
  2
*U77
340
0
  0
BLOCK_RECORD
  5
2A1B
330
28C5
100
AcDbSymbolTableRecord
100
AcDbBlockTableRecord
  2
*U78
340
0
  0
ENDTAB
  0
ENDSEC
  0
SECTION
  2
BLOCKS
  0
BLOCK
  5
2939
330
2938
100
AcDbEntity
  8
0
100
AcDbBlockBegin
  2
*Model_Space
 70
     0
 10
0.0
 20
0.0
 30
0.0
  3
*Model_Space
  1

  0
ENDBLK
  5
293A
330
2938
100
AcDbEntity
  8
0
100
AcDbBlockEnd
  0
BLOCK
  5
2935
330
2934
100
AcDbEntity
 67
     1
  8
0
100
AcDbBlockBegin
  2
*Paper_Space
 70
     0
 10
0.0
 20
0.0
 30
0.0
  3
*Paper_Space
  1

  0
ENDBLK
  5
2936
330
2934
100
AcDbEntity
 67
     1
  8
0
100
AcDbBlockEnd
  0
BLOCK
  5
2980
330
297F
100
AcDbEntity
  8
0
100
AcDbBlockBegin
  2
$MODEL_SPACE
 70
     0
 10
0.0
 20
0.0
 30
0.0
  3
$MODEL_SPACE
  1

  0
ENDBLK
  5
1FC1
330
297F
100
AcDbEntity
  8
0
100
AcDbBlockEnd
  0
BLOCK
  5
2982
330
2981
100
AcDbEntity
  8
0
100
AcDbBlockBegin
  2
$PAPER_SPACE
 70
     0
 10
0.0
 20
0.0
 30
0.0
  3
$PAPER_SPACE
  1

  0
ENDBLK
  5
1FBD
330
2981
100
AcDbEntity
  8
0
100
AcDbBlockEnd
  0
BLOCK
  5
2984
330
2983
100
AcDbEntity
  8
0
100
AcDbBlockBegin
  2
_ORIGIN
 70
     0
 10
0.0
 20
0.0
 30
0.0
  3
_ORIGIN
  1

  0
CIRCLE
  5
880
330
2983
100
AcDbEntity
  8
0
  6
Continuous
 62
     7
100
AcDbCircle
 10
0.0
 20
0.0
 30
0.0
 40
0.5
  0
LINE
  5
881
330
2983
100
AcDbEntity
  8
0
  6
Continuous
 62
     7
100
AcDbLine
 10
0.0
 20
0.0
 30
0.0
 11
-1.0
 21
0.0
 31
0.0
  0
ENDBLK
  5
882
330
2983
100
AcDbEntity
  8
0
100
AcDbBlockEnd
  0
BLOCK
  5
2986
330
2985
100
AcDbEntity
  8
0
 62
     1
100
AcDbBlockBegin
  2
_DOTBLANK
 70
     0
 10
0.0
 20
0.0
 30
0.0
  3
_DOTBLANK
  1

  0
CIRCLE
  5
AB3
330
2985
100
AcDbEntity
  8
0
  6
ByBlock
 62
     0
100
AcDbCircle
 10
0.0
 20
0.0
 30
0.0
 40
0.5
  0
LINE
  5
AB4
330
2985
100
AcDbEntity
  8
0
  6
ByBlock
 62
     0
100
AcDbLine
 10
-0.5
 20
0.0
 30
0.0
 11
-1.0
 21
0.0
 31
0.0
  0
ENDBLK
  5
AB6
330
2985
100
AcDbEntity
  8
0
 62
     1
100
AcDbBlockEnd
  0
BLOCK
  5
2988
330
2987
100
AcDbEntity
  8
0
 62
     1
100
AcDbBlockBegin
  2
_OPEN30
 70
     0
 10
0.0
 20
0.0
 30
0.0
  3
_OPEN30
  1

  0
LINE
  5
AB8
330
2987
100
AcDbEntity
  8
0
  6
ByBlock
 62
     0
100
AcDbLine
 10
-1.0
 20
0.26794919
 30
0.0
 11
0.0
 21
0.0
 31
0.0
  0
LINE
  5
AB9
330
2987
100
AcDbEntity
  8
0
  6
ByBlock
 62
     0
100
AcDbLine
 10
0.0
 20
0.0
 30
0.0
 11
-1.0
 21
-0.26794919
 31
0.0
  0
LINE
  5
ABA
330
2987
100
AcDbEntity
  8
0
  6
ByBlock
 62
     0
100
AcDbLine
 10
0.0
 20
0.0
 30
0.0
 11
-1.0
 21
0.0
 31
0.0
  0
ENDBLK
  5
ABC
330
2987
100
AcDbEntity
  8
0
 62
     1
100
AcDbBlockEnd
  0
BLOCK
  5
298A
330
2989
100
AcDbEntity
  8
0
100
AcDbBlockBegin
  2
*D5
 70
     1
 10
0.0
 20
0.0
 30
0.0
  3
*D5
  1

  0
LINE
  5
1296
330
2989
100
AcDbEntity
  8
SIZE
 62
     0
100
AcDbLine
 10
-134.5
 20
-320.0
 30
0.0
 11
-134.5
 21
-468.0173952306001
 31
0.0
  0
LINE
  5
1297
330
2989
100
AcDbEntity
  8
SIZE
 62
     0
100
AcDbLine
 10
134.5
 20
-320.0
 30
0.0
 11
134.5
 21
-468.0173952306001
 31
0.0
  0
LINE
  5
1298
330
2989
100
AcDbEntity
  8
SIZE
 62
     0
100
AcDbLine
 10
-122.5
 20
-448.0173952306
 30
0.0
 11
122.5
 21
-448.0173952306
 31
0.0
  0
INSERT
  5
1299
330
2989
100
AcDbEntity
  8
SIZE
 62
     0
100
AcDbBlockReference
  2
_DOTBLANK
 10
-134.5
 20
-448.0173952306
 30
0.0
 41
12.0
 42
12.0
 43
12.0
 50
180.0
  0
INSERT
  5
129A
330
2989
100
AcDbEntity
  8
SIZE
 62
     0
100
AcDbBlockReference
  2
_DOTBLANK
 10
134.5
 20
-448.0173952306
 30
0.0
 41
12.0
 42
12.0
 43
12.0
  0
INSERT
  5
129B
330
2989
100
AcDbEntity
  8
0
100
AcDbBlockReference
  2
*U6
 10
0.0
 20
0.0
 30
0.0
  0
POINT
  5
129C
330
2989
100
AcDbEntity
  8
DEFPOINTS
 62
     0
100
AcDbPoint
 10
-134.5
 20
-300.0
 30
0.0
  0
POINT
  5
129D
330
2989
100
AcDbEntity
  8
DEFPOINTS
 62
     0
100
AcDbPoint
 10
134.5
 20
-300.0
 30
0.0
  0
POINT
  5
129E
330
2989
100
AcDbEntity
  8
DEFPOINTS
 62
     0
100
AcDbPoint
 10
134.5
 20
-448.0173952306
 30
0.0
  0
ENDBLK
  5
D72
330
2989
100
AcDbEntity
  8
0
100
AcDbBlockEnd
  0
BLOCK
  5
298C
330
298B
100
AcDbEntity
  8
0
100
AcDbBlockBegin
  2
*U6
 70
     1
 10
0.0
 20
0.0
 30
0.0
  3
*U6
  1

  0
TEXT
  5
1EF5
330
298B
100
AcDbEntity
  8
SIZE
 62
     0
100
AcDbText
 10
-72.68571428571426
 20
-438.0173952305999
 30
0.0
 40
64.0
  1
269
 41
0.9
100
AcDbText
  0
ENDBLK
  5
1EF7
330
298B
100
AcDbEntity
  8
0
100
AcDbBlockEnd
  0
BLOCK
  5
298E
330
298D
100
AcDbEntity
  8
0
100
AcDbBlockBegin
  2
*D7
 70
     1
 10
0.0
 20
0.0
 30
0.0
  3
*D7
  1

  0
LINE
  5
11A7
330
298D
100
AcDbEntity
  8
SIZE
  6
Continuous
 62
     0
100
AcDbLine
 10
143.5
 20
-300.0
 30
0.0
 11
304.6432844803791
 21
-300.0
 31
0.0
  0
LINE
  5
11A8
330
298D
100
AcDbEntity
  8
SIZE
  6
Continuous
 62
     0
100
AcDbLine
 10
177.5
 20
-0.0000000000000057
 30
0.0
 11
304.6432844803792
 21
-0.0000000000000417
 31
0.0
  0
LINE
  5
11A9
330
298D
100
AcDbEntity
  8
SIZE
  6
Continuous
 62
     0
100
AcDbLine
 10
284.6432844803791
 20
-288.0000000000001
 30
0.0
 11
284.6432844803792
 21
-12.00000000000003
 31
0.0
  0
INSERT
  5
11AA
330
298D
100
AcDbEntity
  8
SIZE
  6
Continuous
 62
     0
100
AcDbBlockReference
  2
_DOTBLANK
 10
284.6432844803791
 20
-300.0
 30
0.0
 41
12.0
 42
12.0
 43
12.0
 50
270.0
  0
INSERT
  5
11AB
330
298D
100
AcDbEntity
  8
SIZE
  6
Continuous
 62
     0
100
AcDbBlockReference
  2
_DOTBLANK
 10
284.6432844803792
 20
-0.000000000000036
 30
0.0
 41
12.0
 42
12.0
 43
12.0
 50
90.0
  0
INSERT
  5
11AC
330
298D
100
AcDbEntity
  8
0
100
AcDbBlockReference
  2
*U8
 10
0.0
 20
0.0
 30
0.0
  0
POINT
  5
11AD
330
298D
100
AcDbEntity
  8
DEFPOINTS
  6
Continuous
 62
     0
100
AcDbPoint
 10
123.5
 20
-300.0
 30
0.0
  0
POINT
  5
11AE
330
298D
100
AcDbEntity
  8
DEFPOINTS
  6
Continuous
 62
     0
100
AcDbPoint
 10
157.5
 20
0.0
 30
0.0
  0
POINT
  5
11AF
330
298D
100
AcDbEntity
  8
DEFPOINTS
  6
Continuous
 62
     0
100
AcDbPoint
 10
284.6432844803792
 20
-0.000000000000036
 30
0.0
  0
ENDBLK
  5
E11
330
298D
100
AcDbEntity
  8
0
100
AcDbBlockEnd
  0
BLOCK
  5
2990
330
298F
100
AcDbEntity
  8
0
100
AcDbBlockBegin
  2
*U8
 70
     1
 10
0.0
 20
0.0
 30
0.0
  3
*U8
  1

  0
TEXT
  5
1EE1
330
298F
100
AcDbEntity
  8
SIZE
 62
     0
100
AcDbText
 10
274.6432844803792
 20
-224.0571428571429
 30
0.0
 40
64.0
  1
300
 50
90.0
 41
0.9
100
AcDbText
  0
ENDBLK
  5
1EE3
330
298F
100
AcDbEntity
  8
0
100
AcDbBlockEnd
  0
BLOCK
  5
2992
330
2991
100
AcDbEntity
  8
0
100
AcDbBlockBegin
  2
*D9
 70
     1
 10
0.0
 20
0.0
 30
0.0
  3
*D9
  1

  0
LINE
  5
E7D
330
2991
100
AcDbEntity
  8
SIZE
 62
     0
100
AcDbLine
 10
-139.9999999999998
 20
32.46448280219375
 30
0.0
 11
-139.9999999999998
 21
136.4516878685508
 31
0.0
  0
LINE
  5
E7E
330
2991
100
AcDbEntity
  8
SIZE
 62
     0
100
AcDbLine
 10
140.0
 20
32.46448280219375
 30
0.0
 11
140.0
 21
136.4516878685508
 31
0.0
  0
LINE
  5
E7F
330
2991
100
AcDbEntity
  8
SIZE
 62
     0
100
AcDbLine
 10
-128.0
 20
116.4516878685508
 30
0.0
 11
128.0
 21
116.4516878685508
 31
0.0
  0
INSERT
  5
E80
330
2991
100
AcDbEntity
  8
SIZE
 62
     0
100
AcDbBlockReference
  2
_DOTBLANK
 10
-139.9999999999998
 20
116.4516878685508
 30
0.0
 41
12.0
 42
12.0
 43
12.0
 50
180.0
  0
INSERT
  5
E81
330
2991
100
AcDbEntity
  8
SIZE
 62
     0
100
AcDbBlockReference
  2
_DOTBLANK
 10
140.0
 20
116.4516878685508
 30
0.0
 41
12.0
 42
12.0
 43
12.0
  0
INSERT
  5
E82
330
2991
100
AcDbEntity
  8
0
100
AcDbBlockReference
  2
*U10
 10
0.0
 20
0.0
 30
0.0
  0
POINT
  5
E83
330
2991
100
AcDbEntity
  8
DEFPOINTS
 62
     0
100
AcDbPoint
 10
-139.9999999999998
 20
12.46448280219374
 30
0.0
  0
POINT
  5
E84
330
2991
100
AcDbEntity
  8
DEFPOINTS
 62
     0
100
AcDbPoint
 10
140.0
 20
12.46448280219374
 30
0.0
  0
POINT
  5
E85
330
2991
100
AcDbEntity
  8
DEFPOINTS
 62
     0
100
AcDbPoint
 10
140.0
 20
116.4516878685508
 30
0.0
  0
ENDBLK
  5
E7C
330
2991
100
AcDbEntity
  8
0
100
AcDbBlockEnd
  0
BLOCK
  5
2994
330
2993
100
AcDbEntity
  8
0
100
AcDbBlockBegin
  2
*U10
 70
     1
 10
0.0
 20
0.0
 30
0.0
  3
*U10
  1

  0
TEXT
  5
1ED8
330
2993
100
AcDbEntity
  8
SIZE
 62
     0
100
AcDbText
 10
-74.05714285714281
 20
126.4516878685508
 30
0.0
 40
64.0
  1
280
 41
0.9
100
AcDbText
  0
ENDBLK
  5
1EDA
330
2993
100
AcDbEntity
  8
0
100
AcDbBlockEnd
  0
BLOCK
  5
2996
330
2995
100
AcDbEntity
  8
0
100
AcDbBlockBegin
  2
GENAXEH
 70
     0
 10
0.0
 20
0.0
 30
0.0
  3
GENAXEH
  1

  0
LINE
  5
FDB
330
2995
100
AcDbEntity
  8
0
100
AcDbLine
 10
-1.0
 20
0.0
 30
0.0
 11
1.0
 21
0.0
 31
0.0
  0
ENDBLK
  5
FDD
330
2995
100
AcDbEntity
  8
0
100
AcDbBlockEnd
  0
BLOCK
  5
2998
330
2997
100
AcDbEntity
  8
0
100
AcDbBlockBegin
  2
*D12
 70
     1
 10
0.0
 20
0.0
 30
0.0
  3
*D12
  1

  0
LINE
  5
1120
330
2997
100
AcDbEntity
  8
SIZE
 62
     0
100
AcDbLine
 10
-157.5
 20
20.0
 30
0.0
 11
-157.5
 21
245.5794621189598
 31
0.0
  0
LINE
  5
1121
330
2997
100
AcDbEntity
  8
SIZE
 62
     0
100
AcDbLine
 10
157.5
 20
20.0
 30
0.0
 11
157.5
 21
245.5794621189598
 31
0.0
  0
LINE
  5
1122
330
2997
100
AcDbEntity
  8
SIZE
 62
     0
100
AcDbLine
 10
-145.5
 20
225.5794621189598
 30
0.0
 11
145.5
 21
225.5794621189598
 31
0.0
  0
INSERT
  5
1123
330
2997
100
AcDbEntity
  8
SIZE
 62
     0
100
AcDbBlockReference
  2
_DOTBLANK
 10
-157.5
 20
225.5794621189598
 30
0.0
 41
12.0
 42
12.0
 43
12.0
 50
180.0
  0
INSERT
  5
1124
330
2997
100
AcDbEntity
  8
SIZE
 62
     0
100
AcDbBlockReference
  2
_DOTBLANK
 10
157.5
 20
225.5794621189598
 30
0.0
 41
12.0
 42
12.0
 43
12.0
  0
INSERT
  5
1125
330
2997
100
AcDbEntity
  8
0
100
AcDbBlockReference
  2
*U13
 10
0.0
 20
0.0
 30
0.0
  0
POINT
  5
1126
330
2997
100
AcDbEntity
  8
DEFPOINTS
 62
     0
100
AcDbPoint
 10
-157.5
 20
0.0
 30
0.0
  0
POINT
  5
1127
330
2997
100
AcDbEntity
  8
DEFPOINTS
 62
     0
100
AcDbPoint
 10
157.5
 20
0.0
 30
0.0
  0
POINT
  5
1128
330
2997
100
AcDbEntity
  8
DEFPOINTS
 62
     0
100
AcDbPoint
 10
157.5
 20
225.5794621189598
 30
0.0
  0
ENDBLK
  5
111F
330
2997
100
AcDbEntity
  8
0
100
AcDbBlockEnd
  0
BLOCK
  5
299A
330
2999
100
AcDbEntity
  8
0
100
AcDbBlockBegin
  2
*U13
 70
     1
 10
0.0
 20
0.0
 30
0.0
  3
*U13
  1

  0
TEXT
  5
1EDD
330
2999
100
AcDbEntity
  8
SIZE
 62
     0
100
AcDbText
 10
-68.57142857142857
 20
235.5794621189599
 30
0.0
 40
64.0
  1
315
 41
0.9
100
AcDbText
  0
ENDBLK
  5
1EDF
330
2999
100
AcDbEntity
  8
0
100
AcDbBlockEnd
  0
BLOCK
  5
299C
330
299B
100
AcDbEntity
  8
0
100
AcDbBlockBegin
  2
*D14
 70
     1
 10
0.0
 20
0.0
 30
0.0
  3
*D14
  1

  0
LINE
  5
11BD
330
299B
100
AcDbEntity
  8
NOTE
 62
     0
100
AcDbLine
 10
-123.4999999999999
 20
-320.0
 30
0.0
 11
-123.4999999999999
 21
-354.9529861856111
 31
0.0
  0
LINE
  5
11BE
330
299B
100
AcDbEntity
  8
NOTE
 62
     0
100
AcDbLine
 10
-133.4999999999998
 20
-331.2126909923287
 30
0.0
 11
-133.4999999999998
 21
-354.9529861856111
 31
0.0
  0
LINE
  5
11BF
330
299B
100
AcDbEntity
  8
NOTE
 62
     0
100
AcDbLine
 10
-111.4999999999999
 20
-334.9529861856112
 30
0.0
 11
-99.4999999999999
 21
-334.9529861856112
 31
0.0
  0
LINE
  5
11C0
330
299B
100
AcDbEntity
  8
NOTE
 62
     0
100
AcDbLine
 10
-145.4999999999998
 20
-334.9529861856112
 30
0.0
 11
-157.4999999999998
 21
-334.9529861856112
 31
0.0
  0
LINE
  5
11C1
330
299B
100
AcDbEntity
  8
NOTE
 62
     0
100
AcDbLine
 10
-123.4999999999999
 20
-334.9529861856112
 30
0.0
 11
-133.4999999999998
 21
-334.9529861856112
 31
0.0
  0
INSERT
  5
11C2
330
299B
100
AcDbEntity
  8
NOTE
 62
     0
100
AcDbBlockReference
  2
_DOTBLANK
 10
-123.4999999999999
 20
-334.9529861856112
 30
0.0
 41
12.0
 42
12.0
 43
12.0
 50
180.0
  0
INSERT
  5
11C3
330
299B
100
AcDbEntity
  8
NOTE
 62
     0
100
AcDbBlockReference
  2
_DOTBLANK
 10
-133.4999999999998
 20
-334.9529861856112
 30
0.0
 41
12.0
 42
12.0
 43
12.0
  0
INSERT
  5
11C4
330
299B
100
AcDbEntity
  8
0
100
AcDbBlockReference
  2
*U15
 10
0.0
 20
0.0
 30
0.0
  0
POINT
  5
11C5
330
299B
100
AcDbEntity
  8
DEFPOINTS
 62
     0
100
AcDbPoint
 10
-123.4999999999999
 20
-300.0
 30
0.0
  0
POINT
  5
11C6
330
299B
100
AcDbEntity
  8
DEFPOINTS
 62
     0
100
AcDbPoint
 10
-133.4999999999998
 20
-311.2126909923287
 30
0.0
  0
POINT
  5
11C7
330
299B
100
AcDbEntity
  8
DEFPOINTS
 62
     0
100
AcDbPoint
 10
-133.4999999999998
 20
-334.9529861856112
 30
0.0
  0
ENDBLK
  5
11BC
330
299B
100
AcDbEntity
  8
0
100
AcDbBlockEnd
  0
BLOCK
  5
299E
330
299D
100
AcDbEntity
  8
0
100
AcDbBlockBegin
  2
*U15
 70
     1
 10
0.0
 20
0.0
 30
0.0
  3
*U15
  1

  0
TEXT
  5
1EE5
330
299D
100
AcDbEntity
  8
NOTE
 62
     0
100
AcDbText
 10
-169.642857142857
 20
-324.9529861856112
 30
0.0
 40
64.0
  1
10
 41
0.9
100
AcDbText
  0
ENDBLK
  5
1EE7
330
299D
100
AcDbEntity
  8
0
100
AcDbBlockEnd
  0
BLOCK
  5
29A0
330
299F
100
AcDbEntity
  8
0
100
AcDbBlockBegin
  2
*D16
 70
     1
 10
0.0
 20
0.0
 30
0.0
  3
*D16
  1

  0
LINE
  5
11E7
330
299F
100
AcDbEntity
  8
NOTE
 62
     0
100
AcDbLine
 10
-135.5
 20
-333.2126909923287
 30
0.0
 11
-135.5
 21
-386.2569421441843
 31
0.0
  0
LINE
  5
11E8
330
299F
100
AcDbEntity
  8
NOTE
 62
     0
100
AcDbLine
 10
-123.4999999999999
 20
-320.0
 30
0.0
 11
-123.4999999999999
 21
-386.2569421441843
 31
0.0
  0
LINE
  5
11E9
330
299F
100
AcDbEntity
  8
NOTE
 62
     0
100
AcDbLine
 10
-147.5
 20
-366.2569421441844
 30
0.0
 11
-159.5
 21
-366.2569421441844
 31
0.0
  0
LINE
  5
11EA
330
299F
100
AcDbEntity
  8
NOTE
 62
     0
100
AcDbLine
 10
-111.4999999999999
 20
-366.2569421441844
 30
0.0
 11
-99.4999999999999
 21
-366.2569421441844
 31
0.0
  0
LINE
  5
11EB
330
299F
100
AcDbEntity
  8
NOTE
 62
     0
100
AcDbLine
 10
-135.5
 20
-366.2569421441844
 30
0.0
 11
-123.4999999999999
 21
-366.2569421441844
 31
0.0
  0
INSERT
  5
11EC
330
299F
100
AcDbEntity
  8
NOTE
 62
     0
100
AcDbBlockReference
  2
_DOTBLANK
 10
-135.5
 20
-366.2569421441844
 30
0.0
 41
12.0
 42
12.0
 43
12.0
  0
INSERT
  5
11ED
330
299F
100
AcDbEntity
  8
NOTE
 62
     0
100
AcDbBlockReference
  2
_DOTBLANK
 10
-123.4999999999999
 20
-366.2569421441844
 30
0.0
 41
12.0
 42
12.0
 43
12.0
 50
180.0
  0
INSERT
  5
11EE
330
299F
100
AcDbEntity
  8
0
100
AcDbBlockReference
  2
*U17
 10
0.0
 20
0.0
 30
0.0
  0
POINT
  5
11EF
330
299F
100
AcDbEntity
  8
DEFPOINTS
 62
     0
100
AcDbPoint
 10
-135.5
 20
-313.2126909923287
 30
0.0
  0
POINT
  5
11F0
330
299F
100
AcDbEntity
  8
DEFPOINTS
 62
     0
100
AcDbPoint
 10
-123.4999999999999
 20
-300.0
 30
0.0
  0
POINT
  5
11F1
330
299F
100
AcDbEntity
  8
DEFPOINTS
 62
     0
100
AcDbPoint
 10
-123.4999999999999
 20
-366.2569421441844
 30
0.0
  0
ENDBLK
  5
11E6
330
299F
100
AcDbEntity
  8
0
100
AcDbBlockEnd
  0
BLOCK
  5
29A2
330
29A1
100
AcDbEntity
  8
0
100
AcDbBlockBegin
  2
*U17
 70
     1
 10
0.0
 20
0.0
 30
0.0
  3
*U17
  1

  0
TEXT
  5
1EE9
330
29A1
100
AcDbEntity
  8
NOTE
 62
     0
100
AcDbText
 10
-170.642857142857
 20
-356.2569421441843
 30
0.0
 40
64.0
  1
12
 41
0.9
100
AcDbText
  0
ENDBLK
  5
1EEB
330
29A1
100
AcDbEntity
  8
0
100
AcDbBlockEnd
  0
BLOCK
  5
29A4
330
29A3
100
AcDbEntity
  8
0
100
AcDbBlockBegin
  2
*D18
 70
     1
 10
0.0
 20
0.0
 30
0.0
  3
*D18
  1

  0
LINE
  5
11F6
330
29A3
100
AcDbEntity
  8
NOTE
 62
     0
100
AcDbLine
 10
-123.4999999999999
 20
-320.0
 30
0.0
 11
-123.4999999999999
 21
-583.8286022818904
 31
0.0
  0
LINE
  5
11F7
330
29A3
100
AcDbEntity
  8
NOTE
 62
     0
100
AcDbLine
 10
123.5
 20
-320.0
 30
0.0
 11
123.5
 21
-583.8286022818904
 31
0.0
  0
LINE
  5
11F8
330
29A3
100
AcDbEntity
  8
NOTE
 62
     0
100
AcDbLine
 10
-111.4999999999999
 20
-563.8286022818904
 30
0.0
 11
111.5
 21
-563.8286022818904
 31
0.0
  0
INSERT
  5
11F9
330
29A3
100
AcDbEntity
  8
NOTE
 62
     0
100
AcDbBlockReference
  2
_DOTBLANK
 10
-123.4999999999999
 20
-563.8286022818904
 30
0.0
 41
12.0
 42
12.0
 43
12.0
 50
180.0
  0
INSERT
  5
11FA
330
29A3
100
AcDbEntity
  8
NOTE
 62
     0
100
AcDbBlockReference
  2
_DOTBLANK
 10
123.5
 20
-563.8286022818904
 30
0.0
 41
12.0
 42
12.0
 43
12.0
  0
INSERT
  5
11FB
330
29A3
100
AcDbEntity
  8
0
100
AcDbBlockReference
  2
*U19
 10
0.0
 20
0.0
 30
0.0
  0
POINT
  5
11FC
330
29A3
100
AcDbEntity
  8
DEFPOINTS
 62
     0
100
AcDbPoint
 10
-123.4999999999999
 20
-300.0
 30
0.0
  0
POINT
  5
11FD
330
29A3
100
AcDbEntity
  8
DEFPOINTS
 62
     0
100
AcDbPoint
 10
123.5
 20
-300.0
 30
0.0
  0
POINT
  5
11FE
330
29A3
100
AcDbEntity
  8
DEFPOINTS
 62
     0
100
AcDbPoint
 10
123.5
 20
-563.8286022818904
 30
0.0
  0
ENDBLK
  5
11F5
330
29A3
100
AcDbEntity
  8
0
100
AcDbBlockEnd
  0
BLOCK
  5
29A6
330
29A5
100
AcDbEntity
  8
0
100
AcDbBlockBegin
  2
*U19
 70
     1
 10
0.0
 20
0.0
 30
0.0
  3
*U19
  1

  0
TEXT
  5
1EED
330
29A5
100
AcDbEntity
  8
NOTE
 62
     0
100
AcDbText
 10
-74.05714285714281
 20
-553.8286022818904
 30
0.0
 40
64.0
  1
247
 41
0.9
100
AcDbText
  0
ENDBLK
  5
1EEF
330
29A5
100
AcDbEntity
  8
0
100
AcDbBlockEnd
  0
BLOCK
  5
29A8
330
29A7
100
AcDbEntity
  8
0
100
AcDbBlockBegin
  2
*D20
 70
     1
 10
0.0
 20
0.0
 30
0.0
  3
*D20
  1

  0
LINE
  5
1284
330
29A7
100
AcDbEntity
  8
NOTE
 62
     0
100
AcDbLine
 10
-123.5
 20
12.0
 30
0.0
 11
-123.5
 21
71.83630134534229
 31
0.0
  0
LINE
  5
1285
330
29A7
100
AcDbEntity
  8
NOTE
 62
     0
100
AcDbLine
 10
123.5
 20
12.0
 30
0.0
 11
123.5
 21
71.83630134534229
 31
0.0
  0
LINE
  5
1286
330
29A7
100
AcDbEntity
  8
NOTE
 62
     0
100
AcDbLine
 10
-111.5
 20
51.83630134534229
 30
0.0
 11
111.5
 21
51.83630134534229
 31
0.0
  0
INSERT
  5
1287
330
29A7
100
AcDbEntity
  8
NOTE
 62
     0
100
AcDbBlockReference
  2
_DOTBLANK
 10
-123.5
 20
51.83630134534229
 30
0.0
 41
12.0
 42
12.0
 43
12.0
 50
180.0
  0
INSERT
  5
1288
330
29A7
100
AcDbEntity
  8
NOTE
 62
     0
100
AcDbBlockReference
  2
_DOTBLANK
 10
123.5
 20
51.83630134534229
 30
0.0
 41
12.0
 42
12.0
 43
12.0
  0
INSERT
  5
1289
330
29A7
100
AcDbEntity
  8
0
100
AcDbBlockReference
  2
*U21
 10
0.0
 20
0.0
 30
0.0
  0
POINT
  5
128A
330
29A7
100
AcDbEntity
  8
DEFPOINTS
 62
     0
100
AcDbPoint
 10
-123.5
 20
-8.0
 30
0.0
  0
POINT
  5
128B
330
29A7
100
AcDbEntity
  8
DEFPOINTS
 62
     0
100
AcDbPoint
 10
123.5
 20
-8.0
 30
0.0
  0
POINT
  5
128C
330
29A7
100
AcDbEntity
  8
DEFPOINTS
 62
     0
100
AcDbPoint
 10
123.5
 20
51.83630134534229
 30
0.0
  0
ENDBLK
  5
1283
330
29A7
100
AcDbEntity
  8
0
100
AcDbBlockEnd
  0
BLOCK
  5
29AA
330
29A9
100
AcDbEntity
  8
0
100
AcDbBlockBegin
  2
*U21
 70
     1
 10
0.0
 20
0.0
 30
0.0
  3
*U21
  1

  0
TEXT
  5
1EF1
330
29A9
100
AcDbEntity
  8
NOTE
 62
     0
100
AcDbText
 10
-74.05714285714283
 20
61.83630134534229
 30
0.0
 40
64.0
  1
247
 41
0.9
100
AcDbText
  0
ENDBLK
  5
1EF3
330
29A9
100
AcDbEntity
  8
0
100
AcDbBlockEnd
  0
BLOCK
  5
29AC
330
29AB
100
AcDbEntity
  8
0
100
AcDbBlockBegin
  2
*D22
 70
     1
 10
0.0
 20
0.0
 30
0.0
  3
*D22
  1

  0
LINE
  5
1414
330
29AB
100
AcDbEntity
  8
SIZE
 62
     0
100
AcDbLine
 10
-22313.11521613997
 20
7365.702971374808
 30
0.0
 11
-22313.11521613997
 21
7217.685576144207
 31
0.0
  0
LINE
  5
1415
330
29AB
100
AcDbEntity
  8
SIZE
 62
     0
100
AcDbLine
 10
-22044.11521613997
 20
7365.702971374808
 30
0.0
 11
-22044.11521613997
 21
7217.685576144207
 31
0.0
  0
LINE
  5
1416
330
29AB
100
AcDbEntity
  8
SIZE
 62
     0
100
AcDbLine
 10
-22301.11521613997
 20
7237.685576144207
 30
0.0
 11
-22056.11521613997
 21
7237.685576144207
 31
0.0
  0
INSERT
  5
1417
330
29AB
100
AcDbEntity
  8
SIZE
 62
     0
100
AcDbBlockReference
  2
_DOTBLANK
 10
-22313.11521613997
 20
7237.685576144207
 30
0.0
 41
12.0
 42
12.0
 43
12.0
 50
180.0
  0
INSERT
  5
1418
330
29AB
100
AcDbEntity
  8
SIZE
 62
     0
100
AcDbBlockReference
  2
_DOTBLANK
 10
-22044.11521613997
 20
7237.685576144207
 30
0.0
 41
12.0
 42
12.0
 43
12.0
  0
INSERT
  5
1419
330
29AB
100
AcDbEntity
  8
0
100
AcDbBlockReference
  2
*U23
 10
0.0
 20
0.0
 30
0.0
  0
POINT
  5
141A
330
29AB
100
AcDbEntity
  8
DEFPOINTS
 62
     0
100
AcDbPoint
 10
-22313.11521613997
 20
7385.702971374808
 30
0.0
  0
POINT
  5
141B
330
29AB
100
AcDbEntity
  8
DEFPOINTS
 62
     0
100
AcDbPoint
 10
-22044.11521613997
 20
7385.702971374808
 30
0.0
  0
POINT
  5
141C
330
29AB
100
AcDbEntity
  8
DEFPOINTS
 62
     0
100
AcDbPoint
 10
-22044.11521613997
 20
7237.685576144207
 30
0.0
  0
ENDBLK
  5
141D
330
29AB
100
AcDbEntity
  8
0
100
AcDbBlockEnd
  0
BLOCK
  5
29AE
330
29AD
100
AcDbEntity
  8
0
100
AcDbBlockBegin
  2
*U23
 70
     1
 10
0.0
 20
0.0
 30
0.0
  3
*U23
  1

  0
TEXT
  5
1EF9
330
29AD
100
AcDbEntity
  8
SIZE
 62
     0
100
AcDbText
 10
-22251.30093042568
 20
7247.685576144205
 30
0.0
 40
64.0
  1
269
 41
0.9
100
AcDbText
  0
ENDBLK
  5
1EFB
330
29AD
100
AcDbEntity
  8
0
100
AcDbBlockEnd
  0
BLOCK
  5
29B0
330
29AF
100
AcDbEntity
  8
0
100
AcDbBlockBegin
  2
*D24
 70
     1
 10
0.0
 20
0.0
 30
0.0
  3
*D24
  1

  0
LINE
  5
1420
330
29AF
100
AcDbEntity
  8
SIZE
  6
Continuous
 62
     0
100
AcDbLine
 10
-22035.11521613997
 20
7385.702971374808
 30
0.0
 11
-21873.97193165959
 21
7385.702971374808
 31
0.0
  0
LINE
  5
1421
330
29AF
100
AcDbEntity
  8
SIZE
  6
Continuous
 62
     0
100
AcDbLine
 10
-22001.11521613997
 20
7685.702971374808
 30
0.0
 11
-21873.97193165959
 21
7685.702971374808
 31
0.0
  0
LINE
  5
1422
330
29AF
100
AcDbEntity
  8
SIZE
  6
Continuous
 62
     0
100
AcDbLine
 10
-21893.97193165959
 20
7397.702971374808
 30
0.0
 11
-21893.97193165959
 21
7673.702971374808
 31
0.0
  0
INSERT
  5
1423
330
29AF
100
AcDbEntity
  8
SIZE
  6
Continuous
 62
     0
100
AcDbBlockReference
  2
_DOTBLANK
 10
-21893.97193165959
 20
7385.702971374808
 30
0.0
 41
12.0
 42
12.0
 43
12.0
 50
270.0
  0
INSERT
  5
1424
330
29AF
100
AcDbEntity
  8
SIZE
  6
Continuous
 62
     0
100
AcDbBlockReference
  2
_DOTBLANK
 10
-21893.97193165959
 20
7685.702971374808
 30
0.0
 41
12.0
 42
12.0
 43
12.0
 50
90.0
  0
INSERT
  5
1425
330
29AF
100
AcDbEntity
  8
0
100
AcDbBlockReference
  2
*U25
 10
0.0
 20
0.0
 30
0.0
  0
POINT
  5
1426
330
29AF
100
AcDbEntity
  8
DEFPOINTS
  6
Continuous
 62
     0
100
AcDbPoint
 10
-22055.11521613997
 20
7385.702971374808
 30
0.0
  0
POINT
  5
1427
330
29AF
100
AcDbEntity
  8
DEFPOINTS
  6
Continuous
 62
     0
100
AcDbPoint
 10
-22021.11521613997
 20
7685.702971374808
 30
0.0
  0
POINT
  5
1428
330
29AF
100
AcDbEntity
  8
DEFPOINTS
  6
Continuous
 62
     0
100
AcDbPoint
 10
-21893.97193165959
 20
7685.702971374808
 30
0.0
  0
ENDBLK
  5
1429
330
29AF
100
AcDbEntity
  8
0
100
AcDbBlockEnd
  0
BLOCK
  5
29B2
330
29B1
100
AcDbEntity
  8
0
100
AcDbBlockBegin
  2
*U25
 70
     1
 10
0.0
 20
0.0
 30
0.0
  3
*U25
  1

  0
TEXT
  5
1EFD
330
29B1
100
AcDbEntity
  8
SIZE
 62
     0
100
AcDbText
 10
-21903.97193165959
 20
7461.645828517662
 30
0.0
 40
64.0
  1
300
 50
90.0
 41
0.9
100
AcDbText
  0
ENDBLK
  5
1EFF
330
29B1
100
AcDbEntity
  8
0
100
AcDbBlockEnd
  0
BLOCK
  5
29B4
330
29B3
100
AcDbEntity
  8
0
100
AcDbBlockBegin
  2
*D26
 70
     1
 10
0.0
 20
0.0
 30
0.0
  3
*D26
  1

  0
LINE
  5
142C
330
29B3
100
AcDbEntity
  8
SIZE
 62
     0
100
AcDbLine
 10
-22318.61521613997
 20
7718.167454177002
 30
0.0
 11
-22318.61521613997
 21
7822.154659243358
 31
0.0
  0
LINE
  5
142D
330
29B3
100
AcDbEntity
  8
SIZE
 62
     0
100
AcDbLine
 10
-22038.61521613997
 20
7718.167454177002
 30
0.0
 11
-22038.61521613997
 21
7822.154659243358
 31
0.0
  0
LINE
  5
142E
330
29B3
100
AcDbEntity
  8
SIZE
 62
     0
100
AcDbLine
 10
-22306.61521613997
 20
7802.154659243358
 30
0.0
 11
-22050.61521613997
 21
7802.154659243358
 31
0.0
  0
INSERT
  5
142F
330
29B3
100
AcDbEntity
  8
SIZE
 62
     0
100
AcDbBlockReference
  2
_DOTBLANK
 10
-22318.61521613997
 20
7802.154659243358
 30
0.0
 41
12.0
 42
12.0
 43
12.0
 50
180.0
  0
INSERT
  5
1430
330
29B3
100
AcDbEntity
  8
SIZE
 62
     0
100
AcDbBlockReference
  2
_DOTBLANK
 10
-22038.61521613997
 20
7802.154659243358
 30
0.0
 41
12.0
 42
12.0
 43
12.0
  0
INSERT
  5
1431
330
29B3
100
AcDbEntity
  8
0
100
AcDbBlockReference
  2
*U27
 10
0.0
 20
0.0
 30
0.0
  0
POINT
  5
1432
330
29B3
100
AcDbEntity
  8
DEFPOINTS
 62
     0
100
AcDbPoint
 10
-22318.61521613997
 20
7698.167454177002
 30
0.0
  0
POINT
  5
1433
330
29B3
100
AcDbEntity
  8
DEFPOINTS
 62
     0
100
AcDbPoint
 10
-22038.61521613997
 20
7698.167454177002
 30
0.0
  0
POINT
  5
1434
330
29B3
100
AcDbEntity
  8
DEFPOINTS
 62
     0
100
AcDbPoint
 10
-22038.61521613997
 20
7802.154659243358
 30
0.0
  0
ENDBLK
  5
1435
330
29B3
100
AcDbEntity
  8
0
100
AcDbBlockEnd
  0
BLOCK
  5
29B6
330
29B5
100
AcDbEntity
  8
0
100
AcDbBlockBegin
  2
*U27
 70
     1
 10
0.0
 20
0.0
 30
0.0
  3
*U27
  1

  0
TEXT
  5
1F01
330
29B5
100
AcDbEntity
  8
SIZE
 62
     0
100
AcDbText
 10
-22252.6723589971
 20
7812.154659243358
 30
0.0
 40
64.0
  1
280
 41
0.9
100
AcDbText
  0
ENDBLK
  5
1F03
330
29B5
100
AcDbEntity
  8
0
100
AcDbBlockEnd
  0
BLOCK
  5
29B8
330
29B7
100
AcDbEntity
  8
0
100
AcDbBlockBegin
  2
*D28
 70
     1
 10
0.0
 20
0.0
 30
0.0
  3
*D28
  1

  0
LINE
  5
1438
330
29B7
100
AcDbEntity
  8
SIZE
 62
     0
100
AcDbLine
 10
-22336.11521613997
 20
7705.702971374808
 30
0.0
 11
-22336.11521613997
 21
7931.282433493766
 31
0.0
  0
LINE
  5
1439
330
29B7
100
AcDbEntity
  8
SIZE
 62
     0
100
AcDbLine
 10
-22021.11521613997
 20
7705.702971374808
 30
0.0
 11
-22021.11521613997
 21
7931.282433493766
 31
0.0
  0
LINE
  5
143A
330
29B7
100
AcDbEntity
  8
SIZE
 62
     0
100
AcDbLine
 10
-22324.11521613997
 20
7911.282433493766
 30
0.0
 11
-22033.11521613997
 21
7911.282433493766
 31
0.0
  0
INSERT
  5
143B
330
29B7
100
AcDbEntity
  8
SIZE
 62
     0
100
AcDbBlockReference
  2
_DOTBLANK
 10
-22336.11521613997
 20
7911.282433493766
 30
0.0
 41
12.0
 42
12.0
 43
12.0
 50
180.0
  0
INSERT
  5
143C
330
29B7
100
AcDbEntity
  8
SIZE
 62
     0
100
AcDbBlockReference
  2
_DOTBLANK
 10
-22021.11521613997
 20
7911.282433493766
 30
0.0
 41
12.0
 42
12.0
 43
12.0
  0
INSERT
  5
143D
330
29B7
100
AcDbEntity
  8
0
100
AcDbBlockReference
  2
*U29
 10
0.0
 20
0.0
 30
0.0
  0
POINT
  5
143E
330
29B7
100
AcDbEntity
  8
DEFPOINTS
 62
     0
100
AcDbPoint
 10
-22336.11521613997
 20
7685.702971374808
 30
0.0
  0
POINT
  5
143F
330
29B7
100
AcDbEntity
  8
DEFPOINTS
 62
     0
100
AcDbPoint
 10
-22021.11521613997
 20
7685.702971374808
 30
0.0
  0
POINT
  5
1440
330
29B7
100
AcDbEntity
  8
DEFPOINTS
 62
     0
100
AcDbPoint
 10
-22021.11521613997
 20
7911.282433493766
 30
0.0
  0
ENDBLK
  5
1441
330
29B7
100
AcDbEntity
  8
0
100
AcDbBlockEnd
  0
BLOCK
  5
29BA
330
29B9
100
AcDbEntity
  8
0
100
AcDbBlockBegin
  2
*U29
 70
     1
 10
0.0
 20
0.0
 30
0.0
  3
*U29
  1

  0
TEXT
  5
1F05
330
29B9
100
AcDbEntity
  8
SIZE
 62
     0
100
AcDbText
 10
-22247.18664471139
 20
7921.282433493766
 30
0.0
 40
64.0
  1
315
 41
0.9
100
AcDbText
  0
ENDBLK
  5
1F07
330
29B9
100
AcDbEntity
  8
0
100
AcDbBlockEnd
  0
BLOCK
  5
29BC
330
29BB
100
AcDbEntity
  8
0
100
AcDbBlockBegin
  2
*D30
 70
     1
 10
0.0
 20
0.0
 30
0.0
  3
*D30
  1

  0
LINE
  5
166B
330
29BB
100
AcDbEntity
  8
SIZE
 62
     0
100
AcDbLine
 10
-134.5
 20
-320.0
 30
0.0
 11
-134.5
 21
-468.0173952306001
 31
0.0
  0
LINE
  5
166C
330
29BB
100
AcDbEntity
  8
SIZE
 62
     0
100
AcDbLine
 10
134.5
 20
-320.0
 30
0.0
 11
134.5
 21
-468.0173952306001
 31
0.0
  0
LINE
  5
166D
330
29BB
100
AcDbEntity
  8
SIZE
 62
     0
100
AcDbLine
 10
-122.5
 20
-448.0173952306
 30
0.0
 11
122.5
 21
-448.0173952306
 31
0.0
  0
INSERT
  5
166E
330
29BB
100
AcDbEntity
  8
SIZE
 62
     0
100
AcDbBlockReference
  2
_DOTBLANK
 10
-134.5
 20
-448.0173952306
 30
0.0
 41
12.0
 42
12.0
 43
12.0
 50
180.0
  0
INSERT
  5
166F
330
29BB
100
AcDbEntity
  8
SIZE
 62
     0
100
AcDbBlockReference
  2
_DOTBLANK
 10
134.5
 20
-448.0173952306
 30
0.0
 41
12.0
 42
12.0
 43
12.0
  0
INSERT
  5
1670
330
29BB
100
AcDbEntity
  8
0
100
AcDbBlockReference
  2
*U31
 10
0.0
 20
0.0
 30
0.0
  0
POINT
  5
1671
330
29BB
100
AcDbEntity
  8
DEFPOINTS
 62
     0
100
AcDbPoint
 10
-134.5
 20
-300.0
 30
0.0
  0
POINT
  5
1672
330
29BB
100
AcDbEntity
  8
DEFPOINTS
 62
     0
100
AcDbPoint
 10
134.5
 20
-300.0
 30
0.0
  0
POINT
  5
1673
330
29BB
100
AcDbEntity
  8
DEFPOINTS
 62
     0
100
AcDbPoint
 10
134.5
 20
-448.0173952306
 30
0.0
  0
ENDBLK
  5
14A7
330
29BB
100
AcDbEntity
  8
0
100
AcDbBlockEnd
  0
BLOCK
  5
29BE
330
29BD
100
AcDbEntity
  8
0
100
AcDbBlockBegin
  2
*U31
 70
     1
 10
0.0
 20
0.0
 30
0.0
  3
*U31
  1

  0
TEXT
  5
1F09
330
29BD
100
AcDbEntity
  8
SIZE
 62
     0
100
AcDbText
 10
-72.68571428571426
 20
-438.0173952306002
 30
0.0
 40
64.0
  1
269
 41
0.9
100
AcDbText
  0
ENDBLK
  5
1F0B
330
29BD
100
AcDbEntity
  8
0
100
AcDbBlockEnd
  0
BLOCK
  5
29C0
330
29BF
100
AcDbEntity
  8
0
100
AcDbBlockBegin
  2
*D32
 70
     1
 10
0.0
 20
0.0
 30
0.0
  3
*D32
  1

  0
LINE
  5
1674
330
29BF
100
AcDbEntity
  8
SIZE
  6
Continuous
 62
     0
100
AcDbLine
 10
143.5
 20
-300.0
 30
0.0
 11
304.6432844803784
 21
-300.0
 31
0.0
  0
LINE
  5
1675
330
29BF
100
AcDbEntity
  8
SIZE
  6
Continuous
 62
     0
100
AcDbLine
 10
177.5
 20
-0.0000000000000057
 30
0.0
 11
304.6432844803785
 21
-0.0000000000000417
 31
0.0
  0
LINE
  5
1676
330
29BF
100
AcDbEntity
  8
SIZE
  6
Continuous
 62
     0
100
AcDbLine
 10
284.6432844803784
 20
-288.0000000000001
 30
0.0
 11
284.6432844803785
 21
-12.00000000000003
 31
0.0
  0
INSERT
  5
1677
330
29BF
100
AcDbEntity
  8
SIZE
  6
Continuous
 62
     0
100
AcDbBlockReference
  2
_DOTBLANK
 10
284.6432844803784
 20
-300.0
 30
0.0
 41
12.0
 42
12.0
 43
12.0
 50
270.0
  0
INSERT
  5
1678
330
29BF
100
AcDbEntity
  8
SIZE
  6
Continuous
 62
     0
100
AcDbBlockReference
  2
_DOTBLANK
 10
284.6432844803785
 20
-0.000000000000036
 30
0.0
 41
12.0
 42
12.0
 43
12.0
 50
90.0
  0
INSERT
  5
1679
330
29BF
100
AcDbEntity
  8
0
100
AcDbBlockReference
  2
*U33
 10
0.0
 20
0.0
 30
0.0
  0
POINT
  5
167A
330
29BF
100
AcDbEntity
  8
DEFPOINTS
  6
Continuous
 62
     0
100
AcDbPoint
 10
123.5
 20
-300.0
 30
0.0
  0
POINT
  5
167B
330
29BF
100
AcDbEntity
  8
DEFPOINTS
  6
Continuous
 62
     0
100
AcDbPoint
 10
157.5
 20
0.0
 30
0.0
  0
POINT
  5
167C
330
29BF
100
AcDbEntity
  8
DEFPOINTS
  6
Continuous
 62
     0
100
AcDbPoint
 10
284.6432844803785
 20
-0.000000000000036
 30
0.0
  0
ENDBLK
  5
14B3
330
29BF
100
AcDbEntity
  8
0
100
AcDbBlockEnd
  0
BLOCK
  5
29C2
330
29C1
100
AcDbEntity
  8
0
100
AcDbBlockBegin
  2
*U33
 70
     1
 10
0.0
 20
0.0
 30
0.0
  3
*U33
  1

  0
TEXT
  5
1F0D
330
29C1
100
AcDbEntity
  8
SIZE
 62
     0
100
AcDbText
 10
274.6432844803785
 20
-224.0571428571429
 30
0.0
 40
64.0
  1
300
 50
90.0
 41
0.9
100
AcDbText
  0
ENDBLK
  5
1F0F
330
29C1
100
AcDbEntity
  8
0
100
AcDbBlockEnd
  0
BLOCK
  5
29C4
330
29C3
100
AcDbEntity
  8
0
100
AcDbBlockBegin
  2
*D34
 70
     1
 10
0.0
 20
0.0
 30
0.0
  3
*D34
  1

  0
LINE
  5
167D
330
29C3
100
AcDbEntity
  8
SIZE
 62
     0
100
AcDbLine
 10
-140.0
 20
32.46448280219375
 30
0.0
 11
-140.0
 21
136.4516878685507
 31
0.0
  0
LINE
  5
167E
330
29C3
100
AcDbEntity
  8
SIZE
 62
     0
100
AcDbLine
 10
140.0
 20
32.46448280219375
 30
0.0
 11
140.0
 21
136.4516878685507
 31
0.0
  0
LINE
  5
167F
330
29C3
100
AcDbEntity
  8
SIZE
 62
     0
100
AcDbLine
 10
-128.0
 20
116.4516878685508
 30
0.0
 11
128.0
 21
116.4516878685508
 31
0.0
  0
INSERT
  5
1680
330
29C3
100
AcDbEntity
  8
SIZE
 62
     0
100
AcDbBlockReference
  2
_DOTBLANK
 10
-140.0
 20
116.4516878685508
 30
0.0
 41
12.0
 42
12.0
 43
12.0
 50
180.0
  0
INSERT
  5
1681
330
29C3
100
AcDbEntity
  8
SIZE
 62
     0
100
AcDbBlockReference
  2
_DOTBLANK
 10
140.0
 20
116.4516878685508
 30
0.0
 41
12.0
 42
12.0
 43
12.0
  0
INSERT
  5
1682
330
29C3
100
AcDbEntity
  8
0
100
AcDbBlockReference
  2
*U35
 10
0.0
 20
0.0
 30
0.0
  0
POINT
  5
1683
330
29C3
100
AcDbEntity
  8
DEFPOINTS
 62
     0
100
AcDbPoint
 10
-140.0
 20
12.46448280219374
 30
0.0
  0
POINT
  5
1684
330
29C3
100
AcDbEntity
  8
DEFPOINTS
 62
     0
100
AcDbPoint
 10
140.0
 20
12.46448280219374
 30
0.0
  0
POINT
  5
1685
330
29C3
100
AcDbEntity
  8
DEFPOINTS
 62
     0
100
AcDbPoint
 10
140.0
 20
116.4516878685508
 30
0.0
  0
ENDBLK
  5
14BF
330
29C3
100
AcDbEntity
  8
0
100
AcDbBlockEnd
  0
BLOCK
  5
29C6
330
29C5
100
AcDbEntity
  8
0
100
AcDbBlockBegin
  2
*U35
 70
     1
 10
0.0
 20
0.0
 30
0.0
  3
*U35
  1

  0
TEXT
  5
1F11
330
29C5
100
AcDbEntity
  8
SIZE
 62
     0
100
AcDbText
 10
-74.05714285714283
 20
126.4516878685507
 30
0.0
 40
64.0
  1
280
 41
0.9
100
AcDbText
  0
ENDBLK
  5
1F13
330
29C5
100
AcDbEntity
  8
0
100
AcDbBlockEnd
  0
BLOCK
  5
29C8
330
29C7
100
AcDbEntity
  8
0
100
AcDbBlockBegin
  2
*D36
 70
     1
 10
0.0
 20
0.0
 30
0.0
  3
*D36
  1

  0
LINE
  5
1686
330
29C7
100
AcDbEntity
  8
SIZE
 62
     0
100
AcDbLine
 10
-157.5
 20
20.0
 30
0.0
 11
-157.5
 21
245.5794621189598
 31
0.0
  0
LINE
  5
1687
330
29C7
100
AcDbEntity
  8
SIZE
 62
     0
100
AcDbLine
 10
157.5
 20
20.0
 30
0.0
 11
157.5
 21
245.5794621189598
 31
0.0
  0
LINE
  5
1688
330
29C7
100
AcDbEntity
  8
SIZE
 62
     0
100
AcDbLine
 10
-145.5
 20
225.5794621189598
 30
0.0
 11
145.5
 21
225.5794621189598
 31
0.0
  0
INSERT
  5
1689
330
29C7
100
AcDbEntity
  8
SIZE
 62
     0
100
AcDbBlockReference
  2
_DOTBLANK
 10
-157.5
 20
225.5794621189598
 30
0.0
 41
12.0
 42
12.0
 43
12.0
 50
180.0
  0
INSERT
  5
168A
330
29C7
100
AcDbEntity
  8
SIZE
 62
     0
100
AcDbBlockReference
  2
_DOTBLANK
 10
157.5
 20
225.5794621189598
 30
0.0
 41
12.0
 42
12.0
 43
12.0
  0
INSERT
  5
168B
330
29C7
100
AcDbEntity
  8
0
100
AcDbBlockReference
  2
*U37
 10
0.0
 20
0.0
 30
0.0
  0
POINT
  5
168C
330
29C7
100
AcDbEntity
  8
DEFPOINTS
 62
     0
100
AcDbPoint
 10
-157.5
 20
0.0
 30
0.0
  0
POINT
  5
168D
330
29C7
100
AcDbEntity
  8
DEFPOINTS
 62
     0
100
AcDbPoint
 10
157.5
 20
0.0
 30
0.0
  0
POINT
  5
168E
330
29C7
100
AcDbEntity
  8
DEFPOINTS
 62
     0
100
AcDbPoint
 10
157.5
 20
225.5794621189598
 30
0.0
  0
ENDBLK
  5
14CB
330
29C7
100
AcDbEntity
  8
0
100
AcDbBlockEnd
  0
BLOCK
  5
29CA
330
29C9
100
AcDbEntity
  8
0
100
AcDbBlockBegin
  2
*U37
 70
     1
 10
0.0
 20
0.0
 30
0.0
  3
*U37
  1

  0
TEXT
  5
1F15
330
29C9
100
AcDbEntity
  8
SIZE
 62
     0
100
AcDbText
 10
-68.57142857142857
 20
235.5794621189598
 30
0.0
 40
64.0
  1
315
 41
0.9
100
AcDbText
  0
ENDBLK
  5
1F17
330
29C9
100
AcDbEntity
  8
0
100
AcDbBlockEnd
  0
BLOCK
  5
29CC
330
29CB
100
AcDbEntity
  8
0
100
AcDbBlockBegin
  2
*U38
 70
     1
 10
0.0
 20
0.0
 30
0.0
  3
*U38
  1

  0
ENDBLK
  5
15CF
330
29CB
100
AcDbEntity
  8
0
100
AcDbBlockEnd
  0
BLOCK
  5
29CE
330
29CD
100
AcDbEntity
  8
0
100
AcDbBlockBegin
  2
*D39
 70
     1
 10
0.0
 20
0.0
 30
0.0
  3
*D39
  1

  0
LINE
  5
1692
330
29CD
100
AcDbEntity
  8
SIZE
 62
     0
100
AcDbLine
 10
-25844.51823276502
 20
7685.702971374808
 30
0.0
 11
-25981.04465488371
 21
7685.702971374808
 31
0.0
  0
LINE
  5
1693
330
29CD
100
AcDbEntity
  8
SIZE
 62
     0
100
AcDbLine
 10
-25844.51823276502
 20
7677.702971374808
 30
0.0
 11
-25981.04465488371
 21
7677.702971374808
 31
0.0
  0
LINE
  5
1694
330
29CD
100
AcDbEntity
  8
SIZE
 62
     0
100
AcDbLine
 10
-25961.04465488371
 20
7697.702971374808
 30
0.0
 11
-25961.04465488371
 21
7709.702971374809
 31
0.0
  0
LINE
  5
1695
330
29CD
100
AcDbEntity
  8
SIZE
 62
     0
100
AcDbLine
 10
-25961.04465488371
 20
7665.70297137481
 30
0.0
 11
-25961.04465488371
 21
7595.302971374808
 31
0.0
  0
INSERT
  5
1696
330
29CD
100
AcDbEntity
  8
SIZE
 62
     0
100
AcDbBlockReference
  2
_DOTBLANK
 10
-25961.04465488371
 20
7685.702971374808
 30
0.0
 41
12.0
 42
12.0
 43
12.0
 50
270.0
  0
INSERT
  5
1697
330
29CD
100
AcDbEntity
  8
SIZE
 62
     0
100
AcDbBlockReference
  2
_DOTBLANK
 10
-25961.04465488371
 20
7677.702971374808
 30
0.0
 41
12.0
 42
12.0
 43
12.0
 50
90.0
  0
INSERT
  5
1698
330
29CD
100
AcDbEntity
  8
0
100
AcDbBlockReference
  2
*U40
 10
0.0
 20
0.0
 30
0.0
  0
POINT
  5
1699
330
29CD
100
AcDbEntity
  8
DEFPOINTS
 62
     0
100
AcDbPoint
 10
-25824.51823276501
 20
7685.702971374808
 30
0.0
  0
POINT
  5
169A
330
29CD
100
AcDbEntity
  8
DEFPOINTS
 62
     0
100
AcDbPoint
 10
-25824.51823276501
 20
7677.702971374808
 30
0.0
  0
POINT
  5
169B
330
29CD
100
AcDbEntity
  8
DEFPOINTS
 62
     0
100
AcDbPoint
 10
-25961.04465488371
 20
7677.702971374808
 30
0.0
  0
ENDBLK
  5
169C
330
29CD
100
AcDbEntity
  8
0
100
AcDbBlockEnd
  0
BLOCK
  5
29D0
330
29CF
100
AcDbEntity
  8
0
100
AcDbBlockBegin
  2
*U40
 70
     1
 10
0.0
 20
0.0
 30
0.0
  3
*U40
  1

  0
TEXT
  5
1F19
330
29CF
100
AcDbEntity
  8
SIZE
 62
     0
100
AcDbText
 10
-25971.04465488371
 20
7605.302971374804
 30
0.0
 40
64.0
  1
8
 50
90.0
 41
0.9
100
AcDbText
  0
ENDBLK
  5
1F1B
330
29CF
100
AcDbEntity
  8
0
100
AcDbBlockEnd
  0
BLOCK
  5
29D2
330
29D1
100
AcDbEntity
  8
0
100
AcDbBlockBegin
  2
*D41
 70
     1
 10
0.0
 20
0.0
 30
0.0
  3
*D41
  1

  0
LINE
  5
169F
330
29D1
100
AcDbEntity
  8
SIZE
 62
     0
100
AcDbLine
 10
-25512.51823276502
 20
7385.702971374808
 30
0.0
 11
-25362.37494828464
 21
7385.702971374808
 31
0.0
  0
LINE
  5
16A0
330
29D1
100
AcDbEntity
  8
SIZE
 62
     0
100
AcDbLine
 10
-25523.51823276501
 20
7373.702971374808
 30
0.0
 11
-25362.37494828464
 21
7373.702971374808
 31
0.0
  0
LINE
  5
16A1
330
29D1
100
AcDbEntity
  8
SIZE
 62
     0
100
AcDbLine
 10
-25382.37494828464
 20
7397.702971374808
 30
0.0
 11
-25382.37494828464
 21
7409.70297137481
 31
0.0
  0
LINE
  5
16A2
330
29D1
100
AcDbEntity
  8
SIZE
 62
     0
100
AcDbLine
 10
-25382.37494828464
 20
7361.702971374808
 30
0.0
 11
-25382.37494828464
 21
7244.674399946237
 31
0.0
  0
INSERT
  5
16A3
330
29D1
100
AcDbEntity
  8
SIZE
 62
     0
100
AcDbBlockReference
  2
_DOTBLANK
 10
-25382.37494828464
 20
7385.702971374808
 30
0.0
 41
12.0
 42
12.0
 43
12.0
 50
270.0
  0
INSERT
  5
16A4
330
29D1
100
AcDbEntity
  8
SIZE
 62
     0
100
AcDbBlockReference
  2
_DOTBLANK
 10
-25382.37494828464
 20
7373.702971374808
 30
0.0
 41
12.0
 42
12.0
 43
12.0
 50
90.0
  0
INSERT
  5
16A5
330
29D1
100
AcDbEntity
  8
0
100
AcDbBlockReference
  2
*U42
 10
0.0
 20
0.0
 30
0.0
  0
POINT
  5
16A6
330
29D1
100
AcDbEntity
  8
DEFPOINTS
 62
     0
100
AcDbPoint
 10
-25532.51823276502
 20
7385.702971374808
 30
0.0
  0
POINT
  5
16A7
330
29D1
100
AcDbEntity
  8
DEFPOINTS
 62
     0
100
AcDbPoint
 10
-25543.51823276502
 20
7373.702971374808
 30
0.0
  0
POINT
  5
16A8
330
29D1
100
AcDbEntity
  8
DEFPOINTS
 62
     0
100
AcDbPoint
 10
-25382.37494828464
 20
7373.702971374808
 30
0.0
  0
ENDBLK
  5
16A9
330
29D1
100
AcDbEntity
  8
0
100
AcDbBlockEnd
  0
BLOCK
  5
29D4
330
29D3
100
AcDbEntity
  8
0
100
AcDbBlockBegin
  2
*U42
 70
     1
 10
0.0
 20
0.0
 30
0.0
  3
*U42
  1

  0
TEXT
  5
1F1D
330
29D3
100
AcDbEntity
  8
SIZE
 62
     0
100
AcDbText
 10
-25392.37494828464
 20
7256.045828517662
 30
0.0
 40
64.0
  1
12
 50
90.0
 41
0.9
100
AcDbText
  0
ENDBLK
  5
1F1F
330
29D3
100
AcDbEntity
  8
0
100
AcDbBlockEnd
  0
BLOCK
  5
29D6
330
29D5
100
AcDbEntity
  8
0
100
AcDbBlockBegin
  2
*D43
 70
     1
 10
0.0
 20
0.0
 30
0.0
  3
*D43
  1

  0
LINE
  5
16AC
330
29D5
100
AcDbEntity
  8
SIZE
 62
     0
100
AcDbLine
 10
-25801.51823276501
 20
7365.702971374808
 30
0.0
 11
-25801.51823276501
 21
7217.685576144207
 31
0.0
  0
LINE
  5
16AD
330
29D5
100
AcDbEntity
  8
SIZE
 62
     0
100
AcDbLine
 10
-25532.51823276502
 20
7365.702971374808
 30
0.0
 11
-25532.51823276502
 21
7217.685576144207
 31
0.0
  0
LINE
  5
16AE
330
29D5
100
AcDbEntity
  8
SIZE
 62
     0
100
AcDbLine
 10
-25789.51823276502
 20
7237.685576144207
 30
0.0
 11
-25544.51823276501
 21
7237.685576144207
 31
0.0
  0
INSERT
  5
16AF
330
29D5
100
AcDbEntity
  8
SIZE
 62
     0
100
AcDbBlockReference
  2
_DOTBLANK
 10
-25801.51823276501
 20
7237.685576144207
 30
0.0
 41
12.0
 42
12.0
 43
12.0
 50
180.0
  0
INSERT
  5
16B0
330
29D5
100
AcDbEntity
  8
SIZE
 62
     0
100
AcDbBlockReference
  2
_DOTBLANK
 10
-25532.51823276502
 20
7237.685576144207
 30
0.0
 41
12.0
 42
12.0
 43
12.0
  0
INSERT
  5
16B1
330
29D5
100
AcDbEntity
  8
0
100
AcDbBlockReference
  2
*U44
 10
0.0
 20
0.0
 30
0.0
  0
POINT
  5
16B2
330
29D5
100
AcDbEntity
  8
DEFPOINTS
 62
     0
100
AcDbPoint
 10
-25801.51823276501
 20
7385.702971374808
 30
0.0
  0
POINT
  5
16B3
330
29D5
100
AcDbEntity
  8
DEFPOINTS
 62
     0
100
AcDbPoint
 10
-25532.51823276502
 20
7385.702971374808
 30
0.0
  0
POINT
  5
16B4
330
29D5
100
AcDbEntity
  8
DEFPOINTS
 62
     0
100
AcDbPoint
 10
-25532.51823276502
 20
7237.685576144207
 30
0.0
  0
ENDBLK
  5
16B5
330
29D5
100
AcDbEntity
  8
0
100
AcDbBlockEnd
  0
BLOCK
  5
29D8
330
29D7
100
AcDbEntity
  8
0
100
AcDbBlockBegin
  2
*U44
 70
     1
 10
0.0
 20
0.0
 30
0.0
  3
*U44
  1

  0
TEXT
  5
1F21
330
29D7
100
AcDbEntity
  8
SIZE
 62
     0
100
AcDbText
 10
-25739.70394705074
 20
7247.685576144205
 30
0.0
 40
64.0
  1
269
 41
0.9
100
AcDbText
  0
ENDBLK
  5
1F23
330
29D7
100
AcDbEntity
  8
0
100
AcDbBlockEnd
  0
BLOCK
  5
29DA
330
29D9
100
AcDbEntity
  8
0
100
AcDbBlockBegin
  2
*D45
 70
     1
 10
0.0
 20
0.0
 30
0.0
  3
*D45
  1

  0
LINE
  5
16B8
330
29D9
100
AcDbEntity
  8
SIZE
 62
     0
100
AcDbLine
 10
-25512.51823276502
 20
7385.702971374808
 30
0.0
 11
-25362.37494828464
 21
7385.702971374808
 31
0.0
  0
LINE
  5
16B9
330
29D9
100
AcDbEntity
  8
SIZE
 62
     0
100
AcDbLine
 10
-25489.51823276501
 20
7685.702971374808
 30
0.0
 11
-25362.37494828464
 21
7685.702971374808
 31
0.0
  0
LINE
  5
16BA
330
29D9
100
AcDbEntity
  8
SIZE
 62
     0
100
AcDbLine
 10
-25382.37494828464
 20
7397.702971374808
 30
0.0
 11
-25382.37494828464
 21
7673.702971374808
 31
0.0
  0
INSERT
  5
16BB
330
29D9
100
AcDbEntity
  8
SIZE
 62
     0
100
AcDbBlockReference
  2
_DOTBLANK
 10
-25382.37494828464
 20
7385.702971374808
 30
0.0
 41
12.0
 42
12.0
 43
12.0
 50
270.0
  0
INSERT
  5
16BC
330
29D9
100
AcDbEntity
  8
SIZE
 62
     0
100
AcDbBlockReference
  2
_DOTBLANK
 10
-25382.37494828464
 20
7685.702971374808
 30
0.0
 41
12.0
 42
12.0
 43
12.0
 50
90.0
  0
INSERT
  5
16BD
330
29D9
100
AcDbEntity
  8
0
100
AcDbBlockReference
  2
*U46
 10
0.0
 20
0.0
 30
0.0
  0
POINT
  5
16BE
330
29D9
100
AcDbEntity
  8
DEFPOINTS
 62
     0
100
AcDbPoint
 10
-25532.51823276502
 20
7385.702971374808
 30
0.0
  0
POINT
  5
16BF
330
29D9
100
AcDbEntity
  8
DEFPOINTS
 62
     0
100
AcDbPoint
 10
-25509.51823276502
 20
7685.702971374808
 30
0.0
  0
POINT
  5
16C0
330
29D9
100
AcDbEntity
  8
DEFPOINTS
 62
     0
100
AcDbPoint
 10
-25382.37494828464
 20
7685.702971374808
 30
0.0
  0
ENDBLK
  5
16C1
330
29D9
100
AcDbEntity
  8
0
100
AcDbBlockEnd
  0
BLOCK
  5
29DC
330
29DB
100
AcDbEntity
  8
0
100
AcDbBlockBegin
  2
*U46
 70
     1
 10
0.0
 20
0.0
 30
0.0
  3
*U46
  1

  0
TEXT
  5
1F25
330
29DB
100
AcDbEntity
  8
SIZE
 62
     0
100
AcDbText
 10
-25392.37494828464
 20
7461.645828517662
 30
0.0
 40
64.0
  1
300
 50
90.0
 41
0.9
100
AcDbText
  0
ENDBLK
  5
1F27
330
29DB
100
AcDbEntity
  8
0
100
AcDbBlockEnd
  0
BLOCK
  5
29DE
330
29DD
100
AcDbEntity
  8
0
100
AcDbBlockBegin
  2
*D47
 70
     1
 10
0.0
 20
0.0
 30
0.0
  3
*D47
  1

  0
LINE
  5
16C4
330
29DD
100
AcDbEntity
  8
SIZE
 62
     0
100
AcDbLine
 10
-25807.01823276501
 20
7718.167454177002
 30
0.0
 11
-25807.01823276501
 21
7822.154659243358
 31
0.0
  0
LINE
  5
16C5
330
29DD
100
AcDbEntity
  8
SIZE
 62
     0
100
AcDbLine
 10
-25527.01823276501
 20
7718.167454177002
 30
0.0
 11
-25527.01823276501
 21
7822.154659243358
 31
0.0
  0
LINE
  5
16C6
330
29DD
100
AcDbEntity
  8
SIZE
 62
     0
100
AcDbLine
 10
-25795.01823276502
 20
7802.154659243358
 30
0.0
 11
-25539.01823276501
 21
7802.154659243358
 31
0.0
  0
INSERT
  5
16C7
330
29DD
100
AcDbEntity
  8
SIZE
 62
     0
100
AcDbBlockReference
  2
_DOTBLANK
 10
-25807.01823276501
 20
7802.154659243358
 30
0.0
 41
12.0
 42
12.0
 43
12.0
 50
180.0
  0
INSERT
  5
16C8
330
29DD
100
AcDbEntity
  8
SIZE
 62
     0
100
AcDbBlockReference
  2
_DOTBLANK
 10
-25527.01823276501
 20
7802.154659243358
 30
0.0
 41
12.0
 42
12.0
 43
12.0
  0
INSERT
  5
16C9
330
29DD
100
AcDbEntity
  8
0
100
AcDbBlockReference
  2
*U48
 10
0.0
 20
0.0
 30
0.0
  0
POINT
  5
16CA
330
29DD
100
AcDbEntity
  8
DEFPOINTS
 62
     0
100
AcDbPoint
 10
-25807.01823276501
 20
7698.167454177002
 30
0.0
  0
POINT
  5
16CB
330
29DD
100
AcDbEntity
  8
DEFPOINTS
 62
     0
100
AcDbPoint
 10
-25527.01823276501
 20
7698.167454177002
 30
0.0
  0
POINT
  5
16CC
330
29DD
100
AcDbEntity
  8
DEFPOINTS
 62
     0
100
AcDbPoint
 10
-25527.01823276501
 20
7802.154659243358
 30
0.0
  0
ENDBLK
  5
16CD
330
29DD
100
AcDbEntity
  8
0
100
AcDbBlockEnd
  0
BLOCK
  5
29E0
330
29DF
100
AcDbEntity
  8
0
100
AcDbBlockBegin
  2
*U48
 70
     1
 10
0.0
 20
0.0
 30
0.0
  3
*U48
  1

  0
TEXT
  5
1F29
330
29DF
100
AcDbEntity
  8
SIZE
 62
     0
100
AcDbText
 10
-25741.07537562216
 20
7812.154659243358
 30
0.0
 40
64.0
  1
280
 41
0.9
100
AcDbText
  0
ENDBLK
  5
1F2B
330
29DF
100
AcDbEntity
  8
0
100
AcDbBlockEnd
  0
BLOCK
  5
29E2
330
29E1
100
AcDbEntity
  8
0
100
AcDbBlockBegin
  2
*D49
 70
     1
 10
0.0
 20
0.0
 30
0.0
  3
*D49
  1

  0
LINE
  5
16D0
330
29E1
100
AcDbEntity
  8
SIZE
 62
     0
100
AcDbLine
 10
-25824.51823276501
 20
7705.702971374808
 30
0.0
 11
-25824.51823276501
 21
7931.282433493766
 31
0.0
  0
LINE
  5
16D1
330
29E1
100
AcDbEntity
  8
SIZE
 62
     0
100
AcDbLine
 10
-25509.51823276502
 20
7705.702971374808
 30
0.0
 11
-25509.51823276502
 21
7931.282433493766
 31
0.0
  0
LINE
  5
16D2
330
29E1
100
AcDbEntity
  8
SIZE
 62
     0
100
AcDbLine
 10
-25812.51823276502
 20
7911.282433493766
 30
0.0
 11
-25521.51823276501
 21
7911.282433493766
 31
0.0
  0
INSERT
  5
16D3
330
29E1
100
AcDbEntity
  8
SIZE
 62
     0
100
AcDbBlockReference
  2
_DOTBLANK
 10
-25824.51823276501
 20
7911.282433493766
 30
0.0
 41
12.0
 42
12.0
 43
12.0
 50
180.0
  0
INSERT
  5
16D4
330
29E1
100
AcDbEntity
  8
SIZE
 62
     0
100
AcDbBlockReference
  2
_DOTBLANK
 10
-25509.51823276502
 20
7911.282433493766
 30
0.0
 41
12.0
 42
12.0
 43
12.0
  0
INSERT
  5
16D5
330
29E1
100
AcDbEntity
  8
0
100
AcDbBlockReference
  2
*U50
 10
0.0
 20
0.0
 30
0.0
  0
POINT
  5
16D6
330
29E1
100
AcDbEntity
  8
DEFPOINTS
 62
     0
100
AcDbPoint
 10
-25824.51823276501
 20
7685.702971374808
 30
0.0
  0
POINT
  5
16D7
330
29E1
100
AcDbEntity
  8
DEFPOINTS
 62
     0
100
AcDbPoint
 10
-25509.51823276502
 20
7685.702971374808
 30
0.0
  0
POINT
  5
16D8
330
29E1
100
AcDbEntity
  8
DEFPOINTS
 62
     0
100
AcDbPoint
 10
-25509.51823276502
 20
7911.282433493766
 30
0.0
  0
ENDBLK
  5
16D9
330
29E1
100
AcDbEntity
  8
0
100
AcDbBlockEnd
  0
BLOCK
  5
29E4
330
29E3
100
AcDbEntity
  8
0
100
AcDbBlockBegin
  2
*U50
 70
     1
 10
0.0
 20
0.0
 30
0.0
  3
*U50
  1

  0
TEXT
  5
1F2D
330
29E3
100
AcDbEntity
  8
SIZE
 62
     0
100
AcDbText
 10
-25735.58966133645
 20
7921.282433493766
 30
0.0
 40
64.0
  1
315
 41
0.9
100
AcDbText
  0
ENDBLK
  5
1F2F
330
29E3
100
AcDbEntity
  8
0
100
AcDbBlockEnd
  0
BLOCK
  5
29E6
330
29E5
100
AcDbEntity
  8
0
100
AcDbBlockBegin
  2
*D51
 70
     1
 10
0.0
 20
0.0
 30
0.0
  3
*D51
  1

  0
LINE
  5
1D83
330
29E5
100
AcDbEntity
  8
SIZE
 62
     0
100
AcDbLine
 10
-134.5
 20
-320.0
 30
0.0
 11
-134.5
 21
-468.0173952306001
 31
0.0
  0
LINE
  5
1D84
330
29E5
100
AcDbEntity
  8
SIZE
 62
     0
100
AcDbLine
 10
134.5
 20
-320.0
 30
0.0
 11
134.5
 21
-468.0173952306001
 31
0.0
  0
LINE
  5
1D85
330
29E5
100
AcDbEntity
  8
SIZE
 62
     0
100
AcDbLine
 10
-122.5
 20
-448.0173952306
 30
0.0
 11
122.5
 21
-448.0173952306
 31
0.0
  0
INSERT
  5
1D86
330
29E5
100
AcDbEntity
  8
SIZE
 62
     0
100
AcDbBlockReference
  2
_DOTBLANK
 10
-134.5
 20
-448.0173952306
 30
0.0
 41
12.0
 42
12.0
 43
12.0
 50
180.0
  0
INSERT
  5
1D87
330
29E5
100
AcDbEntity
  8
SIZE
 62
     0
100
AcDbBlockReference
  2
_DOTBLANK
 10
134.5
 20
-448.0173952306
 30
0.0
 41
12.0
 42
12.0
 43
12.0
  0
INSERT
  5
1D88
330
29E5
100
AcDbEntity
  8
0
100
AcDbBlockReference
  2
*U52
 10
0.0
 20
0.0
 30
0.0
  0
POINT
  5
1D89
330
29E5
100
AcDbEntity
  8
DEFPOINTS
 62
     0
100
AcDbPoint
 10
-134.5
 20
-300.0
 30
0.0
  0
POINT
  5
1D8A
330
29E5
100
AcDbEntity
  8
DEFPOINTS
 62
     0
100
AcDbPoint
 10
134.5
 20
-300.0
 30
0.0
  0
POINT
  5
1D8B
330
29E5
100
AcDbEntity
  8
DEFPOINTS
 62
     0
100
AcDbPoint
 10
134.5
 20
-448.0173952306
 30
0.0
  0
ENDBLK
  5
173D
330
29E5
100
AcDbEntity
  8
0
100
AcDbBlockEnd
  0
BLOCK
  5
29E8
330
29E7
100
AcDbEntity
  8
0
100
AcDbBlockBegin
  2
*U52
 70
     1
 10
0.0
 20
0.0
 30
0.0
  3
*U52
  1

  0
TEXT
  5
1F31
330
29E7
100
AcDbEntity
  8
SIZE
 62
     0
100
AcDbText
 10
-72.68571428571426
 20
-438.0173952306003
 30
0.0
 40
64.0
  1
269
 41
0.9
100
AcDbText
  0
ENDBLK
  5
1F33
330
29E7
100
AcDbEntity
  8
0
100
AcDbBlockEnd
  0
BLOCK
  5
29EA
330
29E9
100
AcDbEntity
  8
0
100
AcDbBlockBegin
  2
*D53
 70
     1
 10
0.0
 20
0.0
 30
0.0
  3
*D53
  1

  0
LINE
  5
1D8C
330
29E9
100
AcDbEntity
  8
SIZE
 62
     0
100
AcDbLine
 10
154.5
 20
-300.0
 30
0.0
 11
304.6432844803784
 21
-300.0
 31
0.0
  0
LINE
  5
1D8D
330
29E9
100
AcDbEntity
  8
SIZE
 62
     0
100
AcDbLine
 10
177.5
 20
-0.0000000000000057
 30
0.0
 11
304.6432844803785
 21
-0.0000000000000417
 31
0.0
  0
LINE
  5
1D8E
330
29E9
100
AcDbEntity
  8
SIZE
 62
     0
100
AcDbLine
 10
284.6432844803784
 20
-288.0
 30
0.0
 11
284.6432844803785
 21
-12.00000000000003
 31
0.0
  0
INSERT
  5
1D8F
330
29E9
100
AcDbEntity
  8
SIZE
 62
     0
100
AcDbBlockReference
  2
_DOTBLANK
 10
284.6432844803784
 20
-300.0
 30
0.0
 41
12.0
 42
12.0
 43
12.0
 50
270.0
  0
INSERT
  5
1D90
330
29E9
100
AcDbEntity
  8
SIZE
 62
     0
100
AcDbBlockReference
  2
_DOTBLANK
 10
284.6432844803785
 20
-0.000000000000036
 30
0.0
 41
12.0
 42
12.0
 43
12.0
 50
90.0
  0
INSERT
  5
1D91
330
29E9
100
AcDbEntity
  8
0
100
AcDbBlockReference
  2
*U54
 10
0.0
 20
0.0
 30
0.0
  0
POINT
  5
1D92
330
29E9
100
AcDbEntity
  8
DEFPOINTS
 62
     0
100
AcDbPoint
 10
134.5
 20
-300.0
 30
0.0
  0
POINT
  5
1D93
330
29E9
100
AcDbEntity
  8
DEFPOINTS
 62
     0
100
AcDbPoint
 10
157.5
 20
0.0
 30
0.0
  0
POINT
  5
1D94
330
29E9
100
AcDbEntity
  8
DEFPOINTS
 62
     0
100
AcDbPoint
 10
284.6432844803785
 20
-0.000000000000036
 30
0.0
  0
ENDBLK
  5
1749
330
29E9
100
AcDbEntity
  8
0
100
AcDbBlockEnd
  0
BLOCK
  5
29EC
330
29EB
100
AcDbEntity
  8
0
100
AcDbBlockBegin
  2
*U54
 70
     1
 10
0.0
 20
0.0
 30
0.0
  3
*U54
  1

  0
TEXT
  5
1F35
330
29EB
100
AcDbEntity
  8
SIZE
 62
     0
100
AcDbText
 10
274.6432844803785
 20
-224.0571428571429
 30
0.0
 40
64.0
  1
300
 50
90.0
 41
0.9
100
AcDbText
  0
ENDBLK
  5
1F37
330
29EB
100
AcDbEntity
  8
0
100
AcDbBlockEnd
  0
BLOCK
  5
29EE
330
29ED
100
AcDbEntity
  8
0
100
AcDbBlockBegin
  2
*D55
 70
     1
 10
0.0
 20
0.0
 30
0.0
  3
*D55
  1

  0
LINE
  5
1D95
330
29ED
100
AcDbEntity
  8
SIZE
 62
     0
100
AcDbLine
 10
-140.0
 20
32.46448280219375
 30
0.0
 11
-140.0
 21
136.4516878685508
 31
0.0
  0
LINE
  5
1D96
330
29ED
100
AcDbEntity
  8
SIZE
 62
     0
100
AcDbLine
 10
140.0
 20
32.46448280219375
 30
0.0
 11
140.0
 21
136.4516878685508
 31
0.0
  0
LINE
  5
1D97
330
29ED
100
AcDbEntity
  8
SIZE
 62
     0
100
AcDbLine
 10
-128.0
 20
116.4516878685508
 30
0.0
 11
128.0
 21
116.4516878685508
 31
0.0
  0
INSERT
  5
1D98
330
29ED
100
AcDbEntity
  8
SIZE
 62
     0
100
AcDbBlockReference
  2
_DOTBLANK
 10
-140.0
 20
116.4516878685508
 30
0.0
 41
12.0
 42
12.0
 43
12.0
 50
180.0
  0
INSERT
  5
1D99
330
29ED
100
AcDbEntity
  8
SIZE
 62
     0
100
AcDbBlockReference
  2
_DOTBLANK
 10
140.0
 20
116.4516878685508
 30
0.0
 41
12.0
 42
12.0
 43
12.0
  0
INSERT
  5
1D9A
330
29ED
100
AcDbEntity
  8
0
100
AcDbBlockReference
  2
*U56
 10
0.0
 20
0.0
 30
0.0
  0
POINT
  5
1D9B
330
29ED
100
AcDbEntity
  8
DEFPOINTS
 62
     0
100
AcDbPoint
 10
-140.0
 20
12.46448280219374
 30
0.0
  0
POINT
  5
1D9C
330
29ED
100
AcDbEntity
  8
DEFPOINTS
 62
     0
100
AcDbPoint
 10
140.0
 20
12.46448280219374
 30
0.0
  0
POINT
  5
1D9D
330
29ED
100
AcDbEntity
  8
DEFPOINTS
 62
     0
100
AcDbPoint
 10
140.0
 20
116.4516878685508
 30
0.0
  0
ENDBLK
  5
1755
330
29ED
100
AcDbEntity
  8
0
100
AcDbBlockEnd
  0
BLOCK
  5
29F0
330
29EF
100
AcDbEntity
  8
0
100
AcDbBlockBegin
  2
*U56
 70
     1
 10
0.0
 20
0.0
 30
0.0
  3
*U56
  1

  0
TEXT
  5
1F39
330
29EF
100
AcDbEntity
  8
SIZE
 62
     0
100
AcDbText
 10
-74.05714285714283
 20
126.4516878685508
 30
0.0
 40
64.0
  1
280
 41
0.9
100
AcDbText
  0
ENDBLK
  5
1F3B
330
29EF
100
AcDbEntity
  8
0
100
AcDbBlockEnd
  0
BLOCK
  5
29F2
330
29F1
100
AcDbEntity
  8
0
100
AcDbBlockBegin
  2
*D57
 70
     1
 10
0.0
 20
0.0
 30
0.0
  3
*D57
  1

  0
LINE
  5
1D9E
330
29F1
100
AcDbEntity
  8
SIZE
 62
     0
100
AcDbLine
 10
-157.5
 20
20.0
 30
0.0
 11
-157.5
 21
245.5794621189598
 31
0.0
  0
LINE
  5
1D9F
330
29F1
100
AcDbEntity
  8
SIZE
 62
     0
100
AcDbLine
 10
157.5
 20
20.0
 30
0.0
 11
157.5
 21
245.5794621189598
 31
0.0
  0
LINE
  5
1DA0
330
29F1
100
AcDbEntity
  8
SIZE
 62
     0
100
AcDbLine
 10
-145.5
 20
225.5794621189598
 30
0.0
 11
145.5
 21
225.5794621189598
 31
0.0
  0
INSERT
  5
1DA1
330
29F1
100
AcDbEntity
  8
SIZE
 62
     0
100
AcDbBlockReference
  2
_DOTBLANK
 10
-157.5
 20
225.5794621189598
 30
0.0
 41
12.0
 42
12.0
 43
12.0
 50
180.0
  0
INSERT
  5
1DA2
330
29F1
100
AcDbEntity
  8
SIZE
 62
     0
100
AcDbBlockReference
  2
_DOTBLANK
 10
157.5
 20
225.5794621189598
 30
0.0
 41
12.0
 42
12.0
 43
12.0
  0
INSERT
  5
1DA3
330
29F1
100
AcDbEntity
  8
0
100
AcDbBlockReference
  2
*U58
 10
0.0
 20
0.0
 30
0.0
  0
POINT
  5
1DA4
330
29F1
100
AcDbEntity
  8
DEFPOINTS
 62
     0
100
AcDbPoint
 10
-157.5
 20
0.0
 30
0.0
  0
POINT
  5
1DA5
330
29F1
100
AcDbEntity
  8
DEFPOINTS
 62
     0
100
AcDbPoint
 10
157.5
 20
0.0
 30
0.0
  0
POINT
  5
1DA6
330
29F1
100
AcDbEntity
  8
DEFPOINTS
 62
     0
100
AcDbPoint
 10
157.5
 20
225.5794621189598
 30
0.0
  0
ENDBLK
  5
1761
330
29F1
100
AcDbEntity
  8
0
100
AcDbBlockEnd
  0
BLOCK
  5
29F4
330
29F3
100
AcDbEntity
  8
0
100
AcDbBlockBegin
  2
*U58
 70
     1
 10
0.0
 20
0.0
 30
0.0
  3
*U58
  1

  0
TEXT
  5
1F3D
330
29F3
100
AcDbEntity
  8
SIZE
 62
     0
100
AcDbText
 10
-68.57142857142857
 20
235.5794621189599
 30
0.0
 40
64.0
  1
315
 41
0.9
100
AcDbText
  0
ENDBLK
  5
1F3F
330
29F3
100
AcDbEntity
  8
0
100
AcDbBlockEnd
  0
BLOCK
  5
29F6
330
29F5
100
AcDbEntity
  8
0
100
AcDbBlockBegin
  2
*D59
 70
     1
 10
0.0
 20
0.0
 30
0.0
  3
*D59
  1

  0
LINE
  5
1DA7
330
29F5
100
AcDbEntity
  8
SIZE
 62
     0
100
AcDbLine
 10
-177.5
 20
0.0000000000000057
 30
0.0
 11
-314.0264221186908
 21
0.0000000000000443
 31
0.0
  0
LINE
  5
1DA8
330
29F5
100
AcDbEntity
  8
SIZE
 62
     0
100
AcDbLine
 10
-177.5
 20
-7.999999999999995
 30
0.0
 11
-314.0264221186908
 21
-7.999999999999958
 31
0.0
  0
LINE
  5
1DA9
330
29F5
100
AcDbEntity
  8
SIZE
 62
     0
100
AcDbLine
 10
-294.0264221186908
 20
12.00000000000003
 30
0.0
 11
-294.0264221186908
 21
24.00000000000004
 31
0.0
  0
LINE
  5
1DAA
330
29F5
100
AcDbEntity
  8
SIZE
 62
     0
100
AcDbLine
 10
-294.0264221186908
 20
-19.99999999999996
 30
0.0
 11
-294.0264221186908
 21
-90.39999999999997
 31
0.0
  0
INSERT
  5
1DAB
330
29F5
100
AcDbEntity
  8
SIZE
 62
     0
100
AcDbBlockReference
  2
_DOTBLANK
 10
-294.0264221186908
 20
0.0000000000000387
 30
0.0
 41
12.0
 42
12.0
 43
12.0
 50
270.0
  0
INSERT
  5
1DAC
330
29F5
100
AcDbEntity
  8
SIZE
 62
     0
100
AcDbBlockReference
  2
_DOTBLANK
 10
-294.0264221186908
 20
-7.999999999999961
 30
0.0
 41
12.0
 42
12.0
 43
12.0
 50
90.0
  0
INSERT
  5
1DAD
330
29F5
100
AcDbEntity
  8
0
100
AcDbBlockReference
  2
*U60
 10
0.0
 20
0.0
 30
0.0
  0
POINT
  5
1DAE
330
29F5
100
AcDbEntity
  8
DEFPOINTS
 62
     0
100
AcDbPoint
 10
-157.5
 20
0.0
 30
0.0
  0
POINT
  5
1DAF
330
29F5
100
AcDbEntity
  8
DEFPOINTS
 62
     0
100
AcDbPoint
 10
-157.5
 20
-8.000000000000003
 30
0.0
  0
POINT
  5
1DB0
330
29F5
100
AcDbEntity
  8
DEFPOINTS
 62
     0
100
AcDbPoint
 10
-294.0264221186908
 20
-7.999999999999961
 30
0.0
  0
ENDBLK
  5
176D
330
29F5
100
AcDbEntity
  8
0
100
AcDbBlockEnd
  0
BLOCK
  5
29F8
330
29F7
100
AcDbEntity
  8
0
100
AcDbBlockBegin
  2
*U60
 70
     1
 10
0.0
 20
0.0
 30
0.0
  3
*U60
  1

  0
TEXT
  5
1F41
330
29F7
100
AcDbEntity
  8
SIZE
 62
     0
100
AcDbText
 10
-304.0264221186908
 20
-80.4
 30
0.0
 40
64.0
  1
8
 50
90.0
 41
0.9
100
AcDbText
  0
ENDBLK
  5
1F43
330
29F7
100
AcDbEntity
  8
0
100
AcDbBlockEnd
  0
BLOCK
  5
29FA
330
29F9
100
AcDbEntity
  8
0
100
AcDbBlockBegin
  2
*D61
 70
     1
 10
0.0
 20
0.0
 30
0.0
  3
*D61
  1

  0
LINE
  5
1DB1
330
29F9
100
AcDbEntity
  8
SIZE
 62
     0
100
AcDbLine
 10
154.5
 20
-300.0
 30
0.0
 11
304.6432844803785
 21
-300.0
 31
0.0
  0
LINE
  5
1DB2
330
29F9
100
AcDbEntity
  8
SIZE
 62
     0
100
AcDbLine
 10
143.5
 20
-312.0
 30
0.0
 11
304.6432844803785
 21
-312.0
 31
0.0
  0
LINE
  5
1DB3
330
29F9
100
AcDbEntity
  8
SIZE
 62
     0
100
AcDbLine
 10
284.6432844803785
 20
-288.0
 30
0.0
 11
284.6432844803785
 21
-276.0
 31
0.0
  0
LINE
  5
1DB4
330
29F9
100
AcDbEntity
  8
SIZE
 62
     0
100
AcDbLine
 10
284.6432844803785
 20
-324.0000000000001
 30
0.0
 11
284.6432844803784
 21
-438.2857142857143
 31
0.0
  0
INSERT
  5
1DB5
330
29F9
100
AcDbEntity
  8
SIZE
 62
     0
100
AcDbBlockReference
  2
_DOTBLANK
 10
284.6432844803785
 20
-300.0
 30
0.0
 41
12.0
 42
12.0
 43
12.0
 50
270.0
  0
INSERT
  5
1DB6
330
29F9
100
AcDbEntity
  8
SIZE
 62
     0
100
AcDbBlockReference
  2
_DOTBLANK
 10
284.6432844803785
 20
-312.0
 30
0.0
 41
12.0
 42
12.0
 43
12.0
 50
90.0
  0
INSERT
  5
1DB7
330
29F9
100
AcDbEntity
  8
0
100
AcDbBlockReference
  2
*U62
 10
0.0
 20
0.0
 30
0.0
  0
POINT
  5
1DB8
330
29F9
100
AcDbEntity
  8
DEFPOINTS
 62
     0
100
AcDbPoint
 10
134.5
 20
-300.0
 30
0.0
  0
POINT
  5
1DB9
330
29F9
100
AcDbEntity
  8
DEFPOINTS
 62
     0
100
AcDbPoint
 10
123.5
 20
-312.0
 30
0.0
  0
POINT
  5
1DBA
330
29F9
100
AcDbEntity
  8
DEFPOINTS
 62
     0
100
AcDbPoint
 10
284.6432844803785
 20
-312.0
 30
0.0
  0
ENDBLK
  5
177B
330
29F9
100
AcDbEntity
  8
0
100
AcDbBlockEnd
  0
BLOCK
  5
29FC
330
29FB
100
AcDbEntity
  8
0
100
AcDbBlockBegin
  2
*U62
 70
     1
 10
0.0
 20
0.0
 30
0.0
  3
*U62
  1

  0
TEXT
  5
1F45
330
29FB
100
AcDbEntity
  8
SIZE
 62
     0
100
AcDbText
 10
274.6432844803785
 20
-428.2857142857142
 30
0.0
 40
64.0
  1
12
 50
90.0
 41
0.9
100
AcDbText
  0
ENDBLK
  5
1F47
330
29FB
100
AcDbEntity
  8
0
100
AcDbBlockEnd
  0
BLOCK
  5
29FE
330
29FD
100
AcDbEntity
  8
0
100
AcDbBlockBegin
  2
*U63
 70
     1
 10
0.0
 20
0.0
 30
0.0
  3
*U63
  1

  0
ENDBLK
  5
1D57
330
29FD
100
AcDbEntity
  8
0
100
AcDbBlockEnd
  0
BLOCK
  5
2A00
330
29FF
100
AcDbEntity
  8
0
100
AcDbBlockBegin
  2
*U64
 70
     1
 10
0.0
 20
0.0
 30
0.0
  3
*U64
  1

  0
INSERT
  5
266C
330
29FF
100
AcDbEntity
  8
NOTE
100
AcDbBlockReference
  2
_OPEN30
 10
-400.0000000000004
 20
-0.0000000000004547
 30
0.0
 41
12.0
 42
12.0
 43
12.0
 50
312.6090116116892
  0
POLYLINE
  5
266D
330
29FF
100
AcDbEntity
  8
NOTE
100
AcDb2dPolyline
 66
     1
 10
0.0
 20
0.0
 30
0.0
  0
VERTEX
  5
28C1
330
266D
100
AcDbEntity
  8
NOTE
100
AcDbVertex
100
AcDb2dVertex
 10
-408.1239008361896
 20
8.831887408915058
 30
0.0
  0
VERTEX
  5
28C2
330
266D
100
AcDbEntity
  8
NOTE
100
AcDbVertex
100
AcDb2dVertex
 10
-487.8693999922547
 20
95.52709505801384
 30
0.0
  0
VERTEX
  5
28C3
330
266D
100
AcDbEntity
  8
NOTE
100
AcDbVertex
100
AcDb2dVertex
 10
-1077.595114277969
 20
95.52709505801384
 30
0.0
  0
SEQEND
  5
28C4
330
266D
100
AcDbEntity
  8
NOTE
  0
ENDBLK
  5
266E
330
29FF
100
AcDbEntity
  8
0
100
AcDbBlockEnd
  0
BLOCK
  5
2A02
330
2A01
100
AcDbEntity
  8
0
100
AcDbBlockBegin
  2
*U65
 70
     1
 10
0.0
 20
0.0
 30
0.0
  3
*U65
  1

  0
TEXT
  5
2671
330
2A01
100
AcDbEntity
  8
NOTE
100
AcDbText
 10
-1077.595114277969
 20
113.5270950580138
 30
0.0
 40
64.0
  1
10×φ15取付穴
 41
0.9
100
AcDbText
  0
ENDBLK
  5
2672
330
2A01
100
AcDbEntity
  8
0
100
AcDbBlockEnd
  0
BLOCK
  5
2A04
330
2A03
100
AcDbEntity
  8
0
100
AcDbBlockBegin
  2
*X66
 70
     1
 10
0.0
 20
0.0
 30
0.0
  3
*X66
  1

  0
LINE
  5
2675
330
2A03
100
AcDbEntity
  8
0
 62
     0
100
AcDbLine
 10
-365.0000000000054
 20
-781.1743952802262
 30
0.0
 11
-361.1632880651796
 21
-783.0014000000044
 31
0.0
  0
LINE
  5
2676
330
2A03
100
AcDbEntity
  8
0
 62
     0
100
AcDbLine
 10
-365.0000000000073
 20
-771.1744435360913
 30
0.0
 11
-340.163378328194
 21
-783.0014000000029
 31
0.0
  0
LINE
  5
2677
330
2A03
100
AcDbEntity
  8
0
 62
     0
100
AcDbLine
 10
-365.0000000000109
 20
-761.1744917919556
 30
0.0
 11
-319.1634685912068
 21
-783.001400000001
 31
0.0
  0
LINE
  5
2678
330
2A03
100
AcDbEntity
  8
0
 62
     0
100
AcDbLine
 10
-365.0000000000054
 20
-751.1745400478239
 30
0.0
 11
-298.163558854214
 21
-783.0014000000029
 31
0.0
  0
LINE
  5
2679
330
2A03
100
AcDbEntity
  8
0
 62
     0
100
AcDbLine
 10
-365.0000000000091
 20
-741.1745883036883
 30
0.0
 11
-277.163649117223
 21
-783.0014000000029
 31
0.0
  0
LINE
  5
267A
330
2A03
100
AcDbEntity
  8
0
 62
     0
100
AcDbLine
 10
-365.0000000000073
 20
-731.1746365595537
 30
0.0
 11
-256.1637393802321
 21
-783.0014000000029
 31
0.0
  0
LINE
  5
267B
330
2A03
100
AcDbEntity
  8
0
 62
     0
100
AcDbLine
 10
-365.0000000000073
 20
-721.1746848154186
 30
0.0
 11
-235.1638296432393
 21
-783.0014000000029
 31
0.0
  0
LINE
  5
267C
330
2A03
100
AcDbEntity
  8
0
 62
     0
100
AcDbLine
 10
-365.0000000000091
 20
-711.1747330712842
 30
0.0
 11
-214.1639199062502
 21
-783.0014000000017
 31
0.0
  0
LINE
  5
267D
330
2A03
100
AcDbEntity
  8
0
 62
     0
100
AcDbLine
 10
-365.0000000000073
 20
-701.1747813271495
 30
0.0
 11
-193.1640101692592
 21
-783.0014000000017
 31
0.0
  0
LINE
  5
267E
330
2A03
100
AcDbEntity
  8
0
 62
     0
100
AcDbLine
 10
-365.0000000000073
 20
-691.1748295830165
 30
0.0
 11
-172.1641004322664
 21
-783.0014000000034
 31
0.0
  0
LINE
  5
267F
330
2A03
100
AcDbEntity
  8
0
 62
     0
100
AcDbLine
 10
-365.0000000000073
 20
-681.1748778388816
 30
0.0
 11
-151.1641906952773
 21
-783.0014000000034
 31
0.0
  0
LINE
  5
2680
330
2A03
100
AcDbEntity
  8
0
 62
     0
100
AcDbLine
 10
-365.0000000000091
 20
-671.1749260947461
 30
0.0
 11
-130.1642809582845
 21
-783.0014000000034
 31
0.0
  0
LINE
  5
2681
330
2A03
100
AcDbEntity
  8
0
 62
     0
100
AcDbLine
 10
-365.0000000000073
 20
-661.1749743506122
 30
0.0
 11
-109.1643712212935
 21
-783.0014000000034
 31
0.0
  0
LINE
  5
2682
330
2A03
100
AcDbEntity
  8
0
 62
     0
100
AcDbLine
 10
-365.0000000000091
 20
-651.1750226064767
 30
0.0
 11
-88.16446148430259
 21
-783.0014000000034
 31
0.0
  0
LINE
  5
2683
330
2A03
100
AcDbEntity
  8
0
 62
     0
100
AcDbLine
 10
-365.0000000000091
 20
-641.175070862344
 30
0.0
 11
-67.16455174731527
 21
-783.0014000000034
 31
0.0
  0
LINE
  5
2684
330
2A03
100
AcDbEntity
  8
0
 62
     0
100
AcDbLine
 10
-365.0000000000073
 20
-631.1751191182089
 30
0.0
 11
-46.1646420103225
 21
-783.0014000000034
 31
0.0
  0
LINE
  5
2685
330
2A03
100
AcDbEntity
  8
0
 62
     0
100
AcDbLine
 10
-365.0000000000091
 20
-621.1751673740743
 30
0.0
 11
-25.16473227333336
 21
-783.0014000000034
 31
0.0
  0
LINE
  5
2686
330
2A03
100
AcDbEntity
  8
0
 62
     0
100
AcDbLine
 10
-365.0000000000073
 20
-611.1752156299399
 30
0.0
 11
-4.164822536342398
 21
-783.0014000000017
 31
0.0
  0
LINE
  5
2687
330
2A03
100
AcDbEntity
  8
0
 62
     0
100
AcDbLine
 10
-365.0000000000073
 20
-601.1752638858053
 30
0.0
 11
16.83508720064674
 21
-783.0014000000017
 31
0.0
  0
LINE
  5
2688
330
2A03
100
AcDbEntity
  8
0
 62
     0
100
AcDbLine
 10
-365.0000000000091
 20
-591.1753121416706
 30
0.0
 11
37.83499693763589
 21
-783.0014000000017
 31
0.0
  0
LINE
  5
2689
330
2A03
100
AcDbEntity
  8
0
 62
     0
100
AcDbLine
 10
-365.0000000000054
 20
-581.1753603975375
 30
0.0
 11
58.83490667463046
 21
-783.0014000000029
 31
0.0
  0
LINE
  5
268A
330
2A03
100
AcDbEntity
  8
0
 62
     0
100
AcDbLine
 10
-365.0000000000073
 20
-571.1754086534027
 30
0.0
 11
79.83481641161962
 21
-783.0014000000029
 31
0.0
  0
LINE
  5
268B
330
2A03
100
AcDbEntity
  8
0
 62
     0
100
AcDbLine
 10
-365.0000000000073
 20
-561.175456909268
 30
0.0
 11
100.8347261486124
 21
-783.0014000000029
 31
0.0
  0
LINE
  5
268C
330
2A03
100
AcDbEntity
  8
0
 62
     0
100
AcDbLine
 10
-365.0000000000073
 20
-551.1755051651332
 30
0.0
 11
121.8346358856033
 21
-783.0014000000029
 31
0.0
  0
LINE
  5
268D
330
2A03
100
AcDbEntity
  8
0
 62
     0
100
AcDbLine
 10
-365.0000000000091
 20
-541.1755534209986
 30
0.0
 11
142.8345456225943
 21
-783.0014000000029
 31
0.0
  0
LINE
  5
268E
330
2A03
100
AcDbEntity
  8
0
 62
     0
100
AcDbLine
 10
-365.0000000000073
 20
-531.1756016768659
 30
0.0
 11
163.8344553595852
 21
-783.0014000000044
 31
0.0
  0
LINE
  5
268F
330
2A03
100
AcDbEntity
  8
0
 62
     0
100
AcDbLine
 10
-365.0000000000073
 20
-521.1756499327312
 30
0.0
 11
184.8343650965761
 21
-783.0014000000044
 31
0.0
  0
LINE
  5
2690
330
2A03
100
AcDbEntity
  8
0
 62
     0
100
AcDbLine
 10
-365.0000000000091
 20
-511.1756981885965
 30
0.0
 11
205.8342748335635
 21
-783.0014000000029
 31
0.0
  0
LINE
  5
2691
330
2A03
100
AcDbEntity
  8
0
 62
     0
100
AcDbLine
 10
-365.0000000000073
 20
-501.1757464444618
 30
0.0
 11
226.8341845705545
 21
-783.0014000000029
 31
0.0
  0
LINE
  5
2692
330
2A03
100
AcDbEntity
  8
0
 62
     0
100
AcDbLine
 10
-365.0000000000091
 20
-491.1757947003261
 30
0.0
 11
247.8340943075473
 21
-783.0014000000029
 31
0.0
  0
LINE
  5
2693
330
2A03
100
AcDbEntity
  8
0
 62
     0
100
AcDbLine
 10
-365.0000000000073
 20
-481.1758429561939
 30
0.0
 11
268.8340040445364
 21
-783.0014000000034
 31
0.0
  0
LINE
  5
2694
330
2A03
100
AcDbEntity
  8
0
 62
     0
100
AcDbLine
 10
-365.0000000000091
 20
-471.1758912120584
 30
0.0
 11
289.8339137815292
 21
-783.0014000000034
 31
0.0
  0
LINE
  5
2695
330
2A03
100
AcDbEntity
  8
0
 62
     0
100
AcDbLine
 10
-365.0000000000073
 20
-461.1759394679237
 30
0.0
 11
310.83382351852
 21
-783.0014000000034
 31
0.0
  0
LINE
  5
2696
330
2A03
100
AcDbEntity
  8
0
 62
     0
100
AcDbLine
 10
-365.0000000000091
 20
-451.1759877237889
 30
0.0
 11
331.8337332555075
 21
-783.0014000000017
 31
0.0
  0
LINE
  5
2697
330
2A03
100
AcDbEntity
  8
0
 62
     0
100
AcDbLine
 10
-365.0000000000073
 20
-441.1760359796543
 30
0.0
 11
352.8336429925003
 21
-783.0014000000017
 31
0.0
  0
LINE
  5
2698
330
2A03
100
AcDbEntity
  8
0
 62
     0
100
AcDbLine
 10
-365.0000000000073
 20
-431.1760842355197
 30
0.0
 11
364.9999999999945
 21
-778.7949485375635
 31
0.0
  0
LINE
  5
2699
330
2A03
100
AcDbEntity
  8
0
 62
     0
100
AcDbLine
 10
-365.0000000000073
 20
-421.1761324913868
 30
0.0
 11
364.9999999999945
 21
-768.794996793431
 31
0.0
  0
LINE
  5
269A
330
2A03
100
AcDbEntity
  8
0
 62
     0
100
AcDbLine
 10
-365.0000000000054
 20
-411.1761807472519
 30
0.0
 11
364.9999999999945
 21
-758.7950450492966
 31
0.0
  0
LINE
  5
269B
330
2A03
100
AcDbEntity
  8
0
 62
     0
100
AcDbLine
 10
-365.0000000000091
 20
-401.1762290031165
 30
0.0
 11
364.9999999999927
 21
-748.7950933051607
 31
0.0
  0
LINE
  5
269C
330
2A03
100
AcDbEntity
  8
0
 62
     0
100
AcDbLine
 10
-365.0000000000073
 20
-391.1762772589828
 30
0.0
 11
364.9999999999945
 21
-738.7951415610269
 31
0.0
  0
LINE
  5
269D
330
2A03
100
AcDbEntity
  8
0
 62
     0
100
AcDbLine
 10
-365.0000000000073
 20
-381.1763255148471
 30
0.0
 11
364.9999999999945
 21
-728.795189816891
 31
0.0
  0
LINE
  5
269E
330
2A03
100
AcDbEntity
  8
0
 62
     0
100
AcDbLine
 10
-365.0000000000091
 20
-371.1763737707142
 30
0.0
 11
364.9999999999927
 21
-718.7952380727583
 31
0.0
  0
LINE
  5
269F
330
2A03
100
AcDbEntity
  8
0
 62
     0
100
AcDbLine
 10
-365.0000000000073
 20
-361.1764220265805
 30
0.0
 11
364.9999999999927
 21
-708.7952863286236
 31
0.0
  0
LINE
  5
26A0
330
2A03
100
AcDbEntity
  8
0
 62
     0
100
AcDbLine
 10
-365.0000000000073
 20
-351.1764702824458
 30
0.0
 11
364.9999999999945
 21
-698.7953345844889
 31
0.0
  0
LINE
  5
26A1
330
2A03
100
AcDbEntity
  8
0
 62
     0
100
AcDbLine
 10
-365.0000000000091
 20
-341.1765185383111
 30
0.0
 11
364.9999999999927
 21
-688.7953828403543
 31
0.0
  0
LINE
  5
26A2
330
2A03
100
AcDbEntity
  8
0
 62
     0
100
AcDbLine
 10
-365.0000000000073
 20
-331.1765667941763
 30
0.0
 11
364.9999999999945
 21
-678.7954310962194
 31
0.0
  0
LINE
  5
26A3
330
2A03
100
AcDbEntity
  8
0
 62
     0
100
AcDbLine
 10
-365.0000000000073
 20
-321.1766150500434
 30
0.0
 11
364.9999999999945
 21
-668.7954793520864
 31
0.0
  0
LINE
  5
26A4
330
2A03
100
AcDbEntity
  8
0
 62
     0
100
AcDbLine
 10
-365.0000000000091
 20
-311.1766633059078
 30
0.0
 11
364.9999999999927
 21
-658.7955276079529
 31
0.0
  0
LINE
  5
26A5
330
2A03
100
AcDbEntity
  8
0
 62
     0
100
AcDbLine
 10
-365.0000000000091
 20
-301.1767115617731
 30
0.0
 11
364.9999999999945
 21
-648.7955758638181
 31
0.0
  0
LINE
  5
26A6
330
2A03
100
AcDbEntity
  8
0
 62
     0
100
AcDbLine
 10
-365.0000000000091
 20
-291.1767598176384
 30
0.0
 11
364.9999999999927
 21
-638.7956241196824
 31
0.0
  0
LINE
  5
26A7
330
2A03
100
AcDbEntity
  8
0
 62
     0
100
AcDbLine
 10
-365.0000000000091
 20
-281.1768080735037
 30
0.0
 11
364.9999999999927
 21
-628.7956723755478
 31
0.0
  0
LINE
  5
26A8
330
2A03
100
AcDbEntity
  8
0
 62
     0
100
AcDbLine
 10
-365.0000000000073
 20
-271.176856329369
 30
0.0
 11
364.9999999999945
 21
-618.7957206314131
 31
0.0
  0
LINE
  5
26A9
330
2A03
100
AcDbEntity
  8
0
 62
     0
100
AcDbLine
 10
-365.0000000000073
 20
-261.1769045852361
 30
0.0
 11
364.9999999999927
 21
-608.7957688872802
 31
0.0
  0
LINE
  5
26AA
330
2A03
100
AcDbEntity
  8
0
 62
     0
100
AcDbLine
 10
-365.0000000000073
 20
-251.1769528411014
 30
0.0
 11
364.9999999999945
 21
-598.7958171431456
 31
0.0
  0
LINE
  5
26AB
330
2A03
100
AcDbEntity
  8
0
 62
     0
100
AcDbLine
 10
-365.0000000000073
 20
-241.1770010969667
 30
0.0
 11
364.9999999999945
 21
-588.7958653990108
 31
0.0
  0
LINE
  5
26AC
330
2A03
100
AcDbEntity
  8
0
 62
     0
100
AcDbLine
 10
-365.0000000000073
 20
-231.177049352832
 30
0.0
 11
364.9999999999945
 21
-578.7959136548761
 31
0.0
  0
LINE
  5
26AD
330
2A03
100
AcDbEntity
  8
0
 62
     0
100
AcDbLine
 10
-365.0000000000091
 20
-221.1770976086964
 30
0.0
 11
364.9999999999945
 21
-568.7959619107416
 31
0.0
  0
LINE
  5
26AE
330
2A03
100
AcDbEntity
  8
0
 62
     0
100
AcDbLine
 10
-365.0000000000073
 20
-211.1771458645635
 30
0.0
 11
364.9999999999945
 21
-558.7960101666085
 31
0.0
  0
LINE
  5
26AF
330
2A03
100
AcDbEntity
  8
0
 62
     0
100
AcDbLine
 10
-365.0000000000091
 20
-201.1771941204288
 30
0.0
 11
364.9999999999927
 21
-548.7960584224728
 31
0.0
  0
LINE
  5
26B0
330
2A03
100
AcDbEntity
  8
0
 62
     0
100
AcDbLine
 10
-365.0000000000091
 20
-191.1772423762941
 30
0.0
 11
364.9999999999927
 21
-538.7961066783382
 31
0.0
  0
LINE
  5
26B1
330
2A03
100
AcDbEntity
  8
0
 62
     0
100
AcDbLine
 10
-365.0000000000073
 20
-181.1772906321594
 30
0.0
 11
364.9999999999945
 21
-528.7961549342035
 31
0.0
  0
LINE
  5
26B2
330
2A03
100
AcDbEntity
  8
0
 62
     0
100
AcDbLine
 10
-365.0000000000091
 20
-171.1773388880247
 30
0.0
 11
364.9999999999927
 21
-518.7962031900688
 31
0.0
  0
LINE
  5
26B3
330
2A03
100
AcDbEntity
  8
0
 62
     0
100
AcDbLine
 10
-356.9695701187829
 20
-165.0013993564498
 30
0.0
 11
364.9999999999945
 21
-508.7962514459341
 31
0.0
  0
LINE
  5
26B4
330
2A03
100
AcDbEntity
  8
0
 62
     0
100
AcDbLine
 10
-335.9696603130051
 20
-165.0013993892071
 30
0.0
 11
364.9999999999945
 21
-498.7962997018012
 31
0.0
  0
LINE
  5
26B5
330
2A03
100
AcDbEntity
  8
0
 62
     0
100
AcDbLine
 10
-314.9697505072289
 20
-165.0013994219616
 30
0.0
 11
364.9999999999927
 21
-488.7963479576663
 31
0.0
  0
LINE
  5
26B6
330
2A03
100
AcDbEntity
  8
0
 62
     0
100
AcDbLine
 10
-293.969840701453
 20
-165.0013994547153
 30
0.0
 11
364.9999999999963
 21
-478.7963962135318
 31
0.0
  0
LINE
  5
26B7
330
2A03
100
AcDbEntity
  8
0
 62
     0
100
AcDbLine
 10
-272.9699308956806
 20
-165.0013994874688
 30
0.0
 11
364.9999999999945
 21
-468.7964444693971
 31
0.0
  0
LINE
  5
26B8
330
2A03
100
AcDbEntity
  8
0
 62
     0
100
AcDbLine
 10
149.1999999999916
 20
-356.0346421548766
 30
0.0
 11
155.0101955520695
 21
-358.8014004825291
 31
0.0
  0
LINE
  5
26B9
330
2A03
100
AcDbEntity
  8
0
 62
     0
100
AcDbLine
 10
155.0101955520748
 20
-358.8014004825317
 30
0.0
 11
364.9999999999927
 21
-458.7964927252624
 31
0.0
  0
LINE
  5
26BA
330
2A03
100
AcDbEntity
  8
0
 62
     0
100
AcDbLine
 10
-251.97002108991
 20
-165.0013995202216
 30
0.0
 11
149.1999999999916
 21
-356.0346421548766
 31
0.0
  0
LINE
  5
26BB
330
2A03
100
AcDbEntity
  8
0
 62
     0
100
AcDbLine
 10
149.1999999999934
 20
-346.0346904107437
 30
0.0
 11
176.0101052890622
 21
-358.8014004825309
 31
0.0
  0
LINE
  5
26BC
330
2A03
100
AcDbEntity
  8
0
 62
     0
100
AcDbLine
 10
176.0101052890695
 20
-358.8014004825337
 30
0.0
 11
364.9999999999963
 21
-448.7965409811295
 31
0.0
  0
LINE
  5
26BD
330
2A03
100
AcDbEntity
  8
0
 62
     0
100
AcDbLine
 10
-230.9701112841303
 20
-165.0013995529789
 30
0.0
 11
149.1999999999934
 21
-346.0346904107437
 31
0.0
  0
LINE
  5
26BE
330
2A03
100
AcDbEntity
  8
0
 62
     0
100
AcDbLine
 10
149.1999999999916
 20
-336.0347386666088
 30
0.0
 11
197.0100150260549
 21
-358.8014004825317
 31
0.0
  0
LINE
  5
26BF
330
2A03
100
AcDbEntity
  8
0
 62
     0
100
AcDbLine
 10
197.0100150260584
 20
-358.8014004825337
 30
0.0
 11
364.9999999999927
 21
-438.7965892369948
 31
0.0
  0
LINE
  5
26C0
330
2A03
100
AcDbEntity
  8
0
 62
     0
100
AcDbLine
 10
-209.9702014783579
 20
-165.0013995857316
 30
0.0
 11
149.1999999999916
 21
-336.0347386666088
 31
0.0
  0
LINE
  5
26C1
330
2A03
100
AcDbEntity
  8
0
 62
     0
100
AcDbLine
 10
149.1999999999934
 20
-326.0347869224743
 30
0.0
 11
218.0099247630478
 21
-358.8014004825317
 31
0.0
  0
LINE
  5
26C2
330
2A03
100
AcDbEntity
  8
0
 62
     0
100
AcDbLine
 10
218.0099247630478
 20
-358.8014004825317
 30
0.0
 11
364.9999999999945
 21
-428.79663749286
 31
0.0
  0
LINE
  5
26C3
330
2A03
100
AcDbEntity
  8
0
 62
     0
100
AcDbLine
 10
-188.9702916725816
 20
-165.0013996184862
 30
0.0
 11
149.1999999999934
 21
-326.0347869224743
 31
0.0
  0
LINE
  5
26C4
330
2A03
100
AcDbEntity
  8
0
 62
     0
100
AcDbLine
 10
149.1999999999934
 20
-316.0348351783396
 30
0.0
 11
239.0098345000388
 21
-358.8014004825317
 31
0.0
  0
LINE
  5
26C5
330
2A03
100
AcDbEntity
  8
0
 62
     0
100
AcDbLine
 10
239.0098345000388
 20
-358.8014004825317
 30
0.0
 11
364.9999999999945
 21
-418.7966857487253
 31
0.0
  0
LINE
  5
26C6
330
2A03
100
AcDbEntity
  8
0
 62
     0
100
AcDbLine
 10
-167.970381866804
 20
-165.0013996512416
 30
0.0
 11
149.1999999999934
 21
-316.0348351783396
 31
0.0
  0
LINE
  5
26C7
330
2A03
100
AcDbEntity
  8
0
 62
     0
100
AcDbLine
 10
149.1999999999934
 20
-306.0348834342049
 30
0.0
 11
260.0097442370298
 21
-358.8014004825317
 31
0.0
  0
LINE
  5
26C8
330
2A03
100
AcDbEntity
  8
0
 62
     0
100
AcDbLine
 10
260.0097442370298
 20
-358.8014004825317
 30
0.0
 11
364.9999999999945
 21
-408.7967340045905
 31
0.0
  0
LINE
  5
26C9
330
2A03
100
AcDbEntity
  8
0
 62
     0
100
AcDbLine
 10
-146.9704720610316
 20
-165.0013996839942
 30
0.0
 11
149.1999999999916
 21
-306.034883434204
 31
0.0
  0
LINE
  5
26CA
330
2A03
100
AcDbEntity
  8
0
 62
     0
100
AcDbLine
 10
149.1999999999934
 20
-296.0349316900721
 30
0.0
 11
281.0096539740207
 21
-358.8014004825337
 31
0.0
  0
LINE
  5
26CB
330
2A03
100
AcDbEntity
  8
0
 62
     0
100
AcDbLine
 10
281.0096539740207
 20
-358.8014004825337
 30
0.0
 11
364.9999999999945
 21
-398.7967822604579
 31
0.0
  0
LINE
  5
26CC
330
2A03
100
AcDbEntity
  8
0
 62
     0
100
AcDbLine
 10
-125.9705622552574
 20
-165.0013997167498
 30
0.0
 11
149.1999999999934
 21
-296.0349316900721
 31
0.0
  0
LINE
  5
26CD
330
2A03
100
AcDbEntity
  8
0
 62
     0
100
AcDbLine
 10
149.1999999999934
 20
-286.0349799459372
 30
0.0
 11
302.0095637110098
 21
-358.8014004825317
 31
0.0
  0
LINE
  5
26CE
330
2A03
100
AcDbEntity
  8
0
 62
     0
100
AcDbLine
 10
302.0095637110098
 20
-358.8014004825317
 30
0.0
 11
364.9999999999945
 21
-388.7968305163231
 31
0.0
  0
LINE
  5
26CF
330
2A03
100
AcDbEntity
  8
0
 62
     0
100
AcDbLine
 10
-104.9706524494813
 20
-165.0013997495043
 30
0.0
 11
149.1999999999916
 21
-286.0349799459363
 31
0.0
  0
LINE
  5
26D0
330
2A03
100
AcDbEntity
  8
0
 62
     0
100
AcDbLine
 10
149.1999999999934
 20
-276.0350282018026
 30
0.0
 11
323.0094734479991
 21
-358.8014004825317
 31
0.0
  0
LINE
  5
26D1
330
2A03
100
AcDbEntity
  8
0
 62
     0
100
AcDbLine
 10
323.0094734479991
 20
-358.8014004825317
 30
0.0
 11
364.9999999999945
 21
-378.7968787721883
 31
0.0
  0
LINE
  5
26D2
330
2A03
100
AcDbEntity
  8
0
 62
     0
100
AcDbLine
 10
-83.97074264370893
 20
-165.001399782258
 30
0.0
 11
149.1999999999916
 21
-276.0350282018016
 31
0.0
  0
LINE
  5
26D3
330
2A03
100
AcDbEntity
  8
0
 62
     0
100
AcDbLine
 10
149.1999999999916
 20
-266.0350764576669
 30
0.0
 11
344.0093831849917
 21
-358.8014004825317
 31
0.0
  0
LINE
  5
26D4
330
2A03
100
AcDbEntity
  8
0
 62
     0
100
AcDbLine
 10
344.0093831849917
 20
-358.8014004825317
 30
0.0
 11
364.9999999999927
 21
-368.7969270280528
 31
0.0
  0
LINE
  5
26D5
330
2A03
100
AcDbEntity
  8
0
 62
     0
100
AcDbLine
 10
-62.97083283793472
 20
-165.0013998150116
 30
0.0
 11
149.1999999999916
 21
-266.0350764576669
 31
0.0
  0
LINE
  5
26D6
330
2A03
100
AcDbEntity
  8
0
 62
     0
100
AcDbLine
 10
149.1999999999934
 20
-256.0351247135321
 30
0.0
 11
364.9999999999963
 21
-358.7969752839189
 31
0.0
  0
LINE
  5
26D7
330
2A03
100
AcDbEntity
  8
0
 62
     0
100
AcDbLine
 10
-41.97092303215868
 20
-165.0013998477652
 30
0.0
 11
149.1999999999898
 21
-256.0351247135313
 31
0.0
  0
LINE
  5
26D8
330
2A03
100
AcDbEntity
  8
0
 62
     0
100
AcDbLine
 10
149.1999999999916
 20
-246.0351729693975
 30
0.0
 11
364.9999999999927
 21
-348.7970235397834
 31
0.0
  0
LINE
  5
26D9
330
2A03
100
AcDbEntity
  8
0
 62
     0
100
AcDbLine
 10
-20.97101322638446
 20
-165.0013998805207
 30
0.0
 11
149.199999999988
 21
-246.0351729693966
 31
0.0
  0
LINE
  5
26DA
330
2A03
100
AcDbEntity
  8
0
 62
     0
100
AcDbLine
 10
149.1999999999916
 20
-236.0352212252656
 30
0.0
 11
364.9999999999927
 21
-338.7970717956505
 31
0.0
  0
LINE
  5
26DB
330
2A03
100
AcDbEntity
  8
0
 62
     0
100
AcDbLine
 10
0.028896579389766
 20
-165.0013999132761
 30
0.0
 11
149.199999999988
 21
-236.0352212252628
 31
0.0
  0
LINE
  5
26DC
330
2A03
100
AcDbEntity
  8
0
 62
     0
100
AcDbLine
 10
149.1999999999934
 20
-226.0352694811309
 30
0.0
 11
364.9999999999945
 21
-328.7971200515157
 31
0.0
  0
LINE
  5
26DD
330
2A03
100
AcDbEntity
  8
0
 62
     0
100
AcDbLine
 10
21.02880638516399
 20
-165.0013999460288
 30
0.0
 11
149.199999999988
 21
-226.0352694811281
 31
0.0
  0
LINE
  5
26DE
330
2A03
100
AcDbEntity
  8
0
 62
     0
100
AcDbLine
 10
149.1999999999916
 20
-216.0353177369962
 30
0.0
 11
364.9999999999927
 21
-318.7971683073812
 31
0.0
  0
LINE
  5
26DF
330
2A03
100
AcDbEntity
  8
0
 62
     0
100
AcDbLine
 10
42.02871619094003
 20
-165.0013999787842
 30
0.0
 11
149.1999999999862
 21
-216.0353177369934
 31
0.0
  0
LINE
  5
26E0
330
2A03
100
AcDbEntity
  8
0
 62
     0
100
AcDbLine
 10
149.1999999999952
 20
-206.0353659928614
 30
0.0
 11
364.9999999999963
 21
-308.7972165632464
 31
0.0
  0
LINE
  5
26E1
330
2A03
100
AcDbEntity
  8
0
 62
     0
100
AcDbLine
 10
63.02862599671424
 20
-165.001400011537
 30
0.0
 11
149.1999999999898
 21
-206.0353659928587
 31
0.0
  0
LINE
  5
26E2
330
2A03
100
AcDbEntity
  8
0
 62
     0
100
AcDbLine
 10
149.1999999999916
 20
-196.0354142487258
 30
0.0
 11
364.9999999999945
 21
-298.7972648191117
 31
0.0
  0
LINE
  5
26E3
330
2A03
100
AcDbEntity
  8
0
 62
     0
100
AcDbLine
 10
84.02853580248665
 20
-165.0014000442906
 30
0.0
 11
149.199999999988
 21
-196.035414248724
 31
0.0
  0
LINE
  5
26E4
330
2A03
100
AcDbEntity
  8
0
 62
     0
100
AcDbLine
 10
149.1999999999898
 20
-186.0354625045928
 30
0.0
 11
364.9999999999927
 21
-288.7973130749788
 31
0.0
  0
LINE
  5
26E5
330
2A03
100
AcDbEntity
  8
0
 62
     0
100
AcDbLine
 10
105.0284456082627
 20
-165.001400077047
 30
0.0
 11
149.199999999988
 21
-186.0354625045911
 31
0.0
  0
LINE
  5
26E6
330
2A03
100
AcDbEntity
  8
0
 62
     0
100
AcDbLine
 10
149.1999999999934
 20
-176.0355107604581
 30
0.0
 11
364.9999999999945
 21
-278.7973613308432
 31
0.0
  0
LINE
  5
26E7
330
2A03
100
AcDbEntity
  8
0
 62
     0
100
AcDbLine
 10
126.0283554140405
 20
-165.0014001098014
 30
0.0
 11
149.1999999999898
 21
-176.0355107604564
 31
0.0
  0
LINE
  5
26E8
330
2A03
100
AcDbEntity
  8
0
 62
     0
100
AcDbLine
 10
149.1999999999916
 20
-166.0355590163235
 30
0.0
 11
364.9999999999945
 21
-268.7974095867094
 31
0.0
  0
LINE
  5
26E9
330
2A03
100
AcDbEntity
  8
0
 62
     0
100
AcDbLine
 10
147.0282652198129
 20
-165.001400142555
 30
0.0
 11
149.199999999988
 21
-166.0355590163208
 31
0.0
  0
LINE
  5
26EA
330
2A03
100
AcDbEntity
  8
0
 62
     0
100
AcDbLine
 10
168.02817567075
 20
-165.001400482528
 30
0.0
 11
364.9999999999945
 21
-258.7974578425737
 31
0.0
  0
LINE
  5
26EB
330
2A03
100
AcDbEntity
  8
0
 62
     0
100
AcDbLine
 10
189.0280854077408
 20
-165.001400482528
 30
0.0
 11
364.9999999999945
 21
-248.797506098439
 31
0.0
  0
LINE
  5
26EC
330
2A03
100
AcDbEntity
  8
0
 62
     0
100
AcDbLine
 10
210.0279951447319
 20
-165.001400482528
 30
0.0
 11
364.9999999999927
 21
-238.7975543543053
 31
0.0
  0
LINE
  5
26ED
330
2A03
100
AcDbEntity
  8
0
 62
     0
100
AcDbLine
 10
231.0279048817228
 20
-165.0014004825298
 30
0.0
 11
364.9999999999945
 21
-228.7976026101723
 31
0.0
  0
LINE
  5
26EE
330
2A03
100
AcDbEntity
  8
0
 62
     0
100
AcDbLine
 10
252.0278146187156
 20
-165.0014004825298
 30
0.0
 11
364.9999999999945
 21
-218.7976508660376
 31
0.0
  0
LINE
  5
26EF
330
2A03
100
AcDbEntity
  8
0
 62
     0
100
AcDbLine
 10
273.0277243557048
 20
-165.0014004825298
 30
0.0
 11
364.9999999999945
 21
-208.7976991219029
 31
0.0
  0
LINE
  5
26F0
330
2A03
100
AcDbEntity
  8
0
 62
     0
100
AcDbLine
 10
294.0276340926957
 20
-165.0014004825298
 30
0.0
 11
364.9999999999945
 21
-198.7977473777681
 31
0.0
  0
LINE
  5
26F1
330
2A03
100
AcDbEntity
  8
0
 62
     0
100
AcDbLine
 10
315.0275438296885
 20
-165.0014004825298
 30
0.0
 11
364.9999999999945
 21
-188.7977956336335
 31
0.0
  0
LINE
  5
26F2
330
2A03
100
AcDbEntity
  8
0
 62
     0
100
AcDbLine
 10
336.0274535666777
 20
-165.0014004825307
 30
0.0
 11
364.9999999999945
 21
-178.7978438895005
 31
0.0
  0
LINE
  5
26F3
330
2A03
100
AcDbEntity
  8
0
 62
     0
100
AcDbLine
 10
357.0273633036704
 20
-165.0014004825307
 30
0.0
 11
364.9999999999927
 21
-168.797892145365
 31
0.0
  0
ENDBLK
  5
26F4
330
2A03
100
AcDbEntity
  8
0
100
AcDbBlockEnd
  0
BLOCK
  5
2A06
330
2A05
100
AcDbEntity
  8
0
100
AcDbBlockBegin
  2
*X67
 70
     1
 10
0.0
 20
0.0
 30
0.0
  3
*X67
  1

  0
LINE
  5
26F7
330
2A05
100
AcDbEntity
  8
0
 62
     0
100
AcDbLine
 10
354.2232226133056
 20
-783.0014000000029
 30
0.0
 11
364.9999999999963
 21
-777.8696039506903
 31
0.0
  0
LINE
  5
26F8
330
2A05
100
AcDbEntity
  8
0
 62
     0
100
AcDbLine
 10
333.2233128763145
 20
-783.0014000000029
 30
0.0
 11
365.0
 21
-767.8696522065547
 31
0.0
  0
LINE
  5
26F9
330
2A05
100
AcDbEntity
  8
0
 62
     0
100
AcDbLine
 10
312.2234031393272
 20
-783.001400000001
 30
0.0
 11
365.0
 21
-757.8697004624209
 31
0.0
  0
LINE
  5
26FA
330
2A05
100
AcDbEntity
  8
0
 62
     0
100
AcDbLine
 10
291.2234934023327
 20
-783.001400000001
 30
0.0
 11
364.9999999999963
 21
-747.869748718285
 31
0.0
  0
LINE
  5
26FB
330
2A05
100
AcDbEntity
  8
0
 62
     0
100
AcDbLine
 10
270.2235836653454
 20
-783.0014000000017
 30
0.0
 11
364.9999999999963
 21
-737.8697969741523
 31
0.0
  0
LINE
  5
26FC
330
2A05
100
AcDbEntity
  8
0
 62
     0
100
AcDbLine
 10
249.2236739283544
 20
-783.001400000001
 30
0.0
 11
365.0
 21
-727.8698452300177
 31
0.0
  0
LINE
  5
26FD
330
2A05
100
AcDbEntity
  8
0
 62
     0
100
AcDbLine
 10
228.2237641913634
 20
-783.001400000001
 30
0.0
 11
365.0
 21
-717.8698934858821
 31
0.0
  0
LINE
  5
26FE
330
2A05
100
AcDbEntity
  8
0
 62
     0
100
AcDbLine
 10
207.2238544543725
 20
-783.001400000001
 30
0.0
 11
365.0
 21
-707.8699417417483
 31
0.0
  0
LINE
  5
26FF
330
2A05
100
AcDbEntity
  8
0
 62
     0
100
AcDbLine
 10
186.2239447173852
 20
-783.0013999999992
 30
0.0
 11
365.0
 21
-697.8699899976127
 31
0.0
  0
LINE
  5
2700
330
2A05
100
AcDbEntity
  8
0
 62
     0
100
AcDbLine
 10
165.2240349803905
 20
-783.0014000000001
 30
0.0
 11
364.9999999999963
 21
-687.87003825348
 31
0.0
  0
LINE
  5
2701
330
2A05
100
AcDbEntity
  8
0
 62
     0
100
AcDbLine
 10
144.2241252434032
 20
-783.001400000001
 30
0.0
 11
365.0
 21
-677.8700865093451
 31
0.0
  0
LINE
  5
2702
330
2A05
100
AcDbEntity
  8
0
 62
     0
100
AcDbLine
 10
123.2242155064086
 20
-783.001400000001
 30
0.0
 11
364.9999999999963
 21
-667.8701347652112
 31
0.0
  0
LINE
  5
2703
330
2A05
100
AcDbEntity
  8
0
 62
     0
100
AcDbLine
 10
102.2243057694177
 20
-783.001400000001
 30
0.0
 11
365.0
 21
-657.8701830210754
 31
0.0
  0
LINE
  5
2704
330
2A05
100
AcDbEntity
  8
0
 62
     0
100
AcDbLine
 10
81.22439603243037
 20
-783.001400000001
 30
0.0
 11
365.0
 21
-647.8702312769399
 31
0.0
  0
LINE
  5
2705
330
2A05
100
AcDbEntity
  8
0
 62
     0
100
AcDbLine
 10
60.22448629543578
 20
-783.0014000000017
 30
0.0
 11
364.9999999999963
 21
-637.8702795328072
 31
0.0
  0
LINE
  5
2706
330
2A05
100
AcDbEntity
  8
0
 62
     0
100
AcDbLine
 10
39.22457655844482
 20
-783.0014000000017
 30
0.0
 11
364.9999999999963
 21
-627.8703277886734
 31
0.0
  0
LINE
  5
2707
330
2A05
100
AcDbEntity
  8
0
 62
     0
100
AcDbLine
 10
18.22466682145385
 20
-783.0014000000029
 30
0.0
 11
365.0
 21
-617.8703760445387
 31
0.0
  0
LINE
  5
2708
330
2A05
100
AcDbEntity
  8
0
 62
     0
100
AcDbLine
 10
-2.775242915533453
 20
-783.001400000001
 30
0.0
 11
365.0
 21
-607.8704243004031
 31
0.0
  0
LINE
  5
2709
330
2A05
100
AcDbEntity
  8
0
 62
     0
100
AcDbLine
 10
-23.77515265252441
 20
-783.001400000001
 30
0.0
 11
364.9999999999963
 21
-597.8704725562692
 31
0.0
  0
LINE
  5
270A
330
2A05
100
AcDbEntity
  8
0
 62
     0
100
AcDbLine
 10
-44.77506238951536
 20
-783.001400000001
 30
0.0
 11
365.0
 21
-587.8705208121337
 31
0.0
  0
LINE
  5
270B
330
2A05
100
AcDbEntity
  8
0
 62
     0
100
AcDbLine
 10
-65.77497212650996
 20
-783.0014000000017
 30
0.0
 11
364.9999999999963
 21
-577.8705690680005
 31
0.0
  0
LINE
  5
270C
330
2A05
100
AcDbEntity
  8
0
 62
     0
100
AcDbLine
 10
-86.77488186349725
 20
-783.0014000000029
 30
0.0
 11
365.0000000000036
 21
-567.8706173238659
 31
0.0
  0
LINE
  5
270D
330
2A05
100
AcDbEntity
  8
0
 62
     0
100
AcDbLine
 10
-107.7747916004882
 20
-783.0014000000029
 30
0.0
 11
365.0000000000036
 21
-557.8706655797323
 31
0.0
  0
LINE
  5
270E
330
2A05
100
AcDbEntity
  8
0
 62
     0
100
AcDbLine
 10
-128.7747013374792
 20
-783.001400000001
 30
0.0
 11
365.0
 21
-547.8707138355964
 31
0.0
  0
LINE
  5
270F
330
2A05
100
AcDbEntity
  8
0
 62
     0
100
AcDbLine
 10
-149.7746110744664
 20
-783.001400000001
 30
0.0
 11
365.0000000000036
 21
-537.8707620914608
 31
0.0
  0
LINE
  5
2710
330
2A05
100
AcDbEntity
  8
0
 62
     0
100
AcDbLine
 10
-170.7745208114574
 20
-783.0014000000017
 30
0.0
 11
365.0000000000036
 21
-527.8708103473282
 31
0.0
  0
LINE
  5
2711
330
2A05
100
AcDbEntity
  8
0
 62
     0
100
AcDbLine
 10
-191.774430548452
 20
-783.0014000000029
 30
0.0
 11
365.0000000000036
 21
-517.8708586031935
 31
0.0
  0
LINE
  5
2712
330
2A05
100
AcDbEntity
  8
0
 62
     0
100
AcDbLine
 10
-212.774340285443
 20
-783.0014000000029
 30
0.0
 11
365.0000000000036
 21
-507.8709068590597
 31
0.0
  0
LINE
  5
2713
330
2A05
100
AcDbEntity
  8
0
 62
     0
100
AcDbLine
 10
-233.774250022434
 20
-783.0014000000029
 30
0.0
 11
365.0
 21
-497.8709551149241
 31
0.0
  0
LINE
  5
2714
330
2A05
100
AcDbEntity
  8
0
 62
     0
100
AcDbLine
 10
-254.7741597594249
 20
-783.001400000001
 30
0.0
 11
365.0
 21
-487.8710033707903
 31
0.0
  0
LINE
  5
2715
330
2A05
100
AcDbEntity
  8
0
 62
     0
100
AcDbLine
 10
-275.7740694964123
 20
-783.0014000000017
 30
0.0
 11
365.0000000000036
 21
-477.8710516266555
 31
0.0
  0
LINE
  5
2716
330
2A05
100
AcDbEntity
  8
0
 62
     0
100
AcDbLine
 10
-296.7739792334068
 20
-783.0014000000017
 30
0.0
 11
365.0000000000036
 21
-467.87109988252
 31
0.0
  0
LINE
  5
2717
330
2A05
100
AcDbEntity
  8
0
 62
     0
100
AcDbLine
 10
-317.7738889703942
 20
-783.001400000001
 30
0.0
 11
365.0
 21
-457.871148138387
 31
0.0
  0
LINE
  5
2718
330
2A05
100
AcDbEntity
  8
0
 62
     0
100
AcDbLine
 10
-338.7737987073851
 20
-783.001400000001
 30
0.0
 11
365.0000000000036
 21
-447.8711963942512
 31
0.0
  0
LINE
  5
2719
330
2A05
100
AcDbEntity
  8
0
 62
     0
100
AcDbLine
 10
-359.7737084443797
 20
-783.001400000001
 30
0.0
 11
365.0
 21
-437.8712446501176
 31
0.0
  0
LINE
  5
271A
330
2A05
100
AcDbEntity
  8
0
 62
     0
100
AcDbLine
 10
-365.0
 20
-775.4901572080272
 30
0.0
 11
365.0000000000036
 21
-427.8712929059818
 31
0.0
  0
LINE
  5
271B
330
2A05
100
AcDbEntity
  8
0
 62
     0
100
AcDbLine
 10
-365.0
 20
-765.4902054638942
 30
0.0
 11
365.0000000000036
 21
-417.8713411618491
 31
0.0
  0
LINE
  5
271C
330
2A05
100
AcDbEntity
  8
0
 62
     0
100
AcDbLine
 10
-365.0
 20
-755.4902537197595
 30
0.0
 11
365.0
 21
-407.8713894177144
 31
0.0
  0
LINE
  5
271D
330
2A05
100
AcDbEntity
  8
0
 62
     0
100
AcDbLine
 10
-365.0
 20
-745.4903019756256
 30
0.0
 11
365.0000000000036
 21
-397.8714376735788
 31
0.0
  0
LINE
  5
271E
330
2A05
100
AcDbEntity
  8
0
 62
     0
100
AcDbLine
 10
-364.9999999999963
 20
-735.4903502314897
 30
0.0
 11
365.0000000000036
 21
-387.8714859294451
 31
0.0
  0
LINE
  5
271F
330
2A05
100
AcDbEntity
  8
0
 62
     0
100
AcDbLine
 10
-365.0
 20
-725.4903984873559
 30
0.0
 11
365.0000000000036
 21
-377.8715341853094
 31
0.0
  0
LINE
  5
2720
330
2A05
100
AcDbEntity
  8
0
 62
     0
100
AcDbLine
 10
-365.0
 20
-715.4904467432223
 30
0.0
 11
365.0000000000036
 21
-367.8715824411775
 31
0.0
  0
LINE
  5
2721
330
2A05
100
AcDbEntity
  8
0
 62
     0
100
AcDbLine
 10
363.047482420825
 20
-358.8014004825291
 30
0.0
 11
365.0
 21
-357.8716306970455
 31
0.0
  0
LINE
  5
2722
330
2A05
100
AcDbEntity
  8
0
 62
     0
100
AcDbLine
 10
-365.0
 20
-705.4904949990887
 30
0.0
 11
363.047482420825
 21
-358.8014004825291
 31
0.0
  0
LINE
  5
2723
330
2A05
100
AcDbEntity
  8
0
 62
     0
100
AcDbLine
 10
342.0475726838304
 20
-358.8014004825291
 30
0.0
 11
364.9999999999963
 21
-347.8716789529098
 31
0.0
  0
LINE
  5
2724
330
2A05
100
AcDbEntity
  8
0
 62
     0
100
AcDbLine
 10
-365.0
 20
-695.4905432549528
 30
0.0
 11
342.0475726838304
 21
-358.8014004825291
 31
0.0
  0
LINE
  5
2725
330
2A05
100
AcDbEntity
  8
0
 62
     0
100
AcDbLine
 10
321.0476629468394
 20
-358.8014004825272
 30
0.0
 11
365.0
 21
-337.8717272087742
 31
0.0
  0
LINE
  5
2726
330
2A05
100
AcDbEntity
  8
0
 62
     0
100
AcDbLine
 10
-364.9999999999963
 20
-685.4905915108173
 30
0.0
 11
321.0476629468394
 21
-358.8014004825272
 31
0.0
  0
LINE
  5
2727
330
2A05
100
AcDbEntity
  8
0
 62
     0
100
AcDbLine
 10
300.0477532098448
 20
-358.8014004825272
 30
0.0
 11
364.9999999999963
 21
-327.8717754646404
 31
0.0
  0
LINE
  5
2728
330
2A05
100
AcDbEntity
  8
0
 62
     0
100
AcDbLine
 10
-365.0
 20
-675.4906397666836
 30
0.0
 11
300.0477532098448
 21
-358.8014004825272
 31
0.0
  0
LINE
  5
2729
330
2A05
100
AcDbEntity
  8
0
 62
     0
100
AcDbLine
 10
279.0478434728575
 20
-358.8014004825272
 30
0.0
 11
365.0
 21
-317.8718237205048
 31
0.0
  0
LINE
  5
272A
330
2A05
100
AcDbEntity
  8
0
 62
     0
100
AcDbLine
 10
-365.0
 20
-665.4906880225482
 30
0.0
 11
279.0478434728575
 21
-358.8014004825272
 31
0.0
  0
LINE
  5
272B
330
2A05
100
AcDbEntity
  8
0
 62
     0
100
AcDbLine
 10
258.0479337358665
 20
-358.8014004825272
 30
0.0
 11
365.0
 21
-307.8718719763709
 31
0.0
  0
LINE
  5
272C
330
2A05
100
AcDbEntity
  8
0
 62
     0
100
AcDbLine
 10
-365.0
 20
-655.4907362784141
 30
0.0
 11
258.0479337358665
 21
-358.8014004825272
 31
0.0
  0
LINE
  5
272D
330
2A05
100
AcDbEntity
  8
0
 62
     0
100
AcDbLine
 10
237.0480239988719
 20
-358.8014004825291
 30
0.0
 11
364.9999999999963
 21
-297.8719202322372
 31
0.0
  0
LINE
  5
272E
330
2A05
100
AcDbEntity
  8
0
 62
     0
100
AcDbLine
 10
-365.0
 20
-645.4907845342805
 30
0.0
 11
237.0480239988719
 21
-358.8014004825291
 31
0.0
  0
LINE
  5
272F
330
2A05
100
AcDbEntity
  8
0
 62
     0
100
AcDbLine
 10
216.0481142618845
 20
-358.8014004825291
 30
0.0
 11
364.9999999999963
 21
-287.8719684881034
 31
0.0
  0
LINE
  5
2730
330
2A05
100
AcDbEntity
  8
0
 62
     0
100
AcDbLine
 10
-365.0
 20
-635.4908327901464
 30
0.0
 11
216.0481142618845
 21
-358.8014004825291
 31
0.0
  0
LINE
  5
2731
330
2A05
100
AcDbEntity
  8
0
 62
     0
100
AcDbLine
 10
195.0482045248973
 20
-358.8014004825272
 30
0.0
 11
365.0
 21
-277.8720167439677
 31
0.0
  0
LINE
  5
2732
330
2A05
100
AcDbEntity
  8
0
 62
     0
100
AcDbLine
 10
-365.0
 20
-625.4908810460111
 30
0.0
 11
195.0482045248973
 21
-358.8014004825272
 31
0.0
  0
LINE
  5
2733
330
2A05
100
AcDbEntity
  8
0
 62
     0
100
AcDbLine
 10
174.0482947879027
 20
-358.8014004825272
 30
0.0
 11
364.9999999999963
 21
-267.872064999834
 31
0.0
  0
LINE
  5
2734
330
2A05
100
AcDbEntity
  8
0
 62
     0
100
AcDbLine
 10
-365.0000000000036
 20
-615.4909293018772
 30
0.0
 11
174.0482947879027
 21
-358.8014004825272
 31
0.0
  0
LINE
  5
2735
330
2A05
100
AcDbEntity
  8
0
 62
     0
100
AcDbLine
 10
153.0483850509154
 20
-358.8014004825272
 30
0.0
 11
364.9999999999963
 21
-257.8721132557021
 31
0.0
  0
LINE
  5
2736
330
2A05
100
AcDbEntity
  8
0
 62
     0
100
AcDbLine
 10
-365.0
 20
-605.4909775577433
 30
0.0
 11
153.0483850509154
 21
-358.8014004825272
 31
0.0
  0
LINE
  5
2737
330
2A05
100
AcDbEntity
  8
0
 62
     0
100
AcDbLine
 10
149.2000000000043
 20
-350.6340120819495
 30
0.0
 11
364.9999999999963
 21
-247.8721615115664
 31
0.0
  0
LINE
  5
2738
330
2A05
100
AcDbEntity
  8
0
 62
     0
100
AcDbLine
 10
-364.9999999999963
 20
-595.4910258136078
 30
0.0
 11
149.2000000000043
 21
-350.6340120819495
 31
0.0
  0
LINE
  5
2739
330
2A05
100
AcDbEntity
  8
0
 62
     0
100
AcDbLine
 10
149.2000000000007
 20
-340.6340603378158
 30
0.0
 11
364.9999999999927
 21
-237.8722097674327
 31
0.0
  0
LINE
  5
273A
330
2A05
100
AcDbEntity
  8
0
 62
     0
100
AcDbLine
 10
-365.0
 20
-585.491074069474
 30
0.0
 11
149.2000000000007
 21
-340.6340603378158
 31
0.0
  0
LINE
  5
273B
330
2A05
100
AcDbEntity
  8
0
 62
     0
100
AcDbLine
 10
149.2000000000007
 20
-330.6341085936801
 30
0.0
 11
364.9999999999963
 21
-227.872258023297
 31
0.0
  0
LINE
  5
273C
330
2A05
100
AcDbEntity
  8
0
 62
     0
100
AcDbLine
 10
-365.0
 20
-575.4911223253383
 30
0.0
 11
149.2000000000007
 21
-330.6341085936801
 31
0.0
  0
LINE
  5
273D
330
2A05
100
AcDbEntity
  8
0
 62
     0
100
AcDbLine
 10
149.1999999999971
 20
-320.6341568495464
 30
0.0
 11
364.9999999999927
 21
-217.8723062791632
 31
0.0
  0
LINE
  5
273E
330
2A05
100
AcDbEntity
  8
0
 62
     0
100
AcDbLine
 10
-365.0000000000036
 20
-565.4911705812046
 30
0.0
 11
149.1999999999971
 21
-320.6341568495464
 31
0.0
  0
LINE
  5
273F
330
2A05
100
AcDbEntity
  8
0
 62
     0
100
AcDbLine
 10
149.2000000000007
 20
-310.6342051054107
 30
0.0
 11
364.9999999999963
 21
-207.8723545350276
 31
0.0
  0
LINE
  5
2740
330
2A05
100
AcDbEntity
  8
0
 62
     0
100
AcDbLine
 10
-365.0
 20
-555.4912188370689
 30
0.0
 11
149.2000000000007
 21
-310.6342051054107
 31
0.0
  0
LINE
  5
2741
330
2A05
100
AcDbEntity
  8
0
 62
     0
100
AcDbLine
 10
149.2000000000007
 20
-300.6342533612788
 30
0.0
 11
364.9999999999927
 21
-197.8724027908955
 31
0.0
  0
LINE
  5
2742
330
2A05
100
AcDbEntity
  8
0
 62
     0
100
AcDbLine
 10
-365.0
 20
-545.491267092937
 30
0.0
 11
149.2000000000007
 21
-300.6342533612788
 31
0.0
  0
LINE
  5
2743
330
2A05
100
AcDbEntity
  8
0
 62
     0
100
AcDbLine
 10
149.1999999999971
 20
-290.6343016171431
 30
0.0
 11
364.9999999999927
 21
-187.8724510467598
 31
0.0
  0
LINE
  5
2744
330
2A05
100
AcDbEntity
  8
0
 62
     0
100
AcDbLine
 10
-365.0
 20
-535.4913153488014
 30
0.0
 11
149.1999999999971
 21
-290.6343016171431
 31
0.0
  0
LINE
  5
2745
330
2A05
100
AcDbEntity
  8
0
 62
     0
100
AcDbLine
 10
149.1999999999971
 20
-280.6343498730093
 30
0.0
 11
364.9999999999927
 21
-177.8724993026262
 31
0.0
  0
LINE
  5
2746
330
2A05
100
AcDbEntity
  8
0
 62
     0
100
AcDbLine
 10
-365.0000000000036
 20
-525.4913636046676
 30
0.0
 11
149.1999999999971
 21
-280.6343498730093
 31
0.0
  0
LINE
  5
2747
330
2A05
100
AcDbEntity
  8
0
 62
     0
100
AcDbLine
 10
149.2000000000007
 20
-270.6343981288737
 30
0.0
 11
364.9999999999963
 21
-167.8725475584906
 31
0.0
  0
LINE
  5
2748
330
2A05
100
AcDbEntity
  8
0
 62
     0
100
AcDbLine
 10
-365.0
 20
-515.491411860532
 30
0.0
 11
149.2000000000007
 21
-270.6343981288737
 31
0.0
  0
LINE
  5
2749
330
2A05
100
AcDbEntity
  8
0
 62
     0
100
AcDbLine
 10
149.2000000000007
 20
-260.6344463847399
 30
0.0
 11
350.0295023021355
 21
-165.0014004825314
 31
0.0
  0
LINE
  5
274A
330
2A05
100
AcDbEntity
  8
0
 62
     0
100
AcDbLine
 10
-365.0
 20
-505.491460116398
 30
0.0
 11
149.2000000000007
 21
-260.6344463847399
 31
0.0
  0
LINE
  5
274B
330
2A05
100
AcDbEntity
  8
0
 62
     0
100
AcDbLine
 10
149.2000000000007
 20
-250.6344946406061
 30
0.0
 11
329.0295925651481
 21
-165.0014004825298
 31
0.0
  0
LINE
  5
274C
330
2A05
100
AcDbEntity
  8
0
 62
     0
100
AcDbLine
 10
-365.0
 20
-495.4915083722643
 30
0.0
 11
149.2000000000007
 21
-250.6344946406061
 31
0.0
  0
LINE
  5
274D
330
2A05
100
AcDbEntity
  8
0
 62
     0
100
AcDbLine
 10
149.2000000000007
 20
-240.6345428964705
 30
0.0
 11
308.0296828281571
 21
-165.0014004825298
 31
0.0
  0
LINE
  5
274E
330
2A05
100
AcDbEntity
  8
0
 62
     0
100
AcDbLine
 10
-364.9999999999963
 20
-485.4915566281288
 30
0.0
 11
149.2000000000007
 21
-240.6345428964705
 31
0.0
  0
LINE
  5
274F
330
2A05
100
AcDbEntity
  8
0
 62
     0
100
AcDbLine
 10
149.1999999999971
 20
-230.6345911523367
 30
0.0
 11
287.0297730911625
 21
-165.0014004825298
 31
0.0
  0
LINE
  5
2750
330
2A05
100
AcDbEntity
  8
0
 62
     0
100
AcDbLine
 10
-365.0000000000036
 20
-475.4916048839951
 30
0.0
 11
149.1999999999971
 21
-230.6345911523367
 31
0.0
  0
LINE
  5
2751
330
2A05
100
AcDbEntity
  8
0
 62
     0
100
AcDbLine
 10
149.2000000000007
 20
-220.6346394082011
 30
0.0
 11
266.0298633541752
 21
-165.001400482528
 31
0.0
  0
LINE
  5
2752
330
2A05
100
AcDbEntity
  8
0
 62
     0
100
AcDbLine
 10
-365.0
 20
-465.4916531398594
 30
0.0
 11
149.2000000000007
 21
-220.6346394082011
 31
0.0
  0
LINE
  5
2753
330
2A05
100
AcDbEntity
  8
0
 62
     0
100
AcDbLine
 10
149.2000000000007
 20
-210.6346876640673
 30
0.0
 11
245.0299536171841
 21
-165.001400482528
 31
0.0
  0
LINE
  5
2754
330
2A05
100
AcDbEntity
  8
0
 62
     0
100
AcDbLine
 10
-365.0
 20
-455.4917013957256
 30
0.0
 11
149.2000000000007
 21
-210.6346876640673
 31
0.0
  0
LINE
  5
2755
330
2A05
100
AcDbEntity
  8
0
 62
     0
100
AcDbLine
 10
149.2000000000007
 20
-200.6347359199317
 30
0.0
 11
224.0300438801932
 21
-165.001400482528
 31
0.0
  0
LINE
  5
2756
330
2A05
100
AcDbEntity
  8
0
 62
     0
100
AcDbLine
 10
-365.0
 20
-445.49174965159
 30
0.0
 11
149.2000000000007
 21
-200.6347359199317
 31
0.0
  0
LINE
  5
2757
330
2A05
100
AcDbEntity
  8
0
 62
     0
100
AcDbLine
 10
149.2000000000007
 20
-190.6347841757996
 30
0.0
 11
203.030134143206
 21
-165.001400482528
 31
0.0
  0
LINE
  5
2758
330
2A05
100
AcDbEntity
  8
0
 62
     0
100
AcDbLine
 10
-365.0
 20
-435.491797907458
 30
0.0
 11
149.2000000000007
 21
-190.6347841757996
 31
0.0
  0
LINE
  5
2759
330
2A05
100
AcDbEntity
  8
0
 62
     0
100
AcDbLine
 10
149.2000000000007
 20
-180.6348324316641
 30
0.0
 11
182.030224406215
 21
-165.001400482528
 31
0.0
  0
LINE
  5
275A
330
2A05
100
AcDbEntity
  8
0
 62
     0
100
AcDbLine
 10
-365.0
 20
-425.4918461633223
 30
0.0
 11
149.2000000000007
 21
-180.6348324316641
 31
0.0
  0
LINE
  5
275B
330
2A05
100
AcDbEntity
  8
0
 62
     0
100
AcDbLine
 10
149.2000000000007
 20
-170.6348806875285
 30
0.0
 11
161.0303146692204
 21
-165.001400482528
 31
0.0
  0
LINE
  5
275C
330
2A05
100
AcDbEntity
  8
0
 62
     0
100
AcDbLine
 10
-365.0
 20
-415.4918944191868
 30
0.0
 11
149.2000000000007
 21
-170.6348806875285
 31
0.0
  0
LINE
  5
275D
330
2A05
100
AcDbEntity
  8
0
 62
     0
100
AcDbLine
 10
-365.0
 20
-405.4919426750529
 30
0.0
 11
140.0304056691056
 21
-165.0014001316358
 31
0.0
  0
LINE
  5
275E
330
2A05
100
AcDbEntity
  8
0
 62
     0
100
AcDbLine
 10
-365.0
 20
-395.4919909309192
 30
0.0
 11
119.0304960008943
 21
-165.0014000988848
 31
0.0
  0
LINE
  5
275F
330
2A05
100
AcDbEntity
  8
0
 62
     0
100
AcDbLine
 10
-365.0
 20
-385.4920391867854
 30
0.0
 11
98.0305863326903
 21
-165.0014000661285
 31
0.0
  0
LINE
  5
2760
330
2A05
100
AcDbEntity
  8
0
 62
     0
100
AcDbLine
 10
-365.0
 20
-375.4920874426498
 30
0.0
 11
77.03067666448622
 21
-165.001400033374
 31
0.0
  0
LINE
  5
2761
330
2A05
100
AcDbEntity
  8
0
 62
     0
100
AcDbLine
 10
-365.0000000000036
 20
-365.492135698516
 30
0.0
 11
56.03076699627489
 21
-165.0014000006194
 31
0.0
  0
LINE
  5
2762
330
2A05
100
AcDbEntity
  8
0
 62
     0
100
AcDbLine
 10
-365.0
 20
-355.4921839543803
 30
0.0
 11
35.03085732807085
 21
-165.0013999678649
 31
0.0
  0
LINE
  5
2763
330
2A05
100
AcDbEntity
  8
0
 62
     0
100
AcDbLine
 10
-365.0
 20
-345.4922322102466
 30
0.0
 11
14.03094765986316
 21
-165.0013999351104
 31
0.0
  0
LINE
  5
2764
330
2A05
100
AcDbEntity
  8
0
 62
     0
100
AcDbLine
 10
-365.0
 20
-335.4922804661129
 30
0.0
 11
-6.968962008340896
 21
-165.0013999023558
 31
0.0
  0
LINE
  5
2765
330
2A05
100
AcDbEntity
  8
0
 62
     0
100
AcDbLine
 10
-365.0
 20
-325.4923287219789
 30
0.0
 11
-27.96887167655223
 21
-165.0013998696049
 31
0.0
  0
LINE
  5
2766
330
2A05
100
AcDbEntity
  8
0
 62
     0
100
AcDbLine
 10
-365.0
 20
-315.4923769778452
 30
0.0
 11
-48.96878134475628
 21
-165.0013998368486
 31
0.0
  0
LINE
  5
2767
330
2A05
100
AcDbEntity
  8
0
 62
     0
100
AcDbLine
 10
-365.0
 20
-305.4924252337096
 30
0.0
 11
-69.96869101296761
 21
-165.0013998040958
 31
0.0
  0
LINE
  5
2768
330
2A05
100
AcDbEntity
  8
0
 62
     0
100
AcDbLine
 10
-365.0
 20
-295.4924734895777
 30
0.0
 11
-90.96860068116802
 21
-165.0013997713394
 31
0.0
  0
LINE
  5
2769
330
2A05
100
AcDbEntity
  8
0
 62
     0
100
AcDbLine
 10
-364.9999999999963
 20
-285.492521745442
 30
0.0
 11
-111.9685103493757
 21
-165.0013997385867
 31
0.0
  0
LINE
  5
276A
330
2A05
100
AcDbEntity
  8
0
 62
     0
100
AcDbLine
 10
-365.0000000000036
 20
-275.4925700013082
 30
0.0
 11
-132.968420017587
 21
-165.0013997058322
 31
0.0
  0
LINE
  5
276B
330
2A05
100
AcDbEntity
  8
0
 62
     0
100
AcDbLine
 10
-365.0
 20
-265.4926182571724
 30
0.0
 11
-153.9683296857911
 21
-165.0013996730777
 31
0.0
  0
LINE
  5
276C
330
2A05
100
AcDbEntity
  8
0
 62
     0
100
AcDbLine
 10
-365.0
 20
-255.4926665130388
 30
0.0
 11
-174.9682393539951
 21
-165.0013996403231
 31
0.0
  0
LINE
  5
276D
330
2A05
100
AcDbEntity
  8
0
 62
     0
100
AcDbLine
 10
-365.0
 20
-245.4927147689032
 30
0.0
 11
-195.9681490222028
 21
-165.0013996075686
 31
0.0
  0
LINE
  5
276E
330
2A05
100
AcDbEntity
  8
0
 62
     0
100
AcDbLine
 10
-364.9999999999963
 20
-235.4927630247676
 30
0.0
 11
-216.9680586904104
 21
-165.001399574814
 31
0.0
  0
LINE
  5
276F
330
2A05
100
AcDbEntity
  8
0
 62
     0
100
AcDbLine
 10
-365.0000000000036
 20
-225.4928112806356
 30
0.0
 11
-237.9679683586146
 21
-165.0013995420594
 31
0.0
  0
LINE
  5
2770
330
2A05
100
AcDbEntity
  8
0
 62
     0
100
AcDbLine
 10
-365.0
 20
-215.4928595364999
 30
0.0
 11
-258.9678780268223
 21
-165.0013995093068
 31
0.0
  0
LINE
  5
2771
330
2A05
100
AcDbEntity
  8
0
 62
     0
100
AcDbLine
 10
-365.0
 20
-205.4929077923662
 30
0.0
 11
-279.9677876950263
 21
-165.0013994765504
 31
0.0
  0
LINE
  5
2772
330
2A05
100
AcDbEntity
  8
0
 62
     0
100
AcDbLine
 10
-365.0
 20
-195.4929560482305
 30
0.0
 11
-300.9676973632377
 21
-165.0013994437977
 31
0.0
  0
LINE
  5
2773
330
2A05
100
AcDbEntity
  8
0
 62
     0
100
AcDbLine
 10
-365.0
 20
-185.4930043040986
 30
0.0
 11
-321.9676070314454
 21
-165.001399411045
 31
0.0
  0
LINE
  5
2774
330
2A05
100
AcDbEntity
  8
0
 62
     0
100
AcDbLine
 10
-365.0
 20
-175.4930525599629
 30
0.0
 11
-342.9675166996494
 21
-165.0013993782904
 31
0.0
  0
LINE
  5
2775
330
2A05
100
AcDbEntity
  8
0
 62
     0
100
AcDbLine
 10
-365.0000000000036
 20
-165.4931008158292
 30
0.0
 11
-363.9674263678608
 21
-165.0013993455359
 31
0.0
  0
ENDBLK
  5
2776
330
2A05
100
AcDbEntity
  8
0
100
AcDbBlockEnd
  0
BLOCK
  5
2A08
330
2A07
100
AcDbEntity
  8
0
100
AcDbBlockBegin
  2
*U68
 70
     1
 10
0.0
 20
0.0
 30
0.0
  3
*U68
  1

  0
TEXT
  5
2892
330
2A07
100
AcDbEntity
  8
SIZE
100
AcDbText
 10
64.00000025284224
 20
984.8096346937245
 30
0.0
 40
64.0
  1
850
 50
90.0
 41
0.9
100
AcDbText
  0
ENDBLK
  5
2894
330
2A07
100
AcDbEntity
  8
0
100
AcDbBlockEnd
  0
BLOCK
  5
2A0A
330
2A09
100
AcDbEntity
  8
0
100
AcDbBlockBegin
  2
*U69
 70
     1
 10
0.0
 20
0.0
 30
0.0
  3
*U69
  1

  0
TEXT
  5
2896
330
2A09
100
AcDbEntity
  8
SIZE
100
AcDbText
 10
402.7544126753299
 20
984.8096346937238
 30
0.0
 40
64.0
  1
400
 50
90.0
 41
0.9
100
AcDbText
  0
ENDBLK
  5
2898
330
2A09
100
AcDbEntity
  8
0
100
AcDbBlockEnd
  0
BLOCK
  5
2A0C
330
2A0B
100
AcDbEntity
  8
0
100
AcDbBlockBegin
  2
*U70
 70
     1
 10
0.0
 20
0.0
 30
0.0
  3
*U70
  1

  0
TEXT
  5
289A
330
2A0B
100
AcDbEntity
  8
SIZE
100
AcDbText
 10
402.4549498463255
 20
170.0518353161515
 30
0.0
 40
64.0
  1
127
 41
0.9
100
AcDbText
  0
ENDBLK
  5
289C
330
2A0B
100
AcDbEntity
  8
0
100
AcDbBlockEnd
  0
BLOCK
  5
2A0E
330
2A0D
100
AcDbEntity
  8
0
100
AcDbBlockBegin
  2
*U71
 70
     1
 10
0.0
 20
0.0
 30
0.0
  3
*U71
  1

  0
TEXT
  5
289E
330
2A0D
100
AcDbEntity
  8
SIZE
100
AcDbText
 10
1644.37398174781
 20
29.99999951605628
 30
0.0
 40
64.0
  1
22
 41
0.9
100
AcDbText
  0
ENDBLK
  5
28A0
330
2A0D
100
AcDbEntity
  8
0
100
AcDbBlockEnd
  0
BLOCK
  5
2A10
330
2A0F
100
AcDbEntity
  8
0
100
AcDbBlockBegin
  2
*U72
 70
     1
 10
0.0
 20
0.0
 30
0.0
  3
*U72
  1

  0
TEXT
  5
28A2
330
2A0F
100
AcDbEntity
  8
SIZE
100
AcDbText
 10
1097.683521274901
 20
170.0518353161515
 30
0.0
 40
64.0
  1
772
 41
0.9
100
AcDbText
  0
ENDBLK
  5
28A4
330
2A0F
100
AcDbEntity
  8
0
100
AcDbBlockEnd
  0
BLOCK
  5
2A12
330
2A11
100
AcDbEntity
  8
0
100
AcDbBlockBegin
  2
*U73
 70
     1
 10
0.0
 20
0.0
 30
0.0
  3
*U73
  1

  0
TEXT
  5
28A6
330
2A11
100
AcDbEntity
  8
SIZE
100
AcDbText
 10
1030.669235560615
 20
29.99999951605628
 30
0.0
 40
64.0
  1
917
 41
0.9
100
AcDbText
  0
ENDBLK
  5
28A8
330
2A11
100
AcDbEntity
  8
0
100
AcDbBlockEnd
  0
BLOCK
  5
2A14
330
2A13
100
AcDbEntity
  8
0
100
AcDbBlockBegin
  2
*U74
 70
     1
 10
0.0
 20
0.0
 30
0.0
  3
*U74
  1

  0
TEXT
  5
28AA
330
2A13
100
AcDbEntity
  8
SIZE
100
AcDbText
 10
568.3406641320441
 20
1575.103360353641
 30
0.0
 40
64.0
  1
8
 41
0.9
100
AcDbText
  0
ENDBLK
  5
28AC
330
2A13
100
AcDbEntity
  8
0
100
AcDbBlockEnd
  0
BLOCK
  5
2A16
330
2A15
100
AcDbEntity
  8
0
100
AcDbBlockBegin
  2
*U75
 70
     1
 10
0.0
 20
0.0
 30
0.0
  3
*U75
  1

  0
TEXT
  5
28AE
330
2A15
100
AcDbEntity
  8
SIZE
100
AcDbText
 10
294.8685281678763
 20
450.2953489794385
 30
0.0
 40
64.0
  1
310
 50
90.0
 41
0.9
100
AcDbText
  0
ENDBLK
  5
28B0
330
2A15
100
AcDbEntity
  8
0
100
AcDbBlockEnd
  0
BLOCK
  5
2A18
330
2A17
100
AcDbEntity
  8
0
100
AcDbBlockBegin
  2
*U76
 70
     1
 10
0.0
 20
0.0
 30
0.0
  3
*U76
  1

  0
TEXT
  5
28B2
330
2A17
100
AcDbEntity
  8
SIZE
100
AcDbText
 10
1777.535752319599
 20
788.3524918365773
 30
0.0
 40
64.0
  1
1210
 50
90.0
 41
0.9
100
AcDbText
  0
ENDBLK
  5
28B4
330
2A17
100
AcDbEntity
  8
0
100
AcDbBlockEnd
  0
BLOCK
  5
2A1A
330
2A19
100
AcDbEntity
  8
0
100
AcDbBlockBegin
  2
*U77
 70
     1
 10
0.0
 20
0.0
 30
0.0
  3
*U77
  1

  0
TEXT
  5
28BA
330
2A19
100
AcDbEntity
  8
SIZE
100
AcDbText
 10
294.8685281678763
 20
984.8096346937198
 30
0.0
 40
64.0
  1
770
 50
90.0
 41
0.9
100
AcDbText
  0
ENDBLK
  5
28BC
330
2A19
100
AcDbEntity
  8
0
100
AcDbBlockEnd
  0
BLOCK
  5
2A1C
330
2A1B
100
AcDbEntity
  8
0
100
AcDbBlockBegin
  2
*U78
 70
     1
 10
0.0
 20
0.0
 30
0.0
  3
*U78
  1

  0
TEXT
  5
28BE
330
2A1B
100
AcDbEntity
  8
SIZE
100
AcDbText
 10
182.1192709194576
 20
984.8096346937234
 30
0.0
 40
64.0
  1
800
 50
90.0
 41
0.9
100
AcDbText
  0
ENDBLK
  5
28C0
330
2A1B
100
AcDbEntity
  8
0
100
AcDbBlockEnd
  0
ENDSEC
  0
SECTION
  2
ENTITIES
  0
TEXT
  5
953
330
2938
100
AcDbEntity
  8
OUTLINE
  6
Continuous
 62
     3
100
AcDbText
 10
-418.231467
 20
13.715189
 30
0.0
 40
64.0
  1
 
 41
0.9
100
AcDbText
  0
TEXT
  5
954
330
2938
100
AcDbEntity
  8
OUTLINE
  6
Continuous
 62
     3
100
AcDbText
 10
-418.231467
 20
13.715189
 30
0.0
 40
64.0
  1
 
 41
0.9
100
AcDbText
  0
TEXT
  5
955
330
2938
100
AcDbEntity
  8
OUTLINE
  6
Continuous
 62
     3
100
AcDbText
 10
1341.41903
 20
-706.0588199999997
 30
0.0
 40
64.0
  1
 
 41
0.9
100
AcDbText
  0
TEXT
  5
956
330
2938
100
AcDbEntity
  8
OUTLINE
  6
Continuous
 62
     3
100
AcDbText
 10
1341.41903
 20
-706.0588199999997
 30
0.0
 40
64.0
  1
 
 41
0.9
100
AcDbText
  0
TEXT
  5
957
330
2938
100
AcDbEntity
  8
OUTLINE
  6
Continuous
 62
     3
100
AcDbText
 10
1341.41903
 20
-706.0588199999997
 30
0.0
 40
64.0
  1
 
 41
0.9
100
AcDbText
  0
TEXT
  5
958
330
2938
100
AcDbEntity
  8
OUTLINE
  6
Continuous
 62
     3
100
AcDbText
 10
1341.41903
 20
-706.0588199999997
 30
0.0
 40
64.0
  1
 
 41
0.9
100
AcDbText
  0
LINE
  5
27FE
330
2938
100
AcDbEntity
  8
DETAIL
100
AcDbLine
 10
-430.6017858154781
 20
-148.0014000000001
 30
0.0
 11
-449.4369297420752
 21
-845.8060348500072
 31
0.0
  0
LINE
  5
27FF
330
2938
100
AcDbEntity
  8
DETAIL
100
AcDbLine
 10
-430.0761627032592
 20
-127.5020706637715
 30
0.0
 11
-443.5000000000044
 21
-127.0014000000001
 31
0.0
  0
LINE
  5
2800
330
2938
100
AcDbEntity
  8
DETAIL
100
AcDbLine
 10
-430.0761627032592
 20
-127.5020706637715
 30
0.0
 11
-449.4369297420752
 21
-845.806034850028
 31
0.0
  0
LINE
  5
2801
330
2938
100
AcDbEntity
  8
DETAIL
100
AcDbLine
 10
430.5478299455785
 20
-145.0014005847652
 30
0.0
 11
-430.5747937932578
 21
-145.0013992416451
 31
0.0
  0
LINE
  5
2802
330
2938
100
AcDbEntity
  8
DETAIL
100
AcDbLine
 10
383.1428326992972
 20
-803.0013999999999
 30
0.0
 11
-385.0000000000008
 21
-803.001400000001
 31
0.0
  0
LINE
  5
2803
330
2938
100
AcDbEntity
  8
DETAIL
100
AcDbLine
 10
-362.16105709571
 20
-917.0999998761919
 30
0.0
 11
362.1610429042958
 21
-917.0999999863161
 31
0.0
  0
LINE
  5
2804
330
2938
100
AcDbEntity
  8
DETAIL
100
AcDbLine
 10
-362.16105709571
 20
-916.9927851000428
 30
0.0
 11
-451.1610562738463
 21
-916.99999986266
 31
0.0
  0
LINE
  5
2805
330
2938
100
AcDbEntity
  8
OUTLINE
100
AcDbLine
 10
-450.6349659053888
 20
-896.0179122745689
 30
0.0
 11
-451.1349519196486
 21
-915.1038896865731
 31
0.0
  0
LINE
  5
2806
330
2938
100
AcDbEntity
  8
DETAIL
100
AcDbLine
 10
-451.1335819029813
 20
-915.0443681376808
 30
0.0
 11
-449.0021091411912
 21
-833.6796102732249
 31
0.0
  0
LINE
  5
2807
330
2938
100
AcDbEntity
  8
DETAIL
100
AcDbLine
 10
-415.0000000000003
 20
0.0
 30
0.0
 11
-425.0000000000008
 21
0.0
 31
0.0
  0
LINE
  5
2808
330
2938
100
AcDbEntity
  8
DETAIL
100
AcDbLine
 10
-425.0000000000008
 20
-8.0
 30
0.0
 11
-425.0000000000008
 21
0.0
 31
0.0
  0
LINE
  5
2809
330
2938
100
AcDbEntity
  8
DETAIL
100
AcDbLine
 10
-415.0000000000003
 20
0.0
 30
0.0
 11
415.0
 21
0.0
 31
0.0
  0
LINE
  5
280A
330
2938
100
AcDbEntity
  8
DETAIL
100
AcDbLine
 10
-425.0000000000008
 20
-8.0
 30
0.0
 11
425.0
 21
-8.0
 31
0.0
  0
LINE
  5
280B
330
2938
100
AcDbEntity
  8
DETAIL
100
AcDbLine
 10
-386.0000000000009
 20
-127.0009494485275
 30
0.0
 11
-386.0000000000009
 21
-8.0
 31
0.0
  0
LINE
  5
280C
330
2938
100
AcDbEntity
  8
NOTE
100
AcDbLine
 10
-400.0000000000008
 20
-12.5
 30
0.0
 11
-400.0000000000008
 21
12.5
 31
0.0
  0
CIRCLE
  5
280D
330
2938
100
AcDbEntity
  8
ARRANGE
100
AcDbCircle
 10
0.0
 20
0.0
 30
0.0
 40
40.0
  0
LINE
  5
280E
330
2938
100
AcDbEntity
  8
ARRANGE
100
AcDbLine
 10
-19.19638649990156
 20
19.19638649990247
 30
0.0
 11
19.1963864999052
 21
-19.1963864999052
 31
0.0
  0
LINE
  5
280F
330
2938
100
AcDbEntity
  8
ARRANGE
100
AcDbLine
 10
19.19638649990156
 20
19.19638649990338
 30
0.0
 11
-19.19638649990156
 21
-19.19638649990338
 31
0.0
  0
LINE
  5
2810
330
2938
100
AcDbEntity
  8
BASIS
100
AcDbLine
 10
0.0
 20
25.0
 30
0.0
 11
0.0
 21
-963.9999998626601
 31
0.0
  0
LINE
  5
2811
330
2938
100
AcDbEntity
  8
DETAIL
100
AcDbLine
 10
-385.0000000000008
 20
-803.001400000001
 30
0.0
 11
-451.1594891083849
 21
-916.9999997356178
 31
0.0
  0
LINE
  5
2812
330
2938
100
AcDbEntity
  8
DETAIL
100
AcDbLine
 10
-443.5000000000044
 20
-127.0014000000001
 30
0.0
 11
-464.5000000000044
 21
-916.99999986266
 31
0.0
  0
LINE
  5
2813
330
2938
100
AcDbEntity
  8
DETAIL
100
AcDbLine
 10
-451.1610562738463
 20
-931.9999998626601
 30
0.0
 11
451.161056273846
 21
-931.9999998626601
 31
0.0
  0
LINE
  5
2814
330
2938
100
AcDbEntity
  8
DETAIL
100
AcDbLine
 10
-451.1610562738463
 20
-916.99999986266
 30
0.0
 11
-451.1610562738463
 21
-938.9999998626601
 31
0.0
  0
LINE
  5
2815
330
2938
100
AcDbEntity
  8
DETAIL
100
AcDbLine
 10
-451.1610562738463
 20
-916.99999986266
 30
0.0
 11
-464.5000000000044
 21
-916.99999986266
 31
0.0
  0
LINE
  5
2816
330
2938
100
AcDbEntity
  8
DETAIL
100
AcDbLine
 10
-443.5000000000044
 20
-127.0014000000001
 30
0.0
 11
443.5
 21
-127.0014000000001
 31
0.0
  0
LINE
  5
2817
330
2938
100
AcDbEntity
  8
DETAIL
100
AcDbLine
 10
-385.0000000000008
 20
-145.0013993127294
 30
0.0
 11
-385.0000000000008
 21
-803.001400000001
 31
0.0
  0
LINE
  5
2818
330
2938
100
AcDbEntity
  8
DETAIL
100
AcDbLine
 10
430.6017858154737
 20
-148.0014000000001
 30
0.0
 11
449.4369297420739
 21
-845.8060348500072
 31
0.0
  0
LINE
  5
2819
330
2938
100
AcDbEntity
  8
DETAIL
100
AcDbLine
 10
430.0761627032589
 20
-127.5020706637715
 30
0.0
 11
443.5
 21
-127.0014000000001
 31
0.0
  0
LINE
  5
281A
330
2938
100
AcDbEntity
  8
DETAIL
100
AcDbLine
 10
430.0761627032589
 20
-127.5020706637715
 30
0.0
 11
449.4369297420739
 21
-845.806034850028
 31
0.0
  0
LINE
  5
281B
330
2938
100
AcDbEntity
  8
DETAIL
100
AcDbLine
 10
362.1610570957092
 20
-916.9927851000428
 30
0.0
 11
451.161056273846
 21
-916.99999986266
 31
0.0
  0
LINE
  5
281C
330
2938
100
AcDbEntity
  8
OUTLINE
100
AcDbLine
 10
450.6349659053848
 20
-896.0179122745689
 30
0.0
 11
451.1349519196483
 21
-915.1038896865731
 31
0.0
  0
LINE
  5
281D
330
2938
100
AcDbEntity
  8
DETAIL
100
AcDbLine
 10
451.1335819029809
 20
-915.0443681376808
 30
0.0
 11
449.0021091411872
 21
-833.6796102732249
 31
0.0
  0
LINE
  5
281E
330
2938
100
AcDbEntity
  8
DETAIL
100
AcDbLine
 10
415.0
 20
0.0
 30
0.0
 11
425.0
 21
0.0
 31
0.0
  0
LINE
  5
281F
330
2938
100
AcDbEntity
  8
DETAIL
100
AcDbLine
 10
425.0
 20
-8.0
 30
0.0
 11
425.0
 21
0.0
 31
0.0
  0
LINE
  5
2820
330
2938
100
AcDbEntity
  8
DETAIL
100
AcDbLine
 10
386.0
 20
-127.0009494485275
 30
0.0
 11
386.0
 21
-8.0
 31
0.0
  0
LINE
  5
2821
330
2938
100
AcDbEntity
  8
NOTE
100
AcDbLine
 10
400.0
 20
-12.5
 30
0.0
 11
400.0
 21
12.5
 31
0.0
  0
LINE
  5
2822
330
2938
100
AcDbEntity
  8
DETAIL
100
AcDbLine
 10
385.0
 20
-803.001400000001
 30
0.0
 11
451.1594891083841
 21
-916.9999997356178
 31
0.0
  0
LINE
  5
2823
330
2938
100
AcDbEntity
  8
DETAIL
100
AcDbLine
 10
443.5
 20
-127.0014000000001
 30
0.0
 11
464.5
 21
-916.99999986266
 31
0.0
  0
LINE
  5
2824
330
2938
100
AcDbEntity
  8
DETAIL
100
AcDbLine
 10
451.161056273846
 20
-916.99999986266
 30
0.0
 11
451.161056273846
 21
-938.9999998626601
 31
0.0
  0
LINE
  5
2825
330
2938
100
AcDbEntity
  8
DETAIL
100
AcDbLine
 10
451.161056273846
 20
-916.99999986266
 30
0.0
 11
464.5
 21
-916.99999986266
 31
0.0
  0
LINE
  5
2826
330
2938
100
AcDbEntity
  8
DETAIL
100
AcDbLine
 10
385.0
 20
-145.0013993127294
 30
0.0
 11
385.0
 21
-803.001400000001
 31
0.0
  0
LINE
  5
2827
330
2938
100
AcDbEntity
  8
DETAIL
100
AcDbLine
 10
-365.0000000000009
 20
-165.0013993439243
 30
0.0
 11
365.0
 21
-165.001400482528
 31
0.0
  0
LINE
  5
2828
330
2938
100
AcDbEntity
  8
DETAIL
100
AcDbLine
 10
-365.0000000000009
 20
-783.0014000000008
 30
0.0
 11
365.0
 21
-783.0014
 31
0.0
  0
LINE
  5
2829
330
2938
100
AcDbEntity
  8
DETAIL
100
AcDbLine
 10
-365.0000000000009
 20
-165.0013993439243
 30
0.0
 11
-365.0000000000009
 21
-783.0014000000008
 31
0.0
  0
LINE
  5
282A
330
2938
100
AcDbEntity
  8
DETAIL
100
AcDbLine
 10
365.0
 20
-165.001400482528
 30
0.0
 11
365.0
 21
-783.0014
 31
0.0
  0
LINE
  5
282B
330
2938
100
AcDbEntity
  8
DETAIL
100
AcDbLine
 10
-451.1610562738463
 20
-938.9999998626601
 30
0.0
 11
451.161056273846
 21
-938.9999998626601
 31
0.0
  0
INSERT
  5
282C
330
2938
100
AcDbEntity
  8
0
100
AcDbBlockReference
  2
*U64
 10
0.0
 20
0.0000000000004547
 30
0.0
1001
ACAD
1000
DSTYLE
1002
{
1070
    41
1040
12.0
1070
    42
1040
20.0
1070
    43
1040
200.0
1070
    44
1040
20.0
1070
    73
1070
     0
1070
    74
1070
     0
1070
    77
1070
     1
1070
    78
1070
     8
1070
   140
1040
64.0
1070
   147
1040
50.0
1070
   172
1070
     1
1070
   174
1070
     1
1070
   275
1070
     0
1070
   284
1070
     0
1070
   285
1070
     0
1070
   286
1070
     0
1070
   341
1005
0
1070
   342
1005
0
1002
}
  0
INSERT
  5
282D
330
2938
100
AcDbEntity
  8
0
100
AcDbBlockReference
  2
*U65
 10
0.0
 20
0.0000000000004547
 30
0.0
  0
LINE
  5
282E
330
2938
100
AcDbEntity
  8
NOTE
100
AcDbLine
 39
50.0
 10
387.5
 20
0.0
 30
0.0
 11
412.5
 21
0.0
 31
0.0
  0
LINE
  5
282F
330
2938
100
AcDbEntity
  8
NOTE
100
AcDbLine
 39
50.0
 10
-412.5000000000008
 20
0.0
 30
0.0
 11
-387.5000000000008
 21
0.0
 31
0.0
  0
LINE
  5
2830
330
2938
100
AcDbEntity
  8
OUTLINE
100
AcDbLine
 39
50.0
 10
-425.0000000000008
 20
0.0
 30
0.0
 11
-415.0000000000003
 21
0.0
 31
0.0
  0
LINE
  5
2831
330
2938
100
AcDbEntity
  8
OUTLINE
100
AcDbLine
 39
50.0
 10
-415.0000000000003
 20
0.0
 30
0.0
 11
412.5
 21
0.0
 31
0.0
  0
LINE
  5
2832
330
2938
100
AcDbEntity
  8
OUTLINE
100
AcDbLine
 39
50.0
 10
412.5
 20
0.0
 30
0.0
 11
425.0
 21
0.0
 31
0.0
  0
LINE
  5
2833
330
2938
100
AcDbEntity
  8
OUTLINE
100
AcDbLine
 10
-430.6017858154781
 20
-148.0014000000001
 30
0.0
 11
-449.4369297420752
 21
-845.8060348500072
 31
0.0
  0
LINE
  5
2834
330
2938
100
AcDbEntity
  8
OUTLINE
100
AcDbLine
 10
-430.0761627032592
 20
-127.5020706637715
 30
0.0
 11
-443.5000000000044
 21
-127.0014000000001
 31
0.0
  0
LINE
  5
2835
330
2938
100
AcDbEntity
  8
OUTLINE
100
AcDbLine
 10
-430.0761627032592
 20
-127.5020706637715
 30
0.0
 11
-449.4369297420752
 21
-845.806034850028
 31
0.0
  0
LINE
  5
2836
330
2938
100
AcDbEntity
  8
OUTLINE
100
AcDbLine
 10
430.5478299455785
 20
-145.0014005847652
 30
0.0
 11
-430.5747937932578
 21
-145.0013992416451
 31
0.0
  0
LINE
  5
2837
330
2938
100
AcDbEntity
  8
OUTLINE
100
AcDbLine
 10
383.1428326992972
 20
-803.0013999999999
 30
0.0
 11
-385.0000000000008
 21
-803.001400000001
 31
0.0
  0
LINE
  5
2838
330
2938
100
AcDbEntity
  8
OUTLINE
100
AcDbLine
 10
-362.16105709571
 20
-917.0999998761919
 30
0.0
 11
362.1610429042958
 21
-917.0999999863161
 31
0.0
  0
LINE
  5
2839
330
2938
100
AcDbEntity
  8
OUTLINE
100
AcDbLine
 10
-362.16105709571
 20
-916.9927851000428
 30
0.0
 11
-451.1610562738463
 21
-916.99999986266
 31
0.0
  0
LINE
  5
283A
330
2938
100
AcDbEntity
  8
OUTLINE
100
AcDbLine
 10
-451.1335819029813
 20
-915.0443681376808
 30
0.0
 11
-449.0021091411912
 21
-833.6796102732249
 31
0.0
  0
LINE
  5
283B
330
2938
100
AcDbEntity
  8
OUTLINE
100
AcDbLine
 10
-425.0000000000008
 20
-8.0
 30
0.0
 11
-425.0000000000008
 21
0.0
 31
0.0
  0
LINE
  5
283C
330
2938
100
AcDbEntity
  8
OUTLINE
100
AcDbLine
 10
-425.0000000000008
 20
-8.0
 30
0.0
 11
425.0
 21
-8.0
 31
0.0
  0
LINE
  5
283D
330
2938
100
AcDbEntity
  8
OUTLINE
100
AcDbLine
 10
-386.0000000000009
 20
-127.0009494485275
 30
0.0
 11
-386.0000000000009
 21
-8.0
 31
0.0
  0
LINE
  5
283E
330
2938
100
AcDbEntity
  8
OUTLINE
100
AcDbLine
 10
-385.0000000000008
 20
-803.001400000001
 30
0.0
 11
-451.1594891083849
 21
-916.9999997356178
 31
0.0
  0
LINE
  5
283F
330
2938
100
AcDbEntity
  8
OUTLINE
100
AcDbLine
 10
-443.5000000000044
 20
-127.0014000000001
 30
0.0
 11
-464.5000000000044
 21
-916.99999986266
 31
0.0
  0
LINE
  5
2840
330
2938
100
AcDbEntity
  8
OUTLINE
100
AcDbLine
 10
-451.1610562738463
 20
-931.9999998626601
 30
0.0
 11
451.161056273846
 21
-931.9999998626601
 31
0.0
  0
LINE
  5
2841
330
2938
100
AcDbEntity
  8
OUTLINE
100
AcDbLine
 10
-451.1610562738463
 20
-916.99999986266
 30
0.0
 11
-451.1610562738463
 21
-938.9999998626601
 31
0.0
  0
LINE
  5
2842
330
2938
100
AcDbEntity
  8
OUTLINE
100
AcDbLine
 10
-451.1610562738463
 20
-916.99999986266
 30
0.0
 11
-464.5000000000044
 21
-916.99999986266
 31
0.0
  0
LINE
  5
2843
330
2938
100
AcDbEntity
  8
OUTLINE
100
AcDbLine
 10
-443.5000000000044
 20
-127.0014000000001
 30
0.0
 11
443.5
 21
-127.0014000000001
 31
0.0
  0
LINE
  5
2844
330
2938
100
AcDbEntity
  8
OUTLINE
100
AcDbLine
 10
-385.0000000000008
 20
-145.0013993127294
 30
0.0
 11
-385.0000000000008
 21
-803.001400000001
 31
0.0
  0
LINE
  5
2845
330
2938
100
AcDbEntity
  8
OUTLINE
100
AcDbLine
 10
430.6017858154737
 20
-148.0014000000001
 30
0.0
 11
449.4369297420739
 21
-845.8060348500072
 31
0.0
  0
LINE
  5
2846
330
2938
100
AcDbEntity
  8
OUTLINE
100
AcDbLine
 10
430.0761627032589
 20
-127.5020706637715
 30
0.0
 11
449.4369297420739
 21
-845.806034850028
 31
0.0
  0
LINE
  5
2847
330
2938
100
AcDbEntity
  8
OUTLINE
100
AcDbLine
 10
362.1610570957092
 20
-916.9927851000428
 30
0.0
 11
451.161056273846
 21
-916.99999986266
 31
0.0
  0
LINE
  5
2848
330
2938
100
AcDbEntity
  8
OUTLINE
100
AcDbLine
 10
451.1335819029809
 20
-915.0443681376808
 30
0.0
 11
449.0021091411872
 21
-833.6796102732249
 31
0.0
  0
LINE
  5
2849
330
2938
100
AcDbEntity
  8
OUTLINE
100
AcDbLine
 10
425.0
 20
-8.0
 30
0.0
 11
425.0
 21
0.0
 31
0.0
  0
LINE
  5
284A
330
2938
100
AcDbEntity
  8
OUTLINE
100
AcDbLine
 10
386.0
 20
-127.0009494485275
 30
0.0
 11
386.0
 21
-8.0
 31
0.0
  0
LINE
  5
284B
330
2938
100
AcDbEntity
  8
OUTLINE
100
AcDbLine
 10
385.0
 20
-803.001400000001
 30
0.0
 11
451.1594891083841
 21
-916.9999997356178
 31
0.0
  0
LINE
  5
284C
330
2938
100
AcDbEntity
  8
OUTLINE
100
AcDbLine
 10
443.5
 20
-127.0014000000001
 30
0.0
 11
464.5
 21
-916.99999986266
 31
0.0
  0
LINE
  5
284D
330
2938
100
AcDbEntity
  8
OUTLINE
100
AcDbLine
 10
451.161056273846
 20
-916.99999986266
 30
0.0
 11
451.161056273846
 21
-938.9999998626601
 31
0.0
  0
LINE
  5
284E
330
2938
100
AcDbEntity
  8
OUTLINE
100
AcDbLine
 10
451.161056273846
 20
-916.99999986266
 30
0.0
 11
464.5
 21
-916.99999986266
 31
0.0
  0
LINE
  5
284F
330
2938
100
AcDbEntity
  8
OUTLINE
100
AcDbLine
 10
385.0
 20
-145.0013993127294
 30
0.0
 11
385.0
 21
-803.001400000001
 31
0.0
  0
LINE
  5
2850
330
2938
100
AcDbEntity
  8
OUTLINE
100
AcDbLine
 10
-451.1610562738463
 20
-938.9999998626601
 30
0.0
 11
451.161056273846
 21
-938.9999998626601
 31
0.0
  0
LINE
  5
2851
330
2938
100
AcDbEntity
  8
OUTLINE
100
AcDbLine
 10
430.0761627032589
 20
-127.5020706637715
 30
0.0
 11
443.5
 21
-127.0014000000001
 31
0.0
  0
INSERT
  5
2852
330
2938
100
AcDbEntity
  8
DETAIL
  6
Continuous
100
AcDbBlockReference
  2
*X66
 10
0.0
 20
0.0000000000004547
 30
0.0
1001
ACADANNOTATIVE
1000
AnnotativeData
1002
{
1070
     1
1070
     0
1002
}
1001
ACAD
1000
HATCH
1002
{
1070
    19
1000
LINE
1040
72.22849999999998
1040
5.838766301980095
1000
R14_HATCH_DATA
1000
5483
1011
1.0
1021
0.0000000000004547
1031
0.0
1011
0.0
1021
1.000000000000454
1031
0.0
1011
0.0
1021
0.0000000000004547
1031
1.0
1040
0.0
1010
0.0
1020
0.0
1030
1.0
1000
LINE
1070
     0
1070
     0
1071
        2
1071
        7
1070
     0
1070
     1
1071
        6
1040
365.0
1040
-358.8014004825295
1040
149.2000000000007
1040
-358.8014004825295
1040
149.1999999999971
1040
-165.001400145939
1040
-365.0000000000005
1040
-165.0013993439247
1040
-365.0000000000005
1040
-783.0014000000012
1040
365.0
1040
-783.0014000000003
1071
        0
1071
       23
1070
     0
1070
     1
1071
        4
1040
365.0
1040
-358.8014004825295
1040
365.0
1040
-165.0014004825284
1040
149.2000000000007
1040
-165.0014004825284
1040
149.2000000000007
1040
-358.8014004825286
1071
        0
1070
     0
1070
     1
1040
5.838766301980095
1040
72.22849999999998
1070
     0
1070
     1
1040
5.838766301980095
1040
20009.4439466262
1040
4716.641207157745
1040
3.881680532789153
1040
8.151533417570705
1070
     0
1040
2.562693162914893
1071
        2
1040
-208.5447717133575
1040
-389.3535822343234
1040
0.0
1040
263.3751664770971
1040
-281.7027190849326
1040
0.0
1002
}
  0
INSERT
  5
2853
330
2938
100
AcDbEntity
  8
DETAIL
  6
Continuous
100
AcDbBlockReference
  2
*X67
 10
0.0
 20
0.0000000000004547
 30
0.0
1001
ACADANNOTATIVE
1000
AnnotativeData
1002
{
1070
     1
1070
     0
1002
}
1001
ACAD
1000
HATCH
1002
{
1070
    19
1000
LINE
1040
72.22849999999998
1040
0.4444190051994897
1000
R14_HATCH_DATA
1000
5489
1011
1.0
1021
0.0000000000004547
1031
0.0
1011
0.0
1021
1.000000000000454
1031
0.0
1011
0.0
1021
0.0000000000004547
1031
1.0
1040
0.0
1010
0.0
1020
0.0
1030
1.0
1000
LINE
1070
     0
1070
     0
1071
        2
1071
        7
1070
     0
1070
     1
1071
        6
1040
149.2000000000007
1040
-165.001400145939
1040
-365.0000000000005
1040
-165.0013993439247
1040
-365.0000000000005
1040
-783.0014000000012
1040
365.0
1040
-783.0014000000003
1040
365.0000000000036
1040
-358.8014004825286
1040
149.2000000000007
1040
-358.8014004825286
1071
        0
1071
       23
1070
     0
1070
     1
1071
        4
1040
364.9999999999963
1040
-165.0014004825284
1040
149.2000000000007
1040
-165.0014004825284
1040
149.2000000000007
1040
-358.8014004825286
1040
365.0
1040
-358.8014004825286
1071
        0
1070
     0
1070
     1
1040
0.4444190051994897
1040
72.22849999999998
1070
     0
1070
     1
1040
0.4444190051994897
1040
20009.4439466262
1040
4716.641207157745
1040
-3.881680532789157
1040
8.151533417570702
1070
     0
1040
1.780501943060619
1071
        2
1040
-123.4944499865014
1040
-339.8298246890022
1040
0.0
1040
288.3675573120708
1040
-281.3252300547461
1040
0.0
1002
}
  0
LINE
  5
2854
330
2938
100
AcDbEntity
  8
DETAIL
100
AcDbLine
 10
-365.0000000000009
 20
-165.0013993439243
 30
0.0
 11
365.0
 21
-165.001400482528
 31
0.0
  0
LINE
  5
2855
330
2938
100
AcDbEntity
  8
DETAIL
100
AcDbLine
 10
-365.0000000000009
 20
-783.0014000000008
 30
0.0
 11
365.0
 21
-783.0014
 31
0.0
  0
LINE
  5
2856
330
2938
100
AcDbEntity
  8
DETAIL
100
AcDbLine
 10
-365.0000000000009
 20
-165.0013993439243
 30
0.0
 11
-365.0000000000009
 21
-783.0014000000008
 31
0.0
  0
LINE
  5
2857
330
2938
100
AcDbEntity
  8
DETAIL
100
AcDbLine
 10
365.0
 20
-165.001400482528
 30
0.0
 11
365.0
 21
-783.0014
 31
0.0
  0
LINE
  5
2858
330
2938
100
AcDbEntity
  8
SIZE
100
AcDbLine
 10
-425.0000000000008
 20
20.0
 30
0.0
 11
-425.0000000000008
 21
338.0818371338519
 31
0.0
  0
LINE
  5
2859
330
2938
100
AcDbEntity
  8
SIZE
100
AcDbLine
 10
425.0
 20
20.0
 30
0.0
 11
425.0
 21
338.0818371338519
 31
0.0
  0
LINE
  5
285A
330
2938
100
AcDbEntity
  8
SIZE
100
AcDbLine
 10
-413.0000000000008
 20
318.0818371338519
 30
0.0
 11
413.0
 21
318.0818371338519
 31
0.0
  0
INSERT
  5
285B
330
2938
100
AcDbEntity
  8
SIZE
100
AcDbBlockReference
  2
_DOTBLANK
 10
-425.0000000000008
 20
318.0818371338519
 30
0.0
 41
12.0
 42
12.0
 43
12.0
 50
180.0
  0
INSERT
  5
285C
330
2938
100
AcDbEntity
  8
SIZE
100
AcDbBlockReference
  2
_DOTBLANK
 10
425.0
 20
318.0818371338519
 30
0.0
 41
12.0
 42
12.0
 43
12.0
  0
LINE
  5
285D
330
2938
100
AcDbEntity
  8
SIZE
100
AcDbLine
 10
-400.0000000000008
 20
32.5
 30
0.0
 11
-400.0000000000008
 21
197.3516363077906
 31
0.0
  0
LINE
  5
285E
330
2938
100
AcDbEntity
  8
SIZE
100
AcDbLine
 10
400.0
 20
32.5
 30
0.0
 11
400.0
 21
197.3516363077906
 31
0.0
  0
LINE
  5
285F
330
2938
100
AcDbEntity
  8
SIZE
100
AcDbLine
 10
-388.0000000000009
 20
177.3516363077906
 30
0.0
 11
388.0
 21
177.3516363077906
 31
0.0
  0
INSERT
  5
2860
330
2938
100
AcDbEntity
  8
SIZE
100
AcDbBlockReference
  2
_DOTBLANK
 10
-400.0000000000008
 20
177.3516363077906
 30
0.0
 41
12.0
 42
12.0
 43
12.0
 50
180.0
  0
INSERT
  5
2861
330
2938
100
AcDbEntity
  8
SIZE
100
AcDbBlockReference
  2
_DOTBLANK
 10
400.0
 20
177.3516363077906
 30
0.0
 41
12.0
 42
12.0
 43
12.0
  0
LINE
  5
2862
330
2938
100
AcDbEntity
  8
SIZE
100
AcDbLine
 10
445.0
 20
0.0
 30
0.0
 11
581.6374087284343
 21
0.0
 31
0.0
  0
LINE
  5
2863
330
2938
100
AcDbEntity
  8
SIZE
100
AcDbLine
 10
445.0
 20
-8.0
 30
0.0
 11
581.6374087284343
 21
-8.0
 31
0.0
  0
LINE
  5
2864
330
2938
100
AcDbEntity
  8
SIZE
100
AcDbLine
 10
561.6374087284348
 20
12.0
 30
0.0
 11
561.6374087284348
 21
24.0
 31
0.0
  0
LINE
  5
2865
330
2938
100
AcDbEntity
  8
SIZE
100
AcDbLine
 10
561.6374087284348
 20
-20.0
 30
0.0
 11
561.6374087284348
 21
-90.39999999999997
 31
0.0
  0
INSERT
  5
2866
330
2938
100
AcDbEntity
  8
SIZE
100
AcDbBlockReference
  2
_DOTBLANK
 10
561.6374087284348
 20
0.0
 30
0.0
 41
12.00000000000011
 42
12.0
 43
12.0
 50
270.0
  0
INSERT
  5
2867
330
2938
100
AcDbEntity
  8
SIZE
100
AcDbBlockReference
  2
_DOTBLANK
 10
561.6374087284348
 20
-8.0
 30
0.0
 41
12.0
 42
12.0
 43
12.0
 50
90.0
  0
TEXT
  5
2868
330
2938
100
AcDbEntity
  8
ETC
100
AcDbText
 10
714.3793481132489
 20
543.7417056490321
 30
0.0
 40
70.0
  1
QW-70SB_6
 41
0.9
100
AcDbText
  0
TEXT
  5
2869
330
2938
100
AcDbEntity
  8
ETC
100
AcDbText
 10
705.9793481132484
 20
427.0750389823653
 30
0.0
 40
70.0
  1
システム部材
 41
0.9
100
AcDbText
  0
TEXT
  5
286A
330
2938
100
AcDbEntity
  8
ETC
100
AcDbText
 10
714.3793481132489
 20
310.4083723156987
 30
0.0
 40
70.0
  1
QW-70SB
 41
0.9
100
AcDbText
  0
LINE
  5
286B
330
2938
100
AcDbEntity
  8
SIZE
100
AcDbLine
 10
-464.5000000000044
 20
-936.9999998626596
 30
0.0
 11
-464.5000000000044
 21
-1096.282941893284
 31
0.0
  0
LINE
  5
286C
330
2938
100
AcDbEntity
  8
SIZE
100
AcDbLine
 10
464.5
 20
-936.9999998626596
 30
0.0
 11
464.5
 21
-1096.282941893284
 31
0.0
  0
LINE
  5
286D
330
2938
100
AcDbEntity
  8
SIZE
100
AcDbLine
 10
-452.5000000000044
 20
-1076.282941893284
 30
0.0
 11
452.5
 21
-1076.282941893284
 31
0.0
  0
INSERT
  5
286E
330
2938
100
AcDbEntity
  8
SIZE
100
AcDbBlockReference
  2
_DOTBLANK
 10
-464.5000000000044
 20
-1076.282941893284
 30
0.0
 41
12.0
 42
12.0
 43
12.0
 50
180.0
  0
INSERT
  5
286F
330
2938
100
AcDbEntity
  8
SIZE
100
AcDbBlockReference
  2
_DOTBLANK
 10
464.5
 20
-1076.282941893284
 30
0.0
 41
12.0
 42
12.0
 43
12.0
  0
LINE
  5
2870
330
2938
100
AcDbEntity
  8
SIZE
100
AcDbLine
 10
-484.5000000000039
 20
-916.99999986266
 30
0.0
 11
-661.3011223985275
 21
-916.99999986266
 31
0.0
  0
LINE
  5
2871
330
2938
100
AcDbEntity
  8
SIZE
100
AcDbLine
 10
-471.1610562738469
 20
-938.9999998626601
 30
0.0
 11
-661.3011223985275
 21
-938.9999998626601
 31
0.0
  0
LINE
  5
2872
330
2938
100
AcDbEntity
  8
SIZE
100
AcDbLine
 10
-641.3011223985278
 20
-904.9999998626596
 30
0.0
 11
-641.3011223985278
 21
-892.99999986266
 31
0.0
  0
LINE
  5
2873
330
2938
100
AcDbEntity
  8
SIZE
100
AcDbLine
 10
-641.3011223985278
 20
-950.99999986266
 30
0.0
 11
-641.3011223985278
 21
-1076.257142719802
 31
0.0
  0
INSERT
  5
2874
330
2938
100
AcDbEntity
  8
SIZE
100
AcDbBlockReference
  2
_DOTBLANK
 10
-641.3011223985278
 20
-916.99999986266
 30
0.0
 41
12.00000000000011
 42
12.0
 43
12.0
 50
270.0
  0
INSERT
  5
2875
330
2938
100
AcDbEntity
  8
SIZE
100
AcDbBlockReference
  2
_DOTBLANK
 10
-641.3011223985278
 20
-938.9999998626601
 30
0.0
 41
12.0
 42
12.0
 43
12.0
 50
90.0
  0
LINE
  5
2876
330
2938
100
AcDbEntity
  8
SIZE
100
AcDbLine
 10
-445.0000000000003
 20
0.0
 30
0.0
 11
-661.3011223985272
 21
0.0
 31
0.0
  0
LINE
  5
2877
330
2938
100
AcDbEntity
  8
SIZE
100
AcDbLine
 10
-484.5000000000039
 20
-916.99999986266
 30
0.0
 11
-661.3011223985275
 21
-916.99999986266
 31
0.0
  0
LINE
  5
2878
330
2938
100
AcDbEntity
  8
SIZE
100
AcDbLine
 10
-641.3011223985272
 20
-12.0
 30
0.0
 11
-641.3011223985278
 21
-904.9999998626596
 31
0.0
  0
INSERT
  5
2879
330
2938
100
AcDbEntity
  8
SIZE
100
AcDbBlockReference
  2
_DOTBLANK
 10
-641.3011223985272
 20
0.0
 30
0.0
 41
12.0
 42
12.0
 43
12.0
 50
90.0
  0
INSERT
  5
287A
330
2938
100
AcDbEntity
  8
SIZE
100
AcDbBlockReference
  2
_DOTBLANK
 10
-641.3011223985278
 20
-916.99999986266
 30
0.0
 41
12.00000000000011
 42
12.0
 43
12.0
 50
270.0
  0
TEXT
  5
287B
330
2938
100
AcDbEntity
  8
SIZE
100
AcDbText
 10
-74.05714285714293
 20
328.0818371338519
 30
0.0
 40
64.0
  1
850
 41
0.9
100
AcDbText
  0
TEXT
  5
287C
330
2938
100
AcDbEntity
  8
SIZE
100
AcDbText
 10
-74.05714285714293
 20
187.3516363077906
 30
0.0
 40
64.0
  1
800
 41
0.9
100
AcDbText
  0
TEXT
  5
287D
330
2938
100
AcDbEntity
  8
SIZE
100
AcDbText
 10
551.6374087284348
 20
-80.39999999999997
 30
0.0
 40
64.0
  1
8
 50
90.0
 41
0.9
100
AcDbText
  0
TEXT
  5
287E
330
2938
100
AcDbEntity
  8
SIZE
100
AcDbText
 10
-72.6857142857143
 20
-1066.282941893284
 30
0.0
 40
64.0
  1
929
 41
0.9
100
AcDbText
  0
TEXT
  5
287F
330
2938
100
AcDbEntity
  8
SIZE
100
AcDbText
 10
-651.3011223985272
 20
-1066.257142719802
 30
0.0
 40
64.0
  1
22
 50
90.0
 41
0.9
100
AcDbText
  0
TEXT
  5
2880
330
2938
100
AcDbEntity
  8
SIZE
100
AcDbText
 10
-651.3011223985268
 20
-527.0714285027584
 30
0.0
 40
64.0
  1
917
 50
90.0
 41
0.9
100
AcDbText
  0
ENDSEC
  0
SECTION
  2
OBJECTS
  0
DICTIONARY
  5
28D0
330
0
100
AcDbDictionary
281
     1
  3
ACAD_2007HEADERVARS_RT
350
2B2F
  3
ACAD_COLOR
350
292E
  3
ACAD_GROUP
350
28D1
  3
ACAD_LAYOUT
350
292D
  3
ACAD_MATERIAL
350
28D4
  3
ACAD_MLEADERSTYLE
350
2931
  3
ACAD_MLINESTYLE
350
292A
  3
ACAD_PLOTSETTINGS
350
292C
  3
ACAD_PLOTSTYLENAME
350
28D2
  3
ACAD_SCALELIST
350
28FE
  3
ACAD_TABLESTYLE
350
292F
  3
ACAD_VISUALSTYLE
350
28ED
  3
ACDB_RECOMPOSE_DATA
350
2B2D
  3
AcDbVariableDictionary
350
2B24
  3
AcmDictionary
350
2AD0
  3
AMG
350
2A1D
  3
AMGSNAPSETTINGS
350
2AF8
  3
DWGPROPS
350
2B2E
  3
MAPISURF_MODULE
350
2A9D
  0
DICTIONARY
  5
2AFF
330
2920
100
AcDbDictionary
280
     1
281
     1
  3
ADSK_XREC_LAYER_RECONCILED
360
2B00
  0
DICTIONARY
  5
2B01
330
294F
100
AcDbDictionary
280
     1
281
     1
  3
ADSK_XREC_LAYER_RECONCILED
360
2B02
  0
DICTIONARY
  5
2B03
330
2950
100
AcDbDictionary
280
     1
281
     1
  3
ADSK_XREC_LAYER_RECONCILED
360
2B04
  0
DICTIONARY
  5
2B05
330
2951
100
AcDbDictionary
280
     1
281
     1
  3
ADSK_XREC_LAYER_RECONCILED
360
2B06
  0
DICTIONARY
  5
2B07
330
2952
100
AcDbDictionary
280
     1
281
     1
  3
ADSK_XREC_LAYER_RECONCILED
360
2B08
  0
DICTIONARY
  5
2B09
330
2953
100
AcDbDictionary
280
     1
281
     1
  3
ADSK_XREC_LAYER_RECONCILED
360
2B0A
  0
DICTIONARY
  5
2B0B
330
2955
100
AcDbDictionary
280
     1
281
     1
  3
ADSK_XREC_LAYER_RECONCILED
360
2B0C
  0
DICTIONARY
  5
2B0D
330
2956
100
AcDbDictionary
280
     1
281
     1
  3
ADSK_XREC_LAYER_RECONCILED
360
2B0E
  0
DICTIONARY
  5
2B0F
330
2957
100
AcDbDictionary
280
     1
281
     1
  3
ADSK_XREC_LAYER_RECONCILED
360
2B10
  0
DICTIONARY
  5
2B11
330
2958
100
AcDbDictionary
280
     1
281
     1
  3
ADSK_XREC_LAYER_RECONCILED
360
2B12
  0
DICTIONARY
  5
2B13
330
2959
100
AcDbDictionary
280
     1
281
     1
  3
ADSK_XREC_LAYER_RECONCILED
360
2B14
  0
DICTIONARY
  5
2B15
330
2938
100
AcDbDictionary
280
     1
281
     1
  3
ACAD_INDEX
360
2B16
  0
DICTIONARY
  5
2B2F
102
{ACAD_REACTORS
330
28D0
102
}
330
28D0
100
AcDbDictionary
281
     1
  3
DIMARCSYM
350
2B30
  3
DIMLTEX1
350
2B32
  3
DIMLTEX2
350
2B33
  3
DIMLTYPE
350
2B31
  0
DICTIONARY
  5
292E
102
{ACAD_REACTORS
330
28D0
102
}
330
28D0
100
AcDbDictionary
281
     1
  0
DICTIONARY
  5
28D1
102
{ACAD_REACTORS
330
28D0
102
}
330
28D0
100
AcDbDictionary
281
     1
  0
DICTIONARY
  5
292D
102
{ACAD_REACTORS
330
28D0
102
}
330
28D0
100
AcDbDictionary
281
     1
  3
Model
350
293B
  3
レイアウト1
350
2937
  0
DICTIONARY
  5
28D4
102
{ACAD_REACTORS
330
28D0
102
}
330
28D0
100
AcDbDictionary
281
     1
  3
ByBlock
350
28DD
  3
ByLayer
350
28D5
  3
Global
350
28E5
  0
DICTIONARY
  5
2931
102
{ACAD_REACTORS
330
28D0
102
}
330
28D0
100
AcDbDictionary
281
     1
  3
Standard
350
2932
  0
DICTIONARY
  5
292A
102
{ACAD_REACTORS
330
28D0
102
}
330
28D0
100
AcDbDictionary
281
     1
  3
Standard
350
292B
  0
DICTIONARY
  5
292C
102
{ACAD_REACTORS
330
28D0
102
}
330
28D0
100
AcDbDictionary
281
     1
  0
ACDBDICTIONARYWDFLT
  5
28D2
102
{ACAD_REACTORS
330
28D0
102
}
330
28D0
100
AcDbDictionary
281
     1
  3
Normal
350
28D3
100
AcDbDictionaryWithDefault
340
28D3
  0
DICTIONARY
  5
28FE
102
{ACAD_REACTORS
330
28D0
102
}
330
28D0
100
AcDbDictionary
281
     1
  3
A0
350
28FF
  3
A1
350
2900
  3
A2
350
2901
  3
A3
350
2902
  3
A4
350
2903
  3
A5
350
2904
  3
A6
350
2905
  3
A7
350
2906
  3
A8
350
2907
  3
A9
350
2908
  3
B0
350
2909
  3
B1
350
290A
  3
B2
350
290B
  3
B3
350
290C
  3
B4
350
290D
  3
B5
350
290E
  3
B6
350
290F
  3
B7
350
2910
  3
B8
350
2911
  3
B9
350
2912
  3
C0
350
2913
  3
C1
350
2914
  3
C2
350
2915
  3
C3
350
2916
  3
C4
350
2917
  3
C5
350
2918
  3
C6
350
2919
  3
C7
350
291A
  3
C8
350
291B
  3
C9
350
291C
  3
D0
350
291D
  3
D1
350
291E
  3
D2
350
291F
  0
DICTIONARY
  5
292F
102
{ACAD_REACTORS
330
28D0
102
}
330
28D0
100
AcDbDictionary
281
     1
  3
Standard
350
2930
  0
DICTIONARY
  5
28ED
102
{ACAD_REACTORS
330
28D0
102
}
330
28D0
100
AcDbDictionary
281
     1
  3
2dWireframe
350
28F3
  3
3D Hidden
350
28F5
  3
3dWireframe
350
28F4
  3
Basic
350
28F2
  3
Brighten
350
28F9
  3
ColorChange
350
28FD
  3
Conceptual
350
28F6
  3
Dim
350
28F8
  3
Facepattern
350
28FC
  3
Flat
350
28EE
  3
FlatWithEdges
350
28EF
  3
Gouraud
350
28F0
  3
GouraudWithEdges
350
28F1
  3
Linepattern
350
28FB
  3
Realistic
350
28F7
  3
Thicken
350
28FA
  0
XRECORD
  5
2B2D
102
{ACAD_REACTORS
330
28D0
102
}
330
28D0
100
AcDbXrecord
280
     1
 90
        1
330
2930
  0
DICTIONARY
  5
2B24
102
{ACAD_REACTORS
330
28D0
102
}
330
28D0
100
AcDbDictionary
281
     1
  3
CANNOSCALE
350
2B27
  3
CMLEADERSTYLE
350
2B26
  3
CTABLESTYLE
350
2B25
  3
DIMASSOC
350
2B2A
  3
INDEXCTL
350
2B29
  3
SORTENTS
350
2B28
  0
DICTIONARY
  5
2AD0
102
{ACAD_REACTORS
330
28D0
102
}
330
28D0
100
AcDbDictionary
281
     1
  3
AcmStdDictionary
350
2ADE
  0
DICTIONARY
  5
2A1D
102
{ACAD_REACTORS
330
28D0
102
}
330
28D0
100
AcDbDictionary
281
     1
  3
AcMgSettings
350
2A1E
  0
DICTIONARY
  5
2AF8
102
{ACAD_REACTORS
330
28D0
102
}
330
28D0
100
AcDbDictionary
281
     1
  3
DIMENSION
350
2AFD
  3
FEA
350
2AFC
  3
HATCH (1)
350
2AF9
  3
HATCH (2)
350
2AFA
  3
SIMPLE WELD
350
2AFE
  3
SYMBOLS
350
2AFB
  0
XRECORD
  5
2B2E
102
{ACAD_REACTORS
330
28D0
102
}
330
28D0
100
AcDbXrecord
280
     1
  1
DWGPROPS COOKIE
  2

  3

  4

  6

  7

  8
A090053
  9

300
AmdtFileType=84
301
=
302
=
303
=
304
=
305
=
306
=
307
=
308
=
309
=
 40
1.039963680555555
 41
2452321.396199653
 42
2456211.589736748
  1

 90
        1
  0
XRECORD
  5
2B00
102
{ACAD_REACTORS
330
2AFF
102
}
330
2AFF
100
AcDbXrecord
280
     1
290
     1
  0
XRECORD
  5
2B02
102
{ACAD_REACTORS
330
2B01
102
}
330
2B01
100
AcDbXrecord
280
     1
290
     1
  0
XRECORD
  5
2B04
102
{ACAD_REACTORS
330
2B03
102
}
330
2B03
100
AcDbXrecord
280
     1
290
     1
  0
XRECORD
  5
2B06
102
{ACAD_REACTORS
330
2B05
102
}
330
2B05
100
AcDbXrecord
280
     1
290
     1
  0
XRECORD
  5
2B08
102
{ACAD_REACTORS
330
2B07
102
}
330
2B07
100
AcDbXrecord
280
     1
290
     1
  0
XRECORD
  5
2B0A
102
{ACAD_REACTORS
330
2B09
102
}
330
2B09
100
AcDbXrecord
280
     1
290
     1
  0
XRECORD
  5
2B0C
102
{ACAD_REACTORS
330
2B0B
102
}
330
2B0B
100
AcDbXrecord
280
     1
290
     1
  0
XRECORD
  5
2B0E
102
{ACAD_REACTORS
330
2B0D
102
}
330
2B0D
100
AcDbXrecord
280
     1
290
     1
  0
XRECORD
  5
2B10
102
{ACAD_REACTORS
330
2B0F
102
}
330
2B0F
100
AcDbXrecord
280
     1
290
     1
  0
XRECORD
  5
2B12
102
{ACAD_REACTORS
330
2B11
102
}
330
2B11
100
AcDbXrecord
280
     1
290
     1
  0
XRECORD
  5
2B14
102
{ACAD_REACTORS
330
2B13
102
}
330
2B13
100
AcDbXrecord
280
     1
290
     1
  0
DICTIONARY
  5
2B16
102
{ACAD_REACTORS
330
2B15
102
}
330
2B15
100
AcDbDictionary
281
     1
  3
*A1
350
2B17
  0
XRECORD
  5
2B30
102
{ACAD_REACTORS
330
2B2F
102
}
330
2B2F
100
AcDbXrecord
280
     1
 70
     1
  0
XRECORD
  5
2B32
102
{ACAD_REACTORS
330
2B2F
102
}
330
2B2F
100
AcDbXrecord
280
     1
340
2926
  0
XRECORD
  5
2B33
102
{ACAD_REACTORS
330
2B2F
102
}
330
2B2F
100
AcDbXrecord
280
     1
340
2926
  0
XRECORD
  5
2B31
102
{ACAD_REACTORS
330
2B2F
102
}
330
2B2F
100
AcDbXrecord
280
     1
340
2926
  0
LAYOUT
  5
293B
102
{ACAD_XDICTIONARY
360
2B3A
102
}
102
{ACAD_REACTORS
330
292D
102
}
330
292D
100
AcDbPlotSettings
  1

  2
自動 EPSON LP-9600S (W2450527 上)
  4

  6

 40
0.0
 41
0.0
 42
0.0
 43
0.0
 44
0.0
 45
0.0
 46
0.0
 47
0.0
 48
0.0
 49
0.0
140
0.0
141
0.0
142
1.0
143
1.0
 70
  1712
 72
     0
 73
     0
 74
     0
  7

 75
     0
147
1.0
148
0.0
149
0.0
100
AcDbLayout
  1
Model
 70
     1
 71
     0
 10
0.0
 20
0.0
 11
12.0
 21
9.0
 12
0.0
 22
0.0
 32
0.0
 14
0.0
 24
0.0
 34
0.0
 15
0.0
 25
0.0
 35
0.0
146
0.0
 13
0.0
 23
0.0
 33
0.0
 16
1.0
 26
0.0
 36
0.0
 17
0.0
 27
1.0
 37
0.0
 76
     0
330
2938
331
293C
  0
LAYOUT
  5
2937
102
{ACAD_XDICTIONARY
360
2B38
102
}
102
{ACAD_REACTORS
330
292D
102
}
330
292D
100
AcDbPlotSettings
  1

  2
自動 EPSON LP-9600S (W2450527 上)
  4

  6

 40
0.0
 41
0.0
 42
0.0
 43
0.0
 44
0.0
 45
0.0
 46
0.0
 47
0.0
 48
0.0
 49
0.0
140
0.0
141
0.0
142
1.0
143
1.0
 70
   688
 72
     0
 73
     0
 74
     5
  7

 75
    16
147
1.0
148
0.0
149
0.0
100
AcDbLayout
  1
レイアウト1
 70
     1
 71
     1
 10
0.0
 20
0.0
 11
12.0
 21
9.0
 12
0.0
 22
0.0
 32
0.0
 14
1.000000000000000E+20
 24
1.000000000000000E+20
 34
1.000000000000000E+20
 15
-1.000000000000000E+20
 25
-1.000000000000000E+20
 35
-1.000000000000000E+20
146
0.0
 13
0.0
 23
0.0
 33
0.0
 16
1.0
 26
0.0
 36
0.0
 17
0.0
 27
1.0
 37
0.0
 76
     0
330
2934
  0
MATERIAL
  5
28DD
102
{ACAD_XDICTIONARY
360
28DE
102
}
102
{ACAD_REACTORS
330
28D4
102
}
330
28D4
100
AcDbMaterial
  1
ByBlock
 72
     0
 43
0.0208333333333333
 43
0.0
 43
0.0
 43
0.0
 43
0.0
 43
0.0208333333333333
 43
0.0
 43
0.0
 43
0.0
 43
0.0
 43
1.0
 43
0.0
 43
0.0
 43
0.0
 43
0.0
 43
1.0
 77
     0
 47
0.0208333333333333
 47
0.0
 47
0.0
 47
0.0
 47
0.0
 47
0.0208333333333333
 47
0.0
 47
0.0
 47
0.0
 47
0.0
 47
1.0
 47
0.0
 47
0.0
 47
0.0
 47
0.0
 47
1.0
171
     0
 49
0.0208333333333333
 49
0.0
 49
0.0
 49
0.0
 49
0.0
 49
0.0208333333333333
 49
0.0
 49
0.0
 49
0.0
 49
0.0
 49
1.0
 49
0.0
 49
0.0
 49
0.0
 49
0.0
 49
1.0
175
     0
142
0.0208333333333333
142
0.0
142
0.0
142
0.0
142
0.0
142
0.0208333333333333
142
0.0
142
0.0
142
0.0
142
0.0
142
1.0
142
0.0
142
0.0
142
0.0
142
0.0
142
1.0
179
     0
144
0.0208333333333333
144
0.0
144
0.0
144
0.0
144
0.0
144
0.0208333333333333
144
0.0
144
0.0
144
0.0
144
0.0
144
1.0
144
0.0
144
0.0
144
0.0
144
0.0
144
1.0
147
0.0208333333333333
147
0.0
147
0.0
147
0.0
147
0.0
147
0.0208333333333333
147
0.0
147
0.0
147
0.0
147
0.0
147
1.0
147
0.0
147
0.0
147
0.0
147
0.0
147
1.0
  0
MATERIAL
  5
28D5
102
{ACAD_XDICTIONARY
360
28D6
102
}
102
{ACAD_REACTORS
330
28D4
102
}
330
28D4
100
AcDbMaterial
  1
ByLayer
 72
     0
 43
0.0208333333333333
 43
0.0
 43
0.0
 43
0.0
 43
0.0
 43
0.0208333333333333
 43
0.0
 43
0.0
 43
0.0
 43
0.0
 43
1.0
 43
0.0
 43
0.0
 43
0.0
 43
0.0
 43
1.0
 77
     0
 47
0.0208333333333333
 47
0.0
 47
0.0
 47
0.0
 47
0.0
 47
0.0208333333333333
 47
0.0
 47
0.0
 47
0.0
 47
0.0
 47
1.0
 47
0.0
 47
0.0
 47
0.0
 47
0.0
 47
1.0
171
     0
 49
0.0208333333333333
 49
0.0
 49
0.0
 49
0.0
 49
0.0
 49
0.0208333333333333
 49
0.0
 49
0.0
 49
0.0
 49
0.0
 49
1.0
 49
0.0
 49
0.0
 49
0.0
 49
0.0
 49
1.0
175
     0
142
0.0208333333333333
142
0.0
142
0.0
142
0.0
142
0.0
142
0.0208333333333333
142
0.0
142
0.0
142
0.0
142
0.0
142
1.0
142
0.0
142
0.0
142
0.0
142
0.0
142
1.0
179
     0
144
0.0208333333333333
144
0.0
144
0.0
144
0.0
144
0.0
144
0.0208333333333333
144
0.0
144
0.0
144
0.0
144
0.0
144
1.0
144
0.0
144
0.0
144
0.0
144
0.0
144
1.0
147
0.0208333333333333
147
0.0
147
0.0
147
0.0
147
0.0
147
0.0208333333333333
147
0.0
147
0.0
147
0.0
147
0.0
147
1.0
147
0.0
147
0.0
147
0.0
147
0.0
147
1.0
  0
MATERIAL
  5
28E5
102
{ACAD_XDICTIONARY
360
28E6
102
}
102
{ACAD_REACTORS
330
28D4
102
}
330
28D4
100
AcDbMaterial
  1
Global
 72
     0
 43
0.0208333333333333
 43
0.0
 43
0.0
 43
0.0
 43
0.0
 43
0.0208333333333333
 43
0.0
 43
0.0
 43
0.0
 43
0.0
 43
1.0
 43
0.0
 43
0.0
 43
0.0
 43
0.0
 43
1.0
 77
     0
 47
0.0208333333333333
 47
0.0
 47
0.0
 47
0.0
 47
0.0
 47
0.0208333333333333
 47
0.0
 47
0.0
 47
0.0
 47
0.0
 47
1.0
 47
0.0
 47
0.0
 47
0.0
 47
0.0
 47
1.0
171
     0
 49
0.0208333333333333
 49
0.0
 49
0.0
 49
0.0
 49
0.0
 49
0.0208333333333333
 49
0.0
 49
0.0
 49
0.0
 49
0.0
 49
1.0
 49
0.0
 49
0.0
 49
0.0
 49
0.0
 49
1.0
175
     0
142
0.0208333333333333
142
0.0
142
0.0
142
0.0
142
0.0
142
0.0208333333333333
142
0.0
142
0.0
142
0.0
142
0.0
142
1.0
142
0.0
142
0.0
142
0.0
142
0.0
142
1.0
179
     0
144
0.0208333333333333
144
0.0
144
0.0
144
0.0
144
0.0
144
0.0208333333333333
144
0.0
144
0.0
144
0.0
144
0.0
144
1.0
144
0.0
144
0.0
144
0.0
144
0.0
144
1.0
147
0.0208333333333333
147
0.0
147
0.0
147
0.0
147
0.0
147
0.0208333333333333
147
0.0
147
0.0
147
0.0
147
0.0
147
1.0
147
0.0
147
0.0
147
0.0
147
0.0
147
1.0
  0
MLEADERSTYLE
  5
2932
102
{ACAD_REACTORS
330
2931
102
}
330
2931
100
AcDbMLeaderStyle
170
     2
171
     1
172
     0
 90
        2
 40
0.0
 41
0.0
173
     1
 91
-1056964608
340
2926
 92
       -2
290
     1
 42
0.09
291
     1
 43
0.36
  3
Standard
 44
0.18
300

342
2921
174
     1
178
     6
175
     1
176
     0
 93
-1056964608
 45
0.18
292
     0
297
     0
 46
0.18
 94
-1056964608
 47
1.0
 49
1.0
140
1.0
293
     1
141
0.0
294
     1
177
     0
142
1.0
295
     0
296
     0
143
0.125
1001
ACAD_MLEADERVER
1070
     2
  0
MLINESTYLE
  5
292B
102
{ACAD_REACTORS
330
292A
102
}
330
292A
100
AcDbMlineStyle
  2
STANDARD
 70
     0
  3

 62
   256
 51
90.0
 52
90.0
 71
     2
 49
0.5
 62
   256
  6
BYLAYER
 49
-0.5
 62
   256
  6
BYLAYER
  0
ACDBPLACEHOLDER
  5
28D3
102
{ACAD_REACTORS
330
28D2
102
}
330
28D2
  0
SCALE
  5
28FF
102
{ACAD_REACTORS
330
28FE
102
}
330
28FE
100
AcDbScale
 70
     0
300
1:1
140
1.0
141
1.0
290
     1
  0
SCALE
  5
2900
102
{ACAD_REACTORS
330
28FE
102
}
330
28FE
100
AcDbScale
 70
     0
300
1:2
140
1.0
141
2.0
290
     0
  0
SCALE
  5
2901
102
{ACAD_REACTORS
330
28FE
102
}
330
28FE
100
AcDbScale
 70
     0
300
1:4
140
1.0
141
4.0
290
     0
  0
SCALE
  5
2902
102
{ACAD_REACTORS
330
28FE
102
}
330
28FE
100
AcDbScale
 70
     0
300
1:5
140
1.0
141
5.0
290
     0
  0
SCALE
  5
2903
102
{ACAD_REACTORS
330
28FE
102
}
330
28FE
100
AcDbScale
 70
     0
300
1:8
140
1.0
141
8.0
290
     0
  0
SCALE
  5
2904
102
{ACAD_REACTORS
330
28FE
102
}
330
28FE
100
AcDbScale
 70
     0
300
1:10
140
1.0
141
10.0
290
     0
  0
SCALE
  5
2905
102
{ACAD_REACTORS
330
28FE
102
}
330
28FE
100
AcDbScale
 70
     0
300
1:16
140
1.0
141
16.0
290
     0
  0
SCALE
  5
2906
102
{ACAD_REACTORS
330
28FE
102
}
330
28FE
100
AcDbScale
 70
     0
300
1:20
140
1.0
141
20.0
290
     0
  0
SCALE
  5
2907
102
{ACAD_REACTORS
330
28FE
102
}
330
28FE
100
AcDbScale
 70
     0
300
1:30
140
1.0
141
30.0
290
     0
  0
SCALE
  5
2908
102
{ACAD_REACTORS
330
28FE
102
}
330
28FE
100
AcDbScale
 70
     0
300
1:40
140
1.0
141
40.0
290
     0
  0
SCALE
  5
2909
102
{ACAD_REACTORS
330
28FE
102
}
330
28FE
100
AcDbScale
 70
     0
300
1:50
140
1.0
141
50.0
290
     0
  0
SCALE
  5
290A
102
{ACAD_REACTORS
330
28FE
102
}
330
28FE
100
AcDbScale
 70
     0
300
1:100
140
1.0
141
100.0
290
     0
  0
SCALE
  5
290B
102
{ACAD_REACTORS
330
28FE
102
}
330
28FE
100
AcDbScale
 70
     0
300
2:1
140
2.0
141
1.0
290
     0
  0
SCALE
  5
290C
102
{ACAD_REACTORS
330
28FE
102
}
330
28FE
100
AcDbScale
 70
     0
300
4:1
140
4.0
141
1.0
290
     0
  0
SCALE
  5
290D
102
{ACAD_REACTORS
330
28FE
102
}
330
28FE
100
AcDbScale
 70
     0
300
8:1
140
8.0
141
1.0
290
     0
  0
SCALE
  5
290E
102
{ACAD_REACTORS
330
28FE
102
}
330
28FE
100
AcDbScale
 70
     0
300
10:1
140
10.0
141
1.0
290
     0
  0
SCALE
  5
290F
102
{ACAD_REACTORS
330
28FE
102
}
330
28FE
100
AcDbScale
 70
     0
300
100:1
140
100.0
141
1.0
290
     0
  0
SCALE
  5
2910
102
{ACAD_REACTORS
330
28FE
102
}
330
28FE
100
AcDbScale
 70
     0
300
1/128" = 1'-0"
140
0.0078125
141
12.0
290
     0
  0
SCALE
  5
2911
102
{ACAD_REACTORS
330
28FE
102
}
330
28FE
100
AcDbScale
 70
     0
300
1/64" = 1'-0"
140
0.015625
141
12.0
290
     0
  0
SCALE
  5
2912
102
{ACAD_REACTORS
330
28FE
102
}
330
28FE
100
AcDbScale
 70
     0
300
1/32" = 1'-0"
140
0.03125
141
12.0
290
     0
  0
SCALE
  5
2913
102
{ACAD_REACTORS
330
28FE
102
}
330
28FE
100
AcDbScale
 70
     0
300
1/16" = 1'-0"
140
0.0625
141
12.0
290
     0
  0
SCALE
  5
2914
102
{ACAD_REACTORS
330
28FE
102
}
330
28FE
100
AcDbScale
 70
     0
300
3/32" = 1'-0"
140
0.09375
141
12.0
290
     0
  0
SCALE
  5
2915
102
{ACAD_REACTORS
330
28FE
102
}
330
28FE
100
AcDbScale
 70
     0
300
1/8" = 1'-0"
140
0.125
141
12.0
290
     0
  0
SCALE
  5
2916
102
{ACAD_REACTORS
330
28FE
102
}
330
28FE
100
AcDbScale
 70
     0
300
3/16" = 1'-0"
140
0.1875
141
12.0
290
     0
  0
SCALE
  5
2917
102
{ACAD_REACTORS
330
28FE
102
}
330
28FE
100
AcDbScale
 70
     0
300
1/4" = 1'-0"
140
0.25
141
12.0
290
     0
  0
SCALE
  5
2918
102
{ACAD_REACTORS
330
28FE
102
}
330
28FE
100
AcDbScale
 70
     0
300
3/8" = 1'-0"
140
0.375
141
12.0
290
     0
  0
SCALE
  5
2919
102
{ACAD_REACTORS
330
28FE
102
}
330
28FE
100
AcDbScale
 70
     0
300
1/2" = 1'-0"
140
0.5
141
12.0
290
     0
  0
SCALE
  5
291A
102
{ACAD_REACTORS
330
28FE
102
}
330
28FE
100
AcDbScale
 70
     0
300
3/4" = 1'-0"
140
0.75
141
12.0
290
     0
  0
SCALE
  5
291B
102
{ACAD_REACTORS
330
28FE
102
}
330
28FE
100
AcDbScale
 70
     0
300
1" = 1'-0"
140
1.0
141
12.0
290
     0
  0
SCALE
  5
291C
102
{ACAD_REACTORS
330
28FE
102
}
330
28FE
100
AcDbScale
 70
     0
300
1-1/2" = 1'-0"
140
1.5
141
12.0
290
     0
  0
SCALE
  5
291D
102
{ACAD_REACTORS
330
28FE
102
}
330
28FE
100
AcDbScale
 70
     0
300
3" = 1'-0"
140
3.0
141
12.0
290
     0
  0
SCALE
  5
291E
102
{ACAD_REACTORS
330
28FE
102
}
330
28FE
100
AcDbScale
 70
     0
300
6" = 1'-0"
140
6.0
141
12.0
290
     0
  0
SCALE
  5
291F
102
{ACAD_REACTORS
330
28FE
102
}
330
28FE
100
AcDbScale
 70
     0
300
1'-0" = 1'-0"
140
12.0
141
12.0
290
     0
  0
TABLESTYLE
  5
2930
102
{ACAD_XDICTIONARY
360
2B2B
102
}
102
{ACAD_REACTORS
330
292F
102
}
330
292F
100
AcDbTableStyle
  3
Standard
 70
     0
 71
     0
 40
0.06
 41
0.06
280
     0
281
     0
  7
STANDARD
140
0.18
170
     2
 62
     0
 63
     7
283
     0
274
    -2
284
     1
 64
     0
275
    -2
285
     1
 65
     0
276
    -2
286
     1
 66
     0
277
    -2
287
     1
 67
     0
278
    -2
288
     1
 68
     0
279
    -2
289
     1
 69
     0
  7
STANDARD
140
0.25
170
     5
 62
     0
 63
     7
283
     0
274
    -2
284
     1
 64
     0
275
    -2
285
     1
 65
     0
276
    -2
286
     1
 66
     0
277
    -2
287
     1
 67
     0
278
    -2
288
     1
 68
     0
279
    -2
289
     1
 69
     0
  7
STANDARD
140
0.18
170
     5
 62
     0
 63
     7
283
     0
274
    -2
284
     1
 64
     0
275
    -2
285
     1
 65
     0
276
    -2
286
     1
 66
     0
277
    -2
287
     1
 67
     0
278
    -2
288
     1
 68
     0
279
    -2
289
     1
 69
     0
  0
VISUALSTYLE
  5
28F3
102
{ACAD_REACTORS
330
28ED
102
}
330
28ED
100
AcDbVisualStyle
  2
2dWireframe
 70
     4
 71
     0
 72
     2
 73
     0
 90
        0
 40
-0.6
 41
-30.0
 62
     5
 63
     7
 74
     1
 91
        4
 64
     7
 65
   257
 75
     1
175
     1
 42
1.0
 92
        0
 66
   257
 43
1.0
 76
     1
 77
     6
 78
     2
 67
     7
 79
     5
170
     0
171
     0
290
     0
174
     0
 93
        1
 44
0.0
173
     0
291
     0
 45
0.0
1001
ACAD
1000
AcDbSavedByObjectVersion
1070
     0
  0
VISUALSTYLE
  5
28F5
102
{ACAD_REACTORS
330
28ED
102
}
330
28ED
100
AcDbVisualStyle
  2
3D Hidden
 70
     6
 71
     1
 72
     2
 73
     2
 90
        0
 40
-0.6
 41
-30.0
 62
     5
 63
     7
 74
     2
 91
        2
 64
     7
 65
   257
 75
     2
175
     1
 42
40.0
 92
        0
 66
   257
 43
1.0
 76
     1
 77
     6
 78
     2
 67
     7
 79
     3
170
     0
171
     0
290
     0
174
     0
 93
        1
 44
0.0
173
     0
291
     0
 45
0.0
1001
ACAD
1000
AcDbSavedByObjectVersion
1070
     0
  0
VISUALSTYLE
  5
28F4
102
{ACAD_REACTORS
330
28ED
102
}
330
28ED
100
AcDbVisualStyle
  2
3dWireframe
 70
     5
 71
     0
 72
     2
 73
     0
 90
        0
 40
-0.6
 41
-30.0
 62
     5
 63
     7
 74
     1
 91
        4
 64
     7
 65
   257
 75
     1
175
     1
 42
1.0
 92
        0
 66
   257
 43
1.0
 76
     1
 77
     6
 78
     2
 67
     7
 79
     5
170
     0
171
     0
290
     0
174
     0
 93
        1
 44
0.0
173
     0
291
     0
 45
0.0
1001
ACAD
1000
AcDbSavedByObjectVersion
1070
     0
  0
VISUALSTYLE
  5
28F2
102
{ACAD_REACTORS
330
28ED
102
}
330
28ED
100
AcDbVisualStyle
  2
Basic
 70
     7
 71
     1
 72
     0
 73
     1
 90
        0
 40
-0.6
 41
-30.0
 62
     5
 63
     7
 74
     0
 91
        4
 64
     7
 65
   257
 75
     1
175
     1
 42
1.0
 92
        8
 66
     7
 43
1.0
 76
     1
 77
     6
 78
     2
 67
     7
 79
     5
170
     0
171
     0
290
     0
174
     0
 93
        1
 44
0.0
173
     0
291
     1
 45
0.0
1001
ACAD
1000
AcDbSavedByObjectVersion
1070
     0
  0
VISUALSTYLE
  5
28F9
102
{ACAD_REACTORS
330
28ED
102
}
330
28ED
100
AcDbVisualStyle
  2
Brighten
 70
    12
 71
     2
 72
     2
 73
     0
 90
        0
 40
-0.6
 41
-30.0
 62
     5
 63
     7
 74
     1
 91
        4
 64
     7
 65
   257
 75
     1
175
     1
 42
1.0
 92
        8
 66
     7
 43
1.0
 76
     1
 77
     6
 78
     2
 67
     7
 79
     5
170
     0
171
     0
290
     0
174
     0
 93
        1
 44
50.0
173
     0
291
     1
 45
0.0
1001
ACAD
1000
AcDbSavedByObjectVersion
1070
     0
  0
VISUALSTYLE
  5
28FD
102
{ACAD_REACTORS
330
28ED
102
}
330
28ED
100
AcDbVisualStyle
  2
ColorChange
 70
    16
 71
     2
 72
     2
 73
     3
 90
        0
 40
-0.6
 41
-30.0
 62
     5
 63
     8
 74
     1
 91
        4
 64
     7
 65
   257
 75
     1
175
     1
 42
1.0
 92
        8
 66
     8
 43
1.0
 76
     1
 77
     6
 78
     2
 67
     7
 79
     5
170
     0
171
     0
290
     0
174
     0
 93
        1
 44
0.0
173
     0
291
     1
 45
0.0
1001
ACAD
1000
AcDbSavedByObjectVersion
1070
     0
  0
VISUALSTYLE
  5
28F6
102
{ACAD_REACTORS
330
28ED
102
}
330
28ED
100
AcDbVisualStyle
  2
Conceptual
 70
     9
 71
     3
 72
     2
 73
     0
 90
        0
 40
-0.6
 41
-30.0
 62
     5
 63
     7
 74
     2
 91
        2
 64
     7
 65
   257
 75
     1
175
     1
 42
40.0
 92
        8
 66
     7
 43
1.0
 76
     1
 77
     6
 78
     2
 67
     7
 79
     3
170
     0
171
     0
290
     0
174
     0
 93
        1
 44
0.0
173
     0
291
     0
 45
0.0
1001
ACAD
1000
AcDbSavedByObjectVersion
1070
     0
  0
VISUALSTYLE
  5
28F8
102
{ACAD_REACTORS
330
28ED
102
}
330
28ED
100
AcDbVisualStyle
  2
Dim
 70
    11
 71
     2
 72
     2
 73
     0
 90
        0
 40
-0.6
 41
-30.0
 62
     5
 63
     7
 74
     1
 91
        4
 64
     7
 65
   257
 75
     1
175
     1
 42
1.0
 92
        8
 66
     7
 43
1.0
 76
     1
 77
     6
 78
     2
 67
     7
 79
     5
170
     0
171
     0
290
     0
174
     0
 93
        1
 44
-50.0
173
     0
291
     1
 45
0.0
1001
ACAD
1000
AcDbSavedByObjectVersion
1070
     0
  0
VISUALSTYLE
  5
28FC
102
{ACAD_REACTORS
330
28ED
102
}
330
28ED
100
AcDbVisualStyle
  2
Facepattern
 70
    15
 71
     2
 72
     2
 73
     0
 90
        0
 40
-0.6
 41
-30.0
 62
     5
 63
     7
 74
     1
 91
        4
 64
     7
 65
   257
 75
     1
175
     1
 42
1.0
 92
        8
 66
     7
 43
1.0
 76
     1
 77
     6
 78
     2
 67
     7
 79
     5
170
     0
171
     0
290
     0
174
     0
 93
        1
 44
0.0
173
     0
291
     1
 45
0.0
1001
ACAD
1000
AcDbSavedByObjectVersion
1070
     0
  0
VISUALSTYLE
  5
28EE
102
{ACAD_REACTORS
330
28ED
102
}
330
28ED
100
AcDbVisualStyle
  2
Flat
 70
     0
 71
     2
 72
     1
 73
     1
 90
        2
 40
-0.6
 41
30.0
 62
     5
 63
     7
 74
     0
 91
        4
 64
     7
 65
   257
 75
     1
175
     1
 42
1.0
 92
        8
 66
     7
 43
1.0
 76
     1
 77
     6
 78
     2
 67
     7
 79
     5
170
     0
171
     0
290
     0
174
     0
 93
       13
 44
0.0
173
     0
291
     1
 45
0.0
1001
ACAD
1000
AcDbSavedByObjectVersion
1070
     0
  0
VISUALSTYLE
  5
28EF
102
{ACAD_REACTORS
330
28ED
102
}
330
28ED
100
AcDbVisualStyle
  2
FlatWithEdges
 70
     1
 71
     2
 72
     1
 73
     1
 90
        2
 40
-0.6
 41
30.0
 62
     5
 63
     7
 74
     1
 91
        4
 64
     7
 65
   257
 75
     1
175
     1
 42
1.0
 92
        0
 66
   257
 43
1.0
 76
     1
 77
     6
 78
     2
 67
     7
 79
     5
170
     0
171
     0
290
     0
174
     0
 93
       13
 44
0.0
173
     0
291
     1
 45
0.0
1001
ACAD
1000
AcDbSavedByObjectVersion
1070
     0
  0
VISUALSTYLE
  5
28F0
102
{ACAD_REACTORS
330
28ED
102
}
330
28ED
100
AcDbVisualStyle
  2
Gouraud
 70
     2
 71
     2
 72
     2
 73
     1
 90
        2
 40
-0.6
 41
30.0
 62
     5
 63
     7
 74
     0
 91
        4
 64
     7
 65
   257
 75
     1
175
     1
 42
1.0
 92
        0
 66
     7
 43
1.0
 76
     1
 77
     6
 78
     2
 67
     7
 79
     5
170
     0
171
     0
290
     0
174
     0
 93
       13
 44
0.0
173
     0
291
     1
 45
0.0
1001
ACAD
1000
AcDbSavedByObjectVersion
1070
     0
  0
VISUALSTYLE
  5
28F1
102
{ACAD_REACTORS
330
28ED
102
}
330
28ED
100
AcDbVisualStyle
  2
GouraudWithEdges
 70
     3
 71
     2
 72
     2
 73
     1
 90
        2
 40
-0.6
 41
30.0
 62
     5
 63
     7
 74
     1
 91
        4
 64
     7
 65
   257
 75
     1
175
     1
 42
1.0
 92
        0
 66
   257
 43
1.0
 76
     1
 77
     6
 78
     2
 67
     7
 79
     5
170
     0
171
     0
290
     0
174
     0
 93
       13
 44
0.0
173
     0
291
     1
 45
0.0
1001
ACAD
1000
AcDbSavedByObjectVersion
1070
     0
  0
VISUALSTYLE
  5
28FB
102
{ACAD_REACTORS
330
28ED
102
}
330
28ED
100
AcDbVisualStyle
  2
Linepattern
 70
    14
 71
     2
 72
     2
 73
     0
 90
        0
 40
-0.6
 41
-30.0
 62
     5
 63
     7
 74
     1
 91
        4
 64
     7
 65
   257
 75
     7
175
     7
 42
1.0
 92
        8
 66
     7
 43
1.0
 76
     1
 77
     6
 78
     2
 67
     7
 79
     5
170
     0
171
     0
290
     0
174
     0
 93
        1
 44
0.0
173
     0
291
     1
 45
0.0
1001
ACAD
1000
AcDbSavedByObjectVersion
1070
     0
  0
VISUALSTYLE
  5
28F7
102
{ACAD_REACTORS
330
28ED
102
}
330
28ED
100
AcDbVisualStyle
  2
Realistic
 70
     8
 71
     2
 72
     2
 73
     0
 90
        0
 40
-0.6
 41
-30.0
 62
     5
 63
     7
 74
     1
 91
        0
 64
     7
 65
   257
 75
     1
175
     1
 42
1.0
 92
        8
 66
     8
 43
1.0
 76
     1
 77
     6
 78
     2
 67
     7
 79
     5
170
     0
171
     0
290
     0
174
     0
 93
       13
 44
0.0
173
     0
291
     0
 45
0.0
1001
ACAD
1000
AcDbSavedByObjectVersion
1070
     0
  0
VISUALSTYLE
  5
28FA
102
{ACAD_REACTORS
330
28ED
102
}
330
28ED
100
AcDbVisualStyle
  2
Thicken
 70
    13
 71
     2
 72
     2
 73
     0
 90
        0
 40
-0.6
 41
-30.0
 62
     5
 63
     7
 74
     1
 91
        4
 64
     7
 65
   257
 75
     1
175
     1
 42
1.0
 92
       12
 66
     7
 43
1.0
 76
     1
 77
     6
 78
     2
 67
     7
 79
     5
170
     0
171
     0
290
     0
174
     0
 93
        1
 44
0.0
173
     0
291
     1
 45
0.0
1001
ACAD
1000
AcDbSavedByObjectVersion
1070
     0
  0
DICTIONARYVAR
  5
2B27
102
{ACAD_REACTORS
330
2B24
102
}
330
2B24
100
DictionaryVariables
280
     0
  1
1:1
  0
DICTIONARYVAR
  5
2B26
102
{ACAD_REACTORS
330
2B24
102
}
330
2B24
100
DictionaryVariables
280
     0
  1
STANDARD
  0
DICTIONARYVAR
  5
2B25
102
{ACAD_REACTORS
330
2B24
102
}
330
2B24
100
DictionaryVariables
280
     0
  1
STANDARD
  0
DICTIONARYVAR
  5
2B2A
102
{ACAD_REACTORS
330
2B24
102
}
330
2B24
100
DictionaryVariables
280
     0
  1
1
  0
DICTIONARYVAR
  5
2B29
102
{ACAD_REACTORS
330
2B24
102
}
330
2B24
100
DictionaryVariables
280
     0
  1
1
  0
DICTIONARYVAR
  5
2B28
102
{ACAD_REACTORS
330
2B24
102
}
330
2B24
100
DictionaryVariables
280
     0
  1
127
  0
DICTIONARY
  5
2ADE
102
{ACAD_REACTORS
330
2AD0
102
}
330
2AD0
100
AcDbDictionary
281
     1
  0
DICTIONARY
  5
2A1E
102
{ACAD_REACTORS
330
2A1D
102
}
330
2A1D
100
AcDbDictionary
281
     1
  3
DWGSETTINGS
350
2A1F
  3
TRANSSETTINGS
350
2A20
  0
ACAMGFILTERDAT
  5
2AFD
102
{ACAD_REACTORS
330
2AF8
102
}
330
2AF8
100
AcAmgFilterDat
 70
    15
  1
DIMENSION,AMDT_*_DIM
  2
*
  3
*
  4
*
  5
*
290
     1
  0
ACAMGFILTERDAT
  5
2AFC
102
{ACAD_REACTORS
330
2AF8
102
}
330
2AF8
100
AcAmgFilterDat
 70
    15
  1
*
  2
AM_FEA-AM_*
  3
*
  4
*
  5
*
290
     1
  0
ACAMGFILTERDAT
  5
2AF9
102
{ACAD_REACTORS
330
2AF8
102
}
330
2AF8
100
AcAmgFilterDat
 70
    15
  1
HATCH
  2
*
  3
*
  4
*
  5
*
290
     1
  0
ACAMGFILTERDAT
  5
2AFA
102
{ACAD_REACTORS
330
2AF8
102
}
330
2AF8
100
AcAmgFilterDat
 70
    15
  1
LINE
  2
8,8N,*-8,*-8N,AM_8,AM_8N,*-AM_8,*-AM_8N
  3
*
  4
*
  5
INSERT,STDPART2D
290
     1
  0
ACAMGFILTERDAT
  5
2AFE
102
{ACAD_REACTORS
330
2AF8
102
}
330
2AF8
100
AcAmgFilterDat
 70
    15
  1
ARC
  2
AM_5
  3
*
  4
2
  5
INSERT
290
     0
  0
ACAMGFILTERDAT
  5
2AFB
102
{ACAD_REACTORS
330
2AF8
102
}
330
2AF8
100
AcAmgFilterDat
 70
    15
  1
ACMFCFRAME,ACMDATUMTARGET,ACMDATUMID,ACMWELDSYM,ACMSURFSYM,ACMFEATID,ACMPARTREF,ACMBALLOON,AMDTEDGESYM,AMGSCREWCALCTABLE,ACMMARKSTAMP
  2
*
  3
*
  4
*
  5
*
290
     1
  0
LAYER_INDEX
  5
2B17
102
{ACAD_REACTORS
330
2B16
102
}
330
2B16
100
AcDbIndex
 40
2456211.589736748
100
AcDbLayerIndex
  8
0
360
2B18
 90
        2
  8
OUTLINE
360
2B19
 90
       42
  8
SIZE
360
2B1A
 90
       38
  8
BASIS
360
2B1B
 90
        1
  8
DETAIL
360
2B1C
 90
       44
  8
ARRANGE
360
2B1D
 90
        3
  8
DEFPOINTS
360
2B1E
 90
        0
  8
ETC
360
2B1F
 90
        3
  8
FIX
360
2B20
 90
        0
  8
NOTE
360
2B21
 90
        4
  8
SERVICESPACE
360
2B22
 90
        0
  8
SYMBOLLINE
360
2B23
 90
        0
  0
DICTIONARY
  5
2B3A
330
293B
100
AcDbDictionary
280
     1
281
     1
  3
ACAD_XREC_ROUNDTRIP
360
2B3B
  0
DICTIONARY
  5
2B38
330
2937
100
AcDbDictionary
280
     1
281
     1
  3
ACAD_XREC_ROUNDTRIP
360
2B39
  0
DICTIONARY
  5
28DE
330
28DD
100
AcDbDictionary
280
     1
281
     1
  3
ACAD_XREC_ROUNDTRIP
360
2B35
  3
BUMPTILE
360
28E0
  3
DIFFUSETILE
360
28DF
  3
OPACITYTILE
360
28E3
  3
REFLECTIONTILE
360
28E2
  3
REFRACTIONTILE
360
28E4
  3
SPECULARTILE
360
28E1
  0
DICTIONARY
  5
28D6
330
28D5
100
AcDbDictionary
280
     1
281
     1
  3
ACAD_XREC_ROUNDTRIP
360
2B34
  3
BUMPTILE
360
28D8
  3
DIFFUSETILE
360
28D7
  3
OPACITYTILE
360
28DB
  3
REFLECTIONTILE
360
28DA
  3
REFRACTIONTILE
360
28DC
  3
SPECULARTILE
360
28D9
  0
DICTIONARY
  5
28E6
330
28E5
100
AcDbDictionary
280
     1
281
     1
  3
ACAD_XREC_ROUNDTRIP
360
2B36
  3
BUMPTILE
360
28E8
  3
DIFFUSETILE
360
28E7
  3
OPACITYTILE
360
28EB
  3
REFLECTIONTILE
360
28EA
  3
REFRACTIONTILE
360
28EC
  3
SPECULARTILE
360
28E9
  0
DICTIONARY
  5
2B2B
330
2930
100
AcDbDictionary
280
     1
281
     1
  3
ACAD_ROUNDTRIP_2008_TABLESTYLE_CELLSTYLEMAP
360
2B2C
  3
ACAD_XREC_ROUNDTRIP
360
2B37
  0
IDBUFFER
  5
2B18
330
0
100
AcDbIdBuffer
330
282C
330
282D
  0
IDBUFFER
  5
2B19
330
0
100
AcDbIdBuffer
330
2838
330
2839
330
283A
330
283B
330
283C
330
283D
330
283E
330
283F
330
2840
330
2841
330
2842
330
2843
330
2844
330
2845
330
2846
330
2847
330
2848
330
2849
330
284A
330
284B
330
284C
330
284D
330
284E
330
284F
330
2850
330
2851
330
953
330
954
330
955
330
956
330
957
330
958
330
2805
330
281C
330
2830
330
2831
330
2832
330
2833
330
2834
330
2835
330
2836
330
2837
  0
IDBUFFER
  5
2B1A
330
0
100
AcDbIdBuffer
330
286B
330
286C
330
286D
330
286E
330
286F
330
2870
330
2871
330
2872
330
2873
330
2874
330
2875
330
2876
330
2877
330
2878
330
2879
330
287A
330
287B
330
287C
330
287D
330
287E
330
287F
330
2880
330
2858
330
2859
330
285A
330
285B
330
285C
330
285D
330
285E
330
285F
330
2860
330
2861
330
2862
330
2863
330
2864
330
2865
330
2866
330
2867
  0
IDBUFFER
  5
2B1B
330
0
100
AcDbIdBuffer
330
2810
  0
IDBUFFER
  5
2B1C
330
0
100
AcDbIdBuffer
330
2814
330
2815
330
2816
330
2817
330
2818
330
2819
330
281A
330
281B
330
281D
330
281E
330
281F
330
2820
330
2822
330
2823
330
2824
330
2825
330
2826
330
2827
330
2828
330
2829
330
282A
330
282B
330
2852
330
2853
330
2854
330
2855
330
2856
330
2857
330
27FE
330
27FF
330
2800
330
2801
330
2802
330
2803
330
2804
330
2806
330
2807
330
2808
330
2809
330
280A
330
280B
330
2811
330
2812
330
2813
  0
IDBUFFER
  5
2B1D
330
0
100
AcDbIdBuffer
330
280D
330
280E
330
280F
  0
IDBUFFER
  5
2B1E
330
0
100
AcDbIdBuffer
  0
IDBUFFER
  5
2B1F
330
0
100
AcDbIdBuffer
330
2868
330
2869
330
286A
  0
IDBUFFER
  5
2B20
330
0
100
AcDbIdBuffer
  0
IDBUFFER
  5
2B21
330
0
100
AcDbIdBuffer
330
280C
330
2821
330
282E
330
282F
  0
IDBUFFER
  5
2B22
330
0
100
AcDbIdBuffer
  0
IDBUFFER
  5
2B23
330
0
100
AcDbIdBuffer
  0
XRECORD
  5
2B3B
102
{ACAD_REACTORS
330
2B3A
102
}
330
2B3A
100
AcDbXrecord
280
     1
102
SHADEPLOT
 70
     0
102
SHADEPLOTRESLEVEL
 70
     2
102
SHADEPLOTCUSTOMDPI
 70
   300
  0
XRECORD
  5
2B39
102
{ACAD_REACTORS
330
2B38
102
}
330
2B38
100
AcDbXrecord
280
     1
102
SHADEPLOT
 70
     0
102
SHADEPLOTRESLEVEL
 70
     2
102
SHADEPLOTCUSTOMDPI
 70
   300
  0
XRECORD
  5
2B35
102
{ACAD_REACTORS
330
28DE
102
}
330
28DE
100
AcDbXrecord
280
     1
102
MATERIAL
148
0.0
149
0.0
149
0.0
 93
        0
 94
      127
282
     0
 72
     0
 77
     0
171
     0
175
     0
179
     0
273
     0
  0
XRECORD
  5
28E0
102
{ACAD_REACTORS
330
28DE
102
}
330
28DE
100
AcDbXrecord
280
     1
270
     1
271
     1
  0
XRECORD
  5
28DF
102
{ACAD_REACTORS
330
28DE
102
}
330
28DE
100
AcDbXrecord
280
     1
270
     1
271
     1
  0
XRECORD
  5
28E3
102
{ACAD_REACTORS
330
28DE
102
}
330
28DE
100
AcDbXrecord
280
     1
270
     1
271
     1
  0
XRECORD
  5
28E2
102
{ACAD_REACTORS
330
28DE
102
}
330
28DE
100
AcDbXrecord
280
     1
270
     1
271
     1
  0
XRECORD
  5
28E4
102
{ACAD_REACTORS
330
28DE
102
}
330
28DE
100
AcDbXrecord
280
     1
270
     1
271
     1
  0
XRECORD
  5
28E1
102
{ACAD_REACTORS
330
28DE
102
}
330
28DE
100
AcDbXrecord
280
     1
270
     1
271
     1
  0
XRECORD
  5
2B34
102
{ACAD_REACTORS
330
28D6
102
}
330
28D6
100
AcDbXrecord
280
     1
102
MATERIAL
148
0.0
149
0.0
149
0.0
 93
        0
 94
      127
282
     0
 72
     0
 77
     0
171
     0
175
     0
179
     0
273
     0
  0
XRECORD
  5
28D8
102
{ACAD_REACTORS
330
28D6
102
}
330
28D6
100
AcDbXrecord
280
     1
270
     1
271
     1
  0
XRECORD
  5
28D7
102
{ACAD_REACTORS
330
28D6
102
}
330
28D6
100
AcDbXrecord
280
     1
270
     1
271
     1
  0
XRECORD
  5
28DB
102
{ACAD_REACTORS
330
28D6
102
}
330
28D6
100
AcDbXrecord
280
     1
270
     1
271
     1
  0
XRECORD
  5
28DA
102
{ACAD_REACTORS
330
28D6
102
}
330
28D6
100
AcDbXrecord
280
     1
270
     1
271
     1
  0
XRECORD
  5
28DC
102
{ACAD_REACTORS
330
28D6
102
}
330
28D6
100
AcDbXrecord
280
     1
270
     1
271
     1
  0
XRECORD
  5
28D9
102
{ACAD_REACTORS
330
28D6
102
}
330
28D6
100
AcDbXrecord
280
     1
270
     1
271
     1
  0
XRECORD
  5
2B36
102
{ACAD_REACTORS
330
28E6
102
}
330
28E6
100
AcDbXrecord
280
     1
102
MATERIAL
148
0.0
149
0.0
149
0.0
 93
        0
 94
      127
282
     0
 72
     0
 77
     0
171
     0
175
     0
179
     0
273
     0
  0
XRECORD
  5
28E8
102
{ACAD_REACTORS
330
28E6
102
}
330
28E6
100
AcDbXrecord
280
     1
270
     1
271
     1
  0
XRECORD
  5
28E7
102
{ACAD_REACTORS
330
28E6
102
}
330
28E6
100
AcDbXrecord
280
     1
270
     1
271
     1
  0
XRECORD
  5
28EB
102
{ACAD_REACTORS
330
28E6
102
}
330
28E6
100
AcDbXrecord
280
     1
270
     1
271
     1
  0
XRECORD
  5
28EA
102
{ACAD_REACTORS
330
28E6
102
}
330
28E6
100
AcDbXrecord
280
     1
270
     1
271
     1
  0
XRECORD
  5
28EC
102
{ACAD_REACTORS
330
28E6
102
}
330
28E6
100
AcDbXrecord
280
     1
270
     1
271
     1
  0
XRECORD
  5
28E9
102
{ACAD_REACTORS
330
28E6
102
}
330
28E6
100
AcDbXrecord
280
     1
270
     1
271
     1
  0
CELLSTYLEMAP
  5
2B2C
102
{ACAD_REACTORS
330
2B2B
102
}
330
2B2B
100
AcDbCellStyleMap
 90
        3
300
CELLSTYLE
  1
TABLEFORMAT_BEGIN
 90
        5
170
     1
 91
        0
 92
    32768
 62
   257
 93
        1
300
CONTENTFORMAT
  1
CONTENTFORMAT_BEGIN
 90
        0
 91
        0
 92
      512
 93
        0
300

 40
0.0
140
1.0
 94
        5
 62
     0
340
2921
144
0.25
309
CONTENTFORMAT_END
171
     0
 94
        0
309
TABLEFORMAT_END
  1
CELLSTYLE_BEGIN
 90
        1
 91
        1
300
_TITLE
309
CELLSTYLE_END
300
CELLSTYLE
  1
TABLEFORMAT_BEGIN
 90
        5
170
     1
 91
        0
 92
        0
 62
   257
 93
        1
300
CONTENTFORMAT
  1
CONTENTFORMAT_BEGIN
 90
        0
 91
        0
 92
      512
 93
        0
300

 40
0.0
140
1.0
 94
        5
 62
     0
340
2921
144
0.18
309
CONTENTFORMAT_END
171
     0
 94
        0
309
TABLEFORMAT_END
  1
CELLSTYLE_BEGIN
 90
        2
 91
        1
300
_HEADER
309
CELLSTYLE_END
300
CELLSTYLE
  1
TABLEFORMAT_BEGIN
 90
        5
170
     1
 91
        0
 92
        0
 62
   257
 93
        1
300
CONTENTFORMAT
  1
CONTENTFORMAT_BEGIN
 90
        0
 91
        0
 92
      512
 93
        0
300

 40
0.0
140
1.0
 94
        2
 62
     0
340
2921
144
0.18
309
CONTENTFORMAT_END
171
     0
 94
        0
309
TABLEFORMAT_END
  1
CELLSTYLE_BEGIN
 90
        3
 91
        2
300
_DATA
309
CELLSTYLE_END
  0
XRECORD
  5
2B37
102
{ACAD_REACTORS
330
2B2B
102
}
330
2B2B
100
AcDbXrecord
280
     1
102
ACAD_ROUNDTRIP_PRE2007_TABLESTYLE
 90
      512
 91
        0
  1

 92
      512
 93
        0
  2

 94
      512
 95
        0
  3

  0
ENDSEC
  0
EOF
