  0
SECTION
  2
HEADER
  9
$ACADVER
  1
AC1015
  9
$ACADMAINTVER
 70
    20
  9
$DWGCODEPAGE
  3
ANSI_932
  9
$INSBASE
 10
0.0
 20
0.0
 30
0.0
  9
$EXTMIN
 10
-1077.676375568468
 20
-1096.527088662293
 30
-0.0030516181105611
  9
$EXTMAX
 10
1356.385815174301
 20
613.9526447676489
 30
50.00305208378603
  9
$LIMMIN
 10
-2970.0
 20
-2100.0
  9
$LIMMAX
 10
2970.0
 20
2100.0
  9
$ORTHOMODE
 70
     1
  9
$REGENMODE
 70
     0
  9
$FILLMODE
 70
     1
  9
$QTEXTMODE
 70
     0
  9
$MIRRTEXT
 70
     0
  9
$LTSCALE
 40
20.0
  9
$ATTMODE
 70
     1
  9
$TEXTSIZE
 40
64.0
  9
$TRACEWID
 40
0.05
  9
$TEXTSTYLE
  7
STANDARD
  9
$CLAYER
  8
0
  9
$CELTYPE
  6
ByLayer
  9
$CECOLOR
 62
   256
  9
$CELTSCALE
 40
1.0
  9
$DISPSILH
 70
     0
  9
$DIMSCALE
 40
1.0
  9
$DIMASZ
 40
0.12
  9
$DIMEXO
 40
0.05
  9
$DIMDLI
 40
0.5
  9
$DIMRND
 40
0.0
  9
$DIMDLE
 40
0.0
  9
$DIMEXE
 40
0.1
  9
$DIMTP
 40
0.1
  9
$DIMTM
 40
0.1
  9
$DIMTXT
 40
0.12
  9
$DIMCEN
 40
0.0
  9
$DIMTSZ
 40
0.0
  9
$DIMTOL
 70
     0
  9
$DIMLIM
 70
     0
  9
$DIMTIH
 70
     1
  9
$DIMTOH
 70
     1
  9
$DIMSE1
 70
     0
  9
$DIMSE2
 70
     0
  9
$DIMTAD
 70
     0
  9
$DIMZIN
 70
     7
  9
$DIMBLK
  1

  9
$DIMASO
 70
     1
  9
$DIMSHO
 70
     0
  9
$DIMPOST
  1

  9
$DIMAPOST
  1
mm
  9
$DIMALT
 70
     0
  9
$DIMALTD
 70
     2
  9
$DIMALTF
 40
25.4
  9
$DIMLFAC
 40
1.0
  9
$DIMTOFL
 70
     0
  9
$DIMTVP
 40
0.0
  9
$DIMTIX
 70
     0
  9
$DIMSOXD
 70
     0
  9
$DIMSAH
 70
     0
  9
$DIMBLK1
  1

  9
$DIMBLK2
  1

  9
$DIMSTYLE
  2
AM_ANSI
  9
$DIMCLRD
 70
   256
  9
$DIMCLRE
 70
   256
  9
$DIMCLRT
 70
     2
  9
$DIMTFAC
 40
0.71
  9
$DIMGAP
 40
0.06
  9
$DIMJUST
 70
     0
  9
$DIMSD1
 70
     0
  9
$DIMSD2
 70
     0
  9
$DIMTOLJ
 70
     1
  9
$DIMTZIN
 70
     7
  9
$DIMALTZ
 70
     0
  9
$DIMALTTZ
 70
     0
  9
$DIMUPT
 70
     0
  9
$DIMDEC
 70
     4
  9
$DIMTDEC
 70
     4
  9
$DIMALTU
 70
     2
  9
$DIMALTTD
 70
     4
  9
$DIMTXSTY
  7
STANDARD
  9
$DIMAUNIT
 70
     0
  9
$DIMADEC
 70
     0
  9
$DIMALTRND
 40
0.0
  9
$DIMAZIN
 70
     2
  9
$DIMDSEP
 70
    46
  9
$DIMATFIT
 70
     3
  9
$DIMFRAC
 70
     0
  9
$DIMLDRBLK
  1

  9
$DIMLUNIT
 70
     2
  9
$DIMLWD
 70
    -1
  9
$DIMLWE
 70
    -1
  9
$DIMTMOVE
 70
     0
  9
$LUNITS
 70
     2
  9
$LUPREC
 70
     4
  9
$SKETCHINC
 40
0.1
  9
$FILLETRAD
 40
4.0
  9
$AUNITS
 70
     1
  9
$AUPREC
 70
     3
  9
$MENU
  1
ACAD
  9
$ELEVATION
 40
0.0
  9
$PELEVATION
 40
0.0
  9
$THICKNESS
 40
50.0
  9
$LIMCHECK
 70
     0
  9
$CHAMFERA
 40
0.0
  9
$CHAMFERB
 40
0.0
  9
$CHAMFERC
 40
0.0
  9
$CHAMFERD
 40
0.0
  9
$SKPOLY
 70
     0
  9
$TDCREATE
 40
2452321.396199653
  9
$TDUCREATE
 40
2452321.021199653
  9
$TDUPDATE
 40
2456211.590641331
  9
$TDUUPDATE
 40
2456211.215641331
  9
$TDINDWG
 40
1.0399579514
  9
$TDUSRTIMER
 40
1.0399525463
  9
$USRTIMER
 70
     1
  9
$ANGBASE
 50
0.0
  9
$ANGDIR
 70
     0
  9
$PDMODE
 70
     3
  9
$PDSIZE
 40
-2.0
  9
$PLINEWID
 40
0.0
  9
$SPLFRAME
 70
     0
  9
$SPLINETYPE
 70
     6
  9
$SPLINESEGS
 70
     8
  9
$HANDSEED
  5
2A84
  9
$SURFTAB1
 70
     6
  9
$SURFTAB2
 70
     6
  9
$SURFTYPE
 70
     6
  9
$SURFU
 70
     6
  9
$SURFV
 70
     6
  9
$UCSBASE
  2

  9
$UCSNAME
  2

  9
$UCSORG
 10
0.0
 20
0.0
 30
0.0
  9
$UCSXDIR
 10
1.0
 20
0.0
 30
0.0
  9
$UCSYDIR
 10
0.0
 20
1.0
 30
0.0
  9
$UCSORTHOREF
  2

  9
$UCSORTHOVIEW
 70
     0
  9
$UCSORGTOP
 10
0.0
 20
0.0
 30
0.0
  9
$UCSORGBOTTOM
 10
0.0
 20
0.0
 30
0.0
  9
$UCSORGLEFT
 10
0.0
 20
0.0
 30
0.0
  9
$UCSORGRIGHT
 10
0.0
 20
0.0
 30
0.0
  9
$UCSORGFRONT
 10
0.0
 20
0.0
 30
0.0
  9
$UCSORGBACK
 10
0.0
 20
0.0
 30
0.0
  9
$PUCSBASE
  2

  9
$PUCSNAME
  2

  9
$PUCSORG
 10
0.0
 20
0.0
 30
0.0
  9
$PUCSXDIR
 10
1.0
 20
0.0
 30
0.0
  9
$PUCSYDIR
 10
0.0
 20
1.0
 30
0.0
  9
$PUCSORTHOREF
  2

  9
$PUCSORTHOVIEW
 70
     0
  9
$PUCSORGTOP
 10
0.0
 20
0.0
 30
0.0
  9
$PUCSORGBOTTOM
 10
0.0
 20
0.0
 30
0.0
  9
$PUCSORGLEFT
 10
0.0
 20
0.0
 30
0.0
  9
$PUCSORGRIGHT
 10
0.0
 20
0.0
 30
0.0
  9
$PUCSORGFRONT
 10
0.0
 20
0.0
 30
0.0
  9
$PUCSORGBACK
 10
0.0
 20
0.0
 30
0.0
  9
$USERI1
 70
     0
  9
$USERI2
 70
     0
  9
$USERI3
 70
     0
  9
$USERI4
 70
     0
  9
$USERI5
 70
     0
  9
$USERR1
 40
20.0
  9
$USERR2
 40
0.0
  9
$USERR3
 40
0.0
  9
$USERR4
 40
0.0
  9
$USERR5
 40
0.0
  9
$WORLDVIEW
 70
     1
  9
$SHADEDGE
 70
     3
  9
$SHADEDIF
 70
    70
  9
$TILEMODE
 70
     1
  9
$MAXACTVP
 70
    64
  9
$PINSBASE
 10
0.0
 20
0.0
 30
0.0
  9
$PLIMCHECK
 70
     0
  9
$PEXTMIN
 10
1.000000000000000E+20
 20
1.000000000000000E+20
 30
1.000000000000000E+20
  9
$PEXTMAX
 10
-1.000000000000000E+20
 20
-1.000000000000000E+20
 30
-1.000000000000000E+20
  9
$PLIMMIN
 10
0.0
 20
0.0
  9
$PLIMMAX
 10
12.0
 20
9.0
  9
$UNITMODE
 70
     0
  9
$VISRETAIN
 70
     1
  9
$PLINEGEN
 70
     0
  9
$PSLTSCALE
 70
     1
  9
$TREEDEPTH
 70
  3020
  9
$CMLSTYLE
  2
Standard
  9
$CMLJUST
 70
     0
  9
$CMLSCALE
 40
1.0
  9
$PROXYGRAPHICS
 70
     1
  9
$MEASUREMENT
 70
     0
  9
$CELWEIGHT
370
    -1
  9
$ENDCAPS
280
     0
  9
$JOINSTYLE
280
     0
  9
$LWDISPLAY
290
     0
  9
$INSUNITS
 70
     0
  9
$HYPERLINKBASE
  1

  9
$STYLESHEET
  1

  9
$XEDIT
290
     1
  9
$CEPSNTYPE
380
     0
  9
$PSTYLEMODE
290
     1
  9
$FINGERPRINTGUID
  2
{C5261716-940A-4013-9C45-F44A6FBDAE53}
  9
$VERSIONGUID
  2
{5D083E7E-3298-4D6D-8FEE-D9C8E876146B}
  9
$EXTNAMES
290
     1
  9
$PSVPSCALE
 40
0.0
  9
$OLESTARTUP
290
     0
  0
ENDSEC
  0
SECTION
  2
CLASSES
  0
CLASS
  1
ACDBDICTIONARYWDFLT
  2
AcDbDictionaryWithDefault
  3
ObjectDBX Classes
 90
        0
280
     0
281
     0
  0
CLASS
  1
MATERIAL
  2
AcDbMaterial
  3
ObjectDBX Classes
 90
     1153
280
     0
281
     0
  0
CLASS
  1
VISUALSTYLE
  2
AcDbVisualStyle
  3
ObjectDBX Classes
 90
     4095
280
     0
281
     0
  0
CLASS
  1
SCALE
  2
AcDbScale
  3
ObjectDBX Classes
 90
     1153
280
     0
281
     0
  0
CLASS
  1
TABLESTYLE
  2
AcDbTableStyle
  3
ObjectDBX Classes
 90
     4095
280
     0
281
     0
  0
CLASS
  1
MLEADERSTYLE
  2
AcDbMLeaderStyle
  3
ACDB_MLEADERSTYLE_CLASS
 90
     4095
280
     0
281
     0
  0
CLASS
  1
AMGSETTINGSOBJ
  2
AmgSettingsObj
  3
"AcadM|Product Description: AutoCAD Mechanical|Company: Autodesk, Inc."
 90
     1024
280
     0
281
     0
  0
CLASS
  1
ACME_DOCUMENT
  2
AcMeDbDoc
  3
AcMeServices
 90
     1024
280
     0
281
     0
  0
CLASS
  1
ACMESCOPE
  2
AcMeScope
  3
AcMeServices
 90
     1024
280
     0
281
     0
  0
CLASS
  1
ACMECOMMANDHISTORY
  2
AcMeCommandHistory
  3
AcMeServices
 90
     1024
280
     0
281
     0
  0
CLASS
  1
ACIMSYSVARMAN
  2
AcImSysVarManager
  3
AcMeServices
 90
     1024
280
     0
281
     0
  0
CLASS
  1
ACIMREALSYSVAR
  2
AcImRealSysVar
  3
AcMeServices
 90
     1024
280
     0
281
     0
  0
CLASS
  1
ACIMINTSYSVAR
  2
AcImIntSysVar
  3
AcMeServices
 90
     1024
280
     0
281
     0
  0
CLASS
  1
ACMEDRAWINGMAN
  2
AcMeDrawingMan
  3
AcMeServices
 90
     1024
280
     0
281
     0
  0
CLASS
  1
ACMEVIEW
  2
AcMeView
  3
AcMeServices
 90
     1024
280
     0
281
     0
  0
CLASS
  1
ACDBENTITYCACHE
  2
AcMeEntityCache
  3
AcMeServices
 90
     1024
280
     0
281
     0
  0
CLASS
  1
GSMANAGER
  2
AcMeGSManager
  3
AcMeServices
 90
     1024
280
     0
281
     0
  0
CLASS
  1
AMDTINTERNALREACTOR
  2
AmdtInternalReactor
  3
AcMeServices
 90
     1024
280
     0
281
     0
  0
CLASS
  1
ACMESTATEMGR
  2
AcMeStateMgr
  3
AcMeServices
 90
     1024
280
     0
281
     0
  0
CLASS
  1
ACGREFMASTER
  2
AcGrefMaster
  3
AcAttribServices
 90
     1024
280
     0
281
     0
  0
CLASS
  1
AM_DRAWING_MGR
  2
AcDmDwgMgr
  3
AcMechDwgViewMgmt
 90
     1024
280
     0
281
     0
  0
CLASS
  1
AM_DWG_DOCUMENT
  2
AcDmDwgDocument
  3
AcMechDwgViewMgmt
 90
     1024
280
     0
281
     0
  0
CLASS
  1
AM_DWG_SHEET
  2
AcDmSheet
  3
AcMechDwgViewMgmt
 90
     1024
280
     0
281
     0
  0
CLASS
  1
AM_VIEWDIMPARMAP
  2
AcDmViewDimParMap
  3
AcMechDwgViewMgmt
 90
     1024
280
     0
281
     0
  0
CLASS
  1
AM_DWGMGR_NAME
  2
AcDmDwgMgrName
  3
AcMechDwgViewMgmt
 90
     1024
280
     0
281
     0
  0
CLASS
  1
ACME_DATABASE
  2
AcMeDbDatabase
  3
AcMeServices
 90
     1024
280
     0
281
     0
  0
CLASS
  1
ACRFINSADJUSTERMGR
  2
AcRfInsAdjusterMgr
  3
AcMeServices
 90
     1024
280
     0
281
     0
  0
CLASS
  1
ACGREFACADMASTER
  2
AcGrefacadMaster
  3
AcGrefServices
 90
     1024
280
     0
281
     0
  0
CLASS
  1
AMDTMENUSTATEMGR
  2
AmdtMenuStateMgr
  3
McadcomServices
 90
     1024
280
     0
281
     0
  0
CLASS
  1
AMDTMCOMMENUSTATE
  2
AmdtMcomMenuState
  3
McadcomServices
 90
     1024
280
     0
281
     0
  0
CLASS
  1
AMIMASTER
  2
AmiMaster
  3
AmiServices
 90
     1024
280
     0
281
     0
  0
CLASS
  1
ASAPP
  2
AcAsAppObject
  3
AutoSurfServices
 90
     1024
280
     0
281
     0
  0
CLASS
  1
IM_STATIC_MAN
  2
AcImStaticVarManager
  3
AcMeServices
 90
     1024
280
     0
281
     0
  0
CLASS
  1
ACIMSTRSYSVAR
  2
AcImStrSysVar
  3
AcMeServices
 90
     1024
280
     0
281
     0
  0
CLASS
  1
ACIMDBLSTATICVAR
  2
AcImDblStaticVar
  3
AcMeServices
 90
     1024
280
     0
281
     0
  0
CLASS
  1
ACIMSTRSTATICVAR
  2
AcImStrStaticVar
  3
AcMeServices
 90
     1024
280
     0
281
     0
  0
CLASS
  1
ACIMINTSTATICVAR
  2
AcImIntStaticVar
  3
AcMeServices
 90
     1024
280
     0
281
     0
  0
CLASS
  1
ACASGREFMASTER
  2
AcAsGrefMaster
  3
AutoSurfResolverServices
 90
     1024
280
     0
281
     0
  0
CLASS
  1
ACADGREFMODULE
  2
AcAdGrefModule
  3
AdGrefServices
 90
     1024
280
     0
281
     0
  0
CLASS
  1
AMDTMAPISURFMOUDULE
  2
AmdtMApiSurfModule
  3
MApiSurfServices
 90
     1024
280
     0
281
     0
  0
CLASS
  1
MAPIAMMOUDLE
  2
MApiAmModule
  3
MApiAmServices
 90
     1024
280
     0
281
     0
  0
CLASS
  1
AMDTADMENUSTATE
  2
AmdtAdMenuState
  3
DesignerServices
 90
     1024
280
     0
281
     0
  0
CLASS
  1
ADAPPL
  2
AcAdAppl
  3
DesignerServices
 90
     1024
280
     0
281
     0
  0
CLASS
  1
DEPMGR
  2
AcAdDepMgr
  3
DesignerServices
 90
     1024
280
     0
281
     0
  0
CLASS
  1
PARAMMGR
  2
AcAdParamMgr
  3
DesignerServices
 90
     1024
280
     0
281
     0
  0
CLASS
  1
PARAMSCOPE
  2
AcAdParamScope
  3
DesignerServices
 90
     1024
280
     0
281
     0
  0
CLASS
  1
NAMEDAPPL
  2
AcAdNamedAppl
  3
DesignerServices
 90
     1024
280
     0
281
     0
  0
CLASS
  1
AMDTDMMENUSTATE
  2
AmdtDmMenuState
  3
AcMechDwgViewMgmt
 90
     1024
280
     0
281
     0
  0
CLASS
  1
MAPIADMODULE
  2
MApiAdModule
  3
MApiAdServices
 90
     1024
280
     0
281
     0
  0
CLASS
  1
AMDTAMMENUSTATE
  2
AmdtAmMenuState
  3
DesignerAssemblies
 90
     1024
280
     0
281
     0
  0
CLASS
  1
ACAMPROJECT
  2
AcAmProject
  3
DesignerAssemblies
 90
     1024
280
     0
281
     0
  0
CLASS
  1
ACAMGRCOMPDEF
  2
AcAmGrCompDef
  3
DesignerAssemblies
 90
     1024
280
     0
281
     0
  0
CLASS
  1
ACCMCONTEXT
  2
AcCmContext
  3
DesignerAssemblies
 90
     1024
280
     0
281
     0
  0
CLASS
  1
ACAMCOMPDEF
  2
AcAmCompDef
  3
DesignerAssemblies
 90
     1024
280
     0
281
     0
  0
CLASS
  1
ACAMCOMPDEFMGR
  2
AcAmCompDefMgr
  3
DesignerAssemblies
 90
     1024
280
     0
281
     0
  0
CLASS
  1
AMCONTEXTMGR
  2
AcAmContextMgr
  3
DesignerAssemblies
 90
     1024
280
     0
281
     0
  0
CLASS
  1
ACAMCONTEXTMODELER
  2
AcAmContextModeler
  3
DesignerAssemblies
 90
     1024
280
     0
281
     0
  0
CLASS
  1
ACMDATADICTIONARY
  2
AcmDataDictionary
  3
"AcmSymBB|Product Description: AutoCAD Mechanical|Company: Autodesk, Inc."
 90
     1024
280
     0
281
     0
  0
CLASS
  1
ACMDATAENTRYBLOCK
  2
AcmDataEntryBlock
  3
AcmSymBB|Product Description: AutoCAD Mechanical|Company: Autodesk, Inc.
 90
     1024
280
     0
281
     0
  0
CLASS
  1
ACRFATTGENMGR
  2
AcRfAttGeneralMgr
  3
AcAttribServices
 90
     1024
280
     0
281
     0
  0
CLASS
  1
ACRFOBJATTMGR
  2
AcRfObjAttGroupMgr
  3
AcAttribServices
 90
     1024
280
     0
281
     0
  0
CLASS
  1
ACRFMCADAPIATTHOLDER
  2
AcRfMCADAPIAttHolder
  3
AcAttribServices
 90
     1024
280
     0
281
     0
  0
CLASS
  1
AMDTSYSATTR
  2
AmdtSystemAttribute
  3
AcAttribServices
 90
     1024
280
     0
281
     0
  0
CLASS
  1
CATALOGSTATE
  2
AcAmCatalogState
  3
DesignerAssemblies
 90
     1024
280
     0
281
     0
  0
CLASS
  1
ACAMGRCOMPDEFSET
  2
AcAmGrCompDefSet
  3
DesignerAssemblies
 90
     1024
280
     0
281
     0
  0
CLASS
  1
AMDTBROWSERDBTAB
  2
AmdtBrowserDbTab
  3
McadcomServices
 90
     1024
280
     0
281
     0
  0
CLASS
  1
CBROWSERAPPOBJECT
  2
CBrowserAppObject
  3
McadcomServices
 90
     1024
280
     0
281
     0
  0
CLASS
  1
DM_PLACEHOLDER
  2
AcDmSelsetPlaceholder
  3
AcMechDwgViewMgmt
 90
     1024
280
     0
281
     0
  0
CLASS
  1
ACMSTANDARDANSI
  2
AcmStandardANSI
  3
"Amdt_StdImp|Product Description: AutoCAD Mechanical|Company: Autodesk, Inc."
 90
     1024
280
     0
281
     0
  0
CLASS
  1
ACMSURFSTANDARDANSI
  2
AcmSurfTextStdANSI
  3
"Amdt_StdImp|Product Description: AutoCAD Mechanical|Company: Autodesk, Inc."
 90
     1024
280
     0
281
     0
  0
CLASS
  1
ACMFCFSTANDARDANSI
  2
AcmFCFStdANSI
  3
"Amdt_StdImp|Product Description: AutoCAD Mechanical|Company: Autodesk, Inc."
 90
     1024
280
     0
281
     0
  0
CLASS
  1
ACMWELDSTANDARDANSI
  2
AcmWeldingStdANSI
  3
"Amdt_StdImp|Product Description: AutoCAD Mechanical|Company: Autodesk, Inc."
 90
     1024
280
     0
281
     0
  0
CLASS
  1
ACMIDSTANDARDANSI
  2
AcmIdStdANSI
  3
"Amdt_StdImp|Product Description: AutoCAD Mechanical|Company: Autodesk, Inc."
 90
     1024
280
     0
281
     0
  0
CLASS
  1
ACMDATUMSTANDARDANSI
  2
AcmDatumStdANSI
  3
"Amdt_StdImp|Product Description: AutoCAD Mechanical|Company: Autodesk, Inc."
 90
     1024
280
     0
281
     0
  0
CLASS
  1
ACMBOMSTANDARDANSI
  2
AcmBOMStdANSI
  3
"Amdt_StdImp|Product Description: AutoCAD Mechanical|Company: Autodesk, Inc."
 90
     1024
280
     0
281
     0
  0
CLASS
  1
ACMDETAILSTANDARDANSI
  2
AmdtDetailSymStdANSI
  3
"Amdt_StdImp|Product Description: AutoCAD Mechanical|Company: Autodesk, Inc."
 90
     1024
280
     0
281
     0
  0
CLASS
  1
ACMSECTIONSTANDARDANSI
  2
AmdtSectionSymStdANSI
  3
"Amdt_StdImp|Product Description: AutoCAD Mechanical|Company: Autodesk, Inc."
 90
     1024
280
     0
281
     0
  0
CLASS
  1
ACMCENTERLINESTANDARDANSI
  2
AmdtCenterLineStdANSI
  3
"Amdt_StdImp|Product Description: AutoCAD Mechanical|Company: Autodesk, Inc."
 90
     1024
280
     0
281
     0
  0
CLASS
  1
ACMTHREADLINESTANDARDANSI
  2
AmdtThreadLineStdANSI
  3
"Amdt_StdImp|Product Description: AutoCAD Mechanical|Company: Autodesk, Inc."
 90
     1024
280
     0
281
     0
  0
CLASS
  1
ACMNOTESTANDARDANSI
  2
AmdtNoteStdANSI
  3
"Amdt_StdImp|Product Description: AutoCAD Mechanical|Company: Autodesk, Inc."
 90
     1024
280
     0
281
     0
  0
CLASS
  1
ACMTAPERSTANDARDANSI
  2
AcmTaperStdANSI
  3
"Amdt_StdImp|Product Description: AutoCAD Mechanical|Company: Autodesk, Inc."
 90
     1024
280
     0
281
     0
  0
CLASS
  1
ACMANOOTATIONVIEWSTANDARDANSI
  2
AmdtAnViewStdANSI
  3
"Amdt_StdImp|Product Description: AutoCAD Mechanical|Company: Autodesk, Inc."
 90
     1024
280
     0
281
     0
  0
CLASS
  1
ACAMGLAYSTD
  2
AcAmgLayStd
  3
"AmgLay|Product Description: AutoCAD Mechanical|Company: Autodesk, Inc."
 90
     1024
280
     0
281
     0
  0
CLASS
  1
ACAMGDIMSTD
  2
AcAmgDimStd
  3
"AmgDim|Product Description: AutoCAD Mechanical|Company: Autodesk, Inc."
 90
     1024
280
     0
281
     0
  0
CLASS
  1
ACAMGHOLECHARTSTDANSI
  2
AcAmgHoleChartStdANSI
  3
AmgDim|Product Description: AutoCAD Mechanical|Company: Autodesk, Inc.
 90
     1024
280
     0
281
     0
  0
CLASS
  1
AMGOBJPROPCFG
  2
AmgObjPropCfg
  3
"AmgLay|Product Description: AutoCAD Mechanical|Company: Autodesk, Inc."
 90
     1025
280
     0
281
     0
  0
CLASS
  1
ACAMGTITLESTD
  2
AcAmgTitleStd
  3
"AmgTitle|Product Description: AutoCAD Mechanical|Company: Autodesk, Inc."
 90
     4095
280
     0
281
     0
  0
CLASS
  1
AMDTNOTETEMPLATEDB
  2
AmdtNoteTemplateDB
  3
AcmSymBB|Product Description: AutoCAD Mechanical|Company: Autodesk, Inc.
 90
     1024
280
     0
281
     0
  0
CLASS
  1
ACAMGFILTERDAT
  2
AcAmgFilterDat
  3
"AcadM|Product Description: AutoCAD Mechanical|Company: Autodesk, Inc."
 90
     1024
280
     0
281
     0
  0
CLASS
  1
LAYER_INDEX
  2
AcDbLayerIndex
  3
ObjectDBX Classes
 90
        0
280
     0
281
     0
  0
CLASS
  1
IDBUFFER
  2
AcDbIdBuffer
  3
ObjectDBX Classes
 90
        0
280
     0
281
     0
  0
CLASS
  1
DICTIONARYVAR
  2
AcDbDictionaryVar
  3
ObjectDBX Classes
 90
        0
280
     0
281
     0
  0
CLASS
  1
CELLSTYLEMAP
  2
AcDbCellStyleMap
  3
ObjectDBX Classes
 90
     1152
280
     0
281
     0
  0
CLASS
  1
ACDBPLACEHOLDER
  2
AcDbPlaceHolder
  3
ObjectDBX Classes
 90
        0
280
     0
281
     0
  0
CLASS
  1
LAYOUT
  2
AcDbLayout
  3
ObjectDBX Classes
 90
        0
280
     0
281
     0
  0
ENDSEC
  0
SECTION
  2
TABLES
  0
TABLE
  2
VPORT
  5
281E
330
0
100
AcDbSymbolTable
 70
     1
  0
VPORT
  5
288E
330
281E
100
AcDbSymbolTableRecord
100
AcDbViewportTableRecord
  2
*ACTIVE
 70
     0
 10
0.0
 20
0.0
 11
1.0
 21
1.0
 12
-0.000000000000199
 22
-107.0997462455063
 13
0.0
 23
0.0
 14
1.0
 24
1.0
 15
0.0
 25
0.0
 16
0.0
 26
0.0
 36
1.0
 17
139.3547198029167
 27
-134.1874757018156
 37
0.0
 40
1721.770028700106
 41
1.712555066079295
 42
50.0
 43
0.0
 44
0.0
 50
0.0
 51
0.0
 71
     0
 72
   100
 73
     1
 74
     0
 75
     0
 76
     0
 77
     0
 78
     0
281
     0
 65
     0
110
0.0
120
0.0
130
0.0
111
1.0
121
0.0
131
0.0
112
0.0
122
1.0
132
0.0
 79
     0
146
0.0
  0
ENDTAB
  0
TABLE
  2
LTYPE
  5
281B
330
0
100
AcDbSymbolTable
 70
    19
  0
LTYPE
  5
2878
330
281B
100
AcDbSymbolTableRecord
100
AcDbLinetypeTableRecord
  2
ByBlock
 70
     0
  3

 72
    65
 73
     0
 40
0.0
  0
LTYPE
  5
2879
330
281B
100
AcDbSymbolTableRecord
100
AcDbLinetypeTableRecord
  2
ByLayer
 70
     0
  3

 72
    65
 73
     0
 40
0.0
  0
LTYPE
  5
287A
330
281B
100
AcDbSymbolTableRecord
100
AcDbLinetypeTableRecord
  2
CONTINUOUS
 70
     0
  3
実線
 72
    65
 73
     0
 40
0.0
  0
LTYPE
  5
288F
330
281B
100
AcDbSymbolTableRecord
100
AcDbLinetypeTableRecord
  2
DASHDOT
 70
     0
  3
____ _ ____ _ ____ _ ____ _ ____ _ ____ _ ____
 72
    65
 73
     4
 40
5.5
 49
4.0
 74
     0
 49
-0.6
 74
     0
 49
0.3
 74
     0
 49
-0.6
 74
     0
  0
LTYPE
  5
2890
330
281B
100
AcDbSymbolTableRecord
100
AcDbLinetypeTableRecord
  2
HIDDEN
 70
     0
  3
Hidden __ __ __ __ __ __ __ __ __ __ __ __ __ _
 72
    65
 73
     2
 40
0.375
 49
0.25
 74
     0
 49
-0.125
 74
     0
  0
LTYPE
  5
2891
330
281B
100
AcDbSymbolTableRecord
100
AcDbLinetypeTableRecord
  2
PHANTOM2
 70
     0
  3
Phantom (.5x) ___ _ _ ___ _ _ ___ _ _ ___ _ _
 72
    65
 73
     6
 40
1.25
 49
0.625
 74
     0
 49
-0.125
 74
     0
 49
0.125
 74
     0
 49
-0.125
 74
     0
 49
0.125
 74
     0
 49
-0.125
 74
     0
  0
LTYPE
  5
2892
330
281B
100
AcDbSymbolTableRecord
100
AcDbLinetypeTableRecord
  2
CENTER
 70
     0
  3
Center ____ _ ____ _ ____ _ ____ _ ____ _ ____
 72
    65
 73
     4
 40
2.0
 49
1.25
 74
     0
 49
-0.25
 74
     0
 49
0.25
 74
     0
 49
-0.25
 74
     0
  0
LTYPE
  5
2893
330
281B
100
AcDbSymbolTableRecord
100
AcDbLinetypeTableRecord
  2
ASULTYPE
 70
     0
  3
実線
 72
    65
 73
     2
 40
3.0
 49
2.5
 74
     0
 49
0.5
 74
     0
  0
LTYPE
  5
2894
330
281B
100
AcDbSymbolTableRecord
100
AcDbLinetypeTableRecord
  2
ASVLTYPE
 70
     0
  3
__ __ __ __ __ __ __ __ __ __ __ __ __ __ __ __ __ __ __ __ __
 72
    65
 73
     2
 40
0.75
 49
0.5
 74
     0
 49
-0.25
 74
     0
  0
LTYPE
  5
2895
330
281B
100
AcDbSymbolTableRecord
100
AcDbLinetypeTableRecord
  2
AM_ISO02W050
 70
     0
  3
__ __ __ __ __ __ __ __ __ __ __ __ __ __ __
 72
    65
 73
     2
 40
7.5
 49
6.0
 74
     0
 49
-1.5
 74
     0
  0
LTYPE
  5
2896
330
281B
100
AcDbSymbolTableRecord
100
AcDbLinetypeTableRecord
  2
AM_ISO08W050
 70
     0
  3
____ . ____ . ____ . ____ . ____ . ____ . ____
 72
    65
 73
     4
 40
18.0
 49
12.0
 74
     0
 49
-1.5
 74
     0
 49
3.0
 74
     0
 49
-1.5
 74
     0
  0
LTYPE
  5
2897
330
281B
100
AcDbSymbolTableRecord
100
AcDbLinetypeTableRecord
  2
AM_ISO09W050
 70
     0
  3
_____ . . _____ . . _____ . . ____ .. ____
 72
    65
 73
     6
 40
22.5
 49
12.0
 74
     0
 49
-1.5
 74
     0
 49
3.0
 74
     0
 49
-1.5
 74
     0
 49
3.0
 74
     0
 49
-1.5
 74
     0
  0
LTYPE
  5
2898
330
281B
100
AcDbSymbolTableRecord
100
AcDbLinetypeTableRecord
  2
AMCONSTR
 70
     0
  3
_______________________
 72
    65
 73
     2
 40
9999.0
 49
9999.0
 74
     0
 49
0.0
 74
     0
  0
LTYPE
  5
2899
330
281B
100
AcDbSymbolTableRecord
100
AcDbLinetypeTableRecord
  2
AM_ISO08W050X2
 70
     0
  3
__ . __ . __ . __ . __ . __
 72
    65
 73
     4
 40
9.0
 49
6.0
 74
     0
 49
-0.75
 74
     0
 49
1.5
 74
     0
 49
-0.75
 74
     0
  0
LTYPE
  5
289A
330
281B
100
AcDbSymbolTableRecord
100
AcDbLinetypeTableRecord
  2
AM_ISO02W050X2
 70
     0
  3
 _ _ _ _ _ _ _ _ _ _ _ _
 72
    65
 73
     2
 40
3.75
 49
3.0
 74
     0
 49
-0.75
 74
     0
  0
LTYPE
  5
289B
330
281B
100
AcDbSymbolTableRecord
100
AcDbLinetypeTableRecord
  2
AMZIGZAG
 70
     0
  3
/\/-/\/-/\/-/\/-/\/-/\/
 72
    65
 73
     2
 40
11.0001
 49
0.0001
 74
     0
 49
-11.0
 74
     0
  0
LTYPE
  5
289C
330
281B
100
AcDbSymbolTableRecord
100
AcDbLinetypeTableRecord
  2
CENTER2
 70
     0
  3
Center (.5x) ___ _ ___ _ ___ _ ___ _ ___ _ ___
 72
    65
 73
     4
 40
1.125
 49
0.75
 74
     0
 49
-0.125
 74
     0
 49
0.125
 74
     0
 49
-0.125
 74
     0
  0
LTYPE
  5
289D
330
281B
100
AcDbSymbolTableRecord
100
AcDbLinetypeTableRecord
  2
HIDDEN2
 70
     0
  3
Hidden (.5x) _ _ _ _ _ _ _ _ _ _ _ _ _ _ _ _ _
 72
    65
 73
     2
 40
0.1875
 49
0.125
 74
     0
 49
-0.0625
 74
     0
  0
LTYPE
  5
289E
330
281B
100
AcDbSymbolTableRecord
100
AcDbLinetypeTableRecord
  2
AMZIGZAG2
 70
     0
  3
/\/-/\/-/\/-/\/-/\/-/\/
 72
    65
 73
     2
 40
0.4401
 49
0.0001
 74
     0
 49
-0.4400000000000003
 74
     0
  0
LTYPE
  5
289F
330
281B
100
AcDbSymbolTableRecord
100
AcDbLinetypeTableRecord
  2
ACANSTGB
 70
     0
  3
__ . . __ . .
 72
    65
 73
     6
 40
0.35433070866
 49
0.15748031496
 74
     0
 49
-0.03937007874
 74
     0
 49
0.03937007874
 74
     0
 49
-0.03937007874
 74
     0
 49
0.03937007874
 74
     0
 49
-0.03937007874
 74
     0
  0
LTYPE
  5
28A0
330
281B
100
AcDbSymbolTableRecord
100
AcDbLinetypeTableRecord
  2
ACANSTGL
 70
     0
  3
_ _ _ _ _
 72
    65
 73
     2
 40
0.11811023622
 49
0.07874015748
 74
     0
 49
-0.03937007874
 74
     0
  0
ENDTAB
  0
TABLE
  2
LAYER
  5
2818
330
0
100
AcDbSymbolTable
 70
    12
  0
LAYER
  5
2872
102
{ACAD_XDICTIONARY
360
2A43
102
}
330
2818
100
AcDbSymbolTableRecord
100
AcDbLayerTableRecord
  2
0
 70
     0
 62
     7
  6
CONTINUOUS
370
    -3
390
2825
  0
LAYER
  5
28A1
102
{ACAD_XDICTIONARY
360
2A45
102
}
330
2818
100
AcDbSymbolTableRecord
100
AcDbLayerTableRecord
  2
OUTLINE
 70
     0
 62
     3
  6
CONTINUOUS
370
    -3
390
2825
  0
LAYER
  5
28A2
102
{ACAD_XDICTIONARY
360
2A47
102
}
330
2818
100
AcDbSymbolTableRecord
100
AcDbLayerTableRecord
  2
SIZE
 70
     0
 62
    30
  6
CONTINUOUS
370
    -3
390
2825
  0
LAYER
  5
28A3
102
{ACAD_XDICTIONARY
360
2A49
102
}
330
2818
100
AcDbSymbolTableRecord
100
AcDbLayerTableRecord
  2
BASIS
 70
     0
 62
     6
  6
DASHDOT
370
    -3
390
2825
  0
LAYER
  5
28A4
102
{ACAD_XDICTIONARY
360
2A4B
102
}
330
2818
100
AcDbSymbolTableRecord
100
AcDbLayerTableRecord
  2
DETAIL
 70
     0
 62
     5
  6
CONTINUOUS
370
    -3
390
2825
  0
LAYER
  5
28A5
102
{ACAD_XDICTIONARY
360
2A4D
102
}
330
2818
100
AcDbSymbolTableRecord
100
AcDbLayerTableRecord
  2
ARRANGE
 70
     0
 62
     1
  6
CONTINUOUS
370
    -3
390
2825
  0
LAYER
  5
28A6
330
2818
100
AcDbSymbolTableRecord
100
AcDbLayerTableRecord
  2
DEFPOINTS
 70
     0
 62
     7
  6
CONTINUOUS
290
     0
370
    -3
390
2825
  0
LAYER
  5
28A7
102
{ACAD_XDICTIONARY
360
2A4F
102
}
330
2818
100
AcDbSymbolTableRecord
100
AcDbLayerTableRecord
  2
ETC
 70
     0
 62
    61
  6
CONTINUOUS
370
    -3
390
2825
  0
LAYER
  5
28A8
102
{ACAD_XDICTIONARY
360
2A51
102
}
330
2818
100
AcDbSymbolTableRecord
100
AcDbLayerTableRecord
  2
FIX
 70
     0
 62
    11
  6
CONTINUOUS
370
    -3
390
2825
  0
LAYER
  5
28A9
102
{ACAD_XDICTIONARY
360
2A53
102
}
330
2818
100
AcDbSymbolTableRecord
100
AcDbLayerTableRecord
  2
NOTE
 70
     0
 62
     4
  6
CONTINUOUS
370
    -3
390
2825
  0
LAYER
  5
28AA
102
{ACAD_XDICTIONARY
360
2A55
102
}
330
2818
100
AcDbSymbolTableRecord
100
AcDbLayerTableRecord
  2
SERVICESPACE
 70
     0
 62
     2
  6
DASHDOT
370
    -3
390
2825
  0
LAYER
  5
28AB
102
{ACAD_XDICTIONARY
360
2A57
102
}
330
2818
100
AcDbSymbolTableRecord
100
AcDbLayerTableRecord
  2
SYMBOLLINE
 70
     0
 62
    15
  6
CONTINUOUS
370
    -3
390
2825
  0
ENDTAB
  0
TABLE
  2
STYLE
  5
2819
330
0
100
AcDbSymbolTable
 70
     5
  0
STYLE
  5
2873
330
2819
100
AcDbSymbolTableRecord
100
AcDbTextStyleTableRecord
  2
STANDARD
 70
     0
 40
64.0
 41
0.9
 50
0.0
 71
     0
 42
64.0
  3
SIMPLEX.shx
  4
BIGFONT.shx
  0
STYLE
  5
2877
330
2819
100
AcDbSymbolTableRecord
100
AcDbTextStyleTableRecord
  2
ANNOTATIVE
 70
     0
 40
0.0
 41
1.0
 50
0.0
 71
     0
 42
0.2
  3
txt
  4

1001
ACADANNOTATIVE
1000
AnnotativeData
1002
{
1070
     1
1070
     1
1002
}
  0
STYLE
  5
28AC
330
2819
100
AcDbSymbolTableRecord
100
AcDbTextStyleTableRecord
  2

 70
     1
 40
0.0
 41
1.0
 50
0.0
 71
     0
 42
64.0
  3
genltshp.shx
  4

  0
STYLE
  5
28AD
330
2819
100
AcDbSymbolTableRecord
100
AcDbTextStyleTableRecord
  2
ACANSTS
 70
     0
 40
1.0
 41
1.0
 50
0.0
 71
     0
 42
64.0
  3
romans.shx
  4
extfont.shx
  0
STYLE
  5
28AE
330
2819
100
AcDbSymbolTableRecord
100
AcDbTextStyleTableRecord
  2
ACANSGDT
 70
     0
 40
0.0
 41
1.0
 50
0.0
 71
     0
 42
64.0
  3
amgdt.shx
  4

  0
ENDTAB
  0
TABLE
  2
VIEW
  5
281C
330
0
100
AcDbSymbolTable
 70
     1
  0
VIEW
  5
28AF
330
281C
100
AcDbSymbolTableRecord
100
AcDbViewTableRecord
  2
ALL
 70
     0
 40
4282.619807999997
 10
0.0
 20
41.30990399999999
 41
5940.0
 11
0.0
 21
0.0
 31
1.0
 12
0.0
 22
0.0
 32
0.0
 42
50.0
 43
0.0
 44
0.0
 50
0.0
 71
     0
281
     0
 72
     1
110
0.0
120
0.0
130
0.0
111
1.0
121
0.0
131
0.0
112
0.0
122
1.0
132
0.0
 79
     0
146
0.0
  0
ENDTAB
  0
TABLE
  2
UCS
  5
281D
330
0
100
AcDbSymbolTable
 70
     0
  0
ENDTAB
  0
TABLE
  2
APPID
  5
281F
330
0
100
AcDbSymbolTable
 70
    26
  0
APPID
  5
2874
330
281F
100
AcDbSymbolTableRecord
100
AcDbRegAppTableRecord
  2
ACAD
 70
     0
  0
APPID
  5
287B
330
281F
100
AcDbSymbolTableRecord
100
AcDbRegAppTableRecord
  2
ACADANNOTATIVE
 70
     0
  0
APPID
  5
2885
330
281F
100
AcDbSymbolTableRecord
100
AcDbRegAppTableRecord
  2
ACAD_MLEADERVER
 70
     0
  0
APPID
  5
28B0
330
281F
100
AcDbSymbolTableRecord
100
AcDbRegAppTableRecord
  2
GENIUS_GENDIM_13
 70
     0
  0
APPID
  5
28B1
330
281F
100
AcDbSymbolTableRecord
100
AcDbRegAppTableRecord
  2
GENIUS_GENDTOL_13
 70
     0
  0
APPID
  5
28B2
330
281F
100
AcDbSymbolTableRecord
100
AcDbRegAppTableRecord
  2
GENIUS_GE3DTOL_13
 70
     0
  0
APPID
  5
28B3
330
281F
100
AcDbSymbolTableRecord
100
AcDbRegAppTableRecord
  2
MCAD_NO_VIS
 70
     0
  0
APPID
  5
28B4
330
281F
100
AcDbSymbolTableRecord
100
AcDbRegAppTableRecord
  2
ACAD_TEMP_GRAPHIC
 70
     0
  0
APPID
  5
28B5
330
281F
100
AcDbSymbolTableRecord
100
AcDbRegAppTableRecord
  2
AD_DRAW
 70
     0
  0
APPID
  5
28B6
330
281F
100
AcDbSymbolTableRecord
100
AcDbRegAppTableRecord
  2
ACATTRIBSERVICES
 70
     0
  0
APPID
  5
28B7
330
281F
100
AcDbSymbolTableRecord
100
AcDbRegAppTableRecord
  2
ASURF_PCURVE_APPNAME
 70
     0
  0
APPID
  5
28B8
330
281F
100
AcDbSymbolTableRecord
100
AcDbRegAppTableRecord
  2
AMG_3D2D_5_0
 70
     0
  0
APPID
  5
28B9
330
281F
100
AcDbSymbolTableRecord
100
AcDbRegAppTableRecord
  2
DESIGNERASSEMBLIES
 70
     0
  0
APPID
  5
28BA
330
281F
100
AcDbSymbolTableRecord
100
AcDbRegAppTableRecord
  2
ACADM_DIM_EDIT
 70
     0
  0
APPID
  5
28BB
330
281F
100
AcDbSymbolTableRecord
100
AcDbRegAppTableRecord
  2
AMDT_DM_ADJ
 70
     0
  0
APPID
  5
28BC
330
281F
100
AcDbSymbolTableRecord
100
AcDbRegAppTableRecord
  2
ACAD_DSTYLE_DIMARC_LENGTH_
 70
     0
  0
APPID
  5
28BD
330
281F
100
AcDbSymbolTableRecord
100
AcDbRegAppTableRecord
  2
ACAD_DSTYLE_DIMJOGGED_JOGA
 70
     0
  0
APPID
  5
28BE
330
281F
100
AcDbSymbolTableRecord
100
AcDbRegAppTableRecord
  2
ACAD_PSEXT
 70
     0
  0
APPID
  5
28BF
330
281F
100
AcDbSymbolTableRecord
100
AcDbRegAppTableRecord
  2
ACAD_EXEMPT_FROM_CAD_STANDARDS
 70
     0
  0
APPID
  5
28C0
330
281F
100
AcDbSymbolTableRecord
100
AcDbRegAppTableRecord
  2
ACAD_DSTYLE_DIMJAG
 70
     0
  0
APPID
  5
28C1
330
281F
100
AcDbSymbolTableRecord
100
AcDbRegAppTableRecord
  2
ACAD_DSTYLE_DIMTALN
 70
     0
  0
APPID
  5
29E3
330
281F
100
AcDbSymbolTableRecord
100
AcDbRegAppTableRecord
  2
AMG_3D2D_5.0
 70
     0
  0
APPID
  5
2A80
330
281F
100
AcDbSymbolTableRecord
100
AcDbRegAppTableRecord
  2
ACAD_DSTYLE_DIMARC_LENGTH_SYMBOL
 70
     0
  0
APPID
  5
2A81
330
281F
100
AcDbSymbolTableRecord
100
AcDbRegAppTableRecord
  2
ACAD_DSTYLE_DIM_LINETYPE
 70
     0
  0
APPID
  5
2A82
330
281F
100
AcDbSymbolTableRecord
100
AcDbRegAppTableRecord
  2
ACAD_DSTYLE_DIM_EXT1_LINETYPE
 70
     0
  0
APPID
  5
2A83
330
281F
100
AcDbSymbolTableRecord
100
AcDbRegAppTableRecord
  2
ACAD_DSTYLE_DIM_EXT2_LINETYPE
 70
     0
  0
ENDTAB
  0
TABLE
  2
DIMSTYLE
  5
2820
330
0
100
AcDbSymbolTable
 70
    10
100
AcDbDimStyleTable
 71
     1
340
28C2
  0
DIMSTYLE
105
2875
330
2820
100
AcDbSymbolTableRecord
100
AcDbDimStyleTableRecord
  2
STANDARD
 70
     0
 41
12.0
 42
20.0
 44
20.0
 77
     1
 78
     8
140
64.0
141
0.0
147
10.0
275
     1
279
     2
284
     7
285
     7
286
     7
340
2873
  0
DIMSTYLE
105
2876
330
2820
100
AcDbSymbolTableRecord
100
AcDbDimStyleTableRecord
  2
ANNOTATIVE
 70
     0
275
     1
279
     2
284
     7
285
     7
286
     7
340
2873
1001
ACADANNOTATIVE
1000
AnnotativeData
1002
{
1070
     1
1070
     1
1002
}
  0
DIMSTYLE
105
28C2
330
2820
100
AcDbSymbolTableRecord
100
AcDbDimStyleTableRecord
  2
AM_ANSI
 70
     0
  4
mm
 41
0.12
 42
0.05
 43
0.5
 44
0.1
 47
0.1
 48
0.1
 78
     7
 79
     2
140
0.12
141
0.0
146
0.71
147
0.06
176
   256
177
   256
178
     2
274
     4
284
     7
340
2873
371
    -1
372
    -1
1001
ACAD_DSTYLE_DIMARC_LENGTH_SYMBOL
1070
   379
1070
     1
1001
ACAD_DSTYLE_DIM_LINETYPE
1070
   380
1005
2878
1001
ACAD_DSTYLE_DIM_EXT1_LINETYPE
1070
   381
1005
2878
1001
ACAD_DSTYLE_DIM_EXT2_LINETYPE
1070
   382
1005
2878
  0
DIMSTYLE
105
28C3
330
2820
100
AcDbSymbolTableRecord
100
AcDbDimStyleTableRecord
  2
AM_ANSI$3
 70
     0
  4
mm
 41
0.12
 42
0.05
 43
0.5
 44
0.1
 47
0.1
 48
0.1
 78
     7
 79
     2
140
0.12
141
0.0
146
0.71
147
0.06
176
   256
177
   256
178
     2
274
     4
284
     7
288
     1
289
     0
340
2873
371
    -1
372
    -1
1001
ACAD_DSTYLE_DIMARC_LENGTH_SYMBOL
1070
   379
1070
     1
1001
ACAD_DSTYLE_DIM_LINETYPE
1070
   380
1005
2878
1001
ACAD_DSTYLE_DIM_EXT1_LINETYPE
1070
   381
1005
2878
1001
ACAD_DSTYLE_DIM_EXT2_LINETYPE
1070
   382
1005
2878
  0
DIMSTYLE
105
28C4
330
2820
100
AcDbSymbolTableRecord
100
AcDbDimStyleTableRecord
  2
AM_ANSI$4
 70
     0
  4
mm
 41
0.12
 42
0.05
 43
0.5
 44
0.1
 47
0.1
 48
0.1
 78
     7
 79
     2
140
0.12
141
0.0
146
0.71
147
0.06
176
   256
177
   256
178
     2
274
     4
284
     7
340
2873
371
    -1
372
    -1
1001
ACAD_DSTYLE_DIMARC_LENGTH_SYMBOL
1070
   379
1070
     1
1001
ACAD_DSTYLE_DIM_LINETYPE
1070
   380
1005
2878
1001
ACAD_DSTYLE_DIM_EXT1_LINETYPE
1070
   381
1005
2878
1001
ACAD_DSTYLE_DIM_EXT2_LINETYPE
1070
   382
1005
2878
  0
DIMSTYLE
105
28C5
330
2820
100
AcDbSymbolTableRecord
100
AcDbDimStyleTableRecord
  2
AM_ANSI$7
 70
     0
  4
mm
 41
0.12
 42
0.05
 43
0.5
 44
0.1
 47
0.1
 48
0.1
 78
     7
 79
     2
140
0.12
141
0.0
146
0.71
147
0.06
176
   256
177
   256
178
     2
274
     4
284
     7
340
2873
371
    -1
372
    -1
1001
ACAD_DSTYLE_DIMARC_LENGTH_SYMBOL
1070
   379
1070
     1
1001
ACAD_DSTYLE_DIM_LINETYPE
1070
   380
1005
2878
1001
ACAD_DSTYLE_DIM_EXT1_LINETYPE
1070
   381
1005
2878
1001
ACAD_DSTYLE_DIM_EXT2_LINETYPE
1070
   382
1005
2878
  0
DIMSTYLE
105
28C6
330
2820
100
AcDbSymbolTableRecord
100
AcDbDimStyleTableRecord
  2
AM_ANSI$SF
 70
     0
  4
mm
 41
0.12
 42
0.05
 43
0.5
 44
0.1
 47
0.1
 48
0.1
 75
     1
 76
     1
 78
     7
 79
     2
140
0.12
141
0.0
146
0.71
147
0.06
176
   256
177
   256
178
     2
274
     4
284
     7
340
2873
371
    -1
372
    -1
1001
ACAD_DSTYLE_DIMARC_LENGTH_SYMBOL
1070
   379
1070
     1
1001
ACAD_DSTYLE_DIM_LINETYPE
1070
   380
1005
2878
1001
ACAD_DSTYLE_DIM_EXT1_LINETYPE
1070
   381
1005
2878
1001
ACAD_DSTYLE_DIM_EXT2_LINETYPE
1070
   382
1005
2878
  0
DIMSTYLE
105
28C7
330
2820
100
AcDbSymbolTableRecord
100
AcDbDimStyleTableRecord
  2
AM_ANSI$SH
 70
     0
  4
mm
 41
0.12
 42
0.05
 43
0.5
 44
0.1
 47
0.1
 48
0.1
 75
     1
 76
     1
 78
     7
 79
     2
140
0.12
141
0.0
146
0.71
147
0.06
173
     1
176
   256
177
   256
178
     2
274
     4
284
     7
340
2873
343
28E7
371
    -1
372
    -1
1001
ACAD_DSTYLE_DIMARC_LENGTH_SYMBOL
1070
   379
1070
     1
1001
ACAD_DSTYLE_DIM_LINETYPE
1070
   380
1005
2878
1001
ACAD_DSTYLE_DIM_EXT1_LINETYPE
1070
   381
1005
2878
1001
ACAD_DSTYLE_DIM_EXT2_LINETYPE
1070
   382
1005
2878
  0
DIMSTYLE
105
28C8
330
2820
100
AcDbSymbolTableRecord
100
AcDbDimStyleTableRecord
  2
STANDARD1
 70
     0
 40
6.0
 41
2.5
 42
0.625
 43
6.0
 44
1.25
 47
1.0
 48
0.5
 77
     1
 78
     8
140
2.5
141
0.0
146
0.6
147
1.0
173
     1
275
     1
279
     2
284
     7
285
     7
286
     7
340
2873
  0
DIMSTYLE
105
28C9
330
2820
100
AcDbSymbolTableRecord
100
AcDbDimStyleTableRecord
  2
STANDARD$0
 70
     0
 41
12.0
 42
20.0
 44
20.0
 73
     0
 74
     0
 77
     1
 78
     8
140
64.0
141
0.0
147
10.0
275
     1
279
     2
284
     7
285
     7
286
     7
340
2873
  0
ENDTAB
  0
TABLE
  2
BLOCK_RECORD
  5
2817
330
0
100
AcDbSymbolTable
 70
    73
  0
BLOCK_RECORD
  5
288A
102
{ACAD_XDICTIONARY
360
2A59
102
}
330
2817
100
AcDbSymbolTableRecord
100
AcDbBlockTableRecord
  2
*Model_Space
340
288D
  0
BLOCK_RECORD
  5
2886
330
2817
100
AcDbSymbolTableRecord
100
AcDbBlockTableRecord
  2
*Paper_Space
340
2889
  0
BLOCK_RECORD
  5
28D1
330
2817
100
AcDbSymbolTableRecord
100
AcDbBlockTableRecord
  2
$MODEL_SPACE
340
0
  0
BLOCK_RECORD
  5
28D3
330
2817
100
AcDbSymbolTableRecord
100
AcDbBlockTableRecord
  2
$PAPER_SPACE
340
0
  0
BLOCK_RECORD
  5
28D5
330
2817
100
AcDbSymbolTableRecord
100
AcDbBlockTableRecord
  2
_ORIGIN
340
0
  0
BLOCK_RECORD
  5
28D7
330
2817
100
AcDbSymbolTableRecord
100
AcDbBlockTableRecord
  2
_DOTBLANK
340
0
102
{BLKREFS
331
1299
331
129A
331
11AA
331
11AB
331
E80
331
E81
331
1123
331
1124
331
11C2
331
11C3
331
11EC
331
11ED
331
11F9
331
11FA
331
1287
331
1288
331
1417
331
1418
331
1423
331
1424
331
142F
331
1430
331
143B
331
143C
331
166E
331
166F
331
1677
331
1678
331
1680
331
1681
331
1689
331
168A
331
1696
331
1697
331
16A3
331
16A4
331
16AF
331
16B0
331
16BB
331
16BC
331
16C7
331
16C8
331
16D3
331
16D4
331
1D86
331
1D87
331
1D8F
331
1D90
331
1D98
331
1D99
331
1DA1
331
1DA2
331
1DAB
331
1DAC
331
1DB5
331
1DB6
331
27D5
331
27D6
331
27DA
331
27DB
331
27E0
331
27E1
331
27E5
331
27E6
331
27EB
331
27EC
331
27F0
331
27F1
102
}
  0
BLOCK_RECORD
  5
28D9
330
2817
100
AcDbSymbolTableRecord
100
AcDbBlockTableRecord
  2
_OPEN30
340
0
102
{BLKREFS
331
2087
331
21E1
331
2322
102
}
  0
BLOCK_RECORD
  5
28DB
330
2817
100
AcDbSymbolTableRecord
100
AcDbBlockTableRecord
  2
*D5
340
0
  0
BLOCK_RECORD
  5
28DD
330
2817
100
AcDbSymbolTableRecord
100
AcDbBlockTableRecord
  2
*U6
340
0
102
{BLKREFS
331
129B
102
}
  0
BLOCK_RECORD
  5
28DF
330
2817
100
AcDbSymbolTableRecord
100
AcDbBlockTableRecord
  2
*D7
340
0
  0
BLOCK_RECORD
  5
28E1
330
2817
100
AcDbSymbolTableRecord
100
AcDbBlockTableRecord
  2
*U8
340
0
102
{BLKREFS
331
11AC
102
}
  0
BLOCK_RECORD
  5
28E3
330
2817
100
AcDbSymbolTableRecord
100
AcDbBlockTableRecord
  2
*D9
340
0
  0
BLOCK_RECORD
  5
28E5
330
2817
100
AcDbSymbolTableRecord
100
AcDbBlockTableRecord
  2
*U10
340
0
102
{BLKREFS
331
E82
102
}
  0
BLOCK_RECORD
  5
28E7
330
2817
100
AcDbSymbolTableRecord
100
AcDbBlockTableRecord
  2
GENAXEH
340
0
  0
BLOCK_RECORD
  5
28E9
330
2817
100
AcDbSymbolTableRecord
100
AcDbBlockTableRecord
  2
*D12
340
0
  0
BLOCK_RECORD
  5
28EB
330
2817
100
AcDbSymbolTableRecord
100
AcDbBlockTableRecord
  2
*U13
340
0
102
{BLKREFS
331
1125
102
}
  0
BLOCK_RECORD
  5
28ED
330
2817
100
AcDbSymbolTableRecord
100
AcDbBlockTableRecord
  2
*D14
340
0
  0
BLOCK_RECORD
  5
28EF
330
2817
100
AcDbSymbolTableRecord
100
AcDbBlockTableRecord
  2
*U15
340
0
102
{BLKREFS
331
11C4
102
}
  0
BLOCK_RECORD
  5
28F1
330
2817
100
AcDbSymbolTableRecord
100
AcDbBlockTableRecord
  2
*D16
340
0
  0
BLOCK_RECORD
  5
28F3
330
2817
100
AcDbSymbolTableRecord
100
AcDbBlockTableRecord
  2
*U17
340
0
102
{BLKREFS
331
11EE
102
}
  0
BLOCK_RECORD
  5
28F5
330
2817
100
AcDbSymbolTableRecord
100
AcDbBlockTableRecord
  2
*D18
340
0
  0
BLOCK_RECORD
  5
28F7
330
2817
100
AcDbSymbolTableRecord
100
AcDbBlockTableRecord
  2
*U19
340
0
102
{BLKREFS
331
11FB
102
}
  0
BLOCK_RECORD
  5
28F9
330
2817
100
AcDbSymbolTableRecord
100
AcDbBlockTableRecord
  2
*D20
340
0
  0
BLOCK_RECORD
  5
28FB
330
2817
100
AcDbSymbolTableRecord
100
AcDbBlockTableRecord
  2
*U21
340
0
102
{BLKREFS
331
1289
102
}
  0
BLOCK_RECORD
  5
28FD
330
2817
100
AcDbSymbolTableRecord
100
AcDbBlockTableRecord
  2
*D22
340
0
  0
BLOCK_RECORD
  5
28FF
330
2817
100
AcDbSymbolTableRecord
100
AcDbBlockTableRecord
  2
*U23
340
0
102
{BLKREFS
331
1419
102
}
  0
BLOCK_RECORD
  5
2901
330
2817
100
AcDbSymbolTableRecord
100
AcDbBlockTableRecord
  2
*D24
340
0
  0
BLOCK_RECORD
  5
2903
330
2817
100
AcDbSymbolTableRecord
100
AcDbBlockTableRecord
  2
*U25
340
0
102
{BLKREFS
331
1425
102
}
  0
BLOCK_RECORD
  5
2905
330
2817
100
AcDbSymbolTableRecord
100
AcDbBlockTableRecord
  2
*D26
340
0
  0
BLOCK_RECORD
  5
2907
330
2817
100
AcDbSymbolTableRecord
100
AcDbBlockTableRecord
  2
*U27
340
0
102
{BLKREFS
331
1431
102
}
  0
BLOCK_RECORD
  5
2909
330
2817
100
AcDbSymbolTableRecord
100
AcDbBlockTableRecord
  2
*D28
340
0
  0
BLOCK_RECORD
  5
290B
330
2817
100
AcDbSymbolTableRecord
100
AcDbBlockTableRecord
  2
*U29
340
0
102
{BLKREFS
331
143D
102
}
  0
BLOCK_RECORD
  5
290D
330
2817
100
AcDbSymbolTableRecord
100
AcDbBlockTableRecord
  2
*D30
340
0
  0
BLOCK_RECORD
  5
290F
330
2817
100
AcDbSymbolTableRecord
100
AcDbBlockTableRecord
  2
*U31
340
0
102
{BLKREFS
331
1670
102
}
  0
BLOCK_RECORD
  5
2911
330
2817
100
AcDbSymbolTableRecord
100
AcDbBlockTableRecord
  2
*D32
340
0
  0
BLOCK_RECORD
  5
2913
330
2817
100
AcDbSymbolTableRecord
100
AcDbBlockTableRecord
  2
*U33
340
0
102
{BLKREFS
331
1679
102
}
  0
BLOCK_RECORD
  5
2915
330
2817
100
AcDbSymbolTableRecord
100
AcDbBlockTableRecord
  2
*D34
340
0
  0
BLOCK_RECORD
  5
2917
330
2817
100
AcDbSymbolTableRecord
100
AcDbBlockTableRecord
  2
*U35
340
0
102
{BLKREFS
331
1682
102
}
  0
BLOCK_RECORD
  5
2919
330
2817
100
AcDbSymbolTableRecord
100
AcDbBlockTableRecord
  2
*D36
340
0
  0
BLOCK_RECORD
  5
291B
330
2817
100
AcDbSymbolTableRecord
100
AcDbBlockTableRecord
  2
*U37
340
0
102
{BLKREFS
331
168B
102
}
  0
BLOCK_RECORD
  5
291D
330
2817
100
AcDbSymbolTableRecord
100
AcDbBlockTableRecord
  2
*U38
340
0
  0
BLOCK_RECORD
  5
291F
330
2817
100
AcDbSymbolTableRecord
100
AcDbBlockTableRecord
  2
*D39
340
0
  0
BLOCK_RECORD
  5
2921
330
2817
100
AcDbSymbolTableRecord
100
AcDbBlockTableRecord
  2
*U40
340
0
102
{BLKREFS
331
1698
102
}
  0
BLOCK_RECORD
  5
2923
330
2817
100
AcDbSymbolTableRecord
100
AcDbBlockTableRecord
  2
*D41
340
0
  0
BLOCK_RECORD
  5
2925
330
2817
100
AcDbSymbolTableRecord
100
AcDbBlockTableRecord
  2
*U42
340
0
102
{BLKREFS
331
16A5
102
}
  0
BLOCK_RECORD
  5
2927
330
2817
100
AcDbSymbolTableRecord
100
AcDbBlockTableRecord
  2
*D43
340
0
  0
BLOCK_RECORD
  5
2929
330
2817
100
AcDbSymbolTableRecord
100
AcDbBlockTableRecord
  2
*U44
340
0
102
{BLKREFS
331
16B1
102
}
  0
BLOCK_RECORD
  5
292B
330
2817
100
AcDbSymbolTableRecord
100
AcDbBlockTableRecord
  2
*D45
340
0
  0
BLOCK_RECORD
  5
292D
330
2817
100
AcDbSymbolTableRecord
100
AcDbBlockTableRecord
  2
*U46
340
0
102
{BLKREFS
331
16BD
102
}
  0
BLOCK_RECORD
  5
292F
330
2817
100
AcDbSymbolTableRecord
100
AcDbBlockTableRecord
  2
*D47
340
0
  0
BLOCK_RECORD
  5
2931
330
2817
100
AcDbSymbolTableRecord
100
AcDbBlockTableRecord
  2
*U48
340
0
102
{BLKREFS
331
16C9
102
}
  0
BLOCK_RECORD
  5
2933
330
2817
100
AcDbSymbolTableRecord
100
AcDbBlockTableRecord
  2
*D49
340
0
  0
BLOCK_RECORD
  5
2935
330
2817
100
AcDbSymbolTableRecord
100
AcDbBlockTableRecord
  2
*U50
340
0
102
{BLKREFS
331
16D5
102
}
  0
BLOCK_RECORD
  5
2937
330
2817
100
AcDbSymbolTableRecord
100
AcDbBlockTableRecord
  2
*D51
340
0
  0
BLOCK_RECORD
  5
2939
330
2817
100
AcDbSymbolTableRecord
100
AcDbBlockTableRecord
  2
*U52
340
0
102
{BLKREFS
331
1D88
102
}
  0
BLOCK_RECORD
  5
293B
330
2817
100
AcDbSymbolTableRecord
100
AcDbBlockTableRecord
  2
*D53
340
0
  0
BLOCK_RECORD
  5
293D
330
2817
100
AcDbSymbolTableRecord
100
AcDbBlockTableRecord
  2
*U54
340
0
102
{BLKREFS
331
1D91
102
}
  0
BLOCK_RECORD
  5
293F
330
2817
100
AcDbSymbolTableRecord
100
AcDbBlockTableRecord
  2
*D55
340
0
  0
BLOCK_RECORD
  5
2941
330
2817
100
AcDbSymbolTableRecord
100
AcDbBlockTableRecord
  2
*U56
340
0
102
{BLKREFS
331
1D9A
102
}
  0
BLOCK_RECORD
  5
2943
330
2817
100
AcDbSymbolTableRecord
100
AcDbBlockTableRecord
  2
*D57
340
0
  0
BLOCK_RECORD
  5
2945
330
2817
100
AcDbSymbolTableRecord
100
AcDbBlockTableRecord
  2
*U58
340
0
102
{BLKREFS
331
1DA3
102
}
  0
BLOCK_RECORD
  5
2947
330
2817
100
AcDbSymbolTableRecord
100
AcDbBlockTableRecord
  2
*D59
340
0
  0
BLOCK_RECORD
  5
2949
330
2817
100
AcDbSymbolTableRecord
100
AcDbBlockTableRecord
  2
*U60
340
0
102
{BLKREFS
331
1DAD
102
}
  0
BLOCK_RECORD
  5
294B
330
2817
100
AcDbSymbolTableRecord
100
AcDbBlockTableRecord
  2
*D61
340
0
  0
BLOCK_RECORD
  5
294D
330
2817
100
AcDbSymbolTableRecord
100
AcDbBlockTableRecord
  2
*U62
340
0
102
{BLKREFS
331
1DB7
102
}
  0
BLOCK_RECORD
  5
294F
330
2817
100
AcDbSymbolTableRecord
100
AcDbBlockTableRecord
  2
*U63
340
0
  0
BLOCK_RECORD
  5
2951
330
2817
100
AcDbSymbolTableRecord
100
AcDbBlockTableRecord
  2
*U64
340
0
  0
BLOCK_RECORD
  5
2953
330
2817
100
AcDbSymbolTableRecord
100
AcDbBlockTableRecord
  2
*U65
340
0
  0
BLOCK_RECORD
  5
2955
330
2817
100
AcDbSymbolTableRecord
100
AcDbBlockTableRecord
  2
*U66
340
0
  0
BLOCK_RECORD
  5
2957
330
2817
100
AcDbSymbolTableRecord
100
AcDbBlockTableRecord
  2
*U67
340
0
  0
BLOCK_RECORD
  5
2959
330
2817
100
AcDbSymbolTableRecord
100
AcDbBlockTableRecord
  2
*U68
340
0
102
{BLKREFS
331
27A6
102
}
  0
BLOCK_RECORD
  5
295B
330
2817
100
AcDbSymbolTableRecord
100
AcDbBlockTableRecord
  2
*U69
340
0
102
{BLKREFS
331
27A7
102
}
  0
BLOCK_RECORD
  5
295D
330
2817
100
AcDbSymbolTableRecord
100
AcDbBlockTableRecord
  2
*X70
340
0
102
{BLKREFS
331
27CC
102
}
  0
BLOCK_RECORD
  5
295F
330
2817
100
AcDbSymbolTableRecord
100
AcDbBlockTableRecord
  2
*X71
340
0
102
{BLKREFS
331
27CD
102
}
  0
ENDTAB
  0
ENDSEC
  0
SECTION
  2
BLOCKS
  0
BLOCK
  5
288B
330
288A
100
AcDbEntity
  8
0
100
AcDbBlockBegin
  2
*Model_Space
 70
     0
 10
0.0
 20
0.0
 30
0.0
  3
*Model_Space
  1

  0
ENDBLK
  5
288C
330
288A
100
AcDbEntity
  8
0
100
AcDbBlockEnd
  0
BLOCK
  5
2887
330
2886
100
AcDbEntity
 67
     1
  8
0
100
AcDbBlockBegin
  2
*Paper_Space
 70
     0
 10
0.0
 20
0.0
 30
0.0
  3
*Paper_Space
  1

  0
ENDBLK
  5
2888
330
2886
100
AcDbEntity
 67
     1
  8
0
100
AcDbBlockEnd
  0
BLOCK
  5
28D2
330
28D1
100
AcDbEntity
  8
0
100
AcDbBlockBegin
  2
$MODEL_SPACE
 70
     0
 10
0.0
 20
0.0
 30
0.0
  3
$MODEL_SPACE
  1

  0
ENDBLK
  5
1FC1
330
28D1
100
AcDbEntity
  8
0
100
AcDbBlockEnd
  0
BLOCK
  5
28D4
330
28D3
100
AcDbEntity
  8
0
100
AcDbBlockBegin
  2
$PAPER_SPACE
 70
     0
 10
0.0
 20
0.0
 30
0.0
  3
$PAPER_SPACE
  1

  0
ENDBLK
  5
1FBD
330
28D3
100
AcDbEntity
  8
0
100
AcDbBlockEnd
  0
BLOCK
  5
28D6
330
28D5
100
AcDbEntity
  8
0
100
AcDbBlockBegin
  2
_ORIGIN
 70
     0
 10
0.0
 20
0.0
 30
0.0
  3
_ORIGIN
  1

  0
CIRCLE
  5
880
330
28D5
100
AcDbEntity
  8
0
  6
Continuous
 62
     7
100
AcDbCircle
 10
0.0
 20
0.0
 30
0.0
 40
0.5
  0
LINE
  5
881
330
28D5
100
AcDbEntity
  8
0
  6
Continuous
 62
     7
100
AcDbLine
 10
0.0
 20
0.0
 30
0.0
 11
-1.0
 21
0.0
 31
0.0
  0
ENDBLK
  5
882
330
28D5
100
AcDbEntity
  8
0
100
AcDbBlockEnd
  0
BLOCK
  5
28D8
330
28D7
100
AcDbEntity
  8
0
 62
     1
100
AcDbBlockBegin
  2
_DOTBLANK
 70
     0
 10
0.0
 20
0.0
 30
0.0
  3
_DOTBLANK
  1

  0
CIRCLE
  5
AB3
330
28D7
100
AcDbEntity
  8
0
  6
ByBlock
 62
     0
100
AcDbCircle
 10
0.0
 20
0.0
 30
0.0
 40
0.5
  0
LINE
  5
AB4
330
28D7
100
AcDbEntity
  8
0
  6
ByBlock
 62
     0
100
AcDbLine
 10
-0.5
 20
0.0
 30
0.0
 11
-1.0
 21
0.0
 31
0.0
  0
ENDBLK
  5
AB6
330
28D7
100
AcDbEntity
  8
0
 62
     1
100
AcDbBlockEnd
  0
BLOCK
  5
28DA
330
28D9
100
AcDbEntity
  8
0
 62
     1
100
AcDbBlockBegin
  2
_OPEN30
 70
     0
 10
0.0
 20
0.0
 30
0.0
  3
_OPEN30
  1

  0
LINE
  5
AB8
330
28D9
100
AcDbEntity
  8
0
  6
ByBlock
 62
     0
100
AcDbLine
 10
-1.0
 20
0.26794919
 30
0.0
 11
0.0
 21
0.0
 31
0.0
  0
LINE
  5
AB9
330
28D9
100
AcDbEntity
  8
0
  6
ByBlock
 62
     0
100
AcDbLine
 10
0.0
 20
0.0
 30
0.0
 11
-1.0
 21
-0.26794919
 31
0.0
  0
LINE
  5
ABA
330
28D9
100
AcDbEntity
  8
0
  6
ByBlock
 62
     0
100
AcDbLine
 10
0.0
 20
0.0
 30
0.0
 11
-1.0
 21
0.0
 31
0.0
  0
ENDBLK
  5
ABC
330
28D9
100
AcDbEntity
  8
0
 62
     1
100
AcDbBlockEnd
  0
BLOCK
  5
28DC
330
28DB
100
AcDbEntity
  8
0
100
AcDbBlockBegin
  2
*D5
 70
     1
 10
0.0
 20
0.0
 30
0.0
  3
*D5
  1

  0
LINE
  5
1296
330
28DB
100
AcDbEntity
  8
SIZE
 62
     0
100
AcDbLine
 10
-134.5
 20
-320.0
 30
0.0
 11
-134.5
 21
-468.0173952306001
 31
0.0
  0
LINE
  5
1297
330
28DB
100
AcDbEntity
  8
SIZE
 62
     0
100
AcDbLine
 10
134.5
 20
-320.0
 30
0.0
 11
134.5
 21
-468.0173952306001
 31
0.0
  0
LINE
  5
1298
330
28DB
100
AcDbEntity
  8
SIZE
 62
     0
100
AcDbLine
 10
-122.5
 20
-448.0173952306
 30
0.0
 11
122.5
 21
-448.0173952306
 31
0.0
  0
INSERT
  5
1299
330
28DB
100
AcDbEntity
  8
SIZE
 62
     0
100
AcDbBlockReference
  2
_DOTBLANK
 10
-134.5
 20
-448.0173952306
 30
0.0
 41
12.0
 42
12.0
 43
12.0
 50
180.0
  0
INSERT
  5
129A
330
28DB
100
AcDbEntity
  8
SIZE
 62
     0
100
AcDbBlockReference
  2
_DOTBLANK
 10
134.5
 20
-448.0173952306
 30
0.0
 41
12.0
 42
12.0
 43
12.0
  0
INSERT
  5
129B
330
28DB
100
AcDbEntity
  8
0
100
AcDbBlockReference
  2
*U6
 10
0.0
 20
0.0
 30
0.0
  0
POINT
  5
129C
330
28DB
100
AcDbEntity
  8
DEFPOINTS
 62
     0
100
AcDbPoint
 10
-134.5
 20
-300.0
 30
0.0
  0
POINT
  5
129D
330
28DB
100
AcDbEntity
  8
DEFPOINTS
 62
     0
100
AcDbPoint
 10
134.5
 20
-300.0
 30
0.0
  0
POINT
  5
129E
330
28DB
100
AcDbEntity
  8
DEFPOINTS
 62
     0
100
AcDbPoint
 10
134.5
 20
-448.0173952306
 30
0.0
  0
ENDBLK
  5
D72
330
28DB
100
AcDbEntity
  8
0
100
AcDbBlockEnd
  0
BLOCK
  5
28DE
330
28DD
100
AcDbEntity
  8
0
100
AcDbBlockBegin
  2
*U6
 70
     1
 10
0.0
 20
0.0
 30
0.0
  3
*U6
  1

  0
TEXT
  5
1EF5
330
28DD
100
AcDbEntity
  8
SIZE
 62
     0
100
AcDbText
 10
-72.68571428571426
 20
-438.0173952305999
 30
0.0
 40
64.0
  1
269
 41
0.9
100
AcDbText
  0
ENDBLK
  5
1EF7
330
28DD
100
AcDbEntity
  8
0
100
AcDbBlockEnd
  0
BLOCK
  5
28E0
330
28DF
100
AcDbEntity
  8
0
100
AcDbBlockBegin
  2
*D7
 70
     1
 10
0.0
 20
0.0
 30
0.0
  3
*D7
  1

  0
LINE
  5
11A7
330
28DF
100
AcDbEntity
  8
SIZE
  6
Continuous
 62
     0
100
AcDbLine
 10
143.5
 20
-300.0
 30
0.0
 11
304.6432844803791
 21
-300.0
 31
0.0
  0
LINE
  5
11A8
330
28DF
100
AcDbEntity
  8
SIZE
  6
Continuous
 62
     0
100
AcDbLine
 10
177.5
 20
-0.0000000000000057
 30
0.0
 11
304.6432844803792
 21
-0.0000000000000417
 31
0.0
  0
LINE
  5
11A9
330
28DF
100
AcDbEntity
  8
SIZE
  6
Continuous
 62
     0
100
AcDbLine
 10
284.6432844803791
 20
-288.0000000000001
 30
0.0
 11
284.6432844803792
 21
-12.00000000000003
 31
0.0
  0
INSERT
  5
11AA
330
28DF
100
AcDbEntity
  8
SIZE
  6
Continuous
 62
     0
100
AcDbBlockReference
  2
_DOTBLANK
 10
284.6432844803791
 20
-300.0
 30
0.0
 41
12.0
 42
12.0
 43
12.0
 50
270.0
  0
INSERT
  5
11AB
330
28DF
100
AcDbEntity
  8
SIZE
  6
Continuous
 62
     0
100
AcDbBlockReference
  2
_DOTBLANK
 10
284.6432844803792
 20
-0.000000000000036
 30
0.0
 41
12.0
 42
12.0
 43
12.0
 50
90.0
  0
INSERT
  5
11AC
330
28DF
100
AcDbEntity
  8
0
100
AcDbBlockReference
  2
*U8
 10
0.0
 20
0.0
 30
0.0
  0
POINT
  5
11AD
330
28DF
100
AcDbEntity
  8
DEFPOINTS
  6
Continuous
 62
     0
100
AcDbPoint
 10
123.5
 20
-300.0
 30
0.0
  0
POINT
  5
11AE
330
28DF
100
AcDbEntity
  8
DEFPOINTS
  6
Continuous
 62
     0
100
AcDbPoint
 10
157.5
 20
0.0
 30
0.0
  0
POINT
  5
11AF
330
28DF
100
AcDbEntity
  8
DEFPOINTS
  6
Continuous
 62
     0
100
AcDbPoint
 10
284.6432844803792
 20
-0.000000000000036
 30
0.0
  0
ENDBLK
  5
E11
330
28DF
100
AcDbEntity
  8
0
100
AcDbBlockEnd
  0
BLOCK
  5
28E2
330
28E1
100
AcDbEntity
  8
0
100
AcDbBlockBegin
  2
*U8
 70
     1
 10
0.0
 20
0.0
 30
0.0
  3
*U8
  1

  0
TEXT
  5
1EE1
330
28E1
100
AcDbEntity
  8
SIZE
 62
     0
100
AcDbText
 10
274.6432844803792
 20
-224.0571428571429
 30
0.0
 40
64.0
  1
300
 50
90.0
 41
0.9
100
AcDbText
  0
ENDBLK
  5
1EE3
330
28E1
100
AcDbEntity
  8
0
100
AcDbBlockEnd
  0
BLOCK
  5
28E4
330
28E3
100
AcDbEntity
  8
0
100
AcDbBlockBegin
  2
*D9
 70
     1
 10
0.0
 20
0.0
 30
0.0
  3
*D9
  1

  0
LINE
  5
E7D
330
28E3
100
AcDbEntity
  8
SIZE
 62
     0
100
AcDbLine
 10
-139.9999999999998
 20
32.46448280219375
 30
0.0
 11
-139.9999999999998
 21
136.4516878685508
 31
0.0
  0
LINE
  5
E7E
330
28E3
100
AcDbEntity
  8
SIZE
 62
     0
100
AcDbLine
 10
140.0
 20
32.46448280219375
 30
0.0
 11
140.0
 21
136.4516878685508
 31
0.0
  0
LINE
  5
E7F
330
28E3
100
AcDbEntity
  8
SIZE
 62
     0
100
AcDbLine
 10
-128.0
 20
116.4516878685508
 30
0.0
 11
128.0
 21
116.4516878685508
 31
0.0
  0
INSERT
  5
E80
330
28E3
100
AcDbEntity
  8
SIZE
 62
     0
100
AcDbBlockReference
  2
_DOTBLANK
 10
-139.9999999999998
 20
116.4516878685508
 30
0.0
 41
12.0
 42
12.0
 43
12.0
 50
180.0
  0
INSERT
  5
E81
330
28E3
100
AcDbEntity
  8
SIZE
 62
     0
100
AcDbBlockReference
  2
_DOTBLANK
 10
140.0
 20
116.4516878685508
 30
0.0
 41
12.0
 42
12.0
 43
12.0
  0
INSERT
  5
E82
330
28E3
100
AcDbEntity
  8
0
100
AcDbBlockReference
  2
*U10
 10
0.0
 20
0.0
 30
0.0
  0
POINT
  5
E83
330
28E3
100
AcDbEntity
  8
DEFPOINTS
 62
     0
100
AcDbPoint
 10
-139.9999999999998
 20
12.46448280219374
 30
0.0
  0
POINT
  5
E84
330
28E3
100
AcDbEntity
  8
DEFPOINTS
 62
     0
100
AcDbPoint
 10
140.0
 20
12.46448280219374
 30
0.0
  0
POINT
  5
E85
330
28E3
100
AcDbEntity
  8
DEFPOINTS
 62
     0
100
AcDbPoint
 10
140.0
 20
116.4516878685508
 30
0.0
  0
ENDBLK
  5
E7C
330
28E3
100
AcDbEntity
  8
0
100
AcDbBlockEnd
  0
BLOCK
  5
28E6
330
28E5
100
AcDbEntity
  8
0
100
AcDbBlockBegin
  2
*U10
 70
     1
 10
0.0
 20
0.0
 30
0.0
  3
*U10
  1

  0
TEXT
  5
1ED8
330
28E5
100
AcDbEntity
  8
SIZE
 62
     0
100
AcDbText
 10
-74.05714285714281
 20
126.4516878685508
 30
0.0
 40
64.0
  1
280
 41
0.9
100
AcDbText
  0
ENDBLK
  5
1EDA
330
28E5
100
AcDbEntity
  8
0
100
AcDbBlockEnd
  0
BLOCK
  5
28E8
330
28E7
100
AcDbEntity
  8
0
100
AcDbBlockBegin
  2
GENAXEH
 70
     0
 10
0.0
 20
0.0
 30
0.0
  3
GENAXEH
  1

  0
LINE
  5
FDB
330
28E7
100
AcDbEntity
  8
0
100
AcDbLine
 10
-1.0
 20
0.0
 30
0.0
 11
1.0
 21
0.0
 31
0.0
  0
ENDBLK
  5
FDD
330
28E7
100
AcDbEntity
  8
0
100
AcDbBlockEnd
  0
BLOCK
  5
28EA
330
28E9
100
AcDbEntity
  8
0
100
AcDbBlockBegin
  2
*D12
 70
     1
 10
0.0
 20
0.0
 30
0.0
  3
*D12
  1

  0
LINE
  5
1120
330
28E9
100
AcDbEntity
  8
SIZE
 62
     0
100
AcDbLine
 10
-157.5
 20
20.0
 30
0.0
 11
-157.5
 21
245.5794621189598
 31
0.0
  0
LINE
  5
1121
330
28E9
100
AcDbEntity
  8
SIZE
 62
     0
100
AcDbLine
 10
157.5
 20
20.0
 30
0.0
 11
157.5
 21
245.5794621189598
 31
0.0
  0
LINE
  5
1122
330
28E9
100
AcDbEntity
  8
SIZE
 62
     0
100
AcDbLine
 10
-145.5
 20
225.5794621189598
 30
0.0
 11
145.5
 21
225.5794621189598
 31
0.0
  0
INSERT
  5
1123
330
28E9
100
AcDbEntity
  8
SIZE
 62
     0
100
AcDbBlockReference
  2
_DOTBLANK
 10
-157.5
 20
225.5794621189598
 30
0.0
 41
12.0
 42
12.0
 43
12.0
 50
180.0
  0
INSERT
  5
1124
330
28E9
100
AcDbEntity
  8
SIZE
 62
     0
100
AcDbBlockReference
  2
_DOTBLANK
 10
157.5
 20
225.5794621189598
 30
0.0
 41
12.0
 42
12.0
 43
12.0
  0
INSERT
  5
1125
330
28E9
100
AcDbEntity
  8
0
100
AcDbBlockReference
  2
*U13
 10
0.0
 20
0.0
 30
0.0
  0
POINT
  5
1126
330
28E9
100
AcDbEntity
  8
DEFPOINTS
 62
     0
100
AcDbPoint
 10
-157.5
 20
0.0
 30
0.0
  0
POINT
  5
1127
330
28E9
100
AcDbEntity
  8
DEFPOINTS
 62
     0
100
AcDbPoint
 10
157.5
 20
0.0
 30
0.0
  0
POINT
  5
1128
330
28E9
100
AcDbEntity
  8
DEFPOINTS
 62
     0
100
AcDbPoint
 10
157.5
 20
225.5794621189598
 30
0.0
  0
ENDBLK
  5
111F
330
28E9
100
AcDbEntity
  8
0
100
AcDbBlockEnd
  0
BLOCK
  5
28EC
330
28EB
100
AcDbEntity
  8
0
100
AcDbBlockBegin
  2
*U13
 70
     1
 10
0.0
 20
0.0
 30
0.0
  3
*U13
  1

  0
TEXT
  5
1EDD
330
28EB
100
AcDbEntity
  8
SIZE
 62
     0
100
AcDbText
 10
-68.57142857142857
 20
235.5794621189599
 30
0.0
 40
64.0
  1
315
 41
0.9
100
AcDbText
  0
ENDBLK
  5
1EDF
330
28EB
100
AcDbEntity
  8
0
100
AcDbBlockEnd
  0
BLOCK
  5
28EE
330
28ED
100
AcDbEntity
  8
0
100
AcDbBlockBegin
  2
*D14
 70
     1
 10
0.0
 20
0.0
 30
0.0
  3
*D14
  1

  0
LINE
  5
11BD
330
28ED
100
AcDbEntity
  8
NOTE
 62
     0
100
AcDbLine
 10
-123.4999999999999
 20
-320.0
 30
0.0
 11
-123.4999999999999
 21
-354.9529861856111
 31
0.0
  0
LINE
  5
11BE
330
28ED
100
AcDbEntity
  8
NOTE
 62
     0
100
AcDbLine
 10
-133.4999999999998
 20
-331.2126909923287
 30
0.0
 11
-133.4999999999998
 21
-354.9529861856111
 31
0.0
  0
LINE
  5
11BF
330
28ED
100
AcDbEntity
  8
NOTE
 62
     0
100
AcDbLine
 10
-111.4999999999999
 20
-334.9529861856112
 30
0.0
 11
-99.4999999999999
 21
-334.9529861856112
 31
0.0
  0
LINE
  5
11C0
330
28ED
100
AcDbEntity
  8
NOTE
 62
     0
100
AcDbLine
 10
-145.4999999999998
 20
-334.9529861856112
 30
0.0
 11
-157.4999999999998
 21
-334.9529861856112
 31
0.0
  0
LINE
  5
11C1
330
28ED
100
AcDbEntity
  8
NOTE
 62
     0
100
AcDbLine
 10
-123.4999999999999
 20
-334.9529861856112
 30
0.0
 11
-133.4999999999998
 21
-334.9529861856112
 31
0.0
  0
INSERT
  5
11C2
330
28ED
100
AcDbEntity
  8
NOTE
 62
     0
100
AcDbBlockReference
  2
_DOTBLANK
 10
-123.4999999999999
 20
-334.9529861856112
 30
0.0
 41
12.0
 42
12.0
 43
12.0
 50
180.0
  0
INSERT
  5
11C3
330
28ED
100
AcDbEntity
  8
NOTE
 62
     0
100
AcDbBlockReference
  2
_DOTBLANK
 10
-133.4999999999998
 20
-334.9529861856112
 30
0.0
 41
12.0
 42
12.0
 43
12.0
  0
INSERT
  5
11C4
330
28ED
100
AcDbEntity
  8
0
100
AcDbBlockReference
  2
*U15
 10
0.0
 20
0.0
 30
0.0
  0
POINT
  5
11C5
330
28ED
100
AcDbEntity
  8
DEFPOINTS
 62
     0
100
AcDbPoint
 10
-123.4999999999999
 20
-300.0
 30
0.0
  0
POINT
  5
11C6
330
28ED
100
AcDbEntity
  8
DEFPOINTS
 62
     0
100
AcDbPoint
 10
-133.4999999999998
 20
-311.2126909923287
 30
0.0
  0
POINT
  5
11C7
330
28ED
100
AcDbEntity
  8
DEFPOINTS
 62
     0
100
AcDbPoint
 10
-133.4999999999998
 20
-334.9529861856112
 30
0.0
  0
ENDBLK
  5
11BC
330
28ED
100
AcDbEntity
  8
0
100
AcDbBlockEnd
  0
BLOCK
  5
28F0
330
28EF
100
AcDbEntity
  8
0
100
AcDbBlockBegin
  2
*U15
 70
     1
 10
0.0
 20
0.0
 30
0.0
  3
*U15
  1

  0
TEXT
  5
1EE5
330
28EF
100
AcDbEntity
  8
NOTE
 62
     0
100
AcDbText
 10
-169.642857142857
 20
-324.9529861856112
 30
0.0
 40
64.0
  1
10
 41
0.9
100
AcDbText
  0
ENDBLK
  5
1EE7
330
28EF
100
AcDbEntity
  8
0
100
AcDbBlockEnd
  0
BLOCK
  5
28F2
330
28F1
100
AcDbEntity
  8
0
100
AcDbBlockBegin
  2
*D16
 70
     1
 10
0.0
 20
0.0
 30
0.0
  3
*D16
  1

  0
LINE
  5
11E7
330
28F1
100
AcDbEntity
  8
NOTE
 62
     0
100
AcDbLine
 10
-135.5
 20
-333.2126909923287
 30
0.0
 11
-135.5
 21
-386.2569421441843
 31
0.0
  0
LINE
  5
11E8
330
28F1
100
AcDbEntity
  8
NOTE
 62
     0
100
AcDbLine
 10
-123.4999999999999
 20
-320.0
 30
0.0
 11
-123.4999999999999
 21
-386.2569421441843
 31
0.0
  0
LINE
  5
11E9
330
28F1
100
AcDbEntity
  8
NOTE
 62
     0
100
AcDbLine
 10
-147.5
 20
-366.2569421441844
 30
0.0
 11
-159.5
 21
-366.2569421441844
 31
0.0
  0
LINE
  5
11EA
330
28F1
100
AcDbEntity
  8
NOTE
 62
     0
100
AcDbLine
 10
-111.4999999999999
 20
-366.2569421441844
 30
0.0
 11
-99.4999999999999
 21
-366.2569421441844
 31
0.0
  0
LINE
  5
11EB
330
28F1
100
AcDbEntity
  8
NOTE
 62
     0
100
AcDbLine
 10
-135.5
 20
-366.2569421441844
 30
0.0
 11
-123.4999999999999
 21
-366.2569421441844
 31
0.0
  0
INSERT
  5
11EC
330
28F1
100
AcDbEntity
  8
NOTE
 62
     0
100
AcDbBlockReference
  2
_DOTBLANK
 10
-135.5
 20
-366.2569421441844
 30
0.0
 41
12.0
 42
12.0
 43
12.0
  0
INSERT
  5
11ED
330
28F1
100
AcDbEntity
  8
NOTE
 62
     0
100
AcDbBlockReference
  2
_DOTBLANK
 10
-123.4999999999999
 20
-366.2569421441844
 30
0.0
 41
12.0
 42
12.0
 43
12.0
 50
180.0
  0
INSERT
  5
11EE
330
28F1
100
AcDbEntity
  8
0
100
AcDbBlockReference
  2
*U17
 10
0.0
 20
0.0
 30
0.0
  0
POINT
  5
11EF
330
28F1
100
AcDbEntity
  8
DEFPOINTS
 62
     0
100
AcDbPoint
 10
-135.5
 20
-313.2126909923287
 30
0.0
  0
POINT
  5
11F0
330
28F1
100
AcDbEntity
  8
DEFPOINTS
 62
     0
100
AcDbPoint
 10
-123.4999999999999
 20
-300.0
 30
0.0
  0
POINT
  5
11F1
330
28F1
100
AcDbEntity
  8
DEFPOINTS
 62
     0
100
AcDbPoint
 10
-123.4999999999999
 20
-366.2569421441844
 30
0.0
  0
ENDBLK
  5
11E6
330
28F1
100
AcDbEntity
  8
0
100
AcDbBlockEnd
  0
BLOCK
  5
28F4
330
28F3
100
AcDbEntity
  8
0
100
AcDbBlockBegin
  2
*U17
 70
     1
 10
0.0
 20
0.0
 30
0.0
  3
*U17
  1

  0
TEXT
  5
1EE9
330
28F3
100
AcDbEntity
  8
NOTE
 62
     0
100
AcDbText
 10
-170.642857142857
 20
-356.2569421441843
 30
0.0
 40
64.0
  1
12
 41
0.9
100
AcDbText
  0
ENDBLK
  5
1EEB
330
28F3
100
AcDbEntity
  8
0
100
AcDbBlockEnd
  0
BLOCK
  5
28F6
330
28F5
100
AcDbEntity
  8
0
100
AcDbBlockBegin
  2
*D18
 70
     1
 10
0.0
 20
0.0
 30
0.0
  3
*D18
  1

  0
LINE
  5
11F6
330
28F5
100
AcDbEntity
  8
NOTE
 62
     0
100
AcDbLine
 10
-123.4999999999999
 20
-320.0
 30
0.0
 11
-123.4999999999999
 21
-583.8286022818904
 31
0.0
  0
LINE
  5
11F7
330
28F5
100
AcDbEntity
  8
NOTE
 62
     0
100
AcDbLine
 10
123.5
 20
-320.0
 30
0.0
 11
123.5
 21
-583.8286022818904
 31
0.0
  0
LINE
  5
11F8
330
28F5
100
AcDbEntity
  8
NOTE
 62
     0
100
AcDbLine
 10
-111.4999999999999
 20
-563.8286022818904
 30
0.0
 11
111.5
 21
-563.8286022818904
 31
0.0
  0
INSERT
  5
11F9
330
28F5
100
AcDbEntity
  8
NOTE
 62
     0
100
AcDbBlockReference
  2
_DOTBLANK
 10
-123.4999999999999
 20
-563.8286022818904
 30
0.0
 41
12.0
 42
12.0
 43
12.0
 50
180.0
  0
INSERT
  5
11FA
330
28F5
100
AcDbEntity
  8
NOTE
 62
     0
100
AcDbBlockReference
  2
_DOTBLANK
 10
123.5
 20
-563.8286022818904
 30
0.0
 41
12.0
 42
12.0
 43
12.0
  0
INSERT
  5
11FB
330
28F5
100
AcDbEntity
  8
0
100
AcDbBlockReference
  2
*U19
 10
0.0
 20
0.0
 30
0.0
  0
POINT
  5
11FC
330
28F5
100
AcDbEntity
  8
DEFPOINTS
 62
     0
100
AcDbPoint
 10
-123.4999999999999
 20
-300.0
 30
0.0
  0
POINT
  5
11FD
330
28F5
100
AcDbEntity
  8
DEFPOINTS
 62
     0
100
AcDbPoint
 10
123.5
 20
-300.0
 30
0.0
  0
POINT
  5
11FE
330
28F5
100
AcDbEntity
  8
DEFPOINTS
 62
     0
100
AcDbPoint
 10
123.5
 20
-563.8286022818904
 30
0.0
  0
ENDBLK
  5
11F5
330
28F5
100
AcDbEntity
  8
0
100
AcDbBlockEnd
  0
BLOCK
  5
28F8
330
28F7
100
AcDbEntity
  8
0
100
AcDbBlockBegin
  2
*U19
 70
     1
 10
0.0
 20
0.0
 30
0.0
  3
*U19
  1

  0
TEXT
  5
1EED
330
28F7
100
AcDbEntity
  8
NOTE
 62
     0
100
AcDbText
 10
-74.05714285714281
 20
-553.8286022818904
 30
0.0
 40
64.0
  1
247
 41
0.9
100
AcDbText
  0
ENDBLK
  5
1EEF
330
28F7
100
AcDbEntity
  8
0
100
AcDbBlockEnd
  0
BLOCK
  5
28FA
330
28F9
100
AcDbEntity
  8
0
100
AcDbBlockBegin
  2
*D20
 70
     1
 10
0.0
 20
0.0
 30
0.0
  3
*D20
  1

  0
LINE
  5
1284
330
28F9
100
AcDbEntity
  8
NOTE
 62
     0
100
AcDbLine
 10
-123.5
 20
12.0
 30
0.0
 11
-123.5
 21
71.83630134534229
 31
0.0
  0
LINE
  5
1285
330
28F9
100
AcDbEntity
  8
NOTE
 62
     0
100
AcDbLine
 10
123.5
 20
12.0
 30
0.0
 11
123.5
 21
71.83630134534229
 31
0.0
  0
LINE
  5
1286
330
28F9
100
AcDbEntity
  8
NOTE
 62
     0
100
AcDbLine
 10
-111.5
 20
51.83630134534229
 30
0.0
 11
111.5
 21
51.83630134534229
 31
0.0
  0
INSERT
  5
1287
330
28F9
100
AcDbEntity
  8
NOTE
 62
     0
100
AcDbBlockReference
  2
_DOTBLANK
 10
-123.5
 20
51.83630134534229
 30
0.0
 41
12.0
 42
12.0
 43
12.0
 50
180.0
  0
INSERT
  5
1288
330
28F9
100
AcDbEntity
  8
NOTE
 62
     0
100
AcDbBlockReference
  2
_DOTBLANK
 10
123.5
 20
51.83630134534229
 30
0.0
 41
12.0
 42
12.0
 43
12.0
  0
INSERT
  5
1289
330
28F9
100
AcDbEntity
  8
0
100
AcDbBlockReference
  2
*U21
 10
0.0
 20
0.0
 30
0.0
  0
POINT
  5
128A
330
28F9
100
AcDbEntity
  8
DEFPOINTS
 62
     0
100
AcDbPoint
 10
-123.5
 20
-8.0
 30
0.0
  0
POINT
  5
128B
330
28F9
100
AcDbEntity
  8
DEFPOINTS
 62
     0
100
AcDbPoint
 10
123.5
 20
-8.0
 30
0.0
  0
POINT
  5
128C
330
28F9
100
AcDbEntity
  8
DEFPOINTS
 62
     0
100
AcDbPoint
 10
123.5
 20
51.83630134534229
 30
0.0
  0
ENDBLK
  5
1283
330
28F9
100
AcDbEntity
  8
0
100
AcDbBlockEnd
  0
BLOCK
  5
28FC
330
28FB
100
AcDbEntity
  8
0
100
AcDbBlockBegin
  2
*U21
 70
     1
 10
0.0
 20
0.0
 30
0.0
  3
*U21
  1

  0
TEXT
  5
1EF1
330
28FB
100
AcDbEntity
  8
NOTE
 62
     0
100
AcDbText
 10
-74.05714285714283
 20
61.83630134534229
 30
0.0
 40
64.0
  1
247
 41
0.9
100
AcDbText
  0
ENDBLK
  5
1EF3
330
28FB
100
AcDbEntity
  8
0
100
AcDbBlockEnd
  0
BLOCK
  5
28FE
330
28FD
100
AcDbEntity
  8
0
100
AcDbBlockBegin
  2
*D22
 70
     1
 10
0.0
 20
0.0
 30
0.0
  3
*D22
  1

  0
LINE
  5
1414
330
28FD
100
AcDbEntity
  8
SIZE
 62
     0
100
AcDbLine
 10
-22313.11521613997
 20
7365.702971374808
 30
0.0
 11
-22313.11521613997
 21
7217.685576144207
 31
0.0
  0
LINE
  5
1415
330
28FD
100
AcDbEntity
  8
SIZE
 62
     0
100
AcDbLine
 10
-22044.11521613997
 20
7365.702971374808
 30
0.0
 11
-22044.11521613997
 21
7217.685576144207
 31
0.0
  0
LINE
  5
1416
330
28FD
100
AcDbEntity
  8
SIZE
 62
     0
100
AcDbLine
 10
-22301.11521613997
 20
7237.685576144207
 30
0.0
 11
-22056.11521613997
 21
7237.685576144207
 31
0.0
  0
INSERT
  5
1417
330
28FD
100
AcDbEntity
  8
SIZE
 62
     0
100
AcDbBlockReference
  2
_DOTBLANK
 10
-22313.11521613997
 20
7237.685576144207
 30
0.0
 41
12.0
 42
12.0
 43
12.0
 50
180.0
  0
INSERT
  5
1418
330
28FD
100
AcDbEntity
  8
SIZE
 62
     0
100
AcDbBlockReference
  2
_DOTBLANK
 10
-22044.11521613997
 20
7237.685576144207
 30
0.0
 41
12.0
 42
12.0
 43
12.0
  0
INSERT
  5
1419
330
28FD
100
AcDbEntity
  8
0
100
AcDbBlockReference
  2
*U23
 10
0.0
 20
0.0
 30
0.0
  0
POINT
  5
141A
330
28FD
100
AcDbEntity
  8
DEFPOINTS
 62
     0
100
AcDbPoint
 10
-22313.11521613997
 20
7385.702971374808
 30
0.0
  0
POINT
  5
141B
330
28FD
100
AcDbEntity
  8
DEFPOINTS
 62
     0
100
AcDbPoint
 10
-22044.11521613997
 20
7385.702971374808
 30
0.0
  0
POINT
  5
141C
330
28FD
100
AcDbEntity
  8
DEFPOINTS
 62
     0
100
AcDbPoint
 10
-22044.11521613997
 20
7237.685576144207
 30
0.0
  0
ENDBLK
  5
141D
330
28FD
100
AcDbEntity
  8
0
100
AcDbBlockEnd
  0
BLOCK
  5
2900
330
28FF
100
AcDbEntity
  8
0
100
AcDbBlockBegin
  2
*U23
 70
     1
 10
0.0
 20
0.0
 30
0.0
  3
*U23
  1

  0
TEXT
  5
1EF9
330
28FF
100
AcDbEntity
  8
SIZE
 62
     0
100
AcDbText
 10
-22251.30093042568
 20
7247.685576144205
 30
0.0
 40
64.0
  1
269
 41
0.9
100
AcDbText
  0
ENDBLK
  5
1EFB
330
28FF
100
AcDbEntity
  8
0
100
AcDbBlockEnd
  0
BLOCK
  5
2902
330
2901
100
AcDbEntity
  8
0
100
AcDbBlockBegin
  2
*D24
 70
     1
 10
0.0
 20
0.0
 30
0.0
  3
*D24
  1

  0
LINE
  5
1420
330
2901
100
AcDbEntity
  8
SIZE
  6
Continuous
 62
     0
100
AcDbLine
 10
-22035.11521613997
 20
7385.702971374808
 30
0.0
 11
-21873.97193165959
 21
7385.702971374808
 31
0.0
  0
LINE
  5
1421
330
2901
100
AcDbEntity
  8
SIZE
  6
Continuous
 62
     0
100
AcDbLine
 10
-22001.11521613997
 20
7685.702971374808
 30
0.0
 11
-21873.97193165959
 21
7685.702971374808
 31
0.0
  0
LINE
  5
1422
330
2901
100
AcDbEntity
  8
SIZE
  6
Continuous
 62
     0
100
AcDbLine
 10
-21893.97193165959
 20
7397.702971374808
 30
0.0
 11
-21893.97193165959
 21
7673.702971374808
 31
0.0
  0
INSERT
  5
1423
330
2901
100
AcDbEntity
  8
SIZE
  6
Continuous
 62
     0
100
AcDbBlockReference
  2
_DOTBLANK
 10
-21893.97193165959
 20
7385.702971374808
 30
0.0
 41
12.0
 42
12.0
 43
12.0
 50
270.0
  0
INSERT
  5
1424
330
2901
100
AcDbEntity
  8
SIZE
  6
Continuous
 62
     0
100
AcDbBlockReference
  2
_DOTBLANK
 10
-21893.97193165959
 20
7685.702971374808
 30
0.0
 41
12.0
 42
12.0
 43
12.0
 50
90.0
  0
INSERT
  5
1425
330
2901
100
AcDbEntity
  8
0
100
AcDbBlockReference
  2
*U25
 10
0.0
 20
0.0
 30
0.0
  0
POINT
  5
1426
330
2901
100
AcDbEntity
  8
DEFPOINTS
  6
Continuous
 62
     0
100
AcDbPoint
 10
-22055.11521613997
 20
7385.702971374808
 30
0.0
  0
POINT
  5
1427
330
2901
100
AcDbEntity
  8
DEFPOINTS
  6
Continuous
 62
     0
100
AcDbPoint
 10
-22021.11521613997
 20
7685.702971374808
 30
0.0
  0
POINT
  5
1428
330
2901
100
AcDbEntity
  8
DEFPOINTS
  6
Continuous
 62
     0
100
AcDbPoint
 10
-21893.97193165959
 20
7685.702971374808
 30
0.0
  0
ENDBLK
  5
1429
330
2901
100
AcDbEntity
  8
0
100
AcDbBlockEnd
  0
BLOCK
  5
2904
330
2903
100
AcDbEntity
  8
0
100
AcDbBlockBegin
  2
*U25
 70
     1
 10
0.0
 20
0.0
 30
0.0
  3
*U25
  1

  0
TEXT
  5
1EFD
330
2903
100
AcDbEntity
  8
SIZE
 62
     0
100
AcDbText
 10
-21903.97193165959
 20
7461.645828517662
 30
0.0
 40
64.0
  1
300
 50
90.0
 41
0.9
100
AcDbText
  0
ENDBLK
  5
1EFF
330
2903
100
AcDbEntity
  8
0
100
AcDbBlockEnd
  0
BLOCK
  5
2906
330
2905
100
AcDbEntity
  8
0
100
AcDbBlockBegin
  2
*D26
 70
     1
 10
0.0
 20
0.0
 30
0.0
  3
*D26
  1

  0
LINE
  5
142C
330
2905
100
AcDbEntity
  8
SIZE
 62
     0
100
AcDbLine
 10
-22318.61521613997
 20
7718.167454177002
 30
0.0
 11
-22318.61521613997
 21
7822.154659243358
 31
0.0
  0
LINE
  5
142D
330
2905
100
AcDbEntity
  8
SIZE
 62
     0
100
AcDbLine
 10
-22038.61521613997
 20
7718.167454177002
 30
0.0
 11
-22038.61521613997
 21
7822.154659243358
 31
0.0
  0
LINE
  5
142E
330
2905
100
AcDbEntity
  8
SIZE
 62
     0
100
AcDbLine
 10
-22306.61521613997
 20
7802.154659243358
 30
0.0
 11
-22050.61521613997
 21
7802.154659243358
 31
0.0
  0
INSERT
  5
142F
330
2905
100
AcDbEntity
  8
SIZE
 62
     0
100
AcDbBlockReference
  2
_DOTBLANK
 10
-22318.61521613997
 20
7802.154659243358
 30
0.0
 41
12.0
 42
12.0
 43
12.0
 50
180.0
  0
INSERT
  5
1430
330
2905
100
AcDbEntity
  8
SIZE
 62
     0
100
AcDbBlockReference
  2
_DOTBLANK
 10
-22038.61521613997
 20
7802.154659243358
 30
0.0
 41
12.0
 42
12.0
 43
12.0
  0
INSERT
  5
1431
330
2905
100
AcDbEntity
  8
0
100
AcDbBlockReference
  2
*U27
 10
0.0
 20
0.0
 30
0.0
  0
POINT
  5
1432
330
2905
100
AcDbEntity
  8
DEFPOINTS
 62
     0
100
AcDbPoint
 10
-22318.61521613997
 20
7698.167454177002
 30
0.0
  0
POINT
  5
1433
330
2905
100
AcDbEntity
  8
DEFPOINTS
 62
     0
100
AcDbPoint
 10
-22038.61521613997
 20
7698.167454177002
 30
0.0
  0
POINT
  5
1434
330
2905
100
AcDbEntity
  8
DEFPOINTS
 62
     0
100
AcDbPoint
 10
-22038.61521613997
 20
7802.154659243358
 30
0.0
  0
ENDBLK
  5
1435
330
2905
100
AcDbEntity
  8
0
100
AcDbBlockEnd
  0
BLOCK
  5
2908
330
2907
100
AcDbEntity
  8
0
100
AcDbBlockBegin
  2
*U27
 70
     1
 10
0.0
 20
0.0
 30
0.0
  3
*U27
  1

  0
TEXT
  5
1F01
330
2907
100
AcDbEntity
  8
SIZE
 62
     0
100
AcDbText
 10
-22252.6723589971
 20
7812.154659243358
 30
0.0
 40
64.0
  1
280
 41
0.9
100
AcDbText
  0
ENDBLK
  5
1F03
330
2907
100
AcDbEntity
  8
0
100
AcDbBlockEnd
  0
BLOCK
  5
290A
330
2909
100
AcDbEntity
  8
0
100
AcDbBlockBegin
  2
*D28
 70
     1
 10
0.0
 20
0.0
 30
0.0
  3
*D28
  1

  0
LINE
  5
1438
330
2909
100
AcDbEntity
  8
SIZE
 62
     0
100
AcDbLine
 10
-22336.11521613997
 20
7705.702971374808
 30
0.0
 11
-22336.11521613997
 21
7931.282433493766
 31
0.0
  0
LINE
  5
1439
330
2909
100
AcDbEntity
  8
SIZE
 62
     0
100
AcDbLine
 10
-22021.11521613997
 20
7705.702971374808
 30
0.0
 11
-22021.11521613997
 21
7931.282433493766
 31
0.0
  0
LINE
  5
143A
330
2909
100
AcDbEntity
  8
SIZE
 62
     0
100
AcDbLine
 10
-22324.11521613997
 20
7911.282433493766
 30
0.0
 11
-22033.11521613997
 21
7911.282433493766
 31
0.0
  0
INSERT
  5
143B
330
2909
100
AcDbEntity
  8
SIZE
 62
     0
100
AcDbBlockReference
  2
_DOTBLANK
 10
-22336.11521613997
 20
7911.282433493766
 30
0.0
 41
12.0
 42
12.0
 43
12.0
 50
180.0
  0
INSERT
  5
143C
330
2909
100
AcDbEntity
  8
SIZE
 62
     0
100
AcDbBlockReference
  2
_DOTBLANK
 10
-22021.11521613997
 20
7911.282433493766
 30
0.0
 41
12.0
 42
12.0
 43
12.0
  0
INSERT
  5
143D
330
2909
100
AcDbEntity
  8
0
100
AcDbBlockReference
  2
*U29
 10
0.0
 20
0.0
 30
0.0
  0
POINT
  5
143E
330
2909
100
AcDbEntity
  8
DEFPOINTS
 62
     0
100
AcDbPoint
 10
-22336.11521613997
 20
7685.702971374808
 30
0.0
  0
POINT
  5
143F
330
2909
100
AcDbEntity
  8
DEFPOINTS
 62
     0
100
AcDbPoint
 10
-22021.11521613997
 20
7685.702971374808
 30
0.0
  0
POINT
  5
1440
330
2909
100
AcDbEntity
  8
DEFPOINTS
 62
     0
100
AcDbPoint
 10
-22021.11521613997
 20
7911.282433493766
 30
0.0
  0
ENDBLK
  5
1441
330
2909
100
AcDbEntity
  8
0
100
AcDbBlockEnd
  0
BLOCK
  5
290C
330
290B
100
AcDbEntity
  8
0
100
AcDbBlockBegin
  2
*U29
 70
     1
 10
0.0
 20
0.0
 30
0.0
  3
*U29
  1

  0
TEXT
  5
1F05
330
290B
100
AcDbEntity
  8
SIZE
 62
     0
100
AcDbText
 10
-22247.18664471139
 20
7921.282433493766
 30
0.0
 40
64.0
  1
315
 41
0.9
100
AcDbText
  0
ENDBLK
  5
1F07
330
290B
100
AcDbEntity
  8
0
100
AcDbBlockEnd
  0
BLOCK
  5
290E
330
290D
100
AcDbEntity
  8
0
100
AcDbBlockBegin
  2
*D30
 70
     1
 10
0.0
 20
0.0
 30
0.0
  3
*D30
  1

  0
LINE
  5
166B
330
290D
100
AcDbEntity
  8
SIZE
 62
     0
100
AcDbLine
 10
-134.5
 20
-320.0
 30
0.0
 11
-134.5
 21
-468.0173952306001
 31
0.0
  0
LINE
  5
166C
330
290D
100
AcDbEntity
  8
SIZE
 62
     0
100
AcDbLine
 10
134.5
 20
-320.0
 30
0.0
 11
134.5
 21
-468.0173952306001
 31
0.0
  0
LINE
  5
166D
330
290D
100
AcDbEntity
  8
SIZE
 62
     0
100
AcDbLine
 10
-122.5
 20
-448.0173952306
 30
0.0
 11
122.5
 21
-448.0173952306
 31
0.0
  0
INSERT
  5
166E
330
290D
100
AcDbEntity
  8
SIZE
 62
     0
100
AcDbBlockReference
  2
_DOTBLANK
 10
-134.5
 20
-448.0173952306
 30
0.0
 41
12.0
 42
12.0
 43
12.0
 50
180.0
  0
INSERT
  5
166F
330
290D
100
AcDbEntity
  8
SIZE
 62
     0
100
AcDbBlockReference
  2
_DOTBLANK
 10
134.5
 20
-448.0173952306
 30
0.0
 41
12.0
 42
12.0
 43
12.0
  0
INSERT
  5
1670
330
290D
100
AcDbEntity
  8
0
100
AcDbBlockReference
  2
*U31
 10
0.0
 20
0.0
 30
0.0
  0
POINT
  5
1671
330
290D
100
AcDbEntity
  8
DEFPOINTS
 62
     0
100
AcDbPoint
 10
-134.5
 20
-300.0
 30
0.0
  0
POINT
  5
1672
330
290D
100
AcDbEntity
  8
DEFPOINTS
 62
     0
100
AcDbPoint
 10
134.5
 20
-300.0
 30
0.0
  0
POINT
  5
1673
330
290D
100
AcDbEntity
  8
DEFPOINTS
 62
     0
100
AcDbPoint
 10
134.5
 20
-448.0173952306
 30
0.0
  0
ENDBLK
  5
14A7
330
290D
100
AcDbEntity
  8
0
100
AcDbBlockEnd
  0
BLOCK
  5
2910
330
290F
100
AcDbEntity
  8
0
100
AcDbBlockBegin
  2
*U31
 70
     1
 10
0.0
 20
0.0
 30
0.0
  3
*U31
  1

  0
TEXT
  5
1F09
330
290F
100
AcDbEntity
  8
SIZE
 62
     0
100
AcDbText
 10
-72.68571428571426
 20
-438.0173952306002
 30
0.0
 40
64.0
  1
269
 41
0.9
100
AcDbText
  0
ENDBLK
  5
1F0B
330
290F
100
AcDbEntity
  8
0
100
AcDbBlockEnd
  0
BLOCK
  5
2912
330
2911
100
AcDbEntity
  8
0
100
AcDbBlockBegin
  2
*D32
 70
     1
 10
0.0
 20
0.0
 30
0.0
  3
*D32
  1

  0
LINE
  5
1674
330
2911
100
AcDbEntity
  8
SIZE
  6
Continuous
 62
     0
100
AcDbLine
 10
143.5
 20
-300.0
 30
0.0
 11
304.6432844803784
 21
-300.0
 31
0.0
  0
LINE
  5
1675
330
2911
100
AcDbEntity
  8
SIZE
  6
Continuous
 62
     0
100
AcDbLine
 10
177.5
 20
-0.0000000000000057
 30
0.0
 11
304.6432844803785
 21
-0.0000000000000417
 31
0.0
  0
LINE
  5
1676
330
2911
100
AcDbEntity
  8
SIZE
  6
Continuous
 62
     0
100
AcDbLine
 10
284.6432844803784
 20
-288.0000000000001
 30
0.0
 11
284.6432844803785
 21
-12.00000000000003
 31
0.0
  0
INSERT
  5
1677
330
2911
100
AcDbEntity
  8
SIZE
  6
Continuous
 62
     0
100
AcDbBlockReference
  2
_DOTBLANK
 10
284.6432844803784
 20
-300.0
 30
0.0
 41
12.0
 42
12.0
 43
12.0
 50
270.0
  0
INSERT
  5
1678
330
2911
100
AcDbEntity
  8
SIZE
  6
Continuous
 62
     0
100
AcDbBlockReference
  2
_DOTBLANK
 10
284.6432844803785
 20
-0.000000000000036
 30
0.0
 41
12.0
 42
12.0
 43
12.0
 50
90.0
  0
INSERT
  5
1679
330
2911
100
AcDbEntity
  8
0
100
AcDbBlockReference
  2
*U33
 10
0.0
 20
0.0
 30
0.0
  0
POINT
  5
167A
330
2911
100
AcDbEntity
  8
DEFPOINTS
  6
Continuous
 62
     0
100
AcDbPoint
 10
123.5
 20
-300.0
 30
0.0
  0
POINT
  5
167B
330
2911
100
AcDbEntity
  8
DEFPOINTS
  6
Continuous
 62
     0
100
AcDbPoint
 10
157.5
 20
0.0
 30
0.0
  0
POINT
  5
167C
330
2911
100
AcDbEntity
  8
DEFPOINTS
  6
Continuous
 62
     0
100
AcDbPoint
 10
284.6432844803785
 20
-0.000000000000036
 30
0.0
  0
ENDBLK
  5
14B3
330
2911
100
AcDbEntity
  8
0
100
AcDbBlockEnd
  0
BLOCK
  5
2914
330
2913
100
AcDbEntity
  8
0
100
AcDbBlockBegin
  2
*U33
 70
     1
 10
0.0
 20
0.0
 30
0.0
  3
*U33
  1

  0
TEXT
  5
1F0D
330
2913
100
AcDbEntity
  8
SIZE
 62
     0
100
AcDbText
 10
274.6432844803785
 20
-224.0571428571429
 30
0.0
 40
64.0
  1
300
 50
90.0
 41
0.9
100
AcDbText
  0
ENDBLK
  5
1F0F
330
2913
100
AcDbEntity
  8
0
100
AcDbBlockEnd
  0
BLOCK
  5
2916
330
2915
100
AcDbEntity
  8
0
100
AcDbBlockBegin
  2
*D34
 70
     1
 10
0.0
 20
0.0
 30
0.0
  3
*D34
  1

  0
LINE
  5
167D
330
2915
100
AcDbEntity
  8
SIZE
 62
     0
100
AcDbLine
 10
-140.0
 20
32.46448280219375
 30
0.0
 11
-140.0
 21
136.4516878685507
 31
0.0
  0
LINE
  5
167E
330
2915
100
AcDbEntity
  8
SIZE
 62
     0
100
AcDbLine
 10
140.0
 20
32.46448280219375
 30
0.0
 11
140.0
 21
136.4516878685507
 31
0.0
  0
LINE
  5
167F
330
2915
100
AcDbEntity
  8
SIZE
 62
     0
100
AcDbLine
 10
-128.0
 20
116.4516878685508
 30
0.0
 11
128.0
 21
116.4516878685508
 31
0.0
  0
INSERT
  5
1680
330
2915
100
AcDbEntity
  8
SIZE
 62
     0
100
AcDbBlockReference
  2
_DOTBLANK
 10
-140.0
 20
116.4516878685508
 30
0.0
 41
12.0
 42
12.0
 43
12.0
 50
180.0
  0
INSERT
  5
1681
330
2915
100
AcDbEntity
  8
SIZE
 62
     0
100
AcDbBlockReference
  2
_DOTBLANK
 10
140.0
 20
116.4516878685508
 30
0.0
 41
12.0
 42
12.0
 43
12.0
  0
INSERT
  5
1682
330
2915
100
AcDbEntity
  8
0
100
AcDbBlockReference
  2
*U35
 10
0.0
 20
0.0
 30
0.0
  0
POINT
  5
1683
330
2915
100
AcDbEntity
  8
DEFPOINTS
 62
     0
100
AcDbPoint
 10
-140.0
 20
12.46448280219374
 30
0.0
  0
POINT
  5
1684
330
2915
100
AcDbEntity
  8
DEFPOINTS
 62
     0
100
AcDbPoint
 10
140.0
 20
12.46448280219374
 30
0.0
  0
POINT
  5
1685
330
2915
100
AcDbEntity
  8
DEFPOINTS
 62
     0
100
AcDbPoint
 10
140.0
 20
116.4516878685508
 30
0.0
  0
ENDBLK
  5
14BF
330
2915
100
AcDbEntity
  8
0
100
AcDbBlockEnd
  0
BLOCK
  5
2918
330
2917
100
AcDbEntity
  8
0
100
AcDbBlockBegin
  2
*U35
 70
     1
 10
0.0
 20
0.0
 30
0.0
  3
*U35
  1

  0
TEXT
  5
1F11
330
2917
100
AcDbEntity
  8
SIZE
 62
     0
100
AcDbText
 10
-74.05714285714283
 20
126.4516878685507
 30
0.0
 40
64.0
  1
280
 41
0.9
100
AcDbText
  0
ENDBLK
  5
1F13
330
2917
100
AcDbEntity
  8
0
100
AcDbBlockEnd
  0
BLOCK
  5
291A
330
2919
100
AcDbEntity
  8
0
100
AcDbBlockBegin
  2
*D36
 70
     1
 10
0.0
 20
0.0
 30
0.0
  3
*D36
  1

  0
LINE
  5
1686
330
2919
100
AcDbEntity
  8
SIZE
 62
     0
100
AcDbLine
 10
-157.5
 20
20.0
 30
0.0
 11
-157.5
 21
245.5794621189598
 31
0.0
  0
LINE
  5
1687
330
2919
100
AcDbEntity
  8
SIZE
 62
     0
100
AcDbLine
 10
157.5
 20
20.0
 30
0.0
 11
157.5
 21
245.5794621189598
 31
0.0
  0
LINE
  5
1688
330
2919
100
AcDbEntity
  8
SIZE
 62
     0
100
AcDbLine
 10
-145.5
 20
225.5794621189598
 30
0.0
 11
145.5
 21
225.5794621189598
 31
0.0
  0
INSERT
  5
1689
330
2919
100
AcDbEntity
  8
SIZE
 62
     0
100
AcDbBlockReference
  2
_DOTBLANK
 10
-157.5
 20
225.5794621189598
 30
0.0
 41
12.0
 42
12.0
 43
12.0
 50
180.0
  0
INSERT
  5
168A
330
2919
100
AcDbEntity
  8
SIZE
 62
     0
100
AcDbBlockReference
  2
_DOTBLANK
 10
157.5
 20
225.5794621189598
 30
0.0
 41
12.0
 42
12.0
 43
12.0
  0
INSERT
  5
168B
330
2919
100
AcDbEntity
  8
0
100
AcDbBlockReference
  2
*U37
 10
0.0
 20
0.0
 30
0.0
  0
POINT
  5
168C
330
2919
100
AcDbEntity
  8
DEFPOINTS
 62
     0
100
AcDbPoint
 10
-157.5
 20
0.0
 30
0.0
  0
POINT
  5
168D
330
2919
100
AcDbEntity
  8
DEFPOINTS
 62
     0
100
AcDbPoint
 10
157.5
 20
0.0
 30
0.0
  0
POINT
  5
168E
330
2919
100
AcDbEntity
  8
DEFPOINTS
 62
     0
100
AcDbPoint
 10
157.5
 20
225.5794621189598
 30
0.0
  0
ENDBLK
  5
14CB
330
2919
100
AcDbEntity
  8
0
100
AcDbBlockEnd
  0
BLOCK
  5
291C
330
291B
100
AcDbEntity
  8
0
100
AcDbBlockBegin
  2
*U37
 70
     1
 10
0.0
 20
0.0
 30
0.0
  3
*U37
  1

  0
TEXT
  5
1F15
330
291B
100
AcDbEntity
  8
SIZE
 62
     0
100
AcDbText
 10
-68.57142857142857
 20
235.5794621189598
 30
0.0
 40
64.0
  1
315
 41
0.9
100
AcDbText
  0
ENDBLK
  5
1F17
330
291B
100
AcDbEntity
  8
0
100
AcDbBlockEnd
  0
BLOCK
  5
291E
330
291D
100
AcDbEntity
  8
0
100
AcDbBlockBegin
  2
*U38
 70
     1
 10
0.0
 20
0.0
 30
0.0
  3
*U38
  1

  0
ENDBLK
  5
15CF
330
291D
100
AcDbEntity
  8
0
100
AcDbBlockEnd
  0
BLOCK
  5
2920
330
291F
100
AcDbEntity
  8
0
100
AcDbBlockBegin
  2
*D39
 70
     1
 10
0.0
 20
0.0
 30
0.0
  3
*D39
  1

  0
LINE
  5
1692
330
291F
100
AcDbEntity
  8
SIZE
 62
     0
100
AcDbLine
 10
-25844.51823276502
 20
7685.702971374808
 30
0.0
 11
-25981.04465488371
 21
7685.702971374808
 31
0.0
  0
LINE
  5
1693
330
291F
100
AcDbEntity
  8
SIZE
 62
     0
100
AcDbLine
 10
-25844.51823276502
 20
7677.702971374808
 30
0.0
 11
-25981.04465488371
 21
7677.702971374808
 31
0.0
  0
LINE
  5
1694
330
291F
100
AcDbEntity
  8
SIZE
 62
     0
100
AcDbLine
 10
-25961.04465488371
 20
7697.702971374808
 30
0.0
 11
-25961.04465488371
 21
7709.702971374809
 31
0.0
  0
LINE
  5
1695
330
291F
100
AcDbEntity
  8
SIZE
 62
     0
100
AcDbLine
 10
-25961.04465488371
 20
7665.70297137481
 30
0.0
 11
-25961.04465488371
 21
7595.302971374808
 31
0.0
  0
INSERT
  5
1696
330
291F
100
AcDbEntity
  8
SIZE
 62
     0
100
AcDbBlockReference
  2
_DOTBLANK
 10
-25961.04465488371
 20
7685.702971374808
 30
0.0
 41
12.0
 42
12.0
 43
12.0
 50
270.0
  0
INSERT
  5
1697
330
291F
100
AcDbEntity
  8
SIZE
 62
     0
100
AcDbBlockReference
  2
_DOTBLANK
 10
-25961.04465488371
 20
7677.702971374808
 30
0.0
 41
12.0
 42
12.0
 43
12.0
 50
90.0
  0
INSERT
  5
1698
330
291F
100
AcDbEntity
  8
0
100
AcDbBlockReference
  2
*U40
 10
0.0
 20
0.0
 30
0.0
  0
POINT
  5
1699
330
291F
100
AcDbEntity
  8
DEFPOINTS
 62
     0
100
AcDbPoint
 10
-25824.51823276501
 20
7685.702971374808
 30
0.0
  0
POINT
  5
169A
330
291F
100
AcDbEntity
  8
DEFPOINTS
 62
     0
100
AcDbPoint
 10
-25824.51823276501
 20
7677.702971374808
 30
0.0
  0
POINT
  5
169B
330
291F
100
AcDbEntity
  8
DEFPOINTS
 62
     0
100
AcDbPoint
 10
-25961.04465488371
 20
7677.702971374808
 30
0.0
  0
ENDBLK
  5
169C
330
291F
100
AcDbEntity
  8
0
100
AcDbBlockEnd
  0
BLOCK
  5
2922
330
2921
100
AcDbEntity
  8
0
100
AcDbBlockBegin
  2
*U40
 70
     1
 10
0.0
 20
0.0
 30
0.0
  3
*U40
  1

  0
TEXT
  5
1F19
330
2921
100
AcDbEntity
  8
SIZE
 62
     0
100
AcDbText
 10
-25971.04465488371
 20
7605.302971374804
 30
0.0
 40
64.0
  1
8
 50
90.0
 41
0.9
100
AcDbText
  0
ENDBLK
  5
1F1B
330
2921
100
AcDbEntity
  8
0
100
AcDbBlockEnd
  0
BLOCK
  5
2924
330
2923
100
AcDbEntity
  8
0
100
AcDbBlockBegin
  2
*D41
 70
     1
 10
0.0
 20
0.0
 30
0.0
  3
*D41
  1

  0
LINE
  5
169F
330
2923
100
AcDbEntity
  8
SIZE
 62
     0
100
AcDbLine
 10
-25512.51823276502
 20
7385.702971374808
 30
0.0
 11
-25362.37494828464
 21
7385.702971374808
 31
0.0
  0
LINE
  5
16A0
330
2923
100
AcDbEntity
  8
SIZE
 62
     0
100
AcDbLine
 10
-25523.51823276501
 20
7373.702971374808
 30
0.0
 11
-25362.37494828464
 21
7373.702971374808
 31
0.0
  0
LINE
  5
16A1
330
2923
100
AcDbEntity
  8
SIZE
 62
     0
100
AcDbLine
 10
-25382.37494828464
 20
7397.702971374808
 30
0.0
 11
-25382.37494828464
 21
7409.70297137481
 31
0.0
  0
LINE
  5
16A2
330
2923
100
AcDbEntity
  8
SIZE
 62
     0
100
AcDbLine
 10
-25382.37494828464
 20
7361.702971374808
 30
0.0
 11
-25382.37494828464
 21
7244.674399946237
 31
0.0
  0
INSERT
  5
16A3
330
2923
100
AcDbEntity
  8
SIZE
 62
     0
100
AcDbBlockReference
  2
_DOTBLANK
 10
-25382.37494828464
 20
7385.702971374808
 30
0.0
 41
12.0
 42
12.0
 43
12.0
 50
270.0
  0
INSERT
  5
16A4
330
2923
100
AcDbEntity
  8
SIZE
 62
     0
100
AcDbBlockReference
  2
_DOTBLANK
 10
-25382.37494828464
 20
7373.702971374808
 30
0.0
 41
12.0
 42
12.0
 43
12.0
 50
90.0
  0
INSERT
  5
16A5
330
2923
100
AcDbEntity
  8
0
100
AcDbBlockReference
  2
*U42
 10
0.0
 20
0.0
 30
0.0
  0
POINT
  5
16A6
330
2923
100
AcDbEntity
  8
DEFPOINTS
 62
     0
100
AcDbPoint
 10
-25532.51823276502
 20
7385.702971374808
 30
0.0
  0
POINT
  5
16A7
330
2923
100
AcDbEntity
  8
DEFPOINTS
 62
     0
100
AcDbPoint
 10
-25543.51823276502
 20
7373.702971374808
 30
0.0
  0
POINT
  5
16A8
330
2923
100
AcDbEntity
  8
DEFPOINTS
 62
     0
100
AcDbPoint
 10
-25382.37494828464
 20
7373.702971374808
 30
0.0
  0
ENDBLK
  5
16A9
330
2923
100
AcDbEntity
  8
0
100
AcDbBlockEnd
  0
BLOCK
  5
2926
330
2925
100
AcDbEntity
  8
0
100
AcDbBlockBegin
  2
*U42
 70
     1
 10
0.0
 20
0.0
 30
0.0
  3
*U42
  1

  0
TEXT
  5
1F1D
330
2925
100
AcDbEntity
  8
SIZE
 62
     0
100
AcDbText
 10
-25392.37494828464
 20
7256.045828517662
 30
0.0
 40
64.0
  1
12
 50
90.0
 41
0.9
100
AcDbText
  0
ENDBLK
  5
1F1F
330
2925
100
AcDbEntity
  8
0
100
AcDbBlockEnd
  0
BLOCK
  5
2928
330
2927
100
AcDbEntity
  8
0
100
AcDbBlockBegin
  2
*D43
 70
     1
 10
0.0
 20
0.0
 30
0.0
  3
*D43
  1

  0
LINE
  5
16AC
330
2927
100
AcDbEntity
  8
SIZE
 62
     0
100
AcDbLine
 10
-25801.51823276501
 20
7365.702971374808
 30
0.0
 11
-25801.51823276501
 21
7217.685576144207
 31
0.0
  0
LINE
  5
16AD
330
2927
100
AcDbEntity
  8
SIZE
 62
     0
100
AcDbLine
 10
-25532.51823276502
 20
7365.702971374808
 30
0.0
 11
-25532.51823276502
 21
7217.685576144207
 31
0.0
  0
LINE
  5
16AE
330
2927
100
AcDbEntity
  8
SIZE
 62
     0
100
AcDbLine
 10
-25789.51823276502
 20
7237.685576144207
 30
0.0
 11
-25544.51823276501
 21
7237.685576144207
 31
0.0
  0
INSERT
  5
16AF
330
2927
100
AcDbEntity
  8
SIZE
 62
     0
100
AcDbBlockReference
  2
_DOTBLANK
 10
-25801.51823276501
 20
7237.685576144207
 30
0.0
 41
12.0
 42
12.0
 43
12.0
 50
180.0
  0
INSERT
  5
16B0
330
2927
100
AcDbEntity
  8
SIZE
 62
     0
100
AcDbBlockReference
  2
_DOTBLANK
 10
-25532.51823276502
 20
7237.685576144207
 30
0.0
 41
12.0
 42
12.0
 43
12.0
  0
INSERT
  5
16B1
330
2927
100
AcDbEntity
  8
0
100
AcDbBlockReference
  2
*U44
 10
0.0
 20
0.0
 30
0.0
  0
POINT
  5
16B2
330
2927
100
AcDbEntity
  8
DEFPOINTS
 62
     0
100
AcDbPoint
 10
-25801.51823276501
 20
7385.702971374808
 30
0.0
  0
POINT
  5
16B3
330
2927
100
AcDbEntity
  8
DEFPOINTS
 62
     0
100
AcDbPoint
 10
-25532.51823276502
 20
7385.702971374808
 30
0.0
  0
POINT
  5
16B4
330
2927
100
AcDbEntity
  8
DEFPOINTS
 62
     0
100
AcDbPoint
 10
-25532.51823276502
 20
7237.685576144207
 30
0.0
  0
ENDBLK
  5
16B5
330
2927
100
AcDbEntity
  8
0
100
AcDbBlockEnd
  0
BLOCK
  5
292A
330
2929
100
AcDbEntity
  8
0
100
AcDbBlockBegin
  2
*U44
 70
     1
 10
0.0
 20
0.0
 30
0.0
  3
*U44
  1

  0
TEXT
  5
1F21
330
2929
100
AcDbEntity
  8
SIZE
 62
     0
100
AcDbText
 10
-25739.70394705074
 20
7247.685576144205
 30
0.0
 40
64.0
  1
269
 41
0.9
100
AcDbText
  0
ENDBLK
  5
1F23
330
2929
100
AcDbEntity
  8
0
100
AcDbBlockEnd
  0
BLOCK
  5
292C
330
292B
100
AcDbEntity
  8
0
100
AcDbBlockBegin
  2
*D45
 70
     1
 10
0.0
 20
0.0
 30
0.0
  3
*D45
  1

  0
LINE
  5
16B8
330
292B
100
AcDbEntity
  8
SIZE
 62
     0
100
AcDbLine
 10
-25512.51823276502
 20
7385.702971374808
 30
0.0
 11
-25362.37494828464
 21
7385.702971374808
 31
0.0
  0
LINE
  5
16B9
330
292B
100
AcDbEntity
  8
SIZE
 62
     0
100
AcDbLine
 10
-25489.51823276501
 20
7685.702971374808
 30
0.0
 11
-25362.37494828464
 21
7685.702971374808
 31
0.0
  0
LINE
  5
16BA
330
292B
100
AcDbEntity
  8
SIZE
 62
     0
100
AcDbLine
 10
-25382.37494828464
 20
7397.702971374808
 30
0.0
 11
-25382.37494828464
 21
7673.702971374808
 31
0.0
  0
INSERT
  5
16BB
330
292B
100
AcDbEntity
  8
SIZE
 62
     0
100
AcDbBlockReference
  2
_DOTBLANK
 10
-25382.37494828464
 20
7385.702971374808
 30
0.0
 41
12.0
 42
12.0
 43
12.0
 50
270.0
  0
INSERT
  5
16BC
330
292B
100
AcDbEntity
  8
SIZE
 62
     0
100
AcDbBlockReference
  2
_DOTBLANK
 10
-25382.37494828464
 20
7685.702971374808
 30
0.0
 41
12.0
 42
12.0
 43
12.0
 50
90.0
  0
INSERT
  5
16BD
330
292B
100
AcDbEntity
  8
0
100
AcDbBlockReference
  2
*U46
 10
0.0
 20
0.0
 30
0.0
  0
POINT
  5
16BE
330
292B
100
AcDbEntity
  8
DEFPOINTS
 62
     0
100
AcDbPoint
 10
-25532.51823276502
 20
7385.702971374808
 30
0.0
  0
POINT
  5
16BF
330
292B
100
AcDbEntity
  8
DEFPOINTS
 62
     0
100
AcDbPoint
 10
-25509.51823276502
 20
7685.702971374808
 30
0.0
  0
POINT
  5
16C0
330
292B
100
AcDbEntity
  8
DEFPOINTS
 62
     0
100
AcDbPoint
 10
-25382.37494828464
 20
7685.702971374808
 30
0.0
  0
ENDBLK
  5
16C1
330
292B
100
AcDbEntity
  8
0
100
AcDbBlockEnd
  0
BLOCK
  5
292E
330
292D
100
AcDbEntity
  8
0
100
AcDbBlockBegin
  2
*U46
 70
     1
 10
0.0
 20
0.0
 30
0.0
  3
*U46
  1

  0
TEXT
  5
1F25
330
292D
100
AcDbEntity
  8
SIZE
 62
     0
100
AcDbText
 10
-25392.37494828464
 20
7461.645828517662
 30
0.0
 40
64.0
  1
300
 50
90.0
 41
0.9
100
AcDbText
  0
ENDBLK
  5
1F27
330
292D
100
AcDbEntity
  8
0
100
AcDbBlockEnd
  0
BLOCK
  5
2930
330
292F
100
AcDbEntity
  8
0
100
AcDbBlockBegin
  2
*D47
 70
     1
 10
0.0
 20
0.0
 30
0.0
  3
*D47
  1

  0
LINE
  5
16C4
330
292F
100
AcDbEntity
  8
SIZE
 62
     0
100
AcDbLine
 10
-25807.01823276501
 20
7718.167454177002
 30
0.0
 11
-25807.01823276501
 21
7822.154659243358
 31
0.0
  0
LINE
  5
16C5
330
292F
100
AcDbEntity
  8
SIZE
 62
     0
100
AcDbLine
 10
-25527.01823276501
 20
7718.167454177002
 30
0.0
 11
-25527.01823276501
 21
7822.154659243358
 31
0.0
  0
LINE
  5
16C6
330
292F
100
AcDbEntity
  8
SIZE
 62
     0
100
AcDbLine
 10
-25795.01823276502
 20
7802.154659243358
 30
0.0
 11
-25539.01823276501
 21
7802.154659243358
 31
0.0
  0
INSERT
  5
16C7
330
292F
100
AcDbEntity
  8
SIZE
 62
     0
100
AcDbBlockReference
  2
_DOTBLANK
 10
-25807.01823276501
 20
7802.154659243358
 30
0.0
 41
12.0
 42
12.0
 43
12.0
 50
180.0
  0
INSERT
  5
16C8
330
292F
100
AcDbEntity
  8
SIZE
 62
     0
100
AcDbBlockReference
  2
_DOTBLANK
 10
-25527.01823276501
 20
7802.154659243358
 30
0.0
 41
12.0
 42
12.0
 43
12.0
  0
INSERT
  5
16C9
330
292F
100
AcDbEntity
  8
0
100
AcDbBlockReference
  2
*U48
 10
0.0
 20
0.0
 30
0.0
  0
POINT
  5
16CA
330
292F
100
AcDbEntity
  8
DEFPOINTS
 62
     0
100
AcDbPoint
 10
-25807.01823276501
 20
7698.167454177002
 30
0.0
  0
POINT
  5
16CB
330
292F
100
AcDbEntity
  8
DEFPOINTS
 62
     0
100
AcDbPoint
 10
-25527.01823276501
 20
7698.167454177002
 30
0.0
  0
POINT
  5
16CC
330
292F
100
AcDbEntity
  8
DEFPOINTS
 62
     0
100
AcDbPoint
 10
-25527.01823276501
 20
7802.154659243358
 30
0.0
  0
ENDBLK
  5
16CD
330
292F
100
AcDbEntity
  8
0
100
AcDbBlockEnd
  0
BLOCK
  5
2932
330
2931
100
AcDbEntity
  8
0
100
AcDbBlockBegin
  2
*U48
 70
     1
 10
0.0
 20
0.0
 30
0.0
  3
*U48
  1

  0
TEXT
  5
1F29
330
2931
100
AcDbEntity
  8
SIZE
 62
     0
100
AcDbText
 10
-25741.07537562216
 20
7812.154659243358
 30
0.0
 40
64.0
  1
280
 41
0.9
100
AcDbText
  0
ENDBLK
  5
1F2B
330
2931
100
AcDbEntity
  8
0
100
AcDbBlockEnd
  0
BLOCK
  5
2934
330
2933
100
AcDbEntity
  8
0
100
AcDbBlockBegin
  2
*D49
 70
     1
 10
0.0
 20
0.0
 30
0.0
  3
*D49
  1

  0
LINE
  5
16D0
330
2933
100
AcDbEntity
  8
SIZE
 62
     0
100
AcDbLine
 10
-25824.51823276501
 20
7705.702971374808
 30
0.0
 11
-25824.51823276501
 21
7931.282433493766
 31
0.0
  0
LINE
  5
16D1
330
2933
100
AcDbEntity
  8
SIZE
 62
     0
100
AcDbLine
 10
-25509.51823276502
 20
7705.702971374808
 30
0.0
 11
-25509.51823276502
 21
7931.282433493766
 31
0.0
  0
LINE
  5
16D2
330
2933
100
AcDbEntity
  8
SIZE
 62
     0
100
AcDbLine
 10
-25812.51823276502
 20
7911.282433493766
 30
0.0
 11
-25521.51823276501
 21
7911.282433493766
 31
0.0
  0
INSERT
  5
16D3
330
2933
100
AcDbEntity
  8
SIZE
 62
     0
100
AcDbBlockReference
  2
_DOTBLANK
 10
-25824.51823276501
 20
7911.282433493766
 30
0.0
 41
12.0
 42
12.0
 43
12.0
 50
180.0
  0
INSERT
  5
16D4
330
2933
100
AcDbEntity
  8
SIZE
 62
     0
100
AcDbBlockReference
  2
_DOTBLANK
 10
-25509.51823276502
 20
7911.282433493766
 30
0.0
 41
12.0
 42
12.0
 43
12.0
  0
INSERT
  5
16D5
330
2933
100
AcDbEntity
  8
0
100
AcDbBlockReference
  2
*U50
 10
0.0
 20
0.0
 30
0.0
  0
POINT
  5
16D6
330
2933
100
AcDbEntity
  8
DEFPOINTS
 62
     0
100
AcDbPoint
 10
-25824.51823276501
 20
7685.702971374808
 30
0.0
  0
POINT
  5
16D7
330
2933
100
AcDbEntity
  8
DEFPOINTS
 62
     0
100
AcDbPoint
 10
-25509.51823276502
 20
7685.702971374808
 30
0.0
  0
POINT
  5
16D8
330
2933
100
AcDbEntity
  8
DEFPOINTS
 62
     0
100
AcDbPoint
 10
-25509.51823276502
 20
7911.282433493766
 30
0.0
  0
ENDBLK
  5
16D9
330
2933
100
AcDbEntity
  8
0
100
AcDbBlockEnd
  0
BLOCK
  5
2936
330
2935
100
AcDbEntity
  8
0
100
AcDbBlockBegin
  2
*U50
 70
     1
 10
0.0
 20
0.0
 30
0.0
  3
*U50
  1

  0
TEXT
  5
1F2D
330
2935
100
AcDbEntity
  8
SIZE
 62
     0
100
AcDbText
 10
-25735.58966133645
 20
7921.282433493766
 30
0.0
 40
64.0
  1
315
 41
0.9
100
AcDbText
  0
ENDBLK
  5
1F2F
330
2935
100
AcDbEntity
  8
0
100
AcDbBlockEnd
  0
BLOCK
  5
2938
330
2937
100
AcDbEntity
  8
0
100
AcDbBlockBegin
  2
*D51
 70
     1
 10
0.0
 20
0.0
 30
0.0
  3
*D51
  1

  0
LINE
  5
1D83
330
2937
100
AcDbEntity
  8
SIZE
 62
     0
100
AcDbLine
 10
-134.5
 20
-320.0
 30
0.0
 11
-134.5
 21
-468.0173952306001
 31
0.0
  0
LINE
  5
1D84
330
2937
100
AcDbEntity
  8
SIZE
 62
     0
100
AcDbLine
 10
134.5
 20
-320.0
 30
0.0
 11
134.5
 21
-468.0173952306001
 31
0.0
  0
LINE
  5
1D85
330
2937
100
AcDbEntity
  8
SIZE
 62
     0
100
AcDbLine
 10
-122.5
 20
-448.0173952306
 30
0.0
 11
122.5
 21
-448.0173952306
 31
0.0
  0
INSERT
  5
1D86
330
2937
100
AcDbEntity
  8
SIZE
 62
     0
100
AcDbBlockReference
  2
_DOTBLANK
 10
-134.5
 20
-448.0173952306
 30
0.0
 41
12.0
 42
12.0
 43
12.0
 50
180.0
  0
INSERT
  5
1D87
330
2937
100
AcDbEntity
  8
SIZE
 62
     0
100
AcDbBlockReference
  2
_DOTBLANK
 10
134.5
 20
-448.0173952306
 30
0.0
 41
12.0
 42
12.0
 43
12.0
  0
INSERT
  5
1D88
330
2937
100
AcDbEntity
  8
0
100
AcDbBlockReference
  2
*U52
 10
0.0
 20
0.0
 30
0.0
  0
POINT
  5
1D89
330
2937
100
AcDbEntity
  8
DEFPOINTS
 62
     0
100
AcDbPoint
 10
-134.5
 20
-300.0
 30
0.0
  0
POINT
  5
1D8A
330
2937
100
AcDbEntity
  8
DEFPOINTS
 62
     0
100
AcDbPoint
 10
134.5
 20
-300.0
 30
0.0
  0
POINT
  5
1D8B
330
2937
100
AcDbEntity
  8
DEFPOINTS
 62
     0
100
AcDbPoint
 10
134.5
 20
-448.0173952306
 30
0.0
  0
ENDBLK
  5
173D
330
2937
100
AcDbEntity
  8
0
100
AcDbBlockEnd
  0
BLOCK
  5
293A
330
2939
100
AcDbEntity
  8
0
100
AcDbBlockBegin
  2
*U52
 70
     1
 10
0.0
 20
0.0
 30
0.0
  3
*U52
  1

  0
TEXT
  5
1F31
330
2939
100
AcDbEntity
  8
SIZE
 62
     0
100
AcDbText
 10
-72.68571428571426
 20
-438.0173952306003
 30
0.0
 40
64.0
  1
269
 41
0.9
100
AcDbText
  0
ENDBLK
  5
1F33
330
2939
100
AcDbEntity
  8
0
100
AcDbBlockEnd
  0
BLOCK
  5
293C
330
293B
100
AcDbEntity
  8
0
100
AcDbBlockBegin
  2
*D53
 70
     1
 10
0.0
 20
0.0
 30
0.0
  3
*D53
  1

  0
LINE
  5
1D8C
330
293B
100
AcDbEntity
  8
SIZE
 62
     0
100
AcDbLine
 10
154.5
 20
-300.0
 30
0.0
 11
304.6432844803784
 21
-300.0
 31
0.0
  0
LINE
  5
1D8D
330
293B
100
AcDbEntity
  8
SIZE
 62
     0
100
AcDbLine
 10
177.5
 20
-0.0000000000000057
 30
0.0
 11
304.6432844803785
 21
-0.0000000000000417
 31
0.0
  0
LINE
  5
1D8E
330
293B
100
AcDbEntity
  8
SIZE
 62
     0
100
AcDbLine
 10
284.6432844803784
 20
-288.0
 30
0.0
 11
284.6432844803785
 21
-12.00000000000003
 31
0.0
  0
INSERT
  5
1D8F
330
293B
100
AcDbEntity
  8
SIZE
 62
     0
100
AcDbBlockReference
  2
_DOTBLANK
 10
284.6432844803784
 20
-300.0
 30
0.0
 41
12.0
 42
12.0
 43
12.0
 50
270.0
  0
INSERT
  5
1D90
330
293B
100
AcDbEntity
  8
SIZE
 62
     0
100
AcDbBlockReference
  2
_DOTBLANK
 10
284.6432844803785
 20
-0.000000000000036
 30
0.0
 41
12.0
 42
12.0
 43
12.0
 50
90.0
  0
INSERT
  5
1D91
330
293B
100
AcDbEntity
  8
0
100
AcDbBlockReference
  2
*U54
 10
0.0
 20
0.0
 30
0.0
  0
POINT
  5
1D92
330
293B
100
AcDbEntity
  8
DEFPOINTS
 62
     0
100
AcDbPoint
 10
134.5
 20
-300.0
 30
0.0
  0
POINT
  5
1D93
330
293B
100
AcDbEntity
  8
DEFPOINTS
 62
     0
100
AcDbPoint
 10
157.5
 20
0.0
 30
0.0
  0
POINT
  5
1D94
330
293B
100
AcDbEntity
  8
DEFPOINTS
 62
     0
100
AcDbPoint
 10
284.6432844803785
 20
-0.000000000000036
 30
0.0
  0
ENDBLK
  5
1749
330
293B
100
AcDbEntity
  8
0
100
AcDbBlockEnd
  0
BLOCK
  5
293E
330
293D
100
AcDbEntity
  8
0
100
AcDbBlockBegin
  2
*U54
 70
     1
 10
0.0
 20
0.0
 30
0.0
  3
*U54
  1

  0
TEXT
  5
1F35
330
293D
100
AcDbEntity
  8
SIZE
 62
     0
100
AcDbText
 10
274.6432844803785
 20
-224.0571428571429
 30
0.0
 40
64.0
  1
300
 50
90.0
 41
0.9
100
AcDbText
  0
ENDBLK
  5
1F37
330
293D
100
AcDbEntity
  8
0
100
AcDbBlockEnd
  0
BLOCK
  5
2940
330
293F
100
AcDbEntity
  8
0
100
AcDbBlockBegin
  2
*D55
 70
     1
 10
0.0
 20
0.0
 30
0.0
  3
*D55
  1

  0
LINE
  5
1D95
330
293F
100
AcDbEntity
  8
SIZE
 62
     0
100
AcDbLine
 10
-140.0
 20
32.46448280219375
 30
0.0
 11
-140.0
 21
136.4516878685508
 31
0.0
  0
LINE
  5
1D96
330
293F
100
AcDbEntity
  8
SIZE
 62
     0
100
AcDbLine
 10
140.0
 20
32.46448280219375
 30
0.0
 11
140.0
 21
136.4516878685508
 31
0.0
  0
LINE
  5
1D97
330
293F
100
AcDbEntity
  8
SIZE
 62
     0
100
AcDbLine
 10
-128.0
 20
116.4516878685508
 30
0.0
 11
128.0
 21
116.4516878685508
 31
0.0
  0
INSERT
  5
1D98
330
293F
100
AcDbEntity
  8
SIZE
 62
     0
100
AcDbBlockReference
  2
_DOTBLANK
 10
-140.0
 20
116.4516878685508
 30
0.0
 41
12.0
 42
12.0
 43
12.0
 50
180.0
  0
INSERT
  5
1D99
330
293F
100
AcDbEntity
  8
SIZE
 62
     0
100
AcDbBlockReference
  2
_DOTBLANK
 10
140.0
 20
116.4516878685508
 30
0.0
 41
12.0
 42
12.0
 43
12.0
  0
INSERT
  5
1D9A
330
293F
100
AcDbEntity
  8
0
100
AcDbBlockReference
  2
*U56
 10
0.0
 20
0.0
 30
0.0
  0
POINT
  5
1D9B
330
293F
100
AcDbEntity
  8
DEFPOINTS
 62
     0
100
AcDbPoint
 10
-140.0
 20
12.46448280219374
 30
0.0
  0
POINT
  5
1D9C
330
293F
100
AcDbEntity
  8
DEFPOINTS
 62
     0
100
AcDbPoint
 10
140.0
 20
12.46448280219374
 30
0.0
  0
POINT
  5
1D9D
330
293F
100
AcDbEntity
  8
DEFPOINTS
 62
     0
100
AcDbPoint
 10
140.0
 20
116.4516878685508
 30
0.0
  0
ENDBLK
  5
1755
330
293F
100
AcDbEntity
  8
0
100
AcDbBlockEnd
  0
BLOCK
  5
2942
330
2941
100
AcDbEntity
  8
0
100
AcDbBlockBegin
  2
*U56
 70
     1
 10
0.0
 20
0.0
 30
0.0
  3
*U56
  1

  0
TEXT
  5
1F39
330
2941
100
AcDbEntity
  8
SIZE
 62
     0
100
AcDbText
 10
-74.05714285714283
 20
126.4516878685508
 30
0.0
 40
64.0
  1
280
 41
0.9
100
AcDbText
  0
ENDBLK
  5
1F3B
330
2941
100
AcDbEntity
  8
0
100
AcDbBlockEnd
  0
BLOCK
  5
2944
330
2943
100
AcDbEntity
  8
0
100
AcDbBlockBegin
  2
*D57
 70
     1
 10
0.0
 20
0.0
 30
0.0
  3
*D57
  1

  0
LINE
  5
1D9E
330
2943
100
AcDbEntity
  8
SIZE
 62
     0
100
AcDbLine
 10
-157.5
 20
20.0
 30
0.0
 11
-157.5
 21
245.5794621189598
 31
0.0
  0
LINE
  5
1D9F
330
2943
100
AcDbEntity
  8
SIZE
 62
     0
100
AcDbLine
 10
157.5
 20
20.0
 30
0.0
 11
157.5
 21
245.5794621189598
 31
0.0
  0
LINE
  5
1DA0
330
2943
100
AcDbEntity
  8
SIZE
 62
     0
100
AcDbLine
 10
-145.5
 20
225.5794621189598
 30
0.0
 11
145.5
 21
225.5794621189598
 31
0.0
  0
INSERT
  5
1DA1
330
2943
100
AcDbEntity
  8
SIZE
 62
     0
100
AcDbBlockReference
  2
_DOTBLANK
 10
-157.5
 20
225.5794621189598
 30
0.0
 41
12.0
 42
12.0
 43
12.0
 50
180.0
  0
INSERT
  5
1DA2
330
2943
100
AcDbEntity
  8
SIZE
 62
     0
100
AcDbBlockReference
  2
_DOTBLANK
 10
157.5
 20
225.5794621189598
 30
0.0
 41
12.0
 42
12.0
 43
12.0
  0
INSERT
  5
1DA3
330
2943
100
AcDbEntity
  8
0
100
AcDbBlockReference
  2
*U58
 10
0.0
 20
0.0
 30
0.0
  0
POINT
  5
1DA4
330
2943
100
AcDbEntity
  8
DEFPOINTS
 62
     0
100
AcDbPoint
 10
-157.5
 20
0.0
 30
0.0
  0
POINT
  5
1DA5
330
2943
100
AcDbEntity
  8
DEFPOINTS
 62
     0
100
AcDbPoint
 10
157.5
 20
0.0
 30
0.0
  0
POINT
  5
1DA6
330
2943
100
AcDbEntity
  8
DEFPOINTS
 62
     0
100
AcDbPoint
 10
157.5
 20
225.5794621189598
 30
0.0
  0
ENDBLK
  5
1761
330
2943
100
AcDbEntity
  8
0
100
AcDbBlockEnd
  0
BLOCK
  5
2946
330
2945
100
AcDbEntity
  8
0
100
AcDbBlockBegin
  2
*U58
 70
     1
 10
0.0
 20
0.0
 30
0.0
  3
*U58
  1

  0
TEXT
  5
1F3D
330
2945
100
AcDbEntity
  8
SIZE
 62
     0
100
AcDbText
 10
-68.57142857142857
 20
235.5794621189599
 30
0.0
 40
64.0
  1
315
 41
0.9
100
AcDbText
  0
ENDBLK
  5
1F3F
330
2945
100
AcDbEntity
  8
0
100
AcDbBlockEnd
  0
BLOCK
  5
2948
330
2947
100
AcDbEntity
  8
0
100
AcDbBlockBegin
  2
*D59
 70
     1
 10
0.0
 20
0.0
 30
0.0
  3
*D59
  1

  0
LINE
  5
1DA7
330
2947
100
AcDbEntity
  8
SIZE
 62
     0
100
AcDbLine
 10
-177.5
 20
0.0000000000000057
 30
0.0
 11
-314.0264221186908
 21
0.0000000000000443
 31
0.0
  0
LINE
  5
1DA8
330
2947
100
AcDbEntity
  8
SIZE
 62
     0
100
AcDbLine
 10
-177.5
 20
-7.999999999999995
 30
0.0
 11
-314.0264221186908
 21
-7.999999999999958
 31
0.0
  0
LINE
  5
1DA9
330
2947
100
AcDbEntity
  8
SIZE
 62
     0
100
AcDbLine
 10
-294.0264221186908
 20
12.00000000000003
 30
0.0
 11
-294.0264221186908
 21
24.00000000000004
 31
0.0
  0
LINE
  5
1DAA
330
2947
100
AcDbEntity
  8
SIZE
 62
     0
100
AcDbLine
 10
-294.0264221186908
 20
-19.99999999999996
 30
0.0
 11
-294.0264221186908
 21
-90.39999999999997
 31
0.0
  0
INSERT
  5
1DAB
330
2947
100
AcDbEntity
  8
SIZE
 62
     0
100
AcDbBlockReference
  2
_DOTBLANK
 10
-294.0264221186908
 20
0.0000000000000387
 30
0.0
 41
12.0
 42
12.0
 43
12.0
 50
270.0
  0
INSERT
  5
1DAC
330
2947
100
AcDbEntity
  8
SIZE
 62
     0
100
AcDbBlockReference
  2
_DOTBLANK
 10
-294.0264221186908
 20
-7.999999999999961
 30
0.0
 41
12.0
 42
12.0
 43
12.0
 50
90.0
  0
INSERT
  5
1DAD
330
2947
100
AcDbEntity
  8
0
100
AcDbBlockReference
  2
*U60
 10
0.0
 20
0.0
 30
0.0
  0
POINT
  5
1DAE
330
2947
100
AcDbEntity
  8
DEFPOINTS
 62
     0
100
AcDbPoint
 10
-157.5
 20
0.0
 30
0.0
  0
POINT
  5
1DAF
330
2947
100
AcDbEntity
  8
DEFPOINTS
 62
     0
100
AcDbPoint
 10
-157.5
 20
-8.000000000000003
 30
0.0
  0
POINT
  5
1DB0
330
2947
100
AcDbEntity
  8
DEFPOINTS
 62
     0
100
AcDbPoint
 10
-294.0264221186908
 20
-7.999999999999961
 30
0.0
  0
ENDBLK
  5
176D
330
2947
100
AcDbEntity
  8
0
100
AcDbBlockEnd
  0
BLOCK
  5
294A
330
2949
100
AcDbEntity
  8
0
100
AcDbBlockBegin
  2
*U60
 70
     1
 10
0.0
 20
0.0
 30
0.0
  3
*U60
  1

  0
TEXT
  5
1F41
330
2949
100
AcDbEntity
  8
SIZE
 62
     0
100
AcDbText
 10
-304.0264221186908
 20
-80.4
 30
0.0
 40
64.0
  1
8
 50
90.0
 41
0.9
100
AcDbText
  0
ENDBLK
  5
1F43
330
2949
100
AcDbEntity
  8
0
100
AcDbBlockEnd
  0
BLOCK
  5
294C
330
294B
100
AcDbEntity
  8
0
100
AcDbBlockBegin
  2
*D61
 70
     1
 10
0.0
 20
0.0
 30
0.0
  3
*D61
  1

  0
LINE
  5
1DB1
330
294B
100
AcDbEntity
  8
SIZE
 62
     0
100
AcDbLine
 10
154.5
 20
-300.0
 30
0.0
 11
304.6432844803785
 21
-300.0
 31
0.0
  0
LINE
  5
1DB2
330
294B
100
AcDbEntity
  8
SIZE
 62
     0
100
AcDbLine
 10
143.5
 20
-312.0
 30
0.0
 11
304.6432844803785
 21
-312.0
 31
0.0
  0
LINE
  5
1DB3
330
294B
100
AcDbEntity
  8
SIZE
 62
     0
100
AcDbLine
 10
284.6432844803785
 20
-288.0
 30
0.0
 11
284.6432844803785
 21
-276.0
 31
0.0
  0
LINE
  5
1DB4
330
294B
100
AcDbEntity
  8
SIZE
 62
     0
100
AcDbLine
 10
284.6432844803785
 20
-324.0000000000001
 30
0.0
 11
284.6432844803784
 21
-438.2857142857143
 31
0.0
  0
INSERT
  5
1DB5
330
294B
100
AcDbEntity
  8
SIZE
 62
     0
100
AcDbBlockReference
  2
_DOTBLANK
 10
284.6432844803785
 20
-300.0
 30
0.0
 41
12.0
 42
12.0
 43
12.0
 50
270.0
  0
INSERT
  5
1DB6
330
294B
100
AcDbEntity
  8
SIZE
 62
     0
100
AcDbBlockReference
  2
_DOTBLANK
 10
284.6432844803785
 20
-312.0
 30
0.0
 41
12.0
 42
12.0
 43
12.0
 50
90.0
  0
INSERT
  5
1DB7
330
294B
100
AcDbEntity
  8
0
100
AcDbBlockReference
  2
*U62
 10
0.0
 20
0.0
 30
0.0
  0
POINT
  5
1DB8
330
294B
100
AcDbEntity
  8
DEFPOINTS
 62
     0
100
AcDbPoint
 10
134.5
 20
-300.0
 30
0.0
  0
POINT
  5
1DB9
330
294B
100
AcDbEntity
  8
DEFPOINTS
 62
     0
100
AcDbPoint
 10
123.5
 20
-312.0
 30
0.0
  0
POINT
  5
1DBA
330
294B
100
AcDbEntity
  8
DEFPOINTS
 62
     0
100
AcDbPoint
 10
284.6432844803785
 20
-312.0
 30
0.0
  0
ENDBLK
  5
177B
330
294B
100
AcDbEntity
  8
0
100
AcDbBlockEnd
  0
BLOCK
  5
294E
330
294D
100
AcDbEntity
  8
0
100
AcDbBlockBegin
  2
*U62
 70
     1
 10
0.0
 20
0.0
 30
0.0
  3
*U62
  1

  0
TEXT
  5
1F45
330
294D
100
AcDbEntity
  8
SIZE
 62
     0
100
AcDbText
 10
274.6432844803785
 20
-428.2857142857142
 30
0.0
 40
64.0
  1
12
 50
90.0
 41
0.9
100
AcDbText
  0
ENDBLK
  5
1F47
330
294D
100
AcDbEntity
  8
0
100
AcDbBlockEnd
  0
BLOCK
  5
2950
330
294F
100
AcDbEntity
  8
0
100
AcDbBlockBegin
  2
*U63
 70
     1
 10
0.0
 20
0.0
 30
0.0
  3
*U63
  1

  0
ENDBLK
  5
1D57
330
294F
100
AcDbEntity
  8
0
100
AcDbBlockEnd
  0
BLOCK
  5
2952
330
2951
100
AcDbEntity
  8
0
100
AcDbBlockBegin
  2
*U64
 70
     1
 10
0.0
 20
0.0
 30
0.0
  3
*U64
  1

  0
INSERT
  5
2087
330
2951
100
AcDbEntity
  8
NOTE
100
AcDbBlockReference
  2
_OPEN30
 10
0.0
 20
400.0000000000088
 30
0.0
 41
12.0
 42
12.0
 43
12.0
 50
312.6090116116895
  0
POLYLINE
  5
2088
330
2951
100
AcDbEntity
  8
NOTE
100
AcDb2dPolyline
 66
     1
 10
0.0
 20
0.0
 30
0.0
  0
VERTEX
  5
280B
330
2088
100
AcDbEntity
  8
NOTE
100
AcDbVertex
100
AcDb2dVertex
 10
-8.123900836189513
 20
408.8318874089241
 30
0.0
  0
VERTEX
  5
280C
330
2088
100
AcDbEntity
  8
NOTE
100
AcDbVertex
100
AcDb2dVertex
 10
-87.86939999225436
 20
495.527095058022
 30
0.0
  0
VERTEX
  5
280D
330
2088
100
AcDbEntity
  8
NOTE
100
AcDbVertex
100
AcDb2dVertex
 10
-677.5951142779687
 20
495.527095058022
 30
0.0
  0
SEQEND
  5
280E
330
2088
100
AcDbEntity
  8
NOTE
  0
ENDBLK
  5
2089
330
2951
100
AcDbEntity
  8
0
100
AcDbBlockEnd
  0
BLOCK
  5
2954
330
2953
100
AcDbEntity
  8
0
100
AcDbBlockBegin
  2
*U65
 70
     1
 10
0.0
 20
0.0
 30
0.0
  3
*U65
  1

  0
TEXT
  5
208C
330
2953
100
AcDbEntity
  8
NOTE
100
AcDbText
 10
-677.5951142779687
 20
513.527095058022
 30
0.0
 40
64.0
  1
10×φ15取付穴
 41
0.9
100
AcDbText
  0
ENDBLK
  5
208D
330
2953
100
AcDbEntity
  8
0
100
AcDbBlockEnd
  0
BLOCK
  5
2956
330
2955
100
AcDbEntity
  8
0
100
AcDbBlockBegin
  2
*U66
 70
     1
 10
0.0
 20
0.0
 30
0.0
  3
*U66
  1

  0
INSERT
  5
21E1
330
2955
100
AcDbEntity
  8
NOTE
100
AcDbBlockReference
  2
_OPEN30
 10
0.0000000000059117
 20
400.0000000000031
 30
0.0
 41
12.0
 42
12.0
 43
12.0
 50
227.3909883883105
  0
POLYLINE
  5
21E2
330
2955
100
AcDbEntity
  8
NOTE
100
AcDb2dPolyline
 66
     1
 10
0.0
 20
0.0
 30
0.0
  0
VERTEX
  5
280F
330
21E2
100
AcDbEntity
  8
NOTE
100
AcDbVertex
100
AcDb2dVertex
 10
8.123900836195423
 20
408.8318874089185
 30
0.0
  0
VERTEX
  5
2810
330
21E2
100
AcDbEntity
  8
NOTE
100
AcDbVertex
100
AcDb2dVertex
 10
87.86939999226023
 20
495.5270950580159
 30
0.0
  0
VERTEX
  5
2811
330
21E2
100
AcDbEntity
  8
NOTE
100
AcDbVertex
100
AcDb2dVertex
 10
677.5951142779747
 20
495.5270950580159
 30
0.0
  0
SEQEND
  5
2812
330
21E2
100
AcDbEntity
  8
NOTE
  0
ENDBLK
  5
21E3
330
2955
100
AcDbEntity
  8
0
100
AcDbBlockEnd
  0
BLOCK
  5
2958
330
2957
100
AcDbEntity
  8
0
100
AcDbBlockBegin
  2
*U67
 70
     1
 10
0.0
 20
0.0
 30
0.0
  3
*U67
  1

  0
TEXT
  5
21E6
330
2957
100
AcDbEntity
  8
NOTE
100
AcDbText
 10
149.8693999922602
 20
513.527095058016
 30
0.0
 40
64.0
  1
10×φ15取付穴
 41
0.9
100
AcDbText
  0
ENDBLK
  5
21E7
330
2957
100
AcDbEntity
  8
0
100
AcDbBlockEnd
  0
BLOCK
  5
295A
330
2959
100
AcDbEntity
  8
0
100
AcDbBlockBegin
  2
*U68
 70
     1
 10
0.0
 20
0.0
 30
0.0
  3
*U68
  1

  0
INSERT
  5
2322
330
2959
100
AcDbEntity
  8
NOTE
100
AcDbBlockReference
  2
_OPEN30
 10
-400.0000000000015
 20
0.0000000000013642
 30
0.0
 41
12.0
 42
12.0
 43
12.0
 50
312.6090116116892
  0
POLYLINE
  5
2323
330
2959
100
AcDbEntity
  8
NOTE
100
AcDb2dPolyline
 66
     1
 10
0.0
 20
0.0
 30
0.0
  0
VERTEX
  5
2813
330
2323
100
AcDbEntity
  8
NOTE
100
AcDbVertex
100
AcDb2dVertex
 10
-408.1239008361913
 20
8.831887408916877
 30
0.0
  0
VERTEX
  5
2814
330
2323
100
AcDbEntity
  8
NOTE
100
AcDbVertex
100
AcDb2dVertex
 10
-487.869399992256
 20
95.52709505801564
 30
0.0
  0
VERTEX
  5
2815
330
2323
100
AcDbEntity
  8
NOTE
100
AcDbVertex
100
AcDb2dVertex
 10
-1077.59511427797
 20
95.52709505801564
 30
0.0
  0
SEQEND
  5
2816
330
2323
100
AcDbEntity
  8
NOTE
  0
ENDBLK
  5
2324
330
2959
100
AcDbEntity
  8
0
100
AcDbBlockEnd
  0
BLOCK
  5
295C
330
295B
100
AcDbEntity
  8
0
100
AcDbBlockBegin
  2
*U69
 70
     1
 10
0.0
 20
0.0
 30
0.0
  3
*U69
  1

  0
TEXT
  5
2327
330
295B
100
AcDbEntity
  8
NOTE
100
AcDbText
 10
-1077.59511427797
 20
113.5270950580157
 30
0.0
 40
64.0
  1
10×φ15取付穴
 41
0.9
100
AcDbText
  0
ENDBLK
  5
2328
330
295B
100
AcDbEntity
  8
0
100
AcDbBlockEnd
  0
BLOCK
  5
295E
330
295D
100
AcDbEntity
  8
0
100
AcDbBlockBegin
  2
*X70
 70
     1
 10
0.0
 20
0.0
 30
0.0
  3
*X70
  1

  0
LINE
  5
232B
330
295D
100
AcDbEntity
  8
0
 62
     0
100
AcDbLine
 10
361.306429800341
 20
-783.0013999999992
 30
0.0
 11
364.9999999999817
 21
-780.5390261546525
 31
0.0
  0
LINE
  5
232C
330
295D
100
AcDbEntity
  8
0
 62
     0
100
AcDbLine
 10
356.8064685064564
 20
-783.001400000001
 30
0.0
 11
364.9999999999855
 21
-777.5390596192378
 31
0.0
  0
LINE
  5
232D
330
295D
100
AcDbEntity
  8
0
 62
     0
100
AcDbLine
 10
352.3065072125755
 20
-783.0013999999992
 30
0.0
 11
364.9999999999891
 21
-774.5390930838182
 31
0.0
  0
LINE
  5
232E
330
295D
100
AcDbEntity
  8
0
 62
     0
100
AcDbLine
 10
347.8065459186873
 20
-783.0013999999992
 30
0.0
 11
364.9999999999855
 21
-771.539126548405
 31
0.0
  0
LINE
  5
232F
330
295D
100
AcDbEntity
  8
0
 62
     0
100
AcDbLine
 10
343.3065846247992
 20
-783.0013999999992
 30
0.0
 11
364.9999999999855
 21
-768.5391600129878
 31
0.0
  0
LINE
  5
2330
330
295D
100
AcDbEntity
  8
0
 62
     0
100
AcDbLine
 10
338.8066233309146
 20
-783.001400000001
 30
0.0
 11
364.9999999999855
 21
-765.5391934775724
 31
0.0
  0
LINE
  5
2331
330
295D
100
AcDbEntity
  8
0
 62
     0
100
AcDbLine
 10
334.3066620370337
 20
-783.0013999999992
 30
0.0
 11
364.9999999999891
 21
-762.5392269421553
 31
0.0
  0
LINE
  5
2332
330
295D
100
AcDbEntity
  8
0
 62
     0
100
AcDbLine
 10
329.8067007431455
 20
-783.001400000001
 30
0.0
 11
364.9999999999855
 21
-759.5392604067401
 31
0.0
  0
LINE
  5
2333
330
295D
100
AcDbEntity
  8
0
 62
     0
100
AcDbLine
 10
325.3067394492572
 20
-783.0013999999992
 30
0.0
 11
364.9999999999855
 21
-756.5392938713229
 31
0.0
  0
LINE
  5
2334
330
295D
100
AcDbEntity
  8
0
 62
     0
100
AcDbLine
 10
320.8067781553727
 20
-783.0013999999992
 30
0.0
 11
364.9999999999891
 21
-753.5393273359058
 31
0.0
  0
LINE
  5
2335
330
295D
100
AcDbEntity
  8
0
 62
     0
100
AcDbLine
 10
316.3068168614882
 20
-783.0013999999992
 30
0.0
 11
364.9999999999855
 21
-750.5393608004906
 31
0.0
  0
LINE
  5
2336
330
295D
100
AcDbEntity
  8
0
 62
     0
100
AcDbLine
 10
311.8068555676036
 20
-783.001400000001
 30
0.0
 11
364.9999999999855
 21
-747.5393942650754
 31
0.0
  0
LINE
  5
2337
330
295D
100
AcDbEntity
  8
0
 62
     0
100
AcDbLine
 10
307.3068942737155
 20
-783.001400000001
 30
0.0
 11
364.9999999999855
 21
-744.5394277296582
 31
0.0
  0
LINE
  5
2338
330
295D
100
AcDbEntity
  8
0
 62
     0
100
AcDbLine
 10
302.8069329798273
 20
-783.001400000001
 30
0.0
 11
364.9999999999855
 21
-741.5394611942405
 31
0.0
  0
LINE
  5
2339
330
295D
100
AcDbEntity
  8
0
 62
     0
100
AcDbLine
 10
298.3069716859462
 20
-783.0013999999992
 30
0.0
 11
364.9999999999855
 21
-738.5394946588275
 31
0.0
  0
LINE
  5
233A
330
295D
100
AcDbEntity
  8
0
 62
     0
100
AcDbLine
 10
293.8070103920618
 20
-783.0013999999992
 30
0.0
 11
364.9999999999855
 21
-735.5395281234087
 31
0.0
  0
LINE
  5
233B
330
295D
100
AcDbEntity
  8
0
 62
     0
100
AcDbLine
 10
289.3070490981736
 20
-783.001400000001
 30
0.0
 11
364.9999999999855
 21
-732.5395615879933
 31
0.0
  0
LINE
  5
233C
330
295D
100
AcDbEntity
  8
0
 62
     0
100
AcDbLine
 10
284.8070878042889
 20
-783.0013999999992
 30
0.0
 11
364.9999999999855
 21
-729.5395950525761
 31
0.0
  0
LINE
  5
233D
330
295D
100
AcDbEntity
  8
0
 62
     0
100
AcDbLine
 10
280.3071265104045
 20
-783.0013999999992
 30
0.0
 11
364.9999999999855
 21
-726.5396285171623
 31
0.0
  0
LINE
  5
233E
330
295D
100
AcDbEntity
  8
0
 62
     0
100
AcDbLine
 10
275.8071652165199
 20
-783.0013999999992
 30
0.0
 11
364.9999999999855
 21
-723.5396619817454
 31
0.0
  0
LINE
  5
233F
330
295D
100
AcDbEntity
  8
0
 62
     0
100
AcDbLine
 10
271.3072039226318
 20
-783.001400000001
 30
0.0
 11
364.9999999999855
 21
-720.5396954463284
 31
0.0
  0
LINE
  5
2340
330
295D
100
AcDbEntity
  8
0
 62
     0
100
AcDbLine
 10
266.8072426287472
 20
-783.0013999999992
 30
0.0
 11
364.9999999999855
 21
-717.5397289109132
 31
0.0
  0
LINE
  5
2341
330
295D
100
AcDbEntity
  8
0
 62
     0
100
AcDbLine
 10
262.3072813348626
 20
-783.0013999999992
 30
0.0
 11
364.9999999999891
 21
-714.5397623754944
 31
0.0
  0
LINE
  5
2342
330
295D
100
AcDbEntity
  8
0
 62
     0
100
AcDbLine
 10
257.8073200409781
 20
-783.0013999999992
 30
0.0
 11
364.9999999999855
 21
-711.5397958400807
 31
0.0
  0
LINE
  5
2343
330
295D
100
AcDbEntity
  8
0
 62
     0
100
AcDbLine
 10
253.3073587470899
 20
-783.001400000001
 30
0.0
 11
364.9999999999855
 21
-708.5398293046637
 31
0.0
  0
LINE
  5
2344
330
295D
100
AcDbEntity
  8
0
 62
     0
100
AcDbLine
 10
248.8073974532053
 20
-783.0013999999992
 30
0.0
 11
364.9999999999855
 21
-705.5398627692483
 31
0.0
  0
LINE
  5
2345
330
295D
100
AcDbEntity
  8
0
 62
     0
100
AcDbLine
 10
244.3074361593208
 20
-783.0013999999992
 30
0.0
 11
364.9999999999891
 21
-702.5398962338312
 31
0.0
  0
LINE
  5
2346
330
295D
100
AcDbEntity
  8
0
 62
     0
100
AcDbLine
 10
239.8074748654326
 20
-783.001400000001
 30
0.0
 11
364.9999999999855
 21
-699.5399296984142
 31
0.0
  0
LINE
  5
2347
330
295D
100
AcDbEntity
  8
0
 62
     0
100
AcDbLine
 10
235.3075135715481
 20
-783.001400000001
 30
0.0
 11
364.9999999999855
 21
-696.5399631629987
 31
0.0
  0
LINE
  5
2348
330
295D
100
AcDbEntity
  8
0
 62
     0
100
AcDbLine
 10
230.8075522776634
 20
-783.0013999999992
 30
0.0
 11
364.9999999999891
 21
-693.5399966275817
 31
0.0
  0
LINE
  5
2349
330
295D
100
AcDbEntity
  8
0
 62
     0
100
AcDbLine
 10
226.3075909837753
 20
-783.0013999999992
 30
0.0
 11
364.9999999999817
 21
-690.5400300921664
 31
0.0
  0
LINE
  5
234A
330
295D
100
AcDbEntity
  8
0
 62
     0
100
AcDbLine
 10
221.8076296898908
 20
-783.001400000001
 30
0.0
 11
364.9999999999855
 21
-687.5400635567513
 31
0.0
  0
LINE
  5
234B
330
295D
100
AcDbEntity
  8
0
 62
     0
100
AcDbLine
 10
217.3076683960061
 20
-783.0013999999992
 30
0.0
 11
364.9999999999855
 21
-684.5400970213338
 31
0.0
  0
LINE
  5
234C
330
295D
100
AcDbEntity
  8
0
 62
     0
100
AcDbLine
 10
212.8077071021144
 20
-783.0014000000029
 30
0.0
 11
364.9999999999855
 21
-681.5401304859188
 31
0.0
  0
LINE
  5
234D
330
295D
100
AcDbEntity
  8
0
 62
     0
100
AcDbLine
 10
208.3077458082335
 20
-783.0013999999992
 30
0.0
 11
364.9999999999855
 21
-678.5401639504998
 31
0.0
  0
LINE
  5
234E
330
295D
100
AcDbEntity
  8
0
 62
     0
100
AcDbLine
 10
203.8077845143489
 20
-783.0013999999992
 30
0.0
 11
364.9999999999855
 21
-675.5401974150845
 31
0.0
  0
LINE
  5
234F
330
295D
100
AcDbEntity
  8
0
 62
     0
100
AcDbLine
 10
199.3078232204643
 20
-783.0013999999992
 30
0.0
 11
364.9999999999855
 21
-672.540230879671
 31
0.0
  0
LINE
  5
2350
330
295D
100
AcDbEntity
  8
0
 62
     0
100
AcDbLine
 10
194.8078619265724
 20
-783.0014000000029
 30
0.0
 11
364.9999999999855
 21
-669.5402643442539
 31
0.0
  0
LINE
  5
2351
330
295D
100
AcDbEntity
  8
0
 62
     0
100
AcDbLine
 10
190.3079006326916
 20
-783.001400000001
 30
0.0
 11
364.9999999999855
 21
-666.5402978088367
 31
0.0
  0
LINE
  5
2352
330
295D
100
AcDbEntity
  8
0
 62
     0
100
AcDbLine
 10
185.8079393388069
 20
-783.0013999999992
 30
0.0
 11
364.9999999999855
 21
-663.5403312734196
 31
0.0
  0
LINE
  5
2353
330
295D
100
AcDbEntity
  8
0
 62
     0
100
AcDbLine
 10
181.3079780449225
 20
-783.001400000001
 30
0.0
 11
364.9999999999891
 21
-660.5403647380044
 31
0.0
  0
LINE
  5
2354
330
295D
100
AcDbEntity
  8
0
 62
     0
100
AcDbLine
 10
176.8080167510343
 20
-783.0013999999992
 30
0.0
 11
364.9999999999855
 21
-657.5403982025873
 31
0.0
  0
LINE
  5
2355
330
295D
100
AcDbEntity
  8
0
 62
     0
100
AcDbLine
 10
172.3080554571497
 20
-783.001400000001
 30
0.0
 11
364.9999999999855
 21
-654.540431667172
 31
0.0
  0
LINE
  5
2356
330
295D
100
AcDbEntity
  8
0
 62
     0
100
AcDbLine
 10
167.8080941632688
 20
-783.0013999999971
 30
0.0
 11
364.9999999999855
 21
-651.5404651317567
 31
0.0
  0
LINE
  5
2357
330
295D
100
AcDbEntity
  8
0
 62
     0
100
AcDbLine
 10
163.308132869377
 20
-783.001400000001
 30
0.0
 11
364.9999999999855
 21
-648.5404985963396
 31
0.0
  0
LINE
  5
2358
330
295D
100
AcDbEntity
  8
0
 62
     0
100
AcDbLine
 10
158.8081715754924
 20
-783.0013999999992
 30
0.0
 11
364.9999999999855
 21
-645.5405320609225
 31
0.0
  0
LINE
  5
2359
330
295D
100
AcDbEntity
  8
0
 62
     0
100
AcDbLine
 10
154.3082102816079
 20
-783.001400000001
 30
0.0
 11
364.9999999999855
 21
-642.540565525509
 31
0.0
  0
LINE
  5
235A
330
295D
100
AcDbEntity
  8
0
 62
     0
100
AcDbLine
 10
149.8082489877197
 20
-783.001400000001
 30
0.0
 11
364.9999999999855
 21
-639.5405989900901
 31
0.0
  0
LINE
  5
235B
330
295D
100
AcDbEntity
  8
0
 62
     0
100
AcDbLine
 10
145.3082876938351
 20
-783.001400000001
 30
0.0
 11
364.9999999999891
 21
-636.540632454673
 31
0.0
  0
LINE
  5
235C
330
295D
100
AcDbEntity
  8
0
 62
     0
100
AcDbLine
 10
140.8083263999506
 20
-783.0013999999992
 30
0.0
 11
364.9999999999855
 21
-633.5406659192576
 31
0.0
  0
LINE
  5
235D
330
295D
100
AcDbEntity
  8
0
 62
     0
100
AcDbLine
 10
136.308365106066
 20
-783.001400000001
 30
0.0
 11
364.9999999999855
 21
-630.5406993838442
 31
0.0
  0
LINE
  5
235E
330
295D
100
AcDbEntity
  8
0
 62
     0
100
AcDbLine
 10
131.8084038121778
 20
-783.001400000001
 30
0.0
 11
364.9999999999855
 21
-627.5407328484269
 31
0.0
  0
LINE
  5
235F
330
295D
100
AcDbEntity
  8
0
 62
     0
100
AcDbLine
 10
127.3084425182933
 20
-783.001400000001
 30
0.0
 11
364.9999999999891
 21
-624.5407663130081
 31
0.0
  0
LINE
  5
2360
330
295D
100
AcDbEntity
  8
0
 62
     0
100
AcDbLine
 10
122.8084812244087
 20
-783.001400000001
 30
0.0
 11
364.9999999999855
 21
-621.5407997775947
 31
0.0
  0
LINE
  5
2361
330
295D
100
AcDbEntity
  8
0
 62
     0
100
AcDbLine
 10
118.3085199305205
 20
-783.0013999999992
 30
0.0
 11
364.9999999999855
 21
-618.5408332421756
 31
0.0
  0
LINE
  5
2362
330
295D
100
AcDbEntity
  8
0
 62
     0
100
AcDbLine
 10
113.808558636636
 20
-783.001400000001
 30
0.0
 11
364.9999999999855
 21
-615.5408667067622
 31
0.0
  0
LINE
  5
2363
330
295D
100
AcDbEntity
  8
0
 62
     0
100
AcDbLine
 10
109.3085973427551
 20
-783.0013999999992
 30
0.0
 11
364.9999999999891
 21
-612.5409001713432
 31
0.0
  0
LINE
  5
2364
330
295D
100
AcDbEntity
  8
0
 62
     0
100
AcDbLine
 10
104.8086360488669
 20
-783.001400000001
 30
0.0
 11
364.9999999999855
 21
-609.5409336359296
 31
0.0
  0
LINE
  5
2365
330
295D
100
AcDbEntity
  8
0
 62
     0
100
AcDbLine
 10
100.3086747549787
 20
-783.001400000001
 30
0.0
 11
364.9999999999855
 21
-606.5409671005127
 31
0.0
  0
LINE
  5
2366
330
295D
100
AcDbEntity
  8
0
 62
     0
100
AcDbLine
 10
95.80871346109418
 20
-783.001400000001
 30
0.0
 11
364.9999999999891
 21
-603.5410005650954
 31
0.0
  0
LINE
  5
2367
330
295D
100
AcDbEntity
  8
0
 62
     0
100
AcDbLine
 10
91.30875216721321
 20
-783.0013999999992
 30
0.0
 11
364.9999999999891
 21
-600.5410340296803
 31
0.0
  0
LINE
  5
2368
330
295D
100
AcDbEntity
  8
0
 62
     0
100
AcDbLine
 10
86.8087908733214
 20
-783.001400000001
 30
0.0
 11
364.9999999999855
 21
-597.5410674942613
 31
0.0
  0
LINE
  5
2369
330
295D
100
AcDbEntity
  8
0
 62
     0
100
AcDbLine
 10
82.30882957943686
 20
-783.001400000001
 30
0.0
 11
364.9999999999855
 21
-594.5411009588479
 31
0.0
  0
LINE
  5
236A
330
295D
100
AcDbEntity
  8
0
 62
     0
100
AcDbLine
 10
77.80886828555231
 20
-783.0014000000029
 30
0.0
 11
364.9999999999891
 21
-591.5411344234326
 31
0.0
  0
LINE
  5
236B
330
295D
100
AcDbEntity
  8
0
 62
     0
100
AcDbLine
 10
73.30890699166774
 20
-783.0013999999992
 30
0.0
 11
364.9999999999855
 21
-588.5411678880155
 31
0.0
  0
LINE
  5
236C
330
295D
100
AcDbEntity
  8
0
 62
     0
100
AcDbLine
 10
68.80894569777956
 20
-783.0013999999992
 30
0.0
 11
364.9999999999855
 21
-585.5412013525984
 31
0.0
  0
LINE
  5
236D
330
295D
100
AcDbEntity
  8
0
 62
     0
100
AcDbLine
 10
64.30898440389501
 20
-783.001400000001
 30
0.0
 11
364.9999999999891
 21
-582.5412348171812
 31
0.0
  0
LINE
  5
236E
330
295D
100
AcDbEntity
  8
0
 62
     0
100
AcDbLine
 10
59.80902311001409
 20
-783.001400000001
 30
0.0
 11
364.9999999999891
 21
-579.5412682817675
 31
0.0
  0
LINE
  5
236F
330
295D
100
AcDbEntity
  8
0
 62
     0
100
AcDbLine
 10
55.30906181612224
 20
-783.0014000000029
 30
0.0
 11
364.9999999999855
 21
-576.5413017463522
 31
0.0
  0
LINE
  5
2370
330
295D
100
AcDbEntity
  8
0
 62
     0
100
AcDbLine
 10
50.80910052223771
 20
-783.0013999999992
 30
0.0
 11
364.9999999999855
 21
-573.5413352109336
 31
0.0
  0
LINE
  5
2371
330
295D
100
AcDbEntity
  8
0
 62
     0
100
AcDbLine
 10
46.30913922835316
 20
-783.001400000001
 30
0.0
 11
364.9999999999891
 21
-570.5413686755182
 31
0.0
  0
LINE
  5
2372
330
295D
100
AcDbEntity
  8
0
 62
     0
100
AcDbLine
 10
41.80917793446861
 20
-783.0013999999992
 30
0.0
 11
364.9999999999855
 21
-567.5414021401011
 31
0.0
  0
LINE
  5
2373
330
295D
100
AcDbEntity
  8
0
 62
     0
100
AcDbLine
 10
37.30921664058042
 20
-783.0014000000029
 30
0.0
 11
364.9999999999855
 21
-564.5414356046854
 31
0.0
  0
LINE
  5
2374
330
295D
100
AcDbEntity
  8
0
 62
     0
100
AcDbLine
 10
32.80925534669587
 20
-783.001400000001
 30
0.0
 11
364.9999999999855
 21
-561.5414690692705
 31
0.0
  0
LINE
  5
2375
330
295D
100
AcDbEntity
  8
0
 62
     0
100
AcDbLine
 10
28.30929405281131
 20
-783.0013999999992
 30
0.0
 11
364.9999999999891
 21
-558.5415025338516
 31
0.0
  0
LINE
  5
2376
330
295D
100
AcDbEntity
  8
0
 62
     0
100
AcDbLine
 10
23.80933275892312
 20
-783.001400000001
 30
0.0
 11
364.9999999999855
 21
-555.541535998438
 31
0.0
  0
LINE
  5
2377
330
295D
100
AcDbEntity
  8
0
 62
     0
100
AcDbLine
 10
19.30937146503856
 20
-783.0014000000029
 30
0.0
 11
364.9999999999855
 21
-552.5415694630209
 31
0.0
  0
LINE
  5
2378
330
295D
100
AcDbEntity
  8
0
 62
     0
100
AcDbLine
 10
14.80941017115401
 20
-783.001400000001
 30
0.0
 11
364.9999999999891
 21
-549.5416029276039
 31
0.0
  0
LINE
  5
2379
330
295D
100
AcDbEntity
  8
0
 62
     0
100
AcDbLine
 10
10.30944887726582
 20
-783.001400000001
 30
0.0
 11
364.9999999999855
 21
-546.5416363921884
 31
0.0
  0
LINE
  5
237A
330
295D
100
AcDbEntity
  8
0
 62
     0
100
AcDbLine
 10
5.809487583381266
 20
-783.0014000000029
 30
0.0
 11
364.9999999999855
 21
-543.5416698567713
 31
0.0
  0
LINE
  5
237B
330
295D
100
AcDbEntity
  8
0
 62
     0
100
AcDbLine
 10
1.309526289500354
 20
-783.001400000001
 30
0.0
 11
364.9999999999855
 21
-540.541703321358
 31
0.0
  0
LINE
  5
237C
330
295D
100
AcDbEntity
  8
0
 62
     0
100
AcDbLine
 10
-3.190435004387834
 20
-783.001400000001
 30
0.0
 11
364.9999999999855
 21
-537.5417367859389
 31
0.0
  0
LINE
  5
237D
330
295D
100
AcDbEntity
  8
0
 62
     0
100
AcDbLine
 10
-7.690396298276025
 20
-783.001400000001
 30
0.0
 11
364.9999999999855
 21
-534.5417702505236
 31
0.0
  0
LINE
  5
237E
330
295D
100
AcDbEntity
  8
0
 62
     0
100
AcDbLine
 10
-12.19035759216058
 20
-783.0014000000029
 30
0.0
 11
364.9999999999855
 21
-531.5418037151085
 31
0.0
  0
LINE
  5
237F
330
295D
100
AcDbEntity
  8
0
 62
     0
100
AcDbLine
 10
-16.69031888604149
 20
-783.0013999999992
 30
0.0
 11
364.9999999999891
 21
-528.5418371796898
 31
0.0
  0
LINE
  5
2380
330
295D
100
AcDbEntity
  8
0
 62
     0
100
AcDbLine
 10
-21.19028017992969
 20
-783.001400000001
 30
0.0
 11
364.9999999999855
 21
-525.5418706442759
 31
0.0
  0
LINE
  5
2381
330
295D
100
AcDbEntity
  8
0
 62
     0
100
AcDbLine
 10
-25.69024147381788
 20
-783.001400000001
 30
0.0
 11
364.9999999999891
 21
-522.5419041088571
 31
0.0
  0
LINE
  5
2382
330
295D
100
AcDbEntity
  8
0
 62
     0
100
AcDbLine
 10
-30.19020276770243
 20
-783.001400000001
 30
0.0
 11
364.9999999999855
 21
-519.5419375734418
 31
0.0
  0
LINE
  5
2383
330
295D
100
AcDbEntity
  8
0
 62
     0
100
AcDbLine
 10
-34.69016406158336
 20
-783.001400000001
 30
0.0
 11
364.9999999999891
 21
-516.5419710380265
 31
0.0
  0
LINE
  5
2384
330
295D
100
AcDbEntity
  8
0
 62
     0
100
AcDbLine
 10
-39.19012535547153
 20
-783.001400000001
 30
0.0
 11
364.9999999999855
 21
-513.5420045026111
 31
0.0
  0
LINE
  5
2385
330
295D
100
AcDbEntity
  8
0
 62
     0
100
AcDbLine
 10
-43.69008664935972
 20
-783.001400000001
 30
0.0
 11
364.9999999999891
 21
-510.5420379671938
 31
0.0
  0
LINE
  5
2386
330
295D
100
AcDbEntity
  8
0
 62
     0
100
AcDbLine
 10
-48.19004794324064
 20
-783.0013999999992
 30
0.0
 11
364.9999999999891
 21
-507.542071431775
 31
0.0
  0
LINE
  5
2387
330
295D
100
AcDbEntity
  8
0
 62
     0
100
AcDbLine
 10
-52.69000923712884
 20
-783.001400000001
 30
0.0
 11
364.9999999999855
 21
-504.5421048963617
 31
0.0
  0
LINE
  5
2388
330
295D
100
AcDbEntity
  8
0
 62
     0
100
AcDbLine
 10
-57.18997053101339
 20
-783.0014000000029
 30
0.0
 11
364.9999999999855
 21
-501.542138360948
 31
0.0
  0
LINE
  5
2389
330
295D
100
AcDbEntity
  8
0
 62
     0
100
AcDbLine
 10
-61.68993182490158
 20
-783.0014000000029
 30
0.0
 11
364.9999999999891
 21
-498.5421718255292
 31
0.0
  0
LINE
  5
238A
330
295D
100
AcDbEntity
  8
0
 62
     0
100
AcDbLine
 10
-66.18989311878613
 20
-783.0013999999992
 30
0.0
 11
364.9999999999855
 21
-495.5422052901122
 31
0.0
  0
LINE
  5
238B
330
295D
100
AcDbEntity
  8
0
 62
     0
100
AcDbLine
 10
-70.68985441267068
 20
-783.001400000001
 30
0.0
 11
364.9999999999855
 21
-492.5422387546968
 31
0.0
  0
LINE
  5
238C
330
295D
100
AcDbEntity
  8
0
 62
     0
100
AcDbLine
 10
-75.18981570655523
 20
-783.001400000001
 30
0.0
 11
364.9999999999891
 21
-489.5422722192797
 31
0.0
  0
LINE
  5
238D
330
295D
100
AcDbEntity
  8
0
 62
     0
100
AcDbLine
 10
-79.68977700044707
 20
-783.0014000000029
 30
0.0
 11
364.9999999999855
 21
-486.5423056838663
 31
0.0
  0
LINE
  5
238E
330
295D
100
AcDbEntity
  8
0
 62
     0
100
AcDbLine
 10
-84.18973829432799
 20
-783.0013999999992
 30
0.0
 11
364.9999999999855
 21
-483.5423391484473
 31
0.0
  0
LINE
  5
238F
330
295D
100
AcDbEntity
  8
0
 62
     0
100
AcDbLine
 10
-88.68969958821253
 20
-783.001400000001
 30
0.0
 11
364.9999999999855
 21
-480.5423726130336
 31
0.0
  0
LINE
  5
2390
330
295D
100
AcDbEntity
  8
0
 62
     0
100
AcDbLine
 10
-93.18966088209707
 20
-783.001400000001
 30
0.0
 11
364.9999999999891
 21
-477.5424060776148
 31
0.0
  0
LINE
  5
2391
330
295D
100
AcDbEntity
  8
0
 62
     0
100
AcDbLine
 10
-97.68962217598891
 20
-783.0014000000029
 30
0.0
 11
364.9999999999855
 21
-474.5424395421996
 31
0.0
  0
LINE
  5
2392
330
295D
100
AcDbEntity
  8
0
 62
     0
100
AcDbLine
 10
-102.1895834698698
 20
-783.001400000001
 30
0.0
 11
364.9999999999855
 21
-471.5424730067825
 31
0.0
  0
LINE
  5
2393
330
295D
100
AcDbEntity
  8
0
 62
     0
100
AcDbLine
 10
-106.6895447637544
 20
-783.001400000001
 30
0.0
 11
364.9999999999891
 21
-468.5425064713654
 31
0.0
  0
LINE
  5
2394
330
295D
100
AcDbEntity
  8
0
 62
     0
100
AcDbLine
 10
-111.1895060576389
 20
-783.001400000001
 30
0.0
 11
364.9999999999891
 21
-465.5425399359519
 31
0.0
  0
LINE
  5
2395
330
295D
100
AcDbEntity
  8
0
 62
     0
100
AcDbLine
 10
-115.6894673515271
 20
-783.001400000001
 30
0.0
 11
364.9999999999855
 21
-462.5425734005347
 31
0.0
  0
LINE
  5
2396
330
295D
100
AcDbEntity
  8
0
 62
     0
100
AcDbLine
 10
-120.1894286454117
 20
-783.001400000001
 30
0.0
 11
364.9999999999855
 21
-459.5426068651192
 31
0.0
  0
LINE
  5
2397
330
295D
100
AcDbEntity
  8
0
 62
     0
100
AcDbLine
 10
-124.6893899392962
 20
-783.001400000001
 30
0.0
 11
364.9999999999891
 21
-456.5426403297005
 31
0.0
  0
LINE
  5
2398
330
295D
100
AcDbEntity
  8
0
 62
     0
100
AcDbLine
 10
-129.1893512331844
 20
-783.0014000000029
 30
0.0
 11
364.9999999999855
 21
-453.5426737942851
 31
0.0
  0
LINE
  5
2399
330
295D
100
AcDbEntity
  8
0
 62
     0
100
AcDbLine
 10
-133.6893125270689
 20
-783.0013999999992
 30
0.0
 11
364.9999999999855
 21
-450.54270725887
 31
0.0
  0
LINE
  5
239A
330
295D
100
AcDbEntity
  8
0
 62
     0
100
AcDbLine
 10
-138.1892738209572
 20
-783.0014000000029
 30
0.0
 11
364.9999999999891
 21
-447.5427407234528
 31
0.0
  0
LINE
  5
239B
330
295D
100
AcDbEntity
  8
0
 62
     0
100
AcDbLine
 10
-142.6892351148417
 20
-783.001400000001
 30
0.0
 11
364.9999999999855
 21
-444.5427741880376
 31
0.0
  0
LINE
  5
239C
330
295D
100
AcDbEntity
  8
0
 62
     0
100
AcDbLine
 10
-147.1891964087262
 20
-783.0014000000029
 30
0.0
 11
364.9999999999855
 21
-441.5428076526204
 31
0.0
  0
LINE
  5
239D
330
295D
100
AcDbEntity
  8
0
 62
     0
100
AcDbLine
 10
-151.6891577026108
 20
-783.001400000001
 30
0.0
 11
364.9999999999855
 21
-438.5428411172052
 31
0.0
  0
LINE
  5
239E
330
295D
100
AcDbEntity
  8
0
 62
     0
100
AcDbLine
 10
-156.189118996499
 20
-783.001400000001
 30
0.0
 11
364.9999999999855
 21
-435.5428745817897
 31
0.0
  0
LINE
  5
239F
330
295D
100
AcDbEntity
  8
0
 62
     0
100
AcDbLine
 10
-160.6890802903834
 20
-783.001400000001
 30
0.0
 11
364.9999999999891
 21
-432.5429080463708
 31
0.0
  0
LINE
  5
23A0
330
295D
100
AcDbEntity
  8
0
 62
     0
100
AcDbLine
 10
-165.1890415842644
 20
-783.0013999999992
 30
0.0
 11
364.9999999999855
 21
-429.5429415109556
 31
0.0
  0
LINE
  5
23A1
330
295D
100
AcDbEntity
  8
0
 62
     0
100
AcDbLine
 10
-169.6890028781526
 20
-783.001400000001
 30
0.0
 11
364.9999999999891
 21
-426.5429749755385
 31
0.0
  0
LINE
  5
23A2
330
295D
100
AcDbEntity
  8
0
 62
     0
100
AcDbLine
 10
-174.1889641720409
 20
-783.0014000000029
 30
0.0
 11
364.9999999999855
 21
-423.5430084401248
 31
0.0
  0
LINE
  5
23A3
330
295D
100
AcDbEntity
  8
0
 62
     0
100
AcDbLine
 10
-178.6889254659254
 20
-783.001400000001
 30
0.0
 11
364.9999999999891
 21
-420.5430419047079
 31
0.0
  0
LINE
  5
23A4
330
295D
100
AcDbEntity
  8
0
 62
     0
100
AcDbLine
 10
-183.1888867598063
 20
-783.0013999999992
 30
0.0
 11
364.9999999999855
 21
-417.5430753692908
 31
0.0
  0
LINE
  5
23A5
330
295D
100
AcDbEntity
  8
0
 62
     0
100
AcDbLine
 10
-187.6888480536945
 20
-783.0014000000029
 30
0.0
 11
364.9999999999891
 21
-414.5431088338755
 31
0.0
  0
LINE
  5
23A6
330
295D
100
AcDbEntity
  8
0
 62
     0
100
AcDbLine
 10
-192.1888093475827
 20
-783.001400000001
 30
0.0
 11
364.9999999999855
 21
-411.5431422984584
 31
0.0
  0
LINE
  5
23A7
330
295D
100
AcDbEntity
  8
0
 62
     0
100
AcDbLine
 10
-196.6887706414673
 20
-783.0014000000029
 30
0.0
 11
364.9999999999891
 21
-408.5431757630431
 31
0.0
  0
LINE
  5
23A8
330
295D
100
AcDbEntity
  8
0
 62
     0
100
AcDbLine
 10
-201.1887319353482
 20
-783.0013999999992
 30
0.0
 11
364.9999999999855
 21
-405.5432092276276
 31
0.0
  0
LINE
  5
23A9
330
295D
100
AcDbEntity
  8
0
 62
     0
100
AcDbLine
 10
-205.68869322924
 20
-783.0014000000029
 30
0.0
 11
364.9999999999855
 21
-402.5432426922105
 31
0.0
  0
LINE
  5
23AA
330
295D
100
AcDbEntity
  8
0
 62
     0
100
AcDbLine
 10
-210.1886545231246
 20
-783.001400000001
 30
0.0
 11
364.9999999999891
 21
-399.5432761567936
 31
0.0
  0
LINE
  5
23AB
330
295D
100
AcDbEntity
  8
0
 62
     0
100
AcDbLine
 10
-214.6886158170091
 20
-783.0014000000029
 30
0.0
 11
364.9999999999891
 21
-396.5433096213784
 31
0.0
  0
LINE
  5
23AC
330
295D
100
AcDbEntity
  8
0
 62
     0
100
AcDbLine
 10
-219.1885771108937
 20
-783.001400000001
 30
0.0
 11
364.9999999999855
 21
-393.5433430859612
 31
0.0
  0
LINE
  5
23AD
330
295D
100
AcDbEntity
  8
0
 62
     0
100
AcDbLine
 10
-223.6885384047819
 20
-783.0013999999992
 30
0.0
 11
364.9999999999855
 21
-390.5433765505458
 31
0.0
  0
LINE
  5
23AE
330
295D
100
AcDbEntity
  8
0
 62
     0
100
AcDbLine
 10
-228.1884996986664
 20
-783.001400000001
 30
0.0
 11
364.9999999999891
 21
-387.5434100151288
 31
0.0
  0
LINE
  5
23AF
330
295D
100
AcDbEntity
  8
0
 62
     0
100
AcDbLine
 10
-232.6884609925473
 20
-783.001400000001
 30
0.0
 11
364.9999999999891
 21
-384.5434434797153
 31
0.0
  0
LINE
  5
23B0
330
295D
100
AcDbEntity
  8
0
 62
     0
100
AcDbLine
 10
-237.1884222864391
 20
-783.0014000000029
 30
0.0
 11
364.9999999999855
 21
-381.5434769442963
 31
0.0
  0
LINE
  5
23B1
330
295D
100
AcDbEntity
  8
0
 62
     0
100
AcDbLine
 10
-241.6883835803237
 20
-783.001400000001
 30
0.0
 11
364.9999999999891
 21
-378.5435104088792
 31
0.0
  0
LINE
  5
23B2
330
295D
100
AcDbEntity
  8
0
 62
     0
100
AcDbLine
 10
-246.1883448742083
 20
-783.001400000001
 30
0.0
 11
364.9999999999891
 21
-375.543543873464
 31
0.0
  0
LINE
  5
23B3
330
295D
100
AcDbEntity
  8
0
 62
     0
100
AcDbLine
 10
-250.6883061680928
 20
-783.001400000001
 30
0.0
 11
364.9999999999855
 21
-372.5435773380486
 31
0.0
  0
LINE
  5
23B4
330
295D
100
AcDbEntity
  8
0
 62
     0
100
AcDbLine
 10
-255.188267461981
 20
-783.0014000000029
 30
0.0
 11
364.9999999999855
 21
-369.5436108026334
 31
0.0
  0
LINE
  5
23B5
330
295D
100
AcDbEntity
  8
0
 62
     0
100
AcDbLine
 10
-259.6882287558656
 20
-783.001400000001
 30
0.0
 11
364.9999999999891
 21
-366.5436442672143
 31
0.0
  0
LINE
  5
23B6
330
295D
100
AcDbEntity
  8
0
 62
     0
100
AcDbLine
 10
-264.1881900497501
 20
-783.001400000001
 30
0.0
 11
364.9999999999891
 21
-363.5436777317991
 31
0.0
  0
LINE
  5
23B7
330
295D
100
AcDbEntity
  8
0
 62
     0
100
AcDbLine
 10
-268.6881513436347
 20
-783.0013999999992
 30
0.0
 11
364.9999999999855
 21
-360.543711196382
 31
0.0
  0
LINE
  5
23B8
330
295D
100
AcDbEntity
  8
0
 62
     0
100
AcDbLine
 10
363.1135114504504
 20
-358.8014004825291
 30
0.0
 11
364.9999999999927
 21
-357.5437446609649
 31
0.0
  0
LINE
  5
23B9
330
295D
100
AcDbEntity
  8
0
 62
     0
100
AcDbLine
 10
-273.1881126375193
 20
-783.001400000001
 30
0.0
 11
363.1135114504504
 21
-358.8014004825291
 31
0.0
  0
LINE
  5
23BA
330
295D
100
AcDbEntity
  8
0
 62
     0
100
AcDbLine
 10
358.6135501565696
 20
-358.8014004825254
 30
0.0
 11
364.9999999999927
 21
-354.5437781255496
 31
0.0
  0
LINE
  5
23BB
330
295D
100
AcDbEntity
  8
0
 62
     0
100
AcDbLine
 10
-277.6880739314074
 20
-783.001400000001
 30
0.0
 11
358.6135501565696
 21
-358.8014004825254
 31
0.0
  0
LINE
  5
23BC
330
295D
100
AcDbEntity
  8
0
 62
     0
100
AcDbLine
 10
354.1135888626814
 20
-358.8014004825254
 30
0.0
 11
364.9999999999891
 21
-351.5438115901305
 31
0.0
  0
LINE
  5
23BD
330
295D
100
AcDbEntity
  8
0
 62
     0
100
AcDbLine
 10
-282.188035225292
 20
-783.0013999999992
 30
0.0
 11
354.1135888626814
 21
-358.8014004825254
 31
0.0
  0
LINE
  5
23BE
330
295D
100
AcDbEntity
  8
0
 62
     0
100
AcDbLine
 10
349.6136275687969
 20
-358.8014004825272
 30
0.0
 11
364.9999999999891
 21
-348.5438450547172
 31
0.0
  0
LINE
  5
23BF
330
295D
100
AcDbEntity
  8
0
 62
     0
100
AcDbLine
 10
-286.6879965191801
 20
-783.0014000000029
 30
0.0
 11
349.6136275687969
 21
-358.8014004825272
 31
0.0
  0
LINE
  5
23C0
330
295D
100
AcDbEntity
  8
0
 62
     0
100
AcDbLine
 10
345.1136662749124
 20
-358.8014004825272
 30
0.0
 11
364.9999999999927
 21
-345.5438785193
 31
0.0
  0
LINE
  5
23C1
330
295D
100
AcDbEntity
  8
0
 62
     0
100
AcDbLine
 10
-291.1879578130611
 20
-783.001400000001
 30
0.0
 11
345.1136662749124
 21
-358.8014004825272
 31
0.0
  0
LINE
  5
23C2
330
295D
100
AcDbEntity
  8
0
 62
     0
100
AcDbLine
 10
340.6137049810241
 20
-358.8014004825272
 30
0.0
 11
364.9999999999891
 21
-342.5439119838848
 31
0.0
  0
LINE
  5
23C3
330
295D
100
AcDbEntity
  8
0
 62
     0
100
AcDbLine
 10
-295.6879191069492
 20
-783.001400000001
 30
0.0
 11
340.6137049810204
 21
-358.8014004825291
 31
0.0
  0
LINE
  5
23C4
330
295D
100
AcDbEntity
  8
0
 62
     0
100
AcDbLine
 10
336.1137436871395
 20
-358.8014004825272
 30
0.0
 11
364.9999999999891
 21
-339.5439454484658
 31
0.0
  0
LINE
  5
23C5
330
295D
100
AcDbEntity
  8
0
 62
     0
100
AcDbLine
 10
-300.1878804008338
 20
-783.0013999999992
 30
0.0
 11
336.1137436871395
 21
-358.8014004825272
 31
0.0
  0
LINE
  5
23C6
330
295D
100
AcDbEntity
  8
0
 62
     0
100
AcDbLine
 10
331.613782393255
 20
-358.8014004825272
 30
0.0
 11
364.9999999999891
 21
-336.5439789130522
 31
0.0
  0
LINE
  5
23C7
330
295D
100
AcDbEntity
  8
0
 62
     0
100
AcDbLine
 10
-304.687841694722
 20
-783.0014000000029
 30
0.0
 11
331.613782393255
 21
-358.8014004825272
 31
0.0
  0
LINE
  5
23C8
330
295D
100
AcDbEntity
  8
0
 62
     0
100
AcDbLine
 10
327.1138210993704
 20
-358.8014004825272
 30
0.0
 11
364.9999999999927
 21
-333.5440123776372
 31
0.0
  0
LINE
  5
23C9
330
295D
100
AcDbEntity
  8
0
 62
     0
100
AcDbLine
 10
-309.1878029886029
 20
-783.0014000000029
 30
0.0
 11
327.1138210993704
 21
-358.8014004825272
 31
0.0
  0
LINE
  5
23CA
330
295D
100
AcDbEntity
  8
0
 62
     0
100
AcDbLine
 10
322.613859805482
 20
-358.8014004825272
 30
0.0
 11
364.9999999999891
 21
-330.5440458422181
 31
0.0
  0
LINE
  5
23CB
330
295D
100
AcDbEntity
  8
0
 62
     0
100
AcDbLine
 10
-313.6877642824911
 20
-783.001400000001
 30
0.0
 11
322.6138598054786
 21
-358.8014004825291
 31
0.0
  0
LINE
  5
23CC
330
295D
100
AcDbEntity
  8
0
 62
     0
100
AcDbLine
 10
318.1138985115977
 20
-358.8014004825272
 30
0.0
 11
364.9999999999891
 21
-327.5440793068028
 31
0.0
  0
LINE
  5
23CD
330
295D
100
AcDbEntity
  8
0
 62
     0
100
AcDbLine
 10
-318.1877255763757
 20
-783.0013999999992
 30
0.0
 11
318.1138985115977
 21
-358.8014004825272
 31
0.0
  0
LINE
  5
23CE
330
295D
100
AcDbEntity
  8
0
 62
     0
100
AcDbLine
 10
313.6139372177131
 20
-358.8014004825272
 30
0.0
 11
364.9999999999891
 21
-324.5441127713875
 31
0.0
  0
LINE
  5
23CF
330
295D
100
AcDbEntity
  8
0
 62
     0
100
AcDbLine
 10
-322.6876868702639
 20
-783.001400000001
 30
0.0
 11
313.6139372177131
 21
-358.8014004825272
 31
0.0
  0
LINE
  5
23D0
330
295D
100
AcDbEntity
  8
0
 62
     0
100
AcDbLine
 10
309.1139759238249
 20
-358.8014004825254
 30
0.0
 11
364.9999999999891
 21
-321.5441462359704
 31
0.0
  0
LINE
  5
23D1
330
295D
100
AcDbEntity
  8
0
 62
     0
100
AcDbLine
 10
-327.1876481641484
 20
-783.001400000001
 30
0.0
 11
309.1139759238249
 21
-358.8014004825254
 31
0.0
  0
LINE
  5
23D2
330
295D
100
AcDbEntity
  8
0
 62
     0
100
AcDbLine
 10
304.6140146299403
 20
-358.8014004825272
 30
0.0
 11
364.9999999999891
 21
-318.5441797005551
 31
0.0
  0
LINE
  5
23D3
330
295D
100
AcDbEntity
  8
0
 62
     0
100
AcDbLine
 10
-331.6876094580331
 20
-783.0014000000029
 30
0.0
 11
304.6140146299403
 21
-358.8014004825272
 31
0.0
  0
LINE
  5
23D4
330
295D
100
AcDbEntity
  8
0
 62
     0
100
AcDbLine
 10
300.1140533360558
 20
-358.8014004825272
 30
0.0
 11
364.9999999999891
 21
-315.544213165138
 31
0.0
  0
LINE
  5
23D5
330
295D
100
AcDbEntity
  8
0
 62
     0
100
AcDbLine
 10
-336.1875707519212
 20
-783.001400000001
 30
0.0
 11
300.1140533360558
 21
-358.8014004825272
 31
0.0
  0
LINE
  5
23D6
330
295D
100
AcDbEntity
  8
0
 62
     0
100
AcDbLine
 10
295.6140920421713
 20
-358.8014004825254
 30
0.0
 11
364.9999999999927
 21
-312.5442466297209
 31
0.0
  0
LINE
  5
23D7
330
295D
100
AcDbEntity
  8
0
 62
     0
100
AcDbLine
 10
-340.6875320458021
 20
-783.0013999999992
 30
0.0
 11
295.6140920421713
 21
-358.8014004825254
 31
0.0
  0
LINE
  5
23D8
330
295D
100
AcDbEntity
  8
0
 62
     0
100
AcDbLine
 10
291.114130748283
 20
-358.8014004825254
 30
0.0
 11
364.9999999999891
 21
-309.5442800943057
 31
0.0
  0
LINE
  5
23D9
330
295D
100
AcDbEntity
  8
0
 62
     0
100
AcDbLine
 10
-345.1874933396902
 20
-783.001400000001
 30
0.0
 11
291.1141307482794
 21
-358.8014004825291
 31
0.0
  0
LINE
  5
23DA
330
295D
100
AcDbEntity
  8
0
 62
     0
100
AcDbLine
 10
286.6141694543985
 20
-358.8014004825272
 30
0.0
 11
364.9999999999891
 21
-306.5443135588903
 31
0.0
  0
LINE
  5
23DB
330
295D
100
AcDbEntity
  8
0
 62
     0
100
AcDbLine
 10
-349.6874546335748
 20
-783.001400000001
 30
0.0
 11
286.6141694543985
 21
-358.8014004825272
 31
0.0
  0
LINE
  5
23DC
330
295D
100
AcDbEntity
  8
0
 62
     0
100
AcDbLine
 10
282.114208160514
 20
-358.8014004825272
 30
0.0
 11
364.9999999999891
 21
-303.5443470234749
 31
0.0
  0
LINE
  5
23DD
330
295D
100
AcDbEntity
  8
0
 62
     0
100
AcDbLine
 10
-354.187415927463
 20
-783.0014000000029
 30
0.0
 11
282.114208160514
 21
-358.8014004825272
 31
0.0
  0
LINE
  5
23DE
330
295D
100
AcDbEntity
  8
0
 62
     0
100
AcDbLine
 10
277.6142468666257
 20
-358.8014004825254
 30
0.0
 11
364.9999999999891
 21
-300.544380488056
 31
0.0
  0
LINE
  5
23DF
330
295D
100
AcDbEntity
  8
0
 62
     0
100
AcDbLine
 10
-358.6873772213477
 20
-783.0013999999992
 30
0.0
 11
277.6142468666257
 21
-358.8014004825254
 31
0.0
  0
LINE
  5
23E0
330
295D
100
AcDbEntity
  8
0
 62
     0
100
AcDbLine
 10
273.1142855727412
 20
-358.8014004825272
 30
0.0
 11
364.9999999999927
 21
-297.5444139526408
 31
0.0
  0
LINE
  5
23E1
330
295D
100
AcDbEntity
  8
0
 62
     0
100
AcDbLine
 10
-363.1873385152321
 20
-783.001400000001
 30
0.0
 11
273.1142855727376
 21
-358.8014004825291
 31
0.0
  0
LINE
  5
23E2
330
295D
100
AcDbEntity
  8
0
 62
     0
100
AcDbLine
 10
268.6143242788566
 20
-358.8014004825291
 30
0.0
 11
364.9999999999891
 21
-294.5444474172255
 31
0.0
  0
LINE
  5
23E3
330
295D
100
AcDbEntity
  8
0
 62
     0
100
AcDbLine
 10
-365.0000000000109
 20
-781.2098713686554
 30
0.0
 11
268.6143242788566
 21
-358.8014004825291
 31
0.0
  0
LINE
  5
23E4
330
295D
100
AcDbEntity
  8
0
 62
     0
100
AcDbLine
 10
264.1143629849685
 20
-358.8014004825272
 30
0.0
 11
364.9999999999855
 21
-291.5444808818103
 31
0.0
  0
LINE
  5
23E5
330
295D
100
AcDbEntity
  8
0
 62
     0
100
AcDbLine
 10
-365.0000000000146
 20
-778.20990483324
 30
0.0
 11
264.1143629849685
 21
-358.8014004825272
 31
0.0
  0
LINE
  5
23E6
330
295D
100
AcDbEntity
  8
0
 62
     0
100
AcDbLine
 10
259.6144016910839
 20
-358.8014004825254
 30
0.0
 11
364.9999999999891
 21
-288.5445143463929
 31
0.0
  0
LINE
  5
23E7
330
295D
100
AcDbEntity
  8
0
 62
     0
100
AcDbLine
 10
-365.0000000000146
 20
-775.2099382978212
 30
0.0
 11
259.6144016910839
 21
-358.8014004825254
 31
0.0
  0
LINE
  5
23E8
330
295D
100
AcDbEntity
  8
0
 62
     0
100
AcDbLine
 10
255.1144403971957
 20
-358.8014004825272
 30
0.0
 11
364.9999999999927
 21
-285.5445478109741
 31
0.0
  0
LINE
  5
23E9
330
295D
100
AcDbEntity
  8
0
 62
     0
100
AcDbLine
 10
-365.0000000000109
 20
-772.2099717624042
 30
0.0
 11
255.1144403971957
 21
-358.8014004825272
 31
0.0
  0
LINE
  5
23EA
330
295D
100
AcDbEntity
  8
0
 62
     0
100
AcDbLine
 10
250.6144791033148
 20
-358.8014004825272
 30
0.0
 11
364.9999999999891
 21
-282.5445812755607
 31
0.0
  0
LINE
  5
23EB
330
295D
100
AcDbEntity
  8
0
 62
     0
100
AcDbLine
 10
-365.0000000000109
 20
-769.2100052269887
 30
0.0
 11
250.6144791033148
 21
-358.8014004825272
 31
0.0
  0
LINE
  5
23EC
330
295D
100
AcDbEntity
  8
0
 62
     0
100
AcDbLine
 10
246.1145178094266
 20
-358.8014004825291
 30
0.0
 11
364.9999999999891
 21
-279.5446147401436
 31
0.0
  0
LINE
  5
23ED
330
295D
100
AcDbEntity
  8
0
 62
     0
100
AcDbLine
 10
-365.0000000000109
 20
-766.2100386915732
 30
0.0
 11
246.1145178094266
 21
-358.8014004825291
 31
0.0
  0
LINE
  5
23EE
330
295D
100
AcDbEntity
  8
0
 62
     0
100
AcDbLine
 10
241.6145565155457
 20
-358.8014004825254
 30
0.0
 11
364.9999999999891
 21
-276.5446482047282
 31
0.0
  0
LINE
  5
23EF
330
295D
100
AcDbEntity
  8
0
 62
     0
100
AcDbLine
 10
-365.0000000000146
 20
-763.2100721561585
 30
0.0
 11
241.6145565155421
 21
-358.8014004825272
 31
0.0
  0
LINE
  5
23F0
330
295D
100
AcDbEntity
  8
0
 62
     0
100
AcDbLine
 10
237.1145952216576
 20
-358.8014004825254
 30
0.0
 11
364.9999999999927
 21
-273.5446816693111
 31
0.0
  0
LINE
  5
23F1
330
295D
100
AcDbEntity
  8
0
 62
     0
100
AcDbLine
 10
-365.0000000000109
 20
-760.2101056207394
 30
0.0
 11
237.1145952216576
 21
-358.8014004825254
 31
0.0
  0
LINE
  5
23F2
330
295D
100
AcDbEntity
  8
0
 62
     0
100
AcDbLine
 10
232.6146339277729
 20
-358.8014004825272
 30
0.0
 11
364.9999999999891
 21
-270.5447151338958
 31
0.0
  0
LINE
  5
23F3
330
295D
100
AcDbEntity
  8
0
 62
     0
100
AcDbLine
 10
-365.0000000000109
 20
-757.2101390853257
 30
0.0
 11
232.6146339277729
 21
-358.8014004825272
 31
0.0
  0
LINE
  5
23F4
330
295D
100
AcDbEntity
  8
0
 62
     0
100
AcDbLine
 10
228.1146726338884
 20
-358.8014004825272
 30
0.0
 11
364.9999999999891
 21
-267.5447485984804
 31
0.0
  0
LINE
  5
23F5
330
295D
100
AcDbEntity
  8
0
 62
     0
100
AcDbLine
 10
-365.0000000000109
 20
-754.2101725499086
 30
0.0
 11
228.1146726338884
 21
-358.8014004825272
 31
0.0
  0
LINE
  5
23F6
330
295D
100
AcDbEntity
  8
0
 62
     0
100
AcDbLine
 10
223.6147113400039
 20
-358.8014004825272
 30
0.0
 11
364.9999999999927
 21
-264.5447820630616
 31
0.0
  0
LINE
  5
23F7
330
295D
100
AcDbEntity
  8
0
 62
     0
100
AcDbLine
 10
-365.0000000000109
 20
-751.2102060144914
 30
0.0
 11
223.6147113400002
 21
-358.8014004825291
 31
0.0
  0
LINE
  5
23F8
330
295D
100
AcDbEntity
  8
0
 62
     0
100
AcDbLine
 10
219.1147500461156
 20
-358.8014004825254
 30
0.0
 11
364.9999999999891
 21
-261.5448155276481
 31
0.0
  0
LINE
  5
23F9
330
295D
100
AcDbEntity
  8
0
 62
     0
100
AcDbLine
 10
-365.0000000000109
 20
-748.2102394790763
 30
0.0
 11
219.1147500461156
 21
-358.8014004825254
 31
0.0
  0
LINE
  5
23FA
330
295D
100
AcDbEntity
  8
0
 62
     0
100
AcDbLine
 10
214.6147887522275
 20
-358.8014004825272
 30
0.0
 11
364.9999999999855
 21
-258.5448489922328
 31
0.0
  0
LINE
  5
23FB
330
295D
100
AcDbEntity
  8
0
 62
     0
100
AcDbLine
 10
-365.0000000000146
 20
-745.210272943661
 30
0.0
 11
214.6147887522275
 21
-358.8014004825272
 31
0.0
  0
LINE
  5
23FC
330
295D
100
AcDbEntity
  8
0
 62
     0
100
AcDbLine
 10
210.1148274583465
 20
-358.8014004825272
 30
0.0
 11
364.9999999999855
 21
-255.5448824568175
 31
0.0
  0
LINE
  5
23FD
330
295D
100
AcDbEntity
  8
0
 62
     0
100
AcDbLine
 10
-365.0000000000109
 20
-742.2103064082457
 30
0.0
 11
210.1148274583465
 21
-358.8014004825272
 31
0.0
  0
LINE
  5
23FE
330
295D
100
AcDbEntity
  8
0
 62
     0
100
AcDbLine
 10
205.614866164462
 20
-358.8014004825272
 30
0.0
 11
364.9999999999891
 21
-252.5449159214004
 31
0.0
  0
LINE
  5
23FF
330
295D
100
AcDbEntity
  8
0
 62
     0
100
AcDbLine
 10
-365.0000000000109
 20
-739.2103398728266
 30
0.0
 11
205.6148661644584
 21
-358.8014004825291
 31
0.0
  0
LINE
  5
2400
330
295D
100
AcDbEntity
  8
0
 62
     0
100
AcDbLine
 10
201.1149048705702
 20
-358.8014004825272
 30
0.0
 11
364.9999999999855
 21
-249.5449493859851
 31
0.0
  0
LINE
  5
2401
330
295D
100
AcDbEntity
  8
0
 62
     0
100
AcDbLine
 10
-365.0000000000146
 20
-736.2103733374115
 30
0.0
 11
201.1149048705702
 21
-358.8014004825272
 31
0.0
  0
LINE
  5
2402
330
295D
100
AcDbEntity
  8
0
 62
     0
100
AcDbLine
 10
196.6149435766856
 20
-358.8014004825254
 30
0.0
 11
364.9999999999855
 21
-246.5449828505661
 31
0.0
  0
LINE
  5
2403
330
295D
100
AcDbEntity
  8
0
 62
     0
100
AcDbLine
 10
-365.0000000000109
 20
-733.2104068019938
 30
0.0
 11
196.6149435766856
 21
-358.8014004825254
 31
0.0
  0
LINE
  5
2404
330
295D
100
AcDbEntity
  8
0
 62
     0
100
AcDbLine
 10
192.1149822828047
 20
-358.8014004825254
 30
0.0
 11
364.9999999999855
 21
-243.5450163151527
 31
0.0
  0
LINE
  5
2405
330
295D
100
AcDbEntity
  8
0
 62
     0
100
AcDbLine
 10
-365.0000000000109
 20
-730.2104402665791
 30
0.0
 11
192.114982282801
 21
-358.8014004825272
 31
0.0
  0
LINE
  5
2406
330
295D
100
AcDbEntity
  8
0
 62
     0
100
AcDbLine
 10
187.6150209889165
 20
-358.8014004825272
 30
0.0
 11
364.9999999999855
 21
-240.5450497797356
 31
0.0
  0
LINE
  5
2407
330
295D
100
AcDbEntity
  8
0
 62
     0
100
AcDbLine
 10
-365.0000000000146
 20
-727.2104737311638
 30
0.0
 11
187.6150209889165
 21
-358.8014004825272
 31
0.0
  0
LINE
  5
2408
330
295D
100
AcDbEntity
  8
0
 62
     0
100
AcDbLine
 10
183.1150596950282
 20
-358.8014004825272
 30
0.0
 11
364.9999999999855
 21
-237.5450832443203
 31
0.0
  0
LINE
  5
2409
330
295D
100
AcDbEntity
  8
0
 62
     0
100
AcDbLine
 10
-365.0000000000146
 20
-724.2105071957467
 30
0.0
 11
183.1150596950282
 21
-358.8014004825272
 31
0.0
  0
LINE
  5
240A
330
295D
100
AcDbEntity
  8
0
 62
     0
100
AcDbLine
 10
178.6150984011437
 20
-358.8014004825272
 30
0.0
 11
364.9999999999855
 21
-234.5451167089013
 31
0.0
  0
LINE
  5
240B
330
295D
100
AcDbEntity
  8
0
 62
     0
100
AcDbLine
 10
-365.0000000000109
 20
-721.2105406603294
 30
0.0
 11
178.6150984011437
 21
-358.8014004825272
 31
0.0
  0
LINE
  5
240C
330
295D
100
AcDbEntity
  8
0
 62
     0
100
AcDbLine
 10
174.1151371072628
 20
-358.8014004825254
 30
0.0
 11
364.9999999999855
 21
-231.5451501734878
 31
0.0
  0
LINE
  5
240D
330
295D
100
AcDbEntity
  8
0
 62
     0
100
AcDbLine
 10
-365.0000000000109
 20
-718.210574124914
 30
0.0
 11
174.1151371072592
 21
-358.8014004825272
 31
0.0
  0
LINE
  5
240E
330
295D
100
AcDbEntity
  8
0
 62
     0
100
AcDbLine
 10
169.6151758133746
 20
-358.8014004825272
 30
0.0
 11
364.9999999999855
 21
-228.5451836380726
 31
0.0
  0
LINE
  5
240F
330
295D
100
AcDbEntity
  8
0
 62
     0
100
AcDbLine
 10
-365.0000000000146
 20
-715.2106075894987
 30
0.0
 11
169.6151758133746
 21
-358.8014004825272
 31
0.0
  0
LINE
  5
2410
330
295D
100
AcDbEntity
  8
0
 62
     0
100
AcDbLine
 10
165.1152145194864
 20
-358.8014004825272
 30
0.0
 11
364.9999999999891
 21
-225.5452171026536
 31
0.0
  0
LINE
  5
2411
330
295D
100
AcDbEntity
  8
0
 62
     0
100
AcDbLine
 10
-365.0000000000109
 20
-712.2106410540817
 30
0.0
 11
165.1152145194864
 21
-358.8014004825272
 31
0.0
  0
LINE
  5
2412
330
295D
100
AcDbEntity
  8
0
 62
     0
100
AcDbLine
 10
160.6152532256055
 20
-358.8014004825254
 30
0.0
 11
364.9999999999855
 21
-222.5452505672383
 31
0.0
  0
LINE
  5
2413
330
295D
100
AcDbEntity
  8
0
 62
     0
100
AcDbLine
 10
-365.0000000000109
 20
-709.2106745186647
 30
0.0
 11
160.6152532256055
 21
-358.8014004825254
 31
0.0
  0
LINE
  5
2414
330
295D
100
AcDbEntity
  8
0
 62
     0
100
AcDbLine
 10
156.115291931721
 20
-358.8014004825272
 30
0.0
 11
364.9999999999891
 21
-219.5452840318212
 31
0.0
  0
LINE
  5
2415
330
295D
100
AcDbEntity
  8
0
 62
     0
100
AcDbLine
 10
-365.0000000000109
 20
-706.2107079832495
 30
0.0
 11
156.1152919317173
 21
-358.8014004825291
 31
0.0
  0
LINE
  5
2416
330
295D
100
AcDbEntity
  8
0
 62
     0
100
AcDbLine
 10
151.6153306378328
 20
-358.8014004825272
 30
0.0
 11
364.9999999999855
 21
-216.5453174964077
 31
0.0
  0
LINE
  5
2417
330
295D
100
AcDbEntity
  8
0
 62
     0
100
AcDbLine
 10
-365.0000000000146
 20
-703.2107414478359
 30
0.0
 11
151.6153306378328
 21
-358.8014004825272
 31
0.0
  0
LINE
  5
2418
330
295D
100
AcDbEntity
  8
0
 62
     0
100
AcDbLine
 10
149.1999999999898
 20
-357.4116502606011
 30
0.0
 11
364.9999999999855
 21
-213.5453509609906
 31
0.0
  0
LINE
  5
2419
330
295D
100
AcDbEntity
  8
0
 62
     0
100
AcDbLine
 10
-365.0000000000109
 20
-700.210774912417
 30
0.0
 11
149.1999999999898
 21
-357.4116502606011
 31
0.0
  0
LINE
  5
241A
330
295D
100
AcDbEntity
  8
0
 62
     0
100
AcDbLine
 10
149.1999999999934
 20
-354.4116837251841
 30
0.0
 11
364.9999999999855
 21
-210.5453844255735
 31
0.0
  0
LINE
  5
241B
330
295D
100
AcDbEntity
  8
0
 62
     0
100
AcDbLine
 10
-365.0000000000109
 20
-697.2108083770018
 30
0.0
 11
149.1999999999934
 21
-354.4116837251841
 31
0.0
  0
LINE
  5
241C
330
295D
100
AcDbEntity
  8
0
 62
     0
100
AcDbLine
 10
149.1999999999898
 20
-351.411717189767
 30
0.0
 11
364.9999999999855
 21
-207.5454178901564
 31
0.0
  0
LINE
  5
241D
330
295D
100
AcDbEntity
  8
0
 62
     0
100
AcDbLine
 10
-365.0000000000146
 20
-694.2108418415828
 30
0.0
 11
149.1999999999898
 21
-351.411717189767
 31
0.0
  0
LINE
  5
241E
330
295D
100
AcDbEntity
  8
0
 62
     0
100
AcDbLine
 10
149.1999999999898
 20
-348.4117506543516
 30
0.0
 11
364.9999999999855
 21
-204.5454513547411
 31
0.0
  0
LINE
  5
241F
330
295D
100
AcDbEntity
  8
0
 62
     0
100
AcDbLine
 10
-365.0000000000146
 20
-691.2108753061693
 30
0.0
 11
149.1999999999898
 21
-348.4117506543516
 31
0.0
  0
LINE
  5
2420
330
295D
100
AcDbEntity
  8
0
 62
     0
100
AcDbLine
 10
149.1999999999934
 20
-345.4117841189364
 30
0.0
 11
364.9999999999855
 21
-201.5454848193257
 31
0.0
  0
LINE
  5
2421
330
295D
100
AcDbEntity
  8
0
 62
     0
100
AcDbLine
 10
-365.0000000000109
 20
-688.2109087707539
 30
0.0
 11
149.1999999999898
 21
-345.4117841189382
 31
0.0
  0
LINE
  5
2422
330
295D
100
AcDbEntity
  8
0
 62
     0
100
AcDbLine
 10
149.1999999999898
 20
-342.4118175835192
 30
0.0
 11
364.9999999999817
 21
-198.5455182839105
 31
0.0
  0
LINE
  5
2423
330
295D
100
AcDbEntity
  8
0
 62
     0
100
AcDbLine
 10
-365.0000000000146
 20
-685.210942235335
 30
0.0
 11
149.1999999999898
 21
-342.4118175835192
 31
0.0
  0
LINE
  5
2424
330
295D
100
AcDbEntity
  8
0
 62
     0
100
AcDbLine
 10
149.1999999999934
 20
-339.4118510481021
 30
0.0
 11
364.9999999999855
 21
-195.5455517484915
 31
0.0
  0
LINE
  5
2425
330
295D
100
AcDbEntity
  8
0
 62
     0
100
AcDbLine
 10
-365.0000000000146
 20
-682.2109756999196
 30
0.0
 11
149.1999999999898
 21
-339.4118510481039
 31
0.0
  0
LINE
  5
2426
330
295D
100
AcDbEntity
  8
0
 62
     0
100
AcDbLine
 10
149.1999999999898
 20
-336.4118845126868
 30
0.0
 11
364.9999999999891
 21
-192.5455852130762
 31
0.0
  0
LINE
  5
2427
330
295D
100
AcDbEntity
  8
0
 62
     0
100
AcDbLine
 10
-365.0000000000109
 20
-679.2110091645024
 30
0.0
 11
149.1999999999898
 21
-336.4118845126868
 31
0.0
  0
LINE
  5
2428
330
295D
100
AcDbEntity
  8
0
 62
     0
100
AcDbLine
 10
149.1999999999898
 20
-333.4119179772715
 30
0.0
 11
364.9999999999817
 21
-189.5456186776608
 31
0.0
  0
LINE
  5
2429
330
295D
100
AcDbEntity
  8
0
 62
     0
100
AcDbLine
 10
-365.0000000000146
 20
-676.2110426290893
 30
0.0
 11
149.1999999999898
 21
-333.4119179772715
 31
0.0
  0
LINE
  5
242A
330
295D
100
AcDbEntity
  8
0
 62
     0
100
AcDbLine
 10
149.1999999999898
 20
-330.4119514418562
 30
0.0
 11
364.9999999999855
 21
-186.5456521422438
 31
0.0
  0
LINE
  5
242B
330
295D
100
AcDbEntity
  8
0
 62
     0
100
AcDbLine
 10
-365.0000000000146
 20
-673.2110760936701
 30
0.0
 11
149.1999999999898
 21
-330.4119514418562
 31
0.0
  0
LINE
  5
242C
330
295D
100
AcDbEntity
  8
0
 62
     0
100
AcDbLine
 10
149.1999999999934
 20
-327.4119849064373
 30
0.0
 11
364.9999999999855
 21
-183.5456856068285
 31
0.0
  0
LINE
  5
242D
330
295D
100
AcDbEntity
  8
0
 62
     0
100
AcDbLine
 10
-365.0000000000146
 20
-670.211109558255
 30
0.0
 11
149.1999999999934
 21
-327.4119849064373
 31
0.0
  0
LINE
  5
242E
330
295D
100
AcDbEntity
  8
0
 62
     0
100
AcDbLine
 10
149.1999999999898
 20
-324.4120183710238
 30
0.0
 11
364.9999999999891
 21
-180.5457190714114
 31
0.0
  0
LINE
  5
242F
330
295D
100
AcDbEntity
  8
0
 62
     0
100
AcDbLine
 10
-365.0000000000109
 20
-667.2111430228397
 30
0.0
 11
149.1999999999898
 21
-324.4120183710238
 31
0.0
  0
LINE
  5
2430
330
295D
100
AcDbEntity
  8
0
 62
     0
100
AcDbLine
 10
149.1999999999898
 20
-321.4120518356067
 30
0.0
 11
364.9999999999817
 21
-177.5457525359979
 31
0.0
  0
LINE
  5
2431
330
295D
100
AcDbEntity
  8
0
 62
     0
100
AcDbLine
 10
-365.0000000000109
 20
-664.2111764874224
 30
0.0
 11
149.1999999999898
 21
-321.4120518356067
 31
0.0
  0
LINE
  5
2432
330
295D
100
AcDbEntity
  8
0
 62
     0
100
AcDbLine
 10
149.1999999999898
 20
-318.4120853001914
 30
0.0
 11
364.9999999999855
 21
-174.545786000579
 31
0.0
  0
LINE
  5
2433
330
295D
100
AcDbEntity
  8
0
 62
     0
100
AcDbLine
 10
-365.0000000000146
 20
-661.2112099520072
 30
0.0
 11
149.1999999999898
 21
-318.4120853001914
 31
0.0
  0
LINE
  5
2434
330
295D
100
AcDbEntity
  8
0
 62
     0
100
AcDbLine
 10
149.1999999999898
 20
-315.4121187647742
 30
0.0
 11
364.9999999999855
 21
-171.5458194651636
 31
0.0
  0
LINE
  5
2435
330
295D
100
AcDbEntity
  8
0
 62
     0
100
AcDbLine
 10
-365.0000000000146
 20
-658.2112434165918
 30
0.0
 11
149.1999999999898
 21
-315.4121187647742
 31
0.0
  0
LINE
  5
2436
330
295D
100
AcDbEntity
  8
0
 62
     0
100
AcDbLine
 10
149.1999999999934
 20
-312.4121522293552
 30
0.0
 11
364.9999999999891
 21
-168.5458529297466
 31
0.0
  0
LINE
  5
2437
330
295D
100
AcDbEntity
  8
0
 62
     0
100
AcDbLine
 10
-365.0000000000109
 20
-655.211276881173
 30
0.0
 11
149.1999999999934
 21
-312.4121522293552
 31
0.0
  0
LINE
  5
2438
330
295D
100
AcDbEntity
  8
0
 62
     0
100
AcDbLine
 10
149.1999999999898
 20
-309.412185693942
 30
0.0
 11
364.9999999999817
 21
-165.5458863943313
 31
0.0
  0
LINE
  5
2439
330
295D
100
AcDbEntity
  8
0
 62
     0
100
AcDbLine
 10
-365.0000000000109
 20
-652.2113103457577
 30
0.0
 11
149.1999999999898
 21
-309.412185693942
 31
0.0
  0
LINE
  5
243A
330
295D
100
AcDbEntity
  8
0
 62
     0
100
AcDbLine
 10
149.1999999999898
 20
-306.4122191585266
 30
0.0
 11
361.3167696593482
 21
-165.0014004825298
 31
0.0
  0
LINE
  5
243B
330
295D
100
AcDbEntity
  8
0
 62
     0
100
AcDbLine
 10
-365.0000000000146
 20
-649.2113438103424
 30
0.0
 11
149.1999999999898
 21
-306.4122191585266
 31
0.0
  0
LINE
  5
243C
330
295D
100
AcDbEntity
  8
0
 62
     0
100
AcDbLine
 10
149.1999999999898
 20
-303.4122526231095
 30
0.0
 11
356.81680836546
 21
-165.001400482528
 31
0.0
  0
LINE
  5
243D
330
295D
100
AcDbEntity
  8
0
 62
     0
100
AcDbLine
 10
-365.0000000000109
 20
-646.2113772749252
 30
0.0
 11
149.1999999999898
 21
-303.4122526231095
 31
0.0
  0
LINE
  5
243E
330
295D
100
AcDbEntity
  8
0
 62
     0
100
AcDbLine
 10
149.1999999999898
 20
-300.4122860876905
 30
0.0
 11
352.3168470715717
 21
-165.001400482528
 31
0.0
  0
LINE
  5
243F
330
295D
100
AcDbEntity
  8
0
 62
     0
100
AcDbLine
 10
-365.0000000000146
 20
-643.2114107395078
 30
0.0
 11
149.1999999999898
 21
-300.4122860876905
 31
0.0
  0
LINE
  5
2440
330
295D
100
AcDbEntity
  8
0
 62
     0
100
AcDbLine
 10
149.1999999999898
 20
-297.4123195522769
 30
0.0
 11
347.8168857776872
 21
-165.0014004825298
 31
0.0
  0
LINE
  5
2441
330
295D
100
AcDbEntity
  8
0
 62
     0
100
AcDbLine
 10
-365.0000000000109
 20
-640.2114442040929
 30
0.0
 11
149.1999999999898
 21
-297.4123195522769
 31
0.0
  0
LINE
  5
2442
330
295D
100
AcDbEntity
  8
0
 62
     0
100
AcDbLine
 10
149.1999999999934
 20
-294.4123530168617
 30
0.0
 11
343.3169244838063
 21
-165.0014004825298
 31
0.0
  0
LINE
  5
2443
330
295D
100
AcDbEntity
  8
0
 62
     0
100
AcDbLine
 10
-365.0000000000146
 20
-637.2114776686792
 30
0.0
 11
149.1999999999934
 21
-294.4123530168617
 31
0.0
  0
LINE
  5
2444
330
295D
100
AcDbEntity
  8
0
 62
     0
100
AcDbLine
 10
149.1999999999862
 20
-291.4123864814446
 30
0.0
 11
338.8169631899145
 21
-165.0014004825314
 31
0.0
  0
LINE
  5
2445
330
295D
100
AcDbEntity
  8
0
 62
     0
100
AcDbLine
 10
-365.0000000000146
 20
-634.2115111332605
 30
0.0
 11
149.1999999999862
 21
-291.4123864814446
 31
0.0
  0
LINE
  5
2446
330
295D
100
AcDbEntity
  8
0
 62
     0
100
AcDbLine
 10
149.1999999999898
 20
-288.4124199460275
 30
0.0
 11
334.31700189603
 21
-165.001400482528
 31
0.0
  0
LINE
  5
2447
330
295D
100
AcDbEntity
  8
0
 62
     0
100
AcDbLine
 10
-365.0000000000109
 20
-631.2115445978434
 30
0.0
 11
149.1999999999898
 21
-288.4124199460275
 31
0.0
  0
LINE
  5
2448
330
295D
100
AcDbEntity
  8
0
 62
     0
100
AcDbLine
 10
149.1999999999898
 20
-285.412453410614
 30
0.0
 11
329.8170406021454
 21
-165.0014004825298
 31
0.0
  0
LINE
  5
2449
330
295D
100
AcDbEntity
  8
0
 62
     0
100
AcDbLine
 10
-365.0000000000109
 20
-628.2115780624279
 30
0.0
 11
149.1999999999898
 21
-285.412453410614
 31
0.0
  0
LINE
  5
244A
330
295D
100
AcDbEntity
  8
0
 62
     0
100
AcDbLine
 10
149.1999999999934
 20
-282.4124868751969
 30
0.0
 11
325.3170793082645
 21
-165.0014004825298
 31
0.0
  0
LINE
  5
244B
330
295D
100
AcDbEntity
  8
0
 62
     0
100
AcDbLine
 10
-365.0000000000109
 20
-625.2116115270127
 30
0.0
 11
149.1999999999934
 21
-282.4124868751969
 31
0.0
  0
LINE
  5
244C
330
295D
100
AcDbEntity
  8
0
 62
     0
100
AcDbLine
 10
149.1999999999898
 20
-279.4125203397798
 30
0.0
 11
320.8171180143727
 21
-165.0014004825314
 31
0.0
  0
LINE
  5
244D
330
295D
100
AcDbEntity
  8
0
 62
     0
100
AcDbLine
 10
-365.0000000000146
 20
-622.2116449915975
 30
0.0
 11
149.1999999999898
 21
-279.4125203397798
 31
0.0
  0
LINE
  5
244E
330
295D
100
AcDbEntity
  8
0
 62
     0
100
AcDbLine
 10
149.1999999999898
 20
-276.4125538043627
 30
0.0
 11
316.3171567204881
 21
-165.0014004825298
 31
0.0
  0
LINE
  5
244F
330
295D
100
AcDbEntity
  8
0
 62
     0
100
AcDbLine
 10
-365.0000000000109
 20
-619.2116784561785
 30
0.0
 11
149.1999999999898
 21
-276.4125538043627
 31
0.0
  0
LINE
  5
2450
330
295D
100
AcDbEntity
  8
0
 62
     0
100
AcDbLine
 10
149.1999999999934
 20
-273.4125872689456
 30
0.0
 11
311.8171954266036
 21
-165.001400482528
 31
0.0
  0
LINE
  5
2451
330
295D
100
AcDbEntity
  8
0
 62
     0
100
AcDbLine
 10
-365.0000000000109
 20
-616.2117119207632
 30
0.0
 11
149.1999999999934
 21
-273.4125872689456
 31
0.0
  0
LINE
  5
2452
330
295D
100
AcDbEntity
  8
0
 62
     0
100
AcDbLine
 10
149.1999999999898
 20
-270.4126207335321
 30
0.0
 11
307.3172341327191
 21
-165.001400482528
 31
0.0
  0
LINE
  5
2453
330
295D
100
AcDbEntity
  8
0
 62
     0
100
AcDbLine
 10
-365.0000000000146
 20
-613.2117453853461
 30
0.0
 11
149.1999999999898
 21
-270.4126207335321
 31
0.0
  0
LINE
  5
2454
330
295D
100
AcDbEntity
  8
0
 62
     0
100
AcDbLine
 10
149.1999999999898
 20
-267.412654198115
 30
0.0
 11
302.8172728388345
 21
-165.0014004825298
 31
0.0
  0
LINE
  5
2455
330
295D
100
AcDbEntity
  8
0
 62
     0
100
AcDbLine
 10
-365.0000000000109
 20
-610.2117788499308
 30
0.0
 11
149.1999999999898
 21
-267.412654198115
 31
0.0
  0
LINE
  5
2456
330
295D
100
AcDbEntity
  8
0
 62
     0
100
AcDbLine
 10
149.1999999999898
 20
-264.4126876626997
 30
0.0
 11
298.3173115449463
 21
-165.0014004825298
 31
0.0
  0
LINE
  5
2457
330
295D
100
AcDbEntity
  8
0
 62
     0
100
AcDbLine
 10
-365.0000000000109
 20
-607.2118123145155
 30
0.0
 11
149.1999999999898
 21
-264.4126876626997
 31
0.0
  0
LINE
  5
2458
330
295D
100
AcDbEntity
  8
0
 62
     0
100
AcDbLine
 10
149.1999999999934
 20
-261.4127211272808
 30
0.0
 11
293.8173502510654
 21
-165.001400482528
 31
0.0
  0
LINE
  5
2459
330
295D
100
AcDbEntity
  8
0
 62
     0
100
AcDbLine
 10
-365.0000000000109
 20
-604.2118457790983
 30
0.0
 11
149.1999999999934
 21
-261.4127211272808
 31
0.0
  0
LINE
  5
245A
330
295D
100
AcDbEntity
  8
0
 62
     0
100
AcDbLine
 10
149.1999999999898
 20
-258.4127545918654
 30
0.0
 11
289.3173889571735
 21
-165.0014004825314
 31
0.0
  0
LINE
  5
245B
330
295D
100
AcDbEntity
  8
0
 62
     0
100
AcDbLine
 10
-365.0000000000146
 20
-601.2118792436832
 30
0.0
 11
149.1999999999898
 21
-258.4127545918654
 31
0.0
  0
LINE
  5
245C
330
295D
100
AcDbEntity
  8
0
 62
     0
100
AcDbLine
 10
149.1999999999898
 20
-255.4127880564502
 30
0.0
 11
284.8174276632926
 21
-165.0014004825298
 31
0.0
  0
LINE
  5
245D
330
295D
100
AcDbEntity
  8
0
 62
     0
100
AcDbLine
 10
-365.0000000000109
 20
-598.211912708266
 30
0.0
 11
149.1999999999898
 21
-255.4127880564502
 31
0.0
  0
LINE
  5
245E
330
295D
100
AcDbEntity
  8
0
 62
     0
100
AcDbLine
 10
149.1999999999934
 20
-252.4128215210331
 30
0.0
 11
280.3174663694044
 21
-165.0014004825298
 31
0.0
  0
LINE
  5
245F
330
295D
100
AcDbEntity
  8
0
 62
     0
100
AcDbLine
 10
-365.0000000000109
 20
-595.2119461728507
 30
0.0
 11
149.1999999999934
 21
-252.4128215210331
 31
0.0
  0
LINE
  5
2460
330
295D
100
AcDbEntity
  8
0
 62
     0
100
AcDbLine
 10
149.1999999999898
 20
-249.4128549856177
 30
0.0
 11
275.8175050755199
 21
-165.001400482528
 31
0.0
  0
LINE
  5
2461
330
295D
100
AcDbEntity
  8
0
 62
     0
100
AcDbLine
 10
-365.0000000000146
 20
-592.2119796374336
 30
0.0
 11
149.1999999999898
 21
-249.4128549856177
 31
0.0
  0
LINE
  5
2462
330
295D
100
AcDbEntity
  8
0
 62
     0
100
AcDbLine
 10
149.1999999999898
 20
-246.4128884502006
 30
0.0
 11
271.3175437816317
 21
-165.0014004825314
 31
0.0
  0
LINE
  5
2463
330
295D
100
AcDbEntity
  8
0
 62
     0
100
AcDbLine
 10
-365.0000000000109
 20
-589.2120131020162
 30
0.0
 11
149.1999999999898
 21
-246.4128884502006
 31
0.0
  0
LINE
  5
2464
330
295D
100
AcDbEntity
  8
0
 62
     0
100
AcDbLine
 10
149.1999999999898
 20
-243.4129219147871
 30
0.0
 11
266.8175824877508
 21
-165.0014004825298
 31
0.0
  0
LINE
  5
2465
330
295D
100
AcDbEntity
  8
0
 62
     0
100
AcDbLine
 10
-365.0000000000109
 20
-586.212046566603
 30
0.0
 11
149.1999999999898
 21
-243.4129219147871
 31
0.0
  0
LINE
  5
2466
330
295D
100
AcDbEntity
  8
0
 62
     0
100
AcDbLine
 10
149.1999999999898
 20
-240.4129553793682
 30
0.0
 11
262.3176211938589
 21
-165.0014004825298
 31
0.0
  0
LINE
  5
2467
330
295D
100
AcDbEntity
  8
0
 62
     0
100
AcDbLine
 10
-365.0000000000146
 20
-583.2120800311859
 30
0.0
 11
149.1999999999898
 21
-240.4129553793682
 31
0.0
  0
LINE
  5
2468
330
295D
100
AcDbEntity
  8
0
 62
     0
100
AcDbLine
 10
149.1999999999898
 20
-237.4129888439528
 30
0.0
 11
257.817659899978
 21
-165.001400482528
 31
0.0
  0
LINE
  5
2469
330
295D
100
AcDbEntity
  8
0
 62
     0
100
AcDbLine
 10
-365.0000000000146
 20
-580.2121134957688
 30
0.0
 11
149.1999999999898
 21
-237.4129888439528
 31
0.0
  0
LINE
  5
246A
330
295D
100
AcDbEntity
  8
0
 62
     0
100
AcDbLine
 10
149.1999999999898
 20
-234.4130223085358
 30
0.0
 11
253.3176986060935
 21
-165.001400482528
 31
0.0
  0
LINE
  5
246B
330
295D
100
AcDbEntity
  8
0
 62
     0
100
AcDbLine
 10
-365.0000000000109
 20
-577.2121469603498
 30
0.0
 11
149.1999999999898
 21
-234.4130223085358
 31
0.0
  0
LINE
  5
246C
330
295D
100
AcDbEntity
  8
0
 62
     0
100
AcDbLine
 10
149.1999999999898
 20
-231.4130557731205
 30
0.0
 11
248.8177373122089
 21
-165.0014004825298
 31
0.0
  0
LINE
  5
246D
330
295D
100
AcDbEntity
  8
0
 62
     0
100
AcDbLine
 10
-365.0000000000109
 20
-574.2121804249364
 30
0.0
 11
149.1999999999898
 21
-231.4130557731205
 31
0.0
  0
LINE
  5
246E
330
295D
100
AcDbEntity
  8
0
 62
     0
100
AcDbLine
 10
149.1999999999898
 20
-228.4130892377052
 30
0.0
 11
244.3177760183207
 21
-165.001400482528
 31
0.0
  0
LINE
  5
246F
330
295D
100
AcDbEntity
  8
0
 62
     0
100
AcDbLine
 10
-365.0000000000146
 20
-571.212213889521
 30
0.0
 11
149.1999999999898
 21
-228.4130892377052
 31
0.0
  0
LINE
  5
2470
330
295D
100
AcDbEntity
  8
0
 62
     0
100
AcDbLine
 10
149.1999999999934
 20
-225.4131227022863
 30
0.0
 11
239.8178147244362
 21
-165.001400482528
 31
0.0
  0
LINE
  5
2471
330
295D
100
AcDbEntity
  8
0
 62
     0
100
AcDbLine
 10
-365.0000000000146
 20
-568.2122473541038
 30
0.0
 11
149.1999999999934
 21
-225.4131227022863
 31
0.0
  0
LINE
  5
2472
330
295D
100
AcDbEntity
  8
0
 62
     0
100
AcDbLine
 10
149.1999999999898
 20
-222.413156166871
 30
0.0
 11
235.3178534305516
 21
-165.001400482528
 31
0.0
  0
LINE
  5
2473
330
295D
100
AcDbEntity
  8
0
 62
     0
100
AcDbLine
 10
-365.0000000000109
 20
-565.2122808186868
 30
0.0
 11
149.1999999999898
 21
-222.413156166871
 31
0.0
  0
LINE
  5
2474
330
295D
100
AcDbEntity
  8
0
 62
     0
100
AcDbLine
 10
149.1999999999898
 20
-219.4131896314557
 30
0.0
 11
230.8178921366634
 21
-165.0014004825298
 31
0.0
  0
LINE
  5
2475
330
295D
100
AcDbEntity
  8
0
 62
     0
100
AcDbLine
 10
-365.0000000000146
 20
-562.2123142832731
 30
0.0
 11
149.1999999999898
 21
-219.4131896314557
 31
0.0
  0
LINE
  5
2476
330
295D
100
AcDbEntity
  8
0
 62
     0
100
AcDbLine
 10
149.1999999999898
 20
-216.4132230960404
 30
0.0
 11
226.3179308427789
 21
-165.0014004825298
 31
0.0
  0
LINE
  5
2477
330
295D
100
AcDbEntity
  8
0
 62
     0
100
AcDbLine
 10
-365.0000000000146
 20
-559.2123477478562
 30
0.0
 11
149.1999999999898
 21
-216.4132230960404
 31
0.0
  0
LINE
  5
2478
330
295D
100
AcDbEntity
  8
0
 62
     0
100
AcDbLine
 10
149.1999999999934
 20
-213.4132565606233
 30
0.0
 11
221.8179695488907
 21
-165.0014004825314
 31
0.0
  0
LINE
  5
2479
330
295D
100
AcDbEntity
  8
0
 62
     0
100
AcDbLine
 10
-365.0000000000146
 20
-556.212381212441
 30
0.0
 11
149.1999999999934
 21
-213.4132565606233
 31
0.0
  0
LINE
  5
247A
330
295D
100
AcDbEntity
  8
0
 62
     0
100
AcDbLine
 10
149.1999999999898
 20
-210.4132900252062
 30
0.0
 11
217.3180082550098
 21
-165.001400482528
 31
0.0
  0
LINE
  5
247B
330
295D
100
AcDbEntity
  8
0
 62
     0
100
AcDbLine
 10
-365.0000000000109
 20
-553.212414677022
 30
0.0
 11
149.1999999999898
 21
-210.4132900252062
 31
0.0
  0
LINE
  5
247C
330
295D
100
AcDbEntity
  8
0
 62
     0
100
AcDbLine
 10
149.1999999999898
 20
-207.4133234897908
 30
0.0
 11
212.8180469611216
 21
-165.0014004825298
 31
0.0
  0
LINE
  5
247D
330
295D
100
AcDbEntity
  8
0
 62
     0
100
AcDbLine
 10
-365.0000000000146
 20
-550.2124481416085
 30
0.0
 11
149.1999999999898
 21
-207.4133234897908
 31
0.0
  0
LINE
  5
247E
330
295D
100
AcDbEntity
  8
0
 62
     0
100
AcDbLine
 10
149.1999999999934
 20
-204.4133569543756
 30
0.0
 11
208.318085667237
 21
-165.0014004825298
 31
0.0
  0
LINE
  5
247F
330
295D
100
AcDbEntity
  8
0
 62
     0
100
AcDbLine
 10
-365.0000000000146
 20
-547.2124816061932
 30
0.0
 11
149.1999999999934
 21
-204.4133569543756
 31
0.0
  0
LINE
  5
2480
330
295D
100
AcDbEntity
  8
0
 62
     0
100
AcDbLine
 10
149.1999999999934
 20
-201.4133904189584
 30
0.0
 11
203.8181243733488
 21
-165.0014004825314
 31
0.0
  0
LINE
  5
2481
330
295D
100
AcDbEntity
  8
0
 62
     0
100
AcDbLine
 10
-365.0000000000109
 20
-544.2125150707743
 30
0.0
 11
149.1999999999934
 21
-201.4133904189584
 31
0.0
  0
LINE
  5
2482
330
295D
100
AcDbEntity
  8
0
 62
     0
100
AcDbLine
 10
149.1999999999898
 20
-198.4134238835413
 30
0.0
 11
199.3181630794643
 21
-165.001400482528
 31
0.0
  0
LINE
  5
2483
330
295D
100
AcDbEntity
  8
0
 62
     0
100
AcDbLine
 10
-365.0000000000146
 20
-541.212548535359
 30
0.0
 11
149.1999999999898
 21
-198.4134238835413
 31
0.0
  0
LINE
  5
2484
330
295D
100
AcDbEntity
  8
0
 62
     0
100
AcDbLine
 10
149.1999999999898
 20
-195.413457348126
 30
0.0
 11
194.8182017855796
 21
-165.0014004825298
 31
0.0
  0
LINE
  5
2485
330
295D
100
AcDbEntity
  8
0
 62
     0
100
AcDbLine
 10
-365.0000000000109
 20
-538.2125819999417
 30
0.0
 11
149.1999999999898
 21
-195.413457348126
 31
0.0
  0
LINE
  5
2486
330
295D
100
AcDbEntity
  8
0
 62
     0
100
AcDbLine
 10
149.1999999999934
 20
-192.4134908127089
 30
0.0
 11
190.3182404916952
 21
-165.001400482528
 31
0.0
  0
LINE
  5
2487
330
295D
100
AcDbEntity
  8
0
 62
     0
100
AcDbLine
 10
-365.0000000000146
 20
-535.2126154645266
 30
0.0
 11
149.1999999999934
 21
-192.4134908127089
 31
0.0
  0
LINE
  5
2488
330
295D
100
AcDbEntity
  8
0
 62
     0
100
AcDbLine
 10
149.1999999999862
 20
-189.4135242772954
 30
0.0
 11
185.8182791978069
 21
-165.0014004825298
 31
0.0
  0
LINE
  5
2489
330
295D
100
AcDbEntity
  8
0
 62
     0
100
AcDbLine
 10
-365.0000000000146
 20
-532.2126489291091
 30
0.0
 11
149.1999999999862
 21
-189.4135242772954
 31
0.0
  0
LINE
  5
248A
330
295D
100
AcDbEntity
  8
0
 62
     0
100
AcDbLine
 10
149.1999999999898
 20
-186.4135577418764
 30
0.0
 11
181.3183179039224
 21
-165.0014004825298
 31
0.0
  0
LINE
  5
248B
330
295D
100
AcDbEntity
  8
0
 62
     0
100
AcDbLine
 10
-365.0000000000146
 20
-529.2126823936942
 30
0.0
 11
149.1999999999898
 21
-186.4135577418764
 31
0.0
  0
LINE
  5
248C
330
295D
100
AcDbEntity
  8
0
 62
     0
100
AcDbLine
 10
149.1999999999898
 20
-183.4135912064612
 30
0.0
 11
176.8183566100412
 21
-165.0014004825261
 31
0.0
  0
LINE
  5
248D
330
295D
100
AcDbEntity
  8
0
 62
     0
100
AcDbLine
 10
-365.0000000000109
 20
-526.2127158582768
 30
0.0
 11
149.1999999999898
 21
-183.4135912064612
 31
0.0
  0
LINE
  5
248E
330
295D
100
AcDbEntity
  8
0
 62
     0
100
AcDbLine
 10
149.1999999999934
 20
-180.4136246710441
 30
0.0
 11
172.3183953161533
 21
-165.001400482528
 31
0.0
  0
LINE
  5
248F
330
295D
100
AcDbEntity
  8
0
 62
     0
100
AcDbLine
 10
-365.0000000000109
 20
-523.2127493228599
 30
0.0
 11
149.1999999999934
 21
-180.4136246710441
 31
0.0
  0
LINE
  5
2490
330
295D
100
AcDbEntity
  8
0
 62
     0
100
AcDbLine
 10
149.1999999999862
 20
-177.4136581356306
 30
0.0
 11
167.8184340222651
 21
-165.0014004825298
 31
0.0
  0
LINE
  5
2491
330
295D
100
AcDbEntity
  8
0
 62
     0
100
AcDbLine
 10
-365.0000000000146
 20
-520.2127827874464
 30
0.0
 11
149.1999999999862
 21
-177.4136581356306
 31
0.0
  0
LINE
  5
2492
330
295D
100
AcDbEntity
  8
0
 62
     0
100
AcDbLine
 10
149.1999999999898
 20
-174.4136916002135
 30
0.0
 11
163.3184727283806
 21
-165.0014004825298
 31
0.0
  0
LINE
  5
2493
330
295D
100
AcDbEntity
  8
0
 62
     0
100
AcDbLine
 10
-365.0000000000146
 20
-517.2128162520308
 30
0.0
 11
149.1999999999898
 21
-174.4136916002135
 31
0.0
  0
LINE
  5
2494
330
295D
100
AcDbEntity
  8
0
 62
     0
100
AcDbLine
 10
149.1999999999934
 20
-171.4137250647945
 30
0.0
 11
158.8185114344996
 21
-165.001400482528
 31
0.0
  0
LINE
  5
2495
330
295D
100
AcDbEntity
  8
0
 62
     0
100
AcDbLine
 10
-365.0000000000109
 20
-514.2128497166122
 30
0.0
 11
149.1999999999934
 21
-171.4137250647945
 31
0.0
  0
LINE
  5
2496
330
295D
100
AcDbEntity
  8
0
 62
     0
100
AcDbLine
 10
149.1999999999934
 20
-168.4137585293811
 30
0.0
 11
154.3185501406115
 21
-165.0014004825314
 31
0.0
  0
LINE
  5
2497
330
295D
100
AcDbEntity
  8
0
 62
     0
100
AcDbLine
 10
-365.0000000000109
 20
-511.2128831811968
 30
0.0
 11
149.1999999999934
 21
-168.4137585293811
 31
0.0
  0
LINE
  5
2498
330
295D
100
AcDbEntity
  8
0
 62
     0
100
AcDbLine
 10
149.1999999999898
 20
-165.4137919939639
 30
0.0
 11
149.8185888467233
 21
-165.0014004825298
 31
0.0
  0
LINE
  5
2499
330
295D
100
AcDbEntity
  8
0
 62
     0
100
AcDbLine
 10
-365.0000000000146
 20
-508.2129166457816
 30
0.0
 11
149.1999999999898
 21
-165.4137919939639
 31
0.0
  0
LINE
  5
249A
330
295D
100
AcDbEntity
  8
0
 62
     0
100
AcDbLine
 10
-365.0000000000109
 20
-505.2129501103645
 30
0.0
 11
145.3186280668123
 21
-165.0014001398831
 31
0.0
  0
LINE
  5
249B
330
295D
100
AcDbEntity
  8
0
 62
     0
100
AcDbLine
 10
-365.0000000000109
 20
-502.2129835749455
 30
0.0
 11
140.8186667834525
 21
-165.0014001328654
 31
0.0
  0
LINE
  5
249C
330
295D
100
AcDbEntity
  8
0
 62
     0
100
AcDbLine
 10
-365.0000000000146
 20
-499.213017039532
 30
0.0
 11
136.3187055000926
 21
-165.001400125846
 31
0.0
  0
LINE
  5
249D
330
295D
100
AcDbEntity
  8
0
 62
     0
100
AcDbLine
 10
-365.0000000000146
 20
-496.2130505041168
 30
0.0
 11
131.8187442167364
 21
-165.0014001188283
 31
0.0
  0
LINE
  5
249E
330
295D
100
AcDbEntity
  8
0
 62
     0
100
AcDbLine
 10
-365.0000000000109
 20
-493.2130839686997
 30
0.0
 11
127.3187829333801
 21
-165.0014001118088
 31
0.0
  0
LINE
  5
249F
330
295D
100
AcDbEntity
  8
0
 62
     0
100
AcDbLine
 10
-365.0000000000146
 20
-490.2131174332826
 30
0.0
 11
122.8188216500202
 21
-165.0014001047893
 31
0.0
  0
LINE
  5
24A0
330
295D
100
AcDbEntity
  8
0
 62
     0
100
AcDbLine
 10
-365.0000000000146
 20
-487.2131508978655
 30
0.0
 11
118.318860366664
 21
-165.001400097768
 31
0.0
  0
LINE
  5
24A1
330
295D
100
AcDbEntity
  8
0
 62
     0
100
AcDbLine
 10
-365.0000000000109
 20
-484.21318436245
 30
0.0
 11
113.8188990833041
 21
-165.001400090754
 31
0.0
  0
LINE
  5
24A2
330
295D
100
AcDbEntity
  8
0
 62
     0
100
AcDbLine
 10
-365.0000000000146
 20
-481.2132178270367
 30
0.0
 11
109.3189377999479
 21
-165.0014000837345
 31
0.0
  0
LINE
  5
24A3
330
295D
100
AcDbEntity
  8
0
 62
     0
100
AcDbLine
 10
-365.0000000000146
 20
-478.2132512916176
 30
0.0
 11
104.818976516588
 21
-165.001400076715
 31
0.0
  0
LINE
  5
24A4
330
295D
100
AcDbEntity
  8
0
 62
     0
100
AcDbLine
 10
-365.0000000000146
 20
-475.2132847562021
 30
0.0
 11
100.3190152332354
 21
-165.0014000696956
 31
0.0
  0
LINE
  5
24A5
330
295D
100
AcDbEntity
  8
0
 62
     0
100
AcDbLine
 10
-365.0000000000109
 20
-472.2133182207849
 30
0.0
 11
95.81905394987913
 21
-165.0014000626779
 31
0.0
  0
LINE
  5
24A6
330
295D
100
AcDbEntity
  8
0
 62
     0
100
AcDbLine
 10
-365.0000000000146
 20
-469.21335168537
 30
0.0
 11
91.31909266651929
 21
-165.0014000556584
 31
0.0
  0
LINE
  5
24A7
330
295D
100
AcDbEntity
  8
0
 62
     0
100
AcDbLine
 10
-365.0000000000146
 20
-466.2133851499548
 30
0.0
 11
86.81913138315938
 21
-165.0014000486426
 31
0.0
  0
LINE
  5
24A8
330
295D
100
AcDbEntity
  8
0
 62
     0
100
AcDbLine
 10
-365.0000000000109
 20
-463.2134186145356
 30
0.0
 11
82.31917009980318
 21
-165.0014000416213
 31
0.0
  0
LINE
  5
24A9
330
295D
100
AcDbEntity
  8
0
 62
     0
100
AcDbLine
 10
-365.0000000000109
 20
-460.2134520791221
 30
0.0
 11
77.8192088164469
 21
-165.0014000346036
 31
0.0
  0
LINE
  5
24AA
330
295D
100
AcDbEntity
  8
0
 62
     0
100
AcDbLine
 10
-365.0000000000146
 20
-457.2134855437034
 30
0.0
 11
73.31924753309067
 21
-165.0014000275805
 31
0.0
  0
LINE
  5
24AB
330
295D
100
AcDbEntity
  8
0
 62
     0
100
AcDbLine
 10
-365.0000000000146
 20
-454.2135190082897
 30
0.0
 11
68.81928624973079
 21
-165.0014000205665
 31
0.0
  0
LINE
  5
24AC
330
295D
100
AcDbEntity
  8
0
 62
     0
100
AcDbLine
 10
-365.0000000000109
 20
-451.2135524728728
 30
0.0
 11
64.31932496637819
 21
-165.0014000135452
 31
0.0
  0
LINE
  5
24AD
330
295D
100
AcDbEntity
  8
0
 62
     0
100
AcDbLine
 10
-365.0000000000146
 20
-448.2135859374554
 30
0.0
 11
59.81936368301467
 21
-165.0014000065257
 31
0.0
  0
LINE
  5
24AE
330
295D
100
AcDbEntity
  8
0
 62
     0
100
AcDbLine
 10
-365.0000000000146
 20
-445.2136194020404
 30
0.0
 11
55.31940239965842
 21
-165.0013999995099
 31
0.0
  0
LINE
  5
24AF
330
295D
100
AcDbEntity
  8
0
 62
     0
100
AcDbLine
 10
-365.0000000000146
 20
-442.2136528666251
 30
0.0
 11
50.81944111630217
 21
-165.0013999924921
 31
0.0
  0
LINE
  5
24B0
330
295D
100
AcDbEntity
  8
0
 62
     0
100
AcDbLine
 10
-365.0000000000146
 20
-439.2136863312079
 30
0.0
 11
46.31947983294593
 21
-165.0013999854691
 31
0.0
  0
LINE
  5
24B1
330
295D
100
AcDbEntity
  8
0
 62
     0
100
AcDbLine
 10
-365.0000000000109
 20
-436.2137197957888
 30
0.0
 11
41.81951854958604
 21
-165.0013999784532
 31
0.0
  0
LINE
  5
24B2
330
295D
100
AcDbEntity
  8
0
 62
     0
100
AcDbLine
 10
-365.0000000000146
 20
-433.2137532603756
 30
0.0
 11
37.31955726622983
 21
-165.0013999714338
 31
0.0
  0
LINE
  5
24B3
330
295D
100
AcDbEntity
  8
0
 62
     0
100
AcDbLine
 10
-365.0000000000146
 20
-430.2137867249602
 30
0.0
 11
32.81959598286994
 21
-165.0013999644161
 31
0.0
  0
LINE
  5
24B4
330
295D
100
AcDbEntity
  8
0
 62
     0
100
AcDbLine
 10
-365.0000000000146
 20
-427.2138201895431
 30
0.0
 11
28.3196346995137
 21
-165.0013999573984
 31
0.0
  0
LINE
  5
24B5
330
295D
100
AcDbEntity
  8
0
 62
     0
100
AcDbLine
 10
-365.0000000000109
 20
-424.213853654126
 30
0.0
 11
23.81967341615746
 21
-165.0013999503771
 31
0.0
  0
LINE
  5
24B6
330
295D
100
AcDbEntity
  8
0
 62
     0
100
AcDbLine
 10
-365.0000000000146
 20
-421.2138871187123
 30
0.0
 11
19.31971213280484
 21
-165.0013999433577
 31
0.0
  0
LINE
  5
24B7
330
295D
100
AcDbEntity
  8
0
 62
     0
100
AcDbLine
 10
-365.0000000000146
 20
-418.2139205832951
 30
0.0
 11
14.81975084944133
 21
-165.0013999363436
 31
0.0
  0
LINE
  5
24B8
330
295D
100
AcDbEntity
  8
0
 62
     0
100
AcDbLine
 10
-365.0000000000109
 20
-415.2139540478783
 30
0.0
 11
10.31978956608509
 21
-165.0013999293223
 31
0.0
  0
LINE
  5
24B9
330
295D
100
AcDbEntity
  8
0
 62
     0
100
AcDbLine
 10
-365.0000000000109
 20
-412.2139875124609
 30
0.0
 11
5.819828282728846
 21
-165.0013999223029
 31
0.0
  0
LINE
  5
24BA
330
295D
100
AcDbEntity
  8
0
 62
     0
100
AcDbLine
 10
-365.0000000000109
 20
-409.2140209770438
 30
0.0
 11
1.319866999368968
 21
-165.0013999152852
 31
0.0
  0
LINE
  5
24BB
330
295D
100
AcDbEntity
  8
0
 62
     0
100
AcDbLine
 10
-365.0000000000146
 20
-406.2140544416287
 30
0.0
 11
-3.180094283987271
 21
-165.0013999082657
 31
0.0
  0
LINE
  5
24BC
330
295D
100
AcDbEntity
  8
0
 62
     0
100
AcDbLine
 10
-365.0000000000109
 20
-403.2140879062135
 30
0.0
 11
-7.680055567343513
 21
-165.0013999012462
 31
0.0
  0
LINE
  5
24BD
330
295D
100
AcDbEntity
  8
0
 62
     0
100
AcDbLine
 10
-365.0000000000109
 20
-400.214121370798
 30
0.0
 11
-12.18001685070339
 21
-165.0013998942286
 31
0.0
  0
LINE
  5
24BE
330
295D
100
AcDbEntity
  8
0
 62
     0
100
AcDbLine
 10
-365.0000000000146
 20
-397.2141548353794
 30
0.0
 11
-16.67997813405964
 21
-165.0013998872091
 31
0.0
  0
LINE
  5
24BF
330
295D
100
AcDbEntity
  8
0
 62
     0
100
AcDbLine
 10
-365.0000000000146
 20
-394.2141882999658
 30
0.0
 11
-21.17993941741952
 21
-165.0013998801914
 31
0.0
  0
LINE
  5
24C0
330
295D
100
AcDbEntity
  8
0
 62
     0
100
AcDbLine
 10
-365.0000000000109
 20
-391.2142217645487
 30
0.0
 11
-25.67990070077212
 21
-165.0013998731719
 31
0.0
  0
LINE
  5
24C1
330
295D
100
AcDbEntity
  8
0
 62
     0
100
AcDbLine
 10
-365.0000000000146
 20
-388.2142552291335
 30
0.0
 11
-30.17986198413201
 21
-165.0013998661543
 31
0.0
  0
LINE
  5
24C2
330
295D
100
AcDbEntity
  8
0
 62
     0
100
AcDbLine
 10
-365.0000000000146
 20
-385.2142886937163
 30
0.0
 11
-34.67982326748825
 21
-165.001399859133
 31
0.0
  0
LINE
  5
24C3
330
295D
100
AcDbEntity
  8
0
 62
     0
100
AcDbLine
 10
-365.0000000000109
 20
-382.2143221582992
 30
0.0
 11
-39.17978455084814
 21
-165.0013998521171
 31
0.0
  0
LINE
  5
24C4
330
295D
100
AcDbEntity
  8
0
 62
     0
100
AcDbLine
 10
-365.0000000000109
 20
-379.2143556228857
 30
0.0
 11
-43.6797458342007
 21
-165.0013998450995
 31
0.0
  0
LINE
  5
24C5
330
295D
100
AcDbEntity
  8
0
 62
     0
100
AcDbLine
 10
-365.0000000000146
 20
-376.2143890874668
 30
0.0
 11
-48.17970711756425
 21
-165.00139983808
 31
0.0
  0
LINE
  5
24C6
330
295D
100
AcDbEntity
  8
0
 62
     0
100
AcDbLine
 10
-365.0000000000146
 20
-373.2144225520515
 30
0.0
 11
-52.67966840091685
 21
-165.0013998310587
 31
0.0
  0
LINE
  5
24C7
330
295D
100
AcDbEntity
  8
0
 62
     0
100
AcDbLine
 10
-365.0000000000109
 20
-370.2144560166344
 30
0.0
 11
-57.17962968427674
 21
-165.0013998240392
 31
0.0
  0
LINE
  5
24C8
330
295D
100
AcDbEntity
  8
0
 62
     0
100
AcDbLine
 10
-365.0000000000146
 20
-367.2144894812191
 30
0.0
 11
-61.67959096763297
 21
-165.0013998170216
 31
0.0
  0
LINE
  5
24C9
330
295D
100
AcDbEntity
  8
0
 62
     0
100
AcDbLine
 10
-365.0000000000146
 20
-364.2145229458038
 30
0.0
 11
-66.17955225099286
 21
-165.0013998100057
 31
0.0
  0
LINE
  5
24CA
330
295D
100
AcDbEntity
  8
0
 62
     0
100
AcDbLine
 10
-365.0000000000109
 20
-361.2145564103848
 30
0.0
 11
-70.6795135343491
 21
-165.0013998029844
 31
0.0
  0
LINE
  5
24CB
330
295D
100
AcDbEntity
  8
0
 62
     0
100
AcDbLine
 10
-365.0000000000109
 20
-358.2145898749695
 30
0.0
 11
-75.17947481770534
 21
-165.0013997959668
 31
0.0
  0
LINE
  5
24CC
330
295D
100
AcDbEntity
  8
0
 62
     0
100
AcDbLine
 10
-365.0000000000146
 20
-355.2146233395542
 30
0.0
 11
-79.67943610106522
 21
-165.0013997889473
 31
0.0
  0
LINE
  5
24CD
330
295D
100
AcDbEntity
  8
0
 62
     0
100
AcDbLine
 10
-365.0000000000146
 20
-352.2146568041389
 30
0.0
 11
-84.17939738442145
 21
-165.0013997819296
 31
0.0
  0
LINE
  5
24CE
330
295D
100
AcDbEntity
  8
0
 62
     0
100
AcDbLine
 10
-365.0000000000109
 20
-349.2146902687218
 30
0.0
 11
-88.67935866777406
 21
-165.0013997749101
 31
0.0
  0
LINE
  5
24CF
330
295D
100
AcDbEntity
  8
0
 62
     0
100
AcDbLine
 10
-365.0000000000146
 20
-346.2147237333048
 30
0.0
 11
-93.17931995114122
 21
-165.0013997678925
 31
0.0
  0
LINE
  5
24D0
330
295D
100
AcDbEntity
  8
0
 62
     0
100
AcDbLine
 10
-365.0000000000146
 20
-343.2147571978894
 30
0.0
 11
-97.67928123449379
 21
-165.001399760873
 31
0.0
  0
LINE
  5
24D1
330
295D
100
AcDbEntity
  8
0
 62
     0
100
AcDbLine
 10
-365.0000000000109
 20
-340.2147906624723
 30
0.0
 11
-102.17924251785
 21
-165.0013997538534
 31
0.0
  0
LINE
  5
24D2
330
295D
100
AcDbEntity
  8
0
 62
     0
100
AcDbLine
 10
-365.0000000000146
 20
-337.214824127057
 30
0.0
 11
-106.6792038012098
 21
-165.0013997468359
 31
0.0
  0
LINE
  5
24D3
330
295D
100
AcDbEntity
  8
0
 62
     0
100
AcDbLine
 10
-365.0000000000146
 20
-334.2148575916417
 30
0.0
 11
-111.1791650845662
 21
-165.0013997398164
 31
0.0
  0
LINE
  5
24D4
330
295D
100
AcDbEntity
  8
0
 62
     0
100
AcDbLine
 10
-365.0000000000146
 20
-331.2148910562228
 30
0.0
 11
-115.6791263679224
 21
-165.0013997327951
 31
0.0
  0
LINE
  5
24D5
330
295D
100
AcDbEntity
  8
0
 62
     0
100
AcDbLine
 10
-365.0000000000109
 20
-328.2149245208075
 30
0.0
 11
-120.1790876512823
 21
-165.0013997257811
 31
0.0
  0
LINE
  5
24D6
330
295D
100
AcDbEntity
  8
0
 62
     0
100
AcDbLine
 10
-365.0000000000146
 20
-325.214957985394
 30
0.0
 11
-124.6790489346385
 21
-165.0013997187616
 31
0.0
  0
LINE
  5
24D7
330
295D
100
AcDbEntity
  8
0
 62
     0
100
AcDbLine
 10
-365.0000000000109
 20
-322.214991449975
 30
0.0
 11
-129.1790102179948
 21
-165.0013997117403
 31
0.0
  0
LINE
  5
24D8
330
295D
100
AcDbEntity
  8
0
 62
     0
100
AcDbLine
 10
-365.0000000000146
 20
-319.2150249145598
 30
0.0
 11
-133.678971501351
 21
-165.0013997047226
 31
0.0
  0
LINE
  5
24D9
330
295D
100
AcDbEntity
  8
0
 62
     0
100
AcDbLine
 10
-365.0000000000109
 20
-316.2150583791426
 30
0.0
 11
-138.1789327847109
 21
-165.0013996977049
 31
0.0
  0
LINE
  5
24DA
330
295D
100
AcDbEntity
  8
0
 62
     0
100
AcDbLine
 10
-365.0000000000146
 20
-313.2150918437292
 30
0.0
 11
-142.6788940680672
 21
-165.0013996906855
 31
0.0
  0
LINE
  5
24DB
330
295D
100
AcDbEntity
  8
0
 62
     0
100
AcDbLine
 10
-365.0000000000109
 20
-310.2151253083103
 30
0.0
 11
-147.1788553514234
 21
-165.0013996836678
 31
0.0
  0
LINE
  5
24DC
330
295D
100
AcDbEntity
  8
0
 62
     0
100
AcDbLine
 10
-365.0000000000109
 20
-307.2151587728931
 30
0.0
 11
-151.6788166347796
 21
-165.0013996766465
 31
0.0
  0
LINE
  5
24DD
330
295D
100
AcDbEntity
  8
0
 62
     0
100
AcDbLine
 10
-365.0000000000146
 20
-304.2151922374797
 30
0.0
 11
-156.1787779181395
 21
-165.0013996696289
 31
0.0
  0
LINE
  5
24DE
330
295D
100
AcDbEntity
  8
0
 62
     0
100
AcDbLine
 10
-365.0000000000109
 20
-301.2152257020625
 30
0.0
 11
-160.6787392014994
 21
-165.0013996626112
 31
0.0
  0
LINE
  5
24DF
330
295D
100
AcDbEntity
  8
0
 62
     0
100
AcDbLine
 10
-365.0000000000109
 20
-298.2152591666472
 30
0.0
 11
-165.1787004848556
 21
-165.0013996555935
 31
0.0
  0
LINE
  5
24E0
330
295D
100
AcDbEntity
  8
0
 62
     0
100
AcDbLine
 10
-365.0000000000146
 20
-295.2152926312282
 30
0.0
 11
-169.6786617682119
 21
-165.0013996485722
 31
0.0
  0
LINE
  5
24E1
330
295D
100
AcDbEntity
  8
0
 62
     0
100
AcDbLine
 10
-365.0000000000146
 20
-292.215326095813
 30
0.0
 11
-174.1786230515718
 21
-165.0013996415528
 31
0.0
  0
LINE
  5
24E2
330
295D
100
AcDbEntity
  8
0
 62
     0
100
AcDbLine
 10
-365.0000000000109
 20
-289.2153595603977
 30
0.0
 11
-178.6785843349244
 21
-165.0013996345351
 31
0.0
  0
LINE
  5
24E3
330
295D
100
AcDbEntity
  8
0
 62
     0
100
AcDbLine
 10
-365.0000000000146
 20
-286.2153930249805
 30
0.0
 11
-183.1785456182879
 21
-165.0013996275174
 31
0.0
  0
LINE
  5
24E4
330
295D
100
AcDbEntity
  8
0
 62
     0
100
AcDbLine
 10
-365.0000000000146
 20
-283.2154264895653
 30
0.0
 11
-187.6785069016405
 21
-165.0013996204961
 31
0.0
  0
LINE
  5
24E5
330
295D
100
AcDbEntity
  8
0
 62
     0
100
AcDbLine
 10
-365.0000000000109
 20
-280.2154599541463
 30
0.0
 11
-192.1784681850004
 21
-165.0013996134803
 31
0.0
  0
LINE
  5
24E6
330
295D
100
AcDbEntity
  8
0
 62
     0
100
AcDbLine
 10
-365.0000000000109
 20
-277.2154934187329
 30
0.0
 11
-196.6784294683566
 21
-165.0013996064608
 31
0.0
  0
LINE
  5
24E7
330
295D
100
AcDbEntity
  8
0
 62
     0
100
AcDbLine
 10
-365.0000000000146
 20
-274.2155268833176
 30
0.0
 11
-201.1783907517164
 21
-165.0013995994432
 31
0.0
  0
LINE
  5
24E8
330
295D
100
AcDbEntity
  8
0
 62
     0
100
AcDbLine
 10
-365.0000000000146
 20
-271.2155603479005
 30
0.0
 11
-205.6783520350728
 21
-165.0013995924219
 31
0.0
  0
LINE
  5
24E9
330
295D
100
AcDbEntity
  8
0
 62
     0
100
AcDbLine
 10
-365.0000000000109
 20
-268.2155938124834
 30
0.0
 11
-210.1783133184289
 21
-165.0013995854042
 31
0.0
  0
LINE
  5
24EA
330
295D
100
AcDbEntity
  8
0
 62
     0
100
AcDbLine
 10
-365.0000000000109
 20
-265.215627277068
 30
0.0
 11
-214.6782746017816
 21
-165.0013995783847
 31
0.0
  0
LINE
  5
24EB
330
295D
100
AcDbEntity
  8
0
 62
     0
100
AcDbLine
 10
-365.0000000000146
 20
-262.2156607416528
 30
0.0
 11
-219.1782358851451
 21
-165.0013995713671
 31
0.0
  0
LINE
  5
24EC
330
295D
100
AcDbEntity
  8
0
 62
     0
100
AcDbLine
 10
-365.0000000000146
 20
-259.2156942062374
 30
0.0
 11
-223.6781971685013
 21
-165.0013995643494
 31
0.0
  0
LINE
  5
24ED
330
295D
100
AcDbEntity
  8
0
 62
     0
100
AcDbLine
 10
-365.0000000000109
 20
-256.2157276708185
 30
0.0
 11
-228.178158451854
 21
-165.0013995573281
 31
0.0
  0
LINE
  5
24EE
330
295D
100
AcDbEntity
  8
0
 62
     0
100
AcDbLine
 10
-365.0000000000109
 20
-253.2157611354014
 30
0.0
 11
-232.6781197352175
 21
-165.0013995503084
 31
0.0
  0
LINE
  5
24EF
330
295D
100
AcDbEntity
  8
0
 62
     0
100
AcDbLine
 10
-365.0000000000146
 20
-250.2157945999861
 30
0.0
 11
-237.1780810185737
 21
-165.0013995432928
 31
0.0
  0
LINE
  5
24F0
330
295D
100
AcDbEntity
  8
0
 62
     0
100
AcDbLine
 10
-365.0000000000109
 20
-247.2158280645708
 30
0.0
 11
-241.67804230193
 21
-165.0013995362733
 31
0.0
  0
LINE
  5
24F1
330
295D
100
AcDbEntity
  8
0
 62
     0
100
AcDbLine
 10
-365.0000000000146
 20
-244.2158615291555
 30
0.0
 11
-246.1780035852898
 21
-165.0013995292538
 31
0.0
  0
LINE
  5
24F2
330
295D
100
AcDbEntity
  8
0
 62
     0
100
AcDbLine
 10
-365.0000000000146
 20
-241.2158949937366
 30
0.0
 11
-250.6779648686461
 21
-165.0013995222361
 31
0.0
  0
LINE
  5
24F3
330
295D
100
AcDbEntity
  8
0
 62
     0
100
AcDbLine
 10
-365.0000000000146
 20
-238.2159284583231
 30
0.0
 11
-255.1779261520023
 21
-165.0013995152167
 31
0.0
  0
LINE
  5
24F4
330
295D
100
AcDbEntity
  8
0
 62
     0
100
AcDbLine
 10
-365.0000000000146
 20
-235.215961922906
 30
0.0
 11
-259.6778874353622
 21
-165.001399508199
 31
0.0
  0
LINE
  5
24F5
330
295D
100
AcDbEntity
  8
0
 62
     0
100
AcDbLine
 10
-365.0000000000109
 20
-232.2159953874889
 30
0.0
 11
-264.1778487187185
 21
-165.0013995011777
 31
0.0
  0
LINE
  5
24F6
330
295D
100
AcDbEntity
  8
0
 62
     0
100
AcDbLine
 10
-365.0000000000146
 20
-229.2160288520736
 30
0.0
 11
-268.6778100020747
 21
-165.00139949416
 31
0.0
  0
LINE
  5
24F7
330
295D
100
AcDbEntity
  8
0
 62
     0
100
AcDbLine
 10
-365.0000000000109
 20
-226.2160623166565
 30
0.0
 11
-273.1777712854309
 21
-165.0013994871424
 31
0.0
  0
LINE
  5
24F8
330
295D
100
AcDbEntity
  8
0
 62
     0
100
AcDbLine
 10
-365.0000000000146
 20
-223.216095781243
 30
0.0
 11
-277.6777325687908
 21
-165.0013994801229
 31
0.0
  0
LINE
  5
24F9
330
295D
100
AcDbEntity
  8
0
 62
     0
100
AcDbLine
 10
-365.0000000000109
 20
-220.216129245824
 30
0.0
 11
-282.1776938521471
 21
-165.0013994731052
 31
0.0
  0
LINE
  5
24FA
330
295D
100
AcDbEntity
  8
0
 62
     0
100
AcDbLine
 10
-365.0000000000146
 20
-217.2161627104088
 30
0.0
 11
-286.6776551355033
 21
-165.0013994660858
 31
0.0
  0
LINE
  5
24FB
330
295D
100
AcDbEntity
  8
0
 62
     0
100
AcDbLine
 10
-365.0000000000109
 20
-214.2161961749916
 30
0.0
 11
-291.1776164188595
 21
-165.0013994590644
 31
0.0
  0
LINE
  5
24FC
330
295D
100
AcDbEntity
  8
0
 62
     0
100
AcDbLine
 10
-365.0000000000146
 20
-211.2162296395764
 30
0.0
 11
-295.6775777022194
 21
-165.0013994520486
 31
0.0
  0
LINE
  5
24FD
330
295D
100
AcDbEntity
  8
0
 62
     0
100
AcDbLine
 10
-365.0000000000109
 20
-208.2162631041609
 30
0.0
 11
-300.1775389855793
 21
-165.001399445031
 31
0.0
  0
LINE
  5
24FE
330
295D
100
AcDbEntity
  8
0
 62
     0
100
AcDbLine
 10
-365.0000000000146
 20
-205.2162965687439
 30
0.0
 11
-304.6775002689319
 21
-165.0013994380097
 31
0.0
  0
LINE
  5
24FF
330
295D
100
AcDbEntity
  8
0
 62
     0
100
AcDbLine
 10
-365.0000000000146
 20
-202.2163300333268
 30
0.0
 11
-309.1774615522917
 21
-165.0013994309901
 31
0.0
  0
LINE
  5
2500
330
295D
100
AcDbEntity
  8
0
 62
     0
100
AcDbLine
 10
-365.0000000000109
 20
-199.2163634979097
 30
0.0
 11
-313.6774228356517
 21
-165.0013994239743
 31
0.0
  0
LINE
  5
2501
330
295D
100
AcDbEntity
  8
0
 62
     0
100
AcDbLine
 10
-365.0000000000109
 20
-196.2163969624961
 30
0.0
 11
-318.1773841190043
 21
-165.0013994169549
 31
0.0
  0
LINE
  5
2502
330
295D
100
AcDbEntity
  8
0
 62
     0
100
AcDbLine
 10
-365.0000000000146
 20
-193.2164304270789
 30
0.0
 11
-322.6773454023677
 21
-165.0013994099354
 31
0.0
  0
LINE
  5
2503
330
295D
100
AcDbEntity
  8
0
 62
     0
100
AcDbLine
 10
-365.0000000000146
 20
-190.216463891662
 30
0.0
 11
-327.177306685724
 21
-165.0013994029177
 31
0.0
  0
LINE
  5
2504
330
295D
100
AcDbEntity
  8
0
 62
     0
100
AcDbLine
 10
-365.0000000000109
 20
-187.2164973562467
 30
0.0
 11
-331.6772679690767
 21
-165.0013993958982
 31
0.0
  0
LINE
  5
2505
330
295D
100
AcDbEntity
  8
0
 62
     0
100
AcDbLine
 10
-365.0000000000109
 20
-184.2165308208332
 30
0.0
 11
-336.1772292524329
 21
-165.0013993888788
 31
0.0
  0
LINE
  5
2506
330
295D
100
AcDbEntity
  8
0
 62
     0
100
AcDbLine
 10
-365.0000000000146
 20
-181.2165642854143
 30
0.0
 11
-340.6771905357964
 21
-165.0013993818629
 31
0.0
  0
LINE
  5
2507
330
295D
100
AcDbEntity
  8
0
 62
     0
100
AcDbLine
 10
-365.0000000000109
 20
-178.2165977499971
 30
0.0
 11
-345.1771518191525
 21
-165.0013993748416
 31
0.0
  0
LINE
  5
2508
330
295D
100
AcDbEntity
  8
0
 62
     0
100
AcDbLine
 10
-365.0000000000109
 20
-175.21663121458
 30
0.0
 11
-349.6771131025088
 21
-165.0013993678221
 31
0.0
  0
LINE
  5
2509
330
295D
100
AcDbEntity
  8
0
 62
     0
100
AcDbLine
 10
-365.0000000000146
 20
-172.2166646791647
 30
0.0
 11
-354.1770743858652
 21
-165.0013993608027
 31
0.0
  0
LINE
  5
250A
330
295D
100
AcDbEntity
  8
0
 62
     0
100
AcDbLine
 10
-365.0000000000146
 20
-169.2166981437494
 30
0.0
 11
-358.677035669225
 21
-165.0013993537868
 31
0.0
  0
LINE
  5
250B
330
295D
100
AcDbEntity
  8
0
 62
     0
100
AcDbLine
 10
-365.0000000000109
 20
-166.2167316083323
 30
0.0
 11
-363.1769969525776
 21
-165.0013993467655
 31
0.0
  0
ENDBLK
  5
250C
330
295D
100
AcDbEntity
  8
0
100
AcDbBlockEnd
  0
BLOCK
  5
2960
330
295F
100
AcDbEntity
  8
0
100
AcDbBlockBegin
  2
*X71
 70
     1
 10
0.0
 20
0.0
 30
0.0
  3
*X71
  1

  0
LINE
  5
250F
330
295F
100
AcDbEntity
  8
0
 62
     0
100
AcDbLine
 10
-365.0000000000073
 20
-780.0378010713782
 30
0.0
 11
-360.5545902556114
 21
-783.001400000001
 31
0.0
  0
LINE
  5
2510
330
295F
100
AcDbEntity
  8
0
 62
     0
100
AcDbLine
 10
-365.0000000000073
 20
-777.0378345359639
 30
0.0
 11
-356.0546289617268
 21
-783.0014000000029
 31
0.0
  0
LINE
  5
2511
330
295F
100
AcDbEntity
  8
0
 62
     0
100
AcDbLine
 10
-365.0000000000073
 20
-774.0378680005468
 30
0.0
 11
-351.5546676678424
 21
-783.0014000000001
 31
0.0
  0
LINE
  5
2512
330
295F
100
AcDbEntity
  8
0
 62
     0
100
AcDbLine
 10
-365.0000000000054
 20
-771.0379014651315
 30
0.0
 11
-347.0547063739522
 21
-783.0014000000034
 31
0.0
  0
LINE
  5
2513
330
295F
100
AcDbEntity
  8
0
 62
     0
100
AcDbLine
 10
-365.0000000000091
 20
-768.0379349297136
 30
0.0
 11
-342.5547450800696
 21
-783.0014000000017
 31
0.0
  0
LINE
  5
2514
330
295F
100
AcDbEntity
  8
0
 62
     0
100
AcDbLine
 10
-365.0000000000054
 20
-765.0379683942999
 30
0.0
 11
-338.0547837861832
 21
-783.0014000000029
 31
0.0
  0
LINE
  5
2515
330
295F
100
AcDbEntity
  8
0
 62
     0
100
AcDbLine
 10
-365.0000000000091
 20
-762.0380018588821
 30
0.0
 11
-333.5548224922968
 21
-783.0014000000029
 31
0.0
  0
LINE
  5
2516
330
295F
100
AcDbEntity
  8
0
 62
     0
100
AcDbLine
 10
-365.0000000000073
 20
-759.0380353234669
 30
0.0
 11
-329.0548611984104
 21
-783.0014000000044
 31
0.0
  0
LINE
  5
2517
330
295F
100
AcDbEntity
  8
0
 62
     0
100
AcDbLine
 10
-365.0000000000091
 20
-756.0380687880495
 30
0.0
 11
-324.5548999045277
 21
-783.0014000000017
 31
0.0
  0
LINE
  5
2518
330
295F
100
AcDbEntity
  8
0
 62
     0
100
AcDbLine
 10
-365.0000000000073
 20
-753.0381022526344
 30
0.0
 11
-320.0549386106413
 21
-783.0014000000034
 31
0.0
  0
LINE
  5
2519
330
295F
100
AcDbEntity
  8
0
 62
     0
100
AcDbLine
 10
-365.0000000000073
 20
-750.0381357172173
 30
0.0
 11
-315.554977316753
 21
-783.0014000000029
 31
0.0
  0
LINE
  5
251A
330
295F
100
AcDbEntity
  8
0
 62
     0
100
AcDbLine
 10
-365.0000000000073
 20
-747.0381691818028
 30
0.0
 11
-311.0550160228722
 21
-783.0014000000029
 31
0.0
  0
LINE
  5
251B
330
295F
100
AcDbEntity
  8
0
 62
     0
100
AcDbLine
 10
-365.0000000000073
 20
-744.0382026463858
 30
0.0
 11
-306.555054728984
 21
-783.0014000000017
 31
0.0
  0
LINE
  5
251C
330
295F
100
AcDbEntity
  8
0
 62
     0
100
AcDbLine
 10
-365.0000000000091
 20
-741.0382361109697
 30
0.0
 11
-302.0550934351013
 21
-783.0014000000017
 31
0.0
  0
LINE
  5
251D
330
295F
100
AcDbEntity
  8
0
 62
     0
100
AcDbLine
 10
-365.0000000000073
 20
-738.0382695755534
 30
0.0
 11
-297.5551321412112
 21
-783.0014000000034
 31
0.0
  0
LINE
  5
251E
330
295F
100
AcDbEntity
  8
0
 62
     0
100
AcDbLine
 10
-365.0000000000073
 20
-735.0383030401352
 30
0.0
 11
-293.0551708473286
 21
-783.001400000001
 31
0.0
  0
LINE
  5
251F
330
295F
100
AcDbEntity
  8
0
 62
     0
100
AcDbLine
 10
-365.0000000000091
 20
-732.0383365047206
 30
0.0
 11
-288.5552095534422
 21
-783.0014000000029
 31
0.0
  0
LINE
  5
2520
330
295F
100
AcDbEntity
  8
0
 62
     0
100
AcDbLine
 10
-365.0000000000073
 20
-729.0383699693036
 30
0.0
 11
-284.0552482595576
 21
-783.0014000000001
 31
0.0
  0
LINE
  5
2521
330
295F
100
AcDbEntity
  8
0
 62
     0
100
AcDbLine
 10
-365.0000000000073
 20
-726.0384034338884
 30
0.0
 11
-279.5552869656694
 21
-783.0014000000034
 31
0.0
  0
LINE
  5
2522
330
295F
100
AcDbEntity
  8
0
 62
     0
100
AcDbLine
 10
-365.0000000000073
 20
-723.0384368984713
 30
0.0
 11
-275.0553256717867
 21
-783.0014000000017
 31
0.0
  0
LINE
  5
2523
330
295F
100
AcDbEntity
  8
0
 62
     0
100
AcDbLine
 10
-365.0000000000073
 20
-720.0384703630561
 30
0.0
 11
-270.5553643779003
 21
-783.0014000000029
 31
0.0
  0
LINE
  5
2524
330
295F
100
AcDbEntity
  8
0
 62
     0
100
AcDbLine
 10
-365.0000000000073
 20
-717.03850382764
 30
0.0
 11
-266.055403084014
 21
-783.0014000000029
 31
0.0
  0
LINE
  5
2525
330
295F
100
AcDbEntity
  8
0
 62
     0
100
AcDbLine
 10
-365.0000000000073
 20
-714.0385372922236
 30
0.0
 11
-261.5554417901257
 21
-783.0014000000044
 31
0.0
  0
LINE
  5
2526
330
295F
100
AcDbEntity
  8
0
 62
     0
100
AcDbLine
 10
-365.0000000000073
 20
-711.0385707568075
 30
0.0
 11
-257.0554804962449
 21
-783.0014000000017
 31
0.0
  0
LINE
  5
2527
330
295F
100
AcDbEntity
  8
0
 62
     0
100
AcDbLine
 10
-365.0000000000073
 20
-708.0386042213913
 30
0.0
 11
-252.5555192023567
 21
-783.0014000000034
 31
0.0
  0
LINE
  5
2528
330
295F
100
AcDbEntity
  8
0
 62
     0
100
AcDbLine
 10
-365.0000000000073
 20
-705.0386376859752
 30
0.0
 11
-248.0555579084721
 21
-783.0014000000029
 31
0.0
  0
LINE
  5
2529
330
295F
100
AcDbEntity
  8
0
 62
     0
100
AcDbLine
 10
-365.0000000000073
 20
-702.0386711505588
 30
0.0
 11
-243.5555966145876
 21
-783.0014000000029
 31
0.0
  0
LINE
  5
252A
330
295F
100
AcDbEntity
  8
0
 62
     0
100
AcDbLine
 10
-365.0000000000054
 20
-699.0387046151436
 30
0.0
 11
-239.0556353207012
 21
-783.0014000000017
 31
0.0
  0
LINE
  5
252B
330
295F
100
AcDbEntity
  8
0
 62
     0
100
AcDbLine
 10
-365.0000000000073
 20
-696.0387380797254
 30
0.0
 11
-234.5556740268185
 21
-783.0014000000001
 31
0.0
  0
LINE
  5
252C
330
295F
100
AcDbEntity
  8
0
 62
     0
100
AcDbLine
 10
-365.0000000000073
 20
-693.0387715443103
 30
0.0
 11
-230.0557127329284
 21
-783.0014000000034
 31
0.0
  0
LINE
  5
252D
330
295F
100
AcDbEntity
  8
0
 62
     0
100
AcDbLine
 10
-365.0000000000073
 20
-690.0388050088929
 30
0.0
 11
-225.5557514390457
 21
-783.001400000001
 31
0.0
  0
LINE
  5
252E
330
295F
100
AcDbEntity
  8
0
 62
     0
100
AcDbLine
 10
-365.0000000000073
 20
-687.0388384734779
 30
0.0
 11
-221.0557901451593
 21
-783.0014000000029
 31
0.0
  0
LINE
  5
252F
330
295F
100
AcDbEntity
  8
0
 62
     0
100
AcDbLine
 10
-365.0000000000073
 20
-684.0388719380615
 30
0.0
 11
-216.5558288512766
 21
-783.0014000000001
 31
0.0
  0
LINE
  5
2530
330
295F
100
AcDbEntity
  8
0
 62
     0
100
AcDbLine
 10
-365.0000000000091
 20
-681.0389054026455
 30
0.0
 11
-212.0558675573866
 21
-783.0014000000034
 31
0.0
  0
LINE
  5
2531
330
295F
100
AcDbEntity
  8
0
 62
     0
100
AcDbLine
 10
-365.0000000000054
 20
-678.0389388672293
 30
0.0
 11
-207.555906263502
 21
-783.0014000000017
 31
0.0
  0
LINE
  5
2532
330
295F
100
AcDbEntity
  8
0
 62
     0
100
AcDbLine
 10
-365.0000000000091
 20
-675.0389723318129
 30
0.0
 11
-203.0559449696176
 21
-783.0014000000029
 31
0.0
  0
LINE
  5
2533
330
295F
100
AcDbEntity
  8
0
 62
     0
100
AcDbLine
 10
-365.0000000000073
 20
-672.039005796396
 30
0.0
 11
-198.5559836757293
 21
-783.0014000000029
 31
0.0
  0
LINE
  5
2534
330
295F
100
AcDbEntity
  8
0
 62
     0
100
AcDbLine
 10
-365.0000000000091
 20
-669.0390392609815
 30
0.0
 11
-194.0560223818484
 21
-783.0014000000017
 31
0.0
  0
LINE
  5
2535
330
295F
100
AcDbEntity
  8
0
 62
     0
100
AcDbLine
 10
-365.0000000000073
 20
-666.0390727255645
 30
0.0
 11
-189.5560610879601
 21
-783.0014000000017
 31
0.0
  0
LINE
  5
2536
330
295F
100
AcDbEntity
  8
0
 62
     0
100
AcDbLine
 10
-365.0000000000054
 20
-663.0391061901491
 30
0.0
 11
-185.0560997940774
 21
-783.0014000000017
 31
0.0
  0
LINE
  5
2537
330
295F
100
AcDbEntity
  8
0
 62
     0
100
AcDbLine
 10
-365.0000000000073
 20
-660.039139654732
 30
0.0
 11
-180.5561385001892
 21
-783.0014000000029
 31
0.0
  0
LINE
  5
2538
330
295F
100
AcDbEntity
  8
0
 62
     0
100
AcDbLine
 10
-365.0000000000054
 20
-657.0391731193149
 30
0.0
 11
-176.0561772063047
 21
-783.001400000001
 31
0.0
  0
LINE
  5
2539
330
295F
100
AcDbEntity
  8
0
 62
     0
100
AcDbLine
 10
-365.0000000000091
 20
-654.0392065838988
 30
0.0
 11
-171.5562159124183
 21
-783.0014000000029
 31
0.0
  0
LINE
  5
253A
330
295F
100
AcDbEntity
  8
0
 62
     0
100
AcDbLine
 10
-365.0000000000054
 20
-651.0392400484834
 30
0.0
 11
-167.0562546185356
 21
-783.0014000000001
 31
0.0
  0
LINE
  5
253B
330
295F
100
AcDbEntity
  8
0
 62
     0
100
AcDbLine
 10
-365.0000000000073
 20
-648.0392735130672
 30
0.0
 11
-162.5562933246456
 21
-783.0014000000034
 31
0.0
  0
LINE
  5
253C
330
295F
100
AcDbEntity
  8
0
 62
     0
100
AcDbLine
 10
-365.0000000000073
 20
-645.0393069776501
 30
0.0
 11
-158.0563320307628
 21
-783.001400000001
 31
0.0
  0
LINE
  5
253D
330
295F
100
AcDbEntity
  8
0
 62
     0
100
AcDbLine
 10
-365.0000000000073
 20
-642.0393404422344
 30
0.0
 11
-153.5563707368746
 21
-783.0014000000029
 31
0.0
  0
LINE
  5
253E
330
295F
100
AcDbEntity
  8
0
 62
     0
100
AcDbLine
 10
-365.0000000000073
 20
-639.0393739068176
 30
0.0
 11
-149.0564094429901
 21
-783.0014000000029
 31
0.0
  0
LINE
  5
253F
330
295F
100
AcDbEntity
  8
0
 62
     0
100
AcDbLine
 10
-365.0000000000073
 20
-636.0394073714033
 30
0.0
 11
-144.5564481491037
 21
-783.0014000000034
 31
0.0
  0
LINE
  5
2540
330
295F
100
AcDbEntity
  8
0
 62
     0
100
AcDbLine
 10
-365.0000000000073
 20
-633.039440835986
 30
0.0
 11
-140.056486855221
 21
-783.0014000000017
 31
0.0
  0
LINE
  5
2541
330
295F
100
AcDbEntity
  8
0
 62
     0
100
AcDbLine
 10
-365.0000000000073
 20
-630.0394743005709
 30
0.0
 11
-135.5565255613328
 21
-783.0014000000029
 31
0.0
  0
LINE
  5
2542
330
295F
100
AcDbEntity
  8
0
 62
     0
100
AcDbLine
 10
-365.0000000000073
 20
-627.0395077651528
 30
0.0
 11
-131.0565642674464
 21
-783.0014000000029
 31
0.0
  0
LINE
  5
2543
330
295F
100
AcDbEntity
  8
0
 62
     0
100
AcDbLine
 10
-365.0000000000073
 20
-624.0395412297385
 30
0.0
 11
-126.5566029735637
 21
-783.0014000000017
 31
0.0
  0
LINE
  5
2544
330
295F
100
AcDbEntity
  8
0
 62
     0
100
AcDbLine
 10
-365.0000000000073
 20
-621.0395746943213
 30
0.0
 11
-122.0566416796773
 21
-783.0014000000017
 31
0.0
  0
LINE
  5
2545
330
295F
100
AcDbEntity
  8
0
 62
     0
100
AcDbLine
 10
-365.0000000000073
 20
-618.0396081589051
 30
0.0
 11
-117.5566803857946
 21
-783.0014000000001
 31
0.0
  0
LINE
  5
2546
330
295F
100
AcDbEntity
  8
0
 62
     0
100
AcDbLine
 10
-365.0000000000073
 20
-615.0396416234888
 30
0.0
 11
-113.0567190919046
 21
-783.0014000000029
 31
0.0
  0
LINE
  5
2547
330
295F
100
AcDbEntity
  8
0
 62
     0
100
AcDbLine
 10
-365.0000000000054
 20
-612.0396750880727
 30
0.0
 11
-108.55675779802
 21
-783.001400000001
 31
0.0
  0
LINE
  5
2548
330
295F
100
AcDbEntity
  8
0
 62
     0
100
AcDbLine
 10
-365.0000000000073
 20
-609.0397085526565
 30
0.0
 11
-104.0567965041355
 21
-783.0014000000029
 31
0.0
  0
LINE
  5
2549
330
295F
100
AcDbEntity
  8
0
 62
     0
100
AcDbLine
 10
-365.0000000000054
 20
-606.0397420172404
 30
0.0
 11
-99.55683521024914
 21
-783.0014000000017
 31
0.0
  0
LINE
  5
254A
330
295F
100
AcDbEntity
  8
0
 62
     0
100
AcDbLine
 10
-365.0000000000073
 20
-603.039775481825
 30
0.0
 11
-95.05687391636275
 21
-783.0014000000034
 31
0.0
  0
LINE
  5
254B
330
295F
100
AcDbEntity
  8
0
 62
     0
100
AcDbLine
 10
-365.0000000000054
 20
-600.0398089464079
 30
0.0
 11
-90.55691262247819
 21
-783.001400000001
 31
0.0
  0
LINE
  5
254C
330
295F
100
AcDbEntity
  8
0
 62
     0
100
AcDbLine
 10
-365.0000000000073
 20
-597.0398424109926
 30
0.0
 11
-86.05695132859365
 21
-783.0014000000029
 31
0.0
  0
LINE
  5
254D
330
295F
100
AcDbEntity
  8
0
 62
     0
100
AcDbLine
 10
-365.0000000000073
 20
-594.0398758755743
 30
0.0
 11
-81.55699003470727
 21
-783.0014000000029
 31
0.0
  0
LINE
  5
254E
330
295F
100
AcDbEntity
  8
0
 62
     0
100
AcDbLine
 10
-365.0000000000054
 20
-591.0399093401609
 30
0.0
 11
-77.0570287408227
 21
-783.0014000000017
 31
0.0
  0
LINE
  5
254F
330
295F
100
AcDbEntity
  8
0
 62
     0
100
AcDbLine
 10
-365.0000000000073
 20
-588.039942804743
 30
0.0
 11
-72.55706744693634
 21
-783.0014000000017
 31
0.0
  0
LINE
  5
2550
330
295F
100
AcDbEntity
  8
0
 62
     0
100
AcDbLine
 10
-365.0000000000073
 20
-585.0399762693276
 30
0.0
 11
-68.05710615305361
 21
-783.001400000001
 31
0.0
  0
LINE
  5
2551
330
295F
100
AcDbEntity
  8
0
 62
     0
100
AcDbLine
 10
-365.0000000000073
 20
-582.0400097339105
 30
0.0
 11
-63.55714485916542
 21
-783.0014000000029
 31
0.0
  0
LINE
  5
2552
330
295F
100
AcDbEntity
  8
0
 62
     0
100
AcDbLine
 10
-365.0000000000073
 20
-579.0400431984936
 30
0.0
 11
-59.05718356528087
 21
-783.001400000001
 31
0.0
  0
LINE
  5
2553
330
295F
100
AcDbEntity
  8
0
 62
     0
100
AcDbLine
 10
-365.0000000000054
 20
-576.0400766630783
 30
0.0
 11
-54.5572222713945
 21
-783.0014000000017
 31
0.0
  0
LINE
  5
2554
330
295F
100
AcDbEntity
  8
0
 62
     0
100
AcDbLine
 10
-365.0000000000073
 20
-573.0401101276621
 30
0.0
 11
-50.05726097750812
 21
-783.0014000000017
 31
0.0
  0
LINE
  5
2555
330
295F
100
AcDbEntity
  8
0
 62
     0
100
AcDbLine
 10
-365.0000000000054
 20
-570.0401435922467
 30
0.0
 11
-45.55729968362174
 21
-783.0014000000034
 31
0.0
  0
LINE
  5
2556
330
295F
100
AcDbEntity
  8
0
 62
     0
100
AcDbLine
 10
-365.0000000000091
 20
-567.0401770568287
 30
0.0
 11
-41.05733838973899
 21
-783.001400000001
 31
0.0
  0
LINE
  5
2557
330
295F
100
AcDbEntity
  8
0
 62
     0
100
AcDbLine
 10
-365.0000000000054
 20
-564.0402105214143
 30
0.0
 11
-36.55737709585265
 21
-783.0014000000029
 31
0.0
  0
LINE
  5
2558
330
295F
100
AcDbEntity
  8
0
 62
     0
100
AcDbLine
 10
-365.0000000000091
 20
-561.0402439859963
 30
0.0
 11
-32.05741580196627
 21
-783.0014000000017
 31
0.0
  0
LINE
  5
2559
330
295F
100
AcDbEntity
  8
0
 62
     0
100
AcDbLine
 10
-365.0000000000073
 20
-558.0402774505819
 30
0.0
 11
-27.5574545080799
 21
-783.0014000000034
 31
0.0
  0
LINE
  5
255A
330
295F
100
AcDbEntity
  8
0
 62
     0
100
AcDbLine
 10
-365.0000000000073
 20
-555.0403109151647
 30
0.0
 11
-23.05749321419535
 21
-783.001400000001
 31
0.0
  0
LINE
  5
255B
330
295F
100
AcDbEntity
  8
0
 62
     0
100
AcDbLine
 10
-365.0000000000073
 20
-552.0403443797495
 30
0.0
 11
-18.55753192031079
 21
-783.0014000000029
 31
0.0
  0
LINE
  5
255C
330
295F
100
AcDbEntity
  8
0
 62
     0
100
AcDbLine
 10
-365.0000000000054
 20
-549.0403778443321
 30
0.0
 11
-14.0575706264226
 21
-783.0014000000029
 31
0.0
  0
LINE
  5
255D
330
295F
100
AcDbEntity
  8
0
 62
     0
100
AcDbLine
 10
-365.0000000000073
 20
-546.0404113089172
 30
0.0
 11
-9.557609332539868
 21
-783.0014000000017
 31
0.0
  0
LINE
  5
255E
330
295F
100
AcDbEntity
  8
0
 62
     0
100
AcDbLine
 10
-365.0000000000054
 20
-543.0404447735009
 30
0.0
 11
-5.057648038653494
 21
-783.0014000000017
 31
0.0
  0
LINE
  5
255F
330
295F
100
AcDbEntity
  8
0
 62
     0
100
AcDbLine
 10
-365.0000000000073
 20
-540.0404782380847
 30
0.0
 11
-0.5576867447671248
 21
-783.0014000000029
 31
0.0
  0
LINE
  5
2560
330
295F
100
AcDbEntity
  8
0
 62
     0
100
AcDbLine
 10
-365.0000000000054
 20
-537.0405117026685
 30
0.0
 11
3.942274549119247
 21
-783.0014000000029
 31
0.0
  0
LINE
  5
2561
330
295F
100
AcDbEntity
  8
0
 62
     0
100
AcDbLine
 10
-365.0000000000073
 20
-534.0405451672503
 30
0.0
 11
8.442235843001981
 21
-783.001400000001
 31
0.0
  0
LINE
  5
2562
330
295F
100
AcDbEntity
  8
0
 62
     0
100
AcDbLine
 10
-365.0000000000073
 20
-531.0405786318352
 30
0.0
 11
12.94219713688835
 21
-783.0014000000017
 31
0.0
  0
LINE
  5
2563
330
295F
100
AcDbEntity
  8
0
 62
     0
100
AcDbLine
 10
-365.0000000000073
 20
-528.040612096418
 30
0.0
 11
17.44215843077472
 21
-783.0014000000017
 31
0.0
  0
LINE
  5
2564
330
295F
100
AcDbEntity
  8
0
 62
     0
100
AcDbLine
 10
-365.0000000000073
 20
-525.0406455610035
 30
0.0
 11
21.9421197246611
 21
-783.0014000000034
 31
0.0
  0
LINE
  5
2565
330
295F
100
AcDbEntity
  8
0
 62
     0
100
AcDbLine
 10
-365.0000000000073
 20
-522.0406790255865
 30
0.0
 11
26.44208101854383
 21
-783.001400000001
 31
0.0
  0
LINE
  5
2566
330
295F
100
AcDbEntity
  8
0
 62
     0
100
AcDbLine
 10
-365.0000000000073
 20
-519.0407124901703
 30
0.0
 11
30.94204231243202
 21
-783.0014000000029
 31
0.0
  0
LINE
  5
2567
330
295F
100
AcDbEntity
  8
0
 62
     0
100
AcDbLine
 10
-365.0000000000073
 20
-516.040745954754
 30
0.0
 11
35.44200360631658
 21
-783.0014000000017
 31
0.0
  0
LINE
  5
2568
330
295F
100
AcDbEntity
  8
0
 62
     0
100
AcDbLine
 10
-365.0000000000054
 20
-513.0407794193388
 30
0.0
 11
39.94196490020114
 21
-783.0014000000017
 31
0.0
  0
LINE
  5
2569
330
295F
100
AcDbEntity
  8
0
 62
     0
100
AcDbLine
 10
-365.0000000000073
 20
-510.0408128839226
 30
0.0
 11
44.44192619408568
 21
-783.001400000001
 31
0.0
  0
LINE
  5
256A
330
295F
100
AcDbEntity
  8
0
 62
     0
100
AcDbLine
 10
-365.0000000000073
 20
-507.0408463485064
 30
0.0
 11
48.94188748797024
 21
-783.001400000001
 31
0.0
  0
LINE
  5
256B
330
295F
100
AcDbEntity
  8
0
 62
     0
100
AcDbLine
 10
-365.0000000000054
 20
-504.0408798130902
 30
0.0
 11
53.44184878186024
 21
-783.0014000000029
 31
0.0
  0
LINE
  5
256C
330
295F
100
AcDbEntity
  8
0
 62
     0
100
AcDbLine
 10
-365.0000000000073
 20
-501.0409132776737
 30
0.0
 11
57.94181007574298
 21
-783.0014000000017
 31
0.0
  0
LINE
  5
256D
330
295F
100
AcDbEntity
  8
0
 62
     0
100
AcDbLine
 10
-365.0000000000073
 20
-498.0409467422568
 30
0.0
 11
62.44177136962935
 21
-783.0014000000017
 31
0.0
  0
LINE
  5
256E
330
295F
100
AcDbEntity
  8
0
 62
     0
100
AcDbLine
 10
-365.0000000000073
 20
-495.0409802068405
 30
0.0
 11
66.94173266351208
 21
-783.0013999999992
 31
0.0
  0
LINE
  5
256F
330
295F
100
AcDbEntity
  8
0
 62
     0
100
AcDbLine
 10
-365.0000000000054
 20
-492.0410136714249
 30
0.0
 11
71.4416939574021
 21
-783.0014000000029
 31
0.0
  0
LINE
  5
2570
330
295F
100
AcDbEntity
  8
0
 62
     0
100
AcDbLine
 10
-365.0000000000054
 20
-489.0410471360082
 30
0.0
 11
75.94165525128662
 21
-783.001400000001
 31
0.0
  0
LINE
  5
2571
330
295F
100
AcDbEntity
  8
0
 62
     0
100
AcDbLine
 10
-365.0000000000054
 20
-486.0410806005928
 30
0.0
 11
80.4416165451712
 21
-783.0014000000017
 31
0.0
  0
LINE
  5
2572
330
295F
100
AcDbEntity
  8
0
 62
     0
100
AcDbLine
 10
-365.0000000000054
 20
-483.0411140651758
 30
0.0
 11
84.94157783905938
 21
-783.0014000000017
 31
0.0
  0
LINE
  5
2573
330
295F
100
AcDbEntity
  8
0
 62
     0
100
AcDbLine
 10
-365.0000000000073
 20
-480.0411475297596
 30
0.0
 11
89.44153913294393
 21
-783.0014000000034
 31
0.0
  0
LINE
  5
2574
330
295F
100
AcDbEntity
  8
0
 62
     0
100
AcDbLine
 10
-365.0000000000054
 20
-477.0411809943444
 30
0.0
 11
93.94150042682849
 21
-783.001400000001
 31
0.0
  0
LINE
  5
2575
330
295F
100
AcDbEntity
  8
0
 62
     0
100
AcDbLine
 10
-365.0000000000073
 20
-474.0412144589281
 30
0.0
 11
98.44146172071305
 21
-783.0014000000029
 31
0.0
  0
LINE
  5
2576
330
295F
100
AcDbEntity
  8
0
 62
     0
100
AcDbLine
 10
-365.0000000000073
 20
-471.041247923511
 30
0.0
 11
102.9414230146012
 21
-783.0014000000017
 31
0.0
  0
LINE
  5
2577
330
295F
100
AcDbEntity
  8
0
 62
     0
100
AcDbLine
 10
-365.0000000000054
 20
-468.0412813880955
 30
0.0
 11
107.441384308484
 21
-783.0014000000017
 31
0.0
  0
LINE
  5
2578
330
295F
100
AcDbEntity
  8
0
 62
     0
100
AcDbLine
 10
-365.0000000000073
 20
-465.0413148526792
 30
0.0
 11
111.9413456023703
 21
-783.0014000000017
 31
0.0
  0
LINE
  5
2579
330
295F
100
AcDbEntity
  8
0
 62
     0
100
AcDbLine
 10
-365.0000000000054
 20
-462.0413483172641
 30
0.0
 11
116.4413068962549
 21
-783.001400000001
 31
0.0
  0
LINE
  5
257A
330
295F
100
AcDbEntity
  8
0
 62
     0
100
AcDbLine
 10
-365.0000000000073
 20
-459.0413817818471
 30
0.0
 11
120.9412681901431
 21
-783.0014000000029
 31
0.0
  0
LINE
  5
257B
330
295F
100
AcDbEntity
  8
0
 62
     0
100
AcDbLine
 10
-365.0000000000054
 20
-456.0414152464296
 30
0.0
 11
125.4412294840258
 21
-783.0014000000001
 31
0.0
  0
LINE
  5
257C
330
295F
100
AcDbEntity
  8
0
 62
     0
100
AcDbLine
 10
-365.0000000000073
 20
-453.0414487110138
 30
0.0
 11
129.941190777914
 21
-783.0014000000017
 31
0.0
  0
LINE
  5
257D
330
295F
100
AcDbEntity
  8
0
 62
     0
100
AcDbLine
 10
-365.0000000000054
 20
-450.0414821755985
 30
0.0
 11
134.4411520717949
 21
-783.0013999999992
 31
0.0
  0
LINE
  5
257E
330
295F
100
AcDbEntity
  8
0
 62
     0
100
AcDbLine
 10
-365.0000000000073
 20
-447.0415156401823
 30
0.0
 11
138.9411133656867
 21
-783.0014000000029
 31
0.0
  0
LINE
  5
257F
330
295F
100
AcDbEntity
  8
0
 62
     0
100
AcDbLine
 10
-365.0000000000073
 20
-444.0415491047652
 30
0.0
 11
143.4410746595677
 21
-783.001400000001
 31
0.0
  0
LINE
  5
2580
330
295F
100
AcDbEntity
  8
0
 62
     0
100
AcDbLine
 10
-365.0000000000073
 20
-441.0415825693497
 30
0.0
 11
147.9410359534558
 21
-783.0014000000017
 31
0.0
  0
LINE
  5
2581
330
295F
100
AcDbEntity
  8
0
 62
     0
100
AcDbLine
 10
-365.0000000000073
 20
-438.0416160339327
 30
0.0
 11
152.4409972473368
 21
-783.0014000000001
 31
0.0
  0
LINE
  5
2582
330
295F
100
AcDbEntity
  8
0
 62
     0
100
AcDbLine
 10
-365.0000000000054
 20
-435.0416494985174
 30
0.0
 11
156.940958541225
 21
-783.001400000001
 31
0.0
  0
LINE
  5
2583
330
295F
100
AcDbEntity
  8
0
 62
     0
100
AcDbLine
 10
-365.0000000000054
 20
-432.0416829631012
 30
0.0
 11
161.4409198351113
 21
-783.001400000001
 31
0.0
  0
LINE
  5
2584
330
295F
100
AcDbEntity
  8
0
 62
     0
100
AcDbLine
 10
-365.0000000000054
 20
-429.0417164276859
 30
0.0
 11
165.9408811289977
 21
-783.0014000000029
 31
0.0
  0
LINE
  5
2585
330
295F
100
AcDbEntity
  8
0
 62
     0
100
AcDbLine
 10
-365.0000000000073
 20
-426.0417498922676
 30
0.0
 11
170.4408424228841
 21
-783.0014000000017
 31
0.0
  0
LINE
  5
2586
330
295F
100
AcDbEntity
  8
0
 62
     0
100
AcDbLine
 10
-365.0000000000054
 20
-423.0417833568536
 30
0.0
 11
174.9408037167668
 21
-783.0014000000017
 31
0.0
  0
LINE
  5
2587
330
295F
100
AcDbEntity
  8
0
 62
     0
100
AcDbLine
 10
-365.0000000000073
 20
-420.0418168214354
 30
0.0
 11
179.4407650106532
 21
-783.0014000000017
 31
0.0
  0
LINE
  5
2588
330
295F
100
AcDbEntity
  8
0
 62
     0
100
AcDbLine
 10
-365.0000000000054
 20
-417.0418502860192
 30
0.0
 11
183.9407263045377
 21
-783.0013999999992
 31
0.0
  0
LINE
  5
2589
330
295F
100
AcDbEntity
  8
0
 62
     0
100
AcDbLine
 10
-365.0000000000073
 20
-414.041883750604
 30
0.0
 11
188.4406875984259
 21
-783.0014000000029
 31
0.0
  0
LINE
  5
258A
330
295F
100
AcDbEntity
  8
0
 62
     0
100
AcDbLine
 10
-365.0000000000054
 20
-411.0419172151869
 30
0.0
 11
192.9406488923105
 21
-783.0014000000001
 31
0.0
  0
LINE
  5
258B
330
295F
100
AcDbEntity
  8
0
 62
     0
100
AcDbLine
 10
-365.0000000000073
 20
-408.0419506797713
 30
0.0
 11
197.4406101861949
 21
-783.0014000000017
 31
0.0
  0
LINE
  5
258C
330
295F
100
AcDbEntity
  8
0
 62
     0
100
AcDbLine
 10
-365.0000000000054
 20
-405.0419841443543
 30
0.0
 11
201.9405714800796
 21
-783.0013999999992
 31
0.0
  0
LINE
  5
258D
330
295F
100
AcDbEntity
  8
0
 62
     0
100
AcDbLine
 10
-365.0000000000073
 20
-402.04201760894
 30
0.0
 11
206.4405327739677
 21
-783.0014000000029
 31
0.0
  0
LINE
  5
258E
330
295F
100
AcDbEntity
  8
0
 62
     0
100
AcDbLine
 10
-365.0000000000054
 20
-399.042051073523
 30
0.0
 11
210.9404940678524
 21
-783.001400000001
 31
0.0
  0
LINE
  5
258F
330
295F
100
AcDbEntity
  8
0
 62
     0
100
AcDbLine
 10
-365.0000000000054
 20
-396.0420845381077
 30
0.0
 11
215.4404553617387
 21
-783.0014000000017
 31
0.0
  0
LINE
  5
2590
330
295F
100
AcDbEntity
  8
0
 62
     0
100
AcDbLine
 10
-365.0000000000073
 20
-393.0421180026897
 30
0.0
 11
219.9404166556214
 21
-783.0014000000001
 31
0.0
  0
LINE
  5
2591
330
295F
100
AcDbEntity
  8
0
 62
     0
100
AcDbLine
 10
-365.0000000000054
 20
-390.0421514672752
 30
0.0
 11
224.4403779495077
 21
-783.0014000000017
 31
0.0
  0
LINE
  5
2592
330
295F
100
AcDbEntity
  8
0
 62
     0
100
AcDbLine
 10
-365.0000000000073
 20
-387.0421849318572
 30
0.0
 11
228.9403392433942
 21
-783.001400000001
 31
0.0
  0
LINE
  5
2593
330
295F
100
AcDbEntity
  8
0
 62
     0
100
AcDbLine
 10
-365.0000000000073
 20
-384.0422183964429
 30
0.0
 11
233.4403005372769
 21
-783.001400000001
 31
0.0
  0
LINE
  5
2594
330
295F
100
AcDbEntity
  8
0
 62
     0
100
AcDbLine
 10
-365.0000000000054
 20
-381.0422518610258
 30
0.0
 11
237.9402618311651
 21
-783.0014000000001
 31
0.0
  0
LINE
  5
2595
330
295F
100
AcDbEntity
  8
0
 62
     0
100
AcDbLine
 10
-365.0000000000073
 20
-378.0422853256086
 30
0.0
 11
242.4402231250497
 21
-783.0014000000001
 31
0.0
  0
LINE
  5
2596
330
295F
100
AcDbEntity
  8
0
 62
     0
100
AcDbLine
 10
-365.0000000000054
 20
-375.0423187901934
 30
0.0
 11
246.9401844189379
 21
-783.0014000000017
 31
0.0
  0
LINE
  5
2597
330
295F
100
AcDbEntity
  8
0
 62
     0
100
AcDbLine
 10
-365.0000000000054
 20
-372.0423522547762
 30
0.0
 11
251.4401457128188
 21
-783.0013999999992
 31
0.0
  0
LINE
  5
2598
330
295F
100
AcDbEntity
  8
0
 62
     0
100
AcDbLine
 10
-365.0000000000054
 20
-369.0423857193617
 30
0.0
 11
255.940107006707
 21
-783.001400000001
 31
0.0
  0
LINE
  5
2599
330
295F
100
AcDbEntity
  8
0
 62
     0
100
AcDbLine
 10
-365.0000000000054
 20
-366.0424191839438
 30
0.0
 11
260.4400683005934
 21
-783.0014000000001
 31
0.0
  0
LINE
  5
259A
330
295F
100
AcDbEntity
  8
0
 62
     0
100
AcDbLine
 10
-365.0000000000054
 20
-363.0424526485295
 30
0.0
 11
264.9400295944797
 21
-783.0014000000017
 31
0.0
  0
LINE
  5
259B
330
295F
100
AcDbEntity
  8
0
 62
     0
100
AcDbLine
 10
-365.0000000000054
 20
-360.0424861131113
 30
0.0
 11
269.4399908883625
 21
-783.0014000000001
 31
0.0
  0
LINE
  5
259C
330
295F
100
AcDbEntity
  8
0
 62
     0
100
AcDbLine
 10
-365.0000000000073
 20
-357.0425195776961
 30
0.0
 11
273.9399521822488
 21
-783.001400000001
 31
0.0
  0
LINE
  5
259D
330
295F
100
AcDbEntity
  8
0
 62
     0
100
AcDbLine
 10
-365.0000000000054
 20
-354.04255304228
 30
0.0
 11
278.4399134761352
 21
-783.001400000001
 31
0.0
  0
LINE
  5
259E
330
295F
100
AcDbEntity
  8
0
 62
     0
100
AcDbLine
 10
-365.0000000000073
 20
-351.0425865068646
 30
0.0
 11
282.9398747700198
 21
-783.0014000000029
 31
0.0
  0
LINE
  5
259F
330
295F
100
AcDbEntity
  8
0
 62
     0
100
AcDbLine
 10
-365.0000000000054
 20
-348.0426199714476
 30
0.0
 11
287.4398360639042
 21
-783.0014000000001
 31
0.0
  0
LINE
  5
25A0
330
295F
100
AcDbEntity
  8
0
 62
     0
100
AcDbLine
 10
-365.0000000000054
 20
-345.0426534360322
 30
0.0
 11
291.9397973577925
 21
-783.0014000000017
 31
0.0
  0
LINE
  5
25A1
330
295F
100
AcDbEntity
  8
0
 62
     0
100
AcDbLine
 10
-365.0000000000054
 20
-342.042686900615
 30
0.0
 11
296.4397586516771
 21
-783.001400000001
 31
0.0
  0
LINE
  5
25A2
330
295F
100
AcDbEntity
  8
0
 62
     0
100
AcDbLine
 10
-365.0000000000073
 20
-339.0427203651989
 30
0.0
 11
300.9397199455616
 21
-783.001400000001
 31
0.0
  0
LINE
  5
25A3
330
295F
100
AcDbEntity
  8
0
 62
     0
100
AcDbLine
 10
-365.0000000000054
 20
-336.0427538297837
 30
0.0
 11
305.4396812394462
 21
-783.0014000000001
 31
0.0
  0
LINE
  5
25A4
330
295F
100
AcDbEntity
  8
0
 62
     0
100
AcDbLine
 10
-365.0000000000073
 20
-333.0427872943655
 30
0.0
 11
309.9396425333342
 21
-783.0014000000001
 31
0.0
  0
LINE
  5
25A5
330
295F
100
AcDbEntity
  8
0
 62
     0
100
AcDbLine
 10
-365.0000000000054
 20
-330.0428207589503
 30
0.0
 11
314.4396038272208
 21
-783.0014000000017
 31
0.0
  0
LINE
  5
25A6
330
295F
100
AcDbEntity
  8
0
 62
     0
100
AcDbLine
 10
-365.0000000000073
 20
-327.0428542235332
 30
0.0
 11
318.9395651211035
 21
-783.0013999999992
 31
0.0
  0
LINE
  5
25A7
330
295F
100
AcDbEntity
  8
0
 62
     0
100
AcDbLine
 10
-365.0000000000054
 20
-324.0428876881177
 30
0.0
 11
323.4395264149898
 21
-783.001400000001
 31
0.0
  0
LINE
  5
25A8
330
295F
100
AcDbEntity
  8
0
 62
     0
100
AcDbLine
 10
-365.0000000000073
 20
-321.0429211527016
 30
0.0
 11
327.9394877088762
 21
-783.0014000000001
 31
0.0
  0
LINE
  5
25A9
330
295F
100
AcDbEntity
  8
0
 62
     0
100
AcDbLine
 10
-365.0000000000054
 20
-318.0429546172863
 30
0.0
 11
332.4394490027625
 21
-783.0014000000017
 31
0.0
  0
LINE
  5
25AA
330
295F
100
AcDbEntity
  8
0
 62
     0
100
AcDbLine
 10
-365.0000000000054
 20
-315.0429880818692
 30
0.0
 11
336.9394102966452
 21
-783.0014000000001
 31
0.0
  0
LINE
  5
25AB
330
295F
100
AcDbEntity
  8
0
 62
     0
100
AcDbLine
 10
-365.0000000000073
 20
-312.0430215464531
 30
0.0
 11
341.4393715905317
 21
-783.001400000001
 31
0.0
  0
LINE
  5
25AC
330
295F
100
AcDbEntity
  8
0
 62
     0
100
AcDbLine
 10
-365.0000000000036
 20
-309.0430550110368
 30
0.0
 11
345.939332884418
 21
-783.001400000001
 31
0.0
  0
LINE
  5
25AD
330
295F
100
AcDbEntity
  8
0
 62
     0
100
AcDbLine
 10
-365.0000000000073
 20
-306.0430884756215
 30
0.0
 11
350.4392941783008
 21
-783.0014000000001
 31
0.0
  0
LINE
  5
25AE
330
295F
100
AcDbEntity
  8
0
 62
     0
100
AcDbLine
 10
-365.0000000000054
 20
-303.0431219402044
 30
0.0
 11
354.939255472189
 21
-783.0014000000001
 31
0.0
  0
LINE
  5
25AF
330
295F
100
AcDbEntity
  8
0
 62
     0
100
AcDbLine
 10
-365.0000000000073
 20
-300.0431554047891
 30
0.0
 11
359.4392167660735
 21
-783.0014000000017
 31
0.0
  0
LINE
  5
25B0
330
295F
100
AcDbEntity
  8
0
 62
     0
100
AcDbLine
 10
-365.0000000000054
 20
-297.043188869372
 30
0.0
 11
363.9391780599599
 21
-783.001400000001
 31
0.0
  0
LINE
  5
25B1
330
295F
100
AcDbEntity
  8
0
 62
     0
100
AcDbLine
 10
-365.0000000000054
 20
-294.0432223339549
 30
0.0
 11
364.9999999999945
 21
-780.7086462853821
 31
0.0
  0
LINE
  5
25B2
330
295F
100
AcDbEntity
  8
0
 62
     0
100
AcDbLine
 10
-365.0000000000054
 20
-291.0432557985405
 30
0.0
 11
364.9999999999908
 21
-777.7086797499658
 31
0.0
  0
LINE
  5
25B3
330
295F
100
AcDbEntity
  8
0
 62
     0
100
AcDbLine
 10
-365.0000000000054
 20
-288.0432892631234
 30
0.0
 11
364.9999999999945
 21
-774.7087132145508
 31
0.0
  0
LINE
  5
25B4
330
295F
100
AcDbEntity
  8
0
 62
     0
100
AcDbLine
 10
-365.0000000000073
 20
-285.0433227277072
 30
0.0
 11
364.9999999999908
 21
-771.7087466791345
 31
0.0
  0
LINE
  5
25B5
330
295F
100
AcDbEntity
  8
0
 62
     0
100
AcDbLine
 10
-365.0000000000073
 20
-282.04335619229
 30
0.0
 11
364.9999999999927
 21
-768.7087801437171
 31
0.0
  0
LINE
  5
25B6
330
295F
100
AcDbEntity
  8
0
 62
     0
100
AcDbLine
 10
-365.0000000000073
 20
-279.0433896568747
 30
0.0
 11
364.9999999999908
 21
-765.7088136083022
 31
0.0
  0
LINE
  5
25B7
330
295F
100
AcDbEntity
  8
0
 62
     0
100
AcDbLine
 10
-365.0000000000073
 20
-276.0434231214576
 30
0.0
 11
364.9999999999927
 21
-762.708847072885
 31
0.0
  0
LINE
  5
25B8
330
295F
100
AcDbEntity
  8
0
 62
     0
100
AcDbLine
 10
-365.0000000000054
 20
-273.0434565860432
 30
0.0
 11
364.9999999999927
 21
-759.7088805374702
 31
0.0
  0
LINE
  5
25B9
330
295F
100
AcDbEntity
  8
0
 62
     0
100
AcDbLine
 10
-365.0000000000073
 20
-270.0434900506262
 30
0.0
 11
364.9999999999927
 21
-756.7089140020531
 31
0.0
  0
LINE
  5
25BA
330
295F
100
AcDbEntity
  8
0
 62
     0
100
AcDbLine
 10
-365.0000000000054
 20
-267.0435235152108
 30
0.0
 11
364.9999999999927
 21
-753.7089474666381
 31
0.0
  0
LINE
  5
25BB
330
295F
100
AcDbEntity
  8
0
 62
     0
100
AcDbLine
 10
-365.0000000000073
 20
-264.0435569797937
 30
0.0
 11
364.9999999999908
 21
-750.7089809312201
 31
0.0
  0
LINE
  5
25BC
330
295F
100
AcDbEntity
  8
0
 62
     0
100
AcDbLine
 10
-365.0000000000054
 20
-261.0435904443784
 30
0.0
 11
364.9999999999927
 21
-747.7090143958064
 31
0.0
  0
LINE
  5
25BD
330
295F
100
AcDbEntity
  8
0
 62
     0
100
AcDbLine
 10
-365.0000000000036
 20
-258.0436239089623
 30
0.0
 11
364.9999999999927
 21
-744.7090478603886
 31
0.0
  0
LINE
  5
25BE
330
295F
100
AcDbEntity
  8
0
 62
     0
100
AcDbLine
 10
-365.0000000000054
 20
-255.0436573735451
 30
0.0
 11
364.9999999999908
 21
-741.7090813249715
 31
0.0
  0
LINE
  5
25BF
330
295F
100
AcDbEntity
  8
0
 62
     0
100
AcDbLine
 10
-365.0000000000054
 20
-252.0436908381289
 30
0.0
 11
364.9999999999927
 21
-738.7091147895561
 31
0.0
  0
LINE
  5
25C0
330
295F
100
AcDbEntity
  8
0
 62
     0
100
AcDbLine
 10
-365.0000000000054
 20
-249.0437243027127
 30
0.0
 11
364.9999999999908
 21
-735.709148254139
 31
0.0
  0
LINE
  5
25C1
330
295F
100
AcDbEntity
  8
0
 62
     0
100
AcDbLine
 10
-365.0000000000054
 20
-246.0437577672965
 30
0.0
 11
364.9999999999927
 21
-732.7091817187239
 31
0.0
  0
LINE
  5
25C2
330
295F
100
AcDbEntity
  8
0
 62
     0
100
AcDbLine
 10
-365.0000000000054
 20
-243.0437912318803
 30
0.0
 11
364.9999999999927
 21
-729.7092151833075
 31
0.0
  0
LINE
  5
25C3
330
295F
100
AcDbEntity
  8
0
 62
     0
100
AcDbLine
 10
-365.0000000000054
 20
-240.043824696465
 30
0.0
 11
364.9999999999927
 21
-726.7092486478922
 31
0.0
  0
LINE
  5
25C4
330
295F
100
AcDbEntity
  8
0
 62
     0
100
AcDbLine
 10
-365.0000000000054
 20
-237.0438581610478
 30
0.0
 11
364.9999999999927
 21
-723.7092821124739
 31
0.0
  0
LINE
  5
25C5
330
295F
100
AcDbEntity
  8
0
 62
     0
100
AcDbLine
 10
-365.0000000000054
 20
-234.0438916256326
 30
0.0
 11
364.9999999999927
 21
-720.7093155770599
 31
0.0
  0
LINE
  5
25C6
330
295F
100
AcDbEntity
  8
0
 62
     0
100
AcDbLine
 10
-365.0000000000054
 20
-231.0439250902156
 30
0.0
 11
364.9999999999927
 21
-717.7093490416416
 31
0.0
  0
LINE
  5
25C7
330
295F
100
AcDbEntity
  8
0
 62
     0
100
AcDbLine
 10
-365.0000000000054
 20
-228.0439585548011
 30
0.0
 11
364.9999999999908
 21
-714.7093825062276
 31
0.0
  0
LINE
  5
25C8
330
295F
100
AcDbEntity
  8
0
 62
     0
100
AcDbLine
 10
-365.0000000000073
 20
-225.043992019383
 30
0.0
 11
364.9999999999927
 21
-711.7094159708103
 31
0.0
  0
LINE
  5
25C9
330
295F
100
AcDbEntity
  8
0
 62
     0
100
AcDbLine
 10
-365.0000000000054
 20
-222.0440254839677
 30
0.0
 11
364.9999999999927
 21
-708.7094494353951
 31
0.0
  0
LINE
  5
25CA
330
295F
100
AcDbEntity
  8
0
 62
     0
100
AcDbLine
 10
-365.0000000000073
 20
-219.0440589485506
 30
0.0
 11
364.9999999999927
 21
-705.7094828999781
 31
0.0
  0
LINE
  5
25CB
330
295F
100
AcDbEntity
  8
0
 62
     0
100
AcDbLine
 10
-365.0000000000054
 20
-216.0440924131335
 30
0.0
 11
364.9999999999927
 21
-702.7095163645607
 31
0.0
  0
LINE
  5
25CC
330
295F
100
AcDbEntity
  8
0
 62
     0
100
AcDbLine
 10
-365.0000000000073
 20
-213.0441258777182
 30
0.0
 11
364.9999999999927
 21
-699.7095498291465
 31
0.0
  0
LINE
  5
25CD
330
295F
100
AcDbEntity
  8
0
 62
     0
100
AcDbLine
 10
-365.0000000000054
 20
-210.044159342302
 30
0.0
 11
364.9999999999908
 21
-696.7095832937283
 31
0.0
  0
LINE
  5
25CE
330
295F
100
AcDbEntity
  8
0
 62
     0
100
AcDbLine
 10
-365.0000000000054
 20
-207.0441928068867
 30
0.0
 11
364.9999999999945
 21
-693.709616758314
 31
0.0
  0
LINE
  5
25CF
330
295F
100
AcDbEntity
  8
0
 62
     0
100
AcDbLine
 10
-365.0000000000054
 20
-204.0442262714696
 30
0.0
 11
364.9999999999908
 21
-690.7096502228958
 31
0.0
  0
LINE
  5
25D0
330
295F
100
AcDbEntity
  8
0
 62
     0
100
AcDbLine
 10
-365.0000000000036
 20
-201.0442597360543
 30
0.0
 11
364.9999999999927
 21
-687.7096836874807
 31
0.0
  0
LINE
  5
25D1
330
295F
100
AcDbEntity
  8
0
 62
     0
100
AcDbLine
 10
-365.0000000000073
 20
-198.0442932006361
 30
0.0
 11
364.9999999999908
 21
-684.7097171520636
 31
0.0
  0
LINE
  5
25D2
330
295F
100
AcDbEntity
  8
0
 62
     0
100
AcDbLine
 10
-365.0000000000054
 20
-195.0443266652218
 30
0.0
 11
364.9999999999927
 21
-681.7097506166492
 31
0.0
  0
LINE
  5
25D3
330
295F
100
AcDbEntity
  8
0
 62
     0
100
AcDbLine
 10
-365.0000000000073
 20
-192.0443601298048
 30
0.0
 11
364.9999999999908
 21
-678.7097840812321
 31
0.0
  0
LINE
  5
25D4
330
295F
100
AcDbEntity
  8
0
 62
     0
100
AcDbLine
 10
-365.0000000000054
 20
-189.0443935943894
 30
0.0
 11
364.9999999999908
 21
-675.7098175458159
 31
0.0
  0
LINE
  5
25D5
330
295F
100
AcDbEntity
  8
0
 62
     0
100
AcDbLine
 10
-365.0000000000054
 20
-186.0444270589723
 30
0.0
 11
364.9999999999927
 21
-672.7098510103996
 31
0.0
  0
LINE
  5
25D6
330
295F
100
AcDbEntity
  8
0
 62
     0
100
AcDbLine
 10
-365.0000000000054
 20
-183.044460523557
 30
0.0
 11
364.9999999999908
 21
-669.7098844749834
 31
0.0
  0
LINE
  5
25D7
330
295F
100
AcDbEntity
  8
0
 62
     0
100
AcDbLine
 10
-365.0000000000054
 20
-180.0444939881408
 30
0.0
 11
364.9999999999927
 21
-666.709917939568
 31
0.0
  0
LINE
  5
25D8
330
295F
100
AcDbEntity
  8
0
 62
     0
100
AcDbLine
 10
-365.0000000000054
 20
-177.0445274527237
 30
0.0
 11
364.9999999999908
 21
-663.7099514041501
 31
0.0
  0
LINE
  5
25D9
330
295F
100
AcDbEntity
  8
0
 62
     0
100
AcDbLine
 10
-365.0000000000054
 20
-174.0445609173084
 30
0.0
 11
364.9999999999927
 21
-660.7099848687347
 31
0.0
  0
LINE
  5
25DA
330
295F
100
AcDbEntity
  8
0
 62
     0
100
AcDbLine
 10
-365.0000000000054
 20
-171.0445943818904
 30
0.0
 11
364.9999999999927
 21
-657.7100183333177
 31
0.0
  0
LINE
  5
25DB
330
295F
100
AcDbEntity
  8
0
 62
     0
100
AcDbLine
 10
-365.0000000000073
 20
-168.0446278464751
 30
0.0
 11
364.9999999999927
 21
-654.7100517979025
 31
0.0
  0
LINE
  5
25DC
330
295F
100
AcDbEntity
  8
0
 62
     0
100
AcDbLine
 10
-365.0000000000054
 20
-165.044661311058
 30
0.0
 11
364.9999999999927
 21
-651.7100852624864
 31
0.0
  0
LINE
  5
25DD
330
295F
100
AcDbEntity
  8
0
 62
     0
100
AcDbLine
 10
-360.5649318121505
 20
-165.0013993508446
 30
0.0
 11
364.9999999999908
 21
-648.7101187270702
 31
0.0
  0
LINE
  5
25DE
330
295F
100
AcDbEntity
  8
0
 62
     0
100
AcDbLine
 10
-356.0649705077377
 20
-165.0013993578604
 30
0.0
 11
364.9999999999927
 21
-645.7101521916536
 31
0.0
  0
LINE
  5
25DF
330
295F
100
AcDbEntity
  8
0
 62
     0
100
AcDbLine
 10
-351.5650092033229
 20
-165.0013993648817
 30
0.0
 11
364.9999999999908
 21
-642.7101856562376
 31
0.0
  0
LINE
  5
25E0
330
295F
100
AcDbEntity
  8
0
 62
     0
100
AcDbLine
 10
-347.065047898912
 20
-165.0013993718976
 30
0.0
 11
364.9999999999927
 21
-639.7102191208212
 31
0.0
  0
LINE
  5
25E1
330
295F
100
AcDbEntity
  8
0
 62
     0
100
AcDbLine
 10
-342.5650865944935
 20
-165.0013993789198
 30
0.0
 11
364.9999999999927
 21
-636.7102525854051
 31
0.0
  0
LINE
  5
25E2
330
295F
100
AcDbEntity
  8
0
 62
     0
100
AcDbLine
 10
-338.0651252900825
 20
-165.0013993859365
 30
0.0
 11
364.9999999999908
 21
-633.7102860499888
 31
0.0
  0
LINE
  5
25E3
330
295F
100
AcDbEntity
  8
0
 62
     0
100
AcDbLine
 10
-333.565163985666
 20
-165.0013993929569
 30
0.0
 11
364.9999999999927
 21
-630.7103195145733
 31
0.0
  0
LINE
  5
25E4
330
295F
100
AcDbEntity
  8
0
 62
     0
100
AcDbLine
 10
-329.0652026812551
 20
-165.0013993999746
 30
0.0
 11
364.9999999999908
 21
-627.7103529791566
 31
0.0
  0
LINE
  5
25E5
330
295F
100
AcDbEntity
  8
0
 62
     0
100
AcDbLine
 10
-324.5652413768402
 20
-165.001399406995
 30
0.0
 11
364.9999999999927
 21
-624.7103864437412
 31
0.0
  0
LINE
  5
25E6
330
295F
100
AcDbEntity
  8
0
 62
     0
100
AcDbLine
 10
-320.0652800724256
 20
-165.0013994140126
 30
0.0
 11
364.9999999999927
 21
-621.7104199083232
 31
0.0
  0
LINE
  5
25E7
330
295F
100
AcDbEntity
  8
0
 62
     0
100
AcDbLine
 10
-315.5653187680148
 20
-165.0013994210294
 30
0.0
 11
364.9999999999927
 21
-618.710453372908
 31
0.0
  0
LINE
  5
25E8
330
295F
100
AcDbEntity
  8
0
 62
     0
100
AcDbLine
 10
-311.0653574635983
 20
-165.0013994280498
 30
0.0
 11
364.9999999999927
 21
-615.7104868374918
 31
0.0
  0
LINE
  5
25E9
330
295F
100
AcDbEntity
  8
0
 62
     0
100
AcDbLine
 10
-306.5653961591888
 20
-165.0013994350665
 30
0.0
 11
364.9999999999927
 21
-612.7105203020756
 31
0.0
  0
LINE
  5
25EA
330
295F
100
AcDbEntity
  8
0
 62
     0
100
AcDbLine
 10
-302.0654348547723
 20
-165.0013994420878
 30
0.0
 11
364.9999999999927
 21
-609.7105537666593
 31
0.0
  0
LINE
  5
25EB
330
295F
100
AcDbEntity
  8
0
 62
     0
100
AcDbLine
 10
-297.5654735503594
 20
-165.0013994491054
 30
0.0
 11
364.9999999999908
 21
-606.7105872312422
 31
0.0
  0
LINE
  5
25EC
330
295F
100
AcDbEntity
  8
0
 62
     0
100
AcDbLine
 10
-293.0655122459466
 20
-165.0013994561241
 30
0.0
 11
364.9999999999927
 21
-603.7106206958278
 31
0.0
  0
LINE
  5
25ED
330
295F
100
AcDbEntity
  8
0
 62
     0
100
AcDbLine
 10
-288.565550941532
 20
-165.0013994631417
 30
0.0
 11
364.9999999999927
 21
-600.7106541604107
 31
0.0
  0
LINE
  5
25EE
330
295F
100
AcDbEntity
  8
0
 62
     0
100
AcDbLine
 10
-284.0655896371172
 20
-165.001399470163
 30
0.0
 11
364.9999999999927
 21
-597.7106876249952
 31
0.0
  0
LINE
  5
25EF
330
295F
100
AcDbEntity
  8
0
 62
     0
100
AcDbLine
 10
-279.5656283327025
 20
-165.0013994771816
 30
0.0
 11
364.9999999999908
 21
-594.7107210895775
 31
0.0
  0
LINE
  5
25F0
330
295F
100
AcDbEntity
  8
0
 62
     0
100
AcDbLine
 10
-275.0656670282915
 20
-165.0013994842002
 30
0.0
 11
364.9999999999927
 21
-591.710754554163
 31
0.0
  0
LINE
  5
25F1
330
295F
100
AcDbEntity
  8
0
 62
     0
100
AcDbLine
 10
-270.565705723875
 20
-165.0013994912187
 30
0.0
 11
364.9999999999908
 21
-588.710788018745
 31
0.0
  0
LINE
  5
25F2
330
295F
100
AcDbEntity
  8
0
 62
     0
100
AcDbLine
 10
-266.065744419464
 20
-165.0013994982364
 30
0.0
 11
364.9999999999945
 21
-585.7108214833315
 31
0.0
  0
LINE
  5
25F3
330
295F
100
AcDbEntity
  8
0
 62
     0
100
AcDbLine
 10
-261.5657831150511
 20
-165.001399505255
 30
0.0
 11
364.9999999999908
 21
-582.7108549479135
 31
0.0
  0
LINE
  5
25F4
330
295F
100
AcDbEntity
  8
0
 62
     0
100
AcDbLine
 10
-257.0658218106346
 20
-165.0013995122745
 30
0.0
 11
364.9999999999945
 21
-579.7108884124972
 31
0.0
  0
LINE
  5
25F5
330
295F
100
AcDbEntity
  8
0
 62
     0
100
AcDbLine
 10
-252.5658605062234
 20
-165.0013995192921
 30
0.0
 11
364.9999999999908
 21
-576.7109218770809
 31
0.0
  0
LINE
  5
25F6
330
295F
100
AcDbEntity
  8
0
 62
     0
100
AcDbLine
 10
-248.065899201807
 20
-165.0013995263116
 30
0.0
 11
364.9999999999927
 21
-573.7109553416637
 31
0.0
  0
LINE
  5
25F7
330
295F
100
AcDbEntity
  8
0
 62
     0
100
AcDbLine
 10
-243.565937897396
 20
-165.0013995333293
 30
0.0
 11
364.9999999999927
 21
-570.7109888062496
 31
0.0
  0
LINE
  5
25F8
330
295F
100
AcDbEntity
  8
0
 62
     0
100
AcDbLine
 10
-239.0659765929831
 20
-165.0013995403478
 30
0.0
 11
364.9999999999927
 21
-567.7110222708322
 31
0.0
  0
LINE
  5
25F9
330
295F
100
AcDbEntity
  8
0
 62
     0
100
AcDbLine
 10
-234.5660152885666
 20
-165.0013995473691
 30
0.0
 11
364.9999999999927
 21
-564.7110557354173
 31
0.0
  0
LINE
  5
25FA
330
295F
100
AcDbEntity
  8
0
 62
     0
100
AcDbLine
 10
-230.0660539841556
 20
-165.001399554385
 30
0.0
 11
364.9999999999908
 21
-561.7110891999991
 31
0.0
  0
LINE
  5
25FB
330
295F
100
AcDbEntity
  8
0
 62
     0
100
AcDbLine
 10
-225.5660926797391
 20
-165.0013995614063
 30
0.0
 11
364.9999999999927
 21
-558.7111226645848
 31
0.0
  0
LINE
  5
25FC
330
295F
100
AcDbEntity
  8
0
 62
     0
100
AcDbLine
 10
-221.0661313753262
 20
-165.0013995684239
 30
0.0
 11
364.9999999999908
 21
-555.7111561291677
 31
0.0
  0
LINE
  5
25FD
330
295F
100
AcDbEntity
  8
0
 62
     0
100
AcDbLine
 10
-216.5661700709115
 20
-165.0013995754443
 30
0.0
 11
364.9999999999927
 21
-552.7111895937532
 31
0.0
  0
LINE
  5
25FE
330
295F
100
AcDbEntity
  8
0
 62
     0
100
AcDbLine
 10
-212.0662087664987
 20
-165.0013995824602
 30
0.0
 11
364.9999999999927
 21
-549.7112230583352
 31
0.0
  0
LINE
  5
25FF
330
295F
100
AcDbEntity
  8
0
 62
     0
100
AcDbLine
 10
-207.5662474620876
 20
-165.0013995894796
 30
0.0
 11
364.9999999999927
 21
-546.71125652292
 31
0.0
  0
LINE
  5
2600
330
295F
100
AcDbEntity
  8
0
 62
     0
100
AcDbLine
 10
-203.0662861576729
 20
-165.0013995964981
 30
0.0
 11
364.9999999999927
 21
-543.7112899875028
 31
0.0
  0
LINE
  5
2601
330
295F
100
AcDbEntity
  8
0
 62
     0
100
AcDbLine
 10
-198.5663248532581
 20
-165.0013996035168
 30
0.0
 11
364.9999999999927
 21
-540.7113234520866
 31
0.0
  0
LINE
  5
2602
330
295F
100
AcDbEntity
  8
0
 62
     0
100
AcDbLine
 10
-194.0663635488436
 20
-165.0013996105372
 30
0.0
 11
364.9999999999927
 21
-537.7113569166712
 31
0.0
  0
LINE
  5
2603
330
295F
100
AcDbEntity
  8
0
 62
     0
100
AcDbLine
 10
-189.5664022444307
 20
-165.001399617553
 30
0.0
 11
364.9999999999927
 21
-534.7113903812533
 31
0.0
  0
LINE
  5
2604
330
295F
100
AcDbEntity
  8
0
 62
     0
100
AcDbLine
 10
-185.066440940016
 20
-165.0013996245743
 30
0.0
 11
364.9999999999927
 21
-531.7114238458389
 31
0.0
  0
LINE
  5
2605
330
295F
100
AcDbEntity
  8
0
 62
     0
100
AcDbLine
 10
-180.5664796356048
 20
-165.0013996315911
 30
0.0
 11
364.9999999999927
 21
-528.7114573104209
 31
0.0
  0
LINE
  5
2606
330
295F
100
AcDbEntity
  8
0
 62
     0
100
AcDbLine
 10
-176.0665183311921
 20
-165.0013996386105
 30
0.0
 11
364.9999999999927
 21
-525.7114907750072
 31
0.0
  0
LINE
  5
2607
330
295F
100
AcDbEntity
  8
0
 62
     0
100
AcDbLine
 10
-171.5665570267756
 20
-165.00139964563
 30
0.0
 11
364.9999999999927
 21
-522.7115242395893
 31
0.0
  0
LINE
  5
2608
330
295F
100
AcDbEntity
  8
0
 62
     0
100
AcDbLine
 10
-167.0665957223645
 20
-165.0013996526477
 30
0.0
 11
364.9999999999908
 21
-519.7115577041738
 31
0.0
  0
LINE
  5
2609
330
295F
100
AcDbEntity
  8
0
 62
     0
100
AcDbLine
 10
-162.5666344179499
 20
-165.0013996596662
 30
0.0
 11
364.9999999999927
 21
-516.7115911687568
 31
0.0
  0
LINE
  5
260A
330
295F
100
AcDbEntity
  8
0
 62
     0
100
AcDbLine
 10
-158.0666731135334
 20
-165.0013996666876
 30
0.0
 11
364.9999999999927
 21
-513.7116246333414
 31
0.0
  0
LINE
  5
260B
330
295F
100
AcDbEntity
  8
0
 62
     0
100
AcDbLine
 10
-153.5667118091205
 20
-165.0013996737052
 30
0.0
 11
364.9999999999927
 21
-510.7116580979243
 31
0.0
  0
LINE
  5
260C
330
295F
100
AcDbEntity
  8
0
 62
     0
100
AcDbLine
 10
-149.0667505047094
 20
-165.0013996807238
 30
0.0
 11
364.9999999999927
 21
-507.7116915625089
 31
0.0
  0
LINE
  5
260D
330
295F
100
AcDbEntity
  8
0
 62
     0
100
AcDbLine
 10
-144.5667892002966
 20
-165.0013996877405
 30
0.0
 11
364.9999999999927
 21
-504.711725027093
 31
0.0
  0
LINE
  5
260E
330
295F
100
AcDbEntity
  8
0
 62
     0
100
AcDbLine
 10
149.1999999999952
 20
-357.8454591920636
 30
0.0
 11
150.6339155972309
 21
-358.8014004825282
 31
0.0
  0
LINE
  5
260F
330
295F
100
AcDbEntity
  8
0
 62
     0
100
AcDbLine
 10
150.6339155972309
 20
-358.8014004825282
 30
0.0
 11
364.9999999999927
 21
-501.711758491675
 31
0.0
  0
LINE
  5
2610
330
295F
100
AcDbEntity
  8
0
 62
     0
100
AcDbLine
 10
-140.0668278958819
 20
-165.0013996947591
 30
0.0
 11
149.1999999999952
 21
-357.8454591920636
 31
0.0
  0
LINE
  5
2611
330
295F
100
AcDbEntity
  8
0
 62
     0
100
AcDbLine
 10
149.1999999999971
 20
-354.8454926566492
 30
0.0
 11
155.1338768911191
 21
-358.8014004825301
 31
0.0
  0
LINE
  5
2612
330
295F
100
AcDbEntity
  8
0
 62
     0
100
AcDbLine
 10
155.1338768911191
 20
-358.8014004825301
 30
0.0
 11
364.9999999999945
 21
-498.7117919562605
 31
0.0
  0
LINE
  5
2613
330
295F
100
AcDbEntity
  8
0
 62
     0
100
AcDbLine
 10
-135.5668665914672
 20
-165.0013997017794
 30
0.0
 11
149.1999999999971
 21
-354.8454926566492
 31
0.0
  0
LINE
  5
2614
330
295F
100
AcDbEntity
  8
0
 62
     0
100
AcDbLine
 10
149.1999999999952
 20
-351.8455261212312
 30
0.0
 11
159.6338381850037
 21
-358.8014004825301
 31
0.0
  0
LINE
  5
2615
330
295F
100
AcDbEntity
  8
0
 62
     0
100
AcDbLine
 10
159.6338381850037
 20
-358.8014004825301
 30
0.0
 11
364.9999999999927
 21
-495.7118254208426
 31
0.0
  0
LINE
  5
2616
330
295F
100
AcDbEntity
  8
0
 62
     0
100
AcDbLine
 10
-131.0669052870526
 20
-165.0013997087981
 30
0.0
 11
149.1999999999952
 21
-351.8455261212312
 31
0.0
  0
LINE
  5
2617
330
295F
100
AcDbEntity
  8
0
 62
     0
100
AcDbLine
 10
149.1999999999971
 20
-348.8455595858168
 30
0.0
 11
164.1337994788882
 21
-358.8014004825291
 31
0.0
  0
LINE
  5
2618
330
295F
100
AcDbEntity
  8
0
 62
     0
100
AcDbLine
 10
164.1337994788882
 20
-358.8014004825291
 30
0.0
 11
364.9999999999927
 21
-492.7118588854281
 31
0.0
  0
LINE
  5
2619
330
295F
100
AcDbEntity
  8
0
 62
     0
100
AcDbLine
 10
-126.5669439826397
 20
-165.0013997158166
 30
0.0
 11
149.1999999999971
 21
-348.845559585816
 31
0.0
  0
LINE
  5
261A
330
295F
100
AcDbEntity
  8
0
 62
     0
100
AcDbLine
 10
149.1999999999952
 20
-345.8455930503997
 30
0.0
 11
168.6337607727728
 21
-358.8014004825291
 31
0.0
  0
LINE
  5
261B
330
295F
100
AcDbEntity
  8
0
 62
     0
100
AcDbLine
 10
168.6337607727728
 20
-358.8014004825291
 30
0.0
 11
364.9999999999927
 21
-489.711892350011
 31
0.0
  0
LINE
  5
261C
330
295F
100
AcDbEntity
  8
0
 62
     0
100
AcDbLine
 10
-122.066982678225
 20
-165.0013997228352
 30
0.0
 11
149.1999999999952
 21
-345.8455930503997
 31
0.0
  0
LINE
  5
261D
330
295F
100
AcDbEntity
  8
0
 62
     0
100
AcDbLine
 10
149.1999999999971
 20
-342.8456265149844
 30
0.0
 11
173.133722066661
 21
-358.8014004825301
 31
0.0
  0
LINE
  5
261E
330
295F
100
AcDbEntity
  8
0
 62
     0
100
AcDbLine
 10
173.133722066661
 20
-358.8014004825301
 30
0.0
 11
364.9999999999927
 21
-486.7119258145958
 31
0.0
  0
LINE
  5
261F
330
295F
100
AcDbEntity
  8
0
 62
     0
100
AcDbLine
 10
-117.5670213738103
 20
-165.0013997298556
 30
0.0
 11
149.1999999999971
 21
-342.8456265149844
 31
0.0
  0
LINE
  5
2620
330
295F
100
AcDbEntity
  8
0
 62
     0
100
AcDbLine
 10
149.1999999999952
 20
-339.8456599795673
 30
0.0
 11
177.6336833605452
 21
-358.8014004825301
 31
0.0
  0
LINE
  5
2621
330
295F
100
AcDbEntity
  8
0
 62
     0
100
AcDbLine
 10
177.6336833605452
 20
-358.8014004825301
 30
0.0
 11
364.9999999999927
 21
-483.7119592791784
 31
0.0
  0
LINE
  5
2622
330
295F
100
AcDbEntity
  8
0
 62
     0
100
AcDbLine
 10
-113.0670600694011
 20
-165.0013997368724
 30
0.0
 11
149.1999999999952
 21
-339.8456599795673
 31
0.0
  0
LINE
  5
2623
330
295F
100
AcDbEntity
  8
0
 62
     0
100
AcDbLine
 10
149.1999999999971
 20
-336.8456934441519
 30
0.0
 11
182.13364465443
 21
-358.8014004825301
 31
0.0
  0
LINE
  5
2624
330
295F
100
AcDbEntity
  8
0
 62
     0
100
AcDbLine
 10
182.13364465443
 20
-358.8014004825301
 30
0.0
 11
364.9999999999927
 21
-480.7119927437631
 31
0.0
  0
LINE
  5
2625
330
295F
100
AcDbEntity
  8
0
 62
     0
100
AcDbLine
 10
-108.5670987649846
 20
-165.0013997438926
 30
0.0
 11
149.1999999999971
 21
-336.8456934441519
 31
0.0
  0
LINE
  5
2626
330
295F
100
AcDbEntity
  8
0
 62
     0
100
AcDbLine
 10
149.1999999999971
 20
-333.8457269087348
 30
0.0
 11
186.6336059483201
 21
-358.8014004825309
 31
0.0
  0
LINE
  5
2627
330
295F
100
AcDbEntity
  8
0
 62
     0
100
AcDbLine
 10
186.6336059483201
 20
-358.8014004825309
 30
0.0
 11
364.9999999999945
 21
-477.712026208347
 31
0.0
  0
LINE
  5
2628
330
295F
100
AcDbEntity
  8
0
 62
     0
100
AcDbLine
 10
-104.0671374605717
 20
-165.0013997509095
 30
0.0
 11
149.1999999999971
 21
-333.8457269087348
 31
0.0
  0
LINE
  5
2629
330
295F
100
AcDbEntity
  8
0
 62
     0
100
AcDbLine
 10
149.1999999999971
 20
-330.8457603733204
 30
0.0
 11
191.1335672422028
 21
-358.8014004825309
 31
0.0
  0
LINE
  5
262A
330
295F
100
AcDbEntity
  8
0
 62
     0
100
AcDbLine
 10
191.1335672422028
 20
-358.8014004825309
 30
0.0
 11
364.9999999999908
 21
-474.7120596729309
 31
0.0
  0
LINE
  5
262B
330
295F
100
AcDbEntity
  8
0
 62
     0
100
AcDbLine
 10
-99.56717615615886
 20
-165.001399757929
 30
0.0
 11
149.1999999999971
 21
-330.8457603733204
 31
0.0
  0
LINE
  5
262C
330
295F
100
AcDbEntity
  8
0
 62
     0
100
AcDbLine
 10
149.1999999999971
 20
-327.8457938379033
 30
0.0
 11
195.6335285360891
 21
-358.8014004825309
 31
0.0
  0
LINE
  5
262D
330
295F
100
AcDbEntity
  8
0
 62
     0
100
AcDbLine
 10
195.6335285360891
 20
-358.8014004825309
 30
0.0
 11
364.9999999999927
 21
-471.7120931375136
 31
0.0
  0
LINE
  5
262E
330
295F
100
AcDbEntity
  8
0
 62
     0
100
AcDbLine
 10
-95.0672148517424
 20
-165.0013997649485
 30
0.0
 11
149.1999999999971
 21
-327.8457938379033
 31
0.0
  0
LINE
  5
262F
330
295F
100
AcDbEntity
  8
0
 62
     0
100
AcDbLine
 10
149.1999999999971
 20
-324.845827302488
 30
0.0
 11
200.1334898299719
 21
-358.8014004825301
 31
0.0
  0
LINE
  5
2630
330
295F
100
AcDbEntity
  8
0
 62
     0
100
AcDbLine
 10
200.1334898299719
 20
-358.8014004825301
 30
0.0
 11
364.9999999999908
 21
-468.7121266020985
 31
0.0
  0
LINE
  5
2631
330
295F
100
AcDbEntity
  8
0
 62
     0
100
AcDbLine
 10
-90.56725354733316
 20
-165.001399771967
 30
0.0
 11
149.1999999999971
 21
-324.845827302488
 31
0.0
  0
LINE
  5
2632
330
295F
100
AcDbEntity
  8
0
 62
     0
100
AcDbLine
 10
149.1999999999971
 20
-321.8458607670708
 30
0.0
 11
204.6334511238583
 21
-358.8014004825301
 31
0.0
  0
LINE
  5
2633
330
295F
100
AcDbEntity
  8
0
 62
     0
100
AcDbLine
 10
204.6334511238583
 20
-358.8014004825301
 30
0.0
 11
364.9999999999927
 21
-465.7121600666815
 31
0.0
  0
LINE
  5
2634
330
295F
100
AcDbEntity
  8
0
 62
     0
100
AcDbLine
 10
-86.0672922429185
 20
-165.0013997789847
 30
0.0
 11
149.1999999999971
 21
-321.8458607670708
 31
0.0
  0
LINE
  5
2635
330
295F
100
AcDbEntity
  8
0
 62
     0
100
AcDbLine
 10
149.1999999999971
 20
-318.8458942316529
 30
0.0
 11
209.1334124177465
 21
-358.8014004825291
 31
0.0
  0
LINE
  5
2636
330
295F
100
AcDbEntity
  8
0
 62
     0
100
AcDbLine
 10
209.1334124177465
 20
-358.8014004825291
 30
0.0
 11
364.9999999999927
 21
-462.7121935312643
 31
0.0
  0
LINE
  5
2637
330
295F
100
AcDbEntity
  8
0
 62
     0
100
AcDbLine
 10
-81.56733093850382
 20
-165.0013997860023
 30
0.0
 11
149.1999999999971
 21
-318.8458942316529
 31
0.0
  0
LINE
  5
2638
330
295F
100
AcDbEntity
  8
0
 62
     0
100
AcDbLine
 10
149.1999999999952
 20
-315.8459276962377
 30
0.0
 11
213.6333737116274
 21
-358.8014004825291
 31
0.0
  0
LINE
  5
2639
330
295F
100
AcDbEntity
  8
0
 62
     0
100
AcDbLine
 10
213.6333737116274
 20
-358.8014004825291
 30
0.0
 11
364.9999999999927
 21
-459.7122269958497
 31
0.0
  0
LINE
  5
263A
330
295F
100
AcDbEntity
  8
0
 62
     0
100
AcDbLine
 10
-77.06736963409094
 20
-165.0013997930218
 30
0.0
 11
149.1999999999952
 21
-315.8459276962377
 31
0.0
  0
LINE
  5
263B
330
295F
100
AcDbEntity
  8
0
 62
     0
100
AcDbLine
 10
149.1999999999971
 20
-312.8459611608214
 30
0.0
 11
218.1333350055156
 21
-358.8014004825282
 31
0.0
  0
LINE
  5
263C
330
295F
100
AcDbEntity
  8
0
 62
     0
100
AcDbLine
 10
218.1333350055156
 20
-358.8014004825282
 30
0.0
 11
364.9999999999927
 21
-456.7122604604327
 31
0.0
  0
LINE
  5
263D
330
295F
100
AcDbEntity
  8
0
 62
     0
100
AcDbLine
 10
-72.56740832967444
 20
-165.0013998000413
 30
0.0
 11
149.1999999999971
 21
-312.8459611608214
 31
0.0
  0
LINE
  5
263E
330
295F
100
AcDbEntity
  8
0
 62
     0
100
AcDbLine
 10
149.1999999999952
 20
-309.8459946254061
 30
0.0
 11
222.6332962994002
 21
-358.8014004825301
 31
0.0
  0
LINE
  5
263F
330
295F
100
AcDbEntity
  8
0
 62
     0
100
AcDbLine
 10
222.6332962994002
 20
-358.8014004825301
 30
0.0
 11
364.9999999999927
 21
-453.7122939250172
 31
0.0
  0
LINE
  5
2640
330
295F
100
AcDbEntity
  8
0
 62
     0
100
AcDbLine
 10
-68.06744702526157
 20
-165.0013998070617
 30
0.0
 11
149.1999999999952
 21
-309.8459946254061
 31
0.0
  0
LINE
  5
2641
330
295F
100
AcDbEntity
  8
0
 62
     0
100
AcDbLine
 10
149.1999999999971
 20
-306.8460280899889
 30
0.0
 11
227.1332575932884
 21
-358.8014004825301
 31
0.0
  0
LINE
  5
2642
330
295F
100
AcDbEntity
  8
0
 62
     0
100
AcDbLine
 10
227.1332575932884
 20
-358.8014004825301
 30
0.0
 11
364.9999999999927
 21
-450.7123273896003
 31
0.0
  0
LINE
  5
2643
330
295F
100
AcDbEntity
  8
0
 62
     0
100
AcDbLine
 10
-63.56748572084871
 20
-165.0013998140775
 30
0.0
 11
149.1999999999971
 21
-306.8460280899889
 31
0.0
  0
LINE
  5
2644
330
295F
100
AcDbEntity
  8
0
 62
     0
100
AcDbLine
 10
149.1999999999971
 20
-303.8460615545737
 30
0.0
 11
231.6332188871711
 21
-358.8014004825291
 31
0.0
  0
LINE
  5
2645
330
295F
100
AcDbEntity
  8
0
 62
     0
100
AcDbLine
 10
231.6332188871711
 20
-358.8014004825291
 30
0.0
 11
364.9999999999945
 21
-447.7123608541848
 31
0.0
  0
LINE
  5
2646
330
295F
100
AcDbEntity
  8
0
 62
     0
100
AcDbLine
 10
-59.06752441643401
 20
-165.0013998210978
 30
0.0
 11
149.1999999999971
 21
-303.8460615545737
 31
0.0
  0
LINE
  5
2647
330
295F
100
AcDbEntity
  8
0
 62
     0
100
AcDbLine
 10
149.1999999999971
 20
-300.8460950191566
 30
0.0
 11
236.1331801810575
 21
-358.8014004825291
 31
0.0
  0
LINE
  5
2648
330
295F
100
AcDbEntity
  8
0
 62
     0
100
AcDbLine
 10
236.1331801810611
 20
-358.8014004825309
 30
0.0
 11
364.9999999999927
 21
-444.7123943187689
 31
0.0
  0
LINE
  5
2649
330
295F
100
AcDbEntity
  8
0
 62
     0
100
AcDbLine
 10
-54.56756311201935
 20
-165.0013998281174
 30
0.0
 11
149.1999999999971
 21
-300.8460950191566
 31
0.0
  0
LINE
  5
264A
330
295F
100
AcDbEntity
  8
0
 62
     0
100
AcDbLine
 10
149.1999999999971
 20
-297.8461284837422
 30
0.0
 11
240.6331414749439
 21
-358.8014004825309
 31
0.0
  0
LINE
  5
264B
330
295F
100
AcDbEntity
  8
0
 62
     0
100
AcDbLine
 10
240.6331414749439
 20
-358.8014004825309
 30
0.0
 11
364.9999999999927
 21
-441.7124277833527
 31
0.0
  0
LINE
  5
264C
330
295F
100
AcDbEntity
  8
0
 62
     0
100
AcDbLine
 10
-50.0676018076083
 20
-165.0013998351351
 30
0.0
 11
149.1999999999971
 21
-297.8461284837422
 31
0.0
  0
LINE
  5
264D
330
295F
100
AcDbEntity
  8
0
 62
     0
100
AcDbLine
 10
149.1999999999971
 20
-294.846161948325
 30
0.0
 11
245.1331027688302
 21
-358.8014004825301
 31
0.0
  0
LINE
  5
264E
330
295F
100
AcDbEntity
  8
0
 62
     0
100
AcDbLine
 10
245.1331027688302
 20
-358.8014004825301
 30
0.0
 11
364.9999999999927
 21
-438.7124612479357
 31
0.0
  0
LINE
  5
264F
330
295F
100
AcDbEntity
  8
0
 62
     0
100
AcDbLine
 10
-45.56764050319361
 20
-165.0013998421546
 30
0.0
 11
149.1999999999971
 21
-294.846161948325
 31
0.0
  0
LINE
  5
2650
330
295F
100
AcDbEntity
  8
0
 62
     0
100
AcDbLine
 10
149.1999999999971
 20
-291.8461954129089
 30
0.0
 11
249.6330640627129
 21
-358.8014004825301
 31
0.0
  0
LINE
  5
2651
330
295F
100
AcDbEntity
  8
0
 62
     0
100
AcDbLine
 10
249.6330640627129
 20
-358.8014004825301
 30
0.0
 11
364.9999999999927
 21
-435.7124947125202
 31
0.0
  0
LINE
  5
2652
330
295F
100
AcDbEntity
  8
0
 62
     0
100
AcDbLine
 10
-41.06767919878075
 20
-165.0013998491722
 30
0.0
 11
149.1999999999971
 21
-291.8461954129089
 31
0.0
  0
LINE
  5
2653
330
295F
100
AcDbEntity
  8
0
 62
     0
100
AcDbLine
 10
149.1999999999952
 20
-288.8462288774917
 30
0.0
 11
254.1330253566012
 21
-358.8014004825317
 31
0.0
  0
LINE
  5
2654
330
295F
100
AcDbEntity
  8
0
 62
     0
100
AcDbLine
 10
254.1330253566012
 20
-358.8014004825317
 30
0.0
 11
364.9999999999927
 21
-432.7125281771031
 31
0.0
  0
LINE
  5
2655
330
295F
100
AcDbEntity
  8
0
 62
     0
100
AcDbLine
 10
-36.56771789436789
 20
-165.0013998561908
 30
0.0
 11
149.1999999999952
 21
-288.8462288774917
 31
0.0
  0
LINE
  5
2656
330
295F
100
AcDbEntity
  8
0
 62
     0
100
AcDbLine
 10
149.1999999999971
 20
-285.8462623420765
 30
0.0
 11
258.6329866504857
 21
-358.8014004825309
 31
0.0
  0
LINE
  5
2657
330
295F
100
AcDbEntity
  8
0
 62
     0
100
AcDbLine
 10
258.6329866504857
 20
-358.8014004825309
 30
0.0
 11
364.9999999999927
 21
-429.7125616416888
 31
0.0
  0
LINE
  5
2658
330
295F
100
AcDbEntity
  8
0
 62
     0
100
AcDbLine
 10
-32.0677565899514
 20
-165.0013998632112
 30
0.0
 11
149.1999999999971
 21
-285.8462623420765
 31
0.0
  0
LINE
  5
2659
330
295F
100
AcDbEntity
  8
0
 62
     0
100
AcDbLine
 10
149.1999999999971
 20
-282.8462958066602
 30
0.0
 11
263.1329479443739
 21
-358.8014004825309
 31
0.0
  0
LINE
  5
265A
330
295F
100
AcDbEntity
  8
0
 62
     0
100
AcDbLine
 10
263.1329479443739
 20
-358.8014004825309
 30
0.0
 11
364.9999999999945
 21
-426.7125951062715
 31
0.0
  0
LINE
  5
265B
330
295F
100
AcDbEntity
  8
0
 62
     0
100
AcDbLine
 10
-27.56779528554034
 20
-165.0013998702279
 30
0.0
 11
149.1999999999971
 21
-282.8462958066602
 31
0.0
  0
LINE
  5
265C
330
295F
100
AcDbEntity
  8
0
 62
     0
100
AcDbLine
 10
149.1999999999971
 20
-279.8463292712431
 30
0.0
 11
267.6329092382548
 21
-358.8014004825282
 31
0.0
  0
LINE
  5
265D
330
295F
100
AcDbEntity
  8
0
 62
     0
100
AcDbLine
 10
267.6329092382548
 20
-358.8014004825282
 30
0.0
 11
364.9999999999927
 21
-423.7126285708545
 31
0.0
  0
LINE
  5
265E
330
295F
100
AcDbEntity
  8
0
 62
     0
100
AcDbLine
 10
-23.06783398112748
 20
-165.0013998772465
 30
0.0
 11
149.1999999999971
 21
-279.8463292712431
 31
0.0
  0
LINE
  5
265F
330
295F
100
AcDbEntity
  8
0
 62
     0
100
AcDbLine
 10
149.1999999999971
 20
-276.8463627358278
 30
0.0
 11
272.132870532143
 21
-358.8014004825301
 31
0.0
  0
LINE
  5
2660
330
295F
100
AcDbEntity
  8
0
 62
     0
100
AcDbLine
 10
272.132870532143
 20
-358.8014004825301
 30
0.0
 11
364.9999999999945
 21
-420.7126620354392
 31
0.0
  0
LINE
  5
2661
330
295F
100
AcDbEntity
  8
0
 62
     0
100
AcDbLine
 10
-18.56787267671279
 20
-165.001399884265
 30
0.0
 11
149.1999999999971
 21
-276.8463627358278
 31
0.0
  0
LINE
  5
2662
330
295F
100
AcDbEntity
  8
0
 62
     0
100
AcDbLine
 10
149.1999999999971
 20
-273.8463962004107
 30
0.0
 11
276.6328318260276
 21
-358.8014004825291
 31
0.0
  0
LINE
  5
2663
330
295F
100
AcDbEntity
  8
0
 62
     0
100
AcDbLine
 10
276.6328318260276
 20
-358.8014004825291
 30
0.0
 11
364.9999999999927
 21
-417.7126955000217
 31
0.0
  0
LINE
  5
2664
330
295F
100
AcDbEntity
  8
0
 62
     0
100
AcDbLine
 10
-14.06791137229993
 20
-165.0013998912836
 30
0.0
 11
149.1999999999971
 21
-273.8463962004107
 31
0.0
  0
LINE
  5
2665
330
295F
100
AcDbEntity
  8
0
 62
     0
100
AcDbLine
 10
149.1999999999971
 20
-270.8464296649954
 30
0.0
 11
281.1327931199121
 21
-358.8014004825291
 31
0.0
  0
LINE
  5
2666
330
295F
100
AcDbEntity
  8
0
 62
     0
100
AcDbLine
 10
281.1327931199121
 20
-358.8014004825291
 30
0.0
 11
364.9999999999927
 21
-414.7127289646069
 31
0.0
  0
LINE
  5
2667
330
295F
100
AcDbEntity
  8
0
 62
     0
100
AcDbLine
 10
-9.567950067885247
 20
-165.0013998983031
 30
0.0
 11
149.1999999999952
 21
-270.8464296649945
 31
0.0
  0
LINE
  5
2668
330
295F
100
AcDbEntity
  8
0
 62
     0
100
AcDbLine
 10
149.1999999999989
 20
-267.8464631295792
 30
0.0
 11
285.6327544137985
 21
-358.8014004825291
 31
0.0
  0
LINE
  5
2669
330
295F
100
AcDbEntity
  8
0
 62
     0
100
AcDbLine
 10
285.6327544138021
 20
-358.8014004825309
 30
0.0
 11
364.9999999999927
 21
-411.7127624291897
 31
0.0
  0
LINE
  5
266A
330
295F
100
AcDbEntity
  8
0
 62
     0
100
AcDbLine
 10
-5.067988763468744
 20
-165.0013999053226
 30
0.0
 11
149.1999999999989
 21
-267.8464631295792
 31
0.0
  0
LINE
  5
266B
330
295F
100
AcDbEntity
  8
0
 62
     0
100
AcDbLine
 10
149.1999999999971
 20
-264.8464965941639
 30
0.0
 11
290.1327157076849
 21
-358.8014004825301
 31
0.0
  0
LINE
  5
266C
330
295F
100
AcDbEntity
  8
0
 62
     0
100
AcDbLine
 10
290.1327157076849
 20
-358.8014004825301
 30
0.0
 11
364.9999999999927
 21
-408.7127958937743
 31
0.0
  0
LINE
  5
266D
330
295F
100
AcDbEntity
  8
0
 62
     0
100
AcDbLine
 10
-0.5680274590595218
 20
-165.0013999123412
 30
0.0
 11
149.1999999999952
 21
-264.846496594163
 31
0.0
  0
LINE
  5
266E
330
295F
100
AcDbEntity
  8
0
 62
     0
100
AcDbLine
 10
149.1999999999989
 20
-261.8465300587468
 30
0.0
 11
294.6326770015712
 21
-358.8014004825301
 31
0.0
  0
LINE
  5
266F
330
295F
100
AcDbEntity
  8
0
 62
     0
100
AcDbLine
 10
294.6326770015712
 20
-358.8014004825301
 30
0.0
 11
364.9999999999927
 21
-405.7128293583572
 31
0.0
  0
LINE
  5
2670
330
295F
100
AcDbEntity
  8
0
 62
     0
100
AcDbLine
 10
3.931933845356976
 20
-165.0013999193595
 30
0.0
 11
149.1999999999971
 21
-261.8465300587459
 31
0.0
  0
LINE
  5
2671
330
295F
100
AcDbEntity
  8
0
 62
     0
100
AcDbLine
 10
149.1999999999952
 20
-258.8465635233306
 30
0.0
 11
299.132638295454
 21
-358.8014004825291
 31
0.0
  0
LINE
  5
2672
330
295F
100
AcDbEntity
  8
0
 62
     0
100
AcDbLine
 10
299.132638295454
 20
-358.8014004825291
 30
0.0
 11
364.9999999999927
 21
-402.7128628229418
 31
0.0
  0
LINE
  5
2673
330
295F
100
AcDbEntity
  8
0
 62
     0
100
AcDbLine
 10
8.431895149771662
 20
-165.0013999263801
 30
0.0
 11
149.1999999999952
 21
-258.8465635233306
 31
0.0
  0
LINE
  5
2674
330
295F
100
AcDbEntity
  8
0
 62
     0
100
AcDbLine
 10
149.1999999999971
 20
-255.8465969879135
 30
0.0
 11
303.6325995893439
 21
-358.8014004825309
 31
0.0
  0
LINE
  5
2675
330
295F
100
AcDbEntity
  8
0
 62
     0
100
AcDbLine
 10
303.6325995893439
 20
-358.8014004825309
 30
0.0
 11
364.9999999999927
 21
-399.7128962875258
 31
0.0
  0
LINE
  5
2676
330
295F
100
AcDbEntity
  8
0
 62
     0
100
AcDbLine
 10
12.93185645418271
 20
-165.001399933396
 30
0.0
 11
149.1999999999971
 21
-255.8465969879135
 31
0.0
  0
LINE
  5
2677
330
295F
100
AcDbEntity
  8
0
 62
     0
100
AcDbLine
 10
149.1999999999952
 20
-252.8466304524982
 30
0.0
 11
308.1325608832267
 21
-358.8014004825309
 31
0.0
  0
LINE
  5
2678
330
295F
100
AcDbEntity
  8
0
 62
     0
100
AcDbLine
 10
308.1325608832267
 20
-358.8014004825309
 30
0.0
 11
364.9999999999927
 21
-396.7129297521105
 31
0.0
  0
LINE
  5
2679
330
295F
100
AcDbEntity
  8
0
 62
     0
100
AcDbLine
 10
17.43181775859739
 20
-165.0013999404173
 30
0.0
 11
149.1999999999952
 21
-252.8466304524982
 31
0.0
  0
LINE
  5
267A
330
295F
100
AcDbEntity
  8
0
 62
     0
100
AcDbLine
 10
149.1999999999971
 20
-249.846663917082
 30
0.0
 11
312.6325221771131
 21
-358.8014004825301
 31
0.0
  0
LINE
  5
267B
330
295F
100
AcDbEntity
  8
0
 62
     0
100
AcDbLine
 10
312.6325221771131
 20
-358.8014004825301
 30
0.0
 11
364.9999999999927
 21
-393.7129632166934
 31
0.0
  0
LINE
  5
267C
330
295F
100
AcDbEntity
  8
0
 62
     0
100
AcDbLine
 10
21.93177906301025
 20
-165.0013999474331
 30
0.0
 11
149.1999999999971
 21
-249.846663917082
 31
0.0
  0
LINE
  5
267D
330
295F
100
AcDbEntity
  8
0
 62
     0
100
AcDbLine
 10
149.1999999999971
 20
-246.8466973816667
 30
0.0
 11
317.1324834709976
 21
-358.8014004825301
 31
0.0
  0
LINE
  5
267E
330
295F
100
AcDbEntity
  8
0
 62
     0
100
AcDbLine
 10
317.1324834709976
 20
-358.8014004825301
 30
0.0
 11
364.9999999999945
 21
-390.7129966812781
 31
0.0
  0
LINE
  5
267F
330
295F
100
AcDbEntity
  8
0
 62
     0
100
AcDbLine
 10
26.43174036742494
 20
-165.0013999544534
 30
0.0
 11
149.1999999999971
 21
-246.8466973816667
 31
0.0
  0
LINE
  5
2680
330
295F
100
AcDbEntity
  8
0
 62
     0
100
AcDbLine
 10
149.1999999999971
 20
-243.8467308462496
 30
0.0
 11
321.6324447648822
 21
-358.8014004825291
 31
0.0
  0
LINE
  5
2681
330
295F
100
AcDbEntity
  8
0
 62
     0
100
AcDbLine
 10
321.6324447648822
 20
-358.8014004825291
 30
0.0
 11
364.9999999999927
 21
-387.7130301458602
 31
0.0
  0
LINE
  5
2682
330
295F
100
AcDbEntity
  8
0
 62
     0
100
AcDbLine
 10
30.93170167183961
 20
-165.001399961473
 30
0.0
 11
149.1999999999952
 21
-243.8467308462485
 31
0.0
  0
LINE
  5
2683
330
295F
100
AcDbEntity
  8
0
 62
     0
100
AcDbLine
 10
149.1999999999971
 20
-240.8467643108342
 30
0.0
 11
326.1324060587704
 21
-358.8014004825309
 31
0.0
  0
LINE
  5
2684
330
295F
100
AcDbEntity
  8
0
 62
     0
100
AcDbLine
 10
326.1324060587704
 20
-358.8014004825309
 30
0.0
 11
364.9999999999927
 21
-384.7130636104448
 31
0.0
  0
LINE
  5
2685
330
295F
100
AcDbEntity
  8
0
 62
     0
100
AcDbLine
 10
35.43166297625067
 20
-165.0013999684906
 30
0.0
 11
149.1999999999971
 21
-240.8467643108342
 31
0.0
  0
LINE
  5
2686
330
295F
100
AcDbEntity
  8
0
 62
     0
100
AcDbLine
 10
149.1999999999971
 20
-237.8467977754171
 30
0.0
 11
330.6323673526513
 21
-358.8014004825282
 31
0.0
  0
LINE
  5
2687
330
295F
100
AcDbEntity
  8
0
 62
     0
100
AcDbLine
 10
330.6323673526513
 20
-358.8014004825282
 30
0.0
 11
364.9999999999927
 21
-381.7130970750286
 31
0.0
  0
LINE
  5
2688
330
295F
100
AcDbEntity
  8
0
 62
     0
100
AcDbLine
 10
39.93162428066354
 20
-165.0013999755091
 30
0.0
 11
149.1999999999952
 21
-237.8467977754162
 31
0.0
  0
LINE
  5
2689
330
295F
100
AcDbEntity
  8
0
 62
     0
100
AcDbLine
 10
149.1999999999971
 20
-234.8468312400009
 30
0.0
 11
335.1323286465395
 21
-358.8014004825282
 31
0.0
  0
LINE
  5
268A
330
295F
100
AcDbEntity
  8
0
 62
     0
100
AcDbLine
 10
335.1323286465412
 20
-358.8014004825301
 30
0.0
 11
364.9999999999927
 21
-378.7131305396114
 31
0.0
  0
LINE
  5
268B
330
295F
100
AcDbEntity
  8
0
 62
     0
100
AcDbLine
 10
44.4315855850782
 20
-165.001399982526
 30
0.0
 11
149.1999999999971
 21
-234.84683124
 31
0.0
  0
LINE
  5
268C
330
295F
100
AcDbEntity
  8
0
 62
     0
100
AcDbLine
 10
149.1999999999971
 20
-231.8468647045847
 30
0.0
 11
339.6322899404258
 21
-358.8014004825301
 31
0.0
  0
LINE
  5
268D
330
295F
100
AcDbEntity
  8
0
 62
     0
100
AcDbLine
 10
339.6322899404258
 20
-358.8014004825301
 30
0.0
 11
364.9999999999945
 21
-375.7131640041962
 31
0.0
  0
LINE
  5
268E
330
295F
100
AcDbEntity
  8
0
 62
     0
100
AcDbLine
 10
48.93154688949471
 20
-165.0013999895482
 30
0.0
 11
149.1999999999971
 21
-231.8468647045847
 31
0.0
  0
LINE
  5
268F
330
295F
100
AcDbEntity
  8
0
 62
     0
100
AcDbLine
 10
149.1999999999971
 20
-228.8468981691676
 30
0.0
 11
344.1322512343122
 21
-358.8014004825291
 31
0.0
  0
LINE
  5
2690
330
295F
100
AcDbEntity
  8
0
 62
     0
100
AcDbLine
 10
344.1322512343122
 20
-358.8014004825291
 30
0.0
 11
364.9999999999927
 21
-372.7131974687791
 31
0.0
  0
LINE
  5
2691
330
295F
100
AcDbEntity
  8
0
 62
     0
100
AcDbLine
 10
53.43150819390757
 20
-165.0013999965658
 30
0.0
 11
149.1999999999971
 21
-228.8468981691676
 31
0.0
  0
LINE
  5
2692
330
295F
100
AcDbEntity
  8
0
 62
     0
100
AcDbLine
 10
149.1999999999971
 20
-225.8469316337523
 30
0.0
 11
348.632212528195
 21
-358.8014004825291
 31
0.0
  0
LINE
  5
2693
330
295F
100
AcDbEntity
  8
0
 62
     0
100
AcDbLine
 10
348.632212528195
 20
-358.8014004825291
 30
0.0
 11
364.9999999999945
 21
-369.7132309333637
 31
0.0
  0
LINE
  5
2694
330
295F
100
AcDbEntity
  8
0
 62
     0
100
AcDbLine
 10
57.93146949832226
 20
-165.0014000035853
 30
0.0
 11
149.1999999999971
 21
-225.8469316337523
 31
0.0
  0
LINE
  5
2695
330
295F
100
AcDbEntity
  8
0
 62
     0
100
AcDbLine
 10
149.1999999999971
 20
-222.8469650983352
 30
0.0
 11
353.1321738220812
 21
-358.8014004825291
 31
0.0
  0
LINE
  5
2696
330
295F
100
AcDbEntity
  8
0
 62
     0
100
AcDbLine
 10
353.1321738220831
 20
-358.8014004825309
 30
0.0
 11
364.9999999999927
 21
-366.7132643979476
 31
0.0
  0
LINE
  5
2697
330
295F
100
AcDbEntity
  8
0
 62
     0
100
AcDbLine
 10
62.43143080273148
 20
-165.0014000106021
 30
0.0
 11
149.1999999999971
 21
-222.8469650983352
 31
0.0
  0
LINE
  5
2698
330
295F
100
AcDbEntity
  8
0
 62
     0
100
AcDbLine
 10
149.1999999999971
 20
-219.8469985629208
 30
0.0
 11
357.6321351159677
 21
-358.8014004825301
 31
0.0
  0
LINE
  5
2699
330
295F
100
AcDbEntity
  8
0
 62
     0
100
AcDbLine
 10
357.6321351159677
 20
-358.8014004825301
 30
0.0
 11
364.9999999999945
 21
-363.7132978625323
 31
0.0
  0
LINE
  5
269A
330
295F
100
AcDbEntity
  8
0
 62
     0
100
AcDbLine
 10
66.93139210714798
 20
-165.0014000176224
 30
0.0
 11
149.1999999999971
 21
-219.8469985629208
 31
0.0
  0
LINE
  5
269B
330
295F
100
AcDbEntity
  8
0
 62
     0
100
AcDbLine
 10
149.1999999999971
 20
-216.8470320275037
 30
0.0
 11
362.132096409854
 21
-358.8014004825301
 31
0.0
  0
LINE
  5
269C
330
295F
100
AcDbEntity
  8
0
 62
     0
100
AcDbLine
 10
362.132096409854
 20
-358.8014004825301
 30
0.0
 11
364.9999999999908
 21
-360.7133313271142
 31
0.0
  0
LINE
  5
269D
330
295F
100
AcDbEntity
  8
0
 62
     0
100
AcDbLine
 10
71.43135341156265
 20
-165.001400024641
 30
0.0
 11
149.1999999999971
 21
-216.8470320275037
 31
0.0
  0
LINE
  5
269E
330
295F
100
AcDbEntity
  8
0
 62
     0
100
AcDbLine
 10
149.1999999999971
 20
-213.8470654920884
 30
0.0
 11
365.0
 21
-357.7133647917044
 31
0.0
  0
LINE
  5
269F
330
295F
100
AcDbEntity
  8
0
 62
     0
100
AcDbLine
 10
75.9313147159737
 20
-165.0014000316596
 30
0.0
 11
149.1999999999971
 21
-213.8470654920884
 31
0.0
  0
LINE
  5
26A0
330
295F
100
AcDbEntity
  8
0
 62
     0
100
AcDbLine
 10
149.1999999999971
 20
-210.8470989566704
 30
0.0
 11
364.9999999999982
 21
-354.7133982562855
 31
0.0
  0
LINE
  5
26A1
330
295F
100
AcDbEntity
  8
0
 62
     0
100
AcDbLine
 10
80.43127602039019
 20
-165.0014000386781
 30
0.0
 11
149.1999999999971
 21
-210.8470989566704
 31
0.0
  0
LINE
  5
26A2
330
295F
100
AcDbEntity
  8
0
 62
     0
100
AcDbLine
 10
149.1999999999971
 20
-207.847132421256
 30
0.0
 11
364.9999999999963
 21
-351.7134317208702
 31
0.0
  0
LINE
  5
26A3
330
295F
100
AcDbEntity
  8
0
 62
     0
100
AcDbLine
 10
84.93123732479942
 20
-165.0014000456967
 30
0.0
 11
149.1999999999971
 21
-207.847132421256
 31
0.0
  0
LINE
  5
26A4
330
295F
100
AcDbEntity
  8
0
 62
     0
100
AcDbLine
 10
149.1999999999989
 20
-204.8471658858398
 30
0.0
 11
364.9999999999963
 21
-348.7134651854522
 31
0.0
  0
LINE
  5
26A5
330
295F
100
AcDbEntity
  8
0
 62
     0
100
AcDbLine
 10
89.43119862921594
 20
-165.0014000527153
 30
0.0
 11
149.1999999999971
 21
-204.847165885838
 31
0.0
  0
LINE
  5
26A6
330
295F
100
AcDbEntity
  8
0
 62
     0
100
AcDbLine
 10
149.1999999999971
 20
-201.8471993504244
 30
0.0
 11
364.9999999999963
 21
-345.7134986500378
 31
0.0
  0
LINE
  5
26A7
330
295F
100
AcDbEntity
  8
0
 62
     0
100
AcDbLine
 10
93.93115993363062
 20
-165.0014000597357
 30
0.0
 11
149.1999999999952
 21
-201.8471993504236
 31
0.0
  0
LINE
  5
26A8
330
295F
100
AcDbEntity
  8
0
 62
     0
100
AcDbLine
 10
149.1999999999971
 20
-198.8472328150064
 30
0.0
 11
364.9999999999963
 21
-342.7135321146197
 31
0.0
  0
LINE
  5
26A9
330
295F
100
AcDbEntity
  8
0
 62
     0
100
AcDbLine
 10
98.43112123804168
 20
-165.0014000667525
 30
0.0
 11
149.1999999999971
 21
-198.8472328150064
 31
0.0
  0
LINE
  5
26AA
330
295F
100
AcDbEntity
  8
0
 62
     0
100
AcDbLine
 10
149.1999999999971
 20
-195.8472662795892
 30
0.0
 11
364.9999999999982
 21
-339.7135655792035
 31
0.0
  0
LINE
  5
26AB
330
295F
100
AcDbEntity
  8
0
 62
     0
100
AcDbLine
 10
102.9310825424563
 20
-165.00140007377
 30
0.0
 11
149.1999999999971
 21
-195.8472662795892
 31
0.0
  0
LINE
  5
26AC
330
295F
100
AcDbEntity
  8
0
 62
     0
100
AcDbLine
 10
149.1999999999971
 20
-192.847299744174
 30
0.0
 11
364.9999999999963
 21
-336.7135990437883
 31
0.0
  0
LINE
  5
26AD
330
295F
100
AcDbEntity
  8
0
 62
     0
100
AcDbLine
 10
107.4310438468692
 20
-165.0014000807896
 30
0.0
 11
149.1999999999971
 21
-192.847299744174
 31
0.0
  0
LINE
  5
26AE
330
295F
100
AcDbEntity
  8
0
 62
     0
100
AcDbLine
 10
149.1999999999971
 20
-189.8473332087569
 30
0.0
 11
364.9999999999982
 21
-333.7136325083711
 31
0.0
  0
LINE
  5
26AF
330
295F
100
AcDbEntity
  8
0
 62
     0
100
AcDbLine
 10
111.9310051512857
 20
-165.00140008781
 30
0.0
 11
149.1999999999971
 21
-189.8473332087569
 31
0.0
  0
LINE
  5
26B0
330
295F
100
AcDbEntity
  8
0
 62
     0
100
AcDbLine
 10
149.1999999999971
 20
-186.8473666733424
 30
0.0
 11
364.9999999999963
 21
-330.7136659729558
 31
0.0
  0
LINE
  5
26B1
330
295F
100
AcDbEntity
  8
0
 62
     0
100
AcDbLine
 10
116.4309664556967
 20
-165.0014000948276
 30
0.0
 11
149.1999999999971
 21
-186.8473666733424
 31
0.0
  0
LINE
  5
26B2
330
295F
100
AcDbEntity
  8
0
 62
     0
100
AcDbLine
 10
149.1999999999971
 20
-183.8474001379254
 30
0.0
 11
364.9999999999963
 21
-327.7136994375378
 31
0.0
  0
LINE
  5
26B3
330
295F
100
AcDbEntity
  8
0
 62
     0
100
AcDbLine
 10
120.9309277601132
 20
-165.0014001018471
 30
0.0
 11
149.1999999999971
 21
-183.8474001379245
 31
0.0
  0
LINE
  5
26B4
330
295F
100
AcDbEntity
  8
0
 62
     0
100
AcDbLine
 10
149.1999999999989
 20
-180.8474336025101
 30
0.0
 11
364.9999999999963
 21
-324.7137329021225
 31
0.0
  0
LINE
  5
26B5
330
295F
100
AcDbEntity
  8
0
 62
     0
100
AcDbLine
 10
125.4308890645243
 20
-165.0014001088648
 30
0.0
 11
149.1999999999989
 21
-180.8474336025101
 31
0.0
  0
LINE
  5
26B6
330
295F
100
AcDbEntity
  8
0
 62
     0
100
AcDbLine
 10
149.1999999999971
 20
-177.847467067093
 30
0.0
 11
364.9999999999963
 21
-321.7137663667063
 31
0.0
  0
LINE
  5
26B7
330
295F
100
AcDbEntity
  8
0
 62
     0
100
AcDbLine
 10
129.930850368939
 20
-165.0014001158843
 30
0.0
 11
149.1999999999971
 21
-177.8474670670921
 31
0.0
  0
LINE
  5
26B8
330
295F
100
AcDbEntity
  8
0
 62
     0
100
AcDbLine
 10
149.1999999999989
 20
-174.8475005316777
 30
0.0
 11
364.9999999999963
 21
-318.713799831291
 31
0.0
  0
LINE
  5
26B9
330
295F
100
AcDbEntity
  8
0
 62
     0
100
AcDbLine
 10
134.4308116733536
 20
-165.0014001229046
 30
0.0
 11
149.1999999999971
 21
-174.8475005316768
 31
0.0
  0
LINE
  5
26BA
330
295F
100
AcDbEntity
  8
0
 62
     0
100
AcDbLine
 10
149.1999999999971
 20
-171.8475339962606
 30
0.0
 11
364.9999999999963
 21
-315.7138332958739
 31
0.0
  0
LINE
  5
26BB
330
295F
100
AcDbEntity
  8
0
 62
     0
100
AcDbLine
 10
138.9307729777647
 20
-165.0014001299205
 30
0.0
 11
149.1999999999971
 21
-171.8475339962606
 31
0.0
  0
LINE
  5
26BC
330
295F
100
AcDbEntity
  8
0
 62
     0
100
AcDbLine
 10
149.1999999999971
 20
-168.8475674608453
 30
0.0
 11
364.9999999999963
 21
-312.7138667604586
 31
0.0
  0
LINE
  5
26BD
330
295F
100
AcDbEntity
  8
0
 62
     0
100
AcDbLine
 10
143.4307342821812
 20
-165.0014001369418
 30
0.0
 11
149.1999999999971
 21
-168.8475674608453
 31
0.0
  0
LINE
  5
26BE
330
295F
100
AcDbEntity
  8
0
 62
     0
100
AcDbLine
 10
149.1999999999971
 20
-165.8476009254281
 30
0.0
 11
364.9999999999963
 21
-309.7139002250417
 31
0.0
  0
LINE
  5
26BF
330
295F
100
AcDbEntity
  8
0
 62
     0
100
AcDbLine
 10
147.9306955865904
 20
-165.0014001439576
 30
0.0
 11
149.1999999999971
 21
-165.8476009254281
 31
0.0
  0
LINE
  5
26C0
330
295F
100
AcDbEntity
  8
0
 62
     0
100
AcDbLine
 10
152.4306573883331
 20
-165.0014004825289
 30
0.0
 11
364.9999999999963
 21
-306.7139336896271
 31
0.0
  0
LINE
  5
26C1
330
295F
100
AcDbEntity
  8
0
 62
     0
100
AcDbLine
 10
156.9306186822214
 20
-165.0014004825298
 30
0.0
 11
364.9999999999982
 21
-303.71396715421
 31
0.0
  0
LINE
  5
26C2
330
295F
100
AcDbEntity
  8
0
 62
     0
100
AcDbLine
 10
161.4305799761077
 20
-165.0014004825289
 30
0.0
 11
364.9999999999963
 21
-300.714000618792
 31
0.0
  0
LINE
  5
26C3
330
295F
100
AcDbEntity
  8
0
 62
     0
100
AcDbLine
 10
165.9305412699922
 20
-165.0014004825289
 30
0.0
 11
364.9999999999963
 21
-297.7140340833766
 31
0.0
  0
LINE
  5
26C4
330
295F
100
AcDbEntity
  8
0
 62
     0
100
AcDbLine
 10
170.4305025638769
 20
-165.001400482528
 30
0.0
 11
364.9999999999963
 21
-294.7140675479595
 31
0.0
  0
LINE
  5
26C5
330
295F
100
AcDbEntity
  8
0
 62
     0
100
AcDbLine
 10
174.9304638577632
 20
-165.0014004825298
 30
0.0
 11
364.9999999999963
 21
-291.7141010125448
 31
0.0
  0
LINE
  5
26C6
330
295F
100
AcDbEntity
  8
0
 62
     0
100
AcDbLine
 10
179.4304251516514
 20
-165.0014004825298
 30
0.0
 11
364.9999999999982
 21
-288.7141344771281
 31
0.0
  0
LINE
  5
26C7
330
295F
100
AcDbEntity
  8
0
 62
     0
100
AcDbLine
 10
183.9303864455341
 20
-165.0014004825289
 30
0.0
 11
364.9999999999963
 21
-285.7141679417127
 31
0.0
  0
LINE
  5
26C8
330
295F
100
AcDbEntity
  8
0
 62
     0
100
AcDbLine
 10
188.4303477394242
 20
-165.0014004825307
 30
0.0
 11
364.9999999999982
 21
-282.7142014062956
 31
0.0
  0
LINE
  5
26C9
330
295F
100
AcDbEntity
  8
0
 62
     0
100
AcDbLine
 10
192.9303090333051
 20
-165.0014004825298
 30
0.0
 11
364.9999999999963
 21
-279.7142348708803
 31
0.0
  0
LINE
  5
26CA
330
295F
100
AcDbEntity
  8
0
 62
     0
100
AcDbLine
 10
197.4302703271933
 20
-165.0014004825298
 30
0.0
 11
364.9999999999982
 21
-276.7142683354641
 31
0.0
  0
LINE
  5
26CB
330
295F
100
AcDbEntity
  8
0
 62
     0
100
AcDbLine
 10
201.9302316210742
 20
-165.0014004825298
 30
0.0
 11
364.9999999999945
 21
-273.7143018000479
 31
0.0
  0
LINE
  5
26CC
330
295F
100
AcDbEntity
  8
0
 62
     0
100
AcDbLine
 10
206.430192914966
 20
-165.0014004825307
 30
0.0
 11
364.9999999999963
 21
-270.7143352646308
 31
0.0
  0
LINE
  5
26CD
330
295F
100
AcDbEntity
  8
0
 62
     0
100
AcDbLine
 10
210.9301542088488
 20
-165.0014004825307
 30
0.0
 11
364.9999999999963
 21
-267.7143687292155
 31
0.0
  0
LINE
  5
26CE
330
295F
100
AcDbEntity
  8
0
 62
     0
100
AcDbLine
 10
215.4301155027351
 20
-165.0014004825307
 30
0.0
 11
364.9999999999963
 21
-264.7144021937984
 31
0.0
  0
LINE
  5
26CF
330
295F
100
AcDbEntity
  8
0
 62
     0
100
AcDbLine
 10
219.9300767966215
 20
-165.0014004825298
 30
0.0
 11
364.9999999999963
 21
-261.7144356583813
 31
0.0
  0
LINE
  5
26D0
330
295F
100
AcDbEntity
  8
0
 62
     0
100
AcDbLine
 10
224.4300380905043
 20
-165.0014004825298
 30
0.0
 11
364.9999999999945
 21
-258.714469122966
 31
0.0
  0
LINE
  5
26D1
330
295F
100
AcDbEntity
  8
0
 62
     0
100
AcDbLine
 10
228.9299993843906
 20
-165.0014004825289
 30
0.0
 11
364.9999999999963
 21
-255.7145025875497
 31
0.0
  0
LINE
  5
26D2
330
295F
100
AcDbEntity
  8
0
 62
     0
100
AcDbLine
 10
233.4299606782752
 20
-165.0014004825289
 30
0.0
 11
364.9999999999963
 21
-252.7145360521335
 31
0.0
  0
LINE
  5
26D3
330
295F
100
AcDbEntity
  8
0
 62
     0
100
AcDbLine
 10
237.9299219721634
 20
-165.0014004825307
 30
0.0
 11
364.9999999999963
 21
-249.7145695167164
 31
0.0
  0
LINE
  5
26D4
330
295F
100
AcDbEntity
  8
0
 62
     0
100
AcDbLine
 10
242.4298832660479
 20
-165.0014004825298
 30
0.0
 11
364.9999999999963
 21
-246.7146029813012
 31
0.0
  0
LINE
  5
26D5
330
295F
100
AcDbEntity
  8
0
 62
     0
100
AcDbLine
 10
246.9298445599325
 20
-165.0014004825298
 30
0.0
 11
364.9999999999963
 21
-243.714636445885
 31
0.0
  0
LINE
  5
26D6
330
295F
100
AcDbEntity
  8
0
 62
     0
100
AcDbLine
 10
251.4298058538206
 20
-165.0014004825307
 30
0.0
 11
364.9999999999963
 21
-240.7146699104696
 31
0.0
  0
LINE
  5
26D7
330
295F
100
AcDbEntity
  8
0
 62
     0
100
AcDbLine
 10
255.9297671477052
 20
-165.0014004825307
 30
0.0
 11
364.9999999999963
 21
-237.7147033750524
 31
0.0
  0
LINE
  5
26D8
330
295F
100
AcDbEntity
  8
0
 62
     0
100
AcDbLine
 10
260.4297284415899
 20
-165.0014004825298
 30
0.0
 11
364.9999999999963
 21
-234.7147368396372
 31
0.0
  0
LINE
  5
26D9
330
295F
100
AcDbEntity
  8
0
 62
     0
100
AcDbLine
 10
264.9296897354761
 20
-165.0014004825298
 30
0.0
 11
364.9999999999963
 21
-231.7147703042192
 31
0.0
  0
LINE
  5
26DA
330
295F
100
AcDbEntity
  8
0
 62
     0
100
AcDbLine
 10
269.4296510293625
 20
-165.0014004825314
 30
0.0
 11
364.9999999999963
 21
-228.7148037688057
 31
0.0
  0
LINE
  5
26DB
330
295F
100
AcDbEntity
  8
0
 62
     0
100
AcDbLine
 10
273.9296123232453
 20
-165.0014004825289
 30
0.0
 11
364.9999999999963
 21
-225.7148372333876
 31
0.0
  0
LINE
  5
26DC
330
295F
100
AcDbEntity
  8
0
 62
     0
100
AcDbLine
 10
278.4295736171316
 20
-165.0014004825289
 30
0.0
 11
364.9999999999945
 21
-222.7148706979706
 31
0.0
  0
LINE
  5
26DD
330
295F
100
AcDbEntity
  8
0
 62
     0
100
AcDbLine
 10
282.929534911018
 20
-165.0014004825307
 30
0.0
 11
364.9999999999963
 21
-219.7149041625553
 31
0.0
  0
LINE
  5
26DE
330
295F
100
AcDbEntity
  8
0
 62
     0
100
AcDbLine
 10
287.4294962049043
 20
-165.0014004825298
 30
0.0
 11
364.9999999999963
 21
-216.7149376271382
 31
0.0
  0
LINE
  5
26DF
330
295F
100
AcDbEntity
  8
0
 62
     0
100
AcDbLine
 10
291.9294574987871
 20
-165.0014004825298
 30
0.0
 11
364.9999999999963
 21
-213.7149710917229
 31
0.0
  0
LINE
  5
26E0
330
295F
100
AcDbEntity
  8
0
 62
     0
100
AcDbLine
 10
296.4294187926771
 20
-165.0014004825314
 30
0.0
 11
364.9999999999945
 21
-210.7150045563057
 31
0.0
  0
LINE
  5
26E1
330
295F
100
AcDbEntity
  8
0
 62
     0
100
AcDbLine
 10
300.9293800865598
 20
-165.0014004825307
 30
0.0
 11
364.9999999999945
 21
-207.7150380208905
 31
0.0
  0
LINE
  5
26E2
330
295F
100
AcDbEntity
  8
0
 62
     0
100
AcDbLine
 10
305.4293413804462
 20
-165.0014004825307
 30
0.0
 11
364.9999999999945
 21
-204.7150714854733
 31
0.0
  0
LINE
  5
26E3
330
295F
100
AcDbEntity
  8
0
 62
     0
100
AcDbLine
 10
309.9293026743344
 20
-165.0014004825314
 30
0.0
 11
364.9999999999963
 21
-201.7151049500581
 31
0.0
  0
LINE
  5
26E4
330
295F
100
AcDbEntity
  8
0
 62
     0
100
AcDbLine
 10
314.4292639682189
 20
-165.0014004825314
 30
0.0
 11
364.9999999999945
 21
-198.7151384146409
 31
0.0
  0
LINE
  5
26E5
330
295F
100
AcDbEntity
  8
0
 62
     0
100
AcDbLine
 10
318.9292252621035
 20
-165.0014004825307
 30
0.0
 11
364.9999999999963
 21
-195.7151718792264
 31
0.0
  0
LINE
  5
26E6
330
295F
100
AcDbEntity
  8
0
 62
     0
100
AcDbLine
 10
323.429186555988
 20
-165.0014004825307
 30
0.0
 11
364.9999999999963
 21
-192.7152053438094
 31
0.0
  0
LINE
  5
26E7
330
295F
100
AcDbEntity
  8
0
 62
     0
100
AcDbLine
 10
327.9291478498763
 20
-165.0014004825324
 30
0.0
 11
364.9999999999963
 21
-189.715238808394
 31
0.0
  0
LINE
  5
26E8
330
295F
100
AcDbEntity
  8
0
 62
     0
100
AcDbLine
 10
332.4291091437589
 20
-165.0014004825298
 30
0.0
 11
364.9999999999963
 21
-186.7152722729769
 31
0.0
  0
LINE
  5
26E9
330
295F
100
AcDbEntity
  8
0
 62
     0
100
AcDbLine
 10
336.9290704376453
 20
-165.0014004825314
 30
0.0
 11
364.9999999999945
 21
-183.7153057375608
 31
0.0
  0
LINE
  5
26EA
330
295F
100
AcDbEntity
  8
0
 62
     0
100
AcDbLine
 10
341.4290317315316
 20
-165.0014004825314
 30
0.0
 11
364.9999999999963
 21
-180.7153392021436
 31
0.0
  0
LINE
  5
26EB
330
295F
100
AcDbEntity
  8
0
 62
     0
100
AcDbLine
 10
345.9289930254181
 20
-165.0014004825307
 30
0.0
 11
364.9999999999945
 21
-177.7153726667275
 31
0.0
  0
LINE
  5
26EC
330
295F
100
AcDbEntity
  8
0
 62
     0
100
AcDbLine
 10
350.4289543193008
 20
-165.0014004825307
 30
0.0
 11
364.9999999999963
 21
-174.7154061313122
 31
0.0
  0
LINE
  5
26ED
330
295F
100
AcDbEntity
  8
0
 62
     0
100
AcDbLine
 10
354.9289156131872
 20
-165.0014004825298
 30
0.0
 11
364.9999999999945
 21
-171.715439595895
 31
0.0
  0
LINE
  5
26EE
330
295F
100
AcDbEntity
  8
0
 62
     0
100
AcDbLine
 10
359.4288769070736
 20
-165.0014004825314
 30
0.0
 11
364.9999999999963
 21
-168.7154730604798
 31
0.0
  0
LINE
  5
26EF
330
295F
100
AcDbEntity
  8
0
 62
     0
100
AcDbLine
 10
363.9288382009618
 20
-165.0014004825314
 30
0.0
 11
364.9999999999945
 21
-165.7155065250608
 31
0.0
  0
ENDBLK
  5
26F0
330
295F
100
AcDbEntity
  8
0
100
AcDbBlockEnd
  0
ENDSEC
  0
SECTION
  2
ENTITIES
  0
TEXT
  5
953
330
288A
100
AcDbEntity
  8
OUTLINE
  6
Continuous
 62
     3
100
AcDbText
 10
-418.231467
 20
13.715189
 30
0.0
 40
64.0
  1
 
 41
0.9
100
AcDbText
  0
TEXT
  5
954
330
288A
100
AcDbEntity
  8
OUTLINE
  6
Continuous
 62
     3
100
AcDbText
 10
-418.231467
 20
13.715189
 30
0.0
 40
64.0
  1
 
 41
0.9
100
AcDbText
  0
TEXT
  5
955
330
288A
100
AcDbEntity
  8
OUTLINE
  6
Continuous
 62
     3
100
AcDbText
 10
1341.41903
 20
-706.0588199999997
 30
0.0
 40
64.0
  1
 
 41
0.9
100
AcDbText
  0
TEXT
  5
956
330
288A
100
AcDbEntity
  8
OUTLINE
  6
Continuous
 62
     3
100
AcDbText
 10
1341.41903
 20
-706.0588199999997
 30
0.0
 40
64.0
  1
 
 41
0.9
100
AcDbText
  0
TEXT
  5
957
330
288A
100
AcDbEntity
  8
OUTLINE
  6
Continuous
 62
     3
100
AcDbText
 10
1341.41903
 20
-706.0588199999997
 30
0.0
 40
64.0
  1
 
 41
0.9
100
AcDbText
  0
TEXT
  5
958
330
288A
100
AcDbEntity
  8
OUTLINE
  6
Continuous
 62
     3
100
AcDbText
 10
1341.41903
 20
-706.0588199999997
 30
0.0
 40
64.0
  1
 
 41
0.9
100
AcDbText
  0
LINE
  5
2778
330
288A
100
AcDbEntity
  8
DETAIL
100
AcDbLine
 10
-430.6017858154772
 20
-148.0014000000001
 30
0.0
 11
-449.4369297420743
 21
-845.806034850008
 31
0.0
  0
LINE
  5
2779
330
288A
100
AcDbEntity
  8
DETAIL
100
AcDbLine
 10
-430.0761627032589
 20
-127.5020706637714
 30
0.0
 11
-443.5000000000036
 21
-127.0014000000001
 31
0.0
  0
LINE
  5
277A
330
288A
100
AcDbEntity
  8
DETAIL
100
AcDbLine
 10
-430.0761627032589
 20
-127.5020706637714
 30
0.0
 11
-449.4369297420743
 21
-845.8060348500284
 31
0.0
  0
LINE
  5
277B
330
288A
100
AcDbEntity
  8
DETAIL
100
AcDbLine
 10
430.5478299455788
 20
-145.0014005847652
 30
0.0
 11
-430.5747937932574
 21
-145.0013992416451
 31
0.0
  0
LINE
  5
277C
330
288A
100
AcDbEntity
  8
DETAIL
100
AcDbLine
 10
383.1428326992972
 20
-803.0014000000001
 30
0.0
 11
-385.0
 21
-803.0014000000008
 31
0.0
  0
LINE
  5
277D
330
288A
100
AcDbEntity
  8
DETAIL
100
AcDbLine
 10
-362.1610570957092
 20
-917.0999998761915
 30
0.0
 11
362.1610429042954
 21
-917.0999999863166
 31
0.0
  0
LINE
  5
277E
330
288A
100
AcDbEntity
  8
DETAIL
100
AcDbLine
 10
-362.1610570957092
 20
-916.9927851000428
 30
0.0
 11
-451.1610562738463
 21
-916.9999998626595
 31
0.0
  0
LINE
  5
277F
330
288A
100
AcDbEntity
  8
OUTLINE
100
AcDbLine
 10
-450.6349659053884
 20
-896.0179122745692
 30
0.0
 11
-451.1349519196483
 21
-915.1038896865728
 31
0.0
  0
LINE
  5
2780
330
288A
100
AcDbEntity
  8
DETAIL
100
AcDbLine
 10
-451.1335819029809
 20
-915.044368137681
 30
0.0
 11
-449.0021091411907
 21
-833.6796102732247
 31
0.0
  0
LINE
  5
2781
330
288A
100
AcDbEntity
  8
DETAIL
100
AcDbLine
 10
-415.0
 20
0.0
 30
0.0
 11
-425.0
 21
0.0
 31
0.0
  0
LINE
  5
2782
330
288A
100
AcDbEntity
  8
DETAIL
100
AcDbLine
 10
-425.0
 20
-8.0
 30
0.0
 11
-425.0
 21
0.0
 31
0.0
  0
LINE
  5
2783
330
288A
100
AcDbEntity
  8
DETAIL
100
AcDbLine
 10
-415.0
 20
0.0
 30
0.0
 11
414.9999999999995
 21
0.0
 31
0.0
  0
LINE
  5
2784
330
288A
100
AcDbEntity
  8
DETAIL
100
AcDbLine
 10
-425.0
 20
-8.0
 30
0.0
 11
425.0
 21
-8.0
 31
0.0
  0
LINE
  5
2785
330
288A
100
AcDbEntity
  8
DETAIL
100
AcDbLine
 10
-386.0
 20
-127.0009494485275
 30
0.0
 11
-386.0
 21
-8.0
 31
0.0
  0
LINE
  5
2786
330
288A
100
AcDbEntity
  8
NOTE
100
AcDbLine
 10
-400.0
 20
-12.5
 30
0.0
 11
-400.0
 21
12.5
 31
0.0
  0
CIRCLE
  5
2787
330
288A
100
AcDbEntity
  8
ARRANGE
100
AcDbCircle
 10
0.0
 20
0.0
 30
0.0
 40
40.0
  0
LINE
  5
2788
330
288A
100
AcDbEntity
  8
ARRANGE
100
AcDbLine
 10
-19.19638649990156
 20
19.19638649990247
 30
0.0
 11
19.1963864999052
 21
-19.1963864999052
 31
0.0
  0
LINE
  5
2789
330
288A
100
AcDbEntity
  8
ARRANGE
100
AcDbLine
 10
19.19638649990156
 20
19.19638649990338
 30
0.0
 11
-19.19638649990156
 21
-19.19638649990338
 31
0.0
  0
LINE
  5
278A
330
288A
100
AcDbEntity
  8
BASIS
100
AcDbLine
 10
0.0
 20
25.0
 30
0.0
 11
0.0
 21
-963.9999998626594
 31
0.0
  0
LINE
  5
278B
330
288A
100
AcDbEntity
  8
DETAIL
100
AcDbLine
 10
-385.0
 20
-803.0014000000008
 30
0.0
 11
-451.1594891083841
 21
-916.9999997356178
 31
0.0
  0
LINE
  5
278C
330
288A
100
AcDbEntity
  8
DETAIL
100
AcDbLine
 10
-443.5000000000036
 20
-127.0014000000001
 30
0.0
 11
-464.5000000000036
 21
-916.9999998626595
 31
0.0
  0
LINE
  5
278D
330
288A
100
AcDbEntity
  8
DETAIL
100
AcDbLine
 10
-451.1610562738463
 20
-931.9999998626595
 30
0.0
 11
451.161056273846
 21
-931.9999998626595
 31
0.0
  0
LINE
  5
278E
330
288A
100
AcDbEntity
  8
DETAIL
100
AcDbLine
 10
-451.1610562738463
 20
-916.9999998626595
 30
0.0
 11
-451.1610562738463
 21
-938.9999998626594
 31
0.0
  0
LINE
  5
278F
330
288A
100
AcDbEntity
  8
DETAIL
100
AcDbLine
 10
-451.1610562738463
 20
-916.9999998626595
 30
0.0
 11
-464.5000000000036
 21
-916.9999998626595
 31
0.0
  0
LINE
  5
2790
330
288A
100
AcDbEntity
  8
DETAIL
100
AcDbLine
 10
-443.5000000000036
 20
-127.0014000000001
 30
0.0
 11
443.4999999999995
 21
-127.0014000000001
 31
0.0
  0
LINE
  5
2791
330
288A
100
AcDbEntity
  8
DETAIL
100
AcDbLine
 10
-385.0
 20
-145.0013993127294
 30
0.0
 11
-385.0
 21
-803.0014000000008
 31
0.0
  0
LINE
  5
2792
330
288A
100
AcDbEntity
  8
DETAIL
100
AcDbLine
 10
430.6017858154737
 20
-148.0014000000001
 30
0.0
 11
449.4369297420743
 21
-845.806034850008
 31
0.0
  0
LINE
  5
2793
330
288A
100
AcDbEntity
  8
DETAIL
100
AcDbLine
 10
430.0761627032583
 20
-127.5020706637714
 30
0.0
 11
443.4999999999995
 21
-127.0014000000001
 31
0.0
  0
LINE
  5
2794
330
288A
100
AcDbEntity
  8
DETAIL
100
AcDbLine
 10
430.0761627032583
 20
-127.5020706637714
 30
0.0
 11
449.4369297420743
 21
-845.8060348500284
 31
0.0
  0
LINE
  5
2795
330
288A
100
AcDbEntity
  8
DETAIL
100
AcDbLine
 10
362.1610570957092
 20
-916.9927851000428
 30
0.0
 11
451.161056273846
 21
-916.9999998626595
 31
0.0
  0
LINE
  5
2796
330
288A
100
AcDbEntity
  8
OUTLINE
100
AcDbLine
 10
450.6349659053848
 20
-896.0179122745692
 30
0.0
 11
451.1349519196477
 21
-915.1038896865728
 31
0.0
  0
LINE
  5
2797
330
288A
100
AcDbEntity
  8
DETAIL
100
AcDbLine
 10
451.1335819029809
 20
-915.044368137681
 30
0.0
 11
449.0021091411866
 21
-833.6796102732247
 31
0.0
  0
LINE
  5
2798
330
288A
100
AcDbEntity
  8
DETAIL
100
AcDbLine
 10
414.9999999999995
 20
0.0
 30
0.0
 11
425.0
 21
0.0
 31
0.0
  0
LINE
  5
2799
330
288A
100
AcDbEntity
  8
DETAIL
100
AcDbLine
 10
425.0
 20
-8.0
 30
0.0
 11
425.0
 21
0.0
 31
0.0
  0
LINE
  5
279A
330
288A
100
AcDbEntity
  8
DETAIL
100
AcDbLine
 10
386.0
 20
-127.0009494485275
 30
0.0
 11
386.0
 21
-8.0
 31
0.0
  0
LINE
  5
279B
330
288A
100
AcDbEntity
  8
NOTE
100
AcDbLine
 10
400.0
 20
-12.5
 30
0.0
 11
400.0
 21
12.5
 31
0.0
  0
LINE
  5
279C
330
288A
100
AcDbEntity
  8
DETAIL
100
AcDbLine
 10
385.0
 20
-803.0014000000008
 30
0.0
 11
451.1594891083841
 21
-916.9999997356178
 31
0.0
  0
LINE
  5
279D
330
288A
100
AcDbEntity
  8
DETAIL
100
AcDbLine
 10
443.4999999999995
 20
-127.0014000000001
 30
0.0
 11
464.4999999999995
 21
-916.9999998626595
 31
0.0
  0
LINE
  5
279E
330
288A
100
AcDbEntity
  8
DETAIL
100
AcDbLine
 10
451.161056273846
 20
-916.9999998626595
 30
0.0
 11
451.161056273846
 21
-938.9999998626594
 31
0.0
  0
LINE
  5
279F
330
288A
100
AcDbEntity
  8
DETAIL
100
AcDbLine
 10
451.161056273846
 20
-916.9999998626595
 30
0.0
 11
464.4999999999995
 21
-916.9999998626595
 31
0.0
  0
LINE
  5
27A0
330
288A
100
AcDbEntity
  8
DETAIL
100
AcDbLine
 10
385.0
 20
-145.0013993127294
 30
0.0
 11
385.0
 21
-803.0014000000008
 31
0.0
  0
LINE
  5
27A1
330
288A
100
AcDbEntity
  8
DETAIL
100
AcDbLine
 10
-365.0
 20
-165.0013993439243
 30
0.0
 11
365.0
 21
-165.001400482528
 31
0.0
  0
LINE
  5
27A2
330
288A
100
AcDbEntity
  8
DETAIL
100
AcDbLine
 10
-365.0
 20
-783.001400000001
 30
0.0
 11
365.0
 21
-783.0014000000001
 31
0.0
  0
LINE
  5
27A3
330
288A
100
AcDbEntity
  8
DETAIL
100
AcDbLine
 10
-365.0
 20
-165.0013993439243
 30
0.0
 11
-365.0
 21
-783.001400000001
 31
0.0
  0
LINE
  5
27A4
330
288A
100
AcDbEntity
  8
DETAIL
100
AcDbLine
 10
365.0
 20
-165.001400482528
 30
0.0
 11
365.0
 21
-783.0014000000001
 31
0.0
  0
LINE
  5
27A5
330
288A
100
AcDbEntity
  8
DETAIL
100
AcDbLine
 10
-451.1610562738463
 20
-938.9999998626594
 30
0.0
 11
451.161056273846
 21
-938.9999998626594
 31
0.0
  0
INSERT
  5
27A6
330
288A
100
AcDbEntity
  8
0
100
AcDbBlockReference
  2
*U68
 10
0.000000000001819
 20
-0.0000000000013642
 30
0.0
1001
ACAD
1000
DSTYLE
1002
{
1070
    41
1040
12.0
1070
    42
1040
20.0
1070
    43
1040
200.0
1070
    44
1040
20.0
1070
    73
1070
     0
1070
    74
1070
     0
1070
    77
1070
     1
1070
    78
1070
     8
1070
   140
1040
64.0
1070
   147
1040
50.0
1070
   172
1070
     1
1070
   174
1070
     1
1070
   275
1070
     0
1070
   284
1070
     0
1070
   285
1070
     0
1070
   286
1070
     0
1070
   341
1005
0
1070
   342
1005
0
1002
}
  0
INSERT
  5
27A7
330
288A
100
AcDbEntity
  8
0
100
AcDbBlockReference
  2
*U69
 10
0.000000000001819
 20
-0.0000000000013642
 30
0.0
  0
LINE
  5
27A8
330
288A
100
AcDbEntity
  8
NOTE
100
AcDbLine
 39
50.0
 10
387.5
 20
0.0
 30
0.0
 11
412.5
 21
0.0
 31
0.0
  0
LINE
  5
27A9
330
288A
100
AcDbEntity
  8
NOTE
100
AcDbLine
 39
50.0
 10
-412.5
 20
0.0
 30
0.0
 11
-387.5
 21
0.0
 31
0.0
  0
LINE
  5
27AA
330
288A
100
AcDbEntity
  8
OUTLINE
100
AcDbLine
 39
50.0
 10
-425.0
 20
0.0
 30
0.0
 11
-415.0
 21
0.0
 31
0.0
  0
LINE
  5
27AB
330
288A
100
AcDbEntity
  8
OUTLINE
100
AcDbLine
 39
50.0
 10
-415.0
 20
0.0
 30
0.0
 11
412.5
 21
0.0
 31
0.0
  0
LINE
  5
27AC
330
288A
100
AcDbEntity
  8
OUTLINE
100
AcDbLine
 39
50.0
 10
412.5
 20
0.0
 30
0.0
 11
425.0
 21
0.0
 31
0.0
  0
LINE
  5
27AD
330
288A
100
AcDbEntity
  8
OUTLINE
100
AcDbLine
 10
-430.6017858154772
 20
-148.0014000000001
 30
0.0
 11
-449.4369297420743
 21
-845.806034850008
 31
0.0
  0
LINE
  5
27AE
330
288A
100
AcDbEntity
  8
OUTLINE
100
AcDbLine
 10
-430.0761627032589
 20
-127.5020706637714
 30
0.0
 11
-443.5000000000036
 21
-127.0014000000001
 31
0.0
  0
LINE
  5
27AF
330
288A
100
AcDbEntity
  8
OUTLINE
100
AcDbLine
 10
-430.0761627032589
 20
-127.5020706637714
 30
0.0
 11
-449.4369297420743
 21
-845.8060348500284
 31
0.0
  0
LINE
  5
27B0
330
288A
100
AcDbEntity
  8
OUTLINE
100
AcDbLine
 10
430.5478299455788
 20
-145.0014005847652
 30
0.0
 11
-430.5747937932574
 21
-145.0013992416451
 31
0.0
  0
LINE
  5
27B1
330
288A
100
AcDbEntity
  8
OUTLINE
100
AcDbLine
 10
383.1428326992972
 20
-803.0014000000001
 30
0.0
 11
-385.0
 21
-803.0014000000008
 31
0.0
  0
LINE
  5
27B2
330
288A
100
AcDbEntity
  8
OUTLINE
100
AcDbLine
 10
-362.1610570957092
 20
-917.0999998761915
 30
0.0
 11
362.1610429042954
 21
-917.0999999863166
 31
0.0
  0
LINE
  5
27B3
330
288A
100
AcDbEntity
  8
OUTLINE
100
AcDbLine
 10
-362.1610570957092
 20
-916.9927851000428
 30
0.0
 11
-451.1610562738463
 21
-916.9999998626595
 31
0.0
  0
LINE
  5
27B4
330
288A
100
AcDbEntity
  8
OUTLINE
100
AcDbLine
 10
-451.1335819029809
 20
-915.044368137681
 30
0.0
 11
-449.0021091411907
 21
-833.6796102732247
 31
0.0
  0
LINE
  5
27B5
330
288A
100
AcDbEntity
  8
OUTLINE
100
AcDbLine
 10
-425.0
 20
-8.0
 30
0.0
 11
-425.0
 21
0.0
 31
0.0
  0
LINE
  5
27B6
330
288A
100
AcDbEntity
  8
OUTLINE
100
AcDbLine
 10
-425.0
 20
-8.0
 30
0.0
 11
425.0
 21
-8.0
 31
0.0
  0
LINE
  5
27B7
330
288A
100
AcDbEntity
  8
OUTLINE
100
AcDbLine
 10
-386.0
 20
-127.0009494485275
 30
0.0
 11
-386.0
 21
-8.0
 31
0.0
  0
LINE
  5
27B8
330
288A
100
AcDbEntity
  8
OUTLINE
100
AcDbLine
 10
-385.0
 20
-803.0014000000008
 30
0.0
 11
-451.1594891083841
 21
-916.9999997356178
 31
0.0
  0
LINE
  5
27B9
330
288A
100
AcDbEntity
  8
OUTLINE
100
AcDbLine
 10
-443.5000000000036
 20
-127.0014000000001
 30
0.0
 11
-464.5000000000036
 21
-916.9999998626595
 31
0.0
  0
LINE
  5
27BA
330
288A
100
AcDbEntity
  8
OUTLINE
100
AcDbLine
 10
-451.1610562738463
 20
-931.9999998626595
 30
0.0
 11
451.161056273846
 21
-931.9999998626595
 31
0.0
  0
LINE
  5
27BB
330
288A
100
AcDbEntity
  8
OUTLINE
100
AcDbLine
 10
-451.1610562738463
 20
-916.9999998626595
 30
0.0
 11
-451.1610562738463
 21
-938.9999998626594
 31
0.0
  0
LINE
  5
27BC
330
288A
100
AcDbEntity
  8
OUTLINE
100
AcDbLine
 10
-451.1610562738463
 20
-916.9999998626595
 30
0.0
 11
-464.5000000000036
 21
-916.9999998626595
 31
0.0
  0
LINE
  5
27BD
330
288A
100
AcDbEntity
  8
OUTLINE
100
AcDbLine
 10
-443.5000000000036
 20
-127.0014000000001
 30
0.0
 11
443.4999999999995
 21
-127.0014000000001
 31
0.0
  0
LINE
  5
27BE
330
288A
100
AcDbEntity
  8
OUTLINE
100
AcDbLine
 10
-385.0
 20
-145.0013993127294
 30
0.0
 11
-385.0
 21
-803.0014000000008
 31
0.0
  0
LINE
  5
27BF
330
288A
100
AcDbEntity
  8
OUTLINE
100
AcDbLine
 10
430.6017858154737
 20
-148.0014000000001
 30
0.0
 11
449.4369297420743
 21
-845.806034850008
 31
0.0
  0
LINE
  5
27C0
330
288A
100
AcDbEntity
  8
OUTLINE
100
AcDbLine
 10
430.0761627032583
 20
-127.5020706637714
 30
0.0
 11
449.4369297420743
 21
-845.8060348500284
 31
0.0
  0
LINE
  5
27C1
330
288A
100
AcDbEntity
  8
OUTLINE
100
AcDbLine
 10
362.1610570957092
 20
-916.9927851000428
 30
0.0
 11
451.161056273846
 21
-916.9999998626595
 31
0.0
  0
LINE
  5
27C2
330
288A
100
AcDbEntity
  8
OUTLINE
100
AcDbLine
 10
451.1335819029809
 20
-915.044368137681
 30
0.0
 11
449.0021091411866
 21
-833.6796102732247
 31
0.0
  0
LINE
  5
27C3
330
288A
100
AcDbEntity
  8
OUTLINE
100
AcDbLine
 10
425.0
 20
-8.0
 30
0.0
 11
425.0
 21
0.0
 31
0.0
  0
LINE
  5
27C4
330
288A
100
AcDbEntity
  8
OUTLINE
100
AcDbLine
 10
386.0
 20
-127.0009494485275
 30
0.0
 11
386.0
 21
-8.0
 31
0.0
  0
LINE
  5
27C5
330
288A
100
AcDbEntity
  8
OUTLINE
100
AcDbLine
 10
385.0
 20
-803.0014000000008
 30
0.0
 11
451.1594891083841
 21
-916.9999997356178
 31
0.0
  0
LINE
  5
27C6
330
288A
100
AcDbEntity
  8
OUTLINE
100
AcDbLine
 10
443.4999999999995
 20
-127.0014000000001
 30
0.0
 11
464.4999999999995
 21
-916.9999998626595
 31
0.0
  0
LINE
  5
27C7
330
288A
100
AcDbEntity
  8
OUTLINE
100
AcDbLine
 10
451.161056273846
 20
-916.9999998626595
 30
0.0
 11
451.161056273846
 21
-938.9999998626594
 31
0.0
  0
LINE
  5
27C8
330
288A
100
AcDbEntity
  8
OUTLINE
100
AcDbLine
 10
451.161056273846
 20
-916.9999998626595
 30
0.0
 11
464.4999999999995
 21
-916.9999998626595
 31
0.0
  0
LINE
  5
27C9
330
288A
100
AcDbEntity
  8
OUTLINE
100
AcDbLine
 10
385.0
 20
-145.0013993127294
 30
0.0
 11
385.0
 21
-803.0014000000008
 31
0.0
  0
LINE
  5
27CA
330
288A
100
AcDbEntity
  8
OUTLINE
100
AcDbLine
 10
-451.1610562738463
 20
-938.9999998626594
 30
0.0
 11
451.161056273846
 21
-938.9999998626594
 31
0.0
  0
LINE
  5
27CB
330
288A
100
AcDbEntity
  8
OUTLINE
100
AcDbLine
 10
430.0761627032583
 20
-127.5020706637714
 30
0.0
 11
443.4999999999995
 21
-127.0014000000001
 31
0.0
  0
INSERT
  5
27CC
330
288A
100
AcDbEntity
  8
DETAIL
  6
Continuous
100
AcDbBlockReference
  2
*X70
 10
0.000000000001819
 20
-0.0000000000013642
 30
0.0
1001
ACADANNOTATIVE
1000
AnnotativeData
1002
{
1070
     1
1070
     0
1002
}
1001
ACAD
1000
HATCH
1002
{
1070
    19
1000
LINE
1040
19.969
1040
0.5880014249968896
1000
R14_HATCH_DATA
1000
5753
1011
1.000000000001818
1021
-0.0000000000013642
1031
0.0
1011
0.000000000001819
1021
0.9999999999986355
1031
0.0
1011
0.000000000001819
1021
-0.0000000000013642
1031
1.0
1040
0.0
1010
0.0
1020
0.0
1030
1.0
1000
LINE
1070
     0
1070
     0
1071
        2
1071
        7
1070
     0
1070
     1
1071
        6
1040
149.1999999999989
1040
-165.0014001459362
1040
-365.0000000000018
1040
-165.0013993439229
1040
-365.0000000000018
1040
-783.0013999999996
1040
364.9999999999945
1040
-783.0013999999987
1040
364.9999999999982
1040
-358.8014004825268
1040
149.1999999999989
1040
-358.8014004825268
1071
        0
1071
        7
1070
     0
1070
     1
1071
        4
1040
364.9999999999945
1040
-165.0014004825284
1040
149.1999999999989
1040
-165.0014004825284
1040
149.1999999999989
1040
-358.8014004825259
1040
365.0000000000018
1040
-358.8014004825268
1071
        0
1070
     0
1070
     1
1040
0.5880014249968896
1040
19.969
1070
     0
1070
     1
1040
0.5880014249968896
1040
20157.95253573269
1040
6900.790477713172
1040
-1.384598579568018
1040
2.076903172775084
1070
     0
1040
3.21879414237047
1071
        2
1040
-144.2232226078868
1040
-332.3775567993103
1040
0.0
1040
295.5833088850468
1040
-283.72282196675
1040
0.0
1002
}
  0
INSERT
  5
27CD
330
288A
100
AcDbEntity
  8
DETAIL
  6
Continuous
100
AcDbBlockReference
  2
*X71
 10
0.000000000001819
 20
-0.0000000000013642
 30
0.0
1001
ACADANNOTATIVE
1000
AnnotativeData
1002
{
1070
     1
1070
     0
1002
}
1001
ACAD
1000
HATCH
1002
{
1070
    19
1000
LINE
1040
19.969
1040
5.695183882182695
1000
R14_HATCH_DATA
1000
5759
1011
1.000000000001818
1021
-0.0000000000013642
1031
0.0
1011
0.000000000001819
1021
0.9999999999986355
1031
0.0
1011
0.000000000001819
1021
-0.0000000000013642
1031
1.0
1040
0.0
1010
0.0
1020
0.0
1030
1.0
1000
LINE
1070
     0
1070
     0
1071
        2
1071
        7
1070
     0
1070
     1
1071
        6
1040
149.1999999999989
1040
-165.0014001459372
1040
-365.0000000000018
1040
-165.0013993439238
1040
-365.0000000000018
1040
-783.0013999999996
1040
364.9999999999945
1040
-783.0013999999987
1040
364.9999999999982
1040
-358.8014004825268
1040
149.1999999999989
1040
-358.8014004825268
1071
        0
1071
        7
1070
     0
1070
     1
1071
        4
1040
149.1999999999989
1040
-165.0014004825266
1040
149.1999999999989
1040
-358.8014004825268
1040
365.0000000000018
1040
-358.8014004825268
1040
364.9999999999982
1040
-165.0014004825274
1071
        0
1070
     0
1070
     1
1040
5.695183882182695
1040
19.969
1070
     0
1070
     1
1040
5.695183882182695
1040
20157.95253573269
1040
6900.790477713172
1040
1.384598579568018
1040
2.076903172775084
1070
     0
1040
1.631221175176063
1071
        2
1040
-99.8216464112138
1040
-332.5270733189932
1040
0.0
1040
260.5780182326835
1040
-210.3707235107699
1040
0.0
1002
}
  0
LINE
  5
27CE
330
288A
100
AcDbEntity
  8
DETAIL
100
AcDbLine
 10
-365.0
 20
-165.0013993439243
 30
0.0
 11
365.0
 21
-165.001400482528
 31
0.0
  0
LINE
  5
27CF
330
288A
100
AcDbEntity
  8
DETAIL
100
AcDbLine
 10
-365.0
 20
-783.001400000001
 30
0.0
 11
365.0
 21
-783.0014000000001
 31
0.0
  0
LINE
  5
27D0
330
288A
100
AcDbEntity
  8
DETAIL
100
AcDbLine
 10
-365.0
 20
-165.0013993439243
 30
0.0
 11
-365.0
 21
-783.001400000001
 31
0.0
  0
LINE
  5
27D1
330
288A
100
AcDbEntity
  8
DETAIL
100
AcDbLine
 10
365.0
 20
-165.001400482528
 30
0.0
 11
365.0
 21
-783.0014000000001
 31
0.0
  0
LINE
  5
27D2
330
288A
100
AcDbEntity
  8
SIZE
100
AcDbLine
 10
-425.0
 20
20.0
 30
0.0
 11
-425.0
 21
338.0818371338519
 31
0.0
  0
LINE
  5
27D3
330
288A
100
AcDbEntity
  8
SIZE
100
AcDbLine
 10
425.0
 20
20.0
 30
0.0
 11
425.0
 21
338.0818371338519
 31
0.0
  0
LINE
  5
27D4
330
288A
100
AcDbEntity
  8
SIZE
100
AcDbLine
 10
-413.0
 20
318.0818371338519
 30
0.0
 11
413.0
 21
318.0818371338519
 31
0.0
  0
INSERT
  5
27D5
330
288A
100
AcDbEntity
  8
SIZE
100
AcDbBlockReference
  2
_DOTBLANK
 10
-425.0
 20
318.0818371338519
 30
0.0
 41
12.0
 42
12.0
 43
12.0
 50
180.0
  0
INSERT
  5
27D6
330
288A
100
AcDbEntity
  8
SIZE
100
AcDbBlockReference
  2
_DOTBLANK
 10
425.0
 20
318.0818371338519
 30
0.0
 41
12.0
 42
12.0
 43
12.0
  0
LINE
  5
27D7
330
288A
100
AcDbEntity
  8
SIZE
100
AcDbLine
 10
-400.0
 20
32.5
 30
0.0
 11
-400.0
 21
197.3516363077904
 31
0.0
  0
LINE
  5
27D8
330
288A
100
AcDbEntity
  8
SIZE
100
AcDbLine
 10
400.0
 20
32.5
 30
0.0
 11
400.0
 21
197.3516363077904
 31
0.0
  0
LINE
  5
27D9
330
288A
100
AcDbEntity
  8
SIZE
100
AcDbLine
 10
-388.0
 20
177.3516363077906
 30
0.0
 11
388.0
 21
177.3516363077906
 31
0.0
  0
INSERT
  5
27DA
330
288A
100
AcDbEntity
  8
SIZE
100
AcDbBlockReference
  2
_DOTBLANK
 10
-400.0
 20
177.3516363077906
 30
0.0
 41
12.0
 42
12.0
 43
12.0
 50
180.0
  0
INSERT
  5
27DB
330
288A
100
AcDbEntity
  8
SIZE
100
AcDbBlockReference
  2
_DOTBLANK
 10
400.0
 20
177.3516363077906
 30
0.0
 41
12.0
 42
12.0
 43
12.0
  0
LINE
  5
27DC
330
288A
100
AcDbEntity
  8
SIZE
100
AcDbLine
 10
444.9999999999994
 20
0.0
 30
0.0
 11
581.6374087284343
 21
0.0
 31
0.0
  0
LINE
  5
27DD
330
288A
100
AcDbEntity
  8
SIZE
100
AcDbLine
 10
444.9999999999994
 20
-8.0
 30
0.0
 11
581.6374087284343
 21
-8.0
 31
0.0
  0
LINE
  5
27DE
330
288A
100
AcDbEntity
  8
SIZE
100
AcDbLine
 10
561.6374087284348
 20
12.0
 30
0.0
 11
561.6374087284348
 21
24.0
 31
0.0
  0
LINE
  5
27DF
330
288A
100
AcDbEntity
  8
SIZE
100
AcDbLine
 10
561.6374087284348
 20
-20.0
 30
0.0
 11
561.6374087284348
 21
-90.40000000000008
 31
0.0
  0
INSERT
  5
27E0
330
288A
100
AcDbEntity
  8
SIZE
100
AcDbBlockReference
  2
_DOTBLANK
 10
561.6374087284348
 20
0.0
 30
0.0
 41
12.0
 42
12.0
 43
12.0
 50
270.0
  0
INSERT
  5
27E1
330
288A
100
AcDbEntity
  8
SIZE
100
AcDbBlockReference
  2
_DOTBLANK
 10
561.6374087284348
 20
-8.0
 30
0.0
 41
12.0
 42
12.0
 43
12.0
 50
90.0
  0
LINE
  5
27E2
330
288A
100
AcDbEntity
  8
SIZE
100
AcDbLine
 10
-464.5000000000036
 20
-936.9999998626596
 30
0.0
 11
-464.5000000000036
 21
-1096.282941893284
 31
0.0
  0
LINE
  5
27E3
330
288A
100
AcDbEntity
  8
SIZE
100
AcDbLine
 10
464.4999999999995
 20
-936.9999998626596
 30
0.0
 11
464.4999999999995
 21
-1096.282941893284
 31
0.0
  0
LINE
  5
27E4
330
288A
100
AcDbEntity
  8
SIZE
100
AcDbLine
 10
-452.5000000000036
 20
-1076.282941893285
 30
0.0
 11
452.4999999999995
 21
-1076.282941893285
 31
0.0
  0
INSERT
  5
27E5
330
288A
100
AcDbEntity
  8
SIZE
100
AcDbBlockReference
  2
_DOTBLANK
 10
-464.5000000000036
 20
-1076.282941893285
 30
0.0
 41
12.0
 42
12.0
 43
12.0
 50
180.0
  0
INSERT
  5
27E6
330
288A
100
AcDbEntity
  8
SIZE
100
AcDbBlockReference
  2
_DOTBLANK
 10
464.4999999999995
 20
-1076.282941893285
 30
0.0
 41
12.0
 42
12.0
 43
12.0
  0
LINE
  5
27E7
330
288A
100
AcDbEntity
  8
SIZE
100
AcDbLine
 10
-484.5000000000036
 20
-916.9999998626595
 30
0.0
 11
-661.3011223985266
 21
-916.9999998626595
 31
0.0
  0
LINE
  5
27E8
330
288A
100
AcDbEntity
  8
SIZE
100
AcDbLine
 10
-471.1610562738459
 20
-938.9999998626594
 30
0.0
 11
-661.3011223985266
 21
-938.9999998626594
 31
0.0
  0
LINE
  5
27E9
330
288A
100
AcDbEntity
  8
SIZE
100
AcDbLine
 10
-641.3011223985265
 20
-904.9999998626594
 30
0.0
 11
-641.3011223985265
 21
-892.9999998626598
 31
0.0
  0
LINE
  5
27EA
330
288A
100
AcDbEntity
  8
SIZE
100
AcDbLine
 10
-641.3011223985265
 20
-950.9999998626595
 30
0.0
 11
-641.3011223985265
 21
-1076.257142719802
 31
0.0
  0
INSERT
  5
27EB
330
288A
100
AcDbEntity
  8
SIZE
100
AcDbBlockReference
  2
_DOTBLANK
 10
-641.3011223985265
 20
-916.9999998626595
 30
0.0
 41
12.0
 42
12.0
 43
12.0
 50
270.0
  0
INSERT
  5
27EC
330
288A
100
AcDbEntity
  8
SIZE
100
AcDbBlockReference
  2
_DOTBLANK
 10
-641.3011223985265
 20
-938.9999998626594
 30
0.0
 41
12.0
 42
12.0
 43
12.0
 50
90.0
  0
LINE
  5
27ED
330
288A
100
AcDbEntity
  8
SIZE
100
AcDbLine
 10
-445.0
 20
0.0
 30
0.0
 11
-661.3011223985266
 21
0.0
 31
0.0
  0
LINE
  5
27EE
330
288A
100
AcDbEntity
  8
SIZE
100
AcDbLine
 10
-484.5000000000036
 20
-916.9999998626595
 30
0.0
 11
-661.3011223985266
 21
-916.9999998626595
 31
0.0
  0
LINE
  5
27EF
330
288A
100
AcDbEntity
  8
SIZE
100
AcDbLine
 10
-641.3011223985265
 20
-12.0
 30
0.0
 11
-641.3011223985265
 21
-904.9999998626594
 31
0.0
  0
INSERT
  5
27F0
330
288A
100
AcDbEntity
  8
SIZE
100
AcDbBlockReference
  2
_DOTBLANK
 10
-641.3011223985265
 20
0.0
 30
0.0
 41
12.0
 42
12.0
 43
12.0
 50
90.0
  0
INSERT
  5
27F1
330
288A
100
AcDbEntity
  8
SIZE
100
AcDbBlockReference
  2
_DOTBLANK
 10
-641.3011223985265
 20
-916.9999998626595
 30
0.0
 41
12.0
 42
12.0
 43
12.0
 50
270.0
  0
TEXT
  5
27F2
330
288A
100
AcDbEntity
  8
SIZE
100
AcDbText
 10
-72.6857142857143
 20
-1066.282941893285
 30
0.0
 40
64.0
  1
929
 41
0.9
100
AcDbText
  0
TEXT
  5
27F3
330
288A
100
AcDbEntity
  8
SIZE
100
AcDbText
 10
-651.3011223985268
 20
-1066.257142719802
 30
0.0
 40
64.0
  1
22
 50
90.0
 41
0.9
100
AcDbText
  0
TEXT
  5
27F4
330
288A
100
AcDbEntity
  8
SIZE
100
AcDbText
 10
-651.3011223985268
 20
-527.0714285027585
 30
0.0
 40
64.0
  1
917
 50
90.0
 41
0.9
100
AcDbText
  0
TEXT
  5
27F5
330
288A
100
AcDbEntity
  8
SIZE
100
AcDbText
 10
-74.05714285714293
 20
187.3516363077906
 30
0.0
 40
64.0
  1
800
 41
0.9
100
AcDbText
  0
TEXT
  5
27F6
330
288A
100
AcDbEntity
  8
SIZE
100
AcDbText
 10
-74.05714285714293
 20
328.0818371338519
 30
0.0
 40
64.0
  1
850
 41
0.9
100
AcDbText
  0
TEXT
  5
27F7
330
288A
100
AcDbEntity
  8
SIZE
100
AcDbText
 10
551.6374087284344
 20
-80.39999999999986
 30
0.0
 40
64.0
  1
8
 50
90.0
 41
0.9
100
AcDbText
  0
TEXT
  5
27F8
330
288A
100
AcDbEntity
  8
ETC
100
AcDbText
 10
714.3793481132489
 20
543.7417056490321
 30
0.0
 40
70.0
  1
QW-70SBM_6
 41
0.9
100
AcDbText
  0
TEXT
  5
27F9
330
288A
100
AcDbEntity
  8
ETC
100
AcDbText
 10
705.9793481132487
 20
427.0750389823653
 30
0.0
 40
70.0
  1
システム部材
 41
0.9
100
AcDbText
  0
TEXT
  5
27FA
330
288A
100
AcDbEntity
  8
ETC
100
AcDbText
 10
714.3793481132489
 20
310.4083723156987
 30
0.0
 40
70.0
  1
QW-70SBM
 41
0.9
100
AcDbText
  0
ENDSEC
  0
SECTION
  2
OBJECTS
  0
DICTIONARY
  5
2822
330
0
100
AcDbDictionary
281
     1
  3
ACAD_2007HEADERVARS_RT
350
2A73
  3
ACAD_COLOR
350
2880
  3
ACAD_GROUP
350
2823
  3
ACAD_LAYOUT
350
287F
  3
ACAD_MATERIAL
350
2826
  3
ACAD_MLEADERSTYLE
350
2883
  3
ACAD_MLINESTYLE
350
287C
  3
ACAD_PLOTSETTINGS
350
287E
  3
ACAD_PLOTSTYLENAME
350
2824
  3
ACAD_SCALELIST
350
2850
  3
ACAD_TABLESTYLE
350
2881
  3
ACAD_VISUALSTYLE
350
283F
  3
ACDB_RECOMPOSE_DATA
350
2A71
  3
AcDbVariableDictionary
350
2A68
  3
AcmDictionary
350
2A14
  3
AMG
350
2961
  3
AMGSNAPSETTINGS
350
2A3C
  3
DWGPROPS
350
2A72
  3
MAPISURF_MODULE
350
29E1
  0
DICTIONARY
  5
2A43
330
2872
100
AcDbDictionary
280
     1
281
     1
  3
ADSK_XREC_LAYER_RECONCILED
360
2A44
  0
DICTIONARY
  5
2A45
330
28A1
100
AcDbDictionary
280
     1
281
     1
  3
ADSK_XREC_LAYER_RECONCILED
360
2A46
  0
DICTIONARY
  5
2A47
330
28A2
100
AcDbDictionary
280
     1
281
     1
  3
ADSK_XREC_LAYER_RECONCILED
360
2A48
  0
DICTIONARY
  5
2A49
330
28A3
100
AcDbDictionary
280
     1
281
     1
  3
ADSK_XREC_LAYER_RECONCILED
360
2A4A
  0
DICTIONARY
  5
2A4B
330
28A4
100
AcDbDictionary
280
     1
281
     1
  3
ADSK_XREC_LAYER_RECONCILED
360
2A4C
  0
DICTIONARY
  5
2A4D
330
28A5
100
AcDbDictionary
280
     1
281
     1
  3
ADSK_XREC_LAYER_RECONCILED
360
2A4E
  0
DICTIONARY
  5
2A4F
330
28A7
100
AcDbDictionary
280
     1
281
     1
  3
ADSK_XREC_LAYER_RECONCILED
360
2A50
  0
DICTIONARY
  5
2A51
330
28A8
100
AcDbDictionary
280
     1
281
     1
  3
ADSK_XREC_LAYER_RECONCILED
360
2A52
  0
DICTIONARY
  5
2A53
330
28A9
100
AcDbDictionary
280
     1
281
     1
  3
ADSK_XREC_LAYER_RECONCILED
360
2A54
  0
DICTIONARY
  5
2A55
330
28AA
100
AcDbDictionary
280
     1
281
     1
  3
ADSK_XREC_LAYER_RECONCILED
360
2A56
  0
DICTIONARY
  5
2A57
330
28AB
100
AcDbDictionary
280
     1
281
     1
  3
ADSK_XREC_LAYER_RECONCILED
360
2A58
  0
DICTIONARY
  5
2A59
330
288A
100
AcDbDictionary
280
     1
281
     1
  3
ACAD_INDEX
360
2A5A
  0
DICTIONARY
  5
2A73
102
{ACAD_REACTORS
330
2822
102
}
330
2822
100
AcDbDictionary
281
     1
  3
DIMARCSYM
350
2A74
  3
DIMLTEX1
350
2A76
  3
DIMLTEX2
350
2A77
  3
DIMLTYPE
350
2A75
  0
DICTIONARY
  5
2880
102
{ACAD_REACTORS
330
2822
102
}
330
2822
100
AcDbDictionary
281
     1
  0
DICTIONARY
  5
2823
102
{ACAD_REACTORS
330
2822
102
}
330
2822
100
AcDbDictionary
281
     1
  0
DICTIONARY
  5
287F
102
{ACAD_REACTORS
330
2822
102
}
330
2822
100
AcDbDictionary
281
     1
  3
Model
350
288D
  3
レイアウト1
350
2889
  0
DICTIONARY
  5
2826
102
{ACAD_REACTORS
330
2822
102
}
330
2822
100
AcDbDictionary
281
     1
  3
ByBlock
350
282F
  3
ByLayer
350
2827
  3
Global
350
2837
  0
DICTIONARY
  5
2883
102
{ACAD_REACTORS
330
2822
102
}
330
2822
100
AcDbDictionary
281
     1
  3
Standard
350
2884
  0
DICTIONARY
  5
287C
102
{ACAD_REACTORS
330
2822
102
}
330
2822
100
AcDbDictionary
281
     1
  3
Standard
350
287D
  0
DICTIONARY
  5
287E
102
{ACAD_REACTORS
330
2822
102
}
330
2822
100
AcDbDictionary
281
     1
  0
ACDBDICTIONARYWDFLT
  5
2824
102
{ACAD_REACTORS
330
2822
102
}
330
2822
100
AcDbDictionary
281
     1
  3
Normal
350
2825
100
AcDbDictionaryWithDefault
340
2825
  0
DICTIONARY
  5
2850
102
{ACAD_REACTORS
330
2822
102
}
330
2822
100
AcDbDictionary
281
     1
  3
A0
350
2851
  3
A1
350
2852
  3
A2
350
2853
  3
A3
350
2854
  3
A4
350
2855
  3
A5
350
2856
  3
A6
350
2857
  3
A7
350
2858
  3
A8
350
2859
  3
A9
350
285A
  3
B0
350
285B
  3
B1
350
285C
  3
B2
350
285D
  3
B3
350
285E
  3
B4
350
285F
  3
B5
350
2860
  3
B6
350
2861
  3
B7
350
2862
  3
B8
350
2863
  3
B9
350
2864
  3
C0
350
2865
  3
C1
350
2866
  3
C2
350
2867
  3
C3
350
2868
  3
C4
350
2869
  3
C5
350
286A
  3
C6
350
286B
  3
C7
350
286C
  3
C8
350
286D
  3
C9
350
286E
  3
D0
350
286F
  3
D1
350
2870
  3
D2
350
2871
  0
DICTIONARY
  5
2881
102
{ACAD_REACTORS
330
2822
102
}
330
2822
100
AcDbDictionary
281
     1
  3
Standard
350
2882
  0
DICTIONARY
  5
283F
102
{ACAD_REACTORS
330
2822
102
}
330
2822
100
AcDbDictionary
281
     1
  3
2dWireframe
350
2845
  3
3D Hidden
350
2847
  3
3dWireframe
350
2846
  3
Basic
350
2844
  3
Brighten
350
284B
  3
ColorChange
350
284F
  3
Conceptual
350
2848
  3
Dim
350
284A
  3
Facepattern
350
284E
  3
Flat
350
2840
  3
FlatWithEdges
350
2841
  3
Gouraud
350
2842
  3
GouraudWithEdges
350
2843
  3
Linepattern
350
284D
  3
Realistic
350
2849
  3
Thicken
350
284C
  0
XRECORD
  5
2A71
102
{ACAD_REACTORS
330
2822
102
}
330
2822
100
AcDbXrecord
280
     1
 90
        1
330
2882
  0
DICTIONARY
  5
2A68
102
{ACAD_REACTORS
330
2822
102
}
330
2822
100
AcDbDictionary
281
     1
  3
CANNOSCALE
350
2A6B
  3
CMLEADERSTYLE
350
2A6A
  3
CTABLESTYLE
350
2A69
  3
DIMASSOC
350
2A6E
  3
INDEXCTL
350
2A6D
  3
SORTENTS
350
2A6C
  0
DICTIONARY
  5
2A14
102
{ACAD_REACTORS
330
2822
102
}
330
2822
100
AcDbDictionary
281
     1
  3
AcmStdDictionary
350
2A22
  0
DICTIONARY
  5
2961
102
{ACAD_REACTORS
330
2822
102
}
330
2822
100
AcDbDictionary
281
     1
  3
AcMgSettings
350
2962
  0
DICTIONARY
  5
2A3C
102
{ACAD_REACTORS
330
2822
102
}
330
2822
100
AcDbDictionary
281
     1
  3
DIMENSION
350
2A41
  3
FEA
350
2A40
  3
HATCH (1)
350
2A3D
  3
HATCH (2)
350
2A3E
  3
SIMPLE WELD
350
2A42
  3
SYMBOLS
350
2A3F
  0
XRECORD
  5
2A72
102
{ACAD_REACTORS
330
2822
102
}
330
2822
100
AcDbXrecord
280
     1
  1
DWGPROPS COOKIE
  2

  3

  4

  6

  7

  8
A090053
  9

300
AmdtFileType=84
301
=
302
=
303
=
304
=
305
=
306
=
307
=
308
=
309
=
 40
1.039957766203703
 41
2452321.396199653
 42
2456211.590641331
  1

 90
        1
  0
XRECORD
  5
2A44
102
{ACAD_REACTORS
330
2A43
102
}
330
2A43
100
AcDbXrecord
280
     1
290
     1
  0
XRECORD
  5
2A46
102
{ACAD_REACTORS
330
2A45
102
}
330
2A45
100
AcDbXrecord
280
     1
290
     1
  0
XRECORD
  5
2A48
102
{ACAD_REACTORS
330
2A47
102
}
330
2A47
100
AcDbXrecord
280
     1
290
     1
  0
XRECORD
  5
2A4A
102
{ACAD_REACTORS
330
2A49
102
}
330
2A49
100
AcDbXrecord
280
     1
290
     1
  0
XRECORD
  5
2A4C
102
{ACAD_REACTORS
330
2A4B
102
}
330
2A4B
100
AcDbXrecord
280
     1
290
     1
  0
XRECORD
  5
2A4E
102
{ACAD_REACTORS
330
2A4D
102
}
330
2A4D
100
AcDbXrecord
280
     1
290
     1
  0
XRECORD
  5
2A50
102
{ACAD_REACTORS
330
2A4F
102
}
330
2A4F
100
AcDbXrecord
280
     1
290
     1
  0
XRECORD
  5
2A52
102
{ACAD_REACTORS
330
2A51
102
}
330
2A51
100
AcDbXrecord
280
     1
290
     1
  0
XRECORD
  5
2A54
102
{ACAD_REACTORS
330
2A53
102
}
330
2A53
100
AcDbXrecord
280
     1
290
     1
  0
XRECORD
  5
2A56
102
{ACAD_REACTORS
330
2A55
102
}
330
2A55
100
AcDbXrecord
280
     1
290
     1
  0
XRECORD
  5
2A58
102
{ACAD_REACTORS
330
2A57
102
}
330
2A57
100
AcDbXrecord
280
     1
290
     1
  0
DICTIONARY
  5
2A5A
102
{ACAD_REACTORS
330
2A59
102
}
330
2A59
100
AcDbDictionary
281
     1
  3
*A1
350
2A5B
  0
XRECORD
  5
2A74
102
{ACAD_REACTORS
330
2A73
102
}
330
2A73
100
AcDbXrecord
280
     1
 70
     1
  0
XRECORD
  5
2A76
102
{ACAD_REACTORS
330
2A73
102
}
330
2A73
100
AcDbXrecord
280
     1
340
2878
  0
XRECORD
  5
2A77
102
{ACAD_REACTORS
330
2A73
102
}
330
2A73
100
AcDbXrecord
280
     1
340
2878
  0
XRECORD
  5
2A75
102
{ACAD_REACTORS
330
2A73
102
}
330
2A73
100
AcDbXrecord
280
     1
340
2878
  0
LAYOUT
  5
288D
102
{ACAD_XDICTIONARY
360
2A7E
102
}
102
{ACAD_REACTORS
330
287F
102
}
330
287F
100
AcDbPlotSettings
  1

  2
自動 EPSON LP-9600S (W2450527 上)
  4

  6

 40
0.0
 41
0.0
 42
0.0
 43
0.0
 44
0.0
 45
0.0
 46
0.0
 47
0.0
 48
0.0
 49
0.0
140
0.0
141
0.0
142
1.0
143
1.0
 70
  1712
 72
     0
 73
     0
 74
     0
  7

 75
     0
147
1.0
148
0.0
149
0.0
100
AcDbLayout
  1
Model
 70
     1
 71
     0
 10
0.0
 20
0.0
 11
12.0
 21
9.0
 12
0.0
 22
0.0
 32
0.0
 14
0.0
 24
0.0
 34
0.0
 15
0.0
 25
0.0
 35
0.0
146
0.0
 13
0.0
 23
0.0
 33
0.0
 16
1.0
 26
0.0
 36
0.0
 17
0.0
 27
1.0
 37
0.0
 76
     0
330
288A
331
288E
  0
LAYOUT
  5
2889
102
{ACAD_XDICTIONARY
360
2A7C
102
}
102
{ACAD_REACTORS
330
287F
102
}
330
287F
100
AcDbPlotSettings
  1

  2
自動 EPSON LP-9600S (W2450527 上)
  4

  6

 40
0.0
 41
0.0
 42
0.0
 43
0.0
 44
0.0
 45
0.0
 46
0.0
 47
0.0
 48
0.0
 49
0.0
140
0.0
141
0.0
142
1.0
143
1.0
 70
   688
 72
     0
 73
     0
 74
     5
  7

 75
    16
147
1.0
148
0.0
149
0.0
100
AcDbLayout
  1
レイアウト1
 70
     1
 71
     1
 10
0.0
 20
0.0
 11
12.0
 21
9.0
 12
0.0
 22
0.0
 32
0.0
 14
1.000000000000000E+20
 24
1.000000000000000E+20
 34
1.000000000000000E+20
 15
-1.000000000000000E+20
 25
-1.000000000000000E+20
 35
-1.000000000000000E+20
146
0.0
 13
0.0
 23
0.0
 33
0.0
 16
1.0
 26
0.0
 36
0.0
 17
0.0
 27
1.0
 37
0.0
 76
     0
330
2886
  0
MATERIAL
  5
282F
102
{ACAD_XDICTIONARY
360
2830
102
}
102
{ACAD_REACTORS
330
2826
102
}
330
2826
100
AcDbMaterial
  1
ByBlock
 72
     0
 43
0.0208333333333333
 43
0.0
 43
0.0
 43
0.0
 43
0.0
 43
0.0208333333333333
 43
0.0
 43
0.0
 43
0.0
 43
0.0
 43
1.0
 43
0.0
 43
0.0
 43
0.0
 43
0.0
 43
1.0
 77
     0
 47
0.0208333333333333
 47
0.0
 47
0.0
 47
0.0
 47
0.0
 47
0.0208333333333333
 47
0.0
 47
0.0
 47
0.0
 47
0.0
 47
1.0
 47
0.0
 47
0.0
 47
0.0
 47
0.0
 47
1.0
171
     0
 49
0.0208333333333333
 49
0.0
 49
0.0
 49
0.0
 49
0.0
 49
0.0208333333333333
 49
0.0
 49
0.0
 49
0.0
 49
0.0
 49
1.0
 49
0.0
 49
0.0
 49
0.0
 49
0.0
 49
1.0
175
     0
142
0.0208333333333333
142
0.0
142
0.0
142
0.0
142
0.0
142
0.0208333333333333
142
0.0
142
0.0
142
0.0
142
0.0
142
1.0
142
0.0
142
0.0
142
0.0
142
0.0
142
1.0
179
     0
144
0.0208333333333333
144
0.0
144
0.0
144
0.0
144
0.0
144
0.0208333333333333
144
0.0
144
0.0
144
0.0
144
0.0
144
1.0
144
0.0
144
0.0
144
0.0
144
0.0
144
1.0
147
0.0208333333333333
147
0.0
147
0.0
147
0.0
147
0.0
147
0.0208333333333333
147
0.0
147
0.0
147
0.0
147
0.0
147
1.0
147
0.0
147
0.0
147
0.0
147
0.0
147
1.0
  0
MATERIAL
  5
2827
102
{ACAD_XDICTIONARY
360
2828
102
}
102
{ACAD_REACTORS
330
2826
102
}
330
2826
100
AcDbMaterial
  1
ByLayer
 72
     0
 43
0.0208333333333333
 43
0.0
 43
0.0
 43
0.0
 43
0.0
 43
0.0208333333333333
 43
0.0
 43
0.0
 43
0.0
 43
0.0
 43
1.0
 43
0.0
 43
0.0
 43
0.0
 43
0.0
 43
1.0
 77
     0
 47
0.0208333333333333
 47
0.0
 47
0.0
 47
0.0
 47
0.0
 47
0.0208333333333333
 47
0.0
 47
0.0
 47
0.0
 47
0.0
 47
1.0
 47
0.0
 47
0.0
 47
0.0
 47
0.0
 47
1.0
171
     0
 49
0.0208333333333333
 49
0.0
 49
0.0
 49
0.0
 49
0.0
 49
0.0208333333333333
 49
0.0
 49
0.0
 49
0.0
 49
0.0
 49
1.0
 49
0.0
 49
0.0
 49
0.0
 49
0.0
 49
1.0
175
     0
142
0.0208333333333333
142
0.0
142
0.0
142
0.0
142
0.0
142
0.0208333333333333
142
0.0
142
0.0
142
0.0
142
0.0
142
1.0
142
0.0
142
0.0
142
0.0
142
0.0
142
1.0
179
     0
144
0.0208333333333333
144
0.0
144
0.0
144
0.0
144
0.0
144
0.0208333333333333
144
0.0
144
0.0
144
0.0
144
0.0
144
1.0
144
0.0
144
0.0
144
0.0
144
0.0
144
1.0
147
0.0208333333333333
147
0.0
147
0.0
147
0.0
147
0.0
147
0.0208333333333333
147
0.0
147
0.0
147
0.0
147
0.0
147
1.0
147
0.0
147
0.0
147
0.0
147
0.0
147
1.0
  0
MATERIAL
  5
2837
102
{ACAD_XDICTIONARY
360
2838
102
}
102
{ACAD_REACTORS
330
2826
102
}
330
2826
100
AcDbMaterial
  1
Global
 72
     0
 43
0.0208333333333333
 43
0.0
 43
0.0
 43
0.0
 43
0.0
 43
0.0208333333333333
 43
0.0
 43
0.0
 43
0.0
 43
0.0
 43
1.0
 43
0.0
 43
0.0
 43
0.0
 43
0.0
 43
1.0
 77
     0
 47
0.0208333333333333
 47
0.0
 47
0.0
 47
0.0
 47
0.0
 47
0.0208333333333333
 47
0.0
 47
0.0
 47
0.0
 47
0.0
 47
1.0
 47
0.0
 47
0.0
 47
0.0
 47
0.0
 47
1.0
171
     0
 49
0.0208333333333333
 49
0.0
 49
0.0
 49
0.0
 49
0.0
 49
0.0208333333333333
 49
0.0
 49
0.0
 49
0.0
 49
0.0
 49
1.0
 49
0.0
 49
0.0
 49
0.0
 49
0.0
 49
1.0
175
     0
142
0.0208333333333333
142
0.0
142
0.0
142
0.0
142
0.0
142
0.0208333333333333
142
0.0
142
0.0
142
0.0
142
0.0
142
1.0
142
0.0
142
0.0
142
0.0
142
0.0
142
1.0
179
     0
144
0.0208333333333333
144
0.0
144
0.0
144
0.0
144
0.0
144
0.0208333333333333
144
0.0
144
0.0
144
0.0
144
0.0
144
1.0
144
0.0
144
0.0
144
0.0
144
0.0
144
1.0
147
0.0208333333333333
147
0.0
147
0.0
147
0.0
147
0.0
147
0.0208333333333333
147
0.0
147
0.0
147
0.0
147
0.0
147
1.0
147
0.0
147
0.0
147
0.0
147
0.0
147
1.0
  0
MLEADERSTYLE
  5
2884
102
{ACAD_REACTORS
330
2883
102
}
330
2883
100
AcDbMLeaderStyle
170
     2
171
     1
172
     0
 90
        2
 40
0.0
 41
0.0
173
     1
 91
-1056964608
340
2878
 92
       -2
290
     1
 42
0.09
291
     1
 43
0.36
  3
Standard
 44
0.18
300

342
2873
174
     1
178
     6
175
     1
176
     0
 93
-1056964608
 45
0.18
292
     0
297
     0
 46
0.18
 94
-1056964608
 47
1.0
 49
1.0
140
1.0
293
     1
141
0.0
294
     1
177
     0
142
1.0
295
     0
296
     0
143
0.125
1001
ACAD_MLEADERVER
1070
     2
  0
MLINESTYLE
  5
287D
102
{ACAD_REACTORS
330
287C
102
}
330
287C
100
AcDbMlineStyle
  2
STANDARD
 70
     0
  3

 62
   256
 51
90.0
 52
90.0
 71
     2
 49
0.5
 62
   256
  6
BYLAYER
 49
-0.5
 62
   256
  6
BYLAYER
  0
ACDBPLACEHOLDER
  5
2825
102
{ACAD_REACTORS
330
2824
102
}
330
2824
  0
SCALE
  5
2851
102
{ACAD_REACTORS
330
2850
102
}
330
2850
100
AcDbScale
 70
     0
300
1:1
140
1.0
141
1.0
290
     1
  0
SCALE
  5
2852
102
{ACAD_REACTORS
330
2850
102
}
330
2850
100
AcDbScale
 70
     0
300
1:2
140
1.0
141
2.0
290
     0
  0
SCALE
  5
2853
102
{ACAD_REACTORS
330
2850
102
}
330
2850
100
AcDbScale
 70
     0
300
1:4
140
1.0
141
4.0
290
     0
  0
SCALE
  5
2854
102
{ACAD_REACTORS
330
2850
102
}
330
2850
100
AcDbScale
 70
     0
300
1:5
140
1.0
141
5.0
290
     0
  0
SCALE
  5
2855
102
{ACAD_REACTORS
330
2850
102
}
330
2850
100
AcDbScale
 70
     0
300
1:8
140
1.0
141
8.0
290
     0
  0
SCALE
  5
2856
102
{ACAD_REACTORS
330
2850
102
}
330
2850
100
AcDbScale
 70
     0
300
1:10
140
1.0
141
10.0
290
     0
  0
SCALE
  5
2857
102
{ACAD_REACTORS
330
2850
102
}
330
2850
100
AcDbScale
 70
     0
300
1:16
140
1.0
141
16.0
290
     0
  0
SCALE
  5
2858
102
{ACAD_REACTORS
330
2850
102
}
330
2850
100
AcDbScale
 70
     0
300
1:20
140
1.0
141
20.0
290
     0
  0
SCALE
  5
2859
102
{ACAD_REACTORS
330
2850
102
}
330
2850
100
AcDbScale
 70
     0
300
1:30
140
1.0
141
30.0
290
     0
  0
SCALE
  5
285A
102
{ACAD_REACTORS
330
2850
102
}
330
2850
100
AcDbScale
 70
     0
300
1:40
140
1.0
141
40.0
290
     0
  0
SCALE
  5
285B
102
{ACAD_REACTORS
330
2850
102
}
330
2850
100
AcDbScale
 70
     0
300
1:50
140
1.0
141
50.0
290
     0
  0
SCALE
  5
285C
102
{ACAD_REACTORS
330
2850
102
}
330
2850
100
AcDbScale
 70
     0
300
1:100
140
1.0
141
100.0
290
     0
  0
SCALE
  5
285D
102
{ACAD_REACTORS
330
2850
102
}
330
2850
100
AcDbScale
 70
     0
300
2:1
140
2.0
141
1.0
290
     0
  0
SCALE
  5
285E
102
{ACAD_REACTORS
330
2850
102
}
330
2850
100
AcDbScale
 70
     0
300
4:1
140
4.0
141
1.0
290
     0
  0
SCALE
  5
285F
102
{ACAD_REACTORS
330
2850
102
}
330
2850
100
AcDbScale
 70
     0
300
8:1
140
8.0
141
1.0
290
     0
  0
SCALE
  5
2860
102
{ACAD_REACTORS
330
2850
102
}
330
2850
100
AcDbScale
 70
     0
300
10:1
140
10.0
141
1.0
290
     0
  0
SCALE
  5
2861
102
{ACAD_REACTORS
330
2850
102
}
330
2850
100
AcDbScale
 70
     0
300
100:1
140
100.0
141
1.0
290
     0
  0
SCALE
  5
2862
102
{ACAD_REACTORS
330
2850
102
}
330
2850
100
AcDbScale
 70
     0
300
1/128" = 1'-0"
140
0.0078125
141
12.0
290
     0
  0
SCALE
  5
2863
102
{ACAD_REACTORS
330
2850
102
}
330
2850
100
AcDbScale
 70
     0
300
1/64" = 1'-0"
140
0.015625
141
12.0
290
     0
  0
SCALE
  5
2864
102
{ACAD_REACTORS
330
2850
102
}
330
2850
100
AcDbScale
 70
     0
300
1/32" = 1'-0"
140
0.03125
141
12.0
290
     0
  0
SCALE
  5
2865
102
{ACAD_REACTORS
330
2850
102
}
330
2850
100
AcDbScale
 70
     0
300
1/16" = 1'-0"
140
0.0625
141
12.0
290
     0
  0
SCALE
  5
2866
102
{ACAD_REACTORS
330
2850
102
}
330
2850
100
AcDbScale
 70
     0
300
3/32" = 1'-0"
140
0.09375
141
12.0
290
     0
  0
SCALE
  5
2867
102
{ACAD_REACTORS
330
2850
102
}
330
2850
100
AcDbScale
 70
     0
300
1/8" = 1'-0"
140
0.125
141
12.0
290
     0
  0
SCALE
  5
2868
102
{ACAD_REACTORS
330
2850
102
}
330
2850
100
AcDbScale
 70
     0
300
3/16" = 1'-0"
140
0.1875
141
12.0
290
     0
  0
SCALE
  5
2869
102
{ACAD_REACTORS
330
2850
102
}
330
2850
100
AcDbScale
 70
     0
300
1/4" = 1'-0"
140
0.25
141
12.0
290
     0
  0
SCALE
  5
286A
102
{ACAD_REACTORS
330
2850
102
}
330
2850
100
AcDbScale
 70
     0
300
3/8" = 1'-0"
140
0.375
141
12.0
290
     0
  0
SCALE
  5
286B
102
{ACAD_REACTORS
330
2850
102
}
330
2850
100
AcDbScale
 70
     0
300
1/2" = 1'-0"
140
0.5
141
12.0
290
     0
  0
SCALE
  5
286C
102
{ACAD_REACTORS
330
2850
102
}
330
2850
100
AcDbScale
 70
     0
300
3/4" = 1'-0"
140
0.75
141
12.0
290
     0
  0
SCALE
  5
286D
102
{ACAD_REACTORS
330
2850
102
}
330
2850
100
AcDbScale
 70
     0
300
1" = 1'-0"
140
1.0
141
12.0
290
     0
  0
SCALE
  5
286E
102
{ACAD_REACTORS
330
2850
102
}
330
2850
100
AcDbScale
 70
     0
300
1-1/2" = 1'-0"
140
1.5
141
12.0
290
     0
  0
SCALE
  5
286F
102
{ACAD_REACTORS
330
2850
102
}
330
2850
100
AcDbScale
 70
     0
300
3" = 1'-0"
140
3.0
141
12.0
290
     0
  0
SCALE
  5
2870
102
{ACAD_REACTORS
330
2850
102
}
330
2850
100
AcDbScale
 70
     0
300
6" = 1'-0"
140
6.0
141
12.0
290
     0
  0
SCALE
  5
2871
102
{ACAD_REACTORS
330
2850
102
}
330
2850
100
AcDbScale
 70
     0
300
1'-0" = 1'-0"
140
12.0
141
12.0
290
     0
  0
TABLESTYLE
  5
2882
102
{ACAD_XDICTIONARY
360
2A6F
102
}
102
{ACAD_REACTORS
330
2881
102
}
330
2881
100
AcDbTableStyle
  3
Standard
 70
     0
 71
     0
 40
0.06
 41
0.06
280
     0
281
     0
  7
STANDARD
140
0.18
170
     2
 62
     0
 63
     7
283
     0
274
    -2
284
     1
 64
     0
275
    -2
285
     1
 65
     0
276
    -2
286
     1
 66
     0
277
    -2
287
     1
 67
     0
278
    -2
288
     1
 68
     0
279
    -2
289
     1
 69
     0
  7
STANDARD
140
0.25
170
     5
 62
     0
 63
     7
283
     0
274
    -2
284
     1
 64
     0
275
    -2
285
     1
 65
     0
276
    -2
286
     1
 66
     0
277
    -2
287
     1
 67
     0
278
    -2
288
     1
 68
     0
279
    -2
289
     1
 69
     0
  7
STANDARD
140
0.18
170
     5
 62
     0
 63
     7
283
     0
274
    -2
284
     1
 64
     0
275
    -2
285
     1
 65
     0
276
    -2
286
     1
 66
     0
277
    -2
287
     1
 67
     0
278
    -2
288
     1
 68
     0
279
    -2
289
     1
 69
     0
  0
VISUALSTYLE
  5
2845
102
{ACAD_REACTORS
330
283F
102
}
330
283F
100
AcDbVisualStyle
  2
2dWireframe
 70
     4
 71
     0
 72
     2
 73
     0
 90
        0
 40
-0.6
 41
-30.0
 62
     5
 63
     7
 74
     1
 91
        4
 64
     7
 65
   257
 75
     1
175
     1
 42
1.0
 92
        0
 66
   257
 43
1.0
 76
     1
 77
     6
 78
     2
 67
     7
 79
     5
170
     0
171
     0
290
     0
174
     0
 93
        1
 44
0.0
173
     0
291
     0
 45
0.0
1001
ACAD
1000
AcDbSavedByObjectVersion
1070
     0
  0
VISUALSTYLE
  5
2847
102
{ACAD_REACTORS
330
283F
102
}
330
283F
100
AcDbVisualStyle
  2
3D Hidden
 70
     6
 71
     1
 72
     2
 73
     2
 90
        0
 40
-0.6
 41
-30.0
 62
     5
 63
     7
 74
     2
 91
        2
 64
     7
 65
   257
 75
     2
175
     1
 42
40.0
 92
        0
 66
   257
 43
1.0
 76
     1
 77
     6
 78
     2
 67
     7
 79
     3
170
     0
171
     0
290
     0
174
     0
 93
        1
 44
0.0
173
     0
291
     0
 45
0.0
1001
ACAD
1000
AcDbSavedByObjectVersion
1070
     0
  0
VISUALSTYLE
  5
2846
102
{ACAD_REACTORS
330
283F
102
}
330
283F
100
AcDbVisualStyle
  2
3dWireframe
 70
     5
 71
     0
 72
     2
 73
     0
 90
        0
 40
-0.6
 41
-30.0
 62
     5
 63
     7
 74
     1
 91
        4
 64
     7
 65
   257
 75
     1
175
     1
 42
1.0
 92
        0
 66
   257
 43
1.0
 76
     1
 77
     6
 78
     2
 67
     7
 79
     5
170
     0
171
     0
290
     0
174
     0
 93
        1
 44
0.0
173
     0
291
     0
 45
0.0
1001
ACAD
1000
AcDbSavedByObjectVersion
1070
     0
  0
VISUALSTYLE
  5
2844
102
{ACAD_REACTORS
330
283F
102
}
330
283F
100
AcDbVisualStyle
  2
Basic
 70
     7
 71
     1
 72
     0
 73
     1
 90
        0
 40
-0.6
 41
-30.0
 62
     5
 63
     7
 74
     0
 91
        4
 64
     7
 65
   257
 75
     1
175
     1
 42
1.0
 92
        8
 66
     7
 43
1.0
 76
     1
 77
     6
 78
     2
 67
     7
 79
     5
170
     0
171
     0
290
     0
174
     0
 93
        1
 44
0.0
173
     0
291
     1
 45
0.0
1001
ACAD
1000
AcDbSavedByObjectVersion
1070
     0
  0
VISUALSTYLE
  5
284B
102
{ACAD_REACTORS
330
283F
102
}
330
283F
100
AcDbVisualStyle
  2
Brighten
 70
    12
 71
     2
 72
     2
 73
     0
 90
        0
 40
-0.6
 41
-30.0
 62
     5
 63
     7
 74
     1
 91
        4
 64
     7
 65
   257
 75
     1
175
     1
 42
1.0
 92
        8
 66
     7
 43
1.0
 76
     1
 77
     6
 78
     2
 67
     7
 79
     5
170
     0
171
     0
290
     0
174
     0
 93
        1
 44
50.0
173
     0
291
     1
 45
0.0
1001
ACAD
1000
AcDbSavedByObjectVersion
1070
     0
  0
VISUALSTYLE
  5
284F
102
{ACAD_REACTORS
330
283F
102
}
330
283F
100
AcDbVisualStyle
  2
ColorChange
 70
    16
 71
     2
 72
     2
 73
     3
 90
        0
 40
-0.6
 41
-30.0
 62
     5
 63
     8
 74
     1
 91
        4
 64
     7
 65
   257
 75
     1
175
     1
 42
1.0
 92
        8
 66
     8
 43
1.0
 76
     1
 77
     6
 78
     2
 67
     7
 79
     5
170
     0
171
     0
290
     0
174
     0
 93
        1
 44
0.0
173
     0
291
     1
 45
0.0
1001
ACAD
1000
AcDbSavedByObjectVersion
1070
     0
  0
VISUALSTYLE
  5
2848
102
{ACAD_REACTORS
330
283F
102
}
330
283F
100
AcDbVisualStyle
  2
Conceptual
 70
     9
 71
     3
 72
     2
 73
     0
 90
        0
 40
-0.6
 41
-30.0
 62
     5
 63
     7
 74
     2
 91
        2
 64
     7
 65
   257
 75
     1
175
     1
 42
40.0
 92
        8
 66
     7
 43
1.0
 76
     1
 77
     6
 78
     2
 67
     7
 79
     3
170
     0
171
     0
290
     0
174
     0
 93
        1
 44
0.0
173
     0
291
     0
 45
0.0
1001
ACAD
1000
AcDbSavedByObjectVersion
1070
     0
  0
VISUALSTYLE
  5
284A
102
{ACAD_REACTORS
330
283F
102
}
330
283F
100
AcDbVisualStyle
  2
Dim
 70
    11
 71
     2
 72
     2
 73
     0
 90
        0
 40
-0.6
 41
-30.0
 62
     5
 63
     7
 74
     1
 91
        4
 64
     7
 65
   257
 75
     1
175
     1
 42
1.0
 92
        8
 66
     7
 43
1.0
 76
     1
 77
     6
 78
     2
 67
     7
 79
     5
170
     0
171
     0
290
     0
174
     0
 93
        1
 44
-50.0
173
     0
291
     1
 45
0.0
1001
ACAD
1000
AcDbSavedByObjectVersion
1070
     0
  0
VISUALSTYLE
  5
284E
102
{ACAD_REACTORS
330
283F
102
}
330
283F
100
AcDbVisualStyle
  2
Facepattern
 70
    15
 71
     2
 72
     2
 73
     0
 90
        0
 40
-0.6
 41
-30.0
 62
     5
 63
     7
 74
     1
 91
        4
 64
     7
 65
   257
 75
     1
175
     1
 42
1.0
 92
        8
 66
     7
 43
1.0
 76
     1
 77
     6
 78
     2
 67
     7
 79
     5
170
     0
171
     0
290
     0
174
     0
 93
        1
 44
0.0
173
     0
291
     1
 45
0.0
1001
ACAD
1000
AcDbSavedByObjectVersion
1070
     0
  0
VISUALSTYLE
  5
2840
102
{ACAD_REACTORS
330
283F
102
}
330
283F
100
AcDbVisualStyle
  2
Flat
 70
     0
 71
     2
 72
     1
 73
     1
 90
        2
 40
-0.6
 41
30.0
 62
     5
 63
     7
 74
     0
 91
        4
 64
     7
 65
   257
 75
     1
175
     1
 42
1.0
 92
        8
 66
     7
 43
1.0
 76
     1
 77
     6
 78
     2
 67
     7
 79
     5
170
     0
171
     0
290
     0
174
     0
 93
       13
 44
0.0
173
     0
291
     1
 45
0.0
1001
ACAD
1000
AcDbSavedByObjectVersion
1070
     0
  0
VISUALSTYLE
  5
2841
102
{ACAD_REACTORS
330
283F
102
}
330
283F
100
AcDbVisualStyle
  2
FlatWithEdges
 70
     1
 71
     2
 72
     1
 73
     1
 90
        2
 40
-0.6
 41
30.0
 62
     5
 63
     7
 74
     1
 91
        4
 64
     7
 65
   257
 75
     1
175
     1
 42
1.0
 92
        0
 66
   257
 43
1.0
 76
     1
 77
     6
 78
     2
 67
     7
 79
     5
170
     0
171
     0
290
     0
174
     0
 93
       13
 44
0.0
173
     0
291
     1
 45
0.0
1001
ACAD
1000
AcDbSavedByObjectVersion
1070
     0
  0
VISUALSTYLE
  5
2842
102
{ACAD_REACTORS
330
283F
102
}
330
283F
100
AcDbVisualStyle
  2
Gouraud
 70
     2
 71
     2
 72
     2
 73
     1
 90
        2
 40
-0.6
 41
30.0
 62
     5
 63
     7
 74
     0
 91
        4
 64
     7
 65
   257
 75
     1
175
     1
 42
1.0
 92
        0
 66
     7
 43
1.0
 76
     1
 77
     6
 78
     2
 67
     7
 79
     5
170
     0
171
     0
290
     0
174
     0
 93
       13
 44
0.0
173
     0
291
     1
 45
0.0
1001
ACAD
1000
AcDbSavedByObjectVersion
1070
     0
  0
VISUALSTYLE
  5
2843
102
{ACAD_REACTORS
330
283F
102
}
330
283F
100
AcDbVisualStyle
  2
GouraudWithEdges
 70
     3
 71
     2
 72
     2
 73
     1
 90
        2
 40
-0.6
 41
30.0
 62
     5
 63
     7
 74
     1
 91
        4
 64
     7
 65
   257
 75
     1
175
     1
 42
1.0
 92
        0
 66
   257
 43
1.0
 76
     1
 77
     6
 78
     2
 67
     7
 79
     5
170
     0
171
     0
290
     0
174
     0
 93
       13
 44
0.0
173
     0
291
     1
 45
0.0
1001
ACAD
1000
AcDbSavedByObjectVersion
1070
     0
  0
VISUALSTYLE
  5
284D
102
{ACAD_REACTORS
330
283F
102
}
330
283F
100
AcDbVisualStyle
  2
Linepattern
 70
    14
 71
     2
 72
     2
 73
     0
 90
        0
 40
-0.6
 41
-30.0
 62
     5
 63
     7
 74
     1
 91
        4
 64
     7
 65
   257
 75
     7
175
     7
 42
1.0
 92
        8
 66
     7
 43
1.0
 76
     1
 77
     6
 78
     2
 67
     7
 79
     5
170
     0
171
     0
290
     0
174
     0
 93
        1
 44
0.0
173
     0
291
     1
 45
0.0
1001
ACAD
1000
AcDbSavedByObjectVersion
1070
     0
  0
VISUALSTYLE
  5
2849
102
{ACAD_REACTORS
330
283F
102
}
330
283F
100
AcDbVisualStyle
  2
Realistic
 70
     8
 71
     2
 72
     2
 73
     0
 90
        0
 40
-0.6
 41
-30.0
 62
     5
 63
     7
 74
     1
 91
        0
 64
     7
 65
   257
 75
     1
175
     1
 42
1.0
 92
        8
 66
     8
 43
1.0
 76
     1
 77
     6
 78
     2
 67
     7
 79
     5
170
     0
171
     0
290
     0
174
     0
 93
       13
 44
0.0
173
     0
291
     0
 45
0.0
1001
ACAD
1000
AcDbSavedByObjectVersion
1070
     0
  0
VISUALSTYLE
  5
284C
102
{ACAD_REACTORS
330
283F
102
}
330
283F
100
AcDbVisualStyle
  2
Thicken
 70
    13
 71
     2
 72
     2
 73
     0
 90
        0
 40
-0.6
 41
-30.0
 62
     5
 63
     7
 74
     1
 91
        4
 64
     7
 65
   257
 75
     1
175
     1
 42
1.0
 92
       12
 66
     7
 43
1.0
 76
     1
 77
     6
 78
     2
 67
     7
 79
     5
170
     0
171
     0
290
     0
174
     0
 93
        1
 44
0.0
173
     0
291
     1
 45
0.0
1001
ACAD
1000
AcDbSavedByObjectVersion
1070
     0
  0
DICTIONARYVAR
  5
2A6B
102
{ACAD_REACTORS
330
2A68
102
}
330
2A68
100
DictionaryVariables
280
     0
  1
1:1
  0
DICTIONARYVAR
  5
2A6A
102
{ACAD_REACTORS
330
2A68
102
}
330
2A68
100
DictionaryVariables
280
     0
  1
STANDARD
  0
DICTIONARYVAR
  5
2A69
102
{ACAD_REACTORS
330
2A68
102
}
330
2A68
100
DictionaryVariables
280
     0
  1
STANDARD
  0
DICTIONARYVAR
  5
2A6E
102
{ACAD_REACTORS
330
2A68
102
}
330
2A68
100
DictionaryVariables
280
     0
  1
1
  0
DICTIONARYVAR
  5
2A6D
102
{ACAD_REACTORS
330
2A68
102
}
330
2A68
100
DictionaryVariables
280
     0
  1
1
  0
DICTIONARYVAR
  5
2A6C
102
{ACAD_REACTORS
330
2A68
102
}
330
2A68
100
DictionaryVariables
280
     0
  1
127
  0
DICTIONARY
  5
2A22
102
{ACAD_REACTORS
330
2A14
102
}
330
2A14
100
AcDbDictionary
281
     1
  0
DICTIONARY
  5
2962
102
{ACAD_REACTORS
330
2961
102
}
330
2961
100
AcDbDictionary
281
     1
  3
DWGSETTINGS
350
2963
  3
TRANSSETTINGS
350
2964
  0
ACAMGFILTERDAT
  5
2A41
102
{ACAD_REACTORS
330
2A3C
102
}
330
2A3C
100
AcAmgFilterDat
 70
    15
  1
DIMENSION,AMDT_*_DIM
  2
*
  3
*
  4
*
  5
*
290
     1
  0
ACAMGFILTERDAT
  5
2A40
102
{ACAD_REACTORS
330
2A3C
102
}
330
2A3C
100
AcAmgFilterDat
 70
    15
  1
*
  2
AM_FEA-AM_*
  3
*
  4
*
  5
*
290
     1
  0
ACAMGFILTERDAT
  5
2A3D
102
{ACAD_REACTORS
330
2A3C
102
}
330
2A3C
100
AcAmgFilterDat
 70
    15
  1
HATCH
  2
*
  3
*
  4
*
  5
*
290
     1
  0
ACAMGFILTERDAT
  5
2A3E
102
{ACAD_REACTORS
330
2A3C
102
}
330
2A3C
100
AcAmgFilterDat
 70
    15
  1
LINE
  2
8,8N,*-8,*-8N,AM_8,AM_8N,*-AM_8,*-AM_8N
  3
*
  4
*
  5
INSERT,STDPART2D
290
     1
  0
ACAMGFILTERDAT
  5
2A42
102
{ACAD_REACTORS
330
2A3C
102
}
330
2A3C
100
AcAmgFilterDat
 70
    15
  1
ARC
  2
AM_5
  3
*
  4
2
  5
INSERT
290
     0
  0
ACAMGFILTERDAT
  5
2A3F
102
{ACAD_REACTORS
330
2A3C
102
}
330
2A3C
100
AcAmgFilterDat
 70
    15
  1
ACMFCFRAME,ACMDATUMTARGET,ACMDATUMID,ACMWELDSYM,ACMSURFSYM,ACMFEATID,ACMPARTREF,ACMBALLOON,AMDTEDGESYM,AMGSCREWCALCTABLE,ACMMARKSTAMP
  2
*
  3
*
  4
*
  5
*
290
     1
  0
LAYER_INDEX
  5
2A5B
102
{ACAD_REACTORS
330
2A5A
102
}
330
2A5A
100
AcDbIndex
 40
2456211.590641331
100
AcDbLayerIndex
  8
0
360
2A5C
 90
        2
  8
OUTLINE
360
2A5D
 90
       42
  8
SIZE
360
2A5E
 90
       38
  8
BASIS
360
2A5F
 90
        1
  8
DETAIL
360
2A60
 90
       44
  8
ARRANGE
360
2A61
 90
        3
  8
DEFPOINTS
360
2A62
 90
        0
  8
ETC
360
2A63
 90
        3
  8
FIX
360
2A64
 90
        0
  8
NOTE
360
2A65
 90
        4
  8
SERVICESPACE
360
2A66
 90
        0
  8
SYMBOLLINE
360
2A67
 90
        0
  0
DICTIONARY
  5
2A7E
330
288D
100
AcDbDictionary
280
     1
281
     1
  3
ACAD_XREC_ROUNDTRIP
360
2A7F
  0
DICTIONARY
  5
2A7C
330
2889
100
AcDbDictionary
280
     1
281
     1
  3
ACAD_XREC_ROUNDTRIP
360
2A7D
  0
DICTIONARY
  5
2830
330
282F
100
AcDbDictionary
280
     1
281
     1
  3
ACAD_XREC_ROUNDTRIP
360
2A79
  3
BUMPTILE
360
2832
  3
DIFFUSETILE
360
2831
  3
OPACITYTILE
360
2835
  3
REFLECTIONTILE
360
2834
  3
REFRACTIONTILE
360
2836
  3
SPECULARTILE
360
2833
  0
DICTIONARY
  5
2828
330
2827
100
AcDbDictionary
280
     1
281
     1
  3
ACAD_XREC_ROUNDTRIP
360
2A78
  3
BUMPTILE
360
282A
  3
DIFFUSETILE
360
2829
  3
OPACITYTILE
360
282D
  3
REFLECTIONTILE
360
282C
  3
REFRACTIONTILE
360
282E
  3
SPECULARTILE
360
282B
  0
DICTIONARY
  5
2838
330
2837
100
AcDbDictionary
280
     1
281
     1
  3
ACAD_XREC_ROUNDTRIP
360
2A7A
  3
BUMPTILE
360
283A
  3
DIFFUSETILE
360
2839
  3
OPACITYTILE
360
283D
  3
REFLECTIONTILE
360
283C
  3
REFRACTIONTILE
360
283E
  3
SPECULARTILE
360
283B
  0
DICTIONARY
  5
2A6F
330
2882
100
AcDbDictionary
280
     1
281
     1
  3
ACAD_ROUNDTRIP_2008_TABLESTYLE_CELLSTYLEMAP
360
2A70
  3
ACAD_XREC_ROUNDTRIP
360
2A7B
  0
IDBUFFER
  5
2A5C
330
0
100
AcDbIdBuffer
330
27A6
330
27A7
  0
IDBUFFER
  5
2A5D
330
0
100
AcDbIdBuffer
330
27B2
330
27B3
330
27B4
330
27B5
330
27B6
330
27B7
330
27B8
330
27B9
330
27BA
330
27BB
330
27BC
330
27BD
330
27BE
330
27BF
330
27C0
330
27C1
330
27C2
330
27C3
330
27C4
330
27C5
330
27C6
330
27C7
330
27C8
330
27C9
330
27CA
330
27CB
330
953
330
954
330
955
330
956
330
957
330
958
330
277F
330
2796
330
27AA
330
27AB
330
27AC
330
27AD
330
27AE
330
27AF
330
27B0
330
27B1
  0
IDBUFFER
  5
2A5E
330
0
100
AcDbIdBuffer
330
27E2
330
27E3
330
27E4
330
27E5
330
27E6
330
27E7
330
27E8
330
27E9
330
27EA
330
27EB
330
27EC
330
27ED
330
27EE
330
27EF
330
27F0
330
27F1
330
27F2
330
27F3
330
27F4
330
27F5
330
27F6
330
27F7
330
27D2
330
27D3
330
27D4
330
27D5
330
27D6
330
27D7
330
27D8
330
27D9
330
27DA
330
27DB
330
27DC
330
27DD
330
27DE
330
27DF
330
27E0
330
27E1
  0
IDBUFFER
  5
2A5F
330
0
100
AcDbIdBuffer
330
278A
  0
IDBUFFER
  5
2A60
330
0
100
AcDbIdBuffer
330
278E
330
278F
330
2790
330
2791
330
2792
330
2793
330
2794
330
2795
330
2797
330
2798
330
2799
330
279A
330
279C
330
279D
330
279E
330
279F
330
27A0
330
27A1
330
27A2
330
27A3
330
27A4
330
27A5
330
27CC
330
27CD
330
27CE
330
27CF
330
27D0
330
27D1
330
2778
330
2779
330
277A
330
277B
330
277C
330
277D
330
277E
330
2780
330
2781
330
2782
330
2783
330
2784
330
2785
330
278B
330
278C
330
278D
  0
IDBUFFER
  5
2A61
330
0
100
AcDbIdBuffer
330
2787
330
2788
330
2789
  0
IDBUFFER
  5
2A62
330
0
100
AcDbIdBuffer
  0
IDBUFFER
  5
2A63
330
0
100
AcDbIdBuffer
330
27F8
330
27F9
330
27FA
  0
IDBUFFER
  5
2A64
330
0
100
AcDbIdBuffer
  0
IDBUFFER
  5
2A65
330
0
100
AcDbIdBuffer
330
2786
330
279B
330
27A8
330
27A9
  0
IDBUFFER
  5
2A66
330
0
100
AcDbIdBuffer
  0
IDBUFFER
  5
2A67
330
0
100
AcDbIdBuffer
  0
XRECORD
  5
2A7F
102
{ACAD_REACTORS
330
2A7E
102
}
330
2A7E
100
AcDbXrecord
280
     1
102
SHADEPLOT
 70
     0
102
SHADEPLOTRESLEVEL
 70
     2
102
SHADEPLOTCUSTOMDPI
 70
   300
  0
XRECORD
  5
2A7D
102
{ACAD_REACTORS
330
2A7C
102
}
330
2A7C
100
AcDbXrecord
280
     1
102
SHADEPLOT
 70
     0
102
SHADEPLOTRESLEVEL
 70
     2
102
SHADEPLOTCUSTOMDPI
 70
   300
  0
XRECORD
  5
2A79
102
{ACAD_REACTORS
330
2830
102
}
330
2830
100
AcDbXrecord
280
     1
102
MATERIAL
148
0.0
149
0.0
149
0.0
 93
        0
 94
      127
282
     0
 72
     0
 77
     0
171
     0
175
     0
179
     0
273
     0
  0
XRECORD
  5
2832
102
{ACAD_REACTORS
330
2830
102
}
330
2830
100
AcDbXrecord
280
     1
270
     1
271
     1
  0
XRECORD
  5
2831
102
{ACAD_REACTORS
330
2830
102
}
330
2830
100
AcDbXrecord
280
     1
270
     1
271
     1
  0
XRECORD
  5
2835
102
{ACAD_REACTORS
330
2830
102
}
330
2830
100
AcDbXrecord
280
     1
270
     1
271
     1
  0
XRECORD
  5
2834
102
{ACAD_REACTORS
330
2830
102
}
330
2830
100
AcDbXrecord
280
     1
270
     1
271
     1
  0
XRECORD
  5
2836
102
{ACAD_REACTORS
330
2830
102
}
330
2830
100
AcDbXrecord
280
     1
270
     1
271
     1
  0
XRECORD
  5
2833
102
{ACAD_REACTORS
330
2830
102
}
330
2830
100
AcDbXrecord
280
     1
270
     1
271
     1
  0
XRECORD
  5
2A78
102
{ACAD_REACTORS
330
2828
102
}
330
2828
100
AcDbXrecord
280
     1
102
MATERIAL
148
0.0
149
0.0
149
0.0
 93
        0
 94
      127
282
     0
 72
     0
 77
     0
171
     0
175
     0
179
     0
273
     0
  0
XRECORD
  5
282A
102
{ACAD_REACTORS
330
2828
102
}
330
2828
100
AcDbXrecord
280
     1
270
     1
271
     1
  0
XRECORD
  5
2829
102
{ACAD_REACTORS
330
2828
102
}
330
2828
100
AcDbXrecord
280
     1
270
     1
271
     1
  0
XRECORD
  5
282D
102
{ACAD_REACTORS
330
2828
102
}
330
2828
100
AcDbXrecord
280
     1
270
     1
271
     1
  0
XRECORD
  5
282C
102
{ACAD_REACTORS
330
2828
102
}
330
2828
100
AcDbXrecord
280
     1
270
     1
271
     1
  0
XRECORD
  5
282E
102
{ACAD_REACTORS
330
2828
102
}
330
2828
100
AcDbXrecord
280
     1
270
     1
271
     1
  0
XRECORD
  5
282B
102
{ACAD_REACTORS
330
2828
102
}
330
2828
100
AcDbXrecord
280
     1
270
     1
271
     1
  0
XRECORD
  5
2A7A
102
{ACAD_REACTORS
330
2838
102
}
330
2838
100
AcDbXrecord
280
     1
102
MATERIAL
148
0.0
149
0.0
149
0.0
 93
        0
 94
      127
282
     0
 72
     0
 77
     0
171
     0
175
     0
179
     0
273
     0
  0
XRECORD
  5
283A
102
{ACAD_REACTORS
330
2838
102
}
330
2838
100
AcDbXrecord
280
     1
270
     1
271
     1
  0
XRECORD
  5
2839
102
{ACAD_REACTORS
330
2838
102
}
330
2838
100
AcDbXrecord
280
     1
270
     1
271
     1
  0
XRECORD
  5
283D
102
{ACAD_REACTORS
330
2838
102
}
330
2838
100
AcDbXrecord
280
     1
270
     1
271
     1
  0
XRECORD
  5
283C
102
{ACAD_REACTORS
330
2838
102
}
330
2838
100
AcDbXrecord
280
     1
270
     1
271
     1
  0
XRECORD
  5
283E
102
{ACAD_REACTORS
330
2838
102
}
330
2838
100
AcDbXrecord
280
     1
270
     1
271
     1
  0
XRECORD
  5
283B
102
{ACAD_REACTORS
330
2838
102
}
330
2838
100
AcDbXrecord
280
     1
270
     1
271
     1
  0
CELLSTYLEMAP
  5
2A70
102
{ACAD_REACTORS
330
2A6F
102
}
330
2A6F
100
AcDbCellStyleMap
 90
        3
300
CELLSTYLE
  1
TABLEFORMAT_BEGIN
 90
        5
170
     1
 91
        0
 92
    32768
 62
   257
 93
        1
300
CONTENTFORMAT
  1
CONTENTFORMAT_BEGIN
 90
        0
 91
        0
 92
      512
 93
        0
300

 40
0.0
140
1.0
 94
        5
 62
     0
340
2873
144
0.25
309
CONTENTFORMAT_END
171
     0
 94
        0
309
TABLEFORMAT_END
  1
CELLSTYLE_BEGIN
 90
        1
 91
        1
300
_TITLE
309
CELLSTYLE_END
300
CELLSTYLE
  1
TABLEFORMAT_BEGIN
 90
        5
170
     1
 91
        0
 92
        0
 62
   257
 93
        1
300
CONTENTFORMAT
  1
CONTENTFORMAT_BEGIN
 90
        0
 91
        0
 92
      512
 93
        0
300

 40
0.0
140
1.0
 94
        5
 62
     0
340
2873
144
0.18
309
CONTENTFORMAT_END
171
     0
 94
        0
309
TABLEFORMAT_END
  1
CELLSTYLE_BEGIN
 90
        2
 91
        1
300
_HEADER
309
CELLSTYLE_END
300
CELLSTYLE
  1
TABLEFORMAT_BEGIN
 90
        5
170
     1
 91
        0
 92
        0
 62
   257
 93
        1
300
CONTENTFORMAT
  1
CONTENTFORMAT_BEGIN
 90
        0
 91
        0
 92
      512
 93
        0
300

 40
0.0
140
1.0
 94
        2
 62
     0
340
2873
144
0.18
309
CONTENTFORMAT_END
171
     0
 94
        0
309
TABLEFORMAT_END
  1
CELLSTYLE_BEGIN
 90
        3
 91
        2
300
_DATA
309
CELLSTYLE_END
  0
XRECORD
  5
2A7B
102
{ACAD_REACTORS
330
2A6F
102
}
330
2A6F
100
AcDbXrecord
280
     1
102
ACAD_ROUNDTRIP_PRE2007_TABLESTYLE
 90
      512
 91
        0
  1

 92
      512
 93
        0
  2

 94
      512
 95
        0
  3

  0
ENDSEC
  0
EOF
