  0
SECTION
  2
HEADER
  9
$ACADVER
  1
AC1015
  9
$ACADMAINTVER
 70
    20
  9
$DWGCODEPAGE
  3
ANSI_932
  9
$INSBASE
 10
0.0
 20
0.0
 30
0.0
  9
$EXTMIN
 10
-827.064497835312
 20
-1168.945301637222
 30
-0.0030516181105611
  9
$EXTMAX
 10
1426.629650705294
 20
829.2846762683293
 30
50.00305208378603
  9
$LIMMIN
 10
-2970.0
 20
-2100.0
  9
$LIMMAX
 10
2970.0
 20
2100.0
  9
$ORTHOMODE
 70
     1
  9
$REGENMODE
 70
     0
  9
$FILLMODE
 70
     1
  9
$QTEXTMODE
 70
     0
  9
$MIRRTEXT
 70
     0
  9
$LTSCALE
 40
20.0
  9
$ATTMODE
 70
     1
  9
$TEXTSIZE
 40
64.0
  9
$TRACEWID
 40
0.05
  9
$TEXTSTYLE
  7
STANDARD
  9
$CLAYER
  8
0
  9
$CELTYPE
  6
ByLayer
  9
$CECOLOR
 62
   256
  9
$CELTSCALE
 40
1.0
  9
$DISPSILH
 70
     0
  9
$DIMSCALE
 40
1.0
  9
$DIMASZ
 40
0.12
  9
$DIMEXO
 40
0.05
  9
$DIMDLI
 40
0.5
  9
$DIMRND
 40
0.0
  9
$DIMDLE
 40
0.0
  9
$DIMEXE
 40
0.1
  9
$DIMTP
 40
0.1
  9
$DIMTM
 40
0.1
  9
$DIMTXT
 40
0.12
  9
$DIMCEN
 40
0.0
  9
$DIMTSZ
 40
0.0
  9
$DIMTOL
 70
     0
  9
$DIMLIM
 70
     0
  9
$DIMTIH
 70
     1
  9
$DIMTOH
 70
     1
  9
$DIMSE1
 70
     0
  9
$DIMSE2
 70
     0
  9
$DIMTAD
 70
     0
  9
$DIMZIN
 70
     7
  9
$DIMBLK
  1

  9
$DIMASO
 70
     1
  9
$DIMSHO
 70
     0
  9
$DIMPOST
  1

  9
$DIMAPOST
  1
mm
  9
$DIMALT
 70
     0
  9
$DIMALTD
 70
     2
  9
$DIMALTF
 40
25.4
  9
$DIMLFAC
 40
1.0
  9
$DIMTOFL
 70
     0
  9
$DIMTVP
 40
0.0
  9
$DIMTIX
 70
     0
  9
$DIMSOXD
 70
     0
  9
$DIMSAH
 70
     0
  9
$DIMBLK1
  1

  9
$DIMBLK2
  1

  9
$DIMSTYLE
  2
AM_ANSI
  9
$DIMCLRD
 70
   256
  9
$DIMCLRE
 70
   256
  9
$DIMCLRT
 70
     2
  9
$DIMTFAC
 40
0.71
  9
$DIMGAP
 40
0.06
  9
$DIMJUST
 70
     0
  9
$DIMSD1
 70
     0
  9
$DIMSD2
 70
     0
  9
$DIMTOLJ
 70
     1
  9
$DIMTZIN
 70
     7
  9
$DIMALTZ
 70
     0
  9
$DIMALTTZ
 70
     0
  9
$DIMUPT
 70
     0
  9
$DIMDEC
 70
     4
  9
$DIMTDEC
 70
     4
  9
$DIMALTU
 70
     2
  9
$DIMALTTD
 70
     4
  9
$DIMTXSTY
  7
STANDARD
  9
$DIMAUNIT
 70
     0
  9
$DIMADEC
 70
     0
  9
$DIMALTRND
 40
0.0
  9
$DIMAZIN
 70
     2
  9
$DIMDSEP
 70
    46
  9
$DIMATFIT
 70
     3
  9
$DIMFRAC
 70
     0
  9
$DIMLDRBLK
  1

  9
$DIMLUNIT
 70
     2
  9
$DIMLWD
 70
    -1
  9
$DIMLWE
 70
    -1
  9
$DIMTMOVE
 70
     0
  9
$LUNITS
 70
     2
  9
$LUPREC
 70
     4
  9
$SKETCHINC
 40
0.1
  9
$FILLETRAD
 40
4.0
  9
$AUNITS
 70
     1
  9
$AUPREC
 70
     3
  9
$MENU
  1
ACAD
  9
$ELEVATION
 40
0.0
  9
$PELEVATION
 40
0.0
  9
$THICKNESS
 40
50.0
  9
$LIMCHECK
 70
     0
  9
$CHAMFERA
 40
0.0
  9
$CHAMFERB
 40
0.0
  9
$CHAMFERC
 40
0.0
  9
$CHAMFERD
 40
0.0
  9
$SKPOLY
 70
     0
  9
$TDCREATE
 40
2452321.396199653
  9
$TDUCREATE
 40
2452321.021199653
  9
$TDUPDATE
 40
2456211.591452165
  9
$TDUUPDATE
 40
2456211.216452165
  9
$TDINDWG
 40
1.0388665162
  9
$TDUSRTIMER
 40
1.0388611111
  9
$USRTIMER
 70
     1
  9
$ANGBASE
 50
0.0
  9
$ANGDIR
 70
     0
  9
$PDMODE
 70
     3
  9
$PDSIZE
 40
-2.0
  9
$PLINEWID
 40
0.0
  9
$SPLFRAME
 70
     0
  9
$SPLINETYPE
 70
     6
  9
$SPLINESEGS
 70
     8
  9
$HANDSEED
  5
265F
  9
$SURFTAB1
 70
     6
  9
$SURFTAB2
 70
     6
  9
$SURFTYPE
 70
     6
  9
$SURFU
 70
     6
  9
$SURFV
 70
     6
  9
$UCSBASE
  2

  9
$UCSNAME
  2

  9
$UCSORG
 10
0.0
 20
0.0
 30
0.0
  9
$UCSXDIR
 10
1.0
 20
0.0
 30
0.0
  9
$UCSYDIR
 10
0.0
 20
1.0
 30
0.0
  9
$UCSORTHOREF
  2

  9
$UCSORTHOVIEW
 70
     0
  9
$UCSORGTOP
 10
0.0
 20
0.0
 30
0.0
  9
$UCSORGBOTTOM
 10
0.0
 20
0.0
 30
0.0
  9
$UCSORGLEFT
 10
0.0
 20
0.0
 30
0.0
  9
$UCSORGRIGHT
 10
0.0
 20
0.0
 30
0.0
  9
$UCSORGFRONT
 10
0.0
 20
0.0
 30
0.0
  9
$UCSORGBACK
 10
0.0
 20
0.0
 30
0.0
  9
$PUCSBASE
  2

  9
$PUCSNAME
  2

  9
$PUCSORG
 10
0.0
 20
0.0
 30
0.0
  9
$PUCSXDIR
 10
1.0
 20
0.0
 30
0.0
  9
$PUCSYDIR
 10
0.0
 20
1.0
 30
0.0
  9
$PUCSORTHOREF
  2

  9
$PUCSORTHOVIEW
 70
     0
  9
$PUCSORGTOP
 10
0.0
 20
0.0
 30
0.0
  9
$PUCSORGBOTTOM
 10
0.0
 20
0.0
 30
0.0
  9
$PUCSORGLEFT
 10
0.0
 20
0.0
 30
0.0
  9
$PUCSORGRIGHT
 10
0.0
 20
0.0
 30
0.0
  9
$PUCSORGFRONT
 10
0.0
 20
0.0
 30
0.0
  9
$PUCSORGBACK
 10
0.0
 20
0.0
 30
0.0
  9
$USERI1
 70
     0
  9
$USERI2
 70
     0
  9
$USERI3
 70
     0
  9
$USERI4
 70
     0
  9
$USERI5
 70
     0
  9
$USERR1
 40
20.0
  9
$USERR2
 40
0.0
  9
$USERR3
 40
0.0
  9
$USERR4
 40
0.0
  9
$USERR5
 40
0.0
  9
$WORLDVIEW
 70
     1
  9
$SHADEDGE
 70
     3
  9
$SHADEDIF
 70
    70
  9
$TILEMODE
 70
     1
  9
$MAXACTVP
 70
    64
  9
$PINSBASE
 10
0.0
 20
0.0
 30
0.0
  9
$PLIMCHECK
 70
     0
  9
$PEXTMIN
 10
1.000000000000000E+20
 20
1.000000000000000E+20
 30
1.000000000000000E+20
  9
$PEXTMAX
 10
-1.000000000000000E+20
 20
-1.000000000000000E+20
 30
-1.000000000000000E+20
  9
$PLIMMIN
 10
0.0
 20
0.0
  9
$PLIMMAX
 10
12.0
 20
9.0
  9
$UNITMODE
 70
     0
  9
$VISRETAIN
 70
     1
  9
$PLINEGEN
 70
     0
  9
$PSLTSCALE
 70
     1
  9
$TREEDEPTH
 70
  3020
  9
$CMLSTYLE
  2
Standard
  9
$CMLJUST
 70
     0
  9
$CMLSCALE
 40
1.0
  9
$PROXYGRAPHICS
 70
     1
  9
$MEASUREMENT
 70
     0
  9
$CELWEIGHT
370
    -1
  9
$ENDCAPS
280
     0
  9
$JOINSTYLE
280
     0
  9
$LWDISPLAY
290
     0
  9
$INSUNITS
 70
     0
  9
$HYPERLINKBASE
  1

  9
$STYLESHEET
  1

  9
$XEDIT
290
     1
  9
$CEPSNTYPE
380
     0
  9
$PSTYLEMODE
290
     1
  9
$FINGERPRINTGUID
  2
{7411E230-EEF2-479D-B0BB-A964081F40AF}
  9
$VERSIONGUID
  2
{E9339DEC-9F19-4696-92BA-94B182A6BFDF}
  9
$EXTNAMES
290
     1
  9
$PSVPSCALE
 40
0.0
  9
$OLESTARTUP
290
     0
  0
ENDSEC
  0
SECTION
  2
CLASSES
  0
CLASS
  1
ACDBDICTIONARYWDFLT
  2
AcDbDictionaryWithDefault
  3
ObjectDBX Classes
 90
        0
280
     0
281
     0
  0
CLASS
  1
MATERIAL
  2
AcDbMaterial
  3
ObjectDBX Classes
 90
     1153
280
     0
281
     0
  0
CLASS
  1
VISUALSTYLE
  2
AcDbVisualStyle
  3
ObjectDBX Classes
 90
     4095
280
     0
281
     0
  0
CLASS
  1
SCALE
  2
AcDbScale
  3
ObjectDBX Classes
 90
     1153
280
     0
281
     0
  0
CLASS
  1
TABLESTYLE
  2
AcDbTableStyle
  3
ObjectDBX Classes
 90
     4095
280
     0
281
     0
  0
CLASS
  1
MLEADERSTYLE
  2
AcDbMLeaderStyle
  3
ACDB_MLEADERSTYLE_CLASS
 90
     4095
280
     0
281
     0
  0
CLASS
  1
AMGSETTINGSOBJ
  2
AmgSettingsObj
  3
"AcadM|Product Description: AutoCAD Mechanical|Company: Autodesk, Inc."
 90
     1024
280
     0
281
     0
  0
CLASS
  1
ACME_DOCUMENT
  2
AcMeDbDoc
  3
AcMeServices
 90
     1024
280
     0
281
     0
  0
CLASS
  1
ACMESCOPE
  2
AcMeScope
  3
AcMeServices
 90
     1024
280
     0
281
     0
  0
CLASS
  1
ACMECOMMANDHISTORY
  2
AcMeCommandHistory
  3
AcMeServices
 90
     1024
280
     0
281
     0
  0
CLASS
  1
ACIMSYSVARMAN
  2
AcImSysVarManager
  3
AcMeServices
 90
     1024
280
     0
281
     0
  0
CLASS
  1
ACIMREALSYSVAR
  2
AcImRealSysVar
  3
AcMeServices
 90
     1024
280
     0
281
     0
  0
CLASS
  1
ACIMINTSYSVAR
  2
AcImIntSysVar
  3
AcMeServices
 90
     1024
280
     0
281
     0
  0
CLASS
  1
ACMEDRAWINGMAN
  2
AcMeDrawingMan
  3
AcMeServices
 90
     1024
280
     0
281
     0
  0
CLASS
  1
ACMEVIEW
  2
AcMeView
  3
AcMeServices
 90
     1024
280
     0
281
     0
  0
CLASS
  1
ACDBENTITYCACHE
  2
AcMeEntityCache
  3
AcMeServices
 90
     1024
280
     0
281
     0
  0
CLASS
  1
GSMANAGER
  2
AcMeGSManager
  3
AcMeServices
 90
     1024
280
     0
281
     0
  0
CLASS
  1
AMDTINTERNALREACTOR
  2
AmdtInternalReactor
  3
AcMeServices
 90
     1024
280
     0
281
     0
  0
CLASS
  1
ACMESTATEMGR
  2
AcMeStateMgr
  3
AcMeServices
 90
     1024
280
     0
281
     0
  0
CLASS
  1
ACGREFMASTER
  2
AcGrefMaster
  3
AcAttribServices
 90
     1024
280
     0
281
     0
  0
CLASS
  1
AM_DRAWING_MGR
  2
AcDmDwgMgr
  3
AcMechDwgViewMgmt
 90
     1024
280
     0
281
     0
  0
CLASS
  1
AM_DWG_DOCUMENT
  2
AcDmDwgDocument
  3
AcMechDwgViewMgmt
 90
     1024
280
     0
281
     0
  0
CLASS
  1
AM_DWG_SHEET
  2
AcDmSheet
  3
AcMechDwgViewMgmt
 90
     1024
280
     0
281
     0
  0
CLASS
  1
AM_VIEWDIMPARMAP
  2
AcDmViewDimParMap
  3
AcMechDwgViewMgmt
 90
     1024
280
     0
281
     0
  0
CLASS
  1
AM_DWGMGR_NAME
  2
AcDmDwgMgrName
  3
AcMechDwgViewMgmt
 90
     1024
280
     0
281
     0
  0
CLASS
  1
ACME_DATABASE
  2
AcMeDbDatabase
  3
AcMeServices
 90
     1024
280
     0
281
     0
  0
CLASS
  1
ACRFINSADJUSTERMGR
  2
AcRfInsAdjusterMgr
  3
AcMeServices
 90
     1024
280
     0
281
     0
  0
CLASS
  1
ACGREFACADMASTER
  2
AcGrefacadMaster
  3
AcGrefServices
 90
     1024
280
     0
281
     0
  0
CLASS
  1
AMDTMENUSTATEMGR
  2
AmdtMenuStateMgr
  3
McadcomServices
 90
     1024
280
     0
281
     0
  0
CLASS
  1
AMDTMCOMMENUSTATE
  2
AmdtMcomMenuState
  3
McadcomServices
 90
     1024
280
     0
281
     0
  0
CLASS
  1
AMIMASTER
  2
AmiMaster
  3
AmiServices
 90
     1024
280
     0
281
     0
  0
CLASS
  1
ASAPP
  2
AcAsAppObject
  3
AutoSurfServices
 90
     1024
280
     0
281
     0
  0
CLASS
  1
IM_STATIC_MAN
  2
AcImStaticVarManager
  3
AcMeServices
 90
     1024
280
     0
281
     0
  0
CLASS
  1
ACIMSTRSYSVAR
  2
AcImStrSysVar
  3
AcMeServices
 90
     1024
280
     0
281
     0
  0
CLASS
  1
ACIMDBLSTATICVAR
  2
AcImDblStaticVar
  3
AcMeServices
 90
     1024
280
     0
281
     0
  0
CLASS
  1
ACIMSTRSTATICVAR
  2
AcImStrStaticVar
  3
AcMeServices
 90
     1024
280
     0
281
     0
  0
CLASS
  1
ACIMINTSTATICVAR
  2
AcImIntStaticVar
  3
AcMeServices
 90
     1024
280
     0
281
     0
  0
CLASS
  1
ACASGREFMASTER
  2
AcAsGrefMaster
  3
AutoSurfResolverServices
 90
     1024
280
     0
281
     0
  0
CLASS
  1
ACADGREFMODULE
  2
AcAdGrefModule
  3
AdGrefServices
 90
     1024
280
     0
281
     0
  0
CLASS
  1
AMDTMAPISURFMOUDULE
  2
AmdtMApiSurfModule
  3
MApiSurfServices
 90
     1024
280
     0
281
     0
  0
CLASS
  1
MAPIAMMOUDLE
  2
MApiAmModule
  3
MApiAmServices
 90
     1024
280
     0
281
     0
  0
CLASS
  1
AMDTADMENUSTATE
  2
AmdtAdMenuState
  3
DesignerServices
 90
     1024
280
     0
281
     0
  0
CLASS
  1
ADAPPL
  2
AcAdAppl
  3
DesignerServices
 90
     1024
280
     0
281
     0
  0
CLASS
  1
DEPMGR
  2
AcAdDepMgr
  3
DesignerServices
 90
     1024
280
     0
281
     0
  0
CLASS
  1
PARAMMGR
  2
AcAdParamMgr
  3
DesignerServices
 90
     1024
280
     0
281
     0
  0
CLASS
  1
PARAMSCOPE
  2
AcAdParamScope
  3
DesignerServices
 90
     1024
280
     0
281
     0
  0
CLASS
  1
NAMEDAPPL
  2
AcAdNamedAppl
  3
DesignerServices
 90
     1024
280
     0
281
     0
  0
CLASS
  1
AMDTDMMENUSTATE
  2
AmdtDmMenuState
  3
AcMechDwgViewMgmt
 90
     1024
280
     0
281
     0
  0
CLASS
  1
MAPIADMODULE
  2
MApiAdModule
  3
MApiAdServices
 90
     1024
280
     0
281
     0
  0
CLASS
  1
AMDTAMMENUSTATE
  2
AmdtAmMenuState
  3
DesignerAssemblies
 90
     1024
280
     0
281
     0
  0
CLASS
  1
ACAMPROJECT
  2
AcAmProject
  3
DesignerAssemblies
 90
     1024
280
     0
281
     0
  0
CLASS
  1
ACAMGRCOMPDEF
  2
AcAmGrCompDef
  3
DesignerAssemblies
 90
     1024
280
     0
281
     0
  0
CLASS
  1
ACCMCONTEXT
  2
AcCmContext
  3
DesignerAssemblies
 90
     1024
280
     0
281
     0
  0
CLASS
  1
ACAMCOMPDEF
  2
AcAmCompDef
  3
DesignerAssemblies
 90
     1024
280
     0
281
     0
  0
CLASS
  1
ACAMCOMPDEFMGR
  2
AcAmCompDefMgr
  3
DesignerAssemblies
 90
     1024
280
     0
281
     0
  0
CLASS
  1
AMCONTEXTMGR
  2
AcAmContextMgr
  3
DesignerAssemblies
 90
     1024
280
     0
281
     0
  0
CLASS
  1
ACAMCONTEXTMODELER
  2
AcAmContextModeler
  3
DesignerAssemblies
 90
     1024
280
     0
281
     0
  0
CLASS
  1
ACMDATADICTIONARY
  2
AcmDataDictionary
  3
"AcmSymBB|Product Description: AutoCAD Mechanical|Company: Autodesk, Inc."
 90
     1024
280
     0
281
     0
  0
CLASS
  1
ACMDATAENTRYBLOCK
  2
AcmDataEntryBlock
  3
AcmSymBB|Product Description: AutoCAD Mechanical|Company: Autodesk, Inc.
 90
     1024
280
     0
281
     0
  0
CLASS
  1
ACRFATTGENMGR
  2
AcRfAttGeneralMgr
  3
AcAttribServices
 90
     1024
280
     0
281
     0
  0
CLASS
  1
ACRFOBJATTMGR
  2
AcRfObjAttGroupMgr
  3
AcAttribServices
 90
     1024
280
     0
281
     0
  0
CLASS
  1
ACRFMCADAPIATTHOLDER
  2
AcRfMCADAPIAttHolder
  3
AcAttribServices
 90
     1024
280
     0
281
     0
  0
CLASS
  1
AMDTSYSATTR
  2
AmdtSystemAttribute
  3
AcAttribServices
 90
     1024
280
     0
281
     0
  0
CLASS
  1
CATALOGSTATE
  2
AcAmCatalogState
  3
DesignerAssemblies
 90
     1024
280
     0
281
     0
  0
CLASS
  1
ACAMGRCOMPDEFSET
  2
AcAmGrCompDefSet
  3
DesignerAssemblies
 90
     1024
280
     0
281
     0
  0
CLASS
  1
AMDTBROWSERDBTAB
  2
AmdtBrowserDbTab
  3
McadcomServices
 90
     1024
280
     0
281
     0
  0
CLASS
  1
CBROWSERAPPOBJECT
  2
CBrowserAppObject
  3
McadcomServices
 90
     1024
280
     0
281
     0
  0
CLASS
  1
DM_PLACEHOLDER
  2
AcDmSelsetPlaceholder
  3
AcMechDwgViewMgmt
 90
     1024
280
     0
281
     0
  0
CLASS
  1
ACMSTANDARDANSI
  2
AcmStandardANSI
  3
"Amdt_StdImp|Product Description: AutoCAD Mechanical|Company: Autodesk, Inc."
 90
     1024
280
     0
281
     0
  0
CLASS
  1
ACMSURFSTANDARDANSI
  2
AcmSurfTextStdANSI
  3
"Amdt_StdImp|Product Description: AutoCAD Mechanical|Company: Autodesk, Inc."
 90
     1024
280
     0
281
     0
  0
CLASS
  1
ACMFCFSTANDARDANSI
  2
AcmFCFStdANSI
  3
"Amdt_StdImp|Product Description: AutoCAD Mechanical|Company: Autodesk, Inc."
 90
     1024
280
     0
281
     0
  0
CLASS
  1
ACMWELDSTANDARDANSI
  2
AcmWeldingStdANSI
  3
"Amdt_StdImp|Product Description: AutoCAD Mechanical|Company: Autodesk, Inc."
 90
     1024
280
     0
281
     0
  0
CLASS
  1
ACMIDSTANDARDANSI
  2
AcmIdStdANSI
  3
"Amdt_StdImp|Product Description: AutoCAD Mechanical|Company: Autodesk, Inc."
 90
     1024
280
     0
281
     0
  0
CLASS
  1
ACMDATUMSTANDARDANSI
  2
AcmDatumStdANSI
  3
"Amdt_StdImp|Product Description: AutoCAD Mechanical|Company: Autodesk, Inc."
 90
     1024
280
     0
281
     0
  0
CLASS
  1
ACMBOMSTANDARDANSI
  2
AcmBOMStdANSI
  3
"Amdt_StdImp|Product Description: AutoCAD Mechanical|Company: Autodesk, Inc."
 90
     1024
280
     0
281
     0
  0
CLASS
  1
ACMDETAILSTANDARDANSI
  2
AmdtDetailSymStdANSI
  3
"Amdt_StdImp|Product Description: AutoCAD Mechanical|Company: Autodesk, Inc."
 90
     1024
280
     0
281
     0
  0
CLASS
  1
ACMSECTIONSTANDARDANSI
  2
AmdtSectionSymStdANSI
  3
"Amdt_StdImp|Product Description: AutoCAD Mechanical|Company: Autodesk, Inc."
 90
     1024
280
     0
281
     0
  0
CLASS
  1
ACMCENTERLINESTANDARDANSI
  2
AmdtCenterLineStdANSI
  3
"Amdt_StdImp|Product Description: AutoCAD Mechanical|Company: Autodesk, Inc."
 90
     1024
280
     0
281
     0
  0
CLASS
  1
ACMTHREADLINESTANDARDANSI
  2
AmdtThreadLineStdANSI
  3
"Amdt_StdImp|Product Description: AutoCAD Mechanical|Company: Autodesk, Inc."
 90
     1024
280
     0
281
     0
  0
CLASS
  1
ACMNOTESTANDARDANSI
  2
AmdtNoteStdANSI
  3
"Amdt_StdImp|Product Description: AutoCAD Mechanical|Company: Autodesk, Inc."
 90
     1024
280
     0
281
     0
  0
CLASS
  1
ACMTAPERSTANDARDANSI
  2
AcmTaperStdANSI
  3
"Amdt_StdImp|Product Description: AutoCAD Mechanical|Company: Autodesk, Inc."
 90
     1024
280
     0
281
     0
  0
CLASS
  1
ACMANOOTATIONVIEWSTANDARDANSI
  2
AmdtAnViewStdANSI
  3
"Amdt_StdImp|Product Description: AutoCAD Mechanical|Company: Autodesk, Inc."
 90
     1024
280
     0
281
     0
  0
CLASS
  1
ACAMGLAYSTD
  2
AcAmgLayStd
  3
"AmgLay|Product Description: AutoCAD Mechanical|Company: Autodesk, Inc."
 90
     1024
280
     0
281
     0
  0
CLASS
  1
ACAMGDIMSTD
  2
AcAmgDimStd
  3
"AmgDim|Product Description: AutoCAD Mechanical|Company: Autodesk, Inc."
 90
     1024
280
     0
281
     0
  0
CLASS
  1
ACAMGHOLECHARTSTDANSI
  2
AcAmgHoleChartStdANSI
  3
AmgDim|Product Description: AutoCAD Mechanical|Company: Autodesk, Inc.
 90
     1024
280
     0
281
     0
  0
CLASS
  1
AMGOBJPROPCFG
  2
AmgObjPropCfg
  3
"AmgLay|Product Description: AutoCAD Mechanical|Company: Autodesk, Inc."
 90
     1025
280
     0
281
     0
  0
CLASS
  1
ACAMGTITLESTD
  2
AcAmgTitleStd
  3
"AmgTitle|Product Description: AutoCAD Mechanical|Company: Autodesk, Inc."
 90
     4095
280
     0
281
     0
  0
CLASS
  1
AMDTNOTETEMPLATEDB
  2
AmdtNoteTemplateDB
  3
AcmSymBB|Product Description: AutoCAD Mechanical|Company: Autodesk, Inc.
 90
     1024
280
     0
281
     0
  0
CLASS
  1
ACAMGFILTERDAT
  2
AcAmgFilterDat
  3
"AcadM|Product Description: AutoCAD Mechanical|Company: Autodesk, Inc."
 90
     1024
280
     0
281
     0
  0
CLASS
  1
LAYER_INDEX
  2
AcDbLayerIndex
  3
ObjectDBX Classes
 90
        0
280
     0
281
     0
  0
CLASS
  1
IDBUFFER
  2
AcDbIdBuffer
  3
ObjectDBX Classes
 90
        0
280
     0
281
     0
  0
CLASS
  1
DICTIONARYVAR
  2
AcDbDictionaryVar
  3
ObjectDBX Classes
 90
        0
280
     0
281
     0
  0
CLASS
  1
CELLSTYLEMAP
  2
AcDbCellStyleMap
  3
ObjectDBX Classes
 90
     1152
280
     0
281
     0
  0
CLASS
  1
ACDBPLACEHOLDER
  2
AcDbPlaceHolder
  3
ObjectDBX Classes
 90
        0
280
     0
281
     0
  0
CLASS
  1
LAYOUT
  2
AcDbLayout
  3
ObjectDBX Classes
 90
        0
280
     0
281
     0
  0
ENDSEC
  0
SECTION
  2
TABLES
  0
TABLE
  2
VPORT
  5
23FB
330
0
100
AcDbSymbolTable
 70
     1
  0
VPORT
  5
246B
330
23FB
100
AcDbSymbolTableRecord
100
AcDbViewportTableRecord
  2
*ACTIVE
 70
     0
 10
0.0
 20
0.0
 11
1.0
 21
1.0
 12
-0.0000000000003411
 22
-125.1169010606777
 13
0.0
 23
0.0
 14
1.0
 24
1.0
 15
0.0
 25
0.0
 16
0.0
 26
0.0
 36
1.0
 17
299.7825764349912
 27
-44.71341162376904
 37
0.0
 40
2011.419614723411
 41
1.712555066079295
 42
50.0
 43
0.0
 44
0.0
 50
0.0
 51
0.0
 71
     0
 72
   100
 73
     1
 74
     0
 75
     0
 76
     0
 77
     0
 78
     0
281
     0
 65
     0
110
0.0
120
0.0
130
0.0
111
1.0
121
0.0
131
0.0
112
0.0
122
1.0
132
0.0
 79
     0
146
0.0
  0
ENDTAB
  0
TABLE
  2
LTYPE
  5
23F8
330
0
100
AcDbSymbolTable
 70
    19
  0
LTYPE
  5
2455
330
23F8
100
AcDbSymbolTableRecord
100
AcDbLinetypeTableRecord
  2
ByBlock
 70
     0
  3

 72
    65
 73
     0
 40
0.0
  0
LTYPE
  5
2456
330
23F8
100
AcDbSymbolTableRecord
100
AcDbLinetypeTableRecord
  2
ByLayer
 70
     0
  3

 72
    65
 73
     0
 40
0.0
  0
LTYPE
  5
2457
330
23F8
100
AcDbSymbolTableRecord
100
AcDbLinetypeTableRecord
  2
CONTINUOUS
 70
     0
  3
実線
 72
    65
 73
     0
 40
0.0
  0
LTYPE
  5
246C
330
23F8
100
AcDbSymbolTableRecord
100
AcDbLinetypeTableRecord
  2
DASHDOT
 70
     0
  3
____ _ ____ _ ____ _ ____ _ ____ _ ____ _ ____
 72
    65
 73
     4
 40
5.5
 49
4.0
 74
     0
 49
-0.6
 74
     0
 49
0.3
 74
     0
 49
-0.6
 74
     0
  0
LTYPE
  5
246D
330
23F8
100
AcDbSymbolTableRecord
100
AcDbLinetypeTableRecord
  2
HIDDEN
 70
     0
  3
Hidden __ __ __ __ __ __ __ __ __ __ __ __ __ _
 72
    65
 73
     2
 40
0.375
 49
0.25
 74
     0
 49
-0.125
 74
     0
  0
LTYPE
  5
246E
330
23F8
100
AcDbSymbolTableRecord
100
AcDbLinetypeTableRecord
  2
PHANTOM2
 70
     0
  3
Phantom (.5x) ___ _ _ ___ _ _ ___ _ _ ___ _ _
 72
    65
 73
     6
 40
1.25
 49
0.625
 74
     0
 49
-0.125
 74
     0
 49
0.125
 74
     0
 49
-0.125
 74
     0
 49
0.125
 74
     0
 49
-0.125
 74
     0
  0
LTYPE
  5
246F
330
23F8
100
AcDbSymbolTableRecord
100
AcDbLinetypeTableRecord
  2
CENTER
 70
     0
  3
Center ____ _ ____ _ ____ _ ____ _ ____ _ ____
 72
    65
 73
     4
 40
2.0
 49
1.25
 74
     0
 49
-0.25
 74
     0
 49
0.25
 74
     0
 49
-0.25
 74
     0
  0
LTYPE
  5
2470
330
23F8
100
AcDbSymbolTableRecord
100
AcDbLinetypeTableRecord
  2
ASULTYPE
 70
     0
  3
実線
 72
    65
 73
     2
 40
3.0
 49
2.5
 74
     0
 49
0.5
 74
     0
  0
LTYPE
  5
2471
330
23F8
100
AcDbSymbolTableRecord
100
AcDbLinetypeTableRecord
  2
ASVLTYPE
 70
     0
  3
__ __ __ __ __ __ __ __ __ __ __ __ __ __ __ __ __ __ __ __ __
 72
    65
 73
     2
 40
0.75
 49
0.5
 74
     0
 49
-0.25
 74
     0
  0
LTYPE
  5
2472
330
23F8
100
AcDbSymbolTableRecord
100
AcDbLinetypeTableRecord
  2
AM_ISO02W050
 70
     0
  3
__ __ __ __ __ __ __ __ __ __ __ __ __ __ __
 72
    65
 73
     2
 40
7.5
 49
6.0
 74
     0
 49
-1.5
 74
     0
  0
LTYPE
  5
2473
330
23F8
100
AcDbSymbolTableRecord
100
AcDbLinetypeTableRecord
  2
AM_ISO08W050
 70
     0
  3
____ . ____ . ____ . ____ . ____ . ____ . ____
 72
    65
 73
     4
 40
18.0
 49
12.0
 74
     0
 49
-1.5
 74
     0
 49
3.0
 74
     0
 49
-1.5
 74
     0
  0
LTYPE
  5
2474
330
23F8
100
AcDbSymbolTableRecord
100
AcDbLinetypeTableRecord
  2
AM_ISO09W050
 70
     0
  3
_____ . . _____ . . _____ . . ____ .. ____
 72
    65
 73
     6
 40
22.5
 49
12.0
 74
     0
 49
-1.5
 74
     0
 49
3.0
 74
     0
 49
-1.5
 74
     0
 49
3.0
 74
     0
 49
-1.5
 74
     0
  0
LTYPE
  5
2475
330
23F8
100
AcDbSymbolTableRecord
100
AcDbLinetypeTableRecord
  2
AMCONSTR
 70
     0
  3
_______________________
 72
    65
 73
     2
 40
9999.0
 49
9999.0
 74
     0
 49
0.0
 74
     0
  0
LTYPE
  5
2476
330
23F8
100
AcDbSymbolTableRecord
100
AcDbLinetypeTableRecord
  2
AM_ISO08W050X2
 70
     0
  3
__ . __ . __ . __ . __ . __
 72
    65
 73
     4
 40
9.0
 49
6.0
 74
     0
 49
-0.75
 74
     0
 49
1.5
 74
     0
 49
-0.75
 74
     0
  0
LTYPE
  5
2477
330
23F8
100
AcDbSymbolTableRecord
100
AcDbLinetypeTableRecord
  2
AM_ISO02W050X2
 70
     0
  3
 _ _ _ _ _ _ _ _ _ _ _ _
 72
    65
 73
     2
 40
3.75
 49
3.0
 74
     0
 49
-0.75
 74
     0
  0
LTYPE
  5
2478
330
23F8
100
AcDbSymbolTableRecord
100
AcDbLinetypeTableRecord
  2
AMZIGZAG
 70
     0
  3
/\/-/\/-/\/-/\/-/\/-/\/
 72
    65
 73
     2
 40
11.0001
 49
0.0001
 74
     0
 49
-11.0
 74
     0
  0
LTYPE
  5
2479
330
23F8
100
AcDbSymbolTableRecord
100
AcDbLinetypeTableRecord
  2
CENTER2
 70
     0
  3
Center (.5x) ___ _ ___ _ ___ _ ___ _ ___ _ ___
 72
    65
 73
     4
 40
1.125
 49
0.75
 74
     0
 49
-0.125
 74
     0
 49
0.125
 74
     0
 49
-0.125
 74
     0
  0
LTYPE
  5
247A
330
23F8
100
AcDbSymbolTableRecord
100
AcDbLinetypeTableRecord
  2
HIDDEN2
 70
     0
  3
Hidden (.5x) _ _ _ _ _ _ _ _ _ _ _ _ _ _ _ _ _
 72
    65
 73
     2
 40
0.1875
 49
0.125
 74
     0
 49
-0.0625
 74
     0
  0
LTYPE
  5
247B
330
23F8
100
AcDbSymbolTableRecord
100
AcDbLinetypeTableRecord
  2
AMZIGZAG2
 70
     0
  3
/\/-/\/-/\/-/\/-/\/-/\/
 72
    65
 73
     2
 40
0.4401
 49
0.0001
 74
     0
 49
-0.4400000000000003
 74
     0
  0
LTYPE
  5
247C
330
23F8
100
AcDbSymbolTableRecord
100
AcDbLinetypeTableRecord
  2
ACANSTGB
 70
     0
  3
__ . . __ . .
 72
    65
 73
     6
 40
0.35433070866
 49
0.15748031496
 74
     0
 49
-0.03937007874
 74
     0
 49
0.03937007874
 74
     0
 49
-0.03937007874
 74
     0
 49
0.03937007874
 74
     0
 49
-0.03937007874
 74
     0
  0
LTYPE
  5
247D
330
23F8
100
AcDbSymbolTableRecord
100
AcDbLinetypeTableRecord
  2
ACANSTGL
 70
     0
  3
_ _ _ _ _
 72
    65
 73
     2
 40
0.11811023622
 49
0.07874015748
 74
     0
 49
-0.03937007874
 74
     0
  0
ENDTAB
  0
TABLE
  2
LAYER
  5
23F5
330
0
100
AcDbSymbolTable
 70
    12
  0
LAYER
  5
244F
102
{ACAD_XDICTIONARY
360
261E
102
}
330
23F5
100
AcDbSymbolTableRecord
100
AcDbLayerTableRecord
  2
0
 70
     0
 62
     7
  6
CONTINUOUS
370
    -3
390
2402
  0
LAYER
  5
247E
102
{ACAD_XDICTIONARY
360
2620
102
}
330
23F5
100
AcDbSymbolTableRecord
100
AcDbLayerTableRecord
  2
OUTLINE
 70
     0
 62
     3
  6
CONTINUOUS
370
    -3
390
2402
  0
LAYER
  5
247F
102
{ACAD_XDICTIONARY
360
2622
102
}
330
23F5
100
AcDbSymbolTableRecord
100
AcDbLayerTableRecord
  2
SIZE
 70
     0
 62
    30
  6
CONTINUOUS
370
    -3
390
2402
  0
LAYER
  5
2480
102
{ACAD_XDICTIONARY
360
2624
102
}
330
23F5
100
AcDbSymbolTableRecord
100
AcDbLayerTableRecord
  2
BASIS
 70
     0
 62
     6
  6
DASHDOT
370
    -3
390
2402
  0
LAYER
  5
2481
102
{ACAD_XDICTIONARY
360
2626
102
}
330
23F5
100
AcDbSymbolTableRecord
100
AcDbLayerTableRecord
  2
DETAIL
 70
     0
 62
     5
  6
CONTINUOUS
370
    -3
390
2402
  0
LAYER
  5
2482
102
{ACAD_XDICTIONARY
360
2628
102
}
330
23F5
100
AcDbSymbolTableRecord
100
AcDbLayerTableRecord
  2
ARRANGE
 70
     0
 62
     1
  6
CONTINUOUS
370
    -3
390
2402
  0
LAYER
  5
2483
330
23F5
100
AcDbSymbolTableRecord
100
AcDbLayerTableRecord
  2
DEFPOINTS
 70
     0
 62
     7
  6
CONTINUOUS
290
     0
370
    -3
390
2402
  0
LAYER
  5
2484
102
{ACAD_XDICTIONARY
360
262A
102
}
330
23F5
100
AcDbSymbolTableRecord
100
AcDbLayerTableRecord
  2
ETC
 70
     0
 62
    61
  6
CONTINUOUS
370
    -3
390
2402
  0
LAYER
  5
2485
102
{ACAD_XDICTIONARY
360
262C
102
}
330
23F5
100
AcDbSymbolTableRecord
100
AcDbLayerTableRecord
  2
FIX
 70
     0
 62
    11
  6
CONTINUOUS
370
    -3
390
2402
  0
LAYER
  5
2486
102
{ACAD_XDICTIONARY
360
262E
102
}
330
23F5
100
AcDbSymbolTableRecord
100
AcDbLayerTableRecord
  2
NOTE
 70
     0
 62
     4
  6
CONTINUOUS
370
    -3
390
2402
  0
LAYER
  5
2487
102
{ACAD_XDICTIONARY
360
2630
102
}
330
23F5
100
AcDbSymbolTableRecord
100
AcDbLayerTableRecord
  2
SERVICESPACE
 70
     0
 62
     2
  6
DASHDOT
370
    -3
390
2402
  0
LAYER
  5
2488
102
{ACAD_XDICTIONARY
360
2632
102
}
330
23F5
100
AcDbSymbolTableRecord
100
AcDbLayerTableRecord
  2
SYMBOLLINE
 70
     0
 62
    15
  6
CONTINUOUS
370
    -3
390
2402
  0
ENDTAB
  0
TABLE
  2
STYLE
  5
23F6
330
0
100
AcDbSymbolTable
 70
     5
  0
STYLE
  5
2450
330
23F6
100
AcDbSymbolTableRecord
100
AcDbTextStyleTableRecord
  2
STANDARD
 70
     0
 40
64.0
 41
0.9
 50
0.0
 71
     0
 42
64.0
  3
SIMPLEX.shx
  4
BIGFONT.shx
  0
STYLE
  5
2454
330
23F6
100
AcDbSymbolTableRecord
100
AcDbTextStyleTableRecord
  2
ANNOTATIVE
 70
     0
 40
0.0
 41
1.0
 50
0.0
 71
     0
 42
0.2
  3
txt
  4

1001
ACADANNOTATIVE
1000
AnnotativeData
1002
{
1070
     1
1070
     1
1002
}
  0
STYLE
  5
2489
330
23F6
100
AcDbSymbolTableRecord
100
AcDbTextStyleTableRecord
  2

 70
     1
 40
0.0
 41
1.0
 50
0.0
 71
     0
 42
64.0
  3
genltshp.shx
  4

  0
STYLE
  5
248A
330
23F6
100
AcDbSymbolTableRecord
100
AcDbTextStyleTableRecord
  2
ACANSTS
 70
     0
 40
1.0
 41
1.0
 50
0.0
 71
     0
 42
64.0
  3
romans.shx
  4
extfont.shx
  0
STYLE
  5
248B
330
23F6
100
AcDbSymbolTableRecord
100
AcDbTextStyleTableRecord
  2
ACANSGDT
 70
     0
 40
0.0
 41
1.0
 50
0.0
 71
     0
 42
64.0
  3
amgdt.shx
  4

  0
ENDTAB
  0
TABLE
  2
VIEW
  5
23F9
330
0
100
AcDbSymbolTable
 70
     1
  0
VIEW
  5
248C
330
23F9
100
AcDbSymbolTableRecord
100
AcDbViewTableRecord
  2
ALL
 70
     0
 40
4282.619807999997
 10
0.0
 20
41.30990399999999
 41
5940.0
 11
0.0
 21
0.0
 31
1.0
 12
0.0
 22
0.0
 32
0.0
 42
50.0
 43
0.0
 44
0.0
 50
0.0
 71
     0
281
     0
 72
     1
110
0.0
120
0.0
130
0.0
111
1.0
121
0.0
131
0.0
112
0.0
122
1.0
132
0.0
 79
     0
146
0.0
  0
ENDTAB
  0
TABLE
  2
UCS
  5
23FA
330
0
100
AcDbSymbolTable
 70
     0
  0
ENDTAB
  0
TABLE
  2
APPID
  5
23FC
330
0
100
AcDbSymbolTable
 70
    26
  0
APPID
  5
2451
330
23FC
100
AcDbSymbolTableRecord
100
AcDbRegAppTableRecord
  2
ACAD
 70
     0
  0
APPID
  5
2458
330
23FC
100
AcDbSymbolTableRecord
100
AcDbRegAppTableRecord
  2
ACADANNOTATIVE
 70
     0
  0
APPID
  5
2462
330
23FC
100
AcDbSymbolTableRecord
100
AcDbRegAppTableRecord
  2
ACAD_MLEADERVER
 70
     0
  0
APPID
  5
248D
330
23FC
100
AcDbSymbolTableRecord
100
AcDbRegAppTableRecord
  2
GENIUS_GENDIM_13
 70
     0
  0
APPID
  5
248E
330
23FC
100
AcDbSymbolTableRecord
100
AcDbRegAppTableRecord
  2
GENIUS_GENDTOL_13
 70
     0
  0
APPID
  5
248F
330
23FC
100
AcDbSymbolTableRecord
100
AcDbRegAppTableRecord
  2
GENIUS_GE3DTOL_13
 70
     0
  0
APPID
  5
2490
330
23FC
100
AcDbSymbolTableRecord
100
AcDbRegAppTableRecord
  2
MCAD_NO_VIS
 70
     0
  0
APPID
  5
2491
330
23FC
100
AcDbSymbolTableRecord
100
AcDbRegAppTableRecord
  2
ACAD_TEMP_GRAPHIC
 70
     0
  0
APPID
  5
2492
330
23FC
100
AcDbSymbolTableRecord
100
AcDbRegAppTableRecord
  2
AD_DRAW
 70
     0
  0
APPID
  5
2493
330
23FC
100
AcDbSymbolTableRecord
100
AcDbRegAppTableRecord
  2
ACATTRIBSERVICES
 70
     0
  0
APPID
  5
2494
330
23FC
100
AcDbSymbolTableRecord
100
AcDbRegAppTableRecord
  2
ASURF_PCURVE_APPNAME
 70
     0
  0
APPID
  5
2495
330
23FC
100
AcDbSymbolTableRecord
100
AcDbRegAppTableRecord
  2
AMG_3D2D_5_0
 70
     0
  0
APPID
  5
2496
330
23FC
100
AcDbSymbolTableRecord
100
AcDbRegAppTableRecord
  2
DESIGNERASSEMBLIES
 70
     0
  0
APPID
  5
2497
330
23FC
100
AcDbSymbolTableRecord
100
AcDbRegAppTableRecord
  2
ACADM_DIM_EDIT
 70
     0
  0
APPID
  5
2498
330
23FC
100
AcDbSymbolTableRecord
100
AcDbRegAppTableRecord
  2
AMDT_DM_ADJ
 70
     0
  0
APPID
  5
2499
330
23FC
100
AcDbSymbolTableRecord
100
AcDbRegAppTableRecord
  2
ACAD_DSTYLE_DIMARC_LENGTH_
 70
     0
  0
APPID
  5
249A
330
23FC
100
AcDbSymbolTableRecord
100
AcDbRegAppTableRecord
  2
ACAD_DSTYLE_DIMJOGGED_JOGA
 70
     0
  0
APPID
  5
249B
330
23FC
100
AcDbSymbolTableRecord
100
AcDbRegAppTableRecord
  2
ACAD_PSEXT
 70
     0
  0
APPID
  5
249C
330
23FC
100
AcDbSymbolTableRecord
100
AcDbRegAppTableRecord
  2
ACAD_EXEMPT_FROM_CAD_STANDARDS
 70
     0
  0
APPID
  5
249D
330
23FC
100
AcDbSymbolTableRecord
100
AcDbRegAppTableRecord
  2
ACAD_DSTYLE_DIMJAG
 70
     0
  0
APPID
  5
249E
330
23FC
100
AcDbSymbolTableRecord
100
AcDbRegAppTableRecord
  2
ACAD_DSTYLE_DIMTALN
 70
     0
  0
APPID
  5
25BE
330
23FC
100
AcDbSymbolTableRecord
100
AcDbRegAppTableRecord
  2
AMG_3D2D_5.0
 70
     0
  0
APPID
  5
265B
330
23FC
100
AcDbSymbolTableRecord
100
AcDbRegAppTableRecord
  2
ACAD_DSTYLE_DIMARC_LENGTH_SYMBOL
 70
     0
  0
APPID
  5
265C
330
23FC
100
AcDbSymbolTableRecord
100
AcDbRegAppTableRecord
  2
ACAD_DSTYLE_DIM_LINETYPE
 70
     0
  0
APPID
  5
265D
330
23FC
100
AcDbSymbolTableRecord
100
AcDbRegAppTableRecord
  2
ACAD_DSTYLE_DIM_EXT1_LINETYPE
 70
     0
  0
APPID
  5
265E
330
23FC
100
AcDbSymbolTableRecord
100
AcDbRegAppTableRecord
  2
ACAD_DSTYLE_DIM_EXT2_LINETYPE
 70
     0
  0
ENDTAB
  0
TABLE
  2
DIMSTYLE
  5
23FD
330
0
100
AcDbSymbolTable
 70
    10
100
AcDbDimStyleTable
 71
     1
340
249F
  0
DIMSTYLE
105
2452
330
23FD
100
AcDbSymbolTableRecord
100
AcDbDimStyleTableRecord
  2
STANDARD
 70
     0
 41
12.0
 42
20.0
 44
20.0
 77
     1
 78
     8
140
64.0
141
0.0
147
10.0
275
     1
279
     2
284
     7
285
     7
286
     7
340
2450
  0
DIMSTYLE
105
2453
330
23FD
100
AcDbSymbolTableRecord
100
AcDbDimStyleTableRecord
  2
ANNOTATIVE
 70
     0
275
     1
279
     2
284
     7
285
     7
286
     7
340
2450
1001
ACADANNOTATIVE
1000
AnnotativeData
1002
{
1070
     1
1070
     1
1002
}
  0
DIMSTYLE
105
249F
330
23FD
100
AcDbSymbolTableRecord
100
AcDbDimStyleTableRecord
  2
AM_ANSI
 70
     0
  4
mm
 41
0.12
 42
0.05
 43
0.5
 44
0.1
 47
0.1
 48
0.1
 78
     7
 79
     2
140
0.12
141
0.0
146
0.71
147
0.06
176
   256
177
   256
178
     2
274
     4
284
     7
340
2450
371
    -1
372
    -1
1001
ACAD_DSTYLE_DIMARC_LENGTH_SYMBOL
1070
   379
1070
     1
1001
ACAD_DSTYLE_DIM_LINETYPE
1070
   380
1005
2455
1001
ACAD_DSTYLE_DIM_EXT1_LINETYPE
1070
   381
1005
2455
1001
ACAD_DSTYLE_DIM_EXT2_LINETYPE
1070
   382
1005
2455
  0
DIMSTYLE
105
24A0
330
23FD
100
AcDbSymbolTableRecord
100
AcDbDimStyleTableRecord
  2
AM_ANSI$3
 70
     0
  4
mm
 41
0.12
 42
0.05
 43
0.5
 44
0.1
 47
0.1
 48
0.1
 78
     7
 79
     2
140
0.12
141
0.0
146
0.71
147
0.06
176
   256
177
   256
178
     2
274
     4
284
     7
288
     1
289
     0
340
2450
371
    -1
372
    -1
1001
ACAD_DSTYLE_DIMARC_LENGTH_SYMBOL
1070
   379
1070
     1
1001
ACAD_DSTYLE_DIM_LINETYPE
1070
   380
1005
2455
1001
ACAD_DSTYLE_DIM_EXT1_LINETYPE
1070
   381
1005
2455
1001
ACAD_DSTYLE_DIM_EXT2_LINETYPE
1070
   382
1005
2455
  0
DIMSTYLE
105
24A1
330
23FD
100
AcDbSymbolTableRecord
100
AcDbDimStyleTableRecord
  2
AM_ANSI$4
 70
     0
  4
mm
 41
0.12
 42
0.05
 43
0.5
 44
0.1
 47
0.1
 48
0.1
 78
     7
 79
     2
140
0.12
141
0.0
146
0.71
147
0.06
176
   256
177
   256
178
     2
274
     4
284
     7
340
2450
371
    -1
372
    -1
1001
ACAD_DSTYLE_DIMARC_LENGTH_SYMBOL
1070
   379
1070
     1
1001
ACAD_DSTYLE_DIM_LINETYPE
1070
   380
1005
2455
1001
ACAD_DSTYLE_DIM_EXT1_LINETYPE
1070
   381
1005
2455
1001
ACAD_DSTYLE_DIM_EXT2_LINETYPE
1070
   382
1005
2455
  0
DIMSTYLE
105
24A2
330
23FD
100
AcDbSymbolTableRecord
100
AcDbDimStyleTableRecord
  2
AM_ANSI$7
 70
     0
  4
mm
 41
0.12
 42
0.05
 43
0.5
 44
0.1
 47
0.1
 48
0.1
 78
     7
 79
     2
140
0.12
141
0.0
146
0.71
147
0.06
176
   256
177
   256
178
     2
274
     4
284
     7
340
2450
371
    -1
372
    -1
1001
ACAD_DSTYLE_DIMARC_LENGTH_SYMBOL
1070
   379
1070
     1
1001
ACAD_DSTYLE_DIM_LINETYPE
1070
   380
1005
2455
1001
ACAD_DSTYLE_DIM_EXT1_LINETYPE
1070
   381
1005
2455
1001
ACAD_DSTYLE_DIM_EXT2_LINETYPE
1070
   382
1005
2455
  0
DIMSTYLE
105
24A3
330
23FD
100
AcDbSymbolTableRecord
100
AcDbDimStyleTableRecord
  2
AM_ANSI$SF
 70
     0
  4
mm
 41
0.12
 42
0.05
 43
0.5
 44
0.1
 47
0.1
 48
0.1
 75
     1
 76
     1
 78
     7
 79
     2
140
0.12
141
0.0
146
0.71
147
0.06
176
   256
177
   256
178
     2
274
     4
284
     7
340
2450
371
    -1
372
    -1
1001
ACAD_DSTYLE_DIMARC_LENGTH_SYMBOL
1070
   379
1070
     1
1001
ACAD_DSTYLE_DIM_LINETYPE
1070
   380
1005
2455
1001
ACAD_DSTYLE_DIM_EXT1_LINETYPE
1070
   381
1005
2455
1001
ACAD_DSTYLE_DIM_EXT2_LINETYPE
1070
   382
1005
2455
  0
DIMSTYLE
105
24A4
330
23FD
100
AcDbSymbolTableRecord
100
AcDbDimStyleTableRecord
  2
AM_ANSI$SH
 70
     0
  4
mm
 41
0.12
 42
0.05
 43
0.5
 44
0.1
 47
0.1
 48
0.1
 75
     1
 76
     1
 78
     7
 79
     2
140
0.12
141
0.0
146
0.71
147
0.06
173
     1
176
   256
177
   256
178
     2
274
     4
284
     7
340
2450
343
24C4
371
    -1
372
    -1
1001
ACAD_DSTYLE_DIMARC_LENGTH_SYMBOL
1070
   379
1070
     1
1001
ACAD_DSTYLE_DIM_LINETYPE
1070
   380
1005
2455
1001
ACAD_DSTYLE_DIM_EXT1_LINETYPE
1070
   381
1005
2455
1001
ACAD_DSTYLE_DIM_EXT2_LINETYPE
1070
   382
1005
2455
  0
DIMSTYLE
105
24A5
330
23FD
100
AcDbSymbolTableRecord
100
AcDbDimStyleTableRecord
  2
STANDARD1
 70
     0
 40
6.0
 41
2.5
 42
0.625
 43
6.0
 44
1.25
 47
1.0
 48
0.5
 77
     1
 78
     8
140
2.5
141
0.0
146
0.6
147
1.0
173
     1
275
     1
279
     2
284
     7
285
     7
286
     7
340
2450
  0
DIMSTYLE
105
24A6
330
23FD
100
AcDbSymbolTableRecord
100
AcDbDimStyleTableRecord
  2
STANDARD$0
 70
     0
 41
12.0
 42
20.0
 44
20.0
 73
     0
 74
     0
 77
     1
 78
     8
140
64.0
141
0.0
147
10.0
275
     1
279
     2
284
     7
285
     7
286
     7
340
2450
  0
ENDTAB
  0
TABLE
  2
BLOCK_RECORD
  5
23F4
330
0
100
AcDbSymbolTable
 70
    72
  0
BLOCK_RECORD
  5
2467
102
{ACAD_XDICTIONARY
360
2634
102
}
330
23F4
100
AcDbSymbolTableRecord
100
AcDbBlockTableRecord
  2
*Model_Space
340
246A
  0
BLOCK_RECORD
  5
2463
330
23F4
100
AcDbSymbolTableRecord
100
AcDbBlockTableRecord
  2
*Paper_Space
340
2466
  0
BLOCK_RECORD
  5
24AE
330
23F4
100
AcDbSymbolTableRecord
100
AcDbBlockTableRecord
  2
$MODEL_SPACE
340
0
  0
BLOCK_RECORD
  5
24B0
330
23F4
100
AcDbSymbolTableRecord
100
AcDbBlockTableRecord
  2
$PAPER_SPACE
340
0
  0
BLOCK_RECORD
  5
24B2
330
23F4
100
AcDbSymbolTableRecord
100
AcDbBlockTableRecord
  2
_ORIGIN
340
0
  0
BLOCK_RECORD
  5
24B4
330
23F4
100
AcDbSymbolTableRecord
100
AcDbBlockTableRecord
  2
_DOTBLANK
340
0
102
{BLKREFS
331
1299
331
129A
331
11AA
331
11AB
331
E80
331
E81
331
1123
331
1124
331
11C2
331
11C3
331
11EC
331
11ED
331
11F9
331
11FA
331
1287
331
1288
331
1417
331
1418
331
1423
331
1424
331
142F
331
1430
331
143B
331
143C
331
166E
331
166F
331
1677
331
1678
331
1680
331
1681
331
1689
331
168A
331
1696
331
1697
331
16A3
331
16A4
331
16AF
331
16B0
331
16BB
331
16BC
331
16C7
331
16C8
331
16D3
331
16D4
331
1D86
331
1D87
331
1D8F
331
1D90
331
1D98
331
1D99
331
1DA1
331
1DA2
331
1DAB
331
1DAC
331
1DB5
331
1DB6
331
221C
331
221D
331
2221
331
2222
331
2226
331
2227
331
222B
331
222C
331
2230
331
2231
331
2235
331
2236
331
223A
331
223B
331
223F
331
2240
331
2244
331
2245
331
2249
331
224A
331
224F
331
2250
331
2256
331
2257
331
2390
331
2391
331
2395
331
2396
331
239A
331
239B
331
239F
331
23A0
331
23A4
331
23A5
331
23A9
331
23AA
331
23AE
331
23AF
331
23B3
331
23B4
331
23B8
331
23B9
331
23BE
331
23BF
331
23C3
331
23C4
331
23CA
331
23CB
102
}
  0
BLOCK_RECORD
  5
24B6
330
23F4
100
AcDbSymbolTableRecord
100
AcDbBlockTableRecord
  2
_OPEN30
340
0
102
{BLKREFS
331
2087
331
21C4
331
229D
102
}
  0
BLOCK_RECORD
  5
24B8
330
23F4
100
AcDbSymbolTableRecord
100
AcDbBlockTableRecord
  2
*D5
340
0
  0
BLOCK_RECORD
  5
24BA
330
23F4
100
AcDbSymbolTableRecord
100
AcDbBlockTableRecord
  2
*U6
340
0
102
{BLKREFS
331
129B
102
}
  0
BLOCK_RECORD
  5
24BC
330
23F4
100
AcDbSymbolTableRecord
100
AcDbBlockTableRecord
  2
*D7
340
0
  0
BLOCK_RECORD
  5
24BE
330
23F4
100
AcDbSymbolTableRecord
100
AcDbBlockTableRecord
  2
*U8
340
0
102
{BLKREFS
331
11AC
102
}
  0
BLOCK_RECORD
  5
24C0
330
23F4
100
AcDbSymbolTableRecord
100
AcDbBlockTableRecord
  2
*D9
340
0
  0
BLOCK_RECORD
  5
24C2
330
23F4
100
AcDbSymbolTableRecord
100
AcDbBlockTableRecord
  2
*U10
340
0
102
{BLKREFS
331
E82
102
}
  0
BLOCK_RECORD
  5
24C4
330
23F4
100
AcDbSymbolTableRecord
100
AcDbBlockTableRecord
  2
GENAXEH
340
0
  0
BLOCK_RECORD
  5
24C6
330
23F4
100
AcDbSymbolTableRecord
100
AcDbBlockTableRecord
  2
*D12
340
0
  0
BLOCK_RECORD
  5
24C8
330
23F4
100
AcDbSymbolTableRecord
100
AcDbBlockTableRecord
  2
*U13
340
0
102
{BLKREFS
331
1125
102
}
  0
BLOCK_RECORD
  5
24CA
330
23F4
100
AcDbSymbolTableRecord
100
AcDbBlockTableRecord
  2
*D14
340
0
  0
BLOCK_RECORD
  5
24CC
330
23F4
100
AcDbSymbolTableRecord
100
AcDbBlockTableRecord
  2
*U15
340
0
102
{BLKREFS
331
11C4
102
}
  0
BLOCK_RECORD
  5
24CE
330
23F4
100
AcDbSymbolTableRecord
100
AcDbBlockTableRecord
  2
*D16
340
0
  0
BLOCK_RECORD
  5
24D0
330
23F4
100
AcDbSymbolTableRecord
100
AcDbBlockTableRecord
  2
*U17
340
0
102
{BLKREFS
331
11EE
102
}
  0
BLOCK_RECORD
  5
24D2
330
23F4
100
AcDbSymbolTableRecord
100
AcDbBlockTableRecord
  2
*D18
340
0
  0
BLOCK_RECORD
  5
24D4
330
23F4
100
AcDbSymbolTableRecord
100
AcDbBlockTableRecord
  2
*U19
340
0
102
{BLKREFS
331
11FB
102
}
  0
BLOCK_RECORD
  5
24D6
330
23F4
100
AcDbSymbolTableRecord
100
AcDbBlockTableRecord
  2
*D20
340
0
  0
BLOCK_RECORD
  5
24D8
330
23F4
100
AcDbSymbolTableRecord
100
AcDbBlockTableRecord
  2
*U21
340
0
102
{BLKREFS
331
1289
102
}
  0
BLOCK_RECORD
  5
24DA
330
23F4
100
AcDbSymbolTableRecord
100
AcDbBlockTableRecord
  2
*D22
340
0
  0
BLOCK_RECORD
  5
24DC
330
23F4
100
AcDbSymbolTableRecord
100
AcDbBlockTableRecord
  2
*U23
340
0
102
{BLKREFS
331
1419
102
}
  0
BLOCK_RECORD
  5
24DE
330
23F4
100
AcDbSymbolTableRecord
100
AcDbBlockTableRecord
  2
*D24
340
0
  0
BLOCK_RECORD
  5
24E0
330
23F4
100
AcDbSymbolTableRecord
100
AcDbBlockTableRecord
  2
*U25
340
0
102
{BLKREFS
331
1425
102
}
  0
BLOCK_RECORD
  5
24E2
330
23F4
100
AcDbSymbolTableRecord
100
AcDbBlockTableRecord
  2
*D26
340
0
  0
BLOCK_RECORD
  5
24E4
330
23F4
100
AcDbSymbolTableRecord
100
AcDbBlockTableRecord
  2
*U27
340
0
102
{BLKREFS
331
1431
102
}
  0
BLOCK_RECORD
  5
24E6
330
23F4
100
AcDbSymbolTableRecord
100
AcDbBlockTableRecord
  2
*D28
340
0
  0
BLOCK_RECORD
  5
24E8
330
23F4
100
AcDbSymbolTableRecord
100
AcDbBlockTableRecord
  2
*U29
340
0
102
{BLKREFS
331
143D
102
}
  0
BLOCK_RECORD
  5
24EA
330
23F4
100
AcDbSymbolTableRecord
100
AcDbBlockTableRecord
  2
*D30
340
0
  0
BLOCK_RECORD
  5
24EC
330
23F4
100
AcDbSymbolTableRecord
100
AcDbBlockTableRecord
  2
*U31
340
0
102
{BLKREFS
331
1670
102
}
  0
BLOCK_RECORD
  5
24EE
330
23F4
100
AcDbSymbolTableRecord
100
AcDbBlockTableRecord
  2
*D32
340
0
  0
BLOCK_RECORD
  5
24F0
330
23F4
100
AcDbSymbolTableRecord
100
AcDbBlockTableRecord
  2
*U33
340
0
102
{BLKREFS
331
1679
102
}
  0
BLOCK_RECORD
  5
24F2
330
23F4
100
AcDbSymbolTableRecord
100
AcDbBlockTableRecord
  2
*D34
340
0
  0
BLOCK_RECORD
  5
24F4
330
23F4
100
AcDbSymbolTableRecord
100
AcDbBlockTableRecord
  2
*U35
340
0
102
{BLKREFS
331
1682
102
}
  0
BLOCK_RECORD
  5
24F6
330
23F4
100
AcDbSymbolTableRecord
100
AcDbBlockTableRecord
  2
*D36
340
0
  0
BLOCK_RECORD
  5
24F8
330
23F4
100
AcDbSymbolTableRecord
100
AcDbBlockTableRecord
  2
*U37
340
0
102
{BLKREFS
331
168B
102
}
  0
BLOCK_RECORD
  5
24FA
330
23F4
100
AcDbSymbolTableRecord
100
AcDbBlockTableRecord
  2
*U38
340
0
  0
BLOCK_RECORD
  5
24FC
330
23F4
100
AcDbSymbolTableRecord
100
AcDbBlockTableRecord
  2
*D39
340
0
  0
BLOCK_RECORD
  5
24FE
330
23F4
100
AcDbSymbolTableRecord
100
AcDbBlockTableRecord
  2
*U40
340
0
102
{BLKREFS
331
1698
102
}
  0
BLOCK_RECORD
  5
2500
330
23F4
100
AcDbSymbolTableRecord
100
AcDbBlockTableRecord
  2
*D41
340
0
  0
BLOCK_RECORD
  5
2502
330
23F4
100
AcDbSymbolTableRecord
100
AcDbBlockTableRecord
  2
*U42
340
0
102
{BLKREFS
331
16A5
102
}
  0
BLOCK_RECORD
  5
2504
330
23F4
100
AcDbSymbolTableRecord
100
AcDbBlockTableRecord
  2
*D43
340
0
  0
BLOCK_RECORD
  5
2506
330
23F4
100
AcDbSymbolTableRecord
100
AcDbBlockTableRecord
  2
*U44
340
0
102
{BLKREFS
331
16B1
102
}
  0
BLOCK_RECORD
  5
2508
330
23F4
100
AcDbSymbolTableRecord
100
AcDbBlockTableRecord
  2
*D45
340
0
  0
BLOCK_RECORD
  5
250A
330
23F4
100
AcDbSymbolTableRecord
100
AcDbBlockTableRecord
  2
*U46
340
0
102
{BLKREFS
331
16BD
102
}
  0
BLOCK_RECORD
  5
250C
330
23F4
100
AcDbSymbolTableRecord
100
AcDbBlockTableRecord
  2
*D47
340
0
  0
BLOCK_RECORD
  5
250E
330
23F4
100
AcDbSymbolTableRecord
100
AcDbBlockTableRecord
  2
*U48
340
0
102
{BLKREFS
331
16C9
102
}
  0
BLOCK_RECORD
  5
2510
330
23F4
100
AcDbSymbolTableRecord
100
AcDbBlockTableRecord
  2
*D49
340
0
  0
BLOCK_RECORD
  5
2512
330
23F4
100
AcDbSymbolTableRecord
100
AcDbBlockTableRecord
  2
*U50
340
0
102
{BLKREFS
331
16D5
102
}
  0
BLOCK_RECORD
  5
2514
330
23F4
100
AcDbSymbolTableRecord
100
AcDbBlockTableRecord
  2
*D51
340
0
  0
BLOCK_RECORD
  5
2516
330
23F4
100
AcDbSymbolTableRecord
100
AcDbBlockTableRecord
  2
*U52
340
0
102
{BLKREFS
331
1D88
102
}
  0
BLOCK_RECORD
  5
2518
330
23F4
100
AcDbSymbolTableRecord
100
AcDbBlockTableRecord
  2
*D53
340
0
  0
BLOCK_RECORD
  5
251A
330
23F4
100
AcDbSymbolTableRecord
100
AcDbBlockTableRecord
  2
*U54
340
0
102
{BLKREFS
331
1D91
102
}
  0
BLOCK_RECORD
  5
251C
330
23F4
100
AcDbSymbolTableRecord
100
AcDbBlockTableRecord
  2
*D55
340
0
  0
BLOCK_RECORD
  5
251E
330
23F4
100
AcDbSymbolTableRecord
100
AcDbBlockTableRecord
  2
*U56
340
0
102
{BLKREFS
331
1D9A
102
}
  0
BLOCK_RECORD
  5
2520
330
23F4
100
AcDbSymbolTableRecord
100
AcDbBlockTableRecord
  2
*D57
340
0
  0
BLOCK_RECORD
  5
2522
330
23F4
100
AcDbSymbolTableRecord
100
AcDbBlockTableRecord
  2
*U58
340
0
102
{BLKREFS
331
1DA3
102
}
  0
BLOCK_RECORD
  5
2524
330
23F4
100
AcDbSymbolTableRecord
100
AcDbBlockTableRecord
  2
*D59
340
0
  0
BLOCK_RECORD
  5
2526
330
23F4
100
AcDbSymbolTableRecord
100
AcDbBlockTableRecord
  2
*U60
340
0
102
{BLKREFS
331
1DAD
102
}
  0
BLOCK_RECORD
  5
2528
330
23F4
100
AcDbSymbolTableRecord
100
AcDbBlockTableRecord
  2
*D61
340
0
  0
BLOCK_RECORD
  5
252A
330
23F4
100
AcDbSymbolTableRecord
100
AcDbBlockTableRecord
  2
*U62
340
0
102
{BLKREFS
331
1DB7
102
}
  0
BLOCK_RECORD
  5
252C
330
23F4
100
AcDbSymbolTableRecord
100
AcDbBlockTableRecord
  2
*U63
340
0
  0
BLOCK_RECORD
  5
252E
330
23F4
100
AcDbSymbolTableRecord
100
AcDbBlockTableRecord
  2
*U64
340
0
  0
BLOCK_RECORD
  5
2530
330
23F4
100
AcDbSymbolTableRecord
100
AcDbBlockTableRecord
  2
*U65
340
0
  0
BLOCK_RECORD
  5
2532
330
23F4
100
AcDbSymbolTableRecord
100
AcDbBlockTableRecord
  2
*U66
340
0
102
{BLKREFS
331
21F2
102
}
  0
BLOCK_RECORD
  5
2534
330
23F4
100
AcDbSymbolTableRecord
100
AcDbBlockTableRecord
  2
*U67
340
0
102
{BLKREFS
331
21F3
102
}
  0
BLOCK_RECORD
  5
2536
330
23F4
100
AcDbSymbolTableRecord
100
AcDbBlockTableRecord
  2
A$C10875DC5
340
0
  0
BLOCK_RECORD
  5
2538
330
23F4
100
AcDbSymbolTableRecord
100
AcDbBlockTableRecord
  2
*U69
340
0
102
{BLKREFS
331
2366
102
}
  0
BLOCK_RECORD
  5
253A
330
23F4
100
AcDbSymbolTableRecord
100
AcDbBlockTableRecord
  2
*U70
340
0
102
{BLKREFS
331
2367
102
}
  0
ENDTAB
  0
ENDSEC
  0
SECTION
  2
BLOCKS
  0
BLOCK
  5
2468
330
2467
100
AcDbEntity
  8
0
100
AcDbBlockBegin
  2
*Model_Space
 70
     0
 10
0.0
 20
0.0
 30
0.0
  3
*Model_Space
  1

  0
ENDBLK
  5
2469
330
2467
100
AcDbEntity
  8
0
100
AcDbBlockEnd
  0
BLOCK
  5
2464
330
2463
100
AcDbEntity
 67
     1
  8
0
100
AcDbBlockBegin
  2
*Paper_Space
 70
     0
 10
0.0
 20
0.0
 30
0.0
  3
*Paper_Space
  1

  0
ENDBLK
  5
2465
330
2463
100
AcDbEntity
 67
     1
  8
0
100
AcDbBlockEnd
  0
BLOCK
  5
24AF
330
24AE
100
AcDbEntity
  8
0
100
AcDbBlockBegin
  2
$MODEL_SPACE
 70
     0
 10
0.0
 20
0.0
 30
0.0
  3
$MODEL_SPACE
  1

  0
ENDBLK
  5
1FC1
330
24AE
100
AcDbEntity
  8
0
100
AcDbBlockEnd
  0
BLOCK
  5
24B1
330
24B0
100
AcDbEntity
  8
0
100
AcDbBlockBegin
  2
$PAPER_SPACE
 70
     0
 10
0.0
 20
0.0
 30
0.0
  3
$PAPER_SPACE
  1

  0
ENDBLK
  5
1FBD
330
24B0
100
AcDbEntity
  8
0
100
AcDbBlockEnd
  0
BLOCK
  5
24B3
330
24B2
100
AcDbEntity
  8
0
100
AcDbBlockBegin
  2
_ORIGIN
 70
     0
 10
0.0
 20
0.0
 30
0.0
  3
_ORIGIN
  1

  0
CIRCLE
  5
880
330
24B2
100
AcDbEntity
  8
0
  6
Continuous
 62
     7
100
AcDbCircle
 10
0.0
 20
0.0
 30
0.0
 40
0.5
  0
LINE
  5
881
330
24B2
100
AcDbEntity
  8
0
  6
Continuous
 62
     7
100
AcDbLine
 10
0.0
 20
0.0
 30
0.0
 11
-1.0
 21
0.0
 31
0.0
  0
ENDBLK
  5
882
330
24B2
100
AcDbEntity
  8
0
100
AcDbBlockEnd
  0
BLOCK
  5
24B5
330
24B4
100
AcDbEntity
  8
0
 62
     1
100
AcDbBlockBegin
  2
_DOTBLANK
 70
     0
 10
0.0
 20
0.0
 30
0.0
  3
_DOTBLANK
  1

  0
CIRCLE
  5
AB3
330
24B4
100
AcDbEntity
  8
0
  6
ByBlock
 62
     0
100
AcDbCircle
 10
0.0
 20
0.0
 30
0.0
 40
0.5
  0
LINE
  5
AB4
330
24B4
100
AcDbEntity
  8
0
  6
ByBlock
 62
     0
100
AcDbLine
 10
-0.5
 20
0.0
 30
0.0
 11
-1.0
 21
0.0
 31
0.0
  0
ENDBLK
  5
AB6
330
24B4
100
AcDbEntity
  8
0
 62
     1
100
AcDbBlockEnd
  0
BLOCK
  5
24B7
330
24B6
100
AcDbEntity
  8
0
 62
     1
100
AcDbBlockBegin
  2
_OPEN30
 70
     0
 10
0.0
 20
0.0
 30
0.0
  3
_OPEN30
  1

  0
LINE
  5
AB8
330
24B6
100
AcDbEntity
  8
0
  6
ByBlock
 62
     0
100
AcDbLine
 10
-1.0
 20
0.26794919
 30
0.0
 11
0.0
 21
0.0
 31
0.0
  0
LINE
  5
AB9
330
24B6
100
AcDbEntity
  8
0
  6
ByBlock
 62
     0
100
AcDbLine
 10
0.0
 20
0.0
 30
0.0
 11
-1.0
 21
-0.26794919
 31
0.0
  0
LINE
  5
ABA
330
24B6
100
AcDbEntity
  8
0
  6
ByBlock
 62
     0
100
AcDbLine
 10
0.0
 20
0.0
 30
0.0
 11
-1.0
 21
0.0
 31
0.0
  0
ENDBLK
  5
ABC
330
24B6
100
AcDbEntity
  8
0
 62
     1
100
AcDbBlockEnd
  0
BLOCK
  5
24B9
330
24B8
100
AcDbEntity
  8
0
100
AcDbBlockBegin
  2
*D5
 70
     1
 10
0.0
 20
0.0
 30
0.0
  3
*D5
  1

  0
LINE
  5
1296
330
24B8
100
AcDbEntity
  8
SIZE
 62
     0
100
AcDbLine
 10
-134.5
 20
-320.0
 30
0.0
 11
-134.5
 21
-468.0173952306001
 31
0.0
  0
LINE
  5
1297
330
24B8
100
AcDbEntity
  8
SIZE
 62
     0
100
AcDbLine
 10
134.5
 20
-320.0
 30
0.0
 11
134.5
 21
-468.0173952306001
 31
0.0
  0
LINE
  5
1298
330
24B8
100
AcDbEntity
  8
SIZE
 62
     0
100
AcDbLine
 10
-122.5
 20
-448.0173952306
 30
0.0
 11
122.5
 21
-448.0173952306
 31
0.0
  0
INSERT
  5
1299
330
24B8
100
AcDbEntity
  8
SIZE
 62
     0
100
AcDbBlockReference
  2
_DOTBLANK
 10
-134.5
 20
-448.0173952306
 30
0.0
 41
12.0
 42
12.0
 43
12.0
 50
180.0
  0
INSERT
  5
129A
330
24B8
100
AcDbEntity
  8
SIZE
 62
     0
100
AcDbBlockReference
  2
_DOTBLANK
 10
134.5
 20
-448.0173952306
 30
0.0
 41
12.0
 42
12.0
 43
12.0
  0
INSERT
  5
129B
330
24B8
100
AcDbEntity
  8
0
100
AcDbBlockReference
  2
*U6
 10
0.0
 20
0.0
 30
0.0
  0
POINT
  5
129C
330
24B8
100
AcDbEntity
  8
DEFPOINTS
 62
     0
100
AcDbPoint
 10
-134.5
 20
-300.0
 30
0.0
  0
POINT
  5
129D
330
24B8
100
AcDbEntity
  8
DEFPOINTS
 62
     0
100
AcDbPoint
 10
134.5
 20
-300.0
 30
0.0
  0
POINT
  5
129E
330
24B8
100
AcDbEntity
  8
DEFPOINTS
 62
     0
100
AcDbPoint
 10
134.5
 20
-448.0173952306
 30
0.0
  0
ENDBLK
  5
D72
330
24B8
100
AcDbEntity
  8
0
100
AcDbBlockEnd
  0
BLOCK
  5
24BB
330
24BA
100
AcDbEntity
  8
0
100
AcDbBlockBegin
  2
*U6
 70
     1
 10
0.0
 20
0.0
 30
0.0
  3
*U6
  1

  0
TEXT
  5
1EF5
330
24BA
100
AcDbEntity
  8
SIZE
 62
     0
100
AcDbText
 10
-72.68571428571426
 20
-438.0173952305999
 30
0.0
 40
64.0
  1
269
 41
0.9
100
AcDbText
  0
ENDBLK
  5
1EF7
330
24BA
100
AcDbEntity
  8
0
100
AcDbBlockEnd
  0
BLOCK
  5
24BD
330
24BC
100
AcDbEntity
  8
0
100
AcDbBlockBegin
  2
*D7
 70
     1
 10
0.0
 20
0.0
 30
0.0
  3
*D7
  1

  0
LINE
  5
11A7
330
24BC
100
AcDbEntity
  8
SIZE
  6
Continuous
 62
     0
100
AcDbLine
 10
143.5
 20
-300.0
 30
0.0
 11
304.6432844803791
 21
-300.0
 31
0.0
  0
LINE
  5
11A8
330
24BC
100
AcDbEntity
  8
SIZE
  6
Continuous
 62
     0
100
AcDbLine
 10
177.5
 20
-0.0000000000000057
 30
0.0
 11
304.6432844803792
 21
-0.0000000000000417
 31
0.0
  0
LINE
  5
11A9
330
24BC
100
AcDbEntity
  8
SIZE
  6
Continuous
 62
     0
100
AcDbLine
 10
284.6432844803791
 20
-288.0000000000001
 30
0.0
 11
284.6432844803792
 21
-12.00000000000003
 31
0.0
  0
INSERT
  5
11AA
330
24BC
100
AcDbEntity
  8
SIZE
  6
Continuous
 62
     0
100
AcDbBlockReference
  2
_DOTBLANK
 10
284.6432844803791
 20
-300.0
 30
0.0
 41
12.0
 42
12.0
 43
12.0
 50
270.0
  0
INSERT
  5
11AB
330
24BC
100
AcDbEntity
  8
SIZE
  6
Continuous
 62
     0
100
AcDbBlockReference
  2
_DOTBLANK
 10
284.6432844803792
 20
-0.000000000000036
 30
0.0
 41
12.0
 42
12.0
 43
12.0
 50
90.0
  0
INSERT
  5
11AC
330
24BC
100
AcDbEntity
  8
0
100
AcDbBlockReference
  2
*U8
 10
0.0
 20
0.0
 30
0.0
  0
POINT
  5
11AD
330
24BC
100
AcDbEntity
  8
DEFPOINTS
  6
Continuous
 62
     0
100
AcDbPoint
 10
123.5
 20
-300.0
 30
0.0
  0
POINT
  5
11AE
330
24BC
100
AcDbEntity
  8
DEFPOINTS
  6
Continuous
 62
     0
100
AcDbPoint
 10
157.5
 20
0.0
 30
0.0
  0
POINT
  5
11AF
330
24BC
100
AcDbEntity
  8
DEFPOINTS
  6
Continuous
 62
     0
100
AcDbPoint
 10
284.6432844803792
 20
-0.000000000000036
 30
0.0
  0
ENDBLK
  5
E11
330
24BC
100
AcDbEntity
  8
0
100
AcDbBlockEnd
  0
BLOCK
  5
24BF
330
24BE
100
AcDbEntity
  8
0
100
AcDbBlockBegin
  2
*U8
 70
     1
 10
0.0
 20
0.0
 30
0.0
  3
*U8
  1

  0
TEXT
  5
1EE1
330
24BE
100
AcDbEntity
  8
SIZE
 62
     0
100
AcDbText
 10
274.6432844803792
 20
-224.0571428571429
 30
0.0
 40
64.0
  1
300
 50
90.0
 41
0.9
100
AcDbText
  0
ENDBLK
  5
1EE3
330
24BE
100
AcDbEntity
  8
0
100
AcDbBlockEnd
  0
BLOCK
  5
24C1
330
24C0
100
AcDbEntity
  8
0
100
AcDbBlockBegin
  2
*D9
 70
     1
 10
0.0
 20
0.0
 30
0.0
  3
*D9
  1

  0
LINE
  5
E7D
330
24C0
100
AcDbEntity
  8
SIZE
 62
     0
100
AcDbLine
 10
-139.9999999999998
 20
32.46448280219375
 30
0.0
 11
-139.9999999999998
 21
136.4516878685508
 31
0.0
  0
LINE
  5
E7E
330
24C0
100
AcDbEntity
  8
SIZE
 62
     0
100
AcDbLine
 10
140.0
 20
32.46448280219375
 30
0.0
 11
140.0
 21
136.4516878685508
 31
0.0
  0
LINE
  5
E7F
330
24C0
100
AcDbEntity
  8
SIZE
 62
     0
100
AcDbLine
 10
-128.0
 20
116.4516878685508
 30
0.0
 11
128.0
 21
116.4516878685508
 31
0.0
  0
INSERT
  5
E80
330
24C0
100
AcDbEntity
  8
SIZE
 62
     0
100
AcDbBlockReference
  2
_DOTBLANK
 10
-139.9999999999998
 20
116.4516878685508
 30
0.0
 41
12.0
 42
12.0
 43
12.0
 50
180.0
  0
INSERT
  5
E81
330
24C0
100
AcDbEntity
  8
SIZE
 62
     0
100
AcDbBlockReference
  2
_DOTBLANK
 10
140.0
 20
116.4516878685508
 30
0.0
 41
12.0
 42
12.0
 43
12.0
  0
INSERT
  5
E82
330
24C0
100
AcDbEntity
  8
0
100
AcDbBlockReference
  2
*U10
 10
0.0
 20
0.0
 30
0.0
  0
POINT
  5
E83
330
24C0
100
AcDbEntity
  8
DEFPOINTS
 62
     0
100
AcDbPoint
 10
-139.9999999999998
 20
12.46448280219374
 30
0.0
  0
POINT
  5
E84
330
24C0
100
AcDbEntity
  8
DEFPOINTS
 62
     0
100
AcDbPoint
 10
140.0
 20
12.46448280219374
 30
0.0
  0
POINT
  5
E85
330
24C0
100
AcDbEntity
  8
DEFPOINTS
 62
     0
100
AcDbPoint
 10
140.0
 20
116.4516878685508
 30
0.0
  0
ENDBLK
  5
E7C
330
24C0
100
AcDbEntity
  8
0
100
AcDbBlockEnd
  0
BLOCK
  5
24C3
330
24C2
100
AcDbEntity
  8
0
100
AcDbBlockBegin
  2
*U10
 70
     1
 10
0.0
 20
0.0
 30
0.0
  3
*U10
  1

  0
TEXT
  5
1ED8
330
24C2
100
AcDbEntity
  8
SIZE
 62
     0
100
AcDbText
 10
-74.05714285714281
 20
126.4516878685508
 30
0.0
 40
64.0
  1
280
 41
0.9
100
AcDbText
  0
ENDBLK
  5
1EDA
330
24C2
100
AcDbEntity
  8
0
100
AcDbBlockEnd
  0
BLOCK
  5
24C5
330
24C4
100
AcDbEntity
  8
0
100
AcDbBlockBegin
  2
GENAXEH
 70
     0
 10
0.0
 20
0.0
 30
0.0
  3
GENAXEH
  1

  0
LINE
  5
FDB
330
24C4
100
AcDbEntity
  8
0
100
AcDbLine
 10
-1.0
 20
0.0
 30
0.0
 11
1.0
 21
0.0
 31
0.0
  0
ENDBLK
  5
FDD
330
24C4
100
AcDbEntity
  8
0
100
AcDbBlockEnd
  0
BLOCK
  5
24C7
330
24C6
100
AcDbEntity
  8
0
100
AcDbBlockBegin
  2
*D12
 70
     1
 10
0.0
 20
0.0
 30
0.0
  3
*D12
  1

  0
LINE
  5
1120
330
24C6
100
AcDbEntity
  8
SIZE
 62
     0
100
AcDbLine
 10
-157.5
 20
20.0
 30
0.0
 11
-157.5
 21
245.5794621189598
 31
0.0
  0
LINE
  5
1121
330
24C6
100
AcDbEntity
  8
SIZE
 62
     0
100
AcDbLine
 10
157.5
 20
20.0
 30
0.0
 11
157.5
 21
245.5794621189598
 31
0.0
  0
LINE
  5
1122
330
24C6
100
AcDbEntity
  8
SIZE
 62
     0
100
AcDbLine
 10
-145.5
 20
225.5794621189598
 30
0.0
 11
145.5
 21
225.5794621189598
 31
0.0
  0
INSERT
  5
1123
330
24C6
100
AcDbEntity
  8
SIZE
 62
     0
100
AcDbBlockReference
  2
_DOTBLANK
 10
-157.5
 20
225.5794621189598
 30
0.0
 41
12.0
 42
12.0
 43
12.0
 50
180.0
  0
INSERT
  5
1124
330
24C6
100
AcDbEntity
  8
SIZE
 62
     0
100
AcDbBlockReference
  2
_DOTBLANK
 10
157.5
 20
225.5794621189598
 30
0.0
 41
12.0
 42
12.0
 43
12.0
  0
INSERT
  5
1125
330
24C6
100
AcDbEntity
  8
0
100
AcDbBlockReference
  2
*U13
 10
0.0
 20
0.0
 30
0.0
  0
POINT
  5
1126
330
24C6
100
AcDbEntity
  8
DEFPOINTS
 62
     0
100
AcDbPoint
 10
-157.5
 20
0.0
 30
0.0
  0
POINT
  5
1127
330
24C6
100
AcDbEntity
  8
DEFPOINTS
 62
     0
100
AcDbPoint
 10
157.5
 20
0.0
 30
0.0
  0
POINT
  5
1128
330
24C6
100
AcDbEntity
  8
DEFPOINTS
 62
     0
100
AcDbPoint
 10
157.5
 20
225.5794621189598
 30
0.0
  0
ENDBLK
  5
111F
330
24C6
100
AcDbEntity
  8
0
100
AcDbBlockEnd
  0
BLOCK
  5
24C9
330
24C8
100
AcDbEntity
  8
0
100
AcDbBlockBegin
  2
*U13
 70
     1
 10
0.0
 20
0.0
 30
0.0
  3
*U13
  1

  0
TEXT
  5
1EDD
330
24C8
100
AcDbEntity
  8
SIZE
 62
     0
100
AcDbText
 10
-68.57142857142857
 20
235.5794621189599
 30
0.0
 40
64.0
  1
315
 41
0.9
100
AcDbText
  0
ENDBLK
  5
1EDF
330
24C8
100
AcDbEntity
  8
0
100
AcDbBlockEnd
  0
BLOCK
  5
24CB
330
24CA
100
AcDbEntity
  8
0
100
AcDbBlockBegin
  2
*D14
 70
     1
 10
0.0
 20
0.0
 30
0.0
  3
*D14
  1

  0
LINE
  5
11BD
330
24CA
100
AcDbEntity
  8
NOTE
 62
     0
100
AcDbLine
 10
-123.4999999999999
 20
-320.0
 30
0.0
 11
-123.4999999999999
 21
-354.9529861856111
 31
0.0
  0
LINE
  5
11BE
330
24CA
100
AcDbEntity
  8
NOTE
 62
     0
100
AcDbLine
 10
-133.4999999999998
 20
-331.2126909923287
 30
0.0
 11
-133.4999999999998
 21
-354.9529861856111
 31
0.0
  0
LINE
  5
11BF
330
24CA
100
AcDbEntity
  8
NOTE
 62
     0
100
AcDbLine
 10
-111.4999999999999
 20
-334.9529861856112
 30
0.0
 11
-99.4999999999999
 21
-334.9529861856112
 31
0.0
  0
LINE
  5
11C0
330
24CA
100
AcDbEntity
  8
NOTE
 62
     0
100
AcDbLine
 10
-145.4999999999998
 20
-334.9529861856112
 30
0.0
 11
-157.4999999999998
 21
-334.9529861856112
 31
0.0
  0
LINE
  5
11C1
330
24CA
100
AcDbEntity
  8
NOTE
 62
     0
100
AcDbLine
 10
-123.4999999999999
 20
-334.9529861856112
 30
0.0
 11
-133.4999999999998
 21
-334.9529861856112
 31
0.0
  0
INSERT
  5
11C2
330
24CA
100
AcDbEntity
  8
NOTE
 62
     0
100
AcDbBlockReference
  2
_DOTBLANK
 10
-123.4999999999999
 20
-334.9529861856112
 30
0.0
 41
12.0
 42
12.0
 43
12.0
 50
180.0
  0
INSERT
  5
11C3
330
24CA
100
AcDbEntity
  8
NOTE
 62
     0
100
AcDbBlockReference
  2
_DOTBLANK
 10
-133.4999999999998
 20
-334.9529861856112
 30
0.0
 41
12.0
 42
12.0
 43
12.0
  0
INSERT
  5
11C4
330
24CA
100
AcDbEntity
  8
0
100
AcDbBlockReference
  2
*U15
 10
0.0
 20
0.0
 30
0.0
  0
POINT
  5
11C5
330
24CA
100
AcDbEntity
  8
DEFPOINTS
 62
     0
100
AcDbPoint
 10
-123.4999999999999
 20
-300.0
 30
0.0
  0
POINT
  5
11C6
330
24CA
100
AcDbEntity
  8
DEFPOINTS
 62
     0
100
AcDbPoint
 10
-133.4999999999998
 20
-311.2126909923287
 30
0.0
  0
POINT
  5
11C7
330
24CA
100
AcDbEntity
  8
DEFPOINTS
 62
     0
100
AcDbPoint
 10
-133.4999999999998
 20
-334.9529861856112
 30
0.0
  0
ENDBLK
  5
11BC
330
24CA
100
AcDbEntity
  8
0
100
AcDbBlockEnd
  0
BLOCK
  5
24CD
330
24CC
100
AcDbEntity
  8
0
100
AcDbBlockBegin
  2
*U15
 70
     1
 10
0.0
 20
0.0
 30
0.0
  3
*U15
  1

  0
TEXT
  5
1EE5
330
24CC
100
AcDbEntity
  8
NOTE
 62
     0
100
AcDbText
 10
-169.642857142857
 20
-324.9529861856112
 30
0.0
 40
64.0
  1
10
 41
0.9
100
AcDbText
  0
ENDBLK
  5
1EE7
330
24CC
100
AcDbEntity
  8
0
100
AcDbBlockEnd
  0
BLOCK
  5
24CF
330
24CE
100
AcDbEntity
  8
0
100
AcDbBlockBegin
  2
*D16
 70
     1
 10
0.0
 20
0.0
 30
0.0
  3
*D16
  1

  0
LINE
  5
11E7
330
24CE
100
AcDbEntity
  8
NOTE
 62
     0
100
AcDbLine
 10
-135.5
 20
-333.2126909923287
 30
0.0
 11
-135.5
 21
-386.2569421441843
 31
0.0
  0
LINE
  5
11E8
330
24CE
100
AcDbEntity
  8
NOTE
 62
     0
100
AcDbLine
 10
-123.4999999999999
 20
-320.0
 30
0.0
 11
-123.4999999999999
 21
-386.2569421441843
 31
0.0
  0
LINE
  5
11E9
330
24CE
100
AcDbEntity
  8
NOTE
 62
     0
100
AcDbLine
 10
-147.5
 20
-366.2569421441844
 30
0.0
 11
-159.5
 21
-366.2569421441844
 31
0.0
  0
LINE
  5
11EA
330
24CE
100
AcDbEntity
  8
NOTE
 62
     0
100
AcDbLine
 10
-111.4999999999999
 20
-366.2569421441844
 30
0.0
 11
-99.4999999999999
 21
-366.2569421441844
 31
0.0
  0
LINE
  5
11EB
330
24CE
100
AcDbEntity
  8
NOTE
 62
     0
100
AcDbLine
 10
-135.5
 20
-366.2569421441844
 30
0.0
 11
-123.4999999999999
 21
-366.2569421441844
 31
0.0
  0
INSERT
  5
11EC
330
24CE
100
AcDbEntity
  8
NOTE
 62
     0
100
AcDbBlockReference
  2
_DOTBLANK
 10
-135.5
 20
-366.2569421441844
 30
0.0
 41
12.0
 42
12.0
 43
12.0
  0
INSERT
  5
11ED
330
24CE
100
AcDbEntity
  8
NOTE
 62
     0
100
AcDbBlockReference
  2
_DOTBLANK
 10
-123.4999999999999
 20
-366.2569421441844
 30
0.0
 41
12.0
 42
12.0
 43
12.0
 50
180.0
  0
INSERT
  5
11EE
330
24CE
100
AcDbEntity
  8
0
100
AcDbBlockReference
  2
*U17
 10
0.0
 20
0.0
 30
0.0
  0
POINT
  5
11EF
330
24CE
100
AcDbEntity
  8
DEFPOINTS
 62
     0
100
AcDbPoint
 10
-135.5
 20
-313.2126909923287
 30
0.0
  0
POINT
  5
11F0
330
24CE
100
AcDbEntity
  8
DEFPOINTS
 62
     0
100
AcDbPoint
 10
-123.4999999999999
 20
-300.0
 30
0.0
  0
POINT
  5
11F1
330
24CE
100
AcDbEntity
  8
DEFPOINTS
 62
     0
100
AcDbPoint
 10
-123.4999999999999
 20
-366.2569421441844
 30
0.0
  0
ENDBLK
  5
11E6
330
24CE
100
AcDbEntity
  8
0
100
AcDbBlockEnd
  0
BLOCK
  5
24D1
330
24D0
100
AcDbEntity
  8
0
100
AcDbBlockBegin
  2
*U17
 70
     1
 10
0.0
 20
0.0
 30
0.0
  3
*U17
  1

  0
TEXT
  5
1EE9
330
24D0
100
AcDbEntity
  8
NOTE
 62
     0
100
AcDbText
 10
-170.642857142857
 20
-356.2569421441843
 30
0.0
 40
64.0
  1
12
 41
0.9
100
AcDbText
  0
ENDBLK
  5
1EEB
330
24D0
100
AcDbEntity
  8
0
100
AcDbBlockEnd
  0
BLOCK
  5
24D3
330
24D2
100
AcDbEntity
  8
0
100
AcDbBlockBegin
  2
*D18
 70
     1
 10
0.0
 20
0.0
 30
0.0
  3
*D18
  1

  0
LINE
  5
11F6
330
24D2
100
AcDbEntity
  8
NOTE
 62
     0
100
AcDbLine
 10
-123.4999999999999
 20
-320.0
 30
0.0
 11
-123.4999999999999
 21
-583.8286022818904
 31
0.0
  0
LINE
  5
11F7
330
24D2
100
AcDbEntity
  8
NOTE
 62
     0
100
AcDbLine
 10
123.5
 20
-320.0
 30
0.0
 11
123.5
 21
-583.8286022818904
 31
0.0
  0
LINE
  5
11F8
330
24D2
100
AcDbEntity
  8
NOTE
 62
     0
100
AcDbLine
 10
-111.4999999999999
 20
-563.8286022818904
 30
0.0
 11
111.5
 21
-563.8286022818904
 31
0.0
  0
INSERT
  5
11F9
330
24D2
100
AcDbEntity
  8
NOTE
 62
     0
100
AcDbBlockReference
  2
_DOTBLANK
 10
-123.4999999999999
 20
-563.8286022818904
 30
0.0
 41
12.0
 42
12.0
 43
12.0
 50
180.0
  0
INSERT
  5
11FA
330
24D2
100
AcDbEntity
  8
NOTE
 62
     0
100
AcDbBlockReference
  2
_DOTBLANK
 10
123.5
 20
-563.8286022818904
 30
0.0
 41
12.0
 42
12.0
 43
12.0
  0
INSERT
  5
11FB
330
24D2
100
AcDbEntity
  8
0
100
AcDbBlockReference
  2
*U19
 10
0.0
 20
0.0
 30
0.0
  0
POINT
  5
11FC
330
24D2
100
AcDbEntity
  8
DEFPOINTS
 62
     0
100
AcDbPoint
 10
-123.4999999999999
 20
-300.0
 30
0.0
  0
POINT
  5
11FD
330
24D2
100
AcDbEntity
  8
DEFPOINTS
 62
     0
100
AcDbPoint
 10
123.5
 20
-300.0
 30
0.0
  0
POINT
  5
11FE
330
24D2
100
AcDbEntity
  8
DEFPOINTS
 62
     0
100
AcDbPoint
 10
123.5
 20
-563.8286022818904
 30
0.0
  0
ENDBLK
  5
11F5
330
24D2
100
AcDbEntity
  8
0
100
AcDbBlockEnd
  0
BLOCK
  5
24D5
330
24D4
100
AcDbEntity
  8
0
100
AcDbBlockBegin
  2
*U19
 70
     1
 10
0.0
 20
0.0
 30
0.0
  3
*U19
  1

  0
TEXT
  5
1EED
330
24D4
100
AcDbEntity
  8
NOTE
 62
     0
100
AcDbText
 10
-74.05714285714281
 20
-553.8286022818904
 30
0.0
 40
64.0
  1
247
 41
0.9
100
AcDbText
  0
ENDBLK
  5
1EEF
330
24D4
100
AcDbEntity
  8
0
100
AcDbBlockEnd
  0
BLOCK
  5
24D7
330
24D6
100
AcDbEntity
  8
0
100
AcDbBlockBegin
  2
*D20
 70
     1
 10
0.0
 20
0.0
 30
0.0
  3
*D20
  1

  0
LINE
  5
1284
330
24D6
100
AcDbEntity
  8
NOTE
 62
     0
100
AcDbLine
 10
-123.5
 20
12.0
 30
0.0
 11
-123.5
 21
71.83630134534229
 31
0.0
  0
LINE
  5
1285
330
24D6
100
AcDbEntity
  8
NOTE
 62
     0
100
AcDbLine
 10
123.5
 20
12.0
 30
0.0
 11
123.5
 21
71.83630134534229
 31
0.0
  0
LINE
  5
1286
330
24D6
100
AcDbEntity
  8
NOTE
 62
     0
100
AcDbLine
 10
-111.5
 20
51.83630134534229
 30
0.0
 11
111.5
 21
51.83630134534229
 31
0.0
  0
INSERT
  5
1287
330
24D6
100
AcDbEntity
  8
NOTE
 62
     0
100
AcDbBlockReference
  2
_DOTBLANK
 10
-123.5
 20
51.83630134534229
 30
0.0
 41
12.0
 42
12.0
 43
12.0
 50
180.0
  0
INSERT
  5
1288
330
24D6
100
AcDbEntity
  8
NOTE
 62
     0
100
AcDbBlockReference
  2
_DOTBLANK
 10
123.5
 20
51.83630134534229
 30
0.0
 41
12.0
 42
12.0
 43
12.0
  0
INSERT
  5
1289
330
24D6
100
AcDbEntity
  8
0
100
AcDbBlockReference
  2
*U21
 10
0.0
 20
0.0
 30
0.0
  0
POINT
  5
128A
330
24D6
100
AcDbEntity
  8
DEFPOINTS
 62
     0
100
AcDbPoint
 10
-123.5
 20
-8.0
 30
0.0
  0
POINT
  5
128B
330
24D6
100
AcDbEntity
  8
DEFPOINTS
 62
     0
100
AcDbPoint
 10
123.5
 20
-8.0
 30
0.0
  0
POINT
  5
128C
330
24D6
100
AcDbEntity
  8
DEFPOINTS
 62
     0
100
AcDbPoint
 10
123.5
 20
51.83630134534229
 30
0.0
  0
ENDBLK
  5
1283
330
24D6
100
AcDbEntity
  8
0
100
AcDbBlockEnd
  0
BLOCK
  5
24D9
330
24D8
100
AcDbEntity
  8
0
100
AcDbBlockBegin
  2
*U21
 70
     1
 10
0.0
 20
0.0
 30
0.0
  3
*U21
  1

  0
TEXT
  5
1EF1
330
24D8
100
AcDbEntity
  8
NOTE
 62
     0
100
AcDbText
 10
-74.05714285714283
 20
61.83630134534229
 30
0.0
 40
64.0
  1
247
 41
0.9
100
AcDbText
  0
ENDBLK
  5
1EF3
330
24D8
100
AcDbEntity
  8
0
100
AcDbBlockEnd
  0
BLOCK
  5
24DB
330
24DA
100
AcDbEntity
  8
0
100
AcDbBlockBegin
  2
*D22
 70
     1
 10
0.0
 20
0.0
 30
0.0
  3
*D22
  1

  0
LINE
  5
1414
330
24DA
100
AcDbEntity
  8
SIZE
 62
     0
100
AcDbLine
 10
-22313.11521613997
 20
7365.702971374808
 30
0.0
 11
-22313.11521613997
 21
7217.685576144207
 31
0.0
  0
LINE
  5
1415
330
24DA
100
AcDbEntity
  8
SIZE
 62
     0
100
AcDbLine
 10
-22044.11521613997
 20
7365.702971374808
 30
0.0
 11
-22044.11521613997
 21
7217.685576144207
 31
0.0
  0
LINE
  5
1416
330
24DA
100
AcDbEntity
  8
SIZE
 62
     0
100
AcDbLine
 10
-22301.11521613997
 20
7237.685576144207
 30
0.0
 11
-22056.11521613997
 21
7237.685576144207
 31
0.0
  0
INSERT
  5
1417
330
24DA
100
AcDbEntity
  8
SIZE
 62
     0
100
AcDbBlockReference
  2
_DOTBLANK
 10
-22313.11521613997
 20
7237.685576144207
 30
0.0
 41
12.0
 42
12.0
 43
12.0
 50
180.0
  0
INSERT
  5
1418
330
24DA
100
AcDbEntity
  8
SIZE
 62
     0
100
AcDbBlockReference
  2
_DOTBLANK
 10
-22044.11521613997
 20
7237.685576144207
 30
0.0
 41
12.0
 42
12.0
 43
12.0
  0
INSERT
  5
1419
330
24DA
100
AcDbEntity
  8
0
100
AcDbBlockReference
  2
*U23
 10
0.0
 20
0.0
 30
0.0
  0
POINT
  5
141A
330
24DA
100
AcDbEntity
  8
DEFPOINTS
 62
     0
100
AcDbPoint
 10
-22313.11521613997
 20
7385.702971374808
 30
0.0
  0
POINT
  5
141B
330
24DA
100
AcDbEntity
  8
DEFPOINTS
 62
     0
100
AcDbPoint
 10
-22044.11521613997
 20
7385.702971374808
 30
0.0
  0
POINT
  5
141C
330
24DA
100
AcDbEntity
  8
DEFPOINTS
 62
     0
100
AcDbPoint
 10
-22044.11521613997
 20
7237.685576144207
 30
0.0
  0
ENDBLK
  5
141D
330
24DA
100
AcDbEntity
  8
0
100
AcDbBlockEnd
  0
BLOCK
  5
24DD
330
24DC
100
AcDbEntity
  8
0
100
AcDbBlockBegin
  2
*U23
 70
     1
 10
0.0
 20
0.0
 30
0.0
  3
*U23
  1

  0
TEXT
  5
1EF9
330
24DC
100
AcDbEntity
  8
SIZE
 62
     0
100
AcDbText
 10
-22251.30093042568
 20
7247.685576144205
 30
0.0
 40
64.0
  1
269
 41
0.9
100
AcDbText
  0
ENDBLK
  5
1EFB
330
24DC
100
AcDbEntity
  8
0
100
AcDbBlockEnd
  0
BLOCK
  5
24DF
330
24DE
100
AcDbEntity
  8
0
100
AcDbBlockBegin
  2
*D24
 70
     1
 10
0.0
 20
0.0
 30
0.0
  3
*D24
  1

  0
LINE
  5
1420
330
24DE
100
AcDbEntity
  8
SIZE
  6
Continuous
 62
     0
100
AcDbLine
 10
-22035.11521613997
 20
7385.702971374808
 30
0.0
 11
-21873.97193165959
 21
7385.702971374808
 31
0.0
  0
LINE
  5
1421
330
24DE
100
AcDbEntity
  8
SIZE
  6
Continuous
 62
     0
100
AcDbLine
 10
-22001.11521613997
 20
7685.702971374808
 30
0.0
 11
-21873.97193165959
 21
7685.702971374808
 31
0.0
  0
LINE
  5
1422
330
24DE
100
AcDbEntity
  8
SIZE
  6
Continuous
 62
     0
100
AcDbLine
 10
-21893.97193165959
 20
7397.702971374808
 30
0.0
 11
-21893.97193165959
 21
7673.702971374808
 31
0.0
  0
INSERT
  5
1423
330
24DE
100
AcDbEntity
  8
SIZE
  6
Continuous
 62
     0
100
AcDbBlockReference
  2
_DOTBLANK
 10
-21893.97193165959
 20
7385.702971374808
 30
0.0
 41
12.0
 42
12.0
 43
12.0
 50
270.0
  0
INSERT
  5
1424
330
24DE
100
AcDbEntity
  8
SIZE
  6
Continuous
 62
     0
100
AcDbBlockReference
  2
_DOTBLANK
 10
-21893.97193165959
 20
7685.702971374808
 30
0.0
 41
12.0
 42
12.0
 43
12.0
 50
90.0
  0
INSERT
  5
1425
330
24DE
100
AcDbEntity
  8
0
100
AcDbBlockReference
  2
*U25
 10
0.0
 20
0.0
 30
0.0
  0
POINT
  5
1426
330
24DE
100
AcDbEntity
  8
DEFPOINTS
  6
Continuous
 62
     0
100
AcDbPoint
 10
-22055.11521613997
 20
7385.702971374808
 30
0.0
  0
POINT
  5
1427
330
24DE
100
AcDbEntity
  8
DEFPOINTS
  6
Continuous
 62
     0
100
AcDbPoint
 10
-22021.11521613997
 20
7685.702971374808
 30
0.0
  0
POINT
  5
1428
330
24DE
100
AcDbEntity
  8
DEFPOINTS
  6
Continuous
 62
     0
100
AcDbPoint
 10
-21893.97193165959
 20
7685.702971374808
 30
0.0
  0
ENDBLK
  5
1429
330
24DE
100
AcDbEntity
  8
0
100
AcDbBlockEnd
  0
BLOCK
  5
24E1
330
24E0
100
AcDbEntity
  8
0
100
AcDbBlockBegin
  2
*U25
 70
     1
 10
0.0
 20
0.0
 30
0.0
  3
*U25
  1

  0
TEXT
  5
1EFD
330
24E0
100
AcDbEntity
  8
SIZE
 62
     0
100
AcDbText
 10
-21903.97193165959
 20
7461.645828517662
 30
0.0
 40
64.0
  1
300
 50
90.0
 41
0.9
100
AcDbText
  0
ENDBLK
  5
1EFF
330
24E0
100
AcDbEntity
  8
0
100
AcDbBlockEnd
  0
BLOCK
  5
24E3
330
24E2
100
AcDbEntity
  8
0
100
AcDbBlockBegin
  2
*D26
 70
     1
 10
0.0
 20
0.0
 30
0.0
  3
*D26
  1

  0
LINE
  5
142C
330
24E2
100
AcDbEntity
  8
SIZE
 62
     0
100
AcDbLine
 10
-22318.61521613997
 20
7718.167454177002
 30
0.0
 11
-22318.61521613997
 21
7822.154659243358
 31
0.0
  0
LINE
  5
142D
330
24E2
100
AcDbEntity
  8
SIZE
 62
     0
100
AcDbLine
 10
-22038.61521613997
 20
7718.167454177002
 30
0.0
 11
-22038.61521613997
 21
7822.154659243358
 31
0.0
  0
LINE
  5
142E
330
24E2
100
AcDbEntity
  8
SIZE
 62
     0
100
AcDbLine
 10
-22306.61521613997
 20
7802.154659243358
 30
0.0
 11
-22050.61521613997
 21
7802.154659243358
 31
0.0
  0
INSERT
  5
142F
330
24E2
100
AcDbEntity
  8
SIZE
 62
     0
100
AcDbBlockReference
  2
_DOTBLANK
 10
-22318.61521613997
 20
7802.154659243358
 30
0.0
 41
12.0
 42
12.0
 43
12.0
 50
180.0
  0
INSERT
  5
1430
330
24E2
100
AcDbEntity
  8
SIZE
 62
     0
100
AcDbBlockReference
  2
_DOTBLANK
 10
-22038.61521613997
 20
7802.154659243358
 30
0.0
 41
12.0
 42
12.0
 43
12.0
  0
INSERT
  5
1431
330
24E2
100
AcDbEntity
  8
0
100
AcDbBlockReference
  2
*U27
 10
0.0
 20
0.0
 30
0.0
  0
POINT
  5
1432
330
24E2
100
AcDbEntity
  8
DEFPOINTS
 62
     0
100
AcDbPoint
 10
-22318.61521613997
 20
7698.167454177002
 30
0.0
  0
POINT
  5
1433
330
24E2
100
AcDbEntity
  8
DEFPOINTS
 62
     0
100
AcDbPoint
 10
-22038.61521613997
 20
7698.167454177002
 30
0.0
  0
POINT
  5
1434
330
24E2
100
AcDbEntity
  8
DEFPOINTS
 62
     0
100
AcDbPoint
 10
-22038.61521613997
 20
7802.154659243358
 30
0.0
  0
ENDBLK
  5
1435
330
24E2
100
AcDbEntity
  8
0
100
AcDbBlockEnd
  0
BLOCK
  5
24E5
330
24E4
100
AcDbEntity
  8
0
100
AcDbBlockBegin
  2
*U27
 70
     1
 10
0.0
 20
0.0
 30
0.0
  3
*U27
  1

  0
TEXT
  5
1F01
330
24E4
100
AcDbEntity
  8
SIZE
 62
     0
100
AcDbText
 10
-22252.6723589971
 20
7812.154659243358
 30
0.0
 40
64.0
  1
280
 41
0.9
100
AcDbText
  0
ENDBLK
  5
1F03
330
24E4
100
AcDbEntity
  8
0
100
AcDbBlockEnd
  0
BLOCK
  5
24E7
330
24E6
100
AcDbEntity
  8
0
100
AcDbBlockBegin
  2
*D28
 70
     1
 10
0.0
 20
0.0
 30
0.0
  3
*D28
  1

  0
LINE
  5
1438
330
24E6
100
AcDbEntity
  8
SIZE
 62
     0
100
AcDbLine
 10
-22336.11521613997
 20
7705.702971374808
 30
0.0
 11
-22336.11521613997
 21
7931.282433493766
 31
0.0
  0
LINE
  5
1439
330
24E6
100
AcDbEntity
  8
SIZE
 62
     0
100
AcDbLine
 10
-22021.11521613997
 20
7705.702971374808
 30
0.0
 11
-22021.11521613997
 21
7931.282433493766
 31
0.0
  0
LINE
  5
143A
330
24E6
100
AcDbEntity
  8
SIZE
 62
     0
100
AcDbLine
 10
-22324.11521613997
 20
7911.282433493766
 30
0.0
 11
-22033.11521613997
 21
7911.282433493766
 31
0.0
  0
INSERT
  5
143B
330
24E6
100
AcDbEntity
  8
SIZE
 62
     0
100
AcDbBlockReference
  2
_DOTBLANK
 10
-22336.11521613997
 20
7911.282433493766
 30
0.0
 41
12.0
 42
12.0
 43
12.0
 50
180.0
  0
INSERT
  5
143C
330
24E6
100
AcDbEntity
  8
SIZE
 62
     0
100
AcDbBlockReference
  2
_DOTBLANK
 10
-22021.11521613997
 20
7911.282433493766
 30
0.0
 41
12.0
 42
12.0
 43
12.0
  0
INSERT
  5
143D
330
24E6
100
AcDbEntity
  8
0
100
AcDbBlockReference
  2
*U29
 10
0.0
 20
0.0
 30
0.0
  0
POINT
  5
143E
330
24E6
100
AcDbEntity
  8
DEFPOINTS
 62
     0
100
AcDbPoint
 10
-22336.11521613997
 20
7685.702971374808
 30
0.0
  0
POINT
  5
143F
330
24E6
100
AcDbEntity
  8
DEFPOINTS
 62
     0
100
AcDbPoint
 10
-22021.11521613997
 20
7685.702971374808
 30
0.0
  0
POINT
  5
1440
330
24E6
100
AcDbEntity
  8
DEFPOINTS
 62
     0
100
AcDbPoint
 10
-22021.11521613997
 20
7911.282433493766
 30
0.0
  0
ENDBLK
  5
1441
330
24E6
100
AcDbEntity
  8
0
100
AcDbBlockEnd
  0
BLOCK
  5
24E9
330
24E8
100
AcDbEntity
  8
0
100
AcDbBlockBegin
  2
*U29
 70
     1
 10
0.0
 20
0.0
 30
0.0
  3
*U29
  1

  0
TEXT
  5
1F05
330
24E8
100
AcDbEntity
  8
SIZE
 62
     0
100
AcDbText
 10
-22247.18664471139
 20
7921.282433493766
 30
0.0
 40
64.0
  1
315
 41
0.9
100
AcDbText
  0
ENDBLK
  5
1F07
330
24E8
100
AcDbEntity
  8
0
100
AcDbBlockEnd
  0
BLOCK
  5
24EB
330
24EA
100
AcDbEntity
  8
0
100
AcDbBlockBegin
  2
*D30
 70
     1
 10
0.0
 20
0.0
 30
0.0
  3
*D30
  1

  0
LINE
  5
166B
330
24EA
100
AcDbEntity
  8
SIZE
 62
     0
100
AcDbLine
 10
-134.5
 20
-320.0
 30
0.0
 11
-134.5
 21
-468.0173952306001
 31
0.0
  0
LINE
  5
166C
330
24EA
100
AcDbEntity
  8
SIZE
 62
     0
100
AcDbLine
 10
134.5
 20
-320.0
 30
0.0
 11
134.5
 21
-468.0173952306001
 31
0.0
  0
LINE
  5
166D
330
24EA
100
AcDbEntity
  8
SIZE
 62
     0
100
AcDbLine
 10
-122.5
 20
-448.0173952306
 30
0.0
 11
122.5
 21
-448.0173952306
 31
0.0
  0
INSERT
  5
166E
330
24EA
100
AcDbEntity
  8
SIZE
 62
     0
100
AcDbBlockReference
  2
_DOTBLANK
 10
-134.5
 20
-448.0173952306
 30
0.0
 41
12.0
 42
12.0
 43
12.0
 50
180.0
  0
INSERT
  5
166F
330
24EA
100
AcDbEntity
  8
SIZE
 62
     0
100
AcDbBlockReference
  2
_DOTBLANK
 10
134.5
 20
-448.0173952306
 30
0.0
 41
12.0
 42
12.0
 43
12.0
  0
INSERT
  5
1670
330
24EA
100
AcDbEntity
  8
0
100
AcDbBlockReference
  2
*U31
 10
0.0
 20
0.0
 30
0.0
  0
POINT
  5
1671
330
24EA
100
AcDbEntity
  8
DEFPOINTS
 62
     0
100
AcDbPoint
 10
-134.5
 20
-300.0
 30
0.0
  0
POINT
  5
1672
330
24EA
100
AcDbEntity
  8
DEFPOINTS
 62
     0
100
AcDbPoint
 10
134.5
 20
-300.0
 30
0.0
  0
POINT
  5
1673
330
24EA
100
AcDbEntity
  8
DEFPOINTS
 62
     0
100
AcDbPoint
 10
134.5
 20
-448.0173952306
 30
0.0
  0
ENDBLK
  5
14A7
330
24EA
100
AcDbEntity
  8
0
100
AcDbBlockEnd
  0
BLOCK
  5
24ED
330
24EC
100
AcDbEntity
  8
0
100
AcDbBlockBegin
  2
*U31
 70
     1
 10
0.0
 20
0.0
 30
0.0
  3
*U31
  1

  0
TEXT
  5
1F09
330
24EC
100
AcDbEntity
  8
SIZE
 62
     0
100
AcDbText
 10
-72.68571428571426
 20
-438.0173952306002
 30
0.0
 40
64.0
  1
269
 41
0.9
100
AcDbText
  0
ENDBLK
  5
1F0B
330
24EC
100
AcDbEntity
  8
0
100
AcDbBlockEnd
  0
BLOCK
  5
24EF
330
24EE
100
AcDbEntity
  8
0
100
AcDbBlockBegin
  2
*D32
 70
     1
 10
0.0
 20
0.0
 30
0.0
  3
*D32
  1

  0
LINE
  5
1674
330
24EE
100
AcDbEntity
  8
SIZE
  6
Continuous
 62
     0
100
AcDbLine
 10
143.5
 20
-300.0
 30
0.0
 11
304.6432844803784
 21
-300.0
 31
0.0
  0
LINE
  5
1675
330
24EE
100
AcDbEntity
  8
SIZE
  6
Continuous
 62
     0
100
AcDbLine
 10
177.5
 20
-0.0000000000000057
 30
0.0
 11
304.6432844803785
 21
-0.0000000000000417
 31
0.0
  0
LINE
  5
1676
330
24EE
100
AcDbEntity
  8
SIZE
  6
Continuous
 62
     0
100
AcDbLine
 10
284.6432844803784
 20
-288.0000000000001
 30
0.0
 11
284.6432844803785
 21
-12.00000000000003
 31
0.0
  0
INSERT
  5
1677
330
24EE
100
AcDbEntity
  8
SIZE
  6
Continuous
 62
     0
100
AcDbBlockReference
  2
_DOTBLANK
 10
284.6432844803784
 20
-300.0
 30
0.0
 41
12.0
 42
12.0
 43
12.0
 50
270.0
  0
INSERT
  5
1678
330
24EE
100
AcDbEntity
  8
SIZE
  6
Continuous
 62
     0
100
AcDbBlockReference
  2
_DOTBLANK
 10
284.6432844803785
 20
-0.000000000000036
 30
0.0
 41
12.0
 42
12.0
 43
12.0
 50
90.0
  0
INSERT
  5
1679
330
24EE
100
AcDbEntity
  8
0
100
AcDbBlockReference
  2
*U33
 10
0.0
 20
0.0
 30
0.0
  0
POINT
  5
167A
330
24EE
100
AcDbEntity
  8
DEFPOINTS
  6
Continuous
 62
     0
100
AcDbPoint
 10
123.5
 20
-300.0
 30
0.0
  0
POINT
  5
167B
330
24EE
100
AcDbEntity
  8
DEFPOINTS
  6
Continuous
 62
     0
100
AcDbPoint
 10
157.5
 20
0.0
 30
0.0
  0
POINT
  5
167C
330
24EE
100
AcDbEntity
  8
DEFPOINTS
  6
Continuous
 62
     0
100
AcDbPoint
 10
284.6432844803785
 20
-0.000000000000036
 30
0.0
  0
ENDBLK
  5
14B3
330
24EE
100
AcDbEntity
  8
0
100
AcDbBlockEnd
  0
BLOCK
  5
24F1
330
24F0
100
AcDbEntity
  8
0
100
AcDbBlockBegin
  2
*U33
 70
     1
 10
0.0
 20
0.0
 30
0.0
  3
*U33
  1

  0
TEXT
  5
1F0D
330
24F0
100
AcDbEntity
  8
SIZE
 62
     0
100
AcDbText
 10
274.6432844803785
 20
-224.0571428571429
 30
0.0
 40
64.0
  1
300
 50
90.0
 41
0.9
100
AcDbText
  0
ENDBLK
  5
1F0F
330
24F0
100
AcDbEntity
  8
0
100
AcDbBlockEnd
  0
BLOCK
  5
24F3
330
24F2
100
AcDbEntity
  8
0
100
AcDbBlockBegin
  2
*D34
 70
     1
 10
0.0
 20
0.0
 30
0.0
  3
*D34
  1

  0
LINE
  5
167D
330
24F2
100
AcDbEntity
  8
SIZE
 62
     0
100
AcDbLine
 10
-140.0
 20
32.46448280219375
 30
0.0
 11
-140.0
 21
136.4516878685507
 31
0.0
  0
LINE
  5
167E
330
24F2
100
AcDbEntity
  8
SIZE
 62
     0
100
AcDbLine
 10
140.0
 20
32.46448280219375
 30
0.0
 11
140.0
 21
136.4516878685507
 31
0.0
  0
LINE
  5
167F
330
24F2
100
AcDbEntity
  8
SIZE
 62
     0
100
AcDbLine
 10
-128.0
 20
116.4516878685508
 30
0.0
 11
128.0
 21
116.4516878685508
 31
0.0
  0
INSERT
  5
1680
330
24F2
100
AcDbEntity
  8
SIZE
 62
     0
100
AcDbBlockReference
  2
_DOTBLANK
 10
-140.0
 20
116.4516878685508
 30
0.0
 41
12.0
 42
12.0
 43
12.0
 50
180.0
  0
INSERT
  5
1681
330
24F2
100
AcDbEntity
  8
SIZE
 62
     0
100
AcDbBlockReference
  2
_DOTBLANK
 10
140.0
 20
116.4516878685508
 30
0.0
 41
12.0
 42
12.0
 43
12.0
  0
INSERT
  5
1682
330
24F2
100
AcDbEntity
  8
0
100
AcDbBlockReference
  2
*U35
 10
0.0
 20
0.0
 30
0.0
  0
POINT
  5
1683
330
24F2
100
AcDbEntity
  8
DEFPOINTS
 62
     0
100
AcDbPoint
 10
-140.0
 20
12.46448280219374
 30
0.0
  0
POINT
  5
1684
330
24F2
100
AcDbEntity
  8
DEFPOINTS
 62
     0
100
AcDbPoint
 10
140.0
 20
12.46448280219374
 30
0.0
  0
POINT
  5
1685
330
24F2
100
AcDbEntity
  8
DEFPOINTS
 62
     0
100
AcDbPoint
 10
140.0
 20
116.4516878685508
 30
0.0
  0
ENDBLK
  5
14BF
330
24F2
100
AcDbEntity
  8
0
100
AcDbBlockEnd
  0
BLOCK
  5
24F5
330
24F4
100
AcDbEntity
  8
0
100
AcDbBlockBegin
  2
*U35
 70
     1
 10
0.0
 20
0.0
 30
0.0
  3
*U35
  1

  0
TEXT
  5
1F11
330
24F4
100
AcDbEntity
  8
SIZE
 62
     0
100
AcDbText
 10
-74.05714285714283
 20
126.4516878685507
 30
0.0
 40
64.0
  1
280
 41
0.9
100
AcDbText
  0
ENDBLK
  5
1F13
330
24F4
100
AcDbEntity
  8
0
100
AcDbBlockEnd
  0
BLOCK
  5
24F7
330
24F6
100
AcDbEntity
  8
0
100
AcDbBlockBegin
  2
*D36
 70
     1
 10
0.0
 20
0.0
 30
0.0
  3
*D36
  1

  0
LINE
  5
1686
330
24F6
100
AcDbEntity
  8
SIZE
 62
     0
100
AcDbLine
 10
-157.5
 20
20.0
 30
0.0
 11
-157.5
 21
245.5794621189598
 31
0.0
  0
LINE
  5
1687
330
24F6
100
AcDbEntity
  8
SIZE
 62
     0
100
AcDbLine
 10
157.5
 20
20.0
 30
0.0
 11
157.5
 21
245.5794621189598
 31
0.0
  0
LINE
  5
1688
330
24F6
100
AcDbEntity
  8
SIZE
 62
     0
100
AcDbLine
 10
-145.5
 20
225.5794621189598
 30
0.0
 11
145.5
 21
225.5794621189598
 31
0.0
  0
INSERT
  5
1689
330
24F6
100
AcDbEntity
  8
SIZE
 62
     0
100
AcDbBlockReference
  2
_DOTBLANK
 10
-157.5
 20
225.5794621189598
 30
0.0
 41
12.0
 42
12.0
 43
12.0
 50
180.0
  0
INSERT
  5
168A
330
24F6
100
AcDbEntity
  8
SIZE
 62
     0
100
AcDbBlockReference
  2
_DOTBLANK
 10
157.5
 20
225.5794621189598
 30
0.0
 41
12.0
 42
12.0
 43
12.0
  0
INSERT
  5
168B
330
24F6
100
AcDbEntity
  8
0
100
AcDbBlockReference
  2
*U37
 10
0.0
 20
0.0
 30
0.0
  0
POINT
  5
168C
330
24F6
100
AcDbEntity
  8
DEFPOINTS
 62
     0
100
AcDbPoint
 10
-157.5
 20
0.0
 30
0.0
  0
POINT
  5
168D
330
24F6
100
AcDbEntity
  8
DEFPOINTS
 62
     0
100
AcDbPoint
 10
157.5
 20
0.0
 30
0.0
  0
POINT
  5
168E
330
24F6
100
AcDbEntity
  8
DEFPOINTS
 62
     0
100
AcDbPoint
 10
157.5
 20
225.5794621189598
 30
0.0
  0
ENDBLK
  5
14CB
330
24F6
100
AcDbEntity
  8
0
100
AcDbBlockEnd
  0
BLOCK
  5
24F9
330
24F8
100
AcDbEntity
  8
0
100
AcDbBlockBegin
  2
*U37
 70
     1
 10
0.0
 20
0.0
 30
0.0
  3
*U37
  1

  0
TEXT
  5
1F15
330
24F8
100
AcDbEntity
  8
SIZE
 62
     0
100
AcDbText
 10
-68.57142857142857
 20
235.5794621189598
 30
0.0
 40
64.0
  1
315
 41
0.9
100
AcDbText
  0
ENDBLK
  5
1F17
330
24F8
100
AcDbEntity
  8
0
100
AcDbBlockEnd
  0
BLOCK
  5
24FB
330
24FA
100
AcDbEntity
  8
0
100
AcDbBlockBegin
  2
*U38
 70
     1
 10
0.0
 20
0.0
 30
0.0
  3
*U38
  1

  0
ENDBLK
  5
15CF
330
24FA
100
AcDbEntity
  8
0
100
AcDbBlockEnd
  0
BLOCK
  5
24FD
330
24FC
100
AcDbEntity
  8
0
100
AcDbBlockBegin
  2
*D39
 70
     1
 10
0.0
 20
0.0
 30
0.0
  3
*D39
  1

  0
LINE
  5
1692
330
24FC
100
AcDbEntity
  8
SIZE
 62
     0
100
AcDbLine
 10
-25844.51823276502
 20
7685.702971374808
 30
0.0
 11
-25981.04465488371
 21
7685.702971374808
 31
0.0
  0
LINE
  5
1693
330
24FC
100
AcDbEntity
  8
SIZE
 62
     0
100
AcDbLine
 10
-25844.51823276502
 20
7677.702971374808
 30
0.0
 11
-25981.04465488371
 21
7677.702971374808
 31
0.0
  0
LINE
  5
1694
330
24FC
100
AcDbEntity
  8
SIZE
 62
     0
100
AcDbLine
 10
-25961.04465488371
 20
7697.702971374808
 30
0.0
 11
-25961.04465488371
 21
7709.702971374809
 31
0.0
  0
LINE
  5
1695
330
24FC
100
AcDbEntity
  8
SIZE
 62
     0
100
AcDbLine
 10
-25961.04465488371
 20
7665.70297137481
 30
0.0
 11
-25961.04465488371
 21
7595.302971374808
 31
0.0
  0
INSERT
  5
1696
330
24FC
100
AcDbEntity
  8
SIZE
 62
     0
100
AcDbBlockReference
  2
_DOTBLANK
 10
-25961.04465488371
 20
7685.702971374808
 30
0.0
 41
12.0
 42
12.0
 43
12.0
 50
270.0
  0
INSERT
  5
1697
330
24FC
100
AcDbEntity
  8
SIZE
 62
     0
100
AcDbBlockReference
  2
_DOTBLANK
 10
-25961.04465488371
 20
7677.702971374808
 30
0.0
 41
12.0
 42
12.0
 43
12.0
 50
90.0
  0
INSERT
  5
1698
330
24FC
100
AcDbEntity
  8
0
100
AcDbBlockReference
  2
*U40
 10
0.0
 20
0.0
 30
0.0
  0
POINT
  5
1699
330
24FC
100
AcDbEntity
  8
DEFPOINTS
 62
     0
100
AcDbPoint
 10
-25824.51823276501
 20
7685.702971374808
 30
0.0
  0
POINT
  5
169A
330
24FC
100
AcDbEntity
  8
DEFPOINTS
 62
     0
100
AcDbPoint
 10
-25824.51823276501
 20
7677.702971374808
 30
0.0
  0
POINT
  5
169B
330
24FC
100
AcDbEntity
  8
DEFPOINTS
 62
     0
100
AcDbPoint
 10
-25961.04465488371
 20
7677.702971374808
 30
0.0
  0
ENDBLK
  5
169C
330
24FC
100
AcDbEntity
  8
0
100
AcDbBlockEnd
  0
BLOCK
  5
24FF
330
24FE
100
AcDbEntity
  8
0
100
AcDbBlockBegin
  2
*U40
 70
     1
 10
0.0
 20
0.0
 30
0.0
  3
*U40
  1

  0
TEXT
  5
1F19
330
24FE
100
AcDbEntity
  8
SIZE
 62
     0
100
AcDbText
 10
-25971.04465488371
 20
7605.302971374804
 30
0.0
 40
64.0
  1
8
 50
90.0
 41
0.9
100
AcDbText
  0
ENDBLK
  5
1F1B
330
24FE
100
AcDbEntity
  8
0
100
AcDbBlockEnd
  0
BLOCK
  5
2501
330
2500
100
AcDbEntity
  8
0
100
AcDbBlockBegin
  2
*D41
 70
     1
 10
0.0
 20
0.0
 30
0.0
  3
*D41
  1

  0
LINE
  5
169F
330
2500
100
AcDbEntity
  8
SIZE
 62
     0
100
AcDbLine
 10
-25512.51823276502
 20
7385.702971374808
 30
0.0
 11
-25362.37494828464
 21
7385.702971374808
 31
0.0
  0
LINE
  5
16A0
330
2500
100
AcDbEntity
  8
SIZE
 62
     0
100
AcDbLine
 10
-25523.51823276501
 20
7373.702971374808
 30
0.0
 11
-25362.37494828464
 21
7373.702971374808
 31
0.0
  0
LINE
  5
16A1
330
2500
100
AcDbEntity
  8
SIZE
 62
     0
100
AcDbLine
 10
-25382.37494828464
 20
7397.702971374808
 30
0.0
 11
-25382.37494828464
 21
7409.70297137481
 31
0.0
  0
LINE
  5
16A2
330
2500
100
AcDbEntity
  8
SIZE
 62
     0
100
AcDbLine
 10
-25382.37494828464
 20
7361.702971374808
 30
0.0
 11
-25382.37494828464
 21
7244.674399946237
 31
0.0
  0
INSERT
  5
16A3
330
2500
100
AcDbEntity
  8
SIZE
 62
     0
100
AcDbBlockReference
  2
_DOTBLANK
 10
-25382.37494828464
 20
7385.702971374808
 30
0.0
 41
12.0
 42
12.0
 43
12.0
 50
270.0
  0
INSERT
  5
16A4
330
2500
100
AcDbEntity
  8
SIZE
 62
     0
100
AcDbBlockReference
  2
_DOTBLANK
 10
-25382.37494828464
 20
7373.702971374808
 30
0.0
 41
12.0
 42
12.0
 43
12.0
 50
90.0
  0
INSERT
  5
16A5
330
2500
100
AcDbEntity
  8
0
100
AcDbBlockReference
  2
*U42
 10
0.0
 20
0.0
 30
0.0
  0
POINT
  5
16A6
330
2500
100
AcDbEntity
  8
DEFPOINTS
 62
     0
100
AcDbPoint
 10
-25532.51823276502
 20
7385.702971374808
 30
0.0
  0
POINT
  5
16A7
330
2500
100
AcDbEntity
  8
DEFPOINTS
 62
     0
100
AcDbPoint
 10
-25543.51823276502
 20
7373.702971374808
 30
0.0
  0
POINT
  5
16A8
330
2500
100
AcDbEntity
  8
DEFPOINTS
 62
     0
100
AcDbPoint
 10
-25382.37494828464
 20
7373.702971374808
 30
0.0
  0
ENDBLK
  5
16A9
330
2500
100
AcDbEntity
  8
0
100
AcDbBlockEnd
  0
BLOCK
  5
2503
330
2502
100
AcDbEntity
  8
0
100
AcDbBlockBegin
  2
*U42
 70
     1
 10
0.0
 20
0.0
 30
0.0
  3
*U42
  1

  0
TEXT
  5
1F1D
330
2502
100
AcDbEntity
  8
SIZE
 62
     0
100
AcDbText
 10
-25392.37494828464
 20
7256.045828517662
 30
0.0
 40
64.0
  1
12
 50
90.0
 41
0.9
100
AcDbText
  0
ENDBLK
  5
1F1F
330
2502
100
AcDbEntity
  8
0
100
AcDbBlockEnd
  0
BLOCK
  5
2505
330
2504
100
AcDbEntity
  8
0
100
AcDbBlockBegin
  2
*D43
 70
     1
 10
0.0
 20
0.0
 30
0.0
  3
*D43
  1

  0
LINE
  5
16AC
330
2504
100
AcDbEntity
  8
SIZE
 62
     0
100
AcDbLine
 10
-25801.51823276501
 20
7365.702971374808
 30
0.0
 11
-25801.51823276501
 21
7217.685576144207
 31
0.0
  0
LINE
  5
16AD
330
2504
100
AcDbEntity
  8
SIZE
 62
     0
100
AcDbLine
 10
-25532.51823276502
 20
7365.702971374808
 30
0.0
 11
-25532.51823276502
 21
7217.685576144207
 31
0.0
  0
LINE
  5
16AE
330
2504
100
AcDbEntity
  8
SIZE
 62
     0
100
AcDbLine
 10
-25789.51823276502
 20
7237.685576144207
 30
0.0
 11
-25544.51823276501
 21
7237.685576144207
 31
0.0
  0
INSERT
  5
16AF
330
2504
100
AcDbEntity
  8
SIZE
 62
     0
100
AcDbBlockReference
  2
_DOTBLANK
 10
-25801.51823276501
 20
7237.685576144207
 30
0.0
 41
12.0
 42
12.0
 43
12.0
 50
180.0
  0
INSERT
  5
16B0
330
2504
100
AcDbEntity
  8
SIZE
 62
     0
100
AcDbBlockReference
  2
_DOTBLANK
 10
-25532.51823276502
 20
7237.685576144207
 30
0.0
 41
12.0
 42
12.0
 43
12.0
  0
INSERT
  5
16B1
330
2504
100
AcDbEntity
  8
0
100
AcDbBlockReference
  2
*U44
 10
0.0
 20
0.0
 30
0.0
  0
POINT
  5
16B2
330
2504
100
AcDbEntity
  8
DEFPOINTS
 62
     0
100
AcDbPoint
 10
-25801.51823276501
 20
7385.702971374808
 30
0.0
  0
POINT
  5
16B3
330
2504
100
AcDbEntity
  8
DEFPOINTS
 62
     0
100
AcDbPoint
 10
-25532.51823276502
 20
7385.702971374808
 30
0.0
  0
POINT
  5
16B4
330
2504
100
AcDbEntity
  8
DEFPOINTS
 62
     0
100
AcDbPoint
 10
-25532.51823276502
 20
7237.685576144207
 30
0.0
  0
ENDBLK
  5
16B5
330
2504
100
AcDbEntity
  8
0
100
AcDbBlockEnd
  0
BLOCK
  5
2507
330
2506
100
AcDbEntity
  8
0
100
AcDbBlockBegin
  2
*U44
 70
     1
 10
0.0
 20
0.0
 30
0.0
  3
*U44
  1

  0
TEXT
  5
1F21
330
2506
100
AcDbEntity
  8
SIZE
 62
     0
100
AcDbText
 10
-25739.70394705074
 20
7247.685576144205
 30
0.0
 40
64.0
  1
269
 41
0.9
100
AcDbText
  0
ENDBLK
  5
1F23
330
2506
100
AcDbEntity
  8
0
100
AcDbBlockEnd
  0
BLOCK
  5
2509
330
2508
100
AcDbEntity
  8
0
100
AcDbBlockBegin
  2
*D45
 70
     1
 10
0.0
 20
0.0
 30
0.0
  3
*D45
  1

  0
LINE
  5
16B8
330
2508
100
AcDbEntity
  8
SIZE
 62
     0
100
AcDbLine
 10
-25512.51823276502
 20
7385.702971374808
 30
0.0
 11
-25362.37494828464
 21
7385.702971374808
 31
0.0
  0
LINE
  5
16B9
330
2508
100
AcDbEntity
  8
SIZE
 62
     0
100
AcDbLine
 10
-25489.51823276501
 20
7685.702971374808
 30
0.0
 11
-25362.37494828464
 21
7685.702971374808
 31
0.0
  0
LINE
  5
16BA
330
2508
100
AcDbEntity
  8
SIZE
 62
     0
100
AcDbLine
 10
-25382.37494828464
 20
7397.702971374808
 30
0.0
 11
-25382.37494828464
 21
7673.702971374808
 31
0.0
  0
INSERT
  5
16BB
330
2508
100
AcDbEntity
  8
SIZE
 62
     0
100
AcDbBlockReference
  2
_DOTBLANK
 10
-25382.37494828464
 20
7385.702971374808
 30
0.0
 41
12.0
 42
12.0
 43
12.0
 50
270.0
  0
INSERT
  5
16BC
330
2508
100
AcDbEntity
  8
SIZE
 62
     0
100
AcDbBlockReference
  2
_DOTBLANK
 10
-25382.37494828464
 20
7685.702971374808
 30
0.0
 41
12.0
 42
12.0
 43
12.0
 50
90.0
  0
INSERT
  5
16BD
330
2508
100
AcDbEntity
  8
0
100
AcDbBlockReference
  2
*U46
 10
0.0
 20
0.0
 30
0.0
  0
POINT
  5
16BE
330
2508
100
AcDbEntity
  8
DEFPOINTS
 62
     0
100
AcDbPoint
 10
-25532.51823276502
 20
7385.702971374808
 30
0.0
  0
POINT
  5
16BF
330
2508
100
AcDbEntity
  8
DEFPOINTS
 62
     0
100
AcDbPoint
 10
-25509.51823276502
 20
7685.702971374808
 30
0.0
  0
POINT
  5
16C0
330
2508
100
AcDbEntity
  8
DEFPOINTS
 62
     0
100
AcDbPoint
 10
-25382.37494828464
 20
7685.702971374808
 30
0.0
  0
ENDBLK
  5
16C1
330
2508
100
AcDbEntity
  8
0
100
AcDbBlockEnd
  0
BLOCK
  5
250B
330
250A
100
AcDbEntity
  8
0
100
AcDbBlockBegin
  2
*U46
 70
     1
 10
0.0
 20
0.0
 30
0.0
  3
*U46
  1

  0
TEXT
  5
1F25
330
250A
100
AcDbEntity
  8
SIZE
 62
     0
100
AcDbText
 10
-25392.37494828464
 20
7461.645828517662
 30
0.0
 40
64.0
  1
300
 50
90.0
 41
0.9
100
AcDbText
  0
ENDBLK
  5
1F27
330
250A
100
AcDbEntity
  8
0
100
AcDbBlockEnd
  0
BLOCK
  5
250D
330
250C
100
AcDbEntity
  8
0
100
AcDbBlockBegin
  2
*D47
 70
     1
 10
0.0
 20
0.0
 30
0.0
  3
*D47
  1

  0
LINE
  5
16C4
330
250C
100
AcDbEntity
  8
SIZE
 62
     0
100
AcDbLine
 10
-25807.01823276501
 20
7718.167454177002
 30
0.0
 11
-25807.01823276501
 21
7822.154659243358
 31
0.0
  0
LINE
  5
16C5
330
250C
100
AcDbEntity
  8
SIZE
 62
     0
100
AcDbLine
 10
-25527.01823276501
 20
7718.167454177002
 30
0.0
 11
-25527.01823276501
 21
7822.154659243358
 31
0.0
  0
LINE
  5
16C6
330
250C
100
AcDbEntity
  8
SIZE
 62
     0
100
AcDbLine
 10
-25795.01823276502
 20
7802.154659243358
 30
0.0
 11
-25539.01823276501
 21
7802.154659243358
 31
0.0
  0
INSERT
  5
16C7
330
250C
100
AcDbEntity
  8
SIZE
 62
     0
100
AcDbBlockReference
  2
_DOTBLANK
 10
-25807.01823276501
 20
7802.154659243358
 30
0.0
 41
12.0
 42
12.0
 43
12.0
 50
180.0
  0
INSERT
  5
16C8
330
250C
100
AcDbEntity
  8
SIZE
 62
     0
100
AcDbBlockReference
  2
_DOTBLANK
 10
-25527.01823276501
 20
7802.154659243358
 30
0.0
 41
12.0
 42
12.0
 43
12.0
  0
INSERT
  5
16C9
330
250C
100
AcDbEntity
  8
0
100
AcDbBlockReference
  2
*U48
 10
0.0
 20
0.0
 30
0.0
  0
POINT
  5
16CA
330
250C
100
AcDbEntity
  8
DEFPOINTS
 62
     0
100
AcDbPoint
 10
-25807.01823276501
 20
7698.167454177002
 30
0.0
  0
POINT
  5
16CB
330
250C
100
AcDbEntity
  8
DEFPOINTS
 62
     0
100
AcDbPoint
 10
-25527.01823276501
 20
7698.167454177002
 30
0.0
  0
POINT
  5
16CC
330
250C
100
AcDbEntity
  8
DEFPOINTS
 62
     0
100
AcDbPoint
 10
-25527.01823276501
 20
7802.154659243358
 30
0.0
  0
ENDBLK
  5
16CD
330
250C
100
AcDbEntity
  8
0
100
AcDbBlockEnd
  0
BLOCK
  5
250F
330
250E
100
AcDbEntity
  8
0
100
AcDbBlockBegin
  2
*U48
 70
     1
 10
0.0
 20
0.0
 30
0.0
  3
*U48
  1

  0
TEXT
  5
1F29
330
250E
100
AcDbEntity
  8
SIZE
 62
     0
100
AcDbText
 10
-25741.07537562216
 20
7812.154659243358
 30
0.0
 40
64.0
  1
280
 41
0.9
100
AcDbText
  0
ENDBLK
  5
1F2B
330
250E
100
AcDbEntity
  8
0
100
AcDbBlockEnd
  0
BLOCK
  5
2511
330
2510
100
AcDbEntity
  8
0
100
AcDbBlockBegin
  2
*D49
 70
     1
 10
0.0
 20
0.0
 30
0.0
  3
*D49
  1

  0
LINE
  5
16D0
330
2510
100
AcDbEntity
  8
SIZE
 62
     0
100
AcDbLine
 10
-25824.51823276501
 20
7705.702971374808
 30
0.0
 11
-25824.51823276501
 21
7931.282433493766
 31
0.0
  0
LINE
  5
16D1
330
2510
100
AcDbEntity
  8
SIZE
 62
     0
100
AcDbLine
 10
-25509.51823276502
 20
7705.702971374808
 30
0.0
 11
-25509.51823276502
 21
7931.282433493766
 31
0.0
  0
LINE
  5
16D2
330
2510
100
AcDbEntity
  8
SIZE
 62
     0
100
AcDbLine
 10
-25812.51823276502
 20
7911.282433493766
 30
0.0
 11
-25521.51823276501
 21
7911.282433493766
 31
0.0
  0
INSERT
  5
16D3
330
2510
100
AcDbEntity
  8
SIZE
 62
     0
100
AcDbBlockReference
  2
_DOTBLANK
 10
-25824.51823276501
 20
7911.282433493766
 30
0.0
 41
12.0
 42
12.0
 43
12.0
 50
180.0
  0
INSERT
  5
16D4
330
2510
100
AcDbEntity
  8
SIZE
 62
     0
100
AcDbBlockReference
  2
_DOTBLANK
 10
-25509.51823276502
 20
7911.282433493766
 30
0.0
 41
12.0
 42
12.0
 43
12.0
  0
INSERT
  5
16D5
330
2510
100
AcDbEntity
  8
0
100
AcDbBlockReference
  2
*U50
 10
0.0
 20
0.0
 30
0.0
  0
POINT
  5
16D6
330
2510
100
AcDbEntity
  8
DEFPOINTS
 62
     0
100
AcDbPoint
 10
-25824.51823276501
 20
7685.702971374808
 30
0.0
  0
POINT
  5
16D7
330
2510
100
AcDbEntity
  8
DEFPOINTS
 62
     0
100
AcDbPoint
 10
-25509.51823276502
 20
7685.702971374808
 30
0.0
  0
POINT
  5
16D8
330
2510
100
AcDbEntity
  8
DEFPOINTS
 62
     0
100
AcDbPoint
 10
-25509.51823276502
 20
7911.282433493766
 30
0.0
  0
ENDBLK
  5
16D9
330
2510
100
AcDbEntity
  8
0
100
AcDbBlockEnd
  0
BLOCK
  5
2513
330
2512
100
AcDbEntity
  8
0
100
AcDbBlockBegin
  2
*U50
 70
     1
 10
0.0
 20
0.0
 30
0.0
  3
*U50
  1

  0
TEXT
  5
1F2D
330
2512
100
AcDbEntity
  8
SIZE
 62
     0
100
AcDbText
 10
-25735.58966133645
 20
7921.282433493766
 30
0.0
 40
64.0
  1
315
 41
0.9
100
AcDbText
  0
ENDBLK
  5
1F2F
330
2512
100
AcDbEntity
  8
0
100
AcDbBlockEnd
  0
BLOCK
  5
2515
330
2514
100
AcDbEntity
  8
0
100
AcDbBlockBegin
  2
*D51
 70
     1
 10
0.0
 20
0.0
 30
0.0
  3
*D51
  1

  0
LINE
  5
1D83
330
2514
100
AcDbEntity
  8
SIZE
 62
     0
100
AcDbLine
 10
-134.5
 20
-320.0
 30
0.0
 11
-134.5
 21
-468.0173952306001
 31
0.0
  0
LINE
  5
1D84
330
2514
100
AcDbEntity
  8
SIZE
 62
     0
100
AcDbLine
 10
134.5
 20
-320.0
 30
0.0
 11
134.5
 21
-468.0173952306001
 31
0.0
  0
LINE
  5
1D85
330
2514
100
AcDbEntity
  8
SIZE
 62
     0
100
AcDbLine
 10
-122.5
 20
-448.0173952306
 30
0.0
 11
122.5
 21
-448.0173952306
 31
0.0
  0
INSERT
  5
1D86
330
2514
100
AcDbEntity
  8
SIZE
 62
     0
100
AcDbBlockReference
  2
_DOTBLANK
 10
-134.5
 20
-448.0173952306
 30
0.0
 41
12.0
 42
12.0
 43
12.0
 50
180.0
  0
INSERT
  5
1D87
330
2514
100
AcDbEntity
  8
SIZE
 62
     0
100
AcDbBlockReference
  2
_DOTBLANK
 10
134.5
 20
-448.0173952306
 30
0.0
 41
12.0
 42
12.0
 43
12.0
  0
INSERT
  5
1D88
330
2514
100
AcDbEntity
  8
0
100
AcDbBlockReference
  2
*U52
 10
0.0
 20
0.0
 30
0.0
  0
POINT
  5
1D89
330
2514
100
AcDbEntity
  8
DEFPOINTS
 62
     0
100
AcDbPoint
 10
-134.5
 20
-300.0
 30
0.0
  0
POINT
  5
1D8A
330
2514
100
AcDbEntity
  8
DEFPOINTS
 62
     0
100
AcDbPoint
 10
134.5
 20
-300.0
 30
0.0
  0
POINT
  5
1D8B
330
2514
100
AcDbEntity
  8
DEFPOINTS
 62
     0
100
AcDbPoint
 10
134.5
 20
-448.0173952306
 30
0.0
  0
ENDBLK
  5
173D
330
2514
100
AcDbEntity
  8
0
100
AcDbBlockEnd
  0
BLOCK
  5
2517
330
2516
100
AcDbEntity
  8
0
100
AcDbBlockBegin
  2
*U52
 70
     1
 10
0.0
 20
0.0
 30
0.0
  3
*U52
  1

  0
TEXT
  5
1F31
330
2516
100
AcDbEntity
  8
SIZE
 62
     0
100
AcDbText
 10
-72.68571428571426
 20
-438.0173952306003
 30
0.0
 40
64.0
  1
269
 41
0.9
100
AcDbText
  0
ENDBLK
  5
1F33
330
2516
100
AcDbEntity
  8
0
100
AcDbBlockEnd
  0
BLOCK
  5
2519
330
2518
100
AcDbEntity
  8
0
100
AcDbBlockBegin
  2
*D53
 70
     1
 10
0.0
 20
0.0
 30
0.0
  3
*D53
  1

  0
LINE
  5
1D8C
330
2518
100
AcDbEntity
  8
SIZE
 62
     0
100
AcDbLine
 10
154.5
 20
-300.0
 30
0.0
 11
304.6432844803784
 21
-300.0
 31
0.0
  0
LINE
  5
1D8D
330
2518
100
AcDbEntity
  8
SIZE
 62
     0
100
AcDbLine
 10
177.5
 20
-0.0000000000000057
 30
0.0
 11
304.6432844803785
 21
-0.0000000000000417
 31
0.0
  0
LINE
  5
1D8E
330
2518
100
AcDbEntity
  8
SIZE
 62
     0
100
AcDbLine
 10
284.6432844803784
 20
-288.0
 30
0.0
 11
284.6432844803785
 21
-12.00000000000003
 31
0.0
  0
INSERT
  5
1D8F
330
2518
100
AcDbEntity
  8
SIZE
 62
     0
100
AcDbBlockReference
  2
_DOTBLANK
 10
284.6432844803784
 20
-300.0
 30
0.0
 41
12.0
 42
12.0
 43
12.0
 50
270.0
  0
INSERT
  5
1D90
330
2518
100
AcDbEntity
  8
SIZE
 62
     0
100
AcDbBlockReference
  2
_DOTBLANK
 10
284.6432844803785
 20
-0.000000000000036
 30
0.0
 41
12.0
 42
12.0
 43
12.0
 50
90.0
  0
INSERT
  5
1D91
330
2518
100
AcDbEntity
  8
0
100
AcDbBlockReference
  2
*U54
 10
0.0
 20
0.0
 30
0.0
  0
POINT
  5
1D92
330
2518
100
AcDbEntity
  8
DEFPOINTS
 62
     0
100
AcDbPoint
 10
134.5
 20
-300.0
 30
0.0
  0
POINT
  5
1D93
330
2518
100
AcDbEntity
  8
DEFPOINTS
 62
     0
100
AcDbPoint
 10
157.5
 20
0.0
 30
0.0
  0
POINT
  5
1D94
330
2518
100
AcDbEntity
  8
DEFPOINTS
 62
     0
100
AcDbPoint
 10
284.6432844803785
 20
-0.000000000000036
 30
0.0
  0
ENDBLK
  5
1749
330
2518
100
AcDbEntity
  8
0
100
AcDbBlockEnd
  0
BLOCK
  5
251B
330
251A
100
AcDbEntity
  8
0
100
AcDbBlockBegin
  2
*U54
 70
     1
 10
0.0
 20
0.0
 30
0.0
  3
*U54
  1

  0
TEXT
  5
1F35
330
251A
100
AcDbEntity
  8
SIZE
 62
     0
100
AcDbText
 10
274.6432844803785
 20
-224.0571428571429
 30
0.0
 40
64.0
  1
300
 50
90.0
 41
0.9
100
AcDbText
  0
ENDBLK
  5
1F37
330
251A
100
AcDbEntity
  8
0
100
AcDbBlockEnd
  0
BLOCK
  5
251D
330
251C
100
AcDbEntity
  8
0
100
AcDbBlockBegin
  2
*D55
 70
     1
 10
0.0
 20
0.0
 30
0.0
  3
*D55
  1

  0
LINE
  5
1D95
330
251C
100
AcDbEntity
  8
SIZE
 62
     0
100
AcDbLine
 10
-140.0
 20
32.46448280219375
 30
0.0
 11
-140.0
 21
136.4516878685508
 31
0.0
  0
LINE
  5
1D96
330
251C
100
AcDbEntity
  8
SIZE
 62
     0
100
AcDbLine
 10
140.0
 20
32.46448280219375
 30
0.0
 11
140.0
 21
136.4516878685508
 31
0.0
  0
LINE
  5
1D97
330
251C
100
AcDbEntity
  8
SIZE
 62
     0
100
AcDbLine
 10
-128.0
 20
116.4516878685508
 30
0.0
 11
128.0
 21
116.4516878685508
 31
0.0
  0
INSERT
  5
1D98
330
251C
100
AcDbEntity
  8
SIZE
 62
     0
100
AcDbBlockReference
  2
_DOTBLANK
 10
-140.0
 20
116.4516878685508
 30
0.0
 41
12.0
 42
12.0
 43
12.0
 50
180.0
  0
INSERT
  5
1D99
330
251C
100
AcDbEntity
  8
SIZE
 62
     0
100
AcDbBlockReference
  2
_DOTBLANK
 10
140.0
 20
116.4516878685508
 30
0.0
 41
12.0
 42
12.0
 43
12.0
  0
INSERT
  5
1D9A
330
251C
100
AcDbEntity
  8
0
100
AcDbBlockReference
  2
*U56
 10
0.0
 20
0.0
 30
0.0
  0
POINT
  5
1D9B
330
251C
100
AcDbEntity
  8
DEFPOINTS
 62
     0
100
AcDbPoint
 10
-140.0
 20
12.46448280219374
 30
0.0
  0
POINT
  5
1D9C
330
251C
100
AcDbEntity
  8
DEFPOINTS
 62
     0
100
AcDbPoint
 10
140.0
 20
12.46448280219374
 30
0.0
  0
POINT
  5
1D9D
330
251C
100
AcDbEntity
  8
DEFPOINTS
 62
     0
100
AcDbPoint
 10
140.0
 20
116.4516878685508
 30
0.0
  0
ENDBLK
  5
1755
330
251C
100
AcDbEntity
  8
0
100
AcDbBlockEnd
  0
BLOCK
  5
251F
330
251E
100
AcDbEntity
  8
0
100
AcDbBlockBegin
  2
*U56
 70
     1
 10
0.0
 20
0.0
 30
0.0
  3
*U56
  1

  0
TEXT
  5
1F39
330
251E
100
AcDbEntity
  8
SIZE
 62
     0
100
AcDbText
 10
-74.05714285714283
 20
126.4516878685508
 30
0.0
 40
64.0
  1
280
 41
0.9
100
AcDbText
  0
ENDBLK
  5
1F3B
330
251E
100
AcDbEntity
  8
0
100
AcDbBlockEnd
  0
BLOCK
  5
2521
330
2520
100
AcDbEntity
  8
0
100
AcDbBlockBegin
  2
*D57
 70
     1
 10
0.0
 20
0.0
 30
0.0
  3
*D57
  1

  0
LINE
  5
1D9E
330
2520
100
AcDbEntity
  8
SIZE
 62
     0
100
AcDbLine
 10
-157.5
 20
20.0
 30
0.0
 11
-157.5
 21
245.5794621189598
 31
0.0
  0
LINE
  5
1D9F
330
2520
100
AcDbEntity
  8
SIZE
 62
     0
100
AcDbLine
 10
157.5
 20
20.0
 30
0.0
 11
157.5
 21
245.5794621189598
 31
0.0
  0
LINE
  5
1DA0
330
2520
100
AcDbEntity
  8
SIZE
 62
     0
100
AcDbLine
 10
-145.5
 20
225.5794621189598
 30
0.0
 11
145.5
 21
225.5794621189598
 31
0.0
  0
INSERT
  5
1DA1
330
2520
100
AcDbEntity
  8
SIZE
 62
     0
100
AcDbBlockReference
  2
_DOTBLANK
 10
-157.5
 20
225.5794621189598
 30
0.0
 41
12.0
 42
12.0
 43
12.0
 50
180.0
  0
INSERT
  5
1DA2
330
2520
100
AcDbEntity
  8
SIZE
 62
     0
100
AcDbBlockReference
  2
_DOTBLANK
 10
157.5
 20
225.5794621189598
 30
0.0
 41
12.0
 42
12.0
 43
12.0
  0
INSERT
  5
1DA3
330
2520
100
AcDbEntity
  8
0
100
AcDbBlockReference
  2
*U58
 10
0.0
 20
0.0
 30
0.0
  0
POINT
  5
1DA4
330
2520
100
AcDbEntity
  8
DEFPOINTS
 62
     0
100
AcDbPoint
 10
-157.5
 20
0.0
 30
0.0
  0
POINT
  5
1DA5
330
2520
100
AcDbEntity
  8
DEFPOINTS
 62
     0
100
AcDbPoint
 10
157.5
 20
0.0
 30
0.0
  0
POINT
  5
1DA6
330
2520
100
AcDbEntity
  8
DEFPOINTS
 62
     0
100
AcDbPoint
 10
157.5
 20
225.5794621189598
 30
0.0
  0
ENDBLK
  5
1761
330
2520
100
AcDbEntity
  8
0
100
AcDbBlockEnd
  0
BLOCK
  5
2523
330
2522
100
AcDbEntity
  8
0
100
AcDbBlockBegin
  2
*U58
 70
     1
 10
0.0
 20
0.0
 30
0.0
  3
*U58
  1

  0
TEXT
  5
1F3D
330
2522
100
AcDbEntity
  8
SIZE
 62
     0
100
AcDbText
 10
-68.57142857142857
 20
235.5794621189599
 30
0.0
 40
64.0
  1
315
 41
0.9
100
AcDbText
  0
ENDBLK
  5
1F3F
330
2522
100
AcDbEntity
  8
0
100
AcDbBlockEnd
  0
BLOCK
  5
2525
330
2524
100
AcDbEntity
  8
0
100
AcDbBlockBegin
  2
*D59
 70
     1
 10
0.0
 20
0.0
 30
0.0
  3
*D59
  1

  0
LINE
  5
1DA7
330
2524
100
AcDbEntity
  8
SIZE
 62
     0
100
AcDbLine
 10
-177.5
 20
0.0000000000000057
 30
0.0
 11
-314.0264221186908
 21
0.0000000000000443
 31
0.0
  0
LINE
  5
1DA8
330
2524
100
AcDbEntity
  8
SIZE
 62
     0
100
AcDbLine
 10
-177.5
 20
-7.999999999999995
 30
0.0
 11
-314.0264221186908
 21
-7.999999999999958
 31
0.0
  0
LINE
  5
1DA9
330
2524
100
AcDbEntity
  8
SIZE
 62
     0
100
AcDbLine
 10
-294.0264221186908
 20
12.00000000000003
 30
0.0
 11
-294.0264221186908
 21
24.00000000000004
 31
0.0
  0
LINE
  5
1DAA
330
2524
100
AcDbEntity
  8
SIZE
 62
     0
100
AcDbLine
 10
-294.0264221186908
 20
-19.99999999999996
 30
0.0
 11
-294.0264221186908
 21
-90.39999999999997
 31
0.0
  0
INSERT
  5
1DAB
330
2524
100
AcDbEntity
  8
SIZE
 62
     0
100
AcDbBlockReference
  2
_DOTBLANK
 10
-294.0264221186908
 20
0.0000000000000387
 30
0.0
 41
12.0
 42
12.0
 43
12.0
 50
270.0
  0
INSERT
  5
1DAC
330
2524
100
AcDbEntity
  8
SIZE
 62
     0
100
AcDbBlockReference
  2
_DOTBLANK
 10
-294.0264221186908
 20
-7.999999999999961
 30
0.0
 41
12.0
 42
12.0
 43
12.0
 50
90.0
  0
INSERT
  5
1DAD
330
2524
100
AcDbEntity
  8
0
100
AcDbBlockReference
  2
*U60
 10
0.0
 20
0.0
 30
0.0
  0
POINT
  5
1DAE
330
2524
100
AcDbEntity
  8
DEFPOINTS
 62
     0
100
AcDbPoint
 10
-157.5
 20
0.0
 30
0.0
  0
POINT
  5
1DAF
330
2524
100
AcDbEntity
  8
DEFPOINTS
 62
     0
100
AcDbPoint
 10
-157.5
 20
-8.000000000000003
 30
0.0
  0
POINT
  5
1DB0
330
2524
100
AcDbEntity
  8
DEFPOINTS
 62
     0
100
AcDbPoint
 10
-294.0264221186908
 20
-7.999999999999961
 30
0.0
  0
ENDBLK
  5
176D
330
2524
100
AcDbEntity
  8
0
100
AcDbBlockEnd
  0
BLOCK
  5
2527
330
2526
100
AcDbEntity
  8
0
100
AcDbBlockBegin
  2
*U60
 70
     1
 10
0.0
 20
0.0
 30
0.0
  3
*U60
  1

  0
TEXT
  5
1F41
330
2526
100
AcDbEntity
  8
SIZE
 62
     0
100
AcDbText
 10
-304.0264221186908
 20
-80.4
 30
0.0
 40
64.0
  1
8
 50
90.0
 41
0.9
100
AcDbText
  0
ENDBLK
  5
1F43
330
2526
100
AcDbEntity
  8
0
100
AcDbBlockEnd
  0
BLOCK
  5
2529
330
2528
100
AcDbEntity
  8
0
100
AcDbBlockBegin
  2
*D61
 70
     1
 10
0.0
 20
0.0
 30
0.0
  3
*D61
  1

  0
LINE
  5
1DB1
330
2528
100
AcDbEntity
  8
SIZE
 62
     0
100
AcDbLine
 10
154.5
 20
-300.0
 30
0.0
 11
304.6432844803785
 21
-300.0
 31
0.0
  0
LINE
  5
1DB2
330
2528
100
AcDbEntity
  8
SIZE
 62
     0
100
AcDbLine
 10
143.5
 20
-312.0
 30
0.0
 11
304.6432844803785
 21
-312.0
 31
0.0
  0
LINE
  5
1DB3
330
2528
100
AcDbEntity
  8
SIZE
 62
     0
100
AcDbLine
 10
284.6432844803785
 20
-288.0
 30
0.0
 11
284.6432844803785
 21
-276.0
 31
0.0
  0
LINE
  5
1DB4
330
2528
100
AcDbEntity
  8
SIZE
 62
     0
100
AcDbLine
 10
284.6432844803785
 20
-324.0000000000001
 30
0.0
 11
284.6432844803784
 21
-438.2857142857143
 31
0.0
  0
INSERT
  5
1DB5
330
2528
100
AcDbEntity
  8
SIZE
 62
     0
100
AcDbBlockReference
  2
_DOTBLANK
 10
284.6432844803785
 20
-300.0
 30
0.0
 41
12.0
 42
12.0
 43
12.0
 50
270.0
  0
INSERT
  5
1DB6
330
2528
100
AcDbEntity
  8
SIZE
 62
     0
100
AcDbBlockReference
  2
_DOTBLANK
 10
284.6432844803785
 20
-312.0
 30
0.0
 41
12.0
 42
12.0
 43
12.0
 50
90.0
  0
INSERT
  5
1DB7
330
2528
100
AcDbEntity
  8
0
100
AcDbBlockReference
  2
*U62
 10
0.0
 20
0.0
 30
0.0
  0
POINT
  5
1DB8
330
2528
100
AcDbEntity
  8
DEFPOINTS
 62
     0
100
AcDbPoint
 10
134.5
 20
-300.0
 30
0.0
  0
POINT
  5
1DB9
330
2528
100
AcDbEntity
  8
DEFPOINTS
 62
     0
100
AcDbPoint
 10
123.5
 20
-312.0
 30
0.0
  0
POINT
  5
1DBA
330
2528
100
AcDbEntity
  8
DEFPOINTS
 62
     0
100
AcDbPoint
 10
284.6432844803785
 20
-312.0
 30
0.0
  0
ENDBLK
  5
177B
330
2528
100
AcDbEntity
  8
0
100
AcDbBlockEnd
  0
BLOCK
  5
252B
330
252A
100
AcDbEntity
  8
0
100
AcDbBlockBegin
  2
*U62
 70
     1
 10
0.0
 20
0.0
 30
0.0
  3
*U62
  1

  0
TEXT
  5
1F45
330
252A
100
AcDbEntity
  8
SIZE
 62
     0
100
AcDbText
 10
274.6432844803785
 20
-428.2857142857142
 30
0.0
 40
64.0
  1
12
 50
90.0
 41
0.9
100
AcDbText
  0
ENDBLK
  5
1F47
330
252A
100
AcDbEntity
  8
0
100
AcDbBlockEnd
  0
BLOCK
  5
252D
330
252C
100
AcDbEntity
  8
0
100
AcDbBlockBegin
  2
*U63
 70
     1
 10
0.0
 20
0.0
 30
0.0
  3
*U63
  1

  0
ENDBLK
  5
1D57
330
252C
100
AcDbEntity
  8
0
100
AcDbBlockEnd
  0
BLOCK
  5
252F
330
252E
100
AcDbEntity
  8
0
100
AcDbBlockBegin
  2
*U64
 70
     1
 10
0.0
 20
0.0
 30
0.0
  3
*U64
  1

  0
INSERT
  5
2087
330
252E
100
AcDbEntity
  8
NOTE
100
AcDbBlockReference
  2
_OPEN30
 10
0.000000000001819
 20
450.0
 30
0.0
 41
12.0
 42
12.0
 43
12.0
 50
312.6090116116897
  0
POLYLINE
  5
2088
330
252E
100
AcDbEntity
  8
NOTE
100
AcDb2dPolyline
 66
     1
 10
0.0
 20
0.0
 30
0.0
  0
VERTEX
  5
23E8
330
2088
100
AcDbEntity
  8
NOTE
100
AcDbVertex
100
AcDb2dVertex
 10
-8.123900836187701
 20
458.8318874089154
 30
0.0
  0
VERTEX
  5
23E9
330
2088
100
AcDbEntity
  8
NOTE
100
AcDbVertex
100
AcDb2dVertex
 10
-87.86939999225252
 20
545.5270950580128
 30
0.0
  0
VERTEX
  5
23EA
330
2088
100
AcDbEntity
  8
NOTE
100
AcDbVertex
100
AcDb2dVertex
 10
-677.5951142779668
 20
545.5270950580128
 30
0.0
  0
SEQEND
  5
23EB
330
2088
100
AcDbEntity
  8
NOTE
  0
ENDBLK
  5
2089
330
252E
100
AcDbEntity
  8
0
100
AcDbBlockEnd
  0
BLOCK
  5
2531
330
2530
100
AcDbEntity
  8
0
100
AcDbBlockBegin
  2
*U65
 70
     1
 10
0.0
 20
0.0
 30
0.0
  3
*U65
  1

  0
TEXT
  5
208C
330
2530
100
AcDbEntity
  8
NOTE
100
AcDbText
 10
-677.5951142779668
 20
563.5270950580127
 30
0.0
 40
64.0
  1
16×φ15取付穴
 41
0.9
100
AcDbText
  0
ENDBLK
  5
208D
330
2530
100
AcDbEntity
  8
0
100
AcDbBlockEnd
  0
BLOCK
  5
2533
330
2532
100
AcDbEntity
  8
0
100
AcDbBlockBegin
  2
*U66
 70
     1
 10
0.0
 20
0.0
 30
0.0
  3
*U66
  1

  0
INSERT
  5
21C4
330
2532
100
AcDbEntity
  8
NOTE
100
AcDbBlockReference
  2
_OPEN30
 10
0.000000000001819
 20
450.0
 30
0.0
 41
12.0
 42
12.0
 43
12.0
 50
312.6090116116897
  0
POLYLINE
  5
21C5
330
2532
100
AcDbEntity
  8
NOTE
100
AcDb2dPolyline
 66
     1
 10
0.0
 20
0.0
 30
0.0
  0
VERTEX
  5
23EC
330
21C5
100
AcDbEntity
  8
NOTE
100
AcDbVertex
100
AcDb2dVertex
 10
-8.123900836187701
 20
458.8318874089154
 30
0.0
  0
VERTEX
  5
23ED
330
21C5
100
AcDbEntity
  8
NOTE
100
AcDbVertex
100
AcDb2dVertex
 10
-87.86939999225252
 20
545.5270950580128
 30
0.0
  0
VERTEX
  5
23EE
330
21C5
100
AcDbEntity
  8
NOTE
100
AcDbVertex
100
AcDb2dVertex
 10
-677.5951142779668
 20
545.5270950580128
 30
0.0
  0
SEQEND
  5
23EF
330
21C5
100
AcDbEntity
  8
NOTE
  0
ENDBLK
  5
21C6
330
2532
100
AcDbEntity
  8
0
100
AcDbBlockEnd
  0
BLOCK
  5
2535
330
2534
100
AcDbEntity
  8
0
100
AcDbBlockBegin
  2
*U67
 70
     1
 10
0.0
 20
0.0
 30
0.0
  3
*U67
  1

  0
TEXT
  5
21C9
330
2534
100
AcDbEntity
  8
NOTE
100
AcDbText
 10
-677.5951142779668
 20
563.5270950580127
 30
0.0
 40
64.0
  1
16×φ15取付穴
 41
0.9
100
AcDbText
  0
ENDBLK
  5
21CA
330
2534
100
AcDbEntity
  8
0
100
AcDbBlockEnd
  0
BLOCK
  5
2537
330
2536
100
AcDbEntity
  8
0
100
AcDbBlockBegin
  2
A$C10875DC5
 70
     0
 10
0.0
 20
0.0
 30
0.0
  3
A$C10875DC5
  1

  0
LINE
  5
21CC
330
2536
100
AcDbEntity
  8
NOTE
100
AcDbLine
 10
1389.246130692777
 20
718.8933541953002
 30
0.0
 11
1414.246130692777
 21
718.8933541953002
 31
0.0
  0
LINE
  5
21CD
330
2536
100
AcDbEntity
  8
NOTE
100
AcDbLine
 10
1389.246130692781
 20
1618.893354195301
 30
0.0
 11
1414.246130692781
 21
1618.893354195301
 31
0.0
  0
CIRCLE
  5
21CE
330
2536
100
AcDbEntity
  8
ARRANGE
100
AcDbCircle
 10
1401.746130692777
 20
1168.893354195298
 30
0.0
 40
80.0
  0
LINE
  5
21CF
330
2536
100
AcDbEntity
  8
ARRANGE
100
AcDbLine
 10
1368.529039944767
 20
1135.676263447281
 30
0.0
 11
1434.963221440795
 21
1202.110444943311
 31
0.0
  0
LINE
  5
21D0
330
2536
100
AcDbEntity
  8
ARRANGE
100
AcDbLine
 10
1434.963221440795
 20
1135.676263447282
 30
0.0
 11
1368.529039944763
 21
1202.110444943316
 31
0.0
  0
LINE
  5
21D1
330
2536
100
AcDbEntity
  8
BASIS
100
AcDbLine
 10
1426.746130692777
 20
1168.893354195298
 30
0.0
 11
481.746130692777
 21
1168.8933541953
 31
0.0
  0
LINE
  5
21D2
330
2536
100
AcDbEntity
  8
NOTE
100
AcDbLine
 10
1389.246130692781
 20
1418.893354195302
 30
0.0
 11
1414.246130692781
 21
1418.893354195301
 31
0.0
  0
LINE
  5
21D3
330
2536
100
AcDbEntity
  8
NOTE
100
AcDbLine
 10
1389.246130692777
 20
918.8933541953012
 30
0.0
 11
1414.246130692777
 21
918.8933541953012
 31
0.0
  0
LINE
  5
21D4
330
2536
100
AcDbEntity
  8
DETAIL
100
AcDbLine
 10
379.74613069297
 20
350.8079324305156
 30
0.0
 11
1274.746130692777
 21
389.6750390205774
 31
0.0
  0
LINE
  5
21D5
330
2536
100
AcDbEntity
  8
DETAIL
100
AcDbLine
 10
379.0519540022919
 20
366.7928665474308
 30
0.0
 11
1274.051954002098
 21
405.6599731374925
 31
0.0
  0
LINE
  5
21D6
330
2536
100
AcDbEntity
  8
OUTLINE
100
AcDbLine
 10
1256.746130692777
 20
415.3922959882036
 30
0.0
 11
1256.746130692777
 21
478.8933541953008
 31
0.0
  0
LINE
  5
21D7
330
2536
100
AcDbEntity
  8
DETAIL
100
AcDbLine
 10
1256.746130692777
 20
404.9084342780597
 30
0.0
 11
1256.746130692777
 21
478.8933541953017
 31
0.0
  0
LINE
  5
21D8
330
2536
100
AcDbEntity
  8
DETAIL
100
AcDbLine
 10
506.7461306929702
 20
478.8933541954951
 30
0.0
 11
409.450260854258
 21
381.5974843567797
 31
0.0
  0
LINE
  5
21D9
330
2536
100
AcDbEntity
  8
DETAIL
100
AcDbLine
 10
395.4318427670488
 20
367.5041949078253
 30
0.0
 11
506.7461306929702
 21
478.8933541954951
 31
0.0
  0
LINE
  5
21DA
330
2536
100
AcDbEntity
  8
DETAIL
100
AcDbLine
 10
1401.746130692781
 20
1643.893354195301
 30
0.0
 11
1401.746130692777
 21
693.8933541953015
 31
0.0
  0
LINE
  5
21DB
330
2536
100
AcDbEntity
  8
DETAIL
100
AcDbLine
 10
1393.746130692781
 20
1643.893354195301
 30
0.0
 11
1393.746130692777
 21
693.8933541953015
 31
0.0
  0
LINE
  5
21DC
330
2536
100
AcDbEntity
  8
DETAIL
100
AcDbLine
 10
1256.746130692777
 20
692.8933541953019
 30
0.0
 11
1296.746130692777
 21
732.8933541953021
 31
0.0
  0
LINE
  5
21DD
330
2536
100
AcDbEntity
  8
DETAIL
100
AcDbLine
 10
1256.746130692777
 20
692.8933541953019
 30
0.0
 11
1256.746130692777
 21
478.8933541953017
 31
0.0
  0
LINE
  5
21DE
330
2536
100
AcDbEntity
  8
DETAIL
100
AcDbLine
 10
1393.746130692781
 20
1604.8933541953
 30
0.0
 11
1106.746130692781
 21
1604.893354195301
 31
0.0
  0
LINE
  5
21DF
330
2536
100
AcDbEntity
  8
DETAIL
100
AcDbLine
 10
506.746130692777
 20
1004.893354195302
 30
0.0
 11
506.7461306929702
 21
478.8933541954951
 31
0.0
  0
LINE
  5
21E0
330
2536
100
AcDbEntity
  8
DETAIL
100
AcDbLine
 10
1401.746130692777
 20
693.8933541953015
 30
0.0
 11
1393.746130692777
 21
693.8933541953015
 31
0.0
  0
LINE
  5
21E1
330
2536
100
AcDbEntity
  8
DETAIL
100
AcDbLine
 10
1401.746130692781
 20
1643.893354195301
 30
0.0
 11
1393.746130692781
 21
1643.893354195301
 31
0.0
  0
LINE
  5
21E2
330
2536
100
AcDbEntity
  8
DETAIL
100
AcDbLine
 10
379.74613069297
 20
309.0530803364563
 30
0.0
 11
476.3760400222208
 21
355.0042731966485
 31
0.0
  0
LINE
  5
21E3
330
2536
100
AcDbEntity
  8
DETAIL
100
AcDbLine
 10
1256.746130692777
 20
478.8933541953017
 30
0.0
 11
506.746130692777
 21
478.8933541953038
 31
0.0
  0
LINE
  5
21E4
330
2536
100
AcDbEntity
  8
DETAIL
100
AcDbLine
 10
379.74613069297
 20
294.8933541953038
 30
0.0
 11
379.74613069297
 21
350.8079324305156
 31
0.0
  0
LINE
  5
21E5
330
2536
100
AcDbEntity
  8
DETAIL
100
AcDbLine
 10
366.74613069297
 20
294.8933541953038
 30
0.0
 11
366.74613069297
 21
350.8079324305156
 31
0.0
  0
LINE
  5
21E6
330
2536
100
AcDbEntity
  8
DETAIL
100
AcDbLine
 10
379.74613069297
 20
294.8933541953038
 30
0.0
 11
366.74613069297
 21
294.8933541953038
 31
0.0
  0
LINE
  5
21E7
330
2536
100
AcDbEntity
  8
DETAIL
100
AcDbLine
 10
379.74613069297
 20
350.8079324305156
 30
0.0
 11
379.0380962504469
 21
366.7922587293684
 31
0.0
  0
LINE
  5
21E8
330
2536
100
AcDbEntity
  8
DETAIL
100
AcDbLine
 10
379.74613069297
 20
350.8079324305156
 30
0.0
 11
366.74613069297
 21
350.8079324305156
 31
0.0
  0
LINE
  5
21E9
330
2536
100
AcDbEntity
  8
DETAIL
100
AcDbLine
 10
379.74613069297
 20
351.8079324305152
 30
0.0
 11
367.3832009537769
 21
351.8079324305156
 31
0.0
  0
LINE
  5
21EA
330
2536
100
AcDbEntity
  8
DETAIL
100
AcDbLine
 10
366.74613069297
 20
350.8079324305156
 30
0.0
 11
357.74613069297
 21
370.1084947151008
 31
0.0
  0
LINE
  5
21EB
330
2536
100
AcDbEntity
  8
DETAIL
100
AcDbLine
 10
367.3832009537769
 20
351.8079324305156
 30
0.0
 11
358.6524384800036
 21
370.5311129768404
 31
0.0
  0
LINE
  5
21EC
330
2536
100
AcDbEntity
  8
DETAIL
100
AcDbLine
 10
358.6524384800036
 20
370.5311129768404
 30
0.0
 11
357.74613069297
 21
370.1084947151008
 31
0.0
  0
ARC
  5
21ED
330
2536
100
AcDbEntity
  8
DETAIL
100
AcDbCircle
 10
1106.746130692777
 20
1004.893354195301
 30
0.0
 40
600.0
100
AcDbArc
 50
90.0
 51
180.0
  0
LINE
  5
21EE
330
2536
100
AcDbEntity
  8
DETAIL
100
AcDbLine
 10
1274.746130692777
 20
389.6750390205774
 30
0.0
 11
1274.051954002098
 21
405.6599731374925
 31
0.0
  0
LINE
  5
21EF
330
2536
100
AcDbEntity
  8
NOTE
100
AcDbLine
 10
1389.246130692781
 20
1368.893354195301
 30
0.0
 11
1414.246130692781
 21
1368.893354195301
 31
0.0
  0
LINE
  5
21F0
330
2536
100
AcDbEntity
  8
NOTE
100
AcDbLine
 10
1389.246130692777
 20
968.8933541953016
 30
0.0
 11
1414.246130692777
 21
968.8933541953016
 31
0.0
  0
LINE
  5
21F1
330
2536
100
AcDbEntity
  8
DETAIL
100
AcDbLine
 10
1296.746130692777
 20
732.8933541953021
 30
0.0
 11
1393.746130692777
 21
732.8933541953018
 31
0.0
  0
INSERT
  5
21F2
330
2536
100
AcDbEntity
  8
0
100
AcDbBlockReference
  2
*U66
 10
1401.746130692778
 20
1168.893354195301
 30
0.0
1001
ACAD
1000
DSTYLE
1002
{
1070
    41
1040
12.0
1070
    42
1040
20.0
1070
    43
1040
200.0
1070
    44
1040
20.0
1070
    73
1070
     0
1070
    74
1070
     0
1070
    77
1070
     1
1070
    78
1070
     8
1070
   140
1040
64.0
1070
   147
1040
50.0
1070
   172
1070
     1
1070
   174
1070
     1
1070
   275
1070
     0
1070
   284
1070
     0
1070
   285
1070
     0
1070
   286
1070
     0
1070
   341
1005
0
1070
   342
1005
0
1002
}
  0
INSERT
  5
21F3
330
2536
100
AcDbEntity
  8
0
100
AcDbBlockReference
  2
*U67
 10
1401.746130692778
 20
1168.893354195301
 30
0.0
  0
LINE
  5
21F4
330
2536
100
AcDbEntity
  8
NOTE
100
AcDbLine
 39
50.0
 10
1401.746130692781
 20
1631.393354195301
 30
0.0
 11
1401.746130692781
 21
1606.393354195301
 31
0.0
  0
LINE
  5
21F5
330
2536
100
AcDbEntity
  8
NOTE
100
AcDbLine
 39
50.0
 10
1401.746130692781
 20
1431.393354195301
 30
0.0
 11
1401.746130692781
 21
1406.393354195301
 31
0.0
  0
LINE
  5
21F6
330
2536
100
AcDbEntity
  8
NOTE
100
AcDbLine
 39
50.0
 10
1401.746130692781
 20
1381.393354195301
 30
0.0
 11
1401.746130692781
 21
1356.393354195301
 31
0.0
  0
LINE
  5
21F7
330
2536
100
AcDbEntity
  8
NOTE
100
AcDbLine
 39
50.0
 10
1401.746130692777
 20
981.3933541953016
 30
0.0
 11
1401.746130692777
 21
956.3933541953016
 31
0.0
  0
LINE
  5
21F8
330
2536
100
AcDbEntity
  8
NOTE
100
AcDbLine
 39
50.0
 10
1401.746130692777
 20
931.3933541953012
 30
0.0
 11
1401.746130692777
 21
906.3933541953012
 31
0.0
  0
LINE
  5
21F9
330
2536
100
AcDbEntity
  8
NOTE
100
AcDbLine
 39
50.0
 10
1401.746130692777
 20
731.3933541953002
 30
0.0
 11
1401.746130692777
 21
706.3933541953002
 31
0.0
  0
LINE
  5
21FA
330
2536
100
AcDbEntity
  8
OUTLINE
100
AcDbLine
 39
50.0
 10
1401.746130692781
 20
1643.893354195301
 30
0.0
 11
1401.746130692777
 21
693.8933541953015
 31
0.0
  0
LINE
  5
21FB
330
2536
100
AcDbEntity
  8
OUTLINE
100
AcDbLine
 10
379.74613069297
 20
350.8079324305156
 30
0.0
 11
1274.746130692777
 21
389.6750390205774
 31
0.0
  0
LINE
  5
21FC
330
2536
100
AcDbEntity
  8
OUTLINE
100
AcDbLine
 10
379.0519540022919
 20
366.7928665474308
 30
0.0
 11
1274.051954002098
 21
405.6599731374925
 31
0.0
  0
LINE
  5
21FD
330
2536
100
AcDbEntity
  8
OUTLINE
100
AcDbLine
 10
1256.746130692777
 20
404.9084342780597
 30
0.0
 11
1256.746130692777
 21
478.8933541953017
 31
0.0
  0
LINE
  5
21FE
330
2536
100
AcDbEntity
  8
OUTLINE
100
AcDbLine
 10
506.7461306929702
 20
478.8933541954951
 30
0.0
 11
409.450260854258
 21
381.5974843567797
 31
0.0
  0
LINE
  5
21FF
330
2536
100
AcDbEntity
  8
OUTLINE
100
AcDbLine
 10
395.4318427670488
 20
367.5041949078253
 30
0.0
 11
506.7461306929702
 21
478.8933541954951
 31
0.0
  0
LINE
  5
2200
330
2536
100
AcDbEntity
  8
OUTLINE
100
AcDbLine
 10
1393.746130692781
 20
1643.893354195301
 30
0.0
 11
1393.746130692777
 21
693.8933541953015
 31
0.0
  0
LINE
  5
2201
330
2536
100
AcDbEntity
  8
OUTLINE
100
AcDbLine
 10
1256.746130692777
 20
692.8933541953019
 30
0.0
 11
1296.746130692777
 21
732.8933541953021
 31
0.0
  0
LINE
  5
2202
330
2536
100
AcDbEntity
  8
OUTLINE
100
AcDbLine
 10
1256.746130692777
 20
692.8933541953019
 30
0.0
 11
1256.746130692777
 21
478.8933541953017
 31
0.0
  0
LINE
  5
2203
330
2536
100
AcDbEntity
  8
OUTLINE
100
AcDbLine
 10
1393.746130692781
 20
1604.8933541953
 30
0.0
 11
1106.746130692781
 21
1604.893354195301
 31
0.0
  0
LINE
  5
2204
330
2536
100
AcDbEntity
  8
OUTLINE
100
AcDbLine
 10
506.746130692777
 20
1004.893354195302
 30
0.0
 11
506.7461306929702
 21
478.8933541954951
 31
0.0
  0
LINE
  5
2205
330
2536
100
AcDbEntity
  8
OUTLINE
100
AcDbLine
 10
1401.746130692777
 20
693.8933541953015
 30
0.0
 11
1393.746130692777
 21
693.8933541953015
 31
0.0
  0
LINE
  5
2206
330
2536
100
AcDbEntity
  8
OUTLINE
100
AcDbLine
 10
1401.746130692781
 20
1643.893354195301
 30
0.0
 11
1393.746130692781
 21
1643.893354195301
 31
0.0
  0
LINE
  5
2207
330
2536
100
AcDbEntity
  8
OUTLINE
100
AcDbLine
 10
379.74613069297
 20
309.0530803364563
 30
0.0
 11
476.3760400222208
 21
355.0042731966485
 31
0.0
  0
LINE
  5
2208
330
2536
100
AcDbEntity
  8
OUTLINE
100
AcDbLine
 10
1256.746130692777
 20
478.8933541953017
 30
0.0
 11
506.746130692777
 21
478.8933541953038
 31
0.0
  0
LINE
  5
2209
330
2536
100
AcDbEntity
  8
OUTLINE
100
AcDbLine
 10
379.74613069297
 20
294.8933541953038
 30
0.0
 11
379.74613069297
 21
350.8079324305156
 31
0.0
  0
LINE
  5
220A
330
2536
100
AcDbEntity
  8
OUTLINE
100
AcDbLine
 10
366.74613069297
 20
294.8933541953038
 30
0.0
 11
366.74613069297
 21
350.8079324305156
 31
0.0
  0
LINE
  5
220B
330
2536
100
AcDbEntity
  8
OUTLINE
100
AcDbLine
 10
379.74613069297
 20
294.8933541953038
 30
0.0
 11
366.74613069297
 21
294.8933541953038
 31
0.0
  0
LINE
  5
220C
330
2536
100
AcDbEntity
  8
OUTLINE
100
AcDbLine
 10
379.74613069297
 20
350.8079324305156
 30
0.0
 11
379.0380962504469
 21
366.7922587293684
 31
0.0
  0
LINE
  5
220D
330
2536
100
AcDbEntity
  8
OUTLINE
100
AcDbLine
 10
379.74613069297
 20
350.8079324305156
 30
0.0
 11
366.74613069297
 21
350.8079324305156
 31
0.0
  0
LINE
  5
220E
330
2536
100
AcDbEntity
  8
OUTLINE
100
AcDbLine
 10
379.74613069297
 20
351.8079324305152
 30
0.0
 11
367.3832009537769
 21
351.8079324305156
 31
0.0
  0
LINE
  5
220F
330
2536
100
AcDbEntity
  8
OUTLINE
100
AcDbLine
 10
366.74613069297
 20
350.8079324305156
 30
0.0
 11
357.74613069297
 21
370.1084947151008
 31
0.0
  0
LINE
  5
2210
330
2536
100
AcDbEntity
  8
OUTLINE
100
AcDbLine
 10
367.3832009537769
 20
351.8079324305156
 30
0.0
 11
358.6524384800036
 21
370.5311129768404
 31
0.0
  0
LINE
  5
2211
330
2536
100
AcDbEntity
  8
OUTLINE
100
AcDbLine
 10
358.6524384800036
 20
370.5311129768404
 30
0.0
 11
357.74613069297
 21
370.1084947151008
 31
0.0
  0
ARC
  5
2212
330
2536
100
AcDbEntity
  8
OUTLINE
100
AcDbCircle
 10
1106.746130692777
 20
1004.893354195301
 30
0.0
 40
600.0
100
AcDbArc
 50
90.0
 51
180.0
  0
LINE
  5
2213
330
2536
100
AcDbEntity
  8
OUTLINE
100
AcDbLine
 10
1274.746130692777
 20
389.6750390205774
 30
0.0
 11
1274.051954002098
 21
405.6599731374925
 31
0.0
  0
LINE
  5
2214
330
2536
100
AcDbEntity
  8
OUTLINE
100
AcDbLine
 10
1296.746130692777
 20
732.8933541953021
 30
0.0
 11
1393.746130692777
 21
732.8933541953018
 31
0.0
  0
TEXT
  5
2215
330
2536
100
AcDbEntity
  8
ETC
100
AcDbText
 10
1625.542069218886
 20
2073.033631289395
 30
0.0
 40
64.0
  1
QW-80SB_4
 41
0.9
100
AcDbText
  0
TEXT
  5
2216
330
2536
100
AcDbEntity
  8
ETC
100
AcDbText
 10
1617.862069218886
 20
1966.366964622727
 30
0.0
 40
64.0
  1
システム部材
 41
0.9
100
AcDbText
  0
TEXT
  5
2217
330
2536
100
AcDbEntity
  8
ETC
100
AcDbText
 10
1625.542069218886
 20
1859.700297956061
 30
0.0
 40
64.0
  1
QW-80SB
 41
0.9
100
AcDbText
  0
LINE
  5
2218
330
2536
100
AcDbEntity
  8
SIZE
100
AcDbLine
 10
1393.746130692781
 20
1663.893354195301
 30
0.0
 11
1393.746130692781
 21
1752.114144894437
 31
0.0
  0
LINE
  5
2219
330
2536
100
AcDbEntity
  8
SIZE
100
AcDbLine
 10
1401.746130692781
 20
1663.893354195301
 30
0.0
 11
1401.746130692781
 21
1752.114144894437
 31
0.0
  0
LINE
  5
221A
330
2536
100
AcDbEntity
  8
SIZE
100
AcDbLine
 10
1381.74613069278
 20
1732.114144894437
 30
0.0
 11
1369.746130692781
 21
1732.114144894437
 31
0.0
  0
LINE
  5
221B
330
2536
100
AcDbEntity
  8
SIZE
100
AcDbLine
 10
1413.74613069278
 20
1732.114144894437
 30
0.0
 11
1484.146130692781
 21
1732.114144894437
 31
0.0
  0
INSERT
  5
221C
330
2536
100
AcDbEntity
  8
SIZE
100
AcDbBlockReference
  2
_DOTBLANK
 10
1393.746130692781
 20
1732.114144894437
 30
0.0
 41
12.0
 42
12.0
 43
12.0
  0
INSERT
  5
221D
330
2536
100
AcDbEntity
  8
SIZE
100
AcDbBlockReference
  2
_DOTBLANK
 10
1401.746130692781
 20
1732.114144894437
 30
0.0
 41
12.0
 42
12.0
 43
12.0
 50
180.0
  0
LINE
  5
221E
330
2536
100
AcDbEntity
  8
SIZE
100
AcDbLine
 10
1421.74613069278
 20
1603.893354195301
 30
0.0
 11
1923.607158862025
 21
1603.893354195301
 31
0.0
  0
LINE
  5
221F
330
2536
100
AcDbEntity
  8
SIZE
100
AcDbLine
 10
1421.746130692777
 20
733.8933541953015
 30
0.0
 11
1923.607158862025
 21
733.8933541953015
 31
0.0
  0
LINE
  5
2220
330
2536
100
AcDbEntity
  8
SIZE
100
AcDbLine
 10
1903.607158862025
 20
1591.893354195301
 30
0.0
 11
1903.607158862025
 21
745.8933541953012
 31
0.0
  0
INSERT
  5
2221
330
2536
100
AcDbEntity
  8
SIZE
100
AcDbBlockReference
  2
_DOTBLANK
 10
1903.607158862025
 20
1603.893354195301
 30
0.0
 41
12.0
 42
12.0
 43
12.0
 50
90.0
  0
INSERT
  5
2222
330
2536
100
AcDbEntity
  8
SIZE
100
AcDbBlockReference
  2
_DOTBLANK
 10
1903.607158862025
 20
733.8933541953015
 30
0.0
 41
12.0
 42
12.0
 43
12.0
 50
270.0
  0
LINE
  5
2223
330
2536
100
AcDbEntity
  8
SIZE
100
AcDbLine
 10
1434.246130692781
 20
1418.893354195301
 30
0.0
 11
1780.544575881908
 21
1418.893354195301
 31
0.0
  0
LINE
  5
2224
330
2536
100
AcDbEntity
  8
SIZE
100
AcDbLine
 10
1434.246130692777
 20
918.8933541953012
 30
0.0
 11
1780.544575881908
 21
918.8933541953012
 31
0.0
  0
LINE
  5
2225
330
2536
100
AcDbEntity
  8
SIZE
100
AcDbLine
 10
1760.544575881908
 20
1406.893354195301
 30
0.0
 11
1760.544575881908
 21
930.893354195301
 31
0.0
  0
INSERT
  5
2226
330
2536
100
AcDbEntity
  8
SIZE
100
AcDbBlockReference
  2
_DOTBLANK
 10
1760.544575881908
 20
1418.893354195301
 30
0.0
 41
12.0
 42
12.0
 43
12.0
 50
90.0
  0
INSERT
  5
2227
330
2536
100
AcDbEntity
  8
SIZE
100
AcDbBlockReference
  2
_DOTBLANK
 10
1760.544575881908
 20
918.8933541953012
 30
0.0
 41
12.0
 42
12.0
 43
12.0
 50
270.0
  0
LINE
  5
2228
330
2536
100
AcDbEntity
  8
SIZE
100
AcDbLine
 10
1434.246130692781
 20
1368.893354195301
 30
0.0
 11
1631.672208732896
 21
1368.893354195301
 31
0.0
  0
LINE
  5
2229
330
2536
100
AcDbEntity
  8
SIZE
100
AcDbLine
 10
1434.246130692777
 20
968.8933541953016
 30
0.0
 11
1631.672208732896
 21
968.8933541953012
 31
0.0
  0
LINE
  5
222A
330
2536
100
AcDbEntity
  8
SIZE
100
AcDbLine
 10
1611.672208732897
 20
1356.893354195301
 30
0.0
 11
1611.672208732897
 21
980.8933541953017
 31
0.0
  0
INSERT
  5
222B
330
2536
100
AcDbEntity
  8
SIZE
100
AcDbBlockReference
  2
_DOTBLANK
 10
1611.672208732897
 20
1368.893354195301
 30
0.0
 41
12.0
 42
12.0
 43
12.0
 50
90.0
  0
INSERT
  5
222C
330
2536
100
AcDbEntity
  8
SIZE
100
AcDbBlockReference
  2
_DOTBLANK
 10
1611.672208732897
 20
968.8933541953012
 30
0.0
 41
12.0
 42
12.0
 43
12.0
 50
270.0
  0
LINE
  5
222D
330
2536
100
AcDbEntity
  8
SIZE
100
AcDbLine
 10
1421.74613069278
 20
1643.893354195301
 30
0.0
 11
2174.720971755219
 21
1643.893354195301
 31
0.0
  0
LINE
  5
222E
330
2536
100
AcDbEntity
  8
SIZE
100
AcDbLine
 10
1421.74613069278
 20
693.8933541953018
 30
0.0
 11
2174.720971755219
 21
693.8933541953015
 31
0.0
  0
LINE
  5
222F
330
2536
100
AcDbEntity
  8
SIZE
100
AcDbLine
 10
2154.720971755219
 20
1631.893354195301
 30
0.0
 11
2154.720971755219
 21
705.8933541953015
 31
0.0
  0
INSERT
  5
2230
330
2536
100
AcDbEntity
  8
SIZE
100
AcDbBlockReference
  2
_DOTBLANK
 10
2154.720971755219
 20
1643.893354195301
 30
0.0
 41
12.0
 42
12.0
 43
12.0
 50
90.0
  0
INSERT
  5
2231
330
2536
100
AcDbEntity
  8
SIZE
100
AcDbBlockReference
  2
_DOTBLANK
 10
2154.720971755219
 20
693.8933541953015
 30
0.0
 41
12.0
 42
12.0
 43
12.0
 50
270.0
  0
LINE
  5
2232
330
2536
100
AcDbEntity
  8
SIZE
100
AcDbLine
 10
1434.246130692781
 20
1618.893354195301
 30
0.0
 11
2051.822717360994
 21
1618.893354195301
 31
0.0
  0
LINE
  5
2233
330
2536
100
AcDbEntity
  8
SIZE
100
AcDbLine
 10
1434.246130692777
 20
718.8933541953002
 30
0.0
 11
2051.822717360993
 21
718.8933541952998
 31
0.0
  0
LINE
  5
2234
330
2536
100
AcDbEntity
  8
SIZE
100
AcDbLine
 10
2031.822717360993
 20
1606.893354195301
 30
0.0
 11
2031.822717360993
 21
730.8933541952998
 31
0.0
  0
INSERT
  5
2235
330
2536
100
AcDbEntity
  8
SIZE
100
AcDbBlockReference
  2
_DOTBLANK
 10
2031.822717360993
 20
1618.893354195301
 30
0.0
 41
12.0
 42
12.0
 43
12.0
 50
90.0
  0
INSERT
  5
2236
330
2536
100
AcDbEntity
  8
SIZE
100
AcDbBlockReference
  2
_DOTBLANK
 10
2031.822717360993
 20
718.8933541952998
 30
0.0
 41
12.0
 42
12.0
 43
12.0
 50
270.0
  0
LINE
  5
2237
330
2536
100
AcDbEntity
  8
SIZE
100
AcDbLine
 10
1373.74613069278
 20
1643.893354195301
 30
0.0
 11
53.99999571691364
 21
1643.893354195301
 31
0.0
  0
LINE
  5
2238
330
2536
100
AcDbEntity
  8
SIZE
100
AcDbLine
 10
346.74613069297
 20
294.8933541953038
 30
0.0
 11
53.99999571691364
 21
294.8933541953038
 31
0.0
  0
LINE
  5
2239
330
2536
100
AcDbEntity
  8
SIZE
100
AcDbLine
 10
73.99999571691363
 20
1631.893354195301
 30
0.0
 11
73.99999571691363
 21
306.8933541953038
 31
0.0
  0
INSERT
  5
223A
330
2536
100
AcDbEntity
  8
SIZE
100
AcDbBlockReference
  2
_DOTBLANK
 10
73.99999571691363
 20
1643.893354195301
 30
0.0
 41
12.0
 42
12.0
 43
12.0
 50
90.0
  0
INSERT
  5
223B
330
2536
100
AcDbEntity
  8
SIZE
100
AcDbBlockReference
  2
_DOTBLANK
 10
73.99999571691363
 20
294.8933541953038
 30
0.0
 41
12.0
 42
12.0
 43
12.0
 50
270.0
  0
LINE
  5
223C
330
2536
100
AcDbEntity
  8
SIZE
100
AcDbLine
 10
1421.746130692777
 20
733.8933541953015
 30
0.0
 11
1923.607158862025
 21
733.8933541953015
 31
0.0
  0
LINE
  5
223D
330
2536
100
AcDbEntity
  8
SIZE
100
AcDbLine
 10
1276.746130692777
 20
388.893354195302
 30
0.0
 11
1923.607158862025
 21
388.893354195302
 31
0.0
  0
LINE
  5
223E
330
2536
100
AcDbEntity
  8
SIZE
100
AcDbLine
 10
1903.607158862025
 20
721.8933541953015
 30
0.0
 11
1903.607158862025
 21
400.8933541953017
 31
0.0
  0
INSERT
  5
223F
330
2536
100
AcDbEntity
  8
SIZE
100
AcDbBlockReference
  2
_DOTBLANK
 10
1903.607158862025
 20
733.8933541953015
 30
0.0
 41
12.0
 42
12.0
 43
12.0
 50
90.0
  0
INSERT
  5
2240
330
2536
100
AcDbEntity
  8
SIZE
100
AcDbBlockReference
  2
_DOTBLANK
 10
1903.607158862025
 20
388.893354195302
 30
0.0
 41
12.0
 42
12.0
 43
12.0
 50
270.0
  0
LINE
  5
2241
330
2536
100
AcDbEntity
  8
SIZE
100
AcDbLine
 10
379.74613069297
 20
274.8933541953038
 30
0.0
 11
379.74613069297
 21
0.0000016240842342
 31
0.0
  0
LINE
  5
2242
330
2536
100
AcDbEntity
  8
SIZE
100
AcDbLine
 10
1401.746130692777
 20
673.8933541953015
 30
0.0
 11
1401.746130692777
 21
0.0000016240842342
 31
0.0
  0
LINE
  5
2243
330
2536
100
AcDbEntity
  8
SIZE
100
AcDbLine
 10
391.74613069297
 20
20.00000162408424
 30
0.0
 11
1389.746130692777
 21
20.00000162408424
 31
0.0
  0
INSERT
  5
2244
330
2536
100
AcDbEntity
  8
SIZE
100
AcDbBlockReference
  2
_DOTBLANK
 10
379.74613069297
 20
20.00000162408424
 30
0.0
 41
12.0
 42
12.0
 43
12.0
 50
180.0
  0
INSERT
  5
2245
330
2536
100
AcDbEntity
  8
SIZE
100
AcDbBlockReference
  2
_DOTBLANK
 10
1401.746130692777
 20
20.00000162408424
 30
0.0
 41
12.0
 42
12.0
 43
12.0
  0
LINE
  5
2246
330
2536
100
AcDbEntity
  8
SIZE
100
AcDbLine
 10
1256.746130692777
 20
368.893354195302
 30
0.0
 11
1256.746130692777
 21
115.5274936047615
 31
0.0
  0
LINE
  5
2247
330
2536
100
AcDbEntity
  8
SIZE
100
AcDbLine
 10
379.74613069297
 20
274.8933541953038
 30
0.0
 11
379.74613069297
 21
115.5274936047615
 31
0.0
  0
LINE
  5
2248
330
2536
100
AcDbEntity
  8
SIZE
100
AcDbLine
 10
1244.746130692777
 20
135.5274936047615
 30
0.0
 11
391.74613069297
 21
135.5274936047615
 31
0.0
  0
INSERT
  5
2249
330
2536
100
AcDbEntity
  8
SIZE
100
AcDbBlockReference
  2
_DOTBLANK
 10
1256.746130692777
 20
135.5274936047615
 30
0.0
 41
12.0
 42
12.0
 43
12.0
  0
INSERT
  5
224A
330
2536
100
AcDbEntity
  8
SIZE
100
AcDbBlockReference
  2
_DOTBLANK
 10
379.74613069297
 20
135.5274936047615
 30
0.0
 41
12.0
 42
12.0
 43
12.0
 50
180.0
  0
LINE
  5
224B
330
2536
100
AcDbEntity
  8
SIZE
100
AcDbLine
 10
1274.746130692777
 20
369.6750390205774
 30
0.0
 11
1274.746130692777
 21
115.5274936047615
 31
0.0
  0
LINE
  5
224C
330
2536
100
AcDbEntity
  8
SIZE
100
AcDbLine
 10
1401.746130692777
 20
673.8933541953013
 30
0.0
 11
1401.746130692777
 21
115.5274936047615
 31
0.0
  0
LINE
  5
224D
330
2536
100
AcDbEntity
  8
SIZE
100
AcDbLine
 10
1286.746130692777
 20
135.5274936047615
 30
0.0
 11
1389.746130692777
 21
135.5274936047615
 31
0.0
  0
LINE
  5
224E
330
2536
100
AcDbEntity
  8
SIZE
100
AcDbLine
 10
1401.746130692777
 20
135.5274936047615
 30
0.0
 11
1650.031844978492
 21
135.5274936047615
 31
0.0
  0
INSERT
  5
224F
330
2536
100
AcDbEntity
  8
SIZE
100
AcDbBlockReference
  2
_DOTBLANK
 10
1274.746130692777
 20
135.5274936047615
 30
0.0
 41
12.0
 42
12.0
 43
12.0
 50
180.0
  0
INSERT
  5
2250
330
2536
100
AcDbEntity
  8
SIZE
100
AcDbBlockReference
  2
_DOTBLANK
 10
1401.746130692777
 20
135.5274936047615
 30
0.0
 41
12.0
 42
12.0
 43
12.0
  0
LINE
  5
2251
330
2536
100
AcDbEntity
  8
SIZE
100
AcDbLine
 10
379.74613069297
 20
274.8933541953038
 30
0.0
 11
379.74613069297
 21
0.0000016240842342
 31
0.0
  0
LINE
  5
2252
330
2536
100
AcDbEntity
  8
SIZE
100
AcDbLine
 10
357.74613069297
 20
350.1084947151011
 30
0.0
 11
357.74613069297
 21
0.0000016240842342
 31
0.0
  0
LINE
  5
2253
330
2536
100
AcDbEntity
  8
SIZE
100
AcDbLine
 10
391.74613069297
 20
20.00000162408424
 30
0.0
 11
403.7461306929698
 21
20.00000162408424
 31
0.0
  0
LINE
  5
2254
330
2536
100
AcDbEntity
  8
SIZE
100
AcDbLine
 10
345.74613069297
 20
20.00000162408424
 30
0.0
 11
131.9509083152979
 21
20.00000162408424
 31
0.0
  0
LINE
  5
2255
330
2536
100
AcDbEntity
  8
SIZE
100
AcDbLine
 10
379.74613069297
 20
20.00000162408424
 30
0.0
 11
357.74613069297
 21
20.00000162408424
 31
0.0
  0
INSERT
  5
2256
330
2536
100
AcDbEntity
  8
SIZE
100
AcDbBlockReference
  2
_DOTBLANK
 10
379.74613069297
 20
20.00000162408424
 30
0.0
 41
12.0
 42
12.0
 43
12.0
 50
180.0
  0
INSERT
  5
2257
330
2536
100
AcDbEntity
  8
SIZE
100
AcDbBlockReference
  2
_DOTBLANK
 10
357.74613069297
 20
20.00000162408424
 30
0.0
 41
12.0
 42
12.0
 43
12.0
  0
TEXT
  5
2258
330
2536
100
AcDbEntity
  8
SIZE
100
AcDbText
 10
1435.746130692781
 20
1742.114144894437
 30
0.0
 40
64.0
  1
8
 41
0.9
100
AcDbText
  0
TEXT
  5
2259
330
2536
100
AcDbEntity
  8
SIZE
100
AcDbText
 10
2144.720971755219
 20
1094.836211338158
 30
0.0
 40
64.0
  1
950
 50
90.0
 41
0.9
100
AcDbText
  0
TEXT
  5
225A
330
2536
100
AcDbEntity
  8
SIZE
100
AcDbText
 10
2021.822717360993
 20
1094.836211338158
 30
0.0
 40
64.0
  1
900
 50
90.0
 41
0.9
100
AcDbText
  0
TEXT
  5
225B
330
2536
100
AcDbEntity
  8
SIZE
100
AcDbText
 10
1893.607158862025
 20
1094.836211338158
 30
0.0
 40
64.0
  1
870
 50
90.0
 41
0.9
100
AcDbText
  0
TEXT
  5
225C
330
2536
100
AcDbEntity
  8
SIZE
100
AcDbText
 10
1750.544575881909
 20
1094.836211338158
 30
0.0
 40
64.0
  1
500
 50
90.0
 41
0.9
100
AcDbText
  0
TEXT
  5
225D
330
2536
100
AcDbEntity
  8
SIZE
100
AcDbText
 10
1601.672208732897
 20
1094.836211338158
 30
0.0
 40
64.0
  1
400
 50
90.0
 41
0.9
100
AcDbText
  0
TEXT
  5
225E
330
2536
100
AcDbEntity
  8
SIZE
100
AcDbText
 10
1893.607158862025
 20
487.3362113381585
 30
0.0
 40
64.0
  1
345
 50
90.0
 41
0.9
100
AcDbText
  0
TEXT
  5
225F
330
2536
100
AcDbEntity
  8
SIZE
100
AcDbText
 10
1502.888987835634
 20
145.5274936047615
 30
0.0
 40
64.0
  1
127
 41
0.9
100
AcDbText
  0
TEXT
  5
2260
330
2536
100
AcDbEntity
  8
SIZE
100
AcDbText
 10
744.1889878357287
 20
145.5274936047615
 30
0.0
 40
64.0
  1
877
 41
0.9
100
AcDbText
  0
TEXT
  5
2261
330
2536
100
AcDbEntity
  8
SIZE
100
AcDbText
 10
63.99999571691364
 20
874.7647827667277
 30
0.0
 40
64.0
  1
1349
 50
90.0
 41
0.9
100
AcDbText
  0
TEXT
  5
2262
330
2536
100
AcDbEntity
  8
SIZE
100
AcDbText
 10
794.7461306928715
 20
30.00000162408424
 30
0.0
 40
64.0
  1
1022
 41
0.9
100
AcDbText
  0
TEXT
  5
2263
330
2536
100
AcDbEntity
  8
SIZE
100
AcDbText
 10
141.9509083152989
 20
30.00000162408424
 30
0.0
 40
64.0
  1
22
 41
0.9
100
AcDbText
  0
ENDBLK
  5
2265
330
2536
100
AcDbEntity
  8
0
100
AcDbBlockEnd
  0
BLOCK
  5
2539
330
2538
100
AcDbEntity
  8
0
100
AcDbBlockBegin
  2
*U69
 70
     1
 10
0.0
 20
0.0
 30
0.0
  3
*U69
  1

  0
INSERT
  5
229D
330
2538
100
AcDbEntity
  8
NOTE
100
AcDbBlockReference
  2
_OPEN30
 10
0.0000000000018758
 20
450.0000000000036
 30
0.0
 41
12.0
 42
12.0
 43
12.0
 50
227.3909883883103
  0
POLYLINE
  5
229E
330
2538
100
AcDbEntity
  8
NOTE
100
AcDb2dPolyline
 66
     1
 10
0.0
 20
0.0
 30
0.0
  0
VERTEX
  5
23F0
330
229E
100
AcDbEntity
  8
NOTE
100
AcDbVertex
100
AcDb2dVertex
 10
8.12390083619141
 20
458.8318874089188
 30
0.0
  0
VERTEX
  5
23F1
330
229E
100
AcDbEntity
  8
NOTE
100
AcDbVertex
100
AcDb2dVertex
 10
87.86939999225618
 20
545.5270950580159
 30
0.0
  0
VERTEX
  5
23F2
330
229E
100
AcDbEntity
  8
NOTE
100
AcDbVertex
100
AcDb2dVertex
 10
677.5951142779706
 20
545.5270950580159
 30
0.0
  0
SEQEND
  5
23F3
330
229E
100
AcDbEntity
  8
NOTE
  0
ENDBLK
  5
229F
330
2538
100
AcDbEntity
  8
0
100
AcDbBlockEnd
  0
BLOCK
  5
253B
330
253A
100
AcDbEntity
  8
0
100
AcDbBlockBegin
  2
*U70
 70
     1
 10
0.0
 20
0.0
 30
0.0
  3
*U70
  1

  0
TEXT
  5
22A2
330
253A
100
AcDbEntity
  8
NOTE
100
AcDbText
 10
149.8693999922562
 20
563.5270950580161
 30
0.0
 40
64.0
  1
16×φ15取付穴
 41
0.9
100
AcDbText
  0
ENDBLK
  5
22A3
330
253A
100
AcDbEntity
  8
0
100
AcDbBlockEnd
  0
ENDSEC
  0
SECTION
  2
ENTITIES
  0
TEXT
  5
953
330
2467
100
AcDbEntity
  8
OUTLINE
  6
Continuous
 62
     3
100
AcDbText
 10
-418.231467
 20
13.715189
 30
0.0
 40
64.0
  1
 
 41
0.9
100
AcDbText
  0
TEXT
  5
954
330
2467
100
AcDbEntity
  8
OUTLINE
  6
Continuous
 62
     3
100
AcDbText
 10
-418.231467
 20
13.715189
 30
0.0
 40
64.0
  1
 
 41
0.9
100
AcDbText
  0
TEXT
  5
955
330
2467
100
AcDbEntity
  8
OUTLINE
  6
Continuous
 62
     3
100
AcDbText
 10
1341.41903
 20
-706.0588199999997
 30
0.0
 40
64.0
  1
 
 41
0.9
100
AcDbText
  0
TEXT
  5
956
330
2467
100
AcDbEntity
  8
OUTLINE
  6
Continuous
 62
     3
100
AcDbText
 10
1341.41903
 20
-706.0588199999997
 30
0.0
 40
64.0
  1
 
 41
0.9
100
AcDbText
  0
TEXT
  5
957
330
2467
100
AcDbEntity
  8
OUTLINE
  6
Continuous
 62
     3
100
AcDbText
 10
1341.41903
 20
-706.0588199999997
 30
0.0
 40
64.0
  1
 
 41
0.9
100
AcDbText
  0
TEXT
  5
958
330
2467
100
AcDbEntity
  8
OUTLINE
  6
Continuous
 62
     3
100
AcDbText
 10
1341.41903
 20
-706.0588199999997
 30
0.0
 40
64.0
  1
 
 41
0.9
100
AcDbText
  0
LINE
  5
2340
330
2467
100
AcDbEntity
  8
NOTE
100
AcDbLine
 10
12.5
 20
-449.9999999999975
 30
0.0
 11
-12.49999999999977
 21
-449.9999999999977
 31
0.0
  0
LINE
  5
2341
330
2467
100
AcDbEntity
  8
NOTE
100
AcDbLine
 10
12.49999999999636
 20
450.0000000000036
 30
0.0
 11
-12.50000000000341
 21
450.0000000000036
 31
0.0
  0
CIRCLE
  5
2342
330
2467
100
AcDbEntity
  8
ARRANGE
100
AcDbCircle
 10
0.0
 20
0.0
 30
0.0
 40
80.0
  0
LINE
  5
2343
330
2467
100
AcDbEntity
  8
ARRANGE
100
AcDbLine
 10
33.21709074801037
 20
-33.21709074801674
 30
0.0
 11
-33.21709074801765
 21
33.21709074801312
 31
0.0
  0
LINE
  5
2344
330
2467
100
AcDbEntity
  8
ARRANGE
100
AcDbLine
 10
-33.21709074801765
 20
-33.21709074801584
 30
0.0
 11
33.21709074801403
 21
33.21709074801856
 31
0.0
  0
LINE
  5
2345
330
2467
100
AcDbEntity
  8
BASIS
100
AcDbLine
 10
-25.0
 20
0.0
 30
0.0
 11
919.9999999999997
 21
0.000000000001819
 31
0.0
  0
LINE
  5
2346
330
2467
100
AcDbEntity
  8
NOTE
100
AcDbLine
 10
12.49999999999636
 20
250.0000000000036
 30
0.0
 11
-12.50000000000341
 21
250.0000000000036
 31
0.0
  0
LINE
  5
2347
330
2467
100
AcDbEntity
  8
NOTE
100
AcDbLine
 10
12.5
 20
-249.9999999999966
 30
0.0
 11
-12.49999999999977
 21
-249.9999999999966
 31
0.0
  0
LINE
  5
2348
330
2467
100
AcDbEntity
  8
DETAIL
100
AcDbLine
 10
1021.999999999806
 20
-818.0854217647826
 30
0.0
 11
127.0
 21
-779.2183151747206
 31
0.0
  0
LINE
  5
2349
330
2467
100
AcDbEntity
  8
DETAIL
100
AcDbLine
 10
1022.694176690486
 20
-802.100487647867
 30
0.0
 11
127.6941766906784
 21
-763.2333810578052
 31
0.0
  0
LINE
  5
234A
330
2467
100
AcDbEntity
  8
OUTLINE
100
AcDbLine
 10
145.0000000000002
 20
-753.5010582070943
 30
0.0
 11
145.0000000000002
 21
-689.9999999999969
 31
0.0
  0
LINE
  5
234B
330
2467
100
AcDbEntity
  8
DETAIL
100
AcDbLine
 10
145.0000000000002
 20
-763.9849199172383
 30
0.0
 11
145.0000000000002
 21
-689.9999999999961
 31
0.0
  0
LINE
  5
234C
330
2467
100
AcDbEntity
  8
DETAIL
100
AcDbLine
 10
894.9999999998073
 20
-689.9999999998027
 30
0.0
 11
992.2958698385192
 21
-787.2958698385181
 31
0.0
  0
LINE
  5
234D
330
2467
100
AcDbEntity
  8
DETAIL
100
AcDbLine
 10
1006.314287925728
 20
-801.3891592874726
 30
0.0
 11
894.9999999998073
 21
-689.9999999998027
 31
0.0
  0
LINE
  5
234E
330
2467
100
AcDbEntity
  8
DETAIL
100
AcDbLine
 10
-0.000000000003638
 20
475.0000000000036
 30
0.0
 11
0.0
 21
-474.999999999996
 31
0.0
  0
LINE
  5
234F
330
2467
100
AcDbEntity
  8
DETAIL
100
AcDbLine
 10
7.999999999996362
 20
475.0000000000036
 30
0.0
 11
8.0
 21
-474.999999999996
 31
0.0
  0
LINE
  5
2350
330
2467
100
AcDbEntity
  8
DETAIL
100
AcDbLine
 10
145.0000000000002
 20
-475.999999999996
 30
0.0
 11
105.0
 21
-435.999999999996
 31
0.0
  0
LINE
  5
2351
330
2467
100
AcDbEntity
  8
DETAIL
100
AcDbLine
 10
145.0000000000002
 20
-475.999999999996
 30
0.0
 11
145.0000000000002
 21
-689.9999999999961
 31
0.0
  0
LINE
  5
2352
330
2467
100
AcDbEntity
  8
DETAIL
100
AcDbLine
 10
7.999999999996362
 20
436.0000000000018
 30
0.0
 11
294.9999999999966
 21
436.0000000000025
 31
0.0
  0
LINE
  5
2353
330
2467
100
AcDbEntity
  8
DETAIL
100
AcDbLine
 10
894.9999999999997
 20
-163.9999999999961
 30
0.0
 11
894.9999999998073
 21
-689.9999999998027
 31
0.0
  0
LINE
  5
2354
330
2467
100
AcDbEntity
  8
DETAIL
100
AcDbLine
 10
0.0
 20
-474.999999999996
 30
0.0
 11
8.0
 21
-474.999999999996
 31
0.0
  0
LINE
  5
2355
330
2467
100
AcDbEntity
  8
DETAIL
100
AcDbLine
 10
-0.000000000003638
 20
475.0000000000036
 30
0.0
 11
7.999999999996362
 21
475.0000000000036
 31
0.0
  0
LINE
  5
2356
330
2467
100
AcDbEntity
  8
DETAIL
100
AcDbLine
 10
1021.999999999806
 20
-859.8402738588415
 30
0.0
 11
925.3700906705564
 21
-813.8890809986493
 31
0.0
  0
LINE
  5
2357
330
2467
100
AcDbEntity
  8
DETAIL
100
AcDbLine
 10
145.0000000000002
 20
-689.9999999999961
 30
0.0
 11
894.9999999999997
 21
-689.999999999994
 31
0.0
  0
LINE
  5
2358
330
2467
100
AcDbEntity
  8
DETAIL
100
AcDbLine
 10
1021.999999999806
 20
-873.9999999999941
 30
0.0
 11
1021.999999999806
 21
-818.0854217647826
 31
0.0
  0
LINE
  5
2359
330
2467
100
AcDbEntity
  8
DETAIL
100
AcDbLine
 10
1034.999999999806
 20
-873.9999999999941
 30
0.0
 11
1034.999999999806
 21
-818.0854217647826
 31
0.0
  0
LINE
  5
235A
330
2467
100
AcDbEntity
  8
DETAIL
100
AcDbLine
 10
1021.999999999806
 20
-873.9999999999941
 30
0.0
 11
1034.999999999806
 21
-873.9999999999941
 31
0.0
  0
LINE
  5
235B
330
2467
100
AcDbEntity
  8
DETAIL
100
AcDbLine
 10
1021.999999999806
 20
-818.0854217647826
 30
0.0
 11
1022.708034442329
 21
-802.1010954659292
 31
0.0
  0
LINE
  5
235C
330
2467
100
AcDbEntity
  8
DETAIL
100
AcDbLine
 10
1021.999999999806
 20
-818.0854217647826
 30
0.0
 11
1034.999999999806
 21
-818.0854217647826
 31
0.0
  0
LINE
  5
235D
330
2467
100
AcDbEntity
  8
DETAIL
100
AcDbLine
 10
1021.999999999806
 20
-817.0854217647827
 30
0.0
 11
1034.362929738998
 21
-817.0854217647827
 31
0.0
  0
LINE
  5
235E
330
2467
100
AcDbEntity
  8
DETAIL
100
AcDbLine
 10
1034.999999999806
 20
-818.0854217647826
 30
0.0
 11
1043.999999999808
 21
-798.7848594801975
 31
0.0
  0
LINE
  5
235F
330
2467
100
AcDbEntity
  8
DETAIL
100
AcDbLine
 10
1034.362929738998
 20
-817.0854217647827
 30
0.0
 11
1043.093692212772
 21
-798.3622412184571
 31
0.0
  0
LINE
  5
2360
330
2467
100
AcDbEntity
  8
DETAIL
100
AcDbLine
 10
1043.093692212772
 20
-798.3622412184571
 30
0.0
 11
1043.999999999808
 21
-798.7848594801975
 31
0.0
  0
ARC
  5
2361
330
2467
100
AcDbEntity
  8
DETAIL
100
AcDbCircle
 10
295.0000000000003
 20
-163.999999999997
 30
0.0
 40
600.0
100
AcDbArc
 50
0.0
 51
90.0
  0
LINE
  5
2362
330
2467
100
AcDbEntity
  8
DETAIL
100
AcDbLine
 10
127.0
 20
-779.2183151747206
 30
0.0
 11
127.6941766906784
 21
-763.2333810578052
 31
0.0
  0
LINE
  5
2363
330
2467
100
AcDbEntity
  8
NOTE
100
AcDbLine
 10
12.49999999999636
 20
200.0000000000036
 30
0.0
 11
-12.50000000000341
 21
200.0000000000036
 31
0.0
  0
LINE
  5
2364
330
2467
100
AcDbEntity
  8
NOTE
100
AcDbLine
 10
12.5
 20
-199.9999999999965
 30
0.0
 11
-12.49999999999977
 21
-199.9999999999965
 31
0.0
  0
LINE
  5
2365
330
2467
100
AcDbEntity
  8
DETAIL
100
AcDbLine
 10
105.0
 20
-435.999999999996
 30
0.0
 11
8.0
 21
-435.999999999996
 31
0.0
  0
INSERT
  5
2366
330
2467
100
AcDbEntity
  8
0
100
AcDbBlockReference
  2
*U69
 10
-0.000000000005457
 20
0.0
 30
0.0
1001
ACAD
1000
DSTYLE
1002
{
1070
    41
1040
12.0
1070
    42
1040
20.0
1070
    43
1040
200.0
1070
    44
1040
20.0
1070
    73
1070
     0
1070
    74
1070
     0
1070
    77
1070
     1
1070
    78
1070
     8
1070
   140
1040
64.0
1070
   147
1040
50.0
1070
   172
1070
     1
1070
   174
1070
     1
1070
   275
1070
     0
1070
   284
1070
     0
1070
   285
1070
     0
1070
   286
1070
     0
1070
   341
1005
0
1070
   342
1005
0
1002
}
  0
INSERT
  5
2367
330
2467
100
AcDbEntity
  8
0
100
AcDbBlockReference
  2
*U70
 10
-0.000000000005457
 20
0.0
 30
0.0
  0
LINE
  5
2368
330
2467
100
AcDbEntity
  8
NOTE
100
AcDbLine
 39
50.0
 10
-0.000000000003638
 20
462.5000000000036
 30
0.0
 11
-0.000000000003638
 21
437.5000000000036
 31
0.0
  0
LINE
  5
2369
330
2467
100
AcDbEntity
  8
NOTE
100
AcDbLine
 39
50.0
 10
-0.000000000003638
 20
262.5000000000036
 30
0.0
 11
-0.000000000003638
 21
237.5000000000036
 31
0.0
  0
LINE
  5
236A
330
2467
100
AcDbEntity
  8
NOTE
100
AcDbLine
 39
50.0
 10
-0.000000000003638
 20
212.5000000000036
 30
0.0
 11
-0.000000000003638
 21
187.5000000000033
 31
0.0
  0
LINE
  5
236B
330
2467
100
AcDbEntity
  8
NOTE
100
AcDbLine
 39
50.0
 10
0.0
 20
-187.4999999999965
 30
0.0
 11
0.0
 21
-212.4999999999966
 31
0.0
  0
LINE
  5
236C
330
2467
100
AcDbEntity
  8
NOTE
100
AcDbLine
 39
50.0
 10
0.0
 20
-237.4999999999966
 30
0.0
 11
0.0
 21
-262.4999999999966
 31
0.0
  0
LINE
  5
236D
330
2467
100
AcDbEntity
  8
NOTE
100
AcDbLine
 39
50.0
 10
0.0
 20
-437.4999999999977
 30
0.0
 11
0.0
 21
-462.4999999999977
 31
0.0
  0
LINE
  5
236E
330
2467
100
AcDbEntity
  8
OUTLINE
100
AcDbLine
 39
50.0
 10
-0.000000000003638
 20
475.0000000000036
 30
0.0
 11
0.0
 21
-474.999999999996
 31
0.0
  0
LINE
  5
236F
330
2467
100
AcDbEntity
  8
OUTLINE
100
AcDbLine
 10
1021.999999999806
 20
-818.0854217647826
 30
0.0
 11
127.0
 21
-779.2183151747206
 31
0.0
  0
LINE
  5
2370
330
2467
100
AcDbEntity
  8
OUTLINE
100
AcDbLine
 10
1022.694176690486
 20
-802.100487647867
 30
0.0
 11
127.6941766906784
 21
-763.2333810578052
 31
0.0
  0
LINE
  5
2371
330
2467
100
AcDbEntity
  8
OUTLINE
100
AcDbLine
 10
145.0000000000002
 20
-763.9849199172383
 30
0.0
 11
145.0000000000002
 21
-689.9999999999961
 31
0.0
  0
LINE
  5
2372
330
2467
100
AcDbEntity
  8
OUTLINE
100
AcDbLine
 10
894.9999999998073
 20
-689.9999999998027
 30
0.0
 11
992.2958698385192
 21
-787.2958698385181
 31
0.0
  0
LINE
  5
2373
330
2467
100
AcDbEntity
  8
OUTLINE
100
AcDbLine
 10
1006.314287925728
 20
-801.3891592874726
 30
0.0
 11
894.9999999998073
 21
-689.9999999998027
 31
0.0
  0
LINE
  5
2374
330
2467
100
AcDbEntity
  8
OUTLINE
100
AcDbLine
 10
7.999999999996362
 20
475.0000000000036
 30
0.0
 11
8.0
 21
-474.999999999996
 31
0.0
  0
LINE
  5
2375
330
2467
100
AcDbEntity
  8
OUTLINE
100
AcDbLine
 10
145.0000000000002
 20
-475.999999999996
 30
0.0
 11
105.0
 21
-435.999999999996
 31
0.0
  0
LINE
  5
2376
330
2467
100
AcDbEntity
  8
OUTLINE
100
AcDbLine
 10
145.0000000000002
 20
-475.999999999996
 30
0.0
 11
145.0000000000002
 21
-689.9999999999961
 31
0.0
  0
LINE
  5
2377
330
2467
100
AcDbEntity
  8
OUTLINE
100
AcDbLine
 10
7.999999999996362
 20
436.0000000000018
 30
0.0
 11
294.9999999999966
 21
436.0000000000025
 31
0.0
  0
LINE
  5
2378
330
2467
100
AcDbEntity
  8
OUTLINE
100
AcDbLine
 10
894.9999999999997
 20
-163.9999999999961
 30
0.0
 11
894.9999999998073
 21
-689.9999999998027
 31
0.0
  0
LINE
  5
2379
330
2467
100
AcDbEntity
  8
OUTLINE
100
AcDbLine
 10
0.0
 20
-474.999999999996
 30
0.0
 11
8.0
 21
-474.999999999996
 31
0.0
  0
LINE
  5
237A
330
2467
100
AcDbEntity
  8
OUTLINE
100
AcDbLine
 10
-0.000000000003638
 20
475.0000000000036
 30
0.0
 11
7.999999999996362
 21
475.0000000000036
 31
0.0
  0
LINE
  5
237B
330
2467
100
AcDbEntity
  8
OUTLINE
100
AcDbLine
 10
1021.999999999806
 20
-859.8402738588415
 30
0.0
 11
925.3700906705564
 21
-813.8890809986493
 31
0.0
  0
LINE
  5
237C
330
2467
100
AcDbEntity
  8
OUTLINE
100
AcDbLine
 10
145.0000000000002
 20
-689.9999999999961
 30
0.0
 11
894.9999999999997
 21
-689.999999999994
 31
0.0
  0
LINE
  5
237D
330
2467
100
AcDbEntity
  8
OUTLINE
100
AcDbLine
 10
1021.999999999806
 20
-873.9999999999941
 30
0.0
 11
1021.999999999806
 21
-818.0854217647826
 31
0.0
  0
LINE
  5
237E
330
2467
100
AcDbEntity
  8
OUTLINE
100
AcDbLine
 10
1034.999999999806
 20
-873.9999999999941
 30
0.0
 11
1034.999999999806
 21
-818.0854217647826
 31
0.0
  0
LINE
  5
237F
330
2467
100
AcDbEntity
  8
OUTLINE
100
AcDbLine
 10
1021.999999999806
 20
-873.9999999999941
 30
0.0
 11
1034.999999999806
 21
-873.9999999999941
 31
0.0
  0
LINE
  5
2380
330
2467
100
AcDbEntity
  8
OUTLINE
100
AcDbLine
 10
1021.999999999806
 20
-818.0854217647826
 30
0.0
 11
1022.708034442329
 21
-802.1010954659292
 31
0.0
  0
LINE
  5
2381
330
2467
100
AcDbEntity
  8
OUTLINE
100
AcDbLine
 10
1021.999999999806
 20
-818.0854217647826
 30
0.0
 11
1034.999999999806
 21
-818.0854217647826
 31
0.0
  0
LINE
  5
2382
330
2467
100
AcDbEntity
  8
OUTLINE
100
AcDbLine
 10
1021.999999999806
 20
-817.0854217647827
 30
0.0
 11
1034.362929738998
 21
-817.0854217647827
 31
0.0
  0
LINE
  5
2383
330
2467
100
AcDbEntity
  8
OUTLINE
100
AcDbLine
 10
1034.999999999806
 20
-818.0854217647826
 30
0.0
 11
1043.999999999808
 21
-798.7848594801975
 31
0.0
  0
LINE
  5
2384
330
2467
100
AcDbEntity
  8
OUTLINE
100
AcDbLine
 10
1034.362929738998
 20
-817.0854217647827
 30
0.0
 11
1043.093692212772
 21
-798.3622412184571
 31
0.0
  0
LINE
  5
2385
330
2467
100
AcDbEntity
  8
OUTLINE
100
AcDbLine
 10
1043.093692212772
 20
-798.3622412184571
 30
0.0
 11
1043.999999999808
 21
-798.7848594801975
 31
0.0
  0
ARC
  5
2386
330
2467
100
AcDbEntity
  8
OUTLINE
100
AcDbCircle
 10
295.0000000000003
 20
-163.999999999997
 30
0.0
 40
600.0
100
AcDbArc
 50
0.0
 51
90.0
  0
LINE
  5
2387
330
2467
100
AcDbEntity
  8
OUTLINE
100
AcDbLine
 10
127.0
 20
-779.2183151747206
 30
0.0
 11
127.6941766906784
 21
-763.2333810578052
 31
0.0
  0
LINE
  5
2388
330
2467
100
AcDbEntity
  8
OUTLINE
100
AcDbLine
 10
105.0
 20
-435.999999999996
 30
0.0
 11
8.0
 21
-435.999999999996
 31
0.0
  0
TEXT
  5
2389
330
2467
100
AcDbEntity
  8
ETC
100
AcDbText
 10
902.2914289188955
 20
765.2814945456648
 30
0.0
 40
64.0
  1
QW-80SB_5
 41
0.9
100
AcDbText
  0
TEXT
  5
238A
330
2467
100
AcDbEntity
  8
ETC
100
AcDbText
 10
894.6114289188955
 20
658.614827878998
 30
0.0
 40
64.0
  1
システム部材
 41
0.9
100
AcDbText
  0
TEXT
  5
238B
330
2467
100
AcDbEntity
  8
ETC
100
AcDbText
 10
902.2914289188955
 20
551.9481612123314
 30
0.0
 40
64.0
  1
QW-80SB
 41
0.9
100
AcDbText
  0
LINE
  5
238C
330
2467
100
AcDbEntity
  8
SIZE
100
AcDbLine
 10
7.999999999996588
 20
495.0000000000036
 30
0.0
 11
7.999999999996588
 21
583.2207906991389
 31
0.0
  0
LINE
  5
238D
330
2467
100
AcDbEntity
  8
SIZE
100
AcDbLine
 10
-0.0000000000034106
 20
495.0000000000036
 30
0.0
 11
-0.0000000000034106
 21
583.2207906991389
 31
0.0
  0
LINE
  5
238E
330
2467
100
AcDbEntity
  8
SIZE
100
AcDbLine
 10
19.99999999999658
 20
563.2207906991387
 30
0.0
 11
31.99999999999659
 21
563.2207906991387
 31
0.0
  0
LINE
  5
238F
330
2467
100
AcDbEntity
  8
SIZE
100
AcDbLine
 10
-12.00000000000341
 20
563.2207906991387
 30
0.0
 11
-82.4000000000035
 21
563.2207906991387
 31
0.0
  0
INSERT
  5
2390
330
2467
100
AcDbEntity
  8
SIZE
100
AcDbBlockReference
  2
_DOTBLANK
 10
7.999999999996588
 20
563.2207906991387
 30
0.0
 41
12.0
 42
12.0
 43
12.0
 50
180.0
  0
INSERT
  5
2391
330
2467
100
AcDbEntity
  8
SIZE
100
AcDbBlockReference
  2
_DOTBLANK
 10
-0.0000000000034106
 20
563.2207906991387
 30
0.0
 41
12.0
 42
12.0
 43
12.0
  0
LINE
  5
2392
330
2467
100
AcDbEntity
  8
SIZE
100
AcDbLine
 10
27.99999999999659
 20
475.0000000000036
 30
0.0
 11
1358.325583614151
 21
475.0000000000031
 31
0.0
  0
LINE
  5
2393
330
2467
100
AcDbEntity
  8
SIZE
100
AcDbLine
 10
1054.999999999806
 20
-873.9999999999941
 30
0.0
 11
1358.325583614151
 21
-873.9999999999945
 31
0.0
  0
LINE
  5
2394
330
2467
100
AcDbEntity
  8
SIZE
100
AcDbLine
 10
1338.32558361415
 20
463.000000000003
 30
0.0
 11
1338.32558361415
 21
-861.9999999999944
 31
0.0
  0
INSERT
  5
2395
330
2467
100
AcDbEntity
  8
SIZE
100
AcDbBlockReference
  2
_DOTBLANK
 10
1338.32558361415
 20
475.0000000000031
 30
0.0
 41
12.0
 42
12.0
 43
12.0
 50
90.0
  0
INSERT
  5
2396
330
2467
100
AcDbEntity
  8
SIZE
100
AcDbBlockReference
  2
_DOTBLANK
 10
1338.32558361415
 20
-873.9999999999945
 30
0.0
 41
12.0
 42
12.0
 43
12.0
 50
270.0
  0
LINE
  5
2397
330
2467
100
AcDbEntity
  8
SIZE
100
AcDbLine
 10
-20.00000000000341
 20
435.0000000000036
 30
0.0
 11
-521.8610281692486
 21
435.0000000000036
 31
0.0
  0
LINE
  5
2398
330
2467
100
AcDbEntity
  8
SIZE
100
AcDbLine
 10
-19.99999999999976
 20
-434.999999999996
 30
0.0
 11
-521.8610281692487
 21
-434.9999999999956
 31
0.0
  0
LINE
  5
2399
330
2467
100
AcDbEntity
  8
SIZE
100
AcDbLine
 10
-501.8610281692486
 20
423.0000000000036
 30
0.0
 11
-501.8610281692486
 21
-422.9999999999959
 31
0.0
  0
INSERT
  5
239A
330
2467
100
AcDbEntity
  8
SIZE
100
AcDbBlockReference
  2
_DOTBLANK
 10
-501.8610281692486
 20
435.0000000000036
 30
0.0
 41
12.0
 42
12.0
 43
12.0
 50
90.0
  0
INSERT
  5
239B
330
2467
100
AcDbEntity
  8
SIZE
100
AcDbBlockReference
  2
_DOTBLANK
 10
-501.8610281692486
 20
-434.9999999999956
 30
0.0
 41
12.0
 42
12.0
 43
12.0
 50
270.0
  0
LINE
  5
239C
330
2467
100
AcDbEntity
  8
SIZE
100
AcDbLine
 10
-32.50000000000364
 20
250.0000000000036
 30
0.0
 11
-378.7984451891314
 21
250.0000000000039
 31
0.0
  0
LINE
  5
239D
330
2467
100
AcDbEntity
  8
SIZE
100
AcDbLine
 10
-32.5
 20
-249.9999999999966
 30
0.0
 11
-378.7984451891314
 21
-249.9999999999965
 31
0.0
  0
LINE
  5
239E
330
2467
100
AcDbEntity
  8
SIZE
100
AcDbLine
 10
-358.7984451891315
 20
238.0000000000038
 30
0.0
 11
-358.7984451891315
 21
-237.9999999999965
 31
0.0
  0
INSERT
  5
239F
330
2467
100
AcDbEntity
  8
SIZE
100
AcDbBlockReference
  2
_DOTBLANK
 10
-358.7984451891315
 20
250.0000000000039
 30
0.0
 41
12.0
 42
12.0
 43
12.0
 50
90.0
  0
INSERT
  5
23A0
330
2467
100
AcDbEntity
  8
SIZE
100
AcDbBlockReference
  2
_DOTBLANK
 10
-358.7984451891315
 20
-249.9999999999965
 30
0.0
 41
12.0
 42
12.0
 43
12.0
 50
270.0
  0
LINE
  5
23A1
330
2467
100
AcDbEntity
  8
SIZE
100
AcDbLine
 10
-32.50000000000364
 20
200.0000000000036
 30
0.0
 11
-229.9260780401197
 21
200.0000000000036
 31
0.0
  0
LINE
  5
23A2
330
2467
100
AcDbEntity
  8
SIZE
100
AcDbLine
 10
-32.5
 20
-199.9999999999965
 30
0.0
 11
-229.9260780401197
 21
-199.9999999999964
 31
0.0
  0
LINE
  5
23A3
330
2467
100
AcDbEntity
  8
SIZE
100
AcDbLine
 10
-209.9260780401198
 20
188.0000000000036
 30
0.0
 11
-209.9260780401198
 21
-187.9999999999965
 31
0.0
  0
INSERT
  5
23A4
330
2467
100
AcDbEntity
  8
SIZE
100
AcDbBlockReference
  2
_DOTBLANK
 10
-209.9260780401198
 20
200.0000000000036
 30
0.0
 41
12.0
 42
12.0
 43
12.0
 50
90.0
  0
INSERT
  5
23A5
330
2467
100
AcDbEntity
  8
SIZE
100
AcDbBlockReference
  2
_DOTBLANK
 10
-209.9260780401198
 20
-199.9999999999964
 30
0.0
 41
12.0
 42
12.0
 43
12.0
 50
270.0
  0
LINE
  5
23A6
330
2467
100
AcDbEntity
  8
SIZE
100
AcDbLine
 10
-20.00000000000341
 20
475.0000000000036
 30
0.0
 11
-772.9748410624416
 21
475.0000000000039
 31
0.0
  0
LINE
  5
23A7
330
2467
100
AcDbEntity
  8
SIZE
100
AcDbLine
 10
-20.00000000000341
 20
-474.999999999996
 30
0.0
 11
-772.9748410624416
 21
-474.999999999996
 31
0.0
  0
LINE
  5
23A8
330
2467
100
AcDbEntity
  8
SIZE
100
AcDbLine
 10
-752.9748410624412
 20
463.0000000000038
 30
0.0
 11
-752.9748410624415
 21
-462.9999999999959
 31
0.0
  0
INSERT
  5
23A9
330
2467
100
AcDbEntity
  8
SIZE
100
AcDbBlockReference
  2
_DOTBLANK
 10
-752.9748410624412
 20
475.0000000000039
 30
0.0
 41
12.0
 42
12.0
 43
12.0
 50
90.0
  0
INSERT
  5
23AA
330
2467
100
AcDbEntity
  8
SIZE
100
AcDbBlockReference
  2
_DOTBLANK
 10
-752.9748410624415
 20
-474.999999999996
 30
0.0
 41
12.0
 42
12.0
 43
12.0
 50
270.0
  0
LINE
  5
23AB
330
2467
100
AcDbEntity
  8
SIZE
100
AcDbLine
 10
-32.50000000000364
 20
450.0000000000036
 30
0.0
 11
-650.0765866682156
 21
450.0000000000039
 31
0.0
  0
LINE
  5
23AC
330
2467
100
AcDbEntity
  8
SIZE
100
AcDbLine
 10
-32.5
 20
-449.9999999999977
 30
0.0
 11
-650.0765866682161
 21
-449.9999999999977
 31
0.0
  0
LINE
  5
23AD
330
2467
100
AcDbEntity
  8
SIZE
100
AcDbLine
 10
-630.0765866682156
 20
438.0000000000038
 30
0.0
 11
-630.0765866682161
 21
-437.9999999999977
 31
0.0
  0
INSERT
  5
23AE
330
2467
100
AcDbEntity
  8
SIZE
100
AcDbBlockReference
  2
_DOTBLANK
 10
-630.0765866682156
 20
450.0000000000039
 30
0.0
 41
12.0
 42
12.0
 43
12.0
 50
90.0
  0
INSERT
  5
23AF
330
2467
100
AcDbEntity
  8
SIZE
100
AcDbBlockReference
  2
_DOTBLANK
 10
-630.0765866682161
 20
-449.9999999999977
 30
0.0
 41
12.0
 42
12.0
 43
12.0
 50
270.0
  0
LINE
  5
23B0
330
2467
100
AcDbEntity
  8
SIZE
100
AcDbLine
 10
1021.999999999806
 20
-893.9999999999942
 30
0.0
 11
1021.999999999806
 21
-1168.893352571213
 31
0.0
  0
LINE
  5
23B1
330
2467
100
AcDbEntity
  8
SIZE
100
AcDbLine
 10
0.0
 20
-494.999999999996
 30
0.0
 11
0.0
 21
-1168.893352571213
 31
0.0
  0
LINE
  5
23B2
330
2467
100
AcDbEntity
  8
SIZE
100
AcDbLine
 10
1009.999999999807
 20
-1148.893352571213
 30
0.0
 11
12.0
 21
-1148.893352571213
 31
0.0
  0
INSERT
  5
23B3
330
2467
100
AcDbEntity
  8
SIZE
100
AcDbBlockReference
  2
_DOTBLANK
 10
1021.999999999806
 20
-1148.893352571213
 30
0.0
 41
12.0
 42
12.0
 43
12.0
  0
INSERT
  5
23B4
330
2467
100
AcDbEntity
  8
SIZE
100
AcDbBlockReference
  2
_DOTBLANK
 10
0.0
 20
-1148.893352571213
 30
0.0
 41
12.0
 42
12.0
 43
12.0
 50
180.0
  0
LINE
  5
23B5
330
2467
100
AcDbEntity
  8
SIZE
100
AcDbLine
 10
-19.99999999999976
 20
-434.999999999996
 30
0.0
 11
-521.8610281692487
 21
-434.9999999999956
 31
0.0
  0
LINE
  5
23B6
330
2467
100
AcDbEntity
  8
SIZE
100
AcDbLine
 10
125.0
 20
-779.9999999999961
 30
0.0
 11
-521.8610281692491
 21
-779.999999999996
 31
0.0
  0
LINE
  5
23B7
330
2467
100
AcDbEntity
  8
SIZE
100
AcDbLine
 10
-501.8610281692489
 20
-446.9999999999956
 30
0.0
 11
-501.8610281692489
 21
-767.999999999996
 31
0.0
  0
INSERT
  5
23B8
330
2467
100
AcDbEntity
  8
SIZE
100
AcDbBlockReference
  2
_DOTBLANK
 10
-501.8610281692489
 20
-434.9999999999956
 30
0.0
 41
12.0
 42
12.0
 43
12.0
 50
90.0
  0
INSERT
  5
23B9
330
2467
100
AcDbEntity
  8
SIZE
100
AcDbBlockReference
  2
_DOTBLANK
 10
-501.8610281692489
 20
-779.999999999996
 30
0.0
 41
12.0
 42
12.0
 43
12.0
 50
270.0
  0
LINE
  5
23BA
330
2467
100
AcDbEntity
  8
SIZE
100
AcDbLine
 10
127.0
 20
-799.2183151747206
 30
0.0
 11
127.0
 21
-1053.365860590537
 31
0.0
  0
LINE
  5
23BB
330
2467
100
AcDbEntity
  8
SIZE
100
AcDbLine
 10
0.0
 20
-494.9999999999969
 30
0.0
 11
0.0
 21
-1053.365860590537
 31
0.0
  0
LINE
  5
23BC
330
2467
100
AcDbEntity
  8
SIZE
100
AcDbLine
 10
115.0
 20
-1033.365860590537
 30
0.0
 11
12.0
 21
-1033.365860590537
 31
0.0
  0
LINE
  5
23BD
330
2467
100
AcDbEntity
  8
SIZE
100
AcDbLine
 10
0.0
 20
-1033.365860590537
 30
0.0
 11
-248.2857142857149
 21
-1033.365860590537
 31
0.0
  0
INSERT
  5
23BE
330
2467
100
AcDbEntity
  8
SIZE
100
AcDbBlockReference
  2
_DOTBLANK
 10
127.0
 20
-1033.365860590537
 30
0.0
 41
12.0
 42
12.0
 43
12.0
  0
INSERT
  5
23BF
330
2467
100
AcDbEntity
  8
SIZE
100
AcDbBlockReference
  2
_DOTBLANK
 10
0.0
 20
-1033.365860590537
 30
0.0
 41
12.0
 42
12.0
 43
12.0
 50
180.0
  0
LINE
  5
23C0
330
2467
100
AcDbEntity
  8
SIZE
100
AcDbLine
 10
145.0000000000002
 20
-799.9999999999954
 30
0.0
 11
145.0000000000002
 21
-1053.365860590537
 31
0.0
  0
LINE
  5
23C1
330
2467
100
AcDbEntity
  8
SIZE
100
AcDbLine
 10
1021.999999999806
 20
-893.9999999999942
 30
0.0
 11
1021.999999999806
 21
-1053.365860590537
 31
0.0
  0
LINE
  5
23C2
330
2467
100
AcDbEntity
  8
SIZE
100
AcDbLine
 10
157.0000000000002
 20
-1033.365860590537
 30
0.0
 11
1009.999999999807
 21
-1033.365860590537
 31
0.0
  0
INSERT
  5
23C3
330
2467
100
AcDbEntity
  8
SIZE
100
AcDbBlockReference
  2
_DOTBLANK
 10
145.0000000000002
 20
-1033.365860590537
 30
0.0
 41
12.0
 42
12.0
 43
12.0
 50
180.0
  0
INSERT
  5
23C4
330
2467
100
AcDbEntity
  8
SIZE
100
AcDbBlockReference
  2
_DOTBLANK
 10
1021.999999999806
 20
-1033.365860590537
 30
0.0
 41
12.0
 42
12.0
 43
12.0
  0
LINE
  5
23C5
330
2467
100
AcDbEntity
  8
SIZE
100
AcDbLine
 10
1021.999999999806
 20
-893.9999999999942
 30
0.0
 11
1021.999999999806
 21
-1168.893352571213
 31
0.0
  0
LINE
  5
23C6
330
2467
100
AcDbEntity
  8
SIZE
100
AcDbLine
 10
1043.999999999808
 20
-818.7848594801971
 30
0.0
 11
1043.999999999808
 21
-1168.893352571213
 31
0.0
  0
LINE
  5
23C7
330
2467
100
AcDbEntity
  8
SIZE
100
AcDbLine
 10
1009.999999999807
 20
-1148.893352571213
 30
0.0
 11
997.9999999998074
 21
-1148.893352571213
 31
0.0
  0
LINE
  5
23C8
330
2467
100
AcDbEntity
  8
SIZE
100
AcDbLine
 10
1055.999999999806
 20
-1148.893352571213
 30
0.0
 11
1269.795222377478
 21
-1148.893352571213
 31
0.0
  0
LINE
  5
23C9
330
2467
100
AcDbEntity
  8
SIZE
100
AcDbLine
 10
1021.999999999806
 20
-1148.893352571213
 30
0.0
 11
1043.999999999808
 21
-1148.893352571213
 31
0.0
  0
INSERT
  5
23CA
330
2467
100
AcDbEntity
  8
SIZE
100
AcDbBlockReference
  2
_DOTBLANK
 10
1021.999999999806
 20
-1148.893352571213
 30
0.0
 41
12.0
 42
12.0
 43
12.0
  0
INSERT
  5
23CB
330
2467
100
AcDbEntity
  8
SIZE
100
AcDbBlockReference
  2
_DOTBLANK
 10
1043.999999999808
 20
-1148.893352571213
 30
0.0
 41
12.0
 42
12.0
 43
12.0
 50
180.0
  0
TEXT
  5
23CC
330
2467
100
AcDbEntity
  8
SIZE
100
AcDbText
 10
-72.4000000000035
 20
573.2207906991384
 30
0.0
 40
64.0
  1
8
 41
0.9
100
AcDbText
  0
TEXT
  5
23CD
330
2467
100
AcDbEntity
  8
SIZE
100
AcDbText
 10
-219.9260780401197
 20
-74.0571428571393
 30
0.0
 40
64.0
  1
400
 50
90.0
 41
0.9
100
AcDbText
  0
TEXT
  5
23CE
330
2467
100
AcDbEntity
  8
SIZE
100
AcDbText
 10
-368.7984451891314
 20
-74.0571428571393
 30
0.0
 40
64.0
  1
500
 50
90.0
 41
0.9
100
AcDbText
  0
TEXT
  5
23CF
330
2467
100
AcDbEntity
  8
SIZE
100
AcDbText
 10
-511.8610281692488
 20
-74.05714285713907
 30
0.0
 40
64.0
  1
870
 50
90.0
 41
0.9
100
AcDbText
  0
TEXT
  5
23D0
330
2467
100
AcDbEntity
  8
SIZE
100
AcDbText
 10
-640.0765866682156
 20
-74.0571428571393
 30
0.0
 40
64.0
  1
900
 50
90.0
 41
0.9
100
AcDbText
  0
TEXT
  5
23D1
330
2467
100
AcDbEntity
  8
SIZE
100
AcDbText
 10
-762.9748410624415
 20
-74.0571428571393
 30
0.0
 40
64.0
  1
950
 50
90.0
 41
0.9
100
AcDbText
  0
TEXT
  5
23D2
330
2467
100
AcDbEntity
  8
SIZE
100
AcDbText
 10
1328.32558361415
 20
-294.1285714285667
 30
0.0
 40
64.0
  1
1349
 50
90.0
 41
0.9
100
AcDbText
  0
TEXT
  5
23D3
330
2467
100
AcDbEntity
  8
SIZE
100
AcDbText
 10
1166.538079520335
 20
-1138.893352571213
 30
0.0
 40
64.0
  1
22
 41
0.9
100
AcDbText
  0
TEXT
  5
23D4
330
2467
100
AcDbEntity
  8
SIZE
100
AcDbText
 10
509.4428571427625
 20
-1023.365860590537
 30
0.0
 40
64.0
  1
877
 41
0.9
100
AcDbText
  0
TEXT
  5
23D5
330
2467
100
AcDbEntity
  8
SIZE
100
AcDbText
 10
414.9999999999056
 20
-1138.893352571213
 30
0.0
 40
64.0
  1
1022
 41
0.9
100
AcDbText
  0
TEXT
  5
23D6
330
2467
100
AcDbEntity
  8
SIZE
100
AcDbText
 10
-238.2857142857149
 20
-1023.365860590537
 30
0.0
 40
64.0
  1
127
 41
0.9
100
AcDbText
  0
TEXT
  5
23D7
330
2467
100
AcDbEntity
  8
SIZE
100
AcDbText
 10
-511.8610281692488
 20
-681.5571428571394
 30
0.0
 40
64.0
  1
345
 50
90.0
 41
0.9
100
AcDbText
  0
ENDSEC
  0
SECTION
  2
OBJECTS
  0
DICTIONARY
  5
23FF
330
0
100
AcDbDictionary
281
     1
  3
ACAD_2007HEADERVARS_RT
350
264E
  3
ACAD_COLOR
350
245D
  3
ACAD_GROUP
350
2400
  3
ACAD_LAYOUT
350
245C
  3
ACAD_MATERIAL
350
2403
  3
ACAD_MLEADERSTYLE
350
2460
  3
ACAD_MLINESTYLE
350
2459
  3
ACAD_PLOTSETTINGS
350
245B
  3
ACAD_PLOTSTYLENAME
350
2401
  3
ACAD_SCALELIST
350
242D
  3
ACAD_TABLESTYLE
350
245E
  3
ACAD_VISUALSTYLE
350
241C
  3
ACDB_RECOMPOSE_DATA
350
264C
  3
AcDbVariableDictionary
350
2643
  3
AcmDictionary
350
25EF
  3
AMG
350
253C
  3
AMGSNAPSETTINGS
350
2617
  3
DWGPROPS
350
264D
  3
MAPISURF_MODULE
350
25BC
  0
DICTIONARY
  5
261E
330
244F
100
AcDbDictionary
280
     1
281
     1
  3
ADSK_XREC_LAYER_RECONCILED
360
261F
  0
DICTIONARY
  5
2620
330
247E
100
AcDbDictionary
280
     1
281
     1
  3
ADSK_XREC_LAYER_RECONCILED
360
2621
  0
DICTIONARY
  5
2622
330
247F
100
AcDbDictionary
280
     1
281
     1
  3
ADSK_XREC_LAYER_RECONCILED
360
2623
  0
DICTIONARY
  5
2624
330
2480
100
AcDbDictionary
280
     1
281
     1
  3
ADSK_XREC_LAYER_RECONCILED
360
2625
  0
DICTIONARY
  5
2626
330
2481
100
AcDbDictionary
280
     1
281
     1
  3
ADSK_XREC_LAYER_RECONCILED
360
2627
  0
DICTIONARY
  5
2628
330
2482
100
AcDbDictionary
280
     1
281
     1
  3
ADSK_XREC_LAYER_RECONCILED
360
2629
  0
DICTIONARY
  5
262A
330
2484
100
AcDbDictionary
280
     1
281
     1
  3
ADSK_XREC_LAYER_RECONCILED
360
262B
  0
DICTIONARY
  5
262C
330
2485
100
AcDbDictionary
280
     1
281
     1
  3
ADSK_XREC_LAYER_RECONCILED
360
262D
  0
DICTIONARY
  5
262E
330
2486
100
AcDbDictionary
280
     1
281
     1
  3
ADSK_XREC_LAYER_RECONCILED
360
262F
  0
DICTIONARY
  5
2630
330
2487
100
AcDbDictionary
280
     1
281
     1
  3
ADSK_XREC_LAYER_RECONCILED
360
2631
  0
DICTIONARY
  5
2632
330
2488
100
AcDbDictionary
280
     1
281
     1
  3
ADSK_XREC_LAYER_RECONCILED
360
2633
  0
DICTIONARY
  5
2634
330
2467
100
AcDbDictionary
280
     1
281
     1
  3
ACAD_INDEX
360
2635
  0
DICTIONARY
  5
264E
102
{ACAD_REACTORS
330
23FF
102
}
330
23FF
100
AcDbDictionary
281
     1
  3
DIMARCSYM
350
264F
  3
DIMLTEX1
350
2651
  3
DIMLTEX2
350
2652
  3
DIMLTYPE
350
2650
  0
DICTIONARY
  5
245D
102
{ACAD_REACTORS
330
23FF
102
}
330
23FF
100
AcDbDictionary
281
     1
  0
DICTIONARY
  5
2400
102
{ACAD_REACTORS
330
23FF
102
}
330
23FF
100
AcDbDictionary
281
     1
  0
DICTIONARY
  5
245C
102
{ACAD_REACTORS
330
23FF
102
}
330
23FF
100
AcDbDictionary
281
     1
  3
Model
350
246A
  3
レイアウト1
350
2466
  0
DICTIONARY
  5
2403
102
{ACAD_REACTORS
330
23FF
102
}
330
23FF
100
AcDbDictionary
281
     1
  3
ByBlock
350
240C
  3
ByLayer
350
2404
  3
Global
350
2414
  0
DICTIONARY
  5
2460
102
{ACAD_REACTORS
330
23FF
102
}
330
23FF
100
AcDbDictionary
281
     1
  3
Standard
350
2461
  0
DICTIONARY
  5
2459
102
{ACAD_REACTORS
330
23FF
102
}
330
23FF
100
AcDbDictionary
281
     1
  3
Standard
350
245A
  0
DICTIONARY
  5
245B
102
{ACAD_REACTORS
330
23FF
102
}
330
23FF
100
AcDbDictionary
281
     1
  0
ACDBDICTIONARYWDFLT
  5
2401
102
{ACAD_REACTORS
330
23FF
102
}
330
23FF
100
AcDbDictionary
281
     1
  3
Normal
350
2402
100
AcDbDictionaryWithDefault
340
2402
  0
DICTIONARY
  5
242D
102
{ACAD_REACTORS
330
23FF
102
}
330
23FF
100
AcDbDictionary
281
     1
  3
A0
350
242E
  3
A1
350
242F
  3
A2
350
2430
  3
A3
350
2431
  3
A4
350
2432
  3
A5
350
2433
  3
A6
350
2434
  3
A7
350
2435
  3
A8
350
2436
  3
A9
350
2437
  3
B0
350
2438
  3
B1
350
2439
  3
B2
350
243A
  3
B3
350
243B
  3
B4
350
243C
  3
B5
350
243D
  3
B6
350
243E
  3
B7
350
243F
  3
B8
350
2440
  3
B9
350
2441
  3
C0
350
2442
  3
C1
350
2443
  3
C2
350
2444
  3
C3
350
2445
  3
C4
350
2446
  3
C5
350
2447
  3
C6
350
2448
  3
C7
350
2449
  3
C8
350
244A
  3
C9
350
244B
  3
D0
350
244C
  3
D1
350
244D
  3
D2
350
244E
  0
DICTIONARY
  5
245E
102
{ACAD_REACTORS
330
23FF
102
}
330
23FF
100
AcDbDictionary
281
     1
  3
Standard
350
245F
  0
DICTIONARY
  5
241C
102
{ACAD_REACTORS
330
23FF
102
}
330
23FF
100
AcDbDictionary
281
     1
  3
2dWireframe
350
2422
  3
3D Hidden
350
2424
  3
3dWireframe
350
2423
  3
Basic
350
2421
  3
Brighten
350
2428
  3
ColorChange
350
242C
  3
Conceptual
350
2425
  3
Dim
350
2427
  3
Facepattern
350
242B
  3
Flat
350
241D
  3
FlatWithEdges
350
241E
  3
Gouraud
350
241F
  3
GouraudWithEdges
350
2420
  3
Linepattern
350
242A
  3
Realistic
350
2426
  3
Thicken
350
2429
  0
XRECORD
  5
264C
102
{ACAD_REACTORS
330
23FF
102
}
330
23FF
100
AcDbXrecord
280
     1
 90
        1
330
245F
  0
DICTIONARY
  5
2643
102
{ACAD_REACTORS
330
23FF
102
}
330
23FF
100
AcDbDictionary
281
     1
  3
CANNOSCALE
350
2646
  3
CMLEADERSTYLE
350
2645
  3
CTABLESTYLE
350
2644
  3
DIMASSOC
350
2649
  3
INDEXCTL
350
2648
  3
SORTENTS
350
2647
  0
DICTIONARY
  5
25EF
102
{ACAD_REACTORS
330
23FF
102
}
330
23FF
100
AcDbDictionary
281
     1
  3
AcmStdDictionary
350
25FD
  0
DICTIONARY
  5
253C
102
{ACAD_REACTORS
330
23FF
102
}
330
23FF
100
AcDbDictionary
281
     1
  3
AcMgSettings
350
253D
  0
DICTIONARY
  5
2617
102
{ACAD_REACTORS
330
23FF
102
}
330
23FF
100
AcDbDictionary
281
     1
  3
DIMENSION
350
261C
  3
FEA
350
261B
  3
HATCH (1)
350
2618
  3
HATCH (2)
350
2619
  3
SIMPLE WELD
350
261D
  3
SYMBOLS
350
261A
  0
XRECORD
  5
264D
102
{ACAD_REACTORS
330
23FF
102
}
330
23FF
100
AcDbXrecord
280
     1
  1
DWGPROPS COOKIE
  2

  3

  4

  6

  7

  8
A090053
  9

300
AmdtFileType=84
301
=
302
=
303
=
304
=
305
=
306
=
307
=
308
=
309
=
 40
1.038866516203703
 41
2452321.396199653
 42
2456211.591452165
  1

 90
        1
  0
XRECORD
  5
261F
102
{ACAD_REACTORS
330
261E
102
}
330
261E
100
AcDbXrecord
280
     1
290
     1
  0
XRECORD
  5
2621
102
{ACAD_REACTORS
330
2620
102
}
330
2620
100
AcDbXrecord
280
     1
290
     1
  0
XRECORD
  5
2623
102
{ACAD_REACTORS
330
2622
102
}
330
2622
100
AcDbXrecord
280
     1
290
     1
  0
XRECORD
  5
2625
102
{ACAD_REACTORS
330
2624
102
}
330
2624
100
AcDbXrecord
280
     1
290
     1
  0
XRECORD
  5
2627
102
{ACAD_REACTORS
330
2626
102
}
330
2626
100
AcDbXrecord
280
     1
290
     1
  0
XRECORD
  5
2629
102
{ACAD_REACTORS
330
2628
102
}
330
2628
100
AcDbXrecord
280
     1
290
     1
  0
XRECORD
  5
262B
102
{ACAD_REACTORS
330
262A
102
}
330
262A
100
AcDbXrecord
280
     1
290
     1
  0
XRECORD
  5
262D
102
{ACAD_REACTORS
330
262C
102
}
330
262C
100
AcDbXrecord
280
     1
290
     1
  0
XRECORD
  5
262F
102
{ACAD_REACTORS
330
262E
102
}
330
262E
100
AcDbXrecord
280
     1
290
     1
  0
XRECORD
  5
2631
102
{ACAD_REACTORS
330
2630
102
}
330
2630
100
AcDbXrecord
280
     1
290
     1
  0
XRECORD
  5
2633
102
{ACAD_REACTORS
330
2632
102
}
330
2632
100
AcDbXrecord
280
     1
290
     1
  0
DICTIONARY
  5
2635
102
{ACAD_REACTORS
330
2634
102
}
330
2634
100
AcDbDictionary
281
     1
  3
*A1
350
2636
  0
XRECORD
  5
264F
102
{ACAD_REACTORS
330
264E
102
}
330
264E
100
AcDbXrecord
280
     1
 70
     1
  0
XRECORD
  5
2651
102
{ACAD_REACTORS
330
264E
102
}
330
264E
100
AcDbXrecord
280
     1
340
2455
  0
XRECORD
  5
2652
102
{ACAD_REACTORS
330
264E
102
}
330
264E
100
AcDbXrecord
280
     1
340
2455
  0
XRECORD
  5
2650
102
{ACAD_REACTORS
330
264E
102
}
330
264E
100
AcDbXrecord
280
     1
340
2455
  0
LAYOUT
  5
246A
102
{ACAD_XDICTIONARY
360
2659
102
}
102
{ACAD_REACTORS
330
245C
102
}
330
245C
100
AcDbPlotSettings
  1

  2
自動 EPSON LP-9600S (W2450527 上)
  4

  6

 40
0.0
 41
0.0
 42
0.0
 43
0.0
 44
0.0
 45
0.0
 46
0.0
 47
0.0
 48
0.0
 49
0.0
140
0.0
141
0.0
142
1.0
143
1.0
 70
  1712
 72
     0
 73
     0
 74
     0
  7

 75
     0
147
1.0
148
0.0
149
0.0
100
AcDbLayout
  1
Model
 70
     1
 71
     0
 10
0.0
 20
0.0
 11
12.0
 21
9.0
 12
0.0
 22
0.0
 32
0.0
 14
0.0
 24
0.0
 34
0.0
 15
0.0
 25
0.0
 35
0.0
146
0.0
 13
0.0
 23
0.0
 33
0.0
 16
1.0
 26
0.0
 36
0.0
 17
0.0
 27
1.0
 37
0.0
 76
     0
330
2467
331
246B
  0
LAYOUT
  5
2466
102
{ACAD_XDICTIONARY
360
2657
102
}
102
{ACAD_REACTORS
330
245C
102
}
330
245C
100
AcDbPlotSettings
  1

  2
自動 EPSON LP-9600S (W2450527 上)
  4

  6

 40
0.0
 41
0.0
 42
0.0
 43
0.0
 44
0.0
 45
0.0
 46
0.0
 47
0.0
 48
0.0
 49
0.0
140
0.0
141
0.0
142
1.0
143
1.0
 70
   688
 72
     0
 73
     0
 74
     5
  7

 75
    16
147
1.0
148
0.0
149
0.0
100
AcDbLayout
  1
レイアウト1
 70
     1
 71
     1
 10
0.0
 20
0.0
 11
12.0
 21
9.0
 12
0.0
 22
0.0
 32
0.0
 14
1.000000000000000E+20
 24
1.000000000000000E+20
 34
1.000000000000000E+20
 15
-1.000000000000000E+20
 25
-1.000000000000000E+20
 35
-1.000000000000000E+20
146
0.0
 13
0.0
 23
0.0
 33
0.0
 16
1.0
 26
0.0
 36
0.0
 17
0.0
 27
1.0
 37
0.0
 76
     0
330
2463
  0
MATERIAL
  5
240C
102
{ACAD_XDICTIONARY
360
240D
102
}
102
{ACAD_REACTORS
330
2403
102
}
330
2403
100
AcDbMaterial
  1
ByBlock
 72
     0
 43
0.0208333333333333
 43
0.0
 43
0.0
 43
0.0
 43
0.0
 43
0.0208333333333333
 43
0.0
 43
0.0
 43
0.0
 43
0.0
 43
1.0
 43
0.0
 43
0.0
 43
0.0
 43
0.0
 43
1.0
 77
     0
 47
0.0208333333333333
 47
0.0
 47
0.0
 47
0.0
 47
0.0
 47
0.0208333333333333
 47
0.0
 47
0.0
 47
0.0
 47
0.0
 47
1.0
 47
0.0
 47
0.0
 47
0.0
 47
0.0
 47
1.0
171
     0
 49
0.0208333333333333
 49
0.0
 49
0.0
 49
0.0
 49
0.0
 49
0.0208333333333333
 49
0.0
 49
0.0
 49
0.0
 49
0.0
 49
1.0
 49
0.0
 49
0.0
 49
0.0
 49
0.0
 49
1.0
175
     0
142
0.0208333333333333
142
0.0
142
0.0
142
0.0
142
0.0
142
0.0208333333333333
142
0.0
142
0.0
142
0.0
142
0.0
142
1.0
142
0.0
142
0.0
142
0.0
142
0.0
142
1.0
179
     0
144
0.0208333333333333
144
0.0
144
0.0
144
0.0
144
0.0
144
0.0208333333333333
144
0.0
144
0.0
144
0.0
144
0.0
144
1.0
144
0.0
144
0.0
144
0.0
144
0.0
144
1.0
147
0.0208333333333333
147
0.0
147
0.0
147
0.0
147
0.0
147
0.0208333333333333
147
0.0
147
0.0
147
0.0
147
0.0
147
1.0
147
0.0
147
0.0
147
0.0
147
0.0
147
1.0
  0
MATERIAL
  5
2404
102
{ACAD_XDICTIONARY
360
2405
102
}
102
{ACAD_REACTORS
330
2403
102
}
330
2403
100
AcDbMaterial
  1
ByLayer
 72
     0
 43
0.0208333333333333
 43
0.0
 43
0.0
 43
0.0
 43
0.0
 43
0.0208333333333333
 43
0.0
 43
0.0
 43
0.0
 43
0.0
 43
1.0
 43
0.0
 43
0.0
 43
0.0
 43
0.0
 43
1.0
 77
     0
 47
0.0208333333333333
 47
0.0
 47
0.0
 47
0.0
 47
0.0
 47
0.0208333333333333
 47
0.0
 47
0.0
 47
0.0
 47
0.0
 47
1.0
 47
0.0
 47
0.0
 47
0.0
 47
0.0
 47
1.0
171
     0
 49
0.0208333333333333
 49
0.0
 49
0.0
 49
0.0
 49
0.0
 49
0.0208333333333333
 49
0.0
 49
0.0
 49
0.0
 49
0.0
 49
1.0
 49
0.0
 49
0.0
 49
0.0
 49
0.0
 49
1.0
175
     0
142
0.0208333333333333
142
0.0
142
0.0
142
0.0
142
0.0
142
0.0208333333333333
142
0.0
142
0.0
142
0.0
142
0.0
142
1.0
142
0.0
142
0.0
142
0.0
142
0.0
142
1.0
179
     0
144
0.0208333333333333
144
0.0
144
0.0
144
0.0
144
0.0
144
0.0208333333333333
144
0.0
144
0.0
144
0.0
144
0.0
144
1.0
144
0.0
144
0.0
144
0.0
144
0.0
144
1.0
147
0.0208333333333333
147
0.0
147
0.0
147
0.0
147
0.0
147
0.0208333333333333
147
0.0
147
0.0
147
0.0
147
0.0
147
1.0
147
0.0
147
0.0
147
0.0
147
0.0
147
1.0
  0
MATERIAL
  5
2414
102
{ACAD_XDICTIONARY
360
2415
102
}
102
{ACAD_REACTORS
330
2403
102
}
330
2403
100
AcDbMaterial
  1
Global
 72
     0
 43
0.0208333333333333
 43
0.0
 43
0.0
 43
0.0
 43
0.0
 43
0.0208333333333333
 43
0.0
 43
0.0
 43
0.0
 43
0.0
 43
1.0
 43
0.0
 43
0.0
 43
0.0
 43
0.0
 43
1.0
 77
     0
 47
0.0208333333333333
 47
0.0
 47
0.0
 47
0.0
 47
0.0
 47
0.0208333333333333
 47
0.0
 47
0.0
 47
0.0
 47
0.0
 47
1.0
 47
0.0
 47
0.0
 47
0.0
 47
0.0
 47
1.0
171
     0
 49
0.0208333333333333
 49
0.0
 49
0.0
 49
0.0
 49
0.0
 49
0.0208333333333333
 49
0.0
 49
0.0
 49
0.0
 49
0.0
 49
1.0
 49
0.0
 49
0.0
 49
0.0
 49
0.0
 49
1.0
175
     0
142
0.0208333333333333
142
0.0
142
0.0
142
0.0
142
0.0
142
0.0208333333333333
142
0.0
142
0.0
142
0.0
142
0.0
142
1.0
142
0.0
142
0.0
142
0.0
142
0.0
142
1.0
179
     0
144
0.0208333333333333
144
0.0
144
0.0
144
0.0
144
0.0
144
0.0208333333333333
144
0.0
144
0.0
144
0.0
144
0.0
144
1.0
144
0.0
144
0.0
144
0.0
144
0.0
144
1.0
147
0.0208333333333333
147
0.0
147
0.0
147
0.0
147
0.0
147
0.0208333333333333
147
0.0
147
0.0
147
0.0
147
0.0
147
1.0
147
0.0
147
0.0
147
0.0
147
0.0
147
1.0
  0
MLEADERSTYLE
  5
2461
102
{ACAD_REACTORS
330
2460
102
}
330
2460
100
AcDbMLeaderStyle
170
     2
171
     1
172
     0
 90
        2
 40
0.0
 41
0.0
173
     1
 91
-1056964608
340
2455
 92
       -2
290
     1
 42
0.09
291
     1
 43
0.36
  3
Standard
 44
0.18
300

342
2450
174
     1
178
     6
175
     1
176
     0
 93
-1056964608
 45
0.18
292
     0
297
     0
 46
0.18
 94
-1056964608
 47
1.0
 49
1.0
140
1.0
293
     1
141
0.0
294
     1
177
     0
142
1.0
295
     0
296
     0
143
0.125
1001
ACAD_MLEADERVER
1070
     2
  0
MLINESTYLE
  5
245A
102
{ACAD_REACTORS
330
2459
102
}
330
2459
100
AcDbMlineStyle
  2
STANDARD
 70
     0
  3

 62
   256
 51
90.0
 52
90.0
 71
     2
 49
0.5
 62
   256
  6
BYLAYER
 49
-0.5
 62
   256
  6
BYLAYER
  0
ACDBPLACEHOLDER
  5
2402
102
{ACAD_REACTORS
330
2401
102
}
330
2401
  0
SCALE
  5
242E
102
{ACAD_REACTORS
330
242D
102
}
330
242D
100
AcDbScale
 70
     0
300
1:1
140
1.0
141
1.0
290
     1
  0
SCALE
  5
242F
102
{ACAD_REACTORS
330
242D
102
}
330
242D
100
AcDbScale
 70
     0
300
1:2
140
1.0
141
2.0
290
     0
  0
SCALE
  5
2430
102
{ACAD_REACTORS
330
242D
102
}
330
242D
100
AcDbScale
 70
     0
300
1:4
140
1.0
141
4.0
290
     0
  0
SCALE
  5
2431
102
{ACAD_REACTORS
330
242D
102
}
330
242D
100
AcDbScale
 70
     0
300
1:5
140
1.0
141
5.0
290
     0
  0
SCALE
  5
2432
102
{ACAD_REACTORS
330
242D
102
}
330
242D
100
AcDbScale
 70
     0
300
1:8
140
1.0
141
8.0
290
     0
  0
SCALE
  5
2433
102
{ACAD_REACTORS
330
242D
102
}
330
242D
100
AcDbScale
 70
     0
300
1:10
140
1.0
141
10.0
290
     0
  0
SCALE
  5
2434
102
{ACAD_REACTORS
330
242D
102
}
330
242D
100
AcDbScale
 70
     0
300
1:16
140
1.0
141
16.0
290
     0
  0
SCALE
  5
2435
102
{ACAD_REACTORS
330
242D
102
}
330
242D
100
AcDbScale
 70
     0
300
1:20
140
1.0
141
20.0
290
     0
  0
SCALE
  5
2436
102
{ACAD_REACTORS
330
242D
102
}
330
242D
100
AcDbScale
 70
     0
300
1:30
140
1.0
141
30.0
290
     0
  0
SCALE
  5
2437
102
{ACAD_REACTORS
330
242D
102
}
330
242D
100
AcDbScale
 70
     0
300
1:40
140
1.0
141
40.0
290
     0
  0
SCALE
  5
2438
102
{ACAD_REACTORS
330
242D
102
}
330
242D
100
AcDbScale
 70
     0
300
1:50
140
1.0
141
50.0
290
     0
  0
SCALE
  5
2439
102
{ACAD_REACTORS
330
242D
102
}
330
242D
100
AcDbScale
 70
     0
300
1:100
140
1.0
141
100.0
290
     0
  0
SCALE
  5
243A
102
{ACAD_REACTORS
330
242D
102
}
330
242D
100
AcDbScale
 70
     0
300
2:1
140
2.0
141
1.0
290
     0
  0
SCALE
  5
243B
102
{ACAD_REACTORS
330
242D
102
}
330
242D
100
AcDbScale
 70
     0
300
4:1
140
4.0
141
1.0
290
     0
  0
SCALE
  5
243C
102
{ACAD_REACTORS
330
242D
102
}
330
242D
100
AcDbScale
 70
     0
300
8:1
140
8.0
141
1.0
290
     0
  0
SCALE
  5
243D
102
{ACAD_REACTORS
330
242D
102
}
330
242D
100
AcDbScale
 70
     0
300
10:1
140
10.0
141
1.0
290
     0
  0
SCALE
  5
243E
102
{ACAD_REACTORS
330
242D
102
}
330
242D
100
AcDbScale
 70
     0
300
100:1
140
100.0
141
1.0
290
     0
  0
SCALE
  5
243F
102
{ACAD_REACTORS
330
242D
102
}
330
242D
100
AcDbScale
 70
     0
300
1/128" = 1'-0"
140
0.0078125
141
12.0
290
     0
  0
SCALE
  5
2440
102
{ACAD_REACTORS
330
242D
102
}
330
242D
100
AcDbScale
 70
     0
300
1/64" = 1'-0"
140
0.015625
141
12.0
290
     0
  0
SCALE
  5
2441
102
{ACAD_REACTORS
330
242D
102
}
330
242D
100
AcDbScale
 70
     0
300
1/32" = 1'-0"
140
0.03125
141
12.0
290
     0
  0
SCALE
  5
2442
102
{ACAD_REACTORS
330
242D
102
}
330
242D
100
AcDbScale
 70
     0
300
1/16" = 1'-0"
140
0.0625
141
12.0
290
     0
  0
SCALE
  5
2443
102
{ACAD_REACTORS
330
242D
102
}
330
242D
100
AcDbScale
 70
     0
300
3/32" = 1'-0"
140
0.09375
141
12.0
290
     0
  0
SCALE
  5
2444
102
{ACAD_REACTORS
330
242D
102
}
330
242D
100
AcDbScale
 70
     0
300
1/8" = 1'-0"
140
0.125
141
12.0
290
     0
  0
SCALE
  5
2445
102
{ACAD_REACTORS
330
242D
102
}
330
242D
100
AcDbScale
 70
     0
300
3/16" = 1'-0"
140
0.1875
141
12.0
290
     0
  0
SCALE
  5
2446
102
{ACAD_REACTORS
330
242D
102
}
330
242D
100
AcDbScale
 70
     0
300
1/4" = 1'-0"
140
0.25
141
12.0
290
     0
  0
SCALE
  5
2447
102
{ACAD_REACTORS
330
242D
102
}
330
242D
100
AcDbScale
 70
     0
300
3/8" = 1'-0"
140
0.375
141
12.0
290
     0
  0
SCALE
  5
2448
102
{ACAD_REACTORS
330
242D
102
}
330
242D
100
AcDbScale
 70
     0
300
1/2" = 1'-0"
140
0.5
141
12.0
290
     0
  0
SCALE
  5
2449
102
{ACAD_REACTORS
330
242D
102
}
330
242D
100
AcDbScale
 70
     0
300
3/4" = 1'-0"
140
0.75
141
12.0
290
     0
  0
SCALE
  5
244A
102
{ACAD_REACTORS
330
242D
102
}
330
242D
100
AcDbScale
 70
     0
300
1" = 1'-0"
140
1.0
141
12.0
290
     0
  0
SCALE
  5
244B
102
{ACAD_REACTORS
330
242D
102
}
330
242D
100
AcDbScale
 70
     0
300
1-1/2" = 1'-0"
140
1.5
141
12.0
290
     0
  0
SCALE
  5
244C
102
{ACAD_REACTORS
330
242D
102
}
330
242D
100
AcDbScale
 70
     0
300
3" = 1'-0"
140
3.0
141
12.0
290
     0
  0
SCALE
  5
244D
102
{ACAD_REACTORS
330
242D
102
}
330
242D
100
AcDbScale
 70
     0
300
6" = 1'-0"
140
6.0
141
12.0
290
     0
  0
SCALE
  5
244E
102
{ACAD_REACTORS
330
242D
102
}
330
242D
100
AcDbScale
 70
     0
300
1'-0" = 1'-0"
140
12.0
141
12.0
290
     0
  0
TABLESTYLE
  5
245F
102
{ACAD_XDICTIONARY
360
264A
102
}
102
{ACAD_REACTORS
330
245E
102
}
330
245E
100
AcDbTableStyle
  3
Standard
 70
     0
 71
     0
 40
0.06
 41
0.06
280
     0
281
     0
  7
STANDARD
140
0.18
170
     2
 62
     0
 63
     7
283
     0
274
    -2
284
     1
 64
     0
275
    -2
285
     1
 65
     0
276
    -2
286
     1
 66
     0
277
    -2
287
     1
 67
     0
278
    -2
288
     1
 68
     0
279
    -2
289
     1
 69
     0
  7
STANDARD
140
0.25
170
     5
 62
     0
 63
     7
283
     0
274
    -2
284
     1
 64
     0
275
    -2
285
     1
 65
     0
276
    -2
286
     1
 66
     0
277
    -2
287
     1
 67
     0
278
    -2
288
     1
 68
     0
279
    -2
289
     1
 69
     0
  7
STANDARD
140
0.18
170
     5
 62
     0
 63
     7
283
     0
274
    -2
284
     1
 64
     0
275
    -2
285
     1
 65
     0
276
    -2
286
     1
 66
     0
277
    -2
287
     1
 67
     0
278
    -2
288
     1
 68
     0
279
    -2
289
     1
 69
     0
  0
VISUALSTYLE
  5
2422
102
{ACAD_REACTORS
330
241C
102
}
330
241C
100
AcDbVisualStyle
  2
2dWireframe
 70
     4
 71
     0
 72
     2
 73
     0
 90
        0
 40
-0.6
 41
-30.0
 62
     5
 63
     7
 74
     1
 91
        4
 64
     7
 65
   257
 75
     1
175
     1
 42
1.0
 92
        0
 66
   257
 43
1.0
 76
     1
 77
     6
 78
     2
 67
     7
 79
     5
170
     0
171
     0
290
     0
174
     0
 93
        1
 44
0.0
173
     0
291
     0
 45
0.0
1001
ACAD
1000
AcDbSavedByObjectVersion
1070
     0
  0
VISUALSTYLE
  5
2424
102
{ACAD_REACTORS
330
241C
102
}
330
241C
100
AcDbVisualStyle
  2
3D Hidden
 70
     6
 71
     1
 72
     2
 73
     2
 90
        0
 40
-0.6
 41
-30.0
 62
     5
 63
     7
 74
     2
 91
        2
 64
     7
 65
   257
 75
     2
175
     1
 42
40.0
 92
        0
 66
   257
 43
1.0
 76
     1
 77
     6
 78
     2
 67
     7
 79
     3
170
     0
171
     0
290
     0
174
     0
 93
        1
 44
0.0
173
     0
291
     0
 45
0.0
1001
ACAD
1000
AcDbSavedByObjectVersion
1070
     0
  0
VISUALSTYLE
  5
2423
102
{ACAD_REACTORS
330
241C
102
}
330
241C
100
AcDbVisualStyle
  2
3dWireframe
 70
     5
 71
     0
 72
     2
 73
     0
 90
        0
 40
-0.6
 41
-30.0
 62
     5
 63
     7
 74
     1
 91
        4
 64
     7
 65
   257
 75
     1
175
     1
 42
1.0
 92
        0
 66
   257
 43
1.0
 76
     1
 77
     6
 78
     2
 67
     7
 79
     5
170
     0
171
     0
290
     0
174
     0
 93
        1
 44
0.0
173
     0
291
     0
 45
0.0
1001
ACAD
1000
AcDbSavedByObjectVersion
1070
     0
  0
VISUALSTYLE
  5
2421
102
{ACAD_REACTORS
330
241C
102
}
330
241C
100
AcDbVisualStyle
  2
Basic
 70
     7
 71
     1
 72
     0
 73
     1
 90
        0
 40
-0.6
 41
-30.0
 62
     5
 63
     7
 74
     0
 91
        4
 64
     7
 65
   257
 75
     1
175
     1
 42
1.0
 92
        8
 66
     7
 43
1.0
 76
     1
 77
     6
 78
     2
 67
     7
 79
     5
170
     0
171
     0
290
     0
174
     0
 93
        1
 44
0.0
173
     0
291
     1
 45
0.0
1001
ACAD
1000
AcDbSavedByObjectVersion
1070
     0
  0
VISUALSTYLE
  5
2428
102
{ACAD_REACTORS
330
241C
102
}
330
241C
100
AcDbVisualStyle
  2
Brighten
 70
    12
 71
     2
 72
     2
 73
     0
 90
        0
 40
-0.6
 41
-30.0
 62
     5
 63
     7
 74
     1
 91
        4
 64
     7
 65
   257
 75
     1
175
     1
 42
1.0
 92
        8
 66
     7
 43
1.0
 76
     1
 77
     6
 78
     2
 67
     7
 79
     5
170
     0
171
     0
290
     0
174
     0
 93
        1
 44
50.0
173
     0
291
     1
 45
0.0
1001
ACAD
1000
AcDbSavedByObjectVersion
1070
     0
  0
VISUALSTYLE
  5
242C
102
{ACAD_REACTORS
330
241C
102
}
330
241C
100
AcDbVisualStyle
  2
ColorChange
 70
    16
 71
     2
 72
     2
 73
     3
 90
        0
 40
-0.6
 41
-30.0
 62
     5
 63
     8
 74
     1
 91
        4
 64
     7
 65
   257
 75
     1
175
     1
 42
1.0
 92
        8
 66
     8
 43
1.0
 76
     1
 77
     6
 78
     2
 67
     7
 79
     5
170
     0
171
     0
290
     0
174
     0
 93
        1
 44
0.0
173
     0
291
     1
 45
0.0
1001
ACAD
1000
AcDbSavedByObjectVersion
1070
     0
  0
VISUALSTYLE
  5
2425
102
{ACAD_REACTORS
330
241C
102
}
330
241C
100
AcDbVisualStyle
  2
Conceptual
 70
     9
 71
     3
 72
     2
 73
     0
 90
        0
 40
-0.6
 41
-30.0
 62
     5
 63
     7
 74
     2
 91
        2
 64
     7
 65
   257
 75
     1
175
     1
 42
40.0
 92
        8
 66
     7
 43
1.0
 76
     1
 77
     6
 78
     2
 67
     7
 79
     3
170
     0
171
     0
290
     0
174
     0
 93
        1
 44
0.0
173
     0
291
     0
 45
0.0
1001
ACAD
1000
AcDbSavedByObjectVersion
1070
     0
  0
VISUALSTYLE
  5
2427
102
{ACAD_REACTORS
330
241C
102
}
330
241C
100
AcDbVisualStyle
  2
Dim
 70
    11
 71
     2
 72
     2
 73
     0
 90
        0
 40
-0.6
 41
-30.0
 62
     5
 63
     7
 74
     1
 91
        4
 64
     7
 65
   257
 75
     1
175
     1
 42
1.0
 92
        8
 66
     7
 43
1.0
 76
     1
 77
     6
 78
     2
 67
     7
 79
     5
170
     0
171
     0
290
     0
174
     0
 93
        1
 44
-50.0
173
     0
291
     1
 45
0.0
1001
ACAD
1000
AcDbSavedByObjectVersion
1070
     0
  0
VISUALSTYLE
  5
242B
102
{ACAD_REACTORS
330
241C
102
}
330
241C
100
AcDbVisualStyle
  2
Facepattern
 70
    15
 71
     2
 72
     2
 73
     0
 90
        0
 40
-0.6
 41
-30.0
 62
     5
 63
     7
 74
     1
 91
        4
 64
     7
 65
   257
 75
     1
175
     1
 42
1.0
 92
        8
 66
     7
 43
1.0
 76
     1
 77
     6
 78
     2
 67
     7
 79
     5
170
     0
171
     0
290
     0
174
     0
 93
        1
 44
0.0
173
     0
291
     1
 45
0.0
1001
ACAD
1000
AcDbSavedByObjectVersion
1070
     0
  0
VISUALSTYLE
  5
241D
102
{ACAD_REACTORS
330
241C
102
}
330
241C
100
AcDbVisualStyle
  2
Flat
 70
     0
 71
     2
 72
     1
 73
     1
 90
        2
 40
-0.6
 41
30.0
 62
     5
 63
     7
 74
     0
 91
        4
 64
     7
 65
   257
 75
     1
175
     1
 42
1.0
 92
        8
 66
     7
 43
1.0
 76
     1
 77
     6
 78
     2
 67
     7
 79
     5
170
     0
171
     0
290
     0
174
     0
 93
       13
 44
0.0
173
     0
291
     1
 45
0.0
1001
ACAD
1000
AcDbSavedByObjectVersion
1070
     0
  0
VISUALSTYLE
  5
241E
102
{ACAD_REACTORS
330
241C
102
}
330
241C
100
AcDbVisualStyle
  2
FlatWithEdges
 70
     1
 71
     2
 72
     1
 73
     1
 90
        2
 40
-0.6
 41
30.0
 62
     5
 63
     7
 74
     1
 91
        4
 64
     7
 65
   257
 75
     1
175
     1
 42
1.0
 92
        0
 66
   257
 43
1.0
 76
     1
 77
     6
 78
     2
 67
     7
 79
     5
170
     0
171
     0
290
     0
174
     0
 93
       13
 44
0.0
173
     0
291
     1
 45
0.0
1001
ACAD
1000
AcDbSavedByObjectVersion
1070
     0
  0
VISUALSTYLE
  5
241F
102
{ACAD_REACTORS
330
241C
102
}
330
241C
100
AcDbVisualStyle
  2
Gouraud
 70
     2
 71
     2
 72
     2
 73
     1
 90
        2
 40
-0.6
 41
30.0
 62
     5
 63
     7
 74
     0
 91
        4
 64
     7
 65
   257
 75
     1
175
     1
 42
1.0
 92
        0
 66
     7
 43
1.0
 76
     1
 77
     6
 78
     2
 67
     7
 79
     5
170
     0
171
     0
290
     0
174
     0
 93
       13
 44
0.0
173
     0
291
     1
 45
0.0
1001
ACAD
1000
AcDbSavedByObjectVersion
1070
     0
  0
VISUALSTYLE
  5
2420
102
{ACAD_REACTORS
330
241C
102
}
330
241C
100
AcDbVisualStyle
  2
GouraudWithEdges
 70
     3
 71
     2
 72
     2
 73
     1
 90
        2
 40
-0.6
 41
30.0
 62
     5
 63
     7
 74
     1
 91
        4
 64
     7
 65
   257
 75
     1
175
     1
 42
1.0
 92
        0
 66
   257
 43
1.0
 76
     1
 77
     6
 78
     2
 67
     7
 79
     5
170
     0
171
     0
290
     0
174
     0
 93
       13
 44
0.0
173
     0
291
     1
 45
0.0
1001
ACAD
1000
AcDbSavedByObjectVersion
1070
     0
  0
VISUALSTYLE
  5
242A
102
{ACAD_REACTORS
330
241C
102
}
330
241C
100
AcDbVisualStyle
  2
Linepattern
 70
    14
 71
     2
 72
     2
 73
     0
 90
        0
 40
-0.6
 41
-30.0
 62
     5
 63
     7
 74
     1
 91
        4
 64
     7
 65
   257
 75
     7
175
     7
 42
1.0
 92
        8
 66
     7
 43
1.0
 76
     1
 77
     6
 78
     2
 67
     7
 79
     5
170
     0
171
     0
290
     0
174
     0
 93
        1
 44
0.0
173
     0
291
     1
 45
0.0
1001
ACAD
1000
AcDbSavedByObjectVersion
1070
     0
  0
VISUALSTYLE
  5
2426
102
{ACAD_REACTORS
330
241C
102
}
330
241C
100
AcDbVisualStyle
  2
Realistic
 70
     8
 71
     2
 72
     2
 73
     0
 90
        0
 40
-0.6
 41
-30.0
 62
     5
 63
     7
 74
     1
 91
        0
 64
     7
 65
   257
 75
     1
175
     1
 42
1.0
 92
        8
 66
     8
 43
1.0
 76
     1
 77
     6
 78
     2
 67
     7
 79
     5
170
     0
171
     0
290
     0
174
     0
 93
       13
 44
0.0
173
     0
291
     0
 45
0.0
1001
ACAD
1000
AcDbSavedByObjectVersion
1070
     0
  0
VISUALSTYLE
  5
2429
102
{ACAD_REACTORS
330
241C
102
}
330
241C
100
AcDbVisualStyle
  2
Thicken
 70
    13
 71
     2
 72
     2
 73
     0
 90
        0
 40
-0.6
 41
-30.0
 62
     5
 63
     7
 74
     1
 91
        4
 64
     7
 65
   257
 75
     1
175
     1
 42
1.0
 92
       12
 66
     7
 43
1.0
 76
     1
 77
     6
 78
     2
 67
     7
 79
     5
170
     0
171
     0
290
     0
174
     0
 93
        1
 44
0.0
173
     0
291
     1
 45
0.0
1001
ACAD
1000
AcDbSavedByObjectVersion
1070
     0
  0
DICTIONARYVAR
  5
2646
102
{ACAD_REACTORS
330
2643
102
}
330
2643
100
DictionaryVariables
280
     0
  1
1:1
  0
DICTIONARYVAR
  5
2645
102
{ACAD_REACTORS
330
2643
102
}
330
2643
100
DictionaryVariables
280
     0
  1
STANDARD
  0
DICTIONARYVAR
  5
2644
102
{ACAD_REACTORS
330
2643
102
}
330
2643
100
DictionaryVariables
280
     0
  1
STANDARD
  0
DICTIONARYVAR
  5
2649
102
{ACAD_REACTORS
330
2643
102
}
330
2643
100
DictionaryVariables
280
     0
  1
1
  0
DICTIONARYVAR
  5
2648
102
{ACAD_REACTORS
330
2643
102
}
330
2643
100
DictionaryVariables
280
     0
  1
1
  0
DICTIONARYVAR
  5
2647
102
{ACAD_REACTORS
330
2643
102
}
330
2643
100
DictionaryVariables
280
     0
  1
127
  0
DICTIONARY
  5
25FD
102
{ACAD_REACTORS
330
25EF
102
}
330
25EF
100
AcDbDictionary
281
     1
  0
DICTIONARY
  5
253D
102
{ACAD_REACTORS
330
253C
102
}
330
253C
100
AcDbDictionary
281
     1
  3
DWGSETTINGS
350
253E
  3
TRANSSETTINGS
350
253F
  0
ACAMGFILTERDAT
  5
261C
102
{ACAD_REACTORS
330
2617
102
}
330
2617
100
AcAmgFilterDat
 70
    15
  1
DIMENSION,AMDT_*_DIM
  2
*
  3
*
  4
*
  5
*
290
     1
  0
ACAMGFILTERDAT
  5
261B
102
{ACAD_REACTORS
330
2617
102
}
330
2617
100
AcAmgFilterDat
 70
    15
  1
*
  2
AM_FEA-AM_*
  3
*
  4
*
  5
*
290
     1
  0
ACAMGFILTERDAT
  5
2618
102
{ACAD_REACTORS
330
2617
102
}
330
2617
100
AcAmgFilterDat
 70
    15
  1
HATCH
  2
*
  3
*
  4
*
  5
*
290
     1
  0
ACAMGFILTERDAT
  5
2619
102
{ACAD_REACTORS
330
2617
102
}
330
2617
100
AcAmgFilterDat
 70
    15
  1
LINE
  2
8,8N,*-8,*-8N,AM_8,AM_8N,*-AM_8,*-AM_8N
  3
*
  4
*
  5
INSERT,STDPART2D
290
     1
  0
ACAMGFILTERDAT
  5
261D
102
{ACAD_REACTORS
330
2617
102
}
330
2617
100
AcAmgFilterDat
 70
    15
  1
ARC
  2
AM_5
  3
*
  4
2
  5
INSERT
290
     0
  0
ACAMGFILTERDAT
  5
261A
102
{ACAD_REACTORS
330
2617
102
}
330
2617
100
AcAmgFilterDat
 70
    15
  1
ACMFCFRAME,ACMDATUMTARGET,ACMDATUMID,ACMWELDSYM,ACMSURFSYM,ACMFEATID,ACMPARTREF,ACMBALLOON,AMDTEDGESYM,AMGSCREWCALCTABLE,ACMMARKSTAMP
  2
*
  3
*
  4
*
  5
*
290
     1
  0
LAYER_INDEX
  5
2636
102
{ACAD_REACTORS
330
2635
102
}
330
2635
100
AcDbIndex
 40
2456211.591452165
100
AcDbLayerIndex
  8
0
360
2637
 90
        2
  8
OUTLINE
360
2638
 90
       34
  8
SIZE
360
2639
 90
       76
  8
BASIS
360
263A
 90
        1
  8
DETAIL
360
263B
 90
       27
  8
ARRANGE
360
263C
 90
        3
  8
DEFPOINTS
360
263D
 90
        0
  8
ETC
360
263E
 90
        3
  8
FIX
360
263F
 90
        0
  8
NOTE
360
2640
 90
       12
  8
SERVICESPACE
360
2641
 90
        0
  8
SYMBOLLINE
360
2642
 90
        0
  0
DICTIONARY
  5
2659
330
246A
100
AcDbDictionary
280
     1
281
     1
  3
ACAD_XREC_ROUNDTRIP
360
265A
  0
DICTIONARY
  5
2657
330
2466
100
AcDbDictionary
280
     1
281
     1
  3
ACAD_XREC_ROUNDTRIP
360
2658
  0
DICTIONARY
  5
240D
330
240C
100
AcDbDictionary
280
     1
281
     1
  3
ACAD_XREC_ROUNDTRIP
360
2654
  3
BUMPTILE
360
240F
  3
DIFFUSETILE
360
240E
  3
OPACITYTILE
360
2412
  3
REFLECTIONTILE
360
2411
  3
REFRACTIONTILE
360
2413
  3
SPECULARTILE
360
2410
  0
DICTIONARY
  5
2405
330
2404
100
AcDbDictionary
280
     1
281
     1
  3
ACAD_XREC_ROUNDTRIP
360
2653
  3
BUMPTILE
360
2407
  3
DIFFUSETILE
360
2406
  3
OPACITYTILE
360
240A
  3
REFLECTIONTILE
360
2409
  3
REFRACTIONTILE
360
240B
  3
SPECULARTILE
360
2408
  0
DICTIONARY
  5
2415
330
2414
100
AcDbDictionary
280
     1
281
     1
  3
ACAD_XREC_ROUNDTRIP
360
2655
  3
BUMPTILE
360
2417
  3
DIFFUSETILE
360
2416
  3
OPACITYTILE
360
241A
  3
REFLECTIONTILE
360
2419
  3
REFRACTIONTILE
360
241B
  3
SPECULARTILE
360
2418
  0
DICTIONARY
  5
264A
330
245F
100
AcDbDictionary
280
     1
281
     1
  3
ACAD_ROUNDTRIP_2008_TABLESTYLE_CELLSTYLEMAP
360
264B
  3
ACAD_XREC_ROUNDTRIP
360
2656
  0
IDBUFFER
  5
2637
330
0
100
AcDbIdBuffer
330
2366
330
2367
  0
IDBUFFER
  5
2638
330
0
100
AcDbIdBuffer
330
2377
330
2378
330
2379
330
237A
330
237B
330
237C
330
237D
330
237E
330
237F
330
2380
330
2381
330
2382
330
2383
330
2384
330
2385
330
2386
330
2387
330
2388
330
953
330
954
330
955
330
956
330
957
330
958
330
234A
330
236E
330
236F
330
2370
330
2371
330
2372
330
2373
330
2374
330
2375
330
2376
  0
IDBUFFER
  5
2639
330
0
100
AcDbIdBuffer
330
23BC
330
23BD
330
23BE
330
23BF
330
23C0
330
23C1
330
23C2
330
23C3
330
23C4
330
23C5
330
23C6
330
23C7
330
23C8
330
23C9
330
23CA
330
23CB
330
23CC
330
23CD
330
23CE
330
23CF
330
23D0
330
23D1
330
23D2
330
23D3
330
23D4
330
23D5
330
23D6
330
23D7
330
238C
330
238D
330
238E
330
238F
330
2390
330
2391
330
2392
330
2393
330
2394
330
2395
330
2396
330
2397
330
2398
330
2399
330
239A
330
239B
330
239C
330
239D
330
239E
330
239F
330
23A0
330
23A1
330
23A2
330
23A3
330
23A4
330
23A5
330
23A6
330
23A7
330
23A8
330
23A9
330
23AA
330
23AB
330
23AC
330
23AD
330
23AE
330
23AF
330
23B0
330
23B1
330
23B2
330
23B3
330
23B4
330
23B5
330
23B6
330
23B7
330
23B8
330
23B9
330
23BA
330
23BB
  0
IDBUFFER
  5
263A
330
0
100
AcDbIdBuffer
330
2345
  0
IDBUFFER
  5
263B
330
0
100
AcDbIdBuffer
330
2359
330
235A
330
235B
330
235C
330
235D
330
235E
330
235F
330
2360
330
2361
330
2362
330
2365
330
2348
330
2349
330
234B
330
234C
330
234D
330
234E
330
234F
330
2350
330
2351
330
2352
330
2353
330
2354
330
2355
330
2356
330
2357
330
2358
  0
IDBUFFER
  5
263C
330
0
100
AcDbIdBuffer
330
2342
330
2343
330
2344
  0
IDBUFFER
  5
263D
330
0
100
AcDbIdBuffer
  0
IDBUFFER
  5
263E
330
0
100
AcDbIdBuffer
330
2389
330
238A
330
238B
  0
IDBUFFER
  5
263F
330
0
100
AcDbIdBuffer
  0
IDBUFFER
  5
2640
330
0
100
AcDbIdBuffer
330
2340
330
2341
330
2346
330
2347
330
2363
330
2364
330
2368
330
2369
330
236A
330
236B
330
236C
330
236D
  0
IDBUFFER
  5
2641
330
0
100
AcDbIdBuffer
  0
IDBUFFER
  5
2642
330
0
100
AcDbIdBuffer
  0
XRECORD
  5
265A
102
{ACAD_REACTORS
330
2659
102
}
330
2659
100
AcDbXrecord
280
     1
102
SHADEPLOT
 70
     0
102
SHADEPLOTRESLEVEL
 70
     2
102
SHADEPLOTCUSTOMDPI
 70
   300
  0
XRECORD
  5
2658
102
{ACAD_REACTORS
330
2657
102
}
330
2657
100
AcDbXrecord
280
     1
102
SHADEPLOT
 70
     0
102
SHADEPLOTRESLEVEL
 70
     2
102
SHADEPLOTCUSTOMDPI
 70
   300
  0
XRECORD
  5
2654
102
{ACAD_REACTORS
330
240D
102
}
330
240D
100
AcDbXrecord
280
     1
102
MATERIAL
148
0.0
149
0.0
149
0.0
 93
        0
 94
      127
282
     0
 72
     0
 77
     0
171
     0
175
     0
179
     0
273
     0
  0
XRECORD
  5
240F
102
{ACAD_REACTORS
330
240D
102
}
330
240D
100
AcDbXrecord
280
     1
270
     1
271
     1
  0
XRECORD
  5
240E
102
{ACAD_REACTORS
330
240D
102
}
330
240D
100
AcDbXrecord
280
     1
270
     1
271
     1
  0
XRECORD
  5
2412
102
{ACAD_REACTORS
330
240D
102
}
330
240D
100
AcDbXrecord
280
     1
270
     1
271
     1
  0
XRECORD
  5
2411
102
{ACAD_REACTORS
330
240D
102
}
330
240D
100
AcDbXrecord
280
     1
270
     1
271
     1
  0
XRECORD
  5
2413
102
{ACAD_REACTORS
330
240D
102
}
330
240D
100
AcDbXrecord
280
     1
270
     1
271
     1
  0
XRECORD
  5
2410
102
{ACAD_REACTORS
330
240D
102
}
330
240D
100
AcDbXrecord
280
     1
270
     1
271
     1
  0
XRECORD
  5
2653
102
{ACAD_REACTORS
330
2405
102
}
330
2405
100
AcDbXrecord
280
     1
102
MATERIAL
148
0.0
149
0.0
149
0.0
 93
        0
 94
      127
282
     0
 72
     0
 77
     0
171
     0
175
     0
179
     0
273
     0
  0
XRECORD
  5
2407
102
{ACAD_REACTORS
330
2405
102
}
330
2405
100
AcDbXrecord
280
     1
270
     1
271
     1
  0
XRECORD
  5
2406
102
{ACAD_REACTORS
330
2405
102
}
330
2405
100
AcDbXrecord
280
     1
270
     1
271
     1
  0
XRECORD
  5
240A
102
{ACAD_REACTORS
330
2405
102
}
330
2405
100
AcDbXrecord
280
     1
270
     1
271
     1
  0
XRECORD
  5
2409
102
{ACAD_REACTORS
330
2405
102
}
330
2405
100
AcDbXrecord
280
     1
270
     1
271
     1
  0
XRECORD
  5
240B
102
{ACAD_REACTORS
330
2405
102
}
330
2405
100
AcDbXrecord
280
     1
270
     1
271
     1
  0
XRECORD
  5
2408
102
{ACAD_REACTORS
330
2405
102
}
330
2405
100
AcDbXrecord
280
     1
270
     1
271
     1
  0
XRECORD
  5
2655
102
{ACAD_REACTORS
330
2415
102
}
330
2415
100
AcDbXrecord
280
     1
102
MATERIAL
148
0.0
149
0.0
149
0.0
 93
        0
 94
      127
282
     0
 72
     0
 77
     0
171
     0
175
     0
179
     0
273
     0
  0
XRECORD
  5
2417
102
{ACAD_REACTORS
330
2415
102
}
330
2415
100
AcDbXrecord
280
     1
270
     1
271
     1
  0
XRECORD
  5
2416
102
{ACAD_REACTORS
330
2415
102
}
330
2415
100
AcDbXrecord
280
     1
270
     1
271
     1
  0
XRECORD
  5
241A
102
{ACAD_REACTORS
330
2415
102
}
330
2415
100
AcDbXrecord
280
     1
270
     1
271
     1
  0
XRECORD
  5
2419
102
{ACAD_REACTORS
330
2415
102
}
330
2415
100
AcDbXrecord
280
     1
270
     1
271
     1
  0
XRECORD
  5
241B
102
{ACAD_REACTORS
330
2415
102
}
330
2415
100
AcDbXrecord
280
     1
270
     1
271
     1
  0
XRECORD
  5
2418
102
{ACAD_REACTORS
330
2415
102
}
330
2415
100
AcDbXrecord
280
     1
270
     1
271
     1
  0
CELLSTYLEMAP
  5
264B
102
{ACAD_REACTORS
330
264A
102
}
330
264A
100
AcDbCellStyleMap
 90
        3
300
CELLSTYLE
  1
TABLEFORMAT_BEGIN
 90
        5
170
     1
 91
        0
 92
    32768
 62
   257
 93
        1
300
CONTENTFORMAT
  1
CONTENTFORMAT_BEGIN
 90
        0
 91
        0
 92
      512
 93
        0
300

 40
0.0
140
1.0
 94
        5
 62
     0
340
2450
144
0.25
309
CONTENTFORMAT_END
171
     0
 94
        0
309
TABLEFORMAT_END
  1
CELLSTYLE_BEGIN
 90
        1
 91
        1
300
_TITLE
309
CELLSTYLE_END
300
CELLSTYLE
  1
TABLEFORMAT_BEGIN
 90
        5
170
     1
 91
        0
 92
        0
 62
   257
 93
        1
300
CONTENTFORMAT
  1
CONTENTFORMAT_BEGIN
 90
        0
 91
        0
 92
      512
 93
        0
300

 40
0.0
140
1.0
 94
        5
 62
     0
340
2450
144
0.18
309
CONTENTFORMAT_END
171
     0
 94
        0
309
TABLEFORMAT_END
  1
CELLSTYLE_BEGIN
 90
        2
 91
        1
300
_HEADER
309
CELLSTYLE_END
300
CELLSTYLE
  1
TABLEFORMAT_BEGIN
 90
        5
170
     1
 91
        0
 92
        0
 62
   257
 93
        1
300
CONTENTFORMAT
  1
CONTENTFORMAT_BEGIN
 90
        0
 91
        0
 92
      512
 93
        0
300

 40
0.0
140
1.0
 94
        2
 62
     0
340
2450
144
0.18
309
CONTENTFORMAT_END
171
     0
 94
        0
309
TABLEFORMAT_END
  1
CELLSTYLE_BEGIN
 90
        3
 91
        2
300
_DATA
309
CELLSTYLE_END
  0
XRECORD
  5
2656
102
{ACAD_REACTORS
330
264A
102
}
330
264A
100
AcDbXrecord
280
     1
102
ACAD_ROUNDTRIP_PRE2007_TABLESTYLE
 90
      512
 91
        0
  1

 92
      512
 93
        0
  2

 94
      512
 95
        0
  3

  0
ENDSEC
  0
EOF
