  0
SECTION
  2
HEADER
  9
$ACADVER
  1
AC1015
  9
$ACADMAINTVER
 70
    20
  9
$DWGCODEPAGE
  3
ANSI_932
  9
$INSBASE
 10
0.0
 20
0.0
 30
0.0
  9
$EXTMIN
 10
-1127.980025529374
 20
-1233.993519486386
 30
-0.0030516181105611
  9
$EXTMAX
 10
1348.681652567677
 20
392.2119218532589
 30
50.00305208378603
  9
$LIMMIN
 10
-2970.0
 20
-2100.0
  9
$LIMMAX
 10
2970.0
 20
2100.0
  9
$ORTHOMODE
 70
     1
  9
$REGENMODE
 70
     0
  9
$FILLMODE
 70
     1
  9
$QTEXTMODE
 70
     0
  9
$MIRRTEXT
 70
     0
  9
$LTSCALE
 40
20.0
  9
$ATTMODE
 70
     1
  9
$TEXTSIZE
 40
64.0
  9
$TRACEWID
 40
0.05
  9
$TEXTSTYLE
  7
STANDARD
  9
$CLAYER
  8
0
  9
$CELTYPE
  6
ByLayer
  9
$CECOLOR
 62
   256
  9
$CELTSCALE
 40
1.0
  9
$DISPSILH
 70
     0
  9
$DIMSCALE
 40
1.0
  9
$DIMASZ
 40
0.12
  9
$DIMEXO
 40
0.05
  9
$DIMDLI
 40
0.5
  9
$DIMRND
 40
0.0
  9
$DIMDLE
 40
0.0
  9
$DIMEXE
 40
0.1
  9
$DIMTP
 40
0.1
  9
$DIMTM
 40
0.1
  9
$DIMTXT
 40
0.12
  9
$DIMCEN
 40
0.0
  9
$DIMTSZ
 40
0.0
  9
$DIMTOL
 70
     0
  9
$DIMLIM
 70
     0
  9
$DIMTIH
 70
     1
  9
$DIMTOH
 70
     1
  9
$DIMSE1
 70
     0
  9
$DIMSE2
 70
     0
  9
$DIMTAD
 70
     0
  9
$DIMZIN
 70
     7
  9
$DIMBLK
  1

  9
$DIMASO
 70
     1
  9
$DIMSHO
 70
     0
  9
$DIMPOST
  1

  9
$DIMAPOST
  1
mm
  9
$DIMALT
 70
     0
  9
$DIMALTD
 70
     2
  9
$DIMALTF
 40
25.4
  9
$DIMLFAC
 40
1.0
  9
$DIMTOFL
 70
     0
  9
$DIMTVP
 40
0.0
  9
$DIMTIX
 70
     0
  9
$DIMSOXD
 70
     0
  9
$DIMSAH
 70
     0
  9
$DIMBLK1
  1

  9
$DIMBLK2
  1

  9
$DIMSTYLE
  2
AM_ANSI
  9
$DIMCLRD
 70
   256
  9
$DIMCLRE
 70
   256
  9
$DIMCLRT
 70
     2
  9
$DIMTFAC
 40
0.71
  9
$DIMGAP
 40
0.06
  9
$DIMJUST
 70
     0
  9
$DIMSD1
 70
     0
  9
$DIMSD2
 70
     0
  9
$DIMTOLJ
 70
     1
  9
$DIMTZIN
 70
     7
  9
$DIMALTZ
 70
     0
  9
$DIMALTTZ
 70
     0
  9
$DIMUPT
 70
     0
  9
$DIMDEC
 70
     4
  9
$DIMTDEC
 70
     4
  9
$DIMALTU
 70
     2
  9
$DIMALTTD
 70
     4
  9
$DIMTXSTY
  7
STANDARD
  9
$DIMAUNIT
 70
     0
  9
$DIMADEC
 70
     0
  9
$DIMALTRND
 40
0.0
  9
$DIMAZIN
 70
     2
  9
$DIMDSEP
 70
    46
  9
$DIMATFIT
 70
     3
  9
$DIMFRAC
 70
     0
  9
$DIMLDRBLK
  1

  9
$DIMLUNIT
 70
     2
  9
$DIMLWD
 70
    -1
  9
$DIMLWE
 70
    -1
  9
$DIMTMOVE
 70
     0
  9
$LUNITS
 70
     2
  9
$LUPREC
 70
     4
  9
$SKETCHINC
 40
0.1
  9
$FILLETRAD
 40
4.0
  9
$AUNITS
 70
     1
  9
$AUPREC
 70
     3
  9
$MENU
  1
ACAD
  9
$ELEVATION
 40
0.0
  9
$PELEVATION
 40
0.0
  9
$THICKNESS
 40
50.0
  9
$LIMCHECK
 70
     0
  9
$CHAMFERA
 40
0.0
  9
$CHAMFERB
 40
0.0
  9
$CHAMFERC
 40
0.0
  9
$CHAMFERD
 40
0.0
  9
$SKPOLY
 70
     0
  9
$TDCREATE
 40
2452321.396199653
  9
$TDUCREATE
 40
2452321.021199653
  9
$TDUPDATE
 40
2456211.591575347
  9
$TDUUPDATE
 40
2456211.216575348
  9
$TDINDWG
 40
1.0398575579
  9
$TDUSRTIMER
 40
1.0398521528
  9
$USRTIMER
 70
     1
  9
$ANGBASE
 50
0.0
  9
$ANGDIR
 70
     0
  9
$PDMODE
 70
     3
  9
$PDSIZE
 40
-2.0
  9
$PLINEWID
 40
0.0
  9
$SPLFRAME
 70
     0
  9
$SPLINETYPE
 70
     6
  9
$SPLINESEGS
 70
     8
  9
$HANDSEED
  5
2897
  9
$SURFTAB1
 70
     6
  9
$SURFTAB2
 70
     6
  9
$SURFTYPE
 70
     6
  9
$SURFU
 70
     6
  9
$SURFV
 70
     6
  9
$UCSBASE
  2

  9
$UCSNAME
  2

  9
$UCSORG
 10
0.0
 20
0.0
 30
0.0
  9
$UCSXDIR
 10
1.0
 20
0.0
 30
0.0
  9
$UCSYDIR
 10
0.0
 20
1.0
 30
0.0
  9
$UCSORTHOREF
  2

  9
$UCSORTHOVIEW
 70
     0
  9
$UCSORGTOP
 10
0.0
 20
0.0
 30
0.0
  9
$UCSORGBOTTOM
 10
0.0
 20
0.0
 30
0.0
  9
$UCSORGLEFT
 10
0.0
 20
0.0
 30
0.0
  9
$UCSORGRIGHT
 10
0.0
 20
0.0
 30
0.0
  9
$UCSORGFRONT
 10
0.0
 20
0.0
 30
0.0
  9
$UCSORGBACK
 10
0.0
 20
0.0
 30
0.0
  9
$PUCSBASE
  2

  9
$PUCSNAME
  2

  9
$PUCSORG
 10
0.0
 20
0.0
 30
0.0
  9
$PUCSXDIR
 10
1.0
 20
0.0
 30
0.0
  9
$PUCSYDIR
 10
0.0
 20
1.0
 30
0.0
  9
$PUCSORTHOREF
  2

  9
$PUCSORTHOVIEW
 70
     0
  9
$PUCSORGTOP
 10
0.0
 20
0.0
 30
0.0
  9
$PUCSORGBOTTOM
 10
0.0
 20
0.0
 30
0.0
  9
$PUCSORGLEFT
 10
0.0
 20
0.0
 30
0.0
  9
$PUCSORGRIGHT
 10
0.0
 20
0.0
 30
0.0
  9
$PUCSORGFRONT
 10
0.0
 20
0.0
 30
0.0
  9
$PUCSORGBACK
 10
0.0
 20
0.0
 30
0.0
  9
$USERI1
 70
     0
  9
$USERI2
 70
     0
  9
$USERI3
 70
     0
  9
$USERI4
 70
     0
  9
$USERI5
 70
     0
  9
$USERR1
 40
20.0
  9
$USERR2
 40
0.0
  9
$USERR3
 40
0.0
  9
$USERR4
 40
0.0
  9
$USERR5
 40
0.0
  9
$WORLDVIEW
 70
     1
  9
$SHADEDGE
 70
     3
  9
$SHADEDIF
 70
    70
  9
$TILEMODE
 70
     1
  9
$MAXACTVP
 70
    64
  9
$PINSBASE
 10
0.0
 20
0.0
 30
0.0
  9
$PLIMCHECK
 70
     0
  9
$PEXTMIN
 10
1.000000000000000E+20
 20
1.000000000000000E+20
 30
1.000000000000000E+20
  9
$PEXTMAX
 10
-1.000000000000000E+20
 20
-1.000000000000000E+20
 30
-1.000000000000000E+20
  9
$PLIMMIN
 10
0.0
 20
0.0
  9
$PLIMMAX
 10
12.0
 20
9.0
  9
$UNITMODE
 70
     0
  9
$VISRETAIN
 70
     1
  9
$PLINEGEN
 70
     0
  9
$PSLTSCALE
 70
     1
  9
$TREEDEPTH
 70
  3020
  9
$CMLSTYLE
  2
Standard
  9
$CMLJUST
 70
     0
  9
$CMLSCALE
 40
1.0
  9
$PROXYGRAPHICS
 70
     1
  9
$MEASUREMENT
 70
     0
  9
$CELWEIGHT
370
    -1
  9
$ENDCAPS
280
     0
  9
$JOINSTYLE
280
     0
  9
$LWDISPLAY
290
     0
  9
$INSUNITS
 70
     0
  9
$HYPERLINKBASE
  1

  9
$STYLESHEET
  1

  9
$XEDIT
290
     1
  9
$CEPSNTYPE
380
     0
  9
$PSTYLEMODE
290
     1
  9
$FINGERPRINTGUID
  2
{950AFEAF-B5E8-43CF-8F7A-ECFF8F9061AD}
  9
$VERSIONGUID
  2
{EC25DF0E-FC23-4520-A70E-7C402CD8FABC}
  9
$EXTNAMES
290
     1
  9
$PSVPSCALE
 40
0.0
  9
$OLESTARTUP
290
     0
  0
ENDSEC
  0
SECTION
  2
CLASSES
  0
CLASS
  1
ACDBDICTIONARYWDFLT
  2
AcDbDictionaryWithDefault
  3
ObjectDBX Classes
 90
        0
280
     0
281
     0
  0
CLASS
  1
MATERIAL
  2
AcDbMaterial
  3
ObjectDBX Classes
 90
     1153
280
     0
281
     0
  0
CLASS
  1
VISUALSTYLE
  2
AcDbVisualStyle
  3
ObjectDBX Classes
 90
     4095
280
     0
281
     0
  0
CLASS
  1
SCALE
  2
AcDbScale
  3
ObjectDBX Classes
 90
     1153
280
     0
281
     0
  0
CLASS
  1
TABLESTYLE
  2
AcDbTableStyle
  3
ObjectDBX Classes
 90
     4095
280
     0
281
     0
  0
CLASS
  1
MLEADERSTYLE
  2
AcDbMLeaderStyle
  3
ACDB_MLEADERSTYLE_CLASS
 90
     4095
280
     0
281
     0
  0
CLASS
  1
AMGSETTINGSOBJ
  2
AmgSettingsObj
  3
"AcadM|Product Description: AutoCAD Mechanical|Company: Autodesk, Inc."
 90
     1024
280
     0
281
     0
  0
CLASS
  1
ACME_DOCUMENT
  2
AcMeDbDoc
  3
AcMeServices
 90
     1024
280
     0
281
     0
  0
CLASS
  1
ACMESCOPE
  2
AcMeScope
  3
AcMeServices
 90
     1024
280
     0
281
     0
  0
CLASS
  1
ACMECOMMANDHISTORY
  2
AcMeCommandHistory
  3
AcMeServices
 90
     1024
280
     0
281
     0
  0
CLASS
  1
ACIMSYSVARMAN
  2
AcImSysVarManager
  3
AcMeServices
 90
     1024
280
     0
281
     0
  0
CLASS
  1
ACIMREALSYSVAR
  2
AcImRealSysVar
  3
AcMeServices
 90
     1024
280
     0
281
     0
  0
CLASS
  1
ACIMINTSYSVAR
  2
AcImIntSysVar
  3
AcMeServices
 90
     1024
280
     0
281
     0
  0
CLASS
  1
ACMEDRAWINGMAN
  2
AcMeDrawingMan
  3
AcMeServices
 90
     1024
280
     0
281
     0
  0
CLASS
  1
ACMEVIEW
  2
AcMeView
  3
AcMeServices
 90
     1024
280
     0
281
     0
  0
CLASS
  1
ACDBENTITYCACHE
  2
AcMeEntityCache
  3
AcMeServices
 90
     1024
280
     0
281
     0
  0
CLASS
  1
GSMANAGER
  2
AcMeGSManager
  3
AcMeServices
 90
     1024
280
     0
281
     0
  0
CLASS
  1
AMDTINTERNALREACTOR
  2
AmdtInternalReactor
  3
AcMeServices
 90
     1024
280
     0
281
     0
  0
CLASS
  1
ACMESTATEMGR
  2
AcMeStateMgr
  3
AcMeServices
 90
     1024
280
     0
281
     0
  0
CLASS
  1
ACGREFMASTER
  2
AcGrefMaster
  3
AcAttribServices
 90
     1024
280
     0
281
     0
  0
CLASS
  1
AM_DRAWING_MGR
  2
AcDmDwgMgr
  3
AcMechDwgViewMgmt
 90
     1024
280
     0
281
     0
  0
CLASS
  1
AM_DWG_DOCUMENT
  2
AcDmDwgDocument
  3
AcMechDwgViewMgmt
 90
     1024
280
     0
281
     0
  0
CLASS
  1
AM_DWG_SHEET
  2
AcDmSheet
  3
AcMechDwgViewMgmt
 90
     1024
280
     0
281
     0
  0
CLASS
  1
AM_VIEWDIMPARMAP
  2
AcDmViewDimParMap
  3
AcMechDwgViewMgmt
 90
     1024
280
     0
281
     0
  0
CLASS
  1
AM_DWGMGR_NAME
  2
AcDmDwgMgrName
  3
AcMechDwgViewMgmt
 90
     1024
280
     0
281
     0
  0
CLASS
  1
ACME_DATABASE
  2
AcMeDbDatabase
  3
AcMeServices
 90
     1024
280
     0
281
     0
  0
CLASS
  1
ACRFINSADJUSTERMGR
  2
AcRfInsAdjusterMgr
  3
AcMeServices
 90
     1024
280
     0
281
     0
  0
CLASS
  1
ACGREFACADMASTER
  2
AcGrefacadMaster
  3
AcGrefServices
 90
     1024
280
     0
281
     0
  0
CLASS
  1
AMDTMENUSTATEMGR
  2
AmdtMenuStateMgr
  3
McadcomServices
 90
     1024
280
     0
281
     0
  0
CLASS
  1
AMDTMCOMMENUSTATE
  2
AmdtMcomMenuState
  3
McadcomServices
 90
     1024
280
     0
281
     0
  0
CLASS
  1
AMIMASTER
  2
AmiMaster
  3
AmiServices
 90
     1024
280
     0
281
     0
  0
CLASS
  1
ASAPP
  2
AcAsAppObject
  3
AutoSurfServices
 90
     1024
280
     0
281
     0
  0
CLASS
  1
IM_STATIC_MAN
  2
AcImStaticVarManager
  3
AcMeServices
 90
     1024
280
     0
281
     0
  0
CLASS
  1
ACIMSTRSYSVAR
  2
AcImStrSysVar
  3
AcMeServices
 90
     1024
280
     0
281
     0
  0
CLASS
  1
ACIMDBLSTATICVAR
  2
AcImDblStaticVar
  3
AcMeServices
 90
     1024
280
     0
281
     0
  0
CLASS
  1
ACIMSTRSTATICVAR
  2
AcImStrStaticVar
  3
AcMeServices
 90
     1024
280
     0
281
     0
  0
CLASS
  1
ACIMINTSTATICVAR
  2
AcImIntStaticVar
  3
AcMeServices
 90
     1024
280
     0
281
     0
  0
CLASS
  1
ACASGREFMASTER
  2
AcAsGrefMaster
  3
AutoSurfResolverServices
 90
     1024
280
     0
281
     0
  0
CLASS
  1
ACADGREFMODULE
  2
AcAdGrefModule
  3
AdGrefServices
 90
     1024
280
     0
281
     0
  0
CLASS
  1
AMDTMAPISURFMOUDULE
  2
AmdtMApiSurfModule
  3
MApiSurfServices
 90
     1024
280
     0
281
     0
  0
CLASS
  1
MAPIAMMOUDLE
  2
MApiAmModule
  3
MApiAmServices
 90
     1024
280
     0
281
     0
  0
CLASS
  1
AMDTADMENUSTATE
  2
AmdtAdMenuState
  3
DesignerServices
 90
     1024
280
     0
281
     0
  0
CLASS
  1
ADAPPL
  2
AcAdAppl
  3
DesignerServices
 90
     1024
280
     0
281
     0
  0
CLASS
  1
DEPMGR
  2
AcAdDepMgr
  3
DesignerServices
 90
     1024
280
     0
281
     0
  0
CLASS
  1
PARAMMGR
  2
AcAdParamMgr
  3
DesignerServices
 90
     1024
280
     0
281
     0
  0
CLASS
  1
PARAMSCOPE
  2
AcAdParamScope
  3
DesignerServices
 90
     1024
280
     0
281
     0
  0
CLASS
  1
NAMEDAPPL
  2
AcAdNamedAppl
  3
DesignerServices
 90
     1024
280
     0
281
     0
  0
CLASS
  1
AMDTDMMENUSTATE
  2
AmdtDmMenuState
  3
AcMechDwgViewMgmt
 90
     1024
280
     0
281
     0
  0
CLASS
  1
MAPIADMODULE
  2
MApiAdModule
  3
MApiAdServices
 90
     1024
280
     0
281
     0
  0
CLASS
  1
AMDTAMMENUSTATE
  2
AmdtAmMenuState
  3
DesignerAssemblies
 90
     1024
280
     0
281
     0
  0
CLASS
  1
ACAMPROJECT
  2
AcAmProject
  3
DesignerAssemblies
 90
     1024
280
     0
281
     0
  0
CLASS
  1
ACAMGRCOMPDEF
  2
AcAmGrCompDef
  3
DesignerAssemblies
 90
     1024
280
     0
281
     0
  0
CLASS
  1
ACCMCONTEXT
  2
AcCmContext
  3
DesignerAssemblies
 90
     1024
280
     0
281
     0
  0
CLASS
  1
ACAMCOMPDEF
  2
AcAmCompDef
  3
DesignerAssemblies
 90
     1024
280
     0
281
     0
  0
CLASS
  1
ACAMCOMPDEFMGR
  2
AcAmCompDefMgr
  3
DesignerAssemblies
 90
     1024
280
     0
281
     0
  0
CLASS
  1
AMCONTEXTMGR
  2
AcAmContextMgr
  3
DesignerAssemblies
 90
     1024
280
     0
281
     0
  0
CLASS
  1
ACAMCONTEXTMODELER
  2
AcAmContextModeler
  3
DesignerAssemblies
 90
     1024
280
     0
281
     0
  0
CLASS
  1
ACMDATADICTIONARY
  2
AcmDataDictionary
  3
"AcmSymBB|Product Description: AutoCAD Mechanical|Company: Autodesk, Inc."
 90
     1024
280
     0
281
     0
  0
CLASS
  1
ACMDATAENTRYBLOCK
  2
AcmDataEntryBlock
  3
AcmSymBB|Product Description: AutoCAD Mechanical|Company: Autodesk, Inc.
 90
     1024
280
     0
281
     0
  0
CLASS
  1
ACRFATTGENMGR
  2
AcRfAttGeneralMgr
  3
AcAttribServices
 90
     1024
280
     0
281
     0
  0
CLASS
  1
ACRFOBJATTMGR
  2
AcRfObjAttGroupMgr
  3
AcAttribServices
 90
     1024
280
     0
281
     0
  0
CLASS
  1
ACRFMCADAPIATTHOLDER
  2
AcRfMCADAPIAttHolder
  3
AcAttribServices
 90
     1024
280
     0
281
     0
  0
CLASS
  1
AMDTSYSATTR
  2
AmdtSystemAttribute
  3
AcAttribServices
 90
     1024
280
     0
281
     0
  0
CLASS
  1
CATALOGSTATE
  2
AcAmCatalogState
  3
DesignerAssemblies
 90
     1024
280
     0
281
     0
  0
CLASS
  1
ACAMGRCOMPDEFSET
  2
AcAmGrCompDefSet
  3
DesignerAssemblies
 90
     1024
280
     0
281
     0
  0
CLASS
  1
AMDTBROWSERDBTAB
  2
AmdtBrowserDbTab
  3
McadcomServices
 90
     1024
280
     0
281
     0
  0
CLASS
  1
CBROWSERAPPOBJECT
  2
CBrowserAppObject
  3
McadcomServices
 90
     1024
280
     0
281
     0
  0
CLASS
  1
DM_PLACEHOLDER
  2
AcDmSelsetPlaceholder
  3
AcMechDwgViewMgmt
 90
     1024
280
     0
281
     0
  0
CLASS
  1
ACMSTANDARDANSI
  2
AcmStandardANSI
  3
"Amdt_StdImp|Product Description: AutoCAD Mechanical|Company: Autodesk, Inc."
 90
     1024
280
     0
281
     0
  0
CLASS
  1
ACMSURFSTANDARDANSI
  2
AcmSurfTextStdANSI
  3
"Amdt_StdImp|Product Description: AutoCAD Mechanical|Company: Autodesk, Inc."
 90
     1024
280
     0
281
     0
  0
CLASS
  1
ACMFCFSTANDARDANSI
  2
AcmFCFStdANSI
  3
"Amdt_StdImp|Product Description: AutoCAD Mechanical|Company: Autodesk, Inc."
 90
     1024
280
     0
281
     0
  0
CLASS
  1
ACMWELDSTANDARDANSI
  2
AcmWeldingStdANSI
  3
"Amdt_StdImp|Product Description: AutoCAD Mechanical|Company: Autodesk, Inc."
 90
     1024
280
     0
281
     0
  0
CLASS
  1
ACMIDSTANDARDANSI
  2
AcmIdStdANSI
  3
"Amdt_StdImp|Product Description: AutoCAD Mechanical|Company: Autodesk, Inc."
 90
     1024
280
     0
281
     0
  0
CLASS
  1
ACMDATUMSTANDARDANSI
  2
AcmDatumStdANSI
  3
"Amdt_StdImp|Product Description: AutoCAD Mechanical|Company: Autodesk, Inc."
 90
     1024
280
     0
281
     0
  0
CLASS
  1
ACMBOMSTANDARDANSI
  2
AcmBOMStdANSI
  3
"Amdt_StdImp|Product Description: AutoCAD Mechanical|Company: Autodesk, Inc."
 90
     1024
280
     0
281
     0
  0
CLASS
  1
ACMDETAILSTANDARDANSI
  2
AmdtDetailSymStdANSI
  3
"Amdt_StdImp|Product Description: AutoCAD Mechanical|Company: Autodesk, Inc."
 90
     1024
280
     0
281
     0
  0
CLASS
  1
ACMSECTIONSTANDARDANSI
  2
AmdtSectionSymStdANSI
  3
"Amdt_StdImp|Product Description: AutoCAD Mechanical|Company: Autodesk, Inc."
 90
     1024
280
     0
281
     0
  0
CLASS
  1
ACMCENTERLINESTANDARDANSI
  2
AmdtCenterLineStdANSI
  3
"Amdt_StdImp|Product Description: AutoCAD Mechanical|Company: Autodesk, Inc."
 90
     1024
280
     0
281
     0
  0
CLASS
  1
ACMTHREADLINESTANDARDANSI
  2
AmdtThreadLineStdANSI
  3
"Amdt_StdImp|Product Description: AutoCAD Mechanical|Company: Autodesk, Inc."
 90
     1024
280
     0
281
     0
  0
CLASS
  1
ACMNOTESTANDARDANSI
  2
AmdtNoteStdANSI
  3
"Amdt_StdImp|Product Description: AutoCAD Mechanical|Company: Autodesk, Inc."
 90
     1024
280
     0
281
     0
  0
CLASS
  1
ACMTAPERSTANDARDANSI
  2
AcmTaperStdANSI
  3
"Amdt_StdImp|Product Description: AutoCAD Mechanical|Company: Autodesk, Inc."
 90
     1024
280
     0
281
     0
  0
CLASS
  1
ACMANOOTATIONVIEWSTANDARDANSI
  2
AmdtAnViewStdANSI
  3
"Amdt_StdImp|Product Description: AutoCAD Mechanical|Company: Autodesk, Inc."
 90
     1024
280
     0
281
     0
  0
CLASS
  1
ACAMGLAYSTD
  2
AcAmgLayStd
  3
"AmgLay|Product Description: AutoCAD Mechanical|Company: Autodesk, Inc."
 90
     1024
280
     0
281
     0
  0
CLASS
  1
ACAMGDIMSTD
  2
AcAmgDimStd
  3
"AmgDim|Product Description: AutoCAD Mechanical|Company: Autodesk, Inc."
 90
     1024
280
     0
281
     0
  0
CLASS
  1
ACAMGHOLECHARTSTDANSI
  2
AcAmgHoleChartStdANSI
  3
AmgDim|Product Description: AutoCAD Mechanical|Company: Autodesk, Inc.
 90
     1024
280
     0
281
     0
  0
CLASS
  1
AMGOBJPROPCFG
  2
AmgObjPropCfg
  3
"AmgLay|Product Description: AutoCAD Mechanical|Company: Autodesk, Inc."
 90
     1025
280
     0
281
     0
  0
CLASS
  1
ACAMGTITLESTD
  2
AcAmgTitleStd
  3
"AmgTitle|Product Description: AutoCAD Mechanical|Company: Autodesk, Inc."
 90
     4095
280
     0
281
     0
  0
CLASS
  1
AMDTNOTETEMPLATEDB
  2
AmdtNoteTemplateDB
  3
AcmSymBB|Product Description: AutoCAD Mechanical|Company: Autodesk, Inc.
 90
     1024
280
     0
281
     0
  0
CLASS
  1
ACAMGFILTERDAT
  2
AcAmgFilterDat
  3
"AcadM|Product Description: AutoCAD Mechanical|Company: Autodesk, Inc."
 90
     1024
280
     0
281
     0
  0
CLASS
  1
LAYER_INDEX
  2
AcDbLayerIndex
  3
ObjectDBX Classes
 90
        0
280
     0
281
     0
  0
CLASS
  1
IDBUFFER
  2
AcDbIdBuffer
  3
ObjectDBX Classes
 90
        0
280
     0
281
     0
  0
CLASS
  1
DICTIONARYVAR
  2
AcDbDictionaryVar
  3
ObjectDBX Classes
 90
        0
280
     0
281
     0
  0
CLASS
  1
CELLSTYLEMAP
  2
AcDbCellStyleMap
  3
ObjectDBX Classes
 90
     1152
280
     0
281
     0
  0
CLASS
  1
ACDBPLACEHOLDER
  2
AcDbPlaceHolder
  3
ObjectDBX Classes
 90
        0
280
     0
281
     0
  0
CLASS
  1
LAYOUT
  2
AcDbLayout
  3
ObjectDBX Classes
 90
        0
280
     0
281
     0
  0
ENDSEC
  0
SECTION
  2
TABLES
  0
TABLE
  2
VPORT
  5
262B
330
0
100
AcDbSymbolTable
 70
     1
  0
VPORT
  5
269B
330
262B
100
AcDbSymbolTableRecord
100
AcDbViewportTableRecord
  2
*ACTIVE
 70
     0
 10
0.0
 20
0.0
 11
1.0
 21
1.0
 12
-0.0000000000003411
 22
-101.8230071403948
 13
0.0
 23
0.0
 14
1.0
 24
1.0
 15
0.0
 25
0.0
 16
0.0
 26
0.0
 36
1.0
 17
110.3508135191519
 27
-319.067791676169
 37
0.0
 40
1636.939470655419
 41
1.712555066079295
 42
50.0
 43
0.0
 44
0.0
 50
0.0
 51
0.0
 71
     0
 72
   100
 73
     1
 74
     0
 75
     0
 76
     0
 77
     0
 78
     0
281
     0
 65
     0
110
0.0
120
0.0
130
0.0
111
1.0
121
0.0
131
0.0
112
0.0
122
1.0
132
0.0
 79
     0
146
0.0
  0
ENDTAB
  0
TABLE
  2
LTYPE
  5
2628
330
0
100
AcDbSymbolTable
 70
    19
  0
LTYPE
  5
2685
330
2628
100
AcDbSymbolTableRecord
100
AcDbLinetypeTableRecord
  2
ByBlock
 70
     0
  3

 72
    65
 73
     0
 40
0.0
  0
LTYPE
  5
2686
330
2628
100
AcDbSymbolTableRecord
100
AcDbLinetypeTableRecord
  2
ByLayer
 70
     0
  3

 72
    65
 73
     0
 40
0.0
  0
LTYPE
  5
2687
330
2628
100
AcDbSymbolTableRecord
100
AcDbLinetypeTableRecord
  2
CONTINUOUS
 70
     0
  3
実線
 72
    65
 73
     0
 40
0.0
  0
LTYPE
  5
269C
330
2628
100
AcDbSymbolTableRecord
100
AcDbLinetypeTableRecord
  2
DASHDOT
 70
     0
  3
____ _ ____ _ ____ _ ____ _ ____ _ ____ _ ____
 72
    65
 73
     4
 40
5.5
 49
4.0
 74
     0
 49
-0.6
 74
     0
 49
0.3
 74
     0
 49
-0.6
 74
     0
  0
LTYPE
  5
269D
330
2628
100
AcDbSymbolTableRecord
100
AcDbLinetypeTableRecord
  2
HIDDEN
 70
     0
  3
Hidden __ __ __ __ __ __ __ __ __ __ __ __ __ _
 72
    65
 73
     2
 40
0.375
 49
0.25
 74
     0
 49
-0.125
 74
     0
  0
LTYPE
  5
269E
330
2628
100
AcDbSymbolTableRecord
100
AcDbLinetypeTableRecord
  2
PHANTOM2
 70
     0
  3
Phantom (.5x) ___ _ _ ___ _ _ ___ _ _ ___ _ _
 72
    65
 73
     6
 40
1.25
 49
0.625
 74
     0
 49
-0.125
 74
     0
 49
0.125
 74
     0
 49
-0.125
 74
     0
 49
0.125
 74
     0
 49
-0.125
 74
     0
  0
LTYPE
  5
269F
330
2628
100
AcDbSymbolTableRecord
100
AcDbLinetypeTableRecord
  2
CENTER
 70
     0
  3
Center ____ _ ____ _ ____ _ ____ _ ____ _ ____
 72
    65
 73
     4
 40
2.0
 49
1.25
 74
     0
 49
-0.25
 74
     0
 49
0.25
 74
     0
 49
-0.25
 74
     0
  0
LTYPE
  5
26A0
330
2628
100
AcDbSymbolTableRecord
100
AcDbLinetypeTableRecord
  2
ASULTYPE
 70
     0
  3
実線
 72
    65
 73
     2
 40
3.0
 49
2.5
 74
     0
 49
0.5
 74
     0
  0
LTYPE
  5
26A1
330
2628
100
AcDbSymbolTableRecord
100
AcDbLinetypeTableRecord
  2
ASVLTYPE
 70
     0
  3
__ __ __ __ __ __ __ __ __ __ __ __ __ __ __ __ __ __ __ __ __
 72
    65
 73
     2
 40
0.75
 49
0.5
 74
     0
 49
-0.25
 74
     0
  0
LTYPE
  5
26A2
330
2628
100
AcDbSymbolTableRecord
100
AcDbLinetypeTableRecord
  2
AM_ISO02W050
 70
     0
  3
__ __ __ __ __ __ __ __ __ __ __ __ __ __ __
 72
    65
 73
     2
 40
7.5
 49
6.0
 74
     0
 49
-1.5
 74
     0
  0
LTYPE
  5
26A3
330
2628
100
AcDbSymbolTableRecord
100
AcDbLinetypeTableRecord
  2
AM_ISO08W050
 70
     0
  3
____ . ____ . ____ . ____ . ____ . ____ . ____
 72
    65
 73
     4
 40
18.0
 49
12.0
 74
     0
 49
-1.5
 74
     0
 49
3.0
 74
     0
 49
-1.5
 74
     0
  0
LTYPE
  5
26A4
330
2628
100
AcDbSymbolTableRecord
100
AcDbLinetypeTableRecord
  2
AM_ISO09W050
 70
     0
  3
_____ . . _____ . . _____ . . ____ .. ____
 72
    65
 73
     6
 40
22.5
 49
12.0
 74
     0
 49
-1.5
 74
     0
 49
3.0
 74
     0
 49
-1.5
 74
     0
 49
3.0
 74
     0
 49
-1.5
 74
     0
  0
LTYPE
  5
26A5
330
2628
100
AcDbSymbolTableRecord
100
AcDbLinetypeTableRecord
  2
AMCONSTR
 70
     0
  3
_______________________
 72
    65
 73
     2
 40
9999.0
 49
9999.0
 74
     0
 49
0.0
 74
     0
  0
LTYPE
  5
26A6
330
2628
100
AcDbSymbolTableRecord
100
AcDbLinetypeTableRecord
  2
AM_ISO08W050X2
 70
     0
  3
__ . __ . __ . __ . __ . __
 72
    65
 73
     4
 40
9.0
 49
6.0
 74
     0
 49
-0.75
 74
     0
 49
1.5
 74
     0
 49
-0.75
 74
     0
  0
LTYPE
  5
26A7
330
2628
100
AcDbSymbolTableRecord
100
AcDbLinetypeTableRecord
  2
AM_ISO02W050X2
 70
     0
  3
 _ _ _ _ _ _ _ _ _ _ _ _
 72
    65
 73
     2
 40
3.75
 49
3.0
 74
     0
 49
-0.75
 74
     0
  0
LTYPE
  5
26A8
330
2628
100
AcDbSymbolTableRecord
100
AcDbLinetypeTableRecord
  2
AMZIGZAG
 70
     0
  3
/\/-/\/-/\/-/\/-/\/-/\/
 72
    65
 73
     2
 40
11.0001
 49
0.0001
 74
     0
 49
-11.0
 74
     0
  0
LTYPE
  5
26A9
330
2628
100
AcDbSymbolTableRecord
100
AcDbLinetypeTableRecord
  2
CENTER2
 70
     0
  3
Center (.5x) ___ _ ___ _ ___ _ ___ _ ___ _ ___
 72
    65
 73
     4
 40
1.125
 49
0.75
 74
     0
 49
-0.125
 74
     0
 49
0.125
 74
     0
 49
-0.125
 74
     0
  0
LTYPE
  5
26AA
330
2628
100
AcDbSymbolTableRecord
100
AcDbLinetypeTableRecord
  2
HIDDEN2
 70
     0
  3
Hidden (.5x) _ _ _ _ _ _ _ _ _ _ _ _ _ _ _ _ _
 72
    65
 73
     2
 40
0.1875
 49
0.125
 74
     0
 49
-0.0625
 74
     0
  0
LTYPE
  5
26AB
330
2628
100
AcDbSymbolTableRecord
100
AcDbLinetypeTableRecord
  2
AMZIGZAG2
 70
     0
  3
/\/-/\/-/\/-/\/-/\/-/\/
 72
    65
 73
     2
 40
0.4401
 49
0.0001
 74
     0
 49
-0.4400000000000003
 74
     0
  0
LTYPE
  5
26AC
330
2628
100
AcDbSymbolTableRecord
100
AcDbLinetypeTableRecord
  2
ACANSTGB
 70
     0
  3
__ . . __ . .
 72
    65
 73
     6
 40
0.35433070866
 49
0.15748031496
 74
     0
 49
-0.03937007874
 74
     0
 49
0.03937007874
 74
     0
 49
-0.03937007874
 74
     0
 49
0.03937007874
 74
     0
 49
-0.03937007874
 74
     0
  0
LTYPE
  5
26AD
330
2628
100
AcDbSymbolTableRecord
100
AcDbLinetypeTableRecord
  2
ACANSTGL
 70
     0
  3
_ _ _ _ _
 72
    65
 73
     2
 40
0.11811023622
 49
0.07874015748
 74
     0
 49
-0.03937007874
 74
     0
  0
ENDTAB
  0
TABLE
  2
LAYER
  5
2625
330
0
100
AcDbSymbolTable
 70
    12
  0
LAYER
  5
267F
102
{ACAD_XDICTIONARY
360
2856
102
}
330
2625
100
AcDbSymbolTableRecord
100
AcDbLayerTableRecord
  2
0
 70
     0
 62
     7
  6
CONTINUOUS
370
    -3
390
2632
  0
LAYER
  5
26AE
102
{ACAD_XDICTIONARY
360
2858
102
}
330
2625
100
AcDbSymbolTableRecord
100
AcDbLayerTableRecord
  2
OUTLINE
 70
     0
 62
     3
  6
CONTINUOUS
370
    -3
390
2632
  0
LAYER
  5
26AF
102
{ACAD_XDICTIONARY
360
285A
102
}
330
2625
100
AcDbSymbolTableRecord
100
AcDbLayerTableRecord
  2
SIZE
 70
     0
 62
    30
  6
CONTINUOUS
370
    -3
390
2632
  0
LAYER
  5
26B0
102
{ACAD_XDICTIONARY
360
285C
102
}
330
2625
100
AcDbSymbolTableRecord
100
AcDbLayerTableRecord
  2
BASIS
 70
     0
 62
     6
  6
DASHDOT
370
    -3
390
2632
  0
LAYER
  5
26B1
102
{ACAD_XDICTIONARY
360
285E
102
}
330
2625
100
AcDbSymbolTableRecord
100
AcDbLayerTableRecord
  2
DETAIL
 70
     0
 62
     5
  6
CONTINUOUS
370
    -3
390
2632
  0
LAYER
  5
26B2
102
{ACAD_XDICTIONARY
360
2860
102
}
330
2625
100
AcDbSymbolTableRecord
100
AcDbLayerTableRecord
  2
ARRANGE
 70
     0
 62
     1
  6
CONTINUOUS
370
    -3
390
2632
  0
LAYER
  5
26B3
330
2625
100
AcDbSymbolTableRecord
100
AcDbLayerTableRecord
  2
DEFPOINTS
 70
     0
 62
     7
  6
CONTINUOUS
290
     0
370
    -3
390
2632
  0
LAYER
  5
26B4
102
{ACAD_XDICTIONARY
360
2862
102
}
330
2625
100
AcDbSymbolTableRecord
100
AcDbLayerTableRecord
  2
ETC
 70
     0
 62
    61
  6
CONTINUOUS
370
    -3
390
2632
  0
LAYER
  5
26B5
102
{ACAD_XDICTIONARY
360
2864
102
}
330
2625
100
AcDbSymbolTableRecord
100
AcDbLayerTableRecord
  2
FIX
 70
     0
 62
    11
  6
CONTINUOUS
370
    -3
390
2632
  0
LAYER
  5
26B6
102
{ACAD_XDICTIONARY
360
2866
102
}
330
2625
100
AcDbSymbolTableRecord
100
AcDbLayerTableRecord
  2
NOTE
 70
     0
 62
     4
  6
CONTINUOUS
370
    -3
390
2632
  0
LAYER
  5
26B7
102
{ACAD_XDICTIONARY
360
2868
102
}
330
2625
100
AcDbSymbolTableRecord
100
AcDbLayerTableRecord
  2
SERVICESPACE
 70
     0
 62
     2
  6
DASHDOT
370
    -3
390
2632
  0
LAYER
  5
26B8
102
{ACAD_XDICTIONARY
360
286A
102
}
330
2625
100
AcDbSymbolTableRecord
100
AcDbLayerTableRecord
  2
SYMBOLLINE
 70
     0
 62
    15
  6
CONTINUOUS
370
    -3
390
2632
  0
ENDTAB
  0
TABLE
  2
STYLE
  5
2626
330
0
100
AcDbSymbolTable
 70
     5
  0
STYLE
  5
2680
330
2626
100
AcDbSymbolTableRecord
100
AcDbTextStyleTableRecord
  2
STANDARD
 70
     0
 40
64.0
 41
0.9
 50
0.0
 71
     0
 42
64.0
  3
SIMPLEX.shx
  4
BIGFONT.shx
  0
STYLE
  5
2684
330
2626
100
AcDbSymbolTableRecord
100
AcDbTextStyleTableRecord
  2
ANNOTATIVE
 70
     0
 40
0.0
 41
1.0
 50
0.0
 71
     0
 42
0.2
  3
txt
  4

1001
ACADANNOTATIVE
1000
AnnotativeData
1002
{
1070
     1
1070
     1
1002
}
  0
STYLE
  5
26B9
330
2626
100
AcDbSymbolTableRecord
100
AcDbTextStyleTableRecord
  2

 70
     1
 40
0.0
 41
1.0
 50
0.0
 71
     0
 42
64.0
  3
genltshp.shx
  4

  0
STYLE
  5
26BA
330
2626
100
AcDbSymbolTableRecord
100
AcDbTextStyleTableRecord
  2
ACANSTS
 70
     0
 40
1.0
 41
1.0
 50
0.0
 71
     0
 42
64.0
  3
romans.shx
  4
extfont.shx
  0
STYLE
  5
26BB
330
2626
100
AcDbSymbolTableRecord
100
AcDbTextStyleTableRecord
  2
ACANSGDT
 70
     0
 40
0.0
 41
1.0
 50
0.0
 71
     0
 42
64.0
  3
amgdt.shx
  4

  0
ENDTAB
  0
TABLE
  2
VIEW
  5
2629
330
0
100
AcDbSymbolTable
 70
     1
  0
VIEW
  5
26BC
330
2629
100
AcDbSymbolTableRecord
100
AcDbViewTableRecord
  2
ALL
 70
     0
 40
4282.619807999997
 10
0.0
 20
41.30990399999999
 41
5940.0
 11
0.0
 21
0.0
 31
1.0
 12
0.0
 22
0.0
 32
0.0
 42
50.0
 43
0.0
 44
0.0
 50
0.0
 71
     0
281
     0
 72
     1
110
0.0
120
0.0
130
0.0
111
1.0
121
0.0
131
0.0
112
0.0
122
1.0
132
0.0
 79
     0
146
0.0
  0
ENDTAB
  0
TABLE
  2
UCS
  5
262A
330
0
100
AcDbSymbolTable
 70
     0
  0
ENDTAB
  0
TABLE
  2
APPID
  5
262C
330
0
100
AcDbSymbolTable
 70
    26
  0
APPID
  5
2681
330
262C
100
AcDbSymbolTableRecord
100
AcDbRegAppTableRecord
  2
ACAD
 70
     0
  0
APPID
  5
2688
330
262C
100
AcDbSymbolTableRecord
100
AcDbRegAppTableRecord
  2
ACADANNOTATIVE
 70
     0
  0
APPID
  5
2692
330
262C
100
AcDbSymbolTableRecord
100
AcDbRegAppTableRecord
  2
ACAD_MLEADERVER
 70
     0
  0
APPID
  5
26BD
330
262C
100
AcDbSymbolTableRecord
100
AcDbRegAppTableRecord
  2
GENIUS_GENDIM_13
 70
     0
  0
APPID
  5
26BE
330
262C
100
AcDbSymbolTableRecord
100
AcDbRegAppTableRecord
  2
GENIUS_GENDTOL_13
 70
     0
  0
APPID
  5
26BF
330
262C
100
AcDbSymbolTableRecord
100
AcDbRegAppTableRecord
  2
GENIUS_GE3DTOL_13
 70
     0
  0
APPID
  5
26C0
330
262C
100
AcDbSymbolTableRecord
100
AcDbRegAppTableRecord
  2
MCAD_NO_VIS
 70
     0
  0
APPID
  5
26C1
330
262C
100
AcDbSymbolTableRecord
100
AcDbRegAppTableRecord
  2
ACAD_TEMP_GRAPHIC
 70
     0
  0
APPID
  5
26C2
330
262C
100
AcDbSymbolTableRecord
100
AcDbRegAppTableRecord
  2
AD_DRAW
 70
     0
  0
APPID
  5
26C3
330
262C
100
AcDbSymbolTableRecord
100
AcDbRegAppTableRecord
  2
ACATTRIBSERVICES
 70
     0
  0
APPID
  5
26C4
330
262C
100
AcDbSymbolTableRecord
100
AcDbRegAppTableRecord
  2
ASURF_PCURVE_APPNAME
 70
     0
  0
APPID
  5
26C5
330
262C
100
AcDbSymbolTableRecord
100
AcDbRegAppTableRecord
  2
AMG_3D2D_5_0
 70
     0
  0
APPID
  5
26C6
330
262C
100
AcDbSymbolTableRecord
100
AcDbRegAppTableRecord
  2
DESIGNERASSEMBLIES
 70
     0
  0
APPID
  5
26C7
330
262C
100
AcDbSymbolTableRecord
100
AcDbRegAppTableRecord
  2
ACADM_DIM_EDIT
 70
     0
  0
APPID
  5
26C8
330
262C
100
AcDbSymbolTableRecord
100
AcDbRegAppTableRecord
  2
AMDT_DM_ADJ
 70
     0
  0
APPID
  5
26C9
330
262C
100
AcDbSymbolTableRecord
100
AcDbRegAppTableRecord
  2
ACAD_DSTYLE_DIMARC_LENGTH_
 70
     0
  0
APPID
  5
26CA
330
262C
100
AcDbSymbolTableRecord
100
AcDbRegAppTableRecord
  2
ACAD_DSTYLE_DIMJOGGED_JOGA
 70
     0
  0
APPID
  5
26CB
330
262C
100
AcDbSymbolTableRecord
100
AcDbRegAppTableRecord
  2
ACAD_PSEXT
 70
     0
  0
APPID
  5
26CC
330
262C
100
AcDbSymbolTableRecord
100
AcDbRegAppTableRecord
  2
ACAD_EXEMPT_FROM_CAD_STANDARDS
 70
     0
  0
APPID
  5
26CD
330
262C
100
AcDbSymbolTableRecord
100
AcDbRegAppTableRecord
  2
ACAD_DSTYLE_DIMJAG
 70
     0
  0
APPID
  5
26CE
330
262C
100
AcDbSymbolTableRecord
100
AcDbRegAppTableRecord
  2
ACAD_DSTYLE_DIMTALN
 70
     0
  0
APPID
  5
27F6
330
262C
100
AcDbSymbolTableRecord
100
AcDbRegAppTableRecord
  2
AMG_3D2D_5.0
 70
     0
  0
APPID
  5
2893
330
262C
100
AcDbSymbolTableRecord
100
AcDbRegAppTableRecord
  2
ACAD_DSTYLE_DIMARC_LENGTH_SYMBOL
 70
     0
  0
APPID
  5
2894
330
262C
100
AcDbSymbolTableRecord
100
AcDbRegAppTableRecord
  2
ACAD_DSTYLE_DIM_LINETYPE
 70
     0
  0
APPID
  5
2895
330
262C
100
AcDbSymbolTableRecord
100
AcDbRegAppTableRecord
  2
ACAD_DSTYLE_DIM_EXT1_LINETYPE
 70
     0
  0
APPID
  5
2896
330
262C
100
AcDbSymbolTableRecord
100
AcDbRegAppTableRecord
  2
ACAD_DSTYLE_DIM_EXT2_LINETYPE
 70
     0
  0
ENDTAB
  0
TABLE
  2
DIMSTYLE
  5
262D
330
0
100
AcDbSymbolTable
 70
    10
100
AcDbDimStyleTable
 71
     1
340
26CF
  0
DIMSTYLE
105
2682
330
262D
100
AcDbSymbolTableRecord
100
AcDbDimStyleTableRecord
  2
STANDARD
 70
     0
 41
12.0
 42
20.0
 44
20.0
 77
     1
 78
     8
140
64.0
141
0.0
147
10.0
275
     1
279
     2
284
     7
285
     7
286
     7
340
2680
  0
DIMSTYLE
105
2683
330
262D
100
AcDbSymbolTableRecord
100
AcDbDimStyleTableRecord
  2
ANNOTATIVE
 70
     0
275
     1
279
     2
284
     7
285
     7
286
     7
340
2680
1001
ACADANNOTATIVE
1000
AnnotativeData
1002
{
1070
     1
1070
     1
1002
}
  0
DIMSTYLE
105
26CF
330
262D
100
AcDbSymbolTableRecord
100
AcDbDimStyleTableRecord
  2
AM_ANSI
 70
     0
  4
mm
 41
0.12
 42
0.05
 43
0.5
 44
0.1
 47
0.1
 48
0.1
 78
     7
 79
     2
140
0.12
141
0.0
146
0.71
147
0.06
176
   256
177
   256
178
     2
274
     4
284
     7
340
2680
371
    -1
372
    -1
1001
ACAD_DSTYLE_DIMARC_LENGTH_SYMBOL
1070
   379
1070
     1
1001
ACAD_DSTYLE_DIM_LINETYPE
1070
   380
1005
2685
1001
ACAD_DSTYLE_DIM_EXT1_LINETYPE
1070
   381
1005
2685
1001
ACAD_DSTYLE_DIM_EXT2_LINETYPE
1070
   382
1005
2685
  0
DIMSTYLE
105
26D0
330
262D
100
AcDbSymbolTableRecord
100
AcDbDimStyleTableRecord
  2
AM_ANSI$3
 70
     0
  4
mm
 41
0.12
 42
0.05
 43
0.5
 44
0.1
 47
0.1
 48
0.1
 78
     7
 79
     2
140
0.12
141
0.0
146
0.71
147
0.06
176
   256
177
   256
178
     2
274
     4
284
     7
288
     1
289
     0
340
2680
371
    -1
372
    -1
1001
ACAD_DSTYLE_DIMARC_LENGTH_SYMBOL
1070
   379
1070
     1
1001
ACAD_DSTYLE_DIM_LINETYPE
1070
   380
1005
2685
1001
ACAD_DSTYLE_DIM_EXT1_LINETYPE
1070
   381
1005
2685
1001
ACAD_DSTYLE_DIM_EXT2_LINETYPE
1070
   382
1005
2685
  0
DIMSTYLE
105
26D1
330
262D
100
AcDbSymbolTableRecord
100
AcDbDimStyleTableRecord
  2
AM_ANSI$4
 70
     0
  4
mm
 41
0.12
 42
0.05
 43
0.5
 44
0.1
 47
0.1
 48
0.1
 78
     7
 79
     2
140
0.12
141
0.0
146
0.71
147
0.06
176
   256
177
   256
178
     2
274
     4
284
     7
340
2680
371
    -1
372
    -1
1001
ACAD_DSTYLE_DIMARC_LENGTH_SYMBOL
1070
   379
1070
     1
1001
ACAD_DSTYLE_DIM_LINETYPE
1070
   380
1005
2685
1001
ACAD_DSTYLE_DIM_EXT1_LINETYPE
1070
   381
1005
2685
1001
ACAD_DSTYLE_DIM_EXT2_LINETYPE
1070
   382
1005
2685
  0
DIMSTYLE
105
26D2
330
262D
100
AcDbSymbolTableRecord
100
AcDbDimStyleTableRecord
  2
AM_ANSI$7
 70
     0
  4
mm
 41
0.12
 42
0.05
 43
0.5
 44
0.1
 47
0.1
 48
0.1
 78
     7
 79
     2
140
0.12
141
0.0
146
0.71
147
0.06
176
   256
177
   256
178
     2
274
     4
284
     7
340
2680
371
    -1
372
    -1
1001
ACAD_DSTYLE_DIMARC_LENGTH_SYMBOL
1070
   379
1070
     1
1001
ACAD_DSTYLE_DIM_LINETYPE
1070
   380
1005
2685
1001
ACAD_DSTYLE_DIM_EXT1_LINETYPE
1070
   381
1005
2685
1001
ACAD_DSTYLE_DIM_EXT2_LINETYPE
1070
   382
1005
2685
  0
DIMSTYLE
105
26D3
330
262D
100
AcDbSymbolTableRecord
100
AcDbDimStyleTableRecord
  2
AM_ANSI$SF
 70
     0
  4
mm
 41
0.12
 42
0.05
 43
0.5
 44
0.1
 47
0.1
 48
0.1
 75
     1
 76
     1
 78
     7
 79
     2
140
0.12
141
0.0
146
0.71
147
0.06
176
   256
177
   256
178
     2
274
     4
284
     7
340
2680
371
    -1
372
    -1
1001
ACAD_DSTYLE_DIMARC_LENGTH_SYMBOL
1070
   379
1070
     1
1001
ACAD_DSTYLE_DIM_LINETYPE
1070
   380
1005
2685
1001
ACAD_DSTYLE_DIM_EXT1_LINETYPE
1070
   381
1005
2685
1001
ACAD_DSTYLE_DIM_EXT2_LINETYPE
1070
   382
1005
2685
  0
DIMSTYLE
105
26D4
330
262D
100
AcDbSymbolTableRecord
100
AcDbDimStyleTableRecord
  2
AM_ANSI$SH
 70
     0
  4
mm
 41
0.12
 42
0.05
 43
0.5
 44
0.1
 47
0.1
 48
0.1
 75
     1
 76
     1
 78
     7
 79
     2
140
0.12
141
0.0
146
0.71
147
0.06
173
     1
176
   256
177
   256
178
     2
274
     4
284
     7
340
2680
343
26F4
371
    -1
372
    -1
1001
ACAD_DSTYLE_DIMARC_LENGTH_SYMBOL
1070
   379
1070
     1
1001
ACAD_DSTYLE_DIM_LINETYPE
1070
   380
1005
2685
1001
ACAD_DSTYLE_DIM_EXT1_LINETYPE
1070
   381
1005
2685
1001
ACAD_DSTYLE_DIM_EXT2_LINETYPE
1070
   382
1005
2685
  0
DIMSTYLE
105
26D5
330
262D
100
AcDbSymbolTableRecord
100
AcDbDimStyleTableRecord
  2
STANDARD1
 70
     0
 40
6.0
 41
2.5
 42
0.625
 43
6.0
 44
1.25
 47
1.0
 48
0.5
 77
     1
 78
     8
140
2.5
141
0.0
146
0.6
147
1.0
173
     1
275
     1
279
     2
284
     7
285
     7
286
     7
340
2680
  0
DIMSTYLE
105
26D6
330
262D
100
AcDbSymbolTableRecord
100
AcDbDimStyleTableRecord
  2
STANDARD$0
 70
     0
 41
12.0
 42
20.0
 44
20.0
 73
     0
 74
     0
 77
     1
 78
     8
140
64.0
141
0.0
147
10.0
275
     1
279
     2
284
     7
285
     7
286
     7
340
2680
  0
ENDTAB
  0
TABLE
  2
BLOCK_RECORD
  5
2624
330
0
100
AcDbSymbolTable
 70
    76
  0
BLOCK_RECORD
  5
2697
102
{ACAD_XDICTIONARY
360
286C
102
}
330
2624
100
AcDbSymbolTableRecord
100
AcDbBlockTableRecord
  2
*Model_Space
340
269A
  0
BLOCK_RECORD
  5
2693
330
2624
100
AcDbSymbolTableRecord
100
AcDbBlockTableRecord
  2
*Paper_Space
340
2696
  0
BLOCK_RECORD
  5
26DE
330
2624
100
AcDbSymbolTableRecord
100
AcDbBlockTableRecord
  2
$MODEL_SPACE
340
0
  0
BLOCK_RECORD
  5
26E0
330
2624
100
AcDbSymbolTableRecord
100
AcDbBlockTableRecord
  2
$PAPER_SPACE
340
0
  0
BLOCK_RECORD
  5
26E2
330
2624
100
AcDbSymbolTableRecord
100
AcDbBlockTableRecord
  2
_ORIGIN
340
0
  0
BLOCK_RECORD
  5
26E4
330
2624
100
AcDbSymbolTableRecord
100
AcDbBlockTableRecord
  2
_DOTBLANK
340
0
102
{BLKREFS
331
1299
331
129A
331
11AA
331
11AB
331
E80
331
E81
331
1123
331
1124
331
11C2
331
11C3
331
11EC
331
11ED
331
11F9
331
11FA
331
1287
331
1288
331
1417
331
1418
331
1423
331
1424
331
142F
331
1430
331
143B
331
143C
331
166E
331
166F
331
1677
331
1678
331
1680
331
1681
331
1689
331
168A
331
1696
331
1697
331
16A3
331
16A4
331
16AF
331
16B0
331
16BB
331
16BC
331
16C7
331
16C8
331
16D3
331
16D4
331
1D86
331
1D87
331
1D8F
331
1D90
331
1D98
331
1D99
331
1DA1
331
1DA2
331
1DAB
331
1DAC
331
1DB5
331
1DB6
331
221C
331
221D
331
2221
331
2222
331
2226
331
2227
331
222B
331
222C
331
2230
331
2231
331
2235
331
2236
331
223A
331
223B
331
223F
331
2240
331
2244
331
2245
331
2249
331
224A
331
224F
331
2250
331
2256
331
2257
331
25E1
331
25E2
331
25E6
331
25E7
331
25EC
331
25ED
331
25F2
331
25F3
331
25F7
331
25F8
331
25FC
331
25FD
102
}
  0
BLOCK_RECORD
  5
26E6
330
2624
100
AcDbSymbolTableRecord
100
AcDbBlockTableRecord
  2
_OPEN30
340
0
102
{BLKREFS
331
2087
331
21C4
331
229D
331
23F6
102
}
  0
BLOCK_RECORD
  5
26E8
330
2624
100
AcDbSymbolTableRecord
100
AcDbBlockTableRecord
  2
*D5
340
0
  0
BLOCK_RECORD
  5
26EA
330
2624
100
AcDbSymbolTableRecord
100
AcDbBlockTableRecord
  2
*U6
340
0
102
{BLKREFS
331
129B
102
}
  0
BLOCK_RECORD
  5
26EC
330
2624
100
AcDbSymbolTableRecord
100
AcDbBlockTableRecord
  2
*D7
340
0
  0
BLOCK_RECORD
  5
26EE
330
2624
100
AcDbSymbolTableRecord
100
AcDbBlockTableRecord
  2
*U8
340
0
102
{BLKREFS
331
11AC
102
}
  0
BLOCK_RECORD
  5
26F0
330
2624
100
AcDbSymbolTableRecord
100
AcDbBlockTableRecord
  2
*D9
340
0
  0
BLOCK_RECORD
  5
26F2
330
2624
100
AcDbSymbolTableRecord
100
AcDbBlockTableRecord
  2
*U10
340
0
102
{BLKREFS
331
E82
102
}
  0
BLOCK_RECORD
  5
26F4
330
2624
100
AcDbSymbolTableRecord
100
AcDbBlockTableRecord
  2
GENAXEH
340
0
  0
BLOCK_RECORD
  5
26F6
330
2624
100
AcDbSymbolTableRecord
100
AcDbBlockTableRecord
  2
*D12
340
0
  0
BLOCK_RECORD
  5
26F8
330
2624
100
AcDbSymbolTableRecord
100
AcDbBlockTableRecord
  2
*U13
340
0
102
{BLKREFS
331
1125
102
}
  0
BLOCK_RECORD
  5
26FA
330
2624
100
AcDbSymbolTableRecord
100
AcDbBlockTableRecord
  2
*D14
340
0
  0
BLOCK_RECORD
  5
26FC
330
2624
100
AcDbSymbolTableRecord
100
AcDbBlockTableRecord
  2
*U15
340
0
102
{BLKREFS
331
11C4
102
}
  0
BLOCK_RECORD
  5
26FE
330
2624
100
AcDbSymbolTableRecord
100
AcDbBlockTableRecord
  2
*D16
340
0
  0
BLOCK_RECORD
  5
2700
330
2624
100
AcDbSymbolTableRecord
100
AcDbBlockTableRecord
  2
*U17
340
0
102
{BLKREFS
331
11EE
102
}
  0
BLOCK_RECORD
  5
2702
330
2624
100
AcDbSymbolTableRecord
100
AcDbBlockTableRecord
  2
*D18
340
0
  0
BLOCK_RECORD
  5
2704
330
2624
100
AcDbSymbolTableRecord
100
AcDbBlockTableRecord
  2
*U19
340
0
102
{BLKREFS
331
11FB
102
}
  0
BLOCK_RECORD
  5
2706
330
2624
100
AcDbSymbolTableRecord
100
AcDbBlockTableRecord
  2
*D20
340
0
  0
BLOCK_RECORD
  5
2708
330
2624
100
AcDbSymbolTableRecord
100
AcDbBlockTableRecord
  2
*U21
340
0
102
{BLKREFS
331
1289
102
}
  0
BLOCK_RECORD
  5
270A
330
2624
100
AcDbSymbolTableRecord
100
AcDbBlockTableRecord
  2
*D22
340
0
  0
BLOCK_RECORD
  5
270C
330
2624
100
AcDbSymbolTableRecord
100
AcDbBlockTableRecord
  2
*U23
340
0
102
{BLKREFS
331
1419
102
}
  0
BLOCK_RECORD
  5
270E
330
2624
100
AcDbSymbolTableRecord
100
AcDbBlockTableRecord
  2
*D24
340
0
  0
BLOCK_RECORD
  5
2710
330
2624
100
AcDbSymbolTableRecord
100
AcDbBlockTableRecord
  2
*U25
340
0
102
{BLKREFS
331
1425
102
}
  0
BLOCK_RECORD
  5
2712
330
2624
100
AcDbSymbolTableRecord
100
AcDbBlockTableRecord
  2
*D26
340
0
  0
BLOCK_RECORD
  5
2714
330
2624
100
AcDbSymbolTableRecord
100
AcDbBlockTableRecord
  2
*U27
340
0
102
{BLKREFS
331
1431
102
}
  0
BLOCK_RECORD
  5
2716
330
2624
100
AcDbSymbolTableRecord
100
AcDbBlockTableRecord
  2
*D28
340
0
  0
BLOCK_RECORD
  5
2718
330
2624
100
AcDbSymbolTableRecord
100
AcDbBlockTableRecord
  2
*U29
340
0
102
{BLKREFS
331
143D
102
}
  0
BLOCK_RECORD
  5
271A
330
2624
100
AcDbSymbolTableRecord
100
AcDbBlockTableRecord
  2
*D30
340
0
  0
BLOCK_RECORD
  5
271C
330
2624
100
AcDbSymbolTableRecord
100
AcDbBlockTableRecord
  2
*U31
340
0
102
{BLKREFS
331
1670
102
}
  0
BLOCK_RECORD
  5
271E
330
2624
100
AcDbSymbolTableRecord
100
AcDbBlockTableRecord
  2
*D32
340
0
  0
BLOCK_RECORD
  5
2720
330
2624
100
AcDbSymbolTableRecord
100
AcDbBlockTableRecord
  2
*U33
340
0
102
{BLKREFS
331
1679
102
}
  0
BLOCK_RECORD
  5
2722
330
2624
100
AcDbSymbolTableRecord
100
AcDbBlockTableRecord
  2
*D34
340
0
  0
BLOCK_RECORD
  5
2724
330
2624
100
AcDbSymbolTableRecord
100
AcDbBlockTableRecord
  2
*U35
340
0
102
{BLKREFS
331
1682
102
}
  0
BLOCK_RECORD
  5
2726
330
2624
100
AcDbSymbolTableRecord
100
AcDbBlockTableRecord
  2
*D36
340
0
  0
BLOCK_RECORD
  5
2728
330
2624
100
AcDbSymbolTableRecord
100
AcDbBlockTableRecord
  2
*U37
340
0
102
{BLKREFS
331
168B
102
}
  0
BLOCK_RECORD
  5
272A
330
2624
100
AcDbSymbolTableRecord
100
AcDbBlockTableRecord
  2
*U38
340
0
  0
BLOCK_RECORD
  5
272C
330
2624
100
AcDbSymbolTableRecord
100
AcDbBlockTableRecord
  2
*D39
340
0
  0
BLOCK_RECORD
  5
272E
330
2624
100
AcDbSymbolTableRecord
100
AcDbBlockTableRecord
  2
*U40
340
0
102
{BLKREFS
331
1698
102
}
  0
BLOCK_RECORD
  5
2730
330
2624
100
AcDbSymbolTableRecord
100
AcDbBlockTableRecord
  2
*D41
340
0
  0
BLOCK_RECORD
  5
2732
330
2624
100
AcDbSymbolTableRecord
100
AcDbBlockTableRecord
  2
*U42
340
0
102
{BLKREFS
331
16A5
102
}
  0
BLOCK_RECORD
  5
2734
330
2624
100
AcDbSymbolTableRecord
100
AcDbBlockTableRecord
  2
*D43
340
0
  0
BLOCK_RECORD
  5
2736
330
2624
100
AcDbSymbolTableRecord
100
AcDbBlockTableRecord
  2
*U44
340
0
102
{BLKREFS
331
16B1
102
}
  0
BLOCK_RECORD
  5
2738
330
2624
100
AcDbSymbolTableRecord
100
AcDbBlockTableRecord
  2
*D45
340
0
  0
BLOCK_RECORD
  5
273A
330
2624
100
AcDbSymbolTableRecord
100
AcDbBlockTableRecord
  2
*U46
340
0
102
{BLKREFS
331
16BD
102
}
  0
BLOCK_RECORD
  5
273C
330
2624
100
AcDbSymbolTableRecord
100
AcDbBlockTableRecord
  2
*D47
340
0
  0
BLOCK_RECORD
  5
273E
330
2624
100
AcDbSymbolTableRecord
100
AcDbBlockTableRecord
  2
*U48
340
0
102
{BLKREFS
331
16C9
102
}
  0
BLOCK_RECORD
  5
2740
330
2624
100
AcDbSymbolTableRecord
100
AcDbBlockTableRecord
  2
*D49
340
0
  0
BLOCK_RECORD
  5
2742
330
2624
100
AcDbSymbolTableRecord
100
AcDbBlockTableRecord
  2
*U50
340
0
102
{BLKREFS
331
16D5
102
}
  0
BLOCK_RECORD
  5
2744
330
2624
100
AcDbSymbolTableRecord
100
AcDbBlockTableRecord
  2
*D51
340
0
  0
BLOCK_RECORD
  5
2746
330
2624
100
AcDbSymbolTableRecord
100
AcDbBlockTableRecord
  2
*U52
340
0
102
{BLKREFS
331
1D88
102
}
  0
BLOCK_RECORD
  5
2748
330
2624
100
AcDbSymbolTableRecord
100
AcDbBlockTableRecord
  2
*D53
340
0
  0
BLOCK_RECORD
  5
274A
330
2624
100
AcDbSymbolTableRecord
100
AcDbBlockTableRecord
  2
*U54
340
0
102
{BLKREFS
331
1D91
102
}
  0
BLOCK_RECORD
  5
274C
330
2624
100
AcDbSymbolTableRecord
100
AcDbBlockTableRecord
  2
*D55
340
0
  0
BLOCK_RECORD
  5
274E
330
2624
100
AcDbSymbolTableRecord
100
AcDbBlockTableRecord
  2
*U56
340
0
102
{BLKREFS
331
1D9A
102
}
  0
BLOCK_RECORD
  5
2750
330
2624
100
AcDbSymbolTableRecord
100
AcDbBlockTableRecord
  2
*D57
340
0
  0
BLOCK_RECORD
  5
2752
330
2624
100
AcDbSymbolTableRecord
100
AcDbBlockTableRecord
  2
*U58
340
0
102
{BLKREFS
331
1DA3
102
}
  0
BLOCK_RECORD
  5
2754
330
2624
100
AcDbSymbolTableRecord
100
AcDbBlockTableRecord
  2
*D59
340
0
  0
BLOCK_RECORD
  5
2756
330
2624
100
AcDbSymbolTableRecord
100
AcDbBlockTableRecord
  2
*U60
340
0
102
{BLKREFS
331
1DAD
102
}
  0
BLOCK_RECORD
  5
2758
330
2624
100
AcDbSymbolTableRecord
100
AcDbBlockTableRecord
  2
*D61
340
0
  0
BLOCK_RECORD
  5
275A
330
2624
100
AcDbSymbolTableRecord
100
AcDbBlockTableRecord
  2
*U62
340
0
102
{BLKREFS
331
1DB7
102
}
  0
BLOCK_RECORD
  5
275C
330
2624
100
AcDbSymbolTableRecord
100
AcDbBlockTableRecord
  2
*U63
340
0
  0
BLOCK_RECORD
  5
275E
330
2624
100
AcDbSymbolTableRecord
100
AcDbBlockTableRecord
  2
*U64
340
0
  0
BLOCK_RECORD
  5
2760
330
2624
100
AcDbSymbolTableRecord
100
AcDbBlockTableRecord
  2
*U65
340
0
  0
BLOCK_RECORD
  5
2762
330
2624
100
AcDbSymbolTableRecord
100
AcDbBlockTableRecord
  2
*U66
340
0
102
{BLKREFS
331
21F2
102
}
  0
BLOCK_RECORD
  5
2764
330
2624
100
AcDbSymbolTableRecord
100
AcDbBlockTableRecord
  2
*U67
340
0
102
{BLKREFS
331
21F3
102
}
  0
BLOCK_RECORD
  5
2766
330
2624
100
AcDbSymbolTableRecord
100
AcDbBlockTableRecord
  2
A$C10875DC5
340
0
  0
BLOCK_RECORD
  5
2768
330
2624
100
AcDbSymbolTableRecord
100
AcDbBlockTableRecord
  2
*U69
340
0
  0
BLOCK_RECORD
  5
276A
330
2624
100
AcDbSymbolTableRecord
100
AcDbBlockTableRecord
  2
*U70
340
0
  0
BLOCK_RECORD
  5
276C
330
2624
100
AcDbSymbolTableRecord
100
AcDbBlockTableRecord
  2
*U71
340
0
102
{BLKREFS
331
25B7
102
}
  0
BLOCK_RECORD
  5
276E
330
2624
100
AcDbSymbolTableRecord
100
AcDbBlockTableRecord
  2
*U72
340
0
102
{BLKREFS
331
25B8
102
}
  0
BLOCK_RECORD
  5
2770
330
2624
100
AcDbSymbolTableRecord
100
AcDbBlockTableRecord
  2
*X73
340
0
102
{BLKREFS
331
25D5
102
}
  0
BLOCK_RECORD
  5
2772
330
2624
100
AcDbSymbolTableRecord
100
AcDbBlockTableRecord
  2
*X74
340
0
102
{BLKREFS
331
25D6
102
}
  0
ENDTAB
  0
ENDSEC
  0
SECTION
  2
BLOCKS
  0
BLOCK
  5
2698
330
2697
100
AcDbEntity
  8
0
100
AcDbBlockBegin
  2
*Model_Space
 70
     0
 10
0.0
 20
0.0
 30
0.0
  3
*Model_Space
  1

  0
ENDBLK
  5
2699
330
2697
100
AcDbEntity
  8
0
100
AcDbBlockEnd
  0
BLOCK
  5
2694
330
2693
100
AcDbEntity
 67
     1
  8
0
100
AcDbBlockBegin
  2
*Paper_Space
 70
     0
 10
0.0
 20
0.0
 30
0.0
  3
*Paper_Space
  1

  0
ENDBLK
  5
2695
330
2693
100
AcDbEntity
 67
     1
  8
0
100
AcDbBlockEnd
  0
BLOCK
  5
26DF
330
26DE
100
AcDbEntity
  8
0
100
AcDbBlockBegin
  2
$MODEL_SPACE
 70
     0
 10
0.0
 20
0.0
 30
0.0
  3
$MODEL_SPACE
  1

  0
ENDBLK
  5
1FC1
330
26DE
100
AcDbEntity
  8
0
100
AcDbBlockEnd
  0
BLOCK
  5
26E1
330
26E0
100
AcDbEntity
  8
0
100
AcDbBlockBegin
  2
$PAPER_SPACE
 70
     0
 10
0.0
 20
0.0
 30
0.0
  3
$PAPER_SPACE
  1

  0
ENDBLK
  5
1FBD
330
26E0
100
AcDbEntity
  8
0
100
AcDbBlockEnd
  0
BLOCK
  5
26E3
330
26E2
100
AcDbEntity
  8
0
100
AcDbBlockBegin
  2
_ORIGIN
 70
     0
 10
0.0
 20
0.0
 30
0.0
  3
_ORIGIN
  1

  0
CIRCLE
  5
880
330
26E2
100
AcDbEntity
  8
0
  6
Continuous
 62
     7
100
AcDbCircle
 10
0.0
 20
0.0
 30
0.0
 40
0.5
  0
LINE
  5
881
330
26E2
100
AcDbEntity
  8
0
  6
Continuous
 62
     7
100
AcDbLine
 10
0.0
 20
0.0
 30
0.0
 11
-1.0
 21
0.0
 31
0.0
  0
ENDBLK
  5
882
330
26E2
100
AcDbEntity
  8
0
100
AcDbBlockEnd
  0
BLOCK
  5
26E5
330
26E4
100
AcDbEntity
  8
0
 62
     1
100
AcDbBlockBegin
  2
_DOTBLANK
 70
     0
 10
0.0
 20
0.0
 30
0.0
  3
_DOTBLANK
  1

  0
CIRCLE
  5
AB3
330
26E4
100
AcDbEntity
  8
0
  6
ByBlock
 62
     0
100
AcDbCircle
 10
0.0
 20
0.0
 30
0.0
 40
0.5
  0
LINE
  5
AB4
330
26E4
100
AcDbEntity
  8
0
  6
ByBlock
 62
     0
100
AcDbLine
 10
-0.5
 20
0.0
 30
0.0
 11
-1.0
 21
0.0
 31
0.0
  0
ENDBLK
  5
AB6
330
26E4
100
AcDbEntity
  8
0
 62
     1
100
AcDbBlockEnd
  0
BLOCK
  5
26E7
330
26E6
100
AcDbEntity
  8
0
 62
     1
100
AcDbBlockBegin
  2
_OPEN30
 70
     0
 10
0.0
 20
0.0
 30
0.0
  3
_OPEN30
  1

  0
LINE
  5
AB8
330
26E6
100
AcDbEntity
  8
0
  6
ByBlock
 62
     0
100
AcDbLine
 10
-1.0
 20
0.26794919
 30
0.0
 11
0.0
 21
0.0
 31
0.0
  0
LINE
  5
AB9
330
26E6
100
AcDbEntity
  8
0
  6
ByBlock
 62
     0
100
AcDbLine
 10
0.0
 20
0.0
 30
0.0
 11
-1.0
 21
-0.26794919
 31
0.0
  0
LINE
  5
ABA
330
26E6
100
AcDbEntity
  8
0
  6
ByBlock
 62
     0
100
AcDbLine
 10
0.0
 20
0.0
 30
0.0
 11
-1.0
 21
0.0
 31
0.0
  0
ENDBLK
  5
ABC
330
26E6
100
AcDbEntity
  8
0
 62
     1
100
AcDbBlockEnd
  0
BLOCK
  5
26E9
330
26E8
100
AcDbEntity
  8
0
100
AcDbBlockBegin
  2
*D5
 70
     1
 10
0.0
 20
0.0
 30
0.0
  3
*D5
  1

  0
LINE
  5
1296
330
26E8
100
AcDbEntity
  8
SIZE
 62
     0
100
AcDbLine
 10
-134.5
 20
-320.0
 30
0.0
 11
-134.5
 21
-468.0173952306001
 31
0.0
  0
LINE
  5
1297
330
26E8
100
AcDbEntity
  8
SIZE
 62
     0
100
AcDbLine
 10
134.5
 20
-320.0
 30
0.0
 11
134.5
 21
-468.0173952306001
 31
0.0
  0
LINE
  5
1298
330
26E8
100
AcDbEntity
  8
SIZE
 62
     0
100
AcDbLine
 10
-122.5
 20
-448.0173952306
 30
0.0
 11
122.5
 21
-448.0173952306
 31
0.0
  0
INSERT
  5
1299
330
26E8
100
AcDbEntity
  8
SIZE
 62
     0
100
AcDbBlockReference
  2
_DOTBLANK
 10
-134.5
 20
-448.0173952306
 30
0.0
 41
12.0
 42
12.0
 43
12.0
 50
180.0
  0
INSERT
  5
129A
330
26E8
100
AcDbEntity
  8
SIZE
 62
     0
100
AcDbBlockReference
  2
_DOTBLANK
 10
134.5
 20
-448.0173952306
 30
0.0
 41
12.0
 42
12.0
 43
12.0
  0
INSERT
  5
129B
330
26E8
100
AcDbEntity
  8
0
100
AcDbBlockReference
  2
*U6
 10
0.0
 20
0.0
 30
0.0
  0
POINT
  5
129C
330
26E8
100
AcDbEntity
  8
DEFPOINTS
 62
     0
100
AcDbPoint
 10
-134.5
 20
-300.0
 30
0.0
  0
POINT
  5
129D
330
26E8
100
AcDbEntity
  8
DEFPOINTS
 62
     0
100
AcDbPoint
 10
134.5
 20
-300.0
 30
0.0
  0
POINT
  5
129E
330
26E8
100
AcDbEntity
  8
DEFPOINTS
 62
     0
100
AcDbPoint
 10
134.5
 20
-448.0173952306
 30
0.0
  0
ENDBLK
  5
D72
330
26E8
100
AcDbEntity
  8
0
100
AcDbBlockEnd
  0
BLOCK
  5
26EB
330
26EA
100
AcDbEntity
  8
0
100
AcDbBlockBegin
  2
*U6
 70
     1
 10
0.0
 20
0.0
 30
0.0
  3
*U6
  1

  0
TEXT
  5
1EF5
330
26EA
100
AcDbEntity
  8
SIZE
 62
     0
100
AcDbText
 10
-72.68571428571426
 20
-438.0173952305999
 30
0.0
 40
64.0
  1
269
 41
0.9
100
AcDbText
  0
ENDBLK
  5
1EF7
330
26EA
100
AcDbEntity
  8
0
100
AcDbBlockEnd
  0
BLOCK
  5
26ED
330
26EC
100
AcDbEntity
  8
0
100
AcDbBlockBegin
  2
*D7
 70
     1
 10
0.0
 20
0.0
 30
0.0
  3
*D7
  1

  0
LINE
  5
11A7
330
26EC
100
AcDbEntity
  8
SIZE
  6
Continuous
 62
     0
100
AcDbLine
 10
143.5
 20
-300.0
 30
0.0
 11
304.6432844803791
 21
-300.0
 31
0.0
  0
LINE
  5
11A8
330
26EC
100
AcDbEntity
  8
SIZE
  6
Continuous
 62
     0
100
AcDbLine
 10
177.5
 20
-0.0000000000000057
 30
0.0
 11
304.6432844803792
 21
-0.0000000000000417
 31
0.0
  0
LINE
  5
11A9
330
26EC
100
AcDbEntity
  8
SIZE
  6
Continuous
 62
     0
100
AcDbLine
 10
284.6432844803791
 20
-288.0000000000001
 30
0.0
 11
284.6432844803792
 21
-12.00000000000003
 31
0.0
  0
INSERT
  5
11AA
330
26EC
100
AcDbEntity
  8
SIZE
  6
Continuous
 62
     0
100
AcDbBlockReference
  2
_DOTBLANK
 10
284.6432844803791
 20
-300.0
 30
0.0
 41
12.0
 42
12.0
 43
12.0
 50
270.0
  0
INSERT
  5
11AB
330
26EC
100
AcDbEntity
  8
SIZE
  6
Continuous
 62
     0
100
AcDbBlockReference
  2
_DOTBLANK
 10
284.6432844803792
 20
-0.000000000000036
 30
0.0
 41
12.0
 42
12.0
 43
12.0
 50
90.0
  0
INSERT
  5
11AC
330
26EC
100
AcDbEntity
  8
0
100
AcDbBlockReference
  2
*U8
 10
0.0
 20
0.0
 30
0.0
  0
POINT
  5
11AD
330
26EC
100
AcDbEntity
  8
DEFPOINTS
  6
Continuous
 62
     0
100
AcDbPoint
 10
123.5
 20
-300.0
 30
0.0
  0
POINT
  5
11AE
330
26EC
100
AcDbEntity
  8
DEFPOINTS
  6
Continuous
 62
     0
100
AcDbPoint
 10
157.5
 20
0.0
 30
0.0
  0
POINT
  5
11AF
330
26EC
100
AcDbEntity
  8
DEFPOINTS
  6
Continuous
 62
     0
100
AcDbPoint
 10
284.6432844803792
 20
-0.000000000000036
 30
0.0
  0
ENDBLK
  5
E11
330
26EC
100
AcDbEntity
  8
0
100
AcDbBlockEnd
  0
BLOCK
  5
26EF
330
26EE
100
AcDbEntity
  8
0
100
AcDbBlockBegin
  2
*U8
 70
     1
 10
0.0
 20
0.0
 30
0.0
  3
*U8
  1

  0
TEXT
  5
1EE1
330
26EE
100
AcDbEntity
  8
SIZE
 62
     0
100
AcDbText
 10
274.6432844803792
 20
-224.0571428571429
 30
0.0
 40
64.0
  1
300
 50
90.0
 41
0.9
100
AcDbText
  0
ENDBLK
  5
1EE3
330
26EE
100
AcDbEntity
  8
0
100
AcDbBlockEnd
  0
BLOCK
  5
26F1
330
26F0
100
AcDbEntity
  8
0
100
AcDbBlockBegin
  2
*D9
 70
     1
 10
0.0
 20
0.0
 30
0.0
  3
*D9
  1

  0
LINE
  5
E7D
330
26F0
100
AcDbEntity
  8
SIZE
 62
     0
100
AcDbLine
 10
-139.9999999999998
 20
32.46448280219375
 30
0.0
 11
-139.9999999999998
 21
136.4516878685508
 31
0.0
  0
LINE
  5
E7E
330
26F0
100
AcDbEntity
  8
SIZE
 62
     0
100
AcDbLine
 10
140.0
 20
32.46448280219375
 30
0.0
 11
140.0
 21
136.4516878685508
 31
0.0
  0
LINE
  5
E7F
330
26F0
100
AcDbEntity
  8
SIZE
 62
     0
100
AcDbLine
 10
-128.0
 20
116.4516878685508
 30
0.0
 11
128.0
 21
116.4516878685508
 31
0.0
  0
INSERT
  5
E80
330
26F0
100
AcDbEntity
  8
SIZE
 62
     0
100
AcDbBlockReference
  2
_DOTBLANK
 10
-139.9999999999998
 20
116.4516878685508
 30
0.0
 41
12.0
 42
12.0
 43
12.0
 50
180.0
  0
INSERT
  5
E81
330
26F0
100
AcDbEntity
  8
SIZE
 62
     0
100
AcDbBlockReference
  2
_DOTBLANK
 10
140.0
 20
116.4516878685508
 30
0.0
 41
12.0
 42
12.0
 43
12.0
  0
INSERT
  5
E82
330
26F0
100
AcDbEntity
  8
0
100
AcDbBlockReference
  2
*U10
 10
0.0
 20
0.0
 30
0.0
  0
POINT
  5
E83
330
26F0
100
AcDbEntity
  8
DEFPOINTS
 62
     0
100
AcDbPoint
 10
-139.9999999999998
 20
12.46448280219374
 30
0.0
  0
POINT
  5
E84
330
26F0
100
AcDbEntity
  8
DEFPOINTS
 62
     0
100
AcDbPoint
 10
140.0
 20
12.46448280219374
 30
0.0
  0
POINT
  5
E85
330
26F0
100
AcDbEntity
  8
DEFPOINTS
 62
     0
100
AcDbPoint
 10
140.0
 20
116.4516878685508
 30
0.0
  0
ENDBLK
  5
E7C
330
26F0
100
AcDbEntity
  8
0
100
AcDbBlockEnd
  0
BLOCK
  5
26F3
330
26F2
100
AcDbEntity
  8
0
100
AcDbBlockBegin
  2
*U10
 70
     1
 10
0.0
 20
0.0
 30
0.0
  3
*U10
  1

  0
TEXT
  5
1ED8
330
26F2
100
AcDbEntity
  8
SIZE
 62
     0
100
AcDbText
 10
-74.05714285714281
 20
126.4516878685508
 30
0.0
 40
64.0
  1
280
 41
0.9
100
AcDbText
  0
ENDBLK
  5
1EDA
330
26F2
100
AcDbEntity
  8
0
100
AcDbBlockEnd
  0
BLOCK
  5
26F5
330
26F4
100
AcDbEntity
  8
0
100
AcDbBlockBegin
  2
GENAXEH
 70
     0
 10
0.0
 20
0.0
 30
0.0
  3
GENAXEH
  1

  0
LINE
  5
FDB
330
26F4
100
AcDbEntity
  8
0
100
AcDbLine
 10
-1.0
 20
0.0
 30
0.0
 11
1.0
 21
0.0
 31
0.0
  0
ENDBLK
  5
FDD
330
26F4
100
AcDbEntity
  8
0
100
AcDbBlockEnd
  0
BLOCK
  5
26F7
330
26F6
100
AcDbEntity
  8
0
100
AcDbBlockBegin
  2
*D12
 70
     1
 10
0.0
 20
0.0
 30
0.0
  3
*D12
  1

  0
LINE
  5
1120
330
26F6
100
AcDbEntity
  8
SIZE
 62
     0
100
AcDbLine
 10
-157.5
 20
20.0
 30
0.0
 11
-157.5
 21
245.5794621189598
 31
0.0
  0
LINE
  5
1121
330
26F6
100
AcDbEntity
  8
SIZE
 62
     0
100
AcDbLine
 10
157.5
 20
20.0
 30
0.0
 11
157.5
 21
245.5794621189598
 31
0.0
  0
LINE
  5
1122
330
26F6
100
AcDbEntity
  8
SIZE
 62
     0
100
AcDbLine
 10
-145.5
 20
225.5794621189598
 30
0.0
 11
145.5
 21
225.5794621189598
 31
0.0
  0
INSERT
  5
1123
330
26F6
100
AcDbEntity
  8
SIZE
 62
     0
100
AcDbBlockReference
  2
_DOTBLANK
 10
-157.5
 20
225.5794621189598
 30
0.0
 41
12.0
 42
12.0
 43
12.0
 50
180.0
  0
INSERT
  5
1124
330
26F6
100
AcDbEntity
  8
SIZE
 62
     0
100
AcDbBlockReference
  2
_DOTBLANK
 10
157.5
 20
225.5794621189598
 30
0.0
 41
12.0
 42
12.0
 43
12.0
  0
INSERT
  5
1125
330
26F6
100
AcDbEntity
  8
0
100
AcDbBlockReference
  2
*U13
 10
0.0
 20
0.0
 30
0.0
  0
POINT
  5
1126
330
26F6
100
AcDbEntity
  8
DEFPOINTS
 62
     0
100
AcDbPoint
 10
-157.5
 20
0.0
 30
0.0
  0
POINT
  5
1127
330
26F6
100
AcDbEntity
  8
DEFPOINTS
 62
     0
100
AcDbPoint
 10
157.5
 20
0.0
 30
0.0
  0
POINT
  5
1128
330
26F6
100
AcDbEntity
  8
DEFPOINTS
 62
     0
100
AcDbPoint
 10
157.5
 20
225.5794621189598
 30
0.0
  0
ENDBLK
  5
111F
330
26F6
100
AcDbEntity
  8
0
100
AcDbBlockEnd
  0
BLOCK
  5
26F9
330
26F8
100
AcDbEntity
  8
0
100
AcDbBlockBegin
  2
*U13
 70
     1
 10
0.0
 20
0.0
 30
0.0
  3
*U13
  1

  0
TEXT
  5
1EDD
330
26F8
100
AcDbEntity
  8
SIZE
 62
     0
100
AcDbText
 10
-68.57142857142857
 20
235.5794621189599
 30
0.0
 40
64.0
  1
315
 41
0.9
100
AcDbText
  0
ENDBLK
  5
1EDF
330
26F8
100
AcDbEntity
  8
0
100
AcDbBlockEnd
  0
BLOCK
  5
26FB
330
26FA
100
AcDbEntity
  8
0
100
AcDbBlockBegin
  2
*D14
 70
     1
 10
0.0
 20
0.0
 30
0.0
  3
*D14
  1

  0
LINE
  5
11BD
330
26FA
100
AcDbEntity
  8
NOTE
 62
     0
100
AcDbLine
 10
-123.4999999999999
 20
-320.0
 30
0.0
 11
-123.4999999999999
 21
-354.9529861856111
 31
0.0
  0
LINE
  5
11BE
330
26FA
100
AcDbEntity
  8
NOTE
 62
     0
100
AcDbLine
 10
-133.4999999999998
 20
-331.2126909923287
 30
0.0
 11
-133.4999999999998
 21
-354.9529861856111
 31
0.0
  0
LINE
  5
11BF
330
26FA
100
AcDbEntity
  8
NOTE
 62
     0
100
AcDbLine
 10
-111.4999999999999
 20
-334.9529861856112
 30
0.0
 11
-99.4999999999999
 21
-334.9529861856112
 31
0.0
  0
LINE
  5
11C0
330
26FA
100
AcDbEntity
  8
NOTE
 62
     0
100
AcDbLine
 10
-145.4999999999998
 20
-334.9529861856112
 30
0.0
 11
-157.4999999999998
 21
-334.9529861856112
 31
0.0
  0
LINE
  5
11C1
330
26FA
100
AcDbEntity
  8
NOTE
 62
     0
100
AcDbLine
 10
-123.4999999999999
 20
-334.9529861856112
 30
0.0
 11
-133.4999999999998
 21
-334.9529861856112
 31
0.0
  0
INSERT
  5
11C2
330
26FA
100
AcDbEntity
  8
NOTE
 62
     0
100
AcDbBlockReference
  2
_DOTBLANK
 10
-123.4999999999999
 20
-334.9529861856112
 30
0.0
 41
12.0
 42
12.0
 43
12.0
 50
180.0
  0
INSERT
  5
11C3
330
26FA
100
AcDbEntity
  8
NOTE
 62
     0
100
AcDbBlockReference
  2
_DOTBLANK
 10
-133.4999999999998
 20
-334.9529861856112
 30
0.0
 41
12.0
 42
12.0
 43
12.0
  0
INSERT
  5
11C4
330
26FA
100
AcDbEntity
  8
0
100
AcDbBlockReference
  2
*U15
 10
0.0
 20
0.0
 30
0.0
  0
POINT
  5
11C5
330
26FA
100
AcDbEntity
  8
DEFPOINTS
 62
     0
100
AcDbPoint
 10
-123.4999999999999
 20
-300.0
 30
0.0
  0
POINT
  5
11C6
330
26FA
100
AcDbEntity
  8
DEFPOINTS
 62
     0
100
AcDbPoint
 10
-133.4999999999998
 20
-311.2126909923287
 30
0.0
  0
POINT
  5
11C7
330
26FA
100
AcDbEntity
  8
DEFPOINTS
 62
     0
100
AcDbPoint
 10
-133.4999999999998
 20
-334.9529861856112
 30
0.0
  0
ENDBLK
  5
11BC
330
26FA
100
AcDbEntity
  8
0
100
AcDbBlockEnd
  0
BLOCK
  5
26FD
330
26FC
100
AcDbEntity
  8
0
100
AcDbBlockBegin
  2
*U15
 70
     1
 10
0.0
 20
0.0
 30
0.0
  3
*U15
  1

  0
TEXT
  5
1EE5
330
26FC
100
AcDbEntity
  8
NOTE
 62
     0
100
AcDbText
 10
-169.642857142857
 20
-324.9529861856112
 30
0.0
 40
64.0
  1
10
 41
0.9
100
AcDbText
  0
ENDBLK
  5
1EE7
330
26FC
100
AcDbEntity
  8
0
100
AcDbBlockEnd
  0
BLOCK
  5
26FF
330
26FE
100
AcDbEntity
  8
0
100
AcDbBlockBegin
  2
*D16
 70
     1
 10
0.0
 20
0.0
 30
0.0
  3
*D16
  1

  0
LINE
  5
11E7
330
26FE
100
AcDbEntity
  8
NOTE
 62
     0
100
AcDbLine
 10
-135.5
 20
-333.2126909923287
 30
0.0
 11
-135.5
 21
-386.2569421441843
 31
0.0
  0
LINE
  5
11E8
330
26FE
100
AcDbEntity
  8
NOTE
 62
     0
100
AcDbLine
 10
-123.4999999999999
 20
-320.0
 30
0.0
 11
-123.4999999999999
 21
-386.2569421441843
 31
0.0
  0
LINE
  5
11E9
330
26FE
100
AcDbEntity
  8
NOTE
 62
     0
100
AcDbLine
 10
-147.5
 20
-366.2569421441844
 30
0.0
 11
-159.5
 21
-366.2569421441844
 31
0.0
  0
LINE
  5
11EA
330
26FE
100
AcDbEntity
  8
NOTE
 62
     0
100
AcDbLine
 10
-111.4999999999999
 20
-366.2569421441844
 30
0.0
 11
-99.4999999999999
 21
-366.2569421441844
 31
0.0
  0
LINE
  5
11EB
330
26FE
100
AcDbEntity
  8
NOTE
 62
     0
100
AcDbLine
 10
-135.5
 20
-366.2569421441844
 30
0.0
 11
-123.4999999999999
 21
-366.2569421441844
 31
0.0
  0
INSERT
  5
11EC
330
26FE
100
AcDbEntity
  8
NOTE
 62
     0
100
AcDbBlockReference
  2
_DOTBLANK
 10
-135.5
 20
-366.2569421441844
 30
0.0
 41
12.0
 42
12.0
 43
12.0
  0
INSERT
  5
11ED
330
26FE
100
AcDbEntity
  8
NOTE
 62
     0
100
AcDbBlockReference
  2
_DOTBLANK
 10
-123.4999999999999
 20
-366.2569421441844
 30
0.0
 41
12.0
 42
12.0
 43
12.0
 50
180.0
  0
INSERT
  5
11EE
330
26FE
100
AcDbEntity
  8
0
100
AcDbBlockReference
  2
*U17
 10
0.0
 20
0.0
 30
0.0
  0
POINT
  5
11EF
330
26FE
100
AcDbEntity
  8
DEFPOINTS
 62
     0
100
AcDbPoint
 10
-135.5
 20
-313.2126909923287
 30
0.0
  0
POINT
  5
11F0
330
26FE
100
AcDbEntity
  8
DEFPOINTS
 62
     0
100
AcDbPoint
 10
-123.4999999999999
 20
-300.0
 30
0.0
  0
POINT
  5
11F1
330
26FE
100
AcDbEntity
  8
DEFPOINTS
 62
     0
100
AcDbPoint
 10
-123.4999999999999
 20
-366.2569421441844
 30
0.0
  0
ENDBLK
  5
11E6
330
26FE
100
AcDbEntity
  8
0
100
AcDbBlockEnd
  0
BLOCK
  5
2701
330
2700
100
AcDbEntity
  8
0
100
AcDbBlockBegin
  2
*U17
 70
     1
 10
0.0
 20
0.0
 30
0.0
  3
*U17
  1

  0
TEXT
  5
1EE9
330
2700
100
AcDbEntity
  8
NOTE
 62
     0
100
AcDbText
 10
-170.642857142857
 20
-356.2569421441843
 30
0.0
 40
64.0
  1
12
 41
0.9
100
AcDbText
  0
ENDBLK
  5
1EEB
330
2700
100
AcDbEntity
  8
0
100
AcDbBlockEnd
  0
BLOCK
  5
2703
330
2702
100
AcDbEntity
  8
0
100
AcDbBlockBegin
  2
*D18
 70
     1
 10
0.0
 20
0.0
 30
0.0
  3
*D18
  1

  0
LINE
  5
11F6
330
2702
100
AcDbEntity
  8
NOTE
 62
     0
100
AcDbLine
 10
-123.4999999999999
 20
-320.0
 30
0.0
 11
-123.4999999999999
 21
-583.8286022818904
 31
0.0
  0
LINE
  5
11F7
330
2702
100
AcDbEntity
  8
NOTE
 62
     0
100
AcDbLine
 10
123.5
 20
-320.0
 30
0.0
 11
123.5
 21
-583.8286022818904
 31
0.0
  0
LINE
  5
11F8
330
2702
100
AcDbEntity
  8
NOTE
 62
     0
100
AcDbLine
 10
-111.4999999999999
 20
-563.8286022818904
 30
0.0
 11
111.5
 21
-563.8286022818904
 31
0.0
  0
INSERT
  5
11F9
330
2702
100
AcDbEntity
  8
NOTE
 62
     0
100
AcDbBlockReference
  2
_DOTBLANK
 10
-123.4999999999999
 20
-563.8286022818904
 30
0.0
 41
12.0
 42
12.0
 43
12.0
 50
180.0
  0
INSERT
  5
11FA
330
2702
100
AcDbEntity
  8
NOTE
 62
     0
100
AcDbBlockReference
  2
_DOTBLANK
 10
123.5
 20
-563.8286022818904
 30
0.0
 41
12.0
 42
12.0
 43
12.0
  0
INSERT
  5
11FB
330
2702
100
AcDbEntity
  8
0
100
AcDbBlockReference
  2
*U19
 10
0.0
 20
0.0
 30
0.0
  0
POINT
  5
11FC
330
2702
100
AcDbEntity
  8
DEFPOINTS
 62
     0
100
AcDbPoint
 10
-123.4999999999999
 20
-300.0
 30
0.0
  0
POINT
  5
11FD
330
2702
100
AcDbEntity
  8
DEFPOINTS
 62
     0
100
AcDbPoint
 10
123.5
 20
-300.0
 30
0.0
  0
POINT
  5
11FE
330
2702
100
AcDbEntity
  8
DEFPOINTS
 62
     0
100
AcDbPoint
 10
123.5
 20
-563.8286022818904
 30
0.0
  0
ENDBLK
  5
11F5
330
2702
100
AcDbEntity
  8
0
100
AcDbBlockEnd
  0
BLOCK
  5
2705
330
2704
100
AcDbEntity
  8
0
100
AcDbBlockBegin
  2
*U19
 70
     1
 10
0.0
 20
0.0
 30
0.0
  3
*U19
  1

  0
TEXT
  5
1EED
330
2704
100
AcDbEntity
  8
NOTE
 62
     0
100
AcDbText
 10
-74.05714285714281
 20
-553.8286022818904
 30
0.0
 40
64.0
  1
247
 41
0.9
100
AcDbText
  0
ENDBLK
  5
1EEF
330
2704
100
AcDbEntity
  8
0
100
AcDbBlockEnd
  0
BLOCK
  5
2707
330
2706
100
AcDbEntity
  8
0
100
AcDbBlockBegin
  2
*D20
 70
     1
 10
0.0
 20
0.0
 30
0.0
  3
*D20
  1

  0
LINE
  5
1284
330
2706
100
AcDbEntity
  8
NOTE
 62
     0
100
AcDbLine
 10
-123.5
 20
12.0
 30
0.0
 11
-123.5
 21
71.83630134534229
 31
0.0
  0
LINE
  5
1285
330
2706
100
AcDbEntity
  8
NOTE
 62
     0
100
AcDbLine
 10
123.5
 20
12.0
 30
0.0
 11
123.5
 21
71.83630134534229
 31
0.0
  0
LINE
  5
1286
330
2706
100
AcDbEntity
  8
NOTE
 62
     0
100
AcDbLine
 10
-111.5
 20
51.83630134534229
 30
0.0
 11
111.5
 21
51.83630134534229
 31
0.0
  0
INSERT
  5
1287
330
2706
100
AcDbEntity
  8
NOTE
 62
     0
100
AcDbBlockReference
  2
_DOTBLANK
 10
-123.5
 20
51.83630134534229
 30
0.0
 41
12.0
 42
12.0
 43
12.0
 50
180.0
  0
INSERT
  5
1288
330
2706
100
AcDbEntity
  8
NOTE
 62
     0
100
AcDbBlockReference
  2
_DOTBLANK
 10
123.5
 20
51.83630134534229
 30
0.0
 41
12.0
 42
12.0
 43
12.0
  0
INSERT
  5
1289
330
2706
100
AcDbEntity
  8
0
100
AcDbBlockReference
  2
*U21
 10
0.0
 20
0.0
 30
0.0
  0
POINT
  5
128A
330
2706
100
AcDbEntity
  8
DEFPOINTS
 62
     0
100
AcDbPoint
 10
-123.5
 20
-8.0
 30
0.0
  0
POINT
  5
128B
330
2706
100
AcDbEntity
  8
DEFPOINTS
 62
     0
100
AcDbPoint
 10
123.5
 20
-8.0
 30
0.0
  0
POINT
  5
128C
330
2706
100
AcDbEntity
  8
DEFPOINTS
 62
     0
100
AcDbPoint
 10
123.5
 20
51.83630134534229
 30
0.0
  0
ENDBLK
  5
1283
330
2706
100
AcDbEntity
  8
0
100
AcDbBlockEnd
  0
BLOCK
  5
2709
330
2708
100
AcDbEntity
  8
0
100
AcDbBlockBegin
  2
*U21
 70
     1
 10
0.0
 20
0.0
 30
0.0
  3
*U21
  1

  0
TEXT
  5
1EF1
330
2708
100
AcDbEntity
  8
NOTE
 62
     0
100
AcDbText
 10
-74.05714285714283
 20
61.83630134534229
 30
0.0
 40
64.0
  1
247
 41
0.9
100
AcDbText
  0
ENDBLK
  5
1EF3
330
2708
100
AcDbEntity
  8
0
100
AcDbBlockEnd
  0
BLOCK
  5
270B
330
270A
100
AcDbEntity
  8
0
100
AcDbBlockBegin
  2
*D22
 70
     1
 10
0.0
 20
0.0
 30
0.0
  3
*D22
  1

  0
LINE
  5
1414
330
270A
100
AcDbEntity
  8
SIZE
 62
     0
100
AcDbLine
 10
-22313.11521613997
 20
7365.702971374808
 30
0.0
 11
-22313.11521613997
 21
7217.685576144207
 31
0.0
  0
LINE
  5
1415
330
270A
100
AcDbEntity
  8
SIZE
 62
     0
100
AcDbLine
 10
-22044.11521613997
 20
7365.702971374808
 30
0.0
 11
-22044.11521613997
 21
7217.685576144207
 31
0.0
  0
LINE
  5
1416
330
270A
100
AcDbEntity
  8
SIZE
 62
     0
100
AcDbLine
 10
-22301.11521613997
 20
7237.685576144207
 30
0.0
 11
-22056.11521613997
 21
7237.685576144207
 31
0.0
  0
INSERT
  5
1417
330
270A
100
AcDbEntity
  8
SIZE
 62
     0
100
AcDbBlockReference
  2
_DOTBLANK
 10
-22313.11521613997
 20
7237.685576144207
 30
0.0
 41
12.0
 42
12.0
 43
12.0
 50
180.0
  0
INSERT
  5
1418
330
270A
100
AcDbEntity
  8
SIZE
 62
     0
100
AcDbBlockReference
  2
_DOTBLANK
 10
-22044.11521613997
 20
7237.685576144207
 30
0.0
 41
12.0
 42
12.0
 43
12.0
  0
INSERT
  5
1419
330
270A
100
AcDbEntity
  8
0
100
AcDbBlockReference
  2
*U23
 10
0.0
 20
0.0
 30
0.0
  0
POINT
  5
141A
330
270A
100
AcDbEntity
  8
DEFPOINTS
 62
     0
100
AcDbPoint
 10
-22313.11521613997
 20
7385.702971374808
 30
0.0
  0
POINT
  5
141B
330
270A
100
AcDbEntity
  8
DEFPOINTS
 62
     0
100
AcDbPoint
 10
-22044.11521613997
 20
7385.702971374808
 30
0.0
  0
POINT
  5
141C
330
270A
100
AcDbEntity
  8
DEFPOINTS
 62
     0
100
AcDbPoint
 10
-22044.11521613997
 20
7237.685576144207
 30
0.0
  0
ENDBLK
  5
141D
330
270A
100
AcDbEntity
  8
0
100
AcDbBlockEnd
  0
BLOCK
  5
270D
330
270C
100
AcDbEntity
  8
0
100
AcDbBlockBegin
  2
*U23
 70
     1
 10
0.0
 20
0.0
 30
0.0
  3
*U23
  1

  0
TEXT
  5
1EF9
330
270C
100
AcDbEntity
  8
SIZE
 62
     0
100
AcDbText
 10
-22251.30093042568
 20
7247.685576144205
 30
0.0
 40
64.0
  1
269
 41
0.9
100
AcDbText
  0
ENDBLK
  5
1EFB
330
270C
100
AcDbEntity
  8
0
100
AcDbBlockEnd
  0
BLOCK
  5
270F
330
270E
100
AcDbEntity
  8
0
100
AcDbBlockBegin
  2
*D24
 70
     1
 10
0.0
 20
0.0
 30
0.0
  3
*D24
  1

  0
LINE
  5
1420
330
270E
100
AcDbEntity
  8
SIZE
  6
Continuous
 62
     0
100
AcDbLine
 10
-22035.11521613997
 20
7385.702971374808
 30
0.0
 11
-21873.97193165959
 21
7385.702971374808
 31
0.0
  0
LINE
  5
1421
330
270E
100
AcDbEntity
  8
SIZE
  6
Continuous
 62
     0
100
AcDbLine
 10
-22001.11521613997
 20
7685.702971374808
 30
0.0
 11
-21873.97193165959
 21
7685.702971374808
 31
0.0
  0
LINE
  5
1422
330
270E
100
AcDbEntity
  8
SIZE
  6
Continuous
 62
     0
100
AcDbLine
 10
-21893.97193165959
 20
7397.702971374808
 30
0.0
 11
-21893.97193165959
 21
7673.702971374808
 31
0.0
  0
INSERT
  5
1423
330
270E
100
AcDbEntity
  8
SIZE
  6
Continuous
 62
     0
100
AcDbBlockReference
  2
_DOTBLANK
 10
-21893.97193165959
 20
7385.702971374808
 30
0.0
 41
12.0
 42
12.0
 43
12.0
 50
270.0
  0
INSERT
  5
1424
330
270E
100
AcDbEntity
  8
SIZE
  6
Continuous
 62
     0
100
AcDbBlockReference
  2
_DOTBLANK
 10
-21893.97193165959
 20
7685.702971374808
 30
0.0
 41
12.0
 42
12.0
 43
12.0
 50
90.0
  0
INSERT
  5
1425
330
270E
100
AcDbEntity
  8
0
100
AcDbBlockReference
  2
*U25
 10
0.0
 20
0.0
 30
0.0
  0
POINT
  5
1426
330
270E
100
AcDbEntity
  8
DEFPOINTS
  6
Continuous
 62
     0
100
AcDbPoint
 10
-22055.11521613997
 20
7385.702971374808
 30
0.0
  0
POINT
  5
1427
330
270E
100
AcDbEntity
  8
DEFPOINTS
  6
Continuous
 62
     0
100
AcDbPoint
 10
-22021.11521613997
 20
7685.702971374808
 30
0.0
  0
POINT
  5
1428
330
270E
100
AcDbEntity
  8
DEFPOINTS
  6
Continuous
 62
     0
100
AcDbPoint
 10
-21893.97193165959
 20
7685.702971374808
 30
0.0
  0
ENDBLK
  5
1429
330
270E
100
AcDbEntity
  8
0
100
AcDbBlockEnd
  0
BLOCK
  5
2711
330
2710
100
AcDbEntity
  8
0
100
AcDbBlockBegin
  2
*U25
 70
     1
 10
0.0
 20
0.0
 30
0.0
  3
*U25
  1

  0
TEXT
  5
1EFD
330
2710
100
AcDbEntity
  8
SIZE
 62
     0
100
AcDbText
 10
-21903.97193165959
 20
7461.645828517662
 30
0.0
 40
64.0
  1
300
 50
90.0
 41
0.9
100
AcDbText
  0
ENDBLK
  5
1EFF
330
2710
100
AcDbEntity
  8
0
100
AcDbBlockEnd
  0
BLOCK
  5
2713
330
2712
100
AcDbEntity
  8
0
100
AcDbBlockBegin
  2
*D26
 70
     1
 10
0.0
 20
0.0
 30
0.0
  3
*D26
  1

  0
LINE
  5
142C
330
2712
100
AcDbEntity
  8
SIZE
 62
     0
100
AcDbLine
 10
-22318.61521613997
 20
7718.167454177002
 30
0.0
 11
-22318.61521613997
 21
7822.154659243358
 31
0.0
  0
LINE
  5
142D
330
2712
100
AcDbEntity
  8
SIZE
 62
     0
100
AcDbLine
 10
-22038.61521613997
 20
7718.167454177002
 30
0.0
 11
-22038.61521613997
 21
7822.154659243358
 31
0.0
  0
LINE
  5
142E
330
2712
100
AcDbEntity
  8
SIZE
 62
     0
100
AcDbLine
 10
-22306.61521613997
 20
7802.154659243358
 30
0.0
 11
-22050.61521613997
 21
7802.154659243358
 31
0.0
  0
INSERT
  5
142F
330
2712
100
AcDbEntity
  8
SIZE
 62
     0
100
AcDbBlockReference
  2
_DOTBLANK
 10
-22318.61521613997
 20
7802.154659243358
 30
0.0
 41
12.0
 42
12.0
 43
12.0
 50
180.0
  0
INSERT
  5
1430
330
2712
100
AcDbEntity
  8
SIZE
 62
     0
100
AcDbBlockReference
  2
_DOTBLANK
 10
-22038.61521613997
 20
7802.154659243358
 30
0.0
 41
12.0
 42
12.0
 43
12.0
  0
INSERT
  5
1431
330
2712
100
AcDbEntity
  8
0
100
AcDbBlockReference
  2
*U27
 10
0.0
 20
0.0
 30
0.0
  0
POINT
  5
1432
330
2712
100
AcDbEntity
  8
DEFPOINTS
 62
     0
100
AcDbPoint
 10
-22318.61521613997
 20
7698.167454177002
 30
0.0
  0
POINT
  5
1433
330
2712
100
AcDbEntity
  8
DEFPOINTS
 62
     0
100
AcDbPoint
 10
-22038.61521613997
 20
7698.167454177002
 30
0.0
  0
POINT
  5
1434
330
2712
100
AcDbEntity
  8
DEFPOINTS
 62
     0
100
AcDbPoint
 10
-22038.61521613997
 20
7802.154659243358
 30
0.0
  0
ENDBLK
  5
1435
330
2712
100
AcDbEntity
  8
0
100
AcDbBlockEnd
  0
BLOCK
  5
2715
330
2714
100
AcDbEntity
  8
0
100
AcDbBlockBegin
  2
*U27
 70
     1
 10
0.0
 20
0.0
 30
0.0
  3
*U27
  1

  0
TEXT
  5
1F01
330
2714
100
AcDbEntity
  8
SIZE
 62
     0
100
AcDbText
 10
-22252.6723589971
 20
7812.154659243358
 30
0.0
 40
64.0
  1
280
 41
0.9
100
AcDbText
  0
ENDBLK
  5
1F03
330
2714
100
AcDbEntity
  8
0
100
AcDbBlockEnd
  0
BLOCK
  5
2717
330
2716
100
AcDbEntity
  8
0
100
AcDbBlockBegin
  2
*D28
 70
     1
 10
0.0
 20
0.0
 30
0.0
  3
*D28
  1

  0
LINE
  5
1438
330
2716
100
AcDbEntity
  8
SIZE
 62
     0
100
AcDbLine
 10
-22336.11521613997
 20
7705.702971374808
 30
0.0
 11
-22336.11521613997
 21
7931.282433493766
 31
0.0
  0
LINE
  5
1439
330
2716
100
AcDbEntity
  8
SIZE
 62
     0
100
AcDbLine
 10
-22021.11521613997
 20
7705.702971374808
 30
0.0
 11
-22021.11521613997
 21
7931.282433493766
 31
0.0
  0
LINE
  5
143A
330
2716
100
AcDbEntity
  8
SIZE
 62
     0
100
AcDbLine
 10
-22324.11521613997
 20
7911.282433493766
 30
0.0
 11
-22033.11521613997
 21
7911.282433493766
 31
0.0
  0
INSERT
  5
143B
330
2716
100
AcDbEntity
  8
SIZE
 62
     0
100
AcDbBlockReference
  2
_DOTBLANK
 10
-22336.11521613997
 20
7911.282433493766
 30
0.0
 41
12.0
 42
12.0
 43
12.0
 50
180.0
  0
INSERT
  5
143C
330
2716
100
AcDbEntity
  8
SIZE
 62
     0
100
AcDbBlockReference
  2
_DOTBLANK
 10
-22021.11521613997
 20
7911.282433493766
 30
0.0
 41
12.0
 42
12.0
 43
12.0
  0
INSERT
  5
143D
330
2716
100
AcDbEntity
  8
0
100
AcDbBlockReference
  2
*U29
 10
0.0
 20
0.0
 30
0.0
  0
POINT
  5
143E
330
2716
100
AcDbEntity
  8
DEFPOINTS
 62
     0
100
AcDbPoint
 10
-22336.11521613997
 20
7685.702971374808
 30
0.0
  0
POINT
  5
143F
330
2716
100
AcDbEntity
  8
DEFPOINTS
 62
     0
100
AcDbPoint
 10
-22021.11521613997
 20
7685.702971374808
 30
0.0
  0
POINT
  5
1440
330
2716
100
AcDbEntity
  8
DEFPOINTS
 62
     0
100
AcDbPoint
 10
-22021.11521613997
 20
7911.282433493766
 30
0.0
  0
ENDBLK
  5
1441
330
2716
100
AcDbEntity
  8
0
100
AcDbBlockEnd
  0
BLOCK
  5
2719
330
2718
100
AcDbEntity
  8
0
100
AcDbBlockBegin
  2
*U29
 70
     1
 10
0.0
 20
0.0
 30
0.0
  3
*U29
  1

  0
TEXT
  5
1F05
330
2718
100
AcDbEntity
  8
SIZE
 62
     0
100
AcDbText
 10
-22247.18664471139
 20
7921.282433493766
 30
0.0
 40
64.0
  1
315
 41
0.9
100
AcDbText
  0
ENDBLK
  5
1F07
330
2718
100
AcDbEntity
  8
0
100
AcDbBlockEnd
  0
BLOCK
  5
271B
330
271A
100
AcDbEntity
  8
0
100
AcDbBlockBegin
  2
*D30
 70
     1
 10
0.0
 20
0.0
 30
0.0
  3
*D30
  1

  0
LINE
  5
166B
330
271A
100
AcDbEntity
  8
SIZE
 62
     0
100
AcDbLine
 10
-134.5
 20
-320.0
 30
0.0
 11
-134.5
 21
-468.0173952306001
 31
0.0
  0
LINE
  5
166C
330
271A
100
AcDbEntity
  8
SIZE
 62
     0
100
AcDbLine
 10
134.5
 20
-320.0
 30
0.0
 11
134.5
 21
-468.0173952306001
 31
0.0
  0
LINE
  5
166D
330
271A
100
AcDbEntity
  8
SIZE
 62
     0
100
AcDbLine
 10
-122.5
 20
-448.0173952306
 30
0.0
 11
122.5
 21
-448.0173952306
 31
0.0
  0
INSERT
  5
166E
330
271A
100
AcDbEntity
  8
SIZE
 62
     0
100
AcDbBlockReference
  2
_DOTBLANK
 10
-134.5
 20
-448.0173952306
 30
0.0
 41
12.0
 42
12.0
 43
12.0
 50
180.0
  0
INSERT
  5
166F
330
271A
100
AcDbEntity
  8
SIZE
 62
     0
100
AcDbBlockReference
  2
_DOTBLANK
 10
134.5
 20
-448.0173952306
 30
0.0
 41
12.0
 42
12.0
 43
12.0
  0
INSERT
  5
1670
330
271A
100
AcDbEntity
  8
0
100
AcDbBlockReference
  2
*U31
 10
0.0
 20
0.0
 30
0.0
  0
POINT
  5
1671
330
271A
100
AcDbEntity
  8
DEFPOINTS
 62
     0
100
AcDbPoint
 10
-134.5
 20
-300.0
 30
0.0
  0
POINT
  5
1672
330
271A
100
AcDbEntity
  8
DEFPOINTS
 62
     0
100
AcDbPoint
 10
134.5
 20
-300.0
 30
0.0
  0
POINT
  5
1673
330
271A
100
AcDbEntity
  8
DEFPOINTS
 62
     0
100
AcDbPoint
 10
134.5
 20
-448.0173952306
 30
0.0
  0
ENDBLK
  5
14A7
330
271A
100
AcDbEntity
  8
0
100
AcDbBlockEnd
  0
BLOCK
  5
271D
330
271C
100
AcDbEntity
  8
0
100
AcDbBlockBegin
  2
*U31
 70
     1
 10
0.0
 20
0.0
 30
0.0
  3
*U31
  1

  0
TEXT
  5
1F09
330
271C
100
AcDbEntity
  8
SIZE
 62
     0
100
AcDbText
 10
-72.68571428571426
 20
-438.0173952306002
 30
0.0
 40
64.0
  1
269
 41
0.9
100
AcDbText
  0
ENDBLK
  5
1F0B
330
271C
100
AcDbEntity
  8
0
100
AcDbBlockEnd
  0
BLOCK
  5
271F
330
271E
100
AcDbEntity
  8
0
100
AcDbBlockBegin
  2
*D32
 70
     1
 10
0.0
 20
0.0
 30
0.0
  3
*D32
  1

  0
LINE
  5
1674
330
271E
100
AcDbEntity
  8
SIZE
  6
Continuous
 62
     0
100
AcDbLine
 10
143.5
 20
-300.0
 30
0.0
 11
304.6432844803784
 21
-300.0
 31
0.0
  0
LINE
  5
1675
330
271E
100
AcDbEntity
  8
SIZE
  6
Continuous
 62
     0
100
AcDbLine
 10
177.5
 20
-0.0000000000000057
 30
0.0
 11
304.6432844803785
 21
-0.0000000000000417
 31
0.0
  0
LINE
  5
1676
330
271E
100
AcDbEntity
  8
SIZE
  6
Continuous
 62
     0
100
AcDbLine
 10
284.6432844803784
 20
-288.0000000000001
 30
0.0
 11
284.6432844803785
 21
-12.00000000000003
 31
0.0
  0
INSERT
  5
1677
330
271E
100
AcDbEntity
  8
SIZE
  6
Continuous
 62
     0
100
AcDbBlockReference
  2
_DOTBLANK
 10
284.6432844803784
 20
-300.0
 30
0.0
 41
12.0
 42
12.0
 43
12.0
 50
270.0
  0
INSERT
  5
1678
330
271E
100
AcDbEntity
  8
SIZE
  6
Continuous
 62
     0
100
AcDbBlockReference
  2
_DOTBLANK
 10
284.6432844803785
 20
-0.000000000000036
 30
0.0
 41
12.0
 42
12.0
 43
12.0
 50
90.0
  0
INSERT
  5
1679
330
271E
100
AcDbEntity
  8
0
100
AcDbBlockReference
  2
*U33
 10
0.0
 20
0.0
 30
0.0
  0
POINT
  5
167A
330
271E
100
AcDbEntity
  8
DEFPOINTS
  6
Continuous
 62
     0
100
AcDbPoint
 10
123.5
 20
-300.0
 30
0.0
  0
POINT
  5
167B
330
271E
100
AcDbEntity
  8
DEFPOINTS
  6
Continuous
 62
     0
100
AcDbPoint
 10
157.5
 20
0.0
 30
0.0
  0
POINT
  5
167C
330
271E
100
AcDbEntity
  8
DEFPOINTS
  6
Continuous
 62
     0
100
AcDbPoint
 10
284.6432844803785
 20
-0.000000000000036
 30
0.0
  0
ENDBLK
  5
14B3
330
271E
100
AcDbEntity
  8
0
100
AcDbBlockEnd
  0
BLOCK
  5
2721
330
2720
100
AcDbEntity
  8
0
100
AcDbBlockBegin
  2
*U33
 70
     1
 10
0.0
 20
0.0
 30
0.0
  3
*U33
  1

  0
TEXT
  5
1F0D
330
2720
100
AcDbEntity
  8
SIZE
 62
     0
100
AcDbText
 10
274.6432844803785
 20
-224.0571428571429
 30
0.0
 40
64.0
  1
300
 50
90.0
 41
0.9
100
AcDbText
  0
ENDBLK
  5
1F0F
330
2720
100
AcDbEntity
  8
0
100
AcDbBlockEnd
  0
BLOCK
  5
2723
330
2722
100
AcDbEntity
  8
0
100
AcDbBlockBegin
  2
*D34
 70
     1
 10
0.0
 20
0.0
 30
0.0
  3
*D34
  1

  0
LINE
  5
167D
330
2722
100
AcDbEntity
  8
SIZE
 62
     0
100
AcDbLine
 10
-140.0
 20
32.46448280219375
 30
0.0
 11
-140.0
 21
136.4516878685507
 31
0.0
  0
LINE
  5
167E
330
2722
100
AcDbEntity
  8
SIZE
 62
     0
100
AcDbLine
 10
140.0
 20
32.46448280219375
 30
0.0
 11
140.0
 21
136.4516878685507
 31
0.0
  0
LINE
  5
167F
330
2722
100
AcDbEntity
  8
SIZE
 62
     0
100
AcDbLine
 10
-128.0
 20
116.4516878685508
 30
0.0
 11
128.0
 21
116.4516878685508
 31
0.0
  0
INSERT
  5
1680
330
2722
100
AcDbEntity
  8
SIZE
 62
     0
100
AcDbBlockReference
  2
_DOTBLANK
 10
-140.0
 20
116.4516878685508
 30
0.0
 41
12.0
 42
12.0
 43
12.0
 50
180.0
  0
INSERT
  5
1681
330
2722
100
AcDbEntity
  8
SIZE
 62
     0
100
AcDbBlockReference
  2
_DOTBLANK
 10
140.0
 20
116.4516878685508
 30
0.0
 41
12.0
 42
12.0
 43
12.0
  0
INSERT
  5
1682
330
2722
100
AcDbEntity
  8
0
100
AcDbBlockReference
  2
*U35
 10
0.0
 20
0.0
 30
0.0
  0
POINT
  5
1683
330
2722
100
AcDbEntity
  8
DEFPOINTS
 62
     0
100
AcDbPoint
 10
-140.0
 20
12.46448280219374
 30
0.0
  0
POINT
  5
1684
330
2722
100
AcDbEntity
  8
DEFPOINTS
 62
     0
100
AcDbPoint
 10
140.0
 20
12.46448280219374
 30
0.0
  0
POINT
  5
1685
330
2722
100
AcDbEntity
  8
DEFPOINTS
 62
     0
100
AcDbPoint
 10
140.0
 20
116.4516878685508
 30
0.0
  0
ENDBLK
  5
14BF
330
2722
100
AcDbEntity
  8
0
100
AcDbBlockEnd
  0
BLOCK
  5
2725
330
2724
100
AcDbEntity
  8
0
100
AcDbBlockBegin
  2
*U35
 70
     1
 10
0.0
 20
0.0
 30
0.0
  3
*U35
  1

  0
TEXT
  5
1F11
330
2724
100
AcDbEntity
  8
SIZE
 62
     0
100
AcDbText
 10
-74.05714285714283
 20
126.4516878685507
 30
0.0
 40
64.0
  1
280
 41
0.9
100
AcDbText
  0
ENDBLK
  5
1F13
330
2724
100
AcDbEntity
  8
0
100
AcDbBlockEnd
  0
BLOCK
  5
2727
330
2726
100
AcDbEntity
  8
0
100
AcDbBlockBegin
  2
*D36
 70
     1
 10
0.0
 20
0.0
 30
0.0
  3
*D36
  1

  0
LINE
  5
1686
330
2726
100
AcDbEntity
  8
SIZE
 62
     0
100
AcDbLine
 10
-157.5
 20
20.0
 30
0.0
 11
-157.5
 21
245.5794621189598
 31
0.0
  0
LINE
  5
1687
330
2726
100
AcDbEntity
  8
SIZE
 62
     0
100
AcDbLine
 10
157.5
 20
20.0
 30
0.0
 11
157.5
 21
245.5794621189598
 31
0.0
  0
LINE
  5
1688
330
2726
100
AcDbEntity
  8
SIZE
 62
     0
100
AcDbLine
 10
-145.5
 20
225.5794621189598
 30
0.0
 11
145.5
 21
225.5794621189598
 31
0.0
  0
INSERT
  5
1689
330
2726
100
AcDbEntity
  8
SIZE
 62
     0
100
AcDbBlockReference
  2
_DOTBLANK
 10
-157.5
 20
225.5794621189598
 30
0.0
 41
12.0
 42
12.0
 43
12.0
 50
180.0
  0
INSERT
  5
168A
330
2726
100
AcDbEntity
  8
SIZE
 62
     0
100
AcDbBlockReference
  2
_DOTBLANK
 10
157.5
 20
225.5794621189598
 30
0.0
 41
12.0
 42
12.0
 43
12.0
  0
INSERT
  5
168B
330
2726
100
AcDbEntity
  8
0
100
AcDbBlockReference
  2
*U37
 10
0.0
 20
0.0
 30
0.0
  0
POINT
  5
168C
330
2726
100
AcDbEntity
  8
DEFPOINTS
 62
     0
100
AcDbPoint
 10
-157.5
 20
0.0
 30
0.0
  0
POINT
  5
168D
330
2726
100
AcDbEntity
  8
DEFPOINTS
 62
     0
100
AcDbPoint
 10
157.5
 20
0.0
 30
0.0
  0
POINT
  5
168E
330
2726
100
AcDbEntity
  8
DEFPOINTS
 62
     0
100
AcDbPoint
 10
157.5
 20
225.5794621189598
 30
0.0
  0
ENDBLK
  5
14CB
330
2726
100
AcDbEntity
  8
0
100
AcDbBlockEnd
  0
BLOCK
  5
2729
330
2728
100
AcDbEntity
  8
0
100
AcDbBlockBegin
  2
*U37
 70
     1
 10
0.0
 20
0.0
 30
0.0
  3
*U37
  1

  0
TEXT
  5
1F15
330
2728
100
AcDbEntity
  8
SIZE
 62
     0
100
AcDbText
 10
-68.57142857142857
 20
235.5794621189598
 30
0.0
 40
64.0
  1
315
 41
0.9
100
AcDbText
  0
ENDBLK
  5
1F17
330
2728
100
AcDbEntity
  8
0
100
AcDbBlockEnd
  0
BLOCK
  5
272B
330
272A
100
AcDbEntity
  8
0
100
AcDbBlockBegin
  2
*U38
 70
     1
 10
0.0
 20
0.0
 30
0.0
  3
*U38
  1

  0
ENDBLK
  5
15CF
330
272A
100
AcDbEntity
  8
0
100
AcDbBlockEnd
  0
BLOCK
  5
272D
330
272C
100
AcDbEntity
  8
0
100
AcDbBlockBegin
  2
*D39
 70
     1
 10
0.0
 20
0.0
 30
0.0
  3
*D39
  1

  0
LINE
  5
1692
330
272C
100
AcDbEntity
  8
SIZE
 62
     0
100
AcDbLine
 10
-25844.51823276502
 20
7685.702971374808
 30
0.0
 11
-25981.04465488371
 21
7685.702971374808
 31
0.0
  0
LINE
  5
1693
330
272C
100
AcDbEntity
  8
SIZE
 62
     0
100
AcDbLine
 10
-25844.51823276502
 20
7677.702971374808
 30
0.0
 11
-25981.04465488371
 21
7677.702971374808
 31
0.0
  0
LINE
  5
1694
330
272C
100
AcDbEntity
  8
SIZE
 62
     0
100
AcDbLine
 10
-25961.04465488371
 20
7697.702971374808
 30
0.0
 11
-25961.04465488371
 21
7709.702971374809
 31
0.0
  0
LINE
  5
1695
330
272C
100
AcDbEntity
  8
SIZE
 62
     0
100
AcDbLine
 10
-25961.04465488371
 20
7665.70297137481
 30
0.0
 11
-25961.04465488371
 21
7595.302971374808
 31
0.0
  0
INSERT
  5
1696
330
272C
100
AcDbEntity
  8
SIZE
 62
     0
100
AcDbBlockReference
  2
_DOTBLANK
 10
-25961.04465488371
 20
7685.702971374808
 30
0.0
 41
12.0
 42
12.0
 43
12.0
 50
270.0
  0
INSERT
  5
1697
330
272C
100
AcDbEntity
  8
SIZE
 62
     0
100
AcDbBlockReference
  2
_DOTBLANK
 10
-25961.04465488371
 20
7677.702971374808
 30
0.0
 41
12.0
 42
12.0
 43
12.0
 50
90.0
  0
INSERT
  5
1698
330
272C
100
AcDbEntity
  8
0
100
AcDbBlockReference
  2
*U40
 10
0.0
 20
0.0
 30
0.0
  0
POINT
  5
1699
330
272C
100
AcDbEntity
  8
DEFPOINTS
 62
     0
100
AcDbPoint
 10
-25824.51823276501
 20
7685.702971374808
 30
0.0
  0
POINT
  5
169A
330
272C
100
AcDbEntity
  8
DEFPOINTS
 62
     0
100
AcDbPoint
 10
-25824.51823276501
 20
7677.702971374808
 30
0.0
  0
POINT
  5
169B
330
272C
100
AcDbEntity
  8
DEFPOINTS
 62
     0
100
AcDbPoint
 10
-25961.04465488371
 20
7677.702971374808
 30
0.0
  0
ENDBLK
  5
169C
330
272C
100
AcDbEntity
  8
0
100
AcDbBlockEnd
  0
BLOCK
  5
272F
330
272E
100
AcDbEntity
  8
0
100
AcDbBlockBegin
  2
*U40
 70
     1
 10
0.0
 20
0.0
 30
0.0
  3
*U40
  1

  0
TEXT
  5
1F19
330
272E
100
AcDbEntity
  8
SIZE
 62
     0
100
AcDbText
 10
-25971.04465488371
 20
7605.302971374804
 30
0.0
 40
64.0
  1
8
 50
90.0
 41
0.9
100
AcDbText
  0
ENDBLK
  5
1F1B
330
272E
100
AcDbEntity
  8
0
100
AcDbBlockEnd
  0
BLOCK
  5
2731
330
2730
100
AcDbEntity
  8
0
100
AcDbBlockBegin
  2
*D41
 70
     1
 10
0.0
 20
0.0
 30
0.0
  3
*D41
  1

  0
LINE
  5
169F
330
2730
100
AcDbEntity
  8
SIZE
 62
     0
100
AcDbLine
 10
-25512.51823276502
 20
7385.702971374808
 30
0.0
 11
-25362.37494828464
 21
7385.702971374808
 31
0.0
  0
LINE
  5
16A0
330
2730
100
AcDbEntity
  8
SIZE
 62
     0
100
AcDbLine
 10
-25523.51823276501
 20
7373.702971374808
 30
0.0
 11
-25362.37494828464
 21
7373.702971374808
 31
0.0
  0
LINE
  5
16A1
330
2730
100
AcDbEntity
  8
SIZE
 62
     0
100
AcDbLine
 10
-25382.37494828464
 20
7397.702971374808
 30
0.0
 11
-25382.37494828464
 21
7409.70297137481
 31
0.0
  0
LINE
  5
16A2
330
2730
100
AcDbEntity
  8
SIZE
 62
     0
100
AcDbLine
 10
-25382.37494828464
 20
7361.702971374808
 30
0.0
 11
-25382.37494828464
 21
7244.674399946237
 31
0.0
  0
INSERT
  5
16A3
330
2730
100
AcDbEntity
  8
SIZE
 62
     0
100
AcDbBlockReference
  2
_DOTBLANK
 10
-25382.37494828464
 20
7385.702971374808
 30
0.0
 41
12.0
 42
12.0
 43
12.0
 50
270.0
  0
INSERT
  5
16A4
330
2730
100
AcDbEntity
  8
SIZE
 62
     0
100
AcDbBlockReference
  2
_DOTBLANK
 10
-25382.37494828464
 20
7373.702971374808
 30
0.0
 41
12.0
 42
12.0
 43
12.0
 50
90.0
  0
INSERT
  5
16A5
330
2730
100
AcDbEntity
  8
0
100
AcDbBlockReference
  2
*U42
 10
0.0
 20
0.0
 30
0.0
  0
POINT
  5
16A6
330
2730
100
AcDbEntity
  8
DEFPOINTS
 62
     0
100
AcDbPoint
 10
-25532.51823276502
 20
7385.702971374808
 30
0.0
  0
POINT
  5
16A7
330
2730
100
AcDbEntity
  8
DEFPOINTS
 62
     0
100
AcDbPoint
 10
-25543.51823276502
 20
7373.702971374808
 30
0.0
  0
POINT
  5
16A8
330
2730
100
AcDbEntity
  8
DEFPOINTS
 62
     0
100
AcDbPoint
 10
-25382.37494828464
 20
7373.702971374808
 30
0.0
  0
ENDBLK
  5
16A9
330
2730
100
AcDbEntity
  8
0
100
AcDbBlockEnd
  0
BLOCK
  5
2733
330
2732
100
AcDbEntity
  8
0
100
AcDbBlockBegin
  2
*U42
 70
     1
 10
0.0
 20
0.0
 30
0.0
  3
*U42
  1

  0
TEXT
  5
1F1D
330
2732
100
AcDbEntity
  8
SIZE
 62
     0
100
AcDbText
 10
-25392.37494828464
 20
7256.045828517662
 30
0.0
 40
64.0
  1
12
 50
90.0
 41
0.9
100
AcDbText
  0
ENDBLK
  5
1F1F
330
2732
100
AcDbEntity
  8
0
100
AcDbBlockEnd
  0
BLOCK
  5
2735
330
2734
100
AcDbEntity
  8
0
100
AcDbBlockBegin
  2
*D43
 70
     1
 10
0.0
 20
0.0
 30
0.0
  3
*D43
  1

  0
LINE
  5
16AC
330
2734
100
AcDbEntity
  8
SIZE
 62
     0
100
AcDbLine
 10
-25801.51823276501
 20
7365.702971374808
 30
0.0
 11
-25801.51823276501
 21
7217.685576144207
 31
0.0
  0
LINE
  5
16AD
330
2734
100
AcDbEntity
  8
SIZE
 62
     0
100
AcDbLine
 10
-25532.51823276502
 20
7365.702971374808
 30
0.0
 11
-25532.51823276502
 21
7217.685576144207
 31
0.0
  0
LINE
  5
16AE
330
2734
100
AcDbEntity
  8
SIZE
 62
     0
100
AcDbLine
 10
-25789.51823276502
 20
7237.685576144207
 30
0.0
 11
-25544.51823276501
 21
7237.685576144207
 31
0.0
  0
INSERT
  5
16AF
330
2734
100
AcDbEntity
  8
SIZE
 62
     0
100
AcDbBlockReference
  2
_DOTBLANK
 10
-25801.51823276501
 20
7237.685576144207
 30
0.0
 41
12.0
 42
12.0
 43
12.0
 50
180.0
  0
INSERT
  5
16B0
330
2734
100
AcDbEntity
  8
SIZE
 62
     0
100
AcDbBlockReference
  2
_DOTBLANK
 10
-25532.51823276502
 20
7237.685576144207
 30
0.0
 41
12.0
 42
12.0
 43
12.0
  0
INSERT
  5
16B1
330
2734
100
AcDbEntity
  8
0
100
AcDbBlockReference
  2
*U44
 10
0.0
 20
0.0
 30
0.0
  0
POINT
  5
16B2
330
2734
100
AcDbEntity
  8
DEFPOINTS
 62
     0
100
AcDbPoint
 10
-25801.51823276501
 20
7385.702971374808
 30
0.0
  0
POINT
  5
16B3
330
2734
100
AcDbEntity
  8
DEFPOINTS
 62
     0
100
AcDbPoint
 10
-25532.51823276502
 20
7385.702971374808
 30
0.0
  0
POINT
  5
16B4
330
2734
100
AcDbEntity
  8
DEFPOINTS
 62
     0
100
AcDbPoint
 10
-25532.51823276502
 20
7237.685576144207
 30
0.0
  0
ENDBLK
  5
16B5
330
2734
100
AcDbEntity
  8
0
100
AcDbBlockEnd
  0
BLOCK
  5
2737
330
2736
100
AcDbEntity
  8
0
100
AcDbBlockBegin
  2
*U44
 70
     1
 10
0.0
 20
0.0
 30
0.0
  3
*U44
  1

  0
TEXT
  5
1F21
330
2736
100
AcDbEntity
  8
SIZE
 62
     0
100
AcDbText
 10
-25739.70394705074
 20
7247.685576144205
 30
0.0
 40
64.0
  1
269
 41
0.9
100
AcDbText
  0
ENDBLK
  5
1F23
330
2736
100
AcDbEntity
  8
0
100
AcDbBlockEnd
  0
BLOCK
  5
2739
330
2738
100
AcDbEntity
  8
0
100
AcDbBlockBegin
  2
*D45
 70
     1
 10
0.0
 20
0.0
 30
0.0
  3
*D45
  1

  0
LINE
  5
16B8
330
2738
100
AcDbEntity
  8
SIZE
 62
     0
100
AcDbLine
 10
-25512.51823276502
 20
7385.702971374808
 30
0.0
 11
-25362.37494828464
 21
7385.702971374808
 31
0.0
  0
LINE
  5
16B9
330
2738
100
AcDbEntity
  8
SIZE
 62
     0
100
AcDbLine
 10
-25489.51823276501
 20
7685.702971374808
 30
0.0
 11
-25362.37494828464
 21
7685.702971374808
 31
0.0
  0
LINE
  5
16BA
330
2738
100
AcDbEntity
  8
SIZE
 62
     0
100
AcDbLine
 10
-25382.37494828464
 20
7397.702971374808
 30
0.0
 11
-25382.37494828464
 21
7673.702971374808
 31
0.0
  0
INSERT
  5
16BB
330
2738
100
AcDbEntity
  8
SIZE
 62
     0
100
AcDbBlockReference
  2
_DOTBLANK
 10
-25382.37494828464
 20
7385.702971374808
 30
0.0
 41
12.0
 42
12.0
 43
12.0
 50
270.0
  0
INSERT
  5
16BC
330
2738
100
AcDbEntity
  8
SIZE
 62
     0
100
AcDbBlockReference
  2
_DOTBLANK
 10
-25382.37494828464
 20
7685.702971374808
 30
0.0
 41
12.0
 42
12.0
 43
12.0
 50
90.0
  0
INSERT
  5
16BD
330
2738
100
AcDbEntity
  8
0
100
AcDbBlockReference
  2
*U46
 10
0.0
 20
0.0
 30
0.0
  0
POINT
  5
16BE
330
2738
100
AcDbEntity
  8
DEFPOINTS
 62
     0
100
AcDbPoint
 10
-25532.51823276502
 20
7385.702971374808
 30
0.0
  0
POINT
  5
16BF
330
2738
100
AcDbEntity
  8
DEFPOINTS
 62
     0
100
AcDbPoint
 10
-25509.51823276502
 20
7685.702971374808
 30
0.0
  0
POINT
  5
16C0
330
2738
100
AcDbEntity
  8
DEFPOINTS
 62
     0
100
AcDbPoint
 10
-25382.37494828464
 20
7685.702971374808
 30
0.0
  0
ENDBLK
  5
16C1
330
2738
100
AcDbEntity
  8
0
100
AcDbBlockEnd
  0
BLOCK
  5
273B
330
273A
100
AcDbEntity
  8
0
100
AcDbBlockBegin
  2
*U46
 70
     1
 10
0.0
 20
0.0
 30
0.0
  3
*U46
  1

  0
TEXT
  5
1F25
330
273A
100
AcDbEntity
  8
SIZE
 62
     0
100
AcDbText
 10
-25392.37494828464
 20
7461.645828517662
 30
0.0
 40
64.0
  1
300
 50
90.0
 41
0.9
100
AcDbText
  0
ENDBLK
  5
1F27
330
273A
100
AcDbEntity
  8
0
100
AcDbBlockEnd
  0
BLOCK
  5
273D
330
273C
100
AcDbEntity
  8
0
100
AcDbBlockBegin
  2
*D47
 70
     1
 10
0.0
 20
0.0
 30
0.0
  3
*D47
  1

  0
LINE
  5
16C4
330
273C
100
AcDbEntity
  8
SIZE
 62
     0
100
AcDbLine
 10
-25807.01823276501
 20
7718.167454177002
 30
0.0
 11
-25807.01823276501
 21
7822.154659243358
 31
0.0
  0
LINE
  5
16C5
330
273C
100
AcDbEntity
  8
SIZE
 62
     0
100
AcDbLine
 10
-25527.01823276501
 20
7718.167454177002
 30
0.0
 11
-25527.01823276501
 21
7822.154659243358
 31
0.0
  0
LINE
  5
16C6
330
273C
100
AcDbEntity
  8
SIZE
 62
     0
100
AcDbLine
 10
-25795.01823276502
 20
7802.154659243358
 30
0.0
 11
-25539.01823276501
 21
7802.154659243358
 31
0.0
  0
INSERT
  5
16C7
330
273C
100
AcDbEntity
  8
SIZE
 62
     0
100
AcDbBlockReference
  2
_DOTBLANK
 10
-25807.01823276501
 20
7802.154659243358
 30
0.0
 41
12.0
 42
12.0
 43
12.0
 50
180.0
  0
INSERT
  5
16C8
330
273C
100
AcDbEntity
  8
SIZE
 62
     0
100
AcDbBlockReference
  2
_DOTBLANK
 10
-25527.01823276501
 20
7802.154659243358
 30
0.0
 41
12.0
 42
12.0
 43
12.0
  0
INSERT
  5
16C9
330
273C
100
AcDbEntity
  8
0
100
AcDbBlockReference
  2
*U48
 10
0.0
 20
0.0
 30
0.0
  0
POINT
  5
16CA
330
273C
100
AcDbEntity
  8
DEFPOINTS
 62
     0
100
AcDbPoint
 10
-25807.01823276501
 20
7698.167454177002
 30
0.0
  0
POINT
  5
16CB
330
273C
100
AcDbEntity
  8
DEFPOINTS
 62
     0
100
AcDbPoint
 10
-25527.01823276501
 20
7698.167454177002
 30
0.0
  0
POINT
  5
16CC
330
273C
100
AcDbEntity
  8
DEFPOINTS
 62
     0
100
AcDbPoint
 10
-25527.01823276501
 20
7802.154659243358
 30
0.0
  0
ENDBLK
  5
16CD
330
273C
100
AcDbEntity
  8
0
100
AcDbBlockEnd
  0
BLOCK
  5
273F
330
273E
100
AcDbEntity
  8
0
100
AcDbBlockBegin
  2
*U48
 70
     1
 10
0.0
 20
0.0
 30
0.0
  3
*U48
  1

  0
TEXT
  5
1F29
330
273E
100
AcDbEntity
  8
SIZE
 62
     0
100
AcDbText
 10
-25741.07537562216
 20
7812.154659243358
 30
0.0
 40
64.0
  1
280
 41
0.9
100
AcDbText
  0
ENDBLK
  5
1F2B
330
273E
100
AcDbEntity
  8
0
100
AcDbBlockEnd
  0
BLOCK
  5
2741
330
2740
100
AcDbEntity
  8
0
100
AcDbBlockBegin
  2
*D49
 70
     1
 10
0.0
 20
0.0
 30
0.0
  3
*D49
  1

  0
LINE
  5
16D0
330
2740
100
AcDbEntity
  8
SIZE
 62
     0
100
AcDbLine
 10
-25824.51823276501
 20
7705.702971374808
 30
0.0
 11
-25824.51823276501
 21
7931.282433493766
 31
0.0
  0
LINE
  5
16D1
330
2740
100
AcDbEntity
  8
SIZE
 62
     0
100
AcDbLine
 10
-25509.51823276502
 20
7705.702971374808
 30
0.0
 11
-25509.51823276502
 21
7931.282433493766
 31
0.0
  0
LINE
  5
16D2
330
2740
100
AcDbEntity
  8
SIZE
 62
     0
100
AcDbLine
 10
-25812.51823276502
 20
7911.282433493766
 30
0.0
 11
-25521.51823276501
 21
7911.282433493766
 31
0.0
  0
INSERT
  5
16D3
330
2740
100
AcDbEntity
  8
SIZE
 62
     0
100
AcDbBlockReference
  2
_DOTBLANK
 10
-25824.51823276501
 20
7911.282433493766
 30
0.0
 41
12.0
 42
12.0
 43
12.0
 50
180.0
  0
INSERT
  5
16D4
330
2740
100
AcDbEntity
  8
SIZE
 62
     0
100
AcDbBlockReference
  2
_DOTBLANK
 10
-25509.51823276502
 20
7911.282433493766
 30
0.0
 41
12.0
 42
12.0
 43
12.0
  0
INSERT
  5
16D5
330
2740
100
AcDbEntity
  8
0
100
AcDbBlockReference
  2
*U50
 10
0.0
 20
0.0
 30
0.0
  0
POINT
  5
16D6
330
2740
100
AcDbEntity
  8
DEFPOINTS
 62
     0
100
AcDbPoint
 10
-25824.51823276501
 20
7685.702971374808
 30
0.0
  0
POINT
  5
16D7
330
2740
100
AcDbEntity
  8
DEFPOINTS
 62
     0
100
AcDbPoint
 10
-25509.51823276502
 20
7685.702971374808
 30
0.0
  0
POINT
  5
16D8
330
2740
100
AcDbEntity
  8
DEFPOINTS
 62
     0
100
AcDbPoint
 10
-25509.51823276502
 20
7911.282433493766
 30
0.0
  0
ENDBLK
  5
16D9
330
2740
100
AcDbEntity
  8
0
100
AcDbBlockEnd
  0
BLOCK
  5
2743
330
2742
100
AcDbEntity
  8
0
100
AcDbBlockBegin
  2
*U50
 70
     1
 10
0.0
 20
0.0
 30
0.0
  3
*U50
  1

  0
TEXT
  5
1F2D
330
2742
100
AcDbEntity
  8
SIZE
 62
     0
100
AcDbText
 10
-25735.58966133645
 20
7921.282433493766
 30
0.0
 40
64.0
  1
315
 41
0.9
100
AcDbText
  0
ENDBLK
  5
1F2F
330
2742
100
AcDbEntity
  8
0
100
AcDbBlockEnd
  0
BLOCK
  5
2745
330
2744
100
AcDbEntity
  8
0
100
AcDbBlockBegin
  2
*D51
 70
     1
 10
0.0
 20
0.0
 30
0.0
  3
*D51
  1

  0
LINE
  5
1D83
330
2744
100
AcDbEntity
  8
SIZE
 62
     0
100
AcDbLine
 10
-134.5
 20
-320.0
 30
0.0
 11
-134.5
 21
-468.0173952306001
 31
0.0
  0
LINE
  5
1D84
330
2744
100
AcDbEntity
  8
SIZE
 62
     0
100
AcDbLine
 10
134.5
 20
-320.0
 30
0.0
 11
134.5
 21
-468.0173952306001
 31
0.0
  0
LINE
  5
1D85
330
2744
100
AcDbEntity
  8
SIZE
 62
     0
100
AcDbLine
 10
-122.5
 20
-448.0173952306
 30
0.0
 11
122.5
 21
-448.0173952306
 31
0.0
  0
INSERT
  5
1D86
330
2744
100
AcDbEntity
  8
SIZE
 62
     0
100
AcDbBlockReference
  2
_DOTBLANK
 10
-134.5
 20
-448.0173952306
 30
0.0
 41
12.0
 42
12.0
 43
12.0
 50
180.0
  0
INSERT
  5
1D87
330
2744
100
AcDbEntity
  8
SIZE
 62
     0
100
AcDbBlockReference
  2
_DOTBLANK
 10
134.5
 20
-448.0173952306
 30
0.0
 41
12.0
 42
12.0
 43
12.0
  0
INSERT
  5
1D88
330
2744
100
AcDbEntity
  8
0
100
AcDbBlockReference
  2
*U52
 10
0.0
 20
0.0
 30
0.0
  0
POINT
  5
1D89
330
2744
100
AcDbEntity
  8
DEFPOINTS
 62
     0
100
AcDbPoint
 10
-134.5
 20
-300.0
 30
0.0
  0
POINT
  5
1D8A
330
2744
100
AcDbEntity
  8
DEFPOINTS
 62
     0
100
AcDbPoint
 10
134.5
 20
-300.0
 30
0.0
  0
POINT
  5
1D8B
330
2744
100
AcDbEntity
  8
DEFPOINTS
 62
     0
100
AcDbPoint
 10
134.5
 20
-448.0173952306
 30
0.0
  0
ENDBLK
  5
173D
330
2744
100
AcDbEntity
  8
0
100
AcDbBlockEnd
  0
BLOCK
  5
2747
330
2746
100
AcDbEntity
  8
0
100
AcDbBlockBegin
  2
*U52
 70
     1
 10
0.0
 20
0.0
 30
0.0
  3
*U52
  1

  0
TEXT
  5
1F31
330
2746
100
AcDbEntity
  8
SIZE
 62
     0
100
AcDbText
 10
-72.68571428571426
 20
-438.0173952306003
 30
0.0
 40
64.0
  1
269
 41
0.9
100
AcDbText
  0
ENDBLK
  5
1F33
330
2746
100
AcDbEntity
  8
0
100
AcDbBlockEnd
  0
BLOCK
  5
2749
330
2748
100
AcDbEntity
  8
0
100
AcDbBlockBegin
  2
*D53
 70
     1
 10
0.0
 20
0.0
 30
0.0
  3
*D53
  1

  0
LINE
  5
1D8C
330
2748
100
AcDbEntity
  8
SIZE
 62
     0
100
AcDbLine
 10
154.5
 20
-300.0
 30
0.0
 11
304.6432844803784
 21
-300.0
 31
0.0
  0
LINE
  5
1D8D
330
2748
100
AcDbEntity
  8
SIZE
 62
     0
100
AcDbLine
 10
177.5
 20
-0.0000000000000057
 30
0.0
 11
304.6432844803785
 21
-0.0000000000000417
 31
0.0
  0
LINE
  5
1D8E
330
2748
100
AcDbEntity
  8
SIZE
 62
     0
100
AcDbLine
 10
284.6432844803784
 20
-288.0
 30
0.0
 11
284.6432844803785
 21
-12.00000000000003
 31
0.0
  0
INSERT
  5
1D8F
330
2748
100
AcDbEntity
  8
SIZE
 62
     0
100
AcDbBlockReference
  2
_DOTBLANK
 10
284.6432844803784
 20
-300.0
 30
0.0
 41
12.0
 42
12.0
 43
12.0
 50
270.0
  0
INSERT
  5
1D90
330
2748
100
AcDbEntity
  8
SIZE
 62
     0
100
AcDbBlockReference
  2
_DOTBLANK
 10
284.6432844803785
 20
-0.000000000000036
 30
0.0
 41
12.0
 42
12.0
 43
12.0
 50
90.0
  0
INSERT
  5
1D91
330
2748
100
AcDbEntity
  8
0
100
AcDbBlockReference
  2
*U54
 10
0.0
 20
0.0
 30
0.0
  0
POINT
  5
1D92
330
2748
100
AcDbEntity
  8
DEFPOINTS
 62
     0
100
AcDbPoint
 10
134.5
 20
-300.0
 30
0.0
  0
POINT
  5
1D93
330
2748
100
AcDbEntity
  8
DEFPOINTS
 62
     0
100
AcDbPoint
 10
157.5
 20
0.0
 30
0.0
  0
POINT
  5
1D94
330
2748
100
AcDbEntity
  8
DEFPOINTS
 62
     0
100
AcDbPoint
 10
284.6432844803785
 20
-0.000000000000036
 30
0.0
  0
ENDBLK
  5
1749
330
2748
100
AcDbEntity
  8
0
100
AcDbBlockEnd
  0
BLOCK
  5
274B
330
274A
100
AcDbEntity
  8
0
100
AcDbBlockBegin
  2
*U54
 70
     1
 10
0.0
 20
0.0
 30
0.0
  3
*U54
  1

  0
TEXT
  5
1F35
330
274A
100
AcDbEntity
  8
SIZE
 62
     0
100
AcDbText
 10
274.6432844803785
 20
-224.0571428571429
 30
0.0
 40
64.0
  1
300
 50
90.0
 41
0.9
100
AcDbText
  0
ENDBLK
  5
1F37
330
274A
100
AcDbEntity
  8
0
100
AcDbBlockEnd
  0
BLOCK
  5
274D
330
274C
100
AcDbEntity
  8
0
100
AcDbBlockBegin
  2
*D55
 70
     1
 10
0.0
 20
0.0
 30
0.0
  3
*D55
  1

  0
LINE
  5
1D95
330
274C
100
AcDbEntity
  8
SIZE
 62
     0
100
AcDbLine
 10
-140.0
 20
32.46448280219375
 30
0.0
 11
-140.0
 21
136.4516878685508
 31
0.0
  0
LINE
  5
1D96
330
274C
100
AcDbEntity
  8
SIZE
 62
     0
100
AcDbLine
 10
140.0
 20
32.46448280219375
 30
0.0
 11
140.0
 21
136.4516878685508
 31
0.0
  0
LINE
  5
1D97
330
274C
100
AcDbEntity
  8
SIZE
 62
     0
100
AcDbLine
 10
-128.0
 20
116.4516878685508
 30
0.0
 11
128.0
 21
116.4516878685508
 31
0.0
  0
INSERT
  5
1D98
330
274C
100
AcDbEntity
  8
SIZE
 62
     0
100
AcDbBlockReference
  2
_DOTBLANK
 10
-140.0
 20
116.4516878685508
 30
0.0
 41
12.0
 42
12.0
 43
12.0
 50
180.0
  0
INSERT
  5
1D99
330
274C
100
AcDbEntity
  8
SIZE
 62
     0
100
AcDbBlockReference
  2
_DOTBLANK
 10
140.0
 20
116.4516878685508
 30
0.0
 41
12.0
 42
12.0
 43
12.0
  0
INSERT
  5
1D9A
330
274C
100
AcDbEntity
  8
0
100
AcDbBlockReference
  2
*U56
 10
0.0
 20
0.0
 30
0.0
  0
POINT
  5
1D9B
330
274C
100
AcDbEntity
  8
DEFPOINTS
 62
     0
100
AcDbPoint
 10
-140.0
 20
12.46448280219374
 30
0.0
  0
POINT
  5
1D9C
330
274C
100
AcDbEntity
  8
DEFPOINTS
 62
     0
100
AcDbPoint
 10
140.0
 20
12.46448280219374
 30
0.0
  0
POINT
  5
1D9D
330
274C
100
AcDbEntity
  8
DEFPOINTS
 62
     0
100
AcDbPoint
 10
140.0
 20
116.4516878685508
 30
0.0
  0
ENDBLK
  5
1755
330
274C
100
AcDbEntity
  8
0
100
AcDbBlockEnd
  0
BLOCK
  5
274F
330
274E
100
AcDbEntity
  8
0
100
AcDbBlockBegin
  2
*U56
 70
     1
 10
0.0
 20
0.0
 30
0.0
  3
*U56
  1

  0
TEXT
  5
1F39
330
274E
100
AcDbEntity
  8
SIZE
 62
     0
100
AcDbText
 10
-74.05714285714283
 20
126.4516878685508
 30
0.0
 40
64.0
  1
280
 41
0.9
100
AcDbText
  0
ENDBLK
  5
1F3B
330
274E
100
AcDbEntity
  8
0
100
AcDbBlockEnd
  0
BLOCK
  5
2751
330
2750
100
AcDbEntity
  8
0
100
AcDbBlockBegin
  2
*D57
 70
     1
 10
0.0
 20
0.0
 30
0.0
  3
*D57
  1

  0
LINE
  5
1D9E
330
2750
100
AcDbEntity
  8
SIZE
 62
     0
100
AcDbLine
 10
-157.5
 20
20.0
 30
0.0
 11
-157.5
 21
245.5794621189598
 31
0.0
  0
LINE
  5
1D9F
330
2750
100
AcDbEntity
  8
SIZE
 62
     0
100
AcDbLine
 10
157.5
 20
20.0
 30
0.0
 11
157.5
 21
245.5794621189598
 31
0.0
  0
LINE
  5
1DA0
330
2750
100
AcDbEntity
  8
SIZE
 62
     0
100
AcDbLine
 10
-145.5
 20
225.5794621189598
 30
0.0
 11
145.5
 21
225.5794621189598
 31
0.0
  0
INSERT
  5
1DA1
330
2750
100
AcDbEntity
  8
SIZE
 62
     0
100
AcDbBlockReference
  2
_DOTBLANK
 10
-157.5
 20
225.5794621189598
 30
0.0
 41
12.0
 42
12.0
 43
12.0
 50
180.0
  0
INSERT
  5
1DA2
330
2750
100
AcDbEntity
  8
SIZE
 62
     0
100
AcDbBlockReference
  2
_DOTBLANK
 10
157.5
 20
225.5794621189598
 30
0.0
 41
12.0
 42
12.0
 43
12.0
  0
INSERT
  5
1DA3
330
2750
100
AcDbEntity
  8
0
100
AcDbBlockReference
  2
*U58
 10
0.0
 20
0.0
 30
0.0
  0
POINT
  5
1DA4
330
2750
100
AcDbEntity
  8
DEFPOINTS
 62
     0
100
AcDbPoint
 10
-157.5
 20
0.0
 30
0.0
  0
POINT
  5
1DA5
330
2750
100
AcDbEntity
  8
DEFPOINTS
 62
     0
100
AcDbPoint
 10
157.5
 20
0.0
 30
0.0
  0
POINT
  5
1DA6
330
2750
100
AcDbEntity
  8
DEFPOINTS
 62
     0
100
AcDbPoint
 10
157.5
 20
225.5794621189598
 30
0.0
  0
ENDBLK
  5
1761
330
2750
100
AcDbEntity
  8
0
100
AcDbBlockEnd
  0
BLOCK
  5
2753
330
2752
100
AcDbEntity
  8
0
100
AcDbBlockBegin
  2
*U58
 70
     1
 10
0.0
 20
0.0
 30
0.0
  3
*U58
  1

  0
TEXT
  5
1F3D
330
2752
100
AcDbEntity
  8
SIZE
 62
     0
100
AcDbText
 10
-68.57142857142857
 20
235.5794621189599
 30
0.0
 40
64.0
  1
315
 41
0.9
100
AcDbText
  0
ENDBLK
  5
1F3F
330
2752
100
AcDbEntity
  8
0
100
AcDbBlockEnd
  0
BLOCK
  5
2755
330
2754
100
AcDbEntity
  8
0
100
AcDbBlockBegin
  2
*D59
 70
     1
 10
0.0
 20
0.0
 30
0.0
  3
*D59
  1

  0
LINE
  5
1DA7
330
2754
100
AcDbEntity
  8
SIZE
 62
     0
100
AcDbLine
 10
-177.5
 20
0.0000000000000057
 30
0.0
 11
-314.0264221186908
 21
0.0000000000000443
 31
0.0
  0
LINE
  5
1DA8
330
2754
100
AcDbEntity
  8
SIZE
 62
     0
100
AcDbLine
 10
-177.5
 20
-7.999999999999995
 30
0.0
 11
-314.0264221186908
 21
-7.999999999999958
 31
0.0
  0
LINE
  5
1DA9
330
2754
100
AcDbEntity
  8
SIZE
 62
     0
100
AcDbLine
 10
-294.0264221186908
 20
12.00000000000003
 30
0.0
 11
-294.0264221186908
 21
24.00000000000004
 31
0.0
  0
LINE
  5
1DAA
330
2754
100
AcDbEntity
  8
SIZE
 62
     0
100
AcDbLine
 10
-294.0264221186908
 20
-19.99999999999996
 30
0.0
 11
-294.0264221186908
 21
-90.39999999999997
 31
0.0
  0
INSERT
  5
1DAB
330
2754
100
AcDbEntity
  8
SIZE
 62
     0
100
AcDbBlockReference
  2
_DOTBLANK
 10
-294.0264221186908
 20
0.0000000000000387
 30
0.0
 41
12.0
 42
12.0
 43
12.0
 50
270.0
  0
INSERT
  5
1DAC
330
2754
100
AcDbEntity
  8
SIZE
 62
     0
100
AcDbBlockReference
  2
_DOTBLANK
 10
-294.0264221186908
 20
-7.999999999999961
 30
0.0
 41
12.0
 42
12.0
 43
12.0
 50
90.0
  0
INSERT
  5
1DAD
330
2754
100
AcDbEntity
  8
0
100
AcDbBlockReference
  2
*U60
 10
0.0
 20
0.0
 30
0.0
  0
POINT
  5
1DAE
330
2754
100
AcDbEntity
  8
DEFPOINTS
 62
     0
100
AcDbPoint
 10
-157.5
 20
0.0
 30
0.0
  0
POINT
  5
1DAF
330
2754
100
AcDbEntity
  8
DEFPOINTS
 62
     0
100
AcDbPoint
 10
-157.5
 20
-8.000000000000003
 30
0.0
  0
POINT
  5
1DB0
330
2754
100
AcDbEntity
  8
DEFPOINTS
 62
     0
100
AcDbPoint
 10
-294.0264221186908
 20
-7.999999999999961
 30
0.0
  0
ENDBLK
  5
176D
330
2754
100
AcDbEntity
  8
0
100
AcDbBlockEnd
  0
BLOCK
  5
2757
330
2756
100
AcDbEntity
  8
0
100
AcDbBlockBegin
  2
*U60
 70
     1
 10
0.0
 20
0.0
 30
0.0
  3
*U60
  1

  0
TEXT
  5
1F41
330
2756
100
AcDbEntity
  8
SIZE
 62
     0
100
AcDbText
 10
-304.0264221186908
 20
-80.4
 30
0.0
 40
64.0
  1
8
 50
90.0
 41
0.9
100
AcDbText
  0
ENDBLK
  5
1F43
330
2756
100
AcDbEntity
  8
0
100
AcDbBlockEnd
  0
BLOCK
  5
2759
330
2758
100
AcDbEntity
  8
0
100
AcDbBlockBegin
  2
*D61
 70
     1
 10
0.0
 20
0.0
 30
0.0
  3
*D61
  1

  0
LINE
  5
1DB1
330
2758
100
AcDbEntity
  8
SIZE
 62
     0
100
AcDbLine
 10
154.5
 20
-300.0
 30
0.0
 11
304.6432844803785
 21
-300.0
 31
0.0
  0
LINE
  5
1DB2
330
2758
100
AcDbEntity
  8
SIZE
 62
     0
100
AcDbLine
 10
143.5
 20
-312.0
 30
0.0
 11
304.6432844803785
 21
-312.0
 31
0.0
  0
LINE
  5
1DB3
330
2758
100
AcDbEntity
  8
SIZE
 62
     0
100
AcDbLine
 10
284.6432844803785
 20
-288.0
 30
0.0
 11
284.6432844803785
 21
-276.0
 31
0.0
  0
LINE
  5
1DB4
330
2758
100
AcDbEntity
  8
SIZE
 62
     0
100
AcDbLine
 10
284.6432844803785
 20
-324.0000000000001
 30
0.0
 11
284.6432844803784
 21
-438.2857142857143
 31
0.0
  0
INSERT
  5
1DB5
330
2758
100
AcDbEntity
  8
SIZE
 62
     0
100
AcDbBlockReference
  2
_DOTBLANK
 10
284.6432844803785
 20
-300.0
 30
0.0
 41
12.0
 42
12.0
 43
12.0
 50
270.0
  0
INSERT
  5
1DB6
330
2758
100
AcDbEntity
  8
SIZE
 62
     0
100
AcDbBlockReference
  2
_DOTBLANK
 10
284.6432844803785
 20
-312.0
 30
0.0
 41
12.0
 42
12.0
 43
12.0
 50
90.0
  0
INSERT
  5
1DB7
330
2758
100
AcDbEntity
  8
0
100
AcDbBlockReference
  2
*U62
 10
0.0
 20
0.0
 30
0.0
  0
POINT
  5
1DB8
330
2758
100
AcDbEntity
  8
DEFPOINTS
 62
     0
100
AcDbPoint
 10
134.5
 20
-300.0
 30
0.0
  0
POINT
  5
1DB9
330
2758
100
AcDbEntity
  8
DEFPOINTS
 62
     0
100
AcDbPoint
 10
123.5
 20
-312.0
 30
0.0
  0
POINT
  5
1DBA
330
2758
100
AcDbEntity
  8
DEFPOINTS
 62
     0
100
AcDbPoint
 10
284.6432844803785
 20
-312.0
 30
0.0
  0
ENDBLK
  5
177B
330
2758
100
AcDbEntity
  8
0
100
AcDbBlockEnd
  0
BLOCK
  5
275B
330
275A
100
AcDbEntity
  8
0
100
AcDbBlockBegin
  2
*U62
 70
     1
 10
0.0
 20
0.0
 30
0.0
  3
*U62
  1

  0
TEXT
  5
1F45
330
275A
100
AcDbEntity
  8
SIZE
 62
     0
100
AcDbText
 10
274.6432844803785
 20
-428.2857142857142
 30
0.0
 40
64.0
  1
12
 50
90.0
 41
0.9
100
AcDbText
  0
ENDBLK
  5
1F47
330
275A
100
AcDbEntity
  8
0
100
AcDbBlockEnd
  0
BLOCK
  5
275D
330
275C
100
AcDbEntity
  8
0
100
AcDbBlockBegin
  2
*U63
 70
     1
 10
0.0
 20
0.0
 30
0.0
  3
*U63
  1

  0
ENDBLK
  5
1D57
330
275C
100
AcDbEntity
  8
0
100
AcDbBlockEnd
  0
BLOCK
  5
275F
330
275E
100
AcDbEntity
  8
0
100
AcDbBlockBegin
  2
*U64
 70
     1
 10
0.0
 20
0.0
 30
0.0
  3
*U64
  1

  0
INSERT
  5
2087
330
275E
100
AcDbEntity
  8
NOTE
100
AcDbBlockReference
  2
_OPEN30
 10
0.000000000001819
 20
450.0
 30
0.0
 41
12.0
 42
12.0
 43
12.0
 50
312.6090116116897
  0
POLYLINE
  5
2088
330
275E
100
AcDbEntity
  8
NOTE
100
AcDb2dPolyline
 66
     1
 10
0.0
 20
0.0
 30
0.0
  0
VERTEX
  5
2614
330
2088
100
AcDbEntity
  8
NOTE
100
AcDbVertex
100
AcDb2dVertex
 10
-8.123900836187701
 20
458.8318874089154
 30
0.0
  0
VERTEX
  5
2615
330
2088
100
AcDbEntity
  8
NOTE
100
AcDbVertex
100
AcDb2dVertex
 10
-87.86939999225252
 20
545.5270950580128
 30
0.0
  0
VERTEX
  5
2616
330
2088
100
AcDbEntity
  8
NOTE
100
AcDbVertex
100
AcDb2dVertex
 10
-677.5951142779668
 20
545.5270950580128
 30
0.0
  0
SEQEND
  5
2617
330
2088
100
AcDbEntity
  8
NOTE
  0
ENDBLK
  5
2089
330
275E
100
AcDbEntity
  8
0
100
AcDbBlockEnd
  0
BLOCK
  5
2761
330
2760
100
AcDbEntity
  8
0
100
AcDbBlockBegin
  2
*U65
 70
     1
 10
0.0
 20
0.0
 30
0.0
  3
*U65
  1

  0
TEXT
  5
208C
330
2760
100
AcDbEntity
  8
NOTE
100
AcDbText
 10
-677.5951142779668
 20
563.5270950580127
 30
0.0
 40
64.0
  1
16×φ15取付穴
 41
0.9
100
AcDbText
  0
ENDBLK
  5
208D
330
2760
100
AcDbEntity
  8
0
100
AcDbBlockEnd
  0
BLOCK
  5
2763
330
2762
100
AcDbEntity
  8
0
100
AcDbBlockBegin
  2
*U66
 70
     1
 10
0.0
 20
0.0
 30
0.0
  3
*U66
  1

  0
INSERT
  5
21C4
330
2762
100
AcDbEntity
  8
NOTE
100
AcDbBlockReference
  2
_OPEN30
 10
0.000000000001819
 20
450.0
 30
0.0
 41
12.0
 42
12.0
 43
12.0
 50
312.6090116116897
  0
POLYLINE
  5
21C5
330
2762
100
AcDbEntity
  8
NOTE
100
AcDb2dPolyline
 66
     1
 10
0.0
 20
0.0
 30
0.0
  0
VERTEX
  5
2618
330
21C5
100
AcDbEntity
  8
NOTE
100
AcDbVertex
100
AcDb2dVertex
 10
-8.123900836187701
 20
458.8318874089154
 30
0.0
  0
VERTEX
  5
2619
330
21C5
100
AcDbEntity
  8
NOTE
100
AcDbVertex
100
AcDb2dVertex
 10
-87.86939999225252
 20
545.5270950580128
 30
0.0
  0
VERTEX
  5
261A
330
21C5
100
AcDbEntity
  8
NOTE
100
AcDbVertex
100
AcDb2dVertex
 10
-677.5951142779668
 20
545.5270950580128
 30
0.0
  0
SEQEND
  5
261B
330
21C5
100
AcDbEntity
  8
NOTE
  0
ENDBLK
  5
21C6
330
2762
100
AcDbEntity
  8
0
100
AcDbBlockEnd
  0
BLOCK
  5
2765
330
2764
100
AcDbEntity
  8
0
100
AcDbBlockBegin
  2
*U67
 70
     1
 10
0.0
 20
0.0
 30
0.0
  3
*U67
  1

  0
TEXT
  5
21C9
330
2764
100
AcDbEntity
  8
NOTE
100
AcDbText
 10
-677.5951142779668
 20
563.5270950580127
 30
0.0
 40
64.0
  1
16×φ15取付穴
 41
0.9
100
AcDbText
  0
ENDBLK
  5
21CA
330
2764
100
AcDbEntity
  8
0
100
AcDbBlockEnd
  0
BLOCK
  5
2767
330
2766
100
AcDbEntity
  8
0
100
AcDbBlockBegin
  2
A$C10875DC5
 70
     0
 10
0.0
 20
0.0
 30
0.0
  3
A$C10875DC5
  1

  0
LINE
  5
21CC
330
2766
100
AcDbEntity
  8
NOTE
100
AcDbLine
 10
1389.246130692777
 20
718.8933541953002
 30
0.0
 11
1414.246130692777
 21
718.8933541953002
 31
0.0
  0
LINE
  5
21CD
330
2766
100
AcDbEntity
  8
NOTE
100
AcDbLine
 10
1389.246130692781
 20
1618.893354195301
 30
0.0
 11
1414.246130692781
 21
1618.893354195301
 31
0.0
  0
CIRCLE
  5
21CE
330
2766
100
AcDbEntity
  8
ARRANGE
100
AcDbCircle
 10
1401.746130692777
 20
1168.893354195298
 30
0.0
 40
80.0
  0
LINE
  5
21CF
330
2766
100
AcDbEntity
  8
ARRANGE
100
AcDbLine
 10
1368.529039944767
 20
1135.676263447281
 30
0.0
 11
1434.963221440795
 21
1202.110444943311
 31
0.0
  0
LINE
  5
21D0
330
2766
100
AcDbEntity
  8
ARRANGE
100
AcDbLine
 10
1434.963221440795
 20
1135.676263447282
 30
0.0
 11
1368.529039944763
 21
1202.110444943316
 31
0.0
  0
LINE
  5
21D1
330
2766
100
AcDbEntity
  8
BASIS
100
AcDbLine
 10
1426.746130692777
 20
1168.893354195298
 30
0.0
 11
481.746130692777
 21
1168.8933541953
 31
0.0
  0
LINE
  5
21D2
330
2766
100
AcDbEntity
  8
NOTE
100
AcDbLine
 10
1389.246130692781
 20
1418.893354195302
 30
0.0
 11
1414.246130692781
 21
1418.893354195301
 31
0.0
  0
LINE
  5
21D3
330
2766
100
AcDbEntity
  8
NOTE
100
AcDbLine
 10
1389.246130692777
 20
918.8933541953012
 30
0.0
 11
1414.246130692777
 21
918.8933541953012
 31
0.0
  0
LINE
  5
21D4
330
2766
100
AcDbEntity
  8
DETAIL
100
AcDbLine
 10
379.74613069297
 20
350.8079324305156
 30
0.0
 11
1274.746130692777
 21
389.6750390205774
 31
0.0
  0
LINE
  5
21D5
330
2766
100
AcDbEntity
  8
DETAIL
100
AcDbLine
 10
379.0519540022919
 20
366.7928665474308
 30
0.0
 11
1274.051954002098
 21
405.6599731374925
 31
0.0
  0
LINE
  5
21D6
330
2766
100
AcDbEntity
  8
OUTLINE
100
AcDbLine
 10
1256.746130692777
 20
415.3922959882036
 30
0.0
 11
1256.746130692777
 21
478.8933541953008
 31
0.0
  0
LINE
  5
21D7
330
2766
100
AcDbEntity
  8
DETAIL
100
AcDbLine
 10
1256.746130692777
 20
404.9084342780597
 30
0.0
 11
1256.746130692777
 21
478.8933541953017
 31
0.0
  0
LINE
  5
21D8
330
2766
100
AcDbEntity
  8
DETAIL
100
AcDbLine
 10
506.7461306929702
 20
478.8933541954951
 30
0.0
 11
409.450260854258
 21
381.5974843567797
 31
0.0
  0
LINE
  5
21D9
330
2766
100
AcDbEntity
  8
DETAIL
100
AcDbLine
 10
395.4318427670488
 20
367.5041949078253
 30
0.0
 11
506.7461306929702
 21
478.8933541954951
 31
0.0
  0
LINE
  5
21DA
330
2766
100
AcDbEntity
  8
DETAIL
100
AcDbLine
 10
1401.746130692781
 20
1643.893354195301
 30
0.0
 11
1401.746130692777
 21
693.8933541953015
 31
0.0
  0
LINE
  5
21DB
330
2766
100
AcDbEntity
  8
DETAIL
100
AcDbLine
 10
1393.746130692781
 20
1643.893354195301
 30
0.0
 11
1393.746130692777
 21
693.8933541953015
 31
0.0
  0
LINE
  5
21DC
330
2766
100
AcDbEntity
  8
DETAIL
100
AcDbLine
 10
1256.746130692777
 20
692.8933541953019
 30
0.0
 11
1296.746130692777
 21
732.8933541953021
 31
0.0
  0
LINE
  5
21DD
330
2766
100
AcDbEntity
  8
DETAIL
100
AcDbLine
 10
1256.746130692777
 20
692.8933541953019
 30
0.0
 11
1256.746130692777
 21
478.8933541953017
 31
0.0
  0
LINE
  5
21DE
330
2766
100
AcDbEntity
  8
DETAIL
100
AcDbLine
 10
1393.746130692781
 20
1604.8933541953
 30
0.0
 11
1106.746130692781
 21
1604.893354195301
 31
0.0
  0
LINE
  5
21DF
330
2766
100
AcDbEntity
  8
DETAIL
100
AcDbLine
 10
506.746130692777
 20
1004.893354195302
 30
0.0
 11
506.7461306929702
 21
478.8933541954951
 31
0.0
  0
LINE
  5
21E0
330
2766
100
AcDbEntity
  8
DETAIL
100
AcDbLine
 10
1401.746130692777
 20
693.8933541953015
 30
0.0
 11
1393.746130692777
 21
693.8933541953015
 31
0.0
  0
LINE
  5
21E1
330
2766
100
AcDbEntity
  8
DETAIL
100
AcDbLine
 10
1401.746130692781
 20
1643.893354195301
 30
0.0
 11
1393.746130692781
 21
1643.893354195301
 31
0.0
  0
LINE
  5
21E2
330
2766
100
AcDbEntity
  8
DETAIL
100
AcDbLine
 10
379.74613069297
 20
309.0530803364563
 30
0.0
 11
476.3760400222208
 21
355.0042731966485
 31
0.0
  0
LINE
  5
21E3
330
2766
100
AcDbEntity
  8
DETAIL
100
AcDbLine
 10
1256.746130692777
 20
478.8933541953017
 30
0.0
 11
506.746130692777
 21
478.8933541953038
 31
0.0
  0
LINE
  5
21E4
330
2766
100
AcDbEntity
  8
DETAIL
100
AcDbLine
 10
379.74613069297
 20
294.8933541953038
 30
0.0
 11
379.74613069297
 21
350.8079324305156
 31
0.0
  0
LINE
  5
21E5
330
2766
100
AcDbEntity
  8
DETAIL
100
AcDbLine
 10
366.74613069297
 20
294.8933541953038
 30
0.0
 11
366.74613069297
 21
350.8079324305156
 31
0.0
  0
LINE
  5
21E6
330
2766
100
AcDbEntity
  8
DETAIL
100
AcDbLine
 10
379.74613069297
 20
294.8933541953038
 30
0.0
 11
366.74613069297
 21
294.8933541953038
 31
0.0
  0
LINE
  5
21E7
330
2766
100
AcDbEntity
  8
DETAIL
100
AcDbLine
 10
379.74613069297
 20
350.8079324305156
 30
0.0
 11
379.0380962504469
 21
366.7922587293684
 31
0.0
  0
LINE
  5
21E8
330
2766
100
AcDbEntity
  8
DETAIL
100
AcDbLine
 10
379.74613069297
 20
350.8079324305156
 30
0.0
 11
366.74613069297
 21
350.8079324305156
 31
0.0
  0
LINE
  5
21E9
330
2766
100
AcDbEntity
  8
DETAIL
100
AcDbLine
 10
379.74613069297
 20
351.8079324305152
 30
0.0
 11
367.3832009537769
 21
351.8079324305156
 31
0.0
  0
LINE
  5
21EA
330
2766
100
AcDbEntity
  8
DETAIL
100
AcDbLine
 10
366.74613069297
 20
350.8079324305156
 30
0.0
 11
357.74613069297
 21
370.1084947151008
 31
0.0
  0
LINE
  5
21EB
330
2766
100
AcDbEntity
  8
DETAIL
100
AcDbLine
 10
367.3832009537769
 20
351.8079324305156
 30
0.0
 11
358.6524384800036
 21
370.5311129768404
 31
0.0
  0
LINE
  5
21EC
330
2766
100
AcDbEntity
  8
DETAIL
100
AcDbLine
 10
358.6524384800036
 20
370.5311129768404
 30
0.0
 11
357.74613069297
 21
370.1084947151008
 31
0.0
  0
ARC
  5
21ED
330
2766
100
AcDbEntity
  8
DETAIL
100
AcDbCircle
 10
1106.746130692777
 20
1004.893354195301
 30
0.0
 40
600.0
100
AcDbArc
 50
90.0
 51
180.0
  0
LINE
  5
21EE
330
2766
100
AcDbEntity
  8
DETAIL
100
AcDbLine
 10
1274.746130692777
 20
389.6750390205774
 30
0.0
 11
1274.051954002098
 21
405.6599731374925
 31
0.0
  0
LINE
  5
21EF
330
2766
100
AcDbEntity
  8
NOTE
100
AcDbLine
 10
1389.246130692781
 20
1368.893354195301
 30
0.0
 11
1414.246130692781
 21
1368.893354195301
 31
0.0
  0
LINE
  5
21F0
330
2766
100
AcDbEntity
  8
NOTE
100
AcDbLine
 10
1389.246130692777
 20
968.8933541953016
 30
0.0
 11
1414.246130692777
 21
968.8933541953016
 31
0.0
  0
LINE
  5
21F1
330
2766
100
AcDbEntity
  8
DETAIL
100
AcDbLine
 10
1296.746130692777
 20
732.8933541953021
 30
0.0
 11
1393.746130692777
 21
732.8933541953018
 31
0.0
  0
INSERT
  5
21F2
330
2766
100
AcDbEntity
  8
0
100
AcDbBlockReference
  2
*U66
 10
1401.746130692778
 20
1168.893354195301
 30
0.0
1001
ACAD
1000
DSTYLE
1002
{
1070
    41
1040
12.0
1070
    42
1040
20.0
1070
    43
1040
200.0
1070
    44
1040
20.0
1070
    73
1070
     0
1070
    74
1070
     0
1070
    77
1070
     1
1070
    78
1070
     8
1070
   140
1040
64.0
1070
   147
1040
50.0
1070
   172
1070
     1
1070
   174
1070
     1
1070
   275
1070
     0
1070
   284
1070
     0
1070
   285
1070
     0
1070
   286
1070
     0
1070
   341
1005
0
1070
   342
1005
0
1002
}
  0
INSERT
  5
21F3
330
2766
100
AcDbEntity
  8
0
100
AcDbBlockReference
  2
*U67
 10
1401.746130692778
 20
1168.893354195301
 30
0.0
  0
LINE
  5
21F4
330
2766
100
AcDbEntity
  8
NOTE
100
AcDbLine
 39
50.0
 10
1401.746130692781
 20
1631.393354195301
 30
0.0
 11
1401.746130692781
 21
1606.393354195301
 31
0.0
  0
LINE
  5
21F5
330
2766
100
AcDbEntity
  8
NOTE
100
AcDbLine
 39
50.0
 10
1401.746130692781
 20
1431.393354195301
 30
0.0
 11
1401.746130692781
 21
1406.393354195301
 31
0.0
  0
LINE
  5
21F6
330
2766
100
AcDbEntity
  8
NOTE
100
AcDbLine
 39
50.0
 10
1401.746130692781
 20
1381.393354195301
 30
0.0
 11
1401.746130692781
 21
1356.393354195301
 31
0.0
  0
LINE
  5
21F7
330
2766
100
AcDbEntity
  8
NOTE
100
AcDbLine
 39
50.0
 10
1401.746130692777
 20
981.3933541953016
 30
0.0
 11
1401.746130692777
 21
956.3933541953016
 31
0.0
  0
LINE
  5
21F8
330
2766
100
AcDbEntity
  8
NOTE
100
AcDbLine
 39
50.0
 10
1401.746130692777
 20
931.3933541953012
 30
0.0
 11
1401.746130692777
 21
906.3933541953012
 31
0.0
  0
LINE
  5
21F9
330
2766
100
AcDbEntity
  8
NOTE
100
AcDbLine
 39
50.0
 10
1401.746130692777
 20
731.3933541953002
 30
0.0
 11
1401.746130692777
 21
706.3933541953002
 31
0.0
  0
LINE
  5
21FA
330
2766
100
AcDbEntity
  8
OUTLINE
100
AcDbLine
 39
50.0
 10
1401.746130692781
 20
1643.893354195301
 30
0.0
 11
1401.746130692777
 21
693.8933541953015
 31
0.0
  0
LINE
  5
21FB
330
2766
100
AcDbEntity
  8
OUTLINE
100
AcDbLine
 10
379.74613069297
 20
350.8079324305156
 30
0.0
 11
1274.746130692777
 21
389.6750390205774
 31
0.0
  0
LINE
  5
21FC
330
2766
100
AcDbEntity
  8
OUTLINE
100
AcDbLine
 10
379.0519540022919
 20
366.7928665474308
 30
0.0
 11
1274.051954002098
 21
405.6599731374925
 31
0.0
  0
LINE
  5
21FD
330
2766
100
AcDbEntity
  8
OUTLINE
100
AcDbLine
 10
1256.746130692777
 20
404.9084342780597
 30
0.0
 11
1256.746130692777
 21
478.8933541953017
 31
0.0
  0
LINE
  5
21FE
330
2766
100
AcDbEntity
  8
OUTLINE
100
AcDbLine
 10
506.7461306929702
 20
478.8933541954951
 30
0.0
 11
409.450260854258
 21
381.5974843567797
 31
0.0
  0
LINE
  5
21FF
330
2766
100
AcDbEntity
  8
OUTLINE
100
AcDbLine
 10
395.4318427670488
 20
367.5041949078253
 30
0.0
 11
506.7461306929702
 21
478.8933541954951
 31
0.0
  0
LINE
  5
2200
330
2766
100
AcDbEntity
  8
OUTLINE
100
AcDbLine
 10
1393.746130692781
 20
1643.893354195301
 30
0.0
 11
1393.746130692777
 21
693.8933541953015
 31
0.0
  0
LINE
  5
2201
330
2766
100
AcDbEntity
  8
OUTLINE
100
AcDbLine
 10
1256.746130692777
 20
692.8933541953019
 30
0.0
 11
1296.746130692777
 21
732.8933541953021
 31
0.0
  0
LINE
  5
2202
330
2766
100
AcDbEntity
  8
OUTLINE
100
AcDbLine
 10
1256.746130692777
 20
692.8933541953019
 30
0.0
 11
1256.746130692777
 21
478.8933541953017
 31
0.0
  0
LINE
  5
2203
330
2766
100
AcDbEntity
  8
OUTLINE
100
AcDbLine
 10
1393.746130692781
 20
1604.8933541953
 30
0.0
 11
1106.746130692781
 21
1604.893354195301
 31
0.0
  0
LINE
  5
2204
330
2766
100
AcDbEntity
  8
OUTLINE
100
AcDbLine
 10
506.746130692777
 20
1004.893354195302
 30
0.0
 11
506.7461306929702
 21
478.8933541954951
 31
0.0
  0
LINE
  5
2205
330
2766
100
AcDbEntity
  8
OUTLINE
100
AcDbLine
 10
1401.746130692777
 20
693.8933541953015
 30
0.0
 11
1393.746130692777
 21
693.8933541953015
 31
0.0
  0
LINE
  5
2206
330
2766
100
AcDbEntity
  8
OUTLINE
100
AcDbLine
 10
1401.746130692781
 20
1643.893354195301
 30
0.0
 11
1393.746130692781
 21
1643.893354195301
 31
0.0
  0
LINE
  5
2207
330
2766
100
AcDbEntity
  8
OUTLINE
100
AcDbLine
 10
379.74613069297
 20
309.0530803364563
 30
0.0
 11
476.3760400222208
 21
355.0042731966485
 31
0.0
  0
LINE
  5
2208
330
2766
100
AcDbEntity
  8
OUTLINE
100
AcDbLine
 10
1256.746130692777
 20
478.8933541953017
 30
0.0
 11
506.746130692777
 21
478.8933541953038
 31
0.0
  0
LINE
  5
2209
330
2766
100
AcDbEntity
  8
OUTLINE
100
AcDbLine
 10
379.74613069297
 20
294.8933541953038
 30
0.0
 11
379.74613069297
 21
350.8079324305156
 31
0.0
  0
LINE
  5
220A
330
2766
100
AcDbEntity
  8
OUTLINE
100
AcDbLine
 10
366.74613069297
 20
294.8933541953038
 30
0.0
 11
366.74613069297
 21
350.8079324305156
 31
0.0
  0
LINE
  5
220B
330
2766
100
AcDbEntity
  8
OUTLINE
100
AcDbLine
 10
379.74613069297
 20
294.8933541953038
 30
0.0
 11
366.74613069297
 21
294.8933541953038
 31
0.0
  0
LINE
  5
220C
330
2766
100
AcDbEntity
  8
OUTLINE
100
AcDbLine
 10
379.74613069297
 20
350.8079324305156
 30
0.0
 11
379.0380962504469
 21
366.7922587293684
 31
0.0
  0
LINE
  5
220D
330
2766
100
AcDbEntity
  8
OUTLINE
100
AcDbLine
 10
379.74613069297
 20
350.8079324305156
 30
0.0
 11
366.74613069297
 21
350.8079324305156
 31
0.0
  0
LINE
  5
220E
330
2766
100
AcDbEntity
  8
OUTLINE
100
AcDbLine
 10
379.74613069297
 20
351.8079324305152
 30
0.0
 11
367.3832009537769
 21
351.8079324305156
 31
0.0
  0
LINE
  5
220F
330
2766
100
AcDbEntity
  8
OUTLINE
100
AcDbLine
 10
366.74613069297
 20
350.8079324305156
 30
0.0
 11
357.74613069297
 21
370.1084947151008
 31
0.0
  0
LINE
  5
2210
330
2766
100
AcDbEntity
  8
OUTLINE
100
AcDbLine
 10
367.3832009537769
 20
351.8079324305156
 30
0.0
 11
358.6524384800036
 21
370.5311129768404
 31
0.0
  0
LINE
  5
2211
330
2766
100
AcDbEntity
  8
OUTLINE
100
AcDbLine
 10
358.6524384800036
 20
370.5311129768404
 30
0.0
 11
357.74613069297
 21
370.1084947151008
 31
0.0
  0
ARC
  5
2212
330
2766
100
AcDbEntity
  8
OUTLINE
100
AcDbCircle
 10
1106.746130692777
 20
1004.893354195301
 30
0.0
 40
600.0
100
AcDbArc
 50
90.0
 51
180.0
  0
LINE
  5
2213
330
2766
100
AcDbEntity
  8
OUTLINE
100
AcDbLine
 10
1274.746130692777
 20
389.6750390205774
 30
0.0
 11
1274.051954002098
 21
405.6599731374925
 31
0.0
  0
LINE
  5
2214
330
2766
100
AcDbEntity
  8
OUTLINE
100
AcDbLine
 10
1296.746130692777
 20
732.8933541953021
 30
0.0
 11
1393.746130692777
 21
732.8933541953018
 31
0.0
  0
TEXT
  5
2215
330
2766
100
AcDbEntity
  8
ETC
100
AcDbText
 10
1625.542069218886
 20
2073.033631289395
 30
0.0
 40
64.0
  1
QW-80SB_4
 41
0.9
100
AcDbText
  0
TEXT
  5
2216
330
2766
100
AcDbEntity
  8
ETC
100
AcDbText
 10
1617.862069218886
 20
1966.366964622727
 30
0.0
 40
64.0
  1
システム部材
 41
0.9
100
AcDbText
  0
TEXT
  5
2217
330
2766
100
AcDbEntity
  8
ETC
100
AcDbText
 10
1625.542069218886
 20
1859.700297956061
 30
0.0
 40
64.0
  1
QW-80SB
 41
0.9
100
AcDbText
  0
LINE
  5
2218
330
2766
100
AcDbEntity
  8
SIZE
100
AcDbLine
 10
1393.746130692781
 20
1663.893354195301
 30
0.0
 11
1393.746130692781
 21
1752.114144894437
 31
0.0
  0
LINE
  5
2219
330
2766
100
AcDbEntity
  8
SIZE
100
AcDbLine
 10
1401.746130692781
 20
1663.893354195301
 30
0.0
 11
1401.746130692781
 21
1752.114144894437
 31
0.0
  0
LINE
  5
221A
330
2766
100
AcDbEntity
  8
SIZE
100
AcDbLine
 10
1381.74613069278
 20
1732.114144894437
 30
0.0
 11
1369.746130692781
 21
1732.114144894437
 31
0.0
  0
LINE
  5
221B
330
2766
100
AcDbEntity
  8
SIZE
100
AcDbLine
 10
1413.74613069278
 20
1732.114144894437
 30
0.0
 11
1484.146130692781
 21
1732.114144894437
 31
0.0
  0
INSERT
  5
221C
330
2766
100
AcDbEntity
  8
SIZE
100
AcDbBlockReference
  2
_DOTBLANK
 10
1393.746130692781
 20
1732.114144894437
 30
0.0
 41
12.0
 42
12.0
 43
12.0
  0
INSERT
  5
221D
330
2766
100
AcDbEntity
  8
SIZE
100
AcDbBlockReference
  2
_DOTBLANK
 10
1401.746130692781
 20
1732.114144894437
 30
0.0
 41
12.0
 42
12.0
 43
12.0
 50
180.0
  0
LINE
  5
221E
330
2766
100
AcDbEntity
  8
SIZE
100
AcDbLine
 10
1421.74613069278
 20
1603.893354195301
 30
0.0
 11
1923.607158862025
 21
1603.893354195301
 31
0.0
  0
LINE
  5
221F
330
2766
100
AcDbEntity
  8
SIZE
100
AcDbLine
 10
1421.746130692777
 20
733.8933541953015
 30
0.0
 11
1923.607158862025
 21
733.8933541953015
 31
0.0
  0
LINE
  5
2220
330
2766
100
AcDbEntity
  8
SIZE
100
AcDbLine
 10
1903.607158862025
 20
1591.893354195301
 30
0.0
 11
1903.607158862025
 21
745.8933541953012
 31
0.0
  0
INSERT
  5
2221
330
2766
100
AcDbEntity
  8
SIZE
100
AcDbBlockReference
  2
_DOTBLANK
 10
1903.607158862025
 20
1603.893354195301
 30
0.0
 41
12.0
 42
12.0
 43
12.0
 50
90.0
  0
INSERT
  5
2222
330
2766
100
AcDbEntity
  8
SIZE
100
AcDbBlockReference
  2
_DOTBLANK
 10
1903.607158862025
 20
733.8933541953015
 30
0.0
 41
12.0
 42
12.0
 43
12.0
 50
270.0
  0
LINE
  5
2223
330
2766
100
AcDbEntity
  8
SIZE
100
AcDbLine
 10
1434.246130692781
 20
1418.893354195301
 30
0.0
 11
1780.544575881908
 21
1418.893354195301
 31
0.0
  0
LINE
  5
2224
330
2766
100
AcDbEntity
  8
SIZE
100
AcDbLine
 10
1434.246130692777
 20
918.8933541953012
 30
0.0
 11
1780.544575881908
 21
918.8933541953012
 31
0.0
  0
LINE
  5
2225
330
2766
100
AcDbEntity
  8
SIZE
100
AcDbLine
 10
1760.544575881908
 20
1406.893354195301
 30
0.0
 11
1760.544575881908
 21
930.893354195301
 31
0.0
  0
INSERT
  5
2226
330
2766
100
AcDbEntity
  8
SIZE
100
AcDbBlockReference
  2
_DOTBLANK
 10
1760.544575881908
 20
1418.893354195301
 30
0.0
 41
12.0
 42
12.0
 43
12.0
 50
90.0
  0
INSERT
  5
2227
330
2766
100
AcDbEntity
  8
SIZE
100
AcDbBlockReference
  2
_DOTBLANK
 10
1760.544575881908
 20
918.8933541953012
 30
0.0
 41
12.0
 42
12.0
 43
12.0
 50
270.0
  0
LINE
  5
2228
330
2766
100
AcDbEntity
  8
SIZE
100
AcDbLine
 10
1434.246130692781
 20
1368.893354195301
 30
0.0
 11
1631.672208732896
 21
1368.893354195301
 31
0.0
  0
LINE
  5
2229
330
2766
100
AcDbEntity
  8
SIZE
100
AcDbLine
 10
1434.246130692777
 20
968.8933541953016
 30
0.0
 11
1631.672208732896
 21
968.8933541953012
 31
0.0
  0
LINE
  5
222A
330
2766
100
AcDbEntity
  8
SIZE
100
AcDbLine
 10
1611.672208732897
 20
1356.893354195301
 30
0.0
 11
1611.672208732897
 21
980.8933541953017
 31
0.0
  0
INSERT
  5
222B
330
2766
100
AcDbEntity
  8
SIZE
100
AcDbBlockReference
  2
_DOTBLANK
 10
1611.672208732897
 20
1368.893354195301
 30
0.0
 41
12.0
 42
12.0
 43
12.0
 50
90.0
  0
INSERT
  5
222C
330
2766
100
AcDbEntity
  8
SIZE
100
AcDbBlockReference
  2
_DOTBLANK
 10
1611.672208732897
 20
968.8933541953012
 30
0.0
 41
12.0
 42
12.0
 43
12.0
 50
270.0
  0
LINE
  5
222D
330
2766
100
AcDbEntity
  8
SIZE
100
AcDbLine
 10
1421.74613069278
 20
1643.893354195301
 30
0.0
 11
2174.720971755219
 21
1643.893354195301
 31
0.0
  0
LINE
  5
222E
330
2766
100
AcDbEntity
  8
SIZE
100
AcDbLine
 10
1421.74613069278
 20
693.8933541953018
 30
0.0
 11
2174.720971755219
 21
693.8933541953015
 31
0.0
  0
LINE
  5
222F
330
2766
100
AcDbEntity
  8
SIZE
100
AcDbLine
 10
2154.720971755219
 20
1631.893354195301
 30
0.0
 11
2154.720971755219
 21
705.8933541953015
 31
0.0
  0
INSERT
  5
2230
330
2766
100
AcDbEntity
  8
SIZE
100
AcDbBlockReference
  2
_DOTBLANK
 10
2154.720971755219
 20
1643.893354195301
 30
0.0
 41
12.0
 42
12.0
 43
12.0
 50
90.0
  0
INSERT
  5
2231
330
2766
100
AcDbEntity
  8
SIZE
100
AcDbBlockReference
  2
_DOTBLANK
 10
2154.720971755219
 20
693.8933541953015
 30
0.0
 41
12.0
 42
12.0
 43
12.0
 50
270.0
  0
LINE
  5
2232
330
2766
100
AcDbEntity
  8
SIZE
100
AcDbLine
 10
1434.246130692781
 20
1618.893354195301
 30
0.0
 11
2051.822717360994
 21
1618.893354195301
 31
0.0
  0
LINE
  5
2233
330
2766
100
AcDbEntity
  8
SIZE
100
AcDbLine
 10
1434.246130692777
 20
718.8933541953002
 30
0.0
 11
2051.822717360993
 21
718.8933541952998
 31
0.0
  0
LINE
  5
2234
330
2766
100
AcDbEntity
  8
SIZE
100
AcDbLine
 10
2031.822717360993
 20
1606.893354195301
 30
0.0
 11
2031.822717360993
 21
730.8933541952998
 31
0.0
  0
INSERT
  5
2235
330
2766
100
AcDbEntity
  8
SIZE
100
AcDbBlockReference
  2
_DOTBLANK
 10
2031.822717360993
 20
1618.893354195301
 30
0.0
 41
12.0
 42
12.0
 43
12.0
 50
90.0
  0
INSERT
  5
2236
330
2766
100
AcDbEntity
  8
SIZE
100
AcDbBlockReference
  2
_DOTBLANK
 10
2031.822717360993
 20
718.8933541952998
 30
0.0
 41
12.0
 42
12.0
 43
12.0
 50
270.0
  0
LINE
  5
2237
330
2766
100
AcDbEntity
  8
SIZE
100
AcDbLine
 10
1373.74613069278
 20
1643.893354195301
 30
0.0
 11
53.99999571691364
 21
1643.893354195301
 31
0.0
  0
LINE
  5
2238
330
2766
100
AcDbEntity
  8
SIZE
100
AcDbLine
 10
346.74613069297
 20
294.8933541953038
 30
0.0
 11
53.99999571691364
 21
294.8933541953038
 31
0.0
  0
LINE
  5
2239
330
2766
100
AcDbEntity
  8
SIZE
100
AcDbLine
 10
73.99999571691363
 20
1631.893354195301
 30
0.0
 11
73.99999571691363
 21
306.8933541953038
 31
0.0
  0
INSERT
  5
223A
330
2766
100
AcDbEntity
  8
SIZE
100
AcDbBlockReference
  2
_DOTBLANK
 10
73.99999571691363
 20
1643.893354195301
 30
0.0
 41
12.0
 42
12.0
 43
12.0
 50
90.0
  0
INSERT
  5
223B
330
2766
100
AcDbEntity
  8
SIZE
100
AcDbBlockReference
  2
_DOTBLANK
 10
73.99999571691363
 20
294.8933541953038
 30
0.0
 41
12.0
 42
12.0
 43
12.0
 50
270.0
  0
LINE
  5
223C
330
2766
100
AcDbEntity
  8
SIZE
100
AcDbLine
 10
1421.746130692777
 20
733.8933541953015
 30
0.0
 11
1923.607158862025
 21
733.8933541953015
 31
0.0
  0
LINE
  5
223D
330
2766
100
AcDbEntity
  8
SIZE
100
AcDbLine
 10
1276.746130692777
 20
388.893354195302
 30
0.0
 11
1923.607158862025
 21
388.893354195302
 31
0.0
  0
LINE
  5
223E
330
2766
100
AcDbEntity
  8
SIZE
100
AcDbLine
 10
1903.607158862025
 20
721.8933541953015
 30
0.0
 11
1903.607158862025
 21
400.8933541953017
 31
0.0
  0
INSERT
  5
223F
330
2766
100
AcDbEntity
  8
SIZE
100
AcDbBlockReference
  2
_DOTBLANK
 10
1903.607158862025
 20
733.8933541953015
 30
0.0
 41
12.0
 42
12.0
 43
12.0
 50
90.0
  0
INSERT
  5
2240
330
2766
100
AcDbEntity
  8
SIZE
100
AcDbBlockReference
  2
_DOTBLANK
 10
1903.607158862025
 20
388.893354195302
 30
0.0
 41
12.0
 42
12.0
 43
12.0
 50
270.0
  0
LINE
  5
2241
330
2766
100
AcDbEntity
  8
SIZE
100
AcDbLine
 10
379.74613069297
 20
274.8933541953038
 30
0.0
 11
379.74613069297
 21
0.0000016240842342
 31
0.0
  0
LINE
  5
2242
330
2766
100
AcDbEntity
  8
SIZE
100
AcDbLine
 10
1401.746130692777
 20
673.8933541953015
 30
0.0
 11
1401.746130692777
 21
0.0000016240842342
 31
0.0
  0
LINE
  5
2243
330
2766
100
AcDbEntity
  8
SIZE
100
AcDbLine
 10
391.74613069297
 20
20.00000162408424
 30
0.0
 11
1389.746130692777
 21
20.00000162408424
 31
0.0
  0
INSERT
  5
2244
330
2766
100
AcDbEntity
  8
SIZE
100
AcDbBlockReference
  2
_DOTBLANK
 10
379.74613069297
 20
20.00000162408424
 30
0.0
 41
12.0
 42
12.0
 43
12.0
 50
180.0
  0
INSERT
  5
2245
330
2766
100
AcDbEntity
  8
SIZE
100
AcDbBlockReference
  2
_DOTBLANK
 10
1401.746130692777
 20
20.00000162408424
 30
0.0
 41
12.0
 42
12.0
 43
12.0
  0
LINE
  5
2246
330
2766
100
AcDbEntity
  8
SIZE
100
AcDbLine
 10
1256.746130692777
 20
368.893354195302
 30
0.0
 11
1256.746130692777
 21
115.5274936047615
 31
0.0
  0
LINE
  5
2247
330
2766
100
AcDbEntity
  8
SIZE
100
AcDbLine
 10
379.74613069297
 20
274.8933541953038
 30
0.0
 11
379.74613069297
 21
115.5274936047615
 31
0.0
  0
LINE
  5
2248
330
2766
100
AcDbEntity
  8
SIZE
100
AcDbLine
 10
1244.746130692777
 20
135.5274936047615
 30
0.0
 11
391.74613069297
 21
135.5274936047615
 31
0.0
  0
INSERT
  5
2249
330
2766
100
AcDbEntity
  8
SIZE
100
AcDbBlockReference
  2
_DOTBLANK
 10
1256.746130692777
 20
135.5274936047615
 30
0.0
 41
12.0
 42
12.0
 43
12.0
  0
INSERT
  5
224A
330
2766
100
AcDbEntity
  8
SIZE
100
AcDbBlockReference
  2
_DOTBLANK
 10
379.74613069297
 20
135.5274936047615
 30
0.0
 41
12.0
 42
12.0
 43
12.0
 50
180.0
  0
LINE
  5
224B
330
2766
100
AcDbEntity
  8
SIZE
100
AcDbLine
 10
1274.746130692777
 20
369.6750390205774
 30
0.0
 11
1274.746130692777
 21
115.5274936047615
 31
0.0
  0
LINE
  5
224C
330
2766
100
AcDbEntity
  8
SIZE
100
AcDbLine
 10
1401.746130692777
 20
673.8933541953013
 30
0.0
 11
1401.746130692777
 21
115.5274936047615
 31
0.0
  0
LINE
  5
224D
330
2766
100
AcDbEntity
  8
SIZE
100
AcDbLine
 10
1286.746130692777
 20
135.5274936047615
 30
0.0
 11
1389.746130692777
 21
135.5274936047615
 31
0.0
  0
LINE
  5
224E
330
2766
100
AcDbEntity
  8
SIZE
100
AcDbLine
 10
1401.746130692777
 20
135.5274936047615
 30
0.0
 11
1650.031844978492
 21
135.5274936047615
 31
0.0
  0
INSERT
  5
224F
330
2766
100
AcDbEntity
  8
SIZE
100
AcDbBlockReference
  2
_DOTBLANK
 10
1274.746130692777
 20
135.5274936047615
 30
0.0
 41
12.0
 42
12.0
 43
12.0
 50
180.0
  0
INSERT
  5
2250
330
2766
100
AcDbEntity
  8
SIZE
100
AcDbBlockReference
  2
_DOTBLANK
 10
1401.746130692777
 20
135.5274936047615
 30
0.0
 41
12.0
 42
12.0
 43
12.0
  0
LINE
  5
2251
330
2766
100
AcDbEntity
  8
SIZE
100
AcDbLine
 10
379.74613069297
 20
274.8933541953038
 30
0.0
 11
379.74613069297
 21
0.0000016240842342
 31
0.0
  0
LINE
  5
2252
330
2766
100
AcDbEntity
  8
SIZE
100
AcDbLine
 10
357.74613069297
 20
350.1084947151011
 30
0.0
 11
357.74613069297
 21
0.0000016240842342
 31
0.0
  0
LINE
  5
2253
330
2766
100
AcDbEntity
  8
SIZE
100
AcDbLine
 10
391.74613069297
 20
20.00000162408424
 30
0.0
 11
403.7461306929698
 21
20.00000162408424
 31
0.0
  0
LINE
  5
2254
330
2766
100
AcDbEntity
  8
SIZE
100
AcDbLine
 10
345.74613069297
 20
20.00000162408424
 30
0.0
 11
131.9509083152979
 21
20.00000162408424
 31
0.0
  0
LINE
  5
2255
330
2766
100
AcDbEntity
  8
SIZE
100
AcDbLine
 10
379.74613069297
 20
20.00000162408424
 30
0.0
 11
357.74613069297
 21
20.00000162408424
 31
0.0
  0
INSERT
  5
2256
330
2766
100
AcDbEntity
  8
SIZE
100
AcDbBlockReference
  2
_DOTBLANK
 10
379.74613069297
 20
20.00000162408424
 30
0.0
 41
12.0
 42
12.0
 43
12.0
 50
180.0
  0
INSERT
  5
2257
330
2766
100
AcDbEntity
  8
SIZE
100
AcDbBlockReference
  2
_DOTBLANK
 10
357.74613069297
 20
20.00000162408424
 30
0.0
 41
12.0
 42
12.0
 43
12.0
  0
TEXT
  5
2258
330
2766
100
AcDbEntity
  8
SIZE
100
AcDbText
 10
1435.746130692781
 20
1742.114144894437
 30
0.0
 40
64.0
  1
8
 41
0.9
100
AcDbText
  0
TEXT
  5
2259
330
2766
100
AcDbEntity
  8
SIZE
100
AcDbText
 10
2144.720971755219
 20
1094.836211338158
 30
0.0
 40
64.0
  1
950
 50
90.0
 41
0.9
100
AcDbText
  0
TEXT
  5
225A
330
2766
100
AcDbEntity
  8
SIZE
100
AcDbText
 10
2021.822717360993
 20
1094.836211338158
 30
0.0
 40
64.0
  1
900
 50
90.0
 41
0.9
100
AcDbText
  0
TEXT
  5
225B
330
2766
100
AcDbEntity
  8
SIZE
100
AcDbText
 10
1893.607158862025
 20
1094.836211338158
 30
0.0
 40
64.0
  1
870
 50
90.0
 41
0.9
100
AcDbText
  0
TEXT
  5
225C
330
2766
100
AcDbEntity
  8
SIZE
100
AcDbText
 10
1750.544575881909
 20
1094.836211338158
 30
0.0
 40
64.0
  1
500
 50
90.0
 41
0.9
100
AcDbText
  0
TEXT
  5
225D
330
2766
100
AcDbEntity
  8
SIZE
100
AcDbText
 10
1601.672208732897
 20
1094.836211338158
 30
0.0
 40
64.0
  1
400
 50
90.0
 41
0.9
100
AcDbText
  0
TEXT
  5
225E
330
2766
100
AcDbEntity
  8
SIZE
100
AcDbText
 10
1893.607158862025
 20
487.3362113381585
 30
0.0
 40
64.0
  1
345
 50
90.0
 41
0.9
100
AcDbText
  0
TEXT
  5
225F
330
2766
100
AcDbEntity
  8
SIZE
100
AcDbText
 10
1502.888987835634
 20
145.5274936047615
 30
0.0
 40
64.0
  1
127
 41
0.9
100
AcDbText
  0
TEXT
  5
2260
330
2766
100
AcDbEntity
  8
SIZE
100
AcDbText
 10
744.1889878357287
 20
145.5274936047615
 30
0.0
 40
64.0
  1
877
 41
0.9
100
AcDbText
  0
TEXT
  5
2261
330
2766
100
AcDbEntity
  8
SIZE
100
AcDbText
 10
63.99999571691364
 20
874.7647827667277
 30
0.0
 40
64.0
  1
1349
 50
90.0
 41
0.9
100
AcDbText
  0
TEXT
  5
2262
330
2766
100
AcDbEntity
  8
SIZE
100
AcDbText
 10
794.7461306928715
 20
30.00000162408424
 30
0.0
 40
64.0
  1
1022
 41
0.9
100
AcDbText
  0
TEXT
  5
2263
330
2766
100
AcDbEntity
  8
SIZE
100
AcDbText
 10
141.9509083152989
 20
30.00000162408424
 30
0.0
 40
64.0
  1
22
 41
0.9
100
AcDbText
  0
ENDBLK
  5
2265
330
2766
100
AcDbEntity
  8
0
100
AcDbBlockEnd
  0
BLOCK
  5
2769
330
2768
100
AcDbEntity
  8
0
100
AcDbBlockBegin
  2
*U69
 70
     1
 10
0.0
 20
0.0
 30
0.0
  3
*U69
  1

  0
INSERT
  5
229D
330
2768
100
AcDbEntity
  8
NOTE
100
AcDbBlockReference
  2
_OPEN30
 10
0.0000000000018758
 20
450.0000000000036
 30
0.0
 41
12.0
 42
12.0
 43
12.0
 50
227.3909883883103
  0
POLYLINE
  5
229E
330
2768
100
AcDbEntity
  8
NOTE
100
AcDb2dPolyline
 66
     1
 10
0.0
 20
0.0
 30
0.0
  0
VERTEX
  5
261C
330
229E
100
AcDbEntity
  8
NOTE
100
AcDbVertex
100
AcDb2dVertex
 10
8.12390083619141
 20
458.8318874089188
 30
0.0
  0
VERTEX
  5
261D
330
229E
100
AcDbEntity
  8
NOTE
100
AcDbVertex
100
AcDb2dVertex
 10
87.86939999225618
 20
545.5270950580159
 30
0.0
  0
VERTEX
  5
261E
330
229E
100
AcDbEntity
  8
NOTE
100
AcDbVertex
100
AcDb2dVertex
 10
677.5951142779706
 20
545.5270950580159
 30
0.0
  0
SEQEND
  5
261F
330
229E
100
AcDbEntity
  8
NOTE
  0
ENDBLK
  5
229F
330
2768
100
AcDbEntity
  8
0
100
AcDbBlockEnd
  0
BLOCK
  5
276B
330
276A
100
AcDbEntity
  8
0
100
AcDbBlockBegin
  2
*U70
 70
     1
 10
0.0
 20
0.0
 30
0.0
  3
*U70
  1

  0
TEXT
  5
22A2
330
276A
100
AcDbEntity
  8
NOTE
100
AcDbText
 10
149.8693999922562
 20
563.5270950580161
 30
0.0
 40
64.0
  1
16×φ15取付穴
 41
0.9
100
AcDbText
  0
ENDBLK
  5
22A3
330
276A
100
AcDbEntity
  8
0
100
AcDbBlockEnd
  0
BLOCK
  5
276D
330
276C
100
AcDbEntity
  8
0
100
AcDbBlockBegin
  2
*U71
 70
     1
 10
0.0
 20
0.0
 30
0.0
  3
*U71
  1

  0
INSERT
  5
23F6
330
276C
100
AcDbEntity
  8
NOTE
100
AcDbBlockReference
  2
_OPEN30
 10
-450.0
 20
-0.0000000000022737
 30
0.0
 41
12.0
 42
12.0
 43
12.0
 50
312.6090116116892
  0
POLYLINE
  5
23F7
330
276C
100
AcDbEntity
  8
NOTE
100
AcDb2dPolyline
 66
     1
 10
0.0
 20
0.0
 30
0.0
  0
VERTEX
  5
2620
330
23F7
100
AcDbEntity
  8
NOTE
100
AcDbVertex
100
AcDb2dVertex
 10
-458.1239008361895
 20
8.831887408913237
 30
0.0
  0
VERTEX
  5
2621
330
23F7
100
AcDbEntity
  8
NOTE
100
AcDbVertex
100
AcDb2dVertex
 10
-537.8693999922543
 20
95.52709505801201
 30
0.0
  0
VERTEX
  5
2622
330
23F7
100
AcDbEntity
  8
NOTE
100
AcDbVertex
100
AcDb2dVertex
 10
-1127.595114277968
 20
95.52709505801201
 30
0.0
  0
SEQEND
  5
2623
330
23F7
100
AcDbEntity
  8
NOTE
  0
ENDBLK
  5
23F8
330
276C
100
AcDbEntity
  8
0
100
AcDbBlockEnd
  0
BLOCK
  5
276F
330
276E
100
AcDbEntity
  8
0
100
AcDbBlockBegin
  2
*U72
 70
     1
 10
0.0
 20
0.0
 30
0.0
  3
*U72
  1

  0
TEXT
  5
23FB
330
276E
100
AcDbEntity
  8
NOTE
100
AcDbText
 10
-1127.595114277968
 20
113.527095058012
 30
0.0
 40
64.0
  1
16×φ15取付穴
 41
0.9
100
AcDbText
  0
ENDBLK
  5
23FC
330
276E
100
AcDbEntity
  8
0
100
AcDbBlockEnd
  0
BLOCK
  5
2771
330
2770
100
AcDbEntity
  8
0
100
AcDbBlockBegin
  2
*X73
 70
     1
 10
0.0
 20
0.0
 30
0.0
  3
*X73
  1

  0
LINE
  5
23FF
330
2770
100
AcDbEntity
  8
0
 62
     0
100
AcDbLine
 10
-415.0000000000073
 20
-866.3379058133095
 30
0.0
 11
-396.8066526136809
 21
-875.0014000000035
 31
0.0
  0
LINE
  5
2400
330
2770
100
AcDbEntity
  8
0
 62
     0
100
AcDbLine
 10
-415.0000000000073
 20
-856.3379540691775
 30
0.0
 11
-375.8067428766917
 21
-875.0014000000055
 31
0.0
  0
LINE
  5
2401
330
2770
100
AcDbEntity
  8
0
 62
     0
100
AcDbLine
 10
-415.0000000000073
 20
-846.3380023250417
 30
0.0
 11
-354.8068331397025
 21
-875.0014000000035
 31
0.0
  0
LINE
  5
2402
330
2770
100
AcDbEntity
  8
0
 62
     0
100
AcDbLine
 10
-415.0000000000073
 20
-836.3380505809072
 30
0.0
 11
-333.8069234027116
 21
-875.0014000000035
 31
0.0
  0
LINE
  5
2403
330
2770
100
AcDbEntity
  8
0
 62
     0
100
AcDbLine
 10
-415.0000000000073
 20
-826.3380988367725
 30
0.0
 11
-312.8070136657208
 21
-875.0014000000035
 31
0.0
  0
LINE
  5
2404
330
2770
100
AcDbEntity
  8
0
 62
     0
100
AcDbLine
 10
-415.0000000000073
 20
-816.3381470926378
 30
0.0
 11
-291.8071039287297
 21
-875.0014000000035
 31
0.0
  0
LINE
  5
2405
330
2770
100
AcDbEntity
  8
0
 62
     0
100
AcDbLine
 10
-415.0000000000073
 20
-806.3381953485029
 30
0.0
 11
-270.8071941917369
 21
-875.0014000000035
 31
0.0
  0
LINE
  5
2406
330
2770
100
AcDbEntity
  8
0
 62
     0
100
AcDbLine
 10
-415.0000000000073
 20
-796.3382436043702
 30
0.0
 11
-249.8072844547477
 21
-875.0014000000055
 31
0.0
  0
LINE
  5
2407
330
2770
100
AcDbEntity
  8
0
 62
     0
100
AcDbLine
 10
-415.0000000000052
 20
-786.3382918602354
 30
0.0
 11
-228.807374717755
 21
-875.0014000000055
 31
0.0
  0
LINE
  5
2408
330
2770
100
AcDbEntity
  8
0
 62
     0
100
AcDbLine
 10
-415.0000000000052
 20
-776.3383401161006
 30
0.0
 11
-207.8074649807641
 21
-875.0014000000055
 31
0.0
  0
LINE
  5
2409
330
2770
100
AcDbEntity
  8
0
 62
     0
100
AcDbLine
 10
-415.0000000000073
 20
-766.3383883719659
 30
0.0
 11
-186.8075552437785
 21
-875.0014000000035
 31
0.0
  0
LINE
  5
240A
330
2770
100
AcDbEntity
  8
0
 62
     0
100
AcDbLine
 10
-415.0000000000073
 20
-756.3384366278302
 30
0.0
 11
-165.8076455067839
 21
-875.0014000000035
 31
0.0
  0
LINE
  5
240B
330
2770
100
AcDbEntity
  8
0
 62
     0
100
AcDbLine
 10
-415.0000000000073
 20
-746.3384848836977
 30
0.0
 11
-144.8077357697948
 21
-875.0014000000055
 31
0.0
  0
LINE
  5
240C
330
2770
100
AcDbEntity
  8
0
 62
     0
100
AcDbLine
 10
-415.0000000000073
 20
-736.3385331395628
 30
0.0
 11
-123.807826032802
 21
-875.0014000000046
 31
0.0
  0
LINE
  5
240D
330
2770
100
AcDbEntity
  8
0
 62
     0
100
AcDbLine
 10
-415.0000000000052
 20
-726.3385813954281
 30
0.0
 11
-102.807916295811
 21
-875.0014000000046
 31
0.0
  0
LINE
  5
240E
330
2770
100
AcDbEntity
  8
0
 62
     0
100
AcDbLine
 10
-415.0000000000073
 20
-716.3386296512936
 30
0.0
 11
-81.80800655882377
 21
-875.001400000003
 31
0.0
  0
LINE
  5
240F
330
2770
100
AcDbEntity
  8
0
 62
     0
100
AcDbLine
 10
-415.0000000000073
 20
-706.3386779071588
 30
0.0
 11
-60.80809682183279
 21
-875.001400000003
 31
0.0
  0
LINE
  5
2410
330
2770
100
AcDbEntity
  8
0
 62
     0
100
AcDbLine
 10
-415.0000000000052
 20
-696.3387261630241
 30
0.0
 11
-39.80818708484001
 21
-875.001400000003
 31
0.0
  0
LINE
  5
2411
330
2770
100
AcDbEntity
  8
0
 62
     0
100
AcDbLine
 10
-415.0000000000073
 20
-686.3387744188912
 30
0.0
 11
-18.80827734785089
 21
-875.0014000000046
 31
0.0
  0
LINE
  5
2412
330
2770
100
AcDbEntity
  8
0
 62
     0
100
AcDbLine
 10
-415.0000000000052
 20
-676.3388226747564
 30
0.0
 11
2.191632389140067
 21
-875.0014000000046
 31
0.0
  0
LINE
  5
2413
330
2770
100
AcDbEntity
  8
0
 62
     0
100
AcDbLine
 10
-415.0000000000073
 20
-666.3388709306218
 30
0.0
 11
23.19154212613284
 21
-875.0014000000046
 31
0.0
  0
LINE
  5
2414
330
2770
100
AcDbEntity
  8
0
 62
     0
100
AcDbLine
 10
-415.0000000000089
 20
-656.3389191864872
 30
0.0
 11
44.19145186312198
 21
-875.0014000000046
 31
0.0
  0
LINE
  5
2415
330
2770
100
AcDbEntity
  8
0
 62
     0
100
AcDbLine
 10
-415.0000000000073
 20
-646.3389674423525
 30
0.0
 11
65.19136160011476
 21
-875.0014000000046
 31
0.0
  0
LINE
  5
2416
330
2770
100
AcDbEntity
  8
0
 62
     0
100
AcDbLine
 10
-415.0000000000073
 20
-636.3390156982196
 30
0.0
 11
86.19127133710573
 21
-875.0014000000055
 31
0.0
  0
LINE
  5
2417
330
2770
100
AcDbEntity
  8
0
 62
     0
100
AcDbLine
 10
-415.0000000000073
 20
-626.3390639540848
 30
0.0
 11
107.1911810740967
 21
-875.0014000000055
 31
0.0
  0
LINE
  5
2418
330
2770
100
AcDbEntity
  8
0
 62
     0
100
AcDbLine
 10
-415.0000000000052
 20
-616.3391122099501
 30
0.0
 11
128.1910908110858
 21
-875.0014000000046
 31
0.0
  0
LINE
  5
2419
330
2770
100
AcDbEntity
  8
0
 62
     0
100
AcDbLine
 10
-415.0000000000073
 20
-606.3391604658153
 30
0.0
 11
149.1910005480766
 21
-875.0014000000035
 31
0.0
  0
LINE
  5
241A
330
2770
100
AcDbEntity
  8
0
 62
     0
100
AcDbLine
 10
-415.0000000000073
 20
-596.3392087216807
 30
0.0
 11
170.1909102850659
 21
-875.0014000000035
 31
0.0
  0
LINE
  5
241B
330
2770
100
AcDbEntity
  8
0
 62
     0
100
AcDbLine
 10
-415.0000000000052
 20
-586.3392569775479
 30
0.0
 11
191.1908200220569
 21
-875.0014000000035
 31
0.0
  0
LINE
  5
241C
330
2770
100
AcDbEntity
  8
0
 62
     0
100
AcDbLine
 10
-415.0000000000073
 20
-576.3393052334121
 30
0.0
 11
212.190729759046
 21
-875.0014000000035
 31
0.0
  0
LINE
  5
241D
330
2770
100
AcDbEntity
  8
0
 62
     0
100
AcDbLine
 10
-415.0000000000052
 20
-566.3393534892784
 30
0.0
 11
233.190639496037
 21
-875.0014000000035
 31
0.0
  0
LINE
  5
241E
330
2770
100
AcDbEntity
  8
0
 62
     0
100
AcDbLine
 10
-415.0000000000052
 20
-556.3394017451428
 30
0.0
 11
254.1905492330297
 21
-875.0014000000035
 31
0.0
  0
LINE
  5
241F
330
2770
100
AcDbEntity
  8
0
 62
     0
100
AcDbLine
 10
-415.0000000000073
 20
-546.3394500010081
 30
0.0
 11
275.1904589700189
 21
-875.0014000000035
 31
0.0
  0
LINE
  5
2420
330
2770
100
AcDbEntity
  8
0
 62
     0
100
AcDbLine
 10
-415.0000000000073
 20
-536.3394982568735
 30
0.0
 11
296.1903687070117
 21
-875.0014000000035
 31
0.0
  0
LINE
  5
2421
330
2770
100
AcDbEntity
  8
0
 62
     0
100
AcDbLine
 10
-415.0000000000052
 20
-526.3395465127405
 30
0.0
 11
317.1902784440026
 21
-875.0014000000055
 31
0.0
  0
LINE
  5
2422
330
2770
100
AcDbEntity
  8
0
 62
     0
100
AcDbLine
 10
-415.0000000000073
 20
-516.3395947686057
 30
0.0
 11
338.1901881809936
 21
-875.0014000000055
 31
0.0
  0
LINE
  5
2423
330
2770
100
AcDbEntity
  8
0
 62
     0
100
AcDbLine
 10
-415.0000000000052
 20
-506.339643024471
 30
0.0
 11
359.1900979179845
 21
-875.0014000000046
 31
0.0
  0
LINE
  5
2424
330
2770
100
AcDbEntity
  8
0
 62
     0
100
AcDbLine
 10
-415.0000000000052
 20
-496.3396912803363
 30
0.0
 11
380.1900076549754
 21
-875.0014000000046
 31
0.0
  0
LINE
  5
2425
330
2770
100
AcDbEntity
  8
0
 62
     0
100
AcDbLine
 10
-415.0000000000089
 20
-486.3397395362007
 30
0.0
 11
401.1899173919664
 21
-875.0014000000046
 31
0.0
  0
LINE
  5
2426
330
2770
100
AcDbEntity
  8
0
 62
     0
100
AcDbLine
 10
-415.0000000000052
 20
-476.3397877920687
 30
0.0
 11
414.9999999999945
 21
-871.5776746012416
 31
0.0
  0
LINE
  5
2427
330
2770
100
AcDbEntity
  8
0
 62
     0
100
AcDbLine
 10
-415.0000000000073
 20
-466.3398360479332
 30
0.0
 11
414.9999999999945
 21
-861.5777228571069
 31
0.0
  0
LINE
  5
2428
330
2770
100
AcDbEntity
  8
0
 62
     0
100
AcDbLine
 10
-415.0000000000073
 20
-456.3398843037985
 30
0.0
 11
414.9999999999945
 21
-851.5777711129723
 31
0.0
  0
LINE
  5
2429
330
2770
100
AcDbEntity
  8
0
 62
     0
100
AcDbLine
 10
-415.0000000000052
 20
-446.3399325596647
 30
0.0
 11
414.9999999999963
 21
-841.5778193688375
 31
0.0
  0
LINE
  5
242A
330
2770
100
AcDbEntity
  8
0
 62
     0
100
AcDbLine
 10
-415.0000000000073
 20
-436.33998081553
 30
0.0
 11
414.9999999999963
 21
-831.5778676247028
 31
0.0
  0
LINE
  5
242B
330
2770
100
AcDbEntity
  8
0
 62
     0
100
AcDbLine
 10
-415.0000000000073
 20
-426.3400290713951
 30
0.0
 11
414.9999999999945
 21
-821.5779158805679
 31
0.0
  0
LINE
  5
242C
330
2770
100
AcDbEntity
  8
0
 62
     0
100
AcDbLine
 10
-415.0000000000052
 20
-416.3400773272623
 30
0.0
 11
414.9999999999945
 21
-811.5779641364337
 31
0.0
  0
LINE
  5
242D
330
2770
100
AcDbEntity
  8
0
 62
     0
100
AcDbLine
 10
-415.0000000000052
 20
-406.3401255831274
 30
0.0
 11
414.9999999999945
 21
-801.5780123923004
 31
0.0
  0
LINE
  5
242E
330
2770
100
AcDbEntity
  8
0
 62
     0
100
AcDbLine
 10
-415.0000000000073
 20
-396.3401738389921
 30
0.0
 11
414.9999999999945
 21
-791.5780606481654
 31
0.0
  0
LINE
  5
242F
330
2770
100
AcDbEntity
  8
0
 62
     0
100
AcDbLine
 10
-415.0000000000052
 20
-386.3402220948584
 30
0.0
 11
414.9999999999963
 21
-781.5781089040309
 31
0.0
  0
LINE
  5
2430
330
2770
100
AcDbEntity
  8
0
 62
     0
100
AcDbLine
 10
-415.0000000000073
 20
-376.3402703507227
 30
0.0
 11
414.9999999999945
 21
-771.5781571598961
 31
0.0
  0
LINE
  5
2431
330
2770
100
AcDbEntity
  8
0
 62
     0
100
AcDbLine
 10
-415.0000000000073
 20
-366.3403186065897
 30
0.0
 11
414.9999999999945
 21
-761.5782054157635
 31
0.0
  0
LINE
  5
2432
330
2770
100
AcDbEntity
  8
0
 62
     0
100
AcDbLine
 10
-415.0000000000052
 20
-356.3403668624551
 30
0.0
 11
414.9999999999963
 21
-751.5782536716285
 31
0.0
  0
LINE
  5
2433
330
2770
100
AcDbEntity
  8
0
 62
     0
100
AcDbLine
 10
-415.0000000000073
 20
-346.3404151183204
 30
0.0
 11
414.9999999999927
 21
-741.5783019274932
 31
0.0
  0
LINE
  5
2434
330
2770
100
AcDbEntity
  8
0
 62
     0
100
AcDbLine
 10
-415.0000000000073
 20
-336.3404633741857
 30
0.0
 11
414.9999999999963
 21
-731.5783501833593
 31
0.0
  0
LINE
  5
2435
330
2770
100
AcDbEntity
  8
0
 62
     0
100
AcDbLine
 10
-415.0000000000073
 20
-326.34051163005
 30
0.0
 11
414.9999999999945
 21
-721.5783984392236
 31
0.0
  0
LINE
  5
2436
330
2770
100
AcDbEntity
  8
0
 62
     0
100
AcDbLine
 10
-415.0000000000073
 20
-316.340559885918
 30
0.0
 11
414.9999999999927
 21
-711.5784466950907
 31
0.0
  0
LINE
  5
2437
330
2770
100
AcDbEntity
  8
0
 62
     0
100
AcDbLine
 10
-415.0000000000073
 20
-306.3406081417824
 30
0.0
 11
414.9999999999945
 21
-701.5784949509561
 31
0.0
  0
LINE
  5
2438
330
2770
100
AcDbEntity
  8
0
 62
     0
100
AcDbLine
 10
-415.0000000000073
 20
-296.3406563976477
 30
0.0
 11
414.9999999999945
 21
-691.5785432068214
 31
0.0
  0
LINE
  5
2439
330
2770
100
AcDbEntity
  8
0
 62
     0
100
AcDbLine
 10
-415.0000000000089
 20
-286.340704653513
 30
0.0
 11
414.9999999999945
 21
-681.5785914626867
 31
0.0
  0
LINE
  5
243A
330
2770
100
AcDbEntity
  8
0
 62
     0
100
AcDbLine
 10
-415.0000000000052
 20
-276.3407529093783
 30
0.0
 11
414.9999999999963
 21
-671.578639718552
 31
0.0
  0
LINE
  5
243B
330
2770
100
AcDbEntity
  8
0
 62
     0
100
AcDbLine
 10
-415.0000000000073
 20
-266.3408011652436
 30
0.0
 11
414.9999999999945
 21
-661.5786879744172
 31
0.0
  0
LINE
  5
243C
330
2770
100
AcDbEntity
  8
0
 62
     0
100
AcDbLine
 10
-415.0000000000052
 20
-256.3408494211107
 30
0.0
 11
414.9999999999945
 21
-651.5787362302835
 31
0.0
  0
LINE
  5
243D
330
2770
100
AcDbEntity
  8
0
 62
     0
100
AcDbLine
 10
-415.0000000000052
 20
-246.340897676976
 30
0.0
 11
414.9999999999945
 21
-641.5787844861487
 31
0.0
  0
LINE
  5
243E
330
2770
100
AcDbEntity
  8
0
 62
     0
100
AcDbLine
 10
-415.0000000000073
 20
-236.3409459328412
 30
0.0
 11
414.9999999999945
 21
-631.5788327420141
 31
0.0
  0
LINE
  5
243F
330
2770
100
AcDbEntity
  8
0
 62
     0
100
AcDbLine
 10
-415.0000000000052
 20
-226.3409941887065
 30
0.0
 11
414.9999999999945
 21
-621.5788809978794
 31
0.0
  0
LINE
  5
2440
330
2770
100
AcDbEntity
  8
0
 62
     0
100
AcDbLine
 10
-415.0000000000073
 20
-216.3410424445719
 30
0.0
 11
414.9999999999945
 21
-611.5789292537447
 31
0.0
  0
LINE
  5
2441
330
2770
100
AcDbEntity
  8
0
 62
     0
100
AcDbLine
 10
-415.0000000000073
 20
-206.341090700439
 30
0.0
 11
414.9999999999945
 21
-601.5789775096119
 31
0.0
  0
LINE
  5
2442
330
2770
100
AcDbEntity
  8
0
 62
     0
100
AcDbLine
 10
-415.0000000000073
 20
-196.3411389563043
 30
0.0
 11
414.9999999999945
 21
-591.5790257654771
 31
0.0
  0
LINE
  5
2443
330
2770
100
AcDbEntity
  8
0
 62
     0
100
AcDbLine
 10
-415.0000000000052
 20
-186.3411872121696
 30
0.0
 11
414.9999999999963
 21
-581.5790740213424
 31
0.0
  0
LINE
  5
2444
330
2770
100
AcDbEntity
  8
0
 62
     0
100
AcDbLine
 10
-415.0000000000073
 20
-176.3412354680349
 30
0.0
 11
414.9999999999945
 21
-571.5791222772086
 31
0.0
  0
LINE
  5
2445
330
2770
100
AcDbEntity
  8
0
 62
     0
100
AcDbLine
 10
-415.0000000000073
 20
-166.3412837239001
 30
0.0
 11
414.9999999999945
 21
-561.579170533073
 31
0.0
  0
LINE
  5
2446
330
2770
100
AcDbEntity
  8
0
 62
     0
100
AcDbLine
 10
-396.8138490489982
 20
-165.0013992943077
 30
0.0
 11
414.9999999999945
 21
-551.57921878894
 31
0.0
  0
LINE
  5
2447
330
2770
100
AcDbEntity
  8
0
 62
     0
100
AcDbLine
 10
-375.813939243224
 20
-165.0013993270622
 30
0.0
 11
414.9999999999927
 21
-541.5792670448054
 31
0.0
  0
LINE
  5
2448
330
2770
100
AcDbEntity
  8
0
 62
     0
100
AcDbLine
 10
-354.8140294374497
 20
-165.0013993598158
 30
0.0
 11
414.9999999999945
 21
-531.5793153006707
 31
0.0
  0
LINE
  5
2449
330
2770
100
AcDbEntity
  8
0
 62
     0
100
AcDbLine
 10
-333.8141196316755
 20
-165.0013993925686
 30
0.0
 11
414.9999999999945
 21
-521.579363556536
 31
0.0
  0
LINE
  5
244A
330
2770
100
AcDbEntity
  8
0
 62
     0
100
AcDbLine
 10
-312.8142098259013
 20
-165.001399425324
 30
0.0
 11
414.9999999999945
 21
-511.5794118124012
 31
0.0
  0
LINE
  5
244B
330
2770
100
AcDbEntity
  8
0
 62
     0
100
AcDbLine
 10
-291.8143000201253
 20
-165.0013994580767
 30
0.0
 11
414.9999999999963
 21
-501.5794600682665
 31
0.0
  0
LINE
  5
244C
330
2770
100
AcDbEntity
  8
0
 62
     0
100
AcDbLine
 10
-270.8143902143511
 20
-165.0013994908331
 30
0.0
 11
414.9999999999945
 21
-491.5795083241335
 31
0.0
  0
LINE
  5
244D
330
2770
100
AcDbEntity
  8
0
 62
     0
100
AcDbLine
 10
-249.8144804085768
 20
-165.0013995235867
 30
0.0
 11
414.9999999999963
 21
-481.579556579999
 31
0.0
  0
LINE
  5
244E
330
2770
100
AcDbEntity
  8
0
 62
     0
100
AcDbLine
 10
-228.8145706028008
 20
-165.0013995563413
 30
0.0
 11
414.9999999999945
 21
-471.5796048358631
 31
0.0
  0
LINE
  5
244F
330
2770
100
AcDbEntity
  8
0
 62
     0
100
AcDbLine
 10
-207.8146607970284
 20
-165.0013995890948
 30
0.0
 11
414.9999999999945
 21
-461.5796530917296
 31
0.0
  0
LINE
  5
2450
330
2770
100
AcDbEntity
  8
0
 62
     0
100
AcDbLine
 10
199.1999999999971
 20
-348.8178507772101
 30
0.0
 11
220.1654656010833
 21
-358.8014005605155
 31
0.0
  0
LINE
  5
2451
330
2770
100
AcDbEntity
  8
0
 62
     0
100
AcDbLine
 10
220.1654656010833
 20
-358.8014005605155
 30
0.0
 11
414.9999999999945
 21
-451.5797013475939
 31
0.0
  0
LINE
  5
2452
330
2770
100
AcDbEntity
  8
0
 62
     0
100
AcDbLine
 10
-186.8147509912541
 20
-165.0013996218486
 30
0.0
 11
199.1999999999971
 21
-348.8178507772101
 31
0.0
  0
LINE
  5
2453
330
2770
100
AcDbEntity
  8
0
 62
     0
100
AcDbLine
 10
199.1999999999971
 20
-338.817899033077
 30
0.0
 11
241.1653753380742
 21
-358.8014005605173
 31
0.0
  0
LINE
  5
2454
330
2770
100
AcDbEntity
  8
0
 62
     0
100
AcDbLine
 10
241.1653753380779
 20
-358.8014005605192
 30
0.0
 11
414.9999999999945
 21
-441.5797496034612
 31
0.0
  0
LINE
  5
2455
330
2770
100
AcDbEntity
  8
0
 62
     0
100
AcDbLine
 10
-165.8148411854763
 20
-165.0013996546049
 30
0.0
 11
199.1999999999971
 21
-338.817899033077
 31
0.0
  0
LINE
  5
2456
330
2770
100
AcDbEntity
  8
0
 62
     0
100
AcDbLine
 10
199.1999999999971
 20
-328.8179472889424
 30
0.0
 11
262.1652850750634
 21
-358.8014005605173
 31
0.0
  0
LINE
  5
2457
330
2770
100
AcDbEntity
  8
0
 62
     0
100
AcDbLine
 10
262.165285075067
 20
-358.8014005605192
 30
0.0
 11
414.9999999999945
 21
-431.5797978593264
 31
0.0
  0
LINE
  5
2458
330
2770
100
AcDbEntity
  8
0
 62
     0
100
AcDbLine
 10
-144.8149313797057
 20
-165.0013996873576
 30
0.0
 11
199.1999999999971
 21
-328.8179472889424
 31
0.0
  0
LINE
  5
2459
330
2770
100
AcDbEntity
  8
0
 62
     0
100
AcDbLine
 10
199.1999999999971
 20
-318.8179955448077
 30
0.0
 11
283.1651948120562
 21
-358.8014005605173
 31
0.0
  0
LINE
  5
245A
330
2770
100
AcDbEntity
  8
0
 62
     0
100
AcDbLine
 10
283.1651948120597
 20
-358.8014005605192
 30
0.0
 11
414.9999999999945
 21
-421.5798461151916
 31
0.0
  0
LINE
  5
245B
330
2770
100
AcDbEntity
  8
0
 62
     0
100
AcDbLine
 10
-123.8150215739315
 20
-165.0013997201113
 30
0.0
 11
199.1999999999971
 21
-318.8179955448077
 31
0.0
  0
LINE
  5
245C
330
2770
100
AcDbEntity
  8
0
 62
     0
100
AcDbLine
 10
199.1999999999971
 20
-308.8180438006731
 30
0.0
 11
304.1651045490471
 21
-358.8014005605173
 31
0.0
  0
LINE
  5
245D
330
2770
100
AcDbEntity
  8
0
 62
     0
100
AcDbLine
 10
304.1651045490507
 20
-358.8014005605192
 30
0.0
 11
414.9999999999963
 21
-411.5798943710569
 31
0.0
  0
LINE
  5
245E
330
2770
100
AcDbEntity
  8
0
 62
     0
100
AcDbLine
 10
-102.8151117681536
 20
-165.0013997528658
 30
0.0
 11
199.1999999999971
 21
-308.8180438006731
 31
0.0
  0
LINE
  5
245F
330
2770
100
AcDbEntity
  8
0
 62
     0
100
AcDbLine
 10
199.1999999999971
 20
-298.8180920565383
 30
0.0
 11
325.1650142860381
 21
-358.8014005605173
 31
0.0
  0
LINE
  5
2460
330
2770
100
AcDbEntity
  8
0
 62
     0
100
AcDbLine
 10
325.1650142860399
 20
-358.8014005605182
 30
0.0
 11
414.9999999999945
 21
-401.5799426269222
 31
0.0
  0
LINE
  5
2461
330
2770
100
AcDbEntity
  8
0
 62
     0
100
AcDbLine
 10
-81.81520196237942
 20
-165.0013997856204
 30
0.0
 11
199.1999999999971
 21
-298.8180920565383
 31
0.0
  0
LINE
  5
2462
330
2770
100
AcDbEntity
  8
0
 62
     0
100
AcDbLine
 10
199.1999999999971
 20
-288.8181403124045
 30
0.0
 11
346.1649240230291
 21
-358.8014005605173
 31
0.0
  0
LINE
  5
2463
330
2770
100
AcDbEntity
  8
0
 62
     0
100
AcDbLine
 10
346.1649240230328
 20
-358.8014005605182
 30
0.0
 11
414.9999999999945
 21
-391.5799908827876
 31
0.0
  0
LINE
  5
2464
330
2770
100
AcDbEntity
  8
0
 62
     0
100
AcDbLine
 10
-60.81529215660522
 20
-165.001399818374
 30
0.0
 11
199.1999999999971
 21
-288.8181403124045
 31
0.0
  0
LINE
  5
2465
330
2770
100
AcDbEntity
  8
0
 62
     0
100
AcDbLine
 10
199.1999999999971
 20
-278.8181885682708
 30
0.0
 11
367.16483376002
 21
-358.8014005605182
 31
0.0
  0
LINE
  5
2466
330
2770
100
AcDbEntity
  8
0
 62
     0
100
AcDbLine
 10
367.1648337600237
 20
-358.8014005605201
 30
0.0
 11
414.9999999999945
 21
-381.5800391386546
 31
0.0
  0
LINE
  5
2467
330
2770
100
AcDbEntity
  8
0
 62
     0
100
AcDbLine
 10
-39.81538235083099
 20
-165.0013998511294
 30
0.0
 11
199.1999999999971
 21
-278.8181885682708
 31
0.0
  0
LINE
  5
2468
330
2770
100
AcDbEntity
  8
0
 62
     0
100
AcDbLine
 10
199.1999999999952
 20
-268.818236824136
 30
0.0
 11
388.1647434970109
 21
-358.8014005605182
 31
0.0
  0
LINE
  5
2469
330
2770
100
AcDbEntity
  8
0
 62
     0
100
AcDbLine
 10
388.1647434970183
 20
-358.8014005605219
 30
0.0
 11
414.9999999999945
 21
-371.58008739452
 31
0.0
  0
LINE
  5
246A
330
2770
100
AcDbEntity
  8
0
 62
     0
100
AcDbLine
 10
-18.81547254505494
 20
-165.001399883884
 30
0.0
 11
199.1999999999952
 21
-268.818236824136
 31
0.0
  0
LINE
  5
246B
330
2770
100
AcDbEntity
  8
0
 62
     0
100
AcDbLine
 10
199.1999999999971
 20
-258.8182850800013
 30
0.0
 11
409.1646532340034
 21
-358.8014005605182
 31
0.0
  0
LINE
  5
246C
330
2770
100
AcDbEntity
  8
0
 62
     0
100
AcDbLine
 10
409.1646532340108
 20
-358.8014005605219
 30
0.0
 11
414.9999999999963
 21
-361.5801356503853
 31
0.0
  0
LINE
  5
246D
330
2770
100
AcDbEntity
  8
0
 62
     0
100
AcDbLine
 10
2.184437260721095
 20
-165.0013999166375
 30
0.0
 11
199.1999999999952
 21
-258.8182850799995
 31
0.0
  0
LINE
  5
246E
330
2770
100
AcDbEntity
  8
0
 62
     0
100
AcDbLine
 10
199.1999999999971
 20
-248.8183333358666
 30
0.0
 11
414.9999999999945
 21
-351.5801839062506
 31
0.0
  0
LINE
  5
246F
330
2770
100
AcDbEntity
  8
0
 62
     0
100
AcDbLine
 10
23.18434706649168
 20
-165.0013999493903
 30
0.0
 11
199.1999999999933
 21
-248.8183333358648
 31
0.0
  0
LINE
  5
2470
330
2770
100
AcDbEntity
  8
0
 62
     0
100
AcDbLine
 10
199.1999999999952
 20
-238.8183815917319
 30
0.0
 11
414.9999999999927
 21
-341.5802321621159
 31
0.0
  0
LINE
  5
2471
330
2770
100
AcDbEntity
  8
0
 62
     0
100
AcDbLine
 10
44.18425687226772
 20
-165.0013999821458
 30
0.0
 11
199.1999999999916
 21
-238.8183815917301
 31
0.0
  0
LINE
  5
2472
330
2770
100
AcDbEntity
  8
0
 62
     0
100
AcDbLine
 10
199.1999999999971
 20
-228.8184298475981
 30
0.0
 11
414.9999999999963
 21
-331.5802804179829
 31
0.0
  0
LINE
  5
2473
330
2770
100
AcDbEntity
  8
0
 62
     0
100
AcDbLine
 10
65.1841666780474
 20
-165.0014000149021
 30
0.0
 11
199.1999999999933
 21
-228.8184298475962
 31
0.0
  0
LINE
  5
2474
330
2770
100
AcDbEntity
  8
0
 62
     0
100
AcDbLine
 10
199.1999999999971
 20
-218.8184781034642
 30
0.0
 11
414.9999999999945
 21
-321.5803286738484
 31
0.0
  0
LINE
  5
2475
330
2770
100
AcDbEntity
  8
0
 62
     0
100
AcDbLine
 10
86.18407648381801
 20
-165.0014000476549
 30
0.0
 11
199.1999999999933
 21
-218.8184781034625
 31
0.0
  0
LINE
  5
2476
330
2770
100
AcDbEntity
  8
0
 62
     0
100
AcDbLine
 10
199.1999999999952
 20
-208.8185263593286
 30
0.0
 11
414.9999999999945
 21
-311.5803769297126
 31
0.0
  0
LINE
  5
2477
330
2770
100
AcDbEntity
  8
0
 62
     0
100
AcDbLine
 10
107.1839862895922
 20
-165.0014000804085
 30
0.0
 11
199.1999999999933
 21
-208.8185263593268
 31
0.0
  0
LINE
  5
2478
330
2770
100
AcDbEntity
  8
0
 62
     0
100
AcDbLine
 10
199.1999999999971
 20
-198.8185746151939
 30
0.0
 11
414.9999999999963
 21
-301.5804251855789
 31
0.0
  0
LINE
  5
2479
330
2770
100
AcDbEntity
  8
0
 62
     0
100
AcDbLine
 10
128.1838960953701
 20
-165.001400113163
 30
0.0
 11
199.1999999999933
 21
-198.8185746151921
 31
0.0
  0
LINE
  5
247A
330
2770
100
AcDbEntity
  8
0
 62
     0
100
AcDbLine
 10
199.1999999999952
 20
-188.8186228710591
 30
0.0
 11
414.9999999999945
 21
-291.5804734414432
 31
0.0
  0
LINE
  5
247B
330
2770
100
AcDbEntity
  8
0
 62
     0
100
AcDbLine
 10
149.1838059011425
 20
-165.0014001459167
 30
0.0
 11
199.1999999999916
 21
-188.8186228710574
 31
0.0
  0
LINE
  5
247C
330
2770
100
AcDbEntity
  8
0
 62
     0
100
AcDbLine
 10
199.1999999999971
 20
-178.8186711269262
 30
0.0
 11
414.9999999999945
 21
-281.5805216973103
 31
0.0
  0
LINE
  5
247D
330
2770
100
AcDbEntity
  8
0
 62
     0
100
AcDbLine
 10
170.1837157069167
 20
-165.001400178672
 30
0.0
 11
199.1999999999933
 21
-178.8186711269245
 31
0.0
  0
LINE
  5
247E
330
2770
100
AcDbEntity
  8
0
 62
     0
100
AcDbLine
 10
199.1999999999971
 20
-168.8187193827916
 30
0.0
 11
414.9999999999945
 21
-271.5805699531756
 31
0.0
  0
LINE
  5
247F
330
2770
100
AcDbEntity
  8
0
 62
     0
100
AcDbLine
 10
191.1836255126927
 20
-165.0014002114267
 30
0.0
 11
199.1999999999933
 21
-168.8187193827898
 31
0.0
  0
LINE
  5
2480
330
2770
100
AcDbEntity
  8
0
 62
     0
100
AcDbLine
 10
212.1835359827819
 20
-165.0014005605207
 30
0.0
 11
414.9999999999945
 21
-261.5806182090409
 31
0.0
  0
LINE
  5
2481
330
2770
100
AcDbEntity
  8
0
 62
     0
100
AcDbLine
 10
233.1834457197692
 20
-165.0014005605189
 30
0.0
 11
414.9999999999945
 21
-251.5806664649061
 31
0.0
  0
LINE
  5
2482
330
2770
100
AcDbEntity
  8
0
 62
     0
100
AcDbLine
 10
254.183355456762
 20
-165.0014005605189
 30
0.0
 11
414.9999999999945
 21
-241.5807147207715
 31
0.0
  0
LINE
  5
2483
330
2770
100
AcDbEntity
  8
0
 62
     0
100
AcDbLine
 10
275.1832651937511
 20
-165.0014005605189
 30
0.0
 11
414.9999999999945
 21
-231.5807629766368
 31
0.0
  0
LINE
  5
2484
330
2770
100
AcDbEntity
  8
0
 62
     0
100
AcDbLine
 10
296.1831749307402
 20
-165.0014005605189
 30
0.0
 11
414.9999999999927
 21
-221.5808112325031
 31
0.0
  0
LINE
  5
2485
330
2770
100
AcDbEntity
  8
0
 62
     0
100
AcDbLine
 10
317.1830846677313
 20
-165.0014005605189
 30
0.0
 11
414.9999999999963
 21
-211.5808594883692
 31
0.0
  0
LINE
  5
2486
330
2770
100
AcDbEntity
  8
0
 62
     0
100
AcDbLine
 10
338.1829944047204
 20
-165.0014005605189
 30
0.0
 11
414.9999999999927
 21
-201.5809077442336
 31
0.0
  0
LINE
  5
2487
330
2770
100
AcDbEntity
  8
0
 62
     0
100
AcDbLine
 10
359.1829041417151
 20
-165.0014005605189
 30
0.0
 11
414.9999999999963
 21
-191.5809560000989
 31
0.0
  0
LINE
  5
2488
330
2770
100
AcDbEntity
  8
0
 62
     0
100
AcDbLine
 10
380.182813878704
 20
-165.0014005605189
 30
0.0
 11
414.9999999999945
 21
-181.5810042559641
 31
0.0
  0
LINE
  5
2489
330
2770
100
AcDbEntity
  8
0
 62
     0
100
AcDbLine
 10
401.1827236156951
 20
-165.0014005605198
 30
0.0
 11
414.9999999999927
 21
-171.5810525118313
 31
0.0
  0
ENDBLK
  5
248A
330
2770
100
AcDbEntity
  8
0
100
AcDbBlockEnd
  0
BLOCK
  5
2773
330
2772
100
AcDbEntity
  8
0
100
AcDbBlockBegin
  2
*X74
 70
     1
 10
0.0
 20
0.0
 30
0.0
  3
*X74
  1

  0
LINE
  5
248D
330
2772
100
AcDbEntity
  8
0
 62
     0
100
AcDbLine
 10
408.89885198342
 20
-875.001400000001
 30
0.0
 11
415.0000000000036
 21
-872.0960929527921
 31
0.0
  0
LINE
  5
248E
330
2772
100
AcDbEntity
  8
0
 62
     0
100
AcDbLine
 10
387.8989422464292
 20
-875.001400000001
 30
0.0
 11
415.0
 21
-862.0961412086577
 31
0.0
  0
LINE
  5
248F
330
2772
100
AcDbEntity
  8
0
 62
     0
100
AcDbLine
 10
366.8990325094382
 20
-875.001400000001
 30
0.0
 11
415.0000000000036
 21
-852.0961894645221
 31
0.0
  0
LINE
  5
2490
330
2772
100
AcDbEntity
  8
0
 62
     0
100
AcDbLine
 10
345.8991227724473
 20
-875.001400000001
 30
0.0
 11
415.0000000000036
 21
-842.0962377203869
 31
0.0
  0
LINE
  5
2491
330
2772
100
AcDbEntity
  8
0
 62
     0
100
AcDbLine
 10
324.8992130354562
 20
-875.0014000000017
 30
0.0
 11
415.0000000000036
 21
-832.0962859762538
 31
0.0
  0
LINE
  5
2492
330
2772
100
AcDbEntity
  8
0
 62
     0
100
AcDbLine
 10
303.8993032984654
 20
-875.001400000003
 30
0.0
 11
415.0000000000036
 21
-822.0963342321191
 31
0.0
  0
LINE
  5
2493
330
2772
100
AcDbEntity
  8
0
 62
     0
100
AcDbLine
 10
282.8993935614744
 20
-875.001400000003
 30
0.0
 11
415.0
 21
-812.0963824879853
 31
0.0
  0
LINE
  5
2494
330
2772
100
AcDbEntity
  8
0
 62
     0
100
AcDbLine
 10
261.8994838244836
 20
-875.001400000003
 30
0.0
 11
415.0000000000036
 21
-802.0964307438497
 31
0.0
  0
LINE
  5
2495
330
2772
100
AcDbEntity
  8
0
 62
     0
100
AcDbLine
 10
240.8995740874889
 20
-875.001400000003
 30
0.0
 11
415.0
 21
-792.096478999716
 31
0.0
  0
LINE
  5
2496
330
2772
100
AcDbEntity
  8
0
 62
     0
100
AcDbLine
 10
219.8996643505016
 20
-875.0014000000017
 30
0.0
 11
415.0000000000036
 21
-782.096527255581
 31
0.0
  0
LINE
  5
2497
330
2772
100
AcDbEntity
  8
0
 62
     0
100
AcDbLine
 10
198.8997546135142
 20
-875.001400000003
 30
0.0
 11
415.0000000000036
 21
-772.0965755114483
 31
0.0
  0
LINE
  5
2498
330
2772
100
AcDbEntity
  8
0
 62
     0
100
AcDbLine
 10
177.8998448765196
 20
-875.001400000003
 30
0.0
 11
415.0
 21
-762.0966237673126
 31
0.0
  0
LINE
  5
2499
330
2772
100
AcDbEntity
  8
0
 62
     0
100
AcDbLine
 10
156.8999351395323
 20
-875.001400000001
 30
0.0
 11
415.0000000000036
 21
-752.0966720231772
 31
0.0
  0
LINE
  5
249A
330
2772
100
AcDbEntity
  8
0
 62
     0
100
AcDbLine
 10
135.9000254025413
 20
-875.001400000001
 30
0.0
 11
415.0000000000036
 21
-742.0967202790434
 31
0.0
  0
LINE
  5
249B
330
2772
100
AcDbEntity
  8
0
 62
     0
100
AcDbLine
 10
114.9001156655504
 20
-875.0014000000017
 30
0.0
 11
415.0000000000036
 21
-732.0967685349086
 31
0.0
  0
LINE
  5
249C
330
2772
100
AcDbEntity
  8
0
 62
     0
100
AcDbLine
 10
93.90020592855943
 20
-875.0014000000017
 30
0.0
 11
415.0000000000036
 21
-722.0968167907747
 31
0.0
  0
LINE
  5
249D
330
2772
100
AcDbEntity
  8
0
 62
     0
100
AcDbLine
 10
72.90029619156848
 20
-875.001400000003
 30
0.0
 11
415.0000000000036
 21
-712.0968650466401
 31
0.0
  0
LINE
  5
249E
330
2772
100
AcDbEntity
  8
0
 62
     0
100
AcDbLine
 10
51.90038645457753
 20
-875.001400000003
 30
0.0
 11
415.0
 21
-702.0969133025064
 31
0.0
  0
LINE
  5
249F
330
2772
100
AcDbEntity
  8
0
 62
     0
100
AcDbLine
 10
30.90047671758657
 20
-875.001400000003
 30
0.0
 11
415.0000000000036
 21
-692.0969615583707
 31
0.0
  0
LINE
  5
24A0
330
2772
100
AcDbEntity
  8
0
 62
     0
100
AcDbLine
 10
9.900566980595613
 20
-875.001400000001
 30
0.0
 11
415.0000000000036
 21
-682.097009814237
 31
0.0
  0
LINE
  5
24A1
330
2772
100
AcDbEntity
  8
0
 62
     0
100
AcDbLine
 10
-11.09934275639898
 20
-875.0014000000017
 30
0.0
 11
415.0
 21
-672.0970580701024
 31
0.0
  0
LINE
  5
24A2
330
2772
100
AcDbEntity
  8
0
 62
     0
100
AcDbLine
 10
-32.09925249338631
 20
-875.001400000003
 30
0.0
 11
415.0000000000036
 21
-662.0971063259694
 31
0.0
  0
LINE
  5
24A3
330
2772
100
AcDbEntity
  8
0
 62
     0
100
AcDbLine
 10
-53.09916223037725
 20
-875.001400000003
 30
0.0
 11
415.0000000000036
 21
-652.0971545818356
 31
0.0
  0
LINE
  5
24A4
330
2772
100
AcDbEntity
  8
0
 62
     0
100
AcDbLine
 10
-74.09907196736819
 20
-875.001400000001
 30
0.0
 11
415.0000000000036
 21
-642.0972028376999
 31
0.0
  0
LINE
  5
24A5
330
2772
100
AcDbEntity
  8
0
 62
     0
100
AcDbLine
 10
-95.09898170435551
 20
-875.001400000001
 30
0.0
 11
415.0000000000036
 21
-632.0972510935662
 31
0.0
  0
LINE
  5
24A6
330
2772
100
AcDbEntity
  8
0
 62
     0
100
AcDbLine
 10
-116.0988914413465
 20
-875.0014000000001
 30
0.0
 11
415.0
 21
-622.0972993494314
 31
0.0
  0
LINE
  5
24A7
330
2772
100
AcDbEntity
  8
0
 62
     0
100
AcDbLine
 10
-137.0988011783374
 20
-875.001400000001
 30
0.0
 11
415.0000000000036
 21
-612.0973476052967
 31
0.0
  0
LINE
  5
24A8
330
2772
100
AcDbEntity
  8
0
 62
     0
100
AcDbLine
 10
-158.0987109153284
 20
-875.001400000001
 30
0.0
 11
415.0000000000036
 21
-602.097395861163
 31
0.0
  0
LINE
  5
24A9
330
2772
100
AcDbEntity
  8
0
 62
     0
100
AcDbLine
 10
-179.0986206523193
 20
-875.001400000001
 30
0.0
 11
415.0
 21
-592.0974441170292
 31
0.0
  0
LINE
  5
24AA
330
2772
100
AcDbEntity
  8
0
 62
     0
100
AcDbLine
 10
-200.0985303893103
 20
-875.001400000001
 30
0.0
 11
415.0000000000036
 21
-582.0974923728936
 31
0.0
  0
LINE
  5
24AB
330
2772
100
AcDbEntity
  8
0
 62
     0
100
AcDbLine
 10
-221.0984401263012
 20
-875.0014000000017
 30
0.0
 11
415.0000000000036
 21
-572.0975406287589
 31
0.0
  0
LINE
  5
24AC
330
2772
100
AcDbEntity
  8
0
 62
     0
100
AcDbLine
 10
-242.0983498632959
 20
-875.0014000000017
 30
0.0
 11
415.0
 21
-562.0975888846251
 31
0.0
  0
LINE
  5
24AD
330
2772
100
AcDbEntity
  8
0
 62
     0
100
AcDbLine
 10
-263.0982596002832
 20
-875.001400000003
 30
0.0
 11
415.0000000000036
 21
-552.0976371404903
 31
0.0
  0
LINE
  5
24AE
330
2772
100
AcDbEntity
  8
0
 62
     0
100
AcDbLine
 10
-284.0981693372742
 20
-875.001400000003
 30
0.0
 11
415.0000000000036
 21
-542.0976853963566
 31
0.0
  0
LINE
  5
24AF
330
2772
100
AcDbEntity
  8
0
 62
     0
100
AcDbLine
 10
-305.0980790742688
 20
-875.001400000003
 30
0.0
 11
415.0000000000036
 21
-532.097733652221
 31
0.0
  0
LINE
  5
24B0
330
2772
100
AcDbEntity
  8
0
 62
     0
100
AcDbLine
 10
-326.0979888112561
 20
-875.001400000003
 30
0.0
 11
415.0000000000036
 21
-522.0977819080854
 31
0.0
  0
LINE
  5
24B1
330
2772
100
AcDbEntity
  8
0
 62
     0
100
AcDbLine
 10
-347.0978985482469
 20
-875.0014000000035
 30
0.0
 11
415.0000000000036
 21
-512.0978301639524
 31
0.0
  0
LINE
  5
24B2
330
2772
100
AcDbEntity
  8
0
 62
     0
100
AcDbLine
 10
-368.0978082852381
 20
-875.001400000003
 30
0.0
 11
415.0
 21
-502.0978784198196
 31
0.0
  0
LINE
  5
24B3
330
2772
100
AcDbEntity
  8
0
 62
     0
100
AcDbLine
 10
-389.0977180222289
 20
-875.001400000003
 30
0.0
 11
415.0000000000036
 21
-492.0979266756839
 31
0.0
  0
LINE
  5
24B4
330
2772
100
AcDbEntity
  8
0
 62
     0
100
AcDbLine
 10
-410.0976277592126
 20
-875.001400000001
 30
0.0
 11
415.0000000000073
 21
-482.0979749315482
 31
0.0
  0
LINE
  5
24B5
330
2772
100
AcDbEntity
  8
0
 62
     0
100
AcDbLine
 10
-414.9999999999963
 20
-867.3359099965873
 30
0.0
 11
415.0
 21
-472.0980231874143
 31
0.0
  0
LINE
  5
24B6
330
2772
100
AcDbEntity
  8
0
 62
     0
100
AcDbLine
 10
-414.9999999999927
 20
-857.3359582524526
 30
0.0
 11
415.0000000000036
 21
-462.0980714432798
 31
0.0
  0
LINE
  5
24B7
330
2772
100
AcDbEntity
  8
0
 62
     0
100
AcDbLine
 10
-415.0
 20
-847.3360065083195
 30
0.0
 11
415.0
 21
-452.0981196991469
 31
0.0
  0
LINE
  5
24B8
330
2772
100
AcDbEntity
  8
0
 62
     0
100
AcDbLine
 10
-414.9999999999963
 20
-837.3360547641841
 30
0.0
 11
415.0000000000036
 21
-442.0981679550114
 31
0.0
  0
LINE
  5
24B9
330
2772
100
AcDbEntity
  8
0
 62
     0
100
AcDbLine
 10
-414.9999999999963
 20
-827.3361030200502
 30
0.0
 11
415.0000000000036
 21
-432.0982162108776
 31
0.0
  0
LINE
  5
24BA
330
2772
100
AcDbEntity
  8
0
 62
     0
100
AcDbLine
 10
-414.9999999999963
 20
-817.3361512759147
 30
0.0
 11
415.0
 21
-422.098264466742
 31
0.0
  0
LINE
  5
24BB
330
2772
100
AcDbEntity
  8
0
 62
     0
100
AcDbLine
 10
-414.9999999999927
 20
-807.3361995317799
 30
0.0
 11
415.0
 21
-412.0983127226088
 31
0.0
  0
LINE
  5
24BC
330
2772
100
AcDbEntity
  8
0
 62
     0
100
AcDbLine
 10
-414.9999999999963
 20
-797.3362477876469
 30
0.0
 11
415.0000000000036
 21
-402.0983609784743
 31
0.0
  0
LINE
  5
24BD
330
2772
100
AcDbEntity
  8
0
 62
     0
100
AcDbLine
 10
-414.9999999999963
 20
-787.3362960435115
 30
0.0
 11
415.0000000000036
 21
-392.0984092343388
 31
0.0
  0
LINE
  5
24BE
330
2772
100
AcDbEntity
  8
0
 62
     0
100
AcDbLine
 10
-414.9999999999963
 20
-777.3363442993777
 30
0.0
 11
415.0000000000036
 21
-382.0984574902049
 31
0.0
  0
LINE
  5
24BF
330
2772
100
AcDbEntity
  8
0
 62
     0
100
AcDbLine
 10
-414.9999999999927
 20
-767.3363925552421
 30
0.0
 11
415.0000000000036
 21
-372.0985057460694
 31
0.0
  0
LINE
  5
24C0
330
2772
100
AcDbEntity
  8
0
 62
     0
100
AcDbLine
 10
-414.9999999999927
 20
-757.3364408111073
 30
0.0
 11
415.0
 21
-362.0985540019365
 31
0.0
  0
LINE
  5
24C1
330
2772
100
AcDbEntity
  8
0
 62
     0
100
AcDbLine
 10
400.9241161413808
 20
-358.8014005605155
 30
0.0
 11
415.0000000000036
 21
-352.0986022578008
 31
0.0
  0
LINE
  5
24C2
330
2772
100
AcDbEntity
  8
0
 62
     0
100
AcDbLine
 10
-414.9999999999963
 20
-747.3364890669736
 30
0.0
 11
400.9241161413808
 21
-358.8014005605155
 31
0.0
  0
LINE
  5
24C3
330
2772
100
AcDbEntity
  8
0
 62
     0
100
AcDbLine
 10
379.9242064043865
 20
-358.8014005605164
 30
0.0
 11
415.0
 21
-342.098650513668
 31
0.0
  0
LINE
  5
24C4
330
2772
100
AcDbEntity
  8
0
 62
     0
100
AcDbLine
 10
-415.0
 20
-737.3365373228406
 30
0.0
 11
379.9242064043865
 21
-358.8014005605164
 31
0.0
  0
LINE
  5
24C5
330
2772
100
AcDbEntity
  8
0
 62
     0
100
AcDbLine
 10
358.9242966673992
 20
-358.8014005605164
 30
0.0
 11
415.0000000000036
 21
-332.0986987695324
 31
0.0
  0
LINE
  5
24C6
330
2772
100
AcDbEntity
  8
0
 62
     0
100
AcDbLine
 10
-414.9999999999963
 20
-727.3365855787051
 30
0.0
 11
358.9242966673992
 21
-358.8014005605164
 31
0.0
  0
LINE
  5
24C7
330
2772
100
AcDbEntity
  8
0
 62
     0
100
AcDbLine
 10
337.9243869304083
 20
-358.8014005605164
 30
0.0
 11
415.0
 21
-322.0987470253986
 31
0.0
  0
LINE
  5
24C8
330
2772
100
AcDbEntity
  8
0
 62
     0
100
AcDbLine
 10
-414.9999999999927
 20
-717.3366338345695
 30
0.0
 11
337.9243869304083
 21
-358.8014005605164
 31
0.0
  0
LINE
  5
24C9
330
2772
100
AcDbEntity
  8
0
 62
     0
100
AcDbLine
 10
316.9244771934136
 20
-358.8014005605164
 30
0.0
 11
415.0
 21
-312.098795281263
 31
0.0
  0
LINE
  5
24CA
330
2772
100
AcDbEntity
  8
0
 62
     0
100
AcDbLine
 10
-414.9999999999963
 20
-707.3366820904356
 30
0.0
 11
316.9244771934136
 21
-358.8014005605164
 31
0.0
  0
LINE
  5
24CB
330
2772
100
AcDbEntity
  8
0
 62
     0
100
AcDbLine
 10
295.9245674564263
 20
-358.8014005605182
 30
0.0
 11
415.0000000000036
 21
-302.0988435371291
 31
0.0
  0
LINE
  5
24CC
330
2772
100
AcDbEntity
  8
0
 62
     0
100
AcDbLine
 10
-414.9999999999963
 20
-697.3367303463019
 30
0.0
 11
295.9245674564263
 21
-358.8014005605182
 31
0.0
  0
LINE
  5
24CD
330
2772
100
AcDbEntity
  8
0
 62
     0
100
AcDbLine
 10
274.9246577194353
 20
-358.8014005605182
 30
0.0
 11
415.0000000000036
 21
-292.0988917929953
 31
0.0
  0
LINE
  5
24CE
330
2772
100
AcDbEntity
  8
0
 62
     0
100
AcDbLine
 10
-414.9999999999963
 20
-687.3367786021681
 30
0.0
 11
274.9246577194353
 21
-358.8014005605182
 31
0.0
  0
LINE
  5
24CF
330
2772
100
AcDbEntity
  8
0
 62
     0
100
AcDbLine
 10
253.9247479824407
 20
-358.8014005605182
 30
0.0
 11
415.0000000000036
 21
-282.0989400488597
 31
0.0
  0
LINE
  5
24D0
330
2772
100
AcDbEntity
  8
0
 62
     0
100
AcDbLine
 10
-414.9999999999963
 20
-677.3368268580325
 30
0.0
 11
253.9247479824407
 21
-358.8014005605182
 31
0.0
  0
LINE
  5
24D1
330
2772
100
AcDbEntity
  8
0
 62
     0
100
AcDbLine
 10
232.9248382454534
 20
-358.8014005605164
 30
0.0
 11
415.0
 21
-272.0989883047259
 31
0.0
  0
LINE
  5
24D2
330
2772
100
AcDbEntity
  8
0
 62
     0
100
AcDbLine
 10
-414.9999999999963
 20
-667.3368751138988
 30
0.0
 11
232.9248382454498
 21
-358.8014005605182
 31
0.0
  0
LINE
  5
24D3
330
2772
100
AcDbEntity
  8
0
 62
     0
100
AcDbLine
 10
211.9249285084661
 20
-358.8014005605164
 30
0.0
 11
415.0000000000036
 21
-262.0990365605903
 31
0.0
  0
LINE
  5
24D4
330
2772
100
AcDbEntity
  8
0
 62
     0
100
AcDbLine
 10
-414.9999999999927
 20
-657.3369233697631
 30
0.0
 11
211.9249285084661
 21
-358.8014005605164
 31
0.0
  0
LINE
  5
24D5
330
2772
100
AcDbEntity
  8
0
 62
     0
100
AcDbLine
 10
199.2000000000007
 20
-354.8609353868414
 30
0.0
 11
415.0
 21
-252.0990848164565
 31
0.0
  0
LINE
  5
24D6
330
2772
100
AcDbEntity
  8
0
 62
     0
100
AcDbLine
 10
-415.0
 20
-647.3369716256293
 30
0.0
 11
199.2000000000007
 21
-354.8609353868414
 31
0.0
  0
LINE
  5
24D7
330
2772
100
AcDbEntity
  8
0
 62
     0
100
AcDbLine
 10
199.2000000000043
 20
-344.8609836427077
 30
0.0
 11
415.0000000000036
 21
-242.0991330723227
 31
0.0
  0
LINE
  5
24D8
330
2772
100
AcDbEntity
  8
0
 62
     0
100
AcDbLine
 10
-414.9999999999963
 20
-637.3370198814955
 30
0.0
 11
199.2000000000043
 21
-344.8609836427077
 31
0.0
  0
LINE
  5
24D9
330
2772
100
AcDbEntity
  8
0
 62
     0
100
AcDbLine
 10
199.2000000000043
 20
-334.8610318985741
 30
0.0
 11
415.0000000000036
 21
-232.0991813281889
 31
0.0
  0
LINE
  5
24DA
330
2772
100
AcDbEntity
  8
0
 62
     0
100
AcDbLine
 10
-414.9999999999927
 20
-627.3370681373599
 30
0.0
 11
199.2000000000043
 21
-334.8610318985741
 31
0.0
  0
LINE
  5
24DB
330
2772
100
AcDbEntity
  8
0
 62
     0
100
AcDbLine
 10
199.2000000000043
 20
-324.8610801544383
 30
0.0
 11
415.0
 21
-222.0992295840551
 31
0.0
  0
LINE
  5
24DC
330
2772
100
AcDbEntity
  8
0
 62
     0
100
AcDbLine
 10
-414.9999999999963
 20
-617.3371163932261
 30
0.0
 11
199.2000000000043
 21
-324.8610801544383
 31
0.0
  0
LINE
  5
24DD
330
2772
100
AcDbEntity
  8
0
 62
     0
100
AcDbLine
 10
199.2000000000043
 20
-314.8611284103026
 30
0.0
 11
415.0000000000036
 21
-212.0992778399195
 31
0.0
  0
LINE
  5
24DE
330
2772
100
AcDbEntity
  8
0
 62
     0
100
AcDbLine
 10
-414.9999999999927
 20
-607.3371646490905
 30
0.0
 11
199.2000000000043
 21
-314.8611284103026
 31
0.0
  0
LINE
  5
24DF
330
2772
100
AcDbEntity
  8
0
 62
     0
100
AcDbLine
 10
199.2000000000043
 20
-304.8611766661708
 30
0.0
 11
415.0000000000036
 21
-202.0993260957876
 31
0.0
  0
LINE
  5
24E0
330
2772
100
AcDbEntity
  8
0
 62
     0
100
AcDbLine
 10
-414.9999999999963
 20
-597.3372129049585
 30
0.0
 11
199.2000000000043
 21
-304.8611766661708
 31
0.0
  0
LINE
  5
24E1
330
2772
100
AcDbEntity
  8
0
 62
     0
100
AcDbLine
 10
199.2000000000043
 20
-294.861224922035
 30
0.0
 11
415.0000000000036
 21
-192.0993743516519
 31
0.0
  0
LINE
  5
24E2
330
2772
100
AcDbEntity
  8
0
 62
     0
100
AcDbLine
 10
-414.9999999999963
 20
-587.3372611608225
 30
0.0
 11
199.2000000000043
 21
-294.861224922035
 31
0.0
  0
LINE
  5
24E3
330
2772
100
AcDbEntity
  8
0
 62
     0
100
AcDbLine
 10
199.2000000000043
 20
-284.8612731779013
 30
0.0
 11
415.0000000000036
 21
-182.099422607518
 31
0.0
  0
LINE
  5
24E4
330
2772
100
AcDbEntity
  8
0
 62
     0
100
AcDbLine
 10
-414.9999999999963
 20
-577.3373094166891
 30
0.0
 11
199.2000000000043
 21
-284.8612731779013
 31
0.0
  0
LINE
  5
24E5
330
2772
100
AcDbEntity
  8
0
 62
     0
100
AcDbLine
 10
199.2000000000043
 20
-274.8613214337656
 30
0.0
 11
415.0
 21
-172.0994708633824
 31
0.0
  0
LINE
  5
24E6
330
2772
100
AcDbEntity
  8
0
 62
     0
100
AcDbLine
 10
-414.9999999999963
 20
-567.3373576725532
 30
0.0
 11
199.2000000000043
 21
-274.8613214337656
 31
0.0
  0
LINE
  5
24E7
330
2772
100
AcDbEntity
  8
0
 62
     0
100
AcDbLine
 10
199.2000000000043
 20
-264.8613696896318
 30
0.0
 11
408.9060457596897
 21
-165.0014005605153
 31
0.0
  0
LINE
  5
24E8
330
2772
100
AcDbEntity
  8
0
 62
     0
100
AcDbLine
 10
-414.9999999999963
 20
-557.3374059284197
 30
0.0
 11
199.2000000000043
 21
-264.8613696896318
 31
0.0
  0
LINE
  5
24E9
330
2772
100
AcDbEntity
  8
0
 62
     0
100
AcDbLine
 10
199.2000000000043
 20
-254.8614179454962
 30
0.0
 11
387.9061360226988
 21
-165.0014005605153
 31
0.0
  0
LINE
  5
24EA
330
2772
100
AcDbEntity
  8
0
 62
     0
100
AcDbLine
 10
-414.9999999999963
 20
-547.3374541842839
 30
0.0
 11
199.2000000000043
 21
-254.8614179454962
 31
0.0
  0
LINE
  5
24EB
330
2772
100
AcDbEntity
  8
0
 62
     0
100
AcDbLine
 10
199.2000000000007
 20
-244.8614662013624
 30
0.0
 11
366.9062262857042
 21
-165.0014005605153
 31
0.0
  0
LINE
  5
24EC
330
2772
100
AcDbEntity
  8
0
 62
     0
100
AcDbLine
 10
-414.9999999999963
 20
-537.3375024401484
 30
0.0
 11
199.2000000000007
 21
-244.8614662013624
 31
0.0
  0
LINE
  5
24ED
330
2772
100
AcDbEntity
  8
0
 62
     0
100
AcDbLine
 10
199.2000000000043
 20
-234.8615144572285
 30
0.0
 11
345.9063165487169
 21
-165.0014005605171
 31
0.0
  0
LINE
  5
24EE
330
2772
100
AcDbEntity
  8
0
 62
     0
100
AcDbLine
 10
-414.9999999999963
 20
-527.3375506960165
 30
0.0
 11
199.2000000000043
 21
-234.8615144572285
 31
0.0
  0
LINE
  5
24EF
330
2772
100
AcDbEntity
  8
0
 62
     0
100
AcDbLine
 10
199.200000000008
 20
-224.861562713093
 30
0.0
 11
324.9064068117295
 21
-165.0014005605153
 31
0.0
  0
LINE
  5
24F0
330
2772
100
AcDbEntity
  8
0
 62
     0
100
AcDbLine
 10
-414.9999999999963
 20
-517.3375989518826
 30
0.0
 11
199.200000000008
 21
-224.861562713093
 31
0.0
  0
LINE
  5
24F1
330
2772
100
AcDbEntity
  8
0
 62
     0
100
AcDbLine
 10
199.2000000000043
 20
-214.8616109689592
 30
0.0
 11
303.9064970747349
 21
-165.0014005605153
 31
0.0
  0
LINE
  5
24F2
330
2772
100
AcDbEntity
  8
0
 62
     0
100
AcDbLine
 10
-415.0
 20
-507.3376472077486
 30
0.0
 11
199.2000000000043
 21
-214.8616109689592
 31
0.0
  0
LINE
  5
24F3
330
2772
100
AcDbEntity
  8
0
 62
     0
100
AcDbLine
 10
199.2000000000043
 20
-204.8616592248236
 30
0.0
 11
282.9065873377476
 21
-165.0014005605153
 31
0.0
  0
LINE
  5
24F4
330
2772
100
AcDbEntity
  8
0
 62
     0
100
AcDbLine
 10
-415.0
 20
-497.3376954636131
 30
0.0
 11
199.2000000000043
 21
-204.8616592248236
 31
0.0
  0
LINE
  5
24F5
330
2772
100
AcDbEntity
  8
0
 62
     0
100
AcDbLine
 10
199.2000000000043
 20
-194.8617074806916
 30
0.0
 11
261.9066776007567
 21
-165.0014005605171
 31
0.0
  0
LINE
  5
24F6
330
2772
100
AcDbEntity
  8
0
 62
     0
100
AcDbLine
 10
-415.0
 20
-487.3377437194813
 30
0.0
 11
199.2000000000043
 21
-194.8617074806916
 31
0.0
  0
LINE
  5
24F7
330
2772
100
AcDbEntity
  8
0
 62
     0
100
AcDbLine
 10
199.2000000000043
 20
-184.861755736556
 30
0.0
 11
240.9067678637621
 21
-165.0014005605171
 31
0.0
  0
LINE
  5
24F8
330
2772
100
AcDbEntity
  8
0
 62
     0
100
AcDbLine
 10
-415.0
 20
-477.3377919753456
 30
0.0
 11
199.2000000000043
 21
-184.861755736556
 31
0.0
  0
LINE
  5
24F9
330
2772
100
AcDbEntity
  8
0
 62
     0
100
AcDbLine
 10
199.200000000008
 20
-174.8618039924204
 30
0.0
 11
219.9068581267711
 21
-165.0014005605171
 31
0.0
  0
LINE
  5
24FA
330
2772
100
AcDbEntity
  8
0
 62
     0
100
AcDbLine
 10
-414.9999999999963
 20
-467.33784023121
 30
0.0
 11
199.2000000000043
 21
-174.8618039924222
 31
0.0
  0
LINE
  5
24FB
330
2772
100
AcDbEntity
  8
0
 62
     0
100
AcDbLine
 10
-414.9999999999963
 20
-457.3378884870762
 30
0.0
 11
198.906949097578
 21
-165.0014002234711
 31
0.0
  0
LINE
  5
24FC
330
2772
100
AcDbEntity
  8
0
 62
     0
100
AcDbLine
 10
-415.0
 20
-447.3379367429406
 30
0.0
 11
177.9070394293702
 21
-165.0014001907166
 31
0.0
  0
LINE
  5
24FD
330
2772
100
AcDbEntity
  8
0
 62
     0
100
AcDbLine
 10
-415.0
 20
-437.3379849988068
 30
0.0
 11
156.9071297611663
 21
-165.0014001579602
 31
0.0
  0
LINE
  5
24FE
330
2772
100
AcDbEntity
  8
0
 62
     0
100
AcDbLine
 10
-414.9999999999963
 20
-427.3380332546712
 30
0.0
 11
135.9072200929586
 21
-165.0014001252075
 31
0.0
  0
LINE
  5
24FF
330
2772
100
AcDbEntity
  8
0
 62
     0
100
AcDbLine
 10
-415.0
 20
-417.3380815105391
 30
0.0
 11
114.9073104247545
 21
-165.0014000924529
 31
0.0
  0
LINE
  5
2500
330
2772
100
AcDbEntity
  8
0
 62
     0
100
AcDbLine
 10
-414.9999999999963
 20
-407.3381297664054
 30
0.0
 11
93.90740075654687
 21
-165.0014000596984
 31
0.0
  0
LINE
  5
2501
330
2772
100
AcDbEntity
  8
0
 62
     0
100
AcDbLine
 10
-415.0000000000036
 20
-397.33817802227
 30
0.0
 11
72.9074910883355
 21
-165.0014000269456
 31
0.0
  0
LINE
  5
2502
330
2772
100
AcDbEntity
  8
0
 62
     0
100
AcDbLine
 10
-415.0
 20
-387.338226278136
 30
0.0
 11
51.90758142013146
 21
-165.0013999941893
 31
0.0
  0
LINE
  5
2503
330
2772
100
AcDbEntity
  8
0
 62
     0
100
AcDbLine
 10
-414.9999999999963
 20
-377.3382745340023
 30
0.0
 11
30.90767175192377
 21
-165.0013999614384
 31
0.0
  0
LINE
  5
2504
330
2772
100
AcDbEntity
  8
0
 62
     0
100
AcDbLine
 10
-415.0
 20
-367.3383227898685
 30
0.0
 11
9.907762083716079
 21
-165.001399928682
 31
0.0
  0
LINE
  5
2505
330
2772
100
AcDbEntity
  8
0
 62
     0
100
AcDbLine
 10
-414.9999999999963
 20
-357.3383710457329
 30
0.0
 11
-11.09214758448797
 21
-165.0013998959293
 31
0.0
  0
LINE
  5
2506
330
2772
100
AcDbEntity
  8
0
 62
     0
100
AcDbLine
 10
-415.0
 20
-347.338419301599
 30
0.0
 11
-32.09205725269203
 21
-165.001399863173
 31
0.0
  0
LINE
  5
2507
330
2772
100
AcDbEntity
  8
0
 62
     0
100
AcDbLine
 10
-415.0
 20
-337.3384675574635
 30
0.0
 11
-53.09196692089972
 21
-165.0013998304184
 31
0.0
  0
LINE
  5
2508
330
2772
100
AcDbEntity
  8
0
 62
     0
100
AcDbLine
 10
-415.0
 20
-327.3385158133296
 30
0.0
 11
-74.09187658910379
 21
-165.0013997976639
 31
0.0
  0
LINE
  5
2509
330
2772
100
AcDbEntity
  8
0
 62
     0
100
AcDbLine
 10
-414.9999999999963
 20
-317.3385640691959
 30
0.0
 11
-95.09178625731149
 21
-165.0013997649112
 31
0.0
  0
LINE
  5
250A
330
2772
100
AcDbEntity
  8
0
 62
     0
100
AcDbLine
 10
-415.0
 20
-307.338612325062
 30
0.0
 11
-116.0916959255228
 21
-165.0013997321584
 31
0.0
  0
LINE
  5
250B
330
2772
100
AcDbEntity
  8
0
 62
     0
100
AcDbLine
 10
-415.0
 20
-297.3386605809265
 30
0.0
 11
-137.0916055937268
 21
-165.0013996994021
 31
0.0
  0
LINE
  5
250C
330
2772
100
AcDbEntity
  8
0
 62
     0
100
AcDbLine
 10
-414.9999999999963
 20
-287.3387088367908
 30
0.0
 11
-158.0915152619344
 21
-165.0013996666493
 31
0.0
  0
LINE
  5
250D
330
2772
100
AcDbEntity
  8
0
 62
     0
100
AcDbLine
 10
-415.0
 20
-277.3387570926589
 30
0.0
 11
-179.0914249301422
 21
-165.0013996338948
 31
0.0
  0
LINE
  5
250E
330
2772
100
AcDbEntity
  8
0
 62
     0
100
AcDbLine
 10
-414.9999999999963
 20
-267.3388053485232
 30
0.0
 11
-200.0913345983463
 21
-165.0013996011403
 31
0.0
  0
LINE
  5
250F
330
2772
100
AcDbEntity
  8
0
 62
     0
100
AcDbLine
 10
-414.9999999999963
 20
-257.3388536043895
 30
0.0
 11
-221.0912442665503
 21
-165.0013995683839
 31
0.0
  0
LINE
  5
2510
330
2772
100
AcDbEntity
  8
0
 62
     0
100
AcDbLine
 10
-415.0
 20
-247.3389018602538
 30
0.0
 11
-242.0911539347617
 21
-165.0013995356311
 31
0.0
  0
LINE
  5
2511
330
2772
100
AcDbEntity
  8
0
 62
     0
100
AcDbLine
 10
-415.0
 20
-237.33895011612
 30
0.0
 11
-263.0910636029657
 21
-165.0013995028766
 31
0.0
  0
LINE
  5
2512
330
2772
100
AcDbEntity
  8
0
 62
     0
100
AcDbLine
 10
-415.0
 20
-227.3389983719844
 30
0.0
 11
-284.0909732711734
 21
-165.0013994701203
 31
0.0
  0
LINE
  5
2513
330
2772
100
AcDbEntity
  8
0
 62
     0
100
AcDbLine
 10
-415.0
 20
-217.3390466278505
 30
0.0
 11
-305.0908829393847
 21
-165.0013994373676
 31
0.0
  0
LINE
  5
2514
330
2772
100
AcDbEntity
  8
0
 62
     0
100
AcDbLine
 10
-415.0
 20
-207.3390948837168
 30
0.0
 11
-326.0907926075888
 21
-165.0013994046148
 31
0.0
  0
LINE
  5
2515
330
2772
100
AcDbEntity
  8
0
 62
     0
100
AcDbLine
 10
-415.0
 20
-197.3391431395812
 30
0.0
 11
-347.0907022757965
 21
-165.0013993718603
 31
0.0
  0
LINE
  5
2516
330
2772
100
AcDbEntity
  8
0
 62
     0
100
AcDbLine
 10
-415.0
 20
-187.3391913954474
 30
0.0
 11
-368.0906119440006
 21
-165.0013993391039
 31
0.0
  0
LINE
  5
2517
330
2772
100
AcDbEntity
  8
0
 62
     0
100
AcDbLine
 10
-414.9999999999963
 20
-177.3392396513118
 30
0.0
 11
-389.0905216122082
 21
-165.0013993063511
 31
0.0
  0
LINE
  5
2518
330
2772
100
AcDbEntity
  8
0
 62
     0
100
AcDbLine
 10
-415.0
 20
-167.3392879071798
 30
0.0
 11
-410.0904312804159
 21
-165.0013992735967
 31
0.0
  0
ENDBLK
  5
2519
330
2772
100
AcDbEntity
  8
0
100
AcDbBlockEnd
  0
ENDSEC
  0
SECTION
  2
ENTITIES
  0
TEXT
  5
953
330
2697
100
AcDbEntity
  8
OUTLINE
  6
Continuous
 62
     3
100
AcDbText
 10
-418.231467
 20
13.715189
 30
0.0
 40
64.0
  1
 
 41
0.9
100
AcDbText
  0
TEXT
  5
954
330
2697
100
AcDbEntity
  8
OUTLINE
  6
Continuous
 62
     3
100
AcDbText
 10
-418.231467
 20
13.715189
 30
0.0
 40
64.0
  1
 
 41
0.9
100
AcDbText
  0
TEXT
  5
955
330
2697
100
AcDbEntity
  8
OUTLINE
  6
Continuous
 62
     3
100
AcDbText
 10
1341.41903
 20
-706.0588199999997
 30
0.0
 40
64.0
  1
 
 41
0.9
100
AcDbText
  0
TEXT
  5
956
330
2697
100
AcDbEntity
  8
OUTLINE
  6
Continuous
 62
     3
100
AcDbText
 10
1341.41903
 20
-706.0588199999997
 30
0.0
 40
64.0
  1
 
 41
0.9
100
AcDbText
  0
TEXT
  5
957
330
2697
100
AcDbEntity
  8
OUTLINE
  6
Continuous
 62
     3
100
AcDbText
 10
1341.41903
 20
-706.0588199999997
 30
0.0
 40
64.0
  1
 
 41
0.9
100
AcDbText
  0
TEXT
  5
958
330
2697
100
AcDbEntity
  8
OUTLINE
  6
Continuous
 62
     3
100
AcDbText
 10
1341.41903
 20
-706.0588199999997
 30
0.0
 40
64.0
  1
 
 41
0.9
100
AcDbText
  0
LINE
  5
2591
330
2697
100
AcDbEntity
  8
NOTE
100
AcDbLine
 10
450.0
 20
-12.5
 30
0.0
 11
450.0
 21
12.5
 31
0.0
  0
LINE
  5
2592
330
2697
100
AcDbEntity
  8
NOTE
100
AcDbLine
 10
-450.0
 20
-12.5
 30
0.0
 11
-450.0
 21
12.5
 31
0.0
  0
LINE
  5
2593
330
2697
100
AcDbEntity
  8
DETAIL
100
AcDbLine
 10
-480.5072970172767
 20
-127.4369102784976
 30
0.0
 11
-493.5
 21
-127.0014000000001
 31
0.0
  0
LINE
  5
2594
330
2697
100
AcDbEntity
  8
DETAIL
100
AcDbLine
 10
480.5478299455785
 20
-145.0014006627516
 30
0.0
 11
-480.5747937932538
 21
-145.0013991636579
 31
0.0
  0
LINE
  5
2595
330
2697
100
AcDbEntity
  8
DETAIL
100
AcDbLine
 10
-465.0
 20
0.0
 30
0.0
 11
-475.0
 21
0.0
 31
0.0
  0
LINE
  5
2596
330
2697
100
AcDbEntity
  8
DETAIL
100
AcDbLine
 10
-475.0
 20
-8.0
 30
0.0
 11
-475.0
 21
0.0
 31
0.0
  0
LINE
  5
2597
330
2697
100
AcDbEntity
  8
DETAIL
100
AcDbLine
 10
-465.0
 20
0.0
 30
0.0
 11
465.0000000000036
 21
0.0
 31
0.0
  0
LINE
  5
2598
330
2697
100
AcDbEntity
  8
DETAIL
100
AcDbLine
 10
-475.0
 20
-8.0
 30
0.0
 11
475.0
 21
-8.0
 31
0.0
  0
LINE
  5
2599
330
2697
100
AcDbEntity
  8
DETAIL
100
AcDbLine
 10
-436.0
 20
-127.0014000000001
 30
0.0
 11
-436.0
 21
-7.999999999999089
 31
0.0
  0
CIRCLE
  5
259A
330
2697
100
AcDbEntity
  8
ARRANGE
100
AcDbCircle
 10
0.0
 20
0.0
 30
0.0
 40
40.0
  0
LINE
  5
259B
330
2697
100
AcDbEntity
  8
ARRANGE
100
AcDbLine
 10
-19.19638649989792
 20
19.19638649990247
 30
0.0
 11
19.1963864999052
 21
-19.1963864999052
 31
0.0
  0
LINE
  5
259C
330
2697
100
AcDbEntity
  8
ARRANGE
100
AcDbLine
 10
19.1963864999052
 20
19.19638649990338
 30
0.0
 11
-19.19638649989792
 21
-19.19638649990338
 31
0.0
  0
LINE
  5
259D
330
2697
100
AcDbEntity
  8
BASIS
100
AcDbLine
 10
0.0
 20
25.00000000000182
 30
0.0
 11
0.0
 21
-1068.99999986266
 31
0.0
  0
LINE
  5
259E
330
2697
100
AcDbEntity
  8
DETAIL
100
AcDbLine
 10
-435.0
 20
-895.0013999999999
 30
0.0
 11
-510.1610562738422
 21
-1021.99999986266
 31
0.0
  0
LINE
  5
259F
330
2697
100
AcDbEntity
  8
DETAIL
100
AcDbLine
 10
-493.5
 20
-127.0014000000001
 30
0.0
 11
-523.5
 21
-1021.99999986266
 31
0.0
  0
LINE
  5
25A0
330
2697
100
AcDbEntity
  8
DETAIL
100
AcDbLine
 10
-480.5072970172767
 20
-127.4369102784976
 30
0.0
 11
-510.1610562738422
 21
-1021.99999986266
 31
0.0
  0
LINE
  5
25A1
330
2697
100
AcDbEntity
  8
DETAIL
100
AcDbLine
 10
-510.1610562738422
 20
-1036.99999986266
 30
0.0
 11
510.161056273846
 21
-1036.99999986266
 31
0.0
  0
LINE
  5
25A2
330
2697
100
AcDbEntity
  8
DETAIL
100
AcDbLine
 10
-510.1610562738422
 20
-1021.99999986266
 30
0.0
 11
-510.1610562738422
 21
-1043.999999862659
 31
0.0
  0
LINE
  5
25A3
330
2697
100
AcDbEntity
  8
DETAIL
100
AcDbLine
 10
-510.1610562738422
 20
-1021.99999986266
 30
0.0
 11
-523.5
 21
-1021.99999986266
 31
0.0
  0
LINE
  5
25A4
330
2697
100
AcDbEntity
  8
DETAIL
100
AcDbLine
 10
-493.5
 20
-127.0014000000001
 30
0.0
 11
493.5
 21
-127.0014000000001
 31
0.0
  0
LINE
  5
25A5
330
2697
100
AcDbEntity
  8
DETAIL
100
AcDbLine
 10
-435.0
 20
-145.0013993127286
 30
0.0
 11
-435.0
 21
-895.0013999999999
 31
0.0
  0
LINE
  5
25A6
330
2697
100
AcDbEntity
  8
DETAIL
100
AcDbLine
 10
-434.9999999999964
 20
-895.0013999999999
 30
0.0
 11
435.0000000000036
 21
-895.0013999999999
 31
0.0
  0
LINE
  5
25A7
330
2697
100
AcDbEntity
  8
DETAIL
100
AcDbLine
 10
-510.1610562738422
 20
-1021.99999986266
 30
0.0
 11
510.161056273846
 21
-1022.106137243588
 31
0.0
  0
LINE
  5
25A8
330
2697
100
AcDbEntity
  8
DETAIL
100
AcDbLine
 10
480.5072970172763
 20
-127.4369102784976
 30
0.0
 11
493.5000000000036
 21
-127.0014000000001
 31
0.0
  0
LINE
  5
25A9
330
2697
100
AcDbEntity
  8
DETAIL
100
AcDbLine
 10
465.0
 20
0.0
 30
0.0
 11
475.0
 21
0.0
 31
0.0
  0
LINE
  5
25AA
330
2697
100
AcDbEntity
  8
DETAIL
100
AcDbLine
 10
475.0
 20
-8.0
 30
0.0
 11
475.0
 21
0.0
 31
0.0
  0
LINE
  5
25AB
330
2697
100
AcDbEntity
  8
DETAIL
100
AcDbLine
 10
436.0
 20
-127.0014000000001
 30
0.0
 11
436.0
 21
-7.999999999999089
 31
0.0
  0
LINE
  5
25AC
330
2697
100
AcDbEntity
  8
DETAIL
100
AcDbLine
 10
435.0000000000036
 20
-895.0013999999999
 30
0.0
 11
510.161056273846
 21
-1021.99999986266
 31
0.0
  0
LINE
  5
25AD
330
2697
100
AcDbEntity
  8
DETAIL
100
AcDbLine
 10
493.5000000000036
 20
-127.0014000000001
 30
0.0
 11
523.5000000000036
 21
-1021.99999986266
 31
0.0
  0
LINE
  5
25AE
330
2697
100
AcDbEntity
  8
DETAIL
100
AcDbLine
 10
480.5072970172763
 20
-127.4369102784976
 30
0.0
 11
510.161056273846
 21
-1021.99999986266
 31
0.0
  0
LINE
  5
25AF
330
2697
100
AcDbEntity
  8
DETAIL
100
AcDbLine
 10
510.161056273846
 20
-1021.99999986266
 30
0.0
 11
510.161056273846
 21
-1043.999999862659
 31
0.0
  0
LINE
  5
25B0
330
2697
100
AcDbEntity
  8
DETAIL
100
AcDbLine
 10
510.161056273846
 20
-1021.99999986266
 30
0.0
 11
523.5000000000036
 21
-1021.99999986266
 31
0.0
  0
LINE
  5
25B1
330
2697
100
AcDbEntity
  8
DETAIL
100
AcDbLine
 10
435.0000000000036
 20
-145.0013993127286
 30
0.0
 11
435.0000000000036
 21
-895.0013999999999
 31
0.0
  0
LINE
  5
25B2
330
2697
100
AcDbEntity
  8
DETAIL
100
AcDbLine
 10
-415.0
 20
-165.0013992659369
 30
0.0
 11
415.0000000000036
 21
-165.0014005605144
 31
0.0
  0
LINE
  5
25B3
330
2697
100
AcDbEntity
  8
DETAIL
100
AcDbLine
 10
-415.0
 20
-875.0014
 30
0.0
 11
415.0000000000036
 21
-875.0014
 31
0.0
  0
LINE
  5
25B4
330
2697
100
AcDbEntity
  8
DETAIL
100
AcDbLine
 10
-415.0
 20
-165.0013992659369
 30
0.0
 11
-415.0
 21
-875.0014
 31
0.0
  0
LINE
  5
25B5
330
2697
100
AcDbEntity
  8
DETAIL
100
AcDbLine
 10
415.0000000000036
 20
-165.0014005605144
 30
0.0
 11
415.0000000000036
 21
-875.0014
 31
0.0
  0
LINE
  5
25B6
330
2697
100
AcDbEntity
  8
DETAIL
100
AcDbLine
 10
-510.1610562738422
 20
-1043.999999862659
 30
0.0
 11
510.161056273846
 21
-1043.999999862659
 31
0.0
  0
INSERT
  5
25B7
330
2697
100
AcDbEntity
  8
0
100
AcDbBlockReference
  2
*U71
 10
0.0
 20
0.0000000000022737
 30
0.0
1001
ACAD
1000
DSTYLE
1002
{
1070
    41
1040
12.0
1070
    42
1040
20.0
1070
    43
1040
200.0
1070
    44
1040
20.0
1070
    73
1070
     0
1070
    74
1070
     0
1070
    77
1070
     1
1070
    78
1070
     8
1070
   140
1040
64.0
1070
   147
1040
50.0
1070
   172
1070
     1
1070
   174
1070
     1
1070
   275
1070
     0
1070
   284
1070
     0
1070
   285
1070
     0
1070
   286
1070
     0
1070
   341
1005
0
1070
   342
1005
0
1002
}
  0
INSERT
  5
25B8
330
2697
100
AcDbEntity
  8
0
100
AcDbBlockReference
  2
*U72
 10
0.0
 20
0.0000000000022737
 30
0.0
  0
LINE
  5
25B9
330
2697
100
AcDbEntity
  8
NOTE
100
AcDbLine
 39
50.0
 10
437.5
 20
0.0
 30
0.0
 11
462.5
 21
0.0
 31
0.0
  0
LINE
  5
25BA
330
2697
100
AcDbEntity
  8
NOTE
100
AcDbLine
 39
50.0
 10
-462.5
 20
0.0
 30
0.0
 11
-437.5
 21
0.0
 31
0.0
  0
LINE
  5
25BB
330
2697
100
AcDbEntity
  8
OUTLINE
100
AcDbLine
 39
50.0
 10
-475.0
 20
0.0
 30
0.0
 11
475.0
 21
0.0
 31
0.0
  0
LINE
  5
25BC
330
2697
100
AcDbEntity
  8
OUTLINE
100
AcDbLine
 10
-480.5072970172767
 20
-127.4369102784976
 30
0.0
 11
-493.5
 21
-127.0014000000001
 31
0.0
  0
LINE
  5
25BD
330
2697
100
AcDbEntity
  8
OUTLINE
100
AcDbLine
 10
480.5478299455785
 20
-145.0014006627516
 30
0.0
 11
-480.5747937932538
 21
-145.0013991636579
 31
0.0
  0
LINE
  5
25BE
330
2697
100
AcDbEntity
  8
OUTLINE
100
AcDbLine
 10
-475.0
 20
-8.0
 30
0.0
 11
-475.0
 21
0.0
 31
0.0
  0
LINE
  5
25BF
330
2697
100
AcDbEntity
  8
OUTLINE
100
AcDbLine
 10
-475.0
 20
-8.0
 30
0.0
 11
475.0
 21
-8.0
 31
0.0
  0
LINE
  5
25C0
330
2697
100
AcDbEntity
  8
OUTLINE
100
AcDbLine
 10
-436.0
 20
-127.0014000000001
 30
0.0
 11
-436.0
 21
-7.999999999999089
 31
0.0
  0
LINE
  5
25C1
330
2697
100
AcDbEntity
  8
OUTLINE
100
AcDbLine
 10
-435.0
 20
-895.0013999999999
 30
0.0
 11
-510.1610562738422
 21
-1021.99999986266
 31
0.0
  0
LINE
  5
25C2
330
2697
100
AcDbEntity
  8
OUTLINE
100
AcDbLine
 10
-493.5
 20
-127.0014000000001
 30
0.0
 11
-523.5
 21
-1021.99999986266
 31
0.0
  0
LINE
  5
25C3
330
2697
100
AcDbEntity
  8
OUTLINE
100
AcDbLine
 10
-480.5072970172767
 20
-127.4369102784976
 30
0.0
 11
-510.1610562738422
 21
-1021.99999986266
 31
0.0
  0
LINE
  5
25C4
330
2697
100
AcDbEntity
  8
OUTLINE
100
AcDbLine
 10
-510.1610562738422
 20
-1036.99999986266
 30
0.0
 11
510.161056273846
 21
-1036.99999986266
 31
0.0
  0
LINE
  5
25C5
330
2697
100
AcDbEntity
  8
OUTLINE
100
AcDbLine
 10
-510.1610562738422
 20
-1021.99999986266
 30
0.0
 11
-510.1610562738422
 21
-1043.999999862659
 31
0.0
  0
LINE
  5
25C6
330
2697
100
AcDbEntity
  8
OUTLINE
100
AcDbLine
 10
-510.1610562738422
 20
-1021.99999986266
 30
0.0
 11
-523.5
 21
-1021.99999986266
 31
0.0
  0
LINE
  5
25C7
330
2697
100
AcDbEntity
  8
OUTLINE
100
AcDbLine
 10
-493.5
 20
-127.0014000000001
 30
0.0
 11
493.5
 21
-127.0014000000001
 31
0.0
  0
LINE
  5
25C8
330
2697
100
AcDbEntity
  8
OUTLINE
100
AcDbLine
 10
-435.0
 20
-145.0013993127286
 30
0.0
 11
-435.0
 21
-895.0013999999999
 31
0.0
  0
LINE
  5
25C9
330
2697
100
AcDbEntity
  8
OUTLINE
100
AcDbLine
 10
-434.9999999999964
 20
-895.0013999999999
 30
0.0
 11
435.0000000000036
 21
-895.0013999999999
 31
0.0
  0
LINE
  5
25CA
330
2697
100
AcDbEntity
  8
OUTLINE
100
AcDbLine
 10
-510.1610562738422
 20
-1021.99999986266
 30
0.0
 11
510.161056273846
 21
-1022.106137243588
 31
0.0
  0
LINE
  5
25CB
330
2697
100
AcDbEntity
  8
OUTLINE
100
AcDbLine
 10
480.5072970172763
 20
-127.4369102784976
 30
0.0
 11
493.5000000000036
 21
-127.0014000000001
 31
0.0
  0
LINE
  5
25CC
330
2697
100
AcDbEntity
  8
OUTLINE
100
AcDbLine
 10
475.0
 20
-8.0
 30
0.0
 11
475.0
 21
0.0
 31
0.0
  0
LINE
  5
25CD
330
2697
100
AcDbEntity
  8
OUTLINE
100
AcDbLine
 10
436.0
 20
-127.0014000000001
 30
0.0
 11
436.0
 21
-7.999999999999089
 31
0.0
  0
LINE
  5
25CE
330
2697
100
AcDbEntity
  8
OUTLINE
100
AcDbLine
 10
435.0000000000036
 20
-895.0013999999999
 30
0.0
 11
510.161056273846
 21
-1021.99999986266
 31
0.0
  0
LINE
  5
25CF
330
2697
100
AcDbEntity
  8
OUTLINE
100
AcDbLine
 10
493.5000000000036
 20
-127.0014000000001
 30
0.0
 11
523.5000000000036
 21
-1021.99999986266
 31
0.0
  0
LINE
  5
25D0
330
2697
100
AcDbEntity
  8
OUTLINE
100
AcDbLine
 10
480.5072970172763
 20
-127.4369102784976
 30
0.0
 11
510.161056273846
 21
-1021.99999986266
 31
0.0
  0
LINE
  5
25D1
330
2697
100
AcDbEntity
  8
OUTLINE
100
AcDbLine
 10
510.161056273846
 20
-1021.99999986266
 30
0.0
 11
510.161056273846
 21
-1043.999999862659
 31
0.0
  0
LINE
  5
25D2
330
2697
100
AcDbEntity
  8
OUTLINE
100
AcDbLine
 10
510.161056273846
 20
-1021.99999986266
 30
0.0
 11
523.5000000000036
 21
-1021.99999986266
 31
0.0
  0
LINE
  5
25D3
330
2697
100
AcDbEntity
  8
OUTLINE
100
AcDbLine
 10
435.0000000000036
 20
-145.0013993127286
 30
0.0
 11
435.0000000000036
 21
-895.0013999999999
 31
0.0
  0
LINE
  5
25D4
330
2697
100
AcDbEntity
  8
OUTLINE
100
AcDbLine
 10
-510.1610562738422
 20
-1043.999999862659
 30
0.0
 11
510.161056273846
 21
-1043.999999862659
 31
0.0
  0
INSERT
  5
25D5
330
2697
100
AcDbEntity
  8
DETAIL
  6
Continuous
100
AcDbBlockReference
  2
*X73
 10
0.0
 20
0.0000000000022737
 30
0.0
1001
ACADANNOTATIVE
1000
AnnotativeData
1002
{
1070
     1
1070
     0
1002
}
1001
ACAD
1000
HATCH
1002
{
1070
    19
1000
LINE
1040
72.22849999999998
1040
5.838766301980095
1000
R14_HATCH_DATA
1000
5AB7
1011
1.0
1021
0.0000000000022737
1031
0.0
1011
0.0
1021
1.000000000002273
1031
0.0
1011
0.0
1021
0.0000000000022737
1031
1.0
1040
0.0
1010
0.0
1020
0.0
1030
1.0
1000
LINE
1070
     0
1070
     0
1071
        2
1071
        7
1070
     0
1070
     1
1071
        6
1040
415.0000000000036
1040
-358.801400560516
1040
199.2000000000043
1040
-358.801400560516
1040
199.2000000000007
1040
-165.0014002239272
1040
-415.0
1040
-165.0013992659401
1040
-415.0
1040
-875.0014000000023
1040
415.0000000000036
1040
-875.0014000000023
1071
        0
1071
       23
1070
     0
1070
     1
1071
        4
1040
415.0000000000036
1040
-358.8014005605177
1040
415.0000000000036
1040
-165.0014005605167
1040
199.2000000000043
1040
-165.0014005605167
1040
199.2000000000043
1040
-358.801400560516
1071
        0
1070
     0
1070
     1
1040
5.838766301980095
1040
72.22849999999998
1070
     0
1070
     1
1040
5.838766301980095
1040
19808.9609816671
1040
4953.135007181291
1040
3.881680532789153
1040
8.151533417570705
1070
     0
1040
3.614068936004955
1071
        2
1040
-67.10547197758207
1040
-411.6439546848046
1040
0.0
1040
313.3751664771008
1040
-281.7027191629208
1040
0.0
1002
}
  0
INSERT
  5
25D6
330
2697
100
AcDbEntity
  8
DETAIL
  6
Continuous
100
AcDbBlockReference
  2
*X74
 10
0.0
 20
0.0000000000022737
 30
0.0
1001
ACADANNOTATIVE
1000
AnnotativeData
1002
{
1070
     1
1070
     0
1002
}
1001
ACAD
1000
HATCH
1002
{
1070
    19
1000
LINE
1040
72.22849999999998
1040
0.4444190051994897
1000
R14_HATCH_DATA
1000
5ABD
1011
1.0
1021
0.0000000000022737
1031
0.0
1011
0.0
1021
1.000000000002273
1031
0.0
1011
0.0
1021
0.0000000000022737
1031
1.0
1040
0.0
1010
0.0
1020
0.0
1030
1.0
1000
LINE
1070
     0
1070
     0
1071
        2
1071
        7
1070
     0
1070
     1
1071
        6
1040
199.2000000000043
1040
-165.0014002239272
1040
-415.0
1040
-165.0013992659391
1040
-414.9999999999963
1040
-875.0014000000023
1040
415.0000000000036
1040
-875.0014000000012
1040
415.0000000000036
1040
-358.8014005605169
1040
199.2000000000043
1040
-358.801400560516
1071
        0
1071
       23
1070
     0
1070
     1
1071
        4
1040
415.0000000000036
1040
-165.0014005605167
1040
199.2000000000043
1040
-165.0014005605167
1040
199.2000000000043
1040
-358.801400560516
1040
415.0000000000036
1040
-358.801400560516
1071
        0
1070
     0
1070
     1
1040
0.4444190051994897
1040
72.22849999999998
1070
     0
1070
     1
1040
0.4444190051994897
1040
19808.9609816671
1040
4953.135007181291
1040
-3.881680532789157
1040
8.151533417570702
1070
     0
1040
3.285085478594332
1071
        2
1040
-39.6081842475287
1040
-358.5339118532133
1040
0.0
1040
338.3675573120745
1040
-281.3252301327343
1040
0.0
1002
}
  0
LINE
  5
25D7
330
2697
100
AcDbEntity
  8
DETAIL
100
AcDbLine
 10
-415.0
 20
-165.0013992659369
 30
0.0
 11
415.0000000000036
 21
-165.0014005605144
 31
0.0
  0
LINE
  5
25D8
330
2697
100
AcDbEntity
  8
DETAIL
100
AcDbLine
 10
-415.0
 20
-875.0014
 30
0.0
 11
415.0000000000036
 21
-875.0014
 31
0.0
  0
LINE
  5
25D9
330
2697
100
AcDbEntity
  8
DETAIL
100
AcDbLine
 10
-415.0
 20
-165.0013992659369
 30
0.0
 11
-415.0
 21
-875.0014
 31
0.0
  0
LINE
  5
25DA
330
2697
100
AcDbEntity
  8
DETAIL
100
AcDbLine
 10
415.0000000000036
 20
-165.0014005605144
 30
0.0
 11
415.0000000000036
 21
-875.0014
 31
0.0
  0
TEXT
  5
25DB
330
2697
100
AcDbEntity
  8
ETC
100
AcDbText
 10
827.2016327547389
 20
290.4143619662836
 30
0.0
 40
64.0
  1
QW-80SB_6
 41
0.9
100
AcDbText
  0
TEXT
  5
25DC
330
2697
100
AcDbEntity
  8
ETC
100
AcDbText
 10
819.5216327547385
 20
183.7476952996168
 30
0.0
 40
64.0
  1
システム部材
 41
0.9
100
AcDbText
  0
TEXT
  5
25DD
330
2697
100
AcDbEntity
  8
ETC
100
AcDbText
 10
827.2016327547389
 20
77.08102863295038
 30
0.0
 40
64.0
  1
QW-80SB
 41
0.9
100
AcDbText
  0
LINE
  5
25DE
330
2697
100
AcDbEntity
  8
SIZE
100
AcDbLine
 10
-475.0
 20
20.0
 30
0.0
 11
-475.0
 21
338.0818371338519
 31
0.0
  0
LINE
  5
25DF
330
2697
100
AcDbEntity
  8
SIZE
100
AcDbLine
 10
475.0
 20
20.0
 30
0.0
 11
475.0
 21
338.0818371338519
 31
0.0
  0
LINE
  5
25E0
330
2697
100
AcDbEntity
  8
SIZE
100
AcDbLine
 10
-463.0
 20
318.0818371338519
 30
0.0
 11
463.0
 21
318.0818371338519
 31
0.0
  0
INSERT
  5
25E1
330
2697
100
AcDbEntity
  8
SIZE
100
AcDbBlockReference
  2
_DOTBLANK
 10
-475.0
 20
318.0818371338519
 30
0.0
 41
12.0
 42
12.0
 43
12.0
 50
180.0
  0
INSERT
  5
25E2
330
2697
100
AcDbEntity
  8
SIZE
100
AcDbBlockReference
  2
_DOTBLANK
 10
475.0
 20
318.0818371338519
 30
0.0
 41
12.0
 42
12.0
 43
12.0
  0
LINE
  5
25E3
330
2697
100
AcDbEntity
  8
SIZE
100
AcDbLine
 10
-450.0
 20
32.5
 30
0.0
 11
-450.0
 21
197.3516363077915
 31
0.0
  0
LINE
  5
25E4
330
2697
100
AcDbEntity
  8
SIZE
100
AcDbLine
 10
450.0
 20
32.5
 30
0.0
 11
450.0
 21
197.3516363077915
 31
0.0
  0
LINE
  5
25E5
330
2697
100
AcDbEntity
  8
SIZE
100
AcDbLine
 10
-438.0
 20
177.3516363077915
 30
0.0
 11
438.0
 21
177.3516363077915
 31
0.0
  0
INSERT
  5
25E6
330
2697
100
AcDbEntity
  8
SIZE
100
AcDbBlockReference
  2
_DOTBLANK
 10
-450.0
 20
177.3516363077915
 30
0.0
 41
12.0
 42
12.0
 43
12.0
 50
180.0
  0
INSERT
  5
25E7
330
2697
100
AcDbEntity
  8
SIZE
100
AcDbBlockReference
  2
_DOTBLANK
 10
450.0
 20
177.3516363077915
 30
0.0
 41
12.0
 42
12.0
 43
12.0
  0
LINE
  5
25E8
330
2697
100
AcDbEntity
  8
SIZE
100
AcDbLine
 10
495.0
 20
0.0
 30
0.0
 11
637.3530739139566
 21
0.0
 31
0.0
  0
LINE
  5
25E9
330
2697
100
AcDbEntity
  8
SIZE
100
AcDbLine
 10
495.0
 20
-8.0
 30
0.0
 11
637.3530739139566
 21
-8.0
 31
0.0
  0
LINE
  5
25EA
330
2697
100
AcDbEntity
  8
SIZE
100
AcDbLine
 10
617.3530739139569
 20
12.0
 30
0.0
 11
617.3530739139569
 21
24.0
 31
0.0
  0
LINE
  5
25EB
330
2697
100
AcDbEntity
  8
SIZE
100
AcDbLine
 10
617.3530739139569
 20
-20.0
 30
0.0
 11
617.3530739139569
 21
-90.40000000000008
 31
0.0
  0
INSERT
  5
25EC
330
2697
100
AcDbEntity
  8
SIZE
100
AcDbBlockReference
  2
_DOTBLANK
 10
617.3530739139569
 20
0.0
 30
0.0
 41
12.0
 42
12.0
 43
12.0
 50
270.0
  0
INSERT
  5
25ED
330
2697
100
AcDbEntity
  8
SIZE
100
AcDbBlockReference
  2
_DOTBLANK
 10
617.3530739139569
 20
-8.0
 30
0.0
 41
12.0
 42
12.0
 43
12.0
 50
90.0
  0
LINE
  5
25EE
330
2697
100
AcDbEntity
  8
SIZE
100
AcDbLine
 10
-530.1610562738424
 20
-1021.998599862659
 30
0.0
 11
-711.3011223985235
 21
-1021.998599862659
 31
0.0
  0
LINE
  5
25EF
330
2697
100
AcDbEntity
  8
SIZE
100
AcDbLine
 10
-530.1610562738424
 20
-1043.99859986266
 30
0.0
 11
-711.3011223985235
 21
-1043.99859986266
 31
0.0
  0
LINE
  5
25F0
330
2697
100
AcDbEntity
  8
SIZE
100
AcDbLine
 10
-691.3011223985236
 20
-1009.99859986266
 30
0.0
 11
-691.3011223985236
 21
-997.9985998626601
 31
0.0
  0
LINE
  5
25F1
330
2697
100
AcDbEntity
  8
SIZE
100
AcDbLine
 10
-691.3011223985236
 20
-1055.99859986266
 30
0.0
 11
-691.3011223985236
 21
-1181.255742719802
 31
0.0
  0
INSERT
  5
25F2
330
2697
100
AcDbEntity
  8
SIZE
100
AcDbBlockReference
  2
_DOTBLANK
 10
-691.3011223985236
 20
-1021.998599862659
 30
0.0
 41
12.0
 42
12.0
 43
12.0
 50
270.0
  0
INSERT
  5
25F3
330
2697
100
AcDbEntity
  8
SIZE
100
AcDbBlockReference
  2
_DOTBLANK
 10
-691.3011223985236
 20
-1043.99859986266
 30
0.0
 41
12.0
 42
12.0
 43
12.0
 50
90.0
  0
LINE
  5
25F4
330
2697
100
AcDbEntity
  8
SIZE
100
AcDbLine
 10
-495.0
 20
0.0
 30
0.0
 11
-711.3011223985232
 21
0.0
 31
0.0
  0
LINE
  5
25F5
330
2697
100
AcDbEntity
  8
SIZE
100
AcDbLine
 10
-543.5
 20
-1021.99999986266
 30
0.0
 11
-711.3011223985235
 21
-1021.99999986266
 31
0.0
  0
LINE
  5
25F6
330
2697
100
AcDbEntity
  8
SIZE
100
AcDbLine
 10
-691.3011223985233
 20
-12.0
 30
0.0
 11
-691.3011223985236
 21
-1009.99999986266
 31
0.0
  0
INSERT
  5
25F7
330
2697
100
AcDbEntity
  8
SIZE
100
AcDbBlockReference
  2
_DOTBLANK
 10
-691.3011223985233
 20
0.0
 30
0.0
 41
12.0
 42
12.0
 43
12.0
 50
90.0
  0
INSERT
  5
25F8
330
2697
100
AcDbEntity
  8
SIZE
100
AcDbBlockReference
  2
_DOTBLANK
 10
-691.3011223985236
 20
-1021.99999986266
 30
0.0
 41
12.0
 42
12.0
 43
12.0
 50
270.0
  0
LINE
  5
25F9
330
2697
100
AcDbEntity
  8
SIZE
100
AcDbLine
 10
-523.5
 20
-1041.99859986266
 30
0.0
 11
-523.5
 21
-1233.919125479282
 31
0.0
  0
LINE
  5
25FA
330
2697
100
AcDbEntity
  8
SIZE
100
AcDbLine
 10
523.5000000000036
 20
-1041.99859986266
 30
0.0
 11
523.5000000000036
 21
-1233.919125479282
 31
0.0
  0
LINE
  5
25FB
330
2697
100
AcDbEntity
  8
SIZE
100
AcDbLine
 10
-511.5
 20
-1213.919125479282
 30
0.0
 11
511.5000000000036
 21
-1213.919125479282
 31
0.0
  0
INSERT
  5
25FC
330
2697
100
AcDbEntity
  8
SIZE
100
AcDbBlockReference
  2
_DOTBLANK
 10
-523.5
 20
-1213.919125479282
 30
0.0
 41
12.0
 42
12.0
 43
12.0
 50
180.0
  0
INSERT
  5
25FD
330
2697
100
AcDbEntity
  8
SIZE
100
AcDbBlockReference
  2
_DOTBLANK
 10
523.5000000000036
 20
-1213.919125479282
 30
0.0
 41
12.0
 42
12.0
 43
12.0
  0
TEXT
  5
25FE
330
2697
100
AcDbEntity
  8
SIZE
100
AcDbText
 10
-95.99999999999637
 20
-1203.919125479282
 30
0.0
 40
64.0
  1
1047
 41
0.9
100
AcDbText
  0
TEXT
  5
25FF
330
2697
100
AcDbEntity
  8
SIZE
100
AcDbText
 10
-701.3011223985232
 20
-1171.255742719802
 30
0.0
 40
64.0
  1
22
 50
90.0
 41
0.9
100
AcDbText
  0
TEXT
  5
2600
330
2697
100
AcDbEntity
  8
SIZE
100
AcDbText
 10
-701.3011223985232
 20
-606.9999999313298
 30
0.0
 40
64.0
  1
1022
 50
90.0
 41
0.9
100
AcDbText
  0
TEXT
  5
2601
330
2697
100
AcDbEntity
  8
SIZE
100
AcDbText
 10
-74.0571428571393
 20
187.3516363077915
 30
0.0
 40
64.0
  1
900
 41
0.9
100
AcDbText
  0
TEXT
  5
2602
330
2697
100
AcDbEntity
  8
SIZE
100
AcDbText
 10
-74.0571428571393
 20
328.0818371338519
 30
0.0
 40
64.0
  1
950
 41
0.9
100
AcDbText
  0
TEXT
  5
2603
330
2697
100
AcDbEntity
  8
SIZE
100
AcDbText
 10
607.3530739139565
 20
-80.39999999999986
 30
0.0
 40
64.0
  1
8
 50
90.0
 41
0.9
100
AcDbText
  0
ENDSEC
  0
SECTION
  2
OBJECTS
  0
DICTIONARY
  5
262F
330
0
100
AcDbDictionary
281
     1
  3
ACAD_2007HEADERVARS_RT
350
2886
  3
ACAD_COLOR
350
268D
  3
ACAD_GROUP
350
2630
  3
ACAD_LAYOUT
350
268C
  3
ACAD_MATERIAL
350
2633
  3
ACAD_MLEADERSTYLE
350
2690
  3
ACAD_MLINESTYLE
350
2689
  3
ACAD_PLOTSETTINGS
350
268B
  3
ACAD_PLOTSTYLENAME
350
2631
  3
ACAD_SCALELIST
350
265D
  3
ACAD_TABLESTYLE
350
268E
  3
ACAD_VISUALSTYLE
350
264C
  3
ACDB_RECOMPOSE_DATA
350
2884
  3
AcDbVariableDictionary
350
287B
  3
AcmDictionary
350
2827
  3
AMG
350
2774
  3
AMGSNAPSETTINGS
350
284F
  3
DWGPROPS
350
2885
  3
MAPISURF_MODULE
350
27F4
  0
DICTIONARY
  5
2856
330
267F
100
AcDbDictionary
280
     1
281
     1
  3
ADSK_XREC_LAYER_RECONCILED
360
2857
  0
DICTIONARY
  5
2858
330
26AE
100
AcDbDictionary
280
     1
281
     1
  3
ADSK_XREC_LAYER_RECONCILED
360
2859
  0
DICTIONARY
  5
285A
330
26AF
100
AcDbDictionary
280
     1
281
     1
  3
ADSK_XREC_LAYER_RECONCILED
360
285B
  0
DICTIONARY
  5
285C
330
26B0
100
AcDbDictionary
280
     1
281
     1
  3
ADSK_XREC_LAYER_RECONCILED
360
285D
  0
DICTIONARY
  5
285E
330
26B1
100
AcDbDictionary
280
     1
281
     1
  3
ADSK_XREC_LAYER_RECONCILED
360
285F
  0
DICTIONARY
  5
2860
330
26B2
100
AcDbDictionary
280
     1
281
     1
  3
ADSK_XREC_LAYER_RECONCILED
360
2861
  0
DICTIONARY
  5
2862
330
26B4
100
AcDbDictionary
280
     1
281
     1
  3
ADSK_XREC_LAYER_RECONCILED
360
2863
  0
DICTIONARY
  5
2864
330
26B5
100
AcDbDictionary
280
     1
281
     1
  3
ADSK_XREC_LAYER_RECONCILED
360
2865
  0
DICTIONARY
  5
2866
330
26B6
100
AcDbDictionary
280
     1
281
     1
  3
ADSK_XREC_LAYER_RECONCILED
360
2867
  0
DICTIONARY
  5
2868
330
26B7
100
AcDbDictionary
280
     1
281
     1
  3
ADSK_XREC_LAYER_RECONCILED
360
2869
  0
DICTIONARY
  5
286A
330
26B8
100
AcDbDictionary
280
     1
281
     1
  3
ADSK_XREC_LAYER_RECONCILED
360
286B
  0
DICTIONARY
  5
286C
330
2697
100
AcDbDictionary
280
     1
281
     1
  3
ACAD_INDEX
360
286D
  0
DICTIONARY
  5
2886
102
{ACAD_REACTORS
330
262F
102
}
330
262F
100
AcDbDictionary
281
     1
  3
DIMARCSYM
350
2887
  3
DIMLTEX1
350
2889
  3
DIMLTEX2
350
288A
  3
DIMLTYPE
350
2888
  0
DICTIONARY
  5
268D
102
{ACAD_REACTORS
330
262F
102
}
330
262F
100
AcDbDictionary
281
     1
  0
DICTIONARY
  5
2630
102
{ACAD_REACTORS
330
262F
102
}
330
262F
100
AcDbDictionary
281
     1
  0
DICTIONARY
  5
268C
102
{ACAD_REACTORS
330
262F
102
}
330
262F
100
AcDbDictionary
281
     1
  3
Model
350
269A
  3
レイアウト1
350
2696
  0
DICTIONARY
  5
2633
102
{ACAD_REACTORS
330
262F
102
}
330
262F
100
AcDbDictionary
281
     1
  3
ByBlock
350
263C
  3
ByLayer
350
2634
  3
Global
350
2644
  0
DICTIONARY
  5
2690
102
{ACAD_REACTORS
330
262F
102
}
330
262F
100
AcDbDictionary
281
     1
  3
Standard
350
2691
  0
DICTIONARY
  5
2689
102
{ACAD_REACTORS
330
262F
102
}
330
262F
100
AcDbDictionary
281
     1
  3
Standard
350
268A
  0
DICTIONARY
  5
268B
102
{ACAD_REACTORS
330
262F
102
}
330
262F
100
AcDbDictionary
281
     1
  0
ACDBDICTIONARYWDFLT
  5
2631
102
{ACAD_REACTORS
330
262F
102
}
330
262F
100
AcDbDictionary
281
     1
  3
Normal
350
2632
100
AcDbDictionaryWithDefault
340
2632
  0
DICTIONARY
  5
265D
102
{ACAD_REACTORS
330
262F
102
}
330
262F
100
AcDbDictionary
281
     1
  3
A0
350
265E
  3
A1
350
265F
  3
A2
350
2660
  3
A3
350
2661
  3
A4
350
2662
  3
A5
350
2663
  3
A6
350
2664
  3
A7
350
2665
  3
A8
350
2666
  3
A9
350
2667
  3
B0
350
2668
  3
B1
350
2669
  3
B2
350
266A
  3
B3
350
266B
  3
B4
350
266C
  3
B5
350
266D
  3
B6
350
266E
  3
B7
350
266F
  3
B8
350
2670
  3
B9
350
2671
  3
C0
350
2672
  3
C1
350
2673
  3
C2
350
2674
  3
C3
350
2675
  3
C4
350
2676
  3
C5
350
2677
  3
C6
350
2678
  3
C7
350
2679
  3
C8
350
267A
  3
C9
350
267B
  3
D0
350
267C
  3
D1
350
267D
  3
D2
350
267E
  0
DICTIONARY
  5
268E
102
{ACAD_REACTORS
330
262F
102
}
330
262F
100
AcDbDictionary
281
     1
  3
Standard
350
268F
  0
DICTIONARY
  5
264C
102
{ACAD_REACTORS
330
262F
102
}
330
262F
100
AcDbDictionary
281
     1
  3
2dWireframe
350
2652
  3
3D Hidden
350
2654
  3
3dWireframe
350
2653
  3
Basic
350
2651
  3
Brighten
350
2658
  3
ColorChange
350
265C
  3
Conceptual
350
2655
  3
Dim
350
2657
  3
Facepattern
350
265B
  3
Flat
350
264D
  3
FlatWithEdges
350
264E
  3
Gouraud
350
264F
  3
GouraudWithEdges
350
2650
  3
Linepattern
350
265A
  3
Realistic
350
2656
  3
Thicken
350
2659
  0
XRECORD
  5
2884
102
{ACAD_REACTORS
330
262F
102
}
330
262F
100
AcDbXrecord
280
     1
 90
        1
330
268F
  0
DICTIONARY
  5
287B
102
{ACAD_REACTORS
330
262F
102
}
330
262F
100
AcDbDictionary
281
     1
  3
CANNOSCALE
350
287E
  3
CMLEADERSTYLE
350
287D
  3
CTABLESTYLE
350
287C
  3
DIMASSOC
350
2881
  3
INDEXCTL
350
2880
  3
SORTENTS
350
287F
  0
DICTIONARY
  5
2827
102
{ACAD_REACTORS
330
262F
102
}
330
262F
100
AcDbDictionary
281
     1
  3
AcmStdDictionary
350
2835
  0
DICTIONARY
  5
2774
102
{ACAD_REACTORS
330
262F
102
}
330
262F
100
AcDbDictionary
281
     1
  3
AcMgSettings
350
2775
  0
DICTIONARY
  5
284F
102
{ACAD_REACTORS
330
262F
102
}
330
262F
100
AcDbDictionary
281
     1
  3
DIMENSION
350
2854
  3
FEA
350
2853
  3
HATCH (1)
350
2850
  3
HATCH (2)
350
2851
  3
SIMPLE WELD
350
2855
  3
SYMBOLS
350
2852
  0
XRECORD
  5
2885
102
{ACAD_REACTORS
330
262F
102
}
330
262F
100
AcDbXrecord
280
     1
  1
DWGPROPS COOKIE
  2

  3

  4

  6

  7

  8
A090053
  9

300
AmdtFileType=84
301
=
302
=
303
=
304
=
305
=
306
=
307
=
308
=
309
=
 40
1.03985755787037
 41
2452321.396199653
 42
2456211.591575347
  1

 90
        1
  0
XRECORD
  5
2857
102
{ACAD_REACTORS
330
2856
102
}
330
2856
100
AcDbXrecord
280
     1
290
     1
  0
XRECORD
  5
2859
102
{ACAD_REACTORS
330
2858
102
}
330
2858
100
AcDbXrecord
280
     1
290
     1
  0
XRECORD
  5
285B
102
{ACAD_REACTORS
330
285A
102
}
330
285A
100
AcDbXrecord
280
     1
290
     1
  0
XRECORD
  5
285D
102
{ACAD_REACTORS
330
285C
102
}
330
285C
100
AcDbXrecord
280
     1
290
     1
  0
XRECORD
  5
285F
102
{ACAD_REACTORS
330
285E
102
}
330
285E
100
AcDbXrecord
280
     1
290
     1
  0
XRECORD
  5
2861
102
{ACAD_REACTORS
330
2860
102
}
330
2860
100
AcDbXrecord
280
     1
290
     1
  0
XRECORD
  5
2863
102
{ACAD_REACTORS
330
2862
102
}
330
2862
100
AcDbXrecord
280
     1
290
     1
  0
XRECORD
  5
2865
102
{ACAD_REACTORS
330
2864
102
}
330
2864
100
AcDbXrecord
280
     1
290
     1
  0
XRECORD
  5
2867
102
{ACAD_REACTORS
330
2866
102
}
330
2866
100
AcDbXrecord
280
     1
290
     1
  0
XRECORD
  5
2869
102
{ACAD_REACTORS
330
2868
102
}
330
2868
100
AcDbXrecord
280
     1
290
     1
  0
XRECORD
  5
286B
102
{ACAD_REACTORS
330
286A
102
}
330
286A
100
AcDbXrecord
280
     1
290
     1
  0
DICTIONARY
  5
286D
102
{ACAD_REACTORS
330
286C
102
}
330
286C
100
AcDbDictionary
281
     1
  3
*A1
350
286E
  0
XRECORD
  5
2887
102
{ACAD_REACTORS
330
2886
102
}
330
2886
100
AcDbXrecord
280
     1
 70
     1
  0
XRECORD
  5
2889
102
{ACAD_REACTORS
330
2886
102
}
330
2886
100
AcDbXrecord
280
     1
340
2685
  0
XRECORD
  5
288A
102
{ACAD_REACTORS
330
2886
102
}
330
2886
100
AcDbXrecord
280
     1
340
2685
  0
XRECORD
  5
2888
102
{ACAD_REACTORS
330
2886
102
}
330
2886
100
AcDbXrecord
280
     1
340
2685
  0
LAYOUT
  5
269A
102
{ACAD_XDICTIONARY
360
2891
102
}
102
{ACAD_REACTORS
330
268C
102
}
330
268C
100
AcDbPlotSettings
  1

  2
自動 EPSON LP-9600S (W2450527 上)
  4

  6

 40
0.0
 41
0.0
 42
0.0
 43
0.0
 44
0.0
 45
0.0
 46
0.0
 47
0.0
 48
0.0
 49
0.0
140
0.0
141
0.0
142
1.0
143
1.0
 70
  1712
 72
     0
 73
     0
 74
     0
  7

 75
     0
147
1.0
148
0.0
149
0.0
100
AcDbLayout
  1
Model
 70
     1
 71
     0
 10
0.0
 20
0.0
 11
12.0
 21
9.0
 12
0.0
 22
0.0
 32
0.0
 14
0.0
 24
0.0
 34
0.0
 15
0.0
 25
0.0
 35
0.0
146
0.0
 13
0.0
 23
0.0
 33
0.0
 16
1.0
 26
0.0
 36
0.0
 17
0.0
 27
1.0
 37
0.0
 76
     0
330
2697
331
269B
  0
LAYOUT
  5
2696
102
{ACAD_XDICTIONARY
360
288F
102
}
102
{ACAD_REACTORS
330
268C
102
}
330
268C
100
AcDbPlotSettings
  1

  2
自動 EPSON LP-9600S (W2450527 上)
  4

  6

 40
0.0
 41
0.0
 42
0.0
 43
0.0
 44
0.0
 45
0.0
 46
0.0
 47
0.0
 48
0.0
 49
0.0
140
0.0
141
0.0
142
1.0
143
1.0
 70
   688
 72
     0
 73
     0
 74
     5
  7

 75
    16
147
1.0
148
0.0
149
0.0
100
AcDbLayout
  1
レイアウト1
 70
     1
 71
     1
 10
0.0
 20
0.0
 11
12.0
 21
9.0
 12
0.0
 22
0.0
 32
0.0
 14
1.000000000000000E+20
 24
1.000000000000000E+20
 34
1.000000000000000E+20
 15
-1.000000000000000E+20
 25
-1.000000000000000E+20
 35
-1.000000000000000E+20
146
0.0
 13
0.0
 23
0.0
 33
0.0
 16
1.0
 26
0.0
 36
0.0
 17
0.0
 27
1.0
 37
0.0
 76
     0
330
2693
  0
MATERIAL
  5
263C
102
{ACAD_XDICTIONARY
360
263D
102
}
102
{ACAD_REACTORS
330
2633
102
}
330
2633
100
AcDbMaterial
  1
ByBlock
 72
     0
 43
0.0208333333333333
 43
0.0
 43
0.0
 43
0.0
 43
0.0
 43
0.0208333333333333
 43
0.0
 43
0.0
 43
0.0
 43
0.0
 43
1.0
 43
0.0
 43
0.0
 43
0.0
 43
0.0
 43
1.0
 77
     0
 47
0.0208333333333333
 47
0.0
 47
0.0
 47
0.0
 47
0.0
 47
0.0208333333333333
 47
0.0
 47
0.0
 47
0.0
 47
0.0
 47
1.0
 47
0.0
 47
0.0
 47
0.0
 47
0.0
 47
1.0
171
     0
 49
0.0208333333333333
 49
0.0
 49
0.0
 49
0.0
 49
0.0
 49
0.0208333333333333
 49
0.0
 49
0.0
 49
0.0
 49
0.0
 49
1.0
 49
0.0
 49
0.0
 49
0.0
 49
0.0
 49
1.0
175
     0
142
0.0208333333333333
142
0.0
142
0.0
142
0.0
142
0.0
142
0.0208333333333333
142
0.0
142
0.0
142
0.0
142
0.0
142
1.0
142
0.0
142
0.0
142
0.0
142
0.0
142
1.0
179
     0
144
0.0208333333333333
144
0.0
144
0.0
144
0.0
144
0.0
144
0.0208333333333333
144
0.0
144
0.0
144
0.0
144
0.0
144
1.0
144
0.0
144
0.0
144
0.0
144
0.0
144
1.0
147
0.0208333333333333
147
0.0
147
0.0
147
0.0
147
0.0
147
0.0208333333333333
147
0.0
147
0.0
147
0.0
147
0.0
147
1.0
147
0.0
147
0.0
147
0.0
147
0.0
147
1.0
  0
MATERIAL
  5
2634
102
{ACAD_XDICTIONARY
360
2635
102
}
102
{ACAD_REACTORS
330
2633
102
}
330
2633
100
AcDbMaterial
  1
ByLayer
 72
     0
 43
0.0208333333333333
 43
0.0
 43
0.0
 43
0.0
 43
0.0
 43
0.0208333333333333
 43
0.0
 43
0.0
 43
0.0
 43
0.0
 43
1.0
 43
0.0
 43
0.0
 43
0.0
 43
0.0
 43
1.0
 77
     0
 47
0.0208333333333333
 47
0.0
 47
0.0
 47
0.0
 47
0.0
 47
0.0208333333333333
 47
0.0
 47
0.0
 47
0.0
 47
0.0
 47
1.0
 47
0.0
 47
0.0
 47
0.0
 47
0.0
 47
1.0
171
     0
 49
0.0208333333333333
 49
0.0
 49
0.0
 49
0.0
 49
0.0
 49
0.0208333333333333
 49
0.0
 49
0.0
 49
0.0
 49
0.0
 49
1.0
 49
0.0
 49
0.0
 49
0.0
 49
0.0
 49
1.0
175
     0
142
0.0208333333333333
142
0.0
142
0.0
142
0.0
142
0.0
142
0.0208333333333333
142
0.0
142
0.0
142
0.0
142
0.0
142
1.0
142
0.0
142
0.0
142
0.0
142
0.0
142
1.0
179
     0
144
0.0208333333333333
144
0.0
144
0.0
144
0.0
144
0.0
144
0.0208333333333333
144
0.0
144
0.0
144
0.0
144
0.0
144
1.0
144
0.0
144
0.0
144
0.0
144
0.0
144
1.0
147
0.0208333333333333
147
0.0
147
0.0
147
0.0
147
0.0
147
0.0208333333333333
147
0.0
147
0.0
147
0.0
147
0.0
147
1.0
147
0.0
147
0.0
147
0.0
147
0.0
147
1.0
  0
MATERIAL
  5
2644
102
{ACAD_XDICTIONARY
360
2645
102
}
102
{ACAD_REACTORS
330
2633
102
}
330
2633
100
AcDbMaterial
  1
Global
 72
     0
 43
0.0208333333333333
 43
0.0
 43
0.0
 43
0.0
 43
0.0
 43
0.0208333333333333
 43
0.0
 43
0.0
 43
0.0
 43
0.0
 43
1.0
 43
0.0
 43
0.0
 43
0.0
 43
0.0
 43
1.0
 77
     0
 47
0.0208333333333333
 47
0.0
 47
0.0
 47
0.0
 47
0.0
 47
0.0208333333333333
 47
0.0
 47
0.0
 47
0.0
 47
0.0
 47
1.0
 47
0.0
 47
0.0
 47
0.0
 47
0.0
 47
1.0
171
     0
 49
0.0208333333333333
 49
0.0
 49
0.0
 49
0.0
 49
0.0
 49
0.0208333333333333
 49
0.0
 49
0.0
 49
0.0
 49
0.0
 49
1.0
 49
0.0
 49
0.0
 49
0.0
 49
0.0
 49
1.0
175
     0
142
0.0208333333333333
142
0.0
142
0.0
142
0.0
142
0.0
142
0.0208333333333333
142
0.0
142
0.0
142
0.0
142
0.0
142
1.0
142
0.0
142
0.0
142
0.0
142
0.0
142
1.0
179
     0
144
0.0208333333333333
144
0.0
144
0.0
144
0.0
144
0.0
144
0.0208333333333333
144
0.0
144
0.0
144
0.0
144
0.0
144
1.0
144
0.0
144
0.0
144
0.0
144
0.0
144
1.0
147
0.0208333333333333
147
0.0
147
0.0
147
0.0
147
0.0
147
0.0208333333333333
147
0.0
147
0.0
147
0.0
147
0.0
147
1.0
147
0.0
147
0.0
147
0.0
147
0.0
147
1.0
  0
MLEADERSTYLE
  5
2691
102
{ACAD_REACTORS
330
2690
102
}
330
2690
100
AcDbMLeaderStyle
170
     2
171
     1
172
     0
 90
        2
 40
0.0
 41
0.0
173
     1
 91
-1056964608
340
2685
 92
       -2
290
     1
 42
0.09
291
     1
 43
0.36
  3
Standard
 44
0.18
300

342
2680
174
     1
178
     6
175
     1
176
     0
 93
-1056964608
 45
0.18
292
     0
297
     0
 46
0.18
 94
-1056964608
 47
1.0
 49
1.0
140
1.0
293
     1
141
0.0
294
     1
177
     0
142
1.0
295
     0
296
     0
143
0.125
1001
ACAD_MLEADERVER
1070
     2
  0
MLINESTYLE
  5
268A
102
{ACAD_REACTORS
330
2689
102
}
330
2689
100
AcDbMlineStyle
  2
STANDARD
 70
     0
  3

 62
   256
 51
90.0
 52
90.0
 71
     2
 49
0.5
 62
   256
  6
BYLAYER
 49
-0.5
 62
   256
  6
BYLAYER
  0
ACDBPLACEHOLDER
  5
2632
102
{ACAD_REACTORS
330
2631
102
}
330
2631
  0
SCALE
  5
265E
102
{ACAD_REACTORS
330
265D
102
}
330
265D
100
AcDbScale
 70
     0
300
1:1
140
1.0
141
1.0
290
     1
  0
SCALE
  5
265F
102
{ACAD_REACTORS
330
265D
102
}
330
265D
100
AcDbScale
 70
     0
300
1:2
140
1.0
141
2.0
290
     0
  0
SCALE
  5
2660
102
{ACAD_REACTORS
330
265D
102
}
330
265D
100
AcDbScale
 70
     0
300
1:4
140
1.0
141
4.0
290
     0
  0
SCALE
  5
2661
102
{ACAD_REACTORS
330
265D
102
}
330
265D
100
AcDbScale
 70
     0
300
1:5
140
1.0
141
5.0
290
     0
  0
SCALE
  5
2662
102
{ACAD_REACTORS
330
265D
102
}
330
265D
100
AcDbScale
 70
     0
300
1:8
140
1.0
141
8.0
290
     0
  0
SCALE
  5
2663
102
{ACAD_REACTORS
330
265D
102
}
330
265D
100
AcDbScale
 70
     0
300
1:10
140
1.0
141
10.0
290
     0
  0
SCALE
  5
2664
102
{ACAD_REACTORS
330
265D
102
}
330
265D
100
AcDbScale
 70
     0
300
1:16
140
1.0
141
16.0
290
     0
  0
SCALE
  5
2665
102
{ACAD_REACTORS
330
265D
102
}
330
265D
100
AcDbScale
 70
     0
300
1:20
140
1.0
141
20.0
290
     0
  0
SCALE
  5
2666
102
{ACAD_REACTORS
330
265D
102
}
330
265D
100
AcDbScale
 70
     0
300
1:30
140
1.0
141
30.0
290
     0
  0
SCALE
  5
2667
102
{ACAD_REACTORS
330
265D
102
}
330
265D
100
AcDbScale
 70
     0
300
1:40
140
1.0
141
40.0
290
     0
  0
SCALE
  5
2668
102
{ACAD_REACTORS
330
265D
102
}
330
265D
100
AcDbScale
 70
     0
300
1:50
140
1.0
141
50.0
290
     0
  0
SCALE
  5
2669
102
{ACAD_REACTORS
330
265D
102
}
330
265D
100
AcDbScale
 70
     0
300
1:100
140
1.0
141
100.0
290
     0
  0
SCALE
  5
266A
102
{ACAD_REACTORS
330
265D
102
}
330
265D
100
AcDbScale
 70
     0
300
2:1
140
2.0
141
1.0
290
     0
  0
SCALE
  5
266B
102
{ACAD_REACTORS
330
265D
102
}
330
265D
100
AcDbScale
 70
     0
300
4:1
140
4.0
141
1.0
290
     0
  0
SCALE
  5
266C
102
{ACAD_REACTORS
330
265D
102
}
330
265D
100
AcDbScale
 70
     0
300
8:1
140
8.0
141
1.0
290
     0
  0
SCALE
  5
266D
102
{ACAD_REACTORS
330
265D
102
}
330
265D
100
AcDbScale
 70
     0
300
10:1
140
10.0
141
1.0
290
     0
  0
SCALE
  5
266E
102
{ACAD_REACTORS
330
265D
102
}
330
265D
100
AcDbScale
 70
     0
300
100:1
140
100.0
141
1.0
290
     0
  0
SCALE
  5
266F
102
{ACAD_REACTORS
330
265D
102
}
330
265D
100
AcDbScale
 70
     0
300
1/128" = 1'-0"
140
0.0078125
141
12.0
290
     0
  0
SCALE
  5
2670
102
{ACAD_REACTORS
330
265D
102
}
330
265D
100
AcDbScale
 70
     0
300
1/64" = 1'-0"
140
0.015625
141
12.0
290
     0
  0
SCALE
  5
2671
102
{ACAD_REACTORS
330
265D
102
}
330
265D
100
AcDbScale
 70
     0
300
1/32" = 1'-0"
140
0.03125
141
12.0
290
     0
  0
SCALE
  5
2672
102
{ACAD_REACTORS
330
265D
102
}
330
265D
100
AcDbScale
 70
     0
300
1/16" = 1'-0"
140
0.0625
141
12.0
290
     0
  0
SCALE
  5
2673
102
{ACAD_REACTORS
330
265D
102
}
330
265D
100
AcDbScale
 70
     0
300
3/32" = 1'-0"
140
0.09375
141
12.0
290
     0
  0
SCALE
  5
2674
102
{ACAD_REACTORS
330
265D
102
}
330
265D
100
AcDbScale
 70
     0
300
1/8" = 1'-0"
140
0.125
141
12.0
290
     0
  0
SCALE
  5
2675
102
{ACAD_REACTORS
330
265D
102
}
330
265D
100
AcDbScale
 70
     0
300
3/16" = 1'-0"
140
0.1875
141
12.0
290
     0
  0
SCALE
  5
2676
102
{ACAD_REACTORS
330
265D
102
}
330
265D
100
AcDbScale
 70
     0
300
1/4" = 1'-0"
140
0.25
141
12.0
290
     0
  0
SCALE
  5
2677
102
{ACAD_REACTORS
330
265D
102
}
330
265D
100
AcDbScale
 70
     0
300
3/8" = 1'-0"
140
0.375
141
12.0
290
     0
  0
SCALE
  5
2678
102
{ACAD_REACTORS
330
265D
102
}
330
265D
100
AcDbScale
 70
     0
300
1/2" = 1'-0"
140
0.5
141
12.0
290
     0
  0
SCALE
  5
2679
102
{ACAD_REACTORS
330
265D
102
}
330
265D
100
AcDbScale
 70
     0
300
3/4" = 1'-0"
140
0.75
141
12.0
290
     0
  0
SCALE
  5
267A
102
{ACAD_REACTORS
330
265D
102
}
330
265D
100
AcDbScale
 70
     0
300
1" = 1'-0"
140
1.0
141
12.0
290
     0
  0
SCALE
  5
267B
102
{ACAD_REACTORS
330
265D
102
}
330
265D
100
AcDbScale
 70
     0
300
1-1/2" = 1'-0"
140
1.5
141
12.0
290
     0
  0
SCALE
  5
267C
102
{ACAD_REACTORS
330
265D
102
}
330
265D
100
AcDbScale
 70
     0
300
3" = 1'-0"
140
3.0
141
12.0
290
     0
  0
SCALE
  5
267D
102
{ACAD_REACTORS
330
265D
102
}
330
265D
100
AcDbScale
 70
     0
300
6" = 1'-0"
140
6.0
141
12.0
290
     0
  0
SCALE
  5
267E
102
{ACAD_REACTORS
330
265D
102
}
330
265D
100
AcDbScale
 70
     0
300
1'-0" = 1'-0"
140
12.0
141
12.0
290
     0
  0
TABLESTYLE
  5
268F
102
{ACAD_XDICTIONARY
360
2882
102
}
102
{ACAD_REACTORS
330
268E
102
}
330
268E
100
AcDbTableStyle
  3
Standard
 70
     0
 71
     0
 40
0.06
 41
0.06
280
     0
281
     0
  7
STANDARD
140
0.18
170
     2
 62
     0
 63
     7
283
     0
274
    -2
284
     1
 64
     0
275
    -2
285
     1
 65
     0
276
    -2
286
     1
 66
     0
277
    -2
287
     1
 67
     0
278
    -2
288
     1
 68
     0
279
    -2
289
     1
 69
     0
  7
STANDARD
140
0.25
170
     5
 62
     0
 63
     7
283
     0
274
    -2
284
     1
 64
     0
275
    -2
285
     1
 65
     0
276
    -2
286
     1
 66
     0
277
    -2
287
     1
 67
     0
278
    -2
288
     1
 68
     0
279
    -2
289
     1
 69
     0
  7
STANDARD
140
0.18
170
     5
 62
     0
 63
     7
283
     0
274
    -2
284
     1
 64
     0
275
    -2
285
     1
 65
     0
276
    -2
286
     1
 66
     0
277
    -2
287
     1
 67
     0
278
    -2
288
     1
 68
     0
279
    -2
289
     1
 69
     0
  0
VISUALSTYLE
  5
2652
102
{ACAD_REACTORS
330
264C
102
}
330
264C
100
AcDbVisualStyle
  2
2dWireframe
 70
     4
 71
     0
 72
     2
 73
     0
 90
        0
 40
-0.6
 41
-30.0
 62
     5
 63
     7
 74
     1
 91
        4
 64
     7
 65
   257
 75
     1
175
     1
 42
1.0
 92
        0
 66
   257
 43
1.0
 76
     1
 77
     6
 78
     2
 67
     7
 79
     5
170
     0
171
     0
290
     0
174
     0
 93
        1
 44
0.0
173
     0
291
     0
 45
0.0
1001
ACAD
1000
AcDbSavedByObjectVersion
1070
     0
  0
VISUALSTYLE
  5
2654
102
{ACAD_REACTORS
330
264C
102
}
330
264C
100
AcDbVisualStyle
  2
3D Hidden
 70
     6
 71
     1
 72
     2
 73
     2
 90
        0
 40
-0.6
 41
-30.0
 62
     5
 63
     7
 74
     2
 91
        2
 64
     7
 65
   257
 75
     2
175
     1
 42
40.0
 92
        0
 66
   257
 43
1.0
 76
     1
 77
     6
 78
     2
 67
     7
 79
     3
170
     0
171
     0
290
     0
174
     0
 93
        1
 44
0.0
173
     0
291
     0
 45
0.0
1001
ACAD
1000
AcDbSavedByObjectVersion
1070
     0
  0
VISUALSTYLE
  5
2653
102
{ACAD_REACTORS
330
264C
102
}
330
264C
100
AcDbVisualStyle
  2
3dWireframe
 70
     5
 71
     0
 72
     2
 73
     0
 90
        0
 40
-0.6
 41
-30.0
 62
     5
 63
     7
 74
     1
 91
        4
 64
     7
 65
   257
 75
     1
175
     1
 42
1.0
 92
        0
 66
   257
 43
1.0
 76
     1
 77
     6
 78
     2
 67
     7
 79
     5
170
     0
171
     0
290
     0
174
     0
 93
        1
 44
0.0
173
     0
291
     0
 45
0.0
1001
ACAD
1000
AcDbSavedByObjectVersion
1070
     0
  0
VISUALSTYLE
  5
2651
102
{ACAD_REACTORS
330
264C
102
}
330
264C
100
AcDbVisualStyle
  2
Basic
 70
     7
 71
     1
 72
     0
 73
     1
 90
        0
 40
-0.6
 41
-30.0
 62
     5
 63
     7
 74
     0
 91
        4
 64
     7
 65
   257
 75
     1
175
     1
 42
1.0
 92
        8
 66
     7
 43
1.0
 76
     1
 77
     6
 78
     2
 67
     7
 79
     5
170
     0
171
     0
290
     0
174
     0
 93
        1
 44
0.0
173
     0
291
     1
 45
0.0
1001
ACAD
1000
AcDbSavedByObjectVersion
1070
     0
  0
VISUALSTYLE
  5
2658
102
{ACAD_REACTORS
330
264C
102
}
330
264C
100
AcDbVisualStyle
  2
Brighten
 70
    12
 71
     2
 72
     2
 73
     0
 90
        0
 40
-0.6
 41
-30.0
 62
     5
 63
     7
 74
     1
 91
        4
 64
     7
 65
   257
 75
     1
175
     1
 42
1.0
 92
        8
 66
     7
 43
1.0
 76
     1
 77
     6
 78
     2
 67
     7
 79
     5
170
     0
171
     0
290
     0
174
     0
 93
        1
 44
50.0
173
     0
291
     1
 45
0.0
1001
ACAD
1000
AcDbSavedByObjectVersion
1070
     0
  0
VISUALSTYLE
  5
265C
102
{ACAD_REACTORS
330
264C
102
}
330
264C
100
AcDbVisualStyle
  2
ColorChange
 70
    16
 71
     2
 72
     2
 73
     3
 90
        0
 40
-0.6
 41
-30.0
 62
     5
 63
     8
 74
     1
 91
        4
 64
     7
 65
   257
 75
     1
175
     1
 42
1.0
 92
        8
 66
     8
 43
1.0
 76
     1
 77
     6
 78
     2
 67
     7
 79
     5
170
     0
171
     0
290
     0
174
     0
 93
        1
 44
0.0
173
     0
291
     1
 45
0.0
1001
ACAD
1000
AcDbSavedByObjectVersion
1070
     0
  0
VISUALSTYLE
  5
2655
102
{ACAD_REACTORS
330
264C
102
}
330
264C
100
AcDbVisualStyle
  2
Conceptual
 70
     9
 71
     3
 72
     2
 73
     0
 90
        0
 40
-0.6
 41
-30.0
 62
     5
 63
     7
 74
     2
 91
        2
 64
     7
 65
   257
 75
     1
175
     1
 42
40.0
 92
        8
 66
     7
 43
1.0
 76
     1
 77
     6
 78
     2
 67
     7
 79
     3
170
     0
171
     0
290
     0
174
     0
 93
        1
 44
0.0
173
     0
291
     0
 45
0.0
1001
ACAD
1000
AcDbSavedByObjectVersion
1070
     0
  0
VISUALSTYLE
  5
2657
102
{ACAD_REACTORS
330
264C
102
}
330
264C
100
AcDbVisualStyle
  2
Dim
 70
    11
 71
     2
 72
     2
 73
     0
 90
        0
 40
-0.6
 41
-30.0
 62
     5
 63
     7
 74
     1
 91
        4
 64
     7
 65
   257
 75
     1
175
     1
 42
1.0
 92
        8
 66
     7
 43
1.0
 76
     1
 77
     6
 78
     2
 67
     7
 79
     5
170
     0
171
     0
290
     0
174
     0
 93
        1
 44
-50.0
173
     0
291
     1
 45
0.0
1001
ACAD
1000
AcDbSavedByObjectVersion
1070
     0
  0
VISUALSTYLE
  5
265B
102
{ACAD_REACTORS
330
264C
102
}
330
264C
100
AcDbVisualStyle
  2
Facepattern
 70
    15
 71
     2
 72
     2
 73
     0
 90
        0
 40
-0.6
 41
-30.0
 62
     5
 63
     7
 74
     1
 91
        4
 64
     7
 65
   257
 75
     1
175
     1
 42
1.0
 92
        8
 66
     7
 43
1.0
 76
     1
 77
     6
 78
     2
 67
     7
 79
     5
170
     0
171
     0
290
     0
174
     0
 93
        1
 44
0.0
173
     0
291
     1
 45
0.0
1001
ACAD
1000
AcDbSavedByObjectVersion
1070
     0
  0
VISUALSTYLE
  5
264D
102
{ACAD_REACTORS
330
264C
102
}
330
264C
100
AcDbVisualStyle
  2
Flat
 70
     0
 71
     2
 72
     1
 73
     1
 90
        2
 40
-0.6
 41
30.0
 62
     5
 63
     7
 74
     0
 91
        4
 64
     7
 65
   257
 75
     1
175
     1
 42
1.0
 92
        8
 66
     7
 43
1.0
 76
     1
 77
     6
 78
     2
 67
     7
 79
     5
170
     0
171
     0
290
     0
174
     0
 93
       13
 44
0.0
173
     0
291
     1
 45
0.0
1001
ACAD
1000
AcDbSavedByObjectVersion
1070
     0
  0
VISUALSTYLE
  5
264E
102
{ACAD_REACTORS
330
264C
102
}
330
264C
100
AcDbVisualStyle
  2
FlatWithEdges
 70
     1
 71
     2
 72
     1
 73
     1
 90
        2
 40
-0.6
 41
30.0
 62
     5
 63
     7
 74
     1
 91
        4
 64
     7
 65
   257
 75
     1
175
     1
 42
1.0
 92
        0
 66
   257
 43
1.0
 76
     1
 77
     6
 78
     2
 67
     7
 79
     5
170
     0
171
     0
290
     0
174
     0
 93
       13
 44
0.0
173
     0
291
     1
 45
0.0
1001
ACAD
1000
AcDbSavedByObjectVersion
1070
     0
  0
VISUALSTYLE
  5
264F
102
{ACAD_REACTORS
330
264C
102
}
330
264C
100
AcDbVisualStyle
  2
Gouraud
 70
     2
 71
     2
 72
     2
 73
     1
 90
        2
 40
-0.6
 41
30.0
 62
     5
 63
     7
 74
     0
 91
        4
 64
     7
 65
   257
 75
     1
175
     1
 42
1.0
 92
        0
 66
     7
 43
1.0
 76
     1
 77
     6
 78
     2
 67
     7
 79
     5
170
     0
171
     0
290
     0
174
     0
 93
       13
 44
0.0
173
     0
291
     1
 45
0.0
1001
ACAD
1000
AcDbSavedByObjectVersion
1070
     0
  0
VISUALSTYLE
  5
2650
102
{ACAD_REACTORS
330
264C
102
}
330
264C
100
AcDbVisualStyle
  2
GouraudWithEdges
 70
     3
 71
     2
 72
     2
 73
     1
 90
        2
 40
-0.6
 41
30.0
 62
     5
 63
     7
 74
     1
 91
        4
 64
     7
 65
   257
 75
     1
175
     1
 42
1.0
 92
        0
 66
   257
 43
1.0
 76
     1
 77
     6
 78
     2
 67
     7
 79
     5
170
     0
171
     0
290
     0
174
     0
 93
       13
 44
0.0
173
     0
291
     1
 45
0.0
1001
ACAD
1000
AcDbSavedByObjectVersion
1070
     0
  0
VISUALSTYLE
  5
265A
102
{ACAD_REACTORS
330
264C
102
}
330
264C
100
AcDbVisualStyle
  2
Linepattern
 70
    14
 71
     2
 72
     2
 73
     0
 90
        0
 40
-0.6
 41
-30.0
 62
     5
 63
     7
 74
     1
 91
        4
 64
     7
 65
   257
 75
     7
175
     7
 42
1.0
 92
        8
 66
     7
 43
1.0
 76
     1
 77
     6
 78
     2
 67
     7
 79
     5
170
     0
171
     0
290
     0
174
     0
 93
        1
 44
0.0
173
     0
291
     1
 45
0.0
1001
ACAD
1000
AcDbSavedByObjectVersion
1070
     0
  0
VISUALSTYLE
  5
2656
102
{ACAD_REACTORS
330
264C
102
}
330
264C
100
AcDbVisualStyle
  2
Realistic
 70
     8
 71
     2
 72
     2
 73
     0
 90
        0
 40
-0.6
 41
-30.0
 62
     5
 63
     7
 74
     1
 91
        0
 64
     7
 65
   257
 75
     1
175
     1
 42
1.0
 92
        8
 66
     8
 43
1.0
 76
     1
 77
     6
 78
     2
 67
     7
 79
     5
170
     0
171
     0
290
     0
174
     0
 93
       13
 44
0.0
173
     0
291
     0
 45
0.0
1001
ACAD
1000
AcDbSavedByObjectVersion
1070
     0
  0
VISUALSTYLE
  5
2659
102
{ACAD_REACTORS
330
264C
102
}
330
264C
100
AcDbVisualStyle
  2
Thicken
 70
    13
 71
     2
 72
     2
 73
     0
 90
        0
 40
-0.6
 41
-30.0
 62
     5
 63
     7
 74
     1
 91
        4
 64
     7
 65
   257
 75
     1
175
     1
 42
1.0
 92
       12
 66
     7
 43
1.0
 76
     1
 77
     6
 78
     2
 67
     7
 79
     5
170
     0
171
     0
290
     0
174
     0
 93
        1
 44
0.0
173
     0
291
     1
 45
0.0
1001
ACAD
1000
AcDbSavedByObjectVersion
1070
     0
  0
DICTIONARYVAR
  5
287E
102
{ACAD_REACTORS
330
287B
102
}
330
287B
100
DictionaryVariables
280
     0
  1
1:1
  0
DICTIONARYVAR
  5
287D
102
{ACAD_REACTORS
330
287B
102
}
330
287B
100
DictionaryVariables
280
     0
  1
STANDARD
  0
DICTIONARYVAR
  5
287C
102
{ACAD_REACTORS
330
287B
102
}
330
287B
100
DictionaryVariables
280
     0
  1
STANDARD
  0
DICTIONARYVAR
  5
2881
102
{ACAD_REACTORS
330
287B
102
}
330
287B
100
DictionaryVariables
280
     0
  1
1
  0
DICTIONARYVAR
  5
2880
102
{ACAD_REACTORS
330
287B
102
}
330
287B
100
DictionaryVariables
280
     0
  1
1
  0
DICTIONARYVAR
  5
287F
102
{ACAD_REACTORS
330
287B
102
}
330
287B
100
DictionaryVariables
280
     0
  1
127
  0
DICTIONARY
  5
2835
102
{ACAD_REACTORS
330
2827
102
}
330
2827
100
AcDbDictionary
281
     1
  0
DICTIONARY
  5
2775
102
{ACAD_REACTORS
330
2774
102
}
330
2774
100
AcDbDictionary
281
     1
  3
DWGSETTINGS
350
2776
  3
TRANSSETTINGS
350
2777
  0
ACAMGFILTERDAT
  5
2854
102
{ACAD_REACTORS
330
284F
102
}
330
284F
100
AcAmgFilterDat
 70
    15
  1
DIMENSION,AMDT_*_DIM
  2
*
  3
*
  4
*
  5
*
290
     1
  0
ACAMGFILTERDAT
  5
2853
102
{ACAD_REACTORS
330
284F
102
}
330
284F
100
AcAmgFilterDat
 70
    15
  1
*
  2
AM_FEA-AM_*
  3
*
  4
*
  5
*
290
     1
  0
ACAMGFILTERDAT
  5
2850
102
{ACAD_REACTORS
330
284F
102
}
330
284F
100
AcAmgFilterDat
 70
    15
  1
HATCH
  2
*
  3
*
  4
*
  5
*
290
     1
  0
ACAMGFILTERDAT
  5
2851
102
{ACAD_REACTORS
330
284F
102
}
330
284F
100
AcAmgFilterDat
 70
    15
  1
LINE
  2
8,8N,*-8,*-8N,AM_8,AM_8N,*-AM_8,*-AM_8N
  3
*
  4
*
  5
INSERT,STDPART2D
290
     1
  0
ACAMGFILTERDAT
  5
2855
102
{ACAD_REACTORS
330
284F
102
}
330
284F
100
AcAmgFilterDat
 70
    15
  1
ARC
  2
AM_5
  3
*
  4
2
  5
INSERT
290
     0
  0
ACAMGFILTERDAT
  5
2852
102
{ACAD_REACTORS
330
284F
102
}
330
284F
100
AcAmgFilterDat
 70
    15
  1
ACMFCFRAME,ACMDATUMTARGET,ACMDATUMID,ACMWELDSYM,ACMSURFSYM,ACMFEATID,ACMPARTREF,ACMBALLOON,AMDTEDGESYM,AMGSCREWCALCTABLE,ACMMARKSTAMP
  2
*
  3
*
  4
*
  5
*
290
     1
  0
LAYER_INDEX
  5
286E
102
{ACAD_REACTORS
330
286D
102
}
330
286D
100
AcDbIndex
 40
2456211.591575347
100
AcDbLayerIndex
  8
0
360
286F
 90
        2
  8
OUTLINE
360
2870
 90
       32
  8
SIZE
360
2871
 90
       38
  8
BASIS
360
2872
 90
        1
  8
DETAIL
360
2873
 90
       38
  8
ARRANGE
360
2874
 90
        3
  8
DEFPOINTS
360
2875
 90
        0
  8
ETC
360
2876
 90
        3
  8
FIX
360
2877
 90
        0
  8
NOTE
360
2878
 90
        4
  8
SERVICESPACE
360
2879
 90
        0
  8
SYMBOLLINE
360
287A
 90
        0
  0
DICTIONARY
  5
2891
330
269A
100
AcDbDictionary
280
     1
281
     1
  3
ACAD_XREC_ROUNDTRIP
360
2892
  0
DICTIONARY
  5
288F
330
2696
100
AcDbDictionary
280
     1
281
     1
  3
ACAD_XREC_ROUNDTRIP
360
2890
  0
DICTIONARY
  5
263D
330
263C
100
AcDbDictionary
280
     1
281
     1
  3
ACAD_XREC_ROUNDTRIP
360
288C
  3
BUMPTILE
360
263F
  3
DIFFUSETILE
360
263E
  3
OPACITYTILE
360
2642
  3
REFLECTIONTILE
360
2641
  3
REFRACTIONTILE
360
2643
  3
SPECULARTILE
360
2640
  0
DICTIONARY
  5
2635
330
2634
100
AcDbDictionary
280
     1
281
     1
  3
ACAD_XREC_ROUNDTRIP
360
288B
  3
BUMPTILE
360
2637
  3
DIFFUSETILE
360
2636
  3
OPACITYTILE
360
263A
  3
REFLECTIONTILE
360
2639
  3
REFRACTIONTILE
360
263B
  3
SPECULARTILE
360
2638
  0
DICTIONARY
  5
2645
330
2644
100
AcDbDictionary
280
     1
281
     1
  3
ACAD_XREC_ROUNDTRIP
360
288D
  3
BUMPTILE
360
2647
  3
DIFFUSETILE
360
2646
  3
OPACITYTILE
360
264A
  3
REFLECTIONTILE
360
2649
  3
REFRACTIONTILE
360
264B
  3
SPECULARTILE
360
2648
  0
DICTIONARY
  5
2882
330
268F
100
AcDbDictionary
280
     1
281
     1
  3
ACAD_ROUNDTRIP_2008_TABLESTYLE_CELLSTYLEMAP
360
2883
  3
ACAD_XREC_ROUNDTRIP
360
288E
  0
IDBUFFER
  5
286F
330
0
100
AcDbIdBuffer
330
25B7
330
25B8
  0
IDBUFFER
  5
2870
330
0
100
AcDbIdBuffer
330
25C5
330
25C6
330
25C7
330
25C8
330
25C9
330
25CA
330
25CB
330
25CC
330
25CD
330
25CE
330
25CF
330
25D0
330
25D1
330
25D2
330
25D3
330
25D4
330
953
330
954
330
955
330
956
330
957
330
958
330
25BB
330
25BC
330
25BD
330
25BE
330
25BF
330
25C0
330
25C1
330
25C2
330
25C3
330
25C4
  0
IDBUFFER
  5
2871
330
0
100
AcDbIdBuffer
330
25EE
330
25EF
330
25F0
330
25F1
330
25F2
330
25F3
330
25F4
330
25F5
330
25F6
330
25F7
330
25F8
330
25F9
330
25FA
330
25FB
330
25FC
330
25FD
330
25FE
330
25FF
330
2600
330
2601
330
2602
330
2603
330
25DE
330
25DF
330
25E0
330
25E1
330
25E2
330
25E3
330
25E4
330
25E5
330
25E6
330
25E7
330
25E8
330
25E9
330
25EA
330
25EB
330
25EC
330
25ED
  0
IDBUFFER
  5
2872
330
0
100
AcDbIdBuffer
330
259D
  0
IDBUFFER
  5
2873
330
0
100
AcDbIdBuffer
330
25A7
330
25A8
330
25A9
330
25AA
330
25AB
330
25AC
330
25AD
330
25AE
330
25AF
330
25B0
330
25B1
330
25B2
330
25B3
330
25B4
330
25B5
330
25B6
330
25D5
330
25D6
330
25D7
330
25D8
330
25D9
330
25DA
330
2593
330
2594
330
2595
330
2596
330
2597
330
2598
330
2599
330
259E
330
259F
330
25A0
330
25A1
330
25A2
330
25A3
330
25A4
330
25A5
330
25A6
  0
IDBUFFER
  5
2874
330
0
100
AcDbIdBuffer
330
259A
330
259B
330
259C
  0
IDBUFFER
  5
2875
330
0
100
AcDbIdBuffer
  0
IDBUFFER
  5
2876
330
0
100
AcDbIdBuffer
330
25DB
330
25DC
330
25DD
  0
IDBUFFER
  5
2877
330
0
100
AcDbIdBuffer
  0
IDBUFFER
  5
2878
330
0
100
AcDbIdBuffer
330
2591
330
2592
330
25B9
330
25BA
  0
IDBUFFER
  5
2879
330
0
100
AcDbIdBuffer
  0
IDBUFFER
  5
287A
330
0
100
AcDbIdBuffer
  0
XRECORD
  5
2892
102
{ACAD_REACTORS
330
2891
102
}
330
2891
100
AcDbXrecord
280
     1
102
SHADEPLOT
 70
     0
102
SHADEPLOTRESLEVEL
 70
     2
102
SHADEPLOTCUSTOMDPI
 70
   300
  0
XRECORD
  5
2890
102
{ACAD_REACTORS
330
288F
102
}
330
288F
100
AcDbXrecord
280
     1
102
SHADEPLOT
 70
     0
102
SHADEPLOTRESLEVEL
 70
     2
102
SHADEPLOTCUSTOMDPI
 70
   300
  0
XRECORD
  5
288C
102
{ACAD_REACTORS
330
263D
102
}
330
263D
100
AcDbXrecord
280
     1
102
MATERIAL
148
0.0
149
0.0
149
0.0
 93
        0
 94
      127
282
     0
 72
     0
 77
     0
171
     0
175
     0
179
     0
273
     0
  0
XRECORD
  5
263F
102
{ACAD_REACTORS
330
263D
102
}
330
263D
100
AcDbXrecord
280
     1
270
     1
271
     1
  0
XRECORD
  5
263E
102
{ACAD_REACTORS
330
263D
102
}
330
263D
100
AcDbXrecord
280
     1
270
     1
271
     1
  0
XRECORD
  5
2642
102
{ACAD_REACTORS
330
263D
102
}
330
263D
100
AcDbXrecord
280
     1
270
     1
271
     1
  0
XRECORD
  5
2641
102
{ACAD_REACTORS
330
263D
102
}
330
263D
100
AcDbXrecord
280
     1
270
     1
271
     1
  0
XRECORD
  5
2643
102
{ACAD_REACTORS
330
263D
102
}
330
263D
100
AcDbXrecord
280
     1
270
     1
271
     1
  0
XRECORD
  5
2640
102
{ACAD_REACTORS
330
263D
102
}
330
263D
100
AcDbXrecord
280
     1
270
     1
271
     1
  0
XRECORD
  5
288B
102
{ACAD_REACTORS
330
2635
102
}
330
2635
100
AcDbXrecord
280
     1
102
MATERIAL
148
0.0
149
0.0
149
0.0
 93
        0
 94
      127
282
     0
 72
     0
 77
     0
171
     0
175
     0
179
     0
273
     0
  0
XRECORD
  5
2637
102
{ACAD_REACTORS
330
2635
102
}
330
2635
100
AcDbXrecord
280
     1
270
     1
271
     1
  0
XRECORD
  5
2636
102
{ACAD_REACTORS
330
2635
102
}
330
2635
100
AcDbXrecord
280
     1
270
     1
271
     1
  0
XRECORD
  5
263A
102
{ACAD_REACTORS
330
2635
102
}
330
2635
100
AcDbXrecord
280
     1
270
     1
271
     1
  0
XRECORD
  5
2639
102
{ACAD_REACTORS
330
2635
102
}
330
2635
100
AcDbXrecord
280
     1
270
     1
271
     1
  0
XRECORD
  5
263B
102
{ACAD_REACTORS
330
2635
102
}
330
2635
100
AcDbXrecord
280
     1
270
     1
271
     1
  0
XRECORD
  5
2638
102
{ACAD_REACTORS
330
2635
102
}
330
2635
100
AcDbXrecord
280
     1
270
     1
271
     1
  0
XRECORD
  5
288D
102
{ACAD_REACTORS
330
2645
102
}
330
2645
100
AcDbXrecord
280
     1
102
MATERIAL
148
0.0
149
0.0
149
0.0
 93
        0
 94
      127
282
     0
 72
     0
 77
     0
171
     0
175
     0
179
     0
273
     0
  0
XRECORD
  5
2647
102
{ACAD_REACTORS
330
2645
102
}
330
2645
100
AcDbXrecord
280
     1
270
     1
271
     1
  0
XRECORD
  5
2646
102
{ACAD_REACTORS
330
2645
102
}
330
2645
100
AcDbXrecord
280
     1
270
     1
271
     1
  0
XRECORD
  5
264A
102
{ACAD_REACTORS
330
2645
102
}
330
2645
100
AcDbXrecord
280
     1
270
     1
271
     1
  0
XRECORD
  5
2649
102
{ACAD_REACTORS
330
2645
102
}
330
2645
100
AcDbXrecord
280
     1
270
     1
271
     1
  0
XRECORD
  5
264B
102
{ACAD_REACTORS
330
2645
102
}
330
2645
100
AcDbXrecord
280
     1
270
     1
271
     1
  0
XRECORD
  5
2648
102
{ACAD_REACTORS
330
2645
102
}
330
2645
100
AcDbXrecord
280
     1
270
     1
271
     1
  0
CELLSTYLEMAP
  5
2883
102
{ACAD_REACTORS
330
2882
102
}
330
2882
100
AcDbCellStyleMap
 90
        3
300
CELLSTYLE
  1
TABLEFORMAT_BEGIN
 90
        5
170
     1
 91
        0
 92
    32768
 62
   257
 93
        1
300
CONTENTFORMAT
  1
CONTENTFORMAT_BEGIN
 90
        0
 91
        0
 92
      512
 93
        0
300

 40
0.0
140
1.0
 94
        5
 62
     0
340
2680
144
0.25
309
CONTENTFORMAT_END
171
     0
 94
        0
309
TABLEFORMAT_END
  1
CELLSTYLE_BEGIN
 90
        1
 91
        1
300
_TITLE
309
CELLSTYLE_END
300
CELLSTYLE
  1
TABLEFORMAT_BEGIN
 90
        5
170
     1
 91
        0
 92
        0
 62
   257
 93
        1
300
CONTENTFORMAT
  1
CONTENTFORMAT_BEGIN
 90
        0
 91
        0
 92
      512
 93
        0
300

 40
0.0
140
1.0
 94
        5
 62
     0
340
2680
144
0.18
309
CONTENTFORMAT_END
171
     0
 94
        0
309
TABLEFORMAT_END
  1
CELLSTYLE_BEGIN
 90
        2
 91
        1
300
_HEADER
309
CELLSTYLE_END
300
CELLSTYLE
  1
TABLEFORMAT_BEGIN
 90
        5
170
     1
 91
        0
 92
        0
 62
   257
 93
        1
300
CONTENTFORMAT
  1
CONTENTFORMAT_BEGIN
 90
        0
 91
        0
 92
      512
 93
        0
300

 40
0.0
140
1.0
 94
        2
 62
     0
340
2680
144
0.18
309
CONTENTFORMAT_END
171
     0
 94
        0
309
TABLEFORMAT_END
  1
CELLSTYLE_BEGIN
 90
        3
 91
        2
300
_DATA
309
CELLSTYLE_END
  0
XRECORD
  5
288E
102
{ACAD_REACTORS
330
2882
102
}
330
2882
100
AcDbXrecord
280
     1
102
ACAD_ROUNDTRIP_PRE2007_TABLESTYLE
 90
      512
 91
        0
  1

 92
      512
 93
        0
  2

 94
      512
 95
        0
  3

  0
ENDSEC
  0
EOF
