  0
SECTION
  2
HEADER
  9
$ACADVER
  1
AC1015
  9
$ACADMAINTVER
 70
    20
  9
$DWGCODEPAGE
  3
ANSI_932
  9
$INSBASE
 10
0.0
 20
0.0
 30
0.0
  9
$EXTMIN
 10
-1114.384444458859
 20
-1048.461903059462
 30
-0.0030516181105611
  9
$EXTMAX
 10
1431.614697097817
 20
1110.62622933023
 30
50.00305208378603
  9
$LIMMIN
 10
-2970.0
 20
-2100.0
  9
$LIMMAX
 10
2970.0
 20
2100.0
  9
$ORTHOMODE
 70
     1
  9
$REGENMODE
 70
     0
  9
$FILLMODE
 70
     1
  9
$QTEXTMODE
 70
     0
  9
$MIRRTEXT
 70
     0
  9
$LTSCALE
 40
20.0
  9
$ATTMODE
 70
     1
  9
$TEXTSIZE
 40
64.0
  9
$TRACEWID
 40
0.05
  9
$TEXTSTYLE
  7
STANDARD
  9
$CLAYER
  8
0
  9
$CELTYPE
  6
ByLayer
  9
$CECOLOR
 62
   256
  9
$CELTSCALE
 40
1.0
  9
$DISPSILH
 70
     0
  9
$DIMSCALE
 40
1.0
  9
$DIMASZ
 40
0.12
  9
$DIMEXO
 40
0.05
  9
$DIMDLI
 40
0.5
  9
$DIMRND
 40
0.0
  9
$DIMDLE
 40
0.0
  9
$DIMEXE
 40
0.1
  9
$DIMTP
 40
0.1
  9
$DIMTM
 40
0.1
  9
$DIMTXT
 40
0.12
  9
$DIMCEN
 40
0.0
  9
$DIMTSZ
 40
0.0
  9
$DIMTOL
 70
     0
  9
$DIMLIM
 70
     0
  9
$DIMTIH
 70
     1
  9
$DIMTOH
 70
     1
  9
$DIMSE1
 70
     0
  9
$DIMSE2
 70
     0
  9
$DIMTAD
 70
     0
  9
$DIMZIN
 70
     7
  9
$DIMBLK
  1

  9
$DIMASO
 70
     1
  9
$DIMSHO
 70
     0
  9
$DIMPOST
  1

  9
$DIMAPOST
  1
mm
  9
$DIMALT
 70
     0
  9
$DIMALTD
 70
     2
  9
$DIMALTF
 40
25.4
  9
$DIMLFAC
 40
1.0
  9
$DIMTOFL
 70
     0
  9
$DIMTVP
 40
0.0
  9
$DIMTIX
 70
     0
  9
$DIMSOXD
 70
     0
  9
$DIMSAH
 70
     0
  9
$DIMBLK1
  1

  9
$DIMBLK2
  1

  9
$DIMSTYLE
  2
AM_ANSI
  9
$DIMCLRD
 70
   256
  9
$DIMCLRE
 70
   256
  9
$DIMCLRT
 70
     2
  9
$DIMTFAC
 40
0.71
  9
$DIMGAP
 40
0.06
  9
$DIMJUST
 70
     0
  9
$DIMSD1
 70
     0
  9
$DIMSD2
 70
     0
  9
$DIMTOLJ
 70
     1
  9
$DIMTZIN
 70
     7
  9
$DIMALTZ
 70
     0
  9
$DIMALTTZ
 70
     0
  9
$DIMUPT
 70
     0
  9
$DIMDEC
 70
     4
  9
$DIMTDEC
 70
     4
  9
$DIMALTU
 70
     2
  9
$DIMALTTD
 70
     4
  9
$DIMTXSTY
  7
STANDARD
  9
$DIMAUNIT
 70
     0
  9
$DIMADEC
 70
     0
  9
$DIMALTRND
 40
0.0
  9
$DIMAZIN
 70
     2
  9
$DIMDSEP
 70
    46
  9
$DIMATFIT
 70
     3
  9
$DIMFRAC
 70
     0
  9
$DIMLDRBLK
  1

  9
$DIMLUNIT
 70
     2
  9
$DIMLWD
 70
    -1
  9
$DIMLWE
 70
    -1
  9
$DIMTMOVE
 70
     0
  9
$LUNITS
 70
     2
  9
$LUPREC
 70
     4
  9
$SKETCHINC
 40
0.1
  9
$FILLETRAD
 40
4.0
  9
$AUNITS
 70
     1
  9
$AUPREC
 70
     3
  9
$MENU
  1
ACAD
  9
$ELEVATION
 40
0.0
  9
$PELEVATION
 40
0.0
  9
$THICKNESS
 40
50.0
  9
$LIMCHECK
 70
     0
  9
$CHAMFERA
 40
0.0
  9
$CHAMFERB
 40
0.0
  9
$CHAMFERC
 40
0.0
  9
$CHAMFERD
 40
0.0
  9
$SKPOLY
 70
     0
  9
$TDCREATE
 40
2452321.396199653
  9
$TDUCREATE
 40
2452321.021199653
  9
$TDUPDATE
 40
2456211.591997836
  9
$TDUUPDATE
 40
2456211.216997836
  9
$TDINDWG
 40
1.0394421644
  9
$TDUSRTIMER
 40
1.0394365741
  9
$USRTIMER
 70
     1
  9
$ANGBASE
 50
0.0
  9
$ANGDIR
 70
     0
  9
$PDMODE
 70
     3
  9
$PDSIZE
 40
-2.0
  9
$PLINEWID
 40
0.0
  9
$SPLFRAME
 70
     0
  9
$SPLINETYPE
 70
     6
  9
$SPLINESEGS
 70
     8
  9
$HANDSEED
  5
270F
  9
$SURFTAB1
 70
     6
  9
$SURFTAB2
 70
     6
  9
$SURFTYPE
 70
     6
  9
$SURFU
 70
     6
  9
$SURFV
 70
     6
  9
$UCSBASE
  2

  9
$UCSNAME
  2

  9
$UCSORG
 10
0.0
 20
0.0
 30
0.0
  9
$UCSXDIR
 10
1.0
 20
0.0
 30
0.0
  9
$UCSYDIR
 10
0.0
 20
1.0
 30
0.0
  9
$UCSORTHOREF
  2

  9
$UCSORTHOVIEW
 70
     0
  9
$UCSORGTOP
 10
0.0
 20
0.0
 30
0.0
  9
$UCSORGBOTTOM
 10
0.0
 20
0.0
 30
0.0
  9
$UCSORGLEFT
 10
0.0
 20
0.0
 30
0.0
  9
$UCSORGRIGHT
 10
0.0
 20
0.0
 30
0.0
  9
$UCSORGFRONT
 10
0.0
 20
0.0
 30
0.0
  9
$UCSORGBACK
 10
0.0
 20
0.0
 30
0.0
  9
$PUCSBASE
  2

  9
$PUCSNAME
  2

  9
$PUCSORG
 10
0.0
 20
0.0
 30
0.0
  9
$PUCSXDIR
 10
1.0
 20
0.0
 30
0.0
  9
$PUCSYDIR
 10
0.0
 20
1.0
 30
0.0
  9
$PUCSORTHOREF
  2

  9
$PUCSORTHOVIEW
 70
     0
  9
$PUCSORGTOP
 10
0.0
 20
0.0
 30
0.0
  9
$PUCSORGBOTTOM
 10
0.0
 20
0.0
 30
0.0
  9
$PUCSORGLEFT
 10
0.0
 20
0.0
 30
0.0
  9
$PUCSORGRIGHT
 10
0.0
 20
0.0
 30
0.0
  9
$PUCSORGFRONT
 10
0.0
 20
0.0
 30
0.0
  9
$PUCSORGBACK
 10
0.0
 20
0.0
 30
0.0
  9
$USERI1
 70
     0
  9
$USERI2
 70
     0
  9
$USERI3
 70
     0
  9
$USERI4
 70
     0
  9
$USERI5
 70
     0
  9
$USERR1
 40
20.0
  9
$USERR2
 40
0.0
  9
$USERR3
 40
0.0
  9
$USERR4
 40
0.0
  9
$USERR5
 40
0.0
  9
$WORLDVIEW
 70
     1
  9
$SHADEDGE
 70
     3
  9
$SHADEDIF
 70
    70
  9
$TILEMODE
 70
     1
  9
$MAXACTVP
 70
    64
  9
$PINSBASE
 10
0.0
 20
0.0
 30
0.0
  9
$PLIMCHECK
 70
     0
  9
$PEXTMIN
 10
1.000000000000000E+20
 20
1.000000000000000E+20
 30
1.000000000000000E+20
  9
$PEXTMAX
 10
-1.000000000000000E+20
 20
-1.000000000000000E+20
 30
-1.000000000000000E+20
  9
$PLIMMIN
 10
0.0
 20
0.0
  9
$PLIMMAX
 10
12.0
 20
9.0
  9
$UNITMODE
 70
     0
  9
$VISRETAIN
 70
     1
  9
$PLINEGEN
 70
     0
  9
$PSLTSCALE
 70
     1
  9
$TREEDEPTH
 70
  3020
  9
$CMLSTYLE
  2
Standard
  9
$CMLJUST
 70
     0
  9
$CMLSCALE
 40
1.0
  9
$PROXYGRAPHICS
 70
     1
  9
$MEASUREMENT
 70
     0
  9
$CELWEIGHT
370
    -1
  9
$ENDCAPS
280
     0
  9
$JOINSTYLE
280
     0
  9
$LWDISPLAY
290
     0
  9
$INSUNITS
 70
     0
  9
$HYPERLINKBASE
  1

  9
$STYLESHEET
  1

  9
$XEDIT
290
     1
  9
$CEPSNTYPE
380
     0
  9
$PSTYLEMODE
290
     1
  9
$FINGERPRINTGUID
  2
{F34A4D49-5356-4843-B342-225E1F7F9A82}
  9
$VERSIONGUID
  2
{8F982838-D21E-4A5E-BED4-A7DE2E2BF0F2}
  9
$EXTNAMES
290
     1
  9
$PSVPSCALE
 40
0.0
  9
$OLESTARTUP
290
     0
  0
ENDSEC
  0
SECTION
  2
CLASSES
  0
CLASS
  1
ACDBDICTIONARYWDFLT
  2
AcDbDictionaryWithDefault
  3
ObjectDBX Classes
 90
        0
280
     0
281
     0
  0
CLASS
  1
MATERIAL
  2
AcDbMaterial
  3
ObjectDBX Classes
 90
     1153
280
     0
281
     0
  0
CLASS
  1
VISUALSTYLE
  2
AcDbVisualStyle
  3
ObjectDBX Classes
 90
     4095
280
     0
281
     0
  0
CLASS
  1
SCALE
  2
AcDbScale
  3
ObjectDBX Classes
 90
     1153
280
     0
281
     0
  0
CLASS
  1
TABLESTYLE
  2
AcDbTableStyle
  3
ObjectDBX Classes
 90
     4095
280
     0
281
     0
  0
CLASS
  1
MLEADERSTYLE
  2
AcDbMLeaderStyle
  3
ACDB_MLEADERSTYLE_CLASS
 90
     4095
280
     0
281
     0
  0
CLASS
  1
AMGSETTINGSOBJ
  2
AmgSettingsObj
  3
"AcadM|Product Description: AutoCAD Mechanical|Company: Autodesk, Inc."
 90
     1024
280
     0
281
     0
  0
CLASS
  1
ACME_DOCUMENT
  2
AcMeDbDoc
  3
AcMeServices
 90
     1024
280
     0
281
     0
  0
CLASS
  1
ACMESCOPE
  2
AcMeScope
  3
AcMeServices
 90
     1024
280
     0
281
     0
  0
CLASS
  1
ACMECOMMANDHISTORY
  2
AcMeCommandHistory
  3
AcMeServices
 90
     1024
280
     0
281
     0
  0
CLASS
  1
ACIMSYSVARMAN
  2
AcImSysVarManager
  3
AcMeServices
 90
     1024
280
     0
281
     0
  0
CLASS
  1
ACIMREALSYSVAR
  2
AcImRealSysVar
  3
AcMeServices
 90
     1024
280
     0
281
     0
  0
CLASS
  1
ACIMINTSYSVAR
  2
AcImIntSysVar
  3
AcMeServices
 90
     1024
280
     0
281
     0
  0
CLASS
  1
ACMEDRAWINGMAN
  2
AcMeDrawingMan
  3
AcMeServices
 90
     1024
280
     0
281
     0
  0
CLASS
  1
ACMEVIEW
  2
AcMeView
  3
AcMeServices
 90
     1024
280
     0
281
     0
  0
CLASS
  1
ACDBENTITYCACHE
  2
AcMeEntityCache
  3
AcMeServices
 90
     1024
280
     0
281
     0
  0
CLASS
  1
GSMANAGER
  2
AcMeGSManager
  3
AcMeServices
 90
     1024
280
     0
281
     0
  0
CLASS
  1
AMDTINTERNALREACTOR
  2
AmdtInternalReactor
  3
AcMeServices
 90
     1024
280
     0
281
     0
  0
CLASS
  1
ACMESTATEMGR
  2
AcMeStateMgr
  3
AcMeServices
 90
     1024
280
     0
281
     0
  0
CLASS
  1
ACGREFMASTER
  2
AcGrefMaster
  3
AcAttribServices
 90
     1024
280
     0
281
     0
  0
CLASS
  1
AM_DRAWING_MGR
  2
AcDmDwgMgr
  3
AcMechDwgViewMgmt
 90
     1024
280
     0
281
     0
  0
CLASS
  1
AM_DWG_DOCUMENT
  2
AcDmDwgDocument
  3
AcMechDwgViewMgmt
 90
     1024
280
     0
281
     0
  0
CLASS
  1
AM_DWG_SHEET
  2
AcDmSheet
  3
AcMechDwgViewMgmt
 90
     1024
280
     0
281
     0
  0
CLASS
  1
AM_VIEWDIMPARMAP
  2
AcDmViewDimParMap
  3
AcMechDwgViewMgmt
 90
     1024
280
     0
281
     0
  0
CLASS
  1
AM_DWGMGR_NAME
  2
AcDmDwgMgrName
  3
AcMechDwgViewMgmt
 90
     1024
280
     0
281
     0
  0
CLASS
  1
ACME_DATABASE
  2
AcMeDbDatabase
  3
AcMeServices
 90
     1024
280
     0
281
     0
  0
CLASS
  1
ACRFINSADJUSTERMGR
  2
AcRfInsAdjusterMgr
  3
AcMeServices
 90
     1024
280
     0
281
     0
  0
CLASS
  1
ACGREFACADMASTER
  2
AcGrefacadMaster
  3
AcGrefServices
 90
     1024
280
     0
281
     0
  0
CLASS
  1
AMDTMENUSTATEMGR
  2
AmdtMenuStateMgr
  3
McadcomServices
 90
     1024
280
     0
281
     0
  0
CLASS
  1
AMDTMCOMMENUSTATE
  2
AmdtMcomMenuState
  3
McadcomServices
 90
     1024
280
     0
281
     0
  0
CLASS
  1
AMIMASTER
  2
AmiMaster
  3
AmiServices
 90
     1024
280
     0
281
     0
  0
CLASS
  1
ASAPP
  2
AcAsAppObject
  3
AutoSurfServices
 90
     1024
280
     0
281
     0
  0
CLASS
  1
IM_STATIC_MAN
  2
AcImStaticVarManager
  3
AcMeServices
 90
     1024
280
     0
281
     0
  0
CLASS
  1
ACIMSTRSYSVAR
  2
AcImStrSysVar
  3
AcMeServices
 90
     1024
280
     0
281
     0
  0
CLASS
  1
ACIMDBLSTATICVAR
  2
AcImDblStaticVar
  3
AcMeServices
 90
     1024
280
     0
281
     0
  0
CLASS
  1
ACIMSTRSTATICVAR
  2
AcImStrStaticVar
  3
AcMeServices
 90
     1024
280
     0
281
     0
  0
CLASS
  1
ACIMINTSTATICVAR
  2
AcImIntStaticVar
  3
AcMeServices
 90
     1024
280
     0
281
     0
  0
CLASS
  1
ACASGREFMASTER
  2
AcAsGrefMaster
  3
AutoSurfResolverServices
 90
     1024
280
     0
281
     0
  0
CLASS
  1
ACADGREFMODULE
  2
AcAdGrefModule
  3
AdGrefServices
 90
     1024
280
     0
281
     0
  0
CLASS
  1
AMDTMAPISURFMOUDULE
  2
AmdtMApiSurfModule
  3
MApiSurfServices
 90
     1024
280
     0
281
     0
  0
CLASS
  1
MAPIAMMOUDLE
  2
MApiAmModule
  3
MApiAmServices
 90
     1024
280
     0
281
     0
  0
CLASS
  1
AMDTADMENUSTATE
  2
AmdtAdMenuState
  3
DesignerServices
 90
     1024
280
     0
281
     0
  0
CLASS
  1
ADAPPL
  2
AcAdAppl
  3
DesignerServices
 90
     1024
280
     0
281
     0
  0
CLASS
  1
DEPMGR
  2
AcAdDepMgr
  3
DesignerServices
 90
     1024
280
     0
281
     0
  0
CLASS
  1
PARAMMGR
  2
AcAdParamMgr
  3
DesignerServices
 90
     1024
280
     0
281
     0
  0
CLASS
  1
PARAMSCOPE
  2
AcAdParamScope
  3
DesignerServices
 90
     1024
280
     0
281
     0
  0
CLASS
  1
NAMEDAPPL
  2
AcAdNamedAppl
  3
DesignerServices
 90
     1024
280
     0
281
     0
  0
CLASS
  1
AMDTDMMENUSTATE
  2
AmdtDmMenuState
  3
AcMechDwgViewMgmt
 90
     1024
280
     0
281
     0
  0
CLASS
  1
MAPIADMODULE
  2
MApiAdModule
  3
MApiAdServices
 90
     1024
280
     0
281
     0
  0
CLASS
  1
AMDTAMMENUSTATE
  2
AmdtAmMenuState
  3
DesignerAssemblies
 90
     1024
280
     0
281
     0
  0
CLASS
  1
ACAMPROJECT
  2
AcAmProject
  3
DesignerAssemblies
 90
     1024
280
     0
281
     0
  0
CLASS
  1
ACAMGRCOMPDEF
  2
AcAmGrCompDef
  3
DesignerAssemblies
 90
     1024
280
     0
281
     0
  0
CLASS
  1
ACCMCONTEXT
  2
AcCmContext
  3
DesignerAssemblies
 90
     1024
280
     0
281
     0
  0
CLASS
  1
ACAMCOMPDEF
  2
AcAmCompDef
  3
DesignerAssemblies
 90
     1024
280
     0
281
     0
  0
CLASS
  1
ACAMCOMPDEFMGR
  2
AcAmCompDefMgr
  3
DesignerAssemblies
 90
     1024
280
     0
281
     0
  0
CLASS
  1
AMCONTEXTMGR
  2
AcAmContextMgr
  3
DesignerAssemblies
 90
     1024
280
     0
281
     0
  0
CLASS
  1
ACAMCONTEXTMODELER
  2
AcAmContextModeler
  3
DesignerAssemblies
 90
     1024
280
     0
281
     0
  0
CLASS
  1
ACMDATADICTIONARY
  2
AcmDataDictionary
  3
"AcmSymBB|Product Description: AutoCAD Mechanical|Company: Autodesk, Inc."
 90
     1024
280
     0
281
     0
  0
CLASS
  1
ACMDATAENTRYBLOCK
  2
AcmDataEntryBlock
  3
AcmSymBB|Product Description: AutoCAD Mechanical|Company: Autodesk, Inc.
 90
     1024
280
     0
281
     0
  0
CLASS
  1
ACRFATTGENMGR
  2
AcRfAttGeneralMgr
  3
AcAttribServices
 90
     1024
280
     0
281
     0
  0
CLASS
  1
ACRFOBJATTMGR
  2
AcRfObjAttGroupMgr
  3
AcAttribServices
 90
     1024
280
     0
281
     0
  0
CLASS
  1
ACRFMCADAPIATTHOLDER
  2
AcRfMCADAPIAttHolder
  3
AcAttribServices
 90
     1024
280
     0
281
     0
  0
CLASS
  1
AMDTSYSATTR
  2
AmdtSystemAttribute
  3
AcAttribServices
 90
     1024
280
     0
281
     0
  0
CLASS
  1
CATALOGSTATE
  2
AcAmCatalogState
  3
DesignerAssemblies
 90
     1024
280
     0
281
     0
  0
CLASS
  1
ACAMGRCOMPDEFSET
  2
AcAmGrCompDefSet
  3
DesignerAssemblies
 90
     1024
280
     0
281
     0
  0
CLASS
  1
AMDTBROWSERDBTAB
  2
AmdtBrowserDbTab
  3
McadcomServices
 90
     1024
280
     0
281
     0
  0
CLASS
  1
CBROWSERAPPOBJECT
  2
CBrowserAppObject
  3
McadcomServices
 90
     1024
280
     0
281
     0
  0
CLASS
  1
DM_PLACEHOLDER
  2
AcDmSelsetPlaceholder
  3
AcMechDwgViewMgmt
 90
     1024
280
     0
281
     0
  0
CLASS
  1
ACMSTANDARDANSI
  2
AcmStandardANSI
  3
"Amdt_StdImp|Product Description: AutoCAD Mechanical|Company: Autodesk, Inc."
 90
     1024
280
     0
281
     0
  0
CLASS
  1
ACMSURFSTANDARDANSI
  2
AcmSurfTextStdANSI
  3
"Amdt_StdImp|Product Description: AutoCAD Mechanical|Company: Autodesk, Inc."
 90
     1024
280
     0
281
     0
  0
CLASS
  1
ACMFCFSTANDARDANSI
  2
AcmFCFStdANSI
  3
"Amdt_StdImp|Product Description: AutoCAD Mechanical|Company: Autodesk, Inc."
 90
     1024
280
     0
281
     0
  0
CLASS
  1
ACMWELDSTANDARDANSI
  2
AcmWeldingStdANSI
  3
"Amdt_StdImp|Product Description: AutoCAD Mechanical|Company: Autodesk, Inc."
 90
     1024
280
     0
281
     0
  0
CLASS
  1
ACMIDSTANDARDANSI
  2
AcmIdStdANSI
  3
"Amdt_StdImp|Product Description: AutoCAD Mechanical|Company: Autodesk, Inc."
 90
     1024
280
     0
281
     0
  0
CLASS
  1
ACMDATUMSTANDARDANSI
  2
AcmDatumStdANSI
  3
"Amdt_StdImp|Product Description: AutoCAD Mechanical|Company: Autodesk, Inc."
 90
     1024
280
     0
281
     0
  0
CLASS
  1
ACMBOMSTANDARDANSI
  2
AcmBOMStdANSI
  3
"Amdt_StdImp|Product Description: AutoCAD Mechanical|Company: Autodesk, Inc."
 90
     1024
280
     0
281
     0
  0
CLASS
  1
ACMDETAILSTANDARDANSI
  2
AmdtDetailSymStdANSI
  3
"Amdt_StdImp|Product Description: AutoCAD Mechanical|Company: Autodesk, Inc."
 90
     1024
280
     0
281
     0
  0
CLASS
  1
ACMSECTIONSTANDARDANSI
  2
AmdtSectionSymStdANSI
  3
"Amdt_StdImp|Product Description: AutoCAD Mechanical|Company: Autodesk, Inc."
 90
     1024
280
     0
281
     0
  0
CLASS
  1
ACMCENTERLINESTANDARDANSI
  2
AmdtCenterLineStdANSI
  3
"Amdt_StdImp|Product Description: AutoCAD Mechanical|Company: Autodesk, Inc."
 90
     1024
280
     0
281
     0
  0
CLASS
  1
ACMTHREADLINESTANDARDANSI
  2
AmdtThreadLineStdANSI
  3
"Amdt_StdImp|Product Description: AutoCAD Mechanical|Company: Autodesk, Inc."
 90
     1024
280
     0
281
     0
  0
CLASS
  1
ACMNOTESTANDARDANSI
  2
AmdtNoteStdANSI
  3
"Amdt_StdImp|Product Description: AutoCAD Mechanical|Company: Autodesk, Inc."
 90
     1024
280
     0
281
     0
  0
CLASS
  1
ACMTAPERSTANDARDANSI
  2
AcmTaperStdANSI
  3
"Amdt_StdImp|Product Description: AutoCAD Mechanical|Company: Autodesk, Inc."
 90
     1024
280
     0
281
     0
  0
CLASS
  1
ACMANOOTATIONVIEWSTANDARDANSI
  2
AmdtAnViewStdANSI
  3
"Amdt_StdImp|Product Description: AutoCAD Mechanical|Company: Autodesk, Inc."
 90
     1024
280
     0
281
     0
  0
CLASS
  1
ACAMGLAYSTD
  2
AcAmgLayStd
  3
"AmgLay|Product Description: AutoCAD Mechanical|Company: Autodesk, Inc."
 90
     1024
280
     0
281
     0
  0
CLASS
  1
ACAMGDIMSTD
  2
AcAmgDimStd
  3
"AmgDim|Product Description: AutoCAD Mechanical|Company: Autodesk, Inc."
 90
     1024
280
     0
281
     0
  0
CLASS
  1
ACAMGHOLECHARTSTDANSI
  2
AcAmgHoleChartStdANSI
  3
AmgDim|Product Description: AutoCAD Mechanical|Company: Autodesk, Inc.
 90
     1024
280
     0
281
     0
  0
CLASS
  1
AMGOBJPROPCFG
  2
AmgObjPropCfg
  3
"AmgLay|Product Description: AutoCAD Mechanical|Company: Autodesk, Inc."
 90
     1025
280
     0
281
     0
  0
CLASS
  1
ACAMGTITLESTD
  2
AcAmgTitleStd
  3
"AmgTitle|Product Description: AutoCAD Mechanical|Company: Autodesk, Inc."
 90
     4095
280
     0
281
     0
  0
CLASS
  1
AMDTNOTETEMPLATEDB
  2
AmdtNoteTemplateDB
  3
AcmSymBB|Product Description: AutoCAD Mechanical|Company: Autodesk, Inc.
 90
     1024
280
     0
281
     0
  0
CLASS
  1
ACAMGFILTERDAT
  2
AcAmgFilterDat
  3
"AcadM|Product Description: AutoCAD Mechanical|Company: Autodesk, Inc."
 90
     1024
280
     0
281
     0
  0
CLASS
  1
LAYER_INDEX
  2
AcDbLayerIndex
  3
ObjectDBX Classes
 90
        0
280
     0
281
     0
  0
CLASS
  1
IDBUFFER
  2
AcDbIdBuffer
  3
ObjectDBX Classes
 90
        0
280
     0
281
     0
  0
CLASS
  1
DICTIONARYVAR
  2
AcDbDictionaryVar
  3
ObjectDBX Classes
 90
        0
280
     0
281
     0
  0
CLASS
  1
CELLSTYLEMAP
  2
AcDbCellStyleMap
  3
ObjectDBX Classes
 90
     1152
280
     0
281
     0
  0
CLASS
  1
ACDBPLACEHOLDER
  2
AcDbPlaceHolder
  3
ObjectDBX Classes
 90
        0
280
     0
281
     0
  0
CLASS
  1
LAYOUT
  2
AcDbLayout
  3
ObjectDBX Classes
 90
        0
280
     0
281
     0
  0
ENDSEC
  0
SECTION
  2
TABLES
  0
TABLE
  2
VPORT
  5
24B1
330
0
100
AcDbSymbolTable
 70
     1
  0
VPORT
  5
2521
330
24B1
100
AcDbSymbolTableRecord
100
AcDbViewportTableRecord
  2
*ACTIVE
 70
     0
 10
0.0
 20
0.0
 11
1.0
 21
1.0
 12
0.0000000000004547
 22
-135.1888517480001
 13
0.0
 23
0.0
 14
1.0
 24
1.0
 15
0.0
 25
0.0
 16
0.0
 26
0.0
 36
1.0
 17
158.6151263194784
 27
166.271014883384
 37
0.0
 40
2173.339539204145
 41
1.712555066079295
 42
50.0
 43
0.0
 44
0.0
 50
0.0
 51
0.0
 71
     0
 72
   100
 73
     1
 74
     0
 75
     0
 76
     0
 77
     0
 78
     0
281
     0
 65
     0
110
0.0
120
0.0
130
0.0
111
1.0
121
0.0
131
0.0
112
0.0
122
1.0
132
0.0
 79
     0
146
0.0
  0
ENDTAB
  0
TABLE
  2
LTYPE
  5
24AE
330
0
100
AcDbSymbolTable
 70
    19
  0
LTYPE
  5
250B
330
24AE
100
AcDbSymbolTableRecord
100
AcDbLinetypeTableRecord
  2
ByBlock
 70
     0
  3

 72
    65
 73
     0
 40
0.0
  0
LTYPE
  5
250C
330
24AE
100
AcDbSymbolTableRecord
100
AcDbLinetypeTableRecord
  2
ByLayer
 70
     0
  3

 72
    65
 73
     0
 40
0.0
  0
LTYPE
  5
250D
330
24AE
100
AcDbSymbolTableRecord
100
AcDbLinetypeTableRecord
  2
CONTINUOUS
 70
     0
  3
実線
 72
    65
 73
     0
 40
0.0
  0
LTYPE
  5
2522
330
24AE
100
AcDbSymbolTableRecord
100
AcDbLinetypeTableRecord
  2
DASHDOT
 70
     0
  3
____ _ ____ _ ____ _ ____ _ ____ _ ____ _ ____
 72
    65
 73
     4
 40
5.5
 49
4.0
 74
     0
 49
-0.6
 74
     0
 49
0.3
 74
     0
 49
-0.6
 74
     0
  0
LTYPE
  5
2523
330
24AE
100
AcDbSymbolTableRecord
100
AcDbLinetypeTableRecord
  2
HIDDEN
 70
     0
  3
Hidden __ __ __ __ __ __ __ __ __ __ __ __ __ _
 72
    65
 73
     2
 40
0.375
 49
0.25
 74
     0
 49
-0.125
 74
     0
  0
LTYPE
  5
2524
330
24AE
100
AcDbSymbolTableRecord
100
AcDbLinetypeTableRecord
  2
PHANTOM2
 70
     0
  3
Phantom (.5x) ___ _ _ ___ _ _ ___ _ _ ___ _ _
 72
    65
 73
     6
 40
1.25
 49
0.625
 74
     0
 49
-0.125
 74
     0
 49
0.125
 74
     0
 49
-0.125
 74
     0
 49
0.125
 74
     0
 49
-0.125
 74
     0
  0
LTYPE
  5
2525
330
24AE
100
AcDbSymbolTableRecord
100
AcDbLinetypeTableRecord
  2
CENTER
 70
     0
  3
Center ____ _ ____ _ ____ _ ____ _ ____ _ ____
 72
    65
 73
     4
 40
2.0
 49
1.25
 74
     0
 49
-0.25
 74
     0
 49
0.25
 74
     0
 49
-0.25
 74
     0
  0
LTYPE
  5
2526
330
24AE
100
AcDbSymbolTableRecord
100
AcDbLinetypeTableRecord
  2
ASULTYPE
 70
     0
  3
実線
 72
    65
 73
     2
 40
3.0
 49
2.5
 74
     0
 49
0.5
 74
     0
  0
LTYPE
  5
2527
330
24AE
100
AcDbSymbolTableRecord
100
AcDbLinetypeTableRecord
  2
ASVLTYPE
 70
     0
  3
__ __ __ __ __ __ __ __ __ __ __ __ __ __ __ __ __ __ __ __ __
 72
    65
 73
     2
 40
0.75
 49
0.5
 74
     0
 49
-0.25
 74
     0
  0
LTYPE
  5
2528
330
24AE
100
AcDbSymbolTableRecord
100
AcDbLinetypeTableRecord
  2
AM_ISO02W050
 70
     0
  3
__ __ __ __ __ __ __ __ __ __ __ __ __ __ __
 72
    65
 73
     2
 40
7.5
 49
6.0
 74
     0
 49
-1.5
 74
     0
  0
LTYPE
  5
2529
330
24AE
100
AcDbSymbolTableRecord
100
AcDbLinetypeTableRecord
  2
AM_ISO08W050
 70
     0
  3
____ . ____ . ____ . ____ . ____ . ____ . ____
 72
    65
 73
     4
 40
18.0
 49
12.0
 74
     0
 49
-1.5
 74
     0
 49
3.0
 74
     0
 49
-1.5
 74
     0
  0
LTYPE
  5
252A
330
24AE
100
AcDbSymbolTableRecord
100
AcDbLinetypeTableRecord
  2
AM_ISO09W050
 70
     0
  3
_____ . . _____ . . _____ . . ____ .. ____
 72
    65
 73
     6
 40
22.5
 49
12.0
 74
     0
 49
-1.5
 74
     0
 49
3.0
 74
     0
 49
-1.5
 74
     0
 49
3.0
 74
     0
 49
-1.5
 74
     0
  0
LTYPE
  5
252B
330
24AE
100
AcDbSymbolTableRecord
100
AcDbLinetypeTableRecord
  2
AMCONSTR
 70
     0
  3
_______________________
 72
    65
 73
     2
 40
9999.0
 49
9999.0
 74
     0
 49
0.0
 74
     0
  0
LTYPE
  5
252C
330
24AE
100
AcDbSymbolTableRecord
100
AcDbLinetypeTableRecord
  2
AM_ISO08W050X2
 70
     0
  3
__ . __ . __ . __ . __ . __
 72
    65
 73
     4
 40
9.0
 49
6.0
 74
     0
 49
-0.75
 74
     0
 49
1.5
 74
     0
 49
-0.75
 74
     0
  0
LTYPE
  5
252D
330
24AE
100
AcDbSymbolTableRecord
100
AcDbLinetypeTableRecord
  2
AM_ISO02W050X2
 70
     0
  3
 _ _ _ _ _ _ _ _ _ _ _ _
 72
    65
 73
     2
 40
3.75
 49
3.0
 74
     0
 49
-0.75
 74
     0
  0
LTYPE
  5
252E
330
24AE
100
AcDbSymbolTableRecord
100
AcDbLinetypeTableRecord
  2
AMZIGZAG
 70
     0
  3
/\/-/\/-/\/-/\/-/\/-/\/
 72
    65
 73
     2
 40
11.0001
 49
0.0001
 74
     0
 49
-11.0
 74
     0
  0
LTYPE
  5
252F
330
24AE
100
AcDbSymbolTableRecord
100
AcDbLinetypeTableRecord
  2
CENTER2
 70
     0
  3
Center (.5x) ___ _ ___ _ ___ _ ___ _ ___ _ ___
 72
    65
 73
     4
 40
1.125
 49
0.75
 74
     0
 49
-0.125
 74
     0
 49
0.125
 74
     0
 49
-0.125
 74
     0
  0
LTYPE
  5
2530
330
24AE
100
AcDbSymbolTableRecord
100
AcDbLinetypeTableRecord
  2
HIDDEN2
 70
     0
  3
Hidden (.5x) _ _ _ _ _ _ _ _ _ _ _ _ _ _ _ _ _
 72
    65
 73
     2
 40
0.1875
 49
0.125
 74
     0
 49
-0.0625
 74
     0
  0
LTYPE
  5
2531
330
24AE
100
AcDbSymbolTableRecord
100
AcDbLinetypeTableRecord
  2
AMZIGZAG2
 70
     0
  3
/\/-/\/-/\/-/\/-/\/-/\/
 72
    65
 73
     2
 40
0.4401
 49
0.0001
 74
     0
 49
-0.4400000000000003
 74
     0
  0
LTYPE
  5
2532
330
24AE
100
AcDbSymbolTableRecord
100
AcDbLinetypeTableRecord
  2
ACANSTGB
 70
     0
  3
__ . . __ . .
 72
    65
 73
     6
 40
0.35433070866
 49
0.15748031496
 74
     0
 49
-0.03937007874
 74
     0
 49
0.03937007874
 74
     0
 49
-0.03937007874
 74
     0
 49
0.03937007874
 74
     0
 49
-0.03937007874
 74
     0
  0
LTYPE
  5
2533
330
24AE
100
AcDbSymbolTableRecord
100
AcDbLinetypeTableRecord
  2
ACANSTGL
 70
     0
  3
_ _ _ _ _
 72
    65
 73
     2
 40
0.11811023622
 49
0.07874015748
 74
     0
 49
-0.03937007874
 74
     0
  0
ENDTAB
  0
TABLE
  2
LAYER
  5
24AB
330
0
100
AcDbSymbolTable
 70
    12
  0
LAYER
  5
2505
102
{ACAD_XDICTIONARY
360
26CE
102
}
330
24AB
100
AcDbSymbolTableRecord
100
AcDbLayerTableRecord
  2
0
 70
     0
 62
     7
  6
CONTINUOUS
370
    -3
390
24B8
  0
LAYER
  5
2534
102
{ACAD_XDICTIONARY
360
26D0
102
}
330
24AB
100
AcDbSymbolTableRecord
100
AcDbLayerTableRecord
  2
OUTLINE
 70
     0
 62
     3
  6
CONTINUOUS
370
    -3
390
24B8
  0
LAYER
  5
2535
102
{ACAD_XDICTIONARY
360
26D2
102
}
330
24AB
100
AcDbSymbolTableRecord
100
AcDbLayerTableRecord
  2
SIZE
 70
     0
 62
    30
  6
CONTINUOUS
370
    -3
390
24B8
  0
LAYER
  5
2536
102
{ACAD_XDICTIONARY
360
26D4
102
}
330
24AB
100
AcDbSymbolTableRecord
100
AcDbLayerTableRecord
  2
BASIS
 70
     0
 62
     6
  6
DASHDOT
370
    -3
390
24B8
  0
LAYER
  5
2537
102
{ACAD_XDICTIONARY
360
26D6
102
}
330
24AB
100
AcDbSymbolTableRecord
100
AcDbLayerTableRecord
  2
DETAIL
 70
     0
 62
     5
  6
CONTINUOUS
370
    -3
390
24B8
  0
LAYER
  5
2538
102
{ACAD_XDICTIONARY
360
26D8
102
}
330
24AB
100
AcDbSymbolTableRecord
100
AcDbLayerTableRecord
  2
ARRANGE
 70
     0
 62
     1
  6
CONTINUOUS
370
    -3
390
24B8
  0
LAYER
  5
2539
330
24AB
100
AcDbSymbolTableRecord
100
AcDbLayerTableRecord
  2
DEFPOINTS
 70
     0
 62
     7
  6
CONTINUOUS
290
     0
370
    -3
390
24B8
  0
LAYER
  5
253A
102
{ACAD_XDICTIONARY
360
26DA
102
}
330
24AB
100
AcDbSymbolTableRecord
100
AcDbLayerTableRecord
  2
ETC
 70
     0
 62
    61
  6
CONTINUOUS
370
    -3
390
24B8
  0
LAYER
  5
253B
102
{ACAD_XDICTIONARY
360
26DC
102
}
330
24AB
100
AcDbSymbolTableRecord
100
AcDbLayerTableRecord
  2
FIX
 70
     0
 62
    11
  6
CONTINUOUS
370
    -3
390
24B8
  0
LAYER
  5
253C
102
{ACAD_XDICTIONARY
360
26DE
102
}
330
24AB
100
AcDbSymbolTableRecord
100
AcDbLayerTableRecord
  2
NOTE
 70
     0
 62
     4
  6
CONTINUOUS
370
    -3
390
24B8
  0
LAYER
  5
253D
102
{ACAD_XDICTIONARY
360
26E0
102
}
330
24AB
100
AcDbSymbolTableRecord
100
AcDbLayerTableRecord
  2
SERVICESPACE
 70
     0
 62
     2
  6
DASHDOT
370
    -3
390
24B8
  0
LAYER
  5
253E
102
{ACAD_XDICTIONARY
360
26E2
102
}
330
24AB
100
AcDbSymbolTableRecord
100
AcDbLayerTableRecord
  2
SYMBOLLINE
 70
     0
 62
    15
  6
CONTINUOUS
370
    -3
390
24B8
  0
ENDTAB
  0
TABLE
  2
STYLE
  5
24AC
330
0
100
AcDbSymbolTable
 70
     5
  0
STYLE
  5
2506
330
24AC
100
AcDbSymbolTableRecord
100
AcDbTextStyleTableRecord
  2
STANDARD
 70
     0
 40
64.0
 41
0.9
 50
0.0
 71
     0
 42
64.0
  3
SIMPLEX.shx
  4
BIGFONT.shx
  0
STYLE
  5
250A
330
24AC
100
AcDbSymbolTableRecord
100
AcDbTextStyleTableRecord
  2
ANNOTATIVE
 70
     0
 40
0.0
 41
1.0
 50
0.0
 71
     0
 42
0.2
  3
txt
  4

1001
ACADANNOTATIVE
1000
AnnotativeData
1002
{
1070
     1
1070
     1
1002
}
  0
STYLE
  5
253F
330
24AC
100
AcDbSymbolTableRecord
100
AcDbTextStyleTableRecord
  2

 70
     1
 40
0.0
 41
1.0
 50
0.0
 71
     0
 42
64.0
  3
genltshp.shx
  4

  0
STYLE
  5
2540
330
24AC
100
AcDbSymbolTableRecord
100
AcDbTextStyleTableRecord
  2
ACANSTS
 70
     0
 40
1.0
 41
1.0
 50
0.0
 71
     0
 42
64.0
  3
romans.shx
  4
extfont.shx
  0
STYLE
  5
2541
330
24AC
100
AcDbSymbolTableRecord
100
AcDbTextStyleTableRecord
  2
ACANSGDT
 70
     0
 40
0.0
 41
1.0
 50
0.0
 71
     0
 42
64.0
  3
amgdt.shx
  4

  0
ENDTAB
  0
TABLE
  2
VIEW
  5
24AF
330
0
100
AcDbSymbolTable
 70
     1
  0
VIEW
  5
2542
330
24AF
100
AcDbSymbolTableRecord
100
AcDbViewTableRecord
  2
ALL
 70
     0
 40
4282.619807999997
 10
0.0
 20
41.30990399999999
 41
5940.0
 11
0.0
 21
0.0
 31
1.0
 12
0.0
 22
0.0
 32
0.0
 42
50.0
 43
0.0
 44
0.0
 50
0.0
 71
     0
281
     0
 72
     1
110
0.0
120
0.0
130
0.0
111
1.0
121
0.0
131
0.0
112
0.0
122
1.0
132
0.0
 79
     0
146
0.0
  0
ENDTAB
  0
TABLE
  2
UCS
  5
24B0
330
0
100
AcDbSymbolTable
 70
     0
  0
ENDTAB
  0
TABLE
  2
APPID
  5
24B2
330
0
100
AcDbSymbolTable
 70
    26
  0
APPID
  5
2507
330
24B2
100
AcDbSymbolTableRecord
100
AcDbRegAppTableRecord
  2
ACAD
 70
     0
  0
APPID
  5
250E
330
24B2
100
AcDbSymbolTableRecord
100
AcDbRegAppTableRecord
  2
ACADANNOTATIVE
 70
     0
  0
APPID
  5
2518
330
24B2
100
AcDbSymbolTableRecord
100
AcDbRegAppTableRecord
  2
ACAD_MLEADERVER
 70
     0
  0
APPID
  5
2543
330
24B2
100
AcDbSymbolTableRecord
100
AcDbRegAppTableRecord
  2
GENIUS_GENDIM_13
 70
     0
  0
APPID
  5
2544
330
24B2
100
AcDbSymbolTableRecord
100
AcDbRegAppTableRecord
  2
GENIUS_GENDTOL_13
 70
     0
  0
APPID
  5
2545
330
24B2
100
AcDbSymbolTableRecord
100
AcDbRegAppTableRecord
  2
GENIUS_GE3DTOL_13
 70
     0
  0
APPID
  5
2546
330
24B2
100
AcDbSymbolTableRecord
100
AcDbRegAppTableRecord
  2
MCAD_NO_VIS
 70
     0
  0
APPID
  5
2547
330
24B2
100
AcDbSymbolTableRecord
100
AcDbRegAppTableRecord
  2
ACAD_TEMP_GRAPHIC
 70
     0
  0
APPID
  5
2548
330
24B2
100
AcDbSymbolTableRecord
100
AcDbRegAppTableRecord
  2
AD_DRAW
 70
     0
  0
APPID
  5
2549
330
24B2
100
AcDbSymbolTableRecord
100
AcDbRegAppTableRecord
  2
ACATTRIBSERVICES
 70
     0
  0
APPID
  5
254A
330
24B2
100
AcDbSymbolTableRecord
100
AcDbRegAppTableRecord
  2
ASURF_PCURVE_APPNAME
 70
     0
  0
APPID
  5
254B
330
24B2
100
AcDbSymbolTableRecord
100
AcDbRegAppTableRecord
  2
AMG_3D2D_5_0
 70
     0
  0
APPID
  5
254C
330
24B2
100
AcDbSymbolTableRecord
100
AcDbRegAppTableRecord
  2
DESIGNERASSEMBLIES
 70
     0
  0
APPID
  5
254D
330
24B2
100
AcDbSymbolTableRecord
100
AcDbRegAppTableRecord
  2
ACADM_DIM_EDIT
 70
     0
  0
APPID
  5
254E
330
24B2
100
AcDbSymbolTableRecord
100
AcDbRegAppTableRecord
  2
AMDT_DM_ADJ
 70
     0
  0
APPID
  5
254F
330
24B2
100
AcDbSymbolTableRecord
100
AcDbRegAppTableRecord
  2
ACAD_DSTYLE_DIMARC_LENGTH_
 70
     0
  0
APPID
  5
2550
330
24B2
100
AcDbSymbolTableRecord
100
AcDbRegAppTableRecord
  2
ACAD_DSTYLE_DIMJOGGED_JOGA
 70
     0
  0
APPID
  5
2551
330
24B2
100
AcDbSymbolTableRecord
100
AcDbRegAppTableRecord
  2
ACAD_PSEXT
 70
     0
  0
APPID
  5
2552
330
24B2
100
AcDbSymbolTableRecord
100
AcDbRegAppTableRecord
  2
ACAD_EXEMPT_FROM_CAD_STANDARDS
 70
     0
  0
APPID
  5
2553
330
24B2
100
AcDbSymbolTableRecord
100
AcDbRegAppTableRecord
  2
ACAD_DSTYLE_DIMJAG
 70
     0
  0
APPID
  5
2554
330
24B2
100
AcDbSymbolTableRecord
100
AcDbRegAppTableRecord
  2
ACAD_DSTYLE_DIMTALN
 70
     0
  0
APPID
  5
266E
330
24B2
100
AcDbSymbolTableRecord
100
AcDbRegAppTableRecord
  2
AMG_3D2D_5.0
 70
     0
  0
APPID
  5
270B
330
24B2
100
AcDbSymbolTableRecord
100
AcDbRegAppTableRecord
  2
ACAD_DSTYLE_DIMARC_LENGTH_SYMBOL
 70
     0
  0
APPID
  5
270C
330
24B2
100
AcDbSymbolTableRecord
100
AcDbRegAppTableRecord
  2
ACAD_DSTYLE_DIM_LINETYPE
 70
     0
  0
APPID
  5
270D
330
24B2
100
AcDbSymbolTableRecord
100
AcDbRegAppTableRecord
  2
ACAD_DSTYLE_DIM_EXT1_LINETYPE
 70
     0
  0
APPID
  5
270E
330
24B2
100
AcDbSymbolTableRecord
100
AcDbRegAppTableRecord
  2
ACAD_DSTYLE_DIM_EXT2_LINETYPE
 70
     0
  0
ENDTAB
  0
TABLE
  2
DIMSTYLE
  5
24B3
330
0
100
AcDbSymbolTable
 70
    10
100
AcDbDimStyleTable
 71
     1
340
2555
  0
DIMSTYLE
105
2508
330
24B3
100
AcDbSymbolTableRecord
100
AcDbDimStyleTableRecord
  2
STANDARD
 70
     0
 41
12.0
 42
20.0
 44
20.0
 77
     1
 78
     8
140
64.0
141
0.0
147
10.0
275
     1
279
     2
284
     7
285
     7
286
     7
340
2506
  0
DIMSTYLE
105
2509
330
24B3
100
AcDbSymbolTableRecord
100
AcDbDimStyleTableRecord
  2
ANNOTATIVE
 70
     0
275
     1
279
     2
284
     7
285
     7
286
     7
340
2506
1001
ACADANNOTATIVE
1000
AnnotativeData
1002
{
1070
     1
1070
     1
1002
}
  0
DIMSTYLE
105
2555
330
24B3
100
AcDbSymbolTableRecord
100
AcDbDimStyleTableRecord
  2
AM_ANSI
 70
     0
  4
mm
 41
0.12
 42
0.05
 43
0.5
 44
0.1
 47
0.1
 48
0.1
 78
     7
 79
     2
140
0.12
141
0.0
146
0.71
147
0.06
176
   256
177
   256
178
     2
274
     4
284
     7
340
2506
371
    -1
372
    -1
1001
ACAD_DSTYLE_DIMARC_LENGTH_SYMBOL
1070
   379
1070
     1
1001
ACAD_DSTYLE_DIM_LINETYPE
1070
   380
1005
250B
1001
ACAD_DSTYLE_DIM_EXT1_LINETYPE
1070
   381
1005
250B
1001
ACAD_DSTYLE_DIM_EXT2_LINETYPE
1070
   382
1005
250B
  0
DIMSTYLE
105
2556
330
24B3
100
AcDbSymbolTableRecord
100
AcDbDimStyleTableRecord
  2
AM_ANSI$3
 70
     0
  4
mm
 41
0.12
 42
0.05
 43
0.5
 44
0.1
 47
0.1
 48
0.1
 78
     7
 79
     2
140
0.12
141
0.0
146
0.71
147
0.06
176
   256
177
   256
178
     2
274
     4
284
     7
288
     1
289
     0
340
2506
371
    -1
372
    -1
1001
ACAD_DSTYLE_DIMARC_LENGTH_SYMBOL
1070
   379
1070
     1
1001
ACAD_DSTYLE_DIM_LINETYPE
1070
   380
1005
250B
1001
ACAD_DSTYLE_DIM_EXT1_LINETYPE
1070
   381
1005
250B
1001
ACAD_DSTYLE_DIM_EXT2_LINETYPE
1070
   382
1005
250B
  0
DIMSTYLE
105
2557
330
24B3
100
AcDbSymbolTableRecord
100
AcDbDimStyleTableRecord
  2
AM_ANSI$4
 70
     0
  4
mm
 41
0.12
 42
0.05
 43
0.5
 44
0.1
 47
0.1
 48
0.1
 78
     7
 79
     2
140
0.12
141
0.0
146
0.71
147
0.06
176
   256
177
   256
178
     2
274
     4
284
     7
340
2506
371
    -1
372
    -1
1001
ACAD_DSTYLE_DIMARC_LENGTH_SYMBOL
1070
   379
1070
     1
1001
ACAD_DSTYLE_DIM_LINETYPE
1070
   380
1005
250B
1001
ACAD_DSTYLE_DIM_EXT1_LINETYPE
1070
   381
1005
250B
1001
ACAD_DSTYLE_DIM_EXT2_LINETYPE
1070
   382
1005
250B
  0
DIMSTYLE
105
2558
330
24B3
100
AcDbSymbolTableRecord
100
AcDbDimStyleTableRecord
  2
AM_ANSI$7
 70
     0
  4
mm
 41
0.12
 42
0.05
 43
0.5
 44
0.1
 47
0.1
 48
0.1
 78
     7
 79
     2
140
0.12
141
0.0
146
0.71
147
0.06
176
   256
177
   256
178
     2
274
     4
284
     7
340
2506
371
    -1
372
    -1
1001
ACAD_DSTYLE_DIMARC_LENGTH_SYMBOL
1070
   379
1070
     1
1001
ACAD_DSTYLE_DIM_LINETYPE
1070
   380
1005
250B
1001
ACAD_DSTYLE_DIM_EXT1_LINETYPE
1070
   381
1005
250B
1001
ACAD_DSTYLE_DIM_EXT2_LINETYPE
1070
   382
1005
250B
  0
DIMSTYLE
105
2559
330
24B3
100
AcDbSymbolTableRecord
100
AcDbDimStyleTableRecord
  2
AM_ANSI$SF
 70
     0
  4
mm
 41
0.12
 42
0.05
 43
0.5
 44
0.1
 47
0.1
 48
0.1
 75
     1
 76
     1
 78
     7
 79
     2
140
0.12
141
0.0
146
0.71
147
0.06
176
   256
177
   256
178
     2
274
     4
284
     7
340
2506
371
    -1
372
    -1
1001
ACAD_DSTYLE_DIMARC_LENGTH_SYMBOL
1070
   379
1070
     1
1001
ACAD_DSTYLE_DIM_LINETYPE
1070
   380
1005
250B
1001
ACAD_DSTYLE_DIM_EXT1_LINETYPE
1070
   381
1005
250B
1001
ACAD_DSTYLE_DIM_EXT2_LINETYPE
1070
   382
1005
250B
  0
DIMSTYLE
105
255A
330
24B3
100
AcDbSymbolTableRecord
100
AcDbDimStyleTableRecord
  2
AM_ANSI$SH
 70
     0
  4
mm
 41
0.12
 42
0.05
 43
0.5
 44
0.1
 47
0.1
 48
0.1
 75
     1
 76
     1
 78
     7
 79
     2
140
0.12
141
0.0
146
0.71
147
0.06
173
     1
176
   256
177
   256
178
     2
274
     4
284
     7
340
2506
343
257A
371
    -1
372
    -1
1001
ACAD_DSTYLE_DIMARC_LENGTH_SYMBOL
1070
   379
1070
     1
1001
ACAD_DSTYLE_DIM_LINETYPE
1070
   380
1005
250B
1001
ACAD_DSTYLE_DIM_EXT1_LINETYPE
1070
   381
1005
250B
1001
ACAD_DSTYLE_DIM_EXT2_LINETYPE
1070
   382
1005
250B
  0
DIMSTYLE
105
255B
330
24B3
100
AcDbSymbolTableRecord
100
AcDbDimStyleTableRecord
  2
STANDARD1
 70
     0
 40
6.0
 41
2.5
 42
0.625
 43
6.0
 44
1.25
 47
1.0
 48
0.5
 77
     1
 78
     8
140
2.5
141
0.0
146
0.6
147
1.0
173
     1
275
     1
279
     2
284
     7
285
     7
286
     7
340
2506
  0
DIMSTYLE
105
255C
330
24B3
100
AcDbSymbolTableRecord
100
AcDbDimStyleTableRecord
  2
STANDARD$0
 70
     0
 41
12.0
 42
20.0
 44
20.0
 73
     0
 74
     0
 77
     1
 78
     8
140
64.0
141
0.0
147
10.0
275
     1
279
     2
284
     7
285
     7
286
     7
340
2506
  0
ENDTAB
  0
TABLE
  2
BLOCK_RECORD
  5
24AA
330
0
100
AcDbSymbolTable
 70
    69
  0
BLOCK_RECORD
  5
251D
102
{ACAD_XDICTIONARY
360
26E4
102
}
330
24AA
100
AcDbSymbolTableRecord
100
AcDbBlockTableRecord
  2
*Model_Space
340
2520
  0
BLOCK_RECORD
  5
2519
330
24AA
100
AcDbSymbolTableRecord
100
AcDbBlockTableRecord
  2
*Paper_Space
340
251C
  0
BLOCK_RECORD
  5
2564
330
24AA
100
AcDbSymbolTableRecord
100
AcDbBlockTableRecord
  2
$MODEL_SPACE
340
0
  0
BLOCK_RECORD
  5
2566
330
24AA
100
AcDbSymbolTableRecord
100
AcDbBlockTableRecord
  2
$PAPER_SPACE
340
0
  0
BLOCK_RECORD
  5
2568
330
24AA
100
AcDbSymbolTableRecord
100
AcDbBlockTableRecord
  2
_ORIGIN
340
0
  0
BLOCK_RECORD
  5
256A
330
24AA
100
AcDbSymbolTableRecord
100
AcDbBlockTableRecord
  2
_DOTBLANK
340
0
102
{BLKREFS
331
1299
331
129A
331
11AA
331
11AB
331
E80
331
E81
331
1123
331
1124
331
11C2
331
11C3
331
11EC
331
11ED
331
11F9
331
11FA
331
1287
331
1288
331
1417
331
1418
331
1423
331
1424
331
142F
331
1430
331
143B
331
143C
331
166E
331
166F
331
1677
331
1678
331
1680
331
1681
331
1689
331
168A
331
1696
331
1697
331
16A3
331
16A4
331
16AF
331
16B0
331
16BB
331
16BC
331
16C7
331
16C8
331
16D3
331
16D4
331
1D86
331
1D87
331
1D8F
331
1D90
331
1D98
331
1D99
331
1DA1
331
1DA2
331
1DAB
331
1DAC
331
1DB5
331
1DB6
331
2456
331
2457
331
245B
331
245C
331
2460
331
2461
331
2465
331
2466
331
246A
331
246B
331
246F
331
2470
331
2474
331
2475
331
2479
331
247A
331
247E
331
247F
331
2483
331
2484
102
}
  0
BLOCK_RECORD
  5
256C
330
24AA
100
AcDbSymbolTableRecord
100
AcDbBlockTableRecord
  2
_OPEN30
340
0
102
{BLKREFS
331
2087
331
21BB
102
}
  0
BLOCK_RECORD
  5
256E
330
24AA
100
AcDbSymbolTableRecord
100
AcDbBlockTableRecord
  2
*D5
340
0
  0
BLOCK_RECORD
  5
2570
330
24AA
100
AcDbSymbolTableRecord
100
AcDbBlockTableRecord
  2
*U6
340
0
102
{BLKREFS
331
129B
102
}
  0
BLOCK_RECORD
  5
2572
330
24AA
100
AcDbSymbolTableRecord
100
AcDbBlockTableRecord
  2
*D7
340
0
  0
BLOCK_RECORD
  5
2574
330
24AA
100
AcDbSymbolTableRecord
100
AcDbBlockTableRecord
  2
*U8
340
0
102
{BLKREFS
331
11AC
102
}
  0
BLOCK_RECORD
  5
2576
330
24AA
100
AcDbSymbolTableRecord
100
AcDbBlockTableRecord
  2
*D9
340
0
  0
BLOCK_RECORD
  5
2578
330
24AA
100
AcDbSymbolTableRecord
100
AcDbBlockTableRecord
  2
*U10
340
0
102
{BLKREFS
331
E82
102
}
  0
BLOCK_RECORD
  5
257A
330
24AA
100
AcDbSymbolTableRecord
100
AcDbBlockTableRecord
  2
GENAXEH
340
0
  0
BLOCK_RECORD
  5
257C
330
24AA
100
AcDbSymbolTableRecord
100
AcDbBlockTableRecord
  2
*D12
340
0
  0
BLOCK_RECORD
  5
257E
330
24AA
100
AcDbSymbolTableRecord
100
AcDbBlockTableRecord
  2
*U13
340
0
102
{BLKREFS
331
1125
102
}
  0
BLOCK_RECORD
  5
2580
330
24AA
100
AcDbSymbolTableRecord
100
AcDbBlockTableRecord
  2
*D14
340
0
  0
BLOCK_RECORD
  5
2582
330
24AA
100
AcDbSymbolTableRecord
100
AcDbBlockTableRecord
  2
*U15
340
0
102
{BLKREFS
331
11C4
102
}
  0
BLOCK_RECORD
  5
2584
330
24AA
100
AcDbSymbolTableRecord
100
AcDbBlockTableRecord
  2
*D16
340
0
  0
BLOCK_RECORD
  5
2586
330
24AA
100
AcDbSymbolTableRecord
100
AcDbBlockTableRecord
  2
*U17
340
0
102
{BLKREFS
331
11EE
102
}
  0
BLOCK_RECORD
  5
2588
330
24AA
100
AcDbSymbolTableRecord
100
AcDbBlockTableRecord
  2
*D18
340
0
  0
BLOCK_RECORD
  5
258A
330
24AA
100
AcDbSymbolTableRecord
100
AcDbBlockTableRecord
  2
*U19
340
0
102
{BLKREFS
331
11FB
102
}
  0
BLOCK_RECORD
  5
258C
330
24AA
100
AcDbSymbolTableRecord
100
AcDbBlockTableRecord
  2
*D20
340
0
  0
BLOCK_RECORD
  5
258E
330
24AA
100
AcDbSymbolTableRecord
100
AcDbBlockTableRecord
  2
*U21
340
0
102
{BLKREFS
331
1289
102
}
  0
BLOCK_RECORD
  5
2590
330
24AA
100
AcDbSymbolTableRecord
100
AcDbBlockTableRecord
  2
*D22
340
0
  0
BLOCK_RECORD
  5
2592
330
24AA
100
AcDbSymbolTableRecord
100
AcDbBlockTableRecord
  2
*U23
340
0
102
{BLKREFS
331
1419
102
}
  0
BLOCK_RECORD
  5
2594
330
24AA
100
AcDbSymbolTableRecord
100
AcDbBlockTableRecord
  2
*D24
340
0
  0
BLOCK_RECORD
  5
2596
330
24AA
100
AcDbSymbolTableRecord
100
AcDbBlockTableRecord
  2
*U25
340
0
102
{BLKREFS
331
1425
102
}
  0
BLOCK_RECORD
  5
2598
330
24AA
100
AcDbSymbolTableRecord
100
AcDbBlockTableRecord
  2
*D26
340
0
  0
BLOCK_RECORD
  5
259A
330
24AA
100
AcDbSymbolTableRecord
100
AcDbBlockTableRecord
  2
*U27
340
0
102
{BLKREFS
331
1431
102
}
  0
BLOCK_RECORD
  5
259C
330
24AA
100
AcDbSymbolTableRecord
100
AcDbBlockTableRecord
  2
*D28
340
0
  0
BLOCK_RECORD
  5
259E
330
24AA
100
AcDbSymbolTableRecord
100
AcDbBlockTableRecord
  2
*U29
340
0
102
{BLKREFS
331
143D
102
}
  0
BLOCK_RECORD
  5
25A0
330
24AA
100
AcDbSymbolTableRecord
100
AcDbBlockTableRecord
  2
*D30
340
0
  0
BLOCK_RECORD
  5
25A2
330
24AA
100
AcDbSymbolTableRecord
100
AcDbBlockTableRecord
  2
*U31
340
0
102
{BLKREFS
331
1670
102
}
  0
BLOCK_RECORD
  5
25A4
330
24AA
100
AcDbSymbolTableRecord
100
AcDbBlockTableRecord
  2
*D32
340
0
  0
BLOCK_RECORD
  5
25A6
330
24AA
100
AcDbSymbolTableRecord
100
AcDbBlockTableRecord
  2
*U33
340
0
102
{BLKREFS
331
1679
102
}
  0
BLOCK_RECORD
  5
25A8
330
24AA
100
AcDbSymbolTableRecord
100
AcDbBlockTableRecord
  2
*D34
340
0
  0
BLOCK_RECORD
  5
25AA
330
24AA
100
AcDbSymbolTableRecord
100
AcDbBlockTableRecord
  2
*U35
340
0
102
{BLKREFS
331
1682
102
}
  0
BLOCK_RECORD
  5
25AC
330
24AA
100
AcDbSymbolTableRecord
100
AcDbBlockTableRecord
  2
*D36
340
0
  0
BLOCK_RECORD
  5
25AE
330
24AA
100
AcDbSymbolTableRecord
100
AcDbBlockTableRecord
  2
*U37
340
0
102
{BLKREFS
331
168B
102
}
  0
BLOCK_RECORD
  5
25B0
330
24AA
100
AcDbSymbolTableRecord
100
AcDbBlockTableRecord
  2
*U38
340
0
  0
BLOCK_RECORD
  5
25B2
330
24AA
100
AcDbSymbolTableRecord
100
AcDbBlockTableRecord
  2
*D39
340
0
  0
BLOCK_RECORD
  5
25B4
330
24AA
100
AcDbSymbolTableRecord
100
AcDbBlockTableRecord
  2
*U40
340
0
102
{BLKREFS
331
1698
102
}
  0
BLOCK_RECORD
  5
25B6
330
24AA
100
AcDbSymbolTableRecord
100
AcDbBlockTableRecord
  2
*D41
340
0
  0
BLOCK_RECORD
  5
25B8
330
24AA
100
AcDbSymbolTableRecord
100
AcDbBlockTableRecord
  2
*U42
340
0
102
{BLKREFS
331
16A5
102
}
  0
BLOCK_RECORD
  5
25BA
330
24AA
100
AcDbSymbolTableRecord
100
AcDbBlockTableRecord
  2
*D43
340
0
  0
BLOCK_RECORD
  5
25BC
330
24AA
100
AcDbSymbolTableRecord
100
AcDbBlockTableRecord
  2
*U44
340
0
102
{BLKREFS
331
16B1
102
}
  0
BLOCK_RECORD
  5
25BE
330
24AA
100
AcDbSymbolTableRecord
100
AcDbBlockTableRecord
  2
*D45
340
0
  0
BLOCK_RECORD
  5
25C0
330
24AA
100
AcDbSymbolTableRecord
100
AcDbBlockTableRecord
  2
*U46
340
0
102
{BLKREFS
331
16BD
102
}
  0
BLOCK_RECORD
  5
25C2
330
24AA
100
AcDbSymbolTableRecord
100
AcDbBlockTableRecord
  2
*D47
340
0
  0
BLOCK_RECORD
  5
25C4
330
24AA
100
AcDbSymbolTableRecord
100
AcDbBlockTableRecord
  2
*U48
340
0
102
{BLKREFS
331
16C9
102
}
  0
BLOCK_RECORD
  5
25C6
330
24AA
100
AcDbSymbolTableRecord
100
AcDbBlockTableRecord
  2
*D49
340
0
  0
BLOCK_RECORD
  5
25C8
330
24AA
100
AcDbSymbolTableRecord
100
AcDbBlockTableRecord
  2
*U50
340
0
102
{BLKREFS
331
16D5
102
}
  0
BLOCK_RECORD
  5
25CA
330
24AA
100
AcDbSymbolTableRecord
100
AcDbBlockTableRecord
  2
*D51
340
0
  0
BLOCK_RECORD
  5
25CC
330
24AA
100
AcDbSymbolTableRecord
100
AcDbBlockTableRecord
  2
*U52
340
0
102
{BLKREFS
331
1D88
102
}
  0
BLOCK_RECORD
  5
25CE
330
24AA
100
AcDbSymbolTableRecord
100
AcDbBlockTableRecord
  2
*D53
340
0
  0
BLOCK_RECORD
  5
25D0
330
24AA
100
AcDbSymbolTableRecord
100
AcDbBlockTableRecord
  2
*U54
340
0
102
{BLKREFS
331
1D91
102
}
  0
BLOCK_RECORD
  5
25D2
330
24AA
100
AcDbSymbolTableRecord
100
AcDbBlockTableRecord
  2
*D55
340
0
  0
BLOCK_RECORD
  5
25D4
330
24AA
100
AcDbSymbolTableRecord
100
AcDbBlockTableRecord
  2
*U56
340
0
102
{BLKREFS
331
1D9A
102
}
  0
BLOCK_RECORD
  5
25D6
330
24AA
100
AcDbSymbolTableRecord
100
AcDbBlockTableRecord
  2
*D57
340
0
  0
BLOCK_RECORD
  5
25D8
330
24AA
100
AcDbSymbolTableRecord
100
AcDbBlockTableRecord
  2
*U58
340
0
102
{BLKREFS
331
1DA3
102
}
  0
BLOCK_RECORD
  5
25DA
330
24AA
100
AcDbSymbolTableRecord
100
AcDbBlockTableRecord
  2
*D59
340
0
  0
BLOCK_RECORD
  5
25DC
330
24AA
100
AcDbSymbolTableRecord
100
AcDbBlockTableRecord
  2
*U60
340
0
102
{BLKREFS
331
1DAD
102
}
  0
BLOCK_RECORD
  5
25DE
330
24AA
100
AcDbSymbolTableRecord
100
AcDbBlockTableRecord
  2
*D61
340
0
  0
BLOCK_RECORD
  5
25E0
330
24AA
100
AcDbSymbolTableRecord
100
AcDbBlockTableRecord
  2
*U62
340
0
102
{BLKREFS
331
1DB7
102
}
  0
BLOCK_RECORD
  5
25E2
330
24AA
100
AcDbSymbolTableRecord
100
AcDbBlockTableRecord
  2
*U63
340
0
  0
BLOCK_RECORD
  5
25E4
330
24AA
100
AcDbSymbolTableRecord
100
AcDbBlockTableRecord
  2
*U64
340
0
  0
BLOCK_RECORD
  5
25E6
330
24AA
100
AcDbSymbolTableRecord
100
AcDbBlockTableRecord
  2
*U65
340
0
  0
BLOCK_RECORD
  5
25E8
330
24AA
100
AcDbSymbolTableRecord
100
AcDbBlockTableRecord
  2
*U66
340
0
102
{BLKREFS
331
23B9
102
}
  0
BLOCK_RECORD
  5
25EA
330
24AA
100
AcDbSymbolTableRecord
100
AcDbBlockTableRecord
  2
*U67
340
0
102
{BLKREFS
331
23BA
102
}
  0
ENDTAB
  0
ENDSEC
  0
SECTION
  2
BLOCKS
  0
BLOCK
  5
251E
330
251D
100
AcDbEntity
  8
0
100
AcDbBlockBegin
  2
*Model_Space
 70
     0
 10
0.0
 20
0.0
 30
0.0
  3
*Model_Space
  1

  0
ENDBLK
  5
251F
330
251D
100
AcDbEntity
  8
0
100
AcDbBlockEnd
  0
BLOCK
  5
251A
330
2519
100
AcDbEntity
 67
     1
  8
0
100
AcDbBlockBegin
  2
*Paper_Space
 70
     0
 10
0.0
 20
0.0
 30
0.0
  3
*Paper_Space
  1

  0
ENDBLK
  5
251B
330
2519
100
AcDbEntity
 67
     1
  8
0
100
AcDbBlockEnd
  0
BLOCK
  5
2565
330
2564
100
AcDbEntity
  8
0
100
AcDbBlockBegin
  2
$MODEL_SPACE
 70
     0
 10
0.0
 20
0.0
 30
0.0
  3
$MODEL_SPACE
  1

  0
ENDBLK
  5
1FC1
330
2564
100
AcDbEntity
  8
0
100
AcDbBlockEnd
  0
BLOCK
  5
2567
330
2566
100
AcDbEntity
  8
0
100
AcDbBlockBegin
  2
$PAPER_SPACE
 70
     0
 10
0.0
 20
0.0
 30
0.0
  3
$PAPER_SPACE
  1

  0
ENDBLK
  5
1FBD
330
2566
100
AcDbEntity
  8
0
100
AcDbBlockEnd
  0
BLOCK
  5
2569
330
2568
100
AcDbEntity
  8
0
100
AcDbBlockBegin
  2
_ORIGIN
 70
     0
 10
0.0
 20
0.0
 30
0.0
  3
_ORIGIN
  1

  0
CIRCLE
  5
880
330
2568
100
AcDbEntity
  8
0
  6
Continuous
 62
     7
100
AcDbCircle
 10
0.0
 20
0.0
 30
0.0
 40
0.5
  0
LINE
  5
881
330
2568
100
AcDbEntity
  8
0
  6
Continuous
 62
     7
100
AcDbLine
 10
0.0
 20
0.0
 30
0.0
 11
-1.0
 21
0.0
 31
0.0
  0
ENDBLK
  5
882
330
2568
100
AcDbEntity
  8
0
100
AcDbBlockEnd
  0
BLOCK
  5
256B
330
256A
100
AcDbEntity
  8
0
 62
     1
100
AcDbBlockBegin
  2
_DOTBLANK
 70
     0
 10
0.0
 20
0.0
 30
0.0
  3
_DOTBLANK
  1

  0
CIRCLE
  5
AB3
330
256A
100
AcDbEntity
  8
0
  6
ByBlock
 62
     0
100
AcDbCircle
 10
0.0
 20
0.0
 30
0.0
 40
0.5
  0
LINE
  5
AB4
330
256A
100
AcDbEntity
  8
0
  6
ByBlock
 62
     0
100
AcDbLine
 10
-0.5
 20
0.0
 30
0.0
 11
-1.0
 21
0.0
 31
0.0
  0
ENDBLK
  5
AB6
330
256A
100
AcDbEntity
  8
0
 62
     1
100
AcDbBlockEnd
  0
BLOCK
  5
256D
330
256C
100
AcDbEntity
  8
0
 62
     1
100
AcDbBlockBegin
  2
_OPEN30
 70
     0
 10
0.0
 20
0.0
 30
0.0
  3
_OPEN30
  1

  0
LINE
  5
AB8
330
256C
100
AcDbEntity
  8
0
  6
ByBlock
 62
     0
100
AcDbLine
 10
-1.0
 20
0.26794919
 30
0.0
 11
0.0
 21
0.0
 31
0.0
  0
LINE
  5
AB9
330
256C
100
AcDbEntity
  8
0
  6
ByBlock
 62
     0
100
AcDbLine
 10
0.0
 20
0.0
 30
0.0
 11
-1.0
 21
-0.26794919
 31
0.0
  0
LINE
  5
ABA
330
256C
100
AcDbEntity
  8
0
  6
ByBlock
 62
     0
100
AcDbLine
 10
0.0
 20
0.0
 30
0.0
 11
-1.0
 21
0.0
 31
0.0
  0
ENDBLK
  5
ABC
330
256C
100
AcDbEntity
  8
0
 62
     1
100
AcDbBlockEnd
  0
BLOCK
  5
256F
330
256E
100
AcDbEntity
  8
0
100
AcDbBlockBegin
  2
*D5
 70
     1
 10
0.0
 20
0.0
 30
0.0
  3
*D5
  1

  0
LINE
  5
1296
330
256E
100
AcDbEntity
  8
SIZE
 62
     0
100
AcDbLine
 10
-134.5
 20
-320.0
 30
0.0
 11
-134.5
 21
-468.0173952306001
 31
0.0
  0
LINE
  5
1297
330
256E
100
AcDbEntity
  8
SIZE
 62
     0
100
AcDbLine
 10
134.5
 20
-320.0
 30
0.0
 11
134.5
 21
-468.0173952306001
 31
0.0
  0
LINE
  5
1298
330
256E
100
AcDbEntity
  8
SIZE
 62
     0
100
AcDbLine
 10
-122.5
 20
-448.0173952306
 30
0.0
 11
122.5
 21
-448.0173952306
 31
0.0
  0
INSERT
  5
1299
330
256E
100
AcDbEntity
  8
SIZE
 62
     0
100
AcDbBlockReference
  2
_DOTBLANK
 10
-134.5
 20
-448.0173952306
 30
0.0
 41
12.0
 42
12.0
 43
12.0
 50
180.0
  0
INSERT
  5
129A
330
256E
100
AcDbEntity
  8
SIZE
 62
     0
100
AcDbBlockReference
  2
_DOTBLANK
 10
134.5
 20
-448.0173952306
 30
0.0
 41
12.0
 42
12.0
 43
12.0
  0
INSERT
  5
129B
330
256E
100
AcDbEntity
  8
0
100
AcDbBlockReference
  2
*U6
 10
0.0
 20
0.0
 30
0.0
  0
POINT
  5
129C
330
256E
100
AcDbEntity
  8
DEFPOINTS
 62
     0
100
AcDbPoint
 10
-134.5
 20
-300.0
 30
0.0
  0
POINT
  5
129D
330
256E
100
AcDbEntity
  8
DEFPOINTS
 62
     0
100
AcDbPoint
 10
134.5
 20
-300.0
 30
0.0
  0
POINT
  5
129E
330
256E
100
AcDbEntity
  8
DEFPOINTS
 62
     0
100
AcDbPoint
 10
134.5
 20
-448.0173952306
 30
0.0
  0
ENDBLK
  5
D72
330
256E
100
AcDbEntity
  8
0
100
AcDbBlockEnd
  0
BLOCK
  5
2571
330
2570
100
AcDbEntity
  8
0
100
AcDbBlockBegin
  2
*U6
 70
     1
 10
0.0
 20
0.0
 30
0.0
  3
*U6
  1

  0
TEXT
  5
1EF5
330
2570
100
AcDbEntity
  8
SIZE
 62
     0
100
AcDbText
 10
-72.68571428571426
 20
-438.0173952305999
 30
0.0
 40
64.0
  1
269
 41
0.9
100
AcDbText
  0
ENDBLK
  5
1EF7
330
2570
100
AcDbEntity
  8
0
100
AcDbBlockEnd
  0
BLOCK
  5
2573
330
2572
100
AcDbEntity
  8
0
100
AcDbBlockBegin
  2
*D7
 70
     1
 10
0.0
 20
0.0
 30
0.0
  3
*D7
  1

  0
LINE
  5
11A7
330
2572
100
AcDbEntity
  8
SIZE
  6
Continuous
 62
     0
100
AcDbLine
 10
143.5
 20
-300.0
 30
0.0
 11
304.6432844803791
 21
-300.0
 31
0.0
  0
LINE
  5
11A8
330
2572
100
AcDbEntity
  8
SIZE
  6
Continuous
 62
     0
100
AcDbLine
 10
177.5
 20
-0.0000000000000057
 30
0.0
 11
304.6432844803792
 21
-0.0000000000000417
 31
0.0
  0
LINE
  5
11A9
330
2572
100
AcDbEntity
  8
SIZE
  6
Continuous
 62
     0
100
AcDbLine
 10
284.6432844803791
 20
-288.0000000000001
 30
0.0
 11
284.6432844803792
 21
-12.00000000000003
 31
0.0
  0
INSERT
  5
11AA
330
2572
100
AcDbEntity
  8
SIZE
  6
Continuous
 62
     0
100
AcDbBlockReference
  2
_DOTBLANK
 10
284.6432844803791
 20
-300.0
 30
0.0
 41
12.0
 42
12.0
 43
12.0
 50
270.0
  0
INSERT
  5
11AB
330
2572
100
AcDbEntity
  8
SIZE
  6
Continuous
 62
     0
100
AcDbBlockReference
  2
_DOTBLANK
 10
284.6432844803792
 20
-0.000000000000036
 30
0.0
 41
12.0
 42
12.0
 43
12.0
 50
90.0
  0
INSERT
  5
11AC
330
2572
100
AcDbEntity
  8
0
100
AcDbBlockReference
  2
*U8
 10
0.0
 20
0.0
 30
0.0
  0
POINT
  5
11AD
330
2572
100
AcDbEntity
  8
DEFPOINTS
  6
Continuous
 62
     0
100
AcDbPoint
 10
123.5
 20
-300.0
 30
0.0
  0
POINT
  5
11AE
330
2572
100
AcDbEntity
  8
DEFPOINTS
  6
Continuous
 62
     0
100
AcDbPoint
 10
157.5
 20
0.0
 30
0.0
  0
POINT
  5
11AF
330
2572
100
AcDbEntity
  8
DEFPOINTS
  6
Continuous
 62
     0
100
AcDbPoint
 10
284.6432844803792
 20
-0.000000000000036
 30
0.0
  0
ENDBLK
  5
E11
330
2572
100
AcDbEntity
  8
0
100
AcDbBlockEnd
  0
BLOCK
  5
2575
330
2574
100
AcDbEntity
  8
0
100
AcDbBlockBegin
  2
*U8
 70
     1
 10
0.0
 20
0.0
 30
0.0
  3
*U8
  1

  0
TEXT
  5
1EE1
330
2574
100
AcDbEntity
  8
SIZE
 62
     0
100
AcDbText
 10
274.6432844803792
 20
-224.0571428571429
 30
0.0
 40
64.0
  1
300
 50
90.0
 41
0.9
100
AcDbText
  0
ENDBLK
  5
1EE3
330
2574
100
AcDbEntity
  8
0
100
AcDbBlockEnd
  0
BLOCK
  5
2577
330
2576
100
AcDbEntity
  8
0
100
AcDbBlockBegin
  2
*D9
 70
     1
 10
0.0
 20
0.0
 30
0.0
  3
*D9
  1

  0
LINE
  5
E7D
330
2576
100
AcDbEntity
  8
SIZE
 62
     0
100
AcDbLine
 10
-139.9999999999998
 20
32.46448280219375
 30
0.0
 11
-139.9999999999998
 21
136.4516878685508
 31
0.0
  0
LINE
  5
E7E
330
2576
100
AcDbEntity
  8
SIZE
 62
     0
100
AcDbLine
 10
140.0
 20
32.46448280219375
 30
0.0
 11
140.0
 21
136.4516878685508
 31
0.0
  0
LINE
  5
E7F
330
2576
100
AcDbEntity
  8
SIZE
 62
     0
100
AcDbLine
 10
-128.0
 20
116.4516878685508
 30
0.0
 11
128.0
 21
116.4516878685508
 31
0.0
  0
INSERT
  5
E80
330
2576
100
AcDbEntity
  8
SIZE
 62
     0
100
AcDbBlockReference
  2
_DOTBLANK
 10
-139.9999999999998
 20
116.4516878685508
 30
0.0
 41
12.0
 42
12.0
 43
12.0
 50
180.0
  0
INSERT
  5
E81
330
2576
100
AcDbEntity
  8
SIZE
 62
     0
100
AcDbBlockReference
  2
_DOTBLANK
 10
140.0
 20
116.4516878685508
 30
0.0
 41
12.0
 42
12.0
 43
12.0
  0
INSERT
  5
E82
330
2576
100
AcDbEntity
  8
0
100
AcDbBlockReference
  2
*U10
 10
0.0
 20
0.0
 30
0.0
  0
POINT
  5
E83
330
2576
100
AcDbEntity
  8
DEFPOINTS
 62
     0
100
AcDbPoint
 10
-139.9999999999998
 20
12.46448280219374
 30
0.0
  0
POINT
  5
E84
330
2576
100
AcDbEntity
  8
DEFPOINTS
 62
     0
100
AcDbPoint
 10
140.0
 20
12.46448280219374
 30
0.0
  0
POINT
  5
E85
330
2576
100
AcDbEntity
  8
DEFPOINTS
 62
     0
100
AcDbPoint
 10
140.0
 20
116.4516878685508
 30
0.0
  0
ENDBLK
  5
E7C
330
2576
100
AcDbEntity
  8
0
100
AcDbBlockEnd
  0
BLOCK
  5
2579
330
2578
100
AcDbEntity
  8
0
100
AcDbBlockBegin
  2
*U10
 70
     1
 10
0.0
 20
0.0
 30
0.0
  3
*U10
  1

  0
TEXT
  5
1ED8
330
2578
100
AcDbEntity
  8
SIZE
 62
     0
100
AcDbText
 10
-74.05714285714281
 20
126.4516878685508
 30
0.0
 40
64.0
  1
280
 41
0.9
100
AcDbText
  0
ENDBLK
  5
1EDA
330
2578
100
AcDbEntity
  8
0
100
AcDbBlockEnd
  0
BLOCK
  5
257B
330
257A
100
AcDbEntity
  8
0
100
AcDbBlockBegin
  2
GENAXEH
 70
     0
 10
0.0
 20
0.0
 30
0.0
  3
GENAXEH
  1

  0
LINE
  5
FDB
330
257A
100
AcDbEntity
  8
0
100
AcDbLine
 10
-1.0
 20
0.0
 30
0.0
 11
1.0
 21
0.0
 31
0.0
  0
ENDBLK
  5
FDD
330
257A
100
AcDbEntity
  8
0
100
AcDbBlockEnd
  0
BLOCK
  5
257D
330
257C
100
AcDbEntity
  8
0
100
AcDbBlockBegin
  2
*D12
 70
     1
 10
0.0
 20
0.0
 30
0.0
  3
*D12
  1

  0
LINE
  5
1120
330
257C
100
AcDbEntity
  8
SIZE
 62
     0
100
AcDbLine
 10
-157.5
 20
20.0
 30
0.0
 11
-157.5
 21
245.5794621189598
 31
0.0
  0
LINE
  5
1121
330
257C
100
AcDbEntity
  8
SIZE
 62
     0
100
AcDbLine
 10
157.5
 20
20.0
 30
0.0
 11
157.5
 21
245.5794621189598
 31
0.0
  0
LINE
  5
1122
330
257C
100
AcDbEntity
  8
SIZE
 62
     0
100
AcDbLine
 10
-145.5
 20
225.5794621189598
 30
0.0
 11
145.5
 21
225.5794621189598
 31
0.0
  0
INSERT
  5
1123
330
257C
100
AcDbEntity
  8
SIZE
 62
     0
100
AcDbBlockReference
  2
_DOTBLANK
 10
-157.5
 20
225.5794621189598
 30
0.0
 41
12.0
 42
12.0
 43
12.0
 50
180.0
  0
INSERT
  5
1124
330
257C
100
AcDbEntity
  8
SIZE
 62
     0
100
AcDbBlockReference
  2
_DOTBLANK
 10
157.5
 20
225.5794621189598
 30
0.0
 41
12.0
 42
12.0
 43
12.0
  0
INSERT
  5
1125
330
257C
100
AcDbEntity
  8
0
100
AcDbBlockReference
  2
*U13
 10
0.0
 20
0.0
 30
0.0
  0
POINT
  5
1126
330
257C
100
AcDbEntity
  8
DEFPOINTS
 62
     0
100
AcDbPoint
 10
-157.5
 20
0.0
 30
0.0
  0
POINT
  5
1127
330
257C
100
AcDbEntity
  8
DEFPOINTS
 62
     0
100
AcDbPoint
 10
157.5
 20
0.0
 30
0.0
  0
POINT
  5
1128
330
257C
100
AcDbEntity
  8
DEFPOINTS
 62
     0
100
AcDbPoint
 10
157.5
 20
225.5794621189598
 30
0.0
  0
ENDBLK
  5
111F
330
257C
100
AcDbEntity
  8
0
100
AcDbBlockEnd
  0
BLOCK
  5
257F
330
257E
100
AcDbEntity
  8
0
100
AcDbBlockBegin
  2
*U13
 70
     1
 10
0.0
 20
0.0
 30
0.0
  3
*U13
  1

  0
TEXT
  5
1EDD
330
257E
100
AcDbEntity
  8
SIZE
 62
     0
100
AcDbText
 10
-68.57142857142857
 20
235.5794621189599
 30
0.0
 40
64.0
  1
315
 41
0.9
100
AcDbText
  0
ENDBLK
  5
1EDF
330
257E
100
AcDbEntity
  8
0
100
AcDbBlockEnd
  0
BLOCK
  5
2581
330
2580
100
AcDbEntity
  8
0
100
AcDbBlockBegin
  2
*D14
 70
     1
 10
0.0
 20
0.0
 30
0.0
  3
*D14
  1

  0
LINE
  5
11BD
330
2580
100
AcDbEntity
  8
NOTE
 62
     0
100
AcDbLine
 10
-123.4999999999999
 20
-320.0
 30
0.0
 11
-123.4999999999999
 21
-354.9529861856111
 31
0.0
  0
LINE
  5
11BE
330
2580
100
AcDbEntity
  8
NOTE
 62
     0
100
AcDbLine
 10
-133.4999999999998
 20
-331.2126909923287
 30
0.0
 11
-133.4999999999998
 21
-354.9529861856111
 31
0.0
  0
LINE
  5
11BF
330
2580
100
AcDbEntity
  8
NOTE
 62
     0
100
AcDbLine
 10
-111.4999999999999
 20
-334.9529861856112
 30
0.0
 11
-99.4999999999999
 21
-334.9529861856112
 31
0.0
  0
LINE
  5
11C0
330
2580
100
AcDbEntity
  8
NOTE
 62
     0
100
AcDbLine
 10
-145.4999999999998
 20
-334.9529861856112
 30
0.0
 11
-157.4999999999998
 21
-334.9529861856112
 31
0.0
  0
LINE
  5
11C1
330
2580
100
AcDbEntity
  8
NOTE
 62
     0
100
AcDbLine
 10
-123.4999999999999
 20
-334.9529861856112
 30
0.0
 11
-133.4999999999998
 21
-334.9529861856112
 31
0.0
  0
INSERT
  5
11C2
330
2580
100
AcDbEntity
  8
NOTE
 62
     0
100
AcDbBlockReference
  2
_DOTBLANK
 10
-123.4999999999999
 20
-334.9529861856112
 30
0.0
 41
12.0
 42
12.0
 43
12.0
 50
180.0
  0
INSERT
  5
11C3
330
2580
100
AcDbEntity
  8
NOTE
 62
     0
100
AcDbBlockReference
  2
_DOTBLANK
 10
-133.4999999999998
 20
-334.9529861856112
 30
0.0
 41
12.0
 42
12.0
 43
12.0
  0
INSERT
  5
11C4
330
2580
100
AcDbEntity
  8
0
100
AcDbBlockReference
  2
*U15
 10
0.0
 20
0.0
 30
0.0
  0
POINT
  5
11C5
330
2580
100
AcDbEntity
  8
DEFPOINTS
 62
     0
100
AcDbPoint
 10
-123.4999999999999
 20
-300.0
 30
0.0
  0
POINT
  5
11C6
330
2580
100
AcDbEntity
  8
DEFPOINTS
 62
     0
100
AcDbPoint
 10
-133.4999999999998
 20
-311.2126909923287
 30
0.0
  0
POINT
  5
11C7
330
2580
100
AcDbEntity
  8
DEFPOINTS
 62
     0
100
AcDbPoint
 10
-133.4999999999998
 20
-334.9529861856112
 30
0.0
  0
ENDBLK
  5
11BC
330
2580
100
AcDbEntity
  8
0
100
AcDbBlockEnd
  0
BLOCK
  5
2583
330
2582
100
AcDbEntity
  8
0
100
AcDbBlockBegin
  2
*U15
 70
     1
 10
0.0
 20
0.0
 30
0.0
  3
*U15
  1

  0
TEXT
  5
1EE5
330
2582
100
AcDbEntity
  8
NOTE
 62
     0
100
AcDbText
 10
-169.642857142857
 20
-324.9529861856112
 30
0.0
 40
64.0
  1
10
 41
0.9
100
AcDbText
  0
ENDBLK
  5
1EE7
330
2582
100
AcDbEntity
  8
0
100
AcDbBlockEnd
  0
BLOCK
  5
2585
330
2584
100
AcDbEntity
  8
0
100
AcDbBlockBegin
  2
*D16
 70
     1
 10
0.0
 20
0.0
 30
0.0
  3
*D16
  1

  0
LINE
  5
11E7
330
2584
100
AcDbEntity
  8
NOTE
 62
     0
100
AcDbLine
 10
-135.5
 20
-333.2126909923287
 30
0.0
 11
-135.5
 21
-386.2569421441843
 31
0.0
  0
LINE
  5
11E8
330
2584
100
AcDbEntity
  8
NOTE
 62
     0
100
AcDbLine
 10
-123.4999999999999
 20
-320.0
 30
0.0
 11
-123.4999999999999
 21
-386.2569421441843
 31
0.0
  0
LINE
  5
11E9
330
2584
100
AcDbEntity
  8
NOTE
 62
     0
100
AcDbLine
 10
-147.5
 20
-366.2569421441844
 30
0.0
 11
-159.5
 21
-366.2569421441844
 31
0.0
  0
LINE
  5
11EA
330
2584
100
AcDbEntity
  8
NOTE
 62
     0
100
AcDbLine
 10
-111.4999999999999
 20
-366.2569421441844
 30
0.0
 11
-99.4999999999999
 21
-366.2569421441844
 31
0.0
  0
LINE
  5
11EB
330
2584
100
AcDbEntity
  8
NOTE
 62
     0
100
AcDbLine
 10
-135.5
 20
-366.2569421441844
 30
0.0
 11
-123.4999999999999
 21
-366.2569421441844
 31
0.0
  0
INSERT
  5
11EC
330
2584
100
AcDbEntity
  8
NOTE
 62
     0
100
AcDbBlockReference
  2
_DOTBLANK
 10
-135.5
 20
-366.2569421441844
 30
0.0
 41
12.0
 42
12.0
 43
12.0
  0
INSERT
  5
11ED
330
2584
100
AcDbEntity
  8
NOTE
 62
     0
100
AcDbBlockReference
  2
_DOTBLANK
 10
-123.4999999999999
 20
-366.2569421441844
 30
0.0
 41
12.0
 42
12.0
 43
12.0
 50
180.0
  0
INSERT
  5
11EE
330
2584
100
AcDbEntity
  8
0
100
AcDbBlockReference
  2
*U17
 10
0.0
 20
0.0
 30
0.0
  0
POINT
  5
11EF
330
2584
100
AcDbEntity
  8
DEFPOINTS
 62
     0
100
AcDbPoint
 10
-135.5
 20
-313.2126909923287
 30
0.0
  0
POINT
  5
11F0
330
2584
100
AcDbEntity
  8
DEFPOINTS
 62
     0
100
AcDbPoint
 10
-123.4999999999999
 20
-300.0
 30
0.0
  0
POINT
  5
11F1
330
2584
100
AcDbEntity
  8
DEFPOINTS
 62
     0
100
AcDbPoint
 10
-123.4999999999999
 20
-366.2569421441844
 30
0.0
  0
ENDBLK
  5
11E6
330
2584
100
AcDbEntity
  8
0
100
AcDbBlockEnd
  0
BLOCK
  5
2587
330
2586
100
AcDbEntity
  8
0
100
AcDbBlockBegin
  2
*U17
 70
     1
 10
0.0
 20
0.0
 30
0.0
  3
*U17
  1

  0
TEXT
  5
1EE9
330
2586
100
AcDbEntity
  8
NOTE
 62
     0
100
AcDbText
 10
-170.642857142857
 20
-356.2569421441843
 30
0.0
 40
64.0
  1
12
 41
0.9
100
AcDbText
  0
ENDBLK
  5
1EEB
330
2586
100
AcDbEntity
  8
0
100
AcDbBlockEnd
  0
BLOCK
  5
2589
330
2588
100
AcDbEntity
  8
0
100
AcDbBlockBegin
  2
*D18
 70
     1
 10
0.0
 20
0.0
 30
0.0
  3
*D18
  1

  0
LINE
  5
11F6
330
2588
100
AcDbEntity
  8
NOTE
 62
     0
100
AcDbLine
 10
-123.4999999999999
 20
-320.0
 30
0.0
 11
-123.4999999999999
 21
-583.8286022818904
 31
0.0
  0
LINE
  5
11F7
330
2588
100
AcDbEntity
  8
NOTE
 62
     0
100
AcDbLine
 10
123.5
 20
-320.0
 30
0.0
 11
123.5
 21
-583.8286022818904
 31
0.0
  0
LINE
  5
11F8
330
2588
100
AcDbEntity
  8
NOTE
 62
     0
100
AcDbLine
 10
-111.4999999999999
 20
-563.8286022818904
 30
0.0
 11
111.5
 21
-563.8286022818904
 31
0.0
  0
INSERT
  5
11F9
330
2588
100
AcDbEntity
  8
NOTE
 62
     0
100
AcDbBlockReference
  2
_DOTBLANK
 10
-123.4999999999999
 20
-563.8286022818904
 30
0.0
 41
12.0
 42
12.0
 43
12.0
 50
180.0
  0
INSERT
  5
11FA
330
2588
100
AcDbEntity
  8
NOTE
 62
     0
100
AcDbBlockReference
  2
_DOTBLANK
 10
123.5
 20
-563.8286022818904
 30
0.0
 41
12.0
 42
12.0
 43
12.0
  0
INSERT
  5
11FB
330
2588
100
AcDbEntity
  8
0
100
AcDbBlockReference
  2
*U19
 10
0.0
 20
0.0
 30
0.0
  0
POINT
  5
11FC
330
2588
100
AcDbEntity
  8
DEFPOINTS
 62
     0
100
AcDbPoint
 10
-123.4999999999999
 20
-300.0
 30
0.0
  0
POINT
  5
11FD
330
2588
100
AcDbEntity
  8
DEFPOINTS
 62
     0
100
AcDbPoint
 10
123.5
 20
-300.0
 30
0.0
  0
POINT
  5
11FE
330
2588
100
AcDbEntity
  8
DEFPOINTS
 62
     0
100
AcDbPoint
 10
123.5
 20
-563.8286022818904
 30
0.0
  0
ENDBLK
  5
11F5
330
2588
100
AcDbEntity
  8
0
100
AcDbBlockEnd
  0
BLOCK
  5
258B
330
258A
100
AcDbEntity
  8
0
100
AcDbBlockBegin
  2
*U19
 70
     1
 10
0.0
 20
0.0
 30
0.0
  3
*U19
  1

  0
TEXT
  5
1EED
330
258A
100
AcDbEntity
  8
NOTE
 62
     0
100
AcDbText
 10
-74.05714285714281
 20
-553.8286022818904
 30
0.0
 40
64.0
  1
247
 41
0.9
100
AcDbText
  0
ENDBLK
  5
1EEF
330
258A
100
AcDbEntity
  8
0
100
AcDbBlockEnd
  0
BLOCK
  5
258D
330
258C
100
AcDbEntity
  8
0
100
AcDbBlockBegin
  2
*D20
 70
     1
 10
0.0
 20
0.0
 30
0.0
  3
*D20
  1

  0
LINE
  5
1284
330
258C
100
AcDbEntity
  8
NOTE
 62
     0
100
AcDbLine
 10
-123.5
 20
12.0
 30
0.0
 11
-123.5
 21
71.83630134534229
 31
0.0
  0
LINE
  5
1285
330
258C
100
AcDbEntity
  8
NOTE
 62
     0
100
AcDbLine
 10
123.5
 20
12.0
 30
0.0
 11
123.5
 21
71.83630134534229
 31
0.0
  0
LINE
  5
1286
330
258C
100
AcDbEntity
  8
NOTE
 62
     0
100
AcDbLine
 10
-111.5
 20
51.83630134534229
 30
0.0
 11
111.5
 21
51.83630134534229
 31
0.0
  0
INSERT
  5
1287
330
258C
100
AcDbEntity
  8
NOTE
 62
     0
100
AcDbBlockReference
  2
_DOTBLANK
 10
-123.5
 20
51.83630134534229
 30
0.0
 41
12.0
 42
12.0
 43
12.0
 50
180.0
  0
INSERT
  5
1288
330
258C
100
AcDbEntity
  8
NOTE
 62
     0
100
AcDbBlockReference
  2
_DOTBLANK
 10
123.5
 20
51.83630134534229
 30
0.0
 41
12.0
 42
12.0
 43
12.0
  0
INSERT
  5
1289
330
258C
100
AcDbEntity
  8
0
100
AcDbBlockReference
  2
*U21
 10
0.0
 20
0.0
 30
0.0
  0
POINT
  5
128A
330
258C
100
AcDbEntity
  8
DEFPOINTS
 62
     0
100
AcDbPoint
 10
-123.5
 20
-8.0
 30
0.0
  0
POINT
  5
128B
330
258C
100
AcDbEntity
  8
DEFPOINTS
 62
     0
100
AcDbPoint
 10
123.5
 20
-8.0
 30
0.0
  0
POINT
  5
128C
330
258C
100
AcDbEntity
  8
DEFPOINTS
 62
     0
100
AcDbPoint
 10
123.5
 20
51.83630134534229
 30
0.0
  0
ENDBLK
  5
1283
330
258C
100
AcDbEntity
  8
0
100
AcDbBlockEnd
  0
BLOCK
  5
258F
330
258E
100
AcDbEntity
  8
0
100
AcDbBlockBegin
  2
*U21
 70
     1
 10
0.0
 20
0.0
 30
0.0
  3
*U21
  1

  0
TEXT
  5
1EF1
330
258E
100
AcDbEntity
  8
NOTE
 62
     0
100
AcDbText
 10
-74.05714285714283
 20
61.83630134534229
 30
0.0
 40
64.0
  1
247
 41
0.9
100
AcDbText
  0
ENDBLK
  5
1EF3
330
258E
100
AcDbEntity
  8
0
100
AcDbBlockEnd
  0
BLOCK
  5
2591
330
2590
100
AcDbEntity
  8
0
100
AcDbBlockBegin
  2
*D22
 70
     1
 10
0.0
 20
0.0
 30
0.0
  3
*D22
  1

  0
LINE
  5
1414
330
2590
100
AcDbEntity
  8
SIZE
 62
     0
100
AcDbLine
 10
-22313.11521613997
 20
7365.702971374808
 30
0.0
 11
-22313.11521613997
 21
7217.685576144207
 31
0.0
  0
LINE
  5
1415
330
2590
100
AcDbEntity
  8
SIZE
 62
     0
100
AcDbLine
 10
-22044.11521613997
 20
7365.702971374808
 30
0.0
 11
-22044.11521613997
 21
7217.685576144207
 31
0.0
  0
LINE
  5
1416
330
2590
100
AcDbEntity
  8
SIZE
 62
     0
100
AcDbLine
 10
-22301.11521613997
 20
7237.685576144207
 30
0.0
 11
-22056.11521613997
 21
7237.685576144207
 31
0.0
  0
INSERT
  5
1417
330
2590
100
AcDbEntity
  8
SIZE
 62
     0
100
AcDbBlockReference
  2
_DOTBLANK
 10
-22313.11521613997
 20
7237.685576144207
 30
0.0
 41
12.0
 42
12.0
 43
12.0
 50
180.0
  0
INSERT
  5
1418
330
2590
100
AcDbEntity
  8
SIZE
 62
     0
100
AcDbBlockReference
  2
_DOTBLANK
 10
-22044.11521613997
 20
7237.685576144207
 30
0.0
 41
12.0
 42
12.0
 43
12.0
  0
INSERT
  5
1419
330
2590
100
AcDbEntity
  8
0
100
AcDbBlockReference
  2
*U23
 10
0.0
 20
0.0
 30
0.0
  0
POINT
  5
141A
330
2590
100
AcDbEntity
  8
DEFPOINTS
 62
     0
100
AcDbPoint
 10
-22313.11521613997
 20
7385.702971374808
 30
0.0
  0
POINT
  5
141B
330
2590
100
AcDbEntity
  8
DEFPOINTS
 62
     0
100
AcDbPoint
 10
-22044.11521613997
 20
7385.702971374808
 30
0.0
  0
POINT
  5
141C
330
2590
100
AcDbEntity
  8
DEFPOINTS
 62
     0
100
AcDbPoint
 10
-22044.11521613997
 20
7237.685576144207
 30
0.0
  0
ENDBLK
  5
141D
330
2590
100
AcDbEntity
  8
0
100
AcDbBlockEnd
  0
BLOCK
  5
2593
330
2592
100
AcDbEntity
  8
0
100
AcDbBlockBegin
  2
*U23
 70
     1
 10
0.0
 20
0.0
 30
0.0
  3
*U23
  1

  0
TEXT
  5
1EF9
330
2592
100
AcDbEntity
  8
SIZE
 62
     0
100
AcDbText
 10
-22251.30093042568
 20
7247.685576144205
 30
0.0
 40
64.0
  1
269
 41
0.9
100
AcDbText
  0
ENDBLK
  5
1EFB
330
2592
100
AcDbEntity
  8
0
100
AcDbBlockEnd
  0
BLOCK
  5
2595
330
2594
100
AcDbEntity
  8
0
100
AcDbBlockBegin
  2
*D24
 70
     1
 10
0.0
 20
0.0
 30
0.0
  3
*D24
  1

  0
LINE
  5
1420
330
2594
100
AcDbEntity
  8
SIZE
  6
Continuous
 62
     0
100
AcDbLine
 10
-22035.11521613997
 20
7385.702971374808
 30
0.0
 11
-21873.97193165959
 21
7385.702971374808
 31
0.0
  0
LINE
  5
1421
330
2594
100
AcDbEntity
  8
SIZE
  6
Continuous
 62
     0
100
AcDbLine
 10
-22001.11521613997
 20
7685.702971374808
 30
0.0
 11
-21873.97193165959
 21
7685.702971374808
 31
0.0
  0
LINE
  5
1422
330
2594
100
AcDbEntity
  8
SIZE
  6
Continuous
 62
     0
100
AcDbLine
 10
-21893.97193165959
 20
7397.702971374808
 30
0.0
 11
-21893.97193165959
 21
7673.702971374808
 31
0.0
  0
INSERT
  5
1423
330
2594
100
AcDbEntity
  8
SIZE
  6
Continuous
 62
     0
100
AcDbBlockReference
  2
_DOTBLANK
 10
-21893.97193165959
 20
7385.702971374808
 30
0.0
 41
12.0
 42
12.0
 43
12.0
 50
270.0
  0
INSERT
  5
1424
330
2594
100
AcDbEntity
  8
SIZE
  6
Continuous
 62
     0
100
AcDbBlockReference
  2
_DOTBLANK
 10
-21893.97193165959
 20
7685.702971374808
 30
0.0
 41
12.0
 42
12.0
 43
12.0
 50
90.0
  0
INSERT
  5
1425
330
2594
100
AcDbEntity
  8
0
100
AcDbBlockReference
  2
*U25
 10
0.0
 20
0.0
 30
0.0
  0
POINT
  5
1426
330
2594
100
AcDbEntity
  8
DEFPOINTS
  6
Continuous
 62
     0
100
AcDbPoint
 10
-22055.11521613997
 20
7385.702971374808
 30
0.0
  0
POINT
  5
1427
330
2594
100
AcDbEntity
  8
DEFPOINTS
  6
Continuous
 62
     0
100
AcDbPoint
 10
-22021.11521613997
 20
7685.702971374808
 30
0.0
  0
POINT
  5
1428
330
2594
100
AcDbEntity
  8
DEFPOINTS
  6
Continuous
 62
     0
100
AcDbPoint
 10
-21893.97193165959
 20
7685.702971374808
 30
0.0
  0
ENDBLK
  5
1429
330
2594
100
AcDbEntity
  8
0
100
AcDbBlockEnd
  0
BLOCK
  5
2597
330
2596
100
AcDbEntity
  8
0
100
AcDbBlockBegin
  2
*U25
 70
     1
 10
0.0
 20
0.0
 30
0.0
  3
*U25
  1

  0
TEXT
  5
1EFD
330
2596
100
AcDbEntity
  8
SIZE
 62
     0
100
AcDbText
 10
-21903.97193165959
 20
7461.645828517662
 30
0.0
 40
64.0
  1
300
 50
90.0
 41
0.9
100
AcDbText
  0
ENDBLK
  5
1EFF
330
2596
100
AcDbEntity
  8
0
100
AcDbBlockEnd
  0
BLOCK
  5
2599
330
2598
100
AcDbEntity
  8
0
100
AcDbBlockBegin
  2
*D26
 70
     1
 10
0.0
 20
0.0
 30
0.0
  3
*D26
  1

  0
LINE
  5
142C
330
2598
100
AcDbEntity
  8
SIZE
 62
     0
100
AcDbLine
 10
-22318.61521613997
 20
7718.167454177002
 30
0.0
 11
-22318.61521613997
 21
7822.154659243358
 31
0.0
  0
LINE
  5
142D
330
2598
100
AcDbEntity
  8
SIZE
 62
     0
100
AcDbLine
 10
-22038.61521613997
 20
7718.167454177002
 30
0.0
 11
-22038.61521613997
 21
7822.154659243358
 31
0.0
  0
LINE
  5
142E
330
2598
100
AcDbEntity
  8
SIZE
 62
     0
100
AcDbLine
 10
-22306.61521613997
 20
7802.154659243358
 30
0.0
 11
-22050.61521613997
 21
7802.154659243358
 31
0.0
  0
INSERT
  5
142F
330
2598
100
AcDbEntity
  8
SIZE
 62
     0
100
AcDbBlockReference
  2
_DOTBLANK
 10
-22318.61521613997
 20
7802.154659243358
 30
0.0
 41
12.0
 42
12.0
 43
12.0
 50
180.0
  0
INSERT
  5
1430
330
2598
100
AcDbEntity
  8
SIZE
 62
     0
100
AcDbBlockReference
  2
_DOTBLANK
 10
-22038.61521613997
 20
7802.154659243358
 30
0.0
 41
12.0
 42
12.0
 43
12.0
  0
INSERT
  5
1431
330
2598
100
AcDbEntity
  8
0
100
AcDbBlockReference
  2
*U27
 10
0.0
 20
0.0
 30
0.0
  0
POINT
  5
1432
330
2598
100
AcDbEntity
  8
DEFPOINTS
 62
     0
100
AcDbPoint
 10
-22318.61521613997
 20
7698.167454177002
 30
0.0
  0
POINT
  5
1433
330
2598
100
AcDbEntity
  8
DEFPOINTS
 62
     0
100
AcDbPoint
 10
-22038.61521613997
 20
7698.167454177002
 30
0.0
  0
POINT
  5
1434
330
2598
100
AcDbEntity
  8
DEFPOINTS
 62
     0
100
AcDbPoint
 10
-22038.61521613997
 20
7802.154659243358
 30
0.0
  0
ENDBLK
  5
1435
330
2598
100
AcDbEntity
  8
0
100
AcDbBlockEnd
  0
BLOCK
  5
259B
330
259A
100
AcDbEntity
  8
0
100
AcDbBlockBegin
  2
*U27
 70
     1
 10
0.0
 20
0.0
 30
0.0
  3
*U27
  1

  0
TEXT
  5
1F01
330
259A
100
AcDbEntity
  8
SIZE
 62
     0
100
AcDbText
 10
-22252.6723589971
 20
7812.154659243358
 30
0.0
 40
64.0
  1
280
 41
0.9
100
AcDbText
  0
ENDBLK
  5
1F03
330
259A
100
AcDbEntity
  8
0
100
AcDbBlockEnd
  0
BLOCK
  5
259D
330
259C
100
AcDbEntity
  8
0
100
AcDbBlockBegin
  2
*D28
 70
     1
 10
0.0
 20
0.0
 30
0.0
  3
*D28
  1

  0
LINE
  5
1438
330
259C
100
AcDbEntity
  8
SIZE
 62
     0
100
AcDbLine
 10
-22336.11521613997
 20
7705.702971374808
 30
0.0
 11
-22336.11521613997
 21
7931.282433493766
 31
0.0
  0
LINE
  5
1439
330
259C
100
AcDbEntity
  8
SIZE
 62
     0
100
AcDbLine
 10
-22021.11521613997
 20
7705.702971374808
 30
0.0
 11
-22021.11521613997
 21
7931.282433493766
 31
0.0
  0
LINE
  5
143A
330
259C
100
AcDbEntity
  8
SIZE
 62
     0
100
AcDbLine
 10
-22324.11521613997
 20
7911.282433493766
 30
0.0
 11
-22033.11521613997
 21
7911.282433493766
 31
0.0
  0
INSERT
  5
143B
330
259C
100
AcDbEntity
  8
SIZE
 62
     0
100
AcDbBlockReference
  2
_DOTBLANK
 10
-22336.11521613997
 20
7911.282433493766
 30
0.0
 41
12.0
 42
12.0
 43
12.0
 50
180.0
  0
INSERT
  5
143C
330
259C
100
AcDbEntity
  8
SIZE
 62
     0
100
AcDbBlockReference
  2
_DOTBLANK
 10
-22021.11521613997
 20
7911.282433493766
 30
0.0
 41
12.0
 42
12.0
 43
12.0
  0
INSERT
  5
143D
330
259C
100
AcDbEntity
  8
0
100
AcDbBlockReference
  2
*U29
 10
0.0
 20
0.0
 30
0.0
  0
POINT
  5
143E
330
259C
100
AcDbEntity
  8
DEFPOINTS
 62
     0
100
AcDbPoint
 10
-22336.11521613997
 20
7685.702971374808
 30
0.0
  0
POINT
  5
143F
330
259C
100
AcDbEntity
  8
DEFPOINTS
 62
     0
100
AcDbPoint
 10
-22021.11521613997
 20
7685.702971374808
 30
0.0
  0
POINT
  5
1440
330
259C
100
AcDbEntity
  8
DEFPOINTS
 62
     0
100
AcDbPoint
 10
-22021.11521613997
 20
7911.282433493766
 30
0.0
  0
ENDBLK
  5
1441
330
259C
100
AcDbEntity
  8
0
100
AcDbBlockEnd
  0
BLOCK
  5
259F
330
259E
100
AcDbEntity
  8
0
100
AcDbBlockBegin
  2
*U29
 70
     1
 10
0.0
 20
0.0
 30
0.0
  3
*U29
  1

  0
TEXT
  5
1F05
330
259E
100
AcDbEntity
  8
SIZE
 62
     0
100
AcDbText
 10
-22247.18664471139
 20
7921.282433493766
 30
0.0
 40
64.0
  1
315
 41
0.9
100
AcDbText
  0
ENDBLK
  5
1F07
330
259E
100
AcDbEntity
  8
0
100
AcDbBlockEnd
  0
BLOCK
  5
25A1
330
25A0
100
AcDbEntity
  8
0
100
AcDbBlockBegin
  2
*D30
 70
     1
 10
0.0
 20
0.0
 30
0.0
  3
*D30
  1

  0
LINE
  5
166B
330
25A0
100
AcDbEntity
  8
SIZE
 62
     0
100
AcDbLine
 10
-134.5
 20
-320.0
 30
0.0
 11
-134.5
 21
-468.0173952306001
 31
0.0
  0
LINE
  5
166C
330
25A0
100
AcDbEntity
  8
SIZE
 62
     0
100
AcDbLine
 10
134.5
 20
-320.0
 30
0.0
 11
134.5
 21
-468.0173952306001
 31
0.0
  0
LINE
  5
166D
330
25A0
100
AcDbEntity
  8
SIZE
 62
     0
100
AcDbLine
 10
-122.5
 20
-448.0173952306
 30
0.0
 11
122.5
 21
-448.0173952306
 31
0.0
  0
INSERT
  5
166E
330
25A0
100
AcDbEntity
  8
SIZE
 62
     0
100
AcDbBlockReference
  2
_DOTBLANK
 10
-134.5
 20
-448.0173952306
 30
0.0
 41
12.0
 42
12.0
 43
12.0
 50
180.0
  0
INSERT
  5
166F
330
25A0
100
AcDbEntity
  8
SIZE
 62
     0
100
AcDbBlockReference
  2
_DOTBLANK
 10
134.5
 20
-448.0173952306
 30
0.0
 41
12.0
 42
12.0
 43
12.0
  0
INSERT
  5
1670
330
25A0
100
AcDbEntity
  8
0
100
AcDbBlockReference
  2
*U31
 10
0.0
 20
0.0
 30
0.0
  0
POINT
  5
1671
330
25A0
100
AcDbEntity
  8
DEFPOINTS
 62
     0
100
AcDbPoint
 10
-134.5
 20
-300.0
 30
0.0
  0
POINT
  5
1672
330
25A0
100
AcDbEntity
  8
DEFPOINTS
 62
     0
100
AcDbPoint
 10
134.5
 20
-300.0
 30
0.0
  0
POINT
  5
1673
330
25A0
100
AcDbEntity
  8
DEFPOINTS
 62
     0
100
AcDbPoint
 10
134.5
 20
-448.0173952306
 30
0.0
  0
ENDBLK
  5
14A7
330
25A0
100
AcDbEntity
  8
0
100
AcDbBlockEnd
  0
BLOCK
  5
25A3
330
25A2
100
AcDbEntity
  8
0
100
AcDbBlockBegin
  2
*U31
 70
     1
 10
0.0
 20
0.0
 30
0.0
  3
*U31
  1

  0
TEXT
  5
1F09
330
25A2
100
AcDbEntity
  8
SIZE
 62
     0
100
AcDbText
 10
-72.68571428571426
 20
-438.0173952306002
 30
0.0
 40
64.0
  1
269
 41
0.9
100
AcDbText
  0
ENDBLK
  5
1F0B
330
25A2
100
AcDbEntity
  8
0
100
AcDbBlockEnd
  0
BLOCK
  5
25A5
330
25A4
100
AcDbEntity
  8
0
100
AcDbBlockBegin
  2
*D32
 70
     1
 10
0.0
 20
0.0
 30
0.0
  3
*D32
  1

  0
LINE
  5
1674
330
25A4
100
AcDbEntity
  8
SIZE
  6
Continuous
 62
     0
100
AcDbLine
 10
143.5
 20
-300.0
 30
0.0
 11
304.6432844803784
 21
-300.0
 31
0.0
  0
LINE
  5
1675
330
25A4
100
AcDbEntity
  8
SIZE
  6
Continuous
 62
     0
100
AcDbLine
 10
177.5
 20
-0.0000000000000057
 30
0.0
 11
304.6432844803785
 21
-0.0000000000000417
 31
0.0
  0
LINE
  5
1676
330
25A4
100
AcDbEntity
  8
SIZE
  6
Continuous
 62
     0
100
AcDbLine
 10
284.6432844803784
 20
-288.0000000000001
 30
0.0
 11
284.6432844803785
 21
-12.00000000000003
 31
0.0
  0
INSERT
  5
1677
330
25A4
100
AcDbEntity
  8
SIZE
  6
Continuous
 62
     0
100
AcDbBlockReference
  2
_DOTBLANK
 10
284.6432844803784
 20
-300.0
 30
0.0
 41
12.0
 42
12.0
 43
12.0
 50
270.0
  0
INSERT
  5
1678
330
25A4
100
AcDbEntity
  8
SIZE
  6
Continuous
 62
     0
100
AcDbBlockReference
  2
_DOTBLANK
 10
284.6432844803785
 20
-0.000000000000036
 30
0.0
 41
12.0
 42
12.0
 43
12.0
 50
90.0
  0
INSERT
  5
1679
330
25A4
100
AcDbEntity
  8
0
100
AcDbBlockReference
  2
*U33
 10
0.0
 20
0.0
 30
0.0
  0
POINT
  5
167A
330
25A4
100
AcDbEntity
  8
DEFPOINTS
  6
Continuous
 62
     0
100
AcDbPoint
 10
123.5
 20
-300.0
 30
0.0
  0
POINT
  5
167B
330
25A4
100
AcDbEntity
  8
DEFPOINTS
  6
Continuous
 62
     0
100
AcDbPoint
 10
157.5
 20
0.0
 30
0.0
  0
POINT
  5
167C
330
25A4
100
AcDbEntity
  8
DEFPOINTS
  6
Continuous
 62
     0
100
AcDbPoint
 10
284.6432844803785
 20
-0.000000000000036
 30
0.0
  0
ENDBLK
  5
14B3
330
25A4
100
AcDbEntity
  8
0
100
AcDbBlockEnd
  0
BLOCK
  5
25A7
330
25A6
100
AcDbEntity
  8
0
100
AcDbBlockBegin
  2
*U33
 70
     1
 10
0.0
 20
0.0
 30
0.0
  3
*U33
  1

  0
TEXT
  5
1F0D
330
25A6
100
AcDbEntity
  8
SIZE
 62
     0
100
AcDbText
 10
274.6432844803785
 20
-224.0571428571429
 30
0.0
 40
64.0
  1
300
 50
90.0
 41
0.9
100
AcDbText
  0
ENDBLK
  5
1F0F
330
25A6
100
AcDbEntity
  8
0
100
AcDbBlockEnd
  0
BLOCK
  5
25A9
330
25A8
100
AcDbEntity
  8
0
100
AcDbBlockBegin
  2
*D34
 70
     1
 10
0.0
 20
0.0
 30
0.0
  3
*D34
  1

  0
LINE
  5
167D
330
25A8
100
AcDbEntity
  8
SIZE
 62
     0
100
AcDbLine
 10
-140.0
 20
32.46448280219375
 30
0.0
 11
-140.0
 21
136.4516878685507
 31
0.0
  0
LINE
  5
167E
330
25A8
100
AcDbEntity
  8
SIZE
 62
     0
100
AcDbLine
 10
140.0
 20
32.46448280219375
 30
0.0
 11
140.0
 21
136.4516878685507
 31
0.0
  0
LINE
  5
167F
330
25A8
100
AcDbEntity
  8
SIZE
 62
     0
100
AcDbLine
 10
-128.0
 20
116.4516878685508
 30
0.0
 11
128.0
 21
116.4516878685508
 31
0.0
  0
INSERT
  5
1680
330
25A8
100
AcDbEntity
  8
SIZE
 62
     0
100
AcDbBlockReference
  2
_DOTBLANK
 10
-140.0
 20
116.4516878685508
 30
0.0
 41
12.0
 42
12.0
 43
12.0
 50
180.0
  0
INSERT
  5
1681
330
25A8
100
AcDbEntity
  8
SIZE
 62
     0
100
AcDbBlockReference
  2
_DOTBLANK
 10
140.0
 20
116.4516878685508
 30
0.0
 41
12.0
 42
12.0
 43
12.0
  0
INSERT
  5
1682
330
25A8
100
AcDbEntity
  8
0
100
AcDbBlockReference
  2
*U35
 10
0.0
 20
0.0
 30
0.0
  0
POINT
  5
1683
330
25A8
100
AcDbEntity
  8
DEFPOINTS
 62
     0
100
AcDbPoint
 10
-140.0
 20
12.46448280219374
 30
0.0
  0
POINT
  5
1684
330
25A8
100
AcDbEntity
  8
DEFPOINTS
 62
     0
100
AcDbPoint
 10
140.0
 20
12.46448280219374
 30
0.0
  0
POINT
  5
1685
330
25A8
100
AcDbEntity
  8
DEFPOINTS
 62
     0
100
AcDbPoint
 10
140.0
 20
116.4516878685508
 30
0.0
  0
ENDBLK
  5
14BF
330
25A8
100
AcDbEntity
  8
0
100
AcDbBlockEnd
  0
BLOCK
  5
25AB
330
25AA
100
AcDbEntity
  8
0
100
AcDbBlockBegin
  2
*U35
 70
     1
 10
0.0
 20
0.0
 30
0.0
  3
*U35
  1

  0
TEXT
  5
1F11
330
25AA
100
AcDbEntity
  8
SIZE
 62
     0
100
AcDbText
 10
-74.05714285714283
 20
126.4516878685507
 30
0.0
 40
64.0
  1
280
 41
0.9
100
AcDbText
  0
ENDBLK
  5
1F13
330
25AA
100
AcDbEntity
  8
0
100
AcDbBlockEnd
  0
BLOCK
  5
25AD
330
25AC
100
AcDbEntity
  8
0
100
AcDbBlockBegin
  2
*D36
 70
     1
 10
0.0
 20
0.0
 30
0.0
  3
*D36
  1

  0
LINE
  5
1686
330
25AC
100
AcDbEntity
  8
SIZE
 62
     0
100
AcDbLine
 10
-157.5
 20
20.0
 30
0.0
 11
-157.5
 21
245.5794621189598
 31
0.0
  0
LINE
  5
1687
330
25AC
100
AcDbEntity
  8
SIZE
 62
     0
100
AcDbLine
 10
157.5
 20
20.0
 30
0.0
 11
157.5
 21
245.5794621189598
 31
0.0
  0
LINE
  5
1688
330
25AC
100
AcDbEntity
  8
SIZE
 62
     0
100
AcDbLine
 10
-145.5
 20
225.5794621189598
 30
0.0
 11
145.5
 21
225.5794621189598
 31
0.0
  0
INSERT
  5
1689
330
25AC
100
AcDbEntity
  8
SIZE
 62
     0
100
AcDbBlockReference
  2
_DOTBLANK
 10
-157.5
 20
225.5794621189598
 30
0.0
 41
12.0
 42
12.0
 43
12.0
 50
180.0
  0
INSERT
  5
168A
330
25AC
100
AcDbEntity
  8
SIZE
 62
     0
100
AcDbBlockReference
  2
_DOTBLANK
 10
157.5
 20
225.5794621189598
 30
0.0
 41
12.0
 42
12.0
 43
12.0
  0
INSERT
  5
168B
330
25AC
100
AcDbEntity
  8
0
100
AcDbBlockReference
  2
*U37
 10
0.0
 20
0.0
 30
0.0
  0
POINT
  5
168C
330
25AC
100
AcDbEntity
  8
DEFPOINTS
 62
     0
100
AcDbPoint
 10
-157.5
 20
0.0
 30
0.0
  0
POINT
  5
168D
330
25AC
100
AcDbEntity
  8
DEFPOINTS
 62
     0
100
AcDbPoint
 10
157.5
 20
0.0
 30
0.0
  0
POINT
  5
168E
330
25AC
100
AcDbEntity
  8
DEFPOINTS
 62
     0
100
AcDbPoint
 10
157.5
 20
225.5794621189598
 30
0.0
  0
ENDBLK
  5
14CB
330
25AC
100
AcDbEntity
  8
0
100
AcDbBlockEnd
  0
BLOCK
  5
25AF
330
25AE
100
AcDbEntity
  8
0
100
AcDbBlockBegin
  2
*U37
 70
     1
 10
0.0
 20
0.0
 30
0.0
  3
*U37
  1

  0
TEXT
  5
1F15
330
25AE
100
AcDbEntity
  8
SIZE
 62
     0
100
AcDbText
 10
-68.57142857142857
 20
235.5794621189598
 30
0.0
 40
64.0
  1
315
 41
0.9
100
AcDbText
  0
ENDBLK
  5
1F17
330
25AE
100
AcDbEntity
  8
0
100
AcDbBlockEnd
  0
BLOCK
  5
25B1
330
25B0
100
AcDbEntity
  8
0
100
AcDbBlockBegin
  2
*U38
 70
     1
 10
0.0
 20
0.0
 30
0.0
  3
*U38
  1

  0
ENDBLK
  5
15CF
330
25B0
100
AcDbEntity
  8
0
100
AcDbBlockEnd
  0
BLOCK
  5
25B3
330
25B2
100
AcDbEntity
  8
0
100
AcDbBlockBegin
  2
*D39
 70
     1
 10
0.0
 20
0.0
 30
0.0
  3
*D39
  1

  0
LINE
  5
1692
330
25B2
100
AcDbEntity
  8
SIZE
 62
     0
100
AcDbLine
 10
-25844.51823276502
 20
7685.702971374808
 30
0.0
 11
-25981.04465488371
 21
7685.702971374808
 31
0.0
  0
LINE
  5
1693
330
25B2
100
AcDbEntity
  8
SIZE
 62
     0
100
AcDbLine
 10
-25844.51823276502
 20
7677.702971374808
 30
0.0
 11
-25981.04465488371
 21
7677.702971374808
 31
0.0
  0
LINE
  5
1694
330
25B2
100
AcDbEntity
  8
SIZE
 62
     0
100
AcDbLine
 10
-25961.04465488371
 20
7697.702971374808
 30
0.0
 11
-25961.04465488371
 21
7709.702971374809
 31
0.0
  0
LINE
  5
1695
330
25B2
100
AcDbEntity
  8
SIZE
 62
     0
100
AcDbLine
 10
-25961.04465488371
 20
7665.70297137481
 30
0.0
 11
-25961.04465488371
 21
7595.302971374808
 31
0.0
  0
INSERT
  5
1696
330
25B2
100
AcDbEntity
  8
SIZE
 62
     0
100
AcDbBlockReference
  2
_DOTBLANK
 10
-25961.04465488371
 20
7685.702971374808
 30
0.0
 41
12.0
 42
12.0
 43
12.0
 50
270.0
  0
INSERT
  5
1697
330
25B2
100
AcDbEntity
  8
SIZE
 62
     0
100
AcDbBlockReference
  2
_DOTBLANK
 10
-25961.04465488371
 20
7677.702971374808
 30
0.0
 41
12.0
 42
12.0
 43
12.0
 50
90.0
  0
INSERT
  5
1698
330
25B2
100
AcDbEntity
  8
0
100
AcDbBlockReference
  2
*U40
 10
0.0
 20
0.0
 30
0.0
  0
POINT
  5
1699
330
25B2
100
AcDbEntity
  8
DEFPOINTS
 62
     0
100
AcDbPoint
 10
-25824.51823276501
 20
7685.702971374808
 30
0.0
  0
POINT
  5
169A
330
25B2
100
AcDbEntity
  8
DEFPOINTS
 62
     0
100
AcDbPoint
 10
-25824.51823276501
 20
7677.702971374808
 30
0.0
  0
POINT
  5
169B
330
25B2
100
AcDbEntity
  8
DEFPOINTS
 62
     0
100
AcDbPoint
 10
-25961.04465488371
 20
7677.702971374808
 30
0.0
  0
ENDBLK
  5
169C
330
25B2
100
AcDbEntity
  8
0
100
AcDbBlockEnd
  0
BLOCK
  5
25B5
330
25B4
100
AcDbEntity
  8
0
100
AcDbBlockBegin
  2
*U40
 70
     1
 10
0.0
 20
0.0
 30
0.0
  3
*U40
  1

  0
TEXT
  5
1F19
330
25B4
100
AcDbEntity
  8
SIZE
 62
     0
100
AcDbText
 10
-25971.04465488371
 20
7605.302971374804
 30
0.0
 40
64.0
  1
8
 50
90.0
 41
0.9
100
AcDbText
  0
ENDBLK
  5
1F1B
330
25B4
100
AcDbEntity
  8
0
100
AcDbBlockEnd
  0
BLOCK
  5
25B7
330
25B6
100
AcDbEntity
  8
0
100
AcDbBlockBegin
  2
*D41
 70
     1
 10
0.0
 20
0.0
 30
0.0
  3
*D41
  1

  0
LINE
  5
169F
330
25B6
100
AcDbEntity
  8
SIZE
 62
     0
100
AcDbLine
 10
-25512.51823276502
 20
7385.702971374808
 30
0.0
 11
-25362.37494828464
 21
7385.702971374808
 31
0.0
  0
LINE
  5
16A0
330
25B6
100
AcDbEntity
  8
SIZE
 62
     0
100
AcDbLine
 10
-25523.51823276501
 20
7373.702971374808
 30
0.0
 11
-25362.37494828464
 21
7373.702971374808
 31
0.0
  0
LINE
  5
16A1
330
25B6
100
AcDbEntity
  8
SIZE
 62
     0
100
AcDbLine
 10
-25382.37494828464
 20
7397.702971374808
 30
0.0
 11
-25382.37494828464
 21
7409.70297137481
 31
0.0
  0
LINE
  5
16A2
330
25B6
100
AcDbEntity
  8
SIZE
 62
     0
100
AcDbLine
 10
-25382.37494828464
 20
7361.702971374808
 30
0.0
 11
-25382.37494828464
 21
7244.674399946237
 31
0.0
  0
INSERT
  5
16A3
330
25B6
100
AcDbEntity
  8
SIZE
 62
     0
100
AcDbBlockReference
  2
_DOTBLANK
 10
-25382.37494828464
 20
7385.702971374808
 30
0.0
 41
12.0
 42
12.0
 43
12.0
 50
270.0
  0
INSERT
  5
16A4
330
25B6
100
AcDbEntity
  8
SIZE
 62
     0
100
AcDbBlockReference
  2
_DOTBLANK
 10
-25382.37494828464
 20
7373.702971374808
 30
0.0
 41
12.0
 42
12.0
 43
12.0
 50
90.0
  0
INSERT
  5
16A5
330
25B6
100
AcDbEntity
  8
0
100
AcDbBlockReference
  2
*U42
 10
0.0
 20
0.0
 30
0.0
  0
POINT
  5
16A6
330
25B6
100
AcDbEntity
  8
DEFPOINTS
 62
     0
100
AcDbPoint
 10
-25532.51823276502
 20
7385.702971374808
 30
0.0
  0
POINT
  5
16A7
330
25B6
100
AcDbEntity
  8
DEFPOINTS
 62
     0
100
AcDbPoint
 10
-25543.51823276502
 20
7373.702971374808
 30
0.0
  0
POINT
  5
16A8
330
25B6
100
AcDbEntity
  8
DEFPOINTS
 62
     0
100
AcDbPoint
 10
-25382.37494828464
 20
7373.702971374808
 30
0.0
  0
ENDBLK
  5
16A9
330
25B6
100
AcDbEntity
  8
0
100
AcDbBlockEnd
  0
BLOCK
  5
25B9
330
25B8
100
AcDbEntity
  8
0
100
AcDbBlockBegin
  2
*U42
 70
     1
 10
0.0
 20
0.0
 30
0.0
  3
*U42
  1

  0
TEXT
  5
1F1D
330
25B8
100
AcDbEntity
  8
SIZE
 62
     0
100
AcDbText
 10
-25392.37494828464
 20
7256.045828517662
 30
0.0
 40
64.0
  1
12
 50
90.0
 41
0.9
100
AcDbText
  0
ENDBLK
  5
1F1F
330
25B8
100
AcDbEntity
  8
0
100
AcDbBlockEnd
  0
BLOCK
  5
25BB
330
25BA
100
AcDbEntity
  8
0
100
AcDbBlockBegin
  2
*D43
 70
     1
 10
0.0
 20
0.0
 30
0.0
  3
*D43
  1

  0
LINE
  5
16AC
330
25BA
100
AcDbEntity
  8
SIZE
 62
     0
100
AcDbLine
 10
-25801.51823276501
 20
7365.702971374808
 30
0.0
 11
-25801.51823276501
 21
7217.685576144207
 31
0.0
  0
LINE
  5
16AD
330
25BA
100
AcDbEntity
  8
SIZE
 62
     0
100
AcDbLine
 10
-25532.51823276502
 20
7365.702971374808
 30
0.0
 11
-25532.51823276502
 21
7217.685576144207
 31
0.0
  0
LINE
  5
16AE
330
25BA
100
AcDbEntity
  8
SIZE
 62
     0
100
AcDbLine
 10
-25789.51823276502
 20
7237.685576144207
 30
0.0
 11
-25544.51823276501
 21
7237.685576144207
 31
0.0
  0
INSERT
  5
16AF
330
25BA
100
AcDbEntity
  8
SIZE
 62
     0
100
AcDbBlockReference
  2
_DOTBLANK
 10
-25801.51823276501
 20
7237.685576144207
 30
0.0
 41
12.0
 42
12.0
 43
12.0
 50
180.0
  0
INSERT
  5
16B0
330
25BA
100
AcDbEntity
  8
SIZE
 62
     0
100
AcDbBlockReference
  2
_DOTBLANK
 10
-25532.51823276502
 20
7237.685576144207
 30
0.0
 41
12.0
 42
12.0
 43
12.0
  0
INSERT
  5
16B1
330
25BA
100
AcDbEntity
  8
0
100
AcDbBlockReference
  2
*U44
 10
0.0
 20
0.0
 30
0.0
  0
POINT
  5
16B2
330
25BA
100
AcDbEntity
  8
DEFPOINTS
 62
     0
100
AcDbPoint
 10
-25801.51823276501
 20
7385.702971374808
 30
0.0
  0
POINT
  5
16B3
330
25BA
100
AcDbEntity
  8
DEFPOINTS
 62
     0
100
AcDbPoint
 10
-25532.51823276502
 20
7385.702971374808
 30
0.0
  0
POINT
  5
16B4
330
25BA
100
AcDbEntity
  8
DEFPOINTS
 62
     0
100
AcDbPoint
 10
-25532.51823276502
 20
7237.685576144207
 30
0.0
  0
ENDBLK
  5
16B5
330
25BA
100
AcDbEntity
  8
0
100
AcDbBlockEnd
  0
BLOCK
  5
25BD
330
25BC
100
AcDbEntity
  8
0
100
AcDbBlockBegin
  2
*U44
 70
     1
 10
0.0
 20
0.0
 30
0.0
  3
*U44
  1

  0
TEXT
  5
1F21
330
25BC
100
AcDbEntity
  8
SIZE
 62
     0
100
AcDbText
 10
-25739.70394705074
 20
7247.685576144205
 30
0.0
 40
64.0
  1
269
 41
0.9
100
AcDbText
  0
ENDBLK
  5
1F23
330
25BC
100
AcDbEntity
  8
0
100
AcDbBlockEnd
  0
BLOCK
  5
25BF
330
25BE
100
AcDbEntity
  8
0
100
AcDbBlockBegin
  2
*D45
 70
     1
 10
0.0
 20
0.0
 30
0.0
  3
*D45
  1

  0
LINE
  5
16B8
330
25BE
100
AcDbEntity
  8
SIZE
 62
     0
100
AcDbLine
 10
-25512.51823276502
 20
7385.702971374808
 30
0.0
 11
-25362.37494828464
 21
7385.702971374808
 31
0.0
  0
LINE
  5
16B9
330
25BE
100
AcDbEntity
  8
SIZE
 62
     0
100
AcDbLine
 10
-25489.51823276501
 20
7685.702971374808
 30
0.0
 11
-25362.37494828464
 21
7685.702971374808
 31
0.0
  0
LINE
  5
16BA
330
25BE
100
AcDbEntity
  8
SIZE
 62
     0
100
AcDbLine
 10
-25382.37494828464
 20
7397.702971374808
 30
0.0
 11
-25382.37494828464
 21
7673.702971374808
 31
0.0
  0
INSERT
  5
16BB
330
25BE
100
AcDbEntity
  8
SIZE
 62
     0
100
AcDbBlockReference
  2
_DOTBLANK
 10
-25382.37494828464
 20
7385.702971374808
 30
0.0
 41
12.0
 42
12.0
 43
12.0
 50
270.0
  0
INSERT
  5
16BC
330
25BE
100
AcDbEntity
  8
SIZE
 62
     0
100
AcDbBlockReference
  2
_DOTBLANK
 10
-25382.37494828464
 20
7685.702971374808
 30
0.0
 41
12.0
 42
12.0
 43
12.0
 50
90.0
  0
INSERT
  5
16BD
330
25BE
100
AcDbEntity
  8
0
100
AcDbBlockReference
  2
*U46
 10
0.0
 20
0.0
 30
0.0
  0
POINT
  5
16BE
330
25BE
100
AcDbEntity
  8
DEFPOINTS
 62
     0
100
AcDbPoint
 10
-25532.51823276502
 20
7385.702971374808
 30
0.0
  0
POINT
  5
16BF
330
25BE
100
AcDbEntity
  8
DEFPOINTS
 62
     0
100
AcDbPoint
 10
-25509.51823276502
 20
7685.702971374808
 30
0.0
  0
POINT
  5
16C0
330
25BE
100
AcDbEntity
  8
DEFPOINTS
 62
     0
100
AcDbPoint
 10
-25382.37494828464
 20
7685.702971374808
 30
0.0
  0
ENDBLK
  5
16C1
330
25BE
100
AcDbEntity
  8
0
100
AcDbBlockEnd
  0
BLOCK
  5
25C1
330
25C0
100
AcDbEntity
  8
0
100
AcDbBlockBegin
  2
*U46
 70
     1
 10
0.0
 20
0.0
 30
0.0
  3
*U46
  1

  0
TEXT
  5
1F25
330
25C0
100
AcDbEntity
  8
SIZE
 62
     0
100
AcDbText
 10
-25392.37494828464
 20
7461.645828517662
 30
0.0
 40
64.0
  1
300
 50
90.0
 41
0.9
100
AcDbText
  0
ENDBLK
  5
1F27
330
25C0
100
AcDbEntity
  8
0
100
AcDbBlockEnd
  0
BLOCK
  5
25C3
330
25C2
100
AcDbEntity
  8
0
100
AcDbBlockBegin
  2
*D47
 70
     1
 10
0.0
 20
0.0
 30
0.0
  3
*D47
  1

  0
LINE
  5
16C4
330
25C2
100
AcDbEntity
  8
SIZE
 62
     0
100
AcDbLine
 10
-25807.01823276501
 20
7718.167454177002
 30
0.0
 11
-25807.01823276501
 21
7822.154659243358
 31
0.0
  0
LINE
  5
16C5
330
25C2
100
AcDbEntity
  8
SIZE
 62
     0
100
AcDbLine
 10
-25527.01823276501
 20
7718.167454177002
 30
0.0
 11
-25527.01823276501
 21
7822.154659243358
 31
0.0
  0
LINE
  5
16C6
330
25C2
100
AcDbEntity
  8
SIZE
 62
     0
100
AcDbLine
 10
-25795.01823276502
 20
7802.154659243358
 30
0.0
 11
-25539.01823276501
 21
7802.154659243358
 31
0.0
  0
INSERT
  5
16C7
330
25C2
100
AcDbEntity
  8
SIZE
 62
     0
100
AcDbBlockReference
  2
_DOTBLANK
 10
-25807.01823276501
 20
7802.154659243358
 30
0.0
 41
12.0
 42
12.0
 43
12.0
 50
180.0
  0
INSERT
  5
16C8
330
25C2
100
AcDbEntity
  8
SIZE
 62
     0
100
AcDbBlockReference
  2
_DOTBLANK
 10
-25527.01823276501
 20
7802.154659243358
 30
0.0
 41
12.0
 42
12.0
 43
12.0
  0
INSERT
  5
16C9
330
25C2
100
AcDbEntity
  8
0
100
AcDbBlockReference
  2
*U48
 10
0.0
 20
0.0
 30
0.0
  0
POINT
  5
16CA
330
25C2
100
AcDbEntity
  8
DEFPOINTS
 62
     0
100
AcDbPoint
 10
-25807.01823276501
 20
7698.167454177002
 30
0.0
  0
POINT
  5
16CB
330
25C2
100
AcDbEntity
  8
DEFPOINTS
 62
     0
100
AcDbPoint
 10
-25527.01823276501
 20
7698.167454177002
 30
0.0
  0
POINT
  5
16CC
330
25C2
100
AcDbEntity
  8
DEFPOINTS
 62
     0
100
AcDbPoint
 10
-25527.01823276501
 20
7802.154659243358
 30
0.0
  0
ENDBLK
  5
16CD
330
25C2
100
AcDbEntity
  8
0
100
AcDbBlockEnd
  0
BLOCK
  5
25C5
330
25C4
100
AcDbEntity
  8
0
100
AcDbBlockBegin
  2
*U48
 70
     1
 10
0.0
 20
0.0
 30
0.0
  3
*U48
  1

  0
TEXT
  5
1F29
330
25C4
100
AcDbEntity
  8
SIZE
 62
     0
100
AcDbText
 10
-25741.07537562216
 20
7812.154659243358
 30
0.0
 40
64.0
  1
280
 41
0.9
100
AcDbText
  0
ENDBLK
  5
1F2B
330
25C4
100
AcDbEntity
  8
0
100
AcDbBlockEnd
  0
BLOCK
  5
25C7
330
25C6
100
AcDbEntity
  8
0
100
AcDbBlockBegin
  2
*D49
 70
     1
 10
0.0
 20
0.0
 30
0.0
  3
*D49
  1

  0
LINE
  5
16D0
330
25C6
100
AcDbEntity
  8
SIZE
 62
     0
100
AcDbLine
 10
-25824.51823276501
 20
7705.702971374808
 30
0.0
 11
-25824.51823276501
 21
7931.282433493766
 31
0.0
  0
LINE
  5
16D1
330
25C6
100
AcDbEntity
  8
SIZE
 62
     0
100
AcDbLine
 10
-25509.51823276502
 20
7705.702971374808
 30
0.0
 11
-25509.51823276502
 21
7931.282433493766
 31
0.0
  0
LINE
  5
16D2
330
25C6
100
AcDbEntity
  8
SIZE
 62
     0
100
AcDbLine
 10
-25812.51823276502
 20
7911.282433493766
 30
0.0
 11
-25521.51823276501
 21
7911.282433493766
 31
0.0
  0
INSERT
  5
16D3
330
25C6
100
AcDbEntity
  8
SIZE
 62
     0
100
AcDbBlockReference
  2
_DOTBLANK
 10
-25824.51823276501
 20
7911.282433493766
 30
0.0
 41
12.0
 42
12.0
 43
12.0
 50
180.0
  0
INSERT
  5
16D4
330
25C6
100
AcDbEntity
  8
SIZE
 62
     0
100
AcDbBlockReference
  2
_DOTBLANK
 10
-25509.51823276502
 20
7911.282433493766
 30
0.0
 41
12.0
 42
12.0
 43
12.0
  0
INSERT
  5
16D5
330
25C6
100
AcDbEntity
  8
0
100
AcDbBlockReference
  2
*U50
 10
0.0
 20
0.0
 30
0.0
  0
POINT
  5
16D6
330
25C6
100
AcDbEntity
  8
DEFPOINTS
 62
     0
100
AcDbPoint
 10
-25824.51823276501
 20
7685.702971374808
 30
0.0
  0
POINT
  5
16D7
330
25C6
100
AcDbEntity
  8
DEFPOINTS
 62
     0
100
AcDbPoint
 10
-25509.51823276502
 20
7685.702971374808
 30
0.0
  0
POINT
  5
16D8
330
25C6
100
AcDbEntity
  8
DEFPOINTS
 62
     0
100
AcDbPoint
 10
-25509.51823276502
 20
7911.282433493766
 30
0.0
  0
ENDBLK
  5
16D9
330
25C6
100
AcDbEntity
  8
0
100
AcDbBlockEnd
  0
BLOCK
  5
25C9
330
25C8
100
AcDbEntity
  8
0
100
AcDbBlockBegin
  2
*U50
 70
     1
 10
0.0
 20
0.0
 30
0.0
  3
*U50
  1

  0
TEXT
  5
1F2D
330
25C8
100
AcDbEntity
  8
SIZE
 62
     0
100
AcDbText
 10
-25735.58966133645
 20
7921.282433493766
 30
0.0
 40
64.0
  1
315
 41
0.9
100
AcDbText
  0
ENDBLK
  5
1F2F
330
25C8
100
AcDbEntity
  8
0
100
AcDbBlockEnd
  0
BLOCK
  5
25CB
330
25CA
100
AcDbEntity
  8
0
100
AcDbBlockBegin
  2
*D51
 70
     1
 10
0.0
 20
0.0
 30
0.0
  3
*D51
  1

  0
LINE
  5
1D83
330
25CA
100
AcDbEntity
  8
SIZE
 62
     0
100
AcDbLine
 10
-134.5
 20
-320.0
 30
0.0
 11
-134.5
 21
-468.0173952306001
 31
0.0
  0
LINE
  5
1D84
330
25CA
100
AcDbEntity
  8
SIZE
 62
     0
100
AcDbLine
 10
134.5
 20
-320.0
 30
0.0
 11
134.5
 21
-468.0173952306001
 31
0.0
  0
LINE
  5
1D85
330
25CA
100
AcDbEntity
  8
SIZE
 62
     0
100
AcDbLine
 10
-122.5
 20
-448.0173952306
 30
0.0
 11
122.5
 21
-448.0173952306
 31
0.0
  0
INSERT
  5
1D86
330
25CA
100
AcDbEntity
  8
SIZE
 62
     0
100
AcDbBlockReference
  2
_DOTBLANK
 10
-134.5
 20
-448.0173952306
 30
0.0
 41
12.0
 42
12.0
 43
12.0
 50
180.0
  0
INSERT
  5
1D87
330
25CA
100
AcDbEntity
  8
SIZE
 62
     0
100
AcDbBlockReference
  2
_DOTBLANK
 10
134.5
 20
-448.0173952306
 30
0.0
 41
12.0
 42
12.0
 43
12.0
  0
INSERT
  5
1D88
330
25CA
100
AcDbEntity
  8
0
100
AcDbBlockReference
  2
*U52
 10
0.0
 20
0.0
 30
0.0
  0
POINT
  5
1D89
330
25CA
100
AcDbEntity
  8
DEFPOINTS
 62
     0
100
AcDbPoint
 10
-134.5
 20
-300.0
 30
0.0
  0
POINT
  5
1D8A
330
25CA
100
AcDbEntity
  8
DEFPOINTS
 62
     0
100
AcDbPoint
 10
134.5
 20
-300.0
 30
0.0
  0
POINT
  5
1D8B
330
25CA
100
AcDbEntity
  8
DEFPOINTS
 62
     0
100
AcDbPoint
 10
134.5
 20
-448.0173952306
 30
0.0
  0
ENDBLK
  5
173D
330
25CA
100
AcDbEntity
  8
0
100
AcDbBlockEnd
  0
BLOCK
  5
25CD
330
25CC
100
AcDbEntity
  8
0
100
AcDbBlockBegin
  2
*U52
 70
     1
 10
0.0
 20
0.0
 30
0.0
  3
*U52
  1

  0
TEXT
  5
1F31
330
25CC
100
AcDbEntity
  8
SIZE
 62
     0
100
AcDbText
 10
-72.68571428571426
 20
-438.0173952306003
 30
0.0
 40
64.0
  1
269
 41
0.9
100
AcDbText
  0
ENDBLK
  5
1F33
330
25CC
100
AcDbEntity
  8
0
100
AcDbBlockEnd
  0
BLOCK
  5
25CF
330
25CE
100
AcDbEntity
  8
0
100
AcDbBlockBegin
  2
*D53
 70
     1
 10
0.0
 20
0.0
 30
0.0
  3
*D53
  1

  0
LINE
  5
1D8C
330
25CE
100
AcDbEntity
  8
SIZE
 62
     0
100
AcDbLine
 10
154.5
 20
-300.0
 30
0.0
 11
304.6432844803784
 21
-300.0
 31
0.0
  0
LINE
  5
1D8D
330
25CE
100
AcDbEntity
  8
SIZE
 62
     0
100
AcDbLine
 10
177.5
 20
-0.0000000000000057
 30
0.0
 11
304.6432844803785
 21
-0.0000000000000417
 31
0.0
  0
LINE
  5
1D8E
330
25CE
100
AcDbEntity
  8
SIZE
 62
     0
100
AcDbLine
 10
284.6432844803784
 20
-288.0
 30
0.0
 11
284.6432844803785
 21
-12.00000000000003
 31
0.0
  0
INSERT
  5
1D8F
330
25CE
100
AcDbEntity
  8
SIZE
 62
     0
100
AcDbBlockReference
  2
_DOTBLANK
 10
284.6432844803784
 20
-300.0
 30
0.0
 41
12.0
 42
12.0
 43
12.0
 50
270.0
  0
INSERT
  5
1D90
330
25CE
100
AcDbEntity
  8
SIZE
 62
     0
100
AcDbBlockReference
  2
_DOTBLANK
 10
284.6432844803785
 20
-0.000000000000036
 30
0.0
 41
12.0
 42
12.0
 43
12.0
 50
90.0
  0
INSERT
  5
1D91
330
25CE
100
AcDbEntity
  8
0
100
AcDbBlockReference
  2
*U54
 10
0.0
 20
0.0
 30
0.0
  0
POINT
  5
1D92
330
25CE
100
AcDbEntity
  8
DEFPOINTS
 62
     0
100
AcDbPoint
 10
134.5
 20
-300.0
 30
0.0
  0
POINT
  5
1D93
330
25CE
100
AcDbEntity
  8
DEFPOINTS
 62
     0
100
AcDbPoint
 10
157.5
 20
0.0
 30
0.0
  0
POINT
  5
1D94
330
25CE
100
AcDbEntity
  8
DEFPOINTS
 62
     0
100
AcDbPoint
 10
284.6432844803785
 20
-0.000000000000036
 30
0.0
  0
ENDBLK
  5
1749
330
25CE
100
AcDbEntity
  8
0
100
AcDbBlockEnd
  0
BLOCK
  5
25D1
330
25D0
100
AcDbEntity
  8
0
100
AcDbBlockBegin
  2
*U54
 70
     1
 10
0.0
 20
0.0
 30
0.0
  3
*U54
  1

  0
TEXT
  5
1F35
330
25D0
100
AcDbEntity
  8
SIZE
 62
     0
100
AcDbText
 10
274.6432844803785
 20
-224.0571428571429
 30
0.0
 40
64.0
  1
300
 50
90.0
 41
0.9
100
AcDbText
  0
ENDBLK
  5
1F37
330
25D0
100
AcDbEntity
  8
0
100
AcDbBlockEnd
  0
BLOCK
  5
25D3
330
25D2
100
AcDbEntity
  8
0
100
AcDbBlockBegin
  2
*D55
 70
     1
 10
0.0
 20
0.0
 30
0.0
  3
*D55
  1

  0
LINE
  5
1D95
330
25D2
100
AcDbEntity
  8
SIZE
 62
     0
100
AcDbLine
 10
-140.0
 20
32.46448280219375
 30
0.0
 11
-140.0
 21
136.4516878685508
 31
0.0
  0
LINE
  5
1D96
330
25D2
100
AcDbEntity
  8
SIZE
 62
     0
100
AcDbLine
 10
140.0
 20
32.46448280219375
 30
0.0
 11
140.0
 21
136.4516878685508
 31
0.0
  0
LINE
  5
1D97
330
25D2
100
AcDbEntity
  8
SIZE
 62
     0
100
AcDbLine
 10
-128.0
 20
116.4516878685508
 30
0.0
 11
128.0
 21
116.4516878685508
 31
0.0
  0
INSERT
  5
1D98
330
25D2
100
AcDbEntity
  8
SIZE
 62
     0
100
AcDbBlockReference
  2
_DOTBLANK
 10
-140.0
 20
116.4516878685508
 30
0.0
 41
12.0
 42
12.0
 43
12.0
 50
180.0
  0
INSERT
  5
1D99
330
25D2
100
AcDbEntity
  8
SIZE
 62
     0
100
AcDbBlockReference
  2
_DOTBLANK
 10
140.0
 20
116.4516878685508
 30
0.0
 41
12.0
 42
12.0
 43
12.0
  0
INSERT
  5
1D9A
330
25D2
100
AcDbEntity
  8
0
100
AcDbBlockReference
  2
*U56
 10
0.0
 20
0.0
 30
0.0
  0
POINT
  5
1D9B
330
25D2
100
AcDbEntity
  8
DEFPOINTS
 62
     0
100
AcDbPoint
 10
-140.0
 20
12.46448280219374
 30
0.0
  0
POINT
  5
1D9C
330
25D2
100
AcDbEntity
  8
DEFPOINTS
 62
     0
100
AcDbPoint
 10
140.0
 20
12.46448280219374
 30
0.0
  0
POINT
  5
1D9D
330
25D2
100
AcDbEntity
  8
DEFPOINTS
 62
     0
100
AcDbPoint
 10
140.0
 20
116.4516878685508
 30
0.0
  0
ENDBLK
  5
1755
330
25D2
100
AcDbEntity
  8
0
100
AcDbBlockEnd
  0
BLOCK
  5
25D5
330
25D4
100
AcDbEntity
  8
0
100
AcDbBlockBegin
  2
*U56
 70
     1
 10
0.0
 20
0.0
 30
0.0
  3
*U56
  1

  0
TEXT
  5
1F39
330
25D4
100
AcDbEntity
  8
SIZE
 62
     0
100
AcDbText
 10
-74.05714285714283
 20
126.4516878685508
 30
0.0
 40
64.0
  1
280
 41
0.9
100
AcDbText
  0
ENDBLK
  5
1F3B
330
25D4
100
AcDbEntity
  8
0
100
AcDbBlockEnd
  0
BLOCK
  5
25D7
330
25D6
100
AcDbEntity
  8
0
100
AcDbBlockBegin
  2
*D57
 70
     1
 10
0.0
 20
0.0
 30
0.0
  3
*D57
  1

  0
LINE
  5
1D9E
330
25D6
100
AcDbEntity
  8
SIZE
 62
     0
100
AcDbLine
 10
-157.5
 20
20.0
 30
0.0
 11
-157.5
 21
245.5794621189598
 31
0.0
  0
LINE
  5
1D9F
330
25D6
100
AcDbEntity
  8
SIZE
 62
     0
100
AcDbLine
 10
157.5
 20
20.0
 30
0.0
 11
157.5
 21
245.5794621189598
 31
0.0
  0
LINE
  5
1DA0
330
25D6
100
AcDbEntity
  8
SIZE
 62
     0
100
AcDbLine
 10
-145.5
 20
225.5794621189598
 30
0.0
 11
145.5
 21
225.5794621189598
 31
0.0
  0
INSERT
  5
1DA1
330
25D6
100
AcDbEntity
  8
SIZE
 62
     0
100
AcDbBlockReference
  2
_DOTBLANK
 10
-157.5
 20
225.5794621189598
 30
0.0
 41
12.0
 42
12.0
 43
12.0
 50
180.0
  0
INSERT
  5
1DA2
330
25D6
100
AcDbEntity
  8
SIZE
 62
     0
100
AcDbBlockReference
  2
_DOTBLANK
 10
157.5
 20
225.5794621189598
 30
0.0
 41
12.0
 42
12.0
 43
12.0
  0
INSERT
  5
1DA3
330
25D6
100
AcDbEntity
  8
0
100
AcDbBlockReference
  2
*U58
 10
0.0
 20
0.0
 30
0.0
  0
POINT
  5
1DA4
330
25D6
100
AcDbEntity
  8
DEFPOINTS
 62
     0
100
AcDbPoint
 10
-157.5
 20
0.0
 30
0.0
  0
POINT
  5
1DA5
330
25D6
100
AcDbEntity
  8
DEFPOINTS
 62
     0
100
AcDbPoint
 10
157.5
 20
0.0
 30
0.0
  0
POINT
  5
1DA6
330
25D6
100
AcDbEntity
  8
DEFPOINTS
 62
     0
100
AcDbPoint
 10
157.5
 20
225.5794621189598
 30
0.0
  0
ENDBLK
  5
1761
330
25D6
100
AcDbEntity
  8
0
100
AcDbBlockEnd
  0
BLOCK
  5
25D9
330
25D8
100
AcDbEntity
  8
0
100
AcDbBlockBegin
  2
*U58
 70
     1
 10
0.0
 20
0.0
 30
0.0
  3
*U58
  1

  0
TEXT
  5
1F3D
330
25D8
100
AcDbEntity
  8
SIZE
 62
     0
100
AcDbText
 10
-68.57142857142857
 20
235.5794621189599
 30
0.0
 40
64.0
  1
315
 41
0.9
100
AcDbText
  0
ENDBLK
  5
1F3F
330
25D8
100
AcDbEntity
  8
0
100
AcDbBlockEnd
  0
BLOCK
  5
25DB
330
25DA
100
AcDbEntity
  8
0
100
AcDbBlockBegin
  2
*D59
 70
     1
 10
0.0
 20
0.0
 30
0.0
  3
*D59
  1

  0
LINE
  5
1DA7
330
25DA
100
AcDbEntity
  8
SIZE
 62
     0
100
AcDbLine
 10
-177.5
 20
0.0000000000000057
 30
0.0
 11
-314.0264221186908
 21
0.0000000000000443
 31
0.0
  0
LINE
  5
1DA8
330
25DA
100
AcDbEntity
  8
SIZE
 62
     0
100
AcDbLine
 10
-177.5
 20
-7.999999999999995
 30
0.0
 11
-314.0264221186908
 21
-7.999999999999958
 31
0.0
  0
LINE
  5
1DA9
330
25DA
100
AcDbEntity
  8
SIZE
 62
     0
100
AcDbLine
 10
-294.0264221186908
 20
12.00000000000003
 30
0.0
 11
-294.0264221186908
 21
24.00000000000004
 31
0.0
  0
LINE
  5
1DAA
330
25DA
100
AcDbEntity
  8
SIZE
 62
     0
100
AcDbLine
 10
-294.0264221186908
 20
-19.99999999999996
 30
0.0
 11
-294.0264221186908
 21
-90.39999999999997
 31
0.0
  0
INSERT
  5
1DAB
330
25DA
100
AcDbEntity
  8
SIZE
 62
     0
100
AcDbBlockReference
  2
_DOTBLANK
 10
-294.0264221186908
 20
0.0000000000000387
 30
0.0
 41
12.0
 42
12.0
 43
12.0
 50
270.0
  0
INSERT
  5
1DAC
330
25DA
100
AcDbEntity
  8
SIZE
 62
     0
100
AcDbBlockReference
  2
_DOTBLANK
 10
-294.0264221186908
 20
-7.999999999999961
 30
0.0
 41
12.0
 42
12.0
 43
12.0
 50
90.0
  0
INSERT
  5
1DAD
330
25DA
100
AcDbEntity
  8
0
100
AcDbBlockReference
  2
*U60
 10
0.0
 20
0.0
 30
0.0
  0
POINT
  5
1DAE
330
25DA
100
AcDbEntity
  8
DEFPOINTS
 62
     0
100
AcDbPoint
 10
-157.5
 20
0.0
 30
0.0
  0
POINT
  5
1DAF
330
25DA
100
AcDbEntity
  8
DEFPOINTS
 62
     0
100
AcDbPoint
 10
-157.5
 20
-8.000000000000003
 30
0.0
  0
POINT
  5
1DB0
330
25DA
100
AcDbEntity
  8
DEFPOINTS
 62
     0
100
AcDbPoint
 10
-294.0264221186908
 20
-7.999999999999961
 30
0.0
  0
ENDBLK
  5
176D
330
25DA
100
AcDbEntity
  8
0
100
AcDbBlockEnd
  0
BLOCK
  5
25DD
330
25DC
100
AcDbEntity
  8
0
100
AcDbBlockBegin
  2
*U60
 70
     1
 10
0.0
 20
0.0
 30
0.0
  3
*U60
  1

  0
TEXT
  5
1F41
330
25DC
100
AcDbEntity
  8
SIZE
 62
     0
100
AcDbText
 10
-304.0264221186908
 20
-80.4
 30
0.0
 40
64.0
  1
8
 50
90.0
 41
0.9
100
AcDbText
  0
ENDBLK
  5
1F43
330
25DC
100
AcDbEntity
  8
0
100
AcDbBlockEnd
  0
BLOCK
  5
25DF
330
25DE
100
AcDbEntity
  8
0
100
AcDbBlockBegin
  2
*D61
 70
     1
 10
0.0
 20
0.0
 30
0.0
  3
*D61
  1

  0
LINE
  5
1DB1
330
25DE
100
AcDbEntity
  8
SIZE
 62
     0
100
AcDbLine
 10
154.5
 20
-300.0
 30
0.0
 11
304.6432844803785
 21
-300.0
 31
0.0
  0
LINE
  5
1DB2
330
25DE
100
AcDbEntity
  8
SIZE
 62
     0
100
AcDbLine
 10
143.5
 20
-312.0
 30
0.0
 11
304.6432844803785
 21
-312.0
 31
0.0
  0
LINE
  5
1DB3
330
25DE
100
AcDbEntity
  8
SIZE
 62
     0
100
AcDbLine
 10
284.6432844803785
 20
-288.0
 30
0.0
 11
284.6432844803785
 21
-276.0
 31
0.0
  0
LINE
  5
1DB4
330
25DE
100
AcDbEntity
  8
SIZE
 62
     0
100
AcDbLine
 10
284.6432844803785
 20
-324.0000000000001
 30
0.0
 11
284.6432844803784
 21
-438.2857142857143
 31
0.0
  0
INSERT
  5
1DB5
330
25DE
100
AcDbEntity
  8
SIZE
 62
     0
100
AcDbBlockReference
  2
_DOTBLANK
 10
284.6432844803785
 20
-300.0
 30
0.0
 41
12.0
 42
12.0
 43
12.0
 50
270.0
  0
INSERT
  5
1DB6
330
25DE
100
AcDbEntity
  8
SIZE
 62
     0
100
AcDbBlockReference
  2
_DOTBLANK
 10
284.6432844803785
 20
-312.0
 30
0.0
 41
12.0
 42
12.0
 43
12.0
 50
90.0
  0
INSERT
  5
1DB7
330
25DE
100
AcDbEntity
  8
0
100
AcDbBlockReference
  2
*U62
 10
0.0
 20
0.0
 30
0.0
  0
POINT
  5
1DB8
330
25DE
100
AcDbEntity
  8
DEFPOINTS
 62
     0
100
AcDbPoint
 10
134.5
 20
-300.0
 30
0.0
  0
POINT
  5
1DB9
330
25DE
100
AcDbEntity
  8
DEFPOINTS
 62
     0
100
AcDbPoint
 10
123.5
 20
-312.0
 30
0.0
  0
POINT
  5
1DBA
330
25DE
100
AcDbEntity
  8
DEFPOINTS
 62
     0
100
AcDbPoint
 10
284.6432844803785
 20
-312.0
 30
0.0
  0
ENDBLK
  5
177B
330
25DE
100
AcDbEntity
  8
0
100
AcDbBlockEnd
  0
BLOCK
  5
25E1
330
25E0
100
AcDbEntity
  8
0
100
AcDbBlockBegin
  2
*U62
 70
     1
 10
0.0
 20
0.0
 30
0.0
  3
*U62
  1

  0
TEXT
  5
1F45
330
25E0
100
AcDbEntity
  8
SIZE
 62
     0
100
AcDbText
 10
274.6432844803785
 20
-428.2857142857142
 30
0.0
 40
64.0
  1
12
 50
90.0
 41
0.9
100
AcDbText
  0
ENDBLK
  5
1F47
330
25E0
100
AcDbEntity
  8
0
100
AcDbBlockEnd
  0
BLOCK
  5
25E3
330
25E2
100
AcDbEntity
  8
0
100
AcDbBlockBegin
  2
*U63
 70
     1
 10
0.0
 20
0.0
 30
0.0
  3
*U63
  1

  0
ENDBLK
  5
1D57
330
25E2
100
AcDbEntity
  8
0
100
AcDbBlockEnd
  0
BLOCK
  5
25E5
330
25E4
100
AcDbEntity
  8
0
100
AcDbBlockBegin
  2
*U64
 70
     1
 10
0.0
 20
0.0
 30
0.0
  3
*U64
  1

  0
INSERT
  5
2087
330
25E4
100
AcDbEntity
  8
NOTE
100
AcDbBlockReference
  2
_OPEN30
 10
-449.9999999999927
 20
0.0
 30
0.0
 41
12.0
 42
12.0
 43
12.0
 50
312.6090116116894
  0
POLYLINE
  5
2088
330
25E4
100
AcDbEntity
  8
NOTE
100
AcDb2dPolyline
 66
     1
 10
0.0
 20
0.0
 30
0.0
  0
VERTEX
  5
24A2
330
2088
100
AcDbEntity
  8
NOTE
100
AcDbVertex
100
AcDb2dVertex
 10
-458.123900836182
 20
8.83188740891547
 30
0.0
  0
VERTEX
  5
24A3
330
2088
100
AcDbEntity
  8
NOTE
100
AcDbVertex
100
AcDb2dVertex
 10
-537.8693999922472
 20
95.52709505801338
 30
0.0
  0
VERTEX
  5
24A4
330
2088
100
AcDbEntity
  8
NOTE
100
AcDbVertex
100
AcDb2dVertex
 10
-1127.595114277961
 20
95.52709505801338
 30
0.0
  0
SEQEND
  5
24A5
330
2088
100
AcDbEntity
  8
NOTE
  0
ENDBLK
  5
2089
330
25E4
100
AcDbEntity
  8
0
100
AcDbBlockEnd
  0
BLOCK
  5
25E7
330
25E6
100
AcDbEntity
  8
0
100
AcDbBlockBegin
  2
*U65
 70
     1
 10
0.0
 20
0.0
 30
0.0
  3
*U65
  1

  0
TEXT
  5
208C
330
25E6
100
AcDbEntity
  8
NOTE
100
AcDbText
 10
-1127.595114277961
 20
113.5270950580134
 30
0.0
 40
64.0
  1
16×φ15取付穴
 41
0.9
100
AcDbText
  0
ENDBLK
  5
208D
330
25E6
100
AcDbEntity
  8
0
100
AcDbBlockEnd
  0
BLOCK
  5
25E9
330
25E8
100
AcDbEntity
  8
0
100
AcDbBlockBegin
  2
*U66
 70
     1
 10
0.0
 20
0.0
 30
0.0
  3
*U66
  1

  0
INSERT
  5
21BB
330
25E8
100
AcDbEntity
  8
NOTE
100
AcDbBlockReference
  2
_OPEN30
 10
450.0
 20
450.0000000000031
 30
0.0
 41
12.0
 42
12.0
 43
12.0
 50
232.3258907693334
  0
POLYLINE
  5
21BC
330
25E8
100
AcDbEntity
  8
NOTE
100
AcDb2dPolyline
 66
     1
 10
0.0
 20
0.0
 30
0.0
  0
VERTEX
  5
24A6
330
21BC
100
AcDbEntity
  8
NOTE
100
AcDbVertex
100
AcDb2dVertex
 10
457.3340332839448
 20
459.4979974620994
 30
0.0
  0
VERTEX
  5
24A7
330
21BC
100
AcDbEntity
  8
NOTE
100
AcDbVertex
100
AcDb2dVertex
 10
523.7628007872079
 20
545.5270950580154
 30
0.0
  0
VERTEX
  5
24A8
330
21BC
100
AcDbEntity
  8
NOTE
100
AcDbVertex
100
AcDb2dVertex
 10
1113.488515072922
 20
545.5270950580154
 30
0.0
  0
SEQEND
  5
24A9
330
21BC
100
AcDbEntity
  8
NOTE
  0
ENDBLK
  5
21BD
330
25E8
100
AcDbEntity
  8
0
100
AcDbBlockEnd
  0
BLOCK
  5
25EB
330
25EA
100
AcDbEntity
  8
0
100
AcDbBlockBegin
  2
*U67
 70
     1
 10
0.0
 20
0.0
 30
0.0
  3
*U67
  1

  0
TEXT
  5
21C0
330
25EA
100
AcDbEntity
  8
NOTE
100
AcDbText
 10
585.7628007872079
 20
563.5270950580156
 30
0.0
 40
64.0
  1
16×φ15取付穴
 41
0.9
100
AcDbText
  0
ENDBLK
  5
21C1
330
25EA
100
AcDbEntity
  8
0
100
AcDbBlockEnd
  0
ENDSEC
  0
SECTION
  2
ENTITIES
  0
TEXT
  5
953
330
251D
100
AcDbEntity
  8
OUTLINE
  6
Continuous
 62
     3
100
AcDbText
 10
-418.231467
 20
13.715189
 30
0.0
 40
64.0
  1
 
 41
0.9
100
AcDbText
  0
TEXT
  5
954
330
251D
100
AcDbEntity
  8
OUTLINE
  6
Continuous
 62
     3
100
AcDbText
 10
-418.231467
 20
13.715189
 30
0.0
 40
64.0
  1
 
 41
0.9
100
AcDbText
  0
TEXT
  5
955
330
251D
100
AcDbEntity
  8
OUTLINE
  6
Continuous
 62
     3
100
AcDbText
 10
1341.41903
 20
-706.0588199999997
 30
0.0
 40
64.0
  1
 
 41
0.9
100
AcDbText
  0
TEXT
  5
956
330
251D
100
AcDbEntity
  8
OUTLINE
  6
Continuous
 62
     3
100
AcDbText
 10
1341.41903
 20
-706.0588199999997
 30
0.0
 40
64.0
  1
 
 41
0.9
100
AcDbText
  0
TEXT
  5
957
330
251D
100
AcDbEntity
  8
OUTLINE
  6
Continuous
 62
     3
100
AcDbText
 10
1341.41903
 20
-706.0588199999997
 30
0.0
 40
64.0
  1
 
 41
0.9
100
AcDbText
  0
TEXT
  5
958
330
251D
100
AcDbEntity
  8
OUTLINE
  6
Continuous
 62
     3
100
AcDbText
 10
1341.41903
 20
-706.0588199999997
 30
0.0
 40
64.0
  1
 
 41
0.9
100
AcDbText
  0
CIRCLE
  5
232C
330
251D
100
AcDbEntity
  8
FIX
100
AcDbCircle
 10
449.9999999999963
 20
-449.9999999999969
 30
0.0
 40
7.5
  0
CIRCLE
  5
232D
330
251D
100
AcDbEntity
  8
FIX
100
AcDbCircle
 10
-450.0000000000036
 20
-449.9999999999969
 30
0.0
 40
7.5
  0
CIRCLE
  5
232E
330
251D
100
AcDbEntity
  8
FIX
100
AcDbCircle
 10
-450.0000000000036
 20
450.0000000000045
 30
0.0
 40
7.5
  0
CIRCLE
  5
232F
330
251D
100
AcDbEntity
  8
FIX
100
AcDbCircle
 10
449.9999999999963
 20
450.0000000000045
 30
0.0
 40
7.5
  0
LINE
  5
2330
330
251D
100
AcDbEntity
  8
DETAIL
100
AcDbLine
 10
-436.0
 20
-173.9999999999971
 30
0.0
 11
-436.0
 21
436.0000000000044
 31
0.0
  0
LINE
  5
2331
330
251D
100
AcDbEntity
  8
DETAIL
100
AcDbLine
 10
436.0
 20
436.0000000000044
 30
0.0
 11
436.0
 21
-173.9999999999971
 31
0.0
  0
LINE
  5
2332
330
251D
100
AcDbEntity
  8
DETAIL
100
AcDbLine
 10
474.9999999999963
 20
475.0000000000023
 30
0.0
 11
-475.0000000000036
 21
475.0000000000023
 31
0.0
  0
LINE
  5
2333
330
251D
100
AcDbEntity
  8
DETAIL
100
AcDbLine
 10
-475.0000000000036
 20
475.0000000000023
 30
0.0
 11
-475.0000000000036
 21
-474.9999999999969
 31
0.0
  0
LINE
  5
2334
330
251D
100
AcDbEntity
  8
DETAIL
100
AcDbLine
 10
436.0
 20
-474.9999999999969
 30
0.0
 11
474.9999999999963
 21
-474.9999999999969
 31
0.0
  0
LINE
  5
2335
330
251D
100
AcDbEntity
  8
DETAIL
100
AcDbLine
 10
-475.0000000000036
 20
-474.9999999999969
 30
0.0
 11
-436.0
 21
-474.9999999999969
 31
0.0
  0
LINE
  5
2336
330
251D
100
AcDbEntity
  8
DETAIL
100
AcDbLine
 10
474.9999999999963
 20
-474.9999999999969
 30
0.0
 11
474.9999999999963
 21
475.0000000000023
 31
0.0
  0
LINE
  5
2337
330
251D
100
AcDbEntity
  8
DETAIL
100
AcDbLine
 10
-436.0
 20
-173.9999999999971
 30
0.0
 11
-436.0
 21
-689.9999999999961
 31
0.0
  0
LINE
  5
2338
330
251D
100
AcDbEntity
  8
DETAIL
100
AcDbLine
 10
436.0
 20
-689.9999999999961
 30
0.0
 11
436.0
 21
-173.9999999999971
 31
0.0
  0
LINE
  5
2339
330
251D
100
AcDbEntity
  8
DETAIL
100
AcDbLine
 10
436.0
 20
436.0000000000044
 30
0.0
 11
-436.0
 21
436.0000000000044
 31
0.0
  0
CIRCLE
  5
233A
330
251D
100
AcDbEntity
  8
ARRANGE
100
AcDbCircle
 10
0.0
 20
0.0
 30
0.0
 40
40.0
  0
LINE
  5
233B
330
251D
100
AcDbEntity
  8
ARRANGE
100
AcDbLine
 10
-14.31498655004543
 20
-14.31498655004816
 30
0.0
 11
14.31498655004907
 21
14.31498655004907
 31
0.0
  0
LINE
  5
233C
330
251D
100
AcDbEntity
  8
ARRANGE
100
AcDbLine
 10
14.31498655004907
 20
-14.31498655004816
 30
0.0
 11
-14.31498655005271
 21
14.3149865500518
 31
0.0
  0
LINE
  5
233D
330
251D
100
AcDbEntity
  8
BASIS
100
AcDbLine
 10
-500.0000000000036
 20
0.0000000000027285
 30
0.0
 11
499.9999999999963
 21
0.0
 31
0.0
  0
LINE
  5
233E
330
251D
100
AcDbEntity
  8
BASIS
100
AcDbLine
 10
-0.000000000003638
 20
500.0000000000023
 30
0.0
 11
0.0
 21
-843.6105056522874
 31
0.0
  0
CIRCLE
  5
233F
330
251D
100
AcDbEntity
  8
FIX
100
AcDbCircle
 10
-200.0000000000036
 20
450.0000000000045
 30
0.0
 40
7.5
  0
CIRCLE
  5
2340
330
251D
100
AcDbEntity
  8
FIX
100
AcDbCircle
 10
200.0
 20
450.0000000000045
 30
0.0
 40
7.5
  0
CIRCLE
  5
2341
330
251D
100
AcDbEntity
  8
FIX
100
AcDbCircle
 10
-450.0000000000036
 20
250.0000000000027
 30
0.0
 40
7.5
  0
CIRCLE
  5
2342
330
251D
100
AcDbEntity
  8
FIX
100
AcDbCircle
 10
-450.0000000000036
 20
-249.9999999999964
 30
0.0
 40
7.5
  0
CIRCLE
  5
2343
330
251D
100
AcDbEntity
  8
FIX
100
AcDbCircle
 10
449.9999999999963
 20
250.0000000000027
 30
0.0
 40
7.5
  0
CIRCLE
  5
2344
330
251D
100
AcDbEntity
  8
FIX
100
AcDbCircle
 10
449.9999999999963
 20
-249.9999999999964
 30
0.0
 40
7.5
  0
LINE
  5
2345
330
251D
100
AcDbEntity
  8
DETAIL
100
AcDbLine
 10
-511.1610571167801
 20
-858.609464578841
 30
0.0
 11
-510.1610571167801
 21
-858.609464578841
 31
0.0
  0
LINE
  5
2346
330
251D
100
AcDbEntity
  8
DETAIL
100
AcDbLine
 10
-511.1610571167801
 20
-858.609464578841
 30
0.0
 11
-511.1610571167801
 21
-818.6105056522858
 31
0.0
  0
LINE
  5
2347
330
251D
100
AcDbEntity
  8
DETAIL
100
AcDbLine
 10
-510.1610571167801
 20
-818.6105056522858
 30
0.0
 11
-511.1610571167801
 21
-818.6105056522858
 31
0.0
  0
LINE
  5
2348
330
251D
100
AcDbEntity
  8
DETAIL
100
AcDbLine
 10
-510.1610571167801
 20
-858.609464578841
 30
0.0
 11
-510.1610571167801
 21
-818.6105056522858
 31
0.0
  0
LINE
  5
2349
330
251D
100
AcDbEntity
  8
DETAIL
100
AcDbLine
 10
-522.156945016486
 20
-818.5072324563533
 30
0.0
 11
-511.1610571167833
 21
-818.5093098606582
 31
0.0
  0
LINE
  5
234A
330
251D
100
AcDbEntity
  8
DETAIL
100
AcDbLine
 10
-511.1610571167801
 20
-818.5165271099759
 30
0.0
 11
-523.1827792897705
 21
-818.514255899354
 31
0.0
  0
LINE
  5
234B
330
251D
100
AcDbEntity
  8
DETAIL
100
AcDbLine
 10
-519.8304253308991
 20
-813.1561135257509
 30
0.0
 11
-519.9332475445112
 21
-813.1560941000056
 31
0.0
  0
LINE
  5
234C
330
251D
100
AcDbEntity
  8
DETAIL
100
AcDbLine
 10
-519.8304253308991
 20
-813.1561135257509
 30
0.0
 11
-520.3263434917385
 21
-814.2855807646064
 31
0.0
  0
LINE
  5
234D
330
251D
100
AcDbEntity
  8
DETAIL
100
AcDbLine
 10
-522.1519292944098
 20
-818.4434025962239
 30
0.0
 11
-522.1831219647969
 21
-818.5144447601759
 31
0.0
  0
LINE
  5
234E
330
251D
100
AcDbEntity
  8
DETAIL
100
AcDbLine
 10
-522.1831219647969
 20
-818.5144447601759
 30
0.0
 11
-523.1827792897705
 21
-818.514255899354
 31
0.0
  0
LINE
  5
234F
330
251D
100
AcDbEntity
  8
DETAIL
100
AcDbLine
 10
-523.1517656921091
 20
-818.4436215784424
 30
0.0
 11
-523.1827792897705
 21
-818.514255899354
 31
0.0
  0
LINE
  5
2350
330
251D
100
AcDbEntity
  8
DETAIL
100
AcDbLine
 10
-519.8304253308051
 20
-813.1561130363408
 30
0.0
 11
-511.1610571167833
 21
-813.1577508939123
 31
0.0
  0
LINE
  5
2351
330
251D
100
AcDbEntity
  8
DETAIL
100
AcDbLine
 10
-509.1610571167833
 20
-819.6104796254502
 30
0.0
 11
-421.1610571167835
 21
-819.6104796254502
 31
0.0
  0
LINE
  5
2352
330
251D
100
AcDbEntity
  8
DETAIL
100
AcDbLine
 10
-509.1610571167833
 20
-819.6104796254502
 30
0.0
 11
-509.1610571167833
 21
-818.6105056522858
 31
0.0
  0
LINE
  5
2353
330
251D
100
AcDbEntity
  8
DETAIL
100
AcDbLine
 10
-421.1610571167835
 20
-818.6105056522858
 30
0.0
 11
-509.1610571167833
 21
-818.6105056522858
 31
0.0
  0
LINE
  5
2354
330
251D
100
AcDbEntity
  8
DETAIL
100
AcDbLine
 10
-421.1610571167835
 20
-819.6104796254502
 30
0.0
 11
-421.1610571167835
 21
-818.6105056522858
 31
0.0
  0
LINE
  5
2355
330
251D
100
AcDbEntity
  8
DETAIL
100
AcDbLine
 10
-512.1610571167839
 20
-818.5235554337324
 30
0.0
 11
-512.1610571167839
 21
-818.6103191998945
 31
0.0
  0
LINE
  5
2356
330
251D
100
AcDbEntity
  8
DETAIL
100
AcDbLine
 10
-523.5000000000036
 20
-818.5214132175724
 30
0.0
 11
-512.1610571167839
 21
-818.5235554337324
 31
0.0
  0
LINE
  5
2357
330
251D
100
AcDbEntity
  8
DETAIL
100
AcDbLine
 10
-523.5000000000036
 20
-873.9999817415855
 30
0.0
 11
-512.1610571167839
 21
-874.0021239577451
 31
0.0
  0
LINE
  5
2358
330
251D
100
AcDbEntity
  8
DETAIL
100
AcDbLine
 10
-511.1610571167833
 20
-818.5165271099759
 30
0.0
 11
-523.5000000000036
 21
-818.5141959682535
 31
0.0
  0
LINE
  5
2359
330
251D
100
AcDbEntity
  8
DETAIL
100
AcDbLine
 10
-512.1610571167839
 20
-818.6103191998945
 30
0.0
 11
-512.1610571167839
 21
-874.0021239577451
 31
0.0
  0
LINE
  5
235A
330
251D
100
AcDbEntity
  8
DETAIL
100
AcDbLine
 10
-512.1610571167839
 20
-818.6103191998945
 30
0.0
 11
-511.1610571167833
 21
-818.6103191998945
 31
0.0
  0
LINE
  5
235B
330
251D
100
AcDbEntity
  8
DETAIL
100
AcDbLine
 10
-511.1610571167833
 20
-858.609464578841
 30
0.0
 11
-511.1610571167833
 21
-874.0021239577451
 31
0.0
  0
LINE
  5
235C
330
251D
100
AcDbEntity
  8
DETAIL
100
AcDbLine
 10
-512.1610571167839
 20
-874.0021239577451
 30
0.0
 11
-511.1610571167833
 21
-874.0021239577451
 31
0.0
  0
LINE
  5
235D
330
251D
100
AcDbEntity
  8
DETAIL
100
AcDbLine
 10
-511.2022858888916
 20
-817.9257786166498
 30
0.0
 11
-511.1610571167833
 21
-817.9505513621817
 31
0.0
  0
LINE
  5
235E
330
251D
100
AcDbEntity
  8
DETAIL
100
AcDbLine
 10
-511.1610571167833
 20
-818.4409953968259
 30
0.0
 11
-523.3403817205871
 21
-818.4436628887574
 31
0.0
  0
LINE
  5
235F
330
251D
100
AcDbEntity
  8
DETAIL
100
AcDbLine
 10
-523.3632540004473
 20
-802.4597712188748
 30
0.0
 11
-523.3403817205871
 21
-818.4436628887574
 31
0.0
  0
LINE
  5
2360
330
251D
100
AcDbEntity
  8
DETAIL
100
AcDbLine
 10
-511.1610571167833
 20
-817.4420018543687
 30
0.0
 11
-522.3421756125129
 21
-817.4444507211442
 31
0.0
  0
LINE
  5
2361
330
251D
100
AcDbEntity
  8
DETAIL
100
AcDbLine
 10
-522.3636183748785
 20
-802.4595522806292
 30
0.0
 11
-523.3632540004473
 21
-802.4597712188748
 31
0.0
  0
LINE
  5
2362
330
251D
100
AcDbEntity
  8
DETAIL
100
AcDbLine
 10
-523.3632540004473
 20
-802.4597712188748
 30
0.0
 11
-502.2290731662796
 21
-767.2865876802845
 31
0.0
  0
LINE
  5
2363
330
251D
100
AcDbEntity
  8
DETAIL
100
AcDbLine
 10
-501.2294375407105
 20
-780.9774368152431
 30
0.0
 11
-519.7654897479402
 21
-813.1561253042749
 31
0.0
  0
LINE
  5
2364
330
251D
100
AcDbEntity
  8
DETAIL
100
AcDbLine
 10
-520.4442490536494
 20
-814.2857704902271
 30
0.0
 11
-522.3421756125129
 21
-817.4444507211442
 31
0.0
  0
LINE
  5
2365
330
251D
100
AcDbEntity
  8
DETAIL
100
AcDbLine
 10
-522.3421756125129
 20
-817.4444507211442
 30
0.0
 11
-522.3636183748785
 21
-802.4595522806292
 31
0.0
  0
LINE
  5
2366
330
251D
100
AcDbEntity
  8
DETAIL
100
AcDbLine
 10
-501.2294375407105
 20
-767.2863687420385
 30
0.0
 11
-522.3636183748785
 21
-802.4595522806292
 31
0.0
  0
LINE
  5
2367
330
251D
100
AcDbEntity
  8
DETAIL
100
AcDbLine
 10
-502.2290731662796
 20
-767.2865876802845
 30
0.0
 11
-501.2294375407105
 21
-767.2863687420385
 31
0.0
  0
LINE
  5
2368
330
251D
100
AcDbEntity
  8
DETAIL
100
AcDbLine
 10
-502.1675414063393
 20
-766.996623328679
 30
0.0
 11
-502.1675414063393
 21
-766.9442873724359
 31
0.0
  0
LINE
  5
2369
330
251D
100
AcDbEntity
  8
DETAIL
100
AcDbLine
 10
-502.1675414063393
 20
-766.9442873724359
 30
0.0
 11
-480.7747522759049
 21
-766.9442873724359
 31
0.0
  0
LINE
  5
236A
330
251D
100
AcDbEntity
  8
DETAIL
100
AcDbLine
 10
-489.1579760924759
 20
-780.9774368152431
 30
0.0
 11
-501.2294375407105
 21
-780.9774368152431
 31
0.0
  0
LINE
  5
236B
330
251D
100
AcDbEntity
  8
DETAIL
100
AcDbLine
 10
-502.1675414063393
 20
-767.2865742037181
 30
0.0
 11
-502.1675414063393
 21
-766.996623328679
 31
0.0
  0
LINE
  5
236C
330
251D
100
AcDbEntity
  8
DETAIL
100
AcDbLine
 10
-480.8060171061256
 20
-766.996623328679
 30
0.0
 11
-502.1675414063393
 21
-766.996623328679
 31
0.0
  0
LINE
  5
236D
330
251D
100
AcDbEntity
  8
DETAIL
100
AcDbLine
 10
-501.4406539750853
 20
-802.5998073055188
 30
0.0
 11
-434.0000000000036
 21
-689.7071067811848
 31
0.0
  0
LINE
  5
236E
330
251D
100
AcDbEntity
  8
DETAIL
100
AcDbLine
 10
433.9999999999963
 20
-689.7071067811818
 30
0.0
 11
501.4406539750853
 21
-802.5998073055173
 31
0.0
  0
LINE
  5
236F
330
251D
100
AcDbEntity
  8
DETAIL
100
AcDbLine
 10
-511.1610571167833
 20
-807.610791947485
 30
0.0
 11
-511.1610571167833
 21
-818.6105056522874
 31
0.0
  0
LINE
  5
2370
330
251D
100
AcDbEntity
  8
DETAIL
100
AcDbLine
 10
-511.1610571167833
 20
-818.6105056522874
 30
0.0
 11
449.1678934619558
 21
-818.6105056522874
 31
0.0
  0
LINE
  5
2371
330
251D
100
AcDbEntity
  8
DETAIL
100
AcDbLine
 10
444.1678934619594
 20
-802.6070220816651
 30
0.0
 11
-450.1542065380411
 21
-802.6070220816651
 31
0.0
  0
LINE
  5
2372
330
251D
100
AcDbEntity
  8
DETAIL
100
AcDbLine
 10
-506.1610571167801
 20
-802.6037073055181
 30
0.0
 11
506.1610571167801
 21
-802.6037073055174
 31
0.0
  0
LINE
  5
2373
330
251D
100
AcDbEntity
  8
DETAIL
100
AcDbLine
 10
-506.1610571167801
 20
-802.6109220816652
 30
0.0
 11
-506.1610571167801
 21
-802.6037073055181
 31
0.0
  0
LINE
  5
2374
330
251D
100
AcDbEntity
  8
DETAIL
100
AcDbLine
 10
-511.1610571167833
 20
-807.610791947485
 30
0.0
 11
-506.1610571167801
 21
-802.6109220816652
 31
0.0
  0
LINE
  5
2375
330
251D
100
AcDbEntity
  8
DETAIL
100
AcDbLine
 10
-511.1610571167833
 20
-807.6035771713367
 30
0.0
 11
-511.1610571167833
 21
-807.610791947485
 31
0.0
  0
LINE
  5
2376
330
251D
100
AcDbEntity
  8
DETAIL
100
AcDbLine
 10
-506.1610571167801
 20
-802.6037073055181
 30
0.0
 11
-511.1610571167833
 21
-807.6035771713367
 31
0.0
  0
LINE
  5
2377
330
251D
100
AcDbEntity
  8
DETAIL
100
AcDbLine
 10
-510.1610571167801
 20
-858.609464578841
 30
0.0
 11
-511.1610571167801
 21
-858.609464578841
 31
0.0
  0
LINE
  5
2378
330
251D
100
AcDbEntity
  8
DETAIL
100
AcDbLine
 10
-421.1610571167797
 20
-819.6104796254502
 30
0.0
 11
-510.1610571167801
 21
-858.609464578841
 31
0.0
  0
LINE
  5
2379
330
251D
100
AcDbEntity
  8
DETAIL
100
AcDbLine
 10
-421.1610571167797
 20
-818.6105056522858
 30
0.0
 11
-421.1610571167797
 21
-819.6104796254502
 31
0.0
  0
LINE
  5
237A
330
251D
100
AcDbEntity
  8
DETAIL
100
AcDbLine
 10
-511.1610571167801
 20
-818.6105056522858
 30
0.0
 11
-421.1610571167797
 21
-818.6105056522858
 31
0.0
  0
LINE
  5
237B
330
251D
100
AcDbEntity
  8
DETAIL
100
AcDbLine
 10
-511.1610571167801
 20
-858.609464578841
 30
0.0
 11
-511.1610571167801
 21
-818.6105056522858
 31
0.0
  0
LINE
  5
237C
330
251D
100
AcDbEntity
  8
DETAIL
100
AcDbLine
 10
-523.5000000000036
 20
-818.5141959682535
 30
0.0
 11
-523.5000000000036
 21
-873.9999817415855
 31
0.0
  0
CIRCLE
  5
237D
330
251D
100
AcDbEntity
  8
FIX
100
AcDbCircle
 10
-450.0000000000036
 20
200.0000000000027
 30
0.0
 40
7.5
  0
CIRCLE
  5
237E
330
251D
100
AcDbEntity
  8
FIX
100
AcDbCircle
 10
449.9999999999963
 20
200.0000000000027
 30
0.0
 40
7.5
  0
CIRCLE
  5
237F
330
251D
100
AcDbEntity
  8
FIX
100
AcDbCircle
 10
-450.0000000000036
 20
-199.9999999999961
 30
0.0
 40
7.5
  0
CIRCLE
  5
2380
330
251D
100
AcDbEntity
  8
FIX
100
AcDbCircle
 10
449.9999999999963
 20
-199.9999999999961
 30
0.0
 40
7.5
  0
CIRCLE
  5
2381
330
251D
100
AcDbEntity
  8
FIX
100
AcDbCircle
 10
250.0
 20
450.0000000000045
 30
0.0
 40
7.5
  0
CIRCLE
  5
2382
330
251D
100
AcDbEntity
  8
FIX
100
AcDbCircle
 10
-250.0000000000036
 20
450.0000000000045
 30
0.0
 40
7.5
  0
LINE
  5
2383
330
251D
100
AcDbEntity
  8
DETAIL
100
AcDbLine
 10
435.9999999999963
 20
-689.9999999999961
 30
0.0
 11
-435.9999999999959
 21
-689.9999999999961
 31
0.0
  0
LINE
  5
2384
330
251D
100
AcDbEntity
  8
DETAIL
100
AcDbLine
 10
-501.2294375407105
 20
-767.2863687420385
 30
0.0
 11
-501.2294375407105
 21
-780.9774368152432
 31
0.0
  0
LINE
  5
2385
330
251D
100
AcDbEntity
  8
DETAIL
100
AcDbLine
 10
511.1610571167801
 20
-858.609464578841
 30
0.0
 11
510.1610571167801
 21
-858.609464578841
 31
0.0
  0
LINE
  5
2386
330
251D
100
AcDbEntity
  8
DETAIL
100
AcDbLine
 10
511.1610571167801
 20
-858.609464578841
 30
0.0
 11
511.1610571167801
 21
-818.6105056522858
 31
0.0
  0
LINE
  5
2387
330
251D
100
AcDbEntity
  8
DETAIL
100
AcDbLine
 10
510.1610571167801
 20
-818.6105056522858
 30
0.0
 11
511.1610571167801
 21
-818.6105056522858
 31
0.0
  0
LINE
  5
2388
330
251D
100
AcDbEntity
  8
DETAIL
100
AcDbLine
 10
510.1610571167801
 20
-858.609464578841
 30
0.0
 11
510.1610571167801
 21
-818.6105056522858
 31
0.0
  0
LINE
  5
2389
330
251D
100
AcDbEntity
  8
DETAIL
100
AcDbLine
 10
522.156945016486
 20
-818.5072324563533
 30
0.0
 11
511.1610571167801
 21
-818.5093098606582
 31
0.0
  0
LINE
  5
238A
330
251D
100
AcDbEntity
  8
DETAIL
100
AcDbLine
 10
511.1610571167801
 20
-818.5165271099759
 30
0.0
 11
523.1827792897711
 21
-818.514255899354
 31
0.0
  0
LINE
  5
238B
330
251D
100
AcDbEntity
  8
DETAIL
100
AcDbLine
 10
519.8304253308996
 20
-813.1561135257509
 30
0.0
 11
519.9332475445117
 21
-813.1560941000056
 31
0.0
  0
LINE
  5
238C
330
251D
100
AcDbEntity
  8
DETAIL
100
AcDbLine
 10
519.8304253308996
 20
-813.1561135257509
 30
0.0
 11
520.3263434917389
 21
-814.2855807646064
 31
0.0
  0
LINE
  5
238D
330
251D
100
AcDbEntity
  8
DETAIL
100
AcDbLine
 10
522.1519292944103
 20
-818.4434025962239
 30
0.0
 11
522.1831219647973
 21
-818.5144447601759
 31
0.0
  0
LINE
  5
238E
330
251D
100
AcDbEntity
  8
DETAIL
100
AcDbLine
 10
522.1831219647973
 20
-818.5144447601759
 30
0.0
 11
523.1827792897711
 21
-818.514255899354
 31
0.0
  0
LINE
  5
238F
330
251D
100
AcDbEntity
  8
DETAIL
100
AcDbLine
 10
523.1517656921096
 20
-818.4436215784424
 30
0.0
 11
523.1827792897711
 21
-818.514255899354
 31
0.0
  0
LINE
  5
2390
330
251D
100
AcDbEntity
  8
DETAIL
100
AcDbLine
 10
519.8304253308051
 20
-813.1561130363408
 30
0.0
 11
511.1610571167801
 21
-813.1577508939123
 31
0.0
  0
LINE
  5
2391
330
251D
100
AcDbEntity
  8
DETAIL
100
AcDbLine
 10
509.1610571167802
 20
-819.6104796254502
 30
0.0
 11
421.1610571167802
 21
-819.6104796254502
 31
0.0
  0
LINE
  5
2392
330
251D
100
AcDbEntity
  8
DETAIL
100
AcDbLine
 10
509.1610571167802
 20
-819.6104796254502
 30
0.0
 11
509.1610571167802
 21
-818.6105056522858
 31
0.0
  0
LINE
  5
2393
330
251D
100
AcDbEntity
  8
DETAIL
100
AcDbLine
 10
421.1610571167802
 20
-818.6105056522858
 30
0.0
 11
509.1610571167802
 21
-818.6105056522858
 31
0.0
  0
LINE
  5
2394
330
251D
100
AcDbEntity
  8
DETAIL
100
AcDbLine
 10
421.1610571167802
 20
-819.6104796254502
 30
0.0
 11
421.1610571167802
 21
-818.6105056522858
 31
0.0
  0
LINE
  5
2395
330
251D
100
AcDbEntity
  8
DETAIL
100
AcDbLine
 10
512.1610571167803
 20
-818.5235554337324
 30
0.0
 11
512.1610571167803
 21
-818.6103191998945
 31
0.0
  0
LINE
  5
2396
330
251D
100
AcDbEntity
  8
DETAIL
100
AcDbLine
 10
523.5000000000036
 20
-818.5214132175724
 30
0.0
 11
512.1610571167803
 21
-818.5235554337324
 31
0.0
  0
LINE
  5
2397
330
251D
100
AcDbEntity
  8
DETAIL
100
AcDbLine
 10
523.5000000000036
 20
-873.9999817415855
 30
0.0
 11
512.1610571167803
 21
-874.0021239577451
 31
0.0
  0
LINE
  5
2398
330
251D
100
AcDbEntity
  8
DETAIL
100
AcDbLine
 10
511.1610571167801
 20
-818.5165271099759
 30
0.0
 11
523.5000000000036
 21
-818.5141959682535
 31
0.0
  0
LINE
  5
2399
330
251D
100
AcDbEntity
  8
DETAIL
100
AcDbLine
 10
512.1610571167803
 20
-818.6103191998945
 30
0.0
 11
512.1610571167803
 21
-874.0021239577451
 31
0.0
  0
LINE
  5
239A
330
251D
100
AcDbEntity
  8
DETAIL
100
AcDbLine
 10
512.1610571167803
 20
-818.6103191998945
 30
0.0
 11
511.1610571167801
 21
-818.6103191998945
 31
0.0
  0
LINE
  5
239B
330
251D
100
AcDbEntity
  8
DETAIL
100
AcDbLine
 10
511.1610571167801
 20
-858.609464578841
 30
0.0
 11
511.1610571167801
 21
-874.0021239577451
 31
0.0
  0
LINE
  5
239C
330
251D
100
AcDbEntity
  8
DETAIL
100
AcDbLine
 10
512.1610571167803
 20
-874.0021239577451
 30
0.0
 11
511.1610571167801
 21
-874.0021239577451
 31
0.0
  0
LINE
  5
239D
330
251D
100
AcDbEntity
  8
DETAIL
100
AcDbLine
 10
511.2022858888884
 20
-817.9257786166498
 30
0.0
 11
511.1610571167801
 21
-817.9505513621817
 31
0.0
  0
LINE
  5
239E
330
251D
100
AcDbEntity
  8
DETAIL
100
AcDbLine
 10
511.1610571167801
 20
-818.4409953968259
 30
0.0
 11
523.3403817205871
 21
-818.4436628887574
 31
0.0
  0
LINE
  5
239F
330
251D
100
AcDbEntity
  8
DETAIL
100
AcDbLine
 10
523.3632540004473
 20
-802.4597712188748
 30
0.0
 11
523.3403817205871
 21
-818.4436628887574
 31
0.0
  0
LINE
  5
23A0
330
251D
100
AcDbEntity
  8
DETAIL
100
AcDbLine
 10
511.1610571167801
 20
-817.4420018543687
 30
0.0
 11
522.3421756125135
 21
-817.4444507211442
 31
0.0
  0
LINE
  5
23A1
330
251D
100
AcDbEntity
  8
DETAIL
100
AcDbLine
 10
522.363618374879
 20
-802.4595522806292
 30
0.0
 11
523.3632540004473
 21
-802.4597712188748
 31
0.0
  0
LINE
  5
23A2
330
251D
100
AcDbEntity
  8
DETAIL
100
AcDbLine
 10
523.3632540004473
 20
-802.4597712188748
 30
0.0
 11
502.2290731662796
 21
-767.2865876802845
 31
0.0
  0
LINE
  5
23A3
330
251D
100
AcDbEntity
  8
DETAIL
100
AcDbLine
 10
501.2294375407109
 20
-780.9774368152431
 30
0.0
 11
519.7654897479406
 21
-813.1561253042749
 31
0.0
  0
LINE
  5
23A4
330
251D
100
AcDbEntity
  8
DETAIL
100
AcDbLine
 10
520.4442490536494
 20
-814.2857704902271
 30
0.0
 11
522.3421756125135
 21
-817.4444507211442
 31
0.0
  0
LINE
  5
23A5
330
251D
100
AcDbEntity
  8
DETAIL
100
AcDbLine
 10
522.3421756125135
 20
-817.4444507211442
 30
0.0
 11
522.363618374879
 21
-802.4595522806292
 31
0.0
  0
LINE
  5
23A6
330
251D
100
AcDbEntity
  8
DETAIL
100
AcDbLine
 10
501.2294375407109
 20
-767.2863687420385
 30
0.0
 11
522.363618374879
 21
-802.4595522806292
 31
0.0
  0
LINE
  5
23A7
330
251D
100
AcDbEntity
  8
DETAIL
100
AcDbLine
 10
502.2290731662796
 20
-767.2865876802845
 30
0.0
 11
501.2294375407109
 21
-767.2863687420385
 31
0.0
  0
LINE
  5
23A8
330
251D
100
AcDbEntity
  8
DETAIL
100
AcDbLine
 10
502.1675414063393
 20
-766.996623328679
 30
0.0
 11
502.1675414063393
 21
-766.9442873724359
 31
0.0
  0
LINE
  5
23A9
330
251D
100
AcDbEntity
  8
DETAIL
100
AcDbLine
 10
502.1675414063393
 20
-766.9442873724359
 30
0.0
 11
480.7747522759017
 21
-766.9442873724359
 31
0.0
  0
LINE
  5
23AA
330
251D
100
AcDbEntity
  8
DETAIL
100
AcDbLine
 10
489.1579760924759
 20
-780.9774368152431
 30
0.0
 11
501.2294375407109
 21
-780.9774368152431
 31
0.0
  0
LINE
  5
23AB
330
251D
100
AcDbEntity
  8
DETAIL
100
AcDbLine
 10
502.1675414063393
 20
-767.2865742037181
 30
0.0
 11
502.1675414063393
 21
-766.996623328679
 31
0.0
  0
LINE
  5
23AC
330
251D
100
AcDbEntity
  8
DETAIL
100
AcDbLine
 10
480.8060171061261
 20
-766.996623328679
 30
0.0
 11
502.1675414063393
 21
-766.996623328679
 31
0.0
  0
LINE
  5
23AD
330
251D
100
AcDbEntity
  8
DETAIL
100
AcDbLine
 10
511.1610571167801
 20
-807.610791947485
 30
0.0
 11
511.1610571167801
 21
-818.6105056522874
 31
0.0
  0
LINE
  5
23AE
330
251D
100
AcDbEntity
  8
DETAIL
100
AcDbLine
 10
506.1610571167801
 20
-802.6109220816652
 30
0.0
 11
506.1610571167801
 21
-802.6037073055181
 31
0.0
  0
LINE
  5
23AF
330
251D
100
AcDbEntity
  8
DETAIL
100
AcDbLine
 10
511.1610571167801
 20
-807.610791947485
 30
0.0
 11
506.1610571167801
 21
-802.6109220816652
 31
0.0
  0
LINE
  5
23B0
330
251D
100
AcDbEntity
  8
DETAIL
100
AcDbLine
 10
511.1610571167801
 20
-807.6035771713367
 30
0.0
 11
511.1610571167801
 21
-807.610791947485
 31
0.0
  0
LINE
  5
23B1
330
251D
100
AcDbEntity
  8
DETAIL
100
AcDbLine
 10
506.1610571167801
 20
-802.6037073055181
 30
0.0
 11
511.1610571167801
 21
-807.6035771713367
 31
0.0
  0
LINE
  5
23B2
330
251D
100
AcDbEntity
  8
DETAIL
100
AcDbLine
 10
510.1610571167801
 20
-858.609464578841
 30
0.0
 11
511.1610571167801
 21
-858.609464578841
 31
0.0
  0
LINE
  5
23B3
330
251D
100
AcDbEntity
  8
DETAIL
100
AcDbLine
 10
421.1610571167802
 20
-819.6104796254502
 30
0.0
 11
510.1610571167801
 21
-858.609464578841
 31
0.0
  0
LINE
  5
23B4
330
251D
100
AcDbEntity
  8
DETAIL
100
AcDbLine
 10
421.1610571167802
 20
-818.6105056522858
 30
0.0
 11
421.1610571167802
 21
-819.6104796254502
 31
0.0
  0
LINE
  5
23B5
330
251D
100
AcDbEntity
  8
DETAIL
100
AcDbLine
 10
511.1610571167801
 20
-818.6105056522858
 30
0.0
 11
421.1610571167802
 21
-818.6105056522858
 31
0.0
  0
LINE
  5
23B6
330
251D
100
AcDbEntity
  8
DETAIL
100
AcDbLine
 10
511.1610571167801
 20
-858.609464578841
 30
0.0
 11
511.1610571167801
 21
-818.6105056522858
 31
0.0
  0
LINE
  5
23B7
330
251D
100
AcDbEntity
  8
DETAIL
100
AcDbLine
 10
523.5000000000036
 20
-818.5141959682535
 30
0.0
 11
523.5000000000036
 21
-873.9999817415855
 31
0.0
  0
LINE
  5
23B8
330
251D
100
AcDbEntity
  8
DETAIL
100
AcDbLine
 10
501.2294375407109
 20
-767.2863687420385
 30
0.0
 11
501.2294375407109
 21
-780.9774368152432
 31
0.0
  0
INSERT
  5
23B9
330
251D
100
AcDbEntity
  8
0
100
AcDbBlockReference
  2
*U66
 10
-0.000000000003638
 20
0.0000000000013642
 30
0.0
1001
ACAD
1000
DSTYLE
1002
{
1070
    41
1040
12.0
1070
    42
1040
20.0
1070
    43
1040
200.0
1070
    44
1040
20.0
1070
    73
1070
     0
1070
    74
1070
     0
1070
    77
1070
     1
1070
    78
1070
     8
1070
   140
1040
64.0
1070
   147
1040
50.0
1070
   172
1070
     1
1070
   174
1070
     1
1070
   275
1070
     0
1070
   284
1070
     0
1070
   285
1070
     0
1070
   286
1070
     0
1070
   341
1005
0
1070
   342
1005
0
1002
}
  0
INSERT
  5
23BA
330
251D
100
AcDbEntity
  8
0
100
AcDbBlockReference
  2
*U67
 10
-0.000000000003638
 20
0.0000000000013642
 30
0.0
  0
LINE
  5
23BB
330
251D
100
AcDbEntity
  8
NOTE
100
AcDbLine
 39
50.0
 10
462.4999999999963
 20
-449.9999999999969
 30
0.0
 11
437.4999999999963
 21
-449.9999999999969
 31
0.0
  0
LINE
  5
23BC
330
251D
100
AcDbEntity
  8
NOTE
100
AcDbLine
 39
50.0
 10
449.9999999999963
 20
-437.4999999999969
 30
0.0
 11
449.9999999999963
 21
-462.4999999999969
 31
0.0
  0
LINE
  5
23BD
330
251D
100
AcDbEntity
  8
NOTE
100
AcDbLine
 39
50.0
 10
462.4999999999963
 20
-249.9999999999964
 30
0.0
 11
437.4999999999963
 21
-249.9999999999964
 31
0.0
  0
LINE
  5
23BE
330
251D
100
AcDbEntity
  8
NOTE
100
AcDbLine
 39
50.0
 10
449.9999999999963
 20
-237.4999999999964
 30
0.0
 11
449.9999999999963
 21
-262.4999999999964
 31
0.0
  0
LINE
  5
23BF
330
251D
100
AcDbEntity
  8
NOTE
100
AcDbLine
 39
50.0
 10
462.4999999999963
 20
-199.9999999999961
 30
0.0
 11
437.4999999999963
 21
-199.9999999999961
 31
0.0
  0
LINE
  5
23C0
330
251D
100
AcDbEntity
  8
NOTE
100
AcDbLine
 39
50.0
 10
449.9999999999963
 20
-187.4999999999961
 30
0.0
 11
449.9999999999963
 21
-212.4999999999964
 31
0.0
  0
LINE
  5
23C1
330
251D
100
AcDbEntity
  8
NOTE
100
AcDbLine
 39
50.0
 10
462.4999999999963
 20
200.0000000000027
 30
0.0
 11
437.4999999999963
 21
200.0000000000027
 31
0.0
  0
LINE
  5
23C2
330
251D
100
AcDbEntity
  8
NOTE
100
AcDbLine
 39
50.0
 10
449.9999999999963
 20
212.5000000000027
 30
0.0
 11
449.9999999999963
 21
187.5000000000026
 31
0.0
  0
LINE
  5
23C3
330
251D
100
AcDbEntity
  8
NOTE
100
AcDbLine
 39
50.0
 10
462.4999999999963
 20
250.0000000000027
 30
0.0
 11
437.4999999999963
 21
250.0000000000027
 31
0.0
  0
LINE
  5
23C4
330
251D
100
AcDbEntity
  8
NOTE
100
AcDbLine
 39
50.0
 10
449.9999999999963
 20
262.5000000000027
 30
0.0
 11
449.9999999999963
 21
237.5000000000027
 31
0.0
  0
LINE
  5
23C5
330
251D
100
AcDbEntity
  8
NOTE
100
AcDbLine
 39
50.0
 10
462.4999999999963
 20
450.0000000000045
 30
0.0
 11
437.4999999999963
 21
450.0000000000045
 31
0.0
  0
LINE
  5
23C6
330
251D
100
AcDbEntity
  8
NOTE
100
AcDbLine
 39
50.0
 10
449.9999999999963
 20
462.5000000000045
 30
0.0
 11
449.9999999999963
 21
437.5000000000045
 31
0.0
  0
LINE
  5
23C7
330
251D
100
AcDbEntity
  8
NOTE
100
AcDbLine
 39
50.0
 10
262.5
 20
450.0000000000045
 30
0.0
 11
237.5
 21
450.0000000000045
 31
0.0
  0
LINE
  5
23C8
330
251D
100
AcDbEntity
  8
NOTE
100
AcDbLine
 39
50.0
 10
250.0
 20
462.5000000000045
 30
0.0
 11
250.0
 21
437.5000000000045
 31
0.0
  0
LINE
  5
23C9
330
251D
100
AcDbEntity
  8
NOTE
100
AcDbLine
 39
50.0
 10
212.5
 20
450.0000000000045
 30
0.0
 11
187.5
 21
450.0000000000045
 31
0.0
  0
LINE
  5
23CA
330
251D
100
AcDbEntity
  8
NOTE
100
AcDbLine
 39
50.0
 10
200.0
 20
462.5000000000045
 30
0.0
 11
200.0
 21
437.5000000000045
 31
0.0
  0
LINE
  5
23CB
330
251D
100
AcDbEntity
  8
NOTE
100
AcDbLine
 39
50.0
 10
-187.5000000000035
 20
450.0000000000045
 30
0.0
 11
-212.5000000000036
 21
450.0000000000045
 31
0.0
  0
LINE
  5
23CC
330
251D
100
AcDbEntity
  8
NOTE
100
AcDbLine
 39
50.0
 10
-200.0000000000036
 20
462.5000000000045
 30
0.0
 11
-200.0000000000036
 21
437.5000000000045
 31
0.0
  0
LINE
  5
23CD
330
251D
100
AcDbEntity
  8
NOTE
100
AcDbLine
 39
50.0
 10
-237.5000000000036
 20
450.0000000000045
 30
0.0
 11
-262.5000000000036
 21
450.0000000000045
 31
0.0
  0
LINE
  5
23CE
330
251D
100
AcDbEntity
  8
NOTE
100
AcDbLine
 39
50.0
 10
-250.0000000000036
 20
462.5000000000045
 30
0.0
 11
-250.0000000000036
 21
437.5000000000045
 31
0.0
  0
LINE
  5
23CF
330
251D
100
AcDbEntity
  8
NOTE
100
AcDbLine
 39
50.0
 10
-437.5000000000036
 20
450.0000000000045
 30
0.0
 11
-462.5000000000036
 21
450.0000000000045
 31
0.0
  0
LINE
  5
23D0
330
251D
100
AcDbEntity
  8
NOTE
100
AcDbLine
 39
50.0
 10
-450.0000000000036
 20
462.5000000000045
 30
0.0
 11
-450.0000000000036
 21
437.5000000000045
 31
0.0
  0
LINE
  5
23D1
330
251D
100
AcDbEntity
  8
NOTE
100
AcDbLine
 39
50.0
 10
-437.5000000000036
 20
250.0000000000027
 30
0.0
 11
-462.5000000000036
 21
250.0000000000027
 31
0.0
  0
LINE
  5
23D2
330
251D
100
AcDbEntity
  8
NOTE
100
AcDbLine
 39
50.0
 10
-450.0000000000036
 20
262.5000000000027
 30
0.0
 11
-450.0000000000036
 21
237.5000000000027
 31
0.0
  0
LINE
  5
23D3
330
251D
100
AcDbEntity
  8
NOTE
100
AcDbLine
 39
50.0
 10
-437.5000000000036
 20
200.0000000000027
 30
0.0
 11
-462.5000000000036
 21
200.0000000000027
 31
0.0
  0
LINE
  5
23D4
330
251D
100
AcDbEntity
  8
NOTE
100
AcDbLine
 39
50.0
 10
-450.0000000000036
 20
212.5000000000027
 30
0.0
 11
-450.0000000000036
 21
187.5000000000026
 31
0.0
  0
LINE
  5
23D5
330
251D
100
AcDbEntity
  8
NOTE
100
AcDbLine
 39
50.0
 10
-437.5000000000036
 20
-199.9999999999961
 30
0.0
 11
-462.5000000000036
 21
-199.9999999999961
 31
0.0
  0
LINE
  5
23D6
330
251D
100
AcDbEntity
  8
NOTE
100
AcDbLine
 39
50.0
 10
-450.0000000000036
 20
-187.4999999999961
 30
0.0
 11
-450.0000000000036
 21
-212.4999999999964
 31
0.0
  0
LINE
  5
23D7
330
251D
100
AcDbEntity
  8
NOTE
100
AcDbLine
 39
50.0
 10
-437.5000000000036
 20
-249.9999999999964
 30
0.0
 11
-462.5000000000036
 21
-249.9999999999964
 31
0.0
  0
LINE
  5
23D8
330
251D
100
AcDbEntity
  8
NOTE
100
AcDbLine
 39
50.0
 10
-450.0000000000036
 20
-237.4999999999964
 30
0.0
 11
-450.0000000000036
 21
-262.4999999999964
 31
0.0
  0
LINE
  5
23D9
330
251D
100
AcDbEntity
  8
NOTE
100
AcDbLine
 39
50.0
 10
-437.5000000000036
 20
-449.9999999999969
 30
0.0
 11
-462.5000000000036
 21
-449.9999999999969
 31
0.0
  0
LINE
  5
23DA
330
251D
100
AcDbEntity
  8
NOTE
100
AcDbLine
 39
50.0
 10
-450.0000000000036
 20
-437.4999999999969
 30
0.0
 11
-450.0000000000036
 21
-462.4999999999969
 31
0.0
  0
LINE
  5
23DB
330
251D
100
AcDbEntity
  8
OUTLINE
100
AcDbLine
 10
-436.0
 20
-173.9999999999971
 30
0.0
 11
-436.0
 21
436.0000000000044
 31
0.0
  0
LINE
  5
23DC
330
251D
100
AcDbEntity
  8
OUTLINE
100
AcDbLine
 10
436.0
 20
436.0000000000044
 30
0.0
 11
436.0
 21
-173.9999999999971
 31
0.0
  0
LINE
  5
23DD
330
251D
100
AcDbEntity
  8
OUTLINE
100
AcDbLine
 10
474.9999999999963
 20
475.0000000000023
 30
0.0
 11
-475.0000000000036
 21
475.0000000000023
 31
0.0
  0
LINE
  5
23DE
330
251D
100
AcDbEntity
  8
OUTLINE
100
AcDbLine
 10
-475.0000000000036
 20
475.0000000000023
 30
0.0
 11
-475.0000000000036
 21
-474.9999999999969
 31
0.0
  0
LINE
  5
23DF
330
251D
100
AcDbEntity
  8
OUTLINE
100
AcDbLine
 10
436.0
 20
-474.9999999999969
 30
0.0
 11
474.9999999999963
 21
-474.9999999999969
 31
0.0
  0
LINE
  5
23E0
330
251D
100
AcDbEntity
  8
OUTLINE
100
AcDbLine
 10
-475.0000000000036
 20
-474.9999999999969
 30
0.0
 11
-436.0
 21
-474.9999999999969
 31
0.0
  0
LINE
  5
23E1
330
251D
100
AcDbEntity
  8
OUTLINE
100
AcDbLine
 10
474.9999999999963
 20
-474.9999999999969
 30
0.0
 11
474.9999999999963
 21
475.0000000000023
 31
0.0
  0
LINE
  5
23E2
330
251D
100
AcDbEntity
  8
OUTLINE
100
AcDbLine
 10
-436.0
 20
-173.9999999999971
 30
0.0
 11
-436.0
 21
-689.9999999999961
 31
0.0
  0
LINE
  5
23E3
330
251D
100
AcDbEntity
  8
OUTLINE
100
AcDbLine
 10
436.0
 20
-689.9999999999961
 30
0.0
 11
436.0
 21
-173.9999999999971
 31
0.0
  0
LINE
  5
23E4
330
251D
100
AcDbEntity
  8
OUTLINE
100
AcDbLine
 10
436.0
 20
436.0000000000044
 30
0.0
 11
-436.0
 21
436.0000000000044
 31
0.0
  0
LINE
  5
23E5
330
251D
100
AcDbEntity
  8
OUTLINE
100
AcDbLine
 10
-511.1610571167801
 20
-858.609464578841
 30
0.0
 11
-510.1610571167801
 21
-858.609464578841
 31
0.0
  0
LINE
  5
23E6
330
251D
100
AcDbEntity
  8
OUTLINE
100
AcDbLine
 10
-511.1610571167801
 20
-858.609464578841
 30
0.0
 11
-511.1610571167801
 21
-818.6105056522858
 31
0.0
  0
LINE
  5
23E7
330
251D
100
AcDbEntity
  8
OUTLINE
100
AcDbLine
 10
-510.1610571167801
 20
-818.6105056522858
 30
0.0
 11
-511.1610571167801
 21
-818.6105056522858
 31
0.0
  0
LINE
  5
23E8
330
251D
100
AcDbEntity
  8
OUTLINE
100
AcDbLine
 10
-510.1610571167801
 20
-858.609464578841
 30
0.0
 11
-510.1610571167801
 21
-818.6105056522858
 31
0.0
  0
LINE
  5
23E9
330
251D
100
AcDbEntity
  8
OUTLINE
100
AcDbLine
 10
-522.156945016486
 20
-818.5072324563533
 30
0.0
 11
-511.1610571167833
 21
-818.5093098606582
 31
0.0
  0
LINE
  5
23EA
330
251D
100
AcDbEntity
  8
OUTLINE
100
AcDbLine
 10
-511.1610571167801
 20
-818.5165271099759
 30
0.0
 11
-523.1827792897705
 21
-818.514255899354
 31
0.0
  0
LINE
  5
23EB
330
251D
100
AcDbEntity
  8
OUTLINE
100
AcDbLine
 10
-519.8304253308991
 20
-813.1561135257509
 30
0.0
 11
-519.9332475445112
 21
-813.1560941000056
 31
0.0
  0
LINE
  5
23EC
330
251D
100
AcDbEntity
  8
OUTLINE
100
AcDbLine
 10
-519.8304253308991
 20
-813.1561135257509
 30
0.0
 11
-520.3263434917385
 21
-814.2855807646064
 31
0.0
  0
LINE
  5
23ED
330
251D
100
AcDbEntity
  8
OUTLINE
100
AcDbLine
 10
-522.1519292944098
 20
-818.4434025962239
 30
0.0
 11
-522.1831219647969
 21
-818.5144447601759
 31
0.0
  0
LINE
  5
23EE
330
251D
100
AcDbEntity
  8
OUTLINE
100
AcDbLine
 10
-522.1831219647969
 20
-818.5144447601759
 30
0.0
 11
-523.1827792897705
 21
-818.514255899354
 31
0.0
  0
LINE
  5
23EF
330
251D
100
AcDbEntity
  8
OUTLINE
100
AcDbLine
 10
-523.1517656921091
 20
-818.4436215784424
 30
0.0
 11
-523.1827792897705
 21
-818.514255899354
 31
0.0
  0
LINE
  5
23F0
330
251D
100
AcDbEntity
  8
OUTLINE
100
AcDbLine
 10
-519.8304253308051
 20
-813.1561130363408
 30
0.0
 11
-511.1610571167833
 21
-813.1577508939123
 31
0.0
  0
LINE
  5
23F1
330
251D
100
AcDbEntity
  8
OUTLINE
100
AcDbLine
 10
-509.1610571167833
 20
-819.6104796254502
 30
0.0
 11
-421.1610571167835
 21
-819.6104796254502
 31
0.0
  0
LINE
  5
23F2
330
251D
100
AcDbEntity
  8
OUTLINE
100
AcDbLine
 10
-509.1610571167833
 20
-819.6104796254502
 30
0.0
 11
-509.1610571167833
 21
-818.6105056522858
 31
0.0
  0
LINE
  5
23F3
330
251D
100
AcDbEntity
  8
OUTLINE
100
AcDbLine
 10
-421.1610571167835
 20
-818.6105056522858
 30
0.0
 11
-509.1610571167833
 21
-818.6105056522858
 31
0.0
  0
LINE
  5
23F4
330
251D
100
AcDbEntity
  8
OUTLINE
100
AcDbLine
 10
-421.1610571167835
 20
-819.6104796254502
 30
0.0
 11
-421.1610571167835
 21
-818.6105056522858
 31
0.0
  0
LINE
  5
23F5
330
251D
100
AcDbEntity
  8
OUTLINE
100
AcDbLine
 10
-512.1610571167839
 20
-818.5235554337324
 30
0.0
 11
-512.1610571167839
 21
-818.6103191998945
 31
0.0
  0
LINE
  5
23F6
330
251D
100
AcDbEntity
  8
OUTLINE
100
AcDbLine
 10
-523.5000000000036
 20
-818.5214132175724
 30
0.0
 11
-512.1610571167839
 21
-818.5235554337324
 31
0.0
  0
LINE
  5
23F7
330
251D
100
AcDbEntity
  8
OUTLINE
100
AcDbLine
 10
-523.5000000000036
 20
-873.9999817415855
 30
0.0
 11
-512.1610571167839
 21
-874.0021239577451
 31
0.0
  0
LINE
  5
23F8
330
251D
100
AcDbEntity
  8
OUTLINE
100
AcDbLine
 10
-511.1610571167833
 20
-818.5165271099759
 30
0.0
 11
-523.5000000000036
 21
-818.5141959682535
 31
0.0
  0
LINE
  5
23F9
330
251D
100
AcDbEntity
  8
OUTLINE
100
AcDbLine
 10
-512.1610571167839
 20
-818.6103191998945
 30
0.0
 11
-512.1610571167839
 21
-874.0021239577451
 31
0.0
  0
LINE
  5
23FA
330
251D
100
AcDbEntity
  8
OUTLINE
100
AcDbLine
 10
-512.1610571167839
 20
-818.6103191998945
 30
0.0
 11
-511.1610571167833
 21
-818.6103191998945
 31
0.0
  0
LINE
  5
23FB
330
251D
100
AcDbEntity
  8
OUTLINE
100
AcDbLine
 10
-511.1610571167833
 20
-858.609464578841
 30
0.0
 11
-511.1610571167833
 21
-874.0021239577451
 31
0.0
  0
LINE
  5
23FC
330
251D
100
AcDbEntity
  8
OUTLINE
100
AcDbLine
 10
-512.1610571167839
 20
-874.0021239577451
 30
0.0
 11
-511.1610571167833
 21
-874.0021239577451
 31
0.0
  0
LINE
  5
23FD
330
251D
100
AcDbEntity
  8
OUTLINE
100
AcDbLine
 10
-511.2022858888916
 20
-817.9257786166498
 30
0.0
 11
-511.1610571167833
 21
-817.9505513621817
 31
0.0
  0
LINE
  5
23FE
330
251D
100
AcDbEntity
  8
OUTLINE
100
AcDbLine
 10
-511.1610571167833
 20
-818.4409953968259
 30
0.0
 11
-523.3403817205871
 21
-818.4436628887574
 31
0.0
  0
LINE
  5
23FF
330
251D
100
AcDbEntity
  8
OUTLINE
100
AcDbLine
 10
-523.3632540004473
 20
-802.4597712188748
 30
0.0
 11
-523.3403817205871
 21
-818.4436628887574
 31
0.0
  0
LINE
  5
2400
330
251D
100
AcDbEntity
  8
OUTLINE
100
AcDbLine
 10
-511.1610571167833
 20
-817.4420018543687
 30
0.0
 11
-522.3421756125129
 21
-817.4444507211442
 31
0.0
  0
LINE
  5
2401
330
251D
100
AcDbEntity
  8
OUTLINE
100
AcDbLine
 10
-522.3636183748785
 20
-802.4595522806292
 30
0.0
 11
-523.3632540004473
 21
-802.4597712188748
 31
0.0
  0
LINE
  5
2402
330
251D
100
AcDbEntity
  8
OUTLINE
100
AcDbLine
 10
-523.3632540004473
 20
-802.4597712188748
 30
0.0
 11
-502.2290731662796
 21
-767.2865876802845
 31
0.0
  0
LINE
  5
2403
330
251D
100
AcDbEntity
  8
OUTLINE
100
AcDbLine
 10
-501.2294375407105
 20
-780.9774368152431
 30
0.0
 11
-519.7654897479402
 21
-813.1561253042749
 31
0.0
  0
LINE
  5
2404
330
251D
100
AcDbEntity
  8
OUTLINE
100
AcDbLine
 10
-520.4442490536494
 20
-814.2857704902271
 30
0.0
 11
-522.3421756125129
 21
-817.4444507211442
 31
0.0
  0
LINE
  5
2405
330
251D
100
AcDbEntity
  8
OUTLINE
100
AcDbLine
 10
-522.3421756125129
 20
-817.4444507211442
 30
0.0
 11
-522.3636183748785
 21
-802.4595522806292
 31
0.0
  0
LINE
  5
2406
330
251D
100
AcDbEntity
  8
OUTLINE
100
AcDbLine
 10
-501.2294375407105
 20
-767.2863687420385
 30
0.0
 11
-522.3636183748785
 21
-802.4595522806292
 31
0.0
  0
LINE
  5
2407
330
251D
100
AcDbEntity
  8
OUTLINE
100
AcDbLine
 10
-502.2290731662796
 20
-767.2865876802845
 30
0.0
 11
-501.2294375407105
 21
-767.2863687420385
 31
0.0
  0
LINE
  5
2408
330
251D
100
AcDbEntity
  8
OUTLINE
100
AcDbLine
 10
-502.1675414063393
 20
-766.996623328679
 30
0.0
 11
-502.1675414063393
 21
-766.9442873724359
 31
0.0
  0
LINE
  5
2409
330
251D
100
AcDbEntity
  8
OUTLINE
100
AcDbLine
 10
-502.1675414063393
 20
-766.9442873724359
 30
0.0
 11
-480.7747522759049
 21
-766.9442873724359
 31
0.0
  0
LINE
  5
240A
330
251D
100
AcDbEntity
  8
OUTLINE
100
AcDbLine
 10
-489.1579760924759
 20
-780.9774368152431
 30
0.0
 11
-501.2294375407105
 21
-780.9774368152431
 31
0.0
  0
LINE
  5
240B
330
251D
100
AcDbEntity
  8
OUTLINE
100
AcDbLine
 10
-502.1675414063393
 20
-767.2865742037181
 30
0.0
 11
-502.1675414063393
 21
-766.996623328679
 31
0.0
  0
LINE
  5
240C
330
251D
100
AcDbEntity
  8
OUTLINE
100
AcDbLine
 10
-480.8060171061256
 20
-766.996623328679
 30
0.0
 11
-502.1675414063393
 21
-766.996623328679
 31
0.0
  0
LINE
  5
240D
330
251D
100
AcDbEntity
  8
OUTLINE
100
AcDbLine
 10
-501.4406539750853
 20
-802.5998073055188
 30
0.0
 11
-434.0000000000036
 21
-689.7071067811848
 31
0.0
  0
LINE
  5
240E
330
251D
100
AcDbEntity
  8
OUTLINE
100
AcDbLine
 10
-511.1610571167833
 20
-807.610791947485
 30
0.0
 11
-511.1610571167833
 21
-818.6105056522874
 31
0.0
  0
LINE
  5
240F
330
251D
100
AcDbEntity
  8
OUTLINE
100
AcDbLine
 10
-511.1610571167833
 20
-818.6105056522874
 30
0.0
 11
449.1678934619558
 21
-818.6105056522874
 31
0.0
  0
LINE
  5
2410
330
251D
100
AcDbEntity
  8
OUTLINE
100
AcDbLine
 10
444.1678934619594
 20
-802.6070220816651
 30
0.0
 11
-450.1542065380411
 21
-802.6070220816651
 31
0.0
  0
LINE
  5
2411
330
251D
100
AcDbEntity
  8
OUTLINE
100
AcDbLine
 10
-506.1610571167801
 20
-802.6037073055181
 30
0.0
 11
506.1610571167801
 21
-802.6037073055174
 31
0.0
  0
LINE
  5
2412
330
251D
100
AcDbEntity
  8
OUTLINE
100
AcDbLine
 10
-506.1610571167801
 20
-802.6109220816652
 30
0.0
 11
-506.1610571167801
 21
-802.6037073055181
 31
0.0
  0
LINE
  5
2413
330
251D
100
AcDbEntity
  8
OUTLINE
100
AcDbLine
 10
-511.1610571167833
 20
-807.610791947485
 30
0.0
 11
-506.1610571167801
 21
-802.6109220816652
 31
0.0
  0
LINE
  5
2414
330
251D
100
AcDbEntity
  8
OUTLINE
100
AcDbLine
 10
-511.1610571167833
 20
-807.6035771713367
 30
0.0
 11
-511.1610571167833
 21
-807.610791947485
 31
0.0
  0
LINE
  5
2415
330
251D
100
AcDbEntity
  8
OUTLINE
100
AcDbLine
 10
-506.1610571167801
 20
-802.6037073055181
 30
0.0
 11
-511.1610571167833
 21
-807.6035771713367
 31
0.0
  0
LINE
  5
2416
330
251D
100
AcDbEntity
  8
OUTLINE
100
AcDbLine
 10
-510.1610571167801
 20
-858.609464578841
 30
0.0
 11
-511.1610571167801
 21
-858.609464578841
 31
0.0
  0
LINE
  5
2417
330
251D
100
AcDbEntity
  8
OUTLINE
100
AcDbLine
 10
-421.1610571167797
 20
-819.6104796254502
 30
0.0
 11
-510.1610571167801
 21
-858.609464578841
 31
0.0
  0
LINE
  5
2418
330
251D
100
AcDbEntity
  8
OUTLINE
100
AcDbLine
 10
-421.1610571167797
 20
-818.6105056522858
 30
0.0
 11
-421.1610571167797
 21
-819.6104796254502
 31
0.0
  0
LINE
  5
2419
330
251D
100
AcDbEntity
  8
OUTLINE
100
AcDbLine
 10
-511.1610571167801
 20
-818.6105056522858
 30
0.0
 11
-421.1610571167797
 21
-818.6105056522858
 31
0.0
  0
LINE
  5
241A
330
251D
100
AcDbEntity
  8
OUTLINE
100
AcDbLine
 10
-511.1610571167801
 20
-858.609464578841
 30
0.0
 11
-511.1610571167801
 21
-818.6105056522858
 31
0.0
  0
LINE
  5
241B
330
251D
100
AcDbEntity
  8
OUTLINE
100
AcDbLine
 10
-523.5000000000036
 20
-818.5141959682535
 30
0.0
 11
-523.5000000000036
 21
-873.9999817415855
 31
0.0
  0
LINE
  5
241C
330
251D
100
AcDbEntity
  8
OUTLINE
100
AcDbLine
 10
435.9999999999963
 20
-689.9999999999961
 30
0.0
 11
-435.9999999999959
 21
-689.9999999999961
 31
0.0
  0
LINE
  5
241D
330
251D
100
AcDbEntity
  8
OUTLINE
100
AcDbLine
 10
-501.2294375407105
 20
-767.2863687420385
 30
0.0
 11
-501.2294375407105
 21
-780.9774368152432
 31
0.0
  0
LINE
  5
241E
330
251D
100
AcDbEntity
  8
OUTLINE
100
AcDbLine
 10
511.1610571167801
 20
-858.609464578841
 30
0.0
 11
510.1610571167801
 21
-858.609464578841
 31
0.0
  0
LINE
  5
241F
330
251D
100
AcDbEntity
  8
OUTLINE
100
AcDbLine
 10
511.1610571167801
 20
-858.609464578841
 30
0.0
 11
511.1610571167801
 21
-818.6105056522858
 31
0.0
  0
LINE
  5
2420
330
251D
100
AcDbEntity
  8
OUTLINE
100
AcDbLine
 10
510.1610571167801
 20
-818.6105056522858
 30
0.0
 11
511.1610571167801
 21
-818.6105056522858
 31
0.0
  0
LINE
  5
2421
330
251D
100
AcDbEntity
  8
OUTLINE
100
AcDbLine
 10
510.1610571167801
 20
-858.609464578841
 30
0.0
 11
510.1610571167801
 21
-818.6105056522858
 31
0.0
  0
LINE
  5
2422
330
251D
100
AcDbEntity
  8
OUTLINE
100
AcDbLine
 10
522.156945016486
 20
-818.5072324563533
 30
0.0
 11
511.1610571167801
 21
-818.5093098606582
 31
0.0
  0
LINE
  5
2423
330
251D
100
AcDbEntity
  8
OUTLINE
100
AcDbLine
 10
511.1610571167801
 20
-818.5165271099759
 30
0.0
 11
523.1827792897711
 21
-818.514255899354
 31
0.0
  0
LINE
  5
2424
330
251D
100
AcDbEntity
  8
OUTLINE
100
AcDbLine
 10
519.8304253308996
 20
-813.1561135257509
 30
0.0
 11
519.9332475445117
 21
-813.1560941000056
 31
0.0
  0
LINE
  5
2425
330
251D
100
AcDbEntity
  8
OUTLINE
100
AcDbLine
 10
519.8304253308996
 20
-813.1561135257509
 30
0.0
 11
520.3263434917389
 21
-814.2855807646064
 31
0.0
  0
LINE
  5
2426
330
251D
100
AcDbEntity
  8
OUTLINE
100
AcDbLine
 10
522.1519292944103
 20
-818.4434025962239
 30
0.0
 11
522.1831219647973
 21
-818.5144447601759
 31
0.0
  0
LINE
  5
2427
330
251D
100
AcDbEntity
  8
OUTLINE
100
AcDbLine
 10
522.1831219647973
 20
-818.5144447601759
 30
0.0
 11
523.1827792897711
 21
-818.514255899354
 31
0.0
  0
LINE
  5
2428
330
251D
100
AcDbEntity
  8
OUTLINE
100
AcDbLine
 10
523.1517656921096
 20
-818.4436215784424
 30
0.0
 11
523.1827792897711
 21
-818.514255899354
 31
0.0
  0
LINE
  5
2429
330
251D
100
AcDbEntity
  8
OUTLINE
100
AcDbLine
 10
519.8304253308051
 20
-813.1561130363408
 30
0.0
 11
511.1610571167801
 21
-813.1577508939123
 31
0.0
  0
LINE
  5
242A
330
251D
100
AcDbEntity
  8
OUTLINE
100
AcDbLine
 10
509.1610571167802
 20
-819.6104796254502
 30
0.0
 11
421.1610571167802
 21
-819.6104796254502
 31
0.0
  0
LINE
  5
242B
330
251D
100
AcDbEntity
  8
OUTLINE
100
AcDbLine
 10
509.1610571167802
 20
-819.6104796254502
 30
0.0
 11
509.1610571167802
 21
-818.6105056522858
 31
0.0
  0
LINE
  5
242C
330
251D
100
AcDbEntity
  8
OUTLINE
100
AcDbLine
 10
421.1610571167802
 20
-818.6105056522858
 30
0.0
 11
509.1610571167802
 21
-818.6105056522858
 31
0.0
  0
LINE
  5
242D
330
251D
100
AcDbEntity
  8
OUTLINE
100
AcDbLine
 10
421.1610571167802
 20
-819.6104796254502
 30
0.0
 11
421.1610571167802
 21
-818.6105056522858
 31
0.0
  0
LINE
  5
242E
330
251D
100
AcDbEntity
  8
OUTLINE
100
AcDbLine
 10
512.1610571167803
 20
-818.5235554337324
 30
0.0
 11
512.1610571167803
 21
-818.6103191998945
 31
0.0
  0
LINE
  5
242F
330
251D
100
AcDbEntity
  8
OUTLINE
100
AcDbLine
 10
523.5000000000036
 20
-818.5214132175724
 30
0.0
 11
512.1610571167803
 21
-818.5235554337324
 31
0.0
  0
LINE
  5
2430
330
251D
100
AcDbEntity
  8
OUTLINE
100
AcDbLine
 10
523.5000000000036
 20
-873.9999817415855
 30
0.0
 11
512.1610571167803
 21
-874.0021239577451
 31
0.0
  0
LINE
  5
2431
330
251D
100
AcDbEntity
  8
OUTLINE
100
AcDbLine
 10
511.1610571167801
 20
-818.5165271099759
 30
0.0
 11
523.5000000000036
 21
-818.5141959682535
 31
0.0
  0
LINE
  5
2432
330
251D
100
AcDbEntity
  8
OUTLINE
100
AcDbLine
 10
512.1610571167803
 20
-818.6103191998945
 30
0.0
 11
512.1610571167803
 21
-874.0021239577451
 31
0.0
  0
LINE
  5
2433
330
251D
100
AcDbEntity
  8
OUTLINE
100
AcDbLine
 10
512.1610571167803
 20
-818.6103191998945
 30
0.0
 11
511.1610571167801
 21
-818.6103191998945
 31
0.0
  0
LINE
  5
2434
330
251D
100
AcDbEntity
  8
OUTLINE
100
AcDbLine
 10
511.1610571167801
 20
-858.609464578841
 30
0.0
 11
511.1610571167801
 21
-874.0021239577451
 31
0.0
  0
LINE
  5
2435
330
251D
100
AcDbEntity
  8
OUTLINE
100
AcDbLine
 10
512.1610571167803
 20
-874.0021239577451
 30
0.0
 11
511.1610571167801
 21
-874.0021239577451
 31
0.0
  0
LINE
  5
2436
330
251D
100
AcDbEntity
  8
OUTLINE
100
AcDbLine
 10
511.2022858888884
 20
-817.9257786166498
 30
0.0
 11
511.1610571167801
 21
-817.9505513621817
 31
0.0
  0
LINE
  5
2437
330
251D
100
AcDbEntity
  8
OUTLINE
100
AcDbLine
 10
511.1610571167801
 20
-818.4409953968259
 30
0.0
 11
523.3403817205871
 21
-818.4436628887574
 31
0.0
  0
LINE
  5
2438
330
251D
100
AcDbEntity
  8
OUTLINE
100
AcDbLine
 10
523.3632540004473
 20
-802.4597712188748
 30
0.0
 11
523.3403817205871
 21
-818.4436628887574
 31
0.0
  0
LINE
  5
2439
330
251D
100
AcDbEntity
  8
OUTLINE
100
AcDbLine
 10
511.1610571167801
 20
-817.4420018543687
 30
0.0
 11
522.3421756125135
 21
-817.4444507211442
 31
0.0
  0
LINE
  5
243A
330
251D
100
AcDbEntity
  8
OUTLINE
100
AcDbLine
 10
522.363618374879
 20
-802.4595522806292
 30
0.0
 11
523.3632540004473
 21
-802.4597712188748
 31
0.0
  0
LINE
  5
243B
330
251D
100
AcDbEntity
  8
OUTLINE
100
AcDbLine
 10
523.3632540004473
 20
-802.4597712188748
 30
0.0
 11
502.2290731662796
 21
-767.2865876802845
 31
0.0
  0
LINE
  5
243C
330
251D
100
AcDbEntity
  8
OUTLINE
100
AcDbLine
 10
501.2294375407109
 20
-780.9774368152431
 30
0.0
 11
519.7654897479406
 21
-813.1561253042749
 31
0.0
  0
LINE
  5
243D
330
251D
100
AcDbEntity
  8
OUTLINE
100
AcDbLine
 10
520.4442490536494
 20
-814.2857704902271
 30
0.0
 11
522.3421756125135
 21
-817.4444507211442
 31
0.0
  0
LINE
  5
243E
330
251D
100
AcDbEntity
  8
OUTLINE
100
AcDbLine
 10
522.3421756125135
 20
-817.4444507211442
 30
0.0
 11
522.363618374879
 21
-802.4595522806292
 31
0.0
  0
LINE
  5
243F
330
251D
100
AcDbEntity
  8
OUTLINE
100
AcDbLine
 10
501.2294375407109
 20
-767.2863687420385
 30
0.0
 11
522.363618374879
 21
-802.4595522806292
 31
0.0
  0
LINE
  5
2440
330
251D
100
AcDbEntity
  8
OUTLINE
100
AcDbLine
 10
502.2290731662796
 20
-767.2865876802845
 30
0.0
 11
501.2294375407109
 21
-767.2863687420385
 31
0.0
  0
LINE
  5
2441
330
251D
100
AcDbEntity
  8
OUTLINE
100
AcDbLine
 10
502.1675414063393
 20
-766.996623328679
 30
0.0
 11
502.1675414063393
 21
-766.9442873724359
 31
0.0
  0
LINE
  5
2442
330
251D
100
AcDbEntity
  8
OUTLINE
100
AcDbLine
 10
502.1675414063393
 20
-766.9442873724359
 30
0.0
 11
480.7747522759017
 21
-766.9442873724359
 31
0.0
  0
LINE
  5
2443
330
251D
100
AcDbEntity
  8
OUTLINE
100
AcDbLine
 10
489.1579760924759
 20
-780.9774368152431
 30
0.0
 11
501.2294375407109
 21
-780.9774368152431
 31
0.0
  0
LINE
  5
2444
330
251D
100
AcDbEntity
  8
OUTLINE
100
AcDbLine
 10
502.1675414063393
 20
-767.2865742037181
 30
0.0
 11
502.1675414063393
 21
-766.996623328679
 31
0.0
  0
LINE
  5
2445
330
251D
100
AcDbEntity
  8
OUTLINE
100
AcDbLine
 10
480.8060171061261
 20
-766.996623328679
 30
0.0
 11
502.1675414063393
 21
-766.996623328679
 31
0.0
  0
LINE
  5
2446
330
251D
100
AcDbEntity
  8
OUTLINE
100
AcDbLine
 10
511.1610571167801
 20
-807.610791947485
 30
0.0
 11
511.1610571167801
 21
-818.6105056522874
 31
0.0
  0
LINE
  5
2447
330
251D
100
AcDbEntity
  8
OUTLINE
100
AcDbLine
 10
506.1610571167801
 20
-802.6109220816652
 30
0.0
 11
506.1610571167801
 21
-802.6037073055181
 31
0.0
  0
LINE
  5
2448
330
251D
100
AcDbEntity
  8
OUTLINE
100
AcDbLine
 10
511.1610571167801
 20
-807.610791947485
 30
0.0
 11
506.1610571167801
 21
-802.6109220816652
 31
0.0
  0
LINE
  5
2449
330
251D
100
AcDbEntity
  8
OUTLINE
100
AcDbLine
 10
511.1610571167801
 20
-807.6035771713367
 30
0.0
 11
511.1610571167801
 21
-807.610791947485
 31
0.0
  0
LINE
  5
244A
330
251D
100
AcDbEntity
  8
OUTLINE
100
AcDbLine
 10
506.1610571167801
 20
-802.6037073055181
 30
0.0
 11
511.1610571167801
 21
-807.6035771713367
 31
0.0
  0
LINE
  5
244B
330
251D
100
AcDbEntity
  8
OUTLINE
100
AcDbLine
 10
510.1610571167801
 20
-858.609464578841
 30
0.0
 11
511.1610571167801
 21
-858.609464578841
 31
0.0
  0
LINE
  5
244C
330
251D
100
AcDbEntity
  8
OUTLINE
100
AcDbLine
 10
421.1610571167802
 20
-819.6104796254502
 30
0.0
 11
510.1610571167801
 21
-858.609464578841
 31
0.0
  0
LINE
  5
244D
330
251D
100
AcDbEntity
  8
OUTLINE
100
AcDbLine
 10
421.1610571167802
 20
-818.6105056522858
 30
0.0
 11
421.1610571167802
 21
-819.6104796254502
 31
0.0
  0
LINE
  5
244E
330
251D
100
AcDbEntity
  8
OUTLINE
100
AcDbLine
 10
511.1610571167801
 20
-818.6105056522858
 30
0.0
 11
421.1610571167802
 21
-818.6105056522858
 31
0.0
  0
LINE
  5
244F
330
251D
100
AcDbEntity
  8
OUTLINE
100
AcDbLine
 10
511.1610571167801
 20
-858.609464578841
 30
0.0
 11
511.1610571167801
 21
-818.6105056522858
 31
0.0
  0
LINE
  5
2450
330
251D
100
AcDbEntity
  8
OUTLINE
100
AcDbLine
 10
523.5000000000036
 20
-818.5141959682535
 30
0.0
 11
523.5000000000036
 21
-873.9999817415855
 31
0.0
  0
LINE
  5
2451
330
251D
100
AcDbEntity
  8
OUTLINE
100
AcDbLine
 10
501.2294375407109
 20
-767.2863687420385
 30
0.0
 11
501.2294375407109
 21
-780.9774368152432
 31
0.0
  0
LINE
  5
2452
330
251D
100
AcDbEntity
  8
OUTLINE
100
AcDbLine
 10
433.9999999999963
 20
-689.7071067811818
 30
0.0
 11
501.4406539750853
 21
-802.5998073055173
 31
0.0
  0
LINE
  5
2453
330
251D
100
AcDbEntity
  8
SIZE
100
AcDbLine
 10
-200.0000000000036
 20
482.5000000000044
 30
0.0
 11
-200.0000000000036
 21
583.4219037976335
 31
0.0
  0
LINE
  5
2454
330
251D
100
AcDbEntity
  8
SIZE
100
AcDbLine
 10
200.0
 20
482.5000000000044
 30
0.0
 11
200.0
 21
583.4219037976335
 31
0.0
  0
LINE
  5
2455
330
251D
100
AcDbEntity
  8
SIZE
100
AcDbLine
 10
-188.0000000000036
 20
563.4219037976334
 30
0.0
 11
188.0
 21
563.4219037976334
 31
0.0
  0
INSERT
  5
2456
330
251D
100
AcDbEntity
  8
SIZE
100
AcDbBlockReference
  2
_DOTBLANK
 10
-200.0000000000036
 20
563.4219037976334
 30
0.0
 41
12.0
 42
12.0
 43
12.0
 50
180.0
  0
INSERT
  5
2457
330
251D
100
AcDbEntity
  8
SIZE
100
AcDbBlockReference
  2
_DOTBLANK
 10
200.0
 20
563.4219037976334
 30
0.0
 41
12.0
 42
12.0
 43
12.0
  0
LINE
  5
2458
330
251D
100
AcDbEntity
  8
SIZE
100
AcDbLine
 10
-250.0000000000036
 20
482.5000000000044
 30
0.0
 11
-250.0000000000036
 21
707.6684875803841
 31
0.0
  0
LINE
  5
2459
330
251D
100
AcDbEntity
  8
SIZE
100
AcDbLine
 10
250.0
 20
482.5000000000044
 30
0.0
 11
250.0
 21
707.6684875803841
 31
0.0
  0
LINE
  5
245A
330
251D
100
AcDbEntity
  8
SIZE
100
AcDbLine
 10
-238.0000000000036
 20
687.6684875803841
 30
0.0
 11
238.0
 21
687.6684875803841
 31
0.0
  0
INSERT
  5
245B
330
251D
100
AcDbEntity
  8
SIZE
100
AcDbBlockReference
  2
_DOTBLANK
 10
-250.0000000000036
 20
687.6684875803841
 30
0.0
 41
12.0
 42
12.0
 43
12.0
 50
180.0
  0
INSERT
  5
245C
330
251D
100
AcDbEntity
  8
SIZE
100
AcDbBlockReference
  2
_DOTBLANK
 10
250.0
 20
687.6684875803841
 30
0.0
 41
12.0
 42
12.0
 43
12.0
  0
LINE
  5
245D
330
251D
100
AcDbEntity
  8
SIZE
100
AcDbLine
 10
-475.0000000000036
 20
495.0000000000025
 30
0.0
 11
-475.0000000000031
 21
943.9288060068456
 31
0.0
  0
LINE
  5
245E
330
251D
100
AcDbEntity
  8
SIZE
100
AcDbLine
 10
474.9999999999963
 20
495.0000000000025
 30
0.0
 11
474.9999999999963
 21
943.9288060068456
 31
0.0
  0
LINE
  5
245F
330
251D
100
AcDbEntity
  8
SIZE
100
AcDbLine
 10
-463.0000000000036
 20
923.9288060068455
 30
0.0
 11
462.9999999999963
 21
923.9288060068455
 31
0.0
  0
INSERT
  5
2460
330
251D
100
AcDbEntity
  8
SIZE
100
AcDbBlockReference
  2
_DOTBLANK
 10
-475.0000000000036
 20
923.9288060068455
 30
0.0
 41
12.0
 42
12.0
 43
12.0
 50
180.0
  0
INSERT
  5
2461
330
251D
100
AcDbEntity
  8
SIZE
100
AcDbBlockReference
  2
_DOTBLANK
 10
474.9999999999963
 20
923.9288060068455
 30
0.0
 41
12.0
 42
12.0
 43
12.0
  0
LINE
  5
2462
330
251D
100
AcDbEntity
  8
SIZE
100
AcDbLine
 10
-450.0000000000036
 20
482.5000000000044
 30
0.0
 11
-450.0000000000036
 21
825.979387655342
 31
0.0
  0
LINE
  5
2463
330
251D
100
AcDbEntity
  8
SIZE
100
AcDbLine
 10
449.9999999999963
 20
482.5000000000044
 30
0.0
 11
449.9999999999963
 21
825.979387655342
 31
0.0
  0
LINE
  5
2464
330
251D
100
AcDbEntity
  8
SIZE
100
AcDbLine
 10
-438.0000000000036
 20
805.9793876553419
 30
0.0
 11
437.9999999999963
 21
805.9793876553419
 31
0.0
  0
INSERT
  5
2465
330
251D
100
AcDbEntity
  8
SIZE
100
AcDbBlockReference
  2
_DOTBLANK
 10
-450.0000000000036
 20
805.9793876553419
 30
0.0
 41
12.0
 42
12.0
 43
12.0
 50
180.0
  0
INSERT
  5
2466
330
251D
100
AcDbEntity
  8
SIZE
100
AcDbBlockReference
  2
_DOTBLANK
 10
449.9999999999963
 20
805.9793876553419
 30
0.0
 41
12.0
 42
12.0
 43
12.0
  0
LINE
  5
2467
330
251D
100
AcDbEntity
  8
SIZE
100
AcDbLine
 10
-495.0000000000036
 20
475.0000000000023
 30
0.0
 11
-1060.048581694153
 21
475.0000000000029
 31
0.0
  0
LINE
  5
2468
330
251D
100
AcDbEntity
  8
SIZE
100
AcDbLine
 10
-543.5000000000036
 20
-873.9999817415855
 30
0.0
 11
-1060.048581694153
 21
-873.9999817415847
 31
0.0
  0
LINE
  5
2469
330
251D
100
AcDbEntity
  8
SIZE
100
AcDbLine
 10
-1040.048581694153
 20
463.000000000003
 30
0.0
 11
-1040.048581694154
 21
-861.9999817415857
 31
0.0
  0
INSERT
  5
246A
330
251D
100
AcDbEntity
  8
SIZE
100
AcDbBlockReference
  2
_DOTBLANK
 10
-1040.048581694153
 20
475.0000000000029
 30
0.0
 41
12.0
 42
12.0
 43
12.0
 50
90.0
  0
INSERT
  5
246B
330
251D
100
AcDbEntity
  8
SIZE
100
AcDbBlockReference
  2
_DOTBLANK
 10
-1040.048581694154
 20
-873.9999817415847
 30
0.0
 41
12.0
 42
12.0
 43
12.0
 50
270.0
  0
LINE
  5
246C
330
251D
100
AcDbEntity
  8
SIZE
100
AcDbLine
 10
-482.5000000000036
 20
-199.9999999999961
 30
0.0
 11
-560.3201714126951
 21
-199.9999999999961
 31
0.0
  0
LINE
  5
246D
330
251D
100
AcDbEntity
  8
SIZE
100
AcDbLine
 10
-482.5000000000036
 20
200.0000000000027
 30
0.0
 11
-560.3201714126951
 21
200.0000000000027
 31
0.0
  0
LINE
  5
246E
330
251D
100
AcDbEntity
  8
SIZE
100
AcDbLine
 10
-540.3201714126953
 20
-187.9999999999961
 30
0.0
 11
-540.3201714126953
 21
188.0000000000027
 31
0.0
  0
INSERT
  5
246F
330
251D
100
AcDbEntity
  8
SIZE
100
AcDbBlockReference
  2
_DOTBLANK
 10
-540.3201714126953
 20
-199.9999999999961
 30
0.0
 41
12.0
 42
12.0
 43
12.0
 50
270.0
  0
INSERT
  5
2470
330
251D
100
AcDbEntity
  8
SIZE
100
AcDbBlockReference
  2
_DOTBLANK
 10
-540.3201714126953
 20
200.0000000000027
 30
0.0
 41
12.0
 42
12.0
 43
12.0
 50
90.0
  0
LINE
  5
2471
330
251D
100
AcDbEntity
  8
SIZE
100
AcDbLine
 10
-482.5000000000036
 20
250.0000000000027
 30
0.0
 11
-681.574589034931
 21
250.0000000000027
 31
0.0
  0
LINE
  5
2472
330
251D
100
AcDbEntity
  8
SIZE
100
AcDbLine
 10
-482.5000000000036
 20
-249.9999999999964
 30
0.0
 11
-681.574589034931
 21
-249.9999999999964
 31
0.0
  0
LINE
  5
2473
330
251D
100
AcDbEntity
  8
SIZE
100
AcDbLine
 10
-661.574589034931
 20
238.0000000000027
 30
0.0
 11
-661.574589034931
 21
-237.9999999999963
 31
0.0
  0
INSERT
  5
2474
330
251D
100
AcDbEntity
  8
SIZE
100
AcDbBlockReference
  2
_DOTBLANK
 10
-661.574589034931
 20
250.0000000000027
 30
0.0
 41
12.0
 42
12.0
 43
12.0
 50
90.0
  0
INSERT
  5
2475
330
251D
100
AcDbEntity
  8
SIZE
100
AcDbBlockReference
  2
_DOTBLANK
 10
-661.574589034931
 20
-249.9999999999964
 30
0.0
 41
12.0
 42
12.0
 43
12.0
 50
270.0
  0
LINE
  5
2476
330
251D
100
AcDbEntity
  8
SIZE
100
AcDbLine
 10
-485.0000000000036
 20
475.0000000000045
 30
0.0
 11
-935.5876686773946
 21
475.0000000000045
 31
0.0
  0
LINE
  5
2477
330
251D
100
AcDbEntity
  8
SIZE
100
AcDbLine
 10
-495.0000000000036
 20
-474.9999999999969
 30
0.0
 11
-935.5876686773946
 21
-474.9999999999969
 31
0.0
  0
LINE
  5
2478
330
251D
100
AcDbEntity
  8
SIZE
100
AcDbLine
 10
-915.5876686773943
 20
463.0000000000045
 30
0.0
 11
-915.5876686773948
 21
-462.9999999999968
 31
0.0
  0
INSERT
  5
2479
330
251D
100
AcDbEntity
  8
SIZE
100
AcDbBlockReference
  2
_DOTBLANK
 10
-915.5876686773943
 20
475.0000000000045
 30
0.0
 41
12.0
 42
12.0
 43
12.0
 50
90.0
  0
INSERT
  5
247A
330
251D
100
AcDbEntity
  8
SIZE
100
AcDbBlockReference
  2
_DOTBLANK
 10
-915.5876686773948
 20
-474.9999999999969
 30
0.0
 41
12.0
 42
12.0
 43
12.0
 50
270.0
  0
LINE
  5
247B
330
251D
100
AcDbEntity
  8
SIZE
100
AcDbLine
 10
-482.5000000000036
 20
450.0000000000045
 30
0.0
 11
-837.2355471472356
 21
450.0000000000045
 31
0.0
  0
LINE
  5
247C
330
251D
100
AcDbEntity
  8
SIZE
100
AcDbLine
 10
-482.5000000000036
 20
-449.9999999999969
 30
0.0
 11
-837.2355471472358
 21
-449.9999999999969
 31
0.0
  0
LINE
  5
247D
330
251D
100
AcDbEntity
  8
SIZE
100
AcDbLine
 10
-817.2355471472355
 20
438.0000000000045
 30
0.0
 11
-817.2355471472361
 21
-437.9999999999968
 31
0.0
  0
INSERT
  5
247E
330
251D
100
AcDbEntity
  8
SIZE
100
AcDbBlockReference
  2
_DOTBLANK
 10
-817.2355471472355
 20
450.0000000000045
 30
0.0
 41
12.0
 42
12.0
 43
12.0
 50
90.0
  0
INSERT
  5
247F
330
251D
100
AcDbEntity
  8
SIZE
100
AcDbBlockReference
  2
_DOTBLANK
 10
-817.2355471472361
 20
-449.9999999999969
 30
0.0
 41
12.0
 42
12.0
 43
12.0
 50
270.0
  0
LINE
  5
2480
330
251D
100
AcDbEntity
  8
SIZE
100
AcDbLine
 10
-523.5000000000036
 20
-893.9960817415856
 30
0.0
 11
-523.5000000000036
 21
-1048.290265027604
 31
0.0
  0
LINE
  5
2481
330
251D
100
AcDbEntity
  8
SIZE
100
AcDbLine
 10
523.5000000000036
 20
-893.9960817415856
 30
0.0
 11
523.5000000000036
 21
-1048.290265027604
 31
0.0
  0
LINE
  5
2482
330
251D
100
AcDbEntity
  8
SIZE
100
AcDbLine
 10
-511.5000000000036
 20
-1028.290265027604
 30
0.0
 11
511.5000000000036
 21
-1028.290265027604
 31
0.0
  0
INSERT
  5
2483
330
251D
100
AcDbEntity
  8
SIZE
100
AcDbBlockReference
  2
_DOTBLANK
 10
-523.5000000000036
 20
-1028.290265027604
 30
0.0
 41
12.0
 42
12.0
 43
12.0
 50
180.0
  0
INSERT
  5
2484
330
251D
100
AcDbEntity
  8
SIZE
100
AcDbBlockReference
  2
_DOTBLANK
 10
523.5000000000036
 20
-1028.290265027604
 30
0.0
 41
12.0
 42
12.0
 43
12.0
  0
TEXT
  5
2485
330
251D
100
AcDbEntity
  8
ETC
100
AcDbText
 10
841.6057028573741
 20
1046.318853152532
 30
0.0
 40
64.0
  1
QW-80SBM_2
 41
0.9
100
AcDbText
1001
ACAD
1000
ACAD_MTEXT_DEFINED_HEIGHT_BEGIN
1070
    46
1040
170.6666666666664
1000
ACAD_MTEXT_DEFINED_HEIGHT_END
  0
TEXT
  5
2486
330
251D
100
AcDbEntity
  8
ETC
100
AcDbText
 10
833.925702857374
 20
939.6521864858655
 30
0.0
 40
64.0
  1
システム部材
 41
0.9
100
AcDbText
1001
ACAD
1000
ACAD_MTEXT_DEFINED_HEIGHT_BEGIN
1070
    46
1040
170.6666666666664
1000
ACAD_MTEXT_DEFINED_HEIGHT_END
  0
TEXT
  5
2487
330
251D
100
AcDbEntity
  8
ETC
100
AcDbText
 10
841.6057028573741
 20
832.9855198191987
 30
0.0
 40
64.0
  1
QW-80SBM
 41
0.9
100
AcDbText
1001
ACAD
1000
ACAD_MTEXT_DEFINED_HEIGHT_BEGIN
1070
    46
1040
170.6666666666664
1000
ACAD_MTEXT_DEFINED_HEIGHT_END
  0
TEXT
  5
2488
330
251D
100
AcDbEntity
  8
SIZE
100
AcDbText
 10
-74.05714285714657
 20
933.9288060068454
 30
0.0
 40
64.0
  1
950
 41
0.9
100
AcDbText
  0
TEXT
  5
2489
330
251D
100
AcDbEntity
  8
SIZE
100
AcDbText
 10
-74.05714285714657
 20
815.9793876553418
 30
0.0
 40
64.0
  1
900
 41
0.9
100
AcDbText
  0
TEXT
  5
248A
330
251D
100
AcDbEntity
  8
SIZE
100
AcDbText
 10
-74.05714285714473
 20
697.668487580384
 30
0.0
 40
64.0
  1
500
 41
0.9
100
AcDbText
  0
TEXT
  5
248B
330
251D
100
AcDbEntity
  8
SIZE
100
AcDbText
 10
-74.05714285714473
 20
573.4219037976336
 30
0.0
 40
64.0
  1
400
 41
0.9
100
AcDbText
  0
TEXT
  5
248C
330
251D
100
AcDbEntity
  8
SIZE
100
AcDbText
 10
-550.3201714126951
 20
-74.05714285713973
 30
0.0
 40
64.0
  1
400
 50
90.0
 41
0.9
100
AcDbText
  0
TEXT
  5
248D
330
251D
100
AcDbEntity
  8
SIZE
100
AcDbText
 10
-671.574589034931
 20
-74.05714285713973
 30
0.0
 40
64.0
  1
500
 50
90.0
 41
0.9
100
AcDbText
  0
TEXT
  5
248E
330
251D
100
AcDbEntity
  8
SIZE
100
AcDbText
 10
-827.2355471472351
 20
-74.05714285713826
 30
0.0
 40
64.0
  1
900
 50
90.0
 41
0.9
100
AcDbText
  0
TEXT
  5
248F
330
251D
100
AcDbEntity
  8
SIZE
100
AcDbText
 10
-925.5876686773943
 20
-75.7114254498955
 30
0.0
 40
64.0
  1
950
 50
90.0
 41
0.9
100
AcDbText
  0
TEXT
  5
2490
330
251D
100
AcDbEntity
  8
SIZE
100
AcDbText
 10
-1050.048581694153
 20
-345.0004449733579
 30
0.0
 40
64.0
  1
1349
 50
90.0
 41
0.9
100
AcDbText
  0
TEXT
  5
2491
330
251D
100
AcDbEntity
  8
SIZE
100
AcDbText
 10
-97.39411397113872
 20
-1018.290265027604
 30
0.0
 40
64.0
  1
1047
 41
0.9
100
AcDbText
  0
ENDSEC
  0
SECTION
  2
OBJECTS
  0
DICTIONARY
  5
24B5
330
0
100
AcDbDictionary
281
     1
  3
ACAD_2007HEADERVARS_RT
350
26FE
  3
ACAD_COLOR
350
2513
  3
ACAD_GROUP
350
24B6
  3
ACAD_LAYOUT
350
2512
  3
ACAD_MATERIAL
350
24B9
  3
ACAD_MLEADERSTYLE
350
2516
  3
ACAD_MLINESTYLE
350
250F
  3
ACAD_PLOTSETTINGS
350
2511
  3
ACAD_PLOTSTYLENAME
350
24B7
  3
ACAD_SCALELIST
350
24E3
  3
ACAD_TABLESTYLE
350
2514
  3
ACAD_VISUALSTYLE
350
24D2
  3
ACDB_RECOMPOSE_DATA
350
26FC
  3
AcDbVariableDictionary
350
26F3
  3
AcmDictionary
350
269F
  3
AMG
350
25EC
  3
AMGSNAPSETTINGS
350
26C7
  3
DWGPROPS
350
26FD
  3
MAPISURF_MODULE
350
266C
  0
DICTIONARY
  5
26CE
330
2505
100
AcDbDictionary
280
     1
281
     1
  3
ADSK_XREC_LAYER_RECONCILED
360
26CF
  0
DICTIONARY
  5
26D0
330
2534
100
AcDbDictionary
280
     1
281
     1
  3
ADSK_XREC_LAYER_RECONCILED
360
26D1
  0
DICTIONARY
  5
26D2
330
2535
100
AcDbDictionary
280
     1
281
     1
  3
ADSK_XREC_LAYER_RECONCILED
360
26D3
  0
DICTIONARY
  5
26D4
330
2536
100
AcDbDictionary
280
     1
281
     1
  3
ADSK_XREC_LAYER_RECONCILED
360
26D5
  0
DICTIONARY
  5
26D6
330
2537
100
AcDbDictionary
280
     1
281
     1
  3
ADSK_XREC_LAYER_RECONCILED
360
26D7
  0
DICTIONARY
  5
26D8
330
2538
100
AcDbDictionary
280
     1
281
     1
  3
ADSK_XREC_LAYER_RECONCILED
360
26D9
  0
DICTIONARY
  5
26DA
330
253A
100
AcDbDictionary
280
     1
281
     1
  3
ADSK_XREC_LAYER_RECONCILED
360
26DB
  0
DICTIONARY
  5
26DC
330
253B
100
AcDbDictionary
280
     1
281
     1
  3
ADSK_XREC_LAYER_RECONCILED
360
26DD
  0
DICTIONARY
  5
26DE
330
253C
100
AcDbDictionary
280
     1
281
     1
  3
ADSK_XREC_LAYER_RECONCILED
360
26DF
  0
DICTIONARY
  5
26E0
330
253D
100
AcDbDictionary
280
     1
281
     1
  3
ADSK_XREC_LAYER_RECONCILED
360
26E1
  0
DICTIONARY
  5
26E2
330
253E
100
AcDbDictionary
280
     1
281
     1
  3
ADSK_XREC_LAYER_RECONCILED
360
26E3
  0
DICTIONARY
  5
26E4
330
251D
100
AcDbDictionary
280
     1
281
     1
  3
ACAD_INDEX
360
26E5
  0
DICTIONARY
  5
26FE
102
{ACAD_REACTORS
330
24B5
102
}
330
24B5
100
AcDbDictionary
281
     1
  3
DIMARCSYM
350
26FF
  3
DIMLTEX1
350
2701
  3
DIMLTEX2
350
2702
  3
DIMLTYPE
350
2700
  0
DICTIONARY
  5
2513
102
{ACAD_REACTORS
330
24B5
102
}
330
24B5
100
AcDbDictionary
281
     1
  0
DICTIONARY
  5
24B6
102
{ACAD_REACTORS
330
24B5
102
}
330
24B5
100
AcDbDictionary
281
     1
  0
DICTIONARY
  5
2512
102
{ACAD_REACTORS
330
24B5
102
}
330
24B5
100
AcDbDictionary
281
     1
  3
Model
350
2520
  3
レイアウト1
350
251C
  0
DICTIONARY
  5
24B9
102
{ACAD_REACTORS
330
24B5
102
}
330
24B5
100
AcDbDictionary
281
     1
  3
ByBlock
350
24C2
  3
ByLayer
350
24BA
  3
Global
350
24CA
  0
DICTIONARY
  5
2516
102
{ACAD_REACTORS
330
24B5
102
}
330
24B5
100
AcDbDictionary
281
     1
  3
Standard
350
2517
  0
DICTIONARY
  5
250F
102
{ACAD_REACTORS
330
24B5
102
}
330
24B5
100
AcDbDictionary
281
     1
  3
Standard
350
2510
  0
DICTIONARY
  5
2511
102
{ACAD_REACTORS
330
24B5
102
}
330
24B5
100
AcDbDictionary
281
     1
  0
ACDBDICTIONARYWDFLT
  5
24B7
102
{ACAD_REACTORS
330
24B5
102
}
330
24B5
100
AcDbDictionary
281
     1
  3
Normal
350
24B8
100
AcDbDictionaryWithDefault
340
24B8
  0
DICTIONARY
  5
24E3
102
{ACAD_REACTORS
330
24B5
102
}
330
24B5
100
AcDbDictionary
281
     1
  3
A0
350
24E4
  3
A1
350
24E5
  3
A2
350
24E6
  3
A3
350
24E7
  3
A4
350
24E8
  3
A5
350
24E9
  3
A6
350
24EA
  3
A7
350
24EB
  3
A8
350
24EC
  3
A9
350
24ED
  3
B0
350
24EE
  3
B1
350
24EF
  3
B2
350
24F0
  3
B3
350
24F1
  3
B4
350
24F2
  3
B5
350
24F3
  3
B6
350
24F4
  3
B7
350
24F5
  3
B8
350
24F6
  3
B9
350
24F7
  3
C0
350
24F8
  3
C1
350
24F9
  3
C2
350
24FA
  3
C3
350
24FB
  3
C4
350
24FC
  3
C5
350
24FD
  3
C6
350
24FE
  3
C7
350
24FF
  3
C8
350
2500
  3
C9
350
2501
  3
D0
350
2502
  3
D1
350
2503
  3
D2
350
2504
  0
DICTIONARY
  5
2514
102
{ACAD_REACTORS
330
24B5
102
}
330
24B5
100
AcDbDictionary
281
     1
  3
Standard
350
2515
  0
DICTIONARY
  5
24D2
102
{ACAD_REACTORS
330
24B5
102
}
330
24B5
100
AcDbDictionary
281
     1
  3
2dWireframe
350
24D8
  3
3D Hidden
350
24DA
  3
3dWireframe
350
24D9
  3
Basic
350
24D7
  3
Brighten
350
24DE
  3
ColorChange
350
24E2
  3
Conceptual
350
24DB
  3
Dim
350
24DD
  3
Facepattern
350
24E1
  3
Flat
350
24D3
  3
FlatWithEdges
350
24D4
  3
Gouraud
350
24D5
  3
GouraudWithEdges
350
24D6
  3
Linepattern
350
24E0
  3
Realistic
350
24DC
  3
Thicken
350
24DF
  0
XRECORD
  5
26FC
102
{ACAD_REACTORS
330
24B5
102
}
330
24B5
100
AcDbXrecord
280
     1
 90
        1
330
2515
  0
DICTIONARY
  5
26F3
102
{ACAD_REACTORS
330
24B5
102
}
330
24B5
100
AcDbDictionary
281
     1
  3
CANNOSCALE
350
26F6
  3
CMLEADERSTYLE
350
26F5
  3
CTABLESTYLE
350
26F4
  3
DIMASSOC
350
26F9
  3
INDEXCTL
350
26F8
  3
SORTENTS
350
26F7
  0
DICTIONARY
  5
269F
102
{ACAD_REACTORS
330
24B5
102
}
330
24B5
100
AcDbDictionary
281
     1
  3
AcmStdDictionary
350
26AD
  0
DICTIONARY
  5
25EC
102
{ACAD_REACTORS
330
24B5
102
}
330
24B5
100
AcDbDictionary
281
     1
  3
AcMgSettings
350
25ED
  0
DICTIONARY
  5
26C7
102
{ACAD_REACTORS
330
24B5
102
}
330
24B5
100
AcDbDictionary
281
     1
  3
DIMENSION
350
26CC
  3
FEA
350
26CB
  3
HATCH (1)
350
26C8
  3
HATCH (2)
350
26C9
  3
SIMPLE WELD
350
26CD
  3
SYMBOLS
350
26CA
  0
XRECORD
  5
26FD
102
{ACAD_REACTORS
330
24B5
102
}
330
24B5
100
AcDbXrecord
280
     1
  1
DWGPROPS COOKIE
  2

  3

  4

  6

  7

  8
A090053
  9

300
AmdtFileType=84
301
=
302
=
303
=
304
=
305
=
306
=
307
=
308
=
309
=
 40
1.039442164351851
 41
2452321.396199653
 42
2456211.591997836
  1

 90
        1
  0
XRECORD
  5
26CF
102
{ACAD_REACTORS
330
26CE
102
}
330
26CE
100
AcDbXrecord
280
     1
290
     1
  0
XRECORD
  5
26D1
102
{ACAD_REACTORS
330
26D0
102
}
330
26D0
100
AcDbXrecord
280
     1
290
     1
  0
XRECORD
  5
26D3
102
{ACAD_REACTORS
330
26D2
102
}
330
26D2
100
AcDbXrecord
280
     1
290
     1
  0
XRECORD
  5
26D5
102
{ACAD_REACTORS
330
26D4
102
}
330
26D4
100
AcDbXrecord
280
     1
290
     1
  0
XRECORD
  5
26D7
102
{ACAD_REACTORS
330
26D6
102
}
330
26D6
100
AcDbXrecord
280
     1
290
     1
  0
XRECORD
  5
26D9
102
{ACAD_REACTORS
330
26D8
102
}
330
26D8
100
AcDbXrecord
280
     1
290
     1
  0
XRECORD
  5
26DB
102
{ACAD_REACTORS
330
26DA
102
}
330
26DA
100
AcDbXrecord
280
     1
290
     1
  0
XRECORD
  5
26DD
102
{ACAD_REACTORS
330
26DC
102
}
330
26DC
100
AcDbXrecord
280
     1
290
     1
  0
XRECORD
  5
26DF
102
{ACAD_REACTORS
330
26DE
102
}
330
26DE
100
AcDbXrecord
280
     1
290
     1
  0
XRECORD
  5
26E1
102
{ACAD_REACTORS
330
26E0
102
}
330
26E0
100
AcDbXrecord
280
     1
290
     1
  0
XRECORD
  5
26E3
102
{ACAD_REACTORS
330
26E2
102
}
330
26E2
100
AcDbXrecord
280
     1
290
     1
  0
DICTIONARY
  5
26E5
102
{ACAD_REACTORS
330
26E4
102
}
330
26E4
100
AcDbDictionary
281
     1
  3
*A1
350
26E6
  0
XRECORD
  5
26FF
102
{ACAD_REACTORS
330
26FE
102
}
330
26FE
100
AcDbXrecord
280
     1
 70
     1
  0
XRECORD
  5
2701
102
{ACAD_REACTORS
330
26FE
102
}
330
26FE
100
AcDbXrecord
280
     1
340
250B
  0
XRECORD
  5
2702
102
{ACAD_REACTORS
330
26FE
102
}
330
26FE
100
AcDbXrecord
280
     1
340
250B
  0
XRECORD
  5
2700
102
{ACAD_REACTORS
330
26FE
102
}
330
26FE
100
AcDbXrecord
280
     1
340
250B
  0
LAYOUT
  5
2520
102
{ACAD_XDICTIONARY
360
2709
102
}
102
{ACAD_REACTORS
330
2512
102
}
330
2512
100
AcDbPlotSettings
  1

  2
自動 EPSON LP-9600S (W2450527 上)
  4

  6

 40
0.0
 41
0.0
 42
0.0
 43
0.0
 44
0.0
 45
0.0
 46
0.0
 47
0.0
 48
0.0
 49
0.0
140
0.0
141
0.0
142
1.0
143
1.0
 70
  1712
 72
     0
 73
     0
 74
     0
  7

 75
     0
147
1.0
148
0.0
149
0.0
100
AcDbLayout
  1
Model
 70
     1
 71
     0
 10
0.0
 20
0.0
 11
12.0
 21
9.0
 12
0.0
 22
0.0
 32
0.0
 14
0.0
 24
0.0
 34
0.0
 15
0.0
 25
0.0
 35
0.0
146
0.0
 13
0.0
 23
0.0
 33
0.0
 16
1.0
 26
0.0
 36
0.0
 17
0.0
 27
1.0
 37
0.0
 76
     0
330
251D
331
2521
  0
LAYOUT
  5
251C
102
{ACAD_XDICTIONARY
360
2707
102
}
102
{ACAD_REACTORS
330
2512
102
}
330
2512
100
AcDbPlotSettings
  1

  2
自動 EPSON LP-9600S (W2450527 上)
  4

  6

 40
0.0
 41
0.0
 42
0.0
 43
0.0
 44
0.0
 45
0.0
 46
0.0
 47
0.0
 48
0.0
 49
0.0
140
0.0
141
0.0
142
1.0
143
1.0
 70
   688
 72
     0
 73
     0
 74
     5
  7

 75
    16
147
1.0
148
0.0
149
0.0
100
AcDbLayout
  1
レイアウト1
 70
     1
 71
     1
 10
0.0
 20
0.0
 11
12.0
 21
9.0
 12
0.0
 22
0.0
 32
0.0
 14
1.000000000000000E+20
 24
1.000000000000000E+20
 34
1.000000000000000E+20
 15
-1.000000000000000E+20
 25
-1.000000000000000E+20
 35
-1.000000000000000E+20
146
0.0
 13
0.0
 23
0.0
 33
0.0
 16
1.0
 26
0.0
 36
0.0
 17
0.0
 27
1.0
 37
0.0
 76
     0
330
2519
  0
MATERIAL
  5
24C2
102
{ACAD_XDICTIONARY
360
24C3
102
}
102
{ACAD_REACTORS
330
24B9
102
}
330
24B9
100
AcDbMaterial
  1
ByBlock
 72
     0
 43
0.0208333333333333
 43
0.0
 43
0.0
 43
0.0
 43
0.0
 43
0.0208333333333333
 43
0.0
 43
0.0
 43
0.0
 43
0.0
 43
1.0
 43
0.0
 43
0.0
 43
0.0
 43
0.0
 43
1.0
 77
     0
 47
0.0208333333333333
 47
0.0
 47
0.0
 47
0.0
 47
0.0
 47
0.0208333333333333
 47
0.0
 47
0.0
 47
0.0
 47
0.0
 47
1.0
 47
0.0
 47
0.0
 47
0.0
 47
0.0
 47
1.0
171
     0
 49
0.0208333333333333
 49
0.0
 49
0.0
 49
0.0
 49
0.0
 49
0.0208333333333333
 49
0.0
 49
0.0
 49
0.0
 49
0.0
 49
1.0
 49
0.0
 49
0.0
 49
0.0
 49
0.0
 49
1.0
175
     0
142
0.0208333333333333
142
0.0
142
0.0
142
0.0
142
0.0
142
0.0208333333333333
142
0.0
142
0.0
142
0.0
142
0.0
142
1.0
142
0.0
142
0.0
142
0.0
142
0.0
142
1.0
179
     0
144
0.0208333333333333
144
0.0
144
0.0
144
0.0
144
0.0
144
0.0208333333333333
144
0.0
144
0.0
144
0.0
144
0.0
144
1.0
144
0.0
144
0.0
144
0.0
144
0.0
144
1.0
147
0.0208333333333333
147
0.0
147
0.0
147
0.0
147
0.0
147
0.0208333333333333
147
0.0
147
0.0
147
0.0
147
0.0
147
1.0
147
0.0
147
0.0
147
0.0
147
0.0
147
1.0
  0
MATERIAL
  5
24BA
102
{ACAD_XDICTIONARY
360
24BB
102
}
102
{ACAD_REACTORS
330
24B9
102
}
330
24B9
100
AcDbMaterial
  1
ByLayer
 72
     0
 43
0.0208333333333333
 43
0.0
 43
0.0
 43
0.0
 43
0.0
 43
0.0208333333333333
 43
0.0
 43
0.0
 43
0.0
 43
0.0
 43
1.0
 43
0.0
 43
0.0
 43
0.0
 43
0.0
 43
1.0
 77
     0
 47
0.0208333333333333
 47
0.0
 47
0.0
 47
0.0
 47
0.0
 47
0.0208333333333333
 47
0.0
 47
0.0
 47
0.0
 47
0.0
 47
1.0
 47
0.0
 47
0.0
 47
0.0
 47
0.0
 47
1.0
171
     0
 49
0.0208333333333333
 49
0.0
 49
0.0
 49
0.0
 49
0.0
 49
0.0208333333333333
 49
0.0
 49
0.0
 49
0.0
 49
0.0
 49
1.0
 49
0.0
 49
0.0
 49
0.0
 49
0.0
 49
1.0
175
     0
142
0.0208333333333333
142
0.0
142
0.0
142
0.0
142
0.0
142
0.0208333333333333
142
0.0
142
0.0
142
0.0
142
0.0
142
1.0
142
0.0
142
0.0
142
0.0
142
0.0
142
1.0
179
     0
144
0.0208333333333333
144
0.0
144
0.0
144
0.0
144
0.0
144
0.0208333333333333
144
0.0
144
0.0
144
0.0
144
0.0
144
1.0
144
0.0
144
0.0
144
0.0
144
0.0
144
1.0
147
0.0208333333333333
147
0.0
147
0.0
147
0.0
147
0.0
147
0.0208333333333333
147
0.0
147
0.0
147
0.0
147
0.0
147
1.0
147
0.0
147
0.0
147
0.0
147
0.0
147
1.0
  0
MATERIAL
  5
24CA
102
{ACAD_XDICTIONARY
360
24CB
102
}
102
{ACAD_REACTORS
330
24B9
102
}
330
24B9
100
AcDbMaterial
  1
Global
 72
     0
 43
0.0208333333333333
 43
0.0
 43
0.0
 43
0.0
 43
0.0
 43
0.0208333333333333
 43
0.0
 43
0.0
 43
0.0
 43
0.0
 43
1.0
 43
0.0
 43
0.0
 43
0.0
 43
0.0
 43
1.0
 77
     0
 47
0.0208333333333333
 47
0.0
 47
0.0
 47
0.0
 47
0.0
 47
0.0208333333333333
 47
0.0
 47
0.0
 47
0.0
 47
0.0
 47
1.0
 47
0.0
 47
0.0
 47
0.0
 47
0.0
 47
1.0
171
     0
 49
0.0208333333333333
 49
0.0
 49
0.0
 49
0.0
 49
0.0
 49
0.0208333333333333
 49
0.0
 49
0.0
 49
0.0
 49
0.0
 49
1.0
 49
0.0
 49
0.0
 49
0.0
 49
0.0
 49
1.0
175
     0
142
0.0208333333333333
142
0.0
142
0.0
142
0.0
142
0.0
142
0.0208333333333333
142
0.0
142
0.0
142
0.0
142
0.0
142
1.0
142
0.0
142
0.0
142
0.0
142
0.0
142
1.0
179
     0
144
0.0208333333333333
144
0.0
144
0.0
144
0.0
144
0.0
144
0.0208333333333333
144
0.0
144
0.0
144
0.0
144
0.0
144
1.0
144
0.0
144
0.0
144
0.0
144
0.0
144
1.0
147
0.0208333333333333
147
0.0
147
0.0
147
0.0
147
0.0
147
0.0208333333333333
147
0.0
147
0.0
147
0.0
147
0.0
147
1.0
147
0.0
147
0.0
147
0.0
147
0.0
147
1.0
  0
MLEADERSTYLE
  5
2517
102
{ACAD_REACTORS
330
2516
102
}
330
2516
100
AcDbMLeaderStyle
170
     2
171
     1
172
     0
 90
        2
 40
0.0
 41
0.0
173
     1
 91
-1056964608
340
250B
 92
       -2
290
     1
 42
0.09
291
     1
 43
0.36
  3
Standard
 44
0.18
300

342
2506
174
     1
178
     6
175
     1
176
     0
 93
-1056964608
 45
0.18
292
     0
297
     0
 46
0.18
 94
-1056964608
 47
1.0
 49
1.0
140
1.0
293
     1
141
0.0
294
     1
177
     0
142
1.0
295
     0
296
     0
143
0.125
1001
ACAD_MLEADERVER
1070
     2
  0
MLINESTYLE
  5
2510
102
{ACAD_REACTORS
330
250F
102
}
330
250F
100
AcDbMlineStyle
  2
STANDARD
 70
     0
  3

 62
   256
 51
90.0
 52
90.0
 71
     2
 49
0.5
 62
   256
  6
BYLAYER
 49
-0.5
 62
   256
  6
BYLAYER
  0
ACDBPLACEHOLDER
  5
24B8
102
{ACAD_REACTORS
330
24B7
102
}
330
24B7
  0
SCALE
  5
24E4
102
{ACAD_REACTORS
330
24E3
102
}
330
24E3
100
AcDbScale
 70
     0
300
1:1
140
1.0
141
1.0
290
     1
  0
SCALE
  5
24E5
102
{ACAD_REACTORS
330
24E3
102
}
330
24E3
100
AcDbScale
 70
     0
300
1:2
140
1.0
141
2.0
290
     0
  0
SCALE
  5
24E6
102
{ACAD_REACTORS
330
24E3
102
}
330
24E3
100
AcDbScale
 70
     0
300
1:4
140
1.0
141
4.0
290
     0
  0
SCALE
  5
24E7
102
{ACAD_REACTORS
330
24E3
102
}
330
24E3
100
AcDbScale
 70
     0
300
1:5
140
1.0
141
5.0
290
     0
  0
SCALE
  5
24E8
102
{ACAD_REACTORS
330
24E3
102
}
330
24E3
100
AcDbScale
 70
     0
300
1:8
140
1.0
141
8.0
290
     0
  0
SCALE
  5
24E9
102
{ACAD_REACTORS
330
24E3
102
}
330
24E3
100
AcDbScale
 70
     0
300
1:10
140
1.0
141
10.0
290
     0
  0
SCALE
  5
24EA
102
{ACAD_REACTORS
330
24E3
102
}
330
24E3
100
AcDbScale
 70
     0
300
1:16
140
1.0
141
16.0
290
     0
  0
SCALE
  5
24EB
102
{ACAD_REACTORS
330
24E3
102
}
330
24E3
100
AcDbScale
 70
     0
300
1:20
140
1.0
141
20.0
290
     0
  0
SCALE
  5
24EC
102
{ACAD_REACTORS
330
24E3
102
}
330
24E3
100
AcDbScale
 70
     0
300
1:30
140
1.0
141
30.0
290
     0
  0
SCALE
  5
24ED
102
{ACAD_REACTORS
330
24E3
102
}
330
24E3
100
AcDbScale
 70
     0
300
1:40
140
1.0
141
40.0
290
     0
  0
SCALE
  5
24EE
102
{ACAD_REACTORS
330
24E3
102
}
330
24E3
100
AcDbScale
 70
     0
300
1:50
140
1.0
141
50.0
290
     0
  0
SCALE
  5
24EF
102
{ACAD_REACTORS
330
24E3
102
}
330
24E3
100
AcDbScale
 70
     0
300
1:100
140
1.0
141
100.0
290
     0
  0
SCALE
  5
24F0
102
{ACAD_REACTORS
330
24E3
102
}
330
24E3
100
AcDbScale
 70
     0
300
2:1
140
2.0
141
1.0
290
     0
  0
SCALE
  5
24F1
102
{ACAD_REACTORS
330
24E3
102
}
330
24E3
100
AcDbScale
 70
     0
300
4:1
140
4.0
141
1.0
290
     0
  0
SCALE
  5
24F2
102
{ACAD_REACTORS
330
24E3
102
}
330
24E3
100
AcDbScale
 70
     0
300
8:1
140
8.0
141
1.0
290
     0
  0
SCALE
  5
24F3
102
{ACAD_REACTORS
330
24E3
102
}
330
24E3
100
AcDbScale
 70
     0
300
10:1
140
10.0
141
1.0
290
     0
  0
SCALE
  5
24F4
102
{ACAD_REACTORS
330
24E3
102
}
330
24E3
100
AcDbScale
 70
     0
300
100:1
140
100.0
141
1.0
290
     0
  0
SCALE
  5
24F5
102
{ACAD_REACTORS
330
24E3
102
}
330
24E3
100
AcDbScale
 70
     0
300
1/128" = 1'-0"
140
0.0078125
141
12.0
290
     0
  0
SCALE
  5
24F6
102
{ACAD_REACTORS
330
24E3
102
}
330
24E3
100
AcDbScale
 70
     0
300
1/64" = 1'-0"
140
0.015625
141
12.0
290
     0
  0
SCALE
  5
24F7
102
{ACAD_REACTORS
330
24E3
102
}
330
24E3
100
AcDbScale
 70
     0
300
1/32" = 1'-0"
140
0.03125
141
12.0
290
     0
  0
SCALE
  5
24F8
102
{ACAD_REACTORS
330
24E3
102
}
330
24E3
100
AcDbScale
 70
     0
300
1/16" = 1'-0"
140
0.0625
141
12.0
290
     0
  0
SCALE
  5
24F9
102
{ACAD_REACTORS
330
24E3
102
}
330
24E3
100
AcDbScale
 70
     0
300
3/32" = 1'-0"
140
0.09375
141
12.0
290
     0
  0
SCALE
  5
24FA
102
{ACAD_REACTORS
330
24E3
102
}
330
24E3
100
AcDbScale
 70
     0
300
1/8" = 1'-0"
140
0.125
141
12.0
290
     0
  0
SCALE
  5
24FB
102
{ACAD_REACTORS
330
24E3
102
}
330
24E3
100
AcDbScale
 70
     0
300
3/16" = 1'-0"
140
0.1875
141
12.0
290
     0
  0
SCALE
  5
24FC
102
{ACAD_REACTORS
330
24E3
102
}
330
24E3
100
AcDbScale
 70
     0
300
1/4" = 1'-0"
140
0.25
141
12.0
290
     0
  0
SCALE
  5
24FD
102
{ACAD_REACTORS
330
24E3
102
}
330
24E3
100
AcDbScale
 70
     0
300
3/8" = 1'-0"
140
0.375
141
12.0
290
     0
  0
SCALE
  5
24FE
102
{ACAD_REACTORS
330
24E3
102
}
330
24E3
100
AcDbScale
 70
     0
300
1/2" = 1'-0"
140
0.5
141
12.0
290
     0
  0
SCALE
  5
24FF
102
{ACAD_REACTORS
330
24E3
102
}
330
24E3
100
AcDbScale
 70
     0
300
3/4" = 1'-0"
140
0.75
141
12.0
290
     0
  0
SCALE
  5
2500
102
{ACAD_REACTORS
330
24E3
102
}
330
24E3
100
AcDbScale
 70
     0
300
1" = 1'-0"
140
1.0
141
12.0
290
     0
  0
SCALE
  5
2501
102
{ACAD_REACTORS
330
24E3
102
}
330
24E3
100
AcDbScale
 70
     0
300
1-1/2" = 1'-0"
140
1.5
141
12.0
290
     0
  0
SCALE
  5
2502
102
{ACAD_REACTORS
330
24E3
102
}
330
24E3
100
AcDbScale
 70
     0
300
3" = 1'-0"
140
3.0
141
12.0
290
     0
  0
SCALE
  5
2503
102
{ACAD_REACTORS
330
24E3
102
}
330
24E3
100
AcDbScale
 70
     0
300
6" = 1'-0"
140
6.0
141
12.0
290
     0
  0
SCALE
  5
2504
102
{ACAD_REACTORS
330
24E3
102
}
330
24E3
100
AcDbScale
 70
     0
300
1'-0" = 1'-0"
140
12.0
141
12.0
290
     0
  0
TABLESTYLE
  5
2515
102
{ACAD_XDICTIONARY
360
26FA
102
}
102
{ACAD_REACTORS
330
2514
102
}
330
2514
100
AcDbTableStyle
  3
Standard
 70
     0
 71
     0
 40
0.06
 41
0.06
280
     0
281
     0
  7
STANDARD
140
0.18
170
     2
 62
     0
 63
     7
283
     0
274
    -2
284
     1
 64
     0
275
    -2
285
     1
 65
     0
276
    -2
286
     1
 66
     0
277
    -2
287
     1
 67
     0
278
    -2
288
     1
 68
     0
279
    -2
289
     1
 69
     0
  7
STANDARD
140
0.25
170
     5
 62
     0
 63
     7
283
     0
274
    -2
284
     1
 64
     0
275
    -2
285
     1
 65
     0
276
    -2
286
     1
 66
     0
277
    -2
287
     1
 67
     0
278
    -2
288
     1
 68
     0
279
    -2
289
     1
 69
     0
  7
STANDARD
140
0.18
170
     5
 62
     0
 63
     7
283
     0
274
    -2
284
     1
 64
     0
275
    -2
285
     1
 65
     0
276
    -2
286
     1
 66
     0
277
    -2
287
     1
 67
     0
278
    -2
288
     1
 68
     0
279
    -2
289
     1
 69
     0
  0
VISUALSTYLE
  5
24D8
102
{ACAD_REACTORS
330
24D2
102
}
330
24D2
100
AcDbVisualStyle
  2
2dWireframe
 70
     4
 71
     0
 72
     2
 73
     0
 90
        0
 40
-0.6
 41
-30.0
 62
     5
 63
     7
 74
     1
 91
        4
 64
     7
 65
   257
 75
     1
175
     1
 42
1.0
 92
        0
 66
   257
 43
1.0
 76
     1
 77
     6
 78
     2
 67
     7
 79
     5
170
     0
171
     0
290
     0
174
     0
 93
        1
 44
0.0
173
     0
291
     0
 45
0.0
1001
ACAD
1000
AcDbSavedByObjectVersion
1070
     0
  0
VISUALSTYLE
  5
24DA
102
{ACAD_REACTORS
330
24D2
102
}
330
24D2
100
AcDbVisualStyle
  2
3D Hidden
 70
     6
 71
     1
 72
     2
 73
     2
 90
        0
 40
-0.6
 41
-30.0
 62
     5
 63
     7
 74
     2
 91
        2
 64
     7
 65
   257
 75
     2
175
     1
 42
40.0
 92
        0
 66
   257
 43
1.0
 76
     1
 77
     6
 78
     2
 67
     7
 79
     3
170
     0
171
     0
290
     0
174
     0
 93
        1
 44
0.0
173
     0
291
     0
 45
0.0
1001
ACAD
1000
AcDbSavedByObjectVersion
1070
     0
  0
VISUALSTYLE
  5
24D9
102
{ACAD_REACTORS
330
24D2
102
}
330
24D2
100
AcDbVisualStyle
  2
3dWireframe
 70
     5
 71
     0
 72
     2
 73
     0
 90
        0
 40
-0.6
 41
-30.0
 62
     5
 63
     7
 74
     1
 91
        4
 64
     7
 65
   257
 75
     1
175
     1
 42
1.0
 92
        0
 66
   257
 43
1.0
 76
     1
 77
     6
 78
     2
 67
     7
 79
     5
170
     0
171
     0
290
     0
174
     0
 93
        1
 44
0.0
173
     0
291
     0
 45
0.0
1001
ACAD
1000
AcDbSavedByObjectVersion
1070
     0
  0
VISUALSTYLE
  5
24D7
102
{ACAD_REACTORS
330
24D2
102
}
330
24D2
100
AcDbVisualStyle
  2
Basic
 70
     7
 71
     1
 72
     0
 73
     1
 90
        0
 40
-0.6
 41
-30.0
 62
     5
 63
     7
 74
     0
 91
        4
 64
     7
 65
   257
 75
     1
175
     1
 42
1.0
 92
        8
 66
     7
 43
1.0
 76
     1
 77
     6
 78
     2
 67
     7
 79
     5
170
     0
171
     0
290
     0
174
     0
 93
        1
 44
0.0
173
     0
291
     1
 45
0.0
1001
ACAD
1000
AcDbSavedByObjectVersion
1070
     0
  0
VISUALSTYLE
  5
24DE
102
{ACAD_REACTORS
330
24D2
102
}
330
24D2
100
AcDbVisualStyle
  2
Brighten
 70
    12
 71
     2
 72
     2
 73
     0
 90
        0
 40
-0.6
 41
-30.0
 62
     5
 63
     7
 74
     1
 91
        4
 64
     7
 65
   257
 75
     1
175
     1
 42
1.0
 92
        8
 66
     7
 43
1.0
 76
     1
 77
     6
 78
     2
 67
     7
 79
     5
170
     0
171
     0
290
     0
174
     0
 93
        1
 44
50.0
173
     0
291
     1
 45
0.0
1001
ACAD
1000
AcDbSavedByObjectVersion
1070
     0
  0
VISUALSTYLE
  5
24E2
102
{ACAD_REACTORS
330
24D2
102
}
330
24D2
100
AcDbVisualStyle
  2
ColorChange
 70
    16
 71
     2
 72
     2
 73
     3
 90
        0
 40
-0.6
 41
-30.0
 62
     5
 63
     8
 74
     1
 91
        4
 64
     7
 65
   257
 75
     1
175
     1
 42
1.0
 92
        8
 66
     8
 43
1.0
 76
     1
 77
     6
 78
     2
 67
     7
 79
     5
170
     0
171
     0
290
     0
174
     0
 93
        1
 44
0.0
173
     0
291
     1
 45
0.0
1001
ACAD
1000
AcDbSavedByObjectVersion
1070
     0
  0
VISUALSTYLE
  5
24DB
102
{ACAD_REACTORS
330
24D2
102
}
330
24D2
100
AcDbVisualStyle
  2
Conceptual
 70
     9
 71
     3
 72
     2
 73
     0
 90
        0
 40
-0.6
 41
-30.0
 62
     5
 63
     7
 74
     2
 91
        2
 64
     7
 65
   257
 75
     1
175
     1
 42
40.0
 92
        8
 66
     7
 43
1.0
 76
     1
 77
     6
 78
     2
 67
     7
 79
     3
170
     0
171
     0
290
     0
174
     0
 93
        1
 44
0.0
173
     0
291
     0
 45
0.0
1001
ACAD
1000
AcDbSavedByObjectVersion
1070
     0
  0
VISUALSTYLE
  5
24DD
102
{ACAD_REACTORS
330
24D2
102
}
330
24D2
100
AcDbVisualStyle
  2
Dim
 70
    11
 71
     2
 72
     2
 73
     0
 90
        0
 40
-0.6
 41
-30.0
 62
     5
 63
     7
 74
     1
 91
        4
 64
     7
 65
   257
 75
     1
175
     1
 42
1.0
 92
        8
 66
     7
 43
1.0
 76
     1
 77
     6
 78
     2
 67
     7
 79
     5
170
     0
171
     0
290
     0
174
     0
 93
        1
 44
-50.0
173
     0
291
     1
 45
0.0
1001
ACAD
1000
AcDbSavedByObjectVersion
1070
     0
  0
VISUALSTYLE
  5
24E1
102
{ACAD_REACTORS
330
24D2
102
}
330
24D2
100
AcDbVisualStyle
  2
Facepattern
 70
    15
 71
     2
 72
     2
 73
     0
 90
        0
 40
-0.6
 41
-30.0
 62
     5
 63
     7
 74
     1
 91
        4
 64
     7
 65
   257
 75
     1
175
     1
 42
1.0
 92
        8
 66
     7
 43
1.0
 76
     1
 77
     6
 78
     2
 67
     7
 79
     5
170
     0
171
     0
290
     0
174
     0
 93
        1
 44
0.0
173
     0
291
     1
 45
0.0
1001
ACAD
1000
AcDbSavedByObjectVersion
1070
     0
  0
VISUALSTYLE
  5
24D3
102
{ACAD_REACTORS
330
24D2
102
}
330
24D2
100
AcDbVisualStyle
  2
Flat
 70
     0
 71
     2
 72
     1
 73
     1
 90
        2
 40
-0.6
 41
30.0
 62
     5
 63
     7
 74
     0
 91
        4
 64
     7
 65
   257
 75
     1
175
     1
 42
1.0
 92
        8
 66
     7
 43
1.0
 76
     1
 77
     6
 78
     2
 67
     7
 79
     5
170
     0
171
     0
290
     0
174
     0
 93
       13
 44
0.0
173
     0
291
     1
 45
0.0
1001
ACAD
1000
AcDbSavedByObjectVersion
1070
     0
  0
VISUALSTYLE
  5
24D4
102
{ACAD_REACTORS
330
24D2
102
}
330
24D2
100
AcDbVisualStyle
  2
FlatWithEdges
 70
     1
 71
     2
 72
     1
 73
     1
 90
        2
 40
-0.6
 41
30.0
 62
     5
 63
     7
 74
     1
 91
        4
 64
     7
 65
   257
 75
     1
175
     1
 42
1.0
 92
        0
 66
   257
 43
1.0
 76
     1
 77
     6
 78
     2
 67
     7
 79
     5
170
     0
171
     0
290
     0
174
     0
 93
       13
 44
0.0
173
     0
291
     1
 45
0.0
1001
ACAD
1000
AcDbSavedByObjectVersion
1070
     0
  0
VISUALSTYLE
  5
24D5
102
{ACAD_REACTORS
330
24D2
102
}
330
24D2
100
AcDbVisualStyle
  2
Gouraud
 70
     2
 71
     2
 72
     2
 73
     1
 90
        2
 40
-0.6
 41
30.0
 62
     5
 63
     7
 74
     0
 91
        4
 64
     7
 65
   257
 75
     1
175
     1
 42
1.0
 92
        0
 66
     7
 43
1.0
 76
     1
 77
     6
 78
     2
 67
     7
 79
     5
170
     0
171
     0
290
     0
174
     0
 93
       13
 44
0.0
173
     0
291
     1
 45
0.0
1001
ACAD
1000
AcDbSavedByObjectVersion
1070
     0
  0
VISUALSTYLE
  5
24D6
102
{ACAD_REACTORS
330
24D2
102
}
330
24D2
100
AcDbVisualStyle
  2
GouraudWithEdges
 70
     3
 71
     2
 72
     2
 73
     1
 90
        2
 40
-0.6
 41
30.0
 62
     5
 63
     7
 74
     1
 91
        4
 64
     7
 65
   257
 75
     1
175
     1
 42
1.0
 92
        0
 66
   257
 43
1.0
 76
     1
 77
     6
 78
     2
 67
     7
 79
     5
170
     0
171
     0
290
     0
174
     0
 93
       13
 44
0.0
173
     0
291
     1
 45
0.0
1001
ACAD
1000
AcDbSavedByObjectVersion
1070
     0
  0
VISUALSTYLE
  5
24E0
102
{ACAD_REACTORS
330
24D2
102
}
330
24D2
100
AcDbVisualStyle
  2
Linepattern
 70
    14
 71
     2
 72
     2
 73
     0
 90
        0
 40
-0.6
 41
-30.0
 62
     5
 63
     7
 74
     1
 91
        4
 64
     7
 65
   257
 75
     7
175
     7
 42
1.0
 92
        8
 66
     7
 43
1.0
 76
     1
 77
     6
 78
     2
 67
     7
 79
     5
170
     0
171
     0
290
     0
174
     0
 93
        1
 44
0.0
173
     0
291
     1
 45
0.0
1001
ACAD
1000
AcDbSavedByObjectVersion
1070
     0
  0
VISUALSTYLE
  5
24DC
102
{ACAD_REACTORS
330
24D2
102
}
330
24D2
100
AcDbVisualStyle
  2
Realistic
 70
     8
 71
     2
 72
     2
 73
     0
 90
        0
 40
-0.6
 41
-30.0
 62
     5
 63
     7
 74
     1
 91
        0
 64
     7
 65
   257
 75
     1
175
     1
 42
1.0
 92
        8
 66
     8
 43
1.0
 76
     1
 77
     6
 78
     2
 67
     7
 79
     5
170
     0
171
     0
290
     0
174
     0
 93
       13
 44
0.0
173
     0
291
     0
 45
0.0
1001
ACAD
1000
AcDbSavedByObjectVersion
1070
     0
  0
VISUALSTYLE
  5
24DF
102
{ACAD_REACTORS
330
24D2
102
}
330
24D2
100
AcDbVisualStyle
  2
Thicken
 70
    13
 71
     2
 72
     2
 73
     0
 90
        0
 40
-0.6
 41
-30.0
 62
     5
 63
     7
 74
     1
 91
        4
 64
     7
 65
   257
 75
     1
175
     1
 42
1.0
 92
       12
 66
     7
 43
1.0
 76
     1
 77
     6
 78
     2
 67
     7
 79
     5
170
     0
171
     0
290
     0
174
     0
 93
        1
 44
0.0
173
     0
291
     1
 45
0.0
1001
ACAD
1000
AcDbSavedByObjectVersion
1070
     0
  0
DICTIONARYVAR
  5
26F6
102
{ACAD_REACTORS
330
26F3
102
}
330
26F3
100
DictionaryVariables
280
     0
  1
1:1
  0
DICTIONARYVAR
  5
26F5
102
{ACAD_REACTORS
330
26F3
102
}
330
26F3
100
DictionaryVariables
280
     0
  1
STANDARD
  0
DICTIONARYVAR
  5
26F4
102
{ACAD_REACTORS
330
26F3
102
}
330
26F3
100
DictionaryVariables
280
     0
  1
STANDARD
  0
DICTIONARYVAR
  5
26F9
102
{ACAD_REACTORS
330
26F3
102
}
330
26F3
100
DictionaryVariables
280
     0
  1
1
  0
DICTIONARYVAR
  5
26F8
102
{ACAD_REACTORS
330
26F3
102
}
330
26F3
100
DictionaryVariables
280
     0
  1
1
  0
DICTIONARYVAR
  5
26F7
102
{ACAD_REACTORS
330
26F3
102
}
330
26F3
100
DictionaryVariables
280
     0
  1
127
  0
DICTIONARY
  5
26AD
102
{ACAD_REACTORS
330
269F
102
}
330
269F
100
AcDbDictionary
281
     1
  0
DICTIONARY
  5
25ED
102
{ACAD_REACTORS
330
25EC
102
}
330
25EC
100
AcDbDictionary
281
     1
  3
DWGSETTINGS
350
25EE
  3
TRANSSETTINGS
350
25EF
  0
ACAMGFILTERDAT
  5
26CC
102
{ACAD_REACTORS
330
26C7
102
}
330
26C7
100
AcAmgFilterDat
 70
    15
  1
DIMENSION,AMDT_*_DIM
  2
*
  3
*
  4
*
  5
*
290
     1
  0
ACAMGFILTERDAT
  5
26CB
102
{ACAD_REACTORS
330
26C7
102
}
330
26C7
100
AcAmgFilterDat
 70
    15
  1
*
  2
AM_FEA-AM_*
  3
*
  4
*
  5
*
290
     1
  0
ACAMGFILTERDAT
  5
26C8
102
{ACAD_REACTORS
330
26C7
102
}
330
26C7
100
AcAmgFilterDat
 70
    15
  1
HATCH
  2
*
  3
*
  4
*
  5
*
290
     1
  0
ACAMGFILTERDAT
  5
26C9
102
{ACAD_REACTORS
330
26C7
102
}
330
26C7
100
AcAmgFilterDat
 70
    15
  1
LINE
  2
8,8N,*-8,*-8N,AM_8,AM_8N,*-AM_8,*-AM_8N
  3
*
  4
*
  5
INSERT,STDPART2D
290
     1
  0
ACAMGFILTERDAT
  5
26CD
102
{ACAD_REACTORS
330
26C7
102
}
330
26C7
100
AcAmgFilterDat
 70
    15
  1
ARC
  2
AM_5
  3
*
  4
2
  5
INSERT
290
     0
  0
ACAMGFILTERDAT
  5
26CA
102
{ACAD_REACTORS
330
26C7
102
}
330
26C7
100
AcAmgFilterDat
 70
    15
  1
ACMFCFRAME,ACMDATUMTARGET,ACMDATUMID,ACMWELDSYM,ACMSURFSYM,ACMFEATID,ACMPARTREF,ACMBALLOON,AMDTEDGESYM,AMGSCREWCALCTABLE,ACMMARKSTAMP
  2
*
  3
*
  4
*
  5
*
290
     1
  0
LAYER_INDEX
  5
26E6
102
{ACAD_REACTORS
330
26E5
102
}
330
26E5
100
AcDbIndex
 40
2456211.591997836
100
AcDbLayerIndex
  8
0
360
26E7
 90
        2
  8
OUTLINE
360
26E8
 90
      126
  8
SIZE
360
26E9
 90
       60
  8
BASIS
360
26EA
 90
        2
  8
DETAIL
360
26EB
 90
      120
  8
ARRANGE
360
26EC
 90
        3
  8
DEFPOINTS
360
26ED
 90
        0
  8
ETC
360
26EE
 90
        3
  8
FIX
360
26EF
 90
       16
  8
NOTE
360
26F0
 90
       32
  8
SERVICESPACE
360
26F1
 90
        0
  8
SYMBOLLINE
360
26F2
 90
        0
  0
DICTIONARY
  5
2709
330
2520
100
AcDbDictionary
280
     1
281
     1
  3
ACAD_XREC_ROUNDTRIP
360
270A
  0
DICTIONARY
  5
2707
330
251C
100
AcDbDictionary
280
     1
281
     1
  3
ACAD_XREC_ROUNDTRIP
360
2708
  0
DICTIONARY
  5
24C3
330
24C2
100
AcDbDictionary
280
     1
281
     1
  3
ACAD_XREC_ROUNDTRIP
360
2704
  3
BUMPTILE
360
24C5
  3
DIFFUSETILE
360
24C4
  3
OPACITYTILE
360
24C8
  3
REFLECTIONTILE
360
24C7
  3
REFRACTIONTILE
360
24C9
  3
SPECULARTILE
360
24C6
  0
DICTIONARY
  5
24BB
330
24BA
100
AcDbDictionary
280
     1
281
     1
  3
ACAD_XREC_ROUNDTRIP
360
2703
  3
BUMPTILE
360
24BD
  3
DIFFUSETILE
360
24BC
  3
OPACITYTILE
360
24C0
  3
REFLECTIONTILE
360
24BF
  3
REFRACTIONTILE
360
24C1
  3
SPECULARTILE
360
24BE
  0
DICTIONARY
  5
24CB
330
24CA
100
AcDbDictionary
280
     1
281
     1
  3
ACAD_XREC_ROUNDTRIP
360
2705
  3
BUMPTILE
360
24CD
  3
DIFFUSETILE
360
24CC
  3
OPACITYTILE
360
24D0
  3
REFLECTIONTILE
360
24CF
  3
REFRACTIONTILE
360
24D1
  3
SPECULARTILE
360
24CE
  0
DICTIONARY
  5
26FA
330
2515
100
AcDbDictionary
280
     1
281
     1
  3
ACAD_ROUNDTRIP_2008_TABLESTYLE_CELLSTYLEMAP
360
26FB
  3
ACAD_XREC_ROUNDTRIP
360
2706
  0
IDBUFFER
  5
26E7
330
0
100
AcDbIdBuffer
330
23B9
330
23BA
  0
IDBUFFER
  5
26E8
330
0
100
AcDbIdBuffer
330
2445
330
2446
330
2447
330
2448
330
2449
330
244A
330
244B
330
244C
330
244D
330
244E
330
244F
330
2450
330
2451
330
2452
330
953
330
954
330
955
330
956
330
957
330
958
330
23DB
330
23DC
330
23DD
330
23DE
330
23DF
330
23E0
330
23E1
330
23E2
330
23E3
330
23E4
330
23E5
330
23E6
330
23E7
330
23E8
330
23E9
330
23EA
330
23EB
330
23EC
330
23ED
330
23EE
330
23EF
330
23F0
330
23F1
330
23F2
330
23F3
330
23F4
330
23F5
330
23F6
330
23F7
330
23F8
330
23F9
330
23FA
330
23FB
330
23FC
330
23FD
330
23FE
330
23FF
330
2400
330
2401
330
2402
330
2403
330
2404
330
2405
330
2406
330
2407
330
2408
330
2409
330
240A
330
240B
330
240C
330
240D
330
240E
330
240F
330
2410
330
2411
330
2412
330
2413
330
2414
330
2415
330
2416
330
2417
330
2418
330
2419
330
241A
330
241B
330
241C
330
241D
330
241E
330
241F
330
2420
330
2421
330
2422
330
2423
330
2424
330
2425
330
2426
330
2427
330
2428
330
2429
330
242A
330
242B
330
242C
330
242D
330
242E
330
242F
330
2430
330
2431
330
2432
330
2433
330
2434
330
2435
330
2436
330
2437
330
2438
330
2439
330
243A
330
243B
330
243C
330
243D
330
243E
330
243F
330
2440
330
2441
330
2442
330
2443
330
2444
  0
IDBUFFER
  5
26E9
330
0
100
AcDbIdBuffer
330
2483
330
2484
330
2488
330
2489
330
248A
330
248B
330
248C
330
248D
330
248E
330
248F
330
2490
330
2491
330
2453
330
2454
330
2455
330
2456
330
2457
330
2458
330
2459
330
245A
330
245B
330
245C
330
245D
330
245E
330
245F
330
2460
330
2461
330
2462
330
2463
330
2464
330
2465
330
2466
330
2467
330
2468
330
2469
330
246A
330
246B
330
246C
330
246D
330
246E
330
246F
330
2470
330
2471
330
2472
330
2473
330
2474
330
2475
330
2476
330
2477
330
2478
330
2479
330
247A
330
247B
330
247C
330
247D
330
247E
330
247F
330
2480
330
2481
330
2482
  0
IDBUFFER
  5
26EA
330
0
100
AcDbIdBuffer
330
233D
330
233E
  0
IDBUFFER
  5
26EB
330
0
100
AcDbIdBuffer
330
23B1
330
23B2
330
23B3
330
23B4
330
23B5
330
23B6
330
23B7
330
23B8
330
2330
330
2331
330
2332
330
2333
330
2334
330
2335
330
2336
330
2337
330
2338
330
2339
330
2345
330
2346
330
2347
330
2348
330
2349
330
234A
330
234B
330
234C
330
234D
330
234E
330
234F
330
2350
330
2351
330
2352
330
2353
330
2354
330
2355
330
2356
330
2357
330
2358
330
2359
330
235A
330
235B
330
235C
330
235D
330
235E
330
235F
330
2360
330
2361
330
2362
330
2363
330
2364
330
2365
330
2366
330
2367
330
2368
330
2369
330
236A
330
236B
330
236C
330
236D
330
236E
330
236F
330
2370
330
2371
330
2372
330
2373
330
2374
330
2375
330
2376
330
2377
330
2378
330
2379
330
237A
330
237B
330
237C
330
2383
330
2384
330
2385
330
2386
330
2387
330
2388
330
2389
330
238A
330
238B
330
238C
330
238D
330
238E
330
238F
330
2390
330
2391
330
2392
330
2393
330
2394
330
2395
330
2396
330
2397
330
2398
330
2399
330
239A
330
239B
330
239C
330
239D
330
239E
330
239F
330
23A0
330
23A1
330
23A2
330
23A3
330
23A4
330
23A5
330
23A6
330
23A7
330
23A8
330
23A9
330
23AA
330
23AB
330
23AC
330
23AD
330
23AE
330
23AF
330
23B0
  0
IDBUFFER
  5
26EC
330
0
100
AcDbIdBuffer
330
233A
330
233B
330
233C
  0
IDBUFFER
  5
26ED
330
0
100
AcDbIdBuffer
  0
IDBUFFER
  5
26EE
330
0
100
AcDbIdBuffer
330
2485
330
2486
330
2487
  0
IDBUFFER
  5
26EF
330
0
100
AcDbIdBuffer
330
232C
330
232D
330
232E
330
232F
330
233F
330
2340
330
2341
330
2342
330
2343
330
2344
330
237D
330
237E
330
237F
330
2380
330
2381
330
2382
  0
IDBUFFER
  5
26F0
330
0
100
AcDbIdBuffer
330
23CB
330
23CC
330
23CD
330
23CE
330
23CF
330
23D0
330
23D1
330
23D2
330
23D3
330
23D4
330
23D5
330
23D6
330
23D7
330
23D8
330
23D9
330
23DA
330
23BB
330
23BC
330
23BD
330
23BE
330
23BF
330
23C0
330
23C1
330
23C2
330
23C3
330
23C4
330
23C5
330
23C6
330
23C7
330
23C8
330
23C9
330
23CA
  0
IDBUFFER
  5
26F1
330
0
100
AcDbIdBuffer
  0
IDBUFFER
  5
26F2
330
0
100
AcDbIdBuffer
  0
XRECORD
  5
270A
102
{ACAD_REACTORS
330
2709
102
}
330
2709
100
AcDbXrecord
280
     1
102
SHADEPLOT
 70
     0
102
SHADEPLOTRESLEVEL
 70
     2
102
SHADEPLOTCUSTOMDPI
 70
   300
  0
XRECORD
  5
2708
102
{ACAD_REACTORS
330
2707
102
}
330
2707
100
AcDbXrecord
280
     1
102
SHADEPLOT
 70
     0
102
SHADEPLOTRESLEVEL
 70
     2
102
SHADEPLOTCUSTOMDPI
 70
   300
  0
XRECORD
  5
2704
102
{ACAD_REACTORS
330
24C3
102
}
330
24C3
100
AcDbXrecord
280
     1
102
MATERIAL
148
0.0
149
0.0
149
0.0
 93
        0
 94
      127
282
     0
 72
     0
 77
     0
171
     0
175
     0
179
     0
273
     0
  0
XRECORD
  5
24C5
102
{ACAD_REACTORS
330
24C3
102
}
330
24C3
100
AcDbXrecord
280
     1
270
     1
271
     1
  0
XRECORD
  5
24C4
102
{ACAD_REACTORS
330
24C3
102
}
330
24C3
100
AcDbXrecord
280
     1
270
     1
271
     1
  0
XRECORD
  5
24C8
102
{ACAD_REACTORS
330
24C3
102
}
330
24C3
100
AcDbXrecord
280
     1
270
     1
271
     1
  0
XRECORD
  5
24C7
102
{ACAD_REACTORS
330
24C3
102
}
330
24C3
100
AcDbXrecord
280
     1
270
     1
271
     1
  0
XRECORD
  5
24C9
102
{ACAD_REACTORS
330
24C3
102
}
330
24C3
100
AcDbXrecord
280
     1
270
     1
271
     1
  0
XRECORD
  5
24C6
102
{ACAD_REACTORS
330
24C3
102
}
330
24C3
100
AcDbXrecord
280
     1
270
     1
271
     1
  0
XRECORD
  5
2703
102
{ACAD_REACTORS
330
24BB
102
}
330
24BB
100
AcDbXrecord
280
     1
102
MATERIAL
148
0.0
149
0.0
149
0.0
 93
        0
 94
      127
282
     0
 72
     0
 77
     0
171
     0
175
     0
179
     0
273
     0
  0
XRECORD
  5
24BD
102
{ACAD_REACTORS
330
24BB
102
}
330
24BB
100
AcDbXrecord
280
     1
270
     1
271
     1
  0
XRECORD
  5
24BC
102
{ACAD_REACTORS
330
24BB
102
}
330
24BB
100
AcDbXrecord
280
     1
270
     1
271
     1
  0
XRECORD
  5
24C0
102
{ACAD_REACTORS
330
24BB
102
}
330
24BB
100
AcDbXrecord
280
     1
270
     1
271
     1
  0
XRECORD
  5
24BF
102
{ACAD_REACTORS
330
24BB
102
}
330
24BB
100
AcDbXrecord
280
     1
270
     1
271
     1
  0
XRECORD
  5
24C1
102
{ACAD_REACTORS
330
24BB
102
}
330
24BB
100
AcDbXrecord
280
     1
270
     1
271
     1
  0
XRECORD
  5
24BE
102
{ACAD_REACTORS
330
24BB
102
}
330
24BB
100
AcDbXrecord
280
     1
270
     1
271
     1
  0
XRECORD
  5
2705
102
{ACAD_REACTORS
330
24CB
102
}
330
24CB
100
AcDbXrecord
280
     1
102
MATERIAL
148
0.0
149
0.0
149
0.0
 93
        0
 94
      127
282
     0
 72
     0
 77
     0
171
     0
175
     0
179
     0
273
     0
  0
XRECORD
  5
24CD
102
{ACAD_REACTORS
330
24CB
102
}
330
24CB
100
AcDbXrecord
280
     1
270
     1
271
     1
  0
XRECORD
  5
24CC
102
{ACAD_REACTORS
330
24CB
102
}
330
24CB
100
AcDbXrecord
280
     1
270
     1
271
     1
  0
XRECORD
  5
24D0
102
{ACAD_REACTORS
330
24CB
102
}
330
24CB
100
AcDbXrecord
280
     1
270
     1
271
     1
  0
XRECORD
  5
24CF
102
{ACAD_REACTORS
330
24CB
102
}
330
24CB
100
AcDbXrecord
280
     1
270
     1
271
     1
  0
XRECORD
  5
24D1
102
{ACAD_REACTORS
330
24CB
102
}
330
24CB
100
AcDbXrecord
280
     1
270
     1
271
     1
  0
XRECORD
  5
24CE
102
{ACAD_REACTORS
330
24CB
102
}
330
24CB
100
AcDbXrecord
280
     1
270
     1
271
     1
  0
CELLSTYLEMAP
  5
26FB
102
{ACAD_REACTORS
330
26FA
102
}
330
26FA
100
AcDbCellStyleMap
 90
        3
300
CELLSTYLE
  1
TABLEFORMAT_BEGIN
 90
        5
170
     1
 91
        0
 92
    32768
 62
   257
 93
        1
300
CONTENTFORMAT
  1
CONTENTFORMAT_BEGIN
 90
        0
 91
        0
 92
      512
 93
        0
300

 40
0.0
140
1.0
 94
        5
 62
     0
340
2506
144
0.25
309
CONTENTFORMAT_END
171
     0
 94
        0
309
TABLEFORMAT_END
  1
CELLSTYLE_BEGIN
 90
        1
 91
        1
300
_TITLE
309
CELLSTYLE_END
300
CELLSTYLE
  1
TABLEFORMAT_BEGIN
 90
        5
170
     1
 91
        0
 92
        0
 62
   257
 93
        1
300
CONTENTFORMAT
  1
CONTENTFORMAT_BEGIN
 90
        0
 91
        0
 92
      512
 93
        0
300

 40
0.0
140
1.0
 94
        5
 62
     0
340
2506
144
0.18
309
CONTENTFORMAT_END
171
     0
 94
        0
309
TABLEFORMAT_END
  1
CELLSTYLE_BEGIN
 90
        2
 91
        1
300
_HEADER
309
CELLSTYLE_END
300
CELLSTYLE
  1
TABLEFORMAT_BEGIN
 90
        5
170
     1
 91
        0
 92
        0
 62
   257
 93
        1
300
CONTENTFORMAT
  1
CONTENTFORMAT_BEGIN
 90
        0
 91
        0
 92
      512
 93
        0
300

 40
0.0
140
1.0
 94
        2
 62
     0
340
2506
144
0.18
309
CONTENTFORMAT_END
171
     0
 94
        0
309
TABLEFORMAT_END
  1
CELLSTYLE_BEGIN
 90
        3
 91
        2
300
_DATA
309
CELLSTYLE_END
  0
XRECORD
  5
2706
102
{ACAD_REACTORS
330
26FA
102
}
330
26FA
100
AcDbXrecord
280
     1
102
ACAD_ROUNDTRIP_PRE2007_TABLESTYLE
 90
      512
 91
        0
  1

 92
      512
 93
        0
  2

 94
      512
 95
        0
  3

  0
ENDSEC
  0
EOF
