  0
SECTION
  2
HEADER
  9
$ACADVER
  1
AC1021
  9
$ACADMAINTVER
 70
    50
  9
$DWGCODEPAGE
  3
ANSI_932
  9
$LASTSAVEDBY
  1
A140052
  9
$CUSTOMPROPERTYTAG
  1
AmdtFileType
  9
$CUSTOMPROPERTY
  1
84
  9
$INSBASE
 10
0.0
 20
0.0
 30
0.0
  9
$EXTMIN
 10
-435.0585769688004
 20
30.12086186804845
 30
-0.0022882129575947
  9
$EXTMAX
 10
1210.913097719793
 20
1356.71997961672
 30
50.00228914432991
  9
$LIMMIN
 10
-2970.0
 20
-2100.0
  9
$LIMMAX
 10
2970.0
 20
2100.0
  9
$ORTHOMODE
 70
     1
  9
$REGENMODE
 70
     0
  9
$FILLMODE
 70
     1
  9
$QTEXTMODE
 70
     0
  9
$MIRRTEXT
 70
     0
  9
$LTSCALE
 40
20.0
  9
$ATTMODE
 70
     1
  9
$TEXTSIZE
 40
64.0
  9
$TRACEWID
 40
0.05
  9
$TEXTSTYLE
  7
STANDARD
  9
$CLAYER
  8
0
  9
$CELTYPE
  6
ByLayer
  9
$CECOLOR
 62
   256
  9
$CELTSCALE
 40
1.0
  9
$DISPSILH
 70
     0
  9
$DIMSCALE
 40
1.0
  9
$DIMASZ
 40
0.12
  9
$DIMEXO
 40
0.05
  9
$DIMDLI
 40
0.5
  9
$DIMRND
 40
0.0
  9
$DIMDLE
 40
0.0
  9
$DIMEXE
 40
0.1
  9
$DIMTP
 40
0.1
  9
$DIMTM
 40
0.1
  9
$DIMTXT
 40
0.12
  9
$DIMCEN
 40
0.0
  9
$DIMTSZ
 40
0.0
  9
$DIMTOL
 70
     0
  9
$DIMLIM
 70
     0
  9
$DIMTIH
 70
     1
  9
$DIMTOH
 70
     1
  9
$DIMSE1
 70
     0
  9
$DIMSE2
 70
     0
  9
$DIMTAD
 70
     0
  9
$DIMZIN
 70
     7
  9
$DIMBLK
  1

  9
$DIMASO
 70
     1
  9
$DIMSHO
 70
     0
  9
$DIMPOST
  1

  9
$DIMAPOST
  1
mm
  9
$DIMALT
 70
     0
  9
$DIMALTD
 70
     2
  9
$DIMALTF
 40
25.4
  9
$DIMLFAC
 40
1.0
  9
$DIMTOFL
 70
     0
  9
$DIMTVP
 40
0.0
  9
$DIMTIX
 70
     0
  9
$DIMSOXD
 70
     0
  9
$DIMSAH
 70
     0
  9
$DIMBLK1
  1

  9
$DIMBLK2
  1

  9
$DIMSTYLE
  2
AM_ANSI
  9
$DIMCLRD
 70
   256
  9
$DIMCLRE
 70
   256
  9
$DIMCLRT
 70
     2
  9
$DIMTFAC
 40
0.71
  9
$DIMGAP
 40
0.06
  9
$DIMJUST
 70
     0
  9
$DIMSD1
 70
     0
  9
$DIMSD2
 70
     0
  9
$DIMTOLJ
 70
     1
  9
$DIMTZIN
 70
     7
  9
$DIMALTZ
 70
     0
  9
$DIMALTTZ
 70
     0
  9
$DIMUPT
 70
     0
  9
$DIMDEC
 70
     4
  9
$DIMTDEC
 70
     4
  9
$DIMALTU
 70
     2
  9
$DIMALTTD
 70
     4
  9
$DIMTXSTY
  7
STANDARD
  9
$DIMAUNIT
 70
     0
  9
$DIMADEC
 70
     0
  9
$DIMALTRND
 40
0.0
  9
$DIMAZIN
 70
     2
  9
$DIMDSEP
 70
    46
  9
$DIMATFIT
 70
     3
  9
$DIMFRAC
 70
     0
  9
$DIMLDRBLK
  1

  9
$DIMLUNIT
 70
     2
  9
$DIMLWD
 70
    -1
  9
$DIMLWE
 70
    -1
  9
$DIMTMOVE
 70
     0
  9
$DIMFXL
 40
1.0
  9
$DIMFXLON
 70
     0
  9
$DIMJOGANG
 40
0.7853981633974483
  9
$DIMTFILL
 70
     0
  9
$DIMTFILLCLR
 70
     0
  9
$DIMARCSYM
 70
     1
  9
$DIMLTYPE
  6
ByBlock
  9
$DIMLTEX1
  6
ByBlock
  9
$DIMLTEX2
  6
ByBlock
  9
$LUNITS
 70
     2
  9
$LUPREC
 70
     4
  9
$SKETCHINC
 40
0.1
  9
$FILLETRAD
 40
4.0
  9
$AUNITS
 70
     1
  9
$AUPREC
 70
     3
  9
$MENU
  1
ACAD
  9
$ELEVATION
 40
0.0
  9
$PELEVATION
 40
0.0
  9
$THICKNESS
 40
50.0
  9
$LIMCHECK
 70
     0
  9
$CHAMFERA
 40
0.0
  9
$CHAMFERB
 40
0.0
  9
$CHAMFERC
 40
0.0
  9
$CHAMFERD
 40
0.0
  9
$SKPOLY
 70
     0
  9
$TDCREATE
 40
2452321.396199653
  9
$TDUCREATE
 40
2452321.021199653
  9
$TDUPDATE
 40
2457470.396356701
  9
$TDUUPDATE
 40
2457470.021356702
  9
$TDINDWG
 40
1.0412599306
  9
$TDUSRTIMER
 40
1.0412539815
  9
$USRTIMER
 70
     1
  9
$ANGBASE
 50
0.0
  9
$ANGDIR
 70
     0
  9
$PDMODE
 70
     3
  9
$PDSIZE
 40
-2.0
  9
$PLINEWID
 40
0.0
  9
$SPLFRAME
 70
     0
  9
$SPLINETYPE
 70
     6
  9
$SPLINESEGS
 70
     8
  9
$HANDSEED
  5
2E1C
  9
$SURFTAB1
 70
     6
  9
$SURFTAB2
 70
     6
  9
$SURFTYPE
 70
     6
  9
$SURFU
 70
     6
  9
$SURFV
 70
     6
  9
$UCSBASE
  2

  9
$UCSNAME
  2

  9
$UCSORG
 10
0.0
 20
0.0
 30
0.0
  9
$UCSXDIR
 10
1.0
 20
0.0
 30
0.0
  9
$UCSYDIR
 10
0.0
 20
1.0
 30
0.0
  9
$UCSORTHOREF
  2

  9
$UCSORTHOVIEW
 70
     0
  9
$UCSORGTOP
 10
0.0
 20
0.0
 30
0.0
  9
$UCSORGBOTTOM
 10
0.0
 20
0.0
 30
0.0
  9
$UCSORGLEFT
 10
0.0
 20
0.0
 30
0.0
  9
$UCSORGRIGHT
 10
0.0
 20
0.0
 30
0.0
  9
$UCSORGFRONT
 10
0.0
 20
0.0
 30
0.0
  9
$UCSORGBACK
 10
0.0
 20
0.0
 30
0.0
  9
$PUCSBASE
  2

  9
$PUCSNAME
  2

  9
$PUCSORG
 10
0.0
 20
0.0
 30
0.0
  9
$PUCSXDIR
 10
1.0
 20
0.0
 30
0.0
  9
$PUCSYDIR
 10
0.0
 20
1.0
 30
0.0
  9
$PUCSORTHOREF
  2

  9
$PUCSORTHOVIEW
 70
     0
  9
$PUCSORGTOP
 10
0.0
 20
0.0
 30
0.0
  9
$PUCSORGBOTTOM
 10
0.0
 20
0.0
 30
0.0
  9
$PUCSORGLEFT
 10
0.0
 20
0.0
 30
0.0
  9
$PUCSORGRIGHT
 10
0.0
 20
0.0
 30
0.0
  9
$PUCSORGFRONT
 10
0.0
 20
0.0
 30
0.0
  9
$PUCSORGBACK
 10
0.0
 20
0.0
 30
0.0
  9
$USERI1
 70
     0
  9
$USERI2
 70
     0
  9
$USERI3
 70
     0
  9
$USERI4
 70
     0
  9
$USERI5
 70
     0
  9
$USERR1
 40
20.0
  9
$USERR2
 40
0.0
  9
$USERR3
 40
0.0
  9
$USERR4
 40
0.0
  9
$USERR5
 40
0.0
  9
$WORLDVIEW
 70
     1
  9
$SHADEDGE
 70
     3
  9
$SHADEDIF
 70
    70
  9
$TILEMODE
 70
     1
  9
$MAXACTVP
 70
    64
  9
$PINSBASE
 10
0.0
 20
0.0
 30
0.0
  9
$PLIMCHECK
 70
     0
  9
$PEXTMIN
 10
1.000000000000000E+20
 20
1.000000000000000E+20
 30
1.000000000000000E+20
  9
$PEXTMAX
 10
-1.000000000000000E+20
 20
-1.000000000000000E+20
 30
-1.000000000000000E+20
  9
$PLIMMIN
 10
0.0
 20
0.0
  9
$PLIMMAX
 10
12.0
 20
9.0
  9
$UNITMODE
 70
     0
  9
$VISRETAIN
 70
     1
  9
$PLINEGEN
 70
     0
  9
$PSLTSCALE
 70
     1
  9
$TREEDEPTH
 70
  3020
  9
$CMLSTYLE
  2
Standard
  9
$CMLJUST
 70
     0
  9
$CMLSCALE
 40
1.0
  9
$PROXYGRAPHICS
 70
     1
  9
$MEASUREMENT
 70
     0
  9
$CELWEIGHT
370
    -1
  9
$ENDCAPS
280
     0
  9
$JOINSTYLE
280
     0
  9
$LWDISPLAY
290
     0
  9
$INSUNITS
 70
     0
  9
$HYPERLINKBASE
  1

  9
$STYLESHEET
  1

  9
$XEDIT
290
     1
  9
$CEPSNTYPE
380
     0
  9
$PSTYLEMODE
290
     1
  9
$FINGERPRINTGUID
  2
{43C72CEF-D808-4643-B681-387797AC20B2}
  9
$VERSIONGUID
  2
{1483783D-B578-4678-B8BF-D735550F714A}
  9
$EXTNAMES
290
     1
  9
$PSVPSCALE
 40
0.0
  9
$OLESTARTUP
290
     0
  9
$SORTENTS
280
   127
  9
$INDEXCTL
280
     1
  9
$HIDETEXT
280
     0
  9
$XCLIPFRAME
290
     0
  9
$HALOGAP
280
     0
  9
$OBSCOLOR
 70
   257
  9
$OBSLTYPE
280
     0
  9
$INTERSECTIONDISPLAY
280
     0
  9
$INTERSECTIONCOLOR
 70
   257
  9
$DIMASSOC
280
     1
  9
$PROJECTNAME
  1

  9
$CAMERADISPLAY
290
     0
  9
$LENSLENGTH
 40
50.0
  9
$CAMERAHEIGHT
 40
0.0
  9
$STEPSPERSEC
 40
2.0
  9
$STEPSIZE
 40
6.0
  9
$3DDWFPREC
 40
2.0
  9
$PSOLWIDTH
 40
0.25
  9
$PSOLHEIGHT
 40
4.0
  9
$LOFTANG1
 40
1.570796326794896
  9
$LOFTANG2
 40
1.570796326794896
  9
$LOFTMAG1
 40
0.0
  9
$LOFTMAG2
 40
0.0
  9
$LOFTPARAM
 70
     7
  9
$LOFTNORMALS
280
     1
  9
$LATITUDE
 40
37.795
  9
$LONGITUDE
 40
-122.394
  9
$NORTHDIRECTION
 40
0.0
  9
$TIMEZONE
 70
 -8000
  9
$LIGHTGLYPHDISPLAY
280
     1
  9
$TILEMODELIGHTSYNCH
280
     1
  9
$CMATERIAL
347
28D0
  9
$SOLIDHIST
280
     1
  9
$SHOWHIST
280
     1
  9
$DWFFRAME
280
     2
  9
$DGNFRAME
280
     0
  9
$REALWORLDSCALE
290
     1
  9
$INTERFERECOLOR
 62
     1
  9
$INTERFEREOBJVS
345
28F2
  9
$INTERFEREVPVS
346
28EF
  9
$CSHADOW
280
     0
  9
$SHADOWPLANELOCATION
 40
0.0
  0
ENDSEC
  0
SECTION
  2
CLASSES
  0
CLASS
  1
ACDBDICTIONARYWDFLT
  2
AcDbDictionaryWithDefault
  3
ObjectDBX Classes
 90
        0
 91
        1
280
     0
281
     0
  0
CLASS
  1
MATERIAL
  2
AcDbMaterial
  3
ObjectDBX Classes
 90
     1153
 91
        3
280
     0
281
     0
  0
CLASS
  1
VISUALSTYLE
  2
AcDbVisualStyle
  3
ObjectDBX Classes
 90
     4095
 91
       16
280
     0
281
     0
  0
CLASS
  1
SCALE
  2
AcDbScale
  3
ObjectDBX Classes
 90
     1153
 91
       33
280
     0
281
     0
  0
CLASS
  1
TABLESTYLE
  2
AcDbTableStyle
  3
ObjectDBX Classes
 90
     4095
 91
        1
280
     0
281
     0
  0
CLASS
  1
MLEADERSTYLE
  2
AcDbMLeaderStyle
  3
ACDB_MLEADERSTYLE_CLASS
 90
     4095
 91
        1
280
     0
281
     0
  0
CLASS
  1
AMGSETTINGSOBJ
  2
AmgSettingsObj
  3
"AcadM|Product Description: AutoCAD Mechanical|Company: Autodesk, Inc."
 90
     1024
 91
        2
280
     0
281
     0
  0
CLASS
  1
ACME_DOCUMENT
  2
AcMeDbDoc
  3
AcMeServices
 90
     1024
 91
        1
280
     0
281
     0
  0
CLASS
  1
ACMESCOPE
  2
AcMeScope
  3
AcMeServices
 90
     1024
 91
        1
280
     0
281
     0
  0
CLASS
  1
ACMECOMMANDHISTORY
  2
AcMeCommandHistory
  3
AcMeServices
 90
     1024
 91
        1
280
     0
281
     0
  0
CLASS
  1
ACIMSYSVARMAN
  2
AcImSysVarManager
  3
AcMeServices
 90
     1024
 91
        6
280
     0
281
     0
  0
CLASS
  1
ACIMREALSYSVAR
  2
AcImRealSysVar
  3
AcMeServices
 90
     1024
 91
       16
280
     0
281
     0
  0
CLASS
  1
ACIMINTSYSVAR
  2
AcImIntSysVar
  3
AcMeServices
 90
     1024
 91
       45
280
     0
281
     0
  0
CLASS
  1
ACMEDRAWINGMAN
  2
AcMeDrawingMan
  3
AcMeServices
 90
     1024
 91
        1
280
     0
281
     0
  0
CLASS
  1
ACMEVIEW
  2
AcMeView
  3
AcMeServices
 90
     1024
 91
        1
280
     0
281
     0
  0
CLASS
  1
ACDBENTITYCACHE
  2
AcMeEntityCache
  3
AcMeServices
 90
     1024
 91
        1
280
     0
281
     0
  0
CLASS
  1
GSMANAGER
  2
AcMeGSManager
  3
AcMeServices
 90
     1024
 91
        1
280
     0
281
     0
  0
CLASS
  1
AMDTINTERNALREACTOR
  2
AmdtInternalReactor
  3
AcMeServices
 90
     1024
 91
        2
280
     0
281
     0
  0
CLASS
  1
ACMESTATEMGR
  2
AcMeStateMgr
  3
AcMeServices
 90
     1024
 91
        1
280
     0
281
     0
  0
CLASS
  1
ACGREFMASTER
  2
AcGrefMaster
  3
AcAttribServices
 90
     1024
 91
        1
280
     0
281
     0
  0
CLASS
  1
AM_DRAWING_MGR
  2
AcDmDwgMgr
  3
AcMechDwgViewMgmt
 90
     1024
 91
        1
280
     0
281
     0
  0
CLASS
  1
AM_DWG_DOCUMENT
  2
AcDmDwgDocument
  3
AcMechDwgViewMgmt
 90
     1024
 91
        1
280
     0
281
     0
  0
CLASS
  1
AM_DWG_SHEET
  2
AcDmSheet
  3
AcMechDwgViewMgmt
 90
     1024
 91
        1
280
     0
281
     0
  0
CLASS
  1
AM_VIEWDIMPARMAP
  2
AcDmViewDimParMap
  3
AcMechDwgViewMgmt
 90
     1024
 91
        1
280
     0
281
     0
  0
CLASS
  1
AM_DWGMGR_NAME
  2
AcDmDwgMgrName
  3
AcMechDwgViewMgmt
 90
     1024
 91
        1
280
     0
281
     0
  0
CLASS
  1
ACME_DATABASE
  2
AcMeDbDatabase
  3
AcMeServices
 90
     1024
 91
        2
280
     0
281
     0
  0
CLASS
  1
ACRFINSADJUSTERMGR
  2
AcRfInsAdjusterMgr
  3
AcMeServices
 90
     1024
 91
        1
280
     0
281
     0
  0
CLASS
  1
ACGREFACADMASTER
  2
AcGrefacadMaster
  3
AcGrefServices
 90
     1024
 91
        1
280
     0
281
     0
  0
CLASS
  1
AMDTMENUSTATEMGR
  2
AmdtMenuStateMgr
  3
McadcomServices
 90
     1024
 91
        1
280
     0
281
     0
  0
CLASS
  1
AMDTMCOMMENUSTATE
  2
AmdtMcomMenuState
  3
McadcomServices
 90
     1024
 91
        1
280
     0
281
     0
  0
CLASS
  1
AMIMASTER
  2
AmiMaster
  3
AmiServices
 90
     1024
 91
        1
280
     0
281
     0
  0
CLASS
  1
ASAPP
  2
AcAsAppObject
  3
AutoSurfServices
 90
     1024
 91
        1
280
     0
281
     0
  0
CLASS
  1
IM_STATIC_MAN
  2
AcImStaticVarManager
  3
AcMeServices
 90
     1024
 91
        1
280
     0
281
     0
  0
CLASS
  1
ACIMSTRSYSVAR
  2
AcImStrSysVar
  3
AcMeServices
 90
     1024
 91
       11
280
     0
281
     0
  0
CLASS
  1
ACIMDBLSTATICVAR
  2
AcImDblStaticVar
  3
AcMeServices
 90
     1024
 91
       20
280
     0
281
     0
  0
CLASS
  1
ACIMSTRSTATICVAR
  2
AcImStrStaticVar
  3
AcMeServices
 90
     1024
 91
       12
280
     0
281
     0
  0
CLASS
  1
ACIMINTSTATICVAR
  2
AcImIntStaticVar
  3
AcMeServices
 90
     1024
 91
       17
280
     0
281
     0
  0
CLASS
  1
ACASGREFMASTER
  2
AcAsGrefMaster
  3
AutoSurfResolverServices
 90
     1024
 91
        1
280
     0
281
     0
  0
CLASS
  1
ACADGREFMODULE
  2
AcAdGrefModule
  3
AdGrefServices
 90
     1024
 91
        1
280
     0
281
     0
  0
CLASS
  1
AMDTMAPISURFMOUDULE
  2
AmdtMApiSurfModule
  3
MApiSurfServices
 90
     1024
 91
        0
280
     0
281
     0
  0
CLASS
  1
MAPIAMMOUDLE
  2
MApiAmModule
  3
MApiAmServices
 90
     1024
 91
        1
280
     0
281
     0
  0
CLASS
  1
AMDTADMENUSTATE
  2
AmdtAdMenuState
  3
DesignerServices
 90
     1024
 91
        1
280
     0
281
     0
  0
CLASS
  1
ADAPPL
  2
AcAdAppl
  3
DesignerServices
 90
     1024
 91
        1
280
     0
281
     0
  0
CLASS
  1
DEPMGR
  2
AcAdDepMgr
  3
DesignerServices
 90
     1024
 91
        1
280
     0
281
     0
  0
CLASS
  1
PARAMMGR
  2
AcAdParamMgr
  3
DesignerServices
 90
     1024
 91
        1
280
     0
281
     0
  0
CLASS
  1
PARAMSCOPE
  2
AcAdParamScope
  3
DesignerServices
 90
     1024
 91
        1
280
     0
281
     0
  0
CLASS
  1
NAMEDAPPL
  2
AcAdNamedAppl
  3
DesignerServices
 90
     1024
 91
        1
280
     0
281
     0
  0
CLASS
  1
AMDTDMMENUSTATE
  2
AmdtDmMenuState
  3
AcMechDwgViewMgmt
 90
     1024
 91
        1
280
     0
281
     0
  0
CLASS
  1
MAPIADMODULE
  2
MApiAdModule
  3
MApiAdServices
 90
     1024
 91
        1
280
     0
281
     0
  0
CLASS
  1
AMDTAMMENUSTATE
  2
AmdtAmMenuState
  3
DesignerAssemblies
 90
     1024
 91
        1
280
     0
281
     0
  0
CLASS
  1
ACAMPROJECT
  2
AcAmProject
  3
DesignerAssemblies
 90
     1024
 91
        1
280
     0
281
     0
  0
CLASS
  1
ACAMGRCOMPDEF
  2
AcAmGrCompDef
  3
DesignerAssemblies
 90
     1024
 91
        1
280
     0
281
     0
  0
CLASS
  1
ACCMCONTEXT
  2
AcCmContext
  3
DesignerAssemblies
 90
     1024
 91
        1
280
     0
281
     0
  0
CLASS
  1
ACAMCOMPDEF
  2
AcAmCompDef
  3
DesignerAssemblies
 90
     1024
 91
        1
280
     0
281
     0
  0
CLASS
  1
ACAMCOMPDEFMGR
  2
AcAmCompDefMgr
  3
DesignerAssemblies
 90
     1024
 91
        1
280
     0
281
     0
  0
CLASS
  1
AMCONTEXTMGR
  2
AcAmContextMgr
  3
DesignerAssemblies
 90
     1024
 91
        1
280
     0
281
     0
  0
CLASS
  1
ACAMCONTEXTMODELER
  2
AcAmContextModeler
  3
DesignerAssemblies
 90
     1024
 91
        1
280
     0
281
     0
  0
CLASS
  1
ACMDATADICTIONARY
  2
AcmDataDictionary
  3
"AcmSymBB|Product Description: AutoCAD Mechanical|Company: Autodesk, Inc."
 90
     1024
 91
        1
280
     0
281
     0
  0
CLASS
  1
ACMDATAENTRYBLOCK
  2
AcmDataEntryBlock
  3
AcmSymBB|Product Description: AutoCAD Mechanical|Company: Autodesk, Inc.
 90
     1024
 91
        2
280
     0
281
     0
  0
CLASS
  1
ACRFATTGENMGR
  2
AcRfAttGeneralMgr
  3
AcAttribServices
 90
     1024
 91
        1
280
     0
281
     0
  0
CLASS
  1
ACRFOBJATTMGR
  2
AcRfObjAttGroupMgr
  3
AcAttribServices
 90
     1024
 91
        1
280
     0
281
     0
  0
CLASS
  1
ACRFMCADAPIATTHOLDER
  2
AcRfMCADAPIAttHolder
  3
AcAttribServices
 90
     1024
 91
        1
280
     0
281
     0
  0
CLASS
  1
AMDTSYSATTR
  2
AmdtSystemAttribute
  3
AcAttribServices
 90
     1024
 91
        1
280
     0
281
     0
  0
CLASS
  1
CATALOGSTATE
  2
AcAmCatalogState
  3
DesignerAssemblies
 90
     1024
 91
        1
280
     0
281
     0
  0
CLASS
  1
ACAMGRCOMPDEFSET
  2
AcAmGrCompDefSet
  3
DesignerAssemblies
 90
     1024
 91
        1
280
     0
281
     0
  0
CLASS
  1
AMDTBROWSERDBTAB
  2
AmdtBrowserDbTab
  3
McadcomServices
 90
     1024
 91
        1
280
     0
281
     0
  0
CLASS
  1
CBROWSERAPPOBJECT
  2
CBrowserAppObject
  3
McadcomServices
 90
     1024
 91
        3
280
     0
281
     0
  0
CLASS
  1
DM_PLACEHOLDER
  2
AcDmSelsetPlaceholder
  3
AcMechDwgViewMgmt
 90
     1024
 91
        1
280
     0
281
     0
  0
CLASS
  1
ACMSTANDARDANSI
  2
AcmStandardANSI
  3
"Amdt_StdImp|Product Description: AutoCAD Mechanical|Company: Autodesk, Inc."
 90
     1024
 91
        1
280
     0
281
     0
  0
CLASS
  1
ACMSURFSTANDARDANSI
  2
AcmSurfTextStdANSI
  3
"Amdt_StdImp|Product Description: AutoCAD Mechanical|Company: Autodesk, Inc."
 90
     1024
 91
        1
280
     0
281
     0
  0
CLASS
  1
ACMFCFSTANDARDANSI
  2
AcmFCFStdANSI
  3
"Amdt_StdImp|Product Description: AutoCAD Mechanical|Company: Autodesk, Inc."
 90
     1024
 91
        1
280
     0
281
     0
  0
CLASS
  1
ACMWELDSTANDARDANSI
  2
AcmWeldingStdANSI
  3
"Amdt_StdImp|Product Description: AutoCAD Mechanical|Company: Autodesk, Inc."
 90
     1024
 91
        1
280
     0
281
     0
  0
CLASS
  1
ACMIDSTANDARDANSI
  2
AcmIdStdANSI
  3
"Amdt_StdImp|Product Description: AutoCAD Mechanical|Company: Autodesk, Inc."
 90
     1024
 91
        1
280
     0
281
     0
  0
CLASS
  1
ACMDATUMSTANDARDANSI
  2
AcmDatumStdANSI
  3
"Amdt_StdImp|Product Description: AutoCAD Mechanical|Company: Autodesk, Inc."
 90
     1024
 91
        1
280
     0
281
     0
  0
CLASS
  1
ACMBOMSTANDARDANSI
  2
AcmBOMStdANSI
  3
"Amdt_StdImp|Product Description: AutoCAD Mechanical|Company: Autodesk, Inc."
 90
     1024
 91
        1
280
     0
281
     0
  0
CLASS
  1
ACMDETAILSTANDARDANSI
  2
AmdtDetailSymStdANSI
  3
"Amdt_StdImp|Product Description: AutoCAD Mechanical|Company: Autodesk, Inc."
 90
     1024
 91
        1
280
     0
281
     0
  0
CLASS
  1
ACMSECTIONSTANDARDANSI
  2
AmdtSectionSymStdANSI
  3
"Amdt_StdImp|Product Description: AutoCAD Mechanical|Company: Autodesk, Inc."
 90
     1024
 91
        1
280
     0
281
     0
  0
CLASS
  1
ACMCENTERLINESTANDARDANSI
  2
AmdtCenterLineStdANSI
  3
"Amdt_StdImp|Product Description: AutoCAD Mechanical|Company: Autodesk, Inc."
 90
     1024
 91
        1
280
     0
281
     0
  0
CLASS
  1
ACMTHREADLINESTANDARDANSI
  2
AmdtThreadLineStdANSI
  3
"Amdt_StdImp|Product Description: AutoCAD Mechanical|Company: Autodesk, Inc."
 90
     1024
 91
        1
280
     0
281
     0
  0
CLASS
  1
ACMNOTESTANDARDANSI
  2
AmdtNoteStdANSI
  3
"Amdt_StdImp|Product Description: AutoCAD Mechanical|Company: Autodesk, Inc."
 90
     1024
 91
        1
280
     0
281
     0
  0
CLASS
  1
ACMTAPERSTANDARDANSI
  2
AcmTaperStdANSI
  3
"Amdt_StdImp|Product Description: AutoCAD Mechanical|Company: Autodesk, Inc."
 90
     1024
 91
        1
280
     0
281
     0
  0
CLASS
  1
ACMANOOTATIONVIEWSTANDARDANSI
  2
AmdtAnViewStdANSI
  3
"Amdt_StdImp|Product Description: AutoCAD Mechanical|Company: Autodesk, Inc."
 90
     1024
 91
        1
280
     0
281
     0
  0
CLASS
  1
ACAMGLAYSTD
  2
AcAmgLayStd
  3
"AmgLay|Product Description: AutoCAD Mechanical|Company: Autodesk, Inc."
 90
     1024
 91
        1
280
     0
281
     0
  0
CLASS
  1
ACAMGDIMSTD
  2
AcAmgDimStd
  3
"AmgDim|Product Description: AutoCAD Mechanical|Company: Autodesk, Inc."
 90
     1024
 91
        1
280
     0
281
     0
  0
CLASS
  1
ACAMGHOLECHARTSTDANSI
  2
AcAmgHoleChartStdANSI
  3
AmgDim|Product Description: AutoCAD Mechanical|Company: Autodesk, Inc.
 90
     1024
 91
        1
280
     0
281
     0
  0
CLASS
  1
AMGOBJPROPCFG
  2
AmgObjPropCfg
  3
"AmgLay|Product Description: AutoCAD Mechanical|Company: Autodesk, Inc."
 90
     1025
 91
        1
280
     0
281
     0
  0
CLASS
  1
ACAMGTITLESTD
  2
AcAmgTitleStd
  3
"AmgTitle|Product Description: AutoCAD Mechanical|Company: Autodesk, Inc."
 90
     4095
 91
        1
280
     0
281
     0
  0
CLASS
  1
AMDTNOTETEMPLATEDB
  2
AmdtNoteTemplateDB
  3
AcmSymBB|Product Description: AutoCAD Mechanical|Company: Autodesk, Inc.
 90
     1024
 91
        6
280
     0
281
     0
  0
CLASS
  1
ACAMGFILTERDAT
  2
AcAmgFilterDat
  3
"AcadM|Product Description: AutoCAD Mechanical|Company: Autodesk, Inc."
 90
     1024
 91
        6
280
     0
281
     0
  0
CLASS
  1
LAYER_INDEX
  2
AcDbLayerIndex
  3
ObjectDBX Classes
 90
        0
 91
        1
280
     0
281
     0
  0
CLASS
  1
IDBUFFER
  2
AcDbIdBuffer
  3
ObjectDBX Classes
 90
        0
 91
       12
280
     0
281
     0
  0
CLASS
  1
DICTIONARYVAR
  2
AcDbDictionaryVar
  3
ObjectDBX Classes
 90
        0
 91
       10
280
     0
281
     0
  0
CLASS
  1
CELLSTYLEMAP
  2
AcDbCellStyleMap
  3
ObjectDBX Classes
 90
     1152
 91
        2
280
     0
281
     0
  0
CLASS
  1
SORTENTSTABLE
  2
AcDbSortentsTable
  3
ObjectDBX Classes
 90
        0
 91
        1
280
     0
281
     0
  0
ENDSEC
  0
SECTION
  2
TABLES
  0
TABLE
  2
VPORT
  5
28C7
330
0
100
AcDbSymbolTable
 70
     1
  0
VPORT
  5
2937
330
28C7
100
AcDbSymbolTableRecord
100
AcDbViewportTableRecord
  2
*ACTIVE
 70
     0
 10
0.0
 20
0.0
 11
1.0
 21
1.0
 12
349.8719892689587
 22
658.6532600441168
 13
0.0
 23
0.0
 14
1.0
 24
1.0
 15
0.0
 25
0.0
 16
0.0
 26
0.0
 36
1.0
 17
38.05527110653753
 27
34.76716069826761
 37
0.0
 40
2629.261686101474
 41
0.6333333333333333
 42
50.0
 43
0.0
 44
0.0
 50
0.0
 51
0.0
 71
     0
 72
   100
 73
     1
 74
     0
 75
     0
 76
     0
 77
     0
 78
     0
281
     0
 65
     0
110
0.0
120
0.0
130
0.0
111
1.0
121
0.0
131
0.0
112
0.0
122
1.0
132
0.0
 79
     0
146
0.0
348
28EE
 60
     3
 61
     5
292
     1
282
     1
141
0.0
142
0.0
 63
   250
421
  3355443
  0
ENDTAB
  0
TABLE
  2
LTYPE
  5
28C4
330
0
100
AcDbSymbolTable
 70
    20
  0
LTYPE
  5
2921
330
28C4
100
AcDbSymbolTableRecord
100
AcDbLinetypeTableRecord
  2
ByBlock
 70
     0
  3

 72
    65
 73
     0
 40
0.0
  0
LTYPE
  5
2922
330
28C4
100
AcDbSymbolTableRecord
100
AcDbLinetypeTableRecord
  2
ByLayer
 70
     0
  3

 72
    65
 73
     0
 40
0.0
  0
LTYPE
  5
2923
330
28C4
100
AcDbSymbolTableRecord
100
AcDbLinetypeTableRecord
  2
CONTINUOUS
 70
     0
  3
実線
 72
    65
 73
     0
 40
0.0
  0
LTYPE
  5
2938
330
28C4
100
AcDbSymbolTableRecord
100
AcDbLinetypeTableRecord
  2
DASHDOT
 70
     0
  3
____ _ ____ _ ____ _ ____ _ ____ _ ____ _ ____
 72
    65
 73
     4
 40
5.5
 49
4.0
 74
     0
 49
-0.6
 74
     0
 49
0.3
 74
     0
 49
-0.6
 74
     0
  0
LTYPE
  5
2939
330
28C4
100
AcDbSymbolTableRecord
100
AcDbLinetypeTableRecord
  2
HIDDEN
 70
     0
  3
Hidden __ __ __ __ __ __ __ __ __ __ __ __ __ _
 72
    65
 73
     2
 40
0.375
 49
0.25
 74
     0
 49
-0.125
 74
     0
  0
LTYPE
  5
293A
330
28C4
100
AcDbSymbolTableRecord
100
AcDbLinetypeTableRecord
  2
PHANTOM2
 70
     0
  3
Phantom (.5x) ___ _ _ ___ _ _ ___ _ _ ___ _ _
 72
    65
 73
     6
 40
1.25
 49
0.625
 74
     0
 49
-0.125
 74
     0
 49
0.125
 74
     0
 49
-0.125
 74
     0
 49
0.125
 74
     0
 49
-0.125
 74
     0
  0
LTYPE
  5
293B
330
28C4
100
AcDbSymbolTableRecord
100
AcDbLinetypeTableRecord
  2
CENTER
 70
     0
  3
Center ____ _ ____ _ ____ _ ____ _ ____ _ ____
 72
    65
 73
     4
 40
2.0
 49
1.25
 74
     0
 49
-0.25
 74
     0
 49
0.25
 74
     0
 49
-0.25
 74
     0
  0
LTYPE
  5
293C
330
28C4
100
AcDbSymbolTableRecord
100
AcDbLinetypeTableRecord
  2
ASULTYPE
 70
     0
  3
実線
 72
    65
 73
     2
 40
3.0
 49
2.5
 74
     0
 49
0.5
 74
     0
  0
LTYPE
  5
293D
330
28C4
100
AcDbSymbolTableRecord
100
AcDbLinetypeTableRecord
  2
ASVLTYPE
 70
     0
  3
__ __ __ __ __ __ __ __ __ __ __ __ __ __ __ __ __ __ __ __ __
 72
    65
 73
     2
 40
0.75
 49
0.5
 74
     0
 49
-0.25
 74
     0
  0
LTYPE
  5
293E
330
28C4
100
AcDbSymbolTableRecord
100
AcDbLinetypeTableRecord
  2
AM_ISO02W050
 70
     0
  3
__ __ __ __ __ __ __ __ __ __ __ __ __ __ __
 72
    65
 73
     2
 40
7.5
 49
6.0
 74
     0
 49
-1.5
 74
     0
  0
LTYPE
  5
293F
330
28C4
100
AcDbSymbolTableRecord
100
AcDbLinetypeTableRecord
  2
AM_ISO08W050
 70
     0
  3
____ . ____ . ____ . ____ . ____ . ____ . ____
 72
    65
 73
     4
 40
18.0
 49
12.0
 74
     0
 49
-1.5
 74
     0
 49
3.0
 74
     0
 49
-1.5
 74
     0
  0
LTYPE
  5
2940
330
28C4
100
AcDbSymbolTableRecord
100
AcDbLinetypeTableRecord
  2
AM_ISO09W050
 70
     0
  3
_____ . . _____ . . _____ . . ____ .. ____
 72
    65
 73
     6
 40
22.5
 49
12.0
 74
     0
 49
-1.5
 74
     0
 49
3.0
 74
     0
 49
-1.5
 74
     0
 49
3.0
 74
     0
 49
-1.5
 74
     0
  0
LTYPE
  5
2941
330
28C4
100
AcDbSymbolTableRecord
100
AcDbLinetypeTableRecord
  2
AMCONSTR
 70
     0
  3
_______________________
 72
    65
 73
     2
 40
9999.0
 49
9999.0
 74
     0
 49
0.0
 74
     0
  0
LTYPE
  5
2942
330
28C4
100
AcDbSymbolTableRecord
100
AcDbLinetypeTableRecord
  2
AM_ISO08W050X2
 70
     0
  3
__ . __ . __ . __ . __ . __
 72
    65
 73
     4
 40
9.0
 49
6.0
 74
     0
 49
-0.75
 74
     0
 49
1.5
 74
     0
 49
-0.75
 74
     0
  0
LTYPE
  5
2943
330
28C4
100
AcDbSymbolTableRecord
100
AcDbLinetypeTableRecord
  2
AM_ISO02W050X2
 70
     0
  3
 _ _ _ _ _ _ _ _ _ _ _ _
 72
    65
 73
     2
 40
3.75
 49
3.0
 74
     0
 49
-0.75
 74
     0
  0
LTYPE
  5
2944
330
28C4
100
AcDbSymbolTableRecord
100
AcDbLinetypeTableRecord
  2
AMZIGZAG
 70
     0
  3
/\/-/\/-/\/-/\/-/\/-/\/
 72
    65
 73
     2
 40
11.0001
 49
0.0001
 74
     0
 49
-11.0
 74
     0
  0
LTYPE
  5
2945
330
28C4
100
AcDbSymbolTableRecord
100
AcDbLinetypeTableRecord
  2
CENTER2
 70
     0
  3
Center (.5x) ___ _ ___ _ ___ _ ___ _ ___ _ ___
 72
    65
 73
     4
 40
1.125
 49
0.75
 74
     0
 49
-0.125
 74
     0
 49
0.125
 74
     0
 49
-0.125
 74
     0
  0
LTYPE
  5
2946
330
28C4
100
AcDbSymbolTableRecord
100
AcDbLinetypeTableRecord
  2
HIDDEN2
 70
     0
  3
Hidden (.5x) _ _ _ _ _ _ _ _ _ _ _ _ _ _ _ _ _
 72
    65
 73
     2
 40
0.1875
 49
0.125
 74
     0
 49
-0.0625
 74
     0
  0
LTYPE
  5
2947
330
28C4
100
AcDbSymbolTableRecord
100
AcDbLinetypeTableRecord
  2
AMZIGZAG2
 70
     0
  3
/\/-/\/-/\/-/\/-/\/-/\/
 72
    65
 73
     2
 40
0.4401
 49
0.0001
 74
     0
 49
-0.4400000000000003
 74
     0
  0
LTYPE
  5
2948
330
28C4
100
AcDbSymbolTableRecord
100
AcDbLinetypeTableRecord
  2
ACANSTGB
 70
     0
  3
__ . . __ . .
 72
    65
 73
     6
 40
0.35433070866
 49
0.15748031496
 74
     0
 49
-0.03937007874
 74
     0
 49
0.03937007874
 74
     0
 49
-0.03937007874
 74
     0
 49
0.03937007874
 74
     0
 49
-0.03937007874
 74
     0
  0
LTYPE
  5
2949
330
28C4
100
AcDbSymbolTableRecord
100
AcDbLinetypeTableRecord
  2
ACANSTGL
 70
     0
  3
_ _ _ _ _
 72
    65
 73
     2
 40
0.11811023622
 49
0.07874015748
 74
     0
 49
-0.03937007874
 74
     0
  0
ENDTAB
  0
TABLE
  2
LAYER
  5
28C1
102
{ACAD_XDICTIONARY
360
2C1A
102
}
330
0
100
AcDbSymbolTable
 70
    12
  0
LAYER
  5
291B
102
{ACAD_XDICTIONARY
360
2AF8
102
}
330
28C1
100
AcDbSymbolTableRecord
100
AcDbLayerTableRecord
  2
0
 70
     0
 62
     7
  6
CONTINUOUS
370
    -3
390
28CE
347
28E0
  0
LAYER
  5
294A
102
{ACAD_XDICTIONARY
360
2AFA
102
}
330
28C1
100
AcDbSymbolTableRecord
100
AcDbLayerTableRecord
  2
OUTLINE
 70
     0
 62
     3
  6
CONTINUOUS
370
    -3
390
28CE
347
28E0
  0
LAYER
  5
294B
102
{ACAD_XDICTIONARY
360
2AFC
102
}
330
28C1
100
AcDbSymbolTableRecord
100
AcDbLayerTableRecord
  2
SIZE
 70
     0
 62
    30
  6
CONTINUOUS
370
    -3
390
28CE
347
28E0
  0
LAYER
  5
294C
102
{ACAD_XDICTIONARY
360
2AFE
102
}
330
28C1
100
AcDbSymbolTableRecord
100
AcDbLayerTableRecord
  2
BASIS
 70
     0
 62
     6
  6
DASHDOT
370
    -3
390
28CE
347
28E0
  0
LAYER
  5
294D
102
{ACAD_XDICTIONARY
360
2B00
102
}
330
28C1
100
AcDbSymbolTableRecord
100
AcDbLayerTableRecord
  2
DETAIL
 70
     0
 62
     5
  6
CONTINUOUS
370
    -3
390
28CE
347
28E0
  0
LAYER
  5
294E
102
{ACAD_XDICTIONARY
360
2B02
102
}
330
28C1
100
AcDbSymbolTableRecord
100
AcDbLayerTableRecord
  2
ARRANGE
 70
     0
 62
     1
  6
CONTINUOUS
370
    -3
390
28CE
347
28E0
  0
LAYER
  5
294F
330
28C1
100
AcDbSymbolTableRecord
100
AcDbLayerTableRecord
  2
DEFPOINTS
 70
     0
 62
     7
  6
CONTINUOUS
290
     0
370
    -3
390
28CE
347
28E0
  0
LAYER
  5
2950
102
{ACAD_XDICTIONARY
360
2B04
102
}
330
28C1
100
AcDbSymbolTableRecord
100
AcDbLayerTableRecord
  2
ETC
 70
     0
 62
    61
  6
CONTINUOUS
370
    -3
390
28CE
347
28E0
  0
LAYER
  5
2951
102
{ACAD_XDICTIONARY
360
2B06
102
}
330
28C1
100
AcDbSymbolTableRecord
100
AcDbLayerTableRecord
  2
FIX
 70
     0
 62
    11
  6
CONTINUOUS
370
    -3
390
28CE
347
28E0
  0
LAYER
  5
2952
102
{ACAD_XDICTIONARY
360
2B08
102
}
330
28C1
100
AcDbSymbolTableRecord
100
AcDbLayerTableRecord
  2
NOTE
 70
     0
 62
     4
  6
CONTINUOUS
370
    -3
390
28CE
347
28E0
  0
LAYER
  5
2953
102
{ACAD_XDICTIONARY
360
2B0A
102
}
330
28C1
100
AcDbSymbolTableRecord
100
AcDbLayerTableRecord
  2
SERVICESPACE
 70
     0
 62
     2
  6
DASHDOT
370
    -3
390
28CE
347
28E0
  0
LAYER
  5
2954
102
{ACAD_XDICTIONARY
360
2B0C
102
}
330
28C1
100
AcDbSymbolTableRecord
100
AcDbLayerTableRecord
  2
SYMBOLLINE
 70
     0
 62
    15
  6
CONTINUOUS
370
    -3
390
28CE
347
28E0
  0
ENDTAB
  0
TABLE
  2
STYLE
  5
28C2
330
0
100
AcDbSymbolTable
 70
     5
  0
STYLE
  5
291C
330
28C2
100
AcDbSymbolTableRecord
100
AcDbTextStyleTableRecord
  2
STANDARD
 70
     0
 40
64.0
 41
0.9
 50
0.0
 71
     0
 42
64.0
  3
SIMPLEX.shx
  4
BIGFONT.shx
  0
STYLE
  5
2920
330
28C2
100
AcDbSymbolTableRecord
100
AcDbTextStyleTableRecord
  2
ANNOTATIVE
 70
     0
 40
0.0
 41
1.0
 50
0.0
 71
     0
 42
0.2
  3
txt
  4

1001
ACADANNOTATIVE
1000
AnnotativeData
1002
{
1070
     1
1070
     1
1002
}
  0
STYLE
  5
2955
330
28C2
100
AcDbSymbolTableRecord
100
AcDbTextStyleTableRecord
  2

 70
     1
 40
0.0
 41
1.0
 50
0.0
 71
     0
 42
64.0
  3
genltshp.shx
  4

  0
STYLE
  5
2956
330
28C2
100
AcDbSymbolTableRecord
100
AcDbTextStyleTableRecord
  2
ACANSTS
 70
     0
 40
1.0
 41
1.0
 50
0.0
 71
     0
 42
64.0
  3
romans.shx
  4
extfont.shx
  0
STYLE
  5
2957
330
28C2
100
AcDbSymbolTableRecord
100
AcDbTextStyleTableRecord
  2
ACANSGDT
 70
     0
 40
0.0
 41
1.0
 50
0.0
 71
     0
 42
64.0
  3
amgdt.shx
  4

  0
ENDTAB
  0
TABLE
  2
VIEW
  5
28C5
330
0
100
AcDbSymbolTable
 70
     1
  0
VIEW
  5
2958
330
28C5
100
AcDbSymbolTableRecord
100
AcDbViewTableRecord
  2
ALL
 70
     0
 40
4282.619807999997
 10
0.0
 20
41.30990399999999
 41
5940.0
 11
0.0
 21
0.0
 31
1.0
 12
0.0
 22
0.0
 32
0.0
 42
50.0
 43
0.0
 44
0.0
 50
0.0
 71
     0
281
     0
 72
     1
110
0.0
120
0.0
130
0.0
111
1.0
121
0.0
131
0.0
112
0.0
122
1.0
132
0.0
 79
     0
146
0.0
 73
     0
348
28EE
  0
ENDTAB
  0
TABLE
  2
UCS
  5
28C6
330
0
100
AcDbSymbolTable
 70
     0
  0
ENDTAB
  0
TABLE
  2
APPID
  5
28C8
330
0
100
AcDbSymbolTable
 70
    27
  0
APPID
  5
291D
330
28C8
100
AcDbSymbolTableRecord
100
AcDbRegAppTableRecord
  2
ACAD
 70
     0
  0
APPID
  5
2924
330
28C8
100
AcDbSymbolTableRecord
100
AcDbRegAppTableRecord
  2
ACADANNOTATIVE
 70
     0
  0
APPID
  5
292E
330
28C8
100
AcDbSymbolTableRecord
100
AcDbRegAppTableRecord
  2
ACAD_MLEADERVER
 70
     0
  0
APPID
  5
2959
330
28C8
100
AcDbSymbolTableRecord
100
AcDbRegAppTableRecord
  2
GENIUS_GENDIM_13
 70
     0
  0
APPID
  5
295A
330
28C8
100
AcDbSymbolTableRecord
100
AcDbRegAppTableRecord
  2
GENIUS_GENDTOL_13
 70
     0
  0
APPID
  5
295B
330
28C8
100
AcDbSymbolTableRecord
100
AcDbRegAppTableRecord
  2
GENIUS_GE3DTOL_13
 70
     0
  0
APPID
  5
295C
330
28C8
100
AcDbSymbolTableRecord
100
AcDbRegAppTableRecord
  2
MCAD_NO_VIS
 70
     0
  0
APPID
  5
295D
330
28C8
100
AcDbSymbolTableRecord
100
AcDbRegAppTableRecord
  2
ACAD_TEMP_GRAPHIC
 70
     0
  0
APPID
  5
295E
330
28C8
100
AcDbSymbolTableRecord
100
AcDbRegAppTableRecord
  2
AD_DRAW
 70
     0
  0
APPID
  5
295F
330
28C8
100
AcDbSymbolTableRecord
100
AcDbRegAppTableRecord
  2
ACATTRIBSERVICES
 70
     0
  0
APPID
  5
2960
330
28C8
100
AcDbSymbolTableRecord
100
AcDbRegAppTableRecord
  2
ASURF_PCURVE_APPNAME
 70
     0
  0
APPID
  5
2961
330
28C8
100
AcDbSymbolTableRecord
100
AcDbRegAppTableRecord
  2
AMG_3D2D_5_0
 70
     0
  0
APPID
  5
2962
330
28C8
100
AcDbSymbolTableRecord
100
AcDbRegAppTableRecord
  2
DESIGNERASSEMBLIES
 70
     0
  0
APPID
  5
2963
330
28C8
100
AcDbSymbolTableRecord
100
AcDbRegAppTableRecord
  2
ACADM_DIM_EDIT
 70
     0
  0
APPID
  5
2964
330
28C8
100
AcDbSymbolTableRecord
100
AcDbRegAppTableRecord
  2
AMDT_DM_ADJ
 70
     0
  0
APPID
  5
2965
330
28C8
100
AcDbSymbolTableRecord
100
AcDbRegAppTableRecord
  2
ACAD_DSTYLE_DIMARC_LENGTH_
 70
     0
  0
APPID
  5
2966
330
28C8
100
AcDbSymbolTableRecord
100
AcDbRegAppTableRecord
  2
ACAD_DSTYLE_DIMJOGGED_JOGA
 70
     0
  0
APPID
  5
2967
330
28C8
100
AcDbSymbolTableRecord
100
AcDbRegAppTableRecord
  2
ACAD_PSEXT
 70
     0
  0
APPID
  5
2968
330
28C8
100
AcDbSymbolTableRecord
100
AcDbRegAppTableRecord
  2
ACAD_EXEMPT_FROM_CAD_STANDARDS
 70
     0
  0
APPID
  5
2969
330
28C8
100
AcDbSymbolTableRecord
100
AcDbRegAppTableRecord
  2
ACAD_DSTYLE_DIMJAG
 70
     0
  0
APPID
  5
296A
330
28C8
100
AcDbSymbolTableRecord
100
AcDbRegAppTableRecord
  2
ACAD_DSTYLE_DIMTALN
 70
     0
  0
APPID
  5
2A98
330
28C8
100
AcDbSymbolTableRecord
100
AcDbRegAppTableRecord
  2
AMG_3D2D_5.0
 70
     0
  0
APPID
  5
2B35
330
28C8
100
AcDbSymbolTableRecord
100
AcDbRegAppTableRecord
  2
ACAD_DSTYLE_DIMARC_LENGTH_SYMBOL
 70
     0
  0
APPID
  5
2B36
330
28C8
100
AcDbSymbolTableRecord
100
AcDbRegAppTableRecord
  2
ACAD_DSTYLE_DIM_LINETYPE
 70
     0
  0
APPID
  5
2B37
330
28C8
100
AcDbSymbolTableRecord
100
AcDbRegAppTableRecord
  2
ACAD_DSTYLE_DIM_EXT1_LINETYPE
 70
     0
  0
APPID
  5
2B38
330
28C8
100
AcDbSymbolTableRecord
100
AcDbRegAppTableRecord
  2
ACAD_DSTYLE_DIM_EXT2_LINETYPE
 70
     0
  0
APPID
  5
2C19
330
28C8
100
AcDbSymbolTableRecord
100
AcDbRegAppTableRecord
  2
ACAD_DSTYLE_DIMJOGGED_JOGANGLE_SYMBOL
 70
     0
  0
ENDTAB
  0
TABLE
  2
DIMSTYLE
  5
28C9
330
0
100
AcDbSymbolTable
 70
    10
100
AcDbDimStyleTable
 71
     1
340
296B
  0
DIMSTYLE
105
291E
330
28C9
100
AcDbSymbolTableRecord
100
AcDbDimStyleTableRecord
  2
STANDARD
 70
     0
 41
12.0
 42
20.0
 44
20.0
 77
     1
 78
     8
140
64.0
141
0.0
147
10.0
275
     1
279
     2
284
     7
285
     7
286
     7
340
291C
  0
DIMSTYLE
105
291F
330
28C9
100
AcDbSymbolTableRecord
100
AcDbDimStyleTableRecord
  2
ANNOTATIVE
 70
     0
275
     1
279
     2
284
     7
285
     7
286
     7
340
291C
1001
ACADANNOTATIVE
1000
AnnotativeData
1002
{
1070
     1
1070
     1
1002
}
  0
DIMSTYLE
105
296B
330
28C9
100
AcDbSymbolTableRecord
100
AcDbDimStyleTableRecord
  2
AM_ANSI
 70
     0
  4
mm
 41
0.12
 42
0.05
 43
0.5
 44
0.1
 47
0.1
 48
0.1
 78
     7
 79
     2
 90
     1
140
0.12
141
0.0
146
0.71
147
0.06
176
   256
177
   256
178
     2
274
     4
284
     7
340
291C
345
2921
346
2921
347
2921
371
    -1
372
    -1
  0
DIMSTYLE
105
296C
330
28C9
100
AcDbSymbolTableRecord
100
AcDbDimStyleTableRecord
  2
AM_ANSI$3
 70
     0
  4
mm
 41
0.12
 42
0.05
 43
0.5
 44
0.1
 47
0.1
 48
0.1
 78
     7
 79
     2
 90
     1
140
0.12
141
0.0
146
0.71
147
0.06
176
   256
177
   256
178
     2
274
     4
284
     7
288
     1
289
     0
340
291C
345
2921
346
2921
347
2921
371
    -1
372
    -1
  0
DIMSTYLE
105
296D
330
28C9
100
AcDbSymbolTableRecord
100
AcDbDimStyleTableRecord
  2
AM_ANSI$4
 70
     0
  4
mm
 41
0.12
 42
0.05
 43
0.5
 44
0.1
 47
0.1
 48
0.1
 78
     7
 79
     2
 90
     1
140
0.12
141
0.0
146
0.71
147
0.06
176
   256
177
   256
178
     2
274
     4
284
     7
340
291C
345
2921
346
2921
347
2921
371
    -1
372
    -1
  0
DIMSTYLE
105
296E
330
28C9
100
AcDbSymbolTableRecord
100
AcDbDimStyleTableRecord
  2
AM_ANSI$7
 70
     0
  4
mm
 41
0.12
 42
0.05
 43
0.5
 44
0.1
 47
0.1
 48
0.1
 78
     7
 79
     2
 90
     1
140
0.12
141
0.0
146
0.71
147
0.06
176
   256
177
   256
178
     2
274
     4
284
     7
340
291C
345
2921
346
2921
347
2921
371
    -1
372
    -1
  0
DIMSTYLE
105
296F
330
28C9
100
AcDbSymbolTableRecord
100
AcDbDimStyleTableRecord
  2
AM_ANSI$SF
 70
     0
  4
mm
 41
0.12
 42
0.05
 43
0.5
 44
0.1
 47
0.1
 48
0.1
 75
     1
 76
     1
 78
     7
 79
     2
 90
     1
140
0.12
141
0.0
146
0.71
147
0.06
176
   256
177
   256
178
     2
274
     4
284
     7
340
291C
345
2921
346
2921
347
2921
371
    -1
372
    -1
  0
DIMSTYLE
105
2970
330
28C9
100
AcDbSymbolTableRecord
100
AcDbDimStyleTableRecord
  2
AM_ANSI$SH
 70
     0
  4
mm
 41
0.12
 42
0.05
 43
0.5
 44
0.1
 47
0.1
 48
0.1
 75
     1
 76
     1
 78
     7
 79
     2
 90
     1
140
0.12
141
0.0
146
0.71
147
0.06
173
     1
176
   256
177
   256
178
     2
274
     4
284
     7
340
291C
343
2990
345
2921
346
2921
347
2921
371
    -1
372
    -1
  0
DIMSTYLE
105
2971
330
28C9
100
AcDbSymbolTableRecord
100
AcDbDimStyleTableRecord
  2
STANDARD1
 70
     0
 40
6.0
 41
2.5
 42
0.625
 43
6.0
 44
1.25
 47
1.0
 48
0.5
 77
     1
 78
     8
140
2.5
141
0.0
146
0.6
147
1.0
173
     1
275
     1
279
     2
284
     7
285
     7
286
     7
340
291C
  0
DIMSTYLE
105
2972
330
28C9
100
AcDbSymbolTableRecord
100
AcDbDimStyleTableRecord
  2
STANDARD$0
 70
     0
 41
12.0
 42
20.0
 44
20.0
 73
     0
 74
     0
 77
     1
 78
     8
140
64.0
141
0.0
147
10.0
275
     1
279
     2
284
     7
285
     7
286
     7
340
291C
  0
ENDTAB
  0
TABLE
  2
BLOCK_RECORD
  5
28C0
330
0
100
AcDbSymbolTable
 70
    80
  0
BLOCK_RECORD
  5
2933
102
{ACAD_XDICTIONARY
360
2B0E
102
}
330
28C0
100
AcDbSymbolTableRecord
100
AcDbBlockTableRecord
  2
*Model_Space
340
2936
 70
     0
280
     1
281
     0
  0
BLOCK_RECORD
  5
292F
330
28C0
100
AcDbSymbolTableRecord
100
AcDbBlockTableRecord
  2
*Paper_Space
340
2932
 70
     0
280
     1
281
     0
  0
BLOCK_RECORD
  5
297A
330
28C0
100
AcDbSymbolTableRecord
100
AcDbBlockTableRecord
  2
$MODEL_SPACE
340
0
 70
     0
280
     1
281
     0
  0
BLOCK_RECORD
  5
297C
330
28C0
100
AcDbSymbolTableRecord
100
AcDbBlockTableRecord
  2
$PAPER_SPACE
340
0
 70
     0
280
     1
281
     0
  0
BLOCK_RECORD
  5
297E
330
28C0
100
AcDbSymbolTableRecord
100
AcDbBlockTableRecord
  2
_ORIGIN
340
0
 70
     0
280
     1
281
     0
  0
BLOCK_RECORD
  5
2980
330
28C0
100
AcDbSymbolTableRecord
100
AcDbBlockTableRecord
  2
_DOTBLANK
340
0
102
{BLKREFS
331
1299
331
129A
331
11AA
331
11AB
331
E80
331
E81
331
1123
331
1124
331
11C2
331
11C3
331
11EC
331
11ED
331
11F9
331
11FA
331
1287
331
1288
331
1417
331
1418
331
1423
331
1424
331
142F
331
1430
331
143B
331
143C
331
166E
331
166F
331
1677
331
1678
331
1680
331
1681
331
1689
331
168A
331
1696
331
1697
331
16A3
331
16A4
331
16AF
331
16B0
331
16BB
331
16BC
331
16C7
331
16C8
331
16D3
331
16D4
331
1D86
331
1D87
331
1D8F
331
1D90
331
1D98
331
1D99
331
1DA1
331
1DA2
331
1DAB
331
1DAC
331
1DB5
331
1DB6
331
2C29
331
2C2A
331
2C2F
331
2C30
331
2C35
331
2C36
331
2C3B
331
2C3C
331
2C62
331
2C63
331
2C6A
331
2C6B
331
2D29
331
2D2A
331
2D2F
331
2D30
331
2D35
331
2D36
331
2D3B
331
2D3C
331
2D62
331
2D63
331
2D6A
331
2D6B
102
}
 70
     0
280
     1
281
     0
  0
BLOCK_RECORD
  5
2982
330
28C0
100
AcDbSymbolTableRecord
100
AcDbBlockTableRecord
  2
_OPEN30
340
0
102
{BLKREFS
331
2087
331
215D
331
2234
331
2327
331
2454
331
2585
331
2C4D
331
2D4D
102
}
 70
     0
280
     1
281
     0
  0
BLOCK_RECORD
  5
2984
330
28C0
100
AcDbSymbolTableRecord
100
AcDbBlockTableRecord
  2
*D5
340
0
 70
     0
280
     1
281
     0
  0
BLOCK_RECORD
  5
2986
330
28C0
100
AcDbSymbolTableRecord
100
AcDbBlockTableRecord
  2
*U6
340
0
102
{BLKREFS
331
129B
102
}
 70
     0
280
     1
281
     0
  0
BLOCK_RECORD
  5
2988
330
28C0
100
AcDbSymbolTableRecord
100
AcDbBlockTableRecord
  2
*D7
340
0
 70
     0
280
     1
281
     0
  0
BLOCK_RECORD
  5
298A
330
28C0
100
AcDbSymbolTableRecord
100
AcDbBlockTableRecord
  2
*U8
340
0
102
{BLKREFS
331
11AC
102
}
 70
     0
280
     1
281
     0
  0
BLOCK_RECORD
  5
298C
330
28C0
100
AcDbSymbolTableRecord
100
AcDbBlockTableRecord
  2
*D9
340
0
 70
     0
280
     1
281
     0
  0
BLOCK_RECORD
  5
298E
330
28C0
100
AcDbSymbolTableRecord
100
AcDbBlockTableRecord
  2
*U10
340
0
102
{BLKREFS
331
E82
102
}
 70
     0
280
     1
281
     0
  0
BLOCK_RECORD
  5
2990
330
28C0
100
AcDbSymbolTableRecord
100
AcDbBlockTableRecord
  2
GENAXEH
340
0
 70
     0
280
     1
281
     0
  0
BLOCK_RECORD
  5
2992
330
28C0
100
AcDbSymbolTableRecord
100
AcDbBlockTableRecord
  2
*D12
340
0
 70
     0
280
     1
281
     0
  0
BLOCK_RECORD
  5
2994
330
28C0
100
AcDbSymbolTableRecord
100
AcDbBlockTableRecord
  2
*U13
340
0
102
{BLKREFS
331
1125
102
}
 70
     0
280
     1
281
     0
  0
BLOCK_RECORD
  5
2996
330
28C0
100
AcDbSymbolTableRecord
100
AcDbBlockTableRecord
  2
*D14
340
0
 70
     0
280
     1
281
     0
  0
BLOCK_RECORD
  5
2998
330
28C0
100
AcDbSymbolTableRecord
100
AcDbBlockTableRecord
  2
*U15
340
0
102
{BLKREFS
331
11C4
102
}
 70
     0
280
     1
281
     0
  0
BLOCK_RECORD
  5
299A
330
28C0
100
AcDbSymbolTableRecord
100
AcDbBlockTableRecord
  2
*D16
340
0
 70
     0
280
     1
281
     0
  0
BLOCK_RECORD
  5
299C
330
28C0
100
AcDbSymbolTableRecord
100
AcDbBlockTableRecord
  2
*U17
340
0
102
{BLKREFS
331
11EE
102
}
 70
     0
280
     1
281
     0
  0
BLOCK_RECORD
  5
299E
330
28C0
100
AcDbSymbolTableRecord
100
AcDbBlockTableRecord
  2
*D18
340
0
 70
     0
280
     1
281
     0
  0
BLOCK_RECORD
  5
29A0
330
28C0
100
AcDbSymbolTableRecord
100
AcDbBlockTableRecord
  2
*U19
340
0
102
{BLKREFS
331
11FB
102
}
 70
     0
280
     1
281
     0
  0
BLOCK_RECORD
  5
29A2
330
28C0
100
AcDbSymbolTableRecord
100
AcDbBlockTableRecord
  2
*D20
340
0
 70
     0
280
     1
281
     0
  0
BLOCK_RECORD
  5
29A4
330
28C0
100
AcDbSymbolTableRecord
100
AcDbBlockTableRecord
  2
*U21
340
0
102
{BLKREFS
331
1289
102
}
 70
     0
280
     1
281
     0
  0
BLOCK_RECORD
  5
29A6
330
28C0
100
AcDbSymbolTableRecord
100
AcDbBlockTableRecord
  2
*D22
340
0
 70
     0
280
     1
281
     0
  0
BLOCK_RECORD
  5
29A8
330
28C0
100
AcDbSymbolTableRecord
100
AcDbBlockTableRecord
  2
*U23
340
0
102
{BLKREFS
331
1419
102
}
 70
     0
280
     1
281
     0
  0
BLOCK_RECORD
  5
29AA
330
28C0
100
AcDbSymbolTableRecord
100
AcDbBlockTableRecord
  2
*D24
340
0
 70
     0
280
     1
281
     0
  0
BLOCK_RECORD
  5
29AC
330
28C0
100
AcDbSymbolTableRecord
100
AcDbBlockTableRecord
  2
*U25
340
0
102
{BLKREFS
331
1425
102
}
 70
     0
280
     1
281
     0
  0
BLOCK_RECORD
  5
29AE
330
28C0
100
AcDbSymbolTableRecord
100
AcDbBlockTableRecord
  2
*D26
340
0
 70
     0
280
     1
281
     0
  0
BLOCK_RECORD
  5
29B0
330
28C0
100
AcDbSymbolTableRecord
100
AcDbBlockTableRecord
  2
*U27
340
0
102
{BLKREFS
331
1431
102
}
 70
     0
280
     1
281
     0
  0
BLOCK_RECORD
  5
29B2
330
28C0
100
AcDbSymbolTableRecord
100
AcDbBlockTableRecord
  2
*D28
340
0
 70
     0
280
     1
281
     0
  0
BLOCK_RECORD
  5
29B4
330
28C0
100
AcDbSymbolTableRecord
100
AcDbBlockTableRecord
  2
*U29
340
0
102
{BLKREFS
331
143D
102
}
 70
     0
280
     1
281
     0
  0
BLOCK_RECORD
  5
29B6
330
28C0
100
AcDbSymbolTableRecord
100
AcDbBlockTableRecord
  2
*D30
340
0
 70
     0
280
     1
281
     0
  0
BLOCK_RECORD
  5
29B8
330
28C0
100
AcDbSymbolTableRecord
100
AcDbBlockTableRecord
  2
*U31
340
0
102
{BLKREFS
331
1670
102
}
 70
     0
280
     1
281
     0
  0
BLOCK_RECORD
  5
29BA
330
28C0
100
AcDbSymbolTableRecord
100
AcDbBlockTableRecord
  2
*D32
340
0
 70
     0
280
     1
281
     0
  0
BLOCK_RECORD
  5
29BC
330
28C0
100
AcDbSymbolTableRecord
100
AcDbBlockTableRecord
  2
*U33
340
0
102
{BLKREFS
331
1679
102
}
 70
     0
280
     1
281
     0
  0
BLOCK_RECORD
  5
29BE
330
28C0
100
AcDbSymbolTableRecord
100
AcDbBlockTableRecord
  2
*D34
340
0
 70
     0
280
     1
281
     0
  0
BLOCK_RECORD
  5
29C0
330
28C0
100
AcDbSymbolTableRecord
100
AcDbBlockTableRecord
  2
*U35
340
0
102
{BLKREFS
331
1682
102
}
 70
     0
280
     1
281
     0
  0
BLOCK_RECORD
  5
29C2
330
28C0
100
AcDbSymbolTableRecord
100
AcDbBlockTableRecord
  2
*D36
340
0
 70
     0
280
     1
281
     0
  0
BLOCK_RECORD
  5
29C4
330
28C0
100
AcDbSymbolTableRecord
100
AcDbBlockTableRecord
  2
*U37
340
0
102
{BLKREFS
331
168B
102
}
 70
     0
280
     1
281
     0
  0
BLOCK_RECORD
  5
29C6
330
28C0
100
AcDbSymbolTableRecord
100
AcDbBlockTableRecord
  2
*U38
340
0
 70
     0
280
     1
281
     0
  0
BLOCK_RECORD
  5
29C8
330
28C0
100
AcDbSymbolTableRecord
100
AcDbBlockTableRecord
  2
*D39
340
0
 70
     0
280
     1
281
     0
  0
BLOCK_RECORD
  5
29CA
330
28C0
100
AcDbSymbolTableRecord
100
AcDbBlockTableRecord
  2
*U40
340
0
102
{BLKREFS
331
1698
102
}
 70
     0
280
     1
281
     0
  0
BLOCK_RECORD
  5
29CC
330
28C0
100
AcDbSymbolTableRecord
100
AcDbBlockTableRecord
  2
*D41
340
0
 70
     0
280
     1
281
     0
  0
BLOCK_RECORD
  5
29CE
330
28C0
100
AcDbSymbolTableRecord
100
AcDbBlockTableRecord
  2
*U42
340
0
102
{BLKREFS
331
16A5
102
}
 70
     0
280
     1
281
     0
  0
BLOCK_RECORD
  5
29D0
330
28C0
100
AcDbSymbolTableRecord
100
AcDbBlockTableRecord
  2
*D43
340
0
 70
     0
280
     1
281
     0
  0
BLOCK_RECORD
  5
29D2
330
28C0
100
AcDbSymbolTableRecord
100
AcDbBlockTableRecord
  2
*U44
340
0
102
{BLKREFS
331
16B1
102
}
 70
     0
280
     1
281
     0
  0
BLOCK_RECORD
  5
29D4
330
28C0
100
AcDbSymbolTableRecord
100
AcDbBlockTableRecord
  2
*D45
340
0
 70
     0
280
     1
281
     0
  0
BLOCK_RECORD
  5
29D6
330
28C0
100
AcDbSymbolTableRecord
100
AcDbBlockTableRecord
  2
*U46
340
0
102
{BLKREFS
331
16BD
102
}
 70
     0
280
     1
281
     0
  0
BLOCK_RECORD
  5
29D8
330
28C0
100
AcDbSymbolTableRecord
100
AcDbBlockTableRecord
  2
*D47
340
0
 70
     0
280
     1
281
     0
  0
BLOCK_RECORD
  5
29DA
330
28C0
100
AcDbSymbolTableRecord
100
AcDbBlockTableRecord
  2
*U48
340
0
102
{BLKREFS
331
16C9
102
}
 70
     0
280
     1
281
     0
  0
BLOCK_RECORD
  5
29DC
330
28C0
100
AcDbSymbolTableRecord
100
AcDbBlockTableRecord
  2
*D49
340
0
 70
     0
280
     1
281
     0
  0
BLOCK_RECORD
  5
29DE
330
28C0
100
AcDbSymbolTableRecord
100
AcDbBlockTableRecord
  2
*U50
340
0
102
{BLKREFS
331
16D5
102
}
 70
     0
280
     1
281
     0
  0
BLOCK_RECORD
  5
29E0
330
28C0
100
AcDbSymbolTableRecord
100
AcDbBlockTableRecord
  2
*D51
340
0
 70
     0
280
     1
281
     0
  0
BLOCK_RECORD
  5
29E2
330
28C0
100
AcDbSymbolTableRecord
100
AcDbBlockTableRecord
  2
*U52
340
0
102
{BLKREFS
331
1D88
102
}
 70
     0
280
     1
281
     0
  0
BLOCK_RECORD
  5
29E4
330
28C0
100
AcDbSymbolTableRecord
100
AcDbBlockTableRecord
  2
*D53
340
0
 70
     0
280
     1
281
     0
  0
BLOCK_RECORD
  5
29E6
330
28C0
100
AcDbSymbolTableRecord
100
AcDbBlockTableRecord
  2
*U54
340
0
102
{BLKREFS
331
1D91
102
}
 70
     0
280
     1
281
     0
  0
BLOCK_RECORD
  5
29E8
330
28C0
100
AcDbSymbolTableRecord
100
AcDbBlockTableRecord
  2
*D55
340
0
 70
     0
280
     1
281
     0
  0
BLOCK_RECORD
  5
29EA
330
28C0
100
AcDbSymbolTableRecord
100
AcDbBlockTableRecord
  2
*U56
340
0
102
{BLKREFS
331
1D9A
102
}
 70
     0
280
     1
281
     0
  0
BLOCK_RECORD
  5
29EC
330
28C0
100
AcDbSymbolTableRecord
100
AcDbBlockTableRecord
  2
*D57
340
0
 70
     0
280
     1
281
     0
  0
BLOCK_RECORD
  5
29EE
330
28C0
100
AcDbSymbolTableRecord
100
AcDbBlockTableRecord
  2
*U58
340
0
102
{BLKREFS
331
1DA3
102
}
 70
     0
280
     1
281
     0
  0
BLOCK_RECORD
  5
29F0
330
28C0
100
AcDbSymbolTableRecord
100
AcDbBlockTableRecord
  2
*D59
340
0
 70
     0
280
     1
281
     0
  0
BLOCK_RECORD
  5
29F2
330
28C0
100
AcDbSymbolTableRecord
100
AcDbBlockTableRecord
  2
*U60
340
0
102
{BLKREFS
331
1DAD
102
}
 70
     0
280
     1
281
     0
  0
BLOCK_RECORD
  5
29F4
330
28C0
100
AcDbSymbolTableRecord
100
AcDbBlockTableRecord
  2
*D61
340
0
 70
     0
280
     1
281
     0
  0
BLOCK_RECORD
  5
29F6
330
28C0
100
AcDbSymbolTableRecord
100
AcDbBlockTableRecord
  2
*U62
340
0
102
{BLKREFS
331
1DB7
102
}
 70
     0
280
     1
281
     0
  0
BLOCK_RECORD
  5
29F8
330
28C0
100
AcDbSymbolTableRecord
100
AcDbBlockTableRecord
  2
*U63
340
0
 70
     0
280
     1
281
     0
  0
BLOCK_RECORD
  5
29FA
330
28C0
100
AcDbSymbolTableRecord
100
AcDbBlockTableRecord
  2
*U64
340
0
 70
     0
280
     1
281
     0
  0
BLOCK_RECORD
  5
29FC
330
28C0
100
AcDbSymbolTableRecord
100
AcDbBlockTableRecord
  2
*U65
340
0
 70
     0
280
     1
281
     0
  0
BLOCK_RECORD
  5
29FE
330
28C0
100
AcDbSymbolTableRecord
100
AcDbBlockTableRecord
  2
*U66
340
0
 70
     0
280
     1
281
     0
  0
BLOCK_RECORD
  5
2A00
330
28C0
100
AcDbSymbolTableRecord
100
AcDbBlockTableRecord
  2
*U67
340
0
 70
     0
280
     1
281
     0
  0
BLOCK_RECORD
  5
2A02
330
28C0
100
AcDbSymbolTableRecord
100
AcDbBlockTableRecord
  2
*U68
340
0
 70
     0
280
     1
281
     0
  0
BLOCK_RECORD
  5
2A04
330
28C0
100
AcDbSymbolTableRecord
100
AcDbBlockTableRecord
  2
*U69
340
0
 70
     0
280
     1
281
     0
  0
BLOCK_RECORD
  5
2A06
330
28C0
100
AcDbSymbolTableRecord
100
AcDbBlockTableRecord
  2
*U70
340
0
 70
     0
280
     1
281
     0
  0
BLOCK_RECORD
  5
2A08
330
28C0
100
AcDbSymbolTableRecord
100
AcDbBlockTableRecord
  2
*U71
340
0
 70
     0
280
     1
281
     0
  0
BLOCK_RECORD
  5
2A0A
330
28C0
100
AcDbSymbolTableRecord
100
AcDbBlockTableRecord
  2
*U72
340
0
 70
     0
280
     1
281
     0
  0
BLOCK_RECORD
  5
2A0C
330
28C0
100
AcDbSymbolTableRecord
100
AcDbBlockTableRecord
  2
*U73
340
0
 70
     0
280
     1
281
     0
  0
BLOCK_RECORD
  5
2A0E
330
28C0
100
AcDbSymbolTableRecord
100
AcDbBlockTableRecord
  2
*U74
340
0
 70
     0
280
     1
281
     0
  0
BLOCK_RECORD
  5
2A10
330
28C0
100
AcDbSymbolTableRecord
100
AcDbBlockTableRecord
  2
*U75
340
0
 70
     0
280
     1
281
     0
  0
BLOCK_RECORD
  5
2A12
330
28C0
100
AcDbSymbolTableRecord
100
AcDbBlockTableRecord
  2
*X76
340
0
 70
     0
280
     1
281
     0
  0
BLOCK_RECORD
  5
2A14
330
28C0
100
AcDbSymbolTableRecord
100
AcDbBlockTableRecord
  2
*X77
340
0
 70
     0
280
     1
281
     0
  0
BLOCK_RECORD
  5
2BE8
330
28C0
100
AcDbSymbolTableRecord
100
AcDbBlockTableRecord
  2
*U78
340
0
 70
     0
280
     1
281
     0
  0
ENDTAB
  0
ENDSEC
  0
SECTION
  2
BLOCKS
  0
BLOCK
  5
2934
330
2933
100
AcDbEntity
  8
0
100
AcDbBlockBegin
  2
*Model_Space
 70
     0
 10
0.0
 20
0.0
 30
0.0
  3
*Model_Space
  1

  0
ENDBLK
  5
2935
330
2933
100
AcDbEntity
  8
0
100
AcDbBlockEnd
  0
BLOCK
  5
2930
330
292F
100
AcDbEntity
 67
     1
  8
0
100
AcDbBlockBegin
  2
*Paper_Space
 70
     0
 10
0.0
 20
0.0
 30
0.0
  3
*Paper_Space
  1

  0
ENDBLK
  5
2931
330
292F
100
AcDbEntity
 67
     1
  8
0
100
AcDbBlockEnd
  0
BLOCK
  5
297B
330
297A
100
AcDbEntity
  8
0
100
AcDbBlockBegin
  2
$MODEL_SPACE
 70
     0
 10
0.0
 20
0.0
 30
0.0
  3
$MODEL_SPACE
  1

  0
ENDBLK
  5
279A
330
297A
100
AcDbEntity
  8
0
100
AcDbBlockEnd
  0
BLOCK
  5
297D
330
297C
100
AcDbEntity
  8
0
100
AcDbBlockBegin
  2
$PAPER_SPACE
 70
     0
 10
0.0
 20
0.0
 30
0.0
  3
$PAPER_SPACE
  1

  0
ENDBLK
  5
2796
330
297C
100
AcDbEntity
  8
0
100
AcDbBlockEnd
  0
BLOCK
  5
297F
330
297E
100
AcDbEntity
  8
0
100
AcDbBlockBegin
  2
_ORIGIN
 70
     0
 10
0.0
 20
0.0
 30
0.0
  3
_ORIGIN
  1

  0
CIRCLE
  5
880
330
297E
100
AcDbEntity
  8
0
  6
Continuous
 62
     7
100
AcDbCircle
 10
0.0
 20
0.0
 30
0.0
 40
0.5
  0
LINE
  5
881
330
297E
100
AcDbEntity
  8
0
  6
Continuous
 62
     7
100
AcDbLine
 10
0.0
 20
0.0
 30
0.0
 11
-1.0
 21
0.0
 31
0.0
  0
ENDBLK
  5
882
330
297E
100
AcDbEntity
  8
0
100
AcDbBlockEnd
  0
BLOCK
  5
2981
330
2980
100
AcDbEntity
  8
0
 62
     1
100
AcDbBlockBegin
  2
_DOTBLANK
 70
     0
 10
0.0
 20
0.0
 30
0.0
  3
_DOTBLANK
  1

  0
CIRCLE
  5
AB3
330
2980
100
AcDbEntity
  8
0
  6
ByBlock
 62
     0
100
AcDbCircle
 10
0.0
 20
0.0
 30
0.0
 40
0.5
  0
LINE
  5
AB4
330
2980
100
AcDbEntity
  8
0
  6
ByBlock
 62
     0
100
AcDbLine
 10
-0.5
 20
0.0
 30
0.0
 11
-1.0
 21
0.0
 31
0.0
  0
ENDBLK
  5
AB6
330
2980
100
AcDbEntity
  8
0
 62
     1
100
AcDbBlockEnd
  0
BLOCK
  5
2983
330
2982
100
AcDbEntity
  8
0
 62
     1
100
AcDbBlockBegin
  2
_OPEN30
 70
     0
 10
0.0
 20
0.0
 30
0.0
  3
_OPEN30
  1

  0
LINE
  5
AB8
330
2982
100
AcDbEntity
  8
0
  6
ByBlock
 62
     0
100
AcDbLine
 10
-1.0
 20
0.26794919
 30
0.0
 11
0.0
 21
0.0
 31
0.0
  0
LINE
  5
AB9
330
2982
100
AcDbEntity
  8
0
  6
ByBlock
 62
     0
100
AcDbLine
 10
0.0
 20
0.0
 30
0.0
 11
-1.0
 21
-0.26794919
 31
0.0
  0
LINE
  5
ABA
330
2982
100
AcDbEntity
  8
0
  6
ByBlock
 62
     0
100
AcDbLine
 10
0.0
 20
0.0
 30
0.0
 11
-1.0
 21
0.0
 31
0.0
  0
ENDBLK
  5
ABC
330
2982
100
AcDbEntity
  8
0
 62
     1
100
AcDbBlockEnd
  0
BLOCK
  5
2985
330
2984
100
AcDbEntity
  8
0
100
AcDbBlockBegin
  2
*D5
 70
     1
 10
0.0
 20
0.0
 30
0.0
  3
*D5
  1

  0
LINE
  5
1296
330
2984
100
AcDbEntity
  8
SIZE
 62
     0
100
AcDbLine
 10
-134.5
 20
-320.0
 30
0.0
 11
-134.5
 21
-468.0173952306001
 31
0.0
  0
LINE
  5
1297
330
2984
100
AcDbEntity
  8
SIZE
 62
     0
100
AcDbLine
 10
134.5
 20
-320.0
 30
0.0
 11
134.5
 21
-468.0173952306001
 31
0.0
  0
LINE
  5
1298
330
2984
100
AcDbEntity
  8
SIZE
 62
     0
100
AcDbLine
 10
-122.5
 20
-448.0173952306
 30
0.0
 11
122.5
 21
-448.0173952306
 31
0.0
  0
INSERT
  5
1299
330
2984
100
AcDbEntity
  8
SIZE
 62
     0
100
AcDbBlockReference
  2
_DOTBLANK
 10
-134.5
 20
-448.0173952306
 30
0.0
 41
12.0
 42
12.0
 43
12.0
 50
180.0
  0
INSERT
  5
129A
330
2984
100
AcDbEntity
  8
SIZE
 62
     0
100
AcDbBlockReference
  2
_DOTBLANK
 10
134.5
 20
-448.0173952306
 30
0.0
 41
12.0
 42
12.0
 43
12.0
  0
INSERT
  5
129B
330
2984
100
AcDbEntity
  8
0
100
AcDbBlockReference
  2
*U6
 10
0.0
 20
0.0
 30
0.0
  0
POINT
  5
129C
330
2984
100
AcDbEntity
  8
DEFPOINTS
 62
     0
100
AcDbPoint
 10
-134.5
 20
-300.0
 30
0.0
  0
POINT
  5
129D
330
2984
100
AcDbEntity
  8
DEFPOINTS
 62
     0
100
AcDbPoint
 10
134.5
 20
-300.0
 30
0.0
  0
POINT
  5
129E
330
2984
100
AcDbEntity
  8
DEFPOINTS
 62
     0
100
AcDbPoint
 10
134.5
 20
-448.0173952306
 30
0.0
  0
ENDBLK
  5
D72
330
2984
100
AcDbEntity
  8
0
100
AcDbBlockEnd
  0
BLOCK
  5
2987
330
2986
100
AcDbEntity
  8
0
100
AcDbBlockBegin
  2
*U6
 70
     1
 10
0.0
 20
0.0
 30
0.0
  3
*U6
  1

  0
TEXT
  5
1EF5
330
2986
100
AcDbEntity
  8
SIZE
 62
     0
100
AcDbText
 10
-72.68571428571426
 20
-438.0173952305999
 30
0.0
 40
64.0
  1
269
 41
0.9
100
AcDbText
  0
ENDBLK
  5
1EF7
330
2986
100
AcDbEntity
  8
0
100
AcDbBlockEnd
  0
BLOCK
  5
2989
330
2988
100
AcDbEntity
  8
0
100
AcDbBlockBegin
  2
*D7
 70
     1
 10
0.0
 20
0.0
 30
0.0
  3
*D7
  1

  0
LINE
  5
11A7
330
2988
100
AcDbEntity
  8
SIZE
  6
Continuous
 62
     0
100
AcDbLine
 10
143.5
 20
-300.0
 30
0.0
 11
304.6432844803791
 21
-300.0
 31
0.0
  0
LINE
  5
11A8
330
2988
100
AcDbEntity
  8
SIZE
  6
Continuous
 62
     0
100
AcDbLine
 10
177.5
 20
-0.0000000000000057
 30
0.0
 11
304.6432844803792
 21
-0.0000000000000417
 31
0.0
  0
LINE
  5
11A9
330
2988
100
AcDbEntity
  8
SIZE
  6
Continuous
 62
     0
100
AcDbLine
 10
284.6432844803791
 20
-288.0000000000001
 30
0.0
 11
284.6432844803792
 21
-12.00000000000003
 31
0.0
  0
INSERT
  5
11AA
330
2988
100
AcDbEntity
  8
SIZE
  6
Continuous
 62
     0
100
AcDbBlockReference
  2
_DOTBLANK
 10
284.6432844803791
 20
-300.0
 30
0.0
 41
12.0
 42
12.0
 43
12.0
 50
270.0
  0
INSERT
  5
11AB
330
2988
100
AcDbEntity
  8
SIZE
  6
Continuous
 62
     0
100
AcDbBlockReference
  2
_DOTBLANK
 10
284.6432844803792
 20
-0.000000000000036
 30
0.0
 41
12.0
 42
12.0
 43
12.0
 50
90.0
  0
INSERT
  5
11AC
330
2988
100
AcDbEntity
  8
0
100
AcDbBlockReference
  2
*U8
 10
0.0
 20
0.0
 30
0.0
  0
POINT
  5
11AD
330
2988
100
AcDbEntity
  8
DEFPOINTS
  6
Continuous
 62
     0
100
AcDbPoint
 10
123.5
 20
-300.0
 30
0.0
  0
POINT
  5
11AE
330
2988
100
AcDbEntity
  8
DEFPOINTS
  6
Continuous
 62
     0
100
AcDbPoint
 10
157.5
 20
0.0
 30
0.0
  0
POINT
  5
11AF
330
2988
100
AcDbEntity
  8
DEFPOINTS
  6
Continuous
 62
     0
100
AcDbPoint
 10
284.6432844803792
 20
-0.000000000000036
 30
0.0
  0
ENDBLK
  5
E11
330
2988
100
AcDbEntity
  8
0
100
AcDbBlockEnd
  0
BLOCK
  5
298B
330
298A
100
AcDbEntity
  8
0
100
AcDbBlockBegin
  2
*U8
 70
     1
 10
0.0
 20
0.0
 30
0.0
  3
*U8
  1

  0
TEXT
  5
1EE1
330
298A
100
AcDbEntity
  8
SIZE
 62
     0
100
AcDbText
 10
274.6432844803792
 20
-224.0571428571429
 30
0.0
 40
64.0
  1
300
 50
90.0
 41
0.9
100
AcDbText
  0
ENDBLK
  5
1EE3
330
298A
100
AcDbEntity
  8
0
100
AcDbBlockEnd
  0
BLOCK
  5
298D
330
298C
100
AcDbEntity
  8
0
100
AcDbBlockBegin
  2
*D9
 70
     1
 10
0.0
 20
0.0
 30
0.0
  3
*D9
  1

  0
LINE
  5
E7D
330
298C
100
AcDbEntity
  8
SIZE
 62
     0
100
AcDbLine
 10
-139.9999999999998
 20
32.46448280219375
 30
0.0
 11
-139.9999999999998
 21
136.4516878685508
 31
0.0
  0
LINE
  5
E7E
330
298C
100
AcDbEntity
  8
SIZE
 62
     0
100
AcDbLine
 10
140.0
 20
32.46448280219375
 30
0.0
 11
140.0
 21
136.4516878685508
 31
0.0
  0
LINE
  5
E7F
330
298C
100
AcDbEntity
  8
SIZE
 62
     0
100
AcDbLine
 10
-128.0
 20
116.4516878685508
 30
0.0
 11
128.0
 21
116.4516878685508
 31
0.0
  0
INSERT
  5
E80
330
298C
100
AcDbEntity
  8
SIZE
 62
     0
100
AcDbBlockReference
  2
_DOTBLANK
 10
-139.9999999999998
 20
116.4516878685508
 30
0.0
 41
12.0
 42
12.0
 43
12.0
 50
180.0
  0
INSERT
  5
E81
330
298C
100
AcDbEntity
  8
SIZE
 62
     0
100
AcDbBlockReference
  2
_DOTBLANK
 10
140.0
 20
116.4516878685508
 30
0.0
 41
12.0
 42
12.0
 43
12.0
  0
INSERT
  5
E82
330
298C
100
AcDbEntity
  8
0
100
AcDbBlockReference
  2
*U10
 10
0.0
 20
0.0
 30
0.0
  0
POINT
  5
E83
330
298C
100
AcDbEntity
  8
DEFPOINTS
 62
     0
100
AcDbPoint
 10
-139.9999999999998
 20
12.46448280219374
 30
0.0
  0
POINT
  5
E84
330
298C
100
AcDbEntity
  8
DEFPOINTS
 62
     0
100
AcDbPoint
 10
140.0
 20
12.46448280219374
 30
0.0
  0
POINT
  5
E85
330
298C
100
AcDbEntity
  8
DEFPOINTS
 62
     0
100
AcDbPoint
 10
140.0
 20
116.4516878685508
 30
0.0
  0
ENDBLK
  5
E7C
330
298C
100
AcDbEntity
  8
0
100
AcDbBlockEnd
  0
BLOCK
  5
298F
330
298E
100
AcDbEntity
  8
0
100
AcDbBlockBegin
  2
*U10
 70
     1
 10
0.0
 20
0.0
 30
0.0
  3
*U10
  1

  0
TEXT
  5
1ED8
330
298E
100
AcDbEntity
  8
SIZE
 62
     0
100
AcDbText
 10
-74.05714285714281
 20
126.4516878685508
 30
0.0
 40
64.0
  1
280
 41
0.9
100
AcDbText
  0
ENDBLK
  5
1EDA
330
298E
100
AcDbEntity
  8
0
100
AcDbBlockEnd
  0
BLOCK
  5
2991
330
2990
100
AcDbEntity
  8
0
100
AcDbBlockBegin
  2
GENAXEH
 70
     0
 10
0.0
 20
0.0
 30
0.0
  3
GENAXEH
  1

  0
LINE
  5
FDB
330
2990
100
AcDbEntity
  8
0
100
AcDbLine
 10
-1.0
 20
0.0
 30
0.0
 11
1.0
 21
0.0
 31
0.0
  0
ENDBLK
  5
FDD
330
2990
100
AcDbEntity
  8
0
100
AcDbBlockEnd
  0
BLOCK
  5
2993
330
2992
100
AcDbEntity
  8
0
100
AcDbBlockBegin
  2
*D12
 70
     1
 10
0.0
 20
0.0
 30
0.0
  3
*D12
  1

  0
LINE
  5
1120
330
2992
100
AcDbEntity
  8
SIZE
 62
     0
100
AcDbLine
 10
-157.5
 20
20.0
 30
0.0
 11
-157.5
 21
245.5794621189598
 31
0.0
  0
LINE
  5
1121
330
2992
100
AcDbEntity
  8
SIZE
 62
     0
100
AcDbLine
 10
157.5
 20
20.0
 30
0.0
 11
157.5
 21
245.5794621189598
 31
0.0
  0
LINE
  5
1122
330
2992
100
AcDbEntity
  8
SIZE
 62
     0
100
AcDbLine
 10
-145.5
 20
225.5794621189598
 30
0.0
 11
145.5
 21
225.5794621189598
 31
0.0
  0
INSERT
  5
1123
330
2992
100
AcDbEntity
  8
SIZE
 62
     0
100
AcDbBlockReference
  2
_DOTBLANK
 10
-157.5
 20
225.5794621189598
 30
0.0
 41
12.0
 42
12.0
 43
12.0
 50
180.0
  0
INSERT
  5
1124
330
2992
100
AcDbEntity
  8
SIZE
 62
     0
100
AcDbBlockReference
  2
_DOTBLANK
 10
157.5
 20
225.5794621189598
 30
0.0
 41
12.0
 42
12.0
 43
12.0
  0
INSERT
  5
1125
330
2992
100
AcDbEntity
  8
0
100
AcDbBlockReference
  2
*U13
 10
0.0
 20
0.0
 30
0.0
  0
POINT
  5
1126
330
2992
100
AcDbEntity
  8
DEFPOINTS
 62
     0
100
AcDbPoint
 10
-157.5
 20
0.0
 30
0.0
  0
POINT
  5
1127
330
2992
100
AcDbEntity
  8
DEFPOINTS
 62
     0
100
AcDbPoint
 10
157.5
 20
0.0
 30
0.0
  0
POINT
  5
1128
330
2992
100
AcDbEntity
  8
DEFPOINTS
 62
     0
100
AcDbPoint
 10
157.5
 20
225.5794621189598
 30
0.0
  0
ENDBLK
  5
111F
330
2992
100
AcDbEntity
  8
0
100
AcDbBlockEnd
  0
BLOCK
  5
2995
330
2994
100
AcDbEntity
  8
0
100
AcDbBlockBegin
  2
*U13
 70
     1
 10
0.0
 20
0.0
 30
0.0
  3
*U13
  1

  0
TEXT
  5
1EDD
330
2994
100
AcDbEntity
  8
SIZE
 62
     0
100
AcDbText
 10
-68.57142857142857
 20
235.5794621189599
 30
0.0
 40
64.0
  1
315
 41
0.9
100
AcDbText
  0
ENDBLK
  5
1EDF
330
2994
100
AcDbEntity
  8
0
100
AcDbBlockEnd
  0
BLOCK
  5
2997
330
2996
100
AcDbEntity
  8
0
100
AcDbBlockBegin
  2
*D14
 70
     1
 10
0.0
 20
0.0
 30
0.0
  3
*D14
  1

  0
LINE
  5
11BD
330
2996
100
AcDbEntity
  8
NOTE
 62
     0
100
AcDbLine
 10
-123.4999999999999
 20
-320.0
 30
0.0
 11
-123.4999999999999
 21
-354.9529861856111
 31
0.0
  0
LINE
  5
11BE
330
2996
100
AcDbEntity
  8
NOTE
 62
     0
100
AcDbLine
 10
-133.4999999999998
 20
-331.2126909923287
 30
0.0
 11
-133.4999999999998
 21
-354.9529861856111
 31
0.0
  0
LINE
  5
11BF
330
2996
100
AcDbEntity
  8
NOTE
 62
     0
100
AcDbLine
 10
-111.4999999999999
 20
-334.9529861856112
 30
0.0
 11
-99.4999999999999
 21
-334.9529861856112
 31
0.0
  0
LINE
  5
11C0
330
2996
100
AcDbEntity
  8
NOTE
 62
     0
100
AcDbLine
 10
-145.4999999999998
 20
-334.9529861856112
 30
0.0
 11
-157.4999999999998
 21
-334.9529861856112
 31
0.0
  0
LINE
  5
11C1
330
2996
100
AcDbEntity
  8
NOTE
 62
     0
100
AcDbLine
 10
-123.4999999999999
 20
-334.9529861856112
 30
0.0
 11
-133.4999999999998
 21
-334.9529861856112
 31
0.0
  0
INSERT
  5
11C2
330
2996
100
AcDbEntity
  8
NOTE
 62
     0
100
AcDbBlockReference
  2
_DOTBLANK
 10
-123.4999999999999
 20
-334.9529861856112
 30
0.0
 41
12.0
 42
12.0
 43
12.0
 50
180.0
  0
INSERT
  5
11C3
330
2996
100
AcDbEntity
  8
NOTE
 62
     0
100
AcDbBlockReference
  2
_DOTBLANK
 10
-133.4999999999998
 20
-334.9529861856112
 30
0.0
 41
12.0
 42
12.0
 43
12.0
  0
INSERT
  5
11C4
330
2996
100
AcDbEntity
  8
0
100
AcDbBlockReference
  2
*U15
 10
0.0
 20
0.0
 30
0.0
  0
POINT
  5
11C5
330
2996
100
AcDbEntity
  8
DEFPOINTS
 62
     0
100
AcDbPoint
 10
-123.4999999999999
 20
-300.0
 30
0.0
  0
POINT
  5
11C6
330
2996
100
AcDbEntity
  8
DEFPOINTS
 62
     0
100
AcDbPoint
 10
-133.4999999999998
 20
-311.2126909923287
 30
0.0
  0
POINT
  5
11C7
330
2996
100
AcDbEntity
  8
DEFPOINTS
 62
     0
100
AcDbPoint
 10
-133.4999999999998
 20
-334.9529861856112
 30
0.0
  0
ENDBLK
  5
11BC
330
2996
100
AcDbEntity
  8
0
100
AcDbBlockEnd
  0
BLOCK
  5
2999
330
2998
100
AcDbEntity
  8
0
100
AcDbBlockBegin
  2
*U15
 70
     1
 10
0.0
 20
0.0
 30
0.0
  3
*U15
  1

  0
TEXT
  5
1EE5
330
2998
100
AcDbEntity
  8
NOTE
 62
     0
100
AcDbText
 10
-169.642857142857
 20
-324.9529861856112
 30
0.0
 40
64.0
  1
10
 41
0.9
100
AcDbText
  0
ENDBLK
  5
1EE7
330
2998
100
AcDbEntity
  8
0
100
AcDbBlockEnd
  0
BLOCK
  5
299B
330
299A
100
AcDbEntity
  8
0
100
AcDbBlockBegin
  2
*D16
 70
     1
 10
0.0
 20
0.0
 30
0.0
  3
*D16
  1

  0
LINE
  5
11E7
330
299A
100
AcDbEntity
  8
NOTE
 62
     0
100
AcDbLine
 10
-135.5
 20
-333.2126909923287
 30
0.0
 11
-135.5
 21
-386.2569421441843
 31
0.0
  0
LINE
  5
11E8
330
299A
100
AcDbEntity
  8
NOTE
 62
     0
100
AcDbLine
 10
-123.4999999999999
 20
-320.0
 30
0.0
 11
-123.4999999999999
 21
-386.2569421441843
 31
0.0
  0
LINE
  5
11E9
330
299A
100
AcDbEntity
  8
NOTE
 62
     0
100
AcDbLine
 10
-147.5
 20
-366.2569421441844
 30
0.0
 11
-159.5
 21
-366.2569421441844
 31
0.0
  0
LINE
  5
11EA
330
299A
100
AcDbEntity
  8
NOTE
 62
     0
100
AcDbLine
 10
-111.4999999999999
 20
-366.2569421441844
 30
0.0
 11
-99.4999999999999
 21
-366.2569421441844
 31
0.0
  0
LINE
  5
11EB
330
299A
100
AcDbEntity
  8
NOTE
 62
     0
100
AcDbLine
 10
-135.5
 20
-366.2569421441844
 30
0.0
 11
-123.4999999999999
 21
-366.2569421441844
 31
0.0
  0
INSERT
  5
11EC
330
299A
100
AcDbEntity
  8
NOTE
 62
     0
100
AcDbBlockReference
  2
_DOTBLANK
 10
-135.5
 20
-366.2569421441844
 30
0.0
 41
12.0
 42
12.0
 43
12.0
  0
INSERT
  5
11ED
330
299A
100
AcDbEntity
  8
NOTE
 62
     0
100
AcDbBlockReference
  2
_DOTBLANK
 10
-123.4999999999999
 20
-366.2569421441844
 30
0.0
 41
12.0
 42
12.0
 43
12.0
 50
180.0
  0
INSERT
  5
11EE
330
299A
100
AcDbEntity
  8
0
100
AcDbBlockReference
  2
*U17
 10
0.0
 20
0.0
 30
0.0
  0
POINT
  5
11EF
330
299A
100
AcDbEntity
  8
DEFPOINTS
 62
     0
100
AcDbPoint
 10
-135.5
 20
-313.2126909923287
 30
0.0
  0
POINT
  5
11F0
330
299A
100
AcDbEntity
  8
DEFPOINTS
 62
     0
100
AcDbPoint
 10
-123.4999999999999
 20
-300.0
 30
0.0
  0
POINT
  5
11F1
330
299A
100
AcDbEntity
  8
DEFPOINTS
 62
     0
100
AcDbPoint
 10
-123.4999999999999
 20
-366.2569421441844
 30
0.0
  0
ENDBLK
  5
11E6
330
299A
100
AcDbEntity
  8
0
100
AcDbBlockEnd
  0
BLOCK
  5
299D
330
299C
100
AcDbEntity
  8
0
100
AcDbBlockBegin
  2
*U17
 70
     1
 10
0.0
 20
0.0
 30
0.0
  3
*U17
  1

  0
TEXT
  5
1EE9
330
299C
100
AcDbEntity
  8
NOTE
 62
     0
100
AcDbText
 10
-170.642857142857
 20
-356.2569421441843
 30
0.0
 40
64.0
  1
12
 41
0.9
100
AcDbText
  0
ENDBLK
  5
1EEB
330
299C
100
AcDbEntity
  8
0
100
AcDbBlockEnd
  0
BLOCK
  5
299F
330
299E
100
AcDbEntity
  8
0
100
AcDbBlockBegin
  2
*D18
 70
     1
 10
0.0
 20
0.0
 30
0.0
  3
*D18
  1

  0
LINE
  5
11F6
330
299E
100
AcDbEntity
  8
NOTE
 62
     0
100
AcDbLine
 10
-123.4999999999999
 20
-320.0
 30
0.0
 11
-123.4999999999999
 21
-583.8286022818904
 31
0.0
  0
LINE
  5
11F7
330
299E
100
AcDbEntity
  8
NOTE
 62
     0
100
AcDbLine
 10
123.5
 20
-320.0
 30
0.0
 11
123.5
 21
-583.8286022818904
 31
0.0
  0
LINE
  5
11F8
330
299E
100
AcDbEntity
  8
NOTE
 62
     0
100
AcDbLine
 10
-111.4999999999999
 20
-563.8286022818904
 30
0.0
 11
111.5
 21
-563.8286022818904
 31
0.0
  0
INSERT
  5
11F9
330
299E
100
AcDbEntity
  8
NOTE
 62
     0
100
AcDbBlockReference
  2
_DOTBLANK
 10
-123.4999999999999
 20
-563.8286022818904
 30
0.0
 41
12.0
 42
12.0
 43
12.0
 50
180.0
  0
INSERT
  5
11FA
330
299E
100
AcDbEntity
  8
NOTE
 62
     0
100
AcDbBlockReference
  2
_DOTBLANK
 10
123.5
 20
-563.8286022818904
 30
0.0
 41
12.0
 42
12.0
 43
12.0
  0
INSERT
  5
11FB
330
299E
100
AcDbEntity
  8
0
100
AcDbBlockReference
  2
*U19
 10
0.0
 20
0.0
 30
0.0
  0
POINT
  5
11FC
330
299E
100
AcDbEntity
  8
DEFPOINTS
 62
     0
100
AcDbPoint
 10
-123.4999999999999
 20
-300.0
 30
0.0
  0
POINT
  5
11FD
330
299E
100
AcDbEntity
  8
DEFPOINTS
 62
     0
100
AcDbPoint
 10
123.5
 20
-300.0
 30
0.0
  0
POINT
  5
11FE
330
299E
100
AcDbEntity
  8
DEFPOINTS
 62
     0
100
AcDbPoint
 10
123.5
 20
-563.8286022818904
 30
0.0
  0
ENDBLK
  5
11F5
330
299E
100
AcDbEntity
  8
0
100
AcDbBlockEnd
  0
BLOCK
  5
29A1
330
29A0
100
AcDbEntity
  8
0
100
AcDbBlockBegin
  2
*U19
 70
     1
 10
0.0
 20
0.0
 30
0.0
  3
*U19
  1

  0
TEXT
  5
1EED
330
29A0
100
AcDbEntity
  8
NOTE
 62
     0
100
AcDbText
 10
-74.05714285714281
 20
-553.8286022818904
 30
0.0
 40
64.0
  1
247
 41
0.9
100
AcDbText
  0
ENDBLK
  5
1EEF
330
29A0
100
AcDbEntity
  8
0
100
AcDbBlockEnd
  0
BLOCK
  5
29A3
330
29A2
100
AcDbEntity
  8
0
100
AcDbBlockBegin
  2
*D20
 70
     1
 10
0.0
 20
0.0
 30
0.0
  3
*D20
  1

  0
LINE
  5
1284
330
29A2
100
AcDbEntity
  8
NOTE
 62
     0
100
AcDbLine
 10
-123.5
 20
12.0
 30
0.0
 11
-123.5
 21
71.83630134534229
 31
0.0
  0
LINE
  5
1285
330
29A2
100
AcDbEntity
  8
NOTE
 62
     0
100
AcDbLine
 10
123.5
 20
12.0
 30
0.0
 11
123.5
 21
71.83630134534229
 31
0.0
  0
LINE
  5
1286
330
29A2
100
AcDbEntity
  8
NOTE
 62
     0
100
AcDbLine
 10
-111.5
 20
51.83630134534229
 30
0.0
 11
111.5
 21
51.83630134534229
 31
0.0
  0
INSERT
  5
1287
330
29A2
100
AcDbEntity
  8
NOTE
 62
     0
100
AcDbBlockReference
  2
_DOTBLANK
 10
-123.5
 20
51.83630134534229
 30
0.0
 41
12.0
 42
12.0
 43
12.0
 50
180.0
  0
INSERT
  5
1288
330
29A2
100
AcDbEntity
  8
NOTE
 62
     0
100
AcDbBlockReference
  2
_DOTBLANK
 10
123.5
 20
51.83630134534229
 30
0.0
 41
12.0
 42
12.0
 43
12.0
  0
INSERT
  5
1289
330
29A2
100
AcDbEntity
  8
0
100
AcDbBlockReference
  2
*U21
 10
0.0
 20
0.0
 30
0.0
  0
POINT
  5
128A
330
29A2
100
AcDbEntity
  8
DEFPOINTS
 62
     0
100
AcDbPoint
 10
-123.5
 20
-8.0
 30
0.0
  0
POINT
  5
128B
330
29A2
100
AcDbEntity
  8
DEFPOINTS
 62
     0
100
AcDbPoint
 10
123.5
 20
-8.0
 30
0.0
  0
POINT
  5
128C
330
29A2
100
AcDbEntity
  8
DEFPOINTS
 62
     0
100
AcDbPoint
 10
123.5
 20
51.83630134534229
 30
0.0
  0
ENDBLK
  5
1283
330
29A2
100
AcDbEntity
  8
0
100
AcDbBlockEnd
  0
BLOCK
  5
29A5
330
29A4
100
AcDbEntity
  8
0
100
AcDbBlockBegin
  2
*U21
 70
     1
 10
0.0
 20
0.0
 30
0.0
  3
*U21
  1

  0
TEXT
  5
1EF1
330
29A4
100
AcDbEntity
  8
NOTE
 62
     0
100
AcDbText
 10
-74.05714285714283
 20
61.83630134534229
 30
0.0
 40
64.0
  1
247
 41
0.9
100
AcDbText
  0
ENDBLK
  5
1EF3
330
29A4
100
AcDbEntity
  8
0
100
AcDbBlockEnd
  0
BLOCK
  5
29A7
330
29A6
100
AcDbEntity
  8
0
100
AcDbBlockBegin
  2
*D22
 70
     1
 10
0.0
 20
0.0
 30
0.0
  3
*D22
  1

  0
LINE
  5
1414
330
29A6
100
AcDbEntity
  8
SIZE
 62
     0
100
AcDbLine
 10
-22313.11521613997
 20
7365.702971374808
 30
0.0
 11
-22313.11521613997
 21
7217.685576144207
 31
0.0
  0
LINE
  5
1415
330
29A6
100
AcDbEntity
  8
SIZE
 62
     0
100
AcDbLine
 10
-22044.11521613997
 20
7365.702971374808
 30
0.0
 11
-22044.11521613997
 21
7217.685576144207
 31
0.0
  0
LINE
  5
1416
330
29A6
100
AcDbEntity
  8
SIZE
 62
     0
100
AcDbLine
 10
-22301.11521613997
 20
7237.685576144207
 30
0.0
 11
-22056.11521613997
 21
7237.685576144207
 31
0.0
  0
INSERT
  5
1417
330
29A6
100
AcDbEntity
  8
SIZE
 62
     0
100
AcDbBlockReference
  2
_DOTBLANK
 10
-22313.11521613997
 20
7237.685576144207
 30
0.0
 41
12.0
 42
12.0
 43
12.0
 50
180.0
  0
INSERT
  5
1418
330
29A6
100
AcDbEntity
  8
SIZE
 62
     0
100
AcDbBlockReference
  2
_DOTBLANK
 10
-22044.11521613997
 20
7237.685576144207
 30
0.0
 41
12.0
 42
12.0
 43
12.0
  0
INSERT
  5
1419
330
29A6
100
AcDbEntity
  8
0
100
AcDbBlockReference
  2
*U23
 10
0.0
 20
0.0
 30
0.0
  0
POINT
  5
141A
330
29A6
100
AcDbEntity
  8
DEFPOINTS
 62
     0
100
AcDbPoint
 10
-22313.11521613997
 20
7385.702971374808
 30
0.0
  0
POINT
  5
141B
330
29A6
100
AcDbEntity
  8
DEFPOINTS
 62
     0
100
AcDbPoint
 10
-22044.11521613997
 20
7385.702971374808
 30
0.0
  0
POINT
  5
141C
330
29A6
100
AcDbEntity
  8
DEFPOINTS
 62
     0
100
AcDbPoint
 10
-22044.11521613997
 20
7237.685576144207
 30
0.0
  0
ENDBLK
  5
141D
330
29A6
100
AcDbEntity
  8
0
100
AcDbBlockEnd
  0
BLOCK
  5
29A9
330
29A8
100
AcDbEntity
  8
0
100
AcDbBlockBegin
  2
*U23
 70
     1
 10
0.0
 20
0.0
 30
0.0
  3
*U23
  1

  0
TEXT
  5
1EF9
330
29A8
100
AcDbEntity
  8
SIZE
 62
     0
100
AcDbText
 10
-22251.30093042568
 20
7247.685576144205
 30
0.0
 40
64.0
  1
269
 41
0.9
100
AcDbText
  0
ENDBLK
  5
1EFB
330
29A8
100
AcDbEntity
  8
0
100
AcDbBlockEnd
  0
BLOCK
  5
29AB
330
29AA
100
AcDbEntity
  8
0
100
AcDbBlockBegin
  2
*D24
 70
     1
 10
0.0
 20
0.0
 30
0.0
  3
*D24
  1

  0
LINE
  5
1420
330
29AA
100
AcDbEntity
  8
SIZE
  6
Continuous
 62
     0
100
AcDbLine
 10
-22035.11521613997
 20
7385.702971374808
 30
0.0
 11
-21873.97193165959
 21
7385.702971374808
 31
0.0
  0
LINE
  5
1421
330
29AA
100
AcDbEntity
  8
SIZE
  6
Continuous
 62
     0
100
AcDbLine
 10
-22001.11521613997
 20
7685.702971374808
 30
0.0
 11
-21873.97193165959
 21
7685.702971374808
 31
0.0
  0
LINE
  5
1422
330
29AA
100
AcDbEntity
  8
SIZE
  6
Continuous
 62
     0
100
AcDbLine
 10
-21893.97193165959
 20
7397.702971374808
 30
0.0
 11
-21893.97193165959
 21
7673.702971374808
 31
0.0
  0
INSERT
  5
1423
330
29AA
100
AcDbEntity
  8
SIZE
  6
Continuous
 62
     0
100
AcDbBlockReference
  2
_DOTBLANK
 10
-21893.97193165959
 20
7385.702971374808
 30
0.0
 41
12.0
 42
12.0
 43
12.0
 50
270.0
  0
INSERT
  5
1424
330
29AA
100
AcDbEntity
  8
SIZE
  6
Continuous
 62
     0
100
AcDbBlockReference
  2
_DOTBLANK
 10
-21893.97193165959
 20
7685.702971374808
 30
0.0
 41
12.0
 42
12.0
 43
12.0
 50
90.0
  0
INSERT
  5
1425
330
29AA
100
AcDbEntity
  8
0
100
AcDbBlockReference
  2
*U25
 10
0.0
 20
0.0
 30
0.0
  0
POINT
  5
1426
330
29AA
100
AcDbEntity
  8
DEFPOINTS
  6
Continuous
 62
     0
100
AcDbPoint
 10
-22055.11521613997
 20
7385.702971374808
 30
0.0
  0
POINT
  5
1427
330
29AA
100
AcDbEntity
  8
DEFPOINTS
  6
Continuous
 62
     0
100
AcDbPoint
 10
-22021.11521613997
 20
7685.702971374808
 30
0.0
  0
POINT
  5
1428
330
29AA
100
AcDbEntity
  8
DEFPOINTS
  6
Continuous
 62
     0
100
AcDbPoint
 10
-21893.97193165959
 20
7685.702971374808
 30
0.0
  0
ENDBLK
  5
1429
330
29AA
100
AcDbEntity
  8
0
100
AcDbBlockEnd
  0
BLOCK
  5
29AD
330
29AC
100
AcDbEntity
  8
0
100
AcDbBlockBegin
  2
*U25
 70
     1
 10
0.0
 20
0.0
 30
0.0
  3
*U25
  1

  0
TEXT
  5
1EFD
330
29AC
100
AcDbEntity
  8
SIZE
 62
     0
100
AcDbText
 10
-21903.97193165959
 20
7461.645828517662
 30
0.0
 40
64.0
  1
300
 50
90.0
 41
0.9
100
AcDbText
  0
ENDBLK
  5
1EFF
330
29AC
100
AcDbEntity
  8
0
100
AcDbBlockEnd
  0
BLOCK
  5
29AF
330
29AE
100
AcDbEntity
  8
0
100
AcDbBlockBegin
  2
*D26
 70
     1
 10
0.0
 20
0.0
 30
0.0
  3
*D26
  1

  0
LINE
  5
142C
330
29AE
100
AcDbEntity
  8
SIZE
 62
     0
100
AcDbLine
 10
-22318.61521613997
 20
7718.167454177002
 30
0.0
 11
-22318.61521613997
 21
7822.154659243358
 31
0.0
  0
LINE
  5
142D
330
29AE
100
AcDbEntity
  8
SIZE
 62
     0
100
AcDbLine
 10
-22038.61521613997
 20
7718.167454177002
 30
0.0
 11
-22038.61521613997
 21
7822.154659243358
 31
0.0
  0
LINE
  5
142E
330
29AE
100
AcDbEntity
  8
SIZE
 62
     0
100
AcDbLine
 10
-22306.61521613997
 20
7802.154659243358
 30
0.0
 11
-22050.61521613997
 21
7802.154659243358
 31
0.0
  0
INSERT
  5
142F
330
29AE
100
AcDbEntity
  8
SIZE
 62
     0
100
AcDbBlockReference
  2
_DOTBLANK
 10
-22318.61521613997
 20
7802.154659243358
 30
0.0
 41
12.0
 42
12.0
 43
12.0
 50
180.0
  0
INSERT
  5
1430
330
29AE
100
AcDbEntity
  8
SIZE
 62
     0
100
AcDbBlockReference
  2
_DOTBLANK
 10
-22038.61521613997
 20
7802.154659243358
 30
0.0
 41
12.0
 42
12.0
 43
12.0
  0
INSERT
  5
1431
330
29AE
100
AcDbEntity
  8
0
100
AcDbBlockReference
  2
*U27
 10
0.0
 20
0.0
 30
0.0
  0
POINT
  5
1432
330
29AE
100
AcDbEntity
  8
DEFPOINTS
 62
     0
100
AcDbPoint
 10
-22318.61521613997
 20
7698.167454177002
 30
0.0
  0
POINT
  5
1433
330
29AE
100
AcDbEntity
  8
DEFPOINTS
 62
     0
100
AcDbPoint
 10
-22038.61521613997
 20
7698.167454177002
 30
0.0
  0
POINT
  5
1434
330
29AE
100
AcDbEntity
  8
DEFPOINTS
 62
     0
100
AcDbPoint
 10
-22038.61521613997
 20
7802.154659243358
 30
0.0
  0
ENDBLK
  5
1435
330
29AE
100
AcDbEntity
  8
0
100
AcDbBlockEnd
  0
BLOCK
  5
29B1
330
29B0
100
AcDbEntity
  8
0
100
AcDbBlockBegin
  2
*U27
 70
     1
 10
0.0
 20
0.0
 30
0.0
  3
*U27
  1

  0
TEXT
  5
1F01
330
29B0
100
AcDbEntity
  8
SIZE
 62
     0
100
AcDbText
 10
-22252.6723589971
 20
7812.154659243358
 30
0.0
 40
64.0
  1
280
 41
0.9
100
AcDbText
  0
ENDBLK
  5
1F03
330
29B0
100
AcDbEntity
  8
0
100
AcDbBlockEnd
  0
BLOCK
  5
29B3
330
29B2
100
AcDbEntity
  8
0
100
AcDbBlockBegin
  2
*D28
 70
     1
 10
0.0
 20
0.0
 30
0.0
  3
*D28
  1

  0
LINE
  5
1438
330
29B2
100
AcDbEntity
  8
SIZE
 62
     0
100
AcDbLine
 10
-22336.11521613997
 20
7705.702971374808
 30
0.0
 11
-22336.11521613997
 21
7931.282433493766
 31
0.0
  0
LINE
  5
1439
330
29B2
100
AcDbEntity
  8
SIZE
 62
     0
100
AcDbLine
 10
-22021.11521613997
 20
7705.702971374808
 30
0.0
 11
-22021.11521613997
 21
7931.282433493766
 31
0.0
  0
LINE
  5
143A
330
29B2
100
AcDbEntity
  8
SIZE
 62
     0
100
AcDbLine
 10
-22324.11521613997
 20
7911.282433493766
 30
0.0
 11
-22033.11521613997
 21
7911.282433493766
 31
0.0
  0
INSERT
  5
143B
330
29B2
100
AcDbEntity
  8
SIZE
 62
     0
100
AcDbBlockReference
  2
_DOTBLANK
 10
-22336.11521613997
 20
7911.282433493766
 30
0.0
 41
12.0
 42
12.0
 43
12.0
 50
180.0
  0
INSERT
  5
143C
330
29B2
100
AcDbEntity
  8
SIZE
 62
     0
100
AcDbBlockReference
  2
_DOTBLANK
 10
-22021.11521613997
 20
7911.282433493766
 30
0.0
 41
12.0
 42
12.0
 43
12.0
  0
INSERT
  5
143D
330
29B2
100
AcDbEntity
  8
0
100
AcDbBlockReference
  2
*U29
 10
0.0
 20
0.0
 30
0.0
  0
POINT
  5
143E
330
29B2
100
AcDbEntity
  8
DEFPOINTS
 62
     0
100
AcDbPoint
 10
-22336.11521613997
 20
7685.702971374808
 30
0.0
  0
POINT
  5
143F
330
29B2
100
AcDbEntity
  8
DEFPOINTS
 62
     0
100
AcDbPoint
 10
-22021.11521613997
 20
7685.702971374808
 30
0.0
  0
POINT
  5
1440
330
29B2
100
AcDbEntity
  8
DEFPOINTS
 62
     0
100
AcDbPoint
 10
-22021.11521613997
 20
7911.282433493766
 30
0.0
  0
ENDBLK
  5
1441
330
29B2
100
AcDbEntity
  8
0
100
AcDbBlockEnd
  0
BLOCK
  5
29B5
330
29B4
100
AcDbEntity
  8
0
100
AcDbBlockBegin
  2
*U29
 70
     1
 10
0.0
 20
0.0
 30
0.0
  3
*U29
  1

  0
TEXT
  5
1F05
330
29B4
100
AcDbEntity
  8
SIZE
 62
     0
100
AcDbText
 10
-22247.18664471139
 20
7921.282433493766
 30
0.0
 40
64.0
  1
315
 41
0.9
100
AcDbText
  0
ENDBLK
  5
1F07
330
29B4
100
AcDbEntity
  8
0
100
AcDbBlockEnd
  0
BLOCK
  5
29B7
330
29B6
100
AcDbEntity
  8
0
100
AcDbBlockBegin
  2
*D30
 70
     1
 10
0.0
 20
0.0
 30
0.0
  3
*D30
  1

  0
LINE
  5
166B
330
29B6
100
AcDbEntity
  8
SIZE
 62
     0
100
AcDbLine
 10
-134.5
 20
-320.0
 30
0.0
 11
-134.5
 21
-468.0173952306001
 31
0.0
  0
LINE
  5
166C
330
29B6
100
AcDbEntity
  8
SIZE
 62
     0
100
AcDbLine
 10
134.5
 20
-320.0
 30
0.0
 11
134.5
 21
-468.0173952306001
 31
0.0
  0
LINE
  5
166D
330
29B6
100
AcDbEntity
  8
SIZE
 62
     0
100
AcDbLine
 10
-122.5
 20
-448.0173952306
 30
0.0
 11
122.5
 21
-448.0173952306
 31
0.0
  0
INSERT
  5
166E
330
29B6
100
AcDbEntity
  8
SIZE
 62
     0
100
AcDbBlockReference
  2
_DOTBLANK
 10
-134.5
 20
-448.0173952306
 30
0.0
 41
12.0
 42
12.0
 43
12.0
 50
180.0
  0
INSERT
  5
166F
330
29B6
100
AcDbEntity
  8
SIZE
 62
     0
100
AcDbBlockReference
  2
_DOTBLANK
 10
134.5
 20
-448.0173952306
 30
0.0
 41
12.0
 42
12.0
 43
12.0
  0
INSERT
  5
1670
330
29B6
100
AcDbEntity
  8
0
100
AcDbBlockReference
  2
*U31
 10
0.0
 20
0.0
 30
0.0
  0
POINT
  5
1671
330
29B6
100
AcDbEntity
  8
DEFPOINTS
 62
     0
100
AcDbPoint
 10
-134.5
 20
-300.0
 30
0.0
  0
POINT
  5
1672
330
29B6
100
AcDbEntity
  8
DEFPOINTS
 62
     0
100
AcDbPoint
 10
134.5
 20
-300.0
 30
0.0
  0
POINT
  5
1673
330
29B6
100
AcDbEntity
  8
DEFPOINTS
 62
     0
100
AcDbPoint
 10
134.5
 20
-448.0173952306
 30
0.0
  0
ENDBLK
  5
14A7
330
29B6
100
AcDbEntity
  8
0
100
AcDbBlockEnd
  0
BLOCK
  5
29B9
330
29B8
100
AcDbEntity
  8
0
100
AcDbBlockBegin
  2
*U31
 70
     1
 10
0.0
 20
0.0
 30
0.0
  3
*U31
  1

  0
TEXT
  5
1F09
330
29B8
100
AcDbEntity
  8
SIZE
 62
     0
100
AcDbText
 10
-72.68571428571426
 20
-438.0173952306002
 30
0.0
 40
64.0
  1
269
 41
0.9
100
AcDbText
  0
ENDBLK
  5
1F0B
330
29B8
100
AcDbEntity
  8
0
100
AcDbBlockEnd
  0
BLOCK
  5
29BB
330
29BA
100
AcDbEntity
  8
0
100
AcDbBlockBegin
  2
*D32
 70
     1
 10
0.0
 20
0.0
 30
0.0
  3
*D32
  1

  0
LINE
  5
1674
330
29BA
100
AcDbEntity
  8
SIZE
  6
Continuous
 62
     0
100
AcDbLine
 10
143.5
 20
-300.0
 30
0.0
 11
304.6432844803784
 21
-300.0
 31
0.0
  0
LINE
  5
1675
330
29BA
100
AcDbEntity
  8
SIZE
  6
Continuous
 62
     0
100
AcDbLine
 10
177.5
 20
-0.0000000000000057
 30
0.0
 11
304.6432844803785
 21
-0.0000000000000417
 31
0.0
  0
LINE
  5
1676
330
29BA
100
AcDbEntity
  8
SIZE
  6
Continuous
 62
     0
100
AcDbLine
 10
284.6432844803784
 20
-288.0000000000001
 30
0.0
 11
284.6432844803785
 21
-12.00000000000003
 31
0.0
  0
INSERT
  5
1677
330
29BA
100
AcDbEntity
  8
SIZE
  6
Continuous
 62
     0
100
AcDbBlockReference
  2
_DOTBLANK
 10
284.6432844803784
 20
-300.0
 30
0.0
 41
12.0
 42
12.0
 43
12.0
 50
270.0
  0
INSERT
  5
1678
330
29BA
100
AcDbEntity
  8
SIZE
  6
Continuous
 62
     0
100
AcDbBlockReference
  2
_DOTBLANK
 10
284.6432844803785
 20
-0.000000000000036
 30
0.0
 41
12.0
 42
12.0
 43
12.0
 50
90.0
  0
INSERT
  5
1679
330
29BA
100
AcDbEntity
  8
0
100
AcDbBlockReference
  2
*U33
 10
0.0
 20
0.0
 30
0.0
  0
POINT
  5
167A
330
29BA
100
AcDbEntity
  8
DEFPOINTS
  6
Continuous
 62
     0
100
AcDbPoint
 10
123.5
 20
-300.0
 30
0.0
  0
POINT
  5
167B
330
29BA
100
AcDbEntity
  8
DEFPOINTS
  6
Continuous
 62
     0
100
AcDbPoint
 10
157.5
 20
0.0
 30
0.0
  0
POINT
  5
167C
330
29BA
100
AcDbEntity
  8
DEFPOINTS
  6
Continuous
 62
     0
100
AcDbPoint
 10
284.6432844803785
 20
-0.000000000000036
 30
0.0
  0
ENDBLK
  5
14B3
330
29BA
100
AcDbEntity
  8
0
100
AcDbBlockEnd
  0
BLOCK
  5
29BD
330
29BC
100
AcDbEntity
  8
0
100
AcDbBlockBegin
  2
*U33
 70
     1
 10
0.0
 20
0.0
 30
0.0
  3
*U33
  1

  0
TEXT
  5
1F0D
330
29BC
100
AcDbEntity
  8
SIZE
 62
     0
100
AcDbText
 10
274.6432844803785
 20
-224.0571428571429
 30
0.0
 40
64.0
  1
300
 50
90.0
 41
0.9
100
AcDbText
  0
ENDBLK
  5
1F0F
330
29BC
100
AcDbEntity
  8
0
100
AcDbBlockEnd
  0
BLOCK
  5
29BF
330
29BE
100
AcDbEntity
  8
0
100
AcDbBlockBegin
  2
*D34
 70
     1
 10
0.0
 20
0.0
 30
0.0
  3
*D34
  1

  0
LINE
  5
167D
330
29BE
100
AcDbEntity
  8
SIZE
 62
     0
100
AcDbLine
 10
-140.0
 20
32.46448280219375
 30
0.0
 11
-140.0
 21
136.4516878685507
 31
0.0
  0
LINE
  5
167E
330
29BE
100
AcDbEntity
  8
SIZE
 62
     0
100
AcDbLine
 10
140.0
 20
32.46448280219375
 30
0.0
 11
140.0
 21
136.4516878685507
 31
0.0
  0
LINE
  5
167F
330
29BE
100
AcDbEntity
  8
SIZE
 62
     0
100
AcDbLine
 10
-128.0
 20
116.4516878685508
 30
0.0
 11
128.0
 21
116.4516878685508
 31
0.0
  0
INSERT
  5
1680
330
29BE
100
AcDbEntity
  8
SIZE
 62
     0
100
AcDbBlockReference
  2
_DOTBLANK
 10
-140.0
 20
116.4516878685508
 30
0.0
 41
12.0
 42
12.0
 43
12.0
 50
180.0
  0
INSERT
  5
1681
330
29BE
100
AcDbEntity
  8
SIZE
 62
     0
100
AcDbBlockReference
  2
_DOTBLANK
 10
140.0
 20
116.4516878685508
 30
0.0
 41
12.0
 42
12.0
 43
12.0
  0
INSERT
  5
1682
330
29BE
100
AcDbEntity
  8
0
100
AcDbBlockReference
  2
*U35
 10
0.0
 20
0.0
 30
0.0
  0
POINT
  5
1683
330
29BE
100
AcDbEntity
  8
DEFPOINTS
 62
     0
100
AcDbPoint
 10
-140.0
 20
12.46448280219374
 30
0.0
  0
POINT
  5
1684
330
29BE
100
AcDbEntity
  8
DEFPOINTS
 62
     0
100
AcDbPoint
 10
140.0
 20
12.46448280219374
 30
0.0
  0
POINT
  5
1685
330
29BE
100
AcDbEntity
  8
DEFPOINTS
 62
     0
100
AcDbPoint
 10
140.0
 20
116.4516878685508
 30
0.0
  0
ENDBLK
  5
14BF
330
29BE
100
AcDbEntity
  8
0
100
AcDbBlockEnd
  0
BLOCK
  5
29C1
330
29C0
100
AcDbEntity
  8
0
100
AcDbBlockBegin
  2
*U35
 70
     1
 10
0.0
 20
0.0
 30
0.0
  3
*U35
  1

  0
TEXT
  5
1F11
330
29C0
100
AcDbEntity
  8
SIZE
 62
     0
100
AcDbText
 10
-74.05714285714283
 20
126.4516878685507
 30
0.0
 40
64.0
  1
280
 41
0.9
100
AcDbText
  0
ENDBLK
  5
1F13
330
29C0
100
AcDbEntity
  8
0
100
AcDbBlockEnd
  0
BLOCK
  5
29C3
330
29C2
100
AcDbEntity
  8
0
100
AcDbBlockBegin
  2
*D36
 70
     1
 10
0.0
 20
0.0
 30
0.0
  3
*D36
  1

  0
LINE
  5
1686
330
29C2
100
AcDbEntity
  8
SIZE
 62
     0
100
AcDbLine
 10
-157.5
 20
20.0
 30
0.0
 11
-157.5
 21
245.5794621189598
 31
0.0
  0
LINE
  5
1687
330
29C2
100
AcDbEntity
  8
SIZE
 62
     0
100
AcDbLine
 10
157.5
 20
20.0
 30
0.0
 11
157.5
 21
245.5794621189598
 31
0.0
  0
LINE
  5
1688
330
29C2
100
AcDbEntity
  8
SIZE
 62
     0
100
AcDbLine
 10
-145.5
 20
225.5794621189598
 30
0.0
 11
145.5
 21
225.5794621189598
 31
0.0
  0
INSERT
  5
1689
330
29C2
100
AcDbEntity
  8
SIZE
 62
     0
100
AcDbBlockReference
  2
_DOTBLANK
 10
-157.5
 20
225.5794621189598
 30
0.0
 41
12.0
 42
12.0
 43
12.0
 50
180.0
  0
INSERT
  5
168A
330
29C2
100
AcDbEntity
  8
SIZE
 62
     0
100
AcDbBlockReference
  2
_DOTBLANK
 10
157.5
 20
225.5794621189598
 30
0.0
 41
12.0
 42
12.0
 43
12.0
  0
INSERT
  5
168B
330
29C2
100
AcDbEntity
  8
0
100
AcDbBlockReference
  2
*U37
 10
0.0
 20
0.0
 30
0.0
  0
POINT
  5
168C
330
29C2
100
AcDbEntity
  8
DEFPOINTS
 62
     0
100
AcDbPoint
 10
-157.5
 20
0.0
 30
0.0
  0
POINT
  5
168D
330
29C2
100
AcDbEntity
  8
DEFPOINTS
 62
     0
100
AcDbPoint
 10
157.5
 20
0.0
 30
0.0
  0
POINT
  5
168E
330
29C2
100
AcDbEntity
  8
DEFPOINTS
 62
     0
100
AcDbPoint
 10
157.5
 20
225.5794621189598
 30
0.0
  0
ENDBLK
  5
14CB
330
29C2
100
AcDbEntity
  8
0
100
AcDbBlockEnd
  0
BLOCK
  5
29C5
330
29C4
100
AcDbEntity
  8
0
100
AcDbBlockBegin
  2
*U37
 70
     1
 10
0.0
 20
0.0
 30
0.0
  3
*U37
  1

  0
TEXT
  5
1F15
330
29C4
100
AcDbEntity
  8
SIZE
 62
     0
100
AcDbText
 10
-68.57142857142857
 20
235.5794621189598
 30
0.0
 40
64.0
  1
315
 41
0.9
100
AcDbText
  0
ENDBLK
  5
1F17
330
29C4
100
AcDbEntity
  8
0
100
AcDbBlockEnd
  0
BLOCK
  5
29C7
330
29C6
100
AcDbEntity
  8
0
100
AcDbBlockBegin
  2
*U38
 70
     1
 10
0.0
 20
0.0
 30
0.0
  3
*U38
  1

  0
ENDBLK
  5
15CF
330
29C6
100
AcDbEntity
  8
0
100
AcDbBlockEnd
  0
BLOCK
  5
29C9
330
29C8
100
AcDbEntity
  8
0
100
AcDbBlockBegin
  2
*D39
 70
     1
 10
0.0
 20
0.0
 30
0.0
  3
*D39
  1

  0
LINE
  5
1692
330
29C8
100
AcDbEntity
  8
SIZE
 62
     0
100
AcDbLine
 10
-25844.51823276502
 20
7685.702971374808
 30
0.0
 11
-25981.04465488371
 21
7685.702971374808
 31
0.0
  0
LINE
  5
1693
330
29C8
100
AcDbEntity
  8
SIZE
 62
     0
100
AcDbLine
 10
-25844.51823276502
 20
7677.702971374808
 30
0.0
 11
-25981.04465488371
 21
7677.702971374808
 31
0.0
  0
LINE
  5
1694
330
29C8
100
AcDbEntity
  8
SIZE
 62
     0
100
AcDbLine
 10
-25961.04465488371
 20
7697.702971374808
 30
0.0
 11
-25961.04465488371
 21
7709.702971374809
 31
0.0
  0
LINE
  5
1695
330
29C8
100
AcDbEntity
  8
SIZE
 62
     0
100
AcDbLine
 10
-25961.04465488371
 20
7665.70297137481
 30
0.0
 11
-25961.04465488371
 21
7595.302971374808
 31
0.0
  0
INSERT
  5
1696
330
29C8
100
AcDbEntity
  8
SIZE
 62
     0
100
AcDbBlockReference
  2
_DOTBLANK
 10
-25961.04465488371
 20
7685.702971374808
 30
0.0
 41
12.0
 42
12.0
 43
12.0
 50
270.0
  0
INSERT
  5
1697
330
29C8
100
AcDbEntity
  8
SIZE
 62
     0
100
AcDbBlockReference
  2
_DOTBLANK
 10
-25961.04465488371
 20
7677.702971374808
 30
0.0
 41
12.0
 42
12.0
 43
12.0
 50
90.0
  0
INSERT
  5
1698
330
29C8
100
AcDbEntity
  8
0
100
AcDbBlockReference
  2
*U40
 10
0.0
 20
0.0
 30
0.0
  0
POINT
  5
1699
330
29C8
100
AcDbEntity
  8
DEFPOINTS
 62
     0
100
AcDbPoint
 10
-25824.51823276501
 20
7685.702971374808
 30
0.0
  0
POINT
  5
169A
330
29C8
100
AcDbEntity
  8
DEFPOINTS
 62
     0
100
AcDbPoint
 10
-25824.51823276501
 20
7677.702971374808
 30
0.0
  0
POINT
  5
169B
330
29C8
100
AcDbEntity
  8
DEFPOINTS
 62
     0
100
AcDbPoint
 10
-25961.04465488371
 20
7677.702971374808
 30
0.0
  0
ENDBLK
  5
169C
330
29C8
100
AcDbEntity
  8
0
100
AcDbBlockEnd
  0
BLOCK
  5
29CB
330
29CA
100
AcDbEntity
  8
0
100
AcDbBlockBegin
  2
*U40
 70
     1
 10
0.0
 20
0.0
 30
0.0
  3
*U40
  1

  0
TEXT
  5
1F19
330
29CA
100
AcDbEntity
  8
SIZE
 62
     0
100
AcDbText
 10
-25971.04465488371
 20
7605.302971374804
 30
0.0
 40
64.0
  1
8
 50
90.0
 41
0.9
100
AcDbText
  0
ENDBLK
  5
1F1B
330
29CA
100
AcDbEntity
  8
0
100
AcDbBlockEnd
  0
BLOCK
  5
29CD
330
29CC
100
AcDbEntity
  8
0
100
AcDbBlockBegin
  2
*D41
 70
     1
 10
0.0
 20
0.0
 30
0.0
  3
*D41
  1

  0
LINE
  5
169F
330
29CC
100
AcDbEntity
  8
SIZE
 62
     0
100
AcDbLine
 10
-25512.51823276502
 20
7385.702971374808
 30
0.0
 11
-25362.37494828464
 21
7385.702971374808
 31
0.0
  0
LINE
  5
16A0
330
29CC
100
AcDbEntity
  8
SIZE
 62
     0
100
AcDbLine
 10
-25523.51823276501
 20
7373.702971374808
 30
0.0
 11
-25362.37494828464
 21
7373.702971374808
 31
0.0
  0
LINE
  5
16A1
330
29CC
100
AcDbEntity
  8
SIZE
 62
     0
100
AcDbLine
 10
-25382.37494828464
 20
7397.702971374808
 30
0.0
 11
-25382.37494828464
 21
7409.70297137481
 31
0.0
  0
LINE
  5
16A2
330
29CC
100
AcDbEntity
  8
SIZE
 62
     0
100
AcDbLine
 10
-25382.37494828464
 20
7361.702971374808
 30
0.0
 11
-25382.37494828464
 21
7244.674399946238
 31
0.0
  0
INSERT
  5
16A3
330
29CC
100
AcDbEntity
  8
SIZE
 62
     0
100
AcDbBlockReference
  2
_DOTBLANK
 10
-25382.37494828464
 20
7385.702971374808
 30
0.0
 41
12.0
 42
12.0
 43
12.0
 50
270.0
  0
INSERT
  5
16A4
330
29CC
100
AcDbEntity
  8
SIZE
 62
     0
100
AcDbBlockReference
  2
_DOTBLANK
 10
-25382.37494828464
 20
7373.702971374808
 30
0.0
 41
12.0
 42
12.0
 43
12.0
 50
90.0
  0
INSERT
  5
16A5
330
29CC
100
AcDbEntity
  8
0
100
AcDbBlockReference
  2
*U42
 10
0.0
 20
0.0
 30
0.0
  0
POINT
  5
16A6
330
29CC
100
AcDbEntity
  8
DEFPOINTS
 62
     0
100
AcDbPoint
 10
-25532.51823276502
 20
7385.702971374808
 30
0.0
  0
POINT
  5
16A7
330
29CC
100
AcDbEntity
  8
DEFPOINTS
 62
     0
100
AcDbPoint
 10
-25543.51823276502
 20
7373.702971374808
 30
0.0
  0
POINT
  5
16A8
330
29CC
100
AcDbEntity
  8
DEFPOINTS
 62
     0
100
AcDbPoint
 10
-25382.37494828464
 20
7373.702971374808
 30
0.0
  0
ENDBLK
  5
16A9
330
29CC
100
AcDbEntity
  8
0
100
AcDbBlockEnd
  0
BLOCK
  5
29CF
330
29CE
100
AcDbEntity
  8
0
100
AcDbBlockBegin
  2
*U42
 70
     1
 10
0.0
 20
0.0
 30
0.0
  3
*U42
  1

  0
TEXT
  5
1F1D
330
29CE
100
AcDbEntity
  8
SIZE
 62
     0
100
AcDbText
 10
-25392.37494828464
 20
7256.045828517662
 30
0.0
 40
64.0
  1
12
 50
90.0
 41
0.9
100
AcDbText
  0
ENDBLK
  5
1F1F
330
29CE
100
AcDbEntity
  8
0
100
AcDbBlockEnd
  0
BLOCK
  5
29D1
330
29D0
100
AcDbEntity
  8
0
100
AcDbBlockBegin
  2
*D43
 70
     1
 10
0.0
 20
0.0
 30
0.0
  3
*D43
  1

  0
LINE
  5
16AC
330
29D0
100
AcDbEntity
  8
SIZE
 62
     0
100
AcDbLine
 10
-25801.51823276501
 20
7365.702971374808
 30
0.0
 11
-25801.51823276501
 21
7217.685576144207
 31
0.0
  0
LINE
  5
16AD
330
29D0
100
AcDbEntity
  8
SIZE
 62
     0
100
AcDbLine
 10
-25532.51823276502
 20
7365.702971374808
 30
0.0
 11
-25532.51823276502
 21
7217.685576144207
 31
0.0
  0
LINE
  5
16AE
330
29D0
100
AcDbEntity
  8
SIZE
 62
     0
100
AcDbLine
 10
-25789.51823276502
 20
7237.685576144207
 30
0.0
 11
-25544.51823276501
 21
7237.685576144207
 31
0.0
  0
INSERT
  5
16AF
330
29D0
100
AcDbEntity
  8
SIZE
 62
     0
100
AcDbBlockReference
  2
_DOTBLANK
 10
-25801.51823276501
 20
7237.685576144207
 30
0.0
 41
12.0
 42
12.0
 43
12.0
 50
180.0
  0
INSERT
  5
16B0
330
29D0
100
AcDbEntity
  8
SIZE
 62
     0
100
AcDbBlockReference
  2
_DOTBLANK
 10
-25532.51823276502
 20
7237.685576144207
 30
0.0
 41
12.0
 42
12.0
 43
12.0
  0
INSERT
  5
16B1
330
29D0
100
AcDbEntity
  8
0
100
AcDbBlockReference
  2
*U44
 10
0.0
 20
0.0
 30
0.0
  0
POINT
  5
16B2
330
29D0
100
AcDbEntity
  8
DEFPOINTS
 62
     0
100
AcDbPoint
 10
-25801.51823276501
 20
7385.702971374808
 30
0.0
  0
POINT
  5
16B3
330
29D0
100
AcDbEntity
  8
DEFPOINTS
 62
     0
100
AcDbPoint
 10
-25532.51823276502
 20
7385.702971374808
 30
0.0
  0
POINT
  5
16B4
330
29D0
100
AcDbEntity
  8
DEFPOINTS
 62
     0
100
AcDbPoint
 10
-25532.51823276502
 20
7237.685576144207
 30
0.0
  0
ENDBLK
  5
16B5
330
29D0
100
AcDbEntity
  8
0
100
AcDbBlockEnd
  0
BLOCK
  5
29D3
330
29D2
100
AcDbEntity
  8
0
100
AcDbBlockBegin
  2
*U44
 70
     1
 10
0.0
 20
0.0
 30
0.0
  3
*U44
  1

  0
TEXT
  5
1F21
330
29D2
100
AcDbEntity
  8
SIZE
 62
     0
100
AcDbText
 10
-25739.70394705074
 20
7247.685576144205
 30
0.0
 40
64.0
  1
269
 41
0.9
100
AcDbText
  0
ENDBLK
  5
1F23
330
29D2
100
AcDbEntity
  8
0
100
AcDbBlockEnd
  0
BLOCK
  5
29D5
330
29D4
100
AcDbEntity
  8
0
100
AcDbBlockBegin
  2
*D45
 70
     1
 10
0.0
 20
0.0
 30
0.0
  3
*D45
  1

  0
LINE
  5
16B8
330
29D4
100
AcDbEntity
  8
SIZE
 62
     0
100
AcDbLine
 10
-25512.51823276502
 20
7385.702971374808
 30
0.0
 11
-25362.37494828464
 21
7385.702971374808
 31
0.0
  0
LINE
  5
16B9
330
29D4
100
AcDbEntity
  8
SIZE
 62
     0
100
AcDbLine
 10
-25489.51823276501
 20
7685.702971374808
 30
0.0
 11
-25362.37494828464
 21
7685.702971374808
 31
0.0
  0
LINE
  5
16BA
330
29D4
100
AcDbEntity
  8
SIZE
 62
     0
100
AcDbLine
 10
-25382.37494828464
 20
7397.702971374808
 30
0.0
 11
-25382.37494828464
 21
7673.702971374808
 31
0.0
  0
INSERT
  5
16BB
330
29D4
100
AcDbEntity
  8
SIZE
 62
     0
100
AcDbBlockReference
  2
_DOTBLANK
 10
-25382.37494828464
 20
7385.702971374808
 30
0.0
 41
12.0
 42
12.0
 43
12.0
 50
270.0
  0
INSERT
  5
16BC
330
29D4
100
AcDbEntity
  8
SIZE
 62
     0
100
AcDbBlockReference
  2
_DOTBLANK
 10
-25382.37494828464
 20
7685.702971374808
 30
0.0
 41
12.0
 42
12.0
 43
12.0
 50
90.0
  0
INSERT
  5
16BD
330
29D4
100
AcDbEntity
  8
0
100
AcDbBlockReference
  2
*U46
 10
0.0
 20
0.0
 30
0.0
  0
POINT
  5
16BE
330
29D4
100
AcDbEntity
  8
DEFPOINTS
 62
     0
100
AcDbPoint
 10
-25532.51823276502
 20
7385.702971374808
 30
0.0
  0
POINT
  5
16BF
330
29D4
100
AcDbEntity
  8
DEFPOINTS
 62
     0
100
AcDbPoint
 10
-25509.51823276502
 20
7685.702971374808
 30
0.0
  0
POINT
  5
16C0
330
29D4
100
AcDbEntity
  8
DEFPOINTS
 62
     0
100
AcDbPoint
 10
-25382.37494828464
 20
7685.702971374808
 30
0.0
  0
ENDBLK
  5
16C1
330
29D4
100
AcDbEntity
  8
0
100
AcDbBlockEnd
  0
BLOCK
  5
29D7
330
29D6
100
AcDbEntity
  8
0
100
AcDbBlockBegin
  2
*U46
 70
     1
 10
0.0
 20
0.0
 30
0.0
  3
*U46
  1

  0
TEXT
  5
1F25
330
29D6
100
AcDbEntity
  8
SIZE
 62
     0
100
AcDbText
 10
-25392.37494828464
 20
7461.645828517662
 30
0.0
 40
64.0
  1
300
 50
90.0
 41
0.9
100
AcDbText
  0
ENDBLK
  5
1F27
330
29D6
100
AcDbEntity
  8
0
100
AcDbBlockEnd
  0
BLOCK
  5
29D9
330
29D8
100
AcDbEntity
  8
0
100
AcDbBlockBegin
  2
*D47
 70
     1
 10
0.0
 20
0.0
 30
0.0
  3
*D47
  1

  0
LINE
  5
16C4
330
29D8
100
AcDbEntity
  8
SIZE
 62
     0
100
AcDbLine
 10
-25807.01823276501
 20
7718.167454177002
 30
0.0
 11
-25807.01823276501
 21
7822.154659243358
 31
0.0
  0
LINE
  5
16C5
330
29D8
100
AcDbEntity
  8
SIZE
 62
     0
100
AcDbLine
 10
-25527.01823276501
 20
7718.167454177002
 30
0.0
 11
-25527.01823276501
 21
7822.154659243358
 31
0.0
  0
LINE
  5
16C6
330
29D8
100
AcDbEntity
  8
SIZE
 62
     0
100
AcDbLine
 10
-25795.01823276502
 20
7802.154659243358
 30
0.0
 11
-25539.01823276501
 21
7802.154659243358
 31
0.0
  0
INSERT
  5
16C7
330
29D8
100
AcDbEntity
  8
SIZE
 62
     0
100
AcDbBlockReference
  2
_DOTBLANK
 10
-25807.01823276501
 20
7802.154659243358
 30
0.0
 41
12.0
 42
12.0
 43
12.0
 50
180.0
  0
INSERT
  5
16C8
330
29D8
100
AcDbEntity
  8
SIZE
 62
     0
100
AcDbBlockReference
  2
_DOTBLANK
 10
-25527.01823276501
 20
7802.154659243358
 30
0.0
 41
12.0
 42
12.0
 43
12.0
  0
INSERT
  5
16C9
330
29D8
100
AcDbEntity
  8
0
100
AcDbBlockReference
  2
*U48
 10
0.0
 20
0.0
 30
0.0
  0
POINT
  5
16CA
330
29D8
100
AcDbEntity
  8
DEFPOINTS
 62
     0
100
AcDbPoint
 10
-25807.01823276501
 20
7698.167454177002
 30
0.0
  0
POINT
  5
16CB
330
29D8
100
AcDbEntity
  8
DEFPOINTS
 62
     0
100
AcDbPoint
 10
-25527.01823276501
 20
7698.167454177002
 30
0.0
  0
POINT
  5
16CC
330
29D8
100
AcDbEntity
  8
DEFPOINTS
 62
     0
100
AcDbPoint
 10
-25527.01823276501
 20
7802.154659243358
 30
0.0
  0
ENDBLK
  5
16CD
330
29D8
100
AcDbEntity
  8
0
100
AcDbBlockEnd
  0
BLOCK
  5
29DB
330
29DA
100
AcDbEntity
  8
0
100
AcDbBlockBegin
  2
*U48
 70
     1
 10
0.0
 20
0.0
 30
0.0
  3
*U48
  1

  0
TEXT
  5
1F29
330
29DA
100
AcDbEntity
  8
SIZE
 62
     0
100
AcDbText
 10
-25741.07537562216
 20
7812.154659243358
 30
0.0
 40
64.0
  1
280
 41
0.9
100
AcDbText
  0
ENDBLK
  5
1F2B
330
29DA
100
AcDbEntity
  8
0
100
AcDbBlockEnd
  0
BLOCK
  5
29DD
330
29DC
100
AcDbEntity
  8
0
100
AcDbBlockBegin
  2
*D49
 70
     1
 10
0.0
 20
0.0
 30
0.0
  3
*D49
  1

  0
LINE
  5
16D0
330
29DC
100
AcDbEntity
  8
SIZE
 62
     0
100
AcDbLine
 10
-25824.51823276501
 20
7705.702971374808
 30
0.0
 11
-25824.51823276501
 21
7931.282433493766
 31
0.0
  0
LINE
  5
16D1
330
29DC
100
AcDbEntity
  8
SIZE
 62
     0
100
AcDbLine
 10
-25509.51823276502
 20
7705.702971374808
 30
0.0
 11
-25509.51823276502
 21
7931.282433493766
 31
0.0
  0
LINE
  5
16D2
330
29DC
100
AcDbEntity
  8
SIZE
 62
     0
100
AcDbLine
 10
-25812.51823276502
 20
7911.282433493766
 30
0.0
 11
-25521.51823276501
 21
7911.282433493766
 31
0.0
  0
INSERT
  5
16D3
330
29DC
100
AcDbEntity
  8
SIZE
 62
     0
100
AcDbBlockReference
  2
_DOTBLANK
 10
-25824.51823276501
 20
7911.282433493766
 30
0.0
 41
12.0
 42
12.0
 43
12.0
 50
180.0
  0
INSERT
  5
16D4
330
29DC
100
AcDbEntity
  8
SIZE
 62
     0
100
AcDbBlockReference
  2
_DOTBLANK
 10
-25509.51823276502
 20
7911.282433493766
 30
0.0
 41
12.0
 42
12.0
 43
12.0
  0
INSERT
  5
16D5
330
29DC
100
AcDbEntity
  8
0
100
AcDbBlockReference
  2
*U50
 10
0.0
 20
0.0
 30
0.0
  0
POINT
  5
16D6
330
29DC
100
AcDbEntity
  8
DEFPOINTS
 62
     0
100
AcDbPoint
 10
-25824.51823276501
 20
7685.702971374808
 30
0.0
  0
POINT
  5
16D7
330
29DC
100
AcDbEntity
  8
DEFPOINTS
 62
     0
100
AcDbPoint
 10
-25509.51823276502
 20
7685.702971374808
 30
0.0
  0
POINT
  5
16D8
330
29DC
100
AcDbEntity
  8
DEFPOINTS
 62
     0
100
AcDbPoint
 10
-25509.51823276502
 20
7911.282433493766
 30
0.0
  0
ENDBLK
  5
16D9
330
29DC
100
AcDbEntity
  8
0
100
AcDbBlockEnd
  0
BLOCK
  5
29DF
330
29DE
100
AcDbEntity
  8
0
100
AcDbBlockBegin
  2
*U50
 70
     1
 10
0.0
 20
0.0
 30
0.0
  3
*U50
  1

  0
TEXT
  5
1F2D
330
29DE
100
AcDbEntity
  8
SIZE
 62
     0
100
AcDbText
 10
-25735.58966133645
 20
7921.282433493766
 30
0.0
 40
64.0
  1
315
 41
0.9
100
AcDbText
  0
ENDBLK
  5
1F2F
330
29DE
100
AcDbEntity
  8
0
100
AcDbBlockEnd
  0
BLOCK
  5
29E1
330
29E0
100
AcDbEntity
  8
0
100
AcDbBlockBegin
  2
*D51
 70
     1
 10
0.0
 20
0.0
 30
0.0
  3
*D51
  1

  0
LINE
  5
1D83
330
29E0
100
AcDbEntity
  8
SIZE
 62
     0
100
AcDbLine
 10
-134.5
 20
-320.0
 30
0.0
 11
-134.5
 21
-468.0173952306001
 31
0.0
  0
LINE
  5
1D84
330
29E0
100
AcDbEntity
  8
SIZE
 62
     0
100
AcDbLine
 10
134.5
 20
-320.0
 30
0.0
 11
134.5
 21
-468.0173952306001
 31
0.0
  0
LINE
  5
1D85
330
29E0
100
AcDbEntity
  8
SIZE
 62
     0
100
AcDbLine
 10
-122.5
 20
-448.0173952306
 30
0.0
 11
122.5
 21
-448.0173952306
 31
0.0
  0
INSERT
  5
1D86
330
29E0
100
AcDbEntity
  8
SIZE
 62
     0
100
AcDbBlockReference
  2
_DOTBLANK
 10
-134.5
 20
-448.0173952306
 30
0.0
 41
12.0
 42
12.0
 43
12.0
 50
180.0
  0
INSERT
  5
1D87
330
29E0
100
AcDbEntity
  8
SIZE
 62
     0
100
AcDbBlockReference
  2
_DOTBLANK
 10
134.5
 20
-448.0173952306
 30
0.0
 41
12.0
 42
12.0
 43
12.0
  0
INSERT
  5
1D88
330
29E0
100
AcDbEntity
  8
0
100
AcDbBlockReference
  2
*U52
 10
0.0
 20
0.0
 30
0.0
  0
POINT
  5
1D89
330
29E0
100
AcDbEntity
  8
DEFPOINTS
 62
     0
100
AcDbPoint
 10
-134.5
 20
-300.0
 30
0.0
  0
POINT
  5
1D8A
330
29E0
100
AcDbEntity
  8
DEFPOINTS
 62
     0
100
AcDbPoint
 10
134.5
 20
-300.0
 30
0.0
  0
POINT
  5
1D8B
330
29E0
100
AcDbEntity
  8
DEFPOINTS
 62
     0
100
AcDbPoint
 10
134.5
 20
-448.0173952306
 30
0.0
  0
ENDBLK
  5
173D
330
29E0
100
AcDbEntity
  8
0
100
AcDbBlockEnd
  0
BLOCK
  5
29E3
330
29E2
100
AcDbEntity
  8
0
100
AcDbBlockBegin
  2
*U52
 70
     1
 10
0.0
 20
0.0
 30
0.0
  3
*U52
  1

  0
TEXT
  5
1F31
330
29E2
100
AcDbEntity
  8
SIZE
 62
     0
100
AcDbText
 10
-72.68571428571426
 20
-438.0173952306003
 30
0.0
 40
64.0
  1
269
 41
0.9
100
AcDbText
  0
ENDBLK
  5
1F33
330
29E2
100
AcDbEntity
  8
0
100
AcDbBlockEnd
  0
BLOCK
  5
29E5
330
29E4
100
AcDbEntity
  8
0
100
AcDbBlockBegin
  2
*D53
 70
     1
 10
0.0
 20
0.0
 30
0.0
  3
*D53
  1

  0
LINE
  5
1D8C
330
29E4
100
AcDbEntity
  8
SIZE
 62
     0
100
AcDbLine
 10
154.5
 20
-300.0
 30
0.0
 11
304.6432844803784
 21
-300.0
 31
0.0
  0
LINE
  5
1D8D
330
29E4
100
AcDbEntity
  8
SIZE
 62
     0
100
AcDbLine
 10
177.5
 20
-0.0000000000000057
 30
0.0
 11
304.6432844803785
 21
-0.0000000000000417
 31
0.0
  0
LINE
  5
1D8E
330
29E4
100
AcDbEntity
  8
SIZE
 62
     0
100
AcDbLine
 10
284.6432844803784
 20
-288.0
 30
0.0
 11
284.6432844803785
 21
-12.00000000000003
 31
0.0
  0
INSERT
  5
1D8F
330
29E4
100
AcDbEntity
  8
SIZE
 62
     0
100
AcDbBlockReference
  2
_DOTBLANK
 10
284.6432844803784
 20
-300.0
 30
0.0
 41
12.0
 42
12.0
 43
12.0
 50
270.0
  0
INSERT
  5
1D90
330
29E4
100
AcDbEntity
  8
SIZE
 62
     0
100
AcDbBlockReference
  2
_DOTBLANK
 10
284.6432844803785
 20
-0.000000000000036
 30
0.0
 41
12.0
 42
12.0
 43
12.0
 50
90.0
  0
INSERT
  5
1D91
330
29E4
100
AcDbEntity
  8
0
100
AcDbBlockReference
  2
*U54
 10
0.0
 20
0.0
 30
0.0
  0
POINT
  5
1D92
330
29E4
100
AcDbEntity
  8
DEFPOINTS
 62
     0
100
AcDbPoint
 10
134.5
 20
-300.0
 30
0.0
  0
POINT
  5
1D93
330
29E4
100
AcDbEntity
  8
DEFPOINTS
 62
     0
100
AcDbPoint
 10
157.5
 20
0.0
 30
0.0
  0
POINT
  5
1D94
330
29E4
100
AcDbEntity
  8
DEFPOINTS
 62
     0
100
AcDbPoint
 10
284.6432844803785
 20
-0.000000000000036
 30
0.0
  0
ENDBLK
  5
1749
330
29E4
100
AcDbEntity
  8
0
100
AcDbBlockEnd
  0
BLOCK
  5
29E7
330
29E6
100
AcDbEntity
  8
0
100
AcDbBlockBegin
  2
*U54
 70
     1
 10
0.0
 20
0.0
 30
0.0
  3
*U54
  1

  0
TEXT
  5
1F35
330
29E6
100
AcDbEntity
  8
SIZE
 62
     0
100
AcDbText
 10
274.6432844803785
 20
-224.0571428571429
 30
0.0
 40
64.0
  1
300
 50
90.0
 41
0.9
100
AcDbText
  0
ENDBLK
  5
1F37
330
29E6
100
AcDbEntity
  8
0
100
AcDbBlockEnd
  0
BLOCK
  5
29E9
330
29E8
100
AcDbEntity
  8
0
100
AcDbBlockBegin
  2
*D55
 70
     1
 10
0.0
 20
0.0
 30
0.0
  3
*D55
  1

  0
LINE
  5
1D95
330
29E8
100
AcDbEntity
  8
SIZE
 62
     0
100
AcDbLine
 10
-140.0
 20
32.46448280219375
 30
0.0
 11
-140.0
 21
136.4516878685508
 31
0.0
  0
LINE
  5
1D96
330
29E8
100
AcDbEntity
  8
SIZE
 62
     0
100
AcDbLine
 10
140.0
 20
32.46448280219375
 30
0.0
 11
140.0
 21
136.4516878685508
 31
0.0
  0
LINE
  5
1D97
330
29E8
100
AcDbEntity
  8
SIZE
 62
     0
100
AcDbLine
 10
-128.0
 20
116.4516878685508
 30
0.0
 11
128.0
 21
116.4516878685508
 31
0.0
  0
INSERT
  5
1D98
330
29E8
100
AcDbEntity
  8
SIZE
 62
     0
100
AcDbBlockReference
  2
_DOTBLANK
 10
-140.0
 20
116.4516878685508
 30
0.0
 41
12.0
 42
12.0
 43
12.0
 50
180.0
  0
INSERT
  5
1D99
330
29E8
100
AcDbEntity
  8
SIZE
 62
     0
100
AcDbBlockReference
  2
_DOTBLANK
 10
140.0
 20
116.4516878685508
 30
0.0
 41
12.0
 42
12.0
 43
12.0
  0
INSERT
  5
1D9A
330
29E8
100
AcDbEntity
  8
0
100
AcDbBlockReference
  2
*U56
 10
0.0
 20
0.0
 30
0.0
  0
POINT
  5
1D9B
330
29E8
100
AcDbEntity
  8
DEFPOINTS
 62
     0
100
AcDbPoint
 10
-140.0
 20
12.46448280219374
 30
0.0
  0
POINT
  5
1D9C
330
29E8
100
AcDbEntity
  8
DEFPOINTS
 62
     0
100
AcDbPoint
 10
140.0
 20
12.46448280219374
 30
0.0
  0
POINT
  5
1D9D
330
29E8
100
AcDbEntity
  8
DEFPOINTS
 62
     0
100
AcDbPoint
 10
140.0
 20
116.4516878685508
 30
0.0
  0
ENDBLK
  5
1755
330
29E8
100
AcDbEntity
  8
0
100
AcDbBlockEnd
  0
BLOCK
  5
29EB
330
29EA
100
AcDbEntity
  8
0
100
AcDbBlockBegin
  2
*U56
 70
     1
 10
0.0
 20
0.0
 30
0.0
  3
*U56
  1

  0
TEXT
  5
1F39
330
29EA
100
AcDbEntity
  8
SIZE
 62
     0
100
AcDbText
 10
-74.05714285714283
 20
126.4516878685508
 30
0.0
 40
64.0
  1
280
 41
0.9
100
AcDbText
  0
ENDBLK
  5
1F3B
330
29EA
100
AcDbEntity
  8
0
100
AcDbBlockEnd
  0
BLOCK
  5
29ED
330
29EC
100
AcDbEntity
  8
0
100
AcDbBlockBegin
  2
*D57
 70
     1
 10
0.0
 20
0.0
 30
0.0
  3
*D57
  1

  0
LINE
  5
1D9E
330
29EC
100
AcDbEntity
  8
SIZE
 62
     0
100
AcDbLine
 10
-157.5
 20
20.0
 30
0.0
 11
-157.5
 21
245.5794621189598
 31
0.0
  0
LINE
  5
1D9F
330
29EC
100
AcDbEntity
  8
SIZE
 62
     0
100
AcDbLine
 10
157.5
 20
20.0
 30
0.0
 11
157.5
 21
245.5794621189598
 31
0.0
  0
LINE
  5
1DA0
330
29EC
100
AcDbEntity
  8
SIZE
 62
     0
100
AcDbLine
 10
-145.5
 20
225.5794621189598
 30
0.0
 11
145.5
 21
225.5794621189598
 31
0.0
  0
INSERT
  5
1DA1
330
29EC
100
AcDbEntity
  8
SIZE
 62
     0
100
AcDbBlockReference
  2
_DOTBLANK
 10
-157.5
 20
225.5794621189598
 30
0.0
 41
12.0
 42
12.0
 43
12.0
 50
180.0
  0
INSERT
  5
1DA2
330
29EC
100
AcDbEntity
  8
SIZE
 62
     0
100
AcDbBlockReference
  2
_DOTBLANK
 10
157.5
 20
225.5794621189598
 30
0.0
 41
12.0
 42
12.0
 43
12.0
  0
INSERT
  5
1DA3
330
29EC
100
AcDbEntity
  8
0
100
AcDbBlockReference
  2
*U58
 10
0.0
 20
0.0
 30
0.0
  0
POINT
  5
1DA4
330
29EC
100
AcDbEntity
  8
DEFPOINTS
 62
     0
100
AcDbPoint
 10
-157.5
 20
0.0
 30
0.0
  0
POINT
  5
1DA5
330
29EC
100
AcDbEntity
  8
DEFPOINTS
 62
     0
100
AcDbPoint
 10
157.5
 20
0.0
 30
0.0
  0
POINT
  5
1DA6
330
29EC
100
AcDbEntity
  8
DEFPOINTS
 62
     0
100
AcDbPoint
 10
157.5
 20
225.5794621189598
 30
0.0
  0
ENDBLK
  5
1761
330
29EC
100
AcDbEntity
  8
0
100
AcDbBlockEnd
  0
BLOCK
  5
29EF
330
29EE
100
AcDbEntity
  8
0
100
AcDbBlockBegin
  2
*U58
 70
     1
 10
0.0
 20
0.0
 30
0.0
  3
*U58
  1

  0
TEXT
  5
1F3D
330
29EE
100
AcDbEntity
  8
SIZE
 62
     0
100
AcDbText
 10
-68.57142857142857
 20
235.5794621189599
 30
0.0
 40
64.0
  1
315
 41
0.9
100
AcDbText
  0
ENDBLK
  5
1F3F
330
29EE
100
AcDbEntity
  8
0
100
AcDbBlockEnd
  0
BLOCK
  5
29F1
330
29F0
100
AcDbEntity
  8
0
100
AcDbBlockBegin
  2
*D59
 70
     1
 10
0.0
 20
0.0
 30
0.0
  3
*D59
  1

  0
LINE
  5
1DA7
330
29F0
100
AcDbEntity
  8
SIZE
 62
     0
100
AcDbLine
 10
-177.5
 20
0.0000000000000057
 30
0.0
 11
-314.0264221186908
 21
0.0000000000000443
 31
0.0
  0
LINE
  5
1DA8
330
29F0
100
AcDbEntity
  8
SIZE
 62
     0
100
AcDbLine
 10
-177.5
 20
-7.999999999999992
 30
0.0
 11
-314.0264221186908
 21
-7.999999999999957
 31
0.0
  0
LINE
  5
1DA9
330
29F0
100
AcDbEntity
  8
SIZE
 62
     0
100
AcDbLine
 10
-294.0264221186908
 20
12.00000000000003
 30
0.0
 11
-294.0264221186908
 21
24.00000000000004
 31
0.0
  0
LINE
  5
1DAA
330
29F0
100
AcDbEntity
  8
SIZE
 62
     0
100
AcDbLine
 10
-294.0264221186908
 20
-19.99999999999996
 30
0.0
 11
-294.0264221186908
 21
-90.39999999999997
 31
0.0
  0
INSERT
  5
1DAB
330
29F0
100
AcDbEntity
  8
SIZE
 62
     0
100
AcDbBlockReference
  2
_DOTBLANK
 10
-294.0264221186908
 20
0.0000000000000387
 30
0.0
 41
12.0
 42
12.0
 43
12.0
 50
270.0
  0
INSERT
  5
1DAC
330
29F0
100
AcDbEntity
  8
SIZE
 62
     0
100
AcDbBlockReference
  2
_DOTBLANK
 10
-294.0264221186908
 20
-7.99999999999996
 30
0.0
 41
12.0
 42
12.0
 43
12.0
 50
90.0
  0
INSERT
  5
1DAD
330
29F0
100
AcDbEntity
  8
0
100
AcDbBlockReference
  2
*U60
 10
0.0
 20
0.0
 30
0.0
  0
POINT
  5
1DAE
330
29F0
100
AcDbEntity
  8
DEFPOINTS
 62
     0
100
AcDbPoint
 10
-157.5
 20
0.0
 30
0.0
  0
POINT
  5
1DAF
330
29F0
100
AcDbEntity
  8
DEFPOINTS
 62
     0
100
AcDbPoint
 10
-157.5
 20
-8.000000000000001
 30
0.0
  0
POINT
  5
1DB0
330
29F0
100
AcDbEntity
  8
DEFPOINTS
 62
     0
100
AcDbPoint
 10
-294.0264221186908
 20
-7.99999999999996
 30
0.0
  0
ENDBLK
  5
176D
330
29F0
100
AcDbEntity
  8
0
100
AcDbBlockEnd
  0
BLOCK
  5
29F3
330
29F2
100
AcDbEntity
  8
0
100
AcDbBlockBegin
  2
*U60
 70
     1
 10
0.0
 20
0.0
 30
0.0
  3
*U60
  1

  0
TEXT
  5
1F41
330
29F2
100
AcDbEntity
  8
SIZE
 62
     0
100
AcDbText
 10
-304.0264221186908
 20
-80.4
 30
0.0
 40
64.0
  1
8
 50
90.0
 41
0.9
100
AcDbText
  0
ENDBLK
  5
1F43
330
29F2
100
AcDbEntity
  8
0
100
AcDbBlockEnd
  0
BLOCK
  5
29F5
330
29F4
100
AcDbEntity
  8
0
100
AcDbBlockBegin
  2
*D61
 70
     1
 10
0.0
 20
0.0
 30
0.0
  3
*D61
  1

  0
LINE
  5
1DB1
330
29F4
100
AcDbEntity
  8
SIZE
 62
     0
100
AcDbLine
 10
154.5
 20
-300.0
 30
0.0
 11
304.6432844803785
 21
-300.0
 31
0.0
  0
LINE
  5
1DB2
330
29F4
100
AcDbEntity
  8
SIZE
 62
     0
100
AcDbLine
 10
143.5
 20
-312.0
 30
0.0
 11
304.6432844803785
 21
-312.0
 31
0.0
  0
LINE
  5
1DB3
330
29F4
100
AcDbEntity
  8
SIZE
 62
     0
100
AcDbLine
 10
284.6432844803785
 20
-288.0
 30
0.0
 11
284.6432844803785
 21
-276.0
 31
0.0
  0
LINE
  5
1DB4
330
29F4
100
AcDbEntity
  8
SIZE
 62
     0
100
AcDbLine
 10
284.6432844803785
 20
-324.0000000000001
 30
0.0
 11
284.6432844803784
 21
-438.2857142857143
 31
0.0
  0
INSERT
  5
1DB5
330
29F4
100
AcDbEntity
  8
SIZE
 62
     0
100
AcDbBlockReference
  2
_DOTBLANK
 10
284.6432844803785
 20
-300.0
 30
0.0
 41
12.0
 42
12.0
 43
12.0
 50
270.0
  0
INSERT
  5
1DB6
330
29F4
100
AcDbEntity
  8
SIZE
 62
     0
100
AcDbBlockReference
  2
_DOTBLANK
 10
284.6432844803785
 20
-312.0
 30
0.0
 41
12.0
 42
12.0
 43
12.0
 50
90.0
  0
INSERT
  5
1DB7
330
29F4
100
AcDbEntity
  8
0
100
AcDbBlockReference
  2
*U62
 10
0.0
 20
0.0
 30
0.0
  0
POINT
  5
1DB8
330
29F4
100
AcDbEntity
  8
DEFPOINTS
 62
     0
100
AcDbPoint
 10
134.5
 20
-300.0
 30
0.0
  0
POINT
  5
1DB9
330
29F4
100
AcDbEntity
  8
DEFPOINTS
 62
     0
100
AcDbPoint
 10
123.5
 20
-312.0
 30
0.0
  0
POINT
  5
1DBA
330
29F4
100
AcDbEntity
  8
DEFPOINTS
 62
     0
100
AcDbPoint
 10
284.6432844803785
 20
-312.0
 30
0.0
  0
ENDBLK
  5
177B
330
29F4
100
AcDbEntity
  8
0
100
AcDbBlockEnd
  0
BLOCK
  5
29F7
330
29F6
100
AcDbEntity
  8
0
100
AcDbBlockBegin
  2
*U62
 70
     1
 10
0.0
 20
0.0
 30
0.0
  3
*U62
  1

  0
TEXT
  5
1F45
330
29F6
100
AcDbEntity
  8
SIZE
 62
     0
100
AcDbText
 10
274.6432844803785
 20
-428.2857142857142
 30
0.0
 40
64.0
  1
12
 50
90.0
 41
0.9
100
AcDbText
  0
ENDBLK
  5
1F47
330
29F6
100
AcDbEntity
  8
0
100
AcDbBlockEnd
  0
BLOCK
  5
29F9
330
29F8
100
AcDbEntity
  8
0
100
AcDbBlockBegin
  2
*U63
 70
     1
 10
0.0
 20
0.0
 30
0.0
  3
*U63
  1

  0
ENDBLK
  5
1D57
330
29F8
100
AcDbEntity
  8
0
100
AcDbBlockEnd
  0
BLOCK
  5
29FB
330
29FA
100
AcDbEntity
  8
0
100
AcDbBlockBegin
  2
*U64
 70
     1
 10
0.0
 20
0.0
 30
0.0
  3
*U64
  1

  0
INSERT
  5
2087
330
29FA
100
AcDbEntity
  8
NOTE
100
AcDbBlockReference
  2
_OPEN30
 10
-217.0
 20
0.0
 30
0.0
 41
12.0
 42
12.0
 43
12.0
 50
312.6090116116894
  0
POLYLINE
  5
2088
330
29FA
100
AcDbEntity
  8
NOTE
100
AcDb2dPolyline
 66
     1
 10
0.0
 20
0.0
 30
0.0
  0
VERTEX
  5
289C
330
2088
100
AcDbEntity
  8
NOTE
100
AcDbVertex
100
AcDb2dVertex
 10
-225.1239008361896
 20
8.831887408915473
 30
0.0
  0
VERTEX
  5
289D
330
2088
100
AcDbEntity
  8
NOTE
100
AcDbVertex
100
AcDb2dVertex
 10
-304.8693999922543
 20
95.5270950580134
 30
0.0
  0
VERTEX
  5
289E
330
2088
100
AcDbEntity
  8
NOTE
100
AcDbVertex
100
AcDb2dVertex
 10
-853.4522571351114
 20
95.5270950580134
 30
0.0
  0
SEQEND
  5
289F
330
2088
100
AcDbEntity
  8
NOTE
  0
ENDBLK
  5
2089
330
29FA
100
AcDbEntity
  8
0
100
AcDbBlockEnd
  0
BLOCK
  5
29FD
330
29FC
100
AcDbEntity
  8
0
100
AcDbBlockBegin
  2
*U65
 70
     1
 10
0.0
 20
0.0
 30
0.0
  3
*U65
  1

  0
TEXT
  5
208C
330
29FC
100
AcDbEntity
  8
NOTE
100
AcDbText
 10
-850.7093999922542
 20
113.5270950580134
 30
0.0
 40
64.0
  1
4×φ15取付穴
 41
0.9
100
AcDbText
  0
ENDBLK
  5
208D
330
29FC
100
AcDbEntity
  8
0
100
AcDbBlockEnd
  0
BLOCK
  5
29FF
330
29FE
100
AcDbEntity
  8
0
100
AcDbBlockBegin
  2
*U66
 70
     1
 10
0.0
 20
0.0
 30
0.0
  3
*U66
  1

  0
INSERT
  5
215D
330
29FE
100
AcDbEntity
  8
NOTE
100
AcDbBlockReference
  2
_OPEN30
 10
217.0
 20
217.0
 30
0.0
 41
12.0
 42
12.0
 43
12.0
 50
230.7091310502217
  0
POLYLINE
  5
215E
330
29FE
100
AcDbEntity
  8
NOTE
100
AcDb2dPolyline
 66
     1
 10
0.0
 20
0.0
 30
0.0
  0
VERTEX
  5
28A0
330
215E
100
AcDbEntity
  8
NOTE
100
AcDbVertex
100
AcDb2dVertex
 10
224.599090480922
 20
226.2872936780722
 30
0.0
  0
VERTEX
  5
28A1
330
215E
100
AcDbEntity
  8
NOTE
100
AcDbVertex
100
AcDb2dVertex
 10
280.4345623698609
 20
294.5270950580134
 30
0.0
  0
VERTEX
  5
28A2
330
215E
100
AcDbEntity
  8
NOTE
100
AcDbVertex
100
AcDb2dVertex
 10
829.0174195127182
 20
294.5270950580134
 30
0.0
  0
SEQEND
  5
28A3
330
215E
100
AcDbEntity
  8
NOTE
  0
ENDBLK
  5
215F
330
29FE
100
AcDbEntity
  8
0
100
AcDbBlockEnd
  0
BLOCK
  5
2A01
330
2A00
100
AcDbEntity
  8
0
100
AcDbBlockBegin
  2
*U67
 70
     1
 10
0.0
 20
0.0
 30
0.0
  3
*U67
  1

  0
TEXT
  5
2162
330
2A00
100
AcDbEntity
  8
NOTE
100
AcDbText
 10
342.4345623698609
 20
312.5270950580134
 30
0.0
 40
64.0
  1
4×φ15取付穴
 41
0.9
100
AcDbText
  0
ENDBLK
  5
2163
330
2A00
100
AcDbEntity
  8
0
100
AcDbBlockEnd
  0
BLOCK
  5
2A03
330
2A02
100
AcDbEntity
  8
0
100
AcDbBlockBegin
  2
*U68
 70
     1
 10
0.0
 20
0.0
 30
0.0
  3
*U68
  1

  0
INSERT
  5
2234
330
2A02
100
AcDbEntity
  8
NOTE
100
AcDbBlockReference
  2
_OPEN30
 10
217.0
 20
216.9999999999995
 30
0.0
 41
12.0
 42
12.0
 43
12.0
 50
232.3258907693334
  0
POLYLINE
  5
2235
330
2A02
100
AcDbEntity
  8
NOTE
100
AcDb2dPolyline
 66
     1
 10
0.0
 20
0.0
 30
0.0
  0
VERTEX
  5
28A4
330
2235
100
AcDbEntity
  8
NOTE
100
AcDbVertex
100
AcDb2dVertex
 10
224.3340332839448
 20
226.4979974620959
 30
0.0
  0
VERTEX
  5
28A5
330
2235
100
AcDbEntity
  8
NOTE
100
AcDbVertex
100
AcDb2dVertex
 10
290.7628007872083
 20
312.527095058012
 30
0.0
  0
VERTEX
  5
28A6
330
2235
100
AcDbEntity
  8
NOTE
100
AcDbVertex
100
AcDb2dVertex
 10
836.6028007872081
 20
312.527095058012
 30
0.0
  0
SEQEND
  5
28A7
330
2235
100
AcDbEntity
  8
NOTE
  0
ENDBLK
  5
2236
330
2A02
100
AcDbEntity
  8
0
100
AcDbBlockEnd
  0
BLOCK
  5
2A05
330
2A04
100
AcDbEntity
  8
0
100
AcDbBlockBegin
  2
*U69
 70
     1
 10
0.0
 20
0.0
 30
0.0
  3
*U69
  1

  0
TEXT
  5
2239
330
2A04
100
AcDbEntity
  8
NOTE
100
AcDbText
 10
352.7628007872081
 20
330.527095058012
 30
0.0
 40
64.0
  1
4×φ15取付穴
 41
0.9
100
AcDbText
  0
ENDBLK
  5
223A
330
2A04
100
AcDbEntity
  8
0
100
AcDbBlockEnd
  0
BLOCK
  5
2A07
330
2A06
100
AcDbEntity
  8
0
100
AcDbBlockBegin
  2
*U70
 70
     1
 10
0.0
 20
0.0
 30
0.0
  3
*U70
  1

  0
INSERT
  5
2327
330
2A06
100
AcDbEntity
  8
NOTE
100
AcDbBlockReference
  2
_OPEN30
 10
0.0
 20
217.0
 30
0.0
 41
12.0
 42
12.0
 43
12.0
 50
312.6090116116895
  0
POLYLINE
  5
2328
330
2A06
100
AcDbEntity
  8
NOTE
100
AcDb2dPolyline
 66
     1
 10
0.0
 20
0.0
 30
0.0
  0
VERTEX
  5
28A8
330
2328
100
AcDbEntity
  8
NOTE
100
AcDbVertex
100
AcDb2dVertex
 10
-8.123900836189513
 20
225.8318874089155
 30
0.0
  0
VERTEX
  5
28A9
330
2328
100
AcDbEntity
  8
NOTE
100
AcDbVertex
100
AcDb2dVertex
 10
-87.86939999225436
 20
312.527095058013
 30
0.0
  0
VERTEX
  5
28AA
330
2328
100
AcDbEntity
  8
NOTE
100
AcDbVertex
100
AcDb2dVertex
 10
-633.7093999922545
 20
312.527095058013
 30
0.0
  0
SEQEND
  5
28AB
330
2328
100
AcDbEntity
  8
NOTE
  0
ENDBLK
  5
2329
330
2A06
100
AcDbEntity
  8
0
100
AcDbBlockEnd
  0
BLOCK
  5
2A09
330
2A08
100
AcDbEntity
  8
0
100
AcDbBlockBegin
  2
*U71
 70
     1
 10
0.0
 20
0.0
 30
0.0
  3
*U71
  1

  0
TEXT
  5
232C
330
2A08
100
AcDbEntity
  8
NOTE
100
AcDbText
 10
-633.7093999922545
 20
330.5270950580129
 30
0.0
 40
64.0
  1
4×φ15取付穴
 41
0.9
100
AcDbText
  0
ENDBLK
  5
232D
330
2A08
100
AcDbEntity
  8
0
100
AcDbBlockEnd
  0
BLOCK
  5
2A0B
330
2A0A
100
AcDbEntity
  8
0
100
AcDbBlockBegin
  2
*U72
 70
     1
 10
0.0
 20
0.0
 30
0.0
  3
*U72
  1

  0
INSERT
  5
2454
330
2A0A
100
AcDbEntity
  8
NOTE
100
AcDbBlockReference
  2
_OPEN30
 10
0.0
 20
217.0
 30
0.0
 41
12.0
 42
12.0
 43
12.0
 50
227.3909883883105
  0
POLYLINE
  5
2455
330
2A0A
100
AcDbEntity
  8
NOTE
100
AcDb2dPolyline
 66
     1
 10
0.0
 20
0.0
 30
0.0
  0
VERTEX
  5
28AC
330
2455
100
AcDbEntity
  8
NOTE
100
AcDbVertex
100
AcDb2dVertex
 10
8.123900836189513
 20
225.8318874089155
 30
0.0
  0
VERTEX
  5
28AD
330
2455
100
AcDbEntity
  8
NOTE
100
AcDbVertex
100
AcDb2dVertex
 10
87.86939999225436
 20
312.527095058013
 30
0.0
  0
VERTEX
  5
28AE
330
2455
100
AcDbEntity
  8
NOTE
100
AcDbVertex
100
AcDb2dVertex
 10
633.7093999922545
 20
312.527095058013
 30
0.0
  0
SEQEND
  5
28AF
330
2455
100
AcDbEntity
  8
NOTE
  0
ENDBLK
  5
2456
330
2A0A
100
AcDbEntity
  8
0
100
AcDbBlockEnd
  0
BLOCK
  5
2A0D
330
2A0C
100
AcDbEntity
  8
0
100
AcDbBlockBegin
  2
*U73
 70
     1
 10
0.0
 20
0.0
 30
0.0
  3
*U73
  1

  0
TEXT
  5
2459
330
2A0C
100
AcDbEntity
  8
NOTE
100
AcDbText
 10
149.8693999922543
 20
330.5270950580129
 30
0.0
 40
64.0
  1
4×φ15取付穴
 41
0.9
100
AcDbText
  0
ENDBLK
  5
245A
330
2A0C
100
AcDbEntity
  8
0
100
AcDbBlockEnd
  0
BLOCK
  5
2A0F
330
2A0E
100
AcDbEntity
  8
0
100
AcDbBlockBegin
  2
*U74
 70
     1
 10
0.0
 20
0.0
 30
0.0
  3
*U74
  1

  0
INSERT
  5
2585
330
2A0E
100
AcDbEntity
  8
NOTE
100
AcDbBlockReference
  2
_OPEN30
 10
-217.0
 20
0.0
 30
0.0
 41
12.0
 42
12.0
 43
12.0
 50
312.6090116116894
  0
POLYLINE
  5
2586
330
2A0E
100
AcDbEntity
  8
NOTE
100
AcDb2dPolyline
 66
     1
 10
0.0
 20
0.0
 30
0.0
  0
VERTEX
  5
28B0
330
2586
100
AcDbEntity
  8
NOTE
100
AcDbVertex
100
AcDb2dVertex
 10
-225.1239008361896
 20
8.831887408915473
 30
0.0
  0
VERTEX
  5
28B1
330
2586
100
AcDbEntity
  8
NOTE
100
AcDbVertex
100
AcDb2dVertex
 10
-304.8693999922543
 20
95.52709505801338
 30
0.0
  0
VERTEX
  5
28B2
330
2586
100
AcDbEntity
  8
NOTE
100
AcDbVertex
100
AcDb2dVertex
 10
-850.7093999922542
 20
95.52709505801338
 30
0.0
  0
SEQEND
  5
28B3
330
2586
100
AcDbEntity
  8
NOTE
  0
ENDBLK
  5
2587
330
2A0E
100
AcDbEntity
  8
0
100
AcDbBlockEnd
  0
BLOCK
  5
2A11
330
2A10
100
AcDbEntity
  8
0
100
AcDbBlockBegin
  2
*U75
 70
     1
 10
0.0
 20
0.0
 30
0.0
  3
*U75
  1

  0
TEXT
  5
258A
330
2A10
100
AcDbEntity
  8
NOTE
100
AcDbText
 10
-850.7093999922542
 20
113.5270950580134
 30
0.0
 40
64.0
  1
4×φ15取付穴
 41
0.9
100
AcDbText
  0
ENDBLK
  5
258B
330
2A10
100
AcDbEntity
  8
0
100
AcDbBlockEnd
  0
BLOCK
  5
2A13
330
2A12
100
AcDbEntity
  8
0
100
AcDbBlockBegin
  2
*X76
 70
     1
 10
0.0
 20
0.0
 30
0.0
  3
*X76
  1

  0
LINE
  5
258E
330
2A12
100
AcDbEntity
  8
0
 62
     0
100
AcDbLine
 10
-187.4000000000068
 20
-429.3515859460002
 30
0.0
 11
-176.798324895808
 21
-434.4000000000014
 31
0.0
  0
LINE
  5
258F
330
2A12
100
AcDbEntity
  8
0
 62
     0
100
AcDbLine
 10
-187.4000000000068
 20
-419.3516342018665
 30
0.0
 11
-155.7984151588152
 21
-434.4000000000033
 31
0.0
  0
LINE
  5
2590
330
2A12
100
AcDbEntity
  8
0
 62
     0
100
AcDbLine
 10
-187.4000000000068
 20
-409.3516824577326
 30
0.0
 11
-134.7985054218243
 21
-434.4000000000033
 31
0.0
  0
LINE
  5
2591
330
2A12
100
AcDbEntity
  8
0
 62
     0
100
AcDbLine
 10
-187.4000000000068
 20
-399.3517307135972
 30
0.0
 11
-113.7985956848333
 21
-434.4000000000033
 31
0.0
  0
LINE
  5
2592
330
2A12
100
AcDbEntity
  8
0
 62
     0
100
AcDbLine
 10
-187.4000000000051
 20
-389.3517789694633
 30
0.0
 11
-92.79868594784238
 21
-434.4000000000033
 31
0.0
  0
LINE
  5
2593
330
2A12
100
AcDbEntity
  8
0
 62
     0
100
AcDbLine
 10
-187.4000000000068
 20
-379.3518272253276
 30
0.0
 11
-71.79877621085144
 21
-434.4000000000033
 31
0.0
  0
LINE
  5
2594
330
2A12
100
AcDbEntity
  8
0
 62
     0
100
AcDbLine
 10
-187.4000000000051
 20
-369.3518754811957
 30
0.0
 11
-50.79886647386409
 21
-434.4000000000033
 31
0.0
  0
LINE
  5
2595
330
2A12
100
AcDbEntity
  8
0
 62
     0
100
AcDbLine
 10
-187.4000000000068
 20
-359.3519237370601
 30
0.0
 11
-29.79895673687133
 21
-434.4000000000033
 31
0.0
  0
LINE
  5
2596
330
2A12
100
AcDbEntity
  8
0
 62
     0
100
AcDbLine
 10
-187.4000000000087
 20
-349.3519719929253
 30
0.0
 11
-8.799046999885828
 21
-434.4000000000014
 31
0.0
  0
LINE
  5
2597
330
2A12
100
AcDbEntity
  8
0
 62
     0
100
AcDbLine
 10
-187.4000000000068
 20
-339.3520202487907
 30
0.0
 11
12.20086273710694
 21
-434.4000000000014
 31
0.0
  0
LINE
  5
2598
330
2A12
100
AcDbEntity
  8
0
 62
     0
100
AcDbLine
 10
-187.4000000000068
 20
-329.352068504656
 30
0.0
 11
33.2007724740979
 21
-434.4000000000014
 31
0.0
  0
LINE
  5
2599
330
2A12
100
AcDbEntity
  8
0
 62
     0
100
AcDbLine
 10
-187.4000000000068
 20
-319.3521167605222
 30
0.0
 11
54.20068221108886
 21
-434.4000000000005
 31
0.0
  0
LINE
  5
259A
330
2A12
100
AcDbEntity
  8
0
 62
     0
100
AcDbLine
 10
-187.4000000000068
 20
-309.3521650163884
 30
0.0
 11
75.20059194807982
 21
-434.4000000000023
 31
0.0
  0
LINE
  5
259B
330
2A12
100
AcDbEntity
  8
0
 62
     0
100
AcDbLine
 10
-187.4000000000051
 20
-299.3522132722546
 30
0.0
 11
96.2005016850726
 21
-434.4000000000023
 31
0.0
  0
LINE
  5
259C
330
2A12
100
AcDbEntity
  8
0
 62
     0
100
AcDbLine
 10
-187.4000000000087
 20
-289.3522615281191
 30
0.0
 11
117.2004114220617
 21
-434.4000000000023
 31
0.0
  0
LINE
  5
259D
330
2A12
100
AcDbEntity
  8
0
 62
     0
100
AcDbLine
 10
-187.4000000000068
 20
-279.3523097839834
 30
0.0
 11
138.2003211590545
 21
-434.4000000000023
 31
0.0
  0
LINE
  5
259E
330
2A12
100
AcDbEntity
  8
0
 62
     0
100
AcDbLine
 10
-187.4000000000105
 20
-269.3523580398477
 30
0.0
 11
159.2002308960454
 21
-434.4000000000023
 31
0.0
  0
LINE
  5
259F
330
2A12
100
AcDbEntity
  8
0
 62
     0
100
AcDbLine
 10
-187.4000000000124
 20
-259.352406295714
 30
0.0
 11
180.2001406330346
 21
-434.4000000000042
 31
0.0
  0
LINE
  5
25A0
330
2A12
100
AcDbEntity
  8
0
 62
     0
100
AcDbLine
 10
-187.4000000000087
 20
-249.3524545515802
 30
0.0
 11
187.3999999999923
 21
-427.8285509083016
 31
0.0
  0
LINE
  5
25A1
330
2A12
100
AcDbEntity
  8
0
 62
     0
100
AcDbLine
 10
-187.4000000000105
 20
-239.3525028074446
 30
0.0
 11
187.3999999999942
 21
-417.8285991641677
 31
0.0
  0
LINE
  5
25A2
330
2A12
100
AcDbEntity
  8
0
 62
     0
100
AcDbLine
 10
-28.40000000000873
 20
-305.0667968496464
 30
0.0
 11
-19.30026858551719
 21
-309.4000000000024
 31
0.0
  0
LINE
  5
25A3
330
2A12
100
AcDbEntity
  8
0
 62
     0
100
AcDbLine
 10
-19.30026858551719
 20
-309.4000000000024
 30
0.0
 11
187.3999999999923
 21
-407.8286474200321
 31
0.0
  0
LINE
  5
25A4
330
2A12
100
AcDbEntity
  8
0
 62
     0
100
AcDbLine
 10
-187.4000000000087
 20
-229.3525510633108
 30
0.0
 11
-28.40000000000873
 21
-305.0667968496464
 31
0.0
  0
LINE
  5
25A5
330
2A12
100
AcDbEntity
  8
0
 62
     0
100
AcDbLine
 10
-28.40000000000873
 20
-295.0668451055108
 30
0.0
 11
1.699641151471949
 21
-309.4000000000006
 31
0.0
  0
LINE
  5
25A6
330
2A12
100
AcDbEntity
  8
0
 62
     0
100
AcDbLine
 10
1.699641151471949
 20
-309.4000000000006
 30
0.0
 11
187.399999999996
 21
-397.8286956758984
 31
0.0
  0
LINE
  5
25A7
330
2A12
100
AcDbEntity
  8
0
 62
     0
100
AcDbLine
 10
-187.4000000000105
 20
-219.3525993191752
 30
0.0
 11
-28.40000000000873
 21
-295.0668451055108
 31
0.0
  0
LINE
  5
25A8
330
2A12
100
AcDbEntity
  8
0
 62
     0
100
AcDbLine
 10
-28.40000000000873
 20
-285.0668933613789
 30
0.0
 11
22.69955088846109
 21
-309.4000000000024
 31
0.0
  0
LINE
  5
25A9
330
2A12
100
AcDbEntity
  8
0
 62
     0
100
AcDbLine
 10
22.69955088846109
 20
-309.4000000000024
 30
0.0
 11
187.3999999999923
 21
-387.8287439317646
 31
0.0
  0
LINE
  5
25AA
330
2A12
100
AcDbEntity
  8
0
 62
     0
100
AcDbLine
 10
-187.4000000000124
 20
-209.3526475750423
 30
0.0
 11
-28.40000000000873
 21
-285.0668933613789
 31
0.0
  0
LINE
  5
25AB
330
2A12
100
AcDbEntity
  8
0
 62
     0
100
AcDbLine
 10
-28.40000000001055
 20
-275.0669416172441
 30
0.0
 11
43.69946062545387
 21
-309.4000000000014
 31
0.0
  0
LINE
  5
25AC
330
2A12
100
AcDbEntity
  8
0
 62
     0
100
AcDbLine
 10
43.69946062545387
 20
-309.4000000000014
 30
0.0
 11
187.3999999999942
 21
-377.8287921876308
 31
0.0
  0
LINE
  5
25AD
330
2A12
100
AcDbEntity
  8
0
 62
     0
100
AcDbLine
 10
-187.4000000000105
 20
-199.3526958309074
 30
0.0
 11
-28.40000000001055
 21
-275.0669416172441
 31
0.0
  0
LINE
  5
25AE
330
2A12
100
AcDbEntity
  8
0
 62
     0
100
AcDbLine
 10
-28.40000000000691
 20
-265.0669898731094
 30
0.0
 11
64.69937036244482
 21
-309.4000000000014
 31
0.0
  0
LINE
  5
25AF
330
2A12
100
AcDbEntity
  8
0
 62
     0
100
AcDbLine
 10
64.69937036244482
 20
-309.4000000000014
 30
0.0
 11
187.3999999999942
 21
-367.8288404434951
 31
0.0
  0
LINE
  5
25B0
330
2A12
100
AcDbEntity
  8
0
 62
     0
100
AcDbLine
 10
-187.4000000000105
 20
-189.3527440867728
 30
0.0
 11
-28.40000000000691
 21
-265.0669898731094
 31
0.0
  0
LINE
  5
25B1
330
2A12
100
AcDbEntity
  8
0
 62
     0
100
AcDbLine
 10
-28.40000000000691
 20
-255.0670381289756
 30
0.0
 11
85.69928009943579
 21
-309.4000000000014
 31
0.0
  0
LINE
  5
25B2
330
2A12
100
AcDbEntity
  8
0
 62
     0
100
AcDbLine
 10
85.69928009943579
 20
-309.4000000000014
 30
0.0
 11
187.3999999999942
 21
-357.8288886993614
 31
0.0
  0
LINE
  5
25B3
330
2A12
100
AcDbEntity
  8
0
 62
     0
100
AcDbLine
 10
-187.4000000000105
 20
-179.3527923426391
 30
0.0
 11
-28.40000000001055
 21
-255.0670381289747
 31
0.0
  0
LINE
  5
25B4
330
2A12
100
AcDbEntity
  8
0
 62
     0
100
AcDbLine
 10
-28.40000000000511
 20
-245.0670863848418
 30
0.0
 11
106.6991898364267
 21
-309.4000000000014
 31
0.0
  0
LINE
  5
25B5
330
2A12
100
AcDbEntity
  8
0
 62
     0
100
AcDbLine
 10
106.6991898364267
 20
-309.4000000000014
 30
0.0
 11
187.3999999999942
 21
-347.8289369552259
 31
0.0
  0
LINE
  5
25B6
330
2A12
100
AcDbEntity
  8
0
 62
     0
100
AcDbLine
 10
-187.4000000000124
 20
-169.3528405985034
 30
0.0
 11
-28.40000000000691
 21
-245.06708638484
 31
0.0
  0
LINE
  5
25B7
330
2A12
100
AcDbEntity
  8
0
 62
     0
100
AcDbLine
 10
-28.40000000000511
 20
-235.0671346407062
 30
0.0
 11
127.6990995734195
 21
-309.4000000000014
 31
0.0
  0
LINE
  5
25B8
330
2A12
100
AcDbEntity
  8
0
 62
     0
100
AcDbLine
 10
127.6990995734195
 20
-309.4000000000014
 30
0.0
 11
187.3999999999923
 21
-337.8289852110902
 31
0.0
  0
LINE
  5
25B9
330
2A12
100
AcDbEntity
  8
0
 62
     0
100
AcDbLine
 10
-187.4000000000087
 20
-159.3528888543696
 30
0.0
 11
-28.40000000000873
 21
-235.0671346407052
 31
0.0
  0
LINE
  5
25BA
330
2A12
100
AcDbEntity
  8
0
 62
     0
100
AcDbLine
 10
-28.40000000000511
 20
-225.0671828965742
 30
0.0
 11
148.699009310405
 21
-309.4000000000014
 31
0.0
  0
LINE
  5
25BB
330
2A12
100
AcDbEntity
  8
0
 62
     0
100
AcDbLine
 10
148.699009310405
 20
-309.4000000000014
 30
0.0
 11
187.3999999999923
 21
-327.8290334669582
 31
0.0
  0
LINE
  5
25BC
330
2A12
100
AcDbEntity
  8
0
 62
     0
100
AcDbLine
 10
-187.4000000000124
 20
-149.3529371102358
 30
0.0
 11
-28.40000000000873
 21
-225.0671828965733
 31
0.0
  0
LINE
  5
25BD
330
2A12
100
AcDbEntity
  8
0
 62
     0
100
AcDbLine
 10
-28.40000000000511
 20
-215.0672311524386
 30
0.0
 11
169.6989190473978
 21
-309.4000000000014
 31
0.0
  0
LINE
  5
25BE
330
2A12
100
AcDbEntity
  8
0
 62
     0
100
AcDbLine
 10
169.6989190473978
 20
-309.4000000000014
 30
0.0
 11
187.3999999999923
 21
-317.8290817228226
 31
0.0
  0
LINE
  5
25BF
330
2A12
100
AcDbEntity
  8
0
 62
     0
100
AcDbLine
 10
-187.4000000000087
 20
-139.3529853661021
 30
0.0
 11
-28.40000000000873
 21
-215.0672311524377
 31
0.0
  0
LINE
  5
25C0
330
2A12
100
AcDbEntity
  8
0
 62
     0
100
AcDbLine
 10
-28.40000000000328
 20
-205.0672794083048
 30
0.0
 11
187.3999999999942
 21
-307.8291299786888
 31
0.0
  0
LINE
  5
25C1
330
2A12
100
AcDbEntity
  8
0
 62
     0
100
AcDbLine
 10
-187.4000000000105
 20
-129.3530336219664
 30
0.0
 11
-28.40000000000328
 21
-205.0672794083048
 31
0.0
  0
LINE
  5
25C2
330
2A12
100
AcDbEntity
  8
0
 62
     0
100
AcDbLine
 10
-28.40000000000691
 20
-195.0673276641691
 30
0.0
 11
187.3999999999923
 21
-297.8291782345532
 31
0.0
  0
LINE
  5
25C3
330
2A12
100
AcDbEntity
  8
0
 62
     0
100
AcDbLine
 10
-187.4000000000124
 20
-119.3530818778308
 30
0.0
 11
-28.40000000000691
 21
-195.0673276641691
 31
0.0
  0
LINE
  5
25C4
330
2A12
100
AcDbEntity
  8
0
 62
     0
100
AcDbLine
 10
-28.40000000000145
 20
-185.0673759200351
 30
0.0
 11
187.399999999996
 21
-287.8292264904194
 31
0.0
  0
LINE
  5
25C5
330
2A12
100
AcDbEntity
  8
0
 62
     0
100
AcDbLine
 10
-174.2815663627625
 20
-115.6000000000003
 30
0.0
 11
-28.40000000000145
 21
-185.0673759200351
 31
0.0
  0
LINE
  5
25C6
330
2A12
100
AcDbEntity
  8
0
 62
     0
100
AcDbLine
 10
-28.40000000000511
 20
-175.0674241759025
 30
0.0
 11
187.3999999999923
 21
-277.8292747462856
 31
0.0
  0
LINE
  5
25C7
330
2A12
100
AcDbEntity
  8
0
 62
     0
100
AcDbLine
 10
-153.2816566257734
 20
-115.6000000000022
 30
0.0
 11
-28.40000000000511
 21
-175.0674241759025
 31
0.0
  0
LINE
  5
25C8
330
2A12
100
AcDbEntity
  8
0
 62
     0
100
AcDbLine
 10
-28.40000000000145
 20
-165.0674724317678
 30
0.0
 11
187.399999999996
 21
-267.8293230021518
 31
0.0
  0
LINE
  5
25C9
330
2A12
100
AcDbEntity
  8
0
 62
     0
100
AcDbLine
 10
-132.2817468887806
 20
-115.6000000000022
 30
0.0
 11
-28.40000000000145
 21
-165.0674724317678
 31
0.0
  0
LINE
  5
25CA
330
2A12
100
AcDbEntity
  8
0
 62
     0
100
AcDbLine
 10
-28.39999999999964
 20
-155.067520687634
 30
0.0
 11
187.3999999999942
 21
-257.8293712580162
 31
0.0
  0
LINE
  5
25CB
330
2A12
100
AcDbEntity
  8
0
 62
     0
100
AcDbLine
 10
-111.2818371517896
 20
-115.6000000000013
 30
0.0
 11
-28.40000000000328
 21
-155.0675206876331
 31
0.0
  0
LINE
  5
25CC
330
2A12
100
AcDbEntity
  8
0
 62
     0
100
AcDbLine
 10
-28.40000000000328
 20
-145.0675689434993
 30
0.0
 11
187.3999999999923
 21
-247.8294195138815
 31
0.0
  0
LINE
  5
25CD
330
2A12
100
AcDbEntity
  8
0
 62
     0
100
AcDbLine
 10
-90.2819274147987
 20
-115.6000000000013
 30
0.0
 11
-28.40000000000691
 21
-145.0675689434974
 31
0.0
  0
LINE
  5
25CE
330
2A12
100
AcDbEntity
  8
0
 62
     0
100
AcDbLine
 10
-28.39999999999964
 20
-135.0676171993645
 30
0.0
 11
187.3999999999942
 21
-237.8294677697468
 31
0.0
  0
LINE
  5
25CF
330
2A12
100
AcDbEntity
  8
0
 62
     0
100
AcDbLine
 10
-69.28201767781138
 20
-115.5999999999994
 30
0.0
 11
-28.40000000000328
 21
-135.0676171993635
 31
0.0
  0
LINE
  5
25D0
330
2A12
100
AcDbEntity
  8
0
 62
     0
100
AcDbLine
 10
-28.40000000000145
 20
-125.0676654552298
 30
0.0
 11
187.3999999999942
 21
-227.8295160256121
 31
0.0
  0
LINE
  5
25D1
330
2A12
100
AcDbEntity
  8
0
 62
     0
100
AcDbLine
 10
-48.28210794081861
 20
-115.5999999999994
 30
0.0
 11
-28.40000000000511
 21
-125.067665455228
 31
0.0
  0
LINE
  5
25D2
330
2A12
100
AcDbEntity
  8
0
 62
     0
100
AcDbLine
 10
-27.28219820382583
 20
-115.6000000000031
 30
0.0
 11
187.3999999999942
 21
-217.8295642814801
 31
0.0
  0
LINE
  5
25D3
330
2A12
100
AcDbEntity
  8
0
 62
     0
100
AcDbLine
 10
-6.282288466834867
 20
-115.6000000000031
 30
0.0
 11
187.3999999999904
 21
-207.8296125373427
 31
0.0
  0
LINE
  5
25D4
330
2A12
100
AcDbEntity
  8
0
 62
     0
100
AcDbLine
 10
14.7176212701579
 20
-115.6000000000031
 30
0.0
 11
187.3999999999923
 21
-197.8296607932088
 31
0.0
  0
LINE
  5
25D5
330
2A12
100
AcDbEntity
  8
0
 62
     0
100
AcDbLine
 10
35.71753100714705
 20
-115.6000000000031
 30
0.0
 11
187.3999999999884
 21
-187.8297090490732
 31
0.0
  0
LINE
  5
25D6
330
2A12
100
AcDbEntity
  8
0
 62
     0
100
AcDbLine
 10
56.71744074413982
 20
-115.6000000000022
 30
0.0
 11
187.3999999999884
 21
-177.8297573049376
 31
0.0
  0
LINE
  5
25D7
330
2A12
100
AcDbEntity
  8
0
 62
     0
100
AcDbLine
 10
77.71735048112714
 20
-115.6000000000031
 30
0.0
 11
187.3999999999904
 21
-167.8298055608056
 31
0.0
  0
LINE
  5
25D8
330
2A12
100
AcDbEntity
  8
0
 62
     0
100
AcDbLine
 10
98.71726021811808
 20
-115.6000000000022
 30
0.0
 11
187.3999999999884
 21
-157.82985381667
 31
0.0
  0
LINE
  5
25D9
330
2A12
100
AcDbEntity
  8
0
 62
     0
100
AcDbLine
 10
119.717169955109
 20
-115.6000000000022
 30
0.0
 11
187.3999999999904
 21
-147.8299020725362
 31
0.0
  0
LINE
  5
25DA
330
2A12
100
AcDbEntity
  8
0
 62
     0
100
AcDbLine
 10
140.7170796921018
 20
-115.6000000000022
 30
0.0
 11
187.3999999999884
 21
-137.8299503284006
 31
0.0
  0
LINE
  5
25DB
330
2A12
100
AcDbEntity
  8
0
 62
     0
100
AcDbLine
 10
161.716989429091
 20
-115.6000000000022
 30
0.0
 11
187.3999999999869
 21
-127.8299985842659
 31
0.0
  0
LINE
  5
25DC
330
2A12
100
AcDbEntity
  8
0
 62
     0
100
AcDbLine
 10
182.7168991660837
 20
-115.600000000004
 30
0.0
 11
187.3999999999904
 21
-117.830046840133
 31
0.0
  0
ENDBLK
  5
25DD
330
2A12
100
AcDbEntity
  8
0
100
AcDbBlockEnd
  0
BLOCK
  5
2A15
330
2A14
100
AcDbEntity
  8
0
100
AcDbBlockBegin
  2
*X77
 70
     1
 10
0.0
 20
0.0
 30
0.0
  3
*X77
  1

  0
LINE
  5
25E0
330
2A14
100
AcDbEntity
  8
0
 62
     0
100
AcDbLine
 10
173.8560911862623
 20
-434.4000000000014
 30
0.0
 11
187.4000000000051
 21
-427.95052301364
 31
0.0
  0
LINE
  5
25E1
330
2A14
100
AcDbEntity
  8
0
 62
     0
100
AcDbLine
 10
152.8561814492677
 20
-434.4000000000014
 30
0.0
 11
187.3999999999977
 21
-417.9505712695063
 31
0.0
  0
LINE
  5
25E2
330
2A14
100
AcDbEntity
  8
0
 62
     0
100
AcDbLine
 10
131.8562717122804
 20
-434.3999999999996
 30
0.0
 11
187.4000000000014
 21
-407.9506195253706
 31
0.0
  0
LINE
  5
25E3
330
2A14
100
AcDbEntity
  8
0
 62
     0
100
AcDbLine
 10
110.8563619752894
 20
-434.3999999999996
 30
0.0
 11
187.4000000000014
 21
-397.9506677812369
 31
0.0
  0
LINE
  5
25E4
330
2A14
100
AcDbEntity
  8
0
 62
     0
100
AcDbLine
 10
89.85645223829852
 20
-434.3999999999996
 30
0.0
 11
187.4000000000014
 21
-387.9507160371013
 31
0.0
  0
LINE
  5
25E5
330
2A14
100
AcDbEntity
  8
0
 62
     0
100
AcDbLine
 10
68.85654250130753
 20
-434.4000000000014
 30
0.0
 11
187.4000000000051
 21
-377.9507642929675
 31
0.0
  0
LINE
  5
25E6
330
2A14
100
AcDbEntity
  8
0
 62
     0
100
AcDbLine
 10
47.85663276431296
 20
-434.4000000000014
 30
0.0
 11
187.3999999999977
 21
-367.9508125488337
 31
0.0
  0
LINE
  5
25E7
330
2A14
100
AcDbEntity
  8
0
 62
     0
100
AcDbLine
 10
26.85672302732565
 20
-434.4000000000014
 30
0.0
 11
187.4000000000014
 21
-357.9508608046981
 31
0.0
  0
LINE
  5
25E8
330
2A14
100
AcDbEntity
  8
0
 62
     0
100
AcDbLine
 10
5.856813290334685
 20
-434.4000000000014
 30
0.0
 11
187.4000000000014
 21
-347.9509090605644
 31
0.0
  0
LINE
  5
25E9
330
2A14
100
AcDbEntity
  8
0
 62
     0
100
AcDbLine
 10
-15.14309644665263
 20
-434.3999999999996
 30
0.0
 11
187.4000000000051
 21
-337.9509573164297
 31
0.0
  0
LINE
  5
25EA
330
2A14
100
AcDbEntity
  8
0
 62
     0
100
AcDbLine
 10
-36.14300618364723
 20
-434.4000000000014
 30
0.0
 11
187.4000000000014
 21
-327.9510055722968
 31
0.0
  0
LINE
  5
25EB
330
2A14
100
AcDbEntity
  8
0
 62
     0
100
AcDbLine
 10
-57.14291592063453
 20
-434.4000000000014
 30
0.0
 11
187.4000000000014
 21
-317.951053828162
 31
0.0
  0
LINE
  5
25EC
330
2A14
100
AcDbEntity
  8
0
 62
     0
100
AcDbLine
 10
184.3573127718991
 20
-309.3999999999987
 30
0.0
 11
187.3999999999977
 21
-307.9511020840282
 31
0.0
  0
LINE
  5
25ED
330
2A14
100
AcDbEntity
  8
0
 62
     0
100
AcDbLine
 10
-78.14282565762913
 20
-434.3999999999996
 30
0.0
 11
184.3573127718991
 21
-309.3999999999987
 31
0.0
  0
LINE
  5
25EE
330
2A14
100
AcDbEntity
  8
0
 62
     0
100
AcDbLine
 10
163.3574030349081
 20
-309.3999999999987
 30
0.0
 11
187.4000000000014
 21
-297.9511503398926
 31
0.0
  0
LINE
  5
25EF
330
2A14
100
AcDbEntity
  8
0
 62
     0
100
AcDbLine
 10
-99.14273539462008
 20
-434.3999999999996
 30
0.0
 11
163.3574030349081
 21
-309.3999999999987
 31
0.0
  0
LINE
  5
25F0
330
2A14
100
AcDbEntity
  8
0
 62
     0
100
AcDbLine
 10
142.3574932979172
 20
-309.3999999999987
 30
0.0
 11
187.4000000000051
 21
-287.951198595757
 31
0.0
  0
LINE
  5
25F1
330
2A14
100
AcDbEntity
  8
0
 62
     0
100
AcDbLine
 10
-120.1426451316074
 20
-434.3999999999996
 30
0.0
 11
142.3574932979172
 21
-309.3999999999987
 31
0.0
  0
LINE
  5
25F2
330
2A14
100
AcDbEntity
  8
0
 62
     0
100
AcDbLine
 10
121.3575835609226
 20
-309.4000000000006
 30
0.0
 11
187.4000000000014
 21
-277.951246851625
 31
0.0
  0
LINE
  5
25F3
330
2A14
100
AcDbEntity
  8
0
 62
     0
100
AcDbLine
 10
-141.1425548685984
 20
-434.3999999999996
 30
0.0
 11
121.3575835609226
 21
-309.4000000000006
 31
0.0
  0
LINE
  5
25F4
330
2A14
100
AcDbEntity
  8
0
 62
     0
100
AcDbLine
 10
100.3576738239389
 20
-309.3999999999987
 30
0.0
 11
187.4000000000014
 21
-267.9512951074893
 31
0.0
  0
LINE
  5
25F5
330
2A14
100
AcDbEntity
  8
0
 62
     0
100
AcDbLine
 10
-162.1424646055893
 20
-434.3999999999996
 30
0.0
 11
100.3576738239389
 21
-309.3999999999987
 31
0.0
  0
LINE
  5
25F6
330
2A14
100
AcDbEntity
  8
0
 62
     0
100
AcDbLine
 10
79.35776408694801
 20
-309.3999999999987
 30
0.0
 11
187.4000000000014
 21
-257.9513433633556
 31
0.0
  0
LINE
  5
25F7
330
2A14
100
AcDbEntity
  8
0
 62
     0
100
AcDbLine
 10
-183.1423743425803
 20
-434.3999999999996
 30
0.0
 11
79.35776408694801
 21
-309.3999999999987
 31
0.0
  0
LINE
  5
25F8
330
2A14
100
AcDbEntity
  8
0
 62
     0
100
AcDbLine
 10
58.35785434995339
 20
-309.3999999999987
 30
0.0
 11
187.4000000000014
 21
-247.95139161922
 31
0.0
  0
LINE
  5
25F9
330
2A14
100
AcDbEntity
  8
0
 62
     0
100
AcDbLine
 10
-187.4000000000014
 20
-426.4274879759414
 30
0.0
 11
58.35785434995339
 21
-309.3999999999987
 31
0.0
  0
LINE
  5
25FA
330
2A14
100
AcDbEntity
  8
0
 62
     0
100
AcDbLine
 10
37.35794461296247
 20
-309.3999999999987
 30
0.0
 11
187.4000000000014
 21
-237.9514398750862
 31
0.0
  0
LINE
  5
25FB
330
2A14
100
AcDbEntity
  8
0
 62
     0
100
AcDbLine
 10
-187.3999999999977
 20
-416.4275362318057
 30
0.0
 11
37.35794461296247
 21
-309.3999999999987
 31
0.0
  0
LINE
  5
25FC
330
2A14
100
AcDbEntity
  8
0
 62
     0
100
AcDbLine
 10
16.35803487597513
 20
-309.3999999999978
 30
0.0
 11
187.4000000000051
 21
-227.9514881309506
 31
0.0
  0
LINE
  5
25FD
330
2A14
100
AcDbEntity
  8
0
 62
     0
100
AcDbLine
 10
-187.3999999999977
 20
-406.427584487672
 30
0.0
 11
16.35803487597513
 21
-309.3999999999978
 31
0.0
  0
LINE
  5
25FE
330
2A14
100
AcDbEntity
  8
0
 62
     0
100
AcDbLine
 10
-4.641874861019458
 20
-309.3999999999996
 30
0.0
 11
187.3999999999977
 21
-217.9515363868186
 31
0.0
  0
LINE
  5
25FF
330
2A14
100
AcDbEntity
  8
0
 62
     0
100
AcDbLine
 10
-187.3999999999977
 20
-396.4276327435382
 30
0.0
 11
-4.641874861019458
 21
-309.3999999999996
 31
0.0
  0
LINE
  5
2600
330
2A14
100
AcDbEntity
  8
0
 62
     0
100
AcDbLine
 10
-25.64178459801042
 20
-309.3999999999996
 30
0.0
 11
187.4000000000014
 21
-207.951584642683
 31
0.0
  0
LINE
  5
2601
330
2A14
100
AcDbEntity
  8
0
 62
     0
100
AcDbLine
 10
-187.3999999999977
 20
-386.4276809994044
 30
0.0
 11
-25.64178459801042
 21
-309.3999999999996
 31
0.0
  0
LINE
  5
2602
330
2A14
100
AcDbEntity
  8
0
 62
     0
100
AcDbLine
 10
-28.40000000000511
 20
-300.713483468935
 30
0.0
 11
187.4000000000014
 21
-197.9516328985473
 31
0.0
  0
LINE
  5
2603
330
2A14
100
AcDbEntity
  8
0
 62
     0
100
AcDbLine
 10
-187.4000000000014
 20
-376.4277292552688
 30
0.0
 11
-28.40000000000511
 21
-300.713483468935
 31
0.0
  0
LINE
  5
2604
330
2A14
100
AcDbEntity
  8
0
 62
     0
100
AcDbLine
 10
-28.40000000000145
 20
-290.7135317247994
 30
0.0
 11
187.4000000000014
 21
-187.9516811544134
 31
0.0
  0
LINE
  5
2605
330
2A14
100
AcDbEntity
  8
0
 62
     0
100
AcDbLine
 10
-187.4000000000014
 20
-366.4277775111349
 30
0.0
 11
-28.40000000000145
 21
-290.7135317247994
 31
0.0
  0
LINE
  5
2606
330
2A14
100
AcDbEntity
  8
0
 62
     0
100
AcDbLine
 10
-28.40000000000145
 20
-280.7135799806656
 30
0.0
 11
187.4000000000014
 21
-177.9517294102778
 31
0.0
  0
LINE
  5
2607
330
2A14
100
AcDbEntity
  8
0
 62
     0
100
AcDbLine
 10
-187.3999999999977
 20
-356.4278257669994
 30
0.0
 11
-28.40000000000145
 21
-280.7135799806656
 31
0.0
  0
LINE
  5
2608
330
2A14
100
AcDbEntity
  8
0
 62
     0
100
AcDbLine
 10
-28.40000000000145
 20
-270.7136282365318
 30
0.0
 11
187.3999999999977
 21
-167.951777666146
 31
0.0
  0
LINE
  5
2609
330
2A14
100
AcDbEntity
  8
0
 62
     0
100
AcDbLine
 10
-187.3999999999977
 20
-346.4278740228656
 30
0.0
 11
-28.40000000000145
 21
-270.7136282365318
 31
0.0
  0
LINE
  5
260A
330
2A14
100
AcDbEntity
  8
0
 62
     0
100
AcDbLine
 10
-28.40000000000145
 20
-260.713676492398
 30
0.0
 11
187.4000000000014
 21
-157.9518259220103
 31
0.0
  0
LINE
  5
260B
330
2A14
100
AcDbEntity
  8
0
 62
     0
100
AcDbLine
 10
-187.4000000000014
 20
-336.4279222787318
 30
0.0
 11
-28.40000000000145
 21
-260.713676492398
 31
0.0
  0
LINE
  5
260C
330
2A14
100
AcDbEntity
  8
0
 62
     0
100
AcDbLine
 10
-28.40000000000145
 20
-250.7137247482624
 30
0.0
 11
187.4000000000014
 21
-147.9518741778765
 31
0.0
  0
LINE
  5
260D
330
2A14
100
AcDbEntity
  8
0
 62
     0
100
AcDbLine
 10
-187.3999999999977
 20
-326.4279705345962
 30
0.0
 11
-28.40000000000145
 21
-250.7137247482624
 31
0.0
  0
LINE
  5
260E
330
2A14
100
AcDbEntity
  8
0
 62
     0
100
AcDbLine
 10
-28.40000000000145
 20
-240.7137730041268
 30
0.0
 11
187.4000000000014
 21
-137.9519224337409
 31
0.0
  0
LINE
  5
260F
330
2A14
100
AcDbEntity
  8
0
 62
     0
100
AcDbLine
 10
-187.4000000000014
 20
-316.4280187904624
 30
0.0
 11
-28.40000000000145
 21
-240.7137730041268
 31
0.0
  0
LINE
  5
2610
330
2A14
100
AcDbEntity
  8
0
 62
     0
100
AcDbLine
 10
-28.40000000000145
 20
-230.713821259993
 30
0.0
 11
187.4000000000014
 21
-127.9519706896071
 31
0.0
  0
LINE
  5
2611
330
2A14
100
AcDbEntity
  8
0
 62
     0
100
AcDbLine
 10
-187.3999999999977
 20
-306.4280670463268
 30
0.0
 11
-28.40000000000145
 21
-230.713821259993
 31
0.0
  0
LINE
  5
2612
330
2A14
100
AcDbEntity
  8
0
 62
     0
100
AcDbLine
 10
-28.39999999999782
 20
-220.7138695158592
 30
0.0
 11
187.4000000000014
 21
-117.9520189454733
 31
0.0
  0
LINE
  5
2613
330
2A14
100
AcDbEntity
  8
0
 62
     0
100
AcDbLine
 10
-187.3999999999977
 20
-296.4281153021948
 30
0.0
 11
-28.39999999999782
 21
-220.7138695158592
 31
0.0
  0
LINE
  5
2614
330
2A14
100
AcDbEntity
  8
0
 62
     0
100
AcDbLine
 10
-28.40000000000145
 20
-210.7139177717254
 30
0.0
 11
171.3393326532168
 21
-115.5999999999994
 31
0.0
  0
LINE
  5
2615
330
2A14
100
AcDbEntity
  8
0
 62
     0
100
AcDbLine
 10
-187.4000000000014
 20
-286.4281635580592
 30
0.0
 11
-28.40000000000145
 21
-210.7139177717254
 31
0.0
  0
LINE
  5
2616
330
2A14
100
AcDbEntity
  8
0
 62
     0
100
AcDbLine
 10
-28.40000000000145
 20
-200.7139660275898
 30
0.0
 11
150.3394229162259
 21
-115.5999999999994
 31
0.0
  0
LINE
  5
2617
330
2A14
100
AcDbEntity
  8
0
 62
     0
100
AcDbLine
 10
-187.4000000000014
 20
-276.4282118139254
 30
0.0
 11
-28.40000000000145
 21
-200.7139660275898
 31
0.0
  0
LINE
  5
2618
330
2A14
100
AcDbEntity
  8
0
 62
     0
100
AcDbLine
 10
-28.40000000000145
 20
-190.714014283456
 30
0.0
 11
129.3395131792349
 21
-115.5999999999994
 31
0.0
  0
LINE
  5
2619
330
2A14
100
AcDbEntity
  8
0
 62
     0
100
AcDbLine
 10
-187.3999999999977
 20
-266.4282600697898
 30
0.0
 11
-28.40000000000145
 21
-190.714014283456
 31
0.0
  0
LINE
  5
261A
330
2A14
100
AcDbEntity
  8
0
 62
     0
100
AcDbLine
 10
-28.40000000000145
 20
-180.7140625393203
 30
0.0
 11
108.3396034422403
 21
-115.5999999999994
 31
0.0
  0
LINE
  5
261B
330
2A14
100
AcDbEntity
  8
0
 62
     0
100
AcDbLine
 10
-187.3999999999977
 20
-256.4283083256541
 30
0.0
 11
-28.40000000000145
 21
-180.7140625393203
 31
0.0
  0
LINE
  5
261C
330
2A14
100
AcDbEntity
  8
0
 62
     0
100
AcDbLine
 10
-28.40000000000145
 20
-170.7141107951884
 30
0.0
 11
87.33969370525301
 21
-115.6000000000013
 31
0.0
  0
LINE
  5
261D
330
2A14
100
AcDbEntity
  8
0
 62
     0
100
AcDbLine
 10
-187.3999999999977
 20
-246.4283565815221
 30
0.0
 11
-28.40000000000145
 21
-170.7141107951884
 31
0.0
  0
LINE
  5
261E
330
2A14
100
AcDbEntity
  8
0
 62
     0
100
AcDbLine
 10
-28.39999999999782
 20
-160.7141590510527
 30
0.0
 11
66.33978396826204
 21
-115.6000000000013
 31
0.0
  0
LINE
  5
261F
330
2A14
100
AcDbEntity
  8
0
 62
     0
100
AcDbLine
 10
-187.3999999999977
 20
-236.4284048373864
 30
0.0
 11
-28.39999999999782
 21
-160.7141590510527
 31
0.0
  0
LINE
  5
2620
330
2A14
100
AcDbEntity
  8
0
 62
     0
100
AcDbLine
 10
-28.40000000000145
 20
-150.7142073069171
 30
0.0
 11
45.33987423126743
 21
-115.6000000000013
 31
0.0
  0
LINE
  5
2621
330
2A14
100
AcDbEntity
  8
0
 62
     0
100
AcDbLine
 10
-187.4000000000014
 20
-226.4284530932529
 30
0.0
 11
-28.40000000000145
 21
-150.7142073069171
 31
0.0
  0
LINE
  5
2622
330
2A14
100
AcDbEntity
  8
0
 62
     0
100
AcDbLine
 10
-28.40000000000145
 20
-140.7142555627833
 30
0.0
 11
24.33996449428014
 21
-115.6000000000013
 31
0.0
  0
LINE
  5
2623
330
2A14
100
AcDbEntity
  8
0
 62
     0
100
AcDbLine
 10
-187.3999999999977
 20
-216.4285013491171
 30
0.0
 11
-28.40000000000145
 21
-140.7142555627833
 31
0.0
  0
LINE
  5
2624
330
2A14
100
AcDbEntity
  8
0
 62
     0
100
AcDbLine
 10
-28.40000000000145
 20
-130.7143038186477
 30
0.0
 11
3.34005475728918
 21
-115.5999999999994
 31
0.0
  0
LINE
  5
2625
330
2A14
100
AcDbEntity
  8
0
 62
     0
100
AcDbLine
 10
-187.4000000000014
 20
-206.4285496049834
 30
0.0
 11
-28.40000000000145
 21
-130.7143038186477
 31
0.0
  0
LINE
  5
2626
330
2A14
100
AcDbEntity
  8
0
 62
     0
100
AcDbLine
 10
-28.40000000000145
 20
-120.7143520745139
 30
0.0
 11
-17.65985497970177
 21
-115.5999999999994
 31
0.0
  0
LINE
  5
2627
330
2A14
100
AcDbEntity
  8
0
 62
     0
100
AcDbLine
 10
-187.3999999999977
 20
-196.4285978608477
 30
0.0
 11
-28.40000000000145
 21
-120.7143520745139
 31
0.0
  0
LINE
  5
2628
330
2A14
100
AcDbEntity
  8
0
 62
     0
100
AcDbLine
 10
-187.4000000000014
 20
-186.4286461167157
 30
0.0
 11
-38.65976471669274
 21
-115.6000000000003
 31
0.0
  0
LINE
  5
2629
330
2A14
100
AcDbEntity
  8
0
 62
     0
100
AcDbLine
 10
-187.4000000000014
 20
-176.4286943725801
 30
0.0
 11
-59.65967445368369
 21
-115.6000000000003
 31
0.0
  0
LINE
  5
262A
330
2A14
100
AcDbEntity
  8
0
 62
     0
100
AcDbLine
 10
-187.3999999999977
 20
-166.4287426284463
 30
0.0
 11
-80.65958419067101
 21
-115.5999999999985
 31
0.0
  0
LINE
  5
262B
330
2A14
100
AcDbEntity
  8
0
 62
     0
100
AcDbLine
 10
-187.3999999999977
 20
-156.4287908843106
 30
0.0
 11
-101.659493927662
 21
-115.5999999999985
 31
0.0
  0
LINE
  5
262C
330
2A14
100
AcDbEntity
  8
0
 62
     0
100
AcDbLine
 10
-187.3999999999977
 20
-146.4288391401769
 30
0.0
 11
-122.6594036646565
 21
-115.5999999999985
 31
0.0
  0
LINE
  5
262D
330
2A14
100
AcDbEntity
  8
0
 62
     0
100
AcDbLine
 10
-187.4000000000014
 20
-136.4288873960431
 30
0.0
 11
-143.6593134016439
 21
-115.6000000000003
 31
0.0
  0
LINE
  5
262E
330
2A14
100
AcDbEntity
  8
0
 62
     0
100
AcDbLine
 10
-187.3999999999977
 20
-126.4289356519093
 30
0.0
 11
-164.6592231386348
 21
-115.6000000000003
 31
0.0
  0
LINE
  5
262F
330
2A14
100
AcDbEntity
  8
0
 62
     0
100
AcDbLine
 10
-187.4000000000014
 20
-116.4289839077755
 30
0.0
 11
-185.6591328756294
 21
-115.6000000000003
 31
0.0
  0
ENDBLK
  5
2630
330
2A14
100
AcDbEntity
  8
0
100
AcDbBlockEnd
  0
BLOCK
  5
2BE9
330
2BE8
100
AcDbEntity
  8
0
100
AcDbBlockBegin
  2
*U78
 70
     1
 10
0.0
 20
0.0
 30
0.0
  3
*U78
  1

  0
ENDBLK
  5
2BEA
330
2BE8
100
AcDbEntity
  8
0
100
AcDbBlockEnd
  0
ENDSEC
  0
SECTION
  2
ENTITIES
  0
TEXT
  5
953
330
2933
100
AcDbEntity
  8
OUTLINE
  6
Continuous
 62
     3
100
AcDbText
 10
-418.231467
 20
13.715189
 30
0.0
 40
64.0
  1
 
 41
0.9
100
AcDbText
  0
TEXT
  5
954
330
2933
100
AcDbEntity
  8
OUTLINE
  6
Continuous
 62
     3
100
AcDbText
 10
-418.231467
 20
13.715189
 30
0.0
 40
64.0
  1
 
 41
0.9
100
AcDbText
  0
TEXT
  5
955
330
2933
100
AcDbEntity
  8
OUTLINE
  6
Continuous
 62
     3
100
AcDbText
 10
1341.41903
 20
-706.0588199999997
 30
0.0
 40
64.0
  1
 
 41
0.9
100
AcDbText
  0
TEXT
  5
956
330
2933
100
AcDbEntity
  8
OUTLINE
  6
Continuous
 62
     3
100
AcDbText
 10
1341.41903
 20
-706.0588199999997
 30
0.0
 40
64.0
  1
 
 41
0.9
100
AcDbText
  0
TEXT
  5
957
330
2933
100
AcDbEntity
  8
OUTLINE
  6
Continuous
 62
     3
100
AcDbText
 10
1341.41903
 20
-706.0588199999997
 30
0.0
 40
64.0
  1
 
 41
0.9
100
AcDbText
  0
TEXT
  5
958
330
2933
100
AcDbEntity
  8
OUTLINE
  6
Continuous
 62
     3
100
AcDbText
 10
1341.41903
 20
-706.0588199999997
 30
0.0
 40
64.0
  1
 
 41
0.9
100
AcDbText
  0
TEXT
  5
2D1D
330
2933
100
AcDbEntity
  8
ETC
100
AcDbText
 10
683.2446705338242
 20
1191.80908922168
 30
0.0
 40
64.0
  1
システム部材
 41
0.9
100
AcDbText
  0
TEXT
  5
2D1E
330
2933
100
AcDbEntity
  8
ETC
100
AcDbText
 10
689.4526685338223
 20
1292.69241522168
 30
0.0
 40
64.0
  1
QW-35SC_6
 41
0.9
100
AcDbText
  0
TEXT
  5
2D1F
330
2933
100
AcDbEntity
  8
ETC
100
AcDbText
 10
683.2446705338242
 20
1091.80908922168
 30
0.0
 40
64.0
  1
QW-35SC
 41
0.9
100
AcDbText
  0
LINE
  5
2D20
330
2933
100
AcDbEntity
  8
DETAIL
100
AcDbLine
 10
239.5978396421761
 20
543.0345190111033
 30
0.0
 11
614.3978396421752
 21
543.0345190111033
 31
0.0
  0
LINE
  5
2D21
330
2933
100
AcDbEntity
  8
DETAIL
100
AcDbLine
 10
239.5978396421761
 20
224.2345190111032
 30
0.0
 11
614.3978396421752
 21
224.2345190111032
 31
0.0
  0
LINE
  5
2D22
330
2933
100
AcDbEntity
  8
DETAIL
100
AcDbLine
 10
209.9978396421739
 20
573.6345190111032
 30
0.0
 11
643.9978396421738
 21
573.6345190111032
 31
0.0
  0
LINE
  5
2D23
330
2933
100
AcDbEntity
  8
DETAIL
100
AcDbLine
 10
223.9978396421739
 20
558.6345190111033
 30
0.0
 11
629.9978396421738
 21
558.6345190111033
 31
0.0
  0
LINE
  5
2D24
330
2933
100
AcDbEntity
  8
DETAIL
100
AcDbLine
 10
189.9978396421739
 20
648.6345190111032
 30
0.0
 11
663.9978396421739
 21
648.6345190111032
 31
0.0
  0
LINE
  5
2D25
330
2933
100
AcDbEntity
  8
DETAIL
100
AcDbLine
 10
209.9978396421739
 20
208.6345190111033
 30
0.0
 11
643.9978396421738
 21
208.6345190111033
 31
0.0
  0
LINE
  5
2D26
330
2933
100
AcDbEntity
  8
SIZE
100
AcDbLine
 10
643.9978396421738
 20
188.6345190111033
 30
0.0
 11
643.9978396421738
 21
30.15635632835619
 31
0.0
  0
LINE
  5
2D27
330
2933
100
AcDbEntity
  8
SIZE
100
AcDbLine
 10
209.9978396421739
 20
188.6345190111033
 30
0.0
 11
209.9978396421739
 21
30.15635632835619
 31
0.0
  0
LINE
  5
2D28
330
2933
100
AcDbEntity
  8
SIZE
100
AcDbLine
 10
631.9978396421738
 20
50.15635632835619
 30
0.0
 11
221.9978396421739
 21
50.15635632835619
 31
0.0
  0
INSERT
  5
2D29
330
2933
100
AcDbEntity
  8
SIZE
100
AcDbBlockReference
  2
_DOTBLANK
 10
643.9978396421738
 20
50.15635632835619
 30
0.0
 41
12.0
 42
12.0
 43
12.0
  0
INSERT
  5
2D2A
330
2933
100
AcDbEntity
  8
SIZE
100
AcDbBlockReference
  2
_DOTBLANK
 10
209.9978396421739
 20
50.15635632835619
 30
0.0
 41
12.0
 42
12.0
 43
12.0
 50
180.0
  0
MTEXT
  5
2D2B
330
2933
100
AcDbEntity
  8
SIZE
100
AcDbMText
 10
426.9978396421739
 20
92.15635632835619
 30
0.0
 40
64.0
 41
0.0
 46
0.0
 71
     5
 72
     1
  1
\A1;434
 73
     1
 44
1.0
  0
LINE
  5
2D2C
330
2933
100
AcDbEntity
  8
SIZE
100
AcDbLine
 10
663.9978396421739
 20
678.6345190111033
 30
0.0
 11
663.9978396421739
 21
958.1211119476202
 31
0.0
  0
LINE
  5
2D2D
330
2933
100
AcDbEntity
  8
SIZE
100
AcDbLine
 10
189.9978396421739
 20
678.6345190111033
 30
0.0
 11
189.9978396421739
 21
958.1211119476202
 31
0.0
  0
LINE
  5
2D2E
330
2933
100
AcDbEntity
  8
SIZE
100
AcDbLine
 10
651.9978396421739
 20
938.1211119476201
 30
0.0
 11
201.9978396421739
 21
938.1211119476201
 31
0.0
  0
INSERT
  5
2D2F
330
2933
100
AcDbEntity
  8
SIZE
100
AcDbBlockReference
  2
_DOTBLANK
 10
663.9978396421739
 20
938.1211119476201
 30
0.0
 41
12.0
 42
12.0
 43
12.0
  0
INSERT
  5
2D30
330
2933
100
AcDbEntity
  8
SIZE
100
AcDbBlockReference
  2
_DOTBLANK
 10
189.9978396421739
 20
938.1211119476201
 30
0.0
 41
12.0
 42
12.0
 43
12.0
 50
180.0
  0
MTEXT
  5
2D31
330
2933
100
AcDbEntity
  8
SIZE
100
AcDbMText
 10
426.9978396421739
 20
980.1211119476201
 30
0.0
 40
64.0
 41
0.0
 46
0.0
 71
     5
 72
     1
  1
\A1;474
 73
     1
 44
1.0
  0
LINE
  5
2D32
330
2933
100
AcDbEntity
  8
SIZE
100
AcDbLine
 10
643.9978396421738
 20
691.1345190111033
 30
0.0
 11
643.9978396421738
 21
839.5666100207204
 31
0.0
  0
LINE
  5
2D33
330
2933
100
AcDbEntity
  8
SIZE
100
AcDbLine
 10
209.9978396421739
 20
691.1345190111033
 30
0.0
 11
209.9978396421739
 21
839.5666100207204
 31
0.0
  0
LINE
  5
2D34
330
2933
100
AcDbEntity
  8
SIZE
100
AcDbLine
 10
631.9978396421738
 20
819.5666100207203
 30
0.0
 11
221.9978396421739
 21
819.5666100207203
 31
0.0
  0
INSERT
  5
2D35
330
2933
100
AcDbEntity
  8
SIZE
100
AcDbBlockReference
  2
_DOTBLANK
 10
643.9978396421738
 20
819.5666100207203
 30
0.0
 41
12.0
 42
12.0
 43
12.0
  0
INSERT
  5
2D36
330
2933
100
AcDbEntity
  8
SIZE
100
AcDbBlockReference
  2
_DOTBLANK
 10
209.9978396421739
 20
819.5666100207203
 30
0.0
 41
12.0
 42
12.0
 43
12.0
 50
180.0
  0
MTEXT
  5
2D37
330
2933
100
AcDbEntity
  8
SIZE
100
AcDbMText
 10
426.4419620081808
 20
861.5666100207205
 30
0.0
 40
64.0
 41
0.0
 46
0.0
 71
     5
 72
     1
  1
\A1;434
 73
     1
 44
1.0
  0
LINE
  5
2D38
330
2933
100
AcDbEntity
  8
SIZE
100
AcDbLine
 10
189.9978396421739
 20
208.6345190111033
 30
0.0
 11
-33.20386409989982
 21
208.6345190111033
 31
0.0
  0
LINE
  5
2D39
330
2933
100
AcDbEntity
  8
SIZE
100
AcDbLine
 10
169.9978396421739
 20
658.6345190111033
 30
0.0
 11
-33.20386409989982
 21
658.6345190111033
 31
0.0
  0
LINE
  5
2D3A
330
2933
100
AcDbEntity
  8
SIZE
100
AcDbLine
 10
-13.20386409989982
 20
220.6345190111033
 30
0.0
 11
-13.20386409989982
 21
646.6345190111033
 31
0.0
  0
INSERT
  5
2D3B
330
2933
100
AcDbEntity
  8
SIZE
100
AcDbBlockReference
  2
_DOTBLANK
 10
-13.20386409989982
 20
208.6345190111033
 30
0.0
 41
12.0
 42
12.0
 43
12.0
 50
270.0
  0
INSERT
  5
2D3C
330
2933
100
AcDbEntity
  8
SIZE
100
AcDbBlockReference
  2
_DOTBLANK
 10
-13.20386409989982
 20
658.6345190111033
 30
0.0
 41
12.0
 42
12.0
 43
12.0
 50
90.0
  0
MTEXT
  5
2D3D
330
2933
100
AcDbEntity
  8
SIZE
100
AcDbMText
 10
-55.20386409989981
 20
442.8624439282475
 30
0.0
 40
64.0
 41
0.0
 46
0.0
 71
     5
 72
     1
  1
\A1;450
 11
0.0000000000000001
 21
1.0
 31
0.0
 73
     1
 44
1.0
  0
LINE
  5
2D3E
330
2933
100
AcDbEntity
  8
DETAIL
100
AcDbLine
 10
239.5978396421761
 20
224.2345190111032
 30
0.0
 11
239.5978396421761
 21
543.0345190111033
 31
0.0
  0
LINE
  5
2D3F
330
2933
100
AcDbEntity
  8
DETAIL
100
AcDbLine
 10
223.9978396421739
 20
187.6345190111033
 30
0.0
 11
223.9978396421739
 21
558.6345190111024
 31
0.0
  0
LINE
  5
2D40
330
2933
100
AcDbEntity
  8
DETAIL
100
AcDbLine
 10
209.9978396421739
 20
573.6345190111032
 30
0.0
 11
209.9978396421739
 21
208.6345190111033
 31
0.0
  0
LINE
  5
2D41
330
2933
100
AcDbEntity
  8
NOTE
100
AcDbLine
 10
209.9978396421739
 20
671.1345190111033
 30
0.0
 11
209.9978396421739
 21
646.1345190111033
 31
0.0
  0
LINE
  5
2D42
330
2933
100
AcDbEntity
  8
DETAIL
100
AcDbLine
 10
189.9978396421739
 20
648.6345190111032
 30
0.0
 11
189.9978396421739
 21
658.6345190111033
 31
0.0
  0
LINE
  5
2D43
330
2933
100
AcDbEntity
  8
DETAIL
100
AcDbLine
 10
223.9978396421739
 20
573.6345190111032
 30
0.0
 11
223.9978396421739
 21
648.6345190111032
 31
0.0
  0
POINT
  5
2D44
330
2933
100
AcDbEntity
  8
ARRANGE
100
AcDbPoint
 10
426.9978396421739
 20
658.6345190111033
 30
0.0
 39
50.0
  0
LINE
  5
2D45
330
2933
100
AcDbEntity
  8
DETAIL
100
AcDbLine
 10
614.3978396421752
 20
224.2345190111032
 30
0.0
 11
614.3978396421752
 21
543.0345190111033
 31
0.0
  0
LINE
  5
2D46
330
2933
100
AcDbEntity
  8
DETAIL
100
AcDbLine
 10
629.9978396421738
 20
187.6345190111033
 30
0.0
 11
629.9978396421738
 21
558.6345190111033
 31
0.0
  0
LINE
  5
2D47
330
2933
100
AcDbEntity
  8
DETAIL
100
AcDbLine
 10
643.9978396421738
 20
573.6345190111032
 30
0.0
 11
643.9978396421738
 21
208.6345190111033
 31
0.0
  0
LINE
  5
2D48
330
2933
100
AcDbEntity
  8
BASIS
100
AcDbLine
 10
426.9978396421739
 20
683.6345190111033
 30
0.0
 11
426.9978396421739
 21
162.6345190111033
 31
0.0
  0
CIRCLE
  5
2D49
330
2933
100
AcDbEntity
  8
ARRANGE
100
AcDbCircle
 10
426.9978396421739
 20
659.2345189124293
 30
0.0
 40
40.0
  0
LINE
  5
2D4A
330
2933
100
AcDbEntity
  8
DETAIL
100
AcDbLine
 10
629.9978396421738
 20
573.6345190111032
 30
0.0
 11
629.9978396421738
 21
648.6345190111032
 31
0.0
  0
LINE
  5
2D4B
330
2933
100
AcDbEntity
  8
DETAIL
100
AcDbLine
 10
663.9978396421739
 20
658.6345190111033
 30
0.0
 11
663.9978396421739
 21
648.6345190111032
 31
0.0
  0
LINE
  5
2D4C
330
2933
100
AcDbEntity
  8
DETAIL
100
AcDbLine
 39
50.0
 10
223.9978396421739
 20
187.6345190111033
 30
0.0
 11
629.9978396421738
 21
187.6345190111033
 31
0.0
  0
INSERT
  5
2D4D
330
2933
100
AcDbEntity
  8
NOTE
100
AcDbBlockReference
  2
_OPEN30
 10
209.9978396421739
 20
658.6345190111033
 30
0.0
 41
11.99999999999906
 42
12.0
 43
12.0
 50
312.6090116116846
1001
ACAD
1000
DSTYLE
1002
{
1070
    41
1040
12.0
1070
    42
1040
20.0
1070
    43
1040
200.0
1070
    44
1040
20.0
1070
    73
1070
     0
1070
    74
1070
     0
1070
    77
1070
     1
1070
    78
1070
     8
1070
   140
1040
64.0
1070
   147
1040
50.0
1070
   172
1070
     1
1070
   174
1070
     1
1070
   275
1070
     0
1070
   284
1070
     0
1070
   285
1070
     0
1070
   286
1070
     0
1070
   341
1005
2982
1070
   342
1005
2980
1002
}
  0
LWPOLYLINE
  5
2D4E
330
2933
100
AcDbEntity
  8
NOTE
100
AcDbPolyline
 90
        3
 70
     0
 43
0.0
 10
201.8739388059858
 20
667.4664064200187
 10
122.1284396499196
 20
754.1616140691167
 10
-426.4544174929378
 20
754.1616140691167
1001
ACAD
1000
DSTYLE
1002
{
1070
    41
1040
12.0
1070
    42
1040
20.0
1070
    43
1040
200.0
1070
    44
1040
20.0
1070
    73
1070
     0
1070
    74
1070
     0
1070
    77
1070
     1
1070
    78
1070
     8
1070
   140
1040
64.0
1070
   147
1040
50.0
1070
   172
1070
     1
1070
   174
1070
     1
1070
   275
1070
     0
1070
   284
1070
     0
1070
   285
1070
     0
1070
   286
1070
     0
1070
   341
1005
2982
1070
   342
1005
2980
1002
}
  0
TEXT
  5
2D4F
330
2933
100
AcDbEntity
  8
NOTE
100
AcDbText
 10
-434.6829889215095
 20
772.1616140691167
 30
0.0
 40
64.0
  1
4×φ15取付穴
 41
0.9
100
AcDbText
  0
LINE
  5
2D50
330
2933
100
AcDbEntity
  8
NOTE
100
AcDbLine
 10
643.9978396421738
 20
671.1345190111033
 30
0.0
 11
643.9978396421738
 21
646.1345190111033
 31
0.0
  0
LINE
  5
2D51
330
2933
100
AcDbEntity
  8
OUTLINE
100
AcDbLine
 10
209.9978396421739
 20
573.6345190111032
 30
0.0
 11
643.9978396421738
 21
573.6345190111032
 31
0.0
  0
LINE
  5
2D52
330
2933
100
AcDbEntity
  8
OUTLINE
100
AcDbLine
 10
223.9978396421739
 20
558.6345190111033
 30
0.0
 11
629.9978396421738
 21
558.6345190111033
 31
0.0
  0
LINE
  5
2D53
330
2933
100
AcDbEntity
  8
OUTLINE
100
AcDbLine
 10
189.9978396421739
 20
648.6345190111032
 30
0.0
 11
663.9978396421739
 21
648.6345190111032
 31
0.0
  0
LINE
  5
2D54
330
2933
100
AcDbEntity
  8
OUTLINE
100
AcDbLine
 10
209.9978396421739
 20
208.6345190111033
 30
0.0
 11
643.9978396421738
 21
208.6345190111033
 31
0.0
  0
LINE
  5
2D55
330
2933
100
AcDbEntity
  8
OUTLINE
100
AcDbLine
 10
223.9978396421739
 20
187.6345190111033
 30
0.0
 11
223.9978396421739
 21
558.6345190111024
 31
0.0
  0
LINE
  5
2D56
330
2933
100
AcDbEntity
  8
OUTLINE
100
AcDbLine
 10
209.9978396421739
 20
573.6345190111032
 30
0.0
 11
209.9978396421739
 21
208.6345190111033
 31
0.0
  0
LINE
  5
2D57
330
2933
100
AcDbEntity
  8
OUTLINE
100
AcDbLine
 10
189.9978396421739
 20
648.6345190111032
 30
0.0
 11
189.9978396421739
 21
658.6345190111033
 31
0.0
  0
LINE
  5
2D58
330
2933
100
AcDbEntity
  8
OUTLINE
100
AcDbLine
 10
629.9978396421738
 20
187.6345190111033
 30
0.0
 11
629.9978396421738
 21
558.6345190111033
 31
0.0
  0
LINE
  5
2D59
330
2933
100
AcDbEntity
  8
OUTLINE
100
AcDbLine
 10
643.9978396421738
 20
573.6345190111032
 30
0.0
 11
643.9978396421738
 21
208.6345190111033
 31
0.0
  0
LINE
  5
2D5A
330
2933
100
AcDbEntity
  8
OUTLINE
100
AcDbLine
 10
629.9978396421738
 20
573.6345190111032
 30
0.0
 11
629.9978396421738
 21
648.6345190111032
 31
0.0
  0
LINE
  5
2D5B
330
2933
100
AcDbEntity
  8
OUTLINE
100
AcDbLine
 10
663.9978396421739
 20
658.6345190111033
 30
0.0
 11
663.9978396421739
 21
648.6345190111032
 31
0.0
  0
LINE
  5
2D5C
330
2933
100
AcDbEntity
  8
OUTLINE
100
AcDbLine
 39
50.0
 10
223.9978396421739
 20
187.6345190111033
 30
0.0
 11
629.9978396421738
 21
187.6345190111033
 31
0.0
  0
LINE
  5
2D5D
330
2933
100
AcDbEntity
  8
SIZE
100
AcDbLine
 10
683.9978396421738
 20
658.6345190111033
 30
0.0
 11
785.7121402581451
 21
658.6345190111033
 31
0.0
  0
LINE
  5
2D5E
330
2933
100
AcDbEntity
  8
SIZE
100
AcDbLine
 10
683.9978396421738
 20
648.6345190111032
 30
0.0
 11
785.7121402581451
 21
648.6345190111032
 31
0.0
  0
LINE
  5
2D5F
330
2933
100
AcDbEntity
  8
SIZE
100
AcDbLine
 10
765.7121402581451
 20
670.6345190111033
 30
0.0
 11
765.7121402581451
 21
682.6345190111033
 31
0.0
  0
LINE
  5
2D60
330
2933
100
AcDbEntity
  8
SIZE
100
AcDbLine
 10
765.7121402581451
 20
636.6345190111033
 30
0.0
 11
765.7121402581451
 21
519.6059475825318
 31
0.0
  0
LINE
  5
2D61
330
2933
100
AcDbEntity
  8
SIZE
100
AcDbLine
 10
765.7121402581451
 20
658.6345190111033
 30
0.0
 11
765.7121402581451
 21
648.6345190111032
 31
0.0
  0
INSERT
  5
2D62
330
2933
100
AcDbEntity
  8
SIZE
100
AcDbBlockReference
  2
_DOTBLANK
 10
765.7121402581451
 20
658.6345190111033
 30
0.0
 41
12.0
 42
12.0
 43
12.0
 50
270.0
  0
INSERT
  5
2D63
330
2933
100
AcDbEntity
  8
SIZE
100
AcDbBlockReference
  2
_DOTBLANK
 10
765.7121402581451
 20
648.6345190111032
 30
0.0
 41
12.0
 42
12.0
 43
12.0
 50
90.0
  0
MTEXT
  5
2D64
330
2933
100
AcDbEntity
  8
SIZE
100
AcDbMText
 10
723.7121402581451
 20
572.1202332968146
 30
0.0
 40
64.0
 41
0.0
 46
0.0
 71
     5
 72
     1
  1
\A1;10
 11
0.0000000000000001
 21
1.0
 31
0.0
 73
     1
 44
1.0
  0
LINE
  5
2D65
330
2933
100
AcDbEntity
  8
SIZE
100
AcDbLine
 10
189.9978396421739
 20
208.6345190111033
 30
0.0
 11
-33.20386409989982
 21
208.6345190111033
 31
0.0
  0
LINE
  5
2D66
330
2933
100
AcDbEntity
  8
SIZE
100
AcDbLine
 10
203.9978396421739
 20
187.6345190111033
 30
0.0
 11
-33.20386409989982
 21
187.6345190111033
 31
0.0
  0
LINE
  5
2D67
330
2933
100
AcDbEntity
  8
SIZE
100
AcDbLine
 10
-13.20386409989982
 20
220.6345190111033
 30
0.0
 11
-13.20386409989982
 21
232.6345190111033
 31
0.0
  0
LINE
  5
2D68
330
2933
100
AcDbEntity
  8
SIZE
100
AcDbLine
 10
-13.20386409989982
 20
175.6345190111033
 30
0.0
 11
-13.20386409989982
 21
66.83451901110311
 31
0.0
  0
LINE
  5
2D69
330
2933
100
AcDbEntity
  8
SIZE
100
AcDbLine
 10
-13.20386409989982
 20
208.6345190111033
 30
0.0
 11
-13.20386409989982
 21
187.6345190111033
 31
0.0
  0
INSERT
  5
2D6A
330
2933
100
AcDbEntity
  8
SIZE
100
AcDbBlockReference
  2
_DOTBLANK
 10
-13.20386409989982
 20
208.6345190111033
 30
0.0
 41
12.0
 42
12.0
 43
12.0
 50
270.0
  0
INSERT
  5
2D6B
330
2933
100
AcDbEntity
  8
SIZE
100
AcDbBlockReference
  2
_DOTBLANK
 10
-13.20386409989982
 20
187.6345190111033
 30
0.0
 41
12.0
 42
12.0
 43
12.0
 50
90.0
  0
MTEXT
  5
2D6C
330
2933
100
AcDbEntity
  8
SIZE
100
AcDbMText
 10
-55.20386409989981
 20
115.2345190111
 30
0.0
 40
64.0
 41
0.0
 46
0.0
 71
     5
 72
     1
  1
\A1;21
 11
0.0000000000000001
 21
1.0
 31
0.0
 73
     1
 44
1.0
  0
LINE
  5
2D6D
330
2933
100
AcDbEntity
  8
DETAIL
100
AcDbLine
 39
50.0
 10
189.9978396421739
 20
658.6345190111033
 30
0.0
 11
663.9978396421739
 21
658.6345190111033
 31
0.0
  0
LINE
  5
2D6E
330
2933
100
AcDbEntity
  8
NOTE
100
AcDbLine
 39
50.0
 10
222.4978396421739
 20
658.6345190111033
 30
0.0
 11
197.4978396421739
 21
658.6345190111033
 31
0.0
  0
LINE
  5
2D6F
330
2933
100
AcDbEntity
  8
NOTE
100
AcDbLine
 39
50.0
 10
656.4978396421738
 20
658.6345190111033
 30
0.0
 11
631.4978396421738
 21
658.6345190111033
 31
0.0
  0
LINE
  5
2D70
330
2933
100
AcDbEntity
  8
OUTLINE
100
AcDbLine
 10
223.9978396421739
 20
573.6345190111032
 30
0.0
 11
223.9978396421739
 21
648.6345190111032
 31
0.0
  0
LINE
  5
2D71
330
2933
100
AcDbEntity
  8
DETAIL
100
AcDbLine
 39
50.0
 10
223.9978396421739
 20
193.6345190111033
 30
0.0
 11
629.9978396421738
 21
193.6345190111033
 31
0.0
  0
LINE
  5
2D72
330
2933
100
AcDbEntity
  8
OUTLINE
100
AcDbLine
 39
50.0
 10
223.9978396421739
 20
193.6345190111033
 30
0.0
 11
629.9978396421738
 21
193.6345190111033
 31
0.0
  0
LINE
  5
2D73
330
2933
100
AcDbEntity
  8
OUTLINE
100
AcDbLine
 39
50.0
 10
189.9978396421739
 20
658.6345190111033
 30
0.0
 11
663.9978396421739
 21
658.6345190111033
 31
0.0
  0
LINE
  5
2D74
330
2933
100
AcDbEntity
  8
DETAIL
100
AcDbLine
 10
609.7147388082503
 20
543.0345190111011
 30
0.0
 11
614.3978396421644
 21
540.8044721709684
 31
0.0
1001
ACAD
1010
0.0
1020
0.0
1030
0.0
1001
ACADANNOTATIVE
1000
AnnotativeData
1002
{
1070
     1
1070
     1
1002
}
  0
LINE
  5
2D75
330
2933
100
AcDbEntity
  8
DETAIL
100
AcDbLine
 10
588.7148290712594
 20
543.0345190111029
 30
0.0
 11
614.3978396421644
 21
530.8045204268346
 31
0.0
1001
ACAD
1010
0.0
1020
0.0
1030
0.0
1001
ACADANNOTATIVE
1000
AnnotativeData
1002
{
1070
     1
1070
     1
1002
}
  0
LINE
  5
2D76
330
2933
100
AcDbEntity
  8
DETAIL
100
AcDbLine
 10
567.7149193342684
 20
543.0345190111029
 30
0.0
 11
614.3978396421608
 21
520.8045686827008
 31
0.0
1001
ACAD
1010
0.0
1020
0.0
1030
0.0
1001
ACADANNOTATIVE
1000
AnnotativeData
1002
{
1070
     1
1070
     1
1002
}
  0
LINE
  5
2D77
330
2933
100
AcDbEntity
  8
DETAIL
100
AcDbLine
 10
546.7150095972774
 20
543.034519011102
 30
0.0
 11
614.3978396421644
 21
510.8046169385652
 31
0.0
1001
ACAD
1010
0.0
1020
0.0
1030
0.0
1001
ACADANNOTATIVE
1000
AnnotativeData
1002
{
1070
     1
1070
     1
1002
}
  0
LINE
  5
2D78
330
2933
100
AcDbEntity
  8
DETAIL
100
AcDbLine
 10
525.7150998602901
 20
543.0345190111011
 30
0.0
 11
614.3978396421608
 21
500.8046651944314
 31
0.0
1001
ACAD
1010
0.0
1020
0.0
1030
0.0
1001
ACADANNOTATIVE
1000
AnnotativeData
1002
{
1070
     1
1070
     1
1002
}
  0
LINE
  5
2D79
330
2933
100
AcDbEntity
  8
DETAIL
100
AcDbLine
 10
504.7151901232956
 20
543.0345190111002
 30
0.0
 11
614.3978396421644
 21
490.8047134502957
 31
0.0
1001
ACAD
1010
0.0
1020
0.0
1030
0.0
1001
ACADANNOTATIVE
1000
AnnotativeData
1002
{
1070
     1
1070
     1
1002
}
  0
LINE
  5
2D7A
330
2933
100
AcDbEntity
  8
DETAIL
100
AcDbLine
 10
483.7152803863083
 20
543.0345190111011
 30
0.0
 11
614.3978396421644
 21
480.804761706162
 31
0.0
1001
ACAD
1010
0.0
1020
0.0
1030
0.0
1001
ACADANNOTATIVE
1000
AnnotativeData
1002
{
1070
     1
1070
     1
1002
}
  0
LINE
  5
2D7B
330
2933
100
AcDbEntity
  8
DETAIL
100
AcDbLine
 10
462.7153706493173
 20
543.0345190111002
 30
0.0
 11
614.3978396421644
 21
470.8048099620282
 31
0.0
1001
ACAD
1010
0.0
1020
0.0
1030
0.0
1001
ACADANNOTATIVE
1000
AnnotativeData
1002
{
1070
     1
1070
     1
1002
}
  0
LINE
  5
2D7C
330
2933
100
AcDbEntity
  8
DETAIL
100
AcDbLine
 10
441.7154609123263
 20
543.0345190111002
 30
0.0
 11
614.3978396421644
 21
460.8048582178926
 31
0.0
1001
ACAD
1010
0.0
1020
0.0
1030
0.0
1001
ACADANNOTATIVE
1000
AnnotativeData
1002
{
1070
     1
1070
     1
1002
}
  0
LINE
  5
2D7D
330
2933
100
AcDbEntity
  8
DETAIL
100
AcDbLine
 10
420.7155511753354
 20
543.0345190111002
 30
0.0
 11
614.3978396421608
 21
450.8049064737588
 31
0.0
1001
ACAD
1010
0.0
1020
0.0
1030
0.0
1001
ACADANNOTATIVE
1000
AnnotativeData
1002
{
1070
     1
1070
     1
1002
}
  0
LINE
  5
2D7E
330
2933
100
AcDbEntity
  8
DETAIL
100
AcDbLine
 10
399.7156414383444
 20
543.0345190111002
 30
0.0
 11
614.397839642168
 21
440.8049547296222
 31
0.0
1001
ACAD
1010
0.0
1020
0.0
1030
0.0
1001
ACADANNOTATIVE
1000
AnnotativeData
1002
{
1070
     1
1070
     1
1002
}
  0
LINE
  5
2D7F
330
2933
100
AcDbEntity
  8
DETAIL
100
AcDbLine
 10
378.7157317013535
 20
543.034519011102
 30
0.0
 11
398.5978396421688
 21
533.5668535558734
 31
0.0
1001
ACAD
1010
0.0
1020
0.0
1030
0.0
1001
ACADANNOTATIVE
1000
AnnotativeData
1002
{
1070
     1
1070
     1
1002
}
  0
LINE
  5
2D80
330
2933
100
AcDbEntity
  8
DETAIL
100
AcDbLine
 10
398.5978396421761
 20
533.5668535558706
 30
0.0
 11
614.3978396421644
 21
430.8050029854903
 31
0.0
1001
ACAD
1010
0.0
1020
0.0
1030
0.0
1001
ACADANNOTATIVE
1000
AnnotativeData
1002
{
1070
     1
1070
     1
1002
}
  0
LINE
  5
2D81
330
2933
100
AcDbEntity
  8
DETAIL
100
AcDbLine
 10
357.7158219643625
 20
543.034519011102
 30
0.0
 11
398.5978396421725
 21
523.5669018117387
 31
0.0
1001
ACAD
1010
0.0
1020
0.0
1030
0.0
1001
ACADANNOTATIVE
1000
AnnotativeData
1002
{
1070
     1
1070
     1
1002
}
  0
LINE
  5
2D82
330
2933
100
AcDbEntity
  8
DETAIL
100
AcDbLine
 10
398.5978396421725
 20
523.5669018117369
 30
0.0
 11
614.397839642168
 21
420.8050512413547
 31
0.0
1001
ACAD
1010
0.0
1020
0.0
1030
0.0
1001
ACADANNOTATIVE
1000
AnnotativeData
1002
{
1070
     1
1070
     1
1002
}
  0
LINE
  5
2D83
330
2933
100
AcDbEntity
  8
DETAIL
100
AcDbLine
 10
336.7159122273716
 20
543.034519011102
 30
0.0
 11
398.5978396421652
 21
513.566950067604
 31
0.0
1001
ACAD
1010
0.0
1020
0.0
1030
0.0
1001
ACADANNOTATIVE
1000
AnnotativeData
1002
{
1070
     1
1070
     1
1002
}
  0
LINE
  5
2D84
330
2933
100
AcDbEntity
  8
DETAIL
100
AcDbLine
 10
398.5978396421725
 20
513.5669500676012
 30
0.0
 11
614.397839642168
 21
410.8050994972191
 31
0.0
1001
ACAD
1010
0.0
1020
0.0
1030
0.0
1001
ACADANNOTATIVE
1000
AnnotativeData
1002
{
1070
     1
1070
     1
1002
}
  0
LINE
  5
2D85
330
2933
100
AcDbEntity
  8
DETAIL
100
AcDbLine
 10
315.7160024903806
 20
543.034519011102
 30
0.0
 11
398.5978396421688
 21
503.5669983234693
 31
0.0
1001
ACAD
1010
0.0
1020
0.0
1030
0.0
1001
ACADANNOTATIVE
1000
AnnotativeData
1002
{
1070
     1
1070
     1
1002
}
  0
LINE
  5
2D86
330
2933
100
AcDbEntity
  8
DETAIL
100
AcDbLine
 10
398.5978396421725
 20
503.5669983234675
 30
0.0
 11
614.397839642168
 21
400.8051477530853
 31
0.0
1001
ACAD
1010
0.0
1020
0.0
1030
0.0
1001
ACADANNOTATIVE
1000
AnnotativeData
1002
{
1070
     1
1070
     1
1002
}
  0
LINE
  5
2D87
330
2933
100
AcDbEntity
  8
DETAIL
100
AcDbLine
 10
294.7160927533897
 20
543.0345190111011
 30
0.0
 11
398.5978396421688
 21
493.5670465793354
 31
0.0
1001
ACAD
1010
0.0
1020
0.0
1030
0.0
1001
ACADANNOTATIVE
1000
AnnotativeData
1002
{
1070
     1
1070
     1
1002
}
  0
LINE
  5
2D88
330
2933
100
AcDbEntity
  8
DETAIL
100
AcDbLine
 10
398.5978396421725
 20
493.5670465793337
 30
0.0
 11
614.397839642168
 21
390.8051960089497
 31
0.0
1001
ACAD
1010
0.0
1020
0.0
1030
0.0
1001
ACADANNOTATIVE
1000
AnnotativeData
1002
{
1070
     1
1070
     1
1002
}
  0
LINE
  5
2D89
330
2933
100
AcDbEntity
  8
DETAIL
100
AcDbLine
 10
273.7161830163987
 20
543.0345190111011
 30
0.0
 11
398.5978396421688
 21
483.5670948351999
 31
0.0
1001
ACAD
1010
0.0
1020
0.0
1030
0.0
1001
ACADANNOTATIVE
1000
AnnotativeData
1002
{
1070
     1
1070
     1
1002
}
  0
LINE
  5
2D8A
330
2933
100
AcDbEntity
  8
DETAIL
100
AcDbLine
 10
398.5978396421688
 20
483.5670948351999
 30
0.0
 11
614.397839642168
 21
380.8052442648159
 31
0.0
1001
ACAD
1010
0.0
1020
0.0
1030
0.0
1001
ACADANNOTATIVE
1000
AnnotativeData
1002
{
1070
     1
1070
     1
1002
}
  0
LINE
  5
2D8B
330
2933
100
AcDbEntity
  8
DETAIL
100
AcDbLine
 10
252.7162732794077
 20
543.0345190111029
 30
0.0
 11
398.5978396421725
 21
473.567143091066
 31
0.0
1001
ACAD
1010
0.0
1020
0.0
1030
0.0
1001
ACADANNOTATIVE
1000
AnnotativeData
1002
{
1070
     1
1070
     1
1002
}
  0
LINE
  5
2D8C
330
2933
100
AcDbEntity
  8
DETAIL
100
AcDbLine
 10
398.5978396421725
 20
473.567143091066
 30
0.0
 11
614.397839642168
 21
370.8052925206821
 31
0.0
1001
ACAD
1010
0.0
1020
0.0
1030
0.0
1001
ACADANNOTATIVE
1000
AnnotativeData
1002
{
1070
     1
1070
     1
1002
}
  0
LINE
  5
2D8D
330
2933
100
AcDbEntity
  8
DETAIL
100
AcDbLine
 10
239.5978396421652
 20
539.2814371332697
 30
0.0
 11
398.5978396421688
 21
463.5671913469322
 31
0.0
1001
ACAD
1010
0.0
1020
0.0
1030
0.0
1001
ACADANNOTATIVE
1000
AnnotativeData
1002
{
1070
     1
1070
     1
1002
}
  0
LINE
  5
2D8E
330
2933
100
AcDbEntity
  8
DETAIL
100
AcDbLine
 10
398.5978396421688
 20
463.5671913469322
 30
0.0
 11
614.3978396421644
 21
360.8053407765483
 31
0.0
1001
ACAD
1010
0.0
1020
0.0
1030
0.0
1001
ACADANNOTATIVE
1000
AnnotativeData
1002
{
1070
     1
1070
     1
1002
}
  0
LINE
  5
2D8F
330
2933
100
AcDbEntity
  8
DETAIL
100
AcDbLine
 10
239.5978396421652
 20
529.281485389135
 30
0.0
 11
398.5978396421725
 21
453.5672396027966
 31
0.0
1001
ACAD
1010
0.0
1020
0.0
1030
0.0
1001
ACADANNOTATIVE
1000
AnnotativeData
1002
{
1070
     1
1070
     1
1002
}
  0
LINE
  5
2D90
330
2933
100
AcDbEntity
  8
DETAIL
100
AcDbLine
 10
398.5978396421725
 20
453.5672396027966
 30
0.0
 11
614.397839642168
 21
350.8053890324127
 31
0.0
1001
ACAD
1010
0.0
1020
0.0
1030
0.0
1001
ACADANNOTATIVE
1000
AnnotativeData
1002
{
1070
     1
1070
     1
1002
}
  0
LINE
  5
2D91
330
2933
100
AcDbEntity
  8
DETAIL
100
AcDbLine
 10
239.5978396421652
 20
519.2815336450003
 30
0.0
 11
398.5978396421652
 21
443.5672878586647
 31
0.0
1001
ACAD
1010
0.0
1020
0.0
1030
0.0
1001
ACADANNOTATIVE
1000
AnnotativeData
1002
{
1070
     1
1070
     1
1002
}
  0
LINE
  5
2D92
330
2933
100
AcDbEntity
  8
DETAIL
100
AcDbLine
 10
596.6967586895679
 20
349.2345190111018
 30
0.0
 11
614.397839642168
 21
340.8054372882771
 31
0.0
1001
ACAD
1010
0.0
1020
0.0
1030
0.0
1001
ACADANNOTATIVE
1000
AnnotativeData
1002
{
1070
     1
1070
     1
1002
}
  0
LINE
  5
2D93
330
2933
100
AcDbEntity
  8
DETAIL
100
AcDbLine
 10
398.5978396421652
 20
443.5672878586628
 30
0.0
 11
596.6967586895679
 21
349.2345190111018
 31
0.0
1001
ACAD
1010
0.0
1020
0.0
1030
0.0
1001
ACADANNOTATIVE
1000
AnnotativeData
1002
{
1070
     1
1070
     1
1002
}
  0
LINE
  5
2D94
330
2933
100
AcDbEntity
  8
DETAIL
100
AcDbLine
 10
239.5978396421615
 20
509.2815819008665
 30
0.0
 11
398.5978396421652
 21
433.5673361145291
 31
0.0
1001
ACAD
1010
0.0
1020
0.0
1030
0.0
1001
ACADANNOTATIVE
1000
AnnotativeData
1002
{
1070
     1
1070
     1
1002
}
  0
LINE
  5
2D95
330
2933
100
AcDbEntity
  8
DETAIL
100
AcDbLine
 10
575.696848952577
 20
349.2345190111018
 30
0.0
 11
614.397839642168
 21
330.8054855441433
 31
0.0
1001
ACAD
1010
0.0
1020
0.0
1030
0.0
1001
ACADANNOTATIVE
1000
AnnotativeData
1002
{
1070
     1
1070
     1
1002
}
  0
LINE
  5
2D96
330
2933
100
AcDbEntity
  8
DETAIL
100
AcDbLine
 10
398.5978396421688
 20
433.5673361145272
 30
0.0
 11
575.696848952577
 21
349.2345190111018
 31
0.0
1001
ACAD
1010
0.0
1020
0.0
1030
0.0
1001
ACADANNOTATIVE
1000
AnnotativeData
1002
{
1070
     1
1070
     1
1002
}
  0
LINE
  5
2D97
330
2933
100
AcDbEntity
  8
DETAIL
100
AcDbLine
 10
239.5978396421652
 20
499.2816301567327
 30
0.0
 11
398.5978396421652
 21
423.567384370397
 31
0.0
1001
ACAD
1010
0.0
1020
0.0
1030
0.0
1001
ACADANNOTATIVE
1000
AnnotativeData
1002
{
1070
     1
1070
     1
1002
}
  0
LINE
  5
2D98
330
2933
100
AcDbEntity
  8
DETAIL
100
AcDbLine
 10
554.6969392155861
 20
349.2345190111036
 30
0.0
 11
614.397839642168
 21
320.8055338000095
 31
0.0
1001
ACAD
1010
0.0
1020
0.0
1030
0.0
1001
ACADANNOTATIVE
1000
AnnotativeData
1002
{
1070
     1
1070
     1
1002
}
  0
LINE
  5
2D99
330
2933
100
AcDbEntity
  8
DETAIL
100
AcDbLine
 10
398.5978396421688
 20
423.5673843703953
 30
0.0
 11
554.6969392155861
 21
349.2345190111036
 31
0.0
1001
ACAD
1010
0.0
1020
0.0
1030
0.0
1001
ACADANNOTATIVE
1000
AnnotativeData
1002
{
1070
     1
1070
     1
1002
}
  0
LINE
  5
2D9A
330
2933
100
AcDbEntity
  8
DETAIL
100
AcDbLine
 10
239.5978396421615
 20
489.2816784125989
 30
0.0
 11
398.5978396421652
 21
413.5674326262614
 31
0.0
1001
ACAD
1010
0.0
1020
0.0
1030
0.0
1001
ACADANNOTATIVE
1000
AnnotativeData
1002
{
1070
     1
1070
     1
1002
}
  0
LINE
  5
2D9B
330
2933
100
AcDbEntity
  8
DETAIL
100
AcDbLine
 10
533.6970294785951
 20
349.2345190111036
 30
0.0
 11
614.397839642168
 21
310.8055820558757
 31
0.0
1001
ACAD
1010
0.0
1020
0.0
1030
0.0
1001
ACADANNOTATIVE
1000
AnnotativeData
1002
{
1070
     1
1070
     1
1002
}
  0
LINE
  5
2D9C
330
2933
100
AcDbEntity
  8
DETAIL
100
AcDbLine
 10
398.5978396421688
 20
413.5674326262597
 30
0.0
 11
533.6970294785951
 21
349.2345190111036
 31
0.0
1001
ACAD
1010
0.0
1020
0.0
1030
0.0
1001
ACADANNOTATIVE
1000
AnnotativeData
1002
{
1070
     1
1070
     1
1002
}
  0
LINE
  5
2D9D
330
2933
100
AcDbEntity
  8
DETAIL
100
AcDbLine
 10
239.5978396421652
 20
479.2817266684632
 30
0.0
 11
398.5978396421652
 21
403.5674808821276
 31
0.0
1001
ACAD
1010
0.0
1020
0.0
1030
0.0
1001
ACADANNOTATIVE
1000
AnnotativeData
1002
{
1070
     1
1070
     1
1002
}
  0
LINE
  5
2D9E
330
2933
100
AcDbEntity
  8
DETAIL
100
AcDbLine
 10
512.6971197416078
 20
349.2345190111018
 30
0.0
 11
614.397839642168
 21
300.8056303117401
 31
0.0
1001
ACAD
1010
0.0
1020
0.0
1030
0.0
1001
ACADANNOTATIVE
1000
AnnotativeData
1002
{
1070
     1
1070
     1
1002
}
  0
LINE
  5
2D9F
330
2933
100
AcDbEntity
  8
DETAIL
100
AcDbLine
 10
398.5978396421688
 20
403.5674808821259
 30
0.0
 11
512.6971197416078
 21
349.2345190111018
 31
0.0
1001
ACAD
1010
0.0
1020
0.0
1030
0.0
1001
ACADANNOTATIVE
1000
AnnotativeData
1002
{
1070
     1
1070
     1
1002
}
  0
LINE
  5
2DA0
330
2933
100
AcDbEntity
  8
DETAIL
100
AcDbLine
 10
239.5978396421615
 20
469.2817749243295
 30
0.0
 11
398.5978396421652
 21
393.5675291379921
 31
0.0
1001
ACAD
1010
0.0
1020
0.0
1030
0.0
1001
ACADANNOTATIVE
1000
AnnotativeData
1002
{
1070
     1
1070
     1
1002
}
  0
LINE
  5
2DA1
330
2933
100
AcDbEntity
  8
DETAIL
100
AcDbLine
 10
491.6972100046132
 20
349.2345190111018
 30
0.0
 11
614.397839642168
 21
290.8056785676063
 31
0.0
1001
ACAD
1010
0.0
1020
0.0
1030
0.0
1001
ACADANNOTATIVE
1000
AnnotativeData
1002
{
1070
     1
1070
     1
1002
}
  0
LINE
  5
2DA2
330
2933
100
AcDbEntity
  8
DETAIL
100
AcDbLine
 10
398.5978396421652
 20
393.5675291379921
 30
0.0
 11
491.6972100046132
 21
349.2345190111018
 31
0.0
1001
ACAD
1010
0.0
1020
0.0
1030
0.0
1001
ACADANNOTATIVE
1000
AnnotativeData
1002
{
1070
     1
1070
     1
1002
}
  0
LINE
  5
2DA3
330
2933
100
AcDbEntity
  8
DETAIL
100
AcDbLine
 10
239.5978396421652
 20
459.2818231801938
 30
0.0
 11
398.5978396421652
 21
383.5675773938565
 31
0.0
1001
ACAD
1010
0.0
1020
0.0
1030
0.0
1001
ACADANNOTATIVE
1000
AnnotativeData
1002
{
1070
     1
1070
     1
1002
}
  0
LINE
  5
2DA4
330
2933
100
AcDbEntity
  8
DETAIL
100
AcDbLine
 10
470.6973002676259
 20
349.2345190111018
 30
0.0
 11
614.397839642168
 21
280.8057268234707
 31
0.0
1001
ACAD
1010
0.0
1020
0.0
1030
0.0
1001
ACADANNOTATIVE
1000
AnnotativeData
1002
{
1070
     1
1070
     1
1002
}
  0
LINE
  5
2DA5
330
2933
100
AcDbEntity
  8
DETAIL
100
AcDbLine
 10
398.5978396421652
 20
383.5675773938565
 30
0.0
 11
470.6973002676259
 21
349.2345190111018
 31
0.0
1001
ACAD
1010
0.0
1020
0.0
1030
0.0
1001
ACADANNOTATIVE
1000
AnnotativeData
1002
{
1070
     1
1070
     1
1002
}
  0
LINE
  5
2DA6
330
2933
100
AcDbEntity
  8
DETAIL
100
AcDbLine
 10
239.5978396421652
 20
449.2818714360582
 30
0.0
 11
398.5978396421652
 21
373.5676256497227
 31
0.0
1001
ACAD
1010
0.0
1020
0.0
1030
0.0
1001
ACADANNOTATIVE
1000
AnnotativeData
1002
{
1070
     1
1070
     1
1002
}
  0
LINE
  5
2DA7
330
2933
100
AcDbEntity
  8
DETAIL
100
AcDbLine
 10
449.6973905306314
 20
349.2345190111009
 30
0.0
 11
614.397839642168
 21
270.8057750793368
 31
0.0
1001
ACAD
1010
0.0
1020
0.0
1030
0.0
1001
ACADANNOTATIVE
1000
AnnotativeData
1002
{
1070
     1
1070
     1
1002
}
  0
LINE
  5
2DA8
330
2933
100
AcDbEntity
  8
DETAIL
100
AcDbLine
 10
398.5978396421652
 20
373.5676256497227
 30
0.0
 11
449.6973905306314
 21
349.2345190111009
 31
0.0
1001
ACAD
1010
0.0
1020
0.0
1030
0.0
1001
ACADANNOTATIVE
1000
AnnotativeData
1002
{
1070
     1
1070
     1
1002
}
  0
LINE
  5
2DA9
330
2933
100
AcDbEntity
  8
DETAIL
100
AcDbLine
 10
239.5978396421615
 20
439.2819196919263
 30
0.0
 11
398.5978396421652
 21
363.5676739055889
 31
0.0
1001
ACAD
1010
0.0
1020
0.0
1030
0.0
1001
ACADANNOTATIVE
1000
AnnotativeData
1002
{
1070
     1
1070
     1
1002
}
  0
LINE
  5
2DAA
330
2933
100
AcDbEntity
  8
DETAIL
100
AcDbLine
 10
428.6974807936403
 20
349.2345190111028
 30
0.0
 11
614.397839642168
 21
260.805823335204
 31
0.0
1001
ACAD
1010
0.0
1020
0.0
1030
0.0
1001
ACADANNOTATIVE
1000
AnnotativeData
1002
{
1070
     1
1070
     1
1002
}
  0
LINE
  5
2DAB
330
2933
100
AcDbEntity
  8
DETAIL
100
AcDbLine
 10
398.5978396421652
 20
363.5676739055889
 30
0.0
 11
428.6974807936403
 21
349.2345190111028
 31
0.0
1001
ACAD
1010
0.0
1020
0.0
1030
0.0
1001
ACADANNOTATIVE
1000
AnnotativeData
1002
{
1070
     1
1070
     1
1002
}
  0
LINE
  5
2DAC
330
2933
100
AcDbEntity
  8
DETAIL
100
AcDbLine
 10
239.5978396421652
 20
429.2819679477907
 30
0.0
 11
398.5978396421652
 21
353.5677221614551
 31
0.0
1001
ACAD
1010
0.0
1020
0.0
1030
0.0
1001
ACADANNOTATIVE
1000
AnnotativeData
1002
{
1070
     1
1070
     1
1002
}
  0
LINE
  5
2DAD
330
2933
100
AcDbEntity
  8
DETAIL
100
AcDbLine
 10
407.6975710566494
 20
349.2345190111028
 30
0.0
 11
614.397839642168
 21
250.8058715910693
 31
0.0
1001
ACAD
1010
0.0
1020
0.0
1030
0.0
1001
ACADANNOTATIVE
1000
AnnotativeData
1002
{
1070
     1
1070
     1
1002
}
  0
LINE
  5
2DAE
330
2933
100
AcDbEntity
  8
DETAIL
100
AcDbLine
 10
398.5978396421652
 20
353.5677221614551
 30
0.0
 11
407.6975710566494
 21
349.2345190111028
 31
0.0
1001
ACAD
1010
0.0
1020
0.0
1030
0.0
1001
ACADANNOTATIVE
1000
AnnotativeData
1002
{
1070
     1
1070
     1
1002
}
  0
LINE
  5
2DAF
330
2933
100
AcDbEntity
  8
DETAIL
100
AcDbLine
 10
239.5978396421615
 20
419.2820162036569
 30
0.0
 11
614.397839642168
 21
240.8059198469346
 31
0.0
1001
ACAD
1010
0.0
1020
0.0
1030
0.0
1001
ACADANNOTATIVE
1000
AnnotativeData
1002
{
1070
     1
1070
     1
1002
}
  0
LINE
  5
2DB0
330
2933
100
AcDbEntity
  8
DETAIL
100
AcDbLine
 10
239.5978396421652
 20
409.2820644595212
 30
0.0
 11
614.397839642168
 21
230.805968102799
 31
0.0
1001
ACAD
1010
0.0
1020
0.0
1030
0.0
1001
ACADANNOTATIVE
1000
AnnotativeData
1002
{
1070
     1
1070
     1
1002
}
  0
LINE
  5
2DB1
330
2933
100
AcDbEntity
  8
DETAIL
100
AcDbLine
 10
239.5978396421652
 20
399.2821127153857
 30
0.0
 11
607.1979802752048
 21
224.2345190110991
 31
0.0
1001
ACAD
1010
0.0
1020
0.0
1030
0.0
1001
ACADANNOTATIVE
1000
AnnotativeData
1002
{
1070
     1
1070
     1
1002
}
  0
LINE
  5
2DB2
330
2933
100
AcDbEntity
  8
DETAIL
100
AcDbLine
 10
239.5978396421652
 20
389.2821609712537
 30
0.0
 11
586.1980705382174
 21
224.2345190111009
 31
0.0
1001
ACAD
1010
0.0
1020
0.0
1030
0.0
1001
ACADANNOTATIVE
1000
AnnotativeData
1002
{
1070
     1
1070
     1
1002
}
  0
LINE
  5
2DB3
330
2933
100
AcDbEntity
  8
DETAIL
100
AcDbLine
 10
239.5978396421688
 20
379.2822092271172
 30
0.0
 11
565.1981608012229
 21
224.2345190111009
 31
0.0
1001
ACAD
1010
0.0
1020
0.0
1030
0.0
1001
ACADANNOTATIVE
1000
AnnotativeData
1002
{
1070
     1
1070
     1
1002
}
  0
LINE
  5
2DB4
330
2933
100
AcDbEntity
  8
DETAIL
100
AcDbLine
 10
239.5978396421652
 20
369.2822574829834
 30
0.0
 11
544.1982510642319
 21
224.2345190111009
 31
0.0
1001
ACAD
1010
0.0
1020
0.0
1030
0.0
1001
ACADANNOTATIVE
1000
AnnotativeData
1002
{
1070
     1
1070
     1
1002
}
  0
LINE
  5
2DB5
330
2933
100
AcDbEntity
  8
DETAIL
100
AcDbLine
 10
239.5978396421688
 20
359.2823057388478
 30
0.0
 11
523.1983413272409
 21
224.2345190111009
 31
0.0
1001
ACAD
1010
0.0
1020
0.0
1030
0.0
1001
ACADANNOTATIVE
1000
AnnotativeData
1002
{
1070
     1
1070
     1
1002
}
  0
LINE
  5
2DB6
330
2933
100
AcDbEntity
  8
DETAIL
100
AcDbLine
 10
239.5978396421652
 20
349.2823539947139
 30
0.0
 11
502.1984315902501
 21
224.2345190111009
 31
0.0
1001
ACAD
1010
0.0
1020
0.0
1030
0.0
1001
ACADANNOTATIVE
1000
AnnotativeData
1002
{
1070
     1
1070
     1
1002
}
  0
LINE
  5
2DB7
330
2933
100
AcDbEntity
  8
DETAIL
100
AcDbLine
 10
239.5978396421688
 20
339.2824022505802
 30
0.0
 11
481.1985218532591
 21
224.2345190111028
 31
0.0
1001
ACAD
1010
0.0
1020
0.0
1030
0.0
1001
ACADANNOTATIVE
1000
AnnotativeData
1002
{
1070
     1
1070
     1
1002
}
  0
LINE
  5
2DB8
330
2933
100
AcDbEntity
  8
DETAIL
100
AcDbLine
 10
239.5978396421652
 20
329.2824505064464
 30
0.0
 11
460.1986121162681
 21
224.2345190111018
 31
0.0
1001
ACAD
1010
0.0
1020
0.0
1030
0.0
1001
ACADANNOTATIVE
1000
AnnotativeData
1002
{
1070
     1
1070
     1
1002
}
  0
LINE
  5
2DB9
330
2933
100
AcDbEntity
  8
DETAIL
100
AcDbLine
 10
239.5978396421652
 20
319.2824987623108
 30
0.0
 11
439.1987023792772
 21
224.2345190111018
 31
0.0
1001
ACAD
1010
0.0
1020
0.0
1030
0.0
1001
ACADANNOTATIVE
1000
AnnotativeData
1002
{
1070
     1
1070
     1
1002
}
  0
LINE
  5
2DBA
330
2933
100
AcDbEntity
  8
DETAIL
100
AcDbLine
 10
239.5978396421688
 20
309.2825470181751
 30
0.0
 11
418.1987926422862
 21
224.2345190111018
 31
0.0
1001
ACAD
1010
0.0
1020
0.0
1030
0.0
1001
ACADANNOTATIVE
1000
AnnotativeData
1002
{
1070
     1
1070
     1
1002
}
  0
LINE
  5
2DBB
330
2933
100
AcDbEntity
  8
DETAIL
100
AcDbLine
 10
239.5978396421652
 20
299.2825952740414
 30
0.0
 11
397.1988829052953
 21
224.2345190111018
 31
0.0
1001
ACAD
1010
0.0
1020
0.0
1030
0.0
1001
ACADANNOTATIVE
1000
AnnotativeData
1002
{
1070
     1
1070
     1
1002
}
  0
LINE
  5
2DBC
330
2933
100
AcDbEntity
  8
DETAIL
100
AcDbLine
 10
239.5978396421688
 20
289.2826435299057
 30
0.0
 11
376.198973168308
 21
224.2345190111
 31
0.0
1001
ACAD
1010
0.0
1020
0.0
1030
0.0
1001
ACADANNOTATIVE
1000
AnnotativeData
1002
{
1070
     1
1070
     1
1002
}
  0
LINE
  5
2DBD
330
2933
100
AcDbEntity
  8
DETAIL
100
AcDbLine
 10
239.5978396421652
 20
279.2826917857738
 30
0.0
 11
355.1990634313134
 21
224.2345190111018
 31
0.0
1001
ACAD
1010
0.0
1020
0.0
1030
0.0
1001
ACADANNOTATIVE
1000
AnnotativeData
1002
{
1070
     1
1070
     1
1002
}
  0
LINE
  5
2DBE
330
2933
100
AcDbEntity
  8
DETAIL
100
AcDbLine
 10
239.5978396421688
 20
269.2827400416381
 30
0.0
 11
334.1991536943261
 21
224.2345190111018
 31
0.0
1001
ACAD
1010
0.0
1020
0.0
1030
0.0
1001
ACADANNOTATIVE
1000
AnnotativeData
1002
{
1070
     1
1070
     1
1002
}
  0
LINE
  5
2DBF
330
2933
100
AcDbEntity
  8
DETAIL
100
AcDbLine
 10
239.5978396421652
 20
259.2827882975043
 30
0.0
 11
313.1992439573315
 21
224.2345190111018
 31
0.0
1001
ACAD
1010
0.0
1020
0.0
1030
0.0
1001
ACADANNOTATIVE
1000
AnnotativeData
1002
{
1070
     1
1070
     1
1002
}
  0
LINE
  5
2DC0
330
2933
100
AcDbEntity
  8
DETAIL
100
AcDbLine
 10
239.5978396421652
 20
249.2828365533687
 30
0.0
 11
292.1993342203442
 21
224.2345190111018
 31
0.0
1001
ACAD
1010
0.0
1020
0.0
1030
0.0
1001
ACADANNOTATIVE
1000
AnnotativeData
1002
{
1070
     1
1070
     1
1002
}
  0
LINE
  5
2DC1
330
2933
100
AcDbEntity
  8
DETAIL
100
AcDbLine
 10
239.5978396421688
 20
239.2828848092331
 30
0.0
 11
271.1994244833532
 21
224.2345190111
 31
0.0
1001
ACAD
1010
0.0
1020
0.0
1030
0.0
1001
ACADANNOTATIVE
1000
AnnotativeData
1002
{
1070
     1
1070
     1
1002
}
  0
LINE
  5
2DC2
330
2933
100
AcDbEntity
  8
DETAIL
100
AcDbLine
 10
239.5978396421652
 20
229.2829330651011
 30
0.0
 11
250.1995147463623
 21
224.2345190111018
 31
0.0
1001
ACAD
1010
0.0
1020
0.0
1030
0.0
1001
ACADANNOTATIVE
1000
AnnotativeData
1002
{
1070
     1
1070
     1
1002
}
  0
LINE
  5
2DC3
330
2933
100
AcDbEntity
  8
DETAIL
100
AcDbLine
 10
239.5978396421761
 20
542.2055351033322
 30
0.0
 11
241.3387067665372
 21
543.034519011102
 31
0.0
1001
ACAD
1010
0.0
1020
0.0
1030
0.0
1001
ACADANNOTATIVE
1000
AnnotativeData
1002
{
1070
     1
1070
     1
1002
}
  0
LINE
  5
2DC4
330
2933
100
AcDbEntity
  8
DETAIL
100
AcDbLine
 10
239.5978396421725
 20
532.2055833591966
 30
0.0
 11
262.3386165035281
 21
543.034519011102
 31
0.0
1001
ACAD
1010
0.0
1020
0.0
1030
0.0
1001
ACADANNOTATIVE
1000
AnnotativeData
1002
{
1070
     1
1070
     1
1002
}
  0
LINE
  5
2DC5
330
2933
100
AcDbEntity
  8
DETAIL
100
AcDbLine
 10
239.5978396421761
 20
522.2056316150638
 30
0.0
 11
283.3385262405228
 21
543.0345190111029
 31
0.0
1001
ACAD
1010
0.0
1020
0.0
1030
0.0
1001
ACADANNOTATIVE
1000
AnnotativeData
1002
{
1070
     1
1070
     1
1002
}
  0
LINE
  5
2DC6
330
2933
100
AcDbEntity
  8
DETAIL
100
AcDbLine
 10
239.5978396421725
 20
512.2056798709281
 30
0.0
 11
304.3384359775101
 21
543.0345190111011
 31
0.0
1001
ACAD
1010
0.0
1020
0.0
1030
0.0
1001
ACADANNOTATIVE
1000
AnnotativeData
1002
{
1070
     1
1070
     1
1002
}
  0
LINE
  5
2DC7
330
2933
100
AcDbEntity
  8
DETAIL
100
AcDbLine
 10
239.5978396421797
 20
502.2057281267944
 30
0.0
 11
325.3383457144974
 21
543.0345190111011
 31
0.0
1001
ACAD
1010
0.0
1020
0.0
1030
0.0
1001
ACADANNOTATIVE
1000
AnnotativeData
1002
{
1070
     1
1070
     1
1002
}
  0
LINE
  5
2DC8
330
2933
100
AcDbEntity
  8
DETAIL
100
AcDbLine
 10
239.5978396421761
 20
492.2057763826597
 30
0.0
 11
346.338255451492
 21
543.034519011102
 31
0.0
1001
ACAD
1010
0.0
1020
0.0
1030
0.0
1001
ACADANNOTATIVE
1000
AnnotativeData
1002
{
1070
     1
1070
     1
1002
}
  0
LINE
  5
2DC9
330
2933
100
AcDbEntity
  8
DETAIL
100
AcDbLine
 10
239.5978396421725
 20
482.205824638524
 30
0.0
 11
367.338165188483
 21
543.034519011102
 31
0.0
1001
ACAD
1010
0.0
1020
0.0
1030
0.0
1001
ACADANNOTATIVE
1000
AnnotativeData
1002
{
1070
     1
1070
     1
1002
}
  0
LINE
  5
2DCA
330
2933
100
AcDbEntity
  8
DETAIL
100
AcDbLine
 10
239.5978396421761
 20
472.2058728943911
 30
0.0
 11
388.3380749254739
 21
543.0345190111029
 31
0.0
1001
ACAD
1010
0.0
1020
0.0
1030
0.0
1001
ACADANNOTATIVE
1000
AnnotativeData
1002
{
1070
     1
1070
     1
1002
}
  0
LINE
  5
2DCB
330
2933
100
AcDbEntity
  8
DETAIL
100
AcDbLine
 10
239.5978396421761
 20
462.2059211502556
 30
0.0
 11
398.5978396421761
 21
537.9201669365921
 31
0.0
1001
ACAD
1010
0.0
1020
0.0
1030
0.0
1001
ACADANNOTATIVE
1000
AnnotativeData
1002
{
1070
     1
1070
     1
1002
}
  0
LINE
  5
2DCC
330
2933
100
AcDbEntity
  8
DETAIL
100
AcDbLine
 10
398.5978396421761
 20
537.9201669365921
 30
0.0
 11
409.3379846624648
 21
543.0345190111029
 31
0.0
1001
ACAD
1010
0.0
1020
0.0
1030
0.0
1001
ACADANNOTATIVE
1000
AnnotativeData
1002
{
1070
     1
1070
     1
1002
}
  0
LINE
  5
2DCD
330
2933
100
AcDbEntity
  8
DETAIL
100
AcDbLine
 10
239.5978396421761
 20
452.2059694061217
 30
0.0
 11
398.5978396421725
 21
527.9202151924564
 31
0.0
1001
ACAD
1010
0.0
1020
0.0
1030
0.0
1001
ACADANNOTATIVE
1000
AnnotativeData
1002
{
1070
     1
1070
     1
1002
}
  0
LINE
  5
2DCE
330
2933
100
AcDbEntity
  8
DETAIL
100
AcDbLine
 10
398.5978396421725
 20
527.9202151924564
 30
0.0
 11
430.3378943994558
 21
543.0345190111029
 31
0.0
1001
ACAD
1010
0.0
1020
0.0
1030
0.0
1001
ACADANNOTATIVE
1000
AnnotativeData
1002
{
1070
     1
1070
     1
1002
}
  0
LINE
  5
2DCF
330
2933
100
AcDbEntity
  8
DETAIL
100
AcDbLine
 10
239.5978396421761
 20
442.206017661987
 30
0.0
 11
398.5978396421761
 21
517.9202634483235
 31
0.0
1001
ACAD
1010
0.0
1020
0.0
1030
0.0
1001
ACADANNOTATIVE
1000
AnnotativeData
1002
{
1070
     1
1070
     1
1002
}
  0
LINE
  5
2DD0
330
2933
100
AcDbEntity
  8
DETAIL
100
AcDbLine
 10
398.5978396421761
 20
517.9202634483235
 30
0.0
 11
451.3378041364504
 21
543.0345190111029
 31
0.0
1001
ACAD
1010
0.0
1020
0.0
1030
0.0
1001
ACADANNOTATIVE
1000
AnnotativeData
1002
{
1070
     1
1070
     1
1002
}
  0
LINE
  5
2DD1
330
2933
100
AcDbEntity
  8
DETAIL
100
AcDbLine
 10
239.5978396421761
 20
432.2060659178532
 30
0.0
 11
398.5978396421725
 21
507.9203117041879
 31
0.0
1001
ACAD
1010
0.0
1020
0.0
1030
0.0
1001
ACADANNOTATIVE
1000
AnnotativeData
1002
{
1070
     1
1070
     1
1002
}
  0
LINE
  5
2DD2
330
2933
100
AcDbEntity
  8
DETAIL
100
AcDbLine
 10
398.5978396421725
 20
507.9203117041879
 30
0.0
 11
472.3377138734341
 21
543.034519011102
 31
0.0
1001
ACAD
1010
0.0
1020
0.0
1030
0.0
1001
ACADANNOTATIVE
1000
AnnotativeData
1002
{
1070
     1
1070
     1
1002
}
  0
LINE
  5
2DD3
330
2933
100
AcDbEntity
  8
DETAIL
100
AcDbLine
 10
239.5978396421725
 20
422.2061141737204
 30
0.0
 11
398.5978396421725
 21
497.920359960055
 31
0.0
1001
ACAD
1010
0.0
1020
0.0
1030
0.0
1001
ACADANNOTATIVE
1000
AnnotativeData
1002
{
1070
     1
1070
     1
1002
}
  0
LINE
  5
2DD4
330
2933
100
AcDbEntity
  8
DETAIL
100
AcDbLine
 10
398.5978396421725
 20
497.920359960055
 30
0.0
 11
493.337623610425
 21
543.0345190111029
 31
0.0
1001
ACAD
1010
0.0
1020
0.0
1030
0.0
1001
ACADANNOTATIVE
1000
AnnotativeData
1002
{
1070
     1
1070
     1
1002
}
  0
LINE
  5
2DD5
330
2933
100
AcDbEntity
  8
DETAIL
100
AcDbLine
 10
239.5978396421761
 20
412.2061624295847
 30
0.0
 11
398.5978396421761
 21
487.9204082159194
 31
0.0
1001
ACAD
1010
0.0
1020
0.0
1030
0.0
1001
ACADANNOTATIVE
1000
AnnotativeData
1002
{
1070
     1
1070
     1
1002
}
  0
LINE
  5
2DD6
330
2933
100
AcDbEntity
  8
DETAIL
100
AcDbLine
 10
398.5978396421761
 20
487.9204082159194
 30
0.0
 11
514.3375333474195
 21
543.034519011102
 31
0.0
1001
ACAD
1010
0.0
1020
0.0
1030
0.0
1001
ACADANNOTATIVE
1000
AnnotativeData
1002
{
1070
     1
1070
     1
1002
}
  0
LINE
  5
2DD7
330
2933
100
AcDbEntity
  8
DETAIL
100
AcDbLine
 10
239.5978396421761
 20
402.206210685451
 30
0.0
 11
398.5978396421725
 21
477.9204564717847
 31
0.0
1001
ACAD
1010
0.0
1020
0.0
1030
0.0
1001
ACADANNOTATIVE
1000
AnnotativeData
1002
{
1070
     1
1070
     1
1002
}
  0
LINE
  5
2DD8
330
2933
100
AcDbEntity
  8
DETAIL
100
AcDbLine
 10
398.5978396421725
 20
477.9204564717847
 30
0.0
 11
535.3374430844105
 21
543.034519011102
 31
0.0
1001
ACAD
1010
0.0
1020
0.0
1030
0.0
1001
ACADANNOTATIVE
1000
AnnotativeData
1002
{
1070
     1
1070
     1
1002
}
  0
LINE
  5
2DD9
330
2933
100
AcDbEntity
  8
DETAIL
100
AcDbLine
 10
239.5978396421761
 20
392.2062589413163
 30
0.0
 11
398.5978396421725
 21
467.9205047276518
 31
0.0
1001
ACAD
1010
0.0
1020
0.0
1030
0.0
1001
ACADANNOTATIVE
1000
AnnotativeData
1002
{
1070
     1
1070
     1
1002
}
  0
LINE
  5
2DDA
330
2933
100
AcDbEntity
  8
DETAIL
100
AcDbLine
 10
398.5978396421725
 20
467.9205047276518
 30
0.0
 11
556.3373528213978
 21
543.0345190111029
 31
0.0
1001
ACAD
1010
0.0
1020
0.0
1030
0.0
1001
ACADANNOTATIVE
1000
AnnotativeData
1002
{
1070
     1
1070
     1
1002
}
  0
LINE
  5
2DDB
330
2933
100
AcDbEntity
  8
DETAIL
100
AcDbLine
 10
239.5978396421761
 20
382.2063071971825
 30
0.0
 11
398.5978396421725
 21
457.9205529835162
 31
0.0
1001
ACAD
1010
0.0
1020
0.0
1030
0.0
1001
ACADANNOTATIVE
1000
AnnotativeData
1002
{
1070
     1
1070
     1
1002
}
  0
LINE
  5
2DDC
330
2933
100
AcDbEntity
  8
DETAIL
100
AcDbLine
 10
398.5978396421725
 20
457.9205529835162
 30
0.0
 11
577.3372625583924
 21
543.0345190111029
 31
0.0
1001
ACAD
1010
0.0
1020
0.0
1030
0.0
1001
ACADANNOTATIVE
1000
AnnotativeData
1002
{
1070
     1
1070
     1
1002
}
  0
LINE
  5
2DDD
330
2933
100
AcDbEntity
  8
DETAIL
100
AcDbLine
 10
239.5978396421725
 20
372.2063554530468
 30
0.0
 11
398.5978396421725
 21
447.9206012393824
 31
0.0
1001
ACAD
1010
0.0
1020
0.0
1030
0.0
1001
ACADANNOTATIVE
1000
AnnotativeData
1002
{
1070
     1
1070
     1
1002
}
  0
LINE
  5
2DDE
330
2933
100
AcDbEntity
  8
DETAIL
100
AcDbLine
 10
398.5978396421725
 20
447.9206012393824
 30
0.0
 11
598.3371722953834
 21
543.0345190111029
 31
0.0
1001
ACAD
1010
0.0
1020
0.0
1030
0.0
1001
ACADANNOTATIVE
1000
AnnotativeData
1002
{
1070
     1
1070
     1
1002
}
  0
LINE
  5
2DDF
330
2933
100
AcDbEntity
  8
DETAIL
100
AcDbLine
 10
239.5978396421725
 20
362.206403708914
 30
0.0
 11
398.5978396421725
 21
437.9206494952477
 31
0.0
1001
ACAD
1010
0.0
1020
0.0
1030
0.0
1001
ACADANNOTATIVE
1000
AnnotativeData
1002
{
1070
     1
1070
     1
1002
}
  0
LINE
  5
2DE0
330
2933
100
AcDbEntity
  8
DETAIL
100
AcDbLine
 10
398.5978396421725
 20
437.9206494952477
 30
0.0
 11
614.3978396421752
 21
540.6825000656326
 31
0.0
1001
ACAD
1010
0.0
1020
0.0
1030
0.0
1001
ACADANNOTATIVE
1000
AnnotativeData
1002
{
1070
     1
1070
     1
1002
}
  0
LINE
  5
2DE1
330
2933
100
AcDbEntity
  8
DETAIL
100
AcDbLine
 10
239.5978396421761
 20
352.2064519647784
 30
0.0
 11
398.5978396421761
 21
427.9206977511139
 31
0.0
1001
ACAD
1010
0.0
1020
0.0
1030
0.0
1001
ACADANNOTATIVE
1000
AnnotativeData
1002
{
1070
     1
1070
     1
1002
}
  0
LINE
  5
2DE2
330
2933
100
AcDbEntity
  8
DETAIL
100
AcDbLine
 10
398.5978396421761
 20
427.9206977511139
 30
0.0
 11
614.3978396421752
 21
530.6825483214988
 31
0.0
1001
ACAD
1010
0.0
1020
0.0
1030
0.0
1001
ACADANNOTATIVE
1000
AnnotativeData
1002
{
1070
     1
1070
     1
1002
}
  0
LINE
  5
2DE3
330
2933
100
AcDbEntity
  8
DETAIL
100
AcDbLine
 10
239.5978396421761
 20
342.2065002206446
 30
0.0
 11
398.5978396421725
 21
417.9207460069783
 31
0.0
1001
ACAD
1010
0.0
1020
0.0
1030
0.0
1001
ACADANNOTATIVE
1000
AnnotativeData
1002
{
1070
     1
1070
     1
1002
}
  0
LINE
  5
2DE4
330
2933
100
AcDbEntity
  8
DETAIL
100
AcDbLine
 10
398.5978396421725
 20
417.9207460069783
 30
0.0
 11
614.3978396421752
 21
520.6825965773632
 31
0.0
1001
ACAD
1010
0.0
1020
0.0
1030
0.0
1001
ACADANNOTATIVE
1000
AnnotativeData
1002
{
1070
     1
1070
     1
1002
}
  0
LINE
  5
2DE5
330
2933
100
AcDbEntity
  8
DETAIL
100
AcDbLine
 10
239.5978396421725
 20
332.2065484765098
 30
0.0
 11
398.5978396421725
 21
407.9207942628454
 31
0.0
1001
ACAD
1010
0.0
1020
0.0
1030
0.0
1001
ACADANNOTATIVE
1000
AnnotativeData
1002
{
1070
     1
1070
     1
1002
}
  0
LINE
  5
2DE6
330
2933
100
AcDbEntity
  8
DETAIL
100
AcDbLine
 10
398.5978396421725
 20
407.9207942628454
 30
0.0
 11
614.3978396421752
 21
510.6826448332303
 31
0.0
1001
ACAD
1010
0.0
1020
0.0
1030
0.0
1001
ACADANNOTATIVE
1000
AnnotativeData
1002
{
1070
     1
1070
     1
1002
}
  0
LINE
  5
2DE7
330
2933
100
AcDbEntity
  8
DETAIL
100
AcDbLine
 10
239.5978396421761
 20
322.2065967323761
 30
0.0
 11
398.5978396421725
 21
397.9208425187098
 31
0.0
1001
ACAD
1010
0.0
1020
0.0
1030
0.0
1001
ACADANNOTATIVE
1000
AnnotativeData
1002
{
1070
     1
1070
     1
1002
}
  0
LINE
  5
2DE8
330
2933
100
AcDbEntity
  8
DETAIL
100
AcDbLine
 10
398.5978396421725
 20
397.9208425187098
 30
0.0
 11
614.3978396421752
 21
500.6826930890947
 31
0.0
1001
ACAD
1010
0.0
1020
0.0
1030
0.0
1001
ACADANNOTATIVE
1000
AnnotativeData
1002
{
1070
     1
1070
     1
1002
}
  0
LINE
  5
2DE9
330
2933
100
AcDbEntity
  8
DETAIL
100
AcDbLine
 10
239.5978396421761
 20
312.2066449882414
 30
0.0
 11
398.5978396421725
 21
387.9208907745751
 31
0.0
1001
ACAD
1010
0.0
1020
0.0
1030
0.0
1001
ACADANNOTATIVE
1000
AnnotativeData
1002
{
1070
     1
1070
     1
1002
}
  0
LINE
  5
2DEA
330
2933
100
AcDbEntity
  8
DETAIL
100
AcDbLine
 10
398.5978396421725
 20
387.9208907745751
 30
0.0
 11
614.3978396421752
 21
490.6827413449618
 31
0.0
1001
ACAD
1010
0.0
1020
0.0
1030
0.0
1001
ACADANNOTATIVE
1000
AnnotativeData
1002
{
1070
     1
1070
     1
1002
}
  0
LINE
  5
2DEB
330
2933
100
AcDbEntity
  8
DETAIL
100
AcDbLine
 10
239.5978396421797
 20
302.2066932441076
 30
0.0
 11
398.5978396421761
 21
377.9209390304413
 31
0.0
1001
ACAD
1010
0.0
1020
0.0
1030
0.0
1001
ACADANNOTATIVE
1000
AnnotativeData
1002
{
1070
     1
1070
     1
1002
}
  0
LINE
  5
2DEC
330
2933
100
AcDbEntity
  8
DETAIL
100
AcDbLine
 10
398.5978396421761
 20
377.9209390304413
 30
0.0
 11
614.3978396421752
 21
480.6827896008262
 31
0.0
1001
ACAD
1010
0.0
1020
0.0
1030
0.0
1001
ACADANNOTATIVE
1000
AnnotativeData
1002
{
1070
     1
1070
     1
1002
}
  0
LINE
  5
2DED
330
2933
100
AcDbEntity
  8
DETAIL
100
AcDbLine
 10
239.5978396421761
 20
292.206741499972
 30
0.0
 11
398.5978396421725
 21
367.9209872863057
 31
0.0
1001
ACAD
1010
0.0
1020
0.0
1030
0.0
1001
ACADANNOTATIVE
1000
AnnotativeData
1002
{
1070
     1
1070
     1
1002
}
  0
LINE
  5
2DEE
330
2933
100
AcDbEntity
  8
DETAIL
100
AcDbLine
 10
398.5978396421725
 20
367.9209872863057
 30
0.0
 11
614.3978396421789
 21
470.6828378566924
 31
0.0
1001
ACAD
1010
0.0
1020
0.0
1030
0.0
1001
ACADANNOTATIVE
1000
AnnotativeData
1002
{
1070
     1
1070
     1
1002
}
  0
LINE
  5
2DEF
330
2933
100
AcDbEntity
  8
DETAIL
100
AcDbLine
 10
239.5978396421725
 20
282.2067897558373
 30
0.0
 11
398.5978396421725
 21
357.9210355421728
 31
0.0
1001
ACAD
1010
0.0
1020
0.0
1030
0.0
1001
ACADANNOTATIVE
1000
AnnotativeData
1002
{
1070
     1
1070
     1
1002
}
  0
LINE
  5
2DF0
330
2933
100
AcDbEntity
  8
DETAIL
100
AcDbLine
 10
398.5978396421725
 20
357.9210355421728
 30
0.0
 11
614.3978396421752
 21
460.6828861125577
 31
0.0
1001
ACAD
1010
0.0
1020
0.0
1030
0.0
1001
ACADANNOTATIVE
1000
AnnotativeData
1002
{
1070
     1
1070
     1
1002
}
  0
LINE
  5
2DF1
330
2933
100
AcDbEntity
  8
DETAIL
100
AcDbLine
 10
239.5978396421761
 20
272.2068380117034
 30
0.0
 11
401.3560550441562
 21
349.2345190111028
 31
0.0
1001
ACAD
1010
0.0
1020
0.0
1030
0.0
1001
ACADANNOTATIVE
1000
AnnotativeData
1002
{
1070
     1
1070
     1
1002
}
  0
LINE
  5
2DF2
330
2933
100
AcDbEntity
  8
DETAIL
100
AcDbLine
 10
401.3560550441562
 20
349.2345190111028
 30
0.0
 11
614.3978396421789
 21
450.6829343684239
 31
0.0
1001
ACAD
1010
0.0
1020
0.0
1030
0.0
1001
ACADANNOTATIVE
1000
AnnotativeData
1002
{
1070
     1
1070
     1
1002
}
  0
LINE
  5
2DF3
330
2933
100
AcDbEntity
  8
DETAIL
100
AcDbLine
 10
239.5978396421761
 20
262.2068862675687
 30
0.0
 11
422.3559647811471
 21
349.2345190111036
 31
0.0
1001
ACAD
1010
0.0
1020
0.0
1030
0.0
1001
ACADANNOTATIVE
1000
AnnotativeData
1002
{
1070
     1
1070
     1
1002
}
  0
LINE
  5
2DF4
330
2933
100
AcDbEntity
  8
DETAIL
100
AcDbLine
 10
422.3559647811471
 20
349.2345190111036
 30
0.0
 11
614.3978396421752
 21
440.6829826242901
 31
0.0
1001
ACAD
1010
0.0
1020
0.0
1030
0.0
1001
ACADANNOTATIVE
1000
AnnotativeData
1002
{
1070
     1
1070
     1
1002
}
  0
LINE
  5
2DF5
330
2933
100
AcDbEntity
  8
DETAIL
100
AcDbLine
 10
239.5978396421761
 20
252.2069345234349
 30
0.0
 11
443.3558745181381
 21
349.2345190111036
 31
0.0
1001
ACAD
1010
0.0
1020
0.0
1030
0.0
1001
ACADANNOTATIVE
1000
AnnotativeData
1002
{
1070
     1
1070
     1
1002
}
  0
LINE
  5
2DF6
330
2933
100
AcDbEntity
  8
DETAIL
100
AcDbLine
 10
443.3558745181381
 20
349.2345190111036
 30
0.0
 11
614.3978396421716
 21
430.6830308801545
 31
0.0
1001
ACAD
1010
0.0
1020
0.0
1030
0.0
1001
ACADANNOTATIVE
1000
AnnotativeData
1002
{
1070
     1
1070
     1
1002
}
  0
LINE
  5
2DF7
330
2933
100
AcDbEntity
  8
DETAIL
100
AcDbLine
 10
239.5978396421761
 20
242.2069827792993
 30
0.0
 11
464.3557842551291
 21
349.2345190111018
 31
0.0
1001
ACAD
1010
0.0
1020
0.0
1030
0.0
1001
ACADANNOTATIVE
1000
AnnotativeData
1002
{
1070
     1
1070
     1
1002
}
  0
LINE
  5
2DF8
330
2933
100
AcDbEntity
  8
DETAIL
100
AcDbLine
 10
464.3557842551327
 20
349.2345190111036
 30
0.0
 11
614.3978396421789
 21
420.6830791360207
 31
0.0
1001
ACAD
1010
0.0
1020
0.0
1030
0.0
1001
ACADANNOTATIVE
1000
AnnotativeData
1002
{
1070
     1
1070
     1
1002
}
  0
LINE
  5
2DF9
330
2933
100
AcDbEntity
  8
DETAIL
100
AcDbLine
 10
239.5978396421761
 20
232.2070310351664
 30
0.0
 11
485.3556939921164
 21
349.2345190111028
 31
0.0
1001
ACAD
1010
0.0
1020
0.0
1030
0.0
1001
ACADANNOTATIVE
1000
AnnotativeData
1002
{
1070
     1
1070
     1
1002
}
  0
LINE
  5
2DFA
330
2933
100
AcDbEntity
  8
DETAIL
100
AcDbLine
 10
485.35569399212
 20
349.2345190111046
 30
0.0
 11
614.3978396421752
 21
410.683127391886
 31
0.0
1001
ACAD
1010
0.0
1020
0.0
1030
0.0
1001
ACADANNOTATIVE
1000
AnnotativeData
1002
{
1070
     1
1070
     1
1002
}
  0
LINE
  5
2DFB
330
2933
100
AcDbEntity
  8
DETAIL
100
AcDbLine
 10
243.8554652995827
 20
224.2345190111028
 30
0.0
 11
506.3556037291073
 21
349.2345190111028
 31
0.0
1001
ACAD
1010
0.0
1020
0.0
1030
0.0
1001
ACADANNOTATIVE
1000
AnnotativeData
1002
{
1070
     1
1070
     1
1002
}
  0
LINE
  5
2DFC
330
2933
100
AcDbEntity
  8
DETAIL
100
AcDbLine
 10
506.3556037291146
 20
349.2345190111036
 30
0.0
 11
614.3978396421752
 21
400.6831756477522
 31
0.0
1001
ACAD
1010
0.0
1020
0.0
1030
0.0
1001
ACADANNOTATIVE
1000
AnnotativeData
1002
{
1070
     1
1070
     1
1002
}
  0
LINE
  5
2DFD
330
2933
100
AcDbEntity
  8
DETAIL
100
AcDbLine
 10
264.8553750365773
 20
224.2345190111028
 30
0.0
 11
527.3555134661019
 21
349.2345190111028
 31
0.0
1001
ACAD
1010
0.0
1020
0.0
1030
0.0
1001
ACADANNOTATIVE
1000
AnnotativeData
1002
{
1070
     1
1070
     1
1002
}
  0
LINE
  5
2DFE
330
2933
100
AcDbEntity
  8
DETAIL
100
AcDbLine
 10
527.3555134661055
 20
349.2345190111036
 30
0.0
 11
614.3978396421752
 21
390.6832239036166
 31
0.0
1001
ACAD
1010
0.0
1020
0.0
1030
0.0
1001
ACADANNOTATIVE
1000
AnnotativeData
1002
{
1070
     1
1070
     1
1002
}
  0
LINE
  5
2DFF
330
2933
100
AcDbEntity
  8
DETAIL
100
AcDbLine
 10
285.8552847735682
 20
224.2345190111036
 30
0.0
 11
548.3554232030892
 21
349.2345190111036
 31
0.0
1001
ACAD
1010
0.0
1020
0.0
1030
0.0
1001
ACADANNOTATIVE
1000
AnnotativeData
1002
{
1070
     1
1070
     1
1002
}
  0
LINE
  5
2E00
330
2933
100
AcDbEntity
  8
DETAIL
100
AcDbLine
 10
548.3554232030928
 20
349.2345190111046
 30
0.0
 11
614.3978396421752
 21
380.6832721594838
 31
0.0
1001
ACAD
1010
0.0
1020
0.0
1030
0.0
1001
ACADANNOTATIVE
1000
AnnotativeData
1002
{
1070
     1
1070
     1
1002
}
  0
LINE
  5
2E01
330
2933
100
AcDbEntity
  8
DETAIL
100
AcDbLine
 10
306.8551945105592
 20
224.2345190111036
 30
0.0
 11
569.3553329400838
 21
349.2345190111028
 31
0.0
1001
ACAD
1010
0.0
1020
0.0
1030
0.0
1001
ACADANNOTATIVE
1000
AnnotativeData
1002
{
1070
     1
1070
     1
1002
}
  0
LINE
  5
2E02
330
2933
100
AcDbEntity
  8
DETAIL
100
AcDbLine
 10
569.3553329400838
 20
349.2345190111028
 30
0.0
 11
614.3978396421752
 21
370.6833204153481
 31
0.0
1001
ACAD
1010
0.0
1020
0.0
1030
0.0
1001
ACADANNOTATIVE
1000
AnnotativeData
1002
{
1070
     1
1070
     1
1002
}
  0
LINE
  5
2E03
330
2933
100
AcDbEntity
  8
DETAIL
100
AcDbLine
 10
327.8551042475466
 20
224.2345190111018
 30
0.0
 11
590.3552426770711
 21
349.2345190111018
 31
0.0
1001
ACAD
1010
0.0
1020
0.0
1030
0.0
1001
ACADANNOTATIVE
1000
AnnotativeData
1002
{
1070
     1
1070
     1
1002
}
  0
LINE
  5
2E04
330
2933
100
AcDbEntity
  8
DETAIL
100
AcDbLine
 10
590.3552426770747
 20
349.2345190111028
 30
0.0
 11
614.3978396421789
 21
360.6833686712143
 31
0.0
1001
ACAD
1010
0.0
1020
0.0
1030
0.0
1001
ACADANNOTATIVE
1000
AnnotativeData
1002
{
1070
     1
1070
     1
1002
}
  0
LINE
  5
2E05
330
2933
100
AcDbEntity
  8
DETAIL
100
AcDbLine
 10
348.8550139845338
 20
224.2345190111009
 30
0.0
 11
611.355152414062
 21
349.2345190111018
 31
0.0
1001
ACAD
1010
0.0
1020
0.0
1030
0.0
1001
ACADANNOTATIVE
1000
AnnotativeData
1002
{
1070
     1
1070
     1
1002
}
  0
LINE
  5
2E06
330
2933
100
AcDbEntity
  8
DETAIL
100
AcDbLine
 10
611.3551524140657
 20
349.2345190111036
 30
0.0
 11
614.3978396421752
 21
350.6834169270796
 31
0.0
1001
ACAD
1010
0.0
1020
0.0
1030
0.0
1001
ACADANNOTATIVE
1000
AnnotativeData
1002
{
1070
     1
1070
     1
1002
}
  0
LINE
  5
2E07
330
2933
100
AcDbEntity
  8
DETAIL
100
AcDbLine
 10
369.8549237215285
 20
224.2345190111009
 30
0.0
 11
614.3978396421752
 21
340.683465182944
 31
0.0
1001
ACAD
1010
0.0
1020
0.0
1030
0.0
1001
ACADANNOTATIVE
1000
AnnotativeData
1002
{
1070
     1
1070
     1
1002
}
  0
LINE
  5
2E08
330
2933
100
AcDbEntity
  8
DETAIL
100
AcDbLine
 10
390.8548334585194
 20
224.2345190111018
 30
0.0
 11
614.3978396421752
 21
330.6835134388111
 31
0.0
1001
ACAD
1010
0.0
1020
0.0
1030
0.0
1001
ACADANNOTATIVE
1000
AnnotativeData
1002
{
1070
     1
1070
     1
1002
}
  0
LINE
  5
2E09
330
2933
100
AcDbEntity
  8
DETAIL
100
AcDbLine
 10
411.8547431955067
 20
224.2345190111018
 30
0.0
 11
614.3978396421752
 21
320.6835616946755
 31
0.0
1001
ACAD
1010
0.0
1020
0.0
1030
0.0
1001
ACADANNOTATIVE
1000
AnnotativeData
1002
{
1070
     1
1070
     1
1002
}
  0
LINE
  5
2E0A
330
2933
100
AcDbEntity
  8
DETAIL
100
AcDbLine
 10
432.8546529325013
 20
224.2345190111018
 30
0.0
 11
614.3978396421789
 21
310.6836099505417
 31
0.0
1001
ACAD
1010
0.0
1020
0.0
1030
0.0
1001
ACADANNOTATIVE
1000
AnnotativeData
1002
{
1070
     1
1070
     1
1002
}
  0
LINE
  5
2E0B
330
2933
100
AcDbEntity
  8
DETAIL
100
AcDbLine
 10
453.8545626694922
 20
224.2345190111028
 30
0.0
 11
614.3978396421752
 21
300.683658206407
 31
0.0
1001
ACAD
1010
0.0
1020
0.0
1030
0.0
1001
ACADANNOTATIVE
1000
AnnotativeData
1002
{
1070
     1
1070
     1
1002
}
  0
LINE
  5
2E0C
330
2933
100
AcDbEntity
  8
DETAIL
100
AcDbLine
 10
474.8544724064796
 20
224.2345190111009
 30
0.0
 11
614.3978396421716
 21
290.6837064622714
 31
0.0
1001
ACAD
1010
0.0
1020
0.0
1030
0.0
1001
ACADANNOTATIVE
1000
AnnotativeData
1002
{
1070
     1
1070
     1
1002
}
  0
LINE
  5
2E0D
330
2933
100
AcDbEntity
  8
DETAIL
100
AcDbLine
 10
495.8543821434742
 20
224.2345190111018
 30
0.0
 11
614.3978396421752
 21
280.6837547181385
 31
0.0
1001
ACAD
1010
0.0
1020
0.0
1030
0.0
1001
ACADANNOTATIVE
1000
AnnotativeData
1002
{
1070
     1
1070
     1
1002
}
  0
LINE
  5
2E0E
330
2933
100
AcDbEntity
  8
DETAIL
100
AcDbLine
 10
516.8542918804651
 20
224.2345190111018
 30
0.0
 11
614.3978396421752
 21
270.6838029740029
 31
0.0
1001
ACAD
1010
0.0
1020
0.0
1030
0.0
1001
ACADANNOTATIVE
1000
AnnotativeData
1002
{
1070
     1
1070
     1
1002
}
  0
LINE
  5
2E0F
330
2933
100
AcDbEntity
  8
DETAIL
100
AcDbLine
 10
537.854201617456
 20
224.2345190111028
 30
0.0
 11
614.3978396421752
 21
260.6838512298691
 31
0.0
1001
ACAD
1010
0.0
1020
0.0
1030
0.0
1001
ACADANNOTATIVE
1000
AnnotativeData
1002
{
1070
     1
1070
     1
1002
}
  0
LINE
  5
2E10
330
2933
100
AcDbEntity
  8
DETAIL
100
AcDbLine
 10
558.854111354447
 20
224.2345190111028
 30
0.0
 11
614.3978396421752
 21
250.6838994857353
 31
0.0
1001
ACAD
1010
0.0
1020
0.0
1030
0.0
1001
ACADANNOTATIVE
1000
AnnotativeData
1002
{
1070
     1
1070
     1
1002
}
  0
LINE
  5
2E11
330
2933
100
AcDbEntity
  8
DETAIL
100
AcDbLine
 10
579.854021091438
 20
224.2345190111028
 30
0.0
 11
614.3978396421752
 21
240.6839477416006
 31
0.0
1001
ACAD
1010
0.0
1020
0.0
1030
0.0
1001
ACADANNOTATIVE
1000
AnnotativeData
1002
{
1070
     1
1070
     1
1002
}
  0
LINE
  5
2E12
330
2933
100
AcDbEntity
  8
DETAIL
100
AcDbLine
 10
600.8539308284253
 20
224.2345190111009
 30
0.0
 11
614.3978396421752
 21
230.6839959974659
 31
0.0
1001
ACAD
1010
0.0
1020
0.0
1030
0.0
1001
ACADANNOTATIVE
1000
AnnotativeData
1002
{
1070
     1
1070
     1
1002
}
  0
LINE
  5
2E13
330
2933
100
AcDbEntity
  8
DETAIL
100
AcDbLine
 10
239.5978396421761
 20
543.0345190111033
 30
0.0
 11
614.3978396421752
 21
543.0345190111033
 31
0.0
  0
LINE
  5
2E14
330
2933
100
AcDbEntity
  8
DETAIL
100
AcDbLine
 10
239.5978396421761
 20
224.2345190111032
 30
0.0
 11
614.3978396421752
 21
224.2345190111032
 31
0.0
  0
LINE
  5
2E15
330
2933
100
AcDbEntity
  8
DETAIL
100
AcDbLine
 10
239.5978396421761
 20
224.2345190111032
 30
0.0
 11
239.5978396421761
 21
543.0345190111033
 31
0.0
  0
LINE
  5
2E16
330
2933
100
AcDbEntity
  8
DETAIL
100
AcDbLine
 10
614.3978396421752
 20
224.2345190111032
 30
0.0
 11
614.3978396421752
 21
543.0345190111033
 31
0.0
  0
ENDSEC
  0
SECTION
  2
OBJECTS
  0
DICTIONARY
  5
28CB
330
0
100
AcDbDictionary
281
     1
  3
ACAD_COLOR
350
2929
  3
ACAD_GROUP
350
28CC
  3
ACAD_LAYOUT
350
2928
  3
ACAD_MATERIAL
350
28CF
  3
ACAD_MLEADERSTYLE
350
292C
  3
ACAD_MLINESTYLE
350
2925
  3
ACAD_PLOTSETTINGS
350
2927
  3
ACAD_PLOTSTYLENAME
350
28CD
  3
ACAD_SCALELIST
350
28F9
  3
ACAD_TABLESTYLE
350
292A
  3
ACAD_VISUALSTYLE
350
28E8
  3
ACDB_RECOMPOSE_DATA
350
2B26
  3
AcDbVariableDictionary
350
2B1D
  3
AcmDictionary
350
2AC9
  3
AMG
350
2A16
  3
AMGSNAPSETTINGS
350
2AF1
  0
DICTIONARY
  5
2C1A
330
28C1
100
AcDbDictionary
280
     1
281
     1
  3
ACAD_LAYERSTATES
360
2C1B
  0
DICTIONARY
  5
2AF8
330
291B
100
AcDbDictionary
280
     1
281
     1
  3
ADSK_XREC_LAYER_RECONCILED
360
2AF9
  0
DICTIONARY
  5
2AFA
330
294A
100
AcDbDictionary
280
     1
281
     1
  3
ADSK_XREC_LAYER_RECONCILED
360
2AFB
  0
DICTIONARY
  5
2AFC
330
294B
100
AcDbDictionary
280
     1
281
     1
  3
ADSK_XREC_LAYER_RECONCILED
360
2AFD
  0
DICTIONARY
  5
2AFE
330
294C
100
AcDbDictionary
280
     1
281
     1
  3
ADSK_XREC_LAYER_RECONCILED
360
2AFF
  0
DICTIONARY
  5
2B00
330
294D
100
AcDbDictionary
280
     1
281
     1
  3
ADSK_XREC_LAYER_RECONCILED
360
2B01
  0
DICTIONARY
  5
2B02
330
294E
100
AcDbDictionary
280
     1
281
     1
  3
ADSK_XREC_LAYER_RECONCILED
360
2B03
  0
DICTIONARY
  5
2B04
330
2950
100
AcDbDictionary
280
     1
281
     1
  3
ADSK_XREC_LAYER_RECONCILED
360
2B05
  0
DICTIONARY
  5
2B06
330
2951
100
AcDbDictionary
280
     1
281
     1
  3
ADSK_XREC_LAYER_RECONCILED
360
2B07
  0
DICTIONARY
  5
2B08
330
2952
100
AcDbDictionary
280
     1
281
     1
  3
ADSK_XREC_LAYER_RECONCILED
360
2B09
  0
DICTIONARY
  5
2B0A
330
2953
100
AcDbDictionary
280
     1
281
     1
  3
ADSK_XREC_LAYER_RECONCILED
360
2B0B
  0
DICTIONARY
  5
2B0C
330
2954
100
AcDbDictionary
280
     1
281
     1
  3
ADSK_XREC_LAYER_RECONCILED
360
2B0D
  0
DICTIONARY
  5
2B0E
330
2933
100
AcDbDictionary
280
     1
281
     1
  3
ACAD_INDEX
360
2B0F
  0
DICTIONARY
  5
2929
102
{ACAD_REACTORS
330
28CB
102
}
330
28CB
100
AcDbDictionary
281
     1
  0
DICTIONARY
  5
28CC
102
{ACAD_REACTORS
330
28CB
102
}
330
28CB
100
AcDbDictionary
281
     1
  0
DICTIONARY
  5
2928
102
{ACAD_REACTORS
330
28CB
102
}
330
28CB
100
AcDbDictionary
281
     1
  3
Model
350
2936
  3
レイアウト1
350
2932
  0
DICTIONARY
  5
28CF
102
{ACAD_REACTORS
330
28CB
102
}
330
28CB
100
AcDbDictionary
281
     1
  3
ByBlock
350
28D8
  3
ByLayer
350
28D0
  3
Global
350
28E0
  0
DICTIONARY
  5
292C
102
{ACAD_REACTORS
330
28CB
102
}
330
28CB
100
AcDbDictionary
281
     1
  3
Standard
350
292D
  0
DICTIONARY
  5
2925
102
{ACAD_REACTORS
330
28CB
102
}
330
28CB
100
AcDbDictionary
281
     1
  3
Standard
350
2926
  0
DICTIONARY
  5
2927
102
{ACAD_REACTORS
330
28CB
102
}
330
28CB
100
AcDbDictionary
281
     1
  0
ACDBDICTIONARYWDFLT
  5
28CD
102
{ACAD_REACTORS
330
28CB
102
}
330
28CB
100
AcDbDictionary
281
     1
  3
Normal
350
28CE
100
AcDbDictionaryWithDefault
340
28CE
  0
DICTIONARY
  5
28F9
102
{ACAD_REACTORS
330
28CB
102
}
330
28CB
100
AcDbDictionary
281
     1
  3
A0
350
28FA
  3
A1
350
28FB
  3
A2
350
28FC
  3
A3
350
28FD
  3
A4
350
28FE
  3
A5
350
28FF
  3
A6
350
2900
  3
A7
350
2901
  3
A8
350
2902
  3
A9
350
2903
  3
B0
350
2904
  3
B1
350
2905
  3
B2
350
2906
  3
B3
350
2907
  3
B4
350
2908
  3
B5
350
2909
  3
B6
350
290A
  3
B7
350
290B
  3
B8
350
290C
  3
B9
350
290D
  3
C0
350
290E
  3
C1
350
290F
  3
C2
350
2910
  3
C3
350
2911
  3
C4
350
2912
  3
C5
350
2913
  3
C6
350
2914
  3
C7
350
2915
  3
C8
350
2916
  3
C9
350
2917
  3
D0
350
2918
  3
D1
350
2919
  3
D2
350
291A
  0
DICTIONARY
  5
292A
102
{ACAD_REACTORS
330
28CB
102
}
330
28CB
100
AcDbDictionary
281
     1
  3
Standard
350
292B
  0
DICTIONARY
  5
28E8
102
{ACAD_REACTORS
330
28CB
102
}
330
28CB
100
AcDbDictionary
281
     1
  3
2dWireframe
350
28EE
  3
3D Hidden
350
28F0
  3
3dWireframe
350
28EF
  3
Basic
350
28ED
  3
Brighten
350
28F4
  3
ColorChange
350
28F8
  3
Conceptual
350
28F1
  3
Dim
350
28F3
  3
Facepattern
350
28F7
  3
Flat
350
28E9
  3
FlatWithEdges
350
28EA
  3
Gouraud
350
28EB
  3
GouraudWithEdges
350
28EC
  3
Linepattern
350
28F6
  3
Realistic
350
28F2
  3
Thicken
350
28F5
  0
XRECORD
  5
2B26
102
{ACAD_REACTORS
330
28CB
102
}
330
28CB
100
AcDbXrecord
280
     1
 90
        1
330
292B
  0
DICTIONARY
  5
2B1D
102
{ACAD_REACTORS
330
28CB
102
}
330
28CB
100
AcDbDictionary
281
     1
  3
CANNOSCALE
350
2B20
  3
CMLEADERSTYLE
350
2B1F
  3
CTABLESTYLE
350
2B1E
  3
DIMASSOC
350
2B23
  3
INDEXCTL
350
2B22
  3
LAYEREVAL
350
2E19
  3
LAYERNOTIFY
350
2E1A
  3
LIGHTINGUNITS
350
2E18
  3
MSLTSCALE
350
2E17
  3
SORTENTS
350
2B21
  0
DICTIONARY
  5
2AC9
102
{ACAD_REACTORS
330
28CB
102
}
330
28CB
100
AcDbDictionary
281
     1
  3
AcmStdDictionary
350
2AD7
  0
DICTIONARY
  5
2A16
102
{ACAD_REACTORS
330
28CB
102
}
330
28CB
100
AcDbDictionary
281
     1
  3
AcMgSettings
350
2A17
  3
AMGLAYCFG
350
2C0F
  0
DICTIONARY
  5
2AF1
102
{ACAD_REACTORS
330
28CB
102
}
330
28CB
100
AcDbDictionary
281
     1
  3
DIMENSION
350
2AF6
  3
FEA
350
2AF5
  3
HATCH (1)
350
2AF2
  3
HATCH (2)
350
2AF3
  3
SIMPLE WELD
350
2AF7
  3
SYMBOLS
350
2AF4
  0
DICTIONARY
  5
2C1B
102
{ACAD_REACTORS
330
2C1A
102
}
330
2C1A
100
AcDbDictionary
281
     1
  0
XRECORD
  5
2AF9
102
{ACAD_REACTORS
330
2AF8
102
}
330
2AF8
100
AcDbXrecord
280
     1
290
     1
  0
XRECORD
  5
2AFB
102
{ACAD_REACTORS
330
2AFA
102
}
330
2AFA
100
AcDbXrecord
280
     1
290
     1
  0
XRECORD
  5
2AFD
102
{ACAD_REACTORS
330
2AFC
102
}
330
2AFC
100
AcDbXrecord
280
     1
290
     1
  0
XRECORD
  5
2AFF
102
{ACAD_REACTORS
330
2AFE
102
}
330
2AFE
100
AcDbXrecord
280
     1
290
     1
  0
XRECORD
  5
2B01
102
{ACAD_REACTORS
330
2B00
102
}
330
2B00
100
AcDbXrecord
280
     1
290
     1
  0
XRECORD
  5
2B03
102
{ACAD_REACTORS
330
2B02
102
}
330
2B02
100
AcDbXrecord
280
     1
290
     1
  0
XRECORD
  5
2B05
102
{ACAD_REACTORS
330
2B04
102
}
330
2B04
100
AcDbXrecord
280
     1
290
     1
  0
XRECORD
  5
2B07
102
{ACAD_REACTORS
330
2B06
102
}
330
2B06
100
AcDbXrecord
280
     1
290
     1
  0
XRECORD
  5
2B09
102
{ACAD_REACTORS
330
2B08
102
}
330
2B08
100
AcDbXrecord
280
     1
290
     1
  0
XRECORD
  5
2B0B
102
{ACAD_REACTORS
330
2B0A
102
}
330
2B0A
100
AcDbXrecord
280
     1
290
     1
  0
XRECORD
  5
2B0D
102
{ACAD_REACTORS
330
2B0C
102
}
330
2B0C
100
AcDbXrecord
280
     1
290
     1
  0
DICTIONARY
  5
2B0F
102
{ACAD_REACTORS
330
2B0E
102
}
330
2B0E
100
AcDbDictionary
281
     1
  3
*A1
350
2B10
  0
LAYOUT
  5
2936
102
{ACAD_REACTORS
330
2928
102
}
330
2928
100
AcDbPlotSettings
  1

  2
自動 EPSON LP-9600S (W2450527 上)
  4

  6

 40
0.0
 41
0.0
 42
0.0
 43
0.0
 44
0.0
 45
0.0
 46
0.0
 47
0.0
 48
0.0
 49
0.0
140
0.0
141
0.0
142
1.0
143
1.0
 70
  1712
 72
     0
 73
     0
 74
     0
  7

 75
     0
147
1.0
 76
     0
 77
     2
 78
   300
148
0.0
149
0.0
100
AcDbLayout
  1
Model
 70
     1
 71
     0
 10
0.0
 20
0.0
 11
12.0
 21
9.0
 12
0.0
 22
0.0
 32
0.0
 14
0.0
 24
0.0
 34
0.0
 15
0.0
 25
0.0
 35
0.0
146
0.0
 13
0.0
 23
0.0
 33
0.0
 16
1.0
 26
0.0
 36
0.0
 17
0.0
 27
1.0
 37
0.0
 76
     0
330
2933
331
2937
  0
LAYOUT
  5
2932
102
{ACAD_REACTORS
330
2928
102
}
330
2928
100
AcDbPlotSettings
  1

  2
自動 EPSON LP-9600S (W2450527 上)
  4

  6

 40
0.0
 41
0.0
 42
0.0
 43
0.0
 44
0.0
 45
0.0
 46
0.0
 47
0.0
 48
0.0
 49
0.0
140
0.0
141
0.0
142
1.0
143
1.0
 70
   688
 72
     0
 73
     0
 74
     5
  7

 75
    16
147
1.0
 76
     0
 77
     2
 78
   300
148
0.0
149
0.0
100
AcDbLayout
  1
レイアウト1
 70
     1
 71
     1
 10
0.0
 20
0.0
 11
12.0
 21
9.0
 12
0.0
 22
0.0
 32
0.0
 14
1.000000000000000E+20
 24
1.000000000000000E+20
 34
1.000000000000000E+20
 15
-1.000000000000000E+20
 25
-1.000000000000000E+20
 35
-1.000000000000000E+20
146
0.0
 13
0.0
 23
0.0
 33
0.0
 16
1.0
 26
0.0
 36
0.0
 17
0.0
 27
1.0
 37
0.0
 76
     0
330
292F
  0
MATERIAL
  5
28D8
102
{ACAD_XDICTIONARY
360
28D9
102
}
102
{ACAD_REACTORS
330
28CF
102
}
330
28CF
100
AcDbMaterial
  1
ByBlock
 72
     0
 43
0.0208333333333333
 43
0.0
 43
0.0
 43
0.0
 43
0.0
 43
0.0208333333333333
 43
0.0
 43
0.0
 43
0.0
 43
0.0
 43
1.0
 43
0.0
 43
0.0
 43
0.0
 43
0.0
 43
1.0
 77
     0
 47
0.0208333333333333
 47
0.0
 47
0.0
 47
0.0
 47
0.0
 47
0.0208333333333333
 47
0.0
 47
0.0
 47
0.0
 47
0.0
 47
1.0
 47
0.0
 47
0.0
 47
0.0
 47
0.0
 47
1.0
171
     0
 49
0.0208333333333333
 49
0.0
 49
0.0
 49
0.0
 49
0.0
 49
0.0208333333333333
 49
0.0
 49
0.0
 49
0.0
 49
0.0
 49
1.0
 49
0.0
 49
0.0
 49
0.0
 49
0.0
 49
1.0
175
     0
142
0.0208333333333333
142
0.0
142
0.0
142
0.0
142
0.0
142
0.0208333333333333
142
0.0
142
0.0
142
0.0
142
0.0
142
1.0
142
0.0
142
0.0
142
0.0
142
0.0
142
1.0
179
     0
144
0.0208333333333333
144
0.0
144
0.0
144
0.0
144
0.0
144
0.0208333333333333
144
0.0
144
0.0
144
0.0
144
0.0
144
1.0
144
0.0
144
0.0
144
0.0
144
0.0
144
1.0
147
0.0208333333333333
147
0.0
147
0.0
147
0.0
147
0.0
147
0.0208333333333333
147
0.0
147
0.0
147
0.0
147
0.0
147
1.0
147
0.0
147
0.0
147
0.0
147
0.0
147
1.0
  0
MATERIAL
  5
28D0
102
{ACAD_XDICTIONARY
360
28D1
102
}
102
{ACAD_REACTORS
330
28CF
102
}
330
28CF
100
AcDbMaterial
  1
ByLayer
 72
     0
 43
0.0208333333333333
 43
0.0
 43
0.0
 43
0.0
 43
0.0
 43
0.0208333333333333
 43
0.0
 43
0.0
 43
0.0
 43
0.0
 43
1.0
 43
0.0
 43
0.0
 43
0.0
 43
0.0
 43
1.0
 77
     0
 47
0.0208333333333333
 47
0.0
 47
0.0
 47
0.0
 47
0.0
 47
0.0208333333333333
 47
0.0
 47
0.0
 47
0.0
 47
0.0
 47
1.0
 47
0.0
 47
0.0
 47
0.0
 47
0.0
 47
1.0
171
     0
 49
0.0208333333333333
 49
0.0
 49
0.0
 49
0.0
 49
0.0
 49
0.0208333333333333
 49
0.0
 49
0.0
 49
0.0
 49
0.0
 49
1.0
 49
0.0
 49
0.0
 49
0.0
 49
0.0
 49
1.0
175
     0
142
0.0208333333333333
142
0.0
142
0.0
142
0.0
142
0.0
142
0.0208333333333333
142
0.0
142
0.0
142
0.0
142
0.0
142
1.0
142
0.0
142
0.0
142
0.0
142
0.0
142
1.0
179
     0
144
0.0208333333333333
144
0.0
144
0.0
144
0.0
144
0.0
144
0.0208333333333333
144
0.0
144
0.0
144
0.0
144
0.0
144
1.0
144
0.0
144
0.0
144
0.0
144
0.0
144
1.0
147
0.0208333333333333
147
0.0
147
0.0
147
0.0
147
0.0
147
0.0208333333333333
147
0.0
147
0.0
147
0.0
147
0.0
147
1.0
147
0.0
147
0.0
147
0.0
147
0.0
147
1.0
  0
MATERIAL
  5
28E0
102
{ACAD_XDICTIONARY
360
28E1
102
}
102
{ACAD_REACTORS
330
28CF
102
}
330
28CF
100
AcDbMaterial
  1
Global
 72
     0
 43
0.0208333333333333
 43
0.0
 43
0.0
 43
0.0
 43
0.0
 43
0.0208333333333333
 43
0.0
 43
0.0
 43
0.0
 43
0.0
 43
1.0
 43
0.0
 43
0.0
 43
0.0
 43
0.0
 43
1.0
 77
     0
 47
0.0208333333333333
 47
0.0
 47
0.0
 47
0.0
 47
0.0
 47
0.0208333333333333
 47
0.0
 47
0.0
 47
0.0
 47
0.0
 47
1.0
 47
0.0
 47
0.0
 47
0.0
 47
0.0
 47
1.0
171
     0
 49
0.0208333333333333
 49
0.0
 49
0.0
 49
0.0
 49
0.0
 49
0.0208333333333333
 49
0.0
 49
0.0
 49
0.0
 49
0.0
 49
1.0
 49
0.0
 49
0.0
 49
0.0
 49
0.0
 49
1.0
175
     0
142
0.0208333333333333
142
0.0
142
0.0
142
0.0
142
0.0
142
0.0208333333333333
142
0.0
142
0.0
142
0.0
142
0.0
142
1.0
142
0.0
142
0.0
142
0.0
142
0.0
142
1.0
179
     0
144
0.0208333333333333
144
0.0
144
0.0
144
0.0
144
0.0
144
0.0208333333333333
144
0.0
144
0.0
144
0.0
144
0.0
144
1.0
144
0.0
144
0.0
144
0.0
144
0.0
144
1.0
147
0.0208333333333333
147
0.0
147
0.0
147
0.0
147
0.0
147
0.0208333333333333
147
0.0
147
0.0
147
0.0
147
0.0
147
1.0
147
0.0
147
0.0
147
0.0
147
0.0
147
1.0
  0
MLEADERSTYLE
  5
292D
102
{ACAD_REACTORS
330
292C
102
}
330
292C
100
AcDbMLeaderStyle
170
     2
171
     1
172
     0
 90
        2
 40
0.0
 41
0.0
173
     1
 91
-1056964608
340
2921
 92
       -2
290
     1
 42
0.09
291
     1
 43
0.36
  3
Standard
 44
0.18
300

342
291C
174
     1
178
     6
175
     1
176
     0
 93
-1056964608
 45
0.18
292
     0
297
     0
 46
0.18
 94
-1056964608
 47
1.0
 49
1.0
140
1.0
293
     1
141
0.0
294
     1
177
     0
142
1.0
295
     0
296
     0
143
0.125
1001
ACAD_MLEADERVER
1070
     2
  0
MLINESTYLE
  5
2926
102
{ACAD_REACTORS
330
2925
102
}
330
2925
100
AcDbMlineStyle
  2
STANDARD
 70
     0
  3

 62
   256
 51
90.0
 52
90.0
 71
     2
 49
0.5
 62
   256
  6
BYLAYER
 49
-0.5
 62
   256
  6
BYLAYER
  0
ACDBPLACEHOLDER
  5
28CE
102
{ACAD_REACTORS
330
28CD
102
}
330
28CD
  0
SCALE
  5
28FA
102
{ACAD_REACTORS
330
28F9
102
}
330
28F9
100
AcDbScale
 70
     0
300
1:1
140
1.0
141
1.0
290
     1
  0
SCALE
  5
28FB
102
{ACAD_REACTORS
330
28F9
102
}
330
28F9
100
AcDbScale
 70
     0
300
1:2
140
1.0
141
2.0
290
     0
  0
SCALE
  5
28FC
102
{ACAD_REACTORS
330
28F9
102
}
330
28F9
100
AcDbScale
 70
     0
300
1:4
140
1.0
141
4.0
290
     0
  0
SCALE
  5
28FD
102
{ACAD_REACTORS
330
28F9
102
}
330
28F9
100
AcDbScale
 70
     0
300
1:5
140
1.0
141
5.0
290
     0
  0
SCALE
  5
28FE
102
{ACAD_REACTORS
330
28F9
102
}
330
28F9
100
AcDbScale
 70
     0
300
1:8
140
1.0
141
8.0
290
     0
  0
SCALE
  5
28FF
102
{ACAD_REACTORS
330
28F9
102
}
330
28F9
100
AcDbScale
 70
     0
300
1:10
140
1.0
141
10.0
290
     0
  0
SCALE
  5
2900
102
{ACAD_REACTORS
330
28F9
102
}
330
28F9
100
AcDbScale
 70
     0
300
1:16
140
1.0
141
16.0
290
     0
  0
SCALE
  5
2901
102
{ACAD_REACTORS
330
28F9
102
}
330
28F9
100
AcDbScale
 70
     0
300
1:20
140
1.0
141
20.0
290
     0
  0
SCALE
  5
2902
102
{ACAD_REACTORS
330
28F9
102
}
330
28F9
100
AcDbScale
 70
     0
300
1:30
140
1.0
141
30.0
290
     0
  0
SCALE
  5
2903
102
{ACAD_REACTORS
330
28F9
102
}
330
28F9
100
AcDbScale
 70
     0
300
1:40
140
1.0
141
40.0
290
     0
  0
SCALE
  5
2904
102
{ACAD_REACTORS
330
28F9
102
}
330
28F9
100
AcDbScale
 70
     0
300
1:50
140
1.0
141
50.0
290
     0
  0
SCALE
  5
2905
102
{ACAD_REACTORS
330
28F9
102
}
330
28F9
100
AcDbScale
 70
     0
300
1:100
140
1.0
141
100.0
290
     0
  0
SCALE
  5
2906
102
{ACAD_REACTORS
330
28F9
102
}
330
28F9
100
AcDbScale
 70
     0
300
2:1
140
2.0
141
1.0
290
     0
  0
SCALE
  5
2907
102
{ACAD_REACTORS
330
28F9
102
}
330
28F9
100
AcDbScale
 70
     0
300
4:1
140
4.0
141
1.0
290
     0
  0
SCALE
  5
2908
102
{ACAD_REACTORS
330
28F9
102
}
330
28F9
100
AcDbScale
 70
     0
300
8:1
140
8.0
141
1.0
290
     0
  0
SCALE
  5
2909
102
{ACAD_REACTORS
330
28F9
102
}
330
28F9
100
AcDbScale
 70
     0
300
10:1
140
10.0
141
1.0
290
     0
  0
SCALE
  5
290A
102
{ACAD_REACTORS
330
28F9
102
}
330
28F9
100
AcDbScale
 70
     0
300
100:1
140
100.0
141
1.0
290
     0
  0
SCALE
  5
290B
102
{ACAD_REACTORS
330
28F9
102
}
330
28F9
100
AcDbScale
 70
     0
300
1/128" = 1'-0"
140
0.0078125
141
12.0
290
     0
  0
SCALE
  5
290C
102
{ACAD_REACTORS
330
28F9
102
}
330
28F9
100
AcDbScale
 70
     0
300
1/64" = 1'-0"
140
0.015625
141
12.0
290
     0
  0
SCALE
  5
290D
102
{ACAD_REACTORS
330
28F9
102
}
330
28F9
100
AcDbScale
 70
     0
300
1/32" = 1'-0"
140
0.03125
141
12.0
290
     0
  0
SCALE
  5
290E
102
{ACAD_REACTORS
330
28F9
102
}
330
28F9
100
AcDbScale
 70
     0
300
1/16" = 1'-0"
140
0.0625
141
12.0
290
     0
  0
SCALE
  5
290F
102
{ACAD_REACTORS
330
28F9
102
}
330
28F9
100
AcDbScale
 70
     0
300
3/32" = 1'-0"
140
0.09375
141
12.0
290
     0
  0
SCALE
  5
2910
102
{ACAD_REACTORS
330
28F9
102
}
330
28F9
100
AcDbScale
 70
     0
300
1/8" = 1'-0"
140
0.125
141
12.0
290
     0
  0
SCALE
  5
2911
102
{ACAD_REACTORS
330
28F9
102
}
330
28F9
100
AcDbScale
 70
     0
300
3/16" = 1'-0"
140
0.1875
141
12.0
290
     0
  0
SCALE
  5
2912
102
{ACAD_REACTORS
330
28F9
102
}
330
28F9
100
AcDbScale
 70
     0
300
1/4" = 1'-0"
140
0.25
141
12.0
290
     0
  0
SCALE
  5
2913
102
{ACAD_REACTORS
330
28F9
102
}
330
28F9
100
AcDbScale
 70
     0
300
3/8" = 1'-0"
140
0.375
141
12.0
290
     0
  0
SCALE
  5
2914
102
{ACAD_REACTORS
330
28F9
102
}
330
28F9
100
AcDbScale
 70
     0
300
1/2" = 1'-0"
140
0.5
141
12.0
290
     0
  0
SCALE
  5
2915
102
{ACAD_REACTORS
330
28F9
102
}
330
28F9
100
AcDbScale
 70
     0
300
3/4" = 1'-0"
140
0.75
141
12.0
290
     0
  0
SCALE
  5
2916
102
{ACAD_REACTORS
330
28F9
102
}
330
28F9
100
AcDbScale
 70
     0
300
1" = 1'-0"
140
1.0
141
12.0
290
     0
  0
SCALE
  5
2917
102
{ACAD_REACTORS
330
28F9
102
}
330
28F9
100
AcDbScale
 70
     0
300
1-1/2" = 1'-0"
140
1.5
141
12.0
290
     0
  0
SCALE
  5
2918
102
{ACAD_REACTORS
330
28F9
102
}
330
28F9
100
AcDbScale
 70
     0
300
3" = 1'-0"
140
3.0
141
12.0
290
     0
  0
SCALE
  5
2919
102
{ACAD_REACTORS
330
28F9
102
}
330
28F9
100
AcDbScale
 70
     0
300
6" = 1'-0"
140
6.0
141
12.0
290
     0
  0
SCALE
  5
291A
102
{ACAD_REACTORS
330
28F9
102
}
330
28F9
100
AcDbScale
 70
     0
300
1'-0" = 1'-0"
140
12.0
141
12.0
290
     0
  0
TABLESTYLE
  5
292B
102
{ACAD_XDICTIONARY
360
2B24
102
}
102
{ACAD_REACTORS
330
292A
102
}
330
292A
100
AcDbTableStyle
  3
Standard
 70
     0
 71
     0
 40
0.06
 41
0.06
280
     0
281
     0
  7
STANDARD
140
0.18
170
     2
 62
     0
 63
     7
283
     0
 90
      512
 91
        0
  1

274
    -2
284
     1
 64
     0
275
    -2
285
     1
 65
     0
276
    -2
286
     1
 66
     0
277
    -2
287
     1
 67
     0
278
    -2
288
     1
 68
     0
279
    -2
289
     1
 69
     0
  7
STANDARD
140
0.25
170
     5
 62
     0
 63
     7
283
     0
 90
      512
 91
        0
  1

274
    -2
284
     1
 64
     0
275
    -2
285
     1
 65
     0
276
    -2
286
     1
 66
     0
277
    -2
287
     1
 67
     0
278
    -2
288
     1
 68
     0
279
    -2
289
     1
 69
     0
  7
STANDARD
140
0.18
170
     5
 62
     0
 63
     7
283
     0
 90
      512
 91
        0
  1

274
    -2
284
     1
 64
     0
275
    -2
285
     1
 65
     0
276
    -2
286
     1
 66
     0
277
    -2
287
     1
 67
     0
278
    -2
288
     1
 68
     0
279
    -2
289
     1
 69
     0
  0
VISUALSTYLE
  5
28EE
102
{ACAD_REACTORS
330
28E8
102
}
330
28E8
100
AcDbVisualStyle
  2
2dWireframe
 70
     4
 71
     0
 72
     2
 73
     0
 90
        0
 40
-0.6
 41
-30.0
 62
     5
 63
     7
 74
     1
 91
        4
 64
     7
 65
   257
 75
     1
175
     1
 42
1.0
 92
        0
 66
   257
 43
1.0
 76
     1
 77
     6
 78
     2
 67
     7
 79
     5
170
     0
171
     0
290
     0
174
     0
 93
        1
 44
0.0
173
     0
291
     0
 45
0.0
1001
ACAD
1000
AcDbSavedByObjectVersion
1070
     0
  0
VISUALSTYLE
  5
28F0
102
{ACAD_REACTORS
330
28E8
102
}
330
28E8
100
AcDbVisualStyle
  2
3D Hidden
 70
     6
 71
     1
 72
     2
 73
     2
 90
        0
 40
-0.6
 41
-30.0
 62
     5
 63
     7
 74
     2
 91
        2
 64
     7
 65
   257
 75
     2
175
     1
 42
40.0
 92
        0
 66
   257
 43
1.0
 76
     1
 77
     6
 78
     2
 67
     7
 79
     3
170
     0
171
     0
290
     0
174
     0
 93
        1
 44
0.0
173
     0
291
     0
 45
0.0
1001
ACAD
1000
AcDbSavedByObjectVersion
1070
     0
  0
VISUALSTYLE
  5
28EF
102
{ACAD_REACTORS
330
28E8
102
}
330
28E8
100
AcDbVisualStyle
  2
3dWireframe
 70
     5
 71
     0
 72
     2
 73
     0
 90
        0
 40
-0.6
 41
-30.0
 62
     5
 63
     7
 74
     1
 91
        4
 64
     7
 65
   257
 75
     1
175
     1
 42
1.0
 92
        0
 66
   257
 43
1.0
 76
     1
 77
     6
 78
     2
 67
     7
 79
     5
170
     0
171
     0
290
     0
174
     0
 93
        1
 44
0.0
173
     0
291
     0
 45
0.0
1001
ACAD
1000
AcDbSavedByObjectVersion
1070
     0
  0
VISUALSTYLE
  5
28ED
102
{ACAD_REACTORS
330
28E8
102
}
330
28E8
100
AcDbVisualStyle
  2
Basic
 70
     7
 71
     1
 72
     0
 73
     1
 90
        0
 40
-0.6
 41
-30.0
 62
     5
 63
     7
 74
     0
 91
        4
 64
     7
 65
   257
 75
     1
175
     1
 42
1.0
 92
        8
 66
     7
 43
1.0
 76
     1
 77
     6
 78
     2
 67
     7
 79
     5
170
     0
171
     0
290
     0
174
     0
 93
        1
 44
0.0
173
     0
291
     1
 45
0.0
1001
ACAD
1000
AcDbSavedByObjectVersion
1070
     0
  0
VISUALSTYLE
  5
28F4
102
{ACAD_REACTORS
330
28E8
102
}
330
28E8
100
AcDbVisualStyle
  2
Brighten
 70
    12
 71
     2
 72
     2
 73
     0
 90
        0
 40
-0.6
 41
-30.0
 62
     5
 63
     7
 74
     1
 91
        4
 64
     7
 65
   257
 75
     1
175
     1
 42
1.0
 92
        8
 66
     7
 43
1.0
 76
     1
 77
     6
 78
     2
 67
     7
 79
     5
170
     0
171
     0
290
     0
174
     0
 93
        1
 44
50.0
173
     0
291
     1
 45
0.0
1001
ACAD
1000
AcDbSavedByObjectVersion
1070
     0
  0
VISUALSTYLE
  5
28F8
102
{ACAD_REACTORS
330
28E8
102
}
330
28E8
100
AcDbVisualStyle
  2
ColorChange
 70
    16
 71
     2
 72
     2
 73
     3
 90
        0
 40
-0.6
 41
-30.0
 62
     5
 63
     8
 74
     1
 91
        4
 64
     7
 65
   257
 75
     1
175
     1
 42
1.0
 92
        8
 66
     8
 43
1.0
 76
     1
 77
     6
 78
     2
 67
     7
 79
     5
170
     0
171
     0
290
     0
174
     0
 93
        1
 44
0.0
173
     0
291
     1
 45
0.0
1001
ACAD
1000
AcDbSavedByObjectVersion
1070
     0
  0
VISUALSTYLE
  5
28F1
102
{ACAD_REACTORS
330
28E8
102
}
330
28E8
100
AcDbVisualStyle
  2
Conceptual
 70
     9
 71
     3
 72
     2
 73
     0
 90
        0
 40
-0.6
 41
-30.0
 62
     5
 63
     7
 74
     2
 91
        2
 64
     7
 65
   257
 75
     1
175
     1
 42
40.0
 92
        8
 66
     7
 43
1.0
 76
     1
 77
     6
 78
     2
 67
     7
 79
     3
170
     0
171
     0
290
     0
174
     0
 93
        1
 44
0.0
173
     0
291
     0
 45
0.0
1001
ACAD
1000
AcDbSavedByObjectVersion
1070
     0
  0
VISUALSTYLE
  5
28F3
102
{ACAD_REACTORS
330
28E8
102
}
330
28E8
100
AcDbVisualStyle
  2
Dim
 70
    11
 71
     2
 72
     2
 73
     0
 90
        0
 40
-0.6
 41
-30.0
 62
     5
 63
     7
 74
     1
 91
        4
 64
     7
 65
   257
 75
     1
175
     1
 42
1.0
 92
        8
 66
     7
 43
1.0
 76
     1
 77
     6
 78
     2
 67
     7
 79
     5
170
     0
171
     0
290
     0
174
     0
 93
        1
 44
-50.0
173
     0
291
     1
 45
0.0
1001
ACAD
1000
AcDbSavedByObjectVersion
1070
     0
  0
VISUALSTYLE
  5
28F7
102
{ACAD_REACTORS
330
28E8
102
}
330
28E8
100
AcDbVisualStyle
  2
Facepattern
 70
    15
 71
     2
 72
     2
 73
     0
 90
        0
 40
-0.6
 41
-30.0
 62
     5
 63
     7
 74
     1
 91
        4
 64
     7
 65
   257
 75
     1
175
     1
 42
1.0
 92
        8
 66
     7
 43
1.0
 76
     1
 77
     6
 78
     2
 67
     7
 79
     5
170
     0
171
     0
290
     0
174
     0
 93
        1
 44
0.0
173
     0
291
     1
 45
0.0
1001
ACAD
1000
AcDbSavedByObjectVersion
1070
     0
  0
VISUALSTYLE
  5
28E9
102
{ACAD_REACTORS
330
28E8
102
}
330
28E8
100
AcDbVisualStyle
  2
Flat
 70
     0
 71
     2
 72
     1
 73
     1
 90
        2
 40
-0.6
 41
30.0
 62
     5
 63
     7
 74
     0
 91
        4
 64
     7
 65
   257
 75
     1
175
     1
 42
1.0
 92
        8
 66
     7
 43
1.0
 76
     1
 77
     6
 78
     2
 67
     7
 79
     5
170
     0
171
     0
290
     0
174
     0
 93
       13
 44
0.0
173
     0
291
     1
 45
0.0
1001
ACAD
1000
AcDbSavedByObjectVersion
1070
     0
  0
VISUALSTYLE
  5
28EA
102
{ACAD_REACTORS
330
28E8
102
}
330
28E8
100
AcDbVisualStyle
  2
FlatWithEdges
 70
     1
 71
     2
 72
     1
 73
     1
 90
        2
 40
-0.6
 41
30.0
 62
     5
 63
     7
 74
     1
 91
        4
 64
     7
 65
   257
 75
     1
175
     1
 42
1.0
 92
        0
 66
   257
 43
1.0
 76
     1
 77
     6
 78
     2
 67
     7
 79
     5
170
     0
171
     0
290
     0
174
     0
 93
       13
 44
0.0
173
     0
291
     1
 45
0.0
1001
ACAD
1000
AcDbSavedByObjectVersion
1070
     0
  0
VISUALSTYLE
  5
28EB
102
{ACAD_REACTORS
330
28E8
102
}
330
28E8
100
AcDbVisualStyle
  2
Gouraud
 70
     2
 71
     2
 72
     2
 73
     1
 90
        2
 40
-0.6
 41
30.0
 62
     5
 63
     7
 74
     0
 91
        4
 64
     7
 65
   257
 75
     1
175
     1
 42
1.0
 92
        0
 66
     7
 43
1.0
 76
     1
 77
     6
 78
     2
 67
     7
 79
     5
170
     0
171
     0
290
     0
174
     0
 93
       13
 44
0.0
173
     0
291
     1
 45
0.0
1001
ACAD
1000
AcDbSavedByObjectVersion
1070
     0
  0
VISUALSTYLE
  5
28EC
102
{ACAD_REACTORS
330
28E8
102
}
330
28E8
100
AcDbVisualStyle
  2
GouraudWithEdges
 70
     3
 71
     2
 72
     2
 73
     1
 90
        2
 40
-0.6
 41
30.0
 62
     5
 63
     7
 74
     1
 91
        4
 64
     7
 65
   257
 75
     1
175
     1
 42
1.0
 92
        0
 66
   257
 43
1.0
 76
     1
 77
     6
 78
     2
 67
     7
 79
     5
170
     0
171
     0
290
     0
174
     0
 93
       13
 44
0.0
173
     0
291
     1
 45
0.0
1001
ACAD
1000
AcDbSavedByObjectVersion
1070
     0
  0
VISUALSTYLE
  5
28F6
102
{ACAD_REACTORS
330
28E8
102
}
330
28E8
100
AcDbVisualStyle
  2
Linepattern
 70
    14
 71
     2
 72
     2
 73
     0
 90
        0
 40
-0.6
 41
-30.0
 62
     5
 63
     7
 74
     1
 91
        4
 64
     7
 65
   257
 75
     7
175
     7
 42
1.0
 92
        8
 66
     7
 43
1.0
 76
     1
 77
     6
 78
     2
 67
     7
 79
     5
170
     0
171
     0
290
     0
174
     0
 93
        1
 44
0.0
173
     0
291
     1
 45
0.0
1001
ACAD
1000
AcDbSavedByObjectVersion
1070
     0
  0
VISUALSTYLE
  5
28F2
102
{ACAD_REACTORS
330
28E8
102
}
330
28E8
100
AcDbVisualStyle
  2
Realistic
 70
     8
 71
     2
 72
     2
 73
     0
 90
        0
 40
-0.6
 41
-30.0
 62
     5
 63
     7
 74
     1
 91
        0
 64
     7
 65
   257
 75
     1
175
     1
 42
1.0
 92
        8
 66
     8
 43
1.0
 76
     1
 77
     6
 78
     2
 67
     7
 79
     5
170
     0
171
     0
290
     0
174
     0
 93
       13
 44
0.0
173
     0
291
     0
 45
0.0
1001
ACAD
1000
AcDbSavedByObjectVersion
1070
     0
  0
VISUALSTYLE
  5
28F5
102
{ACAD_REACTORS
330
28E8
102
}
330
28E8
100
AcDbVisualStyle
  2
Thicken
 70
    13
 71
     2
 72
     2
 73
     0
 90
        0
 40
-0.6
 41
-30.0
 62
     5
 63
     7
 74
     1
 91
        4
 64
     7
 65
   257
 75
     1
175
     1
 42
1.0
 92
       12
 66
     7
 43
1.0
 76
     1
 77
     6
 78
     2
 67
     7
 79
     5
170
     0
171
     0
290
     0
174
     0
 93
        1
 44
0.0
173
     0
291
     1
 45
0.0
1001
ACAD
1000
AcDbSavedByObjectVersion
1070
     0
  0
DICTIONARYVAR
  5
2B20
102
{ACAD_REACTORS
330
2B1D
102
}
330
2B1D
100
DictionaryVariables
280
     0
  1
1:1
  0
DICTIONARYVAR
  5
2B1F
102
{ACAD_REACTORS
330
2B1D
102
}
330
2B1D
100
DictionaryVariables
280
     0
  1
STANDARD
  0
DICTIONARYVAR
  5
2B1E
102
{ACAD_REACTORS
330
2B1D
102
}
330
2B1D
100
DictionaryVariables
280
     0
  1
STANDARD
  0
DICTIONARYVAR
  5
2B23
102
{ACAD_REACTORS
330
2B1D
102
}
330
2B1D
100
DictionaryVariables
280
     0
  1
1
  0
DICTIONARYVAR
  5
2B22
102
{ACAD_REACTORS
330
2B1D
102
}
330
2B1D
100
DictionaryVariables
280
     0
  1
1
  0
DICTIONARYVAR
  5
2E19
102
{ACAD_REACTORS
330
2B1D
102
}
330
2B1D
100
DictionaryVariables
280
     0
  1
1
  0
DICTIONARYVAR
  5
2E1A
102
{ACAD_REACTORS
330
2B1D
102
}
330
2B1D
100
DictionaryVariables
280
     0
  1
15
  0
DICTIONARYVAR
  5
2E18
102
{ACAD_REACTORS
330
2B1D
102
}
330
2B1D
100
DictionaryVariables
280
     0
  1
0
  0
DICTIONARYVAR
  5
2E17
102
{ACAD_REACTORS
330
2B1D
102
}
330
2B1D
100
DictionaryVariables
280
     0
  1
0
  0
DICTIONARYVAR
  5
2B21
102
{ACAD_REACTORS
330
2B1D
102
}
330
2B1D
100
DictionaryVariables
280
     0
  1
127
  0
DICTIONARY
  5
2AD7
102
{ACAD_REACTORS
330
2AC9
102
}
330
2AC9
100
AcDbDictionary
281
     1
  0
DICTIONARY
  5
2A17
102
{ACAD_REACTORS
330
2A16
102
}
330
2A16
100
AcDbDictionary
281
     1
  3
DWGSETTINGS
350
2B42
  3
TRANSSETTINGS
350
2B43
  0
ACAMGFILTERDAT
  5
2AF6
102
{ACAD_REACTORS
330
2AF1
102
}
330
2AF1
100
AcAmgFilterDat
 70
    15
  1
DIMENSION,AMDT_*_DIM
  2
*
  3
*
  4
*
  5
*
290
     1
  0
ACAMGFILTERDAT
  5
2AF5
102
{ACAD_REACTORS
330
2AF1
102
}
330
2AF1
100
AcAmgFilterDat
 70
    15
  1
*
  2
AM_FEA-AM_*
  3
*
  4
*
  5
*
290
     1
  0
ACAMGFILTERDAT
  5
2AF2
102
{ACAD_REACTORS
330
2AF1
102
}
330
2AF1
100
AcAmgFilterDat
 70
    15
  1
HATCH
  2
*
  3
*
  4
*
  5
*
290
     1
  0
ACAMGFILTERDAT
  5
2AF3
102
{ACAD_REACTORS
330
2AF1
102
}
330
2AF1
100
AcAmgFilterDat
 70
    15
  1
LINE
  2
8,8N,*-8,*-8N,AM_8,AM_8N,*-AM_8,*-AM_8N
  3
*
  4
*
  5
INSERT,STDPART2D
290
     1
  0
ACAMGFILTERDAT
  5
2AF7
102
{ACAD_REACTORS
330
2AF1
102
}
330
2AF1
100
AcAmgFilterDat
 70
    15
  1
ARC
  2
AM_5
  3
*
  4
2
  5
INSERT
290
     0
  0
ACAMGFILTERDAT
  5
2AF4
102
{ACAD_REACTORS
330
2AF1
102
}
330
2AF1
100
AcAmgFilterDat
 70
    15
  1
ACMFCFRAME,ACMDATUMTARGET,ACMDATUMID,ACMWELDSYM,ACMSURFSYM,ACMFEATID,ACMPARTREF,ACMBALLOON,AMDTEDGESYM,AMGSCREWCALCTABLE,ACMMARKSTAMP
  2
*
  3
*
  4
*
  5
*
290
     1
  0
LAYER_INDEX
  5
2B10
102
{ACAD_REACTORS
330
2B0F
102
}
330
2B0F
100
AcDbIndex
 40
2457470.396356701
100
AcDbLayerIndex
  8
0
360
2B11
 90
        0
  8
OUTLINE
360
2B12
 90
       21
  8
SIZE
360
2B13
 90
       40
  8
BASIS
360
2B14
 90
        1
  8
DETAIL
360
2B15
 90
      182
  8
ARRANGE
360
2B16
 90
        2
  8
DEFPOINTS
360
2B17
 90
        0
  8
ETC
360
2B18
 90
        3
  8
FIX
360
2B19
 90
        0
  8
NOTE
360
2B1A
 90
        7
  8
SERVICESPACE
360
2B1B
 90
        0
  8
SYMBOLLINE
360
2B1C
 90
        0
  0
DICTIONARY
  5
28D9
330
28D8
100
AcDbDictionary
280
     1
281
     1
  3
ACAD_XREC_ROUNDTRIP
360
2B2E
  3
BUMPTILE
360
28DB
  3
DIFFUSETILE
360
28DA
  3
OPACITYTILE
360
28DE
  3
REFLECTIONTILE
360
28DD
  3
REFRACTIONTILE
360
28DF
  3
SPECULARTILE
360
28DC
  0
DICTIONARY
  5
28D1
330
28D0
100
AcDbDictionary
280
     1
281
     1
  3
ACAD_XREC_ROUNDTRIP
360
2B2D
  3
BUMPTILE
360
28D3
  3
DIFFUSETILE
360
28D2
  3
OPACITYTILE
360
28D6
  3
REFLECTIONTILE
360
28D5
  3
REFRACTIONTILE
360
28D7
  3
SPECULARTILE
360
28D4
  0
DICTIONARY
  5
28E1
330
28E0
100
AcDbDictionary
280
     1
281
     1
  3
ACAD_XREC_ROUNDTRIP
360
2B2F
  3
BUMPTILE
360
28E3
  3
DIFFUSETILE
360
28E2
  3
OPACITYTILE
360
28E6
  3
REFLECTIONTILE
360
28E5
  3
REFRACTIONTILE
360
28E7
  3
SPECULARTILE
360
28E4
  0
DICTIONARY
  5
2B24
330
292B
100
AcDbDictionary
280
     1
281
     1
  3
ACAD_ROUNDTRIP_2008_TABLESTYLE_CELLSTYLEMAP
360
2E1B
  0
IDBUFFER
  5
2B11
330
0
100
AcDbIdBuffer
  0
IDBUFFER
  5
2B12
330
0
100
AcDbIdBuffer
330
953
330
954
330
955
330
956
330
957
330
958
330
2D51
330
2D52
330
2D53
330
2D54
330
2D55
330
2D56
330
2D57
330
2D58
330
2D59
330
2D5A
330
2D5B
330
2D5C
330
2D70
330
2D72
330
2D73
  0
IDBUFFER
  5
2B13
330
0
100
AcDbIdBuffer
330
2D6B
330
2D6C
330
2D26
330
2D27
330
2D28
330
2D29
330
2D2A
330
2D2B
330
2D2C
330
2D2D
330
2D2E
330
2D2F
330
2D30
330
2D31
330
2D32
330
2D33
330
2D34
330
2D35
330
2D36
330
2D37
330
2D38
330
2D39
330
2D3A
330
2D3B
330
2D3C
330
2D3D
330
2D5D
330
2D5E
330
2D5F
330
2D60
330
2D61
330
2D62
330
2D63
330
2D64
330
2D65
330
2D66
330
2D67
330
2D68
330
2D69
330
2D6A
  0
IDBUFFER
  5
2B14
330
0
100
AcDbIdBuffer
330
2D48
  0
IDBUFFER
  5
2B15
330
0
100
AcDbIdBuffer
330
2E10
330
2E11
330
2E12
330
2E13
330
2E14
330
2E15
330
2E16
330
2D20
330
2D21
330
2D22
330
2D23
330
2D24
330
2D25
330
2D3E
330
2D3F
330
2D40
330
2D42
330
2D43
330
2D45
330
2D46
330
2D47
330
2D4A
330
2D4B
330
2D4C
330
2D6D
330
2D71
330
2D74
330
2D75
330
2D76
330
2D77
330
2D78
330
2D79
330
2D7A
330
2D7B
330
2D7C
330
2D7D
330
2D7E
330
2D7F
330
2D80
330
2D81
330
2D82
330
2D83
330
2D84
330
2D85
330
2D86
330
2D87
330
2D88
330
2D89
330
2D8A
330
2D8B
330
2D8C
330
2D8D
330
2D8E
330
2D8F
330
2D90
330
2D91
330
2D92
330
2D93
330
2D94
330
2D95
330
2D96
330
2D97
330
2D98
330
2D99
330
2D9A
330
2D9B
330
2D9C
330
2D9D
330
2D9E
330
2D9F
330
2DA0
330
2DA1
330
2DA2
330
2DA3
330
2DA4
330
2DA5
330
2DA6
330
2DA7
330
2DA8
330
2DA9
330
2DAA
330
2DAB
330
2DAC
330
2DAD
330
2DAE
330
2DAF
330
2DB0
330
2DB1
330
2DB2
330
2DB3
330
2DB4
330
2DB5
330
2DB6
330
2DB7
330
2DB8
330
2DB9
330
2DBA
330
2DBB
330
2DBC
330
2DBD
330
2DBE
330
2DBF
330
2DC0
330
2DC1
330
2DC2
330
2DC3
330
2DC4
330
2DC5
330
2DC6
330
2DC7
330
2DC8
330
2DC9
330
2DCA
330
2DCB
330
2DCC
330
2DCD
330
2DCE
330
2DCF
330
2DD0
330
2DD1
330
2DD2
330
2DD3
330
2DD4
330
2DD5
330
2DD6
330
2DD7
330
2DD8
330
2DD9
330
2DDA
330
2DDB
330
2DDC
330
2DDD
330
2DDE
330
2DDF
330
2DE0
330
2DE1
330
2DE2
330
2DE3
330
2DE4
330
2DE5
330
2DE6
330
2DE7
330
2DE8
330
2DE9
330
2DEA
330
2DEB
330
2DEC
330
2DED
330
2DEE
330
2DEF
330
2DF0
330
2DF1
330
2DF2
330
2DF3
330
2DF4
330
2DF5
330
2DF6
330
2DF7
330
2DF8
330
2DF9
330
2DFA
330
2DFB
330
2DFC
330
2DFD
330
2DFE
330
2DFF
330
2E00
330
2E01
330
2E02
330
2E03
330
2E04
330
2E05
330
2E06
330
2E07
330
2E08
330
2E09
330
2E0A
330
2E0B
330
2E0C
330
2E0D
330
2E0E
330
2E0F
  0
IDBUFFER
  5
2B16
330
0
100
AcDbIdBuffer
330
2D44
330
2D49
  0
IDBUFFER
  5
2B17
330
0
100
AcDbIdBuffer
  0
IDBUFFER
  5
2B18
330
0
100
AcDbIdBuffer
330
2D1D
330
2D1E
330
2D1F
  0
IDBUFFER
  5
2B19
330
0
100
AcDbIdBuffer
  0
IDBUFFER
  5
2B1A
330
0
100
AcDbIdBuffer
330
2D50
330
2D6E
330
2D6F
330
2D41
330
2D4D
330
2D4E
330
2D4F
  0
IDBUFFER
  5
2B1B
330
0
100
AcDbIdBuffer
  0
IDBUFFER
  5
2B1C
330
0
100
AcDbIdBuffer
  0
XRECORD
  5
2B2E
102
{ACAD_REACTORS
330
28D9
102
}
330
28D9
100
AcDbXrecord
280
     1
102
MATERIAL
148
0.0
149
0.0
149
0.0
 93
        0
 94
      127
282
     0
 72
     0
 77
     0
171
     0
175
     0
179
     0
273
     0
  0
XRECORD
  5
28DB
102
{ACAD_REACTORS
330
28D9
102
}
330
28D9
100
AcDbXrecord
280
     1
270
     1
271
     1
  0
XRECORD
  5
28DA
102
{ACAD_REACTORS
330
28D9
102
}
330
28D9
100
AcDbXrecord
280
     1
270
     1
271
     1
  0
XRECORD
  5
28DE
102
{ACAD_REACTORS
330
28D9
102
}
330
28D9
100
AcDbXrecord
280
     1
270
     1
271
     1
  0
XRECORD
  5
28DD
102
{ACAD_REACTORS
330
28D9
102
}
330
28D9
100
AcDbXrecord
280
     1
270
     1
271
     1
  0
XRECORD
  5
28DF
102
{ACAD_REACTORS
330
28D9
102
}
330
28D9
100
AcDbXrecord
280
     1
270
     1
271
     1
  0
XRECORD
  5
28DC
102
{ACAD_REACTORS
330
28D9
102
}
330
28D9
100
AcDbXrecord
280
     1
270
     1
271
     1
  0
XRECORD
  5
2B2D
102
{ACAD_REACTORS
330
28D1
102
}
330
28D1
100
AcDbXrecord
280
     1
102
MATERIAL
148
0.0
149
0.0
149
0.0
 93
        0
 94
      127
282
     0
 72
     0
 77
     0
171
     0
175
     0
179
     0
273
     0
  0
XRECORD
  5
28D3
102
{ACAD_REACTORS
330
28D1
102
}
330
28D1
100
AcDbXrecord
280
     1
270
     1
271
     1
  0
XRECORD
  5
28D2
102
{ACAD_REACTORS
330
28D1
102
}
330
28D1
100
AcDbXrecord
280
     1
270
     1
271
     1
  0
XRECORD
  5
28D6
102
{ACAD_REACTORS
330
28D1
102
}
330
28D1
100
AcDbXrecord
280
     1
270
     1
271
     1
  0
XRECORD
  5
28D5
102
{ACAD_REACTORS
330
28D1
102
}
330
28D1
100
AcDbXrecord
280
     1
270
     1
271
     1
  0
XRECORD
  5
28D7
102
{ACAD_REACTORS
330
28D1
102
}
330
28D1
100
AcDbXrecord
280
     1
270
     1
271
     1
  0
XRECORD
  5
28D4
102
{ACAD_REACTORS
330
28D1
102
}
330
28D1
100
AcDbXrecord
280
     1
270
     1
271
     1
  0
XRECORD
  5
2B2F
102
{ACAD_REACTORS
330
28E1
102
}
330
28E1
100
AcDbXrecord
280
     1
102
MATERIAL
148
0.0
149
0.0
149
0.0
 93
        0
 94
      127
282
     0
 72
     0
 77
     0
171
     0
175
     0
179
     0
273
     0
  0
XRECORD
  5
28E3
102
{ACAD_REACTORS
330
28E1
102
}
330
28E1
100
AcDbXrecord
280
     1
270
     1
271
     1
  0
XRECORD
  5
28E2
102
{ACAD_REACTORS
330
28E1
102
}
330
28E1
100
AcDbXrecord
280
     1
270
     1
271
     1
  0
XRECORD
  5
28E6
102
{ACAD_REACTORS
330
28E1
102
}
330
28E1
100
AcDbXrecord
280
     1
270
     1
271
     1
  0
XRECORD
  5
28E5
102
{ACAD_REACTORS
330
28E1
102
}
330
28E1
100
AcDbXrecord
280
     1
270
     1
271
     1
  0
XRECORD
  5
28E7
102
{ACAD_REACTORS
330
28E1
102
}
330
28E1
100
AcDbXrecord
280
     1
270
     1
271
     1
  0
XRECORD
  5
28E4
102
{ACAD_REACTORS
330
28E1
102
}
330
28E1
100
AcDbXrecord
280
     1
270
     1
271
     1
  0
CELLSTYLEMAP
  5
2E1B
102
{ACAD_REACTORS
330
2B24
102
}
330
2B24
100
AcDbCellStyleMap
 90
        3
300
CELLSTYLE
  1
TABLEFORMAT_BEGIN
 90
        5
170
     1
 91
        0
 92
    32768
 62
   257
 93
        1
300
CONTENTFORMAT
  1
CONTENTFORMAT_BEGIN
 90
        0
 91
        0
 92
      512
 93
        0
300

 40
0.0
140
1.0
 94
        5
 62
     0
340
291C
144
0.25
309
CONTENTFORMAT_END
171
     1
301
MARGIN
  1
CELLMARGIN_BEGIN
 40
0.06
 40
0.06
 40
0.06
 40
0.06
 40
0.18
 40
0.18
309
CELLMARGIN_END
 94
        6
 95
        1
302
GRIDFORMAT
  1
GRIDFORMAT_BEGIN
 90
        0
 91
        1
 62
     0
 92
       -2
340
0
 93
        0
 40
0.045
309
GRIDFORMAT_END
 95
        2
302
GRIDFORMAT
  1
GRIDFORMAT_BEGIN
 90
        0
 91
        1
 62
     0
 92
       -2
340
0
 93
        0
 40
0.045
309
GRIDFORMAT_END
 95
        4
302
GRIDFORMAT
  1
GRIDFORMAT_BEGIN
 90
        0
 91
        1
 62
     0
 92
       -2
340
0
 93
        0
 40
0.045
309
GRIDFORMAT_END
 95
        8
302
GRIDFORMAT
  1
GRIDFORMAT_BEGIN
 90
        0
 91
        1
 62
     0
 92
       -2
340
0
 93
        0
 40
0.045
309
GRIDFORMAT_END
 95
       16
302
GRIDFORMAT
  1
GRIDFORMAT_BEGIN
 90
        0
 91
        1
 62
     0
 92
       -2
340
0
 93
        0
 40
0.045
309
GRIDFORMAT_END
 95
       32
302
GRIDFORMAT
  1
GRIDFORMAT_BEGIN
 90
        0
 91
        1
 62
     0
 92
       -2
340
0
 93
        0
 40
0.045
309
GRIDFORMAT_END
309
TABLEFORMAT_END
  1
CELLSTYLE_BEGIN
 90
        1
 91
        1
300
_TITLE
309
CELLSTYLE_END
300
CELLSTYLE
  1
TABLEFORMAT_BEGIN
 90
        5
170
     1
 91
        0
 92
        0
 62
   257
 93
        1
300
CONTENTFORMAT
  1
CONTENTFORMAT_BEGIN
 90
        0
 91
        0
 92
      512
 93
        0
300

 40
0.0
140
1.0
 94
        5
 62
     0
340
291C
144
0.18
309
CONTENTFORMAT_END
171
     1
301
MARGIN
  1
CELLMARGIN_BEGIN
 40
0.06
 40
0.06
 40
0.06
 40
0.06
 40
0.18
 40
0.18
309
CELLMARGIN_END
 94
        6
 95
        1
302
GRIDFORMAT
  1
GRIDFORMAT_BEGIN
 90
        0
 91
        1
 62
     0
 92
       -2
340
0
 93
        0
 40
0.045
309
GRIDFORMAT_END
 95
        2
302
GRIDFORMAT
  1
GRIDFORMAT_BEGIN
 90
        0
 91
        1
 62
     0
 92
       -2
340
0
 93
        0
 40
0.045
309
GRIDFORMAT_END
 95
        4
302
GRIDFORMAT
  1
GRIDFORMAT_BEGIN
 90
        0
 91
        1
 62
     0
 92
       -2
340
0
 93
        0
 40
0.045
309
GRIDFORMAT_END
 95
        8
302
GRIDFORMAT
  1
GRIDFORMAT_BEGIN
 90
        0
 91
        1
 62
     0
 92
       -2
340
0
 93
        0
 40
0.045
309
GRIDFORMAT_END
 95
       16
302
GRIDFORMAT
  1
GRIDFORMAT_BEGIN
 90
        0
 91
        1
 62
     0
 92
       -2
340
0
 93
        0
 40
0.045
309
GRIDFORMAT_END
 95
       32
302
GRIDFORMAT
  1
GRIDFORMAT_BEGIN
 90
        0
 91
        1
 62
     0
 92
       -2
340
0
 93
        0
 40
0.045
309
GRIDFORMAT_END
309
TABLEFORMAT_END
  1
CELLSTYLE_BEGIN
 90
        2
 91
        1
300
_HEADER
309
CELLSTYLE_END
300
CELLSTYLE
  1
TABLEFORMAT_BEGIN
 90
        5
170
     1
 91
        0
 92
        0
 62
   257
 93
        1
300
CONTENTFORMAT
  1
CONTENTFORMAT_BEGIN
 90
        0
 91
        0
 92
      512
 93
        0
300

 40
0.0
140
1.0
 94
        2
 62
     0
340
291C
144
0.18
309
CONTENTFORMAT_END
171
     1
301
MARGIN
  1
CELLMARGIN_BEGIN
 40
0.06
 40
0.06
 40
0.06
 40
0.06
 40
0.18
 40
0.18
309
CELLMARGIN_END
 94
        6
 95
        1
302
GRIDFORMAT
  1
GRIDFORMAT_BEGIN
 90
        0
 91
        1
 62
     0
 92
       -2
340
0
 93
        0
 40
0.045
309
GRIDFORMAT_END
 95
        2
302
GRIDFORMAT
  1
GRIDFORMAT_BEGIN
 90
        0
 91
        1
 62
     0
 92
       -2
340
0
 93
        0
 40
0.045
309
GRIDFORMAT_END
 95
        4
302
GRIDFORMAT
  1
GRIDFORMAT_BEGIN
 90
        0
 91
        1
 62
     0
 92
       -2
340
0
 93
        0
 40
0.045
309
GRIDFORMAT_END
 95
        8
302
GRIDFORMAT
  1
GRIDFORMAT_BEGIN
 90
        0
 91
        1
 62
     0
 92
       -2
340
0
 93
        0
 40
0.045
309
GRIDFORMAT_END
 95
       16
302
GRIDFORMAT
  1
GRIDFORMAT_BEGIN
 90
        0
 91
        1
 62
     0
 92
       -2
340
0
 93
        0
 40
0.045
309
GRIDFORMAT_END
 95
       32
302
GRIDFORMAT
  1
GRIDFORMAT_BEGIN
 90
        0
 91
        1
 62
     0
 92
       -2
340
0
 93
        0
 40
0.045
309
GRIDFORMAT_END
309
TABLEFORMAT_END
  1
CELLSTYLE_BEGIN
 90
        3
 91
        2
300
_DATA
309
CELLSTYLE_END
  0
ENDSEC
  0
EOF
