  0
SECTION
  2
HEADER
  9
$ACADVER
  1
AC1021
  9
$ACADMAINTVER
 70
    50
  9
$DWGCODEPAGE
  3
ANSI_932
  9
$LASTSAVEDBY
  1
A140052
  9
$CUSTOMPROPERTYTAG
  1
AmdtFileType
  9
$CUSTOMPROPERTY
  1
84
  9
$INSBASE
 10
0.0
 20
0.0
 30
0.0
  9
$EXTMIN
 10
-912.2634725438711
 20
133.3007936287904
 30
-0.0007624039136971
  9
$EXTMAX
 10
1004.713451483651
 20
1334.609994239417
 30
50.00076310244821
  9
$LIMMIN
 10
-2970.0
 20
-2100.0
  9
$LIMMAX
 10
2970.0
 20
2100.0
  9
$ORTHOMODE
 70
     1
  9
$REGENMODE
 70
     0
  9
$FILLMODE
 70
     1
  9
$QTEXTMODE
 70
     0
  9
$MIRRTEXT
 70
     0
  9
$LTSCALE
 40
20.0
  9
$ATTMODE
 70
     1
  9
$TEXTSIZE
 40
64.0
  9
$TRACEWID
 40
0.05
  9
$TEXTSTYLE
  7
STANDARD
  9
$CLAYER
  8
0
  9
$CELTYPE
  6
ByLayer
  9
$CECOLOR
 62
   256
  9
$CELTSCALE
 40
1.0
  9
$DISPSILH
 70
     0
  9
$DIMSCALE
 40
1.0
  9
$DIMASZ
 40
0.12
  9
$DIMEXO
 40
0.05
  9
$DIMDLI
 40
0.5
  9
$DIMRND
 40
0.0
  9
$DIMDLE
 40
0.0
  9
$DIMEXE
 40
0.1
  9
$DIMTP
 40
0.1
  9
$DIMTM
 40
0.1
  9
$DIMTXT
 40
0.12
  9
$DIMCEN
 40
0.0
  9
$DIMTSZ
 40
0.0
  9
$DIMTOL
 70
     0
  9
$DIMLIM
 70
     0
  9
$DIMTIH
 70
     1
  9
$DIMTOH
 70
     1
  9
$DIMSE1
 70
     0
  9
$DIMSE2
 70
     0
  9
$DIMTAD
 70
     0
  9
$DIMZIN
 70
     7
  9
$DIMBLK
  1

  9
$DIMASO
 70
     1
  9
$DIMSHO
 70
     0
  9
$DIMPOST
  1

  9
$DIMAPOST
  1
mm
  9
$DIMALT
 70
     0
  9
$DIMALTD
 70
     2
  9
$DIMALTF
 40
25.4
  9
$DIMLFAC
 40
1.0
  9
$DIMTOFL
 70
     0
  9
$DIMTVP
 40
0.0
  9
$DIMTIX
 70
     0
  9
$DIMSOXD
 70
     0
  9
$DIMSAH
 70
     0
  9
$DIMBLK1
  1

  9
$DIMBLK2
  1

  9
$DIMSTYLE
  2
AM_ANSI
  9
$DIMCLRD
 70
   256
  9
$DIMCLRE
 70
   256
  9
$DIMCLRT
 70
     2
  9
$DIMTFAC
 40
0.71
  9
$DIMGAP
 40
0.06
  9
$DIMJUST
 70
     0
  9
$DIMSD1
 70
     0
  9
$DIMSD2
 70
     0
  9
$DIMTOLJ
 70
     1
  9
$DIMTZIN
 70
     7
  9
$DIMALTZ
 70
     0
  9
$DIMALTTZ
 70
     0
  9
$DIMUPT
 70
     0
  9
$DIMDEC
 70
     4
  9
$DIMTDEC
 70
     4
  9
$DIMALTU
 70
     2
  9
$DIMALTTD
 70
     4
  9
$DIMTXSTY
  7
STANDARD
  9
$DIMAUNIT
 70
     0
  9
$DIMADEC
 70
     0
  9
$DIMALTRND
 40
0.0
  9
$DIMAZIN
 70
     2
  9
$DIMDSEP
 70
    46
  9
$DIMATFIT
 70
     3
  9
$DIMFRAC
 70
     0
  9
$DIMLDRBLK
  1

  9
$DIMLUNIT
 70
     2
  9
$DIMLWD
 70
    -1
  9
$DIMLWE
 70
    -1
  9
$DIMTMOVE
 70
     0
  9
$DIMFXL
 40
1.0
  9
$DIMFXLON
 70
     0
  9
$DIMJOGANG
 40
0.7853981633974483
  9
$DIMTFILL
 70
     0
  9
$DIMTFILLCLR
 70
     0
  9
$DIMARCSYM
 70
     1
  9
$DIMLTYPE
  6
ByBlock
  9
$DIMLTEX1
  6
ByBlock
  9
$DIMLTEX2
  6
ByBlock
  9
$LUNITS
 70
     2
  9
$LUPREC
 70
     4
  9
$SKETCHINC
 40
0.1
  9
$FILLETRAD
 40
4.0
  9
$AUNITS
 70
     1
  9
$AUPREC
 70
     3
  9
$MENU
  1
ACAD
  9
$ELEVATION
 40
0.0
  9
$PELEVATION
 40
0.0
  9
$THICKNESS
 40
50.0
  9
$LIMCHECK
 70
     0
  9
$CHAMFERA
 40
0.0
  9
$CHAMFERB
 40
0.0
  9
$CHAMFERC
 40
0.0
  9
$CHAMFERD
 40
0.0
  9
$SKPOLY
 70
     0
  9
$TDCREATE
 40
2452321.396199653
  9
$TDUCREATE
 40
2452321.021199653
  9
$TDUPDATE
 40
2457470.433269213
  9
$TDUUPDATE
 40
2457470.058269213
  9
$TDINDWG
 40
1.0408995602
  9
$TDUSRTIMER
 40
1.0408937963
  9
$USRTIMER
 70
     1
  9
$ANGBASE
 50
0.0
  9
$ANGDIR
 70
     0
  9
$PDMODE
 70
     3
  9
$PDSIZE
 40
-2.0
  9
$PLINEWID
 40
0.0
  9
$SPLFRAME
 70
     0
  9
$SPLINETYPE
 70
     6
  9
$SPLINESEGS
 70
     8
  9
$HANDSEED
  5
2D15
  9
$SURFTAB1
 70
     6
  9
$SURFTAB2
 70
     6
  9
$SURFTYPE
 70
     6
  9
$SURFU
 70
     6
  9
$SURFV
 70
     6
  9
$UCSBASE
  2

  9
$UCSNAME
  2

  9
$UCSORG
 10
0.0
 20
0.0
 30
0.0
  9
$UCSXDIR
 10
1.0
 20
0.0
 30
0.0
  9
$UCSYDIR
 10
0.0
 20
1.0
 30
0.0
  9
$UCSORTHOREF
  2

  9
$UCSORTHOVIEW
 70
     0
  9
$UCSORGTOP
 10
0.0
 20
0.0
 30
0.0
  9
$UCSORGBOTTOM
 10
0.0
 20
0.0
 30
0.0
  9
$UCSORGLEFT
 10
0.0
 20
0.0
 30
0.0
  9
$UCSORGRIGHT
 10
0.0
 20
0.0
 30
0.0
  9
$UCSORGFRONT
 10
0.0
 20
0.0
 30
0.0
  9
$UCSORGBACK
 10
0.0
 20
0.0
 30
0.0
  9
$PUCSBASE
  2

  9
$PUCSNAME
  2

  9
$PUCSORG
 10
0.0
 20
0.0
 30
0.0
  9
$PUCSXDIR
 10
1.0
 20
0.0
 30
0.0
  9
$PUCSYDIR
 10
0.0
 20
1.0
 30
0.0
  9
$PUCSORTHOREF
  2

  9
$PUCSORTHOVIEW
 70
     0
  9
$PUCSORGTOP
 10
0.0
 20
0.0
 30
0.0
  9
$PUCSORGBOTTOM
 10
0.0
 20
0.0
 30
0.0
  9
$PUCSORGLEFT
 10
0.0
 20
0.0
 30
0.0
  9
$PUCSORGRIGHT
 10
0.0
 20
0.0
 30
0.0
  9
$PUCSORGFRONT
 10
0.0
 20
0.0
 30
0.0
  9
$PUCSORGBACK
 10
0.0
 20
0.0
 30
0.0
  9
$USERI1
 70
     0
  9
$USERI2
 70
     0
  9
$USERI3
 70
     0
  9
$USERI4
 70
     0
  9
$USERI5
 70
     0
  9
$USERR1
 40
20.0
  9
$USERR2
 40
0.0
  9
$USERR3
 40
0.0
  9
$USERR4
 40
0.0
  9
$USERR5
 40
0.0
  9
$WORLDVIEW
 70
     1
  9
$SHADEDGE
 70
     3
  9
$SHADEDIF
 70
    70
  9
$TILEMODE
 70
     1
  9
$MAXACTVP
 70
    64
  9
$PINSBASE
 10
0.0
 20
0.0
 30
0.0
  9
$PLIMCHECK
 70
     0
  9
$PEXTMIN
 10
1.000000000000000E+20
 20
1.000000000000000E+20
 30
1.000000000000000E+20
  9
$PEXTMAX
 10
-1.000000000000000E+20
 20
-1.000000000000000E+20
 30
-1.000000000000000E+20
  9
$PLIMMIN
 10
0.0
 20
0.0
  9
$PLIMMAX
 10
12.0
 20
9.0
  9
$UNITMODE
 70
     0
  9
$VISRETAIN
 70
     1
  9
$PLINEGEN
 70
     0
  9
$PSLTSCALE
 70
     1
  9
$TREEDEPTH
 70
  3020
  9
$CMLSTYLE
  2
Standard
  9
$CMLJUST
 70
     0
  9
$CMLSCALE
 40
1.0
  9
$PROXYGRAPHICS
 70
     1
  9
$MEASUREMENT
 70
     0
  9
$CELWEIGHT
370
    -1
  9
$ENDCAPS
280
     0
  9
$JOINSTYLE
280
     0
  9
$LWDISPLAY
290
     0
  9
$INSUNITS
 70
     0
  9
$HYPERLINKBASE
  1

  9
$STYLESHEET
  1

  9
$XEDIT
290
     1
  9
$CEPSNTYPE
380
     0
  9
$PSTYLEMODE
290
     1
  9
$FINGERPRINTGUID
  2
{DDA93469-EFD8-43A6-8408-17978E45B19C}
  9
$VERSIONGUID
  2
{DE1D8DC1-2A23-44C8-92D2-78A3DD66D48D}
  9
$EXTNAMES
290
     1
  9
$PSVPSCALE
 40
0.0
  9
$OLESTARTUP
290
     0
  9
$SORTENTS
280
   127
  9
$INDEXCTL
280
     1
  9
$HIDETEXT
280
     0
  9
$XCLIPFRAME
290
     0
  9
$HALOGAP
280
     0
  9
$OBSCOLOR
 70
   257
  9
$OBSLTYPE
280
     0
  9
$INTERSECTIONDISPLAY
280
     0
  9
$INTERSECTIONCOLOR
 70
   257
  9
$DIMASSOC
280
     1
  9
$PROJECTNAME
  1

  9
$CAMERADISPLAY
290
     0
  9
$LENSLENGTH
 40
50.0
  9
$CAMERAHEIGHT
 40
0.0
  9
$STEPSPERSEC
 40
2.0
  9
$STEPSIZE
 40
6.0
  9
$3DDWFPREC
 40
2.0
  9
$PSOLWIDTH
 40
0.25
  9
$PSOLHEIGHT
 40
4.0
  9
$LOFTANG1
 40
1.570796326794896
  9
$LOFTANG2
 40
1.570796326794896
  9
$LOFTMAG1
 40
0.0
  9
$LOFTMAG2
 40
0.0
  9
$LOFTPARAM
 70
     7
  9
$LOFTNORMALS
280
     1
  9
$LATITUDE
 40
37.795
  9
$LONGITUDE
 40
-122.394
  9
$NORTHDIRECTION
 40
0.0
  9
$TIMEZONE
 70
 -8000
  9
$LIGHTGLYPHDISPLAY
280
     1
  9
$TILEMODELIGHTSYNCH
280
     1
  9
$CMATERIAL
347
2770
  9
$SOLIDHIST
280
     1
  9
$SHOWHIST
280
     1
  9
$DWFFRAME
280
     2
  9
$DGNFRAME
280
     0
  9
$REALWORLDSCALE
290
     1
  9
$INTERFERECOLOR
 62
     1
  9
$INTERFEREOBJVS
345
2792
  9
$INTERFEREVPVS
346
278F
  9
$CSHADOW
280
     0
  9
$SHADOWPLANELOCATION
 40
0.0
  0
ENDSEC
  0
SECTION
  2
CLASSES
  0
CLASS
  1
ACDBDICTIONARYWDFLT
  2
AcDbDictionaryWithDefault
  3
ObjectDBX Classes
 90
        0
 91
        1
280
     0
281
     0
  0
CLASS
  1
MATERIAL
  2
AcDbMaterial
  3
ObjectDBX Classes
 90
     1153
 91
        3
280
     0
281
     0
  0
CLASS
  1
VISUALSTYLE
  2
AcDbVisualStyle
  3
ObjectDBX Classes
 90
     4095
 91
       16
280
     0
281
     0
  0
CLASS
  1
SCALE
  2
AcDbScale
  3
ObjectDBX Classes
 90
     1153
 91
       33
280
     0
281
     0
  0
CLASS
  1
TABLESTYLE
  2
AcDbTableStyle
  3
ObjectDBX Classes
 90
     4095
 91
        1
280
     0
281
     0
  0
CLASS
  1
MLEADERSTYLE
  2
AcDbMLeaderStyle
  3
ACDB_MLEADERSTYLE_CLASS
 90
     4095
 91
        1
280
     0
281
     0
  0
CLASS
  1
AMGSETTINGSOBJ
  2
AmgSettingsObj
  3
"AcadM|Product Description: AutoCAD Mechanical|Company: Autodesk, Inc."
 90
     1024
 91
        2
280
     0
281
     0
  0
CLASS
  1
ACME_DOCUMENT
  2
AcMeDbDoc
  3
AcMeServices
 90
     1024
 91
        1
280
     0
281
     0
  0
CLASS
  1
ACMESCOPE
  2
AcMeScope
  3
AcMeServices
 90
     1024
 91
        1
280
     0
281
     0
  0
CLASS
  1
ACMECOMMANDHISTORY
  2
AcMeCommandHistory
  3
AcMeServices
 90
     1024
 91
        1
280
     0
281
     0
  0
CLASS
  1
ACIMSYSVARMAN
  2
AcImSysVarManager
  3
AcMeServices
 90
     1024
 91
        6
280
     0
281
     0
  0
CLASS
  1
ACIMREALSYSVAR
  2
AcImRealSysVar
  3
AcMeServices
 90
     1024
 91
       16
280
     0
281
     0
  0
CLASS
  1
ACIMINTSYSVAR
  2
AcImIntSysVar
  3
AcMeServices
 90
     1024
 91
       45
280
     0
281
     0
  0
CLASS
  1
ACMEDRAWINGMAN
  2
AcMeDrawingMan
  3
AcMeServices
 90
     1024
 91
        1
280
     0
281
     0
  0
CLASS
  1
ACMEVIEW
  2
AcMeView
  3
AcMeServices
 90
     1024
 91
        1
280
     0
281
     0
  0
CLASS
  1
ACDBENTITYCACHE
  2
AcMeEntityCache
  3
AcMeServices
 90
     1024
 91
        1
280
     0
281
     0
  0
CLASS
  1
GSMANAGER
  2
AcMeGSManager
  3
AcMeServices
 90
     1024
 91
        1
280
     0
281
     0
  0
CLASS
  1
AMDTINTERNALREACTOR
  2
AmdtInternalReactor
  3
AcMeServices
 90
     1024
 91
        2
280
     0
281
     0
  0
CLASS
  1
ACMESTATEMGR
  2
AcMeStateMgr
  3
AcMeServices
 90
     1024
 91
        1
280
     0
281
     0
  0
CLASS
  1
ACGREFMASTER
  2
AcGrefMaster
  3
AcAttribServices
 90
     1024
 91
        1
280
     0
281
     0
  0
CLASS
  1
AM_DRAWING_MGR
  2
AcDmDwgMgr
  3
AcMechDwgViewMgmt
 90
     1024
 91
        1
280
     0
281
     0
  0
CLASS
  1
AM_DWG_DOCUMENT
  2
AcDmDwgDocument
  3
AcMechDwgViewMgmt
 90
     1024
 91
        1
280
     0
281
     0
  0
CLASS
  1
AM_DWG_SHEET
  2
AcDmSheet
  3
AcMechDwgViewMgmt
 90
     1024
 91
        1
280
     0
281
     0
  0
CLASS
  1
AM_VIEWDIMPARMAP
  2
AcDmViewDimParMap
  3
AcMechDwgViewMgmt
 90
     1024
 91
        1
280
     0
281
     0
  0
CLASS
  1
AM_DWGMGR_NAME
  2
AcDmDwgMgrName
  3
AcMechDwgViewMgmt
 90
     1024
 91
        1
280
     0
281
     0
  0
CLASS
  1
ACME_DATABASE
  2
AcMeDbDatabase
  3
AcMeServices
 90
     1024
 91
        2
280
     0
281
     0
  0
CLASS
  1
ACRFINSADJUSTERMGR
  2
AcRfInsAdjusterMgr
  3
AcMeServices
 90
     1024
 91
        1
280
     0
281
     0
  0
CLASS
  1
ACGREFACADMASTER
  2
AcGrefacadMaster
  3
AcGrefServices
 90
     1024
 91
        1
280
     0
281
     0
  0
CLASS
  1
AMDTMENUSTATEMGR
  2
AmdtMenuStateMgr
  3
McadcomServices
 90
     1024
 91
        1
280
     0
281
     0
  0
CLASS
  1
AMDTMCOMMENUSTATE
  2
AmdtMcomMenuState
  3
McadcomServices
 90
     1024
 91
        1
280
     0
281
     0
  0
CLASS
  1
AMIMASTER
  2
AmiMaster
  3
AmiServices
 90
     1024
 91
        1
280
     0
281
     0
  0
CLASS
  1
ASAPP
  2
AcAsAppObject
  3
AutoSurfServices
 90
     1024
 91
        1
280
     0
281
     0
  0
CLASS
  1
IM_STATIC_MAN
  2
AcImStaticVarManager
  3
AcMeServices
 90
     1024
 91
        1
280
     0
281
     0
  0
CLASS
  1
ACIMSTRSYSVAR
  2
AcImStrSysVar
  3
AcMeServices
 90
     1024
 91
       11
280
     0
281
     0
  0
CLASS
  1
ACIMDBLSTATICVAR
  2
AcImDblStaticVar
  3
AcMeServices
 90
     1024
 91
       20
280
     0
281
     0
  0
CLASS
  1
ACIMSTRSTATICVAR
  2
AcImStrStaticVar
  3
AcMeServices
 90
     1024
 91
       12
280
     0
281
     0
  0
CLASS
  1
ACIMINTSTATICVAR
  2
AcImIntStaticVar
  3
AcMeServices
 90
     1024
 91
       17
280
     0
281
     0
  0
CLASS
  1
ACASGREFMASTER
  2
AcAsGrefMaster
  3
AutoSurfResolverServices
 90
     1024
 91
        1
280
     0
281
     0
  0
CLASS
  1
ACADGREFMODULE
  2
AcAdGrefModule
  3
AdGrefServices
 90
     1024
 91
        1
280
     0
281
     0
  0
CLASS
  1
AMDTMAPISURFMOUDULE
  2
AmdtMApiSurfModule
  3
MApiSurfServices
 90
     1024
 91
        0
280
     0
281
     0
  0
CLASS
  1
MAPIAMMOUDLE
  2
MApiAmModule
  3
MApiAmServices
 90
     1024
 91
        1
280
     0
281
     0
  0
CLASS
  1
AMDTADMENUSTATE
  2
AmdtAdMenuState
  3
DesignerServices
 90
     1024
 91
        1
280
     0
281
     0
  0
CLASS
  1
ADAPPL
  2
AcAdAppl
  3
DesignerServices
 90
     1024
 91
        1
280
     0
281
     0
  0
CLASS
  1
DEPMGR
  2
AcAdDepMgr
  3
DesignerServices
 90
     1024
 91
        1
280
     0
281
     0
  0
CLASS
  1
PARAMMGR
  2
AcAdParamMgr
  3
DesignerServices
 90
     1024
 91
        1
280
     0
281
     0
  0
CLASS
  1
PARAMSCOPE
  2
AcAdParamScope
  3
DesignerServices
 90
     1024
 91
        1
280
     0
281
     0
  0
CLASS
  1
NAMEDAPPL
  2
AcAdNamedAppl
  3
DesignerServices
 90
     1024
 91
        1
280
     0
281
     0
  0
CLASS
  1
AMDTDMMENUSTATE
  2
AmdtDmMenuState
  3
AcMechDwgViewMgmt
 90
     1024
 91
        1
280
     0
281
     0
  0
CLASS
  1
MAPIADMODULE
  2
MApiAdModule
  3
MApiAdServices
 90
     1024
 91
        1
280
     0
281
     0
  0
CLASS
  1
AMDTAMMENUSTATE
  2
AmdtAmMenuState
  3
DesignerAssemblies
 90
     1024
 91
        1
280
     0
281
     0
  0
CLASS
  1
ACAMPROJECT
  2
AcAmProject
  3
DesignerAssemblies
 90
     1024
 91
        1
280
     0
281
     0
  0
CLASS
  1
ACAMGRCOMPDEF
  2
AcAmGrCompDef
  3
DesignerAssemblies
 90
     1024
 91
        1
280
     0
281
     0
  0
CLASS
  1
ACCMCONTEXT
  2
AcCmContext
  3
DesignerAssemblies
 90
     1024
 91
        1
280
     0
281
     0
  0
CLASS
  1
ACAMCOMPDEF
  2
AcAmCompDef
  3
DesignerAssemblies
 90
     1024
 91
        1
280
     0
281
     0
  0
CLASS
  1
ACAMCOMPDEFMGR
  2
AcAmCompDefMgr
  3
DesignerAssemblies
 90
     1024
 91
        1
280
     0
281
     0
  0
CLASS
  1
AMCONTEXTMGR
  2
AcAmContextMgr
  3
DesignerAssemblies
 90
     1024
 91
        1
280
     0
281
     0
  0
CLASS
  1
ACAMCONTEXTMODELER
  2
AcAmContextModeler
  3
DesignerAssemblies
 90
     1024
 91
        1
280
     0
281
     0
  0
CLASS
  1
ACMDATADICTIONARY
  2
AcmDataDictionary
  3
"AcmSymBB|Product Description: AutoCAD Mechanical|Company: Autodesk, Inc."
 90
     1024
 91
        1
280
     0
281
     0
  0
CLASS
  1
ACMDATAENTRYBLOCK
  2
AcmDataEntryBlock
  3
AcmSymBB|Product Description: AutoCAD Mechanical|Company: Autodesk, Inc.
 90
     1024
 91
        2
280
     0
281
     0
  0
CLASS
  1
ACRFATTGENMGR
  2
AcRfAttGeneralMgr
  3
AcAttribServices
 90
     1024
 91
        1
280
     0
281
     0
  0
CLASS
  1
ACRFOBJATTMGR
  2
AcRfObjAttGroupMgr
  3
AcAttribServices
 90
     1024
 91
        1
280
     0
281
     0
  0
CLASS
  1
ACRFMCADAPIATTHOLDER
  2
AcRfMCADAPIAttHolder
  3
AcAttribServices
 90
     1024
 91
        1
280
     0
281
     0
  0
CLASS
  1
AMDTSYSATTR
  2
AmdtSystemAttribute
  3
AcAttribServices
 90
     1024
 91
        1
280
     0
281
     0
  0
CLASS
  1
CATALOGSTATE
  2
AcAmCatalogState
  3
DesignerAssemblies
 90
     1024
 91
        1
280
     0
281
     0
  0
CLASS
  1
ACAMGRCOMPDEFSET
  2
AcAmGrCompDefSet
  3
DesignerAssemblies
 90
     1024
 91
        1
280
     0
281
     0
  0
CLASS
  1
AMDTBROWSERDBTAB
  2
AmdtBrowserDbTab
  3
McadcomServices
 90
     1024
 91
        1
280
     0
281
     0
  0
CLASS
  1
CBROWSERAPPOBJECT
  2
CBrowserAppObject
  3
McadcomServices
 90
     1024
 91
        3
280
     0
281
     0
  0
CLASS
  1
DM_PLACEHOLDER
  2
AcDmSelsetPlaceholder
  3
AcMechDwgViewMgmt
 90
     1024
 91
        1
280
     0
281
     0
  0
CLASS
  1
ACMSTANDARDANSI
  2
AcmStandardANSI
  3
"Amdt_StdImp|Product Description: AutoCAD Mechanical|Company: Autodesk, Inc."
 90
     1024
 91
        1
280
     0
281
     0
  0
CLASS
  1
ACMSURFSTANDARDANSI
  2
AcmSurfTextStdANSI
  3
"Amdt_StdImp|Product Description: AutoCAD Mechanical|Company: Autodesk, Inc."
 90
     1024
 91
        1
280
     0
281
     0
  0
CLASS
  1
ACMFCFSTANDARDANSI
  2
AcmFCFStdANSI
  3
"Amdt_StdImp|Product Description: AutoCAD Mechanical|Company: Autodesk, Inc."
 90
     1024
 91
        1
280
     0
281
     0
  0
CLASS
  1
ACMWELDSTANDARDANSI
  2
AcmWeldingStdANSI
  3
"Amdt_StdImp|Product Description: AutoCAD Mechanical|Company: Autodesk, Inc."
 90
     1024
 91
        1
280
     0
281
     0
  0
CLASS
  1
ACMIDSTANDARDANSI
  2
AcmIdStdANSI
  3
"Amdt_StdImp|Product Description: AutoCAD Mechanical|Company: Autodesk, Inc."
 90
     1024
 91
        1
280
     0
281
     0
  0
CLASS
  1
ACMDATUMSTANDARDANSI
  2
AcmDatumStdANSI
  3
"Amdt_StdImp|Product Description: AutoCAD Mechanical|Company: Autodesk, Inc."
 90
     1024
 91
        1
280
     0
281
     0
  0
CLASS
  1
ACMBOMSTANDARDANSI
  2
AcmBOMStdANSI
  3
"Amdt_StdImp|Product Description: AutoCAD Mechanical|Company: Autodesk, Inc."
 90
     1024
 91
        1
280
     0
281
     0
  0
CLASS
  1
ACMDETAILSTANDARDANSI
  2
AmdtDetailSymStdANSI
  3
"Amdt_StdImp|Product Description: AutoCAD Mechanical|Company: Autodesk, Inc."
 90
     1024
 91
        1
280
     0
281
     0
  0
CLASS
  1
ACMSECTIONSTANDARDANSI
  2
AmdtSectionSymStdANSI
  3
"Amdt_StdImp|Product Description: AutoCAD Mechanical|Company: Autodesk, Inc."
 90
     1024
 91
        1
280
     0
281
     0
  0
CLASS
  1
ACMCENTERLINESTANDARDANSI
  2
AmdtCenterLineStdANSI
  3
"Amdt_StdImp|Product Description: AutoCAD Mechanical|Company: Autodesk, Inc."
 90
     1024
 91
        1
280
     0
281
     0
  0
CLASS
  1
ACMTHREADLINESTANDARDANSI
  2
AmdtThreadLineStdANSI
  3
"Amdt_StdImp|Product Description: AutoCAD Mechanical|Company: Autodesk, Inc."
 90
     1024
 91
        1
280
     0
281
     0
  0
CLASS
  1
ACMNOTESTANDARDANSI
  2
AmdtNoteStdANSI
  3
"Amdt_StdImp|Product Description: AutoCAD Mechanical|Company: Autodesk, Inc."
 90
     1024
 91
        1
280
     0
281
     0
  0
CLASS
  1
ACMTAPERSTANDARDANSI
  2
AcmTaperStdANSI
  3
"Amdt_StdImp|Product Description: AutoCAD Mechanical|Company: Autodesk, Inc."
 90
     1024
 91
        1
280
     0
281
     0
  0
CLASS
  1
ACMANOOTATIONVIEWSTANDARDANSI
  2
AmdtAnViewStdANSI
  3
"Amdt_StdImp|Product Description: AutoCAD Mechanical|Company: Autodesk, Inc."
 90
     1024
 91
        1
280
     0
281
     0
  0
CLASS
  1
ACAMGLAYSTD
  2
AcAmgLayStd
  3
"AmgLay|Product Description: AutoCAD Mechanical|Company: Autodesk, Inc."
 90
     1024
 91
        1
280
     0
281
     0
  0
CLASS
  1
ACAMGDIMSTD
  2
AcAmgDimStd
  3
"AmgDim|Product Description: AutoCAD Mechanical|Company: Autodesk, Inc."
 90
     1024
 91
        1
280
     0
281
     0
  0
CLASS
  1
ACAMGHOLECHARTSTDANSI
  2
AcAmgHoleChartStdANSI
  3
AmgDim|Product Description: AutoCAD Mechanical|Company: Autodesk, Inc.
 90
     1024
 91
        1
280
     0
281
     0
  0
CLASS
  1
AMGOBJPROPCFG
  2
AmgObjPropCfg
  3
"AmgLay|Product Description: AutoCAD Mechanical|Company: Autodesk, Inc."
 90
     1025
 91
        1
280
     0
281
     0
  0
CLASS
  1
ACAMGTITLESTD
  2
AcAmgTitleStd
  3
"AmgTitle|Product Description: AutoCAD Mechanical|Company: Autodesk, Inc."
 90
     4095
 91
        1
280
     0
281
     0
  0
CLASS
  1
AMDTNOTETEMPLATEDB
  2
AmdtNoteTemplateDB
  3
AcmSymBB|Product Description: AutoCAD Mechanical|Company: Autodesk, Inc.
 90
     1024
 91
        6
280
     0
281
     0
  0
CLASS
  1
ACAMGFILTERDAT
  2
AcAmgFilterDat
  3
"AcadM|Product Description: AutoCAD Mechanical|Company: Autodesk, Inc."
 90
     1024
 91
        6
280
     0
281
     0
  0
CLASS
  1
LAYER_INDEX
  2
AcDbLayerIndex
  3
ObjectDBX Classes
 90
        0
 91
        1
280
     0
281
     0
  0
CLASS
  1
IDBUFFER
  2
AcDbIdBuffer
  3
ObjectDBX Classes
 90
        0
 91
       12
280
     0
281
     0
  0
CLASS
  1
DICTIONARYVAR
  2
AcDbDictionaryVar
  3
ObjectDBX Classes
 90
        0
 91
       10
280
     0
281
     0
  0
CLASS
  1
CELLSTYLEMAP
  2
AcDbCellStyleMap
  3
ObjectDBX Classes
 90
     1152
 91
        2
280
     0
281
     0
  0
CLASS
  1
SORTENTSTABLE
  2
AcDbSortentsTable
  3
ObjectDBX Classes
 90
        0
 91
        1
280
     0
281
     0
  0
ENDSEC
  0
SECTION
  2
TABLES
  0
TABLE
  2
VPORT
  5
2767
330
0
100
AcDbSymbolTable
 70
     1
  0
VPORT
  5
27D7
330
2767
100
AcDbSymbolTableRecord
100
AcDbViewportTableRecord
  2
*ACTIVE
 70
     0
 10
0.0
 20
0.0
 11
1.0
 21
1.0
 12
-38.9142379747351
 22
923.3322154303687
 13
0.0
 23
0.0
 14
1.0
 24
1.0
 15
0.0
 25
0.0
 16
0.0
 26
0.0
 36
1.0
 17
85.13922744462485
 27
-189.3768214962647
 37
0.0
 40
2407.134768394841
 41
0.8037037037037036
 42
50.0
 43
0.0
 44
0.0
 50
0.0
 51
0.0
 71
     0
 72
   100
 73
     1
 74
     0
 75
     0
 76
     0
 77
     0
 78
     0
281
     0
 65
     0
110
0.0
120
0.0
130
0.0
111
1.0
121
0.0
131
0.0
112
0.0
122
1.0
132
0.0
 79
     0
146
0.0
348
278E
 60
     3
 61
     5
292
     1
282
     1
141
0.0
142
0.0
 63
   250
421
  3355443
  0
ENDTAB
  0
TABLE
  2
LTYPE
  5
2764
330
0
100
AcDbSymbolTable
 70
    19
  0
LTYPE
  5
27C1
330
2764
100
AcDbSymbolTableRecord
100
AcDbLinetypeTableRecord
  2
ByBlock
 70
     0
  3

 72
    65
 73
     0
 40
0.0
  0
LTYPE
  5
27C2
330
2764
100
AcDbSymbolTableRecord
100
AcDbLinetypeTableRecord
  2
ByLayer
 70
     0
  3

 72
    65
 73
     0
 40
0.0
  0
LTYPE
  5
27C3
330
2764
100
AcDbSymbolTableRecord
100
AcDbLinetypeTableRecord
  2
CONTINUOUS
 70
     0
  3
実線
 72
    65
 73
     0
 40
0.0
  0
LTYPE
  5
27D8
330
2764
100
AcDbSymbolTableRecord
100
AcDbLinetypeTableRecord
  2
DASHDOT
 70
     0
  3
____ _ ____ _ ____ _ ____ _ ____ _ ____ _ ____
 72
    65
 73
     4
 40
5.5
 49
4.0
 74
     0
 49
-0.6
 74
     0
 49
0.3
 74
     0
 49
-0.6
 74
     0
  0
LTYPE
  5
27D9
330
2764
100
AcDbSymbolTableRecord
100
AcDbLinetypeTableRecord
  2
HIDDEN
 70
     0
  3
Hidden __ __ __ __ __ __ __ __ __ __ __ __ __ _
 72
    65
 73
     2
 40
0.375
 49
0.25
 74
     0
 49
-0.125
 74
     0
  0
LTYPE
  5
27DA
330
2764
100
AcDbSymbolTableRecord
100
AcDbLinetypeTableRecord
  2
PHANTOM2
 70
     0
  3
Phantom (.5x) ___ _ _ ___ _ _ ___ _ _ ___ _ _
 72
    65
 73
     6
 40
1.25
 49
0.625
 74
     0
 49
-0.125
 74
     0
 49
0.125
 74
     0
 49
-0.125
 74
     0
 49
0.125
 74
     0
 49
-0.125
 74
     0
  0
LTYPE
  5
27DB
330
2764
100
AcDbSymbolTableRecord
100
AcDbLinetypeTableRecord
  2
CENTER
 70
     0
  3
Center ____ _ ____ _ ____ _ ____ _ ____ _ ____
 72
    65
 73
     4
 40
2.0
 49
1.25
 74
     0
 49
-0.25
 74
     0
 49
0.25
 74
     0
 49
-0.25
 74
     0
  0
LTYPE
  5
27DC
330
2764
100
AcDbSymbolTableRecord
100
AcDbLinetypeTableRecord
  2
ASULTYPE
 70
     0
  3
実線
 72
    65
 73
     2
 40
3.0
 49
2.5
 74
     0
 49
0.5
 74
     0
  0
LTYPE
  5
27DD
330
2764
100
AcDbSymbolTableRecord
100
AcDbLinetypeTableRecord
  2
ASVLTYPE
 70
     0
  3
__ __ __ __ __ __ __ __ __ __ __ __ __ __ __ __ __ __ __ __ __
 72
    65
 73
     2
 40
0.75
 49
0.5
 74
     0
 49
-0.25
 74
     0
  0
LTYPE
  5
27DE
330
2764
100
AcDbSymbolTableRecord
100
AcDbLinetypeTableRecord
  2
AM_ISO02W050
 70
     0
  3
__ __ __ __ __ __ __ __ __ __ __ __ __ __ __
 72
    65
 73
     2
 40
7.5
 49
6.0
 74
     0
 49
-1.5
 74
     0
  0
LTYPE
  5
27DF
330
2764
100
AcDbSymbolTableRecord
100
AcDbLinetypeTableRecord
  2
AM_ISO08W050
 70
     0
  3
____ . ____ . ____ . ____ . ____ . ____ . ____
 72
    65
 73
     4
 40
18.0
 49
12.0
 74
     0
 49
-1.5
 74
     0
 49
3.0
 74
     0
 49
-1.5
 74
     0
  0
LTYPE
  5
27E0
330
2764
100
AcDbSymbolTableRecord
100
AcDbLinetypeTableRecord
  2
AM_ISO09W050
 70
     0
  3
_____ . . _____ . . _____ . . ____ .. ____
 72
    65
 73
     6
 40
22.5
 49
12.0
 74
     0
 49
-1.5
 74
     0
 49
3.0
 74
     0
 49
-1.5
 74
     0
 49
3.0
 74
     0
 49
-1.5
 74
     0
  0
LTYPE
  5
27E1
330
2764
100
AcDbSymbolTableRecord
100
AcDbLinetypeTableRecord
  2
AMCONSTR
 70
     0
  3
_______________________
 72
    65
 73
     2
 40
9999.0
 49
9999.0
 74
     0
 49
0.0
 74
     0
  0
LTYPE
  5
27E2
330
2764
100
AcDbSymbolTableRecord
100
AcDbLinetypeTableRecord
  2
AM_ISO08W050X2
 70
     0
  3
__ . __ . __ . __ . __ . __
 72
    65
 73
     4
 40
9.0
 49
6.0
 74
     0
 49
-0.75
 74
     0
 49
1.5
 74
     0
 49
-0.75
 74
     0
  0
LTYPE
  5
27E3
330
2764
100
AcDbSymbolTableRecord
100
AcDbLinetypeTableRecord
  2
AM_ISO02W050X2
 70
     0
  3
 _ _ _ _ _ _ _ _ _ _ _ _
 72
    65
 73
     2
 40
3.75
 49
3.0
 74
     0
 49
-0.75
 74
     0
  0
LTYPE
  5
27E4
330
2764
100
AcDbSymbolTableRecord
100
AcDbLinetypeTableRecord
  2
AMZIGZAG
 70
     0
  3
/\/-/\/-/\/-/\/-/\/-/\/
 72
    65
 73
     2
 40
11.0001
 49
0.0001
 74
     0
 49
-11.0
 74
     0
  0
LTYPE
  5
27E5
330
2764
100
AcDbSymbolTableRecord
100
AcDbLinetypeTableRecord
  2
CENTER2
 70
     0
  3
Center (.5x) ___ _ ___ _ ___ _ ___ _ ___ _ ___
 72
    65
 73
     4
 40
1.125
 49
0.75
 74
     0
 49
-0.125
 74
     0
 49
0.125
 74
     0
 49
-0.125
 74
     0
  0
LTYPE
  5
27E6
330
2764
100
AcDbSymbolTableRecord
100
AcDbLinetypeTableRecord
  2
HIDDEN2
 70
     0
  3
Hidden (.5x) _ _ _ _ _ _ _ _ _ _ _ _ _ _ _ _ _
 72
    65
 73
     2
 40
0.1875
 49
0.125
 74
     0
 49
-0.0625
 74
     0
  0
LTYPE
  5
27E7
330
2764
100
AcDbSymbolTableRecord
100
AcDbLinetypeTableRecord
  2
AMZIGZAG2
 70
     0
  3
/\/-/\/-/\/-/\/-/\/-/\/
 72
    65
 73
     2
 40
0.4401
 49
0.0001
 74
     0
 49
-0.4400000000000003
 74
     0
  0
LTYPE
  5
27E8
330
2764
100
AcDbSymbolTableRecord
100
AcDbLinetypeTableRecord
  2
ACANSTGB
 70
     0
  3
__ . . __ . .
 72
    65
 73
     6
 40
0.35433070866
 49
0.15748031496
 74
     0
 49
-0.03937007874
 74
     0
 49
0.03937007874
 74
     0
 49
-0.03937007874
 74
     0
 49
0.03937007874
 74
     0
 49
-0.03937007874
 74
     0
  0
LTYPE
  5
27E9
330
2764
100
AcDbSymbolTableRecord
100
AcDbLinetypeTableRecord
  2
ACANSTGL
 70
     0
  3
_ _ _ _ _
 72
    65
 73
     2
 40
0.11811023622
 49
0.07874015748
 74
     0
 49
-0.03937007874
 74
     0
  0
ENDTAB
  0
TABLE
  2
LAYER
  5
2761
102
{ACAD_XDICTIONARY
360
2AB9
102
}
330
0
100
AcDbSymbolTable
 70
    12
  0
LAYER
  5
27BB
102
{ACAD_XDICTIONARY
360
2998
102
}
330
2761
100
AcDbSymbolTableRecord
100
AcDbLayerTableRecord
  2
0
 70
     0
 62
     7
  6
CONTINUOUS
370
    -3
390
276E
347
2780
  0
LAYER
  5
27EA
102
{ACAD_XDICTIONARY
360
299A
102
}
330
2761
100
AcDbSymbolTableRecord
100
AcDbLayerTableRecord
  2
OUTLINE
 70
     0
 62
     3
  6
CONTINUOUS
370
    -3
390
276E
347
2780
  0
LAYER
  5
27EB
102
{ACAD_XDICTIONARY
360
299C
102
}
330
2761
100
AcDbSymbolTableRecord
100
AcDbLayerTableRecord
  2
SIZE
 70
     0
 62
    30
  6
CONTINUOUS
370
    -3
390
276E
347
2780
  0
LAYER
  5
27EC
102
{ACAD_XDICTIONARY
360
299E
102
}
330
2761
100
AcDbSymbolTableRecord
100
AcDbLayerTableRecord
  2
BASIS
 70
     0
 62
     6
  6
DASHDOT
370
    -3
390
276E
347
2780
  0
LAYER
  5
27ED
102
{ACAD_XDICTIONARY
360
29A0
102
}
330
2761
100
AcDbSymbolTableRecord
100
AcDbLayerTableRecord
  2
DETAIL
 70
     0
 62
     5
  6
CONTINUOUS
370
    -3
390
276E
347
2780
  0
LAYER
  5
27EE
102
{ACAD_XDICTIONARY
360
29A2
102
}
330
2761
100
AcDbSymbolTableRecord
100
AcDbLayerTableRecord
  2
ARRANGE
 70
     0
 62
     1
  6
CONTINUOUS
370
    -3
390
276E
347
2780
  0
LAYER
  5
27EF
330
2761
100
AcDbSymbolTableRecord
100
AcDbLayerTableRecord
  2
DEFPOINTS
 70
     0
 62
     7
  6
CONTINUOUS
290
     0
370
    -3
390
276E
347
2780
  0
LAYER
  5
27F0
102
{ACAD_XDICTIONARY
360
29A4
102
}
330
2761
100
AcDbSymbolTableRecord
100
AcDbLayerTableRecord
  2
ETC
 70
     0
 62
    61
  6
CONTINUOUS
370
    -3
390
276E
347
2780
  0
LAYER
  5
27F1
102
{ACAD_XDICTIONARY
360
29A6
102
}
330
2761
100
AcDbSymbolTableRecord
100
AcDbLayerTableRecord
  2
FIX
 70
     0
 62
    11
  6
CONTINUOUS
370
    -3
390
276E
347
2780
  0
LAYER
  5
27F2
102
{ACAD_XDICTIONARY
360
29A8
102
}
330
2761
100
AcDbSymbolTableRecord
100
AcDbLayerTableRecord
  2
NOTE
 70
     0
 62
     4
  6
CONTINUOUS
370
    -3
390
276E
347
2780
  0
LAYER
  5
27F3
102
{ACAD_XDICTIONARY
360
29AA
102
}
330
2761
100
AcDbSymbolTableRecord
100
AcDbLayerTableRecord
  2
SERVICESPACE
 70
     0
 62
     2
  6
DASHDOT
370
    -3
390
276E
347
2780
  0
LAYER
  5
27F4
102
{ACAD_XDICTIONARY
360
29AC
102
}
330
2761
100
AcDbSymbolTableRecord
100
AcDbLayerTableRecord
  2
SYMBOLLINE
 70
     0
 62
    15
  6
CONTINUOUS
370
    -3
390
276E
347
2780
  0
ENDTAB
  0
TABLE
  2
STYLE
  5
2762
330
0
100
AcDbSymbolTable
 70
     5
  0
STYLE
  5
27BC
330
2762
100
AcDbSymbolTableRecord
100
AcDbTextStyleTableRecord
  2
STANDARD
 70
     0
 40
64.0
 41
0.9
 50
0.0
 71
     0
 42
64.0
  3
SIMPLEX.shx
  4
BIGFONT.shx
  0
STYLE
  5
27C0
330
2762
100
AcDbSymbolTableRecord
100
AcDbTextStyleTableRecord
  2
ANNOTATIVE
 70
     0
 40
0.0
 41
1.0
 50
0.0
 71
     0
 42
0.2
  3
txt
  4

1001
ACADANNOTATIVE
1000
AnnotativeData
1002
{
1070
     1
1070
     1
1002
}
  0
STYLE
  5
27F5
330
2762
100
AcDbSymbolTableRecord
100
AcDbTextStyleTableRecord
  2

 70
     1
 40
0.0
 41
1.0
 50
0.0
 71
     0
 42
64.0
  3
genltshp.shx
  4

  0
STYLE
  5
27F6
330
2762
100
AcDbSymbolTableRecord
100
AcDbTextStyleTableRecord
  2
ACANSTS
 70
     0
 40
1.0
 41
1.0
 50
0.0
 71
     0
 42
64.0
  3
romans.shx
  4
extfont.shx
  0
STYLE
  5
27F7
330
2762
100
AcDbSymbolTableRecord
100
AcDbTextStyleTableRecord
  2
ACANSGDT
 70
     0
 40
0.0
 41
1.0
 50
0.0
 71
     0
 42
64.0
  3
amgdt.shx
  4

  0
ENDTAB
  0
TABLE
  2
VIEW
  5
2765
330
0
100
AcDbSymbolTable
 70
     1
  0
VIEW
  5
27F8
330
2765
100
AcDbSymbolTableRecord
100
AcDbViewTableRecord
  2
ALL
 70
     0
 40
4282.619807999997
 10
0.0
 20
41.30990399999999
 41
5940.0
 11
0.0
 21
0.0
 31
1.0
 12
0.0
 22
0.0
 32
0.0
 42
50.0
 43
0.0
 44
0.0
 50
0.0
 71
     0
281
     0
 72
     1
110
0.0
120
0.0
130
0.0
111
1.0
121
0.0
131
0.0
112
0.0
122
1.0
132
0.0
 79
     0
146
0.0
 73
     0
348
278E
  0
ENDTAB
  0
TABLE
  2
UCS
  5
2766
330
0
100
AcDbSymbolTable
 70
     0
  0
ENDTAB
  0
TABLE
  2
APPID
  5
2768
330
0
100
AcDbSymbolTable
 70
    27
  0
APPID
  5
27BD
330
2768
100
AcDbSymbolTableRecord
100
AcDbRegAppTableRecord
  2
ACAD
 70
     0
  0
APPID
  5
27C4
330
2768
100
AcDbSymbolTableRecord
100
AcDbRegAppTableRecord
  2
ACADANNOTATIVE
 70
     0
  0
APPID
  5
27CE
330
2768
100
AcDbSymbolTableRecord
100
AcDbRegAppTableRecord
  2
ACAD_MLEADERVER
 70
     0
  0
APPID
  5
27F9
330
2768
100
AcDbSymbolTableRecord
100
AcDbRegAppTableRecord
  2
GENIUS_GENDIM_13
 70
     0
  0
APPID
  5
27FA
330
2768
100
AcDbSymbolTableRecord
100
AcDbRegAppTableRecord
  2
GENIUS_GENDTOL_13
 70
     0
  0
APPID
  5
27FB
330
2768
100
AcDbSymbolTableRecord
100
AcDbRegAppTableRecord
  2
GENIUS_GE3DTOL_13
 70
     0
  0
APPID
  5
27FC
330
2768
100
AcDbSymbolTableRecord
100
AcDbRegAppTableRecord
  2
MCAD_NO_VIS
 70
     0
  0
APPID
  5
27FD
330
2768
100
AcDbSymbolTableRecord
100
AcDbRegAppTableRecord
  2
ACAD_TEMP_GRAPHIC
 70
     0
  0
APPID
  5
27FE
330
2768
100
AcDbSymbolTableRecord
100
AcDbRegAppTableRecord
  2
AD_DRAW
 70
     0
  0
APPID
  5
27FF
330
2768
100
AcDbSymbolTableRecord
100
AcDbRegAppTableRecord
  2
ACATTRIBSERVICES
 70
     0
  0
APPID
  5
2800
330
2768
100
AcDbSymbolTableRecord
100
AcDbRegAppTableRecord
  2
ASURF_PCURVE_APPNAME
 70
     0
  0
APPID
  5
2801
330
2768
100
AcDbSymbolTableRecord
100
AcDbRegAppTableRecord
  2
AMG_3D2D_5_0
 70
     0
  0
APPID
  5
2802
330
2768
100
AcDbSymbolTableRecord
100
AcDbRegAppTableRecord
  2
DESIGNERASSEMBLIES
 70
     0
  0
APPID
  5
2803
330
2768
100
AcDbSymbolTableRecord
100
AcDbRegAppTableRecord
  2
ACADM_DIM_EDIT
 70
     0
  0
APPID
  5
2804
330
2768
100
AcDbSymbolTableRecord
100
AcDbRegAppTableRecord
  2
AMDT_DM_ADJ
 70
     0
  0
APPID
  5
2805
330
2768
100
AcDbSymbolTableRecord
100
AcDbRegAppTableRecord
  2
ACAD_DSTYLE_DIMARC_LENGTH_
 70
     0
  0
APPID
  5
2806
330
2768
100
AcDbSymbolTableRecord
100
AcDbRegAppTableRecord
  2
ACAD_DSTYLE_DIMJOGGED_JOGA
 70
     0
  0
APPID
  5
2807
330
2768
100
AcDbSymbolTableRecord
100
AcDbRegAppTableRecord
  2
ACAD_PSEXT
 70
     0
  0
APPID
  5
2808
330
2768
100
AcDbSymbolTableRecord
100
AcDbRegAppTableRecord
  2
ACAD_EXEMPT_FROM_CAD_STANDARDS
 70
     0
  0
APPID
  5
2809
330
2768
100
AcDbSymbolTableRecord
100
AcDbRegAppTableRecord
  2
ACAD_DSTYLE_DIMJAG
 70
     0
  0
APPID
  5
280A
330
2768
100
AcDbSymbolTableRecord
100
AcDbRegAppTableRecord
  2
ACAD_DSTYLE_DIMTALN
 70
     0
  0
APPID
  5
2938
330
2768
100
AcDbSymbolTableRecord
100
AcDbRegAppTableRecord
  2
AMG_3D2D_5.0
 70
     0
  0
APPID
  5
29D5
330
2768
100
AcDbSymbolTableRecord
100
AcDbRegAppTableRecord
  2
ACAD_DSTYLE_DIMARC_LENGTH_SYMBOL
 70
     0
  0
APPID
  5
29D6
330
2768
100
AcDbSymbolTableRecord
100
AcDbRegAppTableRecord
  2
ACAD_DSTYLE_DIM_LINETYPE
 70
     0
  0
APPID
  5
29D7
330
2768
100
AcDbSymbolTableRecord
100
AcDbRegAppTableRecord
  2
ACAD_DSTYLE_DIM_EXT1_LINETYPE
 70
     0
  0
APPID
  5
29D8
330
2768
100
AcDbSymbolTableRecord
100
AcDbRegAppTableRecord
  2
ACAD_DSTYLE_DIM_EXT2_LINETYPE
 70
     0
  0
APPID
  5
2AB8
330
2768
100
AcDbSymbolTableRecord
100
AcDbRegAppTableRecord
  2
ACAD_DSTYLE_DIMJOGGED_JOGANGLE_SYMBOL
 70
     0
  0
ENDTAB
  0
TABLE
  2
DIMSTYLE
  5
2769
330
0
100
AcDbSymbolTable
 70
    10
100
AcDbDimStyleTable
 71
     1
340
280B
  0
DIMSTYLE
105
27BE
330
2769
100
AcDbSymbolTableRecord
100
AcDbDimStyleTableRecord
  2
STANDARD
 70
     0
 41
12.0
 42
20.0
 44
20.0
 77
     1
 78
     8
140
64.0
141
0.0
147
10.0
275
     1
279
     2
284
     7
285
     7
286
     7
340
27BC
  0
DIMSTYLE
105
27BF
330
2769
100
AcDbSymbolTableRecord
100
AcDbDimStyleTableRecord
  2
ANNOTATIVE
 70
     0
275
     1
279
     2
284
     7
285
     7
286
     7
340
27BC
1001
ACADANNOTATIVE
1000
AnnotativeData
1002
{
1070
     1
1070
     1
1002
}
  0
DIMSTYLE
105
280B
330
2769
100
AcDbSymbolTableRecord
100
AcDbDimStyleTableRecord
  2
AM_ANSI
 70
     0
  4
mm
 41
0.12
 42
0.05
 43
0.5
 44
0.1
 47
0.1
 48
0.1
 78
     7
 79
     2
 90
     1
140
0.12
141
0.0
146
0.71
147
0.06
176
   256
177
   256
178
     2
274
     4
284
     7
340
27BC
345
27C1
346
27C1
347
27C1
371
    -1
372
    -1
  0
DIMSTYLE
105
280C
330
2769
100
AcDbSymbolTableRecord
100
AcDbDimStyleTableRecord
  2
AM_ANSI$3
 70
     0
  4
mm
 41
0.12
 42
0.05
 43
0.5
 44
0.1
 47
0.1
 48
0.1
 78
     7
 79
     2
 90
     1
140
0.12
141
0.0
146
0.71
147
0.06
176
   256
177
   256
178
     2
274
     4
284
     7
288
     1
289
     0
340
27BC
345
27C1
346
27C1
347
27C1
371
    -1
372
    -1
  0
DIMSTYLE
105
280D
330
2769
100
AcDbSymbolTableRecord
100
AcDbDimStyleTableRecord
  2
AM_ANSI$4
 70
     0
  4
mm
 41
0.12
 42
0.05
 43
0.5
 44
0.1
 47
0.1
 48
0.1
 78
     7
 79
     2
 90
     1
140
0.12
141
0.0
146
0.71
147
0.06
176
   256
177
   256
178
     2
274
     4
284
     7
340
27BC
345
27C1
346
27C1
347
27C1
371
    -1
372
    -1
  0
DIMSTYLE
105
280E
330
2769
100
AcDbSymbolTableRecord
100
AcDbDimStyleTableRecord
  2
AM_ANSI$7
 70
     0
  4
mm
 41
0.12
 42
0.05
 43
0.5
 44
0.1
 47
0.1
 48
0.1
 78
     7
 79
     2
 90
     1
140
0.12
141
0.0
146
0.71
147
0.06
176
   256
177
   256
178
     2
274
     4
284
     7
340
27BC
345
27C1
346
27C1
347
27C1
371
    -1
372
    -1
  0
DIMSTYLE
105
280F
330
2769
100
AcDbSymbolTableRecord
100
AcDbDimStyleTableRecord
  2
AM_ANSI$SF
 70
     0
  4
mm
 41
0.12
 42
0.05
 43
0.5
 44
0.1
 47
0.1
 48
0.1
 75
     1
 76
     1
 78
     7
 79
     2
 90
     1
140
0.12
141
0.0
146
0.71
147
0.06
176
   256
177
   256
178
     2
274
     4
284
     7
340
27BC
345
27C1
346
27C1
347
27C1
371
    -1
372
    -1
  0
DIMSTYLE
105
2810
330
2769
100
AcDbSymbolTableRecord
100
AcDbDimStyleTableRecord
  2
AM_ANSI$SH
 70
     0
  4
mm
 41
0.12
 42
0.05
 43
0.5
 44
0.1
 47
0.1
 48
0.1
 75
     1
 76
     1
 78
     7
 79
     2
 90
     1
140
0.12
141
0.0
146
0.71
147
0.06
173
     1
176
   256
177
   256
178
     2
274
     4
284
     7
340
27BC
343
2830
345
27C1
346
27C1
347
27C1
371
    -1
372
    -1
  0
DIMSTYLE
105
2811
330
2769
100
AcDbSymbolTableRecord
100
AcDbDimStyleTableRecord
  2
STANDARD1
 70
     0
 40
6.0
 41
2.5
 42
0.625
 43
6.0
 44
1.25
 47
1.0
 48
0.5
 77
     1
 78
     8
140
2.5
141
0.0
146
0.6
147
1.0
173
     1
275
     1
279
     2
284
     7
285
     7
286
     7
340
27BC
  0
DIMSTYLE
105
2812
330
2769
100
AcDbSymbolTableRecord
100
AcDbDimStyleTableRecord
  2
STANDARD$0
 70
     0
 41
12.0
 42
20.0
 44
20.0
 73
     0
 74
     0
 77
     1
 78
     8
140
64.0
141
0.0
147
10.0
275
     1
279
     2
284
     7
285
     7
286
     7
340
27BC
  0
ENDTAB
  0
TABLE
  2
BLOCK_RECORD
  5
2760
330
0
100
AcDbSymbolTable
 70
    80
  0
BLOCK_RECORD
  5
27D3
102
{ACAD_XDICTIONARY
360
29AE
102
}
330
2760
100
AcDbSymbolTableRecord
100
AcDbBlockTableRecord
  2
*Model_Space
340
27D6
 70
     0
280
     1
281
     0
  0
BLOCK_RECORD
  5
27CF
330
2760
100
AcDbSymbolTableRecord
100
AcDbBlockTableRecord
  2
*Paper_Space
340
27D2
 70
     0
280
     1
281
     0
  0
BLOCK_RECORD
  5
281A
330
2760
100
AcDbSymbolTableRecord
100
AcDbBlockTableRecord
  2
$MODEL_SPACE
340
0
 70
     0
280
     1
281
     0
  0
BLOCK_RECORD
  5
281C
330
2760
100
AcDbSymbolTableRecord
100
AcDbBlockTableRecord
  2
$PAPER_SPACE
340
0
 70
     0
280
     1
281
     0
  0
BLOCK_RECORD
  5
281E
330
2760
100
AcDbSymbolTableRecord
100
AcDbBlockTableRecord
  2
_ORIGIN
340
0
 70
     0
280
     1
281
     0
  0
BLOCK_RECORD
  5
2820
330
2760
100
AcDbSymbolTableRecord
100
AcDbBlockTableRecord
  2
_DOTBLANK
340
0
102
{BLKREFS
331
1299
331
129A
331
11AA
331
11AB
331
E80
331
E81
331
1123
331
1124
331
11C2
331
11C3
331
11EC
331
11ED
331
11F9
331
11FA
331
1287
331
1288
331
1417
331
1418
331
1423
331
1424
331
142F
331
1430
331
143B
331
143C
331
166E
331
166F
331
1677
331
1678
331
1680
331
1681
331
1689
331
168A
331
1696
331
1697
331
16A3
331
16A4
331
16AF
331
16B0
331
16BB
331
16BC
331
16C7
331
16C8
331
16D3
331
16D4
331
1D86
331
1D87
331
1D8F
331
1D90
331
1D98
331
1D99
331
1DA1
331
1DA2
331
1DAB
331
1DAC
331
1DB5
331
1DB6
331
2AC8
331
2AC9
331
2ACF
331
2AD0
331
2AD5
331
2AD6
331
2AE0
331
2AE1
331
2AE8
331
2AE9
331
2AF0
331
2AF1
331
2BFD
331
2C02
331
2C03
331
2C0D
331
2C0E
331
2C15
331
2C16
331
2C1D
331
2C1E
331
2BF5
331
2BF6
331
2BFC
102
}
 70
     0
280
     1
281
     0
  0
BLOCK_RECORD
  5
2822
330
2760
100
AcDbSymbolTableRecord
100
AcDbBlockTableRecord
  2
_OPEN30
340
0
102
{BLKREFS
331
2087
331
2165
331
223C
331
232F
331
245C
331
258D
331
2ABC
331
2BE9
102
}
 70
     0
280
     1
281
     0
  0
BLOCK_RECORD
  5
2824
330
2760
100
AcDbSymbolTableRecord
100
AcDbBlockTableRecord
  2
*D5
340
0
 70
     0
280
     1
281
     0
  0
BLOCK_RECORD
  5
2826
330
2760
100
AcDbSymbolTableRecord
100
AcDbBlockTableRecord
  2
*U6
340
0
102
{BLKREFS
331
129B
102
}
 70
     0
280
     1
281
     0
  0
BLOCK_RECORD
  5
2828
330
2760
100
AcDbSymbolTableRecord
100
AcDbBlockTableRecord
  2
*D7
340
0
 70
     0
280
     1
281
     0
  0
BLOCK_RECORD
  5
282A
330
2760
100
AcDbSymbolTableRecord
100
AcDbBlockTableRecord
  2
*U8
340
0
102
{BLKREFS
331
11AC
102
}
 70
     0
280
     1
281
     0
  0
BLOCK_RECORD
  5
282C
330
2760
100
AcDbSymbolTableRecord
100
AcDbBlockTableRecord
  2
*D9
340
0
 70
     0
280
     1
281
     0
  0
BLOCK_RECORD
  5
282E
330
2760
100
AcDbSymbolTableRecord
100
AcDbBlockTableRecord
  2
*U10
340
0
102
{BLKREFS
331
E82
102
}
 70
     0
280
     1
281
     0
  0
BLOCK_RECORD
  5
2830
330
2760
100
AcDbSymbolTableRecord
100
AcDbBlockTableRecord
  2
GENAXEH
340
0
 70
     0
280
     1
281
     0
  0
BLOCK_RECORD
  5
2832
330
2760
100
AcDbSymbolTableRecord
100
AcDbBlockTableRecord
  2
*D12
340
0
 70
     0
280
     1
281
     0
  0
BLOCK_RECORD
  5
2834
330
2760
100
AcDbSymbolTableRecord
100
AcDbBlockTableRecord
  2
*U13
340
0
102
{BLKREFS
331
1125
102
}
 70
     0
280
     1
281
     0
  0
BLOCK_RECORD
  5
2836
330
2760
100
AcDbSymbolTableRecord
100
AcDbBlockTableRecord
  2
*D14
340
0
 70
     0
280
     1
281
     0
  0
BLOCK_RECORD
  5
2838
330
2760
100
AcDbSymbolTableRecord
100
AcDbBlockTableRecord
  2
*U15
340
0
102
{BLKREFS
331
11C4
102
}
 70
     0
280
     1
281
     0
  0
BLOCK_RECORD
  5
283A
330
2760
100
AcDbSymbolTableRecord
100
AcDbBlockTableRecord
  2
*D16
340
0
 70
     0
280
     1
281
     0
  0
BLOCK_RECORD
  5
283C
330
2760
100
AcDbSymbolTableRecord
100
AcDbBlockTableRecord
  2
*U17
340
0
102
{BLKREFS
331
11EE
102
}
 70
     0
280
     1
281
     0
  0
BLOCK_RECORD
  5
283E
330
2760
100
AcDbSymbolTableRecord
100
AcDbBlockTableRecord
  2
*D18
340
0
 70
     0
280
     1
281
     0
  0
BLOCK_RECORD
  5
2840
330
2760
100
AcDbSymbolTableRecord
100
AcDbBlockTableRecord
  2
*U19
340
0
102
{BLKREFS
331
11FB
102
}
 70
     0
280
     1
281
     0
  0
BLOCK_RECORD
  5
2842
330
2760
100
AcDbSymbolTableRecord
100
AcDbBlockTableRecord
  2
*D20
340
0
 70
     0
280
     1
281
     0
  0
BLOCK_RECORD
  5
2844
330
2760
100
AcDbSymbolTableRecord
100
AcDbBlockTableRecord
  2
*U21
340
0
102
{BLKREFS
331
1289
102
}
 70
     0
280
     1
281
     0
  0
BLOCK_RECORD
  5
2846
330
2760
100
AcDbSymbolTableRecord
100
AcDbBlockTableRecord
  2
*D22
340
0
 70
     0
280
     1
281
     0
  0
BLOCK_RECORD
  5
2848
330
2760
100
AcDbSymbolTableRecord
100
AcDbBlockTableRecord
  2
*U23
340
0
102
{BLKREFS
331
1419
102
}
 70
     0
280
     1
281
     0
  0
BLOCK_RECORD
  5
284A
330
2760
100
AcDbSymbolTableRecord
100
AcDbBlockTableRecord
  2
*D24
340
0
 70
     0
280
     1
281
     0
  0
BLOCK_RECORD
  5
284C
330
2760
100
AcDbSymbolTableRecord
100
AcDbBlockTableRecord
  2
*U25
340
0
102
{BLKREFS
331
1425
102
}
 70
     0
280
     1
281
     0
  0
BLOCK_RECORD
  5
284E
330
2760
100
AcDbSymbolTableRecord
100
AcDbBlockTableRecord
  2
*D26
340
0
 70
     0
280
     1
281
     0
  0
BLOCK_RECORD
  5
2850
330
2760
100
AcDbSymbolTableRecord
100
AcDbBlockTableRecord
  2
*U27
340
0
102
{BLKREFS
331
1431
102
}
 70
     0
280
     1
281
     0
  0
BLOCK_RECORD
  5
2852
330
2760
100
AcDbSymbolTableRecord
100
AcDbBlockTableRecord
  2
*D28
340
0
 70
     0
280
     1
281
     0
  0
BLOCK_RECORD
  5
2854
330
2760
100
AcDbSymbolTableRecord
100
AcDbBlockTableRecord
  2
*U29
340
0
102
{BLKREFS
331
143D
102
}
 70
     0
280
     1
281
     0
  0
BLOCK_RECORD
  5
2856
330
2760
100
AcDbSymbolTableRecord
100
AcDbBlockTableRecord
  2
*D30
340
0
 70
     0
280
     1
281
     0
  0
BLOCK_RECORD
  5
2858
330
2760
100
AcDbSymbolTableRecord
100
AcDbBlockTableRecord
  2
*U31
340
0
102
{BLKREFS
331
1670
102
}
 70
     0
280
     1
281
     0
  0
BLOCK_RECORD
  5
285A
330
2760
100
AcDbSymbolTableRecord
100
AcDbBlockTableRecord
  2
*D32
340
0
 70
     0
280
     1
281
     0
  0
BLOCK_RECORD
  5
285C
330
2760
100
AcDbSymbolTableRecord
100
AcDbBlockTableRecord
  2
*U33
340
0
102
{BLKREFS
331
1679
102
}
 70
     0
280
     1
281
     0
  0
BLOCK_RECORD
  5
285E
330
2760
100
AcDbSymbolTableRecord
100
AcDbBlockTableRecord
  2
*D34
340
0
 70
     0
280
     1
281
     0
  0
BLOCK_RECORD
  5
2860
330
2760
100
AcDbSymbolTableRecord
100
AcDbBlockTableRecord
  2
*U35
340
0
102
{BLKREFS
331
1682
102
}
 70
     0
280
     1
281
     0
  0
BLOCK_RECORD
  5
2862
330
2760
100
AcDbSymbolTableRecord
100
AcDbBlockTableRecord
  2
*D36
340
0
 70
     0
280
     1
281
     0
  0
BLOCK_RECORD
  5
2864
330
2760
100
AcDbSymbolTableRecord
100
AcDbBlockTableRecord
  2
*U37
340
0
102
{BLKREFS
331
168B
102
}
 70
     0
280
     1
281
     0
  0
BLOCK_RECORD
  5
2866
330
2760
100
AcDbSymbolTableRecord
100
AcDbBlockTableRecord
  2
*U38
340
0
 70
     0
280
     1
281
     0
  0
BLOCK_RECORD
  5
2868
330
2760
100
AcDbSymbolTableRecord
100
AcDbBlockTableRecord
  2
*D39
340
0
 70
     0
280
     1
281
     0
  0
BLOCK_RECORD
  5
286A
330
2760
100
AcDbSymbolTableRecord
100
AcDbBlockTableRecord
  2
*U40
340
0
102
{BLKREFS
331
1698
102
}
 70
     0
280
     1
281
     0
  0
BLOCK_RECORD
  5
286C
330
2760
100
AcDbSymbolTableRecord
100
AcDbBlockTableRecord
  2
*D41
340
0
 70
     0
280
     1
281
     0
  0
BLOCK_RECORD
  5
286E
330
2760
100
AcDbSymbolTableRecord
100
AcDbBlockTableRecord
  2
*U42
340
0
102
{BLKREFS
331
16A5
102
}
 70
     0
280
     1
281
     0
  0
BLOCK_RECORD
  5
2870
330
2760
100
AcDbSymbolTableRecord
100
AcDbBlockTableRecord
  2
*D43
340
0
 70
     0
280
     1
281
     0
  0
BLOCK_RECORD
  5
2872
330
2760
100
AcDbSymbolTableRecord
100
AcDbBlockTableRecord
  2
*U44
340
0
102
{BLKREFS
331
16B1
102
}
 70
     0
280
     1
281
     0
  0
BLOCK_RECORD
  5
2874
330
2760
100
AcDbSymbolTableRecord
100
AcDbBlockTableRecord
  2
*D45
340
0
 70
     0
280
     1
281
     0
  0
BLOCK_RECORD
  5
2876
330
2760
100
AcDbSymbolTableRecord
100
AcDbBlockTableRecord
  2
*U46
340
0
102
{BLKREFS
331
16BD
102
}
 70
     0
280
     1
281
     0
  0
BLOCK_RECORD
  5
2878
330
2760
100
AcDbSymbolTableRecord
100
AcDbBlockTableRecord
  2
*D47
340
0
 70
     0
280
     1
281
     0
  0
BLOCK_RECORD
  5
287A
330
2760
100
AcDbSymbolTableRecord
100
AcDbBlockTableRecord
  2
*U48
340
0
102
{BLKREFS
331
16C9
102
}
 70
     0
280
     1
281
     0
  0
BLOCK_RECORD
  5
287C
330
2760
100
AcDbSymbolTableRecord
100
AcDbBlockTableRecord
  2
*D49
340
0
 70
     0
280
     1
281
     0
  0
BLOCK_RECORD
  5
287E
330
2760
100
AcDbSymbolTableRecord
100
AcDbBlockTableRecord
  2
*U50
340
0
102
{BLKREFS
331
16D5
102
}
 70
     0
280
     1
281
     0
  0
BLOCK_RECORD
  5
2880
330
2760
100
AcDbSymbolTableRecord
100
AcDbBlockTableRecord
  2
*D51
340
0
 70
     0
280
     1
281
     0
  0
BLOCK_RECORD
  5
2882
330
2760
100
AcDbSymbolTableRecord
100
AcDbBlockTableRecord
  2
*U52
340
0
102
{BLKREFS
331
1D88
102
}
 70
     0
280
     1
281
     0
  0
BLOCK_RECORD
  5
2884
330
2760
100
AcDbSymbolTableRecord
100
AcDbBlockTableRecord
  2
*D53
340
0
 70
     0
280
     1
281
     0
  0
BLOCK_RECORD
  5
2886
330
2760
100
AcDbSymbolTableRecord
100
AcDbBlockTableRecord
  2
*U54
340
0
102
{BLKREFS
331
1D91
102
}
 70
     0
280
     1
281
     0
  0
BLOCK_RECORD
  5
2888
330
2760
100
AcDbSymbolTableRecord
100
AcDbBlockTableRecord
  2
*D55
340
0
 70
     0
280
     1
281
     0
  0
BLOCK_RECORD
  5
288A
330
2760
100
AcDbSymbolTableRecord
100
AcDbBlockTableRecord
  2
*U56
340
0
102
{BLKREFS
331
1D9A
102
}
 70
     0
280
     1
281
     0
  0
BLOCK_RECORD
  5
288C
330
2760
100
AcDbSymbolTableRecord
100
AcDbBlockTableRecord
  2
*D57
340
0
 70
     0
280
     1
281
     0
  0
BLOCK_RECORD
  5
288E
330
2760
100
AcDbSymbolTableRecord
100
AcDbBlockTableRecord
  2
*U58
340
0
102
{BLKREFS
331
1DA3
102
}
 70
     0
280
     1
281
     0
  0
BLOCK_RECORD
  5
2890
330
2760
100
AcDbSymbolTableRecord
100
AcDbBlockTableRecord
  2
*D59
340
0
 70
     0
280
     1
281
     0
  0
BLOCK_RECORD
  5
2892
330
2760
100
AcDbSymbolTableRecord
100
AcDbBlockTableRecord
  2
*U60
340
0
102
{BLKREFS
331
1DAD
102
}
 70
     0
280
     1
281
     0
  0
BLOCK_RECORD
  5
2894
330
2760
100
AcDbSymbolTableRecord
100
AcDbBlockTableRecord
  2
*D61
340
0
 70
     0
280
     1
281
     0
  0
BLOCK_RECORD
  5
2896
330
2760
100
AcDbSymbolTableRecord
100
AcDbBlockTableRecord
  2
*U62
340
0
102
{BLKREFS
331
1DB7
102
}
 70
     0
280
     1
281
     0
  0
BLOCK_RECORD
  5
2898
330
2760
100
AcDbSymbolTableRecord
100
AcDbBlockTableRecord
  2
*U63
340
0
 70
     0
280
     1
281
     0
  0
BLOCK_RECORD
  5
289A
330
2760
100
AcDbSymbolTableRecord
100
AcDbBlockTableRecord
  2
*U64
340
0
 70
     0
280
     1
281
     0
  0
BLOCK_RECORD
  5
289C
330
2760
100
AcDbSymbolTableRecord
100
AcDbBlockTableRecord
  2
*U65
340
0
 70
     0
280
     1
281
     0
  0
BLOCK_RECORD
  5
289E
330
2760
100
AcDbSymbolTableRecord
100
AcDbBlockTableRecord
  2
*U66
340
0
 70
     0
280
     1
281
     0
  0
BLOCK_RECORD
  5
28A0
330
2760
100
AcDbSymbolTableRecord
100
AcDbBlockTableRecord
  2
*U67
340
0
 70
     0
280
     1
281
     0
  0
BLOCK_RECORD
  5
28A2
330
2760
100
AcDbSymbolTableRecord
100
AcDbBlockTableRecord
  2
*U68
340
0
 70
     0
280
     1
281
     0
  0
BLOCK_RECORD
  5
28A4
330
2760
100
AcDbSymbolTableRecord
100
AcDbBlockTableRecord
  2
*U69
340
0
 70
     0
280
     1
281
     0
  0
BLOCK_RECORD
  5
28A6
330
2760
100
AcDbSymbolTableRecord
100
AcDbBlockTableRecord
  2
*U70
340
0
 70
     0
280
     1
281
     0
  0
BLOCK_RECORD
  5
28A8
330
2760
100
AcDbSymbolTableRecord
100
AcDbBlockTableRecord
  2
*U71
340
0
 70
     0
280
     1
281
     0
  0
BLOCK_RECORD
  5
28AA
330
2760
100
AcDbSymbolTableRecord
100
AcDbBlockTableRecord
  2
*U72
340
0
 70
     0
280
     1
281
     0
  0
BLOCK_RECORD
  5
28AC
330
2760
100
AcDbSymbolTableRecord
100
AcDbBlockTableRecord
  2
*U73
340
0
 70
     0
280
     1
281
     0
  0
BLOCK_RECORD
  5
28AE
330
2760
100
AcDbSymbolTableRecord
100
AcDbBlockTableRecord
  2
*U74
340
0
 70
     0
280
     1
281
     0
  0
BLOCK_RECORD
  5
28B0
330
2760
100
AcDbSymbolTableRecord
100
AcDbBlockTableRecord
  2
*U75
340
0
 70
     0
280
     1
281
     0
  0
BLOCK_RECORD
  5
28B2
330
2760
100
AcDbSymbolTableRecord
100
AcDbBlockTableRecord
  2
*X76
340
0
 70
     0
280
     1
281
     0
  0
BLOCK_RECORD
  5
28B4
330
2760
100
AcDbSymbolTableRecord
100
AcDbBlockTableRecord
  2
*X77
340
0
 70
     0
280
     1
281
     0
  0
BLOCK_RECORD
  5
2A88
330
2760
100
AcDbSymbolTableRecord
100
AcDbBlockTableRecord
  2
*U78
340
0
 70
     0
280
     1
281
     0
  0
ENDTAB
  0
ENDSEC
  0
SECTION
  2
BLOCKS
  0
BLOCK
  5
27D4
330
27D3
100
AcDbEntity
  8
0
100
AcDbBlockBegin
  2
*Model_Space
 70
     0
 10
0.0
 20
0.0
 30
0.0
  3
*Model_Space
  1

  0
ENDBLK
  5
27D5
330
27D3
100
AcDbEntity
  8
0
100
AcDbBlockEnd
  0
BLOCK
  5
27D0
330
27CF
100
AcDbEntity
 67
     1
  8
0
100
AcDbBlockBegin
  2
*Paper_Space
 70
     0
 10
0.0
 20
0.0
 30
0.0
  3
*Paper_Space
  1

  0
ENDBLK
  5
27D1
330
27CF
100
AcDbEntity
 67
     1
  8
0
100
AcDbBlockEnd
  0
BLOCK
  5
281B
330
281A
100
AcDbEntity
  8
0
100
AcDbBlockBegin
  2
$MODEL_SPACE
 70
     0
 10
0.0
 20
0.0
 30
0.0
  3
$MODEL_SPACE
  1

  0
ENDBLK
  5
1FC1
330
281A
100
AcDbEntity
  8
0
100
AcDbBlockEnd
  0
BLOCK
  5
281D
330
281C
100
AcDbEntity
  8
0
100
AcDbBlockBegin
  2
$PAPER_SPACE
 70
     0
 10
0.0
 20
0.0
 30
0.0
  3
$PAPER_SPACE
  1

  0
ENDBLK
  5
1FBD
330
281C
100
AcDbEntity
  8
0
100
AcDbBlockEnd
  0
BLOCK
  5
281F
330
281E
100
AcDbEntity
  8
0
100
AcDbBlockBegin
  2
_ORIGIN
 70
     0
 10
0.0
 20
0.0
 30
0.0
  3
_ORIGIN
  1

  0
CIRCLE
  5
880
330
281E
100
AcDbEntity
  8
0
  6
Continuous
 62
     7
100
AcDbCircle
 10
0.0
 20
0.0
 30
0.0
 40
0.5
  0
LINE
  5
881
330
281E
100
AcDbEntity
  8
0
  6
Continuous
 62
     7
100
AcDbLine
 10
0.0
 20
0.0
 30
0.0
 11
-1.0
 21
0.0
 31
0.0
  0
ENDBLK
  5
882
330
281E
100
AcDbEntity
  8
0
100
AcDbBlockEnd
  0
BLOCK
  5
2821
330
2820
100
AcDbEntity
  8
0
 62
     1
100
AcDbBlockBegin
  2
_DOTBLANK
 70
     0
 10
0.0
 20
0.0
 30
0.0
  3
_DOTBLANK
  1

  0
CIRCLE
  5
AB3
330
2820
100
AcDbEntity
  8
0
  6
ByBlock
 62
     0
100
AcDbCircle
 10
0.0
 20
0.0
 30
0.0
 40
0.5
  0
LINE
  5
AB4
330
2820
100
AcDbEntity
  8
0
  6
ByBlock
 62
     0
100
AcDbLine
 10
-0.5
 20
0.0
 30
0.0
 11
-1.0
 21
0.0
 31
0.0
  0
ENDBLK
  5
AB6
330
2820
100
AcDbEntity
  8
0
 62
     1
100
AcDbBlockEnd
  0
BLOCK
  5
2823
330
2822
100
AcDbEntity
  8
0
 62
     1
100
AcDbBlockBegin
  2
_OPEN30
 70
     0
 10
0.0
 20
0.0
 30
0.0
  3
_OPEN30
  1

  0
LINE
  5
AB8
330
2822
100
AcDbEntity
  8
0
  6
ByBlock
 62
     0
100
AcDbLine
 10
-1.0
 20
0.26794919
 30
0.0
 11
0.0
 21
0.0
 31
0.0
  0
LINE
  5
AB9
330
2822
100
AcDbEntity
  8
0
  6
ByBlock
 62
     0
100
AcDbLine
 10
0.0
 20
0.0
 30
0.0
 11
-1.0
 21
-0.26794919
 31
0.0
  0
LINE
  5
ABA
330
2822
100
AcDbEntity
  8
0
  6
ByBlock
 62
     0
100
AcDbLine
 10
0.0
 20
0.0
 30
0.0
 11
-1.0
 21
0.0
 31
0.0
  0
ENDBLK
  5
ABC
330
2822
100
AcDbEntity
  8
0
 62
     1
100
AcDbBlockEnd
  0
BLOCK
  5
2825
330
2824
100
AcDbEntity
  8
0
100
AcDbBlockBegin
  2
*D5
 70
     1
 10
0.0
 20
0.0
 30
0.0
  3
*D5
  1

  0
LINE
  5
1296
330
2824
100
AcDbEntity
  8
SIZE
 62
     0
100
AcDbLine
 10
-134.5
 20
-320.0
 30
0.0
 11
-134.5
 21
-468.0173952306001
 31
0.0
  0
LINE
  5
1297
330
2824
100
AcDbEntity
  8
SIZE
 62
     0
100
AcDbLine
 10
134.5
 20
-320.0
 30
0.0
 11
134.5
 21
-468.0173952306001
 31
0.0
  0
LINE
  5
1298
330
2824
100
AcDbEntity
  8
SIZE
 62
     0
100
AcDbLine
 10
-122.5
 20
-448.0173952306
 30
0.0
 11
122.5
 21
-448.0173952306
 31
0.0
  0
INSERT
  5
1299
330
2824
100
AcDbEntity
  8
SIZE
 62
     0
100
AcDbBlockReference
  2
_DOTBLANK
 10
-134.5
 20
-448.0173952306
 30
0.0
 41
12.0
 42
12.0
 43
12.0
 50
180.0
  0
INSERT
  5
129A
330
2824
100
AcDbEntity
  8
SIZE
 62
     0
100
AcDbBlockReference
  2
_DOTBLANK
 10
134.5
 20
-448.0173952306
 30
0.0
 41
12.0
 42
12.0
 43
12.0
  0
INSERT
  5
129B
330
2824
100
AcDbEntity
  8
0
100
AcDbBlockReference
  2
*U6
 10
0.0
 20
0.0
 30
0.0
  0
POINT
  5
129C
330
2824
100
AcDbEntity
  8
DEFPOINTS
 62
     0
100
AcDbPoint
 10
-134.5
 20
-300.0
 30
0.0
  0
POINT
  5
129D
330
2824
100
AcDbEntity
  8
DEFPOINTS
 62
     0
100
AcDbPoint
 10
134.5
 20
-300.0
 30
0.0
  0
POINT
  5
129E
330
2824
100
AcDbEntity
  8
DEFPOINTS
 62
     0
100
AcDbPoint
 10
134.5
 20
-448.0173952306
 30
0.0
  0
ENDBLK
  5
D72
330
2824
100
AcDbEntity
  8
0
100
AcDbBlockEnd
  0
BLOCK
  5
2827
330
2826
100
AcDbEntity
  8
0
100
AcDbBlockBegin
  2
*U6
 70
     1
 10
0.0
 20
0.0
 30
0.0
  3
*U6
  1

  0
TEXT
  5
1EF5
330
2826
100
AcDbEntity
  8
SIZE
 62
     0
100
AcDbText
 10
-72.68571428571426
 20
-438.0173952305999
 30
0.0
 40
64.0
  1
269
 41
0.9
100
AcDbText
  0
ENDBLK
  5
1EF7
330
2826
100
AcDbEntity
  8
0
100
AcDbBlockEnd
  0
BLOCK
  5
2829
330
2828
100
AcDbEntity
  8
0
100
AcDbBlockBegin
  2
*D7
 70
     1
 10
0.0
 20
0.0
 30
0.0
  3
*D7
  1

  0
LINE
  5
11A7
330
2828
100
AcDbEntity
  8
SIZE
  6
Continuous
 62
     0
100
AcDbLine
 10
143.5
 20
-300.0
 30
0.0
 11
304.6432844803791
 21
-300.0
 31
0.0
  0
LINE
  5
11A8
330
2828
100
AcDbEntity
  8
SIZE
  6
Continuous
 62
     0
100
AcDbLine
 10
177.5
 20
-0.0000000000000057
 30
0.0
 11
304.6432844803792
 21
-0.0000000000000417
 31
0.0
  0
LINE
  5
11A9
330
2828
100
AcDbEntity
  8
SIZE
  6
Continuous
 62
     0
100
AcDbLine
 10
284.6432844803791
 20
-288.0000000000001
 30
0.0
 11
284.6432844803792
 21
-12.00000000000003
 31
0.0
  0
INSERT
  5
11AA
330
2828
100
AcDbEntity
  8
SIZE
  6
Continuous
 62
     0
100
AcDbBlockReference
  2
_DOTBLANK
 10
284.6432844803791
 20
-300.0
 30
0.0
 41
12.0
 42
12.0
 43
12.0
 50
270.0
  0
INSERT
  5
11AB
330
2828
100
AcDbEntity
  8
SIZE
  6
Continuous
 62
     0
100
AcDbBlockReference
  2
_DOTBLANK
 10
284.6432844803792
 20
-0.000000000000036
 30
0.0
 41
12.0
 42
12.0
 43
12.0
 50
90.0
  0
INSERT
  5
11AC
330
2828
100
AcDbEntity
  8
0
100
AcDbBlockReference
  2
*U8
 10
0.0
 20
0.0
 30
0.0
  0
POINT
  5
11AD
330
2828
100
AcDbEntity
  8
DEFPOINTS
  6
Continuous
 62
     0
100
AcDbPoint
 10
123.5
 20
-300.0
 30
0.0
  0
POINT
  5
11AE
330
2828
100
AcDbEntity
  8
DEFPOINTS
  6
Continuous
 62
     0
100
AcDbPoint
 10
157.5
 20
0.0
 30
0.0
  0
POINT
  5
11AF
330
2828
100
AcDbEntity
  8
DEFPOINTS
  6
Continuous
 62
     0
100
AcDbPoint
 10
284.6432844803792
 20
-0.000000000000036
 30
0.0
  0
ENDBLK
  5
E11
330
2828
100
AcDbEntity
  8
0
100
AcDbBlockEnd
  0
BLOCK
  5
282B
330
282A
100
AcDbEntity
  8
0
100
AcDbBlockBegin
  2
*U8
 70
     1
 10
0.0
 20
0.0
 30
0.0
  3
*U8
  1

  0
TEXT
  5
1EE1
330
282A
100
AcDbEntity
  8
SIZE
 62
     0
100
AcDbText
 10
274.6432844803792
 20
-224.0571428571429
 30
0.0
 40
64.0
  1
300
 50
90.0
 41
0.9
100
AcDbText
  0
ENDBLK
  5
1EE3
330
282A
100
AcDbEntity
  8
0
100
AcDbBlockEnd
  0
BLOCK
  5
282D
330
282C
100
AcDbEntity
  8
0
100
AcDbBlockBegin
  2
*D9
 70
     1
 10
0.0
 20
0.0
 30
0.0
  3
*D9
  1

  0
LINE
  5
E7D
330
282C
100
AcDbEntity
  8
SIZE
 62
     0
100
AcDbLine
 10
-139.9999999999998
 20
32.46448280219375
 30
0.0
 11
-139.9999999999998
 21
136.4516878685508
 31
0.0
  0
LINE
  5
E7E
330
282C
100
AcDbEntity
  8
SIZE
 62
     0
100
AcDbLine
 10
140.0
 20
32.46448280219375
 30
0.0
 11
140.0
 21
136.4516878685508
 31
0.0
  0
LINE
  5
E7F
330
282C
100
AcDbEntity
  8
SIZE
 62
     0
100
AcDbLine
 10
-128.0
 20
116.4516878685508
 30
0.0
 11
128.0
 21
116.4516878685508
 31
0.0
  0
INSERT
  5
E80
330
282C
100
AcDbEntity
  8
SIZE
 62
     0
100
AcDbBlockReference
  2
_DOTBLANK
 10
-139.9999999999998
 20
116.4516878685508
 30
0.0
 41
12.0
 42
12.0
 43
12.0
 50
180.0
  0
INSERT
  5
E81
330
282C
100
AcDbEntity
  8
SIZE
 62
     0
100
AcDbBlockReference
  2
_DOTBLANK
 10
140.0
 20
116.4516878685508
 30
0.0
 41
12.0
 42
12.0
 43
12.0
  0
INSERT
  5
E82
330
282C
100
AcDbEntity
  8
0
100
AcDbBlockReference
  2
*U10
 10
0.0
 20
0.0
 30
0.0
  0
POINT
  5
E83
330
282C
100
AcDbEntity
  8
DEFPOINTS
 62
     0
100
AcDbPoint
 10
-139.9999999999998
 20
12.46448280219374
 30
0.0
  0
POINT
  5
E84
330
282C
100
AcDbEntity
  8
DEFPOINTS
 62
     0
100
AcDbPoint
 10
140.0
 20
12.46448280219374
 30
0.0
  0
POINT
  5
E85
330
282C
100
AcDbEntity
  8
DEFPOINTS
 62
     0
100
AcDbPoint
 10
140.0
 20
116.4516878685508
 30
0.0
  0
ENDBLK
  5
E7C
330
282C
100
AcDbEntity
  8
0
100
AcDbBlockEnd
  0
BLOCK
  5
282F
330
282E
100
AcDbEntity
  8
0
100
AcDbBlockBegin
  2
*U10
 70
     1
 10
0.0
 20
0.0
 30
0.0
  3
*U10
  1

  0
TEXT
  5
1ED8
330
282E
100
AcDbEntity
  8
SIZE
 62
     0
100
AcDbText
 10
-74.05714285714281
 20
126.4516878685508
 30
0.0
 40
64.0
  1
280
 41
0.9
100
AcDbText
  0
ENDBLK
  5
1EDA
330
282E
100
AcDbEntity
  8
0
100
AcDbBlockEnd
  0
BLOCK
  5
2831
330
2830
100
AcDbEntity
  8
0
100
AcDbBlockBegin
  2
GENAXEH
 70
     0
 10
0.0
 20
0.0
 30
0.0
  3
GENAXEH
  1

  0
LINE
  5
FDB
330
2830
100
AcDbEntity
  8
0
100
AcDbLine
 10
-1.0
 20
0.0
 30
0.0
 11
1.0
 21
0.0
 31
0.0
  0
ENDBLK
  5
FDD
330
2830
100
AcDbEntity
  8
0
100
AcDbBlockEnd
  0
BLOCK
  5
2833
330
2832
100
AcDbEntity
  8
0
100
AcDbBlockBegin
  2
*D12
 70
     1
 10
0.0
 20
0.0
 30
0.0
  3
*D12
  1

  0
LINE
  5
1120
330
2832
100
AcDbEntity
  8
SIZE
 62
     0
100
AcDbLine
 10
-157.5
 20
20.0
 30
0.0
 11
-157.5
 21
245.5794621189598
 31
0.0
  0
LINE
  5
1121
330
2832
100
AcDbEntity
  8
SIZE
 62
     0
100
AcDbLine
 10
157.5
 20
20.0
 30
0.0
 11
157.5
 21
245.5794621189598
 31
0.0
  0
LINE
  5
1122
330
2832
100
AcDbEntity
  8
SIZE
 62
     0
100
AcDbLine
 10
-145.5
 20
225.5794621189598
 30
0.0
 11
145.5
 21
225.5794621189598
 31
0.0
  0
INSERT
  5
1123
330
2832
100
AcDbEntity
  8
SIZE
 62
     0
100
AcDbBlockReference
  2
_DOTBLANK
 10
-157.5
 20
225.5794621189598
 30
0.0
 41
12.0
 42
12.0
 43
12.0
 50
180.0
  0
INSERT
  5
1124
330
2832
100
AcDbEntity
  8
SIZE
 62
     0
100
AcDbBlockReference
  2
_DOTBLANK
 10
157.5
 20
225.5794621189598
 30
0.0
 41
12.0
 42
12.0
 43
12.0
  0
INSERT
  5
1125
330
2832
100
AcDbEntity
  8
0
100
AcDbBlockReference
  2
*U13
 10
0.0
 20
0.0
 30
0.0
  0
POINT
  5
1126
330
2832
100
AcDbEntity
  8
DEFPOINTS
 62
     0
100
AcDbPoint
 10
-157.5
 20
0.0
 30
0.0
  0
POINT
  5
1127
330
2832
100
AcDbEntity
  8
DEFPOINTS
 62
     0
100
AcDbPoint
 10
157.5
 20
0.0
 30
0.0
  0
POINT
  5
1128
330
2832
100
AcDbEntity
  8
DEFPOINTS
 62
     0
100
AcDbPoint
 10
157.5
 20
225.5794621189598
 30
0.0
  0
ENDBLK
  5
111F
330
2832
100
AcDbEntity
  8
0
100
AcDbBlockEnd
  0
BLOCK
  5
2835
330
2834
100
AcDbEntity
  8
0
100
AcDbBlockBegin
  2
*U13
 70
     1
 10
0.0
 20
0.0
 30
0.0
  3
*U13
  1

  0
TEXT
  5
1EDD
330
2834
100
AcDbEntity
  8
SIZE
 62
     0
100
AcDbText
 10
-68.57142857142857
 20
235.5794621189599
 30
0.0
 40
64.0
  1
315
 41
0.9
100
AcDbText
  0
ENDBLK
  5
1EDF
330
2834
100
AcDbEntity
  8
0
100
AcDbBlockEnd
  0
BLOCK
  5
2837
330
2836
100
AcDbEntity
  8
0
100
AcDbBlockBegin
  2
*D14
 70
     1
 10
0.0
 20
0.0
 30
0.0
  3
*D14
  1

  0
LINE
  5
11BD
330
2836
100
AcDbEntity
  8
NOTE
 62
     0
100
AcDbLine
 10
-123.4999999999999
 20
-320.0
 30
0.0
 11
-123.4999999999999
 21
-354.9529861856111
 31
0.0
  0
LINE
  5
11BE
330
2836
100
AcDbEntity
  8
NOTE
 62
     0
100
AcDbLine
 10
-133.4999999999998
 20
-331.2126909923287
 30
0.0
 11
-133.4999999999998
 21
-354.9529861856111
 31
0.0
  0
LINE
  5
11BF
330
2836
100
AcDbEntity
  8
NOTE
 62
     0
100
AcDbLine
 10
-111.4999999999999
 20
-334.9529861856112
 30
0.0
 11
-99.4999999999999
 21
-334.9529861856112
 31
0.0
  0
LINE
  5
11C0
330
2836
100
AcDbEntity
  8
NOTE
 62
     0
100
AcDbLine
 10
-145.4999999999998
 20
-334.9529861856112
 30
0.0
 11
-157.4999999999998
 21
-334.9529861856112
 31
0.0
  0
LINE
  5
11C1
330
2836
100
AcDbEntity
  8
NOTE
 62
     0
100
AcDbLine
 10
-123.4999999999999
 20
-334.9529861856112
 30
0.0
 11
-133.4999999999998
 21
-334.9529861856112
 31
0.0
  0
INSERT
  5
11C2
330
2836
100
AcDbEntity
  8
NOTE
 62
     0
100
AcDbBlockReference
  2
_DOTBLANK
 10
-123.4999999999999
 20
-334.9529861856112
 30
0.0
 41
12.0
 42
12.0
 43
12.0
 50
180.0
  0
INSERT
  5
11C3
330
2836
100
AcDbEntity
  8
NOTE
 62
     0
100
AcDbBlockReference
  2
_DOTBLANK
 10
-133.4999999999998
 20
-334.9529861856112
 30
0.0
 41
12.0
 42
12.0
 43
12.0
  0
INSERT
  5
11C4
330
2836
100
AcDbEntity
  8
0
100
AcDbBlockReference
  2
*U15
 10
0.0
 20
0.0
 30
0.0
  0
POINT
  5
11C5
330
2836
100
AcDbEntity
  8
DEFPOINTS
 62
     0
100
AcDbPoint
 10
-123.4999999999999
 20
-300.0
 30
0.0
  0
POINT
  5
11C6
330
2836
100
AcDbEntity
  8
DEFPOINTS
 62
     0
100
AcDbPoint
 10
-133.4999999999998
 20
-311.2126909923287
 30
0.0
  0
POINT
  5
11C7
330
2836
100
AcDbEntity
  8
DEFPOINTS
 62
     0
100
AcDbPoint
 10
-133.4999999999998
 20
-334.9529861856112
 30
0.0
  0
ENDBLK
  5
11BC
330
2836
100
AcDbEntity
  8
0
100
AcDbBlockEnd
  0
BLOCK
  5
2839
330
2838
100
AcDbEntity
  8
0
100
AcDbBlockBegin
  2
*U15
 70
     1
 10
0.0
 20
0.0
 30
0.0
  3
*U15
  1

  0
TEXT
  5
1EE5
330
2838
100
AcDbEntity
  8
NOTE
 62
     0
100
AcDbText
 10
-169.642857142857
 20
-324.9529861856112
 30
0.0
 40
64.0
  1
10
 41
0.9
100
AcDbText
  0
ENDBLK
  5
1EE7
330
2838
100
AcDbEntity
  8
0
100
AcDbBlockEnd
  0
BLOCK
  5
283B
330
283A
100
AcDbEntity
  8
0
100
AcDbBlockBegin
  2
*D16
 70
     1
 10
0.0
 20
0.0
 30
0.0
  3
*D16
  1

  0
LINE
  5
11E7
330
283A
100
AcDbEntity
  8
NOTE
 62
     0
100
AcDbLine
 10
-135.5
 20
-333.2126909923287
 30
0.0
 11
-135.5
 21
-386.2569421441843
 31
0.0
  0
LINE
  5
11E8
330
283A
100
AcDbEntity
  8
NOTE
 62
     0
100
AcDbLine
 10
-123.4999999999999
 20
-320.0
 30
0.0
 11
-123.4999999999999
 21
-386.2569421441843
 31
0.0
  0
LINE
  5
11E9
330
283A
100
AcDbEntity
  8
NOTE
 62
     0
100
AcDbLine
 10
-147.5
 20
-366.2569421441844
 30
0.0
 11
-159.5
 21
-366.2569421441844
 31
0.0
  0
LINE
  5
11EA
330
283A
100
AcDbEntity
  8
NOTE
 62
     0
100
AcDbLine
 10
-111.4999999999999
 20
-366.2569421441844
 30
0.0
 11
-99.4999999999999
 21
-366.2569421441844
 31
0.0
  0
LINE
  5
11EB
330
283A
100
AcDbEntity
  8
NOTE
 62
     0
100
AcDbLine
 10
-135.5
 20
-366.2569421441844
 30
0.0
 11
-123.4999999999999
 21
-366.2569421441844
 31
0.0
  0
INSERT
  5
11EC
330
283A
100
AcDbEntity
  8
NOTE
 62
     0
100
AcDbBlockReference
  2
_DOTBLANK
 10
-135.5
 20
-366.2569421441844
 30
0.0
 41
12.0
 42
12.0
 43
12.0
  0
INSERT
  5
11ED
330
283A
100
AcDbEntity
  8
NOTE
 62
     0
100
AcDbBlockReference
  2
_DOTBLANK
 10
-123.4999999999999
 20
-366.2569421441844
 30
0.0
 41
12.0
 42
12.0
 43
12.0
 50
180.0
  0
INSERT
  5
11EE
330
283A
100
AcDbEntity
  8
0
100
AcDbBlockReference
  2
*U17
 10
0.0
 20
0.0
 30
0.0
  0
POINT
  5
11EF
330
283A
100
AcDbEntity
  8
DEFPOINTS
 62
     0
100
AcDbPoint
 10
-135.5
 20
-313.2126909923287
 30
0.0
  0
POINT
  5
11F0
330
283A
100
AcDbEntity
  8
DEFPOINTS
 62
     0
100
AcDbPoint
 10
-123.4999999999999
 20
-300.0
 30
0.0
  0
POINT
  5
11F1
330
283A
100
AcDbEntity
  8
DEFPOINTS
 62
     0
100
AcDbPoint
 10
-123.4999999999999
 20
-366.2569421441844
 30
0.0
  0
ENDBLK
  5
11E6
330
283A
100
AcDbEntity
  8
0
100
AcDbBlockEnd
  0
BLOCK
  5
283D
330
283C
100
AcDbEntity
  8
0
100
AcDbBlockBegin
  2
*U17
 70
     1
 10
0.0
 20
0.0
 30
0.0
  3
*U17
  1

  0
TEXT
  5
1EE9
330
283C
100
AcDbEntity
  8
NOTE
 62
     0
100
AcDbText
 10
-170.642857142857
 20
-356.2569421441843
 30
0.0
 40
64.0
  1
12
 41
0.9
100
AcDbText
  0
ENDBLK
  5
1EEB
330
283C
100
AcDbEntity
  8
0
100
AcDbBlockEnd
  0
BLOCK
  5
283F
330
283E
100
AcDbEntity
  8
0
100
AcDbBlockBegin
  2
*D18
 70
     1
 10
0.0
 20
0.0
 30
0.0
  3
*D18
  1

  0
LINE
  5
11F6
330
283E
100
AcDbEntity
  8
NOTE
 62
     0
100
AcDbLine
 10
-123.4999999999999
 20
-320.0
 30
0.0
 11
-123.4999999999999
 21
-583.8286022818904
 31
0.0
  0
LINE
  5
11F7
330
283E
100
AcDbEntity
  8
NOTE
 62
     0
100
AcDbLine
 10
123.5
 20
-320.0
 30
0.0
 11
123.5
 21
-583.8286022818904
 31
0.0
  0
LINE
  5
11F8
330
283E
100
AcDbEntity
  8
NOTE
 62
     0
100
AcDbLine
 10
-111.4999999999999
 20
-563.8286022818904
 30
0.0
 11
111.5
 21
-563.8286022818904
 31
0.0
  0
INSERT
  5
11F9
330
283E
100
AcDbEntity
  8
NOTE
 62
     0
100
AcDbBlockReference
  2
_DOTBLANK
 10
-123.4999999999999
 20
-563.8286022818904
 30
0.0
 41
12.0
 42
12.0
 43
12.0
 50
180.0
  0
INSERT
  5
11FA
330
283E
100
AcDbEntity
  8
NOTE
 62
     0
100
AcDbBlockReference
  2
_DOTBLANK
 10
123.5
 20
-563.8286022818904
 30
0.0
 41
12.0
 42
12.0
 43
12.0
  0
INSERT
  5
11FB
330
283E
100
AcDbEntity
  8
0
100
AcDbBlockReference
  2
*U19
 10
0.0
 20
0.0
 30
0.0
  0
POINT
  5
11FC
330
283E
100
AcDbEntity
  8
DEFPOINTS
 62
     0
100
AcDbPoint
 10
-123.4999999999999
 20
-300.0
 30
0.0
  0
POINT
  5
11FD
330
283E
100
AcDbEntity
  8
DEFPOINTS
 62
     0
100
AcDbPoint
 10
123.5
 20
-300.0
 30
0.0
  0
POINT
  5
11FE
330
283E
100
AcDbEntity
  8
DEFPOINTS
 62
     0
100
AcDbPoint
 10
123.5
 20
-563.8286022818904
 30
0.0
  0
ENDBLK
  5
11F5
330
283E
100
AcDbEntity
  8
0
100
AcDbBlockEnd
  0
BLOCK
  5
2841
330
2840
100
AcDbEntity
  8
0
100
AcDbBlockBegin
  2
*U19
 70
     1
 10
0.0
 20
0.0
 30
0.0
  3
*U19
  1

  0
TEXT
  5
1EED
330
2840
100
AcDbEntity
  8
NOTE
 62
     0
100
AcDbText
 10
-74.05714285714281
 20
-553.8286022818904
 30
0.0
 40
64.0
  1
247
 41
0.9
100
AcDbText
  0
ENDBLK
  5
1EEF
330
2840
100
AcDbEntity
  8
0
100
AcDbBlockEnd
  0
BLOCK
  5
2843
330
2842
100
AcDbEntity
  8
0
100
AcDbBlockBegin
  2
*D20
 70
     1
 10
0.0
 20
0.0
 30
0.0
  3
*D20
  1

  0
LINE
  5
1284
330
2842
100
AcDbEntity
  8
NOTE
 62
     0
100
AcDbLine
 10
-123.5
 20
12.0
 30
0.0
 11
-123.5
 21
71.83630134534229
 31
0.0
  0
LINE
  5
1285
330
2842
100
AcDbEntity
  8
NOTE
 62
     0
100
AcDbLine
 10
123.5
 20
12.0
 30
0.0
 11
123.5
 21
71.83630134534229
 31
0.0
  0
LINE
  5
1286
330
2842
100
AcDbEntity
  8
NOTE
 62
     0
100
AcDbLine
 10
-111.5
 20
51.83630134534229
 30
0.0
 11
111.5
 21
51.83630134534229
 31
0.0
  0
INSERT
  5
1287
330
2842
100
AcDbEntity
  8
NOTE
 62
     0
100
AcDbBlockReference
  2
_DOTBLANK
 10
-123.5
 20
51.83630134534229
 30
0.0
 41
12.0
 42
12.0
 43
12.0
 50
180.0
  0
INSERT
  5
1288
330
2842
100
AcDbEntity
  8
NOTE
 62
     0
100
AcDbBlockReference
  2
_DOTBLANK
 10
123.5
 20
51.83630134534229
 30
0.0
 41
12.0
 42
12.0
 43
12.0
  0
INSERT
  5
1289
330
2842
100
AcDbEntity
  8
0
100
AcDbBlockReference
  2
*U21
 10
0.0
 20
0.0
 30
0.0
  0
POINT
  5
128A
330
2842
100
AcDbEntity
  8
DEFPOINTS
 62
     0
100
AcDbPoint
 10
-123.5
 20
-8.0
 30
0.0
  0
POINT
  5
128B
330
2842
100
AcDbEntity
  8
DEFPOINTS
 62
     0
100
AcDbPoint
 10
123.5
 20
-8.0
 30
0.0
  0
POINT
  5
128C
330
2842
100
AcDbEntity
  8
DEFPOINTS
 62
     0
100
AcDbPoint
 10
123.5
 20
51.83630134534229
 30
0.0
  0
ENDBLK
  5
1283
330
2842
100
AcDbEntity
  8
0
100
AcDbBlockEnd
  0
BLOCK
  5
2845
330
2844
100
AcDbEntity
  8
0
100
AcDbBlockBegin
  2
*U21
 70
     1
 10
0.0
 20
0.0
 30
0.0
  3
*U21
  1

  0
TEXT
  5
1EF1
330
2844
100
AcDbEntity
  8
NOTE
 62
     0
100
AcDbText
 10
-74.05714285714283
 20
61.83630134534229
 30
0.0
 40
64.0
  1
247
 41
0.9
100
AcDbText
  0
ENDBLK
  5
1EF3
330
2844
100
AcDbEntity
  8
0
100
AcDbBlockEnd
  0
BLOCK
  5
2847
330
2846
100
AcDbEntity
  8
0
100
AcDbBlockBegin
  2
*D22
 70
     1
 10
0.0
 20
0.0
 30
0.0
  3
*D22
  1

  0
LINE
  5
1414
330
2846
100
AcDbEntity
  8
SIZE
 62
     0
100
AcDbLine
 10
-22313.11521613997
 20
7365.702971374808
 30
0.0
 11
-22313.11521613997
 21
7217.685576144207
 31
0.0
  0
LINE
  5
1415
330
2846
100
AcDbEntity
  8
SIZE
 62
     0
100
AcDbLine
 10
-22044.11521613997
 20
7365.702971374808
 30
0.0
 11
-22044.11521613997
 21
7217.685576144207
 31
0.0
  0
LINE
  5
1416
330
2846
100
AcDbEntity
  8
SIZE
 62
     0
100
AcDbLine
 10
-22301.11521613997
 20
7237.685576144207
 30
0.0
 11
-22056.11521613997
 21
7237.685576144207
 31
0.0
  0
INSERT
  5
1417
330
2846
100
AcDbEntity
  8
SIZE
 62
     0
100
AcDbBlockReference
  2
_DOTBLANK
 10
-22313.11521613997
 20
7237.685576144207
 30
0.0
 41
12.0
 42
12.0
 43
12.0
 50
180.0
  0
INSERT
  5
1418
330
2846
100
AcDbEntity
  8
SIZE
 62
     0
100
AcDbBlockReference
  2
_DOTBLANK
 10
-22044.11521613997
 20
7237.685576144207
 30
0.0
 41
12.0
 42
12.0
 43
12.0
  0
INSERT
  5
1419
330
2846
100
AcDbEntity
  8
0
100
AcDbBlockReference
  2
*U23
 10
0.0
 20
0.0
 30
0.0
  0
POINT
  5
141A
330
2846
100
AcDbEntity
  8
DEFPOINTS
 62
     0
100
AcDbPoint
 10
-22313.11521613997
 20
7385.702971374808
 30
0.0
  0
POINT
  5
141B
330
2846
100
AcDbEntity
  8
DEFPOINTS
 62
     0
100
AcDbPoint
 10
-22044.11521613997
 20
7385.702971374808
 30
0.0
  0
POINT
  5
141C
330
2846
100
AcDbEntity
  8
DEFPOINTS
 62
     0
100
AcDbPoint
 10
-22044.11521613997
 20
7237.685576144207
 30
0.0
  0
ENDBLK
  5
141D
330
2846
100
AcDbEntity
  8
0
100
AcDbBlockEnd
  0
BLOCK
  5
2849
330
2848
100
AcDbEntity
  8
0
100
AcDbBlockBegin
  2
*U23
 70
     1
 10
0.0
 20
0.0
 30
0.0
  3
*U23
  1

  0
TEXT
  5
1EF9
330
2848
100
AcDbEntity
  8
SIZE
 62
     0
100
AcDbText
 10
-22251.30093042568
 20
7247.685576144205
 30
0.0
 40
64.0
  1
269
 41
0.9
100
AcDbText
  0
ENDBLK
  5
1EFB
330
2848
100
AcDbEntity
  8
0
100
AcDbBlockEnd
  0
BLOCK
  5
284B
330
284A
100
AcDbEntity
  8
0
100
AcDbBlockBegin
  2
*D24
 70
     1
 10
0.0
 20
0.0
 30
0.0
  3
*D24
  1

  0
LINE
  5
1420
330
284A
100
AcDbEntity
  8
SIZE
  6
Continuous
 62
     0
100
AcDbLine
 10
-22035.11521613997
 20
7385.702971374808
 30
0.0
 11
-21873.97193165959
 21
7385.702971374808
 31
0.0
  0
LINE
  5
1421
330
284A
100
AcDbEntity
  8
SIZE
  6
Continuous
 62
     0
100
AcDbLine
 10
-22001.11521613997
 20
7685.702971374808
 30
0.0
 11
-21873.97193165959
 21
7685.702971374808
 31
0.0
  0
LINE
  5
1422
330
284A
100
AcDbEntity
  8
SIZE
  6
Continuous
 62
     0
100
AcDbLine
 10
-21893.97193165959
 20
7397.702971374808
 30
0.0
 11
-21893.97193165959
 21
7673.702971374808
 31
0.0
  0
INSERT
  5
1423
330
284A
100
AcDbEntity
  8
SIZE
  6
Continuous
 62
     0
100
AcDbBlockReference
  2
_DOTBLANK
 10
-21893.97193165959
 20
7385.702971374808
 30
0.0
 41
12.0
 42
12.0
 43
12.0
 50
270.0
  0
INSERT
  5
1424
330
284A
100
AcDbEntity
  8
SIZE
  6
Continuous
 62
     0
100
AcDbBlockReference
  2
_DOTBLANK
 10
-21893.97193165959
 20
7685.702971374808
 30
0.0
 41
12.0
 42
12.0
 43
12.0
 50
90.0
  0
INSERT
  5
1425
330
284A
100
AcDbEntity
  8
0
100
AcDbBlockReference
  2
*U25
 10
0.0
 20
0.0
 30
0.0
  0
POINT
  5
1426
330
284A
100
AcDbEntity
  8
DEFPOINTS
  6
Continuous
 62
     0
100
AcDbPoint
 10
-22055.11521613997
 20
7385.702971374808
 30
0.0
  0
POINT
  5
1427
330
284A
100
AcDbEntity
  8
DEFPOINTS
  6
Continuous
 62
     0
100
AcDbPoint
 10
-22021.11521613997
 20
7685.702971374808
 30
0.0
  0
POINT
  5
1428
330
284A
100
AcDbEntity
  8
DEFPOINTS
  6
Continuous
 62
     0
100
AcDbPoint
 10
-21893.97193165959
 20
7685.702971374808
 30
0.0
  0
ENDBLK
  5
1429
330
284A
100
AcDbEntity
  8
0
100
AcDbBlockEnd
  0
BLOCK
  5
284D
330
284C
100
AcDbEntity
  8
0
100
AcDbBlockBegin
  2
*U25
 70
     1
 10
0.0
 20
0.0
 30
0.0
  3
*U25
  1

  0
TEXT
  5
1EFD
330
284C
100
AcDbEntity
  8
SIZE
 62
     0
100
AcDbText
 10
-21903.97193165959
 20
7461.645828517662
 30
0.0
 40
64.0
  1
300
 50
90.0
 41
0.9
100
AcDbText
  0
ENDBLK
  5
1EFF
330
284C
100
AcDbEntity
  8
0
100
AcDbBlockEnd
  0
BLOCK
  5
284F
330
284E
100
AcDbEntity
  8
0
100
AcDbBlockBegin
  2
*D26
 70
     1
 10
0.0
 20
0.0
 30
0.0
  3
*D26
  1

  0
LINE
  5
142C
330
284E
100
AcDbEntity
  8
SIZE
 62
     0
100
AcDbLine
 10
-22318.61521613997
 20
7718.167454177002
 30
0.0
 11
-22318.61521613997
 21
7822.154659243358
 31
0.0
  0
LINE
  5
142D
330
284E
100
AcDbEntity
  8
SIZE
 62
     0
100
AcDbLine
 10
-22038.61521613997
 20
7718.167454177002
 30
0.0
 11
-22038.61521613997
 21
7822.154659243358
 31
0.0
  0
LINE
  5
142E
330
284E
100
AcDbEntity
  8
SIZE
 62
     0
100
AcDbLine
 10
-22306.61521613997
 20
7802.154659243358
 30
0.0
 11
-22050.61521613997
 21
7802.154659243358
 31
0.0
  0
INSERT
  5
142F
330
284E
100
AcDbEntity
  8
SIZE
 62
     0
100
AcDbBlockReference
  2
_DOTBLANK
 10
-22318.61521613997
 20
7802.154659243358
 30
0.0
 41
12.0
 42
12.0
 43
12.0
 50
180.0
  0
INSERT
  5
1430
330
284E
100
AcDbEntity
  8
SIZE
 62
     0
100
AcDbBlockReference
  2
_DOTBLANK
 10
-22038.61521613997
 20
7802.154659243358
 30
0.0
 41
12.0
 42
12.0
 43
12.0
  0
INSERT
  5
1431
330
284E
100
AcDbEntity
  8
0
100
AcDbBlockReference
  2
*U27
 10
0.0
 20
0.0
 30
0.0
  0
POINT
  5
1432
330
284E
100
AcDbEntity
  8
DEFPOINTS
 62
     0
100
AcDbPoint
 10
-22318.61521613997
 20
7698.167454177002
 30
0.0
  0
POINT
  5
1433
330
284E
100
AcDbEntity
  8
DEFPOINTS
 62
     0
100
AcDbPoint
 10
-22038.61521613997
 20
7698.167454177002
 30
0.0
  0
POINT
  5
1434
330
284E
100
AcDbEntity
  8
DEFPOINTS
 62
     0
100
AcDbPoint
 10
-22038.61521613997
 20
7802.154659243358
 30
0.0
  0
ENDBLK
  5
1435
330
284E
100
AcDbEntity
  8
0
100
AcDbBlockEnd
  0
BLOCK
  5
2851
330
2850
100
AcDbEntity
  8
0
100
AcDbBlockBegin
  2
*U27
 70
     1
 10
0.0
 20
0.0
 30
0.0
  3
*U27
  1

  0
TEXT
  5
1F01
330
2850
100
AcDbEntity
  8
SIZE
 62
     0
100
AcDbText
 10
-22252.6723589971
 20
7812.154659243358
 30
0.0
 40
64.0
  1
280
 41
0.9
100
AcDbText
  0
ENDBLK
  5
1F03
330
2850
100
AcDbEntity
  8
0
100
AcDbBlockEnd
  0
BLOCK
  5
2853
330
2852
100
AcDbEntity
  8
0
100
AcDbBlockBegin
  2
*D28
 70
     1
 10
0.0
 20
0.0
 30
0.0
  3
*D28
  1

  0
LINE
  5
1438
330
2852
100
AcDbEntity
  8
SIZE
 62
     0
100
AcDbLine
 10
-22336.11521613997
 20
7705.702971374808
 30
0.0
 11
-22336.11521613997
 21
7931.282433493766
 31
0.0
  0
LINE
  5
1439
330
2852
100
AcDbEntity
  8
SIZE
 62
     0
100
AcDbLine
 10
-22021.11521613997
 20
7705.702971374808
 30
0.0
 11
-22021.11521613997
 21
7931.282433493766
 31
0.0
  0
LINE
  5
143A
330
2852
100
AcDbEntity
  8
SIZE
 62
     0
100
AcDbLine
 10
-22324.11521613997
 20
7911.282433493766
 30
0.0
 11
-22033.11521613997
 21
7911.282433493766
 31
0.0
  0
INSERT
  5
143B
330
2852
100
AcDbEntity
  8
SIZE
 62
     0
100
AcDbBlockReference
  2
_DOTBLANK
 10
-22336.11521613997
 20
7911.282433493766
 30
0.0
 41
12.0
 42
12.0
 43
12.0
 50
180.0
  0
INSERT
  5
143C
330
2852
100
AcDbEntity
  8
SIZE
 62
     0
100
AcDbBlockReference
  2
_DOTBLANK
 10
-22021.11521613997
 20
7911.282433493766
 30
0.0
 41
12.0
 42
12.0
 43
12.0
  0
INSERT
  5
143D
330
2852
100
AcDbEntity
  8
0
100
AcDbBlockReference
  2
*U29
 10
0.0
 20
0.0
 30
0.0
  0
POINT
  5
143E
330
2852
100
AcDbEntity
  8
DEFPOINTS
 62
     0
100
AcDbPoint
 10
-22336.11521613997
 20
7685.702971374808
 30
0.0
  0
POINT
  5
143F
330
2852
100
AcDbEntity
  8
DEFPOINTS
 62
     0
100
AcDbPoint
 10
-22021.11521613997
 20
7685.702971374808
 30
0.0
  0
POINT
  5
1440
330
2852
100
AcDbEntity
  8
DEFPOINTS
 62
     0
100
AcDbPoint
 10
-22021.11521613997
 20
7911.282433493766
 30
0.0
  0
ENDBLK
  5
1441
330
2852
100
AcDbEntity
  8
0
100
AcDbBlockEnd
  0
BLOCK
  5
2855
330
2854
100
AcDbEntity
  8
0
100
AcDbBlockBegin
  2
*U29
 70
     1
 10
0.0
 20
0.0
 30
0.0
  3
*U29
  1

  0
TEXT
  5
1F05
330
2854
100
AcDbEntity
  8
SIZE
 62
     0
100
AcDbText
 10
-22247.18664471139
 20
7921.282433493766
 30
0.0
 40
64.0
  1
315
 41
0.9
100
AcDbText
  0
ENDBLK
  5
1F07
330
2854
100
AcDbEntity
  8
0
100
AcDbBlockEnd
  0
BLOCK
  5
2857
330
2856
100
AcDbEntity
  8
0
100
AcDbBlockBegin
  2
*D30
 70
     1
 10
0.0
 20
0.0
 30
0.0
  3
*D30
  1

  0
LINE
  5
166B
330
2856
100
AcDbEntity
  8
SIZE
 62
     0
100
AcDbLine
 10
-134.5
 20
-320.0
 30
0.0
 11
-134.5
 21
-468.0173952306001
 31
0.0
  0
LINE
  5
166C
330
2856
100
AcDbEntity
  8
SIZE
 62
     0
100
AcDbLine
 10
134.5
 20
-320.0
 30
0.0
 11
134.5
 21
-468.0173952306001
 31
0.0
  0
LINE
  5
166D
330
2856
100
AcDbEntity
  8
SIZE
 62
     0
100
AcDbLine
 10
-122.5
 20
-448.0173952306
 30
0.0
 11
122.5
 21
-448.0173952306
 31
0.0
  0
INSERT
  5
166E
330
2856
100
AcDbEntity
  8
SIZE
 62
     0
100
AcDbBlockReference
  2
_DOTBLANK
 10
-134.5
 20
-448.0173952306
 30
0.0
 41
12.0
 42
12.0
 43
12.0
 50
180.0
  0
INSERT
  5
166F
330
2856
100
AcDbEntity
  8
SIZE
 62
     0
100
AcDbBlockReference
  2
_DOTBLANK
 10
134.5
 20
-448.0173952306
 30
0.0
 41
12.0
 42
12.0
 43
12.0
  0
INSERT
  5
1670
330
2856
100
AcDbEntity
  8
0
100
AcDbBlockReference
  2
*U31
 10
0.0
 20
0.0
 30
0.0
  0
POINT
  5
1671
330
2856
100
AcDbEntity
  8
DEFPOINTS
 62
     0
100
AcDbPoint
 10
-134.5
 20
-300.0
 30
0.0
  0
POINT
  5
1672
330
2856
100
AcDbEntity
  8
DEFPOINTS
 62
     0
100
AcDbPoint
 10
134.5
 20
-300.0
 30
0.0
  0
POINT
  5
1673
330
2856
100
AcDbEntity
  8
DEFPOINTS
 62
     0
100
AcDbPoint
 10
134.5
 20
-448.0173952306
 30
0.0
  0
ENDBLK
  5
14A7
330
2856
100
AcDbEntity
  8
0
100
AcDbBlockEnd
  0
BLOCK
  5
2859
330
2858
100
AcDbEntity
  8
0
100
AcDbBlockBegin
  2
*U31
 70
     1
 10
0.0
 20
0.0
 30
0.0
  3
*U31
  1

  0
TEXT
  5
1F09
330
2858
100
AcDbEntity
  8
SIZE
 62
     0
100
AcDbText
 10
-72.68571428571426
 20
-438.0173952306002
 30
0.0
 40
64.0
  1
269
 41
0.9
100
AcDbText
  0
ENDBLK
  5
1F0B
330
2858
100
AcDbEntity
  8
0
100
AcDbBlockEnd
  0
BLOCK
  5
285B
330
285A
100
AcDbEntity
  8
0
100
AcDbBlockBegin
  2
*D32
 70
     1
 10
0.0
 20
0.0
 30
0.0
  3
*D32
  1

  0
LINE
  5
1674
330
285A
100
AcDbEntity
  8
SIZE
  6
Continuous
 62
     0
100
AcDbLine
 10
143.5
 20
-300.0
 30
0.0
 11
304.6432844803784
 21
-300.0
 31
0.0
  0
LINE
  5
1675
330
285A
100
AcDbEntity
  8
SIZE
  6
Continuous
 62
     0
100
AcDbLine
 10
177.5
 20
-0.0000000000000057
 30
0.0
 11
304.6432844803785
 21
-0.0000000000000417
 31
0.0
  0
LINE
  5
1676
330
285A
100
AcDbEntity
  8
SIZE
  6
Continuous
 62
     0
100
AcDbLine
 10
284.6432844803784
 20
-288.0000000000001
 30
0.0
 11
284.6432844803785
 21
-12.00000000000003
 31
0.0
  0
INSERT
  5
1677
330
285A
100
AcDbEntity
  8
SIZE
  6
Continuous
 62
     0
100
AcDbBlockReference
  2
_DOTBLANK
 10
284.6432844803784
 20
-300.0
 30
0.0
 41
12.0
 42
12.0
 43
12.0
 50
270.0
  0
INSERT
  5
1678
330
285A
100
AcDbEntity
  8
SIZE
  6
Continuous
 62
     0
100
AcDbBlockReference
  2
_DOTBLANK
 10
284.6432844803785
 20
-0.000000000000036
 30
0.0
 41
12.0
 42
12.0
 43
12.0
 50
90.0
  0
INSERT
  5
1679
330
285A
100
AcDbEntity
  8
0
100
AcDbBlockReference
  2
*U33
 10
0.0
 20
0.0
 30
0.0
  0
POINT
  5
167A
330
285A
100
AcDbEntity
  8
DEFPOINTS
  6
Continuous
 62
     0
100
AcDbPoint
 10
123.5
 20
-300.0
 30
0.0
  0
POINT
  5
167B
330
285A
100
AcDbEntity
  8
DEFPOINTS
  6
Continuous
 62
     0
100
AcDbPoint
 10
157.5
 20
0.0
 30
0.0
  0
POINT
  5
167C
330
285A
100
AcDbEntity
  8
DEFPOINTS
  6
Continuous
 62
     0
100
AcDbPoint
 10
284.6432844803785
 20
-0.000000000000036
 30
0.0
  0
ENDBLK
  5
14B3
330
285A
100
AcDbEntity
  8
0
100
AcDbBlockEnd
  0
BLOCK
  5
285D
330
285C
100
AcDbEntity
  8
0
100
AcDbBlockBegin
  2
*U33
 70
     1
 10
0.0
 20
0.0
 30
0.0
  3
*U33
  1

  0
TEXT
  5
1F0D
330
285C
100
AcDbEntity
  8
SIZE
 62
     0
100
AcDbText
 10
274.6432844803785
 20
-224.0571428571429
 30
0.0
 40
64.0
  1
300
 50
90.0
 41
0.9
100
AcDbText
  0
ENDBLK
  5
1F0F
330
285C
100
AcDbEntity
  8
0
100
AcDbBlockEnd
  0
BLOCK
  5
285F
330
285E
100
AcDbEntity
  8
0
100
AcDbBlockBegin
  2
*D34
 70
     1
 10
0.0
 20
0.0
 30
0.0
  3
*D34
  1

  0
LINE
  5
167D
330
285E
100
AcDbEntity
  8
SIZE
 62
     0
100
AcDbLine
 10
-140.0
 20
32.46448280219375
 30
0.0
 11
-140.0
 21
136.4516878685507
 31
0.0
  0
LINE
  5
167E
330
285E
100
AcDbEntity
  8
SIZE
 62
     0
100
AcDbLine
 10
140.0
 20
32.46448280219375
 30
0.0
 11
140.0
 21
136.4516878685507
 31
0.0
  0
LINE
  5
167F
330
285E
100
AcDbEntity
  8
SIZE
 62
     0
100
AcDbLine
 10
-128.0
 20
116.4516878685508
 30
0.0
 11
128.0
 21
116.4516878685508
 31
0.0
  0
INSERT
  5
1680
330
285E
100
AcDbEntity
  8
SIZE
 62
     0
100
AcDbBlockReference
  2
_DOTBLANK
 10
-140.0
 20
116.4516878685508
 30
0.0
 41
12.0
 42
12.0
 43
12.0
 50
180.0
  0
INSERT
  5
1681
330
285E
100
AcDbEntity
  8
SIZE
 62
     0
100
AcDbBlockReference
  2
_DOTBLANK
 10
140.0
 20
116.4516878685508
 30
0.0
 41
12.0
 42
12.0
 43
12.0
  0
INSERT
  5
1682
330
285E
100
AcDbEntity
  8
0
100
AcDbBlockReference
  2
*U35
 10
0.0
 20
0.0
 30
0.0
  0
POINT
  5
1683
330
285E
100
AcDbEntity
  8
DEFPOINTS
 62
     0
100
AcDbPoint
 10
-140.0
 20
12.46448280219374
 30
0.0
  0
POINT
  5
1684
330
285E
100
AcDbEntity
  8
DEFPOINTS
 62
     0
100
AcDbPoint
 10
140.0
 20
12.46448280219374
 30
0.0
  0
POINT
  5
1685
330
285E
100
AcDbEntity
  8
DEFPOINTS
 62
     0
100
AcDbPoint
 10
140.0
 20
116.4516878685508
 30
0.0
  0
ENDBLK
  5
14BF
330
285E
100
AcDbEntity
  8
0
100
AcDbBlockEnd
  0
BLOCK
  5
2861
330
2860
100
AcDbEntity
  8
0
100
AcDbBlockBegin
  2
*U35
 70
     1
 10
0.0
 20
0.0
 30
0.0
  3
*U35
  1

  0
TEXT
  5
1F11
330
2860
100
AcDbEntity
  8
SIZE
 62
     0
100
AcDbText
 10
-74.05714285714283
 20
126.4516878685507
 30
0.0
 40
64.0
  1
280
 41
0.9
100
AcDbText
  0
ENDBLK
  5
1F13
330
2860
100
AcDbEntity
  8
0
100
AcDbBlockEnd
  0
BLOCK
  5
2863
330
2862
100
AcDbEntity
  8
0
100
AcDbBlockBegin
  2
*D36
 70
     1
 10
0.0
 20
0.0
 30
0.0
  3
*D36
  1

  0
LINE
  5
1686
330
2862
100
AcDbEntity
  8
SIZE
 62
     0
100
AcDbLine
 10
-157.5
 20
20.0
 30
0.0
 11
-157.5
 21
245.5794621189598
 31
0.0
  0
LINE
  5
1687
330
2862
100
AcDbEntity
  8
SIZE
 62
     0
100
AcDbLine
 10
157.5
 20
20.0
 30
0.0
 11
157.5
 21
245.5794621189598
 31
0.0
  0
LINE
  5
1688
330
2862
100
AcDbEntity
  8
SIZE
 62
     0
100
AcDbLine
 10
-145.5
 20
225.5794621189598
 30
0.0
 11
145.5
 21
225.5794621189598
 31
0.0
  0
INSERT
  5
1689
330
2862
100
AcDbEntity
  8
SIZE
 62
     0
100
AcDbBlockReference
  2
_DOTBLANK
 10
-157.5
 20
225.5794621189598
 30
0.0
 41
12.0
 42
12.0
 43
12.0
 50
180.0
  0
INSERT
  5
168A
330
2862
100
AcDbEntity
  8
SIZE
 62
     0
100
AcDbBlockReference
  2
_DOTBLANK
 10
157.5
 20
225.5794621189598
 30
0.0
 41
12.0
 42
12.0
 43
12.0
  0
INSERT
  5
168B
330
2862
100
AcDbEntity
  8
0
100
AcDbBlockReference
  2
*U37
 10
0.0
 20
0.0
 30
0.0
  0
POINT
  5
168C
330
2862
100
AcDbEntity
  8
DEFPOINTS
 62
     0
100
AcDbPoint
 10
-157.5
 20
0.0
 30
0.0
  0
POINT
  5
168D
330
2862
100
AcDbEntity
  8
DEFPOINTS
 62
     0
100
AcDbPoint
 10
157.5
 20
0.0
 30
0.0
  0
POINT
  5
168E
330
2862
100
AcDbEntity
  8
DEFPOINTS
 62
     0
100
AcDbPoint
 10
157.5
 20
225.5794621189598
 30
0.0
  0
ENDBLK
  5
14CB
330
2862
100
AcDbEntity
  8
0
100
AcDbBlockEnd
  0
BLOCK
  5
2865
330
2864
100
AcDbEntity
  8
0
100
AcDbBlockBegin
  2
*U37
 70
     1
 10
0.0
 20
0.0
 30
0.0
  3
*U37
  1

  0
TEXT
  5
1F15
330
2864
100
AcDbEntity
  8
SIZE
 62
     0
100
AcDbText
 10
-68.57142857142857
 20
235.5794621189598
 30
0.0
 40
64.0
  1
315
 41
0.9
100
AcDbText
  0
ENDBLK
  5
1F17
330
2864
100
AcDbEntity
  8
0
100
AcDbBlockEnd
  0
BLOCK
  5
2867
330
2866
100
AcDbEntity
  8
0
100
AcDbBlockBegin
  2
*U38
 70
     1
 10
0.0
 20
0.0
 30
0.0
  3
*U38
  1

  0
ENDBLK
  5
15CF
330
2866
100
AcDbEntity
  8
0
100
AcDbBlockEnd
  0
BLOCK
  5
2869
330
2868
100
AcDbEntity
  8
0
100
AcDbBlockBegin
  2
*D39
 70
     1
 10
0.0
 20
0.0
 30
0.0
  3
*D39
  1

  0
LINE
  5
1692
330
2868
100
AcDbEntity
  8
SIZE
 62
     0
100
AcDbLine
 10
-25844.51823276502
 20
7685.702971374808
 30
0.0
 11
-25981.04465488371
 21
7685.702971374808
 31
0.0
  0
LINE
  5
1693
330
2868
100
AcDbEntity
  8
SIZE
 62
     0
100
AcDbLine
 10
-25844.51823276502
 20
7677.702971374808
 30
0.0
 11
-25981.04465488371
 21
7677.702971374808
 31
0.0
  0
LINE
  5
1694
330
2868
100
AcDbEntity
  8
SIZE
 62
     0
100
AcDbLine
 10
-25961.04465488371
 20
7697.702971374808
 30
0.0
 11
-25961.04465488371
 21
7709.702971374809
 31
0.0
  0
LINE
  5
1695
330
2868
100
AcDbEntity
  8
SIZE
 62
     0
100
AcDbLine
 10
-25961.04465488371
 20
7665.70297137481
 30
0.0
 11
-25961.04465488371
 21
7595.302971374808
 31
0.0
  0
INSERT
  5
1696
330
2868
100
AcDbEntity
  8
SIZE
 62
     0
100
AcDbBlockReference
  2
_DOTBLANK
 10
-25961.04465488371
 20
7685.702971374808
 30
0.0
 41
12.0
 42
12.0
 43
12.0
 50
270.0
  0
INSERT
  5
1697
330
2868
100
AcDbEntity
  8
SIZE
 62
     0
100
AcDbBlockReference
  2
_DOTBLANK
 10
-25961.04465488371
 20
7677.702971374808
 30
0.0
 41
12.0
 42
12.0
 43
12.0
 50
90.0
  0
INSERT
  5
1698
330
2868
100
AcDbEntity
  8
0
100
AcDbBlockReference
  2
*U40
 10
0.0
 20
0.0
 30
0.0
  0
POINT
  5
1699
330
2868
100
AcDbEntity
  8
DEFPOINTS
 62
     0
100
AcDbPoint
 10
-25824.51823276501
 20
7685.702971374808
 30
0.0
  0
POINT
  5
169A
330
2868
100
AcDbEntity
  8
DEFPOINTS
 62
     0
100
AcDbPoint
 10
-25824.51823276501
 20
7677.702971374808
 30
0.0
  0
POINT
  5
169B
330
2868
100
AcDbEntity
  8
DEFPOINTS
 62
     0
100
AcDbPoint
 10
-25961.04465488371
 20
7677.702971374808
 30
0.0
  0
ENDBLK
  5
169C
330
2868
100
AcDbEntity
  8
0
100
AcDbBlockEnd
  0
BLOCK
  5
286B
330
286A
100
AcDbEntity
  8
0
100
AcDbBlockBegin
  2
*U40
 70
     1
 10
0.0
 20
0.0
 30
0.0
  3
*U40
  1

  0
TEXT
  5
1F19
330
286A
100
AcDbEntity
  8
SIZE
 62
     0
100
AcDbText
 10
-25971.04465488371
 20
7605.302971374804
 30
0.0
 40
64.0
  1
8
 50
90.0
 41
0.9
100
AcDbText
  0
ENDBLK
  5
1F1B
330
286A
100
AcDbEntity
  8
0
100
AcDbBlockEnd
  0
BLOCK
  5
286D
330
286C
100
AcDbEntity
  8
0
100
AcDbBlockBegin
  2
*D41
 70
     1
 10
0.0
 20
0.0
 30
0.0
  3
*D41
  1

  0
LINE
  5
169F
330
286C
100
AcDbEntity
  8
SIZE
 62
     0
100
AcDbLine
 10
-25512.51823276502
 20
7385.702971374808
 30
0.0
 11
-25362.37494828464
 21
7385.702971374808
 31
0.0
  0
LINE
  5
16A0
330
286C
100
AcDbEntity
  8
SIZE
 62
     0
100
AcDbLine
 10
-25523.51823276501
 20
7373.702971374808
 30
0.0
 11
-25362.37494828464
 21
7373.702971374808
 31
0.0
  0
LINE
  5
16A1
330
286C
100
AcDbEntity
  8
SIZE
 62
     0
100
AcDbLine
 10
-25382.37494828464
 20
7397.702971374808
 30
0.0
 11
-25382.37494828464
 21
7409.70297137481
 31
0.0
  0
LINE
  5
16A2
330
286C
100
AcDbEntity
  8
SIZE
 62
     0
100
AcDbLine
 10
-25382.37494828464
 20
7361.702971374808
 30
0.0
 11
-25382.37494828464
 21
7244.674399946237
 31
0.0
  0
INSERT
  5
16A3
330
286C
100
AcDbEntity
  8
SIZE
 62
     0
100
AcDbBlockReference
  2
_DOTBLANK
 10
-25382.37494828464
 20
7385.702971374808
 30
0.0
 41
12.0
 42
12.0
 43
12.0
 50
270.0
  0
INSERT
  5
16A4
330
286C
100
AcDbEntity
  8
SIZE
 62
     0
100
AcDbBlockReference
  2
_DOTBLANK
 10
-25382.37494828464
 20
7373.702971374808
 30
0.0
 41
12.0
 42
12.0
 43
12.0
 50
90.0
  0
INSERT
  5
16A5
330
286C
100
AcDbEntity
  8
0
100
AcDbBlockReference
  2
*U42
 10
0.0
 20
0.0
 30
0.0
  0
POINT
  5
16A6
330
286C
100
AcDbEntity
  8
DEFPOINTS
 62
     0
100
AcDbPoint
 10
-25532.51823276502
 20
7385.702971374808
 30
0.0
  0
POINT
  5
16A7
330
286C
100
AcDbEntity
  8
DEFPOINTS
 62
     0
100
AcDbPoint
 10
-25543.51823276502
 20
7373.702971374808
 30
0.0
  0
POINT
  5
16A8
330
286C
100
AcDbEntity
  8
DEFPOINTS
 62
     0
100
AcDbPoint
 10
-25382.37494828464
 20
7373.702971374808
 30
0.0
  0
ENDBLK
  5
16A9
330
286C
100
AcDbEntity
  8
0
100
AcDbBlockEnd
  0
BLOCK
  5
286F
330
286E
100
AcDbEntity
  8
0
100
AcDbBlockBegin
  2
*U42
 70
     1
 10
0.0
 20
0.0
 30
0.0
  3
*U42
  1

  0
TEXT
  5
1F1D
330
286E
100
AcDbEntity
  8
SIZE
 62
     0
100
AcDbText
 10
-25392.37494828464
 20
7256.045828517662
 30
0.0
 40
64.0
  1
12
 50
90.0
 41
0.9
100
AcDbText
  0
ENDBLK
  5
1F1F
330
286E
100
AcDbEntity
  8
0
100
AcDbBlockEnd
  0
BLOCK
  5
2871
330
2870
100
AcDbEntity
  8
0
100
AcDbBlockBegin
  2
*D43
 70
     1
 10
0.0
 20
0.0
 30
0.0
  3
*D43
  1

  0
LINE
  5
16AC
330
2870
100
AcDbEntity
  8
SIZE
 62
     0
100
AcDbLine
 10
-25801.51823276501
 20
7365.702971374808
 30
0.0
 11
-25801.51823276501
 21
7217.685576144207
 31
0.0
  0
LINE
  5
16AD
330
2870
100
AcDbEntity
  8
SIZE
 62
     0
100
AcDbLine
 10
-25532.51823276502
 20
7365.702971374808
 30
0.0
 11
-25532.51823276502
 21
7217.685576144207
 31
0.0
  0
LINE
  5
16AE
330
2870
100
AcDbEntity
  8
SIZE
 62
     0
100
AcDbLine
 10
-25789.51823276502
 20
7237.685576144207
 30
0.0
 11
-25544.51823276501
 21
7237.685576144207
 31
0.0
  0
INSERT
  5
16AF
330
2870
100
AcDbEntity
  8
SIZE
 62
     0
100
AcDbBlockReference
  2
_DOTBLANK
 10
-25801.51823276501
 20
7237.685576144207
 30
0.0
 41
12.0
 42
12.0
 43
12.0
 50
180.0
  0
INSERT
  5
16B0
330
2870
100
AcDbEntity
  8
SIZE
 62
     0
100
AcDbBlockReference
  2
_DOTBLANK
 10
-25532.51823276502
 20
7237.685576144207
 30
0.0
 41
12.0
 42
12.0
 43
12.0
  0
INSERT
  5
16B1
330
2870
100
AcDbEntity
  8
0
100
AcDbBlockReference
  2
*U44
 10
0.0
 20
0.0
 30
0.0
  0
POINT
  5
16B2
330
2870
100
AcDbEntity
  8
DEFPOINTS
 62
     0
100
AcDbPoint
 10
-25801.51823276501
 20
7385.702971374808
 30
0.0
  0
POINT
  5
16B3
330
2870
100
AcDbEntity
  8
DEFPOINTS
 62
     0
100
AcDbPoint
 10
-25532.51823276502
 20
7385.702971374808
 30
0.0
  0
POINT
  5
16B4
330
2870
100
AcDbEntity
  8
DEFPOINTS
 62
     0
100
AcDbPoint
 10
-25532.51823276502
 20
7237.685576144207
 30
0.0
  0
ENDBLK
  5
16B5
330
2870
100
AcDbEntity
  8
0
100
AcDbBlockEnd
  0
BLOCK
  5
2873
330
2872
100
AcDbEntity
  8
0
100
AcDbBlockBegin
  2
*U44
 70
     1
 10
0.0
 20
0.0
 30
0.0
  3
*U44
  1

  0
TEXT
  5
1F21
330
2872
100
AcDbEntity
  8
SIZE
 62
     0
100
AcDbText
 10
-25739.70394705074
 20
7247.685576144205
 30
0.0
 40
64.0
  1
269
 41
0.9
100
AcDbText
  0
ENDBLK
  5
1F23
330
2872
100
AcDbEntity
  8
0
100
AcDbBlockEnd
  0
BLOCK
  5
2875
330
2874
100
AcDbEntity
  8
0
100
AcDbBlockBegin
  2
*D45
 70
     1
 10
0.0
 20
0.0
 30
0.0
  3
*D45
  1

  0
LINE
  5
16B8
330
2874
100
AcDbEntity
  8
SIZE
 62
     0
100
AcDbLine
 10
-25512.51823276502
 20
7385.702971374808
 30
0.0
 11
-25362.37494828464
 21
7385.702971374808
 31
0.0
  0
LINE
  5
16B9
330
2874
100
AcDbEntity
  8
SIZE
 62
     0
100
AcDbLine
 10
-25489.51823276501
 20
7685.702971374808
 30
0.0
 11
-25362.37494828464
 21
7685.702971374808
 31
0.0
  0
LINE
  5
16BA
330
2874
100
AcDbEntity
  8
SIZE
 62
     0
100
AcDbLine
 10
-25382.37494828464
 20
7397.702971374808
 30
0.0
 11
-25382.37494828464
 21
7673.702971374808
 31
0.0
  0
INSERT
  5
16BB
330
2874
100
AcDbEntity
  8
SIZE
 62
     0
100
AcDbBlockReference
  2
_DOTBLANK
 10
-25382.37494828464
 20
7385.702971374808
 30
0.0
 41
12.0
 42
12.0
 43
12.0
 50
270.0
  0
INSERT
  5
16BC
330
2874
100
AcDbEntity
  8
SIZE
 62
     0
100
AcDbBlockReference
  2
_DOTBLANK
 10
-25382.37494828464
 20
7685.702971374808
 30
0.0
 41
12.0
 42
12.0
 43
12.0
 50
90.0
  0
INSERT
  5
16BD
330
2874
100
AcDbEntity
  8
0
100
AcDbBlockReference
  2
*U46
 10
0.0
 20
0.0
 30
0.0
  0
POINT
  5
16BE
330
2874
100
AcDbEntity
  8
DEFPOINTS
 62
     0
100
AcDbPoint
 10
-25532.51823276502
 20
7385.702971374808
 30
0.0
  0
POINT
  5
16BF
330
2874
100
AcDbEntity
  8
DEFPOINTS
 62
     0
100
AcDbPoint
 10
-25509.51823276502
 20
7685.702971374808
 30
0.0
  0
POINT
  5
16C0
330
2874
100
AcDbEntity
  8
DEFPOINTS
 62
     0
100
AcDbPoint
 10
-25382.37494828464
 20
7685.702971374808
 30
0.0
  0
ENDBLK
  5
16C1
330
2874
100
AcDbEntity
  8
0
100
AcDbBlockEnd
  0
BLOCK
  5
2877
330
2876
100
AcDbEntity
  8
0
100
AcDbBlockBegin
  2
*U46
 70
     1
 10
0.0
 20
0.0
 30
0.0
  3
*U46
  1

  0
TEXT
  5
1F25
330
2876
100
AcDbEntity
  8
SIZE
 62
     0
100
AcDbText
 10
-25392.37494828464
 20
7461.645828517662
 30
0.0
 40
64.0
  1
300
 50
90.0
 41
0.9
100
AcDbText
  0
ENDBLK
  5
1F27
330
2876
100
AcDbEntity
  8
0
100
AcDbBlockEnd
  0
BLOCK
  5
2879
330
2878
100
AcDbEntity
  8
0
100
AcDbBlockBegin
  2
*D47
 70
     1
 10
0.0
 20
0.0
 30
0.0
  3
*D47
  1

  0
LINE
  5
16C4
330
2878
100
AcDbEntity
  8
SIZE
 62
     0
100
AcDbLine
 10
-25807.01823276501
 20
7718.167454177002
 30
0.0
 11
-25807.01823276501
 21
7822.154659243358
 31
0.0
  0
LINE
  5
16C5
330
2878
100
AcDbEntity
  8
SIZE
 62
     0
100
AcDbLine
 10
-25527.01823276501
 20
7718.167454177002
 30
0.0
 11
-25527.01823276501
 21
7822.154659243358
 31
0.0
  0
LINE
  5
16C6
330
2878
100
AcDbEntity
  8
SIZE
 62
     0
100
AcDbLine
 10
-25795.01823276502
 20
7802.154659243358
 30
0.0
 11
-25539.01823276501
 21
7802.154659243358
 31
0.0
  0
INSERT
  5
16C7
330
2878
100
AcDbEntity
  8
SIZE
 62
     0
100
AcDbBlockReference
  2
_DOTBLANK
 10
-25807.01823276501
 20
7802.154659243358
 30
0.0
 41
12.0
 42
12.0
 43
12.0
 50
180.0
  0
INSERT
  5
16C8
330
2878
100
AcDbEntity
  8
SIZE
 62
     0
100
AcDbBlockReference
  2
_DOTBLANK
 10
-25527.01823276501
 20
7802.154659243358
 30
0.0
 41
12.0
 42
12.0
 43
12.0
  0
INSERT
  5
16C9
330
2878
100
AcDbEntity
  8
0
100
AcDbBlockReference
  2
*U48
 10
0.0
 20
0.0
 30
0.0
  0
POINT
  5
16CA
330
2878
100
AcDbEntity
  8
DEFPOINTS
 62
     0
100
AcDbPoint
 10
-25807.01823276501
 20
7698.167454177002
 30
0.0
  0
POINT
  5
16CB
330
2878
100
AcDbEntity
  8
DEFPOINTS
 62
     0
100
AcDbPoint
 10
-25527.01823276501
 20
7698.167454177002
 30
0.0
  0
POINT
  5
16CC
330
2878
100
AcDbEntity
  8
DEFPOINTS
 62
     0
100
AcDbPoint
 10
-25527.01823276501
 20
7802.154659243358
 30
0.0
  0
ENDBLK
  5
16CD
330
2878
100
AcDbEntity
  8
0
100
AcDbBlockEnd
  0
BLOCK
  5
287B
330
287A
100
AcDbEntity
  8
0
100
AcDbBlockBegin
  2
*U48
 70
     1
 10
0.0
 20
0.0
 30
0.0
  3
*U48
  1

  0
TEXT
  5
1F29
330
287A
100
AcDbEntity
  8
SIZE
 62
     0
100
AcDbText
 10
-25741.07537562216
 20
7812.154659243358
 30
0.0
 40
64.0
  1
280
 41
0.9
100
AcDbText
  0
ENDBLK
  5
1F2B
330
287A
100
AcDbEntity
  8
0
100
AcDbBlockEnd
  0
BLOCK
  5
287D
330
287C
100
AcDbEntity
  8
0
100
AcDbBlockBegin
  2
*D49
 70
     1
 10
0.0
 20
0.0
 30
0.0
  3
*D49
  1

  0
LINE
  5
16D0
330
287C
100
AcDbEntity
  8
SIZE
 62
     0
100
AcDbLine
 10
-25824.51823276501
 20
7705.702971374808
 30
0.0
 11
-25824.51823276501
 21
7931.282433493766
 31
0.0
  0
LINE
  5
16D1
330
287C
100
AcDbEntity
  8
SIZE
 62
     0
100
AcDbLine
 10
-25509.51823276502
 20
7705.702971374808
 30
0.0
 11
-25509.51823276502
 21
7931.282433493766
 31
0.0
  0
LINE
  5
16D2
330
287C
100
AcDbEntity
  8
SIZE
 62
     0
100
AcDbLine
 10
-25812.51823276502
 20
7911.282433493766
 30
0.0
 11
-25521.51823276501
 21
7911.282433493766
 31
0.0
  0
INSERT
  5
16D3
330
287C
100
AcDbEntity
  8
SIZE
 62
     0
100
AcDbBlockReference
  2
_DOTBLANK
 10
-25824.51823276501
 20
7911.282433493766
 30
0.0
 41
12.0
 42
12.0
 43
12.0
 50
180.0
  0
INSERT
  5
16D4
330
287C
100
AcDbEntity
  8
SIZE
 62
     0
100
AcDbBlockReference
  2
_DOTBLANK
 10
-25509.51823276502
 20
7911.282433493766
 30
0.0
 41
12.0
 42
12.0
 43
12.0
  0
INSERT
  5
16D5
330
287C
100
AcDbEntity
  8
0
100
AcDbBlockReference
  2
*U50
 10
0.0
 20
0.0
 30
0.0
  0
POINT
  5
16D6
330
287C
100
AcDbEntity
  8
DEFPOINTS
 62
     0
100
AcDbPoint
 10
-25824.51823276501
 20
7685.702971374808
 30
0.0
  0
POINT
  5
16D7
330
287C
100
AcDbEntity
  8
DEFPOINTS
 62
     0
100
AcDbPoint
 10
-25509.51823276502
 20
7685.702971374808
 30
0.0
  0
POINT
  5
16D8
330
287C
100
AcDbEntity
  8
DEFPOINTS
 62
     0
100
AcDbPoint
 10
-25509.51823276502
 20
7911.282433493766
 30
0.0
  0
ENDBLK
  5
16D9
330
287C
100
AcDbEntity
  8
0
100
AcDbBlockEnd
  0
BLOCK
  5
287F
330
287E
100
AcDbEntity
  8
0
100
AcDbBlockBegin
  2
*U50
 70
     1
 10
0.0
 20
0.0
 30
0.0
  3
*U50
  1

  0
TEXT
  5
1F2D
330
287E
100
AcDbEntity
  8
SIZE
 62
     0
100
AcDbText
 10
-25735.58966133645
 20
7921.282433493766
 30
0.0
 40
64.0
  1
315
 41
0.9
100
AcDbText
  0
ENDBLK
  5
1F2F
330
287E
100
AcDbEntity
  8
0
100
AcDbBlockEnd
  0
BLOCK
  5
2881
330
2880
100
AcDbEntity
  8
0
100
AcDbBlockBegin
  2
*D51
 70
     1
 10
0.0
 20
0.0
 30
0.0
  3
*D51
  1

  0
LINE
  5
1D83
330
2880
100
AcDbEntity
  8
SIZE
 62
     0
100
AcDbLine
 10
-134.5
 20
-320.0
 30
0.0
 11
-134.5
 21
-468.0173952306001
 31
0.0
  0
LINE
  5
1D84
330
2880
100
AcDbEntity
  8
SIZE
 62
     0
100
AcDbLine
 10
134.5
 20
-320.0
 30
0.0
 11
134.5
 21
-468.0173952306001
 31
0.0
  0
LINE
  5
1D85
330
2880
100
AcDbEntity
  8
SIZE
 62
     0
100
AcDbLine
 10
-122.5
 20
-448.0173952306
 30
0.0
 11
122.5
 21
-448.0173952306
 31
0.0
  0
INSERT
  5
1D86
330
2880
100
AcDbEntity
  8
SIZE
 62
     0
100
AcDbBlockReference
  2
_DOTBLANK
 10
-134.5
 20
-448.0173952306
 30
0.0
 41
12.0
 42
12.0
 43
12.0
 50
180.0
  0
INSERT
  5
1D87
330
2880
100
AcDbEntity
  8
SIZE
 62
     0
100
AcDbBlockReference
  2
_DOTBLANK
 10
134.5
 20
-448.0173952306
 30
0.0
 41
12.0
 42
12.0
 43
12.0
  0
INSERT
  5
1D88
330
2880
100
AcDbEntity
  8
0
100
AcDbBlockReference
  2
*U52
 10
0.0
 20
0.0
 30
0.0
  0
POINT
  5
1D89
330
2880
100
AcDbEntity
  8
DEFPOINTS
 62
     0
100
AcDbPoint
 10
-134.5
 20
-300.0
 30
0.0
  0
POINT
  5
1D8A
330
2880
100
AcDbEntity
  8
DEFPOINTS
 62
     0
100
AcDbPoint
 10
134.5
 20
-300.0
 30
0.0
  0
POINT
  5
1D8B
330
2880
100
AcDbEntity
  8
DEFPOINTS
 62
     0
100
AcDbPoint
 10
134.5
 20
-448.0173952306
 30
0.0
  0
ENDBLK
  5
173D
330
2880
100
AcDbEntity
  8
0
100
AcDbBlockEnd
  0
BLOCK
  5
2883
330
2882
100
AcDbEntity
  8
0
100
AcDbBlockBegin
  2
*U52
 70
     1
 10
0.0
 20
0.0
 30
0.0
  3
*U52
  1

  0
TEXT
  5
1F31
330
2882
100
AcDbEntity
  8
SIZE
 62
     0
100
AcDbText
 10
-72.68571428571426
 20
-438.0173952306003
 30
0.0
 40
64.0
  1
269
 41
0.9
100
AcDbText
  0
ENDBLK
  5
1F33
330
2882
100
AcDbEntity
  8
0
100
AcDbBlockEnd
  0
BLOCK
  5
2885
330
2884
100
AcDbEntity
  8
0
100
AcDbBlockBegin
  2
*D53
 70
     1
 10
0.0
 20
0.0
 30
0.0
  3
*D53
  1

  0
LINE
  5
1D8C
330
2884
100
AcDbEntity
  8
SIZE
 62
     0
100
AcDbLine
 10
154.5
 20
-300.0
 30
0.0
 11
304.6432844803784
 21
-300.0
 31
0.0
  0
LINE
  5
1D8D
330
2884
100
AcDbEntity
  8
SIZE
 62
     0
100
AcDbLine
 10
177.5
 20
-0.0000000000000057
 30
0.0
 11
304.6432844803785
 21
-0.0000000000000417
 31
0.0
  0
LINE
  5
1D8E
330
2884
100
AcDbEntity
  8
SIZE
 62
     0
100
AcDbLine
 10
284.6432844803784
 20
-288.0
 30
0.0
 11
284.6432844803785
 21
-12.00000000000003
 31
0.0
  0
INSERT
  5
1D8F
330
2884
100
AcDbEntity
  8
SIZE
 62
     0
100
AcDbBlockReference
  2
_DOTBLANK
 10
284.6432844803784
 20
-300.0
 30
0.0
 41
12.0
 42
12.0
 43
12.0
 50
270.0
  0
INSERT
  5
1D90
330
2884
100
AcDbEntity
  8
SIZE
 62
     0
100
AcDbBlockReference
  2
_DOTBLANK
 10
284.6432844803785
 20
-0.000000000000036
 30
0.0
 41
12.0
 42
12.0
 43
12.0
 50
90.0
  0
INSERT
  5
1D91
330
2884
100
AcDbEntity
  8
0
100
AcDbBlockReference
  2
*U54
 10
0.0
 20
0.0
 30
0.0
  0
POINT
  5
1D92
330
2884
100
AcDbEntity
  8
DEFPOINTS
 62
     0
100
AcDbPoint
 10
134.5
 20
-300.0
 30
0.0
  0
POINT
  5
1D93
330
2884
100
AcDbEntity
  8
DEFPOINTS
 62
     0
100
AcDbPoint
 10
157.5
 20
0.0
 30
0.0
  0
POINT
  5
1D94
330
2884
100
AcDbEntity
  8
DEFPOINTS
 62
     0
100
AcDbPoint
 10
284.6432844803785
 20
-0.000000000000036
 30
0.0
  0
ENDBLK
  5
1749
330
2884
100
AcDbEntity
  8
0
100
AcDbBlockEnd
  0
BLOCK
  5
2887
330
2886
100
AcDbEntity
  8
0
100
AcDbBlockBegin
  2
*U54
 70
     1
 10
0.0
 20
0.0
 30
0.0
  3
*U54
  1

  0
TEXT
  5
1F35
330
2886
100
AcDbEntity
  8
SIZE
 62
     0
100
AcDbText
 10
274.6432844803785
 20
-224.0571428571429
 30
0.0
 40
64.0
  1
300
 50
90.0
 41
0.9
100
AcDbText
  0
ENDBLK
  5
1F37
330
2886
100
AcDbEntity
  8
0
100
AcDbBlockEnd
  0
BLOCK
  5
2889
330
2888
100
AcDbEntity
  8
0
100
AcDbBlockBegin
  2
*D55
 70
     1
 10
0.0
 20
0.0
 30
0.0
  3
*D55
  1

  0
LINE
  5
1D95
330
2888
100
AcDbEntity
  8
SIZE
 62
     0
100
AcDbLine
 10
-140.0
 20
32.46448280219375
 30
0.0
 11
-140.0
 21
136.4516878685508
 31
0.0
  0
LINE
  5
1D96
330
2888
100
AcDbEntity
  8
SIZE
 62
     0
100
AcDbLine
 10
140.0
 20
32.46448280219375
 30
0.0
 11
140.0
 21
136.4516878685508
 31
0.0
  0
LINE
  5
1D97
330
2888
100
AcDbEntity
  8
SIZE
 62
     0
100
AcDbLine
 10
-128.0
 20
116.4516878685508
 30
0.0
 11
128.0
 21
116.4516878685508
 31
0.0
  0
INSERT
  5
1D98
330
2888
100
AcDbEntity
  8
SIZE
 62
     0
100
AcDbBlockReference
  2
_DOTBLANK
 10
-140.0
 20
116.4516878685508
 30
0.0
 41
12.0
 42
12.0
 43
12.0
 50
180.0
  0
INSERT
  5
1D99
330
2888
100
AcDbEntity
  8
SIZE
 62
     0
100
AcDbBlockReference
  2
_DOTBLANK
 10
140.0
 20
116.4516878685508
 30
0.0
 41
12.0
 42
12.0
 43
12.0
  0
INSERT
  5
1D9A
330
2888
100
AcDbEntity
  8
0
100
AcDbBlockReference
  2
*U56
 10
0.0
 20
0.0
 30
0.0
  0
POINT
  5
1D9B
330
2888
100
AcDbEntity
  8
DEFPOINTS
 62
     0
100
AcDbPoint
 10
-140.0
 20
12.46448280219374
 30
0.0
  0
POINT
  5
1D9C
330
2888
100
AcDbEntity
  8
DEFPOINTS
 62
     0
100
AcDbPoint
 10
140.0
 20
12.46448280219374
 30
0.0
  0
POINT
  5
1D9D
330
2888
100
AcDbEntity
  8
DEFPOINTS
 62
     0
100
AcDbPoint
 10
140.0
 20
116.4516878685508
 30
0.0
  0
ENDBLK
  5
1755
330
2888
100
AcDbEntity
  8
0
100
AcDbBlockEnd
  0
BLOCK
  5
288B
330
288A
100
AcDbEntity
  8
0
100
AcDbBlockBegin
  2
*U56
 70
     1
 10
0.0
 20
0.0
 30
0.0
  3
*U56
  1

  0
TEXT
  5
1F39
330
288A
100
AcDbEntity
  8
SIZE
 62
     0
100
AcDbText
 10
-74.05714285714283
 20
126.4516878685508
 30
0.0
 40
64.0
  1
280
 41
0.9
100
AcDbText
  0
ENDBLK
  5
1F3B
330
288A
100
AcDbEntity
  8
0
100
AcDbBlockEnd
  0
BLOCK
  5
288D
330
288C
100
AcDbEntity
  8
0
100
AcDbBlockBegin
  2
*D57
 70
     1
 10
0.0
 20
0.0
 30
0.0
  3
*D57
  1

  0
LINE
  5
1D9E
330
288C
100
AcDbEntity
  8
SIZE
 62
     0
100
AcDbLine
 10
-157.5
 20
20.0
 30
0.0
 11
-157.5
 21
245.5794621189598
 31
0.0
  0
LINE
  5
1D9F
330
288C
100
AcDbEntity
  8
SIZE
 62
     0
100
AcDbLine
 10
157.5
 20
20.0
 30
0.0
 11
157.5
 21
245.5794621189598
 31
0.0
  0
LINE
  5
1DA0
330
288C
100
AcDbEntity
  8
SIZE
 62
     0
100
AcDbLine
 10
-145.5
 20
225.5794621189598
 30
0.0
 11
145.5
 21
225.5794621189598
 31
0.0
  0
INSERT
  5
1DA1
330
288C
100
AcDbEntity
  8
SIZE
 62
     0
100
AcDbBlockReference
  2
_DOTBLANK
 10
-157.5
 20
225.5794621189598
 30
0.0
 41
12.0
 42
12.0
 43
12.0
 50
180.0
  0
INSERT
  5
1DA2
330
288C
100
AcDbEntity
  8
SIZE
 62
     0
100
AcDbBlockReference
  2
_DOTBLANK
 10
157.5
 20
225.5794621189598
 30
0.0
 41
12.0
 42
12.0
 43
12.0
  0
INSERT
  5
1DA3
330
288C
100
AcDbEntity
  8
0
100
AcDbBlockReference
  2
*U58
 10
0.0
 20
0.0
 30
0.0
  0
POINT
  5
1DA4
330
288C
100
AcDbEntity
  8
DEFPOINTS
 62
     0
100
AcDbPoint
 10
-157.5
 20
0.0
 30
0.0
  0
POINT
  5
1DA5
330
288C
100
AcDbEntity
  8
DEFPOINTS
 62
     0
100
AcDbPoint
 10
157.5
 20
0.0
 30
0.0
  0
POINT
  5
1DA6
330
288C
100
AcDbEntity
  8
DEFPOINTS
 62
     0
100
AcDbPoint
 10
157.5
 20
225.5794621189598
 30
0.0
  0
ENDBLK
  5
1761
330
288C
100
AcDbEntity
  8
0
100
AcDbBlockEnd
  0
BLOCK
  5
288F
330
288E
100
AcDbEntity
  8
0
100
AcDbBlockBegin
  2
*U58
 70
     1
 10
0.0
 20
0.0
 30
0.0
  3
*U58
  1

  0
TEXT
  5
1F3D
330
288E
100
AcDbEntity
  8
SIZE
 62
     0
100
AcDbText
 10
-68.57142857142857
 20
235.5794621189599
 30
0.0
 40
64.0
  1
315
 41
0.9
100
AcDbText
  0
ENDBLK
  5
1F3F
330
288E
100
AcDbEntity
  8
0
100
AcDbBlockEnd
  0
BLOCK
  5
2891
330
2890
100
AcDbEntity
  8
0
100
AcDbBlockBegin
  2
*D59
 70
     1
 10
0.0
 20
0.0
 30
0.0
  3
*D59
  1

  0
LINE
  5
1DA7
330
2890
100
AcDbEntity
  8
SIZE
 62
     0
100
AcDbLine
 10
-177.5
 20
0.0000000000000057
 30
0.0
 11
-314.0264221186908
 21
0.0000000000000443
 31
0.0
  0
LINE
  5
1DA8
330
2890
100
AcDbEntity
  8
SIZE
 62
     0
100
AcDbLine
 10
-177.5
 20
-7.999999999999995
 30
0.0
 11
-314.0264221186908
 21
-7.999999999999957
 31
0.0
  0
LINE
  5
1DA9
330
2890
100
AcDbEntity
  8
SIZE
 62
     0
100
AcDbLine
 10
-294.0264221186908
 20
12.00000000000003
 30
0.0
 11
-294.0264221186908
 21
24.00000000000004
 31
0.0
  0
LINE
  5
1DAA
330
2890
100
AcDbEntity
  8
SIZE
 62
     0
100
AcDbLine
 10
-294.0264221186908
 20
-19.99999999999996
 30
0.0
 11
-294.0264221186908
 21
-90.39999999999997
 31
0.0
  0
INSERT
  5
1DAB
330
2890
100
AcDbEntity
  8
SIZE
 62
     0
100
AcDbBlockReference
  2
_DOTBLANK
 10
-294.0264221186908
 20
0.0000000000000387
 30
0.0
 41
12.0
 42
12.0
 43
12.0
 50
270.0
  0
INSERT
  5
1DAC
330
2890
100
AcDbEntity
  8
SIZE
 62
     0
100
AcDbBlockReference
  2
_DOTBLANK
 10
-294.0264221186908
 20
-7.99999999999996
 30
0.0
 41
12.0
 42
12.0
 43
12.0
 50
90.0
  0
INSERT
  5
1DAD
330
2890
100
AcDbEntity
  8
0
100
AcDbBlockReference
  2
*U60
 10
0.0
 20
0.0
 30
0.0
  0
POINT
  5
1DAE
330
2890
100
AcDbEntity
  8
DEFPOINTS
 62
     0
100
AcDbPoint
 10
-157.5
 20
0.0
 30
0.0
  0
POINT
  5
1DAF
330
2890
100
AcDbEntity
  8
DEFPOINTS
 62
     0
100
AcDbPoint
 10
-157.5
 20
-8.000000000000001
 30
0.0
  0
POINT
  5
1DB0
330
2890
100
AcDbEntity
  8
DEFPOINTS
 62
     0
100
AcDbPoint
 10
-294.0264221186908
 20
-7.99999999999996
 30
0.0
  0
ENDBLK
  5
176D
330
2890
100
AcDbEntity
  8
0
100
AcDbBlockEnd
  0
BLOCK
  5
2893
330
2892
100
AcDbEntity
  8
0
100
AcDbBlockBegin
  2
*U60
 70
     1
 10
0.0
 20
0.0
 30
0.0
  3
*U60
  1

  0
TEXT
  5
1F41
330
2892
100
AcDbEntity
  8
SIZE
 62
     0
100
AcDbText
 10
-304.0264221186908
 20
-80.4
 30
0.0
 40
64.0
  1
8
 50
90.0
 41
0.9
100
AcDbText
  0
ENDBLK
  5
1F43
330
2892
100
AcDbEntity
  8
0
100
AcDbBlockEnd
  0
BLOCK
  5
2895
330
2894
100
AcDbEntity
  8
0
100
AcDbBlockBegin
  2
*D61
 70
     1
 10
0.0
 20
0.0
 30
0.0
  3
*D61
  1

  0
LINE
  5
1DB1
330
2894
100
AcDbEntity
  8
SIZE
 62
     0
100
AcDbLine
 10
154.5
 20
-300.0
 30
0.0
 11
304.6432844803785
 21
-300.0
 31
0.0
  0
LINE
  5
1DB2
330
2894
100
AcDbEntity
  8
SIZE
 62
     0
100
AcDbLine
 10
143.5
 20
-312.0
 30
0.0
 11
304.6432844803785
 21
-312.0
 31
0.0
  0
LINE
  5
1DB3
330
2894
100
AcDbEntity
  8
SIZE
 62
     0
100
AcDbLine
 10
284.6432844803785
 20
-288.0
 30
0.0
 11
284.6432844803785
 21
-276.0
 31
0.0
  0
LINE
  5
1DB4
330
2894
100
AcDbEntity
  8
SIZE
 62
     0
100
AcDbLine
 10
284.6432844803785
 20
-324.0000000000001
 30
0.0
 11
284.6432844803784
 21
-438.2857142857143
 31
0.0
  0
INSERT
  5
1DB5
330
2894
100
AcDbEntity
  8
SIZE
 62
     0
100
AcDbBlockReference
  2
_DOTBLANK
 10
284.6432844803785
 20
-300.0
 30
0.0
 41
12.0
 42
12.0
 43
12.0
 50
270.0
  0
INSERT
  5
1DB6
330
2894
100
AcDbEntity
  8
SIZE
 62
     0
100
AcDbBlockReference
  2
_DOTBLANK
 10
284.6432844803785
 20
-312.0
 30
0.0
 41
12.0
 42
12.0
 43
12.0
 50
90.0
  0
INSERT
  5
1DB7
330
2894
100
AcDbEntity
  8
0
100
AcDbBlockReference
  2
*U62
 10
0.0
 20
0.0
 30
0.0
  0
POINT
  5
1DB8
330
2894
100
AcDbEntity
  8
DEFPOINTS
 62
     0
100
AcDbPoint
 10
134.5
 20
-300.0
 30
0.0
  0
POINT
  5
1DB9
330
2894
100
AcDbEntity
  8
DEFPOINTS
 62
     0
100
AcDbPoint
 10
123.5
 20
-312.0
 30
0.0
  0
POINT
  5
1DBA
330
2894
100
AcDbEntity
  8
DEFPOINTS
 62
     0
100
AcDbPoint
 10
284.6432844803785
 20
-312.0
 30
0.0
  0
ENDBLK
  5
177B
330
2894
100
AcDbEntity
  8
0
100
AcDbBlockEnd
  0
BLOCK
  5
2897
330
2896
100
AcDbEntity
  8
0
100
AcDbBlockBegin
  2
*U62
 70
     1
 10
0.0
 20
0.0
 30
0.0
  3
*U62
  1

  0
TEXT
  5
1F45
330
2896
100
AcDbEntity
  8
SIZE
 62
     0
100
AcDbText
 10
274.6432844803785
 20
-428.2857142857142
 30
0.0
 40
64.0
  1
12
 50
90.0
 41
0.9
100
AcDbText
  0
ENDBLK
  5
1F47
330
2896
100
AcDbEntity
  8
0
100
AcDbBlockEnd
  0
BLOCK
  5
2899
330
2898
100
AcDbEntity
  8
0
100
AcDbBlockBegin
  2
*U63
 70
     1
 10
0.0
 20
0.0
 30
0.0
  3
*U63
  1

  0
ENDBLK
  5
1D57
330
2898
100
AcDbEntity
  8
0
100
AcDbBlockEnd
  0
BLOCK
  5
289B
330
289A
100
AcDbEntity
  8
0
100
AcDbBlockBegin
  2
*U64
 70
     1
 10
0.0
 20
0.0
 30
0.0
  3
*U64
  1

  0
INSERT
  5
2087
330
289A
100
AcDbEntity
  8
NOTE
100
AcDbBlockReference
  2
_OPEN30
 10
-279.9999999999997
 20
0.0
 30
0.0
 41
12.0
 42
12.0
 43
12.0
 50
312.6090116116894
  0
POLYLINE
  5
2088
330
289A
100
AcDbEntity
  8
NOTE
100
AcDb2dPolyline
 66
     1
 10
0.0
 20
0.0
 30
0.0
  0
VERTEX
  5
2734
330
2088
100
AcDbEntity
  8
NOTE
100
AcDbVertex
100
AcDb2dVertex
 10
-288.1239008361892
 20
8.831887408915473
 30
0.0
  0
VERTEX
  5
2735
330
2088
100
AcDbEntity
  8
NOTE
100
AcDbVertex
100
AcDb2dVertex
 10
-367.8693999922541
 20
95.5270950580134
 30
0.0
  0
VERTEX
  5
2736
330
2088
100
AcDbEntity
  8
NOTE
100
AcDbVertex
100
AcDb2dVertex
 10
-916.4522571351112
 20
95.5270950580134
 30
0.0
  0
SEQEND
  5
2737
330
2088
100
AcDbEntity
  8
NOTE
  0
ENDBLK
  5
2089
330
289A
100
AcDbEntity
  8
0
100
AcDbBlockEnd
  0
BLOCK
  5
289D
330
289C
100
AcDbEntity
  8
0
100
AcDbBlockBegin
  2
*U65
 70
     1
 10
0.0
 20
0.0
 30
0.0
  3
*U65
  1

  0
TEXT
  5
208C
330
289C
100
AcDbEntity
  8
NOTE
100
AcDbText
 10
-913.7093999922539
 20
113.5270950580134
 30
0.0
 40
64.0
  1
4×φ15取付穴
 41
0.9
100
AcDbText
  0
ENDBLK
  5
208D
330
289C
100
AcDbEntity
  8
0
100
AcDbBlockEnd
  0
BLOCK
  5
289F
330
289E
100
AcDbEntity
  8
0
100
AcDbBlockBegin
  2
*U66
 70
     1
 10
0.0
 20
0.0
 30
0.0
  3
*U66
  1

  0
INSERT
  5
2165
330
289E
100
AcDbEntity
  8
NOTE
100
AcDbBlockReference
  2
_OPEN30
 10
280.0
 20
280.0
 30
0.0
 41
12.0
 42
12.0
 43
12.0
 50
230.7091310502217
  0
POLYLINE
  5
2166
330
289E
100
AcDbEntity
  8
NOTE
100
AcDb2dPolyline
 66
     1
 10
0.0
 20
0.0
 30
0.0
  0
VERTEX
  5
2738
330
2166
100
AcDbEntity
  8
NOTE
100
AcDbVertex
100
AcDb2dVertex
 10
287.599090480922
 20
289.2872936780722
 30
0.0
  0
VERTEX
  5
2739
330
2166
100
AcDbEntity
  8
NOTE
100
AcDbVertex
100
AcDb2dVertex
 10
343.4345623698608
 20
357.5270950580134
 30
0.0
  0
VERTEX
  5
273A
330
2166
100
AcDbEntity
  8
NOTE
100
AcDbVertex
100
AcDb2dVertex
 10
892.0174195127176
 20
357.5270950580134
 30
0.0
  0
SEQEND
  5
273B
330
2166
100
AcDbEntity
  8
NOTE
  0
ENDBLK
  5
2167
330
289E
100
AcDbEntity
  8
0
100
AcDbBlockEnd
  0
BLOCK
  5
28A1
330
28A0
100
AcDbEntity
  8
0
100
AcDbBlockBegin
  2
*U67
 70
     1
 10
0.0
 20
0.0
 30
0.0
  3
*U67
  1

  0
TEXT
  5
216A
330
28A0
100
AcDbEntity
  8
NOTE
100
AcDbText
 10
405.4345623698607
 20
375.5270950580134
 30
0.0
 40
64.0
  1
4×φ15取付穴
 41
0.9
100
AcDbText
  0
ENDBLK
  5
216B
330
28A0
100
AcDbEntity
  8
0
100
AcDbBlockEnd
  0
BLOCK
  5
28A3
330
28A2
100
AcDbEntity
  8
0
100
AcDbBlockBegin
  2
*U68
 70
     1
 10
0.0
 20
0.0
 30
0.0
  3
*U68
  1

  0
INSERT
  5
223C
330
28A2
100
AcDbEntity
  8
NOTE
100
AcDbBlockReference
  2
_OPEN30
 10
280.0
 20
279.9999999999991
 30
0.0
 41
12.0
 42
12.0
 43
12.0
 50
232.3258907693334
  0
POLYLINE
  5
223D
330
28A2
100
AcDbEntity
  8
NOTE
100
AcDb2dPolyline
 66
     1
 10
0.0
 20
0.0
 30
0.0
  0
VERTEX
  5
273C
330
223D
100
AcDbEntity
  8
NOTE
100
AcDbVertex
100
AcDb2dVertex
 10
287.3340332839448
 20
289.4979974620955
 30
0.0
  0
VERTEX
  5
273D
330
223D
100
AcDbEntity
  8
NOTE
100
AcDbVertex
100
AcDb2dVertex
 10
353.7628007872081
 20
375.5270950580116
 30
0.0
  0
VERTEX
  5
273E
330
223D
100
AcDbEntity
  8
NOTE
100
AcDbVertex
100
AcDb2dVertex
 10
899.6028007872082
 20
375.5270950580116
 30
0.0
  0
SEQEND
  5
273F
330
223D
100
AcDbEntity
  8
NOTE
  0
ENDBLK
  5
223E
330
28A2
100
AcDbEntity
  8
0
100
AcDbBlockEnd
  0
BLOCK
  5
28A5
330
28A4
100
AcDbEntity
  8
0
100
AcDbBlockBegin
  2
*U69
 70
     1
 10
0.0
 20
0.0
 30
0.0
  3
*U69
  1

  0
TEXT
  5
2241
330
28A4
100
AcDbEntity
  8
NOTE
100
AcDbText
 10
415.7628007872081
 20
393.5270950580116
 30
0.0
 40
64.0
  1
4×φ15取付穴
 41
0.9
100
AcDbText
  0
ENDBLK
  5
2242
330
28A4
100
AcDbEntity
  8
0
100
AcDbBlockEnd
  0
BLOCK
  5
28A7
330
28A6
100
AcDbEntity
  8
0
100
AcDbBlockBegin
  2
*U70
 70
     1
 10
0.0
 20
0.0
 30
0.0
  3
*U70
  1

  0
INSERT
  5
232F
330
28A6
100
AcDbEntity
  8
NOTE
100
AcDbBlockReference
  2
_OPEN30
 10
0.0
 20
279.9999999999999
 30
0.0
 41
12.0
 42
12.0
 43
12.0
 50
312.6090116116897
  0
POLYLINE
  5
2330
330
28A6
100
AcDbEntity
  8
NOTE
100
AcDb2dPolyline
 66
     1
 10
0.0
 20
0.0
 30
0.0
  0
VERTEX
  5
2754
330
2330
100
AcDbEntity
  8
NOTE
100
AcDbVertex
100
AcDb2dVertex
 10
-8.123900836189516
 20
288.8318874089152
 30
0.0
  0
VERTEX
  5
2755
330
2330
100
AcDbEntity
  8
NOTE
100
AcDbVertex
100
AcDb2dVertex
 10
-87.86939999225436
 20
375.5270950580128
 30
0.0
  0
VERTEX
  5
2756
330
2330
100
AcDbEntity
  8
NOTE
100
AcDbVertex
100
AcDb2dVertex
 10
-633.7093999922545
 20
375.5270950580128
 30
0.0
  0
SEQEND
  5
2757
330
2330
100
AcDbEntity
  8
NOTE
  0
ENDBLK
  5
2331
330
28A6
100
AcDbEntity
  8
0
100
AcDbBlockEnd
  0
BLOCK
  5
28A9
330
28A8
100
AcDbEntity
  8
0
100
AcDbBlockBegin
  2
*U71
 70
     1
 10
0.0
 20
0.0
 30
0.0
  3
*U71
  1

  0
TEXT
  5
2334
330
28A8
100
AcDbEntity
  8
NOTE
100
AcDbText
 10
-633.7093999922545
 20
393.5270950580128
 30
0.0
 40
64.0
  1
4×φ15取付穴
 41
0.9
100
AcDbText
  0
ENDBLK
  5
2335
330
28A8
100
AcDbEntity
  8
0
100
AcDbBlockEnd
  0
BLOCK
  5
28AB
330
28AA
100
AcDbEntity
  8
0
100
AcDbBlockBegin
  2
*U72
 70
     1
 10
0.0
 20
0.0
 30
0.0
  3
*U72
  1

  0
INSERT
  5
245C
330
28AA
100
AcDbEntity
  8
NOTE
100
AcDbBlockReference
  2
_OPEN30
 10
0.0
 20
279.9999999999999
 30
0.0
 41
12.0
 42
12.0
 43
12.0
 50
227.3909883883104
  0
POLYLINE
  5
245D
330
28AA
100
AcDbEntity
  8
NOTE
100
AcDb2dPolyline
 66
     1
 10
0.0
 20
0.0
 30
0.0
  0
VERTEX
  5
2758
330
245D
100
AcDbEntity
  8
NOTE
100
AcDbVertex
100
AcDb2dVertex
 10
8.123900836189516
 20
288.8318874089152
 30
0.0
  0
VERTEX
  5
2759
330
245D
100
AcDbEntity
  8
NOTE
100
AcDbVertex
100
AcDb2dVertex
 10
87.86939999225436
 20
375.5270950580128
 30
0.0
  0
VERTEX
  5
275A
330
245D
100
AcDbEntity
  8
NOTE
100
AcDbVertex
100
AcDb2dVertex
 10
633.7093999922545
 20
375.5270950580128
 30
0.0
  0
SEQEND
  5
275B
330
245D
100
AcDbEntity
  8
NOTE
  0
ENDBLK
  5
245E
330
28AA
100
AcDbEntity
  8
0
100
AcDbBlockEnd
  0
BLOCK
  5
28AD
330
28AC
100
AcDbEntity
  8
0
100
AcDbBlockBegin
  2
*U73
 70
     1
 10
0.0
 20
0.0
 30
0.0
  3
*U73
  1

  0
TEXT
  5
2461
330
28AC
100
AcDbEntity
  8
NOTE
100
AcDbText
 10
149.8693999922543
 20
393.5270950580128
 30
0.0
 40
64.0
  1
4×φ15取付穴
 41
0.9
100
AcDbText
  0
ENDBLK
  5
2462
330
28AC
100
AcDbEntity
  8
0
100
AcDbBlockEnd
  0
BLOCK
  5
28AF
330
28AE
100
AcDbEntity
  8
0
100
AcDbBlockBegin
  2
*U74
 70
     1
 10
0.0
 20
0.0
 30
0.0
  3
*U74
  1

  0
INSERT
  5
258D
330
28AE
100
AcDbEntity
  8
NOTE
100
AcDbBlockReference
  2
_OPEN30
 10
-280.0
 20
0.0
 30
0.0
 41
12.0
 42
12.0
 43
12.0
 50
312.6090116116894
  0
POLYLINE
  5
258E
330
28AE
100
AcDbEntity
  8
NOTE
100
AcDb2dPolyline
 66
     1
 10
0.0
 20
0.0
 30
0.0
  0
VERTEX
  5
275C
330
258E
100
AcDbEntity
  8
NOTE
100
AcDbVertex
100
AcDb2dVertex
 10
-288.1239008361895
 20
8.831887408915473
 30
0.0
  0
VERTEX
  5
275D
330
258E
100
AcDbEntity
  8
NOTE
100
AcDbVertex
100
AcDb2dVertex
 10
-367.8693999922543
 20
95.52709505801338
 30
0.0
  0
VERTEX
  5
275E
330
258E
100
AcDbEntity
  8
NOTE
100
AcDbVertex
100
AcDb2dVertex
 10
-913.7093999922539
 20
95.52709505801338
 30
0.0
  0
SEQEND
  5
275F
330
258E
100
AcDbEntity
  8
NOTE
  0
ENDBLK
  5
258F
330
28AE
100
AcDbEntity
  8
0
100
AcDbBlockEnd
  0
BLOCK
  5
28B1
330
28B0
100
AcDbEntity
  8
0
100
AcDbBlockBegin
  2
*U75
 70
     1
 10
0.0
 20
0.0
 30
0.0
  3
*U75
  1

  0
TEXT
  5
2592
330
28B0
100
AcDbEntity
  8
NOTE
100
AcDbText
 10
-913.7093999922539
 20
113.5270950580134
 30
0.0
 40
64.0
  1
4×φ15取付穴
 41
0.9
100
AcDbText
  0
ENDBLK
  5
2593
330
28B0
100
AcDbEntity
  8
0
100
AcDbBlockEnd
  0
BLOCK
  5
28B3
330
28B2
100
AcDbEntity
  8
0
100
AcDbBlockBegin
  2
*X76
 70
     1
 10
0.0
 20
0.0
 30
0.0
  3
*X76
  1

  0
LINE
  5
2596
330
28B2
100
AcDbEntity
  8
0
 62
     0
100
AcDbLine
 10
-250.7000000000062
 20
-566.7355763257655
 30
0.0
 11
-235.0247020177376
 21
-574.2000000000025
 31
0.0
  0
LINE
  5
2597
330
28B2
100
AcDbEntity
  8
0
 62
     0
100
AcDbLine
 10
-250.7000000000044
 20
-556.7356245816316
 30
0.0
 11
-214.0247922807448
 21
-574.2000000000025
 31
0.0
  0
LINE
  5
2598
330
28B2
100
AcDbEntity
  8
0
 62
     0
100
AcDbLine
 10
-250.7000000000044
 20
-546.735672837496
 30
0.0
 11
-193.0248825437537
 21
-574.2000000000016
 31
0.0
  0
LINE
  5
2599
330
28B2
100
AcDbEntity
  8
0
 62
     0
100
AcDbLine
 10
-250.7000000000044
 20
-536.7357210933642
 30
0.0
 11
-172.0249728067646
 21
-574.2000000000033
 31
0.0
  0
LINE
  5
259A
330
28B2
100
AcDbEntity
  8
0
 62
     0
100
AcDbLine
 10
-250.7000000000062
 20
-526.7357693492295
 30
0.0
 11
-151.0250630697719
 21
-574.2000000000033
 31
0.0
  0
LINE
  5
259B
330
28B2
100
AcDbEntity
  8
0
 62
     0
100
AcDbLine
 10
-250.7000000000062
 20
-516.7358176050936
 30
0.0
 11
-130.0251533327809
 21
-574.2000000000033
 31
0.0
  0
LINE
  5
259C
330
28B2
100
AcDbEntity
  8
0
 62
     0
100
AcDbLine
 10
-250.7000000000062
 20
-506.7358658609601
 30
0.0
 11
-109.0252435957936
 21
-574.2000000000016
 31
0.0
  0
LINE
  5
259D
330
28B2
100
AcDbEntity
  8
0
 62
     0
100
AcDbLine
 10
-250.7000000000062
 20
-496.7359141168243
 30
0.0
 11
-88.02533385880451
 21
-574.1999999999998
 31
0.0
  0
LINE
  5
259E
330
28B2
100
AcDbEntity
  8
0
 62
     0
100
AcDbLine
 10
-250.7000000000044
 20
-486.7359623726922
 30
0.0
 11
-67.02542412181353
 21
-574.2000000000016
 31
0.0
  0
LINE
  5
259F
330
28B2
100
AcDbEntity
  8
0
 62
     0
100
AcDbLine
 10
-250.7000000000062
 20
-476.7360106285567
 30
0.0
 11
-46.02551438482442
 21
-574.2000000000016
 31
0.0
  0
LINE
  5
25A0
330
28B2
100
AcDbEntity
  8
0
 62
     0
100
AcDbLine
 10
-250.7000000000044
 20
-466.736058884423
 30
0.0
 11
-25.02560464783164
 21
-574.2000000000016
 31
0.0
  0
LINE
  5
25A1
330
28B2
100
AcDbEntity
  8
0
 62
     0
100
AcDbLine
 10
-250.7000000000062
 20
-456.7361071402872
 30
0.0
 11
-4.025694910840683
 21
-574.2000000000016
 31
0.0
  0
LINE
  5
25A2
330
28B2
100
AcDbEntity
  8
0
 62
     0
100
AcDbLine
 10
-250.7000000000044
 20
-446.7361553961536
 30
0.0
 11
16.97421482615027
 21
-574.2000000000016
 31
0.0
  0
LINE
  5
25A3
330
28B2
100
AcDbEntity
  8
0
 62
     0
100
AcDbLine
 10
-250.7000000000044
 20
-436.7362036520198
 30
0.0
 11
37.97412456314305
 21
-574.2000000000033
 31
0.0
  0
LINE
  5
25A4
330
28B2
100
AcDbEntity
  8
0
 62
     0
100
AcDbLine
 10
-250.7000000000062
 20
-426.7362519078842
 30
0.0
 11
58.97403430013218
 21
-574.2000000000033
 31
0.0
  0
LINE
  5
25A5
330
28B2
100
AcDbEntity
  8
0
 62
     0
100
AcDbLine
 10
-250.7000000000044
 20
-416.7363001637504
 30
0.0
 11
79.97394403712494
 21
-574.2000000000025
 31
0.0
  0
LINE
  5
25A6
330
28B2
100
AcDbEntity
  8
0
 62
     0
100
AcDbLine
 10
-250.7000000000062
 20
-406.7363484196148
 30
0.0
 11
100.9738537741159
 21
-574.2000000000025
 31
0.0
  0
LINE
  5
25A7
330
28B2
100
AcDbEntity
  8
0
 62
     0
100
AcDbLine
 10
-250.7000000000044
 20
-396.7363966754811
 30
0.0
 11
121.9737635111069
 21
-574.2000000000025
 31
0.0
  0
LINE
  5
25A8
330
28B2
100
AcDbEntity
  8
0
 62
     0
100
AcDbLine
 10
-250.7000000000062
 20
-386.7364449313454
 30
0.0
 11
142.9736732480978
 21
-574.2000000000025
 31
0.0
  0
LINE
  5
25A9
330
28B2
100
AcDbEntity
  8
0
 62
     0
100
AcDbLine
 10
-250.7000000000044
 20
-376.7364931872135
 30
0.0
 11
163.9735829850869
 21
-574.2000000000025
 31
0.0
  0
LINE
  5
25AA
330
28B2
100
AcDbEntity
  8
0
 62
     0
100
AcDbLine
 10
-250.7000000000062
 20
-366.7365414430778
 30
0.0
 11
184.9734927220761
 21
-574.2000000000025
 31
0.0
  0
LINE
  5
25AB
330
28B2
100
AcDbEntity
  8
0
 62
     0
100
AcDbLine
 10
-250.7000000000044
 20
-356.7365896989441
 30
0.0
 11
205.9734024590653
 21
-574.2000000000007
 31
0.0
  0
LINE
  5
25AC
330
28B2
100
AcDbEntity
  8
0
 62
     0
100
AcDbLine
 10
-250.7000000000044
 20
-346.7366379548084
 30
0.0
 11
226.9733121960562
 21
-574.2000000000007
 31
0.0
  0
LINE
  5
25AD
330
28B2
100
AcDbEntity
  8
0
 62
     0
100
AcDbLine
 10
-250.700000000008
 20
-336.7366862106737
 30
0.0
 11
247.9732219330472
 21
-574.2000000000007
 31
0.0
  0
LINE
  5
25AE
330
28B2
100
AcDbEntity
  8
0
 62
     0
100
AcDbLine
 10
-250.7000000000044
 20
-326.7367344665408
 30
0.0
 11
250.6999999999898
 21
-565.498513317284
 31
0.0
  0
LINE
  5
25AF
330
28B2
100
AcDbEntity
  8
0
 62
     0
100
AcDbLine
 10
-250.7000000000062
 20
-316.736782722406
 30
0.0
 11
250.699999999988
 21
-555.4985615731485
 31
0.0
  0
LINE
  5
25B0
330
28B2
100
AcDbEntity
  8
0
 62
     0
100
AcDbLine
 10
-250.7000000000062
 20
-306.7368309782714
 30
0.0
 11
250.699999999988
 21
-545.4986098290146
 31
0.0
  0
LINE
  5
25B1
330
28B2
100
AcDbEntity
  8
0
 62
     0
100
AcDbLine
 10
-250.7000000000044
 20
-296.7368792341367
 30
0.0
 11
250.6999999999898
 21
-535.498658084879
 31
0.0
  0
LINE
  5
25B2
330
28B2
100
AcDbEntity
  8
0
 62
     0
100
AcDbLine
 10
-250.7000000000044
 20
-286.7369274900029
 30
0.0
 11
250.6999999999898
 21
-525.4987063407451
 31
0.0
  0
LINE
  5
25B3
330
28B2
100
AcDbEntity
  8
0
 62
     0
100
AcDbLine
 10
-250.7000000000062
 20
-276.7369757458691
 30
0.0
 11
250.699999999988
 21
-515.4987545966123
 31
0.0
  0
LINE
  5
25B4
330
28B2
100
AcDbEntity
  8
0
 62
     0
100
AcDbLine
 10
-250.7000000000025
 20
-266.7370240017354
 30
0.0
 11
250.6999999999916
 21
-505.4988028524776
 31
0.0
  0
LINE
  5
25B5
330
28B2
100
AcDbEntity
  8
0
 62
     0
100
AcDbLine
 10
-250.7000000000062
 20
-256.7370722575997
 30
0.0
 11
250.699999999988
 21
-495.4988511083429
 31
0.0
  0
LINE
  5
25B6
330
28B2
100
AcDbEntity
  8
0
 62
     0
100
AcDbLine
 10
-250.7000000000062
 20
-246.7371205134641
 30
0.0
 11
250.6999999999916
 21
-485.4988993642082
 31
0.0
  0
LINE
  5
25B7
330
28B2
100
AcDbEntity
  8
0
 62
     0
100
AcDbLine
 10
-250.7000000000044
 20
-236.7371687693303
 30
0.0
 11
250.6999999999898
 21
-475.4989476200734
 31
0.0
  0
LINE
  5
25B8
330
28B2
100
AcDbEntity
  8
0
 62
     0
100
AcDbLine
 10
-250.7000000000062
 20
-226.7372170251947
 30
0.0
 11
250.6999999999898
 21
-465.4989958759397
 31
0.0
  0
LINE
  5
25B9
330
28B2
100
AcDbEntity
  8
0
 62
     0
100
AcDbLine
 10
-250.7000000000044
 20
-216.7372652810627
 30
0.0
 11
250.6999999999898
 21
-455.4990441318056
 31
0.0
  0
LINE
  5
25BA
330
28B2
100
AcDbEntity
  8
0
 62
     0
100
AcDbLine
 10
-250.7000000000062
 20
-206.7373135369271
 30
0.0
 11
250.699999999988
 21
-445.4990923876703
 31
0.0
  0
LINE
  5
25BB
330
28B2
100
AcDbEntity
  8
0
 62
     0
100
AcDbLine
 10
-250.7000000000044
 20
-196.7373617927933
 30
0.0
 11
250.6999999999933
 21
-435.4991406435372
 31
0.0
  0
LINE
  5
25BC
330
28B2
100
AcDbEntity
  8
0
 62
     0
100
AcDbLine
 10
-250.7000000000062
 20
-186.7374100486577
 30
0.0
 11
250.6999999999916
 21
-425.4991888994028
 31
0.0
  0
LINE
  5
25BD
330
28B2
100
AcDbEntity
  8
0
 62
     0
100
AcDbLine
 10
-250.7000000000025
 20
-176.7374583045239
 30
0.0
 11
250.6999999999933
 21
-415.4992371552689
 31
0.0
  0
LINE
  5
25BE
330
28B2
100
AcDbEntity
  8
0
 62
     0
100
AcDbLine
 10
34.89999999999418
 20
-302.7374348407511
 30
0.0
 11
49.31139443427309
 21
-309.6000000000022
 31
0.0
  0
LINE
  5
25BF
330
28B2
100
AcDbEntity
  8
0
 62
     0
100
AcDbLine
 10
49.31139443427309
 20
-309.6000000000022
 30
0.0
 11
250.6999999999916
 21
-405.499285411135
 31
0.0
  0
LINE
  5
25C0
330
28B2
100
AcDbEntity
  8
0
 62
     0
100
AcDbLine
 10
-250.7000000000062
 20
-166.7375065603901
 30
0.0
 11
34.89999999999418
 21
-302.7374348407511
 31
0.0
  0
LINE
  5
25C1
330
28B2
100
AcDbEntity
  8
0
 62
     0
100
AcDbLine
 10
34.899999999996
 20
-292.7374830966173
 30
0.0
 11
70.31130417126225
 21
-309.6000000000004
 31
0.0
  0
LINE
  5
25C2
330
28B2
100
AcDbEntity
  8
0
 62
     0
100
AcDbLine
 10
70.31130417126587
 20
-309.6000000000022
 30
0.0
 11
250.6999999999933
 21
-395.4993336670014
 31
0.0
  0
LINE
  5
25C3
330
28B2
100
AcDbEntity
  8
0
 62
     0
100
AcDbLine
 10
-250.7000000000062
 20
-156.7375548162544
 30
0.0
 11
34.899999999996
 21
-292.7374830966173
 31
0.0
  0
LINE
  5
25C4
330
28B2
100
AcDbEntity
  8
0
 62
     0
100
AcDbLine
 10
34.89999999999418
 20
-282.7375313524817
 30
0.0
 11
91.3112139082532
 21
-309.6000000000004
 31
0.0
  0
LINE
  5
25C5
330
28B2
100
AcDbEntity
  8
0
 62
     0
100
AcDbLine
 10
91.31121390825683
 20
-309.6000000000022
 30
0.0
 11
250.6999999999933
 21
-385.4993819228657
 31
0.0
  0
LINE
  5
25C6
330
28B2
100
AcDbEntity
  8
0
 62
     0
100
AcDbLine
 10
-250.7000000000044
 20
-146.7376030721207
 30
0.0
 11
34.89999999999418
 21
-282.7375313524817
 31
0.0
  0
LINE
  5
25C7
330
28B2
100
AcDbEntity
  8
0
 62
     0
100
AcDbLine
 10
34.899999999996
 20
-272.7375796083479
 30
0.0
 11
112.3111236452441
 21
-309.6000000000004
 31
0.0
  0
LINE
  5
25C8
330
28B2
100
AcDbEntity
  8
0
 62
     0
100
AcDbLine
 10
112.311123645246
 20
-309.6000000000013
 30
0.0
 11
250.6999999999933
 21
-375.4994301787319
 31
0.0
  0
LINE
  5
25C9
330
28B2
100
AcDbEntity
  8
0
 62
     0
100
AcDbLine
 10
-250.700000000008
 20
-136.737651327985
 30
0.0
 11
34.899999999996
 21
-272.7375796083479
 31
0.0
  0
LINE
  5
25CA
330
28B2
100
AcDbEntity
  8
0
 62
     0
100
AcDbLine
 10
34.899999999996
 20
-262.7376278642123
 30
0.0
 11
133.3110333822369
 21
-309.6000000000004
 31
0.0
  0
LINE
  5
25CB
330
28B2
100
AcDbEntity
  8
0
 62
     0
100
AcDbLine
 10
133.3110333822405
 20
-309.6000000000013
 30
0.0
 11
250.6999999999933
 21
-365.4994784345963
 31
0.0
  0
LINE
  5
25CC
330
28B2
100
AcDbEntity
  8
0
 62
     0
100
AcDbLine
 10
-250.7000000000025
 20
-126.7376995838513
 30
0.0
 11
34.899999999996
 21
-262.7376278642123
 31
0.0
  0
LINE
  5
25CD
330
28B2
100
AcDbEntity
  8
0
 62
     0
100
AcDbLine
 10
34.899999999996
 20
-252.7376761200785
 30
0.0
 11
154.3109431192278
 21
-309.5999999999995
 31
0.0
  0
LINE
  5
25CE
330
28B2
100
AcDbEntity
  8
0
 62
     0
100
AcDbLine
 10
154.3109431192297
 20
-309.6000000000013
 30
0.0
 11
250.6999999999953
 21
-355.4995266904625
 31
0.0
  0
LINE
  5
25CF
330
28B2
100
AcDbEntity
  8
0
 62
     0
100
AcDbLine
 10
-250.7000000000062
 20
-116.7377478397156
 30
0.0
 11
34.89999999999418
 21
-252.7376761200767
 31
0.0
  0
LINE
  5
25D0
330
28B2
100
AcDbEntity
  8
0
 62
     0
100
AcDbLine
 10
34.89999999999418
 20
-242.7377243759447
 30
0.0
 11
175.310852856217
 21
-309.6000000000013
 31
0.0
  0
LINE
  5
25D1
330
28B2
100
AcDbEntity
  8
0
 62
     0
100
AcDbLine
 10
175.310852856217
 20
-309.6000000000013
 30
0.0
 11
250.6999999999916
 21
-345.4995749463287
 31
0.0
  0
LINE
  5
25D2
330
28B2
100
AcDbEntity
  8
0
 62
     0
100
AcDbLine
 10
-231.6693617649144
 20
-115.800000000002
 30
0.0
 11
34.89999999999418
 21
-242.7377243759447
 31
0.0
  0
LINE
  5
25D3
330
28B2
100
AcDbEntity
  8
0
 62
     0
100
AcDbLine
 10
34.89999999999418
 20
-232.7377726318091
 30
0.0
 11
196.3107625932098
 21
-309.6000000000013
 31
0.0
  0
LINE
  5
25D4
330
28B2
100
AcDbEntity
  8
0
 62
     0
100
AcDbLine
 10
196.3107625932098
 20
-309.6000000000013
 30
0.0
 11
250.6999999999953
 21
-335.4996232021949
 31
0.0
  0
LINE
  5
25D5
330
28B2
100
AcDbEntity
  8
0
 62
     0
100
AcDbLine
 10
-210.6694520279216
 20
-115.800000000002
 30
0.0
 11
34.89999999999418
 21
-232.7377726318091
 31
0.0
  0
LINE
  5
25D6
330
28B2
100
AcDbEntity
  8
0
 62
     0
100
AcDbLine
 10
34.899999999996
 20
-222.7378208876753
 30
0.0
 11
217.3106723302008
 21
-309.6000000000013
 31
0.0
  0
LINE
  5
25D7
330
28B2
100
AcDbEntity
  8
0
 62
     0
100
AcDbLine
 10
217.3106723302008
 20
-309.6000000000013
 30
0.0
 11
250.6999999999933
 21
-325.4996714580593
 31
0.0
  0
LINE
  5
25D8
330
28B2
100
AcDbEntity
  8
0
 62
     0
100
AcDbLine
 10
-189.6695422909305
 20
-115.800000000002
 30
0.0
 11
34.899999999996
 21
-222.7378208876753
 31
0.0
  0
LINE
  5
25D9
330
28B2
100
AcDbEntity
  8
0
 62
     0
100
AcDbLine
 10
34.89999999999783
 20
-212.7378691435415
 30
0.0
 11
238.3105820671917
 21
-309.6000000000013
 31
0.0
  0
LINE
  5
25DA
330
28B2
100
AcDbEntity
  8
0
 62
     0
100
AcDbLine
 10
238.3105820671917
 20
-309.6000000000013
 30
0.0
 11
250.6999999999916
 21
-315.4997197139237
 31
0.0
  0
LINE
  5
25DB
330
28B2
100
AcDbEntity
  8
0
 62
     0
100
AcDbLine
 10
-168.6696325539396
 20
-115.800000000002
 30
0.0
 11
34.89999999999418
 21
-212.7378691435397
 31
0.0
  0
LINE
  5
25DC
330
28B2
100
AcDbEntity
  8
0
 62
     0
100
AcDbLine
 10
34.89999999999965
 20
-202.7379173994077
 30
0.0
 11
250.6999999999989
 21
-305.4997679697917
 31
0.0
  0
LINE
  5
25DD
330
28B2
100
AcDbEntity
  8
0
 62
     0
100
AcDbLine
 10
-147.6697228169468
 20
-115.800000000002
 30
0.0
 11
34.89999999999783
 21
-202.7379173994058
 31
0.0
  0
LINE
  5
25DE
330
28B2
100
AcDbEntity
  8
0
 62
     0
100
AcDbLine
 10
34.89999999999783
 20
-192.7379656552739
 30
0.0
 11
250.6999999999953
 21
-295.4998162256579
 31
0.0
  0
LINE
  5
25DF
330
28B2
100
AcDbEntity
  8
0
 62
     0
100
AcDbLine
 10
-126.6698130799577
 20
-115.8000000000038
 30
0.0
 11
34.89999999999418
 21
-192.7379656552721
 31
0.0
  0
LINE
  5
25E0
330
28B2
100
AcDbEntity
  8
0
 62
     0
100
AcDbLine
 10
34.89999999999965
 20
-182.7380139111401
 30
0.0
 11
250.6999999999971
 21
-285.4998644815241
 31
0.0
  0
LINE
  5
25E1
330
28B2
100
AcDbEntity
  8
0
 62
     0
100
AcDbLine
 10
-105.6699033429686
 20
-115.800000000002
 30
0.0
 11
34.899999999996
 21
-182.7380139111383
 31
0.0
  0
LINE
  5
25E2
330
28B2
100
AcDbEntity
  8
0
 62
     0
100
AcDbLine
 10
34.89999999999965
 20
-172.7380621670045
 30
0.0
 11
250.6999999999971
 21
-275.4999127373884
 31
0.0
  0
LINE
  5
25E3
330
28B2
100
AcDbEntity
  8
0
 62
     0
100
AcDbLine
 10
-84.66999360597766
 20
-115.800000000002
 30
0.0
 11
34.899999999996
 21
-172.7380621670027
 31
0.0
  0
LINE
  5
25E4
330
28B2
100
AcDbEntity
  8
0
 62
     0
100
AcDbLine
 10
34.89999999999965
 20
-162.7381104228707
 30
0.0
 11
250.6999999999971
 21
-265.4999609932547
 31
0.0
  0
LINE
  5
25E5
330
28B2
100
AcDbEntity
  8
0
 62
     0
100
AcDbLine
 10
-63.6700838689885
 20
-115.800000000002
 30
0.0
 11
34.89999999999236
 21
-162.738110422868
 31
0.0
  0
LINE
  5
25E6
330
28B2
100
AcDbEntity
  8
0
 62
     0
100
AcDbLine
 10
34.89999999999783
 20
-152.7381586787351
 30
0.0
 11
250.6999999999971
 21
-255.5000092491191
 31
0.0
  0
LINE
  5
25E7
330
28B2
100
AcDbEntity
  8
0
 62
     0
100
AcDbLine
 10
-42.67017413199574
 20
-115.8000000000011
 30
0.0
 11
34.899999999996
 21
-152.7381586787342
 31
0.0
  0
LINE
  5
25E8
330
28B2
100
AcDbEntity
  8
0
 62
     0
100
AcDbLine
 10
34.90000000000146
 20
-142.7382069346031
 30
0.0
 11
250.6999999999989
 21
-245.5000575049871
 31
0.0
  0
LINE
  5
25E9
330
28B2
100
AcDbEntity
  8
0
 62
     0
100
AcDbLine
 10
-21.67026439500476
 20
-115.8000000000029
 30
0.0
 11
34.89999999999418
 21
-142.7382069346004
 31
0.0
  0
LINE
  5
25EA
330
28B2
100
AcDbEntity
  8
0
 62
     0
100
AcDbLine
 10
34.89999999999783
 20
-132.7382551904675
 30
0.0
 11
250.6999999999953
 21
-235.5001057608515
 31
0.0
  0
LINE
  5
25EB
330
28B2
100
AcDbEntity
  8
0
 62
     0
100
AcDbLine
 10
-0.6703546580174589
 20
-115.8000000000011
 30
0.0
 11
34.89999999999418
 21
-132.7382551904666
 31
0.0
  0
LINE
  5
25EC
330
28B2
100
AcDbEntity
  8
0
 62
     0
100
AcDbLine
 10
34.89999999999783
 20
-122.7383034463318
 30
0.0
 11
250.6999999999953
 21
-225.5001540167159
 31
0.0
  0
LINE
  5
25ED
330
28B2
100
AcDbEntity
  8
0
 62
     0
100
AcDbLine
 10
20.3295550789735
 20
-115.8000000000011
 30
0.0
 11
34.89999999999418
 21
-122.738303446331
 31
0.0
  0
LINE
  5
25EE
330
28B2
100
AcDbEntity
  8
0
 62
     0
100
AcDbLine
 10
41.32946481596991
 20
-115.8000000000029
 30
0.0
 11
250.6999999999971
 21
-215.5002022725821
 31
0.0
  0
LINE
  5
25EF
330
28B2
100
AcDbEntity
  8
0
 62
     0
100
AcDbLine
 10
62.32937455295905
 20
-115.8000000000029
 30
0.0
 11
250.6999999999916
 21
-205.5002505284456
 31
0.0
  0
LINE
  5
25F0
330
28B2
100
AcDbEntity
  8
0
 62
     0
100
AcDbLine
 10
83.32928428995002
 20
-115.8000000000011
 30
0.0
 11
250.6999999999953
 21
-195.5002987843118
 31
0.0
  0
LINE
  5
25F1
330
28B2
100
AcDbEntity
  8
0
 62
     0
100
AcDbLine
 10
104.3291940269391
 20
-115.8000000000029
 30
0.0
 11
250.6999999999933
 21
-185.500347040178
 31
0.0
  0
LINE
  5
25F2
330
28B2
100
AcDbEntity
  8
0
 62
     0
100
AcDbLine
 10
125.3291037639283
 20
-115.8000000000029
 30
0.0
 11
250.6999999999933
 21
-175.5003952960442
 31
0.0
  0
LINE
  5
25F3
330
28B2
100
AcDbEntity
  8
0
 62
     0
100
AcDbLine
 10
146.3290135009229
 20
-115.8000000000029
 30
0.0
 11
250.6999999999933
 21
-165.5004435519086
 31
0.0
  0
LINE
  5
25F4
330
28B2
100
AcDbEntity
  8
0
 62
     0
100
AcDbLine
 10
167.3289232379084
 20
-115.8000000000011
 30
0.0
 11
250.6999999999916
 21
-155.5004918077729
 31
0.0
  0
LINE
  5
25F5
330
28B2
100
AcDbEntity
  8
0
 62
     0
100
AcDbLine
 10
188.3288329749012
 20
-115.8000000000011
 30
0.0
 11
250.6999999999933
 21
-145.5005400636391
 31
0.0
  0
LINE
  5
25F6
330
28B2
100
AcDbEntity
  8
0
 62
     0
100
AcDbLine
 10
209.3287427118921
 20
-115.800000000002
 30
0.0
 11
250.6999999999933
 21
-135.5005883195053
 31
0.0
  0
LINE
  5
25F7
330
28B2
100
AcDbEntity
  8
0
 62
     0
100
AcDbLine
 10
230.3286524488831
 20
-115.800000000002
 30
0.0
 11
250.6999999999933
 21
-125.5006365753716
 31
0.0
  0
ENDBLK
  5
25F8
330
28B2
100
AcDbEntity
  8
0
100
AcDbBlockEnd
  0
BLOCK
  5
28B5
330
28B4
100
AcDbEntity
  8
0
100
AcDbBlockBegin
  2
*X77
 70
     1
 10
0.0
 20
0.0
 30
0.0
  3
*X77
  1

  0
LINE
  5
25FB
330
28B4
100
AcDbEntity
  8
0
 62
     0
100
AcDbLine
 10
250.5804235696414
 20
-574.2000000000016
 30
0.0
 11
250.7000000000007
 21
-574.1430588727151
 31
0.0
  0
LINE
  5
25FC
330
28B4
100
AcDbEntity
  8
0
 62
     0
100
AcDbLine
 10
229.5805138326541
 20
-574.2000000000016
 30
0.0
 11
250.7000000000007
 21
-564.1431071285815
 31
0.0
  0
LINE
  5
25FD
330
28B4
100
AcDbEntity
  8
0
 62
     0
100
AcDbLine
 10
208.5806040956632
 20
-574.1999999999998
 30
0.0
 11
250.7000000000007
 21
-554.1431553844457
 31
0.0
  0
LINE
  5
25FE
330
28B4
100
AcDbEntity
  8
0
 62
     0
100
AcDbLine
 10
187.5806943586721
 20
-574.2000000000007
 30
0.0
 11
250.7000000000007
 21
-544.143203640313
 31
0.0
  0
LINE
  5
25FF
330
28B4
100
AcDbEntity
  8
0
 62
     0
100
AcDbLine
 10
166.5807846216812
 20
-574.2000000000007
 30
0.0
 11
250.7000000000044
 21
-534.1432518961774
 31
0.0
  0
LINE
  5
2600
330
28B4
100
AcDbEntity
  8
0
 62
     0
100
AcDbLine
 10
145.5808748846902
 20
-574.2000000000016
 30
0.0
 11
250.6999999999971
 21
-524.1433001520444
 31
0.0
  0
LINE
  5
2601
330
28B4
100
AcDbEntity
  8
0
 62
     0
100
AcDbLine
 10
124.5809651476993
 20
-574.2000000000016
 30
0.0
 11
250.7000000000007
 21
-514.1433484079088
 31
0.0
  0
LINE
  5
2602
330
28B4
100
AcDbEntity
  8
0
 62
     0
100
AcDbLine
 10
103.5810554107083
 20
-574.2000000000016
 30
0.0
 11
250.7000000000044
 21
-504.143396663774
 31
0.0
  0
LINE
  5
2603
330
28B4
100
AcDbEntity
  8
0
 62
     0
100
AcDbLine
 10
82.58114567371737
 20
-574.2000000000025
 30
0.0
 11
250.7000000000007
 21
-494.1434449196413
 31
0.0
  0
LINE
  5
2604
330
28B4
100
AcDbEntity
  8
0
 62
     0
100
AcDbLine
 10
61.58123593673008
 20
-574.2000000000007
 30
0.0
 11
250.7000000000044
 21
-484.1434931755056
 31
0.0
  0
LINE
  5
2605
330
28B4
100
AcDbEntity
  8
0
 62
     0
100
AcDbLine
 10
40.5813261997391
 20
-574.2000000000007
 30
0.0
 11
250.7000000000007
 21
-474.1435414313718
 31
0.0
  0
LINE
  5
2606
330
28B4
100
AcDbEntity
  8
0
 62
     0
100
AcDbLine
 10
19.58141646274453
 20
-574.2000000000007
 30
0.0
 11
250.7000000000007
 21
-464.1435896872372
 31
0.0
  0
LINE
  5
2607
330
28B4
100
AcDbEntity
  8
0
 62
     0
100
AcDbLine
 10
-1.41849327424279
 20
-574.2000000000007
 30
0.0
 11
250.7000000000007
 21
-454.1436379431034
 31
0.0
  0
LINE
  5
2608
330
28B4
100
AcDbEntity
  8
0
 62
     0
100
AcDbLine
 10
-22.41840301123739
 20
-574.2000000000016
 30
0.0
 11
250.7000000000007
 21
-444.1436861989687
 31
0.0
  0
LINE
  5
2609
330
28B4
100
AcDbEntity
  8
0
 62
     0
100
AcDbLine
 10
-43.41831274822832
 20
-574.2000000000016
 30
0.0
 11
250.7000000000044
 21
-434.1437344548311
 31
0.0
  0
LINE
  5
260A
330
28B4
100
AcDbEntity
  8
0
 62
     0
100
AcDbLine
 10
-64.41822248521567
 20
-574.1999999999998
 30
0.0
 11
250.7000000000044
 21
-424.1437827106974
 31
0.0
  0
LINE
  5
260B
330
28B4
100
AcDbEntity
  8
0
 62
     0
100
AcDbLine
 10
-85.41813222220662
 20
-574.2000000000007
 30
0.0
 11
250.7000000000044
 21
-414.1438309665625
 31
0.0
  0
LINE
  5
260C
330
28B4
100
AcDbEntity
  8
0
 62
     0
100
AcDbLine
 10
-106.4180419591975
 20
-574.2000000000007
 30
0.0
 11
250.7000000000044
 21
-404.1438792224289
 31
0.0
  0
LINE
  5
260D
330
28B4
100
AcDbEntity
  8
0
 62
     0
100
AcDbLine
 10
-127.4179516961885
 20
-574.2000000000016
 30
0.0
 11
250.700000000008
 21
-394.1439274782942
 31
0.0
  0
LINE
  5
260E
330
28B4
100
AcDbEntity
  8
0
 62
     0
100
AcDbLine
 10
-148.4178614331795
 20
-574.2000000000016
 30
0.0
 11
250.7000000000044
 21
-384.1439757341604
 31
0.0
  0
LINE
  5
260F
330
28B4
100
AcDbEntity
  8
0
 62
     0
100
AcDbLine
 10
-169.4177711701668
 20
-574.1999999999998
 30
0.0
 11
250.7000000000044
 21
-374.1440239900248
 31
0.0
  0
LINE
  5
2610
330
28B4
100
AcDbEntity
  8
0
 62
     0
100
AcDbLine
 10
-190.4176809071578
 20
-574.2000000000007
 30
0.0
 11
250.700000000008
 21
-364.144072245891
 31
0.0
  0
LINE
  5
2611
330
28B4
100
AcDbEntity
  8
0
 62
     0
100
AcDbLine
 10
-211.4175906441523
 20
-574.2000000000007
 30
0.0
 11
250.7000000000044
 21
-354.1441205017563
 31
0.0
  0
LINE
  5
2612
330
28B4
100
AcDbEntity
  8
0
 62
     0
100
AcDbLine
 10
-232.4175003811397
 20
-574.2000000000007
 30
0.0
 11
250.700000000008
 21
-344.1441687576216
 31
0.0
  0
LINE
  5
2613
330
28B4
100
AcDbEntity
  8
0
 62
     0
100
AcDbLine
 10
-250.6999999999898
 20
-572.9059958642327
 30
0.0
 11
250.7000000000044
 21
-334.1442170134887
 31
0.0
  0
LINE
  5
2614
330
28B4
100
AcDbEntity
  8
0
 62
     0
100
AcDbLine
 10
-250.6999999999933
 20
-562.9060441200988
 30
0.0
 11
250.7000000000044
 21
-324.1442652693532
 31
0.0
  0
LINE
  5
2615
330
28B4
100
AcDbEntity
  8
0
 62
     0
100
AcDbLine
 10
-250.6999999999933
 20
-552.9060923759642
 30
0.0
 11
250.7000000000044
 21
-314.1443135252202
 31
0.0
  0
LINE
  5
2616
330
28B4
100
AcDbEntity
  8
0
 62
     0
100
AcDbLine
 10
239.2431536985132
 20
-309.6000000000004
 30
0.0
 11
250.6999999999971
 21
-304.1443617810892
 31
0.0
  0
LINE
  5
2617
330
28B4
100
AcDbEntity
  8
0
 62
     0
100
AcDbLine
 10
-250.6999999999933
 20
-542.9061406318306
 30
0.0
 11
239.2431536985132
 21
-309.6000000000004
 31
0.0
  0
LINE
  5
2618
330
28B4
100
AcDbEntity
  8
0
 62
     0
100
AcDbLine
 10
218.2432439615222
 20
-309.5999999999985
 30
0.0
 11
250.6999999999971
 21
-294.1444100369535
 31
0.0
  0
LINE
  5
2619
330
28B4
100
AcDbEntity
  8
0
 62
     0
100
AcDbLine
 10
-250.6999999999933
 20
-532.9061888876948
 30
0.0
 11
218.2432439615186
 21
-309.6000000000004
 31
0.0
  0
LINE
  5
261A
330
28B4
100
AcDbEntity
  8
0
 62
     0
100
AcDbLine
 10
197.2433342245313
 20
-309.5999999999995
 30
0.0
 11
250.7000000000007
 21
-284.1444582928188
 31
0.0
  0
LINE
  5
261B
330
28B4
100
AcDbEntity
  8
0
 62
     0
100
AcDbLine
 10
-250.6999999999898
 20
-522.906237143561
 30
0.0
 11
197.2433342245276
 21
-309.6000000000013
 31
0.0
  0
LINE
  5
261C
330
28B4
100
AcDbEntity
  8
0
 62
     0
100
AcDbLine
 10
176.2434244875367
 20
-309.5999999999995
 30
0.0
 11
250.6999999999971
 21
-274.1445065486851
 31
0.0
  0
LINE
  5
261D
330
28B4
100
AcDbEntity
  8
0
 62
     0
100
AcDbLine
 10
-250.6999999999971
 20
-512.9062853994263
 30
0.0
 11
176.2434244875367
 21
-309.6000000000013
 31
0.0
  0
LINE
  5
261E
330
28B4
100
AcDbEntity
  8
0
 62
     0
100
AcDbLine
 10
155.2435147505493
 20
-309.5999999999995
 30
0.0
 11
250.6999999999971
 21
-264.1445548045494
 31
0.0
  0
LINE
  5
261F
330
28B4
100
AcDbEntity
  8
0
 62
     0
100
AcDbLine
 10
-250.6999999999933
 20
-502.9063336552916
 30
0.0
 11
155.2435147505457
 21
-309.6000000000013
 31
0.0
  0
LINE
  5
2620
330
28B4
100
AcDbEntity
  8
0
 62
     0
100
AcDbLine
 10
134.2436050135584
 20
-309.6000000000004
 30
0.0
 11
250.6999999999971
 21
-254.1446030604165
 31
0.0
  0
LINE
  5
2621
330
28B4
100
AcDbEntity
  8
0
 62
     0
100
AcDbLine
 10
-250.6999999999933
 20
-492.9063819111576
 30
0.0
 11
134.2436050135547
 21
-309.6000000000022
 31
0.0
  0
LINE
  5
2622
330
28B4
100
AcDbEntity
  8
0
 62
     0
100
AcDbLine
 10
113.2436952765638
 20
-309.6000000000004
 30
0.0
 11
250.6999999999971
 21
-244.144651316281
 31
0.0
  0
LINE
  5
2623
330
28B4
100
AcDbEntity
  8
0
 62
     0
100
AcDbLine
 10
-250.6999999999933
 20
-482.9064301670231
 30
0.0
 11
113.2436952765601
 21
-309.6000000000022
 31
0.0
  0
LINE
  5
2624
330
28B4
100
AcDbEntity
  8
0
 62
     0
100
AcDbLine
 10
92.24378553957649
 20
-309.6000000000013
 30
0.0
 11
250.6999999999971
 21
-234.1446995721481
 31
0.0
  0
LINE
  5
2625
330
28B4
100
AcDbEntity
  8
0
 62
     0
100
AcDbLine
 10
-250.6999999999933
 20
-472.9064784228903
 30
0.0
 11
92.24378553957649
 21
-309.6000000000013
 31
0.0
  0
LINE
  5
2626
330
28B4
100
AcDbEntity
  8
0
 62
     0
100
AcDbLine
 10
71.24387580258555
 20
-309.6000000000013
 30
0.0
 11
250.6999999999971
 21
-224.1447478280124
 31
0.0
  0
LINE
  5
2627
330
28B4
100
AcDbEntity
  8
0
 62
     0
100
AcDbLine
 10
-250.6999999999933
 20
-462.9065266787545
 30
0.0
 11
71.24387580258555
 21
-309.6000000000013
 31
0.0
  0
LINE
  5
2628
330
28B4
100
AcDbEntity
  8
0
 62
     0
100
AcDbLine
 10
50.24396606559458
 20
-309.5999999999995
 30
0.0
 11
250.6999999999971
 21
-214.1447960838777
 31
0.0
  0
LINE
  5
2629
330
28B4
100
AcDbEntity
  8
0
 62
     0
100
AcDbLine
 10
-250.6999999999971
 20
-452.9065749346209
 30
0.0
 11
50.24396606559458
 21
-309.5999999999995
 31
0.0
  0
LINE
  5
262A
330
28B4
100
AcDbEntity
  8
0
 62
     0
100
AcDbLine
 10
34.89999999999783
 20
-306.906694910128
 30
0.0
 11
250.7000000000007
 21
-204.144844339743
 31
0.0
  0
LINE
  5
262B
330
28B4
100
AcDbEntity
  8
0
 62
     0
100
AcDbLine
 10
-250.6999999999933
 20
-442.9066231904862
 30
0.0
 11
34.89999999999783
 21
-306.906694910128
 31
0.0
  0
LINE
  5
262C
330
28B4
100
AcDbEntity
  8
0
 62
     0
100
AcDbLine
 10
34.90000000000146
 20
-296.9067431659933
 30
0.0
 11
250.7000000000044
 21
-194.1448925956074
 31
0.0
  0
LINE
  5
262D
330
28B4
100
AcDbEntity
  8
0
 62
     0
100
AcDbLine
 10
-250.6999999999898
 20
-432.9066714463506
 30
0.0
 11
34.89999999999783
 21
-296.9067431659942
 31
0.0
  0
LINE
  5
262E
330
28B4
100
AcDbEntity
  8
0
 62
     0
100
AcDbLine
 10
34.89999999999783
 20
-286.9067914218586
 30
0.0
 11
250.7000000000007
 21
-184.1449408514736
 31
0.0
  0
LINE
  5
262F
330
28B4
100
AcDbEntity
  8
0
 62
     0
100
AcDbLine
 10
-250.6999999999933
 20
-422.9067197022168
 30
0.0
 11
34.89999999999783
 21
-286.9067914218586
 31
0.0
  0
LINE
  5
2630
330
28B4
100
AcDbEntity
  8
0
 62
     0
100
AcDbLine
 10
34.90000000000146
 20
-276.9068396777247
 30
0.0
 11
250.7000000000007
 21
-174.1449891073388
 31
0.0
  0
LINE
  5
2631
330
28B4
100
AcDbEntity
  8
0
 62
     0
100
AcDbLine
 10
-250.6999999999933
 20
-412.9067679580819
 30
0.0
 11
34.90000000000146
 21
-276.9068396777247
 31
0.0
  0
LINE
  5
2632
330
28B4
100
AcDbEntity
  8
0
 62
     0
100
AcDbLine
 10
34.90000000000146
 20
-266.906887933591
 30
0.0
 11
250.7000000000007
 21
-164.1450373632051
 31
0.0
  0
LINE
  5
2633
330
28B4
100
AcDbEntity
  8
0
 62
     0
100
AcDbLine
 10
-250.6999999999933
 20
-402.9068162139481
 30
0.0
 11
34.90000000000146
 21
-266.906887933591
 31
0.0
  0
LINE
  5
2634
330
28B4
100
AcDbEntity
  8
0
 62
     0
100
AcDbLine
 10
34.89999999999783
 20
-256.9069361894563
 30
0.0
 11
250.7000000000007
 21
-154.1450856190704
 31
0.0
  0
LINE
  5
2635
330
28B4
100
AcDbEntity
  8
0
 62
     0
100
AcDbLine
 10
-250.6999999999933
 20
-392.9068644698136
 30
0.0
 11
34.89999999999783
 21
-256.9069361894563
 31
0.0
  0
LINE
  5
2636
330
28B4
100
AcDbEntity
  8
0
 62
     0
100
AcDbLine
 10
34.89999999999783
 20
-246.9069844453224
 30
0.0
 11
250.7000000000044
 21
-144.1451338749348
 31
0.0
  0
LINE
  5
2637
330
28B4
100
AcDbEntity
  8
0
 62
     0
100
AcDbLine
 10
-250.6999999999933
 20
-382.9069127256799
 30
0.0
 11
34.89999999999783
 21
-246.9069844453224
 31
0.0
  0
LINE
  5
2638
330
28B4
100
AcDbEntity
  8
0
 62
     0
100
AcDbLine
 10
34.90000000000146
 20
-236.9070327011868
 30
0.0
 11
250.7000000000044
 21
-134.145182130801
 31
0.0
  0
LINE
  5
2639
330
28B4
100
AcDbEntity
  8
0
 62
     0
100
AcDbLine
 10
-250.6999999999898
 20
-372.9069609815442
 30
0.0
 11
34.90000000000146
 21
-236.9070327011868
 31
0.0
  0
LINE
  5
263A
330
28B4
100
AcDbEntity
  8
0
 62
     0
100
AcDbLine
 10
34.90000000000146
 20
-226.9070809570521
 30
0.0
 11
250.7000000000007
 21
-124.1452303866663
 31
0.0
  0
LINE
  5
263B
330
28B4
100
AcDbEntity
  8
0
 62
     0
100
AcDbLine
 10
-250.6999999999971
 20
-362.9070092374113
 30
0.0
 11
34.89999999999783
 21
-226.907080957054
 31
0.0
  0
LINE
  5
263C
330
28B4
100
AcDbEntity
  8
0
 62
     0
100
AcDbLine
 10
34.90000000000146
 20
-216.9071292129183
 30
0.0
 11
247.2250833168182
 21
-115.800000000002
 31
0.0
  0
LINE
  5
263D
330
28B4
100
AcDbEntity
  8
0
 62
     0
100
AcDbLine
 10
-250.6999999999933
 20
-352.9070574932756
 30
0.0
 11
34.90000000000146
 21
-216.9071292129183
 31
0.0
  0
LINE
  5
263E
330
28B4
100
AcDbEntity
  8
0
 62
     0
100
AcDbLine
 10
34.89999999999783
 20
-206.9071774687827
 30
0.0
 11
226.2251735798272
 21
-115.8000000000011
 31
0.0
  0
LINE
  5
263F
330
28B4
100
AcDbEntity
  8
0
 62
     0
100
AcDbLine
 10
-250.6999999999933
 20
-342.9071057491401
 30
0.0
 11
34.89999999999783
 21
-206.9071774687827
 31
0.0
  0
LINE
  5
2640
330
28B4
100
AcDbEntity
  8
0
 62
     0
100
AcDbLine
 10
34.89999999999783
 20
-196.9072257246498
 30
0.0
 11
205.2252638428363
 21
-115.8000000000011
 31
0.0
  0
LINE
  5
2641
330
28B4
100
AcDbEntity
  8
0
 62
     0
100
AcDbLine
 10
-250.6999999999971
 20
-332.9071540050088
 30
0.0
 11
34.89999999999783
 21
-196.9072257246498
 31
0.0
  0
LINE
  5
2642
330
28B4
100
AcDbEntity
  8
0
 62
     0
100
AcDbLine
 10
34.90000000000146
 20
-186.9072739805141
 30
0.0
 11
184.2253541058453
 21
-115.8000000000011
 31
0.0
  0
LINE
  5
2643
330
28B4
100
AcDbEntity
  8
0
 62
     0
100
AcDbLine
 10
-250.6999999999933
 20
-322.9072022608735
 30
0.0
 11
34.90000000000146
 21
-186.9072739805141
 31
0.0
  0
LINE
  5
2644
330
28B4
100
AcDbEntity
  8
0
 62
     0
100
AcDbLine
 10
34.89999999999783
 20
-176.9073222363813
 30
0.0
 11
163.2254443688544
 21
-115.800000000002
 31
0.0
  0
LINE
  5
2645
330
28B4
100
AcDbEntity
  8
0
 62
     0
100
AcDbLine
 10
-250.6999999999971
 20
-312.9072505167405
 30
0.0
 11
34.89999999999783
 21
-176.9073222363813
 31
0.0
  0
LINE
  5
2646
330
28B4
100
AcDbEntity
  8
0
 62
     0
100
AcDbLine
 10
34.90000000000146
 20
-166.9073704922457
 30
0.0
 11
142.225534631867
 21
-115.8000000000002
 31
0.0
  0
LINE
  5
2647
330
28B4
100
AcDbEntity
  8
0
 62
     0
100
AcDbLine
 10
-250.6999999999971
 20
-302.9072987726049
 30
0.0
 11
34.90000000000146
 21
-166.9073704922457
 31
0.0
  0
LINE
  5
2648
330
28B4
100
AcDbEntity
  8
0
 62
     0
100
AcDbLine
 10
34.89999999999783
 20
-156.9074187481118
 30
0.0
 11
121.2256248948761
 21
-115.8000000000002
 31
0.0
  0
LINE
  5
2649
330
28B4
100
AcDbEntity
  8
0
 62
     0
100
AcDbLine
 10
-250.6999999999971
 20
-292.9073470284711
 30
0.0
 11
34.89999999999783
 21
-156.9074187481118
 31
0.0
  0
LINE
  5
264A
330
28B4
100
AcDbEntity
  8
0
 62
     0
100
AcDbLine
 10
34.89999999999783
 20
-146.9074670039772
 30
0.0
 11
100.2257151578815
 21
-115.8000000000011
 31
0.0
  0
LINE
  5
264B
330
28B4
100
AcDbEntity
  8
0
 62
     0
100
AcDbLine
 10
-250.6999999999971
 20
-282.9073952843364
 30
0.0
 11
34.89999999999783
 21
-146.9074670039772
 31
0.0
  0
LINE
  5
264C
330
28B4
100
AcDbEntity
  8
0
 62
     0
100
AcDbLine
 10
34.90000000000146
 20
-136.9075152598416
 30
0.0
 11
79.22580542089419
 21
-115.8000000000011
 31
0.0
  0
LINE
  5
264D
330
28B4
100
AcDbEntity
  8
0
 62
     0
100
AcDbLine
 10
-250.6999999999971
 20
-272.9074435402026
 30
0.0
 11
34.90000000000146
 21
-136.9075152598416
 31
0.0
  0
LINE
  5
264E
330
28B4
100
AcDbEntity
  8
0
 62
     0
100
AcDbLine
 10
34.90000000000146
 20
-126.9075635157078
 30
0.0
 11
58.22589568390322
 21
-115.8000000000011
 31
0.0
  0
LINE
  5
264F
330
28B4
100
AcDbEntity
  8
0
 62
     0
100
AcDbLine
 10
-250.6999999999971
 20
-262.907491796067
 30
0.0
 11
34.90000000000146
 21
-126.9075635157078
 31
0.0
  0
LINE
  5
2650
330
28B4
100
AcDbEntity
  8
0
 62
     0
100
AcDbLine
 10
34.90000000000146
 20
-116.9076117715731
 30
0.0
 11
37.22598594690863
 21
-115.800000000002
 31
0.0
  0
LINE
  5
2651
330
28B4
100
AcDbEntity
  8
0
 62
     0
100
AcDbLine
 10
-250.6999999999971
 20
-252.9075400519323
 30
0.0
 11
34.90000000000146
 21
-116.9076117715731
 31
0.0
  0
LINE
  5
2652
330
28B4
100
AcDbEntity
  8
0
 62
     0
100
AcDbLine
 10
-250.6999999999971
 20
-242.9075883077985
 30
0.0
 11
16.2260762099213
 21
-115.800000000002
 31
0.0
  0
LINE
  5
2653
330
28B4
100
AcDbEntity
  8
0
 62
     0
100
AcDbLine
 10
-250.6999999999971
 20
-232.9076365636647
 30
0.0
 11
-4.773833527073292
 21
-115.8000000000029
 31
0.0
  0
LINE
  5
2654
330
28B4
100
AcDbEntity
  8
0
 62
     0
100
AcDbLine
 10
-250.6999999999971
 20
-222.90768481953
 30
0.0
 11
-25.77374326406425
 21
-115.800000000002
 31
0.0
  0
LINE
  5
2655
330
28B4
100
AcDbEntity
  8
0
 62
     0
100
AcDbLine
 10
-250.6999999999971
 20
-212.9077330753953
 30
0.0
 11
-46.77365300105157
 21
-115.8000000000011
 31
0.0
  0
LINE
  5
2656
330
28B4
100
AcDbEntity
  8
0
 62
     0
100
AcDbLine
 10
-250.6999999999971
 20
-202.9077813312615
 30
0.0
 11
-67.77356273803889
 21
-115.8000000000011
 31
0.0
  0
LINE
  5
2657
330
28B4
100
AcDbEntity
  8
0
 62
     0
100
AcDbLine
 10
-250.6999999999971
 20
-192.9078295871268
 30
0.0
 11
-88.77347247502985
 21
-115.8000000000002
 31
0.0
  0
LINE
  5
2658
330
28B4
100
AcDbEntity
  8
0
 62
     0
100
AcDbLine
 10
-250.6999999999971
 20
-182.907877842993
 30
0.0
 11
-109.7733822120208
 21
-115.8000000000002
 31
0.0
  0
LINE
  5
2659
330
28B4
100
AcDbEntity
  8
0
 62
     0
100
AcDbLine
 10
-250.6999999999971
 20
-172.9079260988583
 30
0.0
 11
-130.7732919490154
 21
-115.8000000000002
 31
0.0
  0
LINE
  5
265A
330
28B4
100
AcDbEntity
  8
0
 62
     0
100
AcDbLine
 10
-250.6999999999971
 20
-162.9079743547227
 30
0.0
 11
-151.7732016860027
 21
-115.8000000000002
 31
0.0
  0
LINE
  5
265B
330
28B4
100
AcDbEntity
  8
0
 62
     0
100
AcDbLine
 10
-250.6999999999971
 20
-152.9080226105898
 30
0.0
 11
-172.7731114229936
 21
-115.8000000000011
 31
0.0
  0
LINE
  5
265C
330
28B4
100
AcDbEntity
  8
0
 62
     0
100
AcDbLine
 10
-250.6999999999971
 20
-142.9080708664542
 30
0.0
 11
-193.7730211599883
 21
-115.8000000000011
 31
0.0
  0
LINE
  5
265D
330
28B4
100
AcDbEntity
  8
0
 62
     0
100
AcDbLine
 10
-250.6999999999971
 20
-132.9081191223204
 30
0.0
 11
-214.7729308969756
 21
-115.8000000000011
 31
0.0
  0
LINE
  5
265E
330
28B4
100
AcDbEntity
  8
0
 62
     0
100
AcDbLine
 10
-250.6999999999933
 20
-122.9081673781857
 30
0.0
 11
-235.7728406339666
 21
-115.800000000002
 31
0.0
  0
ENDBLK
  5
265F
330
28B4
100
AcDbEntity
  8
0
100
AcDbBlockEnd
  0
BLOCK
  5
2A89
330
2A88
100
AcDbEntity
  8
0
100
AcDbBlockBegin
  2
*U78
 70
     1
 10
0.0
 20
0.0
 30
0.0
  3
*U78
  1

  0
ENDBLK
  5
2A8A
330
2A88
100
AcDbEntity
  8
0
100
AcDbBlockEnd
  0
ENDSEC
  0
SECTION
  2
ENTITIES
  0
TEXT
  5
953
330
27D3
100
AcDbEntity
  8
OUTLINE
  6
Continuous
 62
     3
100
AcDbText
 10
-418.231467
 20
13.715189
 30
0.0
 40
64.0
  1
 
 41
0.9
100
AcDbText
  0
TEXT
  5
954
330
27D3
100
AcDbEntity
  8
OUTLINE
  6
Continuous
 62
     3
100
AcDbText
 10
-418.231467
 20
13.715189
 30
0.0
 40
64.0
  1
 
 41
0.9
100
AcDbText
  0
TEXT
  5
955
330
27D3
100
AcDbEntity
  8
OUTLINE
  6
Continuous
 62
     3
100
AcDbText
 10
1341.41903
 20
-706.0588199999997
 30
0.0
 40
64.0
  1
 
 41
0.9
100
AcDbText
  0
TEXT
  5
956
330
27D3
100
AcDbEntity
  8
OUTLINE
  6
Continuous
 62
     3
100
AcDbText
 10
1341.41903
 20
-706.0588199999997
 30
0.0
 40
64.0
  1
 
 41
0.9
100
AcDbText
  0
TEXT
  5
957
330
27D3
100
AcDbEntity
  8
OUTLINE
  6
Continuous
 62
     3
100
AcDbText
 10
1341.41903
 20
-706.0588199999997
 30
0.0
 40
64.0
  1
 
 41
0.9
100
AcDbText
  0
TEXT
  5
958
330
27D3
100
AcDbEntity
  8
OUTLINE
  6
Continuous
 62
     3
100
AcDbText
 10
1341.41903
 20
-706.0588199999997
 30
0.0
 40
64.0
  1
 
 41
0.9
100
AcDbText
  0
INSERT
  5
2BE9
330
27D3
100
AcDbEntity
  8
NOTE
100
AcDbBlockReference
  2
_OPEN30
 10
-267.1455457126526
 20
923.4217309899236
 30
0.0
 41
11.99999999999906
 42
12.0
 43
12.0
 50
312.6090116116846
1001
ACAD
1000
DSTYLE
1002
{
1070
    41
1040
12.0
1070
    42
1040
20.0
1070
    43
1040
200.0
1070
    44
1040
20.0
1070
    73
1070
     0
1070
    74
1070
     0
1070
    77
1070
     1
1070
    78
1070
     8
1070
   140
1040
64.0
1070
   147
1040
50.0
1070
   172
1070
     1
1070
   174
1070
     1
1070
   275
1070
     0
1070
   284
1070
     0
1070
   285
1070
     0
1070
   286
1070
     0
1070
   341
1005
2822
1070
   342
1005
2820
1002
}
  0
LWPOLYLINE
  5
2BEA
330
27D3
100
AcDbEntity
  8
NOTE
100
AcDbPolyline
 90
        3
 70
     0
 43
0.0
 10
-275.2694465488407
 20
932.253618398839
 10
-355.0149457049069
 20
1018.948826047937
 10
-903.5978028477643
 20
1018.948826047937
1001
ACAD
1000
DSTYLE
1002
{
1070
    41
1040
12.0
1070
    42
1040
20.0
1070
    43
1040
200.0
1070
    44
1040
20.0
1070
    73
1070
     0
1070
    74
1070
     0
1070
    77
1070
     1
1070
    78
1070
     8
1070
   140
1040
64.0
1070
   147
1040
50.0
1070
   172
1070
     1
1070
   174
1070
     1
1070
   275
1070
     0
1070
   284
1070
     0
1070
   285
1070
     0
1070
   286
1070
     0
1070
   341
1005
2822
1070
   342
1005
2820
1002
}
  0
TEXT
  5
2BEB
330
27D3
100
AcDbEntity
  8
NOTE
100
AcDbText
 10
-911.826374276336
 20
1036.948826047937
 30
0.0
 40
64.0
  1
4×φ15取付穴
 41
0.9
100
AcDbText
  0
TEXT
  5
2BEC
330
27D3
100
AcDbEntity
  8
ETC
100
AcDbText
 10
477.1482123063083
 20
1169.657105922657
 30
0.0
 40
64.0
  1
システム部材
 41
0.9
100
AcDbText
  0
TEXT
  5
2BED
330
27D3
100
AcDbEntity
  8
ETC
100
AcDbText
 10
483.3562103063063
 20
1270.540431922658
 30
0.0
 40
64.0
  1
QW-50SC_6
 41
0.9
100
AcDbText
  0
TEXT
  5
2BEE
330
27D3
100
AcDbEntity
  8
ETC
100
AcDbText
 10
477.1482123063083
 20
1069.657105922657
 30
0.0
 40
64.0
  1
QW-50SC
 41
0.9
100
AcDbText
  0
POINT
  5
2BEF
330
27D3
100
AcDbEntity
  8
ARRANGE
100
AcDbPoint
 10
12.85445428734738
 20
923.4217309899236
 30
0.0
 39
50.0
  0
LINE
  5
2BF0
330
27D3
100
AcDbEntity
  8
DETAIL
100
AcDbLine
 10
263.5544542873481
 20
349.2217309899238
 30
0.0
 11
263.5544542873481
 21
807.6217309899234
 31
0.0
  0
LINE
  5
2BF1
330
27D3
100
AcDbEntity
  8
DETAIL
100
AcDbLine
 10
-237.8455457126497
 20
807.6217309899238
 30
0.0
 11
-237.8455457126497
 21
349.2217309899238
 31
0.0
  0
LINE
  5
2BF2
330
27D3
100
AcDbEntity
  8
SIZE
100
AcDbLine
 10
-287.1455457126526
 20
333.4217309899236
 30
0.0
 11
-538.8768050493768
 21
333.4217309899236
 31
0.0
  0
LINE
  5
2BF3
330
27D3
100
AcDbEntity
  8
SIZE
100
AcDbLine
 10
-307.1455457126526
 20
923.4217309899236
 30
0.0
 11
-538.8768050493768
 21
923.4217309899236
 31
0.0
  0
LINE
  5
2BF4
330
27D3
100
AcDbEntity
  8
SIZE
100
AcDbLine
 10
-518.8768050493767
 20
345.4217309899236
 30
0.0
 11
-518.8768050493767
 21
911.4217309899236
 31
0.0
  0
INSERT
  5
2BF5
330
27D3
100
AcDbEntity
  8
SIZE
100
AcDbBlockReference
  2
_DOTBLANK
 10
-518.8768050493767
 20
333.4217309899236
 30
0.0
 41
12.0
 42
12.0
 43
12.0
 50
270.0
  0
INSERT
  5
2BF6
330
27D3
100
AcDbEntity
  8
SIZE
100
AcDbBlockReference
  2
_DOTBLANK
 10
-518.8768050493767
 20
923.4217309899236
 30
0.0
 41
12.0
 42
12.0
 43
12.0
 50
90.0
  0
MTEXT
  5
2BF7
330
27D3
100
AcDbEntity
  8
SIZE
100
AcDbMText
 10
-560.8768050493767
 20
628.4217309899235
 30
0.0
 40
64.0
 41
0.0
 46
0.0
 71
     5
 72
     1
  1
\A1;590
 11
0.0000000000000001
 21
1.0
 31
0.0
 73
     1
 44
1.0
  0
LINE
  5
2BF8
330
27D3
100
AcDbEntity
  8
BASIS
100
AcDbLine
 10
12.85445428734738
 20
948.4217309899236
 30
0.0
 11
12.85445428734738
 21
287.4217309899241
 31
0.0
  0
LINE
  5
2BF9
330
27D3
100
AcDbEntity
  8
SIZE
100
AcDbLine
 10
292.8544542873474
 20
955.9217309899237
 30
0.0
 11
292.8544542873474
 21
1104.553821999541
 31
0.0
  0
LINE
  5
2BFA
330
27D3
100
AcDbEntity
  8
SIZE
100
AcDbLine
 10
-267.1455457126526
 20
955.9217309899237
 30
0.0
 11
-267.1455457126526
 21
1104.553821999541
 31
0.0
  0
LINE
  5
2BFB
330
27D3
100
AcDbEntity
  8
SIZE
100
AcDbLine
 10
280.8544542873474
 20
1084.553821999541
 30
0.0
 11
-255.1455457126526
 21
1084.553821999541
 31
0.0
  0
INSERT
  5
2BFC
330
27D3
100
AcDbEntity
  8
SIZE
100
AcDbBlockReference
  2
_DOTBLANK
 10
292.8544542873474
 20
1084.553821999541
 30
0.0
 41
12.0
 42
12.0
 43
12.0
  0
INSERT
  5
2BFD
330
27D3
100
AcDbEntity
  8
SIZE
100
AcDbBlockReference
  2
_DOTBLANK
 10
-267.1455457126526
 20
1084.553821999541
 30
0.0
 41
12.0
 42
12.0
 43
12.0
 50
180.0
  0
MTEXT
  5
2BFE
330
27D3
100
AcDbEntity
  8
SIZE
100
AcDbMText
 10
12.2985766533543
 20
1126.553821999541
 30
0.0
 40
64.0
 41
0.0
 46
0.0
 71
     5
 72
     1
  1
\A1;560
 73
     1
 44
1.0
  0
LINE
  5
2BFF
330
27D3
100
AcDbEntity
  8
SIZE
100
AcDbLine
 10
312.8544542873474
 20
943.4217309899237
 30
0.0
 11
312.8544542873474
 21
1223.108323926441
 31
0.0
  0
LINE
  5
2C00
330
27D3
100
AcDbEntity
  8
SIZE
100
AcDbLine
 10
-287.1455457126526
 20
943.4217309899237
 30
0.0
 11
-287.1455457126526
 21
1223.108323926441
 31
0.0
  0
LINE
  5
2C01
330
27D3
100
AcDbEntity
  8
SIZE
100
AcDbLine
 10
300.8544542873474
 20
1203.108323926441
 30
0.0
 11
-275.1455457126526
 21
1203.108323926441
 31
0.0
  0
INSERT
  5
2C02
330
27D3
100
AcDbEntity
  8
SIZE
100
AcDbBlockReference
  2
_DOTBLANK
 10
312.8544542873474
 20
1203.108323926441
 30
0.0
 41
12.0
 42
12.0
 43
12.0
  0
INSERT
  5
2C03
330
27D3
100
AcDbEntity
  8
SIZE
100
AcDbBlockReference
  2
_DOTBLANK
 10
-287.1455457126526
 20
1203.108323926441
 30
0.0
 41
12.0
 42
12.0
 43
12.0
 50
180.0
  0
MTEXT
  5
2C04
330
27D3
100
AcDbEntity
  8
SIZE
100
AcDbMText
 10
12.85445428734738
 20
1245.108323926441
 30
0.0
 40
64.0
 41
0.0
 46
0.0
 71
     5
 72
     1
  1
\A1;600
 73
     1
 44
1.0
  0
LINE
  5
2C05
330
27D3
100
AcDbEntity
  8
DETAIL
100
AcDbLine
 10
-237.8455457126497
 20
807.6217309899238
 30
0.0
 11
263.5544542873481
 21
807.6217309899234
 31
0.0
  0
LINE
  5
2C06
330
27D3
100
AcDbEntity
  8
NOTE
100
AcDbLine
 10
-267.1455457126526
 20
935.9217309899236
 30
0.0
 11
-267.1455457126526
 21
910.9217309899234
 31
0.0
  0
CIRCLE
  5
2C07
330
27D3
100
AcDbEntity
  8
ARRANGE
100
AcDbCircle
 10
12.85445428734738
 20
923.4217309899236
 30
0.0
 40
40.0
  0
LINE
  5
2C08
330
27D3
100
AcDbEntity
  8
NOTE
100
AcDbLine
 10
292.8544542873474
 20
910.9217309899237
 30
0.0
 11
292.8544542873474
 21
935.9217309899236
 31
0.0
  0
LINE
  5
2C09
330
27D3
100
AcDbEntity
  8
DETAIL
100
AcDbLine
 10
263.5544542873481
 20
349.2217309899238
 30
0.0
 11
-237.8455457126497
 21
349.2217309899238
 31
0.0
  0
LINE
  5
2C0A
330
27D3
100
AcDbEntity
  8
SIZE
100
AcDbLine
 10
292.8544542873474
 20
313.4217309899236
 30
0.0
 11
292.8544542873474
 21
133.4527455936395
 31
0.0
  0
LINE
  5
2C0B
330
27D3
100
AcDbEntity
  8
SIZE
100
AcDbLine
 10
-267.1455457126526
 20
313.4217309899236
 30
0.0
 11
-267.1455457126526
 21
133.4527455936395
 31
0.0
  0
LINE
  5
2C0C
330
27D3
100
AcDbEntity
  8
SIZE
100
AcDbLine
 10
280.8544542873474
 20
153.4527455936395
 30
0.0
 11
-255.1455457126526
 21
153.4527455936395
 31
0.0
  0
INSERT
  5
2C0D
330
27D3
100
AcDbEntity
  8
SIZE
100
AcDbBlockReference
  2
_DOTBLANK
 10
292.8544542873474
 20
153.4527455936395
 30
0.0
 41
12.0
 42
12.0
 43
12.0
  0
INSERT
  5
2C0E
330
27D3
100
AcDbEntity
  8
SIZE
100
AcDbBlockReference
  2
_DOTBLANK
 10
-267.1455457126526
 20
153.4527455936395
 30
0.0
 41
12.0
 42
12.0
 43
12.0
 50
180.0
  0
MTEXT
  5
2C0F
330
27D3
100
AcDbEntity
  8
SIZE
100
AcDbMText
 10
12.85445428734738
 20
195.4527455936395
 30
0.0
 40
64.0
 41
0.0
 46
0.0
 71
     5
 72
     1
  1
\A1;560
 73
     1
 44
1.0
  0
LINE
  5
2C10
330
27D3
100
AcDbEntity
  8
SIZE
100
AcDbLine
 10
-287.1455457126526
 20
333.4217309899236
 30
0.0
 11
-538.8768050493768
 21
333.4217309899236
 31
0.0
  0
LINE
  5
2C11
330
27D3
100
AcDbEntity
  8
SIZE
100
AcDbLine
 10
-273.6455457126526
 20
312.4217309899241
 30
0.0
 11
-538.8768050493768
 21
312.4217309899241
 31
0.0
  0
LINE
  5
2C12
330
27D3
100
AcDbEntity
  8
SIZE
100
AcDbLine
 10
-518.8768050493767
 20
345.4217309899236
 30
0.0
 11
-518.8768050493767
 21
357.4217309899236
 31
0.0
  0
LINE
  5
2C13
330
27D3
100
AcDbEntity
  8
SIZE
100
AcDbLine
 10
-518.8768050493767
 20
300.4217309899241
 30
0.0
 11
-518.8768050493767
 21
191.6217309899239
 31
0.0
  0
LINE
  5
2C14
330
27D3
100
AcDbEntity
  8
SIZE
100
AcDbLine
 10
-518.8768050493767
 20
333.4217309899236
 30
0.0
 11
-518.8768050493767
 21
312.4217309899241
 31
0.0
  0
INSERT
  5
2C15
330
27D3
100
AcDbEntity
  8
SIZE
100
AcDbBlockReference
  2
_DOTBLANK
 10
-518.8768050493767
 20
333.4217309899236
 30
0.0
 41
12.0
 42
12.0
 43
12.0
 50
270.0
  0
INSERT
  5
2C16
330
27D3
100
AcDbEntity
  8
SIZE
100
AcDbBlockReference
  2
_DOTBLANK
 10
-518.8768050493767
 20
312.4217309899241
 30
0.0
 41
12.0
 42
12.0
 43
12.0
 50
90.0
  0
MTEXT
  5
2C17
330
27D3
100
AcDbEntity
  8
SIZE
100
AcDbMText
 10
-560.8768050493767
 20
240.0217309899208
 30
0.0
 40
64.0
 41
0.0
 46
0.0
 71
     5
 72
     1
  1
\A1;21
 11
0.0000000000000001
 21
1.0
 31
0.0
 73
     1
 44
1.0
  0
LINE
  5
2C18
330
27D3
100
AcDbEntity
  8
SIZE
100
AcDbLine
 10
332.8544542873474
 20
923.4217309899236
 30
0.0
 11
439.2697377884046
 21
923.4217309899236
 31
0.0
  0
LINE
  5
2C19
330
27D3
100
AcDbEntity
  8
SIZE
100
AcDbLine
 10
332.8544542873474
 20
913.4217309899236
 30
0.0
 11
439.2697377884046
 21
913.4217309899236
 31
0.0
  0
LINE
  5
2C1A
330
27D3
100
AcDbEntity
  8
SIZE
100
AcDbLine
 10
419.2697377884046
 20
935.4217309899237
 30
0.0
 11
419.2697377884046
 21
947.4217309899236
 31
0.0
  0
LINE
  5
2C1B
330
27D3
100
AcDbEntity
  8
SIZE
100
AcDbLine
 10
419.2697377884046
 20
901.4217309899235
 30
0.0
 11
419.2697377884046
 21
784.3931595613521
 31
0.0
  0
LINE
  5
2C1C
330
27D3
100
AcDbEntity
  8
SIZE
100
AcDbLine
 10
419.2697377884046
 20
923.4217309899236
 30
0.0
 11
419.2697377884046
 21
913.4217309899236
 31
0.0
  0
INSERT
  5
2C1D
330
27D3
100
AcDbEntity
  8
SIZE
100
AcDbBlockReference
  2
_DOTBLANK
 10
419.2697377884046
 20
923.4217309899236
 30
0.0
 41
12.0
 42
12.0
 43
12.0
 50
270.0
  0
INSERT
  5
2C1E
330
27D3
100
AcDbEntity
  8
SIZE
100
AcDbBlockReference
  2
_DOTBLANK
 10
419.2697377884046
 20
913.4217309899236
 30
0.0
 41
12.0
 42
12.0
 43
12.0
 50
90.0
  0
MTEXT
  5
2C1F
330
27D3
100
AcDbEntity
  8
SIZE
100
AcDbMText
 10
377.2697377884047
 20
836.9074452756345
 30
0.0
 40
64.0
 41
0.0
 46
0.0
 71
     5
 72
     1
  1
\A1;10
 11
0.0000000000000001
 21
1.0
 31
0.0
 73
     1
 44
1.0
  0
LINE
  5
2C20
330
27D3
100
AcDbEntity
  8
DETAIL
100
AcDbLine
 10
-253.6455457126526
 20
823.4217309899236
 30
0.0
 11
-253.6455457126526
 21
312.4217309899241
 31
0.0
  0
LINE
  5
2C21
330
27D3
100
AcDbEntity
  8
DETAIL
100
AcDbLine
 10
279.3544542873474
 20
312.4217309899236
 30
0.0
 11
279.3544542873474
 21
823.4217309899236
 31
0.0
  0
LINE
  5
2C22
330
27D3
100
AcDbEntity
  8
DETAIL
100
AcDbLine
 10
292.8544542873474
 20
333.4217309899241
 30
0.0
 11
292.8544542873474
 21
838.4217309899236
 31
0.0
  0
LINE
  5
2C23
330
27D3
100
AcDbEntity
  8
DETAIL
100
AcDbLine
 10
-267.1455457126526
 20
838.4217309899236
 30
0.0
 11
-267.1455457126526
 21
333.4217309899236
 31
0.0
  0
LINE
  5
2C24
330
27D3
100
AcDbEntity
  8
DETAIL
100
AcDbLine
 10
-267.1455457126526
 20
838.4217309899236
 30
0.0
 11
292.8544542873474
 21
838.4217309899236
 31
0.0
  0
LINE
  5
2C25
330
27D3
100
AcDbEntity
  8
DETAIL
100
AcDbLine
 10
-253.6455457126526
 20
823.4217309899236
 30
0.0
 11
279.3544542873474
 21
823.4217309899236
 31
0.0
  0
LINE
  5
2C26
330
27D3
100
AcDbEntity
  8
DETAIL
100
AcDbLine
 10
-287.1455457126526
 20
923.4217309899236
 30
0.0
 11
312.8544542873474
 21
923.4217309899236
 31
0.0
  0
LINE
  5
2C27
330
27D3
100
AcDbEntity
  8
DETAIL
100
AcDbLine
 10
-287.1455457126526
 20
913.4217309899236
 30
0.0
 11
312.8544542873474
 21
913.4217309899236
 31
0.0
  0
LINE
  5
2C28
330
27D3
100
AcDbEntity
  8
DETAIL
100
AcDbLine
 10
-253.6455457126526
 20
723.4217309899236
 30
0.0
 11
-253.6455457126526
 21
823.4217309899236
 31
0.0
  0
LINE
  5
2C29
330
27D3
100
AcDbEntity
  8
DETAIL
100
AcDbLine
 10
-287.1455457126526
 20
913.4217309899236
 30
0.0
 11
-287.1455457126526
 21
923.4217309899236
 31
0.0
  0
LINE
  5
2C2A
330
27D3
100
AcDbEntity
  8
DETAIL
100
AcDbLine
 10
-253.6455457126526
 20
913.4217309899236
 30
0.0
 11
-253.6455457126526
 21
838.4217309899236
 31
0.0
  0
LINE
  5
2C2B
330
27D3
100
AcDbEntity
  8
DETAIL
100
AcDbLine
 10
-253.6455457126526
 20
838.4217309899236
 30
0.0
 11
-253.6455457126526
 21
913.4217309899236
 31
0.0
  0
LINE
  5
2C2C
330
27D3
100
AcDbEntity
  8
DETAIL
100
AcDbLine
 10
279.3544542873474
 20
838.4217309899236
 30
0.0
 11
279.3544542873474
 21
913.4217309899236
 31
0.0
  0
LINE
  5
2C2D
330
27D3
100
AcDbEntity
  8
DETAIL
100
AcDbLine
 10
312.8544542873474
 20
913.4217309899236
 30
0.0
 11
312.8544542873474
 21
923.4217309899236
 31
0.0
  0
LINE
  5
2C2E
330
27D3
100
AcDbEntity
  8
DETAIL
100
AcDbLine
 10
279.3544542873474
 20
333.4217309899236
 30
0.0
 11
-267.1455457126526
 21
333.4217309899236
 31
0.0
  0
LINE
  5
2C2F
330
27D3
100
AcDbEntity
  8
DETAIL
100
AcDbLine
 10
136.3544542873474
 20
333.4217309899236
 30
0.0
 11
292.8544542873474
 21
333.4217309899236
 31
0.0
  0
LINE
  5
2C30
330
27D3
100
AcDbEntity
  8
DETAIL
100
AcDbLine
 10
279.3544542873474
 20
318.4217309899236
 30
0.0
 11
-253.6455457126526
 21
318.4217309899236
 31
0.0
  0
LINE
  5
2C31
330
27D3
100
AcDbEntity
  8
DETAIL
100
AcDbLine
 10
279.3544542873474
 20
312.4217309899236
 30
0.0
 11
-253.6455457126526
 21
312.4217309899241
 31
0.0
  0
LINE
  5
2C32
330
27D3
100
AcDbEntity
  8
OUTLINE
100
AcDbLine
 10
-253.6455457126526
 20
823.4217309899236
 30
0.0
 11
-253.6455457126526
 21
312.4217309899241
 31
0.0
  0
LINE
  5
2C33
330
27D3
100
AcDbEntity
  8
OUTLINE
100
AcDbLine
 10
279.3544542873474
 20
312.4217309899236
 30
0.0
 11
279.3544542873474
 21
823.4217309899236
 31
0.0
  0
LINE
  5
2C34
330
27D3
100
AcDbEntity
  8
OUTLINE
100
AcDbLine
 10
292.8544542873474
 20
333.4217309899241
 30
0.0
 11
292.8544542873474
 21
838.4217309899236
 31
0.0
  0
LINE
  5
2C35
330
27D3
100
AcDbEntity
  8
OUTLINE
100
AcDbLine
 10
-267.1455457126526
 20
838.4217309899236
 30
0.0
 11
-267.1455457126526
 21
333.4217309899236
 31
0.0
  0
LINE
  5
2C36
330
27D3
100
AcDbEntity
  8
OUTLINE
100
AcDbLine
 10
-267.1455457126526
 20
838.4217309899236
 30
0.0
 11
292.8544542873474
 21
838.4217309899236
 31
0.0
  0
LINE
  5
2C37
330
27D3
100
AcDbEntity
  8
OUTLINE
100
AcDbLine
 10
-253.6455457126526
 20
823.4217309899236
 30
0.0
 11
279.3544542873474
 21
823.4217309899236
 31
0.0
  0
LINE
  5
2C38
330
27D3
100
AcDbEntity
  8
OUTLINE
100
AcDbLine
 10
-287.1455457126526
 20
913.4217309899236
 30
0.0
 11
312.8544542873474
 21
913.4217309899236
 31
0.0
  0
LINE
  5
2C39
330
27D3
100
AcDbEntity
  8
OUTLINE
100
AcDbLine
 10
-253.6455457126526
 20
723.4217309899236
 30
0.0
 11
-253.6455457126526
 21
823.4217309899236
 31
0.0
  0
LINE
  5
2C3A
330
27D3
100
AcDbEntity
  8
OUTLINE
100
AcDbLine
 10
-287.1455457126526
 20
913.4217309899236
 30
0.0
 11
-287.1455457126526
 21
923.4217309899236
 31
0.0
  0
LINE
  5
2C3B
330
27D3
100
AcDbEntity
  8
OUTLINE
100
AcDbLine
 10
-253.6455457126526
 20
913.4217309899236
 30
0.0
 11
-253.6455457126526
 21
838.4217309899236
 31
0.0
  0
LINE
  5
2C3C
330
27D3
100
AcDbEntity
  8
OUTLINE
100
AcDbLine
 10
-253.6455457126526
 20
838.4217309899236
 30
0.0
 11
-253.6455457126526
 21
913.4217309899236
 31
0.0
  0
LINE
  5
2C3D
330
27D3
100
AcDbEntity
  8
OUTLINE
100
AcDbLine
 10
279.3544542873474
 20
838.4217309899236
 30
0.0
 11
279.3544542873474
 21
913.4217309899236
 31
0.0
  0
LINE
  5
2C3E
330
27D3
100
AcDbEntity
  8
OUTLINE
100
AcDbLine
 10
312.8544542873474
 20
913.4217309899236
 30
0.0
 11
312.8544542873474
 21
923.4217309899236
 31
0.0
  0
LINE
  5
2C3F
330
27D3
100
AcDbEntity
  8
OUTLINE
100
AcDbLine
 10
279.3544542873474
 20
333.4217309899236
 30
0.0
 11
-267.1455457126526
 21
333.4217309899236
 31
0.0
  0
LINE
  5
2C40
330
27D3
100
AcDbEntity
  8
OUTLINE
100
AcDbLine
 10
136.3544542873474
 20
333.4217309899236
 30
0.0
 11
292.8544542873474
 21
333.4217309899236
 31
0.0
  0
LINE
  5
2C41
330
27D3
100
AcDbEntity
  8
OUTLINE
100
AcDbLine
 10
279.3544542873474
 20
318.4217309899236
 30
0.0
 11
-253.6455457126526
 21
318.4217309899236
 31
0.0
  0
LINE
  5
2C42
330
27D3
100
AcDbEntity
  8
OUTLINE
100
AcDbLine
 10
279.3544542873474
 20
312.4217309899236
 30
0.0
 11
-253.6455457126526
 21
312.4217309899241
 31
0.0
  0
LINE
  5
2C43
330
27D3
100
AcDbEntity
  8
NOTE
100
AcDbLine
 39
50.0
 10
-279.6455457126526
 20
923.4217309899236
 30
0.0
 11
-254.6455457126526
 21
923.4217309899236
 31
0.0
  0
LINE
  5
2C44
330
27D3
100
AcDbEntity
  8
NOTE
100
AcDbLine
 39
50.0
 10
280.3544542873474
 20
923.4217309899236
 30
0.0
 11
305.3544542873474
 21
923.4217309899236
 31
0.0
  0
LINE
  5
2C45
330
27D3
100
AcDbEntity
  8
OUTLINE
100
AcDbLine
 39
50.0
 10
-287.1455457126526
 20
923.4217309899236
 30
0.0
 11
312.8544542873474
 21
923.4217309899236
 31
0.0
  0
LINE
  5
2C46
330
27D3
100
AcDbEntity
  8
DETAIL
100
AcDbLine
 10
243.1831067362341
 20
807.621730989922
 30
0.0
 11
263.5544542873408
 21
797.9210944145543
 31
0.0
1001
ACAD
1010
0.0
1020
0.0
1030
0.0
1001
ACADANNOTATIVE
1000
AnnotativeData
1002
{
1070
     1
1070
     1
1002
}
  0
LINE
  5
2C47
330
27D3
100
AcDbEntity
  8
DETAIL
100
AcDbLine
 10
222.1831969992432
 20
807.621730989922
 30
0.0
 11
263.5544542873408
 21
787.9211426704205
 31
0.0
1001
ACAD
1010
0.0
1020
0.0
1030
0.0
1001
ACADANNOTATIVE
1000
AnnotativeData
1002
{
1070
     1
1070
     1
1002
}
  0
LINE
  5
2C48
330
27D3
100
AcDbEntity
  8
DETAIL
100
AcDbLine
 10
201.1832872622522
 20
807.6217309899229
 30
0.0
 11
263.5544542873408
 21
777.9211909262867
 31
0.0
1001
ACAD
1010
0.0
1020
0.0
1030
0.0
1001
ACADANNOTATIVE
1000
AnnotativeData
1002
{
1070
     1
1070
     1
1002
}
  0
LINE
  5
2C49
330
27D3
100
AcDbEntity
  8
DETAIL
100
AcDbLine
 10
180.1833775252576
 20
807.6217309899229
 30
0.0
 11
263.5544542873372
 21
767.9212391821529
 31
0.0
1001
ACAD
1010
0.0
1020
0.0
1030
0.0
1001
ACADANNOTATIVE
1000
AnnotativeData
1002
{
1070
     1
1070
     1
1002
}
  0
LINE
  5
2C4A
330
27D3
100
AcDbEntity
  8
DETAIL
100
AcDbLine
 10
159.1834677882739
 20
807.6217309899211
 30
0.0
 11
263.5544542873408
 21
757.9212874380173
 31
0.0
1001
ACAD
1010
0.0
1020
0.0
1030
0.0
1001
ACADANNOTATIVE
1000
AnnotativeData
1002
{
1070
     1
1070
     1
1002
}
  0
LINE
  5
2C4B
330
27D3
100
AcDbEntity
  8
DETAIL
100
AcDbLine
 10
138.1835580512793
 20
807.6217309899211
 30
0.0
 11
263.5544542873372
 21
747.9213356938835
 31
0.0
1001
ACAD
1010
0.0
1020
0.0
1030
0.0
1001
ACADANNOTATIVE
1000
AnnotativeData
1002
{
1070
     1
1070
     1
1002
}
  0
LINE
  5
2C4C
330
27D3
100
AcDbEntity
  8
DETAIL
100
AcDbLine
 10
117.1836483142883
 20
807.6217309899211
 30
0.0
 11
263.5544542873408
 21
737.9213839497479
 31
0.0
1001
ACAD
1010
0.0
1020
0.0
1030
0.0
1001
ACADANNOTATIVE
1000
AnnotativeData
1002
{
1070
     1
1070
     1
1002
}
  0
LINE
  5
2C4D
330
27D3
100
AcDbEntity
  8
DETAIL
100
AcDbLine
 10
96.18373857730103
 20
807.6217309899229
 30
0.0
 11
263.5544542873408
 21
727.9214322056141
 31
0.0
1001
ACAD
1010
0.0
1020
0.0
1030
0.0
1001
ACADANNOTATIVE
1000
AnnotativeData
1002
{
1070
     1
1070
     1
1002
}
  0
LINE
  5
2C4E
330
27D3
100
AcDbEntity
  8
DETAIL
100
AcDbLine
 10
75.18382884030643
 20
807.6217309899229
 30
0.0
 11
263.5544542873408
 21
717.9214804614803
 31
0.0
1001
ACAD
1010
0.0
1020
0.0
1030
0.0
1001
ACADANNOTATIVE
1000
AnnotativeData
1002
{
1070
     1
1070
     1
1002
}
  0
LINE
  5
2C4F
330
27D3
100
AcDbEntity
  8
DETAIL
100
AcDbLine
 10
54.18391910331911
 20
807.6217309899229
 30
0.0
 11
263.5544542873445
 21
707.9215287173438
 31
0.0
1001
ACAD
1010
0.0
1020
0.0
1030
0.0
1001
ACADANNOTATIVE
1000
AnnotativeData
1002
{
1070
     1
1070
     1
1002
}
  0
LINE
  5
2C50
330
27D3
100
AcDbEntity
  8
DETAIL
100
AcDbLine
 10
33.18400936632816
 20
807.6217309899211
 30
0.0
 11
47.75445428734156
 21
800.6834275435949
 31
0.0
1001
ACAD
1010
0.0
1020
0.0
1030
0.0
1001
ACADANNOTATIVE
1000
AnnotativeData
1002
{
1070
     1
1070
     1
1002
}
  0
LINE
  5
2C51
330
27D3
100
AcDbEntity
  8
DETAIL
100
AcDbLine
 10
47.7544542873452
 20
800.6834275435931
 30
0.0
 11
263.5544542873445
 21
697.9215769732091
 31
0.0
1001
ACAD
1010
0.0
1020
0.0
1030
0.0
1001
ACADANNOTATIVE
1000
AnnotativeData
1002
{
1070
     1
1070
     1
1002
}
  0
LINE
  5
2C52
330
27D3
100
AcDbEntity
  8
DETAIL
100
AcDbLine
 10
12.18409962933719
 20
807.6217309899211
 30
0.0
 11
47.7544542873452
 21
790.6834757994593
 31
0.0
1001
ACAD
1010
0.0
1020
0.0
1030
0.0
1001
ACADANNOTATIVE
1000
AnnotativeData
1002
{
1070
     1
1070
     1
1002
}
  0
LINE
  5
2C53
330
27D3
100
AcDbEntity
  8
DETAIL
100
AcDbLine
 10
47.7544542873452
 20
790.6834757994574
 30
0.0
 11
263.5544542873445
 21
687.9216252290744
 31
0.0
1001
ACAD
1010
0.0
1020
0.0
1030
0.0
1001
ACADANNOTATIVE
1000
AnnotativeData
1002
{
1070
     1
1070
     1
1002
}
  0
LINE
  5
2C54
330
27D3
100
AcDbEntity
  8
DETAIL
100
AcDbLine
 10
-8.81581010765376
 20
807.6217309899211
 30
0.0
 11
47.75445428734156
 21
780.6835240553255
 31
0.0
1001
ACAD
1010
0.0
1020
0.0
1030
0.0
1001
ACADANNOTATIVE
1000
AnnotativeData
1002
{
1070
     1
1070
     1
1002
}
  0
LINE
  5
2C55
330
27D3
100
AcDbEntity
  8
DETAIL
100
AcDbLine
 10
47.7544542873452
 20
780.6835240553237
 30
0.0
 11
263.5544542873445
 21
677.9216734849406
 31
0.0
1001
ACAD
1010
0.0
1020
0.0
1030
0.0
1001
ACADANNOTATIVE
1000
AnnotativeData
1002
{
1070
     1
1070
     1
1002
}
  0
LINE
  5
2C56
330
27D3
100
AcDbEntity
  8
DETAIL
100
AcDbLine
 10
-29.81571984464472
 20
807.6217309899229
 30
0.0
 11
47.75445428734156
 21
770.6835723111916
 31
0.0
1001
ACAD
1010
0.0
1020
0.0
1030
0.0
1001
ACADANNOTATIVE
1000
AnnotativeData
1002
{
1070
     1
1070
     1
1002
}
  0
LINE
  5
2C57
330
27D3
100
AcDbEntity
  8
DETAIL
100
AcDbLine
 10
47.75445428734883
 20
770.6835723111899
 30
0.0
 11
263.5544542873445
 21
667.9217217408067
 31
0.0
1001
ACAD
1010
0.0
1020
0.0
1030
0.0
1001
ACADANNOTATIVE
1000
AnnotativeData
1002
{
1070
     1
1070
     1
1002
}
  0
LINE
  5
2C58
330
27D3
100
AcDbEntity
  8
DETAIL
100
AcDbLine
 10
-50.81562958163567
 20
807.621730989922
 30
0.0
 11
47.75445428734156
 21
760.6836205670579
 31
0.0
1001
ACAD
1010
0.0
1020
0.0
1030
0.0
1001
ACADANNOTATIVE
1000
AnnotativeData
1002
{
1070
     1
1070
     1
1002
}
  0
LINE
  5
2C59
330
27D3
100
AcDbEntity
  8
DETAIL
100
AcDbLine
 10
47.7544542873452
 20
760.683620567056
 30
0.0
 11
263.5544542873445
 21
657.9217699966712
 31
0.0
1001
ACAD
1010
0.0
1020
0.0
1030
0.0
1001
ACADANNOTATIVE
1000
AnnotativeData
1002
{
1070
     1
1070
     1
1002
}
  0
LINE
  5
2C5A
330
27D3
100
AcDbEntity
  8
DETAIL
100
AcDbLine
 10
-71.81553931862663
 20
807.621730989922
 30
0.0
 11
47.75445428734156
 21
750.6836688229222
 31
0.0
1001
ACAD
1010
0.0
1020
0.0
1030
0.0
1001
ACADANNOTATIVE
1000
AnnotativeData
1002
{
1070
     1
1070
     1
1002
}
  0
LINE
  5
2C5B
330
27D3
100
AcDbEntity
  8
DETAIL
100
AcDbLine
 10
47.7544542873452
 20
750.6836688229213
 30
0.0
 11
263.5544542873445
 21
647.9218182525373
 31
0.0
1001
ACAD
1010
0.0
1020
0.0
1030
0.0
1001
ACADANNOTATIVE
1000
AnnotativeData
1002
{
1070
     1
1070
     1
1002
}
  0
LINE
  5
2C5C
330
27D3
100
AcDbEntity
  8
DETAIL
100
AcDbLine
 10
-92.81544905561759
 20
807.621730989922
 30
0.0
 11
47.7544542873452
 21
740.6837170787866
 31
0.0
1001
ACAD
1010
0.0
1020
0.0
1030
0.0
1001
ACADANNOTATIVE
1000
AnnotativeData
1002
{
1070
     1
1070
     1
1002
}
  0
LINE
  5
2C5D
330
27D3
100
AcDbEntity
  8
DETAIL
100
AcDbLine
 10
47.75445428734883
 20
740.6837170787857
 30
0.0
 11
263.5544542873445
 21
637.9218665084017
 31
0.0
1001
ACAD
1010
0.0
1020
0.0
1030
0.0
1001
ACADANNOTATIVE
1000
AnnotativeData
1002
{
1070
     1
1070
     1
1002
}
  0
LINE
  5
2C5E
330
27D3
100
AcDbEntity
  8
DETAIL
100
AcDbLine
 10
-113.8153587926085
 20
807.6217309899202
 30
0.0
 11
47.75445428734156
 21
730.6837653346528
 31
0.0
1001
ACAD
1010
0.0
1020
0.0
1030
0.0
1001
ACADANNOTATIVE
1000
AnnotativeData
1002
{
1070
     1
1070
     1
1002
}
  0
LINE
  5
2C5F
330
27D3
100
AcDbEntity
  8
DETAIL
100
AcDbLine
 10
47.7544542873452
 20
730.6837653346519
 30
0.0
 11
263.5544542873445
 21
627.9219147642679
 31
0.0
1001
ACAD
1010
0.0
1020
0.0
1030
0.0
1001
ACADANNOTATIVE
1000
AnnotativeData
1002
{
1070
     1
1070
     1
1002
}
  0
LINE
  5
2C60
330
27D3
100
AcDbEntity
  8
DETAIL
100
AcDbLine
 10
-134.8152685295958
 20
807.621730989922
 30
0.0
 11
47.7544542873452
 21
720.68381359052
 31
0.0
1001
ACAD
1010
0.0
1020
0.0
1030
0.0
1001
ACADANNOTATIVE
1000
AnnotativeData
1002
{
1070
     1
1070
     1
1002
}
  0
LINE
  5
2C61
330
27D3
100
AcDbEntity
  8
DETAIL
100
AcDbLine
 10
47.75445428734883
 20
720.6838135905181
 30
0.0
 11
263.5544542873445
 21
617.9219630201341
 31
0.0
1001
ACAD
1010
0.0
1020
0.0
1030
0.0
1001
ACADANNOTATIVE
1000
AnnotativeData
1002
{
1070
     1
1070
     1
1002
}
  0
LINE
  5
2C62
330
27D3
100
AcDbEntity
  8
DETAIL
100
AcDbLine
 10
-155.8151782665904
 20
807.621730989922
 30
0.0
 11
47.75445428734156
 21
710.6838618463853
 31
0.0
1001
ACAD
1010
0.0
1020
0.0
1030
0.0
1001
ACADANNOTATIVE
1000
AnnotativeData
1002
{
1070
     1
1070
     1
1002
}
  0
LINE
  5
2C63
330
27D3
100
AcDbEntity
  8
DETAIL
100
AcDbLine
 10
251.1650363545427
 20
613.8217309899228
 30
0.0
 11
263.5544542873408
 21
607.9220112760022
 31
0.0
1001
ACAD
1010
0.0
1020
0.0
1030
0.0
1001
ACADANNOTATIVE
1000
AnnotativeData
1002
{
1070
     1
1070
     1
1002
}
  0
LINE
  5
2C64
330
27D3
100
AcDbEntity
  8
DETAIL
100
AcDbLine
 10
47.75445428734156
 20
710.6838618463853
 30
0.0
 11
251.1650363545391
 21
613.8217309899246
 31
0.0
1001
ACAD
1010
0.0
1020
0.0
1030
0.0
1001
ACADANNOTATIVE
1000
AnnotativeData
1002
{
1070
     1
1070
     1
1002
}
  0
LINE
  5
2C65
330
27D3
100
AcDbEntity
  8
DETAIL
100
AcDbLine
 10
-176.8150880035778
 20
807.621730989922
 30
0.0
 11
47.75445428734156
 21
700.6839101022506
 31
0.0
1001
ACAD
1010
0.0
1020
0.0
1030
0.0
1001
ACADANNOTATIVE
1000
AnnotativeData
1002
{
1070
     1
1070
     1
1002
}
  0
LINE
  5
2C66
330
27D3
100
AcDbEntity
  8
DETAIL
100
AcDbLine
 10
230.1651266175518
 20
613.8217309899228
 30
0.0
 11
263.5544542873408
 21
597.9220595318666
 31
0.0
1001
ACAD
1010
0.0
1020
0.0
1030
0.0
1001
ACADANNOTATIVE
1000
AnnotativeData
1002
{
1070
     1
1070
     1
1002
}
  0
LINE
  5
2C67
330
27D3
100
AcDbEntity
  8
DETAIL
100
AcDbLine
 10
47.75445428734156
 20
700.6839101022506
 30
0.0
 11
230.1651266175481
 21
613.8217309899246
 31
0.0
1001
ACAD
1010
0.0
1020
0.0
1030
0.0
1001
ACADANNOTATIVE
1000
AnnotativeData
1002
{
1070
     1
1070
     1
1002
}
  0
LINE
  5
2C68
330
27D3
100
AcDbEntity
  8
DETAIL
100
AcDbLine
 10
-197.8149977405724
 20
807.621730989922
 30
0.0
 11
47.75445428734156
 21
690.6839583581159
 31
0.0
1001
ACAD
1010
0.0
1020
0.0
1030
0.0
1001
ACADANNOTATIVE
1000
AnnotativeData
1002
{
1070
     1
1070
     1
1002
}
  0
LINE
  5
2C69
330
27D3
100
AcDbEntity
  8
DETAIL
100
AcDbLine
 10
209.1652168805608
 20
613.8217309899228
 30
0.0
 11
263.5544542873408
 21
587.9221077877327
 31
0.0
1001
ACAD
1010
0.0
1020
0.0
1030
0.0
1001
ACADANNOTATIVE
1000
AnnotativeData
1002
{
1070
     1
1070
     1
1002
}
  0
LINE
  5
2C6A
330
27D3
100
AcDbEntity
  8
DETAIL
100
AcDbLine
 10
47.75445428734156
 20
690.6839583581159
 30
0.0
 11
209.1652168805572
 21
613.8217309899236
 31
0.0
1001
ACAD
1010
0.0
1020
0.0
1030
0.0
1001
ACADANNOTATIVE
1000
AnnotativeData
1002
{
1070
     1
1070
     1
1002
}
  0
LINE
  5
2C6B
330
27D3
100
AcDbEntity
  8
DETAIL
100
AcDbLine
 10
-218.8149074775633
 20
807.621730989922
 30
0.0
 11
47.75445428734156
 21
680.6840066139812
 31
0.0
1001
ACAD
1010
0.0
1020
0.0
1030
0.0
1001
ACADANNOTATIVE
1000
AnnotativeData
1002
{
1070
     1
1070
     1
1002
}
  0
LINE
  5
2C6C
330
27D3
100
AcDbEntity
  8
DETAIL
100
AcDbLine
 10
188.1653071435698
 20
613.8217309899228
 30
0.0
 11
263.5544542873408
 21
577.9221560435972
 31
0.0
1001
ACAD
1010
0.0
1020
0.0
1030
0.0
1001
ACADANNOTATIVE
1000
AnnotativeData
1002
{
1070
     1
1070
     1
1002
}
  0
LINE
  5
2C6D
330
27D3
100
AcDbEntity
  8
DETAIL
100
AcDbLine
 10
47.75445428734156
 20
680.6840066139812
 30
0.0
 11
188.1653071435662
 21
613.8217309899236
 31
0.0
1001
ACAD
1010
0.0
1020
0.0
1030
0.0
1001
ACADANNOTATIVE
1000
AnnotativeData
1002
{
1070
     1
1070
     1
1002
}
  0
LINE
  5
2C6E
330
27D3
100
AcDbEntity
  8
DETAIL
100
AcDbLine
 10
-237.845545712657
 20
806.6839831502093
 30
0.0
 11
47.75445428734156
 21
670.6840548698492
 31
0.0
1001
ACAD
1010
0.0
1020
0.0
1030
0.0
1001
ACADANNOTATIVE
1000
AnnotativeData
1002
{
1070
     1
1070
     1
1002
}
  0
LINE
  5
2C6F
330
27D3
100
AcDbEntity
  8
DETAIL
100
AcDbLine
 10
167.1653974065789
 20
613.8217309899246
 30
0.0
 11
263.5544542873372
 21
567.9222042994651
 31
0.0
1001
ACAD
1010
0.0
1020
0.0
1030
0.0
1001
ACADANNOTATIVE
1000
AnnotativeData
1002
{
1070
     1
1070
     1
1002
}
  0
LINE
  5
2C70
330
27D3
100
AcDbEntity
  8
DETAIL
100
AcDbLine
 10
47.75445428734156
 20
670.6840548698492
 30
0.0
 11
167.1653974065753
 21
613.8217309899255
 31
0.0
1001
ACAD
1010
0.0
1020
0.0
1030
0.0
1001
ACADANNOTATIVE
1000
AnnotativeData
1002
{
1070
     1
1070
     1
1002
}
  0
LINE
  5
2C71
330
27D3
100
AcDbEntity
  8
DETAIL
100
AcDbLine
 10
-237.845545712657
 20
796.6840314060736
 30
0.0
 11
47.75445428734156
 21
660.6841031257135
 31
0.0
1001
ACAD
1010
0.0
1020
0.0
1030
0.0
1001
ACADANNOTATIVE
1000
AnnotativeData
1002
{
1070
     1
1070
     1
1002
}
  0
LINE
  5
2C72
330
27D3
100
AcDbEntity
  8
DETAIL
100
AcDbLine
 10
146.1654876695879
 20
613.8217309899236
 30
0.0
 11
263.5544542873408
 21
557.9222525553295
 31
0.0
1001
ACAD
1010
0.0
1020
0.0
1030
0.0
1001
ACADANNOTATIVE
1000
AnnotativeData
1002
{
1070
     1
1070
     1
1002
}
  0
LINE
  5
2C73
330
27D3
100
AcDbEntity
  8
DETAIL
100
AcDbLine
 10
47.75445428734156
 20
660.6841031257135
 30
0.0
 11
146.1654876695879
 21
613.8217309899236
 31
0.0
1001
ACAD
1010
0.0
1020
0.0
1030
0.0
1001
ACADANNOTATIVE
1000
AnnotativeData
1002
{
1070
     1
1070
     1
1002
}
  0
LINE
  5
2C74
330
27D3
100
AcDbEntity
  8
DETAIL
100
AcDbLine
 10
-237.845545712657
 20
786.6840796619399
 30
0.0
 11
47.7544542873452
 21
650.6841513815779
 31
0.0
1001
ACAD
1010
0.0
1020
0.0
1030
0.0
1001
ACADANNOTATIVE
1000
AnnotativeData
1002
{
1070
     1
1070
     1
1002
}
  0
LINE
  5
2C75
330
27D3
100
AcDbEntity
  8
DETAIL
100
AcDbLine
 10
125.165577932597
 20
613.8217309899236
 30
0.0
 11
263.5544542873408
 21
547.9223008111939
 31
0.0
1001
ACAD
1010
0.0
1020
0.0
1030
0.0
1001
ACADANNOTATIVE
1000
AnnotativeData
1002
{
1070
     1
1070
     1
1002
}
  0
LINE
  5
2C76
330
27D3
100
AcDbEntity
  8
DETAIL
100
AcDbLine
 10
47.7544542873452
 20
650.6841513815779
 30
0.0
 11
125.165577932597
 21
613.8217309899236
 31
0.0
1001
ACAD
1010
0.0
1020
0.0
1030
0.0
1001
ACADANNOTATIVE
1000
AnnotativeData
1002
{
1070
     1
1070
     1
1002
}
  0
LINE
  5
2C77
330
27D3
100
AcDbEntity
  8
DETAIL
100
AcDbLine
 10
-237.845545712657
 20
776.6841279178042
 30
0.0
 11
47.75445428734156
 21
640.6841996374441
 31
0.0
1001
ACAD
1010
0.0
1020
0.0
1030
0.0
1001
ACADANNOTATIVE
1000
AnnotativeData
1002
{
1070
     1
1070
     1
1002
}
  0
LINE
  5
2C78
330
27D3
100
AcDbEntity
  8
DETAIL
100
AcDbLine
 10
104.165668195606
 20
613.8217309899236
 30
0.0
 11
263.5544542873408
 21
537.9223490670601
 31
0.0
1001
ACAD
1010
0.0
1020
0.0
1030
0.0
1001
ACADANNOTATIVE
1000
AnnotativeData
1002
{
1070
     1
1070
     1
1002
}
  0
LINE
  5
2C79
330
27D3
100
AcDbEntity
  8
DETAIL
100
AcDbLine
 10
47.75445428734156
 20
640.6841996374441
 30
0.0
 11
104.165668195606
 21
613.8217309899236
 31
0.0
1001
ACAD
1010
0.0
1020
0.0
1030
0.0
1001
ACADANNOTATIVE
1000
AnnotativeData
1002
{
1070
     1
1070
     1
1002
}
  0
LINE
  5
2C7A
330
27D3
100
AcDbEntity
  8
DETAIL
100
AcDbLine
 10
-237.845545712657
 20
766.6841761736705
 30
0.0
 11
47.75445428734156
 21
630.6842478933085
 31
0.0
1001
ACAD
1010
0.0
1020
0.0
1030
0.0
1001
ACADANNOTATIVE
1000
AnnotativeData
1002
{
1070
     1
1070
     1
1002
}
  0
LINE
  5
2C7B
330
27D3
100
AcDbEntity
  8
DETAIL
100
AcDbLine
 10
83.16575845861143
 20
613.8217309899236
 30
0.0
 11
263.5544542873408
 21
527.9223973229245
 31
0.0
1001
ACAD
1010
0.0
1020
0.0
1030
0.0
1001
ACADANNOTATIVE
1000
AnnotativeData
1002
{
1070
     1
1070
     1
1002
}
  0
LINE
  5
2C7C
330
27D3
100
AcDbEntity
  8
DETAIL
100
AcDbLine
 10
47.75445428734156
 20
630.6842478933085
 30
0.0
 11
83.16575845861143
 21
613.8217309899236
 31
0.0
1001
ACAD
1010
0.0
1020
0.0
1030
0.0
1001
ACADANNOTATIVE
1000
AnnotativeData
1002
{
1070
     1
1070
     1
1002
}
  0
LINE
  5
2C7D
330
27D3
100
AcDbEntity
  8
DETAIL
100
AcDbLine
 10
-237.845545712657
 20
756.6842244295358
 30
0.0
 11
47.75445428734156
 21
620.6842961491747
 31
0.0
1001
ACAD
1010
0.0
1020
0.0
1030
0.0
1001
ACADANNOTATIVE
1000
AnnotativeData
1002
{
1070
     1
1070
     1
1002
}
  0
LINE
  5
2C7E
330
27D3
100
AcDbEntity
  8
DETAIL
100
AcDbLine
 10
62.16584872162411
 20
613.8217309899219
 30
0.0
 11
263.5544542873408
 21
517.9224455787907
 31
0.0
1001
ACAD
1010
0.0
1020
0.0
1030
0.0
1001
ACADANNOTATIVE
1000
AnnotativeData
1002
{
1070
     1
1070
     1
1002
}
  0
LINE
  5
2C7F
330
27D3
100
AcDbEntity
  8
DETAIL
100
AcDbLine
 10
47.75445428734156
 20
620.6842961491747
 30
0.0
 11
62.16584872162411
 21
613.8217309899219
 31
0.0
1001
ACAD
1010
0.0
1020
0.0
1030
0.0
1001
ACADANNOTATIVE
1000
AnnotativeData
1002
{
1070
     1
1070
     1
1002
}
  0
LINE
  5
2C80
330
27D3
100
AcDbEntity
  8
DETAIL
100
AcDbLine
 10
-237.845545712657
 20
746.684272685402
 30
0.0
 11
263.5544542873408
 21
507.9224938346569
 31
0.0
1001
ACAD
1010
0.0
1020
0.0
1030
0.0
1001
ACADANNOTATIVE
1000
AnnotativeData
1002
{
1070
     1
1070
     1
1002
}
  0
LINE
  5
2C81
330
27D3
100
AcDbEntity
  8
DETAIL
100
AcDbLine
 10
-237.845545712657
 20
736.6843209412682
 30
0.0
 11
263.5544542873372
 21
497.9225420905232
 31
0.0
1001
ACAD
1010
0.0
1020
0.0
1030
0.0
1001
ACADANNOTATIVE
1000
AnnotativeData
1002
{
1070
     1
1070
     1
1002
}
  0
LINE
  5
2C82
330
27D3
100
AcDbEntity
  8
DETAIL
100
AcDbLine
 10
-237.845545712657
 20
726.6843691971326
 30
0.0
 11
263.5544542873408
 21
487.9225903463875
 31
0.0
1001
ACAD
1010
0.0
1020
0.0
1030
0.0
1001
ACADANNOTATIVE
1000
AnnotativeData
1002
{
1070
     1
1070
     1
1002
}
  0
LINE
  5
2C83
330
27D3
100
AcDbEntity
  8
DETAIL
100
AcDbLine
 10
-237.845545712657
 20
716.6844174529988
 30
0.0
 11
263.5544542873372
 21
477.9226386022555
 31
0.0
1001
ACAD
1010
0.0
1020
0.0
1030
0.0
1001
ACADANNOTATIVE
1000
AnnotativeData
1002
{
1070
     1
1070
     1
1002
}
  0
LINE
  5
2C84
330
27D3
100
AcDbEntity
  8
DETAIL
100
AcDbLine
 10
-237.845545712657
 20
706.6844657088632
 30
0.0
 11
263.5544542873372
 21
467.9226868581199
 31
0.0
1001
ACAD
1010
0.0
1020
0.0
1030
0.0
1001
ACADANNOTATIVE
1000
AnnotativeData
1002
{
1070
     1
1070
     1
1002
}
  0
LINE
  5
2C85
330
27D3
100
AcDbEntity
  8
DETAIL
100
AcDbLine
 10
-237.845545712657
 20
696.6845139647311
 30
0.0
 11
263.5544542873372
 21
457.9227351139861
 31
0.0
1001
ACAD
1010
0.0
1020
0.0
1030
0.0
1001
ACADANNOTATIVE
1000
AnnotativeData
1002
{
1070
     1
1070
     1
1002
}
  0
LINE
  5
2C86
330
27D3
100
AcDbEntity
  8
DETAIL
100
AcDbLine
 10
-237.845545712657
 20
686.6845622205955
 30
0.0
 11
263.5544542873372
 21
447.9227833698523
 31
0.0
1001
ACAD
1010
0.0
1020
0.0
1030
0.0
1001
ACADANNOTATIVE
1000
AnnotativeData
1002
{
1070
     1
1070
     1
1002
}
  0
LINE
  5
2C87
330
27D3
100
AcDbEntity
  8
DETAIL
100
AcDbLine
 10
-237.845545712657
 20
676.6846104764617
 30
0.0
 11
263.5544542873372
 21
437.9228316257167
 31
0.0
1001
ACAD
1010
0.0
1020
0.0
1030
0.0
1001
ACADANNOTATIVE
1000
AnnotativeData
1002
{
1070
     1
1070
     1
1002
}
  0
LINE
  5
2C88
330
27D3
100
AcDbEntity
  8
DETAIL
100
AcDbLine
 10
-237.845545712657
 20
666.6846587323261
 30
0.0
 11
263.5544542873372
 21
427.9228798815829
 31
0.0
1001
ACAD
1010
0.0
1020
0.0
1030
0.0
1001
ACADANNOTATIVE
1000
AnnotativeData
1002
{
1070
     1
1070
     1
1002
}
  0
LINE
  5
2C89
330
27D3
100
AcDbEntity
  8
DETAIL
100
AcDbLine
 10
-237.845545712657
 20
656.6847069881905
 30
0.0
 11
263.5544542873372
 21
417.9229281374473
 31
0.0
1001
ACAD
1010
0.0
1020
0.0
1030
0.0
1001
ACADANNOTATIVE
1000
AnnotativeData
1002
{
1070
     1
1070
     1
1002
}
  0
LINE
  5
2C8A
330
27D3
100
AcDbEntity
  8
DETAIL
100
AcDbLine
 10
-237.845545712657
 20
646.6847552440567
 30
0.0
 11
263.5544542873372
 21
407.9229763933135
 31
0.0
1001
ACAD
1010
0.0
1020
0.0
1030
0.0
1001
ACADANNOTATIVE
1000
AnnotativeData
1002
{
1070
     1
1070
     1
1002
}
  0
LINE
  5
2C8B
330
27D3
100
AcDbEntity
  8
DETAIL
100
AcDbLine
 10
-237.845545712657
 20
636.6848034999229
 30
0.0
 11
263.5544542873372
 21
397.9230246491797
 31
0.0
1001
ACAD
1010
0.0
1020
0.0
1030
0.0
1001
ACADANNOTATIVE
1000
AnnotativeData
1002
{
1070
     1
1070
     1
1002
}
  0
LINE
  5
2C8C
330
27D3
100
AcDbEntity
  8
DETAIL
100
AcDbLine
 10
-237.845545712657
 20
626.6848517557892
 30
0.0
 11
263.5544542873372
 21
387.923072905046
 31
0.0
1001
ACAD
1010
0.0
1020
0.0
1030
0.0
1001
ACADANNOTATIVE
1000
AnnotativeData
1002
{
1070
     1
1070
     1
1002
}
  0
LINE
  5
2C8D
330
27D3
100
AcDbEntity
  8
DETAIL
100
AcDbLine
 10
-237.845545712657
 20
616.6849000116535
 30
0.0
 11
263.5544542873372
 21
377.9231211609103
 31
0.0
1001
ACAD
1010
0.0
1020
0.0
1030
0.0
1001
ACADANNOTATIVE
1000
AnnotativeData
1002
{
1070
     1
1070
     1
1002
}
  0
LINE
  5
2C8E
330
27D3
100
AcDbEntity
  8
DETAIL
100
AcDbLine
 10
-237.845545712657
 20
606.6849482675197
 30
0.0
 11
263.5544542873372
 21
367.9231694167766
 31
0.0
1001
ACAD
1010
0.0
1020
0.0
1030
0.0
1001
ACADANNOTATIVE
1000
AnnotativeData
1002
{
1070
     1
1070
     1
1002
}
  0
LINE
  5
2C8F
330
27D3
100
AcDbEntity
  8
DETAIL
100
AcDbLine
 10
-237.845545712657
 20
596.6849965233841
 30
0.0
 11
263.5544542873372
 21
357.9232176726409
 31
0.0
1001
ACAD
1010
0.0
1020
0.0
1030
0.0
1001
ACADANNOTATIVE
1000
AnnotativeData
1002
{
1070
     1
1070
     1
1002
}
  0
LINE
  5
2C90
330
27D3
100
AcDbEntity
  8
DETAIL
100
AcDbLine
 10
-237.845545712657
 20
586.6850447792503
 30
0.0
 11
260.8276762203946
 21
349.2217309899252
 31
0.0
1001
ACAD
1010
0.0
1020
0.0
1030
0.0
1001
ACADANNOTATIVE
1000
AnnotativeData
1002
{
1070
     1
1070
     1
1002
}
  0
LINE
  5
2C91
330
27D3
100
AcDbEntity
  8
DETAIL
100
AcDbLine
 10
-237.845545712657
 20
576.6850930351165
 30
0.0
 11
239.8277664834036
 21
349.2217309899252
 31
0.0
1001
ACAD
1010
0.0
1020
0.0
1030
0.0
1001
ACADANNOTATIVE
1000
AnnotativeData
1002
{
1070
     1
1070
     1
1002
}
  0
LINE
  5
2C92
330
27D3
100
AcDbEntity
  8
DETAIL
100
AcDbLine
 10
-237.845545712657
 20
566.6851412909818
 30
0.0
 11
218.8278567464163
 21
349.2217309899233
 31
0.0
1001
ACAD
1010
0.0
1020
0.0
1030
0.0
1001
ACADANNOTATIVE
1000
AnnotativeData
1002
{
1070
     1
1070
     1
1002
}
  0
LINE
  5
2C93
330
27D3
100
AcDbEntity
  8
DETAIL
100
AcDbLine
 10
-237.845545712657
 20
556.6851895468471
 30
0.0
 11
197.8279470094253
 21
349.2217309899233
 31
0.0
1001
ACAD
1010
0.0
1020
0.0
1030
0.0
1001
ACADANNOTATIVE
1000
AnnotativeData
1002
{
1070
     1
1070
     1
1002
}
  0
LINE
  5
2C94
330
27D3
100
AcDbEntity
  8
DETAIL
100
AcDbLine
 10
-237.845545712657
 20
546.6852378027124
 30
0.0
 11
176.828037272438
 21
349.2217309899215
 31
0.0
1001
ACAD
1010
0.0
1020
0.0
1030
0.0
1001
ACADANNOTATIVE
1000
AnnotativeData
1002
{
1070
     1
1070
     1
1002
}
  0
LINE
  5
2C95
330
27D3
100
AcDbEntity
  8
DETAIL
100
AcDbLine
 10
-237.845545712657
 20
536.6852860585795
 30
0.0
 11
155.8281275354434
 21
349.2217309899233
 31
0.0
1001
ACAD
1010
0.0
1020
0.0
1030
0.0
1001
ACADANNOTATIVE
1000
AnnotativeData
1002
{
1070
     1
1070
     1
1002
}
  0
LINE
  5
2C96
330
27D3
100
AcDbEntity
  8
DETAIL
100
AcDbLine
 10
-237.845545712657
 20
526.6853343144448
 30
0.0
 11
134.8282177984561
 21
349.2217309899233
 31
0.0
1001
ACAD
1010
0.0
1020
0.0
1030
0.0
1001
ACADANNOTATIVE
1000
AnnotativeData
1002
{
1070
     1
1070
     1
1002
}
  0
LINE
  5
2C97
330
27D3
100
AcDbEntity
  8
DETAIL
100
AcDbLine
 10
-237.845545712657
 20
516.685382570311
 30
0.0
 11
113.8283080614651
 21
349.2217309899225
 31
0.0
1001
ACAD
1010
0.0
1020
0.0
1030
0.0
1001
ACADANNOTATIVE
1000
AnnotativeData
1002
{
1070
     1
1070
     1
1002
}
  0
LINE
  5
2C98
330
27D3
100
AcDbEntity
  8
DETAIL
100
AcDbLine
 10
-237.845545712657
 20
506.6854308261754
 30
0.0
 11
92.82839832447416
 21
349.2217309899225
 31
0.0
1001
ACAD
1010
0.0
1020
0.0
1030
0.0
1001
ACADANNOTATIVE
1000
AnnotativeData
1002
{
1070
     1
1070
     1
1002
}
  0
LINE
  5
2C99
330
27D3
100
AcDbEntity
  8
DETAIL
100
AcDbLine
 10
-237.845545712657
 20
496.6854790820398
 30
0.0
 11
71.82848858747957
 21
349.2217309899225
 31
0.0
1001
ACAD
1010
0.0
1020
0.0
1030
0.0
1001
ACADANNOTATIVE
1000
AnnotativeData
1002
{
1070
     1
1070
     1
1002
}
  0
LINE
  5
2C9A
330
27D3
100
AcDbEntity
  8
DETAIL
100
AcDbLine
 10
-237.845545712657
 20
486.6855273379059
 30
0.0
 11
50.82857885048861
 21
349.2217309899225
 31
0.0
1001
ACAD
1010
0.0
1020
0.0
1030
0.0
1001
ACADANNOTATIVE
1000
AnnotativeData
1002
{
1070
     1
1070
     1
1002
}
  0
LINE
  5
2C9B
330
27D3
100
AcDbEntity
  8
DETAIL
100
AcDbLine
 10
-237.845545712657
 20
476.6855755937722
 30
0.0
 11
29.82866911349765
 21
349.2217309899242
 31
0.0
1001
ACAD
1010
0.0
1020
0.0
1030
0.0
1001
ACADANNOTATIVE
1000
AnnotativeData
1002
{
1070
     1
1070
     1
1002
}
  0
LINE
  5
2C9C
330
27D3
100
AcDbEntity
  8
DETAIL
100
AcDbLine
 10
-237.845545712657
 20
466.6856238496384
 30
0.0
 11
8.828759376506695
 21
349.2217309899242
 31
0.0
1001
ACAD
1010
0.0
1020
0.0
1030
0.0
1001
ACADANNOTATIVE
1000
AnnotativeData
1002
{
1070
     1
1070
     1
1002
}
  0
LINE
  5
2C9D
330
27D3
100
AcDbEntity
  8
DETAIL
100
AcDbLine
 10
-237.845545712657
 20
456.6856721055028
 30
0.0
 11
-12.17115036048426
 21
349.2217309899242
 31
0.0
1001
ACAD
1010
0.0
1020
0.0
1030
0.0
1001
ACADANNOTATIVE
1000
AnnotativeData
1002
{
1070
     1
1070
     1
1002
}
  0
LINE
  5
2C9E
330
27D3
100
AcDbEntity
  8
DETAIL
100
AcDbLine
 10
-237.845545712657
 20
446.685720361369
 30
0.0
 11
-33.17106009747522
 21
349.2217309899242
 31
0.0
1001
ACAD
1010
0.0
1020
0.0
1030
0.0
1001
ACADANNOTATIVE
1000
AnnotativeData
1002
{
1070
     1
1070
     1
1002
}
  0
LINE
  5
2C9F
330
27D3
100
AcDbEntity
  8
DETAIL
100
AcDbLine
 10
-237.845545712657
 20
436.6857686172334
 30
0.0
 11
-54.17096983446254
 21
349.2217309899225
 31
0.0
1001
ACAD
1010
0.0
1020
0.0
1030
0.0
1001
ACADANNOTATIVE
1000
AnnotativeData
1002
{
1070
     1
1070
     1
1002
}
  0
LINE
  5
2CA0
330
27D3
100
AcDbEntity
  8
DETAIL
100
AcDbLine
 10
-237.845545712657
 20
426.6858168731014
 30
0.0
 11
-75.17087957145349
 21
349.2217309899242
 31
0.0
1001
ACAD
1010
0.0
1020
0.0
1030
0.0
1001
ACADANNOTATIVE
1000
AnnotativeData
1002
{
1070
     1
1070
     1
1002
}
  0
LINE
  5
2CA1
330
27D3
100
AcDbEntity
  8
DETAIL
100
AcDbLine
 10
-237.845545712657
 20
416.6858651289658
 30
0.0
 11
-96.17078930844446
 21
349.2217309899242
 31
0.0
1001
ACAD
1010
0.0
1020
0.0
1030
0.0
1001
ACADANNOTATIVE
1000
AnnotativeData
1002
{
1070
     1
1070
     1
1002
}
  0
LINE
  5
2CA2
330
27D3
100
AcDbEntity
  8
DETAIL
100
AcDbLine
 10
-237.845545712657
 20
406.6859133848302
 30
0.0
 11
-117.1706990454354
 21
349.2217309899225
 31
0.0
1001
ACAD
1010
0.0
1020
0.0
1030
0.0
1001
ACADANNOTATIVE
1000
AnnotativeData
1002
{
1070
     1
1070
     1
1002
}
  0
LINE
  5
2CA3
330
27D3
100
AcDbEntity
  8
DETAIL
100
AcDbLine
 10
-237.845545712657
 20
396.6859616406964
 30
0.0
 11
-138.1706087824227
 21
349.2217309899225
 31
0.0
1001
ACAD
1010
0.0
1020
0.0
1030
0.0
1001
ACADANNOTATIVE
1000
AnnotativeData
1002
{
1070
     1
1070
     1
1002
}
  0
LINE
  5
2CA4
330
27D3
100
AcDbEntity
  8
DETAIL
100
AcDbLine
 10
-237.845545712657
 20
386.6860098965608
 30
0.0
 11
-159.1705185194137
 21
349.2217309899215
 31
0.0
1001
ACAD
1010
0.0
1020
0.0
1030
0.0
1001
ACADANNOTATIVE
1000
AnnotativeData
1002
{
1070
     1
1070
     1
1002
}
  0
LINE
  5
2CA5
330
27D3
100
AcDbEntity
  8
DETAIL
100
AcDbLine
 10
-237.845545712657
 20
376.6860581524288
 30
0.0
 11
-180.1704282564083
 21
349.2217309899233
 31
0.0
1001
ACAD
1010
0.0
1020
0.0
1030
0.0
1001
ACADANNOTATIVE
1000
AnnotativeData
1002
{
1070
     1
1070
     1
1002
}
  0
LINE
  5
2CA6
330
27D3
100
AcDbEntity
  8
DETAIL
100
AcDbLine
 10
-237.845545712657
 20
366.6861064082932
 30
0.0
 11
-201.1703379933992
 21
349.2217309899233
 31
0.0
1001
ACAD
1010
0.0
1020
0.0
1030
0.0
1001
ACADANNOTATIVE
1000
AnnotativeData
1002
{
1070
     1
1070
     1
1002
}
  0
LINE
  5
2CA7
330
27D3
100
AcDbEntity
  8
DETAIL
100
AcDbLine
 10
-237.845545712657
 20
356.6861546641594
 30
0.0
 11
-222.1702477303902
 21
349.2217309899233
 31
0.0
1001
ACAD
1010
0.0
1020
0.0
1030
0.0
1001
ACADANNOTATIVE
1000
AnnotativeData
1002
{
1070
     1
1070
     1
1002
}
  0
LINE
  5
2CA8
330
27D3
100
AcDbEntity
  8
DETAIL
100
AcDbLine
 10
-237.8455457126497
 20
800.5135636117383
 30
0.0
 11
-222.9183863466192
 21
807.621730989922
 31
0.0
1001
ACAD
1010
0.0
1020
0.0
1030
0.0
1001
ACADANNOTATIVE
1000
AnnotativeData
1002
{
1070
     1
1070
     1
1002
}
  0
LINE
  5
2CA9
330
27D3
100
AcDbEntity
  8
DETAIL
100
AcDbLine
 10
-237.8455457126497
 20
790.5136118676027
 30
0.0
 11
-201.9184766096282
 21
807.621730989922
 31
0.0
1001
ACAD
1010
0.0
1020
0.0
1030
0.0
1001
ACADANNOTATIVE
1000
AnnotativeData
1002
{
1070
     1
1070
     1
1002
}
  0
LINE
  5
2CAA
330
27D3
100
AcDbEntity
  8
DETAIL
100
AcDbLine
 10
-237.8455457126497
 20
780.5136601234689
 30
0.0
 11
-180.9185668726409
 21
807.621730989922
 31
0.0
1001
ACAD
1010
0.0
1020
0.0
1030
0.0
1001
ACADANNOTATIVE
1000
AnnotativeData
1002
{
1070
     1
1070
     1
1002
}
  0
LINE
  5
2CAB
330
27D3
100
AcDbEntity
  8
DETAIL
100
AcDbLine
 10
-237.8455457126497
 20
770.5137083793352
 30
0.0
 11
-159.9186571356499
 21
807.6217309899229
 31
0.0
1001
ACAD
1010
0.0
1020
0.0
1030
0.0
1001
ACADANNOTATIVE
1000
AnnotativeData
1002
{
1070
     1
1070
     1
1002
}
  0
LINE
  5
2CAC
330
27D3
100
AcDbEntity
  8
DETAIL
100
AcDbLine
 10
-237.8455457126461
 20
760.5137566352005
 30
0.0
 11
-138.918747398659
 21
807.6217309899211
 31
0.0
1001
ACAD
1010
0.0
1020
0.0
1030
0.0
1001
ACADANNOTATIVE
1000
AnnotativeData
1002
{
1070
     1
1070
     1
1002
}
  0
LINE
  5
2CAD
330
27D3
100
AcDbEntity
  8
DETAIL
100
AcDbLine
 10
-237.8455457126497
 20
750.5138048910667
 30
0.0
 11
-117.918837661668
 21
807.621730989922
 31
0.0
1001
ACAD
1010
0.0
1020
0.0
1030
0.0
1001
ACADANNOTATIVE
1000
AnnotativeData
1002
{
1070
     1
1070
     1
1002
}
  0
LINE
  5
2CAE
330
27D3
100
AcDbEntity
  8
DETAIL
100
AcDbLine
 10
-237.8455457126497
 20
740.5138531469311
 30
0.0
 11
-96.91892792467706
 21
807.621730989922
 31
0.0
1001
ACAD
1010
0.0
1020
0.0
1030
0.0
1001
ACADANNOTATIVE
1000
AnnotativeData
1002
{
1070
     1
1070
     1
1002
}
  0
LINE
  5
2CAF
330
27D3
100
AcDbEntity
  8
DETAIL
100
AcDbLine
 10
-237.8455457126497
 20
730.5139014027973
 30
0.0
 11
-75.91901818768611
 21
807.621730989922
 31
0.0
1001
ACAD
1010
0.0
1020
0.0
1030
0.0
1001
ACADANNOTATIVE
1000
AnnotativeData
1002
{
1070
     1
1070
     1
1002
}
  0
LINE
  5
2CB0
330
27D3
100
AcDbEntity
  8
DETAIL
100
AcDbLine
 10
-237.8455457126534
 20
720.5139496586626
 30
0.0
 11
-54.91910845069515
 21
807.6217309899229
 31
0.0
1001
ACAD
1010
0.0
1020
0.0
1030
0.0
1001
ACADANNOTATIVE
1000
AnnotativeData
1002
{
1070
     1
1070
     1
1002
}
  0
LINE
  5
2CB1
330
27D3
100
AcDbEntity
  8
DETAIL
100
AcDbLine
 10
-237.8455457126461
 20
710.5139979145287
 30
0.0
 11
-33.91919871370419
 21
807.6217309899229
 31
0.0
1001
ACAD
1010
0.0
1020
0.0
1030
0.0
1001
ACADANNOTATIVE
1000
AnnotativeData
1002
{
1070
     1
1070
     1
1002
}
  0
LINE
  5
2CB2
330
27D3
100
AcDbEntity
  8
DETAIL
100
AcDbLine
 10
-237.8455457126497
 20
700.514046170394
 30
0.0
 11
-12.91928897671323
 21
807.6217309899238
 31
0.0
1001
ACAD
1010
0.0
1020
0.0
1030
0.0
1001
ACADANNOTATIVE
1000
AnnotativeData
1002
{
1070
     1
1070
     1
1002
}
  0
LINE
  5
2CB3
330
27D3
100
AcDbEntity
  8
DETAIL
100
AcDbLine
 10
-237.8455457126497
 20
690.5140944262602
 30
0.0
 11
8.080620760274086
 21
807.621730989922
 31
0.0
1001
ACAD
1010
0.0
1020
0.0
1030
0.0
1001
ACADANNOTATIVE
1000
AnnotativeData
1002
{
1070
     1
1070
     1
1002
}
  0
LINE
  5
2CB4
330
27D3
100
AcDbEntity
  8
DETAIL
100
AcDbLine
 10
-237.8455457126497
 20
680.5141426821246
 30
0.0
 11
29.08053049726868
 21
807.621730989922
 31
0.0
1001
ACAD
1010
0.0
1020
0.0
1030
0.0
1001
ACADANNOTATIVE
1000
AnnotativeData
1002
{
1070
     1
1070
     1
1002
}
  0
LINE
  5
2CB5
330
27D3
100
AcDbEntity
  8
DETAIL
100
AcDbLine
 10
-237.8455457126497
 20
670.5141909379918
 30
0.0
 11
47.75445428735247
 21
806.5141192183528
 31
0.0
1001
ACAD
1010
0.0
1020
0.0
1030
0.0
1001
ACADANNOTATIVE
1000
AnnotativeData
1002
{
1070
     1
1070
     1
1002
}
  0
LINE
  5
2CB6
330
27D3
100
AcDbEntity
  8
DETAIL
100
AcDbLine
 10
47.75445428735247
 20
806.5141192183528
 30
0.0
 11
50.08044023425236
 21
807.6217309899211
 31
0.0
1001
ACAD
1010
0.0
1020
0.0
1030
0.0
1001
ACADANNOTATIVE
1000
AnnotativeData
1002
{
1070
     1
1070
     1
1002
}
  0
LINE
  5
2CB7
330
27D3
100
AcDbEntity
  8
DETAIL
100
AcDbLine
 10
-237.8455457126497
 20
660.5142391938561
 30
0.0
 11
47.75445428734883
 21
796.5141674742171
 31
0.0
1001
ACAD
1010
0.0
1020
0.0
1030
0.0
1001
ACADANNOTATIVE
1000
AnnotativeData
1002
{
1070
     1
1070
     1
1002
}
  0
LINE
  5
2CB8
330
27D3
100
AcDbEntity
  8
DETAIL
100
AcDbLine
 10
47.75445428734883
 20
796.5141674742171
 30
0.0
 11
71.08034997124696
 21
807.6217309899211
 31
0.0
1001
ACAD
1010
0.0
1020
0.0
1030
0.0
1001
ACADANNOTATIVE
1000
AnnotativeData
1002
{
1070
     1
1070
     1
1002
}
  0
LINE
  5
2CB9
330
27D3
100
AcDbEntity
  8
DETAIL
100
AcDbLine
 10
-237.8455457126497
 20
650.5142874497205
 30
0.0
 11
47.75445428735247
 21
786.5142157300834
 31
0.0
1001
ACAD
1010
0.0
1020
0.0
1030
0.0
1001
ACADANNOTATIVE
1000
AnnotativeData
1002
{
1070
     1
1070
     1
1002
}
  0
LINE
  5
2CBA
330
27D3
100
AcDbEntity
  8
DETAIL
100
AcDbLine
 10
47.75445428735247
 20
786.5142157300834
 30
0.0
 11
92.08025970823792
 21
807.6217309899211
 31
0.0
1001
ACAD
1010
0.0
1020
0.0
1030
0.0
1001
ACADANNOTATIVE
1000
AnnotativeData
1002
{
1070
     1
1070
     1
1002
}
  0
LINE
  5
2CBB
330
27D3
100
AcDbEntity
  8
DETAIL
100
AcDbLine
 10
-237.8455457126497
 20
640.5143357055877
 30
0.0
 11
47.75445428734883
 21
776.5142639859487
 31
0.0
1001
ACAD
1010
0.0
1020
0.0
1030
0.0
1001
ACADANNOTATIVE
1000
AnnotativeData
1002
{
1070
     1
1070
     1
1002
}
  0
LINE
  5
2CBC
330
27D3
100
AcDbEntity
  8
DETAIL
100
AcDbLine
 10
47.75445428734883
 20
776.5142639859487
 30
0.0
 11
113.0801694452288
 21
807.6217309899211
 31
0.0
1001
ACAD
1010
0.0
1020
0.0
1030
0.0
1001
ACADANNOTATIVE
1000
AnnotativeData
1002
{
1070
     1
1070
     1
1002
}
  0
LINE
  5
2CBD
330
27D3
100
AcDbEntity
  8
DETAIL
100
AcDbLine
 10
-237.8455457126497
 20
630.514383961452
 30
0.0
 11
47.75445428734883
 21
766.514312241813
 31
0.0
1001
ACAD
1010
0.0
1020
0.0
1030
0.0
1001
ACADANNOTATIVE
1000
AnnotativeData
1002
{
1070
     1
1070
     1
1002
}
  0
LINE
  5
2CBE
330
27D3
100
AcDbEntity
  8
DETAIL
100
AcDbLine
 10
47.75445428734883
 20
766.5143122418148
 30
0.0
 11
134.0800791822162
 21
807.6217309899211
 31
0.0
1001
ACAD
1010
0.0
1020
0.0
1030
0.0
1001
ACADANNOTATIVE
1000
AnnotativeData
1002
{
1070
     1
1070
     1
1002
}
  0
LINE
  5
2CBF
330
27D3
100
AcDbEntity
  8
DETAIL
100
AcDbLine
 10
-237.8455457126497
 20
620.5144322173183
 30
0.0
 11
47.75445428735247
 21
756.5143604976793
 31
0.0
1001
ACAD
1010
0.0
1020
0.0
1030
0.0
1001
ACADANNOTATIVE
1000
AnnotativeData
1002
{
1070
     1
1070
     1
1002
}
  0
LINE
  5
2CC0
330
27D3
100
AcDbEntity
  8
DETAIL
100
AcDbLine
 10
47.75445428735247
 20
756.5143604976793
 30
0.0
 11
155.0799889192108
 21
807.6217309899211
 31
0.0
1001
ACAD
1010
0.0
1020
0.0
1030
0.0
1001
ACADANNOTATIVE
1000
AnnotativeData
1002
{
1070
     1
1070
     1
1002
}
  0
LINE
  5
2CC1
330
27D3
100
AcDbEntity
  8
DETAIL
100
AcDbLine
 10
-237.8455457126497
 20
610.5144804731835
 30
0.0
 11
47.75445428734883
 21
746.5144087535446
 31
0.0
1001
ACAD
1010
0.0
1020
0.0
1030
0.0
1001
ACADANNOTATIVE
1000
AnnotativeData
1002
{
1070
     1
1070
     1
1002
}
  0
LINE
  5
2CC2
330
27D3
100
AcDbEntity
  8
DETAIL
100
AcDbLine
 10
47.75445428734883
 20
746.5144087535446
 30
0.0
 11
176.0798986562017
 21
807.621730989922
 31
0.0
1001
ACAD
1010
0.0
1020
0.0
1030
0.0
1001
ACADANNOTATIVE
1000
AnnotativeData
1002
{
1070
     1
1070
     1
1002
}
  0
LINE
  5
2CC3
330
27D3
100
AcDbEntity
  8
DETAIL
100
AcDbLine
 10
-237.8455457126461
 20
600.5145287290497
 30
0.0
 11
47.75445428735247
 21
736.5144570094107
 31
0.0
1001
ACAD
1010
0.0
1020
0.0
1030
0.0
1001
ACADANNOTATIVE
1000
AnnotativeData
1002
{
1070
     1
1070
     1
1002
}
  0
LINE
  5
2CC4
330
27D3
100
AcDbEntity
  8
DETAIL
100
AcDbLine
 10
47.75445428735247
 20
736.5144570094107
 30
0.0
 11
197.0798083931927
 21
807.621730989922
 31
0.0
1001
ACAD
1010
0.0
1020
0.0
1030
0.0
1001
ACADANNOTATIVE
1000
AnnotativeData
1002
{
1070
     1
1070
     1
1002
}
  0
LINE
  5
2CC5
330
27D3
100
AcDbEntity
  8
DETAIL
100
AcDbLine
 10
-237.8455457126497
 20
590.514576984915
 30
0.0
 11
47.75445428734883
 21
726.514505265276
 31
0.0
1001
ACAD
1010
0.0
1020
0.0
1030
0.0
1001
ACADANNOTATIVE
1000
AnnotativeData
1002
{
1070
     1
1070
     1
1002
}
  0
LINE
  5
2CC6
330
27D3
100
AcDbEntity
  8
DETAIL
100
AcDbLine
 10
47.75445428734883
 20
726.514505265276
 30
0.0
 11
218.0797181301837
 21
807.6217309899229
 31
0.0
1001
ACAD
1010
0.0
1020
0.0
1030
0.0
1001
ACADANNOTATIVE
1000
AnnotativeData
1002
{
1070
     1
1070
     1
1002
}
  0
LINE
  5
2CC7
330
27D3
100
AcDbEntity
  8
DETAIL
100
AcDbLine
 10
-237.8455457126497
 20
580.5146252407812
 30
0.0
 11
47.75445428734883
 21
716.5145535211422
 31
0.0
1001
ACAD
1010
0.0
1020
0.0
1030
0.0
1001
ACADANNOTATIVE
1000
AnnotativeData
1002
{
1070
     1
1070
     1
1002
}
  0
LINE
  5
2CC8
330
27D3
100
AcDbEntity
  8
DETAIL
100
AcDbLine
 10
47.75445428734883
 20
716.5145535211422
 30
0.0
 11
239.0796278671746
 21
807.6217309899229
 31
0.0
1001
ACAD
1010
0.0
1020
0.0
1030
0.0
1001
ACADANNOTATIVE
1000
AnnotativeData
1002
{
1070
     1
1070
     1
1002
}
  0
LINE
  5
2CC9
330
27D3
100
AcDbEntity
  8
DETAIL
100
AcDbLine
 10
-237.8455457126461
 20
570.5146734966474
 30
0.0
 11
47.75445428734883
 21
706.5146017770048
 31
0.0
1001
ACAD
1010
0.0
1020
0.0
1030
0.0
1001
ACADANNOTATIVE
1000
AnnotativeData
1002
{
1070
     1
1070
     1
1002
}
  0
LINE
  5
2CCA
330
27D3
100
AcDbEntity
  8
DETAIL
100
AcDbLine
 10
47.75445428735247
 20
706.5146017770066
 30
0.0
 11
260.0795376041692
 21
807.6217309899229
 31
0.0
1001
ACAD
1010
0.0
1020
0.0
1030
0.0
1001
ACADANNOTATIVE
1000
AnnotativeData
1002
{
1070
     1
1070
     1
1002
}
  0
LINE
  5
2CCB
330
27D3
100
AcDbEntity
  8
DETAIL
100
AcDbLine
 10
-237.8455457126461
 20
560.5147217525127
 30
0.0
 11
47.7544542873452
 21
696.514650032871
 31
0.0
1001
ACAD
1010
0.0
1020
0.0
1030
0.0
1001
ACADANNOTATIVE
1000
AnnotativeData
1002
{
1070
     1
1070
     1
1002
}
  0
LINE
  5
2CCC
330
27D3
100
AcDbEntity
  8
DETAIL
100
AcDbLine
 10
47.75445428735247
 20
696.5146500328737
 30
0.0
 11
263.5544542873481
 21
799.2765006032578
 31
0.0
1001
ACAD
1010
0.0
1020
0.0
1030
0.0
1001
ACADANNOTATIVE
1000
AnnotativeData
1002
{
1070
     1
1070
     1
1002
}
  0
LINE
  5
2CCD
330
27D3
100
AcDbEntity
  8
DETAIL
100
AcDbLine
 10
-237.8455457126461
 20
550.5147700083789
 30
0.0
 11
47.7544542873452
 21
686.5146982887372
 31
0.0
1001
ACAD
1010
0.0
1020
0.0
1030
0.0
1001
ACADANNOTATIVE
1000
AnnotativeData
1002
{
1070
     1
1070
     1
1002
}
  0
LINE
  5
2CCE
330
27D3
100
AcDbEntity
  8
DETAIL
100
AcDbLine
 10
47.75445428734883
 20
686.5146982887381
 30
0.0
 11
263.5544542873481
 21
789.2765488591221
 31
0.0
1001
ACAD
1010
0.0
1020
0.0
1030
0.0
1001
ACADANNOTATIVE
1000
AnnotativeData
1002
{
1070
     1
1070
     1
1002
}
  0
LINE
  5
2CCF
330
27D3
100
AcDbEntity
  8
DETAIL
100
AcDbLine
 10
-237.8455457126461
 20
540.5148182642442
 30
0.0
 11
47.7544542873452
 21
676.5147465446025
 31
0.0
1001
ACAD
1010
0.0
1020
0.0
1030
0.0
1001
ACADANNOTATIVE
1000
AnnotativeData
1002
{
1070
     1
1070
     1
1002
}
  0
LINE
  5
2CD0
330
27D3
100
AcDbEntity
  8
DETAIL
100
AcDbLine
 10
47.75445428734883
 20
676.5147465446034
 30
0.0
 11
263.5544542873518
 21
779.2765971149893
 31
0.0
1001
ACAD
1010
0.0
1020
0.0
1030
0.0
1001
ACADANNOTATIVE
1000
AnnotativeData
1002
{
1070
     1
1070
     1
1002
}
  0
LINE
  5
2CD1
330
27D3
100
AcDbEntity
  8
DETAIL
100
AcDbLine
 10
-237.8455457126461
 20
530.5148665201104
 30
0.0
 11
47.75445428734883
 21
666.5147948004687
 31
0.0
1001
ACAD
1010
0.0
1020
0.0
1030
0.0
1001
ACADANNOTATIVE
1000
AnnotativeData
1002
{
1070
     1
1070
     1
1002
}
  0
LINE
  5
2CD2
330
27D3
100
AcDbEntity
  8
DETAIL
100
AcDbLine
 10
47.75445428734883
 20
666.5147948004696
 30
0.0
 11
263.5544542873481
 21
769.2766453708537
 31
0.0
1001
ACAD
1010
0.0
1020
0.0
1030
0.0
1001
ACADANNOTATIVE
1000
AnnotativeData
1002
{
1070
     1
1070
     1
1002
}
  0
LINE
  5
2CD3
330
27D3
100
AcDbEntity
  8
DETAIL
100
AcDbLine
 10
-237.8455457126497
 20
520.5149147759748
 30
0.0
 11
47.7544542873452
 21
656.5148430563331
 31
0.0
1001
ACAD
1010
0.0
1020
0.0
1030
0.0
1001
ACADANNOTATIVE
1000
AnnotativeData
1002
{
1070
     1
1070
     1
1002
}
  0
LINE
  5
2CD4
330
27D3
100
AcDbEntity
  8
DETAIL
100
AcDbLine
 10
47.75445428734883
 20
656.514843056334
 30
0.0
 11
263.5544542873445
 21
759.276693626718
 31
0.0
1001
ACAD
1010
0.0
1020
0.0
1030
0.0
1001
ACADANNOTATIVE
1000
AnnotativeData
1002
{
1070
     1
1070
     1
1002
}
  0
LINE
  5
2CD5
330
27D3
100
AcDbEntity
  8
DETAIL
100
AcDbLine
 10
-237.8455457126424
 20
510.5149630318419
 30
0.0
 11
47.75445428734883
 21
646.5148913122002
 31
0.0
1001
ACAD
1010
0.0
1020
0.0
1030
0.0
1001
ACADANNOTATIVE
1000
AnnotativeData
1002
{
1070
     1
1070
     1
1002
}
  0
LINE
  5
2CD6
330
27D3
100
AcDbEntity
  8
DETAIL
100
AcDbLine
 10
47.75445428735247
 20
646.5148913122011
 30
0.0
 11
263.5544542873481
 21
749.2767418825851
 31
0.0
1001
ACAD
1010
0.0
1020
0.0
1030
0.0
1001
ACADANNOTATIVE
1000
AnnotativeData
1002
{
1070
     1
1070
     1
1002
}
  0
LINE
  5
2CD7
330
27D3
100
AcDbEntity
  8
DETAIL
100
AcDbLine
 10
-237.8455457126461
 20
500.5150112877063
 30
0.0
 11
47.7544542873452
 21
636.5149395680646
 31
0.0
1001
ACAD
1010
0.0
1020
0.0
1030
0.0
1001
ACADANNOTATIVE
1000
AnnotativeData
1002
{
1070
     1
1070
     1
1002
}
  0
LINE
  5
2CD8
330
27D3
100
AcDbEntity
  8
DETAIL
100
AcDbLine
 10
47.75445428734883
 20
636.5149395680664
 30
0.0
 11
263.5544542873481
 21
739.2767901384495
 31
0.0
1001
ACAD
1010
0.0
1020
0.0
1030
0.0
1001
ACADANNOTATIVE
1000
AnnotativeData
1002
{
1070
     1
1070
     1
1002
}
  0
LINE
  5
2CD9
330
27D3
100
AcDbEntity
  8
DETAIL
100
AcDbLine
 10
-237.8455457126424
 20
490.5150595435725
 30
0.0
 11
47.75445428734156
 21
626.514987823929
 31
0.0
1001
ACAD
1010
0.0
1020
0.0
1030
0.0
1001
ACADANNOTATIVE
1000
AnnotativeData
1002
{
1070
     1
1070
     1
1002
}
  0
LINE
  5
2CDA
330
27D3
100
AcDbEntity
  8
DETAIL
100
AcDbLine
 10
47.75445428734883
 20
626.5149878239317
 30
0.0
 11
263.5544542873518
 21
729.2768383943157
 31
0.0
1001
ACAD
1010
0.0
1020
0.0
1030
0.0
1001
ACADANNOTATIVE
1000
AnnotativeData
1002
{
1070
     1
1070
     1
1002
}
  0
LINE
  5
2CDB
330
27D3
100
AcDbEntity
  8
DETAIL
100
AcDbLine
 10
-237.8455457126461
 20
480.5151077994387
 30
0.0
 11
47.75445428734883
 21
616.515036079796
 31
0.0
1001
ACAD
1010
0.0
1020
0.0
1030
0.0
1001
ACADANNOTATIVE
1000
AnnotativeData
1002
{
1070
     1
1070
     1
1002
}
  0
LINE
  5
2CDC
330
27D3
100
AcDbEntity
  8
DETAIL
100
AcDbLine
 10
47.75445428734883
 20
616.5150360797979
 30
0.0
 11
263.5544542873481
 21
719.276886650181
 31
0.0
1001
ACAD
1010
0.0
1020
0.0
1030
0.0
1001
ACADANNOTATIVE
1000
AnnotativeData
1002
{
1070
     1
1070
     1
1002
}
  0
LINE
  5
2CDD
330
27D3
100
AcDbEntity
  8
DETAIL
100
AcDbLine
 10
-237.8455457126461
 20
470.515156055304
 30
0.0
 11
63.09842035293832
 21
613.8217309899228
 31
0.0
1001
ACAD
1010
0.0
1020
0.0
1030
0.0
1001
ACADANNOTATIVE
1000
AnnotativeData
1002
{
1070
     1
1070
     1
1002
}
  0
LINE
  5
2CDE
330
27D3
100
AcDbEntity
  8
DETAIL
100
AcDbLine
 10
63.09842035294195
 20
613.8217309899236
 30
0.0
 11
263.5544542873445
 21
709.2769349060463
 31
0.0
1001
ACAD
1010
0.0
1020
0.0
1030
0.0
1001
ACADANNOTATIVE
1000
AnnotativeData
1002
{
1070
     1
1070
     1
1002
}
  0
LINE
  5
2CDF
330
27D3
100
AcDbEntity
  8
DETAIL
100
AcDbLine
 10
-237.8455457126424
 20
460.5152043111693
 30
0.0
 11
84.09833008992928
 21
613.8217309899228
 31
0.0
1001
ACAD
1010
0.0
1020
0.0
1030
0.0
1001
ACADANNOTATIVE
1000
AnnotativeData
1002
{
1070
     1
1070
     1
1002
}
  0
LINE
  5
2CE0
330
27D3
100
AcDbEntity
  8
DETAIL
100
AcDbLine
 10
84.09833008993656
 20
613.8217309899236
 30
0.0
 11
263.5544542873445
 21
699.2769831619106
 31
0.0
1001
ACAD
1010
0.0
1020
0.0
1030
0.0
1001
ACADANNOTATIVE
1000
AnnotativeData
1002
{
1070
     1
1070
     1
1002
}
  0
LINE
  5
2CE1
330
27D3
100
AcDbEntity
  8
DETAIL
100
AcDbLine
 10
-237.8455457126461
 20
450.5152525670346
 30
0.0
 11
105.0982398269239
 21
613.8217309899228
 31
0.0
1001
ACAD
1010
0.0
1020
0.0
1030
0.0
1001
ACADANNOTATIVE
1000
AnnotativeData
1002
{
1070
     1
1070
     1
1002
}
  0
LINE
  5
2CE2
330
27D3
100
AcDbEntity
  8
DETAIL
100
AcDbLine
 10
105.0982398269239
 20
613.8217309899228
 30
0.0
 11
263.5544542873445
 21
689.2770314177759
 31
0.0
1001
ACAD
1010
0.0
1020
0.0
1030
0.0
1001
ACADANNOTATIVE
1000
AnnotativeData
1002
{
1070
     1
1070
     1
1002
}
  0
LINE
  5
2CE3
330
27D3
100
AcDbEntity
  8
DETAIL
100
AcDbLine
 10
-237.8455457126461
 20
440.5153008229008
 30
0.0
 11
126.0981495639112
 21
613.8217309899219
 31
0.0
1001
ACAD
1010
0.0
1020
0.0
1030
0.0
1001
ACADANNOTATIVE
1000
AnnotativeData
1002
{
1070
     1
1070
     1
1002
}
  0
LINE
  5
2CE4
330
27D3
100
AcDbEntity
  8
DETAIL
100
AcDbLine
 10
126.0981495639112
 20
613.8217309899219
 30
0.0
 11
263.5544542873445
 21
679.2770796736422
 31
0.0
1001
ACAD
1010
0.0
1020
0.0
1030
0.0
1001
ACADANNOTATIVE
1000
AnnotativeData
1002
{
1070
     1
1070
     1
1002
}
  0
LINE
  5
2CE5
330
27D3
100
AcDbEntity
  8
DETAIL
100
AcDbLine
 10
-237.8455457126461
 20
430.515349078766
 30
0.0
 11
147.0980593009021
 21
613.8217309899228
 31
0.0
1001
ACAD
1010
0.0
1020
0.0
1030
0.0
1001
ACADANNOTATIVE
1000
AnnotativeData
1002
{
1070
     1
1070
     1
1002
}
  0
LINE
  5
2CE6
330
27D3
100
AcDbEntity
  8
DETAIL
100
AcDbLine
 10
147.0980593009021
 20
613.8217309899228
 30
0.0
 11
263.5544542873445
 21
669.2771279295075
 31
0.0
1001
ACAD
1010
0.0
1020
0.0
1030
0.0
1001
ACADANNOTATIVE
1000
AnnotativeData
1002
{
1070
     1
1070
     1
1002
}
  0
LINE
  5
2CE7
330
27D3
100
AcDbEntity
  8
DETAIL
100
AcDbLine
 10
-237.8455457126461
 20
420.5153973346323
 30
0.0
 11
168.0979690378931
 21
613.8217309899219
 31
0.0
1001
ACAD
1010
0.0
1020
0.0
1030
0.0
1001
ACADANNOTATIVE
1000
AnnotativeData
1002
{
1070
     1
1070
     1
1002
}
  0
LINE
  5
2CE8
330
27D3
100
AcDbEntity
  8
DETAIL
100
AcDbLine
 10
168.0979690378931
 20
613.8217309899219
 30
0.0
 11
263.5544542873445
 21
659.2771761853737
 31
0.0
1001
ACAD
1010
0.0
1020
0.0
1030
0.0
1001
ACADANNOTATIVE
1000
AnnotativeData
1002
{
1070
     1
1070
     1
1002
}
  0
LINE
  5
2CE9
330
27D3
100
AcDbEntity
  8
DETAIL
100
AcDbLine
 10
-237.8455457126461
 20
410.5154455904966
 30
0.0
 11
189.097878774884
 21
613.8217309899219
 31
0.0
1001
ACAD
1010
0.0
1020
0.0
1030
0.0
1001
ACADANNOTATIVE
1000
AnnotativeData
1002
{
1070
     1
1070
     1
1002
}
  0
LINE
  5
2CEA
330
27D3
100
AcDbEntity
  8
DETAIL
100
AcDbLine
 10
189.097878774884
 20
613.8217309899219
 30
0.0
 11
263.5544542873445
 21
649.2772244412381
 31
0.0
1001
ACAD
1010
0.0
1020
0.0
1030
0.0
1001
ACADANNOTATIVE
1000
AnnotativeData
1002
{
1070
     1
1070
     1
1002
}
  0
LINE
  5
2CEB
330
27D3
100
AcDbEntity
  8
DETAIL
100
AcDbLine
 10
-237.8455457126424
 20
400.5154938463638
 30
0.0
 11
210.097788511875
 21
613.8217309899228
 31
0.0
1001
ACAD
1010
0.0
1020
0.0
1030
0.0
1001
ACADANNOTATIVE
1000
AnnotativeData
1002
{
1070
     1
1070
     1
1002
}
  0
LINE
  5
2CEC
330
27D3
100
AcDbEntity
  8
DETAIL
100
AcDbLine
 10
210.097788511875
 20
613.8217309899228
 30
0.0
 11
263.5544542873481
 21
639.2772726971052
 31
0.0
1001
ACAD
1010
0.0
1020
0.0
1030
0.0
1001
ACADANNOTATIVE
1000
AnnotativeData
1002
{
1070
     1
1070
     1
1002
}
  0
LINE
  5
2CED
330
27D3
100
AcDbEntity
  8
DETAIL
100
AcDbLine
 10
-237.8455457126461
 20
390.5155421022282
 30
0.0
 11
231.097698248866
 21
613.8217309899228
 31
0.0
1001
ACAD
1010
0.0
1020
0.0
1030
0.0
1001
ACADANNOTATIVE
1000
AnnotativeData
1002
{
1070
     1
1070
     1
1002
}
  0
LINE
  5
2CEE
330
27D3
100
AcDbEntity
  8
DETAIL
100
AcDbLine
 10
231.097698248866
 20
613.8217309899228
 30
0.0
 11
263.5544542873445
 21
629.2773209529696
 31
0.0
1001
ACAD
1010
0.0
1020
0.0
1030
0.0
1001
ACADANNOTATIVE
1000
AnnotativeData
1002
{
1070
     1
1070
     1
1002
}
  0
LINE
  5
2CEF
330
27D3
100
AcDbEntity
  8
DETAIL
100
AcDbLine
 10
-237.8455457126461
 20
380.5155903580953
 30
0.0
 11
252.097607985857
 21
613.8217309899236
 31
0.0
1001
ACAD
1010
0.0
1020
0.0
1030
0.0
1001
ACADANNOTATIVE
1000
AnnotativeData
1002
{
1070
     1
1070
     1
1002
}
  0
LINE
  5
2CF0
330
27D3
100
AcDbEntity
  8
DETAIL
100
AcDbLine
 10
252.097607985857
 20
613.8217309899236
 30
0.0
 11
263.5544542873445
 21
619.2773692088366
 31
0.0
1001
ACAD
1010
0.0
1020
0.0
1030
0.0
1001
ACADANNOTATIVE
1000
AnnotativeData
1002
{
1070
     1
1070
     1
1002
}
  0
LINE
  5
2CF1
330
27D3
100
AcDbEntity
  8
DETAIL
100
AcDbLine
 10
-237.8455457126461
 20
370.5156386139597
 30
0.0
 11
263.5544542873518
 21
609.2774174647047
 31
0.0
1001
ACAD
1010
0.0
1020
0.0
1030
0.0
1001
ACADANNOTATIVE
1000
AnnotativeData
1002
{
1070
     1
1070
     1
1002
}
  0
LINE
  5
2CF2
330
27D3
100
AcDbEntity
  8
DETAIL
100
AcDbLine
 10
-237.8455457126461
 20
360.5156868698241
 30
0.0
 11
263.5544542873518
 21
599.2774657205709
 31
0.0
1001
ACAD
1010
0.0
1020
0.0
1030
0.0
1001
ACADANNOTATIVE
1000
AnnotativeData
1002
{
1070
     1
1070
     1
1002
}
  0
LINE
  5
2CF3
330
27D3
100
AcDbEntity
  8
DETAIL
100
AcDbLine
 10
-237.8455457126461
 20
350.5157351256912
 30
0.0
 11
263.5544542873518
 21
589.2775139764362
 31
0.0
1001
ACAD
1010
0.0
1020
0.0
1030
0.0
1001
ACADANNOTATIVE
1000
AnnotativeData
1002
{
1070
     1
1070
     1
1002
}
  0
LINE
  5
2CF4
330
27D3
100
AcDbEntity
  8
DETAIL
100
AcDbLine
 10
-219.5630460937959
 20
349.2217309899215
 30
0.0
 11
263.5544542873554
 21
579.2775622323024
 31
0.0
1001
ACAD
1010
0.0
1020
0.0
1030
0.0
1001
ACADANNOTATIVE
1000
AnnotativeData
1002
{
1070
     1
1070
     1
1002
}
  0
LINE
  5
2CF5
330
27D3
100
AcDbEntity
  8
DETAIL
100
AcDbLine
 10
-198.563136356805
 20
349.2217309899215
 30
0.0
 11
263.5544542873518
 21
569.2776104881668
 31
0.0
1001
ACAD
1010
0.0
1020
0.0
1030
0.0
1001
ACADANNOTATIVE
1000
AnnotativeData
1002
{
1070
     1
1070
     1
1002
}
  0
LINE
  5
2CF6
330
27D3
100
AcDbEntity
  8
DETAIL
100
AcDbLine
 10
-177.5632266198176
 20
349.2217309899225
 30
0.0
 11
263.5544542873518
 21
559.2776587440339
 31
0.0
1001
ACAD
1010
0.0
1020
0.0
1030
0.0
1001
ACADANNOTATIVE
1000
AnnotativeData
1002
{
1070
     1
1070
     1
1002
}
  0
LINE
  5
2CF7
330
27D3
100
AcDbEntity
  8
DETAIL
100
AcDbLine
 10
-156.5633168828231
 20
349.2217309899225
 30
0.0
 11
263.5544542873518
 21
549.2777069998983
 31
0.0
1001
ACAD
1010
0.0
1020
0.0
1030
0.0
1001
ACADANNOTATIVE
1000
AnnotativeData
1002
{
1070
     1
1070
     1
1002
}
  0
LINE
  5
2CF8
330
27D3
100
AcDbEntity
  8
DETAIL
100
AcDbLine
 10
-135.5634071458321
 20
349.2217309899215
 30
0.0
 11
263.5544542873518
 21
539.2777552557626
 31
0.0
1001
ACAD
1010
0.0
1020
0.0
1030
0.0
1001
ACADANNOTATIVE
1000
AnnotativeData
1002
{
1070
     1
1070
     1
1002
}
  0
LINE
  5
2CF9
330
27D3
100
AcDbEntity
  8
DETAIL
100
AcDbLine
 10
-114.5634974088411
 20
349.2217309899225
 30
0.0
 11
263.5544542873518
 21
529.2778035116298
 31
0.0
1001
ACAD
1010
0.0
1020
0.0
1030
0.0
1001
ACADANNOTATIVE
1000
AnnotativeData
1002
{
1070
     1
1070
     1
1002
}
  0
LINE
  5
2CFA
330
27D3
100
AcDbEntity
  8
DETAIL
100
AcDbLine
 10
-93.56358767185019
 20
349.2217309899225
 30
0.0
 11
263.5544542873518
 21
519.2778517674942
 31
0.0
1001
ACAD
1010
0.0
1020
0.0
1030
0.0
1001
ACADANNOTATIVE
1000
AnnotativeData
1002
{
1070
     1
1070
     1
1002
}
  0
LINE
  5
2CFB
330
27D3
100
AcDbEntity
  8
DETAIL
100
AcDbLine
 10
-72.56367793485924
 20
349.2217309899233
 30
0.0
 11
263.5544542873518
 21
509.2779000233613
 31
0.0
1001
ACAD
1010
0.0
1020
0.0
1030
0.0
1001
ACADANNOTATIVE
1000
AnnotativeData
1002
{
1070
     1
1070
     1
1002
}
  0
LINE
  5
2CFC
330
27D3
100
AcDbEntity
  8
DETAIL
100
AcDbLine
 10
-51.56376819786828
 20
349.2217309899233
 30
0.0
 11
263.5544542873518
 21
499.2779482792257
 31
0.0
1001
ACAD
1010
0.0
1020
0.0
1030
0.0
1001
ACADANNOTATIVE
1000
AnnotativeData
1002
{
1070
     1
1070
     1
1002
}
  0
LINE
  5
2CFD
330
27D3
100
AcDbEntity
  8
DETAIL
100
AcDbLine
 10
-30.56385846087733
 20
349.2217309899233
 30
0.0
 11
263.5544542873554
 21
489.2779965350919
 31
0.0
1001
ACAD
1010
0.0
1020
0.0
1030
0.0
1001
ACADANNOTATIVE
1000
AnnotativeData
1002
{
1070
     1
1070
     1
1002
}
  0
LINE
  5
2CFE
330
27D3
100
AcDbEntity
  8
DETAIL
100
AcDbLine
 10
-9.563948723890007
 20
349.2217309899225
 30
0.0
 11
263.5544542873481
 21
479.2780447909554
 31
0.0
1001
ACAD
1010
0.0
1020
0.0
1030
0.0
1001
ACADANNOTATIVE
1000
AnnotativeData
1002
{
1070
     1
1070
     1
1002
}
  0
LINE
  5
2CFF
330
27D3
100
AcDbEntity
  8
DETAIL
100
AcDbLine
 10
11.43596101310095
 20
349.2217309899206
 30
0.0
 11
263.5544542873481
 21
469.2780930468207
 31
0.0
1001
ACAD
1010
0.0
1020
0.0
1030
0.0
1001
ACADANNOTATIVE
1000
AnnotativeData
1002
{
1070
     1
1070
     1
1002
}
  0
LINE
  5
2D00
330
27D3
100
AcDbEntity
  8
DETAIL
100
AcDbLine
 10
32.43587075009191
 20
349.2217309899215
 30
0.0
 11
263.5544542873481
 21
459.2781413026878
 31
0.0
1001
ACAD
1010
0.0
1020
0.0
1030
0.0
1001
ACADANNOTATIVE
1000
AnnotativeData
1002
{
1070
     1
1070
     1
1002
}
  0
LINE
  5
2D01
330
27D3
100
AcDbEntity
  8
DETAIL
100
AcDbLine
 10
53.43578048707922
 20
349.2217309899215
 30
0.0
 11
263.5544542873481
 21
449.2781895585522
 31
0.0
1001
ACAD
1010
0.0
1020
0.0
1030
0.0
1001
ACADANNOTATIVE
1000
AnnotativeData
1002
{
1070
     1
1070
     1
1002
}
  0
LINE
  5
2D02
330
27D3
100
AcDbEntity
  8
DETAIL
100
AcDbLine
 10
74.43569022407382
 20
349.2217309899215
 30
0.0
 11
263.5544542873518
 21
439.2782378144183
 31
0.0
1001
ACAD
1010
0.0
1020
0.0
1030
0.0
1001
ACADANNOTATIVE
1000
AnnotativeData
1002
{
1070
     1
1070
     1
1002
}
  0
LINE
  5
2D03
330
27D3
100
AcDbEntity
  8
DETAIL
100
AcDbLine
 10
95.43559996106479
 20
349.2217309899225
 30
0.0
 11
263.5544542873481
 21
429.2782860702836
 31
0.0
1001
ACAD
1010
0.0
1020
0.0
1030
0.0
1001
ACADANNOTATIVE
1000
AnnotativeData
1002
{
1070
     1
1070
     1
1002
}
  0
LINE
  5
2D04
330
27D3
100
AcDbEntity
  8
DETAIL
100
AcDbLine
 10
116.4355096980557
 20
349.2217309899225
 30
0.0
 11
263.5544542873518
 21
419.2783343261498
 31
0.0
1001
ACAD
1010
0.0
1020
0.0
1030
0.0
1001
ACADANNOTATIVE
1000
AnnotativeData
1002
{
1070
     1
1070
     1
1002
}
  0
LINE
  5
2D05
330
27D3
100
AcDbEntity
  8
DETAIL
100
AcDbLine
 10
137.4354194350467
 20
349.2217309899225
 30
0.0
 11
263.5544542873481
 21
409.2783825820142
 31
0.0
1001
ACAD
1010
0.0
1020
0.0
1030
0.0
1001
ACADANNOTATIVE
1000
AnnotativeData
1002
{
1070
     1
1070
     1
1002
}
  0
LINE
  5
2D06
330
27D3
100
AcDbEntity
  8
DETAIL
100
AcDbLine
 10
158.4353291720376
 20
349.2217309899225
 30
0.0
 11
263.5544542873481
 21
399.2784308378814
 31
0.0
1001
ACAD
1010
0.0
1020
0.0
1030
0.0
1001
ACADANNOTATIVE
1000
AnnotativeData
1002
{
1070
     1
1070
     1
1002
}
  0
LINE
  5
2D07
330
27D3
100
AcDbEntity
  8
DETAIL
100
AcDbLine
 10
179.4352389090249
 20
349.2217309899225
 30
0.0
 11
263.5544542873518
 21
389.2784790937458
 31
0.0
1001
ACAD
1010
0.0
1020
0.0
1030
0.0
1001
ACADANNOTATIVE
1000
AnnotativeData
1002
{
1070
     1
1070
     1
1002
}
  0
LINE
  5
2D08
330
27D3
100
AcDbEntity
  8
DETAIL
100
AcDbLine
 10
200.4351486460196
 20
349.2217309899225
 30
0.0
 11
263.5544542873481
 21
379.2785273496102
 31
0.0
1001
ACAD
1010
0.0
1020
0.0
1030
0.0
1001
ACADANNOTATIVE
1000
AnnotativeData
1002
{
1070
     1
1070
     1
1002
}
  0
LINE
  5
2D09
330
27D3
100
AcDbEntity
  8
DETAIL
100
AcDbLine
 10
221.4350583830105
 20
349.2217309899233
 30
0.0
 11
263.5544542873481
 21
369.2785756054773
 31
0.0
1001
ACAD
1010
0.0
1020
0.0
1030
0.0
1001
ACADANNOTATIVE
1000
AnnotativeData
1002
{
1070
     1
1070
     1
1002
}
  0
LINE
  5
2D0A
330
27D3
100
AcDbEntity
  8
DETAIL
100
AcDbLine
 10
242.4349681200051
 20
349.2217309899233
 30
0.0
 11
263.5544542873481
 21
359.2786238613417
 31
0.0
1001
ACAD
1010
0.0
1020
0.0
1030
0.0
1001
ACADANNOTATIVE
1000
AnnotativeData
1002
{
1070
     1
1070
     1
1002
}
  0
LINE
  5
2D0B
330
27D3
100
AcDbEntity
  8
DETAIL
100
AcDbLine
 10
263.4348778569888
 20
349.2217309899225
 30
0.0
 11
263.5544542873518
 21
349.2786721172088
 31
0.0
1001
ACAD
1010
0.0
1020
0.0
1030
0.0
1001
ACADANNOTATIVE
1000
AnnotativeData
1002
{
1070
     1
1070
     1
1002
}
  0
LINE
  5
2D0C
330
27D3
100
AcDbEntity
  8
DETAIL
100
AcDbLine
 10
263.5544542873481
 20
349.2217309899238
 30
0.0
 11
263.5544542873481
 21
807.6217309899234
 31
0.0
  0
LINE
  5
2D0D
330
27D3
100
AcDbEntity
  8
DETAIL
100
AcDbLine
 10
-237.8455457126497
 20
807.6217309899238
 30
0.0
 11
-237.8455457126497
 21
349.2217309899238
 31
0.0
  0
LINE
  5
2D0E
330
27D3
100
AcDbEntity
  8
DETAIL
100
AcDbLine
 10
-237.8455457126497
 20
807.6217309899238
 30
0.0
 11
263.5544542873481
 21
807.6217309899234
 31
0.0
  0
LINE
  5
2D0F
330
27D3
100
AcDbEntity
  8
DETAIL
100
AcDbLine
 10
263.5544542873481
 20
349.2217309899238
 30
0.0
 11
-237.8455457126497
 21
349.2217309899238
 31
0.0
  0
ENDSEC
  0
SECTION
  2
OBJECTS
  0
DICTIONARY
  5
276B
330
0
100
AcDbDictionary
281
     1
  3
ACAD_COLOR
350
27C9
  3
ACAD_GROUP
350
276C
  3
ACAD_LAYOUT
350
27C8
  3
ACAD_MATERIAL
350
276F
  3
ACAD_MLEADERSTYLE
350
27CC
  3
ACAD_MLINESTYLE
350
27C5
  3
ACAD_PLOTSETTINGS
350
27C7
  3
ACAD_PLOTSTYLENAME
350
276D
  3
ACAD_SCALELIST
350
2799
  3
ACAD_TABLESTYLE
350
27CA
  3
ACAD_VISUALSTYLE
350
2788
  3
ACDB_RECOMPOSE_DATA
350
29C6
  3
AcDbVariableDictionary
350
29BD
  3
AcmDictionary
350
2969
  3
AMG
350
28B6
  3
AMGSNAPSETTINGS
350
2991
  0
DICTIONARY
  5
2AB9
330
2761
100
AcDbDictionary
280
     1
281
     1
  3
ACAD_LAYERSTATES
360
2ABA
  0
DICTIONARY
  5
2998
330
27BB
100
AcDbDictionary
280
     1
281
     1
  3
ADSK_XREC_LAYER_RECONCILED
360
2999
  0
DICTIONARY
  5
299A
330
27EA
100
AcDbDictionary
280
     1
281
     1
  3
ADSK_XREC_LAYER_RECONCILED
360
299B
  0
DICTIONARY
  5
299C
330
27EB
100
AcDbDictionary
280
     1
281
     1
  3
ADSK_XREC_LAYER_RECONCILED
360
299D
  0
DICTIONARY
  5
299E
330
27EC
100
AcDbDictionary
280
     1
281
     1
  3
ADSK_XREC_LAYER_RECONCILED
360
299F
  0
DICTIONARY
  5
29A0
330
27ED
100
AcDbDictionary
280
     1
281
     1
  3
ADSK_XREC_LAYER_RECONCILED
360
29A1
  0
DICTIONARY
  5
29A2
330
27EE
100
AcDbDictionary
280
     1
281
     1
  3
ADSK_XREC_LAYER_RECONCILED
360
29A3
  0
DICTIONARY
  5
29A4
330
27F0
100
AcDbDictionary
280
     1
281
     1
  3
ADSK_XREC_LAYER_RECONCILED
360
29A5
  0
DICTIONARY
  5
29A6
330
27F1
100
AcDbDictionary
280
     1
281
     1
  3
ADSK_XREC_LAYER_RECONCILED
360
29A7
  0
DICTIONARY
  5
29A8
330
27F2
100
AcDbDictionary
280
     1
281
     1
  3
ADSK_XREC_LAYER_RECONCILED
360
29A9
  0
DICTIONARY
  5
29AA
330
27F3
100
AcDbDictionary
280
     1
281
     1
  3
ADSK_XREC_LAYER_RECONCILED
360
29AB
  0
DICTIONARY
  5
29AC
330
27F4
100
AcDbDictionary
280
     1
281
     1
  3
ADSK_XREC_LAYER_RECONCILED
360
29AD
  0
DICTIONARY
  5
29AE
330
27D3
100
AcDbDictionary
280
     1
281
     1
  3
ACAD_INDEX
360
29AF
  0
DICTIONARY
  5
27C9
102
{ACAD_REACTORS
330
276B
102
}
330
276B
100
AcDbDictionary
281
     1
  0
DICTIONARY
  5
276C
102
{ACAD_REACTORS
330
276B
102
}
330
276B
100
AcDbDictionary
281
     1
  0
DICTIONARY
  5
27C8
102
{ACAD_REACTORS
330
276B
102
}
330
276B
100
AcDbDictionary
281
     1
  3
Model
350
27D6
  3
レイアウト1
350
27D2
  0
DICTIONARY
  5
276F
102
{ACAD_REACTORS
330
276B
102
}
330
276B
100
AcDbDictionary
281
     1
  3
ByBlock
350
2778
  3
ByLayer
350
2770
  3
Global
350
2780
  0
DICTIONARY
  5
27CC
102
{ACAD_REACTORS
330
276B
102
}
330
276B
100
AcDbDictionary
281
     1
  3
Standard
350
27CD
  0
DICTIONARY
  5
27C5
102
{ACAD_REACTORS
330
276B
102
}
330
276B
100
AcDbDictionary
281
     1
  3
Standard
350
27C6
  0
DICTIONARY
  5
27C7
102
{ACAD_REACTORS
330
276B
102
}
330
276B
100
AcDbDictionary
281
     1
  0
ACDBDICTIONARYWDFLT
  5
276D
102
{ACAD_REACTORS
330
276B
102
}
330
276B
100
AcDbDictionary
281
     1
  3
Normal
350
276E
100
AcDbDictionaryWithDefault
340
276E
  0
DICTIONARY
  5
2799
102
{ACAD_REACTORS
330
276B
102
}
330
276B
100
AcDbDictionary
281
     1
  3
A0
350
279A
  3
A1
350
279B
  3
A2
350
279C
  3
A3
350
279D
  3
A4
350
279E
  3
A5
350
279F
  3
A6
350
27A0
  3
A7
350
27A1
  3
A8
350
27A2
  3
A9
350
27A3
  3
B0
350
27A4
  3
B1
350
27A5
  3
B2
350
27A6
  3
B3
350
27A7
  3
B4
350
27A8
  3
B5
350
27A9
  3
B6
350
27AA
  3
B7
350
27AB
  3
B8
350
27AC
  3
B9
350
27AD
  3
C0
350
27AE
  3
C1
350
27AF
  3
C2
350
27B0
  3
C3
350
27B1
  3
C4
350
27B2
  3
C5
350
27B3
  3
C6
350
27B4
  3
C7
350
27B5
  3
C8
350
27B6
  3
C9
350
27B7
  3
D0
350
27B8
  3
D1
350
27B9
  3
D2
350
27BA
  0
DICTIONARY
  5
27CA
102
{ACAD_REACTORS
330
276B
102
}
330
276B
100
AcDbDictionary
281
     1
  3
Standard
350
27CB
  0
DICTIONARY
  5
2788
102
{ACAD_REACTORS
330
276B
102
}
330
276B
100
AcDbDictionary
281
     1
  3
2dWireframe
350
278E
  3
3D Hidden
350
2790
  3
3dWireframe
350
278F
  3
Basic
350
278D
  3
Brighten
350
2794
  3
ColorChange
350
2798
  3
Conceptual
350
2791
  3
Dim
350
2793
  3
Facepattern
350
2797
  3
Flat
350
2789
  3
FlatWithEdges
350
278A
  3
Gouraud
350
278B
  3
GouraudWithEdges
350
278C
  3
Linepattern
350
2796
  3
Realistic
350
2792
  3
Thicken
350
2795
  0
XRECORD
  5
29C6
102
{ACAD_REACTORS
330
276B
102
}
330
276B
100
AcDbXrecord
280
     1
 90
        1
330
27CB
  0
DICTIONARY
  5
29BD
102
{ACAD_REACTORS
330
276B
102
}
330
276B
100
AcDbDictionary
281
     1
  3
CANNOSCALE
350
29C0
  3
CMLEADERSTYLE
350
29BF
  3
CTABLESTYLE
350
29BE
  3
DIMASSOC
350
29C3
  3
INDEXCTL
350
29C2
  3
LAYEREVAL
350
2D12
  3
LAYERNOTIFY
350
2D13
  3
LIGHTINGUNITS
350
2D11
  3
MSLTSCALE
350
2D10
  3
SORTENTS
350
29C1
  0
DICTIONARY
  5
2969
102
{ACAD_REACTORS
330
276B
102
}
330
276B
100
AcDbDictionary
281
     1
  3
AcmStdDictionary
350
2977
  0
DICTIONARY
  5
28B6
102
{ACAD_REACTORS
330
276B
102
}
330
276B
100
AcDbDictionary
281
     1
  3
AcMgSettings
350
28B7
  3
AMGLAYCFG
350
2AAF
  0
DICTIONARY
  5
2991
102
{ACAD_REACTORS
330
276B
102
}
330
276B
100
AcDbDictionary
281
     1
  3
DIMENSION
350
2996
  3
FEA
350
2995
  3
HATCH (1)
350
2992
  3
HATCH (2)
350
2993
  3
SIMPLE WELD
350
2997
  3
SYMBOLS
350
2994
  0
DICTIONARY
  5
2ABA
102
{ACAD_REACTORS
330
2AB9
102
}
330
2AB9
100
AcDbDictionary
281
     1
  0
XRECORD
  5
2999
102
{ACAD_REACTORS
330
2998
102
}
330
2998
100
AcDbXrecord
280
     1
290
     1
  0
XRECORD
  5
299B
102
{ACAD_REACTORS
330
299A
102
}
330
299A
100
AcDbXrecord
280
     1
290
     1
  0
XRECORD
  5
299D
102
{ACAD_REACTORS
330
299C
102
}
330
299C
100
AcDbXrecord
280
     1
290
     1
  0
XRECORD
  5
299F
102
{ACAD_REACTORS
330
299E
102
}
330
299E
100
AcDbXrecord
280
     1
290
     1
  0
XRECORD
  5
29A1
102
{ACAD_REACTORS
330
29A0
102
}
330
29A0
100
AcDbXrecord
280
     1
290
     1
  0
XRECORD
  5
29A3
102
{ACAD_REACTORS
330
29A2
102
}
330
29A2
100
AcDbXrecord
280
     1
290
     1
  0
XRECORD
  5
29A5
102
{ACAD_REACTORS
330
29A4
102
}
330
29A4
100
AcDbXrecord
280
     1
290
     1
  0
XRECORD
  5
29A7
102
{ACAD_REACTORS
330
29A6
102
}
330
29A6
100
AcDbXrecord
280
     1
290
     1
  0
XRECORD
  5
29A9
102
{ACAD_REACTORS
330
29A8
102
}
330
29A8
100
AcDbXrecord
280
     1
290
     1
  0
XRECORD
  5
29AB
102
{ACAD_REACTORS
330
29AA
102
}
330
29AA
100
AcDbXrecord
280
     1
290
     1
  0
XRECORD
  5
29AD
102
{ACAD_REACTORS
330
29AC
102
}
330
29AC
100
AcDbXrecord
280
     1
290
     1
  0
DICTIONARY
  5
29AF
102
{ACAD_REACTORS
330
29AE
102
}
330
29AE
100
AcDbDictionary
281
     1
  3
*A1
350
29B0
  0
LAYOUT
  5
27D6
102
{ACAD_REACTORS
330
27C8
102
}
330
27C8
100
AcDbPlotSettings
  1

  2
自動 EPSON LP-9600S (W2450527 上)
  4

  6

 40
0.0
 41
0.0
 42
0.0
 43
0.0
 44
0.0
 45
0.0
 46
0.0
 47
0.0
 48
0.0
 49
0.0
140
0.0
141
0.0
142
1.0
143
1.0
 70
  1712
 72
     0
 73
     0
 74
     0
  7

 75
     0
147
1.0
 76
     0
 77
     2
 78
   300
148
0.0
149
0.0
100
AcDbLayout
  1
Model
 70
     1
 71
     0
 10
0.0
 20
0.0
 11
12.0
 21
9.0
 12
0.0
 22
0.0
 32
0.0
 14
0.0
 24
0.0
 34
0.0
 15
0.0
 25
0.0
 35
0.0
146
0.0
 13
0.0
 23
0.0
 33
0.0
 16
1.0
 26
0.0
 36
0.0
 17
0.0
 27
1.0
 37
0.0
 76
     0
330
27D3
331
27D7
  0
LAYOUT
  5
27D2
102
{ACAD_REACTORS
330
27C8
102
}
330
27C8
100
AcDbPlotSettings
  1

  2
自動 EPSON LP-9600S (W2450527 上)
  4

  6

 40
0.0
 41
0.0
 42
0.0
 43
0.0
 44
0.0
 45
0.0
 46
0.0
 47
0.0
 48
0.0
 49
0.0
140
0.0
141
0.0
142
1.0
143
1.0
 70
   688
 72
     0
 73
     0
 74
     5
  7

 75
    16
147
1.0
 76
     0
 77
     2
 78
   300
148
0.0
149
0.0
100
AcDbLayout
  1
レイアウト1
 70
     1
 71
     1
 10
0.0
 20
0.0
 11
12.0
 21
9.0
 12
0.0
 22
0.0
 32
0.0
 14
1.000000000000000E+20
 24
1.000000000000000E+20
 34
1.000000000000000E+20
 15
-1.000000000000000E+20
 25
-1.000000000000000E+20
 35
-1.000000000000000E+20
146
0.0
 13
0.0
 23
0.0
 33
0.0
 16
1.0
 26
0.0
 36
0.0
 17
0.0
 27
1.0
 37
0.0
 76
     0
330
27CF
  0
MATERIAL
  5
2778
102
{ACAD_XDICTIONARY
360
2779
102
}
102
{ACAD_REACTORS
330
276F
102
}
330
276F
100
AcDbMaterial
  1
ByBlock
 72
     0
 43
0.0208333333333333
 43
0.0
 43
0.0
 43
0.0
 43
0.0
 43
0.0208333333333333
 43
0.0
 43
0.0
 43
0.0
 43
0.0
 43
1.0
 43
0.0
 43
0.0
 43
0.0
 43
0.0
 43
1.0
 77
     0
 47
0.0208333333333333
 47
0.0
 47
0.0
 47
0.0
 47
0.0
 47
0.0208333333333333
 47
0.0
 47
0.0
 47
0.0
 47
0.0
 47
1.0
 47
0.0
 47
0.0
 47
0.0
 47
0.0
 47
1.0
171
     0
 49
0.0208333333333333
 49
0.0
 49
0.0
 49
0.0
 49
0.0
 49
0.0208333333333333
 49
0.0
 49
0.0
 49
0.0
 49
0.0
 49
1.0
 49
0.0
 49
0.0
 49
0.0
 49
0.0
 49
1.0
175
     0
142
0.0208333333333333
142
0.0
142
0.0
142
0.0
142
0.0
142
0.0208333333333333
142
0.0
142
0.0
142
0.0
142
0.0
142
1.0
142
0.0
142
0.0
142
0.0
142
0.0
142
1.0
179
     0
144
0.0208333333333333
144
0.0
144
0.0
144
0.0
144
0.0
144
0.0208333333333333
144
0.0
144
0.0
144
0.0
144
0.0
144
1.0
144
0.0
144
0.0
144
0.0
144
0.0
144
1.0
147
0.0208333333333333
147
0.0
147
0.0
147
0.0
147
0.0
147
0.0208333333333333
147
0.0
147
0.0
147
0.0
147
0.0
147
1.0
147
0.0
147
0.0
147
0.0
147
0.0
147
1.0
  0
MATERIAL
  5
2770
102
{ACAD_XDICTIONARY
360
2771
102
}
102
{ACAD_REACTORS
330
276F
102
}
330
276F
100
AcDbMaterial
  1
ByLayer
 72
     0
 43
0.0208333333333333
 43
0.0
 43
0.0
 43
0.0
 43
0.0
 43
0.0208333333333333
 43
0.0
 43
0.0
 43
0.0
 43
0.0
 43
1.0
 43
0.0
 43
0.0
 43
0.0
 43
0.0
 43
1.0
 77
     0
 47
0.0208333333333333
 47
0.0
 47
0.0
 47
0.0
 47
0.0
 47
0.0208333333333333
 47
0.0
 47
0.0
 47
0.0
 47
0.0
 47
1.0
 47
0.0
 47
0.0
 47
0.0
 47
0.0
 47
1.0
171
     0
 49
0.0208333333333333
 49
0.0
 49
0.0
 49
0.0
 49
0.0
 49
0.0208333333333333
 49
0.0
 49
0.0
 49
0.0
 49
0.0
 49
1.0
 49
0.0
 49
0.0
 49
0.0
 49
0.0
 49
1.0
175
     0
142
0.0208333333333333
142
0.0
142
0.0
142
0.0
142
0.0
142
0.0208333333333333
142
0.0
142
0.0
142
0.0
142
0.0
142
1.0
142
0.0
142
0.0
142
0.0
142
0.0
142
1.0
179
     0
144
0.0208333333333333
144
0.0
144
0.0
144
0.0
144
0.0
144
0.0208333333333333
144
0.0
144
0.0
144
0.0
144
0.0
144
1.0
144
0.0
144
0.0
144
0.0
144
0.0
144
1.0
147
0.0208333333333333
147
0.0
147
0.0
147
0.0
147
0.0
147
0.0208333333333333
147
0.0
147
0.0
147
0.0
147
0.0
147
1.0
147
0.0
147
0.0
147
0.0
147
0.0
147
1.0
  0
MATERIAL
  5
2780
102
{ACAD_XDICTIONARY
360
2781
102
}
102
{ACAD_REACTORS
330
276F
102
}
330
276F
100
AcDbMaterial
  1
Global
 72
     0
 43
0.0208333333333333
 43
0.0
 43
0.0
 43
0.0
 43
0.0
 43
0.0208333333333333
 43
0.0
 43
0.0
 43
0.0
 43
0.0
 43
1.0
 43
0.0
 43
0.0
 43
0.0
 43
0.0
 43
1.0
 77
     0
 47
0.0208333333333333
 47
0.0
 47
0.0
 47
0.0
 47
0.0
 47
0.0208333333333333
 47
0.0
 47
0.0
 47
0.0
 47
0.0
 47
1.0
 47
0.0
 47
0.0
 47
0.0
 47
0.0
 47
1.0
171
     0
 49
0.0208333333333333
 49
0.0
 49
0.0
 49
0.0
 49
0.0
 49
0.0208333333333333
 49
0.0
 49
0.0
 49
0.0
 49
0.0
 49
1.0
 49
0.0
 49
0.0
 49
0.0
 49
0.0
 49
1.0
175
     0
142
0.0208333333333333
142
0.0
142
0.0
142
0.0
142
0.0
142
0.0208333333333333
142
0.0
142
0.0
142
0.0
142
0.0
142
1.0
142
0.0
142
0.0
142
0.0
142
0.0
142
1.0
179
     0
144
0.0208333333333333
144
0.0
144
0.0
144
0.0
144
0.0
144
0.0208333333333333
144
0.0
144
0.0
144
0.0
144
0.0
144
1.0
144
0.0
144
0.0
144
0.0
144
0.0
144
1.0
147
0.0208333333333333
147
0.0
147
0.0
147
0.0
147
0.0
147
0.0208333333333333
147
0.0
147
0.0
147
0.0
147
0.0
147
1.0
147
0.0
147
0.0
147
0.0
147
0.0
147
1.0
  0
MLEADERSTYLE
  5
27CD
102
{ACAD_REACTORS
330
27CC
102
}
330
27CC
100
AcDbMLeaderStyle
170
     2
171
     1
172
     0
 90
        2
 40
0.0
 41
0.0
173
     1
 91
-1056964608
340
27C1
 92
       -2
290
     1
 42
0.09
291
     1
 43
0.36
  3
Standard
 44
0.18
300

342
27BC
174
     1
178
     6
175
     1
176
     0
 93
-1056964608
 45
0.18
292
     0
297
     0
 46
0.18
 94
-1056964608
 47
1.0
 49
1.0
140
1.0
293
     1
141
0.0
294
     1
177
     0
142
1.0
295
     0
296
     0
143
0.125
1001
ACAD_MLEADERVER
1070
     2
  0
MLINESTYLE
  5
27C6
102
{ACAD_REACTORS
330
27C5
102
}
330
27C5
100
AcDbMlineStyle
  2
STANDARD
 70
     0
  3

 62
   256
 51
90.0
 52
90.0
 71
     2
 49
0.5
 62
   256
  6
BYLAYER
 49
-0.5
 62
   256
  6
BYLAYER
  0
ACDBPLACEHOLDER
  5
276E
102
{ACAD_REACTORS
330
276D
102
}
330
276D
  0
SCALE
  5
279A
102
{ACAD_REACTORS
330
2799
102
}
330
2799
100
AcDbScale
 70
     0
300
1:1
140
1.0
141
1.0
290
     1
  0
SCALE
  5
279B
102
{ACAD_REACTORS
330
2799
102
}
330
2799
100
AcDbScale
 70
     0
300
1:2
140
1.0
141
2.0
290
     0
  0
SCALE
  5
279C
102
{ACAD_REACTORS
330
2799
102
}
330
2799
100
AcDbScale
 70
     0
300
1:4
140
1.0
141
4.0
290
     0
  0
SCALE
  5
279D
102
{ACAD_REACTORS
330
2799
102
}
330
2799
100
AcDbScale
 70
     0
300
1:5
140
1.0
141
5.0
290
     0
  0
SCALE
  5
279E
102
{ACAD_REACTORS
330
2799
102
}
330
2799
100
AcDbScale
 70
     0
300
1:8
140
1.0
141
8.0
290
     0
  0
SCALE
  5
279F
102
{ACAD_REACTORS
330
2799
102
}
330
2799
100
AcDbScale
 70
     0
300
1:10
140
1.0
141
10.0
290
     0
  0
SCALE
  5
27A0
102
{ACAD_REACTORS
330
2799
102
}
330
2799
100
AcDbScale
 70
     0
300
1:16
140
1.0
141
16.0
290
     0
  0
SCALE
  5
27A1
102
{ACAD_REACTORS
330
2799
102
}
330
2799
100
AcDbScale
 70
     0
300
1:20
140
1.0
141
20.0
290
     0
  0
SCALE
  5
27A2
102
{ACAD_REACTORS
330
2799
102
}
330
2799
100
AcDbScale
 70
     0
300
1:30
140
1.0
141
30.0
290
     0
  0
SCALE
  5
27A3
102
{ACAD_REACTORS
330
2799
102
}
330
2799
100
AcDbScale
 70
     0
300
1:40
140
1.0
141
40.0
290
     0
  0
SCALE
  5
27A4
102
{ACAD_REACTORS
330
2799
102
}
330
2799
100
AcDbScale
 70
     0
300
1:50
140
1.0
141
50.0
290
     0
  0
SCALE
  5
27A5
102
{ACAD_REACTORS
330
2799
102
}
330
2799
100
AcDbScale
 70
     0
300
1:100
140
1.0
141
100.0
290
     0
  0
SCALE
  5
27A6
102
{ACAD_REACTORS
330
2799
102
}
330
2799
100
AcDbScale
 70
     0
300
2:1
140
2.0
141
1.0
290
     0
  0
SCALE
  5
27A7
102
{ACAD_REACTORS
330
2799
102
}
330
2799
100
AcDbScale
 70
     0
300
4:1
140
4.0
141
1.0
290
     0
  0
SCALE
  5
27A8
102
{ACAD_REACTORS
330
2799
102
}
330
2799
100
AcDbScale
 70
     0
300
8:1
140
8.0
141
1.0
290
     0
  0
SCALE
  5
27A9
102
{ACAD_REACTORS
330
2799
102
}
330
2799
100
AcDbScale
 70
     0
300
10:1
140
10.0
141
1.0
290
     0
  0
SCALE
  5
27AA
102
{ACAD_REACTORS
330
2799
102
}
330
2799
100
AcDbScale
 70
     0
300
100:1
140
100.0
141
1.0
290
     0
  0
SCALE
  5
27AB
102
{ACAD_REACTORS
330
2799
102
}
330
2799
100
AcDbScale
 70
     0
300
1/128" = 1'-0"
140
0.0078125
141
12.0
290
     0
  0
SCALE
  5
27AC
102
{ACAD_REACTORS
330
2799
102
}
330
2799
100
AcDbScale
 70
     0
300
1/64" = 1'-0"
140
0.015625
141
12.0
290
     0
  0
SCALE
  5
27AD
102
{ACAD_REACTORS
330
2799
102
}
330
2799
100
AcDbScale
 70
     0
300
1/32" = 1'-0"
140
0.03125
141
12.0
290
     0
  0
SCALE
  5
27AE
102
{ACAD_REACTORS
330
2799
102
}
330
2799
100
AcDbScale
 70
     0
300
1/16" = 1'-0"
140
0.0625
141
12.0
290
     0
  0
SCALE
  5
27AF
102
{ACAD_REACTORS
330
2799
102
}
330
2799
100
AcDbScale
 70
     0
300
3/32" = 1'-0"
140
0.09375
141
12.0
290
     0
  0
SCALE
  5
27B0
102
{ACAD_REACTORS
330
2799
102
}
330
2799
100
AcDbScale
 70
     0
300
1/8" = 1'-0"
140
0.125
141
12.0
290
     0
  0
SCALE
  5
27B1
102
{ACAD_REACTORS
330
2799
102
}
330
2799
100
AcDbScale
 70
     0
300
3/16" = 1'-0"
140
0.1875
141
12.0
290
     0
  0
SCALE
  5
27B2
102
{ACAD_REACTORS
330
2799
102
}
330
2799
100
AcDbScale
 70
     0
300
1/4" = 1'-0"
140
0.25
141
12.0
290
     0
  0
SCALE
  5
27B3
102
{ACAD_REACTORS
330
2799
102
}
330
2799
100
AcDbScale
 70
     0
300
3/8" = 1'-0"
140
0.375
141
12.0
290
     0
  0
SCALE
  5
27B4
102
{ACAD_REACTORS
330
2799
102
}
330
2799
100
AcDbScale
 70
     0
300
1/2" = 1'-0"
140
0.5
141
12.0
290
     0
  0
SCALE
  5
27B5
102
{ACAD_REACTORS
330
2799
102
}
330
2799
100
AcDbScale
 70
     0
300
3/4" = 1'-0"
140
0.75
141
12.0
290
     0
  0
SCALE
  5
27B6
102
{ACAD_REACTORS
330
2799
102
}
330
2799
100
AcDbScale
 70
     0
300
1" = 1'-0"
140
1.0
141
12.0
290
     0
  0
SCALE
  5
27B7
102
{ACAD_REACTORS
330
2799
102
}
330
2799
100
AcDbScale
 70
     0
300
1-1/2" = 1'-0"
140
1.5
141
12.0
290
     0
  0
SCALE
  5
27B8
102
{ACAD_REACTORS
330
2799
102
}
330
2799
100
AcDbScale
 70
     0
300
3" = 1'-0"
140
3.0
141
12.0
290
     0
  0
SCALE
  5
27B9
102
{ACAD_REACTORS
330
2799
102
}
330
2799
100
AcDbScale
 70
     0
300
6" = 1'-0"
140
6.0
141
12.0
290
     0
  0
SCALE
  5
27BA
102
{ACAD_REACTORS
330
2799
102
}
330
2799
100
AcDbScale
 70
     0
300
1'-0" = 1'-0"
140
12.0
141
12.0
290
     0
  0
TABLESTYLE
  5
27CB
102
{ACAD_XDICTIONARY
360
29C4
102
}
102
{ACAD_REACTORS
330
27CA
102
}
330
27CA
100
AcDbTableStyle
  3
Standard
 70
     0
 71
     0
 40
0.06
 41
0.06
280
     0
281
     0
  7
STANDARD
140
0.18
170
     2
 62
     0
 63
     7
283
     0
 90
      512
 91
        0
  1

274
    -2
284
     1
 64
     0
275
    -2
285
     1
 65
     0
276
    -2
286
     1
 66
     0
277
    -2
287
     1
 67
     0
278
    -2
288
     1
 68
     0
279
    -2
289
     1
 69
     0
  7
STANDARD
140
0.25
170
     5
 62
     0
 63
     7
283
     0
 90
      512
 91
        0
  1

274
    -2
284
     1
 64
     0
275
    -2
285
     1
 65
     0
276
    -2
286
     1
 66
     0
277
    -2
287
     1
 67
     0
278
    -2
288
     1
 68
     0
279
    -2
289
     1
 69
     0
  7
STANDARD
140
0.18
170
     5
 62
     0
 63
     7
283
     0
 90
      512
 91
        0
  1

274
    -2
284
     1
 64
     0
275
    -2
285
     1
 65
     0
276
    -2
286
     1
 66
     0
277
    -2
287
     1
 67
     0
278
    -2
288
     1
 68
     0
279
    -2
289
     1
 69
     0
  0
VISUALSTYLE
  5
278E
102
{ACAD_REACTORS
330
2788
102
}
330
2788
100
AcDbVisualStyle
  2
2dWireframe
 70
     4
 71
     0
 72
     2
 73
     0
 90
        0
 40
-0.6
 41
-30.0
 62
     5
 63
     7
 74
     1
 91
        4
 64
     7
 65
   257
 75
     1
175
     1
 42
1.0
 92
        0
 66
   257
 43
1.0
 76
     1
 77
     6
 78
     2
 67
     7
 79
     5
170
     0
171
     0
290
     0
174
     0
 93
        1
 44
0.0
173
     0
291
     0
 45
0.0
1001
ACAD
1000
AcDbSavedByObjectVersion
1070
     0
  0
VISUALSTYLE
  5
2790
102
{ACAD_REACTORS
330
2788
102
}
330
2788
100
AcDbVisualStyle
  2
3D Hidden
 70
     6
 71
     1
 72
     2
 73
     2
 90
        0
 40
-0.6
 41
-30.0
 62
     5
 63
     7
 74
     2
 91
        2
 64
     7
 65
   257
 75
     2
175
     1
 42
40.0
 92
        0
 66
   257
 43
1.0
 76
     1
 77
     6
 78
     2
 67
     7
 79
     3
170
     0
171
     0
290
     0
174
     0
 93
        1
 44
0.0
173
     0
291
     0
 45
0.0
1001
ACAD
1000
AcDbSavedByObjectVersion
1070
     0
  0
VISUALSTYLE
  5
278F
102
{ACAD_REACTORS
330
2788
102
}
330
2788
100
AcDbVisualStyle
  2
3dWireframe
 70
     5
 71
     0
 72
     2
 73
     0
 90
        0
 40
-0.6
 41
-30.0
 62
     5
 63
     7
 74
     1
 91
        4
 64
     7
 65
   257
 75
     1
175
     1
 42
1.0
 92
        0
 66
   257
 43
1.0
 76
     1
 77
     6
 78
     2
 67
     7
 79
     5
170
     0
171
     0
290
     0
174
     0
 93
        1
 44
0.0
173
     0
291
     0
 45
0.0
1001
ACAD
1000
AcDbSavedByObjectVersion
1070
     0
  0
VISUALSTYLE
  5
278D
102
{ACAD_REACTORS
330
2788
102
}
330
2788
100
AcDbVisualStyle
  2
Basic
 70
     7
 71
     1
 72
     0
 73
     1
 90
        0
 40
-0.6
 41
-30.0
 62
     5
 63
     7
 74
     0
 91
        4
 64
     7
 65
   257
 75
     1
175
     1
 42
1.0
 92
        8
 66
     7
 43
1.0
 76
     1
 77
     6
 78
     2
 67
     7
 79
     5
170
     0
171
     0
290
     0
174
     0
 93
        1
 44
0.0
173
     0
291
     1
 45
0.0
1001
ACAD
1000
AcDbSavedByObjectVersion
1070
     0
  0
VISUALSTYLE
  5
2794
102
{ACAD_REACTORS
330
2788
102
}
330
2788
100
AcDbVisualStyle
  2
Brighten
 70
    12
 71
     2
 72
     2
 73
     0
 90
        0
 40
-0.6
 41
-30.0
 62
     5
 63
     7
 74
     1
 91
        4
 64
     7
 65
   257
 75
     1
175
     1
 42
1.0
 92
        8
 66
     7
 43
1.0
 76
     1
 77
     6
 78
     2
 67
     7
 79
     5
170
     0
171
     0
290
     0
174
     0
 93
        1
 44
50.0
173
     0
291
     1
 45
0.0
1001
ACAD
1000
AcDbSavedByObjectVersion
1070
     0
  0
VISUALSTYLE
  5
2798
102
{ACAD_REACTORS
330
2788
102
}
330
2788
100
AcDbVisualStyle
  2
ColorChange
 70
    16
 71
     2
 72
     2
 73
     3
 90
        0
 40
-0.6
 41
-30.0
 62
     5
 63
     8
 74
     1
 91
        4
 64
     7
 65
   257
 75
     1
175
     1
 42
1.0
 92
        8
 66
     8
 43
1.0
 76
     1
 77
     6
 78
     2
 67
     7
 79
     5
170
     0
171
     0
290
     0
174
     0
 93
        1
 44
0.0
173
     0
291
     1
 45
0.0
1001
ACAD
1000
AcDbSavedByObjectVersion
1070
     0
  0
VISUALSTYLE
  5
2791
102
{ACAD_REACTORS
330
2788
102
}
330
2788
100
AcDbVisualStyle
  2
Conceptual
 70
     9
 71
     3
 72
     2
 73
     0
 90
        0
 40
-0.6
 41
-30.0
 62
     5
 63
     7
 74
     2
 91
        2
 64
     7
 65
   257
 75
     1
175
     1
 42
40.0
 92
        8
 66
     7
 43
1.0
 76
     1
 77
     6
 78
     2
 67
     7
 79
     3
170
     0
171
     0
290
     0
174
     0
 93
        1
 44
0.0
173
     0
291
     0
 45
0.0
1001
ACAD
1000
AcDbSavedByObjectVersion
1070
     0
  0
VISUALSTYLE
  5
2793
102
{ACAD_REACTORS
330
2788
102
}
330
2788
100
AcDbVisualStyle
  2
Dim
 70
    11
 71
     2
 72
     2
 73
     0
 90
        0
 40
-0.6
 41
-30.0
 62
     5
 63
     7
 74
     1
 91
        4
 64
     7
 65
   257
 75
     1
175
     1
 42
1.0
 92
        8
 66
     7
 43
1.0
 76
     1
 77
     6
 78
     2
 67
     7
 79
     5
170
     0
171
     0
290
     0
174
     0
 93
        1
 44
-50.0
173
     0
291
     1
 45
0.0
1001
ACAD
1000
AcDbSavedByObjectVersion
1070
     0
  0
VISUALSTYLE
  5
2797
102
{ACAD_REACTORS
330
2788
102
}
330
2788
100
AcDbVisualStyle
  2
Facepattern
 70
    15
 71
     2
 72
     2
 73
     0
 90
        0
 40
-0.6
 41
-30.0
 62
     5
 63
     7
 74
     1
 91
        4
 64
     7
 65
   257
 75
     1
175
     1
 42
1.0
 92
        8
 66
     7
 43
1.0
 76
     1
 77
     6
 78
     2
 67
     7
 79
     5
170
     0
171
     0
290
     0
174
     0
 93
        1
 44
0.0
173
     0
291
     1
 45
0.0
1001
ACAD
1000
AcDbSavedByObjectVersion
1070
     0
  0
VISUALSTYLE
  5
2789
102
{ACAD_REACTORS
330
2788
102
}
330
2788
100
AcDbVisualStyle
  2
Flat
 70
     0
 71
     2
 72
     1
 73
     1
 90
        2
 40
-0.6
 41
30.0
 62
     5
 63
     7
 74
     0
 91
        4
 64
     7
 65
   257
 75
     1
175
     1
 42
1.0
 92
        8
 66
     7
 43
1.0
 76
     1
 77
     6
 78
     2
 67
     7
 79
     5
170
     0
171
     0
290
     0
174
     0
 93
       13
 44
0.0
173
     0
291
     1
 45
0.0
1001
ACAD
1000
AcDbSavedByObjectVersion
1070
     0
  0
VISUALSTYLE
  5
278A
102
{ACAD_REACTORS
330
2788
102
}
330
2788
100
AcDbVisualStyle
  2
FlatWithEdges
 70
     1
 71
     2
 72
     1
 73
     1
 90
        2
 40
-0.6
 41
30.0
 62
     5
 63
     7
 74
     1
 91
        4
 64
     7
 65
   257
 75
     1
175
     1
 42
1.0
 92
        0
 66
   257
 43
1.0
 76
     1
 77
     6
 78
     2
 67
     7
 79
     5
170
     0
171
     0
290
     0
174
     0
 93
       13
 44
0.0
173
     0
291
     1
 45
0.0
1001
ACAD
1000
AcDbSavedByObjectVersion
1070
     0
  0
VISUALSTYLE
  5
278B
102
{ACAD_REACTORS
330
2788
102
}
330
2788
100
AcDbVisualStyle
  2
Gouraud
 70
     2
 71
     2
 72
     2
 73
     1
 90
        2
 40
-0.6
 41
30.0
 62
     5
 63
     7
 74
     0
 91
        4
 64
     7
 65
   257
 75
     1
175
     1
 42
1.0
 92
        0
 66
     7
 43
1.0
 76
     1
 77
     6
 78
     2
 67
     7
 79
     5
170
     0
171
     0
290
     0
174
     0
 93
       13
 44
0.0
173
     0
291
     1
 45
0.0
1001
ACAD
1000
AcDbSavedByObjectVersion
1070
     0
  0
VISUALSTYLE
  5
278C
102
{ACAD_REACTORS
330
2788
102
}
330
2788
100
AcDbVisualStyle
  2
GouraudWithEdges
 70
     3
 71
     2
 72
     2
 73
     1
 90
        2
 40
-0.6
 41
30.0
 62
     5
 63
     7
 74
     1
 91
        4
 64
     7
 65
   257
 75
     1
175
     1
 42
1.0
 92
        0
 66
   257
 43
1.0
 76
     1
 77
     6
 78
     2
 67
     7
 79
     5
170
     0
171
     0
290
     0
174
     0
 93
       13
 44
0.0
173
     0
291
     1
 45
0.0
1001
ACAD
1000
AcDbSavedByObjectVersion
1070
     0
  0
VISUALSTYLE
  5
2796
102
{ACAD_REACTORS
330
2788
102
}
330
2788
100
AcDbVisualStyle
  2
Linepattern
 70
    14
 71
     2
 72
     2
 73
     0
 90
        0
 40
-0.6
 41
-30.0
 62
     5
 63
     7
 74
     1
 91
        4
 64
     7
 65
   257
 75
     7
175
     7
 42
1.0
 92
        8
 66
     7
 43
1.0
 76
     1
 77
     6
 78
     2
 67
     7
 79
     5
170
     0
171
     0
290
     0
174
     0
 93
        1
 44
0.0
173
     0
291
     1
 45
0.0
1001
ACAD
1000
AcDbSavedByObjectVersion
1070
     0
  0
VISUALSTYLE
  5
2792
102
{ACAD_REACTORS
330
2788
102
}
330
2788
100
AcDbVisualStyle
  2
Realistic
 70
     8
 71
     2
 72
     2
 73
     0
 90
        0
 40
-0.6
 41
-30.0
 62
     5
 63
     7
 74
     1
 91
        0
 64
     7
 65
   257
 75
     1
175
     1
 42
1.0
 92
        8
 66
     8
 43
1.0
 76
     1
 77
     6
 78
     2
 67
     7
 79
     5
170
     0
171
     0
290
     0
174
     0
 93
       13
 44
0.0
173
     0
291
     0
 45
0.0
1001
ACAD
1000
AcDbSavedByObjectVersion
1070
     0
  0
VISUALSTYLE
  5
2795
102
{ACAD_REACTORS
330
2788
102
}
330
2788
100
AcDbVisualStyle
  2
Thicken
 70
    13
 71
     2
 72
     2
 73
     0
 90
        0
 40
-0.6
 41
-30.0
 62
     5
 63
     7
 74
     1
 91
        4
 64
     7
 65
   257
 75
     1
175
     1
 42
1.0
 92
       12
 66
     7
 43
1.0
 76
     1
 77
     6
 78
     2
 67
     7
 79
     5
170
     0
171
     0
290
     0
174
     0
 93
        1
 44
0.0
173
     0
291
     1
 45
0.0
1001
ACAD
1000
AcDbSavedByObjectVersion
1070
     0
  0
DICTIONARYVAR
  5
29C0
102
{ACAD_REACTORS
330
29BD
102
}
330
29BD
100
DictionaryVariables
280
     0
  1
1:1
  0
DICTIONARYVAR
  5
29BF
102
{ACAD_REACTORS
330
29BD
102
}
330
29BD
100
DictionaryVariables
280
     0
  1
STANDARD
  0
DICTIONARYVAR
  5
29BE
102
{ACAD_REACTORS
330
29BD
102
}
330
29BD
100
DictionaryVariables
280
     0
  1
STANDARD
  0
DICTIONARYVAR
  5
29C3
102
{ACAD_REACTORS
330
29BD
102
}
330
29BD
100
DictionaryVariables
280
     0
  1
1
  0
DICTIONARYVAR
  5
29C2
102
{ACAD_REACTORS
330
29BD
102
}
330
29BD
100
DictionaryVariables
280
     0
  1
1
  0
DICTIONARYVAR
  5
2D12
102
{ACAD_REACTORS
330
29BD
102
}
330
29BD
100
DictionaryVariables
280
     0
  1
1
  0
DICTIONARYVAR
  5
2D13
102
{ACAD_REACTORS
330
29BD
102
}
330
29BD
100
DictionaryVariables
280
     0
  1
15
  0
DICTIONARYVAR
  5
2D11
102
{ACAD_REACTORS
330
29BD
102
}
330
29BD
100
DictionaryVariables
280
     0
  1
0
  0
DICTIONARYVAR
  5
2D10
102
{ACAD_REACTORS
330
29BD
102
}
330
29BD
100
DictionaryVariables
280
     0
  1
0
  0
DICTIONARYVAR
  5
29C1
102
{ACAD_REACTORS
330
29BD
102
}
330
29BD
100
DictionaryVariables
280
     0
  1
127
  0
DICTIONARY
  5
2977
102
{ACAD_REACTORS
330
2969
102
}
330
2969
100
AcDbDictionary
281
     1
  0
DICTIONARY
  5
28B7
102
{ACAD_REACTORS
330
28B6
102
}
330
28B6
100
AcDbDictionary
281
     1
  3
DWGSETTINGS
350
29E2
  3
TRANSSETTINGS
350
29E3
  0
ACAMGFILTERDAT
  5
2996
102
{ACAD_REACTORS
330
2991
102
}
330
2991
100
AcAmgFilterDat
 70
    15
  1
DIMENSION,AMDT_*_DIM
  2
*
  3
*
  4
*
  5
*
290
     1
  0
ACAMGFILTERDAT
  5
2995
102
{ACAD_REACTORS
330
2991
102
}
330
2991
100
AcAmgFilterDat
 70
    15
  1
*
  2
AM_FEA-AM_*
  3
*
  4
*
  5
*
290
     1
  0
ACAMGFILTERDAT
  5
2992
102
{ACAD_REACTORS
330
2991
102
}
330
2991
100
AcAmgFilterDat
 70
    15
  1
HATCH
  2
*
  3
*
  4
*
  5
*
290
     1
  0
ACAMGFILTERDAT
  5
2993
102
{ACAD_REACTORS
330
2991
102
}
330
2991
100
AcAmgFilterDat
 70
    15
  1
LINE
  2
8,8N,*-8,*-8N,AM_8,AM_8N,*-AM_8,*-AM_8N
  3
*
  4
*
  5
INSERT,STDPART2D
290
     1
  0
ACAMGFILTERDAT
  5
2997
102
{ACAD_REACTORS
330
2991
102
}
330
2991
100
AcAmgFilterDat
 70
    15
  1
ARC
  2
AM_5
  3
*
  4
2
  5
INSERT
290
     0
  0
ACAMGFILTERDAT
  5
2994
102
{ACAD_REACTORS
330
2991
102
}
330
2991
100
AcAmgFilterDat
 70
    15
  1
ACMFCFRAME,ACMDATUMTARGET,ACMDATUMID,ACMWELDSYM,ACMSURFSYM,ACMFEATID,ACMPARTREF,ACMBALLOON,AMDTEDGESYM,AMGSCREWCALCTABLE,ACMMARKSTAMP
  2
*
  3
*
  4
*
  5
*
290
     1
  0
LAYER_INDEX
  5
29B0
102
{ACAD_REACTORS
330
29AF
102
}
330
29AF
100
AcDbIndex
 40
2457470.433269213
100
AcDbLayerIndex
  8
0
360
29B1
 90
        0
  8
OUTLINE
360
29B2
 90
       24
  8
SIZE
360
29B3
 90
       40
  8
BASIS
360
29B4
 90
        1
  8
DETAIL
360
29B5
 90
      224
  8
ARRANGE
360
29B6
 90
        2
  8
DEFPOINTS
360
29B7
 90
        0
  8
ETC
360
29B8
 90
        3
  8
FIX
360
29B9
 90
        0
  8
NOTE
360
29BA
 90
        7
  8
SERVICESPACE
360
29BB
 90
        0
  8
SYMBOLLINE
360
29BC
 90
        0
  0
DICTIONARY
  5
2779
330
2778
100
AcDbDictionary
280
     1
281
     1
  3
ACAD_XREC_ROUNDTRIP
360
29CE
  3
BUMPTILE
360
277B
  3
DIFFUSETILE
360
277A
  3
OPACITYTILE
360
277E
  3
REFLECTIONTILE
360
277D
  3
REFRACTIONTILE
360
277F
  3
SPECULARTILE
360
277C
  0
DICTIONARY
  5
2771
330
2770
100
AcDbDictionary
280
     1
281
     1
  3
ACAD_XREC_ROUNDTRIP
360
29CD
  3
BUMPTILE
360
2773
  3
DIFFUSETILE
360
2772
  3
OPACITYTILE
360
2776
  3
REFLECTIONTILE
360
2775
  3
REFRACTIONTILE
360
2777
  3
SPECULARTILE
360
2774
  0
DICTIONARY
  5
2781
330
2780
100
AcDbDictionary
280
     1
281
     1
  3
ACAD_XREC_ROUNDTRIP
360
29CF
  3
BUMPTILE
360
2783
  3
DIFFUSETILE
360
2782
  3
OPACITYTILE
360
2786
  3
REFLECTIONTILE
360
2785
  3
REFRACTIONTILE
360
2787
  3
SPECULARTILE
360
2784
  0
DICTIONARY
  5
29C4
330
27CB
100
AcDbDictionary
280
     1
281
     1
  3
ACAD_ROUNDTRIP_2008_TABLESTYLE_CELLSTYLEMAP
360
2D14
  0
IDBUFFER
  5
29B1
330
0
100
AcDbIdBuffer
  0
IDBUFFER
  5
29B2
330
0
100
AcDbIdBuffer
330
953
330
954
330
955
330
956
330
957
330
958
330
2C32
330
2C33
330
2C34
330
2C35
330
2C36
330
2C37
330
2C38
330
2C39
330
2C3A
330
2C3B
330
2C3C
330
2C3D
330
2C3E
330
2C3F
330
2C40
330
2C41
330
2C42
330
2C45
  0
IDBUFFER
  5
29B3
330
0
100
AcDbIdBuffer
330
2C1E
330
2C1F
330
2BF2
330
2BF3
330
2BF4
330
2BF5
330
2BF6
330
2BF7
330
2BF9
330
2BFA
330
2BFB
330
2BFC
330
2BFD
330
2BFE
330
2BFF
330
2C00
330
2C01
330
2C02
330
2C03
330
2C04
330
2C0A
330
2C0B
330
2C0C
330
2C0D
330
2C0E
330
2C0F
330
2C10
330
2C11
330
2C12
330
2C13
330
2C14
330
2C15
330
2C16
330
2C17
330
2C18
330
2C19
330
2C1A
330
2C1B
330
2C1C
330
2C1D
  0
IDBUFFER
  5
29B4
330
0
100
AcDbIdBuffer
330
2BF8
  0
IDBUFFER
  5
29B5
330
0
100
AcDbIdBuffer
330
2CF4
330
2CF5
330
2CF6
330
2CF7
330
2CF8
330
2CF9
330
2CFA
330
2CFB
330
2CFC
330
2CFD
330
2CFE
330
2CFF
330
2D00
330
2D01
330
2D02
330
2D03
330
2D04
330
2D05
330
2D06
330
2D07
330
2D08
330
2D09
330
2D0A
330
2D0B
330
2D0C
330
2D0D
330
2D0E
330
2D0F
330
2BF0
330
2BF1
330
2C05
330
2C09
330
2C20
330
2C21
330
2C22
330
2C23
330
2C24
330
2C25
330
2C26
330
2C27
330
2C28
330
2C29
330
2C2A
330
2C2B
330
2C2C
330
2C2D
330
2C2E
330
2C2F
330
2C30
330
2C31
330
2C46
330
2C47
330
2C48
330
2C49
330
2C4A
330
2C4B
330
2C4C
330
2C4D
330
2C4E
330
2C4F
330
2C50
330
2C51
330
2C52
330
2C53
330
2C54
330
2C55
330
2C56
330
2C57
330
2C58
330
2C59
330
2C5A
330
2C5B
330
2C5C
330
2C5D
330
2C5E
330
2C5F
330
2C60
330
2C61
330
2C62
330
2C63
330
2C64
330
2C65
330
2C66
330
2C67
330
2C68
330
2C69
330
2C6A
330
2C6B
330
2C6C
330
2C6D
330
2C6E
330
2C6F
330
2C70
330
2C71
330
2C72
330
2C73
330
2C74
330
2C75
330
2C76
330
2C77
330
2C78
330
2C79
330
2C7A
330
2C7B
330
2C7C
330
2C7D
330
2C7E
330
2C7F
330
2C80
330
2C81
330
2C82
330
2C83
330
2C84
330
2C85
330
2C86
330
2C87
330
2C88
330
2C89
330
2C8A
330
2C8B
330
2C8C
330
2C8D
330
2C8E
330
2C8F
330
2C90
330
2C91
330
2C92
330
2C93
330
2C94
330
2C95
330
2C96
330
2C97
330
2C98
330
2C99
330
2C9A
330
2C9B
330
2C9C
330
2C9D
330
2C9E
330
2C9F
330
2CA0
330
2CA1
330
2CA2
330
2CA3
330
2CA4
330
2CA5
330
2CA6
330
2CA7
330
2CA8
330
2CA9
330
2CAA
330
2CAB
330
2CAC
330
2CAD
330
2CAE
330
2CAF
330
2CB0
330
2CB1
330
2CB2
330
2CB3
330
2CB4
330
2CB5
330
2CB6
330
2CB7
330
2CB8
330
2CB9
330
2CBA
330
2CBB
330
2CBC
330
2CBD
330
2CBE
330
2CBF
330
2CC0
330
2CC1
330
2CC2
330
2CC3
330
2CC4
330
2CC5
330
2CC6
330
2CC7
330
2CC8
330
2CC9
330
2CCA
330
2CCB
330
2CCC
330
2CCD
330
2CCE
330
2CCF
330
2CD0
330
2CD1
330
2CD2
330
2CD3
330
2CD4
330
2CD5
330
2CD6
330
2CD7
330
2CD8
330
2CD9
330
2CDA
330
2CDB
330
2CDC
330
2CDD
330
2CDE
330
2CDF
330
2CE0
330
2CE1
330
2CE2
330
2CE3
330
2CE4
330
2CE5
330
2CE6
330
2CE7
330
2CE8
330
2CE9
330
2CEA
330
2CEB
330
2CEC
330
2CED
330
2CEE
330
2CEF
330
2CF0
330
2CF1
330
2CF2
330
2CF3
  0
IDBUFFER
  5
29B6
330
0
100
AcDbIdBuffer
330
2BEF
330
2C07
  0
IDBUFFER
  5
29B7
330
0
100
AcDbIdBuffer
  0
IDBUFFER
  5
29B8
330
0
100
AcDbIdBuffer
330
2BEC
330
2BED
330
2BEE
  0
IDBUFFER
  5
29B9
330
0
100
AcDbIdBuffer
  0
IDBUFFER
  5
29BA
330
0
100
AcDbIdBuffer
330
2C08
330
2C43
330
2C44
330
2BE9
330
2BEA
330
2BEB
330
2C06
  0
IDBUFFER
  5
29BB
330
0
100
AcDbIdBuffer
  0
IDBUFFER
  5
29BC
330
0
100
AcDbIdBuffer
  0
XRECORD
  5
29CE
102
{ACAD_REACTORS
330
2779
102
}
330
2779
100
AcDbXrecord
280
     1
102
MATERIAL
148
0.0
149
0.0
149
0.0
 93
        0
 94
      127
282
     0
 72
     0
 77
     0
171
     0
175
     0
179
     0
273
     0
  0
XRECORD
  5
277B
102
{ACAD_REACTORS
330
2779
102
}
330
2779
100
AcDbXrecord
280
     1
270
     1
271
     1
  0
XRECORD
  5
277A
102
{ACAD_REACTORS
330
2779
102
}
330
2779
100
AcDbXrecord
280
     1
270
     1
271
     1
  0
XRECORD
  5
277E
102
{ACAD_REACTORS
330
2779
102
}
330
2779
100
AcDbXrecord
280
     1
270
     1
271
     1
  0
XRECORD
  5
277D
102
{ACAD_REACTORS
330
2779
102
}
330
2779
100
AcDbXrecord
280
     1
270
     1
271
     1
  0
XRECORD
  5
277F
102
{ACAD_REACTORS
330
2779
102
}
330
2779
100
AcDbXrecord
280
     1
270
     1
271
     1
  0
XRECORD
  5
277C
102
{ACAD_REACTORS
330
2779
102
}
330
2779
100
AcDbXrecord
280
     1
270
     1
271
     1
  0
XRECORD
  5
29CD
102
{ACAD_REACTORS
330
2771
102
}
330
2771
100
AcDbXrecord
280
     1
102
MATERIAL
148
0.0
149
0.0
149
0.0
 93
        0
 94
      127
282
     0
 72
     0
 77
     0
171
     0
175
     0
179
     0
273
     0
  0
XRECORD
  5
2773
102
{ACAD_REACTORS
330
2771
102
}
330
2771
100
AcDbXrecord
280
     1
270
     1
271
     1
  0
XRECORD
  5
2772
102
{ACAD_REACTORS
330
2771
102
}
330
2771
100
AcDbXrecord
280
     1
270
     1
271
     1
  0
XRECORD
  5
2776
102
{ACAD_REACTORS
330
2771
102
}
330
2771
100
AcDbXrecord
280
     1
270
     1
271
     1
  0
XRECORD
  5
2775
102
{ACAD_REACTORS
330
2771
102
}
330
2771
100
AcDbXrecord
280
     1
270
     1
271
     1
  0
XRECORD
  5
2777
102
{ACAD_REACTORS
330
2771
102
}
330
2771
100
AcDbXrecord
280
     1
270
     1
271
     1
  0
XRECORD
  5
2774
102
{ACAD_REACTORS
330
2771
102
}
330
2771
100
AcDbXrecord
280
     1
270
     1
271
     1
  0
XRECORD
  5
29CF
102
{ACAD_REACTORS
330
2781
102
}
330
2781
100
AcDbXrecord
280
     1
102
MATERIAL
148
0.0
149
0.0
149
0.0
 93
        0
 94
      127
282
     0
 72
     0
 77
     0
171
     0
175
     0
179
     0
273
     0
  0
XRECORD
  5
2783
102
{ACAD_REACTORS
330
2781
102
}
330
2781
100
AcDbXrecord
280
     1
270
     1
271
     1
  0
XRECORD
  5
2782
102
{ACAD_REACTORS
330
2781
102
}
330
2781
100
AcDbXrecord
280
     1
270
     1
271
     1
  0
XRECORD
  5
2786
102
{ACAD_REACTORS
330
2781
102
}
330
2781
100
AcDbXrecord
280
     1
270
     1
271
     1
  0
XRECORD
  5
2785
102
{ACAD_REACTORS
330
2781
102
}
330
2781
100
AcDbXrecord
280
     1
270
     1
271
     1
  0
XRECORD
  5
2787
102
{ACAD_REACTORS
330
2781
102
}
330
2781
100
AcDbXrecord
280
     1
270
     1
271
     1
  0
XRECORD
  5
2784
102
{ACAD_REACTORS
330
2781
102
}
330
2781
100
AcDbXrecord
280
     1
270
     1
271
     1
  0
CELLSTYLEMAP
  5
2D14
102
{ACAD_REACTORS
330
29C4
102
}
330
29C4
100
AcDbCellStyleMap
 90
        3
300
CELLSTYLE
  1
TABLEFORMAT_BEGIN
 90
        5
170
     1
 91
        0
 92
    32768
 62
   257
 93
        1
300
CONTENTFORMAT
  1
CONTENTFORMAT_BEGIN
 90
        0
 91
        0
 92
      512
 93
        0
300

 40
0.0
140
1.0
 94
        5
 62
     0
340
27BC
144
0.25
309
CONTENTFORMAT_END
171
     1
301
MARGIN
  1
CELLMARGIN_BEGIN
 40
0.06
 40
0.06
 40
0.06
 40
0.06
 40
0.18
 40
0.18
309
CELLMARGIN_END
 94
        6
 95
        1
302
GRIDFORMAT
  1
GRIDFORMAT_BEGIN
 90
        0
 91
        1
 62
     0
 92
       -2
340
0
 93
        0
 40
0.045
309
GRIDFORMAT_END
 95
        2
302
GRIDFORMAT
  1
GRIDFORMAT_BEGIN
 90
        0
 91
        1
 62
     0
 92
       -2
340
0
 93
        0
 40
0.045
309
GRIDFORMAT_END
 95
        4
302
GRIDFORMAT
  1
GRIDFORMAT_BEGIN
 90
        0
 91
        1
 62
     0
 92
       -2
340
0
 93
        0
 40
0.045
309
GRIDFORMAT_END
 95
        8
302
GRIDFORMAT
  1
GRIDFORMAT_BEGIN
 90
        0
 91
        1
 62
     0
 92
       -2
340
0
 93
        0
 40
0.045
309
GRIDFORMAT_END
 95
       16
302
GRIDFORMAT
  1
GRIDFORMAT_BEGIN
 90
        0
 91
        1
 62
     0
 92
       -2
340
0
 93
        0
 40
0.045
309
GRIDFORMAT_END
 95
       32
302
GRIDFORMAT
  1
GRIDFORMAT_BEGIN
 90
        0
 91
        1
 62
     0
 92
       -2
340
0
 93
        0
 40
0.045
309
GRIDFORMAT_END
309
TABLEFORMAT_END
  1
CELLSTYLE_BEGIN
 90
        1
 91
        1
300
_TITLE
309
CELLSTYLE_END
300
CELLSTYLE
  1
TABLEFORMAT_BEGIN
 90
        5
170
     1
 91
        0
 92
        0
 62
   257
 93
        1
300
CONTENTFORMAT
  1
CONTENTFORMAT_BEGIN
 90
        0
 91
        0
 92
      512
 93
        0
300

 40
0.0
140
1.0
 94
        5
 62
     0
340
27BC
144
0.18
309
CONTENTFORMAT_END
171
     1
301
MARGIN
  1
CELLMARGIN_BEGIN
 40
0.06
 40
0.06
 40
0.06
 40
0.06
 40
0.18
 40
0.18
309
CELLMARGIN_END
 94
        6
 95
        1
302
GRIDFORMAT
  1
GRIDFORMAT_BEGIN
 90
        0
 91
        1
 62
     0
 92
       -2
340
0
 93
        0
 40
0.045
309
GRIDFORMAT_END
 95
        2
302
GRIDFORMAT
  1
GRIDFORMAT_BEGIN
 90
        0
 91
        1
 62
     0
 92
       -2
340
0
 93
        0
 40
0.045
309
GRIDFORMAT_END
 95
        4
302
GRIDFORMAT
  1
GRIDFORMAT_BEGIN
 90
        0
 91
        1
 62
     0
 92
       -2
340
0
 93
        0
 40
0.045
309
GRIDFORMAT_END
 95
        8
302
GRIDFORMAT
  1
GRIDFORMAT_BEGIN
 90
        0
 91
        1
 62
     0
 92
       -2
340
0
 93
        0
 40
0.045
309
GRIDFORMAT_END
 95
       16
302
GRIDFORMAT
  1
GRIDFORMAT_BEGIN
 90
        0
 91
        1
 62
     0
 92
       -2
340
0
 93
        0
 40
0.045
309
GRIDFORMAT_END
 95
       32
302
GRIDFORMAT
  1
GRIDFORMAT_BEGIN
 90
        0
 91
        1
 62
     0
 92
       -2
340
0
 93
        0
 40
0.045
309
GRIDFORMAT_END
309
TABLEFORMAT_END
  1
CELLSTYLE_BEGIN
 90
        2
 91
        1
300
_HEADER
309
CELLSTYLE_END
300
CELLSTYLE
  1
TABLEFORMAT_BEGIN
 90
        5
170
     1
 91
        0
 92
        0
 62
   257
 93
        1
300
CONTENTFORMAT
  1
CONTENTFORMAT_BEGIN
 90
        0
 91
        0
 92
      512
 93
        0
300

 40
0.0
140
1.0
 94
        2
 62
     0
340
27BC
144
0.18
309
CONTENTFORMAT_END
171
     1
301
MARGIN
  1
CELLMARGIN_BEGIN
 40
0.06
 40
0.06
 40
0.06
 40
0.06
 40
0.18
 40
0.18
309
CELLMARGIN_END
 94
        6
 95
        1
302
GRIDFORMAT
  1
GRIDFORMAT_BEGIN
 90
        0
 91
        1
 62
     0
 92
       -2
340
0
 93
        0
 40
0.045
309
GRIDFORMAT_END
 95
        2
302
GRIDFORMAT
  1
GRIDFORMAT_BEGIN
 90
        0
 91
        1
 62
     0
 92
       -2
340
0
 93
        0
 40
0.045
309
GRIDFORMAT_END
 95
        4
302
GRIDFORMAT
  1
GRIDFORMAT_BEGIN
 90
        0
 91
        1
 62
     0
 92
       -2
340
0
 93
        0
 40
0.045
309
GRIDFORMAT_END
 95
        8
302
GRIDFORMAT
  1
GRIDFORMAT_BEGIN
 90
        0
 91
        1
 62
     0
 92
       -2
340
0
 93
        0
 40
0.045
309
GRIDFORMAT_END
 95
       16
302
GRIDFORMAT
  1
GRIDFORMAT_BEGIN
 90
        0
 91
        1
 62
     0
 92
       -2
340
0
 93
        0
 40
0.045
309
GRIDFORMAT_END
 95
       32
302
GRIDFORMAT
  1
GRIDFORMAT_BEGIN
 90
        0
 91
        1
 62
     0
 92
       -2
340
0
 93
        0
 40
0.045
309
GRIDFORMAT_END
309
TABLEFORMAT_END
  1
CELLSTYLE_BEGIN
 90
        3
 91
        2
300
_DATA
309
CELLSTYLE_END
  0
ENDSEC
  0
EOF
