  0
SECTION
  2
HEADER
  9
$ACADVER
  1
AC1015
  9
$ACADMAINTVER
 70
    20
  9
$DWGCODEPAGE
  3
ANSI_932
  9
$INSBASE
 10
0.0
 20
0.0
 30
0.0
  9
$EXTMIN
 10
-773.7093999922578
 20
-517.3506780283527
 30
0.0
  9
$EXTMAX
 10
964.6262574630735
 20
546.6011280492852
 30
50.0
  9
$LIMMIN
 10
-2970.0
 20
-2100.0
  9
$LIMMAX
 10
2970.0
 20
2100.0
  9
$ORTHOMODE
 70
     1
  9
$REGENMODE
 70
     0
  9
$FILLMODE
 70
     1
  9
$QTEXTMODE
 70
     0
  9
$MIRRTEXT
 70
     0
  9
$LTSCALE
 40
20.0
  9
$ATTMODE
 70
     1
  9
$TEXTSIZE
 40
64.0
  9
$TRACEWID
 40
0.05
  9
$TEXTSTYLE
  7
STANDARD
  9
$CLAYER
  8
0
  9
$CELTYPE
  6
ByLayer
  9
$CECOLOR
 62
   256
  9
$CELTSCALE
 40
1.0
  9
$DISPSILH
 70
     0
  9
$DIMSCALE
 40
1.0
  9
$DIMASZ
 40
0.12
  9
$DIMEXO
 40
0.05
  9
$DIMDLI
 40
0.5
  9
$DIMRND
 40
0.0
  9
$DIMDLE
 40
0.0
  9
$DIMEXE
 40
0.1
  9
$DIMTP
 40
0.1
  9
$DIMTM
 40
0.1
  9
$DIMTXT
 40
0.12
  9
$DIMCEN
 40
0.0
  9
$DIMTSZ
 40
0.0
  9
$DIMTOL
 70
     0
  9
$DIMLIM
 70
     0
  9
$DIMTIH
 70
     1
  9
$DIMTOH
 70
     1
  9
$DIMSE1
 70
     0
  9
$DIMSE2
 70
     0
  9
$DIMTAD
 70
     0
  9
$DIMZIN
 70
     7
  9
$DIMBLK
  1

  9
$DIMASO
 70
     1
  9
$DIMSHO
 70
     0
  9
$DIMPOST
  1

  9
$DIMAPOST
  1
mm
  9
$DIMALT
 70
     0
  9
$DIMALTD
 70
     2
  9
$DIMALTF
 40
25.4
  9
$DIMLFAC
 40
1.0
  9
$DIMTOFL
 70
     0
  9
$DIMTVP
 40
0.0
  9
$DIMTIX
 70
     0
  9
$DIMSOXD
 70
     0
  9
$DIMSAH
 70
     0
  9
$DIMBLK1
  1

  9
$DIMBLK2
  1

  9
$DIMSTYLE
  2
AM_ANSI
  9
$DIMCLRD
 70
   256
  9
$DIMCLRE
 70
   256
  9
$DIMCLRT
 70
     2
  9
$DIMTFAC
 40
0.71
  9
$DIMGAP
 40
0.06
  9
$DIMJUST
 70
     0
  9
$DIMSD1
 70
     0
  9
$DIMSD2
 70
     0
  9
$DIMTOLJ
 70
     1
  9
$DIMTZIN
 70
     7
  9
$DIMALTZ
 70
     0
  9
$DIMALTTZ
 70
     0
  9
$DIMUPT
 70
     0
  9
$DIMDEC
 70
     4
  9
$DIMTDEC
 70
     4
  9
$DIMALTU
 70
     2
  9
$DIMALTTD
 70
     4
  9
$DIMTXSTY
  7
STANDARD
  9
$DIMAUNIT
 70
     0
  9
$DIMADEC
 70
     0
  9
$DIMALTRND
 40
0.0
  9
$DIMAZIN
 70
     2
  9
$DIMDSEP
 70
    46
  9
$DIMATFIT
 70
     3
  9
$DIMFRAC
 70
     0
  9
$DIMLDRBLK
  1

  9
$DIMLUNIT
 70
     2
  9
$DIMLWD
 70
    -1
  9
$DIMLWE
 70
    -1
  9
$DIMTMOVE
 70
     0
  9
$LUNITS
 70
     2
  9
$LUPREC
 70
     4
  9
$SKETCHINC
 40
0.1
  9
$FILLETRAD
 40
4.0
  9
$AUNITS
 70
     1
  9
$AUPREC
 70
     3
  9
$MENU
  1
ACAD
  9
$ELEVATION
 40
0.0
  9
$PELEVATION
 40
0.0
  9
$THICKNESS
 40
50.0
  9
$LIMCHECK
 70
     0
  9
$CHAMFERA
 40
0.0
  9
$CHAMFERB
 40
0.0
  9
$CHAMFERC
 40
0.0
  9
$CHAMFERD
 40
0.0
  9
$SKPOLY
 70
     0
  9
$TDCREATE
 40
2452321.396199653
  9
$TDUCREATE
 40
2452321.021199653
  9
$TDUPDATE
 40
2456211.597066597
  9
$TDUUPDATE
 40
2456211.222066597
  9
$TDINDWG
 40
1.0410972917
  9
$TDUSRTIMER
 40
1.0410917014
  9
$USRTIMER
 70
     1
  9
$ANGBASE
 50
0.0
  9
$ANGDIR
 70
     0
  9
$PDMODE
 70
     3
  9
$PDSIZE
 40
-2.0
  9
$PLINEWID
 40
0.0
  9
$SPLFRAME
 70
     0
  9
$SPLINETYPE
 70
     6
  9
$SPLINESEGS
 70
     8
  9
$HANDSEED
  5
29F9
  9
$SURFTAB1
 70
     6
  9
$SURFTAB2
 70
     6
  9
$SURFTYPE
 70
     6
  9
$SURFU
 70
     6
  9
$SURFV
 70
     6
  9
$UCSBASE
  2

  9
$UCSNAME
  2

  9
$UCSORG
 10
0.0
 20
0.0
 30
0.0
  9
$UCSXDIR
 10
1.0
 20
0.0
 30
0.0
  9
$UCSYDIR
 10
0.0
 20
1.0
 30
0.0
  9
$UCSORTHOREF
  2

  9
$UCSORTHOVIEW
 70
     0
  9
$UCSORGTOP
 10
0.0
 20
0.0
 30
0.0
  9
$UCSORGBOTTOM
 10
0.0
 20
0.0
 30
0.0
  9
$UCSORGLEFT
 10
0.0
 20
0.0
 30
0.0
  9
$UCSORGRIGHT
 10
0.0
 20
0.0
 30
0.0
  9
$UCSORGFRONT
 10
0.0
 20
0.0
 30
0.0
  9
$UCSORGBACK
 10
0.0
 20
0.0
 30
0.0
  9
$PUCSBASE
  2

  9
$PUCSNAME
  2

  9
$PUCSORG
 10
0.0
 20
0.0
 30
0.0
  9
$PUCSXDIR
 10
1.0
 20
0.0
 30
0.0
  9
$PUCSYDIR
 10
0.0
 20
1.0
 30
0.0
  9
$PUCSORTHOREF
  2

  9
$PUCSORTHOVIEW
 70
     0
  9
$PUCSORGTOP
 10
0.0
 20
0.0
 30
0.0
  9
$PUCSORGBOTTOM
 10
0.0
 20
0.0
 30
0.0
  9
$PUCSORGLEFT
 10
0.0
 20
0.0
 30
0.0
  9
$PUCSORGRIGHT
 10
0.0
 20
0.0
 30
0.0
  9
$PUCSORGFRONT
 10
0.0
 20
0.0
 30
0.0
  9
$PUCSORGBACK
 10
0.0
 20
0.0
 30
0.0
  9
$USERI1
 70
     0
  9
$USERI2
 70
     0
  9
$USERI3
 70
     0
  9
$USERI4
 70
     0
  9
$USERI5
 70
     0
  9
$USERR1
 40
20.0
  9
$USERR2
 40
0.0
  9
$USERR3
 40
0.0
  9
$USERR4
 40
0.0
  9
$USERR5
 40
0.0
  9
$WORLDVIEW
 70
     1
  9
$SHADEDGE
 70
     3
  9
$SHADEDIF
 70
    70
  9
$TILEMODE
 70
     1
  9
$MAXACTVP
 70
    64
  9
$PINSBASE
 10
0.0
 20
0.0
 30
0.0
  9
$PLIMCHECK
 70
     0
  9
$PEXTMIN
 10
1.000000000000000E+20
 20
1.000000000000000E+20
 30
1.000000000000000E+20
  9
$PEXTMAX
 10
-1.000000000000000E+20
 20
-1.000000000000000E+20
 30
-1.000000000000000E+20
  9
$PLIMMIN
 10
0.0
 20
0.0
  9
$PLIMMAX
 10
12.0
 20
9.0
  9
$UNITMODE
 70
     0
  9
$VISRETAIN
 70
     1
  9
$PLINEGEN
 70
     0
  9
$PSLTSCALE
 70
     1
  9
$TREEDEPTH
 70
  3020
  9
$CMLSTYLE
  2
Standard
  9
$CMLJUST
 70
     0
  9
$CMLSCALE
 40
1.0
  9
$PROXYGRAPHICS
 70
     1
  9
$MEASUREMENT
 70
     0
  9
$CELWEIGHT
370
    -1
  9
$ENDCAPS
280
     0
  9
$JOINSTYLE
280
     0
  9
$LWDISPLAY
290
     0
  9
$INSUNITS
 70
     0
  9
$HYPERLINKBASE
  1

  9
$STYLESHEET
  1

  9
$XEDIT
290
     1
  9
$CEPSNTYPE
380
     0
  9
$PSTYLEMODE
290
     1
  9
$FINGERPRINTGUID
  2
{9D14F957-1067-451D-A08D-93618F5F56A6}
  9
$VERSIONGUID
  2
{5338D56F-A09E-49AD-AF2A-0495FDCCD36B}
  9
$EXTNAMES
290
     1
  9
$PSVPSCALE
 40
0.0
  9
$OLESTARTUP
290
     0
  0
ENDSEC
  0
SECTION
  2
CLASSES
  0
CLASS
  1
ACDBDICTIONARYWDFLT
  2
AcDbDictionaryWithDefault
  3
ObjectDBX Classes
 90
        0
280
     0
281
     0
  0
CLASS
  1
MATERIAL
  2
AcDbMaterial
  3
ObjectDBX Classes
 90
     1153
280
     0
281
     0
  0
CLASS
  1
VISUALSTYLE
  2
AcDbVisualStyle
  3
ObjectDBX Classes
 90
     4095
280
     0
281
     0
  0
CLASS
  1
SCALE
  2
AcDbScale
  3
ObjectDBX Classes
 90
     1153
280
     0
281
     0
  0
CLASS
  1
TABLESTYLE
  2
AcDbTableStyle
  3
ObjectDBX Classes
 90
     4095
280
     0
281
     0
  0
CLASS
  1
MLEADERSTYLE
  2
AcDbMLeaderStyle
  3
ACDB_MLEADERSTYLE_CLASS
 90
     4095
280
     0
281
     0
  0
CLASS
  1
AMGSETTINGSOBJ
  2
AmgSettingsObj
  3
"AcadM|Product Description: AutoCAD Mechanical|Company: Autodesk, Inc."
 90
     1024
280
     0
281
     0
  0
CLASS
  1
ACME_DOCUMENT
  2
AcMeDbDoc
  3
AcMeServices
 90
     1024
280
     0
281
     0
  0
CLASS
  1
ACMESCOPE
  2
AcMeScope
  3
AcMeServices
 90
     1024
280
     0
281
     0
  0
CLASS
  1
ACMECOMMANDHISTORY
  2
AcMeCommandHistory
  3
AcMeServices
 90
     1024
280
     0
281
     0
  0
CLASS
  1
ACIMSYSVARMAN
  2
AcImSysVarManager
  3
AcMeServices
 90
     1024
280
     0
281
     0
  0
CLASS
  1
ACIMREALSYSVAR
  2
AcImRealSysVar
  3
AcMeServices
 90
     1024
280
     0
281
     0
  0
CLASS
  1
ACIMINTSYSVAR
  2
AcImIntSysVar
  3
AcMeServices
 90
     1024
280
     0
281
     0
  0
CLASS
  1
ACMEDRAWINGMAN
  2
AcMeDrawingMan
  3
AcMeServices
 90
     1024
280
     0
281
     0
  0
CLASS
  1
ACMEVIEW
  2
AcMeView
  3
AcMeServices
 90
     1024
280
     0
281
     0
  0
CLASS
  1
ACDBENTITYCACHE
  2
AcMeEntityCache
  3
AcMeServices
 90
     1024
280
     0
281
     0
  0
CLASS
  1
GSMANAGER
  2
AcMeGSManager
  3
AcMeServices
 90
     1024
280
     0
281
     0
  0
CLASS
  1
AMDTINTERNALREACTOR
  2
AmdtInternalReactor
  3
AcMeServices
 90
     1024
280
     0
281
     0
  0
CLASS
  1
ACMESTATEMGR
  2
AcMeStateMgr
  3
AcMeServices
 90
     1024
280
     0
281
     0
  0
CLASS
  1
ACGREFMASTER
  2
AcGrefMaster
  3
AcAttribServices
 90
     1024
280
     0
281
     0
  0
CLASS
  1
AM_DRAWING_MGR
  2
AcDmDwgMgr
  3
AcMechDwgViewMgmt
 90
     1024
280
     0
281
     0
  0
CLASS
  1
AM_DWG_DOCUMENT
  2
AcDmDwgDocument
  3
AcMechDwgViewMgmt
 90
     1024
280
     0
281
     0
  0
CLASS
  1
AM_DWG_SHEET
  2
AcDmSheet
  3
AcMechDwgViewMgmt
 90
     1024
280
     0
281
     0
  0
CLASS
  1
AM_VIEWDIMPARMAP
  2
AcDmViewDimParMap
  3
AcMechDwgViewMgmt
 90
     1024
280
     0
281
     0
  0
CLASS
  1
AM_DWGMGR_NAME
  2
AcDmDwgMgrName
  3
AcMechDwgViewMgmt
 90
     1024
280
     0
281
     0
  0
CLASS
  1
ACME_DATABASE
  2
AcMeDbDatabase
  3
AcMeServices
 90
     1024
280
     0
281
     0
  0
CLASS
  1
ACRFINSADJUSTERMGR
  2
AcRfInsAdjusterMgr
  3
AcMeServices
 90
     1024
280
     0
281
     0
  0
CLASS
  1
ACGREFACADMASTER
  2
AcGrefacadMaster
  3
AcGrefServices
 90
     1024
280
     0
281
     0
  0
CLASS
  1
AMDTMENUSTATEMGR
  2
AmdtMenuStateMgr
  3
McadcomServices
 90
     1024
280
     0
281
     0
  0
CLASS
  1
AMDTMCOMMENUSTATE
  2
AmdtMcomMenuState
  3
McadcomServices
 90
     1024
280
     0
281
     0
  0
CLASS
  1
AMIMASTER
  2
AmiMaster
  3
AmiServices
 90
     1024
280
     0
281
     0
  0
CLASS
  1
ASAPP
  2
AcAsAppObject
  3
AutoSurfServices
 90
     1024
280
     0
281
     0
  0
CLASS
  1
IM_STATIC_MAN
  2
AcImStaticVarManager
  3
AcMeServices
 90
     1024
280
     0
281
     0
  0
CLASS
  1
ACIMSTRSYSVAR
  2
AcImStrSysVar
  3
AcMeServices
 90
     1024
280
     0
281
     0
  0
CLASS
  1
ACIMDBLSTATICVAR
  2
AcImDblStaticVar
  3
AcMeServices
 90
     1024
280
     0
281
     0
  0
CLASS
  1
ACIMSTRSTATICVAR
  2
AcImStrStaticVar
  3
AcMeServices
 90
     1024
280
     0
281
     0
  0
CLASS
  1
ACIMINTSTATICVAR
  2
AcImIntStaticVar
  3
AcMeServices
 90
     1024
280
     0
281
     0
  0
CLASS
  1
ACASGREFMASTER
  2
AcAsGrefMaster
  3
AutoSurfResolverServices
 90
     1024
280
     0
281
     0
  0
CLASS
  1
ACADGREFMODULE
  2
AcAdGrefModule
  3
AdGrefServices
 90
     1024
280
     0
281
     0
  0
CLASS
  1
AMDTMAPISURFMOUDULE
  2
AmdtMApiSurfModule
  3
MApiSurfServices
 90
     1024
280
     0
281
     0
  0
CLASS
  1
MAPIAMMOUDLE
  2
MApiAmModule
  3
MApiAmServices
 90
     1024
280
     0
281
     0
  0
CLASS
  1
AMDTADMENUSTATE
  2
AmdtAdMenuState
  3
DesignerServices
 90
     1024
280
     0
281
     0
  0
CLASS
  1
ADAPPL
  2
AcAdAppl
  3
DesignerServices
 90
     1024
280
     0
281
     0
  0
CLASS
  1
DEPMGR
  2
AcAdDepMgr
  3
DesignerServices
 90
     1024
280
     0
281
     0
  0
CLASS
  1
PARAMMGR
  2
AcAdParamMgr
  3
DesignerServices
 90
     1024
280
     0
281
     0
  0
CLASS
  1
PARAMSCOPE
  2
AcAdParamScope
  3
DesignerServices
 90
     1024
280
     0
281
     0
  0
CLASS
  1
NAMEDAPPL
  2
AcAdNamedAppl
  3
DesignerServices
 90
     1024
280
     0
281
     0
  0
CLASS
  1
AMDTDMMENUSTATE
  2
AmdtDmMenuState
  3
AcMechDwgViewMgmt
 90
     1024
280
     0
281
     0
  0
CLASS
  1
MAPIADMODULE
  2
MApiAdModule
  3
MApiAdServices
 90
     1024
280
     0
281
     0
  0
CLASS
  1
AMDTAMMENUSTATE
  2
AmdtAmMenuState
  3
DesignerAssemblies
 90
     1024
280
     0
281
     0
  0
CLASS
  1
ACAMPROJECT
  2
AcAmProject
  3
DesignerAssemblies
 90
     1024
280
     0
281
     0
  0
CLASS
  1
ACAMGRCOMPDEF
  2
AcAmGrCompDef
  3
DesignerAssemblies
 90
     1024
280
     0
281
     0
  0
CLASS
  1
ACCMCONTEXT
  2
AcCmContext
  3
DesignerAssemblies
 90
     1024
280
     0
281
     0
  0
CLASS
  1
ACAMCOMPDEF
  2
AcAmCompDef
  3
DesignerAssemblies
 90
     1024
280
     0
281
     0
  0
CLASS
  1
ACAMCOMPDEFMGR
  2
AcAmCompDefMgr
  3
DesignerAssemblies
 90
     1024
280
     0
281
     0
  0
CLASS
  1
AMCONTEXTMGR
  2
AcAmContextMgr
  3
DesignerAssemblies
 90
     1024
280
     0
281
     0
  0
CLASS
  1
ACAMCONTEXTMODELER
  2
AcAmContextModeler
  3
DesignerAssemblies
 90
     1024
280
     0
281
     0
  0
CLASS
  1
ACMDATADICTIONARY
  2
AcmDataDictionary
  3
"AcmSymBB|Product Description: AutoCAD Mechanical|Company: Autodesk, Inc."
 90
     1024
280
     0
281
     0
  0
CLASS
  1
ACMDATAENTRYBLOCK
  2
AcmDataEntryBlock
  3
AcmSymBB|Product Description: AutoCAD Mechanical|Company: Autodesk, Inc.
 90
     1024
280
     0
281
     0
  0
CLASS
  1
ACRFATTGENMGR
  2
AcRfAttGeneralMgr
  3
AcAttribServices
 90
     1024
280
     0
281
     0
  0
CLASS
  1
ACRFOBJATTMGR
  2
AcRfObjAttGroupMgr
  3
AcAttribServices
 90
     1024
280
     0
281
     0
  0
CLASS
  1
ACRFMCADAPIATTHOLDER
  2
AcRfMCADAPIAttHolder
  3
AcAttribServices
 90
     1024
280
     0
281
     0
  0
CLASS
  1
AMDTSYSATTR
  2
AmdtSystemAttribute
  3
AcAttribServices
 90
     1024
280
     0
281
     0
  0
CLASS
  1
CATALOGSTATE
  2
AcAmCatalogState
  3
DesignerAssemblies
 90
     1024
280
     0
281
     0
  0
CLASS
  1
ACAMGRCOMPDEFSET
  2
AcAmGrCompDefSet
  3
DesignerAssemblies
 90
     1024
280
     0
281
     0
  0
CLASS
  1
AMDTBROWSERDBTAB
  2
AmdtBrowserDbTab
  3
McadcomServices
 90
     1024
280
     0
281
     0
  0
CLASS
  1
CBROWSERAPPOBJECT
  2
CBrowserAppObject
  3
McadcomServices
 90
     1024
280
     0
281
     0
  0
CLASS
  1
DM_PLACEHOLDER
  2
AcDmSelsetPlaceholder
  3
AcMechDwgViewMgmt
 90
     1024
280
     0
281
     0
  0
CLASS
  1
ACMSTANDARDANSI
  2
AcmStandardANSI
  3
"Amdt_StdImp|Product Description: AutoCAD Mechanical|Company: Autodesk, Inc."
 90
     1024
280
     0
281
     0
  0
CLASS
  1
ACMSURFSTANDARDANSI
  2
AcmSurfTextStdANSI
  3
"Amdt_StdImp|Product Description: AutoCAD Mechanical|Company: Autodesk, Inc."
 90
     1024
280
     0
281
     0
  0
CLASS
  1
ACMFCFSTANDARDANSI
  2
AcmFCFStdANSI
  3
"Amdt_StdImp|Product Description: AutoCAD Mechanical|Company: Autodesk, Inc."
 90
     1024
280
     0
281
     0
  0
CLASS
  1
ACMWELDSTANDARDANSI
  2
AcmWeldingStdANSI
  3
"Amdt_StdImp|Product Description: AutoCAD Mechanical|Company: Autodesk, Inc."
 90
     1024
280
     0
281
     0
  0
CLASS
  1
ACMIDSTANDARDANSI
  2
AcmIdStdANSI
  3
"Amdt_StdImp|Product Description: AutoCAD Mechanical|Company: Autodesk, Inc."
 90
     1024
280
     0
281
     0
  0
CLASS
  1
ACMDATUMSTANDARDANSI
  2
AcmDatumStdANSI
  3
"Amdt_StdImp|Product Description: AutoCAD Mechanical|Company: Autodesk, Inc."
 90
     1024
280
     0
281
     0
  0
CLASS
  1
ACMBOMSTANDARDANSI
  2
AcmBOMStdANSI
  3
"Amdt_StdImp|Product Description: AutoCAD Mechanical|Company: Autodesk, Inc."
 90
     1024
280
     0
281
     0
  0
CLASS
  1
ACMDETAILSTANDARDANSI
  2
AmdtDetailSymStdANSI
  3
"Amdt_StdImp|Product Description: AutoCAD Mechanical|Company: Autodesk, Inc."
 90
     1024
280
     0
281
     0
  0
CLASS
  1
ACMSECTIONSTANDARDANSI
  2
AmdtSectionSymStdANSI
  3
"Amdt_StdImp|Product Description: AutoCAD Mechanical|Company: Autodesk, Inc."
 90
     1024
280
     0
281
     0
  0
CLASS
  1
ACMCENTERLINESTANDARDANSI
  2
AmdtCenterLineStdANSI
  3
"Amdt_StdImp|Product Description: AutoCAD Mechanical|Company: Autodesk, Inc."
 90
     1024
280
     0
281
     0
  0
CLASS
  1
ACMTHREADLINESTANDARDANSI
  2
AmdtThreadLineStdANSI
  3
"Amdt_StdImp|Product Description: AutoCAD Mechanical|Company: Autodesk, Inc."
 90
     1024
280
     0
281
     0
  0
CLASS
  1
ACMNOTESTANDARDANSI
  2
AmdtNoteStdANSI
  3
"Amdt_StdImp|Product Description: AutoCAD Mechanical|Company: Autodesk, Inc."
 90
     1024
280
     0
281
     0
  0
CLASS
  1
ACMTAPERSTANDARDANSI
  2
AcmTaperStdANSI
  3
"Amdt_StdImp|Product Description: AutoCAD Mechanical|Company: Autodesk, Inc."
 90
     1024
280
     0
281
     0
  0
CLASS
  1
ACMANOOTATIONVIEWSTANDARDANSI
  2
AmdtAnViewStdANSI
  3
"Amdt_StdImp|Product Description: AutoCAD Mechanical|Company: Autodesk, Inc."
 90
     1024
280
     0
281
     0
  0
CLASS
  1
ACAMGLAYSTD
  2
AcAmgLayStd
  3
"AmgLay|Product Description: AutoCAD Mechanical|Company: Autodesk, Inc."
 90
     1024
280
     0
281
     0
  0
CLASS
  1
ACAMGDIMSTD
  2
AcAmgDimStd
  3
"AmgDim|Product Description: AutoCAD Mechanical|Company: Autodesk, Inc."
 90
     1024
280
     0
281
     0
  0
CLASS
  1
ACAMGHOLECHARTSTDANSI
  2
AcAmgHoleChartStdANSI
  3
AmgDim|Product Description: AutoCAD Mechanical|Company: Autodesk, Inc.
 90
     1024
280
     0
281
     0
  0
CLASS
  1
AMGOBJPROPCFG
  2
AmgObjPropCfg
  3
"AmgLay|Product Description: AutoCAD Mechanical|Company: Autodesk, Inc."
 90
     1025
280
     0
281
     0
  0
CLASS
  1
ACAMGTITLESTD
  2
AcAmgTitleStd
  3
"AmgTitle|Product Description: AutoCAD Mechanical|Company: Autodesk, Inc."
 90
     4095
280
     0
281
     0
  0
CLASS
  1
AMDTNOTETEMPLATEDB
  2
AmdtNoteTemplateDB
  3
AcmSymBB|Product Description: AutoCAD Mechanical|Company: Autodesk, Inc.
 90
     1024
280
     0
281
     0
  0
CLASS
  1
LAYER_INDEX
  2
AcDbLayerIndex
  3
ObjectDBX Classes
 90
        0
280
     0
281
     0
  0
CLASS
  1
IDBUFFER
  2
AcDbIdBuffer
  3
ObjectDBX Classes
 90
        0
280
     0
281
     0
  0
CLASS
  1
DICTIONARYVAR
  2
AcDbDictionaryVar
  3
ObjectDBX Classes
 90
        0
280
     0
281
     0
  0
CLASS
  1
CELLSTYLEMAP
  2
AcDbCellStyleMap
  3
ObjectDBX Classes
 90
     1152
280
     0
281
     0
  0
CLASS
  1
ACDBPLACEHOLDER
  2
AcDbPlaceHolder
  3
ObjectDBX Classes
 90
        0
280
     0
281
     0
  0
CLASS
  1
LAYOUT
  2
AcDbLayout
  3
ObjectDBX Classes
 90
        0
280
     0
281
     0
  0
ENDSEC
  0
SECTION
  2
TABLES
  0
TABLE
  2
VPORT
  5
278E
330
0
100
AcDbSymbolTable
 70
     1
  0
VPORT
  5
27FE
330
278E
100
AcDbSymbolTableRecord
100
AcDbViewportTableRecord
  2
*ACTIVE
 70
     0
 10
0.0
 20
0.0
 11
1.0
 21
1.0
 12
0.0
 22
0.0
 13
0.0
 23
0.0
 14
1.0
 24
1.0
 15
0.0
 25
0.0
 16
0.0
 26
0.0
 36
1.0
 17
95.39567434158465
 27
25.9213984080626
 37
0.0
 40
1094.511476770991
 41
1.712555066079295
 42
50.0
 43
0.0
 44
0.0
 50
0.0
 51
0.0
 71
     0
 72
   100
 73
     1
 74
     0
 75
     0
 76
     0
 77
     0
 78
     0
281
     0
 65
     0
110
0.0
120
0.0
130
0.0
111
1.0
121
0.0
131
0.0
112
0.0
122
1.0
132
0.0
 79
     0
146
0.0
  0
ENDTAB
  0
TABLE
  2
LTYPE
  5
278B
330
0
100
AcDbSymbolTable
 70
    19
  0
LTYPE
  5
27E8
330
278B
100
AcDbSymbolTableRecord
100
AcDbLinetypeTableRecord
  2
ByBlock
 70
     0
  3

 72
    65
 73
     0
 40
0.0
  0
LTYPE
  5
27E9
330
278B
100
AcDbSymbolTableRecord
100
AcDbLinetypeTableRecord
  2
ByLayer
 70
     0
  3

 72
    65
 73
     0
 40
0.0
  0
LTYPE
  5
27EA
330
278B
100
AcDbSymbolTableRecord
100
AcDbLinetypeTableRecord
  2
CONTINUOUS
 70
     0
  3
実線
 72
    65
 73
     0
 40
0.0
  0
LTYPE
  5
27FF
330
278B
100
AcDbSymbolTableRecord
100
AcDbLinetypeTableRecord
  2
DASHDOT
 70
     0
  3
____ _ ____ _ ____ _ ____ _ ____ _ ____ _ ____
 72
    65
 73
     4
 40
5.5
 49
4.0
 74
     0
 49
-0.6
 74
     0
 49
0.3
 74
     0
 49
-0.6
 74
     0
  0
LTYPE
  5
2800
330
278B
100
AcDbSymbolTableRecord
100
AcDbLinetypeTableRecord
  2
HIDDEN
 70
     0
  3
Hidden __ __ __ __ __ __ __ __ __ __ __ __ __ _
 72
    65
 73
     2
 40
0.375
 49
0.25
 74
     0
 49
-0.125
 74
     0
  0
LTYPE
  5
2801
330
278B
100
AcDbSymbolTableRecord
100
AcDbLinetypeTableRecord
  2
PHANTOM2
 70
     0
  3
Phantom (.5x) ___ _ _ ___ _ _ ___ _ _ ___ _ _
 72
    65
 73
     6
 40
1.25
 49
0.625
 74
     0
 49
-0.125
 74
     0
 49
0.125
 74
     0
 49
-0.125
 74
     0
 49
0.125
 74
     0
 49
-0.125
 74
     0
  0
LTYPE
  5
2802
330
278B
100
AcDbSymbolTableRecord
100
AcDbLinetypeTableRecord
  2
CENTER
 70
     0
  3
Center ____ _ ____ _ ____ _ ____ _ ____ _ ____
 72
    65
 73
     4
 40
2.0
 49
1.25
 74
     0
 49
-0.25
 74
     0
 49
0.25
 74
     0
 49
-0.25
 74
     0
  0
LTYPE
  5
2803
330
278B
100
AcDbSymbolTableRecord
100
AcDbLinetypeTableRecord
  2
ASULTYPE
 70
     0
  3
実線
 72
    65
 73
     2
 40
3.0
 49
2.5
 74
     0
 49
0.5
 74
     0
  0
LTYPE
  5
2804
330
278B
100
AcDbSymbolTableRecord
100
AcDbLinetypeTableRecord
  2
ASVLTYPE
 70
     0
  3
__ __ __ __ __ __ __ __ __ __ __ __ __ __ __ __ __ __ __ __ __
 72
    65
 73
     2
 40
0.75
 49
0.5
 74
     0
 49
-0.25
 74
     0
  0
LTYPE
  5
2805
330
278B
100
AcDbSymbolTableRecord
100
AcDbLinetypeTableRecord
  2
AM_ISO02W050
 70
     0
  3
__ __ __ __ __ __ __ __ __ __ __ __ __ __ __
 72
    65
 73
     2
 40
7.5
 49
6.0
 74
     0
 49
-1.5
 74
     0
  0
LTYPE
  5
2806
330
278B
100
AcDbSymbolTableRecord
100
AcDbLinetypeTableRecord
  2
AM_ISO08W050
 70
     0
  3
____ . ____ . ____ . ____ . ____ . ____ . ____
 72
    65
 73
     4
 40
18.0
 49
12.0
 74
     0
 49
-1.5
 74
     0
 49
3.0
 74
     0
 49
-1.5
 74
     0
  0
LTYPE
  5
2807
330
278B
100
AcDbSymbolTableRecord
100
AcDbLinetypeTableRecord
  2
AM_ISO09W050
 70
     0
  3
_____ . . _____ . . _____ . . ____ .. ____
 72
    65
 73
     6
 40
22.5
 49
12.0
 74
     0
 49
-1.5
 74
     0
 49
3.0
 74
     0
 49
-1.5
 74
     0
 49
3.0
 74
     0
 49
-1.5
 74
     0
  0
LTYPE
  5
2808
330
278B
100
AcDbSymbolTableRecord
100
AcDbLinetypeTableRecord
  2
AMCONSTR
 70
     0
  3
_______________________
 72
    65
 73
     2
 40
9999.0
 49
9999.0
 74
     0
 49
0.0
 74
     0
  0
LTYPE
  5
2809
330
278B
100
AcDbSymbolTableRecord
100
AcDbLinetypeTableRecord
  2
AM_ISO08W050X2
 70
     0
  3
__ . __ . __ . __ . __ . __
 72
    65
 73
     4
 40
9.0
 49
6.0
 74
     0
 49
-0.75
 74
     0
 49
1.5
 74
     0
 49
-0.75
 74
     0
  0
LTYPE
  5
280A
330
278B
100
AcDbSymbolTableRecord
100
AcDbLinetypeTableRecord
  2
AM_ISO02W050X2
 70
     0
  3
 _ _ _ _ _ _ _ _ _ _ _ _
 72
    65
 73
     2
 40
3.75
 49
3.0
 74
     0
 49
-0.75
 74
     0
  0
LTYPE
  5
280B
330
278B
100
AcDbSymbolTableRecord
100
AcDbLinetypeTableRecord
  2
AMZIGZAG
 70
     0
  3
/\/-/\/-/\/-/\/-/\/-/\/
 72
    65
 73
     2
 40
11.0001
 49
0.0001
 74
     0
 49
-11.0
 74
     0
  0
LTYPE
  5
280C
330
278B
100
AcDbSymbolTableRecord
100
AcDbLinetypeTableRecord
  2
CENTER2
 70
     0
  3
Center (.5x) ___ _ ___ _ ___ _ ___ _ ___ _ ___
 72
    65
 73
     4
 40
1.125
 49
0.75
 74
     0
 49
-0.125
 74
     0
 49
0.125
 74
     0
 49
-0.125
 74
     0
  0
LTYPE
  5
280D
330
278B
100
AcDbSymbolTableRecord
100
AcDbLinetypeTableRecord
  2
HIDDEN2
 70
     0
  3
Hidden (.5x) _ _ _ _ _ _ _ _ _ _ _ _ _ _ _ _ _
 72
    65
 73
     2
 40
0.1875
 49
0.125
 74
     0
 49
-0.0625
 74
     0
  0
LTYPE
  5
280E
330
278B
100
AcDbSymbolTableRecord
100
AcDbLinetypeTableRecord
  2
AMZIGZAG2
 70
     0
  3
/\/-/\/-/\/-/\/-/\/-/\/
 72
    65
 73
     2
 40
0.4401
 49
0.0001
 74
     0
 49
-0.4400000000000003
 74
     0
  0
LTYPE
  5
280F
330
278B
100
AcDbSymbolTableRecord
100
AcDbLinetypeTableRecord
  2
ACANSTGB
 70
     0
  3
__ . . __ . .
 72
    65
 73
     6
 40
0.35433070866
 49
0.15748031496
 74
     0
 49
-0.03937007874
 74
     0
 49
0.03937007874
 74
     0
 49
-0.03937007874
 74
     0
 49
0.03937007874
 74
     0
 49
-0.03937007874
 74
     0
  0
LTYPE
  5
2810
330
278B
100
AcDbSymbolTableRecord
100
AcDbLinetypeTableRecord
  2
ACANSTGL
 70
     0
  3
_ _ _ _ _
 72
    65
 73
     2
 40
0.11811023622
 49
0.07874015748
 74
     0
 49
-0.03937007874
 74
     0
  0
ENDTAB
  0
TABLE
  2
LAYER
  5
2788
330
0
100
AcDbSymbolTable
 70
    12
  0
LAYER
  5
27E2
102
{ACAD_XDICTIONARY
360
29B8
102
}
330
2788
100
AcDbSymbolTableRecord
100
AcDbLayerTableRecord
  2
0
 70
     0
 62
     7
  6
CONTINUOUS
370
    -3
390
2795
  0
LAYER
  5
2811
102
{ACAD_XDICTIONARY
360
29BA
102
}
330
2788
100
AcDbSymbolTableRecord
100
AcDbLayerTableRecord
  2
OUTLINE
 70
     0
 62
     3
  6
CONTINUOUS
370
    -3
390
2795
  0
LAYER
  5
2812
102
{ACAD_XDICTIONARY
360
29BC
102
}
330
2788
100
AcDbSymbolTableRecord
100
AcDbLayerTableRecord
  2
SIZE
 70
     0
 62
    30
  6
CONTINUOUS
370
    -3
390
2795
  0
LAYER
  5
2813
102
{ACAD_XDICTIONARY
360
29BE
102
}
330
2788
100
AcDbSymbolTableRecord
100
AcDbLayerTableRecord
  2
BASIS
 70
     0
 62
     6
  6
DASHDOT
370
    -3
390
2795
  0
LAYER
  5
2814
102
{ACAD_XDICTIONARY
360
29C0
102
}
330
2788
100
AcDbSymbolTableRecord
100
AcDbLayerTableRecord
  2
DETAIL
 70
     0
 62
     5
  6
CONTINUOUS
370
    -3
390
2795
  0
LAYER
  5
2815
102
{ACAD_XDICTIONARY
360
29C2
102
}
330
2788
100
AcDbSymbolTableRecord
100
AcDbLayerTableRecord
  2
ARRANGE
 70
     0
 62
     1
  6
CONTINUOUS
370
    -3
390
2795
  0
LAYER
  5
2816
330
2788
100
AcDbSymbolTableRecord
100
AcDbLayerTableRecord
  2
DEFPOINTS
 70
     0
 62
     7
  6
CONTINUOUS
290
     0
370
    -3
390
2795
  0
LAYER
  5
2817
102
{ACAD_XDICTIONARY
360
29C4
102
}
330
2788
100
AcDbSymbolTableRecord
100
AcDbLayerTableRecord
  2
ETC
 70
     0
 62
    61
  6
CONTINUOUS
370
    -3
390
2795
  0
LAYER
  5
2818
102
{ACAD_XDICTIONARY
360
29C6
102
}
330
2788
100
AcDbSymbolTableRecord
100
AcDbLayerTableRecord
  2
FIX
 70
     0
 62
    11
  6
CONTINUOUS
370
    -3
390
2795
  0
LAYER
  5
2819
102
{ACAD_XDICTIONARY
360
29C8
102
}
330
2788
100
AcDbSymbolTableRecord
100
AcDbLayerTableRecord
  2
NOTE
 70
     0
 62
     4
  6
CONTINUOUS
370
    -3
390
2795
  0
LAYER
  5
281A
102
{ACAD_XDICTIONARY
360
29CA
102
}
330
2788
100
AcDbSymbolTableRecord
100
AcDbLayerTableRecord
  2
SERVICESPACE
 70
     0
 62
     2
  6
DASHDOT
370
    -3
390
2795
  0
LAYER
  5
281B
102
{ACAD_XDICTIONARY
360
29CC
102
}
330
2788
100
AcDbSymbolTableRecord
100
AcDbLayerTableRecord
  2
SYMBOLLINE
 70
     0
 62
    15
  6
CONTINUOUS
370
    -3
390
2795
  0
ENDTAB
  0
TABLE
  2
STYLE
  5
2789
330
0
100
AcDbSymbolTable
 70
     5
  0
STYLE
  5
27E3
330
2789
100
AcDbSymbolTableRecord
100
AcDbTextStyleTableRecord
  2
STANDARD
 70
     0
 40
64.0
 41
0.9
 50
0.0
 71
     0
 42
64.0
  3
SIMPLEX.shx
  4
BIGFONT.shx
  0
STYLE
  5
27E7
330
2789
100
AcDbSymbolTableRecord
100
AcDbTextStyleTableRecord
  2
ANNOTATIVE
 70
     0
 40
0.0
 41
1.0
 50
0.0
 71
     0
 42
0.2
  3
txt
  4

1001
ACADANNOTATIVE
1000
AnnotativeData
1002
{
1070
     1
1070
     1
1002
}
  0
STYLE
  5
281C
330
2789
100
AcDbSymbolTableRecord
100
AcDbTextStyleTableRecord
  2

 70
     1
 40
0.0
 41
1.0
 50
0.0
 71
     0
 42
64.0
  3
genltshp.shx
  4

  0
STYLE
  5
281D
330
2789
100
AcDbSymbolTableRecord
100
AcDbTextStyleTableRecord
  2
ACANSTS
 70
     0
 40
1.0
 41
1.0
 50
0.0
 71
     0
 42
64.0
  3
romans.shx
  4
extfont.shx
  0
STYLE
  5
281E
330
2789
100
AcDbSymbolTableRecord
100
AcDbTextStyleTableRecord
  2
ACANSGDT
 70
     0
 40
0.0
 41
1.0
 50
0.0
 71
     0
 42
64.0
  3
amgdt.shx
  4

  0
ENDTAB
  0
TABLE
  2
VIEW
  5
278C
330
0
100
AcDbSymbolTable
 70
     1
  0
VIEW
  5
281F
330
278C
100
AcDbSymbolTableRecord
100
AcDbViewTableRecord
  2
ALL
 70
     0
 40
4282.619807999997
 10
0.0
 20
41.30990399999999
 41
5940.0
 11
0.0
 21
0.0
 31
1.0
 12
0.0
 22
0.0
 32
0.0
 42
50.0
 43
0.0
 44
0.0
 50
0.0
 71
     0
281
     0
 72
     1
110
0.0
120
0.0
130
0.0
111
1.0
121
0.0
131
0.0
112
0.0
122
1.0
132
0.0
 79
     0
146
0.0
  0
ENDTAB
  0
TABLE
  2
UCS
  5
278D
330
0
100
AcDbSymbolTable
 70
     0
  0
ENDTAB
  0
TABLE
  2
APPID
  5
278F
330
0
100
AcDbSymbolTable
 70
    26
  0
APPID
  5
27E4
330
278F
100
AcDbSymbolTableRecord
100
AcDbRegAppTableRecord
  2
ACAD
 70
     0
  0
APPID
  5
27EB
330
278F
100
AcDbSymbolTableRecord
100
AcDbRegAppTableRecord
  2
ACADANNOTATIVE
 70
     0
  0
APPID
  5
27F5
330
278F
100
AcDbSymbolTableRecord
100
AcDbRegAppTableRecord
  2
ACAD_MLEADERVER
 70
     0
  0
APPID
  5
2820
330
278F
100
AcDbSymbolTableRecord
100
AcDbRegAppTableRecord
  2
GENIUS_GENDIM_13
 70
     0
  0
APPID
  5
2821
330
278F
100
AcDbSymbolTableRecord
100
AcDbRegAppTableRecord
  2
GENIUS_GENDTOL_13
 70
     0
  0
APPID
  5
2822
330
278F
100
AcDbSymbolTableRecord
100
AcDbRegAppTableRecord
  2
GENIUS_GE3DTOL_13
 70
     0
  0
APPID
  5
2823
330
278F
100
AcDbSymbolTableRecord
100
AcDbRegAppTableRecord
  2
MCAD_NO_VIS
 70
     0
  0
APPID
  5
2824
330
278F
100
AcDbSymbolTableRecord
100
AcDbRegAppTableRecord
  2
ACAD_TEMP_GRAPHIC
 70
     0
  0
APPID
  5
2825
330
278F
100
AcDbSymbolTableRecord
100
AcDbRegAppTableRecord
  2
AD_DRAW
 70
     0
  0
APPID
  5
2826
330
278F
100
AcDbSymbolTableRecord
100
AcDbRegAppTableRecord
  2
ACATTRIBSERVICES
 70
     0
  0
APPID
  5
2827
330
278F
100
AcDbSymbolTableRecord
100
AcDbRegAppTableRecord
  2
ASURF_PCURVE_APPNAME
 70
     0
  0
APPID
  5
2828
330
278F
100
AcDbSymbolTableRecord
100
AcDbRegAppTableRecord
  2
AMG_3D2D_5_0
 70
     0
  0
APPID
  5
2829
330
278F
100
AcDbSymbolTableRecord
100
AcDbRegAppTableRecord
  2
DESIGNERASSEMBLIES
 70
     0
  0
APPID
  5
282A
330
278F
100
AcDbSymbolTableRecord
100
AcDbRegAppTableRecord
  2
ACADM_DIM_EDIT
 70
     0
  0
APPID
  5
282B
330
278F
100
AcDbSymbolTableRecord
100
AcDbRegAppTableRecord
  2
AMDT_DM_ADJ
 70
     0
  0
APPID
  5
282C
330
278F
100
AcDbSymbolTableRecord
100
AcDbRegAppTableRecord
  2
ACAD_DSTYLE_DIMARC_LENGTH_
 70
     0
  0
APPID
  5
282D
330
278F
100
AcDbSymbolTableRecord
100
AcDbRegAppTableRecord
  2
ACAD_DSTYLE_DIMJOGGED_JOGA
 70
     0
  0
APPID
  5
282E
330
278F
100
AcDbSymbolTableRecord
100
AcDbRegAppTableRecord
  2
ACAD_PSEXT
 70
     0
  0
APPID
  5
282F
330
278F
100
AcDbSymbolTableRecord
100
AcDbRegAppTableRecord
  2
ACAD_EXEMPT_FROM_CAD_STANDARDS
 70
     0
  0
APPID
  5
2830
330
278F
100
AcDbSymbolTableRecord
100
AcDbRegAppTableRecord
  2
ACAD_DSTYLE_DIMJAG
 70
     0
  0
APPID
  5
2831
330
278F
100
AcDbSymbolTableRecord
100
AcDbRegAppTableRecord
  2
ACAD_DSTYLE_DIMTALN
 70
     0
  0
APPID
  5
295F
330
278F
100
AcDbSymbolTableRecord
100
AcDbRegAppTableRecord
  2
AMG_3D2D_5.0
 70
     0
  0
APPID
  5
29F5
330
278F
100
AcDbSymbolTableRecord
100
AcDbRegAppTableRecord
  2
ACAD_DSTYLE_DIMARC_LENGTH_SYMBOL
 70
     0
  0
APPID
  5
29F6
330
278F
100
AcDbSymbolTableRecord
100
AcDbRegAppTableRecord
  2
ACAD_DSTYLE_DIM_LINETYPE
 70
     0
  0
APPID
  5
29F7
330
278F
100
AcDbSymbolTableRecord
100
AcDbRegAppTableRecord
  2
ACAD_DSTYLE_DIM_EXT1_LINETYPE
 70
     0
  0
APPID
  5
29F8
330
278F
100
AcDbSymbolTableRecord
100
AcDbRegAppTableRecord
  2
ACAD_DSTYLE_DIM_EXT2_LINETYPE
 70
     0
  0
ENDTAB
  0
TABLE
  2
DIMSTYLE
  5
2790
330
0
100
AcDbSymbolTable
 70
    10
100
AcDbDimStyleTable
 71
     1
340
2832
  0
DIMSTYLE
105
27E5
330
2790
100
AcDbSymbolTableRecord
100
AcDbDimStyleTableRecord
  2
STANDARD
 70
     0
 41
12.0
 42
20.0
 44
20.0
 77
     1
 78
     8
140
64.0
141
0.0
147
10.0
275
     1
279
     2
284
     7
285
     7
286
     7
340
27E3
  0
DIMSTYLE
105
27E6
330
2790
100
AcDbSymbolTableRecord
100
AcDbDimStyleTableRecord
  2
ANNOTATIVE
 70
     0
275
     1
279
     2
284
     7
285
     7
286
     7
340
27E3
1001
ACADANNOTATIVE
1000
AnnotativeData
1002
{
1070
     1
1070
     1
1002
}
  0
DIMSTYLE
105
2832
330
2790
100
AcDbSymbolTableRecord
100
AcDbDimStyleTableRecord
  2
AM_ANSI
 70
     0
  4
mm
 41
0.12
 42
0.05
 43
0.5
 44
0.1
 47
0.1
 48
0.1
 78
     7
 79
     2
140
0.12
141
0.0
146
0.71
147
0.06
176
   256
177
   256
178
     2
274
     4
284
     7
340
27E3
371
    -1
372
    -1
1001
ACAD_DSTYLE_DIMARC_LENGTH_SYMBOL
1070
   379
1070
     1
1001
ACAD_DSTYLE_DIM_LINETYPE
1070
   380
1005
27E8
1001
ACAD_DSTYLE_DIM_EXT1_LINETYPE
1070
   381
1005
27E8
1001
ACAD_DSTYLE_DIM_EXT2_LINETYPE
1070
   382
1005
27E8
  0
DIMSTYLE
105
2833
330
2790
100
AcDbSymbolTableRecord
100
AcDbDimStyleTableRecord
  2
AM_ANSI$3
 70
     0
  4
mm
 41
0.12
 42
0.05
 43
0.5
 44
0.1
 47
0.1
 48
0.1
 78
     7
 79
     2
140
0.12
141
0.0
146
0.71
147
0.06
176
   256
177
   256
178
     2
274
     4
284
     7
288
     1
289
     0
340
27E3
371
    -1
372
    -1
1001
ACAD_DSTYLE_DIMARC_LENGTH_SYMBOL
1070
   379
1070
     1
1001
ACAD_DSTYLE_DIM_LINETYPE
1070
   380
1005
27E8
1001
ACAD_DSTYLE_DIM_EXT1_LINETYPE
1070
   381
1005
27E8
1001
ACAD_DSTYLE_DIM_EXT2_LINETYPE
1070
   382
1005
27E8
  0
DIMSTYLE
105
2834
330
2790
100
AcDbSymbolTableRecord
100
AcDbDimStyleTableRecord
  2
AM_ANSI$4
 70
     0
  4
mm
 41
0.12
 42
0.05
 43
0.5
 44
0.1
 47
0.1
 48
0.1
 78
     7
 79
     2
140
0.12
141
0.0
146
0.71
147
0.06
176
   256
177
   256
178
     2
274
     4
284
     7
340
27E3
371
    -1
372
    -1
1001
ACAD_DSTYLE_DIMARC_LENGTH_SYMBOL
1070
   379
1070
     1
1001
ACAD_DSTYLE_DIM_LINETYPE
1070
   380
1005
27E8
1001
ACAD_DSTYLE_DIM_EXT1_LINETYPE
1070
   381
1005
27E8
1001
ACAD_DSTYLE_DIM_EXT2_LINETYPE
1070
   382
1005
27E8
  0
DIMSTYLE
105
2835
330
2790
100
AcDbSymbolTableRecord
100
AcDbDimStyleTableRecord
  2
AM_ANSI$7
 70
     0
  4
mm
 41
0.12
 42
0.05
 43
0.5
 44
0.1
 47
0.1
 48
0.1
 78
     7
 79
     2
140
0.12
141
0.0
146
0.71
147
0.06
176
   256
177
   256
178
     2
274
     4
284
     7
340
27E3
371
    -1
372
    -1
1001
ACAD_DSTYLE_DIMARC_LENGTH_SYMBOL
1070
   379
1070
     1
1001
ACAD_DSTYLE_DIM_LINETYPE
1070
   380
1005
27E8
1001
ACAD_DSTYLE_DIM_EXT1_LINETYPE
1070
   381
1005
27E8
1001
ACAD_DSTYLE_DIM_EXT2_LINETYPE
1070
   382
1005
27E8
  0
DIMSTYLE
105
2836
330
2790
100
AcDbSymbolTableRecord
100
AcDbDimStyleTableRecord
  2
AM_ANSI$SF
 70
     0
  4
mm
 41
0.12
 42
0.05
 43
0.5
 44
0.1
 47
0.1
 48
0.1
 75
     1
 76
     1
 78
     7
 79
     2
140
0.12
141
0.0
146
0.71
147
0.06
176
   256
177
   256
178
     2
274
     4
284
     7
340
27E3
371
    -1
372
    -1
1001
ACAD_DSTYLE_DIMARC_LENGTH_SYMBOL
1070
   379
1070
     1
1001
ACAD_DSTYLE_DIM_LINETYPE
1070
   380
1005
27E8
1001
ACAD_DSTYLE_DIM_EXT1_LINETYPE
1070
   381
1005
27E8
1001
ACAD_DSTYLE_DIM_EXT2_LINETYPE
1070
   382
1005
27E8
  0
DIMSTYLE
105
2837
330
2790
100
AcDbSymbolTableRecord
100
AcDbDimStyleTableRecord
  2
AM_ANSI$SH
 70
     0
  4
mm
 41
0.12
 42
0.05
 43
0.5
 44
0.1
 47
0.1
 48
0.1
 75
     1
 76
     1
 78
     7
 79
     2
140
0.12
141
0.0
146
0.71
147
0.06
173
     1
176
   256
177
   256
178
     2
274
     4
284
     7
340
27E3
343
2857
371
    -1
372
    -1
1001
ACAD_DSTYLE_DIMARC_LENGTH_SYMBOL
1070
   379
1070
     1
1001
ACAD_DSTYLE_DIM_LINETYPE
1070
   380
1005
27E8
1001
ACAD_DSTYLE_DIM_EXT1_LINETYPE
1070
   381
1005
27E8
1001
ACAD_DSTYLE_DIM_EXT2_LINETYPE
1070
   382
1005
27E8
  0
DIMSTYLE
105
2838
330
2790
100
AcDbSymbolTableRecord
100
AcDbDimStyleTableRecord
  2
STANDARD1
 70
     0
 40
6.0
 41
2.5
 42
0.625
 43
6.0
 44
1.25
 47
1.0
 48
0.5
 77
     1
 78
     8
140
2.5
141
0.0
146
0.6
147
1.0
173
     1
275
     1
279
     2
284
     7
285
     7
286
     7
340
27E3
  0
DIMSTYLE
105
2839
330
2790
100
AcDbSymbolTableRecord
100
AcDbDimStyleTableRecord
  2
STANDARD$0
 70
     0
 41
12.0
 42
20.0
 44
20.0
 73
     0
 74
     0
 77
     1
 78
     8
140
64.0
141
0.0
147
10.0
275
     1
279
     2
284
     7
285
     7
286
     7
340
27E3
  0
ENDTAB
  0
TABLE
  2
BLOCK_RECORD
  5
2787
330
0
100
AcDbSymbolTable
 70
    79
  0
BLOCK_RECORD
  5
27FA
102
{ACAD_XDICTIONARY
360
29CE
102
}
330
2787
100
AcDbSymbolTableRecord
100
AcDbBlockTableRecord
  2
*Model_Space
340
27FD
  0
BLOCK_RECORD
  5
27F6
330
2787
100
AcDbSymbolTableRecord
100
AcDbBlockTableRecord
  2
*Paper_Space
340
27F9
  0
BLOCK_RECORD
  5
2841
330
2787
100
AcDbSymbolTableRecord
100
AcDbBlockTableRecord
  2
$MODEL_SPACE
340
0
  0
BLOCK_RECORD
  5
2843
330
2787
100
AcDbSymbolTableRecord
100
AcDbBlockTableRecord
  2
$PAPER_SPACE
340
0
  0
BLOCK_RECORD
  5
2845
330
2787
100
AcDbSymbolTableRecord
100
AcDbBlockTableRecord
  2
_ORIGIN
340
0
  0
BLOCK_RECORD
  5
2847
330
2787
100
AcDbSymbolTableRecord
100
AcDbBlockTableRecord
  2
_DOTBLANK
340
0
102
{BLKREFS
331
1299
331
129A
331
11AA
331
11AB
331
E80
331
E81
331
1123
331
1124
331
11C2
331
11C3
331
11EC
331
11ED
331
11F9
331
11FA
331
1287
331
1288
331
1417
331
1418
331
1423
331
1424
331
142F
331
1430
331
143B
331
143C
331
166E
331
166F
331
1677
331
1678
331
1680
331
1681
331
1689
331
168A
331
1696
331
1697
331
16A3
331
16A4
331
16AF
331
16B0
331
16BB
331
16BC
331
16C7
331
16C8
331
16D3
331
16D4
331
1D86
331
1D87
331
1D8F
331
1D90
331
1D98
331
1D99
331
1DA1
331
1DA2
331
1DAB
331
1DAC
331
1DB5
331
1DB6
331
2724
331
2725
331
2729
331
272A
331
272F
331
2730
331
2735
331
2736
331
273A
331
273B
331
273F
331
2740
102
}
  0
BLOCK_RECORD
  5
2849
330
2787
100
AcDbSymbolTableRecord
100
AcDbBlockTableRecord
  2
_OPEN30
340
0
102
{BLKREFS
331
2087
331
215B
331
223E
331
2337
331
2468
331
259D
102
}
  0
BLOCK_RECORD
  5
284B
330
2787
100
AcDbSymbolTableRecord
100
AcDbBlockTableRecord
  2
*D5
340
0
  0
BLOCK_RECORD
  5
284D
330
2787
100
AcDbSymbolTableRecord
100
AcDbBlockTableRecord
  2
*U6
340
0
102
{BLKREFS
331
129B
102
}
  0
BLOCK_RECORD
  5
284F
330
2787
100
AcDbSymbolTableRecord
100
AcDbBlockTableRecord
  2
*D7
340
0
  0
BLOCK_RECORD
  5
2851
330
2787
100
AcDbSymbolTableRecord
100
AcDbBlockTableRecord
  2
*U8
340
0
102
{BLKREFS
331
11AC
102
}
  0
BLOCK_RECORD
  5
2853
330
2787
100
AcDbSymbolTableRecord
100
AcDbBlockTableRecord
  2
*D9
340
0
  0
BLOCK_RECORD
  5
2855
330
2787
100
AcDbSymbolTableRecord
100
AcDbBlockTableRecord
  2
*U10
340
0
102
{BLKREFS
331
E82
102
}
  0
BLOCK_RECORD
  5
2857
330
2787
100
AcDbSymbolTableRecord
100
AcDbBlockTableRecord
  2
GENAXEH
340
0
  0
BLOCK_RECORD
  5
2859
330
2787
100
AcDbSymbolTableRecord
100
AcDbBlockTableRecord
  2
*D12
340
0
  0
BLOCK_RECORD
  5
285B
330
2787
100
AcDbSymbolTableRecord
100
AcDbBlockTableRecord
  2
*U13
340
0
102
{BLKREFS
331
1125
102
}
  0
BLOCK_RECORD
  5
285D
330
2787
100
AcDbSymbolTableRecord
100
AcDbBlockTableRecord
  2
*D14
340
0
  0
BLOCK_RECORD
  5
285F
330
2787
100
AcDbSymbolTableRecord
100
AcDbBlockTableRecord
  2
*U15
340
0
102
{BLKREFS
331
11C4
102
}
  0
BLOCK_RECORD
  5
2861
330
2787
100
AcDbSymbolTableRecord
100
AcDbBlockTableRecord
  2
*D16
340
0
  0
BLOCK_RECORD
  5
2863
330
2787
100
AcDbSymbolTableRecord
100
AcDbBlockTableRecord
  2
*U17
340
0
102
{BLKREFS
331
11EE
102
}
  0
BLOCK_RECORD
  5
2865
330
2787
100
AcDbSymbolTableRecord
100
AcDbBlockTableRecord
  2
*D18
340
0
  0
BLOCK_RECORD
  5
2867
330
2787
100
AcDbSymbolTableRecord
100
AcDbBlockTableRecord
  2
*U19
340
0
102
{BLKREFS
331
11FB
102
}
  0
BLOCK_RECORD
  5
2869
330
2787
100
AcDbSymbolTableRecord
100
AcDbBlockTableRecord
  2
*D20
340
0
  0
BLOCK_RECORD
  5
286B
330
2787
100
AcDbSymbolTableRecord
100
AcDbBlockTableRecord
  2
*U21
340
0
102
{BLKREFS
331
1289
102
}
  0
BLOCK_RECORD
  5
286D
330
2787
100
AcDbSymbolTableRecord
100
AcDbBlockTableRecord
  2
*D22
340
0
  0
BLOCK_RECORD
  5
286F
330
2787
100
AcDbSymbolTableRecord
100
AcDbBlockTableRecord
  2
*U23
340
0
102
{BLKREFS
331
1419
102
}
  0
BLOCK_RECORD
  5
2871
330
2787
100
AcDbSymbolTableRecord
100
AcDbBlockTableRecord
  2
*D24
340
0
  0
BLOCK_RECORD
  5
2873
330
2787
100
AcDbSymbolTableRecord
100
AcDbBlockTableRecord
  2
*U25
340
0
102
{BLKREFS
331
1425
102
}
  0
BLOCK_RECORD
  5
2875
330
2787
100
AcDbSymbolTableRecord
100
AcDbBlockTableRecord
  2
*D26
340
0
  0
BLOCK_RECORD
  5
2877
330
2787
100
AcDbSymbolTableRecord
100
AcDbBlockTableRecord
  2
*U27
340
0
102
{BLKREFS
331
1431
102
}
  0
BLOCK_RECORD
  5
2879
330
2787
100
AcDbSymbolTableRecord
100
AcDbBlockTableRecord
  2
*D28
340
0
  0
BLOCK_RECORD
  5
287B
330
2787
100
AcDbSymbolTableRecord
100
AcDbBlockTableRecord
  2
*U29
340
0
102
{BLKREFS
331
143D
102
}
  0
BLOCK_RECORD
  5
287D
330
2787
100
AcDbSymbolTableRecord
100
AcDbBlockTableRecord
  2
*D30
340
0
  0
BLOCK_RECORD
  5
287F
330
2787
100
AcDbSymbolTableRecord
100
AcDbBlockTableRecord
  2
*U31
340
0
102
{BLKREFS
331
1670
102
}
  0
BLOCK_RECORD
  5
2881
330
2787
100
AcDbSymbolTableRecord
100
AcDbBlockTableRecord
  2
*D32
340
0
  0
BLOCK_RECORD
  5
2883
330
2787
100
AcDbSymbolTableRecord
100
AcDbBlockTableRecord
  2
*U33
340
0
102
{BLKREFS
331
1679
102
}
  0
BLOCK_RECORD
  5
2885
330
2787
100
AcDbSymbolTableRecord
100
AcDbBlockTableRecord
  2
*D34
340
0
  0
BLOCK_RECORD
  5
2887
330
2787
100
AcDbSymbolTableRecord
100
AcDbBlockTableRecord
  2
*U35
340
0
102
{BLKREFS
331
1682
102
}
  0
BLOCK_RECORD
  5
2889
330
2787
100
AcDbSymbolTableRecord
100
AcDbBlockTableRecord
  2
*D36
340
0
  0
BLOCK_RECORD
  5
288B
330
2787
100
AcDbSymbolTableRecord
100
AcDbBlockTableRecord
  2
*U37
340
0
102
{BLKREFS
331
168B
102
}
  0
BLOCK_RECORD
  5
288D
330
2787
100
AcDbSymbolTableRecord
100
AcDbBlockTableRecord
  2
*U38
340
0
  0
BLOCK_RECORD
  5
288F
330
2787
100
AcDbSymbolTableRecord
100
AcDbBlockTableRecord
  2
*D39
340
0
  0
BLOCK_RECORD
  5
2891
330
2787
100
AcDbSymbolTableRecord
100
AcDbBlockTableRecord
  2
*U40
340
0
102
{BLKREFS
331
1698
102
}
  0
BLOCK_RECORD
  5
2893
330
2787
100
AcDbSymbolTableRecord
100
AcDbBlockTableRecord
  2
*D41
340
0
  0
BLOCK_RECORD
  5
2895
330
2787
100
AcDbSymbolTableRecord
100
AcDbBlockTableRecord
  2
*U42
340
0
102
{BLKREFS
331
16A5
102
}
  0
BLOCK_RECORD
  5
2897
330
2787
100
AcDbSymbolTableRecord
100
AcDbBlockTableRecord
  2
*D43
340
0
  0
BLOCK_RECORD
  5
2899
330
2787
100
AcDbSymbolTableRecord
100
AcDbBlockTableRecord
  2
*U44
340
0
102
{BLKREFS
331
16B1
102
}
  0
BLOCK_RECORD
  5
289B
330
2787
100
AcDbSymbolTableRecord
100
AcDbBlockTableRecord
  2
*D45
340
0
  0
BLOCK_RECORD
  5
289D
330
2787
100
AcDbSymbolTableRecord
100
AcDbBlockTableRecord
  2
*U46
340
0
102
{BLKREFS
331
16BD
102
}
  0
BLOCK_RECORD
  5
289F
330
2787
100
AcDbSymbolTableRecord
100
AcDbBlockTableRecord
  2
*D47
340
0
  0
BLOCK_RECORD
  5
28A1
330
2787
100
AcDbSymbolTableRecord
100
AcDbBlockTableRecord
  2
*U48
340
0
102
{BLKREFS
331
16C9
102
}
  0
BLOCK_RECORD
  5
28A3
330
2787
100
AcDbSymbolTableRecord
100
AcDbBlockTableRecord
  2
*D49
340
0
  0
BLOCK_RECORD
  5
28A5
330
2787
100
AcDbSymbolTableRecord
100
AcDbBlockTableRecord
  2
*U50
340
0
102
{BLKREFS
331
16D5
102
}
  0
BLOCK_RECORD
  5
28A7
330
2787
100
AcDbSymbolTableRecord
100
AcDbBlockTableRecord
  2
*D51
340
0
  0
BLOCK_RECORD
  5
28A9
330
2787
100
AcDbSymbolTableRecord
100
AcDbBlockTableRecord
  2
*U52
340
0
102
{BLKREFS
331
1D88
102
}
  0
BLOCK_RECORD
  5
28AB
330
2787
100
AcDbSymbolTableRecord
100
AcDbBlockTableRecord
  2
*D53
340
0
  0
BLOCK_RECORD
  5
28AD
330
2787
100
AcDbSymbolTableRecord
100
AcDbBlockTableRecord
  2
*U54
340
0
102
{BLKREFS
331
1D91
102
}
  0
BLOCK_RECORD
  5
28AF
330
2787
100
AcDbSymbolTableRecord
100
AcDbBlockTableRecord
  2
*D55
340
0
  0
BLOCK_RECORD
  5
28B1
330
2787
100
AcDbSymbolTableRecord
100
AcDbBlockTableRecord
  2
*U56
340
0
102
{BLKREFS
331
1D9A
102
}
  0
BLOCK_RECORD
  5
28B3
330
2787
100
AcDbSymbolTableRecord
100
AcDbBlockTableRecord
  2
*D57
340
0
  0
BLOCK_RECORD
  5
28B5
330
2787
100
AcDbSymbolTableRecord
100
AcDbBlockTableRecord
  2
*U58
340
0
102
{BLKREFS
331
1DA3
102
}
  0
BLOCK_RECORD
  5
28B7
330
2787
100
AcDbSymbolTableRecord
100
AcDbBlockTableRecord
  2
*D59
340
0
  0
BLOCK_RECORD
  5
28B9
330
2787
100
AcDbSymbolTableRecord
100
AcDbBlockTableRecord
  2
*U60
340
0
102
{BLKREFS
331
1DAD
102
}
  0
BLOCK_RECORD
  5
28BB
330
2787
100
AcDbSymbolTableRecord
100
AcDbBlockTableRecord
  2
*D61
340
0
  0
BLOCK_RECORD
  5
28BD
330
2787
100
AcDbSymbolTableRecord
100
AcDbBlockTableRecord
  2
*U62
340
0
102
{BLKREFS
331
1DB7
102
}
  0
BLOCK_RECORD
  5
28BF
330
2787
100
AcDbSymbolTableRecord
100
AcDbBlockTableRecord
  2
*U63
340
0
  0
BLOCK_RECORD
  5
28C1
330
2787
100
AcDbSymbolTableRecord
100
AcDbBlockTableRecord
  2
*U64
340
0
  0
BLOCK_RECORD
  5
28C3
330
2787
100
AcDbSymbolTableRecord
100
AcDbBlockTableRecord
  2
*U65
340
0
  0
BLOCK_RECORD
  5
28C5
330
2787
100
AcDbSymbolTableRecord
100
AcDbBlockTableRecord
  2
*U66
340
0
  0
BLOCK_RECORD
  5
28C7
330
2787
100
AcDbSymbolTableRecord
100
AcDbBlockTableRecord
  2
*U67
340
0
  0
BLOCK_RECORD
  5
28C9
330
2787
100
AcDbSymbolTableRecord
100
AcDbBlockTableRecord
  2
*U68
340
0
  0
BLOCK_RECORD
  5
28CB
330
2787
100
AcDbSymbolTableRecord
100
AcDbBlockTableRecord
  2
*U69
340
0
  0
BLOCK_RECORD
  5
28CD
330
2787
100
AcDbSymbolTableRecord
100
AcDbBlockTableRecord
  2
*U70
340
0
  0
BLOCK_RECORD
  5
28CF
330
2787
100
AcDbSymbolTableRecord
100
AcDbBlockTableRecord
  2
*U71
340
0
  0
BLOCK_RECORD
  5
28D1
330
2787
100
AcDbSymbolTableRecord
100
AcDbBlockTableRecord
  2
*U72
340
0
  0
BLOCK_RECORD
  5
28D3
330
2787
100
AcDbSymbolTableRecord
100
AcDbBlockTableRecord
  2
*U73
340
0
  0
BLOCK_RECORD
  5
28D5
330
2787
100
AcDbSymbolTableRecord
100
AcDbBlockTableRecord
  2
*U74
340
0
102
{BLKREFS
331
2707
102
}
  0
BLOCK_RECORD
  5
28D7
330
2787
100
AcDbSymbolTableRecord
100
AcDbBlockTableRecord
  2
*U75
340
0
102
{BLKREFS
331
2708
102
}
  0
BLOCK_RECORD
  5
28D9
330
2787
100
AcDbSymbolTableRecord
100
AcDbBlockTableRecord
  2
*X76
340
0
102
{BLKREFS
331
271B
102
}
  0
BLOCK_RECORD
  5
28DB
330
2787
100
AcDbSymbolTableRecord
100
AcDbBlockTableRecord
  2
*X77
340
0
102
{BLKREFS
331
271C
102
}
  0
ENDTAB
  0
ENDSEC
  0
SECTION
  2
BLOCKS
  0
BLOCK
  5
27FB
330
27FA
100
AcDbEntity
  8
0
100
AcDbBlockBegin
  2
*Model_Space
 70
     0
 10
0.0
 20
0.0
 30
0.0
  3
*Model_Space
  1

  0
ENDBLK
  5
27FC
330
27FA
100
AcDbEntity
  8
0
100
AcDbBlockEnd
  0
BLOCK
  5
27F7
330
27F6
100
AcDbEntity
 67
     1
  8
0
100
AcDbBlockBegin
  2
*Paper_Space
 70
     0
 10
0.0
 20
0.0
 30
0.0
  3
*Paper_Space
  1

  0
ENDBLK
  5
27F8
330
27F6
100
AcDbEntity
 67
     1
  8
0
100
AcDbBlockEnd
  0
BLOCK
  5
2842
330
2841
100
AcDbEntity
  8
0
100
AcDbBlockBegin
  2
$MODEL_SPACE
 70
     0
 10
0.0
 20
0.0
 30
0.0
  3
$MODEL_SPACE
  1

  0
ENDBLK
  5
1FC1
330
2841
100
AcDbEntity
  8
0
100
AcDbBlockEnd
  0
BLOCK
  5
2844
330
2843
100
AcDbEntity
  8
0
100
AcDbBlockBegin
  2
$PAPER_SPACE
 70
     0
 10
0.0
 20
0.0
 30
0.0
  3
$PAPER_SPACE
  1

  0
ENDBLK
  5
1FBD
330
2843
100
AcDbEntity
  8
0
100
AcDbBlockEnd
  0
BLOCK
  5
2846
330
2845
100
AcDbEntity
  8
0
100
AcDbBlockBegin
  2
_ORIGIN
 70
     0
 10
0.0
 20
0.0
 30
0.0
  3
_ORIGIN
  1

  0
CIRCLE
  5
880
330
2845
100
AcDbEntity
  8
0
  6
Continuous
 62
     7
100
AcDbCircle
 10
0.0
 20
0.0
 30
0.0
 40
0.5
  0
LINE
  5
881
330
2845
100
AcDbEntity
  8
0
  6
Continuous
 62
     7
100
AcDbLine
 10
0.0
 20
0.0
 30
0.0
 11
-1.0
 21
0.0
 31
0.0
  0
ENDBLK
  5
882
330
2845
100
AcDbEntity
  8
0
100
AcDbBlockEnd
  0
BLOCK
  5
2848
330
2847
100
AcDbEntity
  8
0
 62
     1
100
AcDbBlockBegin
  2
_DOTBLANK
 70
     0
 10
0.0
 20
0.0
 30
0.0
  3
_DOTBLANK
  1

  0
CIRCLE
  5
AB3
330
2847
100
AcDbEntity
  8
0
  6
ByBlock
 62
     0
100
AcDbCircle
 10
0.0
 20
0.0
 30
0.0
 40
0.5
  0
LINE
  5
AB4
330
2847
100
AcDbEntity
  8
0
  6
ByBlock
 62
     0
100
AcDbLine
 10
-0.5
 20
0.0
 30
0.0
 11
-1.0
 21
0.0
 31
0.0
  0
ENDBLK
  5
AB6
330
2847
100
AcDbEntity
  8
0
 62
     1
100
AcDbBlockEnd
  0
BLOCK
  5
284A
330
2849
100
AcDbEntity
  8
0
 62
     1
100
AcDbBlockBegin
  2
_OPEN30
 70
     0
 10
0.0
 20
0.0
 30
0.0
  3
_OPEN30
  1

  0
LINE
  5
AB8
330
2849
100
AcDbEntity
  8
0
  6
ByBlock
 62
     0
100
AcDbLine
 10
-1.0
 20
0.26794919
 30
0.0
 11
0.0
 21
0.0
 31
0.0
  0
LINE
  5
AB9
330
2849
100
AcDbEntity
  8
0
  6
ByBlock
 62
     0
100
AcDbLine
 10
0.0
 20
0.0
 30
0.0
 11
-1.0
 21
-0.26794919
 31
0.0
  0
LINE
  5
ABA
330
2849
100
AcDbEntity
  8
0
  6
ByBlock
 62
     0
100
AcDbLine
 10
0.0
 20
0.0
 30
0.0
 11
-1.0
 21
0.0
 31
0.0
  0
ENDBLK
  5
ABC
330
2849
100
AcDbEntity
  8
0
 62
     1
100
AcDbBlockEnd
  0
BLOCK
  5
284C
330
284B
100
AcDbEntity
  8
0
100
AcDbBlockBegin
  2
*D5
 70
     1
 10
0.0
 20
0.0
 30
0.0
  3
*D5
  1

  0
LINE
  5
1296
330
284B
100
AcDbEntity
  8
SIZE
 62
     0
100
AcDbLine
 10
-134.5
 20
-320.0
 30
0.0
 11
-134.5
 21
-468.0173952306001
 31
0.0
  0
LINE
  5
1297
330
284B
100
AcDbEntity
  8
SIZE
 62
     0
100
AcDbLine
 10
134.5
 20
-320.0
 30
0.0
 11
134.5
 21
-468.0173952306001
 31
0.0
  0
LINE
  5
1298
330
284B
100
AcDbEntity
  8
SIZE
 62
     0
100
AcDbLine
 10
-122.5
 20
-448.0173952306
 30
0.0
 11
122.5
 21
-448.0173952306
 31
0.0
  0
INSERT
  5
1299
330
284B
100
AcDbEntity
  8
SIZE
 62
     0
100
AcDbBlockReference
  2
_DOTBLANK
 10
-134.5
 20
-448.0173952306
 30
0.0
 41
12.0
 42
12.0
 43
12.0
 50
180.0
  0
INSERT
  5
129A
330
284B
100
AcDbEntity
  8
SIZE
 62
     0
100
AcDbBlockReference
  2
_DOTBLANK
 10
134.5
 20
-448.0173952306
 30
0.0
 41
12.0
 42
12.0
 43
12.0
  0
INSERT
  5
129B
330
284B
100
AcDbEntity
  8
0
100
AcDbBlockReference
  2
*U6
 10
0.0
 20
0.0
 30
0.0
  0
POINT
  5
129C
330
284B
100
AcDbEntity
  8
DEFPOINTS
 62
     0
100
AcDbPoint
 10
-134.5
 20
-300.0
 30
0.0
  0
POINT
  5
129D
330
284B
100
AcDbEntity
  8
DEFPOINTS
 62
     0
100
AcDbPoint
 10
134.5
 20
-300.0
 30
0.0
  0
POINT
  5
129E
330
284B
100
AcDbEntity
  8
DEFPOINTS
 62
     0
100
AcDbPoint
 10
134.5
 20
-448.0173952306
 30
0.0
  0
ENDBLK
  5
D72
330
284B
100
AcDbEntity
  8
0
100
AcDbBlockEnd
  0
BLOCK
  5
284E
330
284D
100
AcDbEntity
  8
0
100
AcDbBlockBegin
  2
*U6
 70
     1
 10
0.0
 20
0.0
 30
0.0
  3
*U6
  1

  0
TEXT
  5
1EF5
330
284D
100
AcDbEntity
  8
SIZE
 62
     0
100
AcDbText
 10
-72.68571428571426
 20
-438.0173952305999
 30
0.0
 40
64.0
  1
269
 41
0.9
100
AcDbText
  0
ENDBLK
  5
1EF7
330
284D
100
AcDbEntity
  8
0
100
AcDbBlockEnd
  0
BLOCK
  5
2850
330
284F
100
AcDbEntity
  8
0
100
AcDbBlockBegin
  2
*D7
 70
     1
 10
0.0
 20
0.0
 30
0.0
  3
*D7
  1

  0
LINE
  5
11A7
330
284F
100
AcDbEntity
  8
SIZE
  6
Continuous
 62
     0
100
AcDbLine
 10
143.5
 20
-300.0
 30
0.0
 11
304.6432844803791
 21
-300.0
 31
0.0
  0
LINE
  5
11A8
330
284F
100
AcDbEntity
  8
SIZE
  6
Continuous
 62
     0
100
AcDbLine
 10
177.5
 20
-0.0000000000000057
 30
0.0
 11
304.6432844803792
 21
-0.0000000000000417
 31
0.0
  0
LINE
  5
11A9
330
284F
100
AcDbEntity
  8
SIZE
  6
Continuous
 62
     0
100
AcDbLine
 10
284.6432844803791
 20
-288.0000000000001
 30
0.0
 11
284.6432844803792
 21
-12.00000000000003
 31
0.0
  0
INSERT
  5
11AA
330
284F
100
AcDbEntity
  8
SIZE
  6
Continuous
 62
     0
100
AcDbBlockReference
  2
_DOTBLANK
 10
284.6432844803791
 20
-300.0
 30
0.0
 41
12.0
 42
12.0
 43
12.0
 50
270.0
  0
INSERT
  5
11AB
330
284F
100
AcDbEntity
  8
SIZE
  6
Continuous
 62
     0
100
AcDbBlockReference
  2
_DOTBLANK
 10
284.6432844803792
 20
-0.000000000000036
 30
0.0
 41
12.0
 42
12.0
 43
12.0
 50
90.0
  0
INSERT
  5
11AC
330
284F
100
AcDbEntity
  8
0
100
AcDbBlockReference
  2
*U8
 10
0.0
 20
0.0
 30
0.0
  0
POINT
  5
11AD
330
284F
100
AcDbEntity
  8
DEFPOINTS
  6
Continuous
 62
     0
100
AcDbPoint
 10
123.5
 20
-300.0
 30
0.0
  0
POINT
  5
11AE
330
284F
100
AcDbEntity
  8
DEFPOINTS
  6
Continuous
 62
     0
100
AcDbPoint
 10
157.5
 20
0.0
 30
0.0
  0
POINT
  5
11AF
330
284F
100
AcDbEntity
  8
DEFPOINTS
  6
Continuous
 62
     0
100
AcDbPoint
 10
284.6432844803792
 20
-0.000000000000036
 30
0.0
  0
ENDBLK
  5
E11
330
284F
100
AcDbEntity
  8
0
100
AcDbBlockEnd
  0
BLOCK
  5
2852
330
2851
100
AcDbEntity
  8
0
100
AcDbBlockBegin
  2
*U8
 70
     1
 10
0.0
 20
0.0
 30
0.0
  3
*U8
  1

  0
TEXT
  5
1EE1
330
2851
100
AcDbEntity
  8
SIZE
 62
     0
100
AcDbText
 10
274.6432844803792
 20
-224.0571428571429
 30
0.0
 40
64.0
  1
300
 50
90.0
 41
0.9
100
AcDbText
  0
ENDBLK
  5
1EE3
330
2851
100
AcDbEntity
  8
0
100
AcDbBlockEnd
  0
BLOCK
  5
2854
330
2853
100
AcDbEntity
  8
0
100
AcDbBlockBegin
  2
*D9
 70
     1
 10
0.0
 20
0.0
 30
0.0
  3
*D9
  1

  0
LINE
  5
E7D
330
2853
100
AcDbEntity
  8
SIZE
 62
     0
100
AcDbLine
 10
-139.9999999999998
 20
32.46448280219375
 30
0.0
 11
-139.9999999999998
 21
136.4516878685508
 31
0.0
  0
LINE
  5
E7E
330
2853
100
AcDbEntity
  8
SIZE
 62
     0
100
AcDbLine
 10
140.0
 20
32.46448280219375
 30
0.0
 11
140.0
 21
136.4516878685508
 31
0.0
  0
LINE
  5
E7F
330
2853
100
AcDbEntity
  8
SIZE
 62
     0
100
AcDbLine
 10
-128.0
 20
116.4516878685508
 30
0.0
 11
128.0
 21
116.4516878685508
 31
0.0
  0
INSERT
  5
E80
330
2853
100
AcDbEntity
  8
SIZE
 62
     0
100
AcDbBlockReference
  2
_DOTBLANK
 10
-139.9999999999998
 20
116.4516878685508
 30
0.0
 41
12.0
 42
12.0
 43
12.0
 50
180.0
  0
INSERT
  5
E81
330
2853
100
AcDbEntity
  8
SIZE
 62
     0
100
AcDbBlockReference
  2
_DOTBLANK
 10
140.0
 20
116.4516878685508
 30
0.0
 41
12.0
 42
12.0
 43
12.0
  0
INSERT
  5
E82
330
2853
100
AcDbEntity
  8
0
100
AcDbBlockReference
  2
*U10
 10
0.0
 20
0.0
 30
0.0
  0
POINT
  5
E83
330
2853
100
AcDbEntity
  8
DEFPOINTS
 62
     0
100
AcDbPoint
 10
-139.9999999999998
 20
12.46448280219374
 30
0.0
  0
POINT
  5
E84
330
2853
100
AcDbEntity
  8
DEFPOINTS
 62
     0
100
AcDbPoint
 10
140.0
 20
12.46448280219374
 30
0.0
  0
POINT
  5
E85
330
2853
100
AcDbEntity
  8
DEFPOINTS
 62
     0
100
AcDbPoint
 10
140.0
 20
116.4516878685508
 30
0.0
  0
ENDBLK
  5
E7C
330
2853
100
AcDbEntity
  8
0
100
AcDbBlockEnd
  0
BLOCK
  5
2856
330
2855
100
AcDbEntity
  8
0
100
AcDbBlockBegin
  2
*U10
 70
     1
 10
0.0
 20
0.0
 30
0.0
  3
*U10
  1

  0
TEXT
  5
1ED8
330
2855
100
AcDbEntity
  8
SIZE
 62
     0
100
AcDbText
 10
-74.05714285714281
 20
126.4516878685508
 30
0.0
 40
64.0
  1
280
 41
0.9
100
AcDbText
  0
ENDBLK
  5
1EDA
330
2855
100
AcDbEntity
  8
0
100
AcDbBlockEnd
  0
BLOCK
  5
2858
330
2857
100
AcDbEntity
  8
0
100
AcDbBlockBegin
  2
GENAXEH
 70
     0
 10
0.0
 20
0.0
 30
0.0
  3
GENAXEH
  1

  0
LINE
  5
FDB
330
2857
100
AcDbEntity
  8
0
100
AcDbLine
 10
-1.0
 20
0.0
 30
0.0
 11
1.0
 21
0.0
 31
0.0
  0
ENDBLK
  5
FDD
330
2857
100
AcDbEntity
  8
0
100
AcDbBlockEnd
  0
BLOCK
  5
285A
330
2859
100
AcDbEntity
  8
0
100
AcDbBlockBegin
  2
*D12
 70
     1
 10
0.0
 20
0.0
 30
0.0
  3
*D12
  1

  0
LINE
  5
1120
330
2859
100
AcDbEntity
  8
SIZE
 62
     0
100
AcDbLine
 10
-157.5
 20
20.0
 30
0.0
 11
-157.5
 21
245.5794621189598
 31
0.0
  0
LINE
  5
1121
330
2859
100
AcDbEntity
  8
SIZE
 62
     0
100
AcDbLine
 10
157.5
 20
20.0
 30
0.0
 11
157.5
 21
245.5794621189598
 31
0.0
  0
LINE
  5
1122
330
2859
100
AcDbEntity
  8
SIZE
 62
     0
100
AcDbLine
 10
-145.5
 20
225.5794621189598
 30
0.0
 11
145.5
 21
225.5794621189598
 31
0.0
  0
INSERT
  5
1123
330
2859
100
AcDbEntity
  8
SIZE
 62
     0
100
AcDbBlockReference
  2
_DOTBLANK
 10
-157.5
 20
225.5794621189598
 30
0.0
 41
12.0
 42
12.0
 43
12.0
 50
180.0
  0
INSERT
  5
1124
330
2859
100
AcDbEntity
  8
SIZE
 62
     0
100
AcDbBlockReference
  2
_DOTBLANK
 10
157.5
 20
225.5794621189598
 30
0.0
 41
12.0
 42
12.0
 43
12.0
  0
INSERT
  5
1125
330
2859
100
AcDbEntity
  8
0
100
AcDbBlockReference
  2
*U13
 10
0.0
 20
0.0
 30
0.0
  0
POINT
  5
1126
330
2859
100
AcDbEntity
  8
DEFPOINTS
 62
     0
100
AcDbPoint
 10
-157.5
 20
0.0
 30
0.0
  0
POINT
  5
1127
330
2859
100
AcDbEntity
  8
DEFPOINTS
 62
     0
100
AcDbPoint
 10
157.5
 20
0.0
 30
0.0
  0
POINT
  5
1128
330
2859
100
AcDbEntity
  8
DEFPOINTS
 62
     0
100
AcDbPoint
 10
157.5
 20
225.5794621189598
 30
0.0
  0
ENDBLK
  5
111F
330
2859
100
AcDbEntity
  8
0
100
AcDbBlockEnd
  0
BLOCK
  5
285C
330
285B
100
AcDbEntity
  8
0
100
AcDbBlockBegin
  2
*U13
 70
     1
 10
0.0
 20
0.0
 30
0.0
  3
*U13
  1

  0
TEXT
  5
1EDD
330
285B
100
AcDbEntity
  8
SIZE
 62
     0
100
AcDbText
 10
-68.57142857142857
 20
235.5794621189599
 30
0.0
 40
64.0
  1
315
 41
0.9
100
AcDbText
  0
ENDBLK
  5
1EDF
330
285B
100
AcDbEntity
  8
0
100
AcDbBlockEnd
  0
BLOCK
  5
285E
330
285D
100
AcDbEntity
  8
0
100
AcDbBlockBegin
  2
*D14
 70
     1
 10
0.0
 20
0.0
 30
0.0
  3
*D14
  1

  0
LINE
  5
11BD
330
285D
100
AcDbEntity
  8
NOTE
 62
     0
100
AcDbLine
 10
-123.4999999999999
 20
-320.0
 30
0.0
 11
-123.4999999999999
 21
-354.9529861856111
 31
0.0
  0
LINE
  5
11BE
330
285D
100
AcDbEntity
  8
NOTE
 62
     0
100
AcDbLine
 10
-133.4999999999998
 20
-331.2126909923287
 30
0.0
 11
-133.4999999999998
 21
-354.9529861856111
 31
0.0
  0
LINE
  5
11BF
330
285D
100
AcDbEntity
  8
NOTE
 62
     0
100
AcDbLine
 10
-111.4999999999999
 20
-334.9529861856112
 30
0.0
 11
-99.4999999999999
 21
-334.9529861856112
 31
0.0
  0
LINE
  5
11C0
330
285D
100
AcDbEntity
  8
NOTE
 62
     0
100
AcDbLine
 10
-145.4999999999998
 20
-334.9529861856112
 30
0.0
 11
-157.4999999999998
 21
-334.9529861856112
 31
0.0
  0
LINE
  5
11C1
330
285D
100
AcDbEntity
  8
NOTE
 62
     0
100
AcDbLine
 10
-123.4999999999999
 20
-334.9529861856112
 30
0.0
 11
-133.4999999999998
 21
-334.9529861856112
 31
0.0
  0
INSERT
  5
11C2
330
285D
100
AcDbEntity
  8
NOTE
 62
     0
100
AcDbBlockReference
  2
_DOTBLANK
 10
-123.4999999999999
 20
-334.9529861856112
 30
0.0
 41
12.0
 42
12.0
 43
12.0
 50
180.0
  0
INSERT
  5
11C3
330
285D
100
AcDbEntity
  8
NOTE
 62
     0
100
AcDbBlockReference
  2
_DOTBLANK
 10
-133.4999999999998
 20
-334.9529861856112
 30
0.0
 41
12.0
 42
12.0
 43
12.0
  0
INSERT
  5
11C4
330
285D
100
AcDbEntity
  8
0
100
AcDbBlockReference
  2
*U15
 10
0.0
 20
0.0
 30
0.0
  0
POINT
  5
11C5
330
285D
100
AcDbEntity
  8
DEFPOINTS
 62
     0
100
AcDbPoint
 10
-123.4999999999999
 20
-300.0
 30
0.0
  0
POINT
  5
11C6
330
285D
100
AcDbEntity
  8
DEFPOINTS
 62
     0
100
AcDbPoint
 10
-133.4999999999998
 20
-311.2126909923287
 30
0.0
  0
POINT
  5
11C7
330
285D
100
AcDbEntity
  8
DEFPOINTS
 62
     0
100
AcDbPoint
 10
-133.4999999999998
 20
-334.9529861856112
 30
0.0
  0
ENDBLK
  5
11BC
330
285D
100
AcDbEntity
  8
0
100
AcDbBlockEnd
  0
BLOCK
  5
2860
330
285F
100
AcDbEntity
  8
0
100
AcDbBlockBegin
  2
*U15
 70
     1
 10
0.0
 20
0.0
 30
0.0
  3
*U15
  1

  0
TEXT
  5
1EE5
330
285F
100
AcDbEntity
  8
NOTE
 62
     0
100
AcDbText
 10
-169.642857142857
 20
-324.9529861856112
 30
0.0
 40
64.0
  1
10
 41
0.9
100
AcDbText
  0
ENDBLK
  5
1EE7
330
285F
100
AcDbEntity
  8
0
100
AcDbBlockEnd
  0
BLOCK
  5
2862
330
2861
100
AcDbEntity
  8
0
100
AcDbBlockBegin
  2
*D16
 70
     1
 10
0.0
 20
0.0
 30
0.0
  3
*D16
  1

  0
LINE
  5
11E7
330
2861
100
AcDbEntity
  8
NOTE
 62
     0
100
AcDbLine
 10
-135.5
 20
-333.2126909923287
 30
0.0
 11
-135.5
 21
-386.2569421441843
 31
0.0
  0
LINE
  5
11E8
330
2861
100
AcDbEntity
  8
NOTE
 62
     0
100
AcDbLine
 10
-123.4999999999999
 20
-320.0
 30
0.0
 11
-123.4999999999999
 21
-386.2569421441843
 31
0.0
  0
LINE
  5
11E9
330
2861
100
AcDbEntity
  8
NOTE
 62
     0
100
AcDbLine
 10
-147.5
 20
-366.2569421441844
 30
0.0
 11
-159.5
 21
-366.2569421441844
 31
0.0
  0
LINE
  5
11EA
330
2861
100
AcDbEntity
  8
NOTE
 62
     0
100
AcDbLine
 10
-111.4999999999999
 20
-366.2569421441844
 30
0.0
 11
-99.4999999999999
 21
-366.2569421441844
 31
0.0
  0
LINE
  5
11EB
330
2861
100
AcDbEntity
  8
NOTE
 62
     0
100
AcDbLine
 10
-135.5
 20
-366.2569421441844
 30
0.0
 11
-123.4999999999999
 21
-366.2569421441844
 31
0.0
  0
INSERT
  5
11EC
330
2861
100
AcDbEntity
  8
NOTE
 62
     0
100
AcDbBlockReference
  2
_DOTBLANK
 10
-135.5
 20
-366.2569421441844
 30
0.0
 41
12.0
 42
12.0
 43
12.0
  0
INSERT
  5
11ED
330
2861
100
AcDbEntity
  8
NOTE
 62
     0
100
AcDbBlockReference
  2
_DOTBLANK
 10
-123.4999999999999
 20
-366.2569421441844
 30
0.0
 41
12.0
 42
12.0
 43
12.0
 50
180.0
  0
INSERT
  5
11EE
330
2861
100
AcDbEntity
  8
0
100
AcDbBlockReference
  2
*U17
 10
0.0
 20
0.0
 30
0.0
  0
POINT
  5
11EF
330
2861
100
AcDbEntity
  8
DEFPOINTS
 62
     0
100
AcDbPoint
 10
-135.5
 20
-313.2126909923287
 30
0.0
  0
POINT
  5
11F0
330
2861
100
AcDbEntity
  8
DEFPOINTS
 62
     0
100
AcDbPoint
 10
-123.4999999999999
 20
-300.0
 30
0.0
  0
POINT
  5
11F1
330
2861
100
AcDbEntity
  8
DEFPOINTS
 62
     0
100
AcDbPoint
 10
-123.4999999999999
 20
-366.2569421441844
 30
0.0
  0
ENDBLK
  5
11E6
330
2861
100
AcDbEntity
  8
0
100
AcDbBlockEnd
  0
BLOCK
  5
2864
330
2863
100
AcDbEntity
  8
0
100
AcDbBlockBegin
  2
*U17
 70
     1
 10
0.0
 20
0.0
 30
0.0
  3
*U17
  1

  0
TEXT
  5
1EE9
330
2863
100
AcDbEntity
  8
NOTE
 62
     0
100
AcDbText
 10
-170.642857142857
 20
-356.2569421441843
 30
0.0
 40
64.0
  1
12
 41
0.9
100
AcDbText
  0
ENDBLK
  5
1EEB
330
2863
100
AcDbEntity
  8
0
100
AcDbBlockEnd
  0
BLOCK
  5
2866
330
2865
100
AcDbEntity
  8
0
100
AcDbBlockBegin
  2
*D18
 70
     1
 10
0.0
 20
0.0
 30
0.0
  3
*D18
  1

  0
LINE
  5
11F6
330
2865
100
AcDbEntity
  8
NOTE
 62
     0
100
AcDbLine
 10
-123.4999999999999
 20
-320.0
 30
0.0
 11
-123.4999999999999
 21
-583.8286022818904
 31
0.0
  0
LINE
  5
11F7
330
2865
100
AcDbEntity
  8
NOTE
 62
     0
100
AcDbLine
 10
123.5
 20
-320.0
 30
0.0
 11
123.5
 21
-583.8286022818904
 31
0.0
  0
LINE
  5
11F8
330
2865
100
AcDbEntity
  8
NOTE
 62
     0
100
AcDbLine
 10
-111.4999999999999
 20
-563.8286022818904
 30
0.0
 11
111.5
 21
-563.8286022818904
 31
0.0
  0
INSERT
  5
11F9
330
2865
100
AcDbEntity
  8
NOTE
 62
     0
100
AcDbBlockReference
  2
_DOTBLANK
 10
-123.4999999999999
 20
-563.8286022818904
 30
0.0
 41
12.0
 42
12.0
 43
12.0
 50
180.0
  0
INSERT
  5
11FA
330
2865
100
AcDbEntity
  8
NOTE
 62
     0
100
AcDbBlockReference
  2
_DOTBLANK
 10
123.5
 20
-563.8286022818904
 30
0.0
 41
12.0
 42
12.0
 43
12.0
  0
INSERT
  5
11FB
330
2865
100
AcDbEntity
  8
0
100
AcDbBlockReference
  2
*U19
 10
0.0
 20
0.0
 30
0.0
  0
POINT
  5
11FC
330
2865
100
AcDbEntity
  8
DEFPOINTS
 62
     0
100
AcDbPoint
 10
-123.4999999999999
 20
-300.0
 30
0.0
  0
POINT
  5
11FD
330
2865
100
AcDbEntity
  8
DEFPOINTS
 62
     0
100
AcDbPoint
 10
123.5
 20
-300.0
 30
0.0
  0
POINT
  5
11FE
330
2865
100
AcDbEntity
  8
DEFPOINTS
 62
     0
100
AcDbPoint
 10
123.5
 20
-563.8286022818904
 30
0.0
  0
ENDBLK
  5
11F5
330
2865
100
AcDbEntity
  8
0
100
AcDbBlockEnd
  0
BLOCK
  5
2868
330
2867
100
AcDbEntity
  8
0
100
AcDbBlockBegin
  2
*U19
 70
     1
 10
0.0
 20
0.0
 30
0.0
  3
*U19
  1

  0
TEXT
  5
1EED
330
2867
100
AcDbEntity
  8
NOTE
 62
     0
100
AcDbText
 10
-74.05714285714281
 20
-553.8286022818904
 30
0.0
 40
64.0
  1
247
 41
0.9
100
AcDbText
  0
ENDBLK
  5
1EEF
330
2867
100
AcDbEntity
  8
0
100
AcDbBlockEnd
  0
BLOCK
  5
286A
330
2869
100
AcDbEntity
  8
0
100
AcDbBlockBegin
  2
*D20
 70
     1
 10
0.0
 20
0.0
 30
0.0
  3
*D20
  1

  0
LINE
  5
1284
330
2869
100
AcDbEntity
  8
NOTE
 62
     0
100
AcDbLine
 10
-123.5
 20
12.0
 30
0.0
 11
-123.5
 21
71.83630134534229
 31
0.0
  0
LINE
  5
1285
330
2869
100
AcDbEntity
  8
NOTE
 62
     0
100
AcDbLine
 10
123.5
 20
12.0
 30
0.0
 11
123.5
 21
71.83630134534229
 31
0.0
  0
LINE
  5
1286
330
2869
100
AcDbEntity
  8
NOTE
 62
     0
100
AcDbLine
 10
-111.5
 20
51.83630134534229
 30
0.0
 11
111.5
 21
51.83630134534229
 31
0.0
  0
INSERT
  5
1287
330
2869
100
AcDbEntity
  8
NOTE
 62
     0
100
AcDbBlockReference
  2
_DOTBLANK
 10
-123.5
 20
51.83630134534229
 30
0.0
 41
12.0
 42
12.0
 43
12.0
 50
180.0
  0
INSERT
  5
1288
330
2869
100
AcDbEntity
  8
NOTE
 62
     0
100
AcDbBlockReference
  2
_DOTBLANK
 10
123.5
 20
51.83630134534229
 30
0.0
 41
12.0
 42
12.0
 43
12.0
  0
INSERT
  5
1289
330
2869
100
AcDbEntity
  8
0
100
AcDbBlockReference
  2
*U21
 10
0.0
 20
0.0
 30
0.0
  0
POINT
  5
128A
330
2869
100
AcDbEntity
  8
DEFPOINTS
 62
     0
100
AcDbPoint
 10
-123.5
 20
-8.0
 30
0.0
  0
POINT
  5
128B
330
2869
100
AcDbEntity
  8
DEFPOINTS
 62
     0
100
AcDbPoint
 10
123.5
 20
-8.0
 30
0.0
  0
POINT
  5
128C
330
2869
100
AcDbEntity
  8
DEFPOINTS
 62
     0
100
AcDbPoint
 10
123.5
 20
51.83630134534229
 30
0.0
  0
ENDBLK
  5
1283
330
2869
100
AcDbEntity
  8
0
100
AcDbBlockEnd
  0
BLOCK
  5
286C
330
286B
100
AcDbEntity
  8
0
100
AcDbBlockBegin
  2
*U21
 70
     1
 10
0.0
 20
0.0
 30
0.0
  3
*U21
  1

  0
TEXT
  5
1EF1
330
286B
100
AcDbEntity
  8
NOTE
 62
     0
100
AcDbText
 10
-74.05714285714283
 20
61.83630134534229
 30
0.0
 40
64.0
  1
247
 41
0.9
100
AcDbText
  0
ENDBLK
  5
1EF3
330
286B
100
AcDbEntity
  8
0
100
AcDbBlockEnd
  0
BLOCK
  5
286E
330
286D
100
AcDbEntity
  8
0
100
AcDbBlockBegin
  2
*D22
 70
     1
 10
0.0
 20
0.0
 30
0.0
  3
*D22
  1

  0
LINE
  5
1414
330
286D
100
AcDbEntity
  8
SIZE
 62
     0
100
AcDbLine
 10
-22313.11521613997
 20
7365.702971374808
 30
0.0
 11
-22313.11521613997
 21
7217.685576144207
 31
0.0
  0
LINE
  5
1415
330
286D
100
AcDbEntity
  8
SIZE
 62
     0
100
AcDbLine
 10
-22044.11521613997
 20
7365.702971374808
 30
0.0
 11
-22044.11521613997
 21
7217.685576144207
 31
0.0
  0
LINE
  5
1416
330
286D
100
AcDbEntity
  8
SIZE
 62
     0
100
AcDbLine
 10
-22301.11521613997
 20
7237.685576144207
 30
0.0
 11
-22056.11521613997
 21
7237.685576144207
 31
0.0
  0
INSERT
  5
1417
330
286D
100
AcDbEntity
  8
SIZE
 62
     0
100
AcDbBlockReference
  2
_DOTBLANK
 10
-22313.11521613997
 20
7237.685576144207
 30
0.0
 41
12.0
 42
12.0
 43
12.0
 50
180.0
  0
INSERT
  5
1418
330
286D
100
AcDbEntity
  8
SIZE
 62
     0
100
AcDbBlockReference
  2
_DOTBLANK
 10
-22044.11521613997
 20
7237.685576144207
 30
0.0
 41
12.0
 42
12.0
 43
12.0
  0
INSERT
  5
1419
330
286D
100
AcDbEntity
  8
0
100
AcDbBlockReference
  2
*U23
 10
0.0
 20
0.0
 30
0.0
  0
POINT
  5
141A
330
286D
100
AcDbEntity
  8
DEFPOINTS
 62
     0
100
AcDbPoint
 10
-22313.11521613997
 20
7385.702971374808
 30
0.0
  0
POINT
  5
141B
330
286D
100
AcDbEntity
  8
DEFPOINTS
 62
     0
100
AcDbPoint
 10
-22044.11521613997
 20
7385.702971374808
 30
0.0
  0
POINT
  5
141C
330
286D
100
AcDbEntity
  8
DEFPOINTS
 62
     0
100
AcDbPoint
 10
-22044.11521613997
 20
7237.685576144207
 30
0.0
  0
ENDBLK
  5
141D
330
286D
100
AcDbEntity
  8
0
100
AcDbBlockEnd
  0
BLOCK
  5
2870
330
286F
100
AcDbEntity
  8
0
100
AcDbBlockBegin
  2
*U23
 70
     1
 10
0.0
 20
0.0
 30
0.0
  3
*U23
  1

  0
TEXT
  5
1EF9
330
286F
100
AcDbEntity
  8
SIZE
 62
     0
100
AcDbText
 10
-22251.30093042568
 20
7247.685576144205
 30
0.0
 40
64.0
  1
269
 41
0.9
100
AcDbText
  0
ENDBLK
  5
1EFB
330
286F
100
AcDbEntity
  8
0
100
AcDbBlockEnd
  0
BLOCK
  5
2872
330
2871
100
AcDbEntity
  8
0
100
AcDbBlockBegin
  2
*D24
 70
     1
 10
0.0
 20
0.0
 30
0.0
  3
*D24
  1

  0
LINE
  5
1420
330
2871
100
AcDbEntity
  8
SIZE
  6
Continuous
 62
     0
100
AcDbLine
 10
-22035.11521613997
 20
7385.702971374808
 30
0.0
 11
-21873.97193165959
 21
7385.702971374808
 31
0.0
  0
LINE
  5
1421
330
2871
100
AcDbEntity
  8
SIZE
  6
Continuous
 62
     0
100
AcDbLine
 10
-22001.11521613997
 20
7685.702971374808
 30
0.0
 11
-21873.97193165959
 21
7685.702971374808
 31
0.0
  0
LINE
  5
1422
330
2871
100
AcDbEntity
  8
SIZE
  6
Continuous
 62
     0
100
AcDbLine
 10
-21893.97193165959
 20
7397.702971374808
 30
0.0
 11
-21893.97193165959
 21
7673.702971374808
 31
0.0
  0
INSERT
  5
1423
330
2871
100
AcDbEntity
  8
SIZE
  6
Continuous
 62
     0
100
AcDbBlockReference
  2
_DOTBLANK
 10
-21893.97193165959
 20
7385.702971374808
 30
0.0
 41
12.0
 42
12.0
 43
12.0
 50
270.0
  0
INSERT
  5
1424
330
2871
100
AcDbEntity
  8
SIZE
  6
Continuous
 62
     0
100
AcDbBlockReference
  2
_DOTBLANK
 10
-21893.97193165959
 20
7685.702971374808
 30
0.0
 41
12.0
 42
12.0
 43
12.0
 50
90.0
  0
INSERT
  5
1425
330
2871
100
AcDbEntity
  8
0
100
AcDbBlockReference
  2
*U25
 10
0.0
 20
0.0
 30
0.0
  0
POINT
  5
1426
330
2871
100
AcDbEntity
  8
DEFPOINTS
  6
Continuous
 62
     0
100
AcDbPoint
 10
-22055.11521613997
 20
7385.702971374808
 30
0.0
  0
POINT
  5
1427
330
2871
100
AcDbEntity
  8
DEFPOINTS
  6
Continuous
 62
     0
100
AcDbPoint
 10
-22021.11521613997
 20
7685.702971374808
 30
0.0
  0
POINT
  5
1428
330
2871
100
AcDbEntity
  8
DEFPOINTS
  6
Continuous
 62
     0
100
AcDbPoint
 10
-21893.97193165959
 20
7685.702971374808
 30
0.0
  0
ENDBLK
  5
1429
330
2871
100
AcDbEntity
  8
0
100
AcDbBlockEnd
  0
BLOCK
  5
2874
330
2873
100
AcDbEntity
  8
0
100
AcDbBlockBegin
  2
*U25
 70
     1
 10
0.0
 20
0.0
 30
0.0
  3
*U25
  1

  0
TEXT
  5
1EFD
330
2873
100
AcDbEntity
  8
SIZE
 62
     0
100
AcDbText
 10
-21903.97193165959
 20
7461.645828517662
 30
0.0
 40
64.0
  1
300
 50
90.0
 41
0.9
100
AcDbText
  0
ENDBLK
  5
1EFF
330
2873
100
AcDbEntity
  8
0
100
AcDbBlockEnd
  0
BLOCK
  5
2876
330
2875
100
AcDbEntity
  8
0
100
AcDbBlockBegin
  2
*D26
 70
     1
 10
0.0
 20
0.0
 30
0.0
  3
*D26
  1

  0
LINE
  5
142C
330
2875
100
AcDbEntity
  8
SIZE
 62
     0
100
AcDbLine
 10
-22318.61521613997
 20
7718.167454177002
 30
0.0
 11
-22318.61521613997
 21
7822.154659243358
 31
0.0
  0
LINE
  5
142D
330
2875
100
AcDbEntity
  8
SIZE
 62
     0
100
AcDbLine
 10
-22038.61521613997
 20
7718.167454177002
 30
0.0
 11
-22038.61521613997
 21
7822.154659243358
 31
0.0
  0
LINE
  5
142E
330
2875
100
AcDbEntity
  8
SIZE
 62
     0
100
AcDbLine
 10
-22306.61521613997
 20
7802.154659243358
 30
0.0
 11
-22050.61521613997
 21
7802.154659243358
 31
0.0
  0
INSERT
  5
142F
330
2875
100
AcDbEntity
  8
SIZE
 62
     0
100
AcDbBlockReference
  2
_DOTBLANK
 10
-22318.61521613997
 20
7802.154659243358
 30
0.0
 41
12.0
 42
12.0
 43
12.0
 50
180.0
  0
INSERT
  5
1430
330
2875
100
AcDbEntity
  8
SIZE
 62
     0
100
AcDbBlockReference
  2
_DOTBLANK
 10
-22038.61521613997
 20
7802.154659243358
 30
0.0
 41
12.0
 42
12.0
 43
12.0
  0
INSERT
  5
1431
330
2875
100
AcDbEntity
  8
0
100
AcDbBlockReference
  2
*U27
 10
0.0
 20
0.0
 30
0.0
  0
POINT
  5
1432
330
2875
100
AcDbEntity
  8
DEFPOINTS
 62
     0
100
AcDbPoint
 10
-22318.61521613997
 20
7698.167454177002
 30
0.0
  0
POINT
  5
1433
330
2875
100
AcDbEntity
  8
DEFPOINTS
 62
     0
100
AcDbPoint
 10
-22038.61521613997
 20
7698.167454177002
 30
0.0
  0
POINT
  5
1434
330
2875
100
AcDbEntity
  8
DEFPOINTS
 62
     0
100
AcDbPoint
 10
-22038.61521613997
 20
7802.154659243358
 30
0.0
  0
ENDBLK
  5
1435
330
2875
100
AcDbEntity
  8
0
100
AcDbBlockEnd
  0
BLOCK
  5
2878
330
2877
100
AcDbEntity
  8
0
100
AcDbBlockBegin
  2
*U27
 70
     1
 10
0.0
 20
0.0
 30
0.0
  3
*U27
  1

  0
TEXT
  5
1F01
330
2877
100
AcDbEntity
  8
SIZE
 62
     0
100
AcDbText
 10
-22252.6723589971
 20
7812.154659243358
 30
0.0
 40
64.0
  1
280
 41
0.9
100
AcDbText
  0
ENDBLK
  5
1F03
330
2877
100
AcDbEntity
  8
0
100
AcDbBlockEnd
  0
BLOCK
  5
287A
330
2879
100
AcDbEntity
  8
0
100
AcDbBlockBegin
  2
*D28
 70
     1
 10
0.0
 20
0.0
 30
0.0
  3
*D28
  1

  0
LINE
  5
1438
330
2879
100
AcDbEntity
  8
SIZE
 62
     0
100
AcDbLine
 10
-22336.11521613997
 20
7705.702971374808
 30
0.0
 11
-22336.11521613997
 21
7931.282433493766
 31
0.0
  0
LINE
  5
1439
330
2879
100
AcDbEntity
  8
SIZE
 62
     0
100
AcDbLine
 10
-22021.11521613997
 20
7705.702971374808
 30
0.0
 11
-22021.11521613997
 21
7931.282433493766
 31
0.0
  0
LINE
  5
143A
330
2879
100
AcDbEntity
  8
SIZE
 62
     0
100
AcDbLine
 10
-22324.11521613997
 20
7911.282433493766
 30
0.0
 11
-22033.11521613997
 21
7911.282433493766
 31
0.0
  0
INSERT
  5
143B
330
2879
100
AcDbEntity
  8
SIZE
 62
     0
100
AcDbBlockReference
  2
_DOTBLANK
 10
-22336.11521613997
 20
7911.282433493766
 30
0.0
 41
12.0
 42
12.0
 43
12.0
 50
180.0
  0
INSERT
  5
143C
330
2879
100
AcDbEntity
  8
SIZE
 62
     0
100
AcDbBlockReference
  2
_DOTBLANK
 10
-22021.11521613997
 20
7911.282433493766
 30
0.0
 41
12.0
 42
12.0
 43
12.0
  0
INSERT
  5
143D
330
2879
100
AcDbEntity
  8
0
100
AcDbBlockReference
  2
*U29
 10
0.0
 20
0.0
 30
0.0
  0
POINT
  5
143E
330
2879
100
AcDbEntity
  8
DEFPOINTS
 62
     0
100
AcDbPoint
 10
-22336.11521613997
 20
7685.702971374808
 30
0.0
  0
POINT
  5
143F
330
2879
100
AcDbEntity
  8
DEFPOINTS
 62
     0
100
AcDbPoint
 10
-22021.11521613997
 20
7685.702971374808
 30
0.0
  0
POINT
  5
1440
330
2879
100
AcDbEntity
  8
DEFPOINTS
 62
     0
100
AcDbPoint
 10
-22021.11521613997
 20
7911.282433493766
 30
0.0
  0
ENDBLK
  5
1441
330
2879
100
AcDbEntity
  8
0
100
AcDbBlockEnd
  0
BLOCK
  5
287C
330
287B
100
AcDbEntity
  8
0
100
AcDbBlockBegin
  2
*U29
 70
     1
 10
0.0
 20
0.0
 30
0.0
  3
*U29
  1

  0
TEXT
  5
1F05
330
287B
100
AcDbEntity
  8
SIZE
 62
     0
100
AcDbText
 10
-22247.18664471139
 20
7921.282433493766
 30
0.0
 40
64.0
  1
315
 41
0.9
100
AcDbText
  0
ENDBLK
  5
1F07
330
287B
100
AcDbEntity
  8
0
100
AcDbBlockEnd
  0
BLOCK
  5
287E
330
287D
100
AcDbEntity
  8
0
100
AcDbBlockBegin
  2
*D30
 70
     1
 10
0.0
 20
0.0
 30
0.0
  3
*D30
  1

  0
LINE
  5
166B
330
287D
100
AcDbEntity
  8
SIZE
 62
     0
100
AcDbLine
 10
-134.5
 20
-320.0
 30
0.0
 11
-134.5
 21
-468.0173952306001
 31
0.0
  0
LINE
  5
166C
330
287D
100
AcDbEntity
  8
SIZE
 62
     0
100
AcDbLine
 10
134.5
 20
-320.0
 30
0.0
 11
134.5
 21
-468.0173952306001
 31
0.0
  0
LINE
  5
166D
330
287D
100
AcDbEntity
  8
SIZE
 62
     0
100
AcDbLine
 10
-122.5
 20
-448.0173952306
 30
0.0
 11
122.5
 21
-448.0173952306
 31
0.0
  0
INSERT
  5
166E
330
287D
100
AcDbEntity
  8
SIZE
 62
     0
100
AcDbBlockReference
  2
_DOTBLANK
 10
-134.5
 20
-448.0173952306
 30
0.0
 41
12.0
 42
12.0
 43
12.0
 50
180.0
  0
INSERT
  5
166F
330
287D
100
AcDbEntity
  8
SIZE
 62
     0
100
AcDbBlockReference
  2
_DOTBLANK
 10
134.5
 20
-448.0173952306
 30
0.0
 41
12.0
 42
12.0
 43
12.0
  0
INSERT
  5
1670
330
287D
100
AcDbEntity
  8
0
100
AcDbBlockReference
  2
*U31
 10
0.0
 20
0.0
 30
0.0
  0
POINT
  5
1671
330
287D
100
AcDbEntity
  8
DEFPOINTS
 62
     0
100
AcDbPoint
 10
-134.5
 20
-300.0
 30
0.0
  0
POINT
  5
1672
330
287D
100
AcDbEntity
  8
DEFPOINTS
 62
     0
100
AcDbPoint
 10
134.5
 20
-300.0
 30
0.0
  0
POINT
  5
1673
330
287D
100
AcDbEntity
  8
DEFPOINTS
 62
     0
100
AcDbPoint
 10
134.5
 20
-448.0173952306
 30
0.0
  0
ENDBLK
  5
14A7
330
287D
100
AcDbEntity
  8
0
100
AcDbBlockEnd
  0
BLOCK
  5
2880
330
287F
100
AcDbEntity
  8
0
100
AcDbBlockBegin
  2
*U31
 70
     1
 10
0.0
 20
0.0
 30
0.0
  3
*U31
  1

  0
TEXT
  5
1F09
330
287F
100
AcDbEntity
  8
SIZE
 62
     0
100
AcDbText
 10
-72.68571428571426
 20
-438.0173952306002
 30
0.0
 40
64.0
  1
269
 41
0.9
100
AcDbText
  0
ENDBLK
  5
1F0B
330
287F
100
AcDbEntity
  8
0
100
AcDbBlockEnd
  0
BLOCK
  5
2882
330
2881
100
AcDbEntity
  8
0
100
AcDbBlockBegin
  2
*D32
 70
     1
 10
0.0
 20
0.0
 30
0.0
  3
*D32
  1

  0
LINE
  5
1674
330
2881
100
AcDbEntity
  8
SIZE
  6
Continuous
 62
     0
100
AcDbLine
 10
143.5
 20
-300.0
 30
0.0
 11
304.6432844803784
 21
-300.0
 31
0.0
  0
LINE
  5
1675
330
2881
100
AcDbEntity
  8
SIZE
  6
Continuous
 62
     0
100
AcDbLine
 10
177.5
 20
-0.0000000000000057
 30
0.0
 11
304.6432844803785
 21
-0.0000000000000417
 31
0.0
  0
LINE
  5
1676
330
2881
100
AcDbEntity
  8
SIZE
  6
Continuous
 62
     0
100
AcDbLine
 10
284.6432844803784
 20
-288.0000000000001
 30
0.0
 11
284.6432844803785
 21
-12.00000000000003
 31
0.0
  0
INSERT
  5
1677
330
2881
100
AcDbEntity
  8
SIZE
  6
Continuous
 62
     0
100
AcDbBlockReference
  2
_DOTBLANK
 10
284.6432844803784
 20
-300.0
 30
0.0
 41
12.0
 42
12.0
 43
12.0
 50
270.0
  0
INSERT
  5
1678
330
2881
100
AcDbEntity
  8
SIZE
  6
Continuous
 62
     0
100
AcDbBlockReference
  2
_DOTBLANK
 10
284.6432844803785
 20
-0.000000000000036
 30
0.0
 41
12.0
 42
12.0
 43
12.0
 50
90.0
  0
INSERT
  5
1679
330
2881
100
AcDbEntity
  8
0
100
AcDbBlockReference
  2
*U33
 10
0.0
 20
0.0
 30
0.0
  0
POINT
  5
167A
330
2881
100
AcDbEntity
  8
DEFPOINTS
  6
Continuous
 62
     0
100
AcDbPoint
 10
123.5
 20
-300.0
 30
0.0
  0
POINT
  5
167B
330
2881
100
AcDbEntity
  8
DEFPOINTS
  6
Continuous
 62
     0
100
AcDbPoint
 10
157.5
 20
0.0
 30
0.0
  0
POINT
  5
167C
330
2881
100
AcDbEntity
  8
DEFPOINTS
  6
Continuous
 62
     0
100
AcDbPoint
 10
284.6432844803785
 20
-0.000000000000036
 30
0.0
  0
ENDBLK
  5
14B3
330
2881
100
AcDbEntity
  8
0
100
AcDbBlockEnd
  0
BLOCK
  5
2884
330
2883
100
AcDbEntity
  8
0
100
AcDbBlockBegin
  2
*U33
 70
     1
 10
0.0
 20
0.0
 30
0.0
  3
*U33
  1

  0
TEXT
  5
1F0D
330
2883
100
AcDbEntity
  8
SIZE
 62
     0
100
AcDbText
 10
274.6432844803785
 20
-224.0571428571429
 30
0.0
 40
64.0
  1
300
 50
90.0
 41
0.9
100
AcDbText
  0
ENDBLK
  5
1F0F
330
2883
100
AcDbEntity
  8
0
100
AcDbBlockEnd
  0
BLOCK
  5
2886
330
2885
100
AcDbEntity
  8
0
100
AcDbBlockBegin
  2
*D34
 70
     1
 10
0.0
 20
0.0
 30
0.0
  3
*D34
  1

  0
LINE
  5
167D
330
2885
100
AcDbEntity
  8
SIZE
 62
     0
100
AcDbLine
 10
-140.0
 20
32.46448280219375
 30
0.0
 11
-140.0
 21
136.4516878685507
 31
0.0
  0
LINE
  5
167E
330
2885
100
AcDbEntity
  8
SIZE
 62
     0
100
AcDbLine
 10
140.0
 20
32.46448280219375
 30
0.0
 11
140.0
 21
136.4516878685507
 31
0.0
  0
LINE
  5
167F
330
2885
100
AcDbEntity
  8
SIZE
 62
     0
100
AcDbLine
 10
-128.0
 20
116.4516878685508
 30
0.0
 11
128.0
 21
116.4516878685508
 31
0.0
  0
INSERT
  5
1680
330
2885
100
AcDbEntity
  8
SIZE
 62
     0
100
AcDbBlockReference
  2
_DOTBLANK
 10
-140.0
 20
116.4516878685508
 30
0.0
 41
12.0
 42
12.0
 43
12.0
 50
180.0
  0
INSERT
  5
1681
330
2885
100
AcDbEntity
  8
SIZE
 62
     0
100
AcDbBlockReference
  2
_DOTBLANK
 10
140.0
 20
116.4516878685508
 30
0.0
 41
12.0
 42
12.0
 43
12.0
  0
INSERT
  5
1682
330
2885
100
AcDbEntity
  8
0
100
AcDbBlockReference
  2
*U35
 10
0.0
 20
0.0
 30
0.0
  0
POINT
  5
1683
330
2885
100
AcDbEntity
  8
DEFPOINTS
 62
     0
100
AcDbPoint
 10
-140.0
 20
12.46448280219374
 30
0.0
  0
POINT
  5
1684
330
2885
100
AcDbEntity
  8
DEFPOINTS
 62
     0
100
AcDbPoint
 10
140.0
 20
12.46448280219374
 30
0.0
  0
POINT
  5
1685
330
2885
100
AcDbEntity
  8
DEFPOINTS
 62
     0
100
AcDbPoint
 10
140.0
 20
116.4516878685508
 30
0.0
  0
ENDBLK
  5
14BF
330
2885
100
AcDbEntity
  8
0
100
AcDbBlockEnd
  0
BLOCK
  5
2888
330
2887
100
AcDbEntity
  8
0
100
AcDbBlockBegin
  2
*U35
 70
     1
 10
0.0
 20
0.0
 30
0.0
  3
*U35
  1

  0
TEXT
  5
1F11
330
2887
100
AcDbEntity
  8
SIZE
 62
     0
100
AcDbText
 10
-74.05714285714283
 20
126.4516878685507
 30
0.0
 40
64.0
  1
280
 41
0.9
100
AcDbText
  0
ENDBLK
  5
1F13
330
2887
100
AcDbEntity
  8
0
100
AcDbBlockEnd
  0
BLOCK
  5
288A
330
2889
100
AcDbEntity
  8
0
100
AcDbBlockBegin
  2
*D36
 70
     1
 10
0.0
 20
0.0
 30
0.0
  3
*D36
  1

  0
LINE
  5
1686
330
2889
100
AcDbEntity
  8
SIZE
 62
     0
100
AcDbLine
 10
-157.5
 20
20.0
 30
0.0
 11
-157.5
 21
245.5794621189598
 31
0.0
  0
LINE
  5
1687
330
2889
100
AcDbEntity
  8
SIZE
 62
     0
100
AcDbLine
 10
157.5
 20
20.0
 30
0.0
 11
157.5
 21
245.5794621189598
 31
0.0
  0
LINE
  5
1688
330
2889
100
AcDbEntity
  8
SIZE
 62
     0
100
AcDbLine
 10
-145.5
 20
225.5794621189598
 30
0.0
 11
145.5
 21
225.5794621189598
 31
0.0
  0
INSERT
  5
1689
330
2889
100
AcDbEntity
  8
SIZE
 62
     0
100
AcDbBlockReference
  2
_DOTBLANK
 10
-157.5
 20
225.5794621189598
 30
0.0
 41
12.0
 42
12.0
 43
12.0
 50
180.0
  0
INSERT
  5
168A
330
2889
100
AcDbEntity
  8
SIZE
 62
     0
100
AcDbBlockReference
  2
_DOTBLANK
 10
157.5
 20
225.5794621189598
 30
0.0
 41
12.0
 42
12.0
 43
12.0
  0
INSERT
  5
168B
330
2889
100
AcDbEntity
  8
0
100
AcDbBlockReference
  2
*U37
 10
0.0
 20
0.0
 30
0.0
  0
POINT
  5
168C
330
2889
100
AcDbEntity
  8
DEFPOINTS
 62
     0
100
AcDbPoint
 10
-157.5
 20
0.0
 30
0.0
  0
POINT
  5
168D
330
2889
100
AcDbEntity
  8
DEFPOINTS
 62
     0
100
AcDbPoint
 10
157.5
 20
0.0
 30
0.0
  0
POINT
  5
168E
330
2889
100
AcDbEntity
  8
DEFPOINTS
 62
     0
100
AcDbPoint
 10
157.5
 20
225.5794621189598
 30
0.0
  0
ENDBLK
  5
14CB
330
2889
100
AcDbEntity
  8
0
100
AcDbBlockEnd
  0
BLOCK
  5
288C
330
288B
100
AcDbEntity
  8
0
100
AcDbBlockBegin
  2
*U37
 70
     1
 10
0.0
 20
0.0
 30
0.0
  3
*U37
  1

  0
TEXT
  5
1F15
330
288B
100
AcDbEntity
  8
SIZE
 62
     0
100
AcDbText
 10
-68.57142857142857
 20
235.5794621189598
 30
0.0
 40
64.0
  1
315
 41
0.9
100
AcDbText
  0
ENDBLK
  5
1F17
330
288B
100
AcDbEntity
  8
0
100
AcDbBlockEnd
  0
BLOCK
  5
288E
330
288D
100
AcDbEntity
  8
0
100
AcDbBlockBegin
  2
*U38
 70
     1
 10
0.0
 20
0.0
 30
0.0
  3
*U38
  1

  0
ENDBLK
  5
15CF
330
288D
100
AcDbEntity
  8
0
100
AcDbBlockEnd
  0
BLOCK
  5
2890
330
288F
100
AcDbEntity
  8
0
100
AcDbBlockBegin
  2
*D39
 70
     1
 10
0.0
 20
0.0
 30
0.0
  3
*D39
  1

  0
LINE
  5
1692
330
288F
100
AcDbEntity
  8
SIZE
 62
     0
100
AcDbLine
 10
-25844.51823276502
 20
7685.702971374808
 30
0.0
 11
-25981.04465488371
 21
7685.702971374808
 31
0.0
  0
LINE
  5
1693
330
288F
100
AcDbEntity
  8
SIZE
 62
     0
100
AcDbLine
 10
-25844.51823276502
 20
7677.702971374808
 30
0.0
 11
-25981.04465488371
 21
7677.702971374808
 31
0.0
  0
LINE
  5
1694
330
288F
100
AcDbEntity
  8
SIZE
 62
     0
100
AcDbLine
 10
-25961.04465488371
 20
7697.702971374808
 30
0.0
 11
-25961.04465488371
 21
7709.702971374809
 31
0.0
  0
LINE
  5
1695
330
288F
100
AcDbEntity
  8
SIZE
 62
     0
100
AcDbLine
 10
-25961.04465488371
 20
7665.70297137481
 30
0.0
 11
-25961.04465488371
 21
7595.302971374808
 31
0.0
  0
INSERT
  5
1696
330
288F
100
AcDbEntity
  8
SIZE
 62
     0
100
AcDbBlockReference
  2
_DOTBLANK
 10
-25961.04465488371
 20
7685.702971374808
 30
0.0
 41
12.0
 42
12.0
 43
12.0
 50
270.0
  0
INSERT
  5
1697
330
288F
100
AcDbEntity
  8
SIZE
 62
     0
100
AcDbBlockReference
  2
_DOTBLANK
 10
-25961.04465488371
 20
7677.702971374808
 30
0.0
 41
12.0
 42
12.0
 43
12.0
 50
90.0
  0
INSERT
  5
1698
330
288F
100
AcDbEntity
  8
0
100
AcDbBlockReference
  2
*U40
 10
0.0
 20
0.0
 30
0.0
  0
POINT
  5
1699
330
288F
100
AcDbEntity
  8
DEFPOINTS
 62
     0
100
AcDbPoint
 10
-25824.51823276501
 20
7685.702971374808
 30
0.0
  0
POINT
  5
169A
330
288F
100
AcDbEntity
  8
DEFPOINTS
 62
     0
100
AcDbPoint
 10
-25824.51823276501
 20
7677.702971374808
 30
0.0
  0
POINT
  5
169B
330
288F
100
AcDbEntity
  8
DEFPOINTS
 62
     0
100
AcDbPoint
 10
-25961.04465488371
 20
7677.702971374808
 30
0.0
  0
ENDBLK
  5
169C
330
288F
100
AcDbEntity
  8
0
100
AcDbBlockEnd
  0
BLOCK
  5
2892
330
2891
100
AcDbEntity
  8
0
100
AcDbBlockBegin
  2
*U40
 70
     1
 10
0.0
 20
0.0
 30
0.0
  3
*U40
  1

  0
TEXT
  5
1F19
330
2891
100
AcDbEntity
  8
SIZE
 62
     0
100
AcDbText
 10
-25971.04465488371
 20
7605.302971374804
 30
0.0
 40
64.0
  1
8
 50
90.0
 41
0.9
100
AcDbText
  0
ENDBLK
  5
1F1B
330
2891
100
AcDbEntity
  8
0
100
AcDbBlockEnd
  0
BLOCK
  5
2894
330
2893
100
AcDbEntity
  8
0
100
AcDbBlockBegin
  2
*D41
 70
     1
 10
0.0
 20
0.0
 30
0.0
  3
*D41
  1

  0
LINE
  5
169F
330
2893
100
AcDbEntity
  8
SIZE
 62
     0
100
AcDbLine
 10
-25512.51823276502
 20
7385.702971374808
 30
0.0
 11
-25362.37494828464
 21
7385.702971374808
 31
0.0
  0
LINE
  5
16A0
330
2893
100
AcDbEntity
  8
SIZE
 62
     0
100
AcDbLine
 10
-25523.51823276501
 20
7373.702971374808
 30
0.0
 11
-25362.37494828464
 21
7373.702971374808
 31
0.0
  0
LINE
  5
16A1
330
2893
100
AcDbEntity
  8
SIZE
 62
     0
100
AcDbLine
 10
-25382.37494828464
 20
7397.702971374808
 30
0.0
 11
-25382.37494828464
 21
7409.70297137481
 31
0.0
  0
LINE
  5
16A2
330
2893
100
AcDbEntity
  8
SIZE
 62
     0
100
AcDbLine
 10
-25382.37494828464
 20
7361.702971374808
 30
0.0
 11
-25382.37494828464
 21
7244.674399946237
 31
0.0
  0
INSERT
  5
16A3
330
2893
100
AcDbEntity
  8
SIZE
 62
     0
100
AcDbBlockReference
  2
_DOTBLANK
 10
-25382.37494828464
 20
7385.702971374808
 30
0.0
 41
12.0
 42
12.0
 43
12.0
 50
270.0
  0
INSERT
  5
16A4
330
2893
100
AcDbEntity
  8
SIZE
 62
     0
100
AcDbBlockReference
  2
_DOTBLANK
 10
-25382.37494828464
 20
7373.702971374808
 30
0.0
 41
12.0
 42
12.0
 43
12.0
 50
90.0
  0
INSERT
  5
16A5
330
2893
100
AcDbEntity
  8
0
100
AcDbBlockReference
  2
*U42
 10
0.0
 20
0.0
 30
0.0
  0
POINT
  5
16A6
330
2893
100
AcDbEntity
  8
DEFPOINTS
 62
     0
100
AcDbPoint
 10
-25532.51823276502
 20
7385.702971374808
 30
0.0
  0
POINT
  5
16A7
330
2893
100
AcDbEntity
  8
DEFPOINTS
 62
     0
100
AcDbPoint
 10
-25543.51823276502
 20
7373.702971374808
 30
0.0
  0
POINT
  5
16A8
330
2893
100
AcDbEntity
  8
DEFPOINTS
 62
     0
100
AcDbPoint
 10
-25382.37494828464
 20
7373.702971374808
 30
0.0
  0
ENDBLK
  5
16A9
330
2893
100
AcDbEntity
  8
0
100
AcDbBlockEnd
  0
BLOCK
  5
2896
330
2895
100
AcDbEntity
  8
0
100
AcDbBlockBegin
  2
*U42
 70
     1
 10
0.0
 20
0.0
 30
0.0
  3
*U42
  1

  0
TEXT
  5
1F1D
330
2895
100
AcDbEntity
  8
SIZE
 62
     0
100
AcDbText
 10
-25392.37494828464
 20
7256.045828517662
 30
0.0
 40
64.0
  1
12
 50
90.0
 41
0.9
100
AcDbText
  0
ENDBLK
  5
1F1F
330
2895
100
AcDbEntity
  8
0
100
AcDbBlockEnd
  0
BLOCK
  5
2898
330
2897
100
AcDbEntity
  8
0
100
AcDbBlockBegin
  2
*D43
 70
     1
 10
0.0
 20
0.0
 30
0.0
  3
*D43
  1

  0
LINE
  5
16AC
330
2897
100
AcDbEntity
  8
SIZE
 62
     0
100
AcDbLine
 10
-25801.51823276501
 20
7365.702971374808
 30
0.0
 11
-25801.51823276501
 21
7217.685576144207
 31
0.0
  0
LINE
  5
16AD
330
2897
100
AcDbEntity
  8
SIZE
 62
     0
100
AcDbLine
 10
-25532.51823276502
 20
7365.702971374808
 30
0.0
 11
-25532.51823276502
 21
7217.685576144207
 31
0.0
  0
LINE
  5
16AE
330
2897
100
AcDbEntity
  8
SIZE
 62
     0
100
AcDbLine
 10
-25789.51823276502
 20
7237.685576144207
 30
0.0
 11
-25544.51823276501
 21
7237.685576144207
 31
0.0
  0
INSERT
  5
16AF
330
2897
100
AcDbEntity
  8
SIZE
 62
     0
100
AcDbBlockReference
  2
_DOTBLANK
 10
-25801.51823276501
 20
7237.685576144207
 30
0.0
 41
12.0
 42
12.0
 43
12.0
 50
180.0
  0
INSERT
  5
16B0
330
2897
100
AcDbEntity
  8
SIZE
 62
     0
100
AcDbBlockReference
  2
_DOTBLANK
 10
-25532.51823276502
 20
7237.685576144207
 30
0.0
 41
12.0
 42
12.0
 43
12.0
  0
INSERT
  5
16B1
330
2897
100
AcDbEntity
  8
0
100
AcDbBlockReference
  2
*U44
 10
0.0
 20
0.0
 30
0.0
  0
POINT
  5
16B2
330
2897
100
AcDbEntity
  8
DEFPOINTS
 62
     0
100
AcDbPoint
 10
-25801.51823276501
 20
7385.702971374808
 30
0.0
  0
POINT
  5
16B3
330
2897
100
AcDbEntity
  8
DEFPOINTS
 62
     0
100
AcDbPoint
 10
-25532.51823276502
 20
7385.702971374808
 30
0.0
  0
POINT
  5
16B4
330
2897
100
AcDbEntity
  8
DEFPOINTS
 62
     0
100
AcDbPoint
 10
-25532.51823276502
 20
7237.685576144207
 30
0.0
  0
ENDBLK
  5
16B5
330
2897
100
AcDbEntity
  8
0
100
AcDbBlockEnd
  0
BLOCK
  5
289A
330
2899
100
AcDbEntity
  8
0
100
AcDbBlockBegin
  2
*U44
 70
     1
 10
0.0
 20
0.0
 30
0.0
  3
*U44
  1

  0
TEXT
  5
1F21
330
2899
100
AcDbEntity
  8
SIZE
 62
     0
100
AcDbText
 10
-25739.70394705074
 20
7247.685576144205
 30
0.0
 40
64.0
  1
269
 41
0.9
100
AcDbText
  0
ENDBLK
  5
1F23
330
2899
100
AcDbEntity
  8
0
100
AcDbBlockEnd
  0
BLOCK
  5
289C
330
289B
100
AcDbEntity
  8
0
100
AcDbBlockBegin
  2
*D45
 70
     1
 10
0.0
 20
0.0
 30
0.0
  3
*D45
  1

  0
LINE
  5
16B8
330
289B
100
AcDbEntity
  8
SIZE
 62
     0
100
AcDbLine
 10
-25512.51823276502
 20
7385.702971374808
 30
0.0
 11
-25362.37494828464
 21
7385.702971374808
 31
0.0
  0
LINE
  5
16B9
330
289B
100
AcDbEntity
  8
SIZE
 62
     0
100
AcDbLine
 10
-25489.51823276501
 20
7685.702971374808
 30
0.0
 11
-25362.37494828464
 21
7685.702971374808
 31
0.0
  0
LINE
  5
16BA
330
289B
100
AcDbEntity
  8
SIZE
 62
     0
100
AcDbLine
 10
-25382.37494828464
 20
7397.702971374808
 30
0.0
 11
-25382.37494828464
 21
7673.702971374808
 31
0.0
  0
INSERT
  5
16BB
330
289B
100
AcDbEntity
  8
SIZE
 62
     0
100
AcDbBlockReference
  2
_DOTBLANK
 10
-25382.37494828464
 20
7385.702971374808
 30
0.0
 41
12.0
 42
12.0
 43
12.0
 50
270.0
  0
INSERT
  5
16BC
330
289B
100
AcDbEntity
  8
SIZE
 62
     0
100
AcDbBlockReference
  2
_DOTBLANK
 10
-25382.37494828464
 20
7685.702971374808
 30
0.0
 41
12.0
 42
12.0
 43
12.0
 50
90.0
  0
INSERT
  5
16BD
330
289B
100
AcDbEntity
  8
0
100
AcDbBlockReference
  2
*U46
 10
0.0
 20
0.0
 30
0.0
  0
POINT
  5
16BE
330
289B
100
AcDbEntity
  8
DEFPOINTS
 62
     0
100
AcDbPoint
 10
-25532.51823276502
 20
7385.702971374808
 30
0.0
  0
POINT
  5
16BF
330
289B
100
AcDbEntity
  8
DEFPOINTS
 62
     0
100
AcDbPoint
 10
-25509.51823276502
 20
7685.702971374808
 30
0.0
  0
POINT
  5
16C0
330
289B
100
AcDbEntity
  8
DEFPOINTS
 62
     0
100
AcDbPoint
 10
-25382.37494828464
 20
7685.702971374808
 30
0.0
  0
ENDBLK
  5
16C1
330
289B
100
AcDbEntity
  8
0
100
AcDbBlockEnd
  0
BLOCK
  5
289E
330
289D
100
AcDbEntity
  8
0
100
AcDbBlockBegin
  2
*U46
 70
     1
 10
0.0
 20
0.0
 30
0.0
  3
*U46
  1

  0
TEXT
  5
1F25
330
289D
100
AcDbEntity
  8
SIZE
 62
     0
100
AcDbText
 10
-25392.37494828464
 20
7461.645828517662
 30
0.0
 40
64.0
  1
300
 50
90.0
 41
0.9
100
AcDbText
  0
ENDBLK
  5
1F27
330
289D
100
AcDbEntity
  8
0
100
AcDbBlockEnd
  0
BLOCK
  5
28A0
330
289F
100
AcDbEntity
  8
0
100
AcDbBlockBegin
  2
*D47
 70
     1
 10
0.0
 20
0.0
 30
0.0
  3
*D47
  1

  0
LINE
  5
16C4
330
289F
100
AcDbEntity
  8
SIZE
 62
     0
100
AcDbLine
 10
-25807.01823276501
 20
7718.167454177002
 30
0.0
 11
-25807.01823276501
 21
7822.154659243358
 31
0.0
  0
LINE
  5
16C5
330
289F
100
AcDbEntity
  8
SIZE
 62
     0
100
AcDbLine
 10
-25527.01823276501
 20
7718.167454177002
 30
0.0
 11
-25527.01823276501
 21
7822.154659243358
 31
0.0
  0
LINE
  5
16C6
330
289F
100
AcDbEntity
  8
SIZE
 62
     0
100
AcDbLine
 10
-25795.01823276502
 20
7802.154659243358
 30
0.0
 11
-25539.01823276501
 21
7802.154659243358
 31
0.0
  0
INSERT
  5
16C7
330
289F
100
AcDbEntity
  8
SIZE
 62
     0
100
AcDbBlockReference
  2
_DOTBLANK
 10
-25807.01823276501
 20
7802.154659243358
 30
0.0
 41
12.0
 42
12.0
 43
12.0
 50
180.0
  0
INSERT
  5
16C8
330
289F
100
AcDbEntity
  8
SIZE
 62
     0
100
AcDbBlockReference
  2
_DOTBLANK
 10
-25527.01823276501
 20
7802.154659243358
 30
0.0
 41
12.0
 42
12.0
 43
12.0
  0
INSERT
  5
16C9
330
289F
100
AcDbEntity
  8
0
100
AcDbBlockReference
  2
*U48
 10
0.0
 20
0.0
 30
0.0
  0
POINT
  5
16CA
330
289F
100
AcDbEntity
  8
DEFPOINTS
 62
     0
100
AcDbPoint
 10
-25807.01823276501
 20
7698.167454177002
 30
0.0
  0
POINT
  5
16CB
330
289F
100
AcDbEntity
  8
DEFPOINTS
 62
     0
100
AcDbPoint
 10
-25527.01823276501
 20
7698.167454177002
 30
0.0
  0
POINT
  5
16CC
330
289F
100
AcDbEntity
  8
DEFPOINTS
 62
     0
100
AcDbPoint
 10
-25527.01823276501
 20
7802.154659243358
 30
0.0
  0
ENDBLK
  5
16CD
330
289F
100
AcDbEntity
  8
0
100
AcDbBlockEnd
  0
BLOCK
  5
28A2
330
28A1
100
AcDbEntity
  8
0
100
AcDbBlockBegin
  2
*U48
 70
     1
 10
0.0
 20
0.0
 30
0.0
  3
*U48
  1

  0
TEXT
  5
1F29
330
28A1
100
AcDbEntity
  8
SIZE
 62
     0
100
AcDbText
 10
-25741.07537562216
 20
7812.154659243358
 30
0.0
 40
64.0
  1
280
 41
0.9
100
AcDbText
  0
ENDBLK
  5
1F2B
330
28A1
100
AcDbEntity
  8
0
100
AcDbBlockEnd
  0
BLOCK
  5
28A4
330
28A3
100
AcDbEntity
  8
0
100
AcDbBlockBegin
  2
*D49
 70
     1
 10
0.0
 20
0.0
 30
0.0
  3
*D49
  1

  0
LINE
  5
16D0
330
28A3
100
AcDbEntity
  8
SIZE
 62
     0
100
AcDbLine
 10
-25824.51823276501
 20
7705.702971374808
 30
0.0
 11
-25824.51823276501
 21
7931.282433493766
 31
0.0
  0
LINE
  5
16D1
330
28A3
100
AcDbEntity
  8
SIZE
 62
     0
100
AcDbLine
 10
-25509.51823276502
 20
7705.702971374808
 30
0.0
 11
-25509.51823276502
 21
7931.282433493766
 31
0.0
  0
LINE
  5
16D2
330
28A3
100
AcDbEntity
  8
SIZE
 62
     0
100
AcDbLine
 10
-25812.51823276502
 20
7911.282433493766
 30
0.0
 11
-25521.51823276501
 21
7911.282433493766
 31
0.0
  0
INSERT
  5
16D3
330
28A3
100
AcDbEntity
  8
SIZE
 62
     0
100
AcDbBlockReference
  2
_DOTBLANK
 10
-25824.51823276501
 20
7911.282433493766
 30
0.0
 41
12.0
 42
12.0
 43
12.0
 50
180.0
  0
INSERT
  5
16D4
330
28A3
100
AcDbEntity
  8
SIZE
 62
     0
100
AcDbBlockReference
  2
_DOTBLANK
 10
-25509.51823276502
 20
7911.282433493766
 30
0.0
 41
12.0
 42
12.0
 43
12.0
  0
INSERT
  5
16D5
330
28A3
100
AcDbEntity
  8
0
100
AcDbBlockReference
  2
*U50
 10
0.0
 20
0.0
 30
0.0
  0
POINT
  5
16D6
330
28A3
100
AcDbEntity
  8
DEFPOINTS
 62
     0
100
AcDbPoint
 10
-25824.51823276501
 20
7685.702971374808
 30
0.0
  0
POINT
  5
16D7
330
28A3
100
AcDbEntity
  8
DEFPOINTS
 62
     0
100
AcDbPoint
 10
-25509.51823276502
 20
7685.702971374808
 30
0.0
  0
POINT
  5
16D8
330
28A3
100
AcDbEntity
  8
DEFPOINTS
 62
     0
100
AcDbPoint
 10
-25509.51823276502
 20
7911.282433493766
 30
0.0
  0
ENDBLK
  5
16D9
330
28A3
100
AcDbEntity
  8
0
100
AcDbBlockEnd
  0
BLOCK
  5
28A6
330
28A5
100
AcDbEntity
  8
0
100
AcDbBlockBegin
  2
*U50
 70
     1
 10
0.0
 20
0.0
 30
0.0
  3
*U50
  1

  0
TEXT
  5
1F2D
330
28A5
100
AcDbEntity
  8
SIZE
 62
     0
100
AcDbText
 10
-25735.58966133645
 20
7921.282433493766
 30
0.0
 40
64.0
  1
315
 41
0.9
100
AcDbText
  0
ENDBLK
  5
1F2F
330
28A5
100
AcDbEntity
  8
0
100
AcDbBlockEnd
  0
BLOCK
  5
28A8
330
28A7
100
AcDbEntity
  8
0
100
AcDbBlockBegin
  2
*D51
 70
     1
 10
0.0
 20
0.0
 30
0.0
  3
*D51
  1

  0
LINE
  5
1D83
330
28A7
100
AcDbEntity
  8
SIZE
 62
     0
100
AcDbLine
 10
-134.5
 20
-320.0
 30
0.0
 11
-134.5
 21
-468.0173952306001
 31
0.0
  0
LINE
  5
1D84
330
28A7
100
AcDbEntity
  8
SIZE
 62
     0
100
AcDbLine
 10
134.5
 20
-320.0
 30
0.0
 11
134.5
 21
-468.0173952306001
 31
0.0
  0
LINE
  5
1D85
330
28A7
100
AcDbEntity
  8
SIZE
 62
     0
100
AcDbLine
 10
-122.5
 20
-448.0173952306
 30
0.0
 11
122.5
 21
-448.0173952306
 31
0.0
  0
INSERT
  5
1D86
330
28A7
100
AcDbEntity
  8
SIZE
 62
     0
100
AcDbBlockReference
  2
_DOTBLANK
 10
-134.5
 20
-448.0173952306
 30
0.0
 41
12.0
 42
12.0
 43
12.0
 50
180.0
  0
INSERT
  5
1D87
330
28A7
100
AcDbEntity
  8
SIZE
 62
     0
100
AcDbBlockReference
  2
_DOTBLANK
 10
134.5
 20
-448.0173952306
 30
0.0
 41
12.0
 42
12.0
 43
12.0
  0
INSERT
  5
1D88
330
28A7
100
AcDbEntity
  8
0
100
AcDbBlockReference
  2
*U52
 10
0.0
 20
0.0
 30
0.0
  0
POINT
  5
1D89
330
28A7
100
AcDbEntity
  8
DEFPOINTS
 62
     0
100
AcDbPoint
 10
-134.5
 20
-300.0
 30
0.0
  0
POINT
  5
1D8A
330
28A7
100
AcDbEntity
  8
DEFPOINTS
 62
     0
100
AcDbPoint
 10
134.5
 20
-300.0
 30
0.0
  0
POINT
  5
1D8B
330
28A7
100
AcDbEntity
  8
DEFPOINTS
 62
     0
100
AcDbPoint
 10
134.5
 20
-448.0173952306
 30
0.0
  0
ENDBLK
  5
173D
330
28A7
100
AcDbEntity
  8
0
100
AcDbBlockEnd
  0
BLOCK
  5
28AA
330
28A9
100
AcDbEntity
  8
0
100
AcDbBlockBegin
  2
*U52
 70
     1
 10
0.0
 20
0.0
 30
0.0
  3
*U52
  1

  0
TEXT
  5
1F31
330
28A9
100
AcDbEntity
  8
SIZE
 62
     0
100
AcDbText
 10
-72.68571428571426
 20
-438.0173952306003
 30
0.0
 40
64.0
  1
269
 41
0.9
100
AcDbText
  0
ENDBLK
  5
1F33
330
28A9
100
AcDbEntity
  8
0
100
AcDbBlockEnd
  0
BLOCK
  5
28AC
330
28AB
100
AcDbEntity
  8
0
100
AcDbBlockBegin
  2
*D53
 70
     1
 10
0.0
 20
0.0
 30
0.0
  3
*D53
  1

  0
LINE
  5
1D8C
330
28AB
100
AcDbEntity
  8
SIZE
 62
     0
100
AcDbLine
 10
154.5
 20
-300.0
 30
0.0
 11
304.6432844803784
 21
-300.0
 31
0.0
  0
LINE
  5
1D8D
330
28AB
100
AcDbEntity
  8
SIZE
 62
     0
100
AcDbLine
 10
177.5
 20
-0.0000000000000057
 30
0.0
 11
304.6432844803785
 21
-0.0000000000000417
 31
0.0
  0
LINE
  5
1D8E
330
28AB
100
AcDbEntity
  8
SIZE
 62
     0
100
AcDbLine
 10
284.6432844803784
 20
-288.0
 30
0.0
 11
284.6432844803785
 21
-12.00000000000003
 31
0.0
  0
INSERT
  5
1D8F
330
28AB
100
AcDbEntity
  8
SIZE
 62
     0
100
AcDbBlockReference
  2
_DOTBLANK
 10
284.6432844803784
 20
-300.0
 30
0.0
 41
12.0
 42
12.0
 43
12.0
 50
270.0
  0
INSERT
  5
1D90
330
28AB
100
AcDbEntity
  8
SIZE
 62
     0
100
AcDbBlockReference
  2
_DOTBLANK
 10
284.6432844803785
 20
-0.000000000000036
 30
0.0
 41
12.0
 42
12.0
 43
12.0
 50
90.0
  0
INSERT
  5
1D91
330
28AB
100
AcDbEntity
  8
0
100
AcDbBlockReference
  2
*U54
 10
0.0
 20
0.0
 30
0.0
  0
POINT
  5
1D92
330
28AB
100
AcDbEntity
  8
DEFPOINTS
 62
     0
100
AcDbPoint
 10
134.5
 20
-300.0
 30
0.0
  0
POINT
  5
1D93
330
28AB
100
AcDbEntity
  8
DEFPOINTS
 62
     0
100
AcDbPoint
 10
157.5
 20
0.0
 30
0.0
  0
POINT
  5
1D94
330
28AB
100
AcDbEntity
  8
DEFPOINTS
 62
     0
100
AcDbPoint
 10
284.6432844803785
 20
-0.000000000000036
 30
0.0
  0
ENDBLK
  5
1749
330
28AB
100
AcDbEntity
  8
0
100
AcDbBlockEnd
  0
BLOCK
  5
28AE
330
28AD
100
AcDbEntity
  8
0
100
AcDbBlockBegin
  2
*U54
 70
     1
 10
0.0
 20
0.0
 30
0.0
  3
*U54
  1

  0
TEXT
  5
1F35
330
28AD
100
AcDbEntity
  8
SIZE
 62
     0
100
AcDbText
 10
274.6432844803785
 20
-224.0571428571429
 30
0.0
 40
64.0
  1
300
 50
90.0
 41
0.9
100
AcDbText
  0
ENDBLK
  5
1F37
330
28AD
100
AcDbEntity
  8
0
100
AcDbBlockEnd
  0
BLOCK
  5
28B0
330
28AF
100
AcDbEntity
  8
0
100
AcDbBlockBegin
  2
*D55
 70
     1
 10
0.0
 20
0.0
 30
0.0
  3
*D55
  1

  0
LINE
  5
1D95
330
28AF
100
AcDbEntity
  8
SIZE
 62
     0
100
AcDbLine
 10
-140.0
 20
32.46448280219375
 30
0.0
 11
-140.0
 21
136.4516878685508
 31
0.0
  0
LINE
  5
1D96
330
28AF
100
AcDbEntity
  8
SIZE
 62
     0
100
AcDbLine
 10
140.0
 20
32.46448280219375
 30
0.0
 11
140.0
 21
136.4516878685508
 31
0.0
  0
LINE
  5
1D97
330
28AF
100
AcDbEntity
  8
SIZE
 62
     0
100
AcDbLine
 10
-128.0
 20
116.4516878685508
 30
0.0
 11
128.0
 21
116.4516878685508
 31
0.0
  0
INSERT
  5
1D98
330
28AF
100
AcDbEntity
  8
SIZE
 62
     0
100
AcDbBlockReference
  2
_DOTBLANK
 10
-140.0
 20
116.4516878685508
 30
0.0
 41
12.0
 42
12.0
 43
12.0
 50
180.0
  0
INSERT
  5
1D99
330
28AF
100
AcDbEntity
  8
SIZE
 62
     0
100
AcDbBlockReference
  2
_DOTBLANK
 10
140.0
 20
116.4516878685508
 30
0.0
 41
12.0
 42
12.0
 43
12.0
  0
INSERT
  5
1D9A
330
28AF
100
AcDbEntity
  8
0
100
AcDbBlockReference
  2
*U56
 10
0.0
 20
0.0
 30
0.0
  0
POINT
  5
1D9B
330
28AF
100
AcDbEntity
  8
DEFPOINTS
 62
     0
100
AcDbPoint
 10
-140.0
 20
12.46448280219374
 30
0.0
  0
POINT
  5
1D9C
330
28AF
100
AcDbEntity
  8
DEFPOINTS
 62
     0
100
AcDbPoint
 10
140.0
 20
12.46448280219374
 30
0.0
  0
POINT
  5
1D9D
330
28AF
100
AcDbEntity
  8
DEFPOINTS
 62
     0
100
AcDbPoint
 10
140.0
 20
116.4516878685508
 30
0.0
  0
ENDBLK
  5
1755
330
28AF
100
AcDbEntity
  8
0
100
AcDbBlockEnd
  0
BLOCK
  5
28B2
330
28B1
100
AcDbEntity
  8
0
100
AcDbBlockBegin
  2
*U56
 70
     1
 10
0.0
 20
0.0
 30
0.0
  3
*U56
  1

  0
TEXT
  5
1F39
330
28B1
100
AcDbEntity
  8
SIZE
 62
     0
100
AcDbText
 10
-74.05714285714283
 20
126.4516878685508
 30
0.0
 40
64.0
  1
280
 41
0.9
100
AcDbText
  0
ENDBLK
  5
1F3B
330
28B1
100
AcDbEntity
  8
0
100
AcDbBlockEnd
  0
BLOCK
  5
28B4
330
28B3
100
AcDbEntity
  8
0
100
AcDbBlockBegin
  2
*D57
 70
     1
 10
0.0
 20
0.0
 30
0.0
  3
*D57
  1

  0
LINE
  5
1D9E
330
28B3
100
AcDbEntity
  8
SIZE
 62
     0
100
AcDbLine
 10
-157.5
 20
20.0
 30
0.0
 11
-157.5
 21
245.5794621189598
 31
0.0
  0
LINE
  5
1D9F
330
28B3
100
AcDbEntity
  8
SIZE
 62
     0
100
AcDbLine
 10
157.5
 20
20.0
 30
0.0
 11
157.5
 21
245.5794621189598
 31
0.0
  0
LINE
  5
1DA0
330
28B3
100
AcDbEntity
  8
SIZE
 62
     0
100
AcDbLine
 10
-145.5
 20
225.5794621189598
 30
0.0
 11
145.5
 21
225.5794621189598
 31
0.0
  0
INSERT
  5
1DA1
330
28B3
100
AcDbEntity
  8
SIZE
 62
     0
100
AcDbBlockReference
  2
_DOTBLANK
 10
-157.5
 20
225.5794621189598
 30
0.0
 41
12.0
 42
12.0
 43
12.0
 50
180.0
  0
INSERT
  5
1DA2
330
28B3
100
AcDbEntity
  8
SIZE
 62
     0
100
AcDbBlockReference
  2
_DOTBLANK
 10
157.5
 20
225.5794621189598
 30
0.0
 41
12.0
 42
12.0
 43
12.0
  0
INSERT
  5
1DA3
330
28B3
100
AcDbEntity
  8
0
100
AcDbBlockReference
  2
*U58
 10
0.0
 20
0.0
 30
0.0
  0
POINT
  5
1DA4
330
28B3
100
AcDbEntity
  8
DEFPOINTS
 62
     0
100
AcDbPoint
 10
-157.5
 20
0.0
 30
0.0
  0
POINT
  5
1DA5
330
28B3
100
AcDbEntity
  8
DEFPOINTS
 62
     0
100
AcDbPoint
 10
157.5
 20
0.0
 30
0.0
  0
POINT
  5
1DA6
330
28B3
100
AcDbEntity
  8
DEFPOINTS
 62
     0
100
AcDbPoint
 10
157.5
 20
225.5794621189598
 30
0.0
  0
ENDBLK
  5
1761
330
28B3
100
AcDbEntity
  8
0
100
AcDbBlockEnd
  0
BLOCK
  5
28B6
330
28B5
100
AcDbEntity
  8
0
100
AcDbBlockBegin
  2
*U58
 70
     1
 10
0.0
 20
0.0
 30
0.0
  3
*U58
  1

  0
TEXT
  5
1F3D
330
28B5
100
AcDbEntity
  8
SIZE
 62
     0
100
AcDbText
 10
-68.57142857142857
 20
235.5794621189599
 30
0.0
 40
64.0
  1
315
 41
0.9
100
AcDbText
  0
ENDBLK
  5
1F3F
330
28B5
100
AcDbEntity
  8
0
100
AcDbBlockEnd
  0
BLOCK
  5
28B8
330
28B7
100
AcDbEntity
  8
0
100
AcDbBlockBegin
  2
*D59
 70
     1
 10
0.0
 20
0.0
 30
0.0
  3
*D59
  1

  0
LINE
  5
1DA7
330
28B7
100
AcDbEntity
  8
SIZE
 62
     0
100
AcDbLine
 10
-177.5
 20
0.0000000000000057
 30
0.0
 11
-314.0264221186908
 21
0.0000000000000443
 31
0.0
  0
LINE
  5
1DA8
330
28B7
100
AcDbEntity
  8
SIZE
 62
     0
100
AcDbLine
 10
-177.5
 20
-7.999999999999995
 30
0.0
 11
-314.0264221186908
 21
-7.999999999999958
 31
0.0
  0
LINE
  5
1DA9
330
28B7
100
AcDbEntity
  8
SIZE
 62
     0
100
AcDbLine
 10
-294.0264221186908
 20
12.00000000000003
 30
0.0
 11
-294.0264221186908
 21
24.00000000000004
 31
0.0
  0
LINE
  5
1DAA
330
28B7
100
AcDbEntity
  8
SIZE
 62
     0
100
AcDbLine
 10
-294.0264221186908
 20
-19.99999999999996
 30
0.0
 11
-294.0264221186908
 21
-90.39999999999997
 31
0.0
  0
INSERT
  5
1DAB
330
28B7
100
AcDbEntity
  8
SIZE
 62
     0
100
AcDbBlockReference
  2
_DOTBLANK
 10
-294.0264221186908
 20
0.0000000000000387
 30
0.0
 41
12.0
 42
12.0
 43
12.0
 50
270.0
  0
INSERT
  5
1DAC
330
28B7
100
AcDbEntity
  8
SIZE
 62
     0
100
AcDbBlockReference
  2
_DOTBLANK
 10
-294.0264221186908
 20
-7.999999999999961
 30
0.0
 41
12.0
 42
12.0
 43
12.0
 50
90.0
  0
INSERT
  5
1DAD
330
28B7
100
AcDbEntity
  8
0
100
AcDbBlockReference
  2
*U60
 10
0.0
 20
0.0
 30
0.0
  0
POINT
  5
1DAE
330
28B7
100
AcDbEntity
  8
DEFPOINTS
 62
     0
100
AcDbPoint
 10
-157.5
 20
0.0
 30
0.0
  0
POINT
  5
1DAF
330
28B7
100
AcDbEntity
  8
DEFPOINTS
 62
     0
100
AcDbPoint
 10
-157.5
 20
-8.000000000000003
 30
0.0
  0
POINT
  5
1DB0
330
28B7
100
AcDbEntity
  8
DEFPOINTS
 62
     0
100
AcDbPoint
 10
-294.0264221186908
 20
-7.999999999999961
 30
0.0
  0
ENDBLK
  5
176D
330
28B7
100
AcDbEntity
  8
0
100
AcDbBlockEnd
  0
BLOCK
  5
28BA
330
28B9
100
AcDbEntity
  8
0
100
AcDbBlockBegin
  2
*U60
 70
     1
 10
0.0
 20
0.0
 30
0.0
  3
*U60
  1

  0
TEXT
  5
1F41
330
28B9
100
AcDbEntity
  8
SIZE
 62
     0
100
AcDbText
 10
-304.0264221186908
 20
-80.4
 30
0.0
 40
64.0
  1
8
 50
90.0
 41
0.9
100
AcDbText
  0
ENDBLK
  5
1F43
330
28B9
100
AcDbEntity
  8
0
100
AcDbBlockEnd
  0
BLOCK
  5
28BC
330
28BB
100
AcDbEntity
  8
0
100
AcDbBlockBegin
  2
*D61
 70
     1
 10
0.0
 20
0.0
 30
0.0
  3
*D61
  1

  0
LINE
  5
1DB1
330
28BB
100
AcDbEntity
  8
SIZE
 62
     0
100
AcDbLine
 10
154.5
 20
-300.0
 30
0.0
 11
304.6432844803785
 21
-300.0
 31
0.0
  0
LINE
  5
1DB2
330
28BB
100
AcDbEntity
  8
SIZE
 62
     0
100
AcDbLine
 10
143.5
 20
-312.0
 30
0.0
 11
304.6432844803785
 21
-312.0
 31
0.0
  0
LINE
  5
1DB3
330
28BB
100
AcDbEntity
  8
SIZE
 62
     0
100
AcDbLine
 10
284.6432844803785
 20
-288.0
 30
0.0
 11
284.6432844803785
 21
-276.0
 31
0.0
  0
LINE
  5
1DB4
330
28BB
100
AcDbEntity
  8
SIZE
 62
     0
100
AcDbLine
 10
284.6432844803785
 20
-324.0000000000001
 30
0.0
 11
284.6432844803784
 21
-438.2857142857143
 31
0.0
  0
INSERT
  5
1DB5
330
28BB
100
AcDbEntity
  8
SIZE
 62
     0
100
AcDbBlockReference
  2
_DOTBLANK
 10
284.6432844803785
 20
-300.0
 30
0.0
 41
12.0
 42
12.0
 43
12.0
 50
270.0
  0
INSERT
  5
1DB6
330
28BB
100
AcDbEntity
  8
SIZE
 62
     0
100
AcDbBlockReference
  2
_DOTBLANK
 10
284.6432844803785
 20
-312.0
 30
0.0
 41
12.0
 42
12.0
 43
12.0
 50
90.0
  0
INSERT
  5
1DB7
330
28BB
100
AcDbEntity
  8
0
100
AcDbBlockReference
  2
*U62
 10
0.0
 20
0.0
 30
0.0
  0
POINT
  5
1DB8
330
28BB
100
AcDbEntity
  8
DEFPOINTS
 62
     0
100
AcDbPoint
 10
134.5
 20
-300.0
 30
0.0
  0
POINT
  5
1DB9
330
28BB
100
AcDbEntity
  8
DEFPOINTS
 62
     0
100
AcDbPoint
 10
123.5
 20
-312.0
 30
0.0
  0
POINT
  5
1DBA
330
28BB
100
AcDbEntity
  8
DEFPOINTS
 62
     0
100
AcDbPoint
 10
284.6432844803785
 20
-312.0
 30
0.0
  0
ENDBLK
  5
177B
330
28BB
100
AcDbEntity
  8
0
100
AcDbBlockEnd
  0
BLOCK
  5
28BE
330
28BD
100
AcDbEntity
  8
0
100
AcDbBlockBegin
  2
*U62
 70
     1
 10
0.0
 20
0.0
 30
0.0
  3
*U62
  1

  0
TEXT
  5
1F45
330
28BD
100
AcDbEntity
  8
SIZE
 62
     0
100
AcDbText
 10
274.6432844803785
 20
-428.2857142857142
 30
0.0
 40
64.0
  1
12
 50
90.0
 41
0.9
100
AcDbText
  0
ENDBLK
  5
1F47
330
28BD
100
AcDbEntity
  8
0
100
AcDbBlockEnd
  0
BLOCK
  5
28C0
330
28BF
100
AcDbEntity
  8
0
100
AcDbBlockBegin
  2
*U63
 70
     1
 10
0.0
 20
0.0
 30
0.0
  3
*U63
  1

  0
ENDBLK
  5
1D57
330
28BF
100
AcDbEntity
  8
0
100
AcDbBlockEnd
  0
BLOCK
  5
28C2
330
28C1
100
AcDbEntity
  8
0
100
AcDbBlockBegin
  2
*U64
 70
     1
 10
0.0
 20
0.0
 30
0.0
  3
*U64
  1

  0
INSERT
  5
2087
330
28C1
100
AcDbEntity
  8
NOTE
100
AcDbBlockReference
  2
_OPEN30
 10
-140.0
 20
0.0
 30
0.0
 41
12.0
 42
12.0
 43
12.0
 50
312.6090116116894
  0
POLYLINE
  5
2088
330
28C1
100
AcDbEntity
  8
NOTE
100
AcDb2dPolyline
 66
     1
 10
0.0
 20
0.0
 30
0.0
  0
VERTEX
  5
2757
330
2088
100
AcDbEntity
  8
NOTE
100
AcDbVertex
100
AcDb2dVertex
 10
-148.1239008361894
 20
8.831887408915472
 30
0.0
  0
VERTEX
  5
2758
330
2088
100
AcDbEntity
  8
NOTE
100
AcDbVertex
100
AcDb2dVertex
 10
-227.8693999922543
 20
95.52709505801338
 30
0.0
  0
VERTEX
  5
2759
330
2088
100
AcDbEntity
  8
NOTE
100
AcDbVertex
100
AcDb2dVertex
 10
-773.7093999922541
 20
95.52709505801338
 30
0.0
  0
SEQEND
  5
275A
330
2088
100
AcDbEntity
  8
NOTE
  0
ENDBLK
  5
2089
330
28C1
100
AcDbEntity
  8
0
100
AcDbBlockEnd
  0
BLOCK
  5
28C4
330
28C3
100
AcDbEntity
  8
0
100
AcDbBlockBegin
  2
*U65
 70
     1
 10
0.0
 20
0.0
 30
0.0
  3
*U65
  1

  0
TEXT
  5
208C
330
28C3
100
AcDbEntity
  8
NOTE
100
AcDbText
 10
-773.7093999922541
 20
113.5270950580134
 30
0.0
 40
64.0
  1
4×φ10取付穴
 41
0.9
100
AcDbText
  0
ENDBLK
  5
208D
330
28C3
100
AcDbEntity
  8
0
100
AcDbBlockEnd
  0
BLOCK
  5
28C6
330
28C5
100
AcDbEntity
  8
0
100
AcDbBlockBegin
  2
*U66
 70
     1
 10
0.0
 20
0.0
 30
0.0
  3
*U66
  1

  0
INSERT
  5
215B
330
28C5
100
AcDbEntity
  8
NOTE
100
AcDbBlockReference
  2
_OPEN30
 10
140.0
 20
140.0
 30
0.0
 41
12.0
 42
12.0
 43
12.0
 50
230.7091310502217
  0
POLYLINE
  5
215C
330
28C5
100
AcDbEntity
  8
NOTE
100
AcDb2dPolyline
 66
     1
 10
0.0
 20
0.0
 30
0.0
  0
VERTEX
  5
275B
330
215C
100
AcDbEntity
  8
NOTE
100
AcDbVertex
100
AcDb2dVertex
 10
147.599090480922
 20
149.2872936780722
 30
0.0
  0
VERTEX
  5
275C
330
215C
100
AcDbEntity
  8
NOTE
100
AcDbVertex
100
AcDb2dVertex
 10
203.4345623698609
 20
217.5270950580134
 30
0.0
  0
VERTEX
  5
275D
330
215C
100
AcDbEntity
  8
NOTE
100
AcDbVertex
100
AcDb2dVertex
 10
749.2745623698612
 20
217.5270950580134
 30
0.0
  0
SEQEND
  5
275E
330
215C
100
AcDbEntity
  8
NOTE
  0
ENDBLK
  5
215D
330
28C5
100
AcDbEntity
  8
0
100
AcDbBlockEnd
  0
BLOCK
  5
28C8
330
28C7
100
AcDbEntity
  8
0
100
AcDbBlockBegin
  2
*U67
 70
     1
 10
0.0
 20
0.0
 30
0.0
  3
*U67
  1

  0
TEXT
  5
2160
330
28C7
100
AcDbEntity
  8
NOTE
100
AcDbText
 10
265.4345623698609
 20
235.5270950580135
 30
0.0
 40
64.0
  1
4×φ10取付穴
 41
0.9
100
AcDbText
  0
ENDBLK
  5
2161
330
28C7
100
AcDbEntity
  8
0
100
AcDbBlockEnd
  0
BLOCK
  5
28CA
330
28C9
100
AcDbEntity
  8
0
100
AcDbBlockBegin
  2
*U68
 70
     1
 10
0.0
 20
0.0
 30
0.0
  3
*U68
  1

  0
INSERT
  5
223E
330
28C9
100
AcDbEntity
  8
NOTE
100
AcDbBlockReference
  2
_OPEN30
 10
140.0
 20
140.0
 30
0.0
 41
12.0
 42
12.0
 43
12.0
 50
232.3258907693334
  0
POLYLINE
  5
223F
330
28C9
100
AcDbEntity
  8
NOTE
100
AcDb2dPolyline
 66
     1
 10
0.0
 20
0.0
 30
0.0
  0
VERTEX
  5
276D
330
223F
100
AcDbEntity
  8
NOTE
100
AcDbVertex
100
AcDb2dVertex
 10
147.3340332839448
 20
149.4979974620964
 30
0.0
  0
VERTEX
  5
276E
330
223F
100
AcDbEntity
  8
NOTE
100
AcDbVertex
100
AcDb2dVertex
 10
213.7628007872081
 20
235.5270950580125
 30
0.0
  0
VERTEX
  5
276F
330
223F
100
AcDbEntity
  8
NOTE
100
AcDbVertex
100
AcDb2dVertex
 10
759.6028007872081
 20
235.5270950580125
 30
0.0
  0
SEQEND
  5
2770
330
223F
100
AcDbEntity
  8
NOTE
  0
ENDBLK
  5
2240
330
28C9
100
AcDbEntity
  8
0
100
AcDbBlockEnd
  0
BLOCK
  5
28CC
330
28CB
100
AcDbEntity
  8
0
100
AcDbBlockBegin
  2
*U69
 70
     1
 10
0.0
 20
0.0
 30
0.0
  3
*U69
  1

  0
TEXT
  5
2243
330
28CB
100
AcDbEntity
  8
NOTE
100
AcDbText
 10
275.7628007872081
 20
253.5270950580124
 30
0.0
 40
64.0
  1
4×φ10取付穴
 41
0.9
100
AcDbText
  0
ENDBLK
  5
2244
330
28CB
100
AcDbEntity
  8
0
100
AcDbBlockEnd
  0
BLOCK
  5
28CE
330
28CD
100
AcDbEntity
  8
0
100
AcDbBlockBegin
  2
*U70
 70
     1
 10
0.0
 20
0.0
 30
0.0
  3
*U70
  1

  0
INSERT
  5
2337
330
28CD
100
AcDbEntity
  8
NOTE
100
AcDbBlockReference
  2
_OPEN30
 10
0.0
 20
140.0
 30
0.0
 41
12.0
 42
12.0
 43
12.0
 50
312.6090116116895
  0
POLYLINE
  5
2338
330
28CD
100
AcDbEntity
  8
NOTE
100
AcDb2dPolyline
 66
     1
 10
0.0
 20
0.0
 30
0.0
  0
VERTEX
  5
277B
330
2338
100
AcDbEntity
  8
NOTE
100
AcDbVertex
100
AcDb2dVertex
 10
-8.123900836189513
 20
148.8318874089154
 30
0.0
  0
VERTEX
  5
277C
330
2338
100
AcDbEntity
  8
NOTE
100
AcDbVertex
100
AcDb2dVertex
 10
-87.86939999225436
 20
235.527095058013
 30
0.0
  0
VERTEX
  5
277D
330
2338
100
AcDbEntity
  8
NOTE
100
AcDbVertex
100
AcDb2dVertex
 10
-636.4522571351113
 20
235.527095058013
 30
0.0
  0
SEQEND
  5
277E
330
2338
100
AcDbEntity
  8
NOTE
  0
ENDBLK
  5
2339
330
28CD
100
AcDbEntity
  8
0
100
AcDbBlockEnd
  0
BLOCK
  5
28D0
330
28CF
100
AcDbEntity
  8
0
100
AcDbBlockBegin
  2
*U71
 70
     1
 10
0.0
 20
0.0
 30
0.0
  3
*U71
  1

  0
TEXT
  5
233C
330
28CF
100
AcDbEntity
  8
NOTE
100
AcDbText
 10
-633.7093999922545
 20
253.5270950580129
 30
0.0
 40
64.0
  1
4×φ10取付穴
 41
0.9
100
AcDbText
  0
ENDBLK
  5
233D
330
28CF
100
AcDbEntity
  8
0
100
AcDbBlockEnd
  0
BLOCK
  5
28D2
330
28D1
100
AcDbEntity
  8
0
100
AcDbBlockBegin
  2
*U72
 70
     1
 10
0.0
 20
0.0
 30
0.0
  3
*U72
  1

  0
INSERT
  5
2468
330
28D1
100
AcDbEntity
  8
NOTE
100
AcDbBlockReference
  2
_OPEN30
 10
0.0
 20
140.0
 30
0.0
 41
12.0
 42
12.0
 43
12.0
 50
227.3909883883105
  0
POLYLINE
  5
2469
330
28D1
100
AcDbEntity
  8
NOTE
100
AcDb2dPolyline
 66
     1
 10
0.0
 20
0.0
 30
0.0
  0
VERTEX
  5
277F
330
2469
100
AcDbEntity
  8
NOTE
100
AcDbVertex
100
AcDb2dVertex
 10
8.123900836189502
 20
148.8318874089154
 30
0.0
  0
VERTEX
  5
2780
330
2469
100
AcDbEntity
  8
NOTE
100
AcDbVertex
100
AcDb2dVertex
 10
87.86939999225406
 20
235.527095058013
 30
0.0
  0
VERTEX
  5
2781
330
2469
100
AcDbEntity
  8
NOTE
100
AcDbVertex
100
AcDb2dVertex
 10
633.7093999922544
 20
235.527095058013
 30
0.0
  0
SEQEND
  5
2782
330
2469
100
AcDbEntity
  8
NOTE
  0
ENDBLK
  5
246A
330
28D1
100
AcDbEntity
  8
0
100
AcDbBlockEnd
  0
BLOCK
  5
28D4
330
28D3
100
AcDbEntity
  8
0
100
AcDbBlockBegin
  2
*U73
 70
     1
 10
0.0
 20
0.0
 30
0.0
  3
*U73
  1

  0
TEXT
  5
246D
330
28D3
100
AcDbEntity
  8
NOTE
100
AcDbText
 10
149.8693999922541
 20
253.5270950580129
 30
0.0
 40
64.0
  1
4×φ10取付穴
 41
0.9
100
AcDbText
  0
ENDBLK
  5
246E
330
28D3
100
AcDbEntity
  8
0
100
AcDbBlockEnd
  0
BLOCK
  5
28D6
330
28D5
100
AcDbEntity
  8
0
100
AcDbBlockBegin
  2
*U74
 70
     1
 10
0.0
 20
0.0
 30
0.0
  3
*U74
  1

  0
INSERT
  5
259D
330
28D5
100
AcDbEntity
  8
NOTE
100
AcDbBlockReference
  2
_OPEN30
 10
-140.0
 20
0.0
 30
0.0
 41
12.0
 42
12.0
 43
12.0
 50
312.6090116116894
  0
POLYLINE
  5
259E
330
28D5
100
AcDbEntity
  8
NOTE
100
AcDb2dPolyline
 66
     1
 10
0.0
 20
0.0
 30
0.0
  0
VERTEX
  5
2783
330
259E
100
AcDbEntity
  8
NOTE
100
AcDbVertex
100
AcDb2dVertex
 10
-148.1239008361894
 20
8.831887408915472
 30
0.0
  0
VERTEX
  5
2784
330
259E
100
AcDbEntity
  8
NOTE
100
AcDbVertex
100
AcDb2dVertex
 10
-227.8693999922543
 20
95.52709505801338
 30
0.0
  0
VERTEX
  5
2785
330
259E
100
AcDbEntity
  8
NOTE
100
AcDbVertex
100
AcDb2dVertex
 10
-773.7093999922541
 20
95.52709505801338
 30
0.0
  0
SEQEND
  5
2786
330
259E
100
AcDbEntity
  8
NOTE
  0
ENDBLK
  5
259F
330
28D5
100
AcDbEntity
  8
0
100
AcDbBlockEnd
  0
BLOCK
  5
28D8
330
28D7
100
AcDbEntity
  8
0
100
AcDbBlockBegin
  2
*U75
 70
     1
 10
0.0
 20
0.0
 30
0.0
  3
*U75
  1

  0
TEXT
  5
25A2
330
28D7
100
AcDbEntity
  8
NOTE
100
AcDbText
 10
-773.7093999922541
 20
113.5270950580134
 30
0.0
 40
64.0
  1
4×φ10取付穴
 41
0.9
100
AcDbText
  0
ENDBLK
  5
25A3
330
28D7
100
AcDbEntity
  8
0
100
AcDbBlockEnd
  0
BLOCK
  5
28DA
330
28D9
100
AcDbEntity
  8
0
100
AcDbBlockBegin
  2
*X76
 70
     1
 10
0.0
 20
0.0
 30
0.0
  3
*X76
  1

  0
LINE
  5
25A6
330
28D9
100
AcDbEntity
  8
0
 62
     0
100
AcDbLine
 10
105.0836526177336
 20
-286.4000000000014
 30
0.0
 11
107.8999999999905
 21
-284.5224398729043
 31
0.0
  0
LINE
  5
25A7
330
28D9
100
AcDbEntity
  8
0
 62
     0
100
AcDbLine
 10
100.5836913238472
 20
-286.4000000000014
 30
0.0
 11
107.8999999999923
 21
-281.5224733374871
 31
0.0
  0
LINE
  5
25A8
330
28D9
100
AcDbEntity
  8
0
 62
     0
100
AcDbLine
 10
96.08373002996453
 20
-286.3999999999996
 30
0.0
 11
107.8999999999942
 21
-278.52250680207
 31
0.0
  0
LINE
  5
25A9
330
28D9
100
AcDbEntity
  8
0
 62
     0
100
AcDbLine
 10
91.58376873607812
 20
-286.4000000000014
 30
0.0
 11
107.8999999999923
 21
-275.5225402666564
 31
0.0
  0
LINE
  5
25AA
330
28D9
100
AcDbEntity
  8
0
 62
     0
100
AcDbLine
 10
87.08380744218993
 20
-286.4000000000014
 30
0.0
 11
107.8999999999923
 21
-272.5225737312376
 31
0.0
  0
LINE
  5
25AB
330
28D9
100
AcDbEntity
  8
0
 62
     0
100
AcDbLine
 10
82.58384614830537
 20
-286.4000000000014
 30
0.0
 11
107.8999999999923
 21
-269.5226071958223
 31
0.0
  0
LINE
  5
25AC
330
28D9
100
AcDbEntity
  8
0
 62
     0
100
AcDbLine
 10
78.08388485442262
 20
-286.3999999999996
 30
0.0
 11
107.8999999999942
 21
-266.5226406604052
 31
0.0
  0
LINE
  5
25AD
330
28D9
100
AcDbEntity
  8
0
 62
     0
100
AcDbLine
 10
73.58392356053444
 20
-286.4000000000014
 30
0.0
 11
107.8999999999905
 21
-263.5226741249917
 31
0.0
  0
LINE
  5
25AE
330
28D9
100
AcDbEntity
  8
0
 62
     0
100
AcDbLine
 10
69.08396226664809
 20
-286.4000000000014
 30
0.0
 11
107.8999999999923
 21
-260.5227075895746
 31
0.0
  0
LINE
  5
25AF
330
28D9
100
AcDbEntity
  8
0
 62
     0
100
AcDbLine
 10
64.58400097276717
 20
-286.3999999999996
 30
0.0
 11
107.8999999999923
 21
-257.5227410541574
 31
0.0
  0
LINE
  5
25B0
330
28D9
100
AcDbEntity
  8
0
 62
     0
100
AcDbLine
 10
60.08403967887897
 20
-286.4000000000014
 30
0.0
 11
107.8999999999923
 21
-254.5227745187422
 31
0.0
  0
LINE
  5
25B1
330
28D9
100
AcDbEntity
  8
0
 62
     0
100
AcDbLine
 10
55.58407838499261
 20
-286.4000000000014
 30
0.0
 11
107.8999999999923
 21
-251.522807983325
 31
0.0
  0
LINE
  5
25B2
330
28D9
100
AcDbEntity
  8
0
 62
     0
100
AcDbLine
 10
51.08411709110622
 20
-286.4000000000014
 30
0.0
 11
107.8999999999923
 21
-248.5228414479097
 31
0.0
  0
LINE
  5
25B3
330
28D9
100
AcDbEntity
  8
0
 62
     0
100
AcDbLine
 10
46.5841557972235
 20
-286.3999999999996
 30
0.0
 11
107.8999999999923
 21
-245.5228749124908
 31
0.0
  0
LINE
  5
25B4
330
28D9
100
AcDbEntity
  8
0
 62
     0
100
AcDbLine
 10
42.08419450333531
 20
-286.4000000000014
 30
0.0
 11
107.8999999999905
 21
-242.5229083770773
 31
0.0
  0
LINE
  5
25B5
330
28D9
100
AcDbEntity
  8
0
 62
     0
100
AcDbLine
 10
37.58423320945076
 20
-286.4000000000032
 30
0.0
 11
107.8999999999923
 21
-239.522941841662
 31
0.0
  0
LINE
  5
25B6
330
28D9
100
AcDbEntity
  8
0
 62
     0
100
AcDbLine
 10
33.08427191556621
 20
-286.4000000000014
 30
0.0
 11
107.8999999999923
 21
-236.5229753062449
 31
0.0
  0
LINE
  5
25B7
330
28D9
100
AcDbEntity
  8
0
 62
     0
100
AcDbLine
 10
28.58431062168165
 20
-286.3999999999996
 30
0.0
 11
107.8999999999923
 21
-233.5230087708279
 31
0.0
  0
LINE
  5
25B8
330
28D9
100
AcDbEntity
  8
0
 62
     0
100
AcDbLine
 10
24.08434932779346
 20
-286.3999999999996
 30
0.0
 11
107.8999999999905
 21
-230.5230422354125
 31
0.0
  0
LINE
  5
25B9
330
28D9
100
AcDbEntity
  8
0
 62
     0
100
AcDbLine
 10
19.5843880339089
 20
-286.4000000000014
 30
0.0
 11
107.8999999999923
 21
-227.5230756999954
 31
0.0
  0
LINE
  5
25BA
330
28D9
100
AcDbEntity
  8
0
 62
     0
100
AcDbLine
 10
15.08442674002435
 20
-286.4000000000014
 30
0.0
 11
107.8999999999942
 21
-224.5231091645801
 31
0.0
  0
LINE
  5
25BB
330
28D9
100
AcDbEntity
  8
0
 62
     0
100
AcDbLine
 10
10.58446544613798
 20
-286.3999999999996
 30
0.0
 11
107.8999999999905
 21
-221.523142629163
 31
0.0
  0
LINE
  5
25BC
330
28D9
100
AcDbEntity
  8
0
 62
     0
100
AcDbLine
 10
6.084504152251611
 20
-286.3999999999996
 30
0.0
 11
107.8999999999942
 21
-218.5231760937459
 31
0.0
  0
LINE
  5
25BD
330
28D9
100
AcDbEntity
  8
0
 62
     0
100
AcDbLine
 10
1.584542858367058
 20
-286.4000000000014
 30
0.0
 11
107.8999999999923
 21
-215.5232095583305
 31
0.0
  0
LINE
  5
25BE
330
28D9
100
AcDbEntity
  8
0
 62
     0
100
AcDbLine
 10
-2.915418435517493
 20
-286.4000000000014
 30
0.0
 11
107.8999999999942
 21
-212.5232430229153
 31
0.0
  0
LINE
  5
25BF
330
28D9
100
AcDbEntity
  8
0
 62
     0
100
AcDbLine
 10
-7.415379729403866
 20
-286.4000000000014
 30
0.0
 11
107.8999999999905
 21
-209.5232764874999
 31
0.0
  0
LINE
  5
25C0
330
28D9
100
AcDbEntity
  8
0
 62
     0
100
AcDbLine
 10
-11.91534102329024
 20
-286.3999999999996
 30
0.0
 11
107.8999999999923
 21
-206.523309952081
 31
0.0
  0
LINE
  5
25C1
330
28D9
100
AcDbEntity
  8
0
 62
     0
100
AcDbLine
 10
-16.41530231717661
 20
-286.4000000000014
 30
0.0
 11
107.8999999999905
 21
-203.5233434166676
 31
0.0
  0
LINE
  5
25C2
330
28D9
100
AcDbEntity
  8
0
 62
     0
100
AcDbLine
 10
-20.91526361106117
 20
-286.4000000000014
 30
0.0
 11
107.8999999999905
 21
-200.5233768812504
 31
0.0
  0
LINE
  5
25C3
330
28D9
100
AcDbEntity
  8
0
 62
     0
100
AcDbLine
 10
-25.41522490494936
 20
-286.4000000000032
 30
0.0
 11
107.8999999999905
 21
-197.5234103458351
 31
0.0
  0
LINE
  5
25C4
330
28D9
100
AcDbEntity
  8
0
 62
     0
100
AcDbLine
 10
-29.91518619883027
 20
-286.4000000000014
 30
0.0
 11
107.8999999999923
 21
-194.523443810418
 31
0.0
  0
LINE
  5
25C5
330
28D9
100
AcDbEntity
  8
0
 62
     0
100
AcDbLine
 10
-34.41514749272028
 20
-286.3999999999996
 30
0.0
 11
107.8999999999923
 21
-191.5234772749991
 31
0.0
  0
LINE
  5
25C6
330
28D9
100
AcDbEntity
  8
0
 62
     0
100
AcDbLine
 10
-38.91510878660302
 20
-286.3999999999996
 30
0.0
 11
107.8999999999905
 21
-188.5235107395856
 31
0.0
  0
LINE
  5
25C7
330
28D9
100
AcDbEntity
  8
0
 62
     0
100
AcDbLine
 10
-43.41507008048757
 20
-286.4000000000014
 30
0.0
 11
107.8999999999942
 21
-185.5235442041685
 31
0.0
  0
LINE
  5
25C8
330
28D9
100
AcDbEntity
  8
0
 62
     0
100
AcDbLine
 10
-47.91503137437394
 20
-286.4000000000014
 30
0.0
 11
107.8999999999905
 21
-182.5235776687532
 31
0.0
  0
LINE
  5
25C9
330
28D9
100
AcDbEntity
  8
0
 62
     0
100
AcDbLine
 10
-52.41499266825849
 20
-286.3999999999996
 30
0.0
 11
107.8999999999923
 21
-179.5236111333361
 31
0.0
  0
LINE
  5
25CA
330
28D9
100
AcDbEntity
  8
0
 62
     0
100
AcDbLine
 10
-56.91495396214486
 20
-286.3999999999996
 30
0.0
 11
107.8999999999905
 21
-176.5236445979208
 31
0.0
  0
LINE
  5
25CB
330
28D9
100
AcDbEntity
  8
0
 62
     0
100
AcDbLine
 10
-61.41491525603122
 20
-286.4000000000014
 30
0.0
 11
107.8999999999923
 21
-173.5236780625055
 31
0.0
  0
LINE
  5
25CC
330
28D9
100
AcDbEntity
  8
0
 62
     0
100
AcDbLine
 10
-65.91487654991761
 20
-286.4000000000014
 30
0.0
 11
107.8999999999923
 21
-170.5237115270865
 31
0.0
  0
LINE
  5
25CD
330
28D9
100
AcDbEntity
  8
0
 62
     0
100
AcDbLine
 10
-70.41483784380034
 20
-286.3999999999996
 30
0.0
 11
107.8999999999923
 21
-167.5237449916711
 31
0.0
  0
LINE
  5
25CE
330
28D9
100
AcDbEntity
  8
0
 62
     0
100
AcDbLine
 10
-74.91479913768853
 20
-286.4000000000032
 30
0.0
 11
107.8999999999942
 21
-164.5237784562559
 31
0.0
  0
LINE
  5
25CF
330
28D9
100
AcDbEntity
  8
0
 62
     0
100
AcDbLine
 10
-79.41476043157127
 20
-286.4000000000014
 30
0.0
 11
107.8999999999923
 21
-161.5238119208406
 31
0.0
  0
LINE
  5
25D0
330
28D9
100
AcDbEntity
  8
0
 62
     0
100
AcDbLine
 10
-83.91472172546126
 20
-286.4000000000014
 30
0.0
 11
107.8999999999923
 21
-158.5238453854235
 31
0.0
  0
LINE
  5
25D1
330
28D9
100
AcDbEntity
  8
0
 62
     0
100
AcDbLine
 10
-88.41468301934218
 20
-286.3999999999996
 30
0.0
 11
107.8999999999923
 21
-155.5238788500064
 31
0.0
  0
LINE
  5
25D2
330
28D9
100
AcDbEntity
  8
0
 62
     0
100
AcDbLine
 10
-92.91464431322856
 20
-286.3999999999996
 30
0.0
 11
107.8999999999923
 21
-152.5239123145893
 31
0.0
  0
LINE
  5
25D3
330
28D9
100
AcDbEntity
  8
0
 62
     0
100
AcDbLine
 10
-97.41460560711495
 20
-286.4000000000014
 30
0.0
 11
107.8999999999905
 21
-149.5239457791758
 31
0.0
  0
LINE
  5
25D4
330
28D9
100
AcDbEntity
  8
0
 62
     0
100
AcDbLine
 10
-101.9145669010031
 20
-286.4000000000014
 30
0.0
 11
107.8999999999923
 21
-146.5239792437587
 31
0.0
  0
LINE
  5
25D5
330
28D9
100
AcDbEntity
  8
0
 62
     0
100
AcDbLine
 10
-106.414528194884
 20
-286.3999999999996
 30
0.0
 11
107.8999999999942
 21
-143.5240127083416
 31
0.0
  0
LINE
  5
25D6
330
28D9
100
AcDbEntity
  8
0
 62
     0
100
AcDbLine
 10
-107.9000000000087
 20
-284.3903454725387
 30
0.0
 11
107.8999999999905
 21
-140.5240461729245
 31
0.0
  0
LINE
  5
25D7
330
28D9
100
AcDbEntity
  8
0
 62
     0
100
AcDbLine
 10
-107.9000000000051
 20
-281.3903789371234
 30
0.0
 11
107.8999999999923
 21
-137.5240796375092
 31
0.0
  0
LINE
  5
25D8
330
28D9
100
AcDbEntity
  8
0
 62
     0
100
AcDbLine
 10
-107.9000000000087
 20
-278.3904124017081
 30
0.0
 11
107.8999999999923
 21
-134.5241131020957
 31
0.0
  0
LINE
  5
25D9
330
28D9
100
AcDbEntity
  8
0
 62
     0
100
AcDbLine
 10
-107.9000000000069
 20
-275.390445866291
 30
0.0
 11
107.8999999999923
 21
-131.5241465666768
 31
0.0
  0
LINE
  5
25DA
330
28D9
100
AcDbEntity
  8
0
 62
     0
100
AcDbLine
 10
-107.9000000000051
 20
-272.3904793308721
 30
0.0
 11
107.8999999999905
 21
-128.5241800312615
 31
0.0
  0
LINE
  5
25DB
330
28D9
100
AcDbEntity
  8
0
 62
     0
100
AcDbLine
 10
-107.9000000000051
 20
-269.3905127954586
 30
0.0
 11
107.8999999999923
 21
-125.5242134958443
 31
0.0
  0
LINE
  5
25DC
330
28D9
100
AcDbEntity
  8
0
 62
     0
100
AcDbLine
 10
-107.9000000000069
 20
-266.3905462600433
 30
0.0
 11
107.8999999999905
 21
-122.5242469604309
 31
0.0
  0
LINE
  5
25DD
330
28D9
100
AcDbEntity
  8
0
 62
     0
100
AcDbLine
 10
-107.9000000000087
 20
-263.3905797246261
 30
0.0
 11
107.8999999999905
 21
-119.5242804250138
 31
0.0
  0
LINE
  5
25DE
330
28D9
100
AcDbEntity
  8
0
 62
     0
100
AcDbLine
 10
-107.9000000000051
 20
-260.390613189209
 30
0.0
 11
107.8999999999942
 21
-116.5243138895948
 31
0.0
  0
LINE
  5
25DF
330
28D9
100
AcDbEntity
  8
0
 62
     0
100
AcDbLine
 10
-107.9000000000051
 20
-257.3906466537919
 30
0.0
 11
107.8999999999923
 21
-113.5243473541795
 31
0.0
  0
LINE
  5
25E0
330
28D9
100
AcDbEntity
  8
0
 62
     0
100
AcDbLine
 10
-107.9000000000069
 20
-254.3906801183766
 30
0.0
 11
107.8999999999942
 21
-110.5243808187624
 31
0.0
  0
LINE
  5
25E1
330
28D9
100
AcDbEntity
  8
0
 62
     0
100
AcDbLine
 10
-107.9000000000087
 20
-251.3907135829632
 30
0.0
 11
107.8999999999905
 21
-107.5244142833489
 31
0.0
  0
LINE
  5
25E2
330
28D9
100
AcDbEntity
  8
0
 62
     0
100
AcDbLine
 10
-107.9000000000051
 20
-248.3907470475442
 30
0.0
 11
107.8999999999942
 21
-104.52444774793
 31
0.0
  0
LINE
  5
25E3
330
28D9
100
AcDbEntity
  8
0
 62
     0
100
AcDbLine
 10
-107.9000000000069
 20
-245.3907805121271
 30
0.0
 11
107.8999999999905
 21
-101.5244812125147
 31
0.0
  0
LINE
  5
25E4
330
28D9
100
AcDbEntity
  8
0
 62
     0
100
AcDbLine
 10
-107.9000000000087
 20
-242.3908139767118
 30
0.0
 11
107.8999999999923
 21
-98.52451467709943
 31
0.0
  0
LINE
  5
25E5
330
28D9
100
AcDbEntity
  8
0
 62
     0
100
AcDbLine
 10
-107.9000000000051
 20
-239.3908474412965
 30
0.0
 11
107.8999999999905
 21
-95.52454814168413
 31
0.0
  0
LINE
  5
25E6
330
28D9
100
AcDbEntity
  8
0
 62
     0
100
AcDbLine
 10
-107.9000000000069
 20
-236.3908809058812
 30
0.0
 11
107.7868721205158
 21
-92.60000000000221
 31
0.0
  0
LINE
  5
25E7
330
28D9
100
AcDbEntity
  8
0
 62
     0
100
AcDbLine
 10
-107.9000000000051
 20
-233.3909143704623
 30
0.0
 11
103.2869108266331
 21
-92.59999999999854
 31
0.0
  0
LINE
  5
25E8
330
28D9
100
AcDbEntity
  8
0
 62
     0
100
AcDbLine
 10
-107.9000000000087
 20
-230.3909478350488
 30
0.0
 11
98.78694953274498
 21
-92.60000000000037
 31
0.0
  0
LINE
  5
25E9
330
28D9
100
AcDbEntity
  8
0
 62
     0
100
AcDbLine
 10
-107.9000000000051
 20
-227.3909812996317
 30
0.0
 11
94.2869882388604
 21
-92.60000000000221
 31
0.0
  0
LINE
  5
25EA
330
28D9
100
AcDbEntity
  8
0
 62
     0
100
AcDbLine
 10
-107.9000000000087
 20
-224.3910147642164
 30
0.0
 11
89.7870269449722
 21
-92.60000000000221
 31
0.0
  0
LINE
  5
25EB
330
28D9
100
AcDbEntity
  8
0
 62
     0
100
AcDbLine
 10
-107.9000000000069
 20
-221.3910482287992
 30
0.0
 11
85.28706565108949
 21
-92.59999999999854
 31
0.0
  0
LINE
  5
25EC
330
28D9
100
AcDbEntity
  8
0
 62
     0
100
AcDbLine
 10
-107.9000000000051
 20
-218.3910816933803
 30
0.0
 11
80.78710435720314
 21
-92.59999999999854
 31
0.0
  0
LINE
  5
25ED
330
28D9
100
AcDbEntity
  8
0
 62
     0
100
AcDbLine
 10
-107.9000000000051
 20
-215.3911151579669
 30
0.0
 11
76.28714306331858
 21
-92.60000000000037
 31
0.0
  0
LINE
  5
25EE
330
28D9
100
AcDbEntity
  8
0
 62
     0
100
AcDbLine
 10
-107.9000000000069
 20
-212.3911486225497
 30
0.0
 11
71.7871817694322
 21
-92.60000000000037
 31
0.0
  0
LINE
  5
25EF
330
28D9
100
AcDbEntity
  8
0
 62
     0
100
AcDbLine
 10
-107.9000000000069
 20
-209.3911820871344
 30
0.0
 11
67.28722047554765
 21
-92.60000000000037
 31
0.0
  0
LINE
  5
25F0
330
28D9
100
AcDbEntity
  8
0
 62
     0
100
AcDbLine
 10
-107.9000000000051
 20
-206.3912155517155
 30
0.0
 11
62.78725918166128
 21
-92.60000000000037
 31
0.0
  0
LINE
  5
25F1
330
28D9
100
AcDbEntity
  8
0
 62
     0
100
AcDbLine
 10
-107.9000000000069
 20
-203.391249016302
 30
0.0
 11
58.2872978877749
 21
-92.60000000000037
 31
0.0
  0
LINE
  5
25F2
330
28D9
100
AcDbEntity
  8
0
 62
     0
100
AcDbLine
 10
-107.9000000000069
 20
-200.3912824808867
 30
0.0
 11
53.78733659389036
 21
-92.60000000000037
 31
0.0
  0
LINE
  5
25F3
330
28D9
100
AcDbEntity
  8
0
 62
     0
100
AcDbLine
 10
-107.9000000000069
 20
-197.3913159454696
 30
0.0
 11
49.28737530000581
 21
-92.60000000000037
 31
0.0
  0
LINE
  5
25F4
330
28D9
100
AcDbEntity
  8
0
 62
     0
100
AcDbLine
 10
-107.9000000000069
 20
-194.3913494100525
 30
0.0
 11
44.7874140061176
 21
-92.60000000000037
 31
0.0
  0
LINE
  5
25F5
330
28D9
100
AcDbEntity
  8
0
 62
     0
100
AcDbLine
 10
-107.9000000000069
 20
-191.3913828746354
 30
0.0
 11
40.28745271223124
 21
-92.60000000000221
 31
0.0
  0
LINE
  5
25F6
330
28D9
100
AcDbEntity
  8
0
 62
     0
100
AcDbLine
 10
-107.9000000000069
 20
-188.3914163392219
 30
0.0
 11
35.78749141834851
 21
-92.60000000000037
 31
0.0
  0
LINE
  5
25F7
330
28D9
100
AcDbEntity
  8
0
 62
     0
100
AcDbLine
 10
-107.9000000000051
 20
-185.3914498038048
 30
0.0
 11
31.28753012446032
 21
-92.60000000000221
 31
0.0
  0
LINE
  5
25F8
330
28D9
100
AcDbEntity
  8
0
 62
     0
100
AcDbLine
 10
-107.9000000000069
 20
-182.3914832683876
 30
0.0
 11
26.78756883057577
 21
-92.60000000000037
 31
0.0
  0
LINE
  5
25F9
330
28D9
100
AcDbEntity
  8
0
 62
     0
100
AcDbLine
 10
-107.9000000000069
 20
-179.3915167329705
 30
0.0
 11
22.28760753668939
 21
-92.60000000000037
 31
0.0
  0
LINE
  5
25FA
330
28D9
100
AcDbEntity
  8
0
 62
     0
100
AcDbLine
 10
-107.9000000000069
 20
-176.3915501975571
 30
0.0
 11
17.78764624280666
 21
-92.59999999999854
 31
0.0
  0
LINE
  5
25FB
330
28D9
100
AcDbEntity
  8
0
 62
     0
100
AcDbLine
 10
-107.9000000000069
 20
-173.3915836621399
 30
0.0
 11
13.28768494892029
 21
-92.60000000000037
 31
0.0
  0
LINE
  5
25FC
330
28D9
100
AcDbEntity
  8
0
 62
     0
100
AcDbLine
 10
-107.9000000000087
 20
-170.3916171267247
 30
0.0
 11
8.787723655033913
 21
-92.60000000000037
 31
0.0
  0
LINE
  5
25FD
330
28D9
100
AcDbEntity
  8
0
 62
     0
100
AcDbLine
 10
-107.9000000000069
 20
-167.3916505913057
 30
0.0
 11
4.287762361151177
 21
-92.59999999999854
 31
0.0
  0
LINE
  5
25FE
330
28D9
100
AcDbEntity
  8
0
 62
     0
100
AcDbLine
 10
-107.9000000000051
 20
-164.3916840558904
 30
0.0
 11
-0.2121989327370102
 21
-92.60000000000221
 31
0.0
  0
LINE
  5
25FF
330
28D9
100
AcDbEntity
  8
0
 62
     0
100
AcDbLine
 10
-107.9000000000087
 20
-161.3917175204751
 30
0.0
 11
-4.712160226623382
 21
-92.60000000000221
 31
0.0
  0
LINE
  5
2600
330
28D9
100
AcDbEntity
  8
0
 62
     0
100
AcDbLine
 10
-107.9000000000069
 20
-158.391750985058
 30
0.0
 11
-9.212121520507935
 21
-92.60000000000037
 31
0.0
  0
LINE
  5
2601
330
28D9
100
AcDbEntity
  8
0
 62
     0
100
AcDbLine
 10
-107.9000000000069
 20
-155.3917844496427
 30
0.0
 11
-13.71208281439067
 21
-92.59999999999854
 31
0.0
  0
LINE
  5
2602
330
28D9
100
AcDbEntity
  8
0
 62
     0
100
AcDbLine
 10
-107.9000000000069
 20
-152.3918179142255
 30
0.0
 11
-18.21204410828068
 21
-92.60000000000221
 31
0.0
  0
LINE
  5
2603
330
28D9
100
AcDbEntity
  8
0
 62
     0
100
AcDbLine
 10
-107.9000000000087
 20
-149.3918513788121
 30
0.0
 11
-22.71200540216523
 21
-92.60000000000221
 31
0.0
  0
LINE
  5
2604
330
28D9
100
AcDbEntity
  8
0
 62
     0
100
AcDbLine
 10
-107.9000000000069
 20
-146.3918848433932
 30
0.0
 11
-27.21196669604978
 21
-92.60000000000221
 31
0.0
  0
LINE
  5
2605
330
28D9
100
AcDbEntity
  8
0
 62
     0
100
AcDbLine
 10
-107.9000000000051
 20
-143.3919183079761
 30
0.0
 11
-31.71192798993799
 21
-92.60000000000037
 31
0.0
  0
LINE
  5
2606
330
28D9
100
AcDbEntity
  8
0
 62
     0
100
AcDbLine
 10
-107.9000000000087
 20
-140.3919517725608
 30
0.0
 11
-36.21188928382253
 21
-92.59999999999854
 31
0.0
  0
LINE
  5
2607
330
28D9
100
AcDbEntity
  8
0
 62
     0
100
AcDbLine
 10
-107.9000000000051
 20
-137.3919852371436
 30
0.0
 11
-40.71185057770708
 21
-92.60000000000037
 31
0.0
  0
LINE
  5
2608
330
28D9
100
AcDbEntity
  8
0
 62
     0
100
AcDbLine
 10
-107.9000000000069
 20
-134.3920187017302
 30
0.0
 11
-45.21181187159164
 21
-92.60000000000221
 31
0.0
  0
LINE
  5
2609
330
28D9
100
AcDbEntity
  8
0
 62
     0
100
AcDbLine
 10
-107.9000000000051
 20
-131.3920521663112
 30
0.0
 11
-49.71177316547983
 21
-92.60000000000221
 31
0.0
  0
LINE
  5
260A
330
28D9
100
AcDbEntity
  8
0
 62
     0
100
AcDbLine
 10
-107.9000000000087
 20
-128.3920856308959
 30
0.0
 11
-54.21173445936439
 21
-92.59999999999854
 31
0.0
  0
LINE
  5
260B
330
28D9
100
AcDbEntity
  8
0
 62
     0
100
AcDbLine
 10
-107.9000000000051
 20
-125.3921190954806
 30
0.0
 11
-58.71169575324893
 21
-92.60000000000037
 31
0.0
  0
LINE
  5
260C
330
28D9
100
AcDbEntity
  8
0
 62
     0
100
AcDbLine
 10
-107.9000000000087
 20
-122.3921525600653
 30
0.0
 11
-63.21165704713529
 21
-92.60000000000221
 31
0.0
  0
LINE
  5
260D
330
28D9
100
AcDbEntity
  8
0
 62
     0
100
AcDbLine
 10
-107.9000000000069
 20
-119.3921860246482
 30
0.0
 11
-67.7116183410235
 21
-92.60000000000221
 31
0.0
  0
LINE
  5
260E
330
28D9
100
AcDbEntity
  8
0
 62
     0
100
AcDbLine
 10
-107.9000000000051
 20
-116.3922194892293
 30
0.0
 11
-72.21157963490441
 21
-92.60000000000037
 31
0.0
  0
LINE
  5
260F
330
28D9
100
AcDbEntity
  8
0
 62
     0
100
AcDbLine
 10
-107.9000000000051
 20
-113.3922529538158
 30
0.0
 11
-76.71154092879078
 21
-92.60000000000037
 31
0.0
  0
LINE
  5
2610
330
28D9
100
AcDbEntity
  8
0
 62
     0
100
AcDbLine
 10
-107.9000000000051
 20
-110.3922864184005
 30
0.0
 11
-81.21150222267715
 21
-92.60000000000221
 31
0.0
  0
LINE
  5
2611
330
28D9
100
AcDbEntity
  8
0
 62
     0
100
AcDbLine
 10
-107.9000000000069
 20
-107.3923198829834
 30
0.0
 11
-85.71146351656535
 21
-92.60000000000221
 31
0.0
  0
LINE
  5
2612
330
28D9
100
AcDbEntity
  8
0
 62
     0
100
AcDbLine
 10
-107.9000000000051
 20
-104.3923533475663
 30
0.0
 11
-90.21142481044625
 21
-92.60000000000037
 31
0.0
  0
LINE
  5
2613
330
28D9
100
AcDbEntity
  8
0
 62
     0
100
AcDbLine
 10
-107.9000000000069
 20
-101.3923868121492
 30
0.0
 11
-94.71138610433444
 21
-92.60000000000037
 31
0.0
  0
LINE
  5
2614
330
28D9
100
AcDbEntity
  8
0
 62
     0
100
AcDbLine
 10
-107.9000000000069
 20
-98.39242027673392
 30
0.0
 11
-99.21134739822081
 21
-92.60000000000037
 31
0.0
  0
LINE
  5
2615
330
28D9
100
AcDbEntity
  8
0
 62
     0
100
AcDbLine
 10
-107.9000000000069
 20
-95.39245374132041
 30
0.0
 11
-103.7113086921035
 21
-92.60000000000037
 31
0.0
  0
ENDBLK
  5
2616
330
28D9
100
AcDbEntity
  8
0
100
AcDbBlockEnd
  0
BLOCK
  5
28DC
330
28DB
100
AcDbEntity
  8
0
100
AcDbBlockBegin
  2
*X77
 70
     1
 10
0.0
 20
0.0
 30
0.0
  3
*X77
  1

  0
LINE
  5
2619
330
28DB
100
AcDbEntity
  8
0
 62
     0
100
AcDbLine
 10
-107.8999999999978
 20
-286.0342703382703
 30
0.0
 11
-107.3514041065518
 21
-286.3999999999978
 31
0.0
  0
LINE
  5
261A
330
28DB
100
AcDbEntity
  8
0
 62
     0
100
AcDbLine
 10
-107.899999999996
 20
-283.0343038028532
 30
0.0
 11
-102.8514428126636
 21
-286.3999999999978
 31
0.0
  0
LINE
  5
261B
330
28DB
100
AcDbEntity
  8
0
 62
     0
100
AcDbLine
 10
-107.899999999996
 20
-280.034337267436
 30
0.0
 11
-98.35148151878094
 21
-286.399999999996
 31
0.0
  0
LINE
  5
261C
330
28DB
100
AcDbEntity
  8
0
 62
     0
100
AcDbLine
 10
-107.8999999999978
 20
-277.0343707320189
 30
0.0
 11
-93.8515202248927
 21
-286.3999999999978
 31
0.0
  0
LINE
  5
261D
330
28DB
100
AcDbEntity
  8
0
 62
     0
100
AcDbLine
 10
-107.899999999996
 20
-274.0344041966018
 30
0.0
 11
-89.35155893100818
 21
-286.399999999996
 31
0.0
  0
LINE
  5
261E
330
28DB
100
AcDbEntity
  8
0
 62
     0
100
AcDbLine
 10
-107.8999999999942
 20
-271.0344376611883
 30
0.0
 11
-84.8515976371218
 21
-286.3999999999978
 31
0.0
  0
LINE
  5
261F
330
28DB
100
AcDbEntity
  8
0
 62
     0
100
AcDbLine
 10
-107.8999999999978
 20
-268.0344711257713
 30
0.0
 11
-80.35163634323543
 21
-286.3999999999978
 31
0.0
  0
LINE
  5
2620
330
28DB
100
AcDbEntity
  8
0
 62
     0
100
AcDbLine
 10
-107.899999999996
 20
-265.0345045903541
 30
0.0
 11
-75.85167504934905
 21
-286.3999999999978
 31
0.0
  0
LINE
  5
2621
330
28DB
100
AcDbEntity
  8
0
 62
     0
100
AcDbLine
 10
-107.899999999996
 20
-262.034538054937
 30
0.0
 11
-71.35171375546452
 21
-286.399999999996
 31
0.0
  0
LINE
  5
2622
330
28DB
100
AcDbEntity
  8
0
 62
     0
100
AcDbLine
 10
-107.899999999996
 20
-259.0345715195235
 30
0.0
 11
-66.85175246157996
 21
-286.3999999999996
 31
0.0
  0
LINE
  5
2623
330
28DB
100
AcDbEntity
  8
0
 62
     0
100
AcDbLine
 10
-107.8999999999978
 20
-256.0346049841064
 30
0.0
 11
-62.35179116769359
 21
-286.3999999999978
 31
0.0
  0
LINE
  5
2624
330
28DB
100
AcDbEntity
  8
0
 62
     0
100
AcDbLine
 10
-107.899999999996
 20
-253.0346384486893
 30
0.0
 11
-57.85182987381086
 21
-286.399999999996
 31
0.0
  0
LINE
  5
2625
330
28DB
100
AcDbEntity
  8
0
 62
     0
100
AcDbLine
 10
-107.899999999996
 20
-250.0346719132722
 30
0.0
 11
-53.35186857992264
 21
-286.399999999996
 31
0.0
  0
LINE
  5
2626
330
28DB
100
AcDbEntity
  8
0
 62
     0
100
AcDbLine
 10
-107.8999999999978
 20
-247.0347053778587
 30
0.0
 11
-48.85190728603811
 21
-286.3999999999996
 31
0.0
  0
LINE
  5
2627
330
28DB
100
AcDbEntity
  8
0
 62
     0
100
AcDbLine
 10
-107.8999999999978
 20
-244.0347388424416
 30
0.0
 11
-44.35194599214992
 21
-286.3999999999996
 31
0.0
  0
LINE
  5
2628
330
28DB
100
AcDbEntity
  8
0
 62
     0
100
AcDbLine
 10
-107.899999999996
 20
-241.0347723070245
 30
0.0
 11
-39.85198469826719
 21
-286.399999999996
 31
0.0
  0
LINE
  5
2629
330
28DB
100
AcDbEntity
  8
0
 62
     0
100
AcDbLine
 10
-107.8999999999978
 20
-238.0348057716073
 30
0.0
 11
-35.35202340438083
 21
-286.399999999996
 31
0.0
  0
LINE
  5
262A
330
28DB
100
AcDbEntity
  8
0
 62
     0
100
AcDbLine
 10
-107.8999999999978
 20
-235.0348392361902
 30
0.0
 11
-30.85206211049627
 21
-286.399999999996
 31
0.0
  0
LINE
  5
262B
330
28DB
100
AcDbEntity
  8
0
 62
     0
100
AcDbLine
 10
-107.8999999999978
 20
-232.0348727007768
 30
0.0
 11
-26.35210081660807
 21
-286.3999999999996
 31
0.0
  0
LINE
  5
262C
330
28DB
100
AcDbEntity
  8
0
 62
     0
100
AcDbLine
 10
-107.899999999996
 20
-229.0349061653615
 30
0.0
 11
-21.85213952272534
 21
-286.3999999999978
 31
0.0
  0
LINE
  5
262D
330
28DB
100
AcDbEntity
  8
0
 62
     0
100
AcDbLine
 10
-107.8999999999978
 20
-226.0349396299444
 30
0.0
 11
-17.35217822883896
 21
-286.399999999996
 31
0.0
  0
LINE
  5
262E
330
28DB
100
AcDbEntity
  8
0
 62
     0
100
AcDbLine
 10
-107.899999999996
 20
-223.0349730945272
 30
0.0
 11
-12.85221693495259
 21
-286.399999999996
 31
0.0
  0
LINE
  5
262F
330
28DB
100
AcDbEntity
  8
0
 62
     0
100
AcDbLine
 10
-107.899999999996
 20
-220.0350065591119
 30
0.0
 11
-8.352255641066221
 21
-286.3999999999996
 31
0.0
  0
LINE
  5
2630
330
28DB
100
AcDbEntity
  8
0
 62
     0
100
AcDbLine
 10
-107.8999999999978
 20
-217.0350400236948
 30
0.0
 11
-3.852294347183486
 21
-286.3999999999978
 31
0.0
  0
LINE
  5
2631
330
28DB
100
AcDbEntity
  8
0
 62
     0
100
AcDbLine
 10
-107.8999999999978
 20
-214.0350734882795
 30
0.0
 11
0.6476669467028842
 21
-286.3999999999978
 31
0.0
  0
LINE
  5
2632
330
28DB
100
AcDbEntity
  8
0
 62
     0
100
AcDbLine
 10
-107.899999999996
 20
-211.0351069528624
 30
0.0
 11
5.147628240591075
 21
-286.399999999996
 31
0.0
  0
LINE
  5
2633
330
28DB
100
AcDbEntity
  8
0
 62
     0
100
AcDbLine
 10
-107.899999999996
 20
-208.0351404174489
 30
0.0
 11
9.647589534473807
 21
-286.3999999999978
 31
0.0
  0
LINE
  5
2634
330
28DB
100
AcDbEntity
  8
0
 62
     0
100
AcDbLine
 10
-107.8999999999978
 20
-205.0351738820318
 30
0.0
 11
14.14755082835836
 21
-286.3999999999978
 31
0.0
  0
LINE
  5
2635
330
28DB
100
AcDbEntity
  8
0
 62
     0
100
AcDbLine
 10
-107.899999999996
 20
-202.0352073466147
 30
0.0
 11
18.64751212224655
 21
-286.3999999999978
 31
0.0
  0
LINE
  5
2636
330
28DB
100
AcDbEntity
  8
0
 62
     0
100
AcDbLine
 10
-107.899999999996
 20
-199.0352408111976
 30
0.0
 11
23.14747341613292
 21
-286.3999999999978
 31
0.0
  0
LINE
  5
2637
330
28DB
100
AcDbEntity
  8
0
 62
     0
100
AcDbLine
 10
-107.899999999996
 20
-196.0352742757804
 30
0.0
 11
27.64743471001566
 21
-286.3999999999942
 31
0.0
  0
LINE
  5
2638
330
28DB
100
AcDbEntity
  8
0
 62
     0
100
AcDbLine
 10
-107.8999999999978
 20
-193.0353077403669
 30
0.0
 11
32.14739600390203
 21
-286.3999999999978
 31
0.0
  0
LINE
  5
2639
330
28DB
100
AcDbEntity
  8
0
 62
     0
100
AcDbLine
 10
-107.899999999996
 20
-190.0353412049499
 30
0.0
 11
36.64735729779023
 21
-286.3999999999978
 31
0.0
  0
LINE
  5
263A
330
28DB
100
AcDbEntity
  8
0
 62
     0
100
AcDbLine
 10
-107.8999999999978
 20
-187.0353746695327
 30
0.0
 11
41.14731859167473
 21
-286.3999999999978
 31
0.0
  0
LINE
  5
263B
330
28DB
100
AcDbEntity
  8
0
 62
     0
100
AcDbLine
 10
-107.8999999999978
 20
-184.0354081341156
 30
0.0
 11
45.64727988555751
 21
-286.399999999996
 31
0.0
  0
LINE
  5
263C
330
28DB
100
AcDbEntity
  8
0
 62
     0
100
AcDbLine
 10
-107.8999999999978
 20
-181.0354415987021
 30
0.0
 11
50.14724117944388
 21
-286.3999999999978
 31
0.0
  0
LINE
  5
263D
330
28DB
100
AcDbEntity
  8
0
 62
     0
100
AcDbLine
 10
-107.899999999996
 20
-178.035475063285
 30
0.0
 11
54.64720247333025
 21
-286.3999999999978
 31
0.0
  0
LINE
  5
263E
330
28DB
100
AcDbEntity
  8
0
 62
     0
100
AcDbLine
 10
-107.8999999999978
 20
-175.0355085278679
 30
0.0
 11
59.14716376721663
 21
-286.3999999999978
 31
0.0
  0
LINE
  5
263F
330
28DB
100
AcDbEntity
  8
0
 62
     0
100
AcDbLine
 10
-107.899999999996
 20
-172.0355419924508
 30
0.0
 11
63.64712506110118
 21
-286.399999999996
 31
0.0
  0
LINE
  5
2640
330
28DB
100
AcDbEntity
  8
0
 62
     0
100
AcDbLine
 10
-107.899999999996
 20
-169.0355754570373
 30
0.0
 11
68.14708635498755
 21
-286.3999999999996
 31
0.0
  0
LINE
  5
2641
330
28DB
100
AcDbEntity
  8
0
 62
     0
100
AcDbLine
 10
-107.8999999999978
 20
-166.0356089216201
 30
0.0
 11
72.64704764887209
 21
-286.3999999999996
 31
0.0
  0
LINE
  5
2642
330
28DB
100
AcDbEntity
  8
0
 62
     0
100
AcDbLine
 10
-107.8999999999978
 20
-163.0356423862031
 30
0.0
 11
77.14700894275484
 21
-286.399999999996
 31
0.0
  0
LINE
  5
2643
330
28DB
100
AcDbEntity
  8
0
 62
     0
100
AcDbLine
 10
-107.8999999999978
 20
-160.035675850786
 30
0.0
 11
81.64697023664301
 21
-286.399999999996
 31
0.0
  0
LINE
  5
2644
330
28DB
100
AcDbEntity
  8
0
 62
     0
100
AcDbLine
 10
-107.899999999996
 20
-157.0357093153688
 30
0.0
 11
86.1469315305294
 21
-286.399999999996
 31
0.0
  0
LINE
  5
2645
330
28DB
100
AcDbEntity
  8
0
 62
     0
100
AcDbLine
 10
-107.8999999999978
 20
-154.0357427799554
 30
0.0
 11
90.64689282441396
 21
-286.3999999999996
 31
0.0
  0
LINE
  5
2646
330
28DB
100
AcDbEntity
  8
0
 62
     0
100
AcDbLine
 10
-107.899999999996
 20
-151.0357762445401
 30
0.0
 11
95.1468541182985
 21
-286.399999999996
 31
0.0
  0
LINE
  5
2647
330
28DB
100
AcDbEntity
  8
0
 62
     0
100
AcDbLine
 10
-107.899999999996
 20
-148.035809709123
 30
0.0
 11
99.64681541218668
 21
-286.399999999996
 31
0.0
  0
LINE
  5
2648
330
28DB
100
AcDbEntity
  8
0
 62
     0
100
AcDbLine
 10
-107.899999999996
 20
-145.0358431737059
 30
0.0
 11
104.1467767060712
 21
-286.399999999996
 31
0.0
  0
LINE
  5
2649
330
28DB
100
AcDbEntity
  8
0
 62
     0
100
AcDbLine
 10
-107.899999999996
 20
-142.0358766382924
 30
0.0
 11
107.9000000000033
 21
-285.9021759379047
 31
0.0
  0
LINE
  5
264A
330
28DB
100
AcDbEntity
  8
0
 62
     0
100
AcDbLine
 10
-107.899999999996
 20
-139.0359101028734
 30
0.0
 11
107.9000000000033
 21
-282.9022094024876
 31
0.0
  0
LINE
  5
264B
330
28DB
100
AcDbEntity
  8
0
 62
     0
100
AcDbLine
 10
-107.8999999999978
 20
-136.0359435674581
 30
0.0
 11
107.9000000000033
 21
-279.9022428670705
 31
0.0
  0
LINE
  5
264C
330
28DB
100
AcDbEntity
  8
0
 62
     0
100
AcDbLine
 10
-107.8999999999978
 20
-133.035977032041
 30
0.0
 11
107.9000000000014
 21
-276.9022763316534
 31
0.0
  0
LINE
  5
264D
330
28DB
100
AcDbEntity
  8
0
 62
     0
100
AcDbLine
 10
-107.8999999999978
 20
-130.0360104966275
 30
0.0
 11
107.9000000000033
 21
-273.9023097962399
 31
0.0
  0
LINE
  5
264E
330
28DB
100
AcDbEntity
  8
0
 62
     0
100
AcDbLine
 10
-107.899999999996
 20
-127.0360439612104
 30
0.0
 11
107.9000000000033
 21
-270.9023432608244
 31
0.0
  0
LINE
  5
264F
330
28DB
100
AcDbEntity
  8
0
 62
     0
100
AcDbLine
 10
-107.8999999999978
 20
-124.0360774257933
 30
0.0
 11
107.9000000000033
 21
-267.9023767254075
 31
0.0
  0
LINE
  5
2650
330
28DB
100
AcDbEntity
  8
0
 62
     0
100
AcDbLine
 10
-107.899999999996
 20
-121.0361108903762
 30
0.0
 11
107.9000000000033
 21
-264.9024101899904
 31
0.0
  0
LINE
  5
2651
330
28DB
100
AcDbEntity
  8
0
 62
     0
100
AcDbLine
 10
-107.899999999996
 20
-118.0361443549591
 30
0.0
 11
107.9000000000033
 21
-261.9024436545716
 31
0.0
  0
LINE
  5
2652
330
28DB
100
AcDbEntity
  8
0
 62
     0
100
AcDbLine
 10
-107.8999999999978
 20
-115.0361778195456
 30
0.0
 11
107.9000000000014
 21
-258.902477119158
 31
0.0
  0
LINE
  5
2653
330
28DB
100
AcDbEntity
  8
0
 62
     0
100
AcDbLine
 10
-107.8999999999978
 20
-112.0362112841285
 30
0.0
 11
107.9000000000014
 21
-255.9025105837409
 31
0.0
  0
LINE
  5
2654
330
28DB
100
AcDbEntity
  8
0
 62
     0
100
AcDbLine
 10
-107.8999999999978
 20
-109.0362447487114
 30
0.0
 11
107.9000000000014
 21
-252.9025440483256
 31
0.0
  0
LINE
  5
2655
330
28DB
100
AcDbEntity
  8
0
 62
     0
100
AcDbLine
 10
-107.899999999996
 20
-106.0362782132943
 30
0.0
 11
107.9000000000033
 21
-249.9025775129084
 31
0.0
  0
LINE
  5
2656
330
28DB
100
AcDbEntity
  8
0
 62
     0
100
AcDbLine
 10
-107.8999999999978
 20
-103.0363116778808
 30
0.0
 11
107.9000000000014
 21
-246.9026109774949
 31
0.0
  0
LINE
  5
2657
330
28DB
100
AcDbEntity
  8
0
 62
     0
100
AcDbLine
 10
-107.899999999996
 20
-100.0363451424637
 30
0.0
 11
107.9000000000033
 21
-243.9026444420779
 31
0.0
  0
LINE
  5
2658
330
28DB
100
AcDbEntity
  8
0
 62
     0
100
AcDbLine
 10
-107.899999999996
 20
-97.0363786070466
 30
0.0
 11
107.9000000000033
 21
-240.9026779066588
 31
0.0
  0
LINE
  5
2659
330
28DB
100
AcDbEntity
  8
0
 62
     0
100
AcDbLine
 10
-107.899999999996
 20
-94.03641207162943
 30
0.0
 11
107.9000000000033
 21
-237.9027113712437
 31
0.0
  0
LINE
  5
265A
330
28DB
100
AcDbEntity
  8
0
 62
     0
100
AcDbLine
 10
-105.5546623154459
 20
-92.60000000000037
 30
0.0
 11
107.9000000000014
 21
-234.9027448358302
 31
0.0
  0
LINE
  5
265B
330
28DB
100
AcDbEntity
  8
0
 62
     0
100
AcDbLine
 10
-101.0547010215578
 20
-92.60000000000037
 30
0.0
 11
107.9000000000033
 21
-231.9027783004131
 31
0.0
  0
LINE
  5
265C
330
28DB
100
AcDbEntity
  8
0
 62
     0
100
AcDbLine
 10
-96.55473972767504
 20
-92.59999999999672
 30
0.0
 11
107.9000000000033
 21
-228.9028117649959
 31
0.0
  0
LINE
  5
265D
330
28DB
100
AcDbEntity
  8
0
 62
     0
100
AcDbLine
 10
-92.05477843378686
 20
-92.59999999999854
 30
0.0
 11
107.9000000000014
 21
-225.9028452295788
 31
0.0
  0
LINE
  5
265E
330
28DB
100
AcDbEntity
  8
0
 62
     0
100
AcDbLine
 10
-87.55481713990231
 20
-92.60000000000037
 30
0.0
 11
107.9000000000033
 21
-222.9028786941654
 31
0.0
  0
LINE
  5
265F
330
28DB
100
AcDbEntity
  8
0
 62
     0
100
AcDbLine
 10
-83.05485584601592
 20
-92.60000000000037
 30
0.0
 11
107.9000000000033
 21
-219.9029121587482
 31
0.0
  0
LINE
  5
2660
330
28DB
100
AcDbEntity
  8
0
 62
     0
100
AcDbLine
 10
-78.55489455213319
 20
-92.59999999999672
 30
0.0
 11
107.9000000000033
 21
-216.9029456233311
 31
0.0
  0
LINE
  5
2661
330
28DB
100
AcDbEntity
  8
0
 62
     0
100
AcDbLine
 10
-74.0549332582432
 20
-92.59999999999854
 30
0.0
 11
107.9000000000014
 21
-213.902979087914
 31
0.0
  0
LINE
  5
2662
330
28DB
100
AcDbEntity
  8
0
 62
     0
100
AcDbLine
 10
-69.55497196435863
 20
-92.59999999999672
 30
0.0
 11
107.9000000000033
 21
-210.9030125524969
 31
0.0
  0
LINE
  5
2663
330
28DB
100
AcDbEntity
  8
0
 62
     0
100
AcDbLine
 10
-65.05501067047408
 20
-92.60000000000037
 30
0.0
 11
107.9000000000014
 21
-207.9030460170834
 31
0.0
  0
LINE
  5
2664
330
28DB
100
AcDbEntity
  8
0
 62
     0
100
AcDbLine
 10
-60.55504937659134
 20
-92.59999999999854
 30
0.0
 11
107.9000000000014
 21
-204.9030794816663
 31
0.0
  0
LINE
  5
2665
330
28DB
100
AcDbEntity
  8
0
 62
     0
100
AcDbLine
 10
-56.05508808270315
 20
-92.59999999999854
 30
0.0
 11
107.9000000000014
 21
-201.9031129462492
 31
0.0
  0
LINE
  5
2666
330
28DB
100
AcDbEntity
  8
0
 62
     0
100
AcDbLine
 10
-51.55512678881677
 20
-92.59999999999672
 30
0.0
 11
107.9000000000033
 21
-198.903146410832
 31
0.0
  0
LINE
  5
2667
330
28DB
100
AcDbEntity
  8
0
 62
     0
100
AcDbLine
 10
-47.05516549493403
 20
-92.59999999999854
 30
0.0
 11
107.9000000000014
 21
-195.9031798754186
 31
0.0
  0
LINE
  5
2668
330
28DB
100
AcDbEntity
  8
0
 62
     0
100
AcDbLine
 10
-42.55520420104402
 20
-92.60000000000037
 30
0.0
 11
107.9000000000033
 21
-192.9032133400033
 31
0.0
  0
LINE
  5
2669
330
28DB
100
AcDbEntity
  8
0
 62
     0
100
AcDbLine
 10
-38.0552429071613
 20
-92.59999999999854
 30
0.0
 11
107.9000000000033
 21
-189.9032468045861
 31
0.0
  0
LINE
  5
266A
330
28DB
100
AcDbEntity
  8
0
 62
     0
100
AcDbLine
 10
-33.55528161327493
 20
-92.59999999999854
 30
0.0
 11
107.9000000000014
 21
-186.9032802691672
 31
0.0
  0
LINE
  5
266B
330
28DB
100
AcDbEntity
  8
0
 62
     0
100
AcDbLine
 10
-29.0553203193922
 20
-92.59999999999854
 30
0.0
 11
107.9000000000014
 21
-183.9033137337537
 31
0.0
  0
LINE
  5
266C
330
28DB
100
AcDbEntity
  8
0
 62
     0
100
AcDbLine
 10
-24.55535902550219
 20
-92.60000000000037
 30
0.0
 11
107.9000000000014
 21
-180.9033471983366
 31
0.0
  0
LINE
  5
266D
330
28DB
100
AcDbEntity
  8
0
 62
     0
100
AcDbLine
 10
-20.05539773161945
 20
-92.59999999999854
 30
0.0
 11
107.9000000000033
 21
-177.9033806629192
 31
0.0
  0
LINE
  5
266E
330
28DB
100
AcDbEntity
  8
0
 62
     0
100
AcDbLine
 10
-15.55543643773308
 20
-92.59999999999854
 30
0.0
 11
107.9000000000014
 21
-174.9034141275042
 31
0.0
  0
LINE
  5
266F
330
28DB
100
AcDbEntity
  8
0
 62
     0
100
AcDbLine
 10
-11.0554751438467
 20
-92.59999999999854
 30
0.0
 11
107.9000000000033
 21
-171.9034475920871
 31
0.0
  0
LINE
  5
2670
330
28DB
100
AcDbEntity
  8
0
 62
     0
100
AcDbLine
 10
-6.55551384996215
 20
-92.59999999999854
 30
0.0
 11
107.9000000000033
 21
-168.9034810566736
 31
0.0
  0
LINE
  5
2671
330
28DB
100
AcDbEntity
  8
0
 62
     0
100
AcDbLine
 10
-2.0555525560776
 20
-92.59999999999854
 30
0.0
 11
107.9000000000033
 21
-165.9035145212565
 31
0.0
  0
LINE
  5
2672
330
28DB
100
AcDbEntity
  8
0
 62
     0
100
AcDbLine
 10
2.44440873780513
 20
-92.59999999999672
 30
0.0
 11
107.9000000000014
 21
-162.9035479858394
 31
0.0
  0
LINE
  5
2673
330
28DB
100
AcDbEntity
  8
0
 62
     0
100
AcDbLine
 10
6.944370031696959
 20
-92.59999999999854
 30
0.0
 11
107.9000000000033
 21
-159.9035814504223
 31
0.0
  0
LINE
  5
2674
330
28DB
100
AcDbEntity
  8
0
 62
     0
100
AcDbLine
 10
11.44433132557969
 20
-92.60000000000037
 30
0.0
 11
107.9000000000014
 21
-156.9036149150088
 31
0.0
  0
LINE
  5
2675
330
28DB
100
AcDbEntity
  8
0
 62
     0
100
AcDbLine
 10
15.94429261946425
 20
-92.59999999999854
 30
0.0
 11
107.9000000000014
 21
-153.9036483795917
 31
0.0
  0
LINE
  5
2676
330
28DB
100
AcDbEntity
  8
0
 62
     0
100
AcDbLine
 10
20.4442539133488
 20
-92.59999999999672
 30
0.0
 11
107.9000000000014
 21
-150.9036818441745
 31
0.0
  0
LINE
  5
2677
330
28DB
100
AcDbEntity
  8
0
 62
     0
100
AcDbLine
 10
24.94421520723881
 20
-92.59999999999854
 30
0.0
 11
107.9000000000033
 21
-147.9037153087574
 31
0.0
  0
LINE
  5
2678
330
28DB
100
AcDbEntity
  8
0
 62
     0
100
AcDbLine
 10
29.44417650112155
 20
-92.60000000000037
 30
0.0
 11
107.9000000000014
 21
-144.9037487733438
 31
0.0
  0
LINE
  5
2679
330
28DB
100
AcDbEntity
  8
0
 62
     0
100
AcDbLine
 10
33.94413779500792
 20
-92.60000000000037
 30
0.0
 11
107.9000000000033
 21
-141.9037822379268
 31
0.0
  0
LINE
  5
267A
330
28DB
100
AcDbEntity
  8
0
 62
     0
100
AcDbLine
 10
38.44409908889611
 20
-92.59999999999854
 30
0.0
 11
107.9000000000033
 21
-138.9038157025097
 31
0.0
  0
LINE
  5
267B
330
28DB
100
AcDbEntity
  8
0
 62
     0
100
AcDbLine
 10
42.94406038278064
 20
-92.59999999999854
 30
0.0
 11
107.9000000000033
 21
-135.9038491670926
 31
0.0
  0
LINE
  5
267C
330
28DB
100
AcDbEntity
  8
0
 62
     0
100
AcDbLine
 10
47.44402167666339
 20
-92.59999999999672
 30
0.0
 11
107.8999999999996
 21
-132.9038826316755
 31
0.0
  0
LINE
  5
267D
330
28DB
100
AcDbEntity
  8
0
 62
     0
100
AcDbLine
 10
51.94398297054977
 20
-92.60000000000037
 30
0.0
 11
107.9000000000014
 21
-129.903916096262
 31
0.0
  0
LINE
  5
267E
330
28DB
100
AcDbEntity
  8
0
 62
     0
100
AcDbLine
 10
56.44394426443795
 20
-92.60000000000037
 30
0.0
 11
107.9000000000014
 21
-126.9039495608448
 31
0.0
  0
LINE
  5
267F
330
28DB
100
AcDbEntity
  8
0
 62
     0
100
AcDbLine
 10
60.94390555831886
 20
-92.59999999999672
 30
0.0
 11
107.9000000000014
 21
-123.9039830254278
 31
0.0
  0
LINE
  5
2680
330
28DB
100
AcDbEntity
  8
0
 62
     0
100
AcDbLine
 10
65.44386685220707
 20
-92.59999999999672
 30
0.0
 11
107.9000000000033
 21
-120.9040164900107
 31
0.0
  0
LINE
  5
2681
330
28DB
100
AcDbEntity
  8
0
 62
     0
100
AcDbLine
 10
69.94382814609162
 20
-92.59999999999854
 30
0.0
 11
107.9000000000033
 21
-117.9040499545972
 31
0.0
  0
LINE
  5
2682
330
28DB
100
AcDbEntity
  8
0
 62
     0
100
AcDbLine
 10
74.44378943997981
 20
-92.60000000000037
 30
0.0
 11
107.9000000000033
 21
-114.9040834191801
 31
0.0
  0
LINE
  5
2683
330
28DB
100
AcDbEntity
  8
0
 62
     0
100
AcDbLine
 10
78.94375073386072
 20
-92.59999999999854
 30
0.0
 11
107.8999999999996
 21
-111.904116883763
 31
0.0
  0
LINE
  5
2684
330
28DB
100
AcDbEntity
  8
0
 62
     0
100
AcDbLine
 10
83.44371202775073
 20
-92.59999999999672
 30
0.0
 11
107.9000000000051
 21
-108.9041503483477
 31
0.0
  0
LINE
  5
2685
330
28DB
100
AcDbEntity
  8
0
 62
     0
100
AcDbLine
 10
87.94367332163167
 20
-92.59999999999854
 30
0.0
 11
107.9000000000014
 21
-105.9041838129324
 31
0.0
  0
LINE
  5
2686
330
28DB
100
AcDbEntity
  8
0
 62
     0
100
AcDbLine
 10
92.44363461552167
 20
-92.60000000000037
 30
0.0
 11
107.9000000000014
 21
-102.9042172775152
 31
0.0
  0
LINE
  5
2687
330
28DB
100
AcDbEntity
  8
0
 62
     0
100
AcDbLine
 10
96.94359590940443
 20
-92.59999999999854
 30
0.0
 11
107.9000000000014
 21
-99.90425074209817
 31
0.0
  0
LINE
  5
2688
330
28DB
100
AcDbEntity
  8
0
 62
     0
100
AcDbLine
 10
101.4435572032926
 20
-92.59999999999854
 30
0.0
 11
107.9000000000033
 21
-96.90428420668286
 31
0.0
  0
LINE
  5
2689
330
28DB
100
AcDbEntity
  8
0
 62
     0
100
AcDbLine
 10
105.9435184971771
 20
-92.59999999999672
 30
0.0
 11
107.9000000000014
 21
-93.90431767126571
 31
0.0
  0
ENDBLK
  5
268A
330
28DB
100
AcDbEntity
  8
0
100
AcDbBlockEnd
  0
ENDSEC
  0
SECTION
  2
ENTITIES
  0
TEXT
  5
953
330
27FA
100
AcDbEntity
  8
OUTLINE
  6
Continuous
 62
     3
100
AcDbText
 10
-418.231467
 20
13.715189
 30
0.0
 40
64.0
  1
 
 41
0.9
100
AcDbText
  0
TEXT
  5
954
330
27FA
100
AcDbEntity
  8
OUTLINE
  6
Continuous
 62
     3
100
AcDbText
 10
-418.231467
 20
13.715189
 30
0.0
 40
64.0
  1
 
 41
0.9
100
AcDbText
  0
TEXT
  5
955
330
27FA
100
AcDbEntity
  8
OUTLINE
  6
Continuous
 62
     3
100
AcDbText
 10
1341.41903
 20
-706.0588199999997
 30
0.0
 40
64.0
  1
 
 41
0.9
100
AcDbText
  0
TEXT
  5
956
330
27FA
100
AcDbEntity
  8
OUTLINE
  6
Continuous
 62
     3
100
AcDbText
 10
1341.41903
 20
-706.0588199999997
 30
0.0
 40
64.0
  1
 
 41
0.9
100
AcDbText
  0
TEXT
  5
957
330
27FA
100
AcDbEntity
  8
OUTLINE
  6
Continuous
 62
     3
100
AcDbText
 10
1341.41903
 20
-706.0588199999997
 30
0.0
 40
64.0
  1
 
 41
0.9
100
AcDbText
  0
TEXT
  5
958
330
27FA
100
AcDbEntity
  8
OUTLINE
  6
Continuous
 62
     3
100
AcDbText
 10
1341.41903
 20
-706.0588199999997
 30
0.0
 40
64.0
  1
 
 41
0.9
100
AcDbText
  0
TEXT
  5
26EB
330
27FA
100
AcDbEntity
  8
ETC
100
AcDbText
 10
256.2468308916468
 20
381.7178020492851
 30
0.0
 40
64.0
  1
システム部材
 41
0.9
100
AcDbText
  0
TEXT
  5
26EC
330
27FA
100
AcDbEntity
  8
ETC
100
AcDbText
 10
262.4548288916449
 20
482.6011280492849
 30
0.0
 40
64.0
  1
QW-20SDBCM_6
 41
0.9
100
AcDbText
  0
TEXT
  5
26ED
330
27FA
100
AcDbEntity
  8
ETC
100
AcDbText
 10
256.2468308916468
 20
281.7178020492852
 30
0.0
 40
64.0
  1
QW-20SDBCM
 41
0.9
100
AcDbText
  0
CIRCLE
  5
26EE
330
27FA
100
AcDbEntity
  8
ARRANGE
100
AcDbCircle
 10
0.0
 20
0.0
 30
0.0
 40
40.0
  0
LINE
  5
26EF
330
27FA
100
AcDbEntity
  8
NOTE
100
AcDbLine
 10
139.9999999999963
 20
12.50000009867335
 30
0.0
 11
139.9999999999963
 21
-12.49999990132664
 31
0.0
  0
LINE
  5
26F0
330
27FA
100
AcDbEntity
  8
DETAIL
100
AcDbLine
 10
123.4999999999963
 20
-9.999999901326646
 30
0.0
 11
123.4999999999963
 21
-64.99999990132664
 31
0.0
  0
LINE
  5
26F1
330
27FA
100
AcDbEntity
  8
NOTE
100
AcDbLine
 10
-140.0000000000036
 20
12.50000009867335
 30
0.0
 11
-140.0000000000036
 21
-12.49999990132664
 31
0.0
  0
LINE
  5
26F2
330
27FA
100
AcDbEntity
  8
DETAIL
100
AcDbLine
 10
-123.5000000000036
 20
-9.999999901326646
 30
0.0
 11
-123.5000000000036
 21
-64.99999990132664
 31
0.0
  0
LINE
  5
26F3
330
27FA
100
AcDbEntity
  8
DETAIL
100
AcDbLine
 10
157.4999999999963
 20
0.0000000986733539
 30
0.0
 11
-157.5000000000036
 21
0.0000000986733539
 31
0.0
  0
LINE
  5
26F4
330
27FA
100
AcDbEntity
  8
DETAIL
100
AcDbLine
 10
157.4999999999963
 20
-9.999999901326646
 30
0.0
 11
-157.5000000000036
 21
-9.999999901326646
 31
0.0
  0
LINE
  5
26F5
330
27FA
100
AcDbEntity
  8
DETAIL
100
AcDbLine
 10
-157.5000000000036
 20
0.0000000986733539
 30
0.0
 11
-157.5000000000036
 21
-9.999999901326646
 31
0.0
  0
LINE
  5
26F6
330
27FA
100
AcDbEntity
  8
DETAIL
100
AcDbLine
 10
157.4999999999963
 20
0.0000000986733539
 30
0.0
 11
157.4999999999963
 21
-9.999999901326646
 31
0.0
  0
LINE
  5
26F7
330
27FA
100
AcDbEntity
  8
DETAIL
100
AcDbLine
 10
-134.5000000000036
 20
-301.9999999013267
 30
0.0
 11
134.4999999999963
 21
-301.9999999013267
 31
0.0
  0
POINT
  5
26F8
330
27FA
100
AcDbEntity
  8
ARRANGE
100
AcDbPoint
 10
-0.000000000003638
 20
0.0000000986733539
 30
0.0
 39
50.0
  0
LINE
  5
26F9
330
27FA
100
AcDbEntity
  8
DETAIL
100
AcDbLine
 10
134.4999999999963
 20
-64.99999990132664
 30
0.0
 11
134.4999999999963
 21
-301.9999999013267
 31
0.0
  0
LINE
  5
26FA
330
27FA
100
AcDbEntity
  8
DETAIL
100
AcDbLine
 10
134.4999999999963
 20
-64.99999990132664
 30
0.0
 11
122.8999999999978
 21
-64.99999990132664
 31
0.0
  0
LINE
  5
26FB
330
27FA
100
AcDbEntity
  8
DETAIL
100
AcDbLine
 10
-134.5000000000036
 20
-301.9999999013267
 30
0.0
 11
-134.5000000000036
 21
-64.99999990132664
 31
0.0
  0
LINE
  5
26FC
330
27FA
100
AcDbEntity
  8
DETAIL
100
AcDbLine
 10
-122.9000000000014
 20
-64.99999990132664
 30
0.0
 11
-134.5000000000036
 21
-64.99999990132664
 31
0.0
  0
LINE
  5
26FD
330
27FA
100
AcDbEntity
  8
DETAIL
100
AcDbLine
 10
122.8999999999978
 20
-64.99999990132664
 30
0.0
 11
-124.1000000000022
 21
-64.99999990132664
 31
0.0
  0
LINE
  5
26FE
330
27FA
100
AcDbEntity
  8
DETAIL
100
AcDbLine
 10
-123.5000000000036
 20
-76.99999990132663
 30
0.0
 11
-123.5000000000036
 21
-313.9999999013266
 31
0.0
  0
LINE
  5
26FF
330
27FA
100
AcDbEntity
  8
DETAIL
100
AcDbLine
 10
123.4999999999963
 20
-76.99999990132663
 30
0.0
 11
123.4999999999963
 21
-313.9999999013266
 31
0.0
  0
LINE
  5
2700
330
27FA
100
AcDbEntity
  8
DETAIL
100
AcDbLine
 10
123.4999999999963
 20
-76.99999990132663
 30
0.0
 11
-123.5000000000036
 21
-76.99999990132663
 31
0.0
  0
LINE
  5
2701
330
27FA
100
AcDbEntity
  8
DETAIL
100
AcDbLine
 10
-107.9000000000014
 20
-92.5999999013265
 30
0.0
 11
-107.9000000000014
 21
-286.3999999013263
 31
0.0
  0
LINE
  5
2702
330
27FA
100
AcDbEntity
  8
DETAIL
100
AcDbLine
 10
107.8999999999978
 20
-92.59999990132699
 30
0.0
 11
107.8999999999978
 21
-286.3999999013267
 31
0.0
  0
LINE
  5
2703
330
27FA
100
AcDbEntity
  8
DETAIL
100
AcDbLine
 10
107.8999999999978
 20
-92.59999990132699
 30
0.0
 11
-107.9000000000014
 21
-92.5999999013265
 31
0.0
  0
LINE
  5
2704
330
27FA
100
AcDbEntity
  8
DETAIL
100
AcDbLine
 10
-107.9000000000014
 20
-286.3999999013263
 30
0.0
 11
107.8999999999978
 21
-286.3999999013267
 31
0.0
  0
LINE
  5
2705
330
27FA
100
AcDbEntity
  8
BASIS
100
AcDbLine
 10
-0.000000000003638
 20
-338.9999999013266
 30
0.0
 11
-0.000000000003638
 21
25.00000009867335
 31
0.0
  0
LINE
  5
2706
330
27FA
100
AcDbEntity
  8
DETAIL
100
AcDbLine
 10
-123.5000000000036
 20
-313.9999999013266
 30
0.0
 11
123.4999999999963
 21
-313.9999999013266
 31
0.0
  0
INSERT
  5
2707
330
27FA
100
AcDbEntity
  8
0
100
AcDbBlockReference
  2
*U74
 10
-0.000000000003638
 20
0.0000000986733539
 30
0.0
1001
ACAD
1000
DSTYLE
1002
{
1070
    41
1040
12.0
1070
    42
1040
20.0
1070
    43
1040
200.0
1070
    44
1040
20.0
1070
    73
1070
     0
1070
    74
1070
     0
1070
    77
1070
     1
1070
    78
1070
     8
1070
   140
1040
64.0
1070
   147
1040
50.0
1070
   172
1070
     1
1070
   174
1070
     1
1070
   275
1070
     0
1070
   284
1070
     0
1070
   285
1070
     0
1070
   286
1070
     0
1070
   341
1005
0
1070
   342
1005
0
1002
}
  0
INSERT
  5
2708
330
27FA
100
AcDbEntity
  8
0
100
AcDbBlockReference
  2
*U75
 10
-0.000000000003638
 20
0.0000000986733539
 30
0.0
  0
LINE
  5
2709
330
27FA
100
AcDbEntity
  8
NOTE
100
AcDbLine
 39
50.0
 10
-152.5000000000036
 20
0.0000000986733539
 30
0.0
 11
-127.5000000000036
 21
0.0000000986733539
 31
0.0
  0
LINE
  5
270A
330
27FA
100
AcDbEntity
  8
NOTE
100
AcDbLine
 39
50.0
 10
127.4999999999963
 20
0.0000000986733539
 30
0.0
 11
152.4999999999963
 21
0.0000000986733539
 31
0.0
  0
LINE
  5
270B
330
27FA
100
AcDbEntity
  8
OUTLINE
100
AcDbLine
 10
123.4999999999963
 20
-9.999999901326646
 30
0.0
 11
123.4999999999963
 21
-64.99999990132664
 31
0.0
  0
LINE
  5
270C
330
27FA
100
AcDbEntity
  8
OUTLINE
100
AcDbLine
 10
-123.5000000000036
 20
-9.999999901326646
 30
0.0
 11
-123.5000000000036
 21
-64.99999990132664
 31
0.0
  0
LINE
  5
270D
330
27FA
100
AcDbEntity
  8
OUTLINE
100
AcDbLine
 10
157.4999999999963
 20
-9.999999901326646
 30
0.0
 11
-157.5000000000036
 21
-9.999999901326646
 31
0.0
  0
LINE
  5
270E
330
27FA
100
AcDbEntity
  8
OUTLINE
100
AcDbLine
 10
-157.5000000000036
 20
0.0000000986733539
 30
0.0
 11
-157.5000000000036
 21
-9.999999901326646
 31
0.0
  0
LINE
  5
270F
330
27FA
100
AcDbEntity
  8
OUTLINE
100
AcDbLine
 10
-134.5000000000036
 20
-301.9999999013267
 30
0.0
 11
134.4999999999963
 21
-301.9999999013267
 31
0.0
  0
LINE
  5
2710
330
27FA
100
AcDbEntity
  8
OUTLINE
100
AcDbLine
 10
134.4999999999963
 20
-64.99999990132664
 30
0.0
 11
134.4999999999963
 21
-301.9999999013267
 31
0.0
  0
LINE
  5
2711
330
27FA
100
AcDbEntity
  8
OUTLINE
100
AcDbLine
 10
134.4999999999963
 20
-64.99999990132664
 30
0.0
 11
122.8999999999978
 21
-64.99999990132664
 31
0.0
  0
LINE
  5
2712
330
27FA
100
AcDbEntity
  8
OUTLINE
100
AcDbLine
 10
-134.5000000000036
 20
-301.9999999013267
 30
0.0
 11
-134.5000000000036
 21
-64.99999990132664
 31
0.0
  0
LINE
  5
2713
330
27FA
100
AcDbEntity
  8
OUTLINE
100
AcDbLine
 10
-122.9000000000014
 20
-64.99999990132664
 30
0.0
 11
-134.5000000000036
 21
-64.99999990132664
 31
0.0
  0
LINE
  5
2714
330
27FA
100
AcDbEntity
  8
OUTLINE
100
AcDbLine
 10
122.8999999999978
 20
-64.99999990132664
 30
0.0
 11
-124.1000000000022
 21
-64.99999990132664
 31
0.0
  0
LINE
  5
2715
330
27FA
100
AcDbEntity
  8
OUTLINE
100
AcDbLine
 10
-123.5000000000036
 20
-76.99999990132663
 30
0.0
 11
-123.5000000000036
 21
-313.9999999013266
 31
0.0
  0
LINE
  5
2716
330
27FA
100
AcDbEntity
  8
OUTLINE
100
AcDbLine
 10
123.4999999999963
 20
-76.99999990132663
 30
0.0
 11
123.4999999999963
 21
-313.9999999013266
 31
0.0
  0
LINE
  5
2717
330
27FA
100
AcDbEntity
  8
OUTLINE
100
AcDbLine
 10
123.4999999999963
 20
-76.99999990132663
 30
0.0
 11
-123.5000000000036
 21
-76.99999990132663
 31
0.0
  0
LINE
  5
2718
330
27FA
100
AcDbEntity
  8
OUTLINE
100
AcDbLine
 10
-123.5000000000036
 20
-313.9999999013266
 30
0.0
 11
123.4999999999963
 21
-313.9999999013266
 31
0.0
  0
LINE
  5
2719
330
27FA
100
AcDbEntity
  8
OUTLINE
100
AcDbLine
 10
157.4999999999963
 20
0.0000000986733539
 30
0.0
 11
157.4999999999963
 21
-9.999999901326646
 31
0.0
  0
LINE
  5
271A
330
27FA
100
AcDbEntity
  8
OUTLINE
100
AcDbLine
 39
50.0
 10
-157.5000000000036
 20
0.0000000986733539
 30
0.0
 11
157.4999999999963
 21
0.0000000986733539
 31
0.0
  0
INSERT
  5
271B
330
27FA
100
AcDbEntity
  8
DETAIL
  6
Continuous
100
AcDbBlockReference
  2
*X76
 10
-0.000000000003638
 20
0.0000000986733539
 30
0.0
1001
ACADANNOTATIVE
1000
AnnotativeData
1002
{
1070
     1
1070
     0
1002
}
1001
ACAD
1000
HATCH
1002
{
1070
    19
1000
LINE
1040
19.969
1040
0.5880014249968896
1002
}
  0
INSERT
  5
271C
330
27FA
100
AcDbEntity
  8
DETAIL
  6
Continuous
100
AcDbBlockReference
  2
*X77
 10
-0.000000000003638
 20
0.0000000986733539
 30
0.0
1001
ACADANNOTATIVE
1000
AnnotativeData
1002
{
1070
     1
1070
     0
1002
}
1001
ACAD
1000
HATCH
1002
{
1070
    19
1000
LINE
1040
19.969
1040
5.695183882182695
1002
}
  0
LINE
  5
271D
330
27FA
100
AcDbEntity
  8
DETAIL
100
AcDbLine
 10
-107.9000000000014
 20
-92.59999990132699
 30
0.0
 11
-107.9000000000014
 21
-286.3999999013267
 31
0.0
  0
LINE
  5
271E
330
27FA
100
AcDbEntity
  8
DETAIL
100
AcDbLine
 10
107.8999999999978
 20
-92.59999990132699
 30
0.0
 11
107.8999999999978
 21
-286.3999999013267
 31
0.0
  0
LINE
  5
271F
330
27FA
100
AcDbEntity
  8
DETAIL
100
AcDbLine
 10
107.8999999999978
 20
-92.59999990132699
 30
0.0
 11
-107.9000000000014
 21
-92.59999990132699
 31
0.0
  0
LINE
  5
2720
330
27FA
100
AcDbEntity
  8
DETAIL
100
AcDbLine
 10
-107.9000000000014
 20
-286.3999999013267
 30
0.0
 11
107.8999999999978
 21
-286.3999999013267
 31
0.0
  0
LINE
  5
2721
330
27FA
100
AcDbEntity
  8
SIZE
100
AcDbLine
 10
157.4999999999963
 20
20.00000009867335
 30
0.0
 11
157.4999999999963
 21
296.8865930351902
 31
0.0
  0
LINE
  5
2722
330
27FA
100
AcDbEntity
  8
SIZE
100
AcDbLine
 10
-157.5000000000036
 20
20.00000009867335
 30
0.0
 11
-157.5000000000036
 21
296.8865930351902
 31
0.0
  0
LINE
  5
2723
330
27FA
100
AcDbEntity
  8
SIZE
100
AcDbLine
 10
145.4999999999963
 20
276.8865930351902
 30
0.0
 11
-145.5000000000036
 21
276.8865930351902
 31
0.0
  0
INSERT
  5
2724
330
27FA
100
AcDbEntity
  8
SIZE
100
AcDbBlockReference
  2
_DOTBLANK
 10
157.4999999999963
 20
276.8865930351902
 30
0.0
 41
12.0
 42
12.0
 43
12.0
  0
INSERT
  5
2725
330
27FA
100
AcDbEntity
  8
SIZE
100
AcDbBlockReference
  2
_DOTBLANK
 10
-157.5000000000036
 20
276.8865930351902
 30
0.0
 41
12.0
 42
12.0
 43
12.0
 50
180.0
  0
LINE
  5
2726
330
27FA
100
AcDbEntity
  8
SIZE
100
AcDbLine
 10
139.9999999999963
 20
32.50000009867335
 30
0.0
 11
139.9999999999963
 21
178.3320911082905
 31
0.0
  0
LINE
  5
2727
330
27FA
100
AcDbEntity
  8
SIZE
100
AcDbLine
 10
-140.0000000000036
 20
32.50000009867335
 30
0.0
 11
-140.0000000000036
 21
178.3320911082905
 31
0.0
  0
LINE
  5
2728
330
27FA
100
AcDbEntity
  8
SIZE
100
AcDbLine
 10
127.9999999999963
 20
158.3320911082905
 30
0.0
 11
-128.0000000000035
 21
158.3320911082905
 31
0.0
  0
INSERT
  5
2729
330
27FA
100
AcDbEntity
  8
SIZE
100
AcDbBlockReference
  2
_DOTBLANK
 10
139.9999999999963
 20
158.3320911082905
 30
0.0
 41
12.0
 42
12.0
 43
12.0
  0
INSERT
  5
272A
330
27FA
100
AcDbEntity
  8
SIZE
100
AcDbBlockReference
  2
_DOTBLANK
 10
-140.0000000000036
 20
158.3320911082905
 30
0.0
 41
12.0
 42
12.0
 43
12.0
 50
180.0
  0
LINE
  5
272B
330
27FA
100
AcDbEntity
  8
SIZE
100
AcDbLine
 10
177.4999999999963
 20
0.0000000986733539
 30
0.0
 11
260.9696893768342
 21
0.0000000986733539
 31
0.0
  0
LINE
  5
272C
330
27FA
100
AcDbEntity
  8
SIZE
100
AcDbLine
 10
177.4999999999963
 20
-9.999999901326646
 30
0.0
 11
260.9696893768342
 21
-9.999999901326701
 31
0.0
  0
LINE
  5
272D
330
27FA
100
AcDbEntity
  8
SIZE
100
AcDbLine
 10
240.9696893768341
 20
12.00000009867335
 30
0.0
 11
240.9696893768341
 21
24.00000009867336
 31
0.0
  0
LINE
  5
272E
330
27FA
100
AcDbEntity
  8
SIZE
100
AcDbLine
 10
240.9696893768341
 20
-21.99999990132665
 30
0.0
 11
240.9696893768339
 21
-136.285714187041
 31
0.0
  0
INSERT
  5
272F
330
27FA
100
AcDbEntity
  8
SIZE
100
AcDbBlockReference
  2
_DOTBLANK
 10
240.9696893768341
 20
0.0000000986733539
 30
0.0
 41
12.0
 42
12.0
 43
12.0
 50
270.0
  0
INSERT
  5
2730
330
27FA
100
AcDbEntity
  8
SIZE
100
AcDbBlockReference
  2
_DOTBLANK
 10
240.9696893768341
 20
-9.999999901326646
 30
0.0
 41
12.0
 42
12.0
 43
12.0
 50
90.0
  0
LINE
  5
2731
330
27FA
100
AcDbEntity
  8
SIZE
100
AcDbLine
 10
-154.5000000000036
 20
-301.9999999013267
 30
0.0
 11
-343.6294636086025
 21
-301.9999999013267
 31
0.0
  0
LINE
  5
2732
330
27FA
100
AcDbEntity
  8
SIZE
100
AcDbLine
 10
-143.5000000000036
 20
-313.9999999013266
 30
0.0
 11
-343.6294636086025
 21
-313.9999999013266
 31
0.0
  0
LINE
  5
2733
330
27FA
100
AcDbEntity
  8
SIZE
100
AcDbLine
 10
-323.6294636086022
 20
-289.9999999013266
 30
0.0
 11
-323.6294636086022
 21
-277.9999999013266
 31
0.0
  0
LINE
  5
2734
330
27FA
100
AcDbEntity
  8
SIZE
100
AcDbLine
 10
-323.6294636086022
 20
-325.9999999013265
 30
0.0
 11
-323.6294636086022
 21
-440.2857141870408
 31
0.0
  0
INSERT
  5
2735
330
27FA
100
AcDbEntity
  8
SIZE
100
AcDbBlockReference
  2
_DOTBLANK
 10
-323.6294636086022
 20
-301.9999999013267
 30
0.0
 41
12.0
 42
12.0
 43
12.0
 50
270.0
  0
INSERT
  5
2736
330
27FA
100
AcDbEntity
  8
SIZE
100
AcDbBlockReference
  2
_DOTBLANK
 10
-323.6294636086022
 20
-313.9999999013266
 30
0.0
 41
12.0
 42
12.0
 43
12.0
 50
90.0
  0
LINE
  5
2737
330
27FA
100
AcDbEntity
  8
SIZE
100
AcDbLine
 10
-177.5000000000036
 20
0.0000000986733539
 30
0.0
 11
-343.629463608602
 21
0.0000000986733539
 31
0.0
  0
LINE
  5
2738
330
27FA
100
AcDbEntity
  8
SIZE
100
AcDbLine
 10
-154.5000000000036
 20
-301.9999999013267
 30
0.0
 11
-343.6294636086025
 21
-301.9999999013267
 31
0.0
  0
LINE
  5
2739
330
27FA
100
AcDbEntity
  8
SIZE
100
AcDbLine
 10
-323.6294636086022
 20
-11.99999990132659
 30
0.0
 11
-323.6294636086022
 21
-289.9999999013266
 31
0.0
  0
INSERT
  5
273A
330
27FA
100
AcDbEntity
  8
SIZE
100
AcDbBlockReference
  2
_DOTBLANK
 10
-323.6294636086022
 20
0.0000000986733539
 30
0.0
 41
12.0
 42
12.0
 43
12.0
 50
90.0
  0
INSERT
  5
273B
330
27FA
100
AcDbEntity
  8
SIZE
100
AcDbBlockReference
  2
_DOTBLANK
 10
-323.6294636086022
 20
-301.9999999013267
 30
0.0
 41
12.0
 42
12.0
 43
12.0
 50
270.0
  0
LINE
  5
273C
330
27FA
100
AcDbEntity
  8
SIZE
100
AcDbLine
 10
134.4999999999963
 20
-321.9999999013266
 30
0.0
 11
134.4999999999963
 21
-517.3506780283527
 31
0.0
  0
LINE
  5
273D
330
27FA
100
AcDbEntity
  8
SIZE
100
AcDbLine
 10
-134.5000000000036
 20
-321.9999999013266
 30
0.0
 11
-134.5000000000036
 21
-517.3506780283527
 31
0.0
  0
LINE
  5
273E
330
27FA
100
AcDbEntity
  8
SIZE
100
AcDbLine
 10
122.4999999999963
 20
-497.3506780283527
 30
0.0
 11
-122.5000000000036
 21
-497.3506780283527
 31
0.0
  0
INSERT
  5
273F
330
27FA
100
AcDbEntity
  8
SIZE
100
AcDbBlockReference
  2
_DOTBLANK
 10
134.4999999999963
 20
-497.3506780283527
 30
0.0
 41
12.0
 42
12.0
 43
12.0
  0
INSERT
  5
2740
330
27FA
100
AcDbEntity
  8
SIZE
100
AcDbBlockReference
  2
_DOTBLANK
 10
-134.5000000000036
 20
-497.3506780283527
 30
0.0
 41
12.0
 42
12.0
 43
12.0
 50
180.0
  0
TEXT
  5
2741
330
27FA
100
AcDbEntity
  8
SIZE
100
AcDbText
 10
-72.68571428571795
 20
-487.3506780283528
 30
0.0
 40
64.0
  1
269
 41
0.9
100
AcDbText
  0
TEXT
  5
2742
330
27FA
100
AcDbEntity
  8
SIZE
100
AcDbText
 10
-333.6294636086025
 20
-430.2857141870409
 30
0.0
 40
64.0
  1
12
 50
90.0
 41
0.9
100
AcDbText
  0
TEXT
  5
2743
330
27FA
100
AcDbEntity
  8
SIZE
100
AcDbText
 10
-333.6294636086025
 20
-225.0571427584695
 30
0.0
 40
64.0
  1
302
 50
90.0
 41
0.9
100
AcDbText
  0
TEXT
  5
2744
330
27FA
100
AcDbEntity
  8
SIZE
100
AcDbText
 10
-74.61302049113943
 20
168.3320911082905
 30
0.0
 40
64.0
  1
280
 41
0.9
100
AcDbText
  0
TEXT
  5
2745
330
27FA
100
AcDbEntity
  8
SIZE
100
AcDbText
 10
-68.57142857142865
 20
286.8865930351902
 30
0.0
 40
64.0
  1
315
 41
0.9
100
AcDbText
  0
TEXT
  5
2746
330
27FA
100
AcDbEntity
  8
SIZE
100
AcDbText
 10
230.9696893768341
 20
-126.2857141870408
 30
0.0
 40
64.0
  1
10
 50
90.0
 41
0.9
100
AcDbText
  0
ENDSEC
  0
SECTION
  2
OBJECTS
  0
DICTIONARY
  5
2792
330
0
100
AcDbDictionary
281
     1
  3
ACAD_2007HEADERVARS_RT
350
29E8
  3
ACAD_COLOR
350
27F0
  3
ACAD_GROUP
350
2793
  3
ACAD_LAYOUT
350
27EF
  3
ACAD_MATERIAL
350
2796
  3
ACAD_MLEADERSTYLE
350
27F3
  3
ACAD_MLINESTYLE
350
27EC
  3
ACAD_PLOTSETTINGS
350
27EE
  3
ACAD_PLOTSTYLENAME
350
2794
  3
ACAD_SCALELIST
350
27C0
  3
ACAD_TABLESTYLE
350
27F1
  3
ACAD_VISUALSTYLE
350
27AF
  3
ACDB_RECOMPOSE_DATA
350
29E6
  3
AcDbVariableDictionary
350
29DD
  3
AcmDictionary
350
2990
  3
AMG
350
28DD
  3
DWGPROPS
350
29E7
  3
MAPISURF_MODULE
350
295D
  0
DICTIONARY
  5
29B8
330
27E2
100
AcDbDictionary
280
     1
281
     1
  3
ADSK_XREC_LAYER_RECONCILED
360
29B9
  0
DICTIONARY
  5
29BA
330
2811
100
AcDbDictionary
280
     1
281
     1
  3
ADSK_XREC_LAYER_RECONCILED
360
29BB
  0
DICTIONARY
  5
29BC
330
2812
100
AcDbDictionary
280
     1
281
     1
  3
ADSK_XREC_LAYER_RECONCILED
360
29BD
  0
DICTIONARY
  5
29BE
330
2813
100
AcDbDictionary
280
     1
281
     1
  3
ADSK_XREC_LAYER_RECONCILED
360
29BF
  0
DICTIONARY
  5
29C0
330
2814
100
AcDbDictionary
280
     1
281
     1
  3
ADSK_XREC_LAYER_RECONCILED
360
29C1
  0
DICTIONARY
  5
29C2
330
2815
100
AcDbDictionary
280
     1
281
     1
  3
ADSK_XREC_LAYER_RECONCILED
360
29C3
  0
DICTIONARY
  5
29C4
330
2817
100
AcDbDictionary
280
     1
281
     1
  3
ADSK_XREC_LAYER_RECONCILED
360
29C5
  0
DICTIONARY
  5
29C6
330
2818
100
AcDbDictionary
280
     1
281
     1
  3
ADSK_XREC_LAYER_RECONCILED
360
29C7
  0
DICTIONARY
  5
29C8
330
2819
100
AcDbDictionary
280
     1
281
     1
  3
ADSK_XREC_LAYER_RECONCILED
360
29C9
  0
DICTIONARY
  5
29CA
330
281A
100
AcDbDictionary
280
     1
281
     1
  3
ADSK_XREC_LAYER_RECONCILED
360
29CB
  0
DICTIONARY
  5
29CC
330
281B
100
AcDbDictionary
280
     1
281
     1
  3
ADSK_XREC_LAYER_RECONCILED
360
29CD
  0
DICTIONARY
  5
29CE
330
27FA
100
AcDbDictionary
280
     1
281
     1
  3
ACAD_INDEX
360
29CF
  0
DICTIONARY
  5
29E8
102
{ACAD_REACTORS
330
2792
102
}
330
2792
100
AcDbDictionary
281
     1
  3
DIMARCSYM
350
29E9
  3
DIMLTEX1
350
29EB
  3
DIMLTEX2
350
29EC
  3
DIMLTYPE
350
29EA
  0
DICTIONARY
  5
27F0
102
{ACAD_REACTORS
330
2792
102
}
330
2792
100
AcDbDictionary
281
     1
  0
DICTIONARY
  5
2793
102
{ACAD_REACTORS
330
2792
102
}
330
2792
100
AcDbDictionary
281
     1
  0
DICTIONARY
  5
27EF
102
{ACAD_REACTORS
330
2792
102
}
330
2792
100
AcDbDictionary
281
     1
  3
Model
350
27FD
  3
レイアウト1
350
27F9
  0
DICTIONARY
  5
2796
102
{ACAD_REACTORS
330
2792
102
}
330
2792
100
AcDbDictionary
281
     1
  3
ByBlock
350
279F
  3
ByLayer
350
2797
  3
Global
350
27A7
  0
DICTIONARY
  5
27F3
102
{ACAD_REACTORS
330
2792
102
}
330
2792
100
AcDbDictionary
281
     1
  3
Standard
350
27F4
  0
DICTIONARY
  5
27EC
102
{ACAD_REACTORS
330
2792
102
}
330
2792
100
AcDbDictionary
281
     1
  3
Standard
350
27ED
  0
DICTIONARY
  5
27EE
102
{ACAD_REACTORS
330
2792
102
}
330
2792
100
AcDbDictionary
281
     1
  0
ACDBDICTIONARYWDFLT
  5
2794
102
{ACAD_REACTORS
330
2792
102
}
330
2792
100
AcDbDictionary
281
     1
  3
Normal
350
2795
100
AcDbDictionaryWithDefault
340
2795
  0
DICTIONARY
  5
27C0
102
{ACAD_REACTORS
330
2792
102
}
330
2792
100
AcDbDictionary
281
     1
  3
A0
350
27C1
  3
A1
350
27C2
  3
A2
350
27C3
  3
A3
350
27C4
  3
A4
350
27C5
  3
A5
350
27C6
  3
A6
350
27C7
  3
A7
350
27C8
  3
A8
350
27C9
  3
A9
350
27CA
  3
B0
350
27CB
  3
B1
350
27CC
  3
B2
350
27CD
  3
B3
350
27CE
  3
B4
350
27CF
  3
B5
350
27D0
  3
B6
350
27D1
  3
B7
350
27D2
  3
B8
350
27D3
  3
B9
350
27D4
  3
C0
350
27D5
  3
C1
350
27D6
  3
C2
350
27D7
  3
C3
350
27D8
  3
C4
350
27D9
  3
C5
350
27DA
  3
C6
350
27DB
  3
C7
350
27DC
  3
C8
350
27DD
  3
C9
350
27DE
  3
D0
350
27DF
  3
D1
350
27E0
  3
D2
350
27E1
  0
DICTIONARY
  5
27F1
102
{ACAD_REACTORS
330
2792
102
}
330
2792
100
AcDbDictionary
281
     1
  3
Standard
350
27F2
  0
DICTIONARY
  5
27AF
102
{ACAD_REACTORS
330
2792
102
}
330
2792
100
AcDbDictionary
281
     1
  3
2dWireframe
350
27B5
  3
3D Hidden
350
27B7
  3
3dWireframe
350
27B6
  3
Basic
350
27B4
  3
Brighten
350
27BB
  3
ColorChange
350
27BF
  3
Conceptual
350
27B8
  3
Dim
350
27BA
  3
Facepattern
350
27BE
  3
Flat
350
27B0
  3
FlatWithEdges
350
27B1
  3
Gouraud
350
27B2
  3
GouraudWithEdges
350
27B3
  3
Linepattern
350
27BD
  3
Realistic
350
27B9
  3
Thicken
350
27BC
  0
XRECORD
  5
29E6
102
{ACAD_REACTORS
330
2792
102
}
330
2792
100
AcDbXrecord
280
     1
 90
        1
330
27F2
  0
DICTIONARY
  5
29DD
102
{ACAD_REACTORS
330
2792
102
}
330
2792
100
AcDbDictionary
281
     1
  3
CANNOSCALE
350
29E0
  3
CMLEADERSTYLE
350
29DF
  3
CTABLESTYLE
350
29DE
  3
DIMASSOC
350
29E3
  3
INDEXCTL
350
29E2
  3
SORTENTS
350
29E1
  0
DICTIONARY
  5
2990
102
{ACAD_REACTORS
330
2792
102
}
330
2792
100
AcDbDictionary
281
     1
  3
AcmStdDictionary
350
299E
  0
DICTIONARY
  5
28DD
102
{ACAD_REACTORS
330
2792
102
}
330
2792
100
AcDbDictionary
281
     1
  3
AcMgSettings
350
28DE
  0
XRECORD
  5
29E7
102
{ACAD_REACTORS
330
2792
102
}
330
2792
100
AcDbXrecord
280
     1
  1
DWGPROPS COOKIE
  2

  3

  4

  6

  7

  8
A090053
  9

300
AmdtFileType=84
301
=
302
=
303
=
304
=
305
=
306
=
307
=
308
=
309
=
 40
1.041097291666666
 41
2452321.396199653
 42
2456211.597066597
  1

 90
        1
  0
XRECORD
  5
29B9
102
{ACAD_REACTORS
330
29B8
102
}
330
29B8
100
AcDbXrecord
280
     1
290
     1
  0
XRECORD
  5
29BB
102
{ACAD_REACTORS
330
29BA
102
}
330
29BA
100
AcDbXrecord
280
     1
290
     1
  0
XRECORD
  5
29BD
102
{ACAD_REACTORS
330
29BC
102
}
330
29BC
100
AcDbXrecord
280
     1
290
     1
  0
XRECORD
  5
29BF
102
{ACAD_REACTORS
330
29BE
102
}
330
29BE
100
AcDbXrecord
280
     1
290
     1
  0
XRECORD
  5
29C1
102
{ACAD_REACTORS
330
29C0
102
}
330
29C0
100
AcDbXrecord
280
     1
290
     1
  0
XRECORD
  5
29C3
102
{ACAD_REACTORS
330
29C2
102
}
330
29C2
100
AcDbXrecord
280
     1
290
     1
  0
XRECORD
  5
29C5
102
{ACAD_REACTORS
330
29C4
102
}
330
29C4
100
AcDbXrecord
280
     1
290
     1
  0
XRECORD
  5
29C7
102
{ACAD_REACTORS
330
29C6
102
}
330
29C6
100
AcDbXrecord
280
     1
290
     1
  0
XRECORD
  5
29C9
102
{ACAD_REACTORS
330
29C8
102
}
330
29C8
100
AcDbXrecord
280
     1
290
     1
  0
XRECORD
  5
29CB
102
{ACAD_REACTORS
330
29CA
102
}
330
29CA
100
AcDbXrecord
280
     1
290
     1
  0
XRECORD
  5
29CD
102
{ACAD_REACTORS
330
29CC
102
}
330
29CC
100
AcDbXrecord
280
     1
290
     1
  0
DICTIONARY
  5
29CF
102
{ACAD_REACTORS
330
29CE
102
}
330
29CE
100
AcDbDictionary
281
     1
  3
*A1
350
29D0
  0
XRECORD
  5
29E9
102
{ACAD_REACTORS
330
29E8
102
}
330
29E8
100
AcDbXrecord
280
     1
 70
     1
  0
XRECORD
  5
29EB
102
{ACAD_REACTORS
330
29E8
102
}
330
29E8
100
AcDbXrecord
280
     1
340
27E8
  0
XRECORD
  5
29EC
102
{ACAD_REACTORS
330
29E8
102
}
330
29E8
100
AcDbXrecord
280
     1
340
27E8
  0
XRECORD
  5
29EA
102
{ACAD_REACTORS
330
29E8
102
}
330
29E8
100
AcDbXrecord
280
     1
340
27E8
  0
LAYOUT
  5
27FD
102
{ACAD_XDICTIONARY
360
29F3
102
}
102
{ACAD_REACTORS
330
27EF
102
}
330
27EF
100
AcDbPlotSettings
  1

  2
自動 EPSON LP-9600S (W2450527 上)
  4

  6

 40
0.0
 41
0.0
 42
0.0
 43
0.0
 44
0.0
 45
0.0
 46
0.0
 47
0.0
 48
0.0
 49
0.0
140
0.0
141
0.0
142
1.0
143
1.0
 70
  1712
 72
     0
 73
     0
 74
     0
  7

 75
     0
147
1.0
148
0.0
149
0.0
100
AcDbLayout
  1
Model
 70
     1
 71
     0
 10
0.0
 20
0.0
 11
12.0
 21
9.0
 12
0.0
 22
0.0
 32
0.0
 14
0.0
 24
0.0
 34
0.0
 15
0.0
 25
0.0
 35
0.0
146
0.0
 13
0.0
 23
0.0
 33
0.0
 16
1.0
 26
0.0
 36
0.0
 17
0.0
 27
1.0
 37
0.0
 76
     0
330
27FA
331
27FE
  0
LAYOUT
  5
27F9
102
{ACAD_XDICTIONARY
360
29F1
102
}
102
{ACAD_REACTORS
330
27EF
102
}
330
27EF
100
AcDbPlotSettings
  1

  2
自動 EPSON LP-9600S (W2450527 上)
  4

  6

 40
0.0
 41
0.0
 42
0.0
 43
0.0
 44
0.0
 45
0.0
 46
0.0
 47
0.0
 48
0.0
 49
0.0
140
0.0
141
0.0
142
1.0
143
1.0
 70
   688
 72
     0
 73
     0
 74
     5
  7

 75
    16
147
1.0
148
0.0
149
0.0
100
AcDbLayout
  1
レイアウト1
 70
     1
 71
     1
 10
0.0
 20
0.0
 11
12.0
 21
9.0
 12
0.0
 22
0.0
 32
0.0
 14
1.000000000000000E+20
 24
1.000000000000000E+20
 34
1.000000000000000E+20
 15
-1.000000000000000E+20
 25
-1.000000000000000E+20
 35
-1.000000000000000E+20
146
0.0
 13
0.0
 23
0.0
 33
0.0
 16
1.0
 26
0.0
 36
0.0
 17
0.0
 27
1.0
 37
0.0
 76
     0
330
27F6
  0
MATERIAL
  5
279F
102
{ACAD_XDICTIONARY
360
27A0
102
}
102
{ACAD_REACTORS
330
2796
102
}
330
2796
100
AcDbMaterial
  1
ByBlock
 72
     0
 43
0.0208333333333333
 43
0.0
 43
0.0
 43
0.0
 43
0.0
 43
0.0208333333333333
 43
0.0
 43
0.0
 43
0.0
 43
0.0
 43
1.0
 43
0.0
 43
0.0
 43
0.0
 43
0.0
 43
1.0
 77
     0
 47
0.0208333333333333
 47
0.0
 47
0.0
 47
0.0
 47
0.0
 47
0.0208333333333333
 47
0.0
 47
0.0
 47
0.0
 47
0.0
 47
1.0
 47
0.0
 47
0.0
 47
0.0
 47
0.0
 47
1.0
171
     0
 49
0.0208333333333333
 49
0.0
 49
0.0
 49
0.0
 49
0.0
 49
0.0208333333333333
 49
0.0
 49
0.0
 49
0.0
 49
0.0
 49
1.0
 49
0.0
 49
0.0
 49
0.0
 49
0.0
 49
1.0
175
     0
142
0.0208333333333333
142
0.0
142
0.0
142
0.0
142
0.0
142
0.0208333333333333
142
0.0
142
0.0
142
0.0
142
0.0
142
1.0
142
0.0
142
0.0
142
0.0
142
0.0
142
1.0
179
     0
144
0.0208333333333333
144
0.0
144
0.0
144
0.0
144
0.0
144
0.0208333333333333
144
0.0
144
0.0
144
0.0
144
0.0
144
1.0
144
0.0
144
0.0
144
0.0
144
0.0
144
1.0
147
0.0208333333333333
147
0.0
147
0.0
147
0.0
147
0.0
147
0.0208333333333333
147
0.0
147
0.0
147
0.0
147
0.0
147
1.0
147
0.0
147
0.0
147
0.0
147
0.0
147
1.0
  0
MATERIAL
  5
2797
102
{ACAD_XDICTIONARY
360
2798
102
}
102
{ACAD_REACTORS
330
2796
102
}
330
2796
100
AcDbMaterial
  1
ByLayer
 72
     0
 43
0.0208333333333333
 43
0.0
 43
0.0
 43
0.0
 43
0.0
 43
0.0208333333333333
 43
0.0
 43
0.0
 43
0.0
 43
0.0
 43
1.0
 43
0.0
 43
0.0
 43
0.0
 43
0.0
 43
1.0
 77
     0
 47
0.0208333333333333
 47
0.0
 47
0.0
 47
0.0
 47
0.0
 47
0.0208333333333333
 47
0.0
 47
0.0
 47
0.0
 47
0.0
 47
1.0
 47
0.0
 47
0.0
 47
0.0
 47
0.0
 47
1.0
171
     0
 49
0.0208333333333333
 49
0.0
 49
0.0
 49
0.0
 49
0.0
 49
0.0208333333333333
 49
0.0
 49
0.0
 49
0.0
 49
0.0
 49
1.0
 49
0.0
 49
0.0
 49
0.0
 49
0.0
 49
1.0
175
     0
142
0.0208333333333333
142
0.0
142
0.0
142
0.0
142
0.0
142
0.0208333333333333
142
0.0
142
0.0
142
0.0
142
0.0
142
1.0
142
0.0
142
0.0
142
0.0
142
0.0
142
1.0
179
     0
144
0.0208333333333333
144
0.0
144
0.0
144
0.0
144
0.0
144
0.0208333333333333
144
0.0
144
0.0
144
0.0
144
0.0
144
1.0
144
0.0
144
0.0
144
0.0
144
0.0
144
1.0
147
0.0208333333333333
147
0.0
147
0.0
147
0.0
147
0.0
147
0.0208333333333333
147
0.0
147
0.0
147
0.0
147
0.0
147
1.0
147
0.0
147
0.0
147
0.0
147
0.0
147
1.0
  0
MATERIAL
  5
27A7
102
{ACAD_XDICTIONARY
360
27A8
102
}
102
{ACAD_REACTORS
330
2796
102
}
330
2796
100
AcDbMaterial
  1
Global
 72
     0
 43
0.0208333333333333
 43
0.0
 43
0.0
 43
0.0
 43
0.0
 43
0.0208333333333333
 43
0.0
 43
0.0
 43
0.0
 43
0.0
 43
1.0
 43
0.0
 43
0.0
 43
0.0
 43
0.0
 43
1.0
 77
     0
 47
0.0208333333333333
 47
0.0
 47
0.0
 47
0.0
 47
0.0
 47
0.0208333333333333
 47
0.0
 47
0.0
 47
0.0
 47
0.0
 47
1.0
 47
0.0
 47
0.0
 47
0.0
 47
0.0
 47
1.0
171
     0
 49
0.0208333333333333
 49
0.0
 49
0.0
 49
0.0
 49
0.0
 49
0.0208333333333333
 49
0.0
 49
0.0
 49
0.0
 49
0.0
 49
1.0
 49
0.0
 49
0.0
 49
0.0
 49
0.0
 49
1.0
175
     0
142
0.0208333333333333
142
0.0
142
0.0
142
0.0
142
0.0
142
0.0208333333333333
142
0.0
142
0.0
142
0.0
142
0.0
142
1.0
142
0.0
142
0.0
142
0.0
142
0.0
142
1.0
179
     0
144
0.0208333333333333
144
0.0
144
0.0
144
0.0
144
0.0
144
0.0208333333333333
144
0.0
144
0.0
144
0.0
144
0.0
144
1.0
144
0.0
144
0.0
144
0.0
144
0.0
144
1.0
147
0.0208333333333333
147
0.0
147
0.0
147
0.0
147
0.0
147
0.0208333333333333
147
0.0
147
0.0
147
0.0
147
0.0
147
1.0
147
0.0
147
0.0
147
0.0
147
0.0
147
1.0
  0
MLEADERSTYLE
  5
27F4
102
{ACAD_REACTORS
330
27F3
102
}
330
27F3
100
AcDbMLeaderStyle
170
     2
171
     1
172
     0
 90
        2
 40
0.0
 41
0.0
173
     1
 91
-1056964608
340
27E8
 92
       -2
290
     1
 42
0.09
291
     1
 43
0.36
  3
Standard
 44
0.18
300

342
27E3
174
     1
178
     6
175
     1
176
     0
 93
-1056964608
 45
0.18
292
     0
297
     0
 46
0.18
 94
-1056964608
 47
1.0
 49
1.0
140
1.0
293
     1
141
0.0
294
     1
177
     0
142
1.0
295
     0
296
     0
143
0.125
1001
ACAD_MLEADERVER
1070
     2
  0
MLINESTYLE
  5
27ED
102
{ACAD_REACTORS
330
27EC
102
}
330
27EC
100
AcDbMlineStyle
  2
STANDARD
 70
     0
  3

 62
   256
 51
90.0
 52
90.0
 71
     2
 49
0.5
 62
   256
  6
BYLAYER
 49
-0.5
 62
   256
  6
BYLAYER
  0
ACDBPLACEHOLDER
  5
2795
102
{ACAD_REACTORS
330
2794
102
}
330
2794
  0
SCALE
  5
27C1
102
{ACAD_REACTORS
330
27C0
102
}
330
27C0
100
AcDbScale
 70
     0
300
1:1
140
1.0
141
1.0
290
     1
  0
SCALE
  5
27C2
102
{ACAD_REACTORS
330
27C0
102
}
330
27C0
100
AcDbScale
 70
     0
300
1:2
140
1.0
141
2.0
290
     0
  0
SCALE
  5
27C3
102
{ACAD_REACTORS
330
27C0
102
}
330
27C0
100
AcDbScale
 70
     0
300
1:4
140
1.0
141
4.0
290
     0
  0
SCALE
  5
27C4
102
{ACAD_REACTORS
330
27C0
102
}
330
27C0
100
AcDbScale
 70
     0
300
1:5
140
1.0
141
5.0
290
     0
  0
SCALE
  5
27C5
102
{ACAD_REACTORS
330
27C0
102
}
330
27C0
100
AcDbScale
 70
     0
300
1:8
140
1.0
141
8.0
290
     0
  0
SCALE
  5
27C6
102
{ACAD_REACTORS
330
27C0
102
}
330
27C0
100
AcDbScale
 70
     0
300
1:10
140
1.0
141
10.0
290
     0
  0
SCALE
  5
27C7
102
{ACAD_REACTORS
330
27C0
102
}
330
27C0
100
AcDbScale
 70
     0
300
1:16
140
1.0
141
16.0
290
     0
  0
SCALE
  5
27C8
102
{ACAD_REACTORS
330
27C0
102
}
330
27C0
100
AcDbScale
 70
     0
300
1:20
140
1.0
141
20.0
290
     0
  0
SCALE
  5
27C9
102
{ACAD_REACTORS
330
27C0
102
}
330
27C0
100
AcDbScale
 70
     0
300
1:30
140
1.0
141
30.0
290
     0
  0
SCALE
  5
27CA
102
{ACAD_REACTORS
330
27C0
102
}
330
27C0
100
AcDbScale
 70
     0
300
1:40
140
1.0
141
40.0
290
     0
  0
SCALE
  5
27CB
102
{ACAD_REACTORS
330
27C0
102
}
330
27C0
100
AcDbScale
 70
     0
300
1:50
140
1.0
141
50.0
290
     0
  0
SCALE
  5
27CC
102
{ACAD_REACTORS
330
27C0
102
}
330
27C0
100
AcDbScale
 70
     0
300
1:100
140
1.0
141
100.0
290
     0
  0
SCALE
  5
27CD
102
{ACAD_REACTORS
330
27C0
102
}
330
27C0
100
AcDbScale
 70
     0
300
2:1
140
2.0
141
1.0
290
     0
  0
SCALE
  5
27CE
102
{ACAD_REACTORS
330
27C0
102
}
330
27C0
100
AcDbScale
 70
     0
300
4:1
140
4.0
141
1.0
290
     0
  0
SCALE
  5
27CF
102
{ACAD_REACTORS
330
27C0
102
}
330
27C0
100
AcDbScale
 70
     0
300
8:1
140
8.0
141
1.0
290
     0
  0
SCALE
  5
27D0
102
{ACAD_REACTORS
330
27C0
102
}
330
27C0
100
AcDbScale
 70
     0
300
10:1
140
10.0
141
1.0
290
     0
  0
SCALE
  5
27D1
102
{ACAD_REACTORS
330
27C0
102
}
330
27C0
100
AcDbScale
 70
     0
300
100:1
140
100.0
141
1.0
290
     0
  0
SCALE
  5
27D2
102
{ACAD_REACTORS
330
27C0
102
}
330
27C0
100
AcDbScale
 70
     0
300
1/128" = 1'-0"
140
0.0078125
141
12.0
290
     0
  0
SCALE
  5
27D3
102
{ACAD_REACTORS
330
27C0
102
}
330
27C0
100
AcDbScale
 70
     0
300
1/64" = 1'-0"
140
0.015625
141
12.0
290
     0
  0
SCALE
  5
27D4
102
{ACAD_REACTORS
330
27C0
102
}
330
27C0
100
AcDbScale
 70
     0
300
1/32" = 1'-0"
140
0.03125
141
12.0
290
     0
  0
SCALE
  5
27D5
102
{ACAD_REACTORS
330
27C0
102
}
330
27C0
100
AcDbScale
 70
     0
300
1/16" = 1'-0"
140
0.0625
141
12.0
290
     0
  0
SCALE
  5
27D6
102
{ACAD_REACTORS
330
27C0
102
}
330
27C0
100
AcDbScale
 70
     0
300
3/32" = 1'-0"
140
0.09375
141
12.0
290
     0
  0
SCALE
  5
27D7
102
{ACAD_REACTORS
330
27C0
102
}
330
27C0
100
AcDbScale
 70
     0
300
1/8" = 1'-0"
140
0.125
141
12.0
290
     0
  0
SCALE
  5
27D8
102
{ACAD_REACTORS
330
27C0
102
}
330
27C0
100
AcDbScale
 70
     0
300
3/16" = 1'-0"
140
0.1875
141
12.0
290
     0
  0
SCALE
  5
27D9
102
{ACAD_REACTORS
330
27C0
102
}
330
27C0
100
AcDbScale
 70
     0
300
1/4" = 1'-0"
140
0.25
141
12.0
290
     0
  0
SCALE
  5
27DA
102
{ACAD_REACTORS
330
27C0
102
}
330
27C0
100
AcDbScale
 70
     0
300
3/8" = 1'-0"
140
0.375
141
12.0
290
     0
  0
SCALE
  5
27DB
102
{ACAD_REACTORS
330
27C0
102
}
330
27C0
100
AcDbScale
 70
     0
300
1/2" = 1'-0"
140
0.5
141
12.0
290
     0
  0
SCALE
  5
27DC
102
{ACAD_REACTORS
330
27C0
102
}
330
27C0
100
AcDbScale
 70
     0
300
3/4" = 1'-0"
140
0.75
141
12.0
290
     0
  0
SCALE
  5
27DD
102
{ACAD_REACTORS
330
27C0
102
}
330
27C0
100
AcDbScale
 70
     0
300
1" = 1'-0"
140
1.0
141
12.0
290
     0
  0
SCALE
  5
27DE
102
{ACAD_REACTORS
330
27C0
102
}
330
27C0
100
AcDbScale
 70
     0
300
1-1/2" = 1'-0"
140
1.5
141
12.0
290
     0
  0
SCALE
  5
27DF
102
{ACAD_REACTORS
330
27C0
102
}
330
27C0
100
AcDbScale
 70
     0
300
3" = 1'-0"
140
3.0
141
12.0
290
     0
  0
SCALE
  5
27E0
102
{ACAD_REACTORS
330
27C0
102
}
330
27C0
100
AcDbScale
 70
     0
300
6" = 1'-0"
140
6.0
141
12.0
290
     0
  0
SCALE
  5
27E1
102
{ACAD_REACTORS
330
27C0
102
}
330
27C0
100
AcDbScale
 70
     0
300
1'-0" = 1'-0"
140
12.0
141
12.0
290
     0
  0
TABLESTYLE
  5
27F2
102
{ACAD_XDICTIONARY
360
29E4
102
}
102
{ACAD_REACTORS
330
27F1
102
}
330
27F1
100
AcDbTableStyle
  3
Standard
 70
     0
 71
     0
 40
0.06
 41
0.06
280
     0
281
     0
  7
STANDARD
140
0.18
170
     2
 62
     0
 63
     7
283
     0
274
    -2
284
     1
 64
     0
275
    -2
285
     1
 65
     0
276
    -2
286
     1
 66
     0
277
    -2
287
     1
 67
     0
278
    -2
288
     1
 68
     0
279
    -2
289
     1
 69
     0
  7
STANDARD
140
0.25
170
     5
 62
     0
 63
     7
283
     0
274
    -2
284
     1
 64
     0
275
    -2
285
     1
 65
     0
276
    -2
286
     1
 66
     0
277
    -2
287
     1
 67
     0
278
    -2
288
     1
 68
     0
279
    -2
289
     1
 69
     0
  7
STANDARD
140
0.18
170
     5
 62
     0
 63
     7
283
     0
274
    -2
284
     1
 64
     0
275
    -2
285
     1
 65
     0
276
    -2
286
     1
 66
     0
277
    -2
287
     1
 67
     0
278
    -2
288
     1
 68
     0
279
    -2
289
     1
 69
     0
  0
VISUALSTYLE
  5
27B5
102
{ACAD_REACTORS
330
27AF
102
}
330
27AF
100
AcDbVisualStyle
  2
2dWireframe
 70
     4
 71
     0
 72
     2
 73
     0
 90
        0
 40
-0.6
 41
-30.0
 62
     5
 63
     7
 74
     1
 91
        4
 64
     7
 65
   257
 75
     1
175
     1
 42
1.0
 92
        0
 66
   257
 43
1.0
 76
     1
 77
     6
 78
     2
 67
     7
 79
     5
170
     0
171
     0
290
     0
174
     0
 93
        1
 44
0.0
173
     0
291
     0
 45
0.0
1001
ACAD
1000
AcDbSavedByObjectVersion
1070
     0
  0
VISUALSTYLE
  5
27B7
102
{ACAD_REACTORS
330
27AF
102
}
330
27AF
100
AcDbVisualStyle
  2
3D Hidden
 70
     6
 71
     1
 72
     2
 73
     2
 90
        0
 40
-0.6
 41
-30.0
 62
     5
 63
     7
 74
     2
 91
        2
 64
     7
 65
   257
 75
     2
175
     1
 42
40.0
 92
        0
 66
   257
 43
1.0
 76
     1
 77
     6
 78
     2
 67
     7
 79
     3
170
     0
171
     0
290
     0
174
     0
 93
        1
 44
0.0
173
     0
291
     0
 45
0.0
1001
ACAD
1000
AcDbSavedByObjectVersion
1070
     0
  0
VISUALSTYLE
  5
27B6
102
{ACAD_REACTORS
330
27AF
102
}
330
27AF
100
AcDbVisualStyle
  2
3dWireframe
 70
     5
 71
     0
 72
     2
 73
     0
 90
        0
 40
-0.6
 41
-30.0
 62
     5
 63
     7
 74
     1
 91
        4
 64
     7
 65
   257
 75
     1
175
     1
 42
1.0
 92
        0
 66
   257
 43
1.0
 76
     1
 77
     6
 78
     2
 67
     7
 79
     5
170
     0
171
     0
290
     0
174
     0
 93
        1
 44
0.0
173
     0
291
     0
 45
0.0
1001
ACAD
1000
AcDbSavedByObjectVersion
1070
     0
  0
VISUALSTYLE
  5
27B4
102
{ACAD_REACTORS
330
27AF
102
}
330
27AF
100
AcDbVisualStyle
  2
Basic
 70
     7
 71
     1
 72
     0
 73
     1
 90
        0
 40
-0.6
 41
-30.0
 62
     5
 63
     7
 74
     0
 91
        4
 64
     7
 65
   257
 75
     1
175
     1
 42
1.0
 92
        8
 66
     7
 43
1.0
 76
     1
 77
     6
 78
     2
 67
     7
 79
     5
170
     0
171
     0
290
     0
174
     0
 93
        1
 44
0.0
173
     0
291
     1
 45
0.0
1001
ACAD
1000
AcDbSavedByObjectVersion
1070
     0
  0
VISUALSTYLE
  5
27BB
102
{ACAD_REACTORS
330
27AF
102
}
330
27AF
100
AcDbVisualStyle
  2
Brighten
 70
    12
 71
     2
 72
     2
 73
     0
 90
        0
 40
-0.6
 41
-30.0
 62
     5
 63
     7
 74
     1
 91
        4
 64
     7
 65
   257
 75
     1
175
     1
 42
1.0
 92
        8
 66
     7
 43
1.0
 76
     1
 77
     6
 78
     2
 67
     7
 79
     5
170
     0
171
     0
290
     0
174
     0
 93
        1
 44
50.0
173
     0
291
     1
 45
0.0
1001
ACAD
1000
AcDbSavedByObjectVersion
1070
     0
  0
VISUALSTYLE
  5
27BF
102
{ACAD_REACTORS
330
27AF
102
}
330
27AF
100
AcDbVisualStyle
  2
ColorChange
 70
    16
 71
     2
 72
     2
 73
     3
 90
        0
 40
-0.6
 41
-30.0
 62
     5
 63
     8
 74
     1
 91
        4
 64
     7
 65
   257
 75
     1
175
     1
 42
1.0
 92
        8
 66
     8
 43
1.0
 76
     1
 77
     6
 78
     2
 67
     7
 79
     5
170
     0
171
     0
290
     0
174
     0
 93
        1
 44
0.0
173
     0
291
     1
 45
0.0
1001
ACAD
1000
AcDbSavedByObjectVersion
1070
     0
  0
VISUALSTYLE
  5
27B8
102
{ACAD_REACTORS
330
27AF
102
}
330
27AF
100
AcDbVisualStyle
  2
Conceptual
 70
     9
 71
     3
 72
     2
 73
     0
 90
        0
 40
-0.6
 41
-30.0
 62
     5
 63
     7
 74
     2
 91
        2
 64
     7
 65
   257
 75
     1
175
     1
 42
40.0
 92
        8
 66
     7
 43
1.0
 76
     1
 77
     6
 78
     2
 67
     7
 79
     3
170
     0
171
     0
290
     0
174
     0
 93
        1
 44
0.0
173
     0
291
     0
 45
0.0
1001
ACAD
1000
AcDbSavedByObjectVersion
1070
     0
  0
VISUALSTYLE
  5
27BA
102
{ACAD_REACTORS
330
27AF
102
}
330
27AF
100
AcDbVisualStyle
  2
Dim
 70
    11
 71
     2
 72
     2
 73
     0
 90
        0
 40
-0.6
 41
-30.0
 62
     5
 63
     7
 74
     1
 91
        4
 64
     7
 65
   257
 75
     1
175
     1
 42
1.0
 92
        8
 66
     7
 43
1.0
 76
     1
 77
     6
 78
     2
 67
     7
 79
     5
170
     0
171
     0
290
     0
174
     0
 93
        1
 44
-50.0
173
     0
291
     1
 45
0.0
1001
ACAD
1000
AcDbSavedByObjectVersion
1070
     0
  0
VISUALSTYLE
  5
27BE
102
{ACAD_REACTORS
330
27AF
102
}
330
27AF
100
AcDbVisualStyle
  2
Facepattern
 70
    15
 71
     2
 72
     2
 73
     0
 90
        0
 40
-0.6
 41
-30.0
 62
     5
 63
     7
 74
     1
 91
        4
 64
     7
 65
   257
 75
     1
175
     1
 42
1.0
 92
        8
 66
     7
 43
1.0
 76
     1
 77
     6
 78
     2
 67
     7
 79
     5
170
     0
171
     0
290
     0
174
     0
 93
        1
 44
0.0
173
     0
291
     1
 45
0.0
1001
ACAD
1000
AcDbSavedByObjectVersion
1070
     0
  0
VISUALSTYLE
  5
27B0
102
{ACAD_REACTORS
330
27AF
102
}
330
27AF
100
AcDbVisualStyle
  2
Flat
 70
     0
 71
     2
 72
     1
 73
     1
 90
        2
 40
-0.6
 41
30.0
 62
     5
 63
     7
 74
     0
 91
        4
 64
     7
 65
   257
 75
     1
175
     1
 42
1.0
 92
        8
 66
     7
 43
1.0
 76
     1
 77
     6
 78
     2
 67
     7
 79
     5
170
     0
171
     0
290
     0
174
     0
 93
       13
 44
0.0
173
     0
291
     1
 45
0.0
1001
ACAD
1000
AcDbSavedByObjectVersion
1070
     0
  0
VISUALSTYLE
  5
27B1
102
{ACAD_REACTORS
330
27AF
102
}
330
27AF
100
AcDbVisualStyle
  2
FlatWithEdges
 70
     1
 71
     2
 72
     1
 73
     1
 90
        2
 40
-0.6
 41
30.0
 62
     5
 63
     7
 74
     1
 91
        4
 64
     7
 65
   257
 75
     1
175
     1
 42
1.0
 92
        0
 66
   257
 43
1.0
 76
     1
 77
     6
 78
     2
 67
     7
 79
     5
170
     0
171
     0
290
     0
174
     0
 93
       13
 44
0.0
173
     0
291
     1
 45
0.0
1001
ACAD
1000
AcDbSavedByObjectVersion
1070
     0
  0
VISUALSTYLE
  5
27B2
102
{ACAD_REACTORS
330
27AF
102
}
330
27AF
100
AcDbVisualStyle
  2
Gouraud
 70
     2
 71
     2
 72
     2
 73
     1
 90
        2
 40
-0.6
 41
30.0
 62
     5
 63
     7
 74
     0
 91
        4
 64
     7
 65
   257
 75
     1
175
     1
 42
1.0
 92
        0
 66
     7
 43
1.0
 76
     1
 77
     6
 78
     2
 67
     7
 79
     5
170
     0
171
     0
290
     0
174
     0
 93
       13
 44
0.0
173
     0
291
     1
 45
0.0
1001
ACAD
1000
AcDbSavedByObjectVersion
1070
     0
  0
VISUALSTYLE
  5
27B3
102
{ACAD_REACTORS
330
27AF
102
}
330
27AF
100
AcDbVisualStyle
  2
GouraudWithEdges
 70
     3
 71
     2
 72
     2
 73
     1
 90
        2
 40
-0.6
 41
30.0
 62
     5
 63
     7
 74
     1
 91
        4
 64
     7
 65
   257
 75
     1
175
     1
 42
1.0
 92
        0
 66
   257
 43
1.0
 76
     1
 77
     6
 78
     2
 67
     7
 79
     5
170
     0
171
     0
290
     0
174
     0
 93
       13
 44
0.0
173
     0
291
     1
 45
0.0
1001
ACAD
1000
AcDbSavedByObjectVersion
1070
     0
  0
VISUALSTYLE
  5
27BD
102
{ACAD_REACTORS
330
27AF
102
}
330
27AF
100
AcDbVisualStyle
  2
Linepattern
 70
    14
 71
     2
 72
     2
 73
     0
 90
        0
 40
-0.6
 41
-30.0
 62
     5
 63
     7
 74
     1
 91
        4
 64
     7
 65
   257
 75
     7
175
     7
 42
1.0
 92
        8
 66
     7
 43
1.0
 76
     1
 77
     6
 78
     2
 67
     7
 79
     5
170
     0
171
     0
290
     0
174
     0
 93
        1
 44
0.0
173
     0
291
     1
 45
0.0
1001
ACAD
1000
AcDbSavedByObjectVersion
1070
     0
  0
VISUALSTYLE
  5
27B9
102
{ACAD_REACTORS
330
27AF
102
}
330
27AF
100
AcDbVisualStyle
  2
Realistic
 70
     8
 71
     2
 72
     2
 73
     0
 90
        0
 40
-0.6
 41
-30.0
 62
     5
 63
     7
 74
     1
 91
        0
 64
     7
 65
   257
 75
     1
175
     1
 42
1.0
 92
        8
 66
     8
 43
1.0
 76
     1
 77
     6
 78
     2
 67
     7
 79
     5
170
     0
171
     0
290
     0
174
     0
 93
       13
 44
0.0
173
     0
291
     0
 45
0.0
1001
ACAD
1000
AcDbSavedByObjectVersion
1070
     0
  0
VISUALSTYLE
  5
27BC
102
{ACAD_REACTORS
330
27AF
102
}
330
27AF
100
AcDbVisualStyle
  2
Thicken
 70
    13
 71
     2
 72
     2
 73
     0
 90
        0
 40
-0.6
 41
-30.0
 62
     5
 63
     7
 74
     1
 91
        4
 64
     7
 65
   257
 75
     1
175
     1
 42
1.0
 92
       12
 66
     7
 43
1.0
 76
     1
 77
     6
 78
     2
 67
     7
 79
     5
170
     0
171
     0
290
     0
174
     0
 93
        1
 44
0.0
173
     0
291
     1
 45
0.0
1001
ACAD
1000
AcDbSavedByObjectVersion
1070
     0
  0
DICTIONARYVAR
  5
29E0
102
{ACAD_REACTORS
330
29DD
102
}
330
29DD
100
DictionaryVariables
280
     0
  1
1:1
  0
DICTIONARYVAR
  5
29DF
102
{ACAD_REACTORS
330
29DD
102
}
330
29DD
100
DictionaryVariables
280
     0
  1
STANDARD
  0
DICTIONARYVAR
  5
29DE
102
{ACAD_REACTORS
330
29DD
102
}
330
29DD
100
DictionaryVariables
280
     0
  1
STANDARD
  0
DICTIONARYVAR
  5
29E3
102
{ACAD_REACTORS
330
29DD
102
}
330
29DD
100
DictionaryVariables
280
     0
  1
1
  0
DICTIONARYVAR
  5
29E2
102
{ACAD_REACTORS
330
29DD
102
}
330
29DD
100
DictionaryVariables
280
     0
  1
1
  0
DICTIONARYVAR
  5
29E1
102
{ACAD_REACTORS
330
29DD
102
}
330
29DD
100
DictionaryVariables
280
     0
  1
127
  0
DICTIONARY
  5
299E
102
{ACAD_REACTORS
330
2990
102
}
330
2990
100
AcDbDictionary
281
     1
  0
DICTIONARY
  5
28DE
102
{ACAD_REACTORS
330
28DD
102
}
330
28DD
100
AcDbDictionary
281
     1
  3
DWGSETTINGS
350
28DF
  3
TRANSSETTINGS
350
28E0
  0
LAYER_INDEX
  5
29D0
102
{ACAD_REACTORS
330
29CF
102
}
330
29CF
100
AcDbIndex
 40
2456211.597066597
100
AcDbLayerIndex
  8
0
360
29D1
 90
        2
  8
OUTLINE
360
29D2
 90
       22
  8
SIZE
360
29D3
 90
       38
  8
BASIS
360
29D4
 90
        1
  8
DETAIL
360
29D5
 90
       26
  8
ARRANGE
360
29D6
 90
        2
  8
DEFPOINTS
360
29D7
 90
        0
  8
ETC
360
29D8
 90
        3
  8
FIX
360
29D9
 90
        0
  8
NOTE
360
29DA
 90
        4
  8
SERVICESPACE
360
29DB
 90
        0
  8
SYMBOLLINE
360
29DC
 90
        0
  0
DICTIONARY
  5
29F3
330
27FD
100
AcDbDictionary
280
     1
281
     1
  3
ACAD_XREC_ROUNDTRIP
360
29F4
  0
DICTIONARY
  5
29F1
330
27F9
100
AcDbDictionary
280
     1
281
     1
  3
ACAD_XREC_ROUNDTRIP
360
29F2
  0
DICTIONARY
  5
27A0
330
279F
100
AcDbDictionary
280
     1
281
     1
  3
ACAD_XREC_ROUNDTRIP
360
29EE
  3
BUMPTILE
360
27A2
  3
DIFFUSETILE
360
27A1
  3
OPACITYTILE
360
27A5
  3
REFLECTIONTILE
360
27A4
  3
REFRACTIONTILE
360
27A6
  3
SPECULARTILE
360
27A3
  0
DICTIONARY
  5
2798
330
2797
100
AcDbDictionary
280
     1
281
     1
  3
ACAD_XREC_ROUNDTRIP
360
29ED
  3
BUMPTILE
360
279A
  3
DIFFUSETILE
360
2799
  3
OPACITYTILE
360
279D
  3
REFLECTIONTILE
360
279C
  3
REFRACTIONTILE
360
279E
  3
SPECULARTILE
360
279B
  0
DICTIONARY
  5
27A8
330
27A7
100
AcDbDictionary
280
     1
281
     1
  3
ACAD_XREC_ROUNDTRIP
360
29EF
  3
BUMPTILE
360
27AA
  3
DIFFUSETILE
360
27A9
  3
OPACITYTILE
360
27AD
  3
REFLECTIONTILE
360
27AC
  3
REFRACTIONTILE
360
27AE
  3
SPECULARTILE
360
27AB
  0
DICTIONARY
  5
29E4
330
27F2
100
AcDbDictionary
280
     1
281
     1
  3
ACAD_ROUNDTRIP_2008_TABLESTYLE_CELLSTYLEMAP
360
29E5
  3
ACAD_XREC_ROUNDTRIP
360
29F0
  0
IDBUFFER
  5
29D1
330
0
100
AcDbIdBuffer
330
2707
330
2708
  0
IDBUFFER
  5
29D2
330
0
100
AcDbIdBuffer
330
2715
330
2716
330
2717
330
2718
330
2719
330
271A
330
953
330
954
330
955
330
956
330
957
330
958
330
270B
330
270C
330
270D
330
270E
330
270F
330
2710
330
2711
330
2712
330
2713
330
2714
  0
IDBUFFER
  5
29D3
330
0
100
AcDbIdBuffer
330
2731
330
2732
330
2733
330
2734
330
2735
330
2736
330
2737
330
2738
330
2739
330
273A
330
273B
330
273C
330
273D
330
273E
330
273F
330
2740
330
2741
330
2742
330
2743
330
2744
330
2745
330
2746
330
2721
330
2722
330
2723
330
2724
330
2725
330
2726
330
2727
330
2728
330
2729
330
272A
330
272B
330
272C
330
272D
330
272E
330
272F
330
2730
  0
IDBUFFER
  5
29D4
330
0
100
AcDbIdBuffer
330
2705
  0
IDBUFFER
  5
29D5
330
0
100
AcDbIdBuffer
330
2702
330
2703
330
2704
330
2706
330
271B
330
271C
330
271D
330
271E
330
271F
330
2720
330
26F0
330
26F2
330
26F3
330
26F4
330
26F5
330
26F6
330
26F7
330
26F9
330
26FA
330
26FB
330
26FC
330
26FD
330
26FE
330
26FF
330
2700
330
2701
  0
IDBUFFER
  5
29D6
330
0
100
AcDbIdBuffer
330
26EE
330
26F8
  0
IDBUFFER
  5
29D7
330
0
100
AcDbIdBuffer
  0
IDBUFFER
  5
29D8
330
0
100
AcDbIdBuffer
330
26EB
330
26EC
330
26ED
  0
IDBUFFER
  5
29D9
330
0
100
AcDbIdBuffer
  0
IDBUFFER
  5
29DA
330
0
100
AcDbIdBuffer
330
26EF
330
26F1
330
2709
330
270A
  0
IDBUFFER
  5
29DB
330
0
100
AcDbIdBuffer
  0
IDBUFFER
  5
29DC
330
0
100
AcDbIdBuffer
  0
XRECORD
  5
29F4
102
{ACAD_REACTORS
330
29F3
102
}
330
29F3
100
AcDbXrecord
280
     1
102
SHADEPLOT
 70
     0
102
SHADEPLOTRESLEVEL
 70
     2
102
SHADEPLOTCUSTOMDPI
 70
   300
  0
XRECORD
  5
29F2
102
{ACAD_REACTORS
330
29F1
102
}
330
29F1
100
AcDbXrecord
280
     1
102
SHADEPLOT
 70
     0
102
SHADEPLOTRESLEVEL
 70
     2
102
SHADEPLOTCUSTOMDPI
 70
   300
  0
XRECORD
  5
29EE
102
{ACAD_REACTORS
330
27A0
102
}
330
27A0
100
AcDbXrecord
280
     1
102
MATERIAL
148
0.0
149
0.0
149
0.0
 93
        0
 94
      127
282
     0
 72
     0
 77
     0
171
     0
175
     0
179
     0
273
     0
  0
XRECORD
  5
27A2
102
{ACAD_REACTORS
330
27A0
102
}
330
27A0
100
AcDbXrecord
280
     1
270
     1
271
     1
  0
XRECORD
  5
27A1
102
{ACAD_REACTORS
330
27A0
102
}
330
27A0
100
AcDbXrecord
280
     1
270
     1
271
     1
  0
XRECORD
  5
27A5
102
{ACAD_REACTORS
330
27A0
102
}
330
27A0
100
AcDbXrecord
280
     1
270
     1
271
     1
  0
XRECORD
  5
27A4
102
{ACAD_REACTORS
330
27A0
102
}
330
27A0
100
AcDbXrecord
280
     1
270
     1
271
     1
  0
XRECORD
  5
27A6
102
{ACAD_REACTORS
330
27A0
102
}
330
27A0
100
AcDbXrecord
280
     1
270
     1
271
     1
  0
XRECORD
  5
27A3
102
{ACAD_REACTORS
330
27A0
102
}
330
27A0
100
AcDbXrecord
280
     1
270
     1
271
     1
  0
XRECORD
  5
29ED
102
{ACAD_REACTORS
330
2798
102
}
330
2798
100
AcDbXrecord
280
     1
102
MATERIAL
148
0.0
149
0.0
149
0.0
 93
        0
 94
      127
282
     0
 72
     0
 77
     0
171
     0
175
     0
179
     0
273
     0
  0
XRECORD
  5
279A
102
{ACAD_REACTORS
330
2798
102
}
330
2798
100
AcDbXrecord
280
     1
270
     1
271
     1
  0
XRECORD
  5
2799
102
{ACAD_REACTORS
330
2798
102
}
330
2798
100
AcDbXrecord
280
     1
270
     1
271
     1
  0
XRECORD
  5
279D
102
{ACAD_REACTORS
330
2798
102
}
330
2798
100
AcDbXrecord
280
     1
270
     1
271
     1
  0
XRECORD
  5
279C
102
{ACAD_REACTORS
330
2798
102
}
330
2798
100
AcDbXrecord
280
     1
270
     1
271
     1
  0
XRECORD
  5
279E
102
{ACAD_REACTORS
330
2798
102
}
330
2798
100
AcDbXrecord
280
     1
270
     1
271
     1
  0
XRECORD
  5
279B
102
{ACAD_REACTORS
330
2798
102
}
330
2798
100
AcDbXrecord
280
     1
270
     1
271
     1
  0
XRECORD
  5
29EF
102
{ACAD_REACTORS
330
27A8
102
}
330
27A8
100
AcDbXrecord
280
     1
102
MATERIAL
148
0.0
149
0.0
149
0.0
 93
        0
 94
      127
282
     0
 72
     0
 77
     0
171
     0
175
     0
179
     0
273
     0
  0
XRECORD
  5
27AA
102
{ACAD_REACTORS
330
27A8
102
}
330
27A8
100
AcDbXrecord
280
     1
270
     1
271
     1
  0
XRECORD
  5
27A9
102
{ACAD_REACTORS
330
27A8
102
}
330
27A8
100
AcDbXrecord
280
     1
270
     1
271
     1
  0
XRECORD
  5
27AD
102
{ACAD_REACTORS
330
27A8
102
}
330
27A8
100
AcDbXrecord
280
     1
270
     1
271
     1
  0
XRECORD
  5
27AC
102
{ACAD_REACTORS
330
27A8
102
}
330
27A8
100
AcDbXrecord
280
     1
270
     1
271
     1
  0
XRECORD
  5
27AE
102
{ACAD_REACTORS
330
27A8
102
}
330
27A8
100
AcDbXrecord
280
     1
270
     1
271
     1
  0
XRECORD
  5
27AB
102
{ACAD_REACTORS
330
27A8
102
}
330
27A8
100
AcDbXrecord
280
     1
270
     1
271
     1
  0
CELLSTYLEMAP
  5
29E5
102
{ACAD_REACTORS
330
29E4
102
}
330
29E4
100
AcDbCellStyleMap
 90
        3
300
CELLSTYLE
  1
TABLEFORMAT_BEGIN
 90
        5
170
     1
 91
        0
 92
    32768
 62
   257
 93
        1
300
CONTENTFORMAT
  1
CONTENTFORMAT_BEGIN
 90
        0
 91
        0
 92
      512
 93
        0
300

 40
0.0
140
1.0
 94
        5
 62
     0
340
27E3
144
0.25
309
CONTENTFORMAT_END
171
     0
 94
        0
309
TABLEFORMAT_END
  1
CELLSTYLE_BEGIN
 90
        1
 91
        1
300
_TITLE
309
CELLSTYLE_END
300
CELLSTYLE
  1
TABLEFORMAT_BEGIN
 90
        5
170
     1
 91
        0
 92
        0
 62
   257
 93
        1
300
CONTENTFORMAT
  1
CONTENTFORMAT_BEGIN
 90
        0
 91
        0
 92
      512
 93
        0
300

 40
0.0
140
1.0
 94
        5
 62
     0
340
27E3
144
0.18
309
CONTENTFORMAT_END
171
     0
 94
        0
309
TABLEFORMAT_END
  1
CELLSTYLE_BEGIN
 90
        2
 91
        1
300
_HEADER
309
CELLSTYLE_END
300
CELLSTYLE
  1
TABLEFORMAT_BEGIN
 90
        5
170
     1
 91
        0
 92
        0
 62
   257
 93
        1
300
CONTENTFORMAT
  1
CONTENTFORMAT_BEGIN
 90
        0
 91
        0
 92
      512
 93
        0
300

 40
0.0
140
1.0
 94
        2
 62
     0
340
27E3
144
0.18
309
CONTENTFORMAT_END
171
     0
 94
        0
309
TABLEFORMAT_END
  1
CELLSTYLE_BEGIN
 90
        3
 91
        2
300
_DATA
309
CELLSTYLE_END
  0
XRECORD
  5
29F0
102
{ACAD_REACTORS
330
29E4
102
}
330
29E4
100
AcDbXrecord
280
     1
102
ACAD_ROUNDTRIP_PRE2007_TABLESTYLE
 90
      512
 91
        0
  1

 92
      512
 93
        0
  2

 94
      512
 95
        0
  3

  0
ENDSEC
  0
EOF
