  0
SECTION
  2
HEADER
  9
$ACADVER
  1
AC1015
  9
$ACADMAINTVER
 70
    20
  9
$DWGCODEPAGE
  3
ANSI_932
  9
$INSBASE
 10
0.0
 20
0.0
 30
0.0
  9
$EXTMIN
 10
-434.9377382454985
 20
-544.1924168160425
 30
0.0
  9
$EXTMAX
 10
910.290074993988
 20
751.0183916965853
 30
50.0
  9
$LIMMIN
 10
-2970.0
 20
-2100.0
  9
$LIMMAX
 10
2970.0
 20
2100.0
  9
$ORTHOMODE
 70
     1
  9
$REGENMODE
 70
     0
  9
$FILLMODE
 70
     1
  9
$QTEXTMODE
 70
     0
  9
$MIRRTEXT
 70
     0
  9
$LTSCALE
 40
20.0
  9
$ATTMODE
 70
     1
  9
$TEXTSIZE
 40
64.0
  9
$TRACEWID
 40
0.05
  9
$TEXTSTYLE
  7
STANDARD
  9
$CLAYER
  8
0
  9
$CELTYPE
  6
ByLayer
  9
$CECOLOR
 62
   256
  9
$CELTSCALE
 40
1.0
  9
$DISPSILH
 70
     0
  9
$DIMSCALE
 40
1.0
  9
$DIMASZ
 40
0.12
  9
$DIMEXO
 40
0.05
  9
$DIMDLI
 40
0.5
  9
$DIMRND
 40
0.0
  9
$DIMDLE
 40
0.0
  9
$DIMEXE
 40
0.1
  9
$DIMTP
 40
0.1
  9
$DIMTM
 40
0.1
  9
$DIMTXT
 40
0.12
  9
$DIMCEN
 40
0.0
  9
$DIMTSZ
 40
0.0
  9
$DIMTOL
 70
     0
  9
$DIMLIM
 70
     0
  9
$DIMTIH
 70
     1
  9
$DIMTOH
 70
     1
  9
$DIMSE1
 70
     0
  9
$DIMSE2
 70
     0
  9
$DIMTAD
 70
     0
  9
$DIMZIN
 70
     7
  9
$DIMBLK
  1

  9
$DIMASO
 70
     1
  9
$DIMSHO
 70
     0
  9
$DIMPOST
  1

  9
$DIMAPOST
  1
mm
  9
$DIMALT
 70
     0
  9
$DIMALTD
 70
     2
  9
$DIMALTF
 40
25.4
  9
$DIMLFAC
 40
1.0
  9
$DIMTOFL
 70
     0
  9
$DIMTVP
 40
0.0
  9
$DIMTIX
 70
     0
  9
$DIMSOXD
 70
     0
  9
$DIMSAH
 70
     0
  9
$DIMBLK1
  1

  9
$DIMBLK2
  1

  9
$DIMSTYLE
  2
AM_ANSI
  9
$DIMCLRD
 70
   256
  9
$DIMCLRE
 70
   256
  9
$DIMCLRT
 70
     2
  9
$DIMTFAC
 40
0.71
  9
$DIMGAP
 40
0.06
  9
$DIMJUST
 70
     0
  9
$DIMSD1
 70
     0
  9
$DIMSD2
 70
     0
  9
$DIMTOLJ
 70
     1
  9
$DIMTZIN
 70
     7
  9
$DIMALTZ
 70
     0
  9
$DIMALTTZ
 70
     0
  9
$DIMUPT
 70
     0
  9
$DIMDEC
 70
     4
  9
$DIMTDEC
 70
     4
  9
$DIMALTU
 70
     2
  9
$DIMALTTD
 70
     4
  9
$DIMTXSTY
  7
STANDARD
  9
$DIMAUNIT
 70
     0
  9
$DIMADEC
 70
     0
  9
$DIMALTRND
 40
0.0
  9
$DIMAZIN
 70
     2
  9
$DIMDSEP
 70
    46
  9
$DIMATFIT
 70
     3
  9
$DIMFRAC
 70
     0
  9
$DIMLDRBLK
  1

  9
$DIMLUNIT
 70
     2
  9
$DIMLWD
 70
    -1
  9
$DIMLWE
 70
    -1
  9
$DIMTMOVE
 70
     0
  9
$LUNITS
 70
     2
  9
$LUPREC
 70
     4
  9
$SKETCHINC
 40
0.1
  9
$FILLETRAD
 40
4.0
  9
$AUNITS
 70
     1
  9
$AUPREC
 70
     3
  9
$MENU
  1
ACAD
  9
$ELEVATION
 40
0.0
  9
$PELEVATION
 40
0.0
  9
$THICKNESS
 40
50.0
  9
$LIMCHECK
 70
     0
  9
$CHAMFERA
 40
0.0
  9
$CHAMFERB
 40
0.0
  9
$CHAMFERC
 40
0.0
  9
$CHAMFERD
 40
0.0
  9
$SKPOLY
 70
     0
  9
$TDCREATE
 40
2452321.396199653
  9
$TDUCREATE
 40
2452321.021199653
  9
$TDUPDATE
 40
2456211.597770868
  9
$TDUUPDATE
 40
2456211.222770868
  9
$TDINDWG
 40
1.0404943403
  9
$TDUSRTIMER
 40
1.0404889352
  9
$USRTIMER
 70
     1
  9
$ANGBASE
 50
0.0
  9
$ANGDIR
 70
     0
  9
$PDMODE
 70
     3
  9
$PDSIZE
 40
-2.0
  9
$PLINEWID
 40
0.0
  9
$SPLFRAME
 70
     0
  9
$SPLINETYPE
 70
     6
  9
$SPLINESEGS
 70
     8
  9
$HANDSEED
  5
2895
  9
$SURFTAB1
 70
     6
  9
$SURFTAB2
 70
     6
  9
$SURFTYPE
 70
     6
  9
$SURFU
 70
     6
  9
$SURFV
 70
     6
  9
$UCSBASE
  2

  9
$UCSNAME
  2

  9
$UCSORG
 10
0.0
 20
0.0
 30
0.0
  9
$UCSXDIR
 10
1.0
 20
0.0
 30
0.0
  9
$UCSYDIR
 10
0.0
 20
1.0
 30
0.0
  9
$UCSORTHOREF
  2

  9
$UCSORTHOVIEW
 70
     0
  9
$UCSORGTOP
 10
0.0
 20
0.0
 30
0.0
  9
$UCSORGBOTTOM
 10
0.0
 20
0.0
 30
0.0
  9
$UCSORGLEFT
 10
0.0
 20
0.0
 30
0.0
  9
$UCSORGRIGHT
 10
0.0
 20
0.0
 30
0.0
  9
$UCSORGFRONT
 10
0.0
 20
0.0
 30
0.0
  9
$UCSORGBACK
 10
0.0
 20
0.0
 30
0.0
  9
$PUCSBASE
  2

  9
$PUCSNAME
  2

  9
$PUCSORG
 10
0.0
 20
0.0
 30
0.0
  9
$PUCSXDIR
 10
1.0
 20
0.0
 30
0.0
  9
$PUCSYDIR
 10
0.0
 20
1.0
 30
0.0
  9
$PUCSORTHOREF
  2

  9
$PUCSORTHOVIEW
 70
     0
  9
$PUCSORGTOP
 10
0.0
 20
0.0
 30
0.0
  9
$PUCSORGBOTTOM
 10
0.0
 20
0.0
 30
0.0
  9
$PUCSORGLEFT
 10
0.0
 20
0.0
 30
0.0
  9
$PUCSORGRIGHT
 10
0.0
 20
0.0
 30
0.0
  9
$PUCSORGFRONT
 10
0.0
 20
0.0
 30
0.0
  9
$PUCSORGBACK
 10
0.0
 20
0.0
 30
0.0
  9
$USERI1
 70
     0
  9
$USERI2
 70
     0
  9
$USERI3
 70
     0
  9
$USERI4
 70
     0
  9
$USERI5
 70
     0
  9
$USERR1
 40
20.0
  9
$USERR2
 40
0.0
  9
$USERR3
 40
0.0
  9
$USERR4
 40
0.0
  9
$USERR5
 40
0.0
  9
$WORLDVIEW
 70
     1
  9
$SHADEDGE
 70
     3
  9
$SHADEDIF
 70
    70
  9
$TILEMODE
 70
     1
  9
$MAXACTVP
 70
    64
  9
$PINSBASE
 10
0.0
 20
0.0
 30
0.0
  9
$PLIMCHECK
 70
     0
  9
$PEXTMIN
 10
1.000000000000000E+20
 20
1.000000000000000E+20
 30
1.000000000000000E+20
  9
$PEXTMAX
 10
-1.000000000000000E+20
 20
-1.000000000000000E+20
 30
-1.000000000000000E+20
  9
$PLIMMIN
 10
0.0
 20
0.0
  9
$PLIMMAX
 10
12.0
 20
9.0
  9
$UNITMODE
 70
     0
  9
$VISRETAIN
 70
     1
  9
$PLINEGEN
 70
     0
  9
$PSLTSCALE
 70
     1
  9
$TREEDEPTH
 70
  3020
  9
$CMLSTYLE
  2
Standard
  9
$CMLJUST
 70
     0
  9
$CMLSCALE
 40
1.0
  9
$PROXYGRAPHICS
 70
     1
  9
$MEASUREMENT
 70
     0
  9
$CELWEIGHT
370
    -1
  9
$ENDCAPS
280
     0
  9
$JOINSTYLE
280
     0
  9
$LWDISPLAY
290
     0
  9
$INSUNITS
 70
     0
  9
$HYPERLINKBASE
  1

  9
$STYLESHEET
  1

  9
$XEDIT
290
     1
  9
$CEPSNTYPE
380
     0
  9
$PSTYLEMODE
290
     1
  9
$FINGERPRINTGUID
  2
{FC1F671F-4980-422F-B9BC-32BECA7132A4}
  9
$VERSIONGUID
  2
{7CF47E25-5145-4C6B-A8E9-3AEE1FE3F258}
  9
$EXTNAMES
290
     1
  9
$PSVPSCALE
 40
0.0
  9
$OLESTARTUP
290
     0
  0
ENDSEC
  0
SECTION
  2
CLASSES
  0
CLASS
  1
ACDBDICTIONARYWDFLT
  2
AcDbDictionaryWithDefault
  3
ObjectDBX Classes
 90
        0
280
     0
281
     0
  0
CLASS
  1
MATERIAL
  2
AcDbMaterial
  3
ObjectDBX Classes
 90
     1153
280
     0
281
     0
  0
CLASS
  1
VISUALSTYLE
  2
AcDbVisualStyle
  3
ObjectDBX Classes
 90
     4095
280
     0
281
     0
  0
CLASS
  1
SCALE
  2
AcDbScale
  3
ObjectDBX Classes
 90
     1153
280
     0
281
     0
  0
CLASS
  1
TABLESTYLE
  2
AcDbTableStyle
  3
ObjectDBX Classes
 90
     4095
280
     0
281
     0
  0
CLASS
  1
MLEADERSTYLE
  2
AcDbMLeaderStyle
  3
ACDB_MLEADERSTYLE_CLASS
 90
     4095
280
     0
281
     0
  0
CLASS
  1
AMGSETTINGSOBJ
  2
AmgSettingsObj
  3
"AcadM|Product Description: AutoCAD Mechanical|Company: Autodesk, Inc."
 90
     1024
280
     0
281
     0
  0
CLASS
  1
ACME_DOCUMENT
  2
AcMeDbDoc
  3
AcMeServices
 90
     1024
280
     0
281
     0
  0
CLASS
  1
ACMESCOPE
  2
AcMeScope
  3
AcMeServices
 90
     1024
280
     0
281
     0
  0
CLASS
  1
ACMECOMMANDHISTORY
  2
AcMeCommandHistory
  3
AcMeServices
 90
     1024
280
     0
281
     0
  0
CLASS
  1
ACIMSYSVARMAN
  2
AcImSysVarManager
  3
AcMeServices
 90
     1024
280
     0
281
     0
  0
CLASS
  1
ACIMREALSYSVAR
  2
AcImRealSysVar
  3
AcMeServices
 90
     1024
280
     0
281
     0
  0
CLASS
  1
ACIMINTSYSVAR
  2
AcImIntSysVar
  3
AcMeServices
 90
     1024
280
     0
281
     0
  0
CLASS
  1
ACMEDRAWINGMAN
  2
AcMeDrawingMan
  3
AcMeServices
 90
     1024
280
     0
281
     0
  0
CLASS
  1
ACMEVIEW
  2
AcMeView
  3
AcMeServices
 90
     1024
280
     0
281
     0
  0
CLASS
  1
ACDBENTITYCACHE
  2
AcMeEntityCache
  3
AcMeServices
 90
     1024
280
     0
281
     0
  0
CLASS
  1
GSMANAGER
  2
AcMeGSManager
  3
AcMeServices
 90
     1024
280
     0
281
     0
  0
CLASS
  1
AMDTINTERNALREACTOR
  2
AmdtInternalReactor
  3
AcMeServices
 90
     1024
280
     0
281
     0
  0
CLASS
  1
ACMESTATEMGR
  2
AcMeStateMgr
  3
AcMeServices
 90
     1024
280
     0
281
     0
  0
CLASS
  1
ACGREFMASTER
  2
AcGrefMaster
  3
AcAttribServices
 90
     1024
280
     0
281
     0
  0
CLASS
  1
AM_DRAWING_MGR
  2
AcDmDwgMgr
  3
AcMechDwgViewMgmt
 90
     1024
280
     0
281
     0
  0
CLASS
  1
AM_DWG_DOCUMENT
  2
AcDmDwgDocument
  3
AcMechDwgViewMgmt
 90
     1024
280
     0
281
     0
  0
CLASS
  1
AM_DWG_SHEET
  2
AcDmSheet
  3
AcMechDwgViewMgmt
 90
     1024
280
     0
281
     0
  0
CLASS
  1
AM_VIEWDIMPARMAP
  2
AcDmViewDimParMap
  3
AcMechDwgViewMgmt
 90
     1024
280
     0
281
     0
  0
CLASS
  1
AM_DWGMGR_NAME
  2
AcDmDwgMgrName
  3
AcMechDwgViewMgmt
 90
     1024
280
     0
281
     0
  0
CLASS
  1
ACME_DATABASE
  2
AcMeDbDatabase
  3
AcMeServices
 90
     1024
280
     0
281
     0
  0
CLASS
  1
ACRFINSADJUSTERMGR
  2
AcRfInsAdjusterMgr
  3
AcMeServices
 90
     1024
280
     0
281
     0
  0
CLASS
  1
ACGREFACADMASTER
  2
AcGrefacadMaster
  3
AcGrefServices
 90
     1024
280
     0
281
     0
  0
CLASS
  1
AMDTMENUSTATEMGR
  2
AmdtMenuStateMgr
  3
McadcomServices
 90
     1024
280
     0
281
     0
  0
CLASS
  1
AMDTMCOMMENUSTATE
  2
AmdtMcomMenuState
  3
McadcomServices
 90
     1024
280
     0
281
     0
  0
CLASS
  1
AMIMASTER
  2
AmiMaster
  3
AmiServices
 90
     1024
280
     0
281
     0
  0
CLASS
  1
ASAPP
  2
AcAsAppObject
  3
AutoSurfServices
 90
     1024
280
     0
281
     0
  0
CLASS
  1
IM_STATIC_MAN
  2
AcImStaticVarManager
  3
AcMeServices
 90
     1024
280
     0
281
     0
  0
CLASS
  1
ACIMSTRSYSVAR
  2
AcImStrSysVar
  3
AcMeServices
 90
     1024
280
     0
281
     0
  0
CLASS
  1
ACIMDBLSTATICVAR
  2
AcImDblStaticVar
  3
AcMeServices
 90
     1024
280
     0
281
     0
  0
CLASS
  1
ACIMSTRSTATICVAR
  2
AcImStrStaticVar
  3
AcMeServices
 90
     1024
280
     0
281
     0
  0
CLASS
  1
ACIMINTSTATICVAR
  2
AcImIntStaticVar
  3
AcMeServices
 90
     1024
280
     0
281
     0
  0
CLASS
  1
ACASGREFMASTER
  2
AcAsGrefMaster
  3
AutoSurfResolverServices
 90
     1024
280
     0
281
     0
  0
CLASS
  1
ACADGREFMODULE
  2
AcAdGrefModule
  3
AdGrefServices
 90
     1024
280
     0
281
     0
  0
CLASS
  1
AMDTMAPISURFMOUDULE
  2
AmdtMApiSurfModule
  3
MApiSurfServices
 90
     1024
280
     0
281
     0
  0
CLASS
  1
MAPIAMMOUDLE
  2
MApiAmModule
  3
MApiAmServices
 90
     1024
280
     0
281
     0
  0
CLASS
  1
AMDTADMENUSTATE
  2
AmdtAdMenuState
  3
DesignerServices
 90
     1024
280
     0
281
     0
  0
CLASS
  1
ADAPPL
  2
AcAdAppl
  3
DesignerServices
 90
     1024
280
     0
281
     0
  0
CLASS
  1
DEPMGR
  2
AcAdDepMgr
  3
DesignerServices
 90
     1024
280
     0
281
     0
  0
CLASS
  1
PARAMMGR
  2
AcAdParamMgr
  3
DesignerServices
 90
     1024
280
     0
281
     0
  0
CLASS
  1
PARAMSCOPE
  2
AcAdParamScope
  3
DesignerServices
 90
     1024
280
     0
281
     0
  0
CLASS
  1
NAMEDAPPL
  2
AcAdNamedAppl
  3
DesignerServices
 90
     1024
280
     0
281
     0
  0
CLASS
  1
AMDTDMMENUSTATE
  2
AmdtDmMenuState
  3
AcMechDwgViewMgmt
 90
     1024
280
     0
281
     0
  0
CLASS
  1
MAPIADMODULE
  2
MApiAdModule
  3
MApiAdServices
 90
     1024
280
     0
281
     0
  0
CLASS
  1
AMDTAMMENUSTATE
  2
AmdtAmMenuState
  3
DesignerAssemblies
 90
     1024
280
     0
281
     0
  0
CLASS
  1
ACAMPROJECT
  2
AcAmProject
  3
DesignerAssemblies
 90
     1024
280
     0
281
     0
  0
CLASS
  1
ACAMGRCOMPDEF
  2
AcAmGrCompDef
  3
DesignerAssemblies
 90
     1024
280
     0
281
     0
  0
CLASS
  1
ACCMCONTEXT
  2
AcCmContext
  3
DesignerAssemblies
 90
     1024
280
     0
281
     0
  0
CLASS
  1
ACAMCOMPDEF
  2
AcAmCompDef
  3
DesignerAssemblies
 90
     1024
280
     0
281
     0
  0
CLASS
  1
ACAMCOMPDEFMGR
  2
AcAmCompDefMgr
  3
DesignerAssemblies
 90
     1024
280
     0
281
     0
  0
CLASS
  1
AMCONTEXTMGR
  2
AcAmContextMgr
  3
DesignerAssemblies
 90
     1024
280
     0
281
     0
  0
CLASS
  1
ACAMCONTEXTMODELER
  2
AcAmContextModeler
  3
DesignerAssemblies
 90
     1024
280
     0
281
     0
  0
CLASS
  1
ACMDATADICTIONARY
  2
AcmDataDictionary
  3
"AcmSymBB|Product Description: AutoCAD Mechanical|Company: Autodesk, Inc."
 90
     1024
280
     0
281
     0
  0
CLASS
  1
ACMDATAENTRYBLOCK
  2
AcmDataEntryBlock
  3
AcmSymBB|Product Description: AutoCAD Mechanical|Company: Autodesk, Inc.
 90
     1024
280
     0
281
     0
  0
CLASS
  1
ACRFATTGENMGR
  2
AcRfAttGeneralMgr
  3
AcAttribServices
 90
     1024
280
     0
281
     0
  0
CLASS
  1
ACRFOBJATTMGR
  2
AcRfObjAttGroupMgr
  3
AcAttribServices
 90
     1024
280
     0
281
     0
  0
CLASS
  1
ACRFMCADAPIATTHOLDER
  2
AcRfMCADAPIAttHolder
  3
AcAttribServices
 90
     1024
280
     0
281
     0
  0
CLASS
  1
AMDTSYSATTR
  2
AmdtSystemAttribute
  3
AcAttribServices
 90
     1024
280
     0
281
     0
  0
CLASS
  1
CATALOGSTATE
  2
AcAmCatalogState
  3
DesignerAssemblies
 90
     1024
280
     0
281
     0
  0
CLASS
  1
ACAMGRCOMPDEFSET
  2
AcAmGrCompDefSet
  3
DesignerAssemblies
 90
     1024
280
     0
281
     0
  0
CLASS
  1
AMDTBROWSERDBTAB
  2
AmdtBrowserDbTab
  3
McadcomServices
 90
     1024
280
     0
281
     0
  0
CLASS
  1
CBROWSERAPPOBJECT
  2
CBrowserAppObject
  3
McadcomServices
 90
     1024
280
     0
281
     0
  0
CLASS
  1
DM_PLACEHOLDER
  2
AcDmSelsetPlaceholder
  3
AcMechDwgViewMgmt
 90
     1024
280
     0
281
     0
  0
CLASS
  1
ACMSTANDARDANSI
  2
AcmStandardANSI
  3
"Amdt_StdImp|Product Description: AutoCAD Mechanical|Company: Autodesk, Inc."
 90
     1024
280
     0
281
     0
  0
CLASS
  1
ACMSURFSTANDARDANSI
  2
AcmSurfTextStdANSI
  3
"Amdt_StdImp|Product Description: AutoCAD Mechanical|Company: Autodesk, Inc."
 90
     1024
280
     0
281
     0
  0
CLASS
  1
ACMFCFSTANDARDANSI
  2
AcmFCFStdANSI
  3
"Amdt_StdImp|Product Description: AutoCAD Mechanical|Company: Autodesk, Inc."
 90
     1024
280
     0
281
     0
  0
CLASS
  1
ACMWELDSTANDARDANSI
  2
AcmWeldingStdANSI
  3
"Amdt_StdImp|Product Description: AutoCAD Mechanical|Company: Autodesk, Inc."
 90
     1024
280
     0
281
     0
  0
CLASS
  1
ACMIDSTANDARDANSI
  2
AcmIdStdANSI
  3
"Amdt_StdImp|Product Description: AutoCAD Mechanical|Company: Autodesk, Inc."
 90
     1024
280
     0
281
     0
  0
CLASS
  1
ACMDATUMSTANDARDANSI
  2
AcmDatumStdANSI
  3
"Amdt_StdImp|Product Description: AutoCAD Mechanical|Company: Autodesk, Inc."
 90
     1024
280
     0
281
     0
  0
CLASS
  1
ACMBOMSTANDARDANSI
  2
AcmBOMStdANSI
  3
"Amdt_StdImp|Product Description: AutoCAD Mechanical|Company: Autodesk, Inc."
 90
     1024
280
     0
281
     0
  0
CLASS
  1
ACMDETAILSTANDARDANSI
  2
AmdtDetailSymStdANSI
  3
"Amdt_StdImp|Product Description: AutoCAD Mechanical|Company: Autodesk, Inc."
 90
     1024
280
     0
281
     0
  0
CLASS
  1
ACMSECTIONSTANDARDANSI
  2
AmdtSectionSymStdANSI
  3
"Amdt_StdImp|Product Description: AutoCAD Mechanical|Company: Autodesk, Inc."
 90
     1024
280
     0
281
     0
  0
CLASS
  1
ACMCENTERLINESTANDARDANSI
  2
AmdtCenterLineStdANSI
  3
"Amdt_StdImp|Product Description: AutoCAD Mechanical|Company: Autodesk, Inc."
 90
     1024
280
     0
281
     0
  0
CLASS
  1
ACMTHREADLINESTANDARDANSI
  2
AmdtThreadLineStdANSI
  3
"Amdt_StdImp|Product Description: AutoCAD Mechanical|Company: Autodesk, Inc."
 90
     1024
280
     0
281
     0
  0
CLASS
  1
ACMNOTESTANDARDANSI
  2
AmdtNoteStdANSI
  3
"Amdt_StdImp|Product Description: AutoCAD Mechanical|Company: Autodesk, Inc."
 90
     1024
280
     0
281
     0
  0
CLASS
  1
ACMTAPERSTANDARDANSI
  2
AcmTaperStdANSI
  3
"Amdt_StdImp|Product Description: AutoCAD Mechanical|Company: Autodesk, Inc."
 90
     1024
280
     0
281
     0
  0
CLASS
  1
ACMANOOTATIONVIEWSTANDARDANSI
  2
AmdtAnViewStdANSI
  3
"Amdt_StdImp|Product Description: AutoCAD Mechanical|Company: Autodesk, Inc."
 90
     1024
280
     0
281
     0
  0
CLASS
  1
ACAMGLAYSTD
  2
AcAmgLayStd
  3
"AmgLay|Product Description: AutoCAD Mechanical|Company: Autodesk, Inc."
 90
     1024
280
     0
281
     0
  0
CLASS
  1
ACAMGDIMSTD
  2
AcAmgDimStd
  3
"AmgDim|Product Description: AutoCAD Mechanical|Company: Autodesk, Inc."
 90
     1024
280
     0
281
     0
  0
CLASS
  1
ACAMGHOLECHARTSTDANSI
  2
AcAmgHoleChartStdANSI
  3
AmgDim|Product Description: AutoCAD Mechanical|Company: Autodesk, Inc.
 90
     1024
280
     0
281
     0
  0
CLASS
  1
AMGOBJPROPCFG
  2
AmgObjPropCfg
  3
"AmgLay|Product Description: AutoCAD Mechanical|Company: Autodesk, Inc."
 90
     1025
280
     0
281
     0
  0
CLASS
  1
ACAMGTITLESTD
  2
AcAmgTitleStd
  3
"AmgTitle|Product Description: AutoCAD Mechanical|Company: Autodesk, Inc."
 90
     4095
280
     0
281
     0
  0
CLASS
  1
AMDTNOTETEMPLATEDB
  2
AmdtNoteTemplateDB
  3
AcmSymBB|Product Description: AutoCAD Mechanical|Company: Autodesk, Inc.
 90
     1024
280
     0
281
     0
  0
CLASS
  1
LAYER_INDEX
  2
AcDbLayerIndex
  3
ObjectDBX Classes
 90
        0
280
     0
281
     0
  0
CLASS
  1
IDBUFFER
  2
AcDbIdBuffer
  3
ObjectDBX Classes
 90
        0
280
     0
281
     0
  0
CLASS
  1
DICTIONARYVAR
  2
AcDbDictionaryVar
  3
ObjectDBX Classes
 90
        0
280
     0
281
     0
  0
CLASS
  1
CELLSTYLEMAP
  2
AcDbCellStyleMap
  3
ObjectDBX Classes
 90
     1152
280
     0
281
     0
  0
CLASS
  1
ACDBPLACEHOLDER
  2
AcDbPlaceHolder
  3
ObjectDBX Classes
 90
        0
280
     0
281
     0
  0
CLASS
  1
LAYOUT
  2
AcDbLayout
  3
ObjectDBX Classes
 90
        0
280
     0
281
     0
  0
ENDSEC
  0
SECTION
  2
TABLES
  0
TABLE
  2
VPORT
  5
262C
330
0
100
AcDbSymbolTable
 70
     1
  0
VPORT
  5
269C
330
262C
100
AcDbSymbolTableRecord
100
AcDbViewportTableRecord
  2
*ACTIVE
 70
     0
 10
0.0
 20
0.0
 11
1.0
 21
1.0
 12
0.0
 22
0.0
 13
0.0
 23
0.0
 14
1.0
 24
1.0
 15
0.0
 25
0.0
 16
0.0
 26
0.0
 36
1.0
 17
237.6960895463072
 27
117.147491605179
 37
0.0
 40
1332.463084678103
 41
1.712555066079295
 42
50.0
 43
0.0
 44
0.0
 50
0.0
 51
0.0
 71
     0
 72
   100
 73
     1
 74
     0
 75
     0
 76
     0
 77
     0
 78
     0
281
     0
 65
     0
110
0.0
120
0.0
130
0.0
111
1.0
121
0.0
131
0.0
112
0.0
122
1.0
132
0.0
 79
     0
146
0.0
  0
ENDTAB
  0
TABLE
  2
LTYPE
  5
2629
330
0
100
AcDbSymbolTable
 70
    19
  0
LTYPE
  5
2686
330
2629
100
AcDbSymbolTableRecord
100
AcDbLinetypeTableRecord
  2
ByBlock
 70
     0
  3

 72
    65
 73
     0
 40
0.0
  0
LTYPE
  5
2687
330
2629
100
AcDbSymbolTableRecord
100
AcDbLinetypeTableRecord
  2
ByLayer
 70
     0
  3

 72
    65
 73
     0
 40
0.0
  0
LTYPE
  5
2688
330
2629
100
AcDbSymbolTableRecord
100
AcDbLinetypeTableRecord
  2
CONTINUOUS
 70
     0
  3
実線
 72
    65
 73
     0
 40
0.0
  0
LTYPE
  5
269D
330
2629
100
AcDbSymbolTableRecord
100
AcDbLinetypeTableRecord
  2
DASHDOT
 70
     0
  3
____ _ ____ _ ____ _ ____ _ ____ _ ____ _ ____
 72
    65
 73
     4
 40
5.5
 49
4.0
 74
     0
 49
-0.6
 74
     0
 49
0.3
 74
     0
 49
-0.6
 74
     0
  0
LTYPE
  5
269E
330
2629
100
AcDbSymbolTableRecord
100
AcDbLinetypeTableRecord
  2
HIDDEN
 70
     0
  3
Hidden __ __ __ __ __ __ __ __ __ __ __ __ __ _
 72
    65
 73
     2
 40
0.375
 49
0.25
 74
     0
 49
-0.125
 74
     0
  0
LTYPE
  5
269F
330
2629
100
AcDbSymbolTableRecord
100
AcDbLinetypeTableRecord
  2
PHANTOM2
 70
     0
  3
Phantom (.5x) ___ _ _ ___ _ _ ___ _ _ ___ _ _
 72
    65
 73
     6
 40
1.25
 49
0.625
 74
     0
 49
-0.125
 74
     0
 49
0.125
 74
     0
 49
-0.125
 74
     0
 49
0.125
 74
     0
 49
-0.125
 74
     0
  0
LTYPE
  5
26A0
330
2629
100
AcDbSymbolTableRecord
100
AcDbLinetypeTableRecord
  2
CENTER
 70
     0
  3
Center ____ _ ____ _ ____ _ ____ _ ____ _ ____
 72
    65
 73
     4
 40
2.0
 49
1.25
 74
     0
 49
-0.25
 74
     0
 49
0.25
 74
     0
 49
-0.25
 74
     0
  0
LTYPE
  5
26A1
330
2629
100
AcDbSymbolTableRecord
100
AcDbLinetypeTableRecord
  2
ASULTYPE
 70
     0
  3
実線
 72
    65
 73
     2
 40
3.0
 49
2.5
 74
     0
 49
0.5
 74
     0
  0
LTYPE
  5
26A2
330
2629
100
AcDbSymbolTableRecord
100
AcDbLinetypeTableRecord
  2
ASVLTYPE
 70
     0
  3
__ __ __ __ __ __ __ __ __ __ __ __ __ __ __ __ __ __ __ __ __
 72
    65
 73
     2
 40
0.75
 49
0.5
 74
     0
 49
-0.25
 74
     0
  0
LTYPE
  5
26A3
330
2629
100
AcDbSymbolTableRecord
100
AcDbLinetypeTableRecord
  2
AM_ISO02W050
 70
     0
  3
__ __ __ __ __ __ __ __ __ __ __ __ __ __ __
 72
    65
 73
     2
 40
7.5
 49
6.0
 74
     0
 49
-1.5
 74
     0
  0
LTYPE
  5
26A4
330
2629
100
AcDbSymbolTableRecord
100
AcDbLinetypeTableRecord
  2
AM_ISO08W050
 70
     0
  3
____ . ____ . ____ . ____ . ____ . ____ . ____
 72
    65
 73
     4
 40
18.0
 49
12.0
 74
     0
 49
-1.5
 74
     0
 49
3.0
 74
     0
 49
-1.5
 74
     0
  0
LTYPE
  5
26A5
330
2629
100
AcDbSymbolTableRecord
100
AcDbLinetypeTableRecord
  2
AM_ISO09W050
 70
     0
  3
_____ . . _____ . . _____ . . ____ .. ____
 72
    65
 73
     6
 40
22.5
 49
12.0
 74
     0
 49
-1.5
 74
     0
 49
3.0
 74
     0
 49
-1.5
 74
     0
 49
3.0
 74
     0
 49
-1.5
 74
     0
  0
LTYPE
  5
26A6
330
2629
100
AcDbSymbolTableRecord
100
AcDbLinetypeTableRecord
  2
AMCONSTR
 70
     0
  3
_______________________
 72
    65
 73
     2
 40
9999.0
 49
9999.0
 74
     0
 49
0.0
 74
     0
  0
LTYPE
  5
26A7
330
2629
100
AcDbSymbolTableRecord
100
AcDbLinetypeTableRecord
  2
AM_ISO08W050X2
 70
     0
  3
__ . __ . __ . __ . __ . __
 72
    65
 73
     4
 40
9.0
 49
6.0
 74
     0
 49
-0.75
 74
     0
 49
1.5
 74
     0
 49
-0.75
 74
     0
  0
LTYPE
  5
26A8
330
2629
100
AcDbSymbolTableRecord
100
AcDbLinetypeTableRecord
  2
AM_ISO02W050X2
 70
     0
  3
 _ _ _ _ _ _ _ _ _ _ _ _
 72
    65
 73
     2
 40
3.75
 49
3.0
 74
     0
 49
-0.75
 74
     0
  0
LTYPE
  5
26A9
330
2629
100
AcDbSymbolTableRecord
100
AcDbLinetypeTableRecord
  2
AMZIGZAG
 70
     0
  3
/\/-/\/-/\/-/\/-/\/-/\/
 72
    65
 73
     2
 40
11.0001
 49
0.0001
 74
     0
 49
-11.0
 74
     0
  0
LTYPE
  5
26AA
330
2629
100
AcDbSymbolTableRecord
100
AcDbLinetypeTableRecord
  2
CENTER2
 70
     0
  3
Center (.5x) ___ _ ___ _ ___ _ ___ _ ___ _ ___
 72
    65
 73
     4
 40
1.125
 49
0.75
 74
     0
 49
-0.125
 74
     0
 49
0.125
 74
     0
 49
-0.125
 74
     0
  0
LTYPE
  5
26AB
330
2629
100
AcDbSymbolTableRecord
100
AcDbLinetypeTableRecord
  2
HIDDEN2
 70
     0
  3
Hidden (.5x) _ _ _ _ _ _ _ _ _ _ _ _ _ _ _ _ _
 72
    65
 73
     2
 40
0.1875
 49
0.125
 74
     0
 49
-0.0625
 74
     0
  0
LTYPE
  5
26AC
330
2629
100
AcDbSymbolTableRecord
100
AcDbLinetypeTableRecord
  2
AMZIGZAG2
 70
     0
  3
/\/-/\/-/\/-/\/-/\/-/\/
 72
    65
 73
     2
 40
0.4401
 49
0.0001
 74
     0
 49
-0.4400000000000003
 74
     0
  0
LTYPE
  5
26AD
330
2629
100
AcDbSymbolTableRecord
100
AcDbLinetypeTableRecord
  2
ACANSTGB
 70
     0
  3
__ . . __ . .
 72
    65
 73
     6
 40
0.35433070866
 49
0.15748031496
 74
     0
 49
-0.03937007874
 74
     0
 49
0.03937007874
 74
     0
 49
-0.03937007874
 74
     0
 49
0.03937007874
 74
     0
 49
-0.03937007874
 74
     0
  0
LTYPE
  5
26AE
330
2629
100
AcDbSymbolTableRecord
100
AcDbLinetypeTableRecord
  2
ACANSTGL
 70
     0
  3
_ _ _ _ _
 72
    65
 73
     2
 40
0.11811023622
 49
0.07874015748
 74
     0
 49
-0.03937007874
 74
     0
  0
ENDTAB
  0
TABLE
  2
LAYER
  5
2626
330
0
100
AcDbSymbolTable
 70
    12
  0
LAYER
  5
2680
102
{ACAD_XDICTIONARY
360
2854
102
}
330
2626
100
AcDbSymbolTableRecord
100
AcDbLayerTableRecord
  2
0
 70
     0
 62
     7
  6
CONTINUOUS
370
    -3
390
2633
  0
LAYER
  5
26AF
102
{ACAD_XDICTIONARY
360
2856
102
}
330
2626
100
AcDbSymbolTableRecord
100
AcDbLayerTableRecord
  2
OUTLINE
 70
     0
 62
     3
  6
CONTINUOUS
370
    -3
390
2633
  0
LAYER
  5
26B0
102
{ACAD_XDICTIONARY
360
2858
102
}
330
2626
100
AcDbSymbolTableRecord
100
AcDbLayerTableRecord
  2
SIZE
 70
     0
 62
    30
  6
CONTINUOUS
370
    -3
390
2633
  0
LAYER
  5
26B1
102
{ACAD_XDICTIONARY
360
285A
102
}
330
2626
100
AcDbSymbolTableRecord
100
AcDbLayerTableRecord
  2
BASIS
 70
     0
 62
     6
  6
DASHDOT
370
    -3
390
2633
  0
LAYER
  5
26B2
102
{ACAD_XDICTIONARY
360
285C
102
}
330
2626
100
AcDbSymbolTableRecord
100
AcDbLayerTableRecord
  2
DETAIL
 70
     0
 62
     5
  6
CONTINUOUS
370
    -3
390
2633
  0
LAYER
  5
26B3
102
{ACAD_XDICTIONARY
360
285E
102
}
330
2626
100
AcDbSymbolTableRecord
100
AcDbLayerTableRecord
  2
ARRANGE
 70
     0
 62
     1
  6
CONTINUOUS
370
    -3
390
2633
  0
LAYER
  5
26B4
330
2626
100
AcDbSymbolTableRecord
100
AcDbLayerTableRecord
  2
DEFPOINTS
 70
     0
 62
     7
  6
CONTINUOUS
290
     0
370
    -3
390
2633
  0
LAYER
  5
26B5
102
{ACAD_XDICTIONARY
360
2860
102
}
330
2626
100
AcDbSymbolTableRecord
100
AcDbLayerTableRecord
  2
ETC
 70
     0
 62
    61
  6
CONTINUOUS
370
    -3
390
2633
  0
LAYER
  5
26B6
102
{ACAD_XDICTIONARY
360
2862
102
}
330
2626
100
AcDbSymbolTableRecord
100
AcDbLayerTableRecord
  2
FIX
 70
     0
 62
    11
  6
CONTINUOUS
370
    -3
390
2633
  0
LAYER
  5
26B7
102
{ACAD_XDICTIONARY
360
2864
102
}
330
2626
100
AcDbSymbolTableRecord
100
AcDbLayerTableRecord
  2
NOTE
 70
     0
 62
     4
  6
CONTINUOUS
370
    -3
390
2633
  0
LAYER
  5
26B8
102
{ACAD_XDICTIONARY
360
2866
102
}
330
2626
100
AcDbSymbolTableRecord
100
AcDbLayerTableRecord
  2
SERVICESPACE
 70
     0
 62
     2
  6
DASHDOT
370
    -3
390
2633
  0
LAYER
  5
26B9
102
{ACAD_XDICTIONARY
360
2868
102
}
330
2626
100
AcDbSymbolTableRecord
100
AcDbLayerTableRecord
  2
SYMBOLLINE
 70
     0
 62
    15
  6
CONTINUOUS
370
    -3
390
2633
  0
ENDTAB
  0
TABLE
  2
STYLE
  5
2627
330
0
100
AcDbSymbolTable
 70
     5
  0
STYLE
  5
2681
330
2627
100
AcDbSymbolTableRecord
100
AcDbTextStyleTableRecord
  2
STANDARD
 70
     0
 40
64.0
 41
0.9
 50
0.0
 71
     0
 42
64.0
  3
SIMPLEX.shx
  4
BIGFONT.shx
  0
STYLE
  5
2685
330
2627
100
AcDbSymbolTableRecord
100
AcDbTextStyleTableRecord
  2
ANNOTATIVE
 70
     0
 40
0.0
 41
1.0
 50
0.0
 71
     0
 42
0.2
  3
txt
  4

1001
ACADANNOTATIVE
1000
AnnotativeData
1002
{
1070
     1
1070
     1
1002
}
  0
STYLE
  5
26BA
330
2627
100
AcDbSymbolTableRecord
100
AcDbTextStyleTableRecord
  2

 70
     1
 40
0.0
 41
1.0
 50
0.0
 71
     0
 42
64.0
  3
genltshp.shx
  4

  0
STYLE
  5
26BB
330
2627
100
AcDbSymbolTableRecord
100
AcDbTextStyleTableRecord
  2
ACANSTS
 70
     0
 40
1.0
 41
1.0
 50
0.0
 71
     0
 42
64.0
  3
romans.shx
  4
extfont.shx
  0
STYLE
  5
26BC
330
2627
100
AcDbSymbolTableRecord
100
AcDbTextStyleTableRecord
  2
ACANSGDT
 70
     0
 40
0.0
 41
1.0
 50
0.0
 71
     0
 42
64.0
  3
amgdt.shx
  4

  0
ENDTAB
  0
TABLE
  2
VIEW
  5
262A
330
0
100
AcDbSymbolTable
 70
     1
  0
VIEW
  5
26BD
330
262A
100
AcDbSymbolTableRecord
100
AcDbViewTableRecord
  2
ALL
 70
     0
 40
4282.619807999997
 10
0.0
 20
41.30990399999999
 41
5940.0
 11
0.0
 21
0.0
 31
1.0
 12
0.0
 22
0.0
 32
0.0
 42
50.0
 43
0.0
 44
0.0
 50
0.0
 71
     0
281
     0
 72
     1
110
0.0
120
0.0
130
0.0
111
1.0
121
0.0
131
0.0
112
0.0
122
1.0
132
0.0
 79
     0
146
0.0
  0
ENDTAB
  0
TABLE
  2
UCS
  5
262B
330
0
100
AcDbSymbolTable
 70
     0
  0
ENDTAB
  0
TABLE
  2
APPID
  5
262D
330
0
100
AcDbSymbolTable
 70
    26
  0
APPID
  5
2682
330
262D
100
AcDbSymbolTableRecord
100
AcDbRegAppTableRecord
  2
ACAD
 70
     0
  0
APPID
  5
2689
330
262D
100
AcDbSymbolTableRecord
100
AcDbRegAppTableRecord
  2
ACADANNOTATIVE
 70
     0
  0
APPID
  5
2693
330
262D
100
AcDbSymbolTableRecord
100
AcDbRegAppTableRecord
  2
ACAD_MLEADERVER
 70
     0
  0
APPID
  5
26BE
330
262D
100
AcDbSymbolTableRecord
100
AcDbRegAppTableRecord
  2
GENIUS_GENDIM_13
 70
     0
  0
APPID
  5
26BF
330
262D
100
AcDbSymbolTableRecord
100
AcDbRegAppTableRecord
  2
GENIUS_GENDTOL_13
 70
     0
  0
APPID
  5
26C0
330
262D
100
AcDbSymbolTableRecord
100
AcDbRegAppTableRecord
  2
GENIUS_GE3DTOL_13
 70
     0
  0
APPID
  5
26C1
330
262D
100
AcDbSymbolTableRecord
100
AcDbRegAppTableRecord
  2
MCAD_NO_VIS
 70
     0
  0
APPID
  5
26C2
330
262D
100
AcDbSymbolTableRecord
100
AcDbRegAppTableRecord
  2
ACAD_TEMP_GRAPHIC
 70
     0
  0
APPID
  5
26C3
330
262D
100
AcDbSymbolTableRecord
100
AcDbRegAppTableRecord
  2
AD_DRAW
 70
     0
  0
APPID
  5
26C4
330
262D
100
AcDbSymbolTableRecord
100
AcDbRegAppTableRecord
  2
ACATTRIBSERVICES
 70
     0
  0
APPID
  5
26C5
330
262D
100
AcDbSymbolTableRecord
100
AcDbRegAppTableRecord
  2
ASURF_PCURVE_APPNAME
 70
     0
  0
APPID
  5
26C6
330
262D
100
AcDbSymbolTableRecord
100
AcDbRegAppTableRecord
  2
AMG_3D2D_5_0
 70
     0
  0
APPID
  5
26C7
330
262D
100
AcDbSymbolTableRecord
100
AcDbRegAppTableRecord
  2
DESIGNERASSEMBLIES
 70
     0
  0
APPID
  5
26C8
330
262D
100
AcDbSymbolTableRecord
100
AcDbRegAppTableRecord
  2
ACADM_DIM_EDIT
 70
     0
  0
APPID
  5
26C9
330
262D
100
AcDbSymbolTableRecord
100
AcDbRegAppTableRecord
  2
AMDT_DM_ADJ
 70
     0
  0
APPID
  5
26CA
330
262D
100
AcDbSymbolTableRecord
100
AcDbRegAppTableRecord
  2
ACAD_DSTYLE_DIMARC_LENGTH_
 70
     0
  0
APPID
  5
26CB
330
262D
100
AcDbSymbolTableRecord
100
AcDbRegAppTableRecord
  2
ACAD_DSTYLE_DIMJOGGED_JOGA
 70
     0
  0
APPID
  5
26CC
330
262D
100
AcDbSymbolTableRecord
100
AcDbRegAppTableRecord
  2
ACAD_PSEXT
 70
     0
  0
APPID
  5
26CD
330
262D
100
AcDbSymbolTableRecord
100
AcDbRegAppTableRecord
  2
ACAD_EXEMPT_FROM_CAD_STANDARDS
 70
     0
  0
APPID
  5
26CE
330
262D
100
AcDbSymbolTableRecord
100
AcDbRegAppTableRecord
  2
ACAD_DSTYLE_DIMJAG
 70
     0
  0
APPID
  5
26CF
330
262D
100
AcDbSymbolTableRecord
100
AcDbRegAppTableRecord
  2
ACAD_DSTYLE_DIMTALN
 70
     0
  0
APPID
  5
27FB
330
262D
100
AcDbSymbolTableRecord
100
AcDbRegAppTableRecord
  2
AMG_3D2D_5.0
 70
     0
  0
APPID
  5
2891
330
262D
100
AcDbSymbolTableRecord
100
AcDbRegAppTableRecord
  2
ACAD_DSTYLE_DIMARC_LENGTH_SYMBOL
 70
     0
  0
APPID
  5
2892
330
262D
100
AcDbSymbolTableRecord
100
AcDbRegAppTableRecord
  2
ACAD_DSTYLE_DIM_LINETYPE
 70
     0
  0
APPID
  5
2893
330
262D
100
AcDbSymbolTableRecord
100
AcDbRegAppTableRecord
  2
ACAD_DSTYLE_DIM_EXT1_LINETYPE
 70
     0
  0
APPID
  5
2894
330
262D
100
AcDbSymbolTableRecord
100
AcDbRegAppTableRecord
  2
ACAD_DSTYLE_DIM_EXT2_LINETYPE
 70
     0
  0
ENDTAB
  0
TABLE
  2
DIMSTYLE
  5
262E
330
0
100
AcDbSymbolTable
 70
    10
100
AcDbDimStyleTable
 71
     1
340
26D0
  0
DIMSTYLE
105
2683
330
262E
100
AcDbSymbolTableRecord
100
AcDbDimStyleTableRecord
  2
STANDARD
 70
     0
 41
12.0
 42
20.0
 44
20.0
 77
     1
 78
     8
140
64.0
141
0.0
147
10.0
275
     1
279
     2
284
     7
285
     7
286
     7
340
2681
  0
DIMSTYLE
105
2684
330
262E
100
AcDbSymbolTableRecord
100
AcDbDimStyleTableRecord
  2
ANNOTATIVE
 70
     0
275
     1
279
     2
284
     7
285
     7
286
     7
340
2681
1001
ACADANNOTATIVE
1000
AnnotativeData
1002
{
1070
     1
1070
     1
1002
}
  0
DIMSTYLE
105
26D0
330
262E
100
AcDbSymbolTableRecord
100
AcDbDimStyleTableRecord
  2
AM_ANSI
 70
     0
  4
mm
 41
0.12
 42
0.05
 43
0.5
 44
0.1
 47
0.1
 48
0.1
 78
     7
 79
     2
140
0.12
141
0.0
146
0.71
147
0.06
176
   256
177
   256
178
     2
274
     4
284
     7
340
2681
371
    -1
372
    -1
1001
ACAD_DSTYLE_DIMARC_LENGTH_SYMBOL
1070
   379
1070
     1
1001
ACAD_DSTYLE_DIM_LINETYPE
1070
   380
1005
2686
1001
ACAD_DSTYLE_DIM_EXT1_LINETYPE
1070
   381
1005
2686
1001
ACAD_DSTYLE_DIM_EXT2_LINETYPE
1070
   382
1005
2686
  0
DIMSTYLE
105
26D1
330
262E
100
AcDbSymbolTableRecord
100
AcDbDimStyleTableRecord
  2
AM_ANSI$3
 70
     0
  4
mm
 41
0.12
 42
0.05
 43
0.5
 44
0.1
 47
0.1
 48
0.1
 78
     7
 79
     2
140
0.12
141
0.0
146
0.71
147
0.06
176
   256
177
   256
178
     2
274
     4
284
     7
288
     1
289
     0
340
2681
371
    -1
372
    -1
1001
ACAD_DSTYLE_DIMARC_LENGTH_SYMBOL
1070
   379
1070
     1
1001
ACAD_DSTYLE_DIM_LINETYPE
1070
   380
1005
2686
1001
ACAD_DSTYLE_DIM_EXT1_LINETYPE
1070
   381
1005
2686
1001
ACAD_DSTYLE_DIM_EXT2_LINETYPE
1070
   382
1005
2686
  0
DIMSTYLE
105
26D2
330
262E
100
AcDbSymbolTableRecord
100
AcDbDimStyleTableRecord
  2
AM_ANSI$4
 70
     0
  4
mm
 41
0.12
 42
0.05
 43
0.5
 44
0.1
 47
0.1
 48
0.1
 78
     7
 79
     2
140
0.12
141
0.0
146
0.71
147
0.06
176
   256
177
   256
178
     2
274
     4
284
     7
340
2681
371
    -1
372
    -1
1001
ACAD_DSTYLE_DIMARC_LENGTH_SYMBOL
1070
   379
1070
     1
1001
ACAD_DSTYLE_DIM_LINETYPE
1070
   380
1005
2686
1001
ACAD_DSTYLE_DIM_EXT1_LINETYPE
1070
   381
1005
2686
1001
ACAD_DSTYLE_DIM_EXT2_LINETYPE
1070
   382
1005
2686
  0
DIMSTYLE
105
26D3
330
262E
100
AcDbSymbolTableRecord
100
AcDbDimStyleTableRecord
  2
AM_ANSI$7
 70
     0
  4
mm
 41
0.12
 42
0.05
 43
0.5
 44
0.1
 47
0.1
 48
0.1
 78
     7
 79
     2
140
0.12
141
0.0
146
0.71
147
0.06
176
   256
177
   256
178
     2
274
     4
284
     7
340
2681
371
    -1
372
    -1
1001
ACAD_DSTYLE_DIMARC_LENGTH_SYMBOL
1070
   379
1070
     1
1001
ACAD_DSTYLE_DIM_LINETYPE
1070
   380
1005
2686
1001
ACAD_DSTYLE_DIM_EXT1_LINETYPE
1070
   381
1005
2686
1001
ACAD_DSTYLE_DIM_EXT2_LINETYPE
1070
   382
1005
2686
  0
DIMSTYLE
105
26D4
330
262E
100
AcDbSymbolTableRecord
100
AcDbDimStyleTableRecord
  2
AM_ANSI$SF
 70
     0
  4
mm
 41
0.12
 42
0.05
 43
0.5
 44
0.1
 47
0.1
 48
0.1
 75
     1
 76
     1
 78
     7
 79
     2
140
0.12
141
0.0
146
0.71
147
0.06
176
   256
177
   256
178
     2
274
     4
284
     7
340
2681
371
    -1
372
    -1
1001
ACAD_DSTYLE_DIMARC_LENGTH_SYMBOL
1070
   379
1070
     1
1001
ACAD_DSTYLE_DIM_LINETYPE
1070
   380
1005
2686
1001
ACAD_DSTYLE_DIM_EXT1_LINETYPE
1070
   381
1005
2686
1001
ACAD_DSTYLE_DIM_EXT2_LINETYPE
1070
   382
1005
2686
  0
DIMSTYLE
105
26D5
330
262E
100
AcDbSymbolTableRecord
100
AcDbDimStyleTableRecord
  2
AM_ANSI$SH
 70
     0
  4
mm
 41
0.12
 42
0.05
 43
0.5
 44
0.1
 47
0.1
 48
0.1
 75
     1
 76
     1
 78
     7
 79
     2
140
0.12
141
0.0
146
0.71
147
0.06
173
     1
176
   256
177
   256
178
     2
274
     4
284
     7
340
2681
343
26F5
371
    -1
372
    -1
1001
ACAD_DSTYLE_DIMARC_LENGTH_SYMBOL
1070
   379
1070
     1
1001
ACAD_DSTYLE_DIM_LINETYPE
1070
   380
1005
2686
1001
ACAD_DSTYLE_DIM_EXT1_LINETYPE
1070
   381
1005
2686
1001
ACAD_DSTYLE_DIM_EXT2_LINETYPE
1070
   382
1005
2686
  0
DIMSTYLE
105
26D6
330
262E
100
AcDbSymbolTableRecord
100
AcDbDimStyleTableRecord
  2
STANDARD1
 70
     0
 40
6.0
 41
2.5
 42
0.625
 43
6.0
 44
1.25
 47
1.0
 48
0.5
 77
     1
 78
     8
140
2.5
141
0.0
146
0.6
147
1.0
173
     1
275
     1
279
     2
284
     7
285
     7
286
     7
340
2681
  0
DIMSTYLE
105
26D7
330
262E
100
AcDbSymbolTableRecord
100
AcDbDimStyleTableRecord
  2
STANDARD$0
 70
     0
 41
12.0
 42
20.0
 44
20.0
 73
     0
 74
     0
 77
     1
 78
     8
140
64.0
141
0.0
147
10.0
275
     1
279
     2
284
     7
285
     7
286
     7
340
2681
  0
ENDTAB
  0
TABLE
  2
BLOCK_RECORD
  5
2625
330
0
100
AcDbSymbolTable
 70
    78
  0
BLOCK_RECORD
  5
2698
102
{ACAD_XDICTIONARY
360
286A
102
}
330
2625
100
AcDbSymbolTableRecord
100
AcDbBlockTableRecord
  2
*Model_Space
340
269B
  0
BLOCK_RECORD
  5
2694
330
2625
100
AcDbSymbolTableRecord
100
AcDbBlockTableRecord
  2
*Paper_Space
340
2697
  0
BLOCK_RECORD
  5
26DF
330
2625
100
AcDbSymbolTableRecord
100
AcDbBlockTableRecord
  2
$MODEL_SPACE
340
0
  0
BLOCK_RECORD
  5
26E1
330
2625
100
AcDbSymbolTableRecord
100
AcDbBlockTableRecord
  2
$PAPER_SPACE
340
0
  0
BLOCK_RECORD
  5
26E3
330
2625
100
AcDbSymbolTableRecord
100
AcDbBlockTableRecord
  2
_ORIGIN
340
0
  0
BLOCK_RECORD
  5
26E5
330
2625
100
AcDbSymbolTableRecord
100
AcDbBlockTableRecord
  2
_DOTBLANK
340
0
102
{BLKREFS
331
1299
331
129A
331
11AA
331
11AB
331
E80
331
E81
331
1123
331
1124
331
11C2
331
11C3
331
11EC
331
11ED
331
11F9
331
11FA
331
1287
331
1288
331
1417
331
1418
331
1423
331
1424
331
142F
331
1430
331
143B
331
143C
331
166E
331
166F
331
1677
331
1678
331
1680
331
1681
331
1689
331
168A
331
1696
331
1697
331
16A3
331
16A4
331
16AF
331
16B0
331
16BB
331
16BC
331
16C7
331
16C8
331
16D3
331
16D4
331
1D86
331
1D87
331
1D8F
331
1D90
331
1D98
331
1D99
331
1DA1
331
1DA2
331
1DAB
331
1DAC
331
1DB5
331
1DB6
331
2377
331
2378
331
237C
331
237D
331
2381
331
2382
331
2386
331
2387
331
238D
331
238E
331
2392
331
2393
331
2398
331
2399
331
239F
331
23A0
331
23A4
331
23A5
331
23A9
331
23AA
331
25A7
331
25A8
331
25AC
331
25AD
331
25B1
331
25B2
331
25B8
331
25B9
331
25BD
331
25BE
331
25C3
331
25C4
331
25C8
331
25C9
331
25CF
331
25D0
331
25D4
331
25D5
331
25D9
331
25DA
102
}
  0
BLOCK_RECORD
  5
26E7
330
2625
100
AcDbSymbolTableRecord
100
AcDbBlockTableRecord
  2
_OPEN30
340
0
102
{BLKREFS
331
2087
331
215B
331
223E
331
2337
331
23B9
331
24EE
102
}
  0
BLOCK_RECORD
  5
26E9
330
2625
100
AcDbSymbolTableRecord
100
AcDbBlockTableRecord
  2
*D5
340
0
  0
BLOCK_RECORD
  5
26EB
330
2625
100
AcDbSymbolTableRecord
100
AcDbBlockTableRecord
  2
*U6
340
0
102
{BLKREFS
331
129B
102
}
  0
BLOCK_RECORD
  5
26ED
330
2625
100
AcDbSymbolTableRecord
100
AcDbBlockTableRecord
  2
*D7
340
0
  0
BLOCK_RECORD
  5
26EF
330
2625
100
AcDbSymbolTableRecord
100
AcDbBlockTableRecord
  2
*U8
340
0
102
{BLKREFS
331
11AC
102
}
  0
BLOCK_RECORD
  5
26F1
330
2625
100
AcDbSymbolTableRecord
100
AcDbBlockTableRecord
  2
*D9
340
0
  0
BLOCK_RECORD
  5
26F3
330
2625
100
AcDbSymbolTableRecord
100
AcDbBlockTableRecord
  2
*U10
340
0
102
{BLKREFS
331
E82
102
}
  0
BLOCK_RECORD
  5
26F5
330
2625
100
AcDbSymbolTableRecord
100
AcDbBlockTableRecord
  2
GENAXEH
340
0
  0
BLOCK_RECORD
  5
26F7
330
2625
100
AcDbSymbolTableRecord
100
AcDbBlockTableRecord
  2
*D12
340
0
  0
BLOCK_RECORD
  5
26F9
330
2625
100
AcDbSymbolTableRecord
100
AcDbBlockTableRecord
  2
*U13
340
0
102
{BLKREFS
331
1125
102
}
  0
BLOCK_RECORD
  5
26FB
330
2625
100
AcDbSymbolTableRecord
100
AcDbBlockTableRecord
  2
*D14
340
0
  0
BLOCK_RECORD
  5
26FD
330
2625
100
AcDbSymbolTableRecord
100
AcDbBlockTableRecord
  2
*U15
340
0
102
{BLKREFS
331
11C4
102
}
  0
BLOCK_RECORD
  5
26FF
330
2625
100
AcDbSymbolTableRecord
100
AcDbBlockTableRecord
  2
*D16
340
0
  0
BLOCK_RECORD
  5
2701
330
2625
100
AcDbSymbolTableRecord
100
AcDbBlockTableRecord
  2
*U17
340
0
102
{BLKREFS
331
11EE
102
}
  0
BLOCK_RECORD
  5
2703
330
2625
100
AcDbSymbolTableRecord
100
AcDbBlockTableRecord
  2
*D18
340
0
  0
BLOCK_RECORD
  5
2705
330
2625
100
AcDbSymbolTableRecord
100
AcDbBlockTableRecord
  2
*U19
340
0
102
{BLKREFS
331
11FB
102
}
  0
BLOCK_RECORD
  5
2707
330
2625
100
AcDbSymbolTableRecord
100
AcDbBlockTableRecord
  2
*D20
340
0
  0
BLOCK_RECORD
  5
2709
330
2625
100
AcDbSymbolTableRecord
100
AcDbBlockTableRecord
  2
*U21
340
0
102
{BLKREFS
331
1289
102
}
  0
BLOCK_RECORD
  5
270B
330
2625
100
AcDbSymbolTableRecord
100
AcDbBlockTableRecord
  2
*D22
340
0
  0
BLOCK_RECORD
  5
270D
330
2625
100
AcDbSymbolTableRecord
100
AcDbBlockTableRecord
  2
*U23
340
0
102
{BLKREFS
331
1419
102
}
  0
BLOCK_RECORD
  5
270F
330
2625
100
AcDbSymbolTableRecord
100
AcDbBlockTableRecord
  2
*D24
340
0
  0
BLOCK_RECORD
  5
2711
330
2625
100
AcDbSymbolTableRecord
100
AcDbBlockTableRecord
  2
*U25
340
0
102
{BLKREFS
331
1425
102
}
  0
BLOCK_RECORD
  5
2713
330
2625
100
AcDbSymbolTableRecord
100
AcDbBlockTableRecord
  2
*D26
340
0
  0
BLOCK_RECORD
  5
2715
330
2625
100
AcDbSymbolTableRecord
100
AcDbBlockTableRecord
  2
*U27
340
0
102
{BLKREFS
331
1431
102
}
  0
BLOCK_RECORD
  5
2717
330
2625
100
AcDbSymbolTableRecord
100
AcDbBlockTableRecord
  2
*D28
340
0
  0
BLOCK_RECORD
  5
2719
330
2625
100
AcDbSymbolTableRecord
100
AcDbBlockTableRecord
  2
*U29
340
0
102
{BLKREFS
331
143D
102
}
  0
BLOCK_RECORD
  5
271B
330
2625
100
AcDbSymbolTableRecord
100
AcDbBlockTableRecord
  2
*D30
340
0
  0
BLOCK_RECORD
  5
271D
330
2625
100
AcDbSymbolTableRecord
100
AcDbBlockTableRecord
  2
*U31
340
0
102
{BLKREFS
331
1670
102
}
  0
BLOCK_RECORD
  5
271F
330
2625
100
AcDbSymbolTableRecord
100
AcDbBlockTableRecord
  2
*D32
340
0
  0
BLOCK_RECORD
  5
2721
330
2625
100
AcDbSymbolTableRecord
100
AcDbBlockTableRecord
  2
*U33
340
0
102
{BLKREFS
331
1679
102
}
  0
BLOCK_RECORD
  5
2723
330
2625
100
AcDbSymbolTableRecord
100
AcDbBlockTableRecord
  2
*D34
340
0
  0
BLOCK_RECORD
  5
2725
330
2625
100
AcDbSymbolTableRecord
100
AcDbBlockTableRecord
  2
*U35
340
0
102
{BLKREFS
331
1682
102
}
  0
BLOCK_RECORD
  5
2727
330
2625
100
AcDbSymbolTableRecord
100
AcDbBlockTableRecord
  2
*D36
340
0
  0
BLOCK_RECORD
  5
2729
330
2625
100
AcDbSymbolTableRecord
100
AcDbBlockTableRecord
  2
*U37
340
0
102
{BLKREFS
331
168B
102
}
  0
BLOCK_RECORD
  5
272B
330
2625
100
AcDbSymbolTableRecord
100
AcDbBlockTableRecord
  2
*U38
340
0
  0
BLOCK_RECORD
  5
272D
330
2625
100
AcDbSymbolTableRecord
100
AcDbBlockTableRecord
  2
*D39
340
0
  0
BLOCK_RECORD
  5
272F
330
2625
100
AcDbSymbolTableRecord
100
AcDbBlockTableRecord
  2
*U40
340
0
102
{BLKREFS
331
1698
102
}
  0
BLOCK_RECORD
  5
2731
330
2625
100
AcDbSymbolTableRecord
100
AcDbBlockTableRecord
  2
*D41
340
0
  0
BLOCK_RECORD
  5
2733
330
2625
100
AcDbSymbolTableRecord
100
AcDbBlockTableRecord
  2
*U42
340
0
102
{BLKREFS
331
16A5
102
}
  0
BLOCK_RECORD
  5
2735
330
2625
100
AcDbSymbolTableRecord
100
AcDbBlockTableRecord
  2
*D43
340
0
  0
BLOCK_RECORD
  5
2737
330
2625
100
AcDbSymbolTableRecord
100
AcDbBlockTableRecord
  2
*U44
340
0
102
{BLKREFS
331
16B1
102
}
  0
BLOCK_RECORD
  5
2739
330
2625
100
AcDbSymbolTableRecord
100
AcDbBlockTableRecord
  2
*D45
340
0
  0
BLOCK_RECORD
  5
273B
330
2625
100
AcDbSymbolTableRecord
100
AcDbBlockTableRecord
  2
*U46
340
0
102
{BLKREFS
331
16BD
102
}
  0
BLOCK_RECORD
  5
273D
330
2625
100
AcDbSymbolTableRecord
100
AcDbBlockTableRecord
  2
*D47
340
0
  0
BLOCK_RECORD
  5
273F
330
2625
100
AcDbSymbolTableRecord
100
AcDbBlockTableRecord
  2
*U48
340
0
102
{BLKREFS
331
16C9
102
}
  0
BLOCK_RECORD
  5
2741
330
2625
100
AcDbSymbolTableRecord
100
AcDbBlockTableRecord
  2
*D49
340
0
  0
BLOCK_RECORD
  5
2743
330
2625
100
AcDbSymbolTableRecord
100
AcDbBlockTableRecord
  2
*U50
340
0
102
{BLKREFS
331
16D5
102
}
  0
BLOCK_RECORD
  5
2745
330
2625
100
AcDbSymbolTableRecord
100
AcDbBlockTableRecord
  2
*D51
340
0
  0
BLOCK_RECORD
  5
2747
330
2625
100
AcDbSymbolTableRecord
100
AcDbBlockTableRecord
  2
*U52
340
0
102
{BLKREFS
331
1D88
102
}
  0
BLOCK_RECORD
  5
2749
330
2625
100
AcDbSymbolTableRecord
100
AcDbBlockTableRecord
  2
*D53
340
0
  0
BLOCK_RECORD
  5
274B
330
2625
100
AcDbSymbolTableRecord
100
AcDbBlockTableRecord
  2
*U54
340
0
102
{BLKREFS
331
1D91
102
}
  0
BLOCK_RECORD
  5
274D
330
2625
100
AcDbSymbolTableRecord
100
AcDbBlockTableRecord
  2
*D55
340
0
  0
BLOCK_RECORD
  5
274F
330
2625
100
AcDbSymbolTableRecord
100
AcDbBlockTableRecord
  2
*U56
340
0
102
{BLKREFS
331
1D9A
102
}
  0
BLOCK_RECORD
  5
2751
330
2625
100
AcDbSymbolTableRecord
100
AcDbBlockTableRecord
  2
*D57
340
0
  0
BLOCK_RECORD
  5
2753
330
2625
100
AcDbSymbolTableRecord
100
AcDbBlockTableRecord
  2
*U58
340
0
102
{BLKREFS
331
1DA3
102
}
  0
BLOCK_RECORD
  5
2755
330
2625
100
AcDbSymbolTableRecord
100
AcDbBlockTableRecord
  2
*D59
340
0
  0
BLOCK_RECORD
  5
2757
330
2625
100
AcDbSymbolTableRecord
100
AcDbBlockTableRecord
  2
*U60
340
0
102
{BLKREFS
331
1DAD
102
}
  0
BLOCK_RECORD
  5
2759
330
2625
100
AcDbSymbolTableRecord
100
AcDbBlockTableRecord
  2
*D61
340
0
  0
BLOCK_RECORD
  5
275B
330
2625
100
AcDbSymbolTableRecord
100
AcDbBlockTableRecord
  2
*U62
340
0
102
{BLKREFS
331
1DB7
102
}
  0
BLOCK_RECORD
  5
275D
330
2625
100
AcDbSymbolTableRecord
100
AcDbBlockTableRecord
  2
*U63
340
0
  0
BLOCK_RECORD
  5
275F
330
2625
100
AcDbSymbolTableRecord
100
AcDbBlockTableRecord
  2
*U64
340
0
  0
BLOCK_RECORD
  5
2761
330
2625
100
AcDbSymbolTableRecord
100
AcDbBlockTableRecord
  2
*U65
340
0
  0
BLOCK_RECORD
  5
2763
330
2625
100
AcDbSymbolTableRecord
100
AcDbBlockTableRecord
  2
*U66
340
0
  0
BLOCK_RECORD
  5
2765
330
2625
100
AcDbSymbolTableRecord
100
AcDbBlockTableRecord
  2
*U67
340
0
  0
BLOCK_RECORD
  5
2767
330
2625
100
AcDbSymbolTableRecord
100
AcDbBlockTableRecord
  2
*U68
340
0
  0
BLOCK_RECORD
  5
2769
330
2625
100
AcDbSymbolTableRecord
100
AcDbBlockTableRecord
  2
*U69
340
0
  0
BLOCK_RECORD
  5
276B
330
2625
100
AcDbSymbolTableRecord
100
AcDbBlockTableRecord
  2
*U70
340
0
102
{BLKREFS
331
233F
102
}
  0
BLOCK_RECORD
  5
276D
330
2625
100
AcDbSymbolTableRecord
100
AcDbBlockTableRecord
  2
*U71
340
0
102
{BLKREFS
331
2340
102
}
  0
BLOCK_RECORD
  5
276F
330
2625
100
AcDbSymbolTableRecord
100
AcDbBlockTableRecord
  2
A$C42E375B0
340
0
  0
BLOCK_RECORD
  5
2771
330
2625
100
AcDbSymbolTableRecord
100
AcDbBlockTableRecord
  2
*U73
340
0
  0
BLOCK_RECORD
  5
2773
330
2625
100
AcDbSymbolTableRecord
100
AcDbBlockTableRecord
  2
*U74
340
0
  0
BLOCK_RECORD
  5
2775
330
2625
100
AcDbSymbolTableRecord
100
AcDbBlockTableRecord
  2
*U75
340
0
102
{BLKREFS
331
2572
102
}
  0
BLOCK_RECORD
  5
2777
330
2625
100
AcDbSymbolTableRecord
100
AcDbBlockTableRecord
  2
*U76
340
0
102
{BLKREFS
331
2573
102
}
  0
ENDTAB
  0
ENDSEC
  0
SECTION
  2
BLOCKS
  0
BLOCK
  5
2699
330
2698
100
AcDbEntity
  8
0
100
AcDbBlockBegin
  2
*Model_Space
 70
     0
 10
0.0
 20
0.0
 30
0.0
  3
*Model_Space
  1

  0
ENDBLK
  5
269A
330
2698
100
AcDbEntity
  8
0
100
AcDbBlockEnd
  0
BLOCK
  5
2695
330
2694
100
AcDbEntity
 67
     1
  8
0
100
AcDbBlockBegin
  2
*Paper_Space
 70
     0
 10
0.0
 20
0.0
 30
0.0
  3
*Paper_Space
  1

  0
ENDBLK
  5
2696
330
2694
100
AcDbEntity
 67
     1
  8
0
100
AcDbBlockEnd
  0
BLOCK
  5
26E0
330
26DF
100
AcDbEntity
  8
0
100
AcDbBlockBegin
  2
$MODEL_SPACE
 70
     0
 10
0.0
 20
0.0
 30
0.0
  3
$MODEL_SPACE
  1

  0
ENDBLK
  5
1FC1
330
26DF
100
AcDbEntity
  8
0
100
AcDbBlockEnd
  0
BLOCK
  5
26E2
330
26E1
100
AcDbEntity
  8
0
100
AcDbBlockBegin
  2
$PAPER_SPACE
 70
     0
 10
0.0
 20
0.0
 30
0.0
  3
$PAPER_SPACE
  1

  0
ENDBLK
  5
1FBD
330
26E1
100
AcDbEntity
  8
0
100
AcDbBlockEnd
  0
BLOCK
  5
26E4
330
26E3
100
AcDbEntity
  8
0
100
AcDbBlockBegin
  2
_ORIGIN
 70
     0
 10
0.0
 20
0.0
 30
0.0
  3
_ORIGIN
  1

  0
CIRCLE
  5
880
330
26E3
100
AcDbEntity
  8
0
  6
Continuous
 62
     7
100
AcDbCircle
 10
0.0
 20
0.0
 30
0.0
 40
0.5
  0
LINE
  5
881
330
26E3
100
AcDbEntity
  8
0
  6
Continuous
 62
     7
100
AcDbLine
 10
0.0
 20
0.0
 30
0.0
 11
-1.0
 21
0.0
 31
0.0
  0
ENDBLK
  5
882
330
26E3
100
AcDbEntity
  8
0
100
AcDbBlockEnd
  0
BLOCK
  5
26E6
330
26E5
100
AcDbEntity
  8
0
 62
     1
100
AcDbBlockBegin
  2
_DOTBLANK
 70
     0
 10
0.0
 20
0.0
 30
0.0
  3
_DOTBLANK
  1

  0
CIRCLE
  5
AB3
330
26E5
100
AcDbEntity
  8
0
  6
ByBlock
 62
     0
100
AcDbCircle
 10
0.0
 20
0.0
 30
0.0
 40
0.5
  0
LINE
  5
AB4
330
26E5
100
AcDbEntity
  8
0
  6
ByBlock
 62
     0
100
AcDbLine
 10
-0.5
 20
0.0
 30
0.0
 11
-1.0
 21
0.0
 31
0.0
  0
ENDBLK
  5
AB6
330
26E5
100
AcDbEntity
  8
0
 62
     1
100
AcDbBlockEnd
  0
BLOCK
  5
26E8
330
26E7
100
AcDbEntity
  8
0
 62
     1
100
AcDbBlockBegin
  2
_OPEN30
 70
     0
 10
0.0
 20
0.0
 30
0.0
  3
_OPEN30
  1

  0
LINE
  5
AB8
330
26E7
100
AcDbEntity
  8
0
  6
ByBlock
 62
     0
100
AcDbLine
 10
-1.0
 20
0.26794919
 30
0.0
 11
0.0
 21
0.0
 31
0.0
  0
LINE
  5
AB9
330
26E7
100
AcDbEntity
  8
0
  6
ByBlock
 62
     0
100
AcDbLine
 10
0.0
 20
0.0
 30
0.0
 11
-1.0
 21
-0.26794919
 31
0.0
  0
LINE
  5
ABA
330
26E7
100
AcDbEntity
  8
0
  6
ByBlock
 62
     0
100
AcDbLine
 10
0.0
 20
0.0
 30
0.0
 11
-1.0
 21
0.0
 31
0.0
  0
ENDBLK
  5
ABC
330
26E7
100
AcDbEntity
  8
0
 62
     1
100
AcDbBlockEnd
  0
BLOCK
  5
26EA
330
26E9
100
AcDbEntity
  8
0
100
AcDbBlockBegin
  2
*D5
 70
     1
 10
0.0
 20
0.0
 30
0.0
  3
*D5
  1

  0
LINE
  5
1296
330
26E9
100
AcDbEntity
  8
SIZE
 62
     0
100
AcDbLine
 10
-134.5
 20
-320.0
 30
0.0
 11
-134.5
 21
-468.0173952306001
 31
0.0
  0
LINE
  5
1297
330
26E9
100
AcDbEntity
  8
SIZE
 62
     0
100
AcDbLine
 10
134.5
 20
-320.0
 30
0.0
 11
134.5
 21
-468.0173952306001
 31
0.0
  0
LINE
  5
1298
330
26E9
100
AcDbEntity
  8
SIZE
 62
     0
100
AcDbLine
 10
-122.5
 20
-448.0173952306
 30
0.0
 11
122.5
 21
-448.0173952306
 31
0.0
  0
INSERT
  5
1299
330
26E9
100
AcDbEntity
  8
SIZE
 62
     0
100
AcDbBlockReference
  2
_DOTBLANK
 10
-134.5
 20
-448.0173952306
 30
0.0
 41
12.0
 42
12.0
 43
12.0
 50
180.0
  0
INSERT
  5
129A
330
26E9
100
AcDbEntity
  8
SIZE
 62
     0
100
AcDbBlockReference
  2
_DOTBLANK
 10
134.5
 20
-448.0173952306
 30
0.0
 41
12.0
 42
12.0
 43
12.0
  0
INSERT
  5
129B
330
26E9
100
AcDbEntity
  8
0
100
AcDbBlockReference
  2
*U6
 10
0.0
 20
0.0
 30
0.0
  0
POINT
  5
129C
330
26E9
100
AcDbEntity
  8
DEFPOINTS
 62
     0
100
AcDbPoint
 10
-134.5
 20
-300.0
 30
0.0
  0
POINT
  5
129D
330
26E9
100
AcDbEntity
  8
DEFPOINTS
 62
     0
100
AcDbPoint
 10
134.5
 20
-300.0
 30
0.0
  0
POINT
  5
129E
330
26E9
100
AcDbEntity
  8
DEFPOINTS
 62
     0
100
AcDbPoint
 10
134.5
 20
-448.0173952306
 30
0.0
  0
ENDBLK
  5
D72
330
26E9
100
AcDbEntity
  8
0
100
AcDbBlockEnd
  0
BLOCK
  5
26EC
330
26EB
100
AcDbEntity
  8
0
100
AcDbBlockBegin
  2
*U6
 70
     1
 10
0.0
 20
0.0
 30
0.0
  3
*U6
  1

  0
TEXT
  5
1EF5
330
26EB
100
AcDbEntity
  8
SIZE
 62
     0
100
AcDbText
 10
-72.68571428571426
 20
-438.0173952305999
 30
0.0
 40
64.0
  1
269
 41
0.9
100
AcDbText
  0
ENDBLK
  5
1EF7
330
26EB
100
AcDbEntity
  8
0
100
AcDbBlockEnd
  0
BLOCK
  5
26EE
330
26ED
100
AcDbEntity
  8
0
100
AcDbBlockBegin
  2
*D7
 70
     1
 10
0.0
 20
0.0
 30
0.0
  3
*D7
  1

  0
LINE
  5
11A7
330
26ED
100
AcDbEntity
  8
SIZE
  6
Continuous
 62
     0
100
AcDbLine
 10
143.5
 20
-300.0
 30
0.0
 11
304.6432844803791
 21
-300.0
 31
0.0
  0
LINE
  5
11A8
330
26ED
100
AcDbEntity
  8
SIZE
  6
Continuous
 62
     0
100
AcDbLine
 10
177.5
 20
-0.0000000000000057
 30
0.0
 11
304.6432844803792
 21
-0.0000000000000417
 31
0.0
  0
LINE
  5
11A9
330
26ED
100
AcDbEntity
  8
SIZE
  6
Continuous
 62
     0
100
AcDbLine
 10
284.6432844803791
 20
-288.0000000000001
 30
0.0
 11
284.6432844803792
 21
-12.00000000000003
 31
0.0
  0
INSERT
  5
11AA
330
26ED
100
AcDbEntity
  8
SIZE
  6
Continuous
 62
     0
100
AcDbBlockReference
  2
_DOTBLANK
 10
284.6432844803791
 20
-300.0
 30
0.0
 41
12.0
 42
12.0
 43
12.0
 50
270.0
  0
INSERT
  5
11AB
330
26ED
100
AcDbEntity
  8
SIZE
  6
Continuous
 62
     0
100
AcDbBlockReference
  2
_DOTBLANK
 10
284.6432844803792
 20
-0.000000000000036
 30
0.0
 41
12.0
 42
12.0
 43
12.0
 50
90.0
  0
INSERT
  5
11AC
330
26ED
100
AcDbEntity
  8
0
100
AcDbBlockReference
  2
*U8
 10
0.0
 20
0.0
 30
0.0
  0
POINT
  5
11AD
330
26ED
100
AcDbEntity
  8
DEFPOINTS
  6
Continuous
 62
     0
100
AcDbPoint
 10
123.5
 20
-300.0
 30
0.0
  0
POINT
  5
11AE
330
26ED
100
AcDbEntity
  8
DEFPOINTS
  6
Continuous
 62
     0
100
AcDbPoint
 10
157.5
 20
0.0
 30
0.0
  0
POINT
  5
11AF
330
26ED
100
AcDbEntity
  8
DEFPOINTS
  6
Continuous
 62
     0
100
AcDbPoint
 10
284.6432844803792
 20
-0.000000000000036
 30
0.0
  0
ENDBLK
  5
E11
330
26ED
100
AcDbEntity
  8
0
100
AcDbBlockEnd
  0
BLOCK
  5
26F0
330
26EF
100
AcDbEntity
  8
0
100
AcDbBlockBegin
  2
*U8
 70
     1
 10
0.0
 20
0.0
 30
0.0
  3
*U8
  1

  0
TEXT
  5
1EE1
330
26EF
100
AcDbEntity
  8
SIZE
 62
     0
100
AcDbText
 10
274.6432844803792
 20
-224.0571428571429
 30
0.0
 40
64.0
  1
300
 50
90.0
 41
0.9
100
AcDbText
  0
ENDBLK
  5
1EE3
330
26EF
100
AcDbEntity
  8
0
100
AcDbBlockEnd
  0
BLOCK
  5
26F2
330
26F1
100
AcDbEntity
  8
0
100
AcDbBlockBegin
  2
*D9
 70
     1
 10
0.0
 20
0.0
 30
0.0
  3
*D9
  1

  0
LINE
  5
E7D
330
26F1
100
AcDbEntity
  8
SIZE
 62
     0
100
AcDbLine
 10
-139.9999999999998
 20
32.46448280219375
 30
0.0
 11
-139.9999999999998
 21
136.4516878685508
 31
0.0
  0
LINE
  5
E7E
330
26F1
100
AcDbEntity
  8
SIZE
 62
     0
100
AcDbLine
 10
140.0
 20
32.46448280219375
 30
0.0
 11
140.0
 21
136.4516878685508
 31
0.0
  0
LINE
  5
E7F
330
26F1
100
AcDbEntity
  8
SIZE
 62
     0
100
AcDbLine
 10
-128.0
 20
116.4516878685508
 30
0.0
 11
128.0
 21
116.4516878685508
 31
0.0
  0
INSERT
  5
E80
330
26F1
100
AcDbEntity
  8
SIZE
 62
     0
100
AcDbBlockReference
  2
_DOTBLANK
 10
-139.9999999999998
 20
116.4516878685508
 30
0.0
 41
12.0
 42
12.0
 43
12.0
 50
180.0
  0
INSERT
  5
E81
330
26F1
100
AcDbEntity
  8
SIZE
 62
     0
100
AcDbBlockReference
  2
_DOTBLANK
 10
140.0
 20
116.4516878685508
 30
0.0
 41
12.0
 42
12.0
 43
12.0
  0
INSERT
  5
E82
330
26F1
100
AcDbEntity
  8
0
100
AcDbBlockReference
  2
*U10
 10
0.0
 20
0.0
 30
0.0
  0
POINT
  5
E83
330
26F1
100
AcDbEntity
  8
DEFPOINTS
 62
     0
100
AcDbPoint
 10
-139.9999999999998
 20
12.46448280219374
 30
0.0
  0
POINT
  5
E84
330
26F1
100
AcDbEntity
  8
DEFPOINTS
 62
     0
100
AcDbPoint
 10
140.0
 20
12.46448280219374
 30
0.0
  0
POINT
  5
E85
330
26F1
100
AcDbEntity
  8
DEFPOINTS
 62
     0
100
AcDbPoint
 10
140.0
 20
116.4516878685508
 30
0.0
  0
ENDBLK
  5
E7C
330
26F1
100
AcDbEntity
  8
0
100
AcDbBlockEnd
  0
BLOCK
  5
26F4
330
26F3
100
AcDbEntity
  8
0
100
AcDbBlockBegin
  2
*U10
 70
     1
 10
0.0
 20
0.0
 30
0.0
  3
*U10
  1

  0
TEXT
  5
1ED8
330
26F3
100
AcDbEntity
  8
SIZE
 62
     0
100
AcDbText
 10
-74.05714285714281
 20
126.4516878685508
 30
0.0
 40
64.0
  1
280
 41
0.9
100
AcDbText
  0
ENDBLK
  5
1EDA
330
26F3
100
AcDbEntity
  8
0
100
AcDbBlockEnd
  0
BLOCK
  5
26F6
330
26F5
100
AcDbEntity
  8
0
100
AcDbBlockBegin
  2
GENAXEH
 70
     0
 10
0.0
 20
0.0
 30
0.0
  3
GENAXEH
  1

  0
LINE
  5
FDB
330
26F5
100
AcDbEntity
  8
0
100
AcDbLine
 10
-1.0
 20
0.0
 30
0.0
 11
1.0
 21
0.0
 31
0.0
  0
ENDBLK
  5
FDD
330
26F5
100
AcDbEntity
  8
0
100
AcDbBlockEnd
  0
BLOCK
  5
26F8
330
26F7
100
AcDbEntity
  8
0
100
AcDbBlockBegin
  2
*D12
 70
     1
 10
0.0
 20
0.0
 30
0.0
  3
*D12
  1

  0
LINE
  5
1120
330
26F7
100
AcDbEntity
  8
SIZE
 62
     0
100
AcDbLine
 10
-157.5
 20
20.0
 30
0.0
 11
-157.5
 21
245.5794621189598
 31
0.0
  0
LINE
  5
1121
330
26F7
100
AcDbEntity
  8
SIZE
 62
     0
100
AcDbLine
 10
157.5
 20
20.0
 30
0.0
 11
157.5
 21
245.5794621189598
 31
0.0
  0
LINE
  5
1122
330
26F7
100
AcDbEntity
  8
SIZE
 62
     0
100
AcDbLine
 10
-145.5
 20
225.5794621189598
 30
0.0
 11
145.5
 21
225.5794621189598
 31
0.0
  0
INSERT
  5
1123
330
26F7
100
AcDbEntity
  8
SIZE
 62
     0
100
AcDbBlockReference
  2
_DOTBLANK
 10
-157.5
 20
225.5794621189598
 30
0.0
 41
12.0
 42
12.0
 43
12.0
 50
180.0
  0
INSERT
  5
1124
330
26F7
100
AcDbEntity
  8
SIZE
 62
     0
100
AcDbBlockReference
  2
_DOTBLANK
 10
157.5
 20
225.5794621189598
 30
0.0
 41
12.0
 42
12.0
 43
12.0
  0
INSERT
  5
1125
330
26F7
100
AcDbEntity
  8
0
100
AcDbBlockReference
  2
*U13
 10
0.0
 20
0.0
 30
0.0
  0
POINT
  5
1126
330
26F7
100
AcDbEntity
  8
DEFPOINTS
 62
     0
100
AcDbPoint
 10
-157.5
 20
0.0
 30
0.0
  0
POINT
  5
1127
330
26F7
100
AcDbEntity
  8
DEFPOINTS
 62
     0
100
AcDbPoint
 10
157.5
 20
0.0
 30
0.0
  0
POINT
  5
1128
330
26F7
100
AcDbEntity
  8
DEFPOINTS
 62
     0
100
AcDbPoint
 10
157.5
 20
225.5794621189598
 30
0.0
  0
ENDBLK
  5
111F
330
26F7
100
AcDbEntity
  8
0
100
AcDbBlockEnd
  0
BLOCK
  5
26FA
330
26F9
100
AcDbEntity
  8
0
100
AcDbBlockBegin
  2
*U13
 70
     1
 10
0.0
 20
0.0
 30
0.0
  3
*U13
  1

  0
TEXT
  5
1EDD
330
26F9
100
AcDbEntity
  8
SIZE
 62
     0
100
AcDbText
 10
-68.57142857142857
 20
235.5794621189599
 30
0.0
 40
64.0
  1
315
 41
0.9
100
AcDbText
  0
ENDBLK
  5
1EDF
330
26F9
100
AcDbEntity
  8
0
100
AcDbBlockEnd
  0
BLOCK
  5
26FC
330
26FB
100
AcDbEntity
  8
0
100
AcDbBlockBegin
  2
*D14
 70
     1
 10
0.0
 20
0.0
 30
0.0
  3
*D14
  1

  0
LINE
  5
11BD
330
26FB
100
AcDbEntity
  8
NOTE
 62
     0
100
AcDbLine
 10
-123.4999999999999
 20
-320.0
 30
0.0
 11
-123.4999999999999
 21
-354.9529861856111
 31
0.0
  0
LINE
  5
11BE
330
26FB
100
AcDbEntity
  8
NOTE
 62
     0
100
AcDbLine
 10
-133.4999999999998
 20
-331.2126909923287
 30
0.0
 11
-133.4999999999998
 21
-354.9529861856111
 31
0.0
  0
LINE
  5
11BF
330
26FB
100
AcDbEntity
  8
NOTE
 62
     0
100
AcDbLine
 10
-111.4999999999999
 20
-334.9529861856112
 30
0.0
 11
-99.4999999999999
 21
-334.9529861856112
 31
0.0
  0
LINE
  5
11C0
330
26FB
100
AcDbEntity
  8
NOTE
 62
     0
100
AcDbLine
 10
-145.4999999999998
 20
-334.9529861856112
 30
0.0
 11
-157.4999999999998
 21
-334.9529861856112
 31
0.0
  0
LINE
  5
11C1
330
26FB
100
AcDbEntity
  8
NOTE
 62
     0
100
AcDbLine
 10
-123.4999999999999
 20
-334.9529861856112
 30
0.0
 11
-133.4999999999998
 21
-334.9529861856112
 31
0.0
  0
INSERT
  5
11C2
330
26FB
100
AcDbEntity
  8
NOTE
 62
     0
100
AcDbBlockReference
  2
_DOTBLANK
 10
-123.4999999999999
 20
-334.9529861856112
 30
0.0
 41
12.0
 42
12.0
 43
12.0
 50
180.0
  0
INSERT
  5
11C3
330
26FB
100
AcDbEntity
  8
NOTE
 62
     0
100
AcDbBlockReference
  2
_DOTBLANK
 10
-133.4999999999998
 20
-334.9529861856112
 30
0.0
 41
12.0
 42
12.0
 43
12.0
  0
INSERT
  5
11C4
330
26FB
100
AcDbEntity
  8
0
100
AcDbBlockReference
  2
*U15
 10
0.0
 20
0.0
 30
0.0
  0
POINT
  5
11C5
330
26FB
100
AcDbEntity
  8
DEFPOINTS
 62
     0
100
AcDbPoint
 10
-123.4999999999999
 20
-300.0
 30
0.0
  0
POINT
  5
11C6
330
26FB
100
AcDbEntity
  8
DEFPOINTS
 62
     0
100
AcDbPoint
 10
-133.4999999999998
 20
-311.2126909923287
 30
0.0
  0
POINT
  5
11C7
330
26FB
100
AcDbEntity
  8
DEFPOINTS
 62
     0
100
AcDbPoint
 10
-133.4999999999998
 20
-334.9529861856112
 30
0.0
  0
ENDBLK
  5
11BC
330
26FB
100
AcDbEntity
  8
0
100
AcDbBlockEnd
  0
BLOCK
  5
26FE
330
26FD
100
AcDbEntity
  8
0
100
AcDbBlockBegin
  2
*U15
 70
     1
 10
0.0
 20
0.0
 30
0.0
  3
*U15
  1

  0
TEXT
  5
1EE5
330
26FD
100
AcDbEntity
  8
NOTE
 62
     0
100
AcDbText
 10
-169.642857142857
 20
-324.9529861856112
 30
0.0
 40
64.0
  1
10
 41
0.9
100
AcDbText
  0
ENDBLK
  5
1EE7
330
26FD
100
AcDbEntity
  8
0
100
AcDbBlockEnd
  0
BLOCK
  5
2700
330
26FF
100
AcDbEntity
  8
0
100
AcDbBlockBegin
  2
*D16
 70
     1
 10
0.0
 20
0.0
 30
0.0
  3
*D16
  1

  0
LINE
  5
11E7
330
26FF
100
AcDbEntity
  8
NOTE
 62
     0
100
AcDbLine
 10
-135.5
 20
-333.2126909923287
 30
0.0
 11
-135.5
 21
-386.2569421441843
 31
0.0
  0
LINE
  5
11E8
330
26FF
100
AcDbEntity
  8
NOTE
 62
     0
100
AcDbLine
 10
-123.4999999999999
 20
-320.0
 30
0.0
 11
-123.4999999999999
 21
-386.2569421441843
 31
0.0
  0
LINE
  5
11E9
330
26FF
100
AcDbEntity
  8
NOTE
 62
     0
100
AcDbLine
 10
-147.5
 20
-366.2569421441844
 30
0.0
 11
-159.5
 21
-366.2569421441844
 31
0.0
  0
LINE
  5
11EA
330
26FF
100
AcDbEntity
  8
NOTE
 62
     0
100
AcDbLine
 10
-111.4999999999999
 20
-366.2569421441844
 30
0.0
 11
-99.4999999999999
 21
-366.2569421441844
 31
0.0
  0
LINE
  5
11EB
330
26FF
100
AcDbEntity
  8
NOTE
 62
     0
100
AcDbLine
 10
-135.5
 20
-366.2569421441844
 30
0.0
 11
-123.4999999999999
 21
-366.2569421441844
 31
0.0
  0
INSERT
  5
11EC
330
26FF
100
AcDbEntity
  8
NOTE
 62
     0
100
AcDbBlockReference
  2
_DOTBLANK
 10
-135.5
 20
-366.2569421441844
 30
0.0
 41
12.0
 42
12.0
 43
12.0
  0
INSERT
  5
11ED
330
26FF
100
AcDbEntity
  8
NOTE
 62
     0
100
AcDbBlockReference
  2
_DOTBLANK
 10
-123.4999999999999
 20
-366.2569421441844
 30
0.0
 41
12.0
 42
12.0
 43
12.0
 50
180.0
  0
INSERT
  5
11EE
330
26FF
100
AcDbEntity
  8
0
100
AcDbBlockReference
  2
*U17
 10
0.0
 20
0.0
 30
0.0
  0
POINT
  5
11EF
330
26FF
100
AcDbEntity
  8
DEFPOINTS
 62
     0
100
AcDbPoint
 10
-135.5
 20
-313.2126909923287
 30
0.0
  0
POINT
  5
11F0
330
26FF
100
AcDbEntity
  8
DEFPOINTS
 62
     0
100
AcDbPoint
 10
-123.4999999999999
 20
-300.0
 30
0.0
  0
POINT
  5
11F1
330
26FF
100
AcDbEntity
  8
DEFPOINTS
 62
     0
100
AcDbPoint
 10
-123.4999999999999
 20
-366.2569421441844
 30
0.0
  0
ENDBLK
  5
11E6
330
26FF
100
AcDbEntity
  8
0
100
AcDbBlockEnd
  0
BLOCK
  5
2702
330
2701
100
AcDbEntity
  8
0
100
AcDbBlockBegin
  2
*U17
 70
     1
 10
0.0
 20
0.0
 30
0.0
  3
*U17
  1

  0
TEXT
  5
1EE9
330
2701
100
AcDbEntity
  8
NOTE
 62
     0
100
AcDbText
 10
-170.642857142857
 20
-356.2569421441843
 30
0.0
 40
64.0
  1
12
 41
0.9
100
AcDbText
  0
ENDBLK
  5
1EEB
330
2701
100
AcDbEntity
  8
0
100
AcDbBlockEnd
  0
BLOCK
  5
2704
330
2703
100
AcDbEntity
  8
0
100
AcDbBlockBegin
  2
*D18
 70
     1
 10
0.0
 20
0.0
 30
0.0
  3
*D18
  1

  0
LINE
  5
11F6
330
2703
100
AcDbEntity
  8
NOTE
 62
     0
100
AcDbLine
 10
-123.4999999999999
 20
-320.0
 30
0.0
 11
-123.4999999999999
 21
-583.8286022818904
 31
0.0
  0
LINE
  5
11F7
330
2703
100
AcDbEntity
  8
NOTE
 62
     0
100
AcDbLine
 10
123.5
 20
-320.0
 30
0.0
 11
123.5
 21
-583.8286022818904
 31
0.0
  0
LINE
  5
11F8
330
2703
100
AcDbEntity
  8
NOTE
 62
     0
100
AcDbLine
 10
-111.4999999999999
 20
-563.8286022818904
 30
0.0
 11
111.5
 21
-563.8286022818904
 31
0.0
  0
INSERT
  5
11F9
330
2703
100
AcDbEntity
  8
NOTE
 62
     0
100
AcDbBlockReference
  2
_DOTBLANK
 10
-123.4999999999999
 20
-563.8286022818904
 30
0.0
 41
12.0
 42
12.0
 43
12.0
 50
180.0
  0
INSERT
  5
11FA
330
2703
100
AcDbEntity
  8
NOTE
 62
     0
100
AcDbBlockReference
  2
_DOTBLANK
 10
123.5
 20
-563.8286022818904
 30
0.0
 41
12.0
 42
12.0
 43
12.0
  0
INSERT
  5
11FB
330
2703
100
AcDbEntity
  8
0
100
AcDbBlockReference
  2
*U19
 10
0.0
 20
0.0
 30
0.0
  0
POINT
  5
11FC
330
2703
100
AcDbEntity
  8
DEFPOINTS
 62
     0
100
AcDbPoint
 10
-123.4999999999999
 20
-300.0
 30
0.0
  0
POINT
  5
11FD
330
2703
100
AcDbEntity
  8
DEFPOINTS
 62
     0
100
AcDbPoint
 10
123.5
 20
-300.0
 30
0.0
  0
POINT
  5
11FE
330
2703
100
AcDbEntity
  8
DEFPOINTS
 62
     0
100
AcDbPoint
 10
123.5
 20
-563.8286022818904
 30
0.0
  0
ENDBLK
  5
11F5
330
2703
100
AcDbEntity
  8
0
100
AcDbBlockEnd
  0
BLOCK
  5
2706
330
2705
100
AcDbEntity
  8
0
100
AcDbBlockBegin
  2
*U19
 70
     1
 10
0.0
 20
0.0
 30
0.0
  3
*U19
  1

  0
TEXT
  5
1EED
330
2705
100
AcDbEntity
  8
NOTE
 62
     0
100
AcDbText
 10
-74.05714285714281
 20
-553.8286022818904
 30
0.0
 40
64.0
  1
247
 41
0.9
100
AcDbText
  0
ENDBLK
  5
1EEF
330
2705
100
AcDbEntity
  8
0
100
AcDbBlockEnd
  0
BLOCK
  5
2708
330
2707
100
AcDbEntity
  8
0
100
AcDbBlockBegin
  2
*D20
 70
     1
 10
0.0
 20
0.0
 30
0.0
  3
*D20
  1

  0
LINE
  5
1284
330
2707
100
AcDbEntity
  8
NOTE
 62
     0
100
AcDbLine
 10
-123.5
 20
12.0
 30
0.0
 11
-123.5
 21
71.83630134534229
 31
0.0
  0
LINE
  5
1285
330
2707
100
AcDbEntity
  8
NOTE
 62
     0
100
AcDbLine
 10
123.5
 20
12.0
 30
0.0
 11
123.5
 21
71.83630134534229
 31
0.0
  0
LINE
  5
1286
330
2707
100
AcDbEntity
  8
NOTE
 62
     0
100
AcDbLine
 10
-111.5
 20
51.83630134534229
 30
0.0
 11
111.5
 21
51.83630134534229
 31
0.0
  0
INSERT
  5
1287
330
2707
100
AcDbEntity
  8
NOTE
 62
     0
100
AcDbBlockReference
  2
_DOTBLANK
 10
-123.5
 20
51.83630134534229
 30
0.0
 41
12.0
 42
12.0
 43
12.0
 50
180.0
  0
INSERT
  5
1288
330
2707
100
AcDbEntity
  8
NOTE
 62
     0
100
AcDbBlockReference
  2
_DOTBLANK
 10
123.5
 20
51.83630134534229
 30
0.0
 41
12.0
 42
12.0
 43
12.0
  0
INSERT
  5
1289
330
2707
100
AcDbEntity
  8
0
100
AcDbBlockReference
  2
*U21
 10
0.0
 20
0.0
 30
0.0
  0
POINT
  5
128A
330
2707
100
AcDbEntity
  8
DEFPOINTS
 62
     0
100
AcDbPoint
 10
-123.5
 20
-8.0
 30
0.0
  0
POINT
  5
128B
330
2707
100
AcDbEntity
  8
DEFPOINTS
 62
     0
100
AcDbPoint
 10
123.5
 20
-8.0
 30
0.0
  0
POINT
  5
128C
330
2707
100
AcDbEntity
  8
DEFPOINTS
 62
     0
100
AcDbPoint
 10
123.5
 20
51.83630134534229
 30
0.0
  0
ENDBLK
  5
1283
330
2707
100
AcDbEntity
  8
0
100
AcDbBlockEnd
  0
BLOCK
  5
270A
330
2709
100
AcDbEntity
  8
0
100
AcDbBlockBegin
  2
*U21
 70
     1
 10
0.0
 20
0.0
 30
0.0
  3
*U21
  1

  0
TEXT
  5
1EF1
330
2709
100
AcDbEntity
  8
NOTE
 62
     0
100
AcDbText
 10
-74.05714285714283
 20
61.83630134534229
 30
0.0
 40
64.0
  1
247
 41
0.9
100
AcDbText
  0
ENDBLK
  5
1EF3
330
2709
100
AcDbEntity
  8
0
100
AcDbBlockEnd
  0
BLOCK
  5
270C
330
270B
100
AcDbEntity
  8
0
100
AcDbBlockBegin
  2
*D22
 70
     1
 10
0.0
 20
0.0
 30
0.0
  3
*D22
  1

  0
LINE
  5
1414
330
270B
100
AcDbEntity
  8
SIZE
 62
     0
100
AcDbLine
 10
-22313.11521613997
 20
7365.702971374808
 30
0.0
 11
-22313.11521613997
 21
7217.685576144207
 31
0.0
  0
LINE
  5
1415
330
270B
100
AcDbEntity
  8
SIZE
 62
     0
100
AcDbLine
 10
-22044.11521613997
 20
7365.702971374808
 30
0.0
 11
-22044.11521613997
 21
7217.685576144207
 31
0.0
  0
LINE
  5
1416
330
270B
100
AcDbEntity
  8
SIZE
 62
     0
100
AcDbLine
 10
-22301.11521613997
 20
7237.685576144207
 30
0.0
 11
-22056.11521613997
 21
7237.685576144207
 31
0.0
  0
INSERT
  5
1417
330
270B
100
AcDbEntity
  8
SIZE
 62
     0
100
AcDbBlockReference
  2
_DOTBLANK
 10
-22313.11521613997
 20
7237.685576144207
 30
0.0
 41
12.0
 42
12.0
 43
12.0
 50
180.0
  0
INSERT
  5
1418
330
270B
100
AcDbEntity
  8
SIZE
 62
     0
100
AcDbBlockReference
  2
_DOTBLANK
 10
-22044.11521613997
 20
7237.685576144207
 30
0.0
 41
12.0
 42
12.0
 43
12.0
  0
INSERT
  5
1419
330
270B
100
AcDbEntity
  8
0
100
AcDbBlockReference
  2
*U23
 10
0.0
 20
0.0
 30
0.0
  0
POINT
  5
141A
330
270B
100
AcDbEntity
  8
DEFPOINTS
 62
     0
100
AcDbPoint
 10
-22313.11521613997
 20
7385.702971374808
 30
0.0
  0
POINT
  5
141B
330
270B
100
AcDbEntity
  8
DEFPOINTS
 62
     0
100
AcDbPoint
 10
-22044.11521613997
 20
7385.702971374808
 30
0.0
  0
POINT
  5
141C
330
270B
100
AcDbEntity
  8
DEFPOINTS
 62
     0
100
AcDbPoint
 10
-22044.11521613997
 20
7237.685576144207
 30
0.0
  0
ENDBLK
  5
141D
330
270B
100
AcDbEntity
  8
0
100
AcDbBlockEnd
  0
BLOCK
  5
270E
330
270D
100
AcDbEntity
  8
0
100
AcDbBlockBegin
  2
*U23
 70
     1
 10
0.0
 20
0.0
 30
0.0
  3
*U23
  1

  0
TEXT
  5
1EF9
330
270D
100
AcDbEntity
  8
SIZE
 62
     0
100
AcDbText
 10
-22251.30093042568
 20
7247.685576144205
 30
0.0
 40
64.0
  1
269
 41
0.9
100
AcDbText
  0
ENDBLK
  5
1EFB
330
270D
100
AcDbEntity
  8
0
100
AcDbBlockEnd
  0
BLOCK
  5
2710
330
270F
100
AcDbEntity
  8
0
100
AcDbBlockBegin
  2
*D24
 70
     1
 10
0.0
 20
0.0
 30
0.0
  3
*D24
  1

  0
LINE
  5
1420
330
270F
100
AcDbEntity
  8
SIZE
  6
Continuous
 62
     0
100
AcDbLine
 10
-22035.11521613997
 20
7385.702971374808
 30
0.0
 11
-21873.97193165959
 21
7385.702971374808
 31
0.0
  0
LINE
  5
1421
330
270F
100
AcDbEntity
  8
SIZE
  6
Continuous
 62
     0
100
AcDbLine
 10
-22001.11521613997
 20
7685.702971374808
 30
0.0
 11
-21873.97193165959
 21
7685.702971374808
 31
0.0
  0
LINE
  5
1422
330
270F
100
AcDbEntity
  8
SIZE
  6
Continuous
 62
     0
100
AcDbLine
 10
-21893.97193165959
 20
7397.702971374808
 30
0.0
 11
-21893.97193165959
 21
7673.702971374808
 31
0.0
  0
INSERT
  5
1423
330
270F
100
AcDbEntity
  8
SIZE
  6
Continuous
 62
     0
100
AcDbBlockReference
  2
_DOTBLANK
 10
-21893.97193165959
 20
7385.702971374808
 30
0.0
 41
12.0
 42
12.0
 43
12.0
 50
270.0
  0
INSERT
  5
1424
330
270F
100
AcDbEntity
  8
SIZE
  6
Continuous
 62
     0
100
AcDbBlockReference
  2
_DOTBLANK
 10
-21893.97193165959
 20
7685.702971374808
 30
0.0
 41
12.0
 42
12.0
 43
12.0
 50
90.0
  0
INSERT
  5
1425
330
270F
100
AcDbEntity
  8
0
100
AcDbBlockReference
  2
*U25
 10
0.0
 20
0.0
 30
0.0
  0
POINT
  5
1426
330
270F
100
AcDbEntity
  8
DEFPOINTS
  6
Continuous
 62
     0
100
AcDbPoint
 10
-22055.11521613997
 20
7385.702971374808
 30
0.0
  0
POINT
  5
1427
330
270F
100
AcDbEntity
  8
DEFPOINTS
  6
Continuous
 62
     0
100
AcDbPoint
 10
-22021.11521613997
 20
7685.702971374808
 30
0.0
  0
POINT
  5
1428
330
270F
100
AcDbEntity
  8
DEFPOINTS
  6
Continuous
 62
     0
100
AcDbPoint
 10
-21893.97193165959
 20
7685.702971374808
 30
0.0
  0
ENDBLK
  5
1429
330
270F
100
AcDbEntity
  8
0
100
AcDbBlockEnd
  0
BLOCK
  5
2712
330
2711
100
AcDbEntity
  8
0
100
AcDbBlockBegin
  2
*U25
 70
     1
 10
0.0
 20
0.0
 30
0.0
  3
*U25
  1

  0
TEXT
  5
1EFD
330
2711
100
AcDbEntity
  8
SIZE
 62
     0
100
AcDbText
 10
-21903.97193165959
 20
7461.645828517662
 30
0.0
 40
64.0
  1
300
 50
90.0
 41
0.9
100
AcDbText
  0
ENDBLK
  5
1EFF
330
2711
100
AcDbEntity
  8
0
100
AcDbBlockEnd
  0
BLOCK
  5
2714
330
2713
100
AcDbEntity
  8
0
100
AcDbBlockBegin
  2
*D26
 70
     1
 10
0.0
 20
0.0
 30
0.0
  3
*D26
  1

  0
LINE
  5
142C
330
2713
100
AcDbEntity
  8
SIZE
 62
     0
100
AcDbLine
 10
-22318.61521613997
 20
7718.167454177002
 30
0.0
 11
-22318.61521613997
 21
7822.154659243358
 31
0.0
  0
LINE
  5
142D
330
2713
100
AcDbEntity
  8
SIZE
 62
     0
100
AcDbLine
 10
-22038.61521613997
 20
7718.167454177002
 30
0.0
 11
-22038.61521613997
 21
7822.154659243358
 31
0.0
  0
LINE
  5
142E
330
2713
100
AcDbEntity
  8
SIZE
 62
     0
100
AcDbLine
 10
-22306.61521613997
 20
7802.154659243358
 30
0.0
 11
-22050.61521613997
 21
7802.154659243358
 31
0.0
  0
INSERT
  5
142F
330
2713
100
AcDbEntity
  8
SIZE
 62
     0
100
AcDbBlockReference
  2
_DOTBLANK
 10
-22318.61521613997
 20
7802.154659243358
 30
0.0
 41
12.0
 42
12.0
 43
12.0
 50
180.0
  0
INSERT
  5
1430
330
2713
100
AcDbEntity
  8
SIZE
 62
     0
100
AcDbBlockReference
  2
_DOTBLANK
 10
-22038.61521613997
 20
7802.154659243358
 30
0.0
 41
12.0
 42
12.0
 43
12.0
  0
INSERT
  5
1431
330
2713
100
AcDbEntity
  8
0
100
AcDbBlockReference
  2
*U27
 10
0.0
 20
0.0
 30
0.0
  0
POINT
  5
1432
330
2713
100
AcDbEntity
  8
DEFPOINTS
 62
     0
100
AcDbPoint
 10
-22318.61521613997
 20
7698.167454177002
 30
0.0
  0
POINT
  5
1433
330
2713
100
AcDbEntity
  8
DEFPOINTS
 62
     0
100
AcDbPoint
 10
-22038.61521613997
 20
7698.167454177002
 30
0.0
  0
POINT
  5
1434
330
2713
100
AcDbEntity
  8
DEFPOINTS
 62
     0
100
AcDbPoint
 10
-22038.61521613997
 20
7802.154659243358
 30
0.0
  0
ENDBLK
  5
1435
330
2713
100
AcDbEntity
  8
0
100
AcDbBlockEnd
  0
BLOCK
  5
2716
330
2715
100
AcDbEntity
  8
0
100
AcDbBlockBegin
  2
*U27
 70
     1
 10
0.0
 20
0.0
 30
0.0
  3
*U27
  1

  0
TEXT
  5
1F01
330
2715
100
AcDbEntity
  8
SIZE
 62
     0
100
AcDbText
 10
-22252.6723589971
 20
7812.154659243358
 30
0.0
 40
64.0
  1
280
 41
0.9
100
AcDbText
  0
ENDBLK
  5
1F03
330
2715
100
AcDbEntity
  8
0
100
AcDbBlockEnd
  0
BLOCK
  5
2718
330
2717
100
AcDbEntity
  8
0
100
AcDbBlockBegin
  2
*D28
 70
     1
 10
0.0
 20
0.0
 30
0.0
  3
*D28
  1

  0
LINE
  5
1438
330
2717
100
AcDbEntity
  8
SIZE
 62
     0
100
AcDbLine
 10
-22336.11521613997
 20
7705.702971374808
 30
0.0
 11
-22336.11521613997
 21
7931.282433493766
 31
0.0
  0
LINE
  5
1439
330
2717
100
AcDbEntity
  8
SIZE
 62
     0
100
AcDbLine
 10
-22021.11521613997
 20
7705.702971374808
 30
0.0
 11
-22021.11521613997
 21
7931.282433493766
 31
0.0
  0
LINE
  5
143A
330
2717
100
AcDbEntity
  8
SIZE
 62
     0
100
AcDbLine
 10
-22324.11521613997
 20
7911.282433493766
 30
0.0
 11
-22033.11521613997
 21
7911.282433493766
 31
0.0
  0
INSERT
  5
143B
330
2717
100
AcDbEntity
  8
SIZE
 62
     0
100
AcDbBlockReference
  2
_DOTBLANK
 10
-22336.11521613997
 20
7911.282433493766
 30
0.0
 41
12.0
 42
12.0
 43
12.0
 50
180.0
  0
INSERT
  5
143C
330
2717
100
AcDbEntity
  8
SIZE
 62
     0
100
AcDbBlockReference
  2
_DOTBLANK
 10
-22021.11521613997
 20
7911.282433493766
 30
0.0
 41
12.0
 42
12.0
 43
12.0
  0
INSERT
  5
143D
330
2717
100
AcDbEntity
  8
0
100
AcDbBlockReference
  2
*U29
 10
0.0
 20
0.0
 30
0.0
  0
POINT
  5
143E
330
2717
100
AcDbEntity
  8
DEFPOINTS
 62
     0
100
AcDbPoint
 10
-22336.11521613997
 20
7685.702971374808
 30
0.0
  0
POINT
  5
143F
330
2717
100
AcDbEntity
  8
DEFPOINTS
 62
     0
100
AcDbPoint
 10
-22021.11521613997
 20
7685.702971374808
 30
0.0
  0
POINT
  5
1440
330
2717
100
AcDbEntity
  8
DEFPOINTS
 62
     0
100
AcDbPoint
 10
-22021.11521613997
 20
7911.282433493766
 30
0.0
  0
ENDBLK
  5
1441
330
2717
100
AcDbEntity
  8
0
100
AcDbBlockEnd
  0
BLOCK
  5
271A
330
2719
100
AcDbEntity
  8
0
100
AcDbBlockBegin
  2
*U29
 70
     1
 10
0.0
 20
0.0
 30
0.0
  3
*U29
  1

  0
TEXT
  5
1F05
330
2719
100
AcDbEntity
  8
SIZE
 62
     0
100
AcDbText
 10
-22247.18664471139
 20
7921.282433493766
 30
0.0
 40
64.0
  1
315
 41
0.9
100
AcDbText
  0
ENDBLK
  5
1F07
330
2719
100
AcDbEntity
  8
0
100
AcDbBlockEnd
  0
BLOCK
  5
271C
330
271B
100
AcDbEntity
  8
0
100
AcDbBlockBegin
  2
*D30
 70
     1
 10
0.0
 20
0.0
 30
0.0
  3
*D30
  1

  0
LINE
  5
166B
330
271B
100
AcDbEntity
  8
SIZE
 62
     0
100
AcDbLine
 10
-134.5
 20
-320.0
 30
0.0
 11
-134.5
 21
-468.0173952306001
 31
0.0
  0
LINE
  5
166C
330
271B
100
AcDbEntity
  8
SIZE
 62
     0
100
AcDbLine
 10
134.5
 20
-320.0
 30
0.0
 11
134.5
 21
-468.0173952306001
 31
0.0
  0
LINE
  5
166D
330
271B
100
AcDbEntity
  8
SIZE
 62
     0
100
AcDbLine
 10
-122.5
 20
-448.0173952306
 30
0.0
 11
122.5
 21
-448.0173952306
 31
0.0
  0
INSERT
  5
166E
330
271B
100
AcDbEntity
  8
SIZE
 62
     0
100
AcDbBlockReference
  2
_DOTBLANK
 10
-134.5
 20
-448.0173952306
 30
0.0
 41
12.0
 42
12.0
 43
12.0
 50
180.0
  0
INSERT
  5
166F
330
271B
100
AcDbEntity
  8
SIZE
 62
     0
100
AcDbBlockReference
  2
_DOTBLANK
 10
134.5
 20
-448.0173952306
 30
0.0
 41
12.0
 42
12.0
 43
12.0
  0
INSERT
  5
1670
330
271B
100
AcDbEntity
  8
0
100
AcDbBlockReference
  2
*U31
 10
0.0
 20
0.0
 30
0.0
  0
POINT
  5
1671
330
271B
100
AcDbEntity
  8
DEFPOINTS
 62
     0
100
AcDbPoint
 10
-134.5
 20
-300.0
 30
0.0
  0
POINT
  5
1672
330
271B
100
AcDbEntity
  8
DEFPOINTS
 62
     0
100
AcDbPoint
 10
134.5
 20
-300.0
 30
0.0
  0
POINT
  5
1673
330
271B
100
AcDbEntity
  8
DEFPOINTS
 62
     0
100
AcDbPoint
 10
134.5
 20
-448.0173952306
 30
0.0
  0
ENDBLK
  5
14A7
330
271B
100
AcDbEntity
  8
0
100
AcDbBlockEnd
  0
BLOCK
  5
271E
330
271D
100
AcDbEntity
  8
0
100
AcDbBlockBegin
  2
*U31
 70
     1
 10
0.0
 20
0.0
 30
0.0
  3
*U31
  1

  0
TEXT
  5
1F09
330
271D
100
AcDbEntity
  8
SIZE
 62
     0
100
AcDbText
 10
-72.68571428571426
 20
-438.0173952306002
 30
0.0
 40
64.0
  1
269
 41
0.9
100
AcDbText
  0
ENDBLK
  5
1F0B
330
271D
100
AcDbEntity
  8
0
100
AcDbBlockEnd
  0
BLOCK
  5
2720
330
271F
100
AcDbEntity
  8
0
100
AcDbBlockBegin
  2
*D32
 70
     1
 10
0.0
 20
0.0
 30
0.0
  3
*D32
  1

  0
LINE
  5
1674
330
271F
100
AcDbEntity
  8
SIZE
  6
Continuous
 62
     0
100
AcDbLine
 10
143.5
 20
-300.0
 30
0.0
 11
304.6432844803784
 21
-300.0
 31
0.0
  0
LINE
  5
1675
330
271F
100
AcDbEntity
  8
SIZE
  6
Continuous
 62
     0
100
AcDbLine
 10
177.5
 20
-0.0000000000000057
 30
0.0
 11
304.6432844803785
 21
-0.0000000000000417
 31
0.0
  0
LINE
  5
1676
330
271F
100
AcDbEntity
  8
SIZE
  6
Continuous
 62
     0
100
AcDbLine
 10
284.6432844803784
 20
-288.0000000000001
 30
0.0
 11
284.6432844803785
 21
-12.00000000000003
 31
0.0
  0
INSERT
  5
1677
330
271F
100
AcDbEntity
  8
SIZE
  6
Continuous
 62
     0
100
AcDbBlockReference
  2
_DOTBLANK
 10
284.6432844803784
 20
-300.0
 30
0.0
 41
12.0
 42
12.0
 43
12.0
 50
270.0
  0
INSERT
  5
1678
330
271F
100
AcDbEntity
  8
SIZE
  6
Continuous
 62
     0
100
AcDbBlockReference
  2
_DOTBLANK
 10
284.6432844803785
 20
-0.000000000000036
 30
0.0
 41
12.0
 42
12.0
 43
12.0
 50
90.0
  0
INSERT
  5
1679
330
271F
100
AcDbEntity
  8
0
100
AcDbBlockReference
  2
*U33
 10
0.0
 20
0.0
 30
0.0
  0
POINT
  5
167A
330
271F
100
AcDbEntity
  8
DEFPOINTS
  6
Continuous
 62
     0
100
AcDbPoint
 10
123.5
 20
-300.0
 30
0.0
  0
POINT
  5
167B
330
271F
100
AcDbEntity
  8
DEFPOINTS
  6
Continuous
 62
     0
100
AcDbPoint
 10
157.5
 20
0.0
 30
0.0
  0
POINT
  5
167C
330
271F
100
AcDbEntity
  8
DEFPOINTS
  6
Continuous
 62
     0
100
AcDbPoint
 10
284.6432844803785
 20
-0.000000000000036
 30
0.0
  0
ENDBLK
  5
14B3
330
271F
100
AcDbEntity
  8
0
100
AcDbBlockEnd
  0
BLOCK
  5
2722
330
2721
100
AcDbEntity
  8
0
100
AcDbBlockBegin
  2
*U33
 70
     1
 10
0.0
 20
0.0
 30
0.0
  3
*U33
  1

  0
TEXT
  5
1F0D
330
2721
100
AcDbEntity
  8
SIZE
 62
     0
100
AcDbText
 10
274.6432844803785
 20
-224.0571428571429
 30
0.0
 40
64.0
  1
300
 50
90.0
 41
0.9
100
AcDbText
  0
ENDBLK
  5
1F0F
330
2721
100
AcDbEntity
  8
0
100
AcDbBlockEnd
  0
BLOCK
  5
2724
330
2723
100
AcDbEntity
  8
0
100
AcDbBlockBegin
  2
*D34
 70
     1
 10
0.0
 20
0.0
 30
0.0
  3
*D34
  1

  0
LINE
  5
167D
330
2723
100
AcDbEntity
  8
SIZE
 62
     0
100
AcDbLine
 10
-140.0
 20
32.46448280219375
 30
0.0
 11
-140.0
 21
136.4516878685507
 31
0.0
  0
LINE
  5
167E
330
2723
100
AcDbEntity
  8
SIZE
 62
     0
100
AcDbLine
 10
140.0
 20
32.46448280219375
 30
0.0
 11
140.0
 21
136.4516878685507
 31
0.0
  0
LINE
  5
167F
330
2723
100
AcDbEntity
  8
SIZE
 62
     0
100
AcDbLine
 10
-128.0
 20
116.4516878685508
 30
0.0
 11
128.0
 21
116.4516878685508
 31
0.0
  0
INSERT
  5
1680
330
2723
100
AcDbEntity
  8
SIZE
 62
     0
100
AcDbBlockReference
  2
_DOTBLANK
 10
-140.0
 20
116.4516878685508
 30
0.0
 41
12.0
 42
12.0
 43
12.0
 50
180.0
  0
INSERT
  5
1681
330
2723
100
AcDbEntity
  8
SIZE
 62
     0
100
AcDbBlockReference
  2
_DOTBLANK
 10
140.0
 20
116.4516878685508
 30
0.0
 41
12.0
 42
12.0
 43
12.0
  0
INSERT
  5
1682
330
2723
100
AcDbEntity
  8
0
100
AcDbBlockReference
  2
*U35
 10
0.0
 20
0.0
 30
0.0
  0
POINT
  5
1683
330
2723
100
AcDbEntity
  8
DEFPOINTS
 62
     0
100
AcDbPoint
 10
-140.0
 20
12.46448280219374
 30
0.0
  0
POINT
  5
1684
330
2723
100
AcDbEntity
  8
DEFPOINTS
 62
     0
100
AcDbPoint
 10
140.0
 20
12.46448280219374
 30
0.0
  0
POINT
  5
1685
330
2723
100
AcDbEntity
  8
DEFPOINTS
 62
     0
100
AcDbPoint
 10
140.0
 20
116.4516878685508
 30
0.0
  0
ENDBLK
  5
14BF
330
2723
100
AcDbEntity
  8
0
100
AcDbBlockEnd
  0
BLOCK
  5
2726
330
2725
100
AcDbEntity
  8
0
100
AcDbBlockBegin
  2
*U35
 70
     1
 10
0.0
 20
0.0
 30
0.0
  3
*U35
  1

  0
TEXT
  5
1F11
330
2725
100
AcDbEntity
  8
SIZE
 62
     0
100
AcDbText
 10
-74.05714285714283
 20
126.4516878685507
 30
0.0
 40
64.0
  1
280
 41
0.9
100
AcDbText
  0
ENDBLK
  5
1F13
330
2725
100
AcDbEntity
  8
0
100
AcDbBlockEnd
  0
BLOCK
  5
2728
330
2727
100
AcDbEntity
  8
0
100
AcDbBlockBegin
  2
*D36
 70
     1
 10
0.0
 20
0.0
 30
0.0
  3
*D36
  1

  0
LINE
  5
1686
330
2727
100
AcDbEntity
  8
SIZE
 62
     0
100
AcDbLine
 10
-157.5
 20
20.0
 30
0.0
 11
-157.5
 21
245.5794621189598
 31
0.0
  0
LINE
  5
1687
330
2727
100
AcDbEntity
  8
SIZE
 62
     0
100
AcDbLine
 10
157.5
 20
20.0
 30
0.0
 11
157.5
 21
245.5794621189598
 31
0.0
  0
LINE
  5
1688
330
2727
100
AcDbEntity
  8
SIZE
 62
     0
100
AcDbLine
 10
-145.5
 20
225.5794621189598
 30
0.0
 11
145.5
 21
225.5794621189598
 31
0.0
  0
INSERT
  5
1689
330
2727
100
AcDbEntity
  8
SIZE
 62
     0
100
AcDbBlockReference
  2
_DOTBLANK
 10
-157.5
 20
225.5794621189598
 30
0.0
 41
12.0
 42
12.0
 43
12.0
 50
180.0
  0
INSERT
  5
168A
330
2727
100
AcDbEntity
  8
SIZE
 62
     0
100
AcDbBlockReference
  2
_DOTBLANK
 10
157.5
 20
225.5794621189598
 30
0.0
 41
12.0
 42
12.0
 43
12.0
  0
INSERT
  5
168B
330
2727
100
AcDbEntity
  8
0
100
AcDbBlockReference
  2
*U37
 10
0.0
 20
0.0
 30
0.0
  0
POINT
  5
168C
330
2727
100
AcDbEntity
  8
DEFPOINTS
 62
     0
100
AcDbPoint
 10
-157.5
 20
0.0
 30
0.0
  0
POINT
  5
168D
330
2727
100
AcDbEntity
  8
DEFPOINTS
 62
     0
100
AcDbPoint
 10
157.5
 20
0.0
 30
0.0
  0
POINT
  5
168E
330
2727
100
AcDbEntity
  8
DEFPOINTS
 62
     0
100
AcDbPoint
 10
157.5
 20
225.5794621189598
 30
0.0
  0
ENDBLK
  5
14CB
330
2727
100
AcDbEntity
  8
0
100
AcDbBlockEnd
  0
BLOCK
  5
272A
330
2729
100
AcDbEntity
  8
0
100
AcDbBlockBegin
  2
*U37
 70
     1
 10
0.0
 20
0.0
 30
0.0
  3
*U37
  1

  0
TEXT
  5
1F15
330
2729
100
AcDbEntity
  8
SIZE
 62
     0
100
AcDbText
 10
-68.57142857142857
 20
235.5794621189598
 30
0.0
 40
64.0
  1
315
 41
0.9
100
AcDbText
  0
ENDBLK
  5
1F17
330
2729
100
AcDbEntity
  8
0
100
AcDbBlockEnd
  0
BLOCK
  5
272C
330
272B
100
AcDbEntity
  8
0
100
AcDbBlockBegin
  2
*U38
 70
     1
 10
0.0
 20
0.0
 30
0.0
  3
*U38
  1

  0
ENDBLK
  5
15CF
330
272B
100
AcDbEntity
  8
0
100
AcDbBlockEnd
  0
BLOCK
  5
272E
330
272D
100
AcDbEntity
  8
0
100
AcDbBlockBegin
  2
*D39
 70
     1
 10
0.0
 20
0.0
 30
0.0
  3
*D39
  1

  0
LINE
  5
1692
330
272D
100
AcDbEntity
  8
SIZE
 62
     0
100
AcDbLine
 10
-25844.51823276502
 20
7685.702971374808
 30
0.0
 11
-25981.04465488371
 21
7685.702971374808
 31
0.0
  0
LINE
  5
1693
330
272D
100
AcDbEntity
  8
SIZE
 62
     0
100
AcDbLine
 10
-25844.51823276502
 20
7677.702971374808
 30
0.0
 11
-25981.04465488371
 21
7677.702971374808
 31
0.0
  0
LINE
  5
1694
330
272D
100
AcDbEntity
  8
SIZE
 62
     0
100
AcDbLine
 10
-25961.04465488371
 20
7697.702971374808
 30
0.0
 11
-25961.04465488371
 21
7709.702971374809
 31
0.0
  0
LINE
  5
1695
330
272D
100
AcDbEntity
  8
SIZE
 62
     0
100
AcDbLine
 10
-25961.04465488371
 20
7665.70297137481
 30
0.0
 11
-25961.04465488371
 21
7595.302971374808
 31
0.0
  0
INSERT
  5
1696
330
272D
100
AcDbEntity
  8
SIZE
 62
     0
100
AcDbBlockReference
  2
_DOTBLANK
 10
-25961.04465488371
 20
7685.702971374808
 30
0.0
 41
12.0
 42
12.0
 43
12.0
 50
270.0
  0
INSERT
  5
1697
330
272D
100
AcDbEntity
  8
SIZE
 62
     0
100
AcDbBlockReference
  2
_DOTBLANK
 10
-25961.04465488371
 20
7677.702971374808
 30
0.0
 41
12.0
 42
12.0
 43
12.0
 50
90.0
  0
INSERT
  5
1698
330
272D
100
AcDbEntity
  8
0
100
AcDbBlockReference
  2
*U40
 10
0.0
 20
0.0
 30
0.0
  0
POINT
  5
1699
330
272D
100
AcDbEntity
  8
DEFPOINTS
 62
     0
100
AcDbPoint
 10
-25824.51823276501
 20
7685.702971374808
 30
0.0
  0
POINT
  5
169A
330
272D
100
AcDbEntity
  8
DEFPOINTS
 62
     0
100
AcDbPoint
 10
-25824.51823276501
 20
7677.702971374808
 30
0.0
  0
POINT
  5
169B
330
272D
100
AcDbEntity
  8
DEFPOINTS
 62
     0
100
AcDbPoint
 10
-25961.04465488371
 20
7677.702971374808
 30
0.0
  0
ENDBLK
  5
169C
330
272D
100
AcDbEntity
  8
0
100
AcDbBlockEnd
  0
BLOCK
  5
2730
330
272F
100
AcDbEntity
  8
0
100
AcDbBlockBegin
  2
*U40
 70
     1
 10
0.0
 20
0.0
 30
0.0
  3
*U40
  1

  0
TEXT
  5
1F19
330
272F
100
AcDbEntity
  8
SIZE
 62
     0
100
AcDbText
 10
-25971.04465488371
 20
7605.302971374804
 30
0.0
 40
64.0
  1
8
 50
90.0
 41
0.9
100
AcDbText
  0
ENDBLK
  5
1F1B
330
272F
100
AcDbEntity
  8
0
100
AcDbBlockEnd
  0
BLOCK
  5
2732
330
2731
100
AcDbEntity
  8
0
100
AcDbBlockBegin
  2
*D41
 70
     1
 10
0.0
 20
0.0
 30
0.0
  3
*D41
  1

  0
LINE
  5
169F
330
2731
100
AcDbEntity
  8
SIZE
 62
     0
100
AcDbLine
 10
-25512.51823276502
 20
7385.702971374808
 30
0.0
 11
-25362.37494828464
 21
7385.702971374808
 31
0.0
  0
LINE
  5
16A0
330
2731
100
AcDbEntity
  8
SIZE
 62
     0
100
AcDbLine
 10
-25523.51823276501
 20
7373.702971374808
 30
0.0
 11
-25362.37494828464
 21
7373.702971374808
 31
0.0
  0
LINE
  5
16A1
330
2731
100
AcDbEntity
  8
SIZE
 62
     0
100
AcDbLine
 10
-25382.37494828464
 20
7397.702971374808
 30
0.0
 11
-25382.37494828464
 21
7409.70297137481
 31
0.0
  0
LINE
  5
16A2
330
2731
100
AcDbEntity
  8
SIZE
 62
     0
100
AcDbLine
 10
-25382.37494828464
 20
7361.702971374808
 30
0.0
 11
-25382.37494828464
 21
7244.674399946237
 31
0.0
  0
INSERT
  5
16A3
330
2731
100
AcDbEntity
  8
SIZE
 62
     0
100
AcDbBlockReference
  2
_DOTBLANK
 10
-25382.37494828464
 20
7385.702971374808
 30
0.0
 41
12.0
 42
12.0
 43
12.0
 50
270.0
  0
INSERT
  5
16A4
330
2731
100
AcDbEntity
  8
SIZE
 62
     0
100
AcDbBlockReference
  2
_DOTBLANK
 10
-25382.37494828464
 20
7373.702971374808
 30
0.0
 41
12.0
 42
12.0
 43
12.0
 50
90.0
  0
INSERT
  5
16A5
330
2731
100
AcDbEntity
  8
0
100
AcDbBlockReference
  2
*U42
 10
0.0
 20
0.0
 30
0.0
  0
POINT
  5
16A6
330
2731
100
AcDbEntity
  8
DEFPOINTS
 62
     0
100
AcDbPoint
 10
-25532.51823276502
 20
7385.702971374808
 30
0.0
  0
POINT
  5
16A7
330
2731
100
AcDbEntity
  8
DEFPOINTS
 62
     0
100
AcDbPoint
 10
-25543.51823276502
 20
7373.702971374808
 30
0.0
  0
POINT
  5
16A8
330
2731
100
AcDbEntity
  8
DEFPOINTS
 62
     0
100
AcDbPoint
 10
-25382.37494828464
 20
7373.702971374808
 30
0.0
  0
ENDBLK
  5
16A9
330
2731
100
AcDbEntity
  8
0
100
AcDbBlockEnd
  0
BLOCK
  5
2734
330
2733
100
AcDbEntity
  8
0
100
AcDbBlockBegin
  2
*U42
 70
     1
 10
0.0
 20
0.0
 30
0.0
  3
*U42
  1

  0
TEXT
  5
1F1D
330
2733
100
AcDbEntity
  8
SIZE
 62
     0
100
AcDbText
 10
-25392.37494828464
 20
7256.045828517662
 30
0.0
 40
64.0
  1
12
 50
90.0
 41
0.9
100
AcDbText
  0
ENDBLK
  5
1F1F
330
2733
100
AcDbEntity
  8
0
100
AcDbBlockEnd
  0
BLOCK
  5
2736
330
2735
100
AcDbEntity
  8
0
100
AcDbBlockBegin
  2
*D43
 70
     1
 10
0.0
 20
0.0
 30
0.0
  3
*D43
  1

  0
LINE
  5
16AC
330
2735
100
AcDbEntity
  8
SIZE
 62
     0
100
AcDbLine
 10
-25801.51823276501
 20
7365.702971374808
 30
0.0
 11
-25801.51823276501
 21
7217.685576144207
 31
0.0
  0
LINE
  5
16AD
330
2735
100
AcDbEntity
  8
SIZE
 62
     0
100
AcDbLine
 10
-25532.51823276502
 20
7365.702971374808
 30
0.0
 11
-25532.51823276502
 21
7217.685576144207
 31
0.0
  0
LINE
  5
16AE
330
2735
100
AcDbEntity
  8
SIZE
 62
     0
100
AcDbLine
 10
-25789.51823276502
 20
7237.685576144207
 30
0.0
 11
-25544.51823276501
 21
7237.685576144207
 31
0.0
  0
INSERT
  5
16AF
330
2735
100
AcDbEntity
  8
SIZE
 62
     0
100
AcDbBlockReference
  2
_DOTBLANK
 10
-25801.51823276501
 20
7237.685576144207
 30
0.0
 41
12.0
 42
12.0
 43
12.0
 50
180.0
  0
INSERT
  5
16B0
330
2735
100
AcDbEntity
  8
SIZE
 62
     0
100
AcDbBlockReference
  2
_DOTBLANK
 10
-25532.51823276502
 20
7237.685576144207
 30
0.0
 41
12.0
 42
12.0
 43
12.0
  0
INSERT
  5
16B1
330
2735
100
AcDbEntity
  8
0
100
AcDbBlockReference
  2
*U44
 10
0.0
 20
0.0
 30
0.0
  0
POINT
  5
16B2
330
2735
100
AcDbEntity
  8
DEFPOINTS
 62
     0
100
AcDbPoint
 10
-25801.51823276501
 20
7385.702971374808
 30
0.0
  0
POINT
  5
16B3
330
2735
100
AcDbEntity
  8
DEFPOINTS
 62
     0
100
AcDbPoint
 10
-25532.51823276502
 20
7385.702971374808
 30
0.0
  0
POINT
  5
16B4
330
2735
100
AcDbEntity
  8
DEFPOINTS
 62
     0
100
AcDbPoint
 10
-25532.51823276502
 20
7237.685576144207
 30
0.0
  0
ENDBLK
  5
16B5
330
2735
100
AcDbEntity
  8
0
100
AcDbBlockEnd
  0
BLOCK
  5
2738
330
2737
100
AcDbEntity
  8
0
100
AcDbBlockBegin
  2
*U44
 70
     1
 10
0.0
 20
0.0
 30
0.0
  3
*U44
  1

  0
TEXT
  5
1F21
330
2737
100
AcDbEntity
  8
SIZE
 62
     0
100
AcDbText
 10
-25739.70394705074
 20
7247.685576144205
 30
0.0
 40
64.0
  1
269
 41
0.9
100
AcDbText
  0
ENDBLK
  5
1F23
330
2737
100
AcDbEntity
  8
0
100
AcDbBlockEnd
  0
BLOCK
  5
273A
330
2739
100
AcDbEntity
  8
0
100
AcDbBlockBegin
  2
*D45
 70
     1
 10
0.0
 20
0.0
 30
0.0
  3
*D45
  1

  0
LINE
  5
16B8
330
2739
100
AcDbEntity
  8
SIZE
 62
     0
100
AcDbLine
 10
-25512.51823276502
 20
7385.702971374808
 30
0.0
 11
-25362.37494828464
 21
7385.702971374808
 31
0.0
  0
LINE
  5
16B9
330
2739
100
AcDbEntity
  8
SIZE
 62
     0
100
AcDbLine
 10
-25489.51823276501
 20
7685.702971374808
 30
0.0
 11
-25362.37494828464
 21
7685.702971374808
 31
0.0
  0
LINE
  5
16BA
330
2739
100
AcDbEntity
  8
SIZE
 62
     0
100
AcDbLine
 10
-25382.37494828464
 20
7397.702971374808
 30
0.0
 11
-25382.37494828464
 21
7673.702971374808
 31
0.0
  0
INSERT
  5
16BB
330
2739
100
AcDbEntity
  8
SIZE
 62
     0
100
AcDbBlockReference
  2
_DOTBLANK
 10
-25382.37494828464
 20
7385.702971374808
 30
0.0
 41
12.0
 42
12.0
 43
12.0
 50
270.0
  0
INSERT
  5
16BC
330
2739
100
AcDbEntity
  8
SIZE
 62
     0
100
AcDbBlockReference
  2
_DOTBLANK
 10
-25382.37494828464
 20
7685.702971374808
 30
0.0
 41
12.0
 42
12.0
 43
12.0
 50
90.0
  0
INSERT
  5
16BD
330
2739
100
AcDbEntity
  8
0
100
AcDbBlockReference
  2
*U46
 10
0.0
 20
0.0
 30
0.0
  0
POINT
  5
16BE
330
2739
100
AcDbEntity
  8
DEFPOINTS
 62
     0
100
AcDbPoint
 10
-25532.51823276502
 20
7385.702971374808
 30
0.0
  0
POINT
  5
16BF
330
2739
100
AcDbEntity
  8
DEFPOINTS
 62
     0
100
AcDbPoint
 10
-25509.51823276502
 20
7685.702971374808
 30
0.0
  0
POINT
  5
16C0
330
2739
100
AcDbEntity
  8
DEFPOINTS
 62
     0
100
AcDbPoint
 10
-25382.37494828464
 20
7685.702971374808
 30
0.0
  0
ENDBLK
  5
16C1
330
2739
100
AcDbEntity
  8
0
100
AcDbBlockEnd
  0
BLOCK
  5
273C
330
273B
100
AcDbEntity
  8
0
100
AcDbBlockBegin
  2
*U46
 70
     1
 10
0.0
 20
0.0
 30
0.0
  3
*U46
  1

  0
TEXT
  5
1F25
330
273B
100
AcDbEntity
  8
SIZE
 62
     0
100
AcDbText
 10
-25392.37494828464
 20
7461.645828517662
 30
0.0
 40
64.0
  1
300
 50
90.0
 41
0.9
100
AcDbText
  0
ENDBLK
  5
1F27
330
273B
100
AcDbEntity
  8
0
100
AcDbBlockEnd
  0
BLOCK
  5
273E
330
273D
100
AcDbEntity
  8
0
100
AcDbBlockBegin
  2
*D47
 70
     1
 10
0.0
 20
0.0
 30
0.0
  3
*D47
  1

  0
LINE
  5
16C4
330
273D
100
AcDbEntity
  8
SIZE
 62
     0
100
AcDbLine
 10
-25807.01823276501
 20
7718.167454177002
 30
0.0
 11
-25807.01823276501
 21
7822.154659243358
 31
0.0
  0
LINE
  5
16C5
330
273D
100
AcDbEntity
  8
SIZE
 62
     0
100
AcDbLine
 10
-25527.01823276501
 20
7718.167454177002
 30
0.0
 11
-25527.01823276501
 21
7822.154659243358
 31
0.0
  0
LINE
  5
16C6
330
273D
100
AcDbEntity
  8
SIZE
 62
     0
100
AcDbLine
 10
-25795.01823276502
 20
7802.154659243358
 30
0.0
 11
-25539.01823276501
 21
7802.154659243358
 31
0.0
  0
INSERT
  5
16C7
330
273D
100
AcDbEntity
  8
SIZE
 62
     0
100
AcDbBlockReference
  2
_DOTBLANK
 10
-25807.01823276501
 20
7802.154659243358
 30
0.0
 41
12.0
 42
12.0
 43
12.0
 50
180.0
  0
INSERT
  5
16C8
330
273D
100
AcDbEntity
  8
SIZE
 62
     0
100
AcDbBlockReference
  2
_DOTBLANK
 10
-25527.01823276501
 20
7802.154659243358
 30
0.0
 41
12.0
 42
12.0
 43
12.0
  0
INSERT
  5
16C9
330
273D
100
AcDbEntity
  8
0
100
AcDbBlockReference
  2
*U48
 10
0.0
 20
0.0
 30
0.0
  0
POINT
  5
16CA
330
273D
100
AcDbEntity
  8
DEFPOINTS
 62
     0
100
AcDbPoint
 10
-25807.01823276501
 20
7698.167454177002
 30
0.0
  0
POINT
  5
16CB
330
273D
100
AcDbEntity
  8
DEFPOINTS
 62
     0
100
AcDbPoint
 10
-25527.01823276501
 20
7698.167454177002
 30
0.0
  0
POINT
  5
16CC
330
273D
100
AcDbEntity
  8
DEFPOINTS
 62
     0
100
AcDbPoint
 10
-25527.01823276501
 20
7802.154659243358
 30
0.0
  0
ENDBLK
  5
16CD
330
273D
100
AcDbEntity
  8
0
100
AcDbBlockEnd
  0
BLOCK
  5
2740
330
273F
100
AcDbEntity
  8
0
100
AcDbBlockBegin
  2
*U48
 70
     1
 10
0.0
 20
0.0
 30
0.0
  3
*U48
  1

  0
TEXT
  5
1F29
330
273F
100
AcDbEntity
  8
SIZE
 62
     0
100
AcDbText
 10
-25741.07537562216
 20
7812.154659243358
 30
0.0
 40
64.0
  1
280
 41
0.9
100
AcDbText
  0
ENDBLK
  5
1F2B
330
273F
100
AcDbEntity
  8
0
100
AcDbBlockEnd
  0
BLOCK
  5
2742
330
2741
100
AcDbEntity
  8
0
100
AcDbBlockBegin
  2
*D49
 70
     1
 10
0.0
 20
0.0
 30
0.0
  3
*D49
  1

  0
LINE
  5
16D0
330
2741
100
AcDbEntity
  8
SIZE
 62
     0
100
AcDbLine
 10
-25824.51823276501
 20
7705.702971374808
 30
0.0
 11
-25824.51823276501
 21
7931.282433493766
 31
0.0
  0
LINE
  5
16D1
330
2741
100
AcDbEntity
  8
SIZE
 62
     0
100
AcDbLine
 10
-25509.51823276502
 20
7705.702971374808
 30
0.0
 11
-25509.51823276502
 21
7931.282433493766
 31
0.0
  0
LINE
  5
16D2
330
2741
100
AcDbEntity
  8
SIZE
 62
     0
100
AcDbLine
 10
-25812.51823276502
 20
7911.282433493766
 30
0.0
 11
-25521.51823276501
 21
7911.282433493766
 31
0.0
  0
INSERT
  5
16D3
330
2741
100
AcDbEntity
  8
SIZE
 62
     0
100
AcDbBlockReference
  2
_DOTBLANK
 10
-25824.51823276501
 20
7911.282433493766
 30
0.0
 41
12.0
 42
12.0
 43
12.0
 50
180.0
  0
INSERT
  5
16D4
330
2741
100
AcDbEntity
  8
SIZE
 62
     0
100
AcDbBlockReference
  2
_DOTBLANK
 10
-25509.51823276502
 20
7911.282433493766
 30
0.0
 41
12.0
 42
12.0
 43
12.0
  0
INSERT
  5
16D5
330
2741
100
AcDbEntity
  8
0
100
AcDbBlockReference
  2
*U50
 10
0.0
 20
0.0
 30
0.0
  0
POINT
  5
16D6
330
2741
100
AcDbEntity
  8
DEFPOINTS
 62
     0
100
AcDbPoint
 10
-25824.51823276501
 20
7685.702971374808
 30
0.0
  0
POINT
  5
16D7
330
2741
100
AcDbEntity
  8
DEFPOINTS
 62
     0
100
AcDbPoint
 10
-25509.51823276502
 20
7685.702971374808
 30
0.0
  0
POINT
  5
16D8
330
2741
100
AcDbEntity
  8
DEFPOINTS
 62
     0
100
AcDbPoint
 10
-25509.51823276502
 20
7911.282433493766
 30
0.0
  0
ENDBLK
  5
16D9
330
2741
100
AcDbEntity
  8
0
100
AcDbBlockEnd
  0
BLOCK
  5
2744
330
2743
100
AcDbEntity
  8
0
100
AcDbBlockBegin
  2
*U50
 70
     1
 10
0.0
 20
0.0
 30
0.0
  3
*U50
  1

  0
TEXT
  5
1F2D
330
2743
100
AcDbEntity
  8
SIZE
 62
     0
100
AcDbText
 10
-25735.58966133645
 20
7921.282433493766
 30
0.0
 40
64.0
  1
315
 41
0.9
100
AcDbText
  0
ENDBLK
  5
1F2F
330
2743
100
AcDbEntity
  8
0
100
AcDbBlockEnd
  0
BLOCK
  5
2746
330
2745
100
AcDbEntity
  8
0
100
AcDbBlockBegin
  2
*D51
 70
     1
 10
0.0
 20
0.0
 30
0.0
  3
*D51
  1

  0
LINE
  5
1D83
330
2745
100
AcDbEntity
  8
SIZE
 62
     0
100
AcDbLine
 10
-134.5
 20
-320.0
 30
0.0
 11
-134.5
 21
-468.0173952306001
 31
0.0
  0
LINE
  5
1D84
330
2745
100
AcDbEntity
  8
SIZE
 62
     0
100
AcDbLine
 10
134.5
 20
-320.0
 30
0.0
 11
134.5
 21
-468.0173952306001
 31
0.0
  0
LINE
  5
1D85
330
2745
100
AcDbEntity
  8
SIZE
 62
     0
100
AcDbLine
 10
-122.5
 20
-448.0173952306
 30
0.0
 11
122.5
 21
-448.0173952306
 31
0.0
  0
INSERT
  5
1D86
330
2745
100
AcDbEntity
  8
SIZE
 62
     0
100
AcDbBlockReference
  2
_DOTBLANK
 10
-134.5
 20
-448.0173952306
 30
0.0
 41
12.0
 42
12.0
 43
12.0
 50
180.0
  0
INSERT
  5
1D87
330
2745
100
AcDbEntity
  8
SIZE
 62
     0
100
AcDbBlockReference
  2
_DOTBLANK
 10
134.5
 20
-448.0173952306
 30
0.0
 41
12.0
 42
12.0
 43
12.0
  0
INSERT
  5
1D88
330
2745
100
AcDbEntity
  8
0
100
AcDbBlockReference
  2
*U52
 10
0.0
 20
0.0
 30
0.0
  0
POINT
  5
1D89
330
2745
100
AcDbEntity
  8
DEFPOINTS
 62
     0
100
AcDbPoint
 10
-134.5
 20
-300.0
 30
0.0
  0
POINT
  5
1D8A
330
2745
100
AcDbEntity
  8
DEFPOINTS
 62
     0
100
AcDbPoint
 10
134.5
 20
-300.0
 30
0.0
  0
POINT
  5
1D8B
330
2745
100
AcDbEntity
  8
DEFPOINTS
 62
     0
100
AcDbPoint
 10
134.5
 20
-448.0173952306
 30
0.0
  0
ENDBLK
  5
173D
330
2745
100
AcDbEntity
  8
0
100
AcDbBlockEnd
  0
BLOCK
  5
2748
330
2747
100
AcDbEntity
  8
0
100
AcDbBlockBegin
  2
*U52
 70
     1
 10
0.0
 20
0.0
 30
0.0
  3
*U52
  1

  0
TEXT
  5
1F31
330
2747
100
AcDbEntity
  8
SIZE
 62
     0
100
AcDbText
 10
-72.68571428571426
 20
-438.0173952306003
 30
0.0
 40
64.0
  1
269
 41
0.9
100
AcDbText
  0
ENDBLK
  5
1F33
330
2747
100
AcDbEntity
  8
0
100
AcDbBlockEnd
  0
BLOCK
  5
274A
330
2749
100
AcDbEntity
  8
0
100
AcDbBlockBegin
  2
*D53
 70
     1
 10
0.0
 20
0.0
 30
0.0
  3
*D53
  1

  0
LINE
  5
1D8C
330
2749
100
AcDbEntity
  8
SIZE
 62
     0
100
AcDbLine
 10
154.5
 20
-300.0
 30
0.0
 11
304.6432844803784
 21
-300.0
 31
0.0
  0
LINE
  5
1D8D
330
2749
100
AcDbEntity
  8
SIZE
 62
     0
100
AcDbLine
 10
177.5
 20
-0.0000000000000057
 30
0.0
 11
304.6432844803785
 21
-0.0000000000000417
 31
0.0
  0
LINE
  5
1D8E
330
2749
100
AcDbEntity
  8
SIZE
 62
     0
100
AcDbLine
 10
284.6432844803784
 20
-288.0
 30
0.0
 11
284.6432844803785
 21
-12.00000000000003
 31
0.0
  0
INSERT
  5
1D8F
330
2749
100
AcDbEntity
  8
SIZE
 62
     0
100
AcDbBlockReference
  2
_DOTBLANK
 10
284.6432844803784
 20
-300.0
 30
0.0
 41
12.0
 42
12.0
 43
12.0
 50
270.0
  0
INSERT
  5
1D90
330
2749
100
AcDbEntity
  8
SIZE
 62
     0
100
AcDbBlockReference
  2
_DOTBLANK
 10
284.6432844803785
 20
-0.000000000000036
 30
0.0
 41
12.0
 42
12.0
 43
12.0
 50
90.0
  0
INSERT
  5
1D91
330
2749
100
AcDbEntity
  8
0
100
AcDbBlockReference
  2
*U54
 10
0.0
 20
0.0
 30
0.0
  0
POINT
  5
1D92
330
2749
100
AcDbEntity
  8
DEFPOINTS
 62
     0
100
AcDbPoint
 10
134.5
 20
-300.0
 30
0.0
  0
POINT
  5
1D93
330
2749
100
AcDbEntity
  8
DEFPOINTS
 62
     0
100
AcDbPoint
 10
157.5
 20
0.0
 30
0.0
  0
POINT
  5
1D94
330
2749
100
AcDbEntity
  8
DEFPOINTS
 62
     0
100
AcDbPoint
 10
284.6432844803785
 20
-0.000000000000036
 30
0.0
  0
ENDBLK
  5
1749
330
2749
100
AcDbEntity
  8
0
100
AcDbBlockEnd
  0
BLOCK
  5
274C
330
274B
100
AcDbEntity
  8
0
100
AcDbBlockBegin
  2
*U54
 70
     1
 10
0.0
 20
0.0
 30
0.0
  3
*U54
  1

  0
TEXT
  5
1F35
330
274B
100
AcDbEntity
  8
SIZE
 62
     0
100
AcDbText
 10
274.6432844803785
 20
-224.0571428571429
 30
0.0
 40
64.0
  1
300
 50
90.0
 41
0.9
100
AcDbText
  0
ENDBLK
  5
1F37
330
274B
100
AcDbEntity
  8
0
100
AcDbBlockEnd
  0
BLOCK
  5
274E
330
274D
100
AcDbEntity
  8
0
100
AcDbBlockBegin
  2
*D55
 70
     1
 10
0.0
 20
0.0
 30
0.0
  3
*D55
  1

  0
LINE
  5
1D95
330
274D
100
AcDbEntity
  8
SIZE
 62
     0
100
AcDbLine
 10
-140.0
 20
32.46448280219375
 30
0.0
 11
-140.0
 21
136.4516878685508
 31
0.0
  0
LINE
  5
1D96
330
274D
100
AcDbEntity
  8
SIZE
 62
     0
100
AcDbLine
 10
140.0
 20
32.46448280219375
 30
0.0
 11
140.0
 21
136.4516878685508
 31
0.0
  0
LINE
  5
1D97
330
274D
100
AcDbEntity
  8
SIZE
 62
     0
100
AcDbLine
 10
-128.0
 20
116.4516878685508
 30
0.0
 11
128.0
 21
116.4516878685508
 31
0.0
  0
INSERT
  5
1D98
330
274D
100
AcDbEntity
  8
SIZE
 62
     0
100
AcDbBlockReference
  2
_DOTBLANK
 10
-140.0
 20
116.4516878685508
 30
0.0
 41
12.0
 42
12.0
 43
12.0
 50
180.0
  0
INSERT
  5
1D99
330
274D
100
AcDbEntity
  8
SIZE
 62
     0
100
AcDbBlockReference
  2
_DOTBLANK
 10
140.0
 20
116.4516878685508
 30
0.0
 41
12.0
 42
12.0
 43
12.0
  0
INSERT
  5
1D9A
330
274D
100
AcDbEntity
  8
0
100
AcDbBlockReference
  2
*U56
 10
0.0
 20
0.0
 30
0.0
  0
POINT
  5
1D9B
330
274D
100
AcDbEntity
  8
DEFPOINTS
 62
     0
100
AcDbPoint
 10
-140.0
 20
12.46448280219374
 30
0.0
  0
POINT
  5
1D9C
330
274D
100
AcDbEntity
  8
DEFPOINTS
 62
     0
100
AcDbPoint
 10
140.0
 20
12.46448280219374
 30
0.0
  0
POINT
  5
1D9D
330
274D
100
AcDbEntity
  8
DEFPOINTS
 62
     0
100
AcDbPoint
 10
140.0
 20
116.4516878685508
 30
0.0
  0
ENDBLK
  5
1755
330
274D
100
AcDbEntity
  8
0
100
AcDbBlockEnd
  0
BLOCK
  5
2750
330
274F
100
AcDbEntity
  8
0
100
AcDbBlockBegin
  2
*U56
 70
     1
 10
0.0
 20
0.0
 30
0.0
  3
*U56
  1

  0
TEXT
  5
1F39
330
274F
100
AcDbEntity
  8
SIZE
 62
     0
100
AcDbText
 10
-74.05714285714283
 20
126.4516878685508
 30
0.0
 40
64.0
  1
280
 41
0.9
100
AcDbText
  0
ENDBLK
  5
1F3B
330
274F
100
AcDbEntity
  8
0
100
AcDbBlockEnd
  0
BLOCK
  5
2752
330
2751
100
AcDbEntity
  8
0
100
AcDbBlockBegin
  2
*D57
 70
     1
 10
0.0
 20
0.0
 30
0.0
  3
*D57
  1

  0
LINE
  5
1D9E
330
2751
100
AcDbEntity
  8
SIZE
 62
     0
100
AcDbLine
 10
-157.5
 20
20.0
 30
0.0
 11
-157.5
 21
245.5794621189598
 31
0.0
  0
LINE
  5
1D9F
330
2751
100
AcDbEntity
  8
SIZE
 62
     0
100
AcDbLine
 10
157.5
 20
20.0
 30
0.0
 11
157.5
 21
245.5794621189598
 31
0.0
  0
LINE
  5
1DA0
330
2751
100
AcDbEntity
  8
SIZE
 62
     0
100
AcDbLine
 10
-145.5
 20
225.5794621189598
 30
0.0
 11
145.5
 21
225.5794621189598
 31
0.0
  0
INSERT
  5
1DA1
330
2751
100
AcDbEntity
  8
SIZE
 62
     0
100
AcDbBlockReference
  2
_DOTBLANK
 10
-157.5
 20
225.5794621189598
 30
0.0
 41
12.0
 42
12.0
 43
12.0
 50
180.0
  0
INSERT
  5
1DA2
330
2751
100
AcDbEntity
  8
SIZE
 62
     0
100
AcDbBlockReference
  2
_DOTBLANK
 10
157.5
 20
225.5794621189598
 30
0.0
 41
12.0
 42
12.0
 43
12.0
  0
INSERT
  5
1DA3
330
2751
100
AcDbEntity
  8
0
100
AcDbBlockReference
  2
*U58
 10
0.0
 20
0.0
 30
0.0
  0
POINT
  5
1DA4
330
2751
100
AcDbEntity
  8
DEFPOINTS
 62
     0
100
AcDbPoint
 10
-157.5
 20
0.0
 30
0.0
  0
POINT
  5
1DA5
330
2751
100
AcDbEntity
  8
DEFPOINTS
 62
     0
100
AcDbPoint
 10
157.5
 20
0.0
 30
0.0
  0
POINT
  5
1DA6
330
2751
100
AcDbEntity
  8
DEFPOINTS
 62
     0
100
AcDbPoint
 10
157.5
 20
225.5794621189598
 30
0.0
  0
ENDBLK
  5
1761
330
2751
100
AcDbEntity
  8
0
100
AcDbBlockEnd
  0
BLOCK
  5
2754
330
2753
100
AcDbEntity
  8
0
100
AcDbBlockBegin
  2
*U58
 70
     1
 10
0.0
 20
0.0
 30
0.0
  3
*U58
  1

  0
TEXT
  5
1F3D
330
2753
100
AcDbEntity
  8
SIZE
 62
     0
100
AcDbText
 10
-68.57142857142857
 20
235.5794621189599
 30
0.0
 40
64.0
  1
315
 41
0.9
100
AcDbText
  0
ENDBLK
  5
1F3F
330
2753
100
AcDbEntity
  8
0
100
AcDbBlockEnd
  0
BLOCK
  5
2756
330
2755
100
AcDbEntity
  8
0
100
AcDbBlockBegin
  2
*D59
 70
     1
 10
0.0
 20
0.0
 30
0.0
  3
*D59
  1

  0
LINE
  5
1DA7
330
2755
100
AcDbEntity
  8
SIZE
 62
     0
100
AcDbLine
 10
-177.5
 20
0.0000000000000057
 30
0.0
 11
-314.0264221186908
 21
0.0000000000000443
 31
0.0
  0
LINE
  5
1DA8
330
2755
100
AcDbEntity
  8
SIZE
 62
     0
100
AcDbLine
 10
-177.5
 20
-7.999999999999995
 30
0.0
 11
-314.0264221186908
 21
-7.999999999999958
 31
0.0
  0
LINE
  5
1DA9
330
2755
100
AcDbEntity
  8
SIZE
 62
     0
100
AcDbLine
 10
-294.0264221186908
 20
12.00000000000003
 30
0.0
 11
-294.0264221186908
 21
24.00000000000004
 31
0.0
  0
LINE
  5
1DAA
330
2755
100
AcDbEntity
  8
SIZE
 62
     0
100
AcDbLine
 10
-294.0264221186908
 20
-19.99999999999996
 30
0.0
 11
-294.0264221186908
 21
-90.39999999999997
 31
0.0
  0
INSERT
  5
1DAB
330
2755
100
AcDbEntity
  8
SIZE
 62
     0
100
AcDbBlockReference
  2
_DOTBLANK
 10
-294.0264221186908
 20
0.0000000000000387
 30
0.0
 41
12.0
 42
12.0
 43
12.0
 50
270.0
  0
INSERT
  5
1DAC
330
2755
100
AcDbEntity
  8
SIZE
 62
     0
100
AcDbBlockReference
  2
_DOTBLANK
 10
-294.0264221186908
 20
-7.999999999999961
 30
0.0
 41
12.0
 42
12.0
 43
12.0
 50
90.0
  0
INSERT
  5
1DAD
330
2755
100
AcDbEntity
  8
0
100
AcDbBlockReference
  2
*U60
 10
0.0
 20
0.0
 30
0.0
  0
POINT
  5
1DAE
330
2755
100
AcDbEntity
  8
DEFPOINTS
 62
     0
100
AcDbPoint
 10
-157.5
 20
0.0
 30
0.0
  0
POINT
  5
1DAF
330
2755
100
AcDbEntity
  8
DEFPOINTS
 62
     0
100
AcDbPoint
 10
-157.5
 20
-8.000000000000003
 30
0.0
  0
POINT
  5
1DB0
330
2755
100
AcDbEntity
  8
DEFPOINTS
 62
     0
100
AcDbPoint
 10
-294.0264221186908
 20
-7.999999999999961
 30
0.0
  0
ENDBLK
  5
176D
330
2755
100
AcDbEntity
  8
0
100
AcDbBlockEnd
  0
BLOCK
  5
2758
330
2757
100
AcDbEntity
  8
0
100
AcDbBlockBegin
  2
*U60
 70
     1
 10
0.0
 20
0.0
 30
0.0
  3
*U60
  1

  0
TEXT
  5
1F41
330
2757
100
AcDbEntity
  8
SIZE
 62
     0
100
AcDbText
 10
-304.0264221186908
 20
-80.4
 30
0.0
 40
64.0
  1
8
 50
90.0
 41
0.9
100
AcDbText
  0
ENDBLK
  5
1F43
330
2757
100
AcDbEntity
  8
0
100
AcDbBlockEnd
  0
BLOCK
  5
275A
330
2759
100
AcDbEntity
  8
0
100
AcDbBlockBegin
  2
*D61
 70
     1
 10
0.0
 20
0.0
 30
0.0
  3
*D61
  1

  0
LINE
  5
1DB1
330
2759
100
AcDbEntity
  8
SIZE
 62
     0
100
AcDbLine
 10
154.5
 20
-300.0
 30
0.0
 11
304.6432844803785
 21
-300.0
 31
0.0
  0
LINE
  5
1DB2
330
2759
100
AcDbEntity
  8
SIZE
 62
     0
100
AcDbLine
 10
143.5
 20
-312.0
 30
0.0
 11
304.6432844803785
 21
-312.0
 31
0.0
  0
LINE
  5
1DB3
330
2759
100
AcDbEntity
  8
SIZE
 62
     0
100
AcDbLine
 10
284.6432844803785
 20
-288.0
 30
0.0
 11
284.6432844803785
 21
-276.0
 31
0.0
  0
LINE
  5
1DB4
330
2759
100
AcDbEntity
  8
SIZE
 62
     0
100
AcDbLine
 10
284.6432844803785
 20
-324.0000000000001
 30
0.0
 11
284.6432844803784
 21
-438.2857142857143
 31
0.0
  0
INSERT
  5
1DB5
330
2759
100
AcDbEntity
  8
SIZE
 62
     0
100
AcDbBlockReference
  2
_DOTBLANK
 10
284.6432844803785
 20
-300.0
 30
0.0
 41
12.0
 42
12.0
 43
12.0
 50
270.0
  0
INSERT
  5
1DB6
330
2759
100
AcDbEntity
  8
SIZE
 62
     0
100
AcDbBlockReference
  2
_DOTBLANK
 10
284.6432844803785
 20
-312.0
 30
0.0
 41
12.0
 42
12.0
 43
12.0
 50
90.0
  0
INSERT
  5
1DB7
330
2759
100
AcDbEntity
  8
0
100
AcDbBlockReference
  2
*U62
 10
0.0
 20
0.0
 30
0.0
  0
POINT
  5
1DB8
330
2759
100
AcDbEntity
  8
DEFPOINTS
 62
     0
100
AcDbPoint
 10
134.5
 20
-300.0
 30
0.0
  0
POINT
  5
1DB9
330
2759
100
AcDbEntity
  8
DEFPOINTS
 62
     0
100
AcDbPoint
 10
123.5
 20
-312.0
 30
0.0
  0
POINT
  5
1DBA
330
2759
100
AcDbEntity
  8
DEFPOINTS
 62
     0
100
AcDbPoint
 10
284.6432844803785
 20
-312.0
 30
0.0
  0
ENDBLK
  5
177B
330
2759
100
AcDbEntity
  8
0
100
AcDbBlockEnd
  0
BLOCK
  5
275C
330
275B
100
AcDbEntity
  8
0
100
AcDbBlockBegin
  2
*U62
 70
     1
 10
0.0
 20
0.0
 30
0.0
  3
*U62
  1

  0
TEXT
  5
1F45
330
275B
100
AcDbEntity
  8
SIZE
 62
     0
100
AcDbText
 10
274.6432844803785
 20
-428.2857142857142
 30
0.0
 40
64.0
  1
12
 50
90.0
 41
0.9
100
AcDbText
  0
ENDBLK
  5
1F47
330
275B
100
AcDbEntity
  8
0
100
AcDbBlockEnd
  0
BLOCK
  5
275E
330
275D
100
AcDbEntity
  8
0
100
AcDbBlockBegin
  2
*U63
 70
     1
 10
0.0
 20
0.0
 30
0.0
  3
*U63
  1

  0
ENDBLK
  5
1D57
330
275D
100
AcDbEntity
  8
0
100
AcDbBlockEnd
  0
BLOCK
  5
2760
330
275F
100
AcDbEntity
  8
0
100
AcDbBlockBegin
  2
*U64
 70
     1
 10
0.0
 20
0.0
 30
0.0
  3
*U64
  1

  0
INSERT
  5
2087
330
275F
100
AcDbEntity
  8
NOTE
100
AcDbBlockReference
  2
_OPEN30
 10
-140.0
 20
0.0
 30
0.0
 41
12.0
 42
12.0
 43
12.0
 50
312.6090116116894
  0
POLYLINE
  5
2088
330
275F
100
AcDbEntity
  8
NOTE
100
AcDb2dPolyline
 66
     1
 10
0.0
 20
0.0
 30
0.0
  0
VERTEX
  5
25F5
330
2088
100
AcDbEntity
  8
NOTE
100
AcDbVertex
100
AcDb2dVertex
 10
-148.1239008361894
 20
8.831887408915472
 30
0.0
  0
VERTEX
  5
25F6
330
2088
100
AcDbEntity
  8
NOTE
100
AcDbVertex
100
AcDb2dVertex
 10
-227.8693999922543
 20
95.52709505801338
 30
0.0
  0
VERTEX
  5
25F7
330
2088
100
AcDbEntity
  8
NOTE
100
AcDbVertex
100
AcDb2dVertex
 10
-773.7093999922541
 20
95.52709505801338
 30
0.0
  0
SEQEND
  5
25F8
330
2088
100
AcDbEntity
  8
NOTE
  0
ENDBLK
  5
2089
330
275F
100
AcDbEntity
  8
0
100
AcDbBlockEnd
  0
BLOCK
  5
2762
330
2761
100
AcDbEntity
  8
0
100
AcDbBlockBegin
  2
*U65
 70
     1
 10
0.0
 20
0.0
 30
0.0
  3
*U65
  1

  0
TEXT
  5
208C
330
2761
100
AcDbEntity
  8
NOTE
100
AcDbText
 10
-773.7093999922541
 20
113.5270950580134
 30
0.0
 40
64.0
  1
4×φ10取付穴
 41
0.9
100
AcDbText
  0
ENDBLK
  5
208D
330
2761
100
AcDbEntity
  8
0
100
AcDbBlockEnd
  0
BLOCK
  5
2764
330
2763
100
AcDbEntity
  8
0
100
AcDbBlockBegin
  2
*U66
 70
     1
 10
0.0
 20
0.0
 30
0.0
  3
*U66
  1

  0
INSERT
  5
215B
330
2763
100
AcDbEntity
  8
NOTE
100
AcDbBlockReference
  2
_OPEN30
 10
140.0
 20
140.0
 30
0.0
 41
12.0
 42
12.0
 43
12.0
 50
230.7091310502217
  0
POLYLINE
  5
215C
330
2763
100
AcDbEntity
  8
NOTE
100
AcDb2dPolyline
 66
     1
 10
0.0
 20
0.0
 30
0.0
  0
VERTEX
  5
25F9
330
215C
100
AcDbEntity
  8
NOTE
100
AcDbVertex
100
AcDb2dVertex
 10
147.599090480922
 20
149.2872936780722
 30
0.0
  0
VERTEX
  5
25FA
330
215C
100
AcDbEntity
  8
NOTE
100
AcDbVertex
100
AcDb2dVertex
 10
203.4345623698609
 20
217.5270950580134
 30
0.0
  0
VERTEX
  5
25FB
330
215C
100
AcDbEntity
  8
NOTE
100
AcDbVertex
100
AcDb2dVertex
 10
749.2745623698612
 20
217.5270950580134
 30
0.0
  0
SEQEND
  5
25FC
330
215C
100
AcDbEntity
  8
NOTE
  0
ENDBLK
  5
215D
330
2763
100
AcDbEntity
  8
0
100
AcDbBlockEnd
  0
BLOCK
  5
2766
330
2765
100
AcDbEntity
  8
0
100
AcDbBlockBegin
  2
*U67
 70
     1
 10
0.0
 20
0.0
 30
0.0
  3
*U67
  1

  0
TEXT
  5
2160
330
2765
100
AcDbEntity
  8
NOTE
100
AcDbText
 10
265.4345623698609
 20
235.5270950580135
 30
0.0
 40
64.0
  1
4×φ10取付穴
 41
0.9
100
AcDbText
  0
ENDBLK
  5
2161
330
2765
100
AcDbEntity
  8
0
100
AcDbBlockEnd
  0
BLOCK
  5
2768
330
2767
100
AcDbEntity
  8
0
100
AcDbBlockBegin
  2
*U68
 70
     1
 10
0.0
 20
0.0
 30
0.0
  3
*U68
  1

  0
INSERT
  5
223E
330
2767
100
AcDbEntity
  8
NOTE
100
AcDbBlockReference
  2
_OPEN30
 10
140.0
 20
140.0
 30
0.0
 41
12.0
 42
12.0
 43
12.0
 50
232.3258907693334
  0
POLYLINE
  5
223F
330
2767
100
AcDbEntity
  8
NOTE
100
AcDb2dPolyline
 66
     1
 10
0.0
 20
0.0
 30
0.0
  0
VERTEX
  5
260B
330
223F
100
AcDbEntity
  8
NOTE
100
AcDbVertex
100
AcDb2dVertex
 10
147.3340332839448
 20
149.4979974620964
 30
0.0
  0
VERTEX
  5
260C
330
223F
100
AcDbEntity
  8
NOTE
100
AcDbVertex
100
AcDb2dVertex
 10
213.7628007872081
 20
235.5270950580125
 30
0.0
  0
VERTEX
  5
260D
330
223F
100
AcDbEntity
  8
NOTE
100
AcDbVertex
100
AcDb2dVertex
 10
759.6028007872081
 20
235.5270950580125
 30
0.0
  0
SEQEND
  5
260E
330
223F
100
AcDbEntity
  8
NOTE
  0
ENDBLK
  5
2240
330
2767
100
AcDbEntity
  8
0
100
AcDbBlockEnd
  0
BLOCK
  5
276A
330
2769
100
AcDbEntity
  8
0
100
AcDbBlockBegin
  2
*U69
 70
     1
 10
0.0
 20
0.0
 30
0.0
  3
*U69
  1

  0
TEXT
  5
2243
330
2769
100
AcDbEntity
  8
NOTE
100
AcDbText
 10
275.7628007872081
 20
253.5270950580124
 30
0.0
 40
64.0
  1
4×φ10取付穴
 41
0.9
100
AcDbText
  0
ENDBLK
  5
2244
330
2769
100
AcDbEntity
  8
0
100
AcDbBlockEnd
  0
BLOCK
  5
276C
330
276B
100
AcDbEntity
  8
0
100
AcDbBlockBegin
  2
*U70
 70
     1
 10
0.0
 20
0.0
 30
0.0
  3
*U70
  1

  0
INSERT
  5
2337
330
276B
100
AcDbEntity
  8
NOTE
100
AcDbBlockReference
  2
_OPEN30
 10
0.0
 20
140.0
 30
0.0
 41
12.0
 42
12.0
 43
12.0
 50
312.6090116116895
  0
POLYLINE
  5
2338
330
276B
100
AcDbEntity
  8
NOTE
100
AcDb2dPolyline
 66
     1
 10
0.0
 20
0.0
 30
0.0
  0
VERTEX
  5
2619
330
2338
100
AcDbEntity
  8
NOTE
100
AcDbVertex
100
AcDb2dVertex
 10
-8.123900836189513
 20
148.8318874089154
 30
0.0
  0
VERTEX
  5
261A
330
2338
100
AcDbEntity
  8
NOTE
100
AcDbVertex
100
AcDb2dVertex
 10
-87.86939999225436
 20
235.527095058013
 30
0.0
  0
VERTEX
  5
261B
330
2338
100
AcDbEntity
  8
NOTE
100
AcDbVertex
100
AcDb2dVertex
 10
-636.4522571351113
 20
235.527095058013
 30
0.0
  0
SEQEND
  5
261C
330
2338
100
AcDbEntity
  8
NOTE
  0
ENDBLK
  5
2339
330
276B
100
AcDbEntity
  8
0
100
AcDbBlockEnd
  0
BLOCK
  5
276E
330
276D
100
AcDbEntity
  8
0
100
AcDbBlockBegin
  2
*U71
 70
     1
 10
0.0
 20
0.0
 30
0.0
  3
*U71
  1

  0
TEXT
  5
233C
330
276D
100
AcDbEntity
  8
NOTE
100
AcDbText
 10
-633.7093999922545
 20
253.5270950580129
 30
0.0
 40
64.0
  1
4×φ10取付穴
 41
0.9
100
AcDbText
  0
ENDBLK
  5
233D
330
276D
100
AcDbEntity
  8
0
100
AcDbBlockEnd
  0
BLOCK
  5
2770
330
276F
100
AcDbEntity
  8
0
100
AcDbBlockBegin
  2
A$C42E375B0
 70
     0
 10
0.0
 20
0.0
 30
0.0
  3
A$C42E375B0
  1

  0
INSERT
  5
233F
330
276F
100
AcDbEntity
  8
0
100
AcDbBlockReference
  2
*U70
 10
636.4522574038369
 20
544.1924179308656
 30
0.0
1001
ACAD
1000
DSTYLE
1002
{
1070
    41
1040
12.0
1070
    42
1040
20.0
1070
    43
1040
200.0
1070
    44
1040
20.0
1070
    73
1070
     0
1070
    74
1070
     0
1070
    77
1070
     1
1070
    78
1070
     8
1070
   140
1040
64.0
1070
   147
1040
50.0
1070
   172
1070
     1
1070
   174
1070
     1
1070
   275
1070
     0
1070
   284
1070
     0
1070
   285
1070
     0
1070
   286
1070
     0
1070
   341
1005
0
1070
   342
1005
0
1002
}
  0
INSERT
  5
2340
330
276F
100
AcDbEntity
  8
0
100
AcDbBlockReference
  2
*U71
 10
636.4522574038369
 20
544.1924179308656
 30
0.0
  0
TEXT
  5
2341
330
276F
100
AcDbEntity
  8
ETC
100
AcDbText
 10
568.2759414545751
 20
1030.759126201321
 30
0.0
 40
64.0
  1
システム部材
 41
0.9
100
AcDbText
  0
TEXT
  5
2342
330
276F
100
AcDbEntity
  8
ETC
100
AcDbText
 10
574.4839394545766
 20
1131.642452201321
 30
0.0
 40
64.0
  1
QW-20SDBM_4
 41
0.9
100
AcDbText
  0
POINT
  5
2343
330
276F
100
AcDbEntity
  8
ARRANGE
100
AcDbPoint
 10
636.4522574038369
 20
544.1924179308656
 30
0.0
 39
50.0
 50
180.0
  0
CIRCLE
  5
2344
330
276F
100
AcDbEntity
  8
ARRANGE
100
AcDbCircle
 39
50.0
 10
636.4522574038369
 20
544.1924179308656
 30
0.0
 40
40.0
  0
LINE
  5
2345
330
276F
100
AcDbEntity
  8
BASIS
100
AcDbLine
 39
50.0
 10
661.4522574038369
 20
544.1924179308656
 30
0.0
 11
309.4522574038372
 21
544.1924179308656
 31
0.0
  0
ARC
  5
2346
330
276F
100
AcDbEntity
  8
DETAIL
100
AcDbCircle
 10
494.4522574038371
 20
507.2924179308656
 30
0.0
 40
160.0
100
AcDbArc
 50
90.0
 51
180.0
  0
LINE
  5
2347
330
276F
100
AcDbEntity
  8
DETAIL
100
AcDbLine
 10
636.4522574038369
 20
701.6924179308658
 30
0.0
 11
636.4522574038369
 21
386.6924179308658
 31
0.0
  0
LINE
  5
2348
330
276F
100
AcDbEntity
  8
DETAIL
100
AcDbLine
 10
594.4522574038369
 20
421.0924179308659
 30
0.0
 11
559.4522574038371
 21
386.0924179308658
 31
0.0
  0
LINE
  5
2349
330
276F
100
AcDbEntity
  8
DETAIL
100
AcDbLine
 10
626.4522574038369
 20
701.6924179308658
 30
0.0
 11
626.4522574038369
 21
386.6924179308658
 31
0.0
  0
LINE
  5
234A
330
276F
100
AcDbEntity
  8
DETAIL
100
AcDbLine
 10
636.4522574038369
 20
386.6924179308658
 30
0.0
 11
626.4522574038369
 21
386.6924179308658
 31
0.0
  0
LINE
  5
234B
330
276F
100
AcDbEntity
  8
NOTE
100
AcDbLine
 10
648.9522574038369
 20
404.1924179308661
 30
0.0
 11
623.9522574038369
 21
404.1924179308661
 31
0.0
  0
LINE
  5
234C
330
276F
100
AcDbEntity
  8
DETAIL
100
AcDbLine
 10
334.4522574038372
 20
507.2924179308656
 30
0.0
 11
334.4522574038372
 21
302.8260673465575
 31
0.0
  0
LINE
  5
234D
330
276F
100
AcDbEntity
  8
DETAIL
100
AcDbLine
 10
494.4522574038371
 20
667.2924179308656
 30
0.0
 11
626.4522574038369
 21
667.2924179308656
 31
0.0
  0
LINE
  5
234E
330
276F
100
AcDbEntity
  8
DETAIL
100
AcDbLine
 10
636.4522574038369
 20
701.6924179308658
 30
0.0
 11
626.4522574038369
 21
701.6924179308658
 31
0.0
  0
LINE
  5
234F
330
276F
100
AcDbEntity
  8
NOTE
100
AcDbLine
 10
648.9522574038369
 20
684.1924179308656
 30
0.0
 11
623.9522574038369
 21
684.1924179308656
 31
0.0
  0
LINE
  5
2350
330
276F
100
AcDbEntity
  8
DETAIL
100
AcDbLine
 39
50.0
 10
594.4522574038369
 20
421.0924179308659
 30
0.0
 11
626.4522574038369
 21
421.0924179308659
 31
0.0
  0
LINE
  5
2351
330
276F
100
AcDbEntity
  8
DETAIL
100
AcDbLine
 39
50.0
 10
334.4522574038372
 20
297.6924179308658
 30
0.0
 11
322.4522574038372
 21
297.6924179308658
 31
0.0
  0
LINE
  5
2352
330
276F
100
AcDbEntity
  8
DETAIL
100
AcDbLine
 39
50.0
 10
334.3880862066133
 20
298.2924179308658
 30
0.0
 11
323.0522574038358
 21
298.2924179308658
 31
0.0
  0
LINE
  5
2353
330
276F
100
AcDbEntity
  8
DETAIL
100
AcDbLine
 39
50.0
 10
322.4522574038372
 20
297.6924179308658
 30
0.0
 11
322.4522574038372
 21
307.1924179308658
 31
0.0
  0
LINE
  5
2354
330
276F
100
AcDbEntity
  8
DETAIL
100
AcDbLine
 39
50.0
 10
323.0522574038358
 20
298.2924179308658
 30
0.0
 11
323.0522574038358
 21
307.1924179308658
 31
0.0
  0
LINE
  5
2355
330
276F
100
AcDbEntity
  8
DETAIL
100
AcDbLine
 39
50.0
 10
323.0522574038358
 20
307.1924179308658
 30
0.0
 11
322.4522574038372
 21
307.1924179308658
 31
0.0
  0
LINE
  5
2356
330
276F
100
AcDbEntity
  8
DETAIL
100
AcDbLine
 39
50.0
 10
570.4522574038369
 20
327.0613068197544
 30
0.0
 11
334.4522574038372
 21
297.6924179308658
 31
0.0
  0
LINE
  5
2357
330
276F
100
AcDbEntity
  8
DETAIL
100
AcDbLine
 39
50.0
 10
569.3444761741109
 20
336.4964973714636
 30
0.0
 11
338.3103659381657
 21
307.7106512350633
 31
0.0
  0
LINE
  5
2358
330
276F
100
AcDbEntity
  8
DETAIL
100
AcDbLine
 39
50.0
 10
334.4522574038372
 20
297.6924179308658
 30
0.0
 11
333.927518926596
 21
302.1617187185175
 31
0.0
  0
LINE
  5
2359
330
276F
100
AcDbEntity
  8
DETAIL
100
AcDbLine
 39
50.0
 10
338.3103659381657
 20
307.7106512350633
 30
0.0
 11
333.927518926596
 21
302.1617187185175
 31
0.0
  0
LINE
  5
235A
330
276F
100
AcDbEntity
  8
DETAIL
100
AcDbLine
 39
50.0
 10
570.4522574038369
 20
327.0613068197544
 30
0.0
 11
569.3444761741109
 21
336.4964973714636
 31
0.0
  0
TEXT
  5
235B
330
276F
100
AcDbEntity
  8
ETC
100
AcDbText
 10
568.2759414545751
 20
930.7591262013213
 30
0.0
 40
64.0
  1
QW-20SDBM
 41
0.9
100
AcDbText
  0
LINE
  5
235C
330
276F
100
AcDbEntity
  8
DETAIL
100
AcDbLine
 39
50.0
 10
559.4522574038371
 20
386.0924179308658
 30
0.0
 11
559.4522574038371
 21
335.2639699010485
 31
0.0
  0
LINE
  5
235D
330
276F
100
AcDbEntity
  8
NOTE
100
AcDbLine
 39
50.0
 10
636.4522574038369
 20
696.6924179308656
 30
0.0
 11
636.4522574038369
 21
671.6924179308656
 31
0.0
  0
LINE
  5
235E
330
276F
100
AcDbEntity
  8
NOTE
100
AcDbLine
 39
50.0
 10
636.4522574038369
 20
416.692417930866
 30
0.0
 11
636.4522574038369
 21
391.6924179308661
 31
0.0
  0
ARC
  5
235F
330
276F
100
AcDbEntity
  8
OUTLINE
100
AcDbCircle
 10
494.4522574038371
 20
507.2924179308656
 30
0.0
 40
160.0
100
AcDbArc
 50
90.0
 51
180.0
  0
LINE
  5
2360
330
276F
100
AcDbEntity
  8
OUTLINE
100
AcDbLine
 10
594.4522574038369
 20
421.0924179308659
 30
0.0
 11
559.4522574038371
 21
386.0924179308658
 31
0.0
  0
LINE
  5
2361
330
276F
100
AcDbEntity
  8
OUTLINE
100
AcDbLine
 10
626.4522574038369
 20
701.6924179308658
 30
0.0
 11
626.4522574038369
 21
386.6924179308658
 31
0.0
  0
LINE
  5
2362
330
276F
100
AcDbEntity
  8
OUTLINE
100
AcDbLine
 10
636.4522574038369
 20
386.6924179308658
 30
0.0
 11
626.4522574038369
 21
386.6924179308658
 31
0.0
  0
LINE
  5
2363
330
276F
100
AcDbEntity
  8
OUTLINE
100
AcDbLine
 10
334.4522574038372
 20
507.2924179308656
 30
0.0
 11
334.4522574038372
 21
302.8260673465575
 31
0.0
  0
LINE
  5
2364
330
276F
100
AcDbEntity
  8
OUTLINE
100
AcDbLine
 10
494.4522574038371
 20
667.2924179308656
 30
0.0
 11
626.4522574038369
 21
667.2924179308656
 31
0.0
  0
LINE
  5
2365
330
276F
100
AcDbEntity
  8
OUTLINE
100
AcDbLine
 10
636.4522574038369
 20
701.6924179308658
 30
0.0
 11
626.4522574038369
 21
701.6924179308658
 31
0.0
  0
LINE
  5
2366
330
276F
100
AcDbEntity
  8
OUTLINE
100
AcDbLine
 39
50.0
 10
594.4522574038369
 20
421.0924179308659
 30
0.0
 11
626.4522574038369
 21
421.0924179308659
 31
0.0
  0
LINE
  5
2367
330
276F
100
AcDbEntity
  8
OUTLINE
100
AcDbLine
 39
50.0
 10
334.4522574038372
 20
297.6924179308658
 30
0.0
 11
322.4522574038372
 21
297.6924179308658
 31
0.0
  0
LINE
  5
2368
330
276F
100
AcDbEntity
  8
OUTLINE
100
AcDbLine
 39
50.0
 10
334.3880862066133
 20
298.2924179308658
 30
0.0
 11
323.0522574038358
 21
298.2924179308658
 31
0.0
  0
LINE
  5
2369
330
276F
100
AcDbEntity
  8
OUTLINE
100
AcDbLine
 39
50.0
 10
322.4522574038372
 20
297.6924179308658
 30
0.0
 11
322.4522574038372
 21
307.1924179308658
 31
0.0
  0
LINE
  5
236A
330
276F
100
AcDbEntity
  8
OUTLINE
100
AcDbLine
 39
50.0
 10
323.0522574038358
 20
298.2924179308658
 30
0.0
 11
323.0522574038358
 21
307.1924179308658
 31
0.0
  0
LINE
  5
236B
330
276F
100
AcDbEntity
  8
OUTLINE
100
AcDbLine
 39
50.0
 10
323.0522574038358
 20
307.1924179308658
 30
0.0
 11
322.4522574038372
 21
307.1924179308658
 31
0.0
  0
LINE
  5
236C
330
276F
100
AcDbEntity
  8
OUTLINE
100
AcDbLine
 39
50.0
 10
570.4522574038369
 20
327.0613068197544
 30
0.0
 11
334.4522574038372
 21
297.6924179308658
 31
0.0
  0
LINE
  5
236D
330
276F
100
AcDbEntity
  8
OUTLINE
100
AcDbLine
 39
50.0
 10
569.3444761741109
 20
336.4964973714636
 30
0.0
 11
338.3103659381657
 21
307.7106512350633
 31
0.0
  0
LINE
  5
236E
330
276F
100
AcDbEntity
  8
OUTLINE
100
AcDbLine
 39
50.0
 10
334.4522574038372
 20
297.6924179308658
 30
0.0
 11
333.927518926596
 21
302.1617187185175
 31
0.0
  0
LINE
  5
236F
330
276F
100
AcDbEntity
  8
OUTLINE
100
AcDbLine
 39
50.0
 10
338.3103659381657
 20
307.7106512350633
 30
0.0
 11
333.927518926596
 21
302.1617187185175
 31
0.0
  0
LINE
  5
2370
330
276F
100
AcDbEntity
  8
OUTLINE
100
AcDbLine
 39
50.0
 10
570.4522574038369
 20
327.0613068197544
 30
0.0
 11
569.3444761741109
 21
336.4964973714636
 31
0.0
  0
LINE
  5
2371
330
276F
100
AcDbEntity
  8
OUTLINE
100
AcDbLine
 39
50.0
 10
559.4522574038371
 20
386.0924179308658
 30
0.0
 11
559.4522574038371
 21
335.2639699010485
 31
0.0
  0
LINE
  5
2372
330
276F
100
AcDbEntity
  8
OUTLINE
100
AcDbLine
 39
50.0
 10
636.4522574038369
 20
701.6924179308658
 30
0.0
 11
636.4522574038369
 21
386.6924179308658
 31
0.0
  0
LINE
  5
2373
330
276F
100
AcDbEntity
  8
SIZE
100
AcDbLine
 10
579.4522574038373
 20
325.6924179308658
 30
0.0
 11
874.6068536517073
 21
325.6924179308656
 31
0.0
  0
LINE
  5
2374
330
276F
100
AcDbEntity
  8
SIZE
100
AcDbLine
 10
656.4522574038369
 20
421.6924179308657
 30
0.0
 11
874.6068536517073
 21
421.6924179308657
 31
0.0
  0
LINE
  5
2375
330
276F
100
AcDbEntity
  8
SIZE
100
AcDbLine
 10
854.6068536517074
 20
409.6924179308657
 30
0.0
 11
854.6068536517074
 21
337.6924179308657
 31
0.0
  0
LINE
  5
2376
330
276F
100
AcDbEntity
  8
SIZE
100
AcDbLine
 10
854.6068536517074
 20
325.6924179308656
 30
0.0
 11
854.6068536517074
 21
201.806703645148
 31
0.0
  0
INSERT
  5
2377
330
276F
100
AcDbEntity
  8
SIZE
100
AcDbBlockReference
  2
_DOTBLANK
 10
854.6068536517074
 20
421.6924179308657
 30
0.0
 41
12.0
 42
12.0
 43
12.0
 50
90.0
  0
INSERT
  5
2378
330
276F
100
AcDbEntity
  8
SIZE
100
AcDbBlockReference
  2
_DOTBLANK
 10
854.6068536517074
 20
325.6924179308656
 30
0.0
 41
12.0
 42
12.0
 43
12.0
 50
270.0
  0
LINE
  5
2379
330
276F
100
AcDbEntity
  8
SIZE
100
AcDbLine
 10
656.4522574038369
 20
701.6924179308658
 30
0.0
 11
1095.840292655522
 21
701.6924179308655
 31
0.0
  0
LINE
  5
237A
330
276F
100
AcDbEntity
  8
SIZE
100
AcDbLine
 10
656.4522574038369
 20
386.6924179308658
 30
0.0
 11
1095.840292655522
 21
386.6924179308656
 31
0.0
  0
LINE
  5
237B
330
276F
100
AcDbEntity
  8
SIZE
100
AcDbLine
 10
1075.840292655523
 20
689.6924179308655
 30
0.0
 11
1075.840292655523
 21
398.6924179308656
 31
0.0
  0
INSERT
  5
237C
330
276F
100
AcDbEntity
  8
SIZE
100
AcDbBlockReference
  2
_DOTBLANK
 10
1075.840292655523
 20
701.6924179308655
 30
0.0
 41
12.0
 42
12.0
 43
12.0
 50
90.0
  0
INSERT
  5
237D
330
276F
100
AcDbEntity
  8
SIZE
100
AcDbBlockReference
  2
_DOTBLANK
 10
1075.840292655523
 20
386.6924179308656
 30
0.0
 41
12.0
 42
12.0
 43
12.0
 50
270.0
  0
LINE
  5
237E
330
276F
100
AcDbEntity
  8
SIZE
100
AcDbLine
 10
656.4522574038369
 20
650.1924179308656
 30
0.0
 11
874.6068536517073
 21
650.1924179308656
 31
0.0
  0
LINE
  5
237F
330
276F
100
AcDbEntity
  8
SIZE
100
AcDbLine
 10
656.4522574038369
 20
438.1924179308657
 30
0.0
 11
874.6068536517073
 21
438.1924179308657
 31
0.0
  0
LINE
  5
2380
330
276F
100
AcDbEntity
  8
SIZE
100
AcDbLine
 10
854.6068536517074
 20
638.1924179308656
 30
0.0
 11
854.6068536517074
 21
450.1924179308657
 31
0.0
  0
INSERT
  5
2381
330
276F
100
AcDbEntity
  8
SIZE
100
AcDbBlockReference
  2
_DOTBLANK
 10
854.6068536517074
 20
650.1924179308656
 30
0.0
 41
12.0
 42
12.0
 43
12.0
 50
90.0
  0
INSERT
  5
2382
330
276F
100
AcDbEntity
  8
SIZE
100
AcDbBlockReference
  2
_DOTBLANK
 10
854.6068536517074
 20
438.1924179308657
 30
0.0
 41
12.0
 42
12.0
 43
12.0
 50
270.0
  0
LINE
  5
2383
330
276F
100
AcDbEntity
  8
SIZE
100
AcDbLine
 10
668.9522574038369
 20
684.1924179308656
 30
0.0
 11
986.6587075353187
 21
684.1924179308655
 31
0.0
  0
LINE
  5
2384
330
276F
100
AcDbEntity
  8
SIZE
100
AcDbLine
 10
668.9522574038369
 20
404.1924179308661
 30
0.0
 11
986.6587075353187
 21
404.192417930866
 31
0.0
  0
LINE
  5
2385
330
276F
100
AcDbEntity
  8
SIZE
100
AcDbLine
 10
966.6587075353188
 20
672.1924179308656
 30
0.0
 11
966.6587075353188
 21
416.192417930866
 31
0.0
  0
INSERT
  5
2386
330
276F
100
AcDbEntity
  8
SIZE
100
AcDbBlockReference
  2
_DOTBLANK
 10
966.6587075353188
 20
684.1924179308655
 30
0.0
 41
12.0
 42
12.0
 43
12.0
 50
90.0
  0
INSERT
  5
2387
330
276F
100
AcDbEntity
  8
SIZE
100
AcDbBlockReference
  2
_DOTBLANK
 10
966.6587075353188
 20
404.192417930866
 30
0.0
 41
12.0
 42
12.0
 43
12.0
 50
270.0
  0
LINE
  5
2388
330
276F
100
AcDbEntity
  8
SIZE
100
AcDbLine
 10
626.4522574038369
 20
721.6924179308656
 30
0.0
 11
626.4522574038369
 21
808.8446082667223
 31
0.0
  0
LINE
  5
2389
330
276F
100
AcDbEntity
  8
SIZE
100
AcDbLine
 10
636.4522574038369
 20
721.6924179308656
 30
0.0
 11
636.4522574038369
 21
808.8446082667223
 31
0.0
  0
LINE
  5
238A
330
276F
100
AcDbEntity
  8
SIZE
100
AcDbLine
 10
614.4522574038369
 20
788.8446082667224
 30
0.0
 11
602.4522574038369
 21
788.8446082667224
 31
0.0
  0
LINE
  5
238B
330
276F
100
AcDbEntity
  8
SIZE
100
AcDbLine
 10
648.4522574038369
 20
788.8446082667224
 30
0.0
 11
770.8125301504594
 21
788.8446082667224
 31
0.0
  0
LINE
  5
238C
330
276F
100
AcDbEntity
  8
SIZE
100
AcDbLine
 10
626.4522574038369
 20
788.8446082667224
 30
0.0
 11
636.4522574038369
 21
788.8446082667224
 31
0.0
  0
INSERT
  5
238D
330
276F
100
AcDbEntity
  8
SIZE
100
AcDbBlockReference
  2
_DOTBLANK
 10
626.4522574038369
 20
788.8446082667224
 30
0.0
 41
12.0
 42
12.0
 43
12.0
  0
INSERT
  5
238E
330
276F
100
AcDbEntity
  8
SIZE
100
AcDbBlockReference
  2
_DOTBLANK
 10
636.4522574038369
 20
788.8446082667224
 30
0.0
 41
12.0
 42
12.0
 43
12.0
 50
180.0
  0
LINE
  5
238F
330
276F
100
AcDbEntity
  8
SIZE
100
AcDbLine
 10
606.4522574038369
 20
701.6924179308658
 30
0.0
 11
149.7578127767144
 21
701.6924179308658
 31
0.0
  0
LINE
  5
2390
330
276F
100
AcDbEntity
  8
SIZE
100
AcDbLine
 10
302.4522574038372
 20
297.6924179308658
 30
0.0
 11
149.7578127767142
 21
297.6924179308659
 31
0.0
  0
LINE
  5
2391
330
276F
100
AcDbEntity
  8
SIZE
100
AcDbLine
 10
169.7578127767144
 20
689.6924179308657
 30
0.0
 11
169.7578127767144
 21
309.6924179308659
 31
0.0
  0
INSERT
  5
2392
330
276F
100
AcDbEntity
  8
SIZE
100
AcDbBlockReference
  2
_DOTBLANK
 10
169.7578127767144
 20
701.6924179308658
 30
0.0
 41
12.0
 42
12.0
 43
12.0
 50
90.0
  0
INSERT
  5
2393
330
276F
100
AcDbEntity
  8
SIZE
100
AcDbBlockReference
  2
_DOTBLANK
 10
169.7578127767144
 20
297.6924179308659
 30
0.0
 41
12.0
 42
12.0
 43
12.0
 50
270.0
  0
LINE
  5
2394
330
276F
100
AcDbEntity
  8
SIZE
100
AcDbLine
 10
570.4522574038369
 20
307.0613068197545
 30
0.0
 11
570.4522574038369
 21
107.2504860602558
 31
0.0
  0
LINE
  5
2395
330
276F
100
AcDbEntity
  8
SIZE
100
AcDbLine
 10
636.4522574038369
 20
366.6924179308657
 30
0.0
 11
636.4522574038369
 21
107.2504860602558
 31
0.0
  0
LINE
  5
2396
330
276F
100
AcDbEntity
  8
SIZE
100
AcDbLine
 10
582.4522574038369
 20
127.2504860602557
 30
0.0
 11
624.4522574038369
 21
127.2504860602557
 31
0.0
  0
LINE
  5
2397
330
276F
100
AcDbEntity
  8
SIZE
100
AcDbLine
 10
636.4522574038369
 20
127.2504860602557
 30
0.0
 11
759.7094002609799
 21
127.2504860602557
 31
0.0
  0
INSERT
  5
2398
330
276F
100
AcDbEntity
  8
SIZE
100
AcDbBlockReference
  2
_DOTBLANK
 10
570.4522574038369
 20
127.2504860602557
 30
0.0
 41
12.0
 42
12.0
 43
12.0
 50
180.0
  0
INSERT
  5
2399
330
276F
100
AcDbEntity
  8
SIZE
100
AcDbBlockReference
  2
_DOTBLANK
 10
636.4522574038369
 20
127.2504860602557
 30
0.0
 41
12.0
 42
12.0
 43
12.0
  0
LINE
  5
239A
330
276F
100
AcDbEntity
  8
SIZE
100
AcDbLine
 10
334.4522574038372
 20
277.6924179308656
 30
0.0
 11
334.4522574038372
 21
0.0000011148232488
 31
0.0
  0
LINE
  5
239B
330
276F
100
AcDbEntity
  8
SIZE
100
AcDbLine
 10
322.4522574038372
 20
277.6924179308656
 30
0.0
 11
322.4522574038372
 21
0.0000011148232488
 31
0.0
  0
LINE
  5
239C
330
276F
100
AcDbEntity
  8
SIZE
100
AcDbLine
 10
346.4522574038372
 20
20.00000111482325
 30
0.0
 11
358.4522574038372
 21
20.00000111482325
 31
0.0
  0
LINE
  5
239D
330
276F
100
AcDbEntity
  8
SIZE
100
AcDbLine
 10
310.4522574038372
 20
20.00000111482325
 30
0.0
 11
194.7951145466946
 21
20.00000111482325
 31
0.0
  0
LINE
  5
239E
330
276F
100
AcDbEntity
  8
SIZE
100
AcDbLine
 10
334.4522574038372
 20
20.00000111482325
 30
0.0
 11
322.4522574038372
 21
20.00000111482325
 31
0.0
  0
INSERT
  5
239F
330
276F
100
AcDbEntity
  8
SIZE
100
AcDbBlockReference
  2
_DOTBLANK
 10
334.4522574038372
 20
20.00000111482325
 30
0.0
 41
12.0
 42
12.0
 43
12.0
 50
180.0
  0
INSERT
  5
23A0
330
276F
100
AcDbEntity
  8
SIZE
100
AcDbBlockReference
  2
_DOTBLANK
 10
322.4522574038372
 20
20.00000111482325
 30
0.0
 41
12.0
 42
12.0
 43
12.0
  0
LINE
  5
23A1
330
276F
100
AcDbEntity
  8
SIZE
100
AcDbLine
 10
559.4522574038371
 20
305.6924179308655
 30
0.0
 11
559.4522574038371
 21
107.2504860602558
 31
0.0
  0
LINE
  5
23A2
330
276F
100
AcDbEntity
  8
SIZE
100
AcDbLine
 10
334.4522574038372
 20
277.6924179308656
 30
0.0
 11
334.4522574038372
 21
107.2504860602558
 31
0.0
  0
LINE
  5
23A3
330
276F
100
AcDbEntity
  8
SIZE
100
AcDbLine
 10
547.452257403837
 20
127.2504860602557
 30
0.0
 11
346.4522574038372
 21
127.2504860602557
 31
0.0
  0
INSERT
  5
23A4
330
276F
100
AcDbEntity
  8
SIZE
100
AcDbBlockReference
  2
_DOTBLANK
 10
559.4522574038371
 20
127.2504860602557
 30
0.0
 41
12.0
 42
12.0
 43
12.0
  0
INSERT
  5
23A5
330
276F
100
AcDbEntity
  8
SIZE
100
AcDbBlockReference
  2
_DOTBLANK
 10
334.4522574038372
 20
127.2504860602557
 30
0.0
 41
12.0
 42
12.0
 43
12.0
 50
180.0
  0
LINE
  5
23A6
330
276F
100
AcDbEntity
  8
SIZE
100
AcDbLine
 10
334.4522574038372
 20
277.6924179308656
 30
0.0
 11
334.4522574038372
 21
0.0000011148232488
 31
0.0
  0
LINE
  5
23A7
330
276F
100
AcDbEntity
  8
SIZE
100
AcDbLine
 10
636.4522574038369
 20
366.6924179308657
 30
0.0
 11
636.4522574038369
 21
0.0000011148232488
 31
0.0
  0
LINE
  5
23A8
330
276F
100
AcDbEntity
  8
SIZE
100
AcDbLine
 10
346.4522574038372
 20
20.00000111482325
 30
0.0
 11
624.4522574038369
 21
20.00000111482325
 31
0.0
  0
INSERT
  5
23A9
330
276F
100
AcDbEntity
  8
SIZE
100
AcDbBlockReference
  2
_DOTBLANK
 10
334.4522574038372
 20
20.00000111482325
 30
0.0
 41
12.0
 42
12.0
 43
12.0
 50
180.0
  0
INSERT
  5
23AA
330
276F
100
AcDbEntity
  8
SIZE
100
AcDbBlockReference
  2
_DOTBLANK
 10
636.4522574038369
 20
20.00000111482325
 30
0.0
 41
12.0
 42
12.0
 43
12.0
  0
TEXT
  5
23AB
330
276F
100
AcDbEntity
  8
SIZE
100
AcDbText
 10
204.7951145466946
 20
30.00000111482326
 30
0.0
 40
64.0
  1
12
 41
0.9
100
AcDbText
  0
TEXT
  5
23AC
330
276F
100
AcDbEntity
  8
SIZE
100
AcDbText
 10
411.3951145466943
 20
30.00000111482326
 30
0.0
 40
64.0
  1
302
 41
0.9
100
AcDbText
  0
TEXT
  5
23AD
330
276F
100
AcDbEntity
  8
SIZE
100
AcDbText
 10
372.8951145466944
 20
137.2504860602558
 30
0.0
 40
64.0
  1
225
 41
0.9
100
AcDbText
  0
TEXT
  5
23AE
330
276F
100
AcDbEntity
  8
SIZE
100
AcDbText
 10
659.1951145466943
 20
137.2504860602558
 30
0.0
 40
64.0
  1
66
 41
0.9
100
AcDbText
  0
TEXT
  5
23AF
330
276F
100
AcDbEntity
  8
SIZE
100
AcDbText
 10
844.6068536517072
 20
211.806703645148
 30
0.0
 40
64.0
  1
96
 50
90.0
 41
0.9
100
AcDbText
  0
TEXT
  5
23B0
330
276F
100
AcDbEntity
  8
SIZE
100
AcDbText
 10
159.7578127767144
 20
424.2638465022943
 30
0.0
 40
64.0
  1
404
 50
90.0
 41
0.9
100
AcDbText
  0
TEXT
  5
23B1
330
276F
100
AcDbEntity
  8
SIZE
100
AcDbText
 10
844.6068536517072
 20
475.6209893594339
 30
0.0
 40
64.0
  1
212
 50
90.0
 41
0.9
100
AcDbText
  0
TEXT
  5
23B2
330
276F
100
AcDbEntity
  8
SIZE
100
AcDbText
 10
956.6587075353186
 20
470.1352750737196
 30
0.0
 40
64.0
  1
280
 50
90.0
 41
0.9
100
AcDbText
  0
TEXT
  5
23B3
330
276F
100
AcDbEntity
  8
SIZE
100
AcDbText
 10
1065.840292655523
 20
475.6209893594339
 30
0.0
 40
64.0
  1
315
 50
90.0
 41
0.9
100
AcDbText
  0
TEXT
  5
23B4
330
276F
100
AcDbEntity
  8
SIZE
100
AcDbText
 10
678.5268158647452
 20
798.8446082667223
 30
0.0
 40
64.0
  1
10
 41
0.9
100
AcDbText
  0
ENDBLK
  5
23B6
330
276F
100
AcDbEntity
  8
0
100
AcDbBlockEnd
  0
BLOCK
  5
2772
330
2771
100
AcDbEntity
  8
0
100
AcDbBlockBegin
  2
*U73
 70
     1
 10
0.0
 20
0.0
 30
0.0
  3
*U73
  1

  0
INSERT
  5
23B9
330
2771
100
AcDbEntity
  8
NOTE
100
AcDbBlockReference
  2
_OPEN30
 10
0.0
 20
140.0
 30
0.0
 41
12.0
 42
12.0
 43
12.0
 50
312.6090116116895
  0
POLYLINE
  5
23BA
330
2771
100
AcDbEntity
  8
NOTE
100
AcDb2dPolyline
 66
     1
 10
0.0
 20
0.0
 30
0.0
  0
VERTEX
  5
261D
330
23BA
100
AcDbEntity
  8
NOTE
100
AcDbVertex
100
AcDb2dVertex
 10
-8.123900836189513
 20
148.8318874089154
 30
0.0
  0
VERTEX
  5
261E
330
23BA
100
AcDbEntity
  8
NOTE
100
AcDbVertex
100
AcDb2dVertex
 10
-87.86939999225436
 20
235.527095058013
 30
0.0
  0
VERTEX
  5
261F
330
23BA
100
AcDbEntity
  8
NOTE
100
AcDbVertex
100
AcDb2dVertex
 10
-636.4522571351113
 20
235.527095058013
 30
0.0
  0
SEQEND
  5
2620
330
23BA
100
AcDbEntity
  8
NOTE
  0
ENDBLK
  5
23BB
330
2771
100
AcDbEntity
  8
0
100
AcDbBlockEnd
  0
BLOCK
  5
2774
330
2773
100
AcDbEntity
  8
0
100
AcDbBlockBegin
  2
*U74
 70
     1
 10
0.0
 20
0.0
 30
0.0
  3
*U74
  1

  0
TEXT
  5
23BE
330
2773
100
AcDbEntity
  8
NOTE
100
AcDbText
 10
-633.7093999922545
 20
253.5270950580129
 30
0.0
 40
64.0
  1
4×φ10取付穴
 41
0.9
100
AcDbText
  0
ENDBLK
  5
23BF
330
2773
100
AcDbEntity
  8
0
100
AcDbBlockEnd
  0
BLOCK
  5
2776
330
2775
100
AcDbEntity
  8
0
100
AcDbBlockBegin
  2
*U75
 70
     1
 10
0.0
 20
0.0
 30
0.0
  3
*U75
  1

  0
INSERT
  5
24EE
330
2775
100
AcDbEntity
  8
NOTE
100
AcDbBlockReference
  2
_OPEN30
 10
0.0
 20
140.0
 30
0.0
 41
12.0
 42
12.0
 43
12.0
 50
227.3909883883105
  0
POLYLINE
  5
24EF
330
2775
100
AcDbEntity
  8
NOTE
100
AcDb2dPolyline
 66
     1
 10
0.0
 20
0.0
 30
0.0
  0
VERTEX
  5
2621
330
24EF
100
AcDbEntity
  8
NOTE
100
AcDbVertex
100
AcDb2dVertex
 10
8.123900836189502
 20
148.8318874089154
 30
0.0
  0
VERTEX
  5
2622
330
24EF
100
AcDbEntity
  8
NOTE
100
AcDbVertex
100
AcDb2dVertex
 10
87.86939999225406
 20
235.527095058013
 30
0.0
  0
VERTEX
  5
2623
330
24EF
100
AcDbEntity
  8
NOTE
100
AcDbVertex
100
AcDb2dVertex
 10
633.7093999922544
 20
235.527095058013
 30
0.0
  0
SEQEND
  5
2624
330
24EF
100
AcDbEntity
  8
NOTE
  0
ENDBLK
  5
24F0
330
2775
100
AcDbEntity
  8
0
100
AcDbBlockEnd
  0
BLOCK
  5
2778
330
2777
100
AcDbEntity
  8
0
100
AcDbBlockBegin
  2
*U76
 70
     1
 10
0.0
 20
0.0
 30
0.0
  3
*U76
  1

  0
TEXT
  5
24F3
330
2777
100
AcDbEntity
  8
NOTE
100
AcDbText
 10
149.8693999922541
 20
253.5270950580129
 30
0.0
 40
64.0
  1
4×φ10取付穴
 41
0.9
100
AcDbText
  0
ENDBLK
  5
24F4
330
2777
100
AcDbEntity
  8
0
100
AcDbBlockEnd
  0
ENDSEC
  0
SECTION
  2
ENTITIES
  0
TEXT
  5
953
330
2698
100
AcDbEntity
  8
OUTLINE
  6
Continuous
 62
     3
100
AcDbText
 10
-418.231467
 20
13.715189
 30
0.0
 40
64.0
  1
 
 41
0.9
100
AcDbText
  0
TEXT
  5
954
330
2698
100
AcDbEntity
  8
OUTLINE
  6
Continuous
 62
     3
100
AcDbText
 10
-418.231467
 20
13.715189
 30
0.0
 40
64.0
  1
 
 41
0.9
100
AcDbText
  0
TEXT
  5
955
330
2698
100
AcDbEntity
  8
OUTLINE
  6
Continuous
 62
     3
100
AcDbText
 10
1341.41903
 20
-706.0588199999997
 30
0.0
 40
64.0
  1
 
 41
0.9
100
AcDbText
  0
TEXT
  5
956
330
2698
100
AcDbEntity
  8
OUTLINE
  6
Continuous
 62
     3
100
AcDbText
 10
1341.41903
 20
-706.0588199999997
 30
0.0
 40
64.0
  1
 
 41
0.9
100
AcDbText
  0
TEXT
  5
957
330
2698
100
AcDbEntity
  8
OUTLINE
  6
Continuous
 62
     3
100
AcDbText
 10
1341.41903
 20
-706.0588199999997
 30
0.0
 40
64.0
  1
 
 41
0.9
100
AcDbText
  0
TEXT
  5
958
330
2698
100
AcDbEntity
  8
OUTLINE
  6
Continuous
 62
     3
100
AcDbText
 10
1341.41903
 20
-706.0588199999997
 30
0.0
 40
64.0
  1
 
 41
0.9
100
AcDbText
  0
TEXT
  5
256F
330
2698
100
AcDbEntity
  8
ETC
100
AcDbText
 10
256.7677912797042
 20
586.1350656965844
 30
0.0
 40
64.0
  1
システム部材
 41
0.9
100
AcDbText
  0
TEXT
  5
2570
330
2698
100
AcDbEntity
  8
ETC
100
AcDbText
 10
262.9757892797022
 20
687.0183916965848
 30
0.0
 40
64.0
  1
QW-20SDBM_5
 41
0.9
100
AcDbText
  0
TEXT
  5
2571
330
2698
100
AcDbEntity
  8
ETC
100
AcDbText
 10
256.7677912797042
 20
486.1350656965846
 30
0.0
 40
64.0
  1
QW-20SDBM
 41
0.9
100
AcDbText
  0
INSERT
  5
2572
330
2698
100
AcDbEntity
  8
0
100
AcDbBlockReference
  2
*U75
 10
0.0
 20
0.0
 30
0.0
1001
ACAD
1000
DSTYLE
1002
{
1070
    41
1040
12.0
1070
    42
1040
20.0
1070
    43
1040
200.0
1070
    44
1040
20.0
1070
    73
1070
     0
1070
    74
1070
     0
1070
    77
1070
     1
1070
    78
1070
     8
1070
   140
1040
64.0
1070
   147
1040
50.0
1070
   172
1070
     1
1070
   174
1070
     1
1070
   275
1070
     0
1070
   284
1070
     0
1070
   285
1070
     0
1070
   286
1070
     0
1070
   341
1005
0
1070
   342
1005
0
1002
}
  0
INSERT
  5
2573
330
2698
100
AcDbEntity
  8
0
100
AcDbBlockReference
  2
*U76
 10
0.0
 20
0.0
 30
0.0
  0
POINT
  5
2574
330
2698
100
AcDbEntity
  8
ARRANGE
100
AcDbPoint
 10
0.0
 20
0.0
 30
0.0
 39
50.0
 50
0.000000000000007
  0
CIRCLE
  5
2575
330
2698
100
AcDbEntity
  8
ARRANGE
100
AcDbCircle
 39
50.0
 10
0.0
 20
0.0
 30
0.0
 40
40.0
  0
LINE
  5
2576
330
2698
100
AcDbEntity
  8
BASIS
100
AcDbLine
 39
50.0
 10
-25.0
 20
0.0
 30
0.0
 11
326.9999999999997
 21
0.0
 31
0.0
  0
ARC
  5
2577
330
2698
100
AcDbEntity
  8
DETAIL
100
AcDbCircle
 10
141.9999999999997
 20
-36.9000000000001
 30
0.0
 40
160.0
100
AcDbArc
 50
0.0
 51
90.0
  0
LINE
  5
2578
330
2698
100
AcDbEntity
  8
DETAIL
100
AcDbLine
 10
0.0
 20
157.5
 30
0.0
 11
0.0
 21
-157.5
 31
0.0
  0
LINE
  5
2579
330
2698
100
AcDbEntity
  8
DETAIL
100
AcDbLine
 10
42.0
 20
-123.0999999999998
 30
0.0
 11
77.0
 21
-158.0999999999999
 31
0.0
  0
LINE
  5
257A
330
2698
100
AcDbEntity
  8
DETAIL
100
AcDbLine
 10
10.0
 20
157.5
 30
0.0
 11
10.0
 21
-157.5
 31
0.0
  0
LINE
  5
257B
330
2698
100
AcDbEntity
  8
DETAIL
100
AcDbLine
 10
0.0
 20
-157.5
 30
0.0
 11
10.0
 21
-157.5
 31
0.0
  0
LINE
  5
257C
330
2698
100
AcDbEntity
  8
NOTE
100
AcDbLine
 10
-12.5
 20
-139.9999999999996
 30
0.0
 11
12.5
 21
-139.9999999999996
 31
0.0
  0
LINE
  5
257D
330
2698
100
AcDbEntity
  8
DETAIL
100
AcDbLine
 10
301.9999999999997
 20
-36.9000000000001
 30
0.0
 11
301.9999999999997
 21
-241.3663505843083
 31
0.0
  0
LINE
  5
257E
330
2698
100
AcDbEntity
  8
DETAIL
100
AcDbLine
 10
141.9999999999997
 20
123.0999999999998
 30
0.0
 11
10.0
 21
123.0999999999998
 31
0.0
  0
LINE
  5
257F
330
2698
100
AcDbEntity
  8
DETAIL
100
AcDbLine
 10
0.0
 20
157.5
 30
0.0
 11
10.0
 21
157.5
 31
0.0
  0
LINE
  5
2580
330
2698
100
AcDbEntity
  8
NOTE
100
AcDbLine
 10
-12.5
 20
140.0
 30
0.0
 11
12.5
 21
140.0
 31
0.0
  0
LINE
  5
2581
330
2698
100
AcDbEntity
  8
DETAIL
100
AcDbLine
 39
50.0
 10
42.0
 20
-123.0999999999998
 30
0.0
 11
10.0
 21
-123.0999999999998
 31
0.0
  0
LINE
  5
2582
330
2698
100
AcDbEntity
  8
DETAIL
100
AcDbLine
 39
50.0
 10
301.9999999999997
 20
-246.5
 30
0.0
 11
313.9999999999997
 21
-246.5
 31
0.0
  0
LINE
  5
2583
330
2698
100
AcDbEntity
  8
DETAIL
100
AcDbLine
 39
50.0
 10
302.0641711972237
 20
-245.8999999999999
 30
0.0
 11
313.4000000000013
 21
-245.8999999999999
 31
0.0
  0
LINE
  5
2584
330
2698
100
AcDbEntity
  8
DETAIL
100
AcDbLine
 39
50.0
 10
313.9999999999997
 20
-246.5
 30
0.0
 11
313.9999999999997
 21
-237.0
 31
0.0
  0
LINE
  5
2585
330
2698
100
AcDbEntity
  8
DETAIL
100
AcDbLine
 39
50.0
 10
313.4000000000013
 20
-245.8999999999999
 30
0.0
 11
313.4000000000013
 21
-237.0
 31
0.0
  0
LINE
  5
2586
330
2698
100
AcDbEntity
  8
DETAIL
100
AcDbLine
 39
50.0
 10
313.4000000000013
 20
-237.0
 30
0.0
 11
313.9999999999997
 21
-237.0
 31
0.0
  0
LINE
  5
2587
330
2698
100
AcDbEntity
  8
DETAIL
100
AcDbLine
 39
50.0
 10
66.0
 20
-217.1311111111113
 30
0.0
 11
301.9999999999997
 21
-246.5
 31
0.0
  0
LINE
  5
2588
330
2698
100
AcDbEntity
  8
DETAIL
100
AcDbLine
 39
50.0
 10
67.10778122972624
 20
-207.6959205594021
 30
0.0
 11
298.1418914656712
 21
-236.4817666958024
 31
0.0
  0
LINE
  5
2589
330
2698
100
AcDbEntity
  8
DETAIL
100
AcDbLine
 39
50.0
 10
301.9999999999997
 20
-246.5
 30
0.0
 11
302.5247384772408
 21
-242.0306992123483
 31
0.0
  0
LINE
  5
258A
330
2698
100
AcDbEntity
  8
DETAIL
100
AcDbLine
 39
50.0
 10
298.1418914656712
 20
-236.4817666958024
 30
0.0
 11
302.5247384772408
 21
-242.0306992123483
 31
0.0
  0
LINE
  5
258B
330
2698
100
AcDbEntity
  8
DETAIL
100
AcDbLine
 39
50.0
 10
66.0
 20
-217.1311111111113
 30
0.0
 11
67.10778122972624
 21
-207.6959205594021
 31
0.0
  0
LINE
  5
258C
330
2698
100
AcDbEntity
  8
DETAIL
100
AcDbLine
 39
50.0
 10
77.0
 20
-158.0999999999999
 30
0.0
 11
77.0
 21
-208.9284480298172
 31
0.0
  0
LINE
  5
258D
330
2698
100
AcDbEntity
  8
NOTE
100
AcDbLine
 39
50.0
 10
0.0
 20
152.5
 30
0.0
 11
0.0
 21
127.5
 31
0.0
  0
LINE
  5
258E
330
2698
100
AcDbEntity
  8
NOTE
100
AcDbLine
 39
50.0
 10
0.0
 20
-127.4999999999997
 30
0.0
 11
0.0
 21
-152.4999999999996
 31
0.0
  0
ARC
  5
258F
330
2698
100
AcDbEntity
  8
OUTLINE
100
AcDbCircle
 10
141.9999999999997
 20
-36.9000000000001
 30
0.0
 40
160.0
100
AcDbArc
 50
0.0
 51
90.0
  0
LINE
  5
2590
330
2698
100
AcDbEntity
  8
OUTLINE
100
AcDbLine
 10
42.0
 20
-123.0999999999998
 30
0.0
 11
77.0
 21
-158.0999999999999
 31
0.0
  0
LINE
  5
2591
330
2698
100
AcDbEntity
  8
OUTLINE
100
AcDbLine
 10
10.0
 20
157.5
 30
0.0
 11
10.0
 21
-157.5
 31
0.0
  0
LINE
  5
2592
330
2698
100
AcDbEntity
  8
OUTLINE
100
AcDbLine
 10
0.0
 20
-157.5
 30
0.0
 11
10.0
 21
-157.5
 31
0.0
  0
LINE
  5
2593
330
2698
100
AcDbEntity
  8
OUTLINE
100
AcDbLine
 10
301.9999999999997
 20
-36.9000000000001
 30
0.0
 11
301.9999999999997
 21
-241.3663505843083
 31
0.0
  0
LINE
  5
2594
330
2698
100
AcDbEntity
  8
OUTLINE
100
AcDbLine
 10
141.9999999999997
 20
123.0999999999998
 30
0.0
 11
10.0
 21
123.0999999999998
 31
0.0
  0
LINE
  5
2595
330
2698
100
AcDbEntity
  8
OUTLINE
100
AcDbLine
 10
0.0
 20
157.5
 30
0.0
 11
10.0
 21
157.5
 31
0.0
  0
LINE
  5
2596
330
2698
100
AcDbEntity
  8
OUTLINE
100
AcDbLine
 39
50.0
 10
42.0
 20
-123.0999999999998
 30
0.0
 11
10.0
 21
-123.0999999999998
 31
0.0
  0
LINE
  5
2597
330
2698
100
AcDbEntity
  8
OUTLINE
100
AcDbLine
 39
50.0
 10
301.9999999999997
 20
-246.5
 30
0.0
 11
313.9999999999997
 21
-246.5
 31
0.0
  0
LINE
  5
2598
330
2698
100
AcDbEntity
  8
OUTLINE
100
AcDbLine
 39
50.0
 10
302.0641711972237
 20
-245.8999999999999
 30
0.0
 11
313.4000000000013
 21
-245.8999999999999
 31
0.0
  0
LINE
  5
2599
330
2698
100
AcDbEntity
  8
OUTLINE
100
AcDbLine
 39
50.0
 10
313.9999999999997
 20
-246.5
 30
0.0
 11
313.9999999999997
 21
-237.0
 31
0.0
  0
LINE
  5
259A
330
2698
100
AcDbEntity
  8
OUTLINE
100
AcDbLine
 39
50.0
 10
313.4000000000013
 20
-245.8999999999999
 30
0.0
 11
313.4000000000013
 21
-237.0
 31
0.0
  0
LINE
  5
259B
330
2698
100
AcDbEntity
  8
OUTLINE
100
AcDbLine
 39
50.0
 10
313.4000000000013
 20
-237.0
 30
0.0
 11
313.9999999999997
 21
-237.0
 31
0.0
  0
LINE
  5
259C
330
2698
100
AcDbEntity
  8
OUTLINE
100
AcDbLine
 39
50.0
 10
66.0
 20
-217.1311111111113
 30
0.0
 11
301.9999999999997
 21
-246.5
 31
0.0
  0
LINE
  5
259D
330
2698
100
AcDbEntity
  8
OUTLINE
100
AcDbLine
 39
50.0
 10
67.10778122972624
 20
-207.6959205594021
 30
0.0
 11
298.1418914656712
 21
-236.4817666958024
 31
0.0
  0
LINE
  5
259E
330
2698
100
AcDbEntity
  8
OUTLINE
100
AcDbLine
 39
50.0
 10
301.9999999999997
 20
-246.5
 30
0.0
 11
302.5247384772408
 21
-242.0306992123483
 31
0.0
  0
LINE
  5
259F
330
2698
100
AcDbEntity
  8
OUTLINE
100
AcDbLine
 39
50.0
 10
298.1418914656712
 20
-236.4817666958024
 30
0.0
 11
302.5247384772408
 21
-242.0306992123483
 31
0.0
  0
LINE
  5
25A0
330
2698
100
AcDbEntity
  8
OUTLINE
100
AcDbLine
 39
50.0
 10
66.0
 20
-217.1311111111113
 30
0.0
 11
67.10778122972624
 21
-207.6959205594021
 31
0.0
  0
LINE
  5
25A1
330
2698
100
AcDbEntity
  8
OUTLINE
100
AcDbLine
 39
50.0
 10
77.0
 20
-158.0999999999999
 30
0.0
 11
77.0
 21
-208.9284480298172
 31
0.0
  0
LINE
  5
25A2
330
2698
100
AcDbEntity
  8
OUTLINE
100
AcDbLine
 39
50.0
 10
0.0
 20
157.5
 30
0.0
 11
0.0
 21
-157.5
 31
0.0
  0
LINE
  5
25A3
330
2698
100
AcDbEntity
  8
SIZE
100
AcDbLine
 10
57.0
 20
-218.5
 30
0.0
 11
-176.1495216985131
 21
-218.4999999999999
 31
0.0
  0
LINE
  5
25A4
330
2698
100
AcDbEntity
  8
SIZE
100
AcDbLine
 10
-20.0
 20
-122.5
 30
0.0
 11
-176.1495216985131
 21
-122.4999999999999
 31
0.0
  0
LINE
  5
25A5
330
2698
100
AcDbEntity
  8
SIZE
100
AcDbLine
 10
-156.1495216985131
 20
-134.4999999999997
 30
0.0
 11
-156.1495216985131
 21
-206.4999999999999
 31
0.0
  0
LINE
  5
25A6
330
2698
100
AcDbEntity
  8
SIZE
100
AcDbLine
 10
-156.1495216985131
 20
-218.4999999999999
 30
0.0
 11
-156.1495216985131
 21
-348.6675261941487
 31
0.0
  0
INSERT
  5
25A7
330
2698
100
AcDbEntity
  8
SIZE
100
AcDbBlockReference
  2
_DOTBLANK
 10
-156.1495216985131
 20
-122.4999999999999
 30
0.0
 41
12.0
 42
12.0
 43
12.0
 50
90.0
  0
INSERT
  5
25A8
330
2698
100
AcDbEntity
  8
SIZE
100
AcDbBlockReference
  2
_DOTBLANK
 10
-156.1495216985131
 20
-218.4999999999999
 30
0.0
 41
12.0
 42
12.0
 43
12.0
 50
270.0
  0
LINE
  5
25A9
330
2698
100
AcDbEntity
  8
SIZE
100
AcDbLine
 10
-20.0
 20
157.5
 30
0.0
 11
-380.9377382454986
 21
157.5000000000001
 31
0.0
  0
LINE
  5
25AA
330
2698
100
AcDbEntity
  8
SIZE
100
AcDbLine
 10
-20.0
 20
-157.5
 30
0.0
 11
-380.9377382454986
 21
-157.4999999999997
 31
0.0
  0
LINE
  5
25AB
330
2698
100
AcDbEntity
  8
SIZE
100
AcDbLine
 10
-360.9377382454986
 20
145.5000000000001
 30
0.0
 11
-360.9377382454986
 21
-145.4999999999998
 31
0.0
  0
INSERT
  5
25AC
330
2698
100
AcDbEntity
  8
SIZE
100
AcDbBlockReference
  2
_DOTBLANK
 10
-360.9377382454986
 20
157.5000000000001
 30
0.0
 41
12.0
 42
12.0
 43
12.0
 50
90.0
  0
INSERT
  5
25AD
330
2698
100
AcDbEntity
  8
SIZE
100
AcDbBlockReference
  2
_DOTBLANK
 10
-360.9377382454986
 20
-157.4999999999997
 30
0.0
 41
12.0
 42
12.0
 43
12.0
 50
270.0
  0
LINE
  5
25AE
330
2698
100
AcDbEntity
  8
SIZE
100
AcDbLine
 10
-20.0
 20
106.0
 30
0.0
 11
-176.1495216985131
 21
106.0
 31
0.0
  0
LINE
  5
25AF
330
2698
100
AcDbEntity
  8
SIZE
100
AcDbLine
 10
-20.0
 20
-106.0
 30
0.0
 11
-176.1495216985131
 21
-105.9999999999999
 31
0.0
  0
LINE
  5
25B0
330
2698
100
AcDbEntity
  8
SIZE
100
AcDbLine
 10
-156.1495216985131
 20
94.0
 30
0.0
 11
-156.1495216985131
 21
-93.99999999999995
 31
0.0
  0
INSERT
  5
25B1
330
2698
100
AcDbEntity
  8
SIZE
100
AcDbBlockReference
  2
_DOTBLANK
 10
-156.1495216985131
 20
106.0
 30
0.0
 41
12.0
 42
12.0
 43
12.0
 50
90.0
  0
INSERT
  5
25B2
330
2698
100
AcDbEntity
  8
SIZE
100
AcDbBlockReference
  2
_DOTBLANK
 10
-156.1495216985131
 20
-105.9999999999999
 30
0.0
 41
12.0
 42
12.0
 43
12.0
 50
270.0
  0
LINE
  5
25B3
330
2698
100
AcDbEntity
  8
SIZE
100
AcDbLine
 10
10.0
 20
177.5
 30
0.0
 11
10.0
 21
264.6521903358565
 31
0.0
  0
LINE
  5
25B4
330
2698
100
AcDbEntity
  8
SIZE
100
AcDbLine
 10
0.0
 20
177.5
 30
0.0
 11
0.0
 21
264.6521903358565
 31
0.0
  0
LINE
  5
25B5
330
2698
100
AcDbEntity
  8
SIZE
100
AcDbLine
 10
22.0
 20
244.6521903358566
 30
0.0
 11
34.0
 21
244.6521903358566
 31
0.0
  0
LINE
  5
25B6
330
2698
100
AcDbEntity
  8
SIZE
100
AcDbLine
 10
-12.0
 20
244.6521903358566
 30
0.0
 11
-134.3602727466225
 21
244.6521903358566
 31
0.0
  0
LINE
  5
25B7
330
2698
100
AcDbEntity
  8
SIZE
100
AcDbLine
 10
10.0
 20
244.6521903358566
 30
0.0
 11
0.0
 21
244.6521903358566
 31
0.0
  0
INSERT
  5
25B8
330
2698
100
AcDbEntity
  8
SIZE
100
AcDbBlockReference
  2
_DOTBLANK
 10
10.0
 20
244.6521903358566
 30
0.0
 41
12.0
 42
12.0
 43
12.0
 50
180.0
  0
INSERT
  5
25B9
330
2698
100
AcDbEntity
  8
SIZE
100
AcDbBlockReference
  2
_DOTBLANK
 10
0.0
 20
244.6521903358566
 30
0.0
 41
12.0
 42
12.0
 43
12.0
  0
LINE
  5
25BA
330
2698
100
AcDbEntity
  8
SIZE
100
AcDbLine
 10
-32.5
 20
140.0
 30
0.0
 11
-277.8174298871018
 21
140.0000000000001
 31
0.0
  0
LINE
  5
25BB
330
2698
100
AcDbEntity
  8
SIZE
100
AcDbLine
 10
-32.5
 20
-139.9999999999996
 30
0.0
 11
-277.8174298871018
 21
-139.9999999999996
 31
0.0
  0
LINE
  5
25BC
330
2698
100
AcDbEntity
  8
SIZE
100
AcDbLine
 10
-257.8174298871017
 20
128.0000000000001
 30
0.0
 11
-257.8174298871017
 21
-127.9999999999997
 31
0.0
  0
INSERT
  5
25BD
330
2698
100
AcDbEntity
  8
SIZE
100
AcDbBlockReference
  2
_DOTBLANK
 10
-257.8174298871017
 20
140.0000000000001
 30
0.0
 41
12.0
 42
12.0
 43
12.0
 50
90.0
  0
INSERT
  5
25BE
330
2698
100
AcDbEntity
  8
SIZE
100
AcDbBlockReference
  2
_DOTBLANK
 10
-257.8174298871017
 20
-139.9999999999996
 30
0.0
 41
12.0
 42
12.0
 43
12.0
 50
270.0
  0
LINE
  5
25BF
330
2698
100
AcDbEntity
  8
SIZE
100
AcDbLine
 10
66.0
 20
-237.1311111111113
 30
0.0
 11
66.0
 21
-436.9419318706097
 31
0.0
  0
LINE
  5
25C0
330
2698
100
AcDbEntity
  8
SIZE
100
AcDbLine
 10
0.0
 20
-177.5
 30
0.0
 11
0.0
 21
-436.9419318706097
 31
0.0
  0
LINE
  5
25C1
330
2698
100
AcDbEntity
  8
SIZE
100
AcDbLine
 10
54.0
 20
-416.9419318706101
 30
0.0
 11
12.0
 21
-416.9419318706101
 31
0.0
  0
LINE
  5
25C2
330
2698
100
AcDbEntity
  8
SIZE
100
AcDbLine
 10
0.0
 20
-416.9419318706101
 30
0.0
 11
-123.2571428571427
 21
-416.9419318706101
 31
0.0
  0
INSERT
  5
25C3
330
2698
100
AcDbEntity
  8
SIZE
100
AcDbBlockReference
  2
_DOTBLANK
 10
66.0
 20
-416.9419318706101
 30
0.0
 41
12.0
 42
12.0
 43
12.0
  0
INSERT
  5
25C4
330
2698
100
AcDbEntity
  8
SIZE
100
AcDbBlockReference
  2
_DOTBLANK
 10
0.0
 20
-416.9419318706101
 30
0.0
 41
12.0
 42
12.0
 43
12.0
 50
180.0
  0
LINE
  5
25C5
330
2698
100
AcDbEntity
  8
SIZE
100
AcDbLine
 10
30.0
 20
157.5
 30
0.0
 11
486.6944446271225
 21
157.4999999999997
 31
0.0
  0
LINE
  5
25C6
330
2698
100
AcDbEntity
  8
SIZE
100
AcDbLine
 10
333.9999999999997
 20
-246.5
 30
0.0
 11
486.6944446271225
 21
-246.5000000000001
 31
0.0
  0
LINE
  5
25C7
330
2698
100
AcDbEntity
  8
SIZE
100
AcDbLine
 10
466.6944446271227
 20
145.4999999999998
 30
0.0
 11
466.6944446271225
 21
-234.5000000000001
 31
0.0
  0
INSERT
  5
25C8
330
2698
100
AcDbEntity
  8
SIZE
100
AcDbBlockReference
  2
_DOTBLANK
 10
466.6944446271227
 20
157.4999999999997
 30
0.0
 41
12.0
 42
12.0
 43
12.0
 50
90.0
  0
INSERT
  5
25C9
330
2698
100
AcDbEntity
  8
SIZE
100
AcDbBlockReference
  2
_DOTBLANK
 10
466.6944446271225
 20
-246.5000000000001
 30
0.0
 41
12.0
 42
12.0
 43
12.0
 50
270.0
  0
LINE
  5
25CA
330
2698
100
AcDbEntity
  8
SIZE
100
AcDbLine
 10
301.9999999999997
 20
-266.5
 30
0.0
 11
301.9999999999997
 21
-544.1924168160425
 31
0.0
  0
LINE
  5
25CB
330
2698
100
AcDbEntity
  8
SIZE
100
AcDbLine
 10
313.9999999999997
 20
-266.5
 30
0.0
 11
313.9999999999997
 21
-544.1924168160425
 31
0.0
  0
LINE
  5
25CC
330
2698
100
AcDbEntity
  8
SIZE
100
AcDbLine
 10
289.9999999999997
 20
-524.1924168160425
 30
0.0
 11
277.9999999999997
 21
-524.1924168160425
 31
0.0
  0
LINE
  5
25CD
330
2698
100
AcDbEntity
  8
SIZE
100
AcDbLine
 10
325.9999999999997
 20
-524.1924168160425
 30
0.0
 11
441.6571428571423
 21
-524.1924168160425
 31
0.0
  0
LINE
  5
25CE
330
2698
100
AcDbEntity
  8
SIZE
100
AcDbLine
 10
301.9999999999997
 20
-524.1924168160425
 30
0.0
 11
313.9999999999997
 21
-524.1924168160425
 31
0.0
  0
INSERT
  5
25CF
330
2698
100
AcDbEntity
  8
SIZE
100
AcDbBlockReference
  2
_DOTBLANK
 10
301.9999999999997
 20
-524.1924168160425
 30
0.0
 41
12.0
 42
12.0
 43
12.0
  0
INSERT
  5
25D0
330
2698
100
AcDbEntity
  8
SIZE
100
AcDbBlockReference
  2
_DOTBLANK
 10
313.9999999999997
 20
-524.1924168160425
 30
0.0
 41
12.0
 42
12.0
 43
12.0
 50
180.0
  0
LINE
  5
25D1
330
2698
100
AcDbEntity
  8
SIZE
100
AcDbLine
 10
77.0
 20
-238.5000000000002
 30
0.0
 11
77.0
 21
-436.9419318706097
 31
0.0
  0
LINE
  5
25D2
330
2698
100
AcDbEntity
  8
SIZE
100
AcDbLine
 10
301.9999999999997
 20
-266.5
 30
0.0
 11
301.9999999999997
 21
-436.9419318706097
 31
0.0
  0
LINE
  5
25D3
330
2698
100
AcDbEntity
  8
SIZE
100
AcDbLine
 10
89.0
 20
-416.9419318706101
 30
0.0
 11
289.9999999999997
 21
-416.9419318706101
 31
0.0
  0
INSERT
  5
25D4
330
2698
100
AcDbEntity
  8
SIZE
100
AcDbBlockReference
  2
_DOTBLANK
 10
77.0
 20
-416.9419318706101
 30
0.0
 41
12.0
 42
12.0
 43
12.0
 50
180.0
  0
INSERT
  5
25D5
330
2698
100
AcDbEntity
  8
SIZE
100
AcDbBlockReference
  2
_DOTBLANK
 10
301.9999999999997
 20
-416.9419318706101
 30
0.0
 41
12.0
 42
12.0
 43
12.0
  0
LINE
  5
25D6
330
2698
100
AcDbEntity
  8
SIZE
100
AcDbLine
 10
301.9999999999997
 20
-266.5
 30
0.0
 11
301.9999999999997
 21
-544.1924168160425
 31
0.0
  0
LINE
  5
25D7
330
2698
100
AcDbEntity
  8
SIZE
100
AcDbLine
 10
0.0
 20
-177.5
 30
0.0
 11
0.0
 21
-544.1924168160425
 31
0.0
  0
LINE
  5
25D8
330
2698
100
AcDbEntity
  8
SIZE
100
AcDbLine
 10
289.9999999999997
 20
-524.1924168160425
 30
0.0
 11
12.0
 21
-524.1924168160425
 31
0.0
  0
INSERT
  5
25D9
330
2698
100
AcDbEntity
  8
SIZE
100
AcDbBlockReference
  2
_DOTBLANK
 10
301.9999999999997
 20
-524.1924168160425
 30
0.0
 41
12.0
 42
12.0
 43
12.0
  0
INSERT
  5
25DA
330
2698
100
AcDbEntity
  8
SIZE
100
AcDbBlockReference
  2
_DOTBLANK
 10
0.0
 20
-524.1924168160425
 30
0.0
 41
12.0
 42
12.0
 43
12.0
 50
180.0
  0
TEXT
  5
25DB
330
2698
100
AcDbEntity
  8
SIZE
100
AcDbText
 10
456.6944446271222
 20
-119.9285714285714
 30
0.0
 40
64.0
  1
404
 50
90.0
 41
0.9
100
AcDbText
  0
TEXT
  5
25DC
330
2698
100
AcDbEntity
  8
SIZE
100
AcDbText
 10
-124.3602727466225
 20
254.6521903358566
 30
0.0
 40
64.0
  1
10
 41
0.9
100
AcDbText
  0
TEXT
  5
25DD
330
2698
100
AcDbEntity
  8
SIZE
100
AcDbText
 10
-166.1495216985131
 20
-68.57142857143172
 30
0.0
 40
64.0
  1
212
 50
90.0
 41
0.9
100
AcDbText
  0
TEXT
  5
25DE
330
2698
100
AcDbEntity
  8
SIZE
100
AcDbText
 10
-267.8174298871017
 20
-81.45826798424639
 30
0.0
 40
64.0
  1
280
 50
90.0
 41
0.9
100
AcDbText
  0
TEXT
  5
25DF
330
2698
100
AcDbEntity
  8
SIZE
100
AcDbText
 10
-370.9377382454986
 20
-74.52074213544675
 30
0.0
 40
64.0
  1
315
 50
90.0
 41
0.9
100
AcDbText
  0
TEXT
  5
25E0
330
2698
100
AcDbEntity
  8
SIZE
100
AcDbText
 10
-166.1495216985131
 20
-338.6675261941487
 30
0.0
 40
64.0
  1
96
 50
90.0
 41
0.9
100
AcDbText
  0
TEXT
  5
25E1
330
2698
100
AcDbEntity
  8
SIZE
100
AcDbText
 10
-113.2571428571427
 20
-406.9419318706096
 30
0.0
 40
64.0
  1
66
 41
0.9
100
AcDbText
  0
TEXT
  5
25E2
330
2698
100
AcDbEntity
  8
SIZE
100
AcDbText
 10
115.4428571428568
 20
-406.9419318706096
 30
0.0
 40
64.0
  1
225
 41
0.9
100
AcDbText
  0
TEXT
  5
25E3
330
2698
100
AcDbEntity
  8
SIZE
100
AcDbText
 10
76.94285714285706
 20
-514.1924168160425
 30
0.0
 40
64.0
  1
302
 41
0.9
100
AcDbText
  0
TEXT
  5
25E4
330
2698
100
AcDbEntity
  8
SIZE
100
AcDbText
 10
349.3714285714282
 20
-514.1924168160425
 30
0.0
 40
64.0
  1
12
 41
0.9
100
AcDbText
  0
ENDSEC
  0
SECTION
  2
OBJECTS
  0
DICTIONARY
  5
2630
330
0
100
AcDbDictionary
281
     1
  3
ACAD_2007HEADERVARS_RT
350
2884
  3
ACAD_COLOR
350
268E
  3
ACAD_GROUP
350
2631
  3
ACAD_LAYOUT
350
268D
  3
ACAD_MATERIAL
350
2634
  3
ACAD_MLEADERSTYLE
350
2691
  3
ACAD_MLINESTYLE
350
268A
  3
ACAD_PLOTSETTINGS
350
268C
  3
ACAD_PLOTSTYLENAME
350
2632
  3
ACAD_SCALELIST
350
265E
  3
ACAD_TABLESTYLE
350
268F
  3
ACAD_VISUALSTYLE
350
264D
  3
ACDB_RECOMPOSE_DATA
350
2882
  3
AcDbVariableDictionary
350
2879
  3
AcmDictionary
350
282C
  3
AMG
350
2779
  3
DWGPROPS
350
2883
  3
MAPISURF_MODULE
350
27F9
  0
DICTIONARY
  5
2854
330
2680
100
AcDbDictionary
280
     1
281
     1
  3
ADSK_XREC_LAYER_RECONCILED
360
2855
  0
DICTIONARY
  5
2856
330
26AF
100
AcDbDictionary
280
     1
281
     1
  3
ADSK_XREC_LAYER_RECONCILED
360
2857
  0
DICTIONARY
  5
2858
330
26B0
100
AcDbDictionary
280
     1
281
     1
  3
ADSK_XREC_LAYER_RECONCILED
360
2859
  0
DICTIONARY
  5
285A
330
26B1
100
AcDbDictionary
280
     1
281
     1
  3
ADSK_XREC_LAYER_RECONCILED
360
285B
  0
DICTIONARY
  5
285C
330
26B2
100
AcDbDictionary
280
     1
281
     1
  3
ADSK_XREC_LAYER_RECONCILED
360
285D
  0
DICTIONARY
  5
285E
330
26B3
100
AcDbDictionary
280
     1
281
     1
  3
ADSK_XREC_LAYER_RECONCILED
360
285F
  0
DICTIONARY
  5
2860
330
26B5
100
AcDbDictionary
280
     1
281
     1
  3
ADSK_XREC_LAYER_RECONCILED
360
2861
  0
DICTIONARY
  5
2862
330
26B6
100
AcDbDictionary
280
     1
281
     1
  3
ADSK_XREC_LAYER_RECONCILED
360
2863
  0
DICTIONARY
  5
2864
330
26B7
100
AcDbDictionary
280
     1
281
     1
  3
ADSK_XREC_LAYER_RECONCILED
360
2865
  0
DICTIONARY
  5
2866
330
26B8
100
AcDbDictionary
280
     1
281
     1
  3
ADSK_XREC_LAYER_RECONCILED
360
2867
  0
DICTIONARY
  5
2868
330
26B9
100
AcDbDictionary
280
     1
281
     1
  3
ADSK_XREC_LAYER_RECONCILED
360
2869
  0
DICTIONARY
  5
286A
330
2698
100
AcDbDictionary
280
     1
281
     1
  3
ACAD_INDEX
360
286B
  0
DICTIONARY
  5
2884
102
{ACAD_REACTORS
330
2630
102
}
330
2630
100
AcDbDictionary
281
     1
  3
DIMARCSYM
350
2885
  3
DIMLTEX1
350
2887
  3
DIMLTEX2
350
2888
  3
DIMLTYPE
350
2886
  0
DICTIONARY
  5
268E
102
{ACAD_REACTORS
330
2630
102
}
330
2630
100
AcDbDictionary
281
     1
  0
DICTIONARY
  5
2631
102
{ACAD_REACTORS
330
2630
102
}
330
2630
100
AcDbDictionary
281
     1
  0
DICTIONARY
  5
268D
102
{ACAD_REACTORS
330
2630
102
}
330
2630
100
AcDbDictionary
281
     1
  3
Model
350
269B
  3
レイアウト1
350
2697
  0
DICTIONARY
  5
2634
102
{ACAD_REACTORS
330
2630
102
}
330
2630
100
AcDbDictionary
281
     1
  3
ByBlock
350
263D
  3
ByLayer
350
2635
  3
Global
350
2645
  0
DICTIONARY
  5
2691
102
{ACAD_REACTORS
330
2630
102
}
330
2630
100
AcDbDictionary
281
     1
  3
Standard
350
2692
  0
DICTIONARY
  5
268A
102
{ACAD_REACTORS
330
2630
102
}
330
2630
100
AcDbDictionary
281
     1
  3
Standard
350
268B
  0
DICTIONARY
  5
268C
102
{ACAD_REACTORS
330
2630
102
}
330
2630
100
AcDbDictionary
281
     1
  0
ACDBDICTIONARYWDFLT
  5
2632
102
{ACAD_REACTORS
330
2630
102
}
330
2630
100
AcDbDictionary
281
     1
  3
Normal
350
2633
100
AcDbDictionaryWithDefault
340
2633
  0
DICTIONARY
  5
265E
102
{ACAD_REACTORS
330
2630
102
}
330
2630
100
AcDbDictionary
281
     1
  3
A0
350
265F
  3
A1
350
2660
  3
A2
350
2661
  3
A3
350
2662
  3
A4
350
2663
  3
A5
350
2664
  3
A6
350
2665
  3
A7
350
2666
  3
A8
350
2667
  3
A9
350
2668
  3
B0
350
2669
  3
B1
350
266A
  3
B2
350
266B
  3
B3
350
266C
  3
B4
350
266D
  3
B5
350
266E
  3
B6
350
266F
  3
B7
350
2670
  3
B8
350
2671
  3
B9
350
2672
  3
C0
350
2673
  3
C1
350
2674
  3
C2
350
2675
  3
C3
350
2676
  3
C4
350
2677
  3
C5
350
2678
  3
C6
350
2679
  3
C7
350
267A
  3
C8
350
267B
  3
C9
350
267C
  3
D0
350
267D
  3
D1
350
267E
  3
D2
350
267F
  0
DICTIONARY
  5
268F
102
{ACAD_REACTORS
330
2630
102
}
330
2630
100
AcDbDictionary
281
     1
  3
Standard
350
2690
  0
DICTIONARY
  5
264D
102
{ACAD_REACTORS
330
2630
102
}
330
2630
100
AcDbDictionary
281
     1
  3
2dWireframe
350
2653
  3
3D Hidden
350
2655
  3
3dWireframe
350
2654
  3
Basic
350
2652
  3
Brighten
350
2659
  3
ColorChange
350
265D
  3
Conceptual
350
2656
  3
Dim
350
2658
  3
Facepattern
350
265C
  3
Flat
350
264E
  3
FlatWithEdges
350
264F
  3
Gouraud
350
2650
  3
GouraudWithEdges
350
2651
  3
Linepattern
350
265B
  3
Realistic
350
2657
  3
Thicken
350
265A
  0
XRECORD
  5
2882
102
{ACAD_REACTORS
330
2630
102
}
330
2630
100
AcDbXrecord
280
     1
 90
        1
330
2690
  0
DICTIONARY
  5
2879
102
{ACAD_REACTORS
330
2630
102
}
330
2630
100
AcDbDictionary
281
     1
  3
CANNOSCALE
350
287C
  3
CMLEADERSTYLE
350
287B
  3
CTABLESTYLE
350
287A
  3
DIMASSOC
350
287F
  3
INDEXCTL
350
287E
  3
SORTENTS
350
287D
  0
DICTIONARY
  5
282C
102
{ACAD_REACTORS
330
2630
102
}
330
2630
100
AcDbDictionary
281
     1
  3
AcmStdDictionary
350
283A
  0
DICTIONARY
  5
2779
102
{ACAD_REACTORS
330
2630
102
}
330
2630
100
AcDbDictionary
281
     1
  3
AcMgSettings
350
277A
  0
XRECORD
  5
2883
102
{ACAD_REACTORS
330
2630
102
}
330
2630
100
AcDbXrecord
280
     1
  1
DWGPROPS COOKIE
  2

  3

  4

  6

  7

  8
A090053
  9

300
AmdtFileType=84
301
=
302
=
303
=
304
=
305
=
306
=
307
=
308
=
309
=
 40
1.040494166666666
 41
2452321.396199653
 42
2456211.597770868
  1

 90
        1
  0
XRECORD
  5
2855
102
{ACAD_REACTORS
330
2854
102
}
330
2854
100
AcDbXrecord
280
     1
290
     1
  0
XRECORD
  5
2857
102
{ACAD_REACTORS
330
2856
102
}
330
2856
100
AcDbXrecord
280
     1
290
     1
  0
XRECORD
  5
2859
102
{ACAD_REACTORS
330
2858
102
}
330
2858
100
AcDbXrecord
280
     1
290
     1
  0
XRECORD
  5
285B
102
{ACAD_REACTORS
330
285A
102
}
330
285A
100
AcDbXrecord
280
     1
290
     1
  0
XRECORD
  5
285D
102
{ACAD_REACTORS
330
285C
102
}
330
285C
100
AcDbXrecord
280
     1
290
     1
  0
XRECORD
  5
285F
102
{ACAD_REACTORS
330
285E
102
}
330
285E
100
AcDbXrecord
280
     1
290
     1
  0
XRECORD
  5
2861
102
{ACAD_REACTORS
330
2860
102
}
330
2860
100
AcDbXrecord
280
     1
290
     1
  0
XRECORD
  5
2863
102
{ACAD_REACTORS
330
2862
102
}
330
2862
100
AcDbXrecord
280
     1
290
     1
  0
XRECORD
  5
2865
102
{ACAD_REACTORS
330
2864
102
}
330
2864
100
AcDbXrecord
280
     1
290
     1
  0
XRECORD
  5
2867
102
{ACAD_REACTORS
330
2866
102
}
330
2866
100
AcDbXrecord
280
     1
290
     1
  0
XRECORD
  5
2869
102
{ACAD_REACTORS
330
2868
102
}
330
2868
100
AcDbXrecord
280
     1
290
     1
  0
DICTIONARY
  5
286B
102
{ACAD_REACTORS
330
286A
102
}
330
286A
100
AcDbDictionary
281
     1
  3
*A1
350
286C
  0
XRECORD
  5
2885
102
{ACAD_REACTORS
330
2884
102
}
330
2884
100
AcDbXrecord
280
     1
 70
     1
  0
XRECORD
  5
2887
102
{ACAD_REACTORS
330
2884
102
}
330
2884
100
AcDbXrecord
280
     1
340
2686
  0
XRECORD
  5
2888
102
{ACAD_REACTORS
330
2884
102
}
330
2884
100
AcDbXrecord
280
     1
340
2686
  0
XRECORD
  5
2886
102
{ACAD_REACTORS
330
2884
102
}
330
2884
100
AcDbXrecord
280
     1
340
2686
  0
LAYOUT
  5
269B
102
{ACAD_XDICTIONARY
360
288F
102
}
102
{ACAD_REACTORS
330
268D
102
}
330
268D
100
AcDbPlotSettings
  1

  2
自動 EPSON LP-9600S (W2450527 上)
  4

  6

 40
0.0
 41
0.0
 42
0.0
 43
0.0
 44
0.0
 45
0.0
 46
0.0
 47
0.0
 48
0.0
 49
0.0
140
0.0
141
0.0
142
1.0
143
1.0
 70
  1712
 72
     0
 73
     0
 74
     0
  7

 75
     0
147
1.0
148
0.0
149
0.0
100
AcDbLayout
  1
Model
 70
     1
 71
     0
 10
0.0
 20
0.0
 11
12.0
 21
9.0
 12
0.0
 22
0.0
 32
0.0
 14
0.0
 24
0.0
 34
0.0
 15
0.0
 25
0.0
 35
0.0
146
0.0
 13
0.0
 23
0.0
 33
0.0
 16
1.0
 26
0.0
 36
0.0
 17
0.0
 27
1.0
 37
0.0
 76
     0
330
2698
331
269C
  0
LAYOUT
  5
2697
102
{ACAD_XDICTIONARY
360
288D
102
}
102
{ACAD_REACTORS
330
268D
102
}
330
268D
100
AcDbPlotSettings
  1

  2
自動 EPSON LP-9600S (W2450527 上)
  4

  6

 40
0.0
 41
0.0
 42
0.0
 43
0.0
 44
0.0
 45
0.0
 46
0.0
 47
0.0
 48
0.0
 49
0.0
140
0.0
141
0.0
142
1.0
143
1.0
 70
   688
 72
     0
 73
     0
 74
     5
  7

 75
    16
147
1.0
148
0.0
149
0.0
100
AcDbLayout
  1
レイアウト1
 70
     1
 71
     1
 10
0.0
 20
0.0
 11
12.0
 21
9.0
 12
0.0
 22
0.0
 32
0.0
 14
1.000000000000000E+20
 24
1.000000000000000E+20
 34
1.000000000000000E+20
 15
-1.000000000000000E+20
 25
-1.000000000000000E+20
 35
-1.000000000000000E+20
146
0.0
 13
0.0
 23
0.0
 33
0.0
 16
1.0
 26
0.0
 36
0.0
 17
0.0
 27
1.0
 37
0.0
 76
     0
330
2694
  0
MATERIAL
  5
263D
102
{ACAD_XDICTIONARY
360
263E
102
}
102
{ACAD_REACTORS
330
2634
102
}
330
2634
100
AcDbMaterial
  1
ByBlock
 72
     0
 43
0.0208333333333333
 43
0.0
 43
0.0
 43
0.0
 43
0.0
 43
0.0208333333333333
 43
0.0
 43
0.0
 43
0.0
 43
0.0
 43
1.0
 43
0.0
 43
0.0
 43
0.0
 43
0.0
 43
1.0
 77
     0
 47
0.0208333333333333
 47
0.0
 47
0.0
 47
0.0
 47
0.0
 47
0.0208333333333333
 47
0.0
 47
0.0
 47
0.0
 47
0.0
 47
1.0
 47
0.0
 47
0.0
 47
0.0
 47
0.0
 47
1.0
171
     0
 49
0.0208333333333333
 49
0.0
 49
0.0
 49
0.0
 49
0.0
 49
0.0208333333333333
 49
0.0
 49
0.0
 49
0.0
 49
0.0
 49
1.0
 49
0.0
 49
0.0
 49
0.0
 49
0.0
 49
1.0
175
     0
142
0.0208333333333333
142
0.0
142
0.0
142
0.0
142
0.0
142
0.0208333333333333
142
0.0
142
0.0
142
0.0
142
0.0
142
1.0
142
0.0
142
0.0
142
0.0
142
0.0
142
1.0
179
     0
144
0.0208333333333333
144
0.0
144
0.0
144
0.0
144
0.0
144
0.0208333333333333
144
0.0
144
0.0
144
0.0
144
0.0
144
1.0
144
0.0
144
0.0
144
0.0
144
0.0
144
1.0
147
0.0208333333333333
147
0.0
147
0.0
147
0.0
147
0.0
147
0.0208333333333333
147
0.0
147
0.0
147
0.0
147
0.0
147
1.0
147
0.0
147
0.0
147
0.0
147
0.0
147
1.0
  0
MATERIAL
  5
2635
102
{ACAD_XDICTIONARY
360
2636
102
}
102
{ACAD_REACTORS
330
2634
102
}
330
2634
100
AcDbMaterial
  1
ByLayer
 72
     0
 43
0.0208333333333333
 43
0.0
 43
0.0
 43
0.0
 43
0.0
 43
0.0208333333333333
 43
0.0
 43
0.0
 43
0.0
 43
0.0
 43
1.0
 43
0.0
 43
0.0
 43
0.0
 43
0.0
 43
1.0
 77
     0
 47
0.0208333333333333
 47
0.0
 47
0.0
 47
0.0
 47
0.0
 47
0.0208333333333333
 47
0.0
 47
0.0
 47
0.0
 47
0.0
 47
1.0
 47
0.0
 47
0.0
 47
0.0
 47
0.0
 47
1.0
171
     0
 49
0.0208333333333333
 49
0.0
 49
0.0
 49
0.0
 49
0.0
 49
0.0208333333333333
 49
0.0
 49
0.0
 49
0.0
 49
0.0
 49
1.0
 49
0.0
 49
0.0
 49
0.0
 49
0.0
 49
1.0
175
     0
142
0.0208333333333333
142
0.0
142
0.0
142
0.0
142
0.0
142
0.0208333333333333
142
0.0
142
0.0
142
0.0
142
0.0
142
1.0
142
0.0
142
0.0
142
0.0
142
0.0
142
1.0
179
     0
144
0.0208333333333333
144
0.0
144
0.0
144
0.0
144
0.0
144
0.0208333333333333
144
0.0
144
0.0
144
0.0
144
0.0
144
1.0
144
0.0
144
0.0
144
0.0
144
0.0
144
1.0
147
0.0208333333333333
147
0.0
147
0.0
147
0.0
147
0.0
147
0.0208333333333333
147
0.0
147
0.0
147
0.0
147
0.0
147
1.0
147
0.0
147
0.0
147
0.0
147
0.0
147
1.0
  0
MATERIAL
  5
2645
102
{ACAD_XDICTIONARY
360
2646
102
}
102
{ACAD_REACTORS
330
2634
102
}
330
2634
100
AcDbMaterial
  1
Global
 72
     0
 43
0.0208333333333333
 43
0.0
 43
0.0
 43
0.0
 43
0.0
 43
0.0208333333333333
 43
0.0
 43
0.0
 43
0.0
 43
0.0
 43
1.0
 43
0.0
 43
0.0
 43
0.0
 43
0.0
 43
1.0
 77
     0
 47
0.0208333333333333
 47
0.0
 47
0.0
 47
0.0
 47
0.0
 47
0.0208333333333333
 47
0.0
 47
0.0
 47
0.0
 47
0.0
 47
1.0
 47
0.0
 47
0.0
 47
0.0
 47
0.0
 47
1.0
171
     0
 49
0.0208333333333333
 49
0.0
 49
0.0
 49
0.0
 49
0.0
 49
0.0208333333333333
 49
0.0
 49
0.0
 49
0.0
 49
0.0
 49
1.0
 49
0.0
 49
0.0
 49
0.0
 49
0.0
 49
1.0
175
     0
142
0.0208333333333333
142
0.0
142
0.0
142
0.0
142
0.0
142
0.0208333333333333
142
0.0
142
0.0
142
0.0
142
0.0
142
1.0
142
0.0
142
0.0
142
0.0
142
0.0
142
1.0
179
     0
144
0.0208333333333333
144
0.0
144
0.0
144
0.0
144
0.0
144
0.0208333333333333
144
0.0
144
0.0
144
0.0
144
0.0
144
1.0
144
0.0
144
0.0
144
0.0
144
0.0
144
1.0
147
0.0208333333333333
147
0.0
147
0.0
147
0.0
147
0.0
147
0.0208333333333333
147
0.0
147
0.0
147
0.0
147
0.0
147
1.0
147
0.0
147
0.0
147
0.0
147
0.0
147
1.0
  0
MLEADERSTYLE
  5
2692
102
{ACAD_REACTORS
330
2691
102
}
330
2691
100
AcDbMLeaderStyle
170
     2
171
     1
172
     0
 90
        2
 40
0.0
 41
0.0
173
     1
 91
-1056964608
340
2686
 92
       -2
290
     1
 42
0.09
291
     1
 43
0.36
  3
Standard
 44
0.18
300

342
2681
174
     1
178
     6
175
     1
176
     0
 93
-1056964608
 45
0.18
292
     0
297
     0
 46
0.18
 94
-1056964608
 47
1.0
 49
1.0
140
1.0
293
     1
141
0.0
294
     1
177
     0
142
1.0
295
     0
296
     0
143
0.125
1001
ACAD_MLEADERVER
1070
     2
  0
MLINESTYLE
  5
268B
102
{ACAD_REACTORS
330
268A
102
}
330
268A
100
AcDbMlineStyle
  2
STANDARD
 70
     0
  3

 62
   256
 51
90.0
 52
90.0
 71
     2
 49
0.5
 62
   256
  6
BYLAYER
 49
-0.5
 62
   256
  6
BYLAYER
  0
ACDBPLACEHOLDER
  5
2633
102
{ACAD_REACTORS
330
2632
102
}
330
2632
  0
SCALE
  5
265F
102
{ACAD_REACTORS
330
265E
102
}
330
265E
100
AcDbScale
 70
     0
300
1:1
140
1.0
141
1.0
290
     1
  0
SCALE
  5
2660
102
{ACAD_REACTORS
330
265E
102
}
330
265E
100
AcDbScale
 70
     0
300
1:2
140
1.0
141
2.0
290
     0
  0
SCALE
  5
2661
102
{ACAD_REACTORS
330
265E
102
}
330
265E
100
AcDbScale
 70
     0
300
1:4
140
1.0
141
4.0
290
     0
  0
SCALE
  5
2662
102
{ACAD_REACTORS
330
265E
102
}
330
265E
100
AcDbScale
 70
     0
300
1:5
140
1.0
141
5.0
290
     0
  0
SCALE
  5
2663
102
{ACAD_REACTORS
330
265E
102
}
330
265E
100
AcDbScale
 70
     0
300
1:8
140
1.0
141
8.0
290
     0
  0
SCALE
  5
2664
102
{ACAD_REACTORS
330
265E
102
}
330
265E
100
AcDbScale
 70
     0
300
1:10
140
1.0
141
10.0
290
     0
  0
SCALE
  5
2665
102
{ACAD_REACTORS
330
265E
102
}
330
265E
100
AcDbScale
 70
     0
300
1:16
140
1.0
141
16.0
290
     0
  0
SCALE
  5
2666
102
{ACAD_REACTORS
330
265E
102
}
330
265E
100
AcDbScale
 70
     0
300
1:20
140
1.0
141
20.0
290
     0
  0
SCALE
  5
2667
102
{ACAD_REACTORS
330
265E
102
}
330
265E
100
AcDbScale
 70
     0
300
1:30
140
1.0
141
30.0
290
     0
  0
SCALE
  5
2668
102
{ACAD_REACTORS
330
265E
102
}
330
265E
100
AcDbScale
 70
     0
300
1:40
140
1.0
141
40.0
290
     0
  0
SCALE
  5
2669
102
{ACAD_REACTORS
330
265E
102
}
330
265E
100
AcDbScale
 70
     0
300
1:50
140
1.0
141
50.0
290
     0
  0
SCALE
  5
266A
102
{ACAD_REACTORS
330
265E
102
}
330
265E
100
AcDbScale
 70
     0
300
1:100
140
1.0
141
100.0
290
     0
  0
SCALE
  5
266B
102
{ACAD_REACTORS
330
265E
102
}
330
265E
100
AcDbScale
 70
     0
300
2:1
140
2.0
141
1.0
290
     0
  0
SCALE
  5
266C
102
{ACAD_REACTORS
330
265E
102
}
330
265E
100
AcDbScale
 70
     0
300
4:1
140
4.0
141
1.0
290
     0
  0
SCALE
  5
266D
102
{ACAD_REACTORS
330
265E
102
}
330
265E
100
AcDbScale
 70
     0
300
8:1
140
8.0
141
1.0
290
     0
  0
SCALE
  5
266E
102
{ACAD_REACTORS
330
265E
102
}
330
265E
100
AcDbScale
 70
     0
300
10:1
140
10.0
141
1.0
290
     0
  0
SCALE
  5
266F
102
{ACAD_REACTORS
330
265E
102
}
330
265E
100
AcDbScale
 70
     0
300
100:1
140
100.0
141
1.0
290
     0
  0
SCALE
  5
2670
102
{ACAD_REACTORS
330
265E
102
}
330
265E
100
AcDbScale
 70
     0
300
1/128" = 1'-0"
140
0.0078125
141
12.0
290
     0
  0
SCALE
  5
2671
102
{ACAD_REACTORS
330
265E
102
}
330
265E
100
AcDbScale
 70
     0
300
1/64" = 1'-0"
140
0.015625
141
12.0
290
     0
  0
SCALE
  5
2672
102
{ACAD_REACTORS
330
265E
102
}
330
265E
100
AcDbScale
 70
     0
300
1/32" = 1'-0"
140
0.03125
141
12.0
290
     0
  0
SCALE
  5
2673
102
{ACAD_REACTORS
330
265E
102
}
330
265E
100
AcDbScale
 70
     0
300
1/16" = 1'-0"
140
0.0625
141
12.0
290
     0
  0
SCALE
  5
2674
102
{ACAD_REACTORS
330
265E
102
}
330
265E
100
AcDbScale
 70
     0
300
3/32" = 1'-0"
140
0.09375
141
12.0
290
     0
  0
SCALE
  5
2675
102
{ACAD_REACTORS
330
265E
102
}
330
265E
100
AcDbScale
 70
     0
300
1/8" = 1'-0"
140
0.125
141
12.0
290
     0
  0
SCALE
  5
2676
102
{ACAD_REACTORS
330
265E
102
}
330
265E
100
AcDbScale
 70
     0
300
3/16" = 1'-0"
140
0.1875
141
12.0
290
     0
  0
SCALE
  5
2677
102
{ACAD_REACTORS
330
265E
102
}
330
265E
100
AcDbScale
 70
     0
300
1/4" = 1'-0"
140
0.25
141
12.0
290
     0
  0
SCALE
  5
2678
102
{ACAD_REACTORS
330
265E
102
}
330
265E
100
AcDbScale
 70
     0
300
3/8" = 1'-0"
140
0.375
141
12.0
290
     0
  0
SCALE
  5
2679
102
{ACAD_REACTORS
330
265E
102
}
330
265E
100
AcDbScale
 70
     0
300
1/2" = 1'-0"
140
0.5
141
12.0
290
     0
  0
SCALE
  5
267A
102
{ACAD_REACTORS
330
265E
102
}
330
265E
100
AcDbScale
 70
     0
300
3/4" = 1'-0"
140
0.75
141
12.0
290
     0
  0
SCALE
  5
267B
102
{ACAD_REACTORS
330
265E
102
}
330
265E
100
AcDbScale
 70
     0
300
1" = 1'-0"
140
1.0
141
12.0
290
     0
  0
SCALE
  5
267C
102
{ACAD_REACTORS
330
265E
102
}
330
265E
100
AcDbScale
 70
     0
300
1-1/2" = 1'-0"
140
1.5
141
12.0
290
     0
  0
SCALE
  5
267D
102
{ACAD_REACTORS
330
265E
102
}
330
265E
100
AcDbScale
 70
     0
300
3" = 1'-0"
140
3.0
141
12.0
290
     0
  0
SCALE
  5
267E
102
{ACAD_REACTORS
330
265E
102
}
330
265E
100
AcDbScale
 70
     0
300
6" = 1'-0"
140
6.0
141
12.0
290
     0
  0
SCALE
  5
267F
102
{ACAD_REACTORS
330
265E
102
}
330
265E
100
AcDbScale
 70
     0
300
1'-0" = 1'-0"
140
12.0
141
12.0
290
     0
  0
TABLESTYLE
  5
2690
102
{ACAD_XDICTIONARY
360
2880
102
}
102
{ACAD_REACTORS
330
268F
102
}
330
268F
100
AcDbTableStyle
  3
Standard
 70
     0
 71
     0
 40
0.06
 41
0.06
280
     0
281
     0
  7
STANDARD
140
0.18
170
     2
 62
     0
 63
     7
283
     0
274
    -2
284
     1
 64
     0
275
    -2
285
     1
 65
     0
276
    -2
286
     1
 66
     0
277
    -2
287
     1
 67
     0
278
    -2
288
     1
 68
     0
279
    -2
289
     1
 69
     0
  7
STANDARD
140
0.25
170
     5
 62
     0
 63
     7
283
     0
274
    -2
284
     1
 64
     0
275
    -2
285
     1
 65
     0
276
    -2
286
     1
 66
     0
277
    -2
287
     1
 67
     0
278
    -2
288
     1
 68
     0
279
    -2
289
     1
 69
     0
  7
STANDARD
140
0.18
170
     5
 62
     0
 63
     7
283
     0
274
    -2
284
     1
 64
     0
275
    -2
285
     1
 65
     0
276
    -2
286
     1
 66
     0
277
    -2
287
     1
 67
     0
278
    -2
288
     1
 68
     0
279
    -2
289
     1
 69
     0
  0
VISUALSTYLE
  5
2653
102
{ACAD_REACTORS
330
264D
102
}
330
264D
100
AcDbVisualStyle
  2
2dWireframe
 70
     4
 71
     0
 72
     2
 73
     0
 90
        0
 40
-0.6
 41
-30.0
 62
     5
 63
     7
 74
     1
 91
        4
 64
     7
 65
   257
 75
     1
175
     1
 42
1.0
 92
        0
 66
   257
 43
1.0
 76
     1
 77
     6
 78
     2
 67
     7
 79
     5
170
     0
171
     0
290
     0
174
     0
 93
        1
 44
0.0
173
     0
291
     0
 45
0.0
1001
ACAD
1000
AcDbSavedByObjectVersion
1070
     0
  0
VISUALSTYLE
  5
2655
102
{ACAD_REACTORS
330
264D
102
}
330
264D
100
AcDbVisualStyle
  2
3D Hidden
 70
     6
 71
     1
 72
     2
 73
     2
 90
        0
 40
-0.6
 41
-30.0
 62
     5
 63
     7
 74
     2
 91
        2
 64
     7
 65
   257
 75
     2
175
     1
 42
40.0
 92
        0
 66
   257
 43
1.0
 76
     1
 77
     6
 78
     2
 67
     7
 79
     3
170
     0
171
     0
290
     0
174
     0
 93
        1
 44
0.0
173
     0
291
     0
 45
0.0
1001
ACAD
1000
AcDbSavedByObjectVersion
1070
     0
  0
VISUALSTYLE
  5
2654
102
{ACAD_REACTORS
330
264D
102
}
330
264D
100
AcDbVisualStyle
  2
3dWireframe
 70
     5
 71
     0
 72
     2
 73
     0
 90
        0
 40
-0.6
 41
-30.0
 62
     5
 63
     7
 74
     1
 91
        4
 64
     7
 65
   257
 75
     1
175
     1
 42
1.0
 92
        0
 66
   257
 43
1.0
 76
     1
 77
     6
 78
     2
 67
     7
 79
     5
170
     0
171
     0
290
     0
174
     0
 93
        1
 44
0.0
173
     0
291
     0
 45
0.0
1001
ACAD
1000
AcDbSavedByObjectVersion
1070
     0
  0
VISUALSTYLE
  5
2652
102
{ACAD_REACTORS
330
264D
102
}
330
264D
100
AcDbVisualStyle
  2
Basic
 70
     7
 71
     1
 72
     0
 73
     1
 90
        0
 40
-0.6
 41
-30.0
 62
     5
 63
     7
 74
     0
 91
        4
 64
     7
 65
   257
 75
     1
175
     1
 42
1.0
 92
        8
 66
     7
 43
1.0
 76
     1
 77
     6
 78
     2
 67
     7
 79
     5
170
     0
171
     0
290
     0
174
     0
 93
        1
 44
0.0
173
     0
291
     1
 45
0.0
1001
ACAD
1000
AcDbSavedByObjectVersion
1070
     0
  0
VISUALSTYLE
  5
2659
102
{ACAD_REACTORS
330
264D
102
}
330
264D
100
AcDbVisualStyle
  2
Brighten
 70
    12
 71
     2
 72
     2
 73
     0
 90
        0
 40
-0.6
 41
-30.0
 62
     5
 63
     7
 74
     1
 91
        4
 64
     7
 65
   257
 75
     1
175
     1
 42
1.0
 92
        8
 66
     7
 43
1.0
 76
     1
 77
     6
 78
     2
 67
     7
 79
     5
170
     0
171
     0
290
     0
174
     0
 93
        1
 44
50.0
173
     0
291
     1
 45
0.0
1001
ACAD
1000
AcDbSavedByObjectVersion
1070
     0
  0
VISUALSTYLE
  5
265D
102
{ACAD_REACTORS
330
264D
102
}
330
264D
100
AcDbVisualStyle
  2
ColorChange
 70
    16
 71
     2
 72
     2
 73
     3
 90
        0
 40
-0.6
 41
-30.0
 62
     5
 63
     8
 74
     1
 91
        4
 64
     7
 65
   257
 75
     1
175
     1
 42
1.0
 92
        8
 66
     8
 43
1.0
 76
     1
 77
     6
 78
     2
 67
     7
 79
     5
170
     0
171
     0
290
     0
174
     0
 93
        1
 44
0.0
173
     0
291
     1
 45
0.0
1001
ACAD
1000
AcDbSavedByObjectVersion
1070
     0
  0
VISUALSTYLE
  5
2656
102
{ACAD_REACTORS
330
264D
102
}
330
264D
100
AcDbVisualStyle
  2
Conceptual
 70
     9
 71
     3
 72
     2
 73
     0
 90
        0
 40
-0.6
 41
-30.0
 62
     5
 63
     7
 74
     2
 91
        2
 64
     7
 65
   257
 75
     1
175
     1
 42
40.0
 92
        8
 66
     7
 43
1.0
 76
     1
 77
     6
 78
     2
 67
     7
 79
     3
170
     0
171
     0
290
     0
174
     0
 93
        1
 44
0.0
173
     0
291
     0
 45
0.0
1001
ACAD
1000
AcDbSavedByObjectVersion
1070
     0
  0
VISUALSTYLE
  5
2658
102
{ACAD_REACTORS
330
264D
102
}
330
264D
100
AcDbVisualStyle
  2
Dim
 70
    11
 71
     2
 72
     2
 73
     0
 90
        0
 40
-0.6
 41
-30.0
 62
     5
 63
     7
 74
     1
 91
        4
 64
     7
 65
   257
 75
     1
175
     1
 42
1.0
 92
        8
 66
     7
 43
1.0
 76
     1
 77
     6
 78
     2
 67
     7
 79
     5
170
     0
171
     0
290
     0
174
     0
 93
        1
 44
-50.0
173
     0
291
     1
 45
0.0
1001
ACAD
1000
AcDbSavedByObjectVersion
1070
     0
  0
VISUALSTYLE
  5
265C
102
{ACAD_REACTORS
330
264D
102
}
330
264D
100
AcDbVisualStyle
  2
Facepattern
 70
    15
 71
     2
 72
     2
 73
     0
 90
        0
 40
-0.6
 41
-30.0
 62
     5
 63
     7
 74
     1
 91
        4
 64
     7
 65
   257
 75
     1
175
     1
 42
1.0
 92
        8
 66
     7
 43
1.0
 76
     1
 77
     6
 78
     2
 67
     7
 79
     5
170
     0
171
     0
290
     0
174
     0
 93
        1
 44
0.0
173
     0
291
     1
 45
0.0
1001
ACAD
1000
AcDbSavedByObjectVersion
1070
     0
  0
VISUALSTYLE
  5
264E
102
{ACAD_REACTORS
330
264D
102
}
330
264D
100
AcDbVisualStyle
  2
Flat
 70
     0
 71
     2
 72
     1
 73
     1
 90
        2
 40
-0.6
 41
30.0
 62
     5
 63
     7
 74
     0
 91
        4
 64
     7
 65
   257
 75
     1
175
     1
 42
1.0
 92
        8
 66
     7
 43
1.0
 76
     1
 77
     6
 78
     2
 67
     7
 79
     5
170
     0
171
     0
290
     0
174
     0
 93
       13
 44
0.0
173
     0
291
     1
 45
0.0
1001
ACAD
1000
AcDbSavedByObjectVersion
1070
     0
  0
VISUALSTYLE
  5
264F
102
{ACAD_REACTORS
330
264D
102
}
330
264D
100
AcDbVisualStyle
  2
FlatWithEdges
 70
     1
 71
     2
 72
     1
 73
     1
 90
        2
 40
-0.6
 41
30.0
 62
     5
 63
     7
 74
     1
 91
        4
 64
     7
 65
   257
 75
     1
175
     1
 42
1.0
 92
        0
 66
   257
 43
1.0
 76
     1
 77
     6
 78
     2
 67
     7
 79
     5
170
     0
171
     0
290
     0
174
     0
 93
       13
 44
0.0
173
     0
291
     1
 45
0.0
1001
ACAD
1000
AcDbSavedByObjectVersion
1070
     0
  0
VISUALSTYLE
  5
2650
102
{ACAD_REACTORS
330
264D
102
}
330
264D
100
AcDbVisualStyle
  2
Gouraud
 70
     2
 71
     2
 72
     2
 73
     1
 90
        2
 40
-0.6
 41
30.0
 62
     5
 63
     7
 74
     0
 91
        4
 64
     7
 65
   257
 75
     1
175
     1
 42
1.0
 92
        0
 66
     7
 43
1.0
 76
     1
 77
     6
 78
     2
 67
     7
 79
     5
170
     0
171
     0
290
     0
174
     0
 93
       13
 44
0.0
173
     0
291
     1
 45
0.0
1001
ACAD
1000
AcDbSavedByObjectVersion
1070
     0
  0
VISUALSTYLE
  5
2651
102
{ACAD_REACTORS
330
264D
102
}
330
264D
100
AcDbVisualStyle
  2
GouraudWithEdges
 70
     3
 71
     2
 72
     2
 73
     1
 90
        2
 40
-0.6
 41
30.0
 62
     5
 63
     7
 74
     1
 91
        4
 64
     7
 65
   257
 75
     1
175
     1
 42
1.0
 92
        0
 66
   257
 43
1.0
 76
     1
 77
     6
 78
     2
 67
     7
 79
     5
170
     0
171
     0
290
     0
174
     0
 93
       13
 44
0.0
173
     0
291
     1
 45
0.0
1001
ACAD
1000
AcDbSavedByObjectVersion
1070
     0
  0
VISUALSTYLE
  5
265B
102
{ACAD_REACTORS
330
264D
102
}
330
264D
100
AcDbVisualStyle
  2
Linepattern
 70
    14
 71
     2
 72
     2
 73
     0
 90
        0
 40
-0.6
 41
-30.0
 62
     5
 63
     7
 74
     1
 91
        4
 64
     7
 65
   257
 75
     7
175
     7
 42
1.0
 92
        8
 66
     7
 43
1.0
 76
     1
 77
     6
 78
     2
 67
     7
 79
     5
170
     0
171
     0
290
     0
174
     0
 93
        1
 44
0.0
173
     0
291
     1
 45
0.0
1001
ACAD
1000
AcDbSavedByObjectVersion
1070
     0
  0
VISUALSTYLE
  5
2657
102
{ACAD_REACTORS
330
264D
102
}
330
264D
100
AcDbVisualStyle
  2
Realistic
 70
     8
 71
     2
 72
     2
 73
     0
 90
        0
 40
-0.6
 41
-30.0
 62
     5
 63
     7
 74
     1
 91
        0
 64
     7
 65
   257
 75
     1
175
     1
 42
1.0
 92
        8
 66
     8
 43
1.0
 76
     1
 77
     6
 78
     2
 67
     7
 79
     5
170
     0
171
     0
290
     0
174
     0
 93
       13
 44
0.0
173
     0
291
     0
 45
0.0
1001
ACAD
1000
AcDbSavedByObjectVersion
1070
     0
  0
VISUALSTYLE
  5
265A
102
{ACAD_REACTORS
330
264D
102
}
330
264D
100
AcDbVisualStyle
  2
Thicken
 70
    13
 71
     2
 72
     2
 73
     0
 90
        0
 40
-0.6
 41
-30.0
 62
     5
 63
     7
 74
     1
 91
        4
 64
     7
 65
   257
 75
     1
175
     1
 42
1.0
 92
       12
 66
     7
 43
1.0
 76
     1
 77
     6
 78
     2
 67
     7
 79
     5
170
     0
171
     0
290
     0
174
     0
 93
        1
 44
0.0
173
     0
291
     1
 45
0.0
1001
ACAD
1000
AcDbSavedByObjectVersion
1070
     0
  0
DICTIONARYVAR
  5
287C
102
{ACAD_REACTORS
330
2879
102
}
330
2879
100
DictionaryVariables
280
     0
  1
1:1
  0
DICTIONARYVAR
  5
287B
102
{ACAD_REACTORS
330
2879
102
}
330
2879
100
DictionaryVariables
280
     0
  1
STANDARD
  0
DICTIONARYVAR
  5
287A
102
{ACAD_REACTORS
330
2879
102
}
330
2879
100
DictionaryVariables
280
     0
  1
STANDARD
  0
DICTIONARYVAR
  5
287F
102
{ACAD_REACTORS
330
2879
102
}
330
2879
100
DictionaryVariables
280
     0
  1
1
  0
DICTIONARYVAR
  5
287E
102
{ACAD_REACTORS
330
2879
102
}
330
2879
100
DictionaryVariables
280
     0
  1
1
  0
DICTIONARYVAR
  5
287D
102
{ACAD_REACTORS
330
2879
102
}
330
2879
100
DictionaryVariables
280
     0
  1
127
  0
DICTIONARY
  5
283A
102
{ACAD_REACTORS
330
282C
102
}
330
282C
100
AcDbDictionary
281
     1
  0
DICTIONARY
  5
277A
102
{ACAD_REACTORS
330
2779
102
}
330
2779
100
AcDbDictionary
281
     1
  3
DWGSETTINGS
350
277B
  3
TRANSSETTINGS
350
277C
  0
LAYER_INDEX
  5
286C
102
{ACAD_REACTORS
330
286B
102
}
330
286B
100
AcDbIndex
 40
2456211.597770868
100
AcDbLayerIndex
  8
0
360
286D
 90
        2
  8
OUTLINE
360
286E
 90
       26
  8
SIZE
360
286F
 90
       66
  8
BASIS
360
2870
 90
        1
  8
DETAIL
360
2871
 90
       20
  8
ARRANGE
360
2872
 90
        2
  8
DEFPOINTS
360
2873
 90
        0
  8
ETC
360
2874
 90
        3
  8
FIX
360
2875
 90
        0
  8
NOTE
360
2876
 90
        4
  8
SERVICESPACE
360
2877
 90
        0
  8
SYMBOLLINE
360
2878
 90
        0
  0
DICTIONARY
  5
288F
330
269B
100
AcDbDictionary
280
     1
281
     1
  3
ACAD_XREC_ROUNDTRIP
360
2890
  0
DICTIONARY
  5
288D
330
2697
100
AcDbDictionary
280
     1
281
     1
  3
ACAD_XREC_ROUNDTRIP
360
288E
  0
DICTIONARY
  5
263E
330
263D
100
AcDbDictionary
280
     1
281
     1
  3
ACAD_XREC_ROUNDTRIP
360
288A
  3
BUMPTILE
360
2640
  3
DIFFUSETILE
360
263F
  3
OPACITYTILE
360
2643
  3
REFLECTIONTILE
360
2642
  3
REFRACTIONTILE
360
2644
  3
SPECULARTILE
360
2641
  0
DICTIONARY
  5
2636
330
2635
100
AcDbDictionary
280
     1
281
     1
  3
ACAD_XREC_ROUNDTRIP
360
2889
  3
BUMPTILE
360
2638
  3
DIFFUSETILE
360
2637
  3
OPACITYTILE
360
263B
  3
REFLECTIONTILE
360
263A
  3
REFRACTIONTILE
360
263C
  3
SPECULARTILE
360
2639
  0
DICTIONARY
  5
2646
330
2645
100
AcDbDictionary
280
     1
281
     1
  3
ACAD_XREC_ROUNDTRIP
360
288B
  3
BUMPTILE
360
2648
  3
DIFFUSETILE
360
2647
  3
OPACITYTILE
360
264B
  3
REFLECTIONTILE
360
264A
  3
REFRACTIONTILE
360
264C
  3
SPECULARTILE
360
2649
  0
DICTIONARY
  5
2880
330
2690
100
AcDbDictionary
280
     1
281
     1
  3
ACAD_ROUNDTRIP_2008_TABLESTYLE_CELLSTYLEMAP
360
2881
  3
ACAD_XREC_ROUNDTRIP
360
288C
  0
IDBUFFER
  5
286D
330
0
100
AcDbIdBuffer
330
2572
330
2573
  0
IDBUFFER
  5
286E
330
0
100
AcDbIdBuffer
330
2599
330
259A
330
259B
330
259C
330
259D
330
259E
330
259F
330
25A0
330
25A1
330
25A2
330
953
330
954
330
955
330
956
330
957
330
958
330
258F
330
2590
330
2591
330
2592
330
2593
330
2594
330
2595
330
2596
330
2597
330
2598
  0
IDBUFFER
  5
286F
330
0
100
AcDbIdBuffer
330
25D3
330
25D4
330
25D5
330
25D6
330
25D7
330
25D8
330
25D9
330
25DA
330
25DB
330
25DC
330
25DD
330
25DE
330
25DF
330
25E0
330
25E1
330
25E2
330
25E3
330
25E4
330
25A3
330
25A4
330
25A5
330
25A6
330
25A7
330
25A8
330
25A9
330
25AA
330
25AB
330
25AC
330
25AD
330
25AE
330
25AF
330
25B0
330
25B1
330
25B2
330
25B3
330
25B4
330
25B5
330
25B6
330
25B7
330
25B8
330
25B9
330
25BA
330
25BB
330
25BC
330
25BD
330
25BE
330
25BF
330
25C0
330
25C1
330
25C2
330
25C3
330
25C4
330
25C5
330
25C6
330
25C7
330
25C8
330
25C9
330
25CA
330
25CB
330
25CC
330
25CD
330
25CE
330
25CF
330
25D0
330
25D1
330
25D2
  0
IDBUFFER
  5
2870
330
0
100
AcDbIdBuffer
330
2576
  0
IDBUFFER
  5
2871
330
0
100
AcDbIdBuffer
330
2589
330
258A
330
258B
330
258C
330
2577
330
2578
330
2579
330
257A
330
257B
330
257D
330
257E
330
257F
330
2581
330
2582
330
2583
330
2584
330
2585
330
2586
330
2587
330
2588
  0
IDBUFFER
  5
2872
330
0
100
AcDbIdBuffer
330
2574
330
2575
  0
IDBUFFER
  5
2873
330
0
100
AcDbIdBuffer
  0
IDBUFFER
  5
2874
330
0
100
AcDbIdBuffer
330
256F
330
2570
330
2571
  0
IDBUFFER
  5
2875
330
0
100
AcDbIdBuffer
  0
IDBUFFER
  5
2876
330
0
100
AcDbIdBuffer
330
257C
330
2580
330
258D
330
258E
  0
IDBUFFER
  5
2877
330
0
100
AcDbIdBuffer
  0
IDBUFFER
  5
2878
330
0
100
AcDbIdBuffer
  0
XRECORD
  5
2890
102
{ACAD_REACTORS
330
288F
102
}
330
288F
100
AcDbXrecord
280
     1
102
SHADEPLOT
 70
     0
102
SHADEPLOTRESLEVEL
 70
     2
102
SHADEPLOTCUSTOMDPI
 70
   300
  0
XRECORD
  5
288E
102
{ACAD_REACTORS
330
288D
102
}
330
288D
100
AcDbXrecord
280
     1
102
SHADEPLOT
 70
     0
102
SHADEPLOTRESLEVEL
 70
     2
102
SHADEPLOTCUSTOMDPI
 70
   300
  0
XRECORD
  5
288A
102
{ACAD_REACTORS
330
263E
102
}
330
263E
100
AcDbXrecord
280
     1
102
MATERIAL
148
0.0
149
0.0
149
0.0
 93
        0
 94
      127
282
     0
 72
     0
 77
     0
171
     0
175
     0
179
     0
273
     0
  0
XRECORD
  5
2640
102
{ACAD_REACTORS
330
263E
102
}
330
263E
100
AcDbXrecord
280
     1
270
     1
271
     1
  0
XRECORD
  5
263F
102
{ACAD_REACTORS
330
263E
102
}
330
263E
100
AcDbXrecord
280
     1
270
     1
271
     1
  0
XRECORD
  5
2643
102
{ACAD_REACTORS
330
263E
102
}
330
263E
100
AcDbXrecord
280
     1
270
     1
271
     1
  0
XRECORD
  5
2642
102
{ACAD_REACTORS
330
263E
102
}
330
263E
100
AcDbXrecord
280
     1
270
     1
271
     1
  0
XRECORD
  5
2644
102
{ACAD_REACTORS
330
263E
102
}
330
263E
100
AcDbXrecord
280
     1
270
     1
271
     1
  0
XRECORD
  5
2641
102
{ACAD_REACTORS
330
263E
102
}
330
263E
100
AcDbXrecord
280
     1
270
     1
271
     1
  0
XRECORD
  5
2889
102
{ACAD_REACTORS
330
2636
102
}
330
2636
100
AcDbXrecord
280
     1
102
MATERIAL
148
0.0
149
0.0
149
0.0
 93
        0
 94
      127
282
     0
 72
     0
 77
     0
171
     0
175
     0
179
     0
273
     0
  0
XRECORD
  5
2638
102
{ACAD_REACTORS
330
2636
102
}
330
2636
100
AcDbXrecord
280
     1
270
     1
271
     1
  0
XRECORD
  5
2637
102
{ACAD_REACTORS
330
2636
102
}
330
2636
100
AcDbXrecord
280
     1
270
     1
271
     1
  0
XRECORD
  5
263B
102
{ACAD_REACTORS
330
2636
102
}
330
2636
100
AcDbXrecord
280
     1
270
     1
271
     1
  0
XRECORD
  5
263A
102
{ACAD_REACTORS
330
2636
102
}
330
2636
100
AcDbXrecord
280
     1
270
     1
271
     1
  0
XRECORD
  5
263C
102
{ACAD_REACTORS
330
2636
102
}
330
2636
100
AcDbXrecord
280
     1
270
     1
271
     1
  0
XRECORD
  5
2639
102
{ACAD_REACTORS
330
2636
102
}
330
2636
100
AcDbXrecord
280
     1
270
     1
271
     1
  0
XRECORD
  5
288B
102
{ACAD_REACTORS
330
2646
102
}
330
2646
100
AcDbXrecord
280
     1
102
MATERIAL
148
0.0
149
0.0
149
0.0
 93
        0
 94
      127
282
     0
 72
     0
 77
     0
171
     0
175
     0
179
     0
273
     0
  0
XRECORD
  5
2648
102
{ACAD_REACTORS
330
2646
102
}
330
2646
100
AcDbXrecord
280
     1
270
     1
271
     1
  0
XRECORD
  5
2647
102
{ACAD_REACTORS
330
2646
102
}
330
2646
100
AcDbXrecord
280
     1
270
     1
271
     1
  0
XRECORD
  5
264B
102
{ACAD_REACTORS
330
2646
102
}
330
2646
100
AcDbXrecord
280
     1
270
     1
271
     1
  0
XRECORD
  5
264A
102
{ACAD_REACTORS
330
2646
102
}
330
2646
100
AcDbXrecord
280
     1
270
     1
271
     1
  0
XRECORD
  5
264C
102
{ACAD_REACTORS
330
2646
102
}
330
2646
100
AcDbXrecord
280
     1
270
     1
271
     1
  0
XRECORD
  5
2649
102
{ACAD_REACTORS
330
2646
102
}
330
2646
100
AcDbXrecord
280
     1
270
     1
271
     1
  0
CELLSTYLEMAP
  5
2881
102
{ACAD_REACTORS
330
2880
102
}
330
2880
100
AcDbCellStyleMap
 90
        3
300
CELLSTYLE
  1
TABLEFORMAT_BEGIN
 90
        5
170
     1
 91
        0
 92
    32768
 62
   257
 93
        1
300
CONTENTFORMAT
  1
CONTENTFORMAT_BEGIN
 90
        0
 91
        0
 92
      512
 93
        0
300

 40
0.0
140
1.0
 94
        5
 62
     0
340
2681
144
0.25
309
CONTENTFORMAT_END
171
     0
 94
        0
309
TABLEFORMAT_END
  1
CELLSTYLE_BEGIN
 90
        1
 91
        1
300
_TITLE
309
CELLSTYLE_END
300
CELLSTYLE
  1
TABLEFORMAT_BEGIN
 90
        5
170
     1
 91
        0
 92
        0
 62
   257
 93
        1
300
CONTENTFORMAT
  1
CONTENTFORMAT_BEGIN
 90
        0
 91
        0
 92
      512
 93
        0
300

 40
0.0
140
1.0
 94
        5
 62
     0
340
2681
144
0.18
309
CONTENTFORMAT_END
171
     0
 94
        0
309
TABLEFORMAT_END
  1
CELLSTYLE_BEGIN
 90
        2
 91
        1
300
_HEADER
309
CELLSTYLE_END
300
CELLSTYLE
  1
TABLEFORMAT_BEGIN
 90
        5
170
     1
 91
        0
 92
        0
 62
   257
 93
        1
300
CONTENTFORMAT
  1
CONTENTFORMAT_BEGIN
 90
        0
 91
        0
 92
      512
 93
        0
300

 40
0.0
140
1.0
 94
        2
 62
     0
340
2681
144
0.18
309
CONTENTFORMAT_END
171
     0
 94
        0
309
TABLEFORMAT_END
  1
CELLSTYLE_BEGIN
 90
        3
 91
        2
300
_DATA
309
CELLSTYLE_END
  0
XRECORD
  5
288C
102
{ACAD_REACTORS
330
2880
102
}
330
2880
100
AcDbXrecord
280
     1
102
ACAD_ROUNDTRIP_PRE2007_TABLESTYLE
 90
      512
 91
        0
  1

 92
      512
 93
        0
  2

 94
      512
 95
        0
  3

  0
ENDSEC
  0
EOF
