  0
SECTION
  2
HEADER
  9
$ACADVER
  1
AC1015
  9
$ACADMAINTVER
 70
    20
  9
$DWGCODEPAGE
  3
ANSI_932
  9
$INSBASE
 10
0.0
 20
0.0
 30
0.0
  9
$EXTMIN
 10
-823.709399992254
 20
-563.3537124356696
 30
0.0
  9
$EXTMAX
 10
898.7976860345058
 20
634.8683779311861
 30
50.0
  9
$LIMMIN
 10
-2970.0
 20
-2100.0
  9
$LIMMAX
 10
2970.0
 20
2100.0
  9
$ORTHOMODE
 70
     1
  9
$REGENMODE
 70
     0
  9
$FILLMODE
 70
     1
  9
$QTEXTMODE
 70
     0
  9
$MIRRTEXT
 70
     0
  9
$LTSCALE
 40
20.0
  9
$ATTMODE
 70
     1
  9
$TEXTSIZE
 40
64.0
  9
$TRACEWID
 40
0.05
  9
$TEXTSTYLE
  7
STANDARD
  9
$CLAYER
  8
0
  9
$CELTYPE
  6
ByLayer
  9
$CECOLOR
 62
   256
  9
$CELTSCALE
 40
1.0
  9
$DISPSILH
 70
     0
  9
$DIMSCALE
 40
1.0
  9
$DIMASZ
 40
0.12
  9
$DIMEXO
 40
0.05
  9
$DIMDLI
 40
0.5
  9
$DIMRND
 40
0.0
  9
$DIMDLE
 40
0.0
  9
$DIMEXE
 40
0.1
  9
$DIMTP
 40
0.1
  9
$DIMTM
 40
0.1
  9
$DIMTXT
 40
0.12
  9
$DIMCEN
 40
0.0
  9
$DIMTSZ
 40
0.0
  9
$DIMTOL
 70
     0
  9
$DIMLIM
 70
     0
  9
$DIMTIH
 70
     1
  9
$DIMTOH
 70
     1
  9
$DIMSE1
 70
     0
  9
$DIMSE2
 70
     0
  9
$DIMTAD
 70
     0
  9
$DIMZIN
 70
     7
  9
$DIMBLK
  1

  9
$DIMASO
 70
     1
  9
$DIMSHO
 70
     0
  9
$DIMPOST
  1

  9
$DIMAPOST
  1
mm
  9
$DIMALT
 70
     0
  9
$DIMALTD
 70
     2
  9
$DIMALTF
 40
25.4
  9
$DIMLFAC
 40
1.0
  9
$DIMTOFL
 70
     0
  9
$DIMTVP
 40
0.0
  9
$DIMTIX
 70
     0
  9
$DIMSOXD
 70
     0
  9
$DIMSAH
 70
     0
  9
$DIMBLK1
  1

  9
$DIMBLK2
  1

  9
$DIMSTYLE
  2
AM_ANSI
  9
$DIMCLRD
 70
   256
  9
$DIMCLRE
 70
   256
  9
$DIMCLRT
 70
     2
  9
$DIMTFAC
 40
0.71
  9
$DIMGAP
 40
0.06
  9
$DIMJUST
 70
     0
  9
$DIMSD1
 70
     0
  9
$DIMSD2
 70
     0
  9
$DIMTOLJ
 70
     1
  9
$DIMTZIN
 70
     7
  9
$DIMALTZ
 70
     0
  9
$DIMALTTZ
 70
     0
  9
$DIMUPT
 70
     0
  9
$DIMDEC
 70
     4
  9
$DIMTDEC
 70
     4
  9
$DIMALTU
 70
     2
  9
$DIMALTTD
 70
     4
  9
$DIMTXSTY
  7
STANDARD
  9
$DIMAUNIT
 70
     0
  9
$DIMADEC
 70
     0
  9
$DIMALTRND
 40
0.0
  9
$DIMAZIN
 70
     2
  9
$DIMDSEP
 70
    46
  9
$DIMATFIT
 70
     3
  9
$DIMFRAC
 70
     0
  9
$DIMLDRBLK
  1

  9
$DIMLUNIT
 70
     2
  9
$DIMLWD
 70
    -1
  9
$DIMLWE
 70
    -1
  9
$DIMTMOVE
 70
     0
  9
$LUNITS
 70
     2
  9
$LUPREC
 70
     4
  9
$SKETCHINC
 40
0.1
  9
$FILLETRAD
 40
4.0
  9
$AUNITS
 70
     1
  9
$AUPREC
 70
     3
  9
$MENU
  1
ACAD
  9
$ELEVATION
 40
0.0
  9
$PELEVATION
 40
0.0
  9
$THICKNESS
 40
50.0
  9
$LIMCHECK
 70
     0
  9
$CHAMFERA
 40
0.0
  9
$CHAMFERB
 40
0.0
  9
$CHAMFERC
 40
0.0
  9
$CHAMFERD
 40
0.0
  9
$SKPOLY
 70
     0
  9
$TDCREATE
 40
2452321.396199653
  9
$TDUCREATE
 40
2452321.021199653
  9
$TDUPDATE
 40
2456212.812533542
  9
$TDUUPDATE
 40
2456212.437533542
  9
$TDINDWG
 40
1.0509820139
  9
$TDUSRTIMER
 40
1.0509764236
  9
$USRTIMER
 70
     1
  9
$ANGBASE
 50
0.0
  9
$ANGDIR
 70
     0
  9
$PDMODE
 70
     3
  9
$PDSIZE
 40
-2.0
  9
$PLINEWID
 40
0.0
  9
$SPLFRAME
 70
     0
  9
$SPLINETYPE
 70
     6
  9
$SPLINESEGS
 70
     8
  9
$HANDSEED
  5
2A61
  9
$SURFTAB1
 70
     6
  9
$SURFTAB2
 70
     6
  9
$SURFTYPE
 70
     6
  9
$SURFU
 70
     6
  9
$SURFV
 70
     6
  9
$UCSBASE
  2

  9
$UCSNAME
  2

  9
$UCSORG
 10
0.0
 20
0.0
 30
0.0
  9
$UCSXDIR
 10
1.0
 20
0.0
 30
0.0
  9
$UCSYDIR
 10
0.0
 20
1.0
 30
0.0
  9
$UCSORTHOREF
  2

  9
$UCSORTHOVIEW
 70
     0
  9
$UCSORGTOP
 10
0.0
 20
0.0
 30
0.0
  9
$UCSORGBOTTOM
 10
0.0
 20
0.0
 30
0.0
  9
$UCSORGLEFT
 10
0.0
 20
0.0
 30
0.0
  9
$UCSORGRIGHT
 10
0.0
 20
0.0
 30
0.0
  9
$UCSORGFRONT
 10
0.0
 20
0.0
 30
0.0
  9
$UCSORGBACK
 10
0.0
 20
0.0
 30
0.0
  9
$PUCSBASE
  2

  9
$PUCSNAME
  2

  9
$PUCSORG
 10
0.0
 20
0.0
 30
0.0
  9
$PUCSXDIR
 10
1.0
 20
0.0
 30
0.0
  9
$PUCSYDIR
 10
0.0
 20
1.0
 30
0.0
  9
$PUCSORTHOREF
  2

  9
$PUCSORTHOVIEW
 70
     0
  9
$PUCSORGTOP
 10
0.0
 20
0.0
 30
0.0
  9
$PUCSORGBOTTOM
 10
0.0
 20
0.0
 30
0.0
  9
$PUCSORGLEFT
 10
0.0
 20
0.0
 30
0.0
  9
$PUCSORGRIGHT
 10
0.0
 20
0.0
 30
0.0
  9
$PUCSORGFRONT
 10
0.0
 20
0.0
 30
0.0
  9
$PUCSORGBACK
 10
0.0
 20
0.0
 30
0.0
  9
$USERI1
 70
     0
  9
$USERI2
 70
     0
  9
$USERI3
 70
     0
  9
$USERI4
 70
     0
  9
$USERI5
 70
     0
  9
$USERR1
 40
20.0
  9
$USERR2
 40
0.0
  9
$USERR3
 40
0.0
  9
$USERR4
 40
0.0
  9
$USERR5
 40
0.0
  9
$WORLDVIEW
 70
     1
  9
$SHADEDGE
 70
     3
  9
$SHADEDIF
 70
    70
  9
$TILEMODE
 70
     1
  9
$MAXACTVP
 70
    64
  9
$PINSBASE
 10
0.0
 20
0.0
 30
0.0
  9
$PLIMCHECK
 70
     0
  9
$PEXTMIN
 10
1.000000000000000E+20
 20
1.000000000000000E+20
 30
1.000000000000000E+20
  9
$PEXTMAX
 10
-1.000000000000000E+20
 20
-1.000000000000000E+20
 30
-1.000000000000000E+20
  9
$PLIMMIN
 10
0.0
 20
0.0
  9
$PLIMMAX
 10
12.0
 20
9.0
  9
$UNITMODE
 70
     0
  9
$VISRETAIN
 70
     1
  9
$PLINEGEN
 70
     0
  9
$PSLTSCALE
 70
     1
  9
$TREEDEPTH
 70
  3020
  9
$CMLSTYLE
  2
Standard
  9
$CMLJUST
 70
     0
  9
$CMLSCALE
 40
1.0
  9
$PROXYGRAPHICS
 70
     1
  9
$MEASUREMENT
 70
     0
  9
$CELWEIGHT
370
    -1
  9
$ENDCAPS
280
     0
  9
$JOINSTYLE
280
     0
  9
$LWDISPLAY
290
     0
  9
$INSUNITS
 70
     0
  9
$HYPERLINKBASE
  1

  9
$STYLESHEET
  1

  9
$XEDIT
290
     1
  9
$CEPSNTYPE
380
     0
  9
$PSTYLEMODE
290
     1
  9
$FINGERPRINTGUID
  2
{C9449836-5744-40BE-B3EA-7492E41EB269}
  9
$VERSIONGUID
  2
{B02F7908-7E89-456E-9B22-8F7625EDDD61}
  9
$EXTNAMES
290
     1
  9
$PSVPSCALE
 40
0.0
  9
$OLESTARTUP
290
     0
  0
ENDSEC
  0
SECTION
  2
CLASSES
  0
CLASS
  1
ACDBDICTIONARYWDFLT
  2
AcDbDictionaryWithDefault
  3
ObjectDBX Classes
 90
        0
280
     0
281
     0
  0
CLASS
  1
MATERIAL
  2
AcDbMaterial
  3
ObjectDBX Classes
 90
     1153
280
     0
281
     0
  0
CLASS
  1
VISUALSTYLE
  2
AcDbVisualStyle
  3
ObjectDBX Classes
 90
     4095
280
     0
281
     0
  0
CLASS
  1
SCALE
  2
AcDbScale
  3
ObjectDBX Classes
 90
     1153
280
     0
281
     0
  0
CLASS
  1
TABLESTYLE
  2
AcDbTableStyle
  3
ObjectDBX Classes
 90
     4095
280
     0
281
     0
  0
CLASS
  1
MLEADERSTYLE
  2
AcDbMLeaderStyle
  3
ACDB_MLEADERSTYLE_CLASS
 90
     4095
280
     0
281
     0
  0
CLASS
  1
AMGSETTINGSOBJ
  2
AmgSettingsObj
  3
"AcadM|Product Description: AutoCAD Mechanical|Company: Autodesk, Inc."
 90
     1024
280
     0
281
     0
  0
CLASS
  1
ACME_DOCUMENT
  2
AcMeDbDoc
  3
AcMeServices
 90
     1024
280
     0
281
     0
  0
CLASS
  1
ACMESCOPE
  2
AcMeScope
  3
AcMeServices
 90
     1024
280
     0
281
     0
  0
CLASS
  1
ACMECOMMANDHISTORY
  2
AcMeCommandHistory
  3
AcMeServices
 90
     1024
280
     0
281
     0
  0
CLASS
  1
ACIMSYSVARMAN
  2
AcImSysVarManager
  3
AcMeServices
 90
     1024
280
     0
281
     0
  0
CLASS
  1
ACIMREALSYSVAR
  2
AcImRealSysVar
  3
AcMeServices
 90
     1024
280
     0
281
     0
  0
CLASS
  1
ACIMINTSYSVAR
  2
AcImIntSysVar
  3
AcMeServices
 90
     1024
280
     0
281
     0
  0
CLASS
  1
ACMEDRAWINGMAN
  2
AcMeDrawingMan
  3
AcMeServices
 90
     1024
280
     0
281
     0
  0
CLASS
  1
ACMEVIEW
  2
AcMeView
  3
AcMeServices
 90
     1024
280
     0
281
     0
  0
CLASS
  1
ACDBENTITYCACHE
  2
AcMeEntityCache
  3
AcMeServices
 90
     1024
280
     0
281
     0
  0
CLASS
  1
GSMANAGER
  2
AcMeGSManager
  3
AcMeServices
 90
     1024
280
     0
281
     0
  0
CLASS
  1
AMDTINTERNALREACTOR
  2
AmdtInternalReactor
  3
AcMeServices
 90
     1024
280
     0
281
     0
  0
CLASS
  1
ACMESTATEMGR
  2
AcMeStateMgr
  3
AcMeServices
 90
     1024
280
     0
281
     0
  0
CLASS
  1
ACGREFMASTER
  2
AcGrefMaster
  3
AcAttribServices
 90
     1024
280
     0
281
     0
  0
CLASS
  1
AM_DRAWING_MGR
  2
AcDmDwgMgr
  3
AcMechDwgViewMgmt
 90
     1024
280
     0
281
     0
  0
CLASS
  1
AM_DWG_DOCUMENT
  2
AcDmDwgDocument
  3
AcMechDwgViewMgmt
 90
     1024
280
     0
281
     0
  0
CLASS
  1
AM_DWG_SHEET
  2
AcDmSheet
  3
AcMechDwgViewMgmt
 90
     1024
280
     0
281
     0
  0
CLASS
  1
AM_VIEWDIMPARMAP
  2
AcDmViewDimParMap
  3
AcMechDwgViewMgmt
 90
     1024
280
     0
281
     0
  0
CLASS
  1
AM_DWGMGR_NAME
  2
AcDmDwgMgrName
  3
AcMechDwgViewMgmt
 90
     1024
280
     0
281
     0
  0
CLASS
  1
ACME_DATABASE
  2
AcMeDbDatabase
  3
AcMeServices
 90
     1024
280
     0
281
     0
  0
CLASS
  1
ACRFINSADJUSTERMGR
  2
AcRfInsAdjusterMgr
  3
AcMeServices
 90
     1024
280
     0
281
     0
  0
CLASS
  1
ACGREFACADMASTER
  2
AcGrefacadMaster
  3
AcGrefServices
 90
     1024
280
     0
281
     0
  0
CLASS
  1
AMDTMENUSTATEMGR
  2
AmdtMenuStateMgr
  3
McadcomServices
 90
     1024
280
     0
281
     0
  0
CLASS
  1
AMDTMCOMMENUSTATE
  2
AmdtMcomMenuState
  3
McadcomServices
 90
     1024
280
     0
281
     0
  0
CLASS
  1
AMIMASTER
  2
AmiMaster
  3
AmiServices
 90
     1024
280
     0
281
     0
  0
CLASS
  1
ASAPP
  2
AcAsAppObject
  3
AutoSurfServices
 90
     1024
280
     0
281
     0
  0
CLASS
  1
IM_STATIC_MAN
  2
AcImStaticVarManager
  3
AcMeServices
 90
     1024
280
     0
281
     0
  0
CLASS
  1
ACIMSTRSYSVAR
  2
AcImStrSysVar
  3
AcMeServices
 90
     1024
280
     0
281
     0
  0
CLASS
  1
ACIMDBLSTATICVAR
  2
AcImDblStaticVar
  3
AcMeServices
 90
     1024
280
     0
281
     0
  0
CLASS
  1
ACIMSTRSTATICVAR
  2
AcImStrStaticVar
  3
AcMeServices
 90
     1024
280
     0
281
     0
  0
CLASS
  1
ACIMINTSTATICVAR
  2
AcImIntStaticVar
  3
AcMeServices
 90
     1024
280
     0
281
     0
  0
CLASS
  1
ACASGREFMASTER
  2
AcAsGrefMaster
  3
AutoSurfResolverServices
 90
     1024
280
     0
281
     0
  0
CLASS
  1
ACADGREFMODULE
  2
AcAdGrefModule
  3
AdGrefServices
 90
     1024
280
     0
281
     0
  0
CLASS
  1
AMDTMAPISURFMOUDULE
  2
AmdtMApiSurfModule
  3
MApiSurfServices
 90
     1024
280
     0
281
     0
  0
CLASS
  1
MAPIAMMOUDLE
  2
MApiAmModule
  3
MApiAmServices
 90
     1024
280
     0
281
     0
  0
CLASS
  1
AMDTADMENUSTATE
  2
AmdtAdMenuState
  3
DesignerServices
 90
     1024
280
     0
281
     0
  0
CLASS
  1
ADAPPL
  2
AcAdAppl
  3
DesignerServices
 90
     1024
280
     0
281
     0
  0
CLASS
  1
DEPMGR
  2
AcAdDepMgr
  3
DesignerServices
 90
     1024
280
     0
281
     0
  0
CLASS
  1
PARAMMGR
  2
AcAdParamMgr
  3
DesignerServices
 90
     1024
280
     0
281
     0
  0
CLASS
  1
PARAMSCOPE
  2
AcAdParamScope
  3
DesignerServices
 90
     1024
280
     0
281
     0
  0
CLASS
  1
NAMEDAPPL
  2
AcAdNamedAppl
  3
DesignerServices
 90
     1024
280
     0
281
     0
  0
CLASS
  1
AMDTDMMENUSTATE
  2
AmdtDmMenuState
  3
AcMechDwgViewMgmt
 90
     1024
280
     0
281
     0
  0
CLASS
  1
MAPIADMODULE
  2
MApiAdModule
  3
MApiAdServices
 90
     1024
280
     0
281
     0
  0
CLASS
  1
AMDTAMMENUSTATE
  2
AmdtAmMenuState
  3
DesignerAssemblies
 90
     1024
280
     0
281
     0
  0
CLASS
  1
ACAMPROJECT
  2
AcAmProject
  3
DesignerAssemblies
 90
     1024
280
     0
281
     0
  0
CLASS
  1
ACAMGRCOMPDEF
  2
AcAmGrCompDef
  3
DesignerAssemblies
 90
     1024
280
     0
281
     0
  0
CLASS
  1
ACCMCONTEXT
  2
AcCmContext
  3
DesignerAssemblies
 90
     1024
280
     0
281
     0
  0
CLASS
  1
ACAMCOMPDEF
  2
AcAmCompDef
  3
DesignerAssemblies
 90
     1024
280
     0
281
     0
  0
CLASS
  1
ACAMCOMPDEFMGR
  2
AcAmCompDefMgr
  3
DesignerAssemblies
 90
     1024
280
     0
281
     0
  0
CLASS
  1
AMCONTEXTMGR
  2
AcAmContextMgr
  3
DesignerAssemblies
 90
     1024
280
     0
281
     0
  0
CLASS
  1
ACAMCONTEXTMODELER
  2
AcAmContextModeler
  3
DesignerAssemblies
 90
     1024
280
     0
281
     0
  0
CLASS
  1
ACMDATADICTIONARY
  2
AcmDataDictionary
  3
"AcmSymBB|Product Description: AutoCAD Mechanical|Company: Autodesk, Inc."
 90
     1024
280
     0
281
     0
  0
CLASS
  1
ACMDATAENTRYBLOCK
  2
AcmDataEntryBlock
  3
AcmSymBB|Product Description: AutoCAD Mechanical|Company: Autodesk, Inc.
 90
     1024
280
     0
281
     0
  0
CLASS
  1
ACRFATTGENMGR
  2
AcRfAttGeneralMgr
  3
AcAttribServices
 90
     1024
280
     0
281
     0
  0
CLASS
  1
ACRFOBJATTMGR
  2
AcRfObjAttGroupMgr
  3
AcAttribServices
 90
     1024
280
     0
281
     0
  0
CLASS
  1
ACRFMCADAPIATTHOLDER
  2
AcRfMCADAPIAttHolder
  3
AcAttribServices
 90
     1024
280
     0
281
     0
  0
CLASS
  1
AMDTSYSATTR
  2
AmdtSystemAttribute
  3
AcAttribServices
 90
     1024
280
     0
281
     0
  0
CLASS
  1
CATALOGSTATE
  2
AcAmCatalogState
  3
DesignerAssemblies
 90
     1024
280
     0
281
     0
  0
CLASS
  1
ACAMGRCOMPDEFSET
  2
AcAmGrCompDefSet
  3
DesignerAssemblies
 90
     1024
280
     0
281
     0
  0
CLASS
  1
AMDTBROWSERDBTAB
  2
AmdtBrowserDbTab
  3
McadcomServices
 90
     1024
280
     0
281
     0
  0
CLASS
  1
CBROWSERAPPOBJECT
  2
CBrowserAppObject
  3
McadcomServices
 90
     1024
280
     0
281
     0
  0
CLASS
  1
DM_PLACEHOLDER
  2
AcDmSelsetPlaceholder
  3
AcMechDwgViewMgmt
 90
     1024
280
     0
281
     0
  0
CLASS
  1
ACMSTANDARDANSI
  2
AcmStandardANSI
  3
"Amdt_StdImp|Product Description: AutoCAD Mechanical|Company: Autodesk, Inc."
 90
     1024
280
     0
281
     0
  0
CLASS
  1
ACMSURFSTANDARDANSI
  2
AcmSurfTextStdANSI
  3
"Amdt_StdImp|Product Description: AutoCAD Mechanical|Company: Autodesk, Inc."
 90
     1024
280
     0
281
     0
  0
CLASS
  1
ACMFCFSTANDARDANSI
  2
AcmFCFStdANSI
  3
"Amdt_StdImp|Product Description: AutoCAD Mechanical|Company: Autodesk, Inc."
 90
     1024
280
     0
281
     0
  0
CLASS
  1
ACMWELDSTANDARDANSI
  2
AcmWeldingStdANSI
  3
"Amdt_StdImp|Product Description: AutoCAD Mechanical|Company: Autodesk, Inc."
 90
     1024
280
     0
281
     0
  0
CLASS
  1
ACMIDSTANDARDANSI
  2
AcmIdStdANSI
  3
"Amdt_StdImp|Product Description: AutoCAD Mechanical|Company: Autodesk, Inc."
 90
     1024
280
     0
281
     0
  0
CLASS
  1
ACMDATUMSTANDARDANSI
  2
AcmDatumStdANSI
  3
"Amdt_StdImp|Product Description: AutoCAD Mechanical|Company: Autodesk, Inc."
 90
     1024
280
     0
281
     0
  0
CLASS
  1
ACMBOMSTANDARDANSI
  2
AcmBOMStdANSI
  3
"Amdt_StdImp|Product Description: AutoCAD Mechanical|Company: Autodesk, Inc."
 90
     1024
280
     0
281
     0
  0
CLASS
  1
ACMDETAILSTANDARDANSI
  2
AmdtDetailSymStdANSI
  3
"Amdt_StdImp|Product Description: AutoCAD Mechanical|Company: Autodesk, Inc."
 90
     1024
280
     0
281
     0
  0
CLASS
  1
ACMSECTIONSTANDARDANSI
  2
AmdtSectionSymStdANSI
  3
"Amdt_StdImp|Product Description: AutoCAD Mechanical|Company: Autodesk, Inc."
 90
     1024
280
     0
281
     0
  0
CLASS
  1
ACMCENTERLINESTANDARDANSI
  2
AmdtCenterLineStdANSI
  3
"Amdt_StdImp|Product Description: AutoCAD Mechanical|Company: Autodesk, Inc."
 90
     1024
280
     0
281
     0
  0
CLASS
  1
ACMTHREADLINESTANDARDANSI
  2
AmdtThreadLineStdANSI
  3
"Amdt_StdImp|Product Description: AutoCAD Mechanical|Company: Autodesk, Inc."
 90
     1024
280
     0
281
     0
  0
CLASS
  1
ACMNOTESTANDARDANSI
  2
AmdtNoteStdANSI
  3
"Amdt_StdImp|Product Description: AutoCAD Mechanical|Company: Autodesk, Inc."
 90
     1024
280
     0
281
     0
  0
CLASS
  1
ACMTAPERSTANDARDANSI
  2
AcmTaperStdANSI
  3
"Amdt_StdImp|Product Description: AutoCAD Mechanical|Company: Autodesk, Inc."
 90
     1024
280
     0
281
     0
  0
CLASS
  1
ACMANOOTATIONVIEWSTANDARDANSI
  2
AmdtAnViewStdANSI
  3
"Amdt_StdImp|Product Description: AutoCAD Mechanical|Company: Autodesk, Inc."
 90
     1024
280
     0
281
     0
  0
CLASS
  1
ACAMGLAYSTD
  2
AcAmgLayStd
  3
"AmgLay|Product Description: AutoCAD Mechanical|Company: Autodesk, Inc."
 90
     1024
280
     0
281
     0
  0
CLASS
  1
ACAMGDIMSTD
  2
AcAmgDimStd
  3
"AmgDim|Product Description: AutoCAD Mechanical|Company: Autodesk, Inc."
 90
     1024
280
     0
281
     0
  0
CLASS
  1
ACAMGHOLECHARTSTDANSI
  2
AcAmgHoleChartStdANSI
  3
AmgDim|Product Description: AutoCAD Mechanical|Company: Autodesk, Inc.
 90
     1024
280
     0
281
     0
  0
CLASS
  1
AMGOBJPROPCFG
  2
AmgObjPropCfg
  3
"AmgLay|Product Description: AutoCAD Mechanical|Company: Autodesk, Inc."
 90
     1025
280
     0
281
     0
  0
CLASS
  1
ACAMGTITLESTD
  2
AcAmgTitleStd
  3
"AmgTitle|Product Description: AutoCAD Mechanical|Company: Autodesk, Inc."
 90
     4095
280
     0
281
     0
  0
CLASS
  1
AMDTNOTETEMPLATEDB
  2
AmdtNoteTemplateDB
  3
AcmSymBB|Product Description: AutoCAD Mechanical|Company: Autodesk, Inc.
 90
     1024
280
     0
281
     0
  0
CLASS
  1
LAYER_INDEX
  2
AcDbLayerIndex
  3
ObjectDBX Classes
 90
        0
280
     0
281
     0
  0
CLASS
  1
IDBUFFER
  2
AcDbIdBuffer
  3
ObjectDBX Classes
 90
        0
280
     0
281
     0
  0
CLASS
  1
DICTIONARYVAR
  2
AcDbDictionaryVar
  3
ObjectDBX Classes
 90
        0
280
     0
281
     0
  0
CLASS
  1
CELLSTYLEMAP
  2
AcDbCellStyleMap
  3
ObjectDBX Classes
 90
     1152
280
     0
281
     0
  0
CLASS
  1
ACDBPLACEHOLDER
  2
AcDbPlaceHolder
  3
ObjectDBX Classes
 90
        0
280
     0
281
     0
  0
CLASS
  1
LAYOUT
  2
AcDbLayout
  3
ObjectDBX Classes
 90
        0
280
     0
281
     0
  0
ENDSEC
  0
SECTION
  2
TABLES
  0
TABLE
  2
VPORT
  5
27F6
330
0
100
AcDbSymbolTable
 70
     1
  0
VPORT
  5
2866
330
27F6
100
AcDbSymbolTableRecord
100
AcDbViewportTableRecord
  2
*ACTIVE
 70
     0
 10
0.0
 20
0.0
 11
1.0
 21
1.0
 12
0.0
 22
0.0
 13
0.0
 23
0.0
 14
1.0
 24
1.0
 15
0.0
 25
0.0
 16
0.0
 26
0.0
 36
1.0
 17
37.61445479189666
 27
48.50443075091675
 37
0.0
 40
1232.932079708648
 41
1.712555066079294
 42
50.0
 43
0.0
 44
0.0
 50
0.0
 51
0.0
 71
     0
 72
   100
 73
     1
 74
     0
 75
     0
 76
     0
 77
     0
 78
     0
281
     0
 65
     0
110
0.0
120
0.0
130
0.0
111
1.0
121
0.0
131
0.0
112
0.0
122
1.0
132
0.0
 79
     0
146
0.0
  0
ENDTAB
  0
TABLE
  2
LTYPE
  5
27F3
330
0
100
AcDbSymbolTable
 70
    19
  0
LTYPE
  5
2850
330
27F3
100
AcDbSymbolTableRecord
100
AcDbLinetypeTableRecord
  2
ByBlock
 70
     0
  3

 72
    65
 73
     0
 40
0.0
  0
LTYPE
  5
2851
330
27F3
100
AcDbSymbolTableRecord
100
AcDbLinetypeTableRecord
  2
ByLayer
 70
     0
  3

 72
    65
 73
     0
 40
0.0
  0
LTYPE
  5
2852
330
27F3
100
AcDbSymbolTableRecord
100
AcDbLinetypeTableRecord
  2
CONTINUOUS
 70
     0
  3
実線
 72
    65
 73
     0
 40
0.0
  0
LTYPE
  5
2867
330
27F3
100
AcDbSymbolTableRecord
100
AcDbLinetypeTableRecord
  2
DASHDOT
 70
     0
  3
____ _ ____ _ ____ _ ____ _ ____ _ ____ _ ____
 72
    65
 73
     4
 40
5.5
 49
4.0
 74
     0
 49
-0.6
 74
     0
 49
0.3
 74
     0
 49
-0.6
 74
     0
  0
LTYPE
  5
2868
330
27F3
100
AcDbSymbolTableRecord
100
AcDbLinetypeTableRecord
  2
HIDDEN
 70
     0
  3
Hidden __ __ __ __ __ __ __ __ __ __ __ __ __ _
 72
    65
 73
     2
 40
0.375
 49
0.25
 74
     0
 49
-0.125
 74
     0
  0
LTYPE
  5
2869
330
27F3
100
AcDbSymbolTableRecord
100
AcDbLinetypeTableRecord
  2
PHANTOM2
 70
     0
  3
Phantom (.5x) ___ _ _ ___ _ _ ___ _ _ ___ _ _
 72
    65
 73
     6
 40
1.25
 49
0.625
 74
     0
 49
-0.125
 74
     0
 49
0.125
 74
     0
 49
-0.125
 74
     0
 49
0.125
 74
     0
 49
-0.125
 74
     0
  0
LTYPE
  5
286A
330
27F3
100
AcDbSymbolTableRecord
100
AcDbLinetypeTableRecord
  2
CENTER
 70
     0
  3
Center ____ _ ____ _ ____ _ ____ _ ____ _ ____
 72
    65
 73
     4
 40
2.0
 49
1.25
 74
     0
 49
-0.25
 74
     0
 49
0.25
 74
     0
 49
-0.25
 74
     0
  0
LTYPE
  5
286B
330
27F3
100
AcDbSymbolTableRecord
100
AcDbLinetypeTableRecord
  2
ASULTYPE
 70
     0
  3
実線
 72
    65
 73
     2
 40
3.0
 49
2.5
 74
     0
 49
0.5
 74
     0
  0
LTYPE
  5
286C
330
27F3
100
AcDbSymbolTableRecord
100
AcDbLinetypeTableRecord
  2
ASVLTYPE
 70
     0
  3
__ __ __ __ __ __ __ __ __ __ __ __ __ __ __ __ __ __ __ __ __
 72
    65
 73
     2
 40
0.75
 49
0.5
 74
     0
 49
-0.25
 74
     0
  0
LTYPE
  5
286D
330
27F3
100
AcDbSymbolTableRecord
100
AcDbLinetypeTableRecord
  2
AM_ISO02W050
 70
     0
  3
__ __ __ __ __ __ __ __ __ __ __ __ __ __ __
 72
    65
 73
     2
 40
7.5
 49
6.0
 74
     0
 49
-1.5
 74
     0
  0
LTYPE
  5
286E
330
27F3
100
AcDbSymbolTableRecord
100
AcDbLinetypeTableRecord
  2
AM_ISO08W050
 70
     0
  3
____ . ____ . ____ . ____ . ____ . ____ . ____
 72
    65
 73
     4
 40
18.0
 49
12.0
 74
     0
 49
-1.5
 74
     0
 49
3.0
 74
     0
 49
-1.5
 74
     0
  0
LTYPE
  5
286F
330
27F3
100
AcDbSymbolTableRecord
100
AcDbLinetypeTableRecord
  2
AM_ISO09W050
 70
     0
  3
_____ . . _____ . . _____ . . ____ .. ____
 72
    65
 73
     6
 40
22.5
 49
12.0
 74
     0
 49
-1.5
 74
     0
 49
3.0
 74
     0
 49
-1.5
 74
     0
 49
3.0
 74
     0
 49
-1.5
 74
     0
  0
LTYPE
  5
2870
330
27F3
100
AcDbSymbolTableRecord
100
AcDbLinetypeTableRecord
  2
AMCONSTR
 70
     0
  3
_______________________
 72
    65
 73
     2
 40
9999.0
 49
9999.0
 74
     0
 49
0.0
 74
     0
  0
LTYPE
  5
2871
330
27F3
100
AcDbSymbolTableRecord
100
AcDbLinetypeTableRecord
  2
AM_ISO08W050X2
 70
     0
  3
__ . __ . __ . __ . __ . __
 72
    65
 73
     4
 40
9.0
 49
6.0
 74
     0
 49
-0.75
 74
     0
 49
1.5
 74
     0
 49
-0.75
 74
     0
  0
LTYPE
  5
2872
330
27F3
100
AcDbSymbolTableRecord
100
AcDbLinetypeTableRecord
  2
AM_ISO02W050X2
 70
     0
  3
 _ _ _ _ _ _ _ _ _ _ _ _
 72
    65
 73
     2
 40
3.75
 49
3.0
 74
     0
 49
-0.75
 74
     0
  0
LTYPE
  5
2873
330
27F3
100
AcDbSymbolTableRecord
100
AcDbLinetypeTableRecord
  2
AMZIGZAG
 70
     0
  3
/\/-/\/-/\/-/\/-/\/-/\/
 72
    65
 73
     2
 40
11.0001
 49
0.0001
 74
     0
 49
-11.0
 74
     0
  0
LTYPE
  5
2874
330
27F3
100
AcDbSymbolTableRecord
100
AcDbLinetypeTableRecord
  2
CENTER2
 70
     0
  3
Center (.5x) ___ _ ___ _ ___ _ ___ _ ___ _ ___
 72
    65
 73
     4
 40
1.125
 49
0.75
 74
     0
 49
-0.125
 74
     0
 49
0.125
 74
     0
 49
-0.125
 74
     0
  0
LTYPE
  5
2875
330
27F3
100
AcDbSymbolTableRecord
100
AcDbLinetypeTableRecord
  2
HIDDEN2
 70
     0
  3
Hidden (.5x) _ _ _ _ _ _ _ _ _ _ _ _ _ _ _ _ _
 72
    65
 73
     2
 40
0.1875
 49
0.125
 74
     0
 49
-0.0625
 74
     0
  0
LTYPE
  5
2876
330
27F3
100
AcDbSymbolTableRecord
100
AcDbLinetypeTableRecord
  2
AMZIGZAG2
 70
     0
  3
/\/-/\/-/\/-/\/-/\/-/\/
 72
    65
 73
     2
 40
0.4401
 49
0.0001
 74
     0
 49
-0.4400000000000003
 74
     0
  0
LTYPE
  5
2877
330
27F3
100
AcDbSymbolTableRecord
100
AcDbLinetypeTableRecord
  2
ACANSTGB
 70
     0
  3
__ . . __ . .
 72
    65
 73
     6
 40
0.35433070866
 49
0.15748031496
 74
     0
 49
-0.03937007874
 74
     0
 49
0.03937007874
 74
     0
 49
-0.03937007874
 74
     0
 49
0.03937007874
 74
     0
 49
-0.03937007874
 74
     0
  0
LTYPE
  5
2878
330
27F3
100
AcDbSymbolTableRecord
100
AcDbLinetypeTableRecord
  2
ACANSTGL
 70
     0
  3
_ _ _ _ _
 72
    65
 73
     2
 40
0.11811023622
 49
0.07874015748
 74
     0
 49
-0.03937007874
 74
     0
  0
ENDTAB
  0
TABLE
  2
LAYER
  5
27F0
330
0
100
AcDbSymbolTable
 70
    12
  0
LAYER
  5
284A
102
{ACAD_XDICTIONARY
360
2A20
102
}
330
27F0
100
AcDbSymbolTableRecord
100
AcDbLayerTableRecord
  2
0
 70
     0
 62
     7
  6
CONTINUOUS
370
    -3
390
27FD
  0
LAYER
  5
2879
102
{ACAD_XDICTIONARY
360
2A22
102
}
330
27F0
100
AcDbSymbolTableRecord
100
AcDbLayerTableRecord
  2
OUTLINE
 70
     0
 62
     3
  6
CONTINUOUS
370
    -3
390
27FD
  0
LAYER
  5
287A
102
{ACAD_XDICTIONARY
360
2A24
102
}
330
27F0
100
AcDbSymbolTableRecord
100
AcDbLayerTableRecord
  2
SIZE
 70
     0
 62
    30
  6
CONTINUOUS
370
    -3
390
27FD
  0
LAYER
  5
287B
102
{ACAD_XDICTIONARY
360
2A26
102
}
330
27F0
100
AcDbSymbolTableRecord
100
AcDbLayerTableRecord
  2
BASIS
 70
     0
 62
     6
  6
DASHDOT
370
    -3
390
27FD
  0
LAYER
  5
287C
102
{ACAD_XDICTIONARY
360
2A28
102
}
330
27F0
100
AcDbSymbolTableRecord
100
AcDbLayerTableRecord
  2
DETAIL
 70
     0
 62
     5
  6
CONTINUOUS
370
    -3
390
27FD
  0
LAYER
  5
287D
102
{ACAD_XDICTIONARY
360
2A2A
102
}
330
27F0
100
AcDbSymbolTableRecord
100
AcDbLayerTableRecord
  2
ARRANGE
 70
     0
 62
     1
  6
CONTINUOUS
370
    -3
390
27FD
  0
LAYER
  5
287E
330
27F0
100
AcDbSymbolTableRecord
100
AcDbLayerTableRecord
  2
DEFPOINTS
 70
     0
 62
     7
  6
CONTINUOUS
290
     0
370
    -3
390
27FD
  0
LAYER
  5
287F
102
{ACAD_XDICTIONARY
360
2A2C
102
}
330
27F0
100
AcDbSymbolTableRecord
100
AcDbLayerTableRecord
  2
ETC
 70
     0
 62
    61
  6
CONTINUOUS
370
    -3
390
27FD
  0
LAYER
  5
2880
102
{ACAD_XDICTIONARY
360
2A2E
102
}
330
27F0
100
AcDbSymbolTableRecord
100
AcDbLayerTableRecord
  2
FIX
 70
     0
 62
    11
  6
CONTINUOUS
370
    -3
390
27FD
  0
LAYER
  5
2881
102
{ACAD_XDICTIONARY
360
2A30
102
}
330
27F0
100
AcDbSymbolTableRecord
100
AcDbLayerTableRecord
  2
NOTE
 70
     0
 62
     4
  6
CONTINUOUS
370
    -3
390
27FD
  0
LAYER
  5
2882
102
{ACAD_XDICTIONARY
360
2A32
102
}
330
27F0
100
AcDbSymbolTableRecord
100
AcDbLayerTableRecord
  2
SERVICESPACE
 70
     0
 62
     2
  6
DASHDOT
370
    -3
390
27FD
  0
LAYER
  5
2883
102
{ACAD_XDICTIONARY
360
2A34
102
}
330
27F0
100
AcDbSymbolTableRecord
100
AcDbLayerTableRecord
  2
SYMBOLLINE
 70
     0
 62
    15
  6
CONTINUOUS
370
    -3
390
27FD
  0
ENDTAB
  0
TABLE
  2
STYLE
  5
27F1
330
0
100
AcDbSymbolTable
 70
     5
  0
STYLE
  5
284B
330
27F1
100
AcDbSymbolTableRecord
100
AcDbTextStyleTableRecord
  2
STANDARD
 70
     0
 40
64.0
 41
0.9
 50
0.0
 71
     0
 42
64.0
  3
SIMPLEX.shx
  4
BIGFONT.shx
  0
STYLE
  5
284F
330
27F1
100
AcDbSymbolTableRecord
100
AcDbTextStyleTableRecord
  2
ANNOTATIVE
 70
     0
 40
0.0
 41
1.0
 50
0.0
 71
     0
 42
0.2
  3
txt
  4

1001
ACADANNOTATIVE
1000
AnnotativeData
1002
{
1070
     1
1070
     1
1002
}
  0
STYLE
  5
2884
330
27F1
100
AcDbSymbolTableRecord
100
AcDbTextStyleTableRecord
  2

 70
     1
 40
0.0
 41
1.0
 50
0.0
 71
     0
 42
64.0
  3
genltshp.shx
  4

  0
STYLE
  5
2885
330
27F1
100
AcDbSymbolTableRecord
100
AcDbTextStyleTableRecord
  2
ACANSTS
 70
     0
 40
1.0
 41
1.0
 50
0.0
 71
     0
 42
64.0
  3
romans.shx
  4
extfont.shx
  0
STYLE
  5
2886
330
27F1
100
AcDbSymbolTableRecord
100
AcDbTextStyleTableRecord
  2
ACANSGDT
 70
     0
 40
0.0
 41
1.0
 50
0.0
 71
     0
 42
64.0
  3
amgdt.shx
  4

  0
ENDTAB
  0
TABLE
  2
VIEW
  5
27F4
330
0
100
AcDbSymbolTable
 70
     1
  0
VIEW
  5
2887
330
27F4
100
AcDbSymbolTableRecord
100
AcDbViewTableRecord
  2
ALL
 70
     0
 40
4282.619807999997
 10
0.0
 20
41.30990399999999
 41
5940.0
 11
0.0
 21
0.0
 31
1.0
 12
0.0
 22
0.0
 32
0.0
 42
50.0
 43
0.0
 44
0.0
 50
0.0
 71
     0
281
     0
 72
     1
110
0.0
120
0.0
130
0.0
111
1.0
121
0.0
131
0.0
112
0.0
122
1.0
132
0.0
 79
     0
146
0.0
  0
ENDTAB
  0
TABLE
  2
UCS
  5
27F5
330
0
100
AcDbSymbolTable
 70
     0
  0
ENDTAB
  0
TABLE
  2
APPID
  5
27F7
330
0
100
AcDbSymbolTable
 70
    26
  0
APPID
  5
284C
330
27F7
100
AcDbSymbolTableRecord
100
AcDbRegAppTableRecord
  2
ACAD
 70
     0
  0
APPID
  5
2853
330
27F7
100
AcDbSymbolTableRecord
100
AcDbRegAppTableRecord
  2
ACADANNOTATIVE
 70
     0
  0
APPID
  5
285D
330
27F7
100
AcDbSymbolTableRecord
100
AcDbRegAppTableRecord
  2
ACAD_MLEADERVER
 70
     0
  0
APPID
  5
2888
330
27F7
100
AcDbSymbolTableRecord
100
AcDbRegAppTableRecord
  2
GENIUS_GENDIM_13
 70
     0
  0
APPID
  5
2889
330
27F7
100
AcDbSymbolTableRecord
100
AcDbRegAppTableRecord
  2
GENIUS_GENDTOL_13
 70
     0
  0
APPID
  5
288A
330
27F7
100
AcDbSymbolTableRecord
100
AcDbRegAppTableRecord
  2
GENIUS_GE3DTOL_13
 70
     0
  0
APPID
  5
288B
330
27F7
100
AcDbSymbolTableRecord
100
AcDbRegAppTableRecord
  2
MCAD_NO_VIS
 70
     0
  0
APPID
  5
288C
330
27F7
100
AcDbSymbolTableRecord
100
AcDbRegAppTableRecord
  2
ACAD_TEMP_GRAPHIC
 70
     0
  0
APPID
  5
288D
330
27F7
100
AcDbSymbolTableRecord
100
AcDbRegAppTableRecord
  2
AD_DRAW
 70
     0
  0
APPID
  5
288E
330
27F7
100
AcDbSymbolTableRecord
100
AcDbRegAppTableRecord
  2
ACATTRIBSERVICES
 70
     0
  0
APPID
  5
288F
330
27F7
100
AcDbSymbolTableRecord
100
AcDbRegAppTableRecord
  2
ASURF_PCURVE_APPNAME
 70
     0
  0
APPID
  5
2890
330
27F7
100
AcDbSymbolTableRecord
100
AcDbRegAppTableRecord
  2
AMG_3D2D_5_0
 70
     0
  0
APPID
  5
2891
330
27F7
100
AcDbSymbolTableRecord
100
AcDbRegAppTableRecord
  2
DESIGNERASSEMBLIES
 70
     0
  0
APPID
  5
2892
330
27F7
100
AcDbSymbolTableRecord
100
AcDbRegAppTableRecord
  2
ACADM_DIM_EDIT
 70
     0
  0
APPID
  5
2893
330
27F7
100
AcDbSymbolTableRecord
100
AcDbRegAppTableRecord
  2
AMDT_DM_ADJ
 70
     0
  0
APPID
  5
2894
330
27F7
100
AcDbSymbolTableRecord
100
AcDbRegAppTableRecord
  2
ACAD_DSTYLE_DIMARC_LENGTH_
 70
     0
  0
APPID
  5
2895
330
27F7
100
AcDbSymbolTableRecord
100
AcDbRegAppTableRecord
  2
ACAD_DSTYLE_DIMJOGGED_JOGA
 70
     0
  0
APPID
  5
2896
330
27F7
100
AcDbSymbolTableRecord
100
AcDbRegAppTableRecord
  2
ACAD_PSEXT
 70
     0
  0
APPID
  5
2897
330
27F7
100
AcDbSymbolTableRecord
100
AcDbRegAppTableRecord
  2
ACAD_EXEMPT_FROM_CAD_STANDARDS
 70
     0
  0
APPID
  5
2898
330
27F7
100
AcDbSymbolTableRecord
100
AcDbRegAppTableRecord
  2
ACAD_DSTYLE_DIMJAG
 70
     0
  0
APPID
  5
2899
330
27F7
100
AcDbSymbolTableRecord
100
AcDbRegAppTableRecord
  2
ACAD_DSTYLE_DIMTALN
 70
     0
  0
APPID
  5
29C7
330
27F7
100
AcDbSymbolTableRecord
100
AcDbRegAppTableRecord
  2
AMG_3D2D_5.0
 70
     0
  0
APPID
  5
2A5D
330
27F7
100
AcDbSymbolTableRecord
100
AcDbRegAppTableRecord
  2
ACAD_DSTYLE_DIMARC_LENGTH_SYMBOL
 70
     0
  0
APPID
  5
2A5E
330
27F7
100
AcDbSymbolTableRecord
100
AcDbRegAppTableRecord
  2
ACAD_DSTYLE_DIM_LINETYPE
 70
     0
  0
APPID
  5
2A5F
330
27F7
100
AcDbSymbolTableRecord
100
AcDbRegAppTableRecord
  2
ACAD_DSTYLE_DIM_EXT1_LINETYPE
 70
     0
  0
APPID
  5
2A60
330
27F7
100
AcDbSymbolTableRecord
100
AcDbRegAppTableRecord
  2
ACAD_DSTYLE_DIM_EXT2_LINETYPE
 70
     0
  0
ENDTAB
  0
TABLE
  2
DIMSTYLE
  5
27F8
330
0
100
AcDbSymbolTable
 70
    10
100
AcDbDimStyleTable
 71
     1
340
289A
  0
DIMSTYLE
105
284D
330
27F8
100
AcDbSymbolTableRecord
100
AcDbDimStyleTableRecord
  2
STANDARD
 70
     0
 41
12.0
 42
20.0
 44
20.0
 77
     1
 78
     8
140
64.0
141
0.0
147
10.0
275
     1
279
     2
284
     7
285
     7
286
     7
340
284B
  0
DIMSTYLE
105
284E
330
27F8
100
AcDbSymbolTableRecord
100
AcDbDimStyleTableRecord
  2
ANNOTATIVE
 70
     0
275
     1
279
     2
284
     7
285
     7
286
     7
340
284B
1001
ACADANNOTATIVE
1000
AnnotativeData
1002
{
1070
     1
1070
     1
1002
}
  0
DIMSTYLE
105
289A
330
27F8
100
AcDbSymbolTableRecord
100
AcDbDimStyleTableRecord
  2
AM_ANSI
 70
     0
  4
mm
 41
0.12
 42
0.05
 43
0.5
 44
0.1
 47
0.1
 48
0.1
 78
     7
 79
     2
140
0.12
141
0.0
146
0.71
147
0.06
176
   256
177
   256
178
     2
274
     4
284
     7
340
284B
371
    -1
372
    -1
1001
ACAD_DSTYLE_DIMARC_LENGTH_SYMBOL
1070
   379
1070
     1
1001
ACAD_DSTYLE_DIM_LINETYPE
1070
   380
1005
2850
1001
ACAD_DSTYLE_DIM_EXT1_LINETYPE
1070
   381
1005
2850
1001
ACAD_DSTYLE_DIM_EXT2_LINETYPE
1070
   382
1005
2850
  0
DIMSTYLE
105
289B
330
27F8
100
AcDbSymbolTableRecord
100
AcDbDimStyleTableRecord
  2
AM_ANSI$3
 70
     0
  4
mm
 41
0.12
 42
0.05
 43
0.5
 44
0.1
 47
0.1
 48
0.1
 78
     7
 79
     2
140
0.12
141
0.0
146
0.71
147
0.06
176
   256
177
   256
178
     2
274
     4
284
     7
288
     1
289
     0
340
284B
371
    -1
372
    -1
1001
ACAD_DSTYLE_DIMARC_LENGTH_SYMBOL
1070
   379
1070
     1
1001
ACAD_DSTYLE_DIM_LINETYPE
1070
   380
1005
2850
1001
ACAD_DSTYLE_DIM_EXT1_LINETYPE
1070
   381
1005
2850
1001
ACAD_DSTYLE_DIM_EXT2_LINETYPE
1070
   382
1005
2850
  0
DIMSTYLE
105
289C
330
27F8
100
AcDbSymbolTableRecord
100
AcDbDimStyleTableRecord
  2
AM_ANSI$4
 70
     0
  4
mm
 41
0.12
 42
0.05
 43
0.5
 44
0.1
 47
0.1
 48
0.1
 78
     7
 79
     2
140
0.12
141
0.0
146
0.71
147
0.06
176
   256
177
   256
178
     2
274
     4
284
     7
340
284B
371
    -1
372
    -1
1001
ACAD_DSTYLE_DIMARC_LENGTH_SYMBOL
1070
   379
1070
     1
1001
ACAD_DSTYLE_DIM_LINETYPE
1070
   380
1005
2850
1001
ACAD_DSTYLE_DIM_EXT1_LINETYPE
1070
   381
1005
2850
1001
ACAD_DSTYLE_DIM_EXT2_LINETYPE
1070
   382
1005
2850
  0
DIMSTYLE
105
289D
330
27F8
100
AcDbSymbolTableRecord
100
AcDbDimStyleTableRecord
  2
AM_ANSI$7
 70
     0
  4
mm
 41
0.12
 42
0.05
 43
0.5
 44
0.1
 47
0.1
 48
0.1
 78
     7
 79
     2
140
0.12
141
0.0
146
0.71
147
0.06
176
   256
177
   256
178
     2
274
     4
284
     7
340
284B
371
    -1
372
    -1
1001
ACAD_DSTYLE_DIMARC_LENGTH_SYMBOL
1070
   379
1070
     1
1001
ACAD_DSTYLE_DIM_LINETYPE
1070
   380
1005
2850
1001
ACAD_DSTYLE_DIM_EXT1_LINETYPE
1070
   381
1005
2850
1001
ACAD_DSTYLE_DIM_EXT2_LINETYPE
1070
   382
1005
2850
  0
DIMSTYLE
105
289E
330
27F8
100
AcDbSymbolTableRecord
100
AcDbDimStyleTableRecord
  2
AM_ANSI$SF
 70
     0
  4
mm
 41
0.12
 42
0.05
 43
0.5
 44
0.1
 47
0.1
 48
0.1
 75
     1
 76
     1
 78
     7
 79
     2
140
0.12
141
0.0
146
0.71
147
0.06
176
   256
177
   256
178
     2
274
     4
284
     7
340
284B
371
    -1
372
    -1
1001
ACAD_DSTYLE_DIMARC_LENGTH_SYMBOL
1070
   379
1070
     1
1001
ACAD_DSTYLE_DIM_LINETYPE
1070
   380
1005
2850
1001
ACAD_DSTYLE_DIM_EXT1_LINETYPE
1070
   381
1005
2850
1001
ACAD_DSTYLE_DIM_EXT2_LINETYPE
1070
   382
1005
2850
  0
DIMSTYLE
105
289F
330
27F8
100
AcDbSymbolTableRecord
100
AcDbDimStyleTableRecord
  2
AM_ANSI$SH
 70
     0
  4
mm
 41
0.12
 42
0.05
 43
0.5
 44
0.1
 47
0.1
 48
0.1
 75
     1
 76
     1
 78
     7
 79
     2
140
0.12
141
0.0
146
0.71
147
0.06
173
     1
176
   256
177
   256
178
     2
274
     4
284
     7
340
284B
343
28BF
371
    -1
372
    -1
1001
ACAD_DSTYLE_DIMARC_LENGTH_SYMBOL
1070
   379
1070
     1
1001
ACAD_DSTYLE_DIM_LINETYPE
1070
   380
1005
2850
1001
ACAD_DSTYLE_DIM_EXT1_LINETYPE
1070
   381
1005
2850
1001
ACAD_DSTYLE_DIM_EXT2_LINETYPE
1070
   382
1005
2850
  0
DIMSTYLE
105
28A0
330
27F8
100
AcDbSymbolTableRecord
100
AcDbDimStyleTableRecord
  2
STANDARD1
 70
     0
 40
6.0
 41
2.5
 42
0.625
 43
6.0
 44
1.25
 47
1.0
 48
0.5
 77
     1
 78
     8
140
2.5
141
0.0
146
0.6
147
1.0
173
     1
275
     1
279
     2
284
     7
285
     7
286
     7
340
284B
  0
DIMSTYLE
105
28A1
330
27F8
100
AcDbSymbolTableRecord
100
AcDbDimStyleTableRecord
  2
STANDARD$0
 70
     0
 41
12.0
 42
20.0
 44
20.0
 73
     0
 74
     0
 77
     1
 78
     8
140
64.0
141
0.0
147
10.0
275
     1
279
     2
284
     7
285
     7
286
     7
340
284B
  0
ENDTAB
  0
TABLE
  2
BLOCK_RECORD
  5
27EF
330
0
100
AcDbSymbolTable
 70
    79
  0
BLOCK_RECORD
  5
2862
102
{ACAD_XDICTIONARY
360
2A36
102
}
330
27EF
100
AcDbSymbolTableRecord
100
AcDbBlockTableRecord
  2
*Model_Space
340
2865
  0
BLOCK_RECORD
  5
285E
330
27EF
100
AcDbSymbolTableRecord
100
AcDbBlockTableRecord
  2
*Paper_Space
340
2861
  0
BLOCK_RECORD
  5
28A9
330
27EF
100
AcDbSymbolTableRecord
100
AcDbBlockTableRecord
  2
$MODEL_SPACE
340
0
  0
BLOCK_RECORD
  5
28AB
330
27EF
100
AcDbSymbolTableRecord
100
AcDbBlockTableRecord
  2
$PAPER_SPACE
340
0
  0
BLOCK_RECORD
  5
28AD
330
27EF
100
AcDbSymbolTableRecord
100
AcDbBlockTableRecord
  2
_ORIGIN
340
0
  0
BLOCK_RECORD
  5
28AF
330
27EF
100
AcDbSymbolTableRecord
100
AcDbBlockTableRecord
  2
_DOTBLANK
340
0
102
{BLKREFS
331
1299
331
129A
331
11AA
331
11AB
331
E80
331
E81
331
1123
331
1124
331
11C2
331
11C3
331
11EC
331
11ED
331
11F9
331
11FA
331
1287
331
1288
331
1417
331
1418
331
1423
331
1424
331
142F
331
1430
331
143B
331
143C
331
166E
331
166F
331
1677
331
1678
331
1680
331
1681
331
1689
331
168A
331
1696
331
1697
331
16A3
331
16A4
331
16AF
331
16B0
331
16BB
331
16BC
331
16C7
331
16C8
331
16D3
331
16D4
331
1D86
331
1D87
331
1D8F
331
1D90
331
1D98
331
1D99
331
1DA1
331
1DA2
331
1DAB
331
1DAC
331
1DB5
331
1DB6
331
2737
331
2738
331
273C
331
273D
331
2742
331
2743
331
2747
331
2748
331
274C
331
274D
331
2752
331
2753
102
}
  0
BLOCK_RECORD
  5
28B1
330
27EF
100
AcDbSymbolTableRecord
100
AcDbBlockTableRecord
  2
_OPEN30
340
0
102
{BLKREFS
331
2087
331
216B
331
224B
331
2347
331
249B
331
2606
102
}
  0
BLOCK_RECORD
  5
28B3
330
27EF
100
AcDbSymbolTableRecord
100
AcDbBlockTableRecord
  2
*D5
340
0
  0
BLOCK_RECORD
  5
28B5
330
27EF
100
AcDbSymbolTableRecord
100
AcDbBlockTableRecord
  2
*U6
340
0
102
{BLKREFS
331
129B
102
}
  0
BLOCK_RECORD
  5
28B7
330
27EF
100
AcDbSymbolTableRecord
100
AcDbBlockTableRecord
  2
*D7
340
0
  0
BLOCK_RECORD
  5
28B9
330
27EF
100
AcDbSymbolTableRecord
100
AcDbBlockTableRecord
  2
*U8
340
0
102
{BLKREFS
331
11AC
102
}
  0
BLOCK_RECORD
  5
28BB
330
27EF
100
AcDbSymbolTableRecord
100
AcDbBlockTableRecord
  2
*D9
340
0
  0
BLOCK_RECORD
  5
28BD
330
27EF
100
AcDbSymbolTableRecord
100
AcDbBlockTableRecord
  2
*U10
340
0
102
{BLKREFS
331
E82
102
}
  0
BLOCK_RECORD
  5
28BF
330
27EF
100
AcDbSymbolTableRecord
100
AcDbBlockTableRecord
  2
GENAXEH
340
0
  0
BLOCK_RECORD
  5
28C1
330
27EF
100
AcDbSymbolTableRecord
100
AcDbBlockTableRecord
  2
*D12
340
0
  0
BLOCK_RECORD
  5
28C3
330
27EF
100
AcDbSymbolTableRecord
100
AcDbBlockTableRecord
  2
*U13
340
0
102
{BLKREFS
331
1125
102
}
  0
BLOCK_RECORD
  5
28C5
330
27EF
100
AcDbSymbolTableRecord
100
AcDbBlockTableRecord
  2
*D14
340
0
  0
BLOCK_RECORD
  5
28C7
330
27EF
100
AcDbSymbolTableRecord
100
AcDbBlockTableRecord
  2
*U15
340
0
102
{BLKREFS
331
11C4
102
}
  0
BLOCK_RECORD
  5
28C9
330
27EF
100
AcDbSymbolTableRecord
100
AcDbBlockTableRecord
  2
*D16
340
0
  0
BLOCK_RECORD
  5
28CB
330
27EF
100
AcDbSymbolTableRecord
100
AcDbBlockTableRecord
  2
*U17
340
0
102
{BLKREFS
331
11EE
102
}
  0
BLOCK_RECORD
  5
28CD
330
27EF
100
AcDbSymbolTableRecord
100
AcDbBlockTableRecord
  2
*D18
340
0
  0
BLOCK_RECORD
  5
28CF
330
27EF
100
AcDbSymbolTableRecord
100
AcDbBlockTableRecord
  2
*U19
340
0
102
{BLKREFS
331
11FB
102
}
  0
BLOCK_RECORD
  5
28D1
330
27EF
100
AcDbSymbolTableRecord
100
AcDbBlockTableRecord
  2
*D20
340
0
  0
BLOCK_RECORD
  5
28D3
330
27EF
100
AcDbSymbolTableRecord
100
AcDbBlockTableRecord
  2
*U21
340
0
102
{BLKREFS
331
1289
102
}
  0
BLOCK_RECORD
  5
28D5
330
27EF
100
AcDbSymbolTableRecord
100
AcDbBlockTableRecord
  2
*D22
340
0
  0
BLOCK_RECORD
  5
28D7
330
27EF
100
AcDbSymbolTableRecord
100
AcDbBlockTableRecord
  2
*U23
340
0
102
{BLKREFS
331
1419
102
}
  0
BLOCK_RECORD
  5
28D9
330
27EF
100
AcDbSymbolTableRecord
100
AcDbBlockTableRecord
  2
*D24
340
0
  0
BLOCK_RECORD
  5
28DB
330
27EF
100
AcDbSymbolTableRecord
100
AcDbBlockTableRecord
  2
*U25
340
0
102
{BLKREFS
331
1425
102
}
  0
BLOCK_RECORD
  5
28DD
330
27EF
100
AcDbSymbolTableRecord
100
AcDbBlockTableRecord
  2
*D26
340
0
  0
BLOCK_RECORD
  5
28DF
330
27EF
100
AcDbSymbolTableRecord
100
AcDbBlockTableRecord
  2
*U27
340
0
102
{BLKREFS
331
1431
102
}
  0
BLOCK_RECORD
  5
28E1
330
27EF
100
AcDbSymbolTableRecord
100
AcDbBlockTableRecord
  2
*D28
340
0
  0
BLOCK_RECORD
  5
28E3
330
27EF
100
AcDbSymbolTableRecord
100
AcDbBlockTableRecord
  2
*U29
340
0
102
{BLKREFS
331
143D
102
}
  0
BLOCK_RECORD
  5
28E5
330
27EF
100
AcDbSymbolTableRecord
100
AcDbBlockTableRecord
  2
*D30
340
0
  0
BLOCK_RECORD
  5
28E7
330
27EF
100
AcDbSymbolTableRecord
100
AcDbBlockTableRecord
  2
*U31
340
0
102
{BLKREFS
331
1670
102
}
  0
BLOCK_RECORD
  5
28E9
330
27EF
100
AcDbSymbolTableRecord
100
AcDbBlockTableRecord
  2
*D32
340
0
  0
BLOCK_RECORD
  5
28EB
330
27EF
100
AcDbSymbolTableRecord
100
AcDbBlockTableRecord
  2
*U33
340
0
102
{BLKREFS
331
1679
102
}
  0
BLOCK_RECORD
  5
28ED
330
27EF
100
AcDbSymbolTableRecord
100
AcDbBlockTableRecord
  2
*D34
340
0
  0
BLOCK_RECORD
  5
28EF
330
27EF
100
AcDbSymbolTableRecord
100
AcDbBlockTableRecord
  2
*U35
340
0
102
{BLKREFS
331
1682
102
}
  0
BLOCK_RECORD
  5
28F1
330
27EF
100
AcDbSymbolTableRecord
100
AcDbBlockTableRecord
  2
*D36
340
0
  0
BLOCK_RECORD
  5
28F3
330
27EF
100
AcDbSymbolTableRecord
100
AcDbBlockTableRecord
  2
*U37
340
0
102
{BLKREFS
331
168B
102
}
  0
BLOCK_RECORD
  5
28F5
330
27EF
100
AcDbSymbolTableRecord
100
AcDbBlockTableRecord
  2
*U38
340
0
  0
BLOCK_RECORD
  5
28F7
330
27EF
100
AcDbSymbolTableRecord
100
AcDbBlockTableRecord
  2
*D39
340
0
  0
BLOCK_RECORD
  5
28F9
330
27EF
100
AcDbSymbolTableRecord
100
AcDbBlockTableRecord
  2
*U40
340
0
102
{BLKREFS
331
1698
102
}
  0
BLOCK_RECORD
  5
28FB
330
27EF
100
AcDbSymbolTableRecord
100
AcDbBlockTableRecord
  2
*D41
340
0
  0
BLOCK_RECORD
  5
28FD
330
27EF
100
AcDbSymbolTableRecord
100
AcDbBlockTableRecord
  2
*U42
340
0
102
{BLKREFS
331
16A5
102
}
  0
BLOCK_RECORD
  5
28FF
330
27EF
100
AcDbSymbolTableRecord
100
AcDbBlockTableRecord
  2
*D43
340
0
  0
BLOCK_RECORD
  5
2901
330
27EF
100
AcDbSymbolTableRecord
100
AcDbBlockTableRecord
  2
*U44
340
0
102
{BLKREFS
331
16B1
102
}
  0
BLOCK_RECORD
  5
2903
330
27EF
100
AcDbSymbolTableRecord
100
AcDbBlockTableRecord
  2
*D45
340
0
  0
BLOCK_RECORD
  5
2905
330
27EF
100
AcDbSymbolTableRecord
100
AcDbBlockTableRecord
  2
*U46
340
0
102
{BLKREFS
331
16BD
102
}
  0
BLOCK_RECORD
  5
2907
330
27EF
100
AcDbSymbolTableRecord
100
AcDbBlockTableRecord
  2
*D47
340
0
  0
BLOCK_RECORD
  5
2909
330
27EF
100
AcDbSymbolTableRecord
100
AcDbBlockTableRecord
  2
*U48
340
0
102
{BLKREFS
331
16C9
102
}
  0
BLOCK_RECORD
  5
290B
330
27EF
100
AcDbSymbolTableRecord
100
AcDbBlockTableRecord
  2
*D49
340
0
  0
BLOCK_RECORD
  5
290D
330
27EF
100
AcDbSymbolTableRecord
100
AcDbBlockTableRecord
  2
*U50
340
0
102
{BLKREFS
331
16D5
102
}
  0
BLOCK_RECORD
  5
290F
330
27EF
100
AcDbSymbolTableRecord
100
AcDbBlockTableRecord
  2
*D51
340
0
  0
BLOCK_RECORD
  5
2911
330
27EF
100
AcDbSymbolTableRecord
100
AcDbBlockTableRecord
  2
*U52
340
0
102
{BLKREFS
331
1D88
102
}
  0
BLOCK_RECORD
  5
2913
330
27EF
100
AcDbSymbolTableRecord
100
AcDbBlockTableRecord
  2
*D53
340
0
  0
BLOCK_RECORD
  5
2915
330
27EF
100
AcDbSymbolTableRecord
100
AcDbBlockTableRecord
  2
*U54
340
0
102
{BLKREFS
331
1D91
102
}
  0
BLOCK_RECORD
  5
2917
330
27EF
100
AcDbSymbolTableRecord
100
AcDbBlockTableRecord
  2
*D55
340
0
  0
BLOCK_RECORD
  5
2919
330
27EF
100
AcDbSymbolTableRecord
100
AcDbBlockTableRecord
  2
*U56
340
0
102
{BLKREFS
331
1D9A
102
}
  0
BLOCK_RECORD
  5
291B
330
27EF
100
AcDbSymbolTableRecord
100
AcDbBlockTableRecord
  2
*D57
340
0
  0
BLOCK_RECORD
  5
291D
330
27EF
100
AcDbSymbolTableRecord
100
AcDbBlockTableRecord
  2
*U58
340
0
102
{BLKREFS
331
1DA3
102
}
  0
BLOCK_RECORD
  5
291F
330
27EF
100
AcDbSymbolTableRecord
100
AcDbBlockTableRecord
  2
*D59
340
0
  0
BLOCK_RECORD
  5
2921
330
27EF
100
AcDbSymbolTableRecord
100
AcDbBlockTableRecord
  2
*U60
340
0
102
{BLKREFS
331
1DAD
102
}
  0
BLOCK_RECORD
  5
2923
330
27EF
100
AcDbSymbolTableRecord
100
AcDbBlockTableRecord
  2
*D61
340
0
  0
BLOCK_RECORD
  5
2925
330
27EF
100
AcDbSymbolTableRecord
100
AcDbBlockTableRecord
  2
*U62
340
0
102
{BLKREFS
331
1DB7
102
}
  0
BLOCK_RECORD
  5
2927
330
27EF
100
AcDbSymbolTableRecord
100
AcDbBlockTableRecord
  2
*U63
340
0
  0
BLOCK_RECORD
  5
2929
330
27EF
100
AcDbSymbolTableRecord
100
AcDbBlockTableRecord
  2
*U64
340
0
  0
BLOCK_RECORD
  5
292B
330
27EF
100
AcDbSymbolTableRecord
100
AcDbBlockTableRecord
  2
*U65
340
0
  0
BLOCK_RECORD
  5
292D
330
27EF
100
AcDbSymbolTableRecord
100
AcDbBlockTableRecord
  2
*U66
340
0
  0
BLOCK_RECORD
  5
292F
330
27EF
100
AcDbSymbolTableRecord
100
AcDbBlockTableRecord
  2
*U67
340
0
  0
BLOCK_RECORD
  5
2931
330
27EF
100
AcDbSymbolTableRecord
100
AcDbBlockTableRecord
  2
*U68
340
0
  0
BLOCK_RECORD
  5
2933
330
27EF
100
AcDbSymbolTableRecord
100
AcDbBlockTableRecord
  2
*U69
340
0
  0
BLOCK_RECORD
  5
2935
330
27EF
100
AcDbSymbolTableRecord
100
AcDbBlockTableRecord
  2
*U70
340
0
  0
BLOCK_RECORD
  5
2937
330
27EF
100
AcDbSymbolTableRecord
100
AcDbBlockTableRecord
  2
*U71
340
0
  0
BLOCK_RECORD
  5
2939
330
27EF
100
AcDbSymbolTableRecord
100
AcDbBlockTableRecord
  2
*U72
340
0
  0
BLOCK_RECORD
  5
293B
330
27EF
100
AcDbSymbolTableRecord
100
AcDbBlockTableRecord
  2
*U73
340
0
  0
BLOCK_RECORD
  5
293D
330
27EF
100
AcDbSymbolTableRecord
100
AcDbBlockTableRecord
  2
*U74
340
0
102
{BLKREFS
331
271B
102
}
  0
BLOCK_RECORD
  5
293F
330
27EF
100
AcDbSymbolTableRecord
100
AcDbBlockTableRecord
  2
*U75
340
0
102
{BLKREFS
331
271C
102
}
  0
BLOCK_RECORD
  5
2941
330
27EF
100
AcDbSymbolTableRecord
100
AcDbBlockTableRecord
  2
*X76
340
0
102
{BLKREFS
331
2732
102
}
  0
BLOCK_RECORD
  5
2943
330
27EF
100
AcDbSymbolTableRecord
100
AcDbBlockTableRecord
  2
*X77
340
0
102
{BLKREFS
331
2733
102
}
  0
ENDTAB
  0
ENDSEC
  0
SECTION
  2
BLOCKS
  0
BLOCK
  5
2863
330
2862
100
AcDbEntity
  8
0
100
AcDbBlockBegin
  2
*Model_Space
 70
     0
 10
0.0
 20
0.0
 30
0.0
  3
*Model_Space
  1

  0
ENDBLK
  5
2864
330
2862
100
AcDbEntity
  8
0
100
AcDbBlockEnd
  0
BLOCK
  5
285F
330
285E
100
AcDbEntity
 67
     1
  8
0
100
AcDbBlockBegin
  2
*Paper_Space
 70
     0
 10
0.0
 20
0.0
 30
0.0
  3
*Paper_Space
  1

  0
ENDBLK
  5
2860
330
285E
100
AcDbEntity
 67
     1
  8
0
100
AcDbBlockEnd
  0
BLOCK
  5
28AA
330
28A9
100
AcDbEntity
  8
0
100
AcDbBlockBegin
  2
$MODEL_SPACE
 70
     0
 10
0.0
 20
0.0
 30
0.0
  3
$MODEL_SPACE
  1

  0
ENDBLK
  5
1FC1
330
28A9
100
AcDbEntity
  8
0
100
AcDbBlockEnd
  0
BLOCK
  5
28AC
330
28AB
100
AcDbEntity
  8
0
100
AcDbBlockBegin
  2
$PAPER_SPACE
 70
     0
 10
0.0
 20
0.0
 30
0.0
  3
$PAPER_SPACE
  1

  0
ENDBLK
  5
1FBD
330
28AB
100
AcDbEntity
  8
0
100
AcDbBlockEnd
  0
BLOCK
  5
28AE
330
28AD
100
AcDbEntity
  8
0
100
AcDbBlockBegin
  2
_ORIGIN
 70
     0
 10
0.0
 20
0.0
 30
0.0
  3
_ORIGIN
  1

  0
CIRCLE
  5
880
330
28AD
100
AcDbEntity
  8
0
  6
Continuous
 62
     7
100
AcDbCircle
 10
0.0
 20
0.0
 30
0.0
 40
0.5
  0
LINE
  5
881
330
28AD
100
AcDbEntity
  8
0
  6
Continuous
 62
     7
100
AcDbLine
 10
0.0
 20
0.0
 30
0.0
 11
-1.0
 21
0.0
 31
0.0
  0
ENDBLK
  5
882
330
28AD
100
AcDbEntity
  8
0
100
AcDbBlockEnd
  0
BLOCK
  5
28B0
330
28AF
100
AcDbEntity
  8
0
 62
     1
100
AcDbBlockBegin
  2
_DOTBLANK
 70
     0
 10
0.0
 20
0.0
 30
0.0
  3
_DOTBLANK
  1

  0
CIRCLE
  5
AB3
330
28AF
100
AcDbEntity
  8
0
  6
ByBlock
 62
     0
100
AcDbCircle
 10
0.0
 20
0.0
 30
0.0
 40
0.5
  0
LINE
  5
AB4
330
28AF
100
AcDbEntity
  8
0
  6
ByBlock
 62
     0
100
AcDbLine
 10
-0.5
 20
0.0
 30
0.0
 11
-1.0
 21
0.0
 31
0.0
  0
ENDBLK
  5
AB6
330
28AF
100
AcDbEntity
  8
0
 62
     1
100
AcDbBlockEnd
  0
BLOCK
  5
28B2
330
28B1
100
AcDbEntity
  8
0
 62
     1
100
AcDbBlockBegin
  2
_OPEN30
 70
     0
 10
0.0
 20
0.0
 30
0.0
  3
_OPEN30
  1

  0
LINE
  5
AB8
330
28B1
100
AcDbEntity
  8
0
  6
ByBlock
 62
     0
100
AcDbLine
 10
-1.0
 20
0.26794919
 30
0.0
 11
0.0
 21
0.0
 31
0.0
  0
LINE
  5
AB9
330
28B1
100
AcDbEntity
  8
0
  6
ByBlock
 62
     0
100
AcDbLine
 10
0.0
 20
0.0
 30
0.0
 11
-1.0
 21
-0.26794919
 31
0.0
  0
LINE
  5
ABA
330
28B1
100
AcDbEntity
  8
0
  6
ByBlock
 62
     0
100
AcDbLine
 10
0.0
 20
0.0
 30
0.0
 11
-1.0
 21
0.0
 31
0.0
  0
ENDBLK
  5
ABC
330
28B1
100
AcDbEntity
  8
0
 62
     1
100
AcDbBlockEnd
  0
BLOCK
  5
28B4
330
28B3
100
AcDbEntity
  8
0
100
AcDbBlockBegin
  2
*D5
 70
     1
 10
0.0
 20
0.0
 30
0.0
  3
*D5
  1

  0
LINE
  5
1296
330
28B3
100
AcDbEntity
  8
SIZE
 62
     0
100
AcDbLine
 10
-134.5
 20
-320.0
 30
0.0
 11
-134.5
 21
-468.0173952306001
 31
0.0
  0
LINE
  5
1297
330
28B3
100
AcDbEntity
  8
SIZE
 62
     0
100
AcDbLine
 10
134.5
 20
-320.0
 30
0.0
 11
134.5
 21
-468.0173952306001
 31
0.0
  0
LINE
  5
1298
330
28B3
100
AcDbEntity
  8
SIZE
 62
     0
100
AcDbLine
 10
-122.5
 20
-448.0173952306
 30
0.0
 11
122.5
 21
-448.0173952306
 31
0.0
  0
INSERT
  5
1299
330
28B3
100
AcDbEntity
  8
SIZE
 62
     0
100
AcDbBlockReference
  2
_DOTBLANK
 10
-134.5
 20
-448.0173952306
 30
0.0
 41
12.0
 42
12.0
 43
12.0
 50
180.0
  0
INSERT
  5
129A
330
28B3
100
AcDbEntity
  8
SIZE
 62
     0
100
AcDbBlockReference
  2
_DOTBLANK
 10
134.5
 20
-448.0173952306
 30
0.0
 41
12.0
 42
12.0
 43
12.0
  0
INSERT
  5
129B
330
28B3
100
AcDbEntity
  8
0
100
AcDbBlockReference
  2
*U6
 10
0.0
 20
0.0
 30
0.0
  0
POINT
  5
129C
330
28B3
100
AcDbEntity
  8
DEFPOINTS
 62
     0
100
AcDbPoint
 10
-134.5
 20
-300.0
 30
0.0
  0
POINT
  5
129D
330
28B3
100
AcDbEntity
  8
DEFPOINTS
 62
     0
100
AcDbPoint
 10
134.5
 20
-300.0
 30
0.0
  0
POINT
  5
129E
330
28B3
100
AcDbEntity
  8
DEFPOINTS
 62
     0
100
AcDbPoint
 10
134.5
 20
-448.0173952306
 30
0.0
  0
ENDBLK
  5
D72
330
28B3
100
AcDbEntity
  8
0
100
AcDbBlockEnd
  0
BLOCK
  5
28B6
330
28B5
100
AcDbEntity
  8
0
100
AcDbBlockBegin
  2
*U6
 70
     1
 10
0.0
 20
0.0
 30
0.0
  3
*U6
  1

  0
TEXT
  5
1EF5
330
28B5
100
AcDbEntity
  8
SIZE
 62
     0
100
AcDbText
 10
-72.68571428571426
 20
-438.0173952305999
 30
0.0
 40
64.0
  1
269
 41
0.9
100
AcDbText
  0
ENDBLK
  5
1EF7
330
28B5
100
AcDbEntity
  8
0
100
AcDbBlockEnd
  0
BLOCK
  5
28B8
330
28B7
100
AcDbEntity
  8
0
100
AcDbBlockBegin
  2
*D7
 70
     1
 10
0.0
 20
0.0
 30
0.0
  3
*D7
  1

  0
LINE
  5
11A7
330
28B7
100
AcDbEntity
  8
SIZE
  6
Continuous
 62
     0
100
AcDbLine
 10
143.5
 20
-300.0
 30
0.0
 11
304.6432844803791
 21
-300.0
 31
0.0
  0
LINE
  5
11A8
330
28B7
100
AcDbEntity
  8
SIZE
  6
Continuous
 62
     0
100
AcDbLine
 10
177.5
 20
-0.0000000000000057
 30
0.0
 11
304.6432844803792
 21
-0.0000000000000417
 31
0.0
  0
LINE
  5
11A9
330
28B7
100
AcDbEntity
  8
SIZE
  6
Continuous
 62
     0
100
AcDbLine
 10
284.6432844803791
 20
-288.0000000000001
 30
0.0
 11
284.6432844803792
 21
-12.00000000000003
 31
0.0
  0
INSERT
  5
11AA
330
28B7
100
AcDbEntity
  8
SIZE
  6
Continuous
 62
     0
100
AcDbBlockReference
  2
_DOTBLANK
 10
284.6432844803791
 20
-300.0
 30
0.0
 41
12.0
 42
12.0
 43
12.0
 50
270.0
  0
INSERT
  5
11AB
330
28B7
100
AcDbEntity
  8
SIZE
  6
Continuous
 62
     0
100
AcDbBlockReference
  2
_DOTBLANK
 10
284.6432844803792
 20
-0.000000000000036
 30
0.0
 41
12.0
 42
12.0
 43
12.0
 50
90.0
  0
INSERT
  5
11AC
330
28B7
100
AcDbEntity
  8
0
100
AcDbBlockReference
  2
*U8
 10
0.0
 20
0.0
 30
0.0
  0
POINT
  5
11AD
330
28B7
100
AcDbEntity
  8
DEFPOINTS
  6
Continuous
 62
     0
100
AcDbPoint
 10
123.5
 20
-300.0
 30
0.0
  0
POINT
  5
11AE
330
28B7
100
AcDbEntity
  8
DEFPOINTS
  6
Continuous
 62
     0
100
AcDbPoint
 10
157.5
 20
0.0
 30
0.0
  0
POINT
  5
11AF
330
28B7
100
AcDbEntity
  8
DEFPOINTS
  6
Continuous
 62
     0
100
AcDbPoint
 10
284.6432844803792
 20
-0.000000000000036
 30
0.0
  0
ENDBLK
  5
E11
330
28B7
100
AcDbEntity
  8
0
100
AcDbBlockEnd
  0
BLOCK
  5
28BA
330
28B9
100
AcDbEntity
  8
0
100
AcDbBlockBegin
  2
*U8
 70
     1
 10
0.0
 20
0.0
 30
0.0
  3
*U8
  1

  0
TEXT
  5
1EE1
330
28B9
100
AcDbEntity
  8
SIZE
 62
     0
100
AcDbText
 10
274.6432844803792
 20
-224.0571428571429
 30
0.0
 40
64.0
  1
300
 50
90.0
 41
0.9
100
AcDbText
  0
ENDBLK
  5
1EE3
330
28B9
100
AcDbEntity
  8
0
100
AcDbBlockEnd
  0
BLOCK
  5
28BC
330
28BB
100
AcDbEntity
  8
0
100
AcDbBlockBegin
  2
*D9
 70
     1
 10
0.0
 20
0.0
 30
0.0
  3
*D9
  1

  0
LINE
  5
E7D
330
28BB
100
AcDbEntity
  8
SIZE
 62
     0
100
AcDbLine
 10
-139.9999999999998
 20
32.46448280219375
 30
0.0
 11
-139.9999999999998
 21
136.4516878685508
 31
0.0
  0
LINE
  5
E7E
330
28BB
100
AcDbEntity
  8
SIZE
 62
     0
100
AcDbLine
 10
140.0
 20
32.46448280219375
 30
0.0
 11
140.0
 21
136.4516878685508
 31
0.0
  0
LINE
  5
E7F
330
28BB
100
AcDbEntity
  8
SIZE
 62
     0
100
AcDbLine
 10
-128.0
 20
116.4516878685508
 30
0.0
 11
128.0
 21
116.4516878685508
 31
0.0
  0
INSERT
  5
E80
330
28BB
100
AcDbEntity
  8
SIZE
 62
     0
100
AcDbBlockReference
  2
_DOTBLANK
 10
-139.9999999999998
 20
116.4516878685508
 30
0.0
 41
12.0
 42
12.0
 43
12.0
 50
180.0
  0
INSERT
  5
E81
330
28BB
100
AcDbEntity
  8
SIZE
 62
     0
100
AcDbBlockReference
  2
_DOTBLANK
 10
140.0
 20
116.4516878685508
 30
0.0
 41
12.0
 42
12.0
 43
12.0
  0
INSERT
  5
E82
330
28BB
100
AcDbEntity
  8
0
100
AcDbBlockReference
  2
*U10
 10
0.0
 20
0.0
 30
0.0
  0
POINT
  5
E83
330
28BB
100
AcDbEntity
  8
DEFPOINTS
 62
     0
100
AcDbPoint
 10
-139.9999999999998
 20
12.46448280219374
 30
0.0
  0
POINT
  5
E84
330
28BB
100
AcDbEntity
  8
DEFPOINTS
 62
     0
100
AcDbPoint
 10
140.0
 20
12.46448280219374
 30
0.0
  0
POINT
  5
E85
330
28BB
100
AcDbEntity
  8
DEFPOINTS
 62
     0
100
AcDbPoint
 10
140.0
 20
116.4516878685508
 30
0.0
  0
ENDBLK
  5
E7C
330
28BB
100
AcDbEntity
  8
0
100
AcDbBlockEnd
  0
BLOCK
  5
28BE
330
28BD
100
AcDbEntity
  8
0
100
AcDbBlockBegin
  2
*U10
 70
     1
 10
0.0
 20
0.0
 30
0.0
  3
*U10
  1

  0
TEXT
  5
1ED8
330
28BD
100
AcDbEntity
  8
SIZE
 62
     0
100
AcDbText
 10
-74.05714285714281
 20
126.4516878685508
 30
0.0
 40
64.0
  1
280
 41
0.9
100
AcDbText
  0
ENDBLK
  5
1EDA
330
28BD
100
AcDbEntity
  8
0
100
AcDbBlockEnd
  0
BLOCK
  5
28C0
330
28BF
100
AcDbEntity
  8
0
100
AcDbBlockBegin
  2
GENAXEH
 70
     0
 10
0.0
 20
0.0
 30
0.0
  3
GENAXEH
  1

  0
LINE
  5
FDB
330
28BF
100
AcDbEntity
  8
0
100
AcDbLine
 10
-1.0
 20
0.0
 30
0.0
 11
1.0
 21
0.0
 31
0.0
  0
ENDBLK
  5
FDD
330
28BF
100
AcDbEntity
  8
0
100
AcDbBlockEnd
  0
BLOCK
  5
28C2
330
28C1
100
AcDbEntity
  8
0
100
AcDbBlockBegin
  2
*D12
 70
     1
 10
0.0
 20
0.0
 30
0.0
  3
*D12
  1

  0
LINE
  5
1120
330
28C1
100
AcDbEntity
  8
SIZE
 62
     0
100
AcDbLine
 10
-157.5
 20
20.0
 30
0.0
 11
-157.5
 21
245.5794621189598
 31
0.0
  0
LINE
  5
1121
330
28C1
100
AcDbEntity
  8
SIZE
 62
     0
100
AcDbLine
 10
157.5
 20
20.0
 30
0.0
 11
157.5
 21
245.5794621189598
 31
0.0
  0
LINE
  5
1122
330
28C1
100
AcDbEntity
  8
SIZE
 62
     0
100
AcDbLine
 10
-145.5
 20
225.5794621189598
 30
0.0
 11
145.5
 21
225.5794621189598
 31
0.0
  0
INSERT
  5
1123
330
28C1
100
AcDbEntity
  8
SIZE
 62
     0
100
AcDbBlockReference
  2
_DOTBLANK
 10
-157.5
 20
225.5794621189598
 30
0.0
 41
12.0
 42
12.0
 43
12.0
 50
180.0
  0
INSERT
  5
1124
330
28C1
100
AcDbEntity
  8
SIZE
 62
     0
100
AcDbBlockReference
  2
_DOTBLANK
 10
157.5
 20
225.5794621189598
 30
0.0
 41
12.0
 42
12.0
 43
12.0
  0
INSERT
  5
1125
330
28C1
100
AcDbEntity
  8
0
100
AcDbBlockReference
  2
*U13
 10
0.0
 20
0.0
 30
0.0
  0
POINT
  5
1126
330
28C1
100
AcDbEntity
  8
DEFPOINTS
 62
     0
100
AcDbPoint
 10
-157.5
 20
0.0
 30
0.0
  0
POINT
  5
1127
330
28C1
100
AcDbEntity
  8
DEFPOINTS
 62
     0
100
AcDbPoint
 10
157.5
 20
0.0
 30
0.0
  0
POINT
  5
1128
330
28C1
100
AcDbEntity
  8
DEFPOINTS
 62
     0
100
AcDbPoint
 10
157.5
 20
225.5794621189598
 30
0.0
  0
ENDBLK
  5
111F
330
28C1
100
AcDbEntity
  8
0
100
AcDbBlockEnd
  0
BLOCK
  5
28C4
330
28C3
100
AcDbEntity
  8
0
100
AcDbBlockBegin
  2
*U13
 70
     1
 10
0.0
 20
0.0
 30
0.0
  3
*U13
  1

  0
TEXT
  5
1EDD
330
28C3
100
AcDbEntity
  8
SIZE
 62
     0
100
AcDbText
 10
-68.57142857142857
 20
235.5794621189599
 30
0.0
 40
64.0
  1
315
 41
0.9
100
AcDbText
  0
ENDBLK
  5
1EDF
330
28C3
100
AcDbEntity
  8
0
100
AcDbBlockEnd
  0
BLOCK
  5
28C6
330
28C5
100
AcDbEntity
  8
0
100
AcDbBlockBegin
  2
*D14
 70
     1
 10
0.0
 20
0.0
 30
0.0
  3
*D14
  1

  0
LINE
  5
11BD
330
28C5
100
AcDbEntity
  8
NOTE
 62
     0
100
AcDbLine
 10
-123.4999999999999
 20
-320.0
 30
0.0
 11
-123.4999999999999
 21
-354.9529861856111
 31
0.0
  0
LINE
  5
11BE
330
28C5
100
AcDbEntity
  8
NOTE
 62
     0
100
AcDbLine
 10
-133.4999999999998
 20
-331.2126909923287
 30
0.0
 11
-133.4999999999998
 21
-354.9529861856111
 31
0.0
  0
LINE
  5
11BF
330
28C5
100
AcDbEntity
  8
NOTE
 62
     0
100
AcDbLine
 10
-111.4999999999999
 20
-334.9529861856112
 30
0.0
 11
-99.4999999999999
 21
-334.9529861856112
 31
0.0
  0
LINE
  5
11C0
330
28C5
100
AcDbEntity
  8
NOTE
 62
     0
100
AcDbLine
 10
-145.4999999999998
 20
-334.9529861856112
 30
0.0
 11
-157.4999999999998
 21
-334.9529861856112
 31
0.0
  0
LINE
  5
11C1
330
28C5
100
AcDbEntity
  8
NOTE
 62
     0
100
AcDbLine
 10
-123.4999999999999
 20
-334.9529861856112
 30
0.0
 11
-133.4999999999998
 21
-334.9529861856112
 31
0.0
  0
INSERT
  5
11C2
330
28C5
100
AcDbEntity
  8
NOTE
 62
     0
100
AcDbBlockReference
  2
_DOTBLANK
 10
-123.4999999999999
 20
-334.9529861856112
 30
0.0
 41
12.0
 42
12.0
 43
12.0
 50
180.0
  0
INSERT
  5
11C3
330
28C5
100
AcDbEntity
  8
NOTE
 62
     0
100
AcDbBlockReference
  2
_DOTBLANK
 10
-133.4999999999998
 20
-334.9529861856112
 30
0.0
 41
12.0
 42
12.0
 43
12.0
  0
INSERT
  5
11C4
330
28C5
100
AcDbEntity
  8
0
100
AcDbBlockReference
  2
*U15
 10
0.0
 20
0.0
 30
0.0
  0
POINT
  5
11C5
330
28C5
100
AcDbEntity
  8
DEFPOINTS
 62
     0
100
AcDbPoint
 10
-123.4999999999999
 20
-300.0
 30
0.0
  0
POINT
  5
11C6
330
28C5
100
AcDbEntity
  8
DEFPOINTS
 62
     0
100
AcDbPoint
 10
-133.4999999999998
 20
-311.2126909923287
 30
0.0
  0
POINT
  5
11C7
330
28C5
100
AcDbEntity
  8
DEFPOINTS
 62
     0
100
AcDbPoint
 10
-133.4999999999998
 20
-334.9529861856112
 30
0.0
  0
ENDBLK
  5
11BC
330
28C5
100
AcDbEntity
  8
0
100
AcDbBlockEnd
  0
BLOCK
  5
28C8
330
28C7
100
AcDbEntity
  8
0
100
AcDbBlockBegin
  2
*U15
 70
     1
 10
0.0
 20
0.0
 30
0.0
  3
*U15
  1

  0
TEXT
  5
1EE5
330
28C7
100
AcDbEntity
  8
NOTE
 62
     0
100
AcDbText
 10
-169.642857142857
 20
-324.9529861856112
 30
0.0
 40
64.0
  1
10
 41
0.9
100
AcDbText
  0
ENDBLK
  5
1EE7
330
28C7
100
AcDbEntity
  8
0
100
AcDbBlockEnd
  0
BLOCK
  5
28CA
330
28C9
100
AcDbEntity
  8
0
100
AcDbBlockBegin
  2
*D16
 70
     1
 10
0.0
 20
0.0
 30
0.0
  3
*D16
  1

  0
LINE
  5
11E7
330
28C9
100
AcDbEntity
  8
NOTE
 62
     0
100
AcDbLine
 10
-135.5
 20
-333.2126909923287
 30
0.0
 11
-135.5
 21
-386.2569421441843
 31
0.0
  0
LINE
  5
11E8
330
28C9
100
AcDbEntity
  8
NOTE
 62
     0
100
AcDbLine
 10
-123.4999999999999
 20
-320.0
 30
0.0
 11
-123.4999999999999
 21
-386.2569421441843
 31
0.0
  0
LINE
  5
11E9
330
28C9
100
AcDbEntity
  8
NOTE
 62
     0
100
AcDbLine
 10
-147.5
 20
-366.2569421441844
 30
0.0
 11
-159.5
 21
-366.2569421441844
 31
0.0
  0
LINE
  5
11EA
330
28C9
100
AcDbEntity
  8
NOTE
 62
     0
100
AcDbLine
 10
-111.4999999999999
 20
-366.2569421441844
 30
0.0
 11
-99.4999999999999
 21
-366.2569421441844
 31
0.0
  0
LINE
  5
11EB
330
28C9
100
AcDbEntity
  8
NOTE
 62
     0
100
AcDbLine
 10
-135.5
 20
-366.2569421441844
 30
0.0
 11
-123.4999999999999
 21
-366.2569421441844
 31
0.0
  0
INSERT
  5
11EC
330
28C9
100
AcDbEntity
  8
NOTE
 62
     0
100
AcDbBlockReference
  2
_DOTBLANK
 10
-135.5
 20
-366.2569421441844
 30
0.0
 41
12.0
 42
12.0
 43
12.0
  0
INSERT
  5
11ED
330
28C9
100
AcDbEntity
  8
NOTE
 62
     0
100
AcDbBlockReference
  2
_DOTBLANK
 10
-123.4999999999999
 20
-366.2569421441844
 30
0.0
 41
12.0
 42
12.0
 43
12.0
 50
180.0
  0
INSERT
  5
11EE
330
28C9
100
AcDbEntity
  8
0
100
AcDbBlockReference
  2
*U17
 10
0.0
 20
0.0
 30
0.0
  0
POINT
  5
11EF
330
28C9
100
AcDbEntity
  8
DEFPOINTS
 62
     0
100
AcDbPoint
 10
-135.5
 20
-313.2126909923287
 30
0.0
  0
POINT
  5
11F0
330
28C9
100
AcDbEntity
  8
DEFPOINTS
 62
     0
100
AcDbPoint
 10
-123.4999999999999
 20
-300.0
 30
0.0
  0
POINT
  5
11F1
330
28C9
100
AcDbEntity
  8
DEFPOINTS
 62
     0
100
AcDbPoint
 10
-123.4999999999999
 20
-366.2569421441844
 30
0.0
  0
ENDBLK
  5
11E6
330
28C9
100
AcDbEntity
  8
0
100
AcDbBlockEnd
  0
BLOCK
  5
28CC
330
28CB
100
AcDbEntity
  8
0
100
AcDbBlockBegin
  2
*U17
 70
     1
 10
0.0
 20
0.0
 30
0.0
  3
*U17
  1

  0
TEXT
  5
1EE9
330
28CB
100
AcDbEntity
  8
NOTE
 62
     0
100
AcDbText
 10
-170.642857142857
 20
-356.2569421441843
 30
0.0
 40
64.0
  1
12
 41
0.9
100
AcDbText
  0
ENDBLK
  5
1EEB
330
28CB
100
AcDbEntity
  8
0
100
AcDbBlockEnd
  0
BLOCK
  5
28CE
330
28CD
100
AcDbEntity
  8
0
100
AcDbBlockBegin
  2
*D18
 70
     1
 10
0.0
 20
0.0
 30
0.0
  3
*D18
  1

  0
LINE
  5
11F6
330
28CD
100
AcDbEntity
  8
NOTE
 62
     0
100
AcDbLine
 10
-123.4999999999999
 20
-320.0
 30
0.0
 11
-123.4999999999999
 21
-583.8286022818904
 31
0.0
  0
LINE
  5
11F7
330
28CD
100
AcDbEntity
  8
NOTE
 62
     0
100
AcDbLine
 10
123.5
 20
-320.0
 30
0.0
 11
123.5
 21
-583.8286022818904
 31
0.0
  0
LINE
  5
11F8
330
28CD
100
AcDbEntity
  8
NOTE
 62
     0
100
AcDbLine
 10
-111.4999999999999
 20
-563.8286022818904
 30
0.0
 11
111.5
 21
-563.8286022818904
 31
0.0
  0
INSERT
  5
11F9
330
28CD
100
AcDbEntity
  8
NOTE
 62
     0
100
AcDbBlockReference
  2
_DOTBLANK
 10
-123.4999999999999
 20
-563.8286022818904
 30
0.0
 41
12.0
 42
12.0
 43
12.0
 50
180.0
  0
INSERT
  5
11FA
330
28CD
100
AcDbEntity
  8
NOTE
 62
     0
100
AcDbBlockReference
  2
_DOTBLANK
 10
123.5
 20
-563.8286022818904
 30
0.0
 41
12.0
 42
12.0
 43
12.0
  0
INSERT
  5
11FB
330
28CD
100
AcDbEntity
  8
0
100
AcDbBlockReference
  2
*U19
 10
0.0
 20
0.0
 30
0.0
  0
POINT
  5
11FC
330
28CD
100
AcDbEntity
  8
DEFPOINTS
 62
     0
100
AcDbPoint
 10
-123.4999999999999
 20
-300.0
 30
0.0
  0
POINT
  5
11FD
330
28CD
100
AcDbEntity
  8
DEFPOINTS
 62
     0
100
AcDbPoint
 10
123.5
 20
-300.0
 30
0.0
  0
POINT
  5
11FE
330
28CD
100
AcDbEntity
  8
DEFPOINTS
 62
     0
100
AcDbPoint
 10
123.5
 20
-563.8286022818904
 30
0.0
  0
ENDBLK
  5
11F5
330
28CD
100
AcDbEntity
  8
0
100
AcDbBlockEnd
  0
BLOCK
  5
28D0
330
28CF
100
AcDbEntity
  8
0
100
AcDbBlockBegin
  2
*U19
 70
     1
 10
0.0
 20
0.0
 30
0.0
  3
*U19
  1

  0
TEXT
  5
1EED
330
28CF
100
AcDbEntity
  8
NOTE
 62
     0
100
AcDbText
 10
-74.05714285714281
 20
-553.8286022818904
 30
0.0
 40
64.0
  1
247
 41
0.9
100
AcDbText
  0
ENDBLK
  5
1EEF
330
28CF
100
AcDbEntity
  8
0
100
AcDbBlockEnd
  0
BLOCK
  5
28D2
330
28D1
100
AcDbEntity
  8
0
100
AcDbBlockBegin
  2
*D20
 70
     1
 10
0.0
 20
0.0
 30
0.0
  3
*D20
  1

  0
LINE
  5
1284
330
28D1
100
AcDbEntity
  8
NOTE
 62
     0
100
AcDbLine
 10
-123.5
 20
12.0
 30
0.0
 11
-123.5
 21
71.83630134534229
 31
0.0
  0
LINE
  5
1285
330
28D1
100
AcDbEntity
  8
NOTE
 62
     0
100
AcDbLine
 10
123.5
 20
12.0
 30
0.0
 11
123.5
 21
71.83630134534229
 31
0.0
  0
LINE
  5
1286
330
28D1
100
AcDbEntity
  8
NOTE
 62
     0
100
AcDbLine
 10
-111.5
 20
51.83630134534229
 30
0.0
 11
111.5
 21
51.83630134534229
 31
0.0
  0
INSERT
  5
1287
330
28D1
100
AcDbEntity
  8
NOTE
 62
     0
100
AcDbBlockReference
  2
_DOTBLANK
 10
-123.5
 20
51.83630134534229
 30
0.0
 41
12.0
 42
12.0
 43
12.0
 50
180.0
  0
INSERT
  5
1288
330
28D1
100
AcDbEntity
  8
NOTE
 62
     0
100
AcDbBlockReference
  2
_DOTBLANK
 10
123.5
 20
51.83630134534229
 30
0.0
 41
12.0
 42
12.0
 43
12.0
  0
INSERT
  5
1289
330
28D1
100
AcDbEntity
  8
0
100
AcDbBlockReference
  2
*U21
 10
0.0
 20
0.0
 30
0.0
  0
POINT
  5
128A
330
28D1
100
AcDbEntity
  8
DEFPOINTS
 62
     0
100
AcDbPoint
 10
-123.5
 20
-8.0
 30
0.0
  0
POINT
  5
128B
330
28D1
100
AcDbEntity
  8
DEFPOINTS
 62
     0
100
AcDbPoint
 10
123.5
 20
-8.0
 30
0.0
  0
POINT
  5
128C
330
28D1
100
AcDbEntity
  8
DEFPOINTS
 62
     0
100
AcDbPoint
 10
123.5
 20
51.83630134534229
 30
0.0
  0
ENDBLK
  5
1283
330
28D1
100
AcDbEntity
  8
0
100
AcDbBlockEnd
  0
BLOCK
  5
28D4
330
28D3
100
AcDbEntity
  8
0
100
AcDbBlockBegin
  2
*U21
 70
     1
 10
0.0
 20
0.0
 30
0.0
  3
*U21
  1

  0
TEXT
  5
1EF1
330
28D3
100
AcDbEntity
  8
NOTE
 62
     0
100
AcDbText
 10
-74.05714285714283
 20
61.83630134534229
 30
0.0
 40
64.0
  1
247
 41
0.9
100
AcDbText
  0
ENDBLK
  5
1EF3
330
28D3
100
AcDbEntity
  8
0
100
AcDbBlockEnd
  0
BLOCK
  5
28D6
330
28D5
100
AcDbEntity
  8
0
100
AcDbBlockBegin
  2
*D22
 70
     1
 10
0.0
 20
0.0
 30
0.0
  3
*D22
  1

  0
LINE
  5
1414
330
28D5
100
AcDbEntity
  8
SIZE
 62
     0
100
AcDbLine
 10
-22313.11521613997
 20
7365.702971374808
 30
0.0
 11
-22313.11521613997
 21
7217.685576144207
 31
0.0
  0
LINE
  5
1415
330
28D5
100
AcDbEntity
  8
SIZE
 62
     0
100
AcDbLine
 10
-22044.11521613997
 20
7365.702971374808
 30
0.0
 11
-22044.11521613997
 21
7217.685576144207
 31
0.0
  0
LINE
  5
1416
330
28D5
100
AcDbEntity
  8
SIZE
 62
     0
100
AcDbLine
 10
-22301.11521613997
 20
7237.685576144207
 30
0.0
 11
-22056.11521613997
 21
7237.685576144207
 31
0.0
  0
INSERT
  5
1417
330
28D5
100
AcDbEntity
  8
SIZE
 62
     0
100
AcDbBlockReference
  2
_DOTBLANK
 10
-22313.11521613997
 20
7237.685576144207
 30
0.0
 41
12.0
 42
12.0
 43
12.0
 50
180.0
  0
INSERT
  5
1418
330
28D5
100
AcDbEntity
  8
SIZE
 62
     0
100
AcDbBlockReference
  2
_DOTBLANK
 10
-22044.11521613997
 20
7237.685576144207
 30
0.0
 41
12.0
 42
12.0
 43
12.0
  0
INSERT
  5
1419
330
28D5
100
AcDbEntity
  8
0
100
AcDbBlockReference
  2
*U23
 10
0.0
 20
0.0
 30
0.0
  0
POINT
  5
141A
330
28D5
100
AcDbEntity
  8
DEFPOINTS
 62
     0
100
AcDbPoint
 10
-22313.11521613997
 20
7385.702971374808
 30
0.0
  0
POINT
  5
141B
330
28D5
100
AcDbEntity
  8
DEFPOINTS
 62
     0
100
AcDbPoint
 10
-22044.11521613997
 20
7385.702971374808
 30
0.0
  0
POINT
  5
141C
330
28D5
100
AcDbEntity
  8
DEFPOINTS
 62
     0
100
AcDbPoint
 10
-22044.11521613997
 20
7237.685576144207
 30
0.0
  0
ENDBLK
  5
141D
330
28D5
100
AcDbEntity
  8
0
100
AcDbBlockEnd
  0
BLOCK
  5
28D8
330
28D7
100
AcDbEntity
  8
0
100
AcDbBlockBegin
  2
*U23
 70
     1
 10
0.0
 20
0.0
 30
0.0
  3
*U23
  1

  0
TEXT
  5
1EF9
330
28D7
100
AcDbEntity
  8
SIZE
 62
     0
100
AcDbText
 10
-22251.30093042568
 20
7247.685576144205
 30
0.0
 40
64.0
  1
269
 41
0.9
100
AcDbText
  0
ENDBLK
  5
1EFB
330
28D7
100
AcDbEntity
  8
0
100
AcDbBlockEnd
  0
BLOCK
  5
28DA
330
28D9
100
AcDbEntity
  8
0
100
AcDbBlockBegin
  2
*D24
 70
     1
 10
0.0
 20
0.0
 30
0.0
  3
*D24
  1

  0
LINE
  5
1420
330
28D9
100
AcDbEntity
  8
SIZE
  6
Continuous
 62
     0
100
AcDbLine
 10
-22035.11521613997
 20
7385.702971374808
 30
0.0
 11
-21873.97193165959
 21
7385.702971374808
 31
0.0
  0
LINE
  5
1421
330
28D9
100
AcDbEntity
  8
SIZE
  6
Continuous
 62
     0
100
AcDbLine
 10
-22001.11521613997
 20
7685.702971374808
 30
0.0
 11
-21873.97193165959
 21
7685.702971374808
 31
0.0
  0
LINE
  5
1422
330
28D9
100
AcDbEntity
  8
SIZE
  6
Continuous
 62
     0
100
AcDbLine
 10
-21893.97193165959
 20
7397.702971374808
 30
0.0
 11
-21893.97193165959
 21
7673.702971374808
 31
0.0
  0
INSERT
  5
1423
330
28D9
100
AcDbEntity
  8
SIZE
  6
Continuous
 62
     0
100
AcDbBlockReference
  2
_DOTBLANK
 10
-21893.97193165959
 20
7385.702971374808
 30
0.0
 41
12.0
 42
12.0
 43
12.0
 50
270.0
  0
INSERT
  5
1424
330
28D9
100
AcDbEntity
  8
SIZE
  6
Continuous
 62
     0
100
AcDbBlockReference
  2
_DOTBLANK
 10
-21893.97193165959
 20
7685.702971374808
 30
0.0
 41
12.0
 42
12.0
 43
12.0
 50
90.0
  0
INSERT
  5
1425
330
28D9
100
AcDbEntity
  8
0
100
AcDbBlockReference
  2
*U25
 10
0.0
 20
0.0
 30
0.0
  0
POINT
  5
1426
330
28D9
100
AcDbEntity
  8
DEFPOINTS
  6
Continuous
 62
     0
100
AcDbPoint
 10
-22055.11521613997
 20
7385.702971374808
 30
0.0
  0
POINT
  5
1427
330
28D9
100
AcDbEntity
  8
DEFPOINTS
  6
Continuous
 62
     0
100
AcDbPoint
 10
-22021.11521613997
 20
7685.702971374808
 30
0.0
  0
POINT
  5
1428
330
28D9
100
AcDbEntity
  8
DEFPOINTS
  6
Continuous
 62
     0
100
AcDbPoint
 10
-21893.97193165959
 20
7685.702971374808
 30
0.0
  0
ENDBLK
  5
1429
330
28D9
100
AcDbEntity
  8
0
100
AcDbBlockEnd
  0
BLOCK
  5
28DC
330
28DB
100
AcDbEntity
  8
0
100
AcDbBlockBegin
  2
*U25
 70
     1
 10
0.0
 20
0.0
 30
0.0
  3
*U25
  1

  0
TEXT
  5
1EFD
330
28DB
100
AcDbEntity
  8
SIZE
 62
     0
100
AcDbText
 10
-21903.97193165959
 20
7461.645828517662
 30
0.0
 40
64.0
  1
300
 50
90.0
 41
0.9
100
AcDbText
  0
ENDBLK
  5
1EFF
330
28DB
100
AcDbEntity
  8
0
100
AcDbBlockEnd
  0
BLOCK
  5
28DE
330
28DD
100
AcDbEntity
  8
0
100
AcDbBlockBegin
  2
*D26
 70
     1
 10
0.0
 20
0.0
 30
0.0
  3
*D26
  1

  0
LINE
  5
142C
330
28DD
100
AcDbEntity
  8
SIZE
 62
     0
100
AcDbLine
 10
-22318.61521613997
 20
7718.167454177002
 30
0.0
 11
-22318.61521613997
 21
7822.154659243358
 31
0.0
  0
LINE
  5
142D
330
28DD
100
AcDbEntity
  8
SIZE
 62
     0
100
AcDbLine
 10
-22038.61521613997
 20
7718.167454177002
 30
0.0
 11
-22038.61521613997
 21
7822.154659243358
 31
0.0
  0
LINE
  5
142E
330
28DD
100
AcDbEntity
  8
SIZE
 62
     0
100
AcDbLine
 10
-22306.61521613997
 20
7802.154659243358
 30
0.0
 11
-22050.61521613997
 21
7802.154659243358
 31
0.0
  0
INSERT
  5
142F
330
28DD
100
AcDbEntity
  8
SIZE
 62
     0
100
AcDbBlockReference
  2
_DOTBLANK
 10
-22318.61521613997
 20
7802.154659243358
 30
0.0
 41
12.0
 42
12.0
 43
12.0
 50
180.0
  0
INSERT
  5
1430
330
28DD
100
AcDbEntity
  8
SIZE
 62
     0
100
AcDbBlockReference
  2
_DOTBLANK
 10
-22038.61521613997
 20
7802.154659243358
 30
0.0
 41
12.0
 42
12.0
 43
12.0
  0
INSERT
  5
1431
330
28DD
100
AcDbEntity
  8
0
100
AcDbBlockReference
  2
*U27
 10
0.0
 20
0.0
 30
0.0
  0
POINT
  5
1432
330
28DD
100
AcDbEntity
  8
DEFPOINTS
 62
     0
100
AcDbPoint
 10
-22318.61521613997
 20
7698.167454177002
 30
0.0
  0
POINT
  5
1433
330
28DD
100
AcDbEntity
  8
DEFPOINTS
 62
     0
100
AcDbPoint
 10
-22038.61521613997
 20
7698.167454177002
 30
0.0
  0
POINT
  5
1434
330
28DD
100
AcDbEntity
  8
DEFPOINTS
 62
     0
100
AcDbPoint
 10
-22038.61521613997
 20
7802.154659243358
 30
0.0
  0
ENDBLK
  5
1435
330
28DD
100
AcDbEntity
  8
0
100
AcDbBlockEnd
  0
BLOCK
  5
28E0
330
28DF
100
AcDbEntity
  8
0
100
AcDbBlockBegin
  2
*U27
 70
     1
 10
0.0
 20
0.0
 30
0.0
  3
*U27
  1

  0
TEXT
  5
1F01
330
28DF
100
AcDbEntity
  8
SIZE
 62
     0
100
AcDbText
 10
-22252.6723589971
 20
7812.154659243358
 30
0.0
 40
64.0
  1
280
 41
0.9
100
AcDbText
  0
ENDBLK
  5
1F03
330
28DF
100
AcDbEntity
  8
0
100
AcDbBlockEnd
  0
BLOCK
  5
28E2
330
28E1
100
AcDbEntity
  8
0
100
AcDbBlockBegin
  2
*D28
 70
     1
 10
0.0
 20
0.0
 30
0.0
  3
*D28
  1

  0
LINE
  5
1438
330
28E1
100
AcDbEntity
  8
SIZE
 62
     0
100
AcDbLine
 10
-22336.11521613997
 20
7705.702971374808
 30
0.0
 11
-22336.11521613997
 21
7931.282433493766
 31
0.0
  0
LINE
  5
1439
330
28E1
100
AcDbEntity
  8
SIZE
 62
     0
100
AcDbLine
 10
-22021.11521613997
 20
7705.702971374808
 30
0.0
 11
-22021.11521613997
 21
7931.282433493766
 31
0.0
  0
LINE
  5
143A
330
28E1
100
AcDbEntity
  8
SIZE
 62
     0
100
AcDbLine
 10
-22324.11521613997
 20
7911.282433493766
 30
0.0
 11
-22033.11521613997
 21
7911.282433493766
 31
0.0
  0
INSERT
  5
143B
330
28E1
100
AcDbEntity
  8
SIZE
 62
     0
100
AcDbBlockReference
  2
_DOTBLANK
 10
-22336.11521613997
 20
7911.282433493766
 30
0.0
 41
12.0
 42
12.0
 43
12.0
 50
180.0
  0
INSERT
  5
143C
330
28E1
100
AcDbEntity
  8
SIZE
 62
     0
100
AcDbBlockReference
  2
_DOTBLANK
 10
-22021.11521613997
 20
7911.282433493766
 30
0.0
 41
12.0
 42
12.0
 43
12.0
  0
INSERT
  5
143D
330
28E1
100
AcDbEntity
  8
0
100
AcDbBlockReference
  2
*U29
 10
0.0
 20
0.0
 30
0.0
  0
POINT
  5
143E
330
28E1
100
AcDbEntity
  8
DEFPOINTS
 62
     0
100
AcDbPoint
 10
-22336.11521613997
 20
7685.702971374808
 30
0.0
  0
POINT
  5
143F
330
28E1
100
AcDbEntity
  8
DEFPOINTS
 62
     0
100
AcDbPoint
 10
-22021.11521613997
 20
7685.702971374808
 30
0.0
  0
POINT
  5
1440
330
28E1
100
AcDbEntity
  8
DEFPOINTS
 62
     0
100
AcDbPoint
 10
-22021.11521613997
 20
7911.282433493766
 30
0.0
  0
ENDBLK
  5
1441
330
28E1
100
AcDbEntity
  8
0
100
AcDbBlockEnd
  0
BLOCK
  5
28E4
330
28E3
100
AcDbEntity
  8
0
100
AcDbBlockBegin
  2
*U29
 70
     1
 10
0.0
 20
0.0
 30
0.0
  3
*U29
  1

  0
TEXT
  5
1F05
330
28E3
100
AcDbEntity
  8
SIZE
 62
     0
100
AcDbText
 10
-22247.18664471139
 20
7921.282433493766
 30
0.0
 40
64.0
  1
315
 41
0.9
100
AcDbText
  0
ENDBLK
  5
1F07
330
28E3
100
AcDbEntity
  8
0
100
AcDbBlockEnd
  0
BLOCK
  5
28E6
330
28E5
100
AcDbEntity
  8
0
100
AcDbBlockBegin
  2
*D30
 70
     1
 10
0.0
 20
0.0
 30
0.0
  3
*D30
  1

  0
LINE
  5
166B
330
28E5
100
AcDbEntity
  8
SIZE
 62
     0
100
AcDbLine
 10
-134.5
 20
-320.0
 30
0.0
 11
-134.5
 21
-468.0173952306001
 31
0.0
  0
LINE
  5
166C
330
28E5
100
AcDbEntity
  8
SIZE
 62
     0
100
AcDbLine
 10
134.5
 20
-320.0
 30
0.0
 11
134.5
 21
-468.0173952306001
 31
0.0
  0
LINE
  5
166D
330
28E5
100
AcDbEntity
  8
SIZE
 62
     0
100
AcDbLine
 10
-122.5
 20
-448.0173952306
 30
0.0
 11
122.5
 21
-448.0173952306
 31
0.0
  0
INSERT
  5
166E
330
28E5
100
AcDbEntity
  8
SIZE
 62
     0
100
AcDbBlockReference
  2
_DOTBLANK
 10
-134.5
 20
-448.0173952306
 30
0.0
 41
12.0
 42
12.0
 43
12.0
 50
180.0
  0
INSERT
  5
166F
330
28E5
100
AcDbEntity
  8
SIZE
 62
     0
100
AcDbBlockReference
  2
_DOTBLANK
 10
134.5
 20
-448.0173952306
 30
0.0
 41
12.0
 42
12.0
 43
12.0
  0
INSERT
  5
1670
330
28E5
100
AcDbEntity
  8
0
100
AcDbBlockReference
  2
*U31
 10
0.0
 20
0.0
 30
0.0
  0
POINT
  5
1671
330
28E5
100
AcDbEntity
  8
DEFPOINTS
 62
     0
100
AcDbPoint
 10
-134.5
 20
-300.0
 30
0.0
  0
POINT
  5
1672
330
28E5
100
AcDbEntity
  8
DEFPOINTS
 62
     0
100
AcDbPoint
 10
134.5
 20
-300.0
 30
0.0
  0
POINT
  5
1673
330
28E5
100
AcDbEntity
  8
DEFPOINTS
 62
     0
100
AcDbPoint
 10
134.5
 20
-448.0173952306
 30
0.0
  0
ENDBLK
  5
14A7
330
28E5
100
AcDbEntity
  8
0
100
AcDbBlockEnd
  0
BLOCK
  5
28E8
330
28E7
100
AcDbEntity
  8
0
100
AcDbBlockBegin
  2
*U31
 70
     1
 10
0.0
 20
0.0
 30
0.0
  3
*U31
  1

  0
TEXT
  5
1F09
330
28E7
100
AcDbEntity
  8
SIZE
 62
     0
100
AcDbText
 10
-72.68571428571426
 20
-438.0173952306002
 30
0.0
 40
64.0
  1
269
 41
0.9
100
AcDbText
  0
ENDBLK
  5
1F0B
330
28E7
100
AcDbEntity
  8
0
100
AcDbBlockEnd
  0
BLOCK
  5
28EA
330
28E9
100
AcDbEntity
  8
0
100
AcDbBlockBegin
  2
*D32
 70
     1
 10
0.0
 20
0.0
 30
0.0
  3
*D32
  1

  0
LINE
  5
1674
330
28E9
100
AcDbEntity
  8
SIZE
  6
Continuous
 62
     0
100
AcDbLine
 10
143.5
 20
-300.0
 30
0.0
 11
304.6432844803784
 21
-300.0
 31
0.0
  0
LINE
  5
1675
330
28E9
100
AcDbEntity
  8
SIZE
  6
Continuous
 62
     0
100
AcDbLine
 10
177.5
 20
-0.0000000000000057
 30
0.0
 11
304.6432844803785
 21
-0.0000000000000417
 31
0.0
  0
LINE
  5
1676
330
28E9
100
AcDbEntity
  8
SIZE
  6
Continuous
 62
     0
100
AcDbLine
 10
284.6432844803784
 20
-288.0000000000001
 30
0.0
 11
284.6432844803785
 21
-12.00000000000003
 31
0.0
  0
INSERT
  5
1677
330
28E9
100
AcDbEntity
  8
SIZE
  6
Continuous
 62
     0
100
AcDbBlockReference
  2
_DOTBLANK
 10
284.6432844803784
 20
-300.0
 30
0.0
 41
12.0
 42
12.0
 43
12.0
 50
270.0
  0
INSERT
  5
1678
330
28E9
100
AcDbEntity
  8
SIZE
  6
Continuous
 62
     0
100
AcDbBlockReference
  2
_DOTBLANK
 10
284.6432844803785
 20
-0.000000000000036
 30
0.0
 41
12.0
 42
12.0
 43
12.0
 50
90.0
  0
INSERT
  5
1679
330
28E9
100
AcDbEntity
  8
0
100
AcDbBlockReference
  2
*U33
 10
0.0
 20
0.0
 30
0.0
  0
POINT
  5
167A
330
28E9
100
AcDbEntity
  8
DEFPOINTS
  6
Continuous
 62
     0
100
AcDbPoint
 10
123.5
 20
-300.0
 30
0.0
  0
POINT
  5
167B
330
28E9
100
AcDbEntity
  8
DEFPOINTS
  6
Continuous
 62
     0
100
AcDbPoint
 10
157.5
 20
0.0
 30
0.0
  0
POINT
  5
167C
330
28E9
100
AcDbEntity
  8
DEFPOINTS
  6
Continuous
 62
     0
100
AcDbPoint
 10
284.6432844803785
 20
-0.000000000000036
 30
0.0
  0
ENDBLK
  5
14B3
330
28E9
100
AcDbEntity
  8
0
100
AcDbBlockEnd
  0
BLOCK
  5
28EC
330
28EB
100
AcDbEntity
  8
0
100
AcDbBlockBegin
  2
*U33
 70
     1
 10
0.0
 20
0.0
 30
0.0
  3
*U33
  1

  0
TEXT
  5
1F0D
330
28EB
100
AcDbEntity
  8
SIZE
 62
     0
100
AcDbText
 10
274.6432844803785
 20
-224.0571428571429
 30
0.0
 40
64.0
  1
300
 50
90.0
 41
0.9
100
AcDbText
  0
ENDBLK
  5
1F0F
330
28EB
100
AcDbEntity
  8
0
100
AcDbBlockEnd
  0
BLOCK
  5
28EE
330
28ED
100
AcDbEntity
  8
0
100
AcDbBlockBegin
  2
*D34
 70
     1
 10
0.0
 20
0.0
 30
0.0
  3
*D34
  1

  0
LINE
  5
167D
330
28ED
100
AcDbEntity
  8
SIZE
 62
     0
100
AcDbLine
 10
-140.0
 20
32.46448280219375
 30
0.0
 11
-140.0
 21
136.4516878685507
 31
0.0
  0
LINE
  5
167E
330
28ED
100
AcDbEntity
  8
SIZE
 62
     0
100
AcDbLine
 10
140.0
 20
32.46448280219375
 30
0.0
 11
140.0
 21
136.4516878685507
 31
0.0
  0
LINE
  5
167F
330
28ED
100
AcDbEntity
  8
SIZE
 62
     0
100
AcDbLine
 10
-128.0
 20
116.4516878685508
 30
0.0
 11
128.0
 21
116.4516878685508
 31
0.0
  0
INSERT
  5
1680
330
28ED
100
AcDbEntity
  8
SIZE
 62
     0
100
AcDbBlockReference
  2
_DOTBLANK
 10
-140.0
 20
116.4516878685508
 30
0.0
 41
12.0
 42
12.0
 43
12.0
 50
180.0
  0
INSERT
  5
1681
330
28ED
100
AcDbEntity
  8
SIZE
 62
     0
100
AcDbBlockReference
  2
_DOTBLANK
 10
140.0
 20
116.4516878685508
 30
0.0
 41
12.0
 42
12.0
 43
12.0
  0
INSERT
  5
1682
330
28ED
100
AcDbEntity
  8
0
100
AcDbBlockReference
  2
*U35
 10
0.0
 20
0.0
 30
0.0
  0
POINT
  5
1683
330
28ED
100
AcDbEntity
  8
DEFPOINTS
 62
     0
100
AcDbPoint
 10
-140.0
 20
12.46448280219374
 30
0.0
  0
POINT
  5
1684
330
28ED
100
AcDbEntity
  8
DEFPOINTS
 62
     0
100
AcDbPoint
 10
140.0
 20
12.46448280219374
 30
0.0
  0
POINT
  5
1685
330
28ED
100
AcDbEntity
  8
DEFPOINTS
 62
     0
100
AcDbPoint
 10
140.0
 20
116.4516878685508
 30
0.0
  0
ENDBLK
  5
14BF
330
28ED
100
AcDbEntity
  8
0
100
AcDbBlockEnd
  0
BLOCK
  5
28F0
330
28EF
100
AcDbEntity
  8
0
100
AcDbBlockBegin
  2
*U35
 70
     1
 10
0.0
 20
0.0
 30
0.0
  3
*U35
  1

  0
TEXT
  5
1F11
330
28EF
100
AcDbEntity
  8
SIZE
 62
     0
100
AcDbText
 10
-74.05714285714283
 20
126.4516878685507
 30
0.0
 40
64.0
  1
280
 41
0.9
100
AcDbText
  0
ENDBLK
  5
1F13
330
28EF
100
AcDbEntity
  8
0
100
AcDbBlockEnd
  0
BLOCK
  5
28F2
330
28F1
100
AcDbEntity
  8
0
100
AcDbBlockBegin
  2
*D36
 70
     1
 10
0.0
 20
0.0
 30
0.0
  3
*D36
  1

  0
LINE
  5
1686
330
28F1
100
AcDbEntity
  8
SIZE
 62
     0
100
AcDbLine
 10
-157.5
 20
20.0
 30
0.0
 11
-157.5
 21
245.5794621189598
 31
0.0
  0
LINE
  5
1687
330
28F1
100
AcDbEntity
  8
SIZE
 62
     0
100
AcDbLine
 10
157.5
 20
20.0
 30
0.0
 11
157.5
 21
245.5794621189598
 31
0.0
  0
LINE
  5
1688
330
28F1
100
AcDbEntity
  8
SIZE
 62
     0
100
AcDbLine
 10
-145.5
 20
225.5794621189598
 30
0.0
 11
145.5
 21
225.5794621189598
 31
0.0
  0
INSERT
  5
1689
330
28F1
100
AcDbEntity
  8
SIZE
 62
     0
100
AcDbBlockReference
  2
_DOTBLANK
 10
-157.5
 20
225.5794621189598
 30
0.0
 41
12.0
 42
12.0
 43
12.0
 50
180.0
  0
INSERT
  5
168A
330
28F1
100
AcDbEntity
  8
SIZE
 62
     0
100
AcDbBlockReference
  2
_DOTBLANK
 10
157.5
 20
225.5794621189598
 30
0.0
 41
12.0
 42
12.0
 43
12.0
  0
INSERT
  5
168B
330
28F1
100
AcDbEntity
  8
0
100
AcDbBlockReference
  2
*U37
 10
0.0
 20
0.0
 30
0.0
  0
POINT
  5
168C
330
28F1
100
AcDbEntity
  8
DEFPOINTS
 62
     0
100
AcDbPoint
 10
-157.5
 20
0.0
 30
0.0
  0
POINT
  5
168D
330
28F1
100
AcDbEntity
  8
DEFPOINTS
 62
     0
100
AcDbPoint
 10
157.5
 20
0.0
 30
0.0
  0
POINT
  5
168E
330
28F1
100
AcDbEntity
  8
DEFPOINTS
 62
     0
100
AcDbPoint
 10
157.5
 20
225.5794621189598
 30
0.0
  0
ENDBLK
  5
14CB
330
28F1
100
AcDbEntity
  8
0
100
AcDbBlockEnd
  0
BLOCK
  5
28F4
330
28F3
100
AcDbEntity
  8
0
100
AcDbBlockBegin
  2
*U37
 70
     1
 10
0.0
 20
0.0
 30
0.0
  3
*U37
  1

  0
TEXT
  5
1F15
330
28F3
100
AcDbEntity
  8
SIZE
 62
     0
100
AcDbText
 10
-68.57142857142857
 20
235.5794621189598
 30
0.0
 40
64.0
  1
315
 41
0.9
100
AcDbText
  0
ENDBLK
  5
1F17
330
28F3
100
AcDbEntity
  8
0
100
AcDbBlockEnd
  0
BLOCK
  5
28F6
330
28F5
100
AcDbEntity
  8
0
100
AcDbBlockBegin
  2
*U38
 70
     1
 10
0.0
 20
0.0
 30
0.0
  3
*U38
  1

  0
ENDBLK
  5
15CF
330
28F5
100
AcDbEntity
  8
0
100
AcDbBlockEnd
  0
BLOCK
  5
28F8
330
28F7
100
AcDbEntity
  8
0
100
AcDbBlockBegin
  2
*D39
 70
     1
 10
0.0
 20
0.0
 30
0.0
  3
*D39
  1

  0
LINE
  5
1692
330
28F7
100
AcDbEntity
  8
SIZE
 62
     0
100
AcDbLine
 10
-25844.51823276502
 20
7685.702971374808
 30
0.0
 11
-25981.04465488371
 21
7685.702971374808
 31
0.0
  0
LINE
  5
1693
330
28F7
100
AcDbEntity
  8
SIZE
 62
     0
100
AcDbLine
 10
-25844.51823276502
 20
7677.702971374808
 30
0.0
 11
-25981.04465488371
 21
7677.702971374808
 31
0.0
  0
LINE
  5
1694
330
28F7
100
AcDbEntity
  8
SIZE
 62
     0
100
AcDbLine
 10
-25961.04465488371
 20
7697.702971374808
 30
0.0
 11
-25961.04465488371
 21
7709.702971374809
 31
0.0
  0
LINE
  5
1695
330
28F7
100
AcDbEntity
  8
SIZE
 62
     0
100
AcDbLine
 10
-25961.04465488371
 20
7665.70297137481
 30
0.0
 11
-25961.04465488371
 21
7595.302971374808
 31
0.0
  0
INSERT
  5
1696
330
28F7
100
AcDbEntity
  8
SIZE
 62
     0
100
AcDbBlockReference
  2
_DOTBLANK
 10
-25961.04465488371
 20
7685.702971374808
 30
0.0
 41
12.0
 42
12.0
 43
12.0
 50
270.0
  0
INSERT
  5
1697
330
28F7
100
AcDbEntity
  8
SIZE
 62
     0
100
AcDbBlockReference
  2
_DOTBLANK
 10
-25961.04465488371
 20
7677.702971374808
 30
0.0
 41
12.0
 42
12.0
 43
12.0
 50
90.0
  0
INSERT
  5
1698
330
28F7
100
AcDbEntity
  8
0
100
AcDbBlockReference
  2
*U40
 10
0.0
 20
0.0
 30
0.0
  0
POINT
  5
1699
330
28F7
100
AcDbEntity
  8
DEFPOINTS
 62
     0
100
AcDbPoint
 10
-25824.51823276501
 20
7685.702971374808
 30
0.0
  0
POINT
  5
169A
330
28F7
100
AcDbEntity
  8
DEFPOINTS
 62
     0
100
AcDbPoint
 10
-25824.51823276501
 20
7677.702971374808
 30
0.0
  0
POINT
  5
169B
330
28F7
100
AcDbEntity
  8
DEFPOINTS
 62
     0
100
AcDbPoint
 10
-25961.04465488371
 20
7677.702971374808
 30
0.0
  0
ENDBLK
  5
169C
330
28F7
100
AcDbEntity
  8
0
100
AcDbBlockEnd
  0
BLOCK
  5
28FA
330
28F9
100
AcDbEntity
  8
0
100
AcDbBlockBegin
  2
*U40
 70
     1
 10
0.0
 20
0.0
 30
0.0
  3
*U40
  1

  0
TEXT
  5
1F19
330
28F9
100
AcDbEntity
  8
SIZE
 62
     0
100
AcDbText
 10
-25971.04465488371
 20
7605.302971374804
 30
0.0
 40
64.0
  1
8
 50
90.0
 41
0.9
100
AcDbText
  0
ENDBLK
  5
1F1B
330
28F9
100
AcDbEntity
  8
0
100
AcDbBlockEnd
  0
BLOCK
  5
28FC
330
28FB
100
AcDbEntity
  8
0
100
AcDbBlockBegin
  2
*D41
 70
     1
 10
0.0
 20
0.0
 30
0.0
  3
*D41
  1

  0
LINE
  5
169F
330
28FB
100
AcDbEntity
  8
SIZE
 62
     0
100
AcDbLine
 10
-25512.51823276502
 20
7385.702971374808
 30
0.0
 11
-25362.37494828464
 21
7385.702971374808
 31
0.0
  0
LINE
  5
16A0
330
28FB
100
AcDbEntity
  8
SIZE
 62
     0
100
AcDbLine
 10
-25523.51823276501
 20
7373.702971374808
 30
0.0
 11
-25362.37494828464
 21
7373.702971374808
 31
0.0
  0
LINE
  5
16A1
330
28FB
100
AcDbEntity
  8
SIZE
 62
     0
100
AcDbLine
 10
-25382.37494828464
 20
7397.702971374808
 30
0.0
 11
-25382.37494828464
 21
7409.70297137481
 31
0.0
  0
LINE
  5
16A2
330
28FB
100
AcDbEntity
  8
SIZE
 62
     0
100
AcDbLine
 10
-25382.37494828464
 20
7361.702971374808
 30
0.0
 11
-25382.37494828464
 21
7244.674399946237
 31
0.0
  0
INSERT
  5
16A3
330
28FB
100
AcDbEntity
  8
SIZE
 62
     0
100
AcDbBlockReference
  2
_DOTBLANK
 10
-25382.37494828464
 20
7385.702971374808
 30
0.0
 41
12.0
 42
12.0
 43
12.0
 50
270.0
  0
INSERT
  5
16A4
330
28FB
100
AcDbEntity
  8
SIZE
 62
     0
100
AcDbBlockReference
  2
_DOTBLANK
 10
-25382.37494828464
 20
7373.702971374808
 30
0.0
 41
12.0
 42
12.0
 43
12.0
 50
90.0
  0
INSERT
  5
16A5
330
28FB
100
AcDbEntity
  8
0
100
AcDbBlockReference
  2
*U42
 10
0.0
 20
0.0
 30
0.0
  0
POINT
  5
16A6
330
28FB
100
AcDbEntity
  8
DEFPOINTS
 62
     0
100
AcDbPoint
 10
-25532.51823276502
 20
7385.702971374808
 30
0.0
  0
POINT
  5
16A7
330
28FB
100
AcDbEntity
  8
DEFPOINTS
 62
     0
100
AcDbPoint
 10
-25543.51823276502
 20
7373.702971374808
 30
0.0
  0
POINT
  5
16A8
330
28FB
100
AcDbEntity
  8
DEFPOINTS
 62
     0
100
AcDbPoint
 10
-25382.37494828464
 20
7373.702971374808
 30
0.0
  0
ENDBLK
  5
16A9
330
28FB
100
AcDbEntity
  8
0
100
AcDbBlockEnd
  0
BLOCK
  5
28FE
330
28FD
100
AcDbEntity
  8
0
100
AcDbBlockBegin
  2
*U42
 70
     1
 10
0.0
 20
0.0
 30
0.0
  3
*U42
  1

  0
TEXT
  5
1F1D
330
28FD
100
AcDbEntity
  8
SIZE
 62
     0
100
AcDbText
 10
-25392.37494828464
 20
7256.045828517662
 30
0.0
 40
64.0
  1
12
 50
90.0
 41
0.9
100
AcDbText
  0
ENDBLK
  5
1F1F
330
28FD
100
AcDbEntity
  8
0
100
AcDbBlockEnd
  0
BLOCK
  5
2900
330
28FF
100
AcDbEntity
  8
0
100
AcDbBlockBegin
  2
*D43
 70
     1
 10
0.0
 20
0.0
 30
0.0
  3
*D43
  1

  0
LINE
  5
16AC
330
28FF
100
AcDbEntity
  8
SIZE
 62
     0
100
AcDbLine
 10
-25801.51823276501
 20
7365.702971374808
 30
0.0
 11
-25801.51823276501
 21
7217.685576144207
 31
0.0
  0
LINE
  5
16AD
330
28FF
100
AcDbEntity
  8
SIZE
 62
     0
100
AcDbLine
 10
-25532.51823276502
 20
7365.702971374808
 30
0.0
 11
-25532.51823276502
 21
7217.685576144207
 31
0.0
  0
LINE
  5
16AE
330
28FF
100
AcDbEntity
  8
SIZE
 62
     0
100
AcDbLine
 10
-25789.51823276502
 20
7237.685576144207
 30
0.0
 11
-25544.51823276501
 21
7237.685576144207
 31
0.0
  0
INSERT
  5
16AF
330
28FF
100
AcDbEntity
  8
SIZE
 62
     0
100
AcDbBlockReference
  2
_DOTBLANK
 10
-25801.51823276501
 20
7237.685576144207
 30
0.0
 41
12.0
 42
12.0
 43
12.0
 50
180.0
  0
INSERT
  5
16B0
330
28FF
100
AcDbEntity
  8
SIZE
 62
     0
100
AcDbBlockReference
  2
_DOTBLANK
 10
-25532.51823276502
 20
7237.685576144207
 30
0.0
 41
12.0
 42
12.0
 43
12.0
  0
INSERT
  5
16B1
330
28FF
100
AcDbEntity
  8
0
100
AcDbBlockReference
  2
*U44
 10
0.0
 20
0.0
 30
0.0
  0
POINT
  5
16B2
330
28FF
100
AcDbEntity
  8
DEFPOINTS
 62
     0
100
AcDbPoint
 10
-25801.51823276501
 20
7385.702971374808
 30
0.0
  0
POINT
  5
16B3
330
28FF
100
AcDbEntity
  8
DEFPOINTS
 62
     0
100
AcDbPoint
 10
-25532.51823276502
 20
7385.702971374808
 30
0.0
  0
POINT
  5
16B4
330
28FF
100
AcDbEntity
  8
DEFPOINTS
 62
     0
100
AcDbPoint
 10
-25532.51823276502
 20
7237.685576144207
 30
0.0
  0
ENDBLK
  5
16B5
330
28FF
100
AcDbEntity
  8
0
100
AcDbBlockEnd
  0
BLOCK
  5
2902
330
2901
100
AcDbEntity
  8
0
100
AcDbBlockBegin
  2
*U44
 70
     1
 10
0.0
 20
0.0
 30
0.0
  3
*U44
  1

  0
TEXT
  5
1F21
330
2901
100
AcDbEntity
  8
SIZE
 62
     0
100
AcDbText
 10
-25739.70394705074
 20
7247.685576144205
 30
0.0
 40
64.0
  1
269
 41
0.9
100
AcDbText
  0
ENDBLK
  5
1F23
330
2901
100
AcDbEntity
  8
0
100
AcDbBlockEnd
  0
BLOCK
  5
2904
330
2903
100
AcDbEntity
  8
0
100
AcDbBlockBegin
  2
*D45
 70
     1
 10
0.0
 20
0.0
 30
0.0
  3
*D45
  1

  0
LINE
  5
16B8
330
2903
100
AcDbEntity
  8
SIZE
 62
     0
100
AcDbLine
 10
-25512.51823276502
 20
7385.702971374808
 30
0.0
 11
-25362.37494828464
 21
7385.702971374808
 31
0.0
  0
LINE
  5
16B9
330
2903
100
AcDbEntity
  8
SIZE
 62
     0
100
AcDbLine
 10
-25489.51823276501
 20
7685.702971374808
 30
0.0
 11
-25362.37494828464
 21
7685.702971374808
 31
0.0
  0
LINE
  5
16BA
330
2903
100
AcDbEntity
  8
SIZE
 62
     0
100
AcDbLine
 10
-25382.37494828464
 20
7397.702971374808
 30
0.0
 11
-25382.37494828464
 21
7673.702971374808
 31
0.0
  0
INSERT
  5
16BB
330
2903
100
AcDbEntity
  8
SIZE
 62
     0
100
AcDbBlockReference
  2
_DOTBLANK
 10
-25382.37494828464
 20
7385.702971374808
 30
0.0
 41
12.0
 42
12.0
 43
12.0
 50
270.0
  0
INSERT
  5
16BC
330
2903
100
AcDbEntity
  8
SIZE
 62
     0
100
AcDbBlockReference
  2
_DOTBLANK
 10
-25382.37494828464
 20
7685.702971374808
 30
0.0
 41
12.0
 42
12.0
 43
12.0
 50
90.0
  0
INSERT
  5
16BD
330
2903
100
AcDbEntity
  8
0
100
AcDbBlockReference
  2
*U46
 10
0.0
 20
0.0
 30
0.0
  0
POINT
  5
16BE
330
2903
100
AcDbEntity
  8
DEFPOINTS
 62
     0
100
AcDbPoint
 10
-25532.51823276502
 20
7385.702971374808
 30
0.0
  0
POINT
  5
16BF
330
2903
100
AcDbEntity
  8
DEFPOINTS
 62
     0
100
AcDbPoint
 10
-25509.51823276502
 20
7685.702971374808
 30
0.0
  0
POINT
  5
16C0
330
2903
100
AcDbEntity
  8
DEFPOINTS
 62
     0
100
AcDbPoint
 10
-25382.37494828464
 20
7685.702971374808
 30
0.0
  0
ENDBLK
  5
16C1
330
2903
100
AcDbEntity
  8
0
100
AcDbBlockEnd
  0
BLOCK
  5
2906
330
2905
100
AcDbEntity
  8
0
100
AcDbBlockBegin
  2
*U46
 70
     1
 10
0.0
 20
0.0
 30
0.0
  3
*U46
  1

  0
TEXT
  5
1F25
330
2905
100
AcDbEntity
  8
SIZE
 62
     0
100
AcDbText
 10
-25392.37494828464
 20
7461.645828517662
 30
0.0
 40
64.0
  1
300
 50
90.0
 41
0.9
100
AcDbText
  0
ENDBLK
  5
1F27
330
2905
100
AcDbEntity
  8
0
100
AcDbBlockEnd
  0
BLOCK
  5
2908
330
2907
100
AcDbEntity
  8
0
100
AcDbBlockBegin
  2
*D47
 70
     1
 10
0.0
 20
0.0
 30
0.0
  3
*D47
  1

  0
LINE
  5
16C4
330
2907
100
AcDbEntity
  8
SIZE
 62
     0
100
AcDbLine
 10
-25807.01823276501
 20
7718.167454177002
 30
0.0
 11
-25807.01823276501
 21
7822.154659243358
 31
0.0
  0
LINE
  5
16C5
330
2907
100
AcDbEntity
  8
SIZE
 62
     0
100
AcDbLine
 10
-25527.01823276501
 20
7718.167454177002
 30
0.0
 11
-25527.01823276501
 21
7822.154659243358
 31
0.0
  0
LINE
  5
16C6
330
2907
100
AcDbEntity
  8
SIZE
 62
     0
100
AcDbLine
 10
-25795.01823276502
 20
7802.154659243358
 30
0.0
 11
-25539.01823276501
 21
7802.154659243358
 31
0.0
  0
INSERT
  5
16C7
330
2907
100
AcDbEntity
  8
SIZE
 62
     0
100
AcDbBlockReference
  2
_DOTBLANK
 10
-25807.01823276501
 20
7802.154659243358
 30
0.0
 41
12.0
 42
12.0
 43
12.0
 50
180.0
  0
INSERT
  5
16C8
330
2907
100
AcDbEntity
  8
SIZE
 62
     0
100
AcDbBlockReference
  2
_DOTBLANK
 10
-25527.01823276501
 20
7802.154659243358
 30
0.0
 41
12.0
 42
12.0
 43
12.0
  0
INSERT
  5
16C9
330
2907
100
AcDbEntity
  8
0
100
AcDbBlockReference
  2
*U48
 10
0.0
 20
0.0
 30
0.0
  0
POINT
  5
16CA
330
2907
100
AcDbEntity
  8
DEFPOINTS
 62
     0
100
AcDbPoint
 10
-25807.01823276501
 20
7698.167454177002
 30
0.0
  0
POINT
  5
16CB
330
2907
100
AcDbEntity
  8
DEFPOINTS
 62
     0
100
AcDbPoint
 10
-25527.01823276501
 20
7698.167454177002
 30
0.0
  0
POINT
  5
16CC
330
2907
100
AcDbEntity
  8
DEFPOINTS
 62
     0
100
AcDbPoint
 10
-25527.01823276501
 20
7802.154659243358
 30
0.0
  0
ENDBLK
  5
16CD
330
2907
100
AcDbEntity
  8
0
100
AcDbBlockEnd
  0
BLOCK
  5
290A
330
2909
100
AcDbEntity
  8
0
100
AcDbBlockBegin
  2
*U48
 70
     1
 10
0.0
 20
0.0
 30
0.0
  3
*U48
  1

  0
TEXT
  5
1F29
330
2909
100
AcDbEntity
  8
SIZE
 62
     0
100
AcDbText
 10
-25741.07537562216
 20
7812.154659243358
 30
0.0
 40
64.0
  1
280
 41
0.9
100
AcDbText
  0
ENDBLK
  5
1F2B
330
2909
100
AcDbEntity
  8
0
100
AcDbBlockEnd
  0
BLOCK
  5
290C
330
290B
100
AcDbEntity
  8
0
100
AcDbBlockBegin
  2
*D49
 70
     1
 10
0.0
 20
0.0
 30
0.0
  3
*D49
  1

  0
LINE
  5
16D0
330
290B
100
AcDbEntity
  8
SIZE
 62
     0
100
AcDbLine
 10
-25824.51823276501
 20
7705.702971374808
 30
0.0
 11
-25824.51823276501
 21
7931.282433493766
 31
0.0
  0
LINE
  5
16D1
330
290B
100
AcDbEntity
  8
SIZE
 62
     0
100
AcDbLine
 10
-25509.51823276502
 20
7705.702971374808
 30
0.0
 11
-25509.51823276502
 21
7931.282433493766
 31
0.0
  0
LINE
  5
16D2
330
290B
100
AcDbEntity
  8
SIZE
 62
     0
100
AcDbLine
 10
-25812.51823276502
 20
7911.282433493766
 30
0.0
 11
-25521.51823276501
 21
7911.282433493766
 31
0.0
  0
INSERT
  5
16D3
330
290B
100
AcDbEntity
  8
SIZE
 62
     0
100
AcDbBlockReference
  2
_DOTBLANK
 10
-25824.51823276501
 20
7911.282433493766
 30
0.0
 41
12.0
 42
12.0
 43
12.0
 50
180.0
  0
INSERT
  5
16D4
330
290B
100
AcDbEntity
  8
SIZE
 62
     0
100
AcDbBlockReference
  2
_DOTBLANK
 10
-25509.51823276502
 20
7911.282433493766
 30
0.0
 41
12.0
 42
12.0
 43
12.0
  0
INSERT
  5
16D5
330
290B
100
AcDbEntity
  8
0
100
AcDbBlockReference
  2
*U50
 10
0.0
 20
0.0
 30
0.0
  0
POINT
  5
16D6
330
290B
100
AcDbEntity
  8
DEFPOINTS
 62
     0
100
AcDbPoint
 10
-25824.51823276501
 20
7685.702971374808
 30
0.0
  0
POINT
  5
16D7
330
290B
100
AcDbEntity
  8
DEFPOINTS
 62
     0
100
AcDbPoint
 10
-25509.51823276502
 20
7685.702971374808
 30
0.0
  0
POINT
  5
16D8
330
290B
100
AcDbEntity
  8
DEFPOINTS
 62
     0
100
AcDbPoint
 10
-25509.51823276502
 20
7911.282433493766
 30
0.0
  0
ENDBLK
  5
16D9
330
290B
100
AcDbEntity
  8
0
100
AcDbBlockEnd
  0
BLOCK
  5
290E
330
290D
100
AcDbEntity
  8
0
100
AcDbBlockBegin
  2
*U50
 70
     1
 10
0.0
 20
0.0
 30
0.0
  3
*U50
  1

  0
TEXT
  5
1F2D
330
290D
100
AcDbEntity
  8
SIZE
 62
     0
100
AcDbText
 10
-25735.58966133645
 20
7921.282433493766
 30
0.0
 40
64.0
  1
315
 41
0.9
100
AcDbText
  0
ENDBLK
  5
1F2F
330
290D
100
AcDbEntity
  8
0
100
AcDbBlockEnd
  0
BLOCK
  5
2910
330
290F
100
AcDbEntity
  8
0
100
AcDbBlockBegin
  2
*D51
 70
     1
 10
0.0
 20
0.0
 30
0.0
  3
*D51
  1

  0
LINE
  5
1D83
330
290F
100
AcDbEntity
  8
SIZE
 62
     0
100
AcDbLine
 10
-134.5
 20
-320.0
 30
0.0
 11
-134.5
 21
-468.0173952306001
 31
0.0
  0
LINE
  5
1D84
330
290F
100
AcDbEntity
  8
SIZE
 62
     0
100
AcDbLine
 10
134.5
 20
-320.0
 30
0.0
 11
134.5
 21
-468.0173952306001
 31
0.0
  0
LINE
  5
1D85
330
290F
100
AcDbEntity
  8
SIZE
 62
     0
100
AcDbLine
 10
-122.5
 20
-448.0173952306
 30
0.0
 11
122.5
 21
-448.0173952306
 31
0.0
  0
INSERT
  5
1D86
330
290F
100
AcDbEntity
  8
SIZE
 62
     0
100
AcDbBlockReference
  2
_DOTBLANK
 10
-134.5
 20
-448.0173952306
 30
0.0
 41
12.0
 42
12.0
 43
12.0
 50
180.0
  0
INSERT
  5
1D87
330
290F
100
AcDbEntity
  8
SIZE
 62
     0
100
AcDbBlockReference
  2
_DOTBLANK
 10
134.5
 20
-448.0173952306
 30
0.0
 41
12.0
 42
12.0
 43
12.0
  0
INSERT
  5
1D88
330
290F
100
AcDbEntity
  8
0
100
AcDbBlockReference
  2
*U52
 10
0.0
 20
0.0
 30
0.0
  0
POINT
  5
1D89
330
290F
100
AcDbEntity
  8
DEFPOINTS
 62
     0
100
AcDbPoint
 10
-134.5
 20
-300.0
 30
0.0
  0
POINT
  5
1D8A
330
290F
100
AcDbEntity
  8
DEFPOINTS
 62
     0
100
AcDbPoint
 10
134.5
 20
-300.0
 30
0.0
  0
POINT
  5
1D8B
330
290F
100
AcDbEntity
  8
DEFPOINTS
 62
     0
100
AcDbPoint
 10
134.5
 20
-448.0173952306
 30
0.0
  0
ENDBLK
  5
173D
330
290F
100
AcDbEntity
  8
0
100
AcDbBlockEnd
  0
BLOCK
  5
2912
330
2911
100
AcDbEntity
  8
0
100
AcDbBlockBegin
  2
*U52
 70
     1
 10
0.0
 20
0.0
 30
0.0
  3
*U52
  1

  0
TEXT
  5
1F31
330
2911
100
AcDbEntity
  8
SIZE
 62
     0
100
AcDbText
 10
-72.68571428571426
 20
-438.0173952306003
 30
0.0
 40
64.0
  1
269
 41
0.9
100
AcDbText
  0
ENDBLK
  5
1F33
330
2911
100
AcDbEntity
  8
0
100
AcDbBlockEnd
  0
BLOCK
  5
2914
330
2913
100
AcDbEntity
  8
0
100
AcDbBlockBegin
  2
*D53
 70
     1
 10
0.0
 20
0.0
 30
0.0
  3
*D53
  1

  0
LINE
  5
1D8C
330
2913
100
AcDbEntity
  8
SIZE
 62
     0
100
AcDbLine
 10
154.5
 20
-300.0
 30
0.0
 11
304.6432844803784
 21
-300.0
 31
0.0
  0
LINE
  5
1D8D
330
2913
100
AcDbEntity
  8
SIZE
 62
     0
100
AcDbLine
 10
177.5
 20
-0.0000000000000057
 30
0.0
 11
304.6432844803785
 21
-0.0000000000000417
 31
0.0
  0
LINE
  5
1D8E
330
2913
100
AcDbEntity
  8
SIZE
 62
     0
100
AcDbLine
 10
284.6432844803784
 20
-288.0
 30
0.0
 11
284.6432844803785
 21
-12.00000000000003
 31
0.0
  0
INSERT
  5
1D8F
330
2913
100
AcDbEntity
  8
SIZE
 62
     0
100
AcDbBlockReference
  2
_DOTBLANK
 10
284.6432844803784
 20
-300.0
 30
0.0
 41
12.0
 42
12.0
 43
12.0
 50
270.0
  0
INSERT
  5
1D90
330
2913
100
AcDbEntity
  8
SIZE
 62
     0
100
AcDbBlockReference
  2
_DOTBLANK
 10
284.6432844803785
 20
-0.000000000000036
 30
0.0
 41
12.0
 42
12.0
 43
12.0
 50
90.0
  0
INSERT
  5
1D91
330
2913
100
AcDbEntity
  8
0
100
AcDbBlockReference
  2
*U54
 10
0.0
 20
0.0
 30
0.0
  0
POINT
  5
1D92
330
2913
100
AcDbEntity
  8
DEFPOINTS
 62
     0
100
AcDbPoint
 10
134.5
 20
-300.0
 30
0.0
  0
POINT
  5
1D93
330
2913
100
AcDbEntity
  8
DEFPOINTS
 62
     0
100
AcDbPoint
 10
157.5
 20
0.0
 30
0.0
  0
POINT
  5
1D94
330
2913
100
AcDbEntity
  8
DEFPOINTS
 62
     0
100
AcDbPoint
 10
284.6432844803785
 20
-0.000000000000036
 30
0.0
  0
ENDBLK
  5
1749
330
2913
100
AcDbEntity
  8
0
100
AcDbBlockEnd
  0
BLOCK
  5
2916
330
2915
100
AcDbEntity
  8
0
100
AcDbBlockBegin
  2
*U54
 70
     1
 10
0.0
 20
0.0
 30
0.0
  3
*U54
  1

  0
TEXT
  5
1F35
330
2915
100
AcDbEntity
  8
SIZE
 62
     0
100
AcDbText
 10
274.6432844803785
 20
-224.0571428571429
 30
0.0
 40
64.0
  1
300
 50
90.0
 41
0.9
100
AcDbText
  0
ENDBLK
  5
1F37
330
2915
100
AcDbEntity
  8
0
100
AcDbBlockEnd
  0
BLOCK
  5
2918
330
2917
100
AcDbEntity
  8
0
100
AcDbBlockBegin
  2
*D55
 70
     1
 10
0.0
 20
0.0
 30
0.0
  3
*D55
  1

  0
LINE
  5
1D95
330
2917
100
AcDbEntity
  8
SIZE
 62
     0
100
AcDbLine
 10
-140.0
 20
32.46448280219375
 30
0.0
 11
-140.0
 21
136.4516878685508
 31
0.0
  0
LINE
  5
1D96
330
2917
100
AcDbEntity
  8
SIZE
 62
     0
100
AcDbLine
 10
140.0
 20
32.46448280219375
 30
0.0
 11
140.0
 21
136.4516878685508
 31
0.0
  0
LINE
  5
1D97
330
2917
100
AcDbEntity
  8
SIZE
 62
     0
100
AcDbLine
 10
-128.0
 20
116.4516878685508
 30
0.0
 11
128.0
 21
116.4516878685508
 31
0.0
  0
INSERT
  5
1D98
330
2917
100
AcDbEntity
  8
SIZE
 62
     0
100
AcDbBlockReference
  2
_DOTBLANK
 10
-140.0
 20
116.4516878685508
 30
0.0
 41
12.0
 42
12.0
 43
12.0
 50
180.0
  0
INSERT
  5
1D99
330
2917
100
AcDbEntity
  8
SIZE
 62
     0
100
AcDbBlockReference
  2
_DOTBLANK
 10
140.0
 20
116.4516878685508
 30
0.0
 41
12.0
 42
12.0
 43
12.0
  0
INSERT
  5
1D9A
330
2917
100
AcDbEntity
  8
0
100
AcDbBlockReference
  2
*U56
 10
0.0
 20
0.0
 30
0.0
  0
POINT
  5
1D9B
330
2917
100
AcDbEntity
  8
DEFPOINTS
 62
     0
100
AcDbPoint
 10
-140.0
 20
12.46448280219374
 30
0.0
  0
POINT
  5
1D9C
330
2917
100
AcDbEntity
  8
DEFPOINTS
 62
     0
100
AcDbPoint
 10
140.0
 20
12.46448280219374
 30
0.0
  0
POINT
  5
1D9D
330
2917
100
AcDbEntity
  8
DEFPOINTS
 62
     0
100
AcDbPoint
 10
140.0
 20
116.4516878685508
 30
0.0
  0
ENDBLK
  5
1755
330
2917
100
AcDbEntity
  8
0
100
AcDbBlockEnd
  0
BLOCK
  5
291A
330
2919
100
AcDbEntity
  8
0
100
AcDbBlockBegin
  2
*U56
 70
     1
 10
0.0
 20
0.0
 30
0.0
  3
*U56
  1

  0
TEXT
  5
1F39
330
2919
100
AcDbEntity
  8
SIZE
 62
     0
100
AcDbText
 10
-74.05714285714283
 20
126.4516878685508
 30
0.0
 40
64.0
  1
280
 41
0.9
100
AcDbText
  0
ENDBLK
  5
1F3B
330
2919
100
AcDbEntity
  8
0
100
AcDbBlockEnd
  0
BLOCK
  5
291C
330
291B
100
AcDbEntity
  8
0
100
AcDbBlockBegin
  2
*D57
 70
     1
 10
0.0
 20
0.0
 30
0.0
  3
*D57
  1

  0
LINE
  5
1D9E
330
291B
100
AcDbEntity
  8
SIZE
 62
     0
100
AcDbLine
 10
-157.5
 20
20.0
 30
0.0
 11
-157.5
 21
245.5794621189598
 31
0.0
  0
LINE
  5
1D9F
330
291B
100
AcDbEntity
  8
SIZE
 62
     0
100
AcDbLine
 10
157.5
 20
20.0
 30
0.0
 11
157.5
 21
245.5794621189598
 31
0.0
  0
LINE
  5
1DA0
330
291B
100
AcDbEntity
  8
SIZE
 62
     0
100
AcDbLine
 10
-145.5
 20
225.5794621189598
 30
0.0
 11
145.5
 21
225.5794621189598
 31
0.0
  0
INSERT
  5
1DA1
330
291B
100
AcDbEntity
  8
SIZE
 62
     0
100
AcDbBlockReference
  2
_DOTBLANK
 10
-157.5
 20
225.5794621189598
 30
0.0
 41
12.0
 42
12.0
 43
12.0
 50
180.0
  0
INSERT
  5
1DA2
330
291B
100
AcDbEntity
  8
SIZE
 62
     0
100
AcDbBlockReference
  2
_DOTBLANK
 10
157.5
 20
225.5794621189598
 30
0.0
 41
12.0
 42
12.0
 43
12.0
  0
INSERT
  5
1DA3
330
291B
100
AcDbEntity
  8
0
100
AcDbBlockReference
  2
*U58
 10
0.0
 20
0.0
 30
0.0
  0
POINT
  5
1DA4
330
291B
100
AcDbEntity
  8
DEFPOINTS
 62
     0
100
AcDbPoint
 10
-157.5
 20
0.0
 30
0.0
  0
POINT
  5
1DA5
330
291B
100
AcDbEntity
  8
DEFPOINTS
 62
     0
100
AcDbPoint
 10
157.5
 20
0.0
 30
0.0
  0
POINT
  5
1DA6
330
291B
100
AcDbEntity
  8
DEFPOINTS
 62
     0
100
AcDbPoint
 10
157.5
 20
225.5794621189598
 30
0.0
  0
ENDBLK
  5
1761
330
291B
100
AcDbEntity
  8
0
100
AcDbBlockEnd
  0
BLOCK
  5
291E
330
291D
100
AcDbEntity
  8
0
100
AcDbBlockBegin
  2
*U58
 70
     1
 10
0.0
 20
0.0
 30
0.0
  3
*U58
  1

  0
TEXT
  5
1F3D
330
291D
100
AcDbEntity
  8
SIZE
 62
     0
100
AcDbText
 10
-68.57142857142857
 20
235.5794621189599
 30
0.0
 40
64.0
  1
315
 41
0.9
100
AcDbText
  0
ENDBLK
  5
1F3F
330
291D
100
AcDbEntity
  8
0
100
AcDbBlockEnd
  0
BLOCK
  5
2920
330
291F
100
AcDbEntity
  8
0
100
AcDbBlockBegin
  2
*D59
 70
     1
 10
0.0
 20
0.0
 30
0.0
  3
*D59
  1

  0
LINE
  5
1DA7
330
291F
100
AcDbEntity
  8
SIZE
 62
     0
100
AcDbLine
 10
-177.5
 20
0.0000000000000057
 30
0.0
 11
-314.0264221186908
 21
0.0000000000000443
 31
0.0
  0
LINE
  5
1DA8
330
291F
100
AcDbEntity
  8
SIZE
 62
     0
100
AcDbLine
 10
-177.5
 20
-7.999999999999995
 30
0.0
 11
-314.0264221186908
 21
-7.999999999999958
 31
0.0
  0
LINE
  5
1DA9
330
291F
100
AcDbEntity
  8
SIZE
 62
     0
100
AcDbLine
 10
-294.0264221186908
 20
12.00000000000003
 30
0.0
 11
-294.0264221186908
 21
24.00000000000004
 31
0.0
  0
LINE
  5
1DAA
330
291F
100
AcDbEntity
  8
SIZE
 62
     0
100
AcDbLine
 10
-294.0264221186908
 20
-19.99999999999996
 30
0.0
 11
-294.0264221186908
 21
-90.39999999999997
 31
0.0
  0
INSERT
  5
1DAB
330
291F
100
AcDbEntity
  8
SIZE
 62
     0
100
AcDbBlockReference
  2
_DOTBLANK
 10
-294.0264221186908
 20
0.0000000000000387
 30
0.0
 41
12.0
 42
12.0
 43
12.0
 50
270.0
  0
INSERT
  5
1DAC
330
291F
100
AcDbEntity
  8
SIZE
 62
     0
100
AcDbBlockReference
  2
_DOTBLANK
 10
-294.0264221186908
 20
-7.999999999999961
 30
0.0
 41
12.0
 42
12.0
 43
12.0
 50
90.0
  0
INSERT
  5
1DAD
330
291F
100
AcDbEntity
  8
0
100
AcDbBlockReference
  2
*U60
 10
0.0
 20
0.0
 30
0.0
  0
POINT
  5
1DAE
330
291F
100
AcDbEntity
  8
DEFPOINTS
 62
     0
100
AcDbPoint
 10
-157.5
 20
0.0
 30
0.0
  0
POINT
  5
1DAF
330
291F
100
AcDbEntity
  8
DEFPOINTS
 62
     0
100
AcDbPoint
 10
-157.5
 20
-8.000000000000003
 30
0.0
  0
POINT
  5
1DB0
330
291F
100
AcDbEntity
  8
DEFPOINTS
 62
     0
100
AcDbPoint
 10
-294.0264221186908
 20
-7.999999999999961
 30
0.0
  0
ENDBLK
  5
176D
330
291F
100
AcDbEntity
  8
0
100
AcDbBlockEnd
  0
BLOCK
  5
2922
330
2921
100
AcDbEntity
  8
0
100
AcDbBlockBegin
  2
*U60
 70
     1
 10
0.0
 20
0.0
 30
0.0
  3
*U60
  1

  0
TEXT
  5
1F41
330
2921
100
AcDbEntity
  8
SIZE
 62
     0
100
AcDbText
 10
-304.0264221186908
 20
-80.4
 30
0.0
 40
64.0
  1
8
 50
90.0
 41
0.9
100
AcDbText
  0
ENDBLK
  5
1F43
330
2921
100
AcDbEntity
  8
0
100
AcDbBlockEnd
  0
BLOCK
  5
2924
330
2923
100
AcDbEntity
  8
0
100
AcDbBlockBegin
  2
*D61
 70
     1
 10
0.0
 20
0.0
 30
0.0
  3
*D61
  1

  0
LINE
  5
1DB1
330
2923
100
AcDbEntity
  8
SIZE
 62
     0
100
AcDbLine
 10
154.5
 20
-300.0
 30
0.0
 11
304.6432844803785
 21
-300.0
 31
0.0
  0
LINE
  5
1DB2
330
2923
100
AcDbEntity
  8
SIZE
 62
     0
100
AcDbLine
 10
143.5
 20
-312.0
 30
0.0
 11
304.6432844803785
 21
-312.0
 31
0.0
  0
LINE
  5
1DB3
330
2923
100
AcDbEntity
  8
SIZE
 62
     0
100
AcDbLine
 10
284.6432844803785
 20
-288.0
 30
0.0
 11
284.6432844803785
 21
-276.0
 31
0.0
  0
LINE
  5
1DB4
330
2923
100
AcDbEntity
  8
SIZE
 62
     0
100
AcDbLine
 10
284.6432844803785
 20
-324.0000000000001
 30
0.0
 11
284.6432844803784
 21
-438.2857142857143
 31
0.0
  0
INSERT
  5
1DB5
330
2923
100
AcDbEntity
  8
SIZE
 62
     0
100
AcDbBlockReference
  2
_DOTBLANK
 10
284.6432844803785
 20
-300.0
 30
0.0
 41
12.0
 42
12.0
 43
12.0
 50
270.0
  0
INSERT
  5
1DB6
330
2923
100
AcDbEntity
  8
SIZE
 62
     0
100
AcDbBlockReference
  2
_DOTBLANK
 10
284.6432844803785
 20
-312.0
 30
0.0
 41
12.0
 42
12.0
 43
12.0
 50
90.0
  0
INSERT
  5
1DB7
330
2923
100
AcDbEntity
  8
0
100
AcDbBlockReference
  2
*U62
 10
0.0
 20
0.0
 30
0.0
  0
POINT
  5
1DB8
330
2923
100
AcDbEntity
  8
DEFPOINTS
 62
     0
100
AcDbPoint
 10
134.5
 20
-300.0
 30
0.0
  0
POINT
  5
1DB9
330
2923
100
AcDbEntity
  8
DEFPOINTS
 62
     0
100
AcDbPoint
 10
123.5
 20
-312.0
 30
0.0
  0
POINT
  5
1DBA
330
2923
100
AcDbEntity
  8
DEFPOINTS
 62
     0
100
AcDbPoint
 10
284.6432844803785
 20
-312.0
 30
0.0
  0
ENDBLK
  5
177B
330
2923
100
AcDbEntity
  8
0
100
AcDbBlockEnd
  0
BLOCK
  5
2926
330
2925
100
AcDbEntity
  8
0
100
AcDbBlockBegin
  2
*U62
 70
     1
 10
0.0
 20
0.0
 30
0.0
  3
*U62
  1

  0
TEXT
  5
1F45
330
2925
100
AcDbEntity
  8
SIZE
 62
     0
100
AcDbText
 10
274.6432844803785
 20
-428.2857142857142
 30
0.0
 40
64.0
  1
12
 50
90.0
 41
0.9
100
AcDbText
  0
ENDBLK
  5
1F47
330
2925
100
AcDbEntity
  8
0
100
AcDbBlockEnd
  0
BLOCK
  5
2928
330
2927
100
AcDbEntity
  8
0
100
AcDbBlockBegin
  2
*U63
 70
     1
 10
0.0
 20
0.0
 30
0.0
  3
*U63
  1

  0
ENDBLK
  5
1D57
330
2927
100
AcDbEntity
  8
0
100
AcDbBlockEnd
  0
BLOCK
  5
292A
330
2929
100
AcDbEntity
  8
0
100
AcDbBlockBegin
  2
*U64
 70
     1
 10
0.0
 20
0.0
 30
0.0
  3
*U64
  1

  0
INSERT
  5
2087
330
2929
100
AcDbEntity
  8
NOTE
100
AcDbBlockReference
  2
_OPEN30
 10
-190.0
 20
0.0
 30
0.0
 41
12.0
 42
12.0
 43
12.0
 50
312.6090116116894
  0
POLYLINE
  5
2088
330
2929
100
AcDbEntity
  8
NOTE
100
AcDb2dPolyline
 66
     1
 10
0.0
 20
0.0
 30
0.0
  0
VERTEX
  5
276A
330
2088
100
AcDbEntity
  8
NOTE
100
AcDbVertex
100
AcDb2dVertex
 10
-198.1239008361895
 20
8.831887408915475
 30
0.0
  0
VERTEX
  5
276B
330
2088
100
AcDbEntity
  8
NOTE
100
AcDbVertex
100
AcDb2dVertex
 10
-277.8693999922543
 20
95.52709505801338
 30
0.0
  0
VERTEX
  5
276C
330
2088
100
AcDbEntity
  8
NOTE
100
AcDbVertex
100
AcDb2dVertex
 10
-823.709399992254
 20
95.52709505801338
 30
0.0
  0
SEQEND
  5
276D
330
2088
100
AcDbEntity
  8
NOTE
  0
ENDBLK
  5
2089
330
2929
100
AcDbEntity
  8
0
100
AcDbBlockEnd
  0
BLOCK
  5
292C
330
292B
100
AcDbEntity
  8
0
100
AcDbBlockBegin
  2
*U65
 70
     1
 10
0.0
 20
0.0
 30
0.0
  3
*U65
  1

  0
TEXT
  5
208C
330
292B
100
AcDbEntity
  8
NOTE
100
AcDbText
 10
-823.709399992254
 20
113.5270950580134
 30
0.0
 40
64.0
  1
4×φ10取付穴
 41
0.9
100
AcDbText
  0
ENDBLK
  5
208D
330
292B
100
AcDbEntity
  8
0
100
AcDbBlockEnd
  0
BLOCK
  5
292E
330
292D
100
AcDbEntity
  8
0
100
AcDbBlockBegin
  2
*U66
 70
     1
 10
0.0
 20
0.0
 30
0.0
  3
*U66
  1

  0
INSERT
  5
216B
330
292D
100
AcDbEntity
  8
NOTE
100
AcDbBlockReference
  2
_OPEN30
 10
190.0
 20
189.9999999999991
 30
0.0
 41
12.0
 42
12.0
 43
12.0
 50
230.7091310502217
  0
POLYLINE
  5
216C
330
292D
100
AcDbEntity
  8
NOTE
100
AcDb2dPolyline
 66
     1
 10
0.0
 20
0.0
 30
0.0
  0
VERTEX
  5
2777
330
216C
100
AcDbEntity
  8
NOTE
100
AcDbVertex
100
AcDb2dVertex
 10
197.599090480922
 20
199.2872936780711
 30
0.0
  0
VERTEX
  5
2778
330
216C
100
AcDbEntity
  8
NOTE
100
AcDbVertex
100
AcDb2dVertex
 10
253.4345623698609
 20
267.5270950580125
 30
0.0
  0
VERTEX
  5
2779
330
216C
100
AcDbEntity
  8
NOTE
100
AcDbVertex
100
AcDb2dVertex
 10
799.2745623698612
 20
267.5270950580125
 30
0.0
  0
SEQEND
  5
277A
330
216C
100
AcDbEntity
  8
NOTE
  0
ENDBLK
  5
216D
330
292D
100
AcDbEntity
  8
0
100
AcDbBlockEnd
  0
BLOCK
  5
2930
330
292F
100
AcDbEntity
  8
0
100
AcDbBlockBegin
  2
*U67
 70
     1
 10
0.0
 20
0.0
 30
0.0
  3
*U67
  1

  0
TEXT
  5
2170
330
292F
100
AcDbEntity
  8
NOTE
100
AcDbText
 10
315.4345623698609
 20
285.5270950580125
 30
0.0
 40
64.0
  1
4×φ10取付穴
 41
0.9
100
AcDbText
  0
ENDBLK
  5
2171
330
292F
100
AcDbEntity
  8
0
100
AcDbBlockEnd
  0
BLOCK
  5
2932
330
2931
100
AcDbEntity
  8
0
100
AcDbBlockBegin
  2
*U68
 70
     1
 10
0.0
 20
0.0
 30
0.0
  3
*U68
  1

  0
INSERT
  5
224B
330
2931
100
AcDbEntity
  8
NOTE
100
AcDbBlockReference
  2
_OPEN30
 10
190.0
 20
190.0
 30
0.0
 41
12.0
 42
12.0
 43
12.0
 50
232.3258907693334
  0
POLYLINE
  5
224C
330
2931
100
AcDbEntity
  8
NOTE
100
AcDb2dPolyline
 66
     1
 10
0.0
 20
0.0
 30
0.0
  0
VERTEX
  5
277B
330
224C
100
AcDbEntity
  8
NOTE
100
AcDbVertex
100
AcDb2dVertex
 10
197.3340332839448
 20
199.4979974620964
 30
0.0
  0
VERTEX
  5
277C
330
224C
100
AcDbEntity
  8
NOTE
100
AcDbVertex
100
AcDb2dVertex
 10
263.7628007872081
 20
285.5270950580125
 30
0.0
  0
VERTEX
  5
277D
330
224C
100
AcDbEntity
  8
NOTE
100
AcDbVertex
100
AcDb2dVertex
 10
809.6028007872082
 20
285.5270950580125
 30
0.0
  0
SEQEND
  5
277E
330
224C
100
AcDbEntity
  8
NOTE
  0
ENDBLK
  5
224D
330
2931
100
AcDbEntity
  8
0
100
AcDbBlockEnd
  0
BLOCK
  5
2934
330
2933
100
AcDbEntity
  8
0
100
AcDbBlockBegin
  2
*U69
 70
     1
 10
0.0
 20
0.0
 30
0.0
  3
*U69
  1

  0
TEXT
  5
2250
330
2933
100
AcDbEntity
  8
NOTE
100
AcDbText
 10
325.7628007872083
 20
303.5270950580125
 30
0.0
 40
64.0
  1
4×φ10取付穴
 41
0.9
100
AcDbText
  0
ENDBLK
  5
2251
330
2933
100
AcDbEntity
  8
0
100
AcDbBlockEnd
  0
BLOCK
  5
2936
330
2935
100
AcDbEntity
  8
0
100
AcDbBlockBegin
  2
*U70
 70
     1
 10
0.0
 20
0.0
 30
0.0
  3
*U70
  1

  0
INSERT
  5
2347
330
2935
100
AcDbEntity
  8
NOTE
100
AcDbBlockReference
  2
_OPEN30
 10
0.0
 20
190.0
 30
0.0
 41
12.0
 42
12.0
 43
12.0
 50
312.6090116116895
  0
POLYLINE
  5
2348
330
2935
100
AcDbEntity
  8
NOTE
100
AcDb2dPolyline
 66
     1
 10
0.0
 20
0.0
 30
0.0
  0
VERTEX
  5
2793
330
2348
100
AcDbEntity
  8
NOTE
100
AcDbVertex
100
AcDb2dVertex
 10
-8.123900836189513
 20
198.8318874089154
 30
0.0
  0
VERTEX
  5
2794
330
2348
100
AcDbEntity
  8
NOTE
100
AcDbVertex
100
AcDb2dVertex
 10
-87.86939999225436
 20
285.527095058013
 30
0.0
  0
VERTEX
  5
2795
330
2348
100
AcDbEntity
  8
NOTE
100
AcDbVertex
100
AcDb2dVertex
 10
-633.7093999922545
 20
285.527095058013
 30
0.0
  0
SEQEND
  5
2796
330
2348
100
AcDbEntity
  8
NOTE
  0
ENDBLK
  5
2349
330
2935
100
AcDbEntity
  8
0
100
AcDbBlockEnd
  0
BLOCK
  5
2938
330
2937
100
AcDbEntity
  8
0
100
AcDbBlockBegin
  2
*U71
 70
     1
 10
0.0
 20
0.0
 30
0.0
  3
*U71
  1

  0
TEXT
  5
234C
330
2937
100
AcDbEntity
  8
NOTE
100
AcDbText
 10
-633.7093999922545
 20
303.5270950580129
 30
0.0
 40
64.0
  1
4×φ10取付穴
 41
0.9
100
AcDbText
  0
ENDBLK
  5
234D
330
2937
100
AcDbEntity
  8
0
100
AcDbBlockEnd
  0
BLOCK
  5
293A
330
2939
100
AcDbEntity
  8
0
100
AcDbBlockBegin
  2
*U72
 70
     1
 10
0.0
 20
0.0
 30
0.0
  3
*U72
  1

  0
INSERT
  5
249B
330
2939
100
AcDbEntity
  8
NOTE
100
AcDbBlockReference
  2
_OPEN30
 10
0.0
 20
190.0
 30
0.0
 41
12.0
 42
12.0
 43
12.0
 50
227.3909883883105
  0
POLYLINE
  5
249C
330
2939
100
AcDbEntity
  8
NOTE
100
AcDb2dPolyline
 66
     1
 10
0.0
 20
0.0
 30
0.0
  0
VERTEX
  5
27AA
330
249C
100
AcDbEntity
  8
NOTE
100
AcDbVertex
100
AcDb2dVertex
 10
8.123900836189513
 20
198.8318874089154
 30
0.0
  0
VERTEX
  5
27AB
330
249C
100
AcDbEntity
  8
NOTE
100
AcDbVertex
100
AcDb2dVertex
 10
87.86939999225436
 20
285.527095058013
 30
0.0
  0
VERTEX
  5
27AC
330
249C
100
AcDbEntity
  8
NOTE
100
AcDbVertex
100
AcDb2dVertex
 10
633.7093999922545
 20
285.527095058013
 30
0.0
  0
SEQEND
  5
27AD
330
249C
100
AcDbEntity
  8
NOTE
  0
ENDBLK
  5
249D
330
2939
100
AcDbEntity
  8
0
100
AcDbBlockEnd
  0
BLOCK
  5
293C
330
293B
100
AcDbEntity
  8
0
100
AcDbBlockBegin
  2
*U73
 70
     1
 10
0.0
 20
0.0
 30
0.0
  3
*U73
  1

  0
TEXT
  5
24A0
330
293B
100
AcDbEntity
  8
NOTE
100
AcDbText
 10
149.8693999922543
 20
303.5270950580129
 30
0.0
 40
64.0
  1
4×φ10取付穴
 41
0.9
100
AcDbText
  0
ENDBLK
  5
24A1
330
293B
100
AcDbEntity
  8
0
100
AcDbBlockEnd
  0
BLOCK
  5
293E
330
293D
100
AcDbEntity
  8
0
100
AcDbBlockBegin
  2
*U74
 70
     1
 10
0.0
 20
0.0
 30
0.0
  3
*U74
  1

  0
INSERT
  5
2606
330
293D
100
AcDbEntity
  8
NOTE
100
AcDbBlockReference
  2
_OPEN30
 10
-190.0
 20
0.0
 30
0.0
 41
12.0
 42
12.0
 43
12.0
 50
312.6090116116894
  0
POLYLINE
  5
2607
330
293D
100
AcDbEntity
  8
NOTE
100
AcDb2dPolyline
 66
     1
 10
0.0
 20
0.0
 30
0.0
  0
VERTEX
  5
27C1
330
2607
100
AcDbEntity
  8
NOTE
100
AcDbVertex
100
AcDb2dVertex
 10
-198.1239008361895
 20
8.831887408915475
 30
0.0
  0
VERTEX
  5
27C2
330
2607
100
AcDbEntity
  8
NOTE
100
AcDbVertex
100
AcDb2dVertex
 10
-277.8693999922543
 20
95.52709505801338
 30
0.0
  0
VERTEX
  5
27C3
330
2607
100
AcDbEntity
  8
NOTE
100
AcDbVertex
100
AcDb2dVertex
 10
-823.709399992254
 20
95.52709505801338
 30
0.0
  0
SEQEND
  5
27C4
330
2607
100
AcDbEntity
  8
NOTE
  0
ENDBLK
  5
2608
330
293D
100
AcDbEntity
  8
0
100
AcDbBlockEnd
  0
BLOCK
  5
2940
330
293F
100
AcDbEntity
  8
0
100
AcDbBlockBegin
  2
*U75
 70
     1
 10
0.0
 20
0.0
 30
0.0
  3
*U75
  1

  0
TEXT
  5
260B
330
293F
100
AcDbEntity
  8
NOTE
100
AcDbText
 10
-823.709399992254
 20
113.5270950580134
 30
0.0
 40
64.0
  1
4×φ10取付穴
 41
0.9
100
AcDbText
  0
ENDBLK
  5
260C
330
293F
100
AcDbEntity
  8
0
100
AcDbBlockEnd
  0
BLOCK
  5
2942
330
2941
100
AcDbEntity
  8
0
100
AcDbBlockBegin
  2
*X76
 70
     1
 10
0.0
 20
0.0
 30
0.0
  3
*X76
  1

  0
LINE
  5
260F
330
2941
100
AcDbEntity
  8
0
 62
     0
100
AcDbLine
 10
-157.9000000000104
 20
-364.2349093942657
 30
0.0
 11
-153.3533073302624
 21
-366.4000000000033
 31
0.0
  0
LINE
  5
2610
330
2941
100
AcDbEntity
  8
0
 62
     0
100
AcDbLine
 10
-157.9000000000069
 20
-354.2349576501319
 30
0.0
 11
-132.3533975932714
 21
-366.4000000000024
 31
0.0
  0
LINE
  5
2611
330
2941
100
AcDbEntity
  8
0
 62
     0
100
AcDbLine
 10
-157.9000000000104
 20
-344.2350059059963
 30
0.0
 11
-111.3534878562804
 21
-366.4000000000024
 31
0.0
  0
LINE
  5
2612
330
2941
100
AcDbEntity
  8
0
 62
     0
100
AcDbLine
 10
-157.9000000000104
 20
-334.2350541618625
 30
0.0
 11
-90.35357811928951
 21
-366.4000000000042
 31
0.0
  0
LINE
  5
2613
330
2941
100
AcDbEntity
  8
0
 62
     0
100
AcDbLine
 10
-157.9000000000086
 20
-324.2351024177287
 30
0.0
 11
-69.35366838229858
 21
-366.4000000000042
 31
0.0
  0
LINE
  5
2614
330
2941
100
AcDbEntity
  8
0
 62
     0
100
AcDbLine
 10
-157.9000000000123
 20
-314.235150673594
 30
0.0
 11
-48.35375864531124
 21
-366.4000000000024
 31
0.0
  0
LINE
  5
2615
330
2941
100
AcDbEntity
  8
0
 62
     0
100
AcDbLine
 10
-157.9000000000069
 20
-304.2351989294593
 30
0.0
 11
-27.35384890831847
 21
-366.4000000000024
 31
0.0
  0
LINE
  5
2616
330
2941
100
AcDbEntity
  8
0
 62
     0
100
AcDbLine
 10
-157.9000000000104
 20
-294.2352471853246
 30
0.0
 11
-6.353939171327509
 21
-366.4000000000024
 31
0.0
  0
LINE
  5
2617
330
2941
100
AcDbEntity
  8
0
 62
     0
100
AcDbLine
 10
-157.9000000000104
 20
-284.2352954411899
 30
0.0
 11
14.64597056566162
 21
-366.4000000000024
 31
0.0
  0
LINE
  5
2618
330
2941
100
AcDbEntity
  8
0
 62
     0
100
AcDbLine
 10
-157.9000000000086
 20
-274.235343697057
 30
0.0
 11
35.64588030265622
 21
-366.4000000000042
 31
0.0
  0
LINE
  5
2619
330
2941
100
AcDbEntity
  8
0
 62
     0
100
AcDbLine
 10
-157.9000000000086
 20
-264.2353919529232
 30
0.0
 11
56.64579003964536
 21
-366.4000000000042
 31
0.0
  0
LINE
  5
261A
330
2941
100
AcDbEntity
  8
0
 62
     0
100
AcDbLine
 10
-157.9000000000086
 20
-254.2354402087876
 30
0.0
 11
77.64569977663814
 21
-366.4000000000033
 31
0.0
  0
LINE
  5
261B
330
2941
100
AcDbEntity
  8
0
 62
     0
100
AcDbLine
 10
-157.9000000000104
 20
-244.235488464652
 30
0.0
 11
98.64560951362912
 21
-366.4000000000033
 31
0.0
  0
LINE
  5
261C
330
2941
100
AcDbEntity
  8
0
 62
     0
100
AcDbLine
 10
-57.90000000000509
 20
-281.8545592276487
 30
0.0
 11
-48.3545693442793
 21
-286.4000000000014
 31
0.0
  0
LINE
  5
261D
330
2941
100
AcDbEntity
  8
0
 62
     0
100
AcDbLine
 10
-48.3545693442793
 20
-286.4000000000014
 30
0.0
 11
119.6455192506164
 21
-366.4000000000024
 31
0.0
  0
LINE
  5
261E
330
2941
100
AcDbEntity
  8
0
 62
     0
100
AcDbLine
 10
-157.9000000000086
 20
-234.2355367205182
 30
0.0
 11
-57.90000000000509
 21
-281.8545592276487
 31
0.0
  0
LINE
  5
261F
330
2941
100
AcDbEntity
  8
0
 62
     0
100
AcDbLine
 10
-57.90000000000691
 20
-271.8546074835157
 30
0.0
 11
-27.35465960728834
 21
-286.4000000000032
 31
0.0
  0
LINE
  5
2620
330
2941
100
AcDbEntity
  8
0
 62
     0
100
AcDbLine
 10
-27.35465960728834
 20
-286.4000000000032
 30
0.0
 11
140.6454289876073
 21
-366.4000000000033
 31
0.0
  0
LINE
  5
2621
330
2941
100
AcDbEntity
  8
0
 62
     0
100
AcDbLine
 10
-157.9000000000104
 20
-224.2355849763844
 30
0.0
 11
-57.90000000000691
 21
-271.8546074835157
 31
0.0
  0
LINE
  5
2622
330
2941
100
AcDbEntity
  8
0
 62
     0
100
AcDbLine
 10
-57.90000000000509
 20
-261.8546557393811
 30
0.0
 11
-6.35474987029556
 21
-286.4000000000032
 31
0.0
  0
LINE
  5
2623
330
2941
100
AcDbEntity
  8
0
 62
     0
100
AcDbLine
 10
-6.35474987029556
 20
-286.4000000000032
 30
0.0
 11
157.8999999999942
 21
-364.6165063097651
 31
0.0
  0
LINE
  5
2624
330
2941
100
AcDbEntity
  8
0
 62
     0
100
AcDbLine
 10
-157.9000000000086
 20
-214.2356332322506
 30
0.0
 11
-57.90000000000509
 21
-261.8546557393811
 31
0.0
  0
LINE
  5
2625
330
2941
100
AcDbEntity
  8
0
 62
     0
100
AcDbLine
 10
-57.90000000000691
 20
-251.8547039952464
 30
0.0
 11
14.64515986669357
 21
-286.4000000000032
 31
0.0
  0
LINE
  5
2626
330
2941
100
AcDbEntity
  8
0
 62
     0
100
AcDbLine
 10
14.64515986669357
 20
-286.4000000000032
 30
0.0
 11
157.8999999999905
 21
-354.6165545656295
 31
0.0
  0
LINE
  5
2627
330
2941
100
AcDbEntity
  8
0
 62
     0
100
AcDbLine
 10
-157.9000000000104
 20
-204.235681488115
 30
0.0
 11
-57.90000000000691
 21
-251.8547039952464
 31
0.0
  0
LINE
  5
2628
330
2941
100
AcDbEntity
  8
0
 62
     0
100
AcDbLine
 10
-57.90000000000509
 20
-241.8547522511126
 30
0.0
 11
35.64506960368635
 21
-286.4000000000032
 31
0.0
  0
LINE
  5
2629
330
2941
100
AcDbEntity
  8
0
 62
     0
100
AcDbLine
 10
35.64506960368635
 20
-286.4000000000032
 30
0.0
 11
157.8999999999923
 21
-344.6166028214957
 31
0.0
  0
LINE
  5
262A
330
2941
100
AcDbEntity
  8
0
 62
     0
100
AcDbLine
 10
-157.9000000000086
 20
-194.2357297439811
 30
0.0
 11
-57.90000000000509
 21
-241.8547522511126
 31
0.0
  0
LINE
  5
262B
330
2941
100
AcDbEntity
  8
0
 62
     0
100
AcDbLine
 10
-57.90000000000509
 20
-231.854800506977
 30
0.0
 11
56.64497934067368
 21
-286.4000000000014
 31
0.0
  0
LINE
  5
262C
330
2941
100
AcDbEntity
  8
0
 62
     0
100
AcDbLine
 10
56.64497934067368
 20
-286.4000000000014
 30
0.0
 11
157.8999999999923
 21
-334.6166510773609
 31
0.0
  0
LINE
  5
262D
330
2941
100
AcDbEntity
  8
0
 62
     0
100
AcDbLine
 10
-157.9000000000086
 20
-184.2357779998455
 30
0.0
 11
-57.90000000000509
 21
-231.854800506977
 31
0.0
  0
LINE
  5
262E
330
2941
100
AcDbEntity
  8
0
 62
     0
100
AcDbLine
 10
-57.90000000000509
 20
-221.8548487628432
 30
0.0
 11
77.64488907766095
 21
-286.3999999999996
 31
0.0
  0
LINE
  5
262F
330
2941
100
AcDbEntity
  8
0
 62
     0
100
AcDbLine
 10
77.64488907766095
 20
-286.3999999999996
 30
0.0
 11
157.8999999999923
 21
-324.6166993332262
 31
0.0
  0
LINE
  5
2630
330
2941
100
AcDbEntity
  8
0
 62
     0
100
AcDbLine
 10
-157.9000000000086
 20
-174.2358262557118
 30
0.0
 11
-57.90000000000873
 21
-221.8548487628414
 31
0.0
  0
LINE
  5
2631
330
2941
100
AcDbEntity
  8
0
 62
     0
100
AcDbLine
 10
-57.90000000000691
 20
-211.8548970187094
 30
0.0
 11
98.64479881465195
 21
-286.4000000000014
 31
0.0
  0
LINE
  5
2632
330
2941
100
AcDbEntity
  8
0
 62
     0
100
AcDbLine
 10
98.64479881465195
 20
-286.4000000000014
 30
0.0
 11
157.8999999999923
 21
-314.6167475890932
 31
0.0
  0
LINE
  5
2633
330
2941
100
AcDbEntity
  8
0
 62
     0
100
AcDbLine
 10
-157.9000000000104
 20
-164.235874511578
 30
0.0
 11
-57.90000000000691
 21
-211.8548970187094
 31
0.0
  0
LINE
  5
2634
330
2941
100
AcDbEntity
  8
0
 62
     0
100
AcDbLine
 10
-57.90000000000691
 20
-201.8549452745737
 30
0.0
 11
119.6447085516447
 21
-286.4000000000014
 31
0.0
  0
LINE
  5
2635
330
2941
100
AcDbEntity
  8
0
 62
     0
100
AcDbLine
 10
119.6447085516447
 20
-286.4000000000014
 30
0.0
 11
157.8999999999942
 21
-304.6167958449587
 31
0.0
  0
LINE
  5
2636
330
2941
100
AcDbEntity
  8
0
 62
     0
100
AcDbLine
 10
-157.9000000000104
 20
-154.2359227674424
 30
0.0
 11
-57.90000000000691
 21
-201.8549452745737
 31
0.0
  0
LINE
  5
2637
330
2941
100
AcDbEntity
  8
0
 62
     0
100
AcDbLine
 10
-57.90000000000691
 20
-191.8549935304399
 30
0.0
 11
140.6446182886338
 21
-286.4000000000014
 31
0.0
  0
LINE
  5
2638
330
2941
100
AcDbEntity
  8
0
 62
     0
100
AcDbLine
 10
140.6446182886338
 20
-286.4000000000014
 30
0.0
 11
157.8999999999923
 21
-294.616844100824
 31
0.0
  0
LINE
  5
2639
330
2941
100
AcDbEntity
  8
0
 62
     0
100
AcDbLine
 10
-157.9000000000104
 20
-144.2359710233086
 30
0.0
 11
-57.90000000000691
 21
-191.8549935304399
 31
0.0
  0
LINE
  5
263A
330
2941
100
AcDbEntity
  8
0
 62
     0
100
AcDbLine
 10
-57.90000000000509
 20
-181.8550417863043
 30
0.0
 11
157.8999999999923
 21
-284.6168923566884
 31
0.0
  0
LINE
  5
263B
330
2941
100
AcDbEntity
  8
0
 62
     0
100
AcDbLine
 10
-157.9000000000086
 20
-134.236019279173
 30
0.0
 11
-57.90000000000873
 21
-181.8550417863024
 31
0.0
  0
LINE
  5
263C
330
2941
100
AcDbEntity
  8
0
 62
     0
100
AcDbLine
 10
-57.90000000000509
 20
-171.8550900421704
 30
0.0
 11
157.8999999999923
 21
-274.6169406125546
 31
0.0
  0
LINE
  5
263D
330
2941
100
AcDbEntity
  8
0
 62
     0
100
AcDbLine
 10
-157.9000000000086
 20
-124.2360675350392
 30
0.0
 11
-57.90000000000873
 21
-171.8550900421687
 31
0.0
  0
LINE
  5
263E
330
2941
100
AcDbEntity
  8
0
 62
     0
100
AcDbLine
 10
-57.90000000000691
 20
-161.8551382980367
 30
0.0
 11
157.8999999999905
 21
-264.6169888684208
 31
0.0
  0
LINE
  5
263F
330
2941
100
AcDbEntity
  8
0
 62
     0
100
AcDbLine
 10
-157.9000000000123
 20
-114.2361157909054
 30
0.0
 11
-57.90000000001055
 21
-161.8551382980349
 31
0.0
  0
LINE
  5
2640
330
2941
100
AcDbEntity
  8
0
 62
     0
100
AcDbLine
 10
-57.90000000000327
 20
-151.855186553903
 30
0.0
 11
157.8999999999942
 21
-254.617037124287
 31
0.0
  0
LINE
  5
2641
330
2941
100
AcDbEntity
  8
0
 62
     0
100
AcDbLine
 10
-157.9000000000069
 20
-104.2361640467716
 30
0.0
 11
-57.90000000001055
 21
-151.8551865538993
 31
0.0
  0
LINE
  5
2642
330
2941
100
AcDbEntity
  8
0
 62
     0
100
AcDbLine
 10
-57.90000000000691
 20
-141.8552348097673
 30
0.0
 11
157.8999999999923
 21
-244.6170853801514
 31
0.0
  0
LINE
  5
2643
330
2941
100
AcDbEntity
  8
0
 62
     0
100
AcDbLine
 10
-157.9000000000104
 20
-94.23621230263597
 30
0.0
 11
-57.90000000000873
 21
-141.8552348097655
 31
0.0
  0
LINE
  5
2644
330
2941
100
AcDbEntity
  8
0
 62
     0
100
AcDbLine
 10
-57.90000000000691
 20
-131.8552830656317
 30
0.0
 11
157.8999999999942
 21
-234.6171336360176
 31
0.0
  0
LINE
  5
2645
330
2941
100
AcDbEntity
  8
0
 62
     0
100
AcDbLine
 10
-140.3361379105517
 20
-92.60000000000127
 30
0.0
 11
-57.90000000001055
 21
-131.8552830656308
 31
0.0
  0
LINE
  5
2646
330
2941
100
AcDbEntity
  8
0
 62
     0
100
AcDbLine
 10
-57.90000000000509
 20
-121.8553313214979
 30
0.0
 11
157.8999999999923
 21
-224.617181891882
 31
0.0
  0
LINE
  5
2647
330
2941
100
AcDbEntity
  8
0
 62
     0
100
AcDbLine
 10
-119.3362281735608
 20
-92.60000000000127
 30
0.0
 11
-57.90000000000873
 21
-121.8553313214961
 31
0.0
  0
LINE
  5
2648
330
2941
100
AcDbEntity
  8
0
 62
     0
100
AcDbLine
 10
-57.90000000000691
 20
-111.8553795773641
 30
0.0
 11
157.8999999999942
 21
-214.61723014775
 31
0.0
  0
LINE
  5
2649
330
2941
100
AcDbEntity
  8
0
 62
     0
100
AcDbLine
 10
-98.3363184365735
 20
-92.60000000000127
 30
0.0
 11
-57.90000000001055
 21
-111.8553795773632
 31
0.0
  0
LINE
  5
264A
330
2941
100
AcDbEntity
  8
0
 62
     0
100
AcDbLine
 10
-57.90000000000509
 20
-101.8554278332302
 30
0.0
 11
157.8999999999923
 21
-204.6172784036144
 31
0.0
  0
LINE
  5
264B
330
2941
100
AcDbEntity
  8
0
 62
     0
100
AcDbLine
 10
-77.33640869958254
 20
-92.60000000000127
 30
0.0
 11
-57.90000000000873
 21
-101.8554278332294
 31
0.0
  0
LINE
  5
264C
330
2941
100
AcDbEntity
  8
0
 62
     0
100
AcDbLine
 10
-56.33649896258976
 20
-92.60000000000127
 30
0.0
 11
157.8999999999923
 21
-194.6173266594787
 31
0.0
  0
LINE
  5
264D
330
2941
100
AcDbEntity
  8
0
 62
     0
100
AcDbLine
 10
-35.33658922560062
 20
-92.60000000000127
 30
0.0
 11
157.8999999999923
 21
-184.6173749153449
 31
0.0
  0
LINE
  5
264E
330
2941
100
AcDbEntity
  8
0
 62
     0
100
AcDbLine
 10
-14.33667948860784
 20
-92.60000000000127
 30
0.0
 11
157.8999999999905
 21
-174.6174231712093
 31
0.0
  0
LINE
  5
264F
330
2941
100
AcDbEntity
  8
0
 62
     0
100
AcDbLine
 10
6.663230248383115
 20
-92.60000000000127
 30
0.0
 11
157.8999999999942
 21
-164.6174714270754
 31
0.0
  0
LINE
  5
2650
330
2941
100
AcDbEntity
  8
0
 62
     0
100
AcDbLine
 10
27.66313998537226
 20
-92.60000000000307
 30
0.0
 11
157.8999999999905
 21
-154.6175196829417
 31
0.0
  0
LINE
  5
2651
330
2941
100
AcDbEntity
  8
0
 62
     0
100
AcDbLine
 10
48.66304972236504
 20
-92.60000000000307
 30
0.0
 11
157.8999999999942
 21
-144.6175679388078
 31
0.0
  0
LINE
  5
2652
330
2941
100
AcDbEntity
  8
0
 62
     0
100
AcDbLine
 10
69.66295945935235
 20
-92.60000000000127
 30
0.0
 11
157.8999999999923
 21
-134.6176161946723
 31
0.0
  0
LINE
  5
2653
330
2941
100
AcDbEntity
  8
0
 62
     0
100
AcDbLine
 10
90.66286919634329
 20
-92.60000000000127
 30
0.0
 11
157.8999999999923
 21
-124.6176644505385
 31
0.0
  0
LINE
  5
2654
330
2941
100
AcDbEntity
  8
0
 62
     0
100
AcDbLine
 10
111.6627789333361
 20
-92.60000000000037
 30
0.0
 11
157.8999999999942
 21
-114.6177127064029
 31
0.0
  0
LINE
  5
2655
330
2941
100
AcDbEntity
  8
0
 62
     0
100
AcDbLine
 10
132.662688670327
 20
-92.60000000000221
 30
0.0
 11
157.8999999999905
 21
-104.61776096227
 31
0.0
  0
LINE
  5
2656
330
2941
100
AcDbEntity
  8
0
 62
     0
100
AcDbLine
 10
153.662598407318
 20
-92.60000000000221
 30
0.0
 11
157.8999999999942
 21
-94.61780921813623
 31
0.0
  0
ENDBLK
  5
2657
330
2941
100
AcDbEntity
  8
0
100
AcDbBlockEnd
  0
BLOCK
  5
2944
330
2943
100
AcDbEntity
  8
0
100
AcDbBlockBegin
  2
*X77
 70
     1
 10
0.0
 20
0.0
 30
0.0
  3
*X77
  1

  0
LINE
  5
265A
330
2943
100
AcDbEntity
  8
0
 62
     0
100
AcDbLine
 10
143.5820966436949
 20
-366.4000000000024
 30
0.0
 11
157.9000000000014
 21
-359.5819543782137
 31
0.0
  0
LINE
  5
265B
330
2943
100
AcDbEntity
  8
0
 62
     0
100
AcDbLine
 10
122.582186906704
 20
-366.4000000000024
 30
0.0
 11
157.9000000000014
 21
-349.5820026340798
 31
0.0
  0
LINE
  5
265C
330
2943
100
AcDbEntity
  8
0
 62
     0
100
AcDbLine
 10
101.582277169713
 20
-366.4000000000005
 30
0.0
 11
157.9000000000014
 21
-339.5820508899442
 31
0.0
  0
LINE
  5
265D
330
2943
100
AcDbEntity
  8
0
 62
     0
100
AcDbLine
 10
80.58236743272209
 20
-366.4000000000015
 30
0.0
 11
157.9000000000014
 21
-329.5820991458113
 31
0.0
  0
LINE
  5
265E
330
2943
100
AcDbEntity
  8
0
 62
     0
100
AcDbLine
 10
59.58245769573114
 20
-366.4000000000015
 30
0.0
 11
157.9000000000014
 21
-319.5821474016757
 31
0.0
  0
LINE
  5
265F
330
2943
100
AcDbEntity
  8
0
 62
     0
100
AcDbLine
 10
38.58254795873655
 20
-366.4000000000015
 30
0.0
 11
157.8999999999978
 21
-309.5821956575419
 31
0.0
  0
LINE
  5
2660
330
2943
100
AcDbEntity
  8
0
 62
     0
100
AcDbLine
 10
17.58263822174922
 20
-366.4000000000024
 30
0.0
 11
157.9000000000014
 21
-299.5822439134072
 31
0.0
  0
LINE
  5
2661
330
2943
100
AcDbEntity
  8
0
 62
     0
100
AcDbLine
 10
-3.417271515241735
 20
-366.4000000000024
 30
0.0
 11
157.9000000000051
 21
-289.5822921692716
 31
0.0
  0
LINE
  5
2662
330
2943
100
AcDbEntity
  8
0
 62
     0
100
AcDbLine
 10
143.5829073426612
 20
-286.4000000000014
 30
0.0
 11
157.8999999999978
 21
-279.5823404251387
 31
0.0
  0
LINE
  5
2663
330
2943
100
AcDbEntity
  8
0
 62
     0
100
AcDbLine
 10
-24.41718125223271
 20
-366.4000000000015
 30
0.0
 11
143.5829073426612
 21
-286.4000000000014
 31
0.0
  0
LINE
  5
2664
330
2943
100
AcDbEntity
  8
0
 62
     0
100
AcDbLine
 10
122.5829976056739
 20
-286.4000000000014
 30
0.0
 11
157.9000000000014
 21
-269.5823886810031
 31
0.0
  0
LINE
  5
2665
330
2943
100
AcDbEntity
  8
0
 62
     0
100
AcDbLine
 10
-45.41709098922001
 20
-366.3999999999997
 30
0.0
 11
122.5829976056739
 21
-286.4000000000014
 31
0.0
  0
LINE
  5
2666
330
2943
100
AcDbEntity
  8
0
 62
     0
100
AcDbLine
 10
101.5830878686829
 20
-286.4000000000014
 30
0.0
 11
157.9000000000014
 21
-259.5824369368693
 31
0.0
  0
LINE
  5
2667
330
2943
100
AcDbEntity
  8
0
 62
     0
100
AcDbLine
 10
-66.41700072620733
 20
-366.3999999999997
 30
0.0
 11
101.5830878686829
 21
-286.4000000000014
 31
0.0
  0
LINE
  5
2668
330
2943
100
AcDbEntity
  8
0
 62
     0
100
AcDbLine
 10
80.5831781316883
 20
-286.4000000000024
 30
0.0
 11
157.9000000000014
 21
-249.5824851927346
 31
0.0
  0
LINE
  5
2669
330
2943
100
AcDbEntity
  8
0
 62
     0
100
AcDbLine
 10
-87.41691046320195
 20
-366.4000000000005
 30
0.0
 11
80.5831781316883
 21
-286.4000000000024
 31
0.0
  0
LINE
  5
266A
330
2943
100
AcDbEntity
  8
0
 62
     0
100
AcDbLine
 10
59.583268394701
 20
-286.4000000000024
 30
0.0
 11
157.9000000000014
 21
-239.5825334486008
 31
0.0
  0
LINE
  5
266B
330
2943
100
AcDbEntity
  8
0
 62
     0
100
AcDbLine
 10
-108.4168202001929
 20
-366.4000000000005
 30
0.0
 11
59.583268394701
 21
-286.4000000000024
 31
0.0
  0
LINE
  5
266C
330
2943
100
AcDbEntity
  8
0
 62
     0
100
AcDbLine
 10
38.58335865771005
 20
-286.4000000000006
 30
0.0
 11
157.8999999999978
 21
-229.5825817044652
 31
0.0
  0
LINE
  5
266D
330
2943
100
AcDbEntity
  8
0
 62
     0
100
AcDbLine
 10
-129.4167299371838
 20
-366.4000000000005
 30
0.0
 11
38.58335865771005
 21
-286.4000000000006
 31
0.0
  0
LINE
  5
266E
330
2943
100
AcDbEntity
  8
0
 62
     0
100
AcDbLine
 10
17.58344892072273
 20
-286.3999999999996
 30
0.0
 11
157.8999999999978
 21
-219.5826299603323
 31
0.0
  0
LINE
  5
266F
330
2943
100
AcDbEntity
  8
0
 62
     0
100
AcDbLine
 10
-150.4166396741748
 20
-366.4000000000015
 30
0.0
 11
17.58344892071908
 21
-286.4000000000014
 31
0.0
  0
LINE
  5
2670
330
2943
100
AcDbEntity
  8
0
 62
     0
100
AcDbLine
 10
-3.416460816268227
 20
-286.3999999999996
 30
0.0
 11
157.9000000000014
 21
-209.5826782161966
 31
0.0
  0
LINE
  5
2671
330
2943
100
AcDbEntity
  8
0
 62
     0
100
AcDbLine
 10
-157.9000000000014
 20
-359.9635512937112
 30
0.0
 11
-3.416460816268227
 21
-286.3999999999996
 31
0.0
  0
LINE
  5
2672
330
2943
100
AcDbEntity
  8
0
 62
     0
100
AcDbLine
 10
-24.41637055325919
 20
-286.4000000000006
 30
0.0
 11
157.9000000000014
 21
-199.5827264720619
 31
0.0
  0
LINE
  5
2673
330
2943
100
AcDbEntity
  8
0
 62
     0
100
AcDbLine
 10
-157.9000000000014
 20
-349.9635995495763
 30
0.0
 11
-24.41637055325919
 21
-286.4000000000006
 31
0.0
  0
LINE
  5
2674
330
2943
100
AcDbEntity
  8
0
 62
     0
100
AcDbLine
 10
-45.41628029025014
 20
-286.4000000000006
 30
0.0
 11
157.9000000000014
 21
-189.5827747279281
 31
0.0
  0
LINE
  5
2675
330
2943
100
AcDbEntity
  8
0
 62
     0
100
AcDbLine
 10
-157.9000000000014
 20
-339.9636478054426
 30
0.0
 11
-45.41628029025014
 21
-286.4000000000006
 31
0.0
  0
LINE
  5
2676
330
2943
100
AcDbEntity
  8
0
 62
     0
100
AcDbLine
 10
-57.89999999999418
 20
-282.3446735541756
 30
0.0
 11
157.9000000000014
 21
-179.5828229837925
 31
0.0
  0
LINE
  5
2677
330
2943
100
AcDbEntity
  8
0
 62
     0
100
AcDbLine
 10
-157.8999999999978
 20
-329.9636960613071
 30
0.0
 11
-57.89999999999418
 21
-282.3446735541756
 31
0.0
  0
LINE
  5
2678
330
2943
100
AcDbEntity
  8
0
 62
     0
100
AcDbLine
 10
-57.89999999999782
 20
-272.3447218100428
 30
0.0
 11
157.8999999999978
 21
-169.5828712396596
 31
0.0
  0
LINE
  5
2679
330
2943
100
AcDbEntity
  8
0
 62
     0
100
AcDbLine
 10
-157.9000000000014
 20
-319.9637443171742
 30
0.0
 11
-57.89999999999782
 21
-272.3447218100428
 31
0.0
  0
LINE
  5
267A
330
2943
100
AcDbEntity
  8
0
 62
     0
100
AcDbLine
 10
-57.89999999999782
 20
-262.3447700659071
 30
0.0
 11
157.9000000000014
 21
-159.582919495524
 31
0.0
  0
LINE
  5
267B
330
2943
100
AcDbEntity
  8
0
 62
     0
100
AcDbLine
 10
-157.9000000000014
 20
-309.9637925730385
 30
0.0
 11
-57.89999999999782
 21
-262.3447700659071
 31
0.0
  0
LINE
  5
267C
330
2943
100
AcDbEntity
  8
0
 62
     0
100
AcDbLine
 10
-57.89999999999782
 20
-252.3448183217734
 30
0.0
 11
157.9000000000014
 21
-149.5829677513902
 31
0.0
  0
LINE
  5
267D
330
2943
100
AcDbEntity
  8
0
 62
     0
100
AcDbLine
 10
-157.8999999999978
 20
-299.9638408289029
 30
0.0
 11
-57.89999999999782
 21
-252.3448183217734
 31
0.0
  0
LINE
  5
267E
330
2943
100
AcDbEntity
  8
0
 62
     0
100
AcDbLine
 10
-57.89999999999782
 20
-242.3448665776405
 30
0.0
 11
157.9000000000014
 21
-139.5830160072555
 31
0.0
  0
LINE
  5
267F
330
2943
100
AcDbEntity
  8
0
 62
     0
100
AcDbLine
 10
-157.9000000000014
 20
-289.96388908477
 30
0.0
 11
-57.89999999999782
 21
-242.3448665776405
 31
0.0
  0
LINE
  5
2680
330
2943
100
AcDbEntity
  8
0
 62
     0
100
AcDbLine
 10
-57.89999999999782
 20
-232.3449148335048
 30
0.0
 11
157.9000000000014
 21
-129.5830642631198
 31
0.0
  0
LINE
  5
2681
330
2943
100
AcDbEntity
  8
0
 62
     0
100
AcDbLine
 10
-157.8999999999978
 20
-279.9639373406344
 30
0.0
 11
-57.89999999999782
 21
-232.3449148335048
 31
0.0
  0
LINE
  5
2682
330
2943
100
AcDbEntity
  8
0
 62
     0
100
AcDbLine
 10
-57.89999999999782
 20
-222.3449630893719
 30
0.0
 11
157.8999999999978
 21
-119.583112518987
 31
0.0
  0
LINE
  5
2683
330
2943
100
AcDbEntity
  8
0
 62
     0
100
AcDbLine
 10
-157.9000000000014
 20
-269.9639855965015
 30
0.0
 11
-57.89999999999782
 21
-222.3449630893719
 31
0.0
  0
LINE
  5
2684
330
2943
100
AcDbEntity
  8
0
 62
     0
100
AcDbLine
 10
-57.89999999999782
 20
-212.3450113452364
 30
0.0
 11
157.9000000000014
 21
-109.5831607748514
 31
0.0
  0
LINE
  5
2685
330
2943
100
AcDbEntity
  8
0
 62
     0
100
AcDbLine
 10
-157.9000000000014
 20
-259.9640338523659
 30
0.0
 11
-57.89999999999782
 21
-212.3450113452364
 31
0.0
  0
LINE
  5
2686
330
2943
100
AcDbEntity
  8
0
 62
     0
100
AcDbLine
 10
-57.89999999999782
 20
-202.3450596011025
 30
0.0
 11
157.9000000000014
 21
-99.58320903071763
 31
0.0
  0
LINE
  5
2687
330
2943
100
AcDbEntity
  8
0
 62
     0
100
AcDbLine
 10
-157.9000000000014
 20
-249.9640821082321
 30
0.0
 11
-57.89999999999782
 21
-202.3450596011025
 31
0.0
  0
LINE
  5
2688
330
2943
100
AcDbEntity
  8
0
 62
     0
100
AcDbLine
 10
-57.89999999999418
 20
-192.3451078569668
 30
0.0
 11
151.5648369609771
 21
-92.60000000000037
 31
0.0
  0
LINE
  5
2689
330
2943
100
AcDbEntity
  8
0
 62
     0
100
AcDbLine
 10
-157.8999999999978
 20
-239.9641303640965
 30
0.0
 11
-57.89999999999418
 21
-192.3451078569668
 31
0.0
  0
LINE
  5
268A
330
2943
100
AcDbEntity
  8
0
 62
     0
100
AcDbLine
 10
-57.89999999999782
 20
-182.3451561128331
 30
0.0
 11
130.5649272239825
 21
-92.59999999999854
 31
0.0
  0
LINE
  5
268B
330
2943
100
AcDbEntity
  8
0
 62
     0
100
AcDbLine
 10
-157.9000000000014
 20
-229.9641786199627
 30
0.0
 11
-57.89999999999782
 21
-182.3451561128331
 31
0.0
  0
LINE
  5
268C
330
2943
100
AcDbEntity
  8
0
 62
     0
100
AcDbLine
 10
-57.89999999999418
 20
-172.3452043686974
 30
0.0
 11
109.5650174869952
 21
-92.59999999999854
 31
0.0
  0
LINE
  5
268D
330
2943
100
AcDbEntity
  8
0
 62
     0
100
AcDbLine
 10
-157.8999999999978
 20
-219.9642268758289
 30
0.0
 11
-57.89999999999418
 21
-172.3452043686974
 31
0.0
  0
LINE
  5
268E
330
2943
100
AcDbEntity
  8
0
 62
     0
100
AcDbLine
 10
-57.90000000000144
 20
-162.3452526245654
 30
0.0
 11
88.5651077500006
 21
-92.60000000000037
 31
0.0
  0
LINE
  5
268F
330
2943
100
AcDbEntity
  8
0
 62
     0
100
AcDbLine
 10
-157.9000000000051
 20
-209.9642751316951
 30
0.0
 11
-57.90000000000144
 21
-162.3452526245654
 31
0.0
  0
LINE
  5
2690
330
2943
100
AcDbEntity
  8
0
 62
     0
100
AcDbLine
 10
-57.89999999999782
 20
-152.3453008804299
 30
0.0
 11
67.56519801301329
 21
-92.59999999999854
 31
0.0
  0
LINE
  5
2691
330
2943
100
AcDbEntity
  8
0
 62
     0
100
AcDbLine
 10
-157.9000000000014
 20
-199.9643233875612
 30
0.0
 11
-57.89999999999782
 21
-152.3453008804299
 31
0.0
  0
LINE
  5
2692
330
2943
100
AcDbEntity
  8
0
 62
     0
100
AcDbLine
 10
-57.89999999999782
 20
-142.3453491362979
 30
0.0
 11
46.56528827602596
 21
-92.60000000000037
 31
0.0
  0
LINE
  5
2693
330
2943
100
AcDbEntity
  8
0
 62
     0
100
AcDbLine
 10
-157.8999999999978
 20
-189.9643716434275
 30
0.0
 11
-57.89999999999782
 21
-142.3453491362979
 31
0.0
  0
LINE
  5
2694
330
2943
100
AcDbEntity
  8
0
 62
     0
100
AcDbLine
 10
-57.89999999999782
 20
-132.3453973921623
 30
0.0
 11
25.56537853903137
 21
-92.60000000000037
 31
0.0
  0
LINE
  5
2695
330
2943
100
AcDbEntity
  8
0
 62
     0
100
AcDbLine
 10
-157.9000000000014
 20
-179.9644198992936
 30
0.0
 11
-57.89999999999782
 21
-132.3453973921623
 31
0.0
  0
LINE
  5
2696
330
2943
100
AcDbEntity
  8
0
 62
     0
100
AcDbLine
 10
-57.89999999999782
 20
-122.3454456480285
 30
0.0
 11
4.565468802040411
 21
-92.60000000000037
 31
0.0
  0
LINE
  5
2697
330
2943
100
AcDbEntity
  8
0
 62
     0
100
AcDbLine
 10
-157.8999999999978
 20
-169.9644681551581
 30
0.0
 11
-57.89999999999782
 21
-122.3454456480285
 31
0.0
  0
LINE
  5
2698
330
2943
100
AcDbEntity
  8
0
 62
     0
100
AcDbLine
 10
-57.89999999999782
 20
-112.3454939038929
 30
0.0
 11
-16.43444093495054
 21
-92.60000000000037
 31
0.0
  0
LINE
  5
2699
330
2943
100
AcDbEntity
  8
0
 62
     0
100
AcDbLine
 10
-157.9000000000014
 20
-159.9645164110243
 30
0.0
 11
-57.89999999999782
 21
-112.3454939038929
 31
0.0
  0
LINE
  5
269A
330
2943
100
AcDbEntity
  8
0
 62
     0
100
AcDbLine
 10
-57.89999999999782
 20
-102.3455421597573
 30
0.0
 11
-37.43435067194151
 21
-92.60000000000037
 31
0.0
  0
LINE
  5
269B
330
2943
100
AcDbEntity
  8
0
 62
     0
100
AcDbLine
 10
-157.9000000000014
 20
-149.9645646668887
 30
0.0
 11
-57.89999999999782
 21
-102.3455421597573
 31
0.0
  0
LINE
  5
269C
330
2943
100
AcDbEntity
  8
0
 62
     0
100
AcDbLine
 10
-157.9000000000014
 20
-139.9646129227549
 30
0.0
 11
-58.43426040893246
 21
-92.60000000000037
 31
0.0
  0
LINE
  5
269D
330
2943
100
AcDbEntity
  8
0
 62
     0
100
AcDbLine
 10
-157.8999999999978
 20
-129.9646611786193
 30
0.0
 11
-79.43417014591979
 21
-92.59999999999854
 31
0.0
  0
LINE
  5
269E
330
2943
100
AcDbEntity
  8
0
 62
     0
100
AcDbLine
 10
-157.9000000000014
 20
-119.9647094344855
 30
0.0
 11
-100.4340798829143
 21
-92.59999999999854
 31
0.0
  0
LINE
  5
269F
330
2943
100
AcDbEntity
  8
0
 62
     0
100
AcDbLine
 10
-157.9000000000014
 20
-109.9647576903517
 30
0.0
 11
-121.4339896199017
 21
-92.60000000000037
 31
0.0
  0
LINE
  5
26A0
330
2943
100
AcDbEntity
  8
0
 62
     0
100
AcDbLine
 10
-157.9000000000014
 20
-99.96480594621608
 30
0.0
 11
-142.4338993568963
 21
-92.60000000000037
 31
0.0
  0
ENDBLK
  5
26A1
330
2943
100
AcDbEntity
  8
0
100
AcDbBlockEnd
  0
ENDSEC
  0
SECTION
  2
ENTITIES
  0
TEXT
  5
953
330
2862
100
AcDbEntity
  8
OUTLINE
  6
Continuous
 62
     3
100
AcDbText
 10
-418.231467
 20
13.715189
 30
0.0
 40
64.0
  1
 
 41
0.9
100
AcDbText
  0
TEXT
  5
954
330
2862
100
AcDbEntity
  8
OUTLINE
  6
Continuous
 62
     3
100
AcDbText
 10
-418.231467
 20
13.715189
 30
0.0
 40
64.0
  1
 
 41
0.9
100
AcDbText
  0
TEXT
  5
955
330
2862
100
AcDbEntity
  8
OUTLINE
  6
Continuous
 62
     3
100
AcDbText
 10
1341.41903
 20
-706.0588199999997
 30
0.0
 40
64.0
  1
 
 41
0.9
100
AcDbText
  0
TEXT
  5
956
330
2862
100
AcDbEntity
  8
OUTLINE
  6
Continuous
 62
     3
100
AcDbText
 10
1341.41903
 20
-706.0588199999997
 30
0.0
 40
64.0
  1
 
 41
0.9
100
AcDbText
  0
TEXT
  5
957
330
2862
100
AcDbEntity
  8
OUTLINE
  6
Continuous
 62
     3
100
AcDbText
 10
1341.41903
 20
-706.0588199999997
 30
0.0
 40
64.0
  1
 
 41
0.9
100
AcDbText
  0
TEXT
  5
958
330
2862
100
AcDbEntity
  8
OUTLINE
  6
Continuous
 62
     3
100
AcDbText
 10
1341.41903
 20
-706.0588199999997
 30
0.0
 40
64.0
  1
 
 41
0.9
100
AcDbText
  0
TEXT
  5
2700
330
2862
100
AcDbEntity
  8
ETC
100
AcDbText
 10
256.2468308916505
 20
469.9850519311858
 30
0.0
 40
64.0
  1
システム部材
 41
0.9
100
AcDbText
  0
TEXT
  5
2701
330
2862
100
AcDbEntity
  8
ETC
100
AcDbText
 10
262.4548288916485
 20
570.8683779311853
 30
0.0
 40
64.0
  1
QW-30SDBC_6
 41
0.9
100
AcDbText
  0
TEXT
  5
2702
330
2862
100
AcDbEntity
  8
ETC
100
AcDbText
 10
256.2468308916505
 20
369.9850519311859
 30
0.0
 40
64.0
  1
QW-30SDBC
 41
0.9
100
AcDbText
  0
POINT
  5
2703
330
2862
100
AcDbEntity
  8
ARRANGE
100
AcDbPoint
 10
0.0
 20
0.0
 30
0.0
 39
50.0
  0
LINE
  5
2704
330
2862
100
AcDbEntity
  8
DETAIL
100
AcDbLine
 10
173.5
 20
-77.0
 30
0.0
 11
173.5
 21
-382.0
 31
0.0
  0
LINE
  5
2705
330
2862
100
AcDbEntity
  8
DETAIL
100
AcDbLine
 10
173.5
 20
-77.0
 30
0.0
 11
173.5
 21
-394.0
 31
0.0
  0
LINE
  5
2706
330
2862
100
AcDbEntity
  8
DETAIL
100
AcDbLine
 10
-173.5
 20
-77.0
 30
0.0
 11
-173.5
 21
-393.9999999999995
 31
0.0
  0
LINE
  5
2707
330
2862
100
AcDbEntity
  8
DETAIL
100
AcDbLine
 10
184.5
 20
-64.99999999999954
 30
0.0
 11
184.5
 21
-381.9999999999994
 31
0.0
  0
LINE
  5
2708
330
2862
100
AcDbEntity
  8
DETAIL
100
AcDbLine
 10
-184.5
 20
-65.0
 30
0.0
 11
-184.5
 21
-381.9999999999994
 31
0.0
  0
LINE
  5
2709
330
2862
100
AcDbEntity
  8
DETAIL
100
AcDbLine
 10
157.9000000000011
 20
-92.59999999999985
 30
0.0
 11
157.9000000000011
 21
-366.4000000000001
 31
0.0
  0
LINE
  5
270A
330
2862
100
AcDbEntity
  8
DETAIL
100
AcDbLine
 10
-157.9000000000014
 20
-92.59999999999985
 30
0.0
 11
-157.9000000000014
 21
-366.4000000000001
 31
0.0
  0
LINE
  5
270B
330
2862
100
AcDbEntity
  8
BASIS
100
AcDbLine
 10
0.0
 20
25.0
 30
0.0
 11
0.0
 21
-419.0
 31
0.0
  0
LINE
  5
270C
330
2862
100
AcDbEntity
  8
DETAIL
100
AcDbLine
 10
-184.5
 20
-65.0
 30
0.0
 11
184.5
 21
-64.99999999999954
 31
0.0
  0
POLYLINE
  5
270D
330
2862
100
AcDbEntity
  8
DETAIL
100
AcDb2dPolyline
 66
     1
 10
0.0
 20
0.0
 30
0.0
  0
VERTEX
  5
27DA
330
270D
100
AcDbEntity
  8
DETAIL
100
AcDbVertex
100
AcDb2dVertex
 10
-173.5
 20
-77.0
 30
0.0
  0
VERTEX
  5
27DB
330
270D
100
AcDbEntity
  8
DETAIL
100
AcDbVertex
100
AcDb2dVertex
 10
173.5
 20
-77.0
 30
0.0
  0
SEQEND
  5
27DC
330
270D
100
AcDbEntity
  8
DETAIL
  0
POLYLINE
  5
270E
330
2862
100
AcDbEntity
  8
DETAIL
100
AcDb2dPolyline
 66
     1
 10
0.0
 20
0.0
 30
0.0
  0
VERTEX
  5
27DD
330
270E
100
AcDbEntity
  8
DETAIL
100
AcDbVertex
100
AcDb2dVertex
 10
-207.5
 20
0.0
 30
0.0
  0
VERTEX
  5
27DE
330
270E
100
AcDbEntity
  8
DETAIL
100
AcDbVertex
100
AcDb2dVertex
 10
207.5
 20
0.0
 30
0.0
  0
SEQEND
  5
27DF
330
270E
100
AcDbEntity
  8
DETAIL
  0
POLYLINE
  5
270F
330
2862
100
AcDbEntity
  8
DETAIL
100
AcDb2dPolyline
 66
     1
 10
0.0
 20
0.0
 30
0.0
  0
VERTEX
  5
27E0
330
270F
100
AcDbEntity
  8
DETAIL
100
AcDbVertex
100
AcDb2dVertex
 10
-207.5
 20
-10.0
 30
0.0
  0
VERTEX
  5
27E1
330
270F
100
AcDbEntity
  8
DETAIL
100
AcDbVertex
100
AcDb2dVertex
 10
207.5
 20
-10.0
 30
0.0
  0
SEQEND
  5
27E2
330
270F
100
AcDbEntity
  8
DETAIL
  0
LINE
  5
2710
330
2862
100
AcDbEntity
  8
NOTE
100
AcDbLine
 10
-190.0
 20
12.5
 30
0.0
 11
-190.0
 21
-12.5
 31
0.0
  0
LINE
  5
2711
330
2862
100
AcDbEntity
  8
DETAIL
100
AcDbLine
 10
-207.5
 20
-10.0
 30
0.0
 11
-207.5
 21
0.0
 31
0.0
  0
LINE
  5
2712
330
2862
100
AcDbEntity
  8
DETAIL
100
AcDbLine
 10
-173.5
 20
-10.0
 30
0.0
 11
-173.5
 21
-65.0
 31
0.0
  0
POLYLINE
  5
2713
330
2862
100
AcDbEntity
  8
DETAIL
100
AcDb2dPolyline
 66
     1
 10
0.0
 20
0.0
 30
0.0
  0
VERTEX
  5
27E3
330
2713
100
AcDbEntity
  8
DETAIL
100
AcDbVertex
100
AcDb2dVertex
 10
-157.9000000000014
 20
-92.59999999999985
 30
0.0
  0
VERTEX
  5
27E4
330
2713
100
AcDbEntity
  8
DETAIL
100
AcDbVertex
100
AcDb2dVertex
 10
157.9000000000011
 20
-92.59999999999985
 30
0.0
  0
SEQEND
  5
27E5
330
2713
100
AcDbEntity
  8
DETAIL
  0
CIRCLE
  5
2714
330
2862
100
AcDbEntity
  8
ARRANGE
100
AcDbCircle
 10
0.0
 20
0.0
 30
0.0
 40
40.0
  0
LINE
  5
2715
330
2862
100
AcDbEntity
  8
NOTE
100
AcDbLine
 10
190.0
 20
-12.5
 30
0.0
 11
190.0
 21
12.5
 31
0.0
  0
LINE
  5
2716
330
2862
100
AcDbEntity
  8
DETAIL
100
AcDbLine
 10
173.5
 20
-10.0
 30
0.0
 11
173.5
 21
-65.0
 31
0.0
  0
LINE
  5
2717
330
2862
100
AcDbEntity
  8
DETAIL
100
AcDbLine
 10
207.5
 20
-10.0
 30
0.0
 11
207.5
 21
0.0
 31
0.0
  0
LINE
  5
2718
330
2862
100
AcDbEntity
  8
DETAIL
100
AcDbLine
 10
-184.5
 20
-381.9999999999994
 30
0.0
 11
184.5
 21
-382.0
 31
0.0
  0
LINE
  5
2719
330
2862
100
AcDbEntity
  8
DETAIL
100
AcDbLine
 10
-157.9000000000014
 20
-366.4000000000001
 30
0.0
 11
157.9000000000011
 21
-366.4000000000001
 31
0.0
  0
LINE
  5
271A
330
2862
100
AcDbEntity
  8
DETAIL
100
AcDbLine
 10
-173.5
 20
-394.0
 30
0.0
 11
173.5
 21
-394.0
 31
0.0
  0
INSERT
  5
271B
330
2862
100
AcDbEntity
  8
0
100
AcDbBlockReference
  2
*U74
 10
0.0
 20
0.0
 30
0.0
1001
ACAD
1000
DSTYLE
1002
{
1070
    41
1040
12.0
1070
    42
1040
20.0
1070
    43
1040
200.0
1070
    44
1040
20.0
1070
    73
1070
     0
1070
    74
1070
     0
1070
    77
1070
     1
1070
    78
1070
     8
1070
   140
1040
64.0
1070
   147
1040
50.0
1070
   172
1070
     1
1070
   174
1070
     1
1070
   275
1070
     0
1070
   284
1070
     0
1070
   285
1070
     0
1070
   286
1070
     0
1070
   341
1005
0
1070
   342
1005
0
1002
}
  0
INSERT
  5
271C
330
2862
100
AcDbEntity
  8
0
100
AcDbBlockReference
  2
*U75
 10
0.0
 20
0.0
 30
0.0
  0
LINE
  5
271D
330
2862
100
AcDbEntity
  8
NOTE
100
AcDbLine
 39
50.0
 10
-202.5
 20
0.0
 30
0.0
 11
-177.5
 21
0.0
 31
0.0
  0
LINE
  5
271E
330
2862
100
AcDbEntity
  8
NOTE
100
AcDbLine
 39
50.0
 10
177.5
 20
0.0
 30
0.0
 11
202.5
 21
0.0
 31
0.0
  0
LINE
  5
271F
330
2862
100
AcDbEntity
  8
OUTLINE
100
AcDbLine
 39
50.0
 10
-207.5
 20
0.0
 30
0.0
 11
207.5
 21
0.0
 31
0.0
  0
LINE
  5
2720
330
2862
100
AcDbEntity
  8
OUTLINE
100
AcDbLine
 10
173.5
 20
-77.0
 30
0.0
 11
173.5
 21
-382.0
 31
0.0
  0
LINE
  5
2721
330
2862
100
AcDbEntity
  8
OUTLINE
100
AcDbLine
 10
173.5
 20
-77.0
 30
0.0
 11
173.5
 21
-394.0
 31
0.0
  0
LINE
  5
2722
330
2862
100
AcDbEntity
  8
OUTLINE
100
AcDbLine
 10
-173.5
 20
-77.0
 30
0.0
 11
-173.5
 21
-393.9999999999995
 31
0.0
  0
LINE
  5
2723
330
2862
100
AcDbEntity
  8
OUTLINE
100
AcDbLine
 10
184.5
 20
-64.99999999999954
 30
0.0
 11
184.5
 21
-381.9999999999994
 31
0.0
  0
LINE
  5
2724
330
2862
100
AcDbEntity
  8
OUTLINE
100
AcDbLine
 10
-184.5
 20
-65.0
 30
0.0
 11
-184.5
 21
-381.9999999999994
 31
0.0
  0
LINE
  5
2725
330
2862
100
AcDbEntity
  8
OUTLINE
100
AcDbLine
 10
-184.5
 20
-65.0
 30
0.0
 11
184.5
 21
-64.99999999999954
 31
0.0
  0
POLYLINE
  5
2726
330
2862
100
AcDbEntity
  8
OUTLINE
100
AcDb2dPolyline
 66
     1
 10
0.0
 20
0.0
 30
0.0
  0
VERTEX
  5
27E6
330
2726
100
AcDbEntity
  8
OUTLINE
100
AcDbVertex
100
AcDb2dVertex
 10
-173.5
 20
-77.0
 30
0.0
  0
VERTEX
  5
27E7
330
2726
100
AcDbEntity
  8
OUTLINE
100
AcDbVertex
100
AcDb2dVertex
 10
173.5
 20
-77.0
 30
0.0
  0
SEQEND
  5
27E8
330
2726
100
AcDbEntity
  8
OUTLINE
  0
POLYLINE
  5
2727
330
2862
100
AcDbEntity
  8
OUTLINE
100
AcDb2dPolyline
 66
     1
 10
0.0
 20
0.0
 30
0.0
  0
VERTEX
  5
27E9
330
2727
100
AcDbEntity
  8
OUTLINE
100
AcDbVertex
100
AcDb2dVertex
 10
-207.5
 20
-10.0
 30
0.0
  0
VERTEX
  5
27EA
330
2727
100
AcDbEntity
  8
OUTLINE
100
AcDbVertex
100
AcDb2dVertex
 10
207.5
 20
-10.0
 30
0.0
  0
SEQEND
  5
27EB
330
2727
100
AcDbEntity
  8
OUTLINE
  0
LINE
  5
2728
330
2862
100
AcDbEntity
  8
OUTLINE
100
AcDbLine
 10
-207.5
 20
-10.0
 30
0.0
 11
-207.5
 21
0.0
 31
0.0
  0
LINE
  5
2729
330
2862
100
AcDbEntity
  8
OUTLINE
100
AcDbLine
 10
-173.5
 20
-10.0
 30
0.0
 11
-173.5
 21
-65.0
 31
0.0
  0
LINE
  5
272A
330
2862
100
AcDbEntity
  8
OUTLINE
100
AcDbLine
 10
207.5
 20
-10.0
 30
0.0
 11
207.5
 21
0.0
 31
0.0
  0
LINE
  5
272B
330
2862
100
AcDbEntity
  8
OUTLINE
100
AcDbLine
 10
-184.5
 20
-381.9999999999994
 30
0.0
 11
184.5
 21
-382.0
 31
0.0
  0
LINE
  5
272C
330
2862
100
AcDbEntity
  8
OUTLINE
100
AcDbLine
 10
-173.5
 20
-394.0
 30
0.0
 11
173.5
 21
-394.0
 31
0.0
  0
LINE
  5
272D
330
2862
100
AcDbEntity
  8
OUTLINE
100
AcDbLine
 10
173.5
 20
-10.0
 30
0.0
 11
173.5
 21
-65.0
 31
0.0
  0
LINE
  5
272E
330
2862
100
AcDbEntity
  8
DETAIL
100
AcDbLine
 10
157.9000000000011
 20
-92.59999999999985
 30
0.0
 11
157.9000000000011
 21
-366.4000000000001
 31
0.0
  0
LINE
  5
272F
330
2862
100
AcDbEntity
  8
DETAIL
100
AcDbLine
 10
-157.9000000000014
 20
-92.59999999999985
 30
0.0
 11
-157.9000000000014
 21
-366.4000000000001
 31
0.0
  0
POLYLINE
  5
2730
330
2862
100
AcDbEntity
  8
DETAIL
100
AcDb2dPolyline
 66
     1
 10
0.0
 20
0.0
 30
0.0
  0
VERTEX
  5
27EC
330
2730
100
AcDbEntity
  8
DETAIL
100
AcDbVertex
100
AcDb2dVertex
 10
-157.9000000000014
 20
-92.59999999999985
 30
0.0
  0
VERTEX
  5
27ED
330
2730
100
AcDbEntity
  8
DETAIL
100
AcDbVertex
100
AcDb2dVertex
 10
157.9000000000011
 20
-92.59999999999985
 30
0.0
  0
SEQEND
  5
27EE
330
2730
100
AcDbEntity
  8
DETAIL
  0
LINE
  5
2731
330
2862
100
AcDbEntity
  8
DETAIL
100
AcDbLine
 10
-157.9000000000014
 20
-366.4000000000001
 30
0.0
 11
157.9000000000011
 21
-366.4000000000001
 31
0.0
  0
INSERT
  5
2732
330
2862
100
AcDbEntity
  8
DETAIL
  6
Continuous
100
AcDbBlockReference
  2
*X76
 10
0.0
 20
0.0
 30
0.0
1001
ACADANNOTATIVE
1000
AnnotativeData
1002
{
1070
     1
1070
     0
1002
}
1001
ACAD
1000
HATCH
1002
{
1070
    19
1000
LINE
1040
72.22849999999998
1040
5.838766301980094
1000
R14_HATCH_DATA
1000
574C
1011
1.0
1021
0.0
1031
0.0
1011
0.0
1021
1.0
1031
0.0
1011
0.0
1021
0.0
1031
1.0
1040
0.0
1010
0.0
1020
0.0
1030
1.0
1000
LINE
1070
     0
1070
     0
1071
        2
1071
        7
1070
     0
1070
     1
1071
        6
1040
-57.90000000000144
1040
-92.60000000000037
1040
-157.9000000000014
1040
-92.59999999999987
1040
-157.9000000000014
1040
-366.4000000000001
1040
157.9000000000014
1040
-366.4000000000001
1040
157.9000000000014
1040
-286.3999999999996
1040
-57.89999999999782
1040
-286.4000000000001
1071
        0
1071
       23
1070
     0
1070
     1
1071
        4
1040
157.9000000000014
1040
-286.3999999999996
1040
157.9000000000014
1040
-92.59999999999987
1040
-57.89999999999782
1040
-92.59999999999987
1040
-57.89999999999782
1040
-286.4000000000001
1071
        0
1070
     0
1070
     1
1040
5.838766301980094
1040
72.22849999999998
1070
     0
1070
     1
1040
5.838766301980094
1040
20491.02629795964
1040
2092.888922841017
1040
3.881680532789153
1040
8.151533417570705
1070
     0
1040
0.7609844465980295
1071
        2
1040
-112.6534514698251
1040
-171.1520792676106
1040
0.0
1040
56.27516647709853
1040
-209.3013186024036
1040
0.0
1002
}
  0
INSERT
  5
2733
330
2862
100
AcDbEntity
  8
DETAIL
  6
Continuous
100
AcDbBlockReference
  2
*X77
 10
0.0
 20
0.0
 30
0.0
1001
ACADANNOTATIVE
1000
AnnotativeData
1002
{
1070
     1
1070
     0
1002
}
1001
ACAD
1000
HATCH
1002
{
1070
    19
1000
LINE
1040
72.22849999999998
1040
0.4444190051994898
1000
R14_HATCH_DATA
1000
5752
1011
1.0
1021
0.0
1031
0.0
1011
0.0
1021
1.0
1031
0.0
1011
0.0
1021
0.0
1031
1.0
1040
0.0
1010
0.0
1020
0.0
1030
1.0
1000
LINE
1070
     0
1070
     0
1071
        2
1071
        7
1070
     0
1070
     1
1071
        6
1040
-57.89999999999782
1040
-92.59999999999987
1040
-157.9000000000014
1040
-92.59999999999987
1040
-157.9000000000014
1040
-366.4000000000001
1040
157.9000000000014
1040
-366.4000000000001
1040
157.9000000000014
1040
-286.3999999999996
1040
-57.89999999999782
1040
-286.4000000000001
1071
        0
1071
       23
1070
     0
1070
     1
1071
        4
1040
157.9000000000014
1040
-92.59999999999987
1040
-57.89999999999782
1040
-92.59999999999987
1040
-57.89999999999782
1040
-286.4000000000001
1040
157.9000000000014
1040
-286.3999999999996
1071
        0
1070
     0
1070
     1
1040
0.4444190051994898
1040
72.22849999999998
1070
     0
1070
     1
1040
0.4444190051994898
1040
20491.02629795964
1040
2092.888922841017
1040
-3.881680532789157
1040
8.151533417570702
1070
     0
1040
1.338613578871922
1071
        3
1040
-124.3864905705086
1040
-177.4640307035856
1040
0.0
1040
-99.17505417875872
1040
-218.2170602760503
1040
0.0
1040
81.2675573120723
1040
-208.9238295722171
1040
0.0
1002
}
  0
LINE
  5
2734
330
2862
100
AcDbEntity
  8
SIZE
100
AcDbLine
 10
190.0
 20
32.5
 30
0.0
 11
190.0
 21
178.9320910096176
 31
0.0
  0
LINE
  5
2735
330
2862
100
AcDbEntity
  8
SIZE
100
AcDbLine
 10
-190.0
 20
32.5
 30
0.0
 11
-190.0
 21
178.9320910096176
 31
0.0
  0
LINE
  5
2736
330
2862
100
AcDbEntity
  8
SIZE
100
AcDbLine
 10
178.0
 20
158.9320910096176
 30
0.0
 11
-178.0
 21
158.9320910096176
 31
0.0
  0
INSERT
  5
2737
330
2862
100
AcDbEntity
  8
SIZE
100
AcDbBlockReference
  2
_DOTBLANK
 10
190.0
 20
158.9320910096176
 30
0.0
 41
12.0
 42
12.0
 43
12.0
  0
INSERT
  5
2738
330
2862
100
AcDbEntity
  8
SIZE
100
AcDbBlockReference
  2
_DOTBLANK
 10
-190.0
 20
158.9320910096176
 30
0.0
 41
12.0
 42
12.0
 43
12.0
 50
180.0
  0
LINE
  5
2739
330
2862
100
AcDbEntity
  8
SIZE
100
AcDbLine
 10
207.5
 20
20.0
 30
0.0
 11
207.5
 21
297.4865929365169
 31
0.0
  0
LINE
  5
273A
330
2862
100
AcDbEntity
  8
SIZE
100
AcDbLine
 10
-207.5
 20
20.0
 30
0.0
 11
-207.5
 21
297.4865929365169
 31
0.0
  0
LINE
  5
273B
330
2862
100
AcDbEntity
  8
SIZE
100
AcDbLine
 10
195.5
 20
277.4865929365169
 30
0.0
 11
-195.5
 21
277.4865929365169
 31
0.0
  0
INSERT
  5
273C
330
2862
100
AcDbEntity
  8
SIZE
100
AcDbBlockReference
  2
_DOTBLANK
 10
207.5
 20
277.4865929365169
 30
0.0
 41
12.0
 42
12.0
 43
12.0
  0
INSERT
  5
273D
330
2862
100
AcDbEntity
  8
SIZE
100
AcDbBlockReference
  2
_DOTBLANK
 10
-207.5
 20
277.4865929365169
 30
0.0
 41
12.0
 42
12.0
 43
12.0
 50
180.0
  0
LINE
  5
273E
330
2862
100
AcDbEntity
  8
SIZE
100
AcDbLine
 10
-204.5
 20
-381.9999999999994
 30
0.0
 11
-337.5374835979164
 21
-381.9999999999994
 31
0.0
  0
LINE
  5
273F
330
2862
100
AcDbEntity
  8
SIZE
100
AcDbLine
 10
-193.5
 20
-394.0
 30
0.0
 11
-337.5374835979164
 21
-394.0
 31
0.0
  0
LINE
  5
2740
330
2862
100
AcDbEntity
  8
SIZE
100
AcDbLine
 10
-317.5374835979164
 20
-369.9999999999997
 30
0.0
 11
-317.5374835979164
 21
-357.9999999999996
 31
0.0
  0
LINE
  5
2741
330
2862
100
AcDbEntity
  8
SIZE
100
AcDbLine
 10
-317.5374835979164
 20
-406.0
 30
0.0
 11
-317.5374835979164
 21
-520.2857142857143
 31
0.0
  0
INSERT
  5
2742
330
2862
100
AcDbEntity
  8
SIZE
100
AcDbBlockReference
  2
_DOTBLANK
 10
-317.5374835979164
 20
-381.9999999999994
 30
0.0
 41
12.0
 42
12.0
 43
12.0
 50
270.0
  0
INSERT
  5
2743
330
2862
100
AcDbEntity
  8
SIZE
100
AcDbBlockReference
  2
_DOTBLANK
 10
-317.5374835979164
 20
-394.0
 30
0.0
 41
12.0
 42
12.0
 43
12.0
 50
90.0
  0
LINE
  5
2744
330
2862
100
AcDbEntity
  8
SIZE
100
AcDbLine
 10
-227.5
 20
0.0
 30
0.0
 11
-337.5374835979164
 21
0.0
 31
0.0
  0
LINE
  5
2745
330
2862
100
AcDbEntity
  8
SIZE
100
AcDbLine
 10
-204.5
 20
-381.9999999999994
 30
0.0
 11
-337.5374835979164
 21
-381.9999999999994
 31
0.0
  0
LINE
  5
2746
330
2862
100
AcDbEntity
  8
SIZE
100
AcDbLine
 10
-317.5374835979164
 20
-12.0
 30
0.0
 11
-317.5374835979164
 21
-369.9999999999997
 31
0.0
  0
INSERT
  5
2747
330
2862
100
AcDbEntity
  8
SIZE
100
AcDbBlockReference
  2
_DOTBLANK
 10
-317.5374835979164
 20
0.0
 30
0.0
 41
12.0
 42
12.0
 43
12.0
 50
90.0
  0
INSERT
  5
2748
330
2862
100
AcDbEntity
  8
SIZE
100
AcDbBlockReference
  2
_DOTBLANK
 10
-317.5374835979164
 20
-381.9999999999994
 30
0.0
 41
12.0
 42
12.0
 43
12.0
 50
270.0
  0
LINE
  5
2749
330
2862
100
AcDbEntity
  8
SIZE
100
AcDbLine
 10
184.5
 20
-402.0
 30
0.0
 11
184.5
 21
-563.3537124356696
 31
0.0
  0
LINE
  5
274A
330
2862
100
AcDbEntity
  8
SIZE
100
AcDbLine
 10
-184.5
 20
-401.9999999999994
 30
0.0
 11
-184.5
 21
-563.3537124356696
 31
0.0
  0
LINE
  5
274B
330
2862
100
AcDbEntity
  8
SIZE
100
AcDbLine
 10
172.5
 20
-543.3537124356697
 30
0.0
 11
-172.5
 21
-543.3537124356697
 31
0.0
  0
INSERT
  5
274C
330
2862
100
AcDbEntity
  8
SIZE
100
AcDbBlockReference
  2
_DOTBLANK
 10
184.5
 20
-543.3537124356697
 30
0.0
 41
12.0
 42
12.0
 43
12.0
  0
INSERT
  5
274D
330
2862
100
AcDbEntity
  8
SIZE
100
AcDbBlockReference
  2
_DOTBLANK
 10
-184.5
 20
-543.3537124356697
 30
0.0
 41
12.0
 42
12.0
 43
12.0
 50
180.0
  0
LINE
  5
274E
330
2862
100
AcDbEntity
  8
SIZE
100
AcDbLine
 10
227.5
 20
0.0
 30
0.0
 11
312.8732907254053
 21
0.0
 31
0.0
  0
LINE
  5
274F
330
2862
100
AcDbEntity
  8
SIZE
100
AcDbLine
 10
227.5
 20
-10.0
 30
0.0
 11
312.8732907254053
 21
-10.0
 31
0.0
  0
LINE
  5
2750
330
2862
100
AcDbEntity
  8
SIZE
100
AcDbLine
 10
292.873290725405
 20
12.0
 30
0.0
 11
292.873290725405
 21
24.0
 31
0.0
  0
LINE
  5
2751
330
2862
100
AcDbEntity
  8
SIZE
100
AcDbLine
 10
292.873290725405
 20
-22.0
 30
0.0
 11
292.873290725405
 21
-136.2857142857142
 31
0.0
  0
INSERT
  5
2752
330
2862
100
AcDbEntity
  8
SIZE
100
AcDbBlockReference
  2
_DOTBLANK
 10
292.873290725405
 20
0.0
 30
0.0
 41
12.0
 42
12.0
 43
12.0
 50
270.0
  0
INSERT
  5
2753
330
2862
100
AcDbEntity
  8
SIZE
100
AcDbBlockReference
  2
_DOTBLANK
 10
292.873290725405
 20
-10.0
 30
0.0
 41
12.0
 42
12.0
 43
12.0
 50
90.0
  0
TEXT
  5
2754
330
2862
100
AcDbEntity
  8
SIZE
100
AcDbText
 10
-68.57142857142865
 20
287.4865929365169
 30
0.0
 40
64.0
  1
415
 41
0.9
100
AcDbText
  0
TEXT
  5
2755
330
2862
100
AcDbEntity
  8
SIZE
100
AcDbText
 10
-74.61302049113966
 20
168.9320910096176
 30
0.0
 40
64.0
  1
380
 41
0.9
100
AcDbText
  0
TEXT
  5
2756
330
2862
100
AcDbEntity
  8
SIZE
100
AcDbText
 10
282.873290725405
 20
-126.2857142857142
 30
0.0
 40
64.0
  1
10
 50
90.0
 41
0.9
100
AcDbText
  0
TEXT
  5
2757
330
2862
100
AcDbEntity
  8
SIZE
100
AcDbText
 10
-72.6857142857143
 20
-533.3537124356698
 30
0.0
 40
64.0
  1
369
 41
0.9
100
AcDbText
  0
TEXT
  5
2758
330
2862
100
AcDbEntity
  8
SIZE
100
AcDbText
 10
-327.5374835979164
 20
-510.2857142857143
 30
0.0
 40
64.0
  1
12
 50
90.0
 41
0.9
100
AcDbText
  0
TEXT
  5
2759
330
2862
100
AcDbEntity
  8
SIZE
100
AcDbText
 10
-327.5374835979164
 20
-265.0571428571427
 30
0.0
 40
64.0
  1
382
 50
90.0
 41
0.9
100
AcDbText
  0
ENDSEC
  0
SECTION
  2
OBJECTS
  0
DICTIONARY
  5
27FA
330
0
100
AcDbDictionary
281
     1
  3
ACAD_2007HEADERVARS_RT
350
2A50
  3
ACAD_COLOR
350
2858
  3
ACAD_GROUP
350
27FB
  3
ACAD_LAYOUT
350
2857
  3
ACAD_MATERIAL
350
27FE
  3
ACAD_MLEADERSTYLE
350
285B
  3
ACAD_MLINESTYLE
350
2854
  3
ACAD_PLOTSETTINGS
350
2856
  3
ACAD_PLOTSTYLENAME
350
27FC
  3
ACAD_SCALELIST
350
2828
  3
ACAD_TABLESTYLE
350
2859
  3
ACAD_VISUALSTYLE
350
2817
  3
ACDB_RECOMPOSE_DATA
350
2A4E
  3
AcDbVariableDictionary
350
2A45
  3
AcmDictionary
350
29F8
  3
AMG
350
2945
  3
DWGPROPS
350
2A4F
  3
MAPISURF_MODULE
350
29C5
  0
DICTIONARY
  5
2A20
330
284A
100
AcDbDictionary
280
     1
281
     1
  3
ADSK_XREC_LAYER_RECONCILED
360
2A21
  0
DICTIONARY
  5
2A22
330
2879
100
AcDbDictionary
280
     1
281
     1
  3
ADSK_XREC_LAYER_RECONCILED
360
2A23
  0
DICTIONARY
  5
2A24
330
287A
100
AcDbDictionary
280
     1
281
     1
  3
ADSK_XREC_LAYER_RECONCILED
360
2A25
  0
DICTIONARY
  5
2A26
330
287B
100
AcDbDictionary
280
     1
281
     1
  3
ADSK_XREC_LAYER_RECONCILED
360
2A27
  0
DICTIONARY
  5
2A28
330
287C
100
AcDbDictionary
280
     1
281
     1
  3
ADSK_XREC_LAYER_RECONCILED
360
2A29
  0
DICTIONARY
  5
2A2A
330
287D
100
AcDbDictionary
280
     1
281
     1
  3
ADSK_XREC_LAYER_RECONCILED
360
2A2B
  0
DICTIONARY
  5
2A2C
330
287F
100
AcDbDictionary
280
     1
281
     1
  3
ADSK_XREC_LAYER_RECONCILED
360
2A2D
  0
DICTIONARY
  5
2A2E
330
2880
100
AcDbDictionary
280
     1
281
     1
  3
ADSK_XREC_LAYER_RECONCILED
360
2A2F
  0
DICTIONARY
  5
2A30
330
2881
100
AcDbDictionary
280
     1
281
     1
  3
ADSK_XREC_LAYER_RECONCILED
360
2A31
  0
DICTIONARY
  5
2A32
330
2882
100
AcDbDictionary
280
     1
281
     1
  3
ADSK_XREC_LAYER_RECONCILED
360
2A33
  0
DICTIONARY
  5
2A34
330
2883
100
AcDbDictionary
280
     1
281
     1
  3
ADSK_XREC_LAYER_RECONCILED
360
2A35
  0
DICTIONARY
  5
2A36
330
2862
100
AcDbDictionary
280
     1
281
     1
  3
ACAD_INDEX
360
2A37
  0
DICTIONARY
  5
2A50
102
{ACAD_REACTORS
330
27FA
102
}
330
27FA
100
AcDbDictionary
281
     1
  3
DIMARCSYM
350
2A51
  3
DIMLTEX1
350
2A53
  3
DIMLTEX2
350
2A54
  3
DIMLTYPE
350
2A52
  0
DICTIONARY
  5
2858
102
{ACAD_REACTORS
330
27FA
102
}
330
27FA
100
AcDbDictionary
281
     1
  0
DICTIONARY
  5
27FB
102
{ACAD_REACTORS
330
27FA
102
}
330
27FA
100
AcDbDictionary
281
     1
  0
DICTIONARY
  5
2857
102
{ACAD_REACTORS
330
27FA
102
}
330
27FA
100
AcDbDictionary
281
     1
  3
Model
350
2865
  3
レイアウト1
350
2861
  0
DICTIONARY
  5
27FE
102
{ACAD_REACTORS
330
27FA
102
}
330
27FA
100
AcDbDictionary
281
     1
  3
ByBlock
350
2807
  3
ByLayer
350
27FF
  3
Global
350
280F
  0
DICTIONARY
  5
285B
102
{ACAD_REACTORS
330
27FA
102
}
330
27FA
100
AcDbDictionary
281
     1
  3
Standard
350
285C
  0
DICTIONARY
  5
2854
102
{ACAD_REACTORS
330
27FA
102
}
330
27FA
100
AcDbDictionary
281
     1
  3
Standard
350
2855
  0
DICTIONARY
  5
2856
102
{ACAD_REACTORS
330
27FA
102
}
330
27FA
100
AcDbDictionary
281
     1
  0
ACDBDICTIONARYWDFLT
  5
27FC
102
{ACAD_REACTORS
330
27FA
102
}
330
27FA
100
AcDbDictionary
281
     1
  3
Normal
350
27FD
100
AcDbDictionaryWithDefault
340
27FD
  0
DICTIONARY
  5
2828
102
{ACAD_REACTORS
330
27FA
102
}
330
27FA
100
AcDbDictionary
281
     1
  3
A0
350
2829
  3
A1
350
282A
  3
A2
350
282B
  3
A3
350
282C
  3
A4
350
282D
  3
A5
350
282E
  3
A6
350
282F
  3
A7
350
2830
  3
A8
350
2831
  3
A9
350
2832
  3
B0
350
2833
  3
B1
350
2834
  3
B2
350
2835
  3
B3
350
2836
  3
B4
350
2837
  3
B5
350
2838
  3
B6
350
2839
  3
B7
350
283A
  3
B8
350
283B
  3
B9
350
283C
  3
C0
350
283D
  3
C1
350
283E
  3
C2
350
283F
  3
C3
350
2840
  3
C4
350
2841
  3
C5
350
2842
  3
C6
350
2843
  3
C7
350
2844
  3
C8
350
2845
  3
C9
350
2846
  3
D0
350
2847
  3
D1
350
2848
  3
D2
350
2849
  0
DICTIONARY
  5
2859
102
{ACAD_REACTORS
330
27FA
102
}
330
27FA
100
AcDbDictionary
281
     1
  3
Standard
350
285A
  0
DICTIONARY
  5
2817
102
{ACAD_REACTORS
330
27FA
102
}
330
27FA
100
AcDbDictionary
281
     1
  3
2dWireframe
350
281D
  3
3D Hidden
350
281F
  3
3dWireframe
350
281E
  3
Basic
350
281C
  3
Brighten
350
2823
  3
ColorChange
350
2827
  3
Conceptual
350
2820
  3
Dim
350
2822
  3
Facepattern
350
2826
  3
Flat
350
2818
  3
FlatWithEdges
350
2819
  3
Gouraud
350
281A
  3
GouraudWithEdges
350
281B
  3
Linepattern
350
2825
  3
Realistic
350
2821
  3
Thicken
350
2824
  0
XRECORD
  5
2A4E
102
{ACAD_REACTORS
330
27FA
102
}
330
27FA
100
AcDbXrecord
280
     1
 90
        1
330
285A
  0
DICTIONARY
  5
2A45
102
{ACAD_REACTORS
330
27FA
102
}
330
27FA
100
AcDbDictionary
281
     1
  3
CANNOSCALE
350
2A48
  3
CMLEADERSTYLE
350
2A47
  3
CTABLESTYLE
350
2A46
  3
DIMASSOC
350
2A4B
  3
INDEXCTL
350
2A4A
  3
SORTENTS
350
2A49
  0
DICTIONARY
  5
29F8
102
{ACAD_REACTORS
330
27FA
102
}
330
27FA
100
AcDbDictionary
281
     1
  3
AcmStdDictionary
350
2A06
  0
DICTIONARY
  5
2945
102
{ACAD_REACTORS
330
27FA
102
}
330
27FA
100
AcDbDictionary
281
     1
  3
AcMgSettings
350
2946
  0
XRECORD
  5
2A4F
102
{ACAD_REACTORS
330
27FA
102
}
330
27FA
100
AcDbXrecord
280
     1
  1
DWGPROPS COOKIE
  2

  3

  4

  6

  7

  8
A090053
  9

300
AmdtFileType=84
301
=
302
=
303
=
304
=
305
=
306
=
307
=
308
=
309
=
 40
1.050982013888888
 41
2452321.396199653
 42
2456212.812533542
  1

 90
        1
  0
XRECORD
  5
2A21
102
{ACAD_REACTORS
330
2A20
102
}
330
2A20
100
AcDbXrecord
280
     1
290
     1
  0
XRECORD
  5
2A23
102
{ACAD_REACTORS
330
2A22
102
}
330
2A22
100
AcDbXrecord
280
     1
290
     1
  0
XRECORD
  5
2A25
102
{ACAD_REACTORS
330
2A24
102
}
330
2A24
100
AcDbXrecord
280
     1
290
     1
  0
XRECORD
  5
2A27
102
{ACAD_REACTORS
330
2A26
102
}
330
2A26
100
AcDbXrecord
280
     1
290
     1
  0
XRECORD
  5
2A29
102
{ACAD_REACTORS
330
2A28
102
}
330
2A28
100
AcDbXrecord
280
     1
290
     1
  0
XRECORD
  5
2A2B
102
{ACAD_REACTORS
330
2A2A
102
}
330
2A2A
100
AcDbXrecord
280
     1
290
     1
  0
XRECORD
  5
2A2D
102
{ACAD_REACTORS
330
2A2C
102
}
330
2A2C
100
AcDbXrecord
280
     1
290
     1
  0
XRECORD
  5
2A2F
102
{ACAD_REACTORS
330
2A2E
102
}
330
2A2E
100
AcDbXrecord
280
     1
290
     1
  0
XRECORD
  5
2A31
102
{ACAD_REACTORS
330
2A30
102
}
330
2A30
100
AcDbXrecord
280
     1
290
     1
  0
XRECORD
  5
2A33
102
{ACAD_REACTORS
330
2A32
102
}
330
2A32
100
AcDbXrecord
280
     1
290
     1
  0
XRECORD
  5
2A35
102
{ACAD_REACTORS
330
2A34
102
}
330
2A34
100
AcDbXrecord
280
     1
290
     1
  0
DICTIONARY
  5
2A37
102
{ACAD_REACTORS
330
2A36
102
}
330
2A36
100
AcDbDictionary
281
     1
  3
*A1
350
2A38
  0
XRECORD
  5
2A51
102
{ACAD_REACTORS
330
2A50
102
}
330
2A50
100
AcDbXrecord
280
     1
 70
     1
  0
XRECORD
  5
2A53
102
{ACAD_REACTORS
330
2A50
102
}
330
2A50
100
AcDbXrecord
280
     1
340
2850
  0
XRECORD
  5
2A54
102
{ACAD_REACTORS
330
2A50
102
}
330
2A50
100
AcDbXrecord
280
     1
340
2850
  0
XRECORD
  5
2A52
102
{ACAD_REACTORS
330
2A50
102
}
330
2A50
100
AcDbXrecord
280
     1
340
2850
  0
LAYOUT
  5
2865
102
{ACAD_XDICTIONARY
360
2A5B
102
}
102
{ACAD_REACTORS
330
2857
102
}
330
2857
100
AcDbPlotSettings
  1

  2
自動 EPSON LP-9600S (W2450527 上)
  4

  6

 40
0.0
 41
0.0
 42
0.0
 43
0.0
 44
0.0
 45
0.0
 46
0.0
 47
0.0
 48
0.0
 49
0.0
140
0.0
141
0.0
142
1.0
143
1.0
 70
  1712
 72
     0
 73
     0
 74
     0
  7

 75
     0
147
1.0
148
0.0
149
0.0
100
AcDbLayout
  1
Model
 70
     1
 71
     0
 10
0.0
 20
0.0
 11
12.0
 21
9.0
 12
0.0
 22
0.0
 32
0.0
 14
0.0
 24
0.0
 34
0.0
 15
0.0
 25
0.0
 35
0.0
146
0.0
 13
0.0
 23
0.0
 33
0.0
 16
1.0
 26
0.0
 36
0.0
 17
0.0
 27
1.0
 37
0.0
 76
     0
330
2862
331
2866
  0
LAYOUT
  5
2861
102
{ACAD_XDICTIONARY
360
2A59
102
}
102
{ACAD_REACTORS
330
2857
102
}
330
2857
100
AcDbPlotSettings
  1

  2
自動 EPSON LP-9600S (W2450527 上)
  4

  6

 40
0.0
 41
0.0
 42
0.0
 43
0.0
 44
0.0
 45
0.0
 46
0.0
 47
0.0
 48
0.0
 49
0.0
140
0.0
141
0.0
142
1.0
143
1.0
 70
   688
 72
     0
 73
     0
 74
     5
  7

 75
    16
147
1.0
148
0.0
149
0.0
100
AcDbLayout
  1
レイアウト1
 70
     1
 71
     1
 10
0.0
 20
0.0
 11
12.0
 21
9.0
 12
0.0
 22
0.0
 32
0.0
 14
1.000000000000000E+20
 24
1.000000000000000E+20
 34
1.000000000000000E+20
 15
-1.000000000000000E+20
 25
-1.000000000000000E+20
 35
-1.000000000000000E+20
146
0.0
 13
0.0
 23
0.0
 33
0.0
 16
1.0
 26
0.0
 36
0.0
 17
0.0
 27
1.0
 37
0.0
 76
     0
330
285E
  0
MATERIAL
  5
2807
102
{ACAD_XDICTIONARY
360
2808
102
}
102
{ACAD_REACTORS
330
27FE
102
}
330
27FE
100
AcDbMaterial
  1
ByBlock
 72
     0
 43
0.0208333333333333
 43
0.0
 43
0.0
 43
0.0
 43
0.0
 43
0.0208333333333333
 43
0.0
 43
0.0
 43
0.0
 43
0.0
 43
1.0
 43
0.0
 43
0.0
 43
0.0
 43
0.0
 43
1.0
 77
     0
 47
0.0208333333333333
 47
0.0
 47
0.0
 47
0.0
 47
0.0
 47
0.0208333333333333
 47
0.0
 47
0.0
 47
0.0
 47
0.0
 47
1.0
 47
0.0
 47
0.0
 47
0.0
 47
0.0
 47
1.0
171
     0
 49
0.0208333333333333
 49
0.0
 49
0.0
 49
0.0
 49
0.0
 49
0.0208333333333333
 49
0.0
 49
0.0
 49
0.0
 49
0.0
 49
1.0
 49
0.0
 49
0.0
 49
0.0
 49
0.0
 49
1.0
175
     0
142
0.0208333333333333
142
0.0
142
0.0
142
0.0
142
0.0
142
0.0208333333333333
142
0.0
142
0.0
142
0.0
142
0.0
142
1.0
142
0.0
142
0.0
142
0.0
142
0.0
142
1.0
179
     0
144
0.0208333333333333
144
0.0
144
0.0
144
0.0
144
0.0
144
0.0208333333333333
144
0.0
144
0.0
144
0.0
144
0.0
144
1.0
144
0.0
144
0.0
144
0.0
144
0.0
144
1.0
147
0.0208333333333333
147
0.0
147
0.0
147
0.0
147
0.0
147
0.0208333333333333
147
0.0
147
0.0
147
0.0
147
0.0
147
1.0
147
0.0
147
0.0
147
0.0
147
0.0
147
1.0
  0
MATERIAL
  5
27FF
102
{ACAD_XDICTIONARY
360
2800
102
}
102
{ACAD_REACTORS
330
27FE
102
}
330
27FE
100
AcDbMaterial
  1
ByLayer
 72
     0
 43
0.0208333333333333
 43
0.0
 43
0.0
 43
0.0
 43
0.0
 43
0.0208333333333333
 43
0.0
 43
0.0
 43
0.0
 43
0.0
 43
1.0
 43
0.0
 43
0.0
 43
0.0
 43
0.0
 43
1.0
 77
     0
 47
0.0208333333333333
 47
0.0
 47
0.0
 47
0.0
 47
0.0
 47
0.0208333333333333
 47
0.0
 47
0.0
 47
0.0
 47
0.0
 47
1.0
 47
0.0
 47
0.0
 47
0.0
 47
0.0
 47
1.0
171
     0
 49
0.0208333333333333
 49
0.0
 49
0.0
 49
0.0
 49
0.0
 49
0.0208333333333333
 49
0.0
 49
0.0
 49
0.0
 49
0.0
 49
1.0
 49
0.0
 49
0.0
 49
0.0
 49
0.0
 49
1.0
175
     0
142
0.0208333333333333
142
0.0
142
0.0
142
0.0
142
0.0
142
0.0208333333333333
142
0.0
142
0.0
142
0.0
142
0.0
142
1.0
142
0.0
142
0.0
142
0.0
142
0.0
142
1.0
179
     0
144
0.0208333333333333
144
0.0
144
0.0
144
0.0
144
0.0
144
0.0208333333333333
144
0.0
144
0.0
144
0.0
144
0.0
144
1.0
144
0.0
144
0.0
144
0.0
144
0.0
144
1.0
147
0.0208333333333333
147
0.0
147
0.0
147
0.0
147
0.0
147
0.0208333333333333
147
0.0
147
0.0
147
0.0
147
0.0
147
1.0
147
0.0
147
0.0
147
0.0
147
0.0
147
1.0
  0
MATERIAL
  5
280F
102
{ACAD_XDICTIONARY
360
2810
102
}
102
{ACAD_REACTORS
330
27FE
102
}
330
27FE
100
AcDbMaterial
  1
Global
 72
     0
 43
0.0208333333333333
 43
0.0
 43
0.0
 43
0.0
 43
0.0
 43
0.0208333333333333
 43
0.0
 43
0.0
 43
0.0
 43
0.0
 43
1.0
 43
0.0
 43
0.0
 43
0.0
 43
0.0
 43
1.0
 77
     0
 47
0.0208333333333333
 47
0.0
 47
0.0
 47
0.0
 47
0.0
 47
0.0208333333333333
 47
0.0
 47
0.0
 47
0.0
 47
0.0
 47
1.0
 47
0.0
 47
0.0
 47
0.0
 47
0.0
 47
1.0
171
     0
 49
0.0208333333333333
 49
0.0
 49
0.0
 49
0.0
 49
0.0
 49
0.0208333333333333
 49
0.0
 49
0.0
 49
0.0
 49
0.0
 49
1.0
 49
0.0
 49
0.0
 49
0.0
 49
0.0
 49
1.0
175
     0
142
0.0208333333333333
142
0.0
142
0.0
142
0.0
142
0.0
142
0.0208333333333333
142
0.0
142
0.0
142
0.0
142
0.0
142
1.0
142
0.0
142
0.0
142
0.0
142
0.0
142
1.0
179
     0
144
0.0208333333333333
144
0.0
144
0.0
144
0.0
144
0.0
144
0.0208333333333333
144
0.0
144
0.0
144
0.0
144
0.0
144
1.0
144
0.0
144
0.0
144
0.0
144
0.0
144
1.0
147
0.0208333333333333
147
0.0
147
0.0
147
0.0
147
0.0
147
0.0208333333333333
147
0.0
147
0.0
147
0.0
147
0.0
147
1.0
147
0.0
147
0.0
147
0.0
147
0.0
147
1.0
  0
MLEADERSTYLE
  5
285C
102
{ACAD_REACTORS
330
285B
102
}
330
285B
100
AcDbMLeaderStyle
170
     2
171
     1
172
     0
 90
        2
 40
0.0
 41
0.0
173
     1
 91
-1056964608
340
2850
 92
       -2
290
     1
 42
0.09
291
     1
 43
0.36
  3
Standard
 44
0.18
300

342
284B
174
     1
178
     6
175
     1
176
     0
 93
-1056964608
 45
0.18
292
     0
297
     0
 46
0.18
 94
-1056964608
 47
1.0
 49
1.0
140
1.0
293
     1
141
0.0
294
     1
177
     0
142
1.0
295
     0
296
     0
143
0.125
1001
ACAD_MLEADERVER
1070
     2
  0
MLINESTYLE
  5
2855
102
{ACAD_REACTORS
330
2854
102
}
330
2854
100
AcDbMlineStyle
  2
STANDARD
 70
     0
  3

 62
   256
 51
90.0
 52
90.0
 71
     2
 49
0.5
 62
   256
  6
BYLAYER
 49
-0.5
 62
   256
  6
BYLAYER
  0
ACDBPLACEHOLDER
  5
27FD
102
{ACAD_REACTORS
330
27FC
102
}
330
27FC
  0
SCALE
  5
2829
102
{ACAD_REACTORS
330
2828
102
}
330
2828
100
AcDbScale
 70
     0
300
1:1
140
1.0
141
1.0
290
     1
  0
SCALE
  5
282A
102
{ACAD_REACTORS
330
2828
102
}
330
2828
100
AcDbScale
 70
     0
300
1:2
140
1.0
141
2.0
290
     0
  0
SCALE
  5
282B
102
{ACAD_REACTORS
330
2828
102
}
330
2828
100
AcDbScale
 70
     0
300
1:4
140
1.0
141
4.0
290
     0
  0
SCALE
  5
282C
102
{ACAD_REACTORS
330
2828
102
}
330
2828
100
AcDbScale
 70
     0
300
1:5
140
1.0
141
5.0
290
     0
  0
SCALE
  5
282D
102
{ACAD_REACTORS
330
2828
102
}
330
2828
100
AcDbScale
 70
     0
300
1:8
140
1.0
141
8.0
290
     0
  0
SCALE
  5
282E
102
{ACAD_REACTORS
330
2828
102
}
330
2828
100
AcDbScale
 70
     0
300
1:10
140
1.0
141
10.0
290
     0
  0
SCALE
  5
282F
102
{ACAD_REACTORS
330
2828
102
}
330
2828
100
AcDbScale
 70
     0
300
1:16
140
1.0
141
16.0
290
     0
  0
SCALE
  5
2830
102
{ACAD_REACTORS
330
2828
102
}
330
2828
100
AcDbScale
 70
     0
300
1:20
140
1.0
141
20.0
290
     0
  0
SCALE
  5
2831
102
{ACAD_REACTORS
330
2828
102
}
330
2828
100
AcDbScale
 70
     0
300
1:30
140
1.0
141
30.0
290
     0
  0
SCALE
  5
2832
102
{ACAD_REACTORS
330
2828
102
}
330
2828
100
AcDbScale
 70
     0
300
1:40
140
1.0
141
40.0
290
     0
  0
SCALE
  5
2833
102
{ACAD_REACTORS
330
2828
102
}
330
2828
100
AcDbScale
 70
     0
300
1:50
140
1.0
141
50.0
290
     0
  0
SCALE
  5
2834
102
{ACAD_REACTORS
330
2828
102
}
330
2828
100
AcDbScale
 70
     0
300
1:100
140
1.0
141
100.0
290
     0
  0
SCALE
  5
2835
102
{ACAD_REACTORS
330
2828
102
}
330
2828
100
AcDbScale
 70
     0
300
2:1
140
2.0
141
1.0
290
     0
  0
SCALE
  5
2836
102
{ACAD_REACTORS
330
2828
102
}
330
2828
100
AcDbScale
 70
     0
300
4:1
140
4.0
141
1.0
290
     0
  0
SCALE
  5
2837
102
{ACAD_REACTORS
330
2828
102
}
330
2828
100
AcDbScale
 70
     0
300
8:1
140
8.0
141
1.0
290
     0
  0
SCALE
  5
2838
102
{ACAD_REACTORS
330
2828
102
}
330
2828
100
AcDbScale
 70
     0
300
10:1
140
10.0
141
1.0
290
     0
  0
SCALE
  5
2839
102
{ACAD_REACTORS
330
2828
102
}
330
2828
100
AcDbScale
 70
     0
300
100:1
140
100.0
141
1.0
290
     0
  0
SCALE
  5
283A
102
{ACAD_REACTORS
330
2828
102
}
330
2828
100
AcDbScale
 70
     0
300
1/128" = 1'-0"
140
0.0078125
141
12.0
290
     0
  0
SCALE
  5
283B
102
{ACAD_REACTORS
330
2828
102
}
330
2828
100
AcDbScale
 70
     0
300
1/64" = 1'-0"
140
0.015625
141
12.0
290
     0
  0
SCALE
  5
283C
102
{ACAD_REACTORS
330
2828
102
}
330
2828
100
AcDbScale
 70
     0
300
1/32" = 1'-0"
140
0.03125
141
12.0
290
     0
  0
SCALE
  5
283D
102
{ACAD_REACTORS
330
2828
102
}
330
2828
100
AcDbScale
 70
     0
300
1/16" = 1'-0"
140
0.0625
141
12.0
290
     0
  0
SCALE
  5
283E
102
{ACAD_REACTORS
330
2828
102
}
330
2828
100
AcDbScale
 70
     0
300
3/32" = 1'-0"
140
0.09375
141
12.0
290
     0
  0
SCALE
  5
283F
102
{ACAD_REACTORS
330
2828
102
}
330
2828
100
AcDbScale
 70
     0
300
1/8" = 1'-0"
140
0.125
141
12.0
290
     0
  0
SCALE
  5
2840
102
{ACAD_REACTORS
330
2828
102
}
330
2828
100
AcDbScale
 70
     0
300
3/16" = 1'-0"
140
0.1875
141
12.0
290
     0
  0
SCALE
  5
2841
102
{ACAD_REACTORS
330
2828
102
}
330
2828
100
AcDbScale
 70
     0
300
1/4" = 1'-0"
140
0.25
141
12.0
290
     0
  0
SCALE
  5
2842
102
{ACAD_REACTORS
330
2828
102
}
330
2828
100
AcDbScale
 70
     0
300
3/8" = 1'-0"
140
0.375
141
12.0
290
     0
  0
SCALE
  5
2843
102
{ACAD_REACTORS
330
2828
102
}
330
2828
100
AcDbScale
 70
     0
300
1/2" = 1'-0"
140
0.5
141
12.0
290
     0
  0
SCALE
  5
2844
102
{ACAD_REACTORS
330
2828
102
}
330
2828
100
AcDbScale
 70
     0
300
3/4" = 1'-0"
140
0.75
141
12.0
290
     0
  0
SCALE
  5
2845
102
{ACAD_REACTORS
330
2828
102
}
330
2828
100
AcDbScale
 70
     0
300
1" = 1'-0"
140
1.0
141
12.0
290
     0
  0
SCALE
  5
2846
102
{ACAD_REACTORS
330
2828
102
}
330
2828
100
AcDbScale
 70
     0
300
1-1/2" = 1'-0"
140
1.5
141
12.0
290
     0
  0
SCALE
  5
2847
102
{ACAD_REACTORS
330
2828
102
}
330
2828
100
AcDbScale
 70
     0
300
3" = 1'-0"
140
3.0
141
12.0
290
     0
  0
SCALE
  5
2848
102
{ACAD_REACTORS
330
2828
102
}
330
2828
100
AcDbScale
 70
     0
300
6" = 1'-0"
140
6.0
141
12.0
290
     0
  0
SCALE
  5
2849
102
{ACAD_REACTORS
330
2828
102
}
330
2828
100
AcDbScale
 70
     0
300
1'-0" = 1'-0"
140
12.0
141
12.0
290
     0
  0
TABLESTYLE
  5
285A
102
{ACAD_XDICTIONARY
360
2A4C
102
}
102
{ACAD_REACTORS
330
2859
102
}
330
2859
100
AcDbTableStyle
  3
Standard
 70
     0
 71
     0
 40
0.06
 41
0.06
280
     0
281
     0
  7
STANDARD
140
0.18
170
     2
 62
     0
 63
     7
283
     0
274
    -2
284
     1
 64
     0
275
    -2
285
     1
 65
     0
276
    -2
286
     1
 66
     0
277
    -2
287
     1
 67
     0
278
    -2
288
     1
 68
     0
279
    -2
289
     1
 69
     0
  7
STANDARD
140
0.25
170
     5
 62
     0
 63
     7
283
     0
274
    -2
284
     1
 64
     0
275
    -2
285
     1
 65
     0
276
    -2
286
     1
 66
     0
277
    -2
287
     1
 67
     0
278
    -2
288
     1
 68
     0
279
    -2
289
     1
 69
     0
  7
STANDARD
140
0.18
170
     5
 62
     0
 63
     7
283
     0
274
    -2
284
     1
 64
     0
275
    -2
285
     1
 65
     0
276
    -2
286
     1
 66
     0
277
    -2
287
     1
 67
     0
278
    -2
288
     1
 68
     0
279
    -2
289
     1
 69
     0
  0
VISUALSTYLE
  5
281D
102
{ACAD_REACTORS
330
2817
102
}
330
2817
100
AcDbVisualStyle
  2
2dWireframe
 70
     4
 71
     0
 72
     2
 73
     0
 90
        0
 40
-0.6
 41
-30.0
 62
     5
 63
     7
 74
     1
 91
        4
 64
     7
 65
   257
 75
     1
175
     1
 42
1.0
 92
        0
 66
   257
 43
1.0
 76
     1
 77
     6
 78
     2
 67
     7
 79
     5
170
     0
171
     0
290
     0
174
     0
 93
        1
 44
0.0
173
     0
291
     0
 45
0.0
1001
ACAD
1000
AcDbSavedByObjectVersion
1070
     0
  0
VISUALSTYLE
  5
281F
102
{ACAD_REACTORS
330
2817
102
}
330
2817
100
AcDbVisualStyle
  2
3D Hidden
 70
     6
 71
     1
 72
     2
 73
     2
 90
        0
 40
-0.6
 41
-30.0
 62
     5
 63
     7
 74
     2
 91
        2
 64
     7
 65
   257
 75
     2
175
     1
 42
40.0
 92
        0
 66
   257
 43
1.0
 76
     1
 77
     6
 78
     2
 67
     7
 79
     3
170
     0
171
     0
290
     0
174
     0
 93
        1
 44
0.0
173
     0
291
     0
 45
0.0
1001
ACAD
1000
AcDbSavedByObjectVersion
1070
     0
  0
VISUALSTYLE
  5
281E
102
{ACAD_REACTORS
330
2817
102
}
330
2817
100
AcDbVisualStyle
  2
3dWireframe
 70
     5
 71
     0
 72
     2
 73
     0
 90
        0
 40
-0.6
 41
-30.0
 62
     5
 63
     7
 74
     1
 91
        4
 64
     7
 65
   257
 75
     1
175
     1
 42
1.0
 92
        0
 66
   257
 43
1.0
 76
     1
 77
     6
 78
     2
 67
     7
 79
     5
170
     0
171
     0
290
     0
174
     0
 93
        1
 44
0.0
173
     0
291
     0
 45
0.0
1001
ACAD
1000
AcDbSavedByObjectVersion
1070
     0
  0
VISUALSTYLE
  5
281C
102
{ACAD_REACTORS
330
2817
102
}
330
2817
100
AcDbVisualStyle
  2
Basic
 70
     7
 71
     1
 72
     0
 73
     1
 90
        0
 40
-0.6
 41
-30.0
 62
     5
 63
     7
 74
     0
 91
        4
 64
     7
 65
   257
 75
     1
175
     1
 42
1.0
 92
        8
 66
     7
 43
1.0
 76
     1
 77
     6
 78
     2
 67
     7
 79
     5
170
     0
171
     0
290
     0
174
     0
 93
        1
 44
0.0
173
     0
291
     1
 45
0.0
1001
ACAD
1000
AcDbSavedByObjectVersion
1070
     0
  0
VISUALSTYLE
  5
2823
102
{ACAD_REACTORS
330
2817
102
}
330
2817
100
AcDbVisualStyle
  2
Brighten
 70
    12
 71
     2
 72
     2
 73
     0
 90
        0
 40
-0.6
 41
-30.0
 62
     5
 63
     7
 74
     1
 91
        4
 64
     7
 65
   257
 75
     1
175
     1
 42
1.0
 92
        8
 66
     7
 43
1.0
 76
     1
 77
     6
 78
     2
 67
     7
 79
     5
170
     0
171
     0
290
     0
174
     0
 93
        1
 44
50.0
173
     0
291
     1
 45
0.0
1001
ACAD
1000
AcDbSavedByObjectVersion
1070
     0
  0
VISUALSTYLE
  5
2827
102
{ACAD_REACTORS
330
2817
102
}
330
2817
100
AcDbVisualStyle
  2
ColorChange
 70
    16
 71
     2
 72
     2
 73
     3
 90
        0
 40
-0.6
 41
-30.0
 62
     5
 63
     8
 74
     1
 91
        4
 64
     7
 65
   257
 75
     1
175
     1
 42
1.0
 92
        8
 66
     8
 43
1.0
 76
     1
 77
     6
 78
     2
 67
     7
 79
     5
170
     0
171
     0
290
     0
174
     0
 93
        1
 44
0.0
173
     0
291
     1
 45
0.0
1001
ACAD
1000
AcDbSavedByObjectVersion
1070
     0
  0
VISUALSTYLE
  5
2820
102
{ACAD_REACTORS
330
2817
102
}
330
2817
100
AcDbVisualStyle
  2
Conceptual
 70
     9
 71
     3
 72
     2
 73
     0
 90
        0
 40
-0.6
 41
-30.0
 62
     5
 63
     7
 74
     2
 91
        2
 64
     7
 65
   257
 75
     1
175
     1
 42
40.0
 92
        8
 66
     7
 43
1.0
 76
     1
 77
     6
 78
     2
 67
     7
 79
     3
170
     0
171
     0
290
     0
174
     0
 93
        1
 44
0.0
173
     0
291
     0
 45
0.0
1001
ACAD
1000
AcDbSavedByObjectVersion
1070
     0
  0
VISUALSTYLE
  5
2822
102
{ACAD_REACTORS
330
2817
102
}
330
2817
100
AcDbVisualStyle
  2
Dim
 70
    11
 71
     2
 72
     2
 73
     0
 90
        0
 40
-0.6
 41
-30.0
 62
     5
 63
     7
 74
     1
 91
        4
 64
     7
 65
   257
 75
     1
175
     1
 42
1.0
 92
        8
 66
     7
 43
1.0
 76
     1
 77
     6
 78
     2
 67
     7
 79
     5
170
     0
171
     0
290
     0
174
     0
 93
        1
 44
-50.0
173
     0
291
     1
 45
0.0
1001
ACAD
1000
AcDbSavedByObjectVersion
1070
     0
  0
VISUALSTYLE
  5
2826
102
{ACAD_REACTORS
330
2817
102
}
330
2817
100
AcDbVisualStyle
  2
Facepattern
 70
    15
 71
     2
 72
     2
 73
     0
 90
        0
 40
-0.6
 41
-30.0
 62
     5
 63
     7
 74
     1
 91
        4
 64
     7
 65
   257
 75
     1
175
     1
 42
1.0
 92
        8
 66
     7
 43
1.0
 76
     1
 77
     6
 78
     2
 67
     7
 79
     5
170
     0
171
     0
290
     0
174
     0
 93
        1
 44
0.0
173
     0
291
     1
 45
0.0
1001
ACAD
1000
AcDbSavedByObjectVersion
1070
     0
  0
VISUALSTYLE
  5
2818
102
{ACAD_REACTORS
330
2817
102
}
330
2817
100
AcDbVisualStyle
  2
Flat
 70
     0
 71
     2
 72
     1
 73
     1
 90
        2
 40
-0.6
 41
30.0
 62
     5
 63
     7
 74
     0
 91
        4
 64
     7
 65
   257
 75
     1
175
     1
 42
1.0
 92
        8
 66
     7
 43
1.0
 76
     1
 77
     6
 78
     2
 67
     7
 79
     5
170
     0
171
     0
290
     0
174
     0
 93
       13
 44
0.0
173
     0
291
     1
 45
0.0
1001
ACAD
1000
AcDbSavedByObjectVersion
1070
     0
  0
VISUALSTYLE
  5
2819
102
{ACAD_REACTORS
330
2817
102
}
330
2817
100
AcDbVisualStyle
  2
FlatWithEdges
 70
     1
 71
     2
 72
     1
 73
     1
 90
        2
 40
-0.6
 41
30.0
 62
     5
 63
     7
 74
     1
 91
        4
 64
     7
 65
   257
 75
     1
175
     1
 42
1.0
 92
        0
 66
   257
 43
1.0
 76
     1
 77
     6
 78
     2
 67
     7
 79
     5
170
     0
171
     0
290
     0
174
     0
 93
       13
 44
0.0
173
     0
291
     1
 45
0.0
1001
ACAD
1000
AcDbSavedByObjectVersion
1070
     0
  0
VISUALSTYLE
  5
281A
102
{ACAD_REACTORS
330
2817
102
}
330
2817
100
AcDbVisualStyle
  2
Gouraud
 70
     2
 71
     2
 72
     2
 73
     1
 90
        2
 40
-0.6
 41
30.0
 62
     5
 63
     7
 74
     0
 91
        4
 64
     7
 65
   257
 75
     1
175
     1
 42
1.0
 92
        0
 66
     7
 43
1.0
 76
     1
 77
     6
 78
     2
 67
     7
 79
     5
170
     0
171
     0
290
     0
174
     0
 93
       13
 44
0.0
173
     0
291
     1
 45
0.0
1001
ACAD
1000
AcDbSavedByObjectVersion
1070
     0
  0
VISUALSTYLE
  5
281B
102
{ACAD_REACTORS
330
2817
102
}
330
2817
100
AcDbVisualStyle
  2
GouraudWithEdges
 70
     3
 71
     2
 72
     2
 73
     1
 90
        2
 40
-0.6
 41
30.0
 62
     5
 63
     7
 74
     1
 91
        4
 64
     7
 65
   257
 75
     1
175
     1
 42
1.0
 92
        0
 66
   257
 43
1.0
 76
     1
 77
     6
 78
     2
 67
     7
 79
     5
170
     0
171
     0
290
     0
174
     0
 93
       13
 44
0.0
173
     0
291
     1
 45
0.0
1001
ACAD
1000
AcDbSavedByObjectVersion
1070
     0
  0
VISUALSTYLE
  5
2825
102
{ACAD_REACTORS
330
2817
102
}
330
2817
100
AcDbVisualStyle
  2
Linepattern
 70
    14
 71
     2
 72
     2
 73
     0
 90
        0
 40
-0.6
 41
-30.0
 62
     5
 63
     7
 74
     1
 91
        4
 64
     7
 65
   257
 75
     7
175
     7
 42
1.0
 92
        8
 66
     7
 43
1.0
 76
     1
 77
     6
 78
     2
 67
     7
 79
     5
170
     0
171
     0
290
     0
174
     0
 93
        1
 44
0.0
173
     0
291
     1
 45
0.0
1001
ACAD
1000
AcDbSavedByObjectVersion
1070
     0
  0
VISUALSTYLE
  5
2821
102
{ACAD_REACTORS
330
2817
102
}
330
2817
100
AcDbVisualStyle
  2
Realistic
 70
     8
 71
     2
 72
     2
 73
     0
 90
        0
 40
-0.6
 41
-30.0
 62
     5
 63
     7
 74
     1
 91
        0
 64
     7
 65
   257
 75
     1
175
     1
 42
1.0
 92
        8
 66
     8
 43
1.0
 76
     1
 77
     6
 78
     2
 67
     7
 79
     5
170
     0
171
     0
290
     0
174
     0
 93
       13
 44
0.0
173
     0
291
     0
 45
0.0
1001
ACAD
1000
AcDbSavedByObjectVersion
1070
     0
  0
VISUALSTYLE
  5
2824
102
{ACAD_REACTORS
330
2817
102
}
330
2817
100
AcDbVisualStyle
  2
Thicken
 70
    13
 71
     2
 72
     2
 73
     0
 90
        0
 40
-0.6
 41
-30.0
 62
     5
 63
     7
 74
     1
 91
        4
 64
     7
 65
   257
 75
     1
175
     1
 42
1.0
 92
       12
 66
     7
 43
1.0
 76
     1
 77
     6
 78
     2
 67
     7
 79
     5
170
     0
171
     0
290
     0
174
     0
 93
        1
 44
0.0
173
     0
291
     1
 45
0.0
1001
ACAD
1000
AcDbSavedByObjectVersion
1070
     0
  0
DICTIONARYVAR
  5
2A48
102
{ACAD_REACTORS
330
2A45
102
}
330
2A45
100
DictionaryVariables
280
     0
  1
1:1
  0
DICTIONARYVAR
  5
2A47
102
{ACAD_REACTORS
330
2A45
102
}
330
2A45
100
DictionaryVariables
280
     0
  1
STANDARD
  0
DICTIONARYVAR
  5
2A46
102
{ACAD_REACTORS
330
2A45
102
}
330
2A45
100
DictionaryVariables
280
     0
  1
STANDARD
  0
DICTIONARYVAR
  5
2A4B
102
{ACAD_REACTORS
330
2A45
102
}
330
2A45
100
DictionaryVariables
280
     0
  1
1
  0
DICTIONARYVAR
  5
2A4A
102
{ACAD_REACTORS
330
2A45
102
}
330
2A45
100
DictionaryVariables
280
     0
  1
1
  0
DICTIONARYVAR
  5
2A49
102
{ACAD_REACTORS
330
2A45
102
}
330
2A45
100
DictionaryVariables
280
     0
  1
127
  0
DICTIONARY
  5
2A06
102
{ACAD_REACTORS
330
29F8
102
}
330
29F8
100
AcDbDictionary
281
     1
  0
DICTIONARY
  5
2946
102
{ACAD_REACTORS
330
2945
102
}
330
2945
100
AcDbDictionary
281
     1
  3
DWGSETTINGS
350
2947
  3
TRANSSETTINGS
350
2948
  0
LAYER_INDEX
  5
2A38
102
{ACAD_REACTORS
330
2A37
102
}
330
2A37
100
AcDbIndex
 40
2456212.812533542
100
AcDbLayerIndex
  8
0
360
2A39
 90
        2
  8
OUTLINE
360
2A3A
 90
       21
  8
SIZE
360
2A3B
 90
       38
  8
BASIS
360
2A3C
 90
        1
  8
DETAIL
360
2A3D
 90
       25
  8
ARRANGE
360
2A3E
 90
        2
  8
DEFPOINTS
360
2A3F
 90
        0
  8
ETC
360
2A40
 90
        3
  8
FIX
360
2A41
 90
        0
  8
NOTE
360
2A42
 90
        4
  8
SERVICESPACE
360
2A43
 90
        0
  8
SYMBOLLINE
360
2A44
 90
        0
  0
DICTIONARY
  5
2A5B
330
2865
100
AcDbDictionary
280
     1
281
     1
  3
ACAD_XREC_ROUNDTRIP
360
2A5C
  0
DICTIONARY
  5
2A59
330
2861
100
AcDbDictionary
280
     1
281
     1
  3
ACAD_XREC_ROUNDTRIP
360
2A5A
  0
DICTIONARY
  5
2808
330
2807
100
AcDbDictionary
280
     1
281
     1
  3
ACAD_XREC_ROUNDTRIP
360
2A56
  3
BUMPTILE
360
280A
  3
DIFFUSETILE
360
2809
  3
OPACITYTILE
360
280D
  3
REFLECTIONTILE
360
280C
  3
REFRACTIONTILE
360
280E
  3
SPECULARTILE
360
280B
  0
DICTIONARY
  5
2800
330
27FF
100
AcDbDictionary
280
     1
281
     1
  3
ACAD_XREC_ROUNDTRIP
360
2A55
  3
BUMPTILE
360
2802
  3
DIFFUSETILE
360
2801
  3
OPACITYTILE
360
2805
  3
REFLECTIONTILE
360
2804
  3
REFRACTIONTILE
360
2806
  3
SPECULARTILE
360
2803
  0
DICTIONARY
  5
2810
330
280F
100
AcDbDictionary
280
     1
281
     1
  3
ACAD_XREC_ROUNDTRIP
360
2A57
  3
BUMPTILE
360
2812
  3
DIFFUSETILE
360
2811
  3
OPACITYTILE
360
2815
  3
REFLECTIONTILE
360
2814
  3
REFRACTIONTILE
360
2816
  3
SPECULARTILE
360
2813
  0
DICTIONARY
  5
2A4C
330
285A
100
AcDbDictionary
280
     1
281
     1
  3
ACAD_ROUNDTRIP_2008_TABLESTYLE_CELLSTYLEMAP
360
2A4D
  3
ACAD_XREC_ROUNDTRIP
360
2A58
  0
IDBUFFER
  5
2A39
330
0
100
AcDbIdBuffer
330
271B
330
271C
  0
IDBUFFER
  5
2A3A
330
0
100
AcDbIdBuffer
330
2729
330
272A
330
272B
330
272C
330
272D
330
953
330
954
330
955
330
956
330
957
330
958
330
271F
330
2720
330
2721
330
2722
330
2723
330
2724
330
2725
330
2726
330
2727
330
2728
  0
IDBUFFER
  5
2A3B
330
0
100
AcDbIdBuffer
330
2744
330
2745
330
2746
330
2747
330
2748
330
2749
330
274A
330
274B
330
274C
330
274D
330
274E
330
274F
330
2750
330
2751
330
2752
330
2753
330
2754
330
2755
330
2756
330
2757
330
2758
330
2759
330
2734
330
2735
330
2736
330
2737
330
2738
330
2739
330
273A
330
273B
330
273C
330
273D
330
273E
330
273F
330
2740
330
2741
330
2742
330
2743
  0
IDBUFFER
  5
2A3C
330
0
100
AcDbIdBuffer
330
270B
  0
IDBUFFER
  5
2A3D
330
0
100
AcDbIdBuffer
330
2718
330
2719
330
271A
330
272E
330
272F
330
2730
330
2731
330
2732
330
2733
330
2704
330
2705
330
2706
330
2707
330
2708
330
2709
330
270A
330
270C
330
270D
330
270E
330
270F
330
2711
330
2712
330
2713
330
2716
330
2717
  0
IDBUFFER
  5
2A3E
330
0
100
AcDbIdBuffer
330
2703
330
2714
  0
IDBUFFER
  5
2A3F
330
0
100
AcDbIdBuffer
  0
IDBUFFER
  5
2A40
330
0
100
AcDbIdBuffer
330
2700
330
2701
330
2702
  0
IDBUFFER
  5
2A41
330
0
100
AcDbIdBuffer
  0
IDBUFFER
  5
2A42
330
0
100
AcDbIdBuffer
330
2710
330
2715
330
271D
330
271E
  0
IDBUFFER
  5
2A43
330
0
100
AcDbIdBuffer
  0
IDBUFFER
  5
2A44
330
0
100
AcDbIdBuffer
  0
XRECORD
  5
2A5C
102
{ACAD_REACTORS
330
2A5B
102
}
330
2A5B
100
AcDbXrecord
280
     1
102
SHADEPLOT
 70
     0
102
SHADEPLOTRESLEVEL
 70
     2
102
SHADEPLOTCUSTOMDPI
 70
   300
  0
XRECORD
  5
2A5A
102
{ACAD_REACTORS
330
2A59
102
}
330
2A59
100
AcDbXrecord
280
     1
102
SHADEPLOT
 70
     0
102
SHADEPLOTRESLEVEL
 70
     2
102
SHADEPLOTCUSTOMDPI
 70
   300
  0
XRECORD
  5
2A56
102
{ACAD_REACTORS
330
2808
102
}
330
2808
100
AcDbXrecord
280
     1
102
MATERIAL
148
0.0
149
0.0
149
0.0
 93
        0
 94
      127
282
     0
 72
     0
 77
     0
171
     0
175
     0
179
     0
273
     0
  0
XRECORD
  5
280A
102
{ACAD_REACTORS
330
2808
102
}
330
2808
100
AcDbXrecord
280
     1
270
     1
271
     1
  0
XRECORD
  5
2809
102
{ACAD_REACTORS
330
2808
102
}
330
2808
100
AcDbXrecord
280
     1
270
     1
271
     1
  0
XRECORD
  5
280D
102
{ACAD_REACTORS
330
2808
102
}
330
2808
100
AcDbXrecord
280
     1
270
     1
271
     1
  0
XRECORD
  5
280C
102
{ACAD_REACTORS
330
2808
102
}
330
2808
100
AcDbXrecord
280
     1
270
     1
271
     1
  0
XRECORD
  5
280E
102
{ACAD_REACTORS
330
2808
102
}
330
2808
100
AcDbXrecord
280
     1
270
     1
271
     1
  0
XRECORD
  5
280B
102
{ACAD_REACTORS
330
2808
102
}
330
2808
100
AcDbXrecord
280
     1
270
     1
271
     1
  0
XRECORD
  5
2A55
102
{ACAD_REACTORS
330
2800
102
}
330
2800
100
AcDbXrecord
280
     1
102
MATERIAL
148
0.0
149
0.0
149
0.0
 93
        0
 94
      127
282
     0
 72
     0
 77
     0
171
     0
175
     0
179
     0
273
     0
  0
XRECORD
  5
2802
102
{ACAD_REACTORS
330
2800
102
}
330
2800
100
AcDbXrecord
280
     1
270
     1
271
     1
  0
XRECORD
  5
2801
102
{ACAD_REACTORS
330
2800
102
}
330
2800
100
AcDbXrecord
280
     1
270
     1
271
     1
  0
XRECORD
  5
2805
102
{ACAD_REACTORS
330
2800
102
}
330
2800
100
AcDbXrecord
280
     1
270
     1
271
     1
  0
XRECORD
  5
2804
102
{ACAD_REACTORS
330
2800
102
}
330
2800
100
AcDbXrecord
280
     1
270
     1
271
     1
  0
XRECORD
  5
2806
102
{ACAD_REACTORS
330
2800
102
}
330
2800
100
AcDbXrecord
280
     1
270
     1
271
     1
  0
XRECORD
  5
2803
102
{ACAD_REACTORS
330
2800
102
}
330
2800
100
AcDbXrecord
280
     1
270
     1
271
     1
  0
XRECORD
  5
2A57
102
{ACAD_REACTORS
330
2810
102
}
330
2810
100
AcDbXrecord
280
     1
102
MATERIAL
148
0.0
149
0.0
149
0.0
 93
        0
 94
      127
282
     0
 72
     0
 77
     0
171
     0
175
     0
179
     0
273
     0
  0
XRECORD
  5
2812
102
{ACAD_REACTORS
330
2810
102
}
330
2810
100
AcDbXrecord
280
     1
270
     1
271
     1
  0
XRECORD
  5
2811
102
{ACAD_REACTORS
330
2810
102
}
330
2810
100
AcDbXrecord
280
     1
270
     1
271
     1
  0
XRECORD
  5
2815
102
{ACAD_REACTORS
330
2810
102
}
330
2810
100
AcDbXrecord
280
     1
270
     1
271
     1
  0
XRECORD
  5
2814
102
{ACAD_REACTORS
330
2810
102
}
330
2810
100
AcDbXrecord
280
     1
270
     1
271
     1
  0
XRECORD
  5
2816
102
{ACAD_REACTORS
330
2810
102
}
330
2810
100
AcDbXrecord
280
     1
270
     1
271
     1
  0
XRECORD
  5
2813
102
{ACAD_REACTORS
330
2810
102
}
330
2810
100
AcDbXrecord
280
     1
270
     1
271
     1
  0
CELLSTYLEMAP
  5
2A4D
102
{ACAD_REACTORS
330
2A4C
102
}
330
2A4C
100
AcDbCellStyleMap
 90
        3
300
CELLSTYLE
  1
TABLEFORMAT_BEGIN
 90
        5
170
     1
 91
        0
 92
    32768
 62
   257
 93
        1
300
CONTENTFORMAT
  1
CONTENTFORMAT_BEGIN
 90
        0
 91
        0
 92
      512
 93
        0
300

 40
0.0
140
1.0
 94
        5
 62
     0
340
284B
144
0.25
309
CONTENTFORMAT_END
171
     0
 94
        0
309
TABLEFORMAT_END
  1
CELLSTYLE_BEGIN
 90
        1
 91
        1
300
_TITLE
309
CELLSTYLE_END
300
CELLSTYLE
  1
TABLEFORMAT_BEGIN
 90
        5
170
     1
 91
        0
 92
        0
 62
   257
 93
        1
300
CONTENTFORMAT
  1
CONTENTFORMAT_BEGIN
 90
        0
 91
        0
 92
      512
 93
        0
300

 40
0.0
140
1.0
 94
        5
 62
     0
340
284B
144
0.18
309
CONTENTFORMAT_END
171
     0
 94
        0
309
TABLEFORMAT_END
  1
CELLSTYLE_BEGIN
 90
        2
 91
        1
300
_HEADER
309
CELLSTYLE_END
300
CELLSTYLE
  1
TABLEFORMAT_BEGIN
 90
        5
170
     1
 91
        0
 92
        0
 62
   257
 93
        1
300
CONTENTFORMAT
  1
CONTENTFORMAT_BEGIN
 90
        0
 91
        0
 92
      512
 93
        0
300

 40
0.0
140
1.0
 94
        2
 62
     0
340
284B
144
0.18
309
CONTENTFORMAT_END
171
     0
 94
        0
309
TABLEFORMAT_END
  1
CELLSTYLE_BEGIN
 90
        3
 91
        2
300
_DATA
309
CELLSTYLE_END
  0
XRECORD
  5
2A58
102
{ACAD_REACTORS
330
2A4C
102
}
330
2A4C
100
AcDbXrecord
280
     1
102
ACAD_ROUNDTRIP_PRE2007_TABLESTYLE
 90
      512
 91
        0
  1

 92
      512
 93
        0
  2

 94
      512
 95
        0
  3

  0
ENDSEC
  0
EOF
