  0
SECTION
  2
HEADER
  9
$ACADVER
  1
AC1015
  9
$ACADMAINTVER
 70
    20
  9
$DWGCODEPAGE
  3
ANSI_932
  9
$INSBASE
 10
0.0
 20
0.0
 30
0.0
  9
$EXTMIN
 10
-850.7093999922542
 20
-647.8244879514168
 30
0.0
  9
$EXTMAX
 10
907.0262574630771
 20
637.4153143376824
 30
50.0
  9
$LIMMIN
 10
-2970.0
 20
-2100.0
  9
$LIMMAX
 10
2970.0
 20
2100.0
  9
$ORTHOMODE
 70
     1
  9
$REGENMODE
 70
     0
  9
$FILLMODE
 70
     1
  9
$QTEXTMODE
 70
     0
  9
$MIRRTEXT
 70
     0
  9
$LTSCALE
 40
20.0
  9
$ATTMODE
 70
     1
  9
$TEXTSIZE
 40
64.0
  9
$TRACEWID
 40
0.05
  9
$TEXTSTYLE
  7
STANDARD
  9
$CLAYER
  8
0
  9
$CELTYPE
  6
ByLayer
  9
$CECOLOR
 62
   256
  9
$CELTSCALE
 40
1.0
  9
$DISPSILH
 70
     0
  9
$DIMSCALE
 40
1.0
  9
$DIMASZ
 40
0.12
  9
$DIMEXO
 40
0.05
  9
$DIMDLI
 40
0.5
  9
$DIMRND
 40
0.0
  9
$DIMDLE
 40
0.0
  9
$DIMEXE
 40
0.1
  9
$DIMTP
 40
0.1
  9
$DIMTM
 40
0.1
  9
$DIMTXT
 40
0.12
  9
$DIMCEN
 40
0.0
  9
$DIMTSZ
 40
0.0
  9
$DIMTOL
 70
     0
  9
$DIMLIM
 70
     0
  9
$DIMTIH
 70
     1
  9
$DIMTOH
 70
     1
  9
$DIMSE1
 70
     0
  9
$DIMSE2
 70
     0
  9
$DIMTAD
 70
     0
  9
$DIMZIN
 70
     7
  9
$DIMBLK
  1

  9
$DIMASO
 70
     1
  9
$DIMSHO
 70
     0
  9
$DIMPOST
  1

  9
$DIMAPOST
  1
mm
  9
$DIMALT
 70
     0
  9
$DIMALTD
 70
     2
  9
$DIMALTF
 40
25.4
  9
$DIMLFAC
 40
1.0
  9
$DIMTOFL
 70
     0
  9
$DIMTVP
 40
0.0
  9
$DIMTIX
 70
     0
  9
$DIMSOXD
 70
     0
  9
$DIMSAH
 70
     0
  9
$DIMBLK1
  1

  9
$DIMBLK2
  1

  9
$DIMSTYLE
  2
AM_ANSI
  9
$DIMCLRD
 70
   256
  9
$DIMCLRE
 70
   256
  9
$DIMCLRT
 70
     2
  9
$DIMTFAC
 40
0.71
  9
$DIMGAP
 40
0.06
  9
$DIMJUST
 70
     0
  9
$DIMSD1
 70
     0
  9
$DIMSD2
 70
     0
  9
$DIMTOLJ
 70
     1
  9
$DIMTZIN
 70
     7
  9
$DIMALTZ
 70
     0
  9
$DIMALTTZ
 70
     0
  9
$DIMUPT
 70
     0
  9
$DIMDEC
 70
     4
  9
$DIMTDEC
 70
     4
  9
$DIMALTU
 70
     2
  9
$DIMALTTD
 70
     4
  9
$DIMTXSTY
  7
STANDARD
  9
$DIMAUNIT
 70
     0
  9
$DIMADEC
 70
     0
  9
$DIMALTRND
 40
0.0
  9
$DIMAZIN
 70
     2
  9
$DIMDSEP
 70
    46
  9
$DIMATFIT
 70
     3
  9
$DIMFRAC
 70
     0
  9
$DIMLDRBLK
  1

  9
$DIMLUNIT
 70
     2
  9
$DIMLWD
 70
    -1
  9
$DIMLWE
 70
    -1
  9
$DIMTMOVE
 70
     0
  9
$LUNITS
 70
     2
  9
$LUPREC
 70
     4
  9
$SKETCHINC
 40
0.1
  9
$FILLETRAD
 40
4.0
  9
$AUNITS
 70
     1
  9
$AUPREC
 70
     3
  9
$MENU
  1
ACAD
  9
$ELEVATION
 40
0.0
  9
$PELEVATION
 40
0.0
  9
$THICKNESS
 40
50.0
  9
$LIMCHECK
 70
     0
  9
$CHAMFERA
 40
0.0
  9
$CHAMFERB
 40
0.0
  9
$CHAMFERC
 40
0.0
  9
$CHAMFERD
 40
0.0
  9
$SKPOLY
 70
     0
  9
$TDCREATE
 40
2452321.396199653
  9
$TDUCREATE
 40
2452321.021199653
  9
$TDUPDATE
 40
2456212.817519317
  9
$TDUUPDATE
 40
2456212.442519317
  9
$TDINDWG
 40
1.0500300463
  9
$TDUSRTIMER
 40
1.0500246412
  9
$USRTIMER
 70
     1
  9
$ANGBASE
 50
0.0
  9
$ANGDIR
 70
     0
  9
$PDMODE
 70
     3
  9
$PDSIZE
 40
-2.0
  9
$PLINEWID
 40
0.0
  9
$SPLFRAME
 70
     0
  9
$SPLINETYPE
 70
     6
  9
$SPLINESEGS
 70
     8
  9
$HANDSEED
  5
2D03
  9
$SURFTAB1
 70
     6
  9
$SURFTAB2
 70
     6
  9
$SURFTYPE
 70
     6
  9
$SURFU
 70
     6
  9
$SURFV
 70
     6
  9
$UCSBASE
  2

  9
$UCSNAME
  2

  9
$UCSORG
 10
0.0
 20
0.0
 30
0.0
  9
$UCSXDIR
 10
1.0
 20
0.0
 30
0.0
  9
$UCSYDIR
 10
0.0
 20
1.0
 30
0.0
  9
$UCSORTHOREF
  2

  9
$UCSORTHOVIEW
 70
     0
  9
$UCSORGTOP
 10
0.0
 20
0.0
 30
0.0
  9
$UCSORGBOTTOM
 10
0.0
 20
0.0
 30
0.0
  9
$UCSORGLEFT
 10
0.0
 20
0.0
 30
0.0
  9
$UCSORGRIGHT
 10
0.0
 20
0.0
 30
0.0
  9
$UCSORGFRONT
 10
0.0
 20
0.0
 30
0.0
  9
$UCSORGBACK
 10
0.0
 20
0.0
 30
0.0
  9
$PUCSBASE
  2

  9
$PUCSNAME
  2

  9
$PUCSORG
 10
0.0
 20
0.0
 30
0.0
  9
$PUCSXDIR
 10
1.0
 20
0.0
 30
0.0
  9
$PUCSYDIR
 10
0.0
 20
1.0
 30
0.0
  9
$PUCSORTHOREF
  2

  9
$PUCSORTHOVIEW
 70
     0
  9
$PUCSORGTOP
 10
0.0
 20
0.0
 30
0.0
  9
$PUCSORGBOTTOM
 10
0.0
 20
0.0
 30
0.0
  9
$PUCSORGLEFT
 10
0.0
 20
0.0
 30
0.0
  9
$PUCSORGRIGHT
 10
0.0
 20
0.0
 30
0.0
  9
$PUCSORGFRONT
 10
0.0
 20
0.0
 30
0.0
  9
$PUCSORGBACK
 10
0.0
 20
0.0
 30
0.0
  9
$USERI1
 70
     0
  9
$USERI2
 70
     0
  9
$USERI3
 70
     0
  9
$USERI4
 70
     0
  9
$USERI5
 70
     0
  9
$USERR1
 40
20.0
  9
$USERR2
 40
0.0
  9
$USERR3
 40
0.0
  9
$USERR4
 40
0.0
  9
$USERR5
 40
0.0
  9
$WORLDVIEW
 70
     1
  9
$SHADEDGE
 70
     3
  9
$SHADEDIF
 70
    70
  9
$TILEMODE
 70
     1
  9
$MAXACTVP
 70
    64
  9
$PINSBASE
 10
0.0
 20
0.0
 30
0.0
  9
$PLIMCHECK
 70
     0
  9
$PEXTMIN
 10
1.000000000000000E+20
 20
1.000000000000000E+20
 30
1.000000000000000E+20
  9
$PEXTMAX
 10
-1.000000000000000E+20
 20
-1.000000000000000E+20
 30
-1.000000000000000E+20
  9
$PLIMMIN
 10
0.0
 20
0.0
  9
$PLIMMAX
 10
12.0
 20
9.0
  9
$UNITMODE
 70
     0
  9
$VISRETAIN
 70
     1
  9
$PLINEGEN
 70
     0
  9
$PSLTSCALE
 70
     1
  9
$TREEDEPTH
 70
  3020
  9
$CMLSTYLE
  2
Standard
  9
$CMLJUST
 70
     0
  9
$CMLSCALE
 40
1.0
  9
$PROXYGRAPHICS
 70
     1
  9
$MEASUREMENT
 70
     0
  9
$CELWEIGHT
370
    -1
  9
$ENDCAPS
280
     0
  9
$JOINSTYLE
280
     0
  9
$LWDISPLAY
290
     0
  9
$INSUNITS
 70
     0
  9
$HYPERLINKBASE
  1

  9
$STYLESHEET
  1

  9
$XEDIT
290
     1
  9
$CEPSNTYPE
380
     0
  9
$PSTYLEMODE
290
     1
  9
$FINGERPRINTGUID
  2
{A70DA94D-5F59-4DB6-8CA2-1E8898D46030}
  9
$VERSIONGUID
  2
{F004094F-FEE3-4F12-9975-423379675D99}
  9
$EXTNAMES
290
     1
  9
$PSVPSCALE
 40
0.0
  9
$OLESTARTUP
290
     0
  0
ENDSEC
  0
SECTION
  2
CLASSES
  0
CLASS
  1
ACDBDICTIONARYWDFLT
  2
AcDbDictionaryWithDefault
  3
ObjectDBX Classes
 90
        0
280
     0
281
     0
  0
CLASS
  1
MATERIAL
  2
AcDbMaterial
  3
ObjectDBX Classes
 90
     1153
280
     0
281
     0
  0
CLASS
  1
VISUALSTYLE
  2
AcDbVisualStyle
  3
ObjectDBX Classes
 90
     4095
280
     0
281
     0
  0
CLASS
  1
SCALE
  2
AcDbScale
  3
ObjectDBX Classes
 90
     1153
280
     0
281
     0
  0
CLASS
  1
TABLESTYLE
  2
AcDbTableStyle
  3
ObjectDBX Classes
 90
     4095
280
     0
281
     0
  0
CLASS
  1
MLEADERSTYLE
  2
AcDbMLeaderStyle
  3
ACDB_MLEADERSTYLE_CLASS
 90
     4095
280
     0
281
     0
  0
CLASS
  1
AMGSETTINGSOBJ
  2
AmgSettingsObj
  3
"AcadM|Product Description: AutoCAD Mechanical|Company: Autodesk, Inc."
 90
     1024
280
     0
281
     0
  0
CLASS
  1
ACME_DOCUMENT
  2
AcMeDbDoc
  3
AcMeServices
 90
     1024
280
     0
281
     0
  0
CLASS
  1
ACMESCOPE
  2
AcMeScope
  3
AcMeServices
 90
     1024
280
     0
281
     0
  0
CLASS
  1
ACMECOMMANDHISTORY
  2
AcMeCommandHistory
  3
AcMeServices
 90
     1024
280
     0
281
     0
  0
CLASS
  1
ACIMSYSVARMAN
  2
AcImSysVarManager
  3
AcMeServices
 90
     1024
280
     0
281
     0
  0
CLASS
  1
ACIMREALSYSVAR
  2
AcImRealSysVar
  3
AcMeServices
 90
     1024
280
     0
281
     0
  0
CLASS
  1
ACIMINTSYSVAR
  2
AcImIntSysVar
  3
AcMeServices
 90
     1024
280
     0
281
     0
  0
CLASS
  1
ACMEDRAWINGMAN
  2
AcMeDrawingMan
  3
AcMeServices
 90
     1024
280
     0
281
     0
  0
CLASS
  1
ACMEVIEW
  2
AcMeView
  3
AcMeServices
 90
     1024
280
     0
281
     0
  0
CLASS
  1
ACDBENTITYCACHE
  2
AcMeEntityCache
  3
AcMeServices
 90
     1024
280
     0
281
     0
  0
CLASS
  1
GSMANAGER
  2
AcMeGSManager
  3
AcMeServices
 90
     1024
280
     0
281
     0
  0
CLASS
  1
AMDTINTERNALREACTOR
  2
AmdtInternalReactor
  3
AcMeServices
 90
     1024
280
     0
281
     0
  0
CLASS
  1
ACMESTATEMGR
  2
AcMeStateMgr
  3
AcMeServices
 90
     1024
280
     0
281
     0
  0
CLASS
  1
ACGREFMASTER
  2
AcGrefMaster
  3
AcAttribServices
 90
     1024
280
     0
281
     0
  0
CLASS
  1
AM_DRAWING_MGR
  2
AcDmDwgMgr
  3
AcMechDwgViewMgmt
 90
     1024
280
     0
281
     0
  0
CLASS
  1
AM_DWG_DOCUMENT
  2
AcDmDwgDocument
  3
AcMechDwgViewMgmt
 90
     1024
280
     0
281
     0
  0
CLASS
  1
AM_DWG_SHEET
  2
AcDmSheet
  3
AcMechDwgViewMgmt
 90
     1024
280
     0
281
     0
  0
CLASS
  1
AM_VIEWDIMPARMAP
  2
AcDmViewDimParMap
  3
AcMechDwgViewMgmt
 90
     1024
280
     0
281
     0
  0
CLASS
  1
AM_DWGMGR_NAME
  2
AcDmDwgMgrName
  3
AcMechDwgViewMgmt
 90
     1024
280
     0
281
     0
  0
CLASS
  1
ACME_DATABASE
  2
AcMeDbDatabase
  3
AcMeServices
 90
     1024
280
     0
281
     0
  0
CLASS
  1
ACRFINSADJUSTERMGR
  2
AcRfInsAdjusterMgr
  3
AcMeServices
 90
     1024
280
     0
281
     0
  0
CLASS
  1
ACGREFACADMASTER
  2
AcGrefacadMaster
  3
AcGrefServices
 90
     1024
280
     0
281
     0
  0
CLASS
  1
AMDTMENUSTATEMGR
  2
AmdtMenuStateMgr
  3
McadcomServices
 90
     1024
280
     0
281
     0
  0
CLASS
  1
AMDTMCOMMENUSTATE
  2
AmdtMcomMenuState
  3
McadcomServices
 90
     1024
280
     0
281
     0
  0
CLASS
  1
AMIMASTER
  2
AmiMaster
  3
AmiServices
 90
     1024
280
     0
281
     0
  0
CLASS
  1
ASAPP
  2
AcAsAppObject
  3
AutoSurfServices
 90
     1024
280
     0
281
     0
  0
CLASS
  1
IM_STATIC_MAN
  2
AcImStaticVarManager
  3
AcMeServices
 90
     1024
280
     0
281
     0
  0
CLASS
  1
ACIMSTRSYSVAR
  2
AcImStrSysVar
  3
AcMeServices
 90
     1024
280
     0
281
     0
  0
CLASS
  1
ACIMDBLSTATICVAR
  2
AcImDblStaticVar
  3
AcMeServices
 90
     1024
280
     0
281
     0
  0
CLASS
  1
ACIMSTRSTATICVAR
  2
AcImStrStaticVar
  3
AcMeServices
 90
     1024
280
     0
281
     0
  0
CLASS
  1
ACIMINTSTATICVAR
  2
AcImIntStaticVar
  3
AcMeServices
 90
     1024
280
     0
281
     0
  0
CLASS
  1
ACASGREFMASTER
  2
AcAsGrefMaster
  3
AutoSurfResolverServices
 90
     1024
280
     0
281
     0
  0
CLASS
  1
ACADGREFMODULE
  2
AcAdGrefModule
  3
AdGrefServices
 90
     1024
280
     0
281
     0
  0
CLASS
  1
AMDTMAPISURFMOUDULE
  2
AmdtMApiSurfModule
  3
MApiSurfServices
 90
     1024
280
     0
281
     0
  0
CLASS
  1
MAPIAMMOUDLE
  2
MApiAmModule
  3
MApiAmServices
 90
     1024
280
     0
281
     0
  0
CLASS
  1
AMDTADMENUSTATE
  2
AmdtAdMenuState
  3
DesignerServices
 90
     1024
280
     0
281
     0
  0
CLASS
  1
ADAPPL
  2
AcAdAppl
  3
DesignerServices
 90
     1024
280
     0
281
     0
  0
CLASS
  1
DEPMGR
  2
AcAdDepMgr
  3
DesignerServices
 90
     1024
280
     0
281
     0
  0
CLASS
  1
PARAMMGR
  2
AcAdParamMgr
  3
DesignerServices
 90
     1024
280
     0
281
     0
  0
CLASS
  1
PARAMSCOPE
  2
AcAdParamScope
  3
DesignerServices
 90
     1024
280
     0
281
     0
  0
CLASS
  1
NAMEDAPPL
  2
AcAdNamedAppl
  3
DesignerServices
 90
     1024
280
     0
281
     0
  0
CLASS
  1
AMDTDMMENUSTATE
  2
AmdtDmMenuState
  3
AcMechDwgViewMgmt
 90
     1024
280
     0
281
     0
  0
CLASS
  1
MAPIADMODULE
  2
MApiAdModule
  3
MApiAdServices
 90
     1024
280
     0
281
     0
  0
CLASS
  1
AMDTAMMENUSTATE
  2
AmdtAmMenuState
  3
DesignerAssemblies
 90
     1024
280
     0
281
     0
  0
CLASS
  1
ACAMPROJECT
  2
AcAmProject
  3
DesignerAssemblies
 90
     1024
280
     0
281
     0
  0
CLASS
  1
ACAMGRCOMPDEF
  2
AcAmGrCompDef
  3
DesignerAssemblies
 90
     1024
280
     0
281
     0
  0
CLASS
  1
ACCMCONTEXT
  2
AcCmContext
  3
DesignerAssemblies
 90
     1024
280
     0
281
     0
  0
CLASS
  1
ACAMCOMPDEF
  2
AcAmCompDef
  3
DesignerAssemblies
 90
     1024
280
     0
281
     0
  0
CLASS
  1
ACAMCOMPDEFMGR
  2
AcAmCompDefMgr
  3
DesignerAssemblies
 90
     1024
280
     0
281
     0
  0
CLASS
  1
AMCONTEXTMGR
  2
AcAmContextMgr
  3
DesignerAssemblies
 90
     1024
280
     0
281
     0
  0
CLASS
  1
ACAMCONTEXTMODELER
  2
AcAmContextModeler
  3
DesignerAssemblies
 90
     1024
280
     0
281
     0
  0
CLASS
  1
ACMDATADICTIONARY
  2
AcmDataDictionary
  3
"AcmSymBB|Product Description: AutoCAD Mechanical|Company: Autodesk, Inc."
 90
     1024
280
     0
281
     0
  0
CLASS
  1
ACMDATAENTRYBLOCK
  2
AcmDataEntryBlock
  3
AcmSymBB|Product Description: AutoCAD Mechanical|Company: Autodesk, Inc.
 90
     1024
280
     0
281
     0
  0
CLASS
  1
ACRFATTGENMGR
  2
AcRfAttGeneralMgr
  3
AcAttribServices
 90
     1024
280
     0
281
     0
  0
CLASS
  1
ACRFOBJATTMGR
  2
AcRfObjAttGroupMgr
  3
AcAttribServices
 90
     1024
280
     0
281
     0
  0
CLASS
  1
ACRFMCADAPIATTHOLDER
  2
AcRfMCADAPIAttHolder
  3
AcAttribServices
 90
     1024
280
     0
281
     0
  0
CLASS
  1
AMDTSYSATTR
  2
AmdtSystemAttribute
  3
AcAttribServices
 90
     1024
280
     0
281
     0
  0
CLASS
  1
CATALOGSTATE
  2
AcAmCatalogState
  3
DesignerAssemblies
 90
     1024
280
     0
281
     0
  0
CLASS
  1
ACAMGRCOMPDEFSET
  2
AcAmGrCompDefSet
  3
DesignerAssemblies
 90
     1024
280
     0
281
     0
  0
CLASS
  1
AMDTBROWSERDBTAB
  2
AmdtBrowserDbTab
  3
McadcomServices
 90
     1024
280
     0
281
     0
  0
CLASS
  1
CBROWSERAPPOBJECT
  2
CBrowserAppObject
  3
McadcomServices
 90
     1024
280
     0
281
     0
  0
CLASS
  1
DM_PLACEHOLDER
  2
AcDmSelsetPlaceholder
  3
AcMechDwgViewMgmt
 90
     1024
280
     0
281
     0
  0
CLASS
  1
ACMSTANDARDANSI
  2
AcmStandardANSI
  3
"Amdt_StdImp|Product Description: AutoCAD Mechanical|Company: Autodesk, Inc."
 90
     1024
280
     0
281
     0
  0
CLASS
  1
ACMSURFSTANDARDANSI
  2
AcmSurfTextStdANSI
  3
"Amdt_StdImp|Product Description: AutoCAD Mechanical|Company: Autodesk, Inc."
 90
     1024
280
     0
281
     0
  0
CLASS
  1
ACMFCFSTANDARDANSI
  2
AcmFCFStdANSI
  3
"Amdt_StdImp|Product Description: AutoCAD Mechanical|Company: Autodesk, Inc."
 90
     1024
280
     0
281
     0
  0
CLASS
  1
ACMWELDSTANDARDANSI
  2
AcmWeldingStdANSI
  3
"Amdt_StdImp|Product Description: AutoCAD Mechanical|Company: Autodesk, Inc."
 90
     1024
280
     0
281
     0
  0
CLASS
  1
ACMIDSTANDARDANSI
  2
AcmIdStdANSI
  3
"Amdt_StdImp|Product Description: AutoCAD Mechanical|Company: Autodesk, Inc."
 90
     1024
280
     0
281
     0
  0
CLASS
  1
ACMDATUMSTANDARDANSI
  2
AcmDatumStdANSI
  3
"Amdt_StdImp|Product Description: AutoCAD Mechanical|Company: Autodesk, Inc."
 90
     1024
280
     0
281
     0
  0
CLASS
  1
ACMBOMSTANDARDANSI
  2
AcmBOMStdANSI
  3
"Amdt_StdImp|Product Description: AutoCAD Mechanical|Company: Autodesk, Inc."
 90
     1024
280
     0
281
     0
  0
CLASS
  1
ACMDETAILSTANDARDANSI
  2
AmdtDetailSymStdANSI
  3
"Amdt_StdImp|Product Description: AutoCAD Mechanical|Company: Autodesk, Inc."
 90
     1024
280
     0
281
     0
  0
CLASS
  1
ACMSECTIONSTANDARDANSI
  2
AmdtSectionSymStdANSI
  3
"Amdt_StdImp|Product Description: AutoCAD Mechanical|Company: Autodesk, Inc."
 90
     1024
280
     0
281
     0
  0
CLASS
  1
ACMCENTERLINESTANDARDANSI
  2
AmdtCenterLineStdANSI
  3
"Amdt_StdImp|Product Description: AutoCAD Mechanical|Company: Autodesk, Inc."
 90
     1024
280
     0
281
     0
  0
CLASS
  1
ACMTHREADLINESTANDARDANSI
  2
AmdtThreadLineStdANSI
  3
"Amdt_StdImp|Product Description: AutoCAD Mechanical|Company: Autodesk, Inc."
 90
     1024
280
     0
281
     0
  0
CLASS
  1
ACMNOTESTANDARDANSI
  2
AmdtNoteStdANSI
  3
"Amdt_StdImp|Product Description: AutoCAD Mechanical|Company: Autodesk, Inc."
 90
     1024
280
     0
281
     0
  0
CLASS
  1
ACMTAPERSTANDARDANSI
  2
AcmTaperStdANSI
  3
"Amdt_StdImp|Product Description: AutoCAD Mechanical|Company: Autodesk, Inc."
 90
     1024
280
     0
281
     0
  0
CLASS
  1
ACMANOOTATIONVIEWSTANDARDANSI
  2
AmdtAnViewStdANSI
  3
"Amdt_StdImp|Product Description: AutoCAD Mechanical|Company: Autodesk, Inc."
 90
     1024
280
     0
281
     0
  0
CLASS
  1
ACAMGLAYSTD
  2
AcAmgLayStd
  3
"AmgLay|Product Description: AutoCAD Mechanical|Company: Autodesk, Inc."
 90
     1024
280
     0
281
     0
  0
CLASS
  1
ACAMGDIMSTD
  2
AcAmgDimStd
  3
"AmgDim|Product Description: AutoCAD Mechanical|Company: Autodesk, Inc."
 90
     1024
280
     0
281
     0
  0
CLASS
  1
ACAMGHOLECHARTSTDANSI
  2
AcAmgHoleChartStdANSI
  3
AmgDim|Product Description: AutoCAD Mechanical|Company: Autodesk, Inc.
 90
     1024
280
     0
281
     0
  0
CLASS
  1
AMGOBJPROPCFG
  2
AmgObjPropCfg
  3
"AmgLay|Product Description: AutoCAD Mechanical|Company: Autodesk, Inc."
 90
     1025
280
     0
281
     0
  0
CLASS
  1
ACAMGTITLESTD
  2
AcAmgTitleStd
  3
"AmgTitle|Product Description: AutoCAD Mechanical|Company: Autodesk, Inc."
 90
     4095
280
     0
281
     0
  0
CLASS
  1
AMDTNOTETEMPLATEDB
  2
AmdtNoteTemplateDB
  3
AcmSymBB|Product Description: AutoCAD Mechanical|Company: Autodesk, Inc.
 90
     1024
280
     0
281
     0
  0
CLASS
  1
LAYER_INDEX
  2
AcDbLayerIndex
  3
ObjectDBX Classes
 90
        0
280
     0
281
     0
  0
CLASS
  1
IDBUFFER
  2
AcDbIdBuffer
  3
ObjectDBX Classes
 90
        0
280
     0
281
     0
  0
CLASS
  1
DICTIONARYVAR
  2
AcDbDictionaryVar
  3
ObjectDBX Classes
 90
        0
280
     0
281
     0
  0
CLASS
  1
CELLSTYLEMAP
  2
AcDbCellStyleMap
  3
ObjectDBX Classes
 90
     1152
280
     0
281
     0
  0
CLASS
  1
ACDBPLACEHOLDER
  2
AcDbPlaceHolder
  3
ObjectDBX Classes
 90
        0
280
     0
281
     0
  0
CLASS
  1
LAYOUT
  2
AcDbLayout
  3
ObjectDBX Classes
 90
        0
280
     0
281
     0
  0
ENDSEC
  0
SECTION
  2
TABLES
  0
TABLE
  2
VPORT
  5
2A98
330
0
100
AcDbSymbolTable
 70
     1
  0
VPORT
  5
2B08
330
2A98
100
AcDbSymbolTableRecord
100
AcDbViewportTableRecord
  2
*ACTIVE
 70
     0
 10
0.0
 20
0.0
 11
1.0
 21
1.0
 12
0.0
 22
0.0
 13
0.0
 23
0.0
 14
1.0
 24
1.0
 15
0.0
 25
0.0
 16
0.0
 26
0.0
 36
1.0
 17
28.09754804253686
 27
8.574520687635299
 37
0.0
 40
1322.246325889846
 41
1.712555066079295
 42
50.0
 43
0.0
 44
0.0
 50
0.0
 51
0.0
 71
     0
 72
   100
 73
     1
 74
     0
 75
     0
 76
     0
 77
     0
 78
     0
281
     0
 65
     0
110
0.0
120
0.0
130
0.0
111
1.0
121
0.0
131
0.0
112
0.0
122
1.0
132
0.0
 79
     0
146
0.0
  0
ENDTAB
  0
TABLE
  2
LTYPE
  5
2A95
330
0
100
AcDbSymbolTable
 70
    19
  0
LTYPE
  5
2AF2
330
2A95
100
AcDbSymbolTableRecord
100
AcDbLinetypeTableRecord
  2
ByBlock
 70
     0
  3

 72
    65
 73
     0
 40
0.0
  0
LTYPE
  5
2AF3
330
2A95
100
AcDbSymbolTableRecord
100
AcDbLinetypeTableRecord
  2
ByLayer
 70
     0
  3

 72
    65
 73
     0
 40
0.0
  0
LTYPE
  5
2AF4
330
2A95
100
AcDbSymbolTableRecord
100
AcDbLinetypeTableRecord
  2
CONTINUOUS
 70
     0
  3
実線
 72
    65
 73
     0
 40
0.0
  0
LTYPE
  5
2B09
330
2A95
100
AcDbSymbolTableRecord
100
AcDbLinetypeTableRecord
  2
DASHDOT
 70
     0
  3
____ _ ____ _ ____ _ ____ _ ____ _ ____ _ ____
 72
    65
 73
     4
 40
5.5
 49
4.0
 74
     0
 49
-0.6
 74
     0
 49
0.3
 74
     0
 49
-0.6
 74
     0
  0
LTYPE
  5
2B0A
330
2A95
100
AcDbSymbolTableRecord
100
AcDbLinetypeTableRecord
  2
HIDDEN
 70
     0
  3
Hidden __ __ __ __ __ __ __ __ __ __ __ __ __ _
 72
    65
 73
     2
 40
0.375
 49
0.25
 74
     0
 49
-0.125
 74
     0
  0
LTYPE
  5
2B0B
330
2A95
100
AcDbSymbolTableRecord
100
AcDbLinetypeTableRecord
  2
PHANTOM2
 70
     0
  3
Phantom (.5x) ___ _ _ ___ _ _ ___ _ _ ___ _ _
 72
    65
 73
     6
 40
1.25
 49
0.625
 74
     0
 49
-0.125
 74
     0
 49
0.125
 74
     0
 49
-0.125
 74
     0
 49
0.125
 74
     0
 49
-0.125
 74
     0
  0
LTYPE
  5
2B0C
330
2A95
100
AcDbSymbolTableRecord
100
AcDbLinetypeTableRecord
  2
CENTER
 70
     0
  3
Center ____ _ ____ _ ____ _ ____ _ ____ _ ____
 72
    65
 73
     4
 40
2.0
 49
1.25
 74
     0
 49
-0.25
 74
     0
 49
0.25
 74
     0
 49
-0.25
 74
     0
  0
LTYPE
  5
2B0D
330
2A95
100
AcDbSymbolTableRecord
100
AcDbLinetypeTableRecord
  2
ASULTYPE
 70
     0
  3
実線
 72
    65
 73
     2
 40
3.0
 49
2.5
 74
     0
 49
0.5
 74
     0
  0
LTYPE
  5
2B0E
330
2A95
100
AcDbSymbolTableRecord
100
AcDbLinetypeTableRecord
  2
ASVLTYPE
 70
     0
  3
__ __ __ __ __ __ __ __ __ __ __ __ __ __ __ __ __ __ __ __ __
 72
    65
 73
     2
 40
0.75
 49
0.5
 74
     0
 49
-0.25
 74
     0
  0
LTYPE
  5
2B0F
330
2A95
100
AcDbSymbolTableRecord
100
AcDbLinetypeTableRecord
  2
AM_ISO02W050
 70
     0
  3
__ __ __ __ __ __ __ __ __ __ __ __ __ __ __
 72
    65
 73
     2
 40
7.5
 49
6.0
 74
     0
 49
-1.5
 74
     0
  0
LTYPE
  5
2B10
330
2A95
100
AcDbSymbolTableRecord
100
AcDbLinetypeTableRecord
  2
AM_ISO08W050
 70
     0
  3
____ . ____ . ____ . ____ . ____ . ____ . ____
 72
    65
 73
     4
 40
18.0
 49
12.0
 74
     0
 49
-1.5
 74
     0
 49
3.0
 74
     0
 49
-1.5
 74
     0
  0
LTYPE
  5
2B11
330
2A95
100
AcDbSymbolTableRecord
100
AcDbLinetypeTableRecord
  2
AM_ISO09W050
 70
     0
  3
_____ . . _____ . . _____ . . ____ .. ____
 72
    65
 73
     6
 40
22.5
 49
12.0
 74
     0
 49
-1.5
 74
     0
 49
3.0
 74
     0
 49
-1.5
 74
     0
 49
3.0
 74
     0
 49
-1.5
 74
     0
  0
LTYPE
  5
2B12
330
2A95
100
AcDbSymbolTableRecord
100
AcDbLinetypeTableRecord
  2
AMCONSTR
 70
     0
  3
_______________________
 72
    65
 73
     2
 40
9999.0
 49
9999.0
 74
     0
 49
0.0
 74
     0
  0
LTYPE
  5
2B13
330
2A95
100
AcDbSymbolTableRecord
100
AcDbLinetypeTableRecord
  2
AM_ISO08W050X2
 70
     0
  3
__ . __ . __ . __ . __ . __
 72
    65
 73
     4
 40
9.0
 49
6.0
 74
     0
 49
-0.75
 74
     0
 49
1.5
 74
     0
 49
-0.75
 74
     0
  0
LTYPE
  5
2B14
330
2A95
100
AcDbSymbolTableRecord
100
AcDbLinetypeTableRecord
  2
AM_ISO02W050X2
 70
     0
  3
 _ _ _ _ _ _ _ _ _ _ _ _
 72
    65
 73
     2
 40
3.75
 49
3.0
 74
     0
 49
-0.75
 74
     0
  0
LTYPE
  5
2B15
330
2A95
100
AcDbSymbolTableRecord
100
AcDbLinetypeTableRecord
  2
AMZIGZAG
 70
     0
  3
/\/-/\/-/\/-/\/-/\/-/\/
 72
    65
 73
     2
 40
11.0001
 49
0.0001
 74
     0
 49
-11.0
 74
     0
  0
LTYPE
  5
2B16
330
2A95
100
AcDbSymbolTableRecord
100
AcDbLinetypeTableRecord
  2
CENTER2
 70
     0
  3
Center (.5x) ___ _ ___ _ ___ _ ___ _ ___ _ ___
 72
    65
 73
     4
 40
1.125
 49
0.75
 74
     0
 49
-0.125
 74
     0
 49
0.125
 74
     0
 49
-0.125
 74
     0
  0
LTYPE
  5
2B17
330
2A95
100
AcDbSymbolTableRecord
100
AcDbLinetypeTableRecord
  2
HIDDEN2
 70
     0
  3
Hidden (.5x) _ _ _ _ _ _ _ _ _ _ _ _ _ _ _ _ _
 72
    65
 73
     2
 40
0.1875
 49
0.125
 74
     0
 49
-0.0625
 74
     0
  0
LTYPE
  5
2B18
330
2A95
100
AcDbSymbolTableRecord
100
AcDbLinetypeTableRecord
  2
AMZIGZAG2
 70
     0
  3
/\/-/\/-/\/-/\/-/\/-/\/
 72
    65
 73
     2
 40
0.4401
 49
0.0001
 74
     0
 49
-0.4400000000000003
 74
     0
  0
LTYPE
  5
2B19
330
2A95
100
AcDbSymbolTableRecord
100
AcDbLinetypeTableRecord
  2
ACANSTGB
 70
     0
  3
__ . . __ . .
 72
    65
 73
     6
 40
0.35433070866
 49
0.15748031496
 74
     0
 49
-0.03937007874
 74
     0
 49
0.03937007874
 74
     0
 49
-0.03937007874
 74
     0
 49
0.03937007874
 74
     0
 49
-0.03937007874
 74
     0
  0
LTYPE
  5
2B1A
330
2A95
100
AcDbSymbolTableRecord
100
AcDbLinetypeTableRecord
  2
ACANSTGL
 70
     0
  3
_ _ _ _ _
 72
    65
 73
     2
 40
0.11811023622
 49
0.07874015748
 74
     0
 49
-0.03937007874
 74
     0
  0
ENDTAB
  0
TABLE
  2
LAYER
  5
2A92
330
0
100
AcDbSymbolTable
 70
    12
  0
LAYER
  5
2AEC
102
{ACAD_XDICTIONARY
360
2CC2
102
}
330
2A92
100
AcDbSymbolTableRecord
100
AcDbLayerTableRecord
  2
0
 70
     0
 62
     7
  6
CONTINUOUS
370
    -3
390
2A9F
  0
LAYER
  5
2B1B
102
{ACAD_XDICTIONARY
360
2CC4
102
}
330
2A92
100
AcDbSymbolTableRecord
100
AcDbLayerTableRecord
  2
OUTLINE
 70
     0
 62
     3
  6
CONTINUOUS
370
    -3
390
2A9F
  0
LAYER
  5
2B1C
102
{ACAD_XDICTIONARY
360
2CC6
102
}
330
2A92
100
AcDbSymbolTableRecord
100
AcDbLayerTableRecord
  2
SIZE
 70
     0
 62
    30
  6
CONTINUOUS
370
    -3
390
2A9F
  0
LAYER
  5
2B1D
102
{ACAD_XDICTIONARY
360
2CC8
102
}
330
2A92
100
AcDbSymbolTableRecord
100
AcDbLayerTableRecord
  2
BASIS
 70
     0
 62
     6
  6
DASHDOT
370
    -3
390
2A9F
  0
LAYER
  5
2B1E
102
{ACAD_XDICTIONARY
360
2CCA
102
}
330
2A92
100
AcDbSymbolTableRecord
100
AcDbLayerTableRecord
  2
DETAIL
 70
     0
 62
     5
  6
CONTINUOUS
370
    -3
390
2A9F
  0
LAYER
  5
2B1F
102
{ACAD_XDICTIONARY
360
2CCC
102
}
330
2A92
100
AcDbSymbolTableRecord
100
AcDbLayerTableRecord
  2
ARRANGE
 70
     0
 62
     1
  6
CONTINUOUS
370
    -3
390
2A9F
  0
LAYER
  5
2B20
330
2A92
100
AcDbSymbolTableRecord
100
AcDbLayerTableRecord
  2
DEFPOINTS
 70
     0
 62
     7
  6
CONTINUOUS
290
     0
370
    -3
390
2A9F
  0
LAYER
  5
2B21
102
{ACAD_XDICTIONARY
360
2CCE
102
}
330
2A92
100
AcDbSymbolTableRecord
100
AcDbLayerTableRecord
  2
ETC
 70
     0
 62
    61
  6
CONTINUOUS
370
    -3
390
2A9F
  0
LAYER
  5
2B22
102
{ACAD_XDICTIONARY
360
2CD0
102
}
330
2A92
100
AcDbSymbolTableRecord
100
AcDbLayerTableRecord
  2
FIX
 70
     0
 62
    11
  6
CONTINUOUS
370
    -3
390
2A9F
  0
LAYER
  5
2B23
102
{ACAD_XDICTIONARY
360
2CD2
102
}
330
2A92
100
AcDbSymbolTableRecord
100
AcDbLayerTableRecord
  2
NOTE
 70
     0
 62
     4
  6
CONTINUOUS
370
    -3
390
2A9F
  0
LAYER
  5
2B24
102
{ACAD_XDICTIONARY
360
2CD4
102
}
330
2A92
100
AcDbSymbolTableRecord
100
AcDbLayerTableRecord
  2
SERVICESPACE
 70
     0
 62
     2
  6
DASHDOT
370
    -3
390
2A9F
  0
LAYER
  5
2B25
102
{ACAD_XDICTIONARY
360
2CD6
102
}
330
2A92
100
AcDbSymbolTableRecord
100
AcDbLayerTableRecord
  2
SYMBOLLINE
 70
     0
 62
    15
  6
CONTINUOUS
370
    -3
390
2A9F
  0
ENDTAB
  0
TABLE
  2
STYLE
  5
2A93
330
0
100
AcDbSymbolTable
 70
     5
  0
STYLE
  5
2AED
330
2A93
100
AcDbSymbolTableRecord
100
AcDbTextStyleTableRecord
  2
STANDARD
 70
     0
 40
64.0
 41
0.9
 50
0.0
 71
     0
 42
64.0
  3
SIMPLEX.shx
  4
BIGFONT.shx
  0
STYLE
  5
2AF1
330
2A93
100
AcDbSymbolTableRecord
100
AcDbTextStyleTableRecord
  2
ANNOTATIVE
 70
     0
 40
0.0
 41
1.0
 50
0.0
 71
     0
 42
0.2
  3
txt
  4

1001
ACADANNOTATIVE
1000
AnnotativeData
1002
{
1070
     1
1070
     1
1002
}
  0
STYLE
  5
2B26
330
2A93
100
AcDbSymbolTableRecord
100
AcDbTextStyleTableRecord
  2

 70
     1
 40
0.0
 41
1.0
 50
0.0
 71
     0
 42
64.0
  3
genltshp.shx
  4

  0
STYLE
  5
2B27
330
2A93
100
AcDbSymbolTableRecord
100
AcDbTextStyleTableRecord
  2
ACANSTS
 70
     0
 40
1.0
 41
1.0
 50
0.0
 71
     0
 42
64.0
  3
romans.shx
  4
extfont.shx
  0
STYLE
  5
2B28
330
2A93
100
AcDbSymbolTableRecord
100
AcDbTextStyleTableRecord
  2
ACANSGDT
 70
     0
 40
0.0
 41
1.0
 50
0.0
 71
     0
 42
64.0
  3
amgdt.shx
  4

  0
ENDTAB
  0
TABLE
  2
VIEW
  5
2A96
330
0
100
AcDbSymbolTable
 70
     1
  0
VIEW
  5
2B29
330
2A96
100
AcDbSymbolTableRecord
100
AcDbViewTableRecord
  2
ALL
 70
     0
 40
4282.619807999997
 10
0.0
 20
41.30990399999999
 41
5940.0
 11
0.0
 21
0.0
 31
1.0
 12
0.0
 22
0.0
 32
0.0
 42
50.0
 43
0.0
 44
0.0
 50
0.0
 71
     0
281
     0
 72
     1
110
0.0
120
0.0
130
0.0
111
1.0
121
0.0
131
0.0
112
0.0
122
1.0
132
0.0
 79
     0
146
0.0
  0
ENDTAB
  0
TABLE
  2
UCS
  5
2A97
330
0
100
AcDbSymbolTable
 70
     0
  0
ENDTAB
  0
TABLE
  2
APPID
  5
2A99
330
0
100
AcDbSymbolTable
 70
    26
  0
APPID
  5
2AEE
330
2A99
100
AcDbSymbolTableRecord
100
AcDbRegAppTableRecord
  2
ACAD
 70
     0
  0
APPID
  5
2AF5
330
2A99
100
AcDbSymbolTableRecord
100
AcDbRegAppTableRecord
  2
ACADANNOTATIVE
 70
     0
  0
APPID
  5
2AFF
330
2A99
100
AcDbSymbolTableRecord
100
AcDbRegAppTableRecord
  2
ACAD_MLEADERVER
 70
     0
  0
APPID
  5
2B2A
330
2A99
100
AcDbSymbolTableRecord
100
AcDbRegAppTableRecord
  2
GENIUS_GENDIM_13
 70
     0
  0
APPID
  5
2B2B
330
2A99
100
AcDbSymbolTableRecord
100
AcDbRegAppTableRecord
  2
GENIUS_GENDTOL_13
 70
     0
  0
APPID
  5
2B2C
330
2A99
100
AcDbSymbolTableRecord
100
AcDbRegAppTableRecord
  2
GENIUS_GE3DTOL_13
 70
     0
  0
APPID
  5
2B2D
330
2A99
100
AcDbSymbolTableRecord
100
AcDbRegAppTableRecord
  2
MCAD_NO_VIS
 70
     0
  0
APPID
  5
2B2E
330
2A99
100
AcDbSymbolTableRecord
100
AcDbRegAppTableRecord
  2
ACAD_TEMP_GRAPHIC
 70
     0
  0
APPID
  5
2B2F
330
2A99
100
AcDbSymbolTableRecord
100
AcDbRegAppTableRecord
  2
AD_DRAW
 70
     0
  0
APPID
  5
2B30
330
2A99
100
AcDbSymbolTableRecord
100
AcDbRegAppTableRecord
  2
ACATTRIBSERVICES
 70
     0
  0
APPID
  5
2B31
330
2A99
100
AcDbSymbolTableRecord
100
AcDbRegAppTableRecord
  2
ASURF_PCURVE_APPNAME
 70
     0
  0
APPID
  5
2B32
330
2A99
100
AcDbSymbolTableRecord
100
AcDbRegAppTableRecord
  2
AMG_3D2D_5_0
 70
     0
  0
APPID
  5
2B33
330
2A99
100
AcDbSymbolTableRecord
100
AcDbRegAppTableRecord
  2
DESIGNERASSEMBLIES
 70
     0
  0
APPID
  5
2B34
330
2A99
100
AcDbSymbolTableRecord
100
AcDbRegAppTableRecord
  2
ACADM_DIM_EDIT
 70
     0
  0
APPID
  5
2B35
330
2A99
100
AcDbSymbolTableRecord
100
AcDbRegAppTableRecord
  2
AMDT_DM_ADJ
 70
     0
  0
APPID
  5
2B36
330
2A99
100
AcDbSymbolTableRecord
100
AcDbRegAppTableRecord
  2
ACAD_DSTYLE_DIMARC_LENGTH_
 70
     0
  0
APPID
  5
2B37
330
2A99
100
AcDbSymbolTableRecord
100
AcDbRegAppTableRecord
  2
ACAD_DSTYLE_DIMJOGGED_JOGA
 70
     0
  0
APPID
  5
2B38
330
2A99
100
AcDbSymbolTableRecord
100
AcDbRegAppTableRecord
  2
ACAD_PSEXT
 70
     0
  0
APPID
  5
2B39
330
2A99
100
AcDbSymbolTableRecord
100
AcDbRegAppTableRecord
  2
ACAD_EXEMPT_FROM_CAD_STANDARDS
 70
     0
  0
APPID
  5
2B3A
330
2A99
100
AcDbSymbolTableRecord
100
AcDbRegAppTableRecord
  2
ACAD_DSTYLE_DIMJAG
 70
     0
  0
APPID
  5
2B3B
330
2A99
100
AcDbSymbolTableRecord
100
AcDbRegAppTableRecord
  2
ACAD_DSTYLE_DIMTALN
 70
     0
  0
APPID
  5
2C69
330
2A99
100
AcDbSymbolTableRecord
100
AcDbRegAppTableRecord
  2
AMG_3D2D_5.0
 70
     0
  0
APPID
  5
2CFF
330
2A99
100
AcDbSymbolTableRecord
100
AcDbRegAppTableRecord
  2
ACAD_DSTYLE_DIMARC_LENGTH_SYMBOL
 70
     0
  0
APPID
  5
2D00
330
2A99
100
AcDbSymbolTableRecord
100
AcDbRegAppTableRecord
  2
ACAD_DSTYLE_DIM_LINETYPE
 70
     0
  0
APPID
  5
2D01
330
2A99
100
AcDbSymbolTableRecord
100
AcDbRegAppTableRecord
  2
ACAD_DSTYLE_DIM_EXT1_LINETYPE
 70
     0
  0
APPID
  5
2D02
330
2A99
100
AcDbSymbolTableRecord
100
AcDbRegAppTableRecord
  2
ACAD_DSTYLE_DIM_EXT2_LINETYPE
 70
     0
  0
ENDTAB
  0
TABLE
  2
DIMSTYLE
  5
2A9A
330
0
100
AcDbSymbolTable
 70
    10
100
AcDbDimStyleTable
 71
     1
340
2B3C
  0
DIMSTYLE
105
2AEF
330
2A9A
100
AcDbSymbolTableRecord
100
AcDbDimStyleTableRecord
  2
STANDARD
 70
     0
 41
12.0
 42
20.0
 44
20.0
 77
     1
 78
     8
140
64.0
141
0.0
147
10.0
275
     1
279
     2
284
     7
285
     7
286
     7
340
2AED
  0
DIMSTYLE
105
2AF0
330
2A9A
100
AcDbSymbolTableRecord
100
AcDbDimStyleTableRecord
  2
ANNOTATIVE
 70
     0
275
     1
279
     2
284
     7
285
     7
286
     7
340
2AED
1001
ACADANNOTATIVE
1000
AnnotativeData
1002
{
1070
     1
1070
     1
1002
}
  0
DIMSTYLE
105
2B3C
330
2A9A
100
AcDbSymbolTableRecord
100
AcDbDimStyleTableRecord
  2
AM_ANSI
 70
     0
  4
mm
 41
0.12
 42
0.05
 43
0.5
 44
0.1
 47
0.1
 48
0.1
 78
     7
 79
     2
140
0.12
141
0.0
146
0.71
147
0.06
176
   256
177
   256
178
     2
274
     4
284
     7
340
2AED
371
    -1
372
    -1
1001
ACAD_DSTYLE_DIMARC_LENGTH_SYMBOL
1070
   379
1070
     1
1001
ACAD_DSTYLE_DIM_LINETYPE
1070
   380
1005
2AF2
1001
ACAD_DSTYLE_DIM_EXT1_LINETYPE
1070
   381
1005
2AF2
1001
ACAD_DSTYLE_DIM_EXT2_LINETYPE
1070
   382
1005
2AF2
  0
DIMSTYLE
105
2B3D
330
2A9A
100
AcDbSymbolTableRecord
100
AcDbDimStyleTableRecord
  2
AM_ANSI$3
 70
     0
  4
mm
 41
0.12
 42
0.05
 43
0.5
 44
0.1
 47
0.1
 48
0.1
 78
     7
 79
     2
140
0.12
141
0.0
146
0.71
147
0.06
176
   256
177
   256
178
     2
274
     4
284
     7
288
     1
289
     0
340
2AED
371
    -1
372
    -1
1001
ACAD_DSTYLE_DIMARC_LENGTH_SYMBOL
1070
   379
1070
     1
1001
ACAD_DSTYLE_DIM_LINETYPE
1070
   380
1005
2AF2
1001
ACAD_DSTYLE_DIM_EXT1_LINETYPE
1070
   381
1005
2AF2
1001
ACAD_DSTYLE_DIM_EXT2_LINETYPE
1070
   382
1005
2AF2
  0
DIMSTYLE
105
2B3E
330
2A9A
100
AcDbSymbolTableRecord
100
AcDbDimStyleTableRecord
  2
AM_ANSI$4
 70
     0
  4
mm
 41
0.12
 42
0.05
 43
0.5
 44
0.1
 47
0.1
 48
0.1
 78
     7
 79
     2
140
0.12
141
0.0
146
0.71
147
0.06
176
   256
177
   256
178
     2
274
     4
284
     7
340
2AED
371
    -1
372
    -1
1001
ACAD_DSTYLE_DIMARC_LENGTH_SYMBOL
1070
   379
1070
     1
1001
ACAD_DSTYLE_DIM_LINETYPE
1070
   380
1005
2AF2
1001
ACAD_DSTYLE_DIM_EXT1_LINETYPE
1070
   381
1005
2AF2
1001
ACAD_DSTYLE_DIM_EXT2_LINETYPE
1070
   382
1005
2AF2
  0
DIMSTYLE
105
2B3F
330
2A9A
100
AcDbSymbolTableRecord
100
AcDbDimStyleTableRecord
  2
AM_ANSI$7
 70
     0
  4
mm
 41
0.12
 42
0.05
 43
0.5
 44
0.1
 47
0.1
 48
0.1
 78
     7
 79
     2
140
0.12
141
0.0
146
0.71
147
0.06
176
   256
177
   256
178
     2
274
     4
284
     7
340
2AED
371
    -1
372
    -1
1001
ACAD_DSTYLE_DIMARC_LENGTH_SYMBOL
1070
   379
1070
     1
1001
ACAD_DSTYLE_DIM_LINETYPE
1070
   380
1005
2AF2
1001
ACAD_DSTYLE_DIM_EXT1_LINETYPE
1070
   381
1005
2AF2
1001
ACAD_DSTYLE_DIM_EXT2_LINETYPE
1070
   382
1005
2AF2
  0
DIMSTYLE
105
2B40
330
2A9A
100
AcDbSymbolTableRecord
100
AcDbDimStyleTableRecord
  2
AM_ANSI$SF
 70
     0
  4
mm
 41
0.12
 42
0.05
 43
0.5
 44
0.1
 47
0.1
 48
0.1
 75
     1
 76
     1
 78
     7
 79
     2
140
0.12
141
0.0
146
0.71
147
0.06
176
   256
177
   256
178
     2
274
     4
284
     7
340
2AED
371
    -1
372
    -1
1001
ACAD_DSTYLE_DIMARC_LENGTH_SYMBOL
1070
   379
1070
     1
1001
ACAD_DSTYLE_DIM_LINETYPE
1070
   380
1005
2AF2
1001
ACAD_DSTYLE_DIM_EXT1_LINETYPE
1070
   381
1005
2AF2
1001
ACAD_DSTYLE_DIM_EXT2_LINETYPE
1070
   382
1005
2AF2
  0
DIMSTYLE
105
2B41
330
2A9A
100
AcDbSymbolTableRecord
100
AcDbDimStyleTableRecord
  2
AM_ANSI$SH
 70
     0
  4
mm
 41
0.12
 42
0.05
 43
0.5
 44
0.1
 47
0.1
 48
0.1
 75
     1
 76
     1
 78
     7
 79
     2
140
0.12
141
0.0
146
0.71
147
0.06
173
     1
176
   256
177
   256
178
     2
274
     4
284
     7
340
2AED
343
2B61
371
    -1
372
    -1
1001
ACAD_DSTYLE_DIMARC_LENGTH_SYMBOL
1070
   379
1070
     1
1001
ACAD_DSTYLE_DIM_LINETYPE
1070
   380
1005
2AF2
1001
ACAD_DSTYLE_DIM_EXT1_LINETYPE
1070
   381
1005
2AF2
1001
ACAD_DSTYLE_DIM_EXT2_LINETYPE
1070
   382
1005
2AF2
  0
DIMSTYLE
105
2B42
330
2A9A
100
AcDbSymbolTableRecord
100
AcDbDimStyleTableRecord
  2
STANDARD1
 70
     0
 40
6.0
 41
2.5
 42
0.625
 43
6.0
 44
1.25
 47
1.0
 48
0.5
 77
     1
 78
     8
140
2.5
141
0.0
146
0.6
147
1.0
173
     1
275
     1
279
     2
284
     7
285
     7
286
     7
340
2AED
  0
DIMSTYLE
105
2B43
330
2A9A
100
AcDbSymbolTableRecord
100
AcDbDimStyleTableRecord
  2
STANDARD$0
 70
     0
 41
12.0
 42
20.0
 44
20.0
 73
     0
 74
     0
 77
     1
 78
     8
140
64.0
141
0.0
147
10.0
275
     1
279
     2
284
     7
285
     7
286
     7
340
2AED
  0
ENDTAB
  0
TABLE
  2
BLOCK_RECORD
  5
2A91
330
0
100
AcDbSymbolTable
 70
    79
  0
BLOCK_RECORD
  5
2B04
102
{ACAD_XDICTIONARY
360
2CD8
102
}
330
2A91
100
AcDbSymbolTableRecord
100
AcDbBlockTableRecord
  2
*Model_Space
340
2B07
  0
BLOCK_RECORD
  5
2B00
330
2A91
100
AcDbSymbolTableRecord
100
AcDbBlockTableRecord
  2
*Paper_Space
340
2B03
  0
BLOCK_RECORD
  5
2B4B
330
2A91
100
AcDbSymbolTableRecord
100
AcDbBlockTableRecord
  2
$MODEL_SPACE
340
0
  0
BLOCK_RECORD
  5
2B4D
330
2A91
100
AcDbSymbolTableRecord
100
AcDbBlockTableRecord
  2
$PAPER_SPACE
340
0
  0
BLOCK_RECORD
  5
2B4F
330
2A91
100
AcDbSymbolTableRecord
100
AcDbBlockTableRecord
  2
_ORIGIN
340
0
  0
BLOCK_RECORD
  5
2B51
330
2A91
100
AcDbSymbolTableRecord
100
AcDbBlockTableRecord
  2
_DOTBLANK
340
0
102
{BLKREFS
331
1299
331
129A
331
11AA
331
11AB
331
E80
331
E81
331
1123
331
1124
331
11C2
331
11C3
331
11EC
331
11ED
331
11F9
331
11FA
331
1287
331
1288
331
1417
331
1418
331
1423
331
1424
331
142F
331
1430
331
143B
331
143C
331
166E
331
166F
331
1677
331
1678
331
1680
331
1681
331
1689
331
168A
331
1696
331
1697
331
16A3
331
16A4
331
16AF
331
16B0
331
16BB
331
16BC
331
16C7
331
16C8
331
16D3
331
16D4
331
1D86
331
1D87
331
1D8F
331
1D90
331
1D98
331
1D99
331
1DA1
331
1DA2
331
1DAB
331
1DAC
331
1DB5
331
1DB6
331
2897
331
2898
331
289C
331
289D
331
28A2
331
28A3
331
28A8
331
28A9
331
28AD
331
28AE
331
28B2
331
28B3
102
}
  0
BLOCK_RECORD
  5
2B53
330
2A91
100
AcDbSymbolTableRecord
100
AcDbBlockTableRecord
  2
_OPEN30
340
0
102
{BLKREFS
331
2087
331
215D
331
2234
331
2327
331
2454
331
2585
102
}
  0
BLOCK_RECORD
  5
2B55
330
2A91
100
AcDbSymbolTableRecord
100
AcDbBlockTableRecord
  2
*D5
340
0
  0
BLOCK_RECORD
  5
2B57
330
2A91
100
AcDbSymbolTableRecord
100
AcDbBlockTableRecord
  2
*U6
340
0
102
{BLKREFS
331
129B
102
}
  0
BLOCK_RECORD
  5
2B59
330
2A91
100
AcDbSymbolTableRecord
100
AcDbBlockTableRecord
  2
*D7
340
0
  0
BLOCK_RECORD
  5
2B5B
330
2A91
100
AcDbSymbolTableRecord
100
AcDbBlockTableRecord
  2
*U8
340
0
102
{BLKREFS
331
11AC
102
}
  0
BLOCK_RECORD
  5
2B5D
330
2A91
100
AcDbSymbolTableRecord
100
AcDbBlockTableRecord
  2
*D9
340
0
  0
BLOCK_RECORD
  5
2B5F
330
2A91
100
AcDbSymbolTableRecord
100
AcDbBlockTableRecord
  2
*U10
340
0
102
{BLKREFS
331
E82
102
}
  0
BLOCK_RECORD
  5
2B61
330
2A91
100
AcDbSymbolTableRecord
100
AcDbBlockTableRecord
  2
GENAXEH
340
0
  0
BLOCK_RECORD
  5
2B63
330
2A91
100
AcDbSymbolTableRecord
100
AcDbBlockTableRecord
  2
*D12
340
0
  0
BLOCK_RECORD
  5
2B65
330
2A91
100
AcDbSymbolTableRecord
100
AcDbBlockTableRecord
  2
*U13
340
0
102
{BLKREFS
331
1125
102
}
  0
BLOCK_RECORD
  5
2B67
330
2A91
100
AcDbSymbolTableRecord
100
AcDbBlockTableRecord
  2
*D14
340
0
  0
BLOCK_RECORD
  5
2B69
330
2A91
100
AcDbSymbolTableRecord
100
AcDbBlockTableRecord
  2
*U15
340
0
102
{BLKREFS
331
11C4
102
}
  0
BLOCK_RECORD
  5
2B6B
330
2A91
100
AcDbSymbolTableRecord
100
AcDbBlockTableRecord
  2
*D16
340
0
  0
BLOCK_RECORD
  5
2B6D
330
2A91
100
AcDbSymbolTableRecord
100
AcDbBlockTableRecord
  2
*U17
340
0
102
{BLKREFS
331
11EE
102
}
  0
BLOCK_RECORD
  5
2B6F
330
2A91
100
AcDbSymbolTableRecord
100
AcDbBlockTableRecord
  2
*D18
340
0
  0
BLOCK_RECORD
  5
2B71
330
2A91
100
AcDbSymbolTableRecord
100
AcDbBlockTableRecord
  2
*U19
340
0
102
{BLKREFS
331
11FB
102
}
  0
BLOCK_RECORD
  5
2B73
330
2A91
100
AcDbSymbolTableRecord
100
AcDbBlockTableRecord
  2
*D20
340
0
  0
BLOCK_RECORD
  5
2B75
330
2A91
100
AcDbSymbolTableRecord
100
AcDbBlockTableRecord
  2
*U21
340
0
102
{BLKREFS
331
1289
102
}
  0
BLOCK_RECORD
  5
2B77
330
2A91
100
AcDbSymbolTableRecord
100
AcDbBlockTableRecord
  2
*D22
340
0
  0
BLOCK_RECORD
  5
2B79
330
2A91
100
AcDbSymbolTableRecord
100
AcDbBlockTableRecord
  2
*U23
340
0
102
{BLKREFS
331
1419
102
}
  0
BLOCK_RECORD
  5
2B7B
330
2A91
100
AcDbSymbolTableRecord
100
AcDbBlockTableRecord
  2
*D24
340
0
  0
BLOCK_RECORD
  5
2B7D
330
2A91
100
AcDbSymbolTableRecord
100
AcDbBlockTableRecord
  2
*U25
340
0
102
{BLKREFS
331
1425
102
}
  0
BLOCK_RECORD
  5
2B7F
330
2A91
100
AcDbSymbolTableRecord
100
AcDbBlockTableRecord
  2
*D26
340
0
  0
BLOCK_RECORD
  5
2B81
330
2A91
100
AcDbSymbolTableRecord
100
AcDbBlockTableRecord
  2
*U27
340
0
102
{BLKREFS
331
1431
102
}
  0
BLOCK_RECORD
  5
2B83
330
2A91
100
AcDbSymbolTableRecord
100
AcDbBlockTableRecord
  2
*D28
340
0
  0
BLOCK_RECORD
  5
2B85
330
2A91
100
AcDbSymbolTableRecord
100
AcDbBlockTableRecord
  2
*U29
340
0
102
{BLKREFS
331
143D
102
}
  0
BLOCK_RECORD
  5
2B87
330
2A91
100
AcDbSymbolTableRecord
100
AcDbBlockTableRecord
  2
*D30
340
0
  0
BLOCK_RECORD
  5
2B89
330
2A91
100
AcDbSymbolTableRecord
100
AcDbBlockTableRecord
  2
*U31
340
0
102
{BLKREFS
331
1670
102
}
  0
BLOCK_RECORD
  5
2B8B
330
2A91
100
AcDbSymbolTableRecord
100
AcDbBlockTableRecord
  2
*D32
340
0
  0
BLOCK_RECORD
  5
2B8D
330
2A91
100
AcDbSymbolTableRecord
100
AcDbBlockTableRecord
  2
*U33
340
0
102
{BLKREFS
331
1679
102
}
  0
BLOCK_RECORD
  5
2B8F
330
2A91
100
AcDbSymbolTableRecord
100
AcDbBlockTableRecord
  2
*D34
340
0
  0
BLOCK_RECORD
  5
2B91
330
2A91
100
AcDbSymbolTableRecord
100
AcDbBlockTableRecord
  2
*U35
340
0
102
{BLKREFS
331
1682
102
}
  0
BLOCK_RECORD
  5
2B93
330
2A91
100
AcDbSymbolTableRecord
100
AcDbBlockTableRecord
  2
*D36
340
0
  0
BLOCK_RECORD
  5
2B95
330
2A91
100
AcDbSymbolTableRecord
100
AcDbBlockTableRecord
  2
*U37
340
0
102
{BLKREFS
331
168B
102
}
  0
BLOCK_RECORD
  5
2B97
330
2A91
100
AcDbSymbolTableRecord
100
AcDbBlockTableRecord
  2
*U38
340
0
  0
BLOCK_RECORD
  5
2B99
330
2A91
100
AcDbSymbolTableRecord
100
AcDbBlockTableRecord
  2
*D39
340
0
  0
BLOCK_RECORD
  5
2B9B
330
2A91
100
AcDbSymbolTableRecord
100
AcDbBlockTableRecord
  2
*U40
340
0
102
{BLKREFS
331
1698
102
}
  0
BLOCK_RECORD
  5
2B9D
330
2A91
100
AcDbSymbolTableRecord
100
AcDbBlockTableRecord
  2
*D41
340
0
  0
BLOCK_RECORD
  5
2B9F
330
2A91
100
AcDbSymbolTableRecord
100
AcDbBlockTableRecord
  2
*U42
340
0
102
{BLKREFS
331
16A5
102
}
  0
BLOCK_RECORD
  5
2BA1
330
2A91
100
AcDbSymbolTableRecord
100
AcDbBlockTableRecord
  2
*D43
340
0
  0
BLOCK_RECORD
  5
2BA3
330
2A91
100
AcDbSymbolTableRecord
100
AcDbBlockTableRecord
  2
*U44
340
0
102
{BLKREFS
331
16B1
102
}
  0
BLOCK_RECORD
  5
2BA5
330
2A91
100
AcDbSymbolTableRecord
100
AcDbBlockTableRecord
  2
*D45
340
0
  0
BLOCK_RECORD
  5
2BA7
330
2A91
100
AcDbSymbolTableRecord
100
AcDbBlockTableRecord
  2
*U46
340
0
102
{BLKREFS
331
16BD
102
}
  0
BLOCK_RECORD
  5
2BA9
330
2A91
100
AcDbSymbolTableRecord
100
AcDbBlockTableRecord
  2
*D47
340
0
  0
BLOCK_RECORD
  5
2BAB
330
2A91
100
AcDbSymbolTableRecord
100
AcDbBlockTableRecord
  2
*U48
340
0
102
{BLKREFS
331
16C9
102
}
  0
BLOCK_RECORD
  5
2BAD
330
2A91
100
AcDbSymbolTableRecord
100
AcDbBlockTableRecord
  2
*D49
340
0
  0
BLOCK_RECORD
  5
2BAF
330
2A91
100
AcDbSymbolTableRecord
100
AcDbBlockTableRecord
  2
*U50
340
0
102
{BLKREFS
331
16D5
102
}
  0
BLOCK_RECORD
  5
2BB1
330
2A91
100
AcDbSymbolTableRecord
100
AcDbBlockTableRecord
  2
*D51
340
0
  0
BLOCK_RECORD
  5
2BB3
330
2A91
100
AcDbSymbolTableRecord
100
AcDbBlockTableRecord
  2
*U52
340
0
102
{BLKREFS
331
1D88
102
}
  0
BLOCK_RECORD
  5
2BB5
330
2A91
100
AcDbSymbolTableRecord
100
AcDbBlockTableRecord
  2
*D53
340
0
  0
BLOCK_RECORD
  5
2BB7
330
2A91
100
AcDbSymbolTableRecord
100
AcDbBlockTableRecord
  2
*U54
340
0
102
{BLKREFS
331
1D91
102
}
  0
BLOCK_RECORD
  5
2BB9
330
2A91
100
AcDbSymbolTableRecord
100
AcDbBlockTableRecord
  2
*D55
340
0
  0
BLOCK_RECORD
  5
2BBB
330
2A91
100
AcDbSymbolTableRecord
100
AcDbBlockTableRecord
  2
*U56
340
0
102
{BLKREFS
331
1D9A
102
}
  0
BLOCK_RECORD
  5
2BBD
330
2A91
100
AcDbSymbolTableRecord
100
AcDbBlockTableRecord
  2
*D57
340
0
  0
BLOCK_RECORD
  5
2BBF
330
2A91
100
AcDbSymbolTableRecord
100
AcDbBlockTableRecord
  2
*U58
340
0
102
{BLKREFS
331
1DA3
102
}
  0
BLOCK_RECORD
  5
2BC1
330
2A91
100
AcDbSymbolTableRecord
100
AcDbBlockTableRecord
  2
*D59
340
0
  0
BLOCK_RECORD
  5
2BC3
330
2A91
100
AcDbSymbolTableRecord
100
AcDbBlockTableRecord
  2
*U60
340
0
102
{BLKREFS
331
1DAD
102
}
  0
BLOCK_RECORD
  5
2BC5
330
2A91
100
AcDbSymbolTableRecord
100
AcDbBlockTableRecord
  2
*D61
340
0
  0
BLOCK_RECORD
  5
2BC7
330
2A91
100
AcDbSymbolTableRecord
100
AcDbBlockTableRecord
  2
*U62
340
0
102
{BLKREFS
331
1DB7
102
}
  0
BLOCK_RECORD
  5
2BC9
330
2A91
100
AcDbSymbolTableRecord
100
AcDbBlockTableRecord
  2
*U63
340
0
  0
BLOCK_RECORD
  5
2BCB
330
2A91
100
AcDbSymbolTableRecord
100
AcDbBlockTableRecord
  2
*U64
340
0
  0
BLOCK_RECORD
  5
2BCD
330
2A91
100
AcDbSymbolTableRecord
100
AcDbBlockTableRecord
  2
*U65
340
0
  0
BLOCK_RECORD
  5
2BCF
330
2A91
100
AcDbSymbolTableRecord
100
AcDbBlockTableRecord
  2
*U66
340
0
  0
BLOCK_RECORD
  5
2BD1
330
2A91
100
AcDbSymbolTableRecord
100
AcDbBlockTableRecord
  2
*U67
340
0
  0
BLOCK_RECORD
  5
2BD3
330
2A91
100
AcDbSymbolTableRecord
100
AcDbBlockTableRecord
  2
*U68
340
0
  0
BLOCK_RECORD
  5
2BD5
330
2A91
100
AcDbSymbolTableRecord
100
AcDbBlockTableRecord
  2
*U69
340
0
  0
BLOCK_RECORD
  5
2BD7
330
2A91
100
AcDbSymbolTableRecord
100
AcDbBlockTableRecord
  2
*U70
340
0
  0
BLOCK_RECORD
  5
2BD9
330
2A91
100
AcDbSymbolTableRecord
100
AcDbBlockTableRecord
  2
*U71
340
0
  0
BLOCK_RECORD
  5
2BDB
330
2A91
100
AcDbSymbolTableRecord
100
AcDbBlockTableRecord
  2
*U72
340
0
  0
BLOCK_RECORD
  5
2BDD
330
2A91
100
AcDbSymbolTableRecord
100
AcDbBlockTableRecord
  2
*U73
340
0
  0
BLOCK_RECORD
  5
2BDF
330
2A91
100
AcDbSymbolTableRecord
100
AcDbBlockTableRecord
  2
*U74
340
0
102
{BLKREFS
331
2862
102
}
  0
BLOCK_RECORD
  5
2BE1
330
2A91
100
AcDbSymbolTableRecord
100
AcDbBlockTableRecord
  2
*U75
340
0
102
{BLKREFS
331
2863
102
}
  0
BLOCK_RECORD
  5
2BE3
330
2A91
100
AcDbSymbolTableRecord
100
AcDbBlockTableRecord
  2
*X76
340
0
102
{BLKREFS
331
288A
102
}
  0
BLOCK_RECORD
  5
2BE5
330
2A91
100
AcDbSymbolTableRecord
100
AcDbBlockTableRecord
  2
*X77
340
0
102
{BLKREFS
331
288B
102
}
  0
ENDTAB
  0
ENDSEC
  0
SECTION
  2
BLOCKS
  0
BLOCK
  5
2B05
330
2B04
100
AcDbEntity
  8
0
100
AcDbBlockBegin
  2
*Model_Space
 70
     0
 10
0.0
 20
0.0
 30
0.0
  3
*Model_Space
  1

  0
ENDBLK
  5
2B06
330
2B04
100
AcDbEntity
  8
0
100
AcDbBlockEnd
  0
BLOCK
  5
2B01
330
2B00
100
AcDbEntity
 67
     1
  8
0
100
AcDbBlockBegin
  2
*Paper_Space
 70
     0
 10
0.0
 20
0.0
 30
0.0
  3
*Paper_Space
  1

  0
ENDBLK
  5
2B02
330
2B00
100
AcDbEntity
 67
     1
  8
0
100
AcDbBlockEnd
  0
BLOCK
  5
2B4C
330
2B4B
100
AcDbEntity
  8
0
100
AcDbBlockBegin
  2
$MODEL_SPACE
 70
     0
 10
0.0
 20
0.0
 30
0.0
  3
$MODEL_SPACE
  1

  0
ENDBLK
  5
296B
330
2B4B
100
AcDbEntity
  8
0
100
AcDbBlockEnd
  0
BLOCK
  5
2B4E
330
2B4D
100
AcDbEntity
  8
0
100
AcDbBlockBegin
  2
$PAPER_SPACE
 70
     0
 10
0.0
 20
0.0
 30
0.0
  3
$PAPER_SPACE
  1

  0
ENDBLK
  5
2967
330
2B4D
100
AcDbEntity
  8
0
100
AcDbBlockEnd
  0
BLOCK
  5
2B50
330
2B4F
100
AcDbEntity
  8
0
100
AcDbBlockBegin
  2
_ORIGIN
 70
     0
 10
0.0
 20
0.0
 30
0.0
  3
_ORIGIN
  1

  0
CIRCLE
  5
880
330
2B4F
100
AcDbEntity
  8
0
  6
Continuous
 62
     7
100
AcDbCircle
 10
0.0
 20
0.0
 30
0.0
 40
0.5
  0
LINE
  5
881
330
2B4F
100
AcDbEntity
  8
0
  6
Continuous
 62
     7
100
AcDbLine
 10
0.0
 20
0.0
 30
0.0
 11
-1.0
 21
0.0
 31
0.0
  0
ENDBLK
  5
882
330
2B4F
100
AcDbEntity
  8
0
100
AcDbBlockEnd
  0
BLOCK
  5
2B52
330
2B51
100
AcDbEntity
  8
0
 62
     1
100
AcDbBlockBegin
  2
_DOTBLANK
 70
     0
 10
0.0
 20
0.0
 30
0.0
  3
_DOTBLANK
  1

  0
CIRCLE
  5
AB3
330
2B51
100
AcDbEntity
  8
0
  6
ByBlock
 62
     0
100
AcDbCircle
 10
0.0
 20
0.0
 30
0.0
 40
0.5
  0
LINE
  5
AB4
330
2B51
100
AcDbEntity
  8
0
  6
ByBlock
 62
     0
100
AcDbLine
 10
-0.5
 20
0.0
 30
0.0
 11
-1.0
 21
0.0
 31
0.0
  0
ENDBLK
  5
AB6
330
2B51
100
AcDbEntity
  8
0
 62
     1
100
AcDbBlockEnd
  0
BLOCK
  5
2B54
330
2B53
100
AcDbEntity
  8
0
 62
     1
100
AcDbBlockBegin
  2
_OPEN30
 70
     0
 10
0.0
 20
0.0
 30
0.0
  3
_OPEN30
  1

  0
LINE
  5
AB8
330
2B53
100
AcDbEntity
  8
0
  6
ByBlock
 62
     0
100
AcDbLine
 10
-1.0
 20
0.26794919
 30
0.0
 11
0.0
 21
0.0
 31
0.0
  0
LINE
  5
AB9
330
2B53
100
AcDbEntity
  8
0
  6
ByBlock
 62
     0
100
AcDbLine
 10
0.0
 20
0.0
 30
0.0
 11
-1.0
 21
-0.26794919
 31
0.0
  0
LINE
  5
ABA
330
2B53
100
AcDbEntity
  8
0
  6
ByBlock
 62
     0
100
AcDbLine
 10
0.0
 20
0.0
 30
0.0
 11
-1.0
 21
0.0
 31
0.0
  0
ENDBLK
  5
ABC
330
2B53
100
AcDbEntity
  8
0
 62
     1
100
AcDbBlockEnd
  0
BLOCK
  5
2B56
330
2B55
100
AcDbEntity
  8
0
100
AcDbBlockBegin
  2
*D5
 70
     1
 10
0.0
 20
0.0
 30
0.0
  3
*D5
  1

  0
LINE
  5
1296
330
2B55
100
AcDbEntity
  8
SIZE
 62
     0
100
AcDbLine
 10
-134.5
 20
-320.0
 30
0.0
 11
-134.5
 21
-468.0173952306001
 31
0.0
  0
LINE
  5
1297
330
2B55
100
AcDbEntity
  8
SIZE
 62
     0
100
AcDbLine
 10
134.5
 20
-320.0
 30
0.0
 11
134.5
 21
-468.0173952306001
 31
0.0
  0
LINE
  5
1298
330
2B55
100
AcDbEntity
  8
SIZE
 62
     0
100
AcDbLine
 10
-122.5
 20
-448.0173952306
 30
0.0
 11
122.5
 21
-448.0173952306
 31
0.0
  0
INSERT
  5
1299
330
2B55
100
AcDbEntity
  8
SIZE
 62
     0
100
AcDbBlockReference
  2
_DOTBLANK
 10
-134.5
 20
-448.0173952306
 30
0.0
 41
12.0
 42
12.0
 43
12.0
 50
180.0
  0
INSERT
  5
129A
330
2B55
100
AcDbEntity
  8
SIZE
 62
     0
100
AcDbBlockReference
  2
_DOTBLANK
 10
134.5
 20
-448.0173952306
 30
0.0
 41
12.0
 42
12.0
 43
12.0
  0
INSERT
  5
129B
330
2B55
100
AcDbEntity
  8
0
100
AcDbBlockReference
  2
*U6
 10
0.0
 20
0.0
 30
0.0
  0
POINT
  5
129C
330
2B55
100
AcDbEntity
  8
DEFPOINTS
 62
     0
100
AcDbPoint
 10
-134.5
 20
-300.0
 30
0.0
  0
POINT
  5
129D
330
2B55
100
AcDbEntity
  8
DEFPOINTS
 62
     0
100
AcDbPoint
 10
134.5
 20
-300.0
 30
0.0
  0
POINT
  5
129E
330
2B55
100
AcDbEntity
  8
DEFPOINTS
 62
     0
100
AcDbPoint
 10
134.5
 20
-448.0173952306
 30
0.0
  0
ENDBLK
  5
D72
330
2B55
100
AcDbEntity
  8
0
100
AcDbBlockEnd
  0
BLOCK
  5
2B58
330
2B57
100
AcDbEntity
  8
0
100
AcDbBlockBegin
  2
*U6
 70
     1
 10
0.0
 20
0.0
 30
0.0
  3
*U6
  1

  0
TEXT
  5
1EF5
330
2B57
100
AcDbEntity
  8
SIZE
 62
     0
100
AcDbText
 10
-72.68571428571426
 20
-438.0173952305999
 30
0.0
 40
64.0
  1
269
 41
0.9
100
AcDbText
  0
ENDBLK
  5
1EF7
330
2B57
100
AcDbEntity
  8
0
100
AcDbBlockEnd
  0
BLOCK
  5
2B5A
330
2B59
100
AcDbEntity
  8
0
100
AcDbBlockBegin
  2
*D7
 70
     1
 10
0.0
 20
0.0
 30
0.0
  3
*D7
  1

  0
LINE
  5
11A7
330
2B59
100
AcDbEntity
  8
SIZE
  6
Continuous
 62
     0
100
AcDbLine
 10
143.5
 20
-300.0
 30
0.0
 11
304.6432844803791
 21
-300.0
 31
0.0
  0
LINE
  5
11A8
330
2B59
100
AcDbEntity
  8
SIZE
  6
Continuous
 62
     0
100
AcDbLine
 10
177.5
 20
-0.0000000000000057
 30
0.0
 11
304.6432844803792
 21
-0.0000000000000417
 31
0.0
  0
LINE
  5
11A9
330
2B59
100
AcDbEntity
  8
SIZE
  6
Continuous
 62
     0
100
AcDbLine
 10
284.6432844803791
 20
-288.0000000000001
 30
0.0
 11
284.6432844803792
 21
-12.00000000000003
 31
0.0
  0
INSERT
  5
11AA
330
2B59
100
AcDbEntity
  8
SIZE
  6
Continuous
 62
     0
100
AcDbBlockReference
  2
_DOTBLANK
 10
284.6432844803791
 20
-300.0
 30
0.0
 41
12.0
 42
12.0
 43
12.0
 50
270.0
  0
INSERT
  5
11AB
330
2B59
100
AcDbEntity
  8
SIZE
  6
Continuous
 62
     0
100
AcDbBlockReference
  2
_DOTBLANK
 10
284.6432844803792
 20
-0.000000000000036
 30
0.0
 41
12.0
 42
12.0
 43
12.0
 50
90.0
  0
INSERT
  5
11AC
330
2B59
100
AcDbEntity
  8
0
100
AcDbBlockReference
  2
*U8
 10
0.0
 20
0.0
 30
0.0
  0
POINT
  5
11AD
330
2B59
100
AcDbEntity
  8
DEFPOINTS
  6
Continuous
 62
     0
100
AcDbPoint
 10
123.5
 20
-300.0
 30
0.0
  0
POINT
  5
11AE
330
2B59
100
AcDbEntity
  8
DEFPOINTS
  6
Continuous
 62
     0
100
AcDbPoint
 10
157.5
 20
0.0
 30
0.0
  0
POINT
  5
11AF
330
2B59
100
AcDbEntity
  8
DEFPOINTS
  6
Continuous
 62
     0
100
AcDbPoint
 10
284.6432844803792
 20
-0.000000000000036
 30
0.0
  0
ENDBLK
  5
E11
330
2B59
100
AcDbEntity
  8
0
100
AcDbBlockEnd
  0
BLOCK
  5
2B5C
330
2B5B
100
AcDbEntity
  8
0
100
AcDbBlockBegin
  2
*U8
 70
     1
 10
0.0
 20
0.0
 30
0.0
  3
*U8
  1

  0
TEXT
  5
1EE1
330
2B5B
100
AcDbEntity
  8
SIZE
 62
     0
100
AcDbText
 10
274.6432844803792
 20
-224.0571428571429
 30
0.0
 40
64.0
  1
300
 50
90.0
 41
0.9
100
AcDbText
  0
ENDBLK
  5
1EE3
330
2B5B
100
AcDbEntity
  8
0
100
AcDbBlockEnd
  0
BLOCK
  5
2B5E
330
2B5D
100
AcDbEntity
  8
0
100
AcDbBlockBegin
  2
*D9
 70
     1
 10
0.0
 20
0.0
 30
0.0
  3
*D9
  1

  0
LINE
  5
E7D
330
2B5D
100
AcDbEntity
  8
SIZE
 62
     0
100
AcDbLine
 10
-139.9999999999998
 20
32.46448280219375
 30
0.0
 11
-139.9999999999998
 21
136.4516878685508
 31
0.0
  0
LINE
  5
E7E
330
2B5D
100
AcDbEntity
  8
SIZE
 62
     0
100
AcDbLine
 10
140.0
 20
32.46448280219375
 30
0.0
 11
140.0
 21
136.4516878685508
 31
0.0
  0
LINE
  5
E7F
330
2B5D
100
AcDbEntity
  8
SIZE
 62
     0
100
AcDbLine
 10
-128.0
 20
116.4516878685508
 30
0.0
 11
128.0
 21
116.4516878685508
 31
0.0
  0
INSERT
  5
E80
330
2B5D
100
AcDbEntity
  8
SIZE
 62
     0
100
AcDbBlockReference
  2
_DOTBLANK
 10
-139.9999999999998
 20
116.4516878685508
 30
0.0
 41
12.0
 42
12.0
 43
12.0
 50
180.0
  0
INSERT
  5
E81
330
2B5D
100
AcDbEntity
  8
SIZE
 62
     0
100
AcDbBlockReference
  2
_DOTBLANK
 10
140.0
 20
116.4516878685508
 30
0.0
 41
12.0
 42
12.0
 43
12.0
  0
INSERT
  5
E82
330
2B5D
100
AcDbEntity
  8
0
100
AcDbBlockReference
  2
*U10
 10
0.0
 20
0.0
 30
0.0
  0
POINT
  5
E83
330
2B5D
100
AcDbEntity
  8
DEFPOINTS
 62
     0
100
AcDbPoint
 10
-139.9999999999998
 20
12.46448280219374
 30
0.0
  0
POINT
  5
E84
330
2B5D
100
AcDbEntity
  8
DEFPOINTS
 62
     0
100
AcDbPoint
 10
140.0
 20
12.46448280219374
 30
0.0
  0
POINT
  5
E85
330
2B5D
100
AcDbEntity
  8
DEFPOINTS
 62
     0
100
AcDbPoint
 10
140.0
 20
116.4516878685508
 30
0.0
  0
ENDBLK
  5
E7C
330
2B5D
100
AcDbEntity
  8
0
100
AcDbBlockEnd
  0
BLOCK
  5
2B60
330
2B5F
100
AcDbEntity
  8
0
100
AcDbBlockBegin
  2
*U10
 70
     1
 10
0.0
 20
0.0
 30
0.0
  3
*U10
  1

  0
TEXT
  5
1ED8
330
2B5F
100
AcDbEntity
  8
SIZE
 62
     0
100
AcDbText
 10
-74.05714285714281
 20
126.4516878685508
 30
0.0
 40
64.0
  1
280
 41
0.9
100
AcDbText
  0
ENDBLK
  5
1EDA
330
2B5F
100
AcDbEntity
  8
0
100
AcDbBlockEnd
  0
BLOCK
  5
2B62
330
2B61
100
AcDbEntity
  8
0
100
AcDbBlockBegin
  2
GENAXEH
 70
     0
 10
0.0
 20
0.0
 30
0.0
  3
GENAXEH
  1

  0
LINE
  5
FDB
330
2B61
100
AcDbEntity
  8
0
100
AcDbLine
 10
-1.0
 20
0.0
 30
0.0
 11
1.0
 21
0.0
 31
0.0
  0
ENDBLK
  5
FDD
330
2B61
100
AcDbEntity
  8
0
100
AcDbBlockEnd
  0
BLOCK
  5
2B64
330
2B63
100
AcDbEntity
  8
0
100
AcDbBlockBegin
  2
*D12
 70
     1
 10
0.0
 20
0.0
 30
0.0
  3
*D12
  1

  0
LINE
  5
1120
330
2B63
100
AcDbEntity
  8
SIZE
 62
     0
100
AcDbLine
 10
-157.5
 20
20.0
 30
0.0
 11
-157.5
 21
245.5794621189598
 31
0.0
  0
LINE
  5
1121
330
2B63
100
AcDbEntity
  8
SIZE
 62
     0
100
AcDbLine
 10
157.5
 20
20.0
 30
0.0
 11
157.5
 21
245.5794621189598
 31
0.0
  0
LINE
  5
1122
330
2B63
100
AcDbEntity
  8
SIZE
 62
     0
100
AcDbLine
 10
-145.5
 20
225.5794621189598
 30
0.0
 11
145.5
 21
225.5794621189598
 31
0.0
  0
INSERT
  5
1123
330
2B63
100
AcDbEntity
  8
SIZE
 62
     0
100
AcDbBlockReference
  2
_DOTBLANK
 10
-157.5
 20
225.5794621189598
 30
0.0
 41
12.0
 42
12.0
 43
12.0
 50
180.0
  0
INSERT
  5
1124
330
2B63
100
AcDbEntity
  8
SIZE
 62
     0
100
AcDbBlockReference
  2
_DOTBLANK
 10
157.5
 20
225.5794621189598
 30
0.0
 41
12.0
 42
12.0
 43
12.0
  0
INSERT
  5
1125
330
2B63
100
AcDbEntity
  8
0
100
AcDbBlockReference
  2
*U13
 10
0.0
 20
0.0
 30
0.0
  0
POINT
  5
1126
330
2B63
100
AcDbEntity
  8
DEFPOINTS
 62
     0
100
AcDbPoint
 10
-157.5
 20
0.0
 30
0.0
  0
POINT
  5
1127
330
2B63
100
AcDbEntity
  8
DEFPOINTS
 62
     0
100
AcDbPoint
 10
157.5
 20
0.0
 30
0.0
  0
POINT
  5
1128
330
2B63
100
AcDbEntity
  8
DEFPOINTS
 62
     0
100
AcDbPoint
 10
157.5
 20
225.5794621189598
 30
0.0
  0
ENDBLK
  5
111F
330
2B63
100
AcDbEntity
  8
0
100
AcDbBlockEnd
  0
BLOCK
  5
2B66
330
2B65
100
AcDbEntity
  8
0
100
AcDbBlockBegin
  2
*U13
 70
     1
 10
0.0
 20
0.0
 30
0.0
  3
*U13
  1

  0
TEXT
  5
1EDD
330
2B65
100
AcDbEntity
  8
SIZE
 62
     0
100
AcDbText
 10
-68.57142857142857
 20
235.5794621189599
 30
0.0
 40
64.0
  1
315
 41
0.9
100
AcDbText
  0
ENDBLK
  5
1EDF
330
2B65
100
AcDbEntity
  8
0
100
AcDbBlockEnd
  0
BLOCK
  5
2B68
330
2B67
100
AcDbEntity
  8
0
100
AcDbBlockBegin
  2
*D14
 70
     1
 10
0.0
 20
0.0
 30
0.0
  3
*D14
  1

  0
LINE
  5
11BD
330
2B67
100
AcDbEntity
  8
NOTE
 62
     0
100
AcDbLine
 10
-123.4999999999999
 20
-320.0
 30
0.0
 11
-123.4999999999999
 21
-354.9529861856111
 31
0.0
  0
LINE
  5
11BE
330
2B67
100
AcDbEntity
  8
NOTE
 62
     0
100
AcDbLine
 10
-133.4999999999998
 20
-331.2126909923287
 30
0.0
 11
-133.4999999999998
 21
-354.9529861856111
 31
0.0
  0
LINE
  5
11BF
330
2B67
100
AcDbEntity
  8
NOTE
 62
     0
100
AcDbLine
 10
-111.4999999999999
 20
-334.9529861856112
 30
0.0
 11
-99.4999999999999
 21
-334.9529861856112
 31
0.0
  0
LINE
  5
11C0
330
2B67
100
AcDbEntity
  8
NOTE
 62
     0
100
AcDbLine
 10
-145.4999999999998
 20
-334.9529861856112
 30
0.0
 11
-157.4999999999998
 21
-334.9529861856112
 31
0.0
  0
LINE
  5
11C1
330
2B67
100
AcDbEntity
  8
NOTE
 62
     0
100
AcDbLine
 10
-123.4999999999999
 20
-334.9529861856112
 30
0.0
 11
-133.4999999999998
 21
-334.9529861856112
 31
0.0
  0
INSERT
  5
11C2
330
2B67
100
AcDbEntity
  8
NOTE
 62
     0
100
AcDbBlockReference
  2
_DOTBLANK
 10
-123.4999999999999
 20
-334.9529861856112
 30
0.0
 41
12.0
 42
12.0
 43
12.0
 50
180.0
  0
INSERT
  5
11C3
330
2B67
100
AcDbEntity
  8
NOTE
 62
     0
100
AcDbBlockReference
  2
_DOTBLANK
 10
-133.4999999999998
 20
-334.9529861856112
 30
0.0
 41
12.0
 42
12.0
 43
12.0
  0
INSERT
  5
11C4
330
2B67
100
AcDbEntity
  8
0
100
AcDbBlockReference
  2
*U15
 10
0.0
 20
0.0
 30
0.0
  0
POINT
  5
11C5
330
2B67
100
AcDbEntity
  8
DEFPOINTS
 62
     0
100
AcDbPoint
 10
-123.4999999999999
 20
-300.0
 30
0.0
  0
POINT
  5
11C6
330
2B67
100
AcDbEntity
  8
DEFPOINTS
 62
     0
100
AcDbPoint
 10
-133.4999999999998
 20
-311.2126909923287
 30
0.0
  0
POINT
  5
11C7
330
2B67
100
AcDbEntity
  8
DEFPOINTS
 62
     0
100
AcDbPoint
 10
-133.4999999999998
 20
-334.9529861856112
 30
0.0
  0
ENDBLK
  5
11BC
330
2B67
100
AcDbEntity
  8
0
100
AcDbBlockEnd
  0
BLOCK
  5
2B6A
330
2B69
100
AcDbEntity
  8
0
100
AcDbBlockBegin
  2
*U15
 70
     1
 10
0.0
 20
0.0
 30
0.0
  3
*U15
  1

  0
TEXT
  5
1EE5
330
2B69
100
AcDbEntity
  8
NOTE
 62
     0
100
AcDbText
 10
-169.642857142857
 20
-324.9529861856112
 30
0.0
 40
64.0
  1
10
 41
0.9
100
AcDbText
  0
ENDBLK
  5
1EE7
330
2B69
100
AcDbEntity
  8
0
100
AcDbBlockEnd
  0
BLOCK
  5
2B6C
330
2B6B
100
AcDbEntity
  8
0
100
AcDbBlockBegin
  2
*D16
 70
     1
 10
0.0
 20
0.0
 30
0.0
  3
*D16
  1

  0
LINE
  5
11E7
330
2B6B
100
AcDbEntity
  8
NOTE
 62
     0
100
AcDbLine
 10
-135.5
 20
-333.2126909923287
 30
0.0
 11
-135.5
 21
-386.2569421441843
 31
0.0
  0
LINE
  5
11E8
330
2B6B
100
AcDbEntity
  8
NOTE
 62
     0
100
AcDbLine
 10
-123.4999999999999
 20
-320.0
 30
0.0
 11
-123.4999999999999
 21
-386.2569421441843
 31
0.0
  0
LINE
  5
11E9
330
2B6B
100
AcDbEntity
  8
NOTE
 62
     0
100
AcDbLine
 10
-147.5
 20
-366.2569421441844
 30
0.0
 11
-159.5
 21
-366.2569421441844
 31
0.0
  0
LINE
  5
11EA
330
2B6B
100
AcDbEntity
  8
NOTE
 62
     0
100
AcDbLine
 10
-111.4999999999999
 20
-366.2569421441844
 30
0.0
 11
-99.4999999999999
 21
-366.2569421441844
 31
0.0
  0
LINE
  5
11EB
330
2B6B
100
AcDbEntity
  8
NOTE
 62
     0
100
AcDbLine
 10
-135.5
 20
-366.2569421441844
 30
0.0
 11
-123.4999999999999
 21
-366.2569421441844
 31
0.0
  0
INSERT
  5
11EC
330
2B6B
100
AcDbEntity
  8
NOTE
 62
     0
100
AcDbBlockReference
  2
_DOTBLANK
 10
-135.5
 20
-366.2569421441844
 30
0.0
 41
12.0
 42
12.0
 43
12.0
  0
INSERT
  5
11ED
330
2B6B
100
AcDbEntity
  8
NOTE
 62
     0
100
AcDbBlockReference
  2
_DOTBLANK
 10
-123.4999999999999
 20
-366.2569421441844
 30
0.0
 41
12.0
 42
12.0
 43
12.0
 50
180.0
  0
INSERT
  5
11EE
330
2B6B
100
AcDbEntity
  8
0
100
AcDbBlockReference
  2
*U17
 10
0.0
 20
0.0
 30
0.0
  0
POINT
  5
11EF
330
2B6B
100
AcDbEntity
  8
DEFPOINTS
 62
     0
100
AcDbPoint
 10
-135.5
 20
-313.2126909923287
 30
0.0
  0
POINT
  5
11F0
330
2B6B
100
AcDbEntity
  8
DEFPOINTS
 62
     0
100
AcDbPoint
 10
-123.4999999999999
 20
-300.0
 30
0.0
  0
POINT
  5
11F1
330
2B6B
100
AcDbEntity
  8
DEFPOINTS
 62
     0
100
AcDbPoint
 10
-123.4999999999999
 20
-366.2569421441844
 30
0.0
  0
ENDBLK
  5
11E6
330
2B6B
100
AcDbEntity
  8
0
100
AcDbBlockEnd
  0
BLOCK
  5
2B6E
330
2B6D
100
AcDbEntity
  8
0
100
AcDbBlockBegin
  2
*U17
 70
     1
 10
0.0
 20
0.0
 30
0.0
  3
*U17
  1

  0
TEXT
  5
1EE9
330
2B6D
100
AcDbEntity
  8
NOTE
 62
     0
100
AcDbText
 10
-170.642857142857
 20
-356.2569421441843
 30
0.0
 40
64.0
  1
12
 41
0.9
100
AcDbText
  0
ENDBLK
  5
1EEB
330
2B6D
100
AcDbEntity
  8
0
100
AcDbBlockEnd
  0
BLOCK
  5
2B70
330
2B6F
100
AcDbEntity
  8
0
100
AcDbBlockBegin
  2
*D18
 70
     1
 10
0.0
 20
0.0
 30
0.0
  3
*D18
  1

  0
LINE
  5
11F6
330
2B6F
100
AcDbEntity
  8
NOTE
 62
     0
100
AcDbLine
 10
-123.4999999999999
 20
-320.0
 30
0.0
 11
-123.4999999999999
 21
-583.8286022818904
 31
0.0
  0
LINE
  5
11F7
330
2B6F
100
AcDbEntity
  8
NOTE
 62
     0
100
AcDbLine
 10
123.5
 20
-320.0
 30
0.0
 11
123.5
 21
-583.8286022818904
 31
0.0
  0
LINE
  5
11F8
330
2B6F
100
AcDbEntity
  8
NOTE
 62
     0
100
AcDbLine
 10
-111.4999999999999
 20
-563.8286022818904
 30
0.0
 11
111.5
 21
-563.8286022818904
 31
0.0
  0
INSERT
  5
11F9
330
2B6F
100
AcDbEntity
  8
NOTE
 62
     0
100
AcDbBlockReference
  2
_DOTBLANK
 10
-123.4999999999999
 20
-563.8286022818904
 30
0.0
 41
12.0
 42
12.0
 43
12.0
 50
180.0
  0
INSERT
  5
11FA
330
2B6F
100
AcDbEntity
  8
NOTE
 62
     0
100
AcDbBlockReference
  2
_DOTBLANK
 10
123.5
 20
-563.8286022818904
 30
0.0
 41
12.0
 42
12.0
 43
12.0
  0
INSERT
  5
11FB
330
2B6F
100
AcDbEntity
  8
0
100
AcDbBlockReference
  2
*U19
 10
0.0
 20
0.0
 30
0.0
  0
POINT
  5
11FC
330
2B6F
100
AcDbEntity
  8
DEFPOINTS
 62
     0
100
AcDbPoint
 10
-123.4999999999999
 20
-300.0
 30
0.0
  0
POINT
  5
11FD
330
2B6F
100
AcDbEntity
  8
DEFPOINTS
 62
     0
100
AcDbPoint
 10
123.5
 20
-300.0
 30
0.0
  0
POINT
  5
11FE
330
2B6F
100
AcDbEntity
  8
DEFPOINTS
 62
     0
100
AcDbPoint
 10
123.5
 20
-563.8286022818904
 30
0.0
  0
ENDBLK
  5
11F5
330
2B6F
100
AcDbEntity
  8
0
100
AcDbBlockEnd
  0
BLOCK
  5
2B72
330
2B71
100
AcDbEntity
  8
0
100
AcDbBlockBegin
  2
*U19
 70
     1
 10
0.0
 20
0.0
 30
0.0
  3
*U19
  1

  0
TEXT
  5
1EED
330
2B71
100
AcDbEntity
  8
NOTE
 62
     0
100
AcDbText
 10
-74.05714285714281
 20
-553.8286022818904
 30
0.0
 40
64.0
  1
247
 41
0.9
100
AcDbText
  0
ENDBLK
  5
1EEF
330
2B71
100
AcDbEntity
  8
0
100
AcDbBlockEnd
  0
BLOCK
  5
2B74
330
2B73
100
AcDbEntity
  8
0
100
AcDbBlockBegin
  2
*D20
 70
     1
 10
0.0
 20
0.0
 30
0.0
  3
*D20
  1

  0
LINE
  5
1284
330
2B73
100
AcDbEntity
  8
NOTE
 62
     0
100
AcDbLine
 10
-123.5
 20
12.0
 30
0.0
 11
-123.5
 21
71.83630134534229
 31
0.0
  0
LINE
  5
1285
330
2B73
100
AcDbEntity
  8
NOTE
 62
     0
100
AcDbLine
 10
123.5
 20
12.0
 30
0.0
 11
123.5
 21
71.83630134534229
 31
0.0
  0
LINE
  5
1286
330
2B73
100
AcDbEntity
  8
NOTE
 62
     0
100
AcDbLine
 10
-111.5
 20
51.83630134534229
 30
0.0
 11
111.5
 21
51.83630134534229
 31
0.0
  0
INSERT
  5
1287
330
2B73
100
AcDbEntity
  8
NOTE
 62
     0
100
AcDbBlockReference
  2
_DOTBLANK
 10
-123.5
 20
51.83630134534229
 30
0.0
 41
12.0
 42
12.0
 43
12.0
 50
180.0
  0
INSERT
  5
1288
330
2B73
100
AcDbEntity
  8
NOTE
 62
     0
100
AcDbBlockReference
  2
_DOTBLANK
 10
123.5
 20
51.83630134534229
 30
0.0
 41
12.0
 42
12.0
 43
12.0
  0
INSERT
  5
1289
330
2B73
100
AcDbEntity
  8
0
100
AcDbBlockReference
  2
*U21
 10
0.0
 20
0.0
 30
0.0
  0
POINT
  5
128A
330
2B73
100
AcDbEntity
  8
DEFPOINTS
 62
     0
100
AcDbPoint
 10
-123.5
 20
-8.0
 30
0.0
  0
POINT
  5
128B
330
2B73
100
AcDbEntity
  8
DEFPOINTS
 62
     0
100
AcDbPoint
 10
123.5
 20
-8.0
 30
0.0
  0
POINT
  5
128C
330
2B73
100
AcDbEntity
  8
DEFPOINTS
 62
     0
100
AcDbPoint
 10
123.5
 20
51.83630134534229
 30
0.0
  0
ENDBLK
  5
1283
330
2B73
100
AcDbEntity
  8
0
100
AcDbBlockEnd
  0
BLOCK
  5
2B76
330
2B75
100
AcDbEntity
  8
0
100
AcDbBlockBegin
  2
*U21
 70
     1
 10
0.0
 20
0.0
 30
0.0
  3
*U21
  1

  0
TEXT
  5
1EF1
330
2B75
100
AcDbEntity
  8
NOTE
 62
     0
100
AcDbText
 10
-74.05714285714283
 20
61.83630134534229
 30
0.0
 40
64.0
  1
247
 41
0.9
100
AcDbText
  0
ENDBLK
  5
1EF3
330
2B75
100
AcDbEntity
  8
0
100
AcDbBlockEnd
  0
BLOCK
  5
2B78
330
2B77
100
AcDbEntity
  8
0
100
AcDbBlockBegin
  2
*D22
 70
     1
 10
0.0
 20
0.0
 30
0.0
  3
*D22
  1

  0
LINE
  5
1414
330
2B77
100
AcDbEntity
  8
SIZE
 62
     0
100
AcDbLine
 10
-22313.11521613997
 20
7365.702971374808
 30
0.0
 11
-22313.11521613997
 21
7217.685576144207
 31
0.0
  0
LINE
  5
1415
330
2B77
100
AcDbEntity
  8
SIZE
 62
     0
100
AcDbLine
 10
-22044.11521613997
 20
7365.702971374808
 30
0.0
 11
-22044.11521613997
 21
7217.685576144207
 31
0.0
  0
LINE
  5
1416
330
2B77
100
AcDbEntity
  8
SIZE
 62
     0
100
AcDbLine
 10
-22301.11521613997
 20
7237.685576144207
 30
0.0
 11
-22056.11521613997
 21
7237.685576144207
 31
0.0
  0
INSERT
  5
1417
330
2B77
100
AcDbEntity
  8
SIZE
 62
     0
100
AcDbBlockReference
  2
_DOTBLANK
 10
-22313.11521613997
 20
7237.685576144207
 30
0.0
 41
12.0
 42
12.0
 43
12.0
 50
180.0
  0
INSERT
  5
1418
330
2B77
100
AcDbEntity
  8
SIZE
 62
     0
100
AcDbBlockReference
  2
_DOTBLANK
 10
-22044.11521613997
 20
7237.685576144207
 30
0.0
 41
12.0
 42
12.0
 43
12.0
  0
INSERT
  5
1419
330
2B77
100
AcDbEntity
  8
0
100
AcDbBlockReference
  2
*U23
 10
0.0
 20
0.0
 30
0.0
  0
POINT
  5
141A
330
2B77
100
AcDbEntity
  8
DEFPOINTS
 62
     0
100
AcDbPoint
 10
-22313.11521613997
 20
7385.702971374808
 30
0.0
  0
POINT
  5
141B
330
2B77
100
AcDbEntity
  8
DEFPOINTS
 62
     0
100
AcDbPoint
 10
-22044.11521613997
 20
7385.702971374808
 30
0.0
  0
POINT
  5
141C
330
2B77
100
AcDbEntity
  8
DEFPOINTS
 62
     0
100
AcDbPoint
 10
-22044.11521613997
 20
7237.685576144207
 30
0.0
  0
ENDBLK
  5
141D
330
2B77
100
AcDbEntity
  8
0
100
AcDbBlockEnd
  0
BLOCK
  5
2B7A
330
2B79
100
AcDbEntity
  8
0
100
AcDbBlockBegin
  2
*U23
 70
     1
 10
0.0
 20
0.0
 30
0.0
  3
*U23
  1

  0
TEXT
  5
1EF9
330
2B79
100
AcDbEntity
  8
SIZE
 62
     0
100
AcDbText
 10
-22251.30093042568
 20
7247.685576144205
 30
0.0
 40
64.0
  1
269
 41
0.9
100
AcDbText
  0
ENDBLK
  5
1EFB
330
2B79
100
AcDbEntity
  8
0
100
AcDbBlockEnd
  0
BLOCK
  5
2B7C
330
2B7B
100
AcDbEntity
  8
0
100
AcDbBlockBegin
  2
*D24
 70
     1
 10
0.0
 20
0.0
 30
0.0
  3
*D24
  1

  0
LINE
  5
1420
330
2B7B
100
AcDbEntity
  8
SIZE
  6
Continuous
 62
     0
100
AcDbLine
 10
-22035.11521613997
 20
7385.702971374808
 30
0.0
 11
-21873.97193165959
 21
7385.702971374808
 31
0.0
  0
LINE
  5
1421
330
2B7B
100
AcDbEntity
  8
SIZE
  6
Continuous
 62
     0
100
AcDbLine
 10
-22001.11521613997
 20
7685.702971374808
 30
0.0
 11
-21873.97193165959
 21
7685.702971374808
 31
0.0
  0
LINE
  5
1422
330
2B7B
100
AcDbEntity
  8
SIZE
  6
Continuous
 62
     0
100
AcDbLine
 10
-21893.97193165959
 20
7397.702971374808
 30
0.0
 11
-21893.97193165959
 21
7673.702971374808
 31
0.0
  0
INSERT
  5
1423
330
2B7B
100
AcDbEntity
  8
SIZE
  6
Continuous
 62
     0
100
AcDbBlockReference
  2
_DOTBLANK
 10
-21893.97193165959
 20
7385.702971374808
 30
0.0
 41
12.0
 42
12.0
 43
12.0
 50
270.0
  0
INSERT
  5
1424
330
2B7B
100
AcDbEntity
  8
SIZE
  6
Continuous
 62
     0
100
AcDbBlockReference
  2
_DOTBLANK
 10
-21893.97193165959
 20
7685.702971374808
 30
0.0
 41
12.0
 42
12.0
 43
12.0
 50
90.0
  0
INSERT
  5
1425
330
2B7B
100
AcDbEntity
  8
0
100
AcDbBlockReference
  2
*U25
 10
0.0
 20
0.0
 30
0.0
  0
POINT
  5
1426
330
2B7B
100
AcDbEntity
  8
DEFPOINTS
  6
Continuous
 62
     0
100
AcDbPoint
 10
-22055.11521613997
 20
7385.702971374808
 30
0.0
  0
POINT
  5
1427
330
2B7B
100
AcDbEntity
  8
DEFPOINTS
  6
Continuous
 62
     0
100
AcDbPoint
 10
-22021.11521613997
 20
7685.702971374808
 30
0.0
  0
POINT
  5
1428
330
2B7B
100
AcDbEntity
  8
DEFPOINTS
  6
Continuous
 62
     0
100
AcDbPoint
 10
-21893.97193165959
 20
7685.702971374808
 30
0.0
  0
ENDBLK
  5
1429
330
2B7B
100
AcDbEntity
  8
0
100
AcDbBlockEnd
  0
BLOCK
  5
2B7E
330
2B7D
100
AcDbEntity
  8
0
100
AcDbBlockBegin
  2
*U25
 70
     1
 10
0.0
 20
0.0
 30
0.0
  3
*U25
  1

  0
TEXT
  5
1EFD
330
2B7D
100
AcDbEntity
  8
SIZE
 62
     0
100
AcDbText
 10
-21903.97193165959
 20
7461.645828517662
 30
0.0
 40
64.0
  1
300
 50
90.0
 41
0.9
100
AcDbText
  0
ENDBLK
  5
1EFF
330
2B7D
100
AcDbEntity
  8
0
100
AcDbBlockEnd
  0
BLOCK
  5
2B80
330
2B7F
100
AcDbEntity
  8
0
100
AcDbBlockBegin
  2
*D26
 70
     1
 10
0.0
 20
0.0
 30
0.0
  3
*D26
  1

  0
LINE
  5
142C
330
2B7F
100
AcDbEntity
  8
SIZE
 62
     0
100
AcDbLine
 10
-22318.61521613997
 20
7718.167454177002
 30
0.0
 11
-22318.61521613997
 21
7822.154659243358
 31
0.0
  0
LINE
  5
142D
330
2B7F
100
AcDbEntity
  8
SIZE
 62
     0
100
AcDbLine
 10
-22038.61521613997
 20
7718.167454177002
 30
0.0
 11
-22038.61521613997
 21
7822.154659243358
 31
0.0
  0
LINE
  5
142E
330
2B7F
100
AcDbEntity
  8
SIZE
 62
     0
100
AcDbLine
 10
-22306.61521613997
 20
7802.154659243358
 30
0.0
 11
-22050.61521613997
 21
7802.154659243358
 31
0.0
  0
INSERT
  5
142F
330
2B7F
100
AcDbEntity
  8
SIZE
 62
     0
100
AcDbBlockReference
  2
_DOTBLANK
 10
-22318.61521613997
 20
7802.154659243358
 30
0.0
 41
12.0
 42
12.0
 43
12.0
 50
180.0
  0
INSERT
  5
1430
330
2B7F
100
AcDbEntity
  8
SIZE
 62
     0
100
AcDbBlockReference
  2
_DOTBLANK
 10
-22038.61521613997
 20
7802.154659243358
 30
0.0
 41
12.0
 42
12.0
 43
12.0
  0
INSERT
  5
1431
330
2B7F
100
AcDbEntity
  8
0
100
AcDbBlockReference
  2
*U27
 10
0.0
 20
0.0
 30
0.0
  0
POINT
  5
1432
330
2B7F
100
AcDbEntity
  8
DEFPOINTS
 62
     0
100
AcDbPoint
 10
-22318.61521613997
 20
7698.167454177002
 30
0.0
  0
POINT
  5
1433
330
2B7F
100
AcDbEntity
  8
DEFPOINTS
 62
     0
100
AcDbPoint
 10
-22038.61521613997
 20
7698.167454177002
 30
0.0
  0
POINT
  5
1434
330
2B7F
100
AcDbEntity
  8
DEFPOINTS
 62
     0
100
AcDbPoint
 10
-22038.61521613997
 20
7802.154659243358
 30
0.0
  0
ENDBLK
  5
1435
330
2B7F
100
AcDbEntity
  8
0
100
AcDbBlockEnd
  0
BLOCK
  5
2B82
330
2B81
100
AcDbEntity
  8
0
100
AcDbBlockBegin
  2
*U27
 70
     1
 10
0.0
 20
0.0
 30
0.0
  3
*U27
  1

  0
TEXT
  5
1F01
330
2B81
100
AcDbEntity
  8
SIZE
 62
     0
100
AcDbText
 10
-22252.6723589971
 20
7812.154659243358
 30
0.0
 40
64.0
  1
280
 41
0.9
100
AcDbText
  0
ENDBLK
  5
1F03
330
2B81
100
AcDbEntity
  8
0
100
AcDbBlockEnd
  0
BLOCK
  5
2B84
330
2B83
100
AcDbEntity
  8
0
100
AcDbBlockBegin
  2
*D28
 70
     1
 10
0.0
 20
0.0
 30
0.0
  3
*D28
  1

  0
LINE
  5
1438
330
2B83
100
AcDbEntity
  8
SIZE
 62
     0
100
AcDbLine
 10
-22336.11521613997
 20
7705.702971374808
 30
0.0
 11
-22336.11521613997
 21
7931.282433493766
 31
0.0
  0
LINE
  5
1439
330
2B83
100
AcDbEntity
  8
SIZE
 62
     0
100
AcDbLine
 10
-22021.11521613997
 20
7705.702971374808
 30
0.0
 11
-22021.11521613997
 21
7931.282433493766
 31
0.0
  0
LINE
  5
143A
330
2B83
100
AcDbEntity
  8
SIZE
 62
     0
100
AcDbLine
 10
-22324.11521613997
 20
7911.282433493766
 30
0.0
 11
-22033.11521613997
 21
7911.282433493766
 31
0.0
  0
INSERT
  5
143B
330
2B83
100
AcDbEntity
  8
SIZE
 62
     0
100
AcDbBlockReference
  2
_DOTBLANK
 10
-22336.11521613997
 20
7911.282433493766
 30
0.0
 41
12.0
 42
12.0
 43
12.0
 50
180.0
  0
INSERT
  5
143C
330
2B83
100
AcDbEntity
  8
SIZE
 62
     0
100
AcDbBlockReference
  2
_DOTBLANK
 10
-22021.11521613997
 20
7911.282433493766
 30
0.0
 41
12.0
 42
12.0
 43
12.0
  0
INSERT
  5
143D
330
2B83
100
AcDbEntity
  8
0
100
AcDbBlockReference
  2
*U29
 10
0.0
 20
0.0
 30
0.0
  0
POINT
  5
143E
330
2B83
100
AcDbEntity
  8
DEFPOINTS
 62
     0
100
AcDbPoint
 10
-22336.11521613997
 20
7685.702971374808
 30
0.0
  0
POINT
  5
143F
330
2B83
100
AcDbEntity
  8
DEFPOINTS
 62
     0
100
AcDbPoint
 10
-22021.11521613997
 20
7685.702971374808
 30
0.0
  0
POINT
  5
1440
330
2B83
100
AcDbEntity
  8
DEFPOINTS
 62
     0
100
AcDbPoint
 10
-22021.11521613997
 20
7911.282433493766
 30
0.0
  0
ENDBLK
  5
1441
330
2B83
100
AcDbEntity
  8
0
100
AcDbBlockEnd
  0
BLOCK
  5
2B86
330
2B85
100
AcDbEntity
  8
0
100
AcDbBlockBegin
  2
*U29
 70
     1
 10
0.0
 20
0.0
 30
0.0
  3
*U29
  1

  0
TEXT
  5
1F05
330
2B85
100
AcDbEntity
  8
SIZE
 62
     0
100
AcDbText
 10
-22247.18664471139
 20
7921.282433493766
 30
0.0
 40
64.0
  1
315
 41
0.9
100
AcDbText
  0
ENDBLK
  5
1F07
330
2B85
100
AcDbEntity
  8
0
100
AcDbBlockEnd
  0
BLOCK
  5
2B88
330
2B87
100
AcDbEntity
  8
0
100
AcDbBlockBegin
  2
*D30
 70
     1
 10
0.0
 20
0.0
 30
0.0
  3
*D30
  1

  0
LINE
  5
166B
330
2B87
100
AcDbEntity
  8
SIZE
 62
     0
100
AcDbLine
 10
-134.5
 20
-320.0
 30
0.0
 11
-134.5
 21
-468.0173952306001
 31
0.0
  0
LINE
  5
166C
330
2B87
100
AcDbEntity
  8
SIZE
 62
     0
100
AcDbLine
 10
134.5
 20
-320.0
 30
0.0
 11
134.5
 21
-468.0173952306001
 31
0.0
  0
LINE
  5
166D
330
2B87
100
AcDbEntity
  8
SIZE
 62
     0
100
AcDbLine
 10
-122.5
 20
-448.0173952306
 30
0.0
 11
122.5
 21
-448.0173952306
 31
0.0
  0
INSERT
  5
166E
330
2B87
100
AcDbEntity
  8
SIZE
 62
     0
100
AcDbBlockReference
  2
_DOTBLANK
 10
-134.5
 20
-448.0173952306
 30
0.0
 41
12.0
 42
12.0
 43
12.0
 50
180.0
  0
INSERT
  5
166F
330
2B87
100
AcDbEntity
  8
SIZE
 62
     0
100
AcDbBlockReference
  2
_DOTBLANK
 10
134.5
 20
-448.0173952306
 30
0.0
 41
12.0
 42
12.0
 43
12.0
  0
INSERT
  5
1670
330
2B87
100
AcDbEntity
  8
0
100
AcDbBlockReference
  2
*U31
 10
0.0
 20
0.0
 30
0.0
  0
POINT
  5
1671
330
2B87
100
AcDbEntity
  8
DEFPOINTS
 62
     0
100
AcDbPoint
 10
-134.5
 20
-300.0
 30
0.0
  0
POINT
  5
1672
330
2B87
100
AcDbEntity
  8
DEFPOINTS
 62
     0
100
AcDbPoint
 10
134.5
 20
-300.0
 30
0.0
  0
POINT
  5
1673
330
2B87
100
AcDbEntity
  8
DEFPOINTS
 62
     0
100
AcDbPoint
 10
134.5
 20
-448.0173952306
 30
0.0
  0
ENDBLK
  5
14A7
330
2B87
100
AcDbEntity
  8
0
100
AcDbBlockEnd
  0
BLOCK
  5
2B8A
330
2B89
100
AcDbEntity
  8
0
100
AcDbBlockBegin
  2
*U31
 70
     1
 10
0.0
 20
0.0
 30
0.0
  3
*U31
  1

  0
TEXT
  5
1F09
330
2B89
100
AcDbEntity
  8
SIZE
 62
     0
100
AcDbText
 10
-72.68571428571426
 20
-438.0173952306002
 30
0.0
 40
64.0
  1
269
 41
0.9
100
AcDbText
  0
ENDBLK
  5
1F0B
330
2B89
100
AcDbEntity
  8
0
100
AcDbBlockEnd
  0
BLOCK
  5
2B8C
330
2B8B
100
AcDbEntity
  8
0
100
AcDbBlockBegin
  2
*D32
 70
     1
 10
0.0
 20
0.0
 30
0.0
  3
*D32
  1

  0
LINE
  5
1674
330
2B8B
100
AcDbEntity
  8
SIZE
  6
Continuous
 62
     0
100
AcDbLine
 10
143.5
 20
-300.0
 30
0.0
 11
304.6432844803784
 21
-300.0
 31
0.0
  0
LINE
  5
1675
330
2B8B
100
AcDbEntity
  8
SIZE
  6
Continuous
 62
     0
100
AcDbLine
 10
177.5
 20
-0.0000000000000057
 30
0.0
 11
304.6432844803785
 21
-0.0000000000000417
 31
0.0
  0
LINE
  5
1676
330
2B8B
100
AcDbEntity
  8
SIZE
  6
Continuous
 62
     0
100
AcDbLine
 10
284.6432844803784
 20
-288.0000000000001
 30
0.0
 11
284.6432844803785
 21
-12.00000000000003
 31
0.0
  0
INSERT
  5
1677
330
2B8B
100
AcDbEntity
  8
SIZE
  6
Continuous
 62
     0
100
AcDbBlockReference
  2
_DOTBLANK
 10
284.6432844803784
 20
-300.0
 30
0.0
 41
12.0
 42
12.0
 43
12.0
 50
270.0
  0
INSERT
  5
1678
330
2B8B
100
AcDbEntity
  8
SIZE
  6
Continuous
 62
     0
100
AcDbBlockReference
  2
_DOTBLANK
 10
284.6432844803785
 20
-0.000000000000036
 30
0.0
 41
12.0
 42
12.0
 43
12.0
 50
90.0
  0
INSERT
  5
1679
330
2B8B
100
AcDbEntity
  8
0
100
AcDbBlockReference
  2
*U33
 10
0.0
 20
0.0
 30
0.0
  0
POINT
  5
167A
330
2B8B
100
AcDbEntity
  8
DEFPOINTS
  6
Continuous
 62
     0
100
AcDbPoint
 10
123.5
 20
-300.0
 30
0.0
  0
POINT
  5
167B
330
2B8B
100
AcDbEntity
  8
DEFPOINTS
  6
Continuous
 62
     0
100
AcDbPoint
 10
157.5
 20
0.0
 30
0.0
  0
POINT
  5
167C
330
2B8B
100
AcDbEntity
  8
DEFPOINTS
  6
Continuous
 62
     0
100
AcDbPoint
 10
284.6432844803785
 20
-0.000000000000036
 30
0.0
  0
ENDBLK
  5
14B3
330
2B8B
100
AcDbEntity
  8
0
100
AcDbBlockEnd
  0
BLOCK
  5
2B8E
330
2B8D
100
AcDbEntity
  8
0
100
AcDbBlockBegin
  2
*U33
 70
     1
 10
0.0
 20
0.0
 30
0.0
  3
*U33
  1

  0
TEXT
  5
1F0D
330
2B8D
100
AcDbEntity
  8
SIZE
 62
     0
100
AcDbText
 10
274.6432844803785
 20
-224.0571428571429
 30
0.0
 40
64.0
  1
300
 50
90.0
 41
0.9
100
AcDbText
  0
ENDBLK
  5
1F0F
330
2B8D
100
AcDbEntity
  8
0
100
AcDbBlockEnd
  0
BLOCK
  5
2B90
330
2B8F
100
AcDbEntity
  8
0
100
AcDbBlockBegin
  2
*D34
 70
     1
 10
0.0
 20
0.0
 30
0.0
  3
*D34
  1

  0
LINE
  5
167D
330
2B8F
100
AcDbEntity
  8
SIZE
 62
     0
100
AcDbLine
 10
-140.0
 20
32.46448280219375
 30
0.0
 11
-140.0
 21
136.4516878685507
 31
0.0
  0
LINE
  5
167E
330
2B8F
100
AcDbEntity
  8
SIZE
 62
     0
100
AcDbLine
 10
140.0
 20
32.46448280219375
 30
0.0
 11
140.0
 21
136.4516878685507
 31
0.0
  0
LINE
  5
167F
330
2B8F
100
AcDbEntity
  8
SIZE
 62
     0
100
AcDbLine
 10
-128.0
 20
116.4516878685508
 30
0.0
 11
128.0
 21
116.4516878685508
 31
0.0
  0
INSERT
  5
1680
330
2B8F
100
AcDbEntity
  8
SIZE
 62
     0
100
AcDbBlockReference
  2
_DOTBLANK
 10
-140.0
 20
116.4516878685508
 30
0.0
 41
12.0
 42
12.0
 43
12.0
 50
180.0
  0
INSERT
  5
1681
330
2B8F
100
AcDbEntity
  8
SIZE
 62
     0
100
AcDbBlockReference
  2
_DOTBLANK
 10
140.0
 20
116.4516878685508
 30
0.0
 41
12.0
 42
12.0
 43
12.0
  0
INSERT
  5
1682
330
2B8F
100
AcDbEntity
  8
0
100
AcDbBlockReference
  2
*U35
 10
0.0
 20
0.0
 30
0.0
  0
POINT
  5
1683
330
2B8F
100
AcDbEntity
  8
DEFPOINTS
 62
     0
100
AcDbPoint
 10
-140.0
 20
12.46448280219374
 30
0.0
  0
POINT
  5
1684
330
2B8F
100
AcDbEntity
  8
DEFPOINTS
 62
     0
100
AcDbPoint
 10
140.0
 20
12.46448280219374
 30
0.0
  0
POINT
  5
1685
330
2B8F
100
AcDbEntity
  8
DEFPOINTS
 62
     0
100
AcDbPoint
 10
140.0
 20
116.4516878685508
 30
0.0
  0
ENDBLK
  5
14BF
330
2B8F
100
AcDbEntity
  8
0
100
AcDbBlockEnd
  0
BLOCK
  5
2B92
330
2B91
100
AcDbEntity
  8
0
100
AcDbBlockBegin
  2
*U35
 70
     1
 10
0.0
 20
0.0
 30
0.0
  3
*U35
  1

  0
TEXT
  5
1F11
330
2B91
100
AcDbEntity
  8
SIZE
 62
     0
100
AcDbText
 10
-74.05714285714283
 20
126.4516878685507
 30
0.0
 40
64.0
  1
280
 41
0.9
100
AcDbText
  0
ENDBLK
  5
1F13
330
2B91
100
AcDbEntity
  8
0
100
AcDbBlockEnd
  0
BLOCK
  5
2B94
330
2B93
100
AcDbEntity
  8
0
100
AcDbBlockBegin
  2
*D36
 70
     1
 10
0.0
 20
0.0
 30
0.0
  3
*D36
  1

  0
LINE
  5
1686
330
2B93
100
AcDbEntity
  8
SIZE
 62
     0
100
AcDbLine
 10
-157.5
 20
20.0
 30
0.0
 11
-157.5
 21
245.5794621189598
 31
0.0
  0
LINE
  5
1687
330
2B93
100
AcDbEntity
  8
SIZE
 62
     0
100
AcDbLine
 10
157.5
 20
20.0
 30
0.0
 11
157.5
 21
245.5794621189598
 31
0.0
  0
LINE
  5
1688
330
2B93
100
AcDbEntity
  8
SIZE
 62
     0
100
AcDbLine
 10
-145.5
 20
225.5794621189598
 30
0.0
 11
145.5
 21
225.5794621189598
 31
0.0
  0
INSERT
  5
1689
330
2B93
100
AcDbEntity
  8
SIZE
 62
     0
100
AcDbBlockReference
  2
_DOTBLANK
 10
-157.5
 20
225.5794621189598
 30
0.0
 41
12.0
 42
12.0
 43
12.0
 50
180.0
  0
INSERT
  5
168A
330
2B93
100
AcDbEntity
  8
SIZE
 62
     0
100
AcDbBlockReference
  2
_DOTBLANK
 10
157.5
 20
225.5794621189598
 30
0.0
 41
12.0
 42
12.0
 43
12.0
  0
INSERT
  5
168B
330
2B93
100
AcDbEntity
  8
0
100
AcDbBlockReference
  2
*U37
 10
0.0
 20
0.0
 30
0.0
  0
POINT
  5
168C
330
2B93
100
AcDbEntity
  8
DEFPOINTS
 62
     0
100
AcDbPoint
 10
-157.5
 20
0.0
 30
0.0
  0
POINT
  5
168D
330
2B93
100
AcDbEntity
  8
DEFPOINTS
 62
     0
100
AcDbPoint
 10
157.5
 20
0.0
 30
0.0
  0
POINT
  5
168E
330
2B93
100
AcDbEntity
  8
DEFPOINTS
 62
     0
100
AcDbPoint
 10
157.5
 20
225.5794621189598
 30
0.0
  0
ENDBLK
  5
14CB
330
2B93
100
AcDbEntity
  8
0
100
AcDbBlockEnd
  0
BLOCK
  5
2B96
330
2B95
100
AcDbEntity
  8
0
100
AcDbBlockBegin
  2
*U37
 70
     1
 10
0.0
 20
0.0
 30
0.0
  3
*U37
  1

  0
TEXT
  5
1F15
330
2B95
100
AcDbEntity
  8
SIZE
 62
     0
100
AcDbText
 10
-68.57142857142857
 20
235.5794621189598
 30
0.0
 40
64.0
  1
315
 41
0.9
100
AcDbText
  0
ENDBLK
  5
1F17
330
2B95
100
AcDbEntity
  8
0
100
AcDbBlockEnd
  0
BLOCK
  5
2B98
330
2B97
100
AcDbEntity
  8
0
100
AcDbBlockBegin
  2
*U38
 70
     1
 10
0.0
 20
0.0
 30
0.0
  3
*U38
  1

  0
ENDBLK
  5
15CF
330
2B97
100
AcDbEntity
  8
0
100
AcDbBlockEnd
  0
BLOCK
  5
2B9A
330
2B99
100
AcDbEntity
  8
0
100
AcDbBlockBegin
  2
*D39
 70
     1
 10
0.0
 20
0.0
 30
0.0
  3
*D39
  1

  0
LINE
  5
1692
330
2B99
100
AcDbEntity
  8
SIZE
 62
     0
100
AcDbLine
 10
-25844.51823276502
 20
7685.702971374808
 30
0.0
 11
-25981.04465488371
 21
7685.702971374808
 31
0.0
  0
LINE
  5
1693
330
2B99
100
AcDbEntity
  8
SIZE
 62
     0
100
AcDbLine
 10
-25844.51823276502
 20
7677.702971374808
 30
0.0
 11
-25981.04465488371
 21
7677.702971374808
 31
0.0
  0
LINE
  5
1694
330
2B99
100
AcDbEntity
  8
SIZE
 62
     0
100
AcDbLine
 10
-25961.04465488371
 20
7697.702971374808
 30
0.0
 11
-25961.04465488371
 21
7709.702971374809
 31
0.0
  0
LINE
  5
1695
330
2B99
100
AcDbEntity
  8
SIZE
 62
     0
100
AcDbLine
 10
-25961.04465488371
 20
7665.70297137481
 30
0.0
 11
-25961.04465488371
 21
7595.302971374808
 31
0.0
  0
INSERT
  5
1696
330
2B99
100
AcDbEntity
  8
SIZE
 62
     0
100
AcDbBlockReference
  2
_DOTBLANK
 10
-25961.04465488371
 20
7685.702971374808
 30
0.0
 41
12.0
 42
12.0
 43
12.0
 50
270.0
  0
INSERT
  5
1697
330
2B99
100
AcDbEntity
  8
SIZE
 62
     0
100
AcDbBlockReference
  2
_DOTBLANK
 10
-25961.04465488371
 20
7677.702971374808
 30
0.0
 41
12.0
 42
12.0
 43
12.0
 50
90.0
  0
INSERT
  5
1698
330
2B99
100
AcDbEntity
  8
0
100
AcDbBlockReference
  2
*U40
 10
0.0
 20
0.0
 30
0.0
  0
POINT
  5
1699
330
2B99
100
AcDbEntity
  8
DEFPOINTS
 62
     0
100
AcDbPoint
 10
-25824.51823276501
 20
7685.702971374808
 30
0.0
  0
POINT
  5
169A
330
2B99
100
AcDbEntity
  8
DEFPOINTS
 62
     0
100
AcDbPoint
 10
-25824.51823276501
 20
7677.702971374808
 30
0.0
  0
POINT
  5
169B
330
2B99
100
AcDbEntity
  8
DEFPOINTS
 62
     0
100
AcDbPoint
 10
-25961.04465488371
 20
7677.702971374808
 30
0.0
  0
ENDBLK
  5
169C
330
2B99
100
AcDbEntity
  8
0
100
AcDbBlockEnd
  0
BLOCK
  5
2B9C
330
2B9B
100
AcDbEntity
  8
0
100
AcDbBlockBegin
  2
*U40
 70
     1
 10
0.0
 20
0.0
 30
0.0
  3
*U40
  1

  0
TEXT
  5
1F19
330
2B9B
100
AcDbEntity
  8
SIZE
 62
     0
100
AcDbText
 10
-25971.04465488371
 20
7605.302971374804
 30
0.0
 40
64.0
  1
8
 50
90.0
 41
0.9
100
AcDbText
  0
ENDBLK
  5
1F1B
330
2B9B
100
AcDbEntity
  8
0
100
AcDbBlockEnd
  0
BLOCK
  5
2B9E
330
2B9D
100
AcDbEntity
  8
0
100
AcDbBlockBegin
  2
*D41
 70
     1
 10
0.0
 20
0.0
 30
0.0
  3
*D41
  1

  0
LINE
  5
169F
330
2B9D
100
AcDbEntity
  8
SIZE
 62
     0
100
AcDbLine
 10
-25512.51823276502
 20
7385.702971374808
 30
0.0
 11
-25362.37494828464
 21
7385.702971374808
 31
0.0
  0
LINE
  5
16A0
330
2B9D
100
AcDbEntity
  8
SIZE
 62
     0
100
AcDbLine
 10
-25523.51823276501
 20
7373.702971374808
 30
0.0
 11
-25362.37494828464
 21
7373.702971374808
 31
0.0
  0
LINE
  5
16A1
330
2B9D
100
AcDbEntity
  8
SIZE
 62
     0
100
AcDbLine
 10
-25382.37494828464
 20
7397.702971374808
 30
0.0
 11
-25382.37494828464
 21
7409.70297137481
 31
0.0
  0
LINE
  5
16A2
330
2B9D
100
AcDbEntity
  8
SIZE
 62
     0
100
AcDbLine
 10
-25382.37494828464
 20
7361.702971374808
 30
0.0
 11
-25382.37494828464
 21
7244.674399946238
 31
0.0
  0
INSERT
  5
16A3
330
2B9D
100
AcDbEntity
  8
SIZE
 62
     0
100
AcDbBlockReference
  2
_DOTBLANK
 10
-25382.37494828464
 20
7385.702971374808
 30
0.0
 41
12.0
 42
12.0
 43
12.0
 50
270.0
  0
INSERT
  5
16A4
330
2B9D
100
AcDbEntity
  8
SIZE
 62
     0
100
AcDbBlockReference
  2
_DOTBLANK
 10
-25382.37494828464
 20
7373.702971374808
 30
0.0
 41
12.0
 42
12.0
 43
12.0
 50
90.0
  0
INSERT
  5
16A5
330
2B9D
100
AcDbEntity
  8
0
100
AcDbBlockReference
  2
*U42
 10
0.0
 20
0.0
 30
0.0
  0
POINT
  5
16A6
330
2B9D
100
AcDbEntity
  8
DEFPOINTS
 62
     0
100
AcDbPoint
 10
-25532.51823276502
 20
7385.702971374808
 30
0.0
  0
POINT
  5
16A7
330
2B9D
100
AcDbEntity
  8
DEFPOINTS
 62
     0
100
AcDbPoint
 10
-25543.51823276502
 20
7373.702971374808
 30
0.0
  0
POINT
  5
16A8
330
2B9D
100
AcDbEntity
  8
DEFPOINTS
 62
     0
100
AcDbPoint
 10
-25382.37494828464
 20
7373.702971374808
 30
0.0
  0
ENDBLK
  5
16A9
330
2B9D
100
AcDbEntity
  8
0
100
AcDbBlockEnd
  0
BLOCK
  5
2BA0
330
2B9F
100
AcDbEntity
  8
0
100
AcDbBlockBegin
  2
*U42
 70
     1
 10
0.0
 20
0.0
 30
0.0
  3
*U42
  1

  0
TEXT
  5
1F1D
330
2B9F
100
AcDbEntity
  8
SIZE
 62
     0
100
AcDbText
 10
-25392.37494828464
 20
7256.045828517662
 30
0.0
 40
64.0
  1
12
 50
90.0
 41
0.9
100
AcDbText
  0
ENDBLK
  5
1F1F
330
2B9F
100
AcDbEntity
  8
0
100
AcDbBlockEnd
  0
BLOCK
  5
2BA2
330
2BA1
100
AcDbEntity
  8
0
100
AcDbBlockBegin
  2
*D43
 70
     1
 10
0.0
 20
0.0
 30
0.0
  3
*D43
  1

  0
LINE
  5
16AC
330
2BA1
100
AcDbEntity
  8
SIZE
 62
     0
100
AcDbLine
 10
-25801.51823276501
 20
7365.702971374808
 30
0.0
 11
-25801.51823276501
 21
7217.685576144207
 31
0.0
  0
LINE
  5
16AD
330
2BA1
100
AcDbEntity
  8
SIZE
 62
     0
100
AcDbLine
 10
-25532.51823276502
 20
7365.702971374808
 30
0.0
 11
-25532.51823276502
 21
7217.685576144207
 31
0.0
  0
LINE
  5
16AE
330
2BA1
100
AcDbEntity
  8
SIZE
 62
     0
100
AcDbLine
 10
-25789.51823276502
 20
7237.685576144207
 30
0.0
 11
-25544.51823276501
 21
7237.685576144207
 31
0.0
  0
INSERT
  5
16AF
330
2BA1
100
AcDbEntity
  8
SIZE
 62
     0
100
AcDbBlockReference
  2
_DOTBLANK
 10
-25801.51823276501
 20
7237.685576144207
 30
0.0
 41
12.0
 42
12.0
 43
12.0
 50
180.0
  0
INSERT
  5
16B0
330
2BA1
100
AcDbEntity
  8
SIZE
 62
     0
100
AcDbBlockReference
  2
_DOTBLANK
 10
-25532.51823276502
 20
7237.685576144207
 30
0.0
 41
12.0
 42
12.0
 43
12.0
  0
INSERT
  5
16B1
330
2BA1
100
AcDbEntity
  8
0
100
AcDbBlockReference
  2
*U44
 10
0.0
 20
0.0
 30
0.0
  0
POINT
  5
16B2
330
2BA1
100
AcDbEntity
  8
DEFPOINTS
 62
     0
100
AcDbPoint
 10
-25801.51823276501
 20
7385.702971374808
 30
0.0
  0
POINT
  5
16B3
330
2BA1
100
AcDbEntity
  8
DEFPOINTS
 62
     0
100
AcDbPoint
 10
-25532.51823276502
 20
7385.702971374808
 30
0.0
  0
POINT
  5
16B4
330
2BA1
100
AcDbEntity
  8
DEFPOINTS
 62
     0
100
AcDbPoint
 10
-25532.51823276502
 20
7237.685576144207
 30
0.0
  0
ENDBLK
  5
16B5
330
2BA1
100
AcDbEntity
  8
0
100
AcDbBlockEnd
  0
BLOCK
  5
2BA4
330
2BA3
100
AcDbEntity
  8
0
100
AcDbBlockBegin
  2
*U44
 70
     1
 10
0.0
 20
0.0
 30
0.0
  3
*U44
  1

  0
TEXT
  5
1F21
330
2BA3
100
AcDbEntity
  8
SIZE
 62
     0
100
AcDbText
 10
-25739.70394705074
 20
7247.685576144205
 30
0.0
 40
64.0
  1
269
 41
0.9
100
AcDbText
  0
ENDBLK
  5
1F23
330
2BA3
100
AcDbEntity
  8
0
100
AcDbBlockEnd
  0
BLOCK
  5
2BA6
330
2BA5
100
AcDbEntity
  8
0
100
AcDbBlockBegin
  2
*D45
 70
     1
 10
0.0
 20
0.0
 30
0.0
  3
*D45
  1

  0
LINE
  5
16B8
330
2BA5
100
AcDbEntity
  8
SIZE
 62
     0
100
AcDbLine
 10
-25512.51823276502
 20
7385.702971374808
 30
0.0
 11
-25362.37494828464
 21
7385.702971374808
 31
0.0
  0
LINE
  5
16B9
330
2BA5
100
AcDbEntity
  8
SIZE
 62
     0
100
AcDbLine
 10
-25489.51823276501
 20
7685.702971374808
 30
0.0
 11
-25362.37494828464
 21
7685.702971374808
 31
0.0
  0
LINE
  5
16BA
330
2BA5
100
AcDbEntity
  8
SIZE
 62
     0
100
AcDbLine
 10
-25382.37494828464
 20
7397.702971374808
 30
0.0
 11
-25382.37494828464
 21
7673.702971374808
 31
0.0
  0
INSERT
  5
16BB
330
2BA5
100
AcDbEntity
  8
SIZE
 62
     0
100
AcDbBlockReference
  2
_DOTBLANK
 10
-25382.37494828464
 20
7385.702971374808
 30
0.0
 41
12.0
 42
12.0
 43
12.0
 50
270.0
  0
INSERT
  5
16BC
330
2BA5
100
AcDbEntity
  8
SIZE
 62
     0
100
AcDbBlockReference
  2
_DOTBLANK
 10
-25382.37494828464
 20
7685.702971374808
 30
0.0
 41
12.0
 42
12.0
 43
12.0
 50
90.0
  0
INSERT
  5
16BD
330
2BA5
100
AcDbEntity
  8
0
100
AcDbBlockReference
  2
*U46
 10
0.0
 20
0.0
 30
0.0
  0
POINT
  5
16BE
330
2BA5
100
AcDbEntity
  8
DEFPOINTS
 62
     0
100
AcDbPoint
 10
-25532.51823276502
 20
7385.702971374808
 30
0.0
  0
POINT
  5
16BF
330
2BA5
100
AcDbEntity
  8
DEFPOINTS
 62
     0
100
AcDbPoint
 10
-25509.51823276502
 20
7685.702971374808
 30
0.0
  0
POINT
  5
16C0
330
2BA5
100
AcDbEntity
  8
DEFPOINTS
 62
     0
100
AcDbPoint
 10
-25382.37494828464
 20
7685.702971374808
 30
0.0
  0
ENDBLK
  5
16C1
330
2BA5
100
AcDbEntity
  8
0
100
AcDbBlockEnd
  0
BLOCK
  5
2BA8
330
2BA7
100
AcDbEntity
  8
0
100
AcDbBlockBegin
  2
*U46
 70
     1
 10
0.0
 20
0.0
 30
0.0
  3
*U46
  1

  0
TEXT
  5
1F25
330
2BA7
100
AcDbEntity
  8
SIZE
 62
     0
100
AcDbText
 10
-25392.37494828464
 20
7461.645828517662
 30
0.0
 40
64.0
  1
300
 50
90.0
 41
0.9
100
AcDbText
  0
ENDBLK
  5
1F27
330
2BA7
100
AcDbEntity
  8
0
100
AcDbBlockEnd
  0
BLOCK
  5
2BAA
330
2BA9
100
AcDbEntity
  8
0
100
AcDbBlockBegin
  2
*D47
 70
     1
 10
0.0
 20
0.0
 30
0.0
  3
*D47
  1

  0
LINE
  5
16C4
330
2BA9
100
AcDbEntity
  8
SIZE
 62
     0
100
AcDbLine
 10
-25807.01823276501
 20
7718.167454177002
 30
0.0
 11
-25807.01823276501
 21
7822.154659243358
 31
0.0
  0
LINE
  5
16C5
330
2BA9
100
AcDbEntity
  8
SIZE
 62
     0
100
AcDbLine
 10
-25527.01823276501
 20
7718.167454177002
 30
0.0
 11
-25527.01823276501
 21
7822.154659243358
 31
0.0
  0
LINE
  5
16C6
330
2BA9
100
AcDbEntity
  8
SIZE
 62
     0
100
AcDbLine
 10
-25795.01823276502
 20
7802.154659243358
 30
0.0
 11
-25539.01823276501
 21
7802.154659243358
 31
0.0
  0
INSERT
  5
16C7
330
2BA9
100
AcDbEntity
  8
SIZE
 62
     0
100
AcDbBlockReference
  2
_DOTBLANK
 10
-25807.01823276501
 20
7802.154659243358
 30
0.0
 41
12.0
 42
12.0
 43
12.0
 50
180.0
  0
INSERT
  5
16C8
330
2BA9
100
AcDbEntity
  8
SIZE
 62
     0
100
AcDbBlockReference
  2
_DOTBLANK
 10
-25527.01823276501
 20
7802.154659243358
 30
0.0
 41
12.0
 42
12.0
 43
12.0
  0
INSERT
  5
16C9
330
2BA9
100
AcDbEntity
  8
0
100
AcDbBlockReference
  2
*U48
 10
0.0
 20
0.0
 30
0.0
  0
POINT
  5
16CA
330
2BA9
100
AcDbEntity
  8
DEFPOINTS
 62
     0
100
AcDbPoint
 10
-25807.01823276501
 20
7698.167454177002
 30
0.0
  0
POINT
  5
16CB
330
2BA9
100
AcDbEntity
  8
DEFPOINTS
 62
     0
100
AcDbPoint
 10
-25527.01823276501
 20
7698.167454177002
 30
0.0
  0
POINT
  5
16CC
330
2BA9
100
AcDbEntity
  8
DEFPOINTS
 62
     0
100
AcDbPoint
 10
-25527.01823276501
 20
7802.154659243358
 30
0.0
  0
ENDBLK
  5
16CD
330
2BA9
100
AcDbEntity
  8
0
100
AcDbBlockEnd
  0
BLOCK
  5
2BAC
330
2BAB
100
AcDbEntity
  8
0
100
AcDbBlockBegin
  2
*U48
 70
     1
 10
0.0
 20
0.0
 30
0.0
  3
*U48
  1

  0
TEXT
  5
1F29
330
2BAB
100
AcDbEntity
  8
SIZE
 62
     0
100
AcDbText
 10
-25741.07537562216
 20
7812.154659243358
 30
0.0
 40
64.0
  1
280
 41
0.9
100
AcDbText
  0
ENDBLK
  5
1F2B
330
2BAB
100
AcDbEntity
  8
0
100
AcDbBlockEnd
  0
BLOCK
  5
2BAE
330
2BAD
100
AcDbEntity
  8
0
100
AcDbBlockBegin
  2
*D49
 70
     1
 10
0.0
 20
0.0
 30
0.0
  3
*D49
  1

  0
LINE
  5
16D0
330
2BAD
100
AcDbEntity
  8
SIZE
 62
     0
100
AcDbLine
 10
-25824.51823276501
 20
7705.702971374808
 30
0.0
 11
-25824.51823276501
 21
7931.282433493766
 31
0.0
  0
LINE
  5
16D1
330
2BAD
100
AcDbEntity
  8
SIZE
 62
     0
100
AcDbLine
 10
-25509.51823276502
 20
7705.702971374808
 30
0.0
 11
-25509.51823276502
 21
7931.282433493766
 31
0.0
  0
LINE
  5
16D2
330
2BAD
100
AcDbEntity
  8
SIZE
 62
     0
100
AcDbLine
 10
-25812.51823276502
 20
7911.282433493766
 30
0.0
 11
-25521.51823276501
 21
7911.282433493766
 31
0.0
  0
INSERT
  5
16D3
330
2BAD
100
AcDbEntity
  8
SIZE
 62
     0
100
AcDbBlockReference
  2
_DOTBLANK
 10
-25824.51823276501
 20
7911.282433493766
 30
0.0
 41
12.0
 42
12.0
 43
12.0
 50
180.0
  0
INSERT
  5
16D4
330
2BAD
100
AcDbEntity
  8
SIZE
 62
     0
100
AcDbBlockReference
  2
_DOTBLANK
 10
-25509.51823276502
 20
7911.282433493766
 30
0.0
 41
12.0
 42
12.0
 43
12.0
  0
INSERT
  5
16D5
330
2BAD
100
AcDbEntity
  8
0
100
AcDbBlockReference
  2
*U50
 10
0.0
 20
0.0
 30
0.0
  0
POINT
  5
16D6
330
2BAD
100
AcDbEntity
  8
DEFPOINTS
 62
     0
100
AcDbPoint
 10
-25824.51823276501
 20
7685.702971374808
 30
0.0
  0
POINT
  5
16D7
330
2BAD
100
AcDbEntity
  8
DEFPOINTS
 62
     0
100
AcDbPoint
 10
-25509.51823276502
 20
7685.702971374808
 30
0.0
  0
POINT
  5
16D8
330
2BAD
100
AcDbEntity
  8
DEFPOINTS
 62
     0
100
AcDbPoint
 10
-25509.51823276502
 20
7911.282433493766
 30
0.0
  0
ENDBLK
  5
16D9
330
2BAD
100
AcDbEntity
  8
0
100
AcDbBlockEnd
  0
BLOCK
  5
2BB0
330
2BAF
100
AcDbEntity
  8
0
100
AcDbBlockBegin
  2
*U50
 70
     1
 10
0.0
 20
0.0
 30
0.0
  3
*U50
  1

  0
TEXT
  5
1F2D
330
2BAF
100
AcDbEntity
  8
SIZE
 62
     0
100
AcDbText
 10
-25735.58966133645
 20
7921.282433493766
 30
0.0
 40
64.0
  1
315
 41
0.9
100
AcDbText
  0
ENDBLK
  5
1F2F
330
2BAF
100
AcDbEntity
  8
0
100
AcDbBlockEnd
  0
BLOCK
  5
2BB2
330
2BB1
100
AcDbEntity
  8
0
100
AcDbBlockBegin
  2
*D51
 70
     1
 10
0.0
 20
0.0
 30
0.0
  3
*D51
  1

  0
LINE
  5
1D83
330
2BB1
100
AcDbEntity
  8
SIZE
 62
     0
100
AcDbLine
 10
-134.5
 20
-320.0
 30
0.0
 11
-134.5
 21
-468.0173952306001
 31
0.0
  0
LINE
  5
1D84
330
2BB1
100
AcDbEntity
  8
SIZE
 62
     0
100
AcDbLine
 10
134.5
 20
-320.0
 30
0.0
 11
134.5
 21
-468.0173952306001
 31
0.0
  0
LINE
  5
1D85
330
2BB1
100
AcDbEntity
  8
SIZE
 62
     0
100
AcDbLine
 10
-122.5
 20
-448.0173952306
 30
0.0
 11
122.5
 21
-448.0173952306
 31
0.0
  0
INSERT
  5
1D86
330
2BB1
100
AcDbEntity
  8
SIZE
 62
     0
100
AcDbBlockReference
  2
_DOTBLANK
 10
-134.5
 20
-448.0173952306
 30
0.0
 41
12.0
 42
12.0
 43
12.0
 50
180.0
  0
INSERT
  5
1D87
330
2BB1
100
AcDbEntity
  8
SIZE
 62
     0
100
AcDbBlockReference
  2
_DOTBLANK
 10
134.5
 20
-448.0173952306
 30
0.0
 41
12.0
 42
12.0
 43
12.0
  0
INSERT
  5
1D88
330
2BB1
100
AcDbEntity
  8
0
100
AcDbBlockReference
  2
*U52
 10
0.0
 20
0.0
 30
0.0
  0
POINT
  5
1D89
330
2BB1
100
AcDbEntity
  8
DEFPOINTS
 62
     0
100
AcDbPoint
 10
-134.5
 20
-300.0
 30
0.0
  0
POINT
  5
1D8A
330
2BB1
100
AcDbEntity
  8
DEFPOINTS
 62
     0
100
AcDbPoint
 10
134.5
 20
-300.0
 30
0.0
  0
POINT
  5
1D8B
330
2BB1
100
AcDbEntity
  8
DEFPOINTS
 62
     0
100
AcDbPoint
 10
134.5
 20
-448.0173952306
 30
0.0
  0
ENDBLK
  5
173D
330
2BB1
100
AcDbEntity
  8
0
100
AcDbBlockEnd
  0
BLOCK
  5
2BB4
330
2BB3
100
AcDbEntity
  8
0
100
AcDbBlockBegin
  2
*U52
 70
     1
 10
0.0
 20
0.0
 30
0.0
  3
*U52
  1

  0
TEXT
  5
1F31
330
2BB3
100
AcDbEntity
  8
SIZE
 62
     0
100
AcDbText
 10
-72.68571428571426
 20
-438.0173952306003
 30
0.0
 40
64.0
  1
269
 41
0.9
100
AcDbText
  0
ENDBLK
  5
1F33
330
2BB3
100
AcDbEntity
  8
0
100
AcDbBlockEnd
  0
BLOCK
  5
2BB6
330
2BB5
100
AcDbEntity
  8
0
100
AcDbBlockBegin
  2
*D53
 70
     1
 10
0.0
 20
0.0
 30
0.0
  3
*D53
  1

  0
LINE
  5
1D8C
330
2BB5
100
AcDbEntity
  8
SIZE
 62
     0
100
AcDbLine
 10
154.5
 20
-300.0
 30
0.0
 11
304.6432844803784
 21
-300.0
 31
0.0
  0
LINE
  5
1D8D
330
2BB5
100
AcDbEntity
  8
SIZE
 62
     0
100
AcDbLine
 10
177.5
 20
-0.0000000000000057
 30
0.0
 11
304.6432844803785
 21
-0.0000000000000417
 31
0.0
  0
LINE
  5
1D8E
330
2BB5
100
AcDbEntity
  8
SIZE
 62
     0
100
AcDbLine
 10
284.6432844803784
 20
-288.0
 30
0.0
 11
284.6432844803785
 21
-12.00000000000003
 31
0.0
  0
INSERT
  5
1D8F
330
2BB5
100
AcDbEntity
  8
SIZE
 62
     0
100
AcDbBlockReference
  2
_DOTBLANK
 10
284.6432844803784
 20
-300.0
 30
0.0
 41
12.0
 42
12.0
 43
12.0
 50
270.0
  0
INSERT
  5
1D90
330
2BB5
100
AcDbEntity
  8
SIZE
 62
     0
100
AcDbBlockReference
  2
_DOTBLANK
 10
284.6432844803785
 20
-0.000000000000036
 30
0.0
 41
12.0
 42
12.0
 43
12.0
 50
90.0
  0
INSERT
  5
1D91
330
2BB5
100
AcDbEntity
  8
0
100
AcDbBlockReference
  2
*U54
 10
0.0
 20
0.0
 30
0.0
  0
POINT
  5
1D92
330
2BB5
100
AcDbEntity
  8
DEFPOINTS
 62
     0
100
AcDbPoint
 10
134.5
 20
-300.0
 30
0.0
  0
POINT
  5
1D93
330
2BB5
100
AcDbEntity
  8
DEFPOINTS
 62
     0
100
AcDbPoint
 10
157.5
 20
0.0
 30
0.0
  0
POINT
  5
1D94
330
2BB5
100
AcDbEntity
  8
DEFPOINTS
 62
     0
100
AcDbPoint
 10
284.6432844803785
 20
-0.000000000000036
 30
0.0
  0
ENDBLK
  5
1749
330
2BB5
100
AcDbEntity
  8
0
100
AcDbBlockEnd
  0
BLOCK
  5
2BB8
330
2BB7
100
AcDbEntity
  8
0
100
AcDbBlockBegin
  2
*U54
 70
     1
 10
0.0
 20
0.0
 30
0.0
  3
*U54
  1

  0
TEXT
  5
1F35
330
2BB7
100
AcDbEntity
  8
SIZE
 62
     0
100
AcDbText
 10
274.6432844803785
 20
-224.0571428571429
 30
0.0
 40
64.0
  1
300
 50
90.0
 41
0.9
100
AcDbText
  0
ENDBLK
  5
1F37
330
2BB7
100
AcDbEntity
  8
0
100
AcDbBlockEnd
  0
BLOCK
  5
2BBA
330
2BB9
100
AcDbEntity
  8
0
100
AcDbBlockBegin
  2
*D55
 70
     1
 10
0.0
 20
0.0
 30
0.0
  3
*D55
  1

  0
LINE
  5
1D95
330
2BB9
100
AcDbEntity
  8
SIZE
 62
     0
100
AcDbLine
 10
-140.0
 20
32.46448280219375
 30
0.0
 11
-140.0
 21
136.4516878685508
 31
0.0
  0
LINE
  5
1D96
330
2BB9
100
AcDbEntity
  8
SIZE
 62
     0
100
AcDbLine
 10
140.0
 20
32.46448280219375
 30
0.0
 11
140.0
 21
136.4516878685508
 31
0.0
  0
LINE
  5
1D97
330
2BB9
100
AcDbEntity
  8
SIZE
 62
     0
100
AcDbLine
 10
-128.0
 20
116.4516878685508
 30
0.0
 11
128.0
 21
116.4516878685508
 31
0.0
  0
INSERT
  5
1D98
330
2BB9
100
AcDbEntity
  8
SIZE
 62
     0
100
AcDbBlockReference
  2
_DOTBLANK
 10
-140.0
 20
116.4516878685508
 30
0.0
 41
12.0
 42
12.0
 43
12.0
 50
180.0
  0
INSERT
  5
1D99
330
2BB9
100
AcDbEntity
  8
SIZE
 62
     0
100
AcDbBlockReference
  2
_DOTBLANK
 10
140.0
 20
116.4516878685508
 30
0.0
 41
12.0
 42
12.0
 43
12.0
  0
INSERT
  5
1D9A
330
2BB9
100
AcDbEntity
  8
0
100
AcDbBlockReference
  2
*U56
 10
0.0
 20
0.0
 30
0.0
  0
POINT
  5
1D9B
330
2BB9
100
AcDbEntity
  8
DEFPOINTS
 62
     0
100
AcDbPoint
 10
-140.0
 20
12.46448280219374
 30
0.0
  0
POINT
  5
1D9C
330
2BB9
100
AcDbEntity
  8
DEFPOINTS
 62
     0
100
AcDbPoint
 10
140.0
 20
12.46448280219374
 30
0.0
  0
POINT
  5
1D9D
330
2BB9
100
AcDbEntity
  8
DEFPOINTS
 62
     0
100
AcDbPoint
 10
140.0
 20
116.4516878685508
 30
0.0
  0
ENDBLK
  5
1755
330
2BB9
100
AcDbEntity
  8
0
100
AcDbBlockEnd
  0
BLOCK
  5
2BBC
330
2BBB
100
AcDbEntity
  8
0
100
AcDbBlockBegin
  2
*U56
 70
     1
 10
0.0
 20
0.0
 30
0.0
  3
*U56
  1

  0
TEXT
  5
1F39
330
2BBB
100
AcDbEntity
  8
SIZE
 62
     0
100
AcDbText
 10
-74.05714285714283
 20
126.4516878685508
 30
0.0
 40
64.0
  1
280
 41
0.9
100
AcDbText
  0
ENDBLK
  5
1F3B
330
2BBB
100
AcDbEntity
  8
0
100
AcDbBlockEnd
  0
BLOCK
  5
2BBE
330
2BBD
100
AcDbEntity
  8
0
100
AcDbBlockBegin
  2
*D57
 70
     1
 10
0.0
 20
0.0
 30
0.0
  3
*D57
  1

  0
LINE
  5
1D9E
330
2BBD
100
AcDbEntity
  8
SIZE
 62
     0
100
AcDbLine
 10
-157.5
 20
20.0
 30
0.0
 11
-157.5
 21
245.5794621189598
 31
0.0
  0
LINE
  5
1D9F
330
2BBD
100
AcDbEntity
  8
SIZE
 62
     0
100
AcDbLine
 10
157.5
 20
20.0
 30
0.0
 11
157.5
 21
245.5794621189598
 31
0.0
  0
LINE
  5
1DA0
330
2BBD
100
AcDbEntity
  8
SIZE
 62
     0
100
AcDbLine
 10
-145.5
 20
225.5794621189598
 30
0.0
 11
145.5
 21
225.5794621189598
 31
0.0
  0
INSERT
  5
1DA1
330
2BBD
100
AcDbEntity
  8
SIZE
 62
     0
100
AcDbBlockReference
  2
_DOTBLANK
 10
-157.5
 20
225.5794621189598
 30
0.0
 41
12.0
 42
12.0
 43
12.0
 50
180.0
  0
INSERT
  5
1DA2
330
2BBD
100
AcDbEntity
  8
SIZE
 62
     0
100
AcDbBlockReference
  2
_DOTBLANK
 10
157.5
 20
225.5794621189598
 30
0.0
 41
12.0
 42
12.0
 43
12.0
  0
INSERT
  5
1DA3
330
2BBD
100
AcDbEntity
  8
0
100
AcDbBlockReference
  2
*U58
 10
0.0
 20
0.0
 30
0.0
  0
POINT
  5
1DA4
330
2BBD
100
AcDbEntity
  8
DEFPOINTS
 62
     0
100
AcDbPoint
 10
-157.5
 20
0.0
 30
0.0
  0
POINT
  5
1DA5
330
2BBD
100
AcDbEntity
  8
DEFPOINTS
 62
     0
100
AcDbPoint
 10
157.5
 20
0.0
 30
0.0
  0
POINT
  5
1DA6
330
2BBD
100
AcDbEntity
  8
DEFPOINTS
 62
     0
100
AcDbPoint
 10
157.5
 20
225.5794621189598
 30
0.0
  0
ENDBLK
  5
1761
330
2BBD
100
AcDbEntity
  8
0
100
AcDbBlockEnd
  0
BLOCK
  5
2BC0
330
2BBF
100
AcDbEntity
  8
0
100
AcDbBlockBegin
  2
*U58
 70
     1
 10
0.0
 20
0.0
 30
0.0
  3
*U58
  1

  0
TEXT
  5
1F3D
330
2BBF
100
AcDbEntity
  8
SIZE
 62
     0
100
AcDbText
 10
-68.57142857142857
 20
235.5794621189599
 30
0.0
 40
64.0
  1
315
 41
0.9
100
AcDbText
  0
ENDBLK
  5
1F3F
330
2BBF
100
AcDbEntity
  8
0
100
AcDbBlockEnd
  0
BLOCK
  5
2BC2
330
2BC1
100
AcDbEntity
  8
0
100
AcDbBlockBegin
  2
*D59
 70
     1
 10
0.0
 20
0.0
 30
0.0
  3
*D59
  1

  0
LINE
  5
1DA7
330
2BC1
100
AcDbEntity
  8
SIZE
 62
     0
100
AcDbLine
 10
-177.5
 20
0.0000000000000057
 30
0.0
 11
-314.0264221186908
 21
0.0000000000000443
 31
0.0
  0
LINE
  5
1DA8
330
2BC1
100
AcDbEntity
  8
SIZE
 62
     0
100
AcDbLine
 10
-177.5
 20
-7.999999999999993
 30
0.0
 11
-314.0264221186908
 21
-7.999999999999958
 31
0.0
  0
LINE
  5
1DA9
330
2BC1
100
AcDbEntity
  8
SIZE
 62
     0
100
AcDbLine
 10
-294.0264221186908
 20
12.00000000000003
 30
0.0
 11
-294.0264221186908
 21
24.00000000000004
 31
0.0
  0
LINE
  5
1DAA
330
2BC1
100
AcDbEntity
  8
SIZE
 62
     0
100
AcDbLine
 10
-294.0264221186908
 20
-19.99999999999996
 30
0.0
 11
-294.0264221186908
 21
-90.39999999999997
 31
0.0
  0
INSERT
  5
1DAB
330
2BC1
100
AcDbEntity
  8
SIZE
 62
     0
100
AcDbBlockReference
  2
_DOTBLANK
 10
-294.0264221186908
 20
0.0000000000000387
 30
0.0
 41
12.0
 42
12.0
 43
12.0
 50
270.0
  0
INSERT
  5
1DAC
330
2BC1
100
AcDbEntity
  8
SIZE
 62
     0
100
AcDbBlockReference
  2
_DOTBLANK
 10
-294.0264221186908
 20
-7.999999999999961
 30
0.0
 41
12.0
 42
12.0
 43
12.0
 50
90.0
  0
INSERT
  5
1DAD
330
2BC1
100
AcDbEntity
  8
0
100
AcDbBlockReference
  2
*U60
 10
0.0
 20
0.0
 30
0.0
  0
POINT
  5
1DAE
330
2BC1
100
AcDbEntity
  8
DEFPOINTS
 62
     0
100
AcDbPoint
 10
-157.5
 20
0.0
 30
0.0
  0
POINT
  5
1DAF
330
2BC1
100
AcDbEntity
  8
DEFPOINTS
 62
     0
100
AcDbPoint
 10
-157.5
 20
-8.000000000000003
 30
0.0
  0
POINT
  5
1DB0
330
2BC1
100
AcDbEntity
  8
DEFPOINTS
 62
     0
100
AcDbPoint
 10
-294.0264221186908
 20
-7.999999999999961
 30
0.0
  0
ENDBLK
  5
176D
330
2BC1
100
AcDbEntity
  8
0
100
AcDbBlockEnd
  0
BLOCK
  5
2BC4
330
2BC3
100
AcDbEntity
  8
0
100
AcDbBlockBegin
  2
*U60
 70
     1
 10
0.0
 20
0.0
 30
0.0
  3
*U60
  1

  0
TEXT
  5
1F41
330
2BC3
100
AcDbEntity
  8
SIZE
 62
     0
100
AcDbText
 10
-304.0264221186908
 20
-80.4
 30
0.0
 40
64.0
  1
8
 50
90.0
 41
0.9
100
AcDbText
  0
ENDBLK
  5
1F43
330
2BC3
100
AcDbEntity
  8
0
100
AcDbBlockEnd
  0
BLOCK
  5
2BC6
330
2BC5
100
AcDbEntity
  8
0
100
AcDbBlockBegin
  2
*D61
 70
     1
 10
0.0
 20
0.0
 30
0.0
  3
*D61
  1

  0
LINE
  5
1DB1
330
2BC5
100
AcDbEntity
  8
SIZE
 62
     0
100
AcDbLine
 10
154.5
 20
-300.0
 30
0.0
 11
304.6432844803785
 21
-300.0
 31
0.0
  0
LINE
  5
1DB2
330
2BC5
100
AcDbEntity
  8
SIZE
 62
     0
100
AcDbLine
 10
143.5
 20
-312.0
 30
0.0
 11
304.6432844803785
 21
-312.0
 31
0.0
  0
LINE
  5
1DB3
330
2BC5
100
AcDbEntity
  8
SIZE
 62
     0
100
AcDbLine
 10
284.6432844803785
 20
-288.0
 30
0.0
 11
284.6432844803785
 21
-276.0
 31
0.0
  0
LINE
  5
1DB4
330
2BC5
100
AcDbEntity
  8
SIZE
 62
     0
100
AcDbLine
 10
284.6432844803785
 20
-324.0000000000001
 30
0.0
 11
284.6432844803784
 21
-438.2857142857143
 31
0.0
  0
INSERT
  5
1DB5
330
2BC5
100
AcDbEntity
  8
SIZE
 62
     0
100
AcDbBlockReference
  2
_DOTBLANK
 10
284.6432844803785
 20
-300.0
 30
0.0
 41
12.0
 42
12.0
 43
12.0
 50
270.0
  0
INSERT
  5
1DB6
330
2BC5
100
AcDbEntity
  8
SIZE
 62
     0
100
AcDbBlockReference
  2
_DOTBLANK
 10
284.6432844803785
 20
-312.0
 30
0.0
 41
12.0
 42
12.0
 43
12.0
 50
90.0
  0
INSERT
  5
1DB7
330
2BC5
100
AcDbEntity
  8
0
100
AcDbBlockReference
  2
*U62
 10
0.0
 20
0.0
 30
0.0
  0
POINT
  5
1DB8
330
2BC5
100
AcDbEntity
  8
DEFPOINTS
 62
     0
100
AcDbPoint
 10
134.5
 20
-300.0
 30
0.0
  0
POINT
  5
1DB9
330
2BC5
100
AcDbEntity
  8
DEFPOINTS
 62
     0
100
AcDbPoint
 10
123.5
 20
-312.0
 30
0.0
  0
POINT
  5
1DBA
330
2BC5
100
AcDbEntity
  8
DEFPOINTS
 62
     0
100
AcDbPoint
 10
284.6432844803785
 20
-312.0
 30
0.0
  0
ENDBLK
  5
177B
330
2BC5
100
AcDbEntity
  8
0
100
AcDbBlockEnd
  0
BLOCK
  5
2BC8
330
2BC7
100
AcDbEntity
  8
0
100
AcDbBlockBegin
  2
*U62
 70
     1
 10
0.0
 20
0.0
 30
0.0
  3
*U62
  1

  0
TEXT
  5
1F45
330
2BC7
100
AcDbEntity
  8
SIZE
 62
     0
100
AcDbText
 10
274.6432844803785
 20
-428.2857142857142
 30
0.0
 40
64.0
  1
12
 50
90.0
 41
0.9
100
AcDbText
  0
ENDBLK
  5
1F47
330
2BC7
100
AcDbEntity
  8
0
100
AcDbBlockEnd
  0
BLOCK
  5
2BCA
330
2BC9
100
AcDbEntity
  8
0
100
AcDbBlockBegin
  2
*U63
 70
     1
 10
0.0
 20
0.0
 30
0.0
  3
*U63
  1

  0
ENDBLK
  5
1D57
330
2BC9
100
AcDbEntity
  8
0
100
AcDbBlockEnd
  0
BLOCK
  5
2BCC
330
2BCB
100
AcDbEntity
  8
0
100
AcDbBlockBegin
  2
*U64
 70
     1
 10
0.0
 20
0.0
 30
0.0
  3
*U64
  1

  0
INSERT
  5
2087
330
2BCB
100
AcDbEntity
  8
NOTE
100
AcDbBlockReference
  2
_OPEN30
 10
-217.0
 20
0.0
 30
0.0
 41
12.0
 42
12.0
 43
12.0
 50
312.6090116116894
  0
POLYLINE
  5
2088
330
2BCB
100
AcDbEntity
  8
NOTE
100
AcDb2dPolyline
 66
     1
 10
0.0
 20
0.0
 30
0.0
  0
VERTEX
  5
2A6D
330
2088
100
AcDbEntity
  8
NOTE
100
AcDbVertex
100
AcDb2dVertex
 10
-225.1239008361896
 20
8.831887408915475
 30
0.0
  0
VERTEX
  5
2A6E
330
2088
100
AcDbEntity
  8
NOTE
100
AcDbVertex
100
AcDb2dVertex
 10
-304.8693999922543
 20
95.52709505801338
 30
0.0
  0
VERTEX
  5
2A6F
330
2088
100
AcDbEntity
  8
NOTE
100
AcDbVertex
100
AcDb2dVertex
 10
-850.7093999922542
 20
95.52709505801338
 30
0.0
  0
SEQEND
  5
2A70
330
2088
100
AcDbEntity
  8
NOTE
  0
ENDBLK
  5
2089
330
2BCB
100
AcDbEntity
  8
0
100
AcDbBlockEnd
  0
BLOCK
  5
2BCE
330
2BCD
100
AcDbEntity
  8
0
100
AcDbBlockBegin
  2
*U65
 70
     1
 10
0.0
 20
0.0
 30
0.0
  3
*U65
  1

  0
TEXT
  5
208C
330
2BCD
100
AcDbEntity
  8
NOTE
100
AcDbText
 10
-850.7093999922542
 20
113.5270950580134
 30
0.0
 40
64.0
  1
4×φ15取付穴
 41
0.9
100
AcDbText
  0
ENDBLK
  5
208D
330
2BCD
100
AcDbEntity
  8
0
100
AcDbBlockEnd
  0
BLOCK
  5
2BD0
330
2BCF
100
AcDbEntity
  8
0
100
AcDbBlockBegin
  2
*U66
 70
     1
 10
0.0
 20
0.0
 30
0.0
  3
*U66
  1

  0
INSERT
  5
215D
330
2BCF
100
AcDbEntity
  8
NOTE
100
AcDbBlockReference
  2
_OPEN30
 10
217.0
 20
216.725270751941
 30
0.0
 41
12.0
 42
12.0
 43
12.0
 50
230.7091310502217
  0
POLYLINE
  5
215E
330
2BCF
100
AcDbEntity
  8
NOTE
100
AcDb2dPolyline
 66
     1
 10
0.0
 20
0.0
 30
0.0
  0
VERTEX
  5
2A71
330
215E
100
AcDbEntity
  8
NOTE
100
AcDbVertex
100
AcDb2dVertex
 10
224.599090480922
 20
226.0125644300132
 30
0.0
  0
VERTEX
  5
2A72
330
215E
100
AcDbEntity
  8
NOTE
100
AcDbVertex
100
AcDb2dVertex
 10
280.4345623698609
 20
294.2523658099544
 30
0.0
  0
VERTEX
  5
2A73
330
215E
100
AcDbEntity
  8
NOTE
100
AcDbVertex
100
AcDb2dVertex
 10
826.2745623698611
 20
294.2523658099544
 30
0.0
  0
SEQEND
  5
2A74
330
215E
100
AcDbEntity
  8
NOTE
  0
ENDBLK
  5
215F
330
2BCF
100
AcDbEntity
  8
0
100
AcDbBlockEnd
  0
BLOCK
  5
2BD2
330
2BD1
100
AcDbEntity
  8
0
100
AcDbBlockBegin
  2
*U67
 70
     1
 10
0.0
 20
0.0
 30
0.0
  3
*U67
  1

  0
TEXT
  5
2162
330
2BD1
100
AcDbEntity
  8
NOTE
100
AcDbText
 10
342.4345623698609
 20
312.2523658099544
 30
0.0
 40
64.0
  1
4×φ15取付穴
 41
0.9
100
AcDbText
  0
ENDBLK
  5
2163
330
2BD1
100
AcDbEntity
  8
0
100
AcDbBlockEnd
  0
BLOCK
  5
2BD4
330
2BD3
100
AcDbEntity
  8
0
100
AcDbBlockBegin
  2
*U68
 70
     1
 10
0.0
 20
0.0
 30
0.0
  3
*U68
  1

  0
INSERT
  5
2234
330
2BD3
100
AcDbEntity
  8
NOTE
100
AcDbBlockReference
  2
_OPEN30
 10
217.0
 20
217.0000000000002
 30
0.0
 41
12.0
 42
12.0
 43
12.0
 50
232.3258907693334
  0
POLYLINE
  5
2235
330
2BD3
100
AcDbEntity
  8
NOTE
100
AcDb2dPolyline
 66
     1
 10
0.0
 20
0.0
 30
0.0
  0
VERTEX
  5
2A75
330
2235
100
AcDbEntity
  8
NOTE
100
AcDbVertex
100
AcDb2dVertex
 10
224.3340332839448
 20
226.4979974620966
 30
0.0
  0
VERTEX
  5
2A76
330
2235
100
AcDbEntity
  8
NOTE
100
AcDbVertex
100
AcDb2dVertex
 10
290.7628007872083
 20
312.5270950580127
 30
0.0
  0
VERTEX
  5
2A77
330
2235
100
AcDbEntity
  8
NOTE
100
AcDbVertex
100
AcDb2dVertex
 10
836.6028007872081
 20
312.5270950580127
 30
0.0
  0
SEQEND
  5
2A78
330
2235
100
AcDbEntity
  8
NOTE
  0
ENDBLK
  5
2236
330
2BD3
100
AcDbEntity
  8
0
100
AcDbBlockEnd
  0
BLOCK
  5
2BD6
330
2BD5
100
AcDbEntity
  8
0
100
AcDbBlockBegin
  2
*U69
 70
     1
 10
0.0
 20
0.0
 30
0.0
  3
*U69
  1

  0
TEXT
  5
2239
330
2BD5
100
AcDbEntity
  8
NOTE
100
AcDbText
 10
352.7628007872081
 20
330.5270950580127
 30
0.0
 40
64.0
  1
4×φ15取付穴
 41
0.9
100
AcDbText
  0
ENDBLK
  5
223A
330
2BD5
100
AcDbEntity
  8
0
100
AcDbBlockEnd
  0
BLOCK
  5
2BD8
330
2BD7
100
AcDbEntity
  8
0
100
AcDbBlockBegin
  2
*U70
 70
     1
 10
0.0
 20
0.0
 30
0.0
  3
*U70
  1

  0
INSERT
  5
2327
330
2BD7
100
AcDbEntity
  8
NOTE
100
AcDbBlockReference
  2
_OPEN30
 10
0.0
 20
217.0
 30
0.0
 41
12.0
 42
12.0
 43
12.0
 50
312.6090116116895
  0
POLYLINE
  5
2328
330
2BD7
100
AcDbEntity
  8
NOTE
100
AcDb2dPolyline
 66
     1
 10
0.0
 20
0.0
 30
0.0
  0
VERTEX
  5
2A79
330
2328
100
AcDbEntity
  8
NOTE
100
AcDbVertex
100
AcDb2dVertex
 10
-8.123900836189513
 20
225.8318874089155
 30
0.0
  0
VERTEX
  5
2A7A
330
2328
100
AcDbEntity
  8
NOTE
100
AcDbVertex
100
AcDb2dVertex
 10
-87.86939999225436
 20
312.527095058013
 30
0.0
  0
VERTEX
  5
2A7B
330
2328
100
AcDbEntity
  8
NOTE
100
AcDbVertex
100
AcDb2dVertex
 10
-633.7093999922545
 20
312.527095058013
 30
0.0
  0
SEQEND
  5
2A7C
330
2328
100
AcDbEntity
  8
NOTE
  0
ENDBLK
  5
2329
330
2BD7
100
AcDbEntity
  8
0
100
AcDbBlockEnd
  0
BLOCK
  5
2BDA
330
2BD9
100
AcDbEntity
  8
0
100
AcDbBlockBegin
  2
*U71
 70
     1
 10
0.0
 20
0.0
 30
0.0
  3
*U71
  1

  0
TEXT
  5
232C
330
2BD9
100
AcDbEntity
  8
NOTE
100
AcDbText
 10
-633.7093999922545
 20
330.5270950580129
 30
0.0
 40
64.0
  1
4×φ15取付穴
 41
0.9
100
AcDbText
  0
ENDBLK
  5
232D
330
2BD9
100
AcDbEntity
  8
0
100
AcDbBlockEnd
  0
BLOCK
  5
2BDC
330
2BDB
100
AcDbEntity
  8
0
100
AcDbBlockBegin
  2
*U72
 70
     1
 10
0.0
 20
0.0
 30
0.0
  3
*U72
  1

  0
INSERT
  5
2454
330
2BDB
100
AcDbEntity
  8
NOTE
100
AcDbBlockReference
  2
_OPEN30
 10
0.0
 20
216.9999999999999
 30
0.0
 41
12.0
 42
12.0
 43
12.0
 50
227.3909883883104
  0
POLYLINE
  5
2455
330
2BDB
100
AcDbEntity
  8
NOTE
100
AcDb2dPolyline
 66
     1
 10
0.0
 20
0.0
 30
0.0
  0
VERTEX
  5
2A7D
330
2455
100
AcDbEntity
  8
NOTE
100
AcDbVertex
100
AcDb2dVertex
 10
8.123900836189516
 20
225.8318874089154
 30
0.0
  0
VERTEX
  5
2A7E
330
2455
100
AcDbEntity
  8
NOTE
100
AcDbVertex
100
AcDb2dVertex
 10
87.86939999225436
 20
312.5270950580128
 30
0.0
  0
VERTEX
  5
2A7F
330
2455
100
AcDbEntity
  8
NOTE
100
AcDbVertex
100
AcDb2dVertex
 10
633.7093999922545
 20
312.5270950580128
 30
0.0
  0
SEQEND
  5
2A80
330
2455
100
AcDbEntity
  8
NOTE
  0
ENDBLK
  5
2456
330
2BDB
100
AcDbEntity
  8
0
100
AcDbBlockEnd
  0
BLOCK
  5
2BDE
330
2BDD
100
AcDbEntity
  8
0
100
AcDbBlockBegin
  2
*U73
 70
     1
 10
0.0
 20
0.0
 30
0.0
  3
*U73
  1

  0
TEXT
  5
2459
330
2BDD
100
AcDbEntity
  8
NOTE
100
AcDbText
 10
149.8693999922543
 20
330.5270950580128
 30
0.0
 40
64.0
  1
4×φ15取付穴
 41
0.9
100
AcDbText
  0
ENDBLK
  5
245A
330
2BDD
100
AcDbEntity
  8
0
100
AcDbBlockEnd
  0
BLOCK
  5
2BE0
330
2BDF
100
AcDbEntity
  8
0
100
AcDbBlockBegin
  2
*U74
 70
     1
 10
0.0
 20
0.0
 30
0.0
  3
*U74
  1

  0
INSERT
  5
2585
330
2BDF
100
AcDbEntity
  8
NOTE
100
AcDbBlockReference
  2
_OPEN30
 10
-217.0
 20
0.0
 30
0.0
 41
12.0
 42
12.0
 43
12.0
 50
312.6090116116894
  0
POLYLINE
  5
2586
330
2BDF
100
AcDbEntity
  8
NOTE
100
AcDb2dPolyline
 66
     1
 10
0.0
 20
0.0
 30
0.0
  0
VERTEX
  5
2A81
330
2586
100
AcDbEntity
  8
NOTE
100
AcDbVertex
100
AcDb2dVertex
 10
-225.1239008361896
 20
8.831887408915475
 30
0.0
  0
VERTEX
  5
2A82
330
2586
100
AcDbEntity
  8
NOTE
100
AcDbVertex
100
AcDb2dVertex
 10
-304.8693999922543
 20
95.52709505801338
 30
0.0
  0
VERTEX
  5
2A83
330
2586
100
AcDbEntity
  8
NOTE
100
AcDbVertex
100
AcDb2dVertex
 10
-850.7093999922542
 20
95.52709505801338
 30
0.0
  0
SEQEND
  5
2A84
330
2586
100
AcDbEntity
  8
NOTE
  0
ENDBLK
  5
2587
330
2BDF
100
AcDbEntity
  8
0
100
AcDbBlockEnd
  0
BLOCK
  5
2BE2
330
2BE1
100
AcDbEntity
  8
0
100
AcDbBlockBegin
  2
*U75
 70
     1
 10
0.0
 20
0.0
 30
0.0
  3
*U75
  1

  0
TEXT
  5
258A
330
2BE1
100
AcDbEntity
  8
NOTE
100
AcDbText
 10
-850.7093999922542
 20
113.5270950580134
 30
0.0
 40
64.0
  1
4×φ15取付穴
 41
0.9
100
AcDbText
  0
ENDBLK
  5
258B
330
2BE1
100
AcDbEntity
  8
0
100
AcDbBlockEnd
  0
BLOCK
  5
2BE4
330
2BE3
100
AcDbEntity
  8
0
100
AcDbBlockBegin
  2
*X76
 70
     1
 10
0.0
 20
0.0
 30
0.0
  3
*X76
  1

  0
LINE
  5
258E
330
2BE3
100
AcDbEntity
  8
0
 62
     0
100
AcDbLine
 10
183.0021506300127
 20
-436.3999999999996
 30
0.0
 11
187.3999999999904
 21
-433.4681079066919
 31
0.0
  0
LINE
  5
258F
330
2BE3
100
AcDbEntity
  8
0
 62
     0
100
AcDbLine
 10
178.5021893361263
 20
-436.3999999999996
 30
0.0
 11
187.3999999999869
 21
-430.4681413712751
 31
0.0
  0
LINE
  5
2590
330
2BE3
100
AcDbEntity
  8
0
 62
     0
100
AcDbLine
 10
174.0022280422398
 20
-436.3999999999996
 30
0.0
 11
187.3999999999904
 21
-427.4681748358598
 31
0.0
  0
LINE
  5
2591
330
2BE3
100
AcDbEntity
  8
0
 62
     0
100
AcDbLine
 10
169.5022667483534
 20
-436.3999999999996
 30
0.0
 11
187.3999999999869
 21
-424.4682083004445
 31
0.0
  0
LINE
  5
2592
330
2BE3
100
AcDbEntity
  8
0
 62
     0
100
AcDbLine
 10
165.0023054544708
 20
-436.3999999999996
 30
0.0
 11
187.3999999999904
 21
-421.4682417650274
 31
0.0
  0
LINE
  5
2593
330
2BE3
100
AcDbEntity
  8
0
 62
     0
100
AcDbLine
 10
160.5023441605844
 20
-436.3999999999996
 30
0.0
 11
187.3999999999869
 21
-418.4682752296119
 31
0.0
  0
LINE
  5
2594
330
2BE3
100
AcDbEntity
  8
0
 62
     0
100
AcDbLine
 10
156.0023828666999
 20
-436.3999999999996
 30
0.0
 11
187.3999999999884
 21
-415.4683086941949
 31
0.0
  0
LINE
  5
2595
330
2BE3
100
AcDbEntity
  8
0
 62
     0
100
AcDbLine
 10
151.5024215728153
 20
-436.3999999999976
 30
0.0
 11
187.3999999999904
 21
-412.4683421587778
 31
0.0
  0
LINE
  5
2596
330
2BE3
100
AcDbEntity
  8
0
 62
     0
100
AcDbLine
 10
147.0024602789272
 20
-436.3999999999996
 30
0.0
 11
187.3999999999884
 21
-409.4683756233644
 31
0.0
  0
LINE
  5
2597
330
2BE3
100
AcDbEntity
  8
0
 62
     0
100
AcDbLine
 10
142.5024989850408
 20
-436.3999999999996
 30
0.0
 11
187.3999999999884
 21
-406.4684090879453
 31
0.0
  0
LINE
  5
2598
330
2BE3
100
AcDbEntity
  8
0
 62
     0
100
AcDbLine
 10
138.0025376911544
 20
-436.4000000000014
 30
0.0
 11
187.3999999999884
 21
-403.4684425525319
 31
0.0
  0
LINE
  5
2599
330
2BE3
100
AcDbEntity
  8
0
 62
     0
100
AcDbLine
 10
133.5025763972735
 20
-436.3999999999996
 30
0.0
 11
187.3999999999904
 21
-400.4684760171128
 31
0.0
  0
LINE
  5
259A
330
2BE3
100
AcDbEntity
  8
0
 62
     0
100
AcDbLine
 10
129.0026151033835
 20
-436.4000000000014
 30
0.0
 11
187.3999999999884
 21
-397.4685094816978
 31
0.0
  0
LINE
  5
259B
330
2BE3
100
AcDbEntity
  8
0
 62
     0
100
AcDbLine
 10
124.5026538094989
 20
-436.3999999999996
 30
0.0
 11
187.3999999999884
 21
-394.4685429462825
 31
0.0
  0
LINE
  5
259C
330
2BE3
100
AcDbEntity
  8
0
 62
     0
100
AcDbLine
 10
120.0026925156162
 20
-436.3999999999976
 30
0.0
 11
187.3999999999884
 21
-391.4685764108654
 31
0.0
  0
LINE
  5
259D
330
2BE3
100
AcDbEntity
  8
0
 62
     0
100
AcDbLine
 10
115.5027312217298
 20
-436.3999999999996
 30
0.0
 11
187.3999999999884
 21
-388.46860987545
 31
0.0
  0
LINE
  5
259E
330
2BE3
100
AcDbEntity
  8
0
 62
     0
100
AcDbLine
 10
111.0027699278416
 20
-436.3999999999996
 30
0.0
 11
187.3999999999884
 21
-385.4686433400311
 31
0.0
  0
LINE
  5
259F
330
2BE3
100
AcDbEntity
  8
0
 62
     0
100
AcDbLine
 10
106.5028086339571
 20
-436.4000000000014
 30
0.0
 11
187.3999999999884
 21
-382.4686768046177
 31
0.0
  0
LINE
  5
25A0
330
2BE3
100
AcDbEntity
  8
0
 62
     0
100
AcDbLine
 10
102.0028473400725
 20
-436.3999999999976
 30
0.0
 11
187.3999999999884
 21
-379.4687102692005
 31
0.0
  0
LINE
  5
25A1
330
2BE3
100
AcDbEntity
  8
0
 62
     0
100
AcDbLine
 10
97.50288604618438
 20
-436.4000000000014
 30
0.0
 11
187.3999999999884
 21
-376.4687437337852
 31
0.0
  0
LINE
  5
25A2
330
2BE3
100
AcDbEntity
  8
0
 62
     0
100
AcDbLine
 10
93.0029247522998
 20
-436.3999999999996
 30
0.0
 11
187.3999999999884
 21
-373.4687771983681
 31
0.0
  0
LINE
  5
25A3
330
2BE3
100
AcDbEntity
  8
0
 62
     0
100
AcDbLine
 10
88.50296345841886
 20
-436.3999999999996
 30
0.0
 11
187.3999999999884
 21
-370.4688106629528
 31
0.0
  0
LINE
  5
25A4
330
2BE3
100
AcDbEntity
  8
0
 62
     0
100
AcDbLine
 10
84.00300216452706
 20
-436.4000000000014
 30
0.0
 11
187.3999999999884
 21
-367.4688441275357
 31
0.0
  0
LINE
  5
25A5
330
2BE3
100
AcDbEntity
  8
0
 62
     0
100
AcDbLine
 10
79.5030408706443
 20
-436.3999999999996
 30
0.0
 11
187.3999999999923
 21
-364.4688775921168
 31
0.0
  0
LINE
  5
25A6
330
2BE3
100
AcDbEntity
  8
0
 62
     0
100
AcDbLine
 10
75.00307957675795
 20
-436.3999999999996
 30
0.0
 11
187.3999999999923
 21
-361.4689110567015
 31
0.0
  0
LINE
  5
25A7
330
2BE3
100
AcDbEntity
  8
0
 62
     0
100
AcDbLine
 10
70.50311828287158
 20
-436.4000000000014
 30
0.0
 11
187.3999999999923
 21
-358.4689445212862
 31
0.0
  0
LINE
  5
25A8
330
2BE3
100
AcDbEntity
  8
0
 62
     0
100
AcDbLine
 10
66.00315698898521
 20
-436.4000000000014
 30
0.0
 11
187.3999999999904
 21
-355.4689779858691
 31
0.0
  0
LINE
  5
25A9
330
2BE3
100
AcDbEntity
  8
0
 62
     0
100
AcDbLine
 10
61.50319569509885
 20
-436.4000000000014
 30
0.0
 11
187.3999999999923
 21
-352.4690114504519
 31
0.0
  0
LINE
  5
25AA
330
2BE3
100
AcDbEntity
  8
0
 62
     0
100
AcDbLine
 10
57.00323440121611
 20
-436.3999999999996
 30
0.0
 11
187.3999999999942
 21
-349.4690449150348
 31
0.0
  0
LINE
  5
25AB
330
2BE3
100
AcDbEntity
  8
0
 62
     0
100
AcDbLine
 10
52.50327310733336
 20
-436.3999999999976
 30
0.0
 11
187.3999999999923
 21
-346.4690783796195
 31
0.0
  0
LINE
  5
25AC
330
2BE3
100
AcDbEntity
  8
0
 62
     0
100
AcDbLine
 10
48.00331181344517
 20
-436.3999999999996
 30
0.0
 11
187.3999999999923
 21
-343.4691118442042
 31
0.0
  0
LINE
  5
25AD
330
2BE3
100
AcDbEntity
  8
0
 62
     0
100
AcDbLine
 10
43.50335051956061
 20
-436.3999999999996
 30
0.0
 11
187.3999999999923
 21
-340.4691453087871
 31
0.0
  0
LINE
  5
25AE
330
2BE3
100
AcDbEntity
  8
0
 62
     0
100
AcDbLine
 10
39.00338922567242
 20
-436.4000000000014
 30
0.0
 11
187.3999999999923
 21
-337.4691787733718
 31
0.0
  0
LINE
  5
25AF
330
2BE3
100
AcDbEntity
  8
0
 62
     0
100
AcDbLine
 10
34.50342793178606
 20
-436.3999999999996
 30
0.0
 11
187.3999999999904
 21
-334.4692122379548
 31
0.0
  0
LINE
  5
25B0
330
2BE3
100
AcDbEntity
  8
0
 62
     0
100
AcDbLine
 10
30.00346663790151
 20
-436.4000000000014
 30
0.0
 11
187.3999999999923
 21
-331.4692457025393
 31
0.0
  0
LINE
  5
25B1
330
2BE3
100
AcDbEntity
  8
0
 62
     0
100
AcDbLine
 10
25.50350534401696
 20
-436.3999999999996
 30
0.0
 11
187.3999999999904
 21
-328.4692791671241
 31
0.0
  0
LINE
  5
25B2
330
2BE3
100
AcDbEntity
  8
0
 62
     0
100
AcDbLine
 10
21.00354405013058
 20
-436.4000000000014
 30
0.0
 11
187.3999999999923
 21
-325.469312631707
 31
0.0
  0
LINE
  5
25B3
330
2BE3
100
AcDbEntity
  8
0
 62
     0
100
AcDbLine
 10
16.50358275624421
 20
-436.4000000000014
 30
0.0
 11
187.3999999999904
 21
-322.4693460962917
 31
0.0
  0
LINE
  5
25B4
330
2BE3
100
AcDbEntity
  8
0
 62
     0
100
AcDbLine
 10
12.00362146236148
 20
-436.3999999999996
 30
0.0
 11
187.3999999999923
 21
-319.4693795608746
 31
0.0
  0
LINE
  5
25B5
330
2BE3
100
AcDbEntity
  8
0
 62
     0
100
AcDbLine
 10
7.503660168475107
 20
-436.3999999999996
 30
0.0
 11
187.3999999999942
 21
-316.4694130254576
 31
0.0
  0
LINE
  5
25B6
330
2BE3
100
AcDbEntity
  8
0
 62
     0
100
AcDbLine
 10
3.003698874588735
 20
-436.3999999999996
 30
0.0
 11
187.3999999999904
 21
-313.4694464900422
 31
0.0
  0
LINE
  5
25B7
330
2BE3
100
AcDbEntity
  8
0
 62
     0
100
AcDbLine
 10
186.0042163677644
 20
-311.3999999999996
 30
0.0
 11
187.3999999999942
 21
-310.4694799546251
 31
0.0
  0
LINE
  5
25B8
330
2BE3
100
AcDbEntity
  8
0
 62
     0
100
AcDbLine
 10
-1.496262419297635
 20
-436.4000000000014
 30
0.0
 11
186.0042163677644
 21
-311.3999999999996
 31
0.0
  0
LINE
  5
25B9
330
2BE3
100
AcDbEntity
  8
0
 62
     0
100
AcDbLine
 10
181.5042550738781
 20
-311.3999999999996
 30
0.0
 11
187.3999999999904
 21
-307.4695134192098
 31
0.0
  0
LINE
  5
25BA
330
2BE3
100
AcDbEntity
  8
0
 62
     0
100
AcDbLine
 10
-5.996223713182186
 20
-436.3999999999996
 30
0.0
 11
181.5042550738781
 21
-311.3999999999996
 31
0.0
  0
LINE
  5
25BB
330
2BE3
100
AcDbEntity
  8
0
 62
     0
100
AcDbLine
 10
177.0042937799917
 20
-311.4000000000014
 30
0.0
 11
187.3999999999942
 21
-304.4695468837927
 31
0.0
  0
LINE
  5
25BC
330
2BE3
100
AcDbEntity
  8
0
 62
     0
100
AcDbLine
 10
-10.49618500706674
 20
-436.3999999999996
 30
0.0
 11
177.0042937799917
 21
-311.4000000000014
 31
0.0
  0
LINE
  5
25BD
330
2BE3
100
AcDbEntity
  8
0
 62
     0
100
AcDbLine
 10
172.5043324861053
 20
-311.3999999999996
 30
0.0
 11
187.3999999999904
 21
-301.4695803483773
 31
0.0
  0
LINE
  5
25BE
330
2BE3
100
AcDbEntity
  8
0
 62
     0
100
AcDbLine
 10
-14.99614630095311
 20
-436.3999999999996
 30
0.0
 11
172.5043324861053
 21
-311.3999999999996
 31
0.0
  0
LINE
  5
25BF
330
2BE3
100
AcDbEntity
  8
0
 62
     0
100
AcDbLine
 10
168.0043711922226
 20
-311.3999999999996
 30
0.0
 11
187.3999999999942
 21
-298.4696138129602
 31
0.0
  0
LINE
  5
25C0
330
2BE3
100
AcDbEntity
  8
0
 62
     0
100
AcDbLine
 10
-19.49610759483948
 20
-436.4000000000014
 30
0.0
 11
168.0043711922226
 21
-311.3999999999996
 31
0.0
  0
LINE
  5
25C1
330
2BE3
100
AcDbEntity
  8
0
 62
     0
100
AcDbLine
 10
163.5044098983362
 20
-311.3999999999996
 30
0.0
 11
187.3999999999942
 21
-295.4696472775431
 31
0.0
  0
LINE
  5
25C2
330
2BE3
100
AcDbEntity
  8
0
 62
     0
100
AcDbLine
 10
-23.99606888872404
 20
-436.3999999999996
 30
0.0
 11
163.5044098983326
 21
-311.4000000000014
 31
0.0
  0
LINE
  5
25C3
330
2BE3
100
AcDbEntity
  8
0
 62
     0
100
AcDbLine
 10
159.004448604448
 20
-311.4000000000014
 30
0.0
 11
187.3999999999923
 21
-292.4696807421296
 31
0.0
  0
LINE
  5
25C4
330
2BE3
100
AcDbEntity
  8
0
 62
     0
100
AcDbLine
 10
-28.49603018261041
 20
-436.4000000000014
 30
0.0
 11
159.004448604448
 21
-311.4000000000014
 31
0.0
  0
LINE
  5
25C5
330
2BE3
100
AcDbEntity
  8
0
 62
     0
100
AcDbLine
 10
154.5044873105634
 20
-311.4000000000014
 30
0.0
 11
187.3999999999942
 21
-289.4697142067108
 31
0.0
  0
LINE
  5
25C6
330
2BE3
100
AcDbEntity
  8
0
 62
     0
100
AcDbLine
 10
-32.99599147649497
 20
-436.3999999999996
 30
0.0
 11
154.5044873105634
 21
-311.4000000000014
 31
0.0
  0
LINE
  5
25C7
330
2BE3
100
AcDbEntity
  8
0
 62
     0
100
AcDbLine
 10
150.0045260166789
 20
-311.3999999999996
 30
0.0
 11
187.3999999999923
 21
-286.4697476712973
 31
0.0
  0
LINE
  5
25C8
330
2BE3
100
AcDbEntity
  8
0
 62
     0
100
AcDbLine
 10
-37.49595277037953
 20
-436.3999999999996
 30
0.0
 11
150.0045260166789
 21
-311.3999999999996
 31
0.0
  0
LINE
  5
25C9
330
2BE3
100
AcDbEntity
  8
0
 62
     0
100
AcDbLine
 10
145.5045647227925
 20
-311.3999999999996
 30
0.0
 11
187.3999999999923
 21
-283.4697811358783
 31
0.0
  0
LINE
  5
25CA
330
2BE3
100
AcDbEntity
  8
0
 62
     0
100
AcDbLine
 10
-41.99591406426768
 20
-436.3999999999996
 30
0.0
 11
145.5045647227925
 21
-311.3999999999996
 31
0.0
  0
LINE
  5
25CB
330
2BE3
100
AcDbEntity
  8
0
 62
     0
100
AcDbLine
 10
141.0046034289062
 20
-311.4000000000014
 30
0.0
 11
187.3999999999923
 21
-280.4698146004648
 31
0.0
  0
LINE
  5
25CC
330
2BE3
100
AcDbEntity
  8
0
 62
     0
100
AcDbLine
 10
-46.49587535815224
 20
-436.4000000000014
 30
0.0
 11
141.0046034289062
 21
-311.4000000000014
 31
0.0
  0
LINE
  5
25CD
330
2BE3
100
AcDbEntity
  8
0
 62
     0
100
AcDbLine
 10
136.5046421350253
 20
-311.3999999999996
 30
0.0
 11
187.3999999999942
 21
-277.4698480650477
 31
0.0
  0
LINE
  5
25CE
330
2BE3
100
AcDbEntity
  8
0
 62
     0
100
AcDbLine
 10
-50.99583665203681
 20
-436.4000000000014
 30
0.0
 11
136.5046421350253
 21
-311.3999999999996
 31
0.0
  0
LINE
  5
25CF
330
2BE3
100
AcDbEntity
  8
0
 62
     0
100
AcDbLine
 10
132.0046808411371
 20
-311.3999999999996
 30
0.0
 11
187.3999999999923
 21
-274.4698815296305
 31
0.0
  0
LINE
  5
25D0
330
2BE3
100
AcDbEntity
  8
0
 62
     0
100
AcDbLine
 10
-55.49579794592136
 20
-436.3999999999976
 30
0.0
 11
132.0046808411371
 21
-311.3999999999996
 31
0.0
  0
LINE
  5
25D1
330
2BE3
100
AcDbEntity
  8
0
 62
     0
100
AcDbLine
 10
127.5047195472507
 20
-311.3999999999996
 30
0.0
 11
187.3999999999923
 21
-271.4699149942153
 31
0.0
  0
LINE
  5
25D2
330
2BE3
100
AcDbEntity
  8
0
 62
     0
100
AcDbLine
 10
-59.99575923980774
 20
-436.3999999999996
 30
0.0
 11
127.5047195472507
 21
-311.3999999999996
 31
0.0
  0
LINE
  5
25D3
330
2BE3
100
AcDbEntity
  8
0
 62
     0
100
AcDbLine
 10
123.0047582533643
 20
-311.3999999999996
 30
0.0
 11
187.3999999999923
 21
-268.4699484587982
 31
0.0
  0
LINE
  5
25D4
330
2BE3
100
AcDbEntity
  8
0
 62
     0
100
AcDbLine
 10
-64.49572053369411
 20
-436.3999999999996
 30
0.0
 11
123.0047582533643
 21
-311.3999999999996
 31
0.0
  0
LINE
  5
25D5
330
2BE3
100
AcDbEntity
  8
0
 62
     0
100
AcDbLine
 10
118.5047969594816
 20
-311.3999999999996
 30
0.0
 11
187.3999999999923
 21
-265.4699819233829
 31
0.0
  0
LINE
  5
25D6
330
2BE3
100
AcDbEntity
  8
0
 62
     0
100
AcDbLine
 10
-68.99568182758049
 20
-436.4000000000014
 30
0.0
 11
118.5047969594816
 21
-311.3999999999996
 31
0.0
  0
LINE
  5
25D7
330
2BE3
100
AcDbEntity
  8
0
 62
     0
100
AcDbLine
 10
114.0048356655916
 20
-311.4000000000014
 30
0.0
 11
187.3999999999923
 21
-262.4700153879659
 31
0.0
  0
LINE
  5
25D8
330
2BE3
100
AcDbEntity
  8
0
 62
     0
100
AcDbLine
 10
-73.49564312146502
 20
-436.3999999999996
 30
0.0
 11
114.0048356655916
 21
-311.4000000000014
 31
0.0
  0
LINE
  5
25D9
330
2BE3
100
AcDbEntity
  8
0
 62
     0
100
AcDbLine
 10
109.5048743717088
 20
-311.4000000000014
 30
0.0
 11
187.3999999999923
 21
-259.4700488525504
 31
0.0
  0
LINE
  5
25DA
330
2BE3
100
AcDbEntity
  8
0
 62
     0
100
AcDbLine
 10
-77.99560441535323
 20
-436.400000000003
 30
0.0
 11
109.5048743717088
 21
-311.4000000000014
 31
0.0
  0
LINE
  5
25DB
330
2BE3
100
AcDbEntity
  8
0
 62
     0
100
AcDbLine
 10
105.0049130778206
 20
-311.3999999999996
 30
0.0
 11
187.3999999999923
 21
-256.4700823171333
 31
0.0
  0
LINE
  5
25DC
330
2BE3
100
AcDbEntity
  8
0
 62
     0
100
AcDbLine
 10
-82.49556570923777
 20
-436.3999999999996
 30
0.0
 11
105.0049130778206
 21
-311.3999999999996
 31
0.0
  0
LINE
  5
25DD
330
2BE3
100
AcDbEntity
  8
0
 62
     0
100
AcDbLine
 10
100.5049517839397
 20
-311.3999999999996
 30
0.0
 11
187.3999999999923
 21
-253.4701157817181
 31
0.0
  0
LINE
  5
25DE
330
2BE3
100
AcDbEntity
  8
0
 62
     0
100
AcDbLine
 10
-86.99552700312235
 20
-436.4000000000014
 30
0.0
 11
100.5049517839397
 21
-311.3999999999996
 31
0.0
  0
LINE
  5
25DF
330
2BE3
100
AcDbEntity
  8
0
 62
     0
100
AcDbLine
 10
96.00499049005158
 20
-311.3999999999996
 30
0.0
 11
187.3999999999923
 21
-250.4701492463009
 31
0.0
  0
LINE
  5
25E0
330
2BE3
100
AcDbEntity
  8
0
 62
     0
100
AcDbLine
 10
-91.49548829700687
 20
-436.3999999999996
 30
0.0
 11
96.00499049005158
 21
-311.3999999999996
 31
0.0
  0
LINE
  5
25E1
330
2BE3
100
AcDbEntity
  8
0
 62
     0
100
AcDbLine
 10
91.50502919616698
 20
-311.4000000000014
 30
0.0
 11
187.3999999999923
 21
-247.4701827108875
 31
0.0
  0
LINE
  5
25E2
330
2BE3
100
AcDbEntity
  8
0
 62
     0
100
AcDbLine
 10
-95.99544959089142
 20
-436.4000000000014
 30
0.0
 11
91.50502919616698
 21
-311.4000000000014
 31
0.0
  0
LINE
  5
25E3
330
2BE3
100
AcDbEntity
  8
0
 62
     0
100
AcDbLine
 10
87.00506790228244
 20
-311.3999999999978
 30
0.0
 11
187.3999999999923
 21
-244.4702161754685
 31
0.0
  0
LINE
  5
25E4
330
2BE3
100
AcDbEntity
  8
0
 62
     0
100
AcDbLine
 10
-100.4954108847796
 20
-436.3999999999996
 30
0.0
 11
87.00506790228244
 21
-311.3999999999978
 31
0.0
  0
LINE
  5
25E5
330
2BE3
100
AcDbEntity
  8
0
 62
     0
100
AcDbLine
 10
82.50510660839244
 20
-311.4000000000014
 30
0.0
 11
187.3999999999923
 21
-241.4702496400532
 31
0.0
  0
LINE
  5
25E6
330
2BE3
100
AcDbEntity
  8
0
 62
     0
100
AcDbLine
 10
-104.9953721786642
 20
-436.3999999999996
 30
0.0
 11
82.50510660839244
 21
-311.4000000000014
 31
0.0
  0
LINE
  5
25E7
330
2BE3
100
AcDbEntity
  8
0
 62
     0
100
AcDbLine
 10
78.0051453145097
 20
-311.3999999999996
 30
0.0
 11
187.3999999999923
 21
-238.4702831046361
 31
0.0
  0
LINE
  5
25E8
330
2BE3
100
AcDbEntity
  8
0
 62
     0
100
AcDbLine
 10
-109.4953334725524
 20
-436.4000000000014
 30
0.0
 11
78.0051453145097
 21
-311.3999999999996
 31
0.0
  0
LINE
  5
25E9
330
2BE3
100
AcDbEntity
  8
0
 62
     0
100
AcDbLine
 10
73.50518402062334
 20
-311.3999999999996
 30
0.0
 11
187.3999999999923
 21
-235.4703165692189
 31
0.0
  0
LINE
  5
25EA
330
2BE3
100
AcDbEntity
  8
0
 62
     0
100
AcDbLine
 10
-113.995294766435
 20
-436.3999999999996
 30
0.0
 11
73.50518402062334
 21
-311.3999999999996
 31
0.0
  0
LINE
  5
25EB
330
2BE3
100
AcDbEntity
  8
0
 62
     0
100
AcDbLine
 10
69.00522272673879
 20
-311.3999999999996
 30
0.0
 11
187.3999999999904
 21
-232.4703500338054
 31
0.0
  0
LINE
  5
25EC
330
2BE3
100
AcDbEntity
  8
0
 62
     0
100
AcDbLine
 10
-118.4952560603233
 20
-436.4000000000014
 30
0.0
 11
69.00522272673879
 21
-311.3999999999996
 31
0.0
  0
LINE
  5
25ED
330
2BE3
100
AcDbEntity
  8
0
 62
     0
100
AcDbLine
 10
64.5052614328506
 20
-311.4000000000014
 30
0.0
 11
187.3999999999923
 21
-229.4703834983866
 31
0.0
  0
LINE
  5
25EE
330
2BE3
100
AcDbEntity
  8
0
 62
     0
100
AcDbLine
 10
-122.9952173542042
 20
-436.3999999999976
 30
0.0
 11
64.5052614328506
 21
-311.4000000000014
 31
0.0
  0
LINE
  5
25EF
330
2BE3
100
AcDbEntity
  8
0
 62
     0
100
AcDbLine
 10
60.00530013896785
 20
-311.3999999999996
 30
0.0
 11
187.3999999999884
 21
-226.4704169629749
 31
0.0
  0
LINE
  5
25F0
330
2BE3
100
AcDbEntity
  8
0
 62
     0
100
AcDbLine
 10
-127.4951786480942
 20
-436.4000000000014
 30
0.0
 11
60.00530013896785
 21
-311.3999999999996
 31
0.0
  0
LINE
  5
25F1
330
2BE3
100
AcDbEntity
  8
0
 62
     0
100
AcDbLine
 10
55.50533884508149
 20
-311.3999999999996
 30
0.0
 11
187.3999999999904
 21
-223.470450427556
 31
0.0
  0
LINE
  5
25F2
330
2BE3
100
AcDbEntity
  8
0
 62
     0
100
AcDbLine
 10
-131.9951399419769
 20
-436.3999999999996
 30
0.0
 11
55.50533884508149
 21
-311.3999999999996
 31
0.0
  0
LINE
  5
25F3
330
2BE3
100
AcDbEntity
  8
0
 62
     0
100
AcDbLine
 10
51.00537755119511
 20
-311.4000000000014
 30
0.0
 11
187.3999999999869
 21
-220.4704838921425
 31
0.0
  0
LINE
  5
25F4
330
2BE3
100
AcDbEntity
  8
0
 62
     0
100
AcDbLine
 10
-136.495101235865
 20
-436.4000000000014
 30
0.0
 11
51.00537755119511
 21
-311.4000000000014
 31
0.0
  0
LINE
  5
25F5
330
2BE3
100
AcDbEntity
  8
0
 62
     0
100
AcDbLine
 10
46.50541625730875
 20
-311.4000000000014
 30
0.0
 11
187.3999999999904
 21
-217.4705173567254
 31
0.0
  0
LINE
  5
25F6
330
2BE3
100
AcDbEntity
  8
0
 62
     0
100
AcDbLine
 10
-140.9950625297461
 20
-436.3999999999996
 30
0.0
 11
46.50541625730875
 21
-311.4000000000014
 31
0.0
  0
LINE
  5
25F7
330
2BE3
100
AcDbEntity
  8
0
 62
     0
100
AcDbLine
 10
42.0054549634242
 20
-311.4000000000014
 30
0.0
 11
187.3999999999904
 21
-214.4705508213083
 31
0.0
  0
LINE
  5
25F8
330
2BE3
100
AcDbEntity
  8
0
 62
     0
100
AcDbLine
 10
-145.4950238236342
 20
-436.3999999999996
 30
0.0
 11
42.0054549634242
 21
-311.4000000000014
 31
0.0
  0
LINE
  5
25F9
330
2BE3
100
AcDbEntity
  8
0
 62
     0
100
AcDbLine
 10
37.50549366954145
 20
-311.3999999999978
 30
0.0
 11
187.3999999999884
 21
-211.470584285893
 31
0.0
  0
LINE
  5
25FA
330
2BE3
100
AcDbEntity
  8
0
 62
     0
100
AcDbLine
 10
-149.9949851175206
 20
-436.3999999999996
 30
0.0
 11
37.50549366954145
 21
-311.3999999999978
 31
0.0
  0
LINE
  5
25FB
330
2BE3
100
AcDbEntity
  8
0
 62
     0
100
AcDbLine
 10
33.00553237565328
 20
-311.4000000000014
 30
0.0
 11
187.3999999999904
 21
-208.4706177504759
 31
0.0
  0
LINE
  5
25FC
330
2BE3
100
AcDbEntity
  8
0
 62
     0
100
AcDbLine
 10
-154.4949464114033
 20
-436.3999999999996
 30
0.0
 11
33.00553237565328
 21
-311.4000000000014
 31
0.0
  0
LINE
  5
25FD
330
2BE3
100
AcDbEntity
  8
0
 62
     0
100
AcDbLine
 10
28.50557108176872
 20
-311.3999999999996
 30
0.0
 11
187.3999999999884
 21
-205.4706512150606
 31
0.0
  0
LINE
  5
25FE
330
2BE3
100
AcDbEntity
  8
0
 62
     0
100
AcDbLine
 10
-158.9949077052933
 20
-436.4000000000014
 30
0.0
 11
28.50557108176872
 21
-311.3999999999996
 31
0.0
  0
LINE
  5
25FF
330
2BE3
100
AcDbEntity
  8
0
 62
     0
100
AcDbLine
 10
24.00560978788235
 20
-311.4000000000014
 30
0.0
 11
187.3999999999904
 21
-202.4706846796453
 31
0.0
  0
LINE
  5
2600
330
2BE3
100
AcDbEntity
  8
0
 62
     0
100
AcDbLine
 10
-163.4948689991761
 20
-436.4000000000014
 30
0.0
 11
24.00560978788235
 21
-311.4000000000014
 31
0.0
  0
LINE
  5
2601
330
2BE3
100
AcDbEntity
  8
0
 62
     0
100
AcDbLine
 10
19.50564849399597
 20
-311.4000000000014
 30
0.0
 11
187.3999999999884
 21
-199.4707181442281
 31
0.0
  0
LINE
  5
2602
330
2BE3
100
AcDbEntity
  8
0
 62
     0
100
AcDbLine
 10
-167.9948302930625
 20
-436.3999999999996
 30
0.0
 11
19.50564849399597
 21
-311.4000000000014
 31
0.0
  0
LINE
  5
2603
330
2BE3
100
AcDbEntity
  8
0
 62
     0
100
AcDbLine
 10
15.00568720011142
 20
-311.3999999999996
 30
0.0
 11
187.3999999999904
 21
-196.470751608811
 31
0.0
  0
LINE
  5
2604
330
2BE3
100
AcDbEntity
  8
0
 62
     0
100
AcDbLine
 10
-172.4947915869452
 20
-436.3999999999976
 30
0.0
 11
15.00568720011142
 21
-311.3999999999996
 31
0.0
  0
LINE
  5
2605
330
2BE3
100
AcDbEntity
  8
0
 62
     0
100
AcDbLine
 10
10.50572590622687
 20
-311.3999999999996
 30
0.0
 11
187.3999999999884
 21
-193.4707850733957
 31
0.0
  0
LINE
  5
2606
330
2BE3
100
AcDbEntity
  8
0
 62
     0
100
AcDbLine
 10
-176.9947528808352
 20
-436.4000000000014
 30
0.0
 11
10.50572590622687
 21
-311.3999999999996
 31
0.0
  0
LINE
  5
2607
330
2BE3
100
AcDbEntity
  8
0
 62
     0
100
AcDbLine
 10
6.005764612340499
 20
-311.3999999999996
 30
0.0
 11
187.3999999999884
 21
-190.4708185379786
 31
0.0
  0
LINE
  5
2608
330
2BE3
100
AcDbEntity
  8
0
 62
     0
100
AcDbLine
 10
-181.4947141747198
 20
-436.3999999999996
 30
0.0
 11
6.005764612340499
 21
-311.3999999999996
 31
0.0
  0
LINE
  5
2609
330
2BE3
100
AcDbEntity
  8
0
 62
     0
100
AcDbLine
 10
1.505803318454127
 20
-311.4000000000014
 30
0.0
 11
187.3999999999884
 21
-187.4708520025651
 31
0.0
  0
LINE
  5
260A
330
2BE3
100
AcDbEntity
  8
0
 62
     0
100
AcDbLine
 10
-185.9946754686043
 20
-436.4000000000014
 30
0.0
 11
1.505803318454127
 21
-311.4000000000014
 31
0.0
  0
LINE
  5
260B
330
2BE3
100
AcDbEntity
  8
0
 62
     0
100
AcDbLine
 10
-2.994157975430423
 20
-311.3999999999996
 30
0.0
 11
187.3999999999884
 21
-184.4708854671461
 31
0.0
  0
LINE
  5
260C
330
2BE3
100
AcDbEntity
  8
0
 62
     0
100
AcDbLine
 10
-187.4000000000032
 20
-434.3369140931627
 30
0.0
 11
-2.994157975430423
 21
-311.3999999999996
 31
0.0
  0
LINE
  5
260D
330
2BE3
100
AcDbEntity
  8
0
 62
     0
100
AcDbLine
 10
-7.494119269314977
 20
-311.3999999999996
 30
0.0
 11
187.3999999999904
 21
-181.4709189317309
 31
0.0
  0
LINE
  5
260E
330
2BE3
100
AcDbEntity
  8
0
 62
     0
100
AcDbLine
 10
-187.4000000000032
 20
-431.3369475577473
 30
0.0
 11
-7.494119269314977
 21
-311.3999999999996
 31
0.0
  0
LINE
  5
260F
330
2BE3
100
AcDbEntity
  8
0
 62
     0
100
AcDbLine
 10
-11.99408056320135
 20
-311.3999999999996
 30
0.0
 11
187.3999999999884
 21
-178.4709523963138
 31
0.0
  0
LINE
  5
2610
330
2BE3
100
AcDbEntity
  8
0
 62
     0
100
AcDbLine
 10
-187.4000000000032
 20
-428.3369810223303
 30
0.0
 11
-11.99408056320135
 21
-311.3999999999996
 31
0.0
  0
LINE
  5
2611
330
2BE3
100
AcDbEntity
  8
0
 62
     0
100
AcDbLine
 10
-16.49404185708772
 20
-311.4000000000014
 30
0.0
 11
187.3999999999904
 21
-175.4709858608985
 31
0.0
  0
LINE
  5
2612
330
2BE3
100
AcDbEntity
  8
0
 62
     0
100
AcDbLine
 10
-187.4000000000014
 20
-425.3370144869132
 30
0.0
 11
-16.49404185708772
 21
-311.4000000000014
 31
0.0
  0
LINE
  5
2613
330
2BE3
100
AcDbEntity
  8
0
 62
     0
100
AcDbLine
 10
-20.99400315097228
 20
-311.3999999999996
 30
0.0
 11
187.3999999999884
 21
-172.4710193254832
 31
0.0
  0
LINE
  5
2614
330
2BE3
100
AcDbEntity
  8
0
 62
     0
100
AcDbLine
 10
-187.4000000000032
 20
-422.3370479514976
 30
0.0
 11
-20.99400315097228
 21
-311.3999999999996
 31
0.0
  0
LINE
  5
2615
330
2BE3
100
AcDbEntity
  8
0
 62
     0
100
AcDbLine
 10
-25.49396444485865
 20
-311.4000000000014
 30
0.0
 11
187.3999999999884
 21
-169.4710527900661
 31
0.0
  0
LINE
  5
2616
330
2BE3
100
AcDbEntity
  8
0
 62
     0
100
AcDbLine
 10
-187.4000000000032
 20
-419.3370814160807
 30
0.0
 11
-25.49396444485865
 21
-311.4000000000014
 31
0.0
  0
LINE
  5
2617
330
2BE3
100
AcDbEntity
  8
0
 62
     0
100
AcDbLine
 10
-28.40000000000511
 20
-310.3373855542596
 30
0.0
 11
187.3999999999884
 21
-166.4710862546508
 31
0.0
  0
LINE
  5
2618
330
2BE3
100
AcDbEntity
  8
0
 62
     0
100
AcDbLine
 10
-187.4000000000032
 20
-416.3371148806652
 30
0.0
 11
-28.40000000000511
 21
-310.3373855542596
 31
0.0
  0
LINE
  5
2619
330
2BE3
100
AcDbEntity
  8
0
 62
     0
100
AcDbLine
 10
-28.40000000000691
 20
-307.337419018846
 30
0.0
 11
187.3999999999884
 21
-163.4711197192337
 31
0.0
  0
LINE
  5
261A
330
2BE3
100
AcDbEntity
  8
0
 62
     0
100
AcDbLine
 10
-187.4000000000032
 20
-413.3371483452501
 30
0.0
 11
-28.40000000000691
 21
-307.337419018846
 31
0.0
  0
LINE
  5
261B
330
2BE3
100
AcDbEntity
  8
0
 62
     0
100
AcDbLine
 10
-28.40000000000691
 20
-304.3374524834289
 30
0.0
 11
187.3999999999869
 21
-160.4711531838184
 31
0.0
  0
LINE
  5
261C
330
2BE3
100
AcDbEntity
  8
0
 62
     0
100
AcDbLine
 10
-187.4000000000051
 20
-410.3371818098328
 30
0.0
 11
-28.40000000000691
 21
-304.3374524834289
 31
0.0
  0
LINE
  5
261D
330
2BE3
100
AcDbEntity
  8
0
 62
     0
100
AcDbLine
 10
-28.40000000000511
 20
-301.33748594801
 30
0.0
 11
187.3999999999884
 21
-157.4711866484013
 31
0.0
  0
LINE
  5
261E
330
2BE3
100
AcDbEntity
  8
0
 62
     0
100
AcDbLine
 10
-187.4000000000032
 20
-407.337215274416
 30
0.0
 11
-28.40000000000511
 21
-301.33748594801
 31
0.0
  0
LINE
  5
261F
330
2BE3
100
AcDbEntity
  8
0
 62
     0
100
AcDbLine
 10
-28.40000000000511
 20
-298.3375194125965
 30
0.0
 11
187.3999999999884
 21
-154.4712201129859
 31
0.0
  0
LINE
  5
2620
330
2BE3
100
AcDbEntity
  8
0
 62
     0
100
AcDbLine
 10
-187.3999999999996
 20
-404.3372487389986
 30
0.0
 11
-28.40000000000511
 21
-298.3375194125965
 31
0.0
  0
LINE
  5
2621
330
2BE3
100
AcDbEntity
  8
0
 62
     0
100
AcDbLine
 10
-28.40000000000691
 20
-295.3375528771792
 30
0.0
 11
187.3999999999884
 21
-151.4712535775688
 31
0.0
  0
LINE
  5
2622
330
2BE3
100
AcDbEntity
  8
0
 62
     0
100
AcDbLine
 10
-187.4000000000032
 20
-401.3372822035835
 30
0.0
 11
-28.40000000000691
 21
-295.3375528771792
 31
0.0
  0
LINE
  5
2623
330
2BE3
100
AcDbEntity
  8
0
 62
     0
100
AcDbLine
 10
-28.40000000000691
 20
-292.3375863417641
 30
0.0
 11
187.3999999999904
 21
-148.4712870421517
 31
0.0
  0
LINE
  5
2624
330
2BE3
100
AcDbEntity
  8
0
 62
     0
100
AcDbLine
 10
-187.4000000000014
 20
-398.3373156681683
 30
0.0
 11
-28.40000000000691
 21
-292.3375863417641
 31
0.0
  0
LINE
  5
2625
330
2BE3
100
AcDbEntity
  8
0
 62
     0
100
AcDbLine
 10
-28.40000000000511
 20
-289.3376198063452
 30
0.0
 11
187.3999999999884
 21
-145.4713205067364
 31
0.0
  0
LINE
  5
2626
330
2BE3
100
AcDbEntity
  8
0
 62
     0
100
AcDbLine
 10
-187.4000000000032
 20
-395.3373491327512
 30
0.0
 11
-28.40000000000511
 21
-289.3376198063452
 31
0.0
  0
LINE
  5
2627
330
2BE3
100
AcDbEntity
  8
0
 62
     0
100
AcDbLine
 10
-28.40000000000691
 20
-286.3376532709317
 30
0.0
 11
187.3999999999884
 21
-142.4713539713193
 31
0.0
  0
LINE
  5
2628
330
2BE3
100
AcDbEntity
  8
0
 62
     0
100
AcDbLine
 10
-187.4000000000014
 20
-392.3373825973358
 30
0.0
 11
-28.40000000000691
 21
-286.3376532709317
 31
0.0
  0
LINE
  5
2629
330
2BE3
100
AcDbEntity
  8
0
 62
     0
100
AcDbLine
 10
-28.40000000000691
 20
-283.3376867355146
 30
0.0
 11
187.3999999999869
 21
-139.471387435904
 31
0.0
  0
LINE
  5
262A
330
2BE3
100
AcDbEntity
  8
0
 62
     0
100
AcDbLine
 10
-187.4000000000051
 20
-389.3374160619205
 30
0.0
 11
-28.40000000000691
 21
-283.3376867355146
 31
0.0
  0
LINE
  5
262B
330
2BE3
100
AcDbEntity
  8
0
 62
     0
100
AcDbLine
 10
-28.40000000000328
 20
-280.3377202000975
 30
0.0
 11
187.3999999999884
 21
-136.4714209004887
 31
0.0
  0
LINE
  5
262C
330
2BE3
100
AcDbEntity
  8
0
 62
     0
100
AcDbLine
 10
-187.4000000000014
 20
-386.3374495265034
 30
0.0
 11
-28.40000000000691
 21
-280.3377202000993
 31
0.0
  0
LINE
  5
262D
330
2BE3
100
AcDbEntity
  8
0
 62
     0
100
AcDbLine
 10
-28.40000000000691
 20
-277.3377536646822
 30
0.0
 11
187.3999999999869
 21
-133.4714543650716
 31
0.0
  0
LINE
  5
262E
330
2BE3
100
AcDbEntity
  8
0
 62
     0
100
AcDbLine
 10
-187.4000000000051
 20
-383.337482991088
 30
0.0
 11
-28.40000000000691
 21
-277.3377536646822
 31
0.0
  0
LINE
  5
262F
330
2BE3
100
AcDbEntity
  8
0
 62
     0
100
AcDbLine
 10
-28.40000000000328
 20
-274.3377871292651
 30
0.0
 11
187.3999999999884
 21
-130.4714878296563
 31
0.0
  0
LINE
  5
2630
330
2BE3
100
AcDbEntity
  8
0
 62
     0
100
AcDbLine
 10
-187.4000000000014
 20
-380.337516455671
 30
0.0
 11
-28.40000000000691
 21
-274.3377871292687
 31
0.0
  0
LINE
  5
2631
330
2BE3
100
AcDbEntity
  8
0
 62
     0
100
AcDbLine
 10
-28.40000000000691
 20
-271.3378205938497
 30
0.0
 11
187.3999999999904
 21
-127.4715212942374
 31
0.0
  0
LINE
  5
2632
330
2BE3
100
AcDbEntity
  8
0
 62
     0
100
AcDbLine
 10
-187.4000000000051
 20
-377.3375499202556
 30
0.0
 11
-28.40000000000691
 21
-271.3378205938497
 31
0.0
  0
LINE
  5
2633
330
2BE3
100
AcDbEntity
  8
0
 62
     0
100
AcDbLine
 10
-28.40000000000328
 20
-268.3378540584345
 30
0.0
 11
187.3999999999884
 21
-124.4715547588239
 31
0.0
  0
LINE
  5
2634
330
2BE3
100
AcDbEntity
  8
0
 62
     0
100
AcDbLine
 10
-187.4000000000014
 20
-374.3375833848386
 30
0.0
 11
-28.40000000000328
 21
-268.3378540584345
 31
0.0
  0
LINE
  5
2635
330
2BE3
100
AcDbEntity
  8
0
 62
     0
100
AcDbLine
 10
-28.40000000000691
 20
-265.3378875230174
 30
0.0
 11
187.3999999999904
 21
-121.4715882234068
 31
0.0
  0
LINE
  5
2636
330
2BE3
100
AcDbEntity
  8
0
 62
     0
100
AcDbLine
 10
-187.4000000000014
 20
-371.3376168494215
 30
0.0
 11
-28.40000000000691
 21
-265.3378875230174
 31
0.0
  0
LINE
  5
2637
330
2BE3
100
AcDbEntity
  8
0
 62
     0
100
AcDbLine
 10
-28.40000000000511
 20
-262.3379209876002
 30
0.0
 11
187.3999999999869
 21
-118.4716216879897
 31
0.0
  0
LINE
  5
2638
330
2BE3
100
AcDbEntity
  8
0
 62
     0
100
AcDbLine
 10
-187.4000000000032
 20
-368.3376503140063
 30
0.0
 11
-28.40000000000511
 21
-262.3379209876002
 31
0.0
  0
LINE
  5
2639
330
2BE3
100
AcDbEntity
  8
0
 62
     0
100
AcDbLine
 10
-28.40000000000691
 20
-259.3379544521849
 30
0.0
 11
184.2074745766567
 21
-117.6000000000022
 31
0.0
  0
LINE
  5
263A
330
2BE3
100
AcDbEntity
  8
0
 62
     0
100
AcDbLine
 10
-187.4000000000014
 20
-365.3376837785891
 30
0.0
 11
-28.40000000000691
 21
-259.3379544521849
 31
0.0
  0
LINE
  5
263B
330
2BE3
100
AcDbEntity
  8
0
 62
     0
100
AcDbLine
 10
-28.40000000000511
 20
-256.3379879167679
 30
0.0
 11
179.7075132827704
 21
-117.6000000000022
 31
0.0
  0
LINE
  5
263C
330
2BE3
100
AcDbEntity
  8
0
 62
     0
100
AcDbLine
 10
-187.4000000000032
 20
-362.3377172431738
 30
0.0
 11
-28.40000000000511
 21
-256.3379879167679
 31
0.0
  0
LINE
  5
263D
330
2BE3
100
AcDbEntity
  8
0
 62
     0
100
AcDbLine
 10
-28.40000000000873
 20
-253.3380213813543
 30
0.0
 11
175.2075519888822
 21
-117.6000000000022
 31
0.0
  0
LINE
  5
263E
330
2BE3
100
AcDbEntity
  8
0
 62
     0
100
AcDbLine
 10
-187.4000000000032
 20
-359.3377507077566
 30
0.0
 11
-28.40000000000873
 21
-253.3380213813543
 31
0.0
  0
LINE
  5
263F
330
2BE3
100
AcDbEntity
  8
0
 62
     0
100
AcDbLine
 10
-28.40000000000511
 20
-250.3380548459354
 30
0.0
 11
170.7075906949994
 21
-117.6000000000003
 31
0.0
  0
LINE
  5
2640
330
2BE3
100
AcDbEntity
  8
0
 62
     0
100
AcDbLine
 10
-187.4000000000068
 20
-356.3377841723432
 30
0.0
 11
-28.40000000000511
 21
-250.3380548459354
 31
0.0
  0
LINE
  5
2641
330
2BE3
100
AcDbEntity
  8
0
 62
     0
100
AcDbLine
 10
-28.40000000000328
 20
-247.3380883105201
 30
0.0
 11
166.2076294011149
 21
-117.6000000000022
 31
0.0
  0
LINE
  5
2642
330
2BE3
100
AcDbEntity
  8
0
 62
     0
100
AcDbLine
 10
-187.4000000000051
 20
-353.3378176369279
 30
0.0
 11
-28.40000000000328
 21
-247.3380883105201
 31
0.0
  0
LINE
  5
2643
330
2BE3
100
AcDbEntity
  8
0
 62
     0
100
AcDbLine
 10
-28.40000000000511
 20
-244.338121775103
 30
0.0
 11
161.7076681072285
 21
-117.6000000000022
 31
0.0
  0
LINE
  5
2644
330
2BE3
100
AcDbEntity
  8
0
 62
     0
100
AcDbLine
 10
-187.4000000000068
 20
-350.3378511015108
 30
0.0
 11
-28.40000000000511
 21
-244.338121775103
 31
0.0
  0
LINE
  5
2645
330
2BE3
100
AcDbEntity
  8
0
 62
     0
100
AcDbLine
 10
-28.40000000000511
 20
-241.3381552396877
 30
0.0
 11
157.2077068133438
 21
-117.6000000000022
 31
0.0
  0
LINE
  5
2646
330
2BE3
100
AcDbEntity
  8
0
 62
     0
100
AcDbLine
 10
-187.4000000000068
 20
-347.3378845660954
 30
0.0
 11
-28.40000000000511
 21
-241.3381552396877
 31
0.0
  0
LINE
  5
2647
330
2BE3
100
AcDbEntity
  8
0
 62
     0
100
AcDbLine
 10
-28.40000000000691
 20
-238.3381887042724
 30
0.0
 11
152.7077455194594
 21
-117.6000000000003
 31
0.0
  0
LINE
  5
2648
330
2BE3
100
AcDbEntity
  8
0
 62
     0
100
AcDbLine
 10
-187.4000000000032
 20
-344.3379180306765
 30
0.0
 11
-28.40000000000691
 21
-238.3381887042724
 31
0.0
  0
LINE
  5
2649
330
2BE3
100
AcDbEntity
  8
0
 62
     0
100
AcDbLine
 10
-28.40000000000511
 20
-235.3382221688553
 30
0.0
 11
148.2077842255712
 21
-117.6000000000022
 31
0.0
  0
LINE
  5
264A
330
2BE3
100
AcDbEntity
  8
0
 62
     0
100
AcDbLine
 10
-187.4000000000068
 20
-341.3379514952632
 30
0.0
 11
-28.40000000000511
 21
-235.3382221688553
 31
0.0
  0
LINE
  5
264B
330
2BE3
100
AcDbEntity
  8
0
 62
     0
100
AcDbLine
 10
-28.40000000000873
 20
-232.33825563344
 30
0.0
 11
143.7078229316848
 21
-117.6000000000022
 31
0.0
  0
LINE
  5
264C
330
2BE3
100
AcDbEntity
  8
0
 62
     0
100
AcDbLine
 10
-187.4000000000051
 20
-338.3379849598459
 30
0.0
 11
-28.40000000000873
 21
-232.33825563344
 31
0.0
  0
LINE
  5
264D
330
2BE3
100
AcDbEntity
  8
0
 62
     0
100
AcDbLine
 10
-28.40000000000511
 20
-229.3382890980229
 30
0.0
 11
139.2078616378021
 21
-117.6000000000022
 31
0.0
  0
LINE
  5
264E
330
2BE3
100
AcDbEntity
  8
0
 62
     0
100
AcDbLine
 10
-187.4000000000068
 20
-335.3380184244306
 30
0.0
 11
-28.40000000000511
 21
-229.3382890980229
 31
0.0
  0
LINE
  5
264F
330
2BE3
100
AcDbEntity
  8
0
 62
     0
100
AcDbLine
 10
-28.40000000000691
 20
-226.3383225626076
 30
0.0
 11
134.7079003439175
 21
-117.6000000000022
 31
0.0
  0
LINE
  5
2650
330
2BE3
100
AcDbEntity
  8
0
 62
     0
100
AcDbLine
 10
-187.4000000000032
 20
-332.3380518890135
 30
0.0
 11
-28.40000000000691
 21
-226.3383225626076
 31
0.0
  0
LINE
  5
2651
330
2BE3
100
AcDbEntity
  8
0
 62
     0
100
AcDbLine
 10
-28.40000000000511
 20
-223.3383560271923
 30
0.0
 11
130.2079390500294
 21
-117.6000000000022
 31
0.0
  0
LINE
  5
2652
330
2BE3
100
AcDbEntity
  8
0
 62
     0
100
AcDbLine
 10
-187.4000000000068
 20
-329.3380853536
 30
0.0
 11
-28.40000000000511
 21
-223.3383560271923
 31
0.0
  0
LINE
  5
2653
330
2BE3
100
AcDbEntity
  8
0
 62
     0
100
AcDbLine
 10
-28.40000000000873
 20
-220.3383894917751
 30
0.0
 11
125.707977756143
 21
-117.6000000000022
 31
0.0
  0
LINE
  5
2654
330
2BE3
100
AcDbEntity
  8
0
 62
     0
100
AcDbLine
 10
-187.4000000000051
 20
-326.3381188181811
 30
0.0
 11
-28.40000000000873
 21
-220.3383894917751
 31
0.0
  0
LINE
  5
2655
330
2BE3
100
AcDbEntity
  8
0
 62
     0
100
AcDbLine
 10
-28.40000000000511
 20
-217.3384229563581
 30
0.0
 11
121.2080164622602
 21
-117.6000000000003
 31
0.0
  0
LINE
  5
2656
330
2BE3
100
AcDbEntity
  8
0
 62
     0
100
AcDbLine
 10
-187.4000000000068
 20
-323.3381522827658
 30
0.0
 11
-28.40000000000511
 21
-217.3384229563581
 31
0.0
  0
LINE
  5
2657
330
2BE3
100
AcDbEntity
  8
0
 62
     0
100
AcDbLine
 10
-28.40000000000511
 20
-214.3384564209409
 30
0.0
 11
116.7080551683739
 21
-117.6000000000022
 31
0.0
  0
LINE
  5
2658
330
2BE3
100
AcDbEntity
  8
0
 62
     0
100
AcDbLine
 10
-187.4000000000051
 20
-320.3381857473487
 30
0.0
 11
-28.40000000000511
 21
-214.3384564209409
 31
0.0
  0
LINE
  5
2659
330
2BE3
100
AcDbEntity
  8
0
 62
     0
100
AcDbLine
 10
-28.40000000000691
 20
-211.3384898855256
 30
0.0
 11
112.2080938744857
 21
-117.6000000000022
 31
0.0
  0
LINE
  5
265A
330
2BE3
100
AcDbEntity
  8
0
 62
     0
100
AcDbLine
 10
-187.4000000000087
 20
-317.3382192119334
 30
0.0
 11
-28.40000000000691
 21
-211.3384898855256
 31
0.0
  0
LINE
  5
265B
330
2BE3
100
AcDbEntity
  8
0
 62
     0
100
AcDbLine
 10
-28.40000000000511
 20
-208.3385233501104
 30
0.0
 11
107.7081325806011
 21
-117.6000000000022
 31
0.0
  0
LINE
  5
265C
330
2BE3
100
AcDbEntity
  8
0
 62
     0
100
AcDbLine
 10
-187.4000000000051
 20
-314.3382526765163
 30
0.0
 11
-28.40000000000511
 21
-208.3385233501104
 31
0.0
  0
LINE
  5
265D
330
2BE3
100
AcDbEntity
  8
0
 62
     0
100
AcDbLine
 10
-28.40000000000511
 20
-205.3385568146932
 30
0.0
 11
103.2081712867184
 21
-117.6000000000003
 31
0.0
  0
LINE
  5
265E
330
2BE3
100
AcDbEntity
  8
0
 62
     0
100
AcDbLine
 10
-187.4000000000032
 20
-311.3382861410991
 30
0.0
 11
-28.40000000000511
 21
-205.3385568146932
 31
0.0
  0
LINE
  5
265F
330
2BE3
100
AcDbEntity
  8
0
 62
     0
100
AcDbLine
 10
-28.40000000000691
 20
-202.3385902792778
 30
0.0
 11
98.70820999283024
 21
-117.6000000000022
 31
0.0
  0
LINE
  5
2660
330
2BE3
100
AcDbEntity
  8
0
 62
     0
100
AcDbLine
 10
-187.4000000000087
 20
-308.3383196056857
 30
0.0
 11
-28.40000000000691
 21
-202.3385902792778
 31
0.0
  0
LINE
  5
2661
330
2BE3
100
AcDbEntity
  8
0
 62
     0
100
AcDbLine
 10
-28.40000000000691
 20
-199.3386237438608
 30
0.0
 11
94.20824869894387
 21
-117.6000000000022
 31
0.0
  0
LINE
  5
2662
330
2BE3
100
AcDbEntity
  8
0
 62
     0
100
AcDbLine
 10
-187.4000000000051
 20
-305.3383530702668
 30
0.0
 11
-28.40000000000691
 21
-199.3386237438608
 31
0.0
  0
LINE
  5
2663
330
2BE3
100
AcDbEntity
  8
0
 62
     0
100
AcDbLine
 10
-28.40000000000511
 20
-196.3386572084455
 30
0.0
 11
89.70828740506295
 21
-117.6000000000022
 31
0.0
  0
LINE
  5
2664
330
2BE3
100
AcDbEntity
  8
0
 62
     0
100
AcDbLine
 10
-187.4000000000068
 20
-302.3383865348533
 30
0.0
 11
-28.40000000000511
 21
-196.3386572084455
 31
0.0
  0
LINE
  5
2665
330
2BE3
100
AcDbEntity
  8
0
 62
     0
100
AcDbLine
 10
-28.40000000000511
 20
-193.3386906730266
 30
0.0
 11
85.20832611117475
 21
-117.6000000000003
 31
0.0
  0
LINE
  5
2666
330
2BE3
100
AcDbEntity
  8
0
 62
     0
100
AcDbLine
 10
-187.4000000000051
 20
-299.3384199994342
 30
0.0
 11
-28.40000000000511
 21
-193.3386906730266
 31
0.0
  0
LINE
  5
2667
330
2BE3
100
AcDbEntity
  8
0
 62
     0
100
AcDbLine
 10
-28.40000000000691
 20
-190.3387241376131
 30
0.0
 11
80.70836481728838
 21
-117.6000000000022
 31
0.0
  0
LINE
  5
2668
330
2BE3
100
AcDbEntity
  8
0
 62
     0
100
AcDbLine
 10
-187.4000000000087
 20
-296.3384534640209
 30
0.0
 11
-28.40000000000691
 21
-190.3387241376131
 31
0.0
  0
LINE
  5
2669
330
2BE3
100
AcDbEntity
  8
0
 62
     0
100
AcDbLine
 10
-28.40000000000511
 20
-187.338757602196
 30
0.0
 11
76.20840352340201
 21
-117.6000000000022
 31
0.0
  0
LINE
  5
266A
330
2BE3
100
AcDbEntity
  8
0
 62
     0
100
AcDbLine
 10
-187.4000000000051
 20
-293.3384869286038
 30
0.0
 11
-28.40000000000511
 21
-187.338757602196
 31
0.0
  0
LINE
  5
266B
330
2BE3
100
AcDbEntity
  8
0
 62
     0
100
AcDbLine
 10
-28.40000000000691
 20
-184.3387910667807
 30
0.0
 11
71.70844222951926
 21
-117.6000000000022
 31
0.0
  0
LINE
  5
266C
330
2BE3
100
AcDbEntity
  8
0
 62
     0
100
AcDbLine
 10
-187.4000000000087
 20
-290.3385203931884
 30
0.0
 11
-28.40000000000691
 21
-184.3387910667807
 31
0.0
  0
LINE
  5
266D
330
2BE3
100
AcDbEntity
  8
0
 62
     0
100
AcDbLine
 10
-28.40000000000691
 20
-181.3388245313636
 30
0.0
 11
67.20848093562927
 21
-117.600000000004
 31
0.0
  0
LINE
  5
266E
330
2BE3
100
AcDbEntity
  8
0
 62
     0
100
AcDbLine
 10
-187.4000000000068
 20
-287.3385538577713
 30
0.0
 11
-28.40000000000691
 21
-181.3388245313636
 31
0.0
  0
LINE
  5
266F
330
2BE3
100
AcDbEntity
  8
0
 62
     0
100
AcDbLine
 10
-28.40000000000691
 20
-178.3388579959483
 30
0.0
 11
62.70851964174653
 21
-117.6000000000003
 31
0.0
  0
LINE
  5
2670
330
2BE3
100
AcDbEntity
  8
0
 62
     0
100
AcDbLine
 10
-187.4000000000087
 20
-284.3385873223542
 30
0.0
 11
-28.40000000000691
 21
-178.3388579959483
 31
0.0
  0
LINE
  5
2671
330
2BE3
100
AcDbEntity
  8
0
 62
     0
100
AcDbLine
 10
-28.40000000000511
 20
-175.338891460531
 30
0.0
 11
58.20855834786016
 21
-117.6000000000022
 31
0.0
  0
LINE
  5
2672
330
2BE3
100
AcDbEntity
  8
0
 62
     0
100
AcDbLine
 10
-187.4000000000051
 20
-281.3386207869389
 30
0.0
 11
-28.40000000000511
 21
-175.338891460531
 31
0.0
  0
LINE
  5
2673
330
2BE3
100
AcDbEntity
  8
0
 62
     0
100
AcDbLine
 10
-28.40000000000691
 20
-172.3389249251158
 30
0.0
 11
53.70859705397744
 21
-117.6000000000003
 31
0.0
  0
LINE
  5
2674
330
2BE3
100
AcDbEntity
  8
0
 62
     0
100
AcDbLine
 10
-187.4000000000051
 20
-278.3386542515218
 30
0.0
 11
-28.40000000000691
 21
-172.3389249251158
 31
0.0
  0
LINE
  5
2675
330
2BE3
100
AcDbEntity
  8
0
 62
     0
100
AcDbLine
 10
-28.40000000000691
 20
-169.3389583896987
 30
0.0
 11
49.20863576008922
 21
-117.6000000000022
 31
0.0
  0
LINE
  5
2676
330
2BE3
100
AcDbEntity
  8
0
 62
     0
100
AcDbLine
 10
-187.4000000000068
 20
-275.3386877161065
 30
0.0
 11
-28.40000000000691
 21
-169.3389583896987
 31
0.0
  0
LINE
  5
2677
330
2BE3
100
AcDbEntity
  8
0
 62
     0
100
AcDbLine
 10
-28.40000000000691
 20
-166.3389918542834
 30
0.0
 11
44.70867446620468
 21
-117.6000000000022
 31
0.0
  0
LINE
  5
2678
330
2BE3
100
AcDbEntity
  8
0
 62
     0
100
AcDbLine
 10
-187.4000000000051
 20
-272.3387211806894
 30
0.0
 11
-28.40000000000691
 21
-166.3389918542834
 31
0.0
  0
LINE
  5
2679
330
2BE3
100
AcDbEntity
  8
0
 62
     0
100
AcDbLine
 10
-28.40000000000691
 20
-163.3390253188663
 30
0.0
 11
40.20871317231649
 21
-117.600000000004
 31
0.0
  0
LINE
  5
267A
330
2BE3
100
AcDbEntity
  8
0
 62
     0
100
AcDbLine
 10
-187.4000000000068
 20
-269.3387546452741
 30
0.0
 11
-28.40000000000691
 21
-163.3390253188663
 31
0.0
  0
LINE
  5
267B
330
2BE3
100
AcDbEntity
  8
0
 62
     0
100
AcDbLine
 10
-28.40000000000511
 20
-160.3390587834492
 30
0.0
 11
35.70875187843376
 21
-117.6000000000003
 31
0.0
  0
LINE
  5
267C
330
2BE3
100
AcDbEntity
  8
0
 62
     0
100
AcDbLine
 10
-187.4000000000068
 20
-266.338788109857
 30
0.0
 11
-28.40000000000511
 21
-160.3390587834492
 31
0.0
  0
LINE
  5
267D
330
2BE3
100
AcDbEntity
  8
0
 62
     0
100
AcDbLine
 10
-28.40000000000691
 20
-157.3390922480357
 30
0.0
 11
31.20879058454557
 21
-117.600000000004
 31
0.0
  0
LINE
  5
267E
330
2BE3
100
AcDbEntity
  8
0
 62
     0
100
AcDbLine
 10
-187.4000000000068
 20
-263.3388215744435
 30
0.0
 11
-28.40000000000691
 21
-157.3390922480357
 31
0.0
  0
LINE
  5
267F
330
2BE3
100
AcDbEntity
  8
0
 62
     0
100
AcDbLine
 10
-28.40000000000328
 20
-154.3391257126168
 30
0.0
 11
26.70882929066284
 21
-117.6000000000022
 31
0.0
  0
LINE
  5
2680
330
2BE3
100
AcDbEntity
  8
0
 62
     0
100
AcDbLine
 10
-187.4000000000051
 20
-260.3388550390246
 30
0.0
 11
-28.40000000000328
 21
-154.3391257126168
 31
0.0
  0
LINE
  5
2681
330
2BE3
100
AcDbEntity
  8
0
 62
     0
100
AcDbLine
 10
-28.40000000000873
 20
-151.3391591772033
 30
0.0
 11
22.20886799677282
 21
-117.600000000004
 31
0.0
  0
LINE
  5
2682
330
2BE3
100
AcDbEntity
  8
0
 62
     0
100
AcDbLine
 10
-187.4000000000068
 20
-257.3388885036093
 30
0.0
 11
-28.40000000000873
 21
-151.3391591772033
 31
0.0
  0
LINE
  5
2683
330
2BE3
100
AcDbEntity
  8
0
 62
     0
100
AcDbLine
 10
-28.40000000000511
 20
-148.3391926417844
 30
0.0
 11
17.7089067028919
 21
-117.6000000000003
 31
0.0
  0
LINE
  5
2684
330
2BE3
100
AcDbEntity
  8
0
 62
     0
100
AcDbLine
 10
-187.4000000000068
 20
-254.3389219681921
 30
0.0
 11
-28.40000000000511
 21
-148.3391926417844
 31
0.0
  0
LINE
  5
2685
330
2BE3
100
AcDbEntity
  8
0
 62
     0
100
AcDbLine
 10
-28.40000000000691
 20
-145.3392261063708
 30
0.0
 11
13.20894540900553
 21
-117.6000000000022
 31
0.0
  0
LINE
  5
2686
330
2BE3
100
AcDbEntity
  8
0
 62
     0
100
AcDbLine
 10
-187.4000000000051
 20
-251.3389554327769
 30
0.0
 11
-28.40000000000691
 21
-145.3392261063708
 31
0.0
  0
LINE
  5
2687
330
2BE3
100
AcDbEntity
  8
0
 62
     0
100
AcDbLine
 10
-28.40000000000511
 20
-142.3392595709538
 30
0.0
 11
8.708984115119163
 21
-117.6000000000022
 31
0.0
  0
LINE
  5
2688
330
2BE3
100
AcDbEntity
  8
0
 62
     0
100
AcDbLine
 10
-187.4000000000068
 20
-248.3389888973615
 30
0.0
 11
-28.40000000000511
 21
-142.3392595709538
 31
0.0
  0
LINE
  5
2689
330
2BE3
100
AcDbEntity
  8
0
 62
     0
100
AcDbLine
 10
-28.40000000000511
 20
-139.3392930355348
 30
0.0
 11
4.209022821234611
 21
-117.6000000000003
 31
0.0
  0
LINE
  5
268A
330
2BE3
100
AcDbEntity
  8
0
 62
     0
100
AcDbLine
 10
-187.4000000000068
 20
-245.3390223619426
 30
0.0
 11
-28.40000000000511
 21
-139.3392930355348
 31
0.0
  0
LINE
  5
268B
330
2BE3
100
AcDbEntity
  8
0
 62
     0
100
AcDbLine
 10
-28.40000000000511
 20
-136.3393265001214
 30
0.0
 11
-0.2909384726535791
 21
-117.600000000004
 31
0.0
  0
LINE
  5
268C
330
2BE3
100
AcDbEntity
  8
0
 62
     0
100
AcDbLine
 10
-187.4000000000068
 20
-242.3390558265292
 30
0.0
 11
-28.40000000000511
 21
-136.3393265001214
 31
0.0
  0
LINE
  5
268D
330
2BE3
100
AcDbEntity
  8
0
 62
     0
100
AcDbLine
 10
-28.40000000000511
 20
-133.3393599647024
 30
0.0
 11
-4.790899766538132
 21
-117.6000000000003
 31
0.0
  0
LINE
  5
268E
330
2BE3
100
AcDbEntity
  8
0
 62
     0
100
AcDbLine
 10
-187.4000000000068
 20
-239.3390892911102
 30
0.0
 11
-28.40000000000511
 21
-133.3393599647024
 31
0.0
  0
LINE
  5
268F
330
2BE3
100
AcDbEntity
  8
0
 62
     0
100
AcDbLine
 10
-28.40000000000691
 20
-130.3393934292889
 30
0.0
 11
-9.290861060424504
 21
-117.6000000000022
 31
0.0
  0
LINE
  5
2690
330
2BE3
100
AcDbEntity
  8
0
 62
     0
100
AcDbLine
 10
-187.4000000000087
 20
-236.3391227556967
 30
0.0
 11
-28.40000000000691
 21
-130.3393934292889
 31
0.0
  0
LINE
  5
2691
330
2BE3
100
AcDbEntity
  8
0
 62
     0
100
AcDbLine
 10
-28.40000000000511
 20
-127.3394268938718
 30
0.0
 11
-13.79082235430724
 21
-117.6000000000003
 31
0.0
  0
LINE
  5
2692
330
2BE3
100
AcDbEntity
  8
0
 62
     0
100
AcDbLine
 10
-187.4000000000068
 20
-233.3391562202796
 30
0.0
 11
-28.40000000000511
 21
-127.3394268938718
 31
0.0
  0
LINE
  5
2693
330
2BE3
100
AcDbEntity
  8
0
 62
     0
100
AcDbLine
 10
-28.40000000000511
 20
-124.3394603584565
 30
0.0
 11
-18.2907836481954
 21
-117.600000000004
 31
0.0
  0
LINE
  5
2694
330
2BE3
100
AcDbEntity
  8
0
 62
     0
100
AcDbLine
 10
-187.4000000000068
 20
-230.3391896848643
 30
0.0
 11
-28.40000000000511
 21
-124.3394603584565
 31
0.0
  0
LINE
  5
2695
330
2BE3
100
AcDbEntity
  8
0
 62
     0
100
AcDbLine
 10
-28.40000000000511
 20
-121.3394938230394
 30
0.0
 11
-22.79074494207998
 21
-117.6000000000022
 31
0.0
  0
LINE
  5
2696
330
2BE3
100
AcDbEntity
  8
0
 62
     0
100
AcDbLine
 10
-187.4000000000068
 20
-227.3392231494472
 30
0.0
 11
-28.40000000000511
 21
-121.3394938230394
 31
0.0
  0
LINE
  5
2697
330
2BE3
100
AcDbEntity
  8
0
 62
     0
100
AcDbLine
 10
-28.40000000000873
 20
-118.3395272876241
 30
0.0
 11
-27.29070623596636
 21
-117.600000000004
 31
0.0
  0
LINE
  5
2698
330
2BE3
100
AcDbEntity
  8
0
 62
     0
100
AcDbLine
 10
-187.4000000000051
 20
-224.33925661403
 30
0.0
 11
-28.40000000000873
 21
-118.3395272876241
 31
0.0
  0
LINE
  5
2699
330
2BE3
100
AcDbEntity
  8
0
 62
     0
100
AcDbLine
 10
-187.4000000000068
 20
-221.3392900786148
 30
0.0
 11
-31.79066752985091
 21
-117.6000000000022
 31
0.0
  0
LINE
  5
269A
330
2BE3
100
AcDbEntity
  8
0
 62
     0
100
AcDbLine
 10
-187.4000000000051
 20
-218.3393235431977
 30
0.0
 11
-36.29062882373546
 21
-117.6000000000022
 31
0.0
  0
LINE
  5
269B
330
2BE3
100
AcDbEntity
  8
0
 62
     0
100
AcDbLine
 10
-187.4000000000087
 20
-215.3393570077824
 30
0.0
 11
-40.79059011762365
 21
-117.6000000000022
 31
0.0
  0
LINE
  5
269C
330
2BE3
100
AcDbEntity
  8
0
 62
     0
100
AcDbLine
 10
-187.4000000000051
 20
-212.3393904723672
 30
0.0
 11
-45.2905514115082
 21
-117.600000000004
 31
0.0
  0
LINE
  5
269D
330
2BE3
100
AcDbEntity
  8
0
 62
     0
100
AcDbLine
 10
-187.4000000000068
 20
-209.33942393695
 30
0.0
 11
-49.79051270539276
 21
-117.600000000004
 31
0.0
  0
LINE
  5
269E
330
2BE3
100
AcDbEntity
  8
0
 62
     0
100
AcDbLine
 10
-187.4000000000051
 20
-206.3394574015329
 30
0.0
 11
-54.29047399927732
 21
-117.6000000000003
 31
0.0
  0
LINE
  5
269F
330
2BE3
100
AcDbEntity
  8
0
 62
     0
100
AcDbLine
 10
-187.4000000000087
 20
-203.3394908661194
 30
0.0
 11
-58.79043529316368
 21
-117.6000000000022
 31
0.0
  0
LINE
  5
26A0
330
2BE3
100
AcDbEntity
  8
0
 62
     0
100
AcDbLine
 10
-187.4000000000051
 20
-200.3395243307005
 30
0.0
 11
-63.2903965870464
 21
-117.6000000000003
 31
0.0
  0
LINE
  5
26A1
330
2BE3
100
AcDbEntity
  8
0
 62
     0
100
AcDbLine
 10
-187.4000000000087
 20
-197.3395577952869
 30
0.0
 11
-67.79035788093643
 21
-117.600000000004
 31
0.0
  0
LINE
  5
26A2
330
2BE3
100
AcDbEntity
  8
0
 62
     0
100
AcDbLine
 10
-187.4000000000105
 20
-194.3395912598695
 30
0.0
 11
-72.29031917482098
 21
-117.6000000000022
 31
0.0
  0
LINE
  5
26A3
330
2BE3
100
AcDbEntity
  8
0
 62
     0
100
AcDbLine
 10
-187.4000000000087
 20
-191.3396247244545
 30
0.0
 11
-76.79028046870555
 21
-117.6000000000022
 31
0.0
  0
LINE
  5
26A4
330
2BE3
100
AcDbEntity
  8
0
 62
     0
100
AcDbLine
 10
-187.4000000000087
 20
-188.3396581890392
 30
0.0
 11
-81.29024176259191
 21
-117.6000000000022
 31
0.0
  0
LINE
  5
26A5
330
2BE3
100
AcDbEntity
  8
0
 62
     0
100
AcDbLine
 10
-187.4000000000105
 20
-185.3396916536221
 30
0.0
 11
-85.79020305648009
 21
-117.600000000004
 31
0.0
  0
LINE
  5
26A6
330
2BE3
100
AcDbEntity
  8
0
 62
     0
100
AcDbLine
 10
-187.4000000000105
 20
-182.3397251182068
 30
0.0
 11
-90.29016435036281
 21
-117.6000000000022
 31
0.0
  0
LINE
  5
26A7
330
2BE3
100
AcDbEntity
  8
0
 62
     0
100
AcDbLine
 10
-187.4000000000087
 20
-179.3397585827897
 30
0.0
 11
-94.79012564424738
 21
-117.600000000004
 31
0.0
  0
LINE
  5
26A8
330
2BE3
100
AcDbEntity
  8
0
 62
     0
100
AcDbLine
 10
-187.4000000000105
 20
-176.3397920473744
 30
0.0
 11
-99.29008693813557
 21
-117.6000000000022
 31
0.0
  0
LINE
  5
26A9
330
2BE3
100
AcDbEntity
  8
0
 62
     0
100
AcDbLine
 10
-187.4000000000105
 20
-173.3398255119591
 30
0.0
 11
-103.7900482320201
 21
-117.6000000000022
 31
0.0
  0
LINE
  5
26AA
330
2BE3
100
AcDbEntity
  8
0
 62
     0
100
AcDbLine
 10
-187.4000000000105
 20
-170.339858976542
 30
0.0
 11
-108.2900095259047
 21
-117.6000000000022
 31
0.0
  0
LINE
  5
26AB
330
2BE3
100
AcDbEntity
  8
0
 62
     0
100
AcDbLine
 10
-187.4000000000105
 20
-167.3398924411249
 30
0.0
 11
-112.7899708197892
 21
-117.6000000000003
 31
0.0
  0
LINE
  5
26AC
330
2BE3
100
AcDbEntity
  8
0
 62
     0
100
AcDbLine
 10
-187.4000000000105
 20
-164.3399259057078
 30
0.0
 11
-117.2899321136792
 21
-117.600000000004
 31
0.0
  0
LINE
  5
26AD
330
2BE3
100
AcDbEntity
  8
0
 62
     0
100
AcDbLine
 10
-187.4000000000105
 20
-161.3399593702924
 30
0.0
 11
-121.7898934075601
 21
-117.6000000000003
 31
0.0
  0
LINE
  5
26AE
330
2BE3
100
AcDbEntity
  8
0
 62
     0
100
AcDbLine
 10
-187.4000000000087
 20
-158.3399928348772
 30
0.0
 11
-126.2898547014465
 21
-117.6000000000022
 31
0.0
  0
LINE
  5
26AF
330
2BE3
100
AcDbEntity
  8
0
 62
     0
100
AcDbLine
 10
-187.4000000000105
 20
-155.3400262994601
 30
0.0
 11
-130.7898159953329
 21
-117.6000000000022
 31
0.0
  0
LINE
  5
26B0
330
2BE3
100
AcDbEntity
  8
0
 62
     0
100
AcDbLine
 10
-187.4000000000105
 20
-152.3400597640448
 30
0.0
 11
-135.289777289221
 21
-117.600000000004
 31
0.0
  0
LINE
  5
26B1
330
2BE3
100
AcDbEntity
  8
0
 62
     0
100
AcDbLine
 10
-187.4000000000105
 20
-149.3400932286276
 30
0.0
 11
-139.789738583102
 21
-117.6000000000022
 31
0.0
  0
LINE
  5
26B2
330
2BE3
100
AcDbEntity
  8
0
 62
     0
100
AcDbLine
 10
-187.4000000000105
 20
-146.3401266932123
 30
0.0
 11
-144.2896998769902
 21
-117.6000000000022
 31
0.0
  0
LINE
  5
26B3
330
2BE3
100
AcDbEntity
  8
0
 62
     0
100
AcDbLine
 10
-187.4000000000124
 20
-143.340160157797
 30
0.0
 11
-148.7896611708765
 21
-117.6000000000022
 31
0.0
  0
LINE
  5
26B4
330
2BE3
100
AcDbEntity
  8
0
 62
     0
100
AcDbLine
 10
-187.4000000000105
 20
-140.3401936223799
 30
0.0
 11
-153.2896224647629
 21
-117.600000000004
 31
0.0
  0
LINE
  5
26B5
330
2BE3
100
AcDbEntity
  8
0
 62
     0
100
AcDbLine
 10
-187.4000000000105
 20
-137.3402270869646
 30
0.0
 11
-157.7895837586438
 21
-117.6000000000022
 31
0.0
  0
LINE
  5
26B6
330
2BE3
100
AcDbEntity
  8
0
 62
     0
100
AcDbLine
 10
-187.4000000000124
 20
-134.3402605515475
 30
0.0
 11
-162.2895450525339
 21
-117.600000000004
 31
0.0
  0
LINE
  5
26B7
330
2BE3
100
AcDbEntity
  8
0
 62
     0
100
AcDbLine
 10
-187.4000000000087
 20
-131.3402940161304
 30
0.0
 11
-166.7895063464184
 21
-117.6000000000022
 31
0.0
  0
LINE
  5
26B8
330
2BE3
100
AcDbEntity
  8
0
 62
     0
100
AcDbLine
 10
-187.4000000000105
 20
-128.3403274807151
 30
0.0
 11
-171.2894676403011
 21
-117.6000000000003
 31
0.0
  0
LINE
  5
26B9
330
2BE3
100
AcDbEntity
  8
0
 62
     0
100
AcDbLine
 10
-187.4000000000087
 20
-125.340360945298
 30
0.0
 11
-175.7894289341875
 21
-117.6000000000022
 31
0.0
  0
LINE
  5
26BA
330
2BE3
100
AcDbEntity
  8
0
 62
     0
100
AcDbLine
 10
-187.4000000000124
 20
-122.3403944098827
 30
0.0
 11
-180.2893902280757
 21
-117.6000000000022
 31
0.0
  0
LINE
  5
26BB
330
2BE3
100
AcDbEntity
  8
0
 62
     0
100
AcDbLine
 10
-187.4000000000087
 20
-119.3404278744656
 30
0.0
 11
-184.7893515219602
 21
-117.600000000004
 31
0.0
  0
ENDBLK
  5
26BC
330
2BE3
100
AcDbEntity
  8
0
100
AcDbBlockEnd
  0
BLOCK
  5
2BE6
330
2BE5
100
AcDbEntity
  8
0
100
AcDbBlockBegin
  2
*X77
 70
     1
 10
0.0
 20
0.0
 30
0.0
  3
*X77
  1

  0
LINE
  5
26BF
330
2BE5
100
AcDbEntity
  8
0
 62
     0
100
AcDbLine
 10
-187.399999999996
 20
-434.6143463832568
 30
0.0
 11
-184.7215127352992
 21
-436.3999999999996
 31
0.0
  0
LINE
  5
26C0
330
2BE5
100
AcDbEntity
  8
0
 62
     0
100
AcDbLine
 10
-187.399999999996
 20
-431.6143798478396
 30
0.0
 11
-180.2215514414147
 21
-436.3999999999976
 31
0.0
  0
LINE
  5
26C1
330
2BE5
100
AcDbEntity
  8
0
 62
     0
100
AcDbLine
 10
-187.399999999996
 20
-428.6144133124223
 30
0.0
 11
-175.7215901475301
 21
-436.3999999999967
 31
0.0
  0
LINE
  5
26C2
330
2BE5
100
AcDbEntity
  8
0
 62
     0
100
AcDbLine
 10
-187.399999999996
 20
-425.6144467770072
 30
0.0
 11
-171.2216288536419
 21
-436.3999999999988
 31
0.0
  0
LINE
  5
26C3
330
2BE5
100
AcDbEntity
  8
0
 62
     0
100
AcDbLine
 10
-187.399999999996
 20
-422.6144802415898
 30
0.0
 11
-166.7216675597556
 21
-436.3999999999988
 31
0.0
  0
LINE
  5
26C4
330
2BE5
100
AcDbEntity
  8
0
 62
     0
100
AcDbLine
 10
-187.399999999996
 20
-419.6145137061757
 30
0.0
 11
-162.2217062658728
 21
-436.3999999999976
 31
0.0
  0
LINE
  5
26C5
330
2BE5
100
AcDbEntity
  8
0
 62
     0
100
AcDbLine
 10
-187.399999999996
 20
-416.6145471707578
 30
0.0
 11
-157.7217449719864
 21
-436.3999999999976
 31
0.0
  0
LINE
  5
26C6
330
2BE5
100
AcDbEntity
  8
0
 62
     0
100
AcDbLine
 10
-187.399999999996
 20
-413.6145806353423
 30
0.0
 11
-153.2217836780983
 21
-436.3999999999988
 31
0.0
  0
LINE
  5
26C7
330
2BE5
100
AcDbEntity
  8
0
 62
     0
100
AcDbLine
 10
-187.399999999996
 20
-410.6146140999252
 30
0.0
 11
-148.7218223842137
 21
-436.3999999999988
 31
0.0
  0
LINE
  5
26C8
330
2BE5
100
AcDbEntity
  8
0
 62
     0
100
AcDbLine
 10
-187.399999999996
 20
-407.6146475645106
 30
0.0
 11
-144.221861090331
 21
-436.3999999999976
 31
0.0
  0
LINE
  5
26C9
330
2BE5
100
AcDbEntity
  8
0
 62
     0
100
AcDbLine
 10
-187.399999999996
 20
-404.6146810290937
 30
0.0
 11
-139.7218997964446
 21
-436.3999999999976
 31
0.0
  0
LINE
  5
26CA
330
2BE5
100
AcDbEntity
  8
0
 62
     0
100
AcDbLine
 10
-187.3999999999942
 20
-401.6147144936785
 30
0.0
 11
-135.2219385025564
 21
-436.3999999999996
 31
0.0
  0
LINE
  5
26CB
330
2BE5
100
AcDbEntity
  8
0
 62
     0
100
AcDbLine
 10
-187.399999999996
 20
-398.6147479582612
 30
0.0
 11
-130.7219772086755
 21
-436.3999999999967
 31
0.0
  0
LINE
  5
26CC
330
2BE5
100
AcDbEntity
  8
0
 62
     0
100
AcDbLine
 10
-187.399999999996
 20
-395.6147814228452
 30
0.0
 11
-126.2220159147873
 21
-436.3999999999988
 31
0.0
  0
LINE
  5
26CD
330
2BE5
100
AcDbEntity
  8
0
 62
     0
100
AcDbLine
 10
-187.3999999999942
 20
-392.6148148874298
 30
0.0
 11
-121.7220546209009
 21
-436.3999999999976
 31
0.0
  0
LINE
  5
26CE
330
2BE5
100
AcDbEntity
  8
0
 62
     0
100
AcDbLine
 10
-187.399999999996
 20
-389.6148483520119
 30
0.0
 11
-117.2220933270164
 21
-436.3999999999976
 31
0.0
  0
LINE
  5
26CF
330
2BE5
100
AcDbEntity
  8
0
 62
     0
100
AcDbLine
 10
-187.3999999999977
 20
-386.6148818165966
 30
0.0
 11
-112.7221320331337
 21
-436.3999999999976
 31
0.0
  0
LINE
  5
26D0
330
2BE5
100
AcDbEntity
  8
0
 62
     0
100
AcDbLine
 10
-187.3999999999942
 20
-383.6149152811795
 30
0.0
 11
-108.2221707392436
 21
-436.3999999999967
 31
0.0
  0
LINE
  5
26D1
330
2BE5
100
AcDbEntity
  8
0
 62
     0
100
AcDbLine
 10
-187.399999999996
 20
-380.6149487457641
 30
0.0
 11
-103.7222094453591
 21
-436.3999999999988
 31
0.0
  0
LINE
  5
26D2
330
2BE5
100
AcDbEntity
  8
0
 62
     0
100
AcDbLine
 10
-187.399999999996
 20
-377.6149822103471
 30
0.0
 11
-99.22224815147458
 21
-436.3999999999988
 31
0.0
  0
LINE
  5
26D3
330
2BE5
100
AcDbEntity
  8
0
 62
     0
100
AcDbLine
 10
-187.399999999996
 20
-374.6150156749328
 30
0.0
 11
-94.72228685759001
 21
-436.3999999999976
 31
0.0
  0
LINE
  5
26D4
330
2BE5
100
AcDbEntity
  8
0
 62
     0
100
AcDbLine
 10
-187.3999999999942
 20
-371.6150491395156
 30
0.0
 11
-90.2223255637018
 21
-436.3999999999976
 31
0.0
  0
LINE
  5
26D5
330
2BE5
100
AcDbEntity
  8
0
 62
     0
100
AcDbLine
 10
-187.3999999999977
 20
-368.6150826040994
 30
0.0
 11
-85.72236426981726
 21
-436.3999999999988
 31
0.0
  0
LINE
  5
26D6
330
2BE5
100
AcDbEntity
  8
0
 62
     0
100
AcDbLine
 10
-187.3999999999942
 20
-365.6151160686832
 30
0.0
 11
-81.22240297593268
 21
-436.3999999999967
 31
0.0
  0
LINE
  5
26D7
330
2BE5
100
AcDbEntity
  8
0
 62
     0
100
AcDbLine
 10
-187.399999999996
 20
-362.6151495332671
 30
0.0
 11
-76.72244168204635
 21
-436.3999999999976
 31
0.0
  0
LINE
  5
26D8
330
2BE5
100
AcDbEntity
  8
0
 62
     0
100
AcDbLine
 10
-187.399999999996
 20
-359.6151829978508
 30
0.0
 11
-72.22248038815997
 21
-436.3999999999976
 31
0.0
  0
LINE
  5
26D9
330
2BE5
100
AcDbEntity
  8
0
 62
     0
100
AcDbLine
 10
-187.3999999999996
 20
-356.6152164624337
 30
0.0
 11
-67.72251909427541
 21
-436.3999999999996
 31
0.0
  0
LINE
  5
26DA
330
2BE5
100
AcDbEntity
  8
0
 62
     0
100
AcDbLine
 10
-187.3999999999996
 20
-353.6152499270165
 30
0.0
 11
-63.22255780039085
 21
-436.3999999999967
 31
0.0
  0
LINE
  5
26DB
330
2BE5
100
AcDbEntity
  8
0
 62
     0
100
AcDbLine
 10
-187.3999999999977
 20
-350.6152833915994
 30
0.0
 11
-58.72259650650086
 21
-436.3999999999988
 31
0.0
  0
LINE
  5
26DC
330
2BE5
100
AcDbEntity
  8
0
 62
     0
100
AcDbLine
 10
-187.3999999999996
 20
-347.6153168561832
 30
0.0
 11
-54.22263521261993
 21
-436.3999999999988
 31
0.0
  0
LINE
  5
26DD
330
2BE5
100
AcDbEntity
  8
0
 62
     0
100
AcDbLine
 10
-187.3999999999996
 20
-344.6153503207661
 30
0.0
 11
-49.72267391873174
 21
-436.3999999999976
 31
0.0
  0
LINE
  5
26DE
330
2BE5
100
AcDbEntity
  8
0
 62
     0
100
AcDbLine
 10
-187.3999999999977
 20
-341.6153837853508
 30
0.0
 11
-45.22271262484718
 21
-436.3999999999976
 31
0.0
  0
LINE
  5
26DF
330
2BE5
100
AcDbEntity
  8
0
 62
     0
100
AcDbLine
 10
-187.3999999999996
 20
-338.6154172499346
 30
0.0
 11
-40.72275133095899
 21
-436.3999999999996
 31
0.0
  0
LINE
  5
26E0
330
2BE5
100
AcDbEntity
  8
0
 62
     0
100
AcDbLine
 10
-187.3999999999996
 20
-335.6154507145192
 30
0.0
 11
-36.22279003707808
 21
-436.3999999999988
 31
0.0
  0
LINE
  5
26E1
330
2BE5
100
AcDbEntity
  8
0
 62
     0
100
AcDbLine
 10
-187.3999999999996
 20
-332.6154841791022
 30
0.0
 11
-31.7228287431899
 21
-436.3999999999988
 31
0.0
  0
LINE
  5
26E2
330
2BE5
100
AcDbEntity
  8
0
 62
     0
100
AcDbLine
 10
-187.3999999999977
 20
-329.6155176436869
 30
0.0
 11
-27.22286744930352
 21
-436.3999999999996
 31
0.0
  0
LINE
  5
26E3
330
2BE5
100
AcDbEntity
  8
0
 62
     0
100
AcDbLine
 10
-187.3999999999996
 20
-326.6155511082697
 30
0.0
 11
-22.72290615542079
 21
-436.3999999999976
 31
0.0
  0
LINE
  5
26E4
330
2BE5
100
AcDbEntity
  8
0
 62
     0
100
AcDbLine
 10
-187.3999999999977
 20
-323.6155845728554
 30
0.0
 11
-18.22294486153441
 21
-436.3999999999988
 31
0.0
  0
LINE
  5
26E5
330
2BE5
100
AcDbEntity
  8
0
 62
     0
100
AcDbLine
 10
-187.3999999999996
 20
-320.6156180374374
 30
0.0
 11
-13.72298356764986
 21
-436.3999999999967
 31
0.0
  0
LINE
  5
26E6
330
2BE5
100
AcDbEntity
  8
0
 62
     0
100
AcDbLine
 10
-187.3999999999996
 20
-317.615651502022
 30
0.0
 11
-9.223022273761671
 21
-436.4000000000005
 31
0.0
  0
LINE
  5
26E7
330
2BE5
100
AcDbEntity
  8
0
 62
     0
100
AcDbLine
 10
-187.4000000000014
 20
-314.6156849666049
 30
0.0
 11
-4.723060979878937
 21
-436.3999999999976
 31
0.0
  0
LINE
  5
26E8
330
2BE5
100
AcDbEntity
  8
0
 62
     0
100
AcDbLine
 10
-187.3999999999977
 20
-311.6157184311878
 30
0.0
 11
-0.2230996859907464
 21
-436.3999999999976
 31
0.0
  0
LINE
  5
26E9
330
2BE5
100
AcDbEntity
  8
0
 62
     0
100
AcDbLine
 10
-187.3999999999996
 20
-308.6157518957734
 30
0.0
 11
4.276861607891984
 21
-436.3999999999967
 31
0.0
  0
LINE
  5
26EA
330
2BE5
100
AcDbEntity
  8
0
 62
     0
100
AcDbLine
 10
-187.3999999999996
 20
-305.6157853603563
 30
0.0
 11
8.776822901780176
 21
-436.3999999999988
 31
0.0
  0
LINE
  5
26EB
330
2BE5
100
AcDbEntity
  8
0
 62
     0
100
AcDbLine
 10
-187.3999999999996
 20
-302.6158188249411
 30
0.0
 11
13.27678419566473
 21
-436.3999999999988
 31
0.0
  0
LINE
  5
26EC
330
2BE5
100
AcDbEntity
  8
0
 62
     0
100
AcDbLine
 10
-187.3999999999977
 20
-299.6158522895239
 30
0.0
 11
17.7767454895511
 21
-436.3999999999976
 31
0.0
  0
LINE
  5
26ED
330
2BE5
100
AcDbEntity
  8
0
 62
     0
100
AcDbLine
 10
-187.3999999999996
 20
-296.6158857541086
 30
0.0
 11
22.27670678343748
 21
-436.3999999999996
 31
0.0
  0
LINE
  5
26EE
330
2BE5
100
AcDbEntity
  8
0
 62
     0
100
AcDbLine
 10
-187.3999999999996
 20
-293.6159192186906
 30
0.0
 11
26.77666807732022
 21
-436.3999999999967
 31
0.0
  0
LINE
  5
26EF
330
2BE5
100
AcDbEntity
  8
0
 62
     0
100
AcDbLine
 10
-187.3999999999977
 20
-290.6159526832762
 30
0.0
 11
31.2766293712084
 21
-436.3999999999988
 31
0.0
  0
LINE
  5
26F0
330
2BE5
100
AcDbEntity
  8
0
 62
     0
100
AcDbLine
 10
-187.3999999999996
 20
-287.6159861478591
 30
0.0
 11
35.77659066509113
 21
-436.3999999999959
 31
0.0
  0
LINE
  5
26F1
330
2BE5
100
AcDbEntity
  8
0
 62
     0
100
AcDbLine
 10
-187.3999999999996
 20
-284.6160196124437
 30
0.0
 11
40.2765519589793
 21
-436.3999999999996
 31
0.0
  0
LINE
  5
26F2
330
2BE5
100
AcDbEntity
  8
0
 62
     0
100
AcDbLine
 10
-187.3999999999996
 20
-281.6160530770268
 30
0.0
 11
44.77651325286386
 21
-436.3999999999988
 31
0.0
  0
LINE
  5
26F3
330
2BE5
100
AcDbEntity
  8
0
 62
     0
100
AcDbLine
 10
-187.3999999999996
 20
-278.6160865416105
 30
0.0
 11
49.27647454675025
 21
-436.3999999999988
 31
0.0
  0
LINE
  5
26F4
330
2BE5
100
AcDbEntity
  8
0
 62
     0
100
AcDbLine
 10
-187.3999999999996
 20
-275.6161200061951
 30
0.0
 11
53.77643584063481
 21
-436.3999999999988
 31
0.0
  0
LINE
  5
26F5
330
2BE5
100
AcDbEntity
  8
0
 62
     0
100
AcDbLine
 10
-187.3999999999996
 20
-272.6161534707789
 30
0.0
 11
58.27639713452118
 21
-436.3999999999996
 31
0.0
  0
LINE
  5
26F6
330
2BE5
100
AcDbEntity
  8
0
 62
     0
100
AcDbLine
 10
-187.3999999999996
 20
-269.6161869353617
 30
0.0
 11
62.7763584284057
 21
-436.3999999999976
 31
0.0
  0
LINE
  5
26F7
330
2BE5
100
AcDbEntity
  8
0
 62
     0
100
AcDbLine
 10
-187.3999999999996
 20
-266.6162203999447
 30
0.0
 11
67.27631972229028
 21
-436.3999999999967
 31
0.0
  0
LINE
  5
26F8
330
2BE5
100
AcDbEntity
  8
0
 62
     0
100
AcDbLine
 10
-187.4000000000014
 20
-263.6162538645294
 30
0.0
 11
71.77628101617665
 21
-436.3999999999996
 31
0.0
  0
LINE
  5
26F9
330
2BE5
100
AcDbEntity
  8
0
 62
     0
100
AcDbLine
 10
-187.3999999999977
 20
-260.6162873291132
 30
0.0
 11
76.27624231006483
 21
-436.3999999999976
 31
0.0
  0
LINE
  5
26FA
330
2BE5
100
AcDbEntity
  8
0
 62
     0
100
AcDbLine
 10
-187.3999999999996
 20
-257.6163207936978
 30
0.0
 11
80.77620360394758
 21
-436.3999999999988
 31
0.0
  0
LINE
  5
26FB
330
2BE5
100
AcDbEntity
  8
0
 62
     0
100
AcDbLine
 10
-187.3999999999996
 20
-254.6163542582808
 30
0.0
 11
85.27616489783396
 21
-436.3999999999988
 31
0.0
  0
LINE
  5
26FC
330
2BE5
100
AcDbEntity
  8
0
 62
     0
100
AcDbLine
 10
-187.4000000000014
 20
-251.6163877228646
 30
0.0
 11
89.77612619172035
 21
-436.3999999999996
 31
0.0
  0
LINE
  5
26FD
330
2BE5
100
AcDbEntity
  8
0
 62
     0
100
AcDbLine
 10
-187.3999999999977
 20
-248.6164211874484
 30
0.0
 11
94.2760874856067
 21
-436.3999999999988
 31
0.0
  0
LINE
  5
26FE
330
2BE5
100
AcDbEntity
  8
0
 62
     0
100
AcDbLine
 10
-187.4000000000014
 20
-245.6164546520322
 30
0.0
 11
98.77604877948945
 21
-436.3999999999988
 31
0.0
  0
LINE
  5
26FF
330
2BE5
100
AcDbEntity
  8
0
 62
     0
100
AcDbLine
 10
-187.3999999999996
 20
-242.616488116616
 30
0.0
 11
103.2760100733776
 21
-436.3999999999988
 31
0.0
  0
LINE
  5
2700
330
2BE5
100
AcDbEntity
  8
0
 62
     0
100
AcDbLine
 10
-187.3999999999996
 20
-239.6165215812007
 30
0.0
 11
107.7759713672622
 21
-436.3999999999988
 31
0.0
  0
LINE
  5
2701
330
2BE5
100
AcDbEntity
  8
0
 62
     0
100
AcDbLine
 10
-187.3999999999996
 20
-236.6165550457836
 30
0.0
 11
112.2759326611467
 21
-436.3999999999976
 31
0.0
  0
LINE
  5
2702
330
2BE5
100
AcDbEntity
  8
0
 62
     0
100
AcDbLine
 10
-187.3999999999996
 20
-233.6165885103683
 30
0.0
 11
116.7758939550312
 21
-436.3999999999996
 31
0.0
  0
LINE
  5
2703
330
2BE5
100
AcDbEntity
  8
0
 62
     0
100
AcDbLine
 10
-187.3999999999996
 20
-230.6166219749512
 30
0.0
 11
121.2758552489194
 21
-436.3999999999988
 31
0.0
  0
LINE
  5
2704
330
2BE5
100
AcDbEntity
  8
0
 62
     0
100
AcDbLine
 10
-187.3999999999977
 20
-227.6166554395349
 30
0.0
 11
125.775816542804
 21
-436.3999999999976
 31
0.0
  0
LINE
  5
2705
330
2BE5
100
AcDbEntity
  8
0
 62
     0
100
AcDbLine
 10
-187.4000000000014
 20
-224.6166889041187
 30
0.0
 11
130.2757778366885
 21
-436.3999999999976
 31
0.0
  0
LINE
  5
2706
330
2BE5
100
AcDbEntity
  8
0
 62
     0
100
AcDbLine
 10
-187.3999999999977
 20
-221.6167223687025
 30
0.0
 11
134.7757391305767
 21
-436.3999999999988
 31
0.0
  0
LINE
  5
2707
330
2BE5
100
AcDbEntity
  8
0
 62
     0
100
AcDbLine
 10
-187.3999999999996
 20
-218.6167558332863
 30
0.0
 11
139.2757004244631
 21
-436.3999999999996
 31
0.0
  0
LINE
  5
2708
330
2BE5
100
AcDbEntity
  8
0
 62
     0
100
AcDbLine
 10
-187.3999999999996
 20
-215.6167892978692
 30
0.0
 11
143.7756617183459
 21
-436.3999999999976
 31
0.0
  0
LINE
  5
2709
330
2BE5
100
AcDbEntity
  8
0
 62
     0
100
AcDbLine
 10
-187.4000000000014
 20
-212.6168227624548
 30
0.0
 11
148.2756230122304
 21
-436.3999999999988
 31
0.0
  0
LINE
  5
270A
330
2BE5
100
AcDbEntity
  8
0
 62
     0
100
AcDbLine
 10
-187.3999999999996
 20
-209.6168562270377
 30
0.0
 11
152.7755843061186
 21
-436.3999999999988
 31
0.0
  0
LINE
  5
270B
330
2BE5
100
AcDbEntity
  8
0
 62
     0
100
AcDbLine
 10
-187.3999999999996
 20
-206.6168896916224
 30
0.0
 11
157.2755456000031
 21
-436.3999999999996
 31
0.0
  0
LINE
  5
270C
330
2BE5
100
AcDbEntity
  8
0
 62
     0
100
AcDbLine
 10
-28.40000000000145
 20
-309.6166524826121
 30
0.0
 11
-25.72497189317255
 21
-311.3999999999978
 31
0.0
  0
LINE
  5
270D
330
2BE5
100
AcDbEntity
  8
0
 62
     0
100
AcDbLine
 10
-25.72497189317255
 20
-311.3999999999978
 30
0.0
 11
161.7755068938877
 21
-436.3999999999988
 31
0.0
  0
LINE
  5
270E
330
2BE5
100
AcDbEntity
  8
0
 62
     0
100
AcDbLine
 10
-187.4000000000014
 20
-203.6169231562044
 30
0.0
 11
-28.40000000000145
 21
-309.6166524826121
 31
0.0
  0
LINE
  5
270F
330
2BE5
100
AcDbEntity
  8
0
 62
     0
100
AcDbLine
 10
-28.39999999999782
 20
-306.6166859471977
 30
0.0
 11
-21.225010599288
 21
-311.3999999999969
 31
0.0
  0
LINE
  5
2710
330
2BE5
100
AcDbEntity
  8
0
 62
     0
100
AcDbLine
 10
-21.225010599288
 20
-311.3999999999969
 30
0.0
 11
166.2754681877741
 21
-436.3999999999996
 31
0.0
  0
LINE
  5
2711
330
2BE5
100
AcDbEntity
  8
0
 62
     0
100
AcDbLine
 10
-187.4000000000014
 20
-200.6169566207891
 30
0.0
 11
-28.39999999999782
 21
-306.6166859471977
 31
0.0
  0
LINE
  5
2712
330
2BE5
100
AcDbEntity
  8
0
 62
     0
100
AcDbLine
 10
-28.39999999999964
 20
-303.6167194117798
 30
0.0
 11
-16.72504930540162
 21
-311.3999999999969
 31
0.0
  0
LINE
  5
2713
330
2BE5
100
AcDbEntity
  8
0
 62
     0
100
AcDbLine
 10
-16.72504930540162
 20
-311.3999999999969
 30
0.0
 11
170.7754294816604
 21
-436.3999999999988
 31
0.0
  0
LINE
  5
2714
330
2BE5
100
AcDbEntity
  8
0
 62
     0
100
AcDbLine
 10
-187.3999999999996
 20
-197.6169900853729
 30
0.0
 11
-28.39999999999964
 21
-303.6167194117798
 31
0.0
  0
LINE
  5
2715
330
2BE5
100
AcDbEntity
  8
0
 62
     0
100
AcDbLine
 10
-28.39999999999964
 20
-300.6167528763654
 30
0.0
 11
-12.22508801151525
 21
-311.3999999999987
 31
0.0
  0
LINE
  5
2716
330
2BE5
100
AcDbEntity
  8
0
 62
     0
100
AcDbLine
 10
-12.22508801151525
 20
-311.3999999999987
 30
0.0
 11
175.275390775545
 21
-436.3999999999988
 31
0.0
  0
LINE
  5
2717
330
2BE5
100
AcDbEntity
  8
0
 62
     0
100
AcDbLine
 10
-187.4000000000032
 20
-194.6170235499548
 30
0.0
 11
-28.39999999999964
 21
-300.6167528763654
 31
0.0
  0
LINE
  5
2718
330
2BE5
100
AcDbEntity
  8
0
 62
     0
100
AcDbLine
 10
-28.39999999999964
 20
-297.6167863409482
 30
0.0
 11
-7.725126717630701
 21
-311.3999999999978
 31
0.0
  0
LINE
  5
2719
330
2BE5
100
AcDbEntity
  8
0
 62
     0
100
AcDbLine
 10
-7.725126717630701
 20
-311.3999999999978
 30
0.0
 11
179.7753520694277
 21
-436.3999999999976
 31
0.0
  0
LINE
  5
271A
330
2BE5
100
AcDbEntity
  8
0
 62
     0
100
AcDbLine
 10
-187.4000000000051
 20
-191.6170570145386
 30
0.0
 11
-28.39999999999964
 21
-297.6167863409482
 31
0.0
  0
LINE
  5
271B
330
2BE5
100
AcDbEntity
  8
0
 62
     0
100
AcDbLine
 10
-28.39999999999782
 20
-294.6168198055311
 30
0.0
 11
-3.225165423744328
 21
-311.399999999996
 31
0.0
  0
LINE
  5
271C
330
2BE5
100
AcDbEntity
  8
0
 62
     0
100
AcDbLine
 10
-3.225165423744328
 20
-311.399999999996
 30
0.0
 11
184.2753133633177
 21
-436.3999999999988
 31
0.0
  0
LINE
  5
271D
330
2BE5
100
AcDbEntity
  8
0
 62
     0
100
AcDbLine
 10
-187.4000000000014
 20
-188.6170904791215
 30
0.0
 11
-28.39999999999782
 21
-294.6168198055311
 31
0.0
  0
LINE
  5
271E
330
2BE5
100
AcDbEntity
  8
0
 62
     0
100
AcDbLine
 10
-28.39999999999782
 20
-291.6168532701158
 30
0.0
 11
1.274795870140223
 21
-311.3999999999969
 31
0.0
  0
LINE
  5
271F
330
2BE5
100
AcDbEntity
  8
0
 62
     0
100
AcDbLine
 10
1.274795870140223
 20
-311.3999999999969
 30
0.0
 11
187.399999999996
 21
-435.4831525697263
 31
0.0
  0
LINE
  5
2720
330
2BE5
100
AcDbEntity
  8
0
 62
     0
100
AcDbLine
 10
-187.4000000000032
 20
-185.6171239437061
 30
0.0
 11
-28.39999999999782
 21
-291.6168532701158
 31
0.0
  0
LINE
  5
2721
330
2BE5
100
AcDbEntity
  8
0
 62
     0
100
AcDbLine
 10
-28.39999999999964
 20
-288.6168867346988
 30
0.0
 11
5.774757164024777
 21
-311.3999999999969
 31
0.0
  0
LINE
  5
2722
330
2BE5
100
AcDbEntity
  8
0
 62
     0
100
AcDbLine
 10
5.774757164024777
 20
-311.3999999999969
 30
0.0
 11
187.399999999996
 21
-432.4831860343102
 31
0.0
  0
LINE
  5
2723
330
2BE5
100
AcDbEntity
  8
0
 62
     0
100
AcDbLine
 10
-187.4000000000032
 20
-182.6171574082891
 30
0.0
 11
-28.39999999999964
 21
-288.6168867346988
 31
0.0
  0
LINE
  5
2724
330
2BE5
100
AcDbEntity
  8
0
 62
     0
100
AcDbLine
 10
-28.39999999999782
 20
-285.6169201992843
 30
0.0
 11
10.27471845790933
 21
-311.399999999996
 31
0.0
  0
LINE
  5
2725
330
2BE5
100
AcDbEntity
  8
0
 62
     0
100
AcDbLine
 10
10.27471845790933
 20
-311.399999999996
 30
0.0
 11
187.399999999996
 21
-429.4832194988948
 31
0.0
  0
LINE
  5
2726
330
2BE5
100
AcDbEntity
  8
0
 62
     0
100
AcDbLine
 10
-187.4000000000032
 20
-179.6171908728738
 30
0.0
 11
-28.39999999999782
 21
-285.6169201992843
 31
0.0
  0
LINE
  5
2727
330
2BE5
100
AcDbEntity
  8
0
 62
     0
100
AcDbLine
 10
-28.39999999999964
 20
-282.6169536638663
 30
0.0
 11
14.77467975179752
 21
-311.399999999996
 31
0.0
  0
LINE
  5
2728
330
2BE5
100
AcDbEntity
  8
0
 62
     0
100
AcDbLine
 10
14.77467975179752
 20
-311.399999999996
 30
0.0
 11
187.3999999999977
 21
-426.4832529634777
 31
0.0
  0
LINE
  5
2729
330
2BE5
100
AcDbEntity
  8
0
 62
     0
100
AcDbLine
 10
-187.4000000000032
 20
-176.6172243374567
 30
0.0
 11
-28.39999999999964
 21
-282.6169536638663
 31
0.0
  0
LINE
  5
272A
330
2BE5
100
AcDbEntity
  8
0
 62
     0
100
AcDbLine
 10
-28.39999999999782
 20
-279.6169871284519
 30
0.0
 11
19.2746410456784
 21
-311.399999999996
 31
0.0
  0
LINE
  5
272B
330
2BE5
100
AcDbEntity
  8
0
 62
     0
100
AcDbLine
 10
19.2746410456784
 20
-311.399999999996
 30
0.0
 11
187.399999999996
 21
-423.4832864280622
 31
0.0
  0
LINE
  5
272C
330
2BE5
100
AcDbEntity
  8
0
 62
     0
100
AcDbLine
 10
-187.4000000000032
 20
-173.6172578020414
 30
0.0
 11
-28.39999999999782
 21
-279.6169871284519
 31
0.0
  0
LINE
  5
272D
330
2BE5
100
AcDbEntity
  8
0
 62
     0
100
AcDbLine
 10
-28.39999999999964
 20
-276.6170205930339
 30
0.0
 11
23.77460233956845
 21
-311.3999999999969
 31
0.0
  0
LINE
  5
272E
330
2BE5
100
AcDbEntity
  8
0
 62
     0
100
AcDbLine
 10
23.77460233956845
 20
-311.3999999999969
 30
0.0
 11
187.3999999999977
 21
-420.4833198926452
 31
0.0
  0
LINE
  5
272F
330
2BE5
100
AcDbEntity
  8
0
 62
     0
100
AcDbLine
 10
-187.4000000000032
 20
-170.6172912666243
 30
0.0
 11
-28.39999999999964
 21
-276.6170205930339
 31
0.0
  0
LINE
  5
2730
330
2BE5
100
AcDbEntity
  8
0
 62
     0
100
AcDbLine
 10
-28.39999999999782
 20
-273.6170540576186
 30
0.0
 11
28.274563633453
 21
-311.3999999999969
 31
0.0
  0
LINE
  5
2731
330
2BE5
100
AcDbEntity
  8
0
 62
     0
100
AcDbLine
 10
28.274563633453
 20
-311.3999999999969
 30
0.0
 11
187.3999999999977
 21
-417.4833533572309
 31
0.0
  0
LINE
  5
2732
330
2BE5
100
AcDbEntity
  8
0
 62
     0
100
AcDbLine
 10
-187.4000000000014
 20
-167.617324731209
 30
0.0
 11
-28.39999999999782
 21
-273.6170540576186
 31
0.0
  0
LINE
  5
2733
330
2BE5
100
AcDbEntity
  8
0
 62
     0
100
AcDbLine
 10
-28.39999999999964
 20
-270.6170875222015
 30
0.0
 11
32.77452492733937
 21
-311.3999999999969
 31
0.0
  0
LINE
  5
2734
330
2BE5
100
AcDbEntity
  8
0
 62
     0
100
AcDbLine
 10
32.77452492733937
 20
-311.3999999999969
 30
0.0
 11
187.3999999999977
 21
-414.4833868218136
 31
0.0
  0
LINE
  5
2735
330
2BE5
100
AcDbEntity
  8
0
 62
     0
100
AcDbLine
 10
-187.4000000000032
 20
-164.6173581957918
 30
0.0
 11
-28.39999999999964
 21
-270.6170875222015
 31
0.0
  0
LINE
  5
2736
330
2BE5
100
AcDbEntity
  8
0
 62
     0
100
AcDbLine
 10
-28.39999999999964
 20
-267.6171209867871
 30
0.0
 11
37.27448622122393
 21
-311.3999999999978
 31
0.0
  0
LINE
  5
2737
330
2BE5
100
AcDbEntity
  8
0
 62
     0
100
AcDbLine
 10
37.27448622122393
 20
-311.3999999999978
 30
0.0
 11
187.399999999996
 21
-411.4834202863985
 31
0.0
  0
LINE
  5
2738
330
2BE5
100
AcDbEntity
  8
0
 62
     0
100
AcDbLine
 10
-187.4000000000032
 20
-161.6173916603775
 30
0.0
 11
-28.39999999999964
 21
-267.6171209867871
 31
0.0
  0
LINE
  5
2739
330
2BE5
100
AcDbEntity
  8
0
 62
     0
100
AcDbLine
 10
-28.39999999999964
 20
-264.61715445137
 30
0.0
 11
41.77444751511028
 21
-311.3999999999978
 31
0.0
  0
LINE
  5
273A
330
2BE5
100
AcDbEntity
  8
0
 62
     0
100
AcDbLine
 10
41.77444751511028
 20
-311.3999999999978
 30
0.0
 11
187.3999999999977
 21
-408.4834537509814
 31
0.0
  0
LINE
  5
273B
330
2BE5
100
AcDbEntity
  8
0
 62
     0
100
AcDbLine
 10
-187.4000000000032
 20
-158.6174251249604
 30
0.0
 11
-28.39999999999964
 21
-264.61715445137
 31
0.0
  0
LINE
  5
273C
330
2BE5
100
AcDbEntity
  8
0
 62
     0
100
AcDbLine
 10
-28.39999999999782
 20
-261.6171879159547
 30
0.0
 11
46.27440880899484
 21
-311.3999999999969
 31
0.0
  0
LINE
  5
273D
330
2BE5
100
AcDbEntity
  8
0
 62
     0
100
AcDbLine
 10
46.27440880899484
 20
-311.3999999999969
 30
0.0
 11
187.399999999996
 21
-405.4834872155651
 31
0.0
  0
LINE
  5
273E
330
2BE5
100
AcDbEntity
  8
0
 62
     0
100
AcDbLine
 10
-187.4000000000014
 20
-155.6174585895451
 30
0.0
 11
-28.39999999999782
 21
-261.6171879159547
 31
0.0
  0
LINE
  5
273F
330
2BE5
100
AcDbEntity
  8
0
 62
     0
100
AcDbLine
 10
-28.39999999999964
 20
-258.6172213805375
 30
0.0
 11
50.77437010288122
 21
-311.3999999999969
 31
0.0
  0
LINE
  5
2740
330
2BE5
100
AcDbEntity
  8
0
 62
     0
100
AcDbLine
 10
50.77437010288122
 20
-311.3999999999969
 30
0.0
 11
187.3999999999977
 21
-402.4835206801497
 31
0.0
  0
LINE
  5
2741
330
2BE5
100
AcDbEntity
  8
0
 62
     0
100
AcDbLine
 10
-187.4000000000032
 20
-152.6174920541279
 30
0.0
 11
-28.39999999999964
 21
-258.6172213805375
 31
0.0
  0
LINE
  5
2742
330
2BE5
100
AcDbEntity
  8
0
 62
     0
100
AcDbLine
 10
-28.39999999999964
 20
-255.6172548451195
 30
0.0
 11
55.2743313967676
 21
-311.3999999999969
 31
0.0
  0
LINE
  5
2743
330
2BE5
100
AcDbEntity
  8
0
 62
     0
100
AcDbLine
 10
55.2743313967676
 20
-311.3999999999969
 30
0.0
 11
187.399999999996
 21
-399.4835541447319
 31
0.0
  0
LINE
  5
2744
330
2BE5
100
AcDbEntity
  8
0
 62
     0
100
AcDbLine
 10
-187.4000000000032
 20
-149.6175255187099
 30
0.0
 11
-28.39999999999964
 21
-255.6172548451195
 31
0.0
  0
LINE
  5
2745
330
2BE5
100
AcDbEntity
  8
0
 62
     0
100
AcDbLine
 10
-28.39999999999782
 20
-252.6172883097061
 30
0.0
 11
59.77429269065396
 21
-311.3999999999978
 31
0.0
  0
LINE
  5
2746
330
2BE5
100
AcDbEntity
  8
0
 62
     0
100
AcDbLine
 10
59.77429269065396
 20
-311.3999999999978
 30
0.0
 11
187.3999999999977
 21
-396.4835876093168
 31
0.0
  0
LINE
  5
2747
330
2BE5
100
AcDbEntity
  8
0
 62
     0
100
AcDbLine
 10
-187.4000000000032
 20
-146.6175589832946
 30
0.0
 11
-28.39999999999782
 21
-252.6172883097061
 31
0.0
  0
LINE
  5
2748
330
2BE5
100
AcDbEntity
  8
0
 62
     0
100
AcDbLine
 10
-28.39999999999964
 20
-249.617321774288
 30
0.0
 11
64.2742539845367
 21
-311.399999999996
 31
0.0
  0
LINE
  5
2749
330
2BE5
100
AcDbEntity
  8
0
 62
     0
100
AcDbLine
 10
64.2742539845367
 20
-311.399999999996
 30
0.0
 11
187.399999999996
 21
-393.4836210738995
 31
0.0
  0
LINE
  5
274A
330
2BE5
100
AcDbEntity
  8
0
 62
     0
100
AcDbLine
 10
-187.4000000000032
 20
-143.6175924478784
 30
0.0
 11
-28.39999999999964
 21
-249.617321774288
 31
0.0
  0
LINE
  5
274B
330
2BE5
100
AcDbEntity
  8
0
 62
     0
100
AcDbLine
 10
-28.40000000000145
 20
-246.6173552388728
 30
0.0
 11
68.77421527842125
 21
-311.3999999999969
 31
0.0
  0
LINE
  5
274C
330
2BE5
100
AcDbEntity
  8
0
 62
     0
100
AcDbLine
 10
68.77421527842125
 20
-311.3999999999969
 30
0.0
 11
187.399999999996
 21
-390.4836545384842
 31
0.0
  0
LINE
  5
274D
330
2BE5
100
AcDbEntity
  8
0
 62
     0
100
AcDbLine
 10
-187.4000000000051
 20
-140.6176259124631
 30
0.0
 11
-28.40000000000145
 21
-246.6173552388728
 31
0.0
  0
LINE
  5
274E
330
2BE5
100
AcDbEntity
  8
0
 62
     0
100
AcDbLine
 10
-28.39999999999782
 20
-243.6173887034556
 30
0.0
 11
73.27417657231126
 21
-311.3999999999969
 31
0.0
  0
LINE
  5
274F
330
2BE5
100
AcDbEntity
  8
0
 62
     0
100
AcDbLine
 10
73.27417657231126
 20
-311.3999999999969
 30
0.0
 11
187.3999999999996
 21
-387.4836880030671
 31
0.0
  0
LINE
  5
2750
330
2BE5
100
AcDbEntity
  8
0
 62
     0
100
AcDbLine
 10
-187.4000000000014
 20
-137.6176593770459
 30
0.0
 11
-28.39999999999782
 21
-243.6173887034556
 31
0.0
  0
LINE
  5
2751
330
2BE5
100
AcDbEntity
  8
0
 62
     0
100
AcDbLine
 10
-28.39999999999782
 20
-240.6174221680402
 30
0.0
 11
77.77413786619582
 21
-311.3999999999987
 31
0.0
  0
LINE
  5
2752
330
2BE5
100
AcDbEntity
  8
0
 62
     0
100
AcDbLine
 10
77.77413786619582
 20
-311.3999999999987
 30
0.0
 11
187.3999999999977
 21
-384.4837214676528
 31
0.0
  0
LINE
  5
2753
330
2BE5
100
AcDbEntity
  8
0
 62
     0
100
AcDbLine
 10
-187.4000000000032
 20
-134.6176928416307
 30
0.0
 11
-28.39999999999782
 21
-240.6174221680402
 31
0.0
  0
LINE
  5
2754
330
2BE5
100
AcDbEntity
  8
0
 62
     0
100
AcDbLine
 10
-28.39999999999964
 20
-237.6174556326241
 30
0.0
 11
82.27409916007855
 21
-311.399999999996
 31
0.0
  0
LINE
  5
2755
330
2BE5
100
AcDbEntity
  8
0
 62
     0
100
AcDbLine
 10
82.27409916007855
 20
-311.399999999996
 30
0.0
 11
187.3999999999977
 21
-381.4837549322356
 31
0.0
  0
LINE
  5
2756
330
2BE5
100
AcDbEntity
  8
0
 62
     0
100
AcDbLine
 10
-187.4000000000032
 20
-131.6177263062145
 30
0.0
 11
-28.39999999999964
 21
-237.6174556326241
 31
0.0
  0
LINE
  5
2757
330
2BE5
100
AcDbEntity
  8
0
 62
     0
100
AcDbLine
 10
-28.39999999999782
 20
-234.6174890972088
 30
0.0
 11
86.77406045396493
 21
-311.3999999999978
 31
0.0
  0
LINE
  5
2758
330
2BE5
100
AcDbEntity
  8
0
 62
     0
100
AcDbLine
 10
86.77406045396493
 20
-311.3999999999978
 30
0.0
 11
187.3999999999977
 21
-378.4837883968202
 31
0.0
  0
LINE
  5
2759
330
2BE5
100
AcDbEntity
  8
0
 62
     0
100
AcDbLine
 10
-187.4000000000032
 20
-128.6177597707992
 30
0.0
 11
-28.39999999999782
 21
-234.6174890972088
 31
0.0
  0
LINE
  5
275A
330
2BE5
100
AcDbEntity
  8
0
 62
     0
100
AcDbLine
 10
-28.39999999999782
 20
-231.6175225617917
 30
0.0
 11
91.27402174785313
 21
-311.3999999999969
 31
0.0
  0
LINE
  5
275B
330
2BE5
100
AcDbEntity
  8
0
 62
     0
100
AcDbLine
 10
91.27402174785313
 20
-311.3999999999969
 30
0.0
 11
187.3999999999996
 21
-375.4838218614032
 31
0.0
  0
LINE
  5
275C
330
2BE5
100
AcDbEntity
  8
0
 62
     0
100
AcDbLine
 10
-187.4000000000014
 20
-125.6177932353821
 30
0.0
 11
-28.39999999999782
 21
-231.6175225617917
 31
0.0
  0
LINE
  5
275D
330
2BE5
100
AcDbEntity
  8
0
 62
     0
100
AcDbLine
 10
-28.39999999999964
 20
-228.6175560263755
 30
0.0
 11
95.77398304173584
 21
-311.3999999999969
 31
0.0
  0
LINE
  5
275E
330
2BE5
100
AcDbEntity
  8
0
 62
     0
100
AcDbLine
 10
95.77398304173584
 20
-311.3999999999969
 30
0.0
 11
187.399999999996
 21
-372.4838553259871
 31
0.0
  0
LINE
  5
275F
330
2BE5
100
AcDbEntity
  8
0
 62
     0
100
AcDbLine
 10
-187.4000000000051
 20
-122.6178266999659
 30
0.0
 11
-28.39999999999964
 21
-228.6175560263755
 31
0.0
  0
LINE
  5
2760
330
2BE5
100
AcDbEntity
  8
0
 62
     0
100
AcDbLine
 10
-28.39999999999782
 20
-225.6175894909593
 30
0.0
 11
100.2739443356222
 21
-311.3999999999969
 31
0.0
  0
LINE
  5
2761
330
2BE5
100
AcDbEntity
  8
0
 62
     0
100
AcDbLine
 10
100.2739443356222
 20
-311.3999999999969
 30
0.0
 11
187.3999999999996
 21
-369.4838887905717
 31
0.0
  0
LINE
  5
2762
330
2BE5
100
AcDbEntity
  8
0
 62
     0
100
AcDbLine
 10
-187.4000000000032
 20
-119.6178601645488
 30
0.0
 11
-28.39999999999782
 21
-225.6175894909593
 31
0.0
  0
LINE
  5
2763
330
2BE5
100
AcDbEntity
  8
0
 62
     0
100
AcDbLine
 10
-28.39999999999782
 20
-222.6176229555431
 30
0.0
 11
104.7739056295086
 21
-311.3999999999978
 31
0.0
  0
LINE
  5
2764
330
2BE5
100
AcDbEntity
  8
0
 62
     0
100
AcDbLine
 10
104.7739056295086
 20
-311.3999999999978
 30
0.0
 11
187.3999999999977
 21
-366.4839222551555
 31
0.0
  0
LINE
  5
2765
330
2BE5
100
AcDbEntity
  8
0
 62
     0
100
AcDbLine
 10
-185.9268366819451
 20
-117.6000000000003
 30
0.0
 11
-28.39999999999782
 21
-222.6176229555431
 31
0.0
  0
LINE
  5
2766
330
2BE5
100
AcDbEntity
  8
0
 62
     0
100
AcDbLine
 10
-28.39999999999964
 20
-219.6176564201269
 30
0.0
 11
109.2738669233949
 21
-311.3999999999978
 31
0.0
  0
LINE
  5
2767
330
2BE5
100
AcDbEntity
  8
0
 62
     0
100
AcDbLine
 10
109.2738669233949
 20
-311.3999999999978
 30
0.0
 11
187.3999999999996
 21
-363.4839557197393
 31
0.0
  0
LINE
  5
2768
330
2BE5
100
AcDbEntity
  8
0
 62
     0
100
AcDbLine
 10
-181.4268753880588
 20
-117.5999999999994
 30
0.0
 11
-28.39999999999964
 21
-219.6176564201269
 31
0.0
  0
LINE
  5
2769
330
2BE5
100
AcDbEntity
  8
0
 62
     0
100
AcDbLine
 10
-28.39999999999964
 20
-216.6176898847097
 30
0.0
 11
113.7738282172777
 21
-311.3999999999951
 31
0.0
  0
LINE
  5
276A
330
2BE5
100
AcDbEntity
  8
0
 62
     0
100
AcDbLine
 10
113.7738282172777
 20
-311.3999999999951
 30
0.0
 11
187.3999999999977
 21
-360.4839891843221
 31
0.0
  0
LINE
  5
276B
330
2BE5
100
AcDbEntity
  8
0
 62
     0
100
AcDbLine
 10
-176.926914094176
 20
-117.5999999999976
 30
0.0
 11
-28.39999999999964
 21
-216.6176898847097
 31
0.0
  0
LINE
  5
276C
330
2BE5
100
AcDbEntity
  8
0
 62
     0
100
AcDbLine
 10
-28.39999999999964
 20
-213.6177233492944
 30
0.0
 11
118.273789511164
 21
-311.3999999999969
 31
0.0
  0
LINE
  5
276D
330
2BE5
100
AcDbEntity
  8
0
 62
     0
100
AcDbLine
 10
118.273789511164
 20
-311.3999999999969
 30
0.0
 11
187.3999999999996
 21
-357.4840226489068
 31
0.0
  0
LINE
  5
276E
330
2BE5
100
AcDbEntity
  8
0
 62
     0
100
AcDbLine
 10
-172.4269528002896
 20
-117.5999999999994
 30
0.0
 11
-28.39999999999964
 21
-213.6177233492944
 31
0.0
  0
LINE
  5
276F
330
2BE5
100
AcDbEntity
  8
0
 62
     0
100
AcDbLine
 10
-28.39999999999782
 20
-210.6177568138773
 30
0.0
 11
122.7737508050504
 21
-311.3999999999969
 31
0.0
  0
LINE
  5
2770
330
2BE5
100
AcDbEntity
  8
0
 62
     0
100
AcDbLine
 10
122.7737508050504
 20
-311.3999999999969
 30
0.0
 11
187.3999999999996
 21
-354.4840561134906
 31
0.0
  0
LINE
  5
2771
330
2BE5
100
AcDbEntity
  8
0
 62
     0
100
AcDbLine
 10
-167.9269915064033
 20
-117.5999999999985
 30
0.0
 11
-28.39999999999782
 21
-210.6177568138773
 31
0.0
  0
LINE
  5
2772
330
2BE5
100
AcDbEntity
  8
0
 62
     0
100
AcDbLine
 10
-28.39999999999964
 20
-207.617790278463
 30
0.0
 11
127.2737120989368
 21
-311.3999999999978
 31
0.0
  0
LINE
  5
2773
330
2BE5
100
AcDbEntity
  8
0
 62
     0
100
AcDbLine
 10
127.2737120989368
 20
-311.3999999999978
 30
0.0
 11
187.3999999999996
 21
-351.4840895780753
 31
0.0
  0
LINE
  5
2774
330
2BE5
100
AcDbEntity
  8
0
 62
     0
100
AcDbLine
 10
-163.4270302125204
 20
-117.5999999999985
 30
0.0
 11
-28.39999999999964
 21
-207.617790278463
 31
0.0
  0
LINE
  5
2775
330
2BE5
100
AcDbEntity
  8
0
 62
     0
100
AcDbLine
 10
-28.39999999999782
 20
-204.617823743046
 30
0.0
 11
131.7736733928195
 21
-311.399999999996
 31
0.0
  0
LINE
  5
2776
330
2BE5
100
AcDbEntity
  8
0
 62
     0
100
AcDbLine
 10
131.7736733928195
 20
-311.399999999996
 30
0.0
 11
187.3999999999996
 21
-348.4841230426582
 31
0.0
  0
LINE
  5
2777
330
2BE5
100
AcDbEntity
  8
0
 62
     0
100
AcDbLine
 10
-158.9270689186323
 20
-117.5999999999976
 30
0.0
 11
-28.39999999999782
 21
-204.617823743046
 31
0.0
  0
LINE
  5
2778
330
2BE5
100
AcDbEntity
  8
0
 62
     0
100
AcDbLine
 10
-28.39999999999964
 20
-201.6178572076297
 30
0.0
 11
136.2736346867077
 21
-311.3999999999969
 31
0.0
  0
LINE
  5
2779
330
2BE5
100
AcDbEntity
  8
0
 62
     0
100
AcDbLine
 10
136.2736346867077
 20
-311.3999999999969
 30
0.0
 11
187.4000000000014
 21
-345.4841565072429
 31
0.0
  0
LINE
  5
277A
330
2BE5
100
AcDbEntity
  8
0
 62
     0
100
AcDbLine
 10
-154.427107624746
 20
-117.5999999999994
 30
0.0
 11
-28.39999999999964
 21
-201.6178572076297
 31
0.0
  0
LINE
  5
277B
330
2BE5
100
AcDbEntity
  8
0
 62
     0
100
AcDbLine
 10
-28.39999999999782
 20
-198.6178906722134
 30
0.0
 11
140.7735959805923
 21
-311.3999999999969
 31
0.0
  0
LINE
  5
277C
330
2BE5
100
AcDbEntity
  8
0
 62
     0
100
AcDbLine
 10
140.7735959805923
 20
-311.3999999999969
 30
0.0
 11
187.3999999999996
 21
-342.4841899718261
 31
0.0
  0
LINE
  5
277D
330
2BE5
100
AcDbEntity
  8
0
 62
     0
100
AcDbLine
 10
-149.9271463308614
 20
-117.5999999999994
 30
0.0
 11
-28.39999999999782
 21
-198.6178906722134
 31
0.0
  0
LINE
  5
277E
330
2BE5
100
AcDbEntity
  8
0
 62
     0
100
AcDbLine
 10
-28.40000000000145
 20
-195.6179241367971
 30
0.0
 11
145.2735572744784
 21
-311.3999999999987
 31
0.0
  0
LINE
  5
277F
330
2BE5
100
AcDbEntity
  8
0
 62
     0
100
AcDbLine
 10
145.2735572744784
 20
-311.3999999999987
 30
0.0
 11
187.3999999999996
 21
-339.4842234364114
 31
0.0
  0
LINE
  5
2780
330
2BE5
100
AcDbEntity
  8
0
 62
     0
100
AcDbLine
 10
-145.4271850369786
 20
-117.5999999999985
 30
0.0
 11
-28.40000000000145
 21
-195.6179241367971
 31
0.0
  0
LINE
  5
2781
330
2BE5
100
AcDbEntity
  8
0
 62
     0
100
AcDbLine
 10
-28.39999999999964
 20
-192.6179576013801
 30
0.0
 11
149.7735185683614
 21
-311.399999999996
 31
0.0
  0
LINE
  5
2782
330
2BE5
100
AcDbEntity
  8
0
 62
     0
100
AcDbLine
 10
149.7735185683614
 20
-311.399999999996
 30
0.0
 11
187.3999999999977
 21
-336.4842569009934
 31
0.0
  0
LINE
  5
2783
330
2BE5
100
AcDbEntity
  8
0
 62
     0
100
AcDbLine
 10
-140.9272237430887
 20
-117.6000000000003
 30
0.0
 11
-28.39999999999964
 21
-192.6179576013801
 31
0.0
  0
LINE
  5
2784
330
2BE5
100
AcDbEntity
  8
0
 62
     0
100
AcDbLine
 10
-28.39999999999964
 20
-189.6179910659657
 30
0.0
 11
154.2734798622496
 21
-311.3999999999978
 31
0.0
  0
LINE
  5
2785
330
2BE5
100
AcDbEntity
  8
0
 62
     0
100
AcDbLine
 10
154.2734798622496
 20
-311.3999999999978
 30
0.0
 11
187.4000000000014
 21
-333.484290365579
 31
0.0
  0
LINE
  5
2786
330
2BE5
100
AcDbEntity
  8
0
 62
     0
100
AcDbLine
 10
-136.4272624492041
 20
-117.5999999999994
 30
0.0
 11
-28.39999999999964
 21
-189.6179910659657
 31
0.0
  0
LINE
  5
2787
330
2BE5
100
AcDbEntity
  8
0
 62
     0
100
AcDbLine
 10
-28.39999999999964
 20
-186.6180245305486
 30
0.0
 11
158.7734411561341
 21
-311.3999999999978
 31
0.0
  0
LINE
  5
2788
330
2BE5
100
AcDbEntity
  8
0
 62
     0
100
AcDbLine
 10
158.7734411561341
 20
-311.3999999999978
 30
0.0
 11
187.3999999999977
 21
-330.4843238301609
 31
0.0
  0
LINE
  5
2789
330
2BE5
100
AcDbEntity
  8
0
 62
     0
100
AcDbLine
 10
-131.9273011553196
 20
-117.5999999999994
 30
0.0
 11
-28.39999999999964
 21
-186.6180245305486
 31
0.0
  0
LINE
  5
278A
330
2BE5
100
AcDbEntity
  8
0
 62
     0
100
AcDbLine
 10
-28.39999999999782
 20
-183.6180579951333
 30
0.0
 11
163.2734024500187
 21
-311.3999999999969
 31
0.0
  0
LINE
  5
278B
330
2BE5
100
AcDbEntity
  8
0
 62
     0
100
AcDbLine
 10
163.2734024500187
 20
-311.3999999999969
 30
0.0
 11
187.4000000000014
 21
-327.4843572947465
 31
0.0
  0
LINE
  5
278C
330
2BE5
100
AcDbEntity
  8
0
 62
     0
100
AcDbLine
 10
-127.427339861435
 20
-117.5999999999994
 30
0.0
 11
-28.39999999999782
 21
-183.6180579951333
 31
0.0
  0
LINE
  5
278D
330
2BE5
100
AcDbEntity
  8
0
 62
     0
100
AcDbLine
 10
-28.39999999999782
 20
-180.6180914597162
 30
0.0
 11
167.773363743905
 21
-311.3999999999969
 31
0.0
  0
LINE
  5
278E
330
2BE5
100
AcDbEntity
  8
0
 62
     0
100
AcDbLine
 10
167.773363743905
 20
-311.3999999999969
 30
0.0
 11
187.3999999999996
 21
-324.4843907593295
 31
0.0
  0
LINE
  5
278F
330
2BE5
100
AcDbEntity
  8
0
 62
     0
100
AcDbLine
 10
-122.9273785675486
 20
-117.5999999999985
 30
0.0
 11
-28.39999999999782
 21
-180.6180914597162
 31
0.0
  0
LINE
  5
2790
330
2BE5
100
AcDbEntity
  8
0
 62
     0
100
AcDbLine
 10
-28.39999999999782
 20
-177.6181249243009
 30
0.0
 11
172.2733250377914
 21
-311.3999999999978
 31
0.0
  0
LINE
  5
2791
330
2BE5
100
AcDbEntity
  8
0
 62
     0
100
AcDbLine
 10
172.2733250377914
 20
-311.3999999999978
 30
0.0
 11
187.3999999999996
 21
-321.4844242239142
 31
0.0
  0
LINE
  5
2792
330
2BE5
100
AcDbEntity
  8
0
 62
     0
100
AcDbLine
 10
-118.4274172736623
 20
-117.6000000000003
 30
0.0
 11
-28.39999999999782
 21
-177.6181249243009
 31
0.0
  0
LINE
  5
2793
330
2BE5
100
AcDbEntity
  8
0
 62
     0
100
AcDbLine
 10
-28.40000000000145
 20
-174.6181583888838
 30
0.0
 11
176.773286331676
 21
-311.3999999999978
 31
0.0
  0
LINE
  5
2794
330
2BE5
100
AcDbEntity
  8
0
 62
     0
100
AcDbLine
 10
176.773286331676
 20
-311.3999999999978
 30
0.0
 11
187.3999999999977
 21
-318.484457688497
 31
0.0
  0
LINE
  5
2795
330
2BE5
100
AcDbEntity
  8
0
 62
     0
100
AcDbLine
 10
-113.9274559797795
 20
-117.5999999999976
 30
0.0
 11
-28.40000000000145
 21
-174.6181583888838
 31
0.0
  0
LINE
  5
2796
330
2BE5
100
AcDbEntity
  8
0
 62
     0
100
AcDbLine
 10
-28.399999999996
 20
-171.6181918534676
 30
0.0
 11
181.2732476255623
 21
-311.3999999999951
 31
0.0
  0
LINE
  5
2797
330
2BE5
100
AcDbEntity
  8
0
 62
     0
100
AcDbLine
 10
181.2732476255623
 20
-311.3999999999951
 30
0.0
 11
187.4000000000014
 21
-315.4844911530799
 31
0.0
  0
LINE
  5
2798
330
2BE5
100
AcDbEntity
  8
0
 62
     0
100
AcDbLine
 10
-109.4274946858913
 20
-117.5999999999976
 30
0.0
 11
-28.399999999996
 21
-171.6181918534676
 31
0.0
  0
LINE
  5
2799
330
2BE5
100
AcDbEntity
  8
0
 62
     0
100
AcDbLine
 10
-28.39999999999964
 20
-168.6182253180513
 30
0.0
 11
185.7732089194505
 21
-311.3999999999987
 31
0.0
  0
LINE
  5
279A
330
2BE5
100
AcDbEntity
  8
0
 62
     0
100
AcDbLine
 10
185.7732089194505
 20
-311.3999999999987
 30
0.0
 11
187.3999999999996
 21
-312.4845246176647
 31
0.0
  0
LINE
  5
279B
330
2BE5
100
AcDbEntity
  8
0
 62
     0
100
AcDbLine
 10
-104.9275333920068
 20
-117.5999999999994
 30
0.0
 11
-28.39999999999964
 21
-168.6182253180513
 31
0.0
  0
LINE
  5
279C
330
2BE5
100
AcDbEntity
  8
0
 62
     0
100
AcDbLine
 10
-28.39999999999964
 20
-165.6182587826341
 30
0.0
 11
187.3999999999996
 21
-309.4845580822485
 31
0.0
  0
LINE
  5
279D
330
2BE5
100
AcDbEntity
  8
0
 62
     0
100
AcDbLine
 10
-100.4275720981204
 20
-117.5999999999985
 30
0.0
 11
-28.39999999999964
 21
-165.6182587826341
 31
0.0
  0
LINE
  5
279E
330
2BE5
100
AcDbEntity
  8
0
 62
     0
100
AcDbLine
 10
-28.39999999999964
 20
-162.6182922472189
 30
0.0
 11
187.3999999999996
 21
-306.4845915468331
 31
0.0
  0
LINE
  5
279F
330
2BE5
100
AcDbEntity
  8
0
 62
     0
100
AcDbLine
 10
-95.92761080423588
 20
-117.5999999999985
 30
0.0
 11
-28.39999999999964
 21
-162.6182922472189
 31
0.0
  0
LINE
  5
27A0
330
2BE5
100
AcDbEntity
  8
0
 62
     0
100
AcDbLine
 10
-28.39999999999782
 20
-159.6183257118027
 30
0.0
 11
187.3999999999996
 21
-303.4846250114151
 31
0.0
  0
LINE
  5
27A1
330
2BE5
100
AcDbEntity
  8
0
 62
     0
100
AcDbLine
 10
-91.42764951034587
 20
-117.6000000000003
 30
0.0
 11
-28.39999999999782
 21
-159.6183257118027
 31
0.0
  0
LINE
  5
27A2
330
2BE5
100
AcDbEntity
  8
0
 62
     0
100
AcDbLine
 10
-28.39999999999964
 20
-156.6183591763874
 30
0.0
 11
187.3999999999996
 21
-300.4846584760007
 31
0.0
  0
LINE
  5
27A3
330
2BE5
100
AcDbEntity
  8
0
 62
     0
100
AcDbLine
 10
-86.92768821646494
 20
-117.5999999999994
 30
0.0
 11
-28.39999999999964
 21
-156.6183591763874
 31
0.0
  0
LINE
  5
27A4
330
2BE5
100
AcDbEntity
  8
0
 62
     0
100
AcDbLine
 10
-28.39999999999782
 20
-153.6183926409703
 30
0.0
 11
187.3999999999996
 21
-297.4846919405827
 31
0.0
  0
LINE
  5
27A5
330
2BE5
100
AcDbEntity
  8
0
 62
     0
100
AcDbLine
 10
-82.42772692257677
 20
-117.5999999999994
 30
0.0
 11
-28.39999999999782
 21
-153.6183926409703
 31
0.0
  0
LINE
  5
27A6
330
2BE5
100
AcDbEntity
  8
0
 62
     0
100
AcDbLine
 10
-28.39999999999782
 20
-150.6184261055549
 30
0.0
 11
187.4000000000014
 21
-294.4847254051692
 31
0.0
  0
LINE
  5
27A7
330
2BE5
100
AcDbEntity
  8
0
 62
     0
100
AcDbLine
 10
-77.92776562869403
 20
-117.5999999999985
 30
0.0
 11
-28.39999999999782
 21
-150.6184261055549
 31
0.0
  0
LINE
  5
27A8
330
2BE5
100
AcDbEntity
  8
0
 62
     0
100
AcDbLine
 10
-28.39999999999964
 20
-147.618459570137
 30
0.0
 11
187.3999999999996
 21
-291.4847588697512
 31
0.0
  0
LINE
  5
27A9
330
2BE5
100
AcDbEntity
  8
0
 62
     0
100
AcDbLine
 10
-73.42780433480402
 20
-117.6000000000003
 30
0.0
 11
-28.39999999999964
 21
-147.618459570137
 31
0.0
  0
LINE
  5
27AA
330
2BE5
100
AcDbEntity
  8
0
 62
     0
100
AcDbLine
 10
-28.40000000000145
 20
-144.6184930347216
 30
0.0
 11
187.3999999999996
 21
-288.484792334336
 31
0.0
  0
LINE
  5
27AB
330
2BE5
100
AcDbEntity
  8
0
 62
     0
100
AcDbLine
 10
-68.92784304092311
 20
-117.5999999999994
 30
0.0
 11
-28.40000000000145
 21
-144.6184930347216
 31
0.0
  0
LINE
  5
27AC
330
2BE5
100
AcDbEntity
  8
0
 62
     0
100
AcDbLine
 10
-28.39999999999964
 20
-141.6185264993055
 30
0.0
 11
187.3999999999996
 21
-285.4848257989188
 31
0.0
  0
LINE
  5
27AD
330
2BE5
100
AcDbEntity
  8
0
 62
     0
100
AcDbLine
 10
-64.42788174703491
 20
-117.5999999999994
 30
0.0
 11
-28.39999999999964
 21
-141.6185264993055
 31
0.0
  0
LINE
  5
27AE
330
2BE5
100
AcDbEntity
  8
0
 62
     0
100
AcDbLine
 10
-28.39999999999964
 20
-138.6185599638902
 30
0.0
 11
187.4000000000014
 21
-282.4848592635035
 31
0.0
  0
LINE
  5
27AF
330
2BE5
100
AcDbEntity
  8
0
 62
     0
100
AcDbLine
 10
-59.92792045315218
 20
-117.5999999999994
 30
0.0
 11
-28.39999999999964
 21
-138.6185599638902
 31
0.0
  0
LINE
  5
27B0
330
2BE5
100
AcDbEntity
  8
0
 62
     0
100
AcDbLine
 10
-28.39999999999964
 20
-135.6185934284731
 30
0.0
 11
187.3999999999996
 21
-279.4848927280873
 31
0.0
  0
LINE
  5
27B1
330
2BE5
100
AcDbEntity
  8
0
 62
     0
100
AcDbLine
 10
-55.42795915926581
 20
-117.5999999999985
 30
0.0
 11
-28.39999999999964
 21
-135.6185934284731
 31
0.0
  0
LINE
  5
27B2
330
2BE5
100
AcDbEntity
  8
0
 62
     0
100
AcDbLine
 10
-28.39999999999964
 20
-132.618626893056
 30
0.0
 11
187.4000000000014
 21
-276.4849261926702
 31
0.0
  0
LINE
  5
27B3
330
2BE5
100
AcDbEntity
  8
0
 62
     0
100
AcDbLine
 10
-50.92799786537944
 20
-117.5999999999985
 30
0.0
 11
-28.39999999999964
 21
-132.618626893056
 31
0.0
  0
LINE
  5
27B4
330
2BE5
100
AcDbEntity
  8
0
 62
     0
100
AcDbLine
 10
-28.39999999999782
 20
-129.6186603576407
 30
0.0
 11
187.4000000000014
 21
-273.4849596572549
 31
0.0
  0
LINE
  5
27B5
330
2BE5
100
AcDbEntity
  8
0
 62
     0
100
AcDbLine
 10
-46.42803657149488
 20
-117.5999999999976
 30
0.0
 11
-28.39999999999782
 21
-129.6186603576407
 31
0.0
  0
LINE
  5
27B6
330
2BE5
100
AcDbEntity
  8
0
 62
     0
100
AcDbLine
 10
-28.39999999999964
 20
-126.6186938222245
 30
0.0
 11
187.3999999999996
 21
-270.4849931218368
 31
0.0
  0
LINE
  5
27B7
330
2BE5
100
AcDbEntity
  8
0
 62
     0
100
AcDbLine
 10
-41.9280752776067
 20
-117.5999999999994
 30
0.0
 11
-28.39999999999964
 21
-126.6186938222245
 31
0.0
  0
LINE
  5
27B8
330
2BE5
100
AcDbEntity
  8
0
 62
     0
100
AcDbLine
 10
-28.39999999999964
 20
-123.6187272868092
 30
0.0
 11
187.3999999999996
 21
-267.4850265864225
 31
0.0
  0
LINE
  5
27B9
330
2BE5
100
AcDbEntity
  8
0
 62
     0
100
AcDbLine
 10
-37.42811398372396
 20
-117.5999999999994
 30
0.0
 11
-28.39999999999964
 21
-123.6187272868092
 31
0.0
  0
LINE
  5
27BA
330
2BE5
100
AcDbEntity
  8
0
 62
     0
100
AcDbLine
 10
-28.39999999999782
 20
-120.6187607513911
 30
0.0
 11
187.4000000000014
 21
-264.4850600510044
 31
0.0
  0
LINE
  5
27BB
330
2BE5
100
AcDbEntity
  8
0
 62
     0
100
AcDbLine
 10
-32.92815268983577
 20
-117.5999999999985
 30
0.0
 11
-28.39999999999782
 21
-120.6187607513911
 31
0.0
  0
LINE
  5
27BC
330
2BE5
100
AcDbEntity
  8
0
 62
     0
100
AcDbLine
 10
-28.39999999999964
 20
-117.6187942159758
 30
0.0
 11
187.3999999999996
 21
-261.48509351559
 31
0.0
  0
LINE
  5
27BD
330
2BE5
100
AcDbEntity
  8
0
 62
     0
100
AcDbLine
 10
-28.42819139595304
 20
-117.5999999999985
 30
0.0
 11
-28.39999999999964
 21
-117.6187942159758
 31
0.0
  0
LINE
  5
27BE
330
2BE5
100
AcDbEntity
  8
0
 62
     0
100
AcDbLine
 10
-23.92823010206484
 20
-117.6000000000003
 30
0.0
 11
187.3999999999996
 21
-258.4851269801729
 31
0.0
  0
LINE
  5
27BF
330
2BE5
100
AcDbEntity
  8
0
 62
     0
100
AcDbLine
 10
-19.42826880818029
 20
-117.5999999999994
 30
0.0
 11
187.3999999999996
 21
-255.4851604447577
 31
0.0
  0
LINE
  5
27C0
330
2BE5
100
AcDbEntity
  8
0
 62
     0
100
AcDbLine
 10
-14.92830751429392
 20
-117.5999999999994
 30
0.0
 11
187.4000000000014
 21
-252.4851939093405
 31
0.0
  0
LINE
  5
27C1
330
2BE5
100
AcDbEntity
  8
0
 62
     0
100
AcDbLine
 10
-10.42834622041118
 20
-117.5999999999985
 30
0.0
 11
187.3999999999996
 21
-249.4852273739252
 31
0.0
  0
LINE
  5
27C2
330
2BE5
100
AcDbEntity
  8
0
 62
     0
100
AcDbLine
 10
-5.928384926524811
 20
-117.5999999999985
 30
0.0
 11
187.4000000000014
 21
-246.485260838509
 31
0.0
  0
LINE
  5
27C3
330
2BE5
100
AcDbEntity
  8
0
 62
     0
100
AcDbLine
 10
-1.428423632636621
 20
-117.6000000000003
 30
0.0
 11
187.4000000000014
 21
-243.4852943030928
 31
0.0
  0
LINE
  5
27C4
330
2BE5
100
AcDbEntity
  8
0
 62
     0
100
AcDbLine
 10
3.071537661244292
 20
-117.5999999999976
 30
0.0
 11
187.4000000000014
 21
-240.4853277676766
 31
0.0
  0
LINE
  5
27C5
330
2BE5
100
AcDbEntity
  8
0
 62
     0
100
AcDbLine
 10
7.571498955132483
 20
-117.5999999999994
 30
0.0
 11
187.3999999999996
 21
-237.4853612322586
 31
0.0
  0
LINE
  5
27C6
330
2BE5
100
AcDbEntity
  8
0
 62
     0
100
AcDbLine
 10
12.07146024901702
 20
-117.5999999999985
 30
0.0
 11
187.3999999999996
 21
-234.4853946968433
 31
0.0
  0
LINE
  5
27C7
330
2BE5
100
AcDbEntity
  8
0
 62
     0
100
AcDbLine
 10
16.57142154290523
 20
-117.5999999999985
 30
0.0
 11
187.4000000000014
 21
-231.4854281614271
 31
0.0
  0
LINE
  5
27C8
330
2BE5
100
AcDbEntity
  8
0
 62
     0
100
AcDbLine
 10
21.07138283678613
 20
-117.5999999999976
 30
0.0
 11
187.3999999999996
 21
-228.4854616260118
 31
0.0
  0
LINE
  5
27C9
330
2BE5
100
AcDbEntity
  8
0
 62
     0
100
AcDbLine
 10
25.57134413067615
 20
-117.5999999999994
 30
0.0
 11
187.4000000000014
 21
-225.4854950905947
 31
0.0
  0
LINE
  5
27CA
330
2BE5
100
AcDbEntity
  8
0
 62
     0
100
AcDbLine
 10
30.07130542456071
 20
-117.5999999999994
 30
0.0
 11
187.4000000000014
 21
-222.4855285551794
 31
0.0
  0
LINE
  5
27CB
330
2BE5
100
AcDbEntity
  8
0
 62
     0
100
AcDbLine
 10
34.57126671844708
 20
-117.5999999999985
 30
0.0
 11
187.4000000000014
 21
-219.4855620197623
 31
0.0
  0
LINE
  5
27CC
330
2BE5
100
AcDbEntity
  8
0
 62
     0
100
AcDbLine
 10
39.07122801232799
 20
-117.5999999999985
 30
0.0
 11
187.3999999999977
 21
-216.485595484346
 31
0.0
  0
LINE
  5
27CD
330
2BE5
100
AcDbEntity
  8
0
 62
     0
100
AcDbLine
 10
43.57118930621617
 20
-117.5999999999976
 30
0.0
 11
187.3999999999996
 21
-213.4856289489297
 31
0.0
  0
LINE
  5
27CE
330
2BE5
100
AcDbEntity
  8
0
 62
     0
100
AcDbLine
 10
48.07115060010255
 20
-117.5999999999994
 30
0.0
 11
187.3999999999996
 21
-210.4856624135146
 31
0.0
  0
LINE
  5
27CF
330
2BE5
100
AcDbEntity
  8
0
 62
     0
100
AcDbLine
 10
52.57111189398528
 20
-117.5999999999976
 30
0.0
 11
187.3999999999996
 21
-207.4856958780974
 31
0.0
  0
LINE
  5
27D0
330
2BE5
100
AcDbEntity
  8
0
 62
     0
100
AcDbLine
 10
57.0710731878753
 20
-117.6000000000003
 30
0.0
 11
187.3999999999996
 21
-204.4857293426821
 31
0.0
  0
LINE
  5
27D1
330
2BE5
100
AcDbEntity
  8
0
 62
     0
100
AcDbLine
 10
61.57103448175985
 20
-117.5999999999985
 30
0.0
 11
187.4000000000014
 21
-201.485762807265
 31
0.0
  0
LINE
  5
27D2
330
2BE5
100
AcDbEntity
  8
0
 62
     0
100
AcDbLine
 10
66.0709957756444
 20
-117.5999999999985
 30
0.0
 11
187.3999999999996
 21
-198.4857962718488
 31
0.0
  0
LINE
  5
27D3
330
2BE5
100
AcDbEntity
  8
0
 62
     0
100
AcDbLine
 10
70.57095706952714
 20
-117.5999999999976
 30
0.0
 11
187.3999999999996
 21
-195.4858297364335
 31
0.0
  0
LINE
  5
27D4
330
2BE5
100
AcDbEntity
  8
0
 62
     0
100
AcDbLine
 10
75.07091836341533
 20
-117.5999999999976
 30
0.0
 11
187.4000000000014
 21
-192.4858632010164
 31
0.0
  0
LINE
  5
27D5
330
2BE5
100
AcDbEntity
  8
0
 62
     0
100
AcDbLine
 10
79.5708796573017
 20
-117.5999999999985
 30
0.0
 11
187.3999999999996
 21
-189.4858966656
 31
0.0
  0
LINE
  5
27D6
330
2BE5
100
AcDbEntity
  8
0
 62
     0
100
AcDbLine
 10
84.07084095118262
 20
-117.5999999999967
 30
0.0
 11
187.3999999999996
 21
-186.4859301301829
 31
0.0
  0
LINE
  5
27D7
330
2BE5
100
AcDbEntity
  8
0
 62
     0
100
AcDbLine
 10
88.57080224507082
 20
-117.5999999999976
 30
0.0
 11
187.3999999999996
 21
-183.4859635947687
 31
0.0
  0
LINE
  5
27D8
330
2BE5
100
AcDbEntity
  8
0
 62
     0
100
AcDbLine
 10
93.0707635389572
 20
-117.5999999999976
 30
0.0
 11
187.4000000000014
 21
-180.4859970593516
 31
0.0
  0
LINE
  5
27D9
330
2BE5
100
AcDbEntity
  8
0
 62
     0
100
AcDbLine
 10
97.57072483284357
 20
-117.5999999999994
 30
0.0
 11
187.3999999999996
 21
-177.4860305239363
 31
0.0
  0
LINE
  5
27DA
330
2BE5
100
AcDbEntity
  8
0
 62
     0
100
AcDbLine
 10
102.0706861267263
 20
-117.5999999999967
 30
0.0
 11
187.4000000000014
 21
-174.4860639885191
 31
0.0
  0
LINE
  5
27DB
330
2BE5
100
AcDbEntity
  8
0
 62
     0
100
AcDbLine
 10
106.5706474206163
 20
-117.6000000000003
 30
0.0
 11
187.4000000000014
 21
-171.4860974531038
 31
0.0
  0
LINE
  5
27DC
330
2BE5
100
AcDbEntity
  8
0
 62
     0
100
AcDbLine
 10
111.070608714499
 20
-117.5999999999985
 30
0.0
 11
187.4000000000014
 21
-168.4861309176874
 31
0.0
  0
LINE
  5
27DD
330
2BE5
100
AcDbEntity
  8
0
 62
     0
100
AcDbLine
 10
115.5705700083854
 20
-117.5999999999994
 30
0.0
 11
187.3999999999996
 21
-165.4861643822723
 31
0.0
  0
LINE
  5
27DE
330
2BE5
100
AcDbEntity
  8
0
 62
     0
100
AcDbLine
 10
120.0705313022681
 20
-117.5999999999976
 30
0.0
 11
187.3999999999996
 21
-162.4861978468543
 31
0.0
  0
LINE
  5
27DF
330
2BE5
100
AcDbEntity
  8
0
 62
     0
100
AcDbLine
 10
124.5704925961581
 20
-117.5999999999994
 30
0.0
 11
187.3999999999996
 21
-159.4862313114372
 31
0.0
  0
LINE
  5
27E0
330
2BE5
100
AcDbEntity
  8
0
 62
     0
100
AcDbLine
 10
129.0704538900409
 20
-117.5999999999985
 30
0.0
 11
187.3999999999996
 21
-156.4862647760219
 31
0.0
  0
LINE
  5
27E1
330
2BE5
100
AcDbEntity
  8
0
 62
     0
100
AcDbLine
 10
133.5704151839272
 20
-117.5999999999985
 30
0.0
 11
187.3999999999996
 21
-153.4862982406048
 31
0.0
  0
LINE
  5
27E2
330
2BE5
100
AcDbEntity
  8
0
 62
     0
100
AcDbLine
 10
138.0703764778118
 20
-117.5999999999976
 30
0.0
 11
187.4000000000014
 21
-150.4863317051904
 31
0.0
  0
LINE
  5
27E3
330
2BE5
100
AcDbEntity
  8
0
 62
     0
100
AcDbLine
 10
142.5703377716982
 20
-117.5999999999976
 30
0.0
 11
187.3999999999996
 21
-147.4863651697733
 31
0.0
  0
LINE
  5
27E4
330
2BE5
100
AcDbEntity
  8
0
 62
     0
100
AcDbLine
 10
147.0702990655827
 20
-117.5999999999985
 30
0.0
 11
187.3999999999996
 21
-144.486398634358
 31
0.0
  0
LINE
  5
27E5
330
2BE5
100
AcDbEntity
  8
0
 62
     0
100
AcDbLine
 10
151.5702603594691
 20
-117.5999999999967
 30
0.0
 11
187.4000000000014
 21
-141.4864320989409
 31
0.0
  0
LINE
  5
27E6
330
2BE5
100
AcDbEntity
  8
0
 62
     0
100
AcDbLine
 10
156.0702216533536
 20
-117.5999999999985
 30
0.0
 11
187.4000000000014
 21
-138.4864655635256
 31
0.0
  0
LINE
  5
27E7
330
2BE5
100
AcDbEntity
  8
0
 62
     0
100
AcDbLine
 10
160.57018294724
 20
-117.5999999999976
 30
0.0
 11
187.3999999999996
 21
-135.4864990281084
 31
0.0
  0
LINE
  5
27E8
330
2BE5
100
AcDbEntity
  8
0
 62
     0
100
AcDbLine
 10
165.0701442411264
 20
-117.5999999999994
 30
0.0
 11
187.3999999999996
 21
-132.4865324926932
 31
0.0
  0
LINE
  5
27E9
330
2BE5
100
AcDbEntity
  8
0
 62
     0
100
AcDbLine
 10
169.5701055350109
 20
-117.5999999999967
 30
0.0
 11
187.4000000000014
 21
-129.4865659572761
 31
0.0
  0
LINE
  5
27EA
330
2BE5
100
AcDbEntity
  8
0
 62
     0
100
AcDbLine
 10
174.0700668288991
 20
-117.6000000000003
 30
0.0
 11
187.3999999999996
 21
-126.4865994218608
 31
0.0
  0
LINE
  5
27EB
330
2BE5
100
AcDbEntity
  8
0
 62
     0
100
AcDbLine
 10
178.5700281227837
 20
-117.5999999999985
 30
0.0
 11
187.4000000000014
 21
-123.4866328864436
 31
0.0
  0
LINE
  5
27EC
330
2BE5
100
AcDbEntity
  8
0
 62
     0
100
AcDbLine
 10
183.06998941667
 20
-117.5999999999976
 30
0.0
 11
187.4000000000014
 21
-120.4866663510274
 31
0.0
  0
ENDBLK
  5
27ED
330
2BE5
100
AcDbEntity
  8
0
100
AcDbBlockEnd
  0
ENDSEC
  0
SECTION
  2
ENTITIES
  0
TEXT
  5
953
330
2B04
100
AcDbEntity
  8
OUTLINE
  6
Continuous
 62
     3
100
AcDbText
 10
-418.231467
 20
13.715189
 30
0.0
 40
64.0
  1
 
 41
0.9
100
AcDbText
  0
TEXT
  5
954
330
2B04
100
AcDbEntity
  8
OUTLINE
  6
Continuous
 62
     3
100
AcDbText
 10
-418.231467
 20
13.715189
 30
0.0
 40
64.0
  1
 
 41
0.9
100
AcDbText
  0
TEXT
  5
955
330
2B04
100
AcDbEntity
  8
OUTLINE
  6
Continuous
 62
     3
100
AcDbText
 10
1341.41903
 20
-706.0588199999997
 30
0.0
 40
64.0
  1
 
 41
0.9
100
AcDbText
  0
TEXT
  5
956
330
2B04
100
AcDbEntity
  8
OUTLINE
  6
Continuous
 62
     3
100
AcDbText
 10
1341.41903
 20
-706.0588199999997
 30
0.0
 40
64.0
  1
 
 41
0.9
100
AcDbText
  0
TEXT
  5
957
330
2B04
100
AcDbEntity
  8
OUTLINE
  6
Continuous
 62
     3
100
AcDbText
 10
1341.41903
 20
-706.0588199999997
 30
0.0
 40
64.0
  1
 
 41
0.9
100
AcDbText
  0
TEXT
  5
958
330
2B04
100
AcDbEntity
  8
OUTLINE
  6
Continuous
 62
     3
100
AcDbText
 10
1341.41903
 20
-706.0588199999997
 30
0.0
 40
64.0
  1
 
 41
0.9
100
AcDbText
  0
TEXT
  5
2856
330
2B04
100
AcDbEntity
  8
ETC
100
AcDbText
 10
256.2468308916505
 20
472.5319883376815
 30
0.0
 40
64.0
  1
システム部材
 41
0.9
100
AcDbText
  0
TEXT
  5
2857
330
2B04
100
AcDbEntity
  8
ETC
100
AcDbText
 10
262.454828891648
 20
573.4153143376817
 30
0.0
 40
64.0
  1
QW-35SDBM_6
 41
0.9
100
AcDbText
  0
TEXT
  5
2858
330
2B04
100
AcDbEntity
  8
ETC
100
AcDbText
 10
256.2468308916505
 20
372.5319883376816
 30
0.0
 40
64.0
  1
QW-35SDBM
 41
0.9
100
AcDbText
  0
LINE
  5
2859
330
2B04
100
AcDbEntity
  8
DETAIL
100
AcDbLine
 10
-187.3999999999977
 20
-117.5999999999998
 30
0.0
 11
187.400000000001
 21
-117.5999999999998
 31
0.0
  0
LINE
  5
285A
330
2B04
100
AcDbEntity
  8
DETAIL
100
AcDbLine
 10
-187.3999999999977
 20
-436.4000000000006
 30
0.0
 11
187.400000000001
 21
-436.4000000000006
 31
0.0
  0
LINE
  5
285B
330
2B04
100
AcDbEntity
  8
DETAIL
100
AcDbLine
 10
-187.3999999999977
 20
-436.4000000000006
 30
0.0
 11
-187.3999999999977
 21
-117.5999999999998
 31
0.0
  0
LINE
  5
285C
330
2B04
100
AcDbEntity
  8
NOTE
100
AcDbLine
 10
-217.0
 20
12.49999999999999
 30
0.0
 11
-217.0
 21
-12.5
 31
0.0
  0
POINT
  5
285D
330
2B04
100
AcDbEntity
  8
ARRANGE
100
AcDbPoint
 10
0.0
 20
0.0
 30
0.0
 39
50.0
  0
LINE
  5
285E
330
2B04
100
AcDbEntity
  8
DETAIL
100
AcDbLine
 10
187.400000000001
 20
-436.4000000000006
 30
0.0
 11
187.400000000001
 21
-117.5999999999998
 31
0.0
  0
LINE
  5
285F
330
2B04
100
AcDbEntity
  8
BASIS
100
AcDbLine
 10
0.0
 20
25.0
 30
0.0
 11
0.0
 21
-497.9999999999999
 31
0.0
  0
CIRCLE
  5
2860
330
2B04
100
AcDbEntity
  8
ARRANGE
100
AcDbCircle
 10
0.0
 20
0.0
 30
0.0
 40
40.0
  0
LINE
  5
2861
330
2B04
100
AcDbEntity
  8
NOTE
100
AcDbLine
 10
217.0
 20
-12.5
 30
0.0
 11
217.0
 21
12.49999999999999
 31
0.0
  0
INSERT
  5
2862
330
2B04
100
AcDbEntity
  8
0
100
AcDbBlockReference
  2
*U74
 10
0.0
 20
0.0
 30
0.0
1001
ACAD
1000
DSTYLE
1002
{
1070
    41
1040
12.0
1070
    42
1040
20.0
1070
    43
1040
200.0
1070
    44
1040
20.0
1070
    73
1070
     0
1070
    74
1070
     0
1070
    77
1070
     1
1070
    78
1070
     8
1070
   140
1040
64.0
1070
   147
1040
50.0
1070
   172
1070
     1
1070
   174
1070
     1
1070
   275
1070
     0
1070
   284
1070
     0
1070
   285
1070
     0
1070
   286
1070
     0
1070
   341
1005
0
1070
   342
1005
0
1002
}
  0
INSERT
  5
2863
330
2B04
100
AcDbEntity
  8
0
100
AcDbBlockReference
  2
*U75
 10
0.0
 20
0.0
 30
0.0
  0
LINE
  5
2864
330
2B04
100
AcDbEntity
  8
DETAIL
100
AcDbLine
 10
-217.0
 20
-86.99999999999999
 30
0.0
 11
217.0
 21
-86.99999999999999
 31
0.0
  0
LINE
  5
2865
330
2B04
100
AcDbEntity
  8
DETAIL
100
AcDbLine
 10
-203.0
 20
-101.9999999999999
 30
0.0
 11
203.0
 21
-101.9999999999999
 31
0.0
  0
LINE
  5
2866
330
2B04
100
AcDbEntity
  8
DETAIL
100
AcDbLine
 10
-242.0
 20
-9.999999999999992
 30
0.0
 11
242.0
 21
-9.999999999999992
 31
0.0
  0
LINE
  5
2867
330
2B04
100
AcDbEntity
  8
DETAIL
100
AcDbLine
 10
-217.0
 20
-451.9999999999999
 30
0.0
 11
203.0
 21
-451.9999999999999
 31
0.0
  0
LINE
  5
2868
330
2B04
100
AcDbEntity
  8
DETAIL
100
AcDbLine
 10
-203.0
 20
-472.9999999999999
 30
0.0
 11
-203.0
 21
-102.0000000000008
 31
0.0
  0
LINE
  5
2869
330
2B04
100
AcDbEntity
  8
DETAIL
100
AcDbLine
 10
-217.0
 20
-86.99999999999999
 30
0.0
 11
-217.0
 21
-451.9999999999999
 31
0.0
  0
LINE
  5
286A
330
2B04
100
AcDbEntity
  8
DETAIL
100
AcDbLine
 10
-242.0
 20
-9.999999999999992
 30
0.0
 11
-242.0
 21
0.0
 31
0.0
  0
LINE
  5
286B
330
2B04
100
AcDbEntity
  8
DETAIL
100
AcDbLine
 10
-203.0
 20
-161.9999999999998
 30
0.0
 11
-203.0
 21
-101.9999999999999
 31
0.0
  0
LINE
  5
286C
330
2B04
100
AcDbEntity
  8
DETAIL
100
AcDbLine
 10
-203.0
 20
-86.99999999999999
 30
0.0
 11
-203.0
 21
-9.999999999999992
 31
0.0
  0
LINE
  5
286D
330
2B04
100
AcDbEntity
  8
DETAIL
100
AcDbLine
 10
-203.0
 20
-86.99999999999999
 30
0.0
 11
-203.0
 21
-9.999999999999992
 31
0.0
  0
LINE
  5
286E
330
2B04
100
AcDbEntity
  8
DETAIL
100
AcDbLine
 10
203.0
 20
-472.9999999999999
 30
0.0
 11
203.0
 21
-101.9999999999999
 31
0.0
  0
LINE
  5
286F
330
2B04
100
AcDbEntity
  8
DETAIL
100
AcDbLine
 10
217.0
 20
-86.99999999999999
 30
0.0
 11
217.0
 21
-451.9999999999999
 31
0.0
  0
LINE
  5
2870
330
2B04
100
AcDbEntity
  8
DETAIL
100
AcDbLine
 10
203.0
 20
-86.99999999999999
 30
0.0
 11
203.0
 21
-9.999999999999992
 31
0.0
  0
LINE
  5
2871
330
2B04
100
AcDbEntity
  8
DETAIL
100
AcDbLine
 10
86.99999999999954
 20
-451.9999999999999
 30
0.0
 11
217.0
 21
-451.9999999999999
 31
0.0
  0
LINE
  5
2872
330
2B04
100
AcDbEntity
  8
DETAIL
100
AcDbLine
 10
242.0
 20
0.0
 30
0.0
 11
242.0
 21
-9.999999999999992
 31
0.0
  0
LINE
  5
2873
330
2B04
100
AcDbEntity
  8
DETAIL
100
AcDbLine
 10
-203.0
 20
-466.9999999999999
 30
0.0
 11
203.0
 21
-466.9999999999999
 31
0.0
  0
LINE
  5
2874
330
2B04
100
AcDbEntity
  8
DETAIL
100
AcDbLine
 39
50.0
 10
-203.0
 20
-472.9999999999999
 30
0.0
 11
203.0
 21
-472.9999999999999
 31
0.0
  0
LINE
  5
2875
330
2B04
100
AcDbEntity
  8
OUTLINE
100
AcDbLine
 10
-217.0
 20
-86.99999999999999
 30
0.0
 11
217.0
 21
-86.99999999999999
 31
0.0
  0
LINE
  5
2876
330
2B04
100
AcDbEntity
  8
OUTLINE
100
AcDbLine
 10
-203.0
 20
-101.9999999999999
 30
0.0
 11
203.0
 21
-101.9999999999999
 31
0.0
  0
LINE
  5
2877
330
2B04
100
AcDbEntity
  8
OUTLINE
100
AcDbLine
 10
-242.0
 20
-9.999999999999992
 30
0.0
 11
242.0
 21
-9.999999999999992
 31
0.0
  0
LINE
  5
2878
330
2B04
100
AcDbEntity
  8
OUTLINE
100
AcDbLine
 10
-217.0
 20
-451.9999999999999
 30
0.0
 11
203.0
 21
-451.9999999999999
 31
0.0
  0
LINE
  5
2879
330
2B04
100
AcDbEntity
  8
OUTLINE
100
AcDbLine
 10
-203.0
 20
-472.9999999999999
 30
0.0
 11
-203.0
 21
-102.0000000000008
 31
0.0
  0
LINE
  5
287A
330
2B04
100
AcDbEntity
  8
OUTLINE
100
AcDbLine
 10
-217.0
 20
-86.99999999999999
 30
0.0
 11
-217.0
 21
-451.9999999999999
 31
0.0
  0
LINE
  5
287B
330
2B04
100
AcDbEntity
  8
OUTLINE
100
AcDbLine
 10
-242.0
 20
-9.999999999999992
 30
0.0
 11
-242.0
 21
0.0
 31
0.0
  0
LINE
  5
287C
330
2B04
100
AcDbEntity
  8
OUTLINE
100
AcDbLine
 10
-203.0
 20
-161.9999999999998
 30
0.0
 11
-203.0
 21
-101.9999999999999
 31
0.0
  0
LINE
  5
287D
330
2B04
100
AcDbEntity
  8
OUTLINE
100
AcDbLine
 10
-203.0
 20
-86.99999999999999
 30
0.0
 11
-203.0
 21
-9.999999999999992
 31
0.0
  0
LINE
  5
287E
330
2B04
100
AcDbEntity
  8
OUTLINE
100
AcDbLine
 10
-203.0
 20
-86.99999999999999
 30
0.0
 11
-203.0
 21
-9.999999999999992
 31
0.0
  0
LINE
  5
287F
330
2B04
100
AcDbEntity
  8
OUTLINE
100
AcDbLine
 10
203.0
 20
-472.9999999999999
 30
0.0
 11
203.0
 21
-101.9999999999999
 31
0.0
  0
LINE
  5
2880
330
2B04
100
AcDbEntity
  8
OUTLINE
100
AcDbLine
 10
217.0
 20
-86.99999999999999
 30
0.0
 11
217.0
 21
-451.9999999999999
 31
0.0
  0
LINE
  5
2881
330
2B04
100
AcDbEntity
  8
OUTLINE
100
AcDbLine
 10
203.0
 20
-86.99999999999999
 30
0.0
 11
203.0
 21
-9.999999999999992
 31
0.0
  0
LINE
  5
2882
330
2B04
100
AcDbEntity
  8
OUTLINE
100
AcDbLine
 10
86.99999999999954
 20
-451.9999999999999
 30
0.0
 11
217.0
 21
-451.9999999999999
 31
0.0
  0
LINE
  5
2883
330
2B04
100
AcDbEntity
  8
OUTLINE
100
AcDbLine
 10
242.0
 20
0.0
 30
0.0
 11
242.0
 21
-9.999999999999992
 31
0.0
  0
LINE
  5
2884
330
2B04
100
AcDbEntity
  8
OUTLINE
100
AcDbLine
 10
-203.0
 20
-466.9999999999999
 30
0.0
 11
203.0
 21
-466.9999999999999
 31
0.0
  0
LINE
  5
2885
330
2B04
100
AcDbEntity
  8
OUTLINE
100
AcDbLine
 39
50.0
 10
-203.0
 20
-472.9999999999999
 30
0.0
 11
203.0
 21
-472.9999999999999
 31
0.0
  0
LINE
  5
2886
330
2B04
100
AcDbEntity
  8
DETAIL
100
AcDbLine
 39
50.0
 10
-242.0
 20
0.0
 30
0.0
 11
242.0
 21
0.0
 31
0.0
  0
LINE
  5
2887
330
2B04
100
AcDbEntity
  8
NOTE
100
AcDbLine
 39
50.0
 10
-229.5
 20
0.0
 30
0.0
 11
-204.5
 21
0.0
 31
0.0
  0
LINE
  5
2888
330
2B04
100
AcDbEntity
  8
NOTE
100
AcDbLine
 39
50.0
 10
204.5
 20
0.0
 30
0.0
 11
229.5
 21
0.0
 31
0.0
  0
LINE
  5
2889
330
2B04
100
AcDbEntity
  8
OUTLINE
100
AcDbLine
 39
50.0
 10
-242.0
 20
0.0
 30
0.0
 11
242.0
 21
0.0
 31
0.0
  0
INSERT
  5
288A
330
2B04
100
AcDbEntity
  8
DETAIL
  6
Continuous
100
AcDbBlockReference
  2
*X76
 10
0.0
 20
0.0
 30
0.0
1001
ACADANNOTATIVE
1000
AnnotativeData
1002
{
1070
     1
1070
     0
1002
}
1001
ACAD
1000
HATCH
1002
{
1070
    19
1000
LINE
1040
19.969
1040
0.5880014249968896
1000
R14_HATCH_DATA
1000
5BC4
1011
1.0
1021
0.0
1031
0.0
1011
0.0
1021
1.0
1031
0.0
1011
0.0
1021
0.0
1031
1.0
1040
0.0
1010
0.0
1020
0.0
1030
1.0
1000
LINE
1070
     0
1070
     0
1071
        2
1071
        7
1070
     0
1070
     1
1071
        6
1040
-28.39999999999782
1040
-117.5999999999998
1040
-187.4000000000014
1040
-117.5999999999998
1040
-187.3999999999942
1040
-436.3999999999988
1040
187.3999999999976
1040
-436.3999999999988
1040
187.4000000000011
1040
-311.3999999999987
1040
-28.39999999999782
1040
-311.3999999999987
1071
        0
1071
       23
1070
     0
1070
     1
1071
        4
1040
187.3999999999976
1040
-117.5999999999998
1040
-28.39999999999782
1040
-117.5999999999998
1040
-28.39999999999782
1040
-311.3999999999987
1040
187.4000000000011
1040
-311.3999999999987
1071
        0
1070
     0
1070
     1
1040
0.5880014249968896
1040
19.969
1070
     0
1070
     1
1040
0.5880014249968896
1040
19733.72057328244
1040
4035.474507531935
1040
-1.384598579568018
1040
2.076903172775084
1070
     0
1040
0.8096234466403329
1071
        2
1040
-105.7850310763569
1040
-260.582837424045
1040
0.0
1040
117.9833088850498
1040
-236.3214214842224
1040
0.0
1002
}
  0
INSERT
  5
288B
330
2B04
100
AcDbEntity
  8
DETAIL
  6
Continuous
100
AcDbBlockReference
  2
*X77
 10
0.0
 20
0.0
 30
0.0
1001
ACADANNOTATIVE
1000
AnnotativeData
1002
{
1070
     1
1070
     0
1002
}
1001
ACAD
1000
HATCH
1002
{
1070
    19
1000
LINE
1040
19.969
1040
5.695183882182695
1000
R14_HATCH_DATA
1000
5BCA
1011
1.0
1021
0.0
1031
0.0
1011
0.0
1021
1.0
1031
0.0
1011
0.0
1021
0.0
1031
1.0
1040
0.0
1010
0.0
1020
0.0
1030
1.0
1000
LINE
1070
     0
1070
     0
1071
        2
1071
        7
1070
     0
1070
     1
1071
        6
1040
-28.39999999999782
1040
-117.5999999999998
1040
-187.4000000000014
1040
-117.5999999999998
1040
-187.3999999999942
1040
-436.3999999999988
1040
187.3999999999976
1040
-436.3999999999988
1040
187.4000000000011
1040
-311.3999999999987
1040
-28.39999999999782
1040
-311.3999999999987
1071
        0
1071
       23
1070
     0
1070
     1
1071
        4
1040
-28.39999999999782
1040
-117.5999999999998
1040
-28.39999999999782
1040
-311.3999999999987
1040
187.4000000000011
1040
-311.3999999999987
1040
187.4000000000011
1040
-117.5999999999998
1071
        0
1070
     0
1070
     1
1040
5.695183882182695
1040
19.969
1070
     0
1070
     1
1040
5.695183882182695
1040
19733.72057328244
1040
4035.474507531935
1040
1.384598579568018
1040
2.076903172775084
1070
     0
1040
0.4602610330013285
1071
        2
1040
-82.91296464096737
1040
-271.3954169144277
1040
0.0
1040
82.97801823268653
1040
-162.9693230282423
1040
0.0
1002
}
  0
LINE
  5
288C
330
2B04
100
AcDbEntity
  8
DETAIL
100
AcDbLine
 10
-187.3999999999977
 20
-117.5999999999998
 30
0.0
 11
187.400000000001
 21
-117.5999999999998
 31
0.0
  0
LINE
  5
288D
330
2B04
100
AcDbEntity
  8
DETAIL
100
AcDbLine
 10
-187.3999999999977
 20
-436.3999999999985
 30
0.0
 11
187.400000000001
 21
-436.3999999999985
 31
0.0
  0
LINE
  5
288E
330
2B04
100
AcDbEntity
  8
DETAIL
100
AcDbLine
 10
-187.3999999999977
 20
-436.3999999999985
 30
0.0
 11
-187.3999999999977
 21
-117.5999999999998
 31
0.0
  0
LINE
  5
288F
330
2B04
100
AcDbEntity
  8
DETAIL
100
AcDbLine
 10
187.400000000001
 20
-436.3999999999985
 30
0.0
 11
187.400000000001
 21
-117.5999999999998
 31
0.0
  0
LINE
  5
2890
330
2B04
100
AcDbEntity
  8
DETAIL
100
AcDbLine
 10
-187.3999999999977
 20
-117.5999999999998
 30
0.0
 11
187.400000000001
 21
-117.5999999999998
 31
0.0
  0
LINE
  5
2891
330
2B04
100
AcDbEntity
  8
DETAIL
100
AcDbLine
 10
-187.3999999999977
 20
-436.3999999999985
 30
0.0
 11
187.400000000001
 21
-436.3999999999985
 31
0.0
  0
LINE
  5
2892
330
2B04
100
AcDbEntity
  8
DETAIL
100
AcDbLine
 10
-187.3999999999977
 20
-436.3999999999985
 30
0.0
 11
-187.3999999999977
 21
-117.5999999999998
 31
0.0
  0
LINE
  5
2893
330
2B04
100
AcDbEntity
  8
DETAIL
100
AcDbLine
 10
187.400000000001
 20
-436.3999999999985
 30
0.0
 11
187.400000000001
 21
-117.5999999999998
 31
0.0
  0
LINE
  5
2894
330
2B04
100
AcDbEntity
  8
SIZE
100
AcDbLine
 10
217.0
 20
32.50000000000001
 30
0.0
 11
217.0
 21
181.3534423330708
 31
0.0
  0
LINE
  5
2895
330
2B04
100
AcDbEntity
  8
SIZE
100
AcDbLine
 10
-217.0
 20
32.50000000000001
 30
0.0
 11
-217.0
 21
181.3534423330708
 31
0.0
  0
LINE
  5
2896
330
2B04
100
AcDbEntity
  8
SIZE
100
AcDbLine
 10
205.0
 20
161.353442333071
 30
0.0
 11
-205.0
 21
161.353442333071
 31
0.0
  0
INSERT
  5
2897
330
2B04
100
AcDbEntity
  8
SIZE
100
AcDbBlockReference
  2
_DOTBLANK
 10
217.0
 20
161.353442333071
 30
0.0
 41
12.0
 42
12.0
 43
12.0
  0
INSERT
  5
2898
330
2B04
100
AcDbEntity
  8
SIZE
100
AcDbBlockReference
  2
_DOTBLANK
 10
-217.0
 20
161.353442333071
 30
0.0
 41
12.0
 42
12.0
 43
12.0
 50
180.0
  0
LINE
  5
2899
330
2B04
100
AcDbEntity
  8
SIZE
100
AcDbLine
 10
242.0
 20
20.0
 30
0.0
 11
242.0
 21
297.486592936517
 31
0.0
  0
LINE
  5
289A
330
2B04
100
AcDbEntity
  8
SIZE
100
AcDbLine
 10
-242.0
 20
20.0
 30
0.0
 11
-242.0
 21
297.486592936517
 31
0.0
  0
LINE
  5
289B
330
2B04
100
AcDbEntity
  8
SIZE
100
AcDbLine
 10
230.0
 20
277.4865929365168
 30
0.0
 11
-230.0
 21
277.4865929365168
 31
0.0
  0
INSERT
  5
289C
330
2B04
100
AcDbEntity
  8
SIZE
100
AcDbBlockReference
  2
_DOTBLANK
 10
242.0
 20
277.4865929365168
 30
0.0
 41
12.0
 42
12.0
 43
12.0
  0
INSERT
  5
289D
330
2B04
100
AcDbEntity
  8
SIZE
100
AcDbBlockReference
  2
_DOTBLANK
 10
-242.0
 20
277.4865929365168
 30
0.0
 41
12.0
 42
12.0
 43
12.0
 50
180.0
  0
LINE
  5
289E
330
2B04
100
AcDbEntity
  8
SIZE
100
AcDbLine
 10
261.9999999999996
 20
0.0
 30
0.0
 11
363.1624105568368
 21
0.0
 31
0.0
  0
LINE
  5
289F
330
2B04
100
AcDbEntity
  8
SIZE
100
AcDbLine
 10
261.9999999999996
 20
-9.999999999999992
 30
0.0
 11
363.1624105568368
 21
-9.999999999999992
 31
0.0
  0
LINE
  5
28A0
330
2B04
100
AcDbEntity
  8
SIZE
100
AcDbLine
 10
343.1624105568367
 20
11.99999999999999
 30
0.0
 11
343.1624105568367
 21
24.0
 31
0.0
  0
LINE
  5
28A1
330
2B04
100
AcDbEntity
  8
SIZE
100
AcDbLine
 10
343.1624105568367
 20
-22.0
 30
0.0
 11
343.1624105568367
 21
-136.2857142857143
 31
0.0
  0
INSERT
  5
28A2
330
2B04
100
AcDbEntity
  8
SIZE
100
AcDbBlockReference
  2
_DOTBLANK
 10
343.1624105568367
 20
0.0
 30
0.0
 41
12.0
 42
12.0
 43
12.0
 50
270.0
  0
INSERT
  5
28A3
330
2B04
100
AcDbEntity
  8
SIZE
100
AcDbBlockReference
  2
_DOTBLANK
 10
343.1624105568367
 20
-9.999999999999992
 30
0.0
 41
12.0
 42
12.0
 43
12.0
 50
90.0
  0
LINE
  5
28A4
330
2B04
100
AcDbEntity
  8
SIZE
100
AcDbLine
 10
-237.0
 20
-451.9999999999999
 30
0.0
 11
-460.2017037420736
 21
-451.9999999999996
 31
0.0
  0
LINE
  5
28A5
330
2B04
100
AcDbEntity
  8
SIZE
100
AcDbLine
 10
-223.0
 20
-472.9999999999999
 30
0.0
 11
-460.2017037420736
 21
-472.9999999999995
 31
0.0
  0
LINE
  5
28A6
330
2B04
100
AcDbEntity
  8
SIZE
100
AcDbLine
 10
-440.2017037420736
 20
-439.9999999999997
 30
0.0
 11
-440.2017037420736
 21
-427.9999999999997
 31
0.0
  0
LINE
  5
28A7
330
2B04
100
AcDbEntity
  8
SIZE
100
AcDbLine
 10
-440.2017037420736
 20
-484.9999999999996
 30
0.0
 11
-440.2017037420736
 21
-585.5714285714285
 31
0.0
  0
INSERT
  5
28A8
330
2B04
100
AcDbEntity
  8
SIZE
100
AcDbBlockReference
  2
_DOTBLANK
 10
-440.2017037420736
 20
-451.9999999999996
 30
0.0
 41
12.0
 42
12.0
 43
12.0
 50
270.0
  0
INSERT
  5
28A9
330
2B04
100
AcDbEntity
  8
SIZE
100
AcDbBlockReference
  2
_DOTBLANK
 10
-440.2017037420736
 20
-472.9999999999995
 30
0.0
 41
12.0
 42
12.0
 43
12.0
 50
90.0
  0
LINE
  5
28AA
330
2B04
100
AcDbEntity
  8
SIZE
100
AcDbLine
 10
-237.0
 20
-451.9999999999999
 30
0.0
 11
-460.2017037420736
 21
-451.9999999999996
 31
0.0
  0
LINE
  5
28AB
330
2B04
100
AcDbEntity
  8
SIZE
100
AcDbLine
 10
-262.0
 20
0.0
 30
0.0
 11
-460.2017037420736
 21
0.0000000000001137
 31
0.0
  0
LINE
  5
28AC
330
2B04
100
AcDbEntity
  8
SIZE
100
AcDbLine
 10
-440.2017037420736
 20
-439.9999999999997
 30
0.0
 11
-440.2017037420736
 21
-11.99999999999988
 31
0.0
  0
INSERT
  5
28AD
330
2B04
100
AcDbEntity
  8
SIZE
100
AcDbBlockReference
  2
_DOTBLANK
 10
-440.2017037420736
 20
-451.9999999999996
 30
0.0
 41
12.0
 42
12.0
 43
12.0
 50
270.0
  0
INSERT
  5
28AE
330
2B04
100
AcDbEntity
  8
SIZE
100
AcDbBlockReference
  2
_DOTBLANK
 10
-440.2017037420736
 20
0.0
 30
0.0
 41
12.0
 42
12.0
 43
12.0
 50
90.0
  0
LINE
  5
28AF
330
2B04
100
AcDbEntity
  8
SIZE
100
AcDbLine
 10
217.0
 20
-471.9999999999999
 30
0.0
 11
217.0
 21
-647.8244879514168
 31
0.0
  0
LINE
  5
28B0
330
2B04
100
AcDbEntity
  8
SIZE
100
AcDbLine
 10
-217.0
 20
-471.9999999999999
 30
0.0
 11
-217.0
 21
-647.8244879514168
 31
0.0
  0
LINE
  5
28B1
330
2B04
100
AcDbEntity
  8
SIZE
100
AcDbLine
 10
205.0
 20
-627.8244879514168
 30
0.0
 11
-205.0
 21
-627.8244879514168
 31
0.0
  0
INSERT
  5
28B2
330
2B04
100
AcDbEntity
  8
SIZE
100
AcDbBlockReference
  2
_DOTBLANK
 10
217.0
 20
-627.8244879514168
 30
0.0
 41
12.0
 42
12.0
 43
12.0
  0
INSERT
  5
28B3
330
2B04
100
AcDbEntity
  8
SIZE
100
AcDbBlockReference
  2
_DOTBLANK
 10
-217.0
 20
-627.8244879514168
 30
0.0
 41
12.0
 42
12.0
 43
12.0
 50
180.0
  0
TEXT
  5
28B4
330
2B04
100
AcDbEntity
  8
SIZE
100
AcDbText
 10
-75.42857142857155
 20
-617.8244879514168
 30
0.0
 40
64.0
  1
434
 41
0.9
100
AcDbText
  0
TEXT
  5
28B5
330
2B04
100
AcDbEntity
  8
SIZE
100
AcDbText
 10
-450.2017037420737
 20
-575.5714285714288
 30
0.0
 40
64.0
  1
21
 50
90.0
 41
0.9
100
AcDbText
  0
TEXT
  5
28B6
330
2B04
100
AcDbEntity
  8
SIZE
100
AcDbText
 10
-450.2017037420737
 20
-291.8292179399985
 30
0.0
 40
64.0
  1
452
 50
90.0
 41
0.9
100
AcDbText
  0
TEXT
  5
28B7
330
2B04
100
AcDbEntity
  8
SIZE
100
AcDbText
 10
-75.98444906256462
 20
171.353442333071
 30
0.0
 40
64.0
  1
434
 41
0.9
100
AcDbText
  0
TEXT
  5
28B8
330
2B04
100
AcDbEntity
  8
SIZE
100
AcDbText
 10
-75.42857142857155
 20
287.4865929365168
 30
0.0
 40
64.0
  1
484
 41
0.9
100
AcDbText
  0
TEXT
  5
28B9
330
2B04
100
AcDbEntity
  8
SIZE
100
AcDbText
 10
333.1624105568367
 20
-126.2857142857141
 30
0.0
 40
64.0
  1
10
 50
90.0
 41
0.9
100
AcDbText
  0
ENDSEC
  0
SECTION
  2
OBJECTS
  0
DICTIONARY
  5
2A9C
330
0
100
AcDbDictionary
281
     1
  3
ACAD_2007HEADERVARS_RT
350
2CF2
  3
ACAD_COLOR
350
2AFA
  3
ACAD_GROUP
350
2A9D
  3
ACAD_LAYOUT
350
2AF9
  3
ACAD_MATERIAL
350
2AA0
  3
ACAD_MLEADERSTYLE
350
2AFD
  3
ACAD_MLINESTYLE
350
2AF6
  3
ACAD_PLOTSETTINGS
350
2AF8
  3
ACAD_PLOTSTYLENAME
350
2A9E
  3
ACAD_SCALELIST
350
2ACA
  3
ACAD_TABLESTYLE
350
2AFB
  3
ACAD_VISUALSTYLE
350
2AB9
  3
ACDB_RECOMPOSE_DATA
350
2CF0
  3
AcDbVariableDictionary
350
2CE7
  3
AcmDictionary
350
2C9A
  3
AMG
350
2BE7
  3
DWGPROPS
350
2CF1
  3
MAPISURF_MODULE
350
2C67
  0
DICTIONARY
  5
2CC2
330
2AEC
100
AcDbDictionary
280
     1
281
     1
  3
ADSK_XREC_LAYER_RECONCILED
360
2CC3
  0
DICTIONARY
  5
2CC4
330
2B1B
100
AcDbDictionary
280
     1
281
     1
  3
ADSK_XREC_LAYER_RECONCILED
360
2CC5
  0
DICTIONARY
  5
2CC6
330
2B1C
100
AcDbDictionary
280
     1
281
     1
  3
ADSK_XREC_LAYER_RECONCILED
360
2CC7
  0
DICTIONARY
  5
2CC8
330
2B1D
100
AcDbDictionary
280
     1
281
     1
  3
ADSK_XREC_LAYER_RECONCILED
360
2CC9
  0
DICTIONARY
  5
2CCA
330
2B1E
100
AcDbDictionary
280
     1
281
     1
  3
ADSK_XREC_LAYER_RECONCILED
360
2CCB
  0
DICTIONARY
  5
2CCC
330
2B1F
100
AcDbDictionary
280
     1
281
     1
  3
ADSK_XREC_LAYER_RECONCILED
360
2CCD
  0
DICTIONARY
  5
2CCE
330
2B21
100
AcDbDictionary
280
     1
281
     1
  3
ADSK_XREC_LAYER_RECONCILED
360
2CCF
  0
DICTIONARY
  5
2CD0
330
2B22
100
AcDbDictionary
280
     1
281
     1
  3
ADSK_XREC_LAYER_RECONCILED
360
2CD1
  0
DICTIONARY
  5
2CD2
330
2B23
100
AcDbDictionary
280
     1
281
     1
  3
ADSK_XREC_LAYER_RECONCILED
360
2CD3
  0
DICTIONARY
  5
2CD4
330
2B24
100
AcDbDictionary
280
     1
281
     1
  3
ADSK_XREC_LAYER_RECONCILED
360
2CD5
  0
DICTIONARY
  5
2CD6
330
2B25
100
AcDbDictionary
280
     1
281
     1
  3
ADSK_XREC_LAYER_RECONCILED
360
2CD7
  0
DICTIONARY
  5
2CD8
330
2B04
100
AcDbDictionary
280
     1
281
     1
  3
ACAD_INDEX
360
2CD9
  0
DICTIONARY
  5
2CF2
102
{ACAD_REACTORS
330
2A9C
102
}
330
2A9C
100
AcDbDictionary
281
     1
  3
DIMARCSYM
350
2CF3
  3
DIMLTEX1
350
2CF5
  3
DIMLTEX2
350
2CF6
  3
DIMLTYPE
350
2CF4
  0
DICTIONARY
  5
2AFA
102
{ACAD_REACTORS
330
2A9C
102
}
330
2A9C
100
AcDbDictionary
281
     1
  0
DICTIONARY
  5
2A9D
102
{ACAD_REACTORS
330
2A9C
102
}
330
2A9C
100
AcDbDictionary
281
     1
  0
DICTIONARY
  5
2AF9
102
{ACAD_REACTORS
330
2A9C
102
}
330
2A9C
100
AcDbDictionary
281
     1
  3
Model
350
2B07
  3
レイアウト1
350
2B03
  0
DICTIONARY
  5
2AA0
102
{ACAD_REACTORS
330
2A9C
102
}
330
2A9C
100
AcDbDictionary
281
     1
  3
ByBlock
350
2AA9
  3
ByLayer
350
2AA1
  3
Global
350
2AB1
  0
DICTIONARY
  5
2AFD
102
{ACAD_REACTORS
330
2A9C
102
}
330
2A9C
100
AcDbDictionary
281
     1
  3
Standard
350
2AFE
  0
DICTIONARY
  5
2AF6
102
{ACAD_REACTORS
330
2A9C
102
}
330
2A9C
100
AcDbDictionary
281
     1
  3
Standard
350
2AF7
  0
DICTIONARY
  5
2AF8
102
{ACAD_REACTORS
330
2A9C
102
}
330
2A9C
100
AcDbDictionary
281
     1
  0
ACDBDICTIONARYWDFLT
  5
2A9E
102
{ACAD_REACTORS
330
2A9C
102
}
330
2A9C
100
AcDbDictionary
281
     1
  3
Normal
350
2A9F
100
AcDbDictionaryWithDefault
340
2A9F
  0
DICTIONARY
  5
2ACA
102
{ACAD_REACTORS
330
2A9C
102
}
330
2A9C
100
AcDbDictionary
281
     1
  3
A0
350
2ACB
  3
A1
350
2ACC
  3
A2
350
2ACD
  3
A3
350
2ACE
  3
A4
350
2ACF
  3
A5
350
2AD0
  3
A6
350
2AD1
  3
A7
350
2AD2
  3
A8
350
2AD3
  3
A9
350
2AD4
  3
B0
350
2AD5
  3
B1
350
2AD6
  3
B2
350
2AD7
  3
B3
350
2AD8
  3
B4
350
2AD9
  3
B5
350
2ADA
  3
B6
350
2ADB
  3
B7
350
2ADC
  3
B8
350
2ADD
  3
B9
350
2ADE
  3
C0
350
2ADF
  3
C1
350
2AE0
  3
C2
350
2AE1
  3
C3
350
2AE2
  3
C4
350
2AE3
  3
C5
350
2AE4
  3
C6
350
2AE5
  3
C7
350
2AE6
  3
C8
350
2AE7
  3
C9
350
2AE8
  3
D0
350
2AE9
  3
D1
350
2AEA
  3
D2
350
2AEB
  0
DICTIONARY
  5
2AFB
102
{ACAD_REACTORS
330
2A9C
102
}
330
2A9C
100
AcDbDictionary
281
     1
  3
Standard
350
2AFC
  0
DICTIONARY
  5
2AB9
102
{ACAD_REACTORS
330
2A9C
102
}
330
2A9C
100
AcDbDictionary
281
     1
  3
2dWireframe
350
2ABF
  3
3D Hidden
350
2AC1
  3
3dWireframe
350
2AC0
  3
Basic
350
2ABE
  3
Brighten
350
2AC5
  3
ColorChange
350
2AC9
  3
Conceptual
350
2AC2
  3
Dim
350
2AC4
  3
Facepattern
350
2AC8
  3
Flat
350
2ABA
  3
FlatWithEdges
350
2ABB
  3
Gouraud
350
2ABC
  3
GouraudWithEdges
350
2ABD
  3
Linepattern
350
2AC7
  3
Realistic
350
2AC3
  3
Thicken
350
2AC6
  0
XRECORD
  5
2CF0
102
{ACAD_REACTORS
330
2A9C
102
}
330
2A9C
100
AcDbXrecord
280
     1
 90
        1
330
2AFC
  0
DICTIONARY
  5
2CE7
102
{ACAD_REACTORS
330
2A9C
102
}
330
2A9C
100
AcDbDictionary
281
     1
  3
CANNOSCALE
350
2CEA
  3
CMLEADERSTYLE
350
2CE9
  3
CTABLESTYLE
350
2CE8
  3
DIMASSOC
350
2CED
  3
INDEXCTL
350
2CEC
  3
SORTENTS
350
2CEB
  0
DICTIONARY
  5
2C9A
102
{ACAD_REACTORS
330
2A9C
102
}
330
2A9C
100
AcDbDictionary
281
     1
  3
AcmStdDictionary
350
2CA8
  0
DICTIONARY
  5
2BE7
102
{ACAD_REACTORS
330
2A9C
102
}
330
2A9C
100
AcDbDictionary
281
     1
  3
AcMgSettings
350
2BE8
  0
XRECORD
  5
2CF1
102
{ACAD_REACTORS
330
2A9C
102
}
330
2A9C
100
AcDbXrecord
280
     1
  1
DWGPROPS COOKIE
  2

  3

  4

  6

  7

  8
A090053
  9

300
AmdtFileType=84
301
=
302
=
303
=
304
=
305
=
306
=
307
=
308
=
309
=
 40
1.050030046296296
 41
2452321.396199653
 42
2456212.817519317
  1

 90
        1
  0
XRECORD
  5
2CC3
102
{ACAD_REACTORS
330
2CC2
102
}
330
2CC2
100
AcDbXrecord
280
     1
290
     1
  0
XRECORD
  5
2CC5
102
{ACAD_REACTORS
330
2CC4
102
}
330
2CC4
100
AcDbXrecord
280
     1
290
     1
  0
XRECORD
  5
2CC7
102
{ACAD_REACTORS
330
2CC6
102
}
330
2CC6
100
AcDbXrecord
280
     1
290
     1
  0
XRECORD
  5
2CC9
102
{ACAD_REACTORS
330
2CC8
102
}
330
2CC8
100
AcDbXrecord
280
     1
290
     1
  0
XRECORD
  5
2CCB
102
{ACAD_REACTORS
330
2CCA
102
}
330
2CCA
100
AcDbXrecord
280
     1
290
     1
  0
XRECORD
  5
2CCD
102
{ACAD_REACTORS
330
2CCC
102
}
330
2CCC
100
AcDbXrecord
280
     1
290
     1
  0
XRECORD
  5
2CCF
102
{ACAD_REACTORS
330
2CCE
102
}
330
2CCE
100
AcDbXrecord
280
     1
290
     1
  0
XRECORD
  5
2CD1
102
{ACAD_REACTORS
330
2CD0
102
}
330
2CD0
100
AcDbXrecord
280
     1
290
     1
  0
XRECORD
  5
2CD3
102
{ACAD_REACTORS
330
2CD2
102
}
330
2CD2
100
AcDbXrecord
280
     1
290
     1
  0
XRECORD
  5
2CD5
102
{ACAD_REACTORS
330
2CD4
102
}
330
2CD4
100
AcDbXrecord
280
     1
290
     1
  0
XRECORD
  5
2CD7
102
{ACAD_REACTORS
330
2CD6
102
}
330
2CD6
100
AcDbXrecord
280
     1
290
     1
  0
DICTIONARY
  5
2CD9
102
{ACAD_REACTORS
330
2CD8
102
}
330
2CD8
100
AcDbDictionary
281
     1
  3
*A1
350
2CDA
  0
XRECORD
  5
2CF3
102
{ACAD_REACTORS
330
2CF2
102
}
330
2CF2
100
AcDbXrecord
280
     1
 70
     1
  0
XRECORD
  5
2CF5
102
{ACAD_REACTORS
330
2CF2
102
}
330
2CF2
100
AcDbXrecord
280
     1
340
2AF2
  0
XRECORD
  5
2CF6
102
{ACAD_REACTORS
330
2CF2
102
}
330
2CF2
100
AcDbXrecord
280
     1
340
2AF2
  0
XRECORD
  5
2CF4
102
{ACAD_REACTORS
330
2CF2
102
}
330
2CF2
100
AcDbXrecord
280
     1
340
2AF2
  0
LAYOUT
  5
2B07
102
{ACAD_XDICTIONARY
360
2CFD
102
}
102
{ACAD_REACTORS
330
2AF9
102
}
330
2AF9
100
AcDbPlotSettings
  1

  2
自動 EPSON LP-9600S (W2450527 上)
  4

  6

 40
0.0
 41
0.0
 42
0.0
 43
0.0
 44
0.0
 45
0.0
 46
0.0
 47
0.0
 48
0.0
 49
0.0
140
0.0
141
0.0
142
1.0
143
1.0
 70
  1712
 72
     0
 73
     0
 74
     0
  7

 75
     0
147
1.0
148
0.0
149
0.0
100
AcDbLayout
  1
Model
 70
     1
 71
     0
 10
0.0
 20
0.0
 11
12.0
 21
9.0
 12
0.0
 22
0.0
 32
0.0
 14
0.0
 24
0.0
 34
0.0
 15
0.0
 25
0.0
 35
0.0
146
0.0
 13
0.0
 23
0.0
 33
0.0
 16
1.0
 26
0.0
 36
0.0
 17
0.0
 27
1.0
 37
0.0
 76
     0
330
2B04
331
2B08
  0
LAYOUT
  5
2B03
102
{ACAD_XDICTIONARY
360
2CFB
102
}
102
{ACAD_REACTORS
330
2AF9
102
}
330
2AF9
100
AcDbPlotSettings
  1

  2
自動 EPSON LP-9600S (W2450527 上)
  4

  6

 40
0.0
 41
0.0
 42
0.0
 43
0.0
 44
0.0
 45
0.0
 46
0.0
 47
0.0
 48
0.0
 49
0.0
140
0.0
141
0.0
142
1.0
143
1.0
 70
   688
 72
     0
 73
     0
 74
     5
  7

 75
    16
147
1.0
148
0.0
149
0.0
100
AcDbLayout
  1
レイアウト1
 70
     1
 71
     1
 10
0.0
 20
0.0
 11
12.0
 21
9.0
 12
0.0
 22
0.0
 32
0.0
 14
1.000000000000000E+20
 24
1.000000000000000E+20
 34
1.000000000000000E+20
 15
-1.000000000000000E+20
 25
-1.000000000000000E+20
 35
-1.000000000000000E+20
146
0.0
 13
0.0
 23
0.0
 33
0.0
 16
1.0
 26
0.0
 36
0.0
 17
0.0
 27
1.0
 37
0.0
 76
     0
330
2B00
  0
MATERIAL
  5
2AA9
102
{ACAD_XDICTIONARY
360
2AAA
102
}
102
{ACAD_REACTORS
330
2AA0
102
}
330
2AA0
100
AcDbMaterial
  1
ByBlock
 72
     0
 43
0.0208333333333333
 43
0.0
 43
0.0
 43
0.0
 43
0.0
 43
0.0208333333333333
 43
0.0
 43
0.0
 43
0.0
 43
0.0
 43
1.0
 43
0.0
 43
0.0
 43
0.0
 43
0.0
 43
1.0
 77
     0
 47
0.0208333333333333
 47
0.0
 47
0.0
 47
0.0
 47
0.0
 47
0.0208333333333333
 47
0.0
 47
0.0
 47
0.0
 47
0.0
 47
1.0
 47
0.0
 47
0.0
 47
0.0
 47
0.0
 47
1.0
171
     0
 49
0.0208333333333333
 49
0.0
 49
0.0
 49
0.0
 49
0.0
 49
0.0208333333333333
 49
0.0
 49
0.0
 49
0.0
 49
0.0
 49
1.0
 49
0.0
 49
0.0
 49
0.0
 49
0.0
 49
1.0
175
     0
142
0.0208333333333333
142
0.0
142
0.0
142
0.0
142
0.0
142
0.0208333333333333
142
0.0
142
0.0
142
0.0
142
0.0
142
1.0
142
0.0
142
0.0
142
0.0
142
0.0
142
1.0
179
     0
144
0.0208333333333333
144
0.0
144
0.0
144
0.0
144
0.0
144
0.0208333333333333
144
0.0
144
0.0
144
0.0
144
0.0
144
1.0
144
0.0
144
0.0
144
0.0
144
0.0
144
1.0
147
0.0208333333333333
147
0.0
147
0.0
147
0.0
147
0.0
147
0.0208333333333333
147
0.0
147
0.0
147
0.0
147
0.0
147
1.0
147
0.0
147
0.0
147
0.0
147
0.0
147
1.0
  0
MATERIAL
  5
2AA1
102
{ACAD_XDICTIONARY
360
2AA2
102
}
102
{ACAD_REACTORS
330
2AA0
102
}
330
2AA0
100
AcDbMaterial
  1
ByLayer
 72
     0
 43
0.0208333333333333
 43
0.0
 43
0.0
 43
0.0
 43
0.0
 43
0.0208333333333333
 43
0.0
 43
0.0
 43
0.0
 43
0.0
 43
1.0
 43
0.0
 43
0.0
 43
0.0
 43
0.0
 43
1.0
 77
     0
 47
0.0208333333333333
 47
0.0
 47
0.0
 47
0.0
 47
0.0
 47
0.0208333333333333
 47
0.0
 47
0.0
 47
0.0
 47
0.0
 47
1.0
 47
0.0
 47
0.0
 47
0.0
 47
0.0
 47
1.0
171
     0
 49
0.0208333333333333
 49
0.0
 49
0.0
 49
0.0
 49
0.0
 49
0.0208333333333333
 49
0.0
 49
0.0
 49
0.0
 49
0.0
 49
1.0
 49
0.0
 49
0.0
 49
0.0
 49
0.0
 49
1.0
175
     0
142
0.0208333333333333
142
0.0
142
0.0
142
0.0
142
0.0
142
0.0208333333333333
142
0.0
142
0.0
142
0.0
142
0.0
142
1.0
142
0.0
142
0.0
142
0.0
142
0.0
142
1.0
179
     0
144
0.0208333333333333
144
0.0
144
0.0
144
0.0
144
0.0
144
0.0208333333333333
144
0.0
144
0.0
144
0.0
144
0.0
144
1.0
144
0.0
144
0.0
144
0.0
144
0.0
144
1.0
147
0.0208333333333333
147
0.0
147
0.0
147
0.0
147
0.0
147
0.0208333333333333
147
0.0
147
0.0
147
0.0
147
0.0
147
1.0
147
0.0
147
0.0
147
0.0
147
0.0
147
1.0
  0
MATERIAL
  5
2AB1
102
{ACAD_XDICTIONARY
360
2AB2
102
}
102
{ACAD_REACTORS
330
2AA0
102
}
330
2AA0
100
AcDbMaterial
  1
Global
 72
     0
 43
0.0208333333333333
 43
0.0
 43
0.0
 43
0.0
 43
0.0
 43
0.0208333333333333
 43
0.0
 43
0.0
 43
0.0
 43
0.0
 43
1.0
 43
0.0
 43
0.0
 43
0.0
 43
0.0
 43
1.0
 77
     0
 47
0.0208333333333333
 47
0.0
 47
0.0
 47
0.0
 47
0.0
 47
0.0208333333333333
 47
0.0
 47
0.0
 47
0.0
 47
0.0
 47
1.0
 47
0.0
 47
0.0
 47
0.0
 47
0.0
 47
1.0
171
     0
 49
0.0208333333333333
 49
0.0
 49
0.0
 49
0.0
 49
0.0
 49
0.0208333333333333
 49
0.0
 49
0.0
 49
0.0
 49
0.0
 49
1.0
 49
0.0
 49
0.0
 49
0.0
 49
0.0
 49
1.0
175
     0
142
0.0208333333333333
142
0.0
142
0.0
142
0.0
142
0.0
142
0.0208333333333333
142
0.0
142
0.0
142
0.0
142
0.0
142
1.0
142
0.0
142
0.0
142
0.0
142
0.0
142
1.0
179
     0
144
0.0208333333333333
144
0.0
144
0.0
144
0.0
144
0.0
144
0.0208333333333333
144
0.0
144
0.0
144
0.0
144
0.0
144
1.0
144
0.0
144
0.0
144
0.0
144
0.0
144
1.0
147
0.0208333333333333
147
0.0
147
0.0
147
0.0
147
0.0
147
0.0208333333333333
147
0.0
147
0.0
147
0.0
147
0.0
147
1.0
147
0.0
147
0.0
147
0.0
147
0.0
147
1.0
  0
MLEADERSTYLE
  5
2AFE
102
{ACAD_REACTORS
330
2AFD
102
}
330
2AFD
100
AcDbMLeaderStyle
170
     2
171
     1
172
     0
 90
        2
 40
0.0
 41
0.0
173
     1
 91
-1056964608
340
2AF2
 92
       -2
290
     1
 42
0.09
291
     1
 43
0.36
  3
Standard
 44
0.18
300

342
2AED
174
     1
178
     6
175
     1
176
     0
 93
-1056964608
 45
0.18
292
     0
297
     0
 46
0.18
 94
-1056964608
 47
1.0
 49
1.0
140
1.0
293
     1
141
0.0
294
     1
177
     0
142
1.0
295
     0
296
     0
143
0.125
1001
ACAD_MLEADERVER
1070
     2
  0
MLINESTYLE
  5
2AF7
102
{ACAD_REACTORS
330
2AF6
102
}
330
2AF6
100
AcDbMlineStyle
  2
STANDARD
 70
     0
  3

 62
   256
 51
90.0
 52
90.0
 71
     2
 49
0.5
 62
   256
  6
BYLAYER
 49
-0.5
 62
   256
  6
BYLAYER
  0
ACDBPLACEHOLDER
  5
2A9F
102
{ACAD_REACTORS
330
2A9E
102
}
330
2A9E
  0
SCALE
  5
2ACB
102
{ACAD_REACTORS
330
2ACA
102
}
330
2ACA
100
AcDbScale
 70
     0
300
1:1
140
1.0
141
1.0
290
     1
  0
SCALE
  5
2ACC
102
{ACAD_REACTORS
330
2ACA
102
}
330
2ACA
100
AcDbScale
 70
     0
300
1:2
140
1.0
141
2.0
290
     0
  0
SCALE
  5
2ACD
102
{ACAD_REACTORS
330
2ACA
102
}
330
2ACA
100
AcDbScale
 70
     0
300
1:4
140
1.0
141
4.0
290
     0
  0
SCALE
  5
2ACE
102
{ACAD_REACTORS
330
2ACA
102
}
330
2ACA
100
AcDbScale
 70
     0
300
1:5
140
1.0
141
5.0
290
     0
  0
SCALE
  5
2ACF
102
{ACAD_REACTORS
330
2ACA
102
}
330
2ACA
100
AcDbScale
 70
     0
300
1:8
140
1.0
141
8.0
290
     0
  0
SCALE
  5
2AD0
102
{ACAD_REACTORS
330
2ACA
102
}
330
2ACA
100
AcDbScale
 70
     0
300
1:10
140
1.0
141
10.0
290
     0
  0
SCALE
  5
2AD1
102
{ACAD_REACTORS
330
2ACA
102
}
330
2ACA
100
AcDbScale
 70
     0
300
1:16
140
1.0
141
16.0
290
     0
  0
SCALE
  5
2AD2
102
{ACAD_REACTORS
330
2ACA
102
}
330
2ACA
100
AcDbScale
 70
     0
300
1:20
140
1.0
141
20.0
290
     0
  0
SCALE
  5
2AD3
102
{ACAD_REACTORS
330
2ACA
102
}
330
2ACA
100
AcDbScale
 70
     0
300
1:30
140
1.0
141
30.0
290
     0
  0
SCALE
  5
2AD4
102
{ACAD_REACTORS
330
2ACA
102
}
330
2ACA
100
AcDbScale
 70
     0
300
1:40
140
1.0
141
40.0
290
     0
  0
SCALE
  5
2AD5
102
{ACAD_REACTORS
330
2ACA
102
}
330
2ACA
100
AcDbScale
 70
     0
300
1:50
140
1.0
141
50.0
290
     0
  0
SCALE
  5
2AD6
102
{ACAD_REACTORS
330
2ACA
102
}
330
2ACA
100
AcDbScale
 70
     0
300
1:100
140
1.0
141
100.0
290
     0
  0
SCALE
  5
2AD7
102
{ACAD_REACTORS
330
2ACA
102
}
330
2ACA
100
AcDbScale
 70
     0
300
2:1
140
2.0
141
1.0
290
     0
  0
SCALE
  5
2AD8
102
{ACAD_REACTORS
330
2ACA
102
}
330
2ACA
100
AcDbScale
 70
     0
300
4:1
140
4.0
141
1.0
290
     0
  0
SCALE
  5
2AD9
102
{ACAD_REACTORS
330
2ACA
102
}
330
2ACA
100
AcDbScale
 70
     0
300
8:1
140
8.0
141
1.0
290
     0
  0
SCALE
  5
2ADA
102
{ACAD_REACTORS
330
2ACA
102
}
330
2ACA
100
AcDbScale
 70
     0
300
10:1
140
10.0
141
1.0
290
     0
  0
SCALE
  5
2ADB
102
{ACAD_REACTORS
330
2ACA
102
}
330
2ACA
100
AcDbScale
 70
     0
300
100:1
140
100.0
141
1.0
290
     0
  0
SCALE
  5
2ADC
102
{ACAD_REACTORS
330
2ACA
102
}
330
2ACA
100
AcDbScale
 70
     0
300
1/128" = 1'-0"
140
0.0078125
141
12.0
290
     0
  0
SCALE
  5
2ADD
102
{ACAD_REACTORS
330
2ACA
102
}
330
2ACA
100
AcDbScale
 70
     0
300
1/64" = 1'-0"
140
0.015625
141
12.0
290
     0
  0
SCALE
  5
2ADE
102
{ACAD_REACTORS
330
2ACA
102
}
330
2ACA
100
AcDbScale
 70
     0
300
1/32" = 1'-0"
140
0.03125
141
12.0
290
     0
  0
SCALE
  5
2ADF
102
{ACAD_REACTORS
330
2ACA
102
}
330
2ACA
100
AcDbScale
 70
     0
300
1/16" = 1'-0"
140
0.0625
141
12.0
290
     0
  0
SCALE
  5
2AE0
102
{ACAD_REACTORS
330
2ACA
102
}
330
2ACA
100
AcDbScale
 70
     0
300
3/32" = 1'-0"
140
0.09375
141
12.0
290
     0
  0
SCALE
  5
2AE1
102
{ACAD_REACTORS
330
2ACA
102
}
330
2ACA
100
AcDbScale
 70
     0
300
1/8" = 1'-0"
140
0.125
141
12.0
290
     0
  0
SCALE
  5
2AE2
102
{ACAD_REACTORS
330
2ACA
102
}
330
2ACA
100
AcDbScale
 70
     0
300
3/16" = 1'-0"
140
0.1875
141
12.0
290
     0
  0
SCALE
  5
2AE3
102
{ACAD_REACTORS
330
2ACA
102
}
330
2ACA
100
AcDbScale
 70
     0
300
1/4" = 1'-0"
140
0.25
141
12.0
290
     0
  0
SCALE
  5
2AE4
102
{ACAD_REACTORS
330
2ACA
102
}
330
2ACA
100
AcDbScale
 70
     0
300
3/8" = 1'-0"
140
0.375
141
12.0
290
     0
  0
SCALE
  5
2AE5
102
{ACAD_REACTORS
330
2ACA
102
}
330
2ACA
100
AcDbScale
 70
     0
300
1/2" = 1'-0"
140
0.5
141
12.0
290
     0
  0
SCALE
  5
2AE6
102
{ACAD_REACTORS
330
2ACA
102
}
330
2ACA
100
AcDbScale
 70
     0
300
3/4" = 1'-0"
140
0.75
141
12.0
290
     0
  0
SCALE
  5
2AE7
102
{ACAD_REACTORS
330
2ACA
102
}
330
2ACA
100
AcDbScale
 70
     0
300
1" = 1'-0"
140
1.0
141
12.0
290
     0
  0
SCALE
  5
2AE8
102
{ACAD_REACTORS
330
2ACA
102
}
330
2ACA
100
AcDbScale
 70
     0
300
1-1/2" = 1'-0"
140
1.5
141
12.0
290
     0
  0
SCALE
  5
2AE9
102
{ACAD_REACTORS
330
2ACA
102
}
330
2ACA
100
AcDbScale
 70
     0
300
3" = 1'-0"
140
3.0
141
12.0
290
     0
  0
SCALE
  5
2AEA
102
{ACAD_REACTORS
330
2ACA
102
}
330
2ACA
100
AcDbScale
 70
     0
300
6" = 1'-0"
140
6.0
141
12.0
290
     0
  0
SCALE
  5
2AEB
102
{ACAD_REACTORS
330
2ACA
102
}
330
2ACA
100
AcDbScale
 70
     0
300
1'-0" = 1'-0"
140
12.0
141
12.0
290
     0
  0
TABLESTYLE
  5
2AFC
102
{ACAD_XDICTIONARY
360
2CEE
102
}
102
{ACAD_REACTORS
330
2AFB
102
}
330
2AFB
100
AcDbTableStyle
  3
Standard
 70
     0
 71
     0
 40
0.06
 41
0.06
280
     0
281
     0
  7
STANDARD
140
0.18
170
     2
 62
     0
 63
     7
283
     0
274
    -2
284
     1
 64
     0
275
    -2
285
     1
 65
     0
276
    -2
286
     1
 66
     0
277
    -2
287
     1
 67
     0
278
    -2
288
     1
 68
     0
279
    -2
289
     1
 69
     0
  7
STANDARD
140
0.25
170
     5
 62
     0
 63
     7
283
     0
274
    -2
284
     1
 64
     0
275
    -2
285
     1
 65
     0
276
    -2
286
     1
 66
     0
277
    -2
287
     1
 67
     0
278
    -2
288
     1
 68
     0
279
    -2
289
     1
 69
     0
  7
STANDARD
140
0.18
170
     5
 62
     0
 63
     7
283
     0
274
    -2
284
     1
 64
     0
275
    -2
285
     1
 65
     0
276
    -2
286
     1
 66
     0
277
    -2
287
     1
 67
     0
278
    -2
288
     1
 68
     0
279
    -2
289
     1
 69
     0
  0
VISUALSTYLE
  5
2ABF
102
{ACAD_REACTORS
330
2AB9
102
}
330
2AB9
100
AcDbVisualStyle
  2
2dWireframe
 70
     4
 71
     0
 72
     2
 73
     0
 90
        0
 40
-0.6
 41
-30.0
 62
     5
 63
     7
 74
     1
 91
        4
 64
     7
 65
   257
 75
     1
175
     1
 42
1.0
 92
        0
 66
   257
 43
1.0
 76
     1
 77
     6
 78
     2
 67
     7
 79
     5
170
     0
171
     0
290
     0
174
     0
 93
        1
 44
0.0
173
     0
291
     0
 45
0.0
1001
ACAD
1000
AcDbSavedByObjectVersion
1070
     0
  0
VISUALSTYLE
  5
2AC1
102
{ACAD_REACTORS
330
2AB9
102
}
330
2AB9
100
AcDbVisualStyle
  2
3D Hidden
 70
     6
 71
     1
 72
     2
 73
     2
 90
        0
 40
-0.6
 41
-30.0
 62
     5
 63
     7
 74
     2
 91
        2
 64
     7
 65
   257
 75
     2
175
     1
 42
40.0
 92
        0
 66
   257
 43
1.0
 76
     1
 77
     6
 78
     2
 67
     7
 79
     3
170
     0
171
     0
290
     0
174
     0
 93
        1
 44
0.0
173
     0
291
     0
 45
0.0
1001
ACAD
1000
AcDbSavedByObjectVersion
1070
     0
  0
VISUALSTYLE
  5
2AC0
102
{ACAD_REACTORS
330
2AB9
102
}
330
2AB9
100
AcDbVisualStyle
  2
3dWireframe
 70
     5
 71
     0
 72
     2
 73
     0
 90
        0
 40
-0.6
 41
-30.0
 62
     5
 63
     7
 74
     1
 91
        4
 64
     7
 65
   257
 75
     1
175
     1
 42
1.0
 92
        0
 66
   257
 43
1.0
 76
     1
 77
     6
 78
     2
 67
     7
 79
     5
170
     0
171
     0
290
     0
174
     0
 93
        1
 44
0.0
173
     0
291
     0
 45
0.0
1001
ACAD
1000
AcDbSavedByObjectVersion
1070
     0
  0
VISUALSTYLE
  5
2ABE
102
{ACAD_REACTORS
330
2AB9
102
}
330
2AB9
100
AcDbVisualStyle
  2
Basic
 70
     7
 71
     1
 72
     0
 73
     1
 90
        0
 40
-0.6
 41
-30.0
 62
     5
 63
     7
 74
     0
 91
        4
 64
     7
 65
   257
 75
     1
175
     1
 42
1.0
 92
        8
 66
     7
 43
1.0
 76
     1
 77
     6
 78
     2
 67
     7
 79
     5
170
     0
171
     0
290
     0
174
     0
 93
        1
 44
0.0
173
     0
291
     1
 45
0.0
1001
ACAD
1000
AcDbSavedByObjectVersion
1070
     0
  0
VISUALSTYLE
  5
2AC5
102
{ACAD_REACTORS
330
2AB9
102
}
330
2AB9
100
AcDbVisualStyle
  2
Brighten
 70
    12
 71
     2
 72
     2
 73
     0
 90
        0
 40
-0.6
 41
-30.0
 62
     5
 63
     7
 74
     1
 91
        4
 64
     7
 65
   257
 75
     1
175
     1
 42
1.0
 92
        8
 66
     7
 43
1.0
 76
     1
 77
     6
 78
     2
 67
     7
 79
     5
170
     0
171
     0
290
     0
174
     0
 93
        1
 44
50.0
173
     0
291
     1
 45
0.0
1001
ACAD
1000
AcDbSavedByObjectVersion
1070
     0
  0
VISUALSTYLE
  5
2AC9
102
{ACAD_REACTORS
330
2AB9
102
}
330
2AB9
100
AcDbVisualStyle
  2
ColorChange
 70
    16
 71
     2
 72
     2
 73
     3
 90
        0
 40
-0.6
 41
-30.0
 62
     5
 63
     8
 74
     1
 91
        4
 64
     7
 65
   257
 75
     1
175
     1
 42
1.0
 92
        8
 66
     8
 43
1.0
 76
     1
 77
     6
 78
     2
 67
     7
 79
     5
170
     0
171
     0
290
     0
174
     0
 93
        1
 44
0.0
173
     0
291
     1
 45
0.0
1001
ACAD
1000
AcDbSavedByObjectVersion
1070
     0
  0
VISUALSTYLE
  5
2AC2
102
{ACAD_REACTORS
330
2AB9
102
}
330
2AB9
100
AcDbVisualStyle
  2
Conceptual
 70
     9
 71
     3
 72
     2
 73
     0
 90
        0
 40
-0.6
 41
-30.0
 62
     5
 63
     7
 74
     2
 91
        2
 64
     7
 65
   257
 75
     1
175
     1
 42
40.0
 92
        8
 66
     7
 43
1.0
 76
     1
 77
     6
 78
     2
 67
     7
 79
     3
170
     0
171
     0
290
     0
174
     0
 93
        1
 44
0.0
173
     0
291
     0
 45
0.0
1001
ACAD
1000
AcDbSavedByObjectVersion
1070
     0
  0
VISUALSTYLE
  5
2AC4
102
{ACAD_REACTORS
330
2AB9
102
}
330
2AB9
100
AcDbVisualStyle
  2
Dim
 70
    11
 71
     2
 72
     2
 73
     0
 90
        0
 40
-0.6
 41
-30.0
 62
     5
 63
     7
 74
     1
 91
        4
 64
     7
 65
   257
 75
     1
175
     1
 42
1.0
 92
        8
 66
     7
 43
1.0
 76
     1
 77
     6
 78
     2
 67
     7
 79
     5
170
     0
171
     0
290
     0
174
     0
 93
        1
 44
-50.0
173
     0
291
     1
 45
0.0
1001
ACAD
1000
AcDbSavedByObjectVersion
1070
     0
  0
VISUALSTYLE
  5
2AC8
102
{ACAD_REACTORS
330
2AB9
102
}
330
2AB9
100
AcDbVisualStyle
  2
Facepattern
 70
    15
 71
     2
 72
     2
 73
     0
 90
        0
 40
-0.6
 41
-30.0
 62
     5
 63
     7
 74
     1
 91
        4
 64
     7
 65
   257
 75
     1
175
     1
 42
1.0
 92
        8
 66
     7
 43
1.0
 76
     1
 77
     6
 78
     2
 67
     7
 79
     5
170
     0
171
     0
290
     0
174
     0
 93
        1
 44
0.0
173
     0
291
     1
 45
0.0
1001
ACAD
1000
AcDbSavedByObjectVersion
1070
     0
  0
VISUALSTYLE
  5
2ABA
102
{ACAD_REACTORS
330
2AB9
102
}
330
2AB9
100
AcDbVisualStyle
  2
Flat
 70
     0
 71
     2
 72
     1
 73
     1
 90
        2
 40
-0.6
 41
30.0
 62
     5
 63
     7
 74
     0
 91
        4
 64
     7
 65
   257
 75
     1
175
     1
 42
1.0
 92
        8
 66
     7
 43
1.0
 76
     1
 77
     6
 78
     2
 67
     7
 79
     5
170
     0
171
     0
290
     0
174
     0
 93
       13
 44
0.0
173
     0
291
     1
 45
0.0
1001
ACAD
1000
AcDbSavedByObjectVersion
1070
     0
  0
VISUALSTYLE
  5
2ABB
102
{ACAD_REACTORS
330
2AB9
102
}
330
2AB9
100
AcDbVisualStyle
  2
FlatWithEdges
 70
     1
 71
     2
 72
     1
 73
     1
 90
        2
 40
-0.6
 41
30.0
 62
     5
 63
     7
 74
     1
 91
        4
 64
     7
 65
   257
 75
     1
175
     1
 42
1.0
 92
        0
 66
   257
 43
1.0
 76
     1
 77
     6
 78
     2
 67
     7
 79
     5
170
     0
171
     0
290
     0
174
     0
 93
       13
 44
0.0
173
     0
291
     1
 45
0.0
1001
ACAD
1000
AcDbSavedByObjectVersion
1070
     0
  0
VISUALSTYLE
  5
2ABC
102
{ACAD_REACTORS
330
2AB9
102
}
330
2AB9
100
AcDbVisualStyle
  2
Gouraud
 70
     2
 71
     2
 72
     2
 73
     1
 90
        2
 40
-0.6
 41
30.0
 62
     5
 63
     7
 74
     0
 91
        4
 64
     7
 65
   257
 75
     1
175
     1
 42
1.0
 92
        0
 66
     7
 43
1.0
 76
     1
 77
     6
 78
     2
 67
     7
 79
     5
170
     0
171
     0
290
     0
174
     0
 93
       13
 44
0.0
173
     0
291
     1
 45
0.0
1001
ACAD
1000
AcDbSavedByObjectVersion
1070
     0
  0
VISUALSTYLE
  5
2ABD
102
{ACAD_REACTORS
330
2AB9
102
}
330
2AB9
100
AcDbVisualStyle
  2
GouraudWithEdges
 70
     3
 71
     2
 72
     2
 73
     1
 90
        2
 40
-0.6
 41
30.0
 62
     5
 63
     7
 74
     1
 91
        4
 64
     7
 65
   257
 75
     1
175
     1
 42
1.0
 92
        0
 66
   257
 43
1.0
 76
     1
 77
     6
 78
     2
 67
     7
 79
     5
170
     0
171
     0
290
     0
174
     0
 93
       13
 44
0.0
173
     0
291
     1
 45
0.0
1001
ACAD
1000
AcDbSavedByObjectVersion
1070
     0
  0
VISUALSTYLE
  5
2AC7
102
{ACAD_REACTORS
330
2AB9
102
}
330
2AB9
100
AcDbVisualStyle
  2
Linepattern
 70
    14
 71
     2
 72
     2
 73
     0
 90
        0
 40
-0.6
 41
-30.0
 62
     5
 63
     7
 74
     1
 91
        4
 64
     7
 65
   257
 75
     7
175
     7
 42
1.0
 92
        8
 66
     7
 43
1.0
 76
     1
 77
     6
 78
     2
 67
     7
 79
     5
170
     0
171
     0
290
     0
174
     0
 93
        1
 44
0.0
173
     0
291
     1
 45
0.0
1001
ACAD
1000
AcDbSavedByObjectVersion
1070
     0
  0
VISUALSTYLE
  5
2AC3
102
{ACAD_REACTORS
330
2AB9
102
}
330
2AB9
100
AcDbVisualStyle
  2
Realistic
 70
     8
 71
     2
 72
     2
 73
     0
 90
        0
 40
-0.6
 41
-30.0
 62
     5
 63
     7
 74
     1
 91
        0
 64
     7
 65
   257
 75
     1
175
     1
 42
1.0
 92
        8
 66
     8
 43
1.0
 76
     1
 77
     6
 78
     2
 67
     7
 79
     5
170
     0
171
     0
290
     0
174
     0
 93
       13
 44
0.0
173
     0
291
     0
 45
0.0
1001
ACAD
1000
AcDbSavedByObjectVersion
1070
     0
  0
VISUALSTYLE
  5
2AC6
102
{ACAD_REACTORS
330
2AB9
102
}
330
2AB9
100
AcDbVisualStyle
  2
Thicken
 70
    13
 71
     2
 72
     2
 73
     0
 90
        0
 40
-0.6
 41
-30.0
 62
     5
 63
     7
 74
     1
 91
        4
 64
     7
 65
   257
 75
     1
175
     1
 42
1.0
 92
       12
 66
     7
 43
1.0
 76
     1
 77
     6
 78
     2
 67
     7
 79
     5
170
     0
171
     0
290
     0
174
     0
 93
        1
 44
0.0
173
     0
291
     1
 45
0.0
1001
ACAD
1000
AcDbSavedByObjectVersion
1070
     0
  0
DICTIONARYVAR
  5
2CEA
102
{ACAD_REACTORS
330
2CE7
102
}
330
2CE7
100
DictionaryVariables
280
     0
  1
1:1
  0
DICTIONARYVAR
  5
2CE9
102
{ACAD_REACTORS
330
2CE7
102
}
330
2CE7
100
DictionaryVariables
280
     0
  1
STANDARD
  0
DICTIONARYVAR
  5
2CE8
102
{ACAD_REACTORS
330
2CE7
102
}
330
2CE7
100
DictionaryVariables
280
     0
  1
STANDARD
  0
DICTIONARYVAR
  5
2CED
102
{ACAD_REACTORS
330
2CE7
102
}
330
2CE7
100
DictionaryVariables
280
     0
  1
1
  0
DICTIONARYVAR
  5
2CEC
102
{ACAD_REACTORS
330
2CE7
102
}
330
2CE7
100
DictionaryVariables
280
     0
  1
1
  0
DICTIONARYVAR
  5
2CEB
102
{ACAD_REACTORS
330
2CE7
102
}
330
2CE7
100
DictionaryVariables
280
     0
  1
127
  0
DICTIONARY
  5
2CA8
102
{ACAD_REACTORS
330
2C9A
102
}
330
2C9A
100
AcDbDictionary
281
     1
  0
DICTIONARY
  5
2BE8
102
{ACAD_REACTORS
330
2BE7
102
}
330
2BE7
100
AcDbDictionary
281
     1
  3
DWGSETTINGS
350
2BE9
  3
TRANSSETTINGS
350
2BEA
  0
LAYER_INDEX
  5
2CDA
102
{ACAD_REACTORS
330
2CD9
102
}
330
2CD9
100
AcDbIndex
 40
2456212.817519317
100
AcDbLayerIndex
  8
0
360
2CDB
 90
        2
  8
OUTLINE
360
2CDC
 90
       24
  8
SIZE
360
2CDD
 90
       38
  8
BASIS
360
2CDE
 90
        1
  8
DETAIL
360
2CDF
 90
       32
  8
ARRANGE
360
2CE0
 90
        2
  8
DEFPOINTS
360
2CE1
 90
        0
  8
ETC
360
2CE2
 90
        3
  8
FIX
360
2CE3
 90
        0
  8
NOTE
360
2CE4
 90
        4
  8
SERVICESPACE
360
2CE5
 90
        0
  8
SYMBOLLINE
360
2CE6
 90
        0
  0
DICTIONARY
  5
2CFD
330
2B07
100
AcDbDictionary
280
     1
281
     1
  3
ACAD_XREC_ROUNDTRIP
360
2CFE
  0
DICTIONARY
  5
2CFB
330
2B03
100
AcDbDictionary
280
     1
281
     1
  3
ACAD_XREC_ROUNDTRIP
360
2CFC
  0
DICTIONARY
  5
2AAA
330
2AA9
100
AcDbDictionary
280
     1
281
     1
  3
ACAD_XREC_ROUNDTRIP
360
2CF8
  3
BUMPTILE
360
2AAC
  3
DIFFUSETILE
360
2AAB
  3
OPACITYTILE
360
2AAF
  3
REFLECTIONTILE
360
2AAE
  3
REFRACTIONTILE
360
2AB0
  3
SPECULARTILE
360
2AAD
  0
DICTIONARY
  5
2AA2
330
2AA1
100
AcDbDictionary
280
     1
281
     1
  3
ACAD_XREC_ROUNDTRIP
360
2CF7
  3
BUMPTILE
360
2AA4
  3
DIFFUSETILE
360
2AA3
  3
OPACITYTILE
360
2AA7
  3
REFLECTIONTILE
360
2AA6
  3
REFRACTIONTILE
360
2AA8
  3
SPECULARTILE
360
2AA5
  0
DICTIONARY
  5
2AB2
330
2AB1
100
AcDbDictionary
280
     1
281
     1
  3
ACAD_XREC_ROUNDTRIP
360
2CF9
  3
BUMPTILE
360
2AB4
  3
DIFFUSETILE
360
2AB3
  3
OPACITYTILE
360
2AB7
  3
REFLECTIONTILE
360
2AB6
  3
REFRACTIONTILE
360
2AB8
  3
SPECULARTILE
360
2AB5
  0
DICTIONARY
  5
2CEE
330
2AFC
100
AcDbDictionary
280
     1
281
     1
  3
ACAD_ROUNDTRIP_2008_TABLESTYLE_CELLSTYLEMAP
360
2CEF
  3
ACAD_XREC_ROUNDTRIP
360
2CFA
  0
IDBUFFER
  5
2CDB
330
0
100
AcDbIdBuffer
330
2862
330
2863
  0
IDBUFFER
  5
2CDC
330
0
100
AcDbIdBuffer
330
287F
330
2880
330
2881
330
2882
330
2883
330
2884
330
2885
330
2889
330
953
330
954
330
955
330
956
330
957
330
958
330
2875
330
2876
330
2877
330
2878
330
2879
330
287A
330
287B
330
287C
330
287D
330
287E
  0
IDBUFFER
  5
2CDD
330
0
100
AcDbIdBuffer
330
28A4
330
28A5
330
28A6
330
28A7
330
28A8
330
28A9
330
28AA
330
28AB
330
28AC
330
28AD
330
28AE
330
28AF
330
28B0
330
28B1
330
28B2
330
28B3
330
28B4
330
28B5
330
28B6
330
28B7
330
28B8
330
28B9
330
2894
330
2895
330
2896
330
2897
330
2898
330
2899
330
289A
330
289B
330
289C
330
289D
330
289E
330
289F
330
28A0
330
28A1
330
28A2
330
28A3
  0
IDBUFFER
  5
2CDE
330
0
100
AcDbIdBuffer
330
285F
  0
IDBUFFER
  5
2CDF
330
0
100
AcDbIdBuffer
330
2870
330
2871
330
2872
330
2873
330
2874
330
2886
330
288A
330
288B
330
288C
330
288D
330
288E
330
288F
330
2890
330
2891
330
2892
330
2893
330
2859
330
285A
330
285B
330
285E
330
2864
330
2865
330
2866
330
2867
330
2868
330
2869
330
286A
330
286B
330
286C
330
286D
330
286E
330
286F
  0
IDBUFFER
  5
2CE0
330
0
100
AcDbIdBuffer
330
285D
330
2860
  0
IDBUFFER
  5
2CE1
330
0
100
AcDbIdBuffer
  0
IDBUFFER
  5
2CE2
330
0
100
AcDbIdBuffer
330
2856
330
2857
330
2858
  0
IDBUFFER
  5
2CE3
330
0
100
AcDbIdBuffer
  0
IDBUFFER
  5
2CE4
330
0
100
AcDbIdBuffer
330
285C
330
2861
330
2887
330
2888
  0
IDBUFFER
  5
2CE5
330
0
100
AcDbIdBuffer
  0
IDBUFFER
  5
2CE6
330
0
100
AcDbIdBuffer
  0
XRECORD
  5
2CFE
102
{ACAD_REACTORS
330
2CFD
102
}
330
2CFD
100
AcDbXrecord
280
     1
102
SHADEPLOT
 70
     0
102
SHADEPLOTRESLEVEL
 70
     2
102
SHADEPLOTCUSTOMDPI
 70
   300
  0
XRECORD
  5
2CFC
102
{ACAD_REACTORS
330
2CFB
102
}
330
2CFB
100
AcDbXrecord
280
     1
102
SHADEPLOT
 70
     0
102
SHADEPLOTRESLEVEL
 70
     2
102
SHADEPLOTCUSTOMDPI
 70
   300
  0
XRECORD
  5
2CF8
102
{ACAD_REACTORS
330
2AAA
102
}
330
2AAA
100
AcDbXrecord
280
     1
102
MATERIAL
148
0.0
149
0.0
149
0.0
 93
        0
 94
      127
282
     0
 72
     0
 77
     0
171
     0
175
     0
179
     0
273
     0
  0
XRECORD
  5
2AAC
102
{ACAD_REACTORS
330
2AAA
102
}
330
2AAA
100
AcDbXrecord
280
     1
270
     1
271
     1
  0
XRECORD
  5
2AAB
102
{ACAD_REACTORS
330
2AAA
102
}
330
2AAA
100
AcDbXrecord
280
     1
270
     1
271
     1
  0
XRECORD
  5
2AAF
102
{ACAD_REACTORS
330
2AAA
102
}
330
2AAA
100
AcDbXrecord
280
     1
270
     1
271
     1
  0
XRECORD
  5
2AAE
102
{ACAD_REACTORS
330
2AAA
102
}
330
2AAA
100
AcDbXrecord
280
     1
270
     1
271
     1
  0
XRECORD
  5
2AB0
102
{ACAD_REACTORS
330
2AAA
102
}
330
2AAA
100
AcDbXrecord
280
     1
270
     1
271
     1
  0
XRECORD
  5
2AAD
102
{ACAD_REACTORS
330
2AAA
102
}
330
2AAA
100
AcDbXrecord
280
     1
270
     1
271
     1
  0
XRECORD
  5
2CF7
102
{ACAD_REACTORS
330
2AA2
102
}
330
2AA2
100
AcDbXrecord
280
     1
102
MATERIAL
148
0.0
149
0.0
149
0.0
 93
        0
 94
      127
282
     0
 72
     0
 77
     0
171
     0
175
     0
179
     0
273
     0
  0
XRECORD
  5
2AA4
102
{ACAD_REACTORS
330
2AA2
102
}
330
2AA2
100
AcDbXrecord
280
     1
270
     1
271
     1
  0
XRECORD
  5
2AA3
102
{ACAD_REACTORS
330
2AA2
102
}
330
2AA2
100
AcDbXrecord
280
     1
270
     1
271
     1
  0
XRECORD
  5
2AA7
102
{ACAD_REACTORS
330
2AA2
102
}
330
2AA2
100
AcDbXrecord
280
     1
270
     1
271
     1
  0
XRECORD
  5
2AA6
102
{ACAD_REACTORS
330
2AA2
102
}
330
2AA2
100
AcDbXrecord
280
     1
270
     1
271
     1
  0
XRECORD
  5
2AA8
102
{ACAD_REACTORS
330
2AA2
102
}
330
2AA2
100
AcDbXrecord
280
     1
270
     1
271
     1
  0
XRECORD
  5
2AA5
102
{ACAD_REACTORS
330
2AA2
102
}
330
2AA2
100
AcDbXrecord
280
     1
270
     1
271
     1
  0
XRECORD
  5
2CF9
102
{ACAD_REACTORS
330
2AB2
102
}
330
2AB2
100
AcDbXrecord
280
     1
102
MATERIAL
148
0.0
149
0.0
149
0.0
 93
        0
 94
      127
282
     0
 72
     0
 77
     0
171
     0
175
     0
179
     0
273
     0
  0
XRECORD
  5
2AB4
102
{ACAD_REACTORS
330
2AB2
102
}
330
2AB2
100
AcDbXrecord
280
     1
270
     1
271
     1
  0
XRECORD
  5
2AB3
102
{ACAD_REACTORS
330
2AB2
102
}
330
2AB2
100
AcDbXrecord
280
     1
270
     1
271
     1
  0
XRECORD
  5
2AB7
102
{ACAD_REACTORS
330
2AB2
102
}
330
2AB2
100
AcDbXrecord
280
     1
270
     1
271
     1
  0
XRECORD
  5
2AB6
102
{ACAD_REACTORS
330
2AB2
102
}
330
2AB2
100
AcDbXrecord
280
     1
270
     1
271
     1
  0
XRECORD
  5
2AB8
102
{ACAD_REACTORS
330
2AB2
102
}
330
2AB2
100
AcDbXrecord
280
     1
270
     1
271
     1
  0
XRECORD
  5
2AB5
102
{ACAD_REACTORS
330
2AB2
102
}
330
2AB2
100
AcDbXrecord
280
     1
270
     1
271
     1
  0
CELLSTYLEMAP
  5
2CEF
102
{ACAD_REACTORS
330
2CEE
102
}
330
2CEE
100
AcDbCellStyleMap
 90
        3
300
CELLSTYLE
  1
TABLEFORMAT_BEGIN
 90
        5
170
     1
 91
        0
 92
    32768
 62
   257
 93
        1
300
CONTENTFORMAT
  1
CONTENTFORMAT_BEGIN
 90
        0
 91
        0
 92
      512
 93
        0
300

 40
0.0
140
1.0
 94
        5
 62
     0
340
2AED
144
0.25
309
CONTENTFORMAT_END
171
     0
 94
        0
309
TABLEFORMAT_END
  1
CELLSTYLE_BEGIN
 90
        1
 91
        1
300
_TITLE
309
CELLSTYLE_END
300
CELLSTYLE
  1
TABLEFORMAT_BEGIN
 90
        5
170
     1
 91
        0
 92
        0
 62
   257
 93
        1
300
CONTENTFORMAT
  1
CONTENTFORMAT_BEGIN
 90
        0
 91
        0
 92
      512
 93
        0
300

 40
0.0
140
1.0
 94
        5
 62
     0
340
2AED
144
0.18
309
CONTENTFORMAT_END
171
     0
 94
        0
309
TABLEFORMAT_END
  1
CELLSTYLE_BEGIN
 90
        2
 91
        1
300
_HEADER
309
CELLSTYLE_END
300
CELLSTYLE
  1
TABLEFORMAT_BEGIN
 90
        5
170
     1
 91
        0
 92
        0
 62
   257
 93
        1
300
CONTENTFORMAT
  1
CONTENTFORMAT_BEGIN
 90
        0
 91
        0
 92
      512
 93
        0
300

 40
0.0
140
1.0
 94
        2
 62
     0
340
2AED
144
0.18
309
CONTENTFORMAT_END
171
     0
 94
        0
309
TABLEFORMAT_END
  1
CELLSTYLE_BEGIN
 90
        3
 91
        2
300
_DATA
309
CELLSTYLE_END
  0
XRECORD
  5
2CFA
102
{ACAD_REACTORS
330
2CEE
102
}
330
2CEE
100
AcDbXrecord
280
     1
102
ACAD_ROUNDTRIP_PRE2007_TABLESTYLE
 90
      512
 91
        0
  1

 92
      512
 93
        0
  2

 94
      512
 95
        0
  3

  0
ENDSEC
  0
EOF
