  0
SECTION
  2
HEADER
  9
$ACADVER
  1
AC1015
  9
$ACADMAINTVER
 70
    20
  9
$DWGCODEPAGE
  3
ANSI_932
  9
$INSBASE
 10
0.0
 20
0.0
 30
0.0
  9
$EXTMIN
 10
-863.7093999922541
 20
-722.0300779383685
 30
0.0
  9
$EXTMAX
 10
953.1842689590776
 20
546.4425906570568
 30
50.0
  9
$LIMMIN
 10
-2970.0
 20
-2100.0
  9
$LIMMAX
 10
2970.0
 20
2100.0
  9
$ORTHOMODE
 70
     1
  9
$REGENMODE
 70
     0
  9
$FILLMODE
 70
     1
  9
$QTEXTMODE
 70
     0
  9
$MIRRTEXT
 70
     0
  9
$LTSCALE
 40
20.0
  9
$ATTMODE
 70
     1
  9
$TEXTSIZE
 40
64.0
  9
$TRACEWID
 40
0.05
  9
$TEXTSTYLE
  7
STANDARD
  9
$CLAYER
  8
0
  9
$CELTYPE
  6
ByLayer
  9
$CECOLOR
 62
   256
  9
$CELTSCALE
 40
1.0
  9
$DISPSILH
 70
     0
  9
$DIMSCALE
 40
1.0
  9
$DIMASZ
 40
0.12
  9
$DIMEXO
 40
0.05
  9
$DIMDLI
 40
0.5
  9
$DIMRND
 40
0.0
  9
$DIMDLE
 40
0.0
  9
$DIMEXE
 40
0.1
  9
$DIMTP
 40
0.1
  9
$DIMTM
 40
0.1
  9
$DIMTXT
 40
0.12
  9
$DIMCEN
 40
0.0
  9
$DIMTSZ
 40
0.0
  9
$DIMTOL
 70
     0
  9
$DIMLIM
 70
     0
  9
$DIMTIH
 70
     1
  9
$DIMTOH
 70
     1
  9
$DIMSE1
 70
     0
  9
$DIMSE2
 70
     0
  9
$DIMTAD
 70
     0
  9
$DIMZIN
 70
     7
  9
$DIMBLK
  1

  9
$DIMASO
 70
     1
  9
$DIMSHO
 70
     0
  9
$DIMPOST
  1

  9
$DIMAPOST
  1
mm
  9
$DIMALT
 70
     0
  9
$DIMALTD
 70
     2
  9
$DIMALTF
 40
25.4
  9
$DIMLFAC
 40
1.0
  9
$DIMTOFL
 70
     0
  9
$DIMTVP
 40
0.0
  9
$DIMTIX
 70
     0
  9
$DIMSOXD
 70
     0
  9
$DIMSAH
 70
     0
  9
$DIMBLK1
  1

  9
$DIMBLK2
  1

  9
$DIMSTYLE
  2
AM_ANSI
  9
$DIMCLRD
 70
   256
  9
$DIMCLRE
 70
   256
  9
$DIMCLRT
 70
     2
  9
$DIMTFAC
 40
0.71
  9
$DIMGAP
 40
0.06
  9
$DIMJUST
 70
     0
  9
$DIMSD1
 70
     0
  9
$DIMSD2
 70
     0
  9
$DIMTOLJ
 70
     1
  9
$DIMTZIN
 70
     7
  9
$DIMALTZ
 70
     0
  9
$DIMALTTZ
 70
     0
  9
$DIMUPT
 70
     0
  9
$DIMDEC
 70
     4
  9
$DIMTDEC
 70
     4
  9
$DIMALTU
 70
     2
  9
$DIMALTTD
 70
     4
  9
$DIMTXSTY
  7
STANDARD
  9
$DIMAUNIT
 70
     0
  9
$DIMADEC
 70
     0
  9
$DIMALTRND
 40
0.0
  9
$DIMAZIN
 70
     2
  9
$DIMDSEP
 70
    46
  9
$DIMATFIT
 70
     3
  9
$DIMFRAC
 70
     0
  9
$DIMLDRBLK
  1

  9
$DIMLUNIT
 70
     2
  9
$DIMLWD
 70
    -1
  9
$DIMLWE
 70
    -1
  9
$DIMTMOVE
 70
     0
  9
$LUNITS
 70
     2
  9
$LUPREC
 70
     4
  9
$SKETCHINC
 40
0.1
  9
$FILLETRAD
 40
4.0
  9
$AUNITS
 70
     1
  9
$AUPREC
 70
     3
  9
$MENU
  1
ACAD
  9
$ELEVATION
 40
0.0
  9
$PELEVATION
 40
0.0
  9
$THICKNESS
 40
50.0
  9
$LIMCHECK
 70
     0
  9
$CHAMFERA
 40
0.0
  9
$CHAMFERB
 40
0.0
  9
$CHAMFERC
 40
0.0
  9
$CHAMFERD
 40
0.0
  9
$SKPOLY
 70
     0
  9
$TDCREATE
 40
2452321.396199653
  9
$TDUCREATE
 40
2452321.021199653
  9
$TDUPDATE
 40
2456212.818384942
  9
$TDUUPDATE
 40
2456212.443384942
  9
$TDINDWG
 40
1.0405376620
  9
$TDUSRTIMER
 40
1.0405322569
  9
$USRTIMER
 70
     1
  9
$ANGBASE
 50
0.0
  9
$ANGDIR
 70
     0
  9
$PDMODE
 70
     3
  9
$PDSIZE
 40
-2.0
  9
$PLINEWID
 40
0.0
  9
$SPLFRAME
 70
     0
  9
$SPLINETYPE
 70
     6
  9
$SPLINESEGS
 70
     8
  9
$HANDSEED
  5
29C1
  9
$SURFTAB1
 70
     6
  9
$SURFTAB2
 70
     6
  9
$SURFTYPE
 70
     6
  9
$SURFU
 70
     6
  9
$SURFV
 70
     6
  9
$UCSBASE
  2

  9
$UCSNAME
  2

  9
$UCSORG
 10
0.0
 20
0.0
 30
0.0
  9
$UCSXDIR
 10
1.0
 20
0.0
 30
0.0
  9
$UCSYDIR
 10
0.0
 20
1.0
 30
0.0
  9
$UCSORTHOREF
  2

  9
$UCSORTHOVIEW
 70
     0
  9
$UCSORGTOP
 10
0.0
 20
0.0
 30
0.0
  9
$UCSORGBOTTOM
 10
0.0
 20
0.0
 30
0.0
  9
$UCSORGLEFT
 10
0.0
 20
0.0
 30
0.0
  9
$UCSORGRIGHT
 10
0.0
 20
0.0
 30
0.0
  9
$UCSORGFRONT
 10
0.0
 20
0.0
 30
0.0
  9
$UCSORGBACK
 10
0.0
 20
0.0
 30
0.0
  9
$PUCSBASE
  2

  9
$PUCSNAME
  2

  9
$PUCSORG
 10
0.0
 20
0.0
 30
0.0
  9
$PUCSXDIR
 10
1.0
 20
0.0
 30
0.0
  9
$PUCSYDIR
 10
0.0
 20
1.0
 30
0.0
  9
$PUCSORTHOREF
  2

  9
$PUCSORTHOVIEW
 70
     0
  9
$PUCSORGTOP
 10
0.0
 20
0.0
 30
0.0
  9
$PUCSORGBOTTOM
 10
0.0
 20
0.0
 30
0.0
  9
$PUCSORGLEFT
 10
0.0
 20
0.0
 30
0.0
  9
$PUCSORGRIGHT
 10
0.0
 20
0.0
 30
0.0
  9
$PUCSORGFRONT
 10
0.0
 20
0.0
 30
0.0
  9
$PUCSORGBACK
 10
0.0
 20
0.0
 30
0.0
  9
$USERI1
 70
     0
  9
$USERI2
 70
     0
  9
$USERI3
 70
     0
  9
$USERI4
 70
     0
  9
$USERI5
 70
     0
  9
$USERR1
 40
20.0
  9
$USERR2
 40
0.0
  9
$USERR3
 40
0.0
  9
$USERR4
 40
0.0
  9
$USERR5
 40
0.0
  9
$WORLDVIEW
 70
     1
  9
$SHADEDGE
 70
     3
  9
$SHADEDIF
 70
    70
  9
$TILEMODE
 70
     1
  9
$MAXACTVP
 70
    64
  9
$PINSBASE
 10
0.0
 20
0.0
 30
0.0
  9
$PLIMCHECK
 70
     0
  9
$PEXTMIN
 10
1.000000000000000E+20
 20
1.000000000000000E+20
 30
1.000000000000000E+20
  9
$PEXTMAX
 10
-1.000000000000000E+20
 20
-1.000000000000000E+20
 30
-1.000000000000000E+20
  9
$PLIMMIN
 10
0.0
 20
0.0
  9
$PLIMMAX
 10
12.0
 20
9.0
  9
$UNITMODE
 70
     0
  9
$VISRETAIN
 70
     1
  9
$PLINEGEN
 70
     0
  9
$PSLTSCALE
 70
     1
  9
$TREEDEPTH
 70
  3020
  9
$CMLSTYLE
  2
Standard
  9
$CMLJUST
 70
     0
  9
$CMLSCALE
 40
1.0
  9
$PROXYGRAPHICS
 70
     1
  9
$MEASUREMENT
 70
     0
  9
$CELWEIGHT
370
    -1
  9
$ENDCAPS
280
     0
  9
$JOINSTYLE
280
     0
  9
$LWDISPLAY
290
     0
  9
$INSUNITS
 70
     0
  9
$HYPERLINKBASE
  1

  9
$STYLESHEET
  1

  9
$XEDIT
290
     1
  9
$CEPSNTYPE
380
     0
  9
$PSTYLEMODE
290
     1
  9
$FINGERPRINTGUID
  2
{2E366846-0695-4D3B-8DCE-215ED930A9B4}
  9
$VERSIONGUID
  2
{67E90023-0819-4195-B80B-549CE7E666BE}
  9
$EXTNAMES
290
     1
  9
$PSVPSCALE
 40
0.0
  9
$OLESTARTUP
290
     0
  0
ENDSEC
  0
SECTION
  2
CLASSES
  0
CLASS
  1
ACDBDICTIONARYWDFLT
  2
AcDbDictionaryWithDefault
  3
ObjectDBX Classes
 90
        0
280
     0
281
     0
  0
CLASS
  1
MATERIAL
  2
AcDbMaterial
  3
ObjectDBX Classes
 90
     1153
280
     0
281
     0
  0
CLASS
  1
VISUALSTYLE
  2
AcDbVisualStyle
  3
ObjectDBX Classes
 90
     4095
280
     0
281
     0
  0
CLASS
  1
SCALE
  2
AcDbScale
  3
ObjectDBX Classes
 90
     1153
280
     0
281
     0
  0
CLASS
  1
TABLESTYLE
  2
AcDbTableStyle
  3
ObjectDBX Classes
 90
     4095
280
     0
281
     0
  0
CLASS
  1
MLEADERSTYLE
  2
AcDbMLeaderStyle
  3
ACDB_MLEADERSTYLE_CLASS
 90
     4095
280
     0
281
     0
  0
CLASS
  1
AMGSETTINGSOBJ
  2
AmgSettingsObj
  3
"AcadM|Product Description: AutoCAD Mechanical|Company: Autodesk, Inc."
 90
     1024
280
     0
281
     0
  0
CLASS
  1
ACME_DOCUMENT
  2
AcMeDbDoc
  3
AcMeServices
 90
     1024
280
     0
281
     0
  0
CLASS
  1
ACMESCOPE
  2
AcMeScope
  3
AcMeServices
 90
     1024
280
     0
281
     0
  0
CLASS
  1
ACMECOMMANDHISTORY
  2
AcMeCommandHistory
  3
AcMeServices
 90
     1024
280
     0
281
     0
  0
CLASS
  1
ACIMSYSVARMAN
  2
AcImSysVarManager
  3
AcMeServices
 90
     1024
280
     0
281
     0
  0
CLASS
  1
ACIMREALSYSVAR
  2
AcImRealSysVar
  3
AcMeServices
 90
     1024
280
     0
281
     0
  0
CLASS
  1
ACIMINTSYSVAR
  2
AcImIntSysVar
  3
AcMeServices
 90
     1024
280
     0
281
     0
  0
CLASS
  1
ACMEDRAWINGMAN
  2
AcMeDrawingMan
  3
AcMeServices
 90
     1024
280
     0
281
     0
  0
CLASS
  1
ACMEVIEW
  2
AcMeView
  3
AcMeServices
 90
     1024
280
     0
281
     0
  0
CLASS
  1
ACDBENTITYCACHE
  2
AcMeEntityCache
  3
AcMeServices
 90
     1024
280
     0
281
     0
  0
CLASS
  1
GSMANAGER
  2
AcMeGSManager
  3
AcMeServices
 90
     1024
280
     0
281
     0
  0
CLASS
  1
AMDTINTERNALREACTOR
  2
AmdtInternalReactor
  3
AcMeServices
 90
     1024
280
     0
281
     0
  0
CLASS
  1
ACMESTATEMGR
  2
AcMeStateMgr
  3
AcMeServices
 90
     1024
280
     0
281
     0
  0
CLASS
  1
ACGREFMASTER
  2
AcGrefMaster
  3
AcAttribServices
 90
     1024
280
     0
281
     0
  0
CLASS
  1
AM_DRAWING_MGR
  2
AcDmDwgMgr
  3
AcMechDwgViewMgmt
 90
     1024
280
     0
281
     0
  0
CLASS
  1
AM_DWG_DOCUMENT
  2
AcDmDwgDocument
  3
AcMechDwgViewMgmt
 90
     1024
280
     0
281
     0
  0
CLASS
  1
AM_DWG_SHEET
  2
AcDmSheet
  3
AcMechDwgViewMgmt
 90
     1024
280
     0
281
     0
  0
CLASS
  1
AM_VIEWDIMPARMAP
  2
AcDmViewDimParMap
  3
AcMechDwgViewMgmt
 90
     1024
280
     0
281
     0
  0
CLASS
  1
AM_DWGMGR_NAME
  2
AcDmDwgMgrName
  3
AcMechDwgViewMgmt
 90
     1024
280
     0
281
     0
  0
CLASS
  1
ACME_DATABASE
  2
AcMeDbDatabase
  3
AcMeServices
 90
     1024
280
     0
281
     0
  0
CLASS
  1
ACRFINSADJUSTERMGR
  2
AcRfInsAdjusterMgr
  3
AcMeServices
 90
     1024
280
     0
281
     0
  0
CLASS
  1
ACGREFACADMASTER
  2
AcGrefacadMaster
  3
AcGrefServices
 90
     1024
280
     0
281
     0
  0
CLASS
  1
AMDTMENUSTATEMGR
  2
AmdtMenuStateMgr
  3
McadcomServices
 90
     1024
280
     0
281
     0
  0
CLASS
  1
AMDTMCOMMENUSTATE
  2
AmdtMcomMenuState
  3
McadcomServices
 90
     1024
280
     0
281
     0
  0
CLASS
  1
AMIMASTER
  2
AmiMaster
  3
AmiServices
 90
     1024
280
     0
281
     0
  0
CLASS
  1
ASAPP
  2
AcAsAppObject
  3
AutoSurfServices
 90
     1024
280
     0
281
     0
  0
CLASS
  1
IM_STATIC_MAN
  2
AcImStaticVarManager
  3
AcMeServices
 90
     1024
280
     0
281
     0
  0
CLASS
  1
ACIMSTRSYSVAR
  2
AcImStrSysVar
  3
AcMeServices
 90
     1024
280
     0
281
     0
  0
CLASS
  1
ACIMDBLSTATICVAR
  2
AcImDblStaticVar
  3
AcMeServices
 90
     1024
280
     0
281
     0
  0
CLASS
  1
ACIMSTRSTATICVAR
  2
AcImStrStaticVar
  3
AcMeServices
 90
     1024
280
     0
281
     0
  0
CLASS
  1
ACIMINTSTATICVAR
  2
AcImIntStaticVar
  3
AcMeServices
 90
     1024
280
     0
281
     0
  0
CLASS
  1
ACASGREFMASTER
  2
AcAsGrefMaster
  3
AutoSurfResolverServices
 90
     1024
280
     0
281
     0
  0
CLASS
  1
ACADGREFMODULE
  2
AcAdGrefModule
  3
AdGrefServices
 90
     1024
280
     0
281
     0
  0
CLASS
  1
AMDTMAPISURFMOUDULE
  2
AmdtMApiSurfModule
  3
MApiSurfServices
 90
     1024
280
     0
281
     0
  0
CLASS
  1
MAPIAMMOUDLE
  2
MApiAmModule
  3
MApiAmServices
 90
     1024
280
     0
281
     0
  0
CLASS
  1
AMDTADMENUSTATE
  2
AmdtAdMenuState
  3
DesignerServices
 90
     1024
280
     0
281
     0
  0
CLASS
  1
ADAPPL
  2
AcAdAppl
  3
DesignerServices
 90
     1024
280
     0
281
     0
  0
CLASS
  1
DEPMGR
  2
AcAdDepMgr
  3
DesignerServices
 90
     1024
280
     0
281
     0
  0
CLASS
  1
PARAMMGR
  2
AcAdParamMgr
  3
DesignerServices
 90
     1024
280
     0
281
     0
  0
CLASS
  1
PARAMSCOPE
  2
AcAdParamScope
  3
DesignerServices
 90
     1024
280
     0
281
     0
  0
CLASS
  1
NAMEDAPPL
  2
AcAdNamedAppl
  3
DesignerServices
 90
     1024
280
     0
281
     0
  0
CLASS
  1
AMDTDMMENUSTATE
  2
AmdtDmMenuState
  3
AcMechDwgViewMgmt
 90
     1024
280
     0
281
     0
  0
CLASS
  1
MAPIADMODULE
  2
MApiAdModule
  3
MApiAdServices
 90
     1024
280
     0
281
     0
  0
CLASS
  1
AMDTAMMENUSTATE
  2
AmdtAmMenuState
  3
DesignerAssemblies
 90
     1024
280
     0
281
     0
  0
CLASS
  1
ACAMPROJECT
  2
AcAmProject
  3
DesignerAssemblies
 90
     1024
280
     0
281
     0
  0
CLASS
  1
ACAMGRCOMPDEF
  2
AcAmGrCompDef
  3
DesignerAssemblies
 90
     1024
280
     0
281
     0
  0
CLASS
  1
ACCMCONTEXT
  2
AcCmContext
  3
DesignerAssemblies
 90
     1024
280
     0
281
     0
  0
CLASS
  1
ACAMCOMPDEF
  2
AcAmCompDef
  3
DesignerAssemblies
 90
     1024
280
     0
281
     0
  0
CLASS
  1
ACAMCOMPDEFMGR
  2
AcAmCompDefMgr
  3
DesignerAssemblies
 90
     1024
280
     0
281
     0
  0
CLASS
  1
AMCONTEXTMGR
  2
AcAmContextMgr
  3
DesignerAssemblies
 90
     1024
280
     0
281
     0
  0
CLASS
  1
ACAMCONTEXTMODELER
  2
AcAmContextModeler
  3
DesignerAssemblies
 90
     1024
280
     0
281
     0
  0
CLASS
  1
ACMDATADICTIONARY
  2
AcmDataDictionary
  3
"AcmSymBB|Product Description: AutoCAD Mechanical|Company: Autodesk, Inc."
 90
     1024
280
     0
281
     0
  0
CLASS
  1
ACMDATAENTRYBLOCK
  2
AcmDataEntryBlock
  3
AcmSymBB|Product Description: AutoCAD Mechanical|Company: Autodesk, Inc.
 90
     1024
280
     0
281
     0
  0
CLASS
  1
ACRFATTGENMGR
  2
AcRfAttGeneralMgr
  3
AcAttribServices
 90
     1024
280
     0
281
     0
  0
CLASS
  1
ACRFOBJATTMGR
  2
AcRfObjAttGroupMgr
  3
AcAttribServices
 90
     1024
280
     0
281
     0
  0
CLASS
  1
ACRFMCADAPIATTHOLDER
  2
AcRfMCADAPIAttHolder
  3
AcAttribServices
 90
     1024
280
     0
281
     0
  0
CLASS
  1
AMDTSYSATTR
  2
AmdtSystemAttribute
  3
AcAttribServices
 90
     1024
280
     0
281
     0
  0
CLASS
  1
CATALOGSTATE
  2
AcAmCatalogState
  3
DesignerAssemblies
 90
     1024
280
     0
281
     0
  0
CLASS
  1
ACAMGRCOMPDEFSET
  2
AcAmGrCompDefSet
  3
DesignerAssemblies
 90
     1024
280
     0
281
     0
  0
CLASS
  1
AMDTBROWSERDBTAB
  2
AmdtBrowserDbTab
  3
McadcomServices
 90
     1024
280
     0
281
     0
  0
CLASS
  1
CBROWSERAPPOBJECT
  2
CBrowserAppObject
  3
McadcomServices
 90
     1024
280
     0
281
     0
  0
CLASS
  1
DM_PLACEHOLDER
  2
AcDmSelsetPlaceholder
  3
AcMechDwgViewMgmt
 90
     1024
280
     0
281
     0
  0
CLASS
  1
ACMSTANDARDANSI
  2
AcmStandardANSI
  3
"Amdt_StdImp|Product Description: AutoCAD Mechanical|Company: Autodesk, Inc."
 90
     1024
280
     0
281
     0
  0
CLASS
  1
ACMSURFSTANDARDANSI
  2
AcmSurfTextStdANSI
  3
"Amdt_StdImp|Product Description: AutoCAD Mechanical|Company: Autodesk, Inc."
 90
     1024
280
     0
281
     0
  0
CLASS
  1
ACMFCFSTANDARDANSI
  2
AcmFCFStdANSI
  3
"Amdt_StdImp|Product Description: AutoCAD Mechanical|Company: Autodesk, Inc."
 90
     1024
280
     0
281
     0
  0
CLASS
  1
ACMWELDSTANDARDANSI
  2
AcmWeldingStdANSI
  3
"Amdt_StdImp|Product Description: AutoCAD Mechanical|Company: Autodesk, Inc."
 90
     1024
280
     0
281
     0
  0
CLASS
  1
ACMIDSTANDARDANSI
  2
AcmIdStdANSI
  3
"Amdt_StdImp|Product Description: AutoCAD Mechanical|Company: Autodesk, Inc."
 90
     1024
280
     0
281
     0
  0
CLASS
  1
ACMDATUMSTANDARDANSI
  2
AcmDatumStdANSI
  3
"Amdt_StdImp|Product Description: AutoCAD Mechanical|Company: Autodesk, Inc."
 90
     1024
280
     0
281
     0
  0
CLASS
  1
ACMBOMSTANDARDANSI
  2
AcmBOMStdANSI
  3
"Amdt_StdImp|Product Description: AutoCAD Mechanical|Company: Autodesk, Inc."
 90
     1024
280
     0
281
     0
  0
CLASS
  1
ACMDETAILSTANDARDANSI
  2
AmdtDetailSymStdANSI
  3
"Amdt_StdImp|Product Description: AutoCAD Mechanical|Company: Autodesk, Inc."
 90
     1024
280
     0
281
     0
  0
CLASS
  1
ACMSECTIONSTANDARDANSI
  2
AmdtSectionSymStdANSI
  3
"Amdt_StdImp|Product Description: AutoCAD Mechanical|Company: Autodesk, Inc."
 90
     1024
280
     0
281
     0
  0
CLASS
  1
ACMCENTERLINESTANDARDANSI
  2
AmdtCenterLineStdANSI
  3
"Amdt_StdImp|Product Description: AutoCAD Mechanical|Company: Autodesk, Inc."
 90
     1024
280
     0
281
     0
  0
CLASS
  1
ACMTHREADLINESTANDARDANSI
  2
AmdtThreadLineStdANSI
  3
"Amdt_StdImp|Product Description: AutoCAD Mechanical|Company: Autodesk, Inc."
 90
     1024
280
     0
281
     0
  0
CLASS
  1
ACMNOTESTANDARDANSI
  2
AmdtNoteStdANSI
  3
"Amdt_StdImp|Product Description: AutoCAD Mechanical|Company: Autodesk, Inc."
 90
     1024
280
     0
281
     0
  0
CLASS
  1
ACMTAPERSTANDARDANSI
  2
AcmTaperStdANSI
  3
"Amdt_StdImp|Product Description: AutoCAD Mechanical|Company: Autodesk, Inc."
 90
     1024
280
     0
281
     0
  0
CLASS
  1
ACMANOOTATIONVIEWSTANDARDANSI
  2
AmdtAnViewStdANSI
  3
"Amdt_StdImp|Product Description: AutoCAD Mechanical|Company: Autodesk, Inc."
 90
     1024
280
     0
281
     0
  0
CLASS
  1
ACAMGLAYSTD
  2
AcAmgLayStd
  3
"AmgLay|Product Description: AutoCAD Mechanical|Company: Autodesk, Inc."
 90
     1024
280
     0
281
     0
  0
CLASS
  1
ACAMGDIMSTD
  2
AcAmgDimStd
  3
"AmgDim|Product Description: AutoCAD Mechanical|Company: Autodesk, Inc."
 90
     1024
280
     0
281
     0
  0
CLASS
  1
ACAMGHOLECHARTSTDANSI
  2
AcAmgHoleChartStdANSI
  3
AmgDim|Product Description: AutoCAD Mechanical|Company: Autodesk, Inc.
 90
     1024
280
     0
281
     0
  0
CLASS
  1
AMGOBJPROPCFG
  2
AmgObjPropCfg
  3
"AmgLay|Product Description: AutoCAD Mechanical|Company: Autodesk, Inc."
 90
     1025
280
     0
281
     0
  0
CLASS
  1
ACAMGTITLESTD
  2
AcAmgTitleStd
  3
"AmgTitle|Product Description: AutoCAD Mechanical|Company: Autodesk, Inc."
 90
     4095
280
     0
281
     0
  0
CLASS
  1
AMDTNOTETEMPLATEDB
  2
AmdtNoteTemplateDB
  3
AcmSymBB|Product Description: AutoCAD Mechanical|Company: Autodesk, Inc.
 90
     1024
280
     0
281
     0
  0
CLASS
  1
LAYER_INDEX
  2
AcDbLayerIndex
  3
ObjectDBX Classes
 90
        0
280
     0
281
     0
  0
CLASS
  1
IDBUFFER
  2
AcDbIdBuffer
  3
ObjectDBX Classes
 90
        0
280
     0
281
     0
  0
CLASS
  1
DICTIONARYVAR
  2
AcDbDictionaryVar
  3
ObjectDBX Classes
 90
        0
280
     0
281
     0
  0
CLASS
  1
CELLSTYLEMAP
  2
AcDbCellStyleMap
  3
ObjectDBX Classes
 90
     1152
280
     0
281
     0
  0
CLASS
  1
ACDBPLACEHOLDER
  2
AcDbPlaceHolder
  3
ObjectDBX Classes
 90
        0
280
     0
281
     0
  0
CLASS
  1
LAYOUT
  2
AcDbLayout
  3
ObjectDBX Classes
 90
        0
280
     0
281
     0
  0
ENDSEC
  0
SECTION
  2
TABLES
  0
TABLE
  2
VPORT
  5
2756
330
0
100
AcDbSymbolTable
 70
     1
  0
VPORT
  5
27C6
330
2756
100
AcDbSymbolTableRecord
100
AcDbViewportTableRecord
  2
*ACTIVE
 70
     0
 10
0.0
 20
0.0
 11
1.0
 21
1.0
 12
0.0
 22
0.0
 13
0.0
 23
0.0
 14
1.0
 24
1.0
 15
0.0
 25
0.0
 16
0.0
 26
0.0
 36
1.0
 17
44.86543136283768
 27
-74.27518482360347
 37
0.0
 40
1305.108536954707
 41
1.712555066079295
 42
50.0
 43
0.0
 44
0.0
 50
0.0
 51
0.0
 71
     0
 72
   100
 73
     1
 74
     0
 75
     0
 76
     0
 77
     0
 78
     0
281
     0
 65
     0
110
0.0
120
0.0
130
0.0
111
1.0
121
0.0
131
0.0
112
0.0
122
1.0
132
0.0
 79
     0
146
0.0
  0
ENDTAB
  0
TABLE
  2
LTYPE
  5
2753
330
0
100
AcDbSymbolTable
 70
    19
  0
LTYPE
  5
27B0
330
2753
100
AcDbSymbolTableRecord
100
AcDbLinetypeTableRecord
  2
ByBlock
 70
     0
  3

 72
    65
 73
     0
 40
0.0
  0
LTYPE
  5
27B1
330
2753
100
AcDbSymbolTableRecord
100
AcDbLinetypeTableRecord
  2
ByLayer
 70
     0
  3

 72
    65
 73
     0
 40
0.0
  0
LTYPE
  5
27B2
330
2753
100
AcDbSymbolTableRecord
100
AcDbLinetypeTableRecord
  2
CONTINUOUS
 70
     0
  3
実線
 72
    65
 73
     0
 40
0.0
  0
LTYPE
  5
27C7
330
2753
100
AcDbSymbolTableRecord
100
AcDbLinetypeTableRecord
  2
DASHDOT
 70
     0
  3
____ _ ____ _ ____ _ ____ _ ____ _ ____ _ ____
 72
    65
 73
     4
 40
5.5
 49
4.0
 74
     0
 49
-0.6
 74
     0
 49
0.3
 74
     0
 49
-0.6
 74
     0
  0
LTYPE
  5
27C8
330
2753
100
AcDbSymbolTableRecord
100
AcDbLinetypeTableRecord
  2
HIDDEN
 70
     0
  3
Hidden __ __ __ __ __ __ __ __ __ __ __ __ __ _
 72
    65
 73
     2
 40
0.375
 49
0.25
 74
     0
 49
-0.125
 74
     0
  0
LTYPE
  5
27C9
330
2753
100
AcDbSymbolTableRecord
100
AcDbLinetypeTableRecord
  2
PHANTOM2
 70
     0
  3
Phantom (.5x) ___ _ _ ___ _ _ ___ _ _ ___ _ _
 72
    65
 73
     6
 40
1.25
 49
0.625
 74
     0
 49
-0.125
 74
     0
 49
0.125
 74
     0
 49
-0.125
 74
     0
 49
0.125
 74
     0
 49
-0.125
 74
     0
  0
LTYPE
  5
27CA
330
2753
100
AcDbSymbolTableRecord
100
AcDbLinetypeTableRecord
  2
CENTER
 70
     0
  3
Center ____ _ ____ _ ____ _ ____ _ ____ _ ____
 72
    65
 73
     4
 40
2.0
 49
1.25
 74
     0
 49
-0.25
 74
     0
 49
0.25
 74
     0
 49
-0.25
 74
     0
  0
LTYPE
  5
27CB
330
2753
100
AcDbSymbolTableRecord
100
AcDbLinetypeTableRecord
  2
ASULTYPE
 70
     0
  3
実線
 72
    65
 73
     2
 40
3.0
 49
2.5
 74
     0
 49
0.5
 74
     0
  0
LTYPE
  5
27CC
330
2753
100
AcDbSymbolTableRecord
100
AcDbLinetypeTableRecord
  2
ASVLTYPE
 70
     0
  3
__ __ __ __ __ __ __ __ __ __ __ __ __ __ __ __ __ __ __ __ __
 72
    65
 73
     2
 40
0.75
 49
0.5
 74
     0
 49
-0.25
 74
     0
  0
LTYPE
  5
27CD
330
2753
100
AcDbSymbolTableRecord
100
AcDbLinetypeTableRecord
  2
AM_ISO02W050
 70
     0
  3
__ __ __ __ __ __ __ __ __ __ __ __ __ __ __
 72
    65
 73
     2
 40
7.5
 49
6.0
 74
     0
 49
-1.5
 74
     0
  0
LTYPE
  5
27CE
330
2753
100
AcDbSymbolTableRecord
100
AcDbLinetypeTableRecord
  2
AM_ISO08W050
 70
     0
  3
____ . ____ . ____ . ____ . ____ . ____ . ____
 72
    65
 73
     4
 40
18.0
 49
12.0
 74
     0
 49
-1.5
 74
     0
 49
3.0
 74
     0
 49
-1.5
 74
     0
  0
LTYPE
  5
27CF
330
2753
100
AcDbSymbolTableRecord
100
AcDbLinetypeTableRecord
  2
AM_ISO09W050
 70
     0
  3
_____ . . _____ . . _____ . . ____ .. ____
 72
    65
 73
     6
 40
22.5
 49
12.0
 74
     0
 49
-1.5
 74
     0
 49
3.0
 74
     0
 49
-1.5
 74
     0
 49
3.0
 74
     0
 49
-1.5
 74
     0
  0
LTYPE
  5
27D0
330
2753
100
AcDbSymbolTableRecord
100
AcDbLinetypeTableRecord
  2
AMCONSTR
 70
     0
  3
_______________________
 72
    65
 73
     2
 40
9999.0
 49
9999.0
 74
     0
 49
0.0
 74
     0
  0
LTYPE
  5
27D1
330
2753
100
AcDbSymbolTableRecord
100
AcDbLinetypeTableRecord
  2
AM_ISO08W050X2
 70
     0
  3
__ . __ . __ . __ . __ . __
 72
    65
 73
     4
 40
9.0
 49
6.0
 74
     0
 49
-0.75
 74
     0
 49
1.5
 74
     0
 49
-0.75
 74
     0
  0
LTYPE
  5
27D2
330
2753
100
AcDbSymbolTableRecord
100
AcDbLinetypeTableRecord
  2
AM_ISO02W050X2
 70
     0
  3
 _ _ _ _ _ _ _ _ _ _ _ _
 72
    65
 73
     2
 40
3.75
 49
3.0
 74
     0
 49
-0.75
 74
     0
  0
LTYPE
  5
27D3
330
2753
100
AcDbSymbolTableRecord
100
AcDbLinetypeTableRecord
  2
AMZIGZAG
 70
     0
  3
/\/-/\/-/\/-/\/-/\/-/\/
 72
    65
 73
     2
 40
11.0001
 49
0.0001
 74
     0
 49
-11.0
 74
     0
  0
LTYPE
  5
27D4
330
2753
100
AcDbSymbolTableRecord
100
AcDbLinetypeTableRecord
  2
CENTER2
 70
     0
  3
Center (.5x) ___ _ ___ _ ___ _ ___ _ ___ _ ___
 72
    65
 73
     4
 40
1.125
 49
0.75
 74
     0
 49
-0.125
 74
     0
 49
0.125
 74
     0
 49
-0.125
 74
     0
  0
LTYPE
  5
27D5
330
2753
100
AcDbSymbolTableRecord
100
AcDbLinetypeTableRecord
  2
HIDDEN2
 70
     0
  3
Hidden (.5x) _ _ _ _ _ _ _ _ _ _ _ _ _ _ _ _ _
 72
    65
 73
     2
 40
0.1875
 49
0.125
 74
     0
 49
-0.0625
 74
     0
  0
LTYPE
  5
27D6
330
2753
100
AcDbSymbolTableRecord
100
AcDbLinetypeTableRecord
  2
AMZIGZAG2
 70
     0
  3
/\/-/\/-/\/-/\/-/\/-/\/
 72
    65
 73
     2
 40
0.4401
 49
0.0001
 74
     0
 49
-0.4400000000000003
 74
     0
  0
LTYPE
  5
27D7
330
2753
100
AcDbSymbolTableRecord
100
AcDbLinetypeTableRecord
  2
ACANSTGB
 70
     0
  3
__ . . __ . .
 72
    65
 73
     6
 40
0.35433070866
 49
0.15748031496
 74
     0
 49
-0.03937007874
 74
     0
 49
0.03937007874
 74
     0
 49
-0.03937007874
 74
     0
 49
0.03937007874
 74
     0
 49
-0.03937007874
 74
     0
  0
LTYPE
  5
27D8
330
2753
100
AcDbSymbolTableRecord
100
AcDbLinetypeTableRecord
  2
ACANSTGL
 70
     0
  3
_ _ _ _ _
 72
    65
 73
     2
 40
0.11811023622
 49
0.07874015748
 74
     0
 49
-0.03937007874
 74
     0
  0
ENDTAB
  0
TABLE
  2
LAYER
  5
2750
330
0
100
AcDbSymbolTable
 70
    12
  0
LAYER
  5
27AA
102
{ACAD_XDICTIONARY
360
2980
102
}
330
2750
100
AcDbSymbolTableRecord
100
AcDbLayerTableRecord
  2
0
 70
     0
 62
     7
  6
CONTINUOUS
370
    -3
390
275D
  0
LAYER
  5
27D9
102
{ACAD_XDICTIONARY
360
2982
102
}
330
2750
100
AcDbSymbolTableRecord
100
AcDbLayerTableRecord
  2
OUTLINE
 70
     0
 62
     3
  6
CONTINUOUS
370
    -3
390
275D
  0
LAYER
  5
27DA
102
{ACAD_XDICTIONARY
360
2984
102
}
330
2750
100
AcDbSymbolTableRecord
100
AcDbLayerTableRecord
  2
SIZE
 70
     0
 62
    30
  6
CONTINUOUS
370
    -3
390
275D
  0
LAYER
  5
27DB
102
{ACAD_XDICTIONARY
360
2986
102
}
330
2750
100
AcDbSymbolTableRecord
100
AcDbLayerTableRecord
  2
BASIS
 70
     0
 62
     6
  6
DASHDOT
370
    -3
390
275D
  0
LAYER
  5
27DC
102
{ACAD_XDICTIONARY
360
2988
102
}
330
2750
100
AcDbSymbolTableRecord
100
AcDbLayerTableRecord
  2
DETAIL
 70
     0
 62
     5
  6
CONTINUOUS
370
    -3
390
275D
  0
LAYER
  5
27DD
102
{ACAD_XDICTIONARY
360
298A
102
}
330
2750
100
AcDbSymbolTableRecord
100
AcDbLayerTableRecord
  2
ARRANGE
 70
     0
 62
     1
  6
CONTINUOUS
370
    -3
390
275D
  0
LAYER
  5
27DE
330
2750
100
AcDbSymbolTableRecord
100
AcDbLayerTableRecord
  2
DEFPOINTS
 70
     0
 62
     7
  6
CONTINUOUS
290
     0
370
    -3
390
275D
  0
LAYER
  5
27DF
102
{ACAD_XDICTIONARY
360
298C
102
}
330
2750
100
AcDbSymbolTableRecord
100
AcDbLayerTableRecord
  2
ETC
 70
     0
 62
    61
  6
CONTINUOUS
370
    -3
390
275D
  0
LAYER
  5
27E0
102
{ACAD_XDICTIONARY
360
298E
102
}
330
2750
100
AcDbSymbolTableRecord
100
AcDbLayerTableRecord
  2
FIX
 70
     0
 62
    11
  6
CONTINUOUS
370
    -3
390
275D
  0
LAYER
  5
27E1
102
{ACAD_XDICTIONARY
360
2990
102
}
330
2750
100
AcDbSymbolTableRecord
100
AcDbLayerTableRecord
  2
NOTE
 70
     0
 62
     4
  6
CONTINUOUS
370
    -3
390
275D
  0
LAYER
  5
27E2
102
{ACAD_XDICTIONARY
360
2992
102
}
330
2750
100
AcDbSymbolTableRecord
100
AcDbLayerTableRecord
  2
SERVICESPACE
 70
     0
 62
     2
  6
DASHDOT
370
    -3
390
275D
  0
LAYER
  5
27E3
102
{ACAD_XDICTIONARY
360
2994
102
}
330
2750
100
AcDbSymbolTableRecord
100
AcDbLayerTableRecord
  2
SYMBOLLINE
 70
     0
 62
    15
  6
CONTINUOUS
370
    -3
390
275D
  0
ENDTAB
  0
TABLE
  2
STYLE
  5
2751
330
0
100
AcDbSymbolTable
 70
     5
  0
STYLE
  5
27AB
330
2751
100
AcDbSymbolTableRecord
100
AcDbTextStyleTableRecord
  2
STANDARD
 70
     0
 40
64.0
 41
0.9
 50
0.0
 71
     0
 42
64.0
  3
SIMPLEX.shx
  4
BIGFONT.shx
  0
STYLE
  5
27AF
330
2751
100
AcDbSymbolTableRecord
100
AcDbTextStyleTableRecord
  2
ANNOTATIVE
 70
     0
 40
0.0
 41
1.0
 50
0.0
 71
     0
 42
0.2
  3
txt
  4

1001
ACADANNOTATIVE
1000
AnnotativeData
1002
{
1070
     1
1070
     1
1002
}
  0
STYLE
  5
27E4
330
2751
100
AcDbSymbolTableRecord
100
AcDbTextStyleTableRecord
  2

 70
     1
 40
0.0
 41
1.0
 50
0.0
 71
     0
 42
64.0
  3
genltshp.shx
  4

  0
STYLE
  5
27E5
330
2751
100
AcDbSymbolTableRecord
100
AcDbTextStyleTableRecord
  2
ACANSTS
 70
     0
 40
1.0
 41
1.0
 50
0.0
 71
     0
 42
64.0
  3
romans.shx
  4
extfont.shx
  0
STYLE
  5
27E6
330
2751
100
AcDbSymbolTableRecord
100
AcDbTextStyleTableRecord
  2
ACANSGDT
 70
     0
 40
0.0
 41
1.0
 50
0.0
 71
     0
 42
64.0
  3
amgdt.shx
  4

  0
ENDTAB
  0
TABLE
  2
VIEW
  5
2754
330
0
100
AcDbSymbolTable
 70
     1
  0
VIEW
  5
27E7
330
2754
100
AcDbSymbolTableRecord
100
AcDbViewTableRecord
  2
ALL
 70
     0
 40
4282.619807999997
 10
0.0
 20
41.30990399999999
 41
5940.0
 11
0.0
 21
0.0
 31
1.0
 12
0.0
 22
0.0
 32
0.0
 42
50.0
 43
0.0
 44
0.0
 50
0.0
 71
     0
281
     0
 72
     1
110
0.0
120
0.0
130
0.0
111
1.0
121
0.0
131
0.0
112
0.0
122
1.0
132
0.0
 79
     0
146
0.0
  0
ENDTAB
  0
TABLE
  2
UCS
  5
2755
330
0
100
AcDbSymbolTable
 70
     0
  0
ENDTAB
  0
TABLE
  2
APPID
  5
2757
330
0
100
AcDbSymbolTable
 70
    26
  0
APPID
  5
27AC
330
2757
100
AcDbSymbolTableRecord
100
AcDbRegAppTableRecord
  2
ACAD
 70
     0
  0
APPID
  5
27B3
330
2757
100
AcDbSymbolTableRecord
100
AcDbRegAppTableRecord
  2
ACADANNOTATIVE
 70
     0
  0
APPID
  5
27BD
330
2757
100
AcDbSymbolTableRecord
100
AcDbRegAppTableRecord
  2
ACAD_MLEADERVER
 70
     0
  0
APPID
  5
27E8
330
2757
100
AcDbSymbolTableRecord
100
AcDbRegAppTableRecord
  2
GENIUS_GENDIM_13
 70
     0
  0
APPID
  5
27E9
330
2757
100
AcDbSymbolTableRecord
100
AcDbRegAppTableRecord
  2
GENIUS_GENDTOL_13
 70
     0
  0
APPID
  5
27EA
330
2757
100
AcDbSymbolTableRecord
100
AcDbRegAppTableRecord
  2
GENIUS_GE3DTOL_13
 70
     0
  0
APPID
  5
27EB
330
2757
100
AcDbSymbolTableRecord
100
AcDbRegAppTableRecord
  2
MCAD_NO_VIS
 70
     0
  0
APPID
  5
27EC
330
2757
100
AcDbSymbolTableRecord
100
AcDbRegAppTableRecord
  2
ACAD_TEMP_GRAPHIC
 70
     0
  0
APPID
  5
27ED
330
2757
100
AcDbSymbolTableRecord
100
AcDbRegAppTableRecord
  2
AD_DRAW
 70
     0
  0
APPID
  5
27EE
330
2757
100
AcDbSymbolTableRecord
100
AcDbRegAppTableRecord
  2
ACATTRIBSERVICES
 70
     0
  0
APPID
  5
27EF
330
2757
100
AcDbSymbolTableRecord
100
AcDbRegAppTableRecord
  2
ASURF_PCURVE_APPNAME
 70
     0
  0
APPID
  5
27F0
330
2757
100
AcDbSymbolTableRecord
100
AcDbRegAppTableRecord
  2
AMG_3D2D_5_0
 70
     0
  0
APPID
  5
27F1
330
2757
100
AcDbSymbolTableRecord
100
AcDbRegAppTableRecord
  2
DESIGNERASSEMBLIES
 70
     0
  0
APPID
  5
27F2
330
2757
100
AcDbSymbolTableRecord
100
AcDbRegAppTableRecord
  2
ACADM_DIM_EDIT
 70
     0
  0
APPID
  5
27F3
330
2757
100
AcDbSymbolTableRecord
100
AcDbRegAppTableRecord
  2
AMDT_DM_ADJ
 70
     0
  0
APPID
  5
27F4
330
2757
100
AcDbSymbolTableRecord
100
AcDbRegAppTableRecord
  2
ACAD_DSTYLE_DIMARC_LENGTH_
 70
     0
  0
APPID
  5
27F5
330
2757
100
AcDbSymbolTableRecord
100
AcDbRegAppTableRecord
  2
ACAD_DSTYLE_DIMJOGGED_JOGA
 70
     0
  0
APPID
  5
27F6
330
2757
100
AcDbSymbolTableRecord
100
AcDbRegAppTableRecord
  2
ACAD_PSEXT
 70
     0
  0
APPID
  5
27F7
330
2757
100
AcDbSymbolTableRecord
100
AcDbRegAppTableRecord
  2
ACAD_EXEMPT_FROM_CAD_STANDARDS
 70
     0
  0
APPID
  5
27F8
330
2757
100
AcDbSymbolTableRecord
100
AcDbRegAppTableRecord
  2
ACAD_DSTYLE_DIMJAG
 70
     0
  0
APPID
  5
27F9
330
2757
100
AcDbSymbolTableRecord
100
AcDbRegAppTableRecord
  2
ACAD_DSTYLE_DIMTALN
 70
     0
  0
APPID
  5
2927
330
2757
100
AcDbSymbolTableRecord
100
AcDbRegAppTableRecord
  2
AMG_3D2D_5.0
 70
     0
  0
APPID
  5
29BD
330
2757
100
AcDbSymbolTableRecord
100
AcDbRegAppTableRecord
  2
ACAD_DSTYLE_DIMARC_LENGTH_SYMBOL
 70
     0
  0
APPID
  5
29BE
330
2757
100
AcDbSymbolTableRecord
100
AcDbRegAppTableRecord
  2
ACAD_DSTYLE_DIM_LINETYPE
 70
     0
  0
APPID
  5
29BF
330
2757
100
AcDbSymbolTableRecord
100
AcDbRegAppTableRecord
  2
ACAD_DSTYLE_DIM_EXT1_LINETYPE
 70
     0
  0
APPID
  5
29C0
330
2757
100
AcDbSymbolTableRecord
100
AcDbRegAppTableRecord
  2
ACAD_DSTYLE_DIM_EXT2_LINETYPE
 70
     0
  0
ENDTAB
  0
TABLE
  2
DIMSTYLE
  5
2758
330
0
100
AcDbSymbolTable
 70
    10
100
AcDbDimStyleTable
 71
     1
340
27FA
  0
DIMSTYLE
105
27AD
330
2758
100
AcDbSymbolTableRecord
100
AcDbDimStyleTableRecord
  2
STANDARD
 70
     0
 41
12.0
 42
20.0
 44
20.0
 77
     1
 78
     8
140
64.0
141
0.0
147
10.0
275
     1
279
     2
284
     7
285
     7
286
     7
340
27AB
  0
DIMSTYLE
105
27AE
330
2758
100
AcDbSymbolTableRecord
100
AcDbDimStyleTableRecord
  2
ANNOTATIVE
 70
     0
275
     1
279
     2
284
     7
285
     7
286
     7
340
27AB
1001
ACADANNOTATIVE
1000
AnnotativeData
1002
{
1070
     1
1070
     1
1002
}
  0
DIMSTYLE
105
27FA
330
2758
100
AcDbSymbolTableRecord
100
AcDbDimStyleTableRecord
  2
AM_ANSI
 70
     0
  4
mm
 41
0.12
 42
0.05
 43
0.5
 44
0.1
 47
0.1
 48
0.1
 78
     7
 79
     2
140
0.12
141
0.0
146
0.71
147
0.06
176
   256
177
   256
178
     2
274
     4
284
     7
340
27AB
371
    -1
372
    -1
1001
ACAD_DSTYLE_DIMARC_LENGTH_SYMBOL
1070
   379
1070
     1
1001
ACAD_DSTYLE_DIM_LINETYPE
1070
   380
1005
27B0
1001
ACAD_DSTYLE_DIM_EXT1_LINETYPE
1070
   381
1005
27B0
1001
ACAD_DSTYLE_DIM_EXT2_LINETYPE
1070
   382
1005
27B0
  0
DIMSTYLE
105
27FB
330
2758
100
AcDbSymbolTableRecord
100
AcDbDimStyleTableRecord
  2
AM_ANSI$3
 70
     0
  4
mm
 41
0.12
 42
0.05
 43
0.5
 44
0.1
 47
0.1
 48
0.1
 78
     7
 79
     2
140
0.12
141
0.0
146
0.71
147
0.06
176
   256
177
   256
178
     2
274
     4
284
     7
288
     1
289
     0
340
27AB
371
    -1
372
    -1
1001
ACAD_DSTYLE_DIMARC_LENGTH_SYMBOL
1070
   379
1070
     1
1001
ACAD_DSTYLE_DIM_LINETYPE
1070
   380
1005
27B0
1001
ACAD_DSTYLE_DIM_EXT1_LINETYPE
1070
   381
1005
27B0
1001
ACAD_DSTYLE_DIM_EXT2_LINETYPE
1070
   382
1005
27B0
  0
DIMSTYLE
105
27FC
330
2758
100
AcDbSymbolTableRecord
100
AcDbDimStyleTableRecord
  2
AM_ANSI$4
 70
     0
  4
mm
 41
0.12
 42
0.05
 43
0.5
 44
0.1
 47
0.1
 48
0.1
 78
     7
 79
     2
140
0.12
141
0.0
146
0.71
147
0.06
176
   256
177
   256
178
     2
274
     4
284
     7
340
27AB
371
    -1
372
    -1
1001
ACAD_DSTYLE_DIMARC_LENGTH_SYMBOL
1070
   379
1070
     1
1001
ACAD_DSTYLE_DIM_LINETYPE
1070
   380
1005
27B0
1001
ACAD_DSTYLE_DIM_EXT1_LINETYPE
1070
   381
1005
27B0
1001
ACAD_DSTYLE_DIM_EXT2_LINETYPE
1070
   382
1005
27B0
  0
DIMSTYLE
105
27FD
330
2758
100
AcDbSymbolTableRecord
100
AcDbDimStyleTableRecord
  2
AM_ANSI$7
 70
     0
  4
mm
 41
0.12
 42
0.05
 43
0.5
 44
0.1
 47
0.1
 48
0.1
 78
     7
 79
     2
140
0.12
141
0.0
146
0.71
147
0.06
176
   256
177
   256
178
     2
274
     4
284
     7
340
27AB
371
    -1
372
    -1
1001
ACAD_DSTYLE_DIMARC_LENGTH_SYMBOL
1070
   379
1070
     1
1001
ACAD_DSTYLE_DIM_LINETYPE
1070
   380
1005
27B0
1001
ACAD_DSTYLE_DIM_EXT1_LINETYPE
1070
   381
1005
27B0
1001
ACAD_DSTYLE_DIM_EXT2_LINETYPE
1070
   382
1005
27B0
  0
DIMSTYLE
105
27FE
330
2758
100
AcDbSymbolTableRecord
100
AcDbDimStyleTableRecord
  2
AM_ANSI$SF
 70
     0
  4
mm
 41
0.12
 42
0.05
 43
0.5
 44
0.1
 47
0.1
 48
0.1
 75
     1
 76
     1
 78
     7
 79
     2
140
0.12
141
0.0
146
0.71
147
0.06
176
   256
177
   256
178
     2
274
     4
284
     7
340
27AB
371
    -1
372
    -1
1001
ACAD_DSTYLE_DIMARC_LENGTH_SYMBOL
1070
   379
1070
     1
1001
ACAD_DSTYLE_DIM_LINETYPE
1070
   380
1005
27B0
1001
ACAD_DSTYLE_DIM_EXT1_LINETYPE
1070
   381
1005
27B0
1001
ACAD_DSTYLE_DIM_EXT2_LINETYPE
1070
   382
1005
27B0
  0
DIMSTYLE
105
27FF
330
2758
100
AcDbSymbolTableRecord
100
AcDbDimStyleTableRecord
  2
AM_ANSI$SH
 70
     0
  4
mm
 41
0.12
 42
0.05
 43
0.5
 44
0.1
 47
0.1
 48
0.1
 75
     1
 76
     1
 78
     7
 79
     2
140
0.12
141
0.0
146
0.71
147
0.06
173
     1
176
   256
177
   256
178
     2
274
     4
284
     7
340
27AB
343
281F
371
    -1
372
    -1
1001
ACAD_DSTYLE_DIMARC_LENGTH_SYMBOL
1070
   379
1070
     1
1001
ACAD_DSTYLE_DIM_LINETYPE
1070
   380
1005
27B0
1001
ACAD_DSTYLE_DIM_EXT1_LINETYPE
1070
   381
1005
27B0
1001
ACAD_DSTYLE_DIM_EXT2_LINETYPE
1070
   382
1005
27B0
  0
DIMSTYLE
105
2800
330
2758
100
AcDbSymbolTableRecord
100
AcDbDimStyleTableRecord
  2
STANDARD1
 70
     0
 40
6.0
 41
2.5
 42
0.625
 43
6.0
 44
1.25
 47
1.0
 48
0.5
 77
     1
 78
     8
140
2.5
141
0.0
146
0.6
147
1.0
173
     1
275
     1
279
     2
284
     7
285
     7
286
     7
340
27AB
  0
DIMSTYLE
105
2801
330
2758
100
AcDbSymbolTableRecord
100
AcDbDimStyleTableRecord
  2
STANDARD$0
 70
     0
 41
12.0
 42
20.0
 44
20.0
 73
     0
 74
     0
 77
     1
 78
     8
140
64.0
141
0.0
147
10.0
275
     1
279
     2
284
     7
285
     7
286
     7
340
27AB
  0
ENDTAB
  0
TABLE
  2
BLOCK_RECORD
  5
274F
330
0
100
AcDbSymbolTable
 70
    79
  0
BLOCK_RECORD
  5
27C2
102
{ACAD_XDICTIONARY
360
2996
102
}
330
274F
100
AcDbSymbolTableRecord
100
AcDbBlockTableRecord
  2
*Model_Space
340
27C5
  0
BLOCK_RECORD
  5
27BE
330
274F
100
AcDbSymbolTableRecord
100
AcDbBlockTableRecord
  2
*Paper_Space
340
27C1
  0
BLOCK_RECORD
  5
2809
330
274F
100
AcDbSymbolTableRecord
100
AcDbBlockTableRecord
  2
$MODEL_SPACE
340
0
  0
BLOCK_RECORD
  5
280B
330
274F
100
AcDbSymbolTableRecord
100
AcDbBlockTableRecord
  2
$PAPER_SPACE
340
0
  0
BLOCK_RECORD
  5
280D
330
274F
100
AcDbSymbolTableRecord
100
AcDbBlockTableRecord
  2
_ORIGIN
340
0
  0
BLOCK_RECORD
  5
280F
330
274F
100
AcDbSymbolTableRecord
100
AcDbBlockTableRecord
  2
_DOTBLANK
340
0
102
{BLKREFS
331
1299
331
129A
331
11AA
331
11AB
331
E80
331
E81
331
1123
331
1124
331
11C2
331
11C3
331
11EC
331
11ED
331
11F9
331
11FA
331
1287
331
1288
331
1417
331
1418
331
1423
331
1424
331
142F
331
1430
331
143B
331
143C
331
166E
331
166F
331
1677
331
1678
331
1680
331
1681
331
1689
331
168A
331
1696
331
1697
331
16A3
331
16A4
331
16AF
331
16B0
331
16BB
331
16BC
331
16C7
331
16C8
331
16D3
331
16D4
331
1D86
331
1D87
331
1D8F
331
1D90
331
1D98
331
1D99
331
1DA1
331
1DA2
331
1DAB
331
1DAC
331
1DB5
331
1DB6
331
26F0
331
26F1
331
26F5
331
26F6
331
26FB
331
26FC
331
2700
331
2701
331
2705
331
2706
331
270B
331
270C
102
}
  0
BLOCK_RECORD
  5
2811
330
274F
100
AcDbSymbolTableRecord
100
AcDbBlockTableRecord
  2
_OPEN30
340
0
102
{BLKREFS
331
2087
331
2161
331
2238
331
232B
331
2458
331
2589
102
}
  0
BLOCK_RECORD
  5
2813
330
274F
100
AcDbSymbolTableRecord
100
AcDbBlockTableRecord
  2
*D5
340
0
  0
BLOCK_RECORD
  5
2815
330
274F
100
AcDbSymbolTableRecord
100
AcDbBlockTableRecord
  2
*U6
340
0
102
{BLKREFS
331
129B
102
}
  0
BLOCK_RECORD
  5
2817
330
274F
100
AcDbSymbolTableRecord
100
AcDbBlockTableRecord
  2
*D7
340
0
  0
BLOCK_RECORD
  5
2819
330
274F
100
AcDbSymbolTableRecord
100
AcDbBlockTableRecord
  2
*U8
340
0
102
{BLKREFS
331
11AC
102
}
  0
BLOCK_RECORD
  5
281B
330
274F
100
AcDbSymbolTableRecord
100
AcDbBlockTableRecord
  2
*D9
340
0
  0
BLOCK_RECORD
  5
281D
330
274F
100
AcDbSymbolTableRecord
100
AcDbBlockTableRecord
  2
*U10
340
0
102
{BLKREFS
331
E82
102
}
  0
BLOCK_RECORD
  5
281F
330
274F
100
AcDbSymbolTableRecord
100
AcDbBlockTableRecord
  2
GENAXEH
340
0
  0
BLOCK_RECORD
  5
2821
330
274F
100
AcDbSymbolTableRecord
100
AcDbBlockTableRecord
  2
*D12
340
0
  0
BLOCK_RECORD
  5
2823
330
274F
100
AcDbSymbolTableRecord
100
AcDbBlockTableRecord
  2
*U13
340
0
102
{BLKREFS
331
1125
102
}
  0
BLOCK_RECORD
  5
2825
330
274F
100
AcDbSymbolTableRecord
100
AcDbBlockTableRecord
  2
*D14
340
0
  0
BLOCK_RECORD
  5
2827
330
274F
100
AcDbSymbolTableRecord
100
AcDbBlockTableRecord
  2
*U15
340
0
102
{BLKREFS
331
11C4
102
}
  0
BLOCK_RECORD
  5
2829
330
274F
100
AcDbSymbolTableRecord
100
AcDbBlockTableRecord
  2
*D16
340
0
  0
BLOCK_RECORD
  5
282B
330
274F
100
AcDbSymbolTableRecord
100
AcDbBlockTableRecord
  2
*U17
340
0
102
{BLKREFS
331
11EE
102
}
  0
BLOCK_RECORD
  5
282D
330
274F
100
AcDbSymbolTableRecord
100
AcDbBlockTableRecord
  2
*D18
340
0
  0
BLOCK_RECORD
  5
282F
330
274F
100
AcDbSymbolTableRecord
100
AcDbBlockTableRecord
  2
*U19
340
0
102
{BLKREFS
331
11FB
102
}
  0
BLOCK_RECORD
  5
2831
330
274F
100
AcDbSymbolTableRecord
100
AcDbBlockTableRecord
  2
*D20
340
0
  0
BLOCK_RECORD
  5
2833
330
274F
100
AcDbSymbolTableRecord
100
AcDbBlockTableRecord
  2
*U21
340
0
102
{BLKREFS
331
1289
102
}
  0
BLOCK_RECORD
  5
2835
330
274F
100
AcDbSymbolTableRecord
100
AcDbBlockTableRecord
  2
*D22
340
0
  0
BLOCK_RECORD
  5
2837
330
274F
100
AcDbSymbolTableRecord
100
AcDbBlockTableRecord
  2
*U23
340
0
102
{BLKREFS
331
1419
102
}
  0
BLOCK_RECORD
  5
2839
330
274F
100
AcDbSymbolTableRecord
100
AcDbBlockTableRecord
  2
*D24
340
0
  0
BLOCK_RECORD
  5
283B
330
274F
100
AcDbSymbolTableRecord
100
AcDbBlockTableRecord
  2
*U25
340
0
102
{BLKREFS
331
1425
102
}
  0
BLOCK_RECORD
  5
283D
330
274F
100
AcDbSymbolTableRecord
100
AcDbBlockTableRecord
  2
*D26
340
0
  0
BLOCK_RECORD
  5
283F
330
274F
100
AcDbSymbolTableRecord
100
AcDbBlockTableRecord
  2
*U27
340
0
102
{BLKREFS
331
1431
102
}
  0
BLOCK_RECORD
  5
2841
330
274F
100
AcDbSymbolTableRecord
100
AcDbBlockTableRecord
  2
*D28
340
0
  0
BLOCK_RECORD
  5
2843
330
274F
100
AcDbSymbolTableRecord
100
AcDbBlockTableRecord
  2
*U29
340
0
102
{BLKREFS
331
143D
102
}
  0
BLOCK_RECORD
  5
2845
330
274F
100
AcDbSymbolTableRecord
100
AcDbBlockTableRecord
  2
*D30
340
0
  0
BLOCK_RECORD
  5
2847
330
274F
100
AcDbSymbolTableRecord
100
AcDbBlockTableRecord
  2
*U31
340
0
102
{BLKREFS
331
1670
102
}
  0
BLOCK_RECORD
  5
2849
330
274F
100
AcDbSymbolTableRecord
100
AcDbBlockTableRecord
  2
*D32
340
0
  0
BLOCK_RECORD
  5
284B
330
274F
100
AcDbSymbolTableRecord
100
AcDbBlockTableRecord
  2
*U33
340
0
102
{BLKREFS
331
1679
102
}
  0
BLOCK_RECORD
  5
284D
330
274F
100
AcDbSymbolTableRecord
100
AcDbBlockTableRecord
  2
*D34
340
0
  0
BLOCK_RECORD
  5
284F
330
274F
100
AcDbSymbolTableRecord
100
AcDbBlockTableRecord
  2
*U35
340
0
102
{BLKREFS
331
1682
102
}
  0
BLOCK_RECORD
  5
2851
330
274F
100
AcDbSymbolTableRecord
100
AcDbBlockTableRecord
  2
*D36
340
0
  0
BLOCK_RECORD
  5
2853
330
274F
100
AcDbSymbolTableRecord
100
AcDbBlockTableRecord
  2
*U37
340
0
102
{BLKREFS
331
168B
102
}
  0
BLOCK_RECORD
  5
2855
330
274F
100
AcDbSymbolTableRecord
100
AcDbBlockTableRecord
  2
*U38
340
0
  0
BLOCK_RECORD
  5
2857
330
274F
100
AcDbSymbolTableRecord
100
AcDbBlockTableRecord
  2
*D39
340
0
  0
BLOCK_RECORD
  5
2859
330
274F
100
AcDbSymbolTableRecord
100
AcDbBlockTableRecord
  2
*U40
340
0
102
{BLKREFS
331
1698
102
}
  0
BLOCK_RECORD
  5
285B
330
274F
100
AcDbSymbolTableRecord
100
AcDbBlockTableRecord
  2
*D41
340
0
  0
BLOCK_RECORD
  5
285D
330
274F
100
AcDbSymbolTableRecord
100
AcDbBlockTableRecord
  2
*U42
340
0
102
{BLKREFS
331
16A5
102
}
  0
BLOCK_RECORD
  5
285F
330
274F
100
AcDbSymbolTableRecord
100
AcDbBlockTableRecord
  2
*D43
340
0
  0
BLOCK_RECORD
  5
2861
330
274F
100
AcDbSymbolTableRecord
100
AcDbBlockTableRecord
  2
*U44
340
0
102
{BLKREFS
331
16B1
102
}
  0
BLOCK_RECORD
  5
2863
330
274F
100
AcDbSymbolTableRecord
100
AcDbBlockTableRecord
  2
*D45
340
0
  0
BLOCK_RECORD
  5
2865
330
274F
100
AcDbSymbolTableRecord
100
AcDbBlockTableRecord
  2
*U46
340
0
102
{BLKREFS
331
16BD
102
}
  0
BLOCK_RECORD
  5
2867
330
274F
100
AcDbSymbolTableRecord
100
AcDbBlockTableRecord
  2
*D47
340
0
  0
BLOCK_RECORD
  5
2869
330
274F
100
AcDbSymbolTableRecord
100
AcDbBlockTableRecord
  2
*U48
340
0
102
{BLKREFS
331
16C9
102
}
  0
BLOCK_RECORD
  5
286B
330
274F
100
AcDbSymbolTableRecord
100
AcDbBlockTableRecord
  2
*D49
340
0
  0
BLOCK_RECORD
  5
286D
330
274F
100
AcDbSymbolTableRecord
100
AcDbBlockTableRecord
  2
*U50
340
0
102
{BLKREFS
331
16D5
102
}
  0
BLOCK_RECORD
  5
286F
330
274F
100
AcDbSymbolTableRecord
100
AcDbBlockTableRecord
  2
*D51
340
0
  0
BLOCK_RECORD
  5
2871
330
274F
100
AcDbSymbolTableRecord
100
AcDbBlockTableRecord
  2
*U52
340
0
102
{BLKREFS
331
1D88
102
}
  0
BLOCK_RECORD
  5
2873
330
274F
100
AcDbSymbolTableRecord
100
AcDbBlockTableRecord
  2
*D53
340
0
  0
BLOCK_RECORD
  5
2875
330
274F
100
AcDbSymbolTableRecord
100
AcDbBlockTableRecord
  2
*U54
340
0
102
{BLKREFS
331
1D91
102
}
  0
BLOCK_RECORD
  5
2877
330
274F
100
AcDbSymbolTableRecord
100
AcDbBlockTableRecord
  2
*D55
340
0
  0
BLOCK_RECORD
  5
2879
330
274F
100
AcDbSymbolTableRecord
100
AcDbBlockTableRecord
  2
*U56
340
0
102
{BLKREFS
331
1D9A
102
}
  0
BLOCK_RECORD
  5
287B
330
274F
100
AcDbSymbolTableRecord
100
AcDbBlockTableRecord
  2
*D57
340
0
  0
BLOCK_RECORD
  5
287D
330
274F
100
AcDbSymbolTableRecord
100
AcDbBlockTableRecord
  2
*U58
340
0
102
{BLKREFS
331
1DA3
102
}
  0
BLOCK_RECORD
  5
287F
330
274F
100
AcDbSymbolTableRecord
100
AcDbBlockTableRecord
  2
*D59
340
0
  0
BLOCK_RECORD
  5
2881
330
274F
100
AcDbSymbolTableRecord
100
AcDbBlockTableRecord
  2
*U60
340
0
102
{BLKREFS
331
1DAD
102
}
  0
BLOCK_RECORD
  5
2883
330
274F
100
AcDbSymbolTableRecord
100
AcDbBlockTableRecord
  2
*D61
340
0
  0
BLOCK_RECORD
  5
2885
330
274F
100
AcDbSymbolTableRecord
100
AcDbBlockTableRecord
  2
*U62
340
0
102
{BLKREFS
331
1DB7
102
}
  0
BLOCK_RECORD
  5
2887
330
274F
100
AcDbSymbolTableRecord
100
AcDbBlockTableRecord
  2
*U63
340
0
  0
BLOCK_RECORD
  5
2889
330
274F
100
AcDbSymbolTableRecord
100
AcDbBlockTableRecord
  2
*U64
340
0
  0
BLOCK_RECORD
  5
288B
330
274F
100
AcDbSymbolTableRecord
100
AcDbBlockTableRecord
  2
*U65
340
0
  0
BLOCK_RECORD
  5
288D
330
274F
100
AcDbSymbolTableRecord
100
AcDbBlockTableRecord
  2
*U66
340
0
  0
BLOCK_RECORD
  5
288F
330
274F
100
AcDbSymbolTableRecord
100
AcDbBlockTableRecord
  2
*U67
340
0
  0
BLOCK_RECORD
  5
2891
330
274F
100
AcDbSymbolTableRecord
100
AcDbBlockTableRecord
  2
*U68
340
0
  0
BLOCK_RECORD
  5
2893
330
274F
100
AcDbSymbolTableRecord
100
AcDbBlockTableRecord
  2
*U69
340
0
  0
BLOCK_RECORD
  5
2895
330
274F
100
AcDbSymbolTableRecord
100
AcDbBlockTableRecord
  2
*U70
340
0
  0
BLOCK_RECORD
  5
2897
330
274F
100
AcDbSymbolTableRecord
100
AcDbBlockTableRecord
  2
*U71
340
0
  0
BLOCK_RECORD
  5
2899
330
274F
100
AcDbSymbolTableRecord
100
AcDbBlockTableRecord
  2
*U72
340
0
  0
BLOCK_RECORD
  5
289B
330
274F
100
AcDbSymbolTableRecord
100
AcDbBlockTableRecord
  2
*U73
340
0
  0
BLOCK_RECORD
  5
289D
330
274F
100
AcDbSymbolTableRecord
100
AcDbBlockTableRecord
  2
*U74
340
0
102
{BLKREFS
331
26B9
102
}
  0
BLOCK_RECORD
  5
289F
330
274F
100
AcDbSymbolTableRecord
100
AcDbBlockTableRecord
  2
*U75
340
0
102
{BLKREFS
331
26BA
102
}
  0
BLOCK_RECORD
  5
28A1
330
274F
100
AcDbSymbolTableRecord
100
AcDbBlockTableRecord
  2
*X76
340
0
102
{BLKREFS
331
26E7
102
}
  0
BLOCK_RECORD
  5
28A3
330
274F
100
AcDbSymbolTableRecord
100
AcDbBlockTableRecord
  2
*X77
340
0
102
{BLKREFS
331
26E8
102
}
  0
ENDTAB
  0
ENDSEC
  0
SECTION
  2
BLOCKS
  0
BLOCK
  5
27C3
330
27C2
100
AcDbEntity
  8
0
100
AcDbBlockBegin
  2
*Model_Space
 70
     0
 10
0.0
 20
0.0
 30
0.0
  3
*Model_Space
  1

  0
ENDBLK
  5
27C4
330
27C2
100
AcDbEntity
  8
0
100
AcDbBlockEnd
  0
BLOCK
  5
27BF
330
27BE
100
AcDbEntity
 67
     1
  8
0
100
AcDbBlockBegin
  2
*Paper_Space
 70
     0
 10
0.0
 20
0.0
 30
0.0
  3
*Paper_Space
  1

  0
ENDBLK
  5
27C0
330
27BE
100
AcDbEntity
 67
     1
  8
0
100
AcDbBlockEnd
  0
BLOCK
  5
280A
330
2809
100
AcDbEntity
  8
0
100
AcDbBlockBegin
  2
$MODEL_SPACE
 70
     0
 10
0.0
 20
0.0
 30
0.0
  3
$MODEL_SPACE
  1

  0
ENDBLK
  5
1FC1
330
2809
100
AcDbEntity
  8
0
100
AcDbBlockEnd
  0
BLOCK
  5
280C
330
280B
100
AcDbEntity
  8
0
100
AcDbBlockBegin
  2
$PAPER_SPACE
 70
     0
 10
0.0
 20
0.0
 30
0.0
  3
$PAPER_SPACE
  1

  0
ENDBLK
  5
1FBD
330
280B
100
AcDbEntity
  8
0
100
AcDbBlockEnd
  0
BLOCK
  5
280E
330
280D
100
AcDbEntity
  8
0
100
AcDbBlockBegin
  2
_ORIGIN
 70
     0
 10
0.0
 20
0.0
 30
0.0
  3
_ORIGIN
  1

  0
CIRCLE
  5
880
330
280D
100
AcDbEntity
  8
0
  6
Continuous
 62
     7
100
AcDbCircle
 10
0.0
 20
0.0
 30
0.0
 40
0.5
  0
LINE
  5
881
330
280D
100
AcDbEntity
  8
0
  6
Continuous
 62
     7
100
AcDbLine
 10
0.0
 20
0.0
 30
0.0
 11
-1.0
 21
0.0
 31
0.0
  0
ENDBLK
  5
882
330
280D
100
AcDbEntity
  8
0
100
AcDbBlockEnd
  0
BLOCK
  5
2810
330
280F
100
AcDbEntity
  8
0
 62
     1
100
AcDbBlockBegin
  2
_DOTBLANK
 70
     0
 10
0.0
 20
0.0
 30
0.0
  3
_DOTBLANK
  1

  0
CIRCLE
  5
AB3
330
280F
100
AcDbEntity
  8
0
  6
ByBlock
 62
     0
100
AcDbCircle
 10
0.0
 20
0.0
 30
0.0
 40
0.5
  0
LINE
  5
AB4
330
280F
100
AcDbEntity
  8
0
  6
ByBlock
 62
     0
100
AcDbLine
 10
-0.5
 20
0.0
 30
0.0
 11
-1.0
 21
0.0
 31
0.0
  0
ENDBLK
  5
AB6
330
280F
100
AcDbEntity
  8
0
 62
     1
100
AcDbBlockEnd
  0
BLOCK
  5
2812
330
2811
100
AcDbEntity
  8
0
 62
     1
100
AcDbBlockBegin
  2
_OPEN30
 70
     0
 10
0.0
 20
0.0
 30
0.0
  3
_OPEN30
  1

  0
LINE
  5
AB8
330
2811
100
AcDbEntity
  8
0
  6
ByBlock
 62
     0
100
AcDbLine
 10
-1.0
 20
0.26794919
 30
0.0
 11
0.0
 21
0.0
 31
0.0
  0
LINE
  5
AB9
330
2811
100
AcDbEntity
  8
0
  6
ByBlock
 62
     0
100
AcDbLine
 10
0.0
 20
0.0
 30
0.0
 11
-1.0
 21
-0.26794919
 31
0.0
  0
LINE
  5
ABA
330
2811
100
AcDbEntity
  8
0
  6
ByBlock
 62
     0
100
AcDbLine
 10
0.0
 20
0.0
 30
0.0
 11
-1.0
 21
0.0
 31
0.0
  0
ENDBLK
  5
ABC
330
2811
100
AcDbEntity
  8
0
 62
     1
100
AcDbBlockEnd
  0
BLOCK
  5
2814
330
2813
100
AcDbEntity
  8
0
100
AcDbBlockBegin
  2
*D5
 70
     1
 10
0.0
 20
0.0
 30
0.0
  3
*D5
  1

  0
LINE
  5
1296
330
2813
100
AcDbEntity
  8
SIZE
 62
     0
100
AcDbLine
 10
-134.5
 20
-320.0
 30
0.0
 11
-134.5
 21
-468.0173952306001
 31
0.0
  0
LINE
  5
1297
330
2813
100
AcDbEntity
  8
SIZE
 62
     0
100
AcDbLine
 10
134.5
 20
-320.0
 30
0.0
 11
134.5
 21
-468.0173952306001
 31
0.0
  0
LINE
  5
1298
330
2813
100
AcDbEntity
  8
SIZE
 62
     0
100
AcDbLine
 10
-122.5
 20
-448.0173952306
 30
0.0
 11
122.5
 21
-448.0173952306
 31
0.0
  0
INSERT
  5
1299
330
2813
100
AcDbEntity
  8
SIZE
 62
     0
100
AcDbBlockReference
  2
_DOTBLANK
 10
-134.5
 20
-448.0173952306
 30
0.0
 41
12.0
 42
12.0
 43
12.0
 50
180.0
  0
INSERT
  5
129A
330
2813
100
AcDbEntity
  8
SIZE
 62
     0
100
AcDbBlockReference
  2
_DOTBLANK
 10
134.5
 20
-448.0173952306
 30
0.0
 41
12.0
 42
12.0
 43
12.0
  0
INSERT
  5
129B
330
2813
100
AcDbEntity
  8
0
100
AcDbBlockReference
  2
*U6
 10
0.0
 20
0.0
 30
0.0
  0
POINT
  5
129C
330
2813
100
AcDbEntity
  8
DEFPOINTS
 62
     0
100
AcDbPoint
 10
-134.5
 20
-300.0
 30
0.0
  0
POINT
  5
129D
330
2813
100
AcDbEntity
  8
DEFPOINTS
 62
     0
100
AcDbPoint
 10
134.5
 20
-300.0
 30
0.0
  0
POINT
  5
129E
330
2813
100
AcDbEntity
  8
DEFPOINTS
 62
     0
100
AcDbPoint
 10
134.5
 20
-448.0173952306
 30
0.0
  0
ENDBLK
  5
D72
330
2813
100
AcDbEntity
  8
0
100
AcDbBlockEnd
  0
BLOCK
  5
2816
330
2815
100
AcDbEntity
  8
0
100
AcDbBlockBegin
  2
*U6
 70
     1
 10
0.0
 20
0.0
 30
0.0
  3
*U6
  1

  0
TEXT
  5
1EF5
330
2815
100
AcDbEntity
  8
SIZE
 62
     0
100
AcDbText
 10
-72.68571428571426
 20
-438.0173952305999
 30
0.0
 40
64.0
  1
269
 41
0.9
100
AcDbText
  0
ENDBLK
  5
1EF7
330
2815
100
AcDbEntity
  8
0
100
AcDbBlockEnd
  0
BLOCK
  5
2818
330
2817
100
AcDbEntity
  8
0
100
AcDbBlockBegin
  2
*D7
 70
     1
 10
0.0
 20
0.0
 30
0.0
  3
*D7
  1

  0
LINE
  5
11A7
330
2817
100
AcDbEntity
  8
SIZE
  6
Continuous
 62
     0
100
AcDbLine
 10
143.5
 20
-300.0
 30
0.0
 11
304.6432844803791
 21
-300.0
 31
0.0
  0
LINE
  5
11A8
330
2817
100
AcDbEntity
  8
SIZE
  6
Continuous
 62
     0
100
AcDbLine
 10
177.5
 20
-0.0000000000000057
 30
0.0
 11
304.6432844803792
 21
-0.0000000000000417
 31
0.0
  0
LINE
  5
11A9
330
2817
100
AcDbEntity
  8
SIZE
  6
Continuous
 62
     0
100
AcDbLine
 10
284.6432844803791
 20
-288.0000000000001
 30
0.0
 11
284.6432844803792
 21
-12.00000000000003
 31
0.0
  0
INSERT
  5
11AA
330
2817
100
AcDbEntity
  8
SIZE
  6
Continuous
 62
     0
100
AcDbBlockReference
  2
_DOTBLANK
 10
284.6432844803791
 20
-300.0
 30
0.0
 41
12.0
 42
12.0
 43
12.0
 50
270.0
  0
INSERT
  5
11AB
330
2817
100
AcDbEntity
  8
SIZE
  6
Continuous
 62
     0
100
AcDbBlockReference
  2
_DOTBLANK
 10
284.6432844803792
 20
-0.000000000000036
 30
0.0
 41
12.0
 42
12.0
 43
12.0
 50
90.0
  0
INSERT
  5
11AC
330
2817
100
AcDbEntity
  8
0
100
AcDbBlockReference
  2
*U8
 10
0.0
 20
0.0
 30
0.0
  0
POINT
  5
11AD
330
2817
100
AcDbEntity
  8
DEFPOINTS
  6
Continuous
 62
     0
100
AcDbPoint
 10
123.5
 20
-300.0
 30
0.0
  0
POINT
  5
11AE
330
2817
100
AcDbEntity
  8
DEFPOINTS
  6
Continuous
 62
     0
100
AcDbPoint
 10
157.5
 20
0.0
 30
0.0
  0
POINT
  5
11AF
330
2817
100
AcDbEntity
  8
DEFPOINTS
  6
Continuous
 62
     0
100
AcDbPoint
 10
284.6432844803792
 20
-0.000000000000036
 30
0.0
  0
ENDBLK
  5
E11
330
2817
100
AcDbEntity
  8
0
100
AcDbBlockEnd
  0
BLOCK
  5
281A
330
2819
100
AcDbEntity
  8
0
100
AcDbBlockBegin
  2
*U8
 70
     1
 10
0.0
 20
0.0
 30
0.0
  3
*U8
  1

  0
TEXT
  5
1EE1
330
2819
100
AcDbEntity
  8
SIZE
 62
     0
100
AcDbText
 10
274.6432844803792
 20
-224.0571428571429
 30
0.0
 40
64.0
  1
300
 50
90.0
 41
0.9
100
AcDbText
  0
ENDBLK
  5
1EE3
330
2819
100
AcDbEntity
  8
0
100
AcDbBlockEnd
  0
BLOCK
  5
281C
330
281B
100
AcDbEntity
  8
0
100
AcDbBlockBegin
  2
*D9
 70
     1
 10
0.0
 20
0.0
 30
0.0
  3
*D9
  1

  0
LINE
  5
E7D
330
281B
100
AcDbEntity
  8
SIZE
 62
     0
100
AcDbLine
 10
-139.9999999999998
 20
32.46448280219375
 30
0.0
 11
-139.9999999999998
 21
136.4516878685508
 31
0.0
  0
LINE
  5
E7E
330
281B
100
AcDbEntity
  8
SIZE
 62
     0
100
AcDbLine
 10
140.0
 20
32.46448280219375
 30
0.0
 11
140.0
 21
136.4516878685508
 31
0.0
  0
LINE
  5
E7F
330
281B
100
AcDbEntity
  8
SIZE
 62
     0
100
AcDbLine
 10
-128.0
 20
116.4516878685508
 30
0.0
 11
128.0
 21
116.4516878685508
 31
0.0
  0
INSERT
  5
E80
330
281B
100
AcDbEntity
  8
SIZE
 62
     0
100
AcDbBlockReference
  2
_DOTBLANK
 10
-139.9999999999998
 20
116.4516878685508
 30
0.0
 41
12.0
 42
12.0
 43
12.0
 50
180.0
  0
INSERT
  5
E81
330
281B
100
AcDbEntity
  8
SIZE
 62
     0
100
AcDbBlockReference
  2
_DOTBLANK
 10
140.0
 20
116.4516878685508
 30
0.0
 41
12.0
 42
12.0
 43
12.0
  0
INSERT
  5
E82
330
281B
100
AcDbEntity
  8
0
100
AcDbBlockReference
  2
*U10
 10
0.0
 20
0.0
 30
0.0
  0
POINT
  5
E83
330
281B
100
AcDbEntity
  8
DEFPOINTS
 62
     0
100
AcDbPoint
 10
-139.9999999999998
 20
12.46448280219374
 30
0.0
  0
POINT
  5
E84
330
281B
100
AcDbEntity
  8
DEFPOINTS
 62
     0
100
AcDbPoint
 10
140.0
 20
12.46448280219374
 30
0.0
  0
POINT
  5
E85
330
281B
100
AcDbEntity
  8
DEFPOINTS
 62
     0
100
AcDbPoint
 10
140.0
 20
116.4516878685508
 30
0.0
  0
ENDBLK
  5
E7C
330
281B
100
AcDbEntity
  8
0
100
AcDbBlockEnd
  0
BLOCK
  5
281E
330
281D
100
AcDbEntity
  8
0
100
AcDbBlockBegin
  2
*U10
 70
     1
 10
0.0
 20
0.0
 30
0.0
  3
*U10
  1

  0
TEXT
  5
1ED8
330
281D
100
AcDbEntity
  8
SIZE
 62
     0
100
AcDbText
 10
-74.05714285714281
 20
126.4516878685508
 30
0.0
 40
64.0
  1
280
 41
0.9
100
AcDbText
  0
ENDBLK
  5
1EDA
330
281D
100
AcDbEntity
  8
0
100
AcDbBlockEnd
  0
BLOCK
  5
2820
330
281F
100
AcDbEntity
  8
0
100
AcDbBlockBegin
  2
GENAXEH
 70
     0
 10
0.0
 20
0.0
 30
0.0
  3
GENAXEH
  1

  0
LINE
  5
FDB
330
281F
100
AcDbEntity
  8
0
100
AcDbLine
 10
-1.0
 20
0.0
 30
0.0
 11
1.0
 21
0.0
 31
0.0
  0
ENDBLK
  5
FDD
330
281F
100
AcDbEntity
  8
0
100
AcDbBlockEnd
  0
BLOCK
  5
2822
330
2821
100
AcDbEntity
  8
0
100
AcDbBlockBegin
  2
*D12
 70
     1
 10
0.0
 20
0.0
 30
0.0
  3
*D12
  1

  0
LINE
  5
1120
330
2821
100
AcDbEntity
  8
SIZE
 62
     0
100
AcDbLine
 10
-157.5
 20
20.0
 30
0.0
 11
-157.5
 21
245.5794621189598
 31
0.0
  0
LINE
  5
1121
330
2821
100
AcDbEntity
  8
SIZE
 62
     0
100
AcDbLine
 10
157.5
 20
20.0
 30
0.0
 11
157.5
 21
245.5794621189598
 31
0.0
  0
LINE
  5
1122
330
2821
100
AcDbEntity
  8
SIZE
 62
     0
100
AcDbLine
 10
-145.5
 20
225.5794621189598
 30
0.0
 11
145.5
 21
225.5794621189598
 31
0.0
  0
INSERT
  5
1123
330
2821
100
AcDbEntity
  8
SIZE
 62
     0
100
AcDbBlockReference
  2
_DOTBLANK
 10
-157.5
 20
225.5794621189598
 30
0.0
 41
12.0
 42
12.0
 43
12.0
 50
180.0
  0
INSERT
  5
1124
330
2821
100
AcDbEntity
  8
SIZE
 62
     0
100
AcDbBlockReference
  2
_DOTBLANK
 10
157.5
 20
225.5794621189598
 30
0.0
 41
12.0
 42
12.0
 43
12.0
  0
INSERT
  5
1125
330
2821
100
AcDbEntity
  8
0
100
AcDbBlockReference
  2
*U13
 10
0.0
 20
0.0
 30
0.0
  0
POINT
  5
1126
330
2821
100
AcDbEntity
  8
DEFPOINTS
 62
     0
100
AcDbPoint
 10
-157.5
 20
0.0
 30
0.0
  0
POINT
  5
1127
330
2821
100
AcDbEntity
  8
DEFPOINTS
 62
     0
100
AcDbPoint
 10
157.5
 20
0.0
 30
0.0
  0
POINT
  5
1128
330
2821
100
AcDbEntity
  8
DEFPOINTS
 62
     0
100
AcDbPoint
 10
157.5
 20
225.5794621189598
 30
0.0
  0
ENDBLK
  5
111F
330
2821
100
AcDbEntity
  8
0
100
AcDbBlockEnd
  0
BLOCK
  5
2824
330
2823
100
AcDbEntity
  8
0
100
AcDbBlockBegin
  2
*U13
 70
     1
 10
0.0
 20
0.0
 30
0.0
  3
*U13
  1

  0
TEXT
  5
1EDD
330
2823
100
AcDbEntity
  8
SIZE
 62
     0
100
AcDbText
 10
-68.57142857142857
 20
235.5794621189599
 30
0.0
 40
64.0
  1
315
 41
0.9
100
AcDbText
  0
ENDBLK
  5
1EDF
330
2823
100
AcDbEntity
  8
0
100
AcDbBlockEnd
  0
BLOCK
  5
2826
330
2825
100
AcDbEntity
  8
0
100
AcDbBlockBegin
  2
*D14
 70
     1
 10
0.0
 20
0.0
 30
0.0
  3
*D14
  1

  0
LINE
  5
11BD
330
2825
100
AcDbEntity
  8
NOTE
 62
     0
100
AcDbLine
 10
-123.4999999999999
 20
-320.0
 30
0.0
 11
-123.4999999999999
 21
-354.9529861856111
 31
0.0
  0
LINE
  5
11BE
330
2825
100
AcDbEntity
  8
NOTE
 62
     0
100
AcDbLine
 10
-133.4999999999998
 20
-331.2126909923287
 30
0.0
 11
-133.4999999999998
 21
-354.9529861856111
 31
0.0
  0
LINE
  5
11BF
330
2825
100
AcDbEntity
  8
NOTE
 62
     0
100
AcDbLine
 10
-111.4999999999999
 20
-334.9529861856112
 30
0.0
 11
-99.4999999999999
 21
-334.9529861856112
 31
0.0
  0
LINE
  5
11C0
330
2825
100
AcDbEntity
  8
NOTE
 62
     0
100
AcDbLine
 10
-145.4999999999998
 20
-334.9529861856112
 30
0.0
 11
-157.4999999999998
 21
-334.9529861856112
 31
0.0
  0
LINE
  5
11C1
330
2825
100
AcDbEntity
  8
NOTE
 62
     0
100
AcDbLine
 10
-123.4999999999999
 20
-334.9529861856112
 30
0.0
 11
-133.4999999999998
 21
-334.9529861856112
 31
0.0
  0
INSERT
  5
11C2
330
2825
100
AcDbEntity
  8
NOTE
 62
     0
100
AcDbBlockReference
  2
_DOTBLANK
 10
-123.4999999999999
 20
-334.9529861856112
 30
0.0
 41
12.0
 42
12.0
 43
12.0
 50
180.0
  0
INSERT
  5
11C3
330
2825
100
AcDbEntity
  8
NOTE
 62
     0
100
AcDbBlockReference
  2
_DOTBLANK
 10
-133.4999999999998
 20
-334.9529861856112
 30
0.0
 41
12.0
 42
12.0
 43
12.0
  0
INSERT
  5
11C4
330
2825
100
AcDbEntity
  8
0
100
AcDbBlockReference
  2
*U15
 10
0.0
 20
0.0
 30
0.0
  0
POINT
  5
11C5
330
2825
100
AcDbEntity
  8
DEFPOINTS
 62
     0
100
AcDbPoint
 10
-123.4999999999999
 20
-300.0
 30
0.0
  0
POINT
  5
11C6
330
2825
100
AcDbEntity
  8
DEFPOINTS
 62
     0
100
AcDbPoint
 10
-133.4999999999998
 20
-311.2126909923287
 30
0.0
  0
POINT
  5
11C7
330
2825
100
AcDbEntity
  8
DEFPOINTS
 62
     0
100
AcDbPoint
 10
-133.4999999999998
 20
-334.9529861856112
 30
0.0
  0
ENDBLK
  5
11BC
330
2825
100
AcDbEntity
  8
0
100
AcDbBlockEnd
  0
BLOCK
  5
2828
330
2827
100
AcDbEntity
  8
0
100
AcDbBlockBegin
  2
*U15
 70
     1
 10
0.0
 20
0.0
 30
0.0
  3
*U15
  1

  0
TEXT
  5
1EE5
330
2827
100
AcDbEntity
  8
NOTE
 62
     0
100
AcDbText
 10
-169.642857142857
 20
-324.9529861856112
 30
0.0
 40
64.0
  1
10
 41
0.9
100
AcDbText
  0
ENDBLK
  5
1EE7
330
2827
100
AcDbEntity
  8
0
100
AcDbBlockEnd
  0
BLOCK
  5
282A
330
2829
100
AcDbEntity
  8
0
100
AcDbBlockBegin
  2
*D16
 70
     1
 10
0.0
 20
0.0
 30
0.0
  3
*D16
  1

  0
LINE
  5
11E7
330
2829
100
AcDbEntity
  8
NOTE
 62
     0
100
AcDbLine
 10
-135.5
 20
-333.2126909923287
 30
0.0
 11
-135.5
 21
-386.2569421441843
 31
0.0
  0
LINE
  5
11E8
330
2829
100
AcDbEntity
  8
NOTE
 62
     0
100
AcDbLine
 10
-123.4999999999999
 20
-320.0
 30
0.0
 11
-123.4999999999999
 21
-386.2569421441843
 31
0.0
  0
LINE
  5
11E9
330
2829
100
AcDbEntity
  8
NOTE
 62
     0
100
AcDbLine
 10
-147.5
 20
-366.2569421441844
 30
0.0
 11
-159.5
 21
-366.2569421441844
 31
0.0
  0
LINE
  5
11EA
330
2829
100
AcDbEntity
  8
NOTE
 62
     0
100
AcDbLine
 10
-111.4999999999999
 20
-366.2569421441844
 30
0.0
 11
-99.4999999999999
 21
-366.2569421441844
 31
0.0
  0
LINE
  5
11EB
330
2829
100
AcDbEntity
  8
NOTE
 62
     0
100
AcDbLine
 10
-135.5
 20
-366.2569421441844
 30
0.0
 11
-123.4999999999999
 21
-366.2569421441844
 31
0.0
  0
INSERT
  5
11EC
330
2829
100
AcDbEntity
  8
NOTE
 62
     0
100
AcDbBlockReference
  2
_DOTBLANK
 10
-135.5
 20
-366.2569421441844
 30
0.0
 41
12.0
 42
12.0
 43
12.0
  0
INSERT
  5
11ED
330
2829
100
AcDbEntity
  8
NOTE
 62
     0
100
AcDbBlockReference
  2
_DOTBLANK
 10
-123.4999999999999
 20
-366.2569421441844
 30
0.0
 41
12.0
 42
12.0
 43
12.0
 50
180.0
  0
INSERT
  5
11EE
330
2829
100
AcDbEntity
  8
0
100
AcDbBlockReference
  2
*U17
 10
0.0
 20
0.0
 30
0.0
  0
POINT
  5
11EF
330
2829
100
AcDbEntity
  8
DEFPOINTS
 62
     0
100
AcDbPoint
 10
-135.5
 20
-313.2126909923287
 30
0.0
  0
POINT
  5
11F0
330
2829
100
AcDbEntity
  8
DEFPOINTS
 62
     0
100
AcDbPoint
 10
-123.4999999999999
 20
-300.0
 30
0.0
  0
POINT
  5
11F1
330
2829
100
AcDbEntity
  8
DEFPOINTS
 62
     0
100
AcDbPoint
 10
-123.4999999999999
 20
-366.2569421441844
 30
0.0
  0
ENDBLK
  5
11E6
330
2829
100
AcDbEntity
  8
0
100
AcDbBlockEnd
  0
BLOCK
  5
282C
330
282B
100
AcDbEntity
  8
0
100
AcDbBlockBegin
  2
*U17
 70
     1
 10
0.0
 20
0.0
 30
0.0
  3
*U17
  1

  0
TEXT
  5
1EE9
330
282B
100
AcDbEntity
  8
NOTE
 62
     0
100
AcDbText
 10
-170.642857142857
 20
-356.2569421441843
 30
0.0
 40
64.0
  1
12
 41
0.9
100
AcDbText
  0
ENDBLK
  5
1EEB
330
282B
100
AcDbEntity
  8
0
100
AcDbBlockEnd
  0
BLOCK
  5
282E
330
282D
100
AcDbEntity
  8
0
100
AcDbBlockBegin
  2
*D18
 70
     1
 10
0.0
 20
0.0
 30
0.0
  3
*D18
  1

  0
LINE
  5
11F6
330
282D
100
AcDbEntity
  8
NOTE
 62
     0
100
AcDbLine
 10
-123.4999999999999
 20
-320.0
 30
0.0
 11
-123.4999999999999
 21
-583.8286022818904
 31
0.0
  0
LINE
  5
11F7
330
282D
100
AcDbEntity
  8
NOTE
 62
     0
100
AcDbLine
 10
123.5
 20
-320.0
 30
0.0
 11
123.5
 21
-583.8286022818904
 31
0.0
  0
LINE
  5
11F8
330
282D
100
AcDbEntity
  8
NOTE
 62
     0
100
AcDbLine
 10
-111.4999999999999
 20
-563.8286022818904
 30
0.0
 11
111.5
 21
-563.8286022818904
 31
0.0
  0
INSERT
  5
11F9
330
282D
100
AcDbEntity
  8
NOTE
 62
     0
100
AcDbBlockReference
  2
_DOTBLANK
 10
-123.4999999999999
 20
-563.8286022818904
 30
0.0
 41
12.0
 42
12.0
 43
12.0
 50
180.0
  0
INSERT
  5
11FA
330
282D
100
AcDbEntity
  8
NOTE
 62
     0
100
AcDbBlockReference
  2
_DOTBLANK
 10
123.5
 20
-563.8286022818904
 30
0.0
 41
12.0
 42
12.0
 43
12.0
  0
INSERT
  5
11FB
330
282D
100
AcDbEntity
  8
0
100
AcDbBlockReference
  2
*U19
 10
0.0
 20
0.0
 30
0.0
  0
POINT
  5
11FC
330
282D
100
AcDbEntity
  8
DEFPOINTS
 62
     0
100
AcDbPoint
 10
-123.4999999999999
 20
-300.0
 30
0.0
  0
POINT
  5
11FD
330
282D
100
AcDbEntity
  8
DEFPOINTS
 62
     0
100
AcDbPoint
 10
123.5
 20
-300.0
 30
0.0
  0
POINT
  5
11FE
330
282D
100
AcDbEntity
  8
DEFPOINTS
 62
     0
100
AcDbPoint
 10
123.5
 20
-563.8286022818904
 30
0.0
  0
ENDBLK
  5
11F5
330
282D
100
AcDbEntity
  8
0
100
AcDbBlockEnd
  0
BLOCK
  5
2830
330
282F
100
AcDbEntity
  8
0
100
AcDbBlockBegin
  2
*U19
 70
     1
 10
0.0
 20
0.0
 30
0.0
  3
*U19
  1

  0
TEXT
  5
1EED
330
282F
100
AcDbEntity
  8
NOTE
 62
     0
100
AcDbText
 10
-74.05714285714281
 20
-553.8286022818904
 30
0.0
 40
64.0
  1
247
 41
0.9
100
AcDbText
  0
ENDBLK
  5
1EEF
330
282F
100
AcDbEntity
  8
0
100
AcDbBlockEnd
  0
BLOCK
  5
2832
330
2831
100
AcDbEntity
  8
0
100
AcDbBlockBegin
  2
*D20
 70
     1
 10
0.0
 20
0.0
 30
0.0
  3
*D20
  1

  0
LINE
  5
1284
330
2831
100
AcDbEntity
  8
NOTE
 62
     0
100
AcDbLine
 10
-123.5
 20
12.0
 30
0.0
 11
-123.5
 21
71.83630134534229
 31
0.0
  0
LINE
  5
1285
330
2831
100
AcDbEntity
  8
NOTE
 62
     0
100
AcDbLine
 10
123.5
 20
12.0
 30
0.0
 11
123.5
 21
71.83630134534229
 31
0.0
  0
LINE
  5
1286
330
2831
100
AcDbEntity
  8
NOTE
 62
     0
100
AcDbLine
 10
-111.5
 20
51.83630134534229
 30
0.0
 11
111.5
 21
51.83630134534229
 31
0.0
  0
INSERT
  5
1287
330
2831
100
AcDbEntity
  8
NOTE
 62
     0
100
AcDbBlockReference
  2
_DOTBLANK
 10
-123.5
 20
51.83630134534229
 30
0.0
 41
12.0
 42
12.0
 43
12.0
 50
180.0
  0
INSERT
  5
1288
330
2831
100
AcDbEntity
  8
NOTE
 62
     0
100
AcDbBlockReference
  2
_DOTBLANK
 10
123.5
 20
51.83630134534229
 30
0.0
 41
12.0
 42
12.0
 43
12.0
  0
INSERT
  5
1289
330
2831
100
AcDbEntity
  8
0
100
AcDbBlockReference
  2
*U21
 10
0.0
 20
0.0
 30
0.0
  0
POINT
  5
128A
330
2831
100
AcDbEntity
  8
DEFPOINTS
 62
     0
100
AcDbPoint
 10
-123.5
 20
-8.0
 30
0.0
  0
POINT
  5
128B
330
2831
100
AcDbEntity
  8
DEFPOINTS
 62
     0
100
AcDbPoint
 10
123.5
 20
-8.0
 30
0.0
  0
POINT
  5
128C
330
2831
100
AcDbEntity
  8
DEFPOINTS
 62
     0
100
AcDbPoint
 10
123.5
 20
51.83630134534229
 30
0.0
  0
ENDBLK
  5
1283
330
2831
100
AcDbEntity
  8
0
100
AcDbBlockEnd
  0
BLOCK
  5
2834
330
2833
100
AcDbEntity
  8
0
100
AcDbBlockBegin
  2
*U21
 70
     1
 10
0.0
 20
0.0
 30
0.0
  3
*U21
  1

  0
TEXT
  5
1EF1
330
2833
100
AcDbEntity
  8
NOTE
 62
     0
100
AcDbText
 10
-74.05714285714283
 20
61.83630134534229
 30
0.0
 40
64.0
  1
247
 41
0.9
100
AcDbText
  0
ENDBLK
  5
1EF3
330
2833
100
AcDbEntity
  8
0
100
AcDbBlockEnd
  0
BLOCK
  5
2836
330
2835
100
AcDbEntity
  8
0
100
AcDbBlockBegin
  2
*D22
 70
     1
 10
0.0
 20
0.0
 30
0.0
  3
*D22
  1

  0
LINE
  5
1414
330
2835
100
AcDbEntity
  8
SIZE
 62
     0
100
AcDbLine
 10
-22313.11521613997
 20
7365.702971374808
 30
0.0
 11
-22313.11521613997
 21
7217.685576144207
 31
0.0
  0
LINE
  5
1415
330
2835
100
AcDbEntity
  8
SIZE
 62
     0
100
AcDbLine
 10
-22044.11521613997
 20
7365.702971374808
 30
0.0
 11
-22044.11521613997
 21
7217.685576144207
 31
0.0
  0
LINE
  5
1416
330
2835
100
AcDbEntity
  8
SIZE
 62
     0
100
AcDbLine
 10
-22301.11521613997
 20
7237.685576144207
 30
0.0
 11
-22056.11521613997
 21
7237.685576144207
 31
0.0
  0
INSERT
  5
1417
330
2835
100
AcDbEntity
  8
SIZE
 62
     0
100
AcDbBlockReference
  2
_DOTBLANK
 10
-22313.11521613997
 20
7237.685576144207
 30
0.0
 41
12.0
 42
12.0
 43
12.0
 50
180.0
  0
INSERT
  5
1418
330
2835
100
AcDbEntity
  8
SIZE
 62
     0
100
AcDbBlockReference
  2
_DOTBLANK
 10
-22044.11521613997
 20
7237.685576144207
 30
0.0
 41
12.0
 42
12.0
 43
12.0
  0
INSERT
  5
1419
330
2835
100
AcDbEntity
  8
0
100
AcDbBlockReference
  2
*U23
 10
0.0
 20
0.0
 30
0.0
  0
POINT
  5
141A
330
2835
100
AcDbEntity
  8
DEFPOINTS
 62
     0
100
AcDbPoint
 10
-22313.11521613997
 20
7385.702971374808
 30
0.0
  0
POINT
  5
141B
330
2835
100
AcDbEntity
  8
DEFPOINTS
 62
     0
100
AcDbPoint
 10
-22044.11521613997
 20
7385.702971374808
 30
0.0
  0
POINT
  5
141C
330
2835
100
AcDbEntity
  8
DEFPOINTS
 62
     0
100
AcDbPoint
 10
-22044.11521613997
 20
7237.685576144207
 30
0.0
  0
ENDBLK
  5
141D
330
2835
100
AcDbEntity
  8
0
100
AcDbBlockEnd
  0
BLOCK
  5
2838
330
2837
100
AcDbEntity
  8
0
100
AcDbBlockBegin
  2
*U23
 70
     1
 10
0.0
 20
0.0
 30
0.0
  3
*U23
  1

  0
TEXT
  5
1EF9
330
2837
100
AcDbEntity
  8
SIZE
 62
     0
100
AcDbText
 10
-22251.30093042568
 20
7247.685576144205
 30
0.0
 40
64.0
  1
269
 41
0.9
100
AcDbText
  0
ENDBLK
  5
1EFB
330
2837
100
AcDbEntity
  8
0
100
AcDbBlockEnd
  0
BLOCK
  5
283A
330
2839
100
AcDbEntity
  8
0
100
AcDbBlockBegin
  2
*D24
 70
     1
 10
0.0
 20
0.0
 30
0.0
  3
*D24
  1

  0
LINE
  5
1420
330
2839
100
AcDbEntity
  8
SIZE
  6
Continuous
 62
     0
100
AcDbLine
 10
-22035.11521613997
 20
7385.702971374808
 30
0.0
 11
-21873.97193165959
 21
7385.702971374808
 31
0.0
  0
LINE
  5
1421
330
2839
100
AcDbEntity
  8
SIZE
  6
Continuous
 62
     0
100
AcDbLine
 10
-22001.11521613997
 20
7685.702971374808
 30
0.0
 11
-21873.97193165959
 21
7685.702971374808
 31
0.0
  0
LINE
  5
1422
330
2839
100
AcDbEntity
  8
SIZE
  6
Continuous
 62
     0
100
AcDbLine
 10
-21893.97193165959
 20
7397.702971374808
 30
0.0
 11
-21893.97193165959
 21
7673.702971374808
 31
0.0
  0
INSERT
  5
1423
330
2839
100
AcDbEntity
  8
SIZE
  6
Continuous
 62
     0
100
AcDbBlockReference
  2
_DOTBLANK
 10
-21893.97193165959
 20
7385.702971374808
 30
0.0
 41
12.0
 42
12.0
 43
12.0
 50
270.0
  0
INSERT
  5
1424
330
2839
100
AcDbEntity
  8
SIZE
  6
Continuous
 62
     0
100
AcDbBlockReference
  2
_DOTBLANK
 10
-21893.97193165959
 20
7685.702971374808
 30
0.0
 41
12.0
 42
12.0
 43
12.0
 50
90.0
  0
INSERT
  5
1425
330
2839
100
AcDbEntity
  8
0
100
AcDbBlockReference
  2
*U25
 10
0.0
 20
0.0
 30
0.0
  0
POINT
  5
1426
330
2839
100
AcDbEntity
  8
DEFPOINTS
  6
Continuous
 62
     0
100
AcDbPoint
 10
-22055.11521613997
 20
7385.702971374808
 30
0.0
  0
POINT
  5
1427
330
2839
100
AcDbEntity
  8
DEFPOINTS
  6
Continuous
 62
     0
100
AcDbPoint
 10
-22021.11521613997
 20
7685.702971374808
 30
0.0
  0
POINT
  5
1428
330
2839
100
AcDbEntity
  8
DEFPOINTS
  6
Continuous
 62
     0
100
AcDbPoint
 10
-21893.97193165959
 20
7685.702971374808
 30
0.0
  0
ENDBLK
  5
1429
330
2839
100
AcDbEntity
  8
0
100
AcDbBlockEnd
  0
BLOCK
  5
283C
330
283B
100
AcDbEntity
  8
0
100
AcDbBlockBegin
  2
*U25
 70
     1
 10
0.0
 20
0.0
 30
0.0
  3
*U25
  1

  0
TEXT
  5
1EFD
330
283B
100
AcDbEntity
  8
SIZE
 62
     0
100
AcDbText
 10
-21903.97193165959
 20
7461.645828517662
 30
0.0
 40
64.0
  1
300
 50
90.0
 41
0.9
100
AcDbText
  0
ENDBLK
  5
1EFF
330
283B
100
AcDbEntity
  8
0
100
AcDbBlockEnd
  0
BLOCK
  5
283E
330
283D
100
AcDbEntity
  8
0
100
AcDbBlockBegin
  2
*D26
 70
     1
 10
0.0
 20
0.0
 30
0.0
  3
*D26
  1

  0
LINE
  5
142C
330
283D
100
AcDbEntity
  8
SIZE
 62
     0
100
AcDbLine
 10
-22318.61521613997
 20
7718.167454177002
 30
0.0
 11
-22318.61521613997
 21
7822.154659243358
 31
0.0
  0
LINE
  5
142D
330
283D
100
AcDbEntity
  8
SIZE
 62
     0
100
AcDbLine
 10
-22038.61521613997
 20
7718.167454177002
 30
0.0
 11
-22038.61521613997
 21
7822.154659243358
 31
0.0
  0
LINE
  5
142E
330
283D
100
AcDbEntity
  8
SIZE
 62
     0
100
AcDbLine
 10
-22306.61521613997
 20
7802.154659243358
 30
0.0
 11
-22050.61521613997
 21
7802.154659243358
 31
0.0
  0
INSERT
  5
142F
330
283D
100
AcDbEntity
  8
SIZE
 62
     0
100
AcDbBlockReference
  2
_DOTBLANK
 10
-22318.61521613997
 20
7802.154659243358
 30
0.0
 41
12.0
 42
12.0
 43
12.0
 50
180.0
  0
INSERT
  5
1430
330
283D
100
AcDbEntity
  8
SIZE
 62
     0
100
AcDbBlockReference
  2
_DOTBLANK
 10
-22038.61521613997
 20
7802.154659243358
 30
0.0
 41
12.0
 42
12.0
 43
12.0
  0
INSERT
  5
1431
330
283D
100
AcDbEntity
  8
0
100
AcDbBlockReference
  2
*U27
 10
0.0
 20
0.0
 30
0.0
  0
POINT
  5
1432
330
283D
100
AcDbEntity
  8
DEFPOINTS
 62
     0
100
AcDbPoint
 10
-22318.61521613997
 20
7698.167454177002
 30
0.0
  0
POINT
  5
1433
330
283D
100
AcDbEntity
  8
DEFPOINTS
 62
     0
100
AcDbPoint
 10
-22038.61521613997
 20
7698.167454177002
 30
0.0
  0
POINT
  5
1434
330
283D
100
AcDbEntity
  8
DEFPOINTS
 62
     0
100
AcDbPoint
 10
-22038.61521613997
 20
7802.154659243358
 30
0.0
  0
ENDBLK
  5
1435
330
283D
100
AcDbEntity
  8
0
100
AcDbBlockEnd
  0
BLOCK
  5
2840
330
283F
100
AcDbEntity
  8
0
100
AcDbBlockBegin
  2
*U27
 70
     1
 10
0.0
 20
0.0
 30
0.0
  3
*U27
  1

  0
TEXT
  5
1F01
330
283F
100
AcDbEntity
  8
SIZE
 62
     0
100
AcDbText
 10
-22252.6723589971
 20
7812.154659243358
 30
0.0
 40
64.0
  1
280
 41
0.9
100
AcDbText
  0
ENDBLK
  5
1F03
330
283F
100
AcDbEntity
  8
0
100
AcDbBlockEnd
  0
BLOCK
  5
2842
330
2841
100
AcDbEntity
  8
0
100
AcDbBlockBegin
  2
*D28
 70
     1
 10
0.0
 20
0.0
 30
0.0
  3
*D28
  1

  0
LINE
  5
1438
330
2841
100
AcDbEntity
  8
SIZE
 62
     0
100
AcDbLine
 10
-22336.11521613997
 20
7705.702971374808
 30
0.0
 11
-22336.11521613997
 21
7931.282433493766
 31
0.0
  0
LINE
  5
1439
330
2841
100
AcDbEntity
  8
SIZE
 62
     0
100
AcDbLine
 10
-22021.11521613997
 20
7705.702971374808
 30
0.0
 11
-22021.11521613997
 21
7931.282433493766
 31
0.0
  0
LINE
  5
143A
330
2841
100
AcDbEntity
  8
SIZE
 62
     0
100
AcDbLine
 10
-22324.11521613997
 20
7911.282433493766
 30
0.0
 11
-22033.11521613997
 21
7911.282433493766
 31
0.0
  0
INSERT
  5
143B
330
2841
100
AcDbEntity
  8
SIZE
 62
     0
100
AcDbBlockReference
  2
_DOTBLANK
 10
-22336.11521613997
 20
7911.282433493766
 30
0.0
 41
12.0
 42
12.0
 43
12.0
 50
180.0
  0
INSERT
  5
143C
330
2841
100
AcDbEntity
  8
SIZE
 62
     0
100
AcDbBlockReference
  2
_DOTBLANK
 10
-22021.11521613997
 20
7911.282433493766
 30
0.0
 41
12.0
 42
12.0
 43
12.0
  0
INSERT
  5
143D
330
2841
100
AcDbEntity
  8
0
100
AcDbBlockReference
  2
*U29
 10
0.0
 20
0.0
 30
0.0
  0
POINT
  5
143E
330
2841
100
AcDbEntity
  8
DEFPOINTS
 62
     0
100
AcDbPoint
 10
-22336.11521613997
 20
7685.702971374808
 30
0.0
  0
POINT
  5
143F
330
2841
100
AcDbEntity
  8
DEFPOINTS
 62
     0
100
AcDbPoint
 10
-22021.11521613997
 20
7685.702971374808
 30
0.0
  0
POINT
  5
1440
330
2841
100
AcDbEntity
  8
DEFPOINTS
 62
     0
100
AcDbPoint
 10
-22021.11521613997
 20
7911.282433493766
 30
0.0
  0
ENDBLK
  5
1441
330
2841
100
AcDbEntity
  8
0
100
AcDbBlockEnd
  0
BLOCK
  5
2844
330
2843
100
AcDbEntity
  8
0
100
AcDbBlockBegin
  2
*U29
 70
     1
 10
0.0
 20
0.0
 30
0.0
  3
*U29
  1

  0
TEXT
  5
1F05
330
2843
100
AcDbEntity
  8
SIZE
 62
     0
100
AcDbText
 10
-22247.18664471139
 20
7921.282433493766
 30
0.0
 40
64.0
  1
315
 41
0.9
100
AcDbText
  0
ENDBLK
  5
1F07
330
2843
100
AcDbEntity
  8
0
100
AcDbBlockEnd
  0
BLOCK
  5
2846
330
2845
100
AcDbEntity
  8
0
100
AcDbBlockBegin
  2
*D30
 70
     1
 10
0.0
 20
0.0
 30
0.0
  3
*D30
  1

  0
LINE
  5
166B
330
2845
100
AcDbEntity
  8
SIZE
 62
     0
100
AcDbLine
 10
-134.5
 20
-320.0
 30
0.0
 11
-134.5
 21
-468.0173952306001
 31
0.0
  0
LINE
  5
166C
330
2845
100
AcDbEntity
  8
SIZE
 62
     0
100
AcDbLine
 10
134.5
 20
-320.0
 30
0.0
 11
134.5
 21
-468.0173952306001
 31
0.0
  0
LINE
  5
166D
330
2845
100
AcDbEntity
  8
SIZE
 62
     0
100
AcDbLine
 10
-122.5
 20
-448.0173952306
 30
0.0
 11
122.5
 21
-448.0173952306
 31
0.0
  0
INSERT
  5
166E
330
2845
100
AcDbEntity
  8
SIZE
 62
     0
100
AcDbBlockReference
  2
_DOTBLANK
 10
-134.5
 20
-448.0173952306
 30
0.0
 41
12.0
 42
12.0
 43
12.0
 50
180.0
  0
INSERT
  5
166F
330
2845
100
AcDbEntity
  8
SIZE
 62
     0
100
AcDbBlockReference
  2
_DOTBLANK
 10
134.5
 20
-448.0173952306
 30
0.0
 41
12.0
 42
12.0
 43
12.0
  0
INSERT
  5
1670
330
2845
100
AcDbEntity
  8
0
100
AcDbBlockReference
  2
*U31
 10
0.0
 20
0.0
 30
0.0
  0
POINT
  5
1671
330
2845
100
AcDbEntity
  8
DEFPOINTS
 62
     0
100
AcDbPoint
 10
-134.5
 20
-300.0
 30
0.0
  0
POINT
  5
1672
330
2845
100
AcDbEntity
  8
DEFPOINTS
 62
     0
100
AcDbPoint
 10
134.5
 20
-300.0
 30
0.0
  0
POINT
  5
1673
330
2845
100
AcDbEntity
  8
DEFPOINTS
 62
     0
100
AcDbPoint
 10
134.5
 20
-448.0173952306
 30
0.0
  0
ENDBLK
  5
14A7
330
2845
100
AcDbEntity
  8
0
100
AcDbBlockEnd
  0
BLOCK
  5
2848
330
2847
100
AcDbEntity
  8
0
100
AcDbBlockBegin
  2
*U31
 70
     1
 10
0.0
 20
0.0
 30
0.0
  3
*U31
  1

  0
TEXT
  5
1F09
330
2847
100
AcDbEntity
  8
SIZE
 62
     0
100
AcDbText
 10
-72.68571428571426
 20
-438.0173952306002
 30
0.0
 40
64.0
  1
269
 41
0.9
100
AcDbText
  0
ENDBLK
  5
1F0B
330
2847
100
AcDbEntity
  8
0
100
AcDbBlockEnd
  0
BLOCK
  5
284A
330
2849
100
AcDbEntity
  8
0
100
AcDbBlockBegin
  2
*D32
 70
     1
 10
0.0
 20
0.0
 30
0.0
  3
*D32
  1

  0
LINE
  5
1674
330
2849
100
AcDbEntity
  8
SIZE
  6
Continuous
 62
     0
100
AcDbLine
 10
143.5
 20
-300.0
 30
0.0
 11
304.6432844803784
 21
-300.0
 31
0.0
  0
LINE
  5
1675
330
2849
100
AcDbEntity
  8
SIZE
  6
Continuous
 62
     0
100
AcDbLine
 10
177.5
 20
-0.0000000000000057
 30
0.0
 11
304.6432844803785
 21
-0.0000000000000417
 31
0.0
  0
LINE
  5
1676
330
2849
100
AcDbEntity
  8
SIZE
  6
Continuous
 62
     0
100
AcDbLine
 10
284.6432844803784
 20
-288.0000000000001
 30
0.0
 11
284.6432844803785
 21
-12.00000000000003
 31
0.0
  0
INSERT
  5
1677
330
2849
100
AcDbEntity
  8
SIZE
  6
Continuous
 62
     0
100
AcDbBlockReference
  2
_DOTBLANK
 10
284.6432844803784
 20
-300.0
 30
0.0
 41
12.0
 42
12.0
 43
12.0
 50
270.0
  0
INSERT
  5
1678
330
2849
100
AcDbEntity
  8
SIZE
  6
Continuous
 62
     0
100
AcDbBlockReference
  2
_DOTBLANK
 10
284.6432844803785
 20
-0.000000000000036
 30
0.0
 41
12.0
 42
12.0
 43
12.0
 50
90.0
  0
INSERT
  5
1679
330
2849
100
AcDbEntity
  8
0
100
AcDbBlockReference
  2
*U33
 10
0.0
 20
0.0
 30
0.0
  0
POINT
  5
167A
330
2849
100
AcDbEntity
  8
DEFPOINTS
  6
Continuous
 62
     0
100
AcDbPoint
 10
123.5
 20
-300.0
 30
0.0
  0
POINT
  5
167B
330
2849
100
AcDbEntity
  8
DEFPOINTS
  6
Continuous
 62
     0
100
AcDbPoint
 10
157.5
 20
0.0
 30
0.0
  0
POINT
  5
167C
330
2849
100
AcDbEntity
  8
DEFPOINTS
  6
Continuous
 62
     0
100
AcDbPoint
 10
284.6432844803785
 20
-0.000000000000036
 30
0.0
  0
ENDBLK
  5
14B3
330
2849
100
AcDbEntity
  8
0
100
AcDbBlockEnd
  0
BLOCK
  5
284C
330
284B
100
AcDbEntity
  8
0
100
AcDbBlockBegin
  2
*U33
 70
     1
 10
0.0
 20
0.0
 30
0.0
  3
*U33
  1

  0
TEXT
  5
1F0D
330
284B
100
AcDbEntity
  8
SIZE
 62
     0
100
AcDbText
 10
274.6432844803785
 20
-224.0571428571429
 30
0.0
 40
64.0
  1
300
 50
90.0
 41
0.9
100
AcDbText
  0
ENDBLK
  5
1F0F
330
284B
100
AcDbEntity
  8
0
100
AcDbBlockEnd
  0
BLOCK
  5
284E
330
284D
100
AcDbEntity
  8
0
100
AcDbBlockBegin
  2
*D34
 70
     1
 10
0.0
 20
0.0
 30
0.0
  3
*D34
  1

  0
LINE
  5
167D
330
284D
100
AcDbEntity
  8
SIZE
 62
     0
100
AcDbLine
 10
-140.0
 20
32.46448280219375
 30
0.0
 11
-140.0
 21
136.4516878685507
 31
0.0
  0
LINE
  5
167E
330
284D
100
AcDbEntity
  8
SIZE
 62
     0
100
AcDbLine
 10
140.0
 20
32.46448280219375
 30
0.0
 11
140.0
 21
136.4516878685507
 31
0.0
  0
LINE
  5
167F
330
284D
100
AcDbEntity
  8
SIZE
 62
     0
100
AcDbLine
 10
-128.0
 20
116.4516878685508
 30
0.0
 11
128.0
 21
116.4516878685508
 31
0.0
  0
INSERT
  5
1680
330
284D
100
AcDbEntity
  8
SIZE
 62
     0
100
AcDbBlockReference
  2
_DOTBLANK
 10
-140.0
 20
116.4516878685508
 30
0.0
 41
12.0
 42
12.0
 43
12.0
 50
180.0
  0
INSERT
  5
1681
330
284D
100
AcDbEntity
  8
SIZE
 62
     0
100
AcDbBlockReference
  2
_DOTBLANK
 10
140.0
 20
116.4516878685508
 30
0.0
 41
12.0
 42
12.0
 43
12.0
  0
INSERT
  5
1682
330
284D
100
AcDbEntity
  8
0
100
AcDbBlockReference
  2
*U35
 10
0.0
 20
0.0
 30
0.0
  0
POINT
  5
1683
330
284D
100
AcDbEntity
  8
DEFPOINTS
 62
     0
100
AcDbPoint
 10
-140.0
 20
12.46448280219374
 30
0.0
  0
POINT
  5
1684
330
284D
100
AcDbEntity
  8
DEFPOINTS
 62
     0
100
AcDbPoint
 10
140.0
 20
12.46448280219374
 30
0.0
  0
POINT
  5
1685
330
284D
100
AcDbEntity
  8
DEFPOINTS
 62
     0
100
AcDbPoint
 10
140.0
 20
116.4516878685508
 30
0.0
  0
ENDBLK
  5
14BF
330
284D
100
AcDbEntity
  8
0
100
AcDbBlockEnd
  0
BLOCK
  5
2850
330
284F
100
AcDbEntity
  8
0
100
AcDbBlockBegin
  2
*U35
 70
     1
 10
0.0
 20
0.0
 30
0.0
  3
*U35
  1

  0
TEXT
  5
1F11
330
284F
100
AcDbEntity
  8
SIZE
 62
     0
100
AcDbText
 10
-74.05714285714283
 20
126.4516878685507
 30
0.0
 40
64.0
  1
280
 41
0.9
100
AcDbText
  0
ENDBLK
  5
1F13
330
284F
100
AcDbEntity
  8
0
100
AcDbBlockEnd
  0
BLOCK
  5
2852
330
2851
100
AcDbEntity
  8
0
100
AcDbBlockBegin
  2
*D36
 70
     1
 10
0.0
 20
0.0
 30
0.0
  3
*D36
  1

  0
LINE
  5
1686
330
2851
100
AcDbEntity
  8
SIZE
 62
     0
100
AcDbLine
 10
-157.5
 20
20.0
 30
0.0
 11
-157.5
 21
245.5794621189598
 31
0.0
  0
LINE
  5
1687
330
2851
100
AcDbEntity
  8
SIZE
 62
     0
100
AcDbLine
 10
157.5
 20
20.0
 30
0.0
 11
157.5
 21
245.5794621189598
 31
0.0
  0
LINE
  5
1688
330
2851
100
AcDbEntity
  8
SIZE
 62
     0
100
AcDbLine
 10
-145.5
 20
225.5794621189598
 30
0.0
 11
145.5
 21
225.5794621189598
 31
0.0
  0
INSERT
  5
1689
330
2851
100
AcDbEntity
  8
SIZE
 62
     0
100
AcDbBlockReference
  2
_DOTBLANK
 10
-157.5
 20
225.5794621189598
 30
0.0
 41
12.0
 42
12.0
 43
12.0
 50
180.0
  0
INSERT
  5
168A
330
2851
100
AcDbEntity
  8
SIZE
 62
     0
100
AcDbBlockReference
  2
_DOTBLANK
 10
157.5
 20
225.5794621189598
 30
0.0
 41
12.0
 42
12.0
 43
12.0
  0
INSERT
  5
168B
330
2851
100
AcDbEntity
  8
0
100
AcDbBlockReference
  2
*U37
 10
0.0
 20
0.0
 30
0.0
  0
POINT
  5
168C
330
2851
100
AcDbEntity
  8
DEFPOINTS
 62
     0
100
AcDbPoint
 10
-157.5
 20
0.0
 30
0.0
  0
POINT
  5
168D
330
2851
100
AcDbEntity
  8
DEFPOINTS
 62
     0
100
AcDbPoint
 10
157.5
 20
0.0
 30
0.0
  0
POINT
  5
168E
330
2851
100
AcDbEntity
  8
DEFPOINTS
 62
     0
100
AcDbPoint
 10
157.5
 20
225.5794621189598
 30
0.0
  0
ENDBLK
  5
14CB
330
2851
100
AcDbEntity
  8
0
100
AcDbBlockEnd
  0
BLOCK
  5
2854
330
2853
100
AcDbEntity
  8
0
100
AcDbBlockBegin
  2
*U37
 70
     1
 10
0.0
 20
0.0
 30
0.0
  3
*U37
  1

  0
TEXT
  5
1F15
330
2853
100
AcDbEntity
  8
SIZE
 62
     0
100
AcDbText
 10
-68.57142857142857
 20
235.5794621189598
 30
0.0
 40
64.0
  1
315
 41
0.9
100
AcDbText
  0
ENDBLK
  5
1F17
330
2853
100
AcDbEntity
  8
0
100
AcDbBlockEnd
  0
BLOCK
  5
2856
330
2855
100
AcDbEntity
  8
0
100
AcDbBlockBegin
  2
*U38
 70
     1
 10
0.0
 20
0.0
 30
0.0
  3
*U38
  1

  0
ENDBLK
  5
15CF
330
2855
100
AcDbEntity
  8
0
100
AcDbBlockEnd
  0
BLOCK
  5
2858
330
2857
100
AcDbEntity
  8
0
100
AcDbBlockBegin
  2
*D39
 70
     1
 10
0.0
 20
0.0
 30
0.0
  3
*D39
  1

  0
LINE
  5
1692
330
2857
100
AcDbEntity
  8
SIZE
 62
     0
100
AcDbLine
 10
-25844.51823276502
 20
7685.702971374808
 30
0.0
 11
-25981.04465488371
 21
7685.702971374808
 31
0.0
  0
LINE
  5
1693
330
2857
100
AcDbEntity
  8
SIZE
 62
     0
100
AcDbLine
 10
-25844.51823276502
 20
7677.702971374808
 30
0.0
 11
-25981.04465488371
 21
7677.702971374808
 31
0.0
  0
LINE
  5
1694
330
2857
100
AcDbEntity
  8
SIZE
 62
     0
100
AcDbLine
 10
-25961.04465488371
 20
7697.702971374808
 30
0.0
 11
-25961.04465488371
 21
7709.702971374809
 31
0.0
  0
LINE
  5
1695
330
2857
100
AcDbEntity
  8
SIZE
 62
     0
100
AcDbLine
 10
-25961.04465488371
 20
7665.70297137481
 30
0.0
 11
-25961.04465488371
 21
7595.302971374808
 31
0.0
  0
INSERT
  5
1696
330
2857
100
AcDbEntity
  8
SIZE
 62
     0
100
AcDbBlockReference
  2
_DOTBLANK
 10
-25961.04465488371
 20
7685.702971374808
 30
0.0
 41
12.0
 42
12.0
 43
12.0
 50
270.0
  0
INSERT
  5
1697
330
2857
100
AcDbEntity
  8
SIZE
 62
     0
100
AcDbBlockReference
  2
_DOTBLANK
 10
-25961.04465488371
 20
7677.702971374808
 30
0.0
 41
12.0
 42
12.0
 43
12.0
 50
90.0
  0
INSERT
  5
1698
330
2857
100
AcDbEntity
  8
0
100
AcDbBlockReference
  2
*U40
 10
0.0
 20
0.0
 30
0.0
  0
POINT
  5
1699
330
2857
100
AcDbEntity
  8
DEFPOINTS
 62
     0
100
AcDbPoint
 10
-25824.51823276501
 20
7685.702971374808
 30
0.0
  0
POINT
  5
169A
330
2857
100
AcDbEntity
  8
DEFPOINTS
 62
     0
100
AcDbPoint
 10
-25824.51823276501
 20
7677.702971374808
 30
0.0
  0
POINT
  5
169B
330
2857
100
AcDbEntity
  8
DEFPOINTS
 62
     0
100
AcDbPoint
 10
-25961.04465488371
 20
7677.702971374808
 30
0.0
  0
ENDBLK
  5
169C
330
2857
100
AcDbEntity
  8
0
100
AcDbBlockEnd
  0
BLOCK
  5
285A
330
2859
100
AcDbEntity
  8
0
100
AcDbBlockBegin
  2
*U40
 70
     1
 10
0.0
 20
0.0
 30
0.0
  3
*U40
  1

  0
TEXT
  5
1F19
330
2859
100
AcDbEntity
  8
SIZE
 62
     0
100
AcDbText
 10
-25971.04465488371
 20
7605.302971374804
 30
0.0
 40
64.0
  1
8
 50
90.0
 41
0.9
100
AcDbText
  0
ENDBLK
  5
1F1B
330
2859
100
AcDbEntity
  8
0
100
AcDbBlockEnd
  0
BLOCK
  5
285C
330
285B
100
AcDbEntity
  8
0
100
AcDbBlockBegin
  2
*D41
 70
     1
 10
0.0
 20
0.0
 30
0.0
  3
*D41
  1

  0
LINE
  5
169F
330
285B
100
AcDbEntity
  8
SIZE
 62
     0
100
AcDbLine
 10
-25512.51823276502
 20
7385.702971374808
 30
0.0
 11
-25362.37494828464
 21
7385.702971374808
 31
0.0
  0
LINE
  5
16A0
330
285B
100
AcDbEntity
  8
SIZE
 62
     0
100
AcDbLine
 10
-25523.51823276501
 20
7373.702971374808
 30
0.0
 11
-25362.37494828464
 21
7373.702971374808
 31
0.0
  0
LINE
  5
16A1
330
285B
100
AcDbEntity
  8
SIZE
 62
     0
100
AcDbLine
 10
-25382.37494828464
 20
7397.702971374808
 30
0.0
 11
-25382.37494828464
 21
7409.70297137481
 31
0.0
  0
LINE
  5
16A2
330
285B
100
AcDbEntity
  8
SIZE
 62
     0
100
AcDbLine
 10
-25382.37494828464
 20
7361.702971374808
 30
0.0
 11
-25382.37494828464
 21
7244.674399946237
 31
0.0
  0
INSERT
  5
16A3
330
285B
100
AcDbEntity
  8
SIZE
 62
     0
100
AcDbBlockReference
  2
_DOTBLANK
 10
-25382.37494828464
 20
7385.702971374808
 30
0.0
 41
12.0
 42
12.0
 43
12.0
 50
270.0
  0
INSERT
  5
16A4
330
285B
100
AcDbEntity
  8
SIZE
 62
     0
100
AcDbBlockReference
  2
_DOTBLANK
 10
-25382.37494828464
 20
7373.702971374808
 30
0.0
 41
12.0
 42
12.0
 43
12.0
 50
90.0
  0
INSERT
  5
16A5
330
285B
100
AcDbEntity
  8
0
100
AcDbBlockReference
  2
*U42
 10
0.0
 20
0.0
 30
0.0
  0
POINT
  5
16A6
330
285B
100
AcDbEntity
  8
DEFPOINTS
 62
     0
100
AcDbPoint
 10
-25532.51823276502
 20
7385.702971374808
 30
0.0
  0
POINT
  5
16A7
330
285B
100
AcDbEntity
  8
DEFPOINTS
 62
     0
100
AcDbPoint
 10
-25543.51823276502
 20
7373.702971374808
 30
0.0
  0
POINT
  5
16A8
330
285B
100
AcDbEntity
  8
DEFPOINTS
 62
     0
100
AcDbPoint
 10
-25382.37494828464
 20
7373.702971374808
 30
0.0
  0
ENDBLK
  5
16A9
330
285B
100
AcDbEntity
  8
0
100
AcDbBlockEnd
  0
BLOCK
  5
285E
330
285D
100
AcDbEntity
  8
0
100
AcDbBlockBegin
  2
*U42
 70
     1
 10
0.0
 20
0.0
 30
0.0
  3
*U42
  1

  0
TEXT
  5
1F1D
330
285D
100
AcDbEntity
  8
SIZE
 62
     0
100
AcDbText
 10
-25392.37494828464
 20
7256.045828517662
 30
0.0
 40
64.0
  1
12
 50
90.0
 41
0.9
100
AcDbText
  0
ENDBLK
  5
1F1F
330
285D
100
AcDbEntity
  8
0
100
AcDbBlockEnd
  0
BLOCK
  5
2860
330
285F
100
AcDbEntity
  8
0
100
AcDbBlockBegin
  2
*D43
 70
     1
 10
0.0
 20
0.0
 30
0.0
  3
*D43
  1

  0
LINE
  5
16AC
330
285F
100
AcDbEntity
  8
SIZE
 62
     0
100
AcDbLine
 10
-25801.51823276501
 20
7365.702971374808
 30
0.0
 11
-25801.51823276501
 21
7217.685576144207
 31
0.0
  0
LINE
  5
16AD
330
285F
100
AcDbEntity
  8
SIZE
 62
     0
100
AcDbLine
 10
-25532.51823276502
 20
7365.702971374808
 30
0.0
 11
-25532.51823276502
 21
7217.685576144207
 31
0.0
  0
LINE
  5
16AE
330
285F
100
AcDbEntity
  8
SIZE
 62
     0
100
AcDbLine
 10
-25789.51823276502
 20
7237.685576144207
 30
0.0
 11
-25544.51823276501
 21
7237.685576144207
 31
0.0
  0
INSERT
  5
16AF
330
285F
100
AcDbEntity
  8
SIZE
 62
     0
100
AcDbBlockReference
  2
_DOTBLANK
 10
-25801.51823276501
 20
7237.685576144207
 30
0.0
 41
12.0
 42
12.0
 43
12.0
 50
180.0
  0
INSERT
  5
16B0
330
285F
100
AcDbEntity
  8
SIZE
 62
     0
100
AcDbBlockReference
  2
_DOTBLANK
 10
-25532.51823276502
 20
7237.685576144207
 30
0.0
 41
12.0
 42
12.0
 43
12.0
  0
INSERT
  5
16B1
330
285F
100
AcDbEntity
  8
0
100
AcDbBlockReference
  2
*U44
 10
0.0
 20
0.0
 30
0.0
  0
POINT
  5
16B2
330
285F
100
AcDbEntity
  8
DEFPOINTS
 62
     0
100
AcDbPoint
 10
-25801.51823276501
 20
7385.702971374808
 30
0.0
  0
POINT
  5
16B3
330
285F
100
AcDbEntity
  8
DEFPOINTS
 62
     0
100
AcDbPoint
 10
-25532.51823276502
 20
7385.702971374808
 30
0.0
  0
POINT
  5
16B4
330
285F
100
AcDbEntity
  8
DEFPOINTS
 62
     0
100
AcDbPoint
 10
-25532.51823276502
 20
7237.685576144207
 30
0.0
  0
ENDBLK
  5
16B5
330
285F
100
AcDbEntity
  8
0
100
AcDbBlockEnd
  0
BLOCK
  5
2862
330
2861
100
AcDbEntity
  8
0
100
AcDbBlockBegin
  2
*U44
 70
     1
 10
0.0
 20
0.0
 30
0.0
  3
*U44
  1

  0
TEXT
  5
1F21
330
2861
100
AcDbEntity
  8
SIZE
 62
     0
100
AcDbText
 10
-25739.70394705074
 20
7247.685576144205
 30
0.0
 40
64.0
  1
269
 41
0.9
100
AcDbText
  0
ENDBLK
  5
1F23
330
2861
100
AcDbEntity
  8
0
100
AcDbBlockEnd
  0
BLOCK
  5
2864
330
2863
100
AcDbEntity
  8
0
100
AcDbBlockBegin
  2
*D45
 70
     1
 10
0.0
 20
0.0
 30
0.0
  3
*D45
  1

  0
LINE
  5
16B8
330
2863
100
AcDbEntity
  8
SIZE
 62
     0
100
AcDbLine
 10
-25512.51823276502
 20
7385.702971374808
 30
0.0
 11
-25362.37494828464
 21
7385.702971374808
 31
0.0
  0
LINE
  5
16B9
330
2863
100
AcDbEntity
  8
SIZE
 62
     0
100
AcDbLine
 10
-25489.51823276501
 20
7685.702971374808
 30
0.0
 11
-25362.37494828464
 21
7685.702971374808
 31
0.0
  0
LINE
  5
16BA
330
2863
100
AcDbEntity
  8
SIZE
 62
     0
100
AcDbLine
 10
-25382.37494828464
 20
7397.702971374808
 30
0.0
 11
-25382.37494828464
 21
7673.702971374808
 31
0.0
  0
INSERT
  5
16BB
330
2863
100
AcDbEntity
  8
SIZE
 62
     0
100
AcDbBlockReference
  2
_DOTBLANK
 10
-25382.37494828464
 20
7385.702971374808
 30
0.0
 41
12.0
 42
12.0
 43
12.0
 50
270.0
  0
INSERT
  5
16BC
330
2863
100
AcDbEntity
  8
SIZE
 62
     0
100
AcDbBlockReference
  2
_DOTBLANK
 10
-25382.37494828464
 20
7685.702971374808
 30
0.0
 41
12.0
 42
12.0
 43
12.0
 50
90.0
  0
INSERT
  5
16BD
330
2863
100
AcDbEntity
  8
0
100
AcDbBlockReference
  2
*U46
 10
0.0
 20
0.0
 30
0.0
  0
POINT
  5
16BE
330
2863
100
AcDbEntity
  8
DEFPOINTS
 62
     0
100
AcDbPoint
 10
-25532.51823276502
 20
7385.702971374808
 30
0.0
  0
POINT
  5
16BF
330
2863
100
AcDbEntity
  8
DEFPOINTS
 62
     0
100
AcDbPoint
 10
-25509.51823276502
 20
7685.702971374808
 30
0.0
  0
POINT
  5
16C0
330
2863
100
AcDbEntity
  8
DEFPOINTS
 62
     0
100
AcDbPoint
 10
-25382.37494828464
 20
7685.702971374808
 30
0.0
  0
ENDBLK
  5
16C1
330
2863
100
AcDbEntity
  8
0
100
AcDbBlockEnd
  0
BLOCK
  5
2866
330
2865
100
AcDbEntity
  8
0
100
AcDbBlockBegin
  2
*U46
 70
     1
 10
0.0
 20
0.0
 30
0.0
  3
*U46
  1

  0
TEXT
  5
1F25
330
2865
100
AcDbEntity
  8
SIZE
 62
     0
100
AcDbText
 10
-25392.37494828464
 20
7461.645828517662
 30
0.0
 40
64.0
  1
300
 50
90.0
 41
0.9
100
AcDbText
  0
ENDBLK
  5
1F27
330
2865
100
AcDbEntity
  8
0
100
AcDbBlockEnd
  0
BLOCK
  5
2868
330
2867
100
AcDbEntity
  8
0
100
AcDbBlockBegin
  2
*D47
 70
     1
 10
0.0
 20
0.0
 30
0.0
  3
*D47
  1

  0
LINE
  5
16C4
330
2867
100
AcDbEntity
  8
SIZE
 62
     0
100
AcDbLine
 10
-25807.01823276501
 20
7718.167454177002
 30
0.0
 11
-25807.01823276501
 21
7822.154659243358
 31
0.0
  0
LINE
  5
16C5
330
2867
100
AcDbEntity
  8
SIZE
 62
     0
100
AcDbLine
 10
-25527.01823276501
 20
7718.167454177002
 30
0.0
 11
-25527.01823276501
 21
7822.154659243358
 31
0.0
  0
LINE
  5
16C6
330
2867
100
AcDbEntity
  8
SIZE
 62
     0
100
AcDbLine
 10
-25795.01823276502
 20
7802.154659243358
 30
0.0
 11
-25539.01823276501
 21
7802.154659243358
 31
0.0
  0
INSERT
  5
16C7
330
2867
100
AcDbEntity
  8
SIZE
 62
     0
100
AcDbBlockReference
  2
_DOTBLANK
 10
-25807.01823276501
 20
7802.154659243358
 30
0.0
 41
12.0
 42
12.0
 43
12.0
 50
180.0
  0
INSERT
  5
16C8
330
2867
100
AcDbEntity
  8
SIZE
 62
     0
100
AcDbBlockReference
  2
_DOTBLANK
 10
-25527.01823276501
 20
7802.154659243358
 30
0.0
 41
12.0
 42
12.0
 43
12.0
  0
INSERT
  5
16C9
330
2867
100
AcDbEntity
  8
0
100
AcDbBlockReference
  2
*U48
 10
0.0
 20
0.0
 30
0.0
  0
POINT
  5
16CA
330
2867
100
AcDbEntity
  8
DEFPOINTS
 62
     0
100
AcDbPoint
 10
-25807.01823276501
 20
7698.167454177002
 30
0.0
  0
POINT
  5
16CB
330
2867
100
AcDbEntity
  8
DEFPOINTS
 62
     0
100
AcDbPoint
 10
-25527.01823276501
 20
7698.167454177002
 30
0.0
  0
POINT
  5
16CC
330
2867
100
AcDbEntity
  8
DEFPOINTS
 62
     0
100
AcDbPoint
 10
-25527.01823276501
 20
7802.154659243358
 30
0.0
  0
ENDBLK
  5
16CD
330
2867
100
AcDbEntity
  8
0
100
AcDbBlockEnd
  0
BLOCK
  5
286A
330
2869
100
AcDbEntity
  8
0
100
AcDbBlockBegin
  2
*U48
 70
     1
 10
0.0
 20
0.0
 30
0.0
  3
*U48
  1

  0
TEXT
  5
1F29
330
2869
100
AcDbEntity
  8
SIZE
 62
     0
100
AcDbText
 10
-25741.07537562216
 20
7812.154659243358
 30
0.0
 40
64.0
  1
280
 41
0.9
100
AcDbText
  0
ENDBLK
  5
1F2B
330
2869
100
AcDbEntity
  8
0
100
AcDbBlockEnd
  0
BLOCK
  5
286C
330
286B
100
AcDbEntity
  8
0
100
AcDbBlockBegin
  2
*D49
 70
     1
 10
0.0
 20
0.0
 30
0.0
  3
*D49
  1

  0
LINE
  5
16D0
330
286B
100
AcDbEntity
  8
SIZE
 62
     0
100
AcDbLine
 10
-25824.51823276501
 20
7705.702971374808
 30
0.0
 11
-25824.51823276501
 21
7931.282433493766
 31
0.0
  0
LINE
  5
16D1
330
286B
100
AcDbEntity
  8
SIZE
 62
     0
100
AcDbLine
 10
-25509.51823276502
 20
7705.702971374808
 30
0.0
 11
-25509.51823276502
 21
7931.282433493766
 31
0.0
  0
LINE
  5
16D2
330
286B
100
AcDbEntity
  8
SIZE
 62
     0
100
AcDbLine
 10
-25812.51823276502
 20
7911.282433493766
 30
0.0
 11
-25521.51823276501
 21
7911.282433493766
 31
0.0
  0
INSERT
  5
16D3
330
286B
100
AcDbEntity
  8
SIZE
 62
     0
100
AcDbBlockReference
  2
_DOTBLANK
 10
-25824.51823276501
 20
7911.282433493766
 30
0.0
 41
12.0
 42
12.0
 43
12.0
 50
180.0
  0
INSERT
  5
16D4
330
286B
100
AcDbEntity
  8
SIZE
 62
     0
100
AcDbBlockReference
  2
_DOTBLANK
 10
-25509.51823276502
 20
7911.282433493766
 30
0.0
 41
12.0
 42
12.0
 43
12.0
  0
INSERT
  5
16D5
330
286B
100
AcDbEntity
  8
0
100
AcDbBlockReference
  2
*U50
 10
0.0
 20
0.0
 30
0.0
  0
POINT
  5
16D6
330
286B
100
AcDbEntity
  8
DEFPOINTS
 62
     0
100
AcDbPoint
 10
-25824.51823276501
 20
7685.702971374808
 30
0.0
  0
POINT
  5
16D7
330
286B
100
AcDbEntity
  8
DEFPOINTS
 62
     0
100
AcDbPoint
 10
-25509.51823276502
 20
7685.702971374808
 30
0.0
  0
POINT
  5
16D8
330
286B
100
AcDbEntity
  8
DEFPOINTS
 62
     0
100
AcDbPoint
 10
-25509.51823276502
 20
7911.282433493766
 30
0.0
  0
ENDBLK
  5
16D9
330
286B
100
AcDbEntity
  8
0
100
AcDbBlockEnd
  0
BLOCK
  5
286E
330
286D
100
AcDbEntity
  8
0
100
AcDbBlockBegin
  2
*U50
 70
     1
 10
0.0
 20
0.0
 30
0.0
  3
*U50
  1

  0
TEXT
  5
1F2D
330
286D
100
AcDbEntity
  8
SIZE
 62
     0
100
AcDbText
 10
-25735.58966133645
 20
7921.282433493766
 30
0.0
 40
64.0
  1
315
 41
0.9
100
AcDbText
  0
ENDBLK
  5
1F2F
330
286D
100
AcDbEntity
  8
0
100
AcDbBlockEnd
  0
BLOCK
  5
2870
330
286F
100
AcDbEntity
  8
0
100
AcDbBlockBegin
  2
*D51
 70
     1
 10
0.0
 20
0.0
 30
0.0
  3
*D51
  1

  0
LINE
  5
1D83
330
286F
100
AcDbEntity
  8
SIZE
 62
     0
100
AcDbLine
 10
-134.5
 20
-320.0
 30
0.0
 11
-134.5
 21
-468.0173952306001
 31
0.0
  0
LINE
  5
1D84
330
286F
100
AcDbEntity
  8
SIZE
 62
     0
100
AcDbLine
 10
134.5
 20
-320.0
 30
0.0
 11
134.5
 21
-468.0173952306001
 31
0.0
  0
LINE
  5
1D85
330
286F
100
AcDbEntity
  8
SIZE
 62
     0
100
AcDbLine
 10
-122.5
 20
-448.0173952306
 30
0.0
 11
122.5
 21
-448.0173952306
 31
0.0
  0
INSERT
  5
1D86
330
286F
100
AcDbEntity
  8
SIZE
 62
     0
100
AcDbBlockReference
  2
_DOTBLANK
 10
-134.5
 20
-448.0173952306
 30
0.0
 41
12.0
 42
12.0
 43
12.0
 50
180.0
  0
INSERT
  5
1D87
330
286F
100
AcDbEntity
  8
SIZE
 62
     0
100
AcDbBlockReference
  2
_DOTBLANK
 10
134.5
 20
-448.0173952306
 30
0.0
 41
12.0
 42
12.0
 43
12.0
  0
INSERT
  5
1D88
330
286F
100
AcDbEntity
  8
0
100
AcDbBlockReference
  2
*U52
 10
0.0
 20
0.0
 30
0.0
  0
POINT
  5
1D89
330
286F
100
AcDbEntity
  8
DEFPOINTS
 62
     0
100
AcDbPoint
 10
-134.5
 20
-300.0
 30
0.0
  0
POINT
  5
1D8A
330
286F
100
AcDbEntity
  8
DEFPOINTS
 62
     0
100
AcDbPoint
 10
134.5
 20
-300.0
 30
0.0
  0
POINT
  5
1D8B
330
286F
100
AcDbEntity
  8
DEFPOINTS
 62
     0
100
AcDbPoint
 10
134.5
 20
-448.0173952306
 30
0.0
  0
ENDBLK
  5
173D
330
286F
100
AcDbEntity
  8
0
100
AcDbBlockEnd
  0
BLOCK
  5
2872
330
2871
100
AcDbEntity
  8
0
100
AcDbBlockBegin
  2
*U52
 70
     1
 10
0.0
 20
0.0
 30
0.0
  3
*U52
  1

  0
TEXT
  5
1F31
330
2871
100
AcDbEntity
  8
SIZE
 62
     0
100
AcDbText
 10
-72.68571428571426
 20
-438.0173952306003
 30
0.0
 40
64.0
  1
269
 41
0.9
100
AcDbText
  0
ENDBLK
  5
1F33
330
2871
100
AcDbEntity
  8
0
100
AcDbBlockEnd
  0
BLOCK
  5
2874
330
2873
100
AcDbEntity
  8
0
100
AcDbBlockBegin
  2
*D53
 70
     1
 10
0.0
 20
0.0
 30
0.0
  3
*D53
  1

  0
LINE
  5
1D8C
330
2873
100
AcDbEntity
  8
SIZE
 62
     0
100
AcDbLine
 10
154.5
 20
-300.0
 30
0.0
 11
304.6432844803784
 21
-300.0
 31
0.0
  0
LINE
  5
1D8D
330
2873
100
AcDbEntity
  8
SIZE
 62
     0
100
AcDbLine
 10
177.5
 20
-0.0000000000000057
 30
0.0
 11
304.6432844803785
 21
-0.0000000000000417
 31
0.0
  0
LINE
  5
1D8E
330
2873
100
AcDbEntity
  8
SIZE
 62
     0
100
AcDbLine
 10
284.6432844803784
 20
-288.0
 30
0.0
 11
284.6432844803785
 21
-12.00000000000003
 31
0.0
  0
INSERT
  5
1D8F
330
2873
100
AcDbEntity
  8
SIZE
 62
     0
100
AcDbBlockReference
  2
_DOTBLANK
 10
284.6432844803784
 20
-300.0
 30
0.0
 41
12.0
 42
12.0
 43
12.0
 50
270.0
  0
INSERT
  5
1D90
330
2873
100
AcDbEntity
  8
SIZE
 62
     0
100
AcDbBlockReference
  2
_DOTBLANK
 10
284.6432844803785
 20
-0.000000000000036
 30
0.0
 41
12.0
 42
12.0
 43
12.0
 50
90.0
  0
INSERT
  5
1D91
330
2873
100
AcDbEntity
  8
0
100
AcDbBlockReference
  2
*U54
 10
0.0
 20
0.0
 30
0.0
  0
POINT
  5
1D92
330
2873
100
AcDbEntity
  8
DEFPOINTS
 62
     0
100
AcDbPoint
 10
134.5
 20
-300.0
 30
0.0
  0
POINT
  5
1D93
330
2873
100
AcDbEntity
  8
DEFPOINTS
 62
     0
100
AcDbPoint
 10
157.5
 20
0.0
 30
0.0
  0
POINT
  5
1D94
330
2873
100
AcDbEntity
  8
DEFPOINTS
 62
     0
100
AcDbPoint
 10
284.6432844803785
 20
-0.000000000000036
 30
0.0
  0
ENDBLK
  5
1749
330
2873
100
AcDbEntity
  8
0
100
AcDbBlockEnd
  0
BLOCK
  5
2876
330
2875
100
AcDbEntity
  8
0
100
AcDbBlockBegin
  2
*U54
 70
     1
 10
0.0
 20
0.0
 30
0.0
  3
*U54
  1

  0
TEXT
  5
1F35
330
2875
100
AcDbEntity
  8
SIZE
 62
     0
100
AcDbText
 10
274.6432844803785
 20
-224.0571428571429
 30
0.0
 40
64.0
  1
300
 50
90.0
 41
0.9
100
AcDbText
  0
ENDBLK
  5
1F37
330
2875
100
AcDbEntity
  8
0
100
AcDbBlockEnd
  0
BLOCK
  5
2878
330
2877
100
AcDbEntity
  8
0
100
AcDbBlockBegin
  2
*D55
 70
     1
 10
0.0
 20
0.0
 30
0.0
  3
*D55
  1

  0
LINE
  5
1D95
330
2877
100
AcDbEntity
  8
SIZE
 62
     0
100
AcDbLine
 10
-140.0
 20
32.46448280219375
 30
0.0
 11
-140.0
 21
136.4516878685508
 31
0.0
  0
LINE
  5
1D96
330
2877
100
AcDbEntity
  8
SIZE
 62
     0
100
AcDbLine
 10
140.0
 20
32.46448280219375
 30
0.0
 11
140.0
 21
136.4516878685508
 31
0.0
  0
LINE
  5
1D97
330
2877
100
AcDbEntity
  8
SIZE
 62
     0
100
AcDbLine
 10
-128.0
 20
116.4516878685508
 30
0.0
 11
128.0
 21
116.4516878685508
 31
0.0
  0
INSERT
  5
1D98
330
2877
100
AcDbEntity
  8
SIZE
 62
     0
100
AcDbBlockReference
  2
_DOTBLANK
 10
-140.0
 20
116.4516878685508
 30
0.0
 41
12.0
 42
12.0
 43
12.0
 50
180.0
  0
INSERT
  5
1D99
330
2877
100
AcDbEntity
  8
SIZE
 62
     0
100
AcDbBlockReference
  2
_DOTBLANK
 10
140.0
 20
116.4516878685508
 30
0.0
 41
12.0
 42
12.0
 43
12.0
  0
INSERT
  5
1D9A
330
2877
100
AcDbEntity
  8
0
100
AcDbBlockReference
  2
*U56
 10
0.0
 20
0.0
 30
0.0
  0
POINT
  5
1D9B
330
2877
100
AcDbEntity
  8
DEFPOINTS
 62
     0
100
AcDbPoint
 10
-140.0
 20
12.46448280219374
 30
0.0
  0
POINT
  5
1D9C
330
2877
100
AcDbEntity
  8
DEFPOINTS
 62
     0
100
AcDbPoint
 10
140.0
 20
12.46448280219374
 30
0.0
  0
POINT
  5
1D9D
330
2877
100
AcDbEntity
  8
DEFPOINTS
 62
     0
100
AcDbPoint
 10
140.0
 20
116.4516878685508
 30
0.0
  0
ENDBLK
  5
1755
330
2877
100
AcDbEntity
  8
0
100
AcDbBlockEnd
  0
BLOCK
  5
287A
330
2879
100
AcDbEntity
  8
0
100
AcDbBlockBegin
  2
*U56
 70
     1
 10
0.0
 20
0.0
 30
0.0
  3
*U56
  1

  0
TEXT
  5
1F39
330
2879
100
AcDbEntity
  8
SIZE
 62
     0
100
AcDbText
 10
-74.05714285714283
 20
126.4516878685508
 30
0.0
 40
64.0
  1
280
 41
0.9
100
AcDbText
  0
ENDBLK
  5
1F3B
330
2879
100
AcDbEntity
  8
0
100
AcDbBlockEnd
  0
BLOCK
  5
287C
330
287B
100
AcDbEntity
  8
0
100
AcDbBlockBegin
  2
*D57
 70
     1
 10
0.0
 20
0.0
 30
0.0
  3
*D57
  1

  0
LINE
  5
1D9E
330
287B
100
AcDbEntity
  8
SIZE
 62
     0
100
AcDbLine
 10
-157.5
 20
20.0
 30
0.0
 11
-157.5
 21
245.5794621189598
 31
0.0
  0
LINE
  5
1D9F
330
287B
100
AcDbEntity
  8
SIZE
 62
     0
100
AcDbLine
 10
157.5
 20
20.0
 30
0.0
 11
157.5
 21
245.5794621189598
 31
0.0
  0
LINE
  5
1DA0
330
287B
100
AcDbEntity
  8
SIZE
 62
     0
100
AcDbLine
 10
-145.5
 20
225.5794621189598
 30
0.0
 11
145.5
 21
225.5794621189598
 31
0.0
  0
INSERT
  5
1DA1
330
287B
100
AcDbEntity
  8
SIZE
 62
     0
100
AcDbBlockReference
  2
_DOTBLANK
 10
-157.5
 20
225.5794621189598
 30
0.0
 41
12.0
 42
12.0
 43
12.0
 50
180.0
  0
INSERT
  5
1DA2
330
287B
100
AcDbEntity
  8
SIZE
 62
     0
100
AcDbBlockReference
  2
_DOTBLANK
 10
157.5
 20
225.5794621189598
 30
0.0
 41
12.0
 42
12.0
 43
12.0
  0
INSERT
  5
1DA3
330
287B
100
AcDbEntity
  8
0
100
AcDbBlockReference
  2
*U58
 10
0.0
 20
0.0
 30
0.0
  0
POINT
  5
1DA4
330
287B
100
AcDbEntity
  8
DEFPOINTS
 62
     0
100
AcDbPoint
 10
-157.5
 20
0.0
 30
0.0
  0
POINT
  5
1DA5
330
287B
100
AcDbEntity
  8
DEFPOINTS
 62
     0
100
AcDbPoint
 10
157.5
 20
0.0
 30
0.0
  0
POINT
  5
1DA6
330
287B
100
AcDbEntity
  8
DEFPOINTS
 62
     0
100
AcDbPoint
 10
157.5
 20
225.5794621189598
 30
0.0
  0
ENDBLK
  5
1761
330
287B
100
AcDbEntity
  8
0
100
AcDbBlockEnd
  0
BLOCK
  5
287E
330
287D
100
AcDbEntity
  8
0
100
AcDbBlockBegin
  2
*U58
 70
     1
 10
0.0
 20
0.0
 30
0.0
  3
*U58
  1

  0
TEXT
  5
1F3D
330
287D
100
AcDbEntity
  8
SIZE
 62
     0
100
AcDbText
 10
-68.57142857142857
 20
235.5794621189599
 30
0.0
 40
64.0
  1
315
 41
0.9
100
AcDbText
  0
ENDBLK
  5
1F3F
330
287D
100
AcDbEntity
  8
0
100
AcDbBlockEnd
  0
BLOCK
  5
2880
330
287F
100
AcDbEntity
  8
0
100
AcDbBlockBegin
  2
*D59
 70
     1
 10
0.0
 20
0.0
 30
0.0
  3
*D59
  1

  0
LINE
  5
1DA7
330
287F
100
AcDbEntity
  8
SIZE
 62
     0
100
AcDbLine
 10
-177.5
 20
0.0000000000000057
 30
0.0
 11
-314.0264221186908
 21
0.0000000000000443
 31
0.0
  0
LINE
  5
1DA8
330
287F
100
AcDbEntity
  8
SIZE
 62
     0
100
AcDbLine
 10
-177.5
 20
-7.999999999999995
 30
0.0
 11
-314.0264221186908
 21
-7.999999999999958
 31
0.0
  0
LINE
  5
1DA9
330
287F
100
AcDbEntity
  8
SIZE
 62
     0
100
AcDbLine
 10
-294.0264221186908
 20
12.00000000000003
 30
0.0
 11
-294.0264221186908
 21
24.00000000000004
 31
0.0
  0
LINE
  5
1DAA
330
287F
100
AcDbEntity
  8
SIZE
 62
     0
100
AcDbLine
 10
-294.0264221186908
 20
-19.99999999999996
 30
0.0
 11
-294.0264221186908
 21
-90.39999999999997
 31
0.0
  0
INSERT
  5
1DAB
330
287F
100
AcDbEntity
  8
SIZE
 62
     0
100
AcDbBlockReference
  2
_DOTBLANK
 10
-294.0264221186908
 20
0.0000000000000387
 30
0.0
 41
12.0
 42
12.0
 43
12.0
 50
270.0
  0
INSERT
  5
1DAC
330
287F
100
AcDbEntity
  8
SIZE
 62
     0
100
AcDbBlockReference
  2
_DOTBLANK
 10
-294.0264221186908
 20
-7.999999999999961
 30
0.0
 41
12.0
 42
12.0
 43
12.0
 50
90.0
  0
INSERT
  5
1DAD
330
287F
100
AcDbEntity
  8
0
100
AcDbBlockReference
  2
*U60
 10
0.0
 20
0.0
 30
0.0
  0
POINT
  5
1DAE
330
287F
100
AcDbEntity
  8
DEFPOINTS
 62
     0
100
AcDbPoint
 10
-157.5
 20
0.0
 30
0.0
  0
POINT
  5
1DAF
330
287F
100
AcDbEntity
  8
DEFPOINTS
 62
     0
100
AcDbPoint
 10
-157.5
 20
-8.000000000000003
 30
0.0
  0
POINT
  5
1DB0
330
287F
100
AcDbEntity
  8
DEFPOINTS
 62
     0
100
AcDbPoint
 10
-294.0264221186908
 20
-7.999999999999961
 30
0.0
  0
ENDBLK
  5
176D
330
287F
100
AcDbEntity
  8
0
100
AcDbBlockEnd
  0
BLOCK
  5
2882
330
2881
100
AcDbEntity
  8
0
100
AcDbBlockBegin
  2
*U60
 70
     1
 10
0.0
 20
0.0
 30
0.0
  3
*U60
  1

  0
TEXT
  5
1F41
330
2881
100
AcDbEntity
  8
SIZE
 62
     0
100
AcDbText
 10
-304.0264221186908
 20
-80.4
 30
0.0
 40
64.0
  1
8
 50
90.0
 41
0.9
100
AcDbText
  0
ENDBLK
  5
1F43
330
2881
100
AcDbEntity
  8
0
100
AcDbBlockEnd
  0
BLOCK
  5
2884
330
2883
100
AcDbEntity
  8
0
100
AcDbBlockBegin
  2
*D61
 70
     1
 10
0.0
 20
0.0
 30
0.0
  3
*D61
  1

  0
LINE
  5
1DB1
330
2883
100
AcDbEntity
  8
SIZE
 62
     0
100
AcDbLine
 10
154.5
 20
-300.0
 30
0.0
 11
304.6432844803785
 21
-300.0
 31
0.0
  0
LINE
  5
1DB2
330
2883
100
AcDbEntity
  8
SIZE
 62
     0
100
AcDbLine
 10
143.5
 20
-312.0
 30
0.0
 11
304.6432844803785
 21
-312.0
 31
0.0
  0
LINE
  5
1DB3
330
2883
100
AcDbEntity
  8
SIZE
 62
     0
100
AcDbLine
 10
284.6432844803785
 20
-288.0
 30
0.0
 11
284.6432844803785
 21
-276.0
 31
0.0
  0
LINE
  5
1DB4
330
2883
100
AcDbEntity
  8
SIZE
 62
     0
100
AcDbLine
 10
284.6432844803785
 20
-324.0000000000001
 30
0.0
 11
284.6432844803784
 21
-438.2857142857143
 31
0.0
  0
INSERT
  5
1DB5
330
2883
100
AcDbEntity
  8
SIZE
 62
     0
100
AcDbBlockReference
  2
_DOTBLANK
 10
284.6432844803785
 20
-300.0
 30
0.0
 41
12.0
 42
12.0
 43
12.0
 50
270.0
  0
INSERT
  5
1DB6
330
2883
100
AcDbEntity
  8
SIZE
 62
     0
100
AcDbBlockReference
  2
_DOTBLANK
 10
284.6432844803785
 20
-312.0
 30
0.0
 41
12.0
 42
12.0
 43
12.0
 50
90.0
  0
INSERT
  5
1DB7
330
2883
100
AcDbEntity
  8
0
100
AcDbBlockReference
  2
*U62
 10
0.0
 20
0.0
 30
0.0
  0
POINT
  5
1DB8
330
2883
100
AcDbEntity
  8
DEFPOINTS
 62
     0
100
AcDbPoint
 10
134.5
 20
-300.0
 30
0.0
  0
POINT
  5
1DB9
330
2883
100
AcDbEntity
  8
DEFPOINTS
 62
     0
100
AcDbPoint
 10
123.5
 20
-312.0
 30
0.0
  0
POINT
  5
1DBA
330
2883
100
AcDbEntity
  8
DEFPOINTS
 62
     0
100
AcDbPoint
 10
284.6432844803785
 20
-312.0
 30
0.0
  0
ENDBLK
  5
177B
330
2883
100
AcDbEntity
  8
0
100
AcDbBlockEnd
  0
BLOCK
  5
2886
330
2885
100
AcDbEntity
  8
0
100
AcDbBlockBegin
  2
*U62
 70
     1
 10
0.0
 20
0.0
 30
0.0
  3
*U62
  1

  0
TEXT
  5
1F45
330
2885
100
AcDbEntity
  8
SIZE
 62
     0
100
AcDbText
 10
274.6432844803785
 20
-428.2857142857142
 30
0.0
 40
64.0
  1
12
 50
90.0
 41
0.9
100
AcDbText
  0
ENDBLK
  5
1F47
330
2885
100
AcDbEntity
  8
0
100
AcDbBlockEnd
  0
BLOCK
  5
2888
330
2887
100
AcDbEntity
  8
0
100
AcDbBlockBegin
  2
*U63
 70
     1
 10
0.0
 20
0.0
 30
0.0
  3
*U63
  1

  0
ENDBLK
  5
1D57
330
2887
100
AcDbEntity
  8
0
100
AcDbBlockEnd
  0
BLOCK
  5
288A
330
2889
100
AcDbEntity
  8
0
100
AcDbBlockBegin
  2
*U64
 70
     1
 10
0.0
 20
0.0
 30
0.0
  3
*U64
  1

  0
INSERT
  5
2087
330
2889
100
AcDbEntity
  8
NOTE
100
AcDbBlockReference
  2
_OPEN30
 10
-230.0
 20
0.0
 30
0.0
 41
12.0
 42
12.0
 43
12.0
 50
312.6090116116894
  0
POLYLINE
  5
2088
330
2889
100
AcDbEntity
  8
NOTE
100
AcDb2dPolyline
 66
     1
 10
0.0
 20
0.0
 30
0.0
  0
VERTEX
  5
2723
330
2088
100
AcDbEntity
  8
NOTE
100
AcDbVertex
100
AcDb2dVertex
 10
-238.1239008361895
 20
8.831887408915475
 30
0.0
  0
VERTEX
  5
2724
330
2088
100
AcDbEntity
  8
NOTE
100
AcDbVertex
100
AcDb2dVertex
 10
-317.8693999922543
 20
95.52709505801338
 30
0.0
  0
VERTEX
  5
2725
330
2088
100
AcDbEntity
  8
NOTE
100
AcDbVertex
100
AcDb2dVertex
 10
-863.7093999922541
 20
95.52709505801338
 30
0.0
  0
SEQEND
  5
2726
330
2088
100
AcDbEntity
  8
NOTE
  0
ENDBLK
  5
2089
330
2889
100
AcDbEntity
  8
0
100
AcDbBlockEnd
  0
BLOCK
  5
288C
330
288B
100
AcDbEntity
  8
0
100
AcDbBlockBegin
  2
*U65
 70
     1
 10
0.0
 20
0.0
 30
0.0
  3
*U65
  1

  0
TEXT
  5
208C
330
288B
100
AcDbEntity
  8
NOTE
100
AcDbText
 10
-863.7093999922541
 20
113.5270950580134
 30
0.0
 40
64.0
  1
4×φ15取付穴
 41
0.9
100
AcDbText
  0
ENDBLK
  5
208D
330
288B
100
AcDbEntity
  8
0
100
AcDbBlockEnd
  0
BLOCK
  5
288E
330
288D
100
AcDbEntity
  8
0
100
AcDbBlockBegin
  2
*U66
 70
     1
 10
0.0
 20
0.0
 30
0.0
  3
*U66
  1

  0
INSERT
  5
2161
330
288D
100
AcDbEntity
  8
NOTE
100
AcDbBlockReference
  2
_OPEN30
 10
230.0000000000034
 20
229.9999999999991
 30
0.0
 41
12.0
 42
12.0
 43
12.0
 50
230.7091310502217
  0
POLYLINE
  5
2162
330
288D
100
AcDbEntity
  8
NOTE
100
AcDb2dPolyline
 66
     1
 10
0.0
 20
0.0
 30
0.0
  0
VERTEX
  5
2727
330
2162
100
AcDbEntity
  8
NOTE
100
AcDbVertex
100
AcDb2dVertex
 10
237.5990904809254
 20
239.2872936780713
 30
0.0
  0
VERTEX
  5
2728
330
2162
100
AcDbEntity
  8
NOTE
100
AcDbVertex
100
AcDb2dVertex
 10
293.4345623698643
 20
307.5270950580125
 30
0.0
  0
VERTEX
  5
2729
330
2162
100
AcDbEntity
  8
NOTE
100
AcDbVertex
100
AcDb2dVertex
 10
839.2745623698644
 20
307.5270950580125
 30
0.0
  0
SEQEND
  5
272A
330
2162
100
AcDbEntity
  8
NOTE
  0
ENDBLK
  5
2163
330
288D
100
AcDbEntity
  8
0
100
AcDbBlockEnd
  0
BLOCK
  5
2890
330
288F
100
AcDbEntity
  8
0
100
AcDbBlockBegin
  2
*U67
 70
     1
 10
0.0
 20
0.0
 30
0.0
  3
*U67
  1

  0
TEXT
  5
2166
330
288F
100
AcDbEntity
  8
NOTE
100
AcDbText
 10
355.4345623698643
 20
325.5270950580125
 30
0.0
 40
64.0
  1
4×φ15取付穴
 41
0.9
100
AcDbText
  0
ENDBLK
  5
2167
330
288F
100
AcDbEntity
  8
0
100
AcDbBlockEnd
  0
BLOCK
  5
2892
330
2891
100
AcDbEntity
  8
0
100
AcDbBlockBegin
  2
*U68
 70
     1
 10
0.0
 20
0.0
 30
0.0
  3
*U68
  1

  0
INSERT
  5
2238
330
2891
100
AcDbEntity
  8
NOTE
100
AcDbBlockReference
  2
_OPEN30
 10
230.0
 20
230.0000000000011
 30
0.0
 41
12.0
 42
12.0
 43
12.0
 50
232.3258907693334
  0
POLYLINE
  5
2239
330
2891
100
AcDbEntity
  8
NOTE
100
AcDb2dPolyline
 66
     1
 10
0.0
 20
0.0
 30
0.0
  0
VERTEX
  5
272B
330
2239
100
AcDbEntity
  8
NOTE
100
AcDbVertex
100
AcDb2dVertex
 10
237.3340332839448
 20
239.4979974620975
 30
0.0
  0
VERTEX
  5
272C
330
2239
100
AcDbEntity
  8
NOTE
100
AcDbVertex
100
AcDb2dVertex
 10
303.7628007872083
 20
325.5270950580136
 30
0.0
  0
VERTEX
  5
272D
330
2239
100
AcDbEntity
  8
NOTE
100
AcDbVertex
100
AcDb2dVertex
 10
849.6028007872078
 20
325.5270950580136
 30
0.0
  0
SEQEND
  5
272E
330
2239
100
AcDbEntity
  8
NOTE
  0
ENDBLK
  5
223A
330
2891
100
AcDbEntity
  8
0
100
AcDbBlockEnd
  0
BLOCK
  5
2894
330
2893
100
AcDbEntity
  8
0
100
AcDbBlockBegin
  2
*U69
 70
     1
 10
0.0
 20
0.0
 30
0.0
  3
*U69
  1

  0
TEXT
  5
223D
330
2893
100
AcDbEntity
  8
NOTE
100
AcDbText
 10
365.7628007872081
 20
343.5270950580136
 30
0.0
 40
64.0
  1
4×φ15取付穴
 41
0.9
100
AcDbText
  0
ENDBLK
  5
223E
330
2893
100
AcDbEntity
  8
0
100
AcDbBlockEnd
  0
BLOCK
  5
2896
330
2895
100
AcDbEntity
  8
0
100
AcDbBlockBegin
  2
*U70
 70
     1
 10
0.0
 20
0.0
 30
0.0
  3
*U70
  1

  0
INSERT
  5
232B
330
2895
100
AcDbEntity
  8
NOTE
100
AcDbBlockReference
  2
_OPEN30
 10
0.0
 20
230.0
 30
0.0
 41
12.0
 42
12.0
 43
12.0
 50
312.6090116116895
  0
POLYLINE
  5
232C
330
2895
100
AcDbEntity
  8
NOTE
100
AcDb2dPolyline
 66
     1
 10
0.0
 20
0.0
 30
0.0
  0
VERTEX
  5
2743
330
232C
100
AcDbEntity
  8
NOTE
100
AcDbVertex
100
AcDb2dVertex
 10
-8.123900836189513
 20
238.8318874089155
 30
0.0
  0
VERTEX
  5
2744
330
232C
100
AcDbEntity
  8
NOTE
100
AcDbVertex
100
AcDb2dVertex
 10
-87.86939999225436
 20
325.527095058013
 30
0.0
  0
VERTEX
  5
2745
330
232C
100
AcDbEntity
  8
NOTE
100
AcDbVertex
100
AcDb2dVertex
 10
-633.7093999922545
 20
325.527095058013
 30
0.0
  0
SEQEND
  5
2746
330
232C
100
AcDbEntity
  8
NOTE
  0
ENDBLK
  5
232D
330
2895
100
AcDbEntity
  8
0
100
AcDbBlockEnd
  0
BLOCK
  5
2898
330
2897
100
AcDbEntity
  8
0
100
AcDbBlockBegin
  2
*U71
 70
     1
 10
0.0
 20
0.0
 30
0.0
  3
*U71
  1

  0
TEXT
  5
2330
330
2897
100
AcDbEntity
  8
NOTE
100
AcDbText
 10
-633.7093999922545
 20
343.5270950580129
 30
0.0
 40
64.0
  1
4×φ15取付穴
 41
0.9
100
AcDbText
  0
ENDBLK
  5
2331
330
2897
100
AcDbEntity
  8
0
100
AcDbBlockEnd
  0
BLOCK
  5
289A
330
2899
100
AcDbEntity
  8
0
100
AcDbBlockBegin
  2
*U72
 70
     1
 10
0.0
 20
0.0
 30
0.0
  3
*U72
  1

  0
INSERT
  5
2458
330
2899
100
AcDbEntity
  8
NOTE
100
AcDbBlockReference
  2
_OPEN30
 10
0.0
 20
230.0
 30
0.0
 41
12.0
 42
12.0
 43
12.0
 50
227.3909883883105
  0
POLYLINE
  5
2459
330
2899
100
AcDbEntity
  8
NOTE
100
AcDb2dPolyline
 66
     1
 10
0.0
 20
0.0
 30
0.0
  0
VERTEX
  5
2747
330
2459
100
AcDbEntity
  8
NOTE
100
AcDbVertex
100
AcDb2dVertex
 10
8.123900836189513
 20
238.8318874089155
 30
0.0
  0
VERTEX
  5
2748
330
2459
100
AcDbEntity
  8
NOTE
100
AcDbVertex
100
AcDb2dVertex
 10
87.86939999225436
 20
325.527095058013
 30
0.0
  0
VERTEX
  5
2749
330
2459
100
AcDbEntity
  8
NOTE
100
AcDbVertex
100
AcDb2dVertex
 10
633.7093999922545
 20
325.527095058013
 30
0.0
  0
SEQEND
  5
274A
330
2459
100
AcDbEntity
  8
NOTE
  0
ENDBLK
  5
245A
330
2899
100
AcDbEntity
  8
0
100
AcDbBlockEnd
  0
BLOCK
  5
289C
330
289B
100
AcDbEntity
  8
0
100
AcDbBlockBegin
  2
*U73
 70
     1
 10
0.0
 20
0.0
 30
0.0
  3
*U73
  1

  0
TEXT
  5
245D
330
289B
100
AcDbEntity
  8
NOTE
100
AcDbText
 10
149.8693999922543
 20
343.5270950580129
 30
0.0
 40
64.0
  1
4×φ15取付穴
 41
0.9
100
AcDbText
  0
ENDBLK
  5
245E
330
289B
100
AcDbEntity
  8
0
100
AcDbBlockEnd
  0
BLOCK
  5
289E
330
289D
100
AcDbEntity
  8
0
100
AcDbBlockBegin
  2
*U74
 70
     1
 10
0.0
 20
0.0
 30
0.0
  3
*U74
  1

  0
INSERT
  5
2589
330
289D
100
AcDbEntity
  8
NOTE
100
AcDbBlockReference
  2
_OPEN30
 10
-230.0
 20
0.0
 30
0.0
 41
12.0
 42
12.0
 43
12.0
 50
312.6090116116894
  0
POLYLINE
  5
258A
330
289D
100
AcDbEntity
  8
NOTE
100
AcDb2dPolyline
 66
     1
 10
0.0
 20
0.0
 30
0.0
  0
VERTEX
  5
274B
330
258A
100
AcDbEntity
  8
NOTE
100
AcDbVertex
100
AcDb2dVertex
 10
-238.1239008361895
 20
8.831887408915475
 30
0.0
  0
VERTEX
  5
274C
330
258A
100
AcDbEntity
  8
NOTE
100
AcDbVertex
100
AcDb2dVertex
 10
-317.8693999922543
 20
95.52709505801338
 30
0.0
  0
VERTEX
  5
274D
330
258A
100
AcDbEntity
  8
NOTE
100
AcDbVertex
100
AcDb2dVertex
 10
-863.7093999922541
 20
95.52709505801338
 30
0.0
  0
SEQEND
  5
274E
330
258A
100
AcDbEntity
  8
NOTE
  0
ENDBLK
  5
258B
330
289D
100
AcDbEntity
  8
0
100
AcDbBlockEnd
  0
BLOCK
  5
28A0
330
289F
100
AcDbEntity
  8
0
100
AcDbBlockBegin
  2
*U75
 70
     1
 10
0.0
 20
0.0
 30
0.0
  3
*U75
  1

  0
TEXT
  5
258E
330
289F
100
AcDbEntity
  8
NOTE
100
AcDbText
 10
-863.7093999922541
 20
113.5270950580134
 30
0.0
 40
64.0
  1
4×φ15取付穴
 41
0.9
100
AcDbText
  0
ENDBLK
  5
258F
330
289F
100
AcDbEntity
  8
0
100
AcDbBlockEnd
  0
BLOCK
  5
28A2
330
28A1
100
AcDbEntity
  8
0
100
AcDbBlockBegin
  2
*X76
 70
     1
 10
0.0
 20
0.0
 30
0.0
  3
*X76
  1

  0
LINE
  5
2592
330
28A1
100
AcDbEntity
  8
0
 62
     0
100
AcDbLine
 10
-200.4000000000033
 20
-479.5893329897297
 30
0.0
 11
-186.0975917360574
 21
-486.3999999999996
 31
0.0
  0
LINE
  5
2593
330
28A1
100
AcDbEntity
  8
0
 62
     0
100
AcDbLine
 10
-200.4000000000033
 20
-469.5893812455961
 30
0.0
 11
-165.0976819990665
 21
-486.3999999999996
 31
0.0
  0
LINE
  5
2594
330
28A1
100
AcDbEntity
  8
0
 62
     0
100
AcDbLine
 10
-200.4000000000051
 20
-459.5894295014605
 30
0.0
 11
-144.0977722620754
 21
-486.3999999999996
 31
0.0
  0
LINE
  5
2595
330
28A1
100
AcDbEntity
  8
0
 62
     0
100
AcDbLine
 10
-200.4000000000051
 20
-449.5894777573248
 30
0.0
 11
-123.0978625250845
 21
-486.3999999999996
 31
0.0
  0
LINE
  5
2596
330
28A1
100
AcDbEntity
  8
0
 62
     0
100
AcDbLine
 10
-200.4000000000051
 20
-439.5895260131928
 30
0.0
 11
-102.0979527880935
 21
-486.4000000000014
 31
0.0
  0
LINE
  5
2597
330
28A1
100
AcDbEntity
  8
0
 62
     0
100
AcDbLine
 10
-200.4000000000051
 20
-429.5895742690571
 30
0.0
 11
-81.09804305110264
 21
-486.4000000000014
 31
0.0
  0
LINE
  5
2598
330
28A1
100
AcDbEntity
  8
0
 62
     0
100
AcDbLine
 10
-200.4000000000033
 20
-419.5896225249232
 30
0.0
 11
-60.09813331410986
 21
-486.4000000000014
 31
0.0
  0
LINE
  5
2599
330
28A1
100
AcDbEntity
  8
0
 62
     0
100
AcDbLine
 10
-200.4000000000051
 20
-409.5896707807876
 30
0.0
 11
-39.09822357712437
 21
-486.3999999999996
 31
0.0
  0
LINE
  5
259A
330
28A1
100
AcDbEntity
  8
0
 62
     0
100
AcDbLine
 10
-200.4000000000033
 20
-399.5897190366541
 30
0.0
 11
-18.09831384013158
 21
-486.3999999999996
 31
0.0
  0
LINE
  5
259B
330
28A1
100
AcDbEntity
  8
0
 62
     0
100
AcDbLine
 10
-200.4000000000051
 20
-389.5897672925203
 30
0.0
 11
2.90159589685936
 21
-486.4000000000014
 31
0.0
  0
LINE
  5
259C
330
28A1
100
AcDbEntity
  8
0
 62
     0
100
AcDbLine
 10
-200.4000000000033
 20
-379.5898155483865
 30
0.0
 11
23.9015056338485
 21
-486.4000000000005
 31
0.0
  0
LINE
  5
259D
330
28A1
100
AcDbEntity
  8
0
 62
     0
100
AcDbLine
 10
-200.4000000000051
 20
-369.5898638042509
 30
0.0
 11
44.90141537083764
 21
-486.3999999999996
 31
0.0
  0
LINE
  5
259E
330
28A1
100
AcDbEntity
  8
0
 62
     0
100
AcDbLine
 10
-200.4000000000051
 20
-359.5899120601162
 30
0.0
 11
65.90132510783042
 21
-486.3999999999996
 31
0.0
  0
LINE
  5
259F
330
28A1
100
AcDbEntity
  8
0
 62
     0
100
AcDbLine
 10
-200.4000000000051
 20
-349.5899603159815
 30
0.0
 11
86.90123484481954
 21
-486.3999999999988
 31
0.0
  0
LINE
  5
25A0
330
28A1
100
AcDbEntity
  8
0
 62
     0
100
AcDbLine
 10
-200.4000000000051
 20
-339.5900085718486
 30
0.0
 11
107.9011445818123
 21
-486.4000000000005
 31
0.0
  0
LINE
  5
25A1
330
28A1
100
AcDbEntity
  8
0
 62
     0
100
AcDbLine
 10
-200.4000000000033
 20
-329.5900568277139
 30
0.0
 11
128.9010543188032
 21
-486.4000000000005
 31
0.0
  0
LINE
  5
25A2
330
28A1
100
AcDbEntity
  8
0
 62
     0
100
AcDbLine
 10
-200.4000000000051
 20
-319.5901050835792
 30
0.0
 11
149.9009640557942
 21
-486.4000000000005
 31
0.0
  0
LINE
  5
25A3
330
28A1
100
AcDbEntity
  8
0
 62
     0
100
AcDbLine
 10
-200.4000000000033
 20
-309.5901533394453
 30
0.0
 11
170.900873792787
 21
-486.4000000000005
 31
0.0
  0
LINE
  5
25A4
330
28A1
100
AcDbEntity
  8
0
 62
     0
100
AcDbLine
 10
-200.4000000000051
 20
-299.5902015953097
 30
0.0
 11
191.9007835297725
 21
-486.3999999999988
 31
0.0
  0
LINE
  5
25A5
330
28A1
100
AcDbEntity
  8
0
 62
     0
100
AcDbLine
 10
-200.4000000000033
 20
-289.5902498511759
 30
0.0
 11
200.3999999999904
 21
-480.4472920597461
 31
0.0
  0
LINE
  5
25A6
330
28A1
100
AcDbEntity
  8
0
 62
     0
100
AcDbLine
 10
-200.4000000000033
 20
-279.5902981070422
 30
0.0
 11
200.3999999999924
 21
-470.4473403156144
 31
0.0
  0
LINE
  5
25A7
330
28A1
100
AcDbEntity
  8
0
 62
     0
100
AcDbLine
 10
-200.4000000000068
 20
-269.5903463629065
 30
0.0
 11
200.3999999999904
 21
-460.4473885714788
 31
0.0
  0
LINE
  5
25A8
330
28A1
100
AcDbEntity
  8
0
 62
     0
100
AcDbLine
 10
-200.4000000000033
 20
-259.5903946187728
 30
0.0
 11
200.3999999999887
 21
-450.4474368273431
 31
0.0
  0
LINE
  5
25A9
330
28A1
100
AcDbEntity
  8
0
 62
     0
100
AcDbLine
 10
-200.4000000000051
 20
-249.5904428746371
 30
0.0
 11
200.3999999999924
 21
-440.4474850832095
 31
0.0
  0
LINE
  5
25AA
330
28A1
100
AcDbEntity
  8
0
 62
     0
100
AcDbLine
 10
-200.4000000000051
 20
-239.5904911305033
 30
0.0
 11
200.3999999999887
 21
-430.4475333390737
 31
0.0
  0
LINE
  5
25AB
330
28A1
100
AcDbEntity
  8
0
 62
     0
100
AcDbLine
 10
-200.4000000000051
 20
-229.5905393863695
 30
0.0
 11
200.3999999999904
 21
-420.4475815949416
 31
0.0
  0
LINE
  5
25AC
330
28A1
100
AcDbEntity
  8
0
 62
     0
100
AcDbLine
 10
-15.40000000000691
 20
-307.6857792804231
 30
0.0
 11
-7.600132375633618
 21
-311.3999999999996
 31
0.0
  0
LINE
  5
25AD
330
28A1
100
AcDbEntity
  8
0
 62
     0
100
AcDbLine
 10
-7.600132375633618
 20
-311.3999999999996
 30
0.0
 11
200.3999999999904
 21
-410.447629850806
 31
0.0
  0
LINE
  5
25AE
330
28A1
100
AcDbEntity
  8
0
 62
     0
100
AcDbLine
 10
-200.4000000000033
 20
-219.5905876422358
 30
0.0
 11
-15.40000000000691
 21
-307.6857792804231
 31
0.0
  0
LINE
  5
25AF
330
28A1
100
AcDbEntity
  8
0
 62
     0
100
AcDbLine
 10
-15.40000000000691
 20
-297.6858275362884
 30
0.0
 11
13.39977736135734
 21
-311.3999999999996
 31
0.0
  0
LINE
  5
25B0
330
28A1
100
AcDbEntity
  8
0
 62
     0
100
AcDbLine
 10
13.39977736135734
 20
-311.3999999999996
 30
0.0
 11
200.3999999999904
 21
-400.4476781066721
 31
0.0
  0
LINE
  5
25B1
330
28A1
100
AcDbEntity
  8
0
 62
     0
100
AcDbLine
 10
-200.4000000000051
 20
-209.5906358981001
 30
0.0
 11
-15.40000000000691
 21
-297.6858275362884
 31
0.0
  0
LINE
  5
25B2
330
28A1
100
AcDbEntity
  8
0
 62
     0
100
AcDbLine
 10
-15.40000000000691
 20
-287.6858757921537
 30
0.0
 11
34.39968709835012
 21
-311.3999999999996
 31
0.0
  0
LINE
  5
25B3
330
28A1
100
AcDbEntity
  8
0
 62
     0
100
AcDbLine
 10
34.39968709835012
 20
-311.3999999999996
 30
0.0
 11
200.3999999999924
 21
-390.4477263625368
 31
0.0
  0
LINE
  5
25B4
330
28A1
100
AcDbEntity
  8
0
 62
     0
100
AcDbLine
 10
-200.4000000000051
 20
-199.5906841539645
 30
0.0
 11
-15.40000000000691
 21
-287.6858757921537
 31
0.0
  0
LINE
  5
25B5
330
28A1
100
AcDbEntity
  8
0
 62
     0
100
AcDbLine
 10
-15.40000000000509
 20
-277.6859240480189
 30
0.0
 11
55.39959683534107
 21
-311.3999999999996
 31
0.0
  0
LINE
  5
25B6
330
28A1
100
AcDbEntity
  8
0
 62
     0
100
AcDbLine
 10
55.39959683534107
 20
-311.3999999999996
 30
0.0
 11
200.3999999999887
 21
-380.447774618402
 31
0.0
  0
LINE
  5
25B7
330
28A1
100
AcDbEntity
  8
0
 62
     0
100
AcDbLine
 10
-200.4000000000051
 20
-189.5907324098307
 30
0.0
 11
-15.40000000000872
 21
-277.685924048018
 31
0.0
  0
LINE
  5
25B8
330
28A1
100
AcDbEntity
  8
0
 62
     0
100
AcDbLine
 10
-15.40000000000872
 20
-267.6859723038861
 30
0.0
 11
76.39950657233021
 21
-311.4000000000014
 31
0.0
  0
LINE
  5
25B9
330
28A1
100
AcDbEntity
  8
0
 62
     0
100
AcDbLine
 10
76.39950657233021
 20
-311.4000000000014
 30
0.0
 11
200.3999999999887
 21
-370.447822874269
 31
0.0
  0
LINE
  5
25BA
330
28A1
100
AcDbEntity
  8
0
 62
     0
100
AcDbLine
 10
-200.4000000000068
 20
-179.5907806656969
 30
0.0
 11
-15.40000000000872
 21
-267.6859723038861
 31
0.0
  0
LINE
  5
25BB
330
28A1
100
AcDbEntity
  8
0
 62
     0
100
AcDbLine
 10
-15.40000000000691
 20
-257.6860205597504
 30
0.0
 11
97.39941630932479
 21
-311.4000000000014
 31
0.0
  0
LINE
  5
25BC
330
28A1
100
AcDbEntity
  8
0
 62
     0
100
AcDbLine
 10
97.39941630932479
 20
-311.4000000000014
 30
0.0
 11
200.3999999999904
 21
-360.4478711301343
 31
0.0
  0
LINE
  5
25BD
330
28A1
100
AcDbEntity
  8
0
 62
     0
100
AcDbLine
 10
-200.4000000000033
 20
-169.5908289215631
 30
0.0
 11
-15.40000000000691
 21
-257.6860205597504
 31
0.0
  0
LINE
  5
25BE
330
28A1
100
AcDbEntity
  8
0
 62
     0
100
AcDbLine
 10
-15.40000000000691
 20
-247.6860688156167
 30
0.0
 11
118.3993260463139
 21
-311.4000000000014
 31
0.0
  0
LINE
  5
25BF
330
28A1
100
AcDbEntity
  8
0
 62
     0
100
AcDbLine
 10
118.3993260463139
 20
-311.4000000000014
 30
0.0
 11
200.3999999999904
 21
-350.4479193860007
 31
0.0
  0
LINE
  5
25C0
330
28A1
100
AcDbEntity
  8
0
 62
     0
100
AcDbLine
 10
-200.4000000000051
 20
-159.5908771774275
 30
0.0
 11
-15.40000000000691
 21
-247.6860688156167
 31
0.0
  0
LINE
  5
25C1
330
28A1
100
AcDbEntity
  8
0
 62
     0
100
AcDbLine
 10
-15.40000000000691
 20
-237.686117071481
 30
0.0
 11
139.3992357833049
 21
-311.4000000000006
 31
0.0
  0
LINE
  5
25C2
330
28A1
100
AcDbEntity
  8
0
 62
     0
100
AcDbLine
 10
139.3992357833049
 20
-311.4000000000006
 30
0.0
 11
200.3999999999904
 21
-340.4479676418649
 31
0.0
  0
LINE
  5
25C3
330
28A1
100
AcDbEntity
  8
0
 62
     0
100
AcDbLine
 10
-200.4000000000033
 20
-149.5909254332937
 30
0.0
 11
-15.40000000000691
 21
-237.686117071481
 31
0.0
  0
LINE
  5
25C4
330
28A1
100
AcDbEntity
  8
0
 62
     0
100
AcDbLine
 10
-15.40000000000509
 20
-227.6861653273472
 30
0.0
 11
160.3991455202977
 21
-311.4000000000006
 31
0.0
  0
LINE
  5
25C5
330
28A1
100
AcDbEntity
  8
0
 62
     0
100
AcDbLine
 10
160.3991455202977
 20
-311.4000000000006
 30
0.0
 11
200.3999999999924
 21
-330.4480158977312
 31
0.0
  0
LINE
  5
25C6
330
28A1
100
AcDbEntity
  8
0
 62
     0
100
AcDbLine
 10
-200.4000000000051
 20
-139.5909736891581
 30
0.0
 11
-15.40000000000509
 21
-227.6861653273472
 31
0.0
  0
LINE
  5
25C7
330
28A1
100
AcDbEntity
  8
0
 62
     0
100
AcDbLine
 10
-15.40000000000872
 20
-217.6862135832116
 30
0.0
 11
181.3990552572832
 21
-311.3999999999987
 31
0.0
  0
LINE
  5
25C8
330
28A1
100
AcDbEntity
  8
0
 62
     0
100
AcDbLine
 10
181.3990552572832
 20
-311.3999999999987
 30
0.0
 11
200.3999999999904
 21
-320.4480641535956
 31
0.0
  0
LINE
  5
25C9
330
28A1
100
AcDbEntity
  8
0
 62
     0
100
AcDbLine
 10
-200.4000000000033
 20
-129.5910219450242
 30
0.0
 11
-15.40000000000872
 21
-217.6862135832116
 31
0.0
  0
LINE
  5
25CA
330
28A1
100
AcDbEntity
  8
0
 62
     0
100
AcDbLine
 10
-15.40000000000509
 20
-207.6862618390796
 30
0.0
 11
200.3999999999887
 21
-310.4481124094618
 31
0.0
  0
LINE
  5
25CB
330
28A1
100
AcDbEntity
  8
0
 62
     0
100
AcDbLine
 10
-200.4000000000051
 20
-119.5910702008914
 30
0.0
 11
-15.40000000000509
 21
-207.6862618390796
 31
0.0
  0
LINE
  5
25CC
330
28A1
100
AcDbEntity
  8
0
 62
     0
100
AcDbLine
 10
-15.40000000000691
 20
-197.686310094944
 30
0.0
 11
200.3999999999904
 21
-300.448160665328
 31
0.0
  0
LINE
  5
25CD
330
28A1
100
AcDbEntity
  8
0
 62
     0
100
AcDbLine
 10
-183.5813398898608
 20
-117.6000000000031
 30
0.0
 11
-15.40000000000691
 21
-197.686310094944
 31
0.0
  0
LINE
  5
25CE
330
28A1
100
AcDbEntity
  8
0
 62
     0
100
AcDbLine
 10
-15.40000000000691
 20
-187.6863583508102
 30
0.0
 11
200.3999999999887
 21
-290.4482089211924
 31
0.0
  0
LINE
  5
25CF
330
28A1
100
AcDbEntity
  8
0
 62
     0
100
AcDbLine
 10
-162.5814301528735
 20
-117.6000000000013
 30
0.0
 11
-15.40000000000872
 21
-187.6863583508084
 31
0.0
  0
LINE
  5
25D0
330
28A1
100
AcDbEntity
  8
0
 62
     0
100
AcDbLine
 10
-15.40000000000691
 20
-177.6864066066746
 30
0.0
 11
200.3999999999904
 21
-280.4482571770586
 31
0.0
  0
LINE
  5
25D1
330
28A1
100
AcDbEntity
  8
0
 62
     0
100
AcDbLine
 10
-141.5815204158825
 20
-117.6000000000013
 30
0.0
 11
-15.40000000000691
 21
-177.6864066066746
 31
0.0
  0
LINE
  5
25D2
330
28A1
100
AcDbEntity
  8
0
 62
     0
100
AcDbLine
 10
-15.40000000000509
 20
-167.6864548625408
 30
0.0
 11
200.3999999999904
 21
-270.448305432923
 31
0.0
  0
LINE
  5
25D3
330
28A1
100
AcDbEntity
  8
0
 62
     0
100
AcDbLine
 10
-120.5816106788916
 20
-117.6000000000013
 30
0.0
 11
-15.40000000000872
 21
-167.686454862539
 31
0.0
  0
LINE
  5
25D4
330
28A1
100
AcDbEntity
  8
0
 62
     0
100
AcDbLine
 10
-15.40000000000691
 20
-157.686503118407
 30
0.0
 11
200.3999999999904
 21
-260.448353688791
 31
0.0
  0
LINE
  5
25D5
330
28A1
100
AcDbEntity
  8
0
 62
     0
100
AcDbLine
 10
-99.58170094190064
 20
-117.6000000000031
 30
0.0
 11
-15.40000000000691
 21
-157.686503118407
 31
0.0
  0
LINE
  5
25D6
330
28A1
100
AcDbEntity
  8
0
 62
     0
100
AcDbLine
 10
-15.40000000000872
 20
-147.6865513742714
 30
0.0
 11
200.3999999999887
 21
-250.4484019446554
 31
0.0
  0
LINE
  5
25D7
330
28A1
100
AcDbEntity
  8
0
 62
     0
100
AcDbLine
 10
-78.58179120491332
 20
-117.6000000000013
 30
0.0
 11
-15.40000000000872
 21
-147.6865513742714
 31
0.0
  0
LINE
  5
25D8
330
28A1
100
AcDbEntity
  8
0
 62
     0
100
AcDbLine
 10
-15.40000000000691
 20
-137.6865996301376
 30
0.0
 11
200.3999999999924
 21
-240.4484502005216
 31
0.0
  0
LINE
  5
25D9
330
28A1
100
AcDbEntity
  8
0
 62
     0
100
AcDbLine
 10
-57.58188146792054
 20
-117.6000000000013
 30
0.0
 11
-15.40000000000691
 21
-137.6865996301376
 31
0.0
  0
LINE
  5
25DA
330
28A1
100
AcDbEntity
  8
0
 62
     0
100
AcDbLine
 10
-15.40000000000872
 20
-127.686647886002
 30
0.0
 11
200.3999999999887
 21
-230.448498456386
 31
0.0
  0
LINE
  5
25DB
330
28A1
100
AcDbEntity
  8
0
 62
     0
100
AcDbLine
 10
-36.58197173093139
 20
-117.6000000000003
 30
0.0
 11
-15.40000000000872
 21
-127.686647886002
 31
0.0
  0
LINE
  5
25DC
330
28A1
100
AcDbEntity
  8
0
 62
     0
100
AcDbLine
 10
-15.40000000000509
 20
-117.6866961418682
 30
0.0
 11
200.3999999999904
 21
-220.4485467122504
 31
0.0
  0
LINE
  5
25DD
330
28A1
100
AcDbEntity
  8
0
 62
     0
100
AcDbLine
 10
-15.5820619939368
 20
-117.6000000000003
 30
0.0
 11
-15.40000000000509
 21
-117.6866961418682
 31
0.0
  0
LINE
  5
25DE
330
28A1
100
AcDbEntity
  8
0
 62
     0
100
AcDbLine
 10
5.417847743052334
 20
-117.6000000000003
 30
0.0
 11
200.3999999999904
 21
-210.4485949681166
 31
0.0
  0
LINE
  5
25DF
330
28A1
100
AcDbEntity
  8
0
 62
     0
100
AcDbLine
 10
26.41775748003965
 20
-117.6000000000003
 30
0.0
 11
200.3999999999869
 21
-200.4486432239828
 31
0.0
  0
LINE
  5
25E0
330
28A1
100
AcDbEntity
  8
0
 62
     0
100
AcDbLine
 10
47.41766721703243
 20
-117.6000000000003
 30
0.0
 11
200.3999999999924
 21
-190.448691479849
 31
0.0
  0
LINE
  5
25E1
330
28A1
100
AcDbEntity
  8
0
 62
     0
100
AcDbLine
 10
68.41757695402337
 20
-117.6000000000003
 30
0.0
 11
200.3999999999887
 21
-180.4487397357133
 31
0.0
  0
LINE
  5
25E2
330
28A1
100
AcDbEntity
  8
0
 62
     0
100
AcDbLine
 10
89.41748669101434
 20
-117.6000000000003
 30
0.0
 11
200.3999999999924
 21
-170.4487879915796
 31
0.0
  0
LINE
  5
25E3
330
28A1
100
AcDbEntity
  8
0
 62
     0
100
AcDbLine
 10
110.4173964280053
 20
-117.6000000000003
 30
0.0
 11
200.3999999999904
 21
-160.4488362474449
 31
0.0
  0
LINE
  5
25E4
330
28A1
100
AcDbEntity
  8
0
 62
     0
100
AcDbLine
 10
131.4173061649962
 20
-117.6000000000022
 30
0.0
 11
200.3999999999904
 21
-150.448884503312
 31
0.0
  0
LINE
  5
25E5
330
28A1
100
AcDbEntity
  8
0
 62
     0
100
AcDbLine
 10
152.4172159019872
 20
-117.6000000000022
 30
0.0
 11
200.3999999999904
 21
-140.4489327591773
 31
0.0
  0
LINE
  5
25E6
330
28A1
100
AcDbEntity
  8
0
 62
     0
100
AcDbLine
 10
173.41712563898
 20
-117.6000000000022
 30
0.0
 11
200.3999999999887
 21
-130.4489810150416
 31
0.0
  0
LINE
  5
25E7
330
28A1
100
AcDbEntity
  8
0
 62
     0
100
AcDbLine
 10
194.4170353759691
 20
-117.6000000000013
 30
0.0
 11
200.3999999999904
 21
-120.4490292709079
 31
0.0
  0
ENDBLK
  5
25E8
330
28A1
100
AcDbEntity
  8
0
100
AcDbBlockEnd
  0
BLOCK
  5
28A4
330
28A3
100
AcDbEntity
  8
0
100
AcDbBlockBegin
  2
*X77
 70
     1
 10
0.0
 20
0.0
 30
0.0
  3
*X77
  1

  0
LINE
  5
25EB
330
28A3
100
AcDbEntity
  8
0
 62
     0
100
AcDbLine
 10
191.45749784902
 20
-486.4000000000005
 30
0.0
 11
200.3999999999978
 21
-482.1416678880257
 31
0.0
  0
LINE
  5
25EC
330
28A3
100
AcDbEntity
  8
0
 62
     0
100
AcDbLine
 10
170.4575881120254
 20
-486.4000000000005
 30
0.0
 11
200.3999999999978
 21
-472.1417161438901
 31
0.0
  0
LINE
  5
25ED
330
28A3
100
AcDbEntity
  8
0
 62
     0
100
AcDbLine
 10
149.4576783750381
 20
-486.4000000000005
 30
0.0
 11
200.3999999999978
 21
-462.1417643997563
 31
0.0
  0
LINE
  5
25EE
330
28A3
100
AcDbEntity
  8
0
 62
     0
100
AcDbLine
 10
128.4577686380507
 20
-486.3999999999996
 30
0.0
 11
200.4000000000015
 21
-452.1418126556217
 31
0.0
  0
LINE
  5
25EF
330
28A3
100
AcDbEntity
  8
0
 62
     0
100
AcDbLine
 10
107.4578589010561
 20
-486.3999999999996
 30
0.0
 11
200.3999999999978
 21
-442.141860911488
 31
0.0
  0
LINE
  5
25F0
330
28A3
100
AcDbEntity
  8
0
 62
     0
100
AcDbLine
 10
86.45794916406885
 20
-486.3999999999996
 30
0.0
 11
200.3999999999978
 21
-432.1419091673523
 31
0.0
  0
LINE
  5
25F1
330
28A3
100
AcDbEntity
  8
0
 62
     0
100
AcDbLine
 10
65.45803942707789
 20
-486.4000000000005
 30
0.0
 11
200.3999999999978
 21
-422.1419574232193
 31
0.0
  0
LINE
  5
25F2
330
28A3
100
AcDbEntity
  8
0
 62
     0
100
AcDbLine
 10
44.45812969008328
 20
-486.4000000000005
 30
0.0
 11
200.3999999999978
 21
-412.1420056790839
 31
0.0
  0
LINE
  5
25F3
330
28A3
100
AcDbEntity
  8
0
 62
     0
100
AcDbLine
 10
23.45821995309234
 20
-486.4000000000014
 30
0.0
 11
200.3999999999978
 21
-402.1420539349509
 31
0.0
  0
LINE
  5
25F4
330
28A3
100
AcDbEntity
  8
0
 62
     0
100
AcDbLine
 10
2.458310216101379
 20
-486.4000000000005
 30
0.0
 11
200.3999999999978
 21
-392.1421021908154
 31
0.0
  0
LINE
  5
25F5
330
28A3
100
AcDbEntity
  8
0
 62
     0
100
AcDbLine
 10
-18.54159952088958
 20
-486.4000000000005
 30
0.0
 11
200.3999999999978
 21
-382.1421504466798
 31
0.0
  0
LINE
  5
25F6
330
28A3
100
AcDbEntity
  8
0
 62
     0
100
AcDbLine
 10
-39.54150925788054
 20
-486.4000000000014
 30
0.0
 11
200.3999999999978
 21
-372.1421987025469
 31
0.0
  0
LINE
  5
25F7
330
28A3
100
AcDbEntity
  8
0
 62
     0
100
AcDbLine
 10
-60.54141899486785
 20
-486.4000000000014
 30
0.0
 11
200.4000000000015
 21
-362.1422469584112
 31
0.0
  0
LINE
  5
25F8
330
28A3
100
AcDbEntity
  8
0
 62
     0
100
AcDbLine
 10
-81.54132873185881
 20
-486.3999999999996
 30
0.0
 11
200.3999999999978
 21
-352.1422952142775
 31
0.0
  0
LINE
  5
25F9
330
28A3
100
AcDbEntity
  8
0
 62
     0
100
AcDbLine
 10
-102.5412384688461
 20
-486.3999999999988
 30
0.0
 11
200.4000000000015
 21
-342.1423434701428
 31
0.0
  0
LINE
  5
25FA
330
28A3
100
AcDbEntity
  8
0
 62
     0
100
AcDbLine
 10
-123.5411482058407
 20
-486.3999999999988
 30
0.0
 11
200.3999999999942
 21
-332.142391726009
 31
0.0
  0
LINE
  5
25FB
330
28A3
100
AcDbEntity
  8
0
 62
     0
100
AcDbLine
 10
-144.541057942828
 20
-486.3999999999996
 30
0.0
 11
200.3999999999978
 21
-322.1424399818743
 31
0.0
  0
LINE
  5
25FC
330
28A3
100
AcDbEntity
  8
0
 62
     0
100
AcDbLine
 10
-165.540967679819
 20
-486.3999999999996
 30
0.0
 11
200.3999999999978
 21
-312.1424882377405
 31
0.0
  0
LINE
  5
25FD
330
28A3
100
AcDbEntity
  8
0
 62
     0
100
AcDbLine
 10
180.9593163845202
 20
-311.3999999999996
 30
0.0
 11
200.3999999999978
 21
-302.1425364936049
 31
0.0
  0
LINE
  5
25FE
330
28A3
100
AcDbEntity
  8
0
 62
     0
100
AcDbLine
 10
-186.5408774168136
 20
-486.3999999999996
 30
0.0
 11
180.9593163845202
 21
-311.3999999999996
 31
0.0
  0
LINE
  5
25FF
330
28A3
100
AcDbEntity
  8
0
 62
     0
100
AcDbLine
 10
159.9594066475292
 20
-311.4000000000006
 30
0.0
 11
200.4000000000015
 21
-292.1425847494711
 31
0.0
  0
LINE
  5
2600
330
28A3
100
AcDbEntity
  8
0
 62
     0
100
AcDbLine
 10
-200.4000000000015
 20
-482.9996269580449
 30
0.0
 11
159.9594066475292
 21
-311.4000000000006
 31
0.0
  0
LINE
  5
2601
330
28A3
100
AcDbEntity
  8
0
 62
     0
100
AcDbLine
 10
138.9594969105382
 20
-311.4000000000006
 30
0.0
 11
200.3999999999978
 21
-282.1426330053373
 31
0.0
  0
LINE
  5
2602
330
28A3
100
AcDbEntity
  8
0
 62
     0
100
AcDbLine
 10
-200.3999999999978
 20
-472.9996752139095
 30
0.0
 11
138.9594969105382
 21
-311.4000000000006
 31
0.0
  0
LINE
  5
2603
330
28A3
100
AcDbEntity
  8
0
 62
     0
100
AcDbLine
 10
117.9595871735509
 20
-311.3999999999987
 30
0.0
 11
200.3999999999978
 21
-272.1426812612017
 31
0.0
  0
LINE
  5
2604
330
28A3
100
AcDbEntity
  8
0
 62
     0
100
AcDbLine
 10
-200.4000000000015
 20
-462.9997234697756
 30
0.0
 11
117.9595871735509
 21
-311.3999999999987
 31
0.0
  0
LINE
  5
2605
330
28A3
100
AcDbEntity
  8
0
 62
     0
100
AcDbLine
 10
96.95967743656
 20
-311.3999999999996
 30
0.0
 11
200.3999999999978
 21
-262.1427295170688
 31
0.0
  0
LINE
  5
2606
330
28A3
100
AcDbEntity
  8
0
 62
     0
100
AcDbLine
 10
-200.3999999999978
 20
-452.9997717256408
 30
0.0
 11
96.95967743656
 21
-311.3999999999996
 31
0.0
  0
LINE
  5
2607
330
28A3
100
AcDbEntity
  8
0
 62
     0
100
AcDbLine
 10
75.95976769956905
 20
-311.3999999999987
 30
0.0
 11
200.4000000000015
 21
-252.1427777729332
 31
0.0
  0
LINE
  5
2608
330
28A3
100
AcDbEntity
  8
0
 62
     0
100
AcDbLine
 10
-200.3999999999978
 20
-442.9998199815072
 30
0.0
 11
75.95976769956905
 21
-311.3999999999987
 31
0.0
  0
LINE
  5
2609
330
28A3
100
AcDbEntity
  8
0
 62
     0
100
AcDbLine
 10
54.95985796257446
 20
-311.3999999999996
 30
0.0
 11
200.3999999999978
 21
-242.1428260288003
 31
0.0
  0
LINE
  5
260A
330
28A3
100
AcDbEntity
  8
0
 62
     0
100
AcDbLine
 10
-200.4000000000015
 20
-432.9998682373725
 30
0.0
 11
54.95985796257446
 21
-311.3999999999996
 31
0.0
  0
LINE
  5
260B
330
28A3
100
AcDbEntity
  8
0
 62
     0
100
AcDbLine
 10
33.95994822559077
 20
-311.3999999999987
 30
0.0
 11
200.3999999999978
 21
-232.1428742846647
 31
0.0
  0
LINE
  5
260C
330
28A3
100
AcDbEntity
  8
0
 62
     0
100
AcDbLine
 10
-200.4000000000015
 20
-422.9999164932385
 30
0.0
 11
33.95994822559077
 21
-311.3999999999987
 31
0.0
  0
LINE
  5
260D
330
28A3
100
AcDbEntity
  8
0
 62
     0
100
AcDbLine
 10
12.96003848859618
 20
-311.3999999999978
 30
0.0
 11
200.3999999999942
 21
-222.1429225405309
 31
0.0
  0
LINE
  5
260E
330
28A3
100
AcDbEntity
  8
0
 62
     0
100
AcDbLine
 10
-200.4000000000015
 20
-412.9999647491031
 30
0.0
 11
12.96003848859618
 21
-311.3999999999978
 31
0.0
  0
LINE
  5
260F
330
28A3
100
AcDbEntity
  8
0
 62
     0
100
AcDbLine
 10
-8.039871248394774
 20
-311.3999999999987
 30
0.0
 11
200.3999999999978
 21
-212.1429707963962
 31
0.0
  0
LINE
  5
2610
330
28A3
100
AcDbEntity
  8
0
 62
     0
100
AcDbLine
 10
-200.4000000000015
 20
-403.0000130049701
 30
0.0
 11
-8.039871248394774
 21
-311.3999999999987
 31
0.0
  0
LINE
  5
2611
330
28A3
100
AcDbEntity
  8
0
 62
     0
100
AcDbLine
 10
-15.40000000000509
 20
-304.9048696226472
 30
0.0
 11
200.4000000000015
 21
-202.1430190522606
 31
0.0
  0
LINE
  5
2612
330
28A3
100
AcDbEntity
  8
0
 62
     0
100
AcDbLine
 10
-200.3999999999978
 20
-393.0000612608346
 30
0.0
 11
-15.40000000000509
 21
-304.9048696226472
 31
0.0
  0
LINE
  5
2613
330
28A3
100
AcDbEntity
  8
0
 62
     0
100
AcDbLine
 10
-15.40000000000145
 20
-294.9049178785126
 30
0.0
 11
200.4000000000015
 21
-192.1430673081268
 31
0.0
  0
LINE
  5
2614
330
28A3
100
AcDbEntity
  8
0
 62
     0
100
AcDbLine
 10
-200.3999999999978
 20
-383.0001095166991
 30
0.0
 11
-15.40000000000145
 21
-294.9049178785126
 31
0.0
  0
LINE
  5
2615
330
28A3
100
AcDbEntity
  8
0
 62
     0
100
AcDbLine
 10
-15.40000000000145
 20
-284.9049661343777
 30
0.0
 11
200.3999999999978
 21
-182.143115563992
 31
0.0
  0
LINE
  5
2616
330
28A3
100
AcDbEntity
  8
0
 62
     0
100
AcDbLine
 10
-200.4000000000015
 20
-373.0001577725661
 30
0.0
 11
-15.40000000000145
 21
-284.9049661343777
 31
0.0
  0
LINE
  5
2617
330
28A3
100
AcDbEntity
  8
0
 62
     0
100
AcDbLine
 10
-15.40000000000145
 20
-274.9050143902441
 30
0.0
 11
200.3999999999978
 21
-172.1431638198581
 31
0.0
  0
LINE
  5
2618
330
28A3
100
AcDbEntity
  8
0
 62
     0
100
AcDbLine
 10
-200.3999999999978
 20
-363.0002060284305
 30
0.0
 11
-15.40000000000145
 21
-274.9050143902441
 31
0.0
  0
LINE
  5
2619
330
28A3
100
AcDbEntity
  8
0
 62
     0
100
AcDbLine
 10
-15.40000000000509
 20
-264.9050626461094
 30
0.0
 11
200.3999999999978
 21
-162.1432120757235
 31
0.0
  0
LINE
  5
261A
330
28A3
100
AcDbEntity
  8
0
 62
     0
100
AcDbLine
 10
-200.4000000000015
 20
-353.0002542842976
 30
0.0
 11
-15.40000000000509
 21
-264.9050626461094
 31
0.0
  0
LINE
  5
261B
330
28A3
100
AcDbEntity
  8
0
 62
     0
100
AcDbLine
 10
-15.40000000000509
 20
-254.9051109019756
 30
0.0
 11
200.3999999999978
 21
-152.1432603315898
 31
0.0
  0
LINE
  5
261C
330
28A3
100
AcDbEntity
  8
0
 62
     0
100
AcDbLine
 10
-200.3999999999978
 20
-343.000302540162
 30
0.0
 11
-15.40000000000509
 21
-254.9051109019756
 31
0.0
  0
LINE
  5
261D
330
28A3
100
AcDbEntity
  8
0
 62
     0
100
AcDbLine
 10
-15.40000000000145
 20
-244.90515915784
 30
0.0
 11
200.4000000000015
 21
-142.1433085874541
 31
0.0
  0
LINE
  5
261E
330
28A3
100
AcDbEntity
  8
0
 62
     0
100
AcDbLine
 10
-200.4000000000015
 20
-333.0003507960281
 30
0.0
 11
-15.40000000000145
 21
-244.90515915784
 31
0.0
  0
LINE
  5
261F
330
28A3
100
AcDbEntity
  8
0
 62
     0
100
AcDbLine
 10
-15.40000000000509
 20
-234.9052074137071
 30
0.0
 11
200.3999999999942
 21
-132.1433568433213
 31
0.0
  0
LINE
  5
2620
330
28A3
100
AcDbEntity
  8
0
 62
     0
100
AcDbLine
 10
-200.4000000000015
 20
-323.0003990518935
 30
0.0
 11
-15.40000000000509
 21
-234.9052074137071
 31
0.0
  0
LINE
  5
2621
330
28A3
100
AcDbEntity
  8
0
 62
     0
100
AcDbLine
 10
-15.40000000000145
 20
-224.9052556695715
 30
0.0
 11
200.3999999999978
 21
-122.1434050991856
 31
0.0
  0
LINE
  5
2622
330
28A3
100
AcDbEntity
  8
0
 62
     0
100
AcDbLine
 10
-200.4000000000015
 20
-313.0004473077597
 30
0.0
 11
-15.40000000000145
 21
-224.9052556695715
 31
0.0
  0
LINE
  5
2623
330
28A3
100
AcDbEntity
  8
0
 62
     0
100
AcDbLine
 10
-15.40000000000509
 20
-214.9053039254377
 30
0.0
 11
188.9412460028324
 21
-117.5999999999994
 31
0.0
  0
LINE
  5
2624
330
28A3
100
AcDbEntity
  8
0
 62
     0
100
AcDbLine
 10
-200.3999999999978
 20
-303.0004955636241
 30
0.0
 11
-15.40000000000509
 21
-214.9053039254377
 31
0.0
  0
LINE
  5
2625
330
28A3
100
AcDbEntity
  8
0
 62
     0
100
AcDbLine
 10
-15.40000000000509
 20
-204.905352181303
 30
0.0
 11
167.9413362658379
 21
-117.6000000000003
 31
0.0
  0
LINE
  5
2626
330
28A3
100
AcDbEntity
  8
0
 62
     0
100
AcDbLine
 10
-200.4000000000015
 20
-293.0005438194903
 30
0.0
 11
-15.40000000000509
 21
-204.905352181303
 31
0.0
  0
LINE
  5
2627
330
28A3
100
AcDbEntity
  8
0
 62
     0
100
AcDbLine
 10
-15.40000000000145
 20
-194.9054004371673
 30
0.0
 11
146.9414265288469
 21
-117.6000000000003
 31
0.0
  0
LINE
  5
2628
330
28A3
100
AcDbEntity
  8
0
 62
     0
100
AcDbLine
 10
-200.4000000000015
 20
-283.0005920753556
 30
0.0
 11
-15.40000000000145
 21
-194.9054004371673
 31
0.0
  0
LINE
  5
2629
330
28A3
100
AcDbEntity
  8
0
 62
     0
100
AcDbLine
 10
-15.40000000000145
 20
-184.9054486930345
 30
0.0
 11
125.9415167918559
 21
-117.6000000000013
 31
0.0
  0
LINE
  5
262A
330
28A3
100
AcDbEntity
  8
0
 62
     0
100
AcDbLine
 10
-200.3999999999978
 20
-273.0006403312218
 30
0.0
 11
-15.40000000000145
 21
-184.9054486930345
 31
0.0
  0
LINE
  5
262B
330
28A3
100
AcDbEntity
  8
0
 62
     0
100
AcDbLine
 10
-15.40000000000145
 20
-174.9054969488988
 30
0.0
 11
104.9416070548686
 21
-117.5999999999994
 31
0.0
  0
LINE
  5
262C
330
28A3
100
AcDbEntity
  8
0
 62
     0
100
AcDbLine
 10
-200.4000000000015
 20
-263.000688587088
 30
0.0
 11
-15.40000000000145
 21
-174.9054969488988
 31
0.0
  0
LINE
  5
262D
330
28A3
100
AcDbEntity
  8
0
 62
     0
100
AcDbLine
 10
-15.40000000000509
 20
-164.9055452047651
 30
0.0
 11
83.94169731787769
 21
-117.5999999999994
 31
0.0
  0
LINE
  5
262E
330
28A3
100
AcDbEntity
  8
0
 62
     0
100
AcDbLine
 10
-200.3999999999978
 20
-253.0007368429524
 30
0.0
 11
-15.40000000000509
 21
-164.9055452047651
 31
0.0
  0
LINE
  5
262F
330
28A3
100
AcDbEntity
  8
0
 62
     0
100
AcDbLine
 10
-15.40000000000509
 20
-154.9055934606303
 30
0.0
 11
62.9417875808831
 21
-117.6000000000003
 31
0.0
  0
LINE
  5
2630
330
28A3
100
AcDbEntity
  8
0
 62
     0
100
AcDbLine
 10
-200.4000000000015
 20
-243.0007850988195
 30
0.0
 11
-15.40000000000509
 21
-154.9055934606303
 31
0.0
  0
LINE
  5
2631
330
28A3
100
AcDbEntity
  8
0
 62
     0
100
AcDbLine
 10
-15.40000000000509
 20
-144.9056417164966
 30
0.0
 11
41.94187784389213
 21
-117.6000000000003
 31
0.0
  0
LINE
  5
2632
330
28A3
100
AcDbEntity
  8
0
 62
     0
100
AcDbLine
 10
-200.4000000000015
 20
-233.0008333546839
 30
0.0
 11
-15.40000000000509
 21
-144.9056417164966
 31
0.0
  0
LINE
  5
2633
330
28A3
100
AcDbEntity
  8
0
 62
     0
100
AcDbLine
 10
-15.40000000000145
 20
-134.9056899723609
 30
0.0
 11
20.94196810690482
 21
-117.5999999999994
 31
0.0
  0
LINE
  5
2634
330
28A3
100
AcDbEntity
  8
0
 62
     0
100
AcDbLine
 10
-200.4000000000015
 20
-223.0008816105501
 30
0.0
 11
-15.40000000000145
 21
-134.9056899723609
 31
0.0
  0
LINE
  5
2635
330
28A3
100
AcDbEntity
  8
0
 62
     0
100
AcDbLine
 10
-15.40000000000509
 20
-124.9057382282281
 30
0.0
 11
-0.0579416300897719
 21
-117.6000000000003
 31
0.0
  0
LINE
  5
2636
330
28A3
100
AcDbEntity
  8
0
 62
     0
100
AcDbLine
 10
-200.4000000000015
 20
-213.0009298664154
 30
0.0
 11
-15.40000000000509
 21
-124.9057382282281
 31
0.0
  0
LINE
  5
2637
330
28A3
100
AcDbEntity
  8
0
 62
     0
100
AcDbLine
 10
-200.4000000000015
 20
-203.0009781222816
 30
0.0
 11
-21.05785136708073
 21
-117.6000000000003
 31
0.0
  0
LINE
  5
2638
330
28A3
100
AcDbEntity
  8
0
 62
     0
100
AcDbLine
 10
-200.4000000000015
 20
-193.0010263781468
 30
0.0
 11
-42.05776110406804
 21
-117.6000000000013
 31
0.0
  0
LINE
  5
2639
330
28A3
100
AcDbEntity
  8
0
 62
     0
100
AcDbLine
 10
-200.4000000000015
 20
-183.0010746340112
 30
0.0
 11
-63.05767084105901
 21
-117.5999999999994
 31
0.0
  0
LINE
  5
263A
330
28A3
100
AcDbEntity
  8
0
 62
     0
100
AcDbLine
 10
-200.4000000000015
 20
-173.0011228898774
 30
0.0
 11
-84.05758057804995
 21
-117.5999999999994
 31
0.0
  0
LINE
  5
263B
330
28A3
100
AcDbEntity
  8
0
 62
     0
100
AcDbLine
 10
-200.3999999999978
 20
-163.0011711457427
 30
0.0
 11
-105.0574903150409
 21
-117.6000000000003
 31
0.0
  0
LINE
  5
263C
330
28A3
100
AcDbEntity
  8
0
 62
     0
100
AcDbLine
 10
-200.4000000000015
 20
-153.001219401609
 30
0.0
 11
-126.0574000520318
 21
-117.6000000000003
 31
0.0
  0
LINE
  5
263D
330
28A3
100
AcDbEntity
  8
0
 62
     0
100
AcDbLine
 10
-200.4000000000015
 20
-143.0012676574733
 30
0.0
 11
-147.0573097890228
 21
-117.6000000000003
 31
0.0
  0
LINE
  5
263E
330
28A3
100
AcDbEntity
  8
0
 62
     0
100
AcDbLine
 10
-200.4000000000015
 20
-133.0013159133405
 30
0.0
 11
-168.0572195260138
 21
-117.6000000000013
 31
0.0
  0
LINE
  5
263F
330
28A3
100
AcDbEntity
  8
0
 62
     0
100
AcDbLine
 10
-200.4000000000015
 20
-123.0013641692048
 30
0.0
 11
-189.0571292630047
 21
-117.6000000000013
 31
0.0
  0
ENDBLK
  5
2640
330
28A3
100
AcDbEntity
  8
0
100
AcDbBlockEnd
  0
ENDSEC
  0
SECTION
  2
ENTITIES
  0
TEXT
  5
953
330
27C2
100
AcDbEntity
  8
OUTLINE
  6
Continuous
 62
     3
100
AcDbText
 10
-418.231467
 20
13.715189
 30
0.0
 40
64.0
  1
 
 41
0.9
100
AcDbText
  0
TEXT
  5
954
330
27C2
100
AcDbEntity
  8
OUTLINE
  6
Continuous
 62
     3
100
AcDbText
 10
-418.231467
 20
13.715189
 30
0.0
 40
64.0
  1
 
 41
0.9
100
AcDbText
  0
TEXT
  5
955
330
27C2
100
AcDbEntity
  8
OUTLINE
  6
Continuous
 62
     3
100
AcDbText
 10
1341.41903
 20
-706.0588199999997
 30
0.0
 40
64.0
  1
 
 41
0.9
100
AcDbText
  0
TEXT
  5
956
330
27C2
100
AcDbEntity
  8
OUTLINE
  6
Continuous
 62
     3
100
AcDbText
 10
1341.41903
 20
-706.0588199999997
 30
0.0
 40
64.0
  1
 
 41
0.9
100
AcDbText
  0
TEXT
  5
957
330
27C2
100
AcDbEntity
  8
OUTLINE
  6
Continuous
 62
     3
100
AcDbText
 10
1341.41903
 20
-706.0588199999997
 30
0.0
 40
64.0
  1
 
 41
0.9
100
AcDbText
  0
TEXT
  5
958
330
27C2
100
AcDbEntity
  8
OUTLINE
  6
Continuous
 62
     3
100
AcDbText
 10
1341.41903
 20
-706.0588199999997
 30
0.0
 40
64.0
  1
 
 41
0.9
100
AcDbText
  0
TEXT
  5
26AC
330
27C2
100
AcDbEntity
  8
ETC
100
AcDbText
 10
368.2334138162223
 20
381.5592646570566
 30
0.0
 40
64.0
  1
システム部材
 41
0.9
100
AcDbText
  0
TEXT
  5
26AD
330
27C2
100
AcDbEntity
  8
ETC
100
AcDbText
 10
374.4414118162203
 20
482.4425906570565
 30
0.0
 40
64.0
  1
QW-40SDB_6
 41
0.9
100
AcDbText
  0
TEXT
  5
26AE
330
27C2
100
AcDbEntity
  8
ETC
100
AcDbText
 10
368.2334138162223
 20
281.5592646570566
 30
0.0
 40
64.0
  1
QW-40SDB
 41
0.9
100
AcDbText
  0
POINT
  5
26AF
330
27C2
100
AcDbEntity
  8
ARRANGE
100
AcDbPoint
 10
0.0
 20
0.0
 30
0.0
 39
50.0
  0
LINE
  5
26B0
330
27C2
100
AcDbEntity
  8
DETAIL
100
AcDbLine
 10
200.3999999999978
 20
-486.3999999999998
 30
0.0
 11
200.3999999999978
 21
-117.5999999999998
 31
0.0
  0
LINE
  5
26B1
330
27C2
100
AcDbEntity
  8
DETAIL
100
AcDbLine
 10
-200.4000000000015
 20
-486.3999999999998
 30
0.0
 11
-200.4000000000015
 21
-117.6000000000002
 31
0.0
  0
LINE
  5
26B2
330
27C2
100
AcDbEntity
  8
BASIS
100
AcDbLine
 10
0.0
 20
25.0
 30
0.0
 11
0.0
 21
-548.0
 31
0.0
  0
LINE
  5
26B3
330
27C2
100
AcDbEntity
  8
DETAIL
100
AcDbLine
 10
-200.4000000000015
 20
-117.6000000000002
 30
0.0
 11
200.3999999999978
 21
-117.5999999999998
 31
0.0
  0
LINE
  5
26B4
330
27C2
100
AcDbEntity
  8
NOTE
100
AcDbLine
 10
-230.0
 20
12.5
 30
0.0
 11
-230.0
 21
-12.5
 31
0.0
  0
CIRCLE
  5
26B5
330
27C2
100
AcDbEntity
  8
ARRANGE
100
AcDbCircle
 10
0.0
 20
0.0
 30
0.0
 40
40.0
  0
LINE
  5
26B6
330
27C2
100
AcDbEntity
  8
OUTLINE
100
AcDbLine
 10
230.0
 20
-87.0
 30
0.0
 11
230.0
 21
-87.22603069026261
 31
0.0
  0
LINE
  5
26B7
330
27C2
100
AcDbEntity
  8
NOTE
100
AcDbLine
 10
230.0
 20
-12.5
 30
0.0
 11
230.0
 21
12.5
 31
0.0
  0
LINE
  5
26B8
330
27C2
100
AcDbEntity
  8
DETAIL
100
AcDbLine
 10
-200.4000000000015
 20
-486.3999999999998
 30
0.0
 11
200.3999999999978
 21
-486.3999999999998
 31
0.0
  0
INSERT
  5
26B9
330
27C2
100
AcDbEntity
  8
0
100
AcDbBlockReference
  2
*U74
 10
0.0
 20
0.0
 30
0.0
1001
ACAD
1000
DSTYLE
1002
{
1070
    41
1040
12.0
1070
    42
1040
20.0
1070
    43
1040
200.0
1070
    44
1040
20.0
1070
    73
1070
     0
1070
    74
1070
     0
1070
    77
1070
     1
1070
    78
1070
     8
1070
   140
1040
64.0
1070
   147
1040
50.0
1070
   172
1070
     1
1070
   174
1070
     1
1070
   275
1070
     0
1070
   284
1070
     0
1070
   285
1070
     0
1070
   286
1070
     0
1070
   341
1005
0
1070
   342
1005
0
1002
}
  0
INSERT
  5
26BA
330
27C2
100
AcDbEntity
  8
0
100
AcDbBlockReference
  2
*U75
 10
0.0
 20
0.0
 30
0.0
  0
LINE
  5
26BB
330
27C2
100
AcDbEntity
  8
DETAIL
100
AcDbLine
 10
216.0
 20
-523.0
 30
0.0
 11
216.0
 21
-102.0
 31
0.0
  0
LINE
  5
26BC
330
27C2
100
AcDbEntity
  8
DETAIL
100
AcDbLine
 10
-216.0
 20
-523.0
 30
0.0
 11
-216.0
 21
-102.0
 31
0.0
  0
LINE
  5
26BD
330
27C2
100
AcDbEntity
  8
DETAIL
100
AcDbLine
 10
230.0
 20
-87.0
 30
0.0
 11
230.0
 21
-502.0
 31
0.0
  0
LINE
  5
26BE
330
27C2
100
AcDbEntity
  8
DETAIL
100
AcDbLine
 10
-230.0
 20
-87.0
 30
0.0
 11
-230.0
 21
-502.0
 31
0.0
  0
LINE
  5
26BF
330
27C2
100
AcDbEntity
  8
DETAIL
100
AcDbLine
 10
-230.0
 20
-87.0
 30
0.0
 11
230.0
 21
-87.0
 31
0.0
  0
LINE
  5
26C0
330
27C2
100
AcDbEntity
  8
DETAIL
100
AcDbLine
 10
-216.0
 20
-102.0
 30
0.0
 11
216.0
 21
-102.0
 31
0.0
  0
LINE
  5
26C1
330
27C2
100
AcDbEntity
  8
DETAIL
100
AcDbLine
 10
-255.0
 20
0.0
 30
0.0
 11
255.0
 21
0.0
 31
0.0
  0
LINE
  5
26C2
330
27C2
100
AcDbEntity
  8
DETAIL
100
AcDbLine
 10
-255.0
 20
-10.0
 30
0.0
 11
255.0
 21
-10.0
 31
0.0
  0
LINE
  5
26C3
330
27C2
100
AcDbEntity
  8
DETAIL
100
AcDbLine
 10
-216.0
 20
-202.0
 30
0.0
 11
-216.0
 21
-102.0
 31
0.0
  0
LINE
  5
26C4
330
27C2
100
AcDbEntity
  8
DETAIL
100
AcDbLine
 10
-216.0
 20
-87.0
 30
0.0
 11
-216.0
 21
-10.0
 31
0.0
  0
LINE
  5
26C5
330
27C2
100
AcDbEntity
  8
DETAIL
100
AcDbLine
 10
-216.0
 20
-87.0
 30
0.0
 11
-216.0
 21
-10.0
 31
0.0
  0
LINE
  5
26C6
330
27C2
100
AcDbEntity
  8
DETAIL
100
AcDbLine
 10
-255.0
 20
-10.0
 30
0.0
 11
-255.0
 21
0.0
 31
0.0
  0
LINE
  5
26C7
330
27C2
100
AcDbEntity
  8
DETAIL
100
AcDbLine
 10
216.0
 20
-87.0
 30
0.0
 11
216.0
 21
-10.0
 31
0.0
  0
LINE
  5
26C8
330
27C2
100
AcDbEntity
  8
DETAIL
100
AcDbLine
 10
230.0
 20
-87.0
 30
0.0
 11
230.0
 21
-87.22603069026261
 31
0.0
  0
LINE
  5
26C9
330
27C2
100
AcDbEntity
  8
DETAIL
100
AcDbLine
 10
255.0
 20
-10.0
 30
0.0
 11
255.0
 21
0.0
 31
0.0
  0
LINE
  5
26CA
330
27C2
100
AcDbEntity
  8
DETAIL
100
AcDbLine
 10
-230.0
 20
-502.0
 30
0.0
 11
216.0
 21
-502.0
 31
0.0
  0
LINE
  5
26CB
330
27C2
100
AcDbEntity
  8
DETAIL
100
AcDbLine
 10
84.0
 20
-502.0
 30
0.0
 11
230.0
 21
-502.0
 31
0.0
  0
LINE
  5
26CC
330
27C2
100
AcDbEntity
  8
DETAIL
100
AcDbLine
 10
-216.0
 20
-517.0
 30
0.0
 11
216.0
 21
-517.0
 31
0.0
  0
LINE
  5
26CD
330
27C2
100
AcDbEntity
  8
DETAIL
100
AcDbLine
 10
-216.0
 20
-523.0
 30
0.0
 11
216.0
 21
-523.0
 31
0.0
  0
LINE
  5
26CE
330
27C2
100
AcDbEntity
  8
OUTLINE
100
AcDbLine
 10
216.0
 20
-523.0
 30
0.0
 11
216.0
 21
-102.0
 31
0.0
  0
LINE
  5
26CF
330
27C2
100
AcDbEntity
  8
OUTLINE
100
AcDbLine
 10
-216.0
 20
-523.0
 30
0.0
 11
-216.0
 21
-102.0
 31
0.0
  0
LINE
  5
26D0
330
27C2
100
AcDbEntity
  8
OUTLINE
100
AcDbLine
 10
230.0
 20
-87.0
 30
0.0
 11
230.0
 21
-502.0
 31
0.0
  0
LINE
  5
26D1
330
27C2
100
AcDbEntity
  8
OUTLINE
100
AcDbLine
 10
-230.0
 20
-87.0
 30
0.0
 11
-230.0
 21
-502.0
 31
0.0
  0
LINE
  5
26D2
330
27C2
100
AcDbEntity
  8
OUTLINE
100
AcDbLine
 10
-230.0
 20
-87.0
 30
0.0
 11
230.0
 21
-87.0
 31
0.0
  0
LINE
  5
26D3
330
27C2
100
AcDbEntity
  8
OUTLINE
100
AcDbLine
 10
-216.0
 20
-102.0
 30
0.0
 11
216.0
 21
-102.0
 31
0.0
  0
LINE
  5
26D4
330
27C2
100
AcDbEntity
  8
OUTLINE
100
AcDbLine
 10
-255.0
 20
-10.0
 30
0.0
 11
255.0
 21
-10.0
 31
0.0
  0
LINE
  5
26D5
330
27C2
100
AcDbEntity
  8
OUTLINE
100
AcDbLine
 10
-216.0
 20
-202.0
 30
0.0
 11
-216.0
 21
-102.0
 31
0.0
  0
LINE
  5
26D6
330
27C2
100
AcDbEntity
  8
OUTLINE
100
AcDbLine
 10
-216.0
 20
-87.0
 30
0.0
 11
-216.0
 21
-10.0
 31
0.0
  0
LINE
  5
26D7
330
27C2
100
AcDbEntity
  8
OUTLINE
100
AcDbLine
 10
-216.0
 20
-87.0
 30
0.0
 11
-216.0
 21
-10.0
 31
0.0
  0
LINE
  5
26D8
330
27C2
100
AcDbEntity
  8
OUTLINE
100
AcDbLine
 10
-255.0
 20
-10.0
 30
0.0
 11
-255.0
 21
0.0
 31
0.0
  0
LINE
  5
26D9
330
27C2
100
AcDbEntity
  8
OUTLINE
100
AcDbLine
 10
216.0
 20
-87.0
 30
0.0
 11
216.0
 21
-10.0
 31
0.0
  0
LINE
  5
26DA
330
27C2
100
AcDbEntity
  8
OUTLINE
100
AcDbLine
 10
230.0
 20
-87.0
 30
0.0
 11
230.0
 21
-87.22603069026261
 31
0.0
  0
LINE
  5
26DB
330
27C2
100
AcDbEntity
  8
OUTLINE
100
AcDbLine
 10
255.0
 20
-10.0
 30
0.0
 11
255.0
 21
0.0
 31
0.0
  0
LINE
  5
26DC
330
27C2
100
AcDbEntity
  8
OUTLINE
100
AcDbLine
 10
-230.0
 20
-502.0
 30
0.0
 11
216.0
 21
-502.0
 31
0.0
  0
LINE
  5
26DD
330
27C2
100
AcDbEntity
  8
OUTLINE
100
AcDbLine
 10
84.0
 20
-502.0
 30
0.0
 11
230.0
 21
-502.0
 31
0.0
  0
LINE
  5
26DE
330
27C2
100
AcDbEntity
  8
OUTLINE
100
AcDbLine
 10
-216.0
 20
-517.0
 30
0.0
 11
216.0
 21
-517.0
 31
0.0
  0
LINE
  5
26DF
330
27C2
100
AcDbEntity
  8
OUTLINE
100
AcDbLine
 10
-216.0
 20
-523.0
 30
0.0
 11
216.0
 21
-523.0
 31
0.0
  0
LINE
  5
26E0
330
27C2
100
AcDbEntity
  8
NOTE
100
AcDbLine
 39
50.0
 10
-242.5
 20
0.0
 30
0.0
 11
-217.5
 21
0.0
 31
0.0
  0
LINE
  5
26E1
330
27C2
100
AcDbEntity
  8
NOTE
100
AcDbLine
 39
50.0
 10
217.5
 20
0.0
 30
0.0
 11
242.5
 21
0.0
 31
0.0
  0
LINE
  5
26E2
330
27C2
100
AcDbEntity
  8
OUTLINE
100
AcDbLine
 39
50.0
 10
-255.0
 20
0.0
 30
0.0
 11
255.0
 21
0.0
 31
0.0
  0
LINE
  5
26E3
330
27C2
100
AcDbEntity
  8
DETAIL
100
AcDbLine
 10
200.3999999999978
 20
-486.3999999999998
 30
0.0
 11
200.3999999999978
 21
-117.5999999999998
 31
0.0
  0
LINE
  5
26E4
330
27C2
100
AcDbEntity
  8
DETAIL
100
AcDbLine
 10
-200.3999999999978
 20
-486.3999999999998
 30
0.0
 11
-200.3999999999978
 21
-117.6000000000002
 31
0.0
  0
LINE
  5
26E5
330
27C2
100
AcDbEntity
  8
DETAIL
100
AcDbLine
 10
-200.3999999999978
 20
-117.6000000000002
 30
0.0
 11
200.3999999999978
 21
-117.5999999999998
 31
0.0
  0
LINE
  5
26E6
330
27C2
100
AcDbEntity
  8
DETAIL
100
AcDbLine
 10
-200.3999999999978
 20
-486.3999999999998
 30
0.0
 11
200.3999999999978
 21
-486.3999999999998
 31
0.0
  0
INSERT
  5
26E7
330
27C2
100
AcDbEntity
  8
DETAIL
  6
Continuous
100
AcDbBlockReference
  2
*X76
 10
0.0
 20
0.0
 30
0.0
1001
ACADANNOTATIVE
1000
AnnotativeData
1002
{
1070
     1
1070
     0
1002
}
1001
ACAD
1000
HATCH
1002
{
1070
    19
1000
LINE
1040
72.22849999999998
1040
5.838766301980095
1000
R14_HATCH_DATA
1000
5B2B
1011
1.0
1021
0.0
1031
0.0
1011
0.0
1021
1.0
1031
0.0
1011
0.0
1021
0.0
1031
1.0
1040
0.0
1010
0.0
1020
0.0
1030
1.0
1000
LINE
1070
     0
1070
     0
1071
        2
1071
        7
1070
     0
1070
     1
1071
        6
1040
-15.39999999999781
1040
-117.5999999999998
1040
-200.3999999999978
1040
-117.6000000000006
1040
-200.3999999999978
1040
-486.3999999999996
1040
200.3999999999978
1040
-486.3999999999998
1040
200.3999999999978
1040
-311.3999999999996
1040
-15.40000000000145
1040
-311.3999999999996
1071
        0
1071
       23
1070
     0
1070
     1
1071
        4
1040
200.3999999999978
1040
-311.3999999999996
1040
200.3999999999978
1040
-117.5999999999998
1040
-15.40000000000145
1040
-117.5999999999998
1040
-15.40000000000145
1040
-311.3999999999996
1071
        0
1070
     0
1070
     1
1040
5.838766301980095
1040
72.22849999999998
1070
     0
1070
     1
1040
5.838766301980095
1040
19879.09451911818
1040
1818.694421177036
1040
3.881680532789153
1040
8.151533417570705
1070
     0
1040
0.8582184964742712
1071
        2
1040
-122.7630313907284
1040
-211.6923371338212
1040
0.0
1040
98.77516647709491
1040
-234.3013186024036
1040
0.0
1002
}
  0
INSERT
  5
26E8
330
27C2
100
AcDbEntity
  8
DETAIL
  6
Continuous
100
AcDbBlockReference
  2
*X77
 10
0.0
 20
0.0
 30
0.0
1001
ACADANNOTATIVE
1000
AnnotativeData
1002
{
1070
     1
1070
     0
1002
}
1001
ACAD
1000
HATCH
1002
{
1070
    19
1000
LINE
1040
72.22849999999998
1040
0.4444190051994897
1000
R14_HATCH_DATA
1000
5B31
1011
1.0
1021
0.0
1031
0.0
1011
0.0
1021
1.0
1031
0.0
1011
0.0
1021
0.0
1031
1.0
1040
0.0
1010
0.0
1020
0.0
1030
1.0
1000
LINE
1070
     0
1070
     0
1071
        2
1071
        7
1070
     0
1070
     1
1071
        6
1040
-15.40000000000145
1040
-117.6000000000003
1040
-200.4000000000015
1040
-117.6000000000003
1040
-200.3999999999978
1040
-486.3999999999998
1040
200.3999999999978
1040
-486.3999999999998
1040
200.3999999999978
1040
-311.3999999999996
1040
-15.40000000000145
1040
-311.3999999999996
1071
        0
1071
        7
1070
     0
1070
     1
1071
        4
1040
200.3999999999978
1040
-117.6000000000001
1040
-15.40000000000145
1040
-117.5999999999998
1040
-15.40000000000145
1040
-311.3999999999996
1040
200.3999999999978
1040
-311.3999999999996
1071
        0
1070
     0
1070
     1
1040
0.4444190051994897
1040
72.22849999999998
1070
     0
1070
     1
1040
0.4444190051994897
1040
19879.09451911818
1040
1818.694421177036
1040
-3.881680532789157
1040
8.151533417570702
1070
     0
1040
0.772542820448278
1071
        2
1040
-82.64448583959165
1040
-235.6989835456056
1040
0.0
1040
123.7675573120686
1040
-233.9238295722171
1040
0.0
1002
}
  0
LINE
  5
26E9
330
27C2
100
AcDbEntity
  8
DETAIL
100
AcDbLine
 10
200.3999999999978
 20
-486.3999999999998
 30
0.0
 11
200.3999999999978
 21
-117.5999999999998
 31
0.0
  0
LINE
  5
26EA
330
27C2
100
AcDbEntity
  8
DETAIL
100
AcDbLine
 10
-200.3999999999978
 20
-486.3999999999998
 30
0.0
 11
-200.3999999999978
 21
-117.6000000000002
 31
0.0
  0
LINE
  5
26EB
330
27C2
100
AcDbEntity
  8
DETAIL
100
AcDbLine
 10
-200.3999999999978
 20
-117.6000000000002
 30
0.0
 11
200.3999999999978
 21
-117.5999999999998
 31
0.0
  0
LINE
  5
26EC
330
27C2
100
AcDbEntity
  8
DETAIL
100
AcDbLine
 10
-200.3999999999978
 20
-486.3999999999998
 30
0.0
 11
200.3999999999978
 21
-486.3999999999998
 31
0.0
  0
LINE
  5
26ED
330
27C2
100
AcDbEntity
  8
SIZE
100
AcDbLine
 10
255.0
 20
20.0
 30
0.0
 11
255.0
 21
296.8865929365169
 31
0.0
  0
LINE
  5
26EE
330
27C2
100
AcDbEntity
  8
SIZE
100
AcDbLine
 10
-255.0
 20
20.0
 30
0.0
 11
-255.0
 21
296.8865929365169
 31
0.0
  0
LINE
  5
26EF
330
27C2
100
AcDbEntity
  8
SIZE
100
AcDbLine
 10
243.0
 20
276.8865929365169
 30
0.0
 11
-243.0
 21
276.8865929365169
 31
0.0
  0
INSERT
  5
26F0
330
27C2
100
AcDbEntity
  8
SIZE
100
AcDbBlockReference
  2
_DOTBLANK
 10
255.0
 20
276.8865929365169
 30
0.0
 41
12.0
 42
12.0
 43
12.0
  0
INSERT
  5
26F1
330
27C2
100
AcDbEntity
  8
SIZE
100
AcDbBlockReference
  2
_DOTBLANK
 10
-255.0
 20
276.8865929365169
 30
0.0
 41
12.0
 42
12.0
 43
12.0
 50
180.0
  0
LINE
  5
26F2
330
27C2
100
AcDbEntity
  8
SIZE
100
AcDbLine
 10
230.0
 20
32.5
 30
0.0
 11
230.0
 21
178.3320910096172
 31
0.0
  0
LINE
  5
26F3
330
27C2
100
AcDbEntity
  8
SIZE
100
AcDbLine
 10
-230.0
 20
32.5
 30
0.0
 11
-230.0
 21
178.3320910096172
 31
0.0
  0
LINE
  5
26F4
330
27C2
100
AcDbEntity
  8
SIZE
100
AcDbLine
 10
218.0
 20
158.3320910096172
 30
0.0
 11
-218.0
 21
158.3320910096172
 31
0.0
  0
INSERT
  5
26F5
330
27C2
100
AcDbEntity
  8
SIZE
100
AcDbBlockReference
  2
_DOTBLANK
 10
230.0
 20
158.3320910096172
 30
0.0
 41
12.0
 42
12.0
 43
12.0
  0
INSERT
  5
26F6
330
27C2
100
AcDbEntity
  8
SIZE
100
AcDbBlockReference
  2
_DOTBLANK
 10
-230.0
 20
158.3320910096172
 30
0.0
 41
12.0
 42
12.0
 43
12.0
 50
180.0
  0
LINE
  5
26F7
330
27C2
100
AcDbEntity
  8
SIZE
100
AcDbLine
 10
-250.0
 20
-502.0
 30
0.0
 11
-456.9212747256532
 21
-501.9999999999996
 31
0.0
  0
LINE
  5
26F8
330
27C2
100
AcDbEntity
  8
SIZE
100
AcDbLine
 10
-236.0
 20
-523.0
 30
0.0
 11
-456.9212747256532
 21
-522.9999999999996
 31
0.0
  0
LINE
  5
26F9
330
27C2
100
AcDbEntity
  8
SIZE
100
AcDbLine
 10
-436.9212747256532
 20
-489.9999999999997
 30
0.0
 11
-436.9212747256532
 21
-477.9999999999997
 31
0.0
  0
LINE
  5
26FA
330
27C2
100
AcDbEntity
  8
SIZE
100
AcDbLine
 10
-436.9212747256532
 20
-534.9999999999996
 30
0.0
 11
-436.9212747256532
 21
-635.5714285714283
 31
0.0
  0
INSERT
  5
26FB
330
27C2
100
AcDbEntity
  8
SIZE
100
AcDbBlockReference
  2
_DOTBLANK
 10
-436.9212747256532
 20
-501.9999999999996
 30
0.0
 41
12.0
 42
12.0
 43
12.0
 50
270.0
  0
INSERT
  5
26FC
330
27C2
100
AcDbEntity
  8
SIZE
100
AcDbBlockReference
  2
_DOTBLANK
 10
-436.9212747256532
 20
-522.9999999999996
 30
0.0
 41
12.0
 42
12.0
 43
12.0
 50
90.0
  0
LINE
  5
26FD
330
27C2
100
AcDbEntity
  8
SIZE
100
AcDbLine
 10
-275.0
 20
0.0
 30
0.0
 11
-456.9212747256531
 21
0.0000000000001137
 31
0.0
  0
LINE
  5
26FE
330
27C2
100
AcDbEntity
  8
SIZE
100
AcDbLine
 10
-250.0
 20
-502.0
 30
0.0
 11
-456.9212747256532
 21
-501.9999999999996
 31
0.0
  0
LINE
  5
26FF
330
27C2
100
AcDbEntity
  8
SIZE
100
AcDbLine
 10
-436.9212747256532
 20
-12.0
 30
0.0
 11
-436.9212747256532
 21
-489.9999999999997
 31
0.0
  0
INSERT
  5
2700
330
27C2
100
AcDbEntity
  8
SIZE
100
AcDbBlockReference
  2
_DOTBLANK
 10
-436.9212747256532
 20
0.0
 30
0.0
 41
12.0
 42
12.0
 43
12.0
 50
90.0
  0
INSERT
  5
2701
330
27C2
100
AcDbEntity
  8
SIZE
100
AcDbBlockReference
  2
_DOTBLANK
 10
-436.9212747256532
 20
-501.9999999999996
 30
0.0
 41
12.0
 42
12.0
 43
12.0
 50
270.0
  0
LINE
  5
2702
330
27C2
100
AcDbEntity
  8
SIZE
100
AcDbLine
 10
230.0
 20
-522.0
 30
0.0
 11
230.0
 21
-722.0300779383685
 31
0.0
  0
LINE
  5
2703
330
27C2
100
AcDbEntity
  8
SIZE
100
AcDbLine
 10
-230.0
 20
-522.0
 30
0.0
 11
-230.0
 21
-722.0300779383685
 31
0.0
  0
LINE
  5
2704
330
27C2
100
AcDbEntity
  8
SIZE
100
AcDbLine
 10
218.0
 20
-702.0300779383687
 30
0.0
 11
-218.0
 21
-702.0300779383687
 31
0.0
  0
INSERT
  5
2705
330
27C2
100
AcDbEntity
  8
SIZE
100
AcDbBlockReference
  2
_DOTBLANK
 10
230.0
 20
-702.0300779383687
 30
0.0
 41
12.0
 42
12.0
 43
12.0
  0
INSERT
  5
2706
330
27C2
100
AcDbEntity
  8
SIZE
100
AcDbBlockReference
  2
_DOTBLANK
 10
-230.0
 20
-702.0300779383687
 30
0.0
 41
12.0
 42
12.0
 43
12.0
 50
180.0
  0
LINE
  5
2707
330
27C2
100
AcDbEntity
  8
SIZE
100
AcDbLine
 10
275.0
 20
0.0
 30
0.0
 11
373.1210107840925
 21
0.0
 31
0.0
  0
LINE
  5
2708
330
27C2
100
AcDbEntity
  8
SIZE
100
AcDbLine
 10
275.0
 20
-10.0
 30
0.0
 11
373.1210107840925
 21
-10.0
 31
0.0
  0
LINE
  5
2709
330
27C2
100
AcDbEntity
  8
SIZE
100
AcDbLine
 10
353.1210107840925
 20
12.0
 30
0.0
 11
353.1210107840925
 21
24.0
 31
0.0
  0
LINE
  5
270A
330
27C2
100
AcDbEntity
  8
SIZE
100
AcDbLine
 10
353.1210107840925
 20
-22.0
 30
0.0
 11
353.1210107840925
 21
-137.6571428571463
 31
0.0
  0
INSERT
  5
270B
330
27C2
100
AcDbEntity
  8
SIZE
100
AcDbBlockReference
  2
_DOTBLANK
 10
353.1210107840925
 20
0.0
 30
0.0
 41
12.0
 42
12.0
 43
12.0
 50
270.0
  0
INSERT
  5
270C
330
27C2
100
AcDbEntity
  8
SIZE
100
AcDbBlockReference
  2
_DOTBLANK
 10
353.1210107840925
 20
-10.0
 30
0.0
 41
12.0
 42
12.0
 43
12.0
 50
90.0
  0
TEXT
  5
270D
330
27C2
100
AcDbEntity
  8
SIZE
100
AcDbText
 10
-68.57142857142844
 20
286.8865929365169
 30
0.0
 40
64.0
  1
510
 41
0.9
100
AcDbText
  0
TEXT
  5
270E
330
27C2
100
AcDbEntity
  8
SIZE
100
AcDbText
 10
-74.61302049113966
 20
168.3320910096172
 30
0.0
 40
64.0
  1
460
 41
0.9
100
AcDbText
  0
TEXT
  5
270F
330
27C2
100
AcDbEntity
  8
SIZE
100
AcDbText
 10
-446.9212747256531
 20
-325.0571428571428
 30
0.0
 40
64.0
  1
502
 50
90.0
 41
0.9
100
AcDbText
  0
TEXT
  5
2710
330
27C2
100
AcDbEntity
  8
SIZE
100
AcDbText
 10
-446.9212747256531
 20
-625.5714285714285
 30
0.0
 40
64.0
  1
21
 50
90.0
 41
0.9
100
AcDbText
  0
TEXT
  5
2711
330
27C2
100
AcDbEntity
  8
SIZE
100
AcDbText
 10
-74.05714285714293
 20
-692.0300779383685
 30
0.0
 40
64.0
  1
460
 41
0.9
100
AcDbText
  0
TEXT
  5
2712
330
27C2
100
AcDbEntity
  8
SIZE
100
AcDbText
 10
343.1210107840925
 20
-127.6571428571462
 30
0.0
 40
64.0
  1
10
 50
90.0
 41
0.9
100
AcDbText
  0
ENDSEC
  0
SECTION
  2
OBJECTS
  0
DICTIONARY
  5
275A
330
0
100
AcDbDictionary
281
     1
  3
ACAD_2007HEADERVARS_RT
350
29B0
  3
ACAD_COLOR
350
27B8
  3
ACAD_GROUP
350
275B
  3
ACAD_LAYOUT
350
27B7
  3
ACAD_MATERIAL
350
275E
  3
ACAD_MLEADERSTYLE
350
27BB
  3
ACAD_MLINESTYLE
350
27B4
  3
ACAD_PLOTSETTINGS
350
27B6
  3
ACAD_PLOTSTYLENAME
350
275C
  3
ACAD_SCALELIST
350
2788
  3
ACAD_TABLESTYLE
350
27B9
  3
ACAD_VISUALSTYLE
350
2777
  3
ACDB_RECOMPOSE_DATA
350
29AE
  3
AcDbVariableDictionary
350
29A5
  3
AcmDictionary
350
2958
  3
AMG
350
28A5
  3
DWGPROPS
350
29AF
  3
MAPISURF_MODULE
350
2925
  0
DICTIONARY
  5
2980
330
27AA
100
AcDbDictionary
280
     1
281
     1
  3
ADSK_XREC_LAYER_RECONCILED
360
2981
  0
DICTIONARY
  5
2982
330
27D9
100
AcDbDictionary
280
     1
281
     1
  3
ADSK_XREC_LAYER_RECONCILED
360
2983
  0
DICTIONARY
  5
2984
330
27DA
100
AcDbDictionary
280
     1
281
     1
  3
ADSK_XREC_LAYER_RECONCILED
360
2985
  0
DICTIONARY
  5
2986
330
27DB
100
AcDbDictionary
280
     1
281
     1
  3
ADSK_XREC_LAYER_RECONCILED
360
2987
  0
DICTIONARY
  5
2988
330
27DC
100
AcDbDictionary
280
     1
281
     1
  3
ADSK_XREC_LAYER_RECONCILED
360
2989
  0
DICTIONARY
  5
298A
330
27DD
100
AcDbDictionary
280
     1
281
     1
  3
ADSK_XREC_LAYER_RECONCILED
360
298B
  0
DICTIONARY
  5
298C
330
27DF
100
AcDbDictionary
280
     1
281
     1
  3
ADSK_XREC_LAYER_RECONCILED
360
298D
  0
DICTIONARY
  5
298E
330
27E0
100
AcDbDictionary
280
     1
281
     1
  3
ADSK_XREC_LAYER_RECONCILED
360
298F
  0
DICTIONARY
  5
2990
330
27E1
100
AcDbDictionary
280
     1
281
     1
  3
ADSK_XREC_LAYER_RECONCILED
360
2991
  0
DICTIONARY
  5
2992
330
27E2
100
AcDbDictionary
280
     1
281
     1
  3
ADSK_XREC_LAYER_RECONCILED
360
2993
  0
DICTIONARY
  5
2994
330
27E3
100
AcDbDictionary
280
     1
281
     1
  3
ADSK_XREC_LAYER_RECONCILED
360
2995
  0
DICTIONARY
  5
2996
330
27C2
100
AcDbDictionary
280
     1
281
     1
  3
ACAD_INDEX
360
2997
  0
DICTIONARY
  5
29B0
102
{ACAD_REACTORS
330
275A
102
}
330
275A
100
AcDbDictionary
281
     1
  3
DIMARCSYM
350
29B1
  3
DIMLTEX1
350
29B3
  3
DIMLTEX2
350
29B4
  3
DIMLTYPE
350
29B2
  0
DICTIONARY
  5
27B8
102
{ACAD_REACTORS
330
275A
102
}
330
275A
100
AcDbDictionary
281
     1
  0
DICTIONARY
  5
275B
102
{ACAD_REACTORS
330
275A
102
}
330
275A
100
AcDbDictionary
281
     1
  0
DICTIONARY
  5
27B7
102
{ACAD_REACTORS
330
275A
102
}
330
275A
100
AcDbDictionary
281
     1
  3
Model
350
27C5
  3
レイアウト1
350
27C1
  0
DICTIONARY
  5
275E
102
{ACAD_REACTORS
330
275A
102
}
330
275A
100
AcDbDictionary
281
     1
  3
ByBlock
350
2767
  3
ByLayer
350
275F
  3
Global
350
276F
  0
DICTIONARY
  5
27BB
102
{ACAD_REACTORS
330
275A
102
}
330
275A
100
AcDbDictionary
281
     1
  3
Standard
350
27BC
  0
DICTIONARY
  5
27B4
102
{ACAD_REACTORS
330
275A
102
}
330
275A
100
AcDbDictionary
281
     1
  3
Standard
350
27B5
  0
DICTIONARY
  5
27B6
102
{ACAD_REACTORS
330
275A
102
}
330
275A
100
AcDbDictionary
281
     1
  0
ACDBDICTIONARYWDFLT
  5
275C
102
{ACAD_REACTORS
330
275A
102
}
330
275A
100
AcDbDictionary
281
     1
  3
Normal
350
275D
100
AcDbDictionaryWithDefault
340
275D
  0
DICTIONARY
  5
2788
102
{ACAD_REACTORS
330
275A
102
}
330
275A
100
AcDbDictionary
281
     1
  3
A0
350
2789
  3
A1
350
278A
  3
A2
350
278B
  3
A3
350
278C
  3
A4
350
278D
  3
A5
350
278E
  3
A6
350
278F
  3
A7
350
2790
  3
A8
350
2791
  3
A9
350
2792
  3
B0
350
2793
  3
B1
350
2794
  3
B2
350
2795
  3
B3
350
2796
  3
B4
350
2797
  3
B5
350
2798
  3
B6
350
2799
  3
B7
350
279A
  3
B8
350
279B
  3
B9
350
279C
  3
C0
350
279D
  3
C1
350
279E
  3
C2
350
279F
  3
C3
350
27A0
  3
C4
350
27A1
  3
C5
350
27A2
  3
C6
350
27A3
  3
C7
350
27A4
  3
C8
350
27A5
  3
C9
350
27A6
  3
D0
350
27A7
  3
D1
350
27A8
  3
D2
350
27A9
  0
DICTIONARY
  5
27B9
102
{ACAD_REACTORS
330
275A
102
}
330
275A
100
AcDbDictionary
281
     1
  3
Standard
350
27BA
  0
DICTIONARY
  5
2777
102
{ACAD_REACTORS
330
275A
102
}
330
275A
100
AcDbDictionary
281
     1
  3
2dWireframe
350
277D
  3
3D Hidden
350
277F
  3
3dWireframe
350
277E
  3
Basic
350
277C
  3
Brighten
350
2783
  3
ColorChange
350
2787
  3
Conceptual
350
2780
  3
Dim
350
2782
  3
Facepattern
350
2786
  3
Flat
350
2778
  3
FlatWithEdges
350
2779
  3
Gouraud
350
277A
  3
GouraudWithEdges
350
277B
  3
Linepattern
350
2785
  3
Realistic
350
2781
  3
Thicken
350
2784
  0
XRECORD
  5
29AE
102
{ACAD_REACTORS
330
275A
102
}
330
275A
100
AcDbXrecord
280
     1
 90
        1
330
27BA
  0
DICTIONARY
  5
29A5
102
{ACAD_REACTORS
330
275A
102
}
330
275A
100
AcDbDictionary
281
     1
  3
CANNOSCALE
350
29A8
  3
CMLEADERSTYLE
350
29A7
  3
CTABLESTYLE
350
29A6
  3
DIMASSOC
350
29AB
  3
INDEXCTL
350
29AA
  3
SORTENTS
350
29A9
  0
DICTIONARY
  5
2958
102
{ACAD_REACTORS
330
275A
102
}
330
275A
100
AcDbDictionary
281
     1
  3
AcmStdDictionary
350
2966
  0
DICTIONARY
  5
28A5
102
{ACAD_REACTORS
330
275A
102
}
330
275A
100
AcDbDictionary
281
     1
  3
AcMgSettings
350
28A6
  0
XRECORD
  5
29AF
102
{ACAD_REACTORS
330
275A
102
}
330
275A
100
AcDbXrecord
280
     1
  1
DWGPROPS COOKIE
  2

  3

  4

  6

  7

  8
A090053
  9

300
AmdtFileType=84
301
=
302
=
303
=
304
=
305
=
306
=
307
=
308
=
309
=
 40
1.040537662037037
 41
2452321.396199653
 42
2456212.818384942
  1

 90
        1
  0
XRECORD
  5
2981
102
{ACAD_REACTORS
330
2980
102
}
330
2980
100
AcDbXrecord
280
     1
290
     1
  0
XRECORD
  5
2983
102
{ACAD_REACTORS
330
2982
102
}
330
2982
100
AcDbXrecord
280
     1
290
     1
  0
XRECORD
  5
2985
102
{ACAD_REACTORS
330
2984
102
}
330
2984
100
AcDbXrecord
280
     1
290
     1
  0
XRECORD
  5
2987
102
{ACAD_REACTORS
330
2986
102
}
330
2986
100
AcDbXrecord
280
     1
290
     1
  0
XRECORD
  5
2989
102
{ACAD_REACTORS
330
2988
102
}
330
2988
100
AcDbXrecord
280
     1
290
     1
  0
XRECORD
  5
298B
102
{ACAD_REACTORS
330
298A
102
}
330
298A
100
AcDbXrecord
280
     1
290
     1
  0
XRECORD
  5
298D
102
{ACAD_REACTORS
330
298C
102
}
330
298C
100
AcDbXrecord
280
     1
290
     1
  0
XRECORD
  5
298F
102
{ACAD_REACTORS
330
298E
102
}
330
298E
100
AcDbXrecord
280
     1
290
     1
  0
XRECORD
  5
2991
102
{ACAD_REACTORS
330
2990
102
}
330
2990
100
AcDbXrecord
280
     1
290
     1
  0
XRECORD
  5
2993
102
{ACAD_REACTORS
330
2992
102
}
330
2992
100
AcDbXrecord
280
     1
290
     1
  0
XRECORD
  5
2995
102
{ACAD_REACTORS
330
2994
102
}
330
2994
100
AcDbXrecord
280
     1
290
     1
  0
DICTIONARY
  5
2997
102
{ACAD_REACTORS
330
2996
102
}
330
2996
100
AcDbDictionary
281
     1
  3
*A1
350
2998
  0
XRECORD
  5
29B1
102
{ACAD_REACTORS
330
29B0
102
}
330
29B0
100
AcDbXrecord
280
     1
 70
     1
  0
XRECORD
  5
29B3
102
{ACAD_REACTORS
330
29B0
102
}
330
29B0
100
AcDbXrecord
280
     1
340
27B0
  0
XRECORD
  5
29B4
102
{ACAD_REACTORS
330
29B0
102
}
330
29B0
100
AcDbXrecord
280
     1
340
27B0
  0
XRECORD
  5
29B2
102
{ACAD_REACTORS
330
29B0
102
}
330
29B0
100
AcDbXrecord
280
     1
340
27B0
  0
LAYOUT
  5
27C5
102
{ACAD_XDICTIONARY
360
29BB
102
}
102
{ACAD_REACTORS
330
27B7
102
}
330
27B7
100
AcDbPlotSettings
  1

  2
自動 EPSON LP-9600S (W2450527 上)
  4

  6

 40
0.0
 41
0.0
 42
0.0
 43
0.0
 44
0.0
 45
0.0
 46
0.0
 47
0.0
 48
0.0
 49
0.0
140
0.0
141
0.0
142
1.0
143
1.0
 70
  1712
 72
     0
 73
     0
 74
     0
  7

 75
     0
147
1.0
148
0.0
149
0.0
100
AcDbLayout
  1
Model
 70
     1
 71
     0
 10
0.0
 20
0.0
 11
12.0
 21
9.0
 12
0.0
 22
0.0
 32
0.0
 14
0.0
 24
0.0
 34
0.0
 15
0.0
 25
0.0
 35
0.0
146
0.0
 13
0.0
 23
0.0
 33
0.0
 16
1.0
 26
0.0
 36
0.0
 17
0.0
 27
1.0
 37
0.0
 76
     0
330
27C2
331
27C6
  0
LAYOUT
  5
27C1
102
{ACAD_XDICTIONARY
360
29B9
102
}
102
{ACAD_REACTORS
330
27B7
102
}
330
27B7
100
AcDbPlotSettings
  1

  2
自動 EPSON LP-9600S (W2450527 上)
  4

  6

 40
0.0
 41
0.0
 42
0.0
 43
0.0
 44
0.0
 45
0.0
 46
0.0
 47
0.0
 48
0.0
 49
0.0
140
0.0
141
0.0
142
1.0
143
1.0
 70
   688
 72
     0
 73
     0
 74
     5
  7

 75
    16
147
1.0
148
0.0
149
0.0
100
AcDbLayout
  1
レイアウト1
 70
     1
 71
     1
 10
0.0
 20
0.0
 11
12.0
 21
9.0
 12
0.0
 22
0.0
 32
0.0
 14
1.000000000000000E+20
 24
1.000000000000000E+20
 34
1.000000000000000E+20
 15
-1.000000000000000E+20
 25
-1.000000000000000E+20
 35
-1.000000000000000E+20
146
0.0
 13
0.0
 23
0.0
 33
0.0
 16
1.0
 26
0.0
 36
0.0
 17
0.0
 27
1.0
 37
0.0
 76
     0
330
27BE
  0
MATERIAL
  5
2767
102
{ACAD_XDICTIONARY
360
2768
102
}
102
{ACAD_REACTORS
330
275E
102
}
330
275E
100
AcDbMaterial
  1
ByBlock
 72
     0
 43
0.0208333333333333
 43
0.0
 43
0.0
 43
0.0
 43
0.0
 43
0.0208333333333333
 43
0.0
 43
0.0
 43
0.0
 43
0.0
 43
1.0
 43
0.0
 43
0.0
 43
0.0
 43
0.0
 43
1.0
 77
     0
 47
0.0208333333333333
 47
0.0
 47
0.0
 47
0.0
 47
0.0
 47
0.0208333333333333
 47
0.0
 47
0.0
 47
0.0
 47
0.0
 47
1.0
 47
0.0
 47
0.0
 47
0.0
 47
0.0
 47
1.0
171
     0
 49
0.0208333333333333
 49
0.0
 49
0.0
 49
0.0
 49
0.0
 49
0.0208333333333333
 49
0.0
 49
0.0
 49
0.0
 49
0.0
 49
1.0
 49
0.0
 49
0.0
 49
0.0
 49
0.0
 49
1.0
175
     0
142
0.0208333333333333
142
0.0
142
0.0
142
0.0
142
0.0
142
0.0208333333333333
142
0.0
142
0.0
142
0.0
142
0.0
142
1.0
142
0.0
142
0.0
142
0.0
142
0.0
142
1.0
179
     0
144
0.0208333333333333
144
0.0
144
0.0
144
0.0
144
0.0
144
0.0208333333333333
144
0.0
144
0.0
144
0.0
144
0.0
144
1.0
144
0.0
144
0.0
144
0.0
144
0.0
144
1.0
147
0.0208333333333333
147
0.0
147
0.0
147
0.0
147
0.0
147
0.0208333333333333
147
0.0
147
0.0
147
0.0
147
0.0
147
1.0
147
0.0
147
0.0
147
0.0
147
0.0
147
1.0
  0
MATERIAL
  5
275F
102
{ACAD_XDICTIONARY
360
2760
102
}
102
{ACAD_REACTORS
330
275E
102
}
330
275E
100
AcDbMaterial
  1
ByLayer
 72
     0
 43
0.0208333333333333
 43
0.0
 43
0.0
 43
0.0
 43
0.0
 43
0.0208333333333333
 43
0.0
 43
0.0
 43
0.0
 43
0.0
 43
1.0
 43
0.0
 43
0.0
 43
0.0
 43
0.0
 43
1.0
 77
     0
 47
0.0208333333333333
 47
0.0
 47
0.0
 47
0.0
 47
0.0
 47
0.0208333333333333
 47
0.0
 47
0.0
 47
0.0
 47
0.0
 47
1.0
 47
0.0
 47
0.0
 47
0.0
 47
0.0
 47
1.0
171
     0
 49
0.0208333333333333
 49
0.0
 49
0.0
 49
0.0
 49
0.0
 49
0.0208333333333333
 49
0.0
 49
0.0
 49
0.0
 49
0.0
 49
1.0
 49
0.0
 49
0.0
 49
0.0
 49
0.0
 49
1.0
175
     0
142
0.0208333333333333
142
0.0
142
0.0
142
0.0
142
0.0
142
0.0208333333333333
142
0.0
142
0.0
142
0.0
142
0.0
142
1.0
142
0.0
142
0.0
142
0.0
142
0.0
142
1.0
179
     0
144
0.0208333333333333
144
0.0
144
0.0
144
0.0
144
0.0
144
0.0208333333333333
144
0.0
144
0.0
144
0.0
144
0.0
144
1.0
144
0.0
144
0.0
144
0.0
144
0.0
144
1.0
147
0.0208333333333333
147
0.0
147
0.0
147
0.0
147
0.0
147
0.0208333333333333
147
0.0
147
0.0
147
0.0
147
0.0
147
1.0
147
0.0
147
0.0
147
0.0
147
0.0
147
1.0
  0
MATERIAL
  5
276F
102
{ACAD_XDICTIONARY
360
2770
102
}
102
{ACAD_REACTORS
330
275E
102
}
330
275E
100
AcDbMaterial
  1
Global
 72
     0
 43
0.0208333333333333
 43
0.0
 43
0.0
 43
0.0
 43
0.0
 43
0.0208333333333333
 43
0.0
 43
0.0
 43
0.0
 43
0.0
 43
1.0
 43
0.0
 43
0.0
 43
0.0
 43
0.0
 43
1.0
 77
     0
 47
0.0208333333333333
 47
0.0
 47
0.0
 47
0.0
 47
0.0
 47
0.0208333333333333
 47
0.0
 47
0.0
 47
0.0
 47
0.0
 47
1.0
 47
0.0
 47
0.0
 47
0.0
 47
0.0
 47
1.0
171
     0
 49
0.0208333333333333
 49
0.0
 49
0.0
 49
0.0
 49
0.0
 49
0.0208333333333333
 49
0.0
 49
0.0
 49
0.0
 49
0.0
 49
1.0
 49
0.0
 49
0.0
 49
0.0
 49
0.0
 49
1.0
175
     0
142
0.0208333333333333
142
0.0
142
0.0
142
0.0
142
0.0
142
0.0208333333333333
142
0.0
142
0.0
142
0.0
142
0.0
142
1.0
142
0.0
142
0.0
142
0.0
142
0.0
142
1.0
179
     0
144
0.0208333333333333
144
0.0
144
0.0
144
0.0
144
0.0
144
0.0208333333333333
144
0.0
144
0.0
144
0.0
144
0.0
144
1.0
144
0.0
144
0.0
144
0.0
144
0.0
144
1.0
147
0.0208333333333333
147
0.0
147
0.0
147
0.0
147
0.0
147
0.0208333333333333
147
0.0
147
0.0
147
0.0
147
0.0
147
1.0
147
0.0
147
0.0
147
0.0
147
0.0
147
1.0
  0
MLEADERSTYLE
  5
27BC
102
{ACAD_REACTORS
330
27BB
102
}
330
27BB
100
AcDbMLeaderStyle
170
     2
171
     1
172
     0
 90
        2
 40
0.0
 41
0.0
173
     1
 91
-1056964608
340
27B0
 92
       -2
290
     1
 42
0.09
291
     1
 43
0.36
  3
Standard
 44
0.18
300

342
27AB
174
     1
178
     6
175
     1
176
     0
 93
-1056964608
 45
0.18
292
     0
297
     0
 46
0.18
 94
-1056964608
 47
1.0
 49
1.0
140
1.0
293
     1
141
0.0
294
     1
177
     0
142
1.0
295
     0
296
     0
143
0.125
1001
ACAD_MLEADERVER
1070
     2
  0
MLINESTYLE
  5
27B5
102
{ACAD_REACTORS
330
27B4
102
}
330
27B4
100
AcDbMlineStyle
  2
STANDARD
 70
     0
  3

 62
   256
 51
90.0
 52
90.0
 71
     2
 49
0.5
 62
   256
  6
BYLAYER
 49
-0.5
 62
   256
  6
BYLAYER
  0
ACDBPLACEHOLDER
  5
275D
102
{ACAD_REACTORS
330
275C
102
}
330
275C
  0
SCALE
  5
2789
102
{ACAD_REACTORS
330
2788
102
}
330
2788
100
AcDbScale
 70
     0
300
1:1
140
1.0
141
1.0
290
     1
  0
SCALE
  5
278A
102
{ACAD_REACTORS
330
2788
102
}
330
2788
100
AcDbScale
 70
     0
300
1:2
140
1.0
141
2.0
290
     0
  0
SCALE
  5
278B
102
{ACAD_REACTORS
330
2788
102
}
330
2788
100
AcDbScale
 70
     0
300
1:4
140
1.0
141
4.0
290
     0
  0
SCALE
  5
278C
102
{ACAD_REACTORS
330
2788
102
}
330
2788
100
AcDbScale
 70
     0
300
1:5
140
1.0
141
5.0
290
     0
  0
SCALE
  5
278D
102
{ACAD_REACTORS
330
2788
102
}
330
2788
100
AcDbScale
 70
     0
300
1:8
140
1.0
141
8.0
290
     0
  0
SCALE
  5
278E
102
{ACAD_REACTORS
330
2788
102
}
330
2788
100
AcDbScale
 70
     0
300
1:10
140
1.0
141
10.0
290
     0
  0
SCALE
  5
278F
102
{ACAD_REACTORS
330
2788
102
}
330
2788
100
AcDbScale
 70
     0
300
1:16
140
1.0
141
16.0
290
     0
  0
SCALE
  5
2790
102
{ACAD_REACTORS
330
2788
102
}
330
2788
100
AcDbScale
 70
     0
300
1:20
140
1.0
141
20.0
290
     0
  0
SCALE
  5
2791
102
{ACAD_REACTORS
330
2788
102
}
330
2788
100
AcDbScale
 70
     0
300
1:30
140
1.0
141
30.0
290
     0
  0
SCALE
  5
2792
102
{ACAD_REACTORS
330
2788
102
}
330
2788
100
AcDbScale
 70
     0
300
1:40
140
1.0
141
40.0
290
     0
  0
SCALE
  5
2793
102
{ACAD_REACTORS
330
2788
102
}
330
2788
100
AcDbScale
 70
     0
300
1:50
140
1.0
141
50.0
290
     0
  0
SCALE
  5
2794
102
{ACAD_REACTORS
330
2788
102
}
330
2788
100
AcDbScale
 70
     0
300
1:100
140
1.0
141
100.0
290
     0
  0
SCALE
  5
2795
102
{ACAD_REACTORS
330
2788
102
}
330
2788
100
AcDbScale
 70
     0
300
2:1
140
2.0
141
1.0
290
     0
  0
SCALE
  5
2796
102
{ACAD_REACTORS
330
2788
102
}
330
2788
100
AcDbScale
 70
     0
300
4:1
140
4.0
141
1.0
290
     0
  0
SCALE
  5
2797
102
{ACAD_REACTORS
330
2788
102
}
330
2788
100
AcDbScale
 70
     0
300
8:1
140
8.0
141
1.0
290
     0
  0
SCALE
  5
2798
102
{ACAD_REACTORS
330
2788
102
}
330
2788
100
AcDbScale
 70
     0
300
10:1
140
10.0
141
1.0
290
     0
  0
SCALE
  5
2799
102
{ACAD_REACTORS
330
2788
102
}
330
2788
100
AcDbScale
 70
     0
300
100:1
140
100.0
141
1.0
290
     0
  0
SCALE
  5
279A
102
{ACAD_REACTORS
330
2788
102
}
330
2788
100
AcDbScale
 70
     0
300
1/128" = 1'-0"
140
0.0078125
141
12.0
290
     0
  0
SCALE
  5
279B
102
{ACAD_REACTORS
330
2788
102
}
330
2788
100
AcDbScale
 70
     0
300
1/64" = 1'-0"
140
0.015625
141
12.0
290
     0
  0
SCALE
  5
279C
102
{ACAD_REACTORS
330
2788
102
}
330
2788
100
AcDbScale
 70
     0
300
1/32" = 1'-0"
140
0.03125
141
12.0
290
     0
  0
SCALE
  5
279D
102
{ACAD_REACTORS
330
2788
102
}
330
2788
100
AcDbScale
 70
     0
300
1/16" = 1'-0"
140
0.0625
141
12.0
290
     0
  0
SCALE
  5
279E
102
{ACAD_REACTORS
330
2788
102
}
330
2788
100
AcDbScale
 70
     0
300
3/32" = 1'-0"
140
0.09375
141
12.0
290
     0
  0
SCALE
  5
279F
102
{ACAD_REACTORS
330
2788
102
}
330
2788
100
AcDbScale
 70
     0
300
1/8" = 1'-0"
140
0.125
141
12.0
290
     0
  0
SCALE
  5
27A0
102
{ACAD_REACTORS
330
2788
102
}
330
2788
100
AcDbScale
 70
     0
300
3/16" = 1'-0"
140
0.1875
141
12.0
290
     0
  0
SCALE
  5
27A1
102
{ACAD_REACTORS
330
2788
102
}
330
2788
100
AcDbScale
 70
     0
300
1/4" = 1'-0"
140
0.25
141
12.0
290
     0
  0
SCALE
  5
27A2
102
{ACAD_REACTORS
330
2788
102
}
330
2788
100
AcDbScale
 70
     0
300
3/8" = 1'-0"
140
0.375
141
12.0
290
     0
  0
SCALE
  5
27A3
102
{ACAD_REACTORS
330
2788
102
}
330
2788
100
AcDbScale
 70
     0
300
1/2" = 1'-0"
140
0.5
141
12.0
290
     0
  0
SCALE
  5
27A4
102
{ACAD_REACTORS
330
2788
102
}
330
2788
100
AcDbScale
 70
     0
300
3/4" = 1'-0"
140
0.75
141
12.0
290
     0
  0
SCALE
  5
27A5
102
{ACAD_REACTORS
330
2788
102
}
330
2788
100
AcDbScale
 70
     0
300
1" = 1'-0"
140
1.0
141
12.0
290
     0
  0
SCALE
  5
27A6
102
{ACAD_REACTORS
330
2788
102
}
330
2788
100
AcDbScale
 70
     0
300
1-1/2" = 1'-0"
140
1.5
141
12.0
290
     0
  0
SCALE
  5
27A7
102
{ACAD_REACTORS
330
2788
102
}
330
2788
100
AcDbScale
 70
     0
300
3" = 1'-0"
140
3.0
141
12.0
290
     0
  0
SCALE
  5
27A8
102
{ACAD_REACTORS
330
2788
102
}
330
2788
100
AcDbScale
 70
     0
300
6" = 1'-0"
140
6.0
141
12.0
290
     0
  0
SCALE
  5
27A9
102
{ACAD_REACTORS
330
2788
102
}
330
2788
100
AcDbScale
 70
     0
300
1'-0" = 1'-0"
140
12.0
141
12.0
290
     0
  0
TABLESTYLE
  5
27BA
102
{ACAD_XDICTIONARY
360
29AC
102
}
102
{ACAD_REACTORS
330
27B9
102
}
330
27B9
100
AcDbTableStyle
  3
Standard
 70
     0
 71
     0
 40
0.06
 41
0.06
280
     0
281
     0
  7
STANDARD
140
0.18
170
     2
 62
     0
 63
     7
283
     0
274
    -2
284
     1
 64
     0
275
    -2
285
     1
 65
     0
276
    -2
286
     1
 66
     0
277
    -2
287
     1
 67
     0
278
    -2
288
     1
 68
     0
279
    -2
289
     1
 69
     0
  7
STANDARD
140
0.25
170
     5
 62
     0
 63
     7
283
     0
274
    -2
284
     1
 64
     0
275
    -2
285
     1
 65
     0
276
    -2
286
     1
 66
     0
277
    -2
287
     1
 67
     0
278
    -2
288
     1
 68
     0
279
    -2
289
     1
 69
     0
  7
STANDARD
140
0.18
170
     5
 62
     0
 63
     7
283
     0
274
    -2
284
     1
 64
     0
275
    -2
285
     1
 65
     0
276
    -2
286
     1
 66
     0
277
    -2
287
     1
 67
     0
278
    -2
288
     1
 68
     0
279
    -2
289
     1
 69
     0
  0
VISUALSTYLE
  5
277D
102
{ACAD_REACTORS
330
2777
102
}
330
2777
100
AcDbVisualStyle
  2
2dWireframe
 70
     4
 71
     0
 72
     2
 73
     0
 90
        0
 40
-0.6
 41
-30.0
 62
     5
 63
     7
 74
     1
 91
        4
 64
     7
 65
   257
 75
     1
175
     1
 42
1.0
 92
        0
 66
   257
 43
1.0
 76
     1
 77
     6
 78
     2
 67
     7
 79
     5
170
     0
171
     0
290
     0
174
     0
 93
        1
 44
0.0
173
     0
291
     0
 45
0.0
1001
ACAD
1000
AcDbSavedByObjectVersion
1070
     0
  0
VISUALSTYLE
  5
277F
102
{ACAD_REACTORS
330
2777
102
}
330
2777
100
AcDbVisualStyle
  2
3D Hidden
 70
     6
 71
     1
 72
     2
 73
     2
 90
        0
 40
-0.6
 41
-30.0
 62
     5
 63
     7
 74
     2
 91
        2
 64
     7
 65
   257
 75
     2
175
     1
 42
40.0
 92
        0
 66
   257
 43
1.0
 76
     1
 77
     6
 78
     2
 67
     7
 79
     3
170
     0
171
     0
290
     0
174
     0
 93
        1
 44
0.0
173
     0
291
     0
 45
0.0
1001
ACAD
1000
AcDbSavedByObjectVersion
1070
     0
  0
VISUALSTYLE
  5
277E
102
{ACAD_REACTORS
330
2777
102
}
330
2777
100
AcDbVisualStyle
  2
3dWireframe
 70
     5
 71
     0
 72
     2
 73
     0
 90
        0
 40
-0.6
 41
-30.0
 62
     5
 63
     7
 74
     1
 91
        4
 64
     7
 65
   257
 75
     1
175
     1
 42
1.0
 92
        0
 66
   257
 43
1.0
 76
     1
 77
     6
 78
     2
 67
     7
 79
     5
170
     0
171
     0
290
     0
174
     0
 93
        1
 44
0.0
173
     0
291
     0
 45
0.0
1001
ACAD
1000
AcDbSavedByObjectVersion
1070
     0
  0
VISUALSTYLE
  5
277C
102
{ACAD_REACTORS
330
2777
102
}
330
2777
100
AcDbVisualStyle
  2
Basic
 70
     7
 71
     1
 72
     0
 73
     1
 90
        0
 40
-0.6
 41
-30.0
 62
     5
 63
     7
 74
     0
 91
        4
 64
     7
 65
   257
 75
     1
175
     1
 42
1.0
 92
        8
 66
     7
 43
1.0
 76
     1
 77
     6
 78
     2
 67
     7
 79
     5
170
     0
171
     0
290
     0
174
     0
 93
        1
 44
0.0
173
     0
291
     1
 45
0.0
1001
ACAD
1000
AcDbSavedByObjectVersion
1070
     0
  0
VISUALSTYLE
  5
2783
102
{ACAD_REACTORS
330
2777
102
}
330
2777
100
AcDbVisualStyle
  2
Brighten
 70
    12
 71
     2
 72
     2
 73
     0
 90
        0
 40
-0.6
 41
-30.0
 62
     5
 63
     7
 74
     1
 91
        4
 64
     7
 65
   257
 75
     1
175
     1
 42
1.0
 92
        8
 66
     7
 43
1.0
 76
     1
 77
     6
 78
     2
 67
     7
 79
     5
170
     0
171
     0
290
     0
174
     0
 93
        1
 44
50.0
173
     0
291
     1
 45
0.0
1001
ACAD
1000
AcDbSavedByObjectVersion
1070
     0
  0
VISUALSTYLE
  5
2787
102
{ACAD_REACTORS
330
2777
102
}
330
2777
100
AcDbVisualStyle
  2
ColorChange
 70
    16
 71
     2
 72
     2
 73
     3
 90
        0
 40
-0.6
 41
-30.0
 62
     5
 63
     8
 74
     1
 91
        4
 64
     7
 65
   257
 75
     1
175
     1
 42
1.0
 92
        8
 66
     8
 43
1.0
 76
     1
 77
     6
 78
     2
 67
     7
 79
     5
170
     0
171
     0
290
     0
174
     0
 93
        1
 44
0.0
173
     0
291
     1
 45
0.0
1001
ACAD
1000
AcDbSavedByObjectVersion
1070
     0
  0
VISUALSTYLE
  5
2780
102
{ACAD_REACTORS
330
2777
102
}
330
2777
100
AcDbVisualStyle
  2
Conceptual
 70
     9
 71
     3
 72
     2
 73
     0
 90
        0
 40
-0.6
 41
-30.0
 62
     5
 63
     7
 74
     2
 91
        2
 64
     7
 65
   257
 75
     1
175
     1
 42
40.0
 92
        8
 66
     7
 43
1.0
 76
     1
 77
     6
 78
     2
 67
     7
 79
     3
170
     0
171
     0
290
     0
174
     0
 93
        1
 44
0.0
173
     0
291
     0
 45
0.0
1001
ACAD
1000
AcDbSavedByObjectVersion
1070
     0
  0
VISUALSTYLE
  5
2782
102
{ACAD_REACTORS
330
2777
102
}
330
2777
100
AcDbVisualStyle
  2
Dim
 70
    11
 71
     2
 72
     2
 73
     0
 90
        0
 40
-0.6
 41
-30.0
 62
     5
 63
     7
 74
     1
 91
        4
 64
     7
 65
   257
 75
     1
175
     1
 42
1.0
 92
        8
 66
     7
 43
1.0
 76
     1
 77
     6
 78
     2
 67
     7
 79
     5
170
     0
171
     0
290
     0
174
     0
 93
        1
 44
-50.0
173
     0
291
     1
 45
0.0
1001
ACAD
1000
AcDbSavedByObjectVersion
1070
     0
  0
VISUALSTYLE
  5
2786
102
{ACAD_REACTORS
330
2777
102
}
330
2777
100
AcDbVisualStyle
  2
Facepattern
 70
    15
 71
     2
 72
     2
 73
     0
 90
        0
 40
-0.6
 41
-30.0
 62
     5
 63
     7
 74
     1
 91
        4
 64
     7
 65
   257
 75
     1
175
     1
 42
1.0
 92
        8
 66
     7
 43
1.0
 76
     1
 77
     6
 78
     2
 67
     7
 79
     5
170
     0
171
     0
290
     0
174
     0
 93
        1
 44
0.0
173
     0
291
     1
 45
0.0
1001
ACAD
1000
AcDbSavedByObjectVersion
1070
     0
  0
VISUALSTYLE
  5
2778
102
{ACAD_REACTORS
330
2777
102
}
330
2777
100
AcDbVisualStyle
  2
Flat
 70
     0
 71
     2
 72
     1
 73
     1
 90
        2
 40
-0.6
 41
30.0
 62
     5
 63
     7
 74
     0
 91
        4
 64
     7
 65
   257
 75
     1
175
     1
 42
1.0
 92
        8
 66
     7
 43
1.0
 76
     1
 77
     6
 78
     2
 67
     7
 79
     5
170
     0
171
     0
290
     0
174
     0
 93
       13
 44
0.0
173
     0
291
     1
 45
0.0
1001
ACAD
1000
AcDbSavedByObjectVersion
1070
     0
  0
VISUALSTYLE
  5
2779
102
{ACAD_REACTORS
330
2777
102
}
330
2777
100
AcDbVisualStyle
  2
FlatWithEdges
 70
     1
 71
     2
 72
     1
 73
     1
 90
        2
 40
-0.6
 41
30.0
 62
     5
 63
     7
 74
     1
 91
        4
 64
     7
 65
   257
 75
     1
175
     1
 42
1.0
 92
        0
 66
   257
 43
1.0
 76
     1
 77
     6
 78
     2
 67
     7
 79
     5
170
     0
171
     0
290
     0
174
     0
 93
       13
 44
0.0
173
     0
291
     1
 45
0.0
1001
ACAD
1000
AcDbSavedByObjectVersion
1070
     0
  0
VISUALSTYLE
  5
277A
102
{ACAD_REACTORS
330
2777
102
}
330
2777
100
AcDbVisualStyle
  2
Gouraud
 70
     2
 71
     2
 72
     2
 73
     1
 90
        2
 40
-0.6
 41
30.0
 62
     5
 63
     7
 74
     0
 91
        4
 64
     7
 65
   257
 75
     1
175
     1
 42
1.0
 92
        0
 66
     7
 43
1.0
 76
     1
 77
     6
 78
     2
 67
     7
 79
     5
170
     0
171
     0
290
     0
174
     0
 93
       13
 44
0.0
173
     0
291
     1
 45
0.0
1001
ACAD
1000
AcDbSavedByObjectVersion
1070
     0
  0
VISUALSTYLE
  5
277B
102
{ACAD_REACTORS
330
2777
102
}
330
2777
100
AcDbVisualStyle
  2
GouraudWithEdges
 70
     3
 71
     2
 72
     2
 73
     1
 90
        2
 40
-0.6
 41
30.0
 62
     5
 63
     7
 74
     1
 91
        4
 64
     7
 65
   257
 75
     1
175
     1
 42
1.0
 92
        0
 66
   257
 43
1.0
 76
     1
 77
     6
 78
     2
 67
     7
 79
     5
170
     0
171
     0
290
     0
174
     0
 93
       13
 44
0.0
173
     0
291
     1
 45
0.0
1001
ACAD
1000
AcDbSavedByObjectVersion
1070
     0
  0
VISUALSTYLE
  5
2785
102
{ACAD_REACTORS
330
2777
102
}
330
2777
100
AcDbVisualStyle
  2
Linepattern
 70
    14
 71
     2
 72
     2
 73
     0
 90
        0
 40
-0.6
 41
-30.0
 62
     5
 63
     7
 74
     1
 91
        4
 64
     7
 65
   257
 75
     7
175
     7
 42
1.0
 92
        8
 66
     7
 43
1.0
 76
     1
 77
     6
 78
     2
 67
     7
 79
     5
170
     0
171
     0
290
     0
174
     0
 93
        1
 44
0.0
173
     0
291
     1
 45
0.0
1001
ACAD
1000
AcDbSavedByObjectVersion
1070
     0
  0
VISUALSTYLE
  5
2781
102
{ACAD_REACTORS
330
2777
102
}
330
2777
100
AcDbVisualStyle
  2
Realistic
 70
     8
 71
     2
 72
     2
 73
     0
 90
        0
 40
-0.6
 41
-30.0
 62
     5
 63
     7
 74
     1
 91
        0
 64
     7
 65
   257
 75
     1
175
     1
 42
1.0
 92
        8
 66
     8
 43
1.0
 76
     1
 77
     6
 78
     2
 67
     7
 79
     5
170
     0
171
     0
290
     0
174
     0
 93
       13
 44
0.0
173
     0
291
     0
 45
0.0
1001
ACAD
1000
AcDbSavedByObjectVersion
1070
     0
  0
VISUALSTYLE
  5
2784
102
{ACAD_REACTORS
330
2777
102
}
330
2777
100
AcDbVisualStyle
  2
Thicken
 70
    13
 71
     2
 72
     2
 73
     0
 90
        0
 40
-0.6
 41
-30.0
 62
     5
 63
     7
 74
     1
 91
        4
 64
     7
 65
   257
 75
     1
175
     1
 42
1.0
 92
       12
 66
     7
 43
1.0
 76
     1
 77
     6
 78
     2
 67
     7
 79
     5
170
     0
171
     0
290
     0
174
     0
 93
        1
 44
0.0
173
     0
291
     1
 45
0.0
1001
ACAD
1000
AcDbSavedByObjectVersion
1070
     0
  0
DICTIONARYVAR
  5
29A8
102
{ACAD_REACTORS
330
29A5
102
}
330
29A5
100
DictionaryVariables
280
     0
  1
1:1
  0
DICTIONARYVAR
  5
29A7
102
{ACAD_REACTORS
330
29A5
102
}
330
29A5
100
DictionaryVariables
280
     0
  1
STANDARD
  0
DICTIONARYVAR
  5
29A6
102
{ACAD_REACTORS
330
29A5
102
}
330
29A5
100
DictionaryVariables
280
     0
  1
STANDARD
  0
DICTIONARYVAR
  5
29AB
102
{ACAD_REACTORS
330
29A5
102
}
330
29A5
100
DictionaryVariables
280
     0
  1
1
  0
DICTIONARYVAR
  5
29AA
102
{ACAD_REACTORS
330
29A5
102
}
330
29A5
100
DictionaryVariables
280
     0
  1
1
  0
DICTIONARYVAR
  5
29A9
102
{ACAD_REACTORS
330
29A5
102
}
330
29A5
100
DictionaryVariables
280
     0
  1
127
  0
DICTIONARY
  5
2966
102
{ACAD_REACTORS
330
2958
102
}
330
2958
100
AcDbDictionary
281
     1
  0
DICTIONARY
  5
28A6
102
{ACAD_REACTORS
330
28A5
102
}
330
28A5
100
AcDbDictionary
281
     1
  3
DWGSETTINGS
350
28A7
  3
TRANSSETTINGS
350
28A8
  0
LAYER_INDEX
  5
2998
102
{ACAD_REACTORS
330
2997
102
}
330
2997
100
AcDbIndex
 40
2456212.818384942
100
AcDbLayerIndex
  8
0
360
2999
 90
        2
  8
OUTLINE
360
299A
 90
       26
  8
SIZE
360
299B
 90
       38
  8
BASIS
360
299C
 90
        1
  8
DETAIL
360
299D
 90
       33
  8
ARRANGE
360
299E
 90
        2
  8
DEFPOINTS
360
299F
 90
        0
  8
ETC
360
29A0
 90
        3
  8
FIX
360
29A1
 90
        0
  8
NOTE
360
29A2
 90
        4
  8
SERVICESPACE
360
29A3
 90
        0
  8
SYMBOLLINE
360
29A4
 90
        0
  0
DICTIONARY
  5
29BB
330
27C5
100
AcDbDictionary
280
     1
281
     1
  3
ACAD_XREC_ROUNDTRIP
360
29BC
  0
DICTIONARY
  5
29B9
330
27C1
100
AcDbDictionary
280
     1
281
     1
  3
ACAD_XREC_ROUNDTRIP
360
29BA
  0
DICTIONARY
  5
2768
330
2767
100
AcDbDictionary
280
     1
281
     1
  3
ACAD_XREC_ROUNDTRIP
360
29B6
  3
BUMPTILE
360
276A
  3
DIFFUSETILE
360
2769
  3
OPACITYTILE
360
276D
  3
REFLECTIONTILE
360
276C
  3
REFRACTIONTILE
360
276E
  3
SPECULARTILE
360
276B
  0
DICTIONARY
  5
2760
330
275F
100
AcDbDictionary
280
     1
281
     1
  3
ACAD_XREC_ROUNDTRIP
360
29B5
  3
BUMPTILE
360
2762
  3
DIFFUSETILE
360
2761
  3
OPACITYTILE
360
2765
  3
REFLECTIONTILE
360
2764
  3
REFRACTIONTILE
360
2766
  3
SPECULARTILE
360
2763
  0
DICTIONARY
  5
2770
330
276F
100
AcDbDictionary
280
     1
281
     1
  3
ACAD_XREC_ROUNDTRIP
360
29B7
  3
BUMPTILE
360
2772
  3
DIFFUSETILE
360
2771
  3
OPACITYTILE
360
2775
  3
REFLECTIONTILE
360
2774
  3
REFRACTIONTILE
360
2776
  3
SPECULARTILE
360
2773
  0
DICTIONARY
  5
29AC
330
27BA
100
AcDbDictionary
280
     1
281
     1
  3
ACAD_ROUNDTRIP_2008_TABLESTYLE_CELLSTYLEMAP
360
29AD
  3
ACAD_XREC_ROUNDTRIP
360
29B8
  0
IDBUFFER
  5
2999
330
0
100
AcDbIdBuffer
330
26B9
330
26BA
  0
IDBUFFER
  5
299A
330
0
100
AcDbIdBuffer
330
26D7
330
26D8
330
26D9
330
26DA
330
26DB
330
26DC
330
26DD
330
26DE
330
26DF
330
26E2
330
953
330
954
330
955
330
956
330
957
330
958
330
26B6
330
26CE
330
26CF
330
26D0
330
26D1
330
26D2
330
26D3
330
26D4
330
26D5
330
26D6
  0
IDBUFFER
  5
299B
330
0
100
AcDbIdBuffer
330
26FD
330
26FE
330
26FF
330
2700
330
2701
330
2702
330
2703
330
2704
330
2705
330
2706
330
2707
330
2708
330
2709
330
270A
330
270B
330
270C
330
270D
330
270E
330
270F
330
2710
330
2711
330
2712
330
26ED
330
26EE
330
26EF
330
26F0
330
26F1
330
26F2
330
26F3
330
26F4
330
26F5
330
26F6
330
26F7
330
26F8
330
26F9
330
26FA
330
26FB
330
26FC
  0
IDBUFFER
  5
299C
330
0
100
AcDbIdBuffer
330
26B2
  0
IDBUFFER
  5
299D
330
0
100
AcDbIdBuffer
330
26C7
330
26C8
330
26C9
330
26CA
330
26CB
330
26CC
330
26CD
330
26E3
330
26E4
330
26E5
330
26E6
330
26E7
330
26E8
330
26E9
330
26EA
330
26EB
330
26EC
330
26B0
330
26B1
330
26B3
330
26B8
330
26BB
330
26BC
330
26BD
330
26BE
330
26BF
330
26C0
330
26C1
330
26C2
330
26C3
330
26C4
330
26C5
330
26C6
  0
IDBUFFER
  5
299E
330
0
100
AcDbIdBuffer
330
26AF
330
26B5
  0
IDBUFFER
  5
299F
330
0
100
AcDbIdBuffer
  0
IDBUFFER
  5
29A0
330
0
100
AcDbIdBuffer
330
26AC
330
26AD
330
26AE
  0
IDBUFFER
  5
29A1
330
0
100
AcDbIdBuffer
  0
IDBUFFER
  5
29A2
330
0
100
AcDbIdBuffer
330
26B4
330
26B7
330
26E0
330
26E1
  0
IDBUFFER
  5
29A3
330
0
100
AcDbIdBuffer
  0
IDBUFFER
  5
29A4
330
0
100
AcDbIdBuffer
  0
XRECORD
  5
29BC
102
{ACAD_REACTORS
330
29BB
102
}
330
29BB
100
AcDbXrecord
280
     1
102
SHADEPLOT
 70
     0
102
SHADEPLOTRESLEVEL
 70
     2
102
SHADEPLOTCUSTOMDPI
 70
   300
  0
XRECORD
  5
29BA
102
{ACAD_REACTORS
330
29B9
102
}
330
29B9
100
AcDbXrecord
280
     1
102
SHADEPLOT
 70
     0
102
SHADEPLOTRESLEVEL
 70
     2
102
SHADEPLOTCUSTOMDPI
 70
   300
  0
XRECORD
  5
29B6
102
{ACAD_REACTORS
330
2768
102
}
330
2768
100
AcDbXrecord
280
     1
102
MATERIAL
148
0.0
149
0.0
149
0.0
 93
        0
 94
      127
282
     0
 72
     0
 77
     0
171
     0
175
     0
179
     0
273
     0
  0
XRECORD
  5
276A
102
{ACAD_REACTORS
330
2768
102
}
330
2768
100
AcDbXrecord
280
     1
270
     1
271
     1
  0
XRECORD
  5
2769
102
{ACAD_REACTORS
330
2768
102
}
330
2768
100
AcDbXrecord
280
     1
270
     1
271
     1
  0
XRECORD
  5
276D
102
{ACAD_REACTORS
330
2768
102
}
330
2768
100
AcDbXrecord
280
     1
270
     1
271
     1
  0
XRECORD
  5
276C
102
{ACAD_REACTORS
330
2768
102
}
330
2768
100
AcDbXrecord
280
     1
270
     1
271
     1
  0
XRECORD
  5
276E
102
{ACAD_REACTORS
330
2768
102
}
330
2768
100
AcDbXrecord
280
     1
270
     1
271
     1
  0
XRECORD
  5
276B
102
{ACAD_REACTORS
330
2768
102
}
330
2768
100
AcDbXrecord
280
     1
270
     1
271
     1
  0
XRECORD
  5
29B5
102
{ACAD_REACTORS
330
2760
102
}
330
2760
100
AcDbXrecord
280
     1
102
MATERIAL
148
0.0
149
0.0
149
0.0
 93
        0
 94
      127
282
     0
 72
     0
 77
     0
171
     0
175
     0
179
     0
273
     0
  0
XRECORD
  5
2762
102
{ACAD_REACTORS
330
2760
102
}
330
2760
100
AcDbXrecord
280
     1
270
     1
271
     1
  0
XRECORD
  5
2761
102
{ACAD_REACTORS
330
2760
102
}
330
2760
100
AcDbXrecord
280
     1
270
     1
271
     1
  0
XRECORD
  5
2765
102
{ACAD_REACTORS
330
2760
102
}
330
2760
100
AcDbXrecord
280
     1
270
     1
271
     1
  0
XRECORD
  5
2764
102
{ACAD_REACTORS
330
2760
102
}
330
2760
100
AcDbXrecord
280
     1
270
     1
271
     1
  0
XRECORD
  5
2766
102
{ACAD_REACTORS
330
2760
102
}
330
2760
100
AcDbXrecord
280
     1
270
     1
271
     1
  0
XRECORD
  5
2763
102
{ACAD_REACTORS
330
2760
102
}
330
2760
100
AcDbXrecord
280
     1
270
     1
271
     1
  0
XRECORD
  5
29B7
102
{ACAD_REACTORS
330
2770
102
}
330
2770
100
AcDbXrecord
280
     1
102
MATERIAL
148
0.0
149
0.0
149
0.0
 93
        0
 94
      127
282
     0
 72
     0
 77
     0
171
     0
175
     0
179
     0
273
     0
  0
XRECORD
  5
2772
102
{ACAD_REACTORS
330
2770
102
}
330
2770
100
AcDbXrecord
280
     1
270
     1
271
     1
  0
XRECORD
  5
2771
102
{ACAD_REACTORS
330
2770
102
}
330
2770
100
AcDbXrecord
280
     1
270
     1
271
     1
  0
XRECORD
  5
2775
102
{ACAD_REACTORS
330
2770
102
}
330
2770
100
AcDbXrecord
280
     1
270
     1
271
     1
  0
XRECORD
  5
2774
102
{ACAD_REACTORS
330
2770
102
}
330
2770
100
AcDbXrecord
280
     1
270
     1
271
     1
  0
XRECORD
  5
2776
102
{ACAD_REACTORS
330
2770
102
}
330
2770
100
AcDbXrecord
280
     1
270
     1
271
     1
  0
XRECORD
  5
2773
102
{ACAD_REACTORS
330
2770
102
}
330
2770
100
AcDbXrecord
280
     1
270
     1
271
     1
  0
CELLSTYLEMAP
  5
29AD
102
{ACAD_REACTORS
330
29AC
102
}
330
29AC
100
AcDbCellStyleMap
 90
        3
300
CELLSTYLE
  1
TABLEFORMAT_BEGIN
 90
        5
170
     1
 91
        0
 92
    32768
 62
   257
 93
        1
300
CONTENTFORMAT
  1
CONTENTFORMAT_BEGIN
 90
        0
 91
        0
 92
      512
 93
        0
300

 40
0.0
140
1.0
 94
        5
 62
     0
340
27AB
144
0.25
309
CONTENTFORMAT_END
171
     0
 94
        0
309
TABLEFORMAT_END
  1
CELLSTYLE_BEGIN
 90
        1
 91
        1
300
_TITLE
309
CELLSTYLE_END
300
CELLSTYLE
  1
TABLEFORMAT_BEGIN
 90
        5
170
     1
 91
        0
 92
        0
 62
   257
 93
        1
300
CONTENTFORMAT
  1
CONTENTFORMAT_BEGIN
 90
        0
 91
        0
 92
      512
 93
        0
300

 40
0.0
140
1.0
 94
        5
 62
     0
340
27AB
144
0.18
309
CONTENTFORMAT_END
171
     0
 94
        0
309
TABLEFORMAT_END
  1
CELLSTYLE_BEGIN
 90
        2
 91
        1
300
_HEADER
309
CELLSTYLE_END
300
CELLSTYLE
  1
TABLEFORMAT_BEGIN
 90
        5
170
     1
 91
        0
 92
        0
 62
   257
 93
        1
300
CONTENTFORMAT
  1
CONTENTFORMAT_BEGIN
 90
        0
 91
        0
 92
      512
 93
        0
300

 40
0.0
140
1.0
 94
        2
 62
     0
340
27AB
144
0.18
309
CONTENTFORMAT_END
171
     0
 94
        0
309
TABLEFORMAT_END
  1
CELLSTYLE_BEGIN
 90
        3
 91
        2
300
_DATA
309
CELLSTYLE_END
  0
XRECORD
  5
29B8
102
{ACAD_REACTORS
330
29AC
102
}
330
29AC
100
AcDbXrecord
280
     1
102
ACAD_ROUNDTRIP_PRE2007_TABLESTYLE
 90
      512
 91
        0
  1

 92
      512
 93
        0
  2

 94
      512
 95
        0
  3

  0
ENDSEC
  0
EOF
