  0
SECTION
  2
HEADER
  9
$ACADVER
  1
AC1015
  9
$ACADMAINTVER
 70
    20
  9
$DWGCODEPAGE
  3
ANSI_932
  9
$INSBASE
 10
0.0
 20
0.0
 30
0.0
  9
$EXTMIN
 10
-913.7093999922541
 20
-791.9689853962839
 30
0.0
  9
$EXTMAX
 10
1049.244613161812
 20
407.0212217962891
 30
50.0
  9
$LIMMIN
 10
-2970.0
 20
-2100.0
  9
$LIMMAX
 10
2970.0
 20
2100.0
  9
$ORTHOMODE
 70
     1
  9
$REGENMODE
 70
     0
  9
$FILLMODE
 70
     1
  9
$QTEXTMODE
 70
     0
  9
$MIRRTEXT
 70
     0
  9
$LTSCALE
 40
20.0
  9
$ATTMODE
 70
     1
  9
$TEXTSIZE
 40
64.0
  9
$TRACEWID
 40
0.05
  9
$TEXTSTYLE
  7
STANDARD
  9
$CLAYER
  8
0
  9
$CELTYPE
  6
ByLayer
  9
$CECOLOR
 62
   256
  9
$CELTSCALE
 40
1.0
  9
$DISPSILH
 70
     0
  9
$DIMSCALE
 40
1.0
  9
$DIMASZ
 40
0.12
  9
$DIMEXO
 40
0.05
  9
$DIMDLI
 40
0.5
  9
$DIMRND
 40
0.0
  9
$DIMDLE
 40
0.0
  9
$DIMEXE
 40
0.1
  9
$DIMTP
 40
0.1
  9
$DIMTM
 40
0.1
  9
$DIMTXT
 40
0.12
  9
$DIMCEN
 40
0.0
  9
$DIMTSZ
 40
0.0
  9
$DIMTOL
 70
     0
  9
$DIMLIM
 70
     0
  9
$DIMTIH
 70
     1
  9
$DIMTOH
 70
     1
  9
$DIMSE1
 70
     0
  9
$DIMSE2
 70
     0
  9
$DIMTAD
 70
     0
  9
$DIMZIN
 70
     7
  9
$DIMBLK
  1

  9
$DIMASO
 70
     1
  9
$DIMSHO
 70
     0
  9
$DIMPOST
  1

  9
$DIMAPOST
  1
mm
  9
$DIMALT
 70
     0
  9
$DIMALTD
 70
     2
  9
$DIMALTF
 40
25.4
  9
$DIMLFAC
 40
1.0
  9
$DIMTOFL
 70
     0
  9
$DIMTVP
 40
0.0
  9
$DIMTIX
 70
     0
  9
$DIMSOXD
 70
     0
  9
$DIMSAH
 70
     0
  9
$DIMBLK1
  1

  9
$DIMBLK2
  1

  9
$DIMSTYLE
  2
AM_ANSI
  9
$DIMCLRD
 70
   256
  9
$DIMCLRE
 70
   256
  9
$DIMCLRT
 70
     2
  9
$DIMTFAC
 40
0.71
  9
$DIMGAP
 40
0.06
  9
$DIMJUST
 70
     0
  9
$DIMSD1
 70
     0
  9
$DIMSD2
 70
     0
  9
$DIMTOLJ
 70
     1
  9
$DIMTZIN
 70
     7
  9
$DIMALTZ
 70
     0
  9
$DIMALTTZ
 70
     0
  9
$DIMUPT
 70
     0
  9
$DIMDEC
 70
     4
  9
$DIMTDEC
 70
     4
  9
$DIMALTU
 70
     2
  9
$DIMALTTD
 70
     4
  9
$DIMTXSTY
  7
STANDARD
  9
$DIMAUNIT
 70
     0
  9
$DIMADEC
 70
     0
  9
$DIMALTRND
 40
0.0
  9
$DIMAZIN
 70
     2
  9
$DIMDSEP
 70
    46
  9
$DIMATFIT
 70
     3
  9
$DIMFRAC
 70
     0
  9
$DIMLDRBLK
  1

  9
$DIMLUNIT
 70
     2
  9
$DIMLWD
 70
    -1
  9
$DIMLWE
 70
    -1
  9
$DIMTMOVE
 70
     0
  9
$LUNITS
 70
     2
  9
$LUPREC
 70
     4
  9
$SKETCHINC
 40
0.1
  9
$FILLETRAD
 40
4.0
  9
$AUNITS
 70
     1
  9
$AUPREC
 70
     3
  9
$MENU
  1
ACAD
  9
$ELEVATION
 40
0.0
  9
$PELEVATION
 40
0.0
  9
$THICKNESS
 40
50.0
  9
$LIMCHECK
 70
     0
  9
$CHAMFERA
 40
0.0
  9
$CHAMFERB
 40
0.0
  9
$CHAMFERC
 40
0.0
  9
$CHAMFERD
 40
0.0
  9
$SKPOLY
 70
     0
  9
$TDCREATE
 40
2452321.396199653
  9
$TDUCREATE
 40
2452321.021199653
  9
$TDUPDATE
 40
2456212.843605857
  9
$TDUUPDATE
 40
2456212.468605857
  9
$TDINDWG
 40
1.0839227894
  9
$TDUSRTIMER
 40
1.0839173843
  9
$USRTIMER
 70
     1
  9
$ANGBASE
 50
0.0
  9
$ANGDIR
 70
     0
  9
$PDMODE
 70
     3
  9
$PDSIZE
 40
-2.0
  9
$PLINEWID
 40
0.0
  9
$SPLFRAME
 70
     0
  9
$SPLINETYPE
 70
     6
  9
$SPLINESEGS
 70
     8
  9
$HANDSEED
  5
29DA
  9
$SURFTAB1
 70
     6
  9
$SURFTAB2
 70
     6
  9
$SURFTYPE
 70
     6
  9
$SURFU
 70
     6
  9
$SURFV
 70
     6
  9
$UCSBASE
  2

  9
$UCSNAME
  2

  9
$UCSORG
 10
0.0
 20
0.0
 30
0.0
  9
$UCSXDIR
 10
1.0
 20
0.0
 30
0.0
  9
$UCSYDIR
 10
0.0
 20
1.0
 30
0.0
  9
$UCSORTHOREF
  2

  9
$UCSORTHOVIEW
 70
     0
  9
$UCSORGTOP
 10
0.0
 20
0.0
 30
0.0
  9
$UCSORGBOTTOM
 10
0.0
 20
0.0
 30
0.0
  9
$UCSORGLEFT
 10
0.0
 20
0.0
 30
0.0
  9
$UCSORGRIGHT
 10
0.0
 20
0.0
 30
0.0
  9
$UCSORGFRONT
 10
0.0
 20
0.0
 30
0.0
  9
$UCSORGBACK
 10
0.0
 20
0.0
 30
0.0
  9
$PUCSBASE
  2

  9
$PUCSNAME
  2

  9
$PUCSORG
 10
0.0
 20
0.0
 30
0.0
  9
$PUCSXDIR
 10
1.0
 20
0.0
 30
0.0
  9
$PUCSYDIR
 10
0.0
 20
1.0
 30
0.0
  9
$PUCSORTHOREF
  2

  9
$PUCSORTHOVIEW
 70
     0
  9
$PUCSORGTOP
 10
0.0
 20
0.0
 30
0.0
  9
$PUCSORGBOTTOM
 10
0.0
 20
0.0
 30
0.0
  9
$PUCSORGLEFT
 10
0.0
 20
0.0
 30
0.0
  9
$PUCSORGRIGHT
 10
0.0
 20
0.0
 30
0.0
  9
$PUCSORGFRONT
 10
0.0
 20
0.0
 30
0.0
  9
$PUCSORGBACK
 10
0.0
 20
0.0
 30
0.0
  9
$USERI1
 70
     0
  9
$USERI2
 70
     0
  9
$USERI3
 70
     0
  9
$USERI4
 70
     0
  9
$USERI5
 70
     0
  9
$USERR1
 40
20.0
  9
$USERR2
 40
0.0
  9
$USERR3
 40
0.0
  9
$USERR4
 40
0.0
  9
$USERR5
 40
0.0
  9
$WORLDVIEW
 70
     1
  9
$SHADEDGE
 70
     3
  9
$SHADEDIF
 70
    70
  9
$TILEMODE
 70
     1
  9
$MAXACTVP
 70
    64
  9
$PINSBASE
 10
0.0
 20
0.0
 30
0.0
  9
$PLIMCHECK
 70
     0
  9
$PEXTMIN
 10
1.000000000000000E+20
 20
1.000000000000000E+20
 30
1.000000000000000E+20
  9
$PEXTMAX
 10
-1.000000000000000E+20
 20
-1.000000000000000E+20
 30
-1.000000000000000E+20
  9
$PLIMMIN
 10
0.0
 20
0.0
  9
$PLIMMAX
 10
12.0
 20
9.0
  9
$UNITMODE
 70
     0
  9
$VISRETAIN
 70
     1
  9
$PLINEGEN
 70
     0
  9
$PSLTSCALE
 70
     1
  9
$TREEDEPTH
 70
  3020
  9
$CMLSTYLE
  2
Standard
  9
$CMLJUST
 70
     0
  9
$CMLSCALE
 40
1.0
  9
$PROXYGRAPHICS
 70
     1
  9
$MEASUREMENT
 70
     0
  9
$CELWEIGHT
370
    -1
  9
$ENDCAPS
280
     0
  9
$JOINSTYLE
280
     0
  9
$LWDISPLAY
290
     0
  9
$INSUNITS
 70
     0
  9
$HYPERLINKBASE
  1

  9
$STYLESHEET
  1

  9
$XEDIT
290
     1
  9
$CEPSNTYPE
380
     0
  9
$PSTYLEMODE
290
     1
  9
$FINGERPRINTGUID
  2
{E9257FAF-CD4B-4A2E-A213-DC25A1C7942E}
  9
$VERSIONGUID
  2
{F7FB4D7E-4426-4BD1-A900-84FAA7CB6FD3}
  9
$EXTNAMES
290
     1
  9
$PSVPSCALE
 40
0.0
  9
$OLESTARTUP
290
     0
  0
ENDSEC
  0
SECTION
  2
CLASSES
  0
CLASS
  1
ACDBDICTIONARYWDFLT
  2
AcDbDictionaryWithDefault
  3
ObjectDBX Classes
 90
        0
280
     0
281
     0
  0
CLASS
  1
MATERIAL
  2
AcDbMaterial
  3
ObjectDBX Classes
 90
     1153
280
     0
281
     0
  0
CLASS
  1
VISUALSTYLE
  2
AcDbVisualStyle
  3
ObjectDBX Classes
 90
     4095
280
     0
281
     0
  0
CLASS
  1
SCALE
  2
AcDbScale
  3
ObjectDBX Classes
 90
     1153
280
     0
281
     0
  0
CLASS
  1
TABLESTYLE
  2
AcDbTableStyle
  3
ObjectDBX Classes
 90
     4095
280
     0
281
     0
  0
CLASS
  1
MLEADERSTYLE
  2
AcDbMLeaderStyle
  3
ACDB_MLEADERSTYLE_CLASS
 90
     4095
280
     0
281
     0
  0
CLASS
  1
AMGSETTINGSOBJ
  2
AmgSettingsObj
  3
"AcadM|Product Description: AutoCAD Mechanical|Company: Autodesk, Inc."
 90
     1024
280
     0
281
     0
  0
CLASS
  1
ACME_DOCUMENT
  2
AcMeDbDoc
  3
AcMeServices
 90
     1024
280
     0
281
     0
  0
CLASS
  1
ACMESCOPE
  2
AcMeScope
  3
AcMeServices
 90
     1024
280
     0
281
     0
  0
CLASS
  1
ACMECOMMANDHISTORY
  2
AcMeCommandHistory
  3
AcMeServices
 90
     1024
280
     0
281
     0
  0
CLASS
  1
ACIMSYSVARMAN
  2
AcImSysVarManager
  3
AcMeServices
 90
     1024
280
     0
281
     0
  0
CLASS
  1
ACIMREALSYSVAR
  2
AcImRealSysVar
  3
AcMeServices
 90
     1024
280
     0
281
     0
  0
CLASS
  1
ACIMINTSYSVAR
  2
AcImIntSysVar
  3
AcMeServices
 90
     1024
280
     0
281
     0
  0
CLASS
  1
ACMEDRAWINGMAN
  2
AcMeDrawingMan
  3
AcMeServices
 90
     1024
280
     0
281
     0
  0
CLASS
  1
ACMEVIEW
  2
AcMeView
  3
AcMeServices
 90
     1024
280
     0
281
     0
  0
CLASS
  1
ACDBENTITYCACHE
  2
AcMeEntityCache
  3
AcMeServices
 90
     1024
280
     0
281
     0
  0
CLASS
  1
GSMANAGER
  2
AcMeGSManager
  3
AcMeServices
 90
     1024
280
     0
281
     0
  0
CLASS
  1
AMDTINTERNALREACTOR
  2
AmdtInternalReactor
  3
AcMeServices
 90
     1024
280
     0
281
     0
  0
CLASS
  1
ACMESTATEMGR
  2
AcMeStateMgr
  3
AcMeServices
 90
     1024
280
     0
281
     0
  0
CLASS
  1
ACGREFMASTER
  2
AcGrefMaster
  3
AcAttribServices
 90
     1024
280
     0
281
     0
  0
CLASS
  1
AM_DRAWING_MGR
  2
AcDmDwgMgr
  3
AcMechDwgViewMgmt
 90
     1024
280
     0
281
     0
  0
CLASS
  1
AM_DWG_DOCUMENT
  2
AcDmDwgDocument
  3
AcMechDwgViewMgmt
 90
     1024
280
     0
281
     0
  0
CLASS
  1
AM_DWG_SHEET
  2
AcDmSheet
  3
AcMechDwgViewMgmt
 90
     1024
280
     0
281
     0
  0
CLASS
  1
AM_VIEWDIMPARMAP
  2
AcDmViewDimParMap
  3
AcMechDwgViewMgmt
 90
     1024
280
     0
281
     0
  0
CLASS
  1
AM_DWGMGR_NAME
  2
AcDmDwgMgrName
  3
AcMechDwgViewMgmt
 90
     1024
280
     0
281
     0
  0
CLASS
  1
ACME_DATABASE
  2
AcMeDbDatabase
  3
AcMeServices
 90
     1024
280
     0
281
     0
  0
CLASS
  1
ACRFINSADJUSTERMGR
  2
AcRfInsAdjusterMgr
  3
AcMeServices
 90
     1024
280
     0
281
     0
  0
CLASS
  1
ACGREFACADMASTER
  2
AcGrefacadMaster
  3
AcGrefServices
 90
     1024
280
     0
281
     0
  0
CLASS
  1
AMDTMENUSTATEMGR
  2
AmdtMenuStateMgr
  3
McadcomServices
 90
     1024
280
     0
281
     0
  0
CLASS
  1
AMDTMCOMMENUSTATE
  2
AmdtMcomMenuState
  3
McadcomServices
 90
     1024
280
     0
281
     0
  0
CLASS
  1
AMIMASTER
  2
AmiMaster
  3
AmiServices
 90
     1024
280
     0
281
     0
  0
CLASS
  1
ASAPP
  2
AcAsAppObject
  3
AutoSurfServices
 90
     1024
280
     0
281
     0
  0
CLASS
  1
IM_STATIC_MAN
  2
AcImStaticVarManager
  3
AcMeServices
 90
     1024
280
     0
281
     0
  0
CLASS
  1
ACIMSTRSYSVAR
  2
AcImStrSysVar
  3
AcMeServices
 90
     1024
280
     0
281
     0
  0
CLASS
  1
ACIMDBLSTATICVAR
  2
AcImDblStaticVar
  3
AcMeServices
 90
     1024
280
     0
281
     0
  0
CLASS
  1
ACIMSTRSTATICVAR
  2
AcImStrStaticVar
  3
AcMeServices
 90
     1024
280
     0
281
     0
  0
CLASS
  1
ACIMINTSTATICVAR
  2
AcImIntStaticVar
  3
AcMeServices
 90
     1024
280
     0
281
     0
  0
CLASS
  1
ACASGREFMASTER
  2
AcAsGrefMaster
  3
AutoSurfResolverServices
 90
     1024
280
     0
281
     0
  0
CLASS
  1
ACADGREFMODULE
  2
AcAdGrefModule
  3
AdGrefServices
 90
     1024
280
     0
281
     0
  0
CLASS
  1
AMDTMAPISURFMOUDULE
  2
AmdtMApiSurfModule
  3
MApiSurfServices
 90
     1024
280
     0
281
     0
  0
CLASS
  1
MAPIAMMOUDLE
  2
MApiAmModule
  3
MApiAmServices
 90
     1024
280
     0
281
     0
  0
CLASS
  1
AMDTADMENUSTATE
  2
AmdtAdMenuState
  3
DesignerServices
 90
     1024
280
     0
281
     0
  0
CLASS
  1
ADAPPL
  2
AcAdAppl
  3
DesignerServices
 90
     1024
280
     0
281
     0
  0
CLASS
  1
DEPMGR
  2
AcAdDepMgr
  3
DesignerServices
 90
     1024
280
     0
281
     0
  0
CLASS
  1
PARAMMGR
  2
AcAdParamMgr
  3
DesignerServices
 90
     1024
280
     0
281
     0
  0
CLASS
  1
PARAMSCOPE
  2
AcAdParamScope
  3
DesignerServices
 90
     1024
280
     0
281
     0
  0
CLASS
  1
NAMEDAPPL
  2
AcAdNamedAppl
  3
DesignerServices
 90
     1024
280
     0
281
     0
  0
CLASS
  1
AMDTDMMENUSTATE
  2
AmdtDmMenuState
  3
AcMechDwgViewMgmt
 90
     1024
280
     0
281
     0
  0
CLASS
  1
MAPIADMODULE
  2
MApiAdModule
  3
MApiAdServices
 90
     1024
280
     0
281
     0
  0
CLASS
  1
AMDTAMMENUSTATE
  2
AmdtAmMenuState
  3
DesignerAssemblies
 90
     1024
280
     0
281
     0
  0
CLASS
  1
ACAMPROJECT
  2
AcAmProject
  3
DesignerAssemblies
 90
     1024
280
     0
281
     0
  0
CLASS
  1
ACAMGRCOMPDEF
  2
AcAmGrCompDef
  3
DesignerAssemblies
 90
     1024
280
     0
281
     0
  0
CLASS
  1
ACCMCONTEXT
  2
AcCmContext
  3
DesignerAssemblies
 90
     1024
280
     0
281
     0
  0
CLASS
  1
ACAMCOMPDEF
  2
AcAmCompDef
  3
DesignerAssemblies
 90
     1024
280
     0
281
     0
  0
CLASS
  1
ACAMCOMPDEFMGR
  2
AcAmCompDefMgr
  3
DesignerAssemblies
 90
     1024
280
     0
281
     0
  0
CLASS
  1
AMCONTEXTMGR
  2
AcAmContextMgr
  3
DesignerAssemblies
 90
     1024
280
     0
281
     0
  0
CLASS
  1
ACAMCONTEXTMODELER
  2
AcAmContextModeler
  3
DesignerAssemblies
 90
     1024
280
     0
281
     0
  0
CLASS
  1
ACMDATADICTIONARY
  2
AcmDataDictionary
  3
"AcmSymBB|Product Description: AutoCAD Mechanical|Company: Autodesk, Inc."
 90
     1024
280
     0
281
     0
  0
CLASS
  1
ACMDATAENTRYBLOCK
  2
AcmDataEntryBlock
  3
AcmSymBB|Product Description: AutoCAD Mechanical|Company: Autodesk, Inc.
 90
     1024
280
     0
281
     0
  0
CLASS
  1
ACRFATTGENMGR
  2
AcRfAttGeneralMgr
  3
AcAttribServices
 90
     1024
280
     0
281
     0
  0
CLASS
  1
ACRFOBJATTMGR
  2
AcRfObjAttGroupMgr
  3
AcAttribServices
 90
     1024
280
     0
281
     0
  0
CLASS
  1
ACRFMCADAPIATTHOLDER
  2
AcRfMCADAPIAttHolder
  3
AcAttribServices
 90
     1024
280
     0
281
     0
  0
CLASS
  1
AMDTSYSATTR
  2
AmdtSystemAttribute
  3
AcAttribServices
 90
     1024
280
     0
281
     0
  0
CLASS
  1
CATALOGSTATE
  2
AcAmCatalogState
  3
DesignerAssemblies
 90
     1024
280
     0
281
     0
  0
CLASS
  1
ACAMGRCOMPDEFSET
  2
AcAmGrCompDefSet
  3
DesignerAssemblies
 90
     1024
280
     0
281
     0
  0
CLASS
  1
AMDTBROWSERDBTAB
  2
AmdtBrowserDbTab
  3
McadcomServices
 90
     1024
280
     0
281
     0
  0
CLASS
  1
CBROWSERAPPOBJECT
  2
CBrowserAppObject
  3
McadcomServices
 90
     1024
280
     0
281
     0
  0
CLASS
  1
DM_PLACEHOLDER
  2
AcDmSelsetPlaceholder
  3
AcMechDwgViewMgmt
 90
     1024
280
     0
281
     0
  0
CLASS
  1
ACMSTANDARDANSI
  2
AcmStandardANSI
  3
"Amdt_StdImp|Product Description: AutoCAD Mechanical|Company: Autodesk, Inc."
 90
     1024
280
     0
281
     0
  0
CLASS
  1
ACMSURFSTANDARDANSI
  2
AcmSurfTextStdANSI
  3
"Amdt_StdImp|Product Description: AutoCAD Mechanical|Company: Autodesk, Inc."
 90
     1024
280
     0
281
     0
  0
CLASS
  1
ACMFCFSTANDARDANSI
  2
AcmFCFStdANSI
  3
"Amdt_StdImp|Product Description: AutoCAD Mechanical|Company: Autodesk, Inc."
 90
     1024
280
     0
281
     0
  0
CLASS
  1
ACMWELDSTANDARDANSI
  2
AcmWeldingStdANSI
  3
"Amdt_StdImp|Product Description: AutoCAD Mechanical|Company: Autodesk, Inc."
 90
     1024
280
     0
281
     0
  0
CLASS
  1
ACMIDSTANDARDANSI
  2
AcmIdStdANSI
  3
"Amdt_StdImp|Product Description: AutoCAD Mechanical|Company: Autodesk, Inc."
 90
     1024
280
     0
281
     0
  0
CLASS
  1
ACMDATUMSTANDARDANSI
  2
AcmDatumStdANSI
  3
"Amdt_StdImp|Product Description: AutoCAD Mechanical|Company: Autodesk, Inc."
 90
     1024
280
     0
281
     0
  0
CLASS
  1
ACMBOMSTANDARDANSI
  2
AcmBOMStdANSI
  3
"Amdt_StdImp|Product Description: AutoCAD Mechanical|Company: Autodesk, Inc."
 90
     1024
280
     0
281
     0
  0
CLASS
  1
ACMDETAILSTANDARDANSI
  2
AmdtDetailSymStdANSI
  3
"Amdt_StdImp|Product Description: AutoCAD Mechanical|Company: Autodesk, Inc."
 90
     1024
280
     0
281
     0
  0
CLASS
  1
ACMSECTIONSTANDARDANSI
  2
AmdtSectionSymStdANSI
  3
"Amdt_StdImp|Product Description: AutoCAD Mechanical|Company: Autodesk, Inc."
 90
     1024
280
     0
281
     0
  0
CLASS
  1
ACMCENTERLINESTANDARDANSI
  2
AmdtCenterLineStdANSI
  3
"Amdt_StdImp|Product Description: AutoCAD Mechanical|Company: Autodesk, Inc."
 90
     1024
280
     0
281
     0
  0
CLASS
  1
ACMTHREADLINESTANDARDANSI
  2
AmdtThreadLineStdANSI
  3
"Amdt_StdImp|Product Description: AutoCAD Mechanical|Company: Autodesk, Inc."
 90
     1024
280
     0
281
     0
  0
CLASS
  1
ACMNOTESTANDARDANSI
  2
AmdtNoteStdANSI
  3
"Amdt_StdImp|Product Description: AutoCAD Mechanical|Company: Autodesk, Inc."
 90
     1024
280
     0
281
     0
  0
CLASS
  1
ACMTAPERSTANDARDANSI
  2
AcmTaperStdANSI
  3
"Amdt_StdImp|Product Description: AutoCAD Mechanical|Company: Autodesk, Inc."
 90
     1024
280
     0
281
     0
  0
CLASS
  1
ACMANOOTATIONVIEWSTANDARDANSI
  2
AmdtAnViewStdANSI
  3
"Amdt_StdImp|Product Description: AutoCAD Mechanical|Company: Autodesk, Inc."
 90
     1024
280
     0
281
     0
  0
CLASS
  1
ACAMGLAYSTD
  2
AcAmgLayStd
  3
"AmgLay|Product Description: AutoCAD Mechanical|Company: Autodesk, Inc."
 90
     1024
280
     0
281
     0
  0
CLASS
  1
ACAMGDIMSTD
  2
AcAmgDimStd
  3
"AmgDim|Product Description: AutoCAD Mechanical|Company: Autodesk, Inc."
 90
     1024
280
     0
281
     0
  0
CLASS
  1
ACAMGHOLECHARTSTDANSI
  2
AcAmgHoleChartStdANSI
  3
AmgDim|Product Description: AutoCAD Mechanical|Company: Autodesk, Inc.
 90
     1024
280
     0
281
     0
  0
CLASS
  1
AMGOBJPROPCFG
  2
AmgObjPropCfg
  3
"AmgLay|Product Description: AutoCAD Mechanical|Company: Autodesk, Inc."
 90
     1025
280
     0
281
     0
  0
CLASS
  1
ACAMGTITLESTD
  2
AcAmgTitleStd
  3
"AmgTitle|Product Description: AutoCAD Mechanical|Company: Autodesk, Inc."
 90
     4095
280
     0
281
     0
  0
CLASS
  1
AMDTNOTETEMPLATEDB
  2
AmdtNoteTemplateDB
  3
AcmSymBB|Product Description: AutoCAD Mechanical|Company: Autodesk, Inc.
 90
     1024
280
     0
281
     0
  0
CLASS
  1
LAYER_INDEX
  2
AcDbLayerIndex
  3
ObjectDBX Classes
 90
        0
280
     0
281
     0
  0
CLASS
  1
IDBUFFER
  2
AcDbIdBuffer
  3
ObjectDBX Classes
 90
        0
280
     0
281
     0
  0
CLASS
  1
DICTIONARYVAR
  2
AcDbDictionaryVar
  3
ObjectDBX Classes
 90
        0
280
     0
281
     0
  0
CLASS
  1
CELLSTYLEMAP
  2
AcDbCellStyleMap
  3
ObjectDBX Classes
 90
     1152
280
     0
281
     0
  0
CLASS
  1
ACDBPLACEHOLDER
  2
AcDbPlaceHolder
  3
ObjectDBX Classes
 90
        0
280
     0
281
     0
  0
CLASS
  1
LAYOUT
  2
AcDbLayout
  3
ObjectDBX Classes
 90
        0
280
     0
281
     0
  0
ENDSEC
  0
SECTION
  2
TABLES
  0
TABLE
  2
VPORT
  5
276F
330
0
100
AcDbSymbolTable
 70
     1
  0
VPORT
  5
27DF
330
276F
100
AcDbSymbolTableRecord
100
AcDbViewportTableRecord
  2
*ACTIVE
 70
     0
 10
0.0
 20
0.0
 11
1.0
 21
1.0
 12
0.0
 22
0.0
 13
0.0
 23
0.0
 14
1.0
 24
1.0
 15
0.0
 25
0.0
 16
0.0
 26
0.0
 36
1.0
 17
67.75132616487195
 27
-179.6381533358619
 37
0.0
 40
1233.59122543692
 41
1.712555066079294
 42
50.0
 43
0.0
 44
0.0
 50
0.0
 51
0.0
 71
     0
 72
   100
 73
     1
 74
     0
 75
     0
 76
     0
 77
     0
 78
     0
281
     0
 65
     0
110
0.0
120
0.0
130
0.0
111
1.0
121
0.0
131
0.0
112
0.0
122
1.0
132
0.0
 79
     0
146
0.0
  0
ENDTAB
  0
TABLE
  2
LTYPE
  5
276C
330
0
100
AcDbSymbolTable
 70
    19
  0
LTYPE
  5
27C9
330
276C
100
AcDbSymbolTableRecord
100
AcDbLinetypeTableRecord
  2
ByBlock
 70
     0
  3

 72
    65
 73
     0
 40
0.0
  0
LTYPE
  5
27CA
330
276C
100
AcDbSymbolTableRecord
100
AcDbLinetypeTableRecord
  2
ByLayer
 70
     0
  3

 72
    65
 73
     0
 40
0.0
  0
LTYPE
  5
27CB
330
276C
100
AcDbSymbolTableRecord
100
AcDbLinetypeTableRecord
  2
CONTINUOUS
 70
     0
  3
実線
 72
    65
 73
     0
 40
0.0
  0
LTYPE
  5
27E0
330
276C
100
AcDbSymbolTableRecord
100
AcDbLinetypeTableRecord
  2
DASHDOT
 70
     0
  3
____ _ ____ _ ____ _ ____ _ ____ _ ____ _ ____
 72
    65
 73
     4
 40
5.5
 49
4.0
 74
     0
 49
-0.6
 74
     0
 49
0.3
 74
     0
 49
-0.6
 74
     0
  0
LTYPE
  5
27E1
330
276C
100
AcDbSymbolTableRecord
100
AcDbLinetypeTableRecord
  2
HIDDEN
 70
     0
  3
Hidden __ __ __ __ __ __ __ __ __ __ __ __ __ _
 72
    65
 73
     2
 40
0.375
 49
0.25
 74
     0
 49
-0.125
 74
     0
  0
LTYPE
  5
27E2
330
276C
100
AcDbSymbolTableRecord
100
AcDbLinetypeTableRecord
  2
PHANTOM2
 70
     0
  3
Phantom (.5x) ___ _ _ ___ _ _ ___ _ _ ___ _ _
 72
    65
 73
     6
 40
1.25
 49
0.625
 74
     0
 49
-0.125
 74
     0
 49
0.125
 74
     0
 49
-0.125
 74
     0
 49
0.125
 74
     0
 49
-0.125
 74
     0
  0
LTYPE
  5
27E3
330
276C
100
AcDbSymbolTableRecord
100
AcDbLinetypeTableRecord
  2
CENTER
 70
     0
  3
Center ____ _ ____ _ ____ _ ____ _ ____ _ ____
 72
    65
 73
     4
 40
2.0
 49
1.25
 74
     0
 49
-0.25
 74
     0
 49
0.25
 74
     0
 49
-0.25
 74
     0
  0
LTYPE
  5
27E4
330
276C
100
AcDbSymbolTableRecord
100
AcDbLinetypeTableRecord
  2
ASULTYPE
 70
     0
  3
実線
 72
    65
 73
     2
 40
3.0
 49
2.5
 74
     0
 49
0.5
 74
     0
  0
LTYPE
  5
27E5
330
276C
100
AcDbSymbolTableRecord
100
AcDbLinetypeTableRecord
  2
ASVLTYPE
 70
     0
  3
__ __ __ __ __ __ __ __ __ __ __ __ __ __ __ __ __ __ __ __ __
 72
    65
 73
     2
 40
0.75
 49
0.5
 74
     0
 49
-0.25
 74
     0
  0
LTYPE
  5
27E6
330
276C
100
AcDbSymbolTableRecord
100
AcDbLinetypeTableRecord
  2
AM_ISO02W050
 70
     0
  3
__ __ __ __ __ __ __ __ __ __ __ __ __ __ __
 72
    65
 73
     2
 40
7.5
 49
6.0
 74
     0
 49
-1.5
 74
     0
  0
LTYPE
  5
27E7
330
276C
100
AcDbSymbolTableRecord
100
AcDbLinetypeTableRecord
  2
AM_ISO08W050
 70
     0
  3
____ . ____ . ____ . ____ . ____ . ____ . ____
 72
    65
 73
     4
 40
18.0
 49
12.0
 74
     0
 49
-1.5
 74
     0
 49
3.0
 74
     0
 49
-1.5
 74
     0
  0
LTYPE
  5
27E8
330
276C
100
AcDbSymbolTableRecord
100
AcDbLinetypeTableRecord
  2
AM_ISO09W050
 70
     0
  3
_____ . . _____ . . _____ . . ____ .. ____
 72
    65
 73
     6
 40
22.5
 49
12.0
 74
     0
 49
-1.5
 74
     0
 49
3.0
 74
     0
 49
-1.5
 74
     0
 49
3.0
 74
     0
 49
-1.5
 74
     0
  0
LTYPE
  5
27E9
330
276C
100
AcDbSymbolTableRecord
100
AcDbLinetypeTableRecord
  2
AMCONSTR
 70
     0
  3
_______________________
 72
    65
 73
     2
 40
9999.0
 49
9999.0
 74
     0
 49
0.0
 74
     0
  0
LTYPE
  5
27EA
330
276C
100
AcDbSymbolTableRecord
100
AcDbLinetypeTableRecord
  2
AM_ISO08W050X2
 70
     0
  3
__ . __ . __ . __ . __ . __
 72
    65
 73
     4
 40
9.0
 49
6.0
 74
     0
 49
-0.75
 74
     0
 49
1.5
 74
     0
 49
-0.75
 74
     0
  0
LTYPE
  5
27EB
330
276C
100
AcDbSymbolTableRecord
100
AcDbLinetypeTableRecord
  2
AM_ISO02W050X2
 70
     0
  3
 _ _ _ _ _ _ _ _ _ _ _ _
 72
    65
 73
     2
 40
3.75
 49
3.0
 74
     0
 49
-0.75
 74
     0
  0
LTYPE
  5
27EC
330
276C
100
AcDbSymbolTableRecord
100
AcDbLinetypeTableRecord
  2
AMZIGZAG
 70
     0
  3
/\/-/\/-/\/-/\/-/\/-/\/
 72
    65
 73
     2
 40
11.0001
 49
0.0001
 74
     0
 49
-11.0
 74
     0
  0
LTYPE
  5
27ED
330
276C
100
AcDbSymbolTableRecord
100
AcDbLinetypeTableRecord
  2
CENTER2
 70
     0
  3
Center (.5x) ___ _ ___ _ ___ _ ___ _ ___ _ ___
 72
    65
 73
     4
 40
1.125
 49
0.75
 74
     0
 49
-0.125
 74
     0
 49
0.125
 74
     0
 49
-0.125
 74
     0
  0
LTYPE
  5
27EE
330
276C
100
AcDbSymbolTableRecord
100
AcDbLinetypeTableRecord
  2
HIDDEN2
 70
     0
  3
Hidden (.5x) _ _ _ _ _ _ _ _ _ _ _ _ _ _ _ _ _
 72
    65
 73
     2
 40
0.1875
 49
0.125
 74
     0
 49
-0.0625
 74
     0
  0
LTYPE
  5
27EF
330
276C
100
AcDbSymbolTableRecord
100
AcDbLinetypeTableRecord
  2
AMZIGZAG2
 70
     0
  3
/\/-/\/-/\/-/\/-/\/-/\/
 72
    65
 73
     2
 40
0.4401
 49
0.0001
 74
     0
 49
-0.4400000000000003
 74
     0
  0
LTYPE
  5
27F0
330
276C
100
AcDbSymbolTableRecord
100
AcDbLinetypeTableRecord
  2
ACANSTGB
 70
     0
  3
__ . . __ . .
 72
    65
 73
     6
 40
0.35433070866
 49
0.15748031496
 74
     0
 49
-0.03937007874
 74
     0
 49
0.03937007874
 74
     0
 49
-0.03937007874
 74
     0
 49
0.03937007874
 74
     0
 49
-0.03937007874
 74
     0
  0
LTYPE
  5
27F1
330
276C
100
AcDbSymbolTableRecord
100
AcDbLinetypeTableRecord
  2
ACANSTGL
 70
     0
  3
_ _ _ _ _
 72
    65
 73
     2
 40
0.11811023622
 49
0.07874015748
 74
     0
 49
-0.03937007874
 74
     0
  0
ENDTAB
  0
TABLE
  2
LAYER
  5
2769
330
0
100
AcDbSymbolTable
 70
    12
  0
LAYER
  5
27C3
102
{ACAD_XDICTIONARY
360
2999
102
}
330
2769
100
AcDbSymbolTableRecord
100
AcDbLayerTableRecord
  2
0
 70
     0
 62
     7
  6
CONTINUOUS
370
    -3
390
2776
  0
LAYER
  5
27F2
102
{ACAD_XDICTIONARY
360
299B
102
}
330
2769
100
AcDbSymbolTableRecord
100
AcDbLayerTableRecord
  2
OUTLINE
 70
     0
 62
     3
  6
CONTINUOUS
370
    -3
390
2776
  0
LAYER
  5
27F3
102
{ACAD_XDICTIONARY
360
299D
102
}
330
2769
100
AcDbSymbolTableRecord
100
AcDbLayerTableRecord
  2
SIZE
 70
     0
 62
    30
  6
CONTINUOUS
370
    -3
390
2776
  0
LAYER
  5
27F4
102
{ACAD_XDICTIONARY
360
299F
102
}
330
2769
100
AcDbSymbolTableRecord
100
AcDbLayerTableRecord
  2
BASIS
 70
     0
 62
     6
  6
DASHDOT
370
    -3
390
2776
  0
LAYER
  5
27F5
102
{ACAD_XDICTIONARY
360
29A1
102
}
330
2769
100
AcDbSymbolTableRecord
100
AcDbLayerTableRecord
  2
DETAIL
 70
     0
 62
     5
  6
CONTINUOUS
370
    -3
390
2776
  0
LAYER
  5
27F6
102
{ACAD_XDICTIONARY
360
29A3
102
}
330
2769
100
AcDbSymbolTableRecord
100
AcDbLayerTableRecord
  2
ARRANGE
 70
     0
 62
     1
  6
CONTINUOUS
370
    -3
390
2776
  0
LAYER
  5
27F7
330
2769
100
AcDbSymbolTableRecord
100
AcDbLayerTableRecord
  2
DEFPOINTS
 70
     0
 62
     7
  6
CONTINUOUS
290
     0
370
    -3
390
2776
  0
LAYER
  5
27F8
102
{ACAD_XDICTIONARY
360
29A5
102
}
330
2769
100
AcDbSymbolTableRecord
100
AcDbLayerTableRecord
  2
ETC
 70
     0
 62
    61
  6
CONTINUOUS
370
    -3
390
2776
  0
LAYER
  5
27F9
102
{ACAD_XDICTIONARY
360
29A7
102
}
330
2769
100
AcDbSymbolTableRecord
100
AcDbLayerTableRecord
  2
FIX
 70
     0
 62
    11
  6
CONTINUOUS
370
    -3
390
2776
  0
LAYER
  5
27FA
102
{ACAD_XDICTIONARY
360
29A9
102
}
330
2769
100
AcDbSymbolTableRecord
100
AcDbLayerTableRecord
  2
NOTE
 70
     0
 62
     4
  6
CONTINUOUS
370
    -3
390
2776
  0
LAYER
  5
27FB
102
{ACAD_XDICTIONARY
360
29AB
102
}
330
2769
100
AcDbSymbolTableRecord
100
AcDbLayerTableRecord
  2
SERVICESPACE
 70
     0
 62
     2
  6
DASHDOT
370
    -3
390
2776
  0
LAYER
  5
27FC
102
{ACAD_XDICTIONARY
360
29AD
102
}
330
2769
100
AcDbSymbolTableRecord
100
AcDbLayerTableRecord
  2
SYMBOLLINE
 70
     0
 62
    15
  6
CONTINUOUS
370
    -3
390
2776
  0
ENDTAB
  0
TABLE
  2
STYLE
  5
276A
330
0
100
AcDbSymbolTable
 70
     5
  0
STYLE
  5
27C4
330
276A
100
AcDbSymbolTableRecord
100
AcDbTextStyleTableRecord
  2
STANDARD
 70
     0
 40
64.0
 41
0.9
 50
0.0
 71
     0
 42
64.0
  3
SIMPLEX.shx
  4
BIGFONT.shx
  0
STYLE
  5
27C8
330
276A
100
AcDbSymbolTableRecord
100
AcDbTextStyleTableRecord
  2
ANNOTATIVE
 70
     0
 40
0.0
 41
1.0
 50
0.0
 71
     0
 42
0.2
  3
txt
  4

1001
ACADANNOTATIVE
1000
AnnotativeData
1002
{
1070
     1
1070
     1
1002
}
  0
STYLE
  5
27FD
330
276A
100
AcDbSymbolTableRecord
100
AcDbTextStyleTableRecord
  2

 70
     1
 40
0.0
 41
1.0
 50
0.0
 71
     0
 42
64.0
  3
genltshp.shx
  4

  0
STYLE
  5
27FE
330
276A
100
AcDbSymbolTableRecord
100
AcDbTextStyleTableRecord
  2
ACANSTS
 70
     0
 40
1.0
 41
1.0
 50
0.0
 71
     0
 42
64.0
  3
romans.shx
  4
extfont.shx
  0
STYLE
  5
27FF
330
276A
100
AcDbSymbolTableRecord
100
AcDbTextStyleTableRecord
  2
ACANSGDT
 70
     0
 40
0.0
 41
1.0
 50
0.0
 71
     0
 42
64.0
  3
amgdt.shx
  4

  0
ENDTAB
  0
TABLE
  2
VIEW
  5
276D
330
0
100
AcDbSymbolTable
 70
     1
  0
VIEW
  5
2800
330
276D
100
AcDbSymbolTableRecord
100
AcDbViewTableRecord
  2
ALL
 70
     0
 40
4282.619807999997
 10
0.0
 20
41.30990399999999
 41
5940.0
 11
0.0
 21
0.0
 31
1.0
 12
0.0
 22
0.0
 32
0.0
 42
50.0
 43
0.0
 44
0.0
 50
0.0
 71
     0
281
     0
 72
     1
110
0.0
120
0.0
130
0.0
111
1.0
121
0.0
131
0.0
112
0.0
122
1.0
132
0.0
 79
     0
146
0.0
  0
ENDTAB
  0
TABLE
  2
UCS
  5
276E
330
0
100
AcDbSymbolTable
 70
     0
  0
ENDTAB
  0
TABLE
  2
APPID
  5
2770
330
0
100
AcDbSymbolTable
 70
    26
  0
APPID
  5
27C5
330
2770
100
AcDbSymbolTableRecord
100
AcDbRegAppTableRecord
  2
ACAD
 70
     0
  0
APPID
  5
27CC
330
2770
100
AcDbSymbolTableRecord
100
AcDbRegAppTableRecord
  2
ACADANNOTATIVE
 70
     0
  0
APPID
  5
27D6
330
2770
100
AcDbSymbolTableRecord
100
AcDbRegAppTableRecord
  2
ACAD_MLEADERVER
 70
     0
  0
APPID
  5
2801
330
2770
100
AcDbSymbolTableRecord
100
AcDbRegAppTableRecord
  2
GENIUS_GENDIM_13
 70
     0
  0
APPID
  5
2802
330
2770
100
AcDbSymbolTableRecord
100
AcDbRegAppTableRecord
  2
GENIUS_GENDTOL_13
 70
     0
  0
APPID
  5
2803
330
2770
100
AcDbSymbolTableRecord
100
AcDbRegAppTableRecord
  2
GENIUS_GE3DTOL_13
 70
     0
  0
APPID
  5
2804
330
2770
100
AcDbSymbolTableRecord
100
AcDbRegAppTableRecord
  2
MCAD_NO_VIS
 70
     0
  0
APPID
  5
2805
330
2770
100
AcDbSymbolTableRecord
100
AcDbRegAppTableRecord
  2
ACAD_TEMP_GRAPHIC
 70
     0
  0
APPID
  5
2806
330
2770
100
AcDbSymbolTableRecord
100
AcDbRegAppTableRecord
  2
AD_DRAW
 70
     0
  0
APPID
  5
2807
330
2770
100
AcDbSymbolTableRecord
100
AcDbRegAppTableRecord
  2
ACATTRIBSERVICES
 70
     0
  0
APPID
  5
2808
330
2770
100
AcDbSymbolTableRecord
100
AcDbRegAppTableRecord
  2
ASURF_PCURVE_APPNAME
 70
     0
  0
APPID
  5
2809
330
2770
100
AcDbSymbolTableRecord
100
AcDbRegAppTableRecord
  2
AMG_3D2D_5_0
 70
     0
  0
APPID
  5
280A
330
2770
100
AcDbSymbolTableRecord
100
AcDbRegAppTableRecord
  2
DESIGNERASSEMBLIES
 70
     0
  0
APPID
  5
280B
330
2770
100
AcDbSymbolTableRecord
100
AcDbRegAppTableRecord
  2
ACADM_DIM_EDIT
 70
     0
  0
APPID
  5
280C
330
2770
100
AcDbSymbolTableRecord
100
AcDbRegAppTableRecord
  2
AMDT_DM_ADJ
 70
     0
  0
APPID
  5
280D
330
2770
100
AcDbSymbolTableRecord
100
AcDbRegAppTableRecord
  2
ACAD_DSTYLE_DIMARC_LENGTH_
 70
     0
  0
APPID
  5
280E
330
2770
100
AcDbSymbolTableRecord
100
AcDbRegAppTableRecord
  2
ACAD_DSTYLE_DIMJOGGED_JOGA
 70
     0
  0
APPID
  5
280F
330
2770
100
AcDbSymbolTableRecord
100
AcDbRegAppTableRecord
  2
ACAD_PSEXT
 70
     0
  0
APPID
  5
2810
330
2770
100
AcDbSymbolTableRecord
100
AcDbRegAppTableRecord
  2
ACAD_EXEMPT_FROM_CAD_STANDARDS
 70
     0
  0
APPID
  5
2811
330
2770
100
AcDbSymbolTableRecord
100
AcDbRegAppTableRecord
  2
ACAD_DSTYLE_DIMJAG
 70
     0
  0
APPID
  5
2812
330
2770
100
AcDbSymbolTableRecord
100
AcDbRegAppTableRecord
  2
ACAD_DSTYLE_DIMTALN
 70
     0
  0
APPID
  5
2940
330
2770
100
AcDbSymbolTableRecord
100
AcDbRegAppTableRecord
  2
AMG_3D2D_5.0
 70
     0
  0
APPID
  5
29D6
330
2770
100
AcDbSymbolTableRecord
100
AcDbRegAppTableRecord
  2
ACAD_DSTYLE_DIMARC_LENGTH_SYMBOL
 70
     0
  0
APPID
  5
29D7
330
2770
100
AcDbSymbolTableRecord
100
AcDbRegAppTableRecord
  2
ACAD_DSTYLE_DIM_LINETYPE
 70
     0
  0
APPID
  5
29D8
330
2770
100
AcDbSymbolTableRecord
100
AcDbRegAppTableRecord
  2
ACAD_DSTYLE_DIM_EXT1_LINETYPE
 70
     0
  0
APPID
  5
29D9
330
2770
100
AcDbSymbolTableRecord
100
AcDbRegAppTableRecord
  2
ACAD_DSTYLE_DIM_EXT2_LINETYPE
 70
     0
  0
ENDTAB
  0
TABLE
  2
DIMSTYLE
  5
2771
330
0
100
AcDbSymbolTable
 70
    10
100
AcDbDimStyleTable
 71
     1
340
2813
  0
DIMSTYLE
105
27C6
330
2771
100
AcDbSymbolTableRecord
100
AcDbDimStyleTableRecord
  2
STANDARD
 70
     0
 41
12.0
 42
20.0
 44
20.0
 77
     1
 78
     8
140
64.0
141
0.0
147
10.0
275
     1
279
     2
284
     7
285
     7
286
     7
340
27C4
  0
DIMSTYLE
105
27C7
330
2771
100
AcDbSymbolTableRecord
100
AcDbDimStyleTableRecord
  2
ANNOTATIVE
 70
     0
275
     1
279
     2
284
     7
285
     7
286
     7
340
27C4
1001
ACADANNOTATIVE
1000
AnnotativeData
1002
{
1070
     1
1070
     1
1002
}
  0
DIMSTYLE
105
2813
330
2771
100
AcDbSymbolTableRecord
100
AcDbDimStyleTableRecord
  2
AM_ANSI
 70
     0
  4
mm
 41
0.12
 42
0.05
 43
0.5
 44
0.1
 47
0.1
 48
0.1
 78
     7
 79
     2
140
0.12
141
0.0
146
0.71
147
0.06
176
   256
177
   256
178
     2
274
     4
284
     7
340
27C4
371
    -1
372
    -1
1001
ACAD_DSTYLE_DIMARC_LENGTH_SYMBOL
1070
   379
1070
     1
1001
ACAD_DSTYLE_DIM_LINETYPE
1070
   380
1005
27C9
1001
ACAD_DSTYLE_DIM_EXT1_LINETYPE
1070
   381
1005
27C9
1001
ACAD_DSTYLE_DIM_EXT2_LINETYPE
1070
   382
1005
27C9
  0
DIMSTYLE
105
2814
330
2771
100
AcDbSymbolTableRecord
100
AcDbDimStyleTableRecord
  2
AM_ANSI$3
 70
     0
  4
mm
 41
0.12
 42
0.05
 43
0.5
 44
0.1
 47
0.1
 48
0.1
 78
     7
 79
     2
140
0.12
141
0.0
146
0.71
147
0.06
176
   256
177
   256
178
     2
274
     4
284
     7
288
     1
289
     0
340
27C4
371
    -1
372
    -1
1001
ACAD_DSTYLE_DIMARC_LENGTH_SYMBOL
1070
   379
1070
     1
1001
ACAD_DSTYLE_DIM_LINETYPE
1070
   380
1005
27C9
1001
ACAD_DSTYLE_DIM_EXT1_LINETYPE
1070
   381
1005
27C9
1001
ACAD_DSTYLE_DIM_EXT2_LINETYPE
1070
   382
1005
27C9
  0
DIMSTYLE
105
2815
330
2771
100
AcDbSymbolTableRecord
100
AcDbDimStyleTableRecord
  2
AM_ANSI$4
 70
     0
  4
mm
 41
0.12
 42
0.05
 43
0.5
 44
0.1
 47
0.1
 48
0.1
 78
     7
 79
     2
140
0.12
141
0.0
146
0.71
147
0.06
176
   256
177
   256
178
     2
274
     4
284
     7
340
27C4
371
    -1
372
    -1
1001
ACAD_DSTYLE_DIMARC_LENGTH_SYMBOL
1070
   379
1070
     1
1001
ACAD_DSTYLE_DIM_LINETYPE
1070
   380
1005
27C9
1001
ACAD_DSTYLE_DIM_EXT1_LINETYPE
1070
   381
1005
27C9
1001
ACAD_DSTYLE_DIM_EXT2_LINETYPE
1070
   382
1005
27C9
  0
DIMSTYLE
105
2816
330
2771
100
AcDbSymbolTableRecord
100
AcDbDimStyleTableRecord
  2
AM_ANSI$7
 70
     0
  4
mm
 41
0.12
 42
0.05
 43
0.5
 44
0.1
 47
0.1
 48
0.1
 78
     7
 79
     2
140
0.12
141
0.0
146
0.71
147
0.06
176
   256
177
   256
178
     2
274
     4
284
     7
340
27C4
371
    -1
372
    -1
1001
ACAD_DSTYLE_DIMARC_LENGTH_SYMBOL
1070
   379
1070
     1
1001
ACAD_DSTYLE_DIM_LINETYPE
1070
   380
1005
27C9
1001
ACAD_DSTYLE_DIM_EXT1_LINETYPE
1070
   381
1005
27C9
1001
ACAD_DSTYLE_DIM_EXT2_LINETYPE
1070
   382
1005
27C9
  0
DIMSTYLE
105
2817
330
2771
100
AcDbSymbolTableRecord
100
AcDbDimStyleTableRecord
  2
AM_ANSI$SF
 70
     0
  4
mm
 41
0.12
 42
0.05
 43
0.5
 44
0.1
 47
0.1
 48
0.1
 75
     1
 76
     1
 78
     7
 79
     2
140
0.12
141
0.0
146
0.71
147
0.06
176
   256
177
   256
178
     2
274
     4
284
     7
340
27C4
371
    -1
372
    -1
1001
ACAD_DSTYLE_DIMARC_LENGTH_SYMBOL
1070
   379
1070
     1
1001
ACAD_DSTYLE_DIM_LINETYPE
1070
   380
1005
27C9
1001
ACAD_DSTYLE_DIM_EXT1_LINETYPE
1070
   381
1005
27C9
1001
ACAD_DSTYLE_DIM_EXT2_LINETYPE
1070
   382
1005
27C9
  0
DIMSTYLE
105
2818
330
2771
100
AcDbSymbolTableRecord
100
AcDbDimStyleTableRecord
  2
AM_ANSI$SH
 70
     0
  4
mm
 41
0.12
 42
0.05
 43
0.5
 44
0.1
 47
0.1
 48
0.1
 75
     1
 76
     1
 78
     7
 79
     2
140
0.12
141
0.0
146
0.71
147
0.06
173
     1
176
   256
177
   256
178
     2
274
     4
284
     7
340
27C4
343
2838
371
    -1
372
    -1
1001
ACAD_DSTYLE_DIMARC_LENGTH_SYMBOL
1070
   379
1070
     1
1001
ACAD_DSTYLE_DIM_LINETYPE
1070
   380
1005
27C9
1001
ACAD_DSTYLE_DIM_EXT1_LINETYPE
1070
   381
1005
27C9
1001
ACAD_DSTYLE_DIM_EXT2_LINETYPE
1070
   382
1005
27C9
  0
DIMSTYLE
105
2819
330
2771
100
AcDbSymbolTableRecord
100
AcDbDimStyleTableRecord
  2
STANDARD1
 70
     0
 40
6.0
 41
2.5
 42
0.625
 43
6.0
 44
1.25
 47
1.0
 48
0.5
 77
     1
 78
     8
140
2.5
141
0.0
146
0.6
147
1.0
173
     1
275
     1
279
     2
284
     7
285
     7
286
     7
340
27C4
  0
DIMSTYLE
105
281A
330
2771
100
AcDbSymbolTableRecord
100
AcDbDimStyleTableRecord
  2
STANDARD$0
 70
     0
 41
12.0
 42
20.0
 44
20.0
 73
     0
 74
     0
 77
     1
 78
     8
140
64.0
141
0.0
147
10.0
275
     1
279
     2
284
     7
285
     7
286
     7
340
27C4
  0
ENDTAB
  0
TABLE
  2
BLOCK_RECORD
  5
2768
330
0
100
AcDbSymbolTable
 70
    79
  0
BLOCK_RECORD
  5
27DB
102
{ACAD_XDICTIONARY
360
29AF
102
}
330
2768
100
AcDbSymbolTableRecord
100
AcDbBlockTableRecord
  2
*Model_Space
340
27DE
  0
BLOCK_RECORD
  5
27D7
330
2768
100
AcDbSymbolTableRecord
100
AcDbBlockTableRecord
  2
*Paper_Space
340
27DA
  0
BLOCK_RECORD
  5
2822
330
2768
100
AcDbSymbolTableRecord
100
AcDbBlockTableRecord
  2
$MODEL_SPACE
340
0
  0
BLOCK_RECORD
  5
2824
330
2768
100
AcDbSymbolTableRecord
100
AcDbBlockTableRecord
  2
$PAPER_SPACE
340
0
  0
BLOCK_RECORD
  5
2826
330
2768
100
AcDbSymbolTableRecord
100
AcDbBlockTableRecord
  2
_ORIGIN
340
0
  0
BLOCK_RECORD
  5
2828
330
2768
100
AcDbSymbolTableRecord
100
AcDbBlockTableRecord
  2
_DOTBLANK
340
0
102
{BLKREFS
331
1299
331
129A
331
11AA
331
11AB
331
E80
331
E81
331
1123
331
1124
331
11C2
331
11C3
331
11EC
331
11ED
331
11F9
331
11FA
331
1287
331
1288
331
1417
331
1418
331
1423
331
1424
331
142F
331
1430
331
143B
331
143C
331
166E
331
166F
331
1677
331
1678
331
1680
331
1681
331
1689
331
168A
331
1696
331
1697
331
16A3
331
16A4
331
16AF
331
16B0
331
16BB
331
16BC
331
16C7
331
16C8
331
16D3
331
16D4
331
1D86
331
1D87
331
1D8F
331
1D90
331
1D98
331
1D99
331
1DA1
331
1DA2
331
1DAB
331
1DAC
331
1DB5
331
1DB6
331
2709
331
270A
331
270E
331
270F
331
2714
331
2715
331
2719
331
271A
331
271E
331
271F
331
2724
331
2725
102
}
  0
BLOCK_RECORD
  5
282A
330
2768
100
AcDbSymbolTableRecord
100
AcDbBlockTableRecord
  2
_OPEN30
340
0
102
{BLKREFS
331
2087
331
2165
331
223C
331
232F
331
245C
331
258D
102
}
  0
BLOCK_RECORD
  5
282C
330
2768
100
AcDbSymbolTableRecord
100
AcDbBlockTableRecord
  2
*D5
340
0
  0
BLOCK_RECORD
  5
282E
330
2768
100
AcDbSymbolTableRecord
100
AcDbBlockTableRecord
  2
*U6
340
0
102
{BLKREFS
331
129B
102
}
  0
BLOCK_RECORD
  5
2830
330
2768
100
AcDbSymbolTableRecord
100
AcDbBlockTableRecord
  2
*D7
340
0
  0
BLOCK_RECORD
  5
2832
330
2768
100
AcDbSymbolTableRecord
100
AcDbBlockTableRecord
  2
*U8
340
0
102
{BLKREFS
331
11AC
102
}
  0
BLOCK_RECORD
  5
2834
330
2768
100
AcDbSymbolTableRecord
100
AcDbBlockTableRecord
  2
*D9
340
0
  0
BLOCK_RECORD
  5
2836
330
2768
100
AcDbSymbolTableRecord
100
AcDbBlockTableRecord
  2
*U10
340
0
102
{BLKREFS
331
E82
102
}
  0
BLOCK_RECORD
  5
2838
330
2768
100
AcDbSymbolTableRecord
100
AcDbBlockTableRecord
  2
GENAXEH
340
0
  0
BLOCK_RECORD
  5
283A
330
2768
100
AcDbSymbolTableRecord
100
AcDbBlockTableRecord
  2
*D12
340
0
  0
BLOCK_RECORD
  5
283C
330
2768
100
AcDbSymbolTableRecord
100
AcDbBlockTableRecord
  2
*U13
340
0
102
{BLKREFS
331
1125
102
}
  0
BLOCK_RECORD
  5
283E
330
2768
100
AcDbSymbolTableRecord
100
AcDbBlockTableRecord
  2
*D14
340
0
  0
BLOCK_RECORD
  5
2840
330
2768
100
AcDbSymbolTableRecord
100
AcDbBlockTableRecord
  2
*U15
340
0
102
{BLKREFS
331
11C4
102
}
  0
BLOCK_RECORD
  5
2842
330
2768
100
AcDbSymbolTableRecord
100
AcDbBlockTableRecord
  2
*D16
340
0
  0
BLOCK_RECORD
  5
2844
330
2768
100
AcDbSymbolTableRecord
100
AcDbBlockTableRecord
  2
*U17
340
0
102
{BLKREFS
331
11EE
102
}
  0
BLOCK_RECORD
  5
2846
330
2768
100
AcDbSymbolTableRecord
100
AcDbBlockTableRecord
  2
*D18
340
0
  0
BLOCK_RECORD
  5
2848
330
2768
100
AcDbSymbolTableRecord
100
AcDbBlockTableRecord
  2
*U19
340
0
102
{BLKREFS
331
11FB
102
}
  0
BLOCK_RECORD
  5
284A
330
2768
100
AcDbSymbolTableRecord
100
AcDbBlockTableRecord
  2
*D20
340
0
  0
BLOCK_RECORD
  5
284C
330
2768
100
AcDbSymbolTableRecord
100
AcDbBlockTableRecord
  2
*U21
340
0
102
{BLKREFS
331
1289
102
}
  0
BLOCK_RECORD
  5
284E
330
2768
100
AcDbSymbolTableRecord
100
AcDbBlockTableRecord
  2
*D22
340
0
  0
BLOCK_RECORD
  5
2850
330
2768
100
AcDbSymbolTableRecord
100
AcDbBlockTableRecord
  2
*U23
340
0
102
{BLKREFS
331
1419
102
}
  0
BLOCK_RECORD
  5
2852
330
2768
100
AcDbSymbolTableRecord
100
AcDbBlockTableRecord
  2
*D24
340
0
  0
BLOCK_RECORD
  5
2854
330
2768
100
AcDbSymbolTableRecord
100
AcDbBlockTableRecord
  2
*U25
340
0
102
{BLKREFS
331
1425
102
}
  0
BLOCK_RECORD
  5
2856
330
2768
100
AcDbSymbolTableRecord
100
AcDbBlockTableRecord
  2
*D26
340
0
  0
BLOCK_RECORD
  5
2858
330
2768
100
AcDbSymbolTableRecord
100
AcDbBlockTableRecord
  2
*U27
340
0
102
{BLKREFS
331
1431
102
}
  0
BLOCK_RECORD
  5
285A
330
2768
100
AcDbSymbolTableRecord
100
AcDbBlockTableRecord
  2
*D28
340
0
  0
BLOCK_RECORD
  5
285C
330
2768
100
AcDbSymbolTableRecord
100
AcDbBlockTableRecord
  2
*U29
340
0
102
{BLKREFS
331
143D
102
}
  0
BLOCK_RECORD
  5
285E
330
2768
100
AcDbSymbolTableRecord
100
AcDbBlockTableRecord
  2
*D30
340
0
  0
BLOCK_RECORD
  5
2860
330
2768
100
AcDbSymbolTableRecord
100
AcDbBlockTableRecord
  2
*U31
340
0
102
{BLKREFS
331
1670
102
}
  0
BLOCK_RECORD
  5
2862
330
2768
100
AcDbSymbolTableRecord
100
AcDbBlockTableRecord
  2
*D32
340
0
  0
BLOCK_RECORD
  5
2864
330
2768
100
AcDbSymbolTableRecord
100
AcDbBlockTableRecord
  2
*U33
340
0
102
{BLKREFS
331
1679
102
}
  0
BLOCK_RECORD
  5
2866
330
2768
100
AcDbSymbolTableRecord
100
AcDbBlockTableRecord
  2
*D34
340
0
  0
BLOCK_RECORD
  5
2868
330
2768
100
AcDbSymbolTableRecord
100
AcDbBlockTableRecord
  2
*U35
340
0
102
{BLKREFS
331
1682
102
}
  0
BLOCK_RECORD
  5
286A
330
2768
100
AcDbSymbolTableRecord
100
AcDbBlockTableRecord
  2
*D36
340
0
  0
BLOCK_RECORD
  5
286C
330
2768
100
AcDbSymbolTableRecord
100
AcDbBlockTableRecord
  2
*U37
340
0
102
{BLKREFS
331
168B
102
}
  0
BLOCK_RECORD
  5
286E
330
2768
100
AcDbSymbolTableRecord
100
AcDbBlockTableRecord
  2
*U38
340
0
  0
BLOCK_RECORD
  5
2870
330
2768
100
AcDbSymbolTableRecord
100
AcDbBlockTableRecord
  2
*D39
340
0
  0
BLOCK_RECORD
  5
2872
330
2768
100
AcDbSymbolTableRecord
100
AcDbBlockTableRecord
  2
*U40
340
0
102
{BLKREFS
331
1698
102
}
  0
BLOCK_RECORD
  5
2874
330
2768
100
AcDbSymbolTableRecord
100
AcDbBlockTableRecord
  2
*D41
340
0
  0
BLOCK_RECORD
  5
2876
330
2768
100
AcDbSymbolTableRecord
100
AcDbBlockTableRecord
  2
*U42
340
0
102
{BLKREFS
331
16A5
102
}
  0
BLOCK_RECORD
  5
2878
330
2768
100
AcDbSymbolTableRecord
100
AcDbBlockTableRecord
  2
*D43
340
0
  0
BLOCK_RECORD
  5
287A
330
2768
100
AcDbSymbolTableRecord
100
AcDbBlockTableRecord
  2
*U44
340
0
102
{BLKREFS
331
16B1
102
}
  0
BLOCK_RECORD
  5
287C
330
2768
100
AcDbSymbolTableRecord
100
AcDbBlockTableRecord
  2
*D45
340
0
  0
BLOCK_RECORD
  5
287E
330
2768
100
AcDbSymbolTableRecord
100
AcDbBlockTableRecord
  2
*U46
340
0
102
{BLKREFS
331
16BD
102
}
  0
BLOCK_RECORD
  5
2880
330
2768
100
AcDbSymbolTableRecord
100
AcDbBlockTableRecord
  2
*D47
340
0
  0
BLOCK_RECORD
  5
2882
330
2768
100
AcDbSymbolTableRecord
100
AcDbBlockTableRecord
  2
*U48
340
0
102
{BLKREFS
331
16C9
102
}
  0
BLOCK_RECORD
  5
2884
330
2768
100
AcDbSymbolTableRecord
100
AcDbBlockTableRecord
  2
*D49
340
0
  0
BLOCK_RECORD
  5
2886
330
2768
100
AcDbSymbolTableRecord
100
AcDbBlockTableRecord
  2
*U50
340
0
102
{BLKREFS
331
16D5
102
}
  0
BLOCK_RECORD
  5
2888
330
2768
100
AcDbSymbolTableRecord
100
AcDbBlockTableRecord
  2
*D51
340
0
  0
BLOCK_RECORD
  5
288A
330
2768
100
AcDbSymbolTableRecord
100
AcDbBlockTableRecord
  2
*U52
340
0
102
{BLKREFS
331
1D88
102
}
  0
BLOCK_RECORD
  5
288C
330
2768
100
AcDbSymbolTableRecord
100
AcDbBlockTableRecord
  2
*D53
340
0
  0
BLOCK_RECORD
  5
288E
330
2768
100
AcDbSymbolTableRecord
100
AcDbBlockTableRecord
  2
*U54
340
0
102
{BLKREFS
331
1D91
102
}
  0
BLOCK_RECORD
  5
2890
330
2768
100
AcDbSymbolTableRecord
100
AcDbBlockTableRecord
  2
*D55
340
0
  0
BLOCK_RECORD
  5
2892
330
2768
100
AcDbSymbolTableRecord
100
AcDbBlockTableRecord
  2
*U56
340
0
102
{BLKREFS
331
1D9A
102
}
  0
BLOCK_RECORD
  5
2894
330
2768
100
AcDbSymbolTableRecord
100
AcDbBlockTableRecord
  2
*D57
340
0
  0
BLOCK_RECORD
  5
2896
330
2768
100
AcDbSymbolTableRecord
100
AcDbBlockTableRecord
  2
*U58
340
0
102
{BLKREFS
331
1DA3
102
}
  0
BLOCK_RECORD
  5
2898
330
2768
100
AcDbSymbolTableRecord
100
AcDbBlockTableRecord
  2
*D59
340
0
  0
BLOCK_RECORD
  5
289A
330
2768
100
AcDbSymbolTableRecord
100
AcDbBlockTableRecord
  2
*U60
340
0
102
{BLKREFS
331
1DAD
102
}
  0
BLOCK_RECORD
  5
289C
330
2768
100
AcDbSymbolTableRecord
100
AcDbBlockTableRecord
  2
*D61
340
0
  0
BLOCK_RECORD
  5
289E
330
2768
100
AcDbSymbolTableRecord
100
AcDbBlockTableRecord
  2
*U62
340
0
102
{BLKREFS
331
1DB7
102
}
  0
BLOCK_RECORD
  5
28A0
330
2768
100
AcDbSymbolTableRecord
100
AcDbBlockTableRecord
  2
*U63
340
0
  0
BLOCK_RECORD
  5
28A2
330
2768
100
AcDbSymbolTableRecord
100
AcDbBlockTableRecord
  2
*U64
340
0
  0
BLOCK_RECORD
  5
28A4
330
2768
100
AcDbSymbolTableRecord
100
AcDbBlockTableRecord
  2
*U65
340
0
  0
BLOCK_RECORD
  5
28A6
330
2768
100
AcDbSymbolTableRecord
100
AcDbBlockTableRecord
  2
*U66
340
0
  0
BLOCK_RECORD
  5
28A8
330
2768
100
AcDbSymbolTableRecord
100
AcDbBlockTableRecord
  2
*U67
340
0
  0
BLOCK_RECORD
  5
28AA
330
2768
100
AcDbSymbolTableRecord
100
AcDbBlockTableRecord
  2
*U68
340
0
  0
BLOCK_RECORD
  5
28AC
330
2768
100
AcDbSymbolTableRecord
100
AcDbBlockTableRecord
  2
*U69
340
0
  0
BLOCK_RECORD
  5
28AE
330
2768
100
AcDbSymbolTableRecord
100
AcDbBlockTableRecord
  2
*U70
340
0
  0
BLOCK_RECORD
  5
28B0
330
2768
100
AcDbSymbolTableRecord
100
AcDbBlockTableRecord
  2
*U71
340
0
  0
BLOCK_RECORD
  5
28B2
330
2768
100
AcDbSymbolTableRecord
100
AcDbBlockTableRecord
  2
*U72
340
0
  0
BLOCK_RECORD
  5
28B4
330
2768
100
AcDbSymbolTableRecord
100
AcDbBlockTableRecord
  2
*U73
340
0
  0
BLOCK_RECORD
  5
28B6
330
2768
100
AcDbSymbolTableRecord
100
AcDbBlockTableRecord
  2
*U74
340
0
102
{BLKREFS
331
26D4
102
}
  0
BLOCK_RECORD
  5
28B8
330
2768
100
AcDbSymbolTableRecord
100
AcDbBlockTableRecord
  2
*U75
340
0
102
{BLKREFS
331
26D5
102
}
  0
BLOCK_RECORD
  5
28BA
330
2768
100
AcDbSymbolTableRecord
100
AcDbBlockTableRecord
  2
*X76
340
0
102
{BLKREFS
331
2700
102
}
  0
BLOCK_RECORD
  5
28BC
330
2768
100
AcDbSymbolTableRecord
100
AcDbBlockTableRecord
  2
*X77
340
0
102
{BLKREFS
331
2701
102
}
  0
ENDTAB
  0
ENDSEC
  0
SECTION
  2
BLOCKS
  0
BLOCK
  5
27DC
330
27DB
100
AcDbEntity
  8
0
100
AcDbBlockBegin
  2
*Model_Space
 70
     0
 10
0.0
 20
0.0
 30
0.0
  3
*Model_Space
  1

  0
ENDBLK
  5
27DD
330
27DB
100
AcDbEntity
  8
0
100
AcDbBlockEnd
  0
BLOCK
  5
27D8
330
27D7
100
AcDbEntity
 67
     1
  8
0
100
AcDbBlockBegin
  2
*Paper_Space
 70
     0
 10
0.0
 20
0.0
 30
0.0
  3
*Paper_Space
  1

  0
ENDBLK
  5
27D9
330
27D7
100
AcDbEntity
 67
     1
  8
0
100
AcDbBlockEnd
  0
BLOCK
  5
2823
330
2822
100
AcDbEntity
  8
0
100
AcDbBlockBegin
  2
$MODEL_SPACE
 70
     0
 10
0.0
 20
0.0
 30
0.0
  3
$MODEL_SPACE
  1

  0
ENDBLK
  5
1FC1
330
2822
100
AcDbEntity
  8
0
100
AcDbBlockEnd
  0
BLOCK
  5
2825
330
2824
100
AcDbEntity
  8
0
100
AcDbBlockBegin
  2
$PAPER_SPACE
 70
     0
 10
0.0
 20
0.0
 30
0.0
  3
$PAPER_SPACE
  1

  0
ENDBLK
  5
1FBD
330
2824
100
AcDbEntity
  8
0
100
AcDbBlockEnd
  0
BLOCK
  5
2827
330
2826
100
AcDbEntity
  8
0
100
AcDbBlockBegin
  2
_ORIGIN
 70
     0
 10
0.0
 20
0.0
 30
0.0
  3
_ORIGIN
  1

  0
CIRCLE
  5
880
330
2826
100
AcDbEntity
  8
0
  6
Continuous
 62
     7
100
AcDbCircle
 10
0.0
 20
0.0
 30
0.0
 40
0.5
  0
LINE
  5
881
330
2826
100
AcDbEntity
  8
0
  6
Continuous
 62
     7
100
AcDbLine
 10
0.0
 20
0.0
 30
0.0
 11
-1.0
 21
0.0
 31
0.0
  0
ENDBLK
  5
882
330
2826
100
AcDbEntity
  8
0
100
AcDbBlockEnd
  0
BLOCK
  5
2829
330
2828
100
AcDbEntity
  8
0
 62
     1
100
AcDbBlockBegin
  2
_DOTBLANK
 70
     0
 10
0.0
 20
0.0
 30
0.0
  3
_DOTBLANK
  1

  0
CIRCLE
  5
AB3
330
2828
100
AcDbEntity
  8
0
  6
ByBlock
 62
     0
100
AcDbCircle
 10
0.0
 20
0.0
 30
0.0
 40
0.5
  0
LINE
  5
AB4
330
2828
100
AcDbEntity
  8
0
  6
ByBlock
 62
     0
100
AcDbLine
 10
-0.5
 20
0.0
 30
0.0
 11
-1.0
 21
0.0
 31
0.0
  0
ENDBLK
  5
AB6
330
2828
100
AcDbEntity
  8
0
 62
     1
100
AcDbBlockEnd
  0
BLOCK
  5
282B
330
282A
100
AcDbEntity
  8
0
 62
     1
100
AcDbBlockBegin
  2
_OPEN30
 70
     0
 10
0.0
 20
0.0
 30
0.0
  3
_OPEN30
  1

  0
LINE
  5
AB8
330
282A
100
AcDbEntity
  8
0
  6
ByBlock
 62
     0
100
AcDbLine
 10
-1.0
 20
0.26794919
 30
0.0
 11
0.0
 21
0.0
 31
0.0
  0
LINE
  5
AB9
330
282A
100
AcDbEntity
  8
0
  6
ByBlock
 62
     0
100
AcDbLine
 10
0.0
 20
0.0
 30
0.0
 11
-1.0
 21
-0.26794919
 31
0.0
  0
LINE
  5
ABA
330
282A
100
AcDbEntity
  8
0
  6
ByBlock
 62
     0
100
AcDbLine
 10
0.0
 20
0.0
 30
0.0
 11
-1.0
 21
0.0
 31
0.0
  0
ENDBLK
  5
ABC
330
282A
100
AcDbEntity
  8
0
 62
     1
100
AcDbBlockEnd
  0
BLOCK
  5
282D
330
282C
100
AcDbEntity
  8
0
100
AcDbBlockBegin
  2
*D5
 70
     1
 10
0.0
 20
0.0
 30
0.0
  3
*D5
  1

  0
LINE
  5
1296
330
282C
100
AcDbEntity
  8
SIZE
 62
     0
100
AcDbLine
 10
-134.5
 20
-320.0
 30
0.0
 11
-134.5
 21
-468.0173952306001
 31
0.0
  0
LINE
  5
1297
330
282C
100
AcDbEntity
  8
SIZE
 62
     0
100
AcDbLine
 10
134.5
 20
-320.0
 30
0.0
 11
134.5
 21
-468.0173952306001
 31
0.0
  0
LINE
  5
1298
330
282C
100
AcDbEntity
  8
SIZE
 62
     0
100
AcDbLine
 10
-122.5
 20
-448.0173952306
 30
0.0
 11
122.5
 21
-448.0173952306
 31
0.0
  0
INSERT
  5
1299
330
282C
100
AcDbEntity
  8
SIZE
 62
     0
100
AcDbBlockReference
  2
_DOTBLANK
 10
-134.5
 20
-448.0173952306
 30
0.0
 41
12.0
 42
12.0
 43
12.0
 50
180.0
  0
INSERT
  5
129A
330
282C
100
AcDbEntity
  8
SIZE
 62
     0
100
AcDbBlockReference
  2
_DOTBLANK
 10
134.5
 20
-448.0173952306
 30
0.0
 41
12.0
 42
12.0
 43
12.0
  0
INSERT
  5
129B
330
282C
100
AcDbEntity
  8
0
100
AcDbBlockReference
  2
*U6
 10
0.0
 20
0.0
 30
0.0
  0
POINT
  5
129C
330
282C
100
AcDbEntity
  8
DEFPOINTS
 62
     0
100
AcDbPoint
 10
-134.5
 20
-300.0
 30
0.0
  0
POINT
  5
129D
330
282C
100
AcDbEntity
  8
DEFPOINTS
 62
     0
100
AcDbPoint
 10
134.5
 20
-300.0
 30
0.0
  0
POINT
  5
129E
330
282C
100
AcDbEntity
  8
DEFPOINTS
 62
     0
100
AcDbPoint
 10
134.5
 20
-448.0173952306
 30
0.0
  0
ENDBLK
  5
D72
330
282C
100
AcDbEntity
  8
0
100
AcDbBlockEnd
  0
BLOCK
  5
282F
330
282E
100
AcDbEntity
  8
0
100
AcDbBlockBegin
  2
*U6
 70
     1
 10
0.0
 20
0.0
 30
0.0
  3
*U6
  1

  0
TEXT
  5
1EF5
330
282E
100
AcDbEntity
  8
SIZE
 62
     0
100
AcDbText
 10
-72.68571428571426
 20
-438.0173952305999
 30
0.0
 40
64.0
  1
269
 41
0.9
100
AcDbText
  0
ENDBLK
  5
1EF7
330
282E
100
AcDbEntity
  8
0
100
AcDbBlockEnd
  0
BLOCK
  5
2831
330
2830
100
AcDbEntity
  8
0
100
AcDbBlockBegin
  2
*D7
 70
     1
 10
0.0
 20
0.0
 30
0.0
  3
*D7
  1

  0
LINE
  5
11A7
330
2830
100
AcDbEntity
  8
SIZE
  6
Continuous
 62
     0
100
AcDbLine
 10
143.5
 20
-300.0
 30
0.0
 11
304.6432844803791
 21
-300.0
 31
0.0
  0
LINE
  5
11A8
330
2830
100
AcDbEntity
  8
SIZE
  6
Continuous
 62
     0
100
AcDbLine
 10
177.5
 20
-0.0000000000000057
 30
0.0
 11
304.6432844803792
 21
-0.0000000000000417
 31
0.0
  0
LINE
  5
11A9
330
2830
100
AcDbEntity
  8
SIZE
  6
Continuous
 62
     0
100
AcDbLine
 10
284.6432844803791
 20
-288.0000000000001
 30
0.0
 11
284.6432844803792
 21
-12.00000000000003
 31
0.0
  0
INSERT
  5
11AA
330
2830
100
AcDbEntity
  8
SIZE
  6
Continuous
 62
     0
100
AcDbBlockReference
  2
_DOTBLANK
 10
284.6432844803791
 20
-300.0
 30
0.0
 41
12.0
 42
12.0
 43
12.0
 50
270.0
  0
INSERT
  5
11AB
330
2830
100
AcDbEntity
  8
SIZE
  6
Continuous
 62
     0
100
AcDbBlockReference
  2
_DOTBLANK
 10
284.6432844803792
 20
-0.000000000000036
 30
0.0
 41
12.0
 42
12.0
 43
12.0
 50
90.0
  0
INSERT
  5
11AC
330
2830
100
AcDbEntity
  8
0
100
AcDbBlockReference
  2
*U8
 10
0.0
 20
0.0
 30
0.0
  0
POINT
  5
11AD
330
2830
100
AcDbEntity
  8
DEFPOINTS
  6
Continuous
 62
     0
100
AcDbPoint
 10
123.5
 20
-300.0
 30
0.0
  0
POINT
  5
11AE
330
2830
100
AcDbEntity
  8
DEFPOINTS
  6
Continuous
 62
     0
100
AcDbPoint
 10
157.5
 20
0.0
 30
0.0
  0
POINT
  5
11AF
330
2830
100
AcDbEntity
  8
DEFPOINTS
  6
Continuous
 62
     0
100
AcDbPoint
 10
284.6432844803792
 20
-0.000000000000036
 30
0.0
  0
ENDBLK
  5
E11
330
2830
100
AcDbEntity
  8
0
100
AcDbBlockEnd
  0
BLOCK
  5
2833
330
2832
100
AcDbEntity
  8
0
100
AcDbBlockBegin
  2
*U8
 70
     1
 10
0.0
 20
0.0
 30
0.0
  3
*U8
  1

  0
TEXT
  5
1EE1
330
2832
100
AcDbEntity
  8
SIZE
 62
     0
100
AcDbText
 10
274.6432844803792
 20
-224.0571428571429
 30
0.0
 40
64.0
  1
300
 50
90.0
 41
0.9
100
AcDbText
  0
ENDBLK
  5
1EE3
330
2832
100
AcDbEntity
  8
0
100
AcDbBlockEnd
  0
BLOCK
  5
2835
330
2834
100
AcDbEntity
  8
0
100
AcDbBlockBegin
  2
*D9
 70
     1
 10
0.0
 20
0.0
 30
0.0
  3
*D9
  1

  0
LINE
  5
E7D
330
2834
100
AcDbEntity
  8
SIZE
 62
     0
100
AcDbLine
 10
-139.9999999999998
 20
32.46448280219375
 30
0.0
 11
-139.9999999999998
 21
136.4516878685508
 31
0.0
  0
LINE
  5
E7E
330
2834
100
AcDbEntity
  8
SIZE
 62
     0
100
AcDbLine
 10
140.0
 20
32.46448280219375
 30
0.0
 11
140.0
 21
136.4516878685508
 31
0.0
  0
LINE
  5
E7F
330
2834
100
AcDbEntity
  8
SIZE
 62
     0
100
AcDbLine
 10
-128.0
 20
116.4516878685508
 30
0.0
 11
128.0
 21
116.4516878685508
 31
0.0
  0
INSERT
  5
E80
330
2834
100
AcDbEntity
  8
SIZE
 62
     0
100
AcDbBlockReference
  2
_DOTBLANK
 10
-139.9999999999998
 20
116.4516878685508
 30
0.0
 41
12.0
 42
12.0
 43
12.0
 50
180.0
  0
INSERT
  5
E81
330
2834
100
AcDbEntity
  8
SIZE
 62
     0
100
AcDbBlockReference
  2
_DOTBLANK
 10
140.0
 20
116.4516878685508
 30
0.0
 41
12.0
 42
12.0
 43
12.0
  0
INSERT
  5
E82
330
2834
100
AcDbEntity
  8
0
100
AcDbBlockReference
  2
*U10
 10
0.0
 20
0.0
 30
0.0
  0
POINT
  5
E83
330
2834
100
AcDbEntity
  8
DEFPOINTS
 62
     0
100
AcDbPoint
 10
-139.9999999999998
 20
12.46448280219374
 30
0.0
  0
POINT
  5
E84
330
2834
100
AcDbEntity
  8
DEFPOINTS
 62
     0
100
AcDbPoint
 10
140.0
 20
12.46448280219374
 30
0.0
  0
POINT
  5
E85
330
2834
100
AcDbEntity
  8
DEFPOINTS
 62
     0
100
AcDbPoint
 10
140.0
 20
116.4516878685508
 30
0.0
  0
ENDBLK
  5
E7C
330
2834
100
AcDbEntity
  8
0
100
AcDbBlockEnd
  0
BLOCK
  5
2837
330
2836
100
AcDbEntity
  8
0
100
AcDbBlockBegin
  2
*U10
 70
     1
 10
0.0
 20
0.0
 30
0.0
  3
*U10
  1

  0
TEXT
  5
1ED8
330
2836
100
AcDbEntity
  8
SIZE
 62
     0
100
AcDbText
 10
-74.05714285714281
 20
126.4516878685508
 30
0.0
 40
64.0
  1
280
 41
0.9
100
AcDbText
  0
ENDBLK
  5
1EDA
330
2836
100
AcDbEntity
  8
0
100
AcDbBlockEnd
  0
BLOCK
  5
2839
330
2838
100
AcDbEntity
  8
0
100
AcDbBlockBegin
  2
GENAXEH
 70
     0
 10
0.0
 20
0.0
 30
0.0
  3
GENAXEH
  1

  0
LINE
  5
FDB
330
2838
100
AcDbEntity
  8
0
100
AcDbLine
 10
-1.0
 20
0.0
 30
0.0
 11
1.0
 21
0.0
 31
0.0
  0
ENDBLK
  5
FDD
330
2838
100
AcDbEntity
  8
0
100
AcDbBlockEnd
  0
BLOCK
  5
283B
330
283A
100
AcDbEntity
  8
0
100
AcDbBlockBegin
  2
*D12
 70
     1
 10
0.0
 20
0.0
 30
0.0
  3
*D12
  1

  0
LINE
  5
1120
330
283A
100
AcDbEntity
  8
SIZE
 62
     0
100
AcDbLine
 10
-157.5
 20
20.0
 30
0.0
 11
-157.5
 21
245.5794621189598
 31
0.0
  0
LINE
  5
1121
330
283A
100
AcDbEntity
  8
SIZE
 62
     0
100
AcDbLine
 10
157.5
 20
20.0
 30
0.0
 11
157.5
 21
245.5794621189598
 31
0.0
  0
LINE
  5
1122
330
283A
100
AcDbEntity
  8
SIZE
 62
     0
100
AcDbLine
 10
-145.5
 20
225.5794621189598
 30
0.0
 11
145.5
 21
225.5794621189598
 31
0.0
  0
INSERT
  5
1123
330
283A
100
AcDbEntity
  8
SIZE
 62
     0
100
AcDbBlockReference
  2
_DOTBLANK
 10
-157.5
 20
225.5794621189598
 30
0.0
 41
12.0
 42
12.0
 43
12.0
 50
180.0
  0
INSERT
  5
1124
330
283A
100
AcDbEntity
  8
SIZE
 62
     0
100
AcDbBlockReference
  2
_DOTBLANK
 10
157.5
 20
225.5794621189598
 30
0.0
 41
12.0
 42
12.0
 43
12.0
  0
INSERT
  5
1125
330
283A
100
AcDbEntity
  8
0
100
AcDbBlockReference
  2
*U13
 10
0.0
 20
0.0
 30
0.0
  0
POINT
  5
1126
330
283A
100
AcDbEntity
  8
DEFPOINTS
 62
     0
100
AcDbPoint
 10
-157.5
 20
0.0
 30
0.0
  0
POINT
  5
1127
330
283A
100
AcDbEntity
  8
DEFPOINTS
 62
     0
100
AcDbPoint
 10
157.5
 20
0.0
 30
0.0
  0
POINT
  5
1128
330
283A
100
AcDbEntity
  8
DEFPOINTS
 62
     0
100
AcDbPoint
 10
157.5
 20
225.5794621189598
 30
0.0
  0
ENDBLK
  5
111F
330
283A
100
AcDbEntity
  8
0
100
AcDbBlockEnd
  0
BLOCK
  5
283D
330
283C
100
AcDbEntity
  8
0
100
AcDbBlockBegin
  2
*U13
 70
     1
 10
0.0
 20
0.0
 30
0.0
  3
*U13
  1

  0
TEXT
  5
1EDD
330
283C
100
AcDbEntity
  8
SIZE
 62
     0
100
AcDbText
 10
-68.57142857142857
 20
235.5794621189599
 30
0.0
 40
64.0
  1
315
 41
0.9
100
AcDbText
  0
ENDBLK
  5
1EDF
330
283C
100
AcDbEntity
  8
0
100
AcDbBlockEnd
  0
BLOCK
  5
283F
330
283E
100
AcDbEntity
  8
0
100
AcDbBlockBegin
  2
*D14
 70
     1
 10
0.0
 20
0.0
 30
0.0
  3
*D14
  1

  0
LINE
  5
11BD
330
283E
100
AcDbEntity
  8
NOTE
 62
     0
100
AcDbLine
 10
-123.4999999999999
 20
-320.0
 30
0.0
 11
-123.4999999999999
 21
-354.9529861856111
 31
0.0
  0
LINE
  5
11BE
330
283E
100
AcDbEntity
  8
NOTE
 62
     0
100
AcDbLine
 10
-133.4999999999998
 20
-331.2126909923287
 30
0.0
 11
-133.4999999999998
 21
-354.9529861856111
 31
0.0
  0
LINE
  5
11BF
330
283E
100
AcDbEntity
  8
NOTE
 62
     0
100
AcDbLine
 10
-111.4999999999999
 20
-334.9529861856112
 30
0.0
 11
-99.4999999999999
 21
-334.9529861856112
 31
0.0
  0
LINE
  5
11C0
330
283E
100
AcDbEntity
  8
NOTE
 62
     0
100
AcDbLine
 10
-145.4999999999998
 20
-334.9529861856112
 30
0.0
 11
-157.4999999999998
 21
-334.9529861856112
 31
0.0
  0
LINE
  5
11C1
330
283E
100
AcDbEntity
  8
NOTE
 62
     0
100
AcDbLine
 10
-123.4999999999999
 20
-334.9529861856112
 30
0.0
 11
-133.4999999999998
 21
-334.9529861856112
 31
0.0
  0
INSERT
  5
11C2
330
283E
100
AcDbEntity
  8
NOTE
 62
     0
100
AcDbBlockReference
  2
_DOTBLANK
 10
-123.4999999999999
 20
-334.9529861856112
 30
0.0
 41
12.0
 42
12.0
 43
12.0
 50
180.0
  0
INSERT
  5
11C3
330
283E
100
AcDbEntity
  8
NOTE
 62
     0
100
AcDbBlockReference
  2
_DOTBLANK
 10
-133.4999999999998
 20
-334.9529861856112
 30
0.0
 41
12.0
 42
12.0
 43
12.0
  0
INSERT
  5
11C4
330
283E
100
AcDbEntity
  8
0
100
AcDbBlockReference
  2
*U15
 10
0.0
 20
0.0
 30
0.0
  0
POINT
  5
11C5
330
283E
100
AcDbEntity
  8
DEFPOINTS
 62
     0
100
AcDbPoint
 10
-123.4999999999999
 20
-300.0
 30
0.0
  0
POINT
  5
11C6
330
283E
100
AcDbEntity
  8
DEFPOINTS
 62
     0
100
AcDbPoint
 10
-133.4999999999998
 20
-311.2126909923287
 30
0.0
  0
POINT
  5
11C7
330
283E
100
AcDbEntity
  8
DEFPOINTS
 62
     0
100
AcDbPoint
 10
-133.4999999999998
 20
-334.9529861856112
 30
0.0
  0
ENDBLK
  5
11BC
330
283E
100
AcDbEntity
  8
0
100
AcDbBlockEnd
  0
BLOCK
  5
2841
330
2840
100
AcDbEntity
  8
0
100
AcDbBlockBegin
  2
*U15
 70
     1
 10
0.0
 20
0.0
 30
0.0
  3
*U15
  1

  0
TEXT
  5
1EE5
330
2840
100
AcDbEntity
  8
NOTE
 62
     0
100
AcDbText
 10
-169.642857142857
 20
-324.9529861856112
 30
0.0
 40
64.0
  1
10
 41
0.9
100
AcDbText
  0
ENDBLK
  5
1EE7
330
2840
100
AcDbEntity
  8
0
100
AcDbBlockEnd
  0
BLOCK
  5
2843
330
2842
100
AcDbEntity
  8
0
100
AcDbBlockBegin
  2
*D16
 70
     1
 10
0.0
 20
0.0
 30
0.0
  3
*D16
  1

  0
LINE
  5
11E7
330
2842
100
AcDbEntity
  8
NOTE
 62
     0
100
AcDbLine
 10
-135.5
 20
-333.2126909923287
 30
0.0
 11
-135.5
 21
-386.2569421441843
 31
0.0
  0
LINE
  5
11E8
330
2842
100
AcDbEntity
  8
NOTE
 62
     0
100
AcDbLine
 10
-123.4999999999999
 20
-320.0
 30
0.0
 11
-123.4999999999999
 21
-386.2569421441843
 31
0.0
  0
LINE
  5
11E9
330
2842
100
AcDbEntity
  8
NOTE
 62
     0
100
AcDbLine
 10
-147.5
 20
-366.2569421441844
 30
0.0
 11
-159.5
 21
-366.2569421441844
 31
0.0
  0
LINE
  5
11EA
330
2842
100
AcDbEntity
  8
NOTE
 62
     0
100
AcDbLine
 10
-111.4999999999999
 20
-366.2569421441844
 30
0.0
 11
-99.4999999999999
 21
-366.2569421441844
 31
0.0
  0
LINE
  5
11EB
330
2842
100
AcDbEntity
  8
NOTE
 62
     0
100
AcDbLine
 10
-135.5
 20
-366.2569421441844
 30
0.0
 11
-123.4999999999999
 21
-366.2569421441844
 31
0.0
  0
INSERT
  5
11EC
330
2842
100
AcDbEntity
  8
NOTE
 62
     0
100
AcDbBlockReference
  2
_DOTBLANK
 10
-135.5
 20
-366.2569421441844
 30
0.0
 41
12.0
 42
12.0
 43
12.0
  0
INSERT
  5
11ED
330
2842
100
AcDbEntity
  8
NOTE
 62
     0
100
AcDbBlockReference
  2
_DOTBLANK
 10
-123.4999999999999
 20
-366.2569421441844
 30
0.0
 41
12.0
 42
12.0
 43
12.0
 50
180.0
  0
INSERT
  5
11EE
330
2842
100
AcDbEntity
  8
0
100
AcDbBlockReference
  2
*U17
 10
0.0
 20
0.0
 30
0.0
  0
POINT
  5
11EF
330
2842
100
AcDbEntity
  8
DEFPOINTS
 62
     0
100
AcDbPoint
 10
-135.5
 20
-313.2126909923287
 30
0.0
  0
POINT
  5
11F0
330
2842
100
AcDbEntity
  8
DEFPOINTS
 62
     0
100
AcDbPoint
 10
-123.4999999999999
 20
-300.0
 30
0.0
  0
POINT
  5
11F1
330
2842
100
AcDbEntity
  8
DEFPOINTS
 62
     0
100
AcDbPoint
 10
-123.4999999999999
 20
-366.2569421441844
 30
0.0
  0
ENDBLK
  5
11E6
330
2842
100
AcDbEntity
  8
0
100
AcDbBlockEnd
  0
BLOCK
  5
2845
330
2844
100
AcDbEntity
  8
0
100
AcDbBlockBegin
  2
*U17
 70
     1
 10
0.0
 20
0.0
 30
0.0
  3
*U17
  1

  0
TEXT
  5
1EE9
330
2844
100
AcDbEntity
  8
NOTE
 62
     0
100
AcDbText
 10
-170.642857142857
 20
-356.2569421441843
 30
0.0
 40
64.0
  1
12
 41
0.9
100
AcDbText
  0
ENDBLK
  5
1EEB
330
2844
100
AcDbEntity
  8
0
100
AcDbBlockEnd
  0
BLOCK
  5
2847
330
2846
100
AcDbEntity
  8
0
100
AcDbBlockBegin
  2
*D18
 70
     1
 10
0.0
 20
0.0
 30
0.0
  3
*D18
  1

  0
LINE
  5
11F6
330
2846
100
AcDbEntity
  8
NOTE
 62
     0
100
AcDbLine
 10
-123.4999999999999
 20
-320.0
 30
0.0
 11
-123.4999999999999
 21
-583.8286022818904
 31
0.0
  0
LINE
  5
11F7
330
2846
100
AcDbEntity
  8
NOTE
 62
     0
100
AcDbLine
 10
123.5
 20
-320.0
 30
0.0
 11
123.5
 21
-583.8286022818904
 31
0.0
  0
LINE
  5
11F8
330
2846
100
AcDbEntity
  8
NOTE
 62
     0
100
AcDbLine
 10
-111.4999999999999
 20
-563.8286022818904
 30
0.0
 11
111.5
 21
-563.8286022818904
 31
0.0
  0
INSERT
  5
11F9
330
2846
100
AcDbEntity
  8
NOTE
 62
     0
100
AcDbBlockReference
  2
_DOTBLANK
 10
-123.4999999999999
 20
-563.8286022818904
 30
0.0
 41
12.0
 42
12.0
 43
12.0
 50
180.0
  0
INSERT
  5
11FA
330
2846
100
AcDbEntity
  8
NOTE
 62
     0
100
AcDbBlockReference
  2
_DOTBLANK
 10
123.5
 20
-563.8286022818904
 30
0.0
 41
12.0
 42
12.0
 43
12.0
  0
INSERT
  5
11FB
330
2846
100
AcDbEntity
  8
0
100
AcDbBlockReference
  2
*U19
 10
0.0
 20
0.0
 30
0.0
  0
POINT
  5
11FC
330
2846
100
AcDbEntity
  8
DEFPOINTS
 62
     0
100
AcDbPoint
 10
-123.4999999999999
 20
-300.0
 30
0.0
  0
POINT
  5
11FD
330
2846
100
AcDbEntity
  8
DEFPOINTS
 62
     0
100
AcDbPoint
 10
123.5
 20
-300.0
 30
0.0
  0
POINT
  5
11FE
330
2846
100
AcDbEntity
  8
DEFPOINTS
 62
     0
100
AcDbPoint
 10
123.5
 20
-563.8286022818904
 30
0.0
  0
ENDBLK
  5
11F5
330
2846
100
AcDbEntity
  8
0
100
AcDbBlockEnd
  0
BLOCK
  5
2849
330
2848
100
AcDbEntity
  8
0
100
AcDbBlockBegin
  2
*U19
 70
     1
 10
0.0
 20
0.0
 30
0.0
  3
*U19
  1

  0
TEXT
  5
1EED
330
2848
100
AcDbEntity
  8
NOTE
 62
     0
100
AcDbText
 10
-74.05714285714281
 20
-553.8286022818904
 30
0.0
 40
64.0
  1
247
 41
0.9
100
AcDbText
  0
ENDBLK
  5
1EEF
330
2848
100
AcDbEntity
  8
0
100
AcDbBlockEnd
  0
BLOCK
  5
284B
330
284A
100
AcDbEntity
  8
0
100
AcDbBlockBegin
  2
*D20
 70
     1
 10
0.0
 20
0.0
 30
0.0
  3
*D20
  1

  0
LINE
  5
1284
330
284A
100
AcDbEntity
  8
NOTE
 62
     0
100
AcDbLine
 10
-123.5
 20
12.0
 30
0.0
 11
-123.5
 21
71.83630134534229
 31
0.0
  0
LINE
  5
1285
330
284A
100
AcDbEntity
  8
NOTE
 62
     0
100
AcDbLine
 10
123.5
 20
12.0
 30
0.0
 11
123.5
 21
71.83630134534229
 31
0.0
  0
LINE
  5
1286
330
284A
100
AcDbEntity
  8
NOTE
 62
     0
100
AcDbLine
 10
-111.5
 20
51.83630134534229
 30
0.0
 11
111.5
 21
51.83630134534229
 31
0.0
  0
INSERT
  5
1287
330
284A
100
AcDbEntity
  8
NOTE
 62
     0
100
AcDbBlockReference
  2
_DOTBLANK
 10
-123.5
 20
51.83630134534229
 30
0.0
 41
12.0
 42
12.0
 43
12.0
 50
180.0
  0
INSERT
  5
1288
330
284A
100
AcDbEntity
  8
NOTE
 62
     0
100
AcDbBlockReference
  2
_DOTBLANK
 10
123.5
 20
51.83630134534229
 30
0.0
 41
12.0
 42
12.0
 43
12.0
  0
INSERT
  5
1289
330
284A
100
AcDbEntity
  8
0
100
AcDbBlockReference
  2
*U21
 10
0.0
 20
0.0
 30
0.0
  0
POINT
  5
128A
330
284A
100
AcDbEntity
  8
DEFPOINTS
 62
     0
100
AcDbPoint
 10
-123.5
 20
-8.0
 30
0.0
  0
POINT
  5
128B
330
284A
100
AcDbEntity
  8
DEFPOINTS
 62
     0
100
AcDbPoint
 10
123.5
 20
-8.0
 30
0.0
  0
POINT
  5
128C
330
284A
100
AcDbEntity
  8
DEFPOINTS
 62
     0
100
AcDbPoint
 10
123.5
 20
51.83630134534229
 30
0.0
  0
ENDBLK
  5
1283
330
284A
100
AcDbEntity
  8
0
100
AcDbBlockEnd
  0
BLOCK
  5
284D
330
284C
100
AcDbEntity
  8
0
100
AcDbBlockBegin
  2
*U21
 70
     1
 10
0.0
 20
0.0
 30
0.0
  3
*U21
  1

  0
TEXT
  5
1EF1
330
284C
100
AcDbEntity
  8
NOTE
 62
     0
100
AcDbText
 10
-74.05714285714283
 20
61.83630134534229
 30
0.0
 40
64.0
  1
247
 41
0.9
100
AcDbText
  0
ENDBLK
  5
1EF3
330
284C
100
AcDbEntity
  8
0
100
AcDbBlockEnd
  0
BLOCK
  5
284F
330
284E
100
AcDbEntity
  8
0
100
AcDbBlockBegin
  2
*D22
 70
     1
 10
0.0
 20
0.0
 30
0.0
  3
*D22
  1

  0
LINE
  5
1414
330
284E
100
AcDbEntity
  8
SIZE
 62
     0
100
AcDbLine
 10
-22313.11521613997
 20
7365.702971374808
 30
0.0
 11
-22313.11521613997
 21
7217.685576144207
 31
0.0
  0
LINE
  5
1415
330
284E
100
AcDbEntity
  8
SIZE
 62
     0
100
AcDbLine
 10
-22044.11521613997
 20
7365.702971374808
 30
0.0
 11
-22044.11521613997
 21
7217.685576144207
 31
0.0
  0
LINE
  5
1416
330
284E
100
AcDbEntity
  8
SIZE
 62
     0
100
AcDbLine
 10
-22301.11521613997
 20
7237.685576144207
 30
0.0
 11
-22056.11521613997
 21
7237.685576144207
 31
0.0
  0
INSERT
  5
1417
330
284E
100
AcDbEntity
  8
SIZE
 62
     0
100
AcDbBlockReference
  2
_DOTBLANK
 10
-22313.11521613997
 20
7237.685576144207
 30
0.0
 41
12.0
 42
12.0
 43
12.0
 50
180.0
  0
INSERT
  5
1418
330
284E
100
AcDbEntity
  8
SIZE
 62
     0
100
AcDbBlockReference
  2
_DOTBLANK
 10
-22044.11521613997
 20
7237.685576144207
 30
0.0
 41
12.0
 42
12.0
 43
12.0
  0
INSERT
  5
1419
330
284E
100
AcDbEntity
  8
0
100
AcDbBlockReference
  2
*U23
 10
0.0
 20
0.0
 30
0.0
  0
POINT
  5
141A
330
284E
100
AcDbEntity
  8
DEFPOINTS
 62
     0
100
AcDbPoint
 10
-22313.11521613997
 20
7385.702971374808
 30
0.0
  0
POINT
  5
141B
330
284E
100
AcDbEntity
  8
DEFPOINTS
 62
     0
100
AcDbPoint
 10
-22044.11521613997
 20
7385.702971374808
 30
0.0
  0
POINT
  5
141C
330
284E
100
AcDbEntity
  8
DEFPOINTS
 62
     0
100
AcDbPoint
 10
-22044.11521613997
 20
7237.685576144207
 30
0.0
  0
ENDBLK
  5
141D
330
284E
100
AcDbEntity
  8
0
100
AcDbBlockEnd
  0
BLOCK
  5
2851
330
2850
100
AcDbEntity
  8
0
100
AcDbBlockBegin
  2
*U23
 70
     1
 10
0.0
 20
0.0
 30
0.0
  3
*U23
  1

  0
TEXT
  5
1EF9
330
2850
100
AcDbEntity
  8
SIZE
 62
     0
100
AcDbText
 10
-22251.30093042568
 20
7247.685576144205
 30
0.0
 40
64.0
  1
269
 41
0.9
100
AcDbText
  0
ENDBLK
  5
1EFB
330
2850
100
AcDbEntity
  8
0
100
AcDbBlockEnd
  0
BLOCK
  5
2853
330
2852
100
AcDbEntity
  8
0
100
AcDbBlockBegin
  2
*D24
 70
     1
 10
0.0
 20
0.0
 30
0.0
  3
*D24
  1

  0
LINE
  5
1420
330
2852
100
AcDbEntity
  8
SIZE
  6
Continuous
 62
     0
100
AcDbLine
 10
-22035.11521613997
 20
7385.702971374808
 30
0.0
 11
-21873.97193165959
 21
7385.702971374808
 31
0.0
  0
LINE
  5
1421
330
2852
100
AcDbEntity
  8
SIZE
  6
Continuous
 62
     0
100
AcDbLine
 10
-22001.11521613997
 20
7685.702971374808
 30
0.0
 11
-21873.97193165959
 21
7685.702971374808
 31
0.0
  0
LINE
  5
1422
330
2852
100
AcDbEntity
  8
SIZE
  6
Continuous
 62
     0
100
AcDbLine
 10
-21893.97193165959
 20
7397.702971374808
 30
0.0
 11
-21893.97193165959
 21
7673.702971374808
 31
0.0
  0
INSERT
  5
1423
330
2852
100
AcDbEntity
  8
SIZE
  6
Continuous
 62
     0
100
AcDbBlockReference
  2
_DOTBLANK
 10
-21893.97193165959
 20
7385.702971374808
 30
0.0
 41
12.0
 42
12.0
 43
12.0
 50
270.0
  0
INSERT
  5
1424
330
2852
100
AcDbEntity
  8
SIZE
  6
Continuous
 62
     0
100
AcDbBlockReference
  2
_DOTBLANK
 10
-21893.97193165959
 20
7685.702971374808
 30
0.0
 41
12.0
 42
12.0
 43
12.0
 50
90.0
  0
INSERT
  5
1425
330
2852
100
AcDbEntity
  8
0
100
AcDbBlockReference
  2
*U25
 10
0.0
 20
0.0
 30
0.0
  0
POINT
  5
1426
330
2852
100
AcDbEntity
  8
DEFPOINTS
  6
Continuous
 62
     0
100
AcDbPoint
 10
-22055.11521613997
 20
7385.702971374808
 30
0.0
  0
POINT
  5
1427
330
2852
100
AcDbEntity
  8
DEFPOINTS
  6
Continuous
 62
     0
100
AcDbPoint
 10
-22021.11521613997
 20
7685.702971374808
 30
0.0
  0
POINT
  5
1428
330
2852
100
AcDbEntity
  8
DEFPOINTS
  6
Continuous
 62
     0
100
AcDbPoint
 10
-21893.97193165959
 20
7685.702971374808
 30
0.0
  0
ENDBLK
  5
1429
330
2852
100
AcDbEntity
  8
0
100
AcDbBlockEnd
  0
BLOCK
  5
2855
330
2854
100
AcDbEntity
  8
0
100
AcDbBlockBegin
  2
*U25
 70
     1
 10
0.0
 20
0.0
 30
0.0
  3
*U25
  1

  0
TEXT
  5
1EFD
330
2854
100
AcDbEntity
  8
SIZE
 62
     0
100
AcDbText
 10
-21903.97193165959
 20
7461.645828517662
 30
0.0
 40
64.0
  1
300
 50
90.0
 41
0.9
100
AcDbText
  0
ENDBLK
  5
1EFF
330
2854
100
AcDbEntity
  8
0
100
AcDbBlockEnd
  0
BLOCK
  5
2857
330
2856
100
AcDbEntity
  8
0
100
AcDbBlockBegin
  2
*D26
 70
     1
 10
0.0
 20
0.0
 30
0.0
  3
*D26
  1

  0
LINE
  5
142C
330
2856
100
AcDbEntity
  8
SIZE
 62
     0
100
AcDbLine
 10
-22318.61521613997
 20
7718.167454177002
 30
0.0
 11
-22318.61521613997
 21
7822.154659243358
 31
0.0
  0
LINE
  5
142D
330
2856
100
AcDbEntity
  8
SIZE
 62
     0
100
AcDbLine
 10
-22038.61521613997
 20
7718.167454177002
 30
0.0
 11
-22038.61521613997
 21
7822.154659243358
 31
0.0
  0
LINE
  5
142E
330
2856
100
AcDbEntity
  8
SIZE
 62
     0
100
AcDbLine
 10
-22306.61521613997
 20
7802.154659243358
 30
0.0
 11
-22050.61521613997
 21
7802.154659243358
 31
0.0
  0
INSERT
  5
142F
330
2856
100
AcDbEntity
  8
SIZE
 62
     0
100
AcDbBlockReference
  2
_DOTBLANK
 10
-22318.61521613997
 20
7802.154659243358
 30
0.0
 41
12.0
 42
12.0
 43
12.0
 50
180.0
  0
INSERT
  5
1430
330
2856
100
AcDbEntity
  8
SIZE
 62
     0
100
AcDbBlockReference
  2
_DOTBLANK
 10
-22038.61521613997
 20
7802.154659243358
 30
0.0
 41
12.0
 42
12.0
 43
12.0
  0
INSERT
  5
1431
330
2856
100
AcDbEntity
  8
0
100
AcDbBlockReference
  2
*U27
 10
0.0
 20
0.0
 30
0.0
  0
POINT
  5
1432
330
2856
100
AcDbEntity
  8
DEFPOINTS
 62
     0
100
AcDbPoint
 10
-22318.61521613997
 20
7698.167454177002
 30
0.0
  0
POINT
  5
1433
330
2856
100
AcDbEntity
  8
DEFPOINTS
 62
     0
100
AcDbPoint
 10
-22038.61521613997
 20
7698.167454177002
 30
0.0
  0
POINT
  5
1434
330
2856
100
AcDbEntity
  8
DEFPOINTS
 62
     0
100
AcDbPoint
 10
-22038.61521613997
 20
7802.154659243358
 30
0.0
  0
ENDBLK
  5
1435
330
2856
100
AcDbEntity
  8
0
100
AcDbBlockEnd
  0
BLOCK
  5
2859
330
2858
100
AcDbEntity
  8
0
100
AcDbBlockBegin
  2
*U27
 70
     1
 10
0.0
 20
0.0
 30
0.0
  3
*U27
  1

  0
TEXT
  5
1F01
330
2858
100
AcDbEntity
  8
SIZE
 62
     0
100
AcDbText
 10
-22252.6723589971
 20
7812.154659243358
 30
0.0
 40
64.0
  1
280
 41
0.9
100
AcDbText
  0
ENDBLK
  5
1F03
330
2858
100
AcDbEntity
  8
0
100
AcDbBlockEnd
  0
BLOCK
  5
285B
330
285A
100
AcDbEntity
  8
0
100
AcDbBlockBegin
  2
*D28
 70
     1
 10
0.0
 20
0.0
 30
0.0
  3
*D28
  1

  0
LINE
  5
1438
330
285A
100
AcDbEntity
  8
SIZE
 62
     0
100
AcDbLine
 10
-22336.11521613997
 20
7705.702971374808
 30
0.0
 11
-22336.11521613997
 21
7931.282433493766
 31
0.0
  0
LINE
  5
1439
330
285A
100
AcDbEntity
  8
SIZE
 62
     0
100
AcDbLine
 10
-22021.11521613997
 20
7705.702971374808
 30
0.0
 11
-22021.11521613997
 21
7931.282433493766
 31
0.0
  0
LINE
  5
143A
330
285A
100
AcDbEntity
  8
SIZE
 62
     0
100
AcDbLine
 10
-22324.11521613997
 20
7911.282433493766
 30
0.0
 11
-22033.11521613997
 21
7911.282433493766
 31
0.0
  0
INSERT
  5
143B
330
285A
100
AcDbEntity
  8
SIZE
 62
     0
100
AcDbBlockReference
  2
_DOTBLANK
 10
-22336.11521613997
 20
7911.282433493766
 30
0.0
 41
12.0
 42
12.0
 43
12.0
 50
180.0
  0
INSERT
  5
143C
330
285A
100
AcDbEntity
  8
SIZE
 62
     0
100
AcDbBlockReference
  2
_DOTBLANK
 10
-22021.11521613997
 20
7911.282433493766
 30
0.0
 41
12.0
 42
12.0
 43
12.0
  0
INSERT
  5
143D
330
285A
100
AcDbEntity
  8
0
100
AcDbBlockReference
  2
*U29
 10
0.0
 20
0.0
 30
0.0
  0
POINT
  5
143E
330
285A
100
AcDbEntity
  8
DEFPOINTS
 62
     0
100
AcDbPoint
 10
-22336.11521613997
 20
7685.702971374808
 30
0.0
  0
POINT
  5
143F
330
285A
100
AcDbEntity
  8
DEFPOINTS
 62
     0
100
AcDbPoint
 10
-22021.11521613997
 20
7685.702971374808
 30
0.0
  0
POINT
  5
1440
330
285A
100
AcDbEntity
  8
DEFPOINTS
 62
     0
100
AcDbPoint
 10
-22021.11521613997
 20
7911.282433493766
 30
0.0
  0
ENDBLK
  5
1441
330
285A
100
AcDbEntity
  8
0
100
AcDbBlockEnd
  0
BLOCK
  5
285D
330
285C
100
AcDbEntity
  8
0
100
AcDbBlockBegin
  2
*U29
 70
     1
 10
0.0
 20
0.0
 30
0.0
  3
*U29
  1

  0
TEXT
  5
1F05
330
285C
100
AcDbEntity
  8
SIZE
 62
     0
100
AcDbText
 10
-22247.18664471139
 20
7921.282433493766
 30
0.0
 40
64.0
  1
315
 41
0.9
100
AcDbText
  0
ENDBLK
  5
1F07
330
285C
100
AcDbEntity
  8
0
100
AcDbBlockEnd
  0
BLOCK
  5
285F
330
285E
100
AcDbEntity
  8
0
100
AcDbBlockBegin
  2
*D30
 70
     1
 10
0.0
 20
0.0
 30
0.0
  3
*D30
  1

  0
LINE
  5
166B
330
285E
100
AcDbEntity
  8
SIZE
 62
     0
100
AcDbLine
 10
-134.5
 20
-320.0
 30
0.0
 11
-134.5
 21
-468.0173952306001
 31
0.0
  0
LINE
  5
166C
330
285E
100
AcDbEntity
  8
SIZE
 62
     0
100
AcDbLine
 10
134.5
 20
-320.0
 30
0.0
 11
134.5
 21
-468.0173952306001
 31
0.0
  0
LINE
  5
166D
330
285E
100
AcDbEntity
  8
SIZE
 62
     0
100
AcDbLine
 10
-122.5
 20
-448.0173952306
 30
0.0
 11
122.5
 21
-448.0173952306
 31
0.0
  0
INSERT
  5
166E
330
285E
100
AcDbEntity
  8
SIZE
 62
     0
100
AcDbBlockReference
  2
_DOTBLANK
 10
-134.5
 20
-448.0173952306
 30
0.0
 41
12.0
 42
12.0
 43
12.0
 50
180.0
  0
INSERT
  5
166F
330
285E
100
AcDbEntity
  8
SIZE
 62
     0
100
AcDbBlockReference
  2
_DOTBLANK
 10
134.5
 20
-448.0173952306
 30
0.0
 41
12.0
 42
12.0
 43
12.0
  0
INSERT
  5
1670
330
285E
100
AcDbEntity
  8
0
100
AcDbBlockReference
  2
*U31
 10
0.0
 20
0.0
 30
0.0
  0
POINT
  5
1671
330
285E
100
AcDbEntity
  8
DEFPOINTS
 62
     0
100
AcDbPoint
 10
-134.5
 20
-300.0
 30
0.0
  0
POINT
  5
1672
330
285E
100
AcDbEntity
  8
DEFPOINTS
 62
     0
100
AcDbPoint
 10
134.5
 20
-300.0
 30
0.0
  0
POINT
  5
1673
330
285E
100
AcDbEntity
  8
DEFPOINTS
 62
     0
100
AcDbPoint
 10
134.5
 20
-448.0173952306
 30
0.0
  0
ENDBLK
  5
14A7
330
285E
100
AcDbEntity
  8
0
100
AcDbBlockEnd
  0
BLOCK
  5
2861
330
2860
100
AcDbEntity
  8
0
100
AcDbBlockBegin
  2
*U31
 70
     1
 10
0.0
 20
0.0
 30
0.0
  3
*U31
  1

  0
TEXT
  5
1F09
330
2860
100
AcDbEntity
  8
SIZE
 62
     0
100
AcDbText
 10
-72.68571428571426
 20
-438.0173952306002
 30
0.0
 40
64.0
  1
269
 41
0.9
100
AcDbText
  0
ENDBLK
  5
1F0B
330
2860
100
AcDbEntity
  8
0
100
AcDbBlockEnd
  0
BLOCK
  5
2863
330
2862
100
AcDbEntity
  8
0
100
AcDbBlockBegin
  2
*D32
 70
     1
 10
0.0
 20
0.0
 30
0.0
  3
*D32
  1

  0
LINE
  5
1674
330
2862
100
AcDbEntity
  8
SIZE
  6
Continuous
 62
     0
100
AcDbLine
 10
143.5
 20
-300.0
 30
0.0
 11
304.6432844803784
 21
-300.0
 31
0.0
  0
LINE
  5
1675
330
2862
100
AcDbEntity
  8
SIZE
  6
Continuous
 62
     0
100
AcDbLine
 10
177.5
 20
-0.0000000000000057
 30
0.0
 11
304.6432844803785
 21
-0.0000000000000417
 31
0.0
  0
LINE
  5
1676
330
2862
100
AcDbEntity
  8
SIZE
  6
Continuous
 62
     0
100
AcDbLine
 10
284.6432844803784
 20
-288.0000000000001
 30
0.0
 11
284.6432844803785
 21
-12.00000000000003
 31
0.0
  0
INSERT
  5
1677
330
2862
100
AcDbEntity
  8
SIZE
  6
Continuous
 62
     0
100
AcDbBlockReference
  2
_DOTBLANK
 10
284.6432844803784
 20
-300.0
 30
0.0
 41
12.0
 42
12.0
 43
12.0
 50
270.0
  0
INSERT
  5
1678
330
2862
100
AcDbEntity
  8
SIZE
  6
Continuous
 62
     0
100
AcDbBlockReference
  2
_DOTBLANK
 10
284.6432844803785
 20
-0.000000000000036
 30
0.0
 41
12.0
 42
12.0
 43
12.0
 50
90.0
  0
INSERT
  5
1679
330
2862
100
AcDbEntity
  8
0
100
AcDbBlockReference
  2
*U33
 10
0.0
 20
0.0
 30
0.0
  0
POINT
  5
167A
330
2862
100
AcDbEntity
  8
DEFPOINTS
  6
Continuous
 62
     0
100
AcDbPoint
 10
123.5
 20
-300.0
 30
0.0
  0
POINT
  5
167B
330
2862
100
AcDbEntity
  8
DEFPOINTS
  6
Continuous
 62
     0
100
AcDbPoint
 10
157.5
 20
0.0
 30
0.0
  0
POINT
  5
167C
330
2862
100
AcDbEntity
  8
DEFPOINTS
  6
Continuous
 62
     0
100
AcDbPoint
 10
284.6432844803785
 20
-0.000000000000036
 30
0.0
  0
ENDBLK
  5
14B3
330
2862
100
AcDbEntity
  8
0
100
AcDbBlockEnd
  0
BLOCK
  5
2865
330
2864
100
AcDbEntity
  8
0
100
AcDbBlockBegin
  2
*U33
 70
     1
 10
0.0
 20
0.0
 30
0.0
  3
*U33
  1

  0
TEXT
  5
1F0D
330
2864
100
AcDbEntity
  8
SIZE
 62
     0
100
AcDbText
 10
274.6432844803785
 20
-224.0571428571429
 30
0.0
 40
64.0
  1
300
 50
90.0
 41
0.9
100
AcDbText
  0
ENDBLK
  5
1F0F
330
2864
100
AcDbEntity
  8
0
100
AcDbBlockEnd
  0
BLOCK
  5
2867
330
2866
100
AcDbEntity
  8
0
100
AcDbBlockBegin
  2
*D34
 70
     1
 10
0.0
 20
0.0
 30
0.0
  3
*D34
  1

  0
LINE
  5
167D
330
2866
100
AcDbEntity
  8
SIZE
 62
     0
100
AcDbLine
 10
-140.0
 20
32.46448280219375
 30
0.0
 11
-140.0
 21
136.4516878685507
 31
0.0
  0
LINE
  5
167E
330
2866
100
AcDbEntity
  8
SIZE
 62
     0
100
AcDbLine
 10
140.0
 20
32.46448280219375
 30
0.0
 11
140.0
 21
136.4516878685507
 31
0.0
  0
LINE
  5
167F
330
2866
100
AcDbEntity
  8
SIZE
 62
     0
100
AcDbLine
 10
-128.0
 20
116.4516878685508
 30
0.0
 11
128.0
 21
116.4516878685508
 31
0.0
  0
INSERT
  5
1680
330
2866
100
AcDbEntity
  8
SIZE
 62
     0
100
AcDbBlockReference
  2
_DOTBLANK
 10
-140.0
 20
116.4516878685508
 30
0.0
 41
12.0
 42
12.0
 43
12.0
 50
180.0
  0
INSERT
  5
1681
330
2866
100
AcDbEntity
  8
SIZE
 62
     0
100
AcDbBlockReference
  2
_DOTBLANK
 10
140.0
 20
116.4516878685508
 30
0.0
 41
12.0
 42
12.0
 43
12.0
  0
INSERT
  5
1682
330
2866
100
AcDbEntity
  8
0
100
AcDbBlockReference
  2
*U35
 10
0.0
 20
0.0
 30
0.0
  0
POINT
  5
1683
330
2866
100
AcDbEntity
  8
DEFPOINTS
 62
     0
100
AcDbPoint
 10
-140.0
 20
12.46448280219374
 30
0.0
  0
POINT
  5
1684
330
2866
100
AcDbEntity
  8
DEFPOINTS
 62
     0
100
AcDbPoint
 10
140.0
 20
12.46448280219374
 30
0.0
  0
POINT
  5
1685
330
2866
100
AcDbEntity
  8
DEFPOINTS
 62
     0
100
AcDbPoint
 10
140.0
 20
116.4516878685508
 30
0.0
  0
ENDBLK
  5
14BF
330
2866
100
AcDbEntity
  8
0
100
AcDbBlockEnd
  0
BLOCK
  5
2869
330
2868
100
AcDbEntity
  8
0
100
AcDbBlockBegin
  2
*U35
 70
     1
 10
0.0
 20
0.0
 30
0.0
  3
*U35
  1

  0
TEXT
  5
1F11
330
2868
100
AcDbEntity
  8
SIZE
 62
     0
100
AcDbText
 10
-74.05714285714283
 20
126.4516878685507
 30
0.0
 40
64.0
  1
280
 41
0.9
100
AcDbText
  0
ENDBLK
  5
1F13
330
2868
100
AcDbEntity
  8
0
100
AcDbBlockEnd
  0
BLOCK
  5
286B
330
286A
100
AcDbEntity
  8
0
100
AcDbBlockBegin
  2
*D36
 70
     1
 10
0.0
 20
0.0
 30
0.0
  3
*D36
  1

  0
LINE
  5
1686
330
286A
100
AcDbEntity
  8
SIZE
 62
     0
100
AcDbLine
 10
-157.5
 20
20.0
 30
0.0
 11
-157.5
 21
245.5794621189598
 31
0.0
  0
LINE
  5
1687
330
286A
100
AcDbEntity
  8
SIZE
 62
     0
100
AcDbLine
 10
157.5
 20
20.0
 30
0.0
 11
157.5
 21
245.5794621189598
 31
0.0
  0
LINE
  5
1688
330
286A
100
AcDbEntity
  8
SIZE
 62
     0
100
AcDbLine
 10
-145.5
 20
225.5794621189598
 30
0.0
 11
145.5
 21
225.5794621189598
 31
0.0
  0
INSERT
  5
1689
330
286A
100
AcDbEntity
  8
SIZE
 62
     0
100
AcDbBlockReference
  2
_DOTBLANK
 10
-157.5
 20
225.5794621189598
 30
0.0
 41
12.0
 42
12.0
 43
12.0
 50
180.0
  0
INSERT
  5
168A
330
286A
100
AcDbEntity
  8
SIZE
 62
     0
100
AcDbBlockReference
  2
_DOTBLANK
 10
157.5
 20
225.5794621189598
 30
0.0
 41
12.0
 42
12.0
 43
12.0
  0
INSERT
  5
168B
330
286A
100
AcDbEntity
  8
0
100
AcDbBlockReference
  2
*U37
 10
0.0
 20
0.0
 30
0.0
  0
POINT
  5
168C
330
286A
100
AcDbEntity
  8
DEFPOINTS
 62
     0
100
AcDbPoint
 10
-157.5
 20
0.0
 30
0.0
  0
POINT
  5
168D
330
286A
100
AcDbEntity
  8
DEFPOINTS
 62
     0
100
AcDbPoint
 10
157.5
 20
0.0
 30
0.0
  0
POINT
  5
168E
330
286A
100
AcDbEntity
  8
DEFPOINTS
 62
     0
100
AcDbPoint
 10
157.5
 20
225.5794621189598
 30
0.0
  0
ENDBLK
  5
14CB
330
286A
100
AcDbEntity
  8
0
100
AcDbBlockEnd
  0
BLOCK
  5
286D
330
286C
100
AcDbEntity
  8
0
100
AcDbBlockBegin
  2
*U37
 70
     1
 10
0.0
 20
0.0
 30
0.0
  3
*U37
  1

  0
TEXT
  5
1F15
330
286C
100
AcDbEntity
  8
SIZE
 62
     0
100
AcDbText
 10
-68.57142857142857
 20
235.5794621189598
 30
0.0
 40
64.0
  1
315
 41
0.9
100
AcDbText
  0
ENDBLK
  5
1F17
330
286C
100
AcDbEntity
  8
0
100
AcDbBlockEnd
  0
BLOCK
  5
286F
330
286E
100
AcDbEntity
  8
0
100
AcDbBlockBegin
  2
*U38
 70
     1
 10
0.0
 20
0.0
 30
0.0
  3
*U38
  1

  0
ENDBLK
  5
15CF
330
286E
100
AcDbEntity
  8
0
100
AcDbBlockEnd
  0
BLOCK
  5
2871
330
2870
100
AcDbEntity
  8
0
100
AcDbBlockBegin
  2
*D39
 70
     1
 10
0.0
 20
0.0
 30
0.0
  3
*D39
  1

  0
LINE
  5
1692
330
2870
100
AcDbEntity
  8
SIZE
 62
     0
100
AcDbLine
 10
-25844.51823276502
 20
7685.702971374808
 30
0.0
 11
-25981.04465488371
 21
7685.702971374808
 31
0.0
  0
LINE
  5
1693
330
2870
100
AcDbEntity
  8
SIZE
 62
     0
100
AcDbLine
 10
-25844.51823276502
 20
7677.702971374808
 30
0.0
 11
-25981.04465488371
 21
7677.702971374808
 31
0.0
  0
LINE
  5
1694
330
2870
100
AcDbEntity
  8
SIZE
 62
     0
100
AcDbLine
 10
-25961.04465488371
 20
7697.702971374808
 30
0.0
 11
-25961.04465488371
 21
7709.702971374809
 31
0.0
  0
LINE
  5
1695
330
2870
100
AcDbEntity
  8
SIZE
 62
     0
100
AcDbLine
 10
-25961.04465488371
 20
7665.70297137481
 30
0.0
 11
-25961.04465488371
 21
7595.302971374808
 31
0.0
  0
INSERT
  5
1696
330
2870
100
AcDbEntity
  8
SIZE
 62
     0
100
AcDbBlockReference
  2
_DOTBLANK
 10
-25961.04465488371
 20
7685.702971374808
 30
0.0
 41
12.0
 42
12.0
 43
12.0
 50
270.0
  0
INSERT
  5
1697
330
2870
100
AcDbEntity
  8
SIZE
 62
     0
100
AcDbBlockReference
  2
_DOTBLANK
 10
-25961.04465488371
 20
7677.702971374808
 30
0.0
 41
12.0
 42
12.0
 43
12.0
 50
90.0
  0
INSERT
  5
1698
330
2870
100
AcDbEntity
  8
0
100
AcDbBlockReference
  2
*U40
 10
0.0
 20
0.0
 30
0.0
  0
POINT
  5
1699
330
2870
100
AcDbEntity
  8
DEFPOINTS
 62
     0
100
AcDbPoint
 10
-25824.51823276501
 20
7685.702971374808
 30
0.0
  0
POINT
  5
169A
330
2870
100
AcDbEntity
  8
DEFPOINTS
 62
     0
100
AcDbPoint
 10
-25824.51823276501
 20
7677.702971374808
 30
0.0
  0
POINT
  5
169B
330
2870
100
AcDbEntity
  8
DEFPOINTS
 62
     0
100
AcDbPoint
 10
-25961.04465488371
 20
7677.702971374808
 30
0.0
  0
ENDBLK
  5
169C
330
2870
100
AcDbEntity
  8
0
100
AcDbBlockEnd
  0
BLOCK
  5
2873
330
2872
100
AcDbEntity
  8
0
100
AcDbBlockBegin
  2
*U40
 70
     1
 10
0.0
 20
0.0
 30
0.0
  3
*U40
  1

  0
TEXT
  5
1F19
330
2872
100
AcDbEntity
  8
SIZE
 62
     0
100
AcDbText
 10
-25971.04465488371
 20
7605.302971374804
 30
0.0
 40
64.0
  1
8
 50
90.0
 41
0.9
100
AcDbText
  0
ENDBLK
  5
1F1B
330
2872
100
AcDbEntity
  8
0
100
AcDbBlockEnd
  0
BLOCK
  5
2875
330
2874
100
AcDbEntity
  8
0
100
AcDbBlockBegin
  2
*D41
 70
     1
 10
0.0
 20
0.0
 30
0.0
  3
*D41
  1

  0
LINE
  5
169F
330
2874
100
AcDbEntity
  8
SIZE
 62
     0
100
AcDbLine
 10
-25512.51823276502
 20
7385.702971374808
 30
0.0
 11
-25362.37494828464
 21
7385.702971374808
 31
0.0
  0
LINE
  5
16A0
330
2874
100
AcDbEntity
  8
SIZE
 62
     0
100
AcDbLine
 10
-25523.51823276501
 20
7373.702971374808
 30
0.0
 11
-25362.37494828464
 21
7373.702971374808
 31
0.0
  0
LINE
  5
16A1
330
2874
100
AcDbEntity
  8
SIZE
 62
     0
100
AcDbLine
 10
-25382.37494828464
 20
7397.702971374808
 30
0.0
 11
-25382.37494828464
 21
7409.70297137481
 31
0.0
  0
LINE
  5
16A2
330
2874
100
AcDbEntity
  8
SIZE
 62
     0
100
AcDbLine
 10
-25382.37494828464
 20
7361.702971374808
 30
0.0
 11
-25382.37494828464
 21
7244.674399946237
 31
0.0
  0
INSERT
  5
16A3
330
2874
100
AcDbEntity
  8
SIZE
 62
     0
100
AcDbBlockReference
  2
_DOTBLANK
 10
-25382.37494828464
 20
7385.702971374808
 30
0.0
 41
12.0
 42
12.0
 43
12.0
 50
270.0
  0
INSERT
  5
16A4
330
2874
100
AcDbEntity
  8
SIZE
 62
     0
100
AcDbBlockReference
  2
_DOTBLANK
 10
-25382.37494828464
 20
7373.702971374808
 30
0.0
 41
12.0
 42
12.0
 43
12.0
 50
90.0
  0
INSERT
  5
16A5
330
2874
100
AcDbEntity
  8
0
100
AcDbBlockReference
  2
*U42
 10
0.0
 20
0.0
 30
0.0
  0
POINT
  5
16A6
330
2874
100
AcDbEntity
  8
DEFPOINTS
 62
     0
100
AcDbPoint
 10
-25532.51823276502
 20
7385.702971374808
 30
0.0
  0
POINT
  5
16A7
330
2874
100
AcDbEntity
  8
DEFPOINTS
 62
     0
100
AcDbPoint
 10
-25543.51823276502
 20
7373.702971374808
 30
0.0
  0
POINT
  5
16A8
330
2874
100
AcDbEntity
  8
DEFPOINTS
 62
     0
100
AcDbPoint
 10
-25382.37494828464
 20
7373.702971374808
 30
0.0
  0
ENDBLK
  5
16A9
330
2874
100
AcDbEntity
  8
0
100
AcDbBlockEnd
  0
BLOCK
  5
2877
330
2876
100
AcDbEntity
  8
0
100
AcDbBlockBegin
  2
*U42
 70
     1
 10
0.0
 20
0.0
 30
0.0
  3
*U42
  1

  0
TEXT
  5
1F1D
330
2876
100
AcDbEntity
  8
SIZE
 62
     0
100
AcDbText
 10
-25392.37494828464
 20
7256.045828517662
 30
0.0
 40
64.0
  1
12
 50
90.0
 41
0.9
100
AcDbText
  0
ENDBLK
  5
1F1F
330
2876
100
AcDbEntity
  8
0
100
AcDbBlockEnd
  0
BLOCK
  5
2879
330
2878
100
AcDbEntity
  8
0
100
AcDbBlockBegin
  2
*D43
 70
     1
 10
0.0
 20
0.0
 30
0.0
  3
*D43
  1

  0
LINE
  5
16AC
330
2878
100
AcDbEntity
  8
SIZE
 62
     0
100
AcDbLine
 10
-25801.51823276501
 20
7365.702971374808
 30
0.0
 11
-25801.51823276501
 21
7217.685576144207
 31
0.0
  0
LINE
  5
16AD
330
2878
100
AcDbEntity
  8
SIZE
 62
     0
100
AcDbLine
 10
-25532.51823276502
 20
7365.702971374808
 30
0.0
 11
-25532.51823276502
 21
7217.685576144207
 31
0.0
  0
LINE
  5
16AE
330
2878
100
AcDbEntity
  8
SIZE
 62
     0
100
AcDbLine
 10
-25789.51823276502
 20
7237.685576144207
 30
0.0
 11
-25544.51823276501
 21
7237.685576144207
 31
0.0
  0
INSERT
  5
16AF
330
2878
100
AcDbEntity
  8
SIZE
 62
     0
100
AcDbBlockReference
  2
_DOTBLANK
 10
-25801.51823276501
 20
7237.685576144207
 30
0.0
 41
12.0
 42
12.0
 43
12.0
 50
180.0
  0
INSERT
  5
16B0
330
2878
100
AcDbEntity
  8
SIZE
 62
     0
100
AcDbBlockReference
  2
_DOTBLANK
 10
-25532.51823276502
 20
7237.685576144207
 30
0.0
 41
12.0
 42
12.0
 43
12.0
  0
INSERT
  5
16B1
330
2878
100
AcDbEntity
  8
0
100
AcDbBlockReference
  2
*U44
 10
0.0
 20
0.0
 30
0.0
  0
POINT
  5
16B2
330
2878
100
AcDbEntity
  8
DEFPOINTS
 62
     0
100
AcDbPoint
 10
-25801.51823276501
 20
7385.702971374808
 30
0.0
  0
POINT
  5
16B3
330
2878
100
AcDbEntity
  8
DEFPOINTS
 62
     0
100
AcDbPoint
 10
-25532.51823276502
 20
7385.702971374808
 30
0.0
  0
POINT
  5
16B4
330
2878
100
AcDbEntity
  8
DEFPOINTS
 62
     0
100
AcDbPoint
 10
-25532.51823276502
 20
7237.685576144207
 30
0.0
  0
ENDBLK
  5
16B5
330
2878
100
AcDbEntity
  8
0
100
AcDbBlockEnd
  0
BLOCK
  5
287B
330
287A
100
AcDbEntity
  8
0
100
AcDbBlockBegin
  2
*U44
 70
     1
 10
0.0
 20
0.0
 30
0.0
  3
*U44
  1

  0
TEXT
  5
1F21
330
287A
100
AcDbEntity
  8
SIZE
 62
     0
100
AcDbText
 10
-25739.70394705074
 20
7247.685576144205
 30
0.0
 40
64.0
  1
269
 41
0.9
100
AcDbText
  0
ENDBLK
  5
1F23
330
287A
100
AcDbEntity
  8
0
100
AcDbBlockEnd
  0
BLOCK
  5
287D
330
287C
100
AcDbEntity
  8
0
100
AcDbBlockBegin
  2
*D45
 70
     1
 10
0.0
 20
0.0
 30
0.0
  3
*D45
  1

  0
LINE
  5
16B8
330
287C
100
AcDbEntity
  8
SIZE
 62
     0
100
AcDbLine
 10
-25512.51823276502
 20
7385.702971374808
 30
0.0
 11
-25362.37494828464
 21
7385.702971374808
 31
0.0
  0
LINE
  5
16B9
330
287C
100
AcDbEntity
  8
SIZE
 62
     0
100
AcDbLine
 10
-25489.51823276501
 20
7685.702971374808
 30
0.0
 11
-25362.37494828464
 21
7685.702971374808
 31
0.0
  0
LINE
  5
16BA
330
287C
100
AcDbEntity
  8
SIZE
 62
     0
100
AcDbLine
 10
-25382.37494828464
 20
7397.702971374808
 30
0.0
 11
-25382.37494828464
 21
7673.702971374808
 31
0.0
  0
INSERT
  5
16BB
330
287C
100
AcDbEntity
  8
SIZE
 62
     0
100
AcDbBlockReference
  2
_DOTBLANK
 10
-25382.37494828464
 20
7385.702971374808
 30
0.0
 41
12.0
 42
12.0
 43
12.0
 50
270.0
  0
INSERT
  5
16BC
330
287C
100
AcDbEntity
  8
SIZE
 62
     0
100
AcDbBlockReference
  2
_DOTBLANK
 10
-25382.37494828464
 20
7685.702971374808
 30
0.0
 41
12.0
 42
12.0
 43
12.0
 50
90.0
  0
INSERT
  5
16BD
330
287C
100
AcDbEntity
  8
0
100
AcDbBlockReference
  2
*U46
 10
0.0
 20
0.0
 30
0.0
  0
POINT
  5
16BE
330
287C
100
AcDbEntity
  8
DEFPOINTS
 62
     0
100
AcDbPoint
 10
-25532.51823276502
 20
7385.702971374808
 30
0.0
  0
POINT
  5
16BF
330
287C
100
AcDbEntity
  8
DEFPOINTS
 62
     0
100
AcDbPoint
 10
-25509.51823276502
 20
7685.702971374808
 30
0.0
  0
POINT
  5
16C0
330
287C
100
AcDbEntity
  8
DEFPOINTS
 62
     0
100
AcDbPoint
 10
-25382.37494828464
 20
7685.702971374808
 30
0.0
  0
ENDBLK
  5
16C1
330
287C
100
AcDbEntity
  8
0
100
AcDbBlockEnd
  0
BLOCK
  5
287F
330
287E
100
AcDbEntity
  8
0
100
AcDbBlockBegin
  2
*U46
 70
     1
 10
0.0
 20
0.0
 30
0.0
  3
*U46
  1

  0
TEXT
  5
1F25
330
287E
100
AcDbEntity
  8
SIZE
 62
     0
100
AcDbText
 10
-25392.37494828464
 20
7461.645828517662
 30
0.0
 40
64.0
  1
300
 50
90.0
 41
0.9
100
AcDbText
  0
ENDBLK
  5
1F27
330
287E
100
AcDbEntity
  8
0
100
AcDbBlockEnd
  0
BLOCK
  5
2881
330
2880
100
AcDbEntity
  8
0
100
AcDbBlockBegin
  2
*D47
 70
     1
 10
0.0
 20
0.0
 30
0.0
  3
*D47
  1

  0
LINE
  5
16C4
330
2880
100
AcDbEntity
  8
SIZE
 62
     0
100
AcDbLine
 10
-25807.01823276501
 20
7718.167454177002
 30
0.0
 11
-25807.01823276501
 21
7822.154659243358
 31
0.0
  0
LINE
  5
16C5
330
2880
100
AcDbEntity
  8
SIZE
 62
     0
100
AcDbLine
 10
-25527.01823276501
 20
7718.167454177002
 30
0.0
 11
-25527.01823276501
 21
7822.154659243358
 31
0.0
  0
LINE
  5
16C6
330
2880
100
AcDbEntity
  8
SIZE
 62
     0
100
AcDbLine
 10
-25795.01823276502
 20
7802.154659243358
 30
0.0
 11
-25539.01823276501
 21
7802.154659243358
 31
0.0
  0
INSERT
  5
16C7
330
2880
100
AcDbEntity
  8
SIZE
 62
     0
100
AcDbBlockReference
  2
_DOTBLANK
 10
-25807.01823276501
 20
7802.154659243358
 30
0.0
 41
12.0
 42
12.0
 43
12.0
 50
180.0
  0
INSERT
  5
16C8
330
2880
100
AcDbEntity
  8
SIZE
 62
     0
100
AcDbBlockReference
  2
_DOTBLANK
 10
-25527.01823276501
 20
7802.154659243358
 30
0.0
 41
12.0
 42
12.0
 43
12.0
  0
INSERT
  5
16C9
330
2880
100
AcDbEntity
  8
0
100
AcDbBlockReference
  2
*U48
 10
0.0
 20
0.0
 30
0.0
  0
POINT
  5
16CA
330
2880
100
AcDbEntity
  8
DEFPOINTS
 62
     0
100
AcDbPoint
 10
-25807.01823276501
 20
7698.167454177002
 30
0.0
  0
POINT
  5
16CB
330
2880
100
AcDbEntity
  8
DEFPOINTS
 62
     0
100
AcDbPoint
 10
-25527.01823276501
 20
7698.167454177002
 30
0.0
  0
POINT
  5
16CC
330
2880
100
AcDbEntity
  8
DEFPOINTS
 62
     0
100
AcDbPoint
 10
-25527.01823276501
 20
7802.154659243358
 30
0.0
  0
ENDBLK
  5
16CD
330
2880
100
AcDbEntity
  8
0
100
AcDbBlockEnd
  0
BLOCK
  5
2883
330
2882
100
AcDbEntity
  8
0
100
AcDbBlockBegin
  2
*U48
 70
     1
 10
0.0
 20
0.0
 30
0.0
  3
*U48
  1

  0
TEXT
  5
1F29
330
2882
100
AcDbEntity
  8
SIZE
 62
     0
100
AcDbText
 10
-25741.07537562216
 20
7812.154659243358
 30
0.0
 40
64.0
  1
280
 41
0.9
100
AcDbText
  0
ENDBLK
  5
1F2B
330
2882
100
AcDbEntity
  8
0
100
AcDbBlockEnd
  0
BLOCK
  5
2885
330
2884
100
AcDbEntity
  8
0
100
AcDbBlockBegin
  2
*D49
 70
     1
 10
0.0
 20
0.0
 30
0.0
  3
*D49
  1

  0
LINE
  5
16D0
330
2884
100
AcDbEntity
  8
SIZE
 62
     0
100
AcDbLine
 10
-25824.51823276501
 20
7705.702971374808
 30
0.0
 11
-25824.51823276501
 21
7931.282433493766
 31
0.0
  0
LINE
  5
16D1
330
2884
100
AcDbEntity
  8
SIZE
 62
     0
100
AcDbLine
 10
-25509.51823276502
 20
7705.702971374808
 30
0.0
 11
-25509.51823276502
 21
7931.282433493766
 31
0.0
  0
LINE
  5
16D2
330
2884
100
AcDbEntity
  8
SIZE
 62
     0
100
AcDbLine
 10
-25812.51823276502
 20
7911.282433493766
 30
0.0
 11
-25521.51823276501
 21
7911.282433493766
 31
0.0
  0
INSERT
  5
16D3
330
2884
100
AcDbEntity
  8
SIZE
 62
     0
100
AcDbBlockReference
  2
_DOTBLANK
 10
-25824.51823276501
 20
7911.282433493766
 30
0.0
 41
12.0
 42
12.0
 43
12.0
 50
180.0
  0
INSERT
  5
16D4
330
2884
100
AcDbEntity
  8
SIZE
 62
     0
100
AcDbBlockReference
  2
_DOTBLANK
 10
-25509.51823276502
 20
7911.282433493766
 30
0.0
 41
12.0
 42
12.0
 43
12.0
  0
INSERT
  5
16D5
330
2884
100
AcDbEntity
  8
0
100
AcDbBlockReference
  2
*U50
 10
0.0
 20
0.0
 30
0.0
  0
POINT
  5
16D6
330
2884
100
AcDbEntity
  8
DEFPOINTS
 62
     0
100
AcDbPoint
 10
-25824.51823276501
 20
7685.702971374808
 30
0.0
  0
POINT
  5
16D7
330
2884
100
AcDbEntity
  8
DEFPOINTS
 62
     0
100
AcDbPoint
 10
-25509.51823276502
 20
7685.702971374808
 30
0.0
  0
POINT
  5
16D8
330
2884
100
AcDbEntity
  8
DEFPOINTS
 62
     0
100
AcDbPoint
 10
-25509.51823276502
 20
7911.282433493766
 30
0.0
  0
ENDBLK
  5
16D9
330
2884
100
AcDbEntity
  8
0
100
AcDbBlockEnd
  0
BLOCK
  5
2887
330
2886
100
AcDbEntity
  8
0
100
AcDbBlockBegin
  2
*U50
 70
     1
 10
0.0
 20
0.0
 30
0.0
  3
*U50
  1

  0
TEXT
  5
1F2D
330
2886
100
AcDbEntity
  8
SIZE
 62
     0
100
AcDbText
 10
-25735.58966133645
 20
7921.282433493766
 30
0.0
 40
64.0
  1
315
 41
0.9
100
AcDbText
  0
ENDBLK
  5
1F2F
330
2886
100
AcDbEntity
  8
0
100
AcDbBlockEnd
  0
BLOCK
  5
2889
330
2888
100
AcDbEntity
  8
0
100
AcDbBlockBegin
  2
*D51
 70
     1
 10
0.0
 20
0.0
 30
0.0
  3
*D51
  1

  0
LINE
  5
1D83
330
2888
100
AcDbEntity
  8
SIZE
 62
     0
100
AcDbLine
 10
-134.5
 20
-320.0
 30
0.0
 11
-134.5
 21
-468.0173952306001
 31
0.0
  0
LINE
  5
1D84
330
2888
100
AcDbEntity
  8
SIZE
 62
     0
100
AcDbLine
 10
134.5
 20
-320.0
 30
0.0
 11
134.5
 21
-468.0173952306001
 31
0.0
  0
LINE
  5
1D85
330
2888
100
AcDbEntity
  8
SIZE
 62
     0
100
AcDbLine
 10
-122.5
 20
-448.0173952306
 30
0.0
 11
122.5
 21
-448.0173952306
 31
0.0
  0
INSERT
  5
1D86
330
2888
100
AcDbEntity
  8
SIZE
 62
     0
100
AcDbBlockReference
  2
_DOTBLANK
 10
-134.5
 20
-448.0173952306
 30
0.0
 41
12.0
 42
12.0
 43
12.0
 50
180.0
  0
INSERT
  5
1D87
330
2888
100
AcDbEntity
  8
SIZE
 62
     0
100
AcDbBlockReference
  2
_DOTBLANK
 10
134.5
 20
-448.0173952306
 30
0.0
 41
12.0
 42
12.0
 43
12.0
  0
INSERT
  5
1D88
330
2888
100
AcDbEntity
  8
0
100
AcDbBlockReference
  2
*U52
 10
0.0
 20
0.0
 30
0.0
  0
POINT
  5
1D89
330
2888
100
AcDbEntity
  8
DEFPOINTS
 62
     0
100
AcDbPoint
 10
-134.5
 20
-300.0
 30
0.0
  0
POINT
  5
1D8A
330
2888
100
AcDbEntity
  8
DEFPOINTS
 62
     0
100
AcDbPoint
 10
134.5
 20
-300.0
 30
0.0
  0
POINT
  5
1D8B
330
2888
100
AcDbEntity
  8
DEFPOINTS
 62
     0
100
AcDbPoint
 10
134.5
 20
-448.0173952306
 30
0.0
  0
ENDBLK
  5
173D
330
2888
100
AcDbEntity
  8
0
100
AcDbBlockEnd
  0
BLOCK
  5
288B
330
288A
100
AcDbEntity
  8
0
100
AcDbBlockBegin
  2
*U52
 70
     1
 10
0.0
 20
0.0
 30
0.0
  3
*U52
  1

  0
TEXT
  5
1F31
330
288A
100
AcDbEntity
  8
SIZE
 62
     0
100
AcDbText
 10
-72.68571428571426
 20
-438.0173952306003
 30
0.0
 40
64.0
  1
269
 41
0.9
100
AcDbText
  0
ENDBLK
  5
1F33
330
288A
100
AcDbEntity
  8
0
100
AcDbBlockEnd
  0
BLOCK
  5
288D
330
288C
100
AcDbEntity
  8
0
100
AcDbBlockBegin
  2
*D53
 70
     1
 10
0.0
 20
0.0
 30
0.0
  3
*D53
  1

  0
LINE
  5
1D8C
330
288C
100
AcDbEntity
  8
SIZE
 62
     0
100
AcDbLine
 10
154.5
 20
-300.0
 30
0.0
 11
304.6432844803784
 21
-300.0
 31
0.0
  0
LINE
  5
1D8D
330
288C
100
AcDbEntity
  8
SIZE
 62
     0
100
AcDbLine
 10
177.5
 20
-0.0000000000000057
 30
0.0
 11
304.6432844803785
 21
-0.0000000000000417
 31
0.0
  0
LINE
  5
1D8E
330
288C
100
AcDbEntity
  8
SIZE
 62
     0
100
AcDbLine
 10
284.6432844803784
 20
-288.0
 30
0.0
 11
284.6432844803785
 21
-12.00000000000003
 31
0.0
  0
INSERT
  5
1D8F
330
288C
100
AcDbEntity
  8
SIZE
 62
     0
100
AcDbBlockReference
  2
_DOTBLANK
 10
284.6432844803784
 20
-300.0
 30
0.0
 41
12.0
 42
12.0
 43
12.0
 50
270.0
  0
INSERT
  5
1D90
330
288C
100
AcDbEntity
  8
SIZE
 62
     0
100
AcDbBlockReference
  2
_DOTBLANK
 10
284.6432844803785
 20
-0.000000000000036
 30
0.0
 41
12.0
 42
12.0
 43
12.0
 50
90.0
  0
INSERT
  5
1D91
330
288C
100
AcDbEntity
  8
0
100
AcDbBlockReference
  2
*U54
 10
0.0
 20
0.0
 30
0.0
  0
POINT
  5
1D92
330
288C
100
AcDbEntity
  8
DEFPOINTS
 62
     0
100
AcDbPoint
 10
134.5
 20
-300.0
 30
0.0
  0
POINT
  5
1D93
330
288C
100
AcDbEntity
  8
DEFPOINTS
 62
     0
100
AcDbPoint
 10
157.5
 20
0.0
 30
0.0
  0
POINT
  5
1D94
330
288C
100
AcDbEntity
  8
DEFPOINTS
 62
     0
100
AcDbPoint
 10
284.6432844803785
 20
-0.000000000000036
 30
0.0
  0
ENDBLK
  5
1749
330
288C
100
AcDbEntity
  8
0
100
AcDbBlockEnd
  0
BLOCK
  5
288F
330
288E
100
AcDbEntity
  8
0
100
AcDbBlockBegin
  2
*U54
 70
     1
 10
0.0
 20
0.0
 30
0.0
  3
*U54
  1

  0
TEXT
  5
1F35
330
288E
100
AcDbEntity
  8
SIZE
 62
     0
100
AcDbText
 10
274.6432844803785
 20
-224.0571428571429
 30
0.0
 40
64.0
  1
300
 50
90.0
 41
0.9
100
AcDbText
  0
ENDBLK
  5
1F37
330
288E
100
AcDbEntity
  8
0
100
AcDbBlockEnd
  0
BLOCK
  5
2891
330
2890
100
AcDbEntity
  8
0
100
AcDbBlockBegin
  2
*D55
 70
     1
 10
0.0
 20
0.0
 30
0.0
  3
*D55
  1

  0
LINE
  5
1D95
330
2890
100
AcDbEntity
  8
SIZE
 62
     0
100
AcDbLine
 10
-140.0
 20
32.46448280219375
 30
0.0
 11
-140.0
 21
136.4516878685508
 31
0.0
  0
LINE
  5
1D96
330
2890
100
AcDbEntity
  8
SIZE
 62
     0
100
AcDbLine
 10
140.0
 20
32.46448280219375
 30
0.0
 11
140.0
 21
136.4516878685508
 31
0.0
  0
LINE
  5
1D97
330
2890
100
AcDbEntity
  8
SIZE
 62
     0
100
AcDbLine
 10
-128.0
 20
116.4516878685508
 30
0.0
 11
128.0
 21
116.4516878685508
 31
0.0
  0
INSERT
  5
1D98
330
2890
100
AcDbEntity
  8
SIZE
 62
     0
100
AcDbBlockReference
  2
_DOTBLANK
 10
-140.0
 20
116.4516878685508
 30
0.0
 41
12.0
 42
12.0
 43
12.0
 50
180.0
  0
INSERT
  5
1D99
330
2890
100
AcDbEntity
  8
SIZE
 62
     0
100
AcDbBlockReference
  2
_DOTBLANK
 10
140.0
 20
116.4516878685508
 30
0.0
 41
12.0
 42
12.0
 43
12.0
  0
INSERT
  5
1D9A
330
2890
100
AcDbEntity
  8
0
100
AcDbBlockReference
  2
*U56
 10
0.0
 20
0.0
 30
0.0
  0
POINT
  5
1D9B
330
2890
100
AcDbEntity
  8
DEFPOINTS
 62
     0
100
AcDbPoint
 10
-140.0
 20
12.46448280219374
 30
0.0
  0
POINT
  5
1D9C
330
2890
100
AcDbEntity
  8
DEFPOINTS
 62
     0
100
AcDbPoint
 10
140.0
 20
12.46448280219374
 30
0.0
  0
POINT
  5
1D9D
330
2890
100
AcDbEntity
  8
DEFPOINTS
 62
     0
100
AcDbPoint
 10
140.0
 20
116.4516878685508
 30
0.0
  0
ENDBLK
  5
1755
330
2890
100
AcDbEntity
  8
0
100
AcDbBlockEnd
  0
BLOCK
  5
2893
330
2892
100
AcDbEntity
  8
0
100
AcDbBlockBegin
  2
*U56
 70
     1
 10
0.0
 20
0.0
 30
0.0
  3
*U56
  1

  0
TEXT
  5
1F39
330
2892
100
AcDbEntity
  8
SIZE
 62
     0
100
AcDbText
 10
-74.05714285714283
 20
126.4516878685508
 30
0.0
 40
64.0
  1
280
 41
0.9
100
AcDbText
  0
ENDBLK
  5
1F3B
330
2892
100
AcDbEntity
  8
0
100
AcDbBlockEnd
  0
BLOCK
  5
2895
330
2894
100
AcDbEntity
  8
0
100
AcDbBlockBegin
  2
*D57
 70
     1
 10
0.0
 20
0.0
 30
0.0
  3
*D57
  1

  0
LINE
  5
1D9E
330
2894
100
AcDbEntity
  8
SIZE
 62
     0
100
AcDbLine
 10
-157.5
 20
20.0
 30
0.0
 11
-157.5
 21
245.5794621189598
 31
0.0
  0
LINE
  5
1D9F
330
2894
100
AcDbEntity
  8
SIZE
 62
     0
100
AcDbLine
 10
157.5
 20
20.0
 30
0.0
 11
157.5
 21
245.5794621189598
 31
0.0
  0
LINE
  5
1DA0
330
2894
100
AcDbEntity
  8
SIZE
 62
     0
100
AcDbLine
 10
-145.5
 20
225.5794621189598
 30
0.0
 11
145.5
 21
225.5794621189598
 31
0.0
  0
INSERT
  5
1DA1
330
2894
100
AcDbEntity
  8
SIZE
 62
     0
100
AcDbBlockReference
  2
_DOTBLANK
 10
-157.5
 20
225.5794621189598
 30
0.0
 41
12.0
 42
12.0
 43
12.0
 50
180.0
  0
INSERT
  5
1DA2
330
2894
100
AcDbEntity
  8
SIZE
 62
     0
100
AcDbBlockReference
  2
_DOTBLANK
 10
157.5
 20
225.5794621189598
 30
0.0
 41
12.0
 42
12.0
 43
12.0
  0
INSERT
  5
1DA3
330
2894
100
AcDbEntity
  8
0
100
AcDbBlockReference
  2
*U58
 10
0.0
 20
0.0
 30
0.0
  0
POINT
  5
1DA4
330
2894
100
AcDbEntity
  8
DEFPOINTS
 62
     0
100
AcDbPoint
 10
-157.5
 20
0.0
 30
0.0
  0
POINT
  5
1DA5
330
2894
100
AcDbEntity
  8
DEFPOINTS
 62
     0
100
AcDbPoint
 10
157.5
 20
0.0
 30
0.0
  0
POINT
  5
1DA6
330
2894
100
AcDbEntity
  8
DEFPOINTS
 62
     0
100
AcDbPoint
 10
157.5
 20
225.5794621189598
 30
0.0
  0
ENDBLK
  5
1761
330
2894
100
AcDbEntity
  8
0
100
AcDbBlockEnd
  0
BLOCK
  5
2897
330
2896
100
AcDbEntity
  8
0
100
AcDbBlockBegin
  2
*U58
 70
     1
 10
0.0
 20
0.0
 30
0.0
  3
*U58
  1

  0
TEXT
  5
1F3D
330
2896
100
AcDbEntity
  8
SIZE
 62
     0
100
AcDbText
 10
-68.57142857142857
 20
235.5794621189599
 30
0.0
 40
64.0
  1
315
 41
0.9
100
AcDbText
  0
ENDBLK
  5
1F3F
330
2896
100
AcDbEntity
  8
0
100
AcDbBlockEnd
  0
BLOCK
  5
2899
330
2898
100
AcDbEntity
  8
0
100
AcDbBlockBegin
  2
*D59
 70
     1
 10
0.0
 20
0.0
 30
0.0
  3
*D59
  1

  0
LINE
  5
1DA7
330
2898
100
AcDbEntity
  8
SIZE
 62
     0
100
AcDbLine
 10
-177.5
 20
0.0000000000000057
 30
0.0
 11
-314.0264221186908
 21
0.0000000000000443
 31
0.0
  0
LINE
  5
1DA8
330
2898
100
AcDbEntity
  8
SIZE
 62
     0
100
AcDbLine
 10
-177.5
 20
-7.999999999999995
 30
0.0
 11
-314.0264221186908
 21
-7.999999999999958
 31
0.0
  0
LINE
  5
1DA9
330
2898
100
AcDbEntity
  8
SIZE
 62
     0
100
AcDbLine
 10
-294.0264221186908
 20
12.00000000000003
 30
0.0
 11
-294.0264221186908
 21
24.00000000000004
 31
0.0
  0
LINE
  5
1DAA
330
2898
100
AcDbEntity
  8
SIZE
 62
     0
100
AcDbLine
 10
-294.0264221186908
 20
-19.99999999999996
 30
0.0
 11
-294.0264221186908
 21
-90.39999999999997
 31
0.0
  0
INSERT
  5
1DAB
330
2898
100
AcDbEntity
  8
SIZE
 62
     0
100
AcDbBlockReference
  2
_DOTBLANK
 10
-294.0264221186908
 20
0.0000000000000387
 30
0.0
 41
12.0
 42
12.0
 43
12.0
 50
270.0
  0
INSERT
  5
1DAC
330
2898
100
AcDbEntity
  8
SIZE
 62
     0
100
AcDbBlockReference
  2
_DOTBLANK
 10
-294.0264221186908
 20
-7.999999999999961
 30
0.0
 41
12.0
 42
12.0
 43
12.0
 50
90.0
  0
INSERT
  5
1DAD
330
2898
100
AcDbEntity
  8
0
100
AcDbBlockReference
  2
*U60
 10
0.0
 20
0.0
 30
0.0
  0
POINT
  5
1DAE
330
2898
100
AcDbEntity
  8
DEFPOINTS
 62
     0
100
AcDbPoint
 10
-157.5
 20
0.0
 30
0.0
  0
POINT
  5
1DAF
330
2898
100
AcDbEntity
  8
DEFPOINTS
 62
     0
100
AcDbPoint
 10
-157.5
 20
-8.000000000000003
 30
0.0
  0
POINT
  5
1DB0
330
2898
100
AcDbEntity
  8
DEFPOINTS
 62
     0
100
AcDbPoint
 10
-294.0264221186908
 20
-7.999999999999961
 30
0.0
  0
ENDBLK
  5
176D
330
2898
100
AcDbEntity
  8
0
100
AcDbBlockEnd
  0
BLOCK
  5
289B
330
289A
100
AcDbEntity
  8
0
100
AcDbBlockBegin
  2
*U60
 70
     1
 10
0.0
 20
0.0
 30
0.0
  3
*U60
  1

  0
TEXT
  5
1F41
330
289A
100
AcDbEntity
  8
SIZE
 62
     0
100
AcDbText
 10
-304.0264221186908
 20
-80.4
 30
0.0
 40
64.0
  1
8
 50
90.0
 41
0.9
100
AcDbText
  0
ENDBLK
  5
1F43
330
289A
100
AcDbEntity
  8
0
100
AcDbBlockEnd
  0
BLOCK
  5
289D
330
289C
100
AcDbEntity
  8
0
100
AcDbBlockBegin
  2
*D61
 70
     1
 10
0.0
 20
0.0
 30
0.0
  3
*D61
  1

  0
LINE
  5
1DB1
330
289C
100
AcDbEntity
  8
SIZE
 62
     0
100
AcDbLine
 10
154.5
 20
-300.0
 30
0.0
 11
304.6432844803785
 21
-300.0
 31
0.0
  0
LINE
  5
1DB2
330
289C
100
AcDbEntity
  8
SIZE
 62
     0
100
AcDbLine
 10
143.5
 20
-312.0
 30
0.0
 11
304.6432844803785
 21
-312.0
 31
0.0
  0
LINE
  5
1DB3
330
289C
100
AcDbEntity
  8
SIZE
 62
     0
100
AcDbLine
 10
284.6432844803785
 20
-288.0
 30
0.0
 11
284.6432844803785
 21
-276.0
 31
0.0
  0
LINE
  5
1DB4
330
289C
100
AcDbEntity
  8
SIZE
 62
     0
100
AcDbLine
 10
284.6432844803785
 20
-324.0000000000001
 30
0.0
 11
284.6432844803784
 21
-438.2857142857143
 31
0.0
  0
INSERT
  5
1DB5
330
289C
100
AcDbEntity
  8
SIZE
 62
     0
100
AcDbBlockReference
  2
_DOTBLANK
 10
284.6432844803785
 20
-300.0
 30
0.0
 41
12.0
 42
12.0
 43
12.0
 50
270.0
  0
INSERT
  5
1DB6
330
289C
100
AcDbEntity
  8
SIZE
 62
     0
100
AcDbBlockReference
  2
_DOTBLANK
 10
284.6432844803785
 20
-312.0
 30
0.0
 41
12.0
 42
12.0
 43
12.0
 50
90.0
  0
INSERT
  5
1DB7
330
289C
100
AcDbEntity
  8
0
100
AcDbBlockReference
  2
*U62
 10
0.0
 20
0.0
 30
0.0
  0
POINT
  5
1DB8
330
289C
100
AcDbEntity
  8
DEFPOINTS
 62
     0
100
AcDbPoint
 10
134.5
 20
-300.0
 30
0.0
  0
POINT
  5
1DB9
330
289C
100
AcDbEntity
  8
DEFPOINTS
 62
     0
100
AcDbPoint
 10
123.5
 20
-312.0
 30
0.0
  0
POINT
  5
1DBA
330
289C
100
AcDbEntity
  8
DEFPOINTS
 62
     0
100
AcDbPoint
 10
284.6432844803785
 20
-312.0
 30
0.0
  0
ENDBLK
  5
177B
330
289C
100
AcDbEntity
  8
0
100
AcDbBlockEnd
  0
BLOCK
  5
289F
330
289E
100
AcDbEntity
  8
0
100
AcDbBlockBegin
  2
*U62
 70
     1
 10
0.0
 20
0.0
 30
0.0
  3
*U62
  1

  0
TEXT
  5
1F45
330
289E
100
AcDbEntity
  8
SIZE
 62
     0
100
AcDbText
 10
274.6432844803785
 20
-428.2857142857142
 30
0.0
 40
64.0
  1
12
 50
90.0
 41
0.9
100
AcDbText
  0
ENDBLK
  5
1F47
330
289E
100
AcDbEntity
  8
0
100
AcDbBlockEnd
  0
BLOCK
  5
28A1
330
28A0
100
AcDbEntity
  8
0
100
AcDbBlockBegin
  2
*U63
 70
     1
 10
0.0
 20
0.0
 30
0.0
  3
*U63
  1

  0
ENDBLK
  5
1D57
330
28A0
100
AcDbEntity
  8
0
100
AcDbBlockEnd
  0
BLOCK
  5
28A3
330
28A2
100
AcDbEntity
  8
0
100
AcDbBlockBegin
  2
*U64
 70
     1
 10
0.0
 20
0.0
 30
0.0
  3
*U64
  1

  0
INSERT
  5
2087
330
28A2
100
AcDbEntity
  8
NOTE
100
AcDbBlockReference
  2
_OPEN30
 10
-280.0
 20
0.0
 30
0.0
 41
12.0
 42
12.0
 43
12.0
 50
312.6090116116894
  0
POLYLINE
  5
2088
330
28A2
100
AcDbEntity
  8
NOTE
100
AcDb2dPolyline
 66
     1
 10
0.0
 20
0.0
 30
0.0
  0
VERTEX
  5
273C
330
2088
100
AcDbEntity
  8
NOTE
100
AcDbVertex
100
AcDb2dVertex
 10
-288.1239008361895
 20
8.831887408915472
 30
0.0
  0
VERTEX
  5
273D
330
2088
100
AcDbEntity
  8
NOTE
100
AcDbVertex
100
AcDb2dVertex
 10
-367.8693999922543
 20
95.52709505801338
 30
0.0
  0
VERTEX
  5
273E
330
2088
100
AcDbEntity
  8
NOTE
100
AcDbVertex
100
AcDb2dVertex
 10
-913.7093999922541
 20
95.52709505801338
 30
0.0
  0
SEQEND
  5
273F
330
2088
100
AcDbEntity
  8
NOTE
  0
ENDBLK
  5
2089
330
28A2
100
AcDbEntity
  8
0
100
AcDbBlockEnd
  0
BLOCK
  5
28A5
330
28A4
100
AcDbEntity
  8
0
100
AcDbBlockBegin
  2
*U65
 70
     1
 10
0.0
 20
0.0
 30
0.0
  3
*U65
  1

  0
TEXT
  5
208C
330
28A4
100
AcDbEntity
  8
NOTE
100
AcDbText
 10
-913.7093999922541
 20
113.5270950580134
 30
0.0
 40
64.0
  1
4×φ15取付穴
 41
0.9
100
AcDbText
  0
ENDBLK
  5
208D
330
28A4
100
AcDbEntity
  8
0
100
AcDbBlockEnd
  0
BLOCK
  5
28A7
330
28A6
100
AcDbEntity
  8
0
100
AcDbBlockBegin
  2
*U66
 70
     1
 10
0.0
 20
0.0
 30
0.0
  3
*U66
  1

  0
INSERT
  5
2165
330
28A6
100
AcDbEntity
  8
NOTE
100
AcDbBlockReference
  2
_OPEN30
 10
280.0000000000036
 20
280.0000000000018
 30
0.0
 41
12.0
 42
12.0
 43
12.0
 50
230.7091310502216
  0
POLYLINE
  5
2166
330
28A6
100
AcDbEntity
  8
NOTE
100
AcDb2dPolyline
 66
     1
 10
0.0
 20
0.0
 30
0.0
  0
VERTEX
  5
2740
330
2166
100
AcDbEntity
  8
NOTE
100
AcDbVertex
100
AcDb2dVertex
 10
287.5990904809256
 20
289.287293678074
 30
0.0
  0
VERTEX
  5
2741
330
2166
100
AcDbEntity
  8
NOTE
100
AcDbVertex
100
AcDb2dVertex
 10
343.4345623698646
 20
357.5270950580152
 30
0.0
  0
VERTEX
  5
2742
330
2166
100
AcDbEntity
  8
NOTE
100
AcDbVertex
100
AcDb2dVertex
 10
889.2745623698646
 20
357.5270950580152
 30
0.0
  0
SEQEND
  5
2743
330
2166
100
AcDbEntity
  8
NOTE
  0
ENDBLK
  5
2167
330
28A6
100
AcDbEntity
  8
0
100
AcDbBlockEnd
  0
BLOCK
  5
28A9
330
28A8
100
AcDbEntity
  8
0
100
AcDbBlockBegin
  2
*U67
 70
     1
 10
0.0
 20
0.0
 30
0.0
  3
*U67
  1

  0
TEXT
  5
216A
330
28A8
100
AcDbEntity
  8
NOTE
100
AcDbText
 10
405.4345623698646
 20
375.5270950580152
 30
0.0
 40
64.0
  1
4×φ15取付穴
 41
0.9
100
AcDbText
  0
ENDBLK
  5
216B
330
28A8
100
AcDbEntity
  8
0
100
AcDbBlockEnd
  0
BLOCK
  5
28AB
330
28AA
100
AcDbEntity
  8
0
100
AcDbBlockBegin
  2
*U68
 70
     1
 10
0.0
 20
0.0
 30
0.0
  3
*U68
  1

  0
INSERT
  5
223C
330
28AA
100
AcDbEntity
  8
NOTE
100
AcDbBlockReference
  2
_OPEN30
 10
279.9999999999964
 20
280.0000000000018
 30
0.0
 41
12.0
 42
12.0
 43
12.0
 50
232.3258907693334
  0
POLYLINE
  5
223D
330
28AA
100
AcDbEntity
  8
NOTE
100
AcDb2dPolyline
 66
     1
 10
0.0
 20
0.0
 30
0.0
  0
VERTEX
  5
2744
330
223D
100
AcDbEntity
  8
NOTE
100
AcDbVertex
100
AcDb2dVertex
 10
287.3340332839413
 20
289.4979974620982
 30
0.0
  0
VERTEX
  5
2745
330
223D
100
AcDbEntity
  8
NOTE
100
AcDbVertex
100
AcDb2dVertex
 10
353.7628007872045
 20
375.5270950580142
 30
0.0
  0
VERTEX
  5
2746
330
223D
100
AcDbEntity
  8
NOTE
100
AcDbVertex
100
AcDb2dVertex
 10
899.6028007872046
 20
375.5270950580142
 30
0.0
  0
SEQEND
  5
2747
330
223D
100
AcDbEntity
  8
NOTE
  0
ENDBLK
  5
223E
330
28AA
100
AcDbEntity
  8
0
100
AcDbBlockEnd
  0
BLOCK
  5
28AD
330
28AC
100
AcDbEntity
  8
0
100
AcDbBlockBegin
  2
*U69
 70
     1
 10
0.0
 20
0.0
 30
0.0
  3
*U69
  1

  0
TEXT
  5
2241
330
28AC
100
AcDbEntity
  8
NOTE
100
AcDbText
 10
415.7628007872045
 20
393.5270950580143
 30
0.0
 40
64.0
  1
4×φ15取付穴
 41
0.9
100
AcDbText
  0
ENDBLK
  5
2242
330
28AC
100
AcDbEntity
  8
0
100
AcDbBlockEnd
  0
BLOCK
  5
28AF
330
28AE
100
AcDbEntity
  8
0
100
AcDbBlockBegin
  2
*U70
 70
     1
 10
0.0
 20
0.0
 30
0.0
  3
*U70
  1

  0
INSERT
  5
232F
330
28AE
100
AcDbEntity
  8
NOTE
100
AcDbBlockReference
  2
_OPEN30
 10
0.0
 20
280.0
 30
0.0
 41
12.0
 42
12.0
 43
12.0
 50
312.6090116116895
  0
POLYLINE
  5
2330
330
28AE
100
AcDbEntity
  8
NOTE
100
AcDb2dPolyline
 66
     1
 10
0.0
 20
0.0
 30
0.0
  0
VERTEX
  5
275C
330
2330
100
AcDbEntity
  8
NOTE
100
AcDbVertex
100
AcDb2dVertex
 10
-8.123900836189513
 20
288.8318874089155
 30
0.0
  0
VERTEX
  5
275D
330
2330
100
AcDbEntity
  8
NOTE
100
AcDbVertex
100
AcDb2dVertex
 10
-87.86939999225436
 20
375.527095058013
 30
0.0
  0
VERTEX
  5
275E
330
2330
100
AcDbEntity
  8
NOTE
100
AcDbVertex
100
AcDb2dVertex
 10
-633.7093999922545
 20
375.527095058013
 30
0.0
  0
SEQEND
  5
275F
330
2330
100
AcDbEntity
  8
NOTE
  0
ENDBLK
  5
2331
330
28AE
100
AcDbEntity
  8
0
100
AcDbBlockEnd
  0
BLOCK
  5
28B1
330
28B0
100
AcDbEntity
  8
0
100
AcDbBlockBegin
  2
*U71
 70
     1
 10
0.0
 20
0.0
 30
0.0
  3
*U71
  1

  0
TEXT
  5
2334
330
28B0
100
AcDbEntity
  8
NOTE
100
AcDbText
 10
-633.7093999922545
 20
393.527095058013
 30
0.0
 40
64.0
  1
4×φ15取付穴
 41
0.9
100
AcDbText
  0
ENDBLK
  5
2335
330
28B0
100
AcDbEntity
  8
0
100
AcDbBlockEnd
  0
BLOCK
  5
28B3
330
28B2
100
AcDbEntity
  8
0
100
AcDbBlockBegin
  2
*U72
 70
     1
 10
0.0
 20
0.0
 30
0.0
  3
*U72
  1

  0
INSERT
  5
245C
330
28B2
100
AcDbEntity
  8
NOTE
100
AcDbBlockReference
  2
_OPEN30
 10
0.0
 20
280.0000000000001
 30
0.0
 41
12.0
 42
12.0
 43
12.0
 50
227.3909883883105
  0
POLYLINE
  5
245D
330
28B2
100
AcDbEntity
  8
NOTE
100
AcDb2dPolyline
 66
     1
 10
0.0
 20
0.0
 30
0.0
  0
VERTEX
  5
2760
330
245D
100
AcDbEntity
  8
NOTE
100
AcDbVertex
100
AcDb2dVertex
 10
8.123900836189514
 20
288.8318874089155
 30
0.0
  0
VERTEX
  5
2761
330
245D
100
AcDbEntity
  8
NOTE
100
AcDbVertex
100
AcDb2dVertex
 10
87.86939999225436
 20
375.527095058013
 30
0.0
  0
VERTEX
  5
2762
330
245D
100
AcDbEntity
  8
NOTE
100
AcDbVertex
100
AcDb2dVertex
 10
633.7093999922545
 20
375.527095058013
 30
0.0
  0
SEQEND
  5
2763
330
245D
100
AcDbEntity
  8
NOTE
  0
ENDBLK
  5
245E
330
28B2
100
AcDbEntity
  8
0
100
AcDbBlockEnd
  0
BLOCK
  5
28B5
330
28B4
100
AcDbEntity
  8
0
100
AcDbBlockBegin
  2
*U73
 70
     1
 10
0.0
 20
0.0
 30
0.0
  3
*U73
  1

  0
TEXT
  5
2461
330
28B4
100
AcDbEntity
  8
NOTE
100
AcDbText
 10
149.8693999922543
 20
393.5270950580132
 30
0.0
 40
64.0
  1
4×φ15取付穴
 41
0.9
100
AcDbText
  0
ENDBLK
  5
2462
330
28B4
100
AcDbEntity
  8
0
100
AcDbBlockEnd
  0
BLOCK
  5
28B7
330
28B6
100
AcDbEntity
  8
0
100
AcDbBlockBegin
  2
*U74
 70
     1
 10
0.0
 20
0.0
 30
0.0
  3
*U74
  1

  0
INSERT
  5
258D
330
28B6
100
AcDbEntity
  8
NOTE
100
AcDbBlockReference
  2
_OPEN30
 10
-280.0
 20
0.0
 30
0.0
 41
12.0
 42
12.0
 43
12.0
 50
312.6090116116894
  0
POLYLINE
  5
258E
330
28B6
100
AcDbEntity
  8
NOTE
100
AcDb2dPolyline
 66
     1
 10
0.0
 20
0.0
 30
0.0
  0
VERTEX
  5
2764
330
258E
100
AcDbEntity
  8
NOTE
100
AcDbVertex
100
AcDb2dVertex
 10
-288.1239008361895
 20
8.831887408915472
 30
0.0
  0
VERTEX
  5
2765
330
258E
100
AcDbEntity
  8
NOTE
100
AcDbVertex
100
AcDb2dVertex
 10
-367.8693999922543
 20
95.52709505801338
 30
0.0
  0
VERTEX
  5
2766
330
258E
100
AcDbEntity
  8
NOTE
100
AcDbVertex
100
AcDb2dVertex
 10
-913.7093999922541
 20
95.52709505801338
 30
0.0
  0
SEQEND
  5
2767
330
258E
100
AcDbEntity
  8
NOTE
  0
ENDBLK
  5
258F
330
28B6
100
AcDbEntity
  8
0
100
AcDbBlockEnd
  0
BLOCK
  5
28B9
330
28B8
100
AcDbEntity
  8
0
100
AcDbBlockBegin
  2
*U75
 70
     1
 10
0.0
 20
0.0
 30
0.0
  3
*U75
  1

  0
TEXT
  5
2592
330
28B8
100
AcDbEntity
  8
NOTE
100
AcDbText
 10
-913.7093999922541
 20
113.5270950580134
 30
0.0
 40
64.0
  1
4×φ15取付穴
 41
0.9
100
AcDbText
  0
ENDBLK
  5
2593
330
28B8
100
AcDbEntity
  8
0
100
AcDbBlockEnd
  0
BLOCK
  5
28BB
330
28BA
100
AcDbEntity
  8
0
100
AcDbBlockBegin
  2
*X76
 70
     1
 10
0.0
 20
0.0
 30
0.0
  3
*X76
  1

  0
LINE
  5
2596
330
28BA
100
AcDbEntity
  8
0
 62
     0
100
AcDbLine
 10
-250.7000000000098
 20
-568.7355763257644
 30
0.0
 11
-235.0247020177376
 21
-576.2000000000025
 31
0.0
  0
LINE
  5
2597
330
28BA
100
AcDbEntity
  8
0
 62
     0
100
AcDbLine
 10
-250.7000000000098
 20
-558.735624581629
 30
0.0
 11
-214.0247922807448
 21
-576.2000000000025
 31
0.0
  0
LINE
  5
2598
330
28BA
100
AcDbEntity
  8
0
 62
     0
100
AcDbLine
 10
-250.700000000008
 20
-548.7356728374951
 30
0.0
 11
-193.0248825437537
 21
-576.2000000000016
 31
0.0
  0
LINE
  5
2599
330
28BA
100
AcDbEntity
  8
0
 62
     0
100
AcDbLine
 10
-250.7000000000116
 20
-538.7357210933613
 30
0.0
 11
-172.0249728067647
 21
-576.2000000000035
 31
0.0
  0
LINE
  5
259A
330
28BA
100
AcDbEntity
  8
0
 62
     0
100
AcDbLine
 10
-250.700000000008
 20
-528.7357693492277
 30
0.0
 11
-151.0250630697719
 21
-576.2000000000035
 31
0.0
  0
LINE
  5
259B
330
28BA
100
AcDbEntity
  8
0
 62
     0
100
AcDbLine
 10
-250.7000000000098
 20
-518.735817605092
 30
0.0
 11
-130.0251533327809
 21
-576.2000000000035
 31
0.0
  0
LINE
  5
259C
330
28BA
100
AcDbEntity
  8
0
 62
     0
100
AcDbLine
 10
-250.7000000000098
 20
-508.7358658609582
 30
0.0
 11
-109.0252435957936
 21
-576.2000000000016
 31
0.0
  0
LINE
  5
259D
330
28BA
100
AcDbEntity
  8
0
 62
     0
100
AcDbLine
 10
-250.7000000000098
 20
-498.7359141168226
 30
0.0
 11
-88.02533385880268
 21
-576.2000000000016
 31
0.0
  0
LINE
  5
259E
330
28BA
100
AcDbEntity
  8
0
 62
     0
100
AcDbLine
 10
-250.700000000008
 20
-488.7359623726906
 30
0.0
 11
-67.02542412180992
 21
-576.2000000000035
 31
0.0
  0
LINE
  5
259F
330
28BA
100
AcDbEntity
  8
0
 62
     0
100
AcDbLine
 10
-250.7000000000098
 20
-478.7360106285547
 30
0.0
 11
-46.02551438482079
 21
-576.2000000000035
 31
0.0
  0
LINE
  5
25A0
330
28BA
100
AcDbEntity
  8
0
 62
     0
100
AcDbLine
 10
-250.7000000000116
 20
-468.7360588844192
 30
0.0
 11
-25.02560464783164
 21
-576.2000000000016
 31
0.0
  0
LINE
  5
25A1
330
28BA
100
AcDbEntity
  8
0
 62
     0
100
AcDbLine
 10
-250.700000000008
 20
-458.7361071402856
 30
0.0
 11
-4.025694910840684
 21
-576.2000000000016
 31
0.0
  0
LINE
  5
25A2
330
28BA
100
AcDbEntity
  8
0
 62
     0
100
AcDbLine
 10
-250.7000000000116
 20
-448.7361553961498
 30
0.0
 11
16.97421482615027
 21
-576.2000000000016
 31
0.0
  0
LINE
  5
25A3
330
28BA
100
AcDbEntity
  8
0
 62
     0
100
AcDbLine
 10
-250.700000000008
 20
-438.736203652018
 30
0.0
 11
37.97412456314305
 21
-576.2000000000035
 31
0.0
  0
LINE
  5
25A4
330
28BA
100
AcDbEntity
  8
0
 62
     0
100
AcDbLine
 10
-250.7000000000098
 20
-428.7362519078824
 30
0.0
 11
58.97403430013218
 21
-576.2000000000035
 31
0.0
  0
LINE
  5
25A5
330
28BA
100
AcDbEntity
  8
0
 62
     0
100
AcDbLine
 10
-250.700000000008
 20
-418.7363001637484
 30
0.0
 11
79.97394403712494
 21
-576.2000000000025
 31
0.0
  0
LINE
  5
25A6
330
28BA
100
AcDbEntity
  8
0
 62
     0
100
AcDbLine
 10
-250.700000000008
 20
-408.736348419613
 30
0.0
 11
100.9738537741159
 21
-576.2000000000025
 31
0.0
  0
LINE
  5
25A7
330
28BA
100
AcDbEntity
  8
0
 62
     0
100
AcDbLine
 10
-250.700000000008
 20
-398.7363966754792
 30
0.0
 11
121.9737635111069
 21
-576.2000000000025
 31
0.0
  0
LINE
  5
25A8
330
28BA
100
AcDbEntity
  8
0
 62
     0
100
AcDbLine
 10
-250.7000000000098
 20
-388.7364449313445
 30
0.0
 11
142.9736732480978
 21
-576.2000000000025
 31
0.0
  0
LINE
  5
25A9
330
28BA
100
AcDbEntity
  8
0
 62
     0
100
AcDbLine
 10
-250.7000000000098
 20
-378.7364931872108
 30
0.0
 11
163.9735829850869
 21
-576.2000000000025
 31
0.0
  0
LINE
  5
25AA
330
28BA
100
AcDbEntity
  8
0
 62
     0
100
AcDbLine
 10
-250.7000000000098
 20
-368.7365414430769
 30
0.0
 11
184.9734927220761
 21
-576.2000000000025
 31
0.0
  0
LINE
  5
25AB
330
28BA
100
AcDbEntity
  8
0
 62
     0
100
AcDbLine
 10
-250.7000000000098
 20
-358.7365896989413
 30
0.0
 11
205.9734024590689
 21
-576.2000000000025
 31
0.0
  0
LINE
  5
25AC
330
28BA
100
AcDbEntity
  8
0
 62
     0
100
AcDbLine
 10
-250.700000000008
 20
-348.7366379548075
 30
0.0
 11
226.9733121960598
 21
-576.2000000000025
 31
0.0
  0
LINE
  5
25AD
330
28BA
100
AcDbEntity
  8
0
 62
     0
100
AcDbLine
 10
-250.7000000000116
 20
-338.7366862106719
 30
0.0
 11
247.973221933049
 21
-576.2000000000025
 31
0.0
  0
LINE
  5
25AE
330
28BA
100
AcDbEntity
  8
0
 62
     0
100
AcDbLine
 10
-250.700000000008
 20
-328.7367344665399
 30
0.0
 11
250.6999999999862
 21
-567.4985133172832
 31
0.0
  0
LINE
  5
25AF
330
28BA
100
AcDbEntity
  8
0
 62
     0
100
AcDbLine
 10
-250.7000000000098
 20
-318.7367827224043
 30
0.0
 11
250.6999999999844
 21
-557.4985615731475
 31
0.0
  0
LINE
  5
25B0
330
28BA
100
AcDbEntity
  8
0
 62
     0
100
AcDbLine
 10
-250.700000000008
 20
-308.7368309782705
 30
0.0
 11
250.6999999999844
 21
-547.4986098290136
 31
0.0
  0
LINE
  5
25B1
330
28BA
100
AcDbEntity
  8
0
 62
     0
100
AcDbLine
 10
-250.700000000008
 20
-298.7368792341348
 30
0.0
 11
250.6999999999862
 21
-537.4986580848781
 31
0.0
  0
LINE
  5
25B2
330
28BA
100
AcDbEntity
  8
0
 62
     0
100
AcDbLine
 10
-250.7000000000098
 20
-288.7369274899992
 30
0.0
 11
250.6999999999862
 21
-527.4987063407443
 31
0.0
  0
LINE
  5
25B3
330
28BA
100
AcDbEntity
  8
0
 62
     0
100
AcDbLine
 10
-250.7000000000098
 20
-278.7369757458673
 30
0.0
 11
250.6999999999844
 21
-517.4987545966104
 31
0.0
  0
LINE
  5
25B4
330
28BA
100
AcDbEntity
  8
0
 62
     0
100
AcDbLine
 10
-250.7000000000098
 20
-268.7370240017317
 30
0.0
 11
250.6999999999844
 21
-507.4988028524749
 31
0.0
  0
LINE
  5
25B5
330
28BA
100
AcDbEntity
  8
0
 62
     0
100
AcDbLine
 10
-250.700000000008
 20
-258.7370722575979
 30
0.0
 11
250.6999999999862
 21
-497.498851108341
 31
0.0
  0
LINE
  5
25B6
330
28BA
100
AcDbEntity
  8
0
 62
     0
100
AcDbLine
 10
-250.7000000000098
 20
-248.7371205134623
 30
0.0
 11
250.6999999999844
 21
-487.4988993642054
 31
0.0
  0
LINE
  5
25B7
330
28BA
100
AcDbEntity
  8
0
 62
     0
100
AcDbLine
 10
-250.700000000008
 20
-238.7371687693285
 30
0.0
 11
250.6999999999862
 21
-477.4989476200716
 31
0.0
  0
LINE
  5
25B8
330
28BA
100
AcDbEntity
  8
0
 62
     0
100
AcDbLine
 10
-250.7000000000098
 20
-228.7372170251929
 30
0.0
 11
250.6999999999844
 21
-467.4989958759359
 31
0.0
  0
LINE
  5
25B9
330
28BA
100
AcDbEntity
  8
0
 62
     0
100
AcDbLine
 10
-250.700000000008
 20
-218.7372652810609
 30
0.0
 11
250.6999999999862
 21
-457.499044131804
 31
0.0
  0
LINE
  5
25BA
330
28BA
100
AcDbEntity
  8
0
 62
     0
100
AcDbLine
 10
-250.700000000008
 20
-208.7373135369253
 30
0.0
 11
250.6999999999862
 21
-447.4990923876685
 31
0.0
  0
LINE
  5
25BB
330
28BA
100
AcDbEntity
  8
0
 62
     0
100
AcDbLine
 10
-250.7000000000116
 20
-198.7373617927906
 30
0.0
 11
250.6999999999898
 21
-437.4991406435362
 31
0.0
  0
LINE
  5
25BC
330
28BA
100
AcDbEntity
  8
0
 62
     0
100
AcDbLine
 10
-250.7000000000098
 20
-188.7374100486557
 30
0.0
 11
250.699999999988
 21
-427.4991888994008
 31
0.0
  0
LINE
  5
25BD
330
28BA
100
AcDbEntity
  8
0
 62
     0
100
AcDbLine
 10
-250.7000000000098
 20
-178.7374583045211
 30
0.0
 11
250.6999999999916
 21
-417.499237155267
 31
0.0
  0
LINE
  5
25BE
330
28BA
100
AcDbEntity
  8
0
 62
     0
100
AcDbLine
 10
34.89999999999054
 20
-304.7374348407493
 30
0.0
 11
49.31139443427309
 21
-311.6000000000022
 31
0.0
  0
LINE
  5
25BF
330
28BA
100
AcDbEntity
  8
0
 62
     0
100
AcDbLine
 10
49.31139443427309
 20
-311.6000000000022
 30
0.0
 11
250.699999999988
 21
-407.4992854111331
 31
0.0
  0
LINE
  5
25C0
330
28BA
100
AcDbEntity
  8
0
 62
     0
100
AcDbLine
 10
-250.7000000000098
 20
-168.7375065603883
 30
0.0
 11
34.89999999999054
 21
-304.7374348407493
 31
0.0
  0
LINE
  5
25C1
330
28BA
100
AcDbEntity
  8
0
 62
     0
100
AcDbLine
 10
34.89999999998872
 20
-294.7374830966137
 30
0.0
 11
70.31130417126587
 21
-311.6000000000022
 31
0.0
  0
LINE
  5
25C2
330
28BA
100
AcDbEntity
  8
0
 62
     0
100
AcDbLine
 10
70.31130417126587
 20
-311.6000000000022
 30
0.0
 11
250.699999999988
 21
-397.4993336669977
 31
0.0
  0
LINE
  5
25C3
330
28BA
100
AcDbEntity
  8
0
 62
     0
100
AcDbLine
 10
-250.7000000000098
 20
-158.7375548162536
 30
0.0
 11
34.89999999998872
 21
-294.7374830966137
 31
0.0
  0
LINE
  5
25C4
330
28BA
100
AcDbEntity
  8
0
 62
     0
100
AcDbLine
 10
34.89999999999236
 20
-284.7375313524797
 30
0.0
 11
91.31121390825683
 21
-311.6000000000022
 31
0.0
  0
LINE
  5
25C5
330
28BA
100
AcDbEntity
  8
0
 62
     0
100
AcDbLine
 10
91.31121390825683
 20
-311.6000000000022
 30
0.0
 11
250.6999999999898
 21
-387.4993819228638
 31
0.0
  0
LINE
  5
25C6
330
28BA
100
AcDbEntity
  8
0
 62
     0
100
AcDbLine
 10
-250.700000000008
 20
-148.7376030721198
 30
0.0
 11
34.89999999999236
 21
-284.7375313524797
 31
0.0
  0
LINE
  5
25C7
330
28BA
100
AcDbEntity
  8
0
 62
     0
100
AcDbLine
 10
34.89999999998872
 20
-274.7375796083443
 30
0.0
 11
112.3111236452441
 21
-311.6000000000004
 31
0.0
  0
LINE
  5
25C8
330
28BA
100
AcDbEntity
  8
0
 62
     0
100
AcDbLine
 10
112.311123645246
 20
-311.6000000000013
 30
0.0
 11
250.6999999999862
 21
-377.4994301787282
 31
0.0
  0
LINE
  5
25C9
330
28BA
100
AcDbEntity
  8
0
 62
     0
100
AcDbLine
 10
-250.7000000000098
 20
-138.7376513279841
 30
0.0
 11
34.89999999998872
 21
-274.7375796083443
 31
0.0
  0
LINE
  5
25CA
330
28BA
100
AcDbEntity
  8
0
 62
     0
100
AcDbLine
 10
34.89999999999236
 20
-264.7376278642105
 30
0.0
 11
133.3110333822369
 21
-311.6000000000004
 31
0.0
  0
LINE
  5
25CB
330
28BA
100
AcDbEntity
  8
0
 62
     0
100
AcDbLine
 10
133.3110333822405
 20
-311.6000000000013
 30
0.0
 11
250.6999999999916
 21
-367.4994784345945
 31
0.0
  0
LINE
  5
25CC
330
28BA
100
AcDbEntity
  8
0
 62
     0
100
AcDbLine
 10
-250.7000000000098
 20
-128.7376995838485
 30
0.0
 11
34.89999999999236
 21
-264.7376278642105
 31
0.0
  0
LINE
  5
25CD
330
28BA
100
AcDbEntity
  8
0
 62
     0
100
AcDbLine
 10
34.89999999999054
 20
-254.7376761200748
 30
0.0
 11
154.3109431192278
 21
-311.5999999999995
 31
0.0
  0
LINE
  5
25CE
330
28BA
100
AcDbEntity
  8
0
 62
     0
100
AcDbLine
 10
154.3109431192297
 20
-311.6000000000013
 30
0.0
 11
250.699999999988
 21
-357.4995266904589
 31
0.0
  0
LINE
  5
25CF
330
28BA
100
AcDbEntity
  8
0
 62
     0
100
AcDbLine
 10
-250.7000000000098
 20
-118.7377478397147
 30
0.0
 11
34.89999999999054
 21
-254.7376761200748
 31
0.0
  0
LINE
  5
25D0
330
28BA
100
AcDbEntity
  8
0
 62
     0
100
AcDbLine
 10
34.89999999999054
 20
-244.7377243759429
 30
0.0
 11
175.310852856217
 21
-311.6000000000013
 31
0.0
  0
LINE
  5
25D1
330
28BA
100
AcDbEntity
  8
0
 62
     0
100
AcDbLine
 10
175.3108528562206
 20
-311.6000000000029
 30
0.0
 11
250.699999999988
 21
-347.4995749463269
 31
0.0
  0
LINE
  5
25D2
330
28BA
100
AcDbEntity
  8
0
 62
     0
100
AcDbLine
 10
-231.6693617649107
 20
-117.8000000000038
 30
0.0
 11
34.89999999999054
 21
-244.7377243759429
 31
0.0
  0
LINE
  5
25D3
330
28BA
100
AcDbEntity
  8
0
 62
     0
100
AcDbLine
 10
34.89999999999236
 20
-234.7377726318082
 30
0.0
 11
196.3107625932098
 21
-311.6000000000013
 31
0.0
  0
LINE
  5
25D4
330
28BA
100
AcDbEntity
  8
0
 62
     0
100
AcDbLine
 10
196.3107625932134
 20
-311.6000000000029
 30
0.0
 11
250.6999999999898
 21
-337.4996232021912
 31
0.0
  0
LINE
  5
25D5
330
28BA
100
AcDbEntity
  8
0
 62
     0
100
AcDbLine
 10
-210.6694520279179
 20
-117.8000000000038
 30
0.0
 11
34.89999999999236
 21
-234.7377726318082
 31
0.0
  0
LINE
  5
25D6
330
28BA
100
AcDbEntity
  8
0
 62
     0
100
AcDbLine
 10
34.89999999999236
 20
-224.7378208876735
 30
0.0
 11
217.3106723302008
 21
-311.6000000000013
 31
0.0
  0
LINE
  5
25D7
330
28BA
100
AcDbEntity
  8
0
 62
     0
100
AcDbLine
 10
217.3106723302044
 20
-311.6000000000029
 30
0.0
 11
250.6999999999898
 21
-327.4996714580575
 31
0.0
  0
LINE
  5
25D8
330
28BA
100
AcDbEntity
  8
0
 62
     0
100
AcDbLine
 10
-189.6695422909288
 20
-117.8000000000038
 30
0.0
 11
34.89999999999236
 21
-224.7378208876735
 31
0.0
  0
LINE
  5
25D9
330
28BA
100
AcDbEntity
  8
0
 62
     0
100
AcDbLine
 10
34.89999999999418
 20
-214.7378691435397
 30
0.0
 11
238.3105820671917
 21
-311.6000000000013
 31
0.0
  0
LINE
  5
25DA
330
28BA
100
AcDbEntity
  8
0
 62
     0
100
AcDbLine
 10
238.3105820671953
 20
-311.6000000000029
 30
0.0
 11
250.6999999999898
 21
-317.4997197139219
 31
0.0
  0
LINE
  5
25DB
330
28BA
100
AcDbEntity
  8
0
 62
     0
100
AcDbLine
 10
-168.669632553936
 20
-117.8000000000038
 30
0.0
 11
34.89999999999054
 21
-214.7378691435388
 31
0.0
  0
LINE
  5
25DC
330
28BA
100
AcDbEntity
  8
0
 62
     0
100
AcDbLine
 10
34.89999999999782
 20
-204.7379173994058
 30
0.0
 11
250.6999999999953
 21
-307.4997679697899
 31
0.0
  0
LINE
  5
25DD
330
28BA
100
AcDbEntity
  8
0
 62
     0
100
AcDbLine
 10
-147.6697228169468
 20
-117.800000000002
 30
0.0
 11
34.89999999999054
 21
-204.7379173994031
 31
0.0
  0
LINE
  5
25DE
330
28BA
100
AcDbEntity
  8
0
 62
     0
100
AcDbLine
 10
34.89999999999418
 20
-194.7379656552721
 30
0.0
 11
250.6999999999916
 21
-297.4998162256561
 31
0.0
  0
LINE
  5
25DF
330
28BA
100
AcDbEntity
  8
0
 62
     0
100
AcDbLine
 10
-126.6698130799577
 20
-117.8000000000038
 30
0.0
 11
34.89999999999054
 21
-194.7379656552712
 31
0.0
  0
LINE
  5
25E0
330
28BA
100
AcDbEntity
  8
0
 62
     0
100
AcDbLine
 10
34.89999999999418
 20
-184.7380139111374
 30
0.0
 11
250.6999999999916
 21
-287.4998644815205
 31
0.0
  0
LINE
  5
25E1
330
28BA
100
AcDbEntity
  8
0
 62
     0
100
AcDbLine
 10
-105.6699033429686
 20
-117.800000000002
 30
0.0
 11
34.89999999999054
 21
-184.7380139111356
 31
0.0
  0
LINE
  5
25E2
330
28BA
100
AcDbEntity
  8
0
 62
     0
100
AcDbLine
 10
34.899999999996
 20
-174.7380621670027
 30
0.0
 11
250.6999999999933
 21
-277.4999127373867
 31
0.0
  0
LINE
  5
25E3
330
28BA
100
AcDbEntity
  8
0
 62
     0
100
AcDbLine
 10
-84.66999360597766
 20
-117.800000000002
 30
0.0
 11
34.89999999999236
 21
-174.7380621670018
 31
0.0
  0
LINE
  5
25E4
330
28BA
100
AcDbEntity
  8
0
 62
     0
100
AcDbLine
 10
34.89999999999236
 20
-164.738110422868
 30
0.0
 11
250.6999999999916
 21
-267.4999609932511
 31
0.0
  0
LINE
  5
25E5
330
28BA
100
AcDbEntity
  8
0
 62
     0
100
AcDbLine
 10
-63.6700838689885
 20
-117.800000000002
 30
0.0
 11
34.89999999998872
 21
-164.7381104228661
 31
0.0
  0
LINE
  5
25E6
330
28BA
100
AcDbEntity
  8
0
 62
     0
100
AcDbLine
 10
34.899999999996
 20
-154.7381586787342
 30
0.0
 11
250.6999999999933
 21
-257.5000092491173
 31
0.0
  0
LINE
  5
25E7
330
28BA
100
AcDbEntity
  8
0
 62
     0
100
AcDbLine
 10
-42.67017413199574
 20
-117.8000000000011
 30
0.0
 11
34.89999999999236
 21
-154.7381586787324
 31
0.0
  0
LINE
  5
25E8
330
28BA
100
AcDbEntity
  8
0
 62
     0
100
AcDbLine
 10
34.89999999999418
 20
-144.7382069346003
 30
0.0
 11
250.6999999999916
 21
-247.5000575049835
 31
0.0
  0
LINE
  5
25E9
330
28BA
100
AcDbEntity
  8
0
 62
     0
100
AcDbLine
 10
-21.67026439500476
 20
-117.8000000000029
 30
0.0
 11
34.89999999999054
 21
-144.7382069345986
 31
0.0
  0
LINE
  5
25EA
330
28BA
100
AcDbEntity
  8
0
 62
     0
100
AcDbLine
 10
34.89999999999418
 20
-134.7382551904666
 30
0.0
 11
250.6999999999933
 21
-237.5001057608497
 31
0.0
  0
LINE
  5
25EB
330
28BA
100
AcDbEntity
  8
0
 62
     0
100
AcDbLine
 10
-0.6703546580138209
 20
-117.8000000000029
 30
0.0
 11
34.89999999999236
 21
-134.7382551904647
 31
0.0
  0
LINE
  5
25EC
330
28BA
100
AcDbEntity
  8
0
 62
     0
100
AcDbLine
 10
34.89999999999418
 20
-124.7383034463309
 30
0.0
 11
250.6999999999916
 21
-227.500154016715
 31
0.0
  0
LINE
  5
25ED
330
28BA
100
AcDbEntity
  8
0
 62
     0
100
AcDbLine
 10
20.32955507897714
 20
-117.8000000000029
 30
0.0
 11
34.89999999999054
 21
-124.7383034463291
 31
0.0
  0
LINE
  5
25EE
330
28BA
100
AcDbEntity
  8
0
 62
     0
100
AcDbLine
 10
41.32946481596991
 20
-117.8000000000029
 30
0.0
 11
250.6999999999933
 21
-217.5002022725803
 31
0.0
  0
LINE
  5
25EF
330
28BA
100
AcDbEntity
  8
0
 62
     0
100
AcDbLine
 10
62.32937455295905
 20
-117.8000000000029
 30
0.0
 11
250.699999999988
 21
-207.5002505284437
 31
0.0
  0
LINE
  5
25F0
330
28BA
100
AcDbEntity
  8
0
 62
     0
100
AcDbLine
 10
83.32928428995185
 20
-117.8000000000029
 30
0.0
 11
250.6999999999898
 21
-197.5002987843081
 31
0.0
  0
LINE
  5
25F1
330
28BA
100
AcDbEntity
  8
0
 62
     0
100
AcDbLine
 10
104.3291940269428
 20
-117.8000000000047
 30
0.0
 11
250.6999999999898
 21
-187.5003470401761
 31
0.0
  0
LINE
  5
25F2
330
28BA
100
AcDbEntity
  8
0
 62
     0
100
AcDbLine
 10
125.3291037639283
 20
-117.8000000000029
 30
0.0
 11
250.6999999999862
 21
-177.5003952960404
 31
0.0
  0
LINE
  5
25F3
330
28BA
100
AcDbEntity
  8
0
 62
     0
100
AcDbLine
 10
146.3290135009229
 20
-117.8000000000029
 30
0.0
 11
250.6999999999916
 21
-167.5004435519066
 31
0.0
  0
LINE
  5
25F4
330
28BA
100
AcDbEntity
  8
0
 62
     0
100
AcDbLine
 10
167.3289232379084
 20
-117.8000000000011
 30
0.0
 11
250.699999999988
 21
-157.5004918077711
 31
0.0
  0
LINE
  5
25F5
330
28BA
100
AcDbEntity
  8
0
 62
     0
100
AcDbLine
 10
188.3288329749012
 20
-117.8000000000011
 30
0.0
 11
250.6999999999898
 21
-147.5005400636373
 31
0.0
  0
LINE
  5
25F6
330
28BA
100
AcDbEntity
  8
0
 62
     0
100
AcDbLine
 10
209.3287427118921
 20
-117.800000000002
 30
0.0
 11
250.6999999999898
 21
-137.5005883195035
 31
0.0
  0
LINE
  5
25F7
330
28BA
100
AcDbEntity
  8
0
 62
     0
100
AcDbLine
 10
230.3286524488831
 20
-117.800000000002
 30
0.0
 11
250.6999999999898
 21
-127.5006365753697
 31
0.0
  0
ENDBLK
  5
25F8
330
28BA
100
AcDbEntity
  8
0
100
AcDbBlockEnd
  0
BLOCK
  5
28BD
330
28BC
100
AcDbEntity
  8
0
100
AcDbBlockBegin
  2
*X77
 70
     1
 10
0.0
 20
0.0
 30
0.0
  3
*X77
  1

  0
LINE
  5
25FB
330
28BC
100
AcDbEntity
  8
0
 62
     0
100
AcDbLine
 10
250.5804235696414
 20
-576.2000000000016
 30
0.0
 11
250.6999999999971
 21
-576.1430588727189
 31
0.0
  0
LINE
  5
25FC
330
28BC
100
AcDbEntity
  8
0
 62
     0
100
AcDbLine
 10
229.5805138326541
 20
-576.2000000000016
 30
0.0
 11
250.6999999999971
 21
-566.143107128583
 31
0.0
  0
LINE
  5
25FD
330
28BC
100
AcDbEntity
  8
0
 62
     0
100
AcDbLine
 10
208.5806040956632
 20
-576.1999999999998
 30
0.0
 11
250.6999999999971
 21
-556.1431553844477
 31
0.0
  0
LINE
  5
25FE
330
28BC
100
AcDbEntity
  8
0
 62
     0
100
AcDbLine
 10
187.5806943586721
 20
-576.2000000000007
 30
0.0
 11
250.6999999999971
 21
-546.1432036403148
 31
0.0
  0
LINE
  5
25FF
330
28BC
100
AcDbEntity
  8
0
 62
     0
100
AcDbLine
 10
166.5807846216812
 20
-576.2000000000007
 30
0.0
 11
250.7000000000007
 21
-536.1432518961792
 31
0.0
  0
LINE
  5
2600
330
28BC
100
AcDbEntity
  8
0
 62
     0
100
AcDbLine
 10
145.5808748846902
 20
-576.2000000000016
 30
0.0
 11
250.6999999999971
 21
-526.1433001520463
 31
0.0
  0
LINE
  5
2601
330
28BC
100
AcDbEntity
  8
0
 62
     0
100
AcDbLine
 10
124.5809651476993
 20
-576.2000000000016
 30
0.0
 11
250.6999999999971
 21
-516.1433484079108
 31
0.0
  0
LINE
  5
2602
330
28BC
100
AcDbEntity
  8
0
 62
     0
100
AcDbLine
 10
103.5810554107083
 20
-576.2000000000016
 30
0.0
 11
250.6999999999971
 21
-506.1433966637769
 31
0.0
  0
LINE
  5
2603
330
28BC
100
AcDbEntity
  8
0
 62
     0
100
AcDbLine
 10
82.58114567371737
 20
-576.2000000000025
 30
0.0
 11
250.6999999999971
 21
-496.143444919642
 31
0.0
  0
LINE
  5
2604
330
28BC
100
AcDbEntity
  8
0
 62
     0
100
AcDbLine
 10
61.58123593673008
 20
-576.2000000000007
 30
0.0
 11
250.7000000000007
 21
-486.1434931755066
 31
0.0
  0
LINE
  5
2605
330
28BC
100
AcDbEntity
  8
0
 62
     0
100
AcDbLine
 10
40.5813261997391
 20
-576.2000000000007
 30
0.0
 11
250.7000000000007
 21
-476.1435414313727
 31
0.0
  0
LINE
  5
2606
330
28BC
100
AcDbEntity
  8
0
 62
     0
100
AcDbLine
 10
19.58141646274453
 20
-576.2000000000007
 30
0.0
 11
250.6999999999971
 21
-466.143589687238
 31
0.0
  0
LINE
  5
2607
330
28BC
100
AcDbEntity
  8
0
 62
     0
100
AcDbLine
 10
-1.41849327424279
 20
-576.2000000000007
 30
0.0
 11
250.6999999999971
 21
-456.143637943104
 31
0.0
  0
LINE
  5
2608
330
28BC
100
AcDbEntity
  8
0
 62
     0
100
AcDbLine
 10
-22.41840301123739
 20
-576.2000000000016
 30
0.0
 11
250.6999999999971
 21
-446.1436861989705
 31
0.0
  0
LINE
  5
2609
330
28BC
100
AcDbEntity
  8
0
 62
     0
100
AcDbLine
 10
-43.41831274822832
 20
-576.2000000000016
 30
0.0
 11
250.7000000000007
 21
-436.1437344548348
 31
0.0
  0
LINE
  5
260A
330
28BC
100
AcDbEntity
  8
0
 62
     0
100
AcDbLine
 10
-64.41822248521567
 20
-576.1999999999998
 30
0.0
 11
250.7000000000007
 21
-426.1437827106991
 31
0.0
  0
LINE
  5
260B
330
28BC
100
AcDbEntity
  8
0
 62
     0
100
AcDbLine
 10
-85.41813222220662
 20
-576.2000000000007
 30
0.0
 11
250.6999999999971
 21
-416.1438309665664
 31
0.0
  0
LINE
  5
260C
330
28BC
100
AcDbEntity
  8
0
 62
     0
100
AcDbLine
 10
-106.4180419591975
 20
-576.2000000000007
 30
0.0
 11
250.7000000000007
 21
-406.1438792224307
 31
0.0
  0
LINE
  5
260D
330
28BC
100
AcDbEntity
  8
0
 62
     0
100
AcDbLine
 10
-127.4179516961885
 20
-576.2000000000016
 30
0.0
 11
250.7000000000044
 21
-396.1439274782961
 31
0.0
  0
LINE
  5
260E
330
28BC
100
AcDbEntity
  8
0
 62
     0
100
AcDbLine
 10
-148.4178614331795
 20
-576.2000000000016
 30
0.0
 11
250.7000000000007
 21
-386.1439757341623
 31
0.0
  0
LINE
  5
260F
330
28BC
100
AcDbEntity
  8
0
 62
     0
100
AcDbLine
 10
-169.4177711701704
 20
-576.2000000000016
 30
0.0
 11
250.7000000000007
 21
-376.1440239900267
 31
0.0
  0
LINE
  5
2610
330
28BC
100
AcDbEntity
  8
0
 62
     0
100
AcDbLine
 10
-190.4176809071614
 20
-576.2000000000025
 30
0.0
 11
250.7000000000007
 21
-366.1440722458938
 31
0.0
  0
LINE
  5
2611
330
28BC
100
AcDbEntity
  8
0
 62
     0
100
AcDbLine
 10
-211.4175906441523
 20
-576.2000000000007
 30
0.0
 11
250.7000000000007
 21
-356.1441205017581
 31
0.0
  0
LINE
  5
2612
330
28BC
100
AcDbEntity
  8
0
 62
     0
100
AcDbLine
 10
-232.4175003811397
 20
-576.2000000000007
 30
0.0
 11
250.7000000000007
 21
-346.1441687576244
 31
0.0
  0
LINE
  5
2613
330
28BC
100
AcDbEntity
  8
0
 62
     0
100
AcDbLine
 10
-250.6999999999933
 20
-574.9059958642344
 30
0.0
 11
250.7000000000044
 21
-336.1442170134897
 31
0.0
  0
LINE
  5
2614
330
28BC
100
AcDbEntity
  8
0
 62
     0
100
AcDbLine
 10
-250.6999999999971
 20
-564.9060441201007
 30
0.0
 11
250.7000000000007
 21
-326.144265269354
 31
0.0
  0
LINE
  5
2615
330
28BC
100
AcDbEntity
  8
0
 62
     0
100
AcDbLine
 10
-250.6999999999971
 20
-554.906092375966
 30
0.0
 11
250.7000000000007
 21
-316.1443135252209
 31
0.0
  0
LINE
  5
2616
330
28BC
100
AcDbEntity
  8
0
 62
     0
100
AcDbLine
 10
239.2431536985132
 20
-311.6000000000004
 30
0.0
 11
250.6999999999933
 21
-306.1443617810909
 31
0.0
  0
LINE
  5
2617
330
28BC
100
AcDbEntity
  8
0
 62
     0
100
AcDbLine
 10
-250.6999999999971
 20
-544.9061406318324
 30
0.0
 11
239.2431536985132
 21
-311.6000000000004
 31
0.0
  0
LINE
  5
2618
330
28BC
100
AcDbEntity
  8
0
 62
     0
100
AcDbLine
 10
218.2432439615186
 20
-311.6000000000004
 30
0.0
 11
250.6999999999933
 21
-296.1444100369554
 31
0.0
  0
LINE
  5
2619
330
28BC
100
AcDbEntity
  8
0
 62
     0
100
AcDbLine
 10
-250.6999999999971
 20
-534.9061888876967
 30
0.0
 11
218.2432439615186
 21
-311.6000000000004
 31
0.0
  0
LINE
  5
261A
330
28BC
100
AcDbEntity
  8
0
 62
     0
100
AcDbLine
 10
197.2433342245276
 20
-311.6000000000013
 30
0.0
 11
250.6999999999933
 21
-286.1444582928225
 31
0.0
  0
LINE
  5
261B
330
28BC
100
AcDbEntity
  8
0
 62
     0
100
AcDbLine
 10
-250.6999999999971
 20
-524.9062371435639
 30
0.0
 11
197.2433342245276
 21
-311.6000000000013
 31
0.0
  0
LINE
  5
261C
330
28BC
100
AcDbEntity
  8
0
 62
     0
100
AcDbLine
 10
176.2434244875367
 20
-311.6000000000013
 30
0.0
 11
250.6999999999933
 21
-276.1445065486869
 31
0.0
  0
LINE
  5
261D
330
28BC
100
AcDbEntity
  8
0
 62
     0
100
AcDbLine
 10
-250.6999999999971
 20
-514.9062853994283
 30
0.0
 11
176.2434244875367
 21
-311.6000000000013
 31
0.0
  0
LINE
  5
261E
330
28BC
100
AcDbEntity
  8
0
 62
     0
100
AcDbLine
 10
155.2435147505457
 20
-311.6000000000013
 30
0.0
 11
250.6999999999933
 21
-266.1445548045513
 31
0.0
  0
LINE
  5
261F
330
28BC
100
AcDbEntity
  8
0
 62
     0
100
AcDbLine
 10
-250.6999999999971
 20
-504.9063336552926
 30
0.0
 11
155.2435147505457
 21
-311.6000000000013
 31
0.0
  0
LINE
  5
2620
330
28BC
100
AcDbEntity
  8
0
 62
     0
100
AcDbLine
 10
134.2436050135547
 20
-311.6000000000022
 30
0.0
 11
250.6999999999933
 21
-256.1446030604184
 31
0.0
  0
LINE
  5
2621
330
28BC
100
AcDbEntity
  8
0
 62
     0
100
AcDbLine
 10
-250.6999999999971
 20
-494.9063819111596
 30
0.0
 11
134.2436050135547
 21
-311.6000000000022
 31
0.0
  0
LINE
  5
2622
330
28BC
100
AcDbEntity
  8
0
 62
     0
100
AcDbLine
 10
113.2436952765638
 20
-311.6000000000004
 30
0.0
 11
250.6999999999933
 21
-246.1446513162828
 31
0.0
  0
LINE
  5
2623
330
28BC
100
AcDbEntity
  8
0
 62
     0
100
AcDbLine
 10
-250.6999999999971
 20
-484.9064301670241
 30
0.0
 11
113.2436952765601
 21
-311.6000000000022
 31
0.0
  0
LINE
  5
2624
330
28BC
100
AcDbEntity
  8
0
 62
     0
100
AcDbLine
 10
92.24378553957649
 20
-311.6000000000013
 30
0.0
 11
250.6999999999933
 21
-236.1446995721499
 31
0.0
  0
LINE
  5
2625
330
28BC
100
AcDbEntity
  8
0
 62
     0
100
AcDbLine
 10
-250.6999999999971
 20
-474.9064784228911
 30
0.0
 11
92.24378553957285
 21
-311.6000000000029
 31
0.0
  0
LINE
  5
2626
330
28BC
100
AcDbEntity
  8
0
 62
     0
100
AcDbLine
 10
71.24387580258555
 20
-311.6000000000013
 30
0.0
 11
250.6999999999971
 21
-226.1447478280143
 31
0.0
  0
LINE
  5
2627
330
28BC
100
AcDbEntity
  8
0
 62
     0
100
AcDbLine
 10
-250.6999999999933
 20
-464.9065266787556
 30
0.0
 11
71.24387580258555
 21
-311.6000000000013
 31
0.0
  0
LINE
  5
2628
330
28BC
100
AcDbEntity
  8
0
 62
     0
100
AcDbLine
 10
50.24396606559458
 20
-311.5999999999995
 30
0.0
 11
250.6999999999898
 21
-216.1447960838805
 31
0.0
  0
LINE
  5
2629
330
28BC
100
AcDbEntity
  8
0
 62
     0
100
AcDbLine
 10
-250.7000000000007
 20
-454.9065749346218
 30
0.0
 11
50.24396606559093
 21
-311.6000000000013
 31
0.0
  0
LINE
  5
262A
330
28BC
100
AcDbEntity
  8
0
 62
     0
100
AcDbLine
 10
34.89999999999782
 20
-308.906694910128
 30
0.0
 11
250.6999999999971
 21
-206.1448443397448
 31
0.0
  0
LINE
  5
262B
330
28BC
100
AcDbEntity
  8
0
 62
     0
100
AcDbLine
 10
-250.6999999999971
 20
-444.9066231904871
 30
0.0
 11
34.89999999999782
 21
-308.9066949101297
 31
0.0
  0
LINE
  5
262C
330
28BC
100
AcDbEntity
  8
0
 62
     0
100
AcDbLine
 10
34.89999999999782
 20
-298.9067431659941
 30
0.0
 11
250.7000000000007
 21
-196.1448925956092
 31
0.0
  0
LINE
  5
262D
330
28BC
100
AcDbEntity
  8
0
 62
     0
100
AcDbLine
 10
-250.6999999999971
 20
-434.9066714463533
 30
0.0
 11
34.89999999999418
 21
-298.9067431659961
 31
0.0
  0
LINE
  5
262E
330
28BC
100
AcDbEntity
  8
0
 62
     0
100
AcDbLine
 10
34.89999999999782
 20
-288.9067914218585
 30
0.0
 11
250.6999999999971
 21
-186.1449408514754
 31
0.0
  0
LINE
  5
262F
330
28BC
100
AcDbEntity
  8
0
 62
     0
100
AcDbLine
 10
-250.6999999999971
 20
-424.9067197022186
 30
0.0
 11
34.89999999999418
 21
-288.9067914218604
 31
0.0
  0
LINE
  5
2630
330
28BC
100
AcDbEntity
  8
0
 62
     0
100
AcDbLine
 10
34.90000000000146
 20
-278.9068396777247
 30
0.0
 11
250.6999999999971
 21
-176.1449891073407
 31
0.0
  0
LINE
  5
2631
330
28BC
100
AcDbEntity
  8
0
 62
     0
100
AcDbLine
 10
-250.6999999999933
 20
-414.9067679580839
 30
0.0
 11
34.89999999999418
 21
-278.9068396777275
 31
0.0
  0
LINE
  5
2632
330
28BC
100
AcDbEntity
  8
0
 62
     0
100
AcDbLine
 10
34.90000000000146
 20
-268.906887933591
 30
0.0
 11
250.6999999999971
 21
-166.1450373632069
 31
0.0
  0
LINE
  5
2633
330
28BC
100
AcDbEntity
  8
0
 62
     0
100
AcDbLine
 10
-250.6999999999971
 20
-404.90681621395
 30
0.0
 11
34.89999999999782
 21
-268.9068879335918
 31
0.0
  0
LINE
  5
2634
330
28BC
100
AcDbEntity
  8
0
 62
     0
100
AcDbLine
 10
34.89999999999782
 20
-258.9069361894563
 30
0.0
 11
250.6999999999971
 21
-156.1450856190722
 31
0.0
  0
LINE
  5
2635
330
28BC
100
AcDbEntity
  8
0
 62
     0
100
AcDbLine
 10
-250.6999999999971
 20
-394.9068644698154
 30
0.0
 11
34.89999999999782
 21
-258.9069361894571
 31
0.0
  0
LINE
  5
2636
330
28BC
100
AcDbEntity
  8
0
 62
     0
100
AcDbLine
 10
34.89999999999782
 20
-248.9069844453224
 30
0.0
 11
250.6999999999971
 21
-146.1451338749384
 31
0.0
  0
LINE
  5
2637
330
28BC
100
AcDbEntity
  8
0
 62
     0
100
AcDbLine
 10
-250.6999999999971
 20
-384.9069127256817
 30
0.0
 11
34.89999999999418
 21
-248.9069844453234
 31
0.0
  0
LINE
  5
2638
330
28BC
100
AcDbEntity
  8
0
 62
     0
100
AcDbLine
 10
34.90000000000146
 20
-238.9070327011868
 30
0.0
 11
250.7000000000007
 21
-136.1451821308028
 31
0.0
  0
LINE
  5
2639
330
28BC
100
AcDbEntity
  8
0
 62
     0
100
AcDbLine
 10
-250.6999999999933
 20
-374.906960981546
 30
0.0
 11
34.89999999999782
 21
-238.9070327011877
 31
0.0
  0
LINE
  5
263A
330
28BC
100
AcDbEntity
  8
0
 62
     0
100
AcDbLine
 10
34.89999999999782
 20
-228.907080957054
 30
0.0
 11
250.6999999999971
 21
-126.1452303866681
 31
0.0
  0
LINE
  5
263B
330
28BC
100
AcDbEntity
  8
0
 62
     0
100
AcDbLine
 10
-250.6999999999971
 20
-364.9070092374131
 30
0.0
 11
34.89999999999418
 21
-228.9070809570548
 31
0.0
  0
LINE
  5
263C
330
28BC
100
AcDbEntity
  8
0
 62
     0
100
AcDbLine
 10
34.90000000000146
 20
-218.9071292129183
 30
0.0
 11
247.2250833168182
 21
-117.800000000002
 31
0.0
  0
LINE
  5
263D
330
28BC
100
AcDbEntity
  8
0
 62
     0
100
AcDbLine
 10
-250.6999999999971
 20
-354.9070574932776
 30
0.0
 11
34.89999999999782
 21
-218.9071292129201
 31
0.0
  0
LINE
  5
263E
330
28BC
100
AcDbEntity
  8
0
 62
     0
100
AcDbLine
 10
34.89999999999418
 20
-208.9071774687845
 30
0.0
 11
226.2251735798272
 21
-117.8000000000011
 31
0.0
  0
LINE
  5
263F
330
28BC
100
AcDbEntity
  8
0
 62
     0
100
AcDbLine
 10
-250.7000000000044
 20
-344.9071057491457
 30
0.0
 11
34.89999999999418
 21
-208.9071774687845
 31
0.0
  0
LINE
  5
2640
330
28BC
100
AcDbEntity
  8
0
 62
     0
100
AcDbLine
 10
34.89999999999782
 20
-198.9072257246498
 30
0.0
 11
205.2252638428363
 21
-117.8000000000011
 31
0.0
  0
LINE
  5
2641
330
28BC
100
AcDbEntity
  8
0
 62
     0
100
AcDbLine
 10
-250.7000000000007
 20
-334.9071540050108
 30
0.0
 11
34.89999999999782
 21
-198.9072257246498
 31
0.0
  0
LINE
  5
2642
330
28BC
100
AcDbEntity
  8
0
 62
     0
100
AcDbLine
 10
34.90000000000146
 20
-188.9072739805141
 30
0.0
 11
184.2253541058453
 21
-117.8000000000011
 31
0.0
  0
LINE
  5
2643
330
28BC
100
AcDbEntity
  8
0
 62
     0
100
AcDbLine
 10
-250.7000000000007
 20
-324.9072022608771
 30
0.0
 11
34.90000000000146
 21
-188.9072739805141
 31
0.0
  0
LINE
  5
2644
330
28BC
100
AcDbEntity
  8
0
 62
     0
100
AcDbLine
 10
34.89999999999782
 20
-178.9073222363813
 30
0.0
 11
163.2254443688544
 21
-117.800000000002
 31
0.0
  0
LINE
  5
2645
330
28BC
100
AcDbEntity
  8
0
 62
     0
100
AcDbLine
 10
-250.7000000000007
 20
-314.9072505167424
 30
0.0
 11
34.89999999999782
 21
-178.9073222363813
 31
0.0
  0
LINE
  5
2646
330
28BC
100
AcDbEntity
  8
0
 62
     0
100
AcDbLine
 10
34.90000000000146
 20
-168.9073704922457
 30
0.0
 11
142.2255346318634
 21
-117.800000000002
 31
0.0
  0
LINE
  5
2647
330
28BC
100
AcDbEntity
  8
0
 62
     0
100
AcDbLine
 10
-250.7000000000007
 20
-304.9072987726067
 30
0.0
 11
34.90000000000146
 21
-168.9073704922457
 31
0.0
  0
LINE
  5
2648
330
28BC
100
AcDbEntity
  8
0
 62
     0
100
AcDbLine
 10
34.89999999999782
 20
-158.9074187481118
 30
0.0
 11
121.2256248948724
 21
-117.800000000002
 31
0.0
  0
LINE
  5
2649
330
28BC
100
AcDbEntity
  8
0
 62
     0
100
AcDbLine
 10
-250.7000000000007
 20
-294.907347028473
 30
0.0
 11
34.89999999999782
 21
-158.9074187481118
 31
0.0
  0
LINE
  5
264A
330
28BC
100
AcDbEntity
  8
0
 62
     0
100
AcDbLine
 10
34.89999999999782
 20
-148.9074670039772
 30
0.0
 11
100.2257151578815
 21
-117.8000000000029
 31
0.0
  0
LINE
  5
264B
330
28BC
100
AcDbEntity
  8
0
 62
     0
100
AcDbLine
 10
-250.7000000000007
 20
-284.9073952843383
 30
0.0
 11
34.89999999999782
 21
-148.9074670039772
 31
0.0
  0
LINE
  5
264C
330
28BC
100
AcDbEntity
  8
0
 62
     0
100
AcDbLine
 10
34.89999999999782
 20
-138.9075152598434
 30
0.0
 11
79.22580542089419
 21
-117.8000000000011
 31
0.0
  0
LINE
  5
264D
330
28BC
100
AcDbEntity
  8
0
 62
     0
100
AcDbLine
 10
-250.7000000000007
 20
-274.9074435402044
 30
0.0
 11
34.89999999999782
 21
-138.9075152598434
 31
0.0
  0
LINE
  5
264E
330
28BC
100
AcDbEntity
  8
0
 62
     0
100
AcDbLine
 10
34.90000000000146
 20
-128.9075635157078
 30
0.0
 11
58.22589568390322
 21
-117.8000000000011
 31
0.0
  0
LINE
  5
264F
330
28BC
100
AcDbEntity
  8
0
 62
     0
100
AcDbLine
 10
-250.6999999999971
 20
-264.9074917960688
 30
0.0
 11
34.90000000000146
 21
-128.9075635157078
 31
0.0
  0
LINE
  5
2650
330
28BC
100
AcDbEntity
  8
0
 62
     0
100
AcDbLine
 10
34.90000000000146
 20
-118.9076117715731
 30
0.0
 11
37.22598594690863
 21
-117.800000000002
 31
0.0
  0
LINE
  5
2651
330
28BC
100
AcDbEntity
  8
0
 62
     0
100
AcDbLine
 10
-250.7000000000044
 20
-254.907540051936
 30
0.0
 11
34.90000000000146
 21
-118.9076117715731
 31
0.0
  0
LINE
  5
2652
330
28BC
100
AcDbEntity
  8
0
 62
     0
100
AcDbLine
 10
-250.7000000000007
 20
-244.9075883078003
 30
0.0
 11
16.2260762099213
 21
-117.800000000002
 31
0.0
  0
LINE
  5
2653
330
28BC
100
AcDbEntity
  8
0
 62
     0
100
AcDbLine
 10
-250.7000000000044
 20
-234.9076365636674
 30
0.0
 11
-4.773833527073293
 21
-117.8000000000029
 31
0.0
  0
LINE
  5
2654
330
28BC
100
AcDbEntity
  8
0
 62
     0
100
AcDbLine
 10
-250.7000000000007
 20
-224.9076848195318
 30
0.0
 11
-25.77374326406425
 21
-117.800000000002
 31
0.0
  0
LINE
  5
2655
330
28BC
100
AcDbEntity
  8
0
 62
     0
100
AcDbLine
 10
-250.6999999999971
 20
-214.9077330753962
 30
0.0
 11
-46.77365300105157
 21
-117.8000000000011
 31
0.0
  0
LINE
  5
2656
330
28BC
100
AcDbEntity
  8
0
 62
     0
100
AcDbLine
 10
-250.7000000000007
 20
-204.9077813312633
 30
0.0
 11
-67.77356273803889
 21
-117.8000000000011
 31
0.0
  0
LINE
  5
2657
330
28BC
100
AcDbEntity
  8
0
 62
     0
100
AcDbLine
 10
-250.7000000000007
 20
-194.9078295871277
 30
0.0
 11
-88.77347247503347
 21
-117.8000000000011
 31
0.0
  0
LINE
  5
2658
330
28BC
100
AcDbEntity
  8
0
 62
     0
100
AcDbLine
 10
-250.7000000000007
 20
-184.9078778429939
 30
0.0
 11
-109.7733822120208
 21
-117.8000000000002
 31
0.0
  0
LINE
  5
2659
330
28BC
100
AcDbEntity
  8
0
 62
     0
100
AcDbLine
 10
-250.7000000000007
 20
-174.9079260988592
 30
0.0
 11
-130.7732919490154
 21
-117.8000000000002
 31
0.0
  0
LINE
  5
265A
330
28BC
100
AcDbEntity
  8
0
 62
     0
100
AcDbLine
 10
-250.7000000000007
 20
-164.9079743547254
 30
0.0
 11
-151.7732016860027
 21
-117.8000000000002
 31
0.0
  0
LINE
  5
265B
330
28BC
100
AcDbEntity
  8
0
 62
     0
100
AcDbLine
 10
-250.7000000000007
 20
-154.9080226105907
 30
0.0
 11
-172.7731114229936
 21
-117.8000000000011
 31
0.0
  0
LINE
  5
265C
330
28BC
100
AcDbEntity
  8
0
 62
     0
100
AcDbLine
 10
-250.7000000000044
 20
-144.9080708664569
 30
0.0
 11
-193.7730211599883
 21
-117.8000000000011
 31
0.0
  0
LINE
  5
265D
330
28BC
100
AcDbEntity
  8
0
 62
     0
100
AcDbLine
 10
-250.7000000000007
 20
-134.9081191223222
 30
0.0
 11
-214.7729308969756
 21
-117.8000000000011
 31
0.0
  0
LINE
  5
265E
330
28BC
100
AcDbEntity
  8
0
 62
     0
100
AcDbLine
 10
-250.7000000000007
 20
-124.9081673781884
 30
0.0
 11
-235.7728406339666
 21
-117.800000000002
 31
0.0
  0
ENDBLK
  5
265F
330
28BC
100
AcDbEntity
  8
0
100
AcDbBlockEnd
  0
ENDSEC
  0
SECTION
  2
ENTITIES
  0
TEXT
  5
953
330
27DB
100
AcDbEntity
  8
OUTLINE
  6
Continuous
 62
     3
100
AcDbText
 10
-418.231467
 20
13.715189
 30
0.0
 40
64.0
  1
 
 41
0.9
100
AcDbText
  0
TEXT
  5
954
330
27DB
100
AcDbEntity
  8
OUTLINE
  6
Continuous
 62
     3
100
AcDbText
 10
-418.231467
 20
13.715189
 30
0.0
 40
64.0
  1
 
 41
0.9
100
AcDbText
  0
TEXT
  5
955
330
27DB
100
AcDbEntity
  8
OUTLINE
  6
Continuous
 62
     3
100
AcDbText
 10
1341.41903
 20
-706.0588199999997
 30
0.0
 40
64.0
  1
 
 41
0.9
100
AcDbText
  0
TEXT
  5
956
330
27DB
100
AcDbEntity
  8
OUTLINE
  6
Continuous
 62
     3
100
AcDbText
 10
1341.41903
 20
-706.0588199999997
 30
0.0
 40
64.0
  1
 
 41
0.9
100
AcDbText
  0
TEXT
  5
957
330
27DB
100
AcDbEntity
  8
OUTLINE
  6
Continuous
 62
     3
100
AcDbText
 10
1341.41903
 20
-706.0588199999997
 30
0.0
 40
64.0
  1
 
 41
0.9
100
AcDbText
  0
TEXT
  5
958
330
27DB
100
AcDbEntity
  8
OUTLINE
  6
Continuous
 62
     3
100
AcDbText
 10
1341.41903
 20
-706.0588199999997
 30
0.0
 40
64.0
  1
 
 41
0.9
100
AcDbText
  0
TEXT
  5
26C8
330
27DB
100
AcDbEntity
  8
ETC
100
AcDbText
 10
464.2937580189571
 20
242.1378957962892
 30
0.0
 40
64.0
  1
システム部材
 41
0.9
100
AcDbText
  0
TEXT
  5
26C9
330
27DB
100
AcDbEntity
  8
ETC
100
AcDbText
 10
470.5017560189552
 20
343.0212217962889
 30
0.0
 40
64.0
  1
QW-50SDB_6
 41
0.9
100
AcDbText
  0
TEXT
  5
26CA
330
27DB
100
AcDbEntity
  8
ETC
100
AcDbText
 10
464.2937580189571
 20
142.1378957962888
 30
0.0
 40
64.0
  1
QW-50SDB
 41
0.9
100
AcDbText
  0
POINT
  5
26CB
330
27DB
100
AcDbEntity
  8
ARRANGE
100
AcDbPoint
 10
0.0
 20
0.0
 30
0.0
 39
50.0
  0
LINE
  5
26CC
330
27DB
100
AcDbEntity
  8
DETAIL
100
AcDbLine
 10
250.6999999999971
 20
-576.1999999999998
 30
0.0
 11
250.6999999999971
 21
-117.8000000000002
 31
0.0
  0
LINE
  5
26CD
330
27DB
100
AcDbEntity
  8
DETAIL
100
AcDbLine
 10
-250.7000000000007
 20
-117.7999999999997
 30
0.0
 11
-250.7000000000007
 21
-576.1999999999998
 31
0.0
  0
LINE
  5
26CE
330
27DB
100
AcDbEntity
  8
BASIS
100
AcDbLine
 10
0.0
 20
25.0
 30
0.0
 11
0.0
 21
-638.0
 31
0.0
  0
LINE
  5
26CF
330
27DB
100
AcDbEntity
  8
DETAIL
100
AcDbLine
 10
-250.7000000000007
 20
-117.7999999999997
 30
0.0
 11
250.6999999999971
 21
-117.7999999999997
 31
0.0
  0
LINE
  5
26D0
330
27DB
100
AcDbEntity
  8
NOTE
100
AcDbLine
 10
-280.0
 20
12.50000000000023
 30
0.0
 11
-280.0
 21
-12.50000000000023
 31
0.0
  0
CIRCLE
  5
26D1
330
27DB
100
AcDbEntity
  8
ARRANGE
100
AcDbCircle
 10
0.0
 20
0.0
 30
0.0
 40
40.0
  0
LINE
  5
26D2
330
27DB
100
AcDbEntity
  8
NOTE
100
AcDbLine
 10
280.0
 20
-12.5
 30
0.0
 11
280.0
 21
12.5
 31
0.0
  0
LINE
  5
26D3
330
27DB
100
AcDbEntity
  8
DETAIL
100
AcDbLine
 10
250.6999999999971
 20
-576.1999999999998
 30
0.0
 11
-250.7000000000007
 21
-576.1999999999998
 31
0.0
  0
INSERT
  5
26D4
330
27DB
100
AcDbEntity
  8
0
100
AcDbBlockReference
  2
*U74
 10
0.0
 20
0.0
 30
0.0
1001
ACAD
1000
DSTYLE
1002
{
1070
    41
1040
12.0
1070
    42
1040
20.0
1070
    43
1040
200.0
1070
    44
1040
20.0
1070
    73
1070
     0
1070
    74
1070
     0
1070
    77
1070
     1
1070
    78
1070
     8
1070
   140
1040
64.0
1070
   147
1040
50.0
1070
   172
1070
     1
1070
   174
1070
     1
1070
   275
1070
     0
1070
   284
1070
     0
1070
   285
1070
     0
1070
   286
1070
     0
1070
   341
1005
0
1070
   342
1005
0
1002
}
  0
INSERT
  5
26D5
330
27DB
100
AcDbEntity
  8
0
100
AcDbBlockReference
  2
*U75
 10
0.0
 20
0.0
 30
0.0
  0
LINE
  5
26D6
330
27DB
100
AcDbEntity
  8
DETAIL
100
AcDbLine
 10
-266.5
 20
-102.0
 30
0.0
 11
-266.5
 21
-612.9999999999994
 31
0.0
  0
LINE
  5
26D7
330
27DB
100
AcDbEntity
  8
DETAIL
100
AcDbLine
 10
266.5
 20
-613.0
 30
0.0
 11
266.5
 21
-102.0
 31
0.0
  0
LINE
  5
26D8
330
27DB
100
AcDbEntity
  8
DETAIL
100
AcDbLine
 10
280.0
 20
-592.0
 30
0.0
 11
280.0
 21
-87.0
 31
0.0
  0
LINE
  5
26D9
330
27DB
100
AcDbEntity
  8
DETAIL
100
AcDbLine
 10
-280.0
 20
-87.0
 30
0.0
 11
-280.0
 21
-592.0
 31
0.0
  0
LINE
  5
26DA
330
27DB
100
AcDbEntity
  8
DETAIL
100
AcDbLine
 10
-280.0
 20
-87.0
 30
0.0
 11
280.0
 21
-87.0
 31
0.0
  0
LINE
  5
26DB
330
27DB
100
AcDbEntity
  8
DETAIL
100
AcDbLine
 10
-266.5
 20
-102.0
 30
0.0
 11
266.5
 21
-102.0
 31
0.0
  0
LINE
  5
26DC
330
27DB
100
AcDbEntity
  8
DETAIL
100
AcDbLine
 10
-305.0
 20
-10.0
 30
0.0
 11
305.0
 21
-10.0
 31
0.0
  0
LINE
  5
26DD
330
27DB
100
AcDbEntity
  8
DETAIL
100
AcDbLine
 10
-266.5
 20
-202.0
 30
0.0
 11
-266.5
 21
-102.0
 31
0.0
  0
LINE
  5
26DE
330
27DB
100
AcDbEntity
  8
DETAIL
100
AcDbLine
 10
-305.0
 20
-10.0
 30
0.0
 11
-305.0
 21
0.0
 31
0.0
  0
LINE
  5
26DF
330
27DB
100
AcDbEntity
  8
DETAIL
100
AcDbLine
 10
-266.5
 20
-10.0
 30
0.0
 11
-266.5
 21
-87.0
 31
0.0
  0
LINE
  5
26E0
330
27DB
100
AcDbEntity
  8
DETAIL
100
AcDbLine
 10
-266.5
 20
-87.0
 30
0.0
 11
-266.5
 21
-10.0
 31
0.0
  0
LINE
  5
26E1
330
27DB
100
AcDbEntity
  8
DETAIL
100
AcDbLine
 10
266.5
 20
-87.0
 30
0.0
 11
266.5
 21
-10.0
 31
0.0
  0
LINE
  5
26E2
330
27DB
100
AcDbEntity
  8
DETAIL
100
AcDbLine
 10
305.0
 20
-10.0
 30
0.0
 11
305.0
 21
0.0
 31
0.0
  0
LINE
  5
26E3
330
27DB
100
AcDbEntity
  8
DETAIL
100
AcDbLine
 10
266.5
 20
-592.0
 30
0.0
 11
-280.0
 21
-592.0
 31
0.0
  0
LINE
  5
26E4
330
27DB
100
AcDbEntity
  8
DETAIL
100
AcDbLine
 10
123.5
 20
-592.0
 30
0.0
 11
280.0
 21
-592.0
 31
0.0
  0
LINE
  5
26E5
330
27DB
100
AcDbEntity
  8
DETAIL
100
AcDbLine
 10
266.5
 20
-607.0
 30
0.0
 11
-266.5
 21
-607.0
 31
0.0
  0
LINE
  5
26E6
330
27DB
100
AcDbEntity
  8
DETAIL
100
AcDbLine
 10
266.5
 20
-613.0
 30
0.0
 11
-266.5
 21
-612.9999999999994
 31
0.0
  0
LINE
  5
26E7
330
27DB
100
AcDbEntity
  8
OUTLINE
100
AcDbLine
 10
-266.5
 20
-102.0
 30
0.0
 11
-266.5
 21
-612.9999999999994
 31
0.0
  0
LINE
  5
26E8
330
27DB
100
AcDbEntity
  8
OUTLINE
100
AcDbLine
 10
266.5
 20
-613.0
 30
0.0
 11
266.5
 21
-102.0
 31
0.0
  0
LINE
  5
26E9
330
27DB
100
AcDbEntity
  8
OUTLINE
100
AcDbLine
 10
280.0
 20
-592.0
 30
0.0
 11
280.0
 21
-87.0
 31
0.0
  0
LINE
  5
26EA
330
27DB
100
AcDbEntity
  8
OUTLINE
100
AcDbLine
 10
-280.0
 20
-87.0
 30
0.0
 11
-280.0
 21
-592.0
 31
0.0
  0
LINE
  5
26EB
330
27DB
100
AcDbEntity
  8
OUTLINE
100
AcDbLine
 10
-280.0
 20
-87.0
 30
0.0
 11
280.0
 21
-87.0
 31
0.0
  0
LINE
  5
26EC
330
27DB
100
AcDbEntity
  8
OUTLINE
100
AcDbLine
 10
-266.5
 20
-102.0
 30
0.0
 11
266.5
 21
-102.0
 31
0.0
  0
LINE
  5
26ED
330
27DB
100
AcDbEntity
  8
OUTLINE
100
AcDbLine
 10
-305.0
 20
-10.0
 30
0.0
 11
305.0
 21
-10.0
 31
0.0
  0
LINE
  5
26EE
330
27DB
100
AcDbEntity
  8
OUTLINE
100
AcDbLine
 10
-266.5
 20
-202.0
 30
0.0
 11
-266.5
 21
-102.0
 31
0.0
  0
LINE
  5
26EF
330
27DB
100
AcDbEntity
  8
OUTLINE
100
AcDbLine
 10
-305.0
 20
-10.0
 30
0.0
 11
-305.0
 21
0.0
 31
0.0
  0
LINE
  5
26F0
330
27DB
100
AcDbEntity
  8
OUTLINE
100
AcDbLine
 10
-266.5
 20
-10.0
 30
0.0
 11
-266.5
 21
-87.0
 31
0.0
  0
LINE
  5
26F1
330
27DB
100
AcDbEntity
  8
OUTLINE
100
AcDbLine
 10
-266.5
 20
-87.0
 30
0.0
 11
-266.5
 21
-10.0
 31
0.0
  0
LINE
  5
26F2
330
27DB
100
AcDbEntity
  8
OUTLINE
100
AcDbLine
 10
266.5
 20
-87.0
 30
0.0
 11
266.5
 21
-10.0
 31
0.0
  0
LINE
  5
26F3
330
27DB
100
AcDbEntity
  8
OUTLINE
100
AcDbLine
 10
305.0
 20
-10.0
 30
0.0
 11
305.0
 21
0.0
 31
0.0
  0
LINE
  5
26F4
330
27DB
100
AcDbEntity
  8
OUTLINE
100
AcDbLine
 10
266.5
 20
-592.0
 30
0.0
 11
-280.0
 21
-592.0
 31
0.0
  0
LINE
  5
26F5
330
27DB
100
AcDbEntity
  8
OUTLINE
100
AcDbLine
 10
123.5
 20
-592.0
 30
0.0
 11
280.0
 21
-592.0
 31
0.0
  0
LINE
  5
26F6
330
27DB
100
AcDbEntity
  8
OUTLINE
100
AcDbLine
 10
266.5
 20
-607.0
 30
0.0
 11
-266.5
 21
-607.0
 31
0.0
  0
LINE
  5
26F7
330
27DB
100
AcDbEntity
  8
OUTLINE
100
AcDbLine
 10
266.5
 20
-613.0
 30
0.0
 11
-266.5
 21
-612.9999999999994
 31
0.0
  0
LINE
  5
26F8
330
27DB
100
AcDbEntity
  8
DETAIL
100
AcDbLine
 39
50.0
 10
-305.0
 20
0.0
 30
0.0
 11
305.0
 21
0.0
 31
0.0
  0
LINE
  5
26F9
330
27DB
100
AcDbEntity
  8
NOTE
100
AcDbLine
 39
50.0
 10
-292.5
 20
0.0
 30
0.0
 11
-267.5
 21
0.0
 31
0.0
  0
LINE
  5
26FA
330
27DB
100
AcDbEntity
  8
NOTE
100
AcDbLine
 39
50.0
 10
267.5
 20
0.0
 30
0.0
 11
292.5
 21
0.0
 31
0.0
  0
LINE
  5
26FB
330
27DB
100
AcDbEntity
  8
OUTLINE
100
AcDbLine
 39
50.0
 10
-305.0
 20
0.0
 30
0.0
 11
305.0
 21
0.0
 31
0.0
  0
LINE
  5
26FC
330
27DB
100
AcDbEntity
  8
DETAIL
100
AcDbLine
 10
250.6999999999971
 20
-576.1999999999998
 30
0.0
 11
250.6999999999971
 21
-117.8000000000002
 31
0.0
  0
LINE
  5
26FD
330
27DB
100
AcDbEntity
  8
DETAIL
100
AcDbLine
 10
-250.7000000000007
 20
-117.7999999999997
 30
0.0
 11
-250.7000000000007
 21
-576.1999999999998
 31
0.0
  0
LINE
  5
26FE
330
27DB
100
AcDbEntity
  8
DETAIL
100
AcDbLine
 10
-250.7000000000007
 20
-117.7999999999997
 30
0.0
 11
250.6999999999971
 21
-117.8000000000002
 31
0.0
  0
LINE
  5
26FF
330
27DB
100
AcDbEntity
  8
DETAIL
100
AcDbLine
 10
250.6999999999971
 20
-576.1999999999998
 30
0.0
 11
-250.7000000000007
 21
-576.1999999999998
 31
0.0
  0
INSERT
  5
2700
330
27DB
100
AcDbEntity
  8
DETAIL
  6
Continuous
100
AcDbBlockReference
  2
*X76
 10
0.0
 20
0.0
 30
0.0
1001
ACADANNOTATIVE
1000
AnnotativeData
1002
{
1070
     1
1070
     0
1002
}
1001
ACAD
1000
HATCH
1002
{
1070
    19
1000
LINE
1040
72.22849999999998
1040
5.838766301980095
1000
R14_HATCH_DATA
1000
5D97
1011
1.0
1021
0.0
1031
0.0
1011
0.0
1021
1.0
1031
0.0
1011
0.0
1021
0.0
1031
1.0
1040
0.0
1010
0.0
1020
0.0
1030
1.0
1000
LINE
1070
     0
1070
     0
1071
        2
1071
        7
1070
     0
1070
     1
1071
        6
1040
34.90000000000146
1040
-117.7999999999997
1040
-250.7000000000007
1040
-117.7999999999999
1040
-250.7000000000007
1040
-576.2000000000003
1040
250.6999999999933
1040
-576.1999999999998
1040
250.6999999999971
1040
-311.5999999999999
1040
34.89999999999783
1040
-311.5999999999999
1071
        0
1071
        7
1070
     0
1070
     1
1071
        4
1040
250.7000000000007
1040
-311.5999999999999
1040
250.6999999999971
1040
-117.8000000000002
1040
34.89999999999783
1040
-117.8000000000002
1040
34.89999999999783
1040
-311.5999999999999
1071
        0
1070
     0
1070
     1
1040
5.838766301980095
1040
72.22849999999998
1070
     0
1070
     1
1040
5.838766301980095
1040
19684.69328433624
1040
1788.167825520728
1040
3.881680532789153
1040
8.151533417570705
1070
     0
1040
0.9481068157922027
1071
        2
1040
-32.10449132323994
1040
-234.082643550963
1040
0.0
1040
149.0751664770941
1040
-234.5013186024039
1040
0.0
1002
}
  0
INSERT
  5
2701
330
27DB
100
AcDbEntity
  8
DETAIL
  6
Continuous
100
AcDbBlockReference
  2
*X77
 10
0.0
 20
0.0
 30
0.0
1001
ACADANNOTATIVE
1000
AnnotativeData
1002
{
1070
     1
1070
     0
1002
}
1001
ACAD
1000
HATCH
1002
{
1070
    19
1000
LINE
1040
72.22849999999998
1040
0.4444190051994897
1000
R14_HATCH_DATA
1000
5D9D
1011
1.0
1021
0.0
1031
0.0
1011
0.0
1021
1.0
1031
0.0
1011
0.0
1021
0.0
1031
1.0
1040
0.0
1010
0.0
1020
0.0
1030
1.0
1000
LINE
1070
     0
1070
     0
1071
        2
1071
        7
1070
     0
1070
     1
1071
        6
1040
34.89999999999783
1040
-117.7999999999999
1040
-250.7000000000007
1040
-117.7999999999997
1040
-250.6999999999971
1040
-576.1999999999998
1040
250.6999999999971
1040
-576.1999999999998
1040
250.7000000000007
1040
-311.5999999999999
1040
34.89999999999418
1040
-311.5999999999999
1071
        0
1071
       23
1070
     0
1070
     1
1071
        4
1040
250.6999999999971
1040
-117.8000000000004
1040
34.89999999999783
1040
-117.8000000000002
1040
34.89999999999783
1040
-311.5999999999999
1040
250.6999999999933
1040
-311.5999999999999
1071
        0
1070
     0
1070
     1
1040
0.4444190051994897
1040
72.22849999999998
1070
     0
1070
     1
1040
0.4444190051994897
1040
19684.69328433624
1040
1788.167825520728
1040
-3.881680532789157
1040
8.151533417570702
1070
     0
1040
1.053252925137128
1071
        2
1040
-96.66748836459737
1040
-258.6836811544749
1040
0.0
1040
174.0675573120678
1040
-234.1238295722174
1040
0.0
1002
}
  0
LINE
  5
2702
330
27DB
100
AcDbEntity
  8
DETAIL
100
AcDbLine
 10
250.6999999999971
 20
-576.1999999999998
 30
0.0
 11
250.6999999999971
 21
-117.8000000000002
 31
0.0
  0
LINE
  5
2703
330
27DB
100
AcDbEntity
  8
DETAIL
100
AcDbLine
 10
-250.7000000000007
 20
-117.7999999999997
 30
0.0
 11
-250.7000000000007
 21
-576.1999999999998
 31
0.0
  0
LINE
  5
2704
330
27DB
100
AcDbEntity
  8
DETAIL
100
AcDbLine
 10
-250.7000000000007
 20
-117.7999999999997
 30
0.0
 11
250.6999999999971
 21
-117.8000000000002
 31
0.0
  0
LINE
  5
2705
330
27DB
100
AcDbEntity
  8
DETAIL
100
AcDbLine
 10
250.6999999999971
 20
-576.1999999999998
 30
0.0
 11
-250.7000000000007
 21
-576.1999999999998
 31
0.0
  0
LINE
  5
2706
330
27DB
100
AcDbEntity
  8
SIZE
100
AcDbLine
 10
305.0
 20
20.0
 30
0.0
 11
305.0
 21
297.6865929365171
 31
0.0
  0
LINE
  5
2707
330
27DB
100
AcDbEntity
  8
SIZE
100
AcDbLine
 10
-305.0
 20
20.0
 30
0.0
 11
-305.0
 21
297.6865929365171
 31
0.0
  0
LINE
  5
2708
330
27DB
100
AcDbEntity
  8
SIZE
100
AcDbLine
 10
293.0
 20
277.686592936517
 30
0.0
 11
-293.0
 21
277.686592936517
 31
0.0
  0
INSERT
  5
2709
330
27DB
100
AcDbEntity
  8
SIZE
100
AcDbBlockReference
  2
_DOTBLANK
 10
305.0
 20
277.686592936517
 30
0.0
 41
12.0
 42
12.0
 43
12.0
  0
INSERT
  5
270A
330
27DB
100
AcDbEntity
  8
SIZE
100
AcDbBlockReference
  2
_DOTBLANK
 10
-305.0
 20
277.686592936517
 30
0.0
 41
12.0
 42
12.0
 43
12.0
 50
180.0
  0
LINE
  5
270B
330
27DB
100
AcDbEntity
  8
SIZE
100
AcDbLine
 10
280.0
 20
32.5
 30
0.0
 11
280.0
 21
179.1320910096174
 31
0.0
  0
LINE
  5
270C
330
27DB
100
AcDbEntity
  8
SIZE
100
AcDbLine
 10
-280.0
 20
32.50000000000023
 30
0.0
 11
-280.0
 21
179.1320910096174
 31
0.0
  0
LINE
  5
270D
330
27DB
100
AcDbEntity
  8
SIZE
100
AcDbLine
 10
268.0
 20
159.1320910096174
 30
0.0
 11
-268.0
 21
159.1320910096174
 31
0.0
  0
INSERT
  5
270E
330
27DB
100
AcDbEntity
  8
SIZE
100
AcDbBlockReference
  2
_DOTBLANK
 10
280.0
 20
159.1320910096174
 30
0.0
 41
12.0
 42
12.0
 43
12.0
  0
INSERT
  5
270F
330
27DB
100
AcDbEntity
  8
SIZE
100
AcDbBlockReference
  2
_DOTBLANK
 10
-280.0
 20
159.1320910096174
 30
0.0
 41
12.0
 42
12.0
 43
12.0
 50
180.0
  0
LINE
  5
2710
330
27DB
100
AcDbEntity
  8
SIZE
100
AcDbLine
 10
-300.0
 20
-592.0
 30
0.0
 11
-551.7312593367242
 21
-592.0
 31
0.0
  0
LINE
  5
2711
330
27DB
100
AcDbEntity
  8
SIZE
100
AcDbLine
 10
-286.5
 20
-612.9999999999994
 30
0.0
 11
-551.7312593367242
 21
-612.9999999999994
 31
0.0
  0
LINE
  5
2712
330
27DB
100
AcDbEntity
  8
SIZE
100
AcDbLine
 10
-531.731259336724
 20
-580.0
 30
0.0
 11
-531.731259336724
 21
-568.0
 31
0.0
  0
LINE
  5
2713
330
27DB
100
AcDbEntity
  8
SIZE
100
AcDbLine
 10
-531.731259336724
 20
-624.9999999999994
 30
0.0
 11
-531.731259336724
 21
-725.571428571428
 31
0.0
  0
INSERT
  5
2714
330
27DB
100
AcDbEntity
  8
SIZE
100
AcDbBlockReference
  2
_DOTBLANK
 10
-531.731259336724
 20
-592.0
 30
0.0
 41
12.0
 42
12.0
 43
12.0
 50
270.0
  0
INSERT
  5
2715
330
27DB
100
AcDbEntity
  8
SIZE
100
AcDbBlockReference
  2
_DOTBLANK
 10
-531.731259336724
 20
-612.9999999999994
 30
0.0
 41
12.0
 42
12.0
 43
12.0
 50
90.0
  0
LINE
  5
2716
330
27DB
100
AcDbEntity
  8
SIZE
100
AcDbLine
 10
-300.0
 20
-592.0
 30
0.0
 11
-551.7312593367242
 21
-592.0
 31
0.0
  0
LINE
  5
2717
330
27DB
100
AcDbEntity
  8
SIZE
100
AcDbLine
 10
-325.0
 20
0.0
 30
0.0
 11
-551.7312593367242
 21
0.0000000000001137
 31
0.0
  0
LINE
  5
2718
330
27DB
100
AcDbEntity
  8
SIZE
100
AcDbLine
 10
-531.731259336724
 20
-580.0
 30
0.0
 11
-531.731259336724
 21
-11.99999999999988
 31
0.0
  0
INSERT
  5
2719
330
27DB
100
AcDbEntity
  8
SIZE
100
AcDbBlockReference
  2
_DOTBLANK
 10
-531.731259336724
 20
-592.0
 30
0.0
 41
12.0
 42
12.0
 43
12.0
 50
270.0
  0
INSERT
  5
271A
330
27DB
100
AcDbEntity
  8
SIZE
100
AcDbBlockReference
  2
_DOTBLANK
 10
-531.731259336724
 20
0.0000000000001137
 30
0.0
 41
12.0
 42
12.0
 43
12.0
 50
90.0
  0
LINE
  5
271B
330
27DB
100
AcDbEntity
  8
SIZE
100
AcDbLine
 10
280.0
 20
-612.0
 30
0.0
 11
280.0
 21
-791.9689853962839
 31
0.0
  0
LINE
  5
271C
330
27DB
100
AcDbEntity
  8
SIZE
100
AcDbLine
 10
-280.0
 20
-612.0
 30
0.0
 11
-280.0
 21
-791.9689853962839
 31
0.0
  0
LINE
  5
271D
330
27DB
100
AcDbEntity
  8
SIZE
100
AcDbLine
 10
268.0
 20
-771.9689853962842
 30
0.0
 11
-268.0
 21
-771.9689853962842
 31
0.0
  0
INSERT
  5
271E
330
27DB
100
AcDbEntity
  8
SIZE
100
AcDbBlockReference
  2
_DOTBLANK
 10
280.0
 20
-771.9689853962842
 30
0.0
 41
12.0
 42
12.0
 43
12.0
  0
INSERT
  5
271F
330
27DB
100
AcDbEntity
  8
SIZE
100
AcDbBlockReference
  2
_DOTBLANK
 10
-280.0
 20
-771.9689853962842
 30
0.0
 41
12.0
 42
12.0
 43
12.0
 50
180.0
  0
LINE
  5
2720
330
27DB
100
AcDbEntity
  8
SIZE
100
AcDbLine
 10
325.0
 20
0.0
 30
0.0
 11
419.7818048153821
 21
0.0
 31
0.0
  0
LINE
  5
2721
330
27DB
100
AcDbEntity
  8
SIZE
100
AcDbLine
 10
325.0
 20
-10.0
 30
0.0
 11
419.7818048153821
 21
-10.0
 31
0.0
  0
LINE
  5
2722
330
27DB
100
AcDbEntity
  8
SIZE
100
AcDbLine
 10
399.7818048153821
 20
12.0
 30
0.0
 11
399.7818048153821
 21
24.0
 31
0.0
  0
LINE
  5
2723
330
27DB
100
AcDbEntity
  8
SIZE
100
AcDbLine
 10
399.7818048153821
 20
-22.0
 30
0.0
 11
399.7818048153821
 21
-136.2857142857143
 31
0.0
  0
INSERT
  5
2724
330
27DB
100
AcDbEntity
  8
SIZE
100
AcDbBlockReference
  2
_DOTBLANK
 10
399.7818048153821
 20
0.0
 30
0.0
 41
12.0
 42
12.0
 43
12.0
 50
270.0
  0
INSERT
  5
2725
330
27DB
100
AcDbEntity
  8
SIZE
100
AcDbBlockReference
  2
_DOTBLANK
 10
399.7818048153821
 20
-10.0
 30
0.0
 41
12.0
 42
12.0
 43
12.0
 50
90.0
  0
TEXT
  5
2726
330
27DB
100
AcDbEntity
  8
SIZE
100
AcDbText
 10
-74.61302049113943
 20
169.1320910096174
 30
0.0
 40
64.0
  1
560
 41
0.9
100
AcDbText
  0
TEXT
  5
2727
330
27DB
100
AcDbEntity
  8
SIZE
100
AcDbText
 10
-68.57142857142844
 20
287.6865929365171
 30
0.0
 40
64.0
  1
610
 41
0.9
100
AcDbText
  0
TEXT
  5
2728
330
27DB
100
AcDbEntity
  8
SIZE
100
AcDbText
 10
-541.731259336724
 20
-371.0571428571427
 30
0.0
 40
64.0
  1
592
 50
90.0
 41
0.9
100
AcDbText
  0
TEXT
  5
2729
330
27DB
100
AcDbEntity
  8
SIZE
100
AcDbText
 10
-541.731259336724
 20
-715.5714285714281
 30
0.0
 40
64.0
  1
21
 50
90.0
 41
0.9
100
AcDbText
  0
TEXT
  5
272A
330
27DB
100
AcDbEntity
  8
SIZE
100
AcDbText
 10
-74.05714285714272
 20
-761.9689853962839
 30
0.0
 40
64.0
  1
560
 41
0.9
100
AcDbText
  0
TEXT
  5
272B
330
27DB
100
AcDbEntity
  8
SIZE
100
AcDbText
 10
389.7818048153821
 20
-126.2857142857142
 30
0.0
 40
64.0
  1
10
 50
90.0
 41
0.9
100
AcDbText
  0
ENDSEC
  0
SECTION
  2
OBJECTS
  0
DICTIONARY
  5
2773
330
0
100
AcDbDictionary
281
     1
  3
ACAD_2007HEADERVARS_RT
350
29C9
  3
ACAD_COLOR
350
27D1
  3
ACAD_GROUP
350
2774
  3
ACAD_LAYOUT
350
27D0
  3
ACAD_MATERIAL
350
2777
  3
ACAD_MLEADERSTYLE
350
27D4
  3
ACAD_MLINESTYLE
350
27CD
  3
ACAD_PLOTSETTINGS
350
27CF
  3
ACAD_PLOTSTYLENAME
350
2775
  3
ACAD_SCALELIST
350
27A1
  3
ACAD_TABLESTYLE
350
27D2
  3
ACAD_VISUALSTYLE
350
2790
  3
ACDB_RECOMPOSE_DATA
350
29C7
  3
AcDbVariableDictionary
350
29BE
  3
AcmDictionary
350
2971
  3
AMG
350
28BE
  3
DWGPROPS
350
29C8
  3
MAPISURF_MODULE
350
293E
  0
DICTIONARY
  5
2999
330
27C3
100
AcDbDictionary
280
     1
281
     1
  3
ADSK_XREC_LAYER_RECONCILED
360
299A
  0
DICTIONARY
  5
299B
330
27F2
100
AcDbDictionary
280
     1
281
     1
  3
ADSK_XREC_LAYER_RECONCILED
360
299C
  0
DICTIONARY
  5
299D
330
27F3
100
AcDbDictionary
280
     1
281
     1
  3
ADSK_XREC_LAYER_RECONCILED
360
299E
  0
DICTIONARY
  5
299F
330
27F4
100
AcDbDictionary
280
     1
281
     1
  3
ADSK_XREC_LAYER_RECONCILED
360
29A0
  0
DICTIONARY
  5
29A1
330
27F5
100
AcDbDictionary
280
     1
281
     1
  3
ADSK_XREC_LAYER_RECONCILED
360
29A2
  0
DICTIONARY
  5
29A3
330
27F6
100
AcDbDictionary
280
     1
281
     1
  3
ADSK_XREC_LAYER_RECONCILED
360
29A4
  0
DICTIONARY
  5
29A5
330
27F8
100
AcDbDictionary
280
     1
281
     1
  3
ADSK_XREC_LAYER_RECONCILED
360
29A6
  0
DICTIONARY
  5
29A7
330
27F9
100
AcDbDictionary
280
     1
281
     1
  3
ADSK_XREC_LAYER_RECONCILED
360
29A8
  0
DICTIONARY
  5
29A9
330
27FA
100
AcDbDictionary
280
     1
281
     1
  3
ADSK_XREC_LAYER_RECONCILED
360
29AA
  0
DICTIONARY
  5
29AB
330
27FB
100
AcDbDictionary
280
     1
281
     1
  3
ADSK_XREC_LAYER_RECONCILED
360
29AC
  0
DICTIONARY
  5
29AD
330
27FC
100
AcDbDictionary
280
     1
281
     1
  3
ADSK_XREC_LAYER_RECONCILED
360
29AE
  0
DICTIONARY
  5
29AF
330
27DB
100
AcDbDictionary
280
     1
281
     1
  3
ACAD_INDEX
360
29B0
  0
DICTIONARY
  5
29C9
102
{ACAD_REACTORS
330
2773
102
}
330
2773
100
AcDbDictionary
281
     1
  3
DIMARCSYM
350
29CA
  3
DIMLTEX1
350
29CC
  3
DIMLTEX2
350
29CD
  3
DIMLTYPE
350
29CB
  0
DICTIONARY
  5
27D1
102
{ACAD_REACTORS
330
2773
102
}
330
2773
100
AcDbDictionary
281
     1
  0
DICTIONARY
  5
2774
102
{ACAD_REACTORS
330
2773
102
}
330
2773
100
AcDbDictionary
281
     1
  0
DICTIONARY
  5
27D0
102
{ACAD_REACTORS
330
2773
102
}
330
2773
100
AcDbDictionary
281
     1
  3
Model
350
27DE
  3
レイアウト1
350
27DA
  0
DICTIONARY
  5
2777
102
{ACAD_REACTORS
330
2773
102
}
330
2773
100
AcDbDictionary
281
     1
  3
ByBlock
350
2780
  3
ByLayer
350
2778
  3
Global
350
2788
  0
DICTIONARY
  5
27D4
102
{ACAD_REACTORS
330
2773
102
}
330
2773
100
AcDbDictionary
281
     1
  3
Standard
350
27D5
  0
DICTIONARY
  5
27CD
102
{ACAD_REACTORS
330
2773
102
}
330
2773
100
AcDbDictionary
281
     1
  3
Standard
350
27CE
  0
DICTIONARY
  5
27CF
102
{ACAD_REACTORS
330
2773
102
}
330
2773
100
AcDbDictionary
281
     1
  0
ACDBDICTIONARYWDFLT
  5
2775
102
{ACAD_REACTORS
330
2773
102
}
330
2773
100
AcDbDictionary
281
     1
  3
Normal
350
2776
100
AcDbDictionaryWithDefault
340
2776
  0
DICTIONARY
  5
27A1
102
{ACAD_REACTORS
330
2773
102
}
330
2773
100
AcDbDictionary
281
     1
  3
A0
350
27A2
  3
A1
350
27A3
  3
A2
350
27A4
  3
A3
350
27A5
  3
A4
350
27A6
  3
A5
350
27A7
  3
A6
350
27A8
  3
A7
350
27A9
  3
A8
350
27AA
  3
A9
350
27AB
  3
B0
350
27AC
  3
B1
350
27AD
  3
B2
350
27AE
  3
B3
350
27AF
  3
B4
350
27B0
  3
B5
350
27B1
  3
B6
350
27B2
  3
B7
350
27B3
  3
B8
350
27B4
  3
B9
350
27B5
  3
C0
350
27B6
  3
C1
350
27B7
  3
C2
350
27B8
  3
C3
350
27B9
  3
C4
350
27BA
  3
C5
350
27BB
  3
C6
350
27BC
  3
C7
350
27BD
  3
C8
350
27BE
  3
C9
350
27BF
  3
D0
350
27C0
  3
D1
350
27C1
  3
D2
350
27C2
  0
DICTIONARY
  5
27D2
102
{ACAD_REACTORS
330
2773
102
}
330
2773
100
AcDbDictionary
281
     1
  3
Standard
350
27D3
  0
DICTIONARY
  5
2790
102
{ACAD_REACTORS
330
2773
102
}
330
2773
100
AcDbDictionary
281
     1
  3
2dWireframe
350
2796
  3
3D Hidden
350
2798
  3
3dWireframe
350
2797
  3
Basic
350
2795
  3
Brighten
350
279C
  3
ColorChange
350
27A0
  3
Conceptual
350
2799
  3
Dim
350
279B
  3
Facepattern
350
279F
  3
Flat
350
2791
  3
FlatWithEdges
350
2792
  3
Gouraud
350
2793
  3
GouraudWithEdges
350
2794
  3
Linepattern
350
279E
  3
Realistic
350
279A
  3
Thicken
350
279D
  0
XRECORD
  5
29C7
102
{ACAD_REACTORS
330
2773
102
}
330
2773
100
AcDbXrecord
280
     1
 90
        1
330
27D3
  0
DICTIONARY
  5
29BE
102
{ACAD_REACTORS
330
2773
102
}
330
2773
100
AcDbDictionary
281
     1
  3
CANNOSCALE
350
29C1
  3
CMLEADERSTYLE
350
29C0
  3
CTABLESTYLE
350
29BF
  3
DIMASSOC
350
29C4
  3
INDEXCTL
350
29C3
  3
SORTENTS
350
29C2
  0
DICTIONARY
  5
2971
102
{ACAD_REACTORS
330
2773
102
}
330
2773
100
AcDbDictionary
281
     1
  3
AcmStdDictionary
350
297F
  0
DICTIONARY
  5
28BE
102
{ACAD_REACTORS
330
2773
102
}
330
2773
100
AcDbDictionary
281
     1
  3
AcMgSettings
350
28BF
  0
XRECORD
  5
29C8
102
{ACAD_REACTORS
330
2773
102
}
330
2773
100
AcDbXrecord
280
     1
  1
DWGPROPS COOKIE
  2

  3

  4

  6

  7

  8
A090053
  9

300
AmdtFileType=84
301
=
302
=
303
=
304
=
305
=
306
=
307
=
308
=
309
=
 40
1.08392261574074
 41
2452321.396199653
 42
2456212.843605857
  1

 90
        1
  0
XRECORD
  5
299A
102
{ACAD_REACTORS
330
2999
102
}
330
2999
100
AcDbXrecord
280
     1
290
     1
  0
XRECORD
  5
299C
102
{ACAD_REACTORS
330
299B
102
}
330
299B
100
AcDbXrecord
280
     1
290
     1
  0
XRECORD
  5
299E
102
{ACAD_REACTORS
330
299D
102
}
330
299D
100
AcDbXrecord
280
     1
290
     1
  0
XRECORD
  5
29A0
102
{ACAD_REACTORS
330
299F
102
}
330
299F
100
AcDbXrecord
280
     1
290
     1
  0
XRECORD
  5
29A2
102
{ACAD_REACTORS
330
29A1
102
}
330
29A1
100
AcDbXrecord
280
     1
290
     1
  0
XRECORD
  5
29A4
102
{ACAD_REACTORS
330
29A3
102
}
330
29A3
100
AcDbXrecord
280
     1
290
     1
  0
XRECORD
  5
29A6
102
{ACAD_REACTORS
330
29A5
102
}
330
29A5
100
AcDbXrecord
280
     1
290
     1
  0
XRECORD
  5
29A8
102
{ACAD_REACTORS
330
29A7
102
}
330
29A7
100
AcDbXrecord
280
     1
290
     1
  0
XRECORD
  5
29AA
102
{ACAD_REACTORS
330
29A9
102
}
330
29A9
100
AcDbXrecord
280
     1
290
     1
  0
XRECORD
  5
29AC
102
{ACAD_REACTORS
330
29AB
102
}
330
29AB
100
AcDbXrecord
280
     1
290
     1
  0
XRECORD
  5
29AE
102
{ACAD_REACTORS
330
29AD
102
}
330
29AD
100
AcDbXrecord
280
     1
290
     1
  0
DICTIONARY
  5
29B0
102
{ACAD_REACTORS
330
29AF
102
}
330
29AF
100
AcDbDictionary
281
     1
  3
*A1
350
29B1
  0
XRECORD
  5
29CA
102
{ACAD_REACTORS
330
29C9
102
}
330
29C9
100
AcDbXrecord
280
     1
 70
     1
  0
XRECORD
  5
29CC
102
{ACAD_REACTORS
330
29C9
102
}
330
29C9
100
AcDbXrecord
280
     1
340
27C9
  0
XRECORD
  5
29CD
102
{ACAD_REACTORS
330
29C9
102
}
330
29C9
100
AcDbXrecord
280
     1
340
27C9
  0
XRECORD
  5
29CB
102
{ACAD_REACTORS
330
29C9
102
}
330
29C9
100
AcDbXrecord
280
     1
340
27C9
  0
LAYOUT
  5
27DE
102
{ACAD_XDICTIONARY
360
29D4
102
}
102
{ACAD_REACTORS
330
27D0
102
}
330
27D0
100
AcDbPlotSettings
  1

  2
自動 EPSON LP-9600S (W2450527 上)
  4

  6

 40
0.0
 41
0.0
 42
0.0
 43
0.0
 44
0.0
 45
0.0
 46
0.0
 47
0.0
 48
0.0
 49
0.0
140
0.0
141
0.0
142
1.0
143
1.0
 70
  1712
 72
     0
 73
     0
 74
     0
  7

 75
     0
147
1.0
148
0.0
149
0.0
100
AcDbLayout
  1
Model
 70
     1
 71
     0
 10
0.0
 20
0.0
 11
12.0
 21
9.0
 12
0.0
 22
0.0
 32
0.0
 14
0.0
 24
0.0
 34
0.0
 15
0.0
 25
0.0
 35
0.0
146
0.0
 13
0.0
 23
0.0
 33
0.0
 16
1.0
 26
0.0
 36
0.0
 17
0.0
 27
1.0
 37
0.0
 76
     0
330
27DB
331
27DF
  0
LAYOUT
  5
27DA
102
{ACAD_XDICTIONARY
360
29D2
102
}
102
{ACAD_REACTORS
330
27D0
102
}
330
27D0
100
AcDbPlotSettings
  1

  2
自動 EPSON LP-9600S (W2450527 上)
  4

  6

 40
0.0
 41
0.0
 42
0.0
 43
0.0
 44
0.0
 45
0.0
 46
0.0
 47
0.0
 48
0.0
 49
0.0
140
0.0
141
0.0
142
1.0
143
1.0
 70
   688
 72
     0
 73
     0
 74
     5
  7

 75
    16
147
1.0
148
0.0
149
0.0
100
AcDbLayout
  1
レイアウト1
 70
     1
 71
     1
 10
0.0
 20
0.0
 11
12.0
 21
9.0
 12
0.0
 22
0.0
 32
0.0
 14
1.000000000000000E+20
 24
1.000000000000000E+20
 34
1.000000000000000E+20
 15
-1.000000000000000E+20
 25
-1.000000000000000E+20
 35
-1.000000000000000E+20
146
0.0
 13
0.0
 23
0.0
 33
0.0
 16
1.0
 26
0.0
 36
0.0
 17
0.0
 27
1.0
 37
0.0
 76
     0
330
27D7
  0
MATERIAL
  5
2780
102
{ACAD_XDICTIONARY
360
2781
102
}
102
{ACAD_REACTORS
330
2777
102
}
330
2777
100
AcDbMaterial
  1
ByBlock
 72
     0
 43
0.0208333333333333
 43
0.0
 43
0.0
 43
0.0
 43
0.0
 43
0.0208333333333333
 43
0.0
 43
0.0
 43
0.0
 43
0.0
 43
1.0
 43
0.0
 43
0.0
 43
0.0
 43
0.0
 43
1.0
 77
     0
 47
0.0208333333333333
 47
0.0
 47
0.0
 47
0.0
 47
0.0
 47
0.0208333333333333
 47
0.0
 47
0.0
 47
0.0
 47
0.0
 47
1.0
 47
0.0
 47
0.0
 47
0.0
 47
0.0
 47
1.0
171
     0
 49
0.0208333333333333
 49
0.0
 49
0.0
 49
0.0
 49
0.0
 49
0.0208333333333333
 49
0.0
 49
0.0
 49
0.0
 49
0.0
 49
1.0
 49
0.0
 49
0.0
 49
0.0
 49
0.0
 49
1.0
175
     0
142
0.0208333333333333
142
0.0
142
0.0
142
0.0
142
0.0
142
0.0208333333333333
142
0.0
142
0.0
142
0.0
142
0.0
142
1.0
142
0.0
142
0.0
142
0.0
142
0.0
142
1.0
179
     0
144
0.0208333333333333
144
0.0
144
0.0
144
0.0
144
0.0
144
0.0208333333333333
144
0.0
144
0.0
144
0.0
144
0.0
144
1.0
144
0.0
144
0.0
144
0.0
144
0.0
144
1.0
147
0.0208333333333333
147
0.0
147
0.0
147
0.0
147
0.0
147
0.0208333333333333
147
0.0
147
0.0
147
0.0
147
0.0
147
1.0
147
0.0
147
0.0
147
0.0
147
0.0
147
1.0
  0
MATERIAL
  5
2778
102
{ACAD_XDICTIONARY
360
2779
102
}
102
{ACAD_REACTORS
330
2777
102
}
330
2777
100
AcDbMaterial
  1
ByLayer
 72
     0
 43
0.0208333333333333
 43
0.0
 43
0.0
 43
0.0
 43
0.0
 43
0.0208333333333333
 43
0.0
 43
0.0
 43
0.0
 43
0.0
 43
1.0
 43
0.0
 43
0.0
 43
0.0
 43
0.0
 43
1.0
 77
     0
 47
0.0208333333333333
 47
0.0
 47
0.0
 47
0.0
 47
0.0
 47
0.0208333333333333
 47
0.0
 47
0.0
 47
0.0
 47
0.0
 47
1.0
 47
0.0
 47
0.0
 47
0.0
 47
0.0
 47
1.0
171
     0
 49
0.0208333333333333
 49
0.0
 49
0.0
 49
0.0
 49
0.0
 49
0.0208333333333333
 49
0.0
 49
0.0
 49
0.0
 49
0.0
 49
1.0
 49
0.0
 49
0.0
 49
0.0
 49
0.0
 49
1.0
175
     0
142
0.0208333333333333
142
0.0
142
0.0
142
0.0
142
0.0
142
0.0208333333333333
142
0.0
142
0.0
142
0.0
142
0.0
142
1.0
142
0.0
142
0.0
142
0.0
142
0.0
142
1.0
179
     0
144
0.0208333333333333
144
0.0
144
0.0
144
0.0
144
0.0
144
0.0208333333333333
144
0.0
144
0.0
144
0.0
144
0.0
144
1.0
144
0.0
144
0.0
144
0.0
144
0.0
144
1.0
147
0.0208333333333333
147
0.0
147
0.0
147
0.0
147
0.0
147
0.0208333333333333
147
0.0
147
0.0
147
0.0
147
0.0
147
1.0
147
0.0
147
0.0
147
0.0
147
0.0
147
1.0
  0
MATERIAL
  5
2788
102
{ACAD_XDICTIONARY
360
2789
102
}
102
{ACAD_REACTORS
330
2777
102
}
330
2777
100
AcDbMaterial
  1
Global
 72
     0
 43
0.0208333333333333
 43
0.0
 43
0.0
 43
0.0
 43
0.0
 43
0.0208333333333333
 43
0.0
 43
0.0
 43
0.0
 43
0.0
 43
1.0
 43
0.0
 43
0.0
 43
0.0
 43
0.0
 43
1.0
 77
     0
 47
0.0208333333333333
 47
0.0
 47
0.0
 47
0.0
 47
0.0
 47
0.0208333333333333
 47
0.0
 47
0.0
 47
0.0
 47
0.0
 47
1.0
 47
0.0
 47
0.0
 47
0.0
 47
0.0
 47
1.0
171
     0
 49
0.0208333333333333
 49
0.0
 49
0.0
 49
0.0
 49
0.0
 49
0.0208333333333333
 49
0.0
 49
0.0
 49
0.0
 49
0.0
 49
1.0
 49
0.0
 49
0.0
 49
0.0
 49
0.0
 49
1.0
175
     0
142
0.0208333333333333
142
0.0
142
0.0
142
0.0
142
0.0
142
0.0208333333333333
142
0.0
142
0.0
142
0.0
142
0.0
142
1.0
142
0.0
142
0.0
142
0.0
142
0.0
142
1.0
179
     0
144
0.0208333333333333
144
0.0
144
0.0
144
0.0
144
0.0
144
0.0208333333333333
144
0.0
144
0.0
144
0.0
144
0.0
144
1.0
144
0.0
144
0.0
144
0.0
144
0.0
144
1.0
147
0.0208333333333333
147
0.0
147
0.0
147
0.0
147
0.0
147
0.0208333333333333
147
0.0
147
0.0
147
0.0
147
0.0
147
1.0
147
0.0
147
0.0
147
0.0
147
0.0
147
1.0
  0
MLEADERSTYLE
  5
27D5
102
{ACAD_REACTORS
330
27D4
102
}
330
27D4
100
AcDbMLeaderStyle
170
     2
171
     1
172
     0
 90
        2
 40
0.0
 41
0.0
173
     1
 91
-1056964608
340
27C9
 92
       -2
290
     1
 42
0.09
291
     1
 43
0.36
  3
Standard
 44
0.18
300

342
27C4
174
     1
178
     6
175
     1
176
     0
 93
-1056964608
 45
0.18
292
     0
297
     0
 46
0.18
 94
-1056964608
 47
1.0
 49
1.0
140
1.0
293
     1
141
0.0
294
     1
177
     0
142
1.0
295
     0
296
     0
143
0.125
1001
ACAD_MLEADERVER
1070
     2
  0
MLINESTYLE
  5
27CE
102
{ACAD_REACTORS
330
27CD
102
}
330
27CD
100
AcDbMlineStyle
  2
STANDARD
 70
     0
  3

 62
   256
 51
90.0
 52
90.0
 71
     2
 49
0.5
 62
   256
  6
BYLAYER
 49
-0.5
 62
   256
  6
BYLAYER
  0
ACDBPLACEHOLDER
  5
2776
102
{ACAD_REACTORS
330
2775
102
}
330
2775
  0
SCALE
  5
27A2
102
{ACAD_REACTORS
330
27A1
102
}
330
27A1
100
AcDbScale
 70
     0
300
1:1
140
1.0
141
1.0
290
     1
  0
SCALE
  5
27A3
102
{ACAD_REACTORS
330
27A1
102
}
330
27A1
100
AcDbScale
 70
     0
300
1:2
140
1.0
141
2.0
290
     0
  0
SCALE
  5
27A4
102
{ACAD_REACTORS
330
27A1
102
}
330
27A1
100
AcDbScale
 70
     0
300
1:4
140
1.0
141
4.0
290
     0
  0
SCALE
  5
27A5
102
{ACAD_REACTORS
330
27A1
102
}
330
27A1
100
AcDbScale
 70
     0
300
1:5
140
1.0
141
5.0
290
     0
  0
SCALE
  5
27A6
102
{ACAD_REACTORS
330
27A1
102
}
330
27A1
100
AcDbScale
 70
     0
300
1:8
140
1.0
141
8.0
290
     0
  0
SCALE
  5
27A7
102
{ACAD_REACTORS
330
27A1
102
}
330
27A1
100
AcDbScale
 70
     0
300
1:10
140
1.0
141
10.0
290
     0
  0
SCALE
  5
27A8
102
{ACAD_REACTORS
330
27A1
102
}
330
27A1
100
AcDbScale
 70
     0
300
1:16
140
1.0
141
16.0
290
     0
  0
SCALE
  5
27A9
102
{ACAD_REACTORS
330
27A1
102
}
330
27A1
100
AcDbScale
 70
     0
300
1:20
140
1.0
141
20.0
290
     0
  0
SCALE
  5
27AA
102
{ACAD_REACTORS
330
27A1
102
}
330
27A1
100
AcDbScale
 70
     0
300
1:30
140
1.0
141
30.0
290
     0
  0
SCALE
  5
27AB
102
{ACAD_REACTORS
330
27A1
102
}
330
27A1
100
AcDbScale
 70
     0
300
1:40
140
1.0
141
40.0
290
     0
  0
SCALE
  5
27AC
102
{ACAD_REACTORS
330
27A1
102
}
330
27A1
100
AcDbScale
 70
     0
300
1:50
140
1.0
141
50.0
290
     0
  0
SCALE
  5
27AD
102
{ACAD_REACTORS
330
27A1
102
}
330
27A1
100
AcDbScale
 70
     0
300
1:100
140
1.0
141
100.0
290
     0
  0
SCALE
  5
27AE
102
{ACAD_REACTORS
330
27A1
102
}
330
27A1
100
AcDbScale
 70
     0
300
2:1
140
2.0
141
1.0
290
     0
  0
SCALE
  5
27AF
102
{ACAD_REACTORS
330
27A1
102
}
330
27A1
100
AcDbScale
 70
     0
300
4:1
140
4.0
141
1.0
290
     0
  0
SCALE
  5
27B0
102
{ACAD_REACTORS
330
27A1
102
}
330
27A1
100
AcDbScale
 70
     0
300
8:1
140
8.0
141
1.0
290
     0
  0
SCALE
  5
27B1
102
{ACAD_REACTORS
330
27A1
102
}
330
27A1
100
AcDbScale
 70
     0
300
10:1
140
10.0
141
1.0
290
     0
  0
SCALE
  5
27B2
102
{ACAD_REACTORS
330
27A1
102
}
330
27A1
100
AcDbScale
 70
     0
300
100:1
140
100.0
141
1.0
290
     0
  0
SCALE
  5
27B3
102
{ACAD_REACTORS
330
27A1
102
}
330
27A1
100
AcDbScale
 70
     0
300
1/128" = 1'-0"
140
0.0078125
141
12.0
290
     0
  0
SCALE
  5
27B4
102
{ACAD_REACTORS
330
27A1
102
}
330
27A1
100
AcDbScale
 70
     0
300
1/64" = 1'-0"
140
0.015625
141
12.0
290
     0
  0
SCALE
  5
27B5
102
{ACAD_REACTORS
330
27A1
102
}
330
27A1
100
AcDbScale
 70
     0
300
1/32" = 1'-0"
140
0.03125
141
12.0
290
     0
  0
SCALE
  5
27B6
102
{ACAD_REACTORS
330
27A1
102
}
330
27A1
100
AcDbScale
 70
     0
300
1/16" = 1'-0"
140
0.0625
141
12.0
290
     0
  0
SCALE
  5
27B7
102
{ACAD_REACTORS
330
27A1
102
}
330
27A1
100
AcDbScale
 70
     0
300
3/32" = 1'-0"
140
0.09375
141
12.0
290
     0
  0
SCALE
  5
27B8
102
{ACAD_REACTORS
330
27A1
102
}
330
27A1
100
AcDbScale
 70
     0
300
1/8" = 1'-0"
140
0.125
141
12.0
290
     0
  0
SCALE
  5
27B9
102
{ACAD_REACTORS
330
27A1
102
}
330
27A1
100
AcDbScale
 70
     0
300
3/16" = 1'-0"
140
0.1875
141
12.0
290
     0
  0
SCALE
  5
27BA
102
{ACAD_REACTORS
330
27A1
102
}
330
27A1
100
AcDbScale
 70
     0
300
1/4" = 1'-0"
140
0.25
141
12.0
290
     0
  0
SCALE
  5
27BB
102
{ACAD_REACTORS
330
27A1
102
}
330
27A1
100
AcDbScale
 70
     0
300
3/8" = 1'-0"
140
0.375
141
12.0
290
     0
  0
SCALE
  5
27BC
102
{ACAD_REACTORS
330
27A1
102
}
330
27A1
100
AcDbScale
 70
     0
300
1/2" = 1'-0"
140
0.5
141
12.0
290
     0
  0
SCALE
  5
27BD
102
{ACAD_REACTORS
330
27A1
102
}
330
27A1
100
AcDbScale
 70
     0
300
3/4" = 1'-0"
140
0.75
141
12.0
290
     0
  0
SCALE
  5
27BE
102
{ACAD_REACTORS
330
27A1
102
}
330
27A1
100
AcDbScale
 70
     0
300
1" = 1'-0"
140
1.0
141
12.0
290
     0
  0
SCALE
  5
27BF
102
{ACAD_REACTORS
330
27A1
102
}
330
27A1
100
AcDbScale
 70
     0
300
1-1/2" = 1'-0"
140
1.5
141
12.0
290
     0
  0
SCALE
  5
27C0
102
{ACAD_REACTORS
330
27A1
102
}
330
27A1
100
AcDbScale
 70
     0
300
3" = 1'-0"
140
3.0
141
12.0
290
     0
  0
SCALE
  5
27C1
102
{ACAD_REACTORS
330
27A1
102
}
330
27A1
100
AcDbScale
 70
     0
300
6" = 1'-0"
140
6.0
141
12.0
290
     0
  0
SCALE
  5
27C2
102
{ACAD_REACTORS
330
27A1
102
}
330
27A1
100
AcDbScale
 70
     0
300
1'-0" = 1'-0"
140
12.0
141
12.0
290
     0
  0
TABLESTYLE
  5
27D3
102
{ACAD_XDICTIONARY
360
29C5
102
}
102
{ACAD_REACTORS
330
27D2
102
}
330
27D2
100
AcDbTableStyle
  3
Standard
 70
     0
 71
     0
 40
0.06
 41
0.06
280
     0
281
     0
  7
STANDARD
140
0.18
170
     2
 62
     0
 63
     7
283
     0
274
    -2
284
     1
 64
     0
275
    -2
285
     1
 65
     0
276
    -2
286
     1
 66
     0
277
    -2
287
     1
 67
     0
278
    -2
288
     1
 68
     0
279
    -2
289
     1
 69
     0
  7
STANDARD
140
0.25
170
     5
 62
     0
 63
     7
283
     0
274
    -2
284
     1
 64
     0
275
    -2
285
     1
 65
     0
276
    -2
286
     1
 66
     0
277
    -2
287
     1
 67
     0
278
    -2
288
     1
 68
     0
279
    -2
289
     1
 69
     0
  7
STANDARD
140
0.18
170
     5
 62
     0
 63
     7
283
     0
274
    -2
284
     1
 64
     0
275
    -2
285
     1
 65
     0
276
    -2
286
     1
 66
     0
277
    -2
287
     1
 67
     0
278
    -2
288
     1
 68
     0
279
    -2
289
     1
 69
     0
  0
VISUALSTYLE
  5
2796
102
{ACAD_REACTORS
330
2790
102
}
330
2790
100
AcDbVisualStyle
  2
2dWireframe
 70
     4
 71
     0
 72
     2
 73
     0
 90
        0
 40
-0.6
 41
-30.0
 62
     5
 63
     7
 74
     1
 91
        4
 64
     7
 65
   257
 75
     1
175
     1
 42
1.0
 92
        0
 66
   257
 43
1.0
 76
     1
 77
     6
 78
     2
 67
     7
 79
     5
170
     0
171
     0
290
     0
174
     0
 93
        1
 44
0.0
173
     0
291
     0
 45
0.0
1001
ACAD
1000
AcDbSavedByObjectVersion
1070
     0
  0
VISUALSTYLE
  5
2798
102
{ACAD_REACTORS
330
2790
102
}
330
2790
100
AcDbVisualStyle
  2
3D Hidden
 70
     6
 71
     1
 72
     2
 73
     2
 90
        0
 40
-0.6
 41
-30.0
 62
     5
 63
     7
 74
     2
 91
        2
 64
     7
 65
   257
 75
     2
175
     1
 42
40.0
 92
        0
 66
   257
 43
1.0
 76
     1
 77
     6
 78
     2
 67
     7
 79
     3
170
     0
171
     0
290
     0
174
     0
 93
        1
 44
0.0
173
     0
291
     0
 45
0.0
1001
ACAD
1000
AcDbSavedByObjectVersion
1070
     0
  0
VISUALSTYLE
  5
2797
102
{ACAD_REACTORS
330
2790
102
}
330
2790
100
AcDbVisualStyle
  2
3dWireframe
 70
     5
 71
     0
 72
     2
 73
     0
 90
        0
 40
-0.6
 41
-30.0
 62
     5
 63
     7
 74
     1
 91
        4
 64
     7
 65
   257
 75
     1
175
     1
 42
1.0
 92
        0
 66
   257
 43
1.0
 76
     1
 77
     6
 78
     2
 67
     7
 79
     5
170
     0
171
     0
290
     0
174
     0
 93
        1
 44
0.0
173
     0
291
     0
 45
0.0
1001
ACAD
1000
AcDbSavedByObjectVersion
1070
     0
  0
VISUALSTYLE
  5
2795
102
{ACAD_REACTORS
330
2790
102
}
330
2790
100
AcDbVisualStyle
  2
Basic
 70
     7
 71
     1
 72
     0
 73
     1
 90
        0
 40
-0.6
 41
-30.0
 62
     5
 63
     7
 74
     0
 91
        4
 64
     7
 65
   257
 75
     1
175
     1
 42
1.0
 92
        8
 66
     7
 43
1.0
 76
     1
 77
     6
 78
     2
 67
     7
 79
     5
170
     0
171
     0
290
     0
174
     0
 93
        1
 44
0.0
173
     0
291
     1
 45
0.0
1001
ACAD
1000
AcDbSavedByObjectVersion
1070
     0
  0
VISUALSTYLE
  5
279C
102
{ACAD_REACTORS
330
2790
102
}
330
2790
100
AcDbVisualStyle
  2
Brighten
 70
    12
 71
     2
 72
     2
 73
     0
 90
        0
 40
-0.6
 41
-30.0
 62
     5
 63
     7
 74
     1
 91
        4
 64
     7
 65
   257
 75
     1
175
     1
 42
1.0
 92
        8
 66
     7
 43
1.0
 76
     1
 77
     6
 78
     2
 67
     7
 79
     5
170
     0
171
     0
290
     0
174
     0
 93
        1
 44
50.0
173
     0
291
     1
 45
0.0
1001
ACAD
1000
AcDbSavedByObjectVersion
1070
     0
  0
VISUALSTYLE
  5
27A0
102
{ACAD_REACTORS
330
2790
102
}
330
2790
100
AcDbVisualStyle
  2
ColorChange
 70
    16
 71
     2
 72
     2
 73
     3
 90
        0
 40
-0.6
 41
-30.0
 62
     5
 63
     8
 74
     1
 91
        4
 64
     7
 65
   257
 75
     1
175
     1
 42
1.0
 92
        8
 66
     8
 43
1.0
 76
     1
 77
     6
 78
     2
 67
     7
 79
     5
170
     0
171
     0
290
     0
174
     0
 93
        1
 44
0.0
173
     0
291
     1
 45
0.0
1001
ACAD
1000
AcDbSavedByObjectVersion
1070
     0
  0
VISUALSTYLE
  5
2799
102
{ACAD_REACTORS
330
2790
102
}
330
2790
100
AcDbVisualStyle
  2
Conceptual
 70
     9
 71
     3
 72
     2
 73
     0
 90
        0
 40
-0.6
 41
-30.0
 62
     5
 63
     7
 74
     2
 91
        2
 64
     7
 65
   257
 75
     1
175
     1
 42
40.0
 92
        8
 66
     7
 43
1.0
 76
     1
 77
     6
 78
     2
 67
     7
 79
     3
170
     0
171
     0
290
     0
174
     0
 93
        1
 44
0.0
173
     0
291
     0
 45
0.0
1001
ACAD
1000
AcDbSavedByObjectVersion
1070
     0
  0
VISUALSTYLE
  5
279B
102
{ACAD_REACTORS
330
2790
102
}
330
2790
100
AcDbVisualStyle
  2
Dim
 70
    11
 71
     2
 72
     2
 73
     0
 90
        0
 40
-0.6
 41
-30.0
 62
     5
 63
     7
 74
     1
 91
        4
 64
     7
 65
   257
 75
     1
175
     1
 42
1.0
 92
        8
 66
     7
 43
1.0
 76
     1
 77
     6
 78
     2
 67
     7
 79
     5
170
     0
171
     0
290
     0
174
     0
 93
        1
 44
-50.0
173
     0
291
     1
 45
0.0
1001
ACAD
1000
AcDbSavedByObjectVersion
1070
     0
  0
VISUALSTYLE
  5
279F
102
{ACAD_REACTORS
330
2790
102
}
330
2790
100
AcDbVisualStyle
  2
Facepattern
 70
    15
 71
     2
 72
     2
 73
     0
 90
        0
 40
-0.6
 41
-30.0
 62
     5
 63
     7
 74
     1
 91
        4
 64
     7
 65
   257
 75
     1
175
     1
 42
1.0
 92
        8
 66
     7
 43
1.0
 76
     1
 77
     6
 78
     2
 67
     7
 79
     5
170
     0
171
     0
290
     0
174
     0
 93
        1
 44
0.0
173
     0
291
     1
 45
0.0
1001
ACAD
1000
AcDbSavedByObjectVersion
1070
     0
  0
VISUALSTYLE
  5
2791
102
{ACAD_REACTORS
330
2790
102
}
330
2790
100
AcDbVisualStyle
  2
Flat
 70
     0
 71
     2
 72
     1
 73
     1
 90
        2
 40
-0.6
 41
30.0
 62
     5
 63
     7
 74
     0
 91
        4
 64
     7
 65
   257
 75
     1
175
     1
 42
1.0
 92
        8
 66
     7
 43
1.0
 76
     1
 77
     6
 78
     2
 67
     7
 79
     5
170
     0
171
     0
290
     0
174
     0
 93
       13
 44
0.0
173
     0
291
     1
 45
0.0
1001
ACAD
1000
AcDbSavedByObjectVersion
1070
     0
  0
VISUALSTYLE
  5
2792
102
{ACAD_REACTORS
330
2790
102
}
330
2790
100
AcDbVisualStyle
  2
FlatWithEdges
 70
     1
 71
     2
 72
     1
 73
     1
 90
        2
 40
-0.6
 41
30.0
 62
     5
 63
     7
 74
     1
 91
        4
 64
     7
 65
   257
 75
     1
175
     1
 42
1.0
 92
        0
 66
   257
 43
1.0
 76
     1
 77
     6
 78
     2
 67
     7
 79
     5
170
     0
171
     0
290
     0
174
     0
 93
       13
 44
0.0
173
     0
291
     1
 45
0.0
1001
ACAD
1000
AcDbSavedByObjectVersion
1070
     0
  0
VISUALSTYLE
  5
2793
102
{ACAD_REACTORS
330
2790
102
}
330
2790
100
AcDbVisualStyle
  2
Gouraud
 70
     2
 71
     2
 72
     2
 73
     1
 90
        2
 40
-0.6
 41
30.0
 62
     5
 63
     7
 74
     0
 91
        4
 64
     7
 65
   257
 75
     1
175
     1
 42
1.0
 92
        0
 66
     7
 43
1.0
 76
     1
 77
     6
 78
     2
 67
     7
 79
     5
170
     0
171
     0
290
     0
174
     0
 93
       13
 44
0.0
173
     0
291
     1
 45
0.0
1001
ACAD
1000
AcDbSavedByObjectVersion
1070
     0
  0
VISUALSTYLE
  5
2794
102
{ACAD_REACTORS
330
2790
102
}
330
2790
100
AcDbVisualStyle
  2
GouraudWithEdges
 70
     3
 71
     2
 72
     2
 73
     1
 90
        2
 40
-0.6
 41
30.0
 62
     5
 63
     7
 74
     1
 91
        4
 64
     7
 65
   257
 75
     1
175
     1
 42
1.0
 92
        0
 66
   257
 43
1.0
 76
     1
 77
     6
 78
     2
 67
     7
 79
     5
170
     0
171
     0
290
     0
174
     0
 93
       13
 44
0.0
173
     0
291
     1
 45
0.0
1001
ACAD
1000
AcDbSavedByObjectVersion
1070
     0
  0
VISUALSTYLE
  5
279E
102
{ACAD_REACTORS
330
2790
102
}
330
2790
100
AcDbVisualStyle
  2
Linepattern
 70
    14
 71
     2
 72
     2
 73
     0
 90
        0
 40
-0.6
 41
-30.0
 62
     5
 63
     7
 74
     1
 91
        4
 64
     7
 65
   257
 75
     7
175
     7
 42
1.0
 92
        8
 66
     7
 43
1.0
 76
     1
 77
     6
 78
     2
 67
     7
 79
     5
170
     0
171
     0
290
     0
174
     0
 93
        1
 44
0.0
173
     0
291
     1
 45
0.0
1001
ACAD
1000
AcDbSavedByObjectVersion
1070
     0
  0
VISUALSTYLE
  5
279A
102
{ACAD_REACTORS
330
2790
102
}
330
2790
100
AcDbVisualStyle
  2
Realistic
 70
     8
 71
     2
 72
     2
 73
     0
 90
        0
 40
-0.6
 41
-30.0
 62
     5
 63
     7
 74
     1
 91
        0
 64
     7
 65
   257
 75
     1
175
     1
 42
1.0
 92
        8
 66
     8
 43
1.0
 76
     1
 77
     6
 78
     2
 67
     7
 79
     5
170
     0
171
     0
290
     0
174
     0
 93
       13
 44
0.0
173
     0
291
     0
 45
0.0
1001
ACAD
1000
AcDbSavedByObjectVersion
1070
     0
  0
VISUALSTYLE
  5
279D
102
{ACAD_REACTORS
330
2790
102
}
330
2790
100
AcDbVisualStyle
  2
Thicken
 70
    13
 71
     2
 72
     2
 73
     0
 90
        0
 40
-0.6
 41
-30.0
 62
     5
 63
     7
 74
     1
 91
        4
 64
     7
 65
   257
 75
     1
175
     1
 42
1.0
 92
       12
 66
     7
 43
1.0
 76
     1
 77
     6
 78
     2
 67
     7
 79
     5
170
     0
171
     0
290
     0
174
     0
 93
        1
 44
0.0
173
     0
291
     1
 45
0.0
1001
ACAD
1000
AcDbSavedByObjectVersion
1070
     0
  0
DICTIONARYVAR
  5
29C1
102
{ACAD_REACTORS
330
29BE
102
}
330
29BE
100
DictionaryVariables
280
     0
  1
1:1
  0
DICTIONARYVAR
  5
29C0
102
{ACAD_REACTORS
330
29BE
102
}
330
29BE
100
DictionaryVariables
280
     0
  1
STANDARD
  0
DICTIONARYVAR
  5
29BF
102
{ACAD_REACTORS
330
29BE
102
}
330
29BE
100
DictionaryVariables
280
     0
  1
STANDARD
  0
DICTIONARYVAR
  5
29C4
102
{ACAD_REACTORS
330
29BE
102
}
330
29BE
100
DictionaryVariables
280
     0
  1
1
  0
DICTIONARYVAR
  5
29C3
102
{ACAD_REACTORS
330
29BE
102
}
330
29BE
100
DictionaryVariables
280
     0
  1
1
  0
DICTIONARYVAR
  5
29C2
102
{ACAD_REACTORS
330
29BE
102
}
330
29BE
100
DictionaryVariables
280
     0
  1
127
  0
DICTIONARY
  5
297F
102
{ACAD_REACTORS
330
2971
102
}
330
2971
100
AcDbDictionary
281
     1
  0
DICTIONARY
  5
28BF
102
{ACAD_REACTORS
330
28BE
102
}
330
28BE
100
AcDbDictionary
281
     1
  3
DWGSETTINGS
350
28C0
  3
TRANSSETTINGS
350
28C1
  0
LAYER_INDEX
  5
29B1
102
{ACAD_REACTORS
330
29B0
102
}
330
29B0
100
AcDbIndex
 40
2456212.843605857
100
AcDbLayerIndex
  8
0
360
29B2
 90
        2
  8
OUTLINE
360
29B3
 90
       24
  8
SIZE
360
29B4
 90
       38
  8
BASIS
360
29B5
 90
        1
  8
DETAIL
360
29B6
 90
       32
  8
ARRANGE
360
29B7
 90
        2
  8
DEFPOINTS
360
29B8
 90
        0
  8
ETC
360
29B9
 90
        3
  8
FIX
360
29BA
 90
        0
  8
NOTE
360
29BB
 90
        4
  8
SERVICESPACE
360
29BC
 90
        0
  8
SYMBOLLINE
360
29BD
 90
        0
  0
DICTIONARY
  5
29D4
330
27DE
100
AcDbDictionary
280
     1
281
     1
  3
ACAD_XREC_ROUNDTRIP
360
29D5
  0
DICTIONARY
  5
29D2
330
27DA
100
AcDbDictionary
280
     1
281
     1
  3
ACAD_XREC_ROUNDTRIP
360
29D3
  0
DICTIONARY
  5
2781
330
2780
100
AcDbDictionary
280
     1
281
     1
  3
ACAD_XREC_ROUNDTRIP
360
29CF
  3
BUMPTILE
360
2783
  3
DIFFUSETILE
360
2782
  3
OPACITYTILE
360
2786
  3
REFLECTIONTILE
360
2785
  3
REFRACTIONTILE
360
2787
  3
SPECULARTILE
360
2784
  0
DICTIONARY
  5
2779
330
2778
100
AcDbDictionary
280
     1
281
     1
  3
ACAD_XREC_ROUNDTRIP
360
29CE
  3
BUMPTILE
360
277B
  3
DIFFUSETILE
360
277A
  3
OPACITYTILE
360
277E
  3
REFLECTIONTILE
360
277D
  3
REFRACTIONTILE
360
277F
  3
SPECULARTILE
360
277C
  0
DICTIONARY
  5
2789
330
2788
100
AcDbDictionary
280
     1
281
     1
  3
ACAD_XREC_ROUNDTRIP
360
29D0
  3
BUMPTILE
360
278B
  3
DIFFUSETILE
360
278A
  3
OPACITYTILE
360
278E
  3
REFLECTIONTILE
360
278D
  3
REFRACTIONTILE
360
278F
  3
SPECULARTILE
360
278C
  0
DICTIONARY
  5
29C5
330
27D3
100
AcDbDictionary
280
     1
281
     1
  3
ACAD_ROUNDTRIP_2008_TABLESTYLE_CELLSTYLEMAP
360
29C6
  3
ACAD_XREC_ROUNDTRIP
360
29D1
  0
IDBUFFER
  5
29B2
330
0
100
AcDbIdBuffer
330
26D4
330
26D5
  0
IDBUFFER
  5
29B3
330
0
100
AcDbIdBuffer
330
26F1
330
26F2
330
26F3
330
26F4
330
26F5
330
26F6
330
26F7
330
26FB
330
953
330
954
330
955
330
956
330
957
330
958
330
26E7
330
26E8
330
26E9
330
26EA
330
26EB
330
26EC
330
26ED
330
26EE
330
26EF
330
26F0
  0
IDBUFFER
  5
29B4
330
0
100
AcDbIdBuffer
330
2716
330
2717
330
2718
330
2719
330
271A
330
271B
330
271C
330
271D
330
271E
330
271F
330
2720
330
2721
330
2722
330
2723
330
2724
330
2725
330
2726
330
2727
330
2728
330
2729
330
272A
330
272B
330
2706
330
2707
330
2708
330
2709
330
270A
330
270B
330
270C
330
270D
330
270E
330
270F
330
2710
330
2711
330
2712
330
2713
330
2714
330
2715
  0
IDBUFFER
  5
29B5
330
0
100
AcDbIdBuffer
330
26CE
  0
IDBUFFER
  5
29B6
330
0
100
AcDbIdBuffer
330
26E2
330
26E3
330
26E4
330
26E5
330
26E6
330
26F8
330
26FC
330
26FD
330
26FE
330
26FF
330
2700
330
2701
330
2702
330
2703
330
2704
330
2705
330
26CC
330
26CD
330
26CF
330
26D3
330
26D6
330
26D7
330
26D8
330
26D9
330
26DA
330
26DB
330
26DC
330
26DD
330
26DE
330
26DF
330
26E0
330
26E1
  0
IDBUFFER
  5
29B7
330
0
100
AcDbIdBuffer
330
26CB
330
26D1
  0
IDBUFFER
  5
29B8
330
0
100
AcDbIdBuffer
  0
IDBUFFER
  5
29B9
330
0
100
AcDbIdBuffer
330
26C8
330
26C9
330
26CA
  0
IDBUFFER
  5
29BA
330
0
100
AcDbIdBuffer
  0
IDBUFFER
  5
29BB
330
0
100
AcDbIdBuffer
330
26D0
330
26D2
330
26F9
330
26FA
  0
IDBUFFER
  5
29BC
330
0
100
AcDbIdBuffer
  0
IDBUFFER
  5
29BD
330
0
100
AcDbIdBuffer
  0
XRECORD
  5
29D5
102
{ACAD_REACTORS
330
29D4
102
}
330
29D4
100
AcDbXrecord
280
     1
102
SHADEPLOT
 70
     0
102
SHADEPLOTRESLEVEL
 70
     2
102
SHADEPLOTCUSTOMDPI
 70
   300
  0
XRECORD
  5
29D3
102
{ACAD_REACTORS
330
29D2
102
}
330
29D2
100
AcDbXrecord
280
     1
102
SHADEPLOT
 70
     0
102
SHADEPLOTRESLEVEL
 70
     2
102
SHADEPLOTCUSTOMDPI
 70
   300
  0
XRECORD
  5
29CF
102
{ACAD_REACTORS
330
2781
102
}
330
2781
100
AcDbXrecord
280
     1
102
MATERIAL
148
0.0
149
0.0
149
0.0
 93
        0
 94
      127
282
     0
 72
     0
 77
     0
171
     0
175
     0
179
     0
273
     0
  0
XRECORD
  5
2783
102
{ACAD_REACTORS
330
2781
102
}
330
2781
100
AcDbXrecord
280
     1
270
     1
271
     1
  0
XRECORD
  5
2782
102
{ACAD_REACTORS
330
2781
102
}
330
2781
100
AcDbXrecord
280
     1
270
     1
271
     1
  0
XRECORD
  5
2786
102
{ACAD_REACTORS
330
2781
102
}
330
2781
100
AcDbXrecord
280
     1
270
     1
271
     1
  0
XRECORD
  5
2785
102
{ACAD_REACTORS
330
2781
102
}
330
2781
100
AcDbXrecord
280
     1
270
     1
271
     1
  0
XRECORD
  5
2787
102
{ACAD_REACTORS
330
2781
102
}
330
2781
100
AcDbXrecord
280
     1
270
     1
271
     1
  0
XRECORD
  5
2784
102
{ACAD_REACTORS
330
2781
102
}
330
2781
100
AcDbXrecord
280
     1
270
     1
271
     1
  0
XRECORD
  5
29CE
102
{ACAD_REACTORS
330
2779
102
}
330
2779
100
AcDbXrecord
280
     1
102
MATERIAL
148
0.0
149
0.0
149
0.0
 93
        0
 94
      127
282
     0
 72
     0
 77
     0
171
     0
175
     0
179
     0
273
     0
  0
XRECORD
  5
277B
102
{ACAD_REACTORS
330
2779
102
}
330
2779
100
AcDbXrecord
280
     1
270
     1
271
     1
  0
XRECORD
  5
277A
102
{ACAD_REACTORS
330
2779
102
}
330
2779
100
AcDbXrecord
280
     1
270
     1
271
     1
  0
XRECORD
  5
277E
102
{ACAD_REACTORS
330
2779
102
}
330
2779
100
AcDbXrecord
280
     1
270
     1
271
     1
  0
XRECORD
  5
277D
102
{ACAD_REACTORS
330
2779
102
}
330
2779
100
AcDbXrecord
280
     1
270
     1
271
     1
  0
XRECORD
  5
277F
102
{ACAD_REACTORS
330
2779
102
}
330
2779
100
AcDbXrecord
280
     1
270
     1
271
     1
  0
XRECORD
  5
277C
102
{ACAD_REACTORS
330
2779
102
}
330
2779
100
AcDbXrecord
280
     1
270
     1
271
     1
  0
XRECORD
  5
29D0
102
{ACAD_REACTORS
330
2789
102
}
330
2789
100
AcDbXrecord
280
     1
102
MATERIAL
148
0.0
149
0.0
149
0.0
 93
        0
 94
      127
282
     0
 72
     0
 77
     0
171
     0
175
     0
179
     0
273
     0
  0
XRECORD
  5
278B
102
{ACAD_REACTORS
330
2789
102
}
330
2789
100
AcDbXrecord
280
     1
270
     1
271
     1
  0
XRECORD
  5
278A
102
{ACAD_REACTORS
330
2789
102
}
330
2789
100
AcDbXrecord
280
     1
270
     1
271
     1
  0
XRECORD
  5
278E
102
{ACAD_REACTORS
330
2789
102
}
330
2789
100
AcDbXrecord
280
     1
270
     1
271
     1
  0
XRECORD
  5
278D
102
{ACAD_REACTORS
330
2789
102
}
330
2789
100
AcDbXrecord
280
     1
270
     1
271
     1
  0
XRECORD
  5
278F
102
{ACAD_REACTORS
330
2789
102
}
330
2789
100
AcDbXrecord
280
     1
270
     1
271
     1
  0
XRECORD
  5
278C
102
{ACAD_REACTORS
330
2789
102
}
330
2789
100
AcDbXrecord
280
     1
270
     1
271
     1
  0
CELLSTYLEMAP
  5
29C6
102
{ACAD_REACTORS
330
29C5
102
}
330
29C5
100
AcDbCellStyleMap
 90
        3
300
CELLSTYLE
  1
TABLEFORMAT_BEGIN
 90
        5
170
     1
 91
        0
 92
    32768
 62
   257
 93
        1
300
CONTENTFORMAT
  1
CONTENTFORMAT_BEGIN
 90
        0
 91
        0
 92
      512
 93
        0
300

 40
0.0
140
1.0
 94
        5
 62
     0
340
27C4
144
0.25
309
CONTENTFORMAT_END
171
     0
 94
        0
309
TABLEFORMAT_END
  1
CELLSTYLE_BEGIN
 90
        1
 91
        1
300
_TITLE
309
CELLSTYLE_END
300
CELLSTYLE
  1
TABLEFORMAT_BEGIN
 90
        5
170
     1
 91
        0
 92
        0
 62
   257
 93
        1
300
CONTENTFORMAT
  1
CONTENTFORMAT_BEGIN
 90
        0
 91
        0
 92
      512
 93
        0
300

 40
0.0
140
1.0
 94
        5
 62
     0
340
27C4
144
0.18
309
CONTENTFORMAT_END
171
     0
 94
        0
309
TABLEFORMAT_END
  1
CELLSTYLE_BEGIN
 90
        2
 91
        1
300
_HEADER
309
CELLSTYLE_END
300
CELLSTYLE
  1
TABLEFORMAT_BEGIN
 90
        5
170
     1
 91
        0
 92
        0
 62
   257
 93
        1
300
CONTENTFORMAT
  1
CONTENTFORMAT_BEGIN
 90
        0
 91
        0
 92
      512
 93
        0
300

 40
0.0
140
1.0
 94
        2
 62
     0
340
27C4
144
0.18
309
CONTENTFORMAT_END
171
     0
 94
        0
309
TABLEFORMAT_END
  1
CELLSTYLE_BEGIN
 90
        3
 91
        2
300
_DATA
309
CELLSTYLE_END
  0
XRECORD
  5
29D1
102
{ACAD_REACTORS
330
29C5
102
}
330
29C5
100
AcDbXrecord
280
     1
102
ACAD_ROUNDTRIP_PRE2007_TABLESTYLE
 90
      512
 91
        0
  1

 92
      512
 93
        0
  2

 94
      512
 95
        0
  3

  0
ENDSEC
  0
EOF
