  0
SECTION
  2
HEADER
  9
$ACADVER
  1
AC1015
  9
$ACADMAINTVER
 70
    20
  9
$DWGCODEPAGE
  3
ANSI_932
  9
$INSBASE
 10
0.0
 20
0.0
 30
0.0
  9
$EXTMIN
 10
-913.7093999922541
 20
-791.9689853962835
 30
0.0
  9
$EXTMAX
 10
1172.673184590383
 20
407.0212217962891
 30
50.0
  9
$LIMMIN
 10
-2970.0
 20
-2100.0
  9
$LIMMAX
 10
2970.0
 20
2100.0
  9
$ORTHOMODE
 70
     1
  9
$REGENMODE
 70
     0
  9
$FILLMODE
 70
     1
  9
$QTEXTMODE
 70
     0
  9
$MIRRTEXT
 70
     0
  9
$LTSCALE
 40
20.0
  9
$ATTMODE
 70
     1
  9
$TEXTSIZE
 40
64.0
  9
$TRACEWID
 40
0.05
  9
$TEXTSTYLE
  7
STANDARD
  9
$CLAYER
  8
0
  9
$CELTYPE
  6
ByLayer
  9
$CECOLOR
 62
   256
  9
$CELTSCALE
 40
1.0
  9
$DISPSILH
 70
     0
  9
$DIMSCALE
 40
1.0
  9
$DIMASZ
 40
0.12
  9
$DIMEXO
 40
0.05
  9
$DIMDLI
 40
0.5
  9
$DIMRND
 40
0.0
  9
$DIMDLE
 40
0.0
  9
$DIMEXE
 40
0.1
  9
$DIMTP
 40
0.1
  9
$DIMTM
 40
0.1
  9
$DIMTXT
 40
0.12
  9
$DIMCEN
 40
0.0
  9
$DIMTSZ
 40
0.0
  9
$DIMTOL
 70
     0
  9
$DIMLIM
 70
     0
  9
$DIMTIH
 70
     1
  9
$DIMTOH
 70
     1
  9
$DIMSE1
 70
     0
  9
$DIMSE2
 70
     0
  9
$DIMTAD
 70
     0
  9
$DIMZIN
 70
     7
  9
$DIMBLK
  1

  9
$DIMASO
 70
     1
  9
$DIMSHO
 70
     0
  9
$DIMPOST
  1

  9
$DIMAPOST
  1
mm
  9
$DIMALT
 70
     0
  9
$DIMALTD
 70
     2
  9
$DIMALTF
 40
25.4
  9
$DIMLFAC
 40
1.0
  9
$DIMTOFL
 70
     0
  9
$DIMTVP
 40
0.0
  9
$DIMTIX
 70
     0
  9
$DIMSOXD
 70
     0
  9
$DIMSAH
 70
     0
  9
$DIMBLK1
  1

  9
$DIMBLK2
  1

  9
$DIMSTYLE
  2
AM_ANSI
  9
$DIMCLRD
 70
   256
  9
$DIMCLRE
 70
   256
  9
$DIMCLRT
 70
     2
  9
$DIMTFAC
 40
0.71
  9
$DIMGAP
 40
0.06
  9
$DIMJUST
 70
     0
  9
$DIMSD1
 70
     0
  9
$DIMSD2
 70
     0
  9
$DIMTOLJ
 70
     1
  9
$DIMTZIN
 70
     7
  9
$DIMALTZ
 70
     0
  9
$DIMALTTZ
 70
     0
  9
$DIMUPT
 70
     0
  9
$DIMDEC
 70
     4
  9
$DIMTDEC
 70
     4
  9
$DIMALTU
 70
     2
  9
$DIMALTTD
 70
     4
  9
$DIMTXSTY
  7
STANDARD
  9
$DIMAUNIT
 70
     0
  9
$DIMADEC
 70
     0
  9
$DIMALTRND
 40
0.0
  9
$DIMAZIN
 70
     2
  9
$DIMDSEP
 70
    46
  9
$DIMATFIT
 70
     3
  9
$DIMFRAC
 70
     0
  9
$DIMLDRBLK
  1

  9
$DIMLUNIT
 70
     2
  9
$DIMLWD
 70
    -1
  9
$DIMLWE
 70
    -1
  9
$DIMTMOVE
 70
     0
  9
$LUNITS
 70
     2
  9
$LUPREC
 70
     4
  9
$SKETCHINC
 40
0.1
  9
$FILLETRAD
 40
4.0
  9
$AUNITS
 70
     1
  9
$AUPREC
 70
     3
  9
$MENU
  1
ACAD
  9
$ELEVATION
 40
0.0
  9
$PELEVATION
 40
0.0
  9
$THICKNESS
 40
50.0
  9
$LIMCHECK
 70
     0
  9
$CHAMFERA
 40
0.0
  9
$CHAMFERB
 40
0.0
  9
$CHAMFERC
 40
0.0
  9
$CHAMFERD
 40
0.0
  9
$SKPOLY
 70
     0
  9
$TDCREATE
 40
2452321.396199653
  9
$TDUCREATE
 40
2452321.021199653
  9
$TDUPDATE
 40
2456212.845454294
  9
$TDUUPDATE
 40
2456212.470454294
  9
$TDINDWG
 40
1.0421404745
  9
$TDUSRTIMER
 40
1.0421350694
  9
$USRTIMER
 70
     1
  9
$ANGBASE
 50
0.0
  9
$ANGDIR
 70
     0
  9
$PDMODE
 70
     3
  9
$PDSIZE
 40
-2.0
  9
$PLINEWID
 40
0.0
  9
$SPLFRAME
 70
     0
  9
$SPLINETYPE
 70
     6
  9
$SPLINESEGS
 70
     8
  9
$HANDSEED
  5
2D45
  9
$SURFTAB1
 70
     6
  9
$SURFTAB2
 70
     6
  9
$SURFTYPE
 70
     6
  9
$SURFU
 70
     6
  9
$SURFV
 70
     6
  9
$UCSBASE
  2

  9
$UCSNAME
  2

  9
$UCSORG
 10
0.0
 20
0.0
 30
0.0
  9
$UCSXDIR
 10
1.0
 20
0.0
 30
0.0
  9
$UCSYDIR
 10
0.0
 20
1.0
 30
0.0
  9
$UCSORTHOREF
  2

  9
$UCSORTHOVIEW
 70
     0
  9
$UCSORGTOP
 10
0.0
 20
0.0
 30
0.0
  9
$UCSORGBOTTOM
 10
0.0
 20
0.0
 30
0.0
  9
$UCSORGLEFT
 10
0.0
 20
0.0
 30
0.0
  9
$UCSORGRIGHT
 10
0.0
 20
0.0
 30
0.0
  9
$UCSORGFRONT
 10
0.0
 20
0.0
 30
0.0
  9
$UCSORGBACK
 10
0.0
 20
0.0
 30
0.0
  9
$PUCSBASE
  2

  9
$PUCSNAME
  2

  9
$PUCSORG
 10
0.0
 20
0.0
 30
0.0
  9
$PUCSXDIR
 10
1.0
 20
0.0
 30
0.0
  9
$PUCSYDIR
 10
0.0
 20
1.0
 30
0.0
  9
$PUCSORTHOREF
  2

  9
$PUCSORTHOVIEW
 70
     0
  9
$PUCSORGTOP
 10
0.0
 20
0.0
 30
0.0
  9
$PUCSORGBOTTOM
 10
0.0
 20
0.0
 30
0.0
  9
$PUCSORGLEFT
 10
0.0
 20
0.0
 30
0.0
  9
$PUCSORGRIGHT
 10
0.0
 20
0.0
 30
0.0
  9
$PUCSORGFRONT
 10
0.0
 20
0.0
 30
0.0
  9
$PUCSORGBACK
 10
0.0
 20
0.0
 30
0.0
  9
$USERI1
 70
     0
  9
$USERI2
 70
     0
  9
$USERI3
 70
     0
  9
$USERI4
 70
     0
  9
$USERI5
 70
     0
  9
$USERR1
 40
20.0
  9
$USERR2
 40
0.0
  9
$USERR3
 40
0.0
  9
$USERR4
 40
0.0
  9
$USERR5
 40
0.0
  9
$WORLDVIEW
 70
     1
  9
$SHADEDGE
 70
     3
  9
$SHADEDIF
 70
    70
  9
$TILEMODE
 70
     1
  9
$MAXACTVP
 70
    64
  9
$PINSBASE
 10
0.0
 20
0.0
 30
0.0
  9
$PLIMCHECK
 70
     0
  9
$PEXTMIN
 10
1.000000000000000E+20
 20
1.000000000000000E+20
 30
1.000000000000000E+20
  9
$PEXTMAX
 10
-1.000000000000000E+20
 20
-1.000000000000000E+20
 30
-1.000000000000000E+20
  9
$PLIMMIN
 10
0.0
 20
0.0
  9
$PLIMMAX
 10
12.0
 20
9.0
  9
$UNITMODE
 70
     0
  9
$VISRETAIN
 70
     1
  9
$PLINEGEN
 70
     0
  9
$PSLTSCALE
 70
     1
  9
$TREEDEPTH
 70
  3020
  9
$CMLSTYLE
  2
Standard
  9
$CMLJUST
 70
     0
  9
$CMLSCALE
 40
1.0
  9
$PROXYGRAPHICS
 70
     1
  9
$MEASUREMENT
 70
     0
  9
$CELWEIGHT
370
    -1
  9
$ENDCAPS
280
     0
  9
$JOINSTYLE
280
     0
  9
$LWDISPLAY
290
     0
  9
$INSUNITS
 70
     0
  9
$HYPERLINKBASE
  1

  9
$STYLESHEET
  1

  9
$XEDIT
290
     1
  9
$CEPSNTYPE
380
     0
  9
$PSTYLEMODE
290
     1
  9
$FINGERPRINTGUID
  2
{2A5A3CE2-EC26-46F1-9221-94F86AC0C49C}
  9
$VERSIONGUID
  2
{910435B1-A57A-4649-91F4-CB3485ECD5F0}
  9
$EXTNAMES
290
     1
  9
$PSVPSCALE
 40
0.0
  9
$OLESTARTUP
290
     0
  0
ENDSEC
  0
SECTION
  2
CLASSES
  0
CLASS
  1
ACDBDICTIONARYWDFLT
  2
AcDbDictionaryWithDefault
  3
ObjectDBX Classes
 90
        0
280
     0
281
     0
  0
CLASS
  1
MATERIAL
  2
AcDbMaterial
  3
ObjectDBX Classes
 90
     1153
280
     0
281
     0
  0
CLASS
  1
VISUALSTYLE
  2
AcDbVisualStyle
  3
ObjectDBX Classes
 90
     4095
280
     0
281
     0
  0
CLASS
  1
SCALE
  2
AcDbScale
  3
ObjectDBX Classes
 90
     1153
280
     0
281
     0
  0
CLASS
  1
TABLESTYLE
  2
AcDbTableStyle
  3
ObjectDBX Classes
 90
     4095
280
     0
281
     0
  0
CLASS
  1
MLEADERSTYLE
  2
AcDbMLeaderStyle
  3
ACDB_MLEADERSTYLE_CLASS
 90
     4095
280
     0
281
     0
  0
CLASS
  1
AMGSETTINGSOBJ
  2
AmgSettingsObj
  3
"AcadM|Product Description: AutoCAD Mechanical|Company: Autodesk, Inc."
 90
     1024
280
     0
281
     0
  0
CLASS
  1
ACME_DOCUMENT
  2
AcMeDbDoc
  3
AcMeServices
 90
     1024
280
     0
281
     0
  0
CLASS
  1
ACMESCOPE
  2
AcMeScope
  3
AcMeServices
 90
     1024
280
     0
281
     0
  0
CLASS
  1
ACMECOMMANDHISTORY
  2
AcMeCommandHistory
  3
AcMeServices
 90
     1024
280
     0
281
     0
  0
CLASS
  1
ACIMSYSVARMAN
  2
AcImSysVarManager
  3
AcMeServices
 90
     1024
280
     0
281
     0
  0
CLASS
  1
ACIMREALSYSVAR
  2
AcImRealSysVar
  3
AcMeServices
 90
     1024
280
     0
281
     0
  0
CLASS
  1
ACIMINTSYSVAR
  2
AcImIntSysVar
  3
AcMeServices
 90
     1024
280
     0
281
     0
  0
CLASS
  1
ACMEDRAWINGMAN
  2
AcMeDrawingMan
  3
AcMeServices
 90
     1024
280
     0
281
     0
  0
CLASS
  1
ACMEVIEW
  2
AcMeView
  3
AcMeServices
 90
     1024
280
     0
281
     0
  0
CLASS
  1
ACDBENTITYCACHE
  2
AcMeEntityCache
  3
AcMeServices
 90
     1024
280
     0
281
     0
  0
CLASS
  1
GSMANAGER
  2
AcMeGSManager
  3
AcMeServices
 90
     1024
280
     0
281
     0
  0
CLASS
  1
AMDTINTERNALREACTOR
  2
AmdtInternalReactor
  3
AcMeServices
 90
     1024
280
     0
281
     0
  0
CLASS
  1
ACMESTATEMGR
  2
AcMeStateMgr
  3
AcMeServices
 90
     1024
280
     0
281
     0
  0
CLASS
  1
ACGREFMASTER
  2
AcGrefMaster
  3
AcAttribServices
 90
     1024
280
     0
281
     0
  0
CLASS
  1
AM_DRAWING_MGR
  2
AcDmDwgMgr
  3
AcMechDwgViewMgmt
 90
     1024
280
     0
281
     0
  0
CLASS
  1
AM_DWG_DOCUMENT
  2
AcDmDwgDocument
  3
AcMechDwgViewMgmt
 90
     1024
280
     0
281
     0
  0
CLASS
  1
AM_DWG_SHEET
  2
AcDmSheet
  3
AcMechDwgViewMgmt
 90
     1024
280
     0
281
     0
  0
CLASS
  1
AM_VIEWDIMPARMAP
  2
AcDmViewDimParMap
  3
AcMechDwgViewMgmt
 90
     1024
280
     0
281
     0
  0
CLASS
  1
AM_DWGMGR_NAME
  2
AcDmDwgMgrName
  3
AcMechDwgViewMgmt
 90
     1024
280
     0
281
     0
  0
CLASS
  1
ACME_DATABASE
  2
AcMeDbDatabase
  3
AcMeServices
 90
     1024
280
     0
281
     0
  0
CLASS
  1
ACRFINSADJUSTERMGR
  2
AcRfInsAdjusterMgr
  3
AcMeServices
 90
     1024
280
     0
281
     0
  0
CLASS
  1
ACGREFACADMASTER
  2
AcGrefacadMaster
  3
AcGrefServices
 90
     1024
280
     0
281
     0
  0
CLASS
  1
AMDTMENUSTATEMGR
  2
AmdtMenuStateMgr
  3
McadcomServices
 90
     1024
280
     0
281
     0
  0
CLASS
  1
AMDTMCOMMENUSTATE
  2
AmdtMcomMenuState
  3
McadcomServices
 90
     1024
280
     0
281
     0
  0
CLASS
  1
AMIMASTER
  2
AmiMaster
  3
AmiServices
 90
     1024
280
     0
281
     0
  0
CLASS
  1
ASAPP
  2
AcAsAppObject
  3
AutoSurfServices
 90
     1024
280
     0
281
     0
  0
CLASS
  1
IM_STATIC_MAN
  2
AcImStaticVarManager
  3
AcMeServices
 90
     1024
280
     0
281
     0
  0
CLASS
  1
ACIMSTRSYSVAR
  2
AcImStrSysVar
  3
AcMeServices
 90
     1024
280
     0
281
     0
  0
CLASS
  1
ACIMDBLSTATICVAR
  2
AcImDblStaticVar
  3
AcMeServices
 90
     1024
280
     0
281
     0
  0
CLASS
  1
ACIMSTRSTATICVAR
  2
AcImStrStaticVar
  3
AcMeServices
 90
     1024
280
     0
281
     0
  0
CLASS
  1
ACIMINTSTATICVAR
  2
AcImIntStaticVar
  3
AcMeServices
 90
     1024
280
     0
281
     0
  0
CLASS
  1
ACASGREFMASTER
  2
AcAsGrefMaster
  3
AutoSurfResolverServices
 90
     1024
280
     0
281
     0
  0
CLASS
  1
ACADGREFMODULE
  2
AcAdGrefModule
  3
AdGrefServices
 90
     1024
280
     0
281
     0
  0
CLASS
  1
AMDTMAPISURFMOUDULE
  2
AmdtMApiSurfModule
  3
MApiSurfServices
 90
     1024
280
     0
281
     0
  0
CLASS
  1
MAPIAMMOUDLE
  2
MApiAmModule
  3
MApiAmServices
 90
     1024
280
     0
281
     0
  0
CLASS
  1
AMDTADMENUSTATE
  2
AmdtAdMenuState
  3
DesignerServices
 90
     1024
280
     0
281
     0
  0
CLASS
  1
ADAPPL
  2
AcAdAppl
  3
DesignerServices
 90
     1024
280
     0
281
     0
  0
CLASS
  1
DEPMGR
  2
AcAdDepMgr
  3
DesignerServices
 90
     1024
280
     0
281
     0
  0
CLASS
  1
PARAMMGR
  2
AcAdParamMgr
  3
DesignerServices
 90
     1024
280
     0
281
     0
  0
CLASS
  1
PARAMSCOPE
  2
AcAdParamScope
  3
DesignerServices
 90
     1024
280
     0
281
     0
  0
CLASS
  1
NAMEDAPPL
  2
AcAdNamedAppl
  3
DesignerServices
 90
     1024
280
     0
281
     0
  0
CLASS
  1
AMDTDMMENUSTATE
  2
AmdtDmMenuState
  3
AcMechDwgViewMgmt
 90
     1024
280
     0
281
     0
  0
CLASS
  1
MAPIADMODULE
  2
MApiAdModule
  3
MApiAdServices
 90
     1024
280
     0
281
     0
  0
CLASS
  1
AMDTAMMENUSTATE
  2
AmdtAmMenuState
  3
DesignerAssemblies
 90
     1024
280
     0
281
     0
  0
CLASS
  1
ACAMPROJECT
  2
AcAmProject
  3
DesignerAssemblies
 90
     1024
280
     0
281
     0
  0
CLASS
  1
ACAMGRCOMPDEF
  2
AcAmGrCompDef
  3
DesignerAssemblies
 90
     1024
280
     0
281
     0
  0
CLASS
  1
ACCMCONTEXT
  2
AcCmContext
  3
DesignerAssemblies
 90
     1024
280
     0
281
     0
  0
CLASS
  1
ACAMCOMPDEF
  2
AcAmCompDef
  3
DesignerAssemblies
 90
     1024
280
     0
281
     0
  0
CLASS
  1
ACAMCOMPDEFMGR
  2
AcAmCompDefMgr
  3
DesignerAssemblies
 90
     1024
280
     0
281
     0
  0
CLASS
  1
AMCONTEXTMGR
  2
AcAmContextMgr
  3
DesignerAssemblies
 90
     1024
280
     0
281
     0
  0
CLASS
  1
ACAMCONTEXTMODELER
  2
AcAmContextModeler
  3
DesignerAssemblies
 90
     1024
280
     0
281
     0
  0
CLASS
  1
ACMDATADICTIONARY
  2
AcmDataDictionary
  3
"AcmSymBB|Product Description: AutoCAD Mechanical|Company: Autodesk, Inc."
 90
     1024
280
     0
281
     0
  0
CLASS
  1
ACMDATAENTRYBLOCK
  2
AcmDataEntryBlock
  3
AcmSymBB|Product Description: AutoCAD Mechanical|Company: Autodesk, Inc.
 90
     1024
280
     0
281
     0
  0
CLASS
  1
ACRFATTGENMGR
  2
AcRfAttGeneralMgr
  3
AcAttribServices
 90
     1024
280
     0
281
     0
  0
CLASS
  1
ACRFOBJATTMGR
  2
AcRfObjAttGroupMgr
  3
AcAttribServices
 90
     1024
280
     0
281
     0
  0
CLASS
  1
ACRFMCADAPIATTHOLDER
  2
AcRfMCADAPIAttHolder
  3
AcAttribServices
 90
     1024
280
     0
281
     0
  0
CLASS
  1
AMDTSYSATTR
  2
AmdtSystemAttribute
  3
AcAttribServices
 90
     1024
280
     0
281
     0
  0
CLASS
  1
CATALOGSTATE
  2
AcAmCatalogState
  3
DesignerAssemblies
 90
     1024
280
     0
281
     0
  0
CLASS
  1
ACAMGRCOMPDEFSET
  2
AcAmGrCompDefSet
  3
DesignerAssemblies
 90
     1024
280
     0
281
     0
  0
CLASS
  1
AMDTBROWSERDBTAB
  2
AmdtBrowserDbTab
  3
McadcomServices
 90
     1024
280
     0
281
     0
  0
CLASS
  1
CBROWSERAPPOBJECT
  2
CBrowserAppObject
  3
McadcomServices
 90
     1024
280
     0
281
     0
  0
CLASS
  1
DM_PLACEHOLDER
  2
AcDmSelsetPlaceholder
  3
AcMechDwgViewMgmt
 90
     1024
280
     0
281
     0
  0
CLASS
  1
ACMSTANDARDANSI
  2
AcmStandardANSI
  3
"Amdt_StdImp|Product Description: AutoCAD Mechanical|Company: Autodesk, Inc."
 90
     1024
280
     0
281
     0
  0
CLASS
  1
ACMSURFSTANDARDANSI
  2
AcmSurfTextStdANSI
  3
"Amdt_StdImp|Product Description: AutoCAD Mechanical|Company: Autodesk, Inc."
 90
     1024
280
     0
281
     0
  0
CLASS
  1
ACMFCFSTANDARDANSI
  2
AcmFCFStdANSI
  3
"Amdt_StdImp|Product Description: AutoCAD Mechanical|Company: Autodesk, Inc."
 90
     1024
280
     0
281
     0
  0
CLASS
  1
ACMWELDSTANDARDANSI
  2
AcmWeldingStdANSI
  3
"Amdt_StdImp|Product Description: AutoCAD Mechanical|Company: Autodesk, Inc."
 90
     1024
280
     0
281
     0
  0
CLASS
  1
ACMIDSTANDARDANSI
  2
AcmIdStdANSI
  3
"Amdt_StdImp|Product Description: AutoCAD Mechanical|Company: Autodesk, Inc."
 90
     1024
280
     0
281
     0
  0
CLASS
  1
ACMDATUMSTANDARDANSI
  2
AcmDatumStdANSI
  3
"Amdt_StdImp|Product Description: AutoCAD Mechanical|Company: Autodesk, Inc."
 90
     1024
280
     0
281
     0
  0
CLASS
  1
ACMBOMSTANDARDANSI
  2
AcmBOMStdANSI
  3
"Amdt_StdImp|Product Description: AutoCAD Mechanical|Company: Autodesk, Inc."
 90
     1024
280
     0
281
     0
  0
CLASS
  1
ACMDETAILSTANDARDANSI
  2
AmdtDetailSymStdANSI
  3
"Amdt_StdImp|Product Description: AutoCAD Mechanical|Company: Autodesk, Inc."
 90
     1024
280
     0
281
     0
  0
CLASS
  1
ACMSECTIONSTANDARDANSI
  2
AmdtSectionSymStdANSI
  3
"Amdt_StdImp|Product Description: AutoCAD Mechanical|Company: Autodesk, Inc."
 90
     1024
280
     0
281
     0
  0
CLASS
  1
ACMCENTERLINESTANDARDANSI
  2
AmdtCenterLineStdANSI
  3
"Amdt_StdImp|Product Description: AutoCAD Mechanical|Company: Autodesk, Inc."
 90
     1024
280
     0
281
     0
  0
CLASS
  1
ACMTHREADLINESTANDARDANSI
  2
AmdtThreadLineStdANSI
  3
"Amdt_StdImp|Product Description: AutoCAD Mechanical|Company: Autodesk, Inc."
 90
     1024
280
     0
281
     0
  0
CLASS
  1
ACMNOTESTANDARDANSI
  2
AmdtNoteStdANSI
  3
"Amdt_StdImp|Product Description: AutoCAD Mechanical|Company: Autodesk, Inc."
 90
     1024
280
     0
281
     0
  0
CLASS
  1
ACMTAPERSTANDARDANSI
  2
AcmTaperStdANSI
  3
"Amdt_StdImp|Product Description: AutoCAD Mechanical|Company: Autodesk, Inc."
 90
     1024
280
     0
281
     0
  0
CLASS
  1
ACMANOOTATIONVIEWSTANDARDANSI
  2
AmdtAnViewStdANSI
  3
"Amdt_StdImp|Product Description: AutoCAD Mechanical|Company: Autodesk, Inc."
 90
     1024
280
     0
281
     0
  0
CLASS
  1
ACAMGLAYSTD
  2
AcAmgLayStd
  3
"AmgLay|Product Description: AutoCAD Mechanical|Company: Autodesk, Inc."
 90
     1024
280
     0
281
     0
  0
CLASS
  1
ACAMGDIMSTD
  2
AcAmgDimStd
  3
"AmgDim|Product Description: AutoCAD Mechanical|Company: Autodesk, Inc."
 90
     1024
280
     0
281
     0
  0
CLASS
  1
ACAMGHOLECHARTSTDANSI
  2
AcAmgHoleChartStdANSI
  3
AmgDim|Product Description: AutoCAD Mechanical|Company: Autodesk, Inc.
 90
     1024
280
     0
281
     0
  0
CLASS
  1
AMGOBJPROPCFG
  2
AmgObjPropCfg
  3
"AmgLay|Product Description: AutoCAD Mechanical|Company: Autodesk, Inc."
 90
     1025
280
     0
281
     0
  0
CLASS
  1
ACAMGTITLESTD
  2
AcAmgTitleStd
  3
"AmgTitle|Product Description: AutoCAD Mechanical|Company: Autodesk, Inc."
 90
     4095
280
     0
281
     0
  0
CLASS
  1
AMDTNOTETEMPLATEDB
  2
AmdtNoteTemplateDB
  3
AcmSymBB|Product Description: AutoCAD Mechanical|Company: Autodesk, Inc.
 90
     1024
280
     0
281
     0
  0
CLASS
  1
LAYER_INDEX
  2
AcDbLayerIndex
  3
ObjectDBX Classes
 90
        0
280
     0
281
     0
  0
CLASS
  1
IDBUFFER
  2
AcDbIdBuffer
  3
ObjectDBX Classes
 90
        0
280
     0
281
     0
  0
CLASS
  1
DICTIONARYVAR
  2
AcDbDictionaryVar
  3
ObjectDBX Classes
 90
        0
280
     0
281
     0
  0
CLASS
  1
CELLSTYLEMAP
  2
AcDbCellStyleMap
  3
ObjectDBX Classes
 90
     1152
280
     0
281
     0
  0
CLASS
  1
ACDBPLACEHOLDER
  2
AcDbPlaceHolder
  3
ObjectDBX Classes
 90
        0
280
     0
281
     0
  0
CLASS
  1
LAYOUT
  2
AcDbLayout
  3
ObjectDBX Classes
 90
        0
280
     0
281
     0
  0
ENDSEC
  0
SECTION
  2
TABLES
  0
TABLE
  2
VPORT
  5
2ADA
330
0
100
AcDbSymbolTable
 70
     1
  0
VPORT
  5
2B4A
330
2ADA
100
AcDbSymbolTableRecord
100
AcDbViewportTableRecord
  2
*ACTIVE
 70
     0
 10
0.0
 20
0.0
 11
1.0
 21
1.0
 12
0.0
 22
0.0
 13
0.0
 23
0.0
 14
1.0
 24
1.0
 15
0.0
 25
0.0
 16
0.0
 26
0.0
 36
1.0
 17
129.384627017872
 27
-179.6381533358619
 37
0.0
 40
1233.59122543692
 41
1.712555066079294
 42
50.0
 43
0.0
 44
0.0
 50
0.0
 51
0.0
 71
     0
 72
   100
 73
     1
 74
     0
 75
     0
 76
     0
 77
     0
 78
     0
281
     0
 65
     0
110
0.0
120
0.0
130
0.0
111
1.0
121
0.0
131
0.0
112
0.0
122
1.0
132
0.0
 79
     0
146
0.0
  0
ENDTAB
  0
TABLE
  2
LTYPE
  5
2AD7
330
0
100
AcDbSymbolTable
 70
    19
  0
LTYPE
  5
2B34
330
2AD7
100
AcDbSymbolTableRecord
100
AcDbLinetypeTableRecord
  2
ByBlock
 70
     0
  3

 72
    65
 73
     0
 40
0.0
  0
LTYPE
  5
2B35
330
2AD7
100
AcDbSymbolTableRecord
100
AcDbLinetypeTableRecord
  2
ByLayer
 70
     0
  3

 72
    65
 73
     0
 40
0.0
  0
LTYPE
  5
2B36
330
2AD7
100
AcDbSymbolTableRecord
100
AcDbLinetypeTableRecord
  2
CONTINUOUS
 70
     0
  3
実線
 72
    65
 73
     0
 40
0.0
  0
LTYPE
  5
2B4B
330
2AD7
100
AcDbSymbolTableRecord
100
AcDbLinetypeTableRecord
  2
DASHDOT
 70
     0
  3
____ _ ____ _ ____ _ ____ _ ____ _ ____ _ ____
 72
    65
 73
     4
 40
5.5
 49
4.0
 74
     0
 49
-0.6
 74
     0
 49
0.3
 74
     0
 49
-0.6
 74
     0
  0
LTYPE
  5
2B4C
330
2AD7
100
AcDbSymbolTableRecord
100
AcDbLinetypeTableRecord
  2
HIDDEN
 70
     0
  3
Hidden __ __ __ __ __ __ __ __ __ __ __ __ __ _
 72
    65
 73
     2
 40
0.375
 49
0.25
 74
     0
 49
-0.125
 74
     0
  0
LTYPE
  5
2B4D
330
2AD7
100
AcDbSymbolTableRecord
100
AcDbLinetypeTableRecord
  2
PHANTOM2
 70
     0
  3
Phantom (.5x) ___ _ _ ___ _ _ ___ _ _ ___ _ _
 72
    65
 73
     6
 40
1.25
 49
0.625
 74
     0
 49
-0.125
 74
     0
 49
0.125
 74
     0
 49
-0.125
 74
     0
 49
0.125
 74
     0
 49
-0.125
 74
     0
  0
LTYPE
  5
2B4E
330
2AD7
100
AcDbSymbolTableRecord
100
AcDbLinetypeTableRecord
  2
CENTER
 70
     0
  3
Center ____ _ ____ _ ____ _ ____ _ ____ _ ____
 72
    65
 73
     4
 40
2.0
 49
1.25
 74
     0
 49
-0.25
 74
     0
 49
0.25
 74
     0
 49
-0.25
 74
     0
  0
LTYPE
  5
2B4F
330
2AD7
100
AcDbSymbolTableRecord
100
AcDbLinetypeTableRecord
  2
ASULTYPE
 70
     0
  3
実線
 72
    65
 73
     2
 40
3.0
 49
2.5
 74
     0
 49
0.5
 74
     0
  0
LTYPE
  5
2B50
330
2AD7
100
AcDbSymbolTableRecord
100
AcDbLinetypeTableRecord
  2
ASVLTYPE
 70
     0
  3
__ __ __ __ __ __ __ __ __ __ __ __ __ __ __ __ __ __ __ __ __
 72
    65
 73
     2
 40
0.75
 49
0.5
 74
     0
 49
-0.25
 74
     0
  0
LTYPE
  5
2B51
330
2AD7
100
AcDbSymbolTableRecord
100
AcDbLinetypeTableRecord
  2
AM_ISO02W050
 70
     0
  3
__ __ __ __ __ __ __ __ __ __ __ __ __ __ __
 72
    65
 73
     2
 40
7.5
 49
6.0
 74
     0
 49
-1.5
 74
     0
  0
LTYPE
  5
2B52
330
2AD7
100
AcDbSymbolTableRecord
100
AcDbLinetypeTableRecord
  2
AM_ISO08W050
 70
     0
  3
____ . ____ . ____ . ____ . ____ . ____ . ____
 72
    65
 73
     4
 40
18.0
 49
12.0
 74
     0
 49
-1.5
 74
     0
 49
3.0
 74
     0
 49
-1.5
 74
     0
  0
LTYPE
  5
2B53
330
2AD7
100
AcDbSymbolTableRecord
100
AcDbLinetypeTableRecord
  2
AM_ISO09W050
 70
     0
  3
_____ . . _____ . . _____ . . ____ .. ____
 72
    65
 73
     6
 40
22.5
 49
12.0
 74
     0
 49
-1.5
 74
     0
 49
3.0
 74
     0
 49
-1.5
 74
     0
 49
3.0
 74
     0
 49
-1.5
 74
     0
  0
LTYPE
  5
2B54
330
2AD7
100
AcDbSymbolTableRecord
100
AcDbLinetypeTableRecord
  2
AMCONSTR
 70
     0
  3
_______________________
 72
    65
 73
     2
 40
9999.0
 49
9999.0
 74
     0
 49
0.0
 74
     0
  0
LTYPE
  5
2B55
330
2AD7
100
AcDbSymbolTableRecord
100
AcDbLinetypeTableRecord
  2
AM_ISO08W050X2
 70
     0
  3
__ . __ . __ . __ . __ . __
 72
    65
 73
     4
 40
9.0
 49
6.0
 74
     0
 49
-0.75
 74
     0
 49
1.5
 74
     0
 49
-0.75
 74
     0
  0
LTYPE
  5
2B56
330
2AD7
100
AcDbSymbolTableRecord
100
AcDbLinetypeTableRecord
  2
AM_ISO02W050X2
 70
     0
  3
 _ _ _ _ _ _ _ _ _ _ _ _
 72
    65
 73
     2
 40
3.75
 49
3.0
 74
     0
 49
-0.75
 74
     0
  0
LTYPE
  5
2B57
330
2AD7
100
AcDbSymbolTableRecord
100
AcDbLinetypeTableRecord
  2
AMZIGZAG
 70
     0
  3
/\/-/\/-/\/-/\/-/\/-/\/
 72
    65
 73
     2
 40
11.0001
 49
0.0001
 74
     0
 49
-11.0
 74
     0
  0
LTYPE
  5
2B58
330
2AD7
100
AcDbSymbolTableRecord
100
AcDbLinetypeTableRecord
  2
CENTER2
 70
     0
  3
Center (.5x) ___ _ ___ _ ___ _ ___ _ ___ _ ___
 72
    65
 73
     4
 40
1.125
 49
0.75
 74
     0
 49
-0.125
 74
     0
 49
0.125
 74
     0
 49
-0.125
 74
     0
  0
LTYPE
  5
2B59
330
2AD7
100
AcDbSymbolTableRecord
100
AcDbLinetypeTableRecord
  2
HIDDEN2
 70
     0
  3
Hidden (.5x) _ _ _ _ _ _ _ _ _ _ _ _ _ _ _ _ _
 72
    65
 73
     2
 40
0.1875
 49
0.125
 74
     0
 49
-0.0625
 74
     0
  0
LTYPE
  5
2B5A
330
2AD7
100
AcDbSymbolTableRecord
100
AcDbLinetypeTableRecord
  2
AMZIGZAG2
 70
     0
  3
/\/-/\/-/\/-/\/-/\/-/\/
 72
    65
 73
     2
 40
0.4401
 49
0.0001
 74
     0
 49
-0.4400000000000003
 74
     0
  0
LTYPE
  5
2B5B
330
2AD7
100
AcDbSymbolTableRecord
100
AcDbLinetypeTableRecord
  2
ACANSTGB
 70
     0
  3
__ . . __ . .
 72
    65
 73
     6
 40
0.35433070866
 49
0.15748031496
 74
     0
 49
-0.03937007874
 74
     0
 49
0.03937007874
 74
     0
 49
-0.03937007874
 74
     0
 49
0.03937007874
 74
     0
 49
-0.03937007874
 74
     0
  0
LTYPE
  5
2B5C
330
2AD7
100
AcDbSymbolTableRecord
100
AcDbLinetypeTableRecord
  2
ACANSTGL
 70
     0
  3
_ _ _ _ _
 72
    65
 73
     2
 40
0.11811023622
 49
0.07874015748
 74
     0
 49
-0.03937007874
 74
     0
  0
ENDTAB
  0
TABLE
  2
LAYER
  5
2AD4
330
0
100
AcDbSymbolTable
 70
    12
  0
LAYER
  5
2B2E
102
{ACAD_XDICTIONARY
360
2D04
102
}
330
2AD4
100
AcDbSymbolTableRecord
100
AcDbLayerTableRecord
  2
0
 70
     0
 62
     7
  6
CONTINUOUS
370
    -3
390
2AE1
  0
LAYER
  5
2B5D
102
{ACAD_XDICTIONARY
360
2D06
102
}
330
2AD4
100
AcDbSymbolTableRecord
100
AcDbLayerTableRecord
  2
OUTLINE
 70
     0
 62
     3
  6
CONTINUOUS
370
    -3
390
2AE1
  0
LAYER
  5
2B5E
102
{ACAD_XDICTIONARY
360
2D08
102
}
330
2AD4
100
AcDbSymbolTableRecord
100
AcDbLayerTableRecord
  2
SIZE
 70
     0
 62
    30
  6
CONTINUOUS
370
    -3
390
2AE1
  0
LAYER
  5
2B5F
102
{ACAD_XDICTIONARY
360
2D0A
102
}
330
2AD4
100
AcDbSymbolTableRecord
100
AcDbLayerTableRecord
  2
BASIS
 70
     0
 62
     6
  6
DASHDOT
370
    -3
390
2AE1
  0
LAYER
  5
2B60
102
{ACAD_XDICTIONARY
360
2D0C
102
}
330
2AD4
100
AcDbSymbolTableRecord
100
AcDbLayerTableRecord
  2
DETAIL
 70
     0
 62
     5
  6
CONTINUOUS
370
    -3
390
2AE1
  0
LAYER
  5
2B61
102
{ACAD_XDICTIONARY
360
2D0E
102
}
330
2AD4
100
AcDbSymbolTableRecord
100
AcDbLayerTableRecord
  2
ARRANGE
 70
     0
 62
     1
  6
CONTINUOUS
370
    -3
390
2AE1
  0
LAYER
  5
2B62
330
2AD4
100
AcDbSymbolTableRecord
100
AcDbLayerTableRecord
  2
DEFPOINTS
 70
     0
 62
     7
  6
CONTINUOUS
290
     0
370
    -3
390
2AE1
  0
LAYER
  5
2B63
102
{ACAD_XDICTIONARY
360
2D10
102
}
330
2AD4
100
AcDbSymbolTableRecord
100
AcDbLayerTableRecord
  2
ETC
 70
     0
 62
    61
  6
CONTINUOUS
370
    -3
390
2AE1
  0
LAYER
  5
2B64
102
{ACAD_XDICTIONARY
360
2D12
102
}
330
2AD4
100
AcDbSymbolTableRecord
100
AcDbLayerTableRecord
  2
FIX
 70
     0
 62
    11
  6
CONTINUOUS
370
    -3
390
2AE1
  0
LAYER
  5
2B65
102
{ACAD_XDICTIONARY
360
2D14
102
}
330
2AD4
100
AcDbSymbolTableRecord
100
AcDbLayerTableRecord
  2
NOTE
 70
     0
 62
     4
  6
CONTINUOUS
370
    -3
390
2AE1
  0
LAYER
  5
2B66
102
{ACAD_XDICTIONARY
360
2D16
102
}
330
2AD4
100
AcDbSymbolTableRecord
100
AcDbLayerTableRecord
  2
SERVICESPACE
 70
     0
 62
     2
  6
DASHDOT
370
    -3
390
2AE1
  0
LAYER
  5
2B67
102
{ACAD_XDICTIONARY
360
2D18
102
}
330
2AD4
100
AcDbSymbolTableRecord
100
AcDbLayerTableRecord
  2
SYMBOLLINE
 70
     0
 62
    15
  6
CONTINUOUS
370
    -3
390
2AE1
  0
ENDTAB
  0
TABLE
  2
STYLE
  5
2AD5
330
0
100
AcDbSymbolTable
 70
     5
  0
STYLE
  5
2B2F
330
2AD5
100
AcDbSymbolTableRecord
100
AcDbTextStyleTableRecord
  2
STANDARD
 70
     0
 40
64.0
 41
0.9
 50
0.0
 71
     0
 42
64.0
  3
SIMPLEX.shx
  4
BIGFONT.shx
  0
STYLE
  5
2B33
330
2AD5
100
AcDbSymbolTableRecord
100
AcDbTextStyleTableRecord
  2
ANNOTATIVE
 70
     0
 40
0.0
 41
1.0
 50
0.0
 71
     0
 42
0.2
  3
txt
  4

1001
ACADANNOTATIVE
1000
AnnotativeData
1002
{
1070
     1
1070
     1
1002
}
  0
STYLE
  5
2B68
330
2AD5
100
AcDbSymbolTableRecord
100
AcDbTextStyleTableRecord
  2

 70
     1
 40
0.0
 41
1.0
 50
0.0
 71
     0
 42
64.0
  3
genltshp.shx
  4

  0
STYLE
  5
2B69
330
2AD5
100
AcDbSymbolTableRecord
100
AcDbTextStyleTableRecord
  2
ACANSTS
 70
     0
 40
1.0
 41
1.0
 50
0.0
 71
     0
 42
64.0
  3
romans.shx
  4
extfont.shx
  0
STYLE
  5
2B6A
330
2AD5
100
AcDbSymbolTableRecord
100
AcDbTextStyleTableRecord
  2
ACANSGDT
 70
     0
 40
0.0
 41
1.0
 50
0.0
 71
     0
 42
64.0
  3
amgdt.shx
  4

  0
ENDTAB
  0
TABLE
  2
VIEW
  5
2AD8
330
0
100
AcDbSymbolTable
 70
     1
  0
VIEW
  5
2B6B
330
2AD8
100
AcDbSymbolTableRecord
100
AcDbViewTableRecord
  2
ALL
 70
     0
 40
4282.619807999997
 10
0.0
 20
41.30990399999999
 41
5940.0
 11
0.0
 21
0.0
 31
1.0
 12
0.0
 22
0.0
 32
0.0
 42
50.0
 43
0.0
 44
0.0
 50
0.0
 71
     0
281
     0
 72
     1
110
0.0
120
0.0
130
0.0
111
1.0
121
0.0
131
0.0
112
0.0
122
1.0
132
0.0
 79
     0
146
0.0
  0
ENDTAB
  0
TABLE
  2
UCS
  5
2AD9
330
0
100
AcDbSymbolTable
 70
     0
  0
ENDTAB
  0
TABLE
  2
APPID
  5
2ADB
330
0
100
AcDbSymbolTable
 70
    26
  0
APPID
  5
2B30
330
2ADB
100
AcDbSymbolTableRecord
100
AcDbRegAppTableRecord
  2
ACAD
 70
     0
  0
APPID
  5
2B37
330
2ADB
100
AcDbSymbolTableRecord
100
AcDbRegAppTableRecord
  2
ACADANNOTATIVE
 70
     0
  0
APPID
  5
2B41
330
2ADB
100
AcDbSymbolTableRecord
100
AcDbRegAppTableRecord
  2
ACAD_MLEADERVER
 70
     0
  0
APPID
  5
2B6C
330
2ADB
100
AcDbSymbolTableRecord
100
AcDbRegAppTableRecord
  2
GENIUS_GENDIM_13
 70
     0
  0
APPID
  5
2B6D
330
2ADB
100
AcDbSymbolTableRecord
100
AcDbRegAppTableRecord
  2
GENIUS_GENDTOL_13
 70
     0
  0
APPID
  5
2B6E
330
2ADB
100
AcDbSymbolTableRecord
100
AcDbRegAppTableRecord
  2
GENIUS_GE3DTOL_13
 70
     0
  0
APPID
  5
2B6F
330
2ADB
100
AcDbSymbolTableRecord
100
AcDbRegAppTableRecord
  2
MCAD_NO_VIS
 70
     0
  0
APPID
  5
2B70
330
2ADB
100
AcDbSymbolTableRecord
100
AcDbRegAppTableRecord
  2
ACAD_TEMP_GRAPHIC
 70
     0
  0
APPID
  5
2B71
330
2ADB
100
AcDbSymbolTableRecord
100
AcDbRegAppTableRecord
  2
AD_DRAW
 70
     0
  0
APPID
  5
2B72
330
2ADB
100
AcDbSymbolTableRecord
100
AcDbRegAppTableRecord
  2
ACATTRIBSERVICES
 70
     0
  0
APPID
  5
2B73
330
2ADB
100
AcDbSymbolTableRecord
100
AcDbRegAppTableRecord
  2
ASURF_PCURVE_APPNAME
 70
     0
  0
APPID
  5
2B74
330
2ADB
100
AcDbSymbolTableRecord
100
AcDbRegAppTableRecord
  2
AMG_3D2D_5_0
 70
     0
  0
APPID
  5
2B75
330
2ADB
100
AcDbSymbolTableRecord
100
AcDbRegAppTableRecord
  2
DESIGNERASSEMBLIES
 70
     0
  0
APPID
  5
2B76
330
2ADB
100
AcDbSymbolTableRecord
100
AcDbRegAppTableRecord
  2
ACADM_DIM_EDIT
 70
     0
  0
APPID
  5
2B77
330
2ADB
100
AcDbSymbolTableRecord
100
AcDbRegAppTableRecord
  2
AMDT_DM_ADJ
 70
     0
  0
APPID
  5
2B78
330
2ADB
100
AcDbSymbolTableRecord
100
AcDbRegAppTableRecord
  2
ACAD_DSTYLE_DIMARC_LENGTH_
 70
     0
  0
APPID
  5
2B79
330
2ADB
100
AcDbSymbolTableRecord
100
AcDbRegAppTableRecord
  2
ACAD_DSTYLE_DIMJOGGED_JOGA
 70
     0
  0
APPID
  5
2B7A
330
2ADB
100
AcDbSymbolTableRecord
100
AcDbRegAppTableRecord
  2
ACAD_PSEXT
 70
     0
  0
APPID
  5
2B7B
330
2ADB
100
AcDbSymbolTableRecord
100
AcDbRegAppTableRecord
  2
ACAD_EXEMPT_FROM_CAD_STANDARDS
 70
     0
  0
APPID
  5
2B7C
330
2ADB
100
AcDbSymbolTableRecord
100
AcDbRegAppTableRecord
  2
ACAD_DSTYLE_DIMJAG
 70
     0
  0
APPID
  5
2B7D
330
2ADB
100
AcDbSymbolTableRecord
100
AcDbRegAppTableRecord
  2
ACAD_DSTYLE_DIMTALN
 70
     0
  0
APPID
  5
2CAB
330
2ADB
100
AcDbSymbolTableRecord
100
AcDbRegAppTableRecord
  2
AMG_3D2D_5.0
 70
     0
  0
APPID
  5
2D41
330
2ADB
100
AcDbSymbolTableRecord
100
AcDbRegAppTableRecord
  2
ACAD_DSTYLE_DIMARC_LENGTH_SYMBOL
 70
     0
  0
APPID
  5
2D42
330
2ADB
100
AcDbSymbolTableRecord
100
AcDbRegAppTableRecord
  2
ACAD_DSTYLE_DIM_LINETYPE
 70
     0
  0
APPID
  5
2D43
330
2ADB
100
AcDbSymbolTableRecord
100
AcDbRegAppTableRecord
  2
ACAD_DSTYLE_DIM_EXT1_LINETYPE
 70
     0
  0
APPID
  5
2D44
330
2ADB
100
AcDbSymbolTableRecord
100
AcDbRegAppTableRecord
  2
ACAD_DSTYLE_DIM_EXT2_LINETYPE
 70
     0
  0
ENDTAB
  0
TABLE
  2
DIMSTYLE
  5
2ADC
330
0
100
AcDbSymbolTable
 70
    10
100
AcDbDimStyleTable
 71
     1
340
2B7E
  0
DIMSTYLE
105
2B31
330
2ADC
100
AcDbSymbolTableRecord
100
AcDbDimStyleTableRecord
  2
STANDARD
 70
     0
 41
12.0
 42
20.0
 44
20.0
 77
     1
 78
     8
140
64.0
141
0.0
147
10.0
275
     1
279
     2
284
     7
285
     7
286
     7
340
2B2F
  0
DIMSTYLE
105
2B32
330
2ADC
100
AcDbSymbolTableRecord
100
AcDbDimStyleTableRecord
  2
ANNOTATIVE
 70
     0
275
     1
279
     2
284
     7
285
     7
286
     7
340
2B2F
1001
ACADANNOTATIVE
1000
AnnotativeData
1002
{
1070
     1
1070
     1
1002
}
  0
DIMSTYLE
105
2B7E
330
2ADC
100
AcDbSymbolTableRecord
100
AcDbDimStyleTableRecord
  2
AM_ANSI
 70
     0
  4
mm
 41
0.12
 42
0.05
 43
0.5
 44
0.1
 47
0.1
 48
0.1
 78
     7
 79
     2
140
0.12
141
0.0
146
0.71
147
0.06
176
   256
177
   256
178
     2
274
     4
284
     7
340
2B2F
371
    -1
372
    -1
1001
ACAD_DSTYLE_DIMARC_LENGTH_SYMBOL
1070
   379
1070
     1
1001
ACAD_DSTYLE_DIM_LINETYPE
1070
   380
1005
2B34
1001
ACAD_DSTYLE_DIM_EXT1_LINETYPE
1070
   381
1005
2B34
1001
ACAD_DSTYLE_DIM_EXT2_LINETYPE
1070
   382
1005
2B34
  0
DIMSTYLE
105
2B7F
330
2ADC
100
AcDbSymbolTableRecord
100
AcDbDimStyleTableRecord
  2
AM_ANSI$3
 70
     0
  4
mm
 41
0.12
 42
0.05
 43
0.5
 44
0.1
 47
0.1
 48
0.1
 78
     7
 79
     2
140
0.12
141
0.0
146
0.71
147
0.06
176
   256
177
   256
178
     2
274
     4
284
     7
288
     1
289
     0
340
2B2F
371
    -1
372
    -1
1001
ACAD_DSTYLE_DIMARC_LENGTH_SYMBOL
1070
   379
1070
     1
1001
ACAD_DSTYLE_DIM_LINETYPE
1070
   380
1005
2B34
1001
ACAD_DSTYLE_DIM_EXT1_LINETYPE
1070
   381
1005
2B34
1001
ACAD_DSTYLE_DIM_EXT2_LINETYPE
1070
   382
1005
2B34
  0
DIMSTYLE
105
2B80
330
2ADC
100
AcDbSymbolTableRecord
100
AcDbDimStyleTableRecord
  2
AM_ANSI$4
 70
     0
  4
mm
 41
0.12
 42
0.05
 43
0.5
 44
0.1
 47
0.1
 48
0.1
 78
     7
 79
     2
140
0.12
141
0.0
146
0.71
147
0.06
176
   256
177
   256
178
     2
274
     4
284
     7
340
2B2F
371
    -1
372
    -1
1001
ACAD_DSTYLE_DIMARC_LENGTH_SYMBOL
1070
   379
1070
     1
1001
ACAD_DSTYLE_DIM_LINETYPE
1070
   380
1005
2B34
1001
ACAD_DSTYLE_DIM_EXT1_LINETYPE
1070
   381
1005
2B34
1001
ACAD_DSTYLE_DIM_EXT2_LINETYPE
1070
   382
1005
2B34
  0
DIMSTYLE
105
2B81
330
2ADC
100
AcDbSymbolTableRecord
100
AcDbDimStyleTableRecord
  2
AM_ANSI$7
 70
     0
  4
mm
 41
0.12
 42
0.05
 43
0.5
 44
0.1
 47
0.1
 48
0.1
 78
     7
 79
     2
140
0.12
141
0.0
146
0.71
147
0.06
176
   256
177
   256
178
     2
274
     4
284
     7
340
2B2F
371
    -1
372
    -1
1001
ACAD_DSTYLE_DIMARC_LENGTH_SYMBOL
1070
   379
1070
     1
1001
ACAD_DSTYLE_DIM_LINETYPE
1070
   380
1005
2B34
1001
ACAD_DSTYLE_DIM_EXT1_LINETYPE
1070
   381
1005
2B34
1001
ACAD_DSTYLE_DIM_EXT2_LINETYPE
1070
   382
1005
2B34
  0
DIMSTYLE
105
2B82
330
2ADC
100
AcDbSymbolTableRecord
100
AcDbDimStyleTableRecord
  2
AM_ANSI$SF
 70
     0
  4
mm
 41
0.12
 42
0.05
 43
0.5
 44
0.1
 47
0.1
 48
0.1
 75
     1
 76
     1
 78
     7
 79
     2
140
0.12
141
0.0
146
0.71
147
0.06
176
   256
177
   256
178
     2
274
     4
284
     7
340
2B2F
371
    -1
372
    -1
1001
ACAD_DSTYLE_DIMARC_LENGTH_SYMBOL
1070
   379
1070
     1
1001
ACAD_DSTYLE_DIM_LINETYPE
1070
   380
1005
2B34
1001
ACAD_DSTYLE_DIM_EXT1_LINETYPE
1070
   381
1005
2B34
1001
ACAD_DSTYLE_DIM_EXT2_LINETYPE
1070
   382
1005
2B34
  0
DIMSTYLE
105
2B83
330
2ADC
100
AcDbSymbolTableRecord
100
AcDbDimStyleTableRecord
  2
AM_ANSI$SH
 70
     0
  4
mm
 41
0.12
 42
0.05
 43
0.5
 44
0.1
 47
0.1
 48
0.1
 75
     1
 76
     1
 78
     7
 79
     2
140
0.12
141
0.0
146
0.71
147
0.06
173
     1
176
   256
177
   256
178
     2
274
     4
284
     7
340
2B2F
343
2BA3
371
    -1
372
    -1
1001
ACAD_DSTYLE_DIMARC_LENGTH_SYMBOL
1070
   379
1070
     1
1001
ACAD_DSTYLE_DIM_LINETYPE
1070
   380
1005
2B34
1001
ACAD_DSTYLE_DIM_EXT1_LINETYPE
1070
   381
1005
2B34
1001
ACAD_DSTYLE_DIM_EXT2_LINETYPE
1070
   382
1005
2B34
  0
DIMSTYLE
105
2B84
330
2ADC
100
AcDbSymbolTableRecord
100
AcDbDimStyleTableRecord
  2
STANDARD1
 70
     0
 40
6.0
 41
2.5
 42
0.625
 43
6.0
 44
1.25
 47
1.0
 48
0.5
 77
     1
 78
     8
140
2.5
141
0.0
146
0.6
147
1.0
173
     1
275
     1
279
     2
284
     7
285
     7
286
     7
340
2B2F
  0
DIMSTYLE
105
2B85
330
2ADC
100
AcDbSymbolTableRecord
100
AcDbDimStyleTableRecord
  2
STANDARD$0
 70
     0
 41
12.0
 42
20.0
 44
20.0
 73
     0
 74
     0
 77
     1
 78
     8
140
64.0
141
0.0
147
10.0
275
     1
279
     2
284
     7
285
     7
286
     7
340
2B2F
  0
ENDTAB
  0
TABLE
  2
BLOCK_RECORD
  5
2AD3
330
0
100
AcDbSymbolTable
 70
    79
  0
BLOCK_RECORD
  5
2B46
102
{ACAD_XDICTIONARY
360
2D1A
102
}
330
2AD3
100
AcDbSymbolTableRecord
100
AcDbBlockTableRecord
  2
*Model_Space
340
2B49
  0
BLOCK_RECORD
  5
2B42
330
2AD3
100
AcDbSymbolTableRecord
100
AcDbBlockTableRecord
  2
*Paper_Space
340
2B45
  0
BLOCK_RECORD
  5
2B8D
330
2AD3
100
AcDbSymbolTableRecord
100
AcDbBlockTableRecord
  2
$MODEL_SPACE
340
0
  0
BLOCK_RECORD
  5
2B8F
330
2AD3
100
AcDbSymbolTableRecord
100
AcDbBlockTableRecord
  2
$PAPER_SPACE
340
0
  0
BLOCK_RECORD
  5
2B91
330
2AD3
100
AcDbSymbolTableRecord
100
AcDbBlockTableRecord
  2
_ORIGIN
340
0
  0
BLOCK_RECORD
  5
2B93
330
2AD3
100
AcDbSymbolTableRecord
100
AcDbBlockTableRecord
  2
_DOTBLANK
340
0
102
{BLKREFS
331
1299
331
129A
331
11AA
331
11AB
331
E80
331
E81
331
1123
331
1124
331
11C2
331
11C3
331
11EC
331
11ED
331
11F9
331
11FA
331
1287
331
1288
331
1417
331
1418
331
1423
331
1424
331
142F
331
1430
331
143B
331
143C
331
166E
331
166F
331
1677
331
1678
331
1680
331
1681
331
1689
331
168A
331
1696
331
1697
331
16A3
331
16A4
331
16AF
331
16B0
331
16BB
331
16BC
331
16C7
331
16C8
331
16D3
331
16D4
331
1D86
331
1D87
331
1D8F
331
1D90
331
1D98
331
1D99
331
1DA1
331
1DA2
331
1DAB
331
1DAC
331
1DB5
331
1DB6
331
2A88
331
2A89
331
2A8D
331
2A8E
331
2A93
331
2A94
331
2A98
331
2A99
331
2A9E
331
2A9F
331
2AA3
331
2AA4
102
}
  0
BLOCK_RECORD
  5
2B95
330
2AD3
100
AcDbSymbolTableRecord
100
AcDbBlockTableRecord
  2
_OPEN30
340
0
102
{BLKREFS
331
2087
331
2165
331
223C
331
232F
331
25A6
331
26E0
102
}
  0
BLOCK_RECORD
  5
2B97
330
2AD3
100
AcDbSymbolTableRecord
100
AcDbBlockTableRecord
  2
*D5
340
0
  0
BLOCK_RECORD
  5
2B99
330
2AD3
100
AcDbSymbolTableRecord
100
AcDbBlockTableRecord
  2
*U6
340
0
102
{BLKREFS
331
129B
102
}
  0
BLOCK_RECORD
  5
2B9B
330
2AD3
100
AcDbSymbolTableRecord
100
AcDbBlockTableRecord
  2
*D7
340
0
  0
BLOCK_RECORD
  5
2B9D
330
2AD3
100
AcDbSymbolTableRecord
100
AcDbBlockTableRecord
  2
*U8
340
0
102
{BLKREFS
331
11AC
102
}
  0
BLOCK_RECORD
  5
2B9F
330
2AD3
100
AcDbSymbolTableRecord
100
AcDbBlockTableRecord
  2
*D9
340
0
  0
BLOCK_RECORD
  5
2BA1
330
2AD3
100
AcDbSymbolTableRecord
100
AcDbBlockTableRecord
  2
*U10
340
0
102
{BLKREFS
331
E82
102
}
  0
BLOCK_RECORD
  5
2BA3
330
2AD3
100
AcDbSymbolTableRecord
100
AcDbBlockTableRecord
  2
GENAXEH
340
0
  0
BLOCK_RECORD
  5
2BA5
330
2AD3
100
AcDbSymbolTableRecord
100
AcDbBlockTableRecord
  2
*D12
340
0
  0
BLOCK_RECORD
  5
2BA7
330
2AD3
100
AcDbSymbolTableRecord
100
AcDbBlockTableRecord
  2
*U13
340
0
102
{BLKREFS
331
1125
102
}
  0
BLOCK_RECORD
  5
2BA9
330
2AD3
100
AcDbSymbolTableRecord
100
AcDbBlockTableRecord
  2
*D14
340
0
  0
BLOCK_RECORD
  5
2BAB
330
2AD3
100
AcDbSymbolTableRecord
100
AcDbBlockTableRecord
  2
*U15
340
0
102
{BLKREFS
331
11C4
102
}
  0
BLOCK_RECORD
  5
2BAD
330
2AD3
100
AcDbSymbolTableRecord
100
AcDbBlockTableRecord
  2
*D16
340
0
  0
BLOCK_RECORD
  5
2BAF
330
2AD3
100
AcDbSymbolTableRecord
100
AcDbBlockTableRecord
  2
*U17
340
0
102
{BLKREFS
331
11EE
102
}
  0
BLOCK_RECORD
  5
2BB1
330
2AD3
100
AcDbSymbolTableRecord
100
AcDbBlockTableRecord
  2
*D18
340
0
  0
BLOCK_RECORD
  5
2BB3
330
2AD3
100
AcDbSymbolTableRecord
100
AcDbBlockTableRecord
  2
*U19
340
0
102
{BLKREFS
331
11FB
102
}
  0
BLOCK_RECORD
  5
2BB5
330
2AD3
100
AcDbSymbolTableRecord
100
AcDbBlockTableRecord
  2
*D20
340
0
  0
BLOCK_RECORD
  5
2BB7
330
2AD3
100
AcDbSymbolTableRecord
100
AcDbBlockTableRecord
  2
*U21
340
0
102
{BLKREFS
331
1289
102
}
  0
BLOCK_RECORD
  5
2BB9
330
2AD3
100
AcDbSymbolTableRecord
100
AcDbBlockTableRecord
  2
*D22
340
0
  0
BLOCK_RECORD
  5
2BBB
330
2AD3
100
AcDbSymbolTableRecord
100
AcDbBlockTableRecord
  2
*U23
340
0
102
{BLKREFS
331
1419
102
}
  0
BLOCK_RECORD
  5
2BBD
330
2AD3
100
AcDbSymbolTableRecord
100
AcDbBlockTableRecord
  2
*D24
340
0
  0
BLOCK_RECORD
  5
2BBF
330
2AD3
100
AcDbSymbolTableRecord
100
AcDbBlockTableRecord
  2
*U25
340
0
102
{BLKREFS
331
1425
102
}
  0
BLOCK_RECORD
  5
2BC1
330
2AD3
100
AcDbSymbolTableRecord
100
AcDbBlockTableRecord
  2
*D26
340
0
  0
BLOCK_RECORD
  5
2BC3
330
2AD3
100
AcDbSymbolTableRecord
100
AcDbBlockTableRecord
  2
*U27
340
0
102
{BLKREFS
331
1431
102
}
  0
BLOCK_RECORD
  5
2BC5
330
2AD3
100
AcDbSymbolTableRecord
100
AcDbBlockTableRecord
  2
*D28
340
0
  0
BLOCK_RECORD
  5
2BC7
330
2AD3
100
AcDbSymbolTableRecord
100
AcDbBlockTableRecord
  2
*U29
340
0
102
{BLKREFS
331
143D
102
}
  0
BLOCK_RECORD
  5
2BC9
330
2AD3
100
AcDbSymbolTableRecord
100
AcDbBlockTableRecord
  2
*D30
340
0
  0
BLOCK_RECORD
  5
2BCB
330
2AD3
100
AcDbSymbolTableRecord
100
AcDbBlockTableRecord
  2
*U31
340
0
102
{BLKREFS
331
1670
102
}
  0
BLOCK_RECORD
  5
2BCD
330
2AD3
100
AcDbSymbolTableRecord
100
AcDbBlockTableRecord
  2
*D32
340
0
  0
BLOCK_RECORD
  5
2BCF
330
2AD3
100
AcDbSymbolTableRecord
100
AcDbBlockTableRecord
  2
*U33
340
0
102
{BLKREFS
331
1679
102
}
  0
BLOCK_RECORD
  5
2BD1
330
2AD3
100
AcDbSymbolTableRecord
100
AcDbBlockTableRecord
  2
*D34
340
0
  0
BLOCK_RECORD
  5
2BD3
330
2AD3
100
AcDbSymbolTableRecord
100
AcDbBlockTableRecord
  2
*U35
340
0
102
{BLKREFS
331
1682
102
}
  0
BLOCK_RECORD
  5
2BD5
330
2AD3
100
AcDbSymbolTableRecord
100
AcDbBlockTableRecord
  2
*D36
340
0
  0
BLOCK_RECORD
  5
2BD7
330
2AD3
100
AcDbSymbolTableRecord
100
AcDbBlockTableRecord
  2
*U37
340
0
102
{BLKREFS
331
168B
102
}
  0
BLOCK_RECORD
  5
2BD9
330
2AD3
100
AcDbSymbolTableRecord
100
AcDbBlockTableRecord
  2
*U38
340
0
  0
BLOCK_RECORD
  5
2BDB
330
2AD3
100
AcDbSymbolTableRecord
100
AcDbBlockTableRecord
  2
*D39
340
0
  0
BLOCK_RECORD
  5
2BDD
330
2AD3
100
AcDbSymbolTableRecord
100
AcDbBlockTableRecord
  2
*U40
340
0
102
{BLKREFS
331
1698
102
}
  0
BLOCK_RECORD
  5
2BDF
330
2AD3
100
AcDbSymbolTableRecord
100
AcDbBlockTableRecord
  2
*D41
340
0
  0
BLOCK_RECORD
  5
2BE1
330
2AD3
100
AcDbSymbolTableRecord
100
AcDbBlockTableRecord
  2
*U42
340
0
102
{BLKREFS
331
16A5
102
}
  0
BLOCK_RECORD
  5
2BE3
330
2AD3
100
AcDbSymbolTableRecord
100
AcDbBlockTableRecord
  2
*D43
340
0
  0
BLOCK_RECORD
  5
2BE5
330
2AD3
100
AcDbSymbolTableRecord
100
AcDbBlockTableRecord
  2
*U44
340
0
102
{BLKREFS
331
16B1
102
}
  0
BLOCK_RECORD
  5
2BE7
330
2AD3
100
AcDbSymbolTableRecord
100
AcDbBlockTableRecord
  2
*D45
340
0
  0
BLOCK_RECORD
  5
2BE9
330
2AD3
100
AcDbSymbolTableRecord
100
AcDbBlockTableRecord
  2
*U46
340
0
102
{BLKREFS
331
16BD
102
}
  0
BLOCK_RECORD
  5
2BEB
330
2AD3
100
AcDbSymbolTableRecord
100
AcDbBlockTableRecord
  2
*D47
340
0
  0
BLOCK_RECORD
  5
2BED
330
2AD3
100
AcDbSymbolTableRecord
100
AcDbBlockTableRecord
  2
*U48
340
0
102
{BLKREFS
331
16C9
102
}
  0
BLOCK_RECORD
  5
2BEF
330
2AD3
100
AcDbSymbolTableRecord
100
AcDbBlockTableRecord
  2
*D49
340
0
  0
BLOCK_RECORD
  5
2BF1
330
2AD3
100
AcDbSymbolTableRecord
100
AcDbBlockTableRecord
  2
*U50
340
0
102
{BLKREFS
331
16D5
102
}
  0
BLOCK_RECORD
  5
2BF3
330
2AD3
100
AcDbSymbolTableRecord
100
AcDbBlockTableRecord
  2
*D51
340
0
  0
BLOCK_RECORD
  5
2BF5
330
2AD3
100
AcDbSymbolTableRecord
100
AcDbBlockTableRecord
  2
*U52
340
0
102
{BLKREFS
331
1D88
102
}
  0
BLOCK_RECORD
  5
2BF7
330
2AD3
100
AcDbSymbolTableRecord
100
AcDbBlockTableRecord
  2
*D53
340
0
  0
BLOCK_RECORD
  5
2BF9
330
2AD3
100
AcDbSymbolTableRecord
100
AcDbBlockTableRecord
  2
*U54
340
0
102
{BLKREFS
331
1D91
102
}
  0
BLOCK_RECORD
  5
2BFB
330
2AD3
100
AcDbSymbolTableRecord
100
AcDbBlockTableRecord
  2
*D55
340
0
  0
BLOCK_RECORD
  5
2BFD
330
2AD3
100
AcDbSymbolTableRecord
100
AcDbBlockTableRecord
  2
*U56
340
0
102
{BLKREFS
331
1D9A
102
}
  0
BLOCK_RECORD
  5
2BFF
330
2AD3
100
AcDbSymbolTableRecord
100
AcDbBlockTableRecord
  2
*D57
340
0
  0
BLOCK_RECORD
  5
2C01
330
2AD3
100
AcDbSymbolTableRecord
100
AcDbBlockTableRecord
  2
*U58
340
0
102
{BLKREFS
331
1DA3
102
}
  0
BLOCK_RECORD
  5
2C03
330
2AD3
100
AcDbSymbolTableRecord
100
AcDbBlockTableRecord
  2
*D59
340
0
  0
BLOCK_RECORD
  5
2C05
330
2AD3
100
AcDbSymbolTableRecord
100
AcDbBlockTableRecord
  2
*U60
340
0
102
{BLKREFS
331
1DAD
102
}
  0
BLOCK_RECORD
  5
2C07
330
2AD3
100
AcDbSymbolTableRecord
100
AcDbBlockTableRecord
  2
*D61
340
0
  0
BLOCK_RECORD
  5
2C09
330
2AD3
100
AcDbSymbolTableRecord
100
AcDbBlockTableRecord
  2
*U62
340
0
102
{BLKREFS
331
1DB7
102
}
  0
BLOCK_RECORD
  5
2C0B
330
2AD3
100
AcDbSymbolTableRecord
100
AcDbBlockTableRecord
  2
*U63
340
0
  0
BLOCK_RECORD
  5
2C0D
330
2AD3
100
AcDbSymbolTableRecord
100
AcDbBlockTableRecord
  2
*U64
340
0
  0
BLOCK_RECORD
  5
2C0F
330
2AD3
100
AcDbSymbolTableRecord
100
AcDbBlockTableRecord
  2
*U65
340
0
  0
BLOCK_RECORD
  5
2C11
330
2AD3
100
AcDbSymbolTableRecord
100
AcDbBlockTableRecord
  2
*U66
340
0
  0
BLOCK_RECORD
  5
2C13
330
2AD3
100
AcDbSymbolTableRecord
100
AcDbBlockTableRecord
  2
*U67
340
0
  0
BLOCK_RECORD
  5
2C15
330
2AD3
100
AcDbSymbolTableRecord
100
AcDbBlockTableRecord
  2
*U68
340
0
  0
BLOCK_RECORD
  5
2C17
330
2AD3
100
AcDbSymbolTableRecord
100
AcDbBlockTableRecord
  2
*U69
340
0
  0
BLOCK_RECORD
  5
2C19
330
2AD3
100
AcDbSymbolTableRecord
100
AcDbBlockTableRecord
  2
*U70
340
0
  0
BLOCK_RECORD
  5
2C1B
330
2AD3
100
AcDbSymbolTableRecord
100
AcDbBlockTableRecord
  2
*U71
340
0
  0
BLOCK_RECORD
  5
2C1D
330
2AD3
100
AcDbSymbolTableRecord
100
AcDbBlockTableRecord
  2
*U72
340
0
  0
BLOCK_RECORD
  5
2C1F
330
2AD3
100
AcDbSymbolTableRecord
100
AcDbBlockTableRecord
  2
*U73
340
0
  0
BLOCK_RECORD
  5
2C21
330
2AD3
100
AcDbSymbolTableRecord
100
AcDbBlockTableRecord
  2
*U74
340
0
102
{BLKREFS
331
2A53
102
}
  0
BLOCK_RECORD
  5
2C23
330
2AD3
100
AcDbSymbolTableRecord
100
AcDbBlockTableRecord
  2
*U75
340
0
102
{BLKREFS
331
2A54
102
}
  0
BLOCK_RECORD
  5
2C25
330
2AD3
100
AcDbSymbolTableRecord
100
AcDbBlockTableRecord
  2
*X76
340
0
102
{BLKREFS
331
2A7B
102
}
  0
BLOCK_RECORD
  5
2C27
330
2AD3
100
AcDbSymbolTableRecord
100
AcDbBlockTableRecord
  2
*X77
340
0
102
{BLKREFS
331
2A7C
102
}
  0
ENDTAB
  0
ENDSEC
  0
SECTION
  2
BLOCKS
  0
BLOCK
  5
2B47
330
2B46
100
AcDbEntity
  8
0
100
AcDbBlockBegin
  2
*Model_Space
 70
     0
 10
0.0
 20
0.0
 30
0.0
  3
*Model_Space
  1

  0
ENDBLK
  5
2B48
330
2B46
100
AcDbEntity
  8
0
100
AcDbBlockEnd
  0
BLOCK
  5
2B43
330
2B42
100
AcDbEntity
 67
     1
  8
0
100
AcDbBlockBegin
  2
*Paper_Space
 70
     0
 10
0.0
 20
0.0
 30
0.0
  3
*Paper_Space
  1

  0
ENDBLK
  5
2B44
330
2B42
100
AcDbEntity
 67
     1
  8
0
100
AcDbBlockEnd
  0
BLOCK
  5
2B8E
330
2B8D
100
AcDbEntity
  8
0
100
AcDbBlockBegin
  2
$MODEL_SPACE
 70
     0
 10
0.0
 20
0.0
 30
0.0
  3
$MODEL_SPACE
  1

  0
ENDBLK
  5
24CF
330
2B8D
100
AcDbEntity
  8
0
100
AcDbBlockEnd
  0
BLOCK
  5
2B90
330
2B8F
100
AcDbEntity
  8
0
100
AcDbBlockBegin
  2
$PAPER_SPACE
 70
     0
 10
0.0
 20
0.0
 30
0.0
  3
$PAPER_SPACE
  1

  0
ENDBLK
  5
24CB
330
2B8F
100
AcDbEntity
  8
0
100
AcDbBlockEnd
  0
BLOCK
  5
2B92
330
2B91
100
AcDbEntity
  8
0
100
AcDbBlockBegin
  2
_ORIGIN
 70
     0
 10
0.0
 20
0.0
 30
0.0
  3
_ORIGIN
  1

  0
CIRCLE
  5
880
330
2B91
100
AcDbEntity
  8
0
  6
Continuous
 62
     7
100
AcDbCircle
 10
0.0
 20
0.0
 30
0.0
 40
0.5
  0
LINE
  5
881
330
2B91
100
AcDbEntity
  8
0
  6
Continuous
 62
     7
100
AcDbLine
 10
0.0
 20
0.0
 30
0.0
 11
-1.0
 21
0.0
 31
0.0
  0
ENDBLK
  5
882
330
2B91
100
AcDbEntity
  8
0
100
AcDbBlockEnd
  0
BLOCK
  5
2B94
330
2B93
100
AcDbEntity
  8
0
 62
     1
100
AcDbBlockBegin
  2
_DOTBLANK
 70
     0
 10
0.0
 20
0.0
 30
0.0
  3
_DOTBLANK
  1

  0
CIRCLE
  5
AB3
330
2B93
100
AcDbEntity
  8
0
  6
ByBlock
 62
     0
100
AcDbCircle
 10
0.0
 20
0.0
 30
0.0
 40
0.5
  0
LINE
  5
AB4
330
2B93
100
AcDbEntity
  8
0
  6
ByBlock
 62
     0
100
AcDbLine
 10
-0.5
 20
0.0
 30
0.0
 11
-1.0
 21
0.0
 31
0.0
  0
ENDBLK
  5
AB6
330
2B93
100
AcDbEntity
  8
0
 62
     1
100
AcDbBlockEnd
  0
BLOCK
  5
2B96
330
2B95
100
AcDbEntity
  8
0
 62
     1
100
AcDbBlockBegin
  2
_OPEN30
 70
     0
 10
0.0
 20
0.0
 30
0.0
  3
_OPEN30
  1

  0
LINE
  5
AB8
330
2B95
100
AcDbEntity
  8
0
  6
ByBlock
 62
     0
100
AcDbLine
 10
-1.0
 20
0.26794919
 30
0.0
 11
0.0
 21
0.0
 31
0.0
  0
LINE
  5
AB9
330
2B95
100
AcDbEntity
  8
0
  6
ByBlock
 62
     0
100
AcDbLine
 10
0.0
 20
0.0
 30
0.0
 11
-1.0
 21
-0.26794919
 31
0.0
  0
LINE
  5
ABA
330
2B95
100
AcDbEntity
  8
0
  6
ByBlock
 62
     0
100
AcDbLine
 10
0.0
 20
0.0
 30
0.0
 11
-1.0
 21
0.0
 31
0.0
  0
ENDBLK
  5
ABC
330
2B95
100
AcDbEntity
  8
0
 62
     1
100
AcDbBlockEnd
  0
BLOCK
  5
2B98
330
2B97
100
AcDbEntity
  8
0
100
AcDbBlockBegin
  2
*D5
 70
     1
 10
0.0
 20
0.0
 30
0.0
  3
*D5
  1

  0
LINE
  5
1296
330
2B97
100
AcDbEntity
  8
SIZE
 62
     0
100
AcDbLine
 10
-134.5
 20
-320.0
 30
0.0
 11
-134.5
 21
-468.0173952306001
 31
0.0
  0
LINE
  5
1297
330
2B97
100
AcDbEntity
  8
SIZE
 62
     0
100
AcDbLine
 10
134.5
 20
-320.0
 30
0.0
 11
134.5
 21
-468.0173952306001
 31
0.0
  0
LINE
  5
1298
330
2B97
100
AcDbEntity
  8
SIZE
 62
     0
100
AcDbLine
 10
-122.5
 20
-448.0173952306
 30
0.0
 11
122.5
 21
-448.0173952306
 31
0.0
  0
INSERT
  5
1299
330
2B97
100
AcDbEntity
  8
SIZE
 62
     0
100
AcDbBlockReference
  2
_DOTBLANK
 10
-134.5
 20
-448.0173952306
 30
0.0
 41
12.0
 42
12.0
 43
12.0
 50
180.0
  0
INSERT
  5
129A
330
2B97
100
AcDbEntity
  8
SIZE
 62
     0
100
AcDbBlockReference
  2
_DOTBLANK
 10
134.5
 20
-448.0173952306
 30
0.0
 41
12.0
 42
12.0
 43
12.0
  0
INSERT
  5
129B
330
2B97
100
AcDbEntity
  8
0
100
AcDbBlockReference
  2
*U6
 10
0.0
 20
0.0
 30
0.0
  0
POINT
  5
129C
330
2B97
100
AcDbEntity
  8
DEFPOINTS
 62
     0
100
AcDbPoint
 10
-134.5
 20
-300.0
 30
0.0
  0
POINT
  5
129D
330
2B97
100
AcDbEntity
  8
DEFPOINTS
 62
     0
100
AcDbPoint
 10
134.5
 20
-300.0
 30
0.0
  0
POINT
  5
129E
330
2B97
100
AcDbEntity
  8
DEFPOINTS
 62
     0
100
AcDbPoint
 10
134.5
 20
-448.0173952306
 30
0.0
  0
ENDBLK
  5
D72
330
2B97
100
AcDbEntity
  8
0
100
AcDbBlockEnd
  0
BLOCK
  5
2B9A
330
2B99
100
AcDbEntity
  8
0
100
AcDbBlockBegin
  2
*U6
 70
     1
 10
0.0
 20
0.0
 30
0.0
  3
*U6
  1

  0
TEXT
  5
1EF5
330
2B99
100
AcDbEntity
  8
SIZE
 62
     0
100
AcDbText
 10
-72.68571428571426
 20
-438.0173952305999
 30
0.0
 40
64.0
  1
269
 41
0.9
100
AcDbText
  0
ENDBLK
  5
1EF7
330
2B99
100
AcDbEntity
  8
0
100
AcDbBlockEnd
  0
BLOCK
  5
2B9C
330
2B9B
100
AcDbEntity
  8
0
100
AcDbBlockBegin
  2
*D7
 70
     1
 10
0.0
 20
0.0
 30
0.0
  3
*D7
  1

  0
LINE
  5
11A7
330
2B9B
100
AcDbEntity
  8
SIZE
  6
Continuous
 62
     0
100
AcDbLine
 10
143.5
 20
-300.0
 30
0.0
 11
304.6432844803791
 21
-300.0
 31
0.0
  0
LINE
  5
11A8
330
2B9B
100
AcDbEntity
  8
SIZE
  6
Continuous
 62
     0
100
AcDbLine
 10
177.5
 20
-0.0000000000000057
 30
0.0
 11
304.6432844803792
 21
-0.0000000000000417
 31
0.0
  0
LINE
  5
11A9
330
2B9B
100
AcDbEntity
  8
SIZE
  6
Continuous
 62
     0
100
AcDbLine
 10
284.6432844803791
 20
-288.0000000000001
 30
0.0
 11
284.6432844803792
 21
-12.00000000000003
 31
0.0
  0
INSERT
  5
11AA
330
2B9B
100
AcDbEntity
  8
SIZE
  6
Continuous
 62
     0
100
AcDbBlockReference
  2
_DOTBLANK
 10
284.6432844803791
 20
-300.0
 30
0.0
 41
12.0
 42
12.0
 43
12.0
 50
270.0
  0
INSERT
  5
11AB
330
2B9B
100
AcDbEntity
  8
SIZE
  6
Continuous
 62
     0
100
AcDbBlockReference
  2
_DOTBLANK
 10
284.6432844803792
 20
-0.000000000000036
 30
0.0
 41
12.0
 42
12.0
 43
12.0
 50
90.0
  0
INSERT
  5
11AC
330
2B9B
100
AcDbEntity
  8
0
100
AcDbBlockReference
  2
*U8
 10
0.0
 20
0.0
 30
0.0
  0
POINT
  5
11AD
330
2B9B
100
AcDbEntity
  8
DEFPOINTS
  6
Continuous
 62
     0
100
AcDbPoint
 10
123.5
 20
-300.0
 30
0.0
  0
POINT
  5
11AE
330
2B9B
100
AcDbEntity
  8
DEFPOINTS
  6
Continuous
 62
     0
100
AcDbPoint
 10
157.5
 20
0.0
 30
0.0
  0
POINT
  5
11AF
330
2B9B
100
AcDbEntity
  8
DEFPOINTS
  6
Continuous
 62
     0
100
AcDbPoint
 10
284.6432844803792
 20
-0.000000000000036
 30
0.0
  0
ENDBLK
  5
E11
330
2B9B
100
AcDbEntity
  8
0
100
AcDbBlockEnd
  0
BLOCK
  5
2B9E
330
2B9D
100
AcDbEntity
  8
0
100
AcDbBlockBegin
  2
*U8
 70
     1
 10
0.0
 20
0.0
 30
0.0
  3
*U8
  1

  0
TEXT
  5
1EE1
330
2B9D
100
AcDbEntity
  8
SIZE
 62
     0
100
AcDbText
 10
274.6432844803792
 20
-224.0571428571429
 30
0.0
 40
64.0
  1
300
 50
90.0
 41
0.9
100
AcDbText
  0
ENDBLK
  5
1EE3
330
2B9D
100
AcDbEntity
  8
0
100
AcDbBlockEnd
  0
BLOCK
  5
2BA0
330
2B9F
100
AcDbEntity
  8
0
100
AcDbBlockBegin
  2
*D9
 70
     1
 10
0.0
 20
0.0
 30
0.0
  3
*D9
  1

  0
LINE
  5
E7D
330
2B9F
100
AcDbEntity
  8
SIZE
 62
     0
100
AcDbLine
 10
-139.9999999999998
 20
32.46448280219375
 30
0.0
 11
-139.9999999999998
 21
136.4516878685508
 31
0.0
  0
LINE
  5
E7E
330
2B9F
100
AcDbEntity
  8
SIZE
 62
     0
100
AcDbLine
 10
140.0
 20
32.46448280219375
 30
0.0
 11
140.0
 21
136.4516878685508
 31
0.0
  0
LINE
  5
E7F
330
2B9F
100
AcDbEntity
  8
SIZE
 62
     0
100
AcDbLine
 10
-128.0
 20
116.4516878685508
 30
0.0
 11
128.0
 21
116.4516878685508
 31
0.0
  0
INSERT
  5
E80
330
2B9F
100
AcDbEntity
  8
SIZE
 62
     0
100
AcDbBlockReference
  2
_DOTBLANK
 10
-139.9999999999998
 20
116.4516878685508
 30
0.0
 41
12.0
 42
12.0
 43
12.0
 50
180.0
  0
INSERT
  5
E81
330
2B9F
100
AcDbEntity
  8
SIZE
 62
     0
100
AcDbBlockReference
  2
_DOTBLANK
 10
140.0
 20
116.4516878685508
 30
0.0
 41
12.0
 42
12.0
 43
12.0
  0
INSERT
  5
E82
330
2B9F
100
AcDbEntity
  8
0
100
AcDbBlockReference
  2
*U10
 10
0.0
 20
0.0
 30
0.0
  0
POINT
  5
E83
330
2B9F
100
AcDbEntity
  8
DEFPOINTS
 62
     0
100
AcDbPoint
 10
-139.9999999999998
 20
12.46448280219374
 30
0.0
  0
POINT
  5
E84
330
2B9F
100
AcDbEntity
  8
DEFPOINTS
 62
     0
100
AcDbPoint
 10
140.0
 20
12.46448280219374
 30
0.0
  0
POINT
  5
E85
330
2B9F
100
AcDbEntity
  8
DEFPOINTS
 62
     0
100
AcDbPoint
 10
140.0
 20
116.4516878685508
 30
0.0
  0
ENDBLK
  5
E7C
330
2B9F
100
AcDbEntity
  8
0
100
AcDbBlockEnd
  0
BLOCK
  5
2BA2
330
2BA1
100
AcDbEntity
  8
0
100
AcDbBlockBegin
  2
*U10
 70
     1
 10
0.0
 20
0.0
 30
0.0
  3
*U10
  1

  0
TEXT
  5
1ED8
330
2BA1
100
AcDbEntity
  8
SIZE
 62
     0
100
AcDbText
 10
-74.05714285714281
 20
126.4516878685508
 30
0.0
 40
64.0
  1
280
 41
0.9
100
AcDbText
  0
ENDBLK
  5
1EDA
330
2BA1
100
AcDbEntity
  8
0
100
AcDbBlockEnd
  0
BLOCK
  5
2BA4
330
2BA3
100
AcDbEntity
  8
0
100
AcDbBlockBegin
  2
GENAXEH
 70
     0
 10
0.0
 20
0.0
 30
0.0
  3
GENAXEH
  1

  0
LINE
  5
FDB
330
2BA3
100
AcDbEntity
  8
0
100
AcDbLine
 10
-1.0
 20
0.0
 30
0.0
 11
1.0
 21
0.0
 31
0.0
  0
ENDBLK
  5
FDD
330
2BA3
100
AcDbEntity
  8
0
100
AcDbBlockEnd
  0
BLOCK
  5
2BA6
330
2BA5
100
AcDbEntity
  8
0
100
AcDbBlockBegin
  2
*D12
 70
     1
 10
0.0
 20
0.0
 30
0.0
  3
*D12
  1

  0
LINE
  5
1120
330
2BA5
100
AcDbEntity
  8
SIZE
 62
     0
100
AcDbLine
 10
-157.5
 20
20.0
 30
0.0
 11
-157.5
 21
245.5794621189598
 31
0.0
  0
LINE
  5
1121
330
2BA5
100
AcDbEntity
  8
SIZE
 62
     0
100
AcDbLine
 10
157.5
 20
20.0
 30
0.0
 11
157.5
 21
245.5794621189598
 31
0.0
  0
LINE
  5
1122
330
2BA5
100
AcDbEntity
  8
SIZE
 62
     0
100
AcDbLine
 10
-145.5
 20
225.5794621189598
 30
0.0
 11
145.5
 21
225.5794621189598
 31
0.0
  0
INSERT
  5
1123
330
2BA5
100
AcDbEntity
  8
SIZE
 62
     0
100
AcDbBlockReference
  2
_DOTBLANK
 10
-157.5
 20
225.5794621189598
 30
0.0
 41
12.0
 42
12.0
 43
12.0
 50
180.0
  0
INSERT
  5
1124
330
2BA5
100
AcDbEntity
  8
SIZE
 62
     0
100
AcDbBlockReference
  2
_DOTBLANK
 10
157.5
 20
225.5794621189598
 30
0.0
 41
12.0
 42
12.0
 43
12.0
  0
INSERT
  5
1125
330
2BA5
100
AcDbEntity
  8
0
100
AcDbBlockReference
  2
*U13
 10
0.0
 20
0.0
 30
0.0
  0
POINT
  5
1126
330
2BA5
100
AcDbEntity
  8
DEFPOINTS
 62
     0
100
AcDbPoint
 10
-157.5
 20
0.0
 30
0.0
  0
POINT
  5
1127
330
2BA5
100
AcDbEntity
  8
DEFPOINTS
 62
     0
100
AcDbPoint
 10
157.5
 20
0.0
 30
0.0
  0
POINT
  5
1128
330
2BA5
100
AcDbEntity
  8
DEFPOINTS
 62
     0
100
AcDbPoint
 10
157.5
 20
225.5794621189598
 30
0.0
  0
ENDBLK
  5
111F
330
2BA5
100
AcDbEntity
  8
0
100
AcDbBlockEnd
  0
BLOCK
  5
2BA8
330
2BA7
100
AcDbEntity
  8
0
100
AcDbBlockBegin
  2
*U13
 70
     1
 10
0.0
 20
0.0
 30
0.0
  3
*U13
  1

  0
TEXT
  5
1EDD
330
2BA7
100
AcDbEntity
  8
SIZE
 62
     0
100
AcDbText
 10
-68.57142857142857
 20
235.5794621189599
 30
0.0
 40
64.0
  1
315
 41
0.9
100
AcDbText
  0
ENDBLK
  5
1EDF
330
2BA7
100
AcDbEntity
  8
0
100
AcDbBlockEnd
  0
BLOCK
  5
2BAA
330
2BA9
100
AcDbEntity
  8
0
100
AcDbBlockBegin
  2
*D14
 70
     1
 10
0.0
 20
0.0
 30
0.0
  3
*D14
  1

  0
LINE
  5
11BD
330
2BA9
100
AcDbEntity
  8
NOTE
 62
     0
100
AcDbLine
 10
-123.4999999999999
 20
-320.0
 30
0.0
 11
-123.4999999999999
 21
-354.9529861856111
 31
0.0
  0
LINE
  5
11BE
330
2BA9
100
AcDbEntity
  8
NOTE
 62
     0
100
AcDbLine
 10
-133.4999999999998
 20
-331.2126909923287
 30
0.0
 11
-133.4999999999998
 21
-354.9529861856111
 31
0.0
  0
LINE
  5
11BF
330
2BA9
100
AcDbEntity
  8
NOTE
 62
     0
100
AcDbLine
 10
-111.4999999999999
 20
-334.9529861856112
 30
0.0
 11
-99.4999999999999
 21
-334.9529861856112
 31
0.0
  0
LINE
  5
11C0
330
2BA9
100
AcDbEntity
  8
NOTE
 62
     0
100
AcDbLine
 10
-145.4999999999998
 20
-334.9529861856112
 30
0.0
 11
-157.4999999999998
 21
-334.9529861856112
 31
0.0
  0
LINE
  5
11C1
330
2BA9
100
AcDbEntity
  8
NOTE
 62
     0
100
AcDbLine
 10
-123.4999999999999
 20
-334.9529861856112
 30
0.0
 11
-133.4999999999998
 21
-334.9529861856112
 31
0.0
  0
INSERT
  5
11C2
330
2BA9
100
AcDbEntity
  8
NOTE
 62
     0
100
AcDbBlockReference
  2
_DOTBLANK
 10
-123.4999999999999
 20
-334.9529861856112
 30
0.0
 41
12.0
 42
12.0
 43
12.0
 50
180.0
  0
INSERT
  5
11C3
330
2BA9
100
AcDbEntity
  8
NOTE
 62
     0
100
AcDbBlockReference
  2
_DOTBLANK
 10
-133.4999999999998
 20
-334.9529861856112
 30
0.0
 41
12.0
 42
12.0
 43
12.0
  0
INSERT
  5
11C4
330
2BA9
100
AcDbEntity
  8
0
100
AcDbBlockReference
  2
*U15
 10
0.0
 20
0.0
 30
0.0
  0
POINT
  5
11C5
330
2BA9
100
AcDbEntity
  8
DEFPOINTS
 62
     0
100
AcDbPoint
 10
-123.4999999999999
 20
-300.0
 30
0.0
  0
POINT
  5
11C6
330
2BA9
100
AcDbEntity
  8
DEFPOINTS
 62
     0
100
AcDbPoint
 10
-133.4999999999998
 20
-311.2126909923287
 30
0.0
  0
POINT
  5
11C7
330
2BA9
100
AcDbEntity
  8
DEFPOINTS
 62
     0
100
AcDbPoint
 10
-133.4999999999998
 20
-334.9529861856112
 30
0.0
  0
ENDBLK
  5
11BC
330
2BA9
100
AcDbEntity
  8
0
100
AcDbBlockEnd
  0
BLOCK
  5
2BAC
330
2BAB
100
AcDbEntity
  8
0
100
AcDbBlockBegin
  2
*U15
 70
     1
 10
0.0
 20
0.0
 30
0.0
  3
*U15
  1

  0
TEXT
  5
1EE5
330
2BAB
100
AcDbEntity
  8
NOTE
 62
     0
100
AcDbText
 10
-169.642857142857
 20
-324.9529861856112
 30
0.0
 40
64.0
  1
10
 41
0.9
100
AcDbText
  0
ENDBLK
  5
1EE7
330
2BAB
100
AcDbEntity
  8
0
100
AcDbBlockEnd
  0
BLOCK
  5
2BAE
330
2BAD
100
AcDbEntity
  8
0
100
AcDbBlockBegin
  2
*D16
 70
     1
 10
0.0
 20
0.0
 30
0.0
  3
*D16
  1

  0
LINE
  5
11E7
330
2BAD
100
AcDbEntity
  8
NOTE
 62
     0
100
AcDbLine
 10
-135.5
 20
-333.2126909923287
 30
0.0
 11
-135.5
 21
-386.2569421441843
 31
0.0
  0
LINE
  5
11E8
330
2BAD
100
AcDbEntity
  8
NOTE
 62
     0
100
AcDbLine
 10
-123.4999999999999
 20
-320.0
 30
0.0
 11
-123.4999999999999
 21
-386.2569421441843
 31
0.0
  0
LINE
  5
11E9
330
2BAD
100
AcDbEntity
  8
NOTE
 62
     0
100
AcDbLine
 10
-147.5
 20
-366.2569421441844
 30
0.0
 11
-159.5
 21
-366.2569421441844
 31
0.0
  0
LINE
  5
11EA
330
2BAD
100
AcDbEntity
  8
NOTE
 62
     0
100
AcDbLine
 10
-111.4999999999999
 20
-366.2569421441844
 30
0.0
 11
-99.4999999999999
 21
-366.2569421441844
 31
0.0
  0
LINE
  5
11EB
330
2BAD
100
AcDbEntity
  8
NOTE
 62
     0
100
AcDbLine
 10
-135.5
 20
-366.2569421441844
 30
0.0
 11
-123.4999999999999
 21
-366.2569421441844
 31
0.0
  0
INSERT
  5
11EC
330
2BAD
100
AcDbEntity
  8
NOTE
 62
     0
100
AcDbBlockReference
  2
_DOTBLANK
 10
-135.5
 20
-366.2569421441844
 30
0.0
 41
12.0
 42
12.0
 43
12.0
  0
INSERT
  5
11ED
330
2BAD
100
AcDbEntity
  8
NOTE
 62
     0
100
AcDbBlockReference
  2
_DOTBLANK
 10
-123.4999999999999
 20
-366.2569421441844
 30
0.0
 41
12.0
 42
12.0
 43
12.0
 50
180.0
  0
INSERT
  5
11EE
330
2BAD
100
AcDbEntity
  8
0
100
AcDbBlockReference
  2
*U17
 10
0.0
 20
0.0
 30
0.0
  0
POINT
  5
11EF
330
2BAD
100
AcDbEntity
  8
DEFPOINTS
 62
     0
100
AcDbPoint
 10
-135.5
 20
-313.2126909923287
 30
0.0
  0
POINT
  5
11F0
330
2BAD
100
AcDbEntity
  8
DEFPOINTS
 62
     0
100
AcDbPoint
 10
-123.4999999999999
 20
-300.0
 30
0.0
  0
POINT
  5
11F1
330
2BAD
100
AcDbEntity
  8
DEFPOINTS
 62
     0
100
AcDbPoint
 10
-123.4999999999999
 20
-366.2569421441844
 30
0.0
  0
ENDBLK
  5
11E6
330
2BAD
100
AcDbEntity
  8
0
100
AcDbBlockEnd
  0
BLOCK
  5
2BB0
330
2BAF
100
AcDbEntity
  8
0
100
AcDbBlockBegin
  2
*U17
 70
     1
 10
0.0
 20
0.0
 30
0.0
  3
*U17
  1

  0
TEXT
  5
1EE9
330
2BAF
100
AcDbEntity
  8
NOTE
 62
     0
100
AcDbText
 10
-170.642857142857
 20
-356.2569421441843
 30
0.0
 40
64.0
  1
12
 41
0.9
100
AcDbText
  0
ENDBLK
  5
1EEB
330
2BAF
100
AcDbEntity
  8
0
100
AcDbBlockEnd
  0
BLOCK
  5
2BB2
330
2BB1
100
AcDbEntity
  8
0
100
AcDbBlockBegin
  2
*D18
 70
     1
 10
0.0
 20
0.0
 30
0.0
  3
*D18
  1

  0
LINE
  5
11F6
330
2BB1
100
AcDbEntity
  8
NOTE
 62
     0
100
AcDbLine
 10
-123.4999999999999
 20
-320.0
 30
0.0
 11
-123.4999999999999
 21
-583.8286022818904
 31
0.0
  0
LINE
  5
11F7
330
2BB1
100
AcDbEntity
  8
NOTE
 62
     0
100
AcDbLine
 10
123.5
 20
-320.0
 30
0.0
 11
123.5
 21
-583.8286022818904
 31
0.0
  0
LINE
  5
11F8
330
2BB1
100
AcDbEntity
  8
NOTE
 62
     0
100
AcDbLine
 10
-111.4999999999999
 20
-563.8286022818904
 30
0.0
 11
111.5
 21
-563.8286022818904
 31
0.0
  0
INSERT
  5
11F9
330
2BB1
100
AcDbEntity
  8
NOTE
 62
     0
100
AcDbBlockReference
  2
_DOTBLANK
 10
-123.4999999999999
 20
-563.8286022818904
 30
0.0
 41
12.0
 42
12.0
 43
12.0
 50
180.0
  0
INSERT
  5
11FA
330
2BB1
100
AcDbEntity
  8
NOTE
 62
     0
100
AcDbBlockReference
  2
_DOTBLANK
 10
123.5
 20
-563.8286022818904
 30
0.0
 41
12.0
 42
12.0
 43
12.0
  0
INSERT
  5
11FB
330
2BB1
100
AcDbEntity
  8
0
100
AcDbBlockReference
  2
*U19
 10
0.0
 20
0.0
 30
0.0
  0
POINT
  5
11FC
330
2BB1
100
AcDbEntity
  8
DEFPOINTS
 62
     0
100
AcDbPoint
 10
-123.4999999999999
 20
-300.0
 30
0.0
  0
POINT
  5
11FD
330
2BB1
100
AcDbEntity
  8
DEFPOINTS
 62
     0
100
AcDbPoint
 10
123.5
 20
-300.0
 30
0.0
  0
POINT
  5
11FE
330
2BB1
100
AcDbEntity
  8
DEFPOINTS
 62
     0
100
AcDbPoint
 10
123.5
 20
-563.8286022818904
 30
0.0
  0
ENDBLK
  5
11F5
330
2BB1
100
AcDbEntity
  8
0
100
AcDbBlockEnd
  0
BLOCK
  5
2BB4
330
2BB3
100
AcDbEntity
  8
0
100
AcDbBlockBegin
  2
*U19
 70
     1
 10
0.0
 20
0.0
 30
0.0
  3
*U19
  1

  0
TEXT
  5
1EED
330
2BB3
100
AcDbEntity
  8
NOTE
 62
     0
100
AcDbText
 10
-74.05714285714281
 20
-553.8286022818904
 30
0.0
 40
64.0
  1
247
 41
0.9
100
AcDbText
  0
ENDBLK
  5
1EEF
330
2BB3
100
AcDbEntity
  8
0
100
AcDbBlockEnd
  0
BLOCK
  5
2BB6
330
2BB5
100
AcDbEntity
  8
0
100
AcDbBlockBegin
  2
*D20
 70
     1
 10
0.0
 20
0.0
 30
0.0
  3
*D20
  1

  0
LINE
  5
1284
330
2BB5
100
AcDbEntity
  8
NOTE
 62
     0
100
AcDbLine
 10
-123.5
 20
12.0
 30
0.0
 11
-123.5
 21
71.83630134534229
 31
0.0
  0
LINE
  5
1285
330
2BB5
100
AcDbEntity
  8
NOTE
 62
     0
100
AcDbLine
 10
123.5
 20
12.0
 30
0.0
 11
123.5
 21
71.83630134534229
 31
0.0
  0
LINE
  5
1286
330
2BB5
100
AcDbEntity
  8
NOTE
 62
     0
100
AcDbLine
 10
-111.5
 20
51.83630134534229
 30
0.0
 11
111.5
 21
51.83630134534229
 31
0.0
  0
INSERT
  5
1287
330
2BB5
100
AcDbEntity
  8
NOTE
 62
     0
100
AcDbBlockReference
  2
_DOTBLANK
 10
-123.5
 20
51.83630134534229
 30
0.0
 41
12.0
 42
12.0
 43
12.0
 50
180.0
  0
INSERT
  5
1288
330
2BB5
100
AcDbEntity
  8
NOTE
 62
     0
100
AcDbBlockReference
  2
_DOTBLANK
 10
123.5
 20
51.83630134534229
 30
0.0
 41
12.0
 42
12.0
 43
12.0
  0
INSERT
  5
1289
330
2BB5
100
AcDbEntity
  8
0
100
AcDbBlockReference
  2
*U21
 10
0.0
 20
0.0
 30
0.0
  0
POINT
  5
128A
330
2BB5
100
AcDbEntity
  8
DEFPOINTS
 62
     0
100
AcDbPoint
 10
-123.5
 20
-8.0
 30
0.0
  0
POINT
  5
128B
330
2BB5
100
AcDbEntity
  8
DEFPOINTS
 62
     0
100
AcDbPoint
 10
123.5
 20
-8.0
 30
0.0
  0
POINT
  5
128C
330
2BB5
100
AcDbEntity
  8
DEFPOINTS
 62
     0
100
AcDbPoint
 10
123.5
 20
51.83630134534229
 30
0.0
  0
ENDBLK
  5
1283
330
2BB5
100
AcDbEntity
  8
0
100
AcDbBlockEnd
  0
BLOCK
  5
2BB8
330
2BB7
100
AcDbEntity
  8
0
100
AcDbBlockBegin
  2
*U21
 70
     1
 10
0.0
 20
0.0
 30
0.0
  3
*U21
  1

  0
TEXT
  5
1EF1
330
2BB7
100
AcDbEntity
  8
NOTE
 62
     0
100
AcDbText
 10
-74.05714285714283
 20
61.83630134534229
 30
0.0
 40
64.0
  1
247
 41
0.9
100
AcDbText
  0
ENDBLK
  5
1EF3
330
2BB7
100
AcDbEntity
  8
0
100
AcDbBlockEnd
  0
BLOCK
  5
2BBA
330
2BB9
100
AcDbEntity
  8
0
100
AcDbBlockBegin
  2
*D22
 70
     1
 10
0.0
 20
0.0
 30
0.0
  3
*D22
  1

  0
LINE
  5
1414
330
2BB9
100
AcDbEntity
  8
SIZE
 62
     0
100
AcDbLine
 10
-22313.11521613997
 20
7365.702971374808
 30
0.0
 11
-22313.11521613997
 21
7217.685576144207
 31
0.0
  0
LINE
  5
1415
330
2BB9
100
AcDbEntity
  8
SIZE
 62
     0
100
AcDbLine
 10
-22044.11521613997
 20
7365.702971374808
 30
0.0
 11
-22044.11521613997
 21
7217.685576144207
 31
0.0
  0
LINE
  5
1416
330
2BB9
100
AcDbEntity
  8
SIZE
 62
     0
100
AcDbLine
 10
-22301.11521613997
 20
7237.685576144207
 30
0.0
 11
-22056.11521613997
 21
7237.685576144207
 31
0.0
  0
INSERT
  5
1417
330
2BB9
100
AcDbEntity
  8
SIZE
 62
     0
100
AcDbBlockReference
  2
_DOTBLANK
 10
-22313.11521613997
 20
7237.685576144207
 30
0.0
 41
12.0
 42
12.0
 43
12.0
 50
180.0
  0
INSERT
  5
1418
330
2BB9
100
AcDbEntity
  8
SIZE
 62
     0
100
AcDbBlockReference
  2
_DOTBLANK
 10
-22044.11521613997
 20
7237.685576144207
 30
0.0
 41
12.0
 42
12.0
 43
12.0
  0
INSERT
  5
1419
330
2BB9
100
AcDbEntity
  8
0
100
AcDbBlockReference
  2
*U23
 10
0.0
 20
0.0
 30
0.0
  0
POINT
  5
141A
330
2BB9
100
AcDbEntity
  8
DEFPOINTS
 62
     0
100
AcDbPoint
 10
-22313.11521613997
 20
7385.702971374808
 30
0.0
  0
POINT
  5
141B
330
2BB9
100
AcDbEntity
  8
DEFPOINTS
 62
     0
100
AcDbPoint
 10
-22044.11521613997
 20
7385.702971374808
 30
0.0
  0
POINT
  5
141C
330
2BB9
100
AcDbEntity
  8
DEFPOINTS
 62
     0
100
AcDbPoint
 10
-22044.11521613997
 20
7237.685576144207
 30
0.0
  0
ENDBLK
  5
141D
330
2BB9
100
AcDbEntity
  8
0
100
AcDbBlockEnd
  0
BLOCK
  5
2BBC
330
2BBB
100
AcDbEntity
  8
0
100
AcDbBlockBegin
  2
*U23
 70
     1
 10
0.0
 20
0.0
 30
0.0
  3
*U23
  1

  0
TEXT
  5
1EF9
330
2BBB
100
AcDbEntity
  8
SIZE
 62
     0
100
AcDbText
 10
-22251.30093042568
 20
7247.685576144205
 30
0.0
 40
64.0
  1
269
 41
0.9
100
AcDbText
  0
ENDBLK
  5
1EFB
330
2BBB
100
AcDbEntity
  8
0
100
AcDbBlockEnd
  0
BLOCK
  5
2BBE
330
2BBD
100
AcDbEntity
  8
0
100
AcDbBlockBegin
  2
*D24
 70
     1
 10
0.0
 20
0.0
 30
0.0
  3
*D24
  1

  0
LINE
  5
1420
330
2BBD
100
AcDbEntity
  8
SIZE
  6
Continuous
 62
     0
100
AcDbLine
 10
-22035.11521613997
 20
7385.702971374808
 30
0.0
 11
-21873.97193165959
 21
7385.702971374808
 31
0.0
  0
LINE
  5
1421
330
2BBD
100
AcDbEntity
  8
SIZE
  6
Continuous
 62
     0
100
AcDbLine
 10
-22001.11521613997
 20
7685.702971374808
 30
0.0
 11
-21873.97193165959
 21
7685.702971374808
 31
0.0
  0
LINE
  5
1422
330
2BBD
100
AcDbEntity
  8
SIZE
  6
Continuous
 62
     0
100
AcDbLine
 10
-21893.97193165959
 20
7397.702971374808
 30
0.0
 11
-21893.97193165959
 21
7673.702971374808
 31
0.0
  0
INSERT
  5
1423
330
2BBD
100
AcDbEntity
  8
SIZE
  6
Continuous
 62
     0
100
AcDbBlockReference
  2
_DOTBLANK
 10
-21893.97193165959
 20
7385.702971374808
 30
0.0
 41
12.0
 42
12.0
 43
12.0
 50
270.0
  0
INSERT
  5
1424
330
2BBD
100
AcDbEntity
  8
SIZE
  6
Continuous
 62
     0
100
AcDbBlockReference
  2
_DOTBLANK
 10
-21893.97193165959
 20
7685.702971374808
 30
0.0
 41
12.0
 42
12.0
 43
12.0
 50
90.0
  0
INSERT
  5
1425
330
2BBD
100
AcDbEntity
  8
0
100
AcDbBlockReference
  2
*U25
 10
0.0
 20
0.0
 30
0.0
  0
POINT
  5
1426
330
2BBD
100
AcDbEntity
  8
DEFPOINTS
  6
Continuous
 62
     0
100
AcDbPoint
 10
-22055.11521613997
 20
7385.702971374808
 30
0.0
  0
POINT
  5
1427
330
2BBD
100
AcDbEntity
  8
DEFPOINTS
  6
Continuous
 62
     0
100
AcDbPoint
 10
-22021.11521613997
 20
7685.702971374808
 30
0.0
  0
POINT
  5
1428
330
2BBD
100
AcDbEntity
  8
DEFPOINTS
  6
Continuous
 62
     0
100
AcDbPoint
 10
-21893.97193165959
 20
7685.702971374808
 30
0.0
  0
ENDBLK
  5
1429
330
2BBD
100
AcDbEntity
  8
0
100
AcDbBlockEnd
  0
BLOCK
  5
2BC0
330
2BBF
100
AcDbEntity
  8
0
100
AcDbBlockBegin
  2
*U25
 70
     1
 10
0.0
 20
0.0
 30
0.0
  3
*U25
  1

  0
TEXT
  5
1EFD
330
2BBF
100
AcDbEntity
  8
SIZE
 62
     0
100
AcDbText
 10
-21903.97193165959
 20
7461.645828517662
 30
0.0
 40
64.0
  1
300
 50
90.0
 41
0.9
100
AcDbText
  0
ENDBLK
  5
1EFF
330
2BBF
100
AcDbEntity
  8
0
100
AcDbBlockEnd
  0
BLOCK
  5
2BC2
330
2BC1
100
AcDbEntity
  8
0
100
AcDbBlockBegin
  2
*D26
 70
     1
 10
0.0
 20
0.0
 30
0.0
  3
*D26
  1

  0
LINE
  5
142C
330
2BC1
100
AcDbEntity
  8
SIZE
 62
     0
100
AcDbLine
 10
-22318.61521613997
 20
7718.167454177002
 30
0.0
 11
-22318.61521613997
 21
7822.154659243358
 31
0.0
  0
LINE
  5
142D
330
2BC1
100
AcDbEntity
  8
SIZE
 62
     0
100
AcDbLine
 10
-22038.61521613997
 20
7718.167454177002
 30
0.0
 11
-22038.61521613997
 21
7822.154659243358
 31
0.0
  0
LINE
  5
142E
330
2BC1
100
AcDbEntity
  8
SIZE
 62
     0
100
AcDbLine
 10
-22306.61521613997
 20
7802.154659243358
 30
0.0
 11
-22050.61521613997
 21
7802.154659243358
 31
0.0
  0
INSERT
  5
142F
330
2BC1
100
AcDbEntity
  8
SIZE
 62
     0
100
AcDbBlockReference
  2
_DOTBLANK
 10
-22318.61521613997
 20
7802.154659243358
 30
0.0
 41
12.0
 42
12.0
 43
12.0
 50
180.0
  0
INSERT
  5
1430
330
2BC1
100
AcDbEntity
  8
SIZE
 62
     0
100
AcDbBlockReference
  2
_DOTBLANK
 10
-22038.61521613997
 20
7802.154659243358
 30
0.0
 41
12.0
 42
12.0
 43
12.0
  0
INSERT
  5
1431
330
2BC1
100
AcDbEntity
  8
0
100
AcDbBlockReference
  2
*U27
 10
0.0
 20
0.0
 30
0.0
  0
POINT
  5
1432
330
2BC1
100
AcDbEntity
  8
DEFPOINTS
 62
     0
100
AcDbPoint
 10
-22318.61521613997
 20
7698.167454177002
 30
0.0
  0
POINT
  5
1433
330
2BC1
100
AcDbEntity
  8
DEFPOINTS
 62
     0
100
AcDbPoint
 10
-22038.61521613997
 20
7698.167454177002
 30
0.0
  0
POINT
  5
1434
330
2BC1
100
AcDbEntity
  8
DEFPOINTS
 62
     0
100
AcDbPoint
 10
-22038.61521613997
 20
7802.154659243358
 30
0.0
  0
ENDBLK
  5
1435
330
2BC1
100
AcDbEntity
  8
0
100
AcDbBlockEnd
  0
BLOCK
  5
2BC4
330
2BC3
100
AcDbEntity
  8
0
100
AcDbBlockBegin
  2
*U27
 70
     1
 10
0.0
 20
0.0
 30
0.0
  3
*U27
  1

  0
TEXT
  5
1F01
330
2BC3
100
AcDbEntity
  8
SIZE
 62
     0
100
AcDbText
 10
-22252.6723589971
 20
7812.154659243358
 30
0.0
 40
64.0
  1
280
 41
0.9
100
AcDbText
  0
ENDBLK
  5
1F03
330
2BC3
100
AcDbEntity
  8
0
100
AcDbBlockEnd
  0
BLOCK
  5
2BC6
330
2BC5
100
AcDbEntity
  8
0
100
AcDbBlockBegin
  2
*D28
 70
     1
 10
0.0
 20
0.0
 30
0.0
  3
*D28
  1

  0
LINE
  5
1438
330
2BC5
100
AcDbEntity
  8
SIZE
 62
     0
100
AcDbLine
 10
-22336.11521613997
 20
7705.702971374808
 30
0.0
 11
-22336.11521613997
 21
7931.282433493766
 31
0.0
  0
LINE
  5
1439
330
2BC5
100
AcDbEntity
  8
SIZE
 62
     0
100
AcDbLine
 10
-22021.11521613997
 20
7705.702971374808
 30
0.0
 11
-22021.11521613997
 21
7931.282433493766
 31
0.0
  0
LINE
  5
143A
330
2BC5
100
AcDbEntity
  8
SIZE
 62
     0
100
AcDbLine
 10
-22324.11521613997
 20
7911.282433493766
 30
0.0
 11
-22033.11521613997
 21
7911.282433493766
 31
0.0
  0
INSERT
  5
143B
330
2BC5
100
AcDbEntity
  8
SIZE
 62
     0
100
AcDbBlockReference
  2
_DOTBLANK
 10
-22336.11521613997
 20
7911.282433493766
 30
0.0
 41
12.0
 42
12.0
 43
12.0
 50
180.0
  0
INSERT
  5
143C
330
2BC5
100
AcDbEntity
  8
SIZE
 62
     0
100
AcDbBlockReference
  2
_DOTBLANK
 10
-22021.11521613997
 20
7911.282433493766
 30
0.0
 41
12.0
 42
12.0
 43
12.0
  0
INSERT
  5
143D
330
2BC5
100
AcDbEntity
  8
0
100
AcDbBlockReference
  2
*U29
 10
0.0
 20
0.0
 30
0.0
  0
POINT
  5
143E
330
2BC5
100
AcDbEntity
  8
DEFPOINTS
 62
     0
100
AcDbPoint
 10
-22336.11521613997
 20
7685.702971374808
 30
0.0
  0
POINT
  5
143F
330
2BC5
100
AcDbEntity
  8
DEFPOINTS
 62
     0
100
AcDbPoint
 10
-22021.11521613997
 20
7685.702971374808
 30
0.0
  0
POINT
  5
1440
330
2BC5
100
AcDbEntity
  8
DEFPOINTS
 62
     0
100
AcDbPoint
 10
-22021.11521613997
 20
7911.282433493766
 30
0.0
  0
ENDBLK
  5
1441
330
2BC5
100
AcDbEntity
  8
0
100
AcDbBlockEnd
  0
BLOCK
  5
2BC8
330
2BC7
100
AcDbEntity
  8
0
100
AcDbBlockBegin
  2
*U29
 70
     1
 10
0.0
 20
0.0
 30
0.0
  3
*U29
  1

  0
TEXT
  5
1F05
330
2BC7
100
AcDbEntity
  8
SIZE
 62
     0
100
AcDbText
 10
-22247.18664471139
 20
7921.282433493766
 30
0.0
 40
64.0
  1
315
 41
0.9
100
AcDbText
  0
ENDBLK
  5
1F07
330
2BC7
100
AcDbEntity
  8
0
100
AcDbBlockEnd
  0
BLOCK
  5
2BCA
330
2BC9
100
AcDbEntity
  8
0
100
AcDbBlockBegin
  2
*D30
 70
     1
 10
0.0
 20
0.0
 30
0.0
  3
*D30
  1

  0
LINE
  5
166B
330
2BC9
100
AcDbEntity
  8
SIZE
 62
     0
100
AcDbLine
 10
-134.5
 20
-320.0
 30
0.0
 11
-134.5
 21
-468.0173952306001
 31
0.0
  0
LINE
  5
166C
330
2BC9
100
AcDbEntity
  8
SIZE
 62
     0
100
AcDbLine
 10
134.5
 20
-320.0
 30
0.0
 11
134.5
 21
-468.0173952306001
 31
0.0
  0
LINE
  5
166D
330
2BC9
100
AcDbEntity
  8
SIZE
 62
     0
100
AcDbLine
 10
-122.5
 20
-448.0173952306
 30
0.0
 11
122.5
 21
-448.0173952306
 31
0.0
  0
INSERT
  5
166E
330
2BC9
100
AcDbEntity
  8
SIZE
 62
     0
100
AcDbBlockReference
  2
_DOTBLANK
 10
-134.5
 20
-448.0173952306
 30
0.0
 41
12.0
 42
12.0
 43
12.0
 50
180.0
  0
INSERT
  5
166F
330
2BC9
100
AcDbEntity
  8
SIZE
 62
     0
100
AcDbBlockReference
  2
_DOTBLANK
 10
134.5
 20
-448.0173952306
 30
0.0
 41
12.0
 42
12.0
 43
12.0
  0
INSERT
  5
1670
330
2BC9
100
AcDbEntity
  8
0
100
AcDbBlockReference
  2
*U31
 10
0.0
 20
0.0
 30
0.0
  0
POINT
  5
1671
330
2BC9
100
AcDbEntity
  8
DEFPOINTS
 62
     0
100
AcDbPoint
 10
-134.5
 20
-300.0
 30
0.0
  0
POINT
  5
1672
330
2BC9
100
AcDbEntity
  8
DEFPOINTS
 62
     0
100
AcDbPoint
 10
134.5
 20
-300.0
 30
0.0
  0
POINT
  5
1673
330
2BC9
100
AcDbEntity
  8
DEFPOINTS
 62
     0
100
AcDbPoint
 10
134.5
 20
-448.0173952306
 30
0.0
  0
ENDBLK
  5
14A7
330
2BC9
100
AcDbEntity
  8
0
100
AcDbBlockEnd
  0
BLOCK
  5
2BCC
330
2BCB
100
AcDbEntity
  8
0
100
AcDbBlockBegin
  2
*U31
 70
     1
 10
0.0
 20
0.0
 30
0.0
  3
*U31
  1

  0
TEXT
  5
1F09
330
2BCB
100
AcDbEntity
  8
SIZE
 62
     0
100
AcDbText
 10
-72.68571428571426
 20
-438.0173952306002
 30
0.0
 40
64.0
  1
269
 41
0.9
100
AcDbText
  0
ENDBLK
  5
1F0B
330
2BCB
100
AcDbEntity
  8
0
100
AcDbBlockEnd
  0
BLOCK
  5
2BCE
330
2BCD
100
AcDbEntity
  8
0
100
AcDbBlockBegin
  2
*D32
 70
     1
 10
0.0
 20
0.0
 30
0.0
  3
*D32
  1

  0
LINE
  5
1674
330
2BCD
100
AcDbEntity
  8
SIZE
  6
Continuous
 62
     0
100
AcDbLine
 10
143.5
 20
-300.0
 30
0.0
 11
304.6432844803784
 21
-300.0
 31
0.0
  0
LINE
  5
1675
330
2BCD
100
AcDbEntity
  8
SIZE
  6
Continuous
 62
     0
100
AcDbLine
 10
177.5
 20
-0.0000000000000057
 30
0.0
 11
304.6432844803785
 21
-0.0000000000000417
 31
0.0
  0
LINE
  5
1676
330
2BCD
100
AcDbEntity
  8
SIZE
  6
Continuous
 62
     0
100
AcDbLine
 10
284.6432844803784
 20
-288.0000000000001
 30
0.0
 11
284.6432844803785
 21
-12.00000000000003
 31
0.0
  0
INSERT
  5
1677
330
2BCD
100
AcDbEntity
  8
SIZE
  6
Continuous
 62
     0
100
AcDbBlockReference
  2
_DOTBLANK
 10
284.6432844803784
 20
-300.0
 30
0.0
 41
12.0
 42
12.0
 43
12.0
 50
270.0
  0
INSERT
  5
1678
330
2BCD
100
AcDbEntity
  8
SIZE
  6
Continuous
 62
     0
100
AcDbBlockReference
  2
_DOTBLANK
 10
284.6432844803785
 20
-0.000000000000036
 30
0.0
 41
12.0
 42
12.0
 43
12.0
 50
90.0
  0
INSERT
  5
1679
330
2BCD
100
AcDbEntity
  8
0
100
AcDbBlockReference
  2
*U33
 10
0.0
 20
0.0
 30
0.0
  0
POINT
  5
167A
330
2BCD
100
AcDbEntity
  8
DEFPOINTS
  6
Continuous
 62
     0
100
AcDbPoint
 10
123.5
 20
-300.0
 30
0.0
  0
POINT
  5
167B
330
2BCD
100
AcDbEntity
  8
DEFPOINTS
  6
Continuous
 62
     0
100
AcDbPoint
 10
157.5
 20
0.0
 30
0.0
  0
POINT
  5
167C
330
2BCD
100
AcDbEntity
  8
DEFPOINTS
  6
Continuous
 62
     0
100
AcDbPoint
 10
284.6432844803785
 20
-0.000000000000036
 30
0.0
  0
ENDBLK
  5
14B3
330
2BCD
100
AcDbEntity
  8
0
100
AcDbBlockEnd
  0
BLOCK
  5
2BD0
330
2BCF
100
AcDbEntity
  8
0
100
AcDbBlockBegin
  2
*U33
 70
     1
 10
0.0
 20
0.0
 30
0.0
  3
*U33
  1

  0
TEXT
  5
1F0D
330
2BCF
100
AcDbEntity
  8
SIZE
 62
     0
100
AcDbText
 10
274.6432844803785
 20
-224.0571428571429
 30
0.0
 40
64.0
  1
300
 50
90.0
 41
0.9
100
AcDbText
  0
ENDBLK
  5
1F0F
330
2BCF
100
AcDbEntity
  8
0
100
AcDbBlockEnd
  0
BLOCK
  5
2BD2
330
2BD1
100
AcDbEntity
  8
0
100
AcDbBlockBegin
  2
*D34
 70
     1
 10
0.0
 20
0.0
 30
0.0
  3
*D34
  1

  0
LINE
  5
167D
330
2BD1
100
AcDbEntity
  8
SIZE
 62
     0
100
AcDbLine
 10
-140.0
 20
32.46448280219375
 30
0.0
 11
-140.0
 21
136.4516878685507
 31
0.0
  0
LINE
  5
167E
330
2BD1
100
AcDbEntity
  8
SIZE
 62
     0
100
AcDbLine
 10
140.0
 20
32.46448280219375
 30
0.0
 11
140.0
 21
136.4516878685507
 31
0.0
  0
LINE
  5
167F
330
2BD1
100
AcDbEntity
  8
SIZE
 62
     0
100
AcDbLine
 10
-128.0
 20
116.4516878685508
 30
0.0
 11
128.0
 21
116.4516878685508
 31
0.0
  0
INSERT
  5
1680
330
2BD1
100
AcDbEntity
  8
SIZE
 62
     0
100
AcDbBlockReference
  2
_DOTBLANK
 10
-140.0
 20
116.4516878685508
 30
0.0
 41
12.0
 42
12.0
 43
12.0
 50
180.0
  0
INSERT
  5
1681
330
2BD1
100
AcDbEntity
  8
SIZE
 62
     0
100
AcDbBlockReference
  2
_DOTBLANK
 10
140.0
 20
116.4516878685508
 30
0.0
 41
12.0
 42
12.0
 43
12.0
  0
INSERT
  5
1682
330
2BD1
100
AcDbEntity
  8
0
100
AcDbBlockReference
  2
*U35
 10
0.0
 20
0.0
 30
0.0
  0
POINT
  5
1683
330
2BD1
100
AcDbEntity
  8
DEFPOINTS
 62
     0
100
AcDbPoint
 10
-140.0
 20
12.46448280219374
 30
0.0
  0
POINT
  5
1684
330
2BD1
100
AcDbEntity
  8
DEFPOINTS
 62
     0
100
AcDbPoint
 10
140.0
 20
12.46448280219374
 30
0.0
  0
POINT
  5
1685
330
2BD1
100
AcDbEntity
  8
DEFPOINTS
 62
     0
100
AcDbPoint
 10
140.0
 20
116.4516878685508
 30
0.0
  0
ENDBLK
  5
14BF
330
2BD1
100
AcDbEntity
  8
0
100
AcDbBlockEnd
  0
BLOCK
  5
2BD4
330
2BD3
100
AcDbEntity
  8
0
100
AcDbBlockBegin
  2
*U35
 70
     1
 10
0.0
 20
0.0
 30
0.0
  3
*U35
  1

  0
TEXT
  5
1F11
330
2BD3
100
AcDbEntity
  8
SIZE
 62
     0
100
AcDbText
 10
-74.05714285714283
 20
126.4516878685507
 30
0.0
 40
64.0
  1
280
 41
0.9
100
AcDbText
  0
ENDBLK
  5
1F13
330
2BD3
100
AcDbEntity
  8
0
100
AcDbBlockEnd
  0
BLOCK
  5
2BD6
330
2BD5
100
AcDbEntity
  8
0
100
AcDbBlockBegin
  2
*D36
 70
     1
 10
0.0
 20
0.0
 30
0.0
  3
*D36
  1

  0
LINE
  5
1686
330
2BD5
100
AcDbEntity
  8
SIZE
 62
     0
100
AcDbLine
 10
-157.5
 20
20.0
 30
0.0
 11
-157.5
 21
245.5794621189598
 31
0.0
  0
LINE
  5
1687
330
2BD5
100
AcDbEntity
  8
SIZE
 62
     0
100
AcDbLine
 10
157.5
 20
20.0
 30
0.0
 11
157.5
 21
245.5794621189598
 31
0.0
  0
LINE
  5
1688
330
2BD5
100
AcDbEntity
  8
SIZE
 62
     0
100
AcDbLine
 10
-145.5
 20
225.5794621189598
 30
0.0
 11
145.5
 21
225.5794621189598
 31
0.0
  0
INSERT
  5
1689
330
2BD5
100
AcDbEntity
  8
SIZE
 62
     0
100
AcDbBlockReference
  2
_DOTBLANK
 10
-157.5
 20
225.5794621189598
 30
0.0
 41
12.0
 42
12.0
 43
12.0
 50
180.0
  0
INSERT
  5
168A
330
2BD5
100
AcDbEntity
  8
SIZE
 62
     0
100
AcDbBlockReference
  2
_DOTBLANK
 10
157.5
 20
225.5794621189598
 30
0.0
 41
12.0
 42
12.0
 43
12.0
  0
INSERT
  5
168B
330
2BD5
100
AcDbEntity
  8
0
100
AcDbBlockReference
  2
*U37
 10
0.0
 20
0.0
 30
0.0
  0
POINT
  5
168C
330
2BD5
100
AcDbEntity
  8
DEFPOINTS
 62
     0
100
AcDbPoint
 10
-157.5
 20
0.0
 30
0.0
  0
POINT
  5
168D
330
2BD5
100
AcDbEntity
  8
DEFPOINTS
 62
     0
100
AcDbPoint
 10
157.5
 20
0.0
 30
0.0
  0
POINT
  5
168E
330
2BD5
100
AcDbEntity
  8
DEFPOINTS
 62
     0
100
AcDbPoint
 10
157.5
 20
225.5794621189598
 30
0.0
  0
ENDBLK
  5
14CB
330
2BD5
100
AcDbEntity
  8
0
100
AcDbBlockEnd
  0
BLOCK
  5
2BD8
330
2BD7
100
AcDbEntity
  8
0
100
AcDbBlockBegin
  2
*U37
 70
     1
 10
0.0
 20
0.0
 30
0.0
  3
*U37
  1

  0
TEXT
  5
1F15
330
2BD7
100
AcDbEntity
  8
SIZE
 62
     0
100
AcDbText
 10
-68.57142857142857
 20
235.5794621189598
 30
0.0
 40
64.0
  1
315
 41
0.9
100
AcDbText
  0
ENDBLK
  5
1F17
330
2BD7
100
AcDbEntity
  8
0
100
AcDbBlockEnd
  0
BLOCK
  5
2BDA
330
2BD9
100
AcDbEntity
  8
0
100
AcDbBlockBegin
  2
*U38
 70
     1
 10
0.0
 20
0.0
 30
0.0
  3
*U38
  1

  0
ENDBLK
  5
15CF
330
2BD9
100
AcDbEntity
  8
0
100
AcDbBlockEnd
  0
BLOCK
  5
2BDC
330
2BDB
100
AcDbEntity
  8
0
100
AcDbBlockBegin
  2
*D39
 70
     1
 10
0.0
 20
0.0
 30
0.0
  3
*D39
  1

  0
LINE
  5
1692
330
2BDB
100
AcDbEntity
  8
SIZE
 62
     0
100
AcDbLine
 10
-25844.51823276502
 20
7685.702971374808
 30
0.0
 11
-25981.04465488371
 21
7685.702971374808
 31
0.0
  0
LINE
  5
1693
330
2BDB
100
AcDbEntity
  8
SIZE
 62
     0
100
AcDbLine
 10
-25844.51823276502
 20
7677.702971374808
 30
0.0
 11
-25981.04465488371
 21
7677.702971374808
 31
0.0
  0
LINE
  5
1694
330
2BDB
100
AcDbEntity
  8
SIZE
 62
     0
100
AcDbLine
 10
-25961.04465488371
 20
7697.702971374808
 30
0.0
 11
-25961.04465488371
 21
7709.702971374809
 31
0.0
  0
LINE
  5
1695
330
2BDB
100
AcDbEntity
  8
SIZE
 62
     0
100
AcDbLine
 10
-25961.04465488371
 20
7665.70297137481
 30
0.0
 11
-25961.04465488371
 21
7595.302971374808
 31
0.0
  0
INSERT
  5
1696
330
2BDB
100
AcDbEntity
  8
SIZE
 62
     0
100
AcDbBlockReference
  2
_DOTBLANK
 10
-25961.04465488371
 20
7685.702971374808
 30
0.0
 41
12.0
 42
12.0
 43
12.0
 50
270.0
  0
INSERT
  5
1697
330
2BDB
100
AcDbEntity
  8
SIZE
 62
     0
100
AcDbBlockReference
  2
_DOTBLANK
 10
-25961.04465488371
 20
7677.702971374808
 30
0.0
 41
12.0
 42
12.0
 43
12.0
 50
90.0
  0
INSERT
  5
1698
330
2BDB
100
AcDbEntity
  8
0
100
AcDbBlockReference
  2
*U40
 10
0.0
 20
0.0
 30
0.0
  0
POINT
  5
1699
330
2BDB
100
AcDbEntity
  8
DEFPOINTS
 62
     0
100
AcDbPoint
 10
-25824.51823276501
 20
7685.702971374808
 30
0.0
  0
POINT
  5
169A
330
2BDB
100
AcDbEntity
  8
DEFPOINTS
 62
     0
100
AcDbPoint
 10
-25824.51823276501
 20
7677.702971374808
 30
0.0
  0
POINT
  5
169B
330
2BDB
100
AcDbEntity
  8
DEFPOINTS
 62
     0
100
AcDbPoint
 10
-25961.04465488371
 20
7677.702971374808
 30
0.0
  0
ENDBLK
  5
169C
330
2BDB
100
AcDbEntity
  8
0
100
AcDbBlockEnd
  0
BLOCK
  5
2BDE
330
2BDD
100
AcDbEntity
  8
0
100
AcDbBlockBegin
  2
*U40
 70
     1
 10
0.0
 20
0.0
 30
0.0
  3
*U40
  1

  0
TEXT
  5
1F19
330
2BDD
100
AcDbEntity
  8
SIZE
 62
     0
100
AcDbText
 10
-25971.04465488371
 20
7605.302971374804
 30
0.0
 40
64.0
  1
8
 50
90.0
 41
0.9
100
AcDbText
  0
ENDBLK
  5
1F1B
330
2BDD
100
AcDbEntity
  8
0
100
AcDbBlockEnd
  0
BLOCK
  5
2BE0
330
2BDF
100
AcDbEntity
  8
0
100
AcDbBlockBegin
  2
*D41
 70
     1
 10
0.0
 20
0.0
 30
0.0
  3
*D41
  1

  0
LINE
  5
169F
330
2BDF
100
AcDbEntity
  8
SIZE
 62
     0
100
AcDbLine
 10
-25512.51823276502
 20
7385.702971374808
 30
0.0
 11
-25362.37494828464
 21
7385.702971374808
 31
0.0
  0
LINE
  5
16A0
330
2BDF
100
AcDbEntity
  8
SIZE
 62
     0
100
AcDbLine
 10
-25523.51823276501
 20
7373.702971374808
 30
0.0
 11
-25362.37494828464
 21
7373.702971374808
 31
0.0
  0
LINE
  5
16A1
330
2BDF
100
AcDbEntity
  8
SIZE
 62
     0
100
AcDbLine
 10
-25382.37494828464
 20
7397.702971374808
 30
0.0
 11
-25382.37494828464
 21
7409.70297137481
 31
0.0
  0
LINE
  5
16A2
330
2BDF
100
AcDbEntity
  8
SIZE
 62
     0
100
AcDbLine
 10
-25382.37494828464
 20
7361.702971374808
 30
0.0
 11
-25382.37494828464
 21
7244.674399946238
 31
0.0
  0
INSERT
  5
16A3
330
2BDF
100
AcDbEntity
  8
SIZE
 62
     0
100
AcDbBlockReference
  2
_DOTBLANK
 10
-25382.37494828464
 20
7385.702971374808
 30
0.0
 41
12.0
 42
12.0
 43
12.0
 50
270.0
  0
INSERT
  5
16A4
330
2BDF
100
AcDbEntity
  8
SIZE
 62
     0
100
AcDbBlockReference
  2
_DOTBLANK
 10
-25382.37494828464
 20
7373.702971374808
 30
0.0
 41
12.0
 42
12.0
 43
12.0
 50
90.0
  0
INSERT
  5
16A5
330
2BDF
100
AcDbEntity
  8
0
100
AcDbBlockReference
  2
*U42
 10
0.0
 20
0.0
 30
0.0
  0
POINT
  5
16A6
330
2BDF
100
AcDbEntity
  8
DEFPOINTS
 62
     0
100
AcDbPoint
 10
-25532.51823276502
 20
7385.702971374808
 30
0.0
  0
POINT
  5
16A7
330
2BDF
100
AcDbEntity
  8
DEFPOINTS
 62
     0
100
AcDbPoint
 10
-25543.51823276502
 20
7373.702971374808
 30
0.0
  0
POINT
  5
16A8
330
2BDF
100
AcDbEntity
  8
DEFPOINTS
 62
     0
100
AcDbPoint
 10
-25382.37494828464
 20
7373.702971374808
 30
0.0
  0
ENDBLK
  5
16A9
330
2BDF
100
AcDbEntity
  8
0
100
AcDbBlockEnd
  0
BLOCK
  5
2BE2
330
2BE1
100
AcDbEntity
  8
0
100
AcDbBlockBegin
  2
*U42
 70
     1
 10
0.0
 20
0.0
 30
0.0
  3
*U42
  1

  0
TEXT
  5
1F1D
330
2BE1
100
AcDbEntity
  8
SIZE
 62
     0
100
AcDbText
 10
-25392.37494828464
 20
7256.045828517662
 30
0.0
 40
64.0
  1
12
 50
90.0
 41
0.9
100
AcDbText
  0
ENDBLK
  5
1F1F
330
2BE1
100
AcDbEntity
  8
0
100
AcDbBlockEnd
  0
BLOCK
  5
2BE4
330
2BE3
100
AcDbEntity
  8
0
100
AcDbBlockBegin
  2
*D43
 70
     1
 10
0.0
 20
0.0
 30
0.0
  3
*D43
  1

  0
LINE
  5
16AC
330
2BE3
100
AcDbEntity
  8
SIZE
 62
     0
100
AcDbLine
 10
-25801.51823276501
 20
7365.702971374808
 30
0.0
 11
-25801.51823276501
 21
7217.685576144207
 31
0.0
  0
LINE
  5
16AD
330
2BE3
100
AcDbEntity
  8
SIZE
 62
     0
100
AcDbLine
 10
-25532.51823276502
 20
7365.702971374808
 30
0.0
 11
-25532.51823276502
 21
7217.685576144207
 31
0.0
  0
LINE
  5
16AE
330
2BE3
100
AcDbEntity
  8
SIZE
 62
     0
100
AcDbLine
 10
-25789.51823276502
 20
7237.685576144207
 30
0.0
 11
-25544.51823276501
 21
7237.685576144207
 31
0.0
  0
INSERT
  5
16AF
330
2BE3
100
AcDbEntity
  8
SIZE
 62
     0
100
AcDbBlockReference
  2
_DOTBLANK
 10
-25801.51823276501
 20
7237.685576144207
 30
0.0
 41
12.0
 42
12.0
 43
12.0
 50
180.0
  0
INSERT
  5
16B0
330
2BE3
100
AcDbEntity
  8
SIZE
 62
     0
100
AcDbBlockReference
  2
_DOTBLANK
 10
-25532.51823276502
 20
7237.685576144207
 30
0.0
 41
12.0
 42
12.0
 43
12.0
  0
INSERT
  5
16B1
330
2BE3
100
AcDbEntity
  8
0
100
AcDbBlockReference
  2
*U44
 10
0.0
 20
0.0
 30
0.0
  0
POINT
  5
16B2
330
2BE3
100
AcDbEntity
  8
DEFPOINTS
 62
     0
100
AcDbPoint
 10
-25801.51823276501
 20
7385.702971374808
 30
0.0
  0
POINT
  5
16B3
330
2BE3
100
AcDbEntity
  8
DEFPOINTS
 62
     0
100
AcDbPoint
 10
-25532.51823276502
 20
7385.702971374808
 30
0.0
  0
POINT
  5
16B4
330
2BE3
100
AcDbEntity
  8
DEFPOINTS
 62
     0
100
AcDbPoint
 10
-25532.51823276502
 20
7237.685576144207
 30
0.0
  0
ENDBLK
  5
16B5
330
2BE3
100
AcDbEntity
  8
0
100
AcDbBlockEnd
  0
BLOCK
  5
2BE6
330
2BE5
100
AcDbEntity
  8
0
100
AcDbBlockBegin
  2
*U44
 70
     1
 10
0.0
 20
0.0
 30
0.0
  3
*U44
  1

  0
TEXT
  5
1F21
330
2BE5
100
AcDbEntity
  8
SIZE
 62
     0
100
AcDbText
 10
-25739.70394705074
 20
7247.685576144205
 30
0.0
 40
64.0
  1
269
 41
0.9
100
AcDbText
  0
ENDBLK
  5
1F23
330
2BE5
100
AcDbEntity
  8
0
100
AcDbBlockEnd
  0
BLOCK
  5
2BE8
330
2BE7
100
AcDbEntity
  8
0
100
AcDbBlockBegin
  2
*D45
 70
     1
 10
0.0
 20
0.0
 30
0.0
  3
*D45
  1

  0
LINE
  5
16B8
330
2BE7
100
AcDbEntity
  8
SIZE
 62
     0
100
AcDbLine
 10
-25512.51823276502
 20
7385.702971374808
 30
0.0
 11
-25362.37494828464
 21
7385.702971374808
 31
0.0
  0
LINE
  5
16B9
330
2BE7
100
AcDbEntity
  8
SIZE
 62
     0
100
AcDbLine
 10
-25489.51823276501
 20
7685.702971374808
 30
0.0
 11
-25362.37494828464
 21
7685.702971374808
 31
0.0
  0
LINE
  5
16BA
330
2BE7
100
AcDbEntity
  8
SIZE
 62
     0
100
AcDbLine
 10
-25382.37494828464
 20
7397.702971374808
 30
0.0
 11
-25382.37494828464
 21
7673.702971374808
 31
0.0
  0
INSERT
  5
16BB
330
2BE7
100
AcDbEntity
  8
SIZE
 62
     0
100
AcDbBlockReference
  2
_DOTBLANK
 10
-25382.37494828464
 20
7385.702971374808
 30
0.0
 41
12.0
 42
12.0
 43
12.0
 50
270.0
  0
INSERT
  5
16BC
330
2BE7
100
AcDbEntity
  8
SIZE
 62
     0
100
AcDbBlockReference
  2
_DOTBLANK
 10
-25382.37494828464
 20
7685.702971374808
 30
0.0
 41
12.0
 42
12.0
 43
12.0
 50
90.0
  0
INSERT
  5
16BD
330
2BE7
100
AcDbEntity
  8
0
100
AcDbBlockReference
  2
*U46
 10
0.0
 20
0.0
 30
0.0
  0
POINT
  5
16BE
330
2BE7
100
AcDbEntity
  8
DEFPOINTS
 62
     0
100
AcDbPoint
 10
-25532.51823276502
 20
7385.702971374808
 30
0.0
  0
POINT
  5
16BF
330
2BE7
100
AcDbEntity
  8
DEFPOINTS
 62
     0
100
AcDbPoint
 10
-25509.51823276502
 20
7685.702971374808
 30
0.0
  0
POINT
  5
16C0
330
2BE7
100
AcDbEntity
  8
DEFPOINTS
 62
     0
100
AcDbPoint
 10
-25382.37494828464
 20
7685.702971374808
 30
0.0
  0
ENDBLK
  5
16C1
330
2BE7
100
AcDbEntity
  8
0
100
AcDbBlockEnd
  0
BLOCK
  5
2BEA
330
2BE9
100
AcDbEntity
  8
0
100
AcDbBlockBegin
  2
*U46
 70
     1
 10
0.0
 20
0.0
 30
0.0
  3
*U46
  1

  0
TEXT
  5
1F25
330
2BE9
100
AcDbEntity
  8
SIZE
 62
     0
100
AcDbText
 10
-25392.37494828464
 20
7461.645828517662
 30
0.0
 40
64.0
  1
300
 50
90.0
 41
0.9
100
AcDbText
  0
ENDBLK
  5
1F27
330
2BE9
100
AcDbEntity
  8
0
100
AcDbBlockEnd
  0
BLOCK
  5
2BEC
330
2BEB
100
AcDbEntity
  8
0
100
AcDbBlockBegin
  2
*D47
 70
     1
 10
0.0
 20
0.0
 30
0.0
  3
*D47
  1

  0
LINE
  5
16C4
330
2BEB
100
AcDbEntity
  8
SIZE
 62
     0
100
AcDbLine
 10
-25807.01823276501
 20
7718.167454177002
 30
0.0
 11
-25807.01823276501
 21
7822.154659243358
 31
0.0
  0
LINE
  5
16C5
330
2BEB
100
AcDbEntity
  8
SIZE
 62
     0
100
AcDbLine
 10
-25527.01823276501
 20
7718.167454177002
 30
0.0
 11
-25527.01823276501
 21
7822.154659243358
 31
0.0
  0
LINE
  5
16C6
330
2BEB
100
AcDbEntity
  8
SIZE
 62
     0
100
AcDbLine
 10
-25795.01823276502
 20
7802.154659243358
 30
0.0
 11
-25539.01823276501
 21
7802.154659243358
 31
0.0
  0
INSERT
  5
16C7
330
2BEB
100
AcDbEntity
  8
SIZE
 62
     0
100
AcDbBlockReference
  2
_DOTBLANK
 10
-25807.01823276501
 20
7802.154659243358
 30
0.0
 41
12.0
 42
12.0
 43
12.0
 50
180.0
  0
INSERT
  5
16C8
330
2BEB
100
AcDbEntity
  8
SIZE
 62
     0
100
AcDbBlockReference
  2
_DOTBLANK
 10
-25527.01823276501
 20
7802.154659243358
 30
0.0
 41
12.0
 42
12.0
 43
12.0
  0
INSERT
  5
16C9
330
2BEB
100
AcDbEntity
  8
0
100
AcDbBlockReference
  2
*U48
 10
0.0
 20
0.0
 30
0.0
  0
POINT
  5
16CA
330
2BEB
100
AcDbEntity
  8
DEFPOINTS
 62
     0
100
AcDbPoint
 10
-25807.01823276501
 20
7698.167454177002
 30
0.0
  0
POINT
  5
16CB
330
2BEB
100
AcDbEntity
  8
DEFPOINTS
 62
     0
100
AcDbPoint
 10
-25527.01823276501
 20
7698.167454177002
 30
0.0
  0
POINT
  5
16CC
330
2BEB
100
AcDbEntity
  8
DEFPOINTS
 62
     0
100
AcDbPoint
 10
-25527.01823276501
 20
7802.154659243358
 30
0.0
  0
ENDBLK
  5
16CD
330
2BEB
100
AcDbEntity
  8
0
100
AcDbBlockEnd
  0
BLOCK
  5
2BEE
330
2BED
100
AcDbEntity
  8
0
100
AcDbBlockBegin
  2
*U48
 70
     1
 10
0.0
 20
0.0
 30
0.0
  3
*U48
  1

  0
TEXT
  5
1F29
330
2BED
100
AcDbEntity
  8
SIZE
 62
     0
100
AcDbText
 10
-25741.07537562216
 20
7812.154659243358
 30
0.0
 40
64.0
  1
280
 41
0.9
100
AcDbText
  0
ENDBLK
  5
1F2B
330
2BED
100
AcDbEntity
  8
0
100
AcDbBlockEnd
  0
BLOCK
  5
2BF0
330
2BEF
100
AcDbEntity
  8
0
100
AcDbBlockBegin
  2
*D49
 70
     1
 10
0.0
 20
0.0
 30
0.0
  3
*D49
  1

  0
LINE
  5
16D0
330
2BEF
100
AcDbEntity
  8
SIZE
 62
     0
100
AcDbLine
 10
-25824.51823276501
 20
7705.702971374808
 30
0.0
 11
-25824.51823276501
 21
7931.282433493766
 31
0.0
  0
LINE
  5
16D1
330
2BEF
100
AcDbEntity
  8
SIZE
 62
     0
100
AcDbLine
 10
-25509.51823276502
 20
7705.702971374808
 30
0.0
 11
-25509.51823276502
 21
7931.282433493766
 31
0.0
  0
LINE
  5
16D2
330
2BEF
100
AcDbEntity
  8
SIZE
 62
     0
100
AcDbLine
 10
-25812.51823276502
 20
7911.282433493766
 30
0.0
 11
-25521.51823276501
 21
7911.282433493766
 31
0.0
  0
INSERT
  5
16D3
330
2BEF
100
AcDbEntity
  8
SIZE
 62
     0
100
AcDbBlockReference
  2
_DOTBLANK
 10
-25824.51823276501
 20
7911.282433493766
 30
0.0
 41
12.0
 42
12.0
 43
12.0
 50
180.0
  0
INSERT
  5
16D4
330
2BEF
100
AcDbEntity
  8
SIZE
 62
     0
100
AcDbBlockReference
  2
_DOTBLANK
 10
-25509.51823276502
 20
7911.282433493766
 30
0.0
 41
12.0
 42
12.0
 43
12.0
  0
INSERT
  5
16D5
330
2BEF
100
AcDbEntity
  8
0
100
AcDbBlockReference
  2
*U50
 10
0.0
 20
0.0
 30
0.0
  0
POINT
  5
16D6
330
2BEF
100
AcDbEntity
  8
DEFPOINTS
 62
     0
100
AcDbPoint
 10
-25824.51823276501
 20
7685.702971374808
 30
0.0
  0
POINT
  5
16D7
330
2BEF
100
AcDbEntity
  8
DEFPOINTS
 62
     0
100
AcDbPoint
 10
-25509.51823276502
 20
7685.702971374808
 30
0.0
  0
POINT
  5
16D8
330
2BEF
100
AcDbEntity
  8
DEFPOINTS
 62
     0
100
AcDbPoint
 10
-25509.51823276502
 20
7911.282433493766
 30
0.0
  0
ENDBLK
  5
16D9
330
2BEF
100
AcDbEntity
  8
0
100
AcDbBlockEnd
  0
BLOCK
  5
2BF2
330
2BF1
100
AcDbEntity
  8
0
100
AcDbBlockBegin
  2
*U50
 70
     1
 10
0.0
 20
0.0
 30
0.0
  3
*U50
  1

  0
TEXT
  5
1F2D
330
2BF1
100
AcDbEntity
  8
SIZE
 62
     0
100
AcDbText
 10
-25735.58966133645
 20
7921.282433493766
 30
0.0
 40
64.0
  1
315
 41
0.9
100
AcDbText
  0
ENDBLK
  5
1F2F
330
2BF1
100
AcDbEntity
  8
0
100
AcDbBlockEnd
  0
BLOCK
  5
2BF4
330
2BF3
100
AcDbEntity
  8
0
100
AcDbBlockBegin
  2
*D51
 70
     1
 10
0.0
 20
0.0
 30
0.0
  3
*D51
  1

  0
LINE
  5
1D83
330
2BF3
100
AcDbEntity
  8
SIZE
 62
     0
100
AcDbLine
 10
-134.5
 20
-320.0
 30
0.0
 11
-134.5
 21
-468.0173952306001
 31
0.0
  0
LINE
  5
1D84
330
2BF3
100
AcDbEntity
  8
SIZE
 62
     0
100
AcDbLine
 10
134.5
 20
-320.0
 30
0.0
 11
134.5
 21
-468.0173952306001
 31
0.0
  0
LINE
  5
1D85
330
2BF3
100
AcDbEntity
  8
SIZE
 62
     0
100
AcDbLine
 10
-122.5
 20
-448.0173952306
 30
0.0
 11
122.5
 21
-448.0173952306
 31
0.0
  0
INSERT
  5
1D86
330
2BF3
100
AcDbEntity
  8
SIZE
 62
     0
100
AcDbBlockReference
  2
_DOTBLANK
 10
-134.5
 20
-448.0173952306
 30
0.0
 41
12.0
 42
12.0
 43
12.0
 50
180.0
  0
INSERT
  5
1D87
330
2BF3
100
AcDbEntity
  8
SIZE
 62
     0
100
AcDbBlockReference
  2
_DOTBLANK
 10
134.5
 20
-448.0173952306
 30
0.0
 41
12.0
 42
12.0
 43
12.0
  0
INSERT
  5
1D88
330
2BF3
100
AcDbEntity
  8
0
100
AcDbBlockReference
  2
*U52
 10
0.0
 20
0.0
 30
0.0
  0
POINT
  5
1D89
330
2BF3
100
AcDbEntity
  8
DEFPOINTS
 62
     0
100
AcDbPoint
 10
-134.5
 20
-300.0
 30
0.0
  0
POINT
  5
1D8A
330
2BF3
100
AcDbEntity
  8
DEFPOINTS
 62
     0
100
AcDbPoint
 10
134.5
 20
-300.0
 30
0.0
  0
POINT
  5
1D8B
330
2BF3
100
AcDbEntity
  8
DEFPOINTS
 62
     0
100
AcDbPoint
 10
134.5
 20
-448.0173952306
 30
0.0
  0
ENDBLK
  5
173D
330
2BF3
100
AcDbEntity
  8
0
100
AcDbBlockEnd
  0
BLOCK
  5
2BF6
330
2BF5
100
AcDbEntity
  8
0
100
AcDbBlockBegin
  2
*U52
 70
     1
 10
0.0
 20
0.0
 30
0.0
  3
*U52
  1

  0
TEXT
  5
1F31
330
2BF5
100
AcDbEntity
  8
SIZE
 62
     0
100
AcDbText
 10
-72.68571428571426
 20
-438.0173952306003
 30
0.0
 40
64.0
  1
269
 41
0.9
100
AcDbText
  0
ENDBLK
  5
1F33
330
2BF5
100
AcDbEntity
  8
0
100
AcDbBlockEnd
  0
BLOCK
  5
2BF8
330
2BF7
100
AcDbEntity
  8
0
100
AcDbBlockBegin
  2
*D53
 70
     1
 10
0.0
 20
0.0
 30
0.0
  3
*D53
  1

  0
LINE
  5
1D8C
330
2BF7
100
AcDbEntity
  8
SIZE
 62
     0
100
AcDbLine
 10
154.5
 20
-300.0
 30
0.0
 11
304.6432844803784
 21
-300.0
 31
0.0
  0
LINE
  5
1D8D
330
2BF7
100
AcDbEntity
  8
SIZE
 62
     0
100
AcDbLine
 10
177.5
 20
-0.0000000000000057
 30
0.0
 11
304.6432844803785
 21
-0.0000000000000417
 31
0.0
  0
LINE
  5
1D8E
330
2BF7
100
AcDbEntity
  8
SIZE
 62
     0
100
AcDbLine
 10
284.6432844803784
 20
-288.0
 30
0.0
 11
284.6432844803785
 21
-12.00000000000003
 31
0.0
  0
INSERT
  5
1D8F
330
2BF7
100
AcDbEntity
  8
SIZE
 62
     0
100
AcDbBlockReference
  2
_DOTBLANK
 10
284.6432844803784
 20
-300.0
 30
0.0
 41
12.0
 42
12.0
 43
12.0
 50
270.0
  0
INSERT
  5
1D90
330
2BF7
100
AcDbEntity
  8
SIZE
 62
     0
100
AcDbBlockReference
  2
_DOTBLANK
 10
284.6432844803785
 20
-0.000000000000036
 30
0.0
 41
12.0
 42
12.0
 43
12.0
 50
90.0
  0
INSERT
  5
1D91
330
2BF7
100
AcDbEntity
  8
0
100
AcDbBlockReference
  2
*U54
 10
0.0
 20
0.0
 30
0.0
  0
POINT
  5
1D92
330
2BF7
100
AcDbEntity
  8
DEFPOINTS
 62
     0
100
AcDbPoint
 10
134.5
 20
-300.0
 30
0.0
  0
POINT
  5
1D93
330
2BF7
100
AcDbEntity
  8
DEFPOINTS
 62
     0
100
AcDbPoint
 10
157.5
 20
0.0
 30
0.0
  0
POINT
  5
1D94
330
2BF7
100
AcDbEntity
  8
DEFPOINTS
 62
     0
100
AcDbPoint
 10
284.6432844803785
 20
-0.000000000000036
 30
0.0
  0
ENDBLK
  5
1749
330
2BF7
100
AcDbEntity
  8
0
100
AcDbBlockEnd
  0
BLOCK
  5
2BFA
330
2BF9
100
AcDbEntity
  8
0
100
AcDbBlockBegin
  2
*U54
 70
     1
 10
0.0
 20
0.0
 30
0.0
  3
*U54
  1

  0
TEXT
  5
1F35
330
2BF9
100
AcDbEntity
  8
SIZE
 62
     0
100
AcDbText
 10
274.6432844803785
 20
-224.0571428571429
 30
0.0
 40
64.0
  1
300
 50
90.0
 41
0.9
100
AcDbText
  0
ENDBLK
  5
1F37
330
2BF9
100
AcDbEntity
  8
0
100
AcDbBlockEnd
  0
BLOCK
  5
2BFC
330
2BFB
100
AcDbEntity
  8
0
100
AcDbBlockBegin
  2
*D55
 70
     1
 10
0.0
 20
0.0
 30
0.0
  3
*D55
  1

  0
LINE
  5
1D95
330
2BFB
100
AcDbEntity
  8
SIZE
 62
     0
100
AcDbLine
 10
-140.0
 20
32.46448280219375
 30
0.0
 11
-140.0
 21
136.4516878685508
 31
0.0
  0
LINE
  5
1D96
330
2BFB
100
AcDbEntity
  8
SIZE
 62
     0
100
AcDbLine
 10
140.0
 20
32.46448280219375
 30
0.0
 11
140.0
 21
136.4516878685508
 31
0.0
  0
LINE
  5
1D97
330
2BFB
100
AcDbEntity
  8
SIZE
 62
     0
100
AcDbLine
 10
-128.0
 20
116.4516878685508
 30
0.0
 11
128.0
 21
116.4516878685508
 31
0.0
  0
INSERT
  5
1D98
330
2BFB
100
AcDbEntity
  8
SIZE
 62
     0
100
AcDbBlockReference
  2
_DOTBLANK
 10
-140.0
 20
116.4516878685508
 30
0.0
 41
12.0
 42
12.0
 43
12.0
 50
180.0
  0
INSERT
  5
1D99
330
2BFB
100
AcDbEntity
  8
SIZE
 62
     0
100
AcDbBlockReference
  2
_DOTBLANK
 10
140.0
 20
116.4516878685508
 30
0.0
 41
12.0
 42
12.0
 43
12.0
  0
INSERT
  5
1D9A
330
2BFB
100
AcDbEntity
  8
0
100
AcDbBlockReference
  2
*U56
 10
0.0
 20
0.0
 30
0.0
  0
POINT
  5
1D9B
330
2BFB
100
AcDbEntity
  8
DEFPOINTS
 62
     0
100
AcDbPoint
 10
-140.0
 20
12.46448280219374
 30
0.0
  0
POINT
  5
1D9C
330
2BFB
100
AcDbEntity
  8
DEFPOINTS
 62
     0
100
AcDbPoint
 10
140.0
 20
12.46448280219374
 30
0.0
  0
POINT
  5
1D9D
330
2BFB
100
AcDbEntity
  8
DEFPOINTS
 62
     0
100
AcDbPoint
 10
140.0
 20
116.4516878685508
 30
0.0
  0
ENDBLK
  5
1755
330
2BFB
100
AcDbEntity
  8
0
100
AcDbBlockEnd
  0
BLOCK
  5
2BFE
330
2BFD
100
AcDbEntity
  8
0
100
AcDbBlockBegin
  2
*U56
 70
     1
 10
0.0
 20
0.0
 30
0.0
  3
*U56
  1

  0
TEXT
  5
1F39
330
2BFD
100
AcDbEntity
  8
SIZE
 62
     0
100
AcDbText
 10
-74.05714285714283
 20
126.4516878685508
 30
0.0
 40
64.0
  1
280
 41
0.9
100
AcDbText
  0
ENDBLK
  5
1F3B
330
2BFD
100
AcDbEntity
  8
0
100
AcDbBlockEnd
  0
BLOCK
  5
2C00
330
2BFF
100
AcDbEntity
  8
0
100
AcDbBlockBegin
  2
*D57
 70
     1
 10
0.0
 20
0.0
 30
0.0
  3
*D57
  1

  0
LINE
  5
1D9E
330
2BFF
100
AcDbEntity
  8
SIZE
 62
     0
100
AcDbLine
 10
-157.5
 20
20.0
 30
0.0
 11
-157.5
 21
245.5794621189598
 31
0.0
  0
LINE
  5
1D9F
330
2BFF
100
AcDbEntity
  8
SIZE
 62
     0
100
AcDbLine
 10
157.5
 20
20.0
 30
0.0
 11
157.5
 21
245.5794621189598
 31
0.0
  0
LINE
  5
1DA0
330
2BFF
100
AcDbEntity
  8
SIZE
 62
     0
100
AcDbLine
 10
-145.5
 20
225.5794621189598
 30
0.0
 11
145.5
 21
225.5794621189598
 31
0.0
  0
INSERT
  5
1DA1
330
2BFF
100
AcDbEntity
  8
SIZE
 62
     0
100
AcDbBlockReference
  2
_DOTBLANK
 10
-157.5
 20
225.5794621189598
 30
0.0
 41
12.0
 42
12.0
 43
12.0
 50
180.0
  0
INSERT
  5
1DA2
330
2BFF
100
AcDbEntity
  8
SIZE
 62
     0
100
AcDbBlockReference
  2
_DOTBLANK
 10
157.5
 20
225.5794621189598
 30
0.0
 41
12.0
 42
12.0
 43
12.0
  0
INSERT
  5
1DA3
330
2BFF
100
AcDbEntity
  8
0
100
AcDbBlockReference
  2
*U58
 10
0.0
 20
0.0
 30
0.0
  0
POINT
  5
1DA4
330
2BFF
100
AcDbEntity
  8
DEFPOINTS
 62
     0
100
AcDbPoint
 10
-157.5
 20
0.0
 30
0.0
  0
POINT
  5
1DA5
330
2BFF
100
AcDbEntity
  8
DEFPOINTS
 62
     0
100
AcDbPoint
 10
157.5
 20
0.0
 30
0.0
  0
POINT
  5
1DA6
330
2BFF
100
AcDbEntity
  8
DEFPOINTS
 62
     0
100
AcDbPoint
 10
157.5
 20
225.5794621189598
 30
0.0
  0
ENDBLK
  5
1761
330
2BFF
100
AcDbEntity
  8
0
100
AcDbBlockEnd
  0
BLOCK
  5
2C02
330
2C01
100
AcDbEntity
  8
0
100
AcDbBlockBegin
  2
*U58
 70
     1
 10
0.0
 20
0.0
 30
0.0
  3
*U58
  1

  0
TEXT
  5
1F3D
330
2C01
100
AcDbEntity
  8
SIZE
 62
     0
100
AcDbText
 10
-68.57142857142857
 20
235.5794621189599
 30
0.0
 40
64.0
  1
315
 41
0.9
100
AcDbText
  0
ENDBLK
  5
1F3F
330
2C01
100
AcDbEntity
  8
0
100
AcDbBlockEnd
  0
BLOCK
  5
2C04
330
2C03
100
AcDbEntity
  8
0
100
AcDbBlockBegin
  2
*D59
 70
     1
 10
0.0
 20
0.0
 30
0.0
  3
*D59
  1

  0
LINE
  5
1DA7
330
2C03
100
AcDbEntity
  8
SIZE
 62
     0
100
AcDbLine
 10
-177.5
 20
0.0000000000000057
 30
0.0
 11
-314.0264221186908
 21
0.0000000000000443
 31
0.0
  0
LINE
  5
1DA8
330
2C03
100
AcDbEntity
  8
SIZE
 62
     0
100
AcDbLine
 10
-177.5
 20
-7.999999999999993
 30
0.0
 11
-314.0264221186908
 21
-7.999999999999958
 31
0.0
  0
LINE
  5
1DA9
330
2C03
100
AcDbEntity
  8
SIZE
 62
     0
100
AcDbLine
 10
-294.0264221186908
 20
12.00000000000003
 30
0.0
 11
-294.0264221186908
 21
24.00000000000004
 31
0.0
  0
LINE
  5
1DAA
330
2C03
100
AcDbEntity
  8
SIZE
 62
     0
100
AcDbLine
 10
-294.0264221186908
 20
-19.99999999999996
 30
0.0
 11
-294.0264221186908
 21
-90.39999999999997
 31
0.0
  0
INSERT
  5
1DAB
330
2C03
100
AcDbEntity
  8
SIZE
 62
     0
100
AcDbBlockReference
  2
_DOTBLANK
 10
-294.0264221186908
 20
0.0000000000000387
 30
0.0
 41
12.0
 42
12.0
 43
12.0
 50
270.0
  0
INSERT
  5
1DAC
330
2C03
100
AcDbEntity
  8
SIZE
 62
     0
100
AcDbBlockReference
  2
_DOTBLANK
 10
-294.0264221186908
 20
-7.999999999999961
 30
0.0
 41
12.0
 42
12.0
 43
12.0
 50
90.0
  0
INSERT
  5
1DAD
330
2C03
100
AcDbEntity
  8
0
100
AcDbBlockReference
  2
*U60
 10
0.0
 20
0.0
 30
0.0
  0
POINT
  5
1DAE
330
2C03
100
AcDbEntity
  8
DEFPOINTS
 62
     0
100
AcDbPoint
 10
-157.5
 20
0.0
 30
0.0
  0
POINT
  5
1DAF
330
2C03
100
AcDbEntity
  8
DEFPOINTS
 62
     0
100
AcDbPoint
 10
-157.5
 20
-8.000000000000003
 30
0.0
  0
POINT
  5
1DB0
330
2C03
100
AcDbEntity
  8
DEFPOINTS
 62
     0
100
AcDbPoint
 10
-294.0264221186908
 20
-7.999999999999961
 30
0.0
  0
ENDBLK
  5
176D
330
2C03
100
AcDbEntity
  8
0
100
AcDbBlockEnd
  0
BLOCK
  5
2C06
330
2C05
100
AcDbEntity
  8
0
100
AcDbBlockBegin
  2
*U60
 70
     1
 10
0.0
 20
0.0
 30
0.0
  3
*U60
  1

  0
TEXT
  5
1F41
330
2C05
100
AcDbEntity
  8
SIZE
 62
     0
100
AcDbText
 10
-304.0264221186908
 20
-80.4
 30
0.0
 40
64.0
  1
8
 50
90.0
 41
0.9
100
AcDbText
  0
ENDBLK
  5
1F43
330
2C05
100
AcDbEntity
  8
0
100
AcDbBlockEnd
  0
BLOCK
  5
2C08
330
2C07
100
AcDbEntity
  8
0
100
AcDbBlockBegin
  2
*D61
 70
     1
 10
0.0
 20
0.0
 30
0.0
  3
*D61
  1

  0
LINE
  5
1DB1
330
2C07
100
AcDbEntity
  8
SIZE
 62
     0
100
AcDbLine
 10
154.5
 20
-300.0
 30
0.0
 11
304.6432844803785
 21
-300.0
 31
0.0
  0
LINE
  5
1DB2
330
2C07
100
AcDbEntity
  8
SIZE
 62
     0
100
AcDbLine
 10
143.5
 20
-312.0
 30
0.0
 11
304.6432844803785
 21
-312.0
 31
0.0
  0
LINE
  5
1DB3
330
2C07
100
AcDbEntity
  8
SIZE
 62
     0
100
AcDbLine
 10
284.6432844803785
 20
-288.0
 30
0.0
 11
284.6432844803785
 21
-276.0
 31
0.0
  0
LINE
  5
1DB4
330
2C07
100
AcDbEntity
  8
SIZE
 62
     0
100
AcDbLine
 10
284.6432844803785
 20
-324.0000000000001
 30
0.0
 11
284.6432844803784
 21
-438.2857142857143
 31
0.0
  0
INSERT
  5
1DB5
330
2C07
100
AcDbEntity
  8
SIZE
 62
     0
100
AcDbBlockReference
  2
_DOTBLANK
 10
284.6432844803785
 20
-300.0
 30
0.0
 41
12.0
 42
12.0
 43
12.0
 50
270.0
  0
INSERT
  5
1DB6
330
2C07
100
AcDbEntity
  8
SIZE
 62
     0
100
AcDbBlockReference
  2
_DOTBLANK
 10
284.6432844803785
 20
-312.0
 30
0.0
 41
12.0
 42
12.0
 43
12.0
 50
90.0
  0
INSERT
  5
1DB7
330
2C07
100
AcDbEntity
  8
0
100
AcDbBlockReference
  2
*U62
 10
0.0
 20
0.0
 30
0.0
  0
POINT
  5
1DB8
330
2C07
100
AcDbEntity
  8
DEFPOINTS
 62
     0
100
AcDbPoint
 10
134.5
 20
-300.0
 30
0.0
  0
POINT
  5
1DB9
330
2C07
100
AcDbEntity
  8
DEFPOINTS
 62
     0
100
AcDbPoint
 10
123.5
 20
-312.0
 30
0.0
  0
POINT
  5
1DBA
330
2C07
100
AcDbEntity
  8
DEFPOINTS
 62
     0
100
AcDbPoint
 10
284.6432844803785
 20
-312.0
 30
0.0
  0
ENDBLK
  5
177B
330
2C07
100
AcDbEntity
  8
0
100
AcDbBlockEnd
  0
BLOCK
  5
2C0A
330
2C09
100
AcDbEntity
  8
0
100
AcDbBlockBegin
  2
*U62
 70
     1
 10
0.0
 20
0.0
 30
0.0
  3
*U62
  1

  0
TEXT
  5
1F45
330
2C09
100
AcDbEntity
  8
SIZE
 62
     0
100
AcDbText
 10
274.6432844803785
 20
-428.2857142857142
 30
0.0
 40
64.0
  1
12
 50
90.0
 41
0.9
100
AcDbText
  0
ENDBLK
  5
1F47
330
2C09
100
AcDbEntity
  8
0
100
AcDbBlockEnd
  0
BLOCK
  5
2C0C
330
2C0B
100
AcDbEntity
  8
0
100
AcDbBlockBegin
  2
*U63
 70
     1
 10
0.0
 20
0.0
 30
0.0
  3
*U63
  1

  0
ENDBLK
  5
1D57
330
2C0B
100
AcDbEntity
  8
0
100
AcDbBlockEnd
  0
BLOCK
  5
2C0E
330
2C0D
100
AcDbEntity
  8
0
100
AcDbBlockBegin
  2
*U64
 70
     1
 10
0.0
 20
0.0
 30
0.0
  3
*U64
  1

  0
INSERT
  5
2087
330
2C0D
100
AcDbEntity
  8
NOTE
100
AcDbBlockReference
  2
_OPEN30
 10
-280.0
 20
0.0
 30
0.0
 41
12.0
 42
12.0
 43
12.0
 50
312.6090116116894
  0
POLYLINE
  5
2088
330
2C0D
100
AcDbEntity
  8
NOTE
100
AcDb2dPolyline
 66
     1
 10
0.0
 20
0.0
 30
0.0
  0
VERTEX
  5
2AAF
330
2088
100
AcDbEntity
  8
NOTE
100
AcDbVertex
100
AcDb2dVertex
 10
-288.1239008361895
 20
8.831887408915472
 30
0.0
  0
VERTEX
  5
2AB0
330
2088
100
AcDbEntity
  8
NOTE
100
AcDbVertex
100
AcDb2dVertex
 10
-367.8693999922543
 20
95.52709505801338
 30
0.0
  0
VERTEX
  5
2AB1
330
2088
100
AcDbEntity
  8
NOTE
100
AcDbVertex
100
AcDb2dVertex
 10
-913.7093999922541
 20
95.52709505801338
 30
0.0
  0
SEQEND
  5
2AB2
330
2088
100
AcDbEntity
  8
NOTE
  0
ENDBLK
  5
2089
330
2C0D
100
AcDbEntity
  8
0
100
AcDbBlockEnd
  0
BLOCK
  5
2C10
330
2C0F
100
AcDbEntity
  8
0
100
AcDbBlockBegin
  2
*U65
 70
     1
 10
0.0
 20
0.0
 30
0.0
  3
*U65
  1

  0
TEXT
  5
208C
330
2C0F
100
AcDbEntity
  8
NOTE
100
AcDbText
 10
-913.7093999922541
 20
113.5270950580134
 30
0.0
 40
64.0
  1
4×φ15取付穴
 41
0.9
100
AcDbText
  0
ENDBLK
  5
208D
330
2C0F
100
AcDbEntity
  8
0
100
AcDbBlockEnd
  0
BLOCK
  5
2C12
330
2C11
100
AcDbEntity
  8
0
100
AcDbBlockBegin
  2
*U66
 70
     1
 10
0.0
 20
0.0
 30
0.0
  3
*U66
  1

  0
INSERT
  5
2165
330
2C11
100
AcDbEntity
  8
NOTE
100
AcDbBlockReference
  2
_OPEN30
 10
280.0000000000036
 20
280.0000000000018
 30
0.0
 41
12.0
 42
12.0
 43
12.0
 50
230.7091310502216
  0
POLYLINE
  5
2166
330
2C11
100
AcDbEntity
  8
NOTE
100
AcDb2dPolyline
 66
     1
 10
0.0
 20
0.0
 30
0.0
  0
VERTEX
  5
2AB3
330
2166
100
AcDbEntity
  8
NOTE
100
AcDbVertex
100
AcDb2dVertex
 10
287.5990904809256
 20
289.287293678074
 30
0.0
  0
VERTEX
  5
2AB4
330
2166
100
AcDbEntity
  8
NOTE
100
AcDbVertex
100
AcDb2dVertex
 10
343.4345623698646
 20
357.5270950580152
 30
0.0
  0
VERTEX
  5
2AB5
330
2166
100
AcDbEntity
  8
NOTE
100
AcDbVertex
100
AcDb2dVertex
 10
889.2745623698646
 20
357.5270950580152
 30
0.0
  0
SEQEND
  5
2AB6
330
2166
100
AcDbEntity
  8
NOTE
  0
ENDBLK
  5
2167
330
2C11
100
AcDbEntity
  8
0
100
AcDbBlockEnd
  0
BLOCK
  5
2C14
330
2C13
100
AcDbEntity
  8
0
100
AcDbBlockBegin
  2
*U67
 70
     1
 10
0.0
 20
0.0
 30
0.0
  3
*U67
  1

  0
TEXT
  5
216A
330
2C13
100
AcDbEntity
  8
NOTE
100
AcDbText
 10
405.4345623698646
 20
375.5270950580152
 30
0.0
 40
64.0
  1
4×φ15取付穴
 41
0.9
100
AcDbText
  0
ENDBLK
  5
216B
330
2C13
100
AcDbEntity
  8
0
100
AcDbBlockEnd
  0
BLOCK
  5
2C16
330
2C15
100
AcDbEntity
  8
0
100
AcDbBlockBegin
  2
*U68
 70
     1
 10
0.0
 20
0.0
 30
0.0
  3
*U68
  1

  0
INSERT
  5
223C
330
2C15
100
AcDbEntity
  8
NOTE
100
AcDbBlockReference
  2
_OPEN30
 10
279.9999999999964
 20
280.0000000000018
 30
0.0
 41
12.0
 42
12.0
 43
12.0
 50
232.3258907693334
  0
POLYLINE
  5
223D
330
2C15
100
AcDbEntity
  8
NOTE
100
AcDb2dPolyline
 66
     1
 10
0.0
 20
0.0
 30
0.0
  0
VERTEX
  5
2AB7
330
223D
100
AcDbEntity
  8
NOTE
100
AcDbVertex
100
AcDb2dVertex
 10
287.3340332839413
 20
289.4979974620982
 30
0.0
  0
VERTEX
  5
2AB8
330
223D
100
AcDbEntity
  8
NOTE
100
AcDbVertex
100
AcDb2dVertex
 10
353.7628007872045
 20
375.5270950580142
 30
0.0
  0
VERTEX
  5
2AB9
330
223D
100
AcDbEntity
  8
NOTE
100
AcDbVertex
100
AcDb2dVertex
 10
899.6028007872046
 20
375.5270950580142
 30
0.0
  0
SEQEND
  5
2ABA
330
223D
100
AcDbEntity
  8
NOTE
  0
ENDBLK
  5
223E
330
2C15
100
AcDbEntity
  8
0
100
AcDbBlockEnd
  0
BLOCK
  5
2C18
330
2C17
100
AcDbEntity
  8
0
100
AcDbBlockBegin
  2
*U69
 70
     1
 10
0.0
 20
0.0
 30
0.0
  3
*U69
  1

  0
TEXT
  5
2241
330
2C17
100
AcDbEntity
  8
NOTE
100
AcDbText
 10
415.7628007872045
 20
393.5270950580143
 30
0.0
 40
64.0
  1
4×φ15取付穴
 41
0.9
100
AcDbText
  0
ENDBLK
  5
2242
330
2C17
100
AcDbEntity
  8
0
100
AcDbBlockEnd
  0
BLOCK
  5
2C1A
330
2C19
100
AcDbEntity
  8
0
100
AcDbBlockBegin
  2
*U70
 70
     1
 10
0.0
 20
0.0
 30
0.0
  3
*U70
  1

  0
INSERT
  5
232F
330
2C19
100
AcDbEntity
  8
NOTE
100
AcDbBlockReference
  2
_OPEN30
 10
0.0
 20
280.0
 30
0.0
 41
12.0
 42
12.0
 43
12.0
 50
312.6090116116895
  0
POLYLINE
  5
2330
330
2C19
100
AcDbEntity
  8
NOTE
100
AcDb2dPolyline
 66
     1
 10
0.0
 20
0.0
 30
0.0
  0
VERTEX
  5
2ABB
330
2330
100
AcDbEntity
  8
NOTE
100
AcDbVertex
100
AcDb2dVertex
 10
-8.123900836189513
 20
288.8318874089155
 30
0.0
  0
VERTEX
  5
2ABC
330
2330
100
AcDbEntity
  8
NOTE
100
AcDbVertex
100
AcDb2dVertex
 10
-87.86939999225436
 20
375.527095058013
 30
0.0
  0
VERTEX
  5
2ABD
330
2330
100
AcDbEntity
  8
NOTE
100
AcDbVertex
100
AcDb2dVertex
 10
-633.7093999922545
 20
375.527095058013
 30
0.0
  0
SEQEND
  5
2ABE
330
2330
100
AcDbEntity
  8
NOTE
  0
ENDBLK
  5
2331
330
2C19
100
AcDbEntity
  8
0
100
AcDbBlockEnd
  0
BLOCK
  5
2C1C
330
2C1B
100
AcDbEntity
  8
0
100
AcDbBlockBegin
  2
*U71
 70
     1
 10
0.0
 20
0.0
 30
0.0
  3
*U71
  1

  0
TEXT
  5
2334
330
2C1B
100
AcDbEntity
  8
NOTE
100
AcDbText
 10
-633.7093999922545
 20
393.527095058013
 30
0.0
 40
64.0
  1
4×φ15取付穴
 41
0.9
100
AcDbText
  0
ENDBLK
  5
2335
330
2C1B
100
AcDbEntity
  8
0
100
AcDbBlockEnd
  0
BLOCK
  5
2C1E
330
2C1D
100
AcDbEntity
  8
0
100
AcDbBlockBegin
  2
*U72
 70
     1
 10
0.0
 20
0.0
 30
0.0
  3
*U72
  1

  0
INSERT
  5
25A6
330
2C1D
100
AcDbEntity
  8
NOTE
100
AcDbBlockReference
  2
_OPEN30
 10
0.0
 20
280.0000000000001
 30
0.0
 41
12.0
 42
12.0
 43
12.0
 50
227.3909883883105
  0
POLYLINE
  5
25A7
330
2C1D
100
AcDbEntity
  8
NOTE
100
AcDb2dPolyline
 66
     1
 10
0.0
 20
0.0
 30
0.0
  0
VERTEX
  5
2ACB
330
25A7
100
AcDbEntity
  8
NOTE
100
AcDbVertex
100
AcDb2dVertex
 10
8.123900836189514
 20
288.8318874089155
 30
0.0
  0
VERTEX
  5
2ACC
330
25A7
100
AcDbEntity
  8
NOTE
100
AcDbVertex
100
AcDb2dVertex
 10
87.86939999225436
 20
375.527095058013
 30
0.0
  0
VERTEX
  5
2ACD
330
25A7
100
AcDbEntity
  8
NOTE
100
AcDbVertex
100
AcDb2dVertex
 10
633.7093999922545
 20
375.527095058013
 30
0.0
  0
SEQEND
  5
2ACE
330
25A7
100
AcDbEntity
  8
NOTE
  0
ENDBLK
  5
25A8
330
2C1D
100
AcDbEntity
  8
0
100
AcDbBlockEnd
  0
BLOCK
  5
2C20
330
2C1F
100
AcDbEntity
  8
0
100
AcDbBlockBegin
  2
*U73
 70
     1
 10
0.0
 20
0.0
 30
0.0
  3
*U73
  1

  0
TEXT
  5
25AB
330
2C1F
100
AcDbEntity
  8
NOTE
100
AcDbText
 10
149.8693999922543
 20
393.5270950580132
 30
0.0
 40
64.0
  1
4×φ15取付穴
 41
0.9
100
AcDbText
  0
ENDBLK
  5
25AC
330
2C1F
100
AcDbEntity
  8
0
100
AcDbBlockEnd
  0
BLOCK
  5
2C22
330
2C21
100
AcDbEntity
  8
0
100
AcDbBlockBegin
  2
*U74
 70
     1
 10
0.0
 20
0.0
 30
0.0
  3
*U74
  1

  0
INSERT
  5
26E0
330
2C21
100
AcDbEntity
  8
NOTE
100
AcDbBlockReference
  2
_OPEN30
 10
-280.0
 20
0.0
 30
0.0
 41
12.0
 42
12.0
 43
12.0
 50
312.6090116116894
  0
POLYLINE
  5
26E1
330
2C21
100
AcDbEntity
  8
NOTE
100
AcDb2dPolyline
 66
     1
 10
0.0
 20
0.0
 30
0.0
  0
VERTEX
  5
2ACF
330
26E1
100
AcDbEntity
  8
NOTE
100
AcDbVertex
100
AcDb2dVertex
 10
-288.1239008361895
 20
8.831887408915472
 30
0.0
  0
VERTEX
  5
2AD0
330
26E1
100
AcDbEntity
  8
NOTE
100
AcDbVertex
100
AcDb2dVertex
 10
-367.8693999922543
 20
95.52709505801338
 30
0.0
  0
VERTEX
  5
2AD1
330
26E1
100
AcDbEntity
  8
NOTE
100
AcDbVertex
100
AcDb2dVertex
 10
-913.7093999922541
 20
95.52709505801338
 30
0.0
  0
SEQEND
  5
2AD2
330
26E1
100
AcDbEntity
  8
NOTE
  0
ENDBLK
  5
26E2
330
2C21
100
AcDbEntity
  8
0
100
AcDbBlockEnd
  0
BLOCK
  5
2C24
330
2C23
100
AcDbEntity
  8
0
100
AcDbBlockBegin
  2
*U75
 70
     1
 10
0.0
 20
0.0
 30
0.0
  3
*U75
  1

  0
TEXT
  5
26E5
330
2C23
100
AcDbEntity
  8
NOTE
100
AcDbText
 10
-913.7093999922541
 20
113.5270950580134
 30
0.0
 40
64.0
  1
4×φ15取付穴
 41
0.9
100
AcDbText
  0
ENDBLK
  5
26E6
330
2C23
100
AcDbEntity
  8
0
100
AcDbBlockEnd
  0
BLOCK
  5
2C26
330
2C25
100
AcDbEntity
  8
0
100
AcDbBlockBegin
  2
*X76
 70
     1
 10
0.0
 20
0.0
 30
0.0
  3
*X76
  1

  0
LINE
  5
26E9
330
2C25
100
AcDbEntity
  8
0
 62
     0
100
AcDbLine
 10
249.5252036356342
 20
-576.2000000000007
 30
0.0
 11
250.6999999999844
 21
-575.4168044236812
 31
0.0
  0
LINE
  5
26EA
330
2C25
100
AcDbEntity
  8
0
 62
     0
100
AcDbLine
 10
245.0252423417496
 20
-576.2000000000025
 30
0.0
 11
250.6999999999844
 21
-572.4168378882675
 31
0.0
  0
LINE
  5
26EB
330
2C25
100
AcDbEntity
  8
0
 62
     0
100
AcDbLine
 10
240.5252810478633
 20
-576.2000000000007
 30
0.0
 11
250.6999999999844
 21
-569.4168713528487
 31
0.0
  0
LINE
  5
26EC
330
2C25
100
AcDbEntity
  8
0
 62
     0
100
AcDbLine
 10
236.0253197539769
 20
-576.2000000000007
 30
0.0
 11
250.6999999999844
 21
-566.4169048174334
 31
0.0
  0
LINE
  5
26ED
330
2C25
100
AcDbEntity
  8
0
 62
     0
100
AcDbLine
 10
231.5253584600923
 20
-576.2000000000007
 30
0.0
 11
250.6999999999844
 21
-563.4169382820162
 31
0.0
  0
LINE
  5
26EE
330
2C25
100
AcDbEntity
  8
0
 62
     0
100
AcDbLine
 10
227.0253971662059
 20
-576.2000000000007
 30
0.0
 11
250.6999999999826
 21
-560.4169717466011
 31
0.0
  0
LINE
  5
26EF
330
2C25
100
AcDbEntity
  8
0
 62
     0
100
AcDbLine
 10
222.5254358723214
 20
-576.2000000000025
 30
0.0
 11
250.6999999999844
 21
-557.4170052111857
 31
0.0
  0
LINE
  5
26F0
330
2C25
100
AcDbEntity
  8
0
 62
     0
100
AcDbLine
 10
218.0254745784332
 20
-576.2000000000007
 30
0.0
 11
250.6999999999844
 21
-554.4170386757665
 31
0.0
  0
LINE
  5
26F1
330
2C25
100
AcDbEntity
  8
0
 62
     0
100
AcDbLine
 10
213.5255132845486
 20
-576.1999999999988
 30
0.0
 11
250.6999999999826
 21
-551.4170721403512
 31
0.0
  0
LINE
  5
26F2
330
2C25
100
AcDbEntity
  8
0
 62
     0
100
AcDbLine
 10
209.0255519906605
 20
-576.2000000000025
 30
0.0
 11
250.6999999999844
 21
-548.4171056049343
 31
0.0
  0
LINE
  5
26F3
330
2C25
100
AcDbEntity
  8
0
 62
     0
100
AcDbLine
 10
204.5255906967796
 20
-576.2000000000025
 30
0.0
 11
250.6999999999844
 21
-545.417139069521
 31
0.0
  0
LINE
  5
26F4
330
2C25
100
AcDbEntity
  8
0
 62
     0
100
AcDbLine
 10
200.0256294028913
 20
-576.2000000000025
 30
0.0
 11
250.6999999999844
 21
-542.4171725341039
 31
0.0
  0
LINE
  5
26F5
330
2C25
100
AcDbEntity
  8
0
 62
     0
100
AcDbLine
 10
195.5256681090085
 20
-576.1999999999988
 30
0.0
 11
250.6999999999826
 21
-539.4172059986868
 31
0.0
  0
LINE
  5
26F6
330
2C25
100
AcDbEntity
  8
0
 62
     0
100
AcDbLine
 10
191.0257068151221
 20
-576.2000000000007
 30
0.0
 11
250.6999999999844
 21
-536.4172394632714
 31
0.0
  0
LINE
  5
26F7
330
2C25
100
AcDbEntity
  8
0
 62
     0
100
AcDbLine
 10
186.5257455212359
 20
-576.2000000000025
 30
0.0
 11
250.6999999999862
 21
-533.4172729278543
 31
0.0
  0
LINE
  5
26F8
330
2C25
100
AcDbEntity
  8
0
 62
     0
100
AcDbLine
 10
182.0257842273512
 20
-576.2000000000007
 30
0.0
 11
250.6999999999826
 21
-530.4173063924389
 31
0.0
  0
LINE
  5
26F9
330
2C25
100
AcDbEntity
  8
0
 62
     0
100
AcDbLine
 10
177.5258229334667
 20
-576.2000000000007
 30
0.0
 11
250.6999999999826
 21
-527.4173398570236
 31
0.0
  0
LINE
  5
26FA
330
2C25
100
AcDbEntity
  8
0
 62
     0
100
AcDbLine
 10
173.0258616395804
 20
-576.2000000000007
 30
0.0
 11
250.6999999999844
 21
-524.4173733216066
 31
0.0
  0
LINE
  5
26FB
330
2C25
100
AcDbEntity
  8
0
 62
     0
100
AcDbLine
 10
168.525900345694
 20
-576.2000000000025
 30
0.0
 11
250.6999999999862
 21
-521.4174067861913
 31
0.0
  0
LINE
  5
26FC
330
2C25
100
AcDbEntity
  8
0
 62
     0
100
AcDbLine
 10
164.0259390518094
 20
-576.2000000000007
 30
0.0
 11
250.6999999999826
 21
-518.4174402507742
 31
0.0
  0
LINE
  5
26FD
330
2C25
100
AcDbEntity
  8
0
 62
     0
100
AcDbLine
 10
159.5259777579213
 20
-576.2000000000025
 30
0.0
 11
250.6999999999862
 21
-515.4174737153571
 31
0.0
  0
LINE
  5
26FE
330
2C25
100
AcDbEntity
  8
0
 62
     0
100
AcDbLine
 10
155.0260164640367
 20
-576.2000000000007
 30
0.0
 11
250.6999999999826
 21
-512.4175071799418
 31
0.0
  0
LINE
  5
26FF
330
2C25
100
AcDbEntity
  8
0
 62
     0
100
AcDbLine
 10
150.5260551701503
 20
-576.2000000000007
 30
0.0
 11
250.6999999999844
 21
-509.4175406445248
 31
0.0
  0
LINE
  5
2700
330
2C25
100
AcDbEntity
  8
0
 62
     0
100
AcDbLine
 10
146.0260938762676
 20
-576.2000000000007
 30
0.0
 11
250.6999999999826
 21
-506.4175741091111
 31
0.0
  0
LINE
  5
2701
330
2C25
100
AcDbEntity
  8
0
 62
     0
100
AcDbLine
 10
141.526132582383
 20
-576.2000000000007
 30
0.0
 11
250.6999999999862
 21
-503.4176075736922
 31
0.0
  0
LINE
  5
2702
330
2C25
100
AcDbEntity
  8
0
 62
     0
100
AcDbLine
 10
137.026171288493
 20
-576.2000000000007
 30
0.0
 11
250.6999999999844
 21
-500.4176410382751
 31
0.0
  0
LINE
  5
2703
330
2C25
100
AcDbEntity
  8
0
 62
     0
100
AcDbLine
 10
132.5262099946121
 20
-576.2000000000007
 30
0.0
 11
250.6999999999844
 21
-497.4176745028617
 31
0.0
  0
LINE
  5
2704
330
2C25
100
AcDbEntity
  8
0
 62
     0
100
AcDbLine
 10
128.0262487007258
 20
-576.2000000000007
 30
0.0
 11
250.6999999999862
 21
-494.4177079674445
 31
0.0
  0
LINE
  5
2705
330
2C25
100
AcDbEntity
  8
0
 62
     0
100
AcDbLine
 10
123.5262874068394
 20
-576.2000000000007
 30
0.0
 11
250.6999999999826
 21
-491.4177414320293
 31
0.0
  0
LINE
  5
2706
330
2C25
100
AcDbEntity
  8
0
 62
     0
100
AcDbLine
 10
119.0263261129512
 20
-576.2000000000007
 30
0.0
 11
250.6999999999844
 21
-488.4177748966103
 31
0.0
  0
LINE
  5
2707
330
2C25
100
AcDbEntity
  8
0
 62
     0
100
AcDbLine
 10
114.5263648190703
 20
-576.2000000000007
 30
0.0
 11
250.6999999999826
 21
-485.4178083611969
 31
0.0
  0
LINE
  5
2708
330
2C25
100
AcDbEntity
  8
0
 62
     0
100
AcDbLine
 10
110.0264035251784
 20
-576.2000000000042
 30
0.0
 11
250.6999999999844
 21
-482.4178418257798
 31
0.0
  0
LINE
  5
2709
330
2C25
100
AcDbEntity
  8
0
 62
     0
100
AcDbLine
 10
105.5264422312957
 20
-576.2000000000007
 30
0.0
 11
250.6999999999844
 21
-479.4178752903625
 31
0.0
  0
LINE
  5
270A
330
2C25
100
AcDbEntity
  8
0
 62
     0
100
AcDbLine
 10
101.0264809374093
 20
-576.2000000000007
 30
0.0
 11
250.6999999999844
 21
-476.4179087549472
 31
0.0
  0
LINE
  5
270B
330
2C25
100
AcDbEntity
  8
0
 62
     0
100
AcDbLine
 10
96.52651964352845
 20
-576.1999999999988
 30
0.0
 11
250.6999999999862
 21
-473.4179422195283
 31
0.0
  0
LINE
  5
270C
330
2C25
100
AcDbEntity
  8
0
 62
     0
100
AcDbLine
 10
92.02655834963845
 20
-576.2000000000025
 30
0.0
 11
250.6999999999844
 21
-470.4179756841148
 31
0.0
  0
LINE
  5
270D
330
2C25
100
AcDbEntity
  8
0
 62
     0
100
AcDbLine
 10
87.52659705575386
 20
-576.2000000000025
 30
0.0
 11
250.6999999999844
 21
-467.4180091486976
 31
0.0
  0
LINE
  5
270E
330
2C25
100
AcDbEntity
  8
0
 62
     0
100
AcDbLine
 10
83.02663576186748
 20
-576.2000000000007
 30
0.0
 11
250.6999999999844
 21
-464.4180426132824
 31
0.0
  0
LINE
  5
270F
330
2C25
100
AcDbEntity
  8
0
 62
     0
100
AcDbLine
 10
78.52667446798476
 20
-576.1999999999988
 30
0.0
 11
250.6999999999844
 21
-461.4180760778654
 31
0.0
  0
LINE
  5
2710
330
2C25
100
AcDbEntity
  8
0
 62
     0
100
AcDbLine
 10
74.02671317409657
 20
-576.2000000000007
 30
0.0
 11
250.6999999999844
 21
-458.4181095424479
 31
0.0
  0
LINE
  5
2711
330
2C25
100
AcDbEntity
  8
0
 62
     0
100
AcDbLine
 10
69.52675188021203
 20
-576.2000000000025
 30
0.0
 11
250.6999999999844
 21
-455.4181430070348
 31
0.0
  0
LINE
  5
2712
330
2C25
100
AcDbEntity
  8
0
 62
     0
100
AcDbLine
 10
65.0267905863293
 20
-576.2000000000007
 30
0.0
 11
250.6999999999862
 21
-452.4181764716159
 31
0.0
  0
LINE
  5
2713
330
2C25
100
AcDbEntity
  8
0
 62
     0
100
AcDbLine
 10
60.52682929244109
 20
-576.1999999999988
 30
0.0
 11
250.6999999999826
 21
-449.4182099362006
 31
0.0
  0
LINE
  5
2714
330
2C25
100
AcDbEntity
  8
0
 62
     0
100
AcDbLine
 10
56.02686799855471
 20
-576.2000000000007
 30
0.0
 11
250.6999999999844
 21
-446.4182434007851
 31
0.0
  0
LINE
  5
2715
330
2C25
100
AcDbEntity
  8
0
 62
     0
100
AcDbLine
 10
51.52690670467018
 20
-576.2000000000025
 30
0.0
 11
250.6999999999844
 21
-443.4182768653696
 31
0.0
  0
LINE
  5
2716
330
2C25
100
AcDbEntity
  8
0
 62
     0
100
AcDbLine
 10
47.02694541078559
 20
-576.2000000000007
 30
0.0
 11
250.699999999988
 21
-440.418310329951
 31
0.0
  0
LINE
  5
2717
330
2C25
100
AcDbEntity
  8
0
 62
     0
100
AcDbLine
 10
42.52698411689562
 20
-576.2000000000025
 30
0.0
 11
250.6999999999862
 21
-437.4183437945338
 31
0.0
  0
LINE
  5
2718
330
2C25
100
AcDbEntity
  8
0
 62
     0
100
AcDbLine
 10
38.02702282301289
 20
-576.1999999999988
 30
0.0
 11
250.699999999988
 21
-434.4183772591168
 31
0.0
  0
LINE
  5
2719
330
2C25
100
AcDbEntity
  8
0
 62
     0
100
AcDbLine
 10
33.52706152912651
 20
-576.2000000000007
 30
0.0
 11
250.699999999988
 21
-431.4184107236997
 31
0.0
  0
LINE
  5
271A
330
2C25
100
AcDbEntity
  8
0
 62
     0
100
AcDbLine
 10
29.02710023524196
 20
-576.2000000000007
 30
0.0
 11
250.6999999999862
 21
-428.4184441882862
 31
0.0
  0
LINE
  5
271B
330
2C25
100
AcDbEntity
  8
0
 62
     0
100
AcDbLine
 10
24.52713894135741
 20
-576.2000000000007
 30
0.0
 11
250.699999999988
 21
-425.4184776528691
 31
0.0
  0
LINE
  5
271C
330
2C25
100
AcDbEntity
  8
0
 62
     0
100
AcDbLine
 10
20.02717764747103
 20
-576.2000000000007
 30
0.0
 11
250.699999999988
 21
-422.4185111174519
 31
0.0
  0
LINE
  5
271D
330
2C25
100
AcDbEntity
  8
0
 62
     0
100
AcDbLine
 10
15.5272163535883
 20
-576.1999999999988
 30
0.0
 11
250.699999999988
 21
-419.4185445820365
 31
0.0
  0
LINE
  5
271E
330
2C25
100
AcDbEntity
  8
0
 62
     0
100
AcDbLine
 10
11.02725505970011
 20
-576.2000000000007
 30
0.0
 11
250.6999999999862
 21
-416.4185780466215
 31
0.0
  0
LINE
  5
271F
330
2C25
100
AcDbEntity
  8
0
 62
     0
100
AcDbLine
 10
6.527293765815556
 20
-576.2000000000007
 30
0.0
 11
250.699999999988
 21
-413.4186115112042
 31
0.0
  0
LINE
  5
2720
330
2C25
100
AcDbEntity
  8
0
 62
     0
100
AcDbLine
 10
2.027332471927364
 20
-576.2000000000007
 30
0.0
 11
250.6999999999862
 21
-410.4186449757889
 31
0.0
  0
LINE
  5
2721
330
2C25
100
AcDbEntity
  8
0
 62
     0
100
AcDbLine
 10
-2.472628821955368
 20
-576.2000000000007
 30
0.0
 11
250.6999999999862
 21
-407.4186784403718
 31
0.0
  0
LINE
  5
2722
330
2C25
100
AcDbEntity
  8
0
 62
     0
100
AcDbLine
 10
-6.972590115843558
 20
-576.2000000000042
 30
0.0
 11
250.6999999999862
 21
-404.4187119049583
 31
0.0
  0
LINE
  5
2723
330
2C25
100
AcDbEntity
  8
0
 62
     0
100
AcDbLine
 10
-11.47255140972629
 20
-576.2000000000007
 30
0.0
 11
250.699999999988
 21
-401.4187453695392
 31
0.0
  0
LINE
  5
2724
330
2C25
100
AcDbEntity
  8
0
 62
     0
100
AcDbLine
 10
-15.97251270361448
 20
-576.2000000000007
 30
0.0
 11
250.6999999999898
 21
-398.4187788341224
 31
0.0
  0
LINE
  5
2725
330
2C25
100
AcDbEntity
  8
0
 62
     0
100
AcDbLine
 10
-20.47247399749723
 20
-576.1999999999988
 30
0.0
 11
250.6999999999862
 21
-395.4188122987071
 31
0.0
  0
LINE
  5
2726
330
2C25
100
AcDbEntity
  8
0
 62
     0
100
AcDbLine
 10
-24.97243529138541
 20
-576.2000000000025
 30
0.0
 11
250.6999999999898
 21
-392.4188457632897
 31
0.0
  0
LINE
  5
2727
330
2C25
100
AcDbEntity
  8
0
 62
     0
100
AcDbLine
 10
-29.47239658526996
 20
-576.2000000000007
 30
0.0
 11
250.6999999999862
 21
-389.4188792278765
 31
0.0
  0
LINE
  5
2728
330
2C25
100
AcDbEntity
  8
0
 62
     0
100
AcDbLine
 10
-33.97235787915633
 20
-576.2000000000007
 30
0.0
 11
250.699999999988
 21
-386.4189126924575
 31
0.0
  0
LINE
  5
2729
330
2C25
100
AcDbEntity
  8
0
 62
     0
100
AcDbLine
 10
-38.47231917304269
 20
-576.2000000000007
 30
0.0
 11
250.6999999999862
 21
-383.4189461570422
 31
0.0
  0
LINE
  5
272A
330
2C25
100
AcDbEntity
  8
0
 62
     0
100
AcDbLine
 10
-42.97228046692544
 20
-576.2000000000007
 30
0.0
 11
250.6999999999898
 21
-380.4189796216269
 31
0.0
  0
LINE
  5
272B
330
2C25
100
AcDbEntity
  8
0
 62
     0
100
AcDbLine
 10
-47.47224176081362
 20
-576.2000000000025
 30
0.0
 11
250.699999999988
 21
-377.4190130862097
 31
0.0
  0
LINE
  5
272C
330
2C25
100
AcDbEntity
  8
0
 62
     0
100
AcDbLine
 10
-51.97220305469635
 20
-576.1999999999988
 30
0.0
 11
250.6999999999862
 21
-374.4190465507945
 31
0.0
  0
LINE
  5
272D
330
2C25
100
AcDbEntity
  8
0
 62
     0
100
AcDbLine
 10
-56.47216434858457
 20
-576.2000000000007
 30
0.0
 11
250.6999999999898
 21
-371.4190800153756
 31
0.0
  0
LINE
  5
272E
330
2C25
100
AcDbEntity
  8
0
 62
     0
100
AcDbLine
 10
-60.97212564246911
 20
-576.2000000000007
 30
0.0
 11
250.6999999999862
 21
-368.4191134799621
 31
0.0
  0
LINE
  5
272F
330
2C25
100
AcDbEntity
  8
0
 62
     0
100
AcDbLine
 10
-65.47208693635548
 20
-576.2000000000025
 30
0.0
 11
250.699999999988
 21
-365.4191469445468
 31
0.0
  0
LINE
  5
2730
330
2C25
100
AcDbEntity
  8
0
 62
     0
100
AcDbLine
 10
-69.97204823023821
 20
-576.2000000000007
 30
0.0
 11
250.6999999999862
 21
-362.4191804091297
 31
0.0
  0
LINE
  5
2731
330
2C25
100
AcDbEntity
  8
0
 62
     0
100
AcDbLine
 10
-74.47200952412818
 20
-576.2000000000025
 30
0.0
 11
250.699999999988
 21
-359.4192138737124
 31
0.0
  0
LINE
  5
2732
330
2C25
100
AcDbEntity
  8
0
 62
     0
100
AcDbLine
 10
-78.97197081801277
 20
-576.1999999999988
 30
0.0
 11
250.699999999988
 21
-356.4192473382937
 31
0.0
  0
LINE
  5
2733
330
2C25
100
AcDbEntity
  8
0
 62
     0
100
AcDbLine
 10
-83.47193211189733
 20
-576.2000000000007
 30
0.0
 11
250.699999999988
 21
-353.4192808028802
 31
0.0
  0
LINE
  5
2734
330
2C25
100
AcDbEntity
  8
0
 62
     0
100
AcDbLine
 10
-87.9718934057819
 20
-576.2000000000025
 30
0.0
 11
250.6999999999898
 21
-350.4193142674631
 31
0.0
  0
LINE
  5
2735
330
2C25
100
AcDbEntity
  8
0
 62
     0
100
AcDbLine
 10
-92.47185469966643
 20
-576.2000000000007
 30
0.0
 11
250.699999999988
 21
-347.4193477320477
 31
0.0
  0
LINE
  5
2736
330
2C25
100
AcDbEntity
  8
0
 62
     0
100
AcDbLine
 10
-96.97181599355282
 20
-576.2000000000007
 30
0.0
 11
250.699999999988
 21
-344.4193811966306
 31
0.0
  0
LINE
  5
2737
330
2C25
100
AcDbEntity
  8
0
 62
     0
100
AcDbLine
 10
-101.4717772874355
 20
-576.1999999999988
 30
0.0
 11
250.699999999988
 21
-341.4194146612154
 31
0.0
  0
LINE
  5
2738
330
2C25
100
AcDbEntity
  8
0
 62
     0
100
AcDbLine
 10
-105.9717385813255
 20
-576.2000000000025
 30
0.0
 11
250.699999999988
 21
-338.4194481258
 31
0.0
  0
LINE
  5
2739
330
2C25
100
AcDbEntity
  8
0
 62
     0
100
AcDbLine
 10
-110.4716998752101
 20
-576.2000000000007
 30
0.0
 11
250.6999999999862
 21
-335.4194815903848
 31
0.0
  0
LINE
  5
273A
330
2C25
100
AcDbEntity
  8
0
 62
     0
100
AcDbLine
 10
-114.9716611690946
 20
-576.2000000000007
 30
0.0
 11
250.699999999988
 21
-332.4195150549658
 31
0.0
  0
LINE
  5
273B
330
2C25
100
AcDbEntity
  8
0
 62
     0
100
AcDbLine
 10
-119.471622462981
 20
-576.2000000000025
 30
0.0
 11
250.6999999999898
 21
-329.4195485195505
 31
0.0
  0
LINE
  5
273C
330
2C25
100
AcDbEntity
  8
0
 62
     0
100
AcDbLine
 10
-123.9715837568692
 20
-576.2000000000025
 30
0.0
 11
250.6999999999862
 21
-326.4195819841352
 31
0.0
  0
LINE
  5
273D
330
2C25
100
AcDbEntity
  8
0
 62
     0
100
AcDbLine
 10
-128.4715450507519
 20
-576.2000000000007
 30
0.0
 11
250.699999999988
 21
-323.4196154487181
 31
0.0
  0
LINE
  5
273E
330
2C25
100
AcDbEntity
  8
0
 62
     0
100
AcDbLine
 10
-132.9715063446365
 20
-576.2000000000007
 30
0.0
 11
250.699999999988
 21
-320.4196489133009
 31
0.0
  0
LINE
  5
273F
330
2C25
100
AcDbEntity
  8
0
 62
     0
100
AcDbLine
 10
-137.4714676385247
 20
-576.2000000000007
 30
0.0
 11
250.699999999988
 21
-317.4196823778839
 31
0.0
  0
LINE
  5
2740
330
2C25
100
AcDbEntity
  8
0
 62
     0
100
AcDbLine
 10
-141.9714289324111
 20
-576.2000000000025
 30
0.0
 11
250.6999999999862
 21
-314.4197158424702
 31
0.0
  0
LINE
  5
2741
330
2C25
100
AcDbEntity
  8
0
 62
     0
100
AcDbLine
 10
250.4296232701545
 20
-311.6000000000004
 30
0.0
 11
250.6999999999862
 21
-311.4197493070552
 31
0.0
  0
LINE
  5
2742
330
2C25
100
AcDbEntity
  8
0
 62
     0
100
AcDbLine
 10
-146.4713902262938
 20
-576.2000000000007
 30
0.0
 11
250.4296232701508
 21
-311.6000000000022
 31
0.0
  0
LINE
  5
2743
330
2C25
100
AcDbEntity
  8
0
 62
     0
100
AcDbLine
 10
245.9296619762663
 20
-311.6000000000004
 30
0.0
 11
250.6999999999826
 21
-308.4197827716398
 31
0.0
  0
LINE
  5
2744
330
2C25
100
AcDbEntity
  8
0
 62
     0
100
AcDbLine
 10
-150.9713515201801
 20
-576.2000000000007
 30
0.0
 11
245.9296619762663
 21
-311.6000000000004
 31
0.0
  0
LINE
  5
2745
330
2C25
100
AcDbEntity
  8
0
 62
     0
100
AcDbLine
 10
241.4297006823799
 20
-311.6000000000004
 30
0.0
 11
250.6999999999844
 21
-305.4198162362227
 31
0.0
  0
LINE
  5
2746
330
2C25
100
AcDbEntity
  8
0
 62
     0
100
AcDbLine
 10
-155.4713128140683
 20
-576.2000000000007
 30
0.0
 11
241.4297006823799
 21
-311.6000000000004
 31
0.0
  0
LINE
  5
2747
330
2C25
100
AcDbEntity
  8
0
 62
     0
100
AcDbLine
 10
236.9297393884972
 20
-311.6000000000004
 30
0.0
 11
250.6999999999826
 21
-302.4198497008074
 31
0.0
  0
LINE
  5
2748
330
2C25
100
AcDbEntity
  8
0
 62
     0
100
AcDbLine
 10
-159.9712741079493
 20
-576.2000000000007
 30
0.0
 11
236.9297393884972
 21
-311.6000000000004
 31
0.0
  0
LINE
  5
2749
330
2C25
100
AcDbEntity
  8
0
 62
     0
100
AcDbLine
 10
232.4297780946126
 20
-311.6000000000022
 30
0.0
 11
250.6999999999862
 21
-299.4198831653921
 31
0.0
  0
LINE
  5
274A
330
2C25
100
AcDbEntity
  8
0
 62
     0
100
AcDbLine
 10
-164.4712354018356
 20
-576.2000000000025
 30
0.0
 11
232.4297780946126
 21
-311.6000000000022
 31
0.0
  0
LINE
  5
274B
330
2C25
100
AcDbEntity
  8
0
 62
     0
100
AcDbLine
 10
227.9298168007244
 20
-311.6000000000004
 30
0.0
 11
250.6999999999862
 21
-296.4199166299732
 31
0.0
  0
LINE
  5
274C
330
2C25
100
AcDbEntity
  8
0
 62
     0
100
AcDbLine
 10
-168.971196695722
 20
-576.2000000000007
 30
0.0
 11
227.9298168007244
 21
-311.6000000000004
 31
0.0
  0
LINE
  5
274D
330
2C25
100
AcDbEntity
  8
0
 62
     0
100
AcDbLine
 10
223.4298555068417
 20
-311.5999999999985
 30
0.0
 11
250.6999999999844
 21
-293.419950094558
 31
0.0
  0
LINE
  5
274E
330
2C25
100
AcDbEntity
  8
0
 62
     0
100
AcDbLine
 10
-173.4711579896101
 20
-576.2000000000007
 30
0.0
 11
223.4298555068417
 21
-311.5999999999985
 31
0.0
  0
LINE
  5
274F
330
2C25
100
AcDbEntity
  8
0
 62
     0
100
AcDbLine
 10
218.9298942129553
 20
-311.6000000000004
 30
0.0
 11
250.6999999999862
 21
-290.4199835591425
 31
0.0
  0
LINE
  5
2750
330
2C25
100
AcDbEntity
  8
0
 62
     0
100
AcDbLine
 10
-177.9711192834911
 20
-576.2000000000007
 30
0.0
 11
218.9298942129536
 21
-311.6000000000022
 31
0.0
  0
LINE
  5
2751
330
2C25
100
AcDbEntity
  8
0
 62
     0
100
AcDbLine
 10
214.4299329190689
 20
-311.6000000000022
 30
0.0
 11
250.6999999999844
 21
-287.4200170237273
 31
0.0
  0
LINE
  5
2752
330
2C25
100
AcDbEntity
  8
0
 62
     0
100
AcDbLine
 10
-182.4710805773793
 20
-576.2000000000025
 30
0.0
 11
214.4299329190689
 21
-311.6000000000022
 31
0.0
  0
LINE
  5
2753
330
2C25
100
AcDbEntity
  8
0
 62
     0
100
AcDbLine
 10
209.9299716251808
 20
-311.6000000000022
 30
0.0
 11
250.6999999999844
 21
-284.4200504883101
 31
0.0
  0
LINE
  5
2754
330
2C25
100
AcDbEntity
  8
0
 62
     0
100
AcDbLine
 10
-186.9710418712656
 20
-576.2000000000025
 30
0.0
 11
209.9299716251808
 21
-311.6000000000022
 31
0.0
  0
LINE
  5
2755
330
2C25
100
AcDbEntity
  8
0
 62
     0
100
AcDbLine
 10
205.4300103312999
 20
-311.5999999999985
 30
0.0
 11
250.6999999999844
 21
-281.4200839528929
 31
0.0
  0
LINE
  5
2756
330
2C25
100
AcDbEntity
  8
0
 62
     0
100
AcDbLine
 10
-191.471003165152
 20
-576.2000000000007
 30
0.0
 11
205.4300103312999
 21
-311.5999999999985
 31
0.0
  0
LINE
  5
2757
330
2C25
100
AcDbEntity
  8
0
 62
     0
100
AcDbLine
 10
200.9300490374135
 20
-311.5999999999985
 30
0.0
 11
250.6999999999862
 21
-278.4201174174758
 31
0.0
  0
LINE
  5
2758
330
2C25
100
AcDbEntity
  8
0
 62
     0
100
AcDbLine
 10
-195.970964459033
 20
-576.1999999999988
 30
0.0
 11
200.9300490374116
 21
-311.6000000000004
 31
0.0
  0
LINE
  5
2759
330
2C25
100
AcDbEntity
  8
0
 62
     0
100
AcDbLine
 10
196.4300877435271
 20
-311.6000000000004
 30
0.0
 11
250.6999999999844
 21
-275.4201508820624
 31
0.0
  0
LINE
  5
275A
330
2C25
100
AcDbEntity
  8
0
 62
     0
100
AcDbLine
 10
-200.4709257529212
 20
-576.2000000000007
 30
0.0
 11
196.4300877435271
 21
-311.6000000000004
 31
0.0
  0
LINE
  5
275B
330
2C25
100
AcDbEntity
  8
0
 62
     0
100
AcDbLine
 10
191.9301264496407
 20
-311.6000000000022
 30
0.0
 11
250.6999999999844
 21
-272.4201843466453
 31
0.0
  0
LINE
  5
275C
330
2C25
100
AcDbEntity
  8
0
 62
     0
100
AcDbLine
 10
-204.9708870468076
 20
-576.2000000000025
 30
0.0
 11
191.9301264496407
 21
-311.6000000000022
 31
0.0
  0
LINE
  5
275D
330
2C25
100
AcDbEntity
  8
0
 62
     0
100
AcDbLine
 10
187.430165155758
 20
-311.6000000000004
 30
0.0
 11
250.6999999999862
 21
-269.4202178112282
 31
0.0
  0
LINE
  5
275E
330
2C25
100
AcDbEntity
  8
0
 62
     0
100
AcDbLine
 10
-209.4708483406903
 20
-576.2000000000007
 30
0.0
 11
187.430165155758
 21
-311.6000000000004
 31
0.0
  0
LINE
  5
275F
330
2C25
100
AcDbEntity
  8
0
 62
     0
100
AcDbLine
 10
182.9302038618698
 20
-311.5999999999985
 30
0.0
 11
250.6999999999844
 21
-266.4202512758111
 31
0.0
  0
LINE
  5
2760
330
2C25
100
AcDbEntity
  8
0
 62
     0
100
AcDbLine
 10
-213.9708096345767
 20
-576.1999999999988
 30
0.0
 11
182.9302038618698
 21
-311.5999999999985
 31
0.0
  0
LINE
  5
2761
330
2C25
100
AcDbEntity
  8
0
 62
     0
100
AcDbLine
 10
178.4302425679834
 20
-311.6000000000004
 30
0.0
 11
250.6999999999844
 21
-263.4202847403958
 31
0.0
  0
LINE
  5
2762
330
2C25
100
AcDbEntity
  8
0
 62
     0
100
AcDbLine
 10
-218.4707709284648
 20
-576.2000000000007
 30
0.0
 11
178.4302425679834
 21
-311.6000000000004
 31
0.0
  0
LINE
  5
2763
330
2C25
100
AcDbEntity
  8
0
 62
     0
100
AcDbLine
 10
173.9302812741007
 20
-311.6000000000004
 30
0.0
 11
250.6999999999844
 21
-260.4203182049823
 31
0.0
  0
LINE
  5
2764
330
2C25
100
AcDbEntity
  8
0
 62
     0
100
AcDbLine
 10
-222.9707322223494
 20
-576.2000000000025
 30
0.0
 11
173.9302812741007
 21
-311.6000000000004
 31
0.0
  0
LINE
  5
2765
330
2C25
100
AcDbEntity
  8
0
 62
     0
100
AcDbLine
 10
169.4303199802161
 20
-311.6000000000004
 30
0.0
 11
250.6999999999862
 21
-257.4203516695634
 31
0.0
  0
LINE
  5
2766
330
2C25
100
AcDbEntity
  8
0
 62
     0
100
AcDbLine
 10
-227.4706935162321
 20
-576.2000000000007
 30
0.0
 11
169.4303199802161
 21
-311.6000000000004
 31
0.0
  0
LINE
  5
2767
330
2C25
100
AcDbEntity
  8
0
 62
     0
100
AcDbLine
 10
164.9303586863261
 20
-311.6000000000004
 30
0.0
 11
250.6999999999826
 21
-254.4203851341481
 31
0.0
  0
LINE
  5
2768
330
2C25
100
AcDbEntity
  8
0
 62
     0
100
AcDbLine
 10
-231.9706548101239
 20
-576.2000000000025
 30
0.0
 11
164.9303586863261
 21
-311.6000000000004
 31
0.0
  0
LINE
  5
2769
330
2C25
100
AcDbEntity
  8
0
 62
     0
100
AcDbLine
 10
160.4303973924416
 20
-311.6000000000004
 30
0.0
 11
250.6999999999844
 21
-251.420418598731
 31
0.0
  0
LINE
  5
276A
330
2C25
100
AcDbEntity
  8
0
 62
     0
100
AcDbLine
 10
-236.4706161040067
 20
-576.2000000000007
 30
0.0
 11
160.4303973924416
 21
-311.6000000000004
 31
0.0
  0
LINE
  5
276B
330
2C25
100
AcDbEntity
  8
0
 62
     0
100
AcDbLine
 10
155.9304360985588
 20
-311.6000000000004
 30
0.0
 11
250.6999999999844
 21
-248.4204520633175
 31
0.0
  0
LINE
  5
276C
330
2C25
100
AcDbEntity
  8
0
 62
     0
100
AcDbLine
 10
-240.9705773978913
 20
-576.2000000000025
 30
0.0
 11
155.9304360985588
 21
-311.6000000000004
 31
0.0
  0
LINE
  5
276D
330
2C25
100
AcDbEntity
  8
0
 62
     0
100
AcDbLine
 10
151.4304748046725
 20
-311.6000000000004
 30
0.0
 11
250.6999999999844
 21
-245.4204855278986
 31
0.0
  0
LINE
  5
276E
330
2C25
100
AcDbEntity
  8
0
 62
     0
100
AcDbLine
 10
-245.4705386917758
 20
-576.2000000000007
 30
0.0
 11
151.4304748046725
 21
-311.6000000000004
 31
0.0
  0
LINE
  5
276F
330
2C25
100
AcDbEntity
  8
0
 62
     0
100
AcDbLine
 10
146.9305135107843
 20
-311.6000000000004
 30
0.0
 11
250.6999999999844
 21
-242.4205189924815
 31
0.0
  0
LINE
  5
2770
330
2C25
100
AcDbEntity
  8
0
 62
     0
100
AcDbLine
 10
-249.9704999856658
 20
-576.2000000000025
 30
0.0
 11
146.9305135107843
 21
-311.6000000000004
 31
0.0
  0
LINE
  5
2771
330
2C25
100
AcDbEntity
  8
0
 62
     0
100
AcDbLine
 10
142.4305522168997
 20
-311.6000000000004
 30
0.0
 11
250.6999999999844
 21
-239.4205524570661
 31
0.0
  0
LINE
  5
2772
330
2C25
100
AcDbEntity
  8
0
 62
     0
100
AcDbLine
 10
-250.7000000000098
 20
-573.6863655656178
 30
0.0
 11
142.4305522168997
 21
-311.6000000000004
 31
0.0
  0
LINE
  5
2773
330
2C25
100
AcDbEntity
  8
0
 62
     0
100
AcDbLine
 10
137.9305909230152
 20
-311.5999999999985
 30
0.0
 11
250.6999999999844
 21
-236.420585921649
 31
0.0
  0
LINE
  5
2774
330
2C25
100
AcDbEntity
  8
0
 62
     0
100
AcDbLine
 10
-250.7000000000116
 20
-570.6863990302024
 30
0.0
 11
137.9305909230152
 21
-311.5999999999985
 31
0.0
  0
LINE
  5
2775
330
2C25
100
AcDbEntity
  8
0
 62
     0
100
AcDbLine
 10
133.4306296291251
 20
-311.6000000000022
 30
0.0
 11
250.6999999999826
 21
-233.4206193862355
 31
0.0
  0
LINE
  5
2776
330
2C25
100
AcDbEntity
  8
0
 62
     0
100
AcDbLine
 10
-250.7000000000116
 20
-567.6864324947874
 30
0.0
 11
133.4306296291251
 21
-311.6000000000022
 31
0.0
  0
LINE
  5
2777
330
2C25
100
AcDbEntity
  8
0
 62
     0
100
AcDbLine
 10
128.9306683352442
 20
-311.6000000000004
 30
0.0
 11
250.6999999999844
 21
-230.4206528508166
 31
0.0
  0
LINE
  5
2778
330
2C25
100
AcDbEntity
  8
0
 62
     0
100
AcDbLine
 10
-250.7000000000116
 20
-564.686465959372
 30
0.0
 11
128.9306683352406
 21
-311.6000000000022
 31
0.0
  0
LINE
  5
2779
330
2C25
100
AcDbEntity
  8
0
 62
     0
100
AcDbLine
 10
124.4307070413579
 20
-311.6000000000004
 30
0.0
 11
250.6999999999844
 21
-227.4206863154013
 31
0.0
  0
LINE
  5
277A
330
2C25
100
AcDbEntity
  8
0
 62
     0
100
AcDbLine
 10
-250.7000000000098
 20
-561.6864994239531
 30
0.0
 11
124.4307070413579
 21
-311.6000000000004
 31
0.0
  0
LINE
  5
277B
330
2C25
100
AcDbEntity
  8
0
 62
     0
100
AcDbLine
 10
119.9307457474733
 20
-311.6000000000004
 30
0.0
 11
250.6999999999844
 21
-224.420719779986
 31
0.0
  0
LINE
  5
277C
330
2C25
100
AcDbEntity
  8
0
 62
     0
100
AcDbLine
 10
-250.7000000000116
 20
-558.6865328885396
 30
0.0
 11
119.9307457474715
 21
-311.6000000000022
 31
0.0
  0
LINE
  5
277D
330
2C25
100
AcDbEntity
  8
0
 62
     0
100
AcDbLine
 10
115.4307844535869
 20
-311.6000000000004
 30
0.0
 11
250.6999999999862
 21
-221.4207532445688
 31
0.0
  0
LINE
  5
277E
330
2C25
100
AcDbEntity
  8
0
 62
     0
100
AcDbLine
 10
-250.7000000000116
 20
-555.6865663531225
 30
0.0
 11
115.4307844535833
 21
-311.600000000004
 31
0.0
  0
LINE
  5
277F
330
2C25
100
AcDbEntity
  8
0
 62
     0
100
AcDbLine
 10
110.9308231597024
 20
-311.6000000000004
 30
0.0
 11
250.6999999999844
 21
-218.4207867091536
 31
0.0
  0
LINE
  5
2780
330
2C25
100
AcDbEntity
  8
0
 62
     0
100
AcDbLine
 10
-250.700000000008
 20
-552.6865998177054
 30
0.0
 11
110.9308231597024
 21
-311.6000000000004
 31
0.0
  0
LINE
  5
2781
330
2C25
100
AcDbEntity
  8
0
 62
     0
100
AcDbLine
 10
106.4308618658178
 20
-311.5999999999985
 30
0.0
 11
250.6999999999862
 21
-215.4208201737347
 31
0.0
  0
LINE
  5
2782
330
2C25
100
AcDbEntity
  8
0
 62
     0
100
AcDbLine
 10
-250.7000000000116
 20
-549.68663328229
 30
0.0
 11
106.4308618658142
 21
-311.6000000000004
 31
0.0
  0
LINE
  5
2783
330
2C25
100
AcDbEntity
  8
0
 62
     0
100
AcDbLine
 10
101.9309005719296
 20
-311.6000000000004
 30
0.0
 11
250.6999999999862
 21
-212.4208536383194
 31
0.0
  0
LINE
  5
2784
330
2C25
100
AcDbEntity
  8
0
 62
     0
100
AcDbLine
 10
-250.7000000000098
 20
-546.6866667468727
 30
0.0
 11
101.9309005719278
 21
-311.6000000000022
 31
0.0
  0
LINE
  5
2785
330
2C25
100
AcDbEntity
  8
0
 62
     0
100
AcDbLine
 10
97.43093927804512
 20
-311.6000000000022
 30
0.0
 11
250.699999999988
 21
-209.4208871029023
 31
0.0
  0
LINE
  5
2786
330
2C25
100
AcDbEntity
  8
0
 62
     0
100
AcDbLine
 10
-250.7000000000116
 20
-543.6867002114595
 30
0.0
 11
97.43093927804148
 21
-311.600000000004
 31
0.0
  0
LINE
  5
2787
330
2C25
100
AcDbEntity
  8
0
 62
     0
100
AcDbLine
 10
92.93097798416056
 20
-311.6000000000004
 30
0.0
 11
250.699999999988
 21
-206.420920567487
 31
0.0
  0
LINE
  5
2788
330
2C25
100
AcDbEntity
  8
0
 62
     0
100
AcDbLine
 10
-250.700000000008
 20
-540.6867336760406
 30
0.0
 11
92.93097798416056
 21
-311.6000000000004
 31
0.0
  0
LINE
  5
2789
330
2C25
100
AcDbEntity
  8
0
 62
     0
100
AcDbLine
 10
88.43101669027417
 20
-311.5999999999985
 30
0.0
 11
250.6999999999862
 21
-203.4209540320699
 31
0.0
  0
LINE
  5
278A
330
2C25
100
AcDbEntity
  8
0
 62
     0
100
AcDbLine
 10
-250.7000000000135
 20
-537.6867671406252
 30
0.0
 11
88.43101669027054
 21
-311.6000000000004
 31
0.0
  0
LINE
  5
278B
330
2C25
100
AcDbEntity
  8
0
 62
     0
100
AcDbLine
 10
83.93105539638781
 20
-311.5999999999985
 30
0.0
 11
250.6999999999862
 21
-200.4209874966528
 31
0.0
  0
LINE
  5
278C
330
2C25
100
AcDbEntity
  8
0
 62
     0
100
AcDbLine
 10
-250.7000000000098
 20
-534.6868006052082
 30
0.0
 11
83.931055396386
 21
-311.6000000000004
 31
0.0
  0
LINE
  5
278D
330
2C25
100
AcDbEntity
  8
0
 62
     0
100
AcDbLine
 10
79.43109410250326
 20
-311.6000000000004
 30
0.0
 11
250.699999999988
 21
-197.4210209612373
 31
0.0
  0
LINE
  5
278E
330
2C25
100
AcDbEntity
  8
0
 62
     0
100
AcDbLine
 10
-250.700000000008
 20
-531.6868340697911
 30
0.0
 11
79.43109410249963
 21
-311.6000000000022
 31
0.0
  0
LINE
  5
278F
330
2C25
100
AcDbEntity
  8
0
 62
     0
100
AcDbLine
 10
74.93113280861691
 20
-311.6000000000022
 30
0.0
 11
250.6999999999898
 21
-194.4210544258203
 31
0.0
  0
LINE
  5
2790
330
2C25
100
AcDbEntity
  8
0
 62
     0
100
AcDbLine
 10
-250.7000000000098
 20
-528.6868675343773
 30
0.0
 11
74.93113280861691
 21
-311.6000000000022
 31
0.0
  0
LINE
  5
2791
330
2C25
100
AcDbEntity
  8
0
 62
     0
100
AcDbLine
 10
70.43117151473234
 20
-311.5999999999985
 30
0.0
 11
250.6999999999862
 21
-191.421087890405
 31
0.0
  0
LINE
  5
2792
330
2C25
100
AcDbEntity
  8
0
 62
     0
100
AcDbLine
 10
-250.7000000000098
 20
-525.6869009989585
 30
0.0
 11
70.4311715147287
 21
-311.6000000000022
 31
0.0
  0
LINE
  5
2793
330
2C25
100
AcDbEntity
  8
0
 62
     0
100
AcDbLine
 10
65.93121022084777
 20
-311.5999999999985
 30
0.0
 11
250.6999999999898
 21
-188.4211213549878
 31
0.0
  0
LINE
  5
2794
330
2C25
100
AcDbEntity
  8
0
 62
     0
100
AcDbLine
 10
-250.7000000000098
 20
-522.6869344635432
 30
0.0
 11
65.93121022084415
 21
-311.6000000000004
 31
0.0
  0
LINE
  5
2795
330
2C25
100
AcDbEntity
  8
0
 62
     0
100
AcDbLine
 10
61.4312489269596
 20
-311.6000000000004
 30
0.0
 11
250.6999999999862
 21
-185.4211548195726
 31
0.0
  0
LINE
  5
2796
330
2C25
100
AcDbEntity
  8
0
 62
     0
100
AcDbLine
 10
-250.7000000000098
 20
-519.6869679281279
 30
0.0
 11
61.4312489269596
 21
-311.6000000000004
 31
0.0
  0
LINE
  5
2797
330
2C25
100
AcDbEntity
  8
0
 62
     0
100
AcDbLine
 10
56.93128763307504
 20
-311.6000000000004
 30
0.0
 11
250.699999999988
 21
-182.4211882841573
 31
0.0
  0
LINE
  5
2798
330
2C25
100
AcDbEntity
  8
0
 62
     0
100
AcDbLine
 10
-250.7000000000116
 20
-516.6870013927128
 30
0.0
 11
56.93128763307321
 21
-311.6000000000022
 31
0.0
  0
LINE
  5
2799
330
2C25
100
AcDbEntity
  8
0
 62
     0
100
AcDbLine
 10
52.43132633919049
 20
-311.6000000000004
 30
0.0
 11
250.6999999999862
 21
-179.4212217487402
 31
0.0
  0
LINE
  5
279A
330
2C25
100
AcDbEntity
  8
0
 62
     0
100
AcDbLine
 10
-250.7000000000098
 20
-513.6870348572955
 30
0.0
 11
52.43132633918683
 21
-311.6000000000022
 31
0.0
  0
LINE
  5
279B
330
2C25
100
AcDbEntity
  8
0
 62
     0
100
AcDbLine
 10
47.93136504530592
 20
-311.5999999999985
 30
0.0
 11
250.6999999999898
 21
-176.4212552133231
 31
0.0
  0
LINE
  5
279C
330
2C25
100
AcDbEntity
  8
0
 62
     0
100
AcDbLine
 10
-250.7000000000098
 20
-510.6870683218785
 30
0.0
 11
47.93136504530227
 21
-311.6000000000022
 31
0.0
  0
LINE
  5
279D
330
2C25
100
AcDbEntity
  8
0
 62
     0
100
AcDbLine
 10
43.43140375141774
 20
-311.6000000000004
 30
0.0
 11
250.6999999999898
 21
-173.4212886779078
 31
0.0
  0
LINE
  5
279E
330
2C25
100
AcDbEntity
  8
0
 62
     0
100
AcDbLine
 10
-250.7000000000098
 20
-507.6871017864632
 30
0.0
 11
43.43140375141774
 21
-311.6000000000004
 31
0.0
  0
LINE
  5
279F
330
2C25
100
AcDbEntity
  8
0
 62
     0
100
AcDbLine
 10
38.93144245753319
 20
-311.6000000000004
 30
0.0
 11
250.699999999988
 21
-170.4213221424925
 31
0.0
  0
LINE
  5
27A0
330
2C25
100
AcDbEntity
  8
0
 62
     0
100
AcDbLine
 10
-250.7000000000116
 20
-504.6871352510496
 30
0.0
 11
38.93144245753138
 21
-311.6000000000022
 31
0.0
  0
LINE
  5
27A1
330
2C25
100
AcDbEntity
  8
0
 62
     0
100
AcDbLine
 10
34.89999999999054
 20
-311.2876549066896
 30
0.0
 11
250.6999999999898
 21
-167.4213556070754
 31
0.0
  0
LINE
  5
27A2
330
2C25
100
AcDbEntity
  8
0
 62
     0
100
AcDbLine
 10
-250.7000000000098
 20
-501.6871687156307
 30
0.0
 11
34.89999999998691
 21
-311.2876549066914
 31
0.0
  0
LINE
  5
27A3
330
2C25
100
AcDbEntity
  8
0
 62
     0
100
AcDbLine
 10
34.89999999998691
 20
-308.2876883712724
 30
0.0
 11
250.699999999988
 21
-164.4213890716582
 31
0.0
  0
LINE
  5
27A4
330
2C25
100
AcDbEntity
  8
0
 62
     0
100
AcDbLine
 10
-250.7000000000098
 20
-498.6872021802136
 30
0.0
 11
34.89999999998508
 21
-308.2876883712744
 31
0.0
  0
LINE
  5
27A5
330
2C25
100
AcDbEntity
  8
0
 62
     0
100
AcDbLine
 10
34.89999999998872
 20
-305.2877218358553
 30
0.0
 11
250.699999999988
 21
-161.4214225362411
 31
0.0
  0
LINE
  5
27A6
330
2C25
100
AcDbEntity
  8
0
 62
     0
100
AcDbLine
 10
-250.7000000000116
 20
-495.6872356447965
 30
0.0
 11
34.89999999998508
 21
-305.2877218358572
 31
0.0
  0
LINE
  5
27A7
330
2C25
100
AcDbEntity
  8
0
 62
     0
100
AcDbLine
 10
34.89999999998691
 20
-302.28775530044
 30
0.0
 11
250.699999999988
 21
-158.4214560008277
 31
0.0
  0
LINE
  5
27A8
330
2C25
100
AcDbEntity
  8
0
 62
     0
100
AcDbLine
 10
-250.7000000000098
 20
-492.687269109381
 30
0.0
 11
34.89999999998508
 21
-302.2877553004418
 31
0.0
  0
LINE
  5
27A9
330
2C25
100
AcDbEntity
  8
0
 62
     0
100
AcDbLine
 10
34.89999999999054
 20
-299.2877887650248
 30
0.0
 11
250.6999999999898
 21
-155.4214894654105
 31
0.0
  0
LINE
  5
27AA
330
2C25
100
AcDbEntity
  8
0
 62
     0
100
AcDbLine
 10
-250.7000000000098
 20
-489.6873025739678
 30
0.0
 11
34.89999999998691
 21
-299.2877887650266
 31
0.0
  0
LINE
  5
27AB
330
2C25
100
AcDbEntity
  8
0
 62
     0
100
AcDbLine
 10
34.89999999999054
 20
-296.2878222296058
 30
0.0
 11
250.6999999999898
 21
-152.4215229299934
 31
0.0
  0
LINE
  5
27AC
330
2C25
100
AcDbEntity
  8
0
 62
     0
100
AcDbLine
 10
-250.7000000000098
 20
-486.6873360385489
 30
0.0
 11
34.89999999998508
 21
-296.2878222296112
 31
0.0
  0
LINE
  5
27AD
330
2C25
100
AcDbEntity
  8
0
 62
     0
100
AcDbLine
 10
34.89999999998872
 20
-293.2878556941905
 30
0.0
 11
250.699999999988
 21
-149.4215563945763
 31
0.0
  0
LINE
  5
27AE
330
2C25
100
AcDbEntity
  8
0
 62
     0
100
AcDbLine
 10
-250.7000000000116
 20
-483.6873695031336
 30
0.0
 11
34.89999999998508
 21
-293.2878556941922
 31
0.0
  0
LINE
  5
27AF
330
2C25
100
AcDbEntity
  8
0
 62
     0
100
AcDbLine
 10
34.89999999999054
 20
-290.2878891587752
 30
0.0
 11
250.6999999999898
 21
-146.421589859161
 31
0.0
  0
LINE
  5
27B0
330
2C25
100
AcDbEntity
  8
0
 62
     0
100
AcDbLine
 10
-250.7000000000098
 20
-480.6874029677165
 30
0.0
 11
34.89999999998508
 21
-290.2878891587789
 31
0.0
  0
LINE
  5
27B1
330
2C25
100
AcDbEntity
  8
0
 62
     0
100
AcDbLine
 10
34.89999999998872
 20
-287.28792262336
 30
0.0
 11
250.699999999988
 21
-143.4216233237475
 31
0.0
  0
LINE
  5
27B2
330
2C25
100
AcDbEntity
  8
0
 62
     0
100
AcDbLine
 10
-250.7000000000098
 20
-477.6874364323012
 30
0.0
 11
34.89999999998508
 21
-287.2879226233617
 31
0.0
  0
LINE
  5
27B3
330
2C25
100
AcDbEntity
  8
0
 62
     0
100
AcDbLine
 10
34.89999999998872
 20
-284.2879560879428
 30
0.0
 11
250.699999999988
 21
-140.4216567883286
 31
0.0
  0
LINE
  5
27B4
330
2C25
100
AcDbEntity
  8
0
 62
     0
100
AcDbLine
 10
-250.7000000000116
 20
-474.6874698968841
 30
0.0
 11
34.89999999998327
 21
-284.2879560879465
 31
0.0
  0
LINE
  5
27B5
330
2C25
100
AcDbEntity
  8
0
 62
     0
100
AcDbLine
 10
34.89999999998872
 20
-281.2879895525276
 30
0.0
 11
250.699999999988
 21
-137.4216902529133
 31
0.0
  0
LINE
  5
27B6
330
2C25
100
AcDbEntity
  8
0
 62
     0
100
AcDbLine
 10
-250.7000000000098
 20
-471.6875033614669
 30
0.0
 11
34.89999999998508
 21
-281.2879895525293
 31
0.0
  0
LINE
  5
27B7
330
2C25
100
AcDbEntity
  8
0
 62
     0
100
AcDbLine
 10
34.89999999999054
 20
-278.2880230171104
 30
0.0
 11
250.6999999999898
 21
-134.4217237174962
 31
0.0
  0
LINE
  5
27B8
330
2C25
100
AcDbEntity
  8
0
 62
     0
100
AcDbLine
 10
-250.7000000000098
 20
-468.6875368260534
 30
0.0
 11
34.89999999998691
 21
-278.2880230171122
 31
0.0
  0
LINE
  5
27B9
330
2C25
100
AcDbEntity
  8
0
 62
     0
100
AcDbLine
 10
34.89999999998691
 20
-275.2880564816969
 30
0.0
 11
250.6999999999862
 21
-131.4217571820827
 31
0.0
  0
LINE
  5
27BA
330
2C25
100
AcDbEntity
  8
0
 62
     0
100
AcDbLine
 10
-250.7000000000116
 20
-465.687570290636
 30
0.0
 11
34.89999999998327
 21
-275.2880564816987
 31
0.0
  0
LINE
  5
27BB
330
2C25
100
AcDbEntity
  8
0
 62
     0
100
AcDbLine
 10
34.89999999998872
 20
-272.288089946278
 30
0.0
 11
250.699999999988
 21
-128.4217906466656
 31
0.0
  0
LINE
  5
27BC
330
2C25
100
AcDbEntity
  8
0
 62
     0
100
AcDbLine
 10
-250.7000000000116
 20
-462.6876037552207
 30
0.0
 11
34.89999999998508
 21
-272.2880899462798
 31
0.0
  0
LINE
  5
27BD
330
2C25
100
AcDbEntity
  8
0
 62
     0
100
AcDbLine
 10
34.89999999999054
 20
-269.2881234108609
 30
0.0
 11
250.6999999999898
 21
-125.4218241112466
 31
0.0
  0
LINE
  5
27BE
330
2C25
100
AcDbEntity
  8
0
 62
     0
100
AcDbLine
 10
-250.7000000000098
 20
-459.6876372198018
 30
0.0
 11
34.89999999998508
 21
-269.2881234108645
 31
0.0
  0
LINE
  5
27BF
330
2C25
100
AcDbEntity
  8
0
 62
     0
100
AcDbLine
 10
34.89999999998872
 20
-266.2881568754456
 30
0.0
 11
250.699999999988
 21
-122.4218575758332
 31
0.0
  0
LINE
  5
27C0
330
2C25
100
AcDbEntity
  8
0
 62
     0
100
AcDbLine
 10
-250.700000000008
 20
-456.6876706843868
 30
0.0
 11
34.89999999998508
 21
-266.2881568754492
 31
0.0
  0
LINE
  5
27C1
330
2C25
100
AcDbEntity
  8
0
 62
     0
100
AcDbLine
 10
34.89999999998872
 20
-263.2881903400285
 30
0.0
 11
250.699999999988
 21
-119.4218910404142
 31
0.0
  0
LINE
  5
27C2
330
2C25
100
AcDbEntity
  8
0
 62
     0
100
AcDbLine
 10
-250.7000000000116
 20
-453.6877041489714
 30
0.0
 11
34.89999999998327
 21
-263.2881903400321
 31
0.0
  0
LINE
  5
27C3
330
2C25
100
AcDbEntity
  8
0
 62
     0
100
AcDbLine
 10
34.89999999998872
 20
-260.288223804615
 30
0.0
 11
248.6328814790486
 21
-117.8000000000011
 31
0.0
  0
LINE
  5
27C4
330
2C25
100
AcDbEntity
  8
0
 62
     0
100
AcDbLine
 10
-250.700000000008
 20
-450.6877376135543
 30
0.0
 11
34.89999999998508
 21
-260.2882238046168
 31
0.0
  0
LINE
  5
27C5
330
2C25
100
AcDbEntity
  8
0
 62
     0
100
AcDbLine
 10
34.89999999998872
 20
-257.288257269196
 30
0.0
 11
244.1329201851622
 21
-117.8000000000011
 31
0.0
  0
LINE
  5
27C6
330
2C25
100
AcDbEntity
  8
0
 62
     0
100
AcDbLine
 10
-250.7000000000116
 20
-447.6877710781391
 30
0.0
 11
34.89999999998691
 21
-257.2882572691979
 31
0.0
  0
LINE
  5
27C7
330
2C25
100
AcDbEntity
  8
0
 62
     0
100
AcDbLine
 10
34.89999999998691
 20
-254.2882907337808
 30
0.0
 11
239.6329588912759
 21
-117.8000000000011
 31
0.0
  0
LINE
  5
27C8
330
2C25
100
AcDbEntity
  8
0
 62
     0
100
AcDbLine
 10
-250.7000000000098
 20
-444.6878045427202
 30
0.0
 11
34.89999999998327
 21
-254.2882907337826
 31
0.0
  0
LINE
  5
27C9
330
2C25
100
AcDbEntity
  8
0
 62
     0
100
AcDbLine
 10
34.89999999998872
 20
-251.2883241983636
 30
0.0
 11
235.1329975973931
 21
-117.8000000000011
 31
0.0
  0
LINE
  5
27CA
330
2C25
100
AcDbEntity
  8
0
 62
     0
100
AcDbLine
 10
-250.7000000000116
 20
-441.6878380073065
 30
0.0
 11
34.89999999998691
 21
-251.2883241983673
 31
0.0
  0
LINE
  5
27CB
330
2C25
100
AcDbEntity
  8
0
 62
     0
100
AcDbLine
 10
34.89999999998872
 20
-248.2883576629502
 30
0.0
 11
230.6330363035067
 21
-117.8000000000011
 31
0.0
  0
LINE
  5
27CC
330
2C25
100
AcDbEntity
  8
0
 62
     0
100
AcDbLine
 10
-250.700000000008
 20
-438.6878714718914
 30
0.0
 11
34.89999999998508
 21
-248.288357662952
 31
0.0
  0
LINE
  5
27CD
330
2C25
100
AcDbEntity
  8
0
 62
     0
100
AcDbLine
 10
34.89999999998872
 20
-245.288391127533
 30
0.0
 11
226.133075009624
 21
-117.7999999999993
 31
0.0
  0
LINE
  5
27CE
330
2C25
100
AcDbEntity
  8
0
 62
     0
100
AcDbLine
 10
-250.7000000000116
 20
-435.687904936474
 30
0.0
 11
34.89999999998691
 21
-245.2883911275348
 31
0.0
  0
LINE
  5
27CF
330
2C25
100
AcDbEntity
  8
0
 62
     0
100
AcDbLine
 10
34.89999999999054
 20
-242.2884245921141
 30
0.0
 11
221.633113715734
 21
-117.8000000000011
 31
0.0
  0
LINE
  5
27D0
330
2C25
100
AcDbEntity
  8
0
 62
     0
100
AcDbLine
 10
-250.7000000000098
 20
-432.6879384010571
 30
0.0
 11
34.89999999998327
 21
-242.2884245921177
 31
0.0
  0
LINE
  5
27D1
330
2C25
100
AcDbEntity
  8
0
 62
     0
100
AcDbLine
 10
34.89999999998872
 20
-239.2884580567006
 30
0.0
 11
217.1331524218512
 21
-117.8000000000011
 31
0.0
  0
LINE
  5
27D2
330
2C25
100
AcDbEntity
  8
0
 62
     0
100
AcDbLine
 10
-250.7000000000116
 20
-429.6879718656417
 30
0.0
 11
34.89999999998691
 21
-239.2884580567024
 31
0.0
  0
LINE
  5
27D3
330
2C25
100
AcDbEntity
  8
0
 62
     0
100
AcDbLine
 10
34.89999999999054
 20
-236.2884915212835
 30
0.0
 11
212.6331911279649
 21
-117.8000000000029
 31
0.0
  0
LINE
  5
27D4
330
2C25
100
AcDbEntity
  8
0
 62
     0
100
AcDbLine
 10
-250.7000000000098
 20
-426.6880053302266
 30
0.0
 11
34.89999999998327
 21
-236.288491521289
 31
0.0
  0
LINE
  5
27D5
330
2C25
100
AcDbEntity
  8
0
 62
     0
100
AcDbLine
 10
34.89999999998691
 20
-233.2885249858682
 30
0.0
 11
208.1332298340767
 21
-117.8000000000011
 31
0.0
  0
LINE
  5
27D6
330
2C25
100
AcDbEntity
  8
0
 62
     0
100
AcDbLine
 10
-250.7000000000098
 20
-423.6880387948095
 30
0.0
 11
34.89999999998508
 21
-233.28852498587
 31
0.0
  0
LINE
  5
27D7
330
2C25
100
AcDbEntity
  8
0
 62
     0
100
AcDbLine
 10
34.89999999998872
 20
-230.2885584504511
 30
0.0
 11
203.6332685401922
 21
-117.8000000000011
 31
0.0
  0
LINE
  5
27D8
330
2C25
100
AcDbEntity
  8
0
 62
     0
100
AcDbLine
 10
-250.7000000000098
 20
-420.6880722593923
 30
0.0
 11
34.89999999998327
 21
-230.2885584504547
 31
0.0
  0
LINE
  5
27D9
330
2C25
100
AcDbEntity
  8
0
 62
     0
100
AcDbLine
 10
34.89999999998872
 20
-227.2885919150358
 30
0.0
 11
199.1333072463094
 21
-117.8000000000011
 31
0.0
  0
LINE
  5
27DA
330
2C25
100
AcDbEntity
  8
0
 62
     0
100
AcDbLine
 10
-250.700000000008
 20
-417.6881057239769
 30
0.0
 11
34.89999999998508
 21
-227.2885919150376
 31
0.0
  0
LINE
  5
27DB
330
2C25
100
AcDbEntity
  8
0
 62
     0
100
AcDbLine
 10
34.89999999998691
 20
-224.2886253796187
 30
0.0
 11
194.6333459524212
 21
-117.8000000000011
 31
0.0
  0
LINE
  5
27DC
330
2C25
100
AcDbEntity
  8
0
 62
     0
100
AcDbLine
 10
-250.7000000000116
 20
-414.6881391885599
 30
0.0
 11
34.89999999998508
 21
-224.2886253796205
 31
0.0
  0
LINE
  5
27DD
330
2C25
100
AcDbEntity
  8
0
 62
     0
100
AcDbLine
 10
34.89999999998691
 20
-221.2886588442034
 30
0.0
 11
190.1333846585348
 21
-117.8000000000029
 31
0.0
  0
LINE
  5
27DE
330
2C25
100
AcDbEntity
  8
0
 62
     0
100
AcDbLine
 10
-250.7000000000098
 20
-411.6881726531445
 30
0.0
 11
34.89999999998327
 21
-221.288658844207
 31
0.0
  0
LINE
  5
27DF
330
2C25
100
AcDbEntity
  8
0
 62
     0
100
AcDbLine
 10
34.89999999998872
 20
-218.2886923087863
 30
0.0
 11
185.6334233646503
 21
-117.8000000000011
 31
0.0
  0
LINE
  5
27E0
330
2C25
100
AcDbEntity
  8
0
 62
     0
100
AcDbLine
 10
-250.7000000000098
 20
-408.688206117729
 30
0.0
 11
34.89999999998691
 21
-218.2886923087881
 31
0.0
  0
LINE
  5
27E1
330
2C25
100
AcDbEntity
  8
0
 62
     0
100
AcDbLine
 10
34.89999999998691
 20
-215.288725773371
 30
0.0
 11
181.1334620707657
 21
-117.7999999999993
 31
0.0
  0
LINE
  5
27E2
330
2C25
100
AcDbEntity
  8
0
 62
     0
100
AcDbLine
 10
-250.7000000000098
 20
-405.6882395823103
 30
0.0
 11
34.89999999998327
 21
-215.2887257733728
 31
0.0
  0
LINE
  5
27E3
330
2C25
100
AcDbEntity
  8
0
 62
     0
100
AcDbLine
 10
34.89999999998508
 20
-212.2887592379557
 30
0.0
 11
176.6335007768794
 21
-117.8000000000011
 31
0.0
  0
LINE
  5
27E4
330
2C25
100
AcDbEntity
  8
0
 62
     0
100
AcDbLine
 10
-250.7000000000098
 20
-402.6882730468951
 30
0.0
 11
34.89999999998508
 21
-212.2887592379557
 31
0.0
  0
LINE
  5
27E5
330
2C25
100
AcDbEntity
  8
0
 62
     0
100
AcDbLine
 10
34.89999999998691
 20
-209.2887927025404
 30
0.0
 11
172.133539482993
 21
-117.8000000000029
 31
0.0
  0
LINE
  5
27E6
330
2C25
100
AcDbEntity
  8
0
 62
     0
100
AcDbLine
 10
-250.7000000000098
 20
-399.6883065114798
 30
0.0
 11
34.89999999998327
 21
-209.2887927025422
 31
0.0
  0
LINE
  5
27E7
330
2C25
100
AcDbEntity
  8
0
 62
     0
100
AcDbLine
 10
34.89999999998508
 20
-206.2888261671233
 30
0.0
 11
167.6335781891084
 21
-117.8000000000011
 31
0.0
  0
LINE
  5
27E8
330
2C25
100
AcDbEntity
  8
0
 62
     0
100
AcDbLine
 10
-250.7000000000098
 20
-396.6883399760628
 30
0.0
 11
34.89999999998508
 21
-206.2888261671233
 31
0.0
  0
LINE
  5
27E9
330
2C25
100
AcDbEntity
  8
0
 62
     0
100
AcDbLine
 10
34.89999999998508
 20
-203.2888596317061
 30
0.0
 11
163.1336168952221
 21
-117.7999999999993
 31
0.0
  0
LINE
  5
27EA
330
2C25
100
AcDbEntity
  8
0
 62
     0
100
AcDbLine
 10
-250.7000000000116
 20
-393.6883734406474
 30
0.0
 11
34.89999999998508
 21
-203.2888596317061
 31
0.0
  0
LINE
  5
27EB
330
2C25
100
AcDbEntity
  8
0
 62
     0
100
AcDbLine
 10
34.89999999998508
 20
-200.2888930962927
 30
0.0
 11
158.6336556013374
 21
-117.8000000000011
 31
0.0
  0
LINE
  5
27EC
330
2C25
100
AcDbEntity
  8
0
 62
     0
100
AcDbLine
 10
-250.7000000000098
 20
-390.6884069052304
 30
0.0
 11
34.89999999998508
 21
-200.2888930962927
 31
0.0
  0
LINE
  5
27ED
330
2C25
100
AcDbEntity
  8
0
 62
     0
100
AcDbLine
 10
34.89999999998691
 20
-197.2889265608755
 30
0.0
 11
154.1336943074511
 21
-117.8000000000029
 31
0.0
  0
LINE
  5
27EE
330
2C25
100
AcDbEntity
  8
0
 62
     0
100
AcDbLine
 10
-250.7000000000098
 20
-387.6884403698168
 30
0.0
 11
34.89999999998691
 21
-197.2889265608755
 31
0.0
  0
LINE
  5
27EF
330
2C25
100
AcDbEntity
  8
0
 62
     0
100
AcDbLine
 10
34.89999999998508
 20
-194.2889600254602
 30
0.0
 11
149.6337330135684
 21
-117.8000000000011
 31
0.0
  0
LINE
  5
27F0
330
2C25
100
AcDbEntity
  8
0
 62
     0
100
AcDbLine
 10
-250.7000000000098
 20
-384.6884738343977
 30
0.0
 11
34.89999999998508
 21
-194.2889600254602
 31
0.0
  0
LINE
  5
27F1
330
2C25
100
AcDbEntity
  8
0
 62
     0
100
AcDbLine
 10
34.89999999998508
 20
-191.2889934900412
 30
0.0
 11
145.1337717196802
 21
-117.8000000000011
 31
0.0
  0
LINE
  5
27F2
330
2C25
100
AcDbEntity
  8
0
 62
     0
100
AcDbLine
 10
-250.7000000000116
 20
-381.6885072989825
 30
0.0
 11
34.89999999998508
 21
-191.2889934900412
 31
0.0
  0
LINE
  5
27F3
330
2C25
100
AcDbEntity
  8
0
 62
     0
100
AcDbLine
 10
34.89999999998508
 20
-188.2890269546278
 30
0.0
 11
140.6338104257956
 21
-117.8000000000011
 31
0.0
  0
LINE
  5
27F4
330
2C25
100
AcDbEntity
  8
0
 62
     0
100
AcDbLine
 10
-250.7000000000098
 20
-378.6885407635655
 30
0.0
 11
34.89999999998508
 21
-188.2890269546278
 31
0.0
  0
LINE
  5
27F5
330
2C25
100
AcDbEntity
  8
0
 62
     0
100
AcDbLine
 10
34.89999999998508
 20
-185.2890604192107
 30
0.0
 11
136.1338491319075
 21
-117.8000000000011
 31
0.0
  0
LINE
  5
27F6
330
2C25
100
AcDbEntity
  8
0
 62
     0
100
AcDbLine
 10
-250.7000000000116
 20
-375.6885742281502
 30
0.0
 11
34.89999999998508
 21
-185.2890604192107
 31
0.0
  0
LINE
  5
27F7
330
2C25
100
AcDbEntity
  8
0
 62
     0
100
AcDbLine
 10
34.89999999998508
 20
-182.2890938837936
 30
0.0
 11
131.6338878380247
 21
-117.8000000000011
 31
0.0
  0
LINE
  5
27F8
330
2C25
100
AcDbEntity
  8
0
 62
     0
100
AcDbLine
 10
-250.7000000000116
 20
-372.6886076927349
 30
0.0
 11
34.89999999998327
 21
-182.2890938837954
 31
0.0
  0
LINE
  5
27F9
330
2C25
100
AcDbEntity
  8
0
 62
     0
100
AcDbLine
 10
34.89999999998508
 20
-179.2891273483783
 30
0.0
 11
127.1339265441383
 21
-117.8000000000011
 31
0.0
  0
LINE
  5
27FA
330
2C25
100
AcDbEntity
  8
0
 62
     0
100
AcDbLine
 10
-250.7000000000098
 20
-369.688641157316
 30
0.0
 11
34.89999999998508
 21
-179.2891273483783
 31
0.0
  0
LINE
  5
27FB
330
2C25
100
AcDbEntity
  8
0
 62
     0
100
AcDbLine
 10
34.89999999998691
 20
-176.2891608129594
 30
0.0
 11
122.6339652502538
 21
-117.8000000000011
 31
0.0
  0
LINE
  5
27FC
330
2C25
100
AcDbEntity
  8
0
 62
     0
100
AcDbLine
 10
-250.7000000000098
 20
-366.6886746219006
 30
0.0
 11
34.89999999998508
 21
-176.2891608129612
 31
0.0
  0
LINE
  5
27FD
330
2C25
100
AcDbEntity
  8
0
 62
     0
100
AcDbLine
 10
34.89999999998508
 20
-173.2891942775459
 30
0.0
 11
118.1340039563693
 21
-117.7999999999993
 31
0.0
  0
LINE
  5
27FE
330
2C25
100
AcDbEntity
  8
0
 62
     0
100
AcDbLine
 10
-250.7000000000098
 20
-363.6887080864835
 30
0.0
 11
34.89999999998508
 21
-173.2891942775459
 31
0.0
  0
LINE
  5
27FF
330
2C25
100
AcDbEntity
  8
0
 62
     0
100
AcDbLine
 10
34.89999999998508
 20
-170.2892277421304
 30
0.0
 11
113.6340426624829
 21
-117.8000000000011
 31
0.0
  0
LINE
  5
2800
330
2C25
100
AcDbEntity
  8
0
 62
     0
100
AcDbLine
 10
-250.7000000000116
 20
-360.68874155107
 30
0.0
 11
34.89999999998508
 21
-170.2892277421304
 31
0.0
  0
LINE
  5
2801
330
2C25
100
AcDbEntity
  8
0
 62
     0
100
AcDbLine
 10
34.89999999998508
 20
-167.2892612067134
 30
0.0
 11
109.1340813686001
 21
-117.7999999999993
 31
0.0
  0
LINE
  5
2802
330
2C25
100
AcDbEntity
  8
0
 62
     0
100
AcDbLine
 10
-250.7000000000098
 20
-357.6887750156528
 30
0.0
 11
34.89999999998508
 21
-167.2892612067134
 31
0.0
  0
LINE
  5
2803
330
2C25
100
AcDbEntity
  8
0
 62
     0
100
AcDbLine
 10
34.89999999998508
 20
-164.2892946712962
 30
0.0
 11
104.6341200747101
 21
-117.8000000000011
 31
0.0
  0
LINE
  5
2804
330
2C25
100
AcDbEntity
  8
0
 62
     0
100
AcDbLine
 10
-250.7000000000116
 20
-354.6888084802358
 30
0.0
 11
34.89999999998508
 21
-164.2892946712962
 31
0.0
  0
LINE
  5
2805
330
2C25
100
AcDbEntity
  8
0
 62
     0
100
AcDbLine
 10
34.89999999998327
 20
-161.2893281358811
 30
0.0
 11
100.1341587808256
 21
-117.8000000000011
 31
0.0
  0
LINE
  5
2806
330
2C25
100
AcDbEntity
  8
0
 62
     0
100
AcDbLine
 10
-250.7000000000116
 20
-351.6888419448205
 30
0.0
 11
34.89999999998327
 21
-161.2893281358811
 31
0.0
  0
LINE
  5
2807
330
2C25
100
AcDbEntity
  8
0
 62
     0
100
AcDbLine
 10
34.89999999998508
 20
-158.2893616004658
 30
0.0
 11
95.63419748694107
 21
-117.8000000000011
 31
0.0
  0
LINE
  5
2808
330
2C25
100
AcDbEntity
  8
0
 62
     0
100
AcDbLine
 10
-250.700000000008
 20
-348.6888754094034
 30
0.0
 11
34.89999999998508
 21
-158.2893616004658
 31
0.0
  0
LINE
  5
2809
330
2C25
100
AcDbEntity
  8
0
 62
     0
100
AcDbLine
 10
34.89999999998508
 20
-155.2893950650505
 30
0.0
 11
91.1342361930547
 21
-117.8000000000011
 31
0.0
  0
LINE
  5
280A
330
2C25
100
AcDbEntity
  8
0
 62
     0
100
AcDbLine
 10
-250.7000000000098
 20
-345.6889088739881
 30
0.0
 11
34.89999999998508
 21
-155.2893950650505
 31
0.0
  0
LINE
  5
280B
330
2C25
100
AcDbEntity
  8
0
 62
     0
100
AcDbLine
 10
34.89999999998327
 20
-152.2894285296314
 30
0.0
 11
86.63427489916648
 21
-117.8000000000011
 31
0.0
  0
LINE
  5
280C
330
2C25
100
AcDbEntity
  8
0
 62
     0
100
AcDbLine
 10
-250.7000000000098
 20
-342.688942338571
 30
0.0
 11
34.89999999998327
 21
-152.2894285296314
 31
0.0
  0
LINE
  5
280D
330
2C25
100
AcDbEntity
  8
0
 62
     0
100
AcDbLine
 10
34.89999999998691
 20
-149.2894619942162
 30
0.0
 11
82.13431360528373
 21
-117.8000000000011
 31
0.0
  0
LINE
  5
280E
330
2C25
100
AcDbEntity
  8
0
 62
     0
100
AcDbLine
 10
-250.7000000000116
 20
-339.6889758031556
 30
0.0
 11
34.89999999998691
 21
-149.2894619942162
 31
0.0
  0
LINE
  5
280F
330
2C25
100
AcDbEntity
  8
0
 62
     0
100
AcDbLine
 10
34.89999999998508
 20
-146.2894954588009
 30
0.0
 11
77.63435231139919
 21
-117.8000000000029
 31
0.0
  0
LINE
  5
2810
330
2C25
100
AcDbEntity
  8
0
 62
     0
100
AcDbLine
 10
-250.700000000008
 20
-336.6890092677404
 30
0.0
 11
34.89999999998508
 21
-146.2894954588009
 31
0.0
  0
LINE
  5
2811
330
2C25
100
AcDbEntity
  8
0
 62
     0
100
AcDbLine
 10
34.89999999998691
 20
-143.2895289233838
 30
0.0
 11
73.13439101751102
 21
-117.8000000000011
 31
0.0
  0
LINE
  5
2812
330
2C25
100
AcDbEntity
  8
0
 62
     0
100
AcDbLine
 10
-250.7000000000116
 20
-333.6890427323233
 30
0.0
 11
34.89999999998691
 21
-143.2895289233838
 31
0.0
  0
LINE
  5
2813
330
2C25
100
AcDbEntity
  8
0
 62
     0
100
AcDbLine
 10
34.89999999998327
 20
-140.2895623879684
 30
0.0
 11
68.63442972362463
 21
-117.8000000000011
 31
0.0
  0
LINE
  5
2814
330
2C25
100
AcDbEntity
  8
0
 62
     0
100
AcDbLine
 10
-250.7000000000098
 20
-330.6890761969062
 30
0.0
 11
34.89999999998327
 21
-140.2895623879684
 31
0.0
  0
LINE
  5
2815
330
2C25
100
AcDbEntity
  8
0
 62
     0
100
AcDbLine
 10
34.89999999998691
 20
-137.2895958525496
 30
0.0
 11
64.1344684297419
 21
-117.7999999999993
 31
0.0
  0
LINE
  5
2816
330
2C25
100
AcDbEntity
  8
0
 62
     0
100
AcDbLine
 10
-250.7000000000116
 20
-327.6891096614909
 30
0.0
 11
34.89999999998691
 21
-137.2895958525496
 31
0.0
  0
LINE
  5
2817
330
2C25
100
AcDbEntity
  8
0
 62
     0
100
AcDbLine
 10
34.89999999998327
 20
-134.2896293171361
 30
0.0
 11
59.63450713585553
 21
-117.8000000000011
 31
0.0
  0
LINE
  5
2818
330
2C25
100
AcDbEntity
  8
0
 62
     0
100
AcDbLine
 10
-250.7000000000098
 20
-324.6891431260737
 30
0.0
 11
34.89999999998327
 21
-134.2896293171361
 31
0.0
  0
LINE
  5
2819
330
2C25
100
AcDbEntity
  8
0
 62
     0
100
AcDbLine
 10
34.89999999998508
 20
-131.289662781719
 30
0.0
 11
55.13454584196733
 21
-117.8000000000029
 31
0.0
  0
LINE
  5
281A
330
2C25
100
AcDbEntity
  8
0
 62
     0
100
AcDbLine
 10
-250.7000000000098
 20
-321.6891765906585
 30
0.0
 11
34.89999999998508
 21
-131.289662781719
 31
0.0
  0
LINE
  5
281B
330
2C25
100
AcDbEntity
  8
0
 62
     0
100
AcDbLine
 10
34.89999999998327
 20
-128.2896962463037
 30
0.0
 11
50.63458454808642
 21
-117.7999999999993
 31
0.0
  0
LINE
  5
281C
330
2C25
100
AcDbEntity
  8
0
 62
     0
100
AcDbLine
 10
-250.7000000000098
 20
-318.6892100552412
 30
0.0
 11
34.89999999998327
 21
-128.2896962463037
 31
0.0
  0
LINE
  5
281D
330
2C25
100
AcDbEntity
  8
0
 62
     0
100
AcDbLine
 10
34.89999999998691
 20
-125.2897297108866
 30
0.0
 11
46.13462325420004
 21
-117.7999999999993
 31
0.0
  0
LINE
  5
281E
330
2C25
100
AcDbEntity
  8
0
 62
     0
100
AcDbLine
 10
-250.700000000008
 20
-315.6892435198242
 30
0.0
 11
34.89999999998691
 21
-125.2897297108866
 31
0.0
  0
LINE
  5
281F
330
2C25
100
AcDbEntity
  8
0
 62
     0
100
AcDbLine
 10
34.89999999998327
 20
-122.2897631754713
 30
0.0
 11
41.63466196031549
 21
-117.7999999999993
 31
0.0
  0
LINE
  5
2820
330
2C25
100
AcDbEntity
  8
0
 62
     0
100
AcDbLine
 10
-250.7000000000098
 20
-312.6892769844108
 30
0.0
 11
34.89999999998327
 21
-122.2897631754713
 31
0.0
  0
LINE
  5
2821
330
2C25
100
AcDbEntity
  8
0
 62
     0
100
AcDbLine
 10
34.89999999998508
 20
-119.289796640056
 30
0.0
 11
37.13470066642549
 21
-117.8000000000029
 31
0.0
  0
LINE
  5
2822
330
2C25
100
AcDbEntity
  8
0
 62
     0
100
AcDbLine
 10
-250.7000000000098
 20
-309.6893104489936
 30
0.0
 11
34.89999999998508
 21
-119.289796640056
 31
0.0
  0
LINE
  5
2823
330
2C25
100
AcDbEntity
  8
0
 62
     0
100
AcDbLine
 10
-250.7000000000098
 20
-306.6893439135784
 30
0.0
 11
32.63473937254457
 21
-117.8000000000011
 31
0.0
  0
LINE
  5
2824
330
2C25
100
AcDbEntity
  8
0
 62
     0
100
AcDbLine
 10
-250.7000000000098
 20
-303.6893773781593
 30
0.0
 11
28.13477807865639
 21
-117.7999999999993
 31
0.0
  0
LINE
  5
2825
330
2C25
100
AcDbEntity
  8
0
 62
     0
100
AcDbLine
 10
-250.7000000000116
 20
-300.6894108427459
 30
0.0
 11
23.63481678477365
 21
-117.7999999999993
 31
0.0
  0
LINE
  5
2826
330
2C25
100
AcDbEntity
  8
0
 62
     0
100
AcDbLine
 10
-250.7000000000098
 20
-297.6894443073306
 30
0.0
 11
19.13485549088726
 21
-117.8000000000011
 31
0.0
  0
LINE
  5
2827
330
2C25
100
AcDbEntity
  8
0
 62
     0
100
AcDbLine
 10
-250.700000000008
 20
-294.6894777719117
 30
0.0
 11
14.63489419700272
 21
-117.8000000000011
 31
0.0
  0
LINE
  5
2828
330
2C25
100
AcDbEntity
  8
0
 62
     0
100
AcDbLine
 10
-250.7000000000098
 20
-291.6895112364964
 30
0.0
 11
10.13493290311453
 21
-117.8000000000011
 31
0.0
  0
LINE
  5
2829
330
2C25
100
AcDbEntity
  8
0
 62
     0
100
AcDbLine
 10
-250.7000000000098
 20
-288.6895447010775
 30
0.0
 11
5.634971609231794
 21
-117.7999999999974
 31
0.0
  0
LINE
  5
282A
330
2C25
100
AcDbEntity
  8
0
 62
     0
100
AcDbLine
 10
-250.7000000000098
 20
-285.689578165664
 30
0.0
 11
1.135010315345424
 21
-117.7999999999993
 31
0.0
  0
LINE
  5
282B
330
2C25
100
AcDbEntity
  8
0
 62
     0
100
AcDbLine
 10
-250.7000000000098
 20
-282.6896116302469
 30
0.0
 11
-3.364950978540945
 21
-117.8000000000011
 31
0.0
  0
LINE
  5
282C
330
2C25
100
AcDbEntity
  8
0
 62
     0
100
AcDbLine
 10
-250.7000000000116
 20
-279.6896450948316
 30
0.0
 11
-7.864912272425499
 21
-117.7999999999993
 31
0.0
  0
LINE
  5
282D
330
2C25
100
AcDbEntity
  8
0
 62
     0
100
AcDbLine
 10
-250.7000000000098
 20
-276.6896785594145
 30
0.0
 11
-12.36487356631005
 21
-117.7999999999993
 31
0.0
  0
LINE
  5
282E
330
2C25
100
AcDbEntity
  8
0
 62
     0
100
AcDbLine
 10
-250.7000000000116
 20
-273.6897120239992
 30
0.0
 11
-16.86483486019824
 21
-117.7999999999993
 31
0.0
  0
LINE
  5
282F
330
2C25
100
AcDbEntity
  8
0
 62
     0
100
AcDbLine
 10
-250.7000000000116
 20
-270.6897454885839
 30
0.0
 11
-21.36479615408461
 21
-117.8000000000011
 31
0.0
  0
LINE
  5
2830
330
2C25
100
AcDbEntity
  8
0
 62
     0
100
AcDbLine
 10
-250.700000000008
 20
-267.6897789531649
 30
0.0
 11
-25.86475744796735
 21
-117.7999999999993
 31
0.0
  0
LINE
  5
2831
330
2C25
100
AcDbEntity
  8
0
 62
     0
100
AcDbLine
 10
-250.7000000000098
 20
-264.6898124177496
 30
0.0
 11
-30.36471874185191
 21
-117.7999999999993
 31
0.0
  0
LINE
  5
2832
330
2C25
100
AcDbEntity
  8
0
 62
     0
100
AcDbLine
 10
-250.700000000008
 20
-261.6898458823343
 30
0.0
 11
-34.86468003574009
 21
-117.8000000000011
 31
0.0
  0
LINE
  5
2833
330
2C25
100
AcDbEntity
  8
0
 62
     0
100
AcDbLine
 10
-250.7000000000116
 20
-258.689879346919
 30
0.0
 11
-39.36464132962647
 21
-117.8000000000029
 31
0.0
  0
LINE
  5
2834
330
2C25
100
AcDbEntity
  8
0
 62
     0
100
AcDbLine
 10
-250.7000000000098
 20
-255.6899128115019
 30
0.0
 11
-43.86460262350921
 21
-117.7999999999993
 31
0.0
  0
LINE
  5
2835
330
2C25
100
AcDbEntity
  8
0
 62
     0
100
AcDbLine
 10
-250.7000000000116
 20
-252.6899462760866
 30
0.0
 11
-48.36456391739922
 21
-117.8000000000011
 31
0.0
  0
LINE
  5
2836
330
2C25
100
AcDbEntity
  8
0
 62
     0
100
AcDbLine
 10
-250.7000000000116
 20
-249.6899797406677
 30
0.0
 11
-52.86452521128376
 21
-117.7999999999993
 31
0.0
  0
LINE
  5
2837
330
2C25
100
AcDbEntity
  8
0
 62
     0
100
AcDbLine
 10
-250.7000000000116
 20
-246.6900132052542
 30
0.0
 11
-57.36448650516831
 21
-117.8000000000011
 31
0.0
  0
LINE
  5
2838
330
2C25
100
AcDbEntity
  8
0
 62
     0
100
AcDbLine
 10
-250.7000000000098
 20
-243.6900466698371
 30
0.0
 11
-61.86444779905105
 21
-117.7999999999993
 31
0.0
  0
LINE
  5
2839
330
2C25
100
AcDbEntity
  8
0
 62
     0
100
AcDbLine
 10
-250.700000000008
 20
-240.69008013442
 30
0.0
 11
-66.36440909293742
 21
-117.7999999999993
 31
0.0
  0
LINE
  5
283A
330
2C25
100
AcDbEntity
  8
0
 62
     0
100
AcDbLine
 10
-250.7000000000116
 20
-237.6901135990029
 30
0.0
 11
-70.86437038682561
 21
-117.7999999999993
 31
0.0
  0
LINE
  5
283B
330
2C25
100
AcDbEntity
  8
0
 62
     0
100
AcDbLine
 10
-250.700000000008
 20
-234.6901470635876
 30
0.0
 11
-75.36433168070653
 21
-117.7999999999993
 31
0.0
  0
LINE
  5
283C
330
2C25
100
AcDbEntity
  8
0
 62
     0
100
AcDbLine
 10
-250.7000000000116
 20
-231.6901805281741
 30
0.0
 11
-79.86429297459655
 21
-117.8000000000029
 31
0.0
  0
LINE
  5
283D
330
2C25
100
AcDbEntity
  8
0
 62
     0
100
AcDbLine
 10
-250.7000000000098
 20
-228.6902139927552
 30
0.0
 11
-84.36425426848106
 21
-117.7999999999993
 31
0.0
  0
LINE
  5
283E
330
2C25
100
AcDbEntity
  8
0
 62
     0
100
AcDbLine
 10
-250.7000000000116
 20
-225.6902474573398
 30
0.0
 11
-88.86421556236745
 21
-117.7999999999993
 31
0.0
  0
LINE
  5
283F
330
2C25
100
AcDbEntity
  8
0
 62
     0
100
AcDbLine
 10
-250.700000000008
 20
-222.6902809219228
 30
0.0
 11
-93.36417685624835
 21
-117.7999999999993
 31
0.0
  0
LINE
  5
2840
330
2C25
100
AcDbEntity
  8
0
 62
     0
100
AcDbLine
 10
-250.7000000000098
 20
-219.6903143865075
 30
0.0
 11
-97.86413815014023
 21
-117.8000000000029
 31
0.0
  0
LINE
  5
2841
330
2C25
100
AcDbEntity
  8
0
 62
     0
100
AcDbLine
 10
-250.7000000000098
 20
-216.6903478510922
 30
0.0
 11
-102.3640994440229
 21
-117.8000000000011
 31
0.0
  0
LINE
  5
2842
330
2C25
100
AcDbEntity
  8
0
 62
     0
100
AcDbLine
 10
-250.700000000008
 20
-213.6903813156732
 30
0.0
 11
-106.8640607379093
 21
-117.8000000000011
 31
0.0
  0
LINE
  5
2843
330
2C25
100
AcDbEntity
  8
0
 62
     0
100
AcDbLine
 10
-250.7000000000098
 20
-210.6904147802579
 30
0.0
 11
-111.3640220317957
 21
-117.7999999999993
 31
0.0
  0
LINE
  5
2844
330
2C25
100
AcDbEntity
  8
0
 62
     0
100
AcDbLine
 10
-250.7000000000098
 20
-207.6904482448408
 30
0.0
 11
-115.8639833256802
 21
-117.7999999999993
 31
0.0
  0
LINE
  5
2845
330
2C25
100
AcDbEntity
  8
0
 62
     0
100
AcDbLine
 10
-250.7000000000098
 20
-204.6904817094273
 30
0.0
 11
-120.3639446195648
 21
-117.8000000000011
 31
0.0
  0
LINE
  5
2846
330
2C25
100
AcDbEntity
  8
0
 62
     0
100
AcDbLine
 10
-250.7000000000098
 20
-201.6905151740102
 30
0.0
 11
-124.8639059134529
 21
-117.8000000000011
 31
0.0
  0
LINE
  5
2847
330
2C25
100
AcDbEntity
  8
0
 62
     0
100
AcDbLine
 10
-250.7000000000116
 20
-198.6905486385931
 30
0.0
 11
-129.3638672073393
 21
-117.8000000000011
 31
0.0
  0
LINE
  5
2848
330
2C25
100
AcDbEntity
  8
0
 62
     0
100
AcDbLine
 10
-250.7000000000098
 20
-195.6905821031778
 30
0.0
 11
-133.8638285012221
 21
-117.7999999999993
 31
0.0
  0
LINE
  5
2849
330
2C25
100
AcDbEntity
  8
0
 62
     0
100
AcDbLine
 10
-250.7000000000098
 20
-192.6906155677624
 30
0.0
 11
-138.3637897951066
 21
-117.8000000000011
 31
0.0
  0
LINE
  5
284A
330
2C25
100
AcDbEntity
  8
0
 62
     0
100
AcDbLine
 10
-250.7000000000098
 20
-189.6906490323454
 30
0.0
 11
-142.863751088993
 21
-117.8000000000011
 31
0.0
  0
LINE
  5
284B
330
2C25
100
AcDbEntity
  8
0
 62
     0
100
AcDbLine
 10
-250.7000000000098
 20
-186.6906824969283
 30
0.0
 11
-147.3637123828812
 21
-117.8000000000011
 31
0.0
  0
LINE
  5
284C
330
2C25
100
AcDbEntity
  8
0
 62
     0
100
AcDbLine
 10
-250.7000000000098
 20
-183.690715961513
 30
0.0
 11
-151.8636736767639
 21
-117.8000000000011
 31
0.0
  0
LINE
  5
284D
330
2C25
100
AcDbEntity
  8
0
 62
     0
100
AcDbLine
 10
-250.7000000000098
 20
-180.6907494260977
 30
0.0
 11
-156.3636349706503
 21
-117.8000000000011
 31
0.0
  0
LINE
  5
284E
330
2C25
100
AcDbEntity
  8
0
 62
     0
100
AcDbLine
 10
-250.7000000000116
 20
-177.6907828906805
 30
0.0
 11
-160.8635962645367
 21
-117.8000000000011
 31
0.0
  0
LINE
  5
284F
330
2C25
100
AcDbEntity
  8
0
 62
     0
100
AcDbLine
 10
-250.7000000000098
 20
-174.6908163552634
 30
0.0
 11
-165.363557558423
 21
-117.8000000000011
 31
0.0
  0
LINE
  5
2850
330
2C25
100
AcDbEntity
  8
0
 62
     0
100
AcDbLine
 10
-250.7000000000098
 20
-171.6908498198481
 30
0.0
 11
-169.8635188523058
 21
-117.7999999999993
 31
0.0
  0
LINE
  5
2851
330
2C25
100
AcDbEntity
  8
0
 62
     0
100
AcDbLine
 10
-250.7000000000098
 20
-168.690883284431
 30
0.0
 11
-174.3634801461921
 21
-117.8000000000011
 31
0.0
  0
LINE
  5
2852
330
2C25
100
AcDbEntity
  8
0
 62
     0
100
AcDbLine
 10
-250.700000000008
 20
-165.6909167490157
 30
0.0
 11
-178.8634414400785
 21
-117.8000000000011
 31
0.0
  0
LINE
  5
2853
330
2C25
100
AcDbEntity
  8
0
 62
     0
100
AcDbLine
 10
-250.7000000000098
 20
-162.6909502135986
 30
0.0
 11
-183.3634027339613
 21
-117.7999999999993
 31
0.0
  0
LINE
  5
2854
330
2C25
100
AcDbEntity
  8
0
 62
     0
100
AcDbLine
 10
-250.700000000008
 20
-159.6909836781815
 30
0.0
 11
-187.8633640278494
 21
-117.7999999999993
 31
0.0
  0
LINE
  5
2855
330
2C25
100
AcDbEntity
  8
0
 62
     0
100
AcDbLine
 10
-250.7000000000116
 20
-156.691017142768
 30
0.0
 11
-192.3633253217358
 21
-117.8000000000011
 31
0.0
  0
LINE
  5
2856
330
2C25
100
AcDbEntity
  8
0
 62
     0
100
AcDbLine
 10
-250.700000000008
 20
-153.6910506073509
 30
0.0
 11
-196.8632866156204
 21
-117.8000000000029
 31
0.0
  0
LINE
  5
2857
330
2C25
100
AcDbEntity
  8
0
 62
     0
100
AcDbLine
 10
-250.7000000000116
 20
-150.6910840719356
 30
0.0
 11
-201.3632479095049
 21
-117.7999999999993
 31
0.0
  0
LINE
  5
2858
330
2C25
100
AcDbEntity
  8
0
 62
     0
100
AcDbLine
 10
-250.7000000000098
 20
-147.6911175365167
 30
0.0
 11
-205.8632092033913
 21
-117.7999999999993
 31
0.0
  0
LINE
  5
2859
330
2C25
100
AcDbEntity
  8
0
 62
     0
100
AcDbLine
 10
-250.7000000000116
 20
-144.6911510011032
 30
0.0
 11
-210.3631704972777
 21
-117.8000000000011
 31
0.0
  0
LINE
  5
285A
330
2C25
100
AcDbEntity
  8
0
 62
     0
100
AcDbLine
 10
-250.700000000008
 20
-141.6911844656861
 30
0.0
 11
-214.8631317911622
 21
-117.8000000000029
 31
0.0
  0
LINE
  5
285B
330
2C25
100
AcDbEntity
  8
0
 62
     0
100
AcDbLine
 10
-250.7000000000116
 20
-138.6912179302708
 30
0.0
 11
-219.3630930850468
 21
-117.8000000000011
 31
0.0
  0
LINE
  5
285C
330
2C25
100
AcDbEntity
  8
0
 62
     0
100
AcDbLine
 10
-250.7000000000116
 20
-135.6912513948536
 30
0.0
 11
-223.8630543789368
 21
-117.8000000000011
 31
0.0
  0
LINE
  5
285D
330
2C25
100
AcDbEntity
  8
0
 62
     0
100
AcDbLine
 10
-250.700000000008
 20
-132.6912848594347
 30
0.0
 11
-228.3630156728195
 21
-117.7999999999993
 31
0.0
  0
LINE
  5
285E
330
2C25
100
AcDbEntity
  8
0
 62
     0
100
AcDbLine
 10
-250.7000000000116
 20
-129.6913183240212
 30
0.0
 11
-232.8629769667059
 21
-117.8000000000011
 31
0.0
  0
LINE
  5
285F
330
2C25
100
AcDbEntity
  8
0
 62
     0
100
AcDbLine
 10
-250.7000000000098
 20
-126.691351788604
 30
0.0
 11
-237.3629382605904
 21
-117.8000000000011
 31
0.0
  0
LINE
  5
2860
330
2C25
100
AcDbEntity
  8
0
 62
     0
100
AcDbLine
 10
-250.7000000000116
 20
-123.6913852531888
 30
0.0
 11
-241.862899554475
 21
-117.8000000000011
 31
0.0
  0
LINE
  5
2861
330
2C25
100
AcDbEntity
  8
0
 62
     0
100
AcDbLine
 10
-250.700000000008
 20
-120.6914187177717
 30
0.0
 11
-246.3628608483614
 21
-117.7999999999993
 31
0.0
  0
ENDBLK
  5
2862
330
2C25
100
AcDbEntity
  8
0
100
AcDbBlockEnd
  0
BLOCK
  5
2C28
330
2C27
100
AcDbEntity
  8
0
100
AcDbBlockBegin
  2
*X77
 70
     1
 10
0.0
 20
0.0
 30
0.0
  3
*X77
  1

  0
LINE
  5
2865
330
2C27
100
AcDbEntity
  8
0
 62
     0
100
AcDbLine
 10
-250.6999999999989
 20
-575.4954541510861
 30
0.0
 11
-249.6431785280111
 21
-576.1999999999998
 31
0.0
  0
LINE
  5
2866
330
2C27
100
AcDbEntity
  8
0
 62
     0
100
AcDbLine
 10
-250.7000000000007
 20
-572.4954876156707
 30
0.0
 11
-245.143217234121
 21
-576.2000000000035
 31
0.0
  0
LINE
  5
2867
330
2C27
100
AcDbEntity
  8
0
 62
     0
100
AcDbLine
 10
-250.6999999999989
 20
-569.4955210802545
 30
0.0
 11
-240.6432559402383
 21
-576.2000000000007
 31
0.0
  0
LINE
  5
2868
330
2C27
100
AcDbEntity
  8
0
 62
     0
100
AcDbLine
 10
-250.7000000000007
 20
-566.4955545448365
 30
0.0
 11
-236.1432946463501
 21
-576.2000000000007
 31
0.0
  0
LINE
  5
2869
330
2C27
100
AcDbEntity
  8
0
 62
     0
100
AcDbLine
 10
-250.6999999999989
 20
-563.4955880094212
 30
0.0
 11
-231.6433333524674
 21
-576.1999999999998
 31
0.0
  0
LINE
  5
286A
330
2C27
100
AcDbEntity
  8
0
 62
     0
100
AcDbLine
 10
-250.7000000000007
 20
-560.4956214740041
 30
0.0
 11
-227.1433720585792
 21
-576.2000000000016
 31
0.0
  0
LINE
  5
286B
330
2C27
100
AcDbEntity
  8
0
 62
     0
100
AcDbLine
 10
-250.7000000000007
 20
-557.4956549385897
 30
0.0
 11
-222.6434107646964
 21
-576.2000000000016
 31
0.0
  0
LINE
  5
286C
330
2C27
100
AcDbEntity
  8
0
 62
     0
100
AcDbLine
 10
-250.6999999999989
 20
-554.4956884031726
 30
0.0
 11
-218.1434494708065
 21
-576.2000000000007
 31
0.0
  0
LINE
  5
286D
330
2C27
100
AcDbEntity
  8
0
 62
     0
100
AcDbLine
 10
-250.6999999999989
 20
-551.4957218677571
 30
0.0
 11
-213.6434881769219
 21
-576.2000000000025
 31
0.0
  0
LINE
  5
286E
330
2C27
100
AcDbEntity
  8
0
 62
     0
100
AcDbLine
 10
-250.7000000000007
 20
-548.49575533234
 30
0.0
 11
-209.1435268830391
 21
-576.1999999999998
 31
0.0
  0
LINE
  5
286F
330
2C27
100
AcDbEntity
  8
0
 62
     0
100
AcDbLine
 10
-250.7000000000007
 20
-545.4957887969236
 30
0.0
 11
-204.6435655891528
 21
-576.2000000000016
 31
0.0
  0
LINE
  5
2870
330
2C27
100
AcDbEntity
  8
0
 62
     0
100
AcDbLine
 10
-250.6999999999989
 20
-542.4958222615087
 30
0.0
 11
-200.1436042952682
 21
-576.1999999999988
 31
0.0
  0
LINE
  5
2871
330
2C27
100
AcDbEntity
  8
0
 62
     0
100
AcDbLine
 10
-250.7000000000007
 20
-539.4958557260925
 30
0.0
 11
-195.64364300138
 21
-576.2000000000025
 31
0.0
  0
LINE
  5
2872
330
2C27
100
AcDbEntity
  8
0
 62
     0
100
AcDbLine
 10
-250.6999999999989
 20
-536.4958891906752
 30
0.0
 11
-191.1436817074955
 21
-576.2000000000007
 31
0.0
  0
LINE
  5
2873
330
2C27
100
AcDbEntity
  8
0
 62
     0
100
AcDbLine
 10
-250.6999999999989
 20
-533.4959226552601
 30
0.0
 11
-186.643720413609
 21
-576.2000000000016
 31
0.0
  0
LINE
  5
2874
330
2C27
100
AcDbEntity
  8
0
 62
     0
100
AcDbLine
 10
-250.6999999999989
 20
-530.4959561198429
 30
0.0
 11
-182.1437591197264
 21
-576.1999999999998
 31
0.0
  0
LINE
  5
2875
330
2C27
100
AcDbEntity
  8
0
 62
     0
100
AcDbLine
 10
-250.7000000000007
 20
-527.4959895844256
 30
0.0
 11
-177.6437978258382
 21
-576.2000000000016
 31
0.0
  0
LINE
  5
2876
330
2C27
100
AcDbEntity
  8
0
 62
     0
100
AcDbLine
 10
-250.6999999999989
 20
-524.4960230490114
 30
0.0
 11
-173.1438365319536
 21
-576.2000000000007
 31
0.0
  0
LINE
  5
2877
330
2C27
100
AcDbEntity
  8
0
 62
     0
100
AcDbLine
 10
-250.6999999999989
 20
-521.4960565135943
 30
0.0
 11
-168.6438752380673
 21
-576.2000000000007
 31
0.0
  0
LINE
  5
2878
330
2C27
100
AcDbEntity
  8
0
 62
     0
100
AcDbLine
 10
-250.7000000000007
 20
-518.4960899781781
 30
0.0
 11
-164.1439139441827
 21
-576.2000000000025
 31
0.0
  0
LINE
  5
2879
330
2C27
100
AcDbEntity
  8
0
 62
     0
100
AcDbLine
 10
-250.7000000000007
 20
-515.4961234427609
 30
0.0
 11
-159.6439526502944
 21
-576.2000000000016
 31
0.0
  0
LINE
  5
287A
330
2C27
100
AcDbEntity
  8
0
 62
     0
100
AcDbLine
 10
-250.6999999999989
 20
-512.4961569073454
 30
0.0
 11
-155.1439913564099
 21
-576.2000000000016
 31
0.0
  0
LINE
  5
287B
330
2C27
100
AcDbEntity
  8
0
 62
     0
100
AcDbLine
 10
-250.7000000000007
 20
-509.4961903719292
 30
0.0
 11
-150.6440300625254
 21
-576.2000000000007
 31
0.0
  0
LINE
  5
287C
330
2C27
100
AcDbEntity
  8
0
 62
     0
100
AcDbLine
 10
-250.7000000000007
 20
-506.4962238365143
 30
0.0
 11
-146.1440687686408
 21
-576.2000000000025
 31
0.0
  0
LINE
  5
287D
330
2C27
100
AcDbEntity
  8
0
 62
     0
100
AcDbLine
 10
-250.6999999999989
 20
-503.4962573010971
 30
0.0
 11
-141.6441074747544
 21
-576.1999999999998
 31
0.0
  0
LINE
  5
287E
330
2C27
100
AcDbEntity
  8
0
 62
     0
100
AcDbLine
 10
-250.6999999999989
 20
-500.4962907656817
 30
0.0
 11
-137.1441461808699
 21
-576.2000000000016
 31
0.0
  0
LINE
  5
287F
330
2C27
100
AcDbEntity
  8
0
 62
     0
100
AcDbLine
 10
-250.7000000000007
 20
-497.4963242302647
 30
0.0
 11
-132.6441848869835
 21
-576.2000000000016
 31
0.0
  0
LINE
  5
2880
330
2C27
100
AcDbEntity
  8
0
 62
     0
100
AcDbLine
 10
-250.6999999999989
 20
-494.49635769485
 30
0.0
 11
-128.1442235930972
 21
-576.2000000000025
 31
0.0
  0
LINE
  5
2881
330
2C27
100
AcDbEntity
  8
0
 62
     0
100
AcDbLine
 10
-250.7000000000007
 20
-491.496391159432
 30
0.0
 11
-123.6442622992126
 21
-576.2000000000007
 31
0.0
  0
LINE
  5
2882
330
2C27
100
AcDbEntity
  8
0
 62
     0
100
AcDbLine
 10
-250.7000000000007
 20
-488.4964246240167
 30
0.0
 11
-119.1443010053281
 21
-576.2000000000025
 31
0.0
  0
LINE
  5
2883
330
2C27
100
AcDbEntity
  8
0
 62
     0
100
AcDbLine
 10
-250.7000000000007
 20
-485.4964580885996
 30
0.0
 11
-114.6443397114399
 21
-576.2000000000016
 31
0.0
  0
LINE
  5
2884
330
2C27
100
AcDbEntity
  8
0
 62
     0
100
AcDbLine
 10
-250.6999999999989
 20
-482.4964915531825
 30
0.0
 11
-110.1443784175535
 21
-576.2000000000016
 31
0.0
  0
LINE
  5
2885
330
2C27
100
AcDbEntity
  8
0
 62
     0
100
AcDbLine
 10
-250.6999999999989
 20
-479.4965250177674
 30
0.0
 11
-105.6444171236708
 21
-576.2000000000007
 31
0.0
  0
LINE
  5
2886
330
2C27
100
AcDbEntity
  8
0
 62
     0
100
AcDbLine
 10
-250.7000000000007
 20
-476.4965584823511
 30
0.0
 11
-101.1444558297862
 21
-576.2000000000007
 31
0.0
  0
LINE
  5
2887
330
2C27
100
AcDbEntity
  8
0
 62
     0
100
AcDbLine
 10
-250.6999999999989
 20
-473.4965919469359
 30
0.0
 11
-96.64449453589806
 21
-576.2000000000025
 31
0.0
  0
LINE
  5
2888
330
2C27
100
AcDbEntity
  8
0
 62
     0
100
AcDbLine
 10
-250.6999999999989
 20
-470.4966254115188
 30
0.0
 11
-92.14453324201349
 21
-576.1999999999998
 31
0.0
  0
LINE
  5
2889
330
2C27
100
AcDbEntity
  8
0
 62
     0
100
AcDbLine
 10
-250.6999999999989
 20
-467.4966588761034
 30
0.0
 11
-87.64457194812893
 21
-576.2000000000016
 31
0.0
  0
LINE
  5
288A
330
2C27
100
AcDbEntity
  8
0
 62
     0
100
AcDbLine
 10
-250.7000000000007
 20
-464.4966923406855
 30
0.0
 11
-83.14461065424257
 21
-576.2000000000007
 31
0.0
  0
LINE
  5
288B
330
2C27
100
AcDbEntity
  8
0
 62
     0
100
AcDbLine
 10
-250.6999999999989
 20
-461.4967258052711
 30
0.0
 11
-78.64464936035438
 21
-576.2000000000025
 31
0.0
  0
LINE
  5
288C
330
2C27
100
AcDbEntity
  8
0
 62
     0
100
AcDbLine
 10
-250.7000000000007
 20
-458.4967592698537
 30
0.0
 11
-74.14468806647345
 21
-576.1999999999998
 31
0.0
  0
LINE
  5
288D
330
2C27
100
AcDbEntity
  8
0
 62
     0
100
AcDbLine
 10
-250.7000000000007
 20
-455.4967927344387
 30
0.0
 11
-69.64472677258709
 21
-576.2000000000016
 31
0.0
  0
LINE
  5
288E
330
2C27
100
AcDbEntity
  8
0
 62
     0
100
AcDbLine
 10
-250.7000000000007
 20
-452.4968261990216
 30
0.0
 11
-65.14476547870072
 21
-576.2000000000016
 31
0.0
  0
LINE
  5
288F
330
2C27
100
AcDbEntity
  8
0
 62
     0
100
AcDbLine
 10
-250.6999999999989
 20
-449.4968596636063
 30
0.0
 11
-60.64480418481252
 21
-576.2000000000025
 31
0.0
  0
LINE
  5
2890
330
2C27
100
AcDbEntity
  8
0
 62
     0
100
AcDbLine
 10
-250.7000000000007
 20
-446.4968931281901
 30
0.0
 11
-56.14484289093161
 21
-576.2000000000007
 31
0.0
  0
LINE
  5
2891
330
2C27
100
AcDbEntity
  8
0
 62
     0
100
AcDbLine
 10
-250.6999999999989
 20
-443.4969265927729
 30
0.0
 11
-51.64488159703978
 21
-576.2000000000025
 31
0.0
  0
LINE
  5
2892
330
2C27
100
AcDbEntity
  8
0
 62
     0
100
AcDbLine
 10
-250.6999999999989
 20
-440.4969600573577
 30
0.0
 11
-47.14492030315704
 21
-576.2000000000016
 31
0.0
  0
LINE
  5
2893
330
2C27
100
AcDbEntity
  8
0
 62
     0
100
AcDbLine
 10
-250.7000000000007
 20
-437.4969935219396
 30
0.0
 11
-42.64495900927068
 21
-576.2000000000016
 31
0.0
  0
LINE
  5
2894
330
2C27
100
AcDbEntity
  8
0
 62
     0
100
AcDbLine
 10
-250.7000000000025
 20
-434.4970269865243
 30
0.0
 11
-38.14499771538976
 21
-576.2000000000007
 31
0.0
  0
LINE
  5
2895
330
2C27
100
AcDbEntity
  8
0
 62
     0
100
AcDbLine
 10
-250.6999999999989
 20
-431.4970604511072
 30
0.0
 11
-33.64503642149975
 21
-576.2000000000007
 31
0.0
  0
LINE
  5
2896
330
2C27
100
AcDbEntity
  8
0
 62
     0
100
AcDbLine
 10
-250.7000000000007
 20
-428.4970939156927
 30
0.0
 11
-29.1450751276152
 21
-576.2000000000025
 31
0.0
  0
LINE
  5
2897
330
2C27
100
AcDbEntity
  8
0
 62
     0
100
AcDbLine
 10
-250.7000000000007
 20
-425.4971273802756
 30
0.0
 11
-24.64511383373247
 21
-576.1999999999998
 31
0.0
  0
LINE
  5
2898
330
2C27
100
AcDbEntity
  8
0
 62
     0
100
AcDbLine
 10
-250.6999999999989
 20
-422.4971608448601
 30
0.0
 11
-20.14515253984246
 21
-576.2000000000035
 31
0.0
  0
LINE
  5
2899
330
2C27
100
AcDbEntity
  8
0
 62
     0
100
AcDbLine
 10
-250.6999999999989
 20
-419.4971943094432
 30
0.0
 11
-15.6451912459579
 21
-576.2000000000007
 31
0.0
  0
LINE
  5
289A
330
2C27
100
AcDbEntity
  8
0
 62
     0
100
AcDbLine
 10
-250.6999999999989
 20
-416.497227774028
 30
0.0
 11
-11.14522995207335
 21
-576.2000000000025
 31
0.0
  0
LINE
  5
289B
330
2C27
100
AcDbEntity
  8
0
 62
     0
100
AcDbLine
 10
-250.6999999999989
 20
-413.4972612386118
 30
0.0
 11
-6.645268658188794
 21
-576.2000000000007
 31
0.0
  0
LINE
  5
289C
330
2C27
100
AcDbEntity
  8
0
 62
     0
100
AcDbLine
 10
-250.6999999999989
 20
-410.4972947031956
 30
0.0
 11
-2.145307364298786
 21
-576.2000000000035
 31
0.0
  0
LINE
  5
289D
330
2C27
100
AcDbEntity
  8
0
 62
     0
100
AcDbLine
 10
-250.7000000000007
 20
-407.4973281677784
 30
0.0
 11
2.354653929583946
 21
-576.2000000000016
 31
0.0
  0
LINE
  5
289E
330
2C27
100
AcDbEntity
  8
0
 62
     0
100
AcDbLine
 10
-250.7000000000007
 20
-404.4973616323614
 30
0.0
 11
6.854615223468496
 21
-576.2000000000016
 31
0.0
  0
LINE
  5
289F
330
2C27
100
AcDbEntity
  8
0
 62
     0
100
AcDbLine
 10
-250.7000000000007
 20
-401.497395096946
 30
0.0
 11
11.35457651735305
 21
-576.2000000000007
 31
0.0
  0
LINE
  5
28A0
330
2C27
100
AcDbEntity
  8
0
 62
     0
100
AcDbLine
 10
-250.6999999999989
 20
-398.4974285615298
 30
0.0
 11
15.85453781123942
 21
-576.2000000000007
 31
0.0
  0
LINE
  5
28A1
330
2C27
100
AcDbEntity
  8
0
 62
     0
100
AcDbLine
 10
-250.7000000000007
 20
-395.4974620261146
 30
0.0
 11
20.3544991051258
 21
-576.2000000000016
 31
0.0
  0
LINE
  5
28A2
330
2C27
100
AcDbEntity
  8
0
 62
     0
100
AcDbLine
 10
-250.6999999999989
 20
-392.4974954906975
 30
0.0
 11
24.85446039900853
 21
-576.1999999999998
 31
0.0
  0
LINE
  5
28A3
330
2C27
100
AcDbEntity
  8
0
 62
     0
100
AcDbLine
 10
-250.7000000000007
 20
-389.4975289552812
 30
0.0
 11
29.35442169289854
 21
-576.2000000000035
 31
0.0
  0
LINE
  5
28A4
330
2C27
100
AcDbEntity
  8
0
 62
     0
100
AcDbLine
 10
-250.6999999999989
 20
-386.4975624198651
 30
0.0
 11
33.85438298678128
 21
-576.2000000000007
 31
0.0
  0
LINE
  5
28A5
330
2C27
100
AcDbEntity
  8
0
 62
     0
100
AcDbLine
 10
-250.7000000000025
 20
-383.4975958844489
 30
0.0
 11
38.35434428066765
 21
-576.2000000000025
 31
0.0
  0
LINE
  5
28A6
330
2C27
100
AcDbEntity
  8
0
 62
     0
100
AcDbLine
 10
-250.7000000000007
 20
-380.4976293490327
 30
0.0
 11
42.85430557455038
 21
-576.1999999999998
 31
0.0
  0
LINE
  5
28A7
330
2C27
100
AcDbEntity
  8
0
 62
     0
100
AcDbLine
 10
-250.7000000000007
 20
-377.4976628136173
 30
0.0
 11
47.35426686844038
 21
-576.2000000000035
 31
0.0
  0
LINE
  5
28A8
330
2C27
100
AcDbEntity
  8
0
 62
     0
100
AcDbLine
 10
-250.7000000000007
 20
-374.4976962782001
 30
0.0
 11
51.85422816232311
 21
-576.2000000000007
 31
0.0
  0
LINE
  5
28A9
330
2C27
100
AcDbEntity
  8
0
 62
     0
100
AcDbLine
 10
-250.7000000000007
 20
-371.497729742785
 30
0.0
 11
56.35418945621132
 21
-576.2000000000025
 31
0.0
  0
LINE
  5
28AA
330
2C27
100
AcDbEntity
  8
0
 62
     0
100
AcDbLine
 10
-250.6999999999989
 20
-368.4977632073678
 30
0.0
 11
60.85415075009405
 21
-576.2000000000007
 31
0.0
  0
LINE
  5
28AB
330
2C27
100
AcDbEntity
  8
0
 62
     0
100
AcDbLine
 10
-250.6999999999989
 20
-365.4977966719516
 30
0.0
 11
65.35411204398224
 21
-576.2000000000016
 31
0.0
  0
LINE
  5
28AC
330
2C27
100
AcDbEntity
  8
0
 62
     0
100
AcDbLine
 10
-250.7000000000007
 20
-362.4978301365354
 30
0.0
 11
69.85407333786679
 21
-576.2000000000016
 31
0.0
  0
LINE
  5
28AD
330
2C27
100
AcDbEntity
  8
0
 62
     0
100
AcDbLine
 10
-250.6999999999971
 20
-359.4978636011191
 30
0.0
 11
74.35403463175498
 21
-576.2000000000016
 31
0.0
  0
LINE
  5
28AE
330
2C27
100
AcDbEntity
  8
0
 62
     0
100
AcDbLine
 10
-250.7000000000007
 20
-356.497897065703
 30
0.0
 11
78.85399592563951
 21
-576.2000000000025
 31
0.0
  0
LINE
  5
28AF
330
2C27
100
AcDbEntity
  8
0
 62
     0
100
AcDbLine
 10
-250.7000000000007
 20
-353.4979305302859
 30
0.0
 11
83.35395721952227
 21
-576.2000000000007
 31
0.0
  0
LINE
  5
28B0
330
2C27
100
AcDbEntity
  8
0
 62
     0
100
AcDbLine
 10
-250.7000000000007
 20
-350.4979639948715
 30
0.0
 11
87.85391851340865
 21
-576.2000000000016
 31
0.0
  0
LINE
  5
28B1
330
2C27
100
AcDbEntity
  8
0
 62
     0
100
AcDbLine
 10
-250.6999999999989
 20
-347.4979974594543
 30
0.0
 11
92.35387980729321
 21
-576.1999999999998
 31
0.0
  0
LINE
  5
28B2
330
2C27
100
AcDbEntity
  8
0
 62
     0
100
AcDbLine
 10
-250.7000000000007
 20
-344.4980309240391
 30
0.0
 11
96.85384110118134
 21
-576.2000000000035
 31
0.0
  0
LINE
  5
28B3
330
2C27
100
AcDbEntity
  8
0
 62
     0
100
AcDbLine
 10
-250.7000000000007
 20
-341.498064388621
 30
0.0
 11
101.3538023950659
 21
-576.2000000000007
 31
0.0
  0
LINE
  5
28B4
330
2C27
100
AcDbEntity
  8
0
 62
     0
100
AcDbLine
 10
-250.7000000000007
 20
-338.4980978532058
 30
0.0
 11
105.8537636889523
 21
-576.2000000000025
 31
0.0
  0
LINE
  5
28B5
330
2C27
100
AcDbEntity
  8
0
 62
     0
100
AcDbLine
 10
-250.7000000000007
 20
-335.4981313177887
 30
0.0
 11
110.353724982835
 21
-576.1999999999998
 31
0.0
  0
LINE
  5
28B6
330
2C27
100
AcDbEntity
  8
0
 62
     0
100
AcDbLine
 10
-250.7000000000025
 20
-332.4981647823733
 30
0.0
 11
114.8536862767232
 21
-576.2000000000035
 31
0.0
  0
LINE
  5
28B7
330
2C27
100
AcDbEntity
  8
0
 62
     0
100
AcDbLine
 10
-250.7000000000025
 20
-329.4981982469562
 30
0.0
 11
119.3536475706078
 21
-576.2000000000016
 31
0.0
  0
LINE
  5
28B8
330
2C27
100
AcDbEntity
  8
0
 62
     0
100
AcDbLine
 10
-250.7000000000007
 20
-326.4982317115391
 30
0.0
 11
123.8536088644941
 21
-576.2000000000007
 31
0.0
  0
LINE
  5
28B9
330
2C27
100
AcDbEntity
  8
0
 62
     0
100
AcDbLine
 10
-250.7000000000025
 20
-323.4982651761238
 30
0.0
 11
128.3535701583787
 21
-576.2000000000025
 31
0.0
  0
LINE
  5
28BA
330
2C27
100
AcDbEntity
  8
0
 62
     0
100
AcDbLine
 10
-250.7000000000007
 20
-320.4982986407068
 30
0.0
 11
132.8535314522632
 21
-576.1999999999998
 31
0.0
  0
LINE
  5
28BB
330
2C27
100
AcDbEntity
  8
0
 62
     0
100
AcDbLine
 10
-250.7000000000007
 20
-317.4983321052923
 30
0.0
 11
137.3534927461514
 21
-576.2000000000016
 31
0.0
  0
LINE
  5
28BC
330
2C27
100
AcDbEntity
  8
0
 62
     0
100
AcDbLine
 10
-250.7000000000007
 20
-314.4983655698752
 30
0.0
 11
141.853454040036
 21
-576.2000000000016
 31
0.0
  0
LINE
  5
28BD
330
2C27
100
AcDbEntity
  8
0
 62
     0
100
AcDbLine
 10
-250.7000000000044
 20
-311.498399034459
 30
0.0
 11
146.3534153339205
 21
-576.2000000000025
 31
0.0
  0
LINE
  5
28BE
330
2C27
100
AcDbEntity
  8
0
 62
     0
100
AcDbLine
 10
-250.7000000000007
 20
-308.4984324990419
 30
0.0
 11
150.8533766278069
 21
-576.2000000000007
 31
0.0
  0
LINE
  5
28BF
330
2C27
100
AcDbEntity
  8
0
 62
     0
100
AcDbLine
 10
-250.7000000000025
 20
-305.4984659636265
 30
0.0
 11
155.3533379216914
 21
-576.2000000000016
 31
0.0
  0
LINE
  5
28C0
330
2C27
100
AcDbEntity
  8
0
 62
     0
100
AcDbLine
 10
-250.7000000000025
 20
-302.4984994282096
 30
0.0
 11
159.8532992155742
 21
-576.1999999999998
 31
0.0
  0
LINE
  5
28C1
330
2C27
100
AcDbEntity
  8
0
 62
     0
100
AcDbLine
 10
-250.7000000000025
 20
-299.4985328927951
 30
0.0
 11
164.3532605094641
 21
-576.2000000000035
 31
0.0
  0
LINE
  5
28C2
330
2C27
100
AcDbEntity
  8
0
 62
     0
100
AcDbLine
 10
-250.7000000000007
 20
-296.498566357378
 30
0.0
 11
168.8532218033488
 21
-576.2000000000007
 31
0.0
  0
LINE
  5
28C3
330
2C27
100
AcDbEntity
  8
0
 62
     0
100
AcDbLine
 10
-250.7000000000025
 20
-293.4985998219627
 30
0.0
 11
173.3531830972333
 21
-576.2000000000025
 31
0.0
  0
LINE
  5
28C4
330
2C27
100
AcDbEntity
  8
0
 62
     0
100
AcDbLine
 10
-250.7000000000007
 20
-290.4986332865456
 30
0.0
 11
177.8531443911214
 21
-576.2000000000025
 31
0.0
  0
LINE
  5
28C5
330
2C27
100
AcDbEntity
  8
0
 62
     0
100
AcDbLine
 10
-250.7000000000007
 20
-287.4986667511302
 30
0.0
 11
182.3531056850079
 21
-576.2000000000035
 31
0.0
  0
LINE
  5
28C6
330
2C27
100
AcDbEntity
  8
0
 62
     0
100
AcDbLine
 10
-250.7000000000025
 20
-284.4987002157131
 30
0.0
 11
186.8530669788906
 21
-576.2000000000016
 31
0.0
  0
LINE
  5
28C7
330
2C27
100
AcDbEntity
  8
0
 62
     0
100
AcDbLine
 10
-250.7000000000025
 20
-281.4987336802961
 30
0.0
 11
191.3530282727752
 21
-576.2000000000007
 31
0.0
  0
LINE
  5
28C8
330
2C27
100
AcDbEntity
  8
0
 62
     0
100
AcDbLine
 10
-250.7000000000025
 20
-278.4987671448807
 30
0.0
 11
195.8529895666634
 21
-576.2000000000025
 31
0.0
  0
LINE
  5
28C9
330
2C27
100
AcDbEntity
  8
0
 62
     0
100
AcDbLine
 10
-250.7000000000007
 20
-275.4988006094635
 30
0.0
 11
200.3529508605479
 21
-576.1999999999998
 31
0.0
  0
LINE
  5
28CA
330
2C27
100
AcDbEntity
  8
0
 62
     0
100
AcDbLine
 10
-250.7000000000025
 20
-272.4988340740483
 30
0.0
 11
204.8529121544325
 21
-576.2000000000016
 31
0.0
  0
LINE
  5
28CB
330
2C27
100
AcDbEntity
  8
0
 62
     0
100
AcDbLine
 10
-250.7000000000007
 20
-269.4988675386321
 30
0.0
 11
209.352873448317
 21
-576.1999999999988
 31
0.0
  0
LINE
  5
28CC
330
2C27
100
AcDbEntity
  8
0
 62
     0
100
AcDbLine
 10
-250.7000000000007
 20
-266.4989010032168
 30
0.0
 11
213.8528347422071
 21
-576.2000000000025
 31
0.0
  0
LINE
  5
28CD
330
2C27
100
AcDbEntity
  8
0
 62
     0
100
AcDbLine
 10
-250.7000000000007
 20
-263.4989344677997
 30
0.0
 11
218.352796036088
 21
-576.2000000000007
 31
0.0
  0
LINE
  5
28CE
330
2C27
100
AcDbEntity
  8
0
 62
     0
100
AcDbLine
 10
-250.7000000000025
 20
-260.4989679323844
 30
0.0
 11
222.8527573299743
 21
-576.2000000000016
 31
0.0
  0
LINE
  5
28CF
330
2C27
100
AcDbEntity
  8
0
 62
     0
100
AcDbLine
 10
-250.7000000000025
 20
-257.4990013969664
 30
0.0
 11
227.3527186238607
 21
-576.2000000000016
 31
0.0
  0
LINE
  5
28D0
330
2C27
100
AcDbEntity
  8
0
 62
     0
100
AcDbLine
 10
-250.7000000000025
 20
-254.4990348615511
 30
0.0
 11
231.8526799177489
 21
-576.2000000000035
 31
0.0
  0
LINE
  5
28D1
330
2C27
100
AcDbEntity
  8
0
 62
     0
100
AcDbLine
 10
-250.7000000000025
 20
-251.4990683261349
 30
0.0
 11
236.3526412116298
 21
-576.2000000000007
 31
0.0
  0
LINE
  5
28D2
330
2C27
100
AcDbEntity
  8
0
 62
     0
100
AcDbLine
 10
-250.7000000000025
 20
-248.4991017907196
 30
0.0
 11
240.852602505518
 21
-576.2000000000025
 31
0.0
  0
LINE
  5
28D3
330
2C27
100
AcDbEntity
  8
0
 62
     0
100
AcDbLine
 10
-250.7000000000007
 20
-245.4991352553025
 30
0.0
 11
245.3525637994044
 21
-576.2000000000025
 31
0.0
  0
LINE
  5
28D4
330
2C27
100
AcDbEntity
  8
0
 62
     0
100
AcDbLine
 10
-250.7000000000025
 20
-242.4991687198854
 30
0.0
 11
249.8525250932871
 21
-576.1999999999998
 31
0.0
  0
LINE
  5
28D5
330
2C27
100
AcDbEntity
  8
0
 62
     0
100
AcDbLine
 10
-250.7000000000025
 20
-239.49920218447
 30
0.0
 11
250.6999999999933
 21
-573.7650152930242
 31
0.0
  0
LINE
  5
28D6
330
2C27
100
AcDbEntity
  8
0
 62
     0
100
AcDbLine
 10
-250.7000000000007
 20
-236.4992356490537
 30
0.0
 11
250.6999999999953
 21
-570.7650487576064
 31
0.0
  0
LINE
  5
28D7
330
2C27
100
AcDbEntity
  8
0
 62
     0
100
AcDbLine
 10
-250.7000000000007
 20
-233.4992691136386
 30
0.0
 11
250.6999999999933
 21
-567.7650822221912
 31
0.0
  0
LINE
  5
28D8
330
2C27
100
AcDbEntity
  8
0
 62
     0
100
AcDbLine
 10
-250.7000000000025
 20
-230.4993025782205
 30
0.0
 11
250.6999999999933
 21
-564.7651156867741
 31
0.0
  0
LINE
  5
28D9
330
2C27
100
AcDbEntity
  8
0
 62
     0
100
AcDbLine
 10
-250.7000000000025
 20
-227.4993360428052
 30
0.0
 11
250.6999999999933
 21
-561.7651491513597
 31
0.0
  0
LINE
  5
28DA
330
2C27
100
AcDbEntity
  8
0
 62
     0
100
AcDbLine
 10
-250.7000000000007
 20
-224.4993695073881
 30
0.0
 11
250.6999999999953
 21
-558.7651826159426
 31
0.0
  0
LINE
  5
28DB
330
2C27
100
AcDbEntity
  8
0
 62
     0
100
AcDbLine
 10
-250.7000000000025
 20
-221.4994029719737
 30
0.0
 11
250.6999999999933
 21
-555.7652160805274
 31
0.0
  0
LINE
  5
28DC
330
2C27
100
AcDbEntity
  8
0
 62
     0
100
AcDbLine
 10
-250.7000000000007
 20
-218.4994364365566
 30
0.0
 11
250.6999999999953
 21
-552.7652495451102
 31
0.0
  0
LINE
  5
28DD
330
2C27
100
AcDbEntity
  8
0
 62
     0
100
AcDbLine
 10
-250.7000000000007
 20
-215.4994699011413
 30
0.0
 11
250.6999999999953
 21
-549.765283009694
 31
0.0
  0
LINE
  5
28DE
330
2C27
100
AcDbEntity
  8
0
 62
     0
100
AcDbLine
 10
-250.7000000000007
 20
-212.4995033657242
 30
0.0
 11
250.6999999999953
 21
-546.7653164742787
 31
0.0
  0
LINE
  5
28DF
330
2C27
100
AcDbEntity
  8
0
 62
     0
100
AcDbLine
 10
-250.7000000000044
 20
-209.499536830308
 30
0.0
 11
250.6999999999933
 21
-543.7653499388625
 31
0.0
  0
LINE
  5
28E0
330
2C27
100
AcDbEntity
  8
0
 62
     0
100
AcDbLine
 10
-250.7000000000025
 20
-206.4995702948918
 30
0.0
 11
250.6999999999933
 21
-540.7653834034454
 31
0.0
  0
LINE
  5
28E1
330
2C27
100
AcDbEntity
  8
0
 62
     0
100
AcDbLine
 10
-250.7000000000025
 20
-203.4996037594747
 30
0.0
 11
250.6999999999953
 21
-537.7654168680281
 31
0.0
  0
LINE
  5
28E2
330
2C27
100
AcDbEntity
  8
0
 62
     0
100
AcDbLine
 10
-250.7000000000025
 20
-200.4996372240594
 30
0.0
 11
250.6999999999933
 21
-534.765450332613
 31
0.0
  0
LINE
  5
28E3
330
2C27
100
AcDbEntity
  8
0
 62
     0
100
AcDbLine
 10
-250.7000000000025
 20
-197.4996706886422
 30
0.0
 11
250.6999999999953
 21
-531.7654837971968
 31
0.0
  0
LINE
  5
28E4
330
2C27
100
AcDbEntity
  8
0
 62
     0
100
AcDbLine
 10
-250.7000000000007
 20
-194.4997041532269
 30
0.0
 11
250.6999999999953
 21
-528.7655172617815
 31
0.0
  0
LINE
  5
28E5
330
2C27
100
AcDbEntity
  8
0
 62
     0
100
AcDbLine
 10
-250.7000000000025
 20
-191.4997376178106
 30
0.0
 11
250.6999999999953
 21
-525.7655507263644
 31
0.0
  0
LINE
  5
28E6
330
2C27
100
AcDbEntity
  8
0
 62
     0
100
AcDbLine
 10
-250.7000000000025
 20
-188.4997710823954
 30
0.0
 11
250.6999999999916
 21
-522.7655841909482
 31
0.0
  0
LINE
  5
28E7
330
2C27
100
AcDbEntity
  8
0
 62
     0
100
AcDbLine
 10
-250.7000000000007
 20
-185.4998045469783
 30
0.0
 11
250.6999999999953
 21
-519.7656176555311
 31
0.0
  0
LINE
  5
28E8
330
2C27
100
AcDbEntity
  8
0
 62
     0
100
AcDbLine
 10
-250.7000000000025
 20
-182.4998380115621
 30
0.0
 11
250.6999999999933
 21
-516.7656511201156
 31
0.0
  0
LINE
  5
28E9
330
2C27
100
AcDbEntity
  8
0
 62
     0
100
AcDbLine
 10
-250.7000000000025
 20
-179.499871476145
 30
0.0
 11
250.6999999999933
 21
-513.7656845846996
 31
0.0
  0
LINE
  5
28EA
330
2C27
100
AcDbEntity
  8
0
 62
     0
100
AcDbLine
 10
-250.7000000000025
 20
-176.4999049407296
 30
0.0
 11
250.6999999999933
 21
-510.7657180492842
 31
0.0
  0
LINE
  5
28EB
330
2C27
100
AcDbEntity
  8
0
 62
     0
100
AcDbLine
 10
-250.7000000000007
 20
-173.4999384053134
 30
0.0
 11
250.6999999999953
 21
-507.7657515138668
 31
0.0
  0
LINE
  5
28EC
330
2C27
100
AcDbEntity
  8
0
 62
     0
100
AcDbLine
 10
-250.7000000000025
 20
-170.4999718698982
 30
0.0
 11
250.6999999999933
 21
-504.7657849784518
 31
0.0
  0
LINE
  5
28ED
330
2C27
100
AcDbEntity
  8
0
 62
     0
100
AcDbLine
 10
-250.7000000000007
 20
-167.5000053344811
 30
0.0
 11
250.6999999999953
 21
-501.7658184430346
 31
0.0
  0
LINE
  5
28EE
330
2C27
100
AcDbEntity
  8
0
 62
     0
100
AcDbLine
 10
-250.7000000000007
 20
-164.500038799064
 30
0.0
 11
250.6999999999953
 21
-498.7658519076184
 31
0.0
  0
LINE
  5
28EF
330
2C27
100
AcDbEntity
  8
0
 62
     0
100
AcDbLine
 10
-250.7000000000007
 20
-161.5000722636487
 30
0.0
 11
250.6999999999933
 21
-495.7658853722023
 31
0.0
  0
LINE
  5
28F0
330
2C27
100
AcDbEntity
  8
0
 62
     0
100
AcDbLine
 10
-250.7000000000025
 20
-158.5001057282324
 30
0.0
 11
250.6999999999933
 21
-492.7659188367852
 31
0.0
  0
LINE
  5
28F1
330
2C27
100
AcDbEntity
  8
0
 62
     0
100
AcDbLine
 10
-250.7000000000025
 20
-155.5001391928163
 30
0.0
 11
250.6999999999933
 21
-489.7659523013699
 31
0.0
  0
LINE
  5
28F2
330
2C27
100
AcDbEntity
  8
0
 62
     0
100
AcDbLine
 10
-250.7000000000025
 20
-152.5001726573991
 30
0.0
 11
250.6999999999953
 21
-486.7659857659528
 31
0.0
  0
LINE
  5
28F3
330
2C27
100
AcDbEntity
  8
0
 62
     0
100
AcDbLine
 10
-250.7000000000025
 20
-149.5002061219838
 30
0.0
 11
250.6999999999933
 21
-483.7660192305384
 31
0.0
  0
LINE
  5
28F4
330
2C27
100
AcDbEntity
  8
0
 62
     0
100
AcDbLine
 10
-250.7000000000025
 20
-146.5002395865667
 30
0.0
 11
250.6999999999953
 21
-480.7660526951211
 31
0.0
  0
LINE
  5
28F5
330
2C27
100
AcDbEntity
  8
0
 62
     0
100
AcDbLine
 10
-250.7000000000007
 20
-143.5002730511523
 30
0.0
 11
250.6999999999953
 21
-477.7660861597056
 31
0.0
  0
LINE
  5
28F6
330
2C27
100
AcDbEntity
  8
0
 62
     0
100
AcDbLine
 10
-250.7000000000025
 20
-140.5003065157352
 30
0.0
 11
250.6999999999933
 21
-474.7661196242879
 31
0.0
  0
LINE
  5
28F7
330
2C27
100
AcDbEntity
  8
0
 62
     0
100
AcDbLine
 10
-250.7000000000025
 20
-137.5003399803199
 30
0.0
 11
250.6999999999933
 21
-471.7661530888736
 31
0.0
  0
LINE
  5
28F8
330
2C27
100
AcDbEntity
  8
0
 62
     0
100
AcDbLine
 10
-250.7000000000025
 20
-134.5003734449019
 30
0.0
 11
250.6999999999933
 21
-468.7661865534555
 31
0.0
  0
LINE
  5
28F9
330
2C27
100
AcDbEntity
  8
0
 62
     0
100
AcDbLine
 10
-250.7000000000025
 20
-131.5004069094866
 30
0.0
 11
250.6999999999933
 21
-465.7662200180411
 31
0.0
  0
LINE
  5
28FA
330
2C27
100
AcDbEntity
  8
0
 62
     0
100
AcDbLine
 10
-250.7000000000025
 20
-128.5004403740695
 30
0.0
 11
250.6999999999933
 21
-462.7662534826241
 31
0.0
  0
LINE
  5
28FB
330
2C27
100
AcDbEntity
  8
0
 62
     0
100
AcDbLine
 10
-250.7000000000025
 20
-125.5004738386533
 30
0.0
 11
250.6999999999933
 21
-459.7662869472069
 31
0.0
  0
LINE
  5
28FC
330
2C27
100
AcDbEntity
  8
0
 62
     0
100
AcDbLine
 10
-250.7000000000007
 20
-122.500507303238
 30
0.0
 11
250.6999999999953
 21
-456.7663204117915
 31
0.0
  0
LINE
  5
28FD
330
2C27
100
AcDbEntity
  8
0
 62
     0
100
AcDbLine
 10
34.899999999996
 20
-309.9000545767621
 30
0.0
 11
37.44992464614734
 21
-311.6000000000004
 31
0.0
  0
LINE
  5
28FE
330
2C27
100
AcDbEntity
  8
0
 62
     0
100
AcDbLine
 10
37.44992464614916
 20
-311.6000000000013
 30
0.0
 11
250.6999999999933
 21
-453.7663538763752
 31
0.0
  0
LINE
  5
28FF
330
2C27
100
AcDbEntity
  8
0
 62
     0
100
AcDbLine
 10
-250.7000000000025
 20
-119.5005407678209
 30
0.0
 11
34.89999999999236
 21
-309.9000545767594
 31
0.0
  0
LINE
  5
2900
330
2C27
100
AcDbEntity
  8
0
 62
     0
100
AcDbLine
 10
34.899999999996
 20
-306.9000880413469
 30
0.0
 11
41.94988594003189
 21
-311.6000000000004
 31
0.0
  0
LINE
  5
2901
330
2C27
100
AcDbEntity
  8
0
 62
     0
100
AcDbLine
 10
41.94988594003371
 20
-311.6000000000022
 30
0.0
 11
250.6999999999933
 21
-450.76638734096
 31
0.0
  0
LINE
  5
2902
330
2C27
100
AcDbEntity
  8
0
 62
     0
100
AcDbLine
 10
-248.7508563714237
 20
-117.800000000002
 30
0.0
 11
34.89999999999054
 21
-306.9000880413441
 31
0.0
  0
LINE
  5
2903
330
2C27
100
AcDbEntity
  8
0
 62
     0
100
AcDbLine
 10
34.89999999999782
 20
-303.9001215059308
 30
0.0
 11
46.44984723392008
 21
-311.5999999999995
 31
0.0
  0
LINE
  5
2904
330
2C27
100
AcDbEntity
  8
0
 62
     0
100
AcDbLine
 10
46.44984723392008
 20
-311.6000000000004
 30
0.0
 11
250.6999999999953
 21
-447.7664208055418
 31
0.0
  0
LINE
  5
2905
330
2C27
100
AcDbEntity
  8
0
 62
     0
100
AcDbLine
 10
-244.2508950775355
 20
-117.8000000000002
 30
0.0
 11
34.89999999999236
 21
-303.900121505926
 31
0.0
  0
LINE
  5
2906
330
2C27
100
AcDbEntity
  8
0
 62
     0
100
AcDbLine
 10
34.89999999999782
 20
-300.9001549705154
 30
0.0
 11
50.94980852780463
 21
-311.6000000000013
 31
0.0
  0
LINE
  5
2907
330
2C27
100
AcDbEntity
  8
0
 62
     0
100
AcDbLine
 10
50.94980852780827
 20
-311.6000000000028
 30
0.0
 11
250.6999999999916
 21
-444.7664542701259
 31
0.0
  0
LINE
  5
2908
330
2C27
100
AcDbEntity
  8
0
 62
     0
100
AcDbLine
 10
-239.7509337836527
 20
-117.8000000000011
 30
0.0
 11
34.89999999999054
 21
-300.9001549705108
 31
0.0
  0
LINE
  5
2909
330
2C27
100
AcDbEntity
  8
0
 62
     0
100
AcDbLine
 10
34.899999999996
 20
-297.9001884350982
 30
0.0
 11
55.44976982168917
 21
-311.5999999999995
 31
0.0
  0
LINE
  5
290A
330
2C27
100
AcDbEntity
  8
0
 62
     0
100
AcDbLine
 10
55.44976982169099
 20
-311.6000000000013
 30
0.0
 11
250.6999999999916
 21
-441.7664877347087
 31
0.0
  0
LINE
  5
290B
330
2C27
100
AcDbEntity
  8
0
 62
     0
100
AcDbLine
 10
-235.2509724897645
 20
-117.800000000002
 30
0.0
 11
34.89999999999054
 21
-297.9001884350937
 31
0.0
  0
LINE
  5
290C
330
2C27
100
AcDbEntity
  8
0
 62
     0
100
AcDbLine
 10
34.899999999996
 20
-294.900221899682
 30
0.0
 11
59.94973111557374
 21
-311.6000000000004
 31
0.0
  0
LINE
  5
290D
330
2C27
100
AcDbEntity
  8
0
 62
     0
100
AcDbLine
 10
59.94973111557738
 20
-311.6000000000022
 30
0.0
 11
250.6999999999916
 21
-438.7665211992935
 31
0.0
  0
LINE
  5
290E
330
2C27
100
AcDbEntity
  8
0
 62
     0
100
AcDbLine
 10
-230.75101119588
 20
-117.800000000002
 30
0.0
 11
34.89999999999054
 21
-294.9002218996792
 31
0.0
  0
LINE
  5
290F
330
2C27
100
AcDbEntity
  8
0
 62
     0
100
AcDbLine
 10
34.899999999996
 20
-291.9002553642648
 30
0.0
 11
64.44969240946011
 21
-311.5999999999985
 31
0.0
  0
LINE
  5
2910
330
2C27
100
AcDbEntity
  8
0
 62
     0
100
AcDbLine
 10
64.44969240946557
 20
-311.6000000000028
 30
0.0
 11
250.6999999999933
 21
-435.7665546638763
 31
0.0
  0
LINE
  5
2911
330
2C27
100
AcDbEntity
  8
0
 62
     0
100
AcDbLine
 10
-226.2510499019936
 20
-117.8000000000011
 30
0.0
 11
34.89999999999236
 21
-291.9002553642622
 31
0.0
  0
LINE
  5
2912
330
2C27
100
AcDbEntity
  8
0
 62
     0
100
AcDbLine
 10
34.899999999996
 20
-288.9002888288496
 30
0.0
 11
68.94965370334649
 21
-311.6000000000013
 31
0.0
  0
LINE
  5
2913
330
2C27
100
AcDbEntity
  8
0
 62
     0
100
AcDbLine
 10
68.94965370335011
 20
-311.6000000000028
 30
0.0
 11
250.6999999999916
 21
-432.766588128462
 31
0.0
  0
LINE
  5
2914
330
2C27
100
AcDbEntity
  8
0
 62
     0
100
AcDbLine
 10
-221.7510886081109
 20
-117.8000000000011
 30
0.0
 11
34.89999999999054
 21
-288.9002888288469
 31
0.0
  0
LINE
  5
2915
330
2C27
100
AcDbEntity
  8
0
 62
     0
100
AcDbLine
 10
34.899999999996
 20
-285.9003222934335
 30
0.0
 11
73.44961499723104
 21
-311.6000000000004
 31
0.0
  0
LINE
  5
2916
330
2C27
100
AcDbEntity
  8
0
 62
     0
100
AcDbLine
 10
73.44961499723467
 20
-311.6000000000022
 30
0.0
 11
250.6999999999933
 21
-429.7666215930449
 31
0.0
  0
LINE
  5
2917
330
2C27
100
AcDbEntity
  8
0
 62
     0
100
AcDbLine
 10
-217.2511273142209
 20
-117.800000000002
 30
0.0
 11
34.89999999999236
 21
-285.9003222934298
 31
0.0
  0
LINE
  5
2918
330
2C27
100
AcDbEntity
  8
0
 62
     0
100
AcDbLine
 10
34.89999999999782
 20
-282.9003557580181
 30
0.0
 11
77.94957629111741
 21
-311.6000000000004
 31
0.0
  0
LINE
  5
2919
330
2C27
100
AcDbEntity
  8
0
 62
     0
100
AcDbLine
 10
77.94957629112102
 20
-311.6000000000022
 30
0.0
 11
250.6999999999933
 21
-426.7666550576294
 31
0.0
  0
LINE
  5
291A
330
2C27
100
AcDbEntity
  8
0
 62
     0
100
AcDbLine
 10
-212.7511660203363
 20
-117.8000000000029
 30
0.0
 11
34.89999999999236
 21
-282.9003557580154
 31
0.0
  0
LINE
  5
291B
330
2C27
100
AcDbEntity
  8
0
 62
     0
100
AcDbLine
 10
34.899999999996
 20
-279.900389222601
 30
0.0
 11
82.44953758500377
 21
-311.6000000000013
 31
0.0
  0
LINE
  5
291C
330
2C27
100
AcDbEntity
  8
0
 62
     0
100
AcDbLine
 10
82.4495375850056
 20
-311.6000000000022
 30
0.0
 11
250.6999999999916
 21
-423.7666885222115
 31
0.0
  0
LINE
  5
291D
330
2C27
100
AcDbEntity
  8
0
 62
     0
100
AcDbLine
 10
-208.2512047264517
 20
-117.8000000000011
 30
0.0
 11
34.89999999999236
 21
-279.9003892225983
 31
0.0
  0
LINE
  5
291E
330
2C27
100
AcDbEntity
  8
0
 62
     0
100
AcDbLine
 10
34.899999999996
 20
-276.9004226871857
 30
0.0
 11
86.94949887888833
 21
-311.6000000000022
 31
0.0
  0
LINE
  5
291F
330
2C27
100
AcDbEntity
  8
0
 62
     0
100
AcDbLine
 10
86.94949887889015
 20
-311.6000000000028
 30
0.0
 11
250.6999999999898
 21
-420.766721986796
 31
0.0
  0
LINE
  5
2920
330
2C27
100
AcDbEntity
  8
0
 62
     0
100
AcDbLine
 10
-203.751243432569
 20
-117.800000000002
 30
0.0
 11
34.89999999998872
 21
-276.9004226871821
 31
0.0
  0
LINE
  5
2921
330
2C27
100
AcDbEntity
  8
0
 62
     0
100
AcDbLine
 10
34.899999999996
 20
-273.9004561517686
 30
0.0
 11
91.44946017277289
 21
-311.6000000000004
 31
0.0
  0
LINE
  5
2922
330
2C27
100
AcDbEntity
  8
0
 62
     0
100
AcDbLine
 10
91.44946017277652
 20
-311.6000000000022
 30
0.0
 11
250.6999999999916
 21
-417.7667554513799
 31
0.0
  0
LINE
  5
2923
330
2C27
100
AcDbEntity
  8
0
 62
     0
100
AcDbLine
 10
-199.2512821386808
 20
-117.8000000000011
 30
0.0
 11
34.89999999999054
 21
-273.900456151765
 31
0.0
  0
LINE
  5
2924
330
2C27
100
AcDbEntity
  8
0
 62
     0
100
AcDbLine
 10
34.89999999999782
 20
-270.9004896163524
 30
0.0
 11
95.94942146666289
 21
-311.6000000000013
 31
0.0
  0
LINE
  5
2925
330
2C27
100
AcDbEntity
  8
0
 62
     0
100
AcDbLine
 10
95.94942146666289
 20
-311.6000000000013
 30
0.0
 11
250.6999999999916
 21
-414.7667889159629
 31
0.0
  0
LINE
  5
2926
330
2C27
100
AcDbEntity
  8
0
 62
     0
100
AcDbLine
 10
-194.7513208447963
 20
-117.8000000000002
 30
0.0
 11
34.89999999999054
 21
-270.9004896163477
 31
0.0
  0
LINE
  5
2927
330
2C27
100
AcDbEntity
  8
0
 62
     0
100
AcDbLine
 10
34.89999999999418
 20
-267.9005230809362
 30
0.0
 11
100.4493827605456
 21
-311.6000000000013
 31
0.0
  0
LINE
  5
2928
330
2C27
100
AcDbEntity
  8
0
 62
     0
100
AcDbLine
 10
100.4493827605474
 20
-311.6000000000028
 30
0.0
 11
250.6999999999916
 21
-411.7668223805476
 31
0.0
  0
LINE
  5
2929
330
2C27
100
AcDbEntity
  8
0
 62
     0
100
AcDbLine
 10
-190.2513595509116
 20
-117.8000000000011
 30
0.0
 11
34.89999999999054
 21
-267.9005230809325
 31
0.0
  0
LINE
  5
292A
330
2C27
100
AcDbEntity
  8
0
 62
     0
100
AcDbLine
 10
34.899999999996
 20
-264.900556545519
 30
0.0
 11
104.949344054432
 21
-311.6000000000004
 31
0.0
  0
LINE
  5
292B
330
2C27
100
AcDbEntity
  8
0
 62
     0
100
AcDbLine
 10
104.9493440544338
 20
-311.6000000000013
 30
0.0
 11
250.6999999999933
 21
-408.7668558451302
 31
0.0
  0
LINE
  5
292C
330
2C27
100
AcDbEntity
  8
0
 62
     0
100
AcDbLine
 10
-185.7513982570253
 20
-117.8000000000002
 30
0.0
 11
34.89999999999236
 21
-264.9005565455163
 31
0.0
  0
LINE
  5
292D
330
2C27
100
AcDbEntity
  8
0
 62
     0
100
AcDbLine
 10
34.89999999999782
 20
-261.9005900101038
 30
0.0
 11
109.4493053483165
 21
-311.6000000000013
 31
0.0
  0
LINE
  5
292E
330
2C27
100
AcDbEntity
  8
0
 62
     0
100
AcDbLine
 10
109.4493053483184
 20
-311.6000000000022
 30
0.0
 11
250.6999999999933
 21
-405.7668893097151
 31
0.0
  0
LINE
  5
292F
330
2C27
100
AcDbEntity
  8
0
 62
     0
100
AcDbLine
 10
-181.2514369631371
 20
-117.800000000002
 30
0.0
 11
34.89999999999236
 21
-261.9005900101011
 31
0.0
  0
LINE
  5
2930
330
2C27
100
AcDbEntity
  8
0
 62
     0
100
AcDbLine
 10
34.899999999996
 20
-258.9006234746867
 30
0.0
 11
113.9492666422029
 21
-311.6000000000004
 31
0.0
  0
LINE
  5
2931
330
2C27
100
AcDbEntity
  8
0
 62
     0
100
AcDbLine
 10
113.9492666422047
 20
-311.6000000000022
 30
0.0
 11
250.6999999999933
 21
-402.7669227742991
 31
0.0
  0
LINE
  5
2932
330
2C27
100
AcDbEntity
  8
0
 62
     0
100
AcDbLine
 10
-176.7514756692544
 20
-117.8000000000002
 30
0.0
 11
34.89999999999236
 21
-258.9006234746839
 31
0.0
  0
LINE
  5
2933
330
2C27
100
AcDbEntity
  8
0
 62
     0
100
AcDbLine
 10
34.899999999996
 20
-255.9006569392723
 30
0.0
 11
118.4492279360856
 21
-311.6000000000013
 31
0.0
  0
LINE
  5
2934
330
2C27
100
AcDbEntity
  8
0
 62
     0
100
AcDbLine
 10
118.4492279360893
 20
-311.6000000000028
 30
0.0
 11
250.6999999999916
 21
-399.7669562388836
 31
0.0
  0
LINE
  5
2935
330
2C27
100
AcDbEntity
  8
0
 62
     0
100
AcDbLine
 10
-172.2515143753699
 20
-117.8000000000011
 30
0.0
 11
34.89999999999054
 21
-255.9006569392686
 31
0.0
  0
LINE
  5
2936
330
2C27
100
AcDbEntity
  8
0
 62
     0
100
AcDbLine
 10
34.89999999999782
 20
-252.9006904038551
 30
0.0
 11
122.9491892299738
 21
-311.5999999999995
 31
0.0
  0
LINE
  5
2937
330
2C27
100
AcDbEntity
  8
0
 62
     0
100
AcDbLine
 10
122.9491892299775
 20
-311.6000000000022
 30
0.0
 11
250.6999999999933
 21
-396.7669897034657
 31
0.0
  0
LINE
  5
2938
330
2C27
100
AcDbEntity
  8
0
 62
     0
100
AcDbLine
 10
-167.7515530814835
 20
-117.8000000000002
 30
0.0
 11
34.89999999999418
 21
-252.9006904038515
 31
0.0
  0
LINE
  5
2939
330
2C27
100
AcDbEntity
  8
0
 62
     0
100
AcDbLine
 10
34.89999999999782
 20
-249.9007238684399
 30
0.0
 11
127.4491505238602
 21
-311.6000000000022
 31
0.0
  0
LINE
  5
293A
330
2C27
100
AcDbEntity
  8
0
 62
     0
100
AcDbLine
 10
127.4491505238602
 20
-311.6000000000022
 30
0.0
 11
250.6999999999916
 21
-393.7670231680504
 31
0.0
  0
LINE
  5
293B
330
2C27
100
AcDbEntity
  8
0
 62
     0
100
AcDbLine
 10
-163.2515917875952
 20
-117.800000000002
 30
0.0
 11
34.89999999999054
 21
-249.9007238684362
 31
0.0
  0
LINE
  5
293C
330
2C27
100
AcDbEntity
  8
0
 62
     0
100
AcDbLine
 10
34.899999999996
 20
-246.9007573330227
 30
0.0
 11
131.9491118177448
 21
-311.6000000000013
 31
0.0
  0
LINE
  5
293D
330
2C27
100
AcDbEntity
  8
0
 62
     0
100
AcDbLine
 10
131.9491118177466
 20
-311.6000000000028
 30
0.0
 11
250.6999999999916
 21
-390.7670566326333
 31
0.0
  0
LINE
  5
293E
330
2C27
100
AcDbEntity
  8
0
 62
     0
100
AcDbLine
 10
-158.7516304937126
 20
-117.8000000000011
 30
0.0
 11
34.89999999999236
 21
-246.90075733302
 31
0.0
  0
LINE
  5
293F
330
2C27
100
AcDbEntity
  8
0
 62
     0
100
AcDbLine
 10
34.89999999999782
 20
-243.9007907976074
 30
0.0
 11
136.4490731116293
 21
-311.6000000000013
 31
0.0
  0
LINE
  5
2940
330
2C27
100
AcDbEntity
  8
0
 62
     0
100
AcDbLine
 10
136.4490731116329
 20
-311.6000000000028
 30
0.0
 11
250.6999999999916
 21
-387.7670900972189
 31
0.0
  0
LINE
  5
2941
330
2C27
100
AcDbEntity
  8
0
 62
     0
100
AcDbLine
 10
-154.2516691998262
 20
-117.8000000000011
 30
0.0
 11
34.89999999999054
 21
-243.9007907976038
 31
0.0
  0
LINE
  5
2942
330
2C27
100
AcDbEntity
  8
0
 62
     0
100
AcDbLine
 10
34.899999999996
 20
-240.9008242621894
 30
0.0
 11
140.9490344055157
 21
-311.6000000000004
 31
0.0
  0
LINE
  5
2943
330
2C27
100
AcDbEntity
  8
0
 62
     0
100
AcDbLine
 10
140.9490344055193
 20
-311.6000000000022
 30
0.0
 11
250.6999999999933
 21
-384.7671235618018
 31
0.0
  0
LINE
  5
2944
330
2C27
100
AcDbEntity
  8
0
 62
     0
100
AcDbLine
 10
-149.7517079059416
 20
-117.8000000000002
 30
0.0
 11
34.89999999999236
 21
-240.9008242621867
 31
0.0
  0
LINE
  5
2945
330
2C27
100
AcDbEntity
  8
0
 62
     0
100
AcDbLine
 10
34.899999999996
 20
-237.900857726775
 30
0.0
 11
145.4489956994021
 21
-311.6000000000028
 31
0.0
  0
LINE
  5
2946
330
2C27
100
AcDbEntity
  8
0
 62
     0
100
AcDbLine
 10
145.4489956994021
 20
-311.6000000000028
 30
0.0
 11
250.6999999999916
 21
-381.7671570263865
 31
0.0
  0
LINE
  5
2947
330
2C27
100
AcDbEntity
  8
0
 62
     0
100
AcDbLine
 10
-145.2517466120553
 20
-117.8000000000029
 30
0.0
 11
34.89999999999054
 21
-237.9008577267714
 31
0.0
  0
LINE
  5
2948
330
2C27
100
AcDbEntity
  8
0
 62
     0
100
AcDbLine
 10
34.899999999996
 20
-234.9008911913579
 30
0.0
 11
149.9489569932884
 21
-311.6000000000013
 31
0.0
  0
LINE
  5
2949
330
2C27
100
AcDbEntity
  8
0
 62
     0
100
AcDbLine
 10
149.9489569932902
 20
-311.6000000000022
 30
0.0
 11
250.6999999999933
 21
-378.7671904909695
 31
0.0
  0
LINE
  5
294A
330
2C27
100
AcDbEntity
  8
0
 62
     0
100
AcDbLine
 10
-140.7517853181689
 20
-117.8000000000011
 30
0.0
 11
34.89999999999236
 21
-234.9008911913552
 31
0.0
  0
LINE
  5
294B
330
2C27
100
AcDbEntity
  8
0
 62
     0
100
AcDbLine
 10
34.89999999999782
 20
-231.9009246559408
 30
0.0
 11
154.448918287173
 21
-311.6000000000004
 31
0.0
  0
LINE
  5
294C
330
2C27
100
AcDbEntity
  8
0
 62
     0
100
AcDbLine
 10
154.4489182871748
 20
-311.6000000000013
 30
0.0
 11
250.6999999999916
 21
-375.7672239555512
 31
0.0
  0
LINE
  5
294D
330
2C27
100
AcDbEntity
  8
0
 62
     0
100
AcDbLine
 10
-136.2518240242825
 20
-117.8000000000002
 30
0.0
 11
34.89999999999236
 21
-231.9009246559381
 31
0.0
  0
LINE
  5
294E
330
2C27
100
AcDbEntity
  8
0
 62
     0
100
AcDbLine
 10
34.899999999996
 20
-228.9009581205255
 30
0.0
 11
158.9488795810593
 21
-311.6000000000013
 31
0.0
  0
LINE
  5
294F
330
2C27
100
AcDbEntity
  8
0
 62
     0
100
AcDbLine
 10
158.9488795810593
 20
-311.6000000000013
 30
0.0
 11
250.6999999999933
 21
-372.7672574201378
 31
0.0
  0
LINE
  5
2950
330
2C27
100
AcDbEntity
  8
0
 62
     0
100
AcDbLine
 10
-131.751862730398
 20
-117.800000000002
 30
0.0
 11
34.89999999999236
 21
-228.9009581205228
 31
0.0
  0
LINE
  5
2951
330
2C27
100
AcDbEntity
  8
0
 62
     0
100
AcDbLine
 10
34.899999999996
 20
-225.9009915851084
 30
0.0
 11
163.4488408749421
 21
-311.6000000000004
 31
0.0
  0
LINE
  5
2952
330
2C27
100
AcDbEntity
  8
0
 62
     0
100
AcDbLine
 10
163.4488408749457
 20
-311.6000000000022
 30
0.0
 11
250.6999999999898
 21
-369.7672908847199
 31
0.0
  0
LINE
  5
2953
330
2C27
100
AcDbEntity
  8
0
 62
     0
100
AcDbLine
 10
-127.2519014365134
 20
-117.8000000000002
 30
0.0
 11
34.89999999999054
 21
-225.9009915851057
 31
0.0
  0
LINE
  5
2954
330
2C27
100
AcDbEntity
  8
0
 62
     0
100
AcDbLine
 10
34.899999999996
 20
-222.901025049694
 30
0.0
 11
167.9488021688285
 21
-311.6000000000004
 31
0.0
  0
LINE
  5
2955
330
2C27
100
AcDbEntity
  8
0
 62
     0
100
AcDbLine
 10
167.9488021688303
 20
-311.6000000000028
 30
0.0
 11
250.6999999999916
 21
-366.7673243493045
 31
0.0
  0
LINE
  5
2956
330
2C27
100
AcDbEntity
  8
0
 62
     0
100
AcDbLine
 10
-122.7519401426289
 20
-117.8000000000011
 30
0.0
 11
34.89999999999236
 21
-222.9010250496904
 31
0.0
  0
LINE
  5
2957
330
2C27
100
AcDbEntity
  8
0
 62
     0
100
AcDbLine
 10
34.89999999999782
 20
-219.9010585142769
 30
0.0
 11
172.4487634627164
 21
-311.6000000000013
 31
0.0
  0
LINE
  5
2958
330
2C27
100
AcDbEntity
  8
0
 62
     0
100
AcDbLine
 10
172.4487634627164
 20
-311.6000000000013
 30
0.0
 11
250.6999999999916
 21
-363.7673578138874
 31
0.0
  0
LINE
  5
2959
330
2C27
100
AcDbEntity
  8
0
 62
     0
100
AcDbLine
 10
-118.2519788487425
 20
-117.7999999999993
 30
0.0
 11
34.89999999999236
 21
-219.9010585142742
 31
0.0
  0
LINE
  5
295A
330
2C27
100
AcDbEntity
  8
0
 62
     0
100
AcDbLine
 10
34.899999999996
 20
-216.9010919788616
 30
0.0
 11
176.9487247566012
 21
-311.6000000000022
 31
0.0
  0
LINE
  5
295B
330
2C27
100
AcDbEntity
  8
0
 62
     0
100
AcDbLine
 10
176.9487247566012
 20
-311.6000000000022
 30
0.0
 11
250.6999999999916
 21
-360.7673912784721
 31
0.0
  0
LINE
  5
295C
330
2C27
100
AcDbEntity
  8
0
 62
     0
100
AcDbLine
 10
-113.7520175548561
 20
-117.800000000002
 30
0.0
 11
34.89999999999054
 21
-216.901091978858
 31
0.0
  0
LINE
  5
295D
330
2C27
100
AcDbEntity
  8
0
 62
     0
100
AcDbLine
 10
34.899999999996
 20
-213.9011254434436
 30
0.0
 11
181.4486860504858
 21
-311.6000000000004
 31
0.0
  0
LINE
  5
295E
330
2C27
100
AcDbEntity
  8
0
 62
     0
100
AcDbLine
 10
181.4486860504894
 20
-311.6000000000022
 30
0.0
 11
250.6999999999916
 21
-357.767424743055
 31
0.0
  0
LINE
  5
295F
330
2C27
100
AcDbEntity
  8
0
 62
     0
100
AcDbLine
 10
-109.2520562609697
 20
-117.8000000000011
 30
0.0
 11
34.89999999999054
 21
-213.9011254434408
 31
0.0
  0
LINE
  5
2960
330
2C27
100
AcDbEntity
  8
0
 62
     0
100
AcDbLine
 10
34.899999999996
 20
-210.9011589080282
 30
0.0
 11
185.9486473443721
 21
-311.6000000000013
 31
0.0
  0
LINE
  5
2961
330
2C27
100
AcDbEntity
  8
0
 62
     0
100
AcDbLine
 10
185.9486473443739
 20
-311.6000000000028
 30
0.0
 11
250.6999999999933
 21
-354.7674582076405
 31
0.0
  0
LINE
  5
2962
330
2C27
100
AcDbEntity
  8
0
 62
     0
100
AcDbLine
 10
-104.7520949670852
 20
-117.8000000000011
 30
0.0
 11
34.89999999999236
 21
-210.9011589080255
 31
0.0
  0
LINE
  5
2963
330
2C27
100
AcDbEntity
  8
0
 62
     0
100
AcDbLine
 10
34.899999999996
 20
-207.901192372612
 30
0.0
 11
190.4486086382584
 21
-311.6000000000022
 31
0.0
  0
LINE
  5
2964
330
2C27
100
AcDbEntity
  8
0
 62
     0
100
AcDbLine
 10
190.4486086382584
 20
-311.6000000000022
 30
0.0
 11
250.6999999999916
 21
-351.7674916722235
 31
0.0
  0
LINE
  5
2965
330
2C27
100
AcDbEntity
  8
0
 62
     0
100
AcDbLine
 10
-100.2521336732006
 20
-117.8000000000002
 30
0.0
 11
34.89999999999054
 21
-207.9011923726084
 31
0.0
  0
LINE
  5
2966
330
2C27
100
AcDbEntity
  8
0
 62
     0
100
AcDbLine
 10
34.899999999996
 20
-204.9012258371968
 30
0.0
 11
194.948569932143
 21
-311.6000000000022
 31
0.0
  0
LINE
  5
2967
330
2C27
100
AcDbEntity
  8
0
 62
     0
100
AcDbLine
 10
194.948569932143
 20
-311.6000000000022
 30
0.0
 11
250.6999999999898
 21
-348.7675251368072
 31
0.0
  0
LINE
  5
2968
330
2C27
100
AcDbEntity
  8
0
 62
     0
100
AcDbLine
 10
-95.75217237931429
 20
-117.800000000002
 30
0.0
 11
34.89999999999054
 21
-204.9012258371931
 31
0.0
  0
LINE
  5
2969
330
2C27
100
AcDbEntity
  8
0
 62
     0
100
AcDbLine
 10
34.899999999996
 20
-201.9012593017797
 30
0.0
 11
199.4485312260276
 21
-311.6000000000013
 31
0.0
  0
LINE
  5
296A
330
2C27
100
AcDbEntity
  8
0
 62
     0
100
AcDbLine
 10
199.4485312260312
 20
-311.6000000000028
 30
0.0
 11
250.6999999999916
 21
-345.7675586013901
 31
0.0
  0
LINE
  5
296B
330
2C27
100
AcDbEntity
  8
0
 62
     0
100
AcDbLine
 10
-91.25221108542792
 20
-117.8000000000011
 30
0.0
 11
34.89999999999236
 21
-201.9012593017769
 31
0.0
  0
LINE
  5
296C
330
2C27
100
AcDbEntity
  8
0
 62
     0
100
AcDbLine
 10
34.89999999999782
 20
-198.9012927663643
 30
0.0
 11
203.9484925199157
 21
-311.6000000000028
 31
0.0
  0
LINE
  5
296D
330
2C27
100
AcDbEntity
  8
0
 62
     0
100
AcDbLine
 10
203.9484925199157
 20
-311.6000000000028
 30
0.0
 11
250.6999999999916
 21
-342.7675920659749
 31
0.0
  0
LINE
  5
296E
330
2C27
100
AcDbEntity
  8
0
 62
     0
100
AcDbLine
 10
-86.75224979154334
 20
-117.800000000002
 30
0.0
 11
34.89999999999236
 21
-198.9012927663616
 31
0.0
  0
LINE
  5
296F
330
2C27
100
AcDbEntity
  8
0
 62
     0
100
AcDbLine
 10
34.899999999996
 20
-195.9013262309472
 30
0.0
 11
208.4484538138004
 21
-311.6000000000022
 31
0.0
  0
LINE
  5
2970
330
2C27
100
AcDbEntity
  8
0
 62
     0
100
AcDbLine
 10
208.4484538138004
 20
-311.6000000000022
 30
0.0
 11
250.6999999999916
 21
-339.7676255305587
 31
0.0
  0
LINE
  5
2971
330
2C27
100
AcDbEntity
  8
0
 62
     0
100
AcDbLine
 10
-82.25228849765882
 20
-117.8000000000002
 30
0.0
 11
34.89999999999236
 21
-195.9013262309444
 31
0.0
  0
LINE
  5
2972
330
2C27
100
AcDbEntity
  8
0
 62
     0
100
AcDbLine
 10
34.899999999996
 20
-192.9013596955292
 30
0.0
 11
212.9484151076848
 21
-311.6000000000013
 31
0.0
  0
LINE
  5
2973
330
2C27
100
AcDbEntity
  8
0
 62
     0
100
AcDbLine
 10
212.9484151076868
 20
-311.6000000000022
 30
0.0
 11
250.6999999999916
 21
-336.7676589951416
 31
0.0
  0
LINE
  5
2974
330
2C27
100
AcDbEntity
  8
0
 62
     0
100
AcDbLine
 10
-77.75232720377245
 20
-117.8000000000002
 30
0.0
 11
34.89999999999236
 21
-192.9013596955274
 31
0.0
  0
LINE
  5
2975
330
2C27
100
AcDbEntity
  8
0
 62
     0
100
AcDbLine
 10
34.899999999996
 20
-189.9013931601148
 30
0.0
 11
217.4483764015731
 21
-311.6000000000022
 31
0.0
  0
LINE
  5
2976
330
2C27
100
AcDbEntity
  8
0
 62
     0
100
AcDbLine
 10
217.4483764015731
 20
-311.6000000000022
 30
0.0
 11
250.6999999999933
 21
-333.7676924597263
 31
0.0
  0
LINE
  5
2977
330
2C27
100
AcDbEntity
  8
0
 62
     0
100
AcDbLine
 10
-73.25236590988606
 20
-117.8000000000011
 30
0.0
 11
34.89999999999236
 21
-189.9013931601112
 31
0.0
  0
LINE
  5
2978
330
2C27
100
AcDbEntity
  8
0
 62
     0
100
AcDbLine
 10
34.899999999996
 20
-186.9014266246977
 30
0.0
 11
221.9483376954557
 21
-311.6000000000013
 31
0.0
  0
LINE
  5
2979
330
2C27
100
AcDbEntity
  8
0
 62
     0
100
AcDbLine
 10
221.9483376954557
 20
-311.6000000000013
 30
0.0
 11
250.6999999999916
 21
-330.7677259243092
 31
0.0
  0
LINE
  5
297A
330
2C27
100
AcDbEntity
  8
0
 62
     0
100
AcDbLine
 10
-68.75240461600151
 20
-117.8000000000002
 30
0.0
 11
34.89999999999054
 21
-186.9014266246948
 31
0.0
  0
LINE
  5
297B
330
2C27
100
AcDbEntity
  8
0
 62
     0
100
AcDbLine
 10
34.89999999999418
 20
-183.9014600892824
 30
0.0
 11
226.4482989893404
 21
-311.6000000000013
 31
0.0
  0
LINE
  5
297C
330
2C27
100
AcDbEntity
  8
0
 62
     0
100
AcDbLine
 10
226.4482989893404
 20
-311.6000000000013
 30
0.0
 11
250.6999999999916
 21
-327.7677593888939
 31
0.0
  0
LINE
  5
297D
330
2C27
100
AcDbEntity
  8
0
 62
     0
100
AcDbLine
 10
-64.25244332211696
 20
-117.8000000000011
 30
0.0
 11
34.89999999999054
 21
-183.9014600892797
 31
0.0
  0
LINE
  5
297E
330
2C27
100
AcDbEntity
  8
0
 62
     0
100
AcDbLine
 10
34.89999999999782
 20
-180.9014935538653
 30
0.0
 11
230.9482602832286
 21
-311.6000000000004
 31
0.0
  0
LINE
  5
297F
330
2C27
100
AcDbEntity
  8
0
 62
     0
100
AcDbLine
 10
230.9482602832304
 20
-311.6000000000022
 30
0.0
 11
250.6999999999933
 21
-324.7677928534776
 31
0.0
  0
LINE
  5
2980
330
2C27
100
AcDbEntity
  8
0
 62
     0
100
AcDbLine
 10
-59.75248202822877
 20
-117.8000000000002
 30
0.0
 11
34.89999999999236
 21
-180.9014935538624
 31
0.0
  0
LINE
  5
2981
330
2C27
100
AcDbEntity
  8
0
 62
     0
100
AcDbLine
 10
34.899999999996
 20
-177.90152701845
 30
0.0
 11
235.448221577115
 21
-311.6000000000028
 31
0.0
  0
LINE
  5
2982
330
2C27
100
AcDbEntity
  8
0
 62
     0
100
AcDbLine
 10
235.448221577115
 20
-311.6000000000028
 30
0.0
 11
250.6999999999916
 21
-321.7678263180614
 31
0.0
  0
LINE
  5
2983
330
2C27
100
AcDbEntity
  8
0
 62
     0
100
AcDbLine
 10
-55.25252073434422
 20
-117.8000000000011
 30
0.0
 11
34.89999999999236
 21
-177.9015270184473
 31
0.0
  0
LINE
  5
2984
330
2C27
100
AcDbEntity
  8
0
 62
     0
100
AcDbLine
 10
34.899999999996
 20
-174.9015604830338
 30
0.0
 11
239.9481828709977
 21
-311.6000000000013
 31
0.0
  0
LINE
  5
2985
330
2C27
100
AcDbEntity
  8
0
 62
     0
100
AcDbLine
 10
239.9481828709977
 20
-311.6000000000013
 30
0.0
 11
250.6999999999898
 21
-318.7678597826442
 31
0.0
  0
LINE
  5
2986
330
2C27
100
AcDbEntity
  8
0
 62
     0
100
AcDbLine
 10
-50.75255944046148
 20
-117.7999999999993
 30
0.0
 11
34.89999999999054
 21
-174.9015604830301
 31
0.0
  0
LINE
  5
2987
330
2C27
100
AcDbEntity
  8
0
 62
     0
100
AcDbLine
 10
34.899999999996
 20
-171.9015939476185
 30
0.0
 11
244.4481441648841
 21
-311.6000000000022
 31
0.0
  0
LINE
  5
2988
330
2C27
100
AcDbEntity
  8
0
 62
     0
100
AcDbLine
 10
244.4481441648841
 20
-311.6000000000022
 30
0.0
 11
250.6999999999916
 21
-315.7678932472289
 31
0.0
  0
LINE
  5
2989
330
2C27
100
AcDbEntity
  8
0
 62
     0
100
AcDbLine
 10
-46.25259814657328
 20
-117.800000000002
 30
0.0
 11
34.89999999999236
 21
-171.9015939476157
 31
0.0
  0
LINE
  5
298A
330
2C27
100
AcDbEntity
  8
0
 62
     0
100
AcDbLine
 10
34.89999999999782
 20
-168.9016274122014
 30
0.0
 11
248.9481054587723
 21
-311.6000000000028
 31
0.0
  0
LINE
  5
298B
330
2C27
100
AcDbEntity
  8
0
 62
     0
100
AcDbLine
 10
248.9481054587723
 20
-311.6000000000028
 30
0.0
 11
250.6999999999916
 21
-312.7679267118119
 31
0.0
  0
LINE
  5
298C
330
2C27
100
AcDbEntity
  8
0
 62
     0
100
AcDbLine
 10
-41.75263685268689
 20
-117.8000000000011
 30
0.0
 11
34.89999999999236
 21
-168.9016274121986
 31
0.0
  0
LINE
  5
298D
330
2C27
100
AcDbEntity
  8
0
 62
     0
100
AcDbLine
 10
34.89999999999418
 20
-165.9016608767851
 30
0.0
 11
250.6999999999916
 21
-309.7679601763966
 31
0.0
  0
LINE
  5
298E
330
2C27
100
AcDbEntity
  8
0
 62
     0
100
AcDbLine
 10
-37.25267555880237
 20
-117.8000000000011
 30
0.0
 11
34.89999999999236
 21
-165.9016608767833
 31
0.0
  0
LINE
  5
298F
330
2C27
100
AcDbEntity
  8
0
 62
     0
100
AcDbLine
 10
34.899999999996
 20
-162.901694341368
 30
0.0
 11
250.6999999999916
 21
-306.7679936409803
 31
0.0
  0
LINE
  5
2990
330
2C27
100
AcDbEntity
  8
0
 62
     0
100
AcDbLine
 10
-32.75271426491781
 20
-117.8000000000002
 30
0.0
 11
34.89999999999054
 21
-162.9016943413653
 31
0.0
  0
LINE
  5
2991
330
2C27
100
AcDbEntity
  8
0
 62
     0
100
AcDbLine
 10
34.899999999996
 20
-159.9017278059536
 30
0.0
 11
250.6999999999933
 21
-303.7680271055651
 31
0.0
  0
LINE
  5
2992
330
2C27
100
AcDbEntity
  8
0
 62
     0
100
AcDbLine
 10
-28.25275297102962
 20
-117.800000000002
 30
0.0
 11
34.89999999999236
 21
-159.90172780595
 31
0.0
  0
LINE
  5
2993
330
2C27
100
AcDbEntity
  8
0
 62
     0
100
AcDbLine
 10
34.899999999996
 20
-156.9017612705365
 30
0.0
 11
250.6999999999916
 21
-300.768060570148
 31
0.0
  0
LINE
  5
2994
330
2C27
100
AcDbEntity
  8
0
 62
     0
100
AcDbLine
 10
-23.75279167714507
 20
-117.8000000000011
 30
0.0
 11
34.89999999999054
 21
-156.9017612705328
 31
0.0
  0
LINE
  5
2995
330
2C27
100
AcDbEntity
  8
0
 62
     0
100
AcDbLine
 10
34.89999999999418
 20
-153.9017947351194
 30
0.0
 11
250.6999999999916
 21
-297.7680940347309
 31
0.0
  0
LINE
  5
2996
330
2C27
100
AcDbEntity
  8
0
 62
     0
100
AcDbLine
 10
-19.25283038326233
 20
-117.8000000000002
 30
0.0
 11
34.89999999999054
 21
-153.9017947351167
 31
0.0
  0
LINE
  5
2997
330
2C27
100
AcDbEntity
  8
0
 62
     0
100
AcDbLine
 10
34.899999999996
 20
-150.9018281997041
 30
0.0
 11
250.6999999999916
 21
-294.7681274993147
 31
0.0
  0
LINE
  5
2998
330
2C27
100
AcDbEntity
  8
0
 62
     0
100
AcDbLine
 10
-14.75286908937596
 20
-117.8000000000002
 30
0.0
 11
34.89999999999054
 21
-150.9018281997014
 31
0.0
  0
LINE
  5
2999
330
2C27
100
AcDbEntity
  8
0
 62
     0
100
AcDbLine
 10
34.899999999996
 20
-147.901861664287
 30
0.0
 11
250.6999999999933
 21
-291.7681609638994
 31
0.0
  0
LINE
  5
299A
330
2C27
100
AcDbEntity
  8
0
 62
     0
100
AcDbLine
 10
-10.25290779548958
 20
-117.8000000000002
 30
0.0
 11
34.89999999999236
 21
-147.9018616642843
 31
0.0
  0
LINE
  5
299B
330
2C27
100
AcDbEntity
  8
0
 62
     0
100
AcDbLine
 10
34.899999999996
 20
-144.9018951288726
 30
0.0
 11
250.6999999999916
 21
-288.7681944284832
 31
0.0
  0
LINE
  5
299C
330
2C27
100
AcDbEntity
  8
0
 62
     0
100
AcDbLine
 10
-5.752946501605038
 20
-117.8000000000002
 30
0.0
 11
34.89999999999236
 21
-144.901895128869
 31
0.0
  0
LINE
  5
299D
330
2C27
100
AcDbEntity
  8
0
 62
     0
100
AcDbLine
 10
34.89999999999782
 20
-141.9019285934554
 30
0.0
 11
250.6999999999916
 21
-285.7682278930661
 31
0.0
  0
LINE
  5
299E
330
2C27
100
AcDbEntity
  8
0
 62
     0
100
AcDbLine
 10
-1.252985207718666
 20
-117.7999999999993
 30
0.0
 11
34.89999999999236
 21
-141.9019285934519
 31
0.0
  0
LINE
  5
299F
330
2C27
100
AcDbEntity
  8
0
 62
     0
100
AcDbLine
 10
34.899999999996
 20
-138.9019620580393
 30
0.0
 11
250.6999999999933
 21
-282.7682613576508
 31
0.0
  0
LINE
  5
29A0
330
2C27
100
AcDbEntity
  8
0
 62
     0
100
AcDbLine
 10
3.246976086165886
 20
-117.7999999999993
 30
0.0
 11
34.89999999999418
 21
-138.9019620580375
 31
0.0
  0
LINE
  5
29A1
330
2C27
100
AcDbEntity
  8
0
 62
     0
100
AcDbLine
 10
34.899999999996
 20
-135.9019955226222
 30
0.0
 11
250.6999999999916
 21
-279.7682948222337
 31
0.0
  0
LINE
  5
29A2
330
2C27
100
AcDbEntity
  8
0
 62
     0
100
AcDbLine
 10
7.746937380052257
 20
-117.8000000000002
 30
0.0
 11
34.89999999999236
 21
-135.9019955226204
 31
0.0
  0
LINE
  5
29A3
330
2C27
100
AcDbEntity
  8
0
 62
     0
100
AcDbLine
 10
34.89999999999418
 20
-132.9020289872069
 30
0.0
 11
250.6999999999916
 21
-276.7683282868193
 31
0.0
  0
LINE
  5
29A4
330
2C27
100
AcDbEntity
  8
0
 62
     0
100
AcDbLine
 10
12.24689867393681
 20
-117.8000000000011
 30
0.0
 11
34.89999999999236
 21
-132.9020289872051
 31
0.0
  0
LINE
  5
29A5
330
2C27
100
AcDbEntity
  8
0
 62
     0
100
AcDbLine
 10
34.89999999999782
 20
-129.9020624517898
 30
0.0
 11
250.6999999999933
 21
-273.7683617514022
 31
0.0
  0
LINE
  5
29A6
330
2C27
100
AcDbEntity
  8
0
 62
     0
100
AcDbLine
 10
16.746859967825
 20
-117.7999999999993
 30
0.0
 11
34.89999999999236
 21
-129.902062451787
 31
0.0
  0
LINE
  5
29A7
330
2C27
100
AcDbEntity
  8
0
 62
     0
100
AcDbLine
 10
34.899999999996
 20
-126.9020959163754
 30
0.0
 11
250.6999999999933
 21
-270.7683952159869
 31
0.0
  0
LINE
  5
29A8
330
2C27
100
AcDbEntity
  8
0
 62
     0
100
AcDbLine
 10
21.24682126170774
 20
-117.8000000000002
 30
0.0
 11
34.89999999999236
 21
-126.9020959163717
 31
0.0
  0
LINE
  5
29A9
330
2C27
100
AcDbEntity
  8
0
 62
     0
100
AcDbLine
 10
34.899999999996
 20
-123.9021293809583
 30
0.0
 11
250.6999999999916
 21
-267.7684286805698
 31
0.0
  0
LINE
  5
29AA
330
2C27
100
AcDbEntity
  8
0
 62
     0
100
AcDbLine
 10
25.74678255559411
 20
-117.8000000000011
 30
0.0
 11
34.89999999999054
 21
-123.9021293809555
 31
0.0
  0
LINE
  5
29AB
330
2C27
100
AcDbEntity
  8
0
 62
     0
100
AcDbLine
 10
34.899999999996
 20
-120.902162845543
 30
0.0
 11
250.6999999999933
 21
-264.7684621451544
 31
0.0
  0
LINE
  5
29AC
330
2C27
100
AcDbEntity
  8
0
 62
     0
100
AcDbLine
 10
30.24674384948048
 20
-117.8000000000011
 30
0.0
 11
34.89999999999236
 21
-120.9021628455402
 31
0.0
  0
LINE
  5
29AD
330
2C27
100
AcDbEntity
  8
0
 62
     0
100
AcDbLine
 10
34.89999999999782
 20
-117.9021963101259
 30
0.0
 11
250.6999999999916
 21
-261.7684956097364
 31
0.0
  0
LINE
  5
29AE
330
2C27
100
AcDbEntity
  8
0
 62
     0
100
AcDbLine
 10
34.74670514336685
 20
-117.8000000000002
 30
0.0
 11
34.89999999999236
 21
-117.9021963101231
 31
0.0
  0
LINE
  5
29AF
330
2C27
100
AcDbEntity
  8
0
 62
     0
100
AcDbLine
 10
39.24666643725323
 20
-117.8000000000011
 30
0.0
 11
250.6999999999916
 21
-258.7685290743201
 31
0.0
  0
LINE
  5
29B0
330
2C27
100
AcDbEntity
  8
0
 62
     0
100
AcDbLine
 10
43.74662773113777
 20
-117.8000000000011
 30
0.0
 11
250.6999999999916
 21
-255.7685625389049
 31
0.0
  0
LINE
  5
29B1
330
2C27
100
AcDbEntity
  8
0
 62
     0
100
AcDbLine
 10
48.24658902502415
 20
-117.8000000000002
 30
0.0
 11
250.6999999999933
 21
-252.7685960034878
 31
0.0
  0
LINE
  5
29B2
330
2C27
100
AcDbEntity
  8
0
 62
     0
100
AcDbLine
 10
52.74655031890688
 20
-117.8000000000002
 30
0.0
 11
250.6999999999916
 21
-249.7686294680725
 31
0.0
  0
LINE
  5
29B3
330
2C27
100
AcDbEntity
  8
0
 62
     0
100
AcDbLine
 10
57.24651161279324
 20
-117.8000000000002
 30
0.0
 11
250.6999999999916
 21
-246.7686629326554
 31
0.0
  0
LINE
  5
29B4
330
2C27
100
AcDbEntity
  8
0
 62
     0
100
AcDbLine
 10
61.74647290667781
 20
-117.8000000000002
 30
0.0
 11
250.6999999999916
 21
-243.768696397241
 31
0.0
  0
LINE
  5
29B5
330
2C27
100
AcDbEntity
  8
0
 62
     0
100
AcDbLine
 10
66.24643420056418
 20
-117.7999999999993
 30
0.0
 11
250.6999999999933
 21
-240.7687298618239
 31
0.0
  0
LINE
  5
29B6
330
2C27
100
AcDbEntity
  8
0
 62
     0
100
AcDbLine
 10
70.74639549445056
 20
-117.800000000002
 30
0.0
 11
250.6999999999916
 21
-237.7687633264086
 31
0.0
  0
LINE
  5
29B7
330
2C27
100
AcDbEntity
  8
0
 62
     0
100
AcDbLine
 10
75.24635678833694
 20
-117.8000000000002
 30
0.0
 11
250.6999999999933
 21
-234.7687967909915
 31
0.0
  0
LINE
  5
29B8
330
2C27
100
AcDbEntity
  8
0
 62
     0
100
AcDbLine
 10
79.74631808222145
 20
-117.8000000000011
 30
0.0
 11
250.6999999999953
 21
-231.7688302555762
 31
0.0
  0
LINE
  5
29B9
330
2C27
100
AcDbEntity
  8
0
 62
     0
100
AcDbLine
 10
84.24627937610603
 20
-117.7999999999993
 30
0.0
 11
250.6999999999916
 21
-228.7688637201591
 31
0.0
  0
LINE
  5
29BA
330
2C27
100
AcDbEntity
  8
0
 62
     0
100
AcDbLine
 10
88.7462406699924
 20
-117.800000000002
 30
0.0
 11
250.6999999999916
 21
-225.7688971847437
 31
0.0
  0
LINE
  5
29BB
330
2C27
100
AcDbEntity
  8
0
 62
     0
100
AcDbLine
 10
93.24620196387876
 20
-117.8000000000011
 30
0.0
 11
250.6999999999916
 21
-222.7689306493267
 31
0.0
  0
LINE
  5
29BC
330
2C27
100
AcDbEntity
  8
0
 62
     0
100
AcDbLine
 10
97.74616325776332
 20
-117.8000000000011
 30
0.0
 11
250.6999999999933
 21
-219.7689641139113
 31
0.0
  0
LINE
  5
29BD
330
2C27
100
AcDbEntity
  8
0
 62
     0
100
AcDbLine
 10
102.2461245516478
 20
-117.8000000000002
 30
0.0
 11
250.6999999999916
 21
-216.7689975784942
 31
0.0
  0
LINE
  5
29BE
330
2C27
100
AcDbEntity
  8
0
 62
     0
100
AcDbLine
 10
106.7460858455342
 20
-117.8000000000002
 30
0.0
 11
250.6999999999953
 21
-213.769031043079
 31
0.0
  0
LINE
  5
29BF
330
2C27
100
AcDbEntity
  8
0
 62
     0
100
AcDbLine
 10
111.2460471394206
 20
-117.8000000000002
 30
0.0
 11
250.6999999999953
 21
-210.7690645076636
 31
0.0
  0
LINE
  5
29C0
330
2C27
100
AcDbEntity
  8
0
 62
     0
100
AcDbLine
 10
115.7460084333033
 20
-117.7999999999993
 30
0.0
 11
250.6999999999953
 21
-207.7690979722465
 31
0.0
  0
LINE
  5
29C1
330
2C27
100
AcDbEntity
  8
0
 62
     0
100
AcDbLine
 10
120.2459697271915
 20
-117.8000000000011
 30
0.0
 11
250.6999999999933
 21
-204.7691314368312
 31
0.0
  0
LINE
  5
29C2
330
2C27
100
AcDbEntity
  8
0
 62
     0
100
AcDbLine
 10
124.7459310210778
 20
-117.8000000000002
 30
0.0
 11
250.6999999999971
 21
-201.7691649014141
 31
0.0
  0
LINE
  5
29C3
330
2C27
100
AcDbEntity
  8
0
 62
     0
100
AcDbLine
 10
129.2458923149625
 20
-117.8000000000002
 30
0.0
 11
250.6999999999933
 21
-198.7691983659988
 31
0.0
  0
LINE
  5
29C4
330
2C27
100
AcDbEntity
  8
0
 62
     0
100
AcDbLine
 10
133.7458536088452
 20
-117.7999999999993
 30
0.0
 11
250.6999999999933
 21
-195.7692318305817
 31
0.0
  0
LINE
  5
29C5
330
2C27
100
AcDbEntity
  8
0
 62
     0
100
AcDbLine
 10
138.2458149027352
 20
-117.800000000002
 30
0.0
 11
250.6999999999933
 21
-192.7692652951664
 31
0.0
  0
LINE
  5
29C6
330
2C27
100
AcDbEntity
  8
0
 62
     0
100
AcDbLine
 10
142.7457761966197
 20
-117.8000000000002
 30
0.0
 11
250.6999999999953
 21
-189.7692987597493
 31
0.0
  0
LINE
  5
29C7
330
2C27
100
AcDbEntity
  8
0
 62
     0
100
AcDbLine
 10
147.2457374905043
 20
-117.8000000000011
 30
0.0
 11
250.6999999999933
 21
-186.769332224334
 31
0.0
  0
LINE
  5
29C8
330
2C27
100
AcDbEntity
  8
0
 62
     0
100
AcDbLine
 10
151.7456987843889
 20
-117.7999999999993
 30
0.0
 11
250.6999999999953
 21
-183.7693656889177
 31
0.0
  0
LINE
  5
29C9
330
2C27
100
AcDbEntity
  8
0
 62
     0
100
AcDbLine
 10
156.2456600782788
 20
-117.800000000002
 30
0.0
 11
250.6999999999953
 21
-180.7693991535025
 31
0.0
  0
LINE
  5
29CA
330
2C27
100
AcDbEntity
  8
0
 62
     0
100
AcDbLine
 10
160.7456213721616
 20
-117.8000000000011
 30
0.0
 11
250.6999999999953
 21
-177.7694326180854
 31
0.0
  0
LINE
  5
29CB
330
2C27
100
AcDbEntity
  8
0
 62
     0
100
AcDbLine
 10
165.2455826660462
 20
-117.7999999999993
 30
0.0
 11
250.6999999999933
 21
-174.7694660826682
 31
0.0
  0
LINE
  5
29CC
330
2C27
100
AcDbEntity
  8
0
 62
     0
100
AcDbLine
 10
169.7455439599307
 20
-117.8000000000002
 30
0.0
 11
250.6999999999953
 21
-171.7694995472529
 31
0.0
  0
LINE
  5
29CD
330
2C27
100
AcDbEntity
  8
0
 62
     0
100
AcDbLine
 10
174.2455052538189
 20
-117.8000000000002
 30
0.0
 11
250.6999999999953
 21
-168.7695330118367
 31
0.0
  0
LINE
  5
29CE
330
2C27
100
AcDbEntity
  8
0
 62
     0
100
AcDbLine
 10
178.7454665477016
 20
-117.8000000000002
 30
0.0
 11
250.6999999999933
 21
-165.7695664764204
 31
0.0
  0
LINE
  5
29CF
330
2C27
100
AcDbEntity
  8
0
 62
     0
100
AcDbLine
 10
183.2454278415879
 20
-117.7999999999993
 30
0.0
 11
250.6999999999953
 21
-162.7695999410034
 31
0.0
  0
LINE
  5
29D0
330
2C27
100
AcDbEntity
  8
0
 62
     0
100
AcDbLine
 10
187.7453891354761
 20
-117.8000000000011
 30
0.0
 11
250.6999999999953
 21
-159.7696334055881
 31
0.0
  0
LINE
  5
29D1
330
2C27
100
AcDbEntity
  8
0
 62
     0
100
AcDbLine
 10
192.2453504293607
 20
-117.8000000000002
 30
0.0
 11
250.6999999999953
 21
-156.769666870171
 31
0.0
  0
LINE
  5
29D2
330
2C27
100
AcDbEntity
  8
0
 62
     0
100
AcDbLine
 10
196.7453117232435
 20
-117.8000000000011
 30
0.0
 11
250.6999999999933
 21
-153.7697003347557
 31
0.0
  0
LINE
  5
29D3
330
2C27
100
AcDbEntity
  8
0
 62
     0
100
AcDbLine
 10
201.2452730171317
 20
-117.7999999999993
 30
0.0
 11
250.6999999999971
 21
-150.7697337993394
 31
0.0
  0
LINE
  5
29D4
330
2C27
100
AcDbEntity
  8
0
 62
     0
100
AcDbLine
 10
205.7452343110181
 20
-117.800000000002
 30
0.0
 11
250.6999999999953
 21
-147.7697672639241
 31
0.0
  0
LINE
  5
29D5
330
2C27
100
AcDbEntity
  8
0
 62
     0
100
AcDbLine
 10
210.2451956049026
 20
-117.8000000000002
 30
0.0
 11
250.6999999999953
 21
-144.7698007285071
 31
0.0
  0
LINE
  5
29D6
330
2C27
100
AcDbEntity
  8
0
 62
     0
100
AcDbLine
 10
214.7451568987872
 20
-117.8000000000011
 30
0.0
 11
250.6999999999953
 21
-141.7698341930918
 31
0.0
  0
LINE
  5
29D7
330
2C27
100
AcDbEntity
  8
0
 62
     0
100
AcDbLine
 10
219.2451181926736
 20
-117.8000000000002
 30
0.0
 11
250.6999999999971
 21
-138.7698676576756
 31
0.0
  0
LINE
  5
29D8
330
2C27
100
AcDbEntity
  8
0
 62
     0
100
AcDbLine
 10
223.7450794865581
 20
-117.7999999999993
 30
0.0
 11
250.6999999999953
 21
-135.7699011222585
 31
0.0
  0
LINE
  5
29D9
330
2C27
100
AcDbEntity
  8
0
 62
     0
100
AcDbLine
 10
228.2450407804445
 20
-117.8000000000002
 30
0.0
 11
250.6999999999953
 21
-132.7699345868422
 31
0.0
  0
LINE
  5
29DA
330
2C27
100
AcDbEntity
  8
0
 62
     0
100
AcDbLine
 10
232.7450020743289
 20
-117.7999999999983
 30
0.0
 11
250.6999999999953
 21
-129.7699680514251
 31
0.0
  0
LINE
  5
29DB
330
2C27
100
AcDbEntity
  8
0
 62
     0
100
AcDbLine
 10
237.2449633682172
 20
-117.8000000000011
 30
0.0
 11
250.6999999999953
 21
-126.7700015160099
 31
0.0
  0
LINE
  5
29DC
330
2C27
100
AcDbEntity
  8
0
 62
     0
100
AcDbLine
 10
241.7449246621
 20
-117.8000000000002
 30
0.0
 11
250.6999999999933
 21
-123.7700349805927
 31
0.0
  0
LINE
  5
29DD
330
2C27
100
AcDbEntity
  8
0
 62
     0
100
AcDbLine
 10
246.2448859559863
 20
-117.8000000000002
 30
0.0
 11
250.6999999999953
 21
-120.7700684451783
 31
0.0
  0
ENDBLK
  5
29DE
330
2C27
100
AcDbEntity
  8
0
100
AcDbBlockEnd
  0
ENDSEC
  0
SECTION
  2
ENTITIES
  0
TEXT
  5
953
330
2B46
100
AcDbEntity
  8
OUTLINE
  6
Continuous
 62
     3
100
AcDbText
 10
-418.231467
 20
13.715189
 30
0.0
 40
64.0
  1
 
 41
0.9
100
AcDbText
  0
TEXT
  5
954
330
2B46
100
AcDbEntity
  8
OUTLINE
  6
Continuous
 62
     3
100
AcDbText
 10
-418.231467
 20
13.715189
 30
0.0
 40
64.0
  1
 
 41
0.9
100
AcDbText
  0
TEXT
  5
955
330
2B46
100
AcDbEntity
  8
OUTLINE
  6
Continuous
 62
     3
100
AcDbText
 10
1341.41903
 20
-706.0588199999997
 30
0.0
 40
64.0
  1
 
 41
0.9
100
AcDbText
  0
TEXT
  5
956
330
2B46
100
AcDbEntity
  8
OUTLINE
  6
Continuous
 62
     3
100
AcDbText
 10
1341.41903
 20
-706.0588199999997
 30
0.0
 40
64.0
  1
 
 41
0.9
100
AcDbText
  0
TEXT
  5
957
330
2B46
100
AcDbEntity
  8
OUTLINE
  6
Continuous
 62
     3
100
AcDbText
 10
1341.41903
 20
-706.0588199999997
 30
0.0
 40
64.0
  1
 
 41
0.9
100
AcDbText
  0
TEXT
  5
958
330
2B46
100
AcDbEntity
  8
OUTLINE
  6
Continuous
 62
     3
100
AcDbText
 10
1341.41903
 20
-706.0588199999997
 30
0.0
 40
64.0
  1
 
 41
0.9
100
AcDbText
  0
TEXT
  5
2A47
330
2B46
100
AcDbEntity
  8
ETC
100
AcDbText
 10
464.2937580189571
 20
242.1378957962888
 30
0.0
 40
64.0
  1
システム部材
 41
0.9
100
AcDbText
  0
TEXT
  5
2A48
330
2B46
100
AcDbEntity
  8
ETC
100
AcDbText
 10
470.5017560189552
 20
343.0212217962889
 30
0.0
 40
64.0
  1
QW-50SDBCM_6
 41
0.9
100
AcDbText
  0
TEXT
  5
2A49
330
2B46
100
AcDbEntity
  8
ETC
100
AcDbText
 10
464.2937580189571
 20
142.1378957962888
 30
0.0
 40
64.0
  1
QW-50SDBCM
 41
0.9
100
AcDbText
  0
POINT
  5
2A4A
330
2B46
100
AcDbEntity
  8
ARRANGE
100
AcDbPoint
 10
0.0
 20
0.0
 30
0.0
 39
50.0
  0
LINE
  5
2A4B
330
2B46
100
AcDbEntity
  8
DETAIL
100
AcDbLine
 10
250.6999999999971
 20
-576.1999999999998
 30
0.0
 11
250.6999999999971
 21
-117.8000000000002
 31
0.0
  0
LINE
  5
2A4C
330
2B46
100
AcDbEntity
  8
DETAIL
100
AcDbLine
 10
-250.7000000000007
 20
-117.7999999999997
 30
0.0
 11
-250.7000000000007
 21
-576.1999999999998
 31
0.0
  0
LINE
  5
2A4D
330
2B46
100
AcDbEntity
  8
BASIS
100
AcDbLine
 10
0.0
 20
25.0
 30
0.0
 11
0.0
 21
-638.0
 31
0.0
  0
LINE
  5
2A4E
330
2B46
100
AcDbEntity
  8
DETAIL
100
AcDbLine
 10
-250.7000000000007
 20
-117.7999999999997
 30
0.0
 11
250.6999999999971
 21
-117.7999999999997
 31
0.0
  0
LINE
  5
2A4F
330
2B46
100
AcDbEntity
  8
NOTE
100
AcDbLine
 10
-280.0
 20
12.5
 30
0.0
 11
-280.0
 21
-12.5
 31
0.0
  0
CIRCLE
  5
2A50
330
2B46
100
AcDbEntity
  8
ARRANGE
100
AcDbCircle
 10
0.0
 20
0.0
 30
0.0
 40
40.0
  0
LINE
  5
2A51
330
2B46
100
AcDbEntity
  8
NOTE
100
AcDbLine
 10
280.0
 20
-12.5
 30
0.0
 11
280.0
 21
12.5
 31
0.0
  0
LINE
  5
2A52
330
2B46
100
AcDbEntity
  8
DETAIL
100
AcDbLine
 10
250.6999999999971
 20
-576.1999999999998
 30
0.0
 11
-250.7000000000007
 21
-576.1999999999998
 31
0.0
  0
INSERT
  5
2A53
330
2B46
100
AcDbEntity
  8
0
100
AcDbBlockReference
  2
*U74
 10
0.0
 20
0.0
 30
0.0
1001
ACAD
1000
DSTYLE
1002
{
1070
    41
1040
12.0
1070
    42
1040
20.0
1070
    43
1040
200.0
1070
    44
1040
20.0
1070
    73
1070
     0
1070
    74
1070
     0
1070
    77
1070
     1
1070
    78
1070
     8
1070
   140
1040
64.0
1070
   147
1040
50.0
1070
   172
1070
     1
1070
   174
1070
     1
1070
   275
1070
     0
1070
   284
1070
     0
1070
   285
1070
     0
1070
   286
1070
     0
1070
   341
1005
0
1070
   342
1005
0
1002
}
  0
INSERT
  5
2A54
330
2B46
100
AcDbEntity
  8
0
100
AcDbBlockReference
  2
*U75
 10
0.0
 20
0.0
 30
0.0
  0
LINE
  5
2A55
330
2B46
100
AcDbEntity
  8
DETAIL
100
AcDbLine
 10
-266.5
 20
-102.0
 30
0.0
 11
-266.5
 21
-612.9999999999994
 31
0.0
  0
LINE
  5
2A56
330
2B46
100
AcDbEntity
  8
DETAIL
100
AcDbLine
 10
266.5
 20
-613.0
 30
0.0
 11
266.5
 21
-102.0
 31
0.0
  0
LINE
  5
2A57
330
2B46
100
AcDbEntity
  8
DETAIL
100
AcDbLine
 10
280.0
 20
-592.0
 30
0.0
 11
280.0
 21
-87.0
 31
0.0
  0
LINE
  5
2A58
330
2B46
100
AcDbEntity
  8
DETAIL
100
AcDbLine
 10
-280.0
 20
-87.0
 30
0.0
 11
-280.0
 21
-592.0
 31
0.0
  0
LINE
  5
2A59
330
2B46
100
AcDbEntity
  8
DETAIL
100
AcDbLine
 10
-280.0
 20
-87.0
 30
0.0
 11
280.0
 21
-87.0
 31
0.0
  0
LINE
  5
2A5A
330
2B46
100
AcDbEntity
  8
DETAIL
100
AcDbLine
 10
-266.5
 20
-102.0
 30
0.0
 11
266.5
 21
-102.0
 31
0.0
  0
LINE
  5
2A5B
330
2B46
100
AcDbEntity
  8
DETAIL
100
AcDbLine
 10
-305.0
 20
-10.0
 30
0.0
 11
305.0
 21
-10.0
 31
0.0
  0
LINE
  5
2A5C
330
2B46
100
AcDbEntity
  8
DETAIL
100
AcDbLine
 10
-266.5
 20
-202.0
 30
0.0
 11
-266.5
 21
-102.0
 31
0.0
  0
LINE
  5
2A5D
330
2B46
100
AcDbEntity
  8
DETAIL
100
AcDbLine
 10
-305.0
 20
-10.0
 30
0.0
 11
-305.0
 21
0.0
 31
0.0
  0
LINE
  5
2A5E
330
2B46
100
AcDbEntity
  8
DETAIL
100
AcDbLine
 10
-266.5
 20
-10.0
 30
0.0
 11
-266.5
 21
-87.0
 31
0.0
  0
LINE
  5
2A5F
330
2B46
100
AcDbEntity
  8
DETAIL
100
AcDbLine
 10
-266.5
 20
-87.0
 30
0.0
 11
-266.5
 21
-10.0
 31
0.0
  0
LINE
  5
2A60
330
2B46
100
AcDbEntity
  8
DETAIL
100
AcDbLine
 10
266.5
 20
-87.0
 30
0.0
 11
266.5
 21
-10.0
 31
0.0
  0
LINE
  5
2A61
330
2B46
100
AcDbEntity
  8
DETAIL
100
AcDbLine
 10
305.0
 20
-10.0
 30
0.0
 11
305.0
 21
0.0
 31
0.0
  0
LINE
  5
2A62
330
2B46
100
AcDbEntity
  8
DETAIL
100
AcDbLine
 10
266.5
 20
-592.0
 30
0.0
 11
-280.0
 21
-592.0
 31
0.0
  0
LINE
  5
2A63
330
2B46
100
AcDbEntity
  8
DETAIL
100
AcDbLine
 10
123.5
 20
-592.0
 30
0.0
 11
280.0
 21
-592.0
 31
0.0
  0
LINE
  5
2A64
330
2B46
100
AcDbEntity
  8
DETAIL
100
AcDbLine
 10
266.5
 20
-607.0
 30
0.0
 11
-266.5
 21
-607.0
 31
0.0
  0
LINE
  5
2A65
330
2B46
100
AcDbEntity
  8
DETAIL
100
AcDbLine
 10
266.5
 20
-613.0
 30
0.0
 11
-266.5
 21
-612.9999999999994
 31
0.0
  0
LINE
  5
2A66
330
2B46
100
AcDbEntity
  8
OUTLINE
100
AcDbLine
 10
-266.5
 20
-102.0
 30
0.0
 11
-266.5
 21
-612.9999999999994
 31
0.0
  0
LINE
  5
2A67
330
2B46
100
AcDbEntity
  8
OUTLINE
100
AcDbLine
 10
266.5
 20
-613.0
 30
0.0
 11
266.5
 21
-102.0
 31
0.0
  0
LINE
  5
2A68
330
2B46
100
AcDbEntity
  8
OUTLINE
100
AcDbLine
 10
280.0
 20
-592.0
 30
0.0
 11
280.0
 21
-87.0
 31
0.0
  0
LINE
  5
2A69
330
2B46
100
AcDbEntity
  8
OUTLINE
100
AcDbLine
 10
-280.0
 20
-87.0
 30
0.0
 11
-280.0
 21
-592.0
 31
0.0
  0
LINE
  5
2A6A
330
2B46
100
AcDbEntity
  8
OUTLINE
100
AcDbLine
 10
-280.0
 20
-87.0
 30
0.0
 11
280.0
 21
-87.0
 31
0.0
  0
LINE
  5
2A6B
330
2B46
100
AcDbEntity
  8
OUTLINE
100
AcDbLine
 10
-266.5
 20
-102.0
 30
0.0
 11
266.5
 21
-102.0
 31
0.0
  0
LINE
  5
2A6C
330
2B46
100
AcDbEntity
  8
OUTLINE
100
AcDbLine
 10
-305.0
 20
-10.0
 30
0.0
 11
305.0
 21
-10.0
 31
0.0
  0
LINE
  5
2A6D
330
2B46
100
AcDbEntity
  8
OUTLINE
100
AcDbLine
 10
-266.5
 20
-202.0
 30
0.0
 11
-266.5
 21
-102.0
 31
0.0
  0
LINE
  5
2A6E
330
2B46
100
AcDbEntity
  8
OUTLINE
100
AcDbLine
 10
-305.0
 20
-10.0
 30
0.0
 11
-305.0
 21
0.0
 31
0.0
  0
LINE
  5
2A6F
330
2B46
100
AcDbEntity
  8
OUTLINE
100
AcDbLine
 10
-266.5
 20
-10.0
 30
0.0
 11
-266.5
 21
-87.0
 31
0.0
  0
LINE
  5
2A70
330
2B46
100
AcDbEntity
  8
OUTLINE
100
AcDbLine
 10
-266.5
 20
-87.0
 30
0.0
 11
-266.5
 21
-10.0
 31
0.0
  0
LINE
  5
2A71
330
2B46
100
AcDbEntity
  8
OUTLINE
100
AcDbLine
 10
266.5
 20
-87.0
 30
0.0
 11
266.5
 21
-10.0
 31
0.0
  0
LINE
  5
2A72
330
2B46
100
AcDbEntity
  8
OUTLINE
100
AcDbLine
 10
305.0
 20
-10.0
 30
0.0
 11
305.0
 21
0.0
 31
0.0
  0
LINE
  5
2A73
330
2B46
100
AcDbEntity
  8
OUTLINE
100
AcDbLine
 10
266.5
 20
-592.0
 30
0.0
 11
-280.0
 21
-592.0
 31
0.0
  0
LINE
  5
2A74
330
2B46
100
AcDbEntity
  8
OUTLINE
100
AcDbLine
 10
123.5
 20
-592.0
 30
0.0
 11
280.0
 21
-592.0
 31
0.0
  0
LINE
  5
2A75
330
2B46
100
AcDbEntity
  8
OUTLINE
100
AcDbLine
 10
266.5
 20
-607.0
 30
0.0
 11
-266.5
 21
-607.0
 31
0.0
  0
LINE
  5
2A76
330
2B46
100
AcDbEntity
  8
OUTLINE
100
AcDbLine
 10
266.5
 20
-613.0
 30
0.0
 11
-266.5
 21
-612.9999999999994
 31
0.0
  0
LINE
  5
2A77
330
2B46
100
AcDbEntity
  8
DETAIL
100
AcDbLine
 39
50.0
 10
-305.0
 20
0.0
 30
0.0
 11
305.0
 21
0.0
 31
0.0
  0
LINE
  5
2A78
330
2B46
100
AcDbEntity
  8
NOTE
100
AcDbLine
 39
50.0
 10
-292.5
 20
0.0
 30
0.0
 11
-267.5
 21
0.0
 31
0.0
  0
LINE
  5
2A79
330
2B46
100
AcDbEntity
  8
NOTE
100
AcDbLine
 39
50.0
 10
267.5
 20
0.0
 30
0.0
 11
292.5
 21
0.0
 31
0.0
  0
LINE
  5
2A7A
330
2B46
100
AcDbEntity
  8
OUTLINE
100
AcDbLine
 39
50.0
 10
-305.0
 20
0.0
 30
0.0
 11
305.0
 21
0.0
 31
0.0
  0
INSERT
  5
2A7B
330
2B46
100
AcDbEntity
  8
DETAIL
  6
Continuous
100
AcDbBlockReference
  2
*X76
 10
0.0
 20
0.0
 30
0.0
1001
ACADANNOTATIVE
1000
AnnotativeData
1002
{
1070
     1
1070
     0
1002
}
1001
ACAD
1000
HATCH
1002
{
1070
    19
1000
LINE
1040
19.969
1040
0.5880014249968896
1000
R14_HATCH_DATA
1000
5FED
1011
1.0
1021
0.0
1031
0.0
1011
0.0
1021
1.0
1031
0.0
1011
0.0
1021
0.0
1031
1.0
1040
0.0
1010
0.0
1020
0.0
1030
1.0
1000
LINE
1070
     0
1070
     0
1071
        2
1071
        7
1070
     0
1070
     1
1071
        6
1040
34.89999999999418
1040
-117.7999999999993
1040
-250.7000000000007
1040
-117.7999999999997
1040
-250.7000000000007
1040
-576.2000000000003
1040
250.6999999999933
1040
-576.2000000000003
1040
250.6999999999971
1040
-311.6000000000004
1040
34.89999999999418
1040
-311.6000000000008
1071
        0
1071
       23
1070
     0
1070
     1
1071
        4
1040
250.6999999999971
1040
-117.8000000000006
1040
34.89999999999418
1040
-117.8000000000006
1040
34.89999999999783
1040
-311.5999999999999
1040
250.6999999999933
1040
-311.6000000000004
1071
        0
1070
     0
1070
     1
1040
0.5880014249968896
1040
19.969
1070
     0
1070
     1
1040
0.5880014249968896
1040
19421.77395696385
1040
3343.365385395211
1040
-1.384598579568018
1040
2.076903172775084
1070
     0
1040
0.8686145429760394
1071
        2
1040
-115.1934448955653
1040
-231.318445765934
1040
0.0
1040
181.2833088850457
1040
-236.5214214842231
1040
0.0
1002
}
  0
INSERT
  5
2A7C
330
2B46
100
AcDbEntity
  8
DETAIL
  6
Continuous
100
AcDbBlockReference
  2
*X77
 10
0.0
 20
0.0
 30
0.0
1001
ACADANNOTATIVE
1000
AnnotativeData
1002
{
1070
     1
1070
     0
1002
}
1001
ACAD
1000
HATCH
1002
{
1070
    19
1000
LINE
1040
19.969
1040
5.695183882182695
1000
R14_HATCH_DATA
1000
5FF3
1011
1.0
1021
0.0
1031
0.0
1011
0.0
1021
1.0
1031
0.0
1011
0.0
1021
0.0
1031
1.0
1040
0.0
1010
0.0
1020
0.0
1030
1.0
1000
LINE
1070
     0
1070
     0
1071
        2
1071
        7
1070
     0
1070
     1
1071
        6
1040
34.89999999999783
1040
-117.8000000000002
1040
-250.7000000000007
1040
-117.8000000000002
1040
-250.6999999999971
1040
-576.2000000000003
1040
250.6999999999971
1040
-576.2000000000003
1040
250.6999999999933
1040
-311.6000000000004
1040
34.89999999999783
1040
-311.5999999999995
1071
        0
1071
       23
1070
     0
1070
     1
1071
        4
1040
34.89999999999418
1040
-117.8000000000002
1040
34.89999999999418
1040
-311.6000000000004
1040
250.6999999999933
1040
-311.6000000000004
1040
250.6999999999971
1040
-117.8000000000002
1071
        0
1070
     0
1070
     1
1040
5.695183882182695
1040
19.969
1070
     0
1070
     1
1040
5.695183882182695
1040
19421.77395696385
1040
3343.365385395211
1040
1.384598579568018
1040
2.076903172775084
1070
     0
1040
2.87716741337424
1071
        2
1040
-158.9149599969823
1040
-202.0781878850617
1040
0.0
1040
146.2780182326824
1040
-163.169323028243
1040
0.0
1002
}
  0
LINE
  5
2A7D
330
2B46
100
AcDbEntity
  8
DETAIL
100
AcDbLine
 10
250.6999999999971
 20
-576.2000000000003
 30
0.0
 11
250.6999999999971
 21
-117.8000000000002
 31
0.0
  0
LINE
  5
2A7E
330
2B46
100
AcDbEntity
  8
DETAIL
100
AcDbLine
 10
-250.7000000000007
 20
-117.7999999999997
 30
0.0
 11
-250.7000000000007
 21
-576.2000000000003
 31
0.0
  0
LINE
  5
2A7F
330
2B46
100
AcDbEntity
  8
DETAIL
100
AcDbLine
 10
-250.7000000000007
 20
-117.7999999999997
 30
0.0
 11
250.6999999999971
 21
-117.8000000000002
 31
0.0
  0
LINE
  5
2A80
330
2B46
100
AcDbEntity
  8
DETAIL
100
AcDbLine
 10
250.6999999999971
 20
-576.2000000000003
 30
0.0
 11
-250.7000000000007
 21
-576.2000000000003
 31
0.0
  0
LINE
  5
2A81
330
2B46
100
AcDbEntity
  8
DETAIL
100
AcDbLine
 10
250.6999999999971
 20
-576.2000000000003
 30
0.0
 11
250.6999999999971
 21
-117.8000000000002
 31
0.0
  0
LINE
  5
2A82
330
2B46
100
AcDbEntity
  8
DETAIL
100
AcDbLine
 10
-250.7000000000007
 20
-117.7999999999997
 30
0.0
 11
-250.7000000000007
 21
-576.2000000000003
 31
0.0
  0
LINE
  5
2A83
330
2B46
100
AcDbEntity
  8
DETAIL
100
AcDbLine
 10
-250.7000000000007
 20
-117.7999999999997
 30
0.0
 11
250.6999999999971
 21
-117.8000000000002
 31
0.0
  0
LINE
  5
2A84
330
2B46
100
AcDbEntity
  8
DETAIL
100
AcDbLine
 10
250.6999999999971
 20
-576.2000000000003
 30
0.0
 11
-250.7000000000007
 21
-576.2000000000003
 31
0.0
  0
LINE
  5
2A85
330
2B46
100
AcDbEntity
  8
SIZE
100
AcDbLine
 10
305.0
 20
20.0
 30
0.0
 11
305.0
 21
297.6865929365171
 31
0.0
  0
LINE
  5
2A86
330
2B46
100
AcDbEntity
  8
SIZE
100
AcDbLine
 10
-305.0
 20
20.0
 30
0.0
 11
-305.0
 21
297.6865929365171
 31
0.0
  0
LINE
  5
2A87
330
2B46
100
AcDbEntity
  8
SIZE
100
AcDbLine
 10
293.0
 20
277.6865929365172
 30
0.0
 11
-293.0
 21
277.6865929365172
 31
0.0
  0
INSERT
  5
2A88
330
2B46
100
AcDbEntity
  8
SIZE
100
AcDbBlockReference
  2
_DOTBLANK
 10
305.0
 20
277.6865929365172
 30
0.0
 41
12.0
 42
12.0
 43
12.0
  0
INSERT
  5
2A89
330
2B46
100
AcDbEntity
  8
SIZE
100
AcDbBlockReference
  2
_DOTBLANK
 10
-305.0
 20
277.6865929365172
 30
0.0
 41
12.0
 42
12.0
 43
12.0
 50
180.0
  0
LINE
  5
2A8A
330
2B46
100
AcDbEntity
  8
SIZE
100
AcDbLine
 10
280.0
 20
32.5
 30
0.0
 11
280.0
 21
179.1320910096174
 31
0.0
  0
LINE
  5
2A8B
330
2B46
100
AcDbEntity
  8
SIZE
100
AcDbLine
 10
-280.0
 20
32.5
 30
0.0
 11
-280.0
 21
179.1320910096174
 31
0.0
  0
LINE
  5
2A8C
330
2B46
100
AcDbEntity
  8
SIZE
100
AcDbLine
 10
268.0
 20
159.1320910096174
 30
0.0
 11
-268.0
 21
159.1320910096174
 31
0.0
  0
INSERT
  5
2A8D
330
2B46
100
AcDbEntity
  8
SIZE
100
AcDbBlockReference
  2
_DOTBLANK
 10
280.0
 20
159.1320910096174
 30
0.0
 41
12.0
 42
12.0
 43
12.0
  0
INSERT
  5
2A8E
330
2B46
100
AcDbEntity
  8
SIZE
100
AcDbBlockReference
  2
_DOTBLANK
 10
-280.0
 20
159.1320910096174
 30
0.0
 41
12.0
 42
12.0
 43
12.0
 50
180.0
  0
LINE
  5
2A8F
330
2B46
100
AcDbEntity
  8
SIZE
100
AcDbLine
 10
-300.0
 20
-592.0
 30
0.0
 11
-551.7312593367242
 21
-592.0
 31
0.0
  0
LINE
  5
2A90
330
2B46
100
AcDbEntity
  8
SIZE
100
AcDbLine
 10
-286.5
 20
-612.9999999999994
 30
0.0
 11
-551.7312593367242
 21
-612.9999999999994
 31
0.0
  0
LINE
  5
2A91
330
2B46
100
AcDbEntity
  8
SIZE
100
AcDbLine
 10
-531.731259336724
 20
-580.0
 30
0.0
 11
-531.731259336724
 21
-568.0
 31
0.0
  0
LINE
  5
2A92
330
2B46
100
AcDbEntity
  8
SIZE
100
AcDbLine
 10
-531.731259336724
 20
-624.9999999999994
 30
0.0
 11
-531.731259336724
 21
-725.571428571428
 31
0.0
  0
INSERT
  5
2A93
330
2B46
100
AcDbEntity
  8
SIZE
100
AcDbBlockReference
  2
_DOTBLANK
 10
-531.731259336724
 20
-592.0
 30
0.0
 41
12.0
 42
12.0
 43
12.0
 50
270.0
  0
INSERT
  5
2A94
330
2B46
100
AcDbEntity
  8
SIZE
100
AcDbBlockReference
  2
_DOTBLANK
 10
-531.731259336724
 20
-612.9999999999994
 30
0.0
 41
12.0
 42
12.0
 43
12.0
 50
90.0
  0
LINE
  5
2A95
330
2B46
100
AcDbEntity
  8
SIZE
100
AcDbLine
 10
-300.0
 20
-592.0
 30
0.0
 11
-551.7312593367242
 21
-592.0
 31
0.0
  0
LINE
  5
2A96
330
2B46
100
AcDbEntity
  8
SIZE
100
AcDbLine
 10
-325.0
 20
0.0
 30
0.0
 11
-551.7312593367242
 21
0.0000000000001137
 31
0.0
  0
LINE
  5
2A97
330
2B46
100
AcDbEntity
  8
SIZE
100
AcDbLine
 10
-531.731259336724
 20
-580.0
 30
0.0
 11
-531.731259336724
 21
-11.99999999999988
 31
0.0
  0
INSERT
  5
2A98
330
2B46
100
AcDbEntity
  8
SIZE
100
AcDbBlockReference
  2
_DOTBLANK
 10
-531.731259336724
 20
-592.0
 30
0.0
 41
12.0
 42
12.0
 43
12.0
 50
270.0
  0
INSERT
  5
2A99
330
2B46
100
AcDbEntity
  8
SIZE
100
AcDbBlockReference
  2
_DOTBLANK
 10
-531.731259336724
 20
0.0000000000001137
 30
0.0
 41
12.0
 42
12.0
 43
12.0
 50
90.0
  0
LINE
  5
2A9A
330
2B46
100
AcDbEntity
  8
SIZE
100
AcDbLine
 10
325.0
 20
0.0
 30
0.0
 11
419.7818048153821
 21
0.0
 31
0.0
  0
LINE
  5
2A9B
330
2B46
100
AcDbEntity
  8
SIZE
100
AcDbLine
 10
325.0
 20
-10.0
 30
0.0
 11
419.7818048153821
 21
-10.0
 31
0.0
  0
LINE
  5
2A9C
330
2B46
100
AcDbEntity
  8
SIZE
100
AcDbLine
 10
399.7818048153821
 20
12.0
 30
0.0
 11
399.7818048153821
 21
24.0
 31
0.0
  0
LINE
  5
2A9D
330
2B46
100
AcDbEntity
  8
SIZE
100
AcDbLine
 10
399.7818048153821
 20
-22.0
 30
0.0
 11
399.7818048153821
 21
-136.2857142857143
 31
0.0
  0
INSERT
  5
2A9E
330
2B46
100
AcDbEntity
  8
SIZE
100
AcDbBlockReference
  2
_DOTBLANK
 10
399.7818048153821
 20
0.0
 30
0.0
 41
12.0
 42
12.0
 43
12.0
 50
270.0
  0
INSERT
  5
2A9F
330
2B46
100
AcDbEntity
  8
SIZE
100
AcDbBlockReference
  2
_DOTBLANK
 10
399.7818048153821
 20
-10.0
 30
0.0
 41
12.0
 42
12.0
 43
12.0
 50
90.0
  0
LINE
  5
2AA0
330
2B46
100
AcDbEntity
  8
SIZE
100
AcDbLine
 10
280.0
 20
-612.0
 30
0.0
 11
280.0
 21
-791.9689853962835
 31
0.0
  0
LINE
  5
2AA1
330
2B46
100
AcDbEntity
  8
SIZE
100
AcDbLine
 10
-280.0
 20
-612.0
 30
0.0
 11
-280.0
 21
-791.9689853962835
 31
0.0
  0
LINE
  5
2AA2
330
2B46
100
AcDbEntity
  8
SIZE
100
AcDbLine
 10
268.0
 20
-771.9689853962835
 30
0.0
 11
-268.0
 21
-771.9689853962835
 31
0.0
  0
INSERT
  5
2AA3
330
2B46
100
AcDbEntity
  8
SIZE
100
AcDbBlockReference
  2
_DOTBLANK
 10
280.0
 20
-771.9689853962835
 30
0.0
 41
12.0
 42
12.0
 43
12.0
  0
INSERT
  5
2AA4
330
2B46
100
AcDbEntity
  8
SIZE
100
AcDbBlockReference
  2
_DOTBLANK
 10
-280.0
 20
-771.9689853962835
 30
0.0
 41
12.0
 42
12.0
 43
12.0
 50
180.0
  0
TEXT
  5
2AA5
330
2B46
100
AcDbEntity
  8
SIZE
100
AcDbText
 10
-74.05714285714248
 20
-761.9689853962835
 30
0.0
 40
64.0
  1
560
 41
0.9
100
AcDbText
  0
TEXT
  5
2AA6
330
2B46
100
AcDbEntity
  8
SIZE
100
AcDbText
 10
-541.731259336724
 20
-715.5714285714281
 30
0.0
 40
64.0
  1
21
 50
90.0
 41
0.9
100
AcDbText
  0
TEXT
  5
2AA7
330
2B46
100
AcDbEntity
  8
SIZE
100
AcDbText
 10
-541.731259336724
 20
-371.0571428571427
 30
0.0
 40
64.0
  1
592
 50
90.0
 41
0.9
100
AcDbText
  0
TEXT
  5
2AA8
330
2B46
100
AcDbEntity
  8
SIZE
100
AcDbText
 10
-74.61302049113918
 20
169.1320910096174
 30
0.0
 40
64.0
  1
560
 41
0.9
100
AcDbText
  0
TEXT
  5
2AA9
330
2B46
100
AcDbEntity
  8
SIZE
100
AcDbText
 10
-68.57142857142844
 20
287.6865929365172
 30
0.0
 40
64.0
  1
610
 41
0.9
100
AcDbText
  0
TEXT
  5
2AAA
330
2B46
100
AcDbEntity
  8
SIZE
100
AcDbText
 10
389.7818048153821
 20
-126.2857142857142
 30
0.0
 40
64.0
  1
10
 50
90.0
 41
0.9
100
AcDbText
  0
ENDSEC
  0
SECTION
  2
OBJECTS
  0
DICTIONARY
  5
2ADE
330
0
100
AcDbDictionary
281
     1
  3
ACAD_2007HEADERVARS_RT
350
2D34
  3
ACAD_COLOR
350
2B3C
  3
ACAD_GROUP
350
2ADF
  3
ACAD_LAYOUT
350
2B3B
  3
ACAD_MATERIAL
350
2AE2
  3
ACAD_MLEADERSTYLE
350
2B3F
  3
ACAD_MLINESTYLE
350
2B38
  3
ACAD_PLOTSETTINGS
350
2B3A
  3
ACAD_PLOTSTYLENAME
350
2AE0
  3
ACAD_SCALELIST
350
2B0C
  3
ACAD_TABLESTYLE
350
2B3D
  3
ACAD_VISUALSTYLE
350
2AFB
  3
ACDB_RECOMPOSE_DATA
350
2D32
  3
AcDbVariableDictionary
350
2D29
  3
AcmDictionary
350
2CDC
  3
AMG
350
2C29
  3
DWGPROPS
350
2D33
  3
MAPISURF_MODULE
350
2CA9
  0
DICTIONARY
  5
2D04
330
2B2E
100
AcDbDictionary
280
     1
281
     1
  3
ADSK_XREC_LAYER_RECONCILED
360
2D05
  0
DICTIONARY
  5
2D06
330
2B5D
100
AcDbDictionary
280
     1
281
     1
  3
ADSK_XREC_LAYER_RECONCILED
360
2D07
  0
DICTIONARY
  5
2D08
330
2B5E
100
AcDbDictionary
280
     1
281
     1
  3
ADSK_XREC_LAYER_RECONCILED
360
2D09
  0
DICTIONARY
  5
2D0A
330
2B5F
100
AcDbDictionary
280
     1
281
     1
  3
ADSK_XREC_LAYER_RECONCILED
360
2D0B
  0
DICTIONARY
  5
2D0C
330
2B60
100
AcDbDictionary
280
     1
281
     1
  3
ADSK_XREC_LAYER_RECONCILED
360
2D0D
  0
DICTIONARY
  5
2D0E
330
2B61
100
AcDbDictionary
280
     1
281
     1
  3
ADSK_XREC_LAYER_RECONCILED
360
2D0F
  0
DICTIONARY
  5
2D10
330
2B63
100
AcDbDictionary
280
     1
281
     1
  3
ADSK_XREC_LAYER_RECONCILED
360
2D11
  0
DICTIONARY
  5
2D12
330
2B64
100
AcDbDictionary
280
     1
281
     1
  3
ADSK_XREC_LAYER_RECONCILED
360
2D13
  0
DICTIONARY
  5
2D14
330
2B65
100
AcDbDictionary
280
     1
281
     1
  3
ADSK_XREC_LAYER_RECONCILED
360
2D15
  0
DICTIONARY
  5
2D16
330
2B66
100
AcDbDictionary
280
     1
281
     1
  3
ADSK_XREC_LAYER_RECONCILED
360
2D17
  0
DICTIONARY
  5
2D18
330
2B67
100
AcDbDictionary
280
     1
281
     1
  3
ADSK_XREC_LAYER_RECONCILED
360
2D19
  0
DICTIONARY
  5
2D1A
330
2B46
100
AcDbDictionary
280
     1
281
     1
  3
ACAD_INDEX
360
2D1B
  0
DICTIONARY
  5
2D34
102
{ACAD_REACTORS
330
2ADE
102
}
330
2ADE
100
AcDbDictionary
281
     1
  3
DIMARCSYM
350
2D35
  3
DIMLTEX1
350
2D37
  3
DIMLTEX2
350
2D38
  3
DIMLTYPE
350
2D36
  0
DICTIONARY
  5
2B3C
102
{ACAD_REACTORS
330
2ADE
102
}
330
2ADE
100
AcDbDictionary
281
     1
  0
DICTIONARY
  5
2ADF
102
{ACAD_REACTORS
330
2ADE
102
}
330
2ADE
100
AcDbDictionary
281
     1
  0
DICTIONARY
  5
2B3B
102
{ACAD_REACTORS
330
2ADE
102
}
330
2ADE
100
AcDbDictionary
281
     1
  3
Model
350
2B49
  3
レイアウト1
350
2B45
  0
DICTIONARY
  5
2AE2
102
{ACAD_REACTORS
330
2ADE
102
}
330
2ADE
100
AcDbDictionary
281
     1
  3
ByBlock
350
2AEB
  3
ByLayer
350
2AE3
  3
Global
350
2AF3
  0
DICTIONARY
  5
2B3F
102
{ACAD_REACTORS
330
2ADE
102
}
330
2ADE
100
AcDbDictionary
281
     1
  3
Standard
350
2B40
  0
DICTIONARY
  5
2B38
102
{ACAD_REACTORS
330
2ADE
102
}
330
2ADE
100
AcDbDictionary
281
     1
  3
Standard
350
2B39
  0
DICTIONARY
  5
2B3A
102
{ACAD_REACTORS
330
2ADE
102
}
330
2ADE
100
AcDbDictionary
281
     1
  0
ACDBDICTIONARYWDFLT
  5
2AE0
102
{ACAD_REACTORS
330
2ADE
102
}
330
2ADE
100
AcDbDictionary
281
     1
  3
Normal
350
2AE1
100
AcDbDictionaryWithDefault
340
2AE1
  0
DICTIONARY
  5
2B0C
102
{ACAD_REACTORS
330
2ADE
102
}
330
2ADE
100
AcDbDictionary
281
     1
  3
A0
350
2B0D
  3
A1
350
2B0E
  3
A2
350
2B0F
  3
A3
350
2B10
  3
A4
350
2B11
  3
A5
350
2B12
  3
A6
350
2B13
  3
A7
350
2B14
  3
A8
350
2B15
  3
A9
350
2B16
  3
B0
350
2B17
  3
B1
350
2B18
  3
B2
350
2B19
  3
B3
350
2B1A
  3
B4
350
2B1B
  3
B5
350
2B1C
  3
B6
350
2B1D
  3
B7
350
2B1E
  3
B8
350
2B1F
  3
B9
350
2B20
  3
C0
350
2B21
  3
C1
350
2B22
  3
C2
350
2B23
  3
C3
350
2B24
  3
C4
350
2B25
  3
C5
350
2B26
  3
C6
350
2B27
  3
C7
350
2B28
  3
C8
350
2B29
  3
C9
350
2B2A
  3
D0
350
2B2B
  3
D1
350
2B2C
  3
D2
350
2B2D
  0
DICTIONARY
  5
2B3D
102
{ACAD_REACTORS
330
2ADE
102
}
330
2ADE
100
AcDbDictionary
281
     1
  3
Standard
350
2B3E
  0
DICTIONARY
  5
2AFB
102
{ACAD_REACTORS
330
2ADE
102
}
330
2ADE
100
AcDbDictionary
281
     1
  3
2dWireframe
350
2B01
  3
3D Hidden
350
2B03
  3
3dWireframe
350
2B02
  3
Basic
350
2B00
  3
Brighten
350
2B07
  3
ColorChange
350
2B0B
  3
Conceptual
350
2B04
  3
Dim
350
2B06
  3
Facepattern
350
2B0A
  3
Flat
350
2AFC
  3
FlatWithEdges
350
2AFD
  3
Gouraud
350
2AFE
  3
GouraudWithEdges
350
2AFF
  3
Linepattern
350
2B09
  3
Realistic
350
2B05
  3
Thicken
350
2B08
  0
XRECORD
  5
2D32
102
{ACAD_REACTORS
330
2ADE
102
}
330
2ADE
100
AcDbXrecord
280
     1
 90
        1
330
2B3E
  0
DICTIONARY
  5
2D29
102
{ACAD_REACTORS
330
2ADE
102
}
330
2ADE
100
AcDbDictionary
281
     1
  3
CANNOSCALE
350
2D2C
  3
CMLEADERSTYLE
350
2D2B
  3
CTABLESTYLE
350
2D2A
  3
DIMASSOC
350
2D2F
  3
INDEXCTL
350
2D2E
  3
SORTENTS
350
2D2D
  0
DICTIONARY
  5
2CDC
102
{ACAD_REACTORS
330
2ADE
102
}
330
2ADE
100
AcDbDictionary
281
     1
  3
AcmStdDictionary
350
2CEA
  0
DICTIONARY
  5
2C29
102
{ACAD_REACTORS
330
2ADE
102
}
330
2ADE
100
AcDbDictionary
281
     1
  3
AcMgSettings
350
2C2A
  0
XRECORD
  5
2D33
102
{ACAD_REACTORS
330
2ADE
102
}
330
2ADE
100
AcDbXrecord
280
     1
  1
DWGPROPS COOKIE
  2

  3

  4

  6

  7

  8
A090053
  9

300
AmdtFileType=84
301
=
302
=
303
=
304
=
305
=
306
=
307
=
308
=
309
=
 40
1.042140474537037
 41
2452321.396199653
 42
2456212.845454294
  1

 90
        1
  0
XRECORD
  5
2D05
102
{ACAD_REACTORS
330
2D04
102
}
330
2D04
100
AcDbXrecord
280
     1
290
     1
  0
XRECORD
  5
2D07
102
{ACAD_REACTORS
330
2D06
102
}
330
2D06
100
AcDbXrecord
280
     1
290
     1
  0
XRECORD
  5
2D09
102
{ACAD_REACTORS
330
2D08
102
}
330
2D08
100
AcDbXrecord
280
     1
290
     1
  0
XRECORD
  5
2D0B
102
{ACAD_REACTORS
330
2D0A
102
}
330
2D0A
100
AcDbXrecord
280
     1
290
     1
  0
XRECORD
  5
2D0D
102
{ACAD_REACTORS
330
2D0C
102
}
330
2D0C
100
AcDbXrecord
280
     1
290
     1
  0
XRECORD
  5
2D0F
102
{ACAD_REACTORS
330
2D0E
102
}
330
2D0E
100
AcDbXrecord
280
     1
290
     1
  0
XRECORD
  5
2D11
102
{ACAD_REACTORS
330
2D10
102
}
330
2D10
100
AcDbXrecord
280
     1
290
     1
  0
XRECORD
  5
2D13
102
{ACAD_REACTORS
330
2D12
102
}
330
2D12
100
AcDbXrecord
280
     1
290
     1
  0
XRECORD
  5
2D15
102
{ACAD_REACTORS
330
2D14
102
}
330
2D14
100
AcDbXrecord
280
     1
290
     1
  0
XRECORD
  5
2D17
102
{ACAD_REACTORS
330
2D16
102
}
330
2D16
100
AcDbXrecord
280
     1
290
     1
  0
XRECORD
  5
2D19
102
{ACAD_REACTORS
330
2D18
102
}
330
2D18
100
AcDbXrecord
280
     1
290
     1
  0
DICTIONARY
  5
2D1B
102
{ACAD_REACTORS
330
2D1A
102
}
330
2D1A
100
AcDbDictionary
281
     1
  3
*A1
350
2D1C
  0
XRECORD
  5
2D35
102
{ACAD_REACTORS
330
2D34
102
}
330
2D34
100
AcDbXrecord
280
     1
 70
     1
  0
XRECORD
  5
2D37
102
{ACAD_REACTORS
330
2D34
102
}
330
2D34
100
AcDbXrecord
280
     1
340
2B34
  0
XRECORD
  5
2D38
102
{ACAD_REACTORS
330
2D34
102
}
330
2D34
100
AcDbXrecord
280
     1
340
2B34
  0
XRECORD
  5
2D36
102
{ACAD_REACTORS
330
2D34
102
}
330
2D34
100
AcDbXrecord
280
     1
340
2B34
  0
LAYOUT
  5
2B49
102
{ACAD_XDICTIONARY
360
2D3F
102
}
102
{ACAD_REACTORS
330
2B3B
102
}
330
2B3B
100
AcDbPlotSettings
  1

  2
自動 EPSON LP-9600S (W2450527 上)
  4

  6

 40
0.0
 41
0.0
 42
0.0
 43
0.0
 44
0.0
 45
0.0
 46
0.0
 47
0.0
 48
0.0
 49
0.0
140
0.0
141
0.0
142
1.0
143
1.0
 70
  1712
 72
     0
 73
     0
 74
     0
  7

 75
     0
147
1.0
148
0.0
149
0.0
100
AcDbLayout
  1
Model
 70
     1
 71
     0
 10
0.0
 20
0.0
 11
12.0
 21
9.0
 12
0.0
 22
0.0
 32
0.0
 14
0.0
 24
0.0
 34
0.0
 15
0.0
 25
0.0
 35
0.0
146
0.0
 13
0.0
 23
0.0
 33
0.0
 16
1.0
 26
0.0
 36
0.0
 17
0.0
 27
1.0
 37
0.0
 76
     0
330
2B46
331
2B4A
  0
LAYOUT
  5
2B45
102
{ACAD_XDICTIONARY
360
2D3D
102
}
102
{ACAD_REACTORS
330
2B3B
102
}
330
2B3B
100
AcDbPlotSettings
  1

  2
自動 EPSON LP-9600S (W2450527 上)
  4

  6

 40
0.0
 41
0.0
 42
0.0
 43
0.0
 44
0.0
 45
0.0
 46
0.0
 47
0.0
 48
0.0
 49
0.0
140
0.0
141
0.0
142
1.0
143
1.0
 70
   688
 72
     0
 73
     0
 74
     5
  7

 75
    16
147
1.0
148
0.0
149
0.0
100
AcDbLayout
  1
レイアウト1
 70
     1
 71
     1
 10
0.0
 20
0.0
 11
12.0
 21
9.0
 12
0.0
 22
0.0
 32
0.0
 14
1.000000000000000E+20
 24
1.000000000000000E+20
 34
1.000000000000000E+20
 15
-1.000000000000000E+20
 25
-1.000000000000000E+20
 35
-1.000000000000000E+20
146
0.0
 13
0.0
 23
0.0
 33
0.0
 16
1.0
 26
0.0
 36
0.0
 17
0.0
 27
1.0
 37
0.0
 76
     0
330
2B42
  0
MATERIAL
  5
2AEB
102
{ACAD_XDICTIONARY
360
2AEC
102
}
102
{ACAD_REACTORS
330
2AE2
102
}
330
2AE2
100
AcDbMaterial
  1
ByBlock
 72
     0
 43
0.0208333333333333
 43
0.0
 43
0.0
 43
0.0
 43
0.0
 43
0.0208333333333333
 43
0.0
 43
0.0
 43
0.0
 43
0.0
 43
1.0
 43
0.0
 43
0.0
 43
0.0
 43
0.0
 43
1.0
 77
     0
 47
0.0208333333333333
 47
0.0
 47
0.0
 47
0.0
 47
0.0
 47
0.0208333333333333
 47
0.0
 47
0.0
 47
0.0
 47
0.0
 47
1.0
 47
0.0
 47
0.0
 47
0.0
 47
0.0
 47
1.0
171
     0
 49
0.0208333333333333
 49
0.0
 49
0.0
 49
0.0
 49
0.0
 49
0.0208333333333333
 49
0.0
 49
0.0
 49
0.0
 49
0.0
 49
1.0
 49
0.0
 49
0.0
 49
0.0
 49
0.0
 49
1.0
175
     0
142
0.0208333333333333
142
0.0
142
0.0
142
0.0
142
0.0
142
0.0208333333333333
142
0.0
142
0.0
142
0.0
142
0.0
142
1.0
142
0.0
142
0.0
142
0.0
142
0.0
142
1.0
179
     0
144
0.0208333333333333
144
0.0
144
0.0
144
0.0
144
0.0
144
0.0208333333333333
144
0.0
144
0.0
144
0.0
144
0.0
144
1.0
144
0.0
144
0.0
144
0.0
144
0.0
144
1.0
147
0.0208333333333333
147
0.0
147
0.0
147
0.0
147
0.0
147
0.0208333333333333
147
0.0
147
0.0
147
0.0
147
0.0
147
1.0
147
0.0
147
0.0
147
0.0
147
0.0
147
1.0
  0
MATERIAL
  5
2AE3
102
{ACAD_XDICTIONARY
360
2AE4
102
}
102
{ACAD_REACTORS
330
2AE2
102
}
330
2AE2
100
AcDbMaterial
  1
ByLayer
 72
     0
 43
0.0208333333333333
 43
0.0
 43
0.0
 43
0.0
 43
0.0
 43
0.0208333333333333
 43
0.0
 43
0.0
 43
0.0
 43
0.0
 43
1.0
 43
0.0
 43
0.0
 43
0.0
 43
0.0
 43
1.0
 77
     0
 47
0.0208333333333333
 47
0.0
 47
0.0
 47
0.0
 47
0.0
 47
0.0208333333333333
 47
0.0
 47
0.0
 47
0.0
 47
0.0
 47
1.0
 47
0.0
 47
0.0
 47
0.0
 47
0.0
 47
1.0
171
     0
 49
0.0208333333333333
 49
0.0
 49
0.0
 49
0.0
 49
0.0
 49
0.0208333333333333
 49
0.0
 49
0.0
 49
0.0
 49
0.0
 49
1.0
 49
0.0
 49
0.0
 49
0.0
 49
0.0
 49
1.0
175
     0
142
0.0208333333333333
142
0.0
142
0.0
142
0.0
142
0.0
142
0.0208333333333333
142
0.0
142
0.0
142
0.0
142
0.0
142
1.0
142
0.0
142
0.0
142
0.0
142
0.0
142
1.0
179
     0
144
0.0208333333333333
144
0.0
144
0.0
144
0.0
144
0.0
144
0.0208333333333333
144
0.0
144
0.0
144
0.0
144
0.0
144
1.0
144
0.0
144
0.0
144
0.0
144
0.0
144
1.0
147
0.0208333333333333
147
0.0
147
0.0
147
0.0
147
0.0
147
0.0208333333333333
147
0.0
147
0.0
147
0.0
147
0.0
147
1.0
147
0.0
147
0.0
147
0.0
147
0.0
147
1.0
  0
MATERIAL
  5
2AF3
102
{ACAD_XDICTIONARY
360
2AF4
102
}
102
{ACAD_REACTORS
330
2AE2
102
}
330
2AE2
100
AcDbMaterial
  1
Global
 72
     0
 43
0.0208333333333333
 43
0.0
 43
0.0
 43
0.0
 43
0.0
 43
0.0208333333333333
 43
0.0
 43
0.0
 43
0.0
 43
0.0
 43
1.0
 43
0.0
 43
0.0
 43
0.0
 43
0.0
 43
1.0
 77
     0
 47
0.0208333333333333
 47
0.0
 47
0.0
 47
0.0
 47
0.0
 47
0.0208333333333333
 47
0.0
 47
0.0
 47
0.0
 47
0.0
 47
1.0
 47
0.0
 47
0.0
 47
0.0
 47
0.0
 47
1.0
171
     0
 49
0.0208333333333333
 49
0.0
 49
0.0
 49
0.0
 49
0.0
 49
0.0208333333333333
 49
0.0
 49
0.0
 49
0.0
 49
0.0
 49
1.0
 49
0.0
 49
0.0
 49
0.0
 49
0.0
 49
1.0
175
     0
142
0.0208333333333333
142
0.0
142
0.0
142
0.0
142
0.0
142
0.0208333333333333
142
0.0
142
0.0
142
0.0
142
0.0
142
1.0
142
0.0
142
0.0
142
0.0
142
0.0
142
1.0
179
     0
144
0.0208333333333333
144
0.0
144
0.0
144
0.0
144
0.0
144
0.0208333333333333
144
0.0
144
0.0
144
0.0
144
0.0
144
1.0
144
0.0
144
0.0
144
0.0
144
0.0
144
1.0
147
0.0208333333333333
147
0.0
147
0.0
147
0.0
147
0.0
147
0.0208333333333333
147
0.0
147
0.0
147
0.0
147
0.0
147
1.0
147
0.0
147
0.0
147
0.0
147
0.0
147
1.0
  0
MLEADERSTYLE
  5
2B40
102
{ACAD_REACTORS
330
2B3F
102
}
330
2B3F
100
AcDbMLeaderStyle
170
     2
171
     1
172
     0
 90
        2
 40
0.0
 41
0.0
173
     1
 91
-1056964608
340
2B34
 92
       -2
290
     1
 42
0.09
291
     1
 43
0.36
  3
Standard
 44
0.18
300

342
2B2F
174
     1
178
     6
175
     1
176
     0
 93
-1056964608
 45
0.18
292
     0
297
     0
 46
0.18
 94
-1056964608
 47
1.0
 49
1.0
140
1.0
293
     1
141
0.0
294
     1
177
     0
142
1.0
295
     0
296
     0
143
0.125
1001
ACAD_MLEADERVER
1070
     2
  0
MLINESTYLE
  5
2B39
102
{ACAD_REACTORS
330
2B38
102
}
330
2B38
100
AcDbMlineStyle
  2
STANDARD
 70
     0
  3

 62
   256
 51
90.0
 52
90.0
 71
     2
 49
0.5
 62
   256
  6
BYLAYER
 49
-0.5
 62
   256
  6
BYLAYER
  0
ACDBPLACEHOLDER
  5
2AE1
102
{ACAD_REACTORS
330
2AE0
102
}
330
2AE0
  0
SCALE
  5
2B0D
102
{ACAD_REACTORS
330
2B0C
102
}
330
2B0C
100
AcDbScale
 70
     0
300
1:1
140
1.0
141
1.0
290
     1
  0
SCALE
  5
2B0E
102
{ACAD_REACTORS
330
2B0C
102
}
330
2B0C
100
AcDbScale
 70
     0
300
1:2
140
1.0
141
2.0
290
     0
  0
SCALE
  5
2B0F
102
{ACAD_REACTORS
330
2B0C
102
}
330
2B0C
100
AcDbScale
 70
     0
300
1:4
140
1.0
141
4.0
290
     0
  0
SCALE
  5
2B10
102
{ACAD_REACTORS
330
2B0C
102
}
330
2B0C
100
AcDbScale
 70
     0
300
1:5
140
1.0
141
5.0
290
     0
  0
SCALE
  5
2B11
102
{ACAD_REACTORS
330
2B0C
102
}
330
2B0C
100
AcDbScale
 70
     0
300
1:8
140
1.0
141
8.0
290
     0
  0
SCALE
  5
2B12
102
{ACAD_REACTORS
330
2B0C
102
}
330
2B0C
100
AcDbScale
 70
     0
300
1:10
140
1.0
141
10.0
290
     0
  0
SCALE
  5
2B13
102
{ACAD_REACTORS
330
2B0C
102
}
330
2B0C
100
AcDbScale
 70
     0
300
1:16
140
1.0
141
16.0
290
     0
  0
SCALE
  5
2B14
102
{ACAD_REACTORS
330
2B0C
102
}
330
2B0C
100
AcDbScale
 70
     0
300
1:20
140
1.0
141
20.0
290
     0
  0
SCALE
  5
2B15
102
{ACAD_REACTORS
330
2B0C
102
}
330
2B0C
100
AcDbScale
 70
     0
300
1:30
140
1.0
141
30.0
290
     0
  0
SCALE
  5
2B16
102
{ACAD_REACTORS
330
2B0C
102
}
330
2B0C
100
AcDbScale
 70
     0
300
1:40
140
1.0
141
40.0
290
     0
  0
SCALE
  5
2B17
102
{ACAD_REACTORS
330
2B0C
102
}
330
2B0C
100
AcDbScale
 70
     0
300
1:50
140
1.0
141
50.0
290
     0
  0
SCALE
  5
2B18
102
{ACAD_REACTORS
330
2B0C
102
}
330
2B0C
100
AcDbScale
 70
     0
300
1:100
140
1.0
141
100.0
290
     0
  0
SCALE
  5
2B19
102
{ACAD_REACTORS
330
2B0C
102
}
330
2B0C
100
AcDbScale
 70
     0
300
2:1
140
2.0
141
1.0
290
     0
  0
SCALE
  5
2B1A
102
{ACAD_REACTORS
330
2B0C
102
}
330
2B0C
100
AcDbScale
 70
     0
300
4:1
140
4.0
141
1.0
290
     0
  0
SCALE
  5
2B1B
102
{ACAD_REACTORS
330
2B0C
102
}
330
2B0C
100
AcDbScale
 70
     0
300
8:1
140
8.0
141
1.0
290
     0
  0
SCALE
  5
2B1C
102
{ACAD_REACTORS
330
2B0C
102
}
330
2B0C
100
AcDbScale
 70
     0
300
10:1
140
10.0
141
1.0
290
     0
  0
SCALE
  5
2B1D
102
{ACAD_REACTORS
330
2B0C
102
}
330
2B0C
100
AcDbScale
 70
     0
300
100:1
140
100.0
141
1.0
290
     0
  0
SCALE
  5
2B1E
102
{ACAD_REACTORS
330
2B0C
102
}
330
2B0C
100
AcDbScale
 70
     0
300
1/128" = 1'-0"
140
0.0078125
141
12.0
290
     0
  0
SCALE
  5
2B1F
102
{ACAD_REACTORS
330
2B0C
102
}
330
2B0C
100
AcDbScale
 70
     0
300
1/64" = 1'-0"
140
0.015625
141
12.0
290
     0
  0
SCALE
  5
2B20
102
{ACAD_REACTORS
330
2B0C
102
}
330
2B0C
100
AcDbScale
 70
     0
300
1/32" = 1'-0"
140
0.03125
141
12.0
290
     0
  0
SCALE
  5
2B21
102
{ACAD_REACTORS
330
2B0C
102
}
330
2B0C
100
AcDbScale
 70
     0
300
1/16" = 1'-0"
140
0.0625
141
12.0
290
     0
  0
SCALE
  5
2B22
102
{ACAD_REACTORS
330
2B0C
102
}
330
2B0C
100
AcDbScale
 70
     0
300
3/32" = 1'-0"
140
0.09375
141
12.0
290
     0
  0
SCALE
  5
2B23
102
{ACAD_REACTORS
330
2B0C
102
}
330
2B0C
100
AcDbScale
 70
     0
300
1/8" = 1'-0"
140
0.125
141
12.0
290
     0
  0
SCALE
  5
2B24
102
{ACAD_REACTORS
330
2B0C
102
}
330
2B0C
100
AcDbScale
 70
     0
300
3/16" = 1'-0"
140
0.1875
141
12.0
290
     0
  0
SCALE
  5
2B25
102
{ACAD_REACTORS
330
2B0C
102
}
330
2B0C
100
AcDbScale
 70
     0
300
1/4" = 1'-0"
140
0.25
141
12.0
290
     0
  0
SCALE
  5
2B26
102
{ACAD_REACTORS
330
2B0C
102
}
330
2B0C
100
AcDbScale
 70
     0
300
3/8" = 1'-0"
140
0.375
141
12.0
290
     0
  0
SCALE
  5
2B27
102
{ACAD_REACTORS
330
2B0C
102
}
330
2B0C
100
AcDbScale
 70
     0
300
1/2" = 1'-0"
140
0.5
141
12.0
290
     0
  0
SCALE
  5
2B28
102
{ACAD_REACTORS
330
2B0C
102
}
330
2B0C
100
AcDbScale
 70
     0
300
3/4" = 1'-0"
140
0.75
141
12.0
290
     0
  0
SCALE
  5
2B29
102
{ACAD_REACTORS
330
2B0C
102
}
330
2B0C
100
AcDbScale
 70
     0
300
1" = 1'-0"
140
1.0
141
12.0
290
     0
  0
SCALE
  5
2B2A
102
{ACAD_REACTORS
330
2B0C
102
}
330
2B0C
100
AcDbScale
 70
     0
300
1-1/2" = 1'-0"
140
1.5
141
12.0
290
     0
  0
SCALE
  5
2B2B
102
{ACAD_REACTORS
330
2B0C
102
}
330
2B0C
100
AcDbScale
 70
     0
300
3" = 1'-0"
140
3.0
141
12.0
290
     0
  0
SCALE
  5
2B2C
102
{ACAD_REACTORS
330
2B0C
102
}
330
2B0C
100
AcDbScale
 70
     0
300
6" = 1'-0"
140
6.0
141
12.0
290
     0
  0
SCALE
  5
2B2D
102
{ACAD_REACTORS
330
2B0C
102
}
330
2B0C
100
AcDbScale
 70
     0
300
1'-0" = 1'-0"
140
12.0
141
12.0
290
     0
  0
TABLESTYLE
  5
2B3E
102
{ACAD_XDICTIONARY
360
2D30
102
}
102
{ACAD_REACTORS
330
2B3D
102
}
330
2B3D
100
AcDbTableStyle
  3
Standard
 70
     0
 71
     0
 40
0.06
 41
0.06
280
     0
281
     0
  7
STANDARD
140
0.18
170
     2
 62
     0
 63
     7
283
     0
274
    -2
284
     1
 64
     0
275
    -2
285
     1
 65
     0
276
    -2
286
     1
 66
     0
277
    -2
287
     1
 67
     0
278
    -2
288
     1
 68
     0
279
    -2
289
     1
 69
     0
  7
STANDARD
140
0.25
170
     5
 62
     0
 63
     7
283
     0
274
    -2
284
     1
 64
     0
275
    -2
285
     1
 65
     0
276
    -2
286
     1
 66
     0
277
    -2
287
     1
 67
     0
278
    -2
288
     1
 68
     0
279
    -2
289
     1
 69
     0
  7
STANDARD
140
0.18
170
     5
 62
     0
 63
     7
283
     0
274
    -2
284
     1
 64
     0
275
    -2
285
     1
 65
     0
276
    -2
286
     1
 66
     0
277
    -2
287
     1
 67
     0
278
    -2
288
     1
 68
     0
279
    -2
289
     1
 69
     0
  0
VISUALSTYLE
  5
2B01
102
{ACAD_REACTORS
330
2AFB
102
}
330
2AFB
100
AcDbVisualStyle
  2
2dWireframe
 70
     4
 71
     0
 72
     2
 73
     0
 90
        0
 40
-0.6
 41
-30.0
 62
     5
 63
     7
 74
     1
 91
        4
 64
     7
 65
   257
 75
     1
175
     1
 42
1.0
 92
        0
 66
   257
 43
1.0
 76
     1
 77
     6
 78
     2
 67
     7
 79
     5
170
     0
171
     0
290
     0
174
     0
 93
        1
 44
0.0
173
     0
291
     0
 45
0.0
1001
ACAD
1000
AcDbSavedByObjectVersion
1070
     0
  0
VISUALSTYLE
  5
2B03
102
{ACAD_REACTORS
330
2AFB
102
}
330
2AFB
100
AcDbVisualStyle
  2
3D Hidden
 70
     6
 71
     1
 72
     2
 73
     2
 90
        0
 40
-0.6
 41
-30.0
 62
     5
 63
     7
 74
     2
 91
        2
 64
     7
 65
   257
 75
     2
175
     1
 42
40.0
 92
        0
 66
   257
 43
1.0
 76
     1
 77
     6
 78
     2
 67
     7
 79
     3
170
     0
171
     0
290
     0
174
     0
 93
        1
 44
0.0
173
     0
291
     0
 45
0.0
1001
ACAD
1000
AcDbSavedByObjectVersion
1070
     0
  0
VISUALSTYLE
  5
2B02
102
{ACAD_REACTORS
330
2AFB
102
}
330
2AFB
100
AcDbVisualStyle
  2
3dWireframe
 70
     5
 71
     0
 72
     2
 73
     0
 90
        0
 40
-0.6
 41
-30.0
 62
     5
 63
     7
 74
     1
 91
        4
 64
     7
 65
   257
 75
     1
175
     1
 42
1.0
 92
        0
 66
   257
 43
1.0
 76
     1
 77
     6
 78
     2
 67
     7
 79
     5
170
     0
171
     0
290
     0
174
     0
 93
        1
 44
0.0
173
     0
291
     0
 45
0.0
1001
ACAD
1000
AcDbSavedByObjectVersion
1070
     0
  0
VISUALSTYLE
  5
2B00
102
{ACAD_REACTORS
330
2AFB
102
}
330
2AFB
100
AcDbVisualStyle
  2
Basic
 70
     7
 71
     1
 72
     0
 73
     1
 90
        0
 40
-0.6
 41
-30.0
 62
     5
 63
     7
 74
     0
 91
        4
 64
     7
 65
   257
 75
     1
175
     1
 42
1.0
 92
        8
 66
     7
 43
1.0
 76
     1
 77
     6
 78
     2
 67
     7
 79
     5
170
     0
171
     0
290
     0
174
     0
 93
        1
 44
0.0
173
     0
291
     1
 45
0.0
1001
ACAD
1000
AcDbSavedByObjectVersion
1070
     0
  0
VISUALSTYLE
  5
2B07
102
{ACAD_REACTORS
330
2AFB
102
}
330
2AFB
100
AcDbVisualStyle
  2
Brighten
 70
    12
 71
     2
 72
     2
 73
     0
 90
        0
 40
-0.6
 41
-30.0
 62
     5
 63
     7
 74
     1
 91
        4
 64
     7
 65
   257
 75
     1
175
     1
 42
1.0
 92
        8
 66
     7
 43
1.0
 76
     1
 77
     6
 78
     2
 67
     7
 79
     5
170
     0
171
     0
290
     0
174
     0
 93
        1
 44
50.0
173
     0
291
     1
 45
0.0
1001
ACAD
1000
AcDbSavedByObjectVersion
1070
     0
  0
VISUALSTYLE
  5
2B0B
102
{ACAD_REACTORS
330
2AFB
102
}
330
2AFB
100
AcDbVisualStyle
  2
ColorChange
 70
    16
 71
     2
 72
     2
 73
     3
 90
        0
 40
-0.6
 41
-30.0
 62
     5
 63
     8
 74
     1
 91
        4
 64
     7
 65
   257
 75
     1
175
     1
 42
1.0
 92
        8
 66
     8
 43
1.0
 76
     1
 77
     6
 78
     2
 67
     7
 79
     5
170
     0
171
     0
290
     0
174
     0
 93
        1
 44
0.0
173
     0
291
     1
 45
0.0
1001
ACAD
1000
AcDbSavedByObjectVersion
1070
     0
  0
VISUALSTYLE
  5
2B04
102
{ACAD_REACTORS
330
2AFB
102
}
330
2AFB
100
AcDbVisualStyle
  2
Conceptual
 70
     9
 71
     3
 72
     2
 73
     0
 90
        0
 40
-0.6
 41
-30.0
 62
     5
 63
     7
 74
     2
 91
        2
 64
     7
 65
   257
 75
     1
175
     1
 42
40.0
 92
        8
 66
     7
 43
1.0
 76
     1
 77
     6
 78
     2
 67
     7
 79
     3
170
     0
171
     0
290
     0
174
     0
 93
        1
 44
0.0
173
     0
291
     0
 45
0.0
1001
ACAD
1000
AcDbSavedByObjectVersion
1070
     0
  0
VISUALSTYLE
  5
2B06
102
{ACAD_REACTORS
330
2AFB
102
}
330
2AFB
100
AcDbVisualStyle
  2
Dim
 70
    11
 71
     2
 72
     2
 73
     0
 90
        0
 40
-0.6
 41
-30.0
 62
     5
 63
     7
 74
     1
 91
        4
 64
     7
 65
   257
 75
     1
175
     1
 42
1.0
 92
        8
 66
     7
 43
1.0
 76
     1
 77
     6
 78
     2
 67
     7
 79
     5
170
     0
171
     0
290
     0
174
     0
 93
        1
 44
-50.0
173
     0
291
     1
 45
0.0
1001
ACAD
1000
AcDbSavedByObjectVersion
1070
     0
  0
VISUALSTYLE
  5
2B0A
102
{ACAD_REACTORS
330
2AFB
102
}
330
2AFB
100
AcDbVisualStyle
  2
Facepattern
 70
    15
 71
     2
 72
     2
 73
     0
 90
        0
 40
-0.6
 41
-30.0
 62
     5
 63
     7
 74
     1
 91
        4
 64
     7
 65
   257
 75
     1
175
     1
 42
1.0
 92
        8
 66
     7
 43
1.0
 76
     1
 77
     6
 78
     2
 67
     7
 79
     5
170
     0
171
     0
290
     0
174
     0
 93
        1
 44
0.0
173
     0
291
     1
 45
0.0
1001
ACAD
1000
AcDbSavedByObjectVersion
1070
     0
  0
VISUALSTYLE
  5
2AFC
102
{ACAD_REACTORS
330
2AFB
102
}
330
2AFB
100
AcDbVisualStyle
  2
Flat
 70
     0
 71
     2
 72
     1
 73
     1
 90
        2
 40
-0.6
 41
30.0
 62
     5
 63
     7
 74
     0
 91
        4
 64
     7
 65
   257
 75
     1
175
     1
 42
1.0
 92
        8
 66
     7
 43
1.0
 76
     1
 77
     6
 78
     2
 67
     7
 79
     5
170
     0
171
     0
290
     0
174
     0
 93
       13
 44
0.0
173
     0
291
     1
 45
0.0
1001
ACAD
1000
AcDbSavedByObjectVersion
1070
     0
  0
VISUALSTYLE
  5
2AFD
102
{ACAD_REACTORS
330
2AFB
102
}
330
2AFB
100
AcDbVisualStyle
  2
FlatWithEdges
 70
     1
 71
     2
 72
     1
 73
     1
 90
        2
 40
-0.6
 41
30.0
 62
     5
 63
     7
 74
     1
 91
        4
 64
     7
 65
   257
 75
     1
175
     1
 42
1.0
 92
        0
 66
   257
 43
1.0
 76
     1
 77
     6
 78
     2
 67
     7
 79
     5
170
     0
171
     0
290
     0
174
     0
 93
       13
 44
0.0
173
     0
291
     1
 45
0.0
1001
ACAD
1000
AcDbSavedByObjectVersion
1070
     0
  0
VISUALSTYLE
  5
2AFE
102
{ACAD_REACTORS
330
2AFB
102
}
330
2AFB
100
AcDbVisualStyle
  2
Gouraud
 70
     2
 71
     2
 72
     2
 73
     1
 90
        2
 40
-0.6
 41
30.0
 62
     5
 63
     7
 74
     0
 91
        4
 64
     7
 65
   257
 75
     1
175
     1
 42
1.0
 92
        0
 66
     7
 43
1.0
 76
     1
 77
     6
 78
     2
 67
     7
 79
     5
170
     0
171
     0
290
     0
174
     0
 93
       13
 44
0.0
173
     0
291
     1
 45
0.0
1001
ACAD
1000
AcDbSavedByObjectVersion
1070
     0
  0
VISUALSTYLE
  5
2AFF
102
{ACAD_REACTORS
330
2AFB
102
}
330
2AFB
100
AcDbVisualStyle
  2
GouraudWithEdges
 70
     3
 71
     2
 72
     2
 73
     1
 90
        2
 40
-0.6
 41
30.0
 62
     5
 63
     7
 74
     1
 91
        4
 64
     7
 65
   257
 75
     1
175
     1
 42
1.0
 92
        0
 66
   257
 43
1.0
 76
     1
 77
     6
 78
     2
 67
     7
 79
     5
170
     0
171
     0
290
     0
174
     0
 93
       13
 44
0.0
173
     0
291
     1
 45
0.0
1001
ACAD
1000
AcDbSavedByObjectVersion
1070
     0
  0
VISUALSTYLE
  5
2B09
102
{ACAD_REACTORS
330
2AFB
102
}
330
2AFB
100
AcDbVisualStyle
  2
Linepattern
 70
    14
 71
     2
 72
     2
 73
     0
 90
        0
 40
-0.6
 41
-30.0
 62
     5
 63
     7
 74
     1
 91
        4
 64
     7
 65
   257
 75
     7
175
     7
 42
1.0
 92
        8
 66
     7
 43
1.0
 76
     1
 77
     6
 78
     2
 67
     7
 79
     5
170
     0
171
     0
290
     0
174
     0
 93
        1
 44
0.0
173
     0
291
     1
 45
0.0
1001
ACAD
1000
AcDbSavedByObjectVersion
1070
     0
  0
VISUALSTYLE
  5
2B05
102
{ACAD_REACTORS
330
2AFB
102
}
330
2AFB
100
AcDbVisualStyle
  2
Realistic
 70
     8
 71
     2
 72
     2
 73
     0
 90
        0
 40
-0.6
 41
-30.0
 62
     5
 63
     7
 74
     1
 91
        0
 64
     7
 65
   257
 75
     1
175
     1
 42
1.0
 92
        8
 66
     8
 43
1.0
 76
     1
 77
     6
 78
     2
 67
     7
 79
     5
170
     0
171
     0
290
     0
174
     0
 93
       13
 44
0.0
173
     0
291
     0
 45
0.0
1001
ACAD
1000
AcDbSavedByObjectVersion
1070
     0
  0
VISUALSTYLE
  5
2B08
102
{ACAD_REACTORS
330
2AFB
102
}
330
2AFB
100
AcDbVisualStyle
  2
Thicken
 70
    13
 71
     2
 72
     2
 73
     0
 90
        0
 40
-0.6
 41
-30.0
 62
     5
 63
     7
 74
     1
 91
        4
 64
     7
 65
   257
 75
     1
175
     1
 42
1.0
 92
       12
 66
     7
 43
1.0
 76
     1
 77
     6
 78
     2
 67
     7
 79
     5
170
     0
171
     0
290
     0
174
     0
 93
        1
 44
0.0
173
     0
291
     1
 45
0.0
1001
ACAD
1000
AcDbSavedByObjectVersion
1070
     0
  0
DICTIONARYVAR
  5
2D2C
102
{ACAD_REACTORS
330
2D29
102
}
330
2D29
100
DictionaryVariables
280
     0
  1
1:1
  0
DICTIONARYVAR
  5
2D2B
102
{ACAD_REACTORS
330
2D29
102
}
330
2D29
100
DictionaryVariables
280
     0
  1
STANDARD
  0
DICTIONARYVAR
  5
2D2A
102
{ACAD_REACTORS
330
2D29
102
}
330
2D29
100
DictionaryVariables
280
     0
  1
STANDARD
  0
DICTIONARYVAR
  5
2D2F
102
{ACAD_REACTORS
330
2D29
102
}
330
2D29
100
DictionaryVariables
280
     0
  1
1
  0
DICTIONARYVAR
  5
2D2E
102
{ACAD_REACTORS
330
2D29
102
}
330
2D29
100
DictionaryVariables
280
     0
  1
1
  0
DICTIONARYVAR
  5
2D2D
102
{ACAD_REACTORS
330
2D29
102
}
330
2D29
100
DictionaryVariables
280
     0
  1
127
  0
DICTIONARY
  5
2CEA
102
{ACAD_REACTORS
330
2CDC
102
}
330
2CDC
100
AcDbDictionary
281
     1
  0
DICTIONARY
  5
2C2A
102
{ACAD_REACTORS
330
2C29
102
}
330
2C29
100
AcDbDictionary
281
     1
  3
DWGSETTINGS
350
2C2B
  3
TRANSSETTINGS
350
2C2C
  0
LAYER_INDEX
  5
2D1C
102
{ACAD_REACTORS
330
2D1B
102
}
330
2D1B
100
AcDbIndex
 40
2456212.845454294
100
AcDbLayerIndex
  8
0
360
2D1D
 90
        2
  8
OUTLINE
360
2D1E
 90
       24
  8
SIZE
360
2D1F
 90
       38
  8
BASIS
360
2D20
 90
        1
  8
DETAIL
360
2D21
 90
       32
  8
ARRANGE
360
2D22
 90
        2
  8
DEFPOINTS
360
2D23
 90
        0
  8
ETC
360
2D24
 90
        3
  8
FIX
360
2D25
 90
        0
  8
NOTE
360
2D26
 90
        4
  8
SERVICESPACE
360
2D27
 90
        0
  8
SYMBOLLINE
360
2D28
 90
        0
  0
DICTIONARY
  5
2D3F
330
2B49
100
AcDbDictionary
280
     1
281
     1
  3
ACAD_XREC_ROUNDTRIP
360
2D40
  0
DICTIONARY
  5
2D3D
330
2B45
100
AcDbDictionary
280
     1
281
     1
  3
ACAD_XREC_ROUNDTRIP
360
2D3E
  0
DICTIONARY
  5
2AEC
330
2AEB
100
AcDbDictionary
280
     1
281
     1
  3
ACAD_XREC_ROUNDTRIP
360
2D3A
  3
BUMPTILE
360
2AEE
  3
DIFFUSETILE
360
2AED
  3
OPACITYTILE
360
2AF1
  3
REFLECTIONTILE
360
2AF0
  3
REFRACTIONTILE
360
2AF2
  3
SPECULARTILE
360
2AEF
  0
DICTIONARY
  5
2AE4
330
2AE3
100
AcDbDictionary
280
     1
281
     1
  3
ACAD_XREC_ROUNDTRIP
360
2D39
  3
BUMPTILE
360
2AE6
  3
DIFFUSETILE
360
2AE5
  3
OPACITYTILE
360
2AE9
  3
REFLECTIONTILE
360
2AE8
  3
REFRACTIONTILE
360
2AEA
  3
SPECULARTILE
360
2AE7
  0
DICTIONARY
  5
2AF4
330
2AF3
100
AcDbDictionary
280
     1
281
     1
  3
ACAD_XREC_ROUNDTRIP
360
2D3B
  3
BUMPTILE
360
2AF6
  3
DIFFUSETILE
360
2AF5
  3
OPACITYTILE
360
2AF9
  3
REFLECTIONTILE
360
2AF8
  3
REFRACTIONTILE
360
2AFA
  3
SPECULARTILE
360
2AF7
  0
DICTIONARY
  5
2D30
330
2B3E
100
AcDbDictionary
280
     1
281
     1
  3
ACAD_ROUNDTRIP_2008_TABLESTYLE_CELLSTYLEMAP
360
2D31
  3
ACAD_XREC_ROUNDTRIP
360
2D3C
  0
IDBUFFER
  5
2D1D
330
0
100
AcDbIdBuffer
330
2A53
330
2A54
  0
IDBUFFER
  5
2D1E
330
0
100
AcDbIdBuffer
330
2A70
330
2A71
330
2A72
330
2A73
330
2A74
330
2A75
330
2A76
330
2A7A
330
953
330
954
330
955
330
956
330
957
330
958
330
2A66
330
2A67
330
2A68
330
2A69
330
2A6A
330
2A6B
330
2A6C
330
2A6D
330
2A6E
330
2A6F
  0
IDBUFFER
  5
2D1F
330
0
100
AcDbIdBuffer
330
2A95
330
2A96
330
2A97
330
2A98
330
2A99
330
2A9A
330
2A9B
330
2A9C
330
2A9D
330
2A9E
330
2A9F
330
2AA0
330
2AA1
330
2AA2
330
2AA3
330
2AA4
330
2AA5
330
2AA6
330
2AA7
330
2AA8
330
2AA9
330
2AAA
330
2A85
330
2A86
330
2A87
330
2A88
330
2A89
330
2A8A
330
2A8B
330
2A8C
330
2A8D
330
2A8E
330
2A8F
330
2A90
330
2A91
330
2A92
330
2A93
330
2A94
  0
IDBUFFER
  5
2D20
330
0
100
AcDbIdBuffer
330
2A4D
  0
IDBUFFER
  5
2D21
330
0
100
AcDbIdBuffer
330
2A61
330
2A62
330
2A63
330
2A64
330
2A65
330
2A77
330
2A7B
330
2A7C
330
2A7D
330
2A7E
330
2A7F
330
2A80
330
2A81
330
2A82
330
2A83
330
2A84
330
2A4B
330
2A4C
330
2A4E
330
2A52
330
2A55
330
2A56
330
2A57
330
2A58
330
2A59
330
2A5A
330
2A5B
330
2A5C
330
2A5D
330
2A5E
330
2A5F
330
2A60
  0
IDBUFFER
  5
2D22
330
0
100
AcDbIdBuffer
330
2A4A
330
2A50
  0
IDBUFFER
  5
2D23
330
0
100
AcDbIdBuffer
  0
IDBUFFER
  5
2D24
330
0
100
AcDbIdBuffer
330
2A47
330
2A48
330
2A49
  0
IDBUFFER
  5
2D25
330
0
100
AcDbIdBuffer
  0
IDBUFFER
  5
2D26
330
0
100
AcDbIdBuffer
330
2A4F
330
2A51
330
2A78
330
2A79
  0
IDBUFFER
  5
2D27
330
0
100
AcDbIdBuffer
  0
IDBUFFER
  5
2D28
330
0
100
AcDbIdBuffer
  0
XRECORD
  5
2D40
102
{ACAD_REACTORS
330
2D3F
102
}
330
2D3F
100
AcDbXrecord
280
     1
102
SHADEPLOT
 70
     0
102
SHADEPLOTRESLEVEL
 70
     2
102
SHADEPLOTCUSTOMDPI
 70
   300
  0
XRECORD
  5
2D3E
102
{ACAD_REACTORS
330
2D3D
102
}
330
2D3D
100
AcDbXrecord
280
     1
102
SHADEPLOT
 70
     0
102
SHADEPLOTRESLEVEL
 70
     2
102
SHADEPLOTCUSTOMDPI
 70
   300
  0
XRECORD
  5
2D3A
102
{ACAD_REACTORS
330
2AEC
102
}
330
2AEC
100
AcDbXrecord
280
     1
102
MATERIAL
148
0.0
149
0.0
149
0.0
 93
        0
 94
      127
282
     0
 72
     0
 77
     0
171
     0
175
     0
179
     0
273
     0
  0
XRECORD
  5
2AEE
102
{ACAD_REACTORS
330
2AEC
102
}
330
2AEC
100
AcDbXrecord
280
     1
270
     1
271
     1
  0
XRECORD
  5
2AED
102
{ACAD_REACTORS
330
2AEC
102
}
330
2AEC
100
AcDbXrecord
280
     1
270
     1
271
     1
  0
XRECORD
  5
2AF1
102
{ACAD_REACTORS
330
2AEC
102
}
330
2AEC
100
AcDbXrecord
280
     1
270
     1
271
     1
  0
XRECORD
  5
2AF0
102
{ACAD_REACTORS
330
2AEC
102
}
330
2AEC
100
AcDbXrecord
280
     1
270
     1
271
     1
  0
XRECORD
  5
2AF2
102
{ACAD_REACTORS
330
2AEC
102
}
330
2AEC
100
AcDbXrecord
280
     1
270
     1
271
     1
  0
XRECORD
  5
2AEF
102
{ACAD_REACTORS
330
2AEC
102
}
330
2AEC
100
AcDbXrecord
280
     1
270
     1
271
     1
  0
XRECORD
  5
2D39
102
{ACAD_REACTORS
330
2AE4
102
}
330
2AE4
100
AcDbXrecord
280
     1
102
MATERIAL
148
0.0
149
0.0
149
0.0
 93
        0
 94
      127
282
     0
 72
     0
 77
     0
171
     0
175
     0
179
     0
273
     0
  0
XRECORD
  5
2AE6
102
{ACAD_REACTORS
330
2AE4
102
}
330
2AE4
100
AcDbXrecord
280
     1
270
     1
271
     1
  0
XRECORD
  5
2AE5
102
{ACAD_REACTORS
330
2AE4
102
}
330
2AE4
100
AcDbXrecord
280
     1
270
     1
271
     1
  0
XRECORD
  5
2AE9
102
{ACAD_REACTORS
330
2AE4
102
}
330
2AE4
100
AcDbXrecord
280
     1
270
     1
271
     1
  0
XRECORD
  5
2AE8
102
{ACAD_REACTORS
330
2AE4
102
}
330
2AE4
100
AcDbXrecord
280
     1
270
     1
271
     1
  0
XRECORD
  5
2AEA
102
{ACAD_REACTORS
330
2AE4
102
}
330
2AE4
100
AcDbXrecord
280
     1
270
     1
271
     1
  0
XRECORD
  5
2AE7
102
{ACAD_REACTORS
330
2AE4
102
}
330
2AE4
100
AcDbXrecord
280
     1
270
     1
271
     1
  0
XRECORD
  5
2D3B
102
{ACAD_REACTORS
330
2AF4
102
}
330
2AF4
100
AcDbXrecord
280
     1
102
MATERIAL
148
0.0
149
0.0
149
0.0
 93
        0
 94
      127
282
     0
 72
     0
 77
     0
171
     0
175
     0
179
     0
273
     0
  0
XRECORD
  5
2AF6
102
{ACAD_REACTORS
330
2AF4
102
}
330
2AF4
100
AcDbXrecord
280
     1
270
     1
271
     1
  0
XRECORD
  5
2AF5
102
{ACAD_REACTORS
330
2AF4
102
}
330
2AF4
100
AcDbXrecord
280
     1
270
     1
271
     1
  0
XRECORD
  5
2AF9
102
{ACAD_REACTORS
330
2AF4
102
}
330
2AF4
100
AcDbXrecord
280
     1
270
     1
271
     1
  0
XRECORD
  5
2AF8
102
{ACAD_REACTORS
330
2AF4
102
}
330
2AF4
100
AcDbXrecord
280
     1
270
     1
271
     1
  0
XRECORD
  5
2AFA
102
{ACAD_REACTORS
330
2AF4
102
}
330
2AF4
100
AcDbXrecord
280
     1
270
     1
271
     1
  0
XRECORD
  5
2AF7
102
{ACAD_REACTORS
330
2AF4
102
}
330
2AF4
100
AcDbXrecord
280
     1
270
     1
271
     1
  0
CELLSTYLEMAP
  5
2D31
102
{ACAD_REACTORS
330
2D30
102
}
330
2D30
100
AcDbCellStyleMap
 90
        3
300
CELLSTYLE
  1
TABLEFORMAT_BEGIN
 90
        5
170
     1
 91
        0
 92
    32768
 62
   257
 93
        1
300
CONTENTFORMAT
  1
CONTENTFORMAT_BEGIN
 90
        0
 91
        0
 92
      512
 93
        0
300

 40
0.0
140
1.0
 94
        5
 62
     0
340
2B2F
144
0.25
309
CONTENTFORMAT_END
171
     0
 94
        0
309
TABLEFORMAT_END
  1
CELLSTYLE_BEGIN
 90
        1
 91
        1
300
_TITLE
309
CELLSTYLE_END
300
CELLSTYLE
  1
TABLEFORMAT_BEGIN
 90
        5
170
     1
 91
        0
 92
        0
 62
   257
 93
        1
300
CONTENTFORMAT
  1
CONTENTFORMAT_BEGIN
 90
        0
 91
        0
 92
      512
 93
        0
300

 40
0.0
140
1.0
 94
        5
 62
     0
340
2B2F
144
0.18
309
CONTENTFORMAT_END
171
     0
 94
        0
309
TABLEFORMAT_END
  1
CELLSTYLE_BEGIN
 90
        2
 91
        1
300
_HEADER
309
CELLSTYLE_END
300
CELLSTYLE
  1
TABLEFORMAT_BEGIN
 90
        5
170
     1
 91
        0
 92
        0
 62
   257
 93
        1
300
CONTENTFORMAT
  1
CONTENTFORMAT_BEGIN
 90
        0
 91
        0
 92
      512
 93
        0
300

 40
0.0
140
1.0
 94
        2
 62
     0
340
2B2F
144
0.18
309
CONTENTFORMAT_END
171
     0
 94
        0
309
TABLEFORMAT_END
  1
CELLSTYLE_BEGIN
 90
        3
 91
        2
300
_DATA
309
CELLSTYLE_END
  0
XRECORD
  5
2D3C
102
{ACAD_REACTORS
330
2D30
102
}
330
2D30
100
AcDbXrecord
280
     1
102
ACAD_ROUNDTRIP_PRE2007_TABLESTYLE
 90
      512
 91
        0
  1

 92
      512
 93
        0
  2

 94
      512
 95
        0
  3

  0
ENDSEC
  0
EOF
