  0
SECTION
  2
HEADER
  9
$ACADVER
  1
AC1015
  9
$ACADMAINTVER
 70
    20
  9
$DWGCODEPAGE
  3
ANSI_932
  9
$INSBASE
 10
0.0
 20
0.0
 30
0.0
  9
$EXTMIN
 10
-1061.174502777499
 20
-945.5719943122876
 30
0.0
  9
$EXTMAX
 10
1477.808859974302
 20
1003.304149030253
 30
50.0
  9
$LIMMIN
 10
-2970.0
 20
-2100.0
  9
$LIMMAX
 10
2970.0
 20
2100.0
  9
$ORTHOMODE
 70
     1
  9
$REGENMODE
 70
     0
  9
$FILLMODE
 70
     1
  9
$QTEXTMODE
 70
     0
  9
$MIRRTEXT
 70
     0
  9
$LTSCALE
 40
20.0
  9
$ATTMODE
 70
     1
  9
$TEXTSIZE
 40
64.0
  9
$TRACEWID
 40
0.05
  9
$TEXTSTYLE
  7
STANDARD
  9
$CLAYER
  8
0
  9
$CELTYPE
  6
ByLayer
  9
$CECOLOR
 62
   256
  9
$CELTSCALE
 40
1.0
  9
$DISPSILH
 70
     0
  9
$DIMSCALE
 40
1.0
  9
$DIMASZ
 40
0.12
  9
$DIMEXO
 40
0.05
  9
$DIMDLI
 40
0.5
  9
$DIMRND
 40
0.0
  9
$DIMDLE
 40
0.0
  9
$DIMEXE
 40
0.1
  9
$DIMTP
 40
0.1
  9
$DIMTM
 40
0.1
  9
$DIMTXT
 40
0.12
  9
$DIMCEN
 40
0.0
  9
$DIMTSZ
 40
0.0
  9
$DIMTOL
 70
     0
  9
$DIMLIM
 70
     0
  9
$DIMTIH
 70
     1
  9
$DIMTOH
 70
     1
  9
$DIMSE1
 70
     0
  9
$DIMSE2
 70
     0
  9
$DIMTAD
 70
     0
  9
$DIMZIN
 70
     7
  9
$DIMBLK
  1

  9
$DIMASO
 70
     1
  9
$DIMSHO
 70
     0
  9
$DIMPOST
  1

  9
$DIMAPOST
  1
mm
  9
$DIMALT
 70
     0
  9
$DIMALTD
 70
     2
  9
$DIMALTF
 40
25.4
  9
$DIMLFAC
 40
1.0
  9
$DIMTOFL
 70
     0
  9
$DIMTVP
 40
0.0
  9
$DIMTIX
 70
     0
  9
$DIMSOXD
 70
     0
  9
$DIMSAH
 70
     0
  9
$DIMBLK1
  1

  9
$DIMBLK2
  1

  9
$DIMSTYLE
  2
AM_ANSI
  9
$DIMCLRD
 70
   256
  9
$DIMCLRE
 70
   256
  9
$DIMCLRT
 70
     2
  9
$DIMTFAC
 40
0.71
  9
$DIMGAP
 40
0.06
  9
$DIMJUST
 70
     0
  9
$DIMSD1
 70
     0
  9
$DIMSD2
 70
     0
  9
$DIMTOLJ
 70
     1
  9
$DIMTZIN
 70
     7
  9
$DIMALTZ
 70
     0
  9
$DIMALTTZ
 70
     0
  9
$DIMUPT
 70
     0
  9
$DIMDEC
 70
     4
  9
$DIMTDEC
 70
     4
  9
$DIMALTU
 70
     2
  9
$DIMALTTD
 70
     4
  9
$DIMTXSTY
  7
STANDARD
  9
$DIMAUNIT
 70
     0
  9
$DIMADEC
 70
     0
  9
$DIMALTRND
 40
0.0
  9
$DIMAZIN
 70
     2
  9
$DIMDSEP
 70
    46
  9
$DIMATFIT
 70
     3
  9
$DIMFRAC
 70
     0
  9
$DIMLDRBLK
  1

  9
$DIMLUNIT
 70
     2
  9
$DIMLWD
 70
    -1
  9
$DIMLWE
 70
    -1
  9
$DIMTMOVE
 70
     0
  9
$LUNITS
 70
     2
  9
$LUPREC
 70
     4
  9
$SKETCHINC
 40
0.1
  9
$FILLETRAD
 40
4.0
  9
$AUNITS
 70
     1
  9
$AUPREC
 70
     3
  9
$MENU
  1
ACAD
  9
$ELEVATION
 40
0.0
  9
$PELEVATION
 40
0.0
  9
$THICKNESS
 40
50.0
  9
$LIMCHECK
 70
     0
  9
$CHAMFERA
 40
0.0
  9
$CHAMFERB
 40
0.0
  9
$CHAMFERC
 40
0.0
  9
$CHAMFERD
 40
0.0
  9
$SKPOLY
 70
     0
  9
$TDCREATE
 40
2452321.396199653
  9
$TDUCREATE
 40
2452321.021199653
  9
$TDUPDATE
 40
2456212.850401551
  9
$TDUUPDATE
 40
2456212.475401551
  9
$TDINDWG
 40
1.0393359028
  9
$TDUSRTIMER
 40
1.0393301273
  9
$USRTIMER
 70
     1
  9
$ANGBASE
 50
0.0
  9
$ANGDIR
 70
     0
  9
$PDMODE
 70
     3
  9
$PDSIZE
 40
-2.0
  9
$PLINEWID
 40
0.0
  9
$SPLFRAME
 70
     0
  9
$SPLINETYPE
 70
     6
  9
$SPLINESEGS
 70
     8
  9
$HANDSEED
  5
283B
  9
$SURFTAB1
 70
     6
  9
$SURFTAB2
 70
     6
  9
$SURFTYPE
 70
     6
  9
$SURFU
 70
     6
  9
$SURFV
 70
     6
  9
$UCSBASE
  2

  9
$UCSNAME
  2

  9
$UCSORG
 10
0.0
 20
0.0
 30
0.0
  9
$UCSXDIR
 10
1.0
 20
0.0
 30
0.0
  9
$UCSYDIR
 10
0.0
 20
1.0
 30
0.0
  9
$UCSORTHOREF
  2

  9
$UCSORTHOVIEW
 70
     0
  9
$UCSORGTOP
 10
0.0
 20
0.0
 30
0.0
  9
$UCSORGBOTTOM
 10
0.0
 20
0.0
 30
0.0
  9
$UCSORGLEFT
 10
0.0
 20
0.0
 30
0.0
  9
$UCSORGRIGHT
 10
0.0
 20
0.0
 30
0.0
  9
$UCSORGFRONT
 10
0.0
 20
0.0
 30
0.0
  9
$UCSORGBACK
 10
0.0
 20
0.0
 30
0.0
  9
$PUCSBASE
  2

  9
$PUCSNAME
  2

  9
$PUCSORG
 10
0.0
 20
0.0
 30
0.0
  9
$PUCSXDIR
 10
1.0
 20
0.0
 30
0.0
  9
$PUCSYDIR
 10
0.0
 20
1.0
 30
0.0
  9
$PUCSORTHOREF
  2

  9
$PUCSORTHOVIEW
 70
     0
  9
$PUCSORGTOP
 10
0.0
 20
0.0
 30
0.0
  9
$PUCSORGBOTTOM
 10
0.0
 20
0.0
 30
0.0
  9
$PUCSORGLEFT
 10
0.0
 20
0.0
 30
0.0
  9
$PUCSORGRIGHT
 10
0.0
 20
0.0
 30
0.0
  9
$PUCSORGFRONT
 10
0.0
 20
0.0
 30
0.0
  9
$PUCSORGBACK
 10
0.0
 20
0.0
 30
0.0
  9
$USERI1
 70
     0
  9
$USERI2
 70
     0
  9
$USERI3
 70
     0
  9
$USERI4
 70
     0
  9
$USERI5
 70
     0
  9
$USERR1
 40
20.0
  9
$USERR2
 40
0.0
  9
$USERR3
 40
0.0
  9
$USERR4
 40
0.0
  9
$USERR5
 40
0.0
  9
$WORLDVIEW
 70
     1
  9
$SHADEDGE
 70
     3
  9
$SHADEDIF
 70
    70
  9
$TILEMODE
 70
     1
  9
$MAXACTVP
 70
    64
  9
$PINSBASE
 10
0.0
 20
0.0
 30
0.0
  9
$PLIMCHECK
 70
     0
  9
$PEXTMIN
 10
1.000000000000000E+20
 20
1.000000000000000E+20
 30
1.000000000000000E+20
  9
$PEXTMAX
 10
-1.000000000000000E+20
 20
-1.000000000000000E+20
 30
-1.000000000000000E+20
  9
$PLIMMIN
 10
0.0
 20
0.0
  9
$PLIMMAX
 10
12.0
 20
9.0
  9
$UNITMODE
 70
     0
  9
$VISRETAIN
 70
     1
  9
$PLINEGEN
 70
     0
  9
$PSLTSCALE
 70
     1
  9
$TREEDEPTH
 70
  3020
  9
$CMLSTYLE
  2
Standard
  9
$CMLJUST
 70
     0
  9
$CMLSCALE
 40
1.0
  9
$PROXYGRAPHICS
 70
     1
  9
$MEASUREMENT
 70
     0
  9
$CELWEIGHT
370
    -1
  9
$ENDCAPS
280
     0
  9
$JOINSTYLE
280
     0
  9
$LWDISPLAY
290
     0
  9
$INSUNITS
 70
     0
  9
$HYPERLINKBASE
  1

  9
$STYLESHEET
  1

  9
$XEDIT
290
     1
  9
$CEPSNTYPE
380
     0
  9
$PSTYLEMODE
290
     1
  9
$FINGERPRINTGUID
  2
{7EA18C3E-083D-4B11-8137-8FC6D2EABEA8}
  9
$VERSIONGUID
  2
{22A383F2-A749-41D8-A699-78E60D8C2059}
  9
$EXTNAMES
290
     1
  9
$PSVPSCALE
 40
0.0
  9
$OLESTARTUP
290
     0
  0
ENDSEC
  0
SECTION
  2
CLASSES
  0
CLASS
  1
ACDBDICTIONARYWDFLT
  2
AcDbDictionaryWithDefault
  3
ObjectDBX Classes
 90
        0
280
     0
281
     0
  0
CLASS
  1
MATERIAL
  2
AcDbMaterial
  3
ObjectDBX Classes
 90
     1153
280
     0
281
     0
  0
CLASS
  1
VISUALSTYLE
  2
AcDbVisualStyle
  3
ObjectDBX Classes
 90
     4095
280
     0
281
     0
  0
CLASS
  1
SCALE
  2
AcDbScale
  3
ObjectDBX Classes
 90
     1153
280
     0
281
     0
  0
CLASS
  1
TABLESTYLE
  2
AcDbTableStyle
  3
ObjectDBX Classes
 90
     4095
280
     0
281
     0
  0
CLASS
  1
MLEADERSTYLE
  2
AcDbMLeaderStyle
  3
ACDB_MLEADERSTYLE_CLASS
 90
     4095
280
     0
281
     0
  0
CLASS
  1
AMGSETTINGSOBJ
  2
AmgSettingsObj
  3
"AcadM|Product Description: AutoCAD Mechanical|Company: Autodesk, Inc."
 90
     1024
280
     0
281
     0
  0
CLASS
  1
ACME_DOCUMENT
  2
AcMeDbDoc
  3
AcMeServices
 90
     1024
280
     0
281
     0
  0
CLASS
  1
ACMESCOPE
  2
AcMeScope
  3
AcMeServices
 90
     1024
280
     0
281
     0
  0
CLASS
  1
ACMECOMMANDHISTORY
  2
AcMeCommandHistory
  3
AcMeServices
 90
     1024
280
     0
281
     0
  0
CLASS
  1
ACIMSYSVARMAN
  2
AcImSysVarManager
  3
AcMeServices
 90
     1024
280
     0
281
     0
  0
CLASS
  1
ACIMREALSYSVAR
  2
AcImRealSysVar
  3
AcMeServices
 90
     1024
280
     0
281
     0
  0
CLASS
  1
ACIMINTSYSVAR
  2
AcImIntSysVar
  3
AcMeServices
 90
     1024
280
     0
281
     0
  0
CLASS
  1
ACMEDRAWINGMAN
  2
AcMeDrawingMan
  3
AcMeServices
 90
     1024
280
     0
281
     0
  0
CLASS
  1
ACMEVIEW
  2
AcMeView
  3
AcMeServices
 90
     1024
280
     0
281
     0
  0
CLASS
  1
ACDBENTITYCACHE
  2
AcMeEntityCache
  3
AcMeServices
 90
     1024
280
     0
281
     0
  0
CLASS
  1
GSMANAGER
  2
AcMeGSManager
  3
AcMeServices
 90
     1024
280
     0
281
     0
  0
CLASS
  1
AMDTINTERNALREACTOR
  2
AmdtInternalReactor
  3
AcMeServices
 90
     1024
280
     0
281
     0
  0
CLASS
  1
ACMESTATEMGR
  2
AcMeStateMgr
  3
AcMeServices
 90
     1024
280
     0
281
     0
  0
CLASS
  1
ACGREFMASTER
  2
AcGrefMaster
  3
AcAttribServices
 90
     1024
280
     0
281
     0
  0
CLASS
  1
AM_DRAWING_MGR
  2
AcDmDwgMgr
  3
AcMechDwgViewMgmt
 90
     1024
280
     0
281
     0
  0
CLASS
  1
AM_DWG_DOCUMENT
  2
AcDmDwgDocument
  3
AcMechDwgViewMgmt
 90
     1024
280
     0
281
     0
  0
CLASS
  1
AM_DWG_SHEET
  2
AcDmSheet
  3
AcMechDwgViewMgmt
 90
     1024
280
     0
281
     0
  0
CLASS
  1
AM_VIEWDIMPARMAP
  2
AcDmViewDimParMap
  3
AcMechDwgViewMgmt
 90
     1024
280
     0
281
     0
  0
CLASS
  1
AM_DWGMGR_NAME
  2
AcDmDwgMgrName
  3
AcMechDwgViewMgmt
 90
     1024
280
     0
281
     0
  0
CLASS
  1
ACME_DATABASE
  2
AcMeDbDatabase
  3
AcMeServices
 90
     1024
280
     0
281
     0
  0
CLASS
  1
ACRFINSADJUSTERMGR
  2
AcRfInsAdjusterMgr
  3
AcMeServices
 90
     1024
280
     0
281
     0
  0
CLASS
  1
ACGREFACADMASTER
  2
AcGrefacadMaster
  3
AcGrefServices
 90
     1024
280
     0
281
     0
  0
CLASS
  1
AMDTMENUSTATEMGR
  2
AmdtMenuStateMgr
  3
McadcomServices
 90
     1024
280
     0
281
     0
  0
CLASS
  1
AMDTMCOMMENUSTATE
  2
AmdtMcomMenuState
  3
McadcomServices
 90
     1024
280
     0
281
     0
  0
CLASS
  1
AMIMASTER
  2
AmiMaster
  3
AmiServices
 90
     1024
280
     0
281
     0
  0
CLASS
  1
ASAPP
  2
AcAsAppObject
  3
AutoSurfServices
 90
     1024
280
     0
281
     0
  0
CLASS
  1
IM_STATIC_MAN
  2
AcImStaticVarManager
  3
AcMeServices
 90
     1024
280
     0
281
     0
  0
CLASS
  1
ACIMSTRSYSVAR
  2
AcImStrSysVar
  3
AcMeServices
 90
     1024
280
     0
281
     0
  0
CLASS
  1
ACIMDBLSTATICVAR
  2
AcImDblStaticVar
  3
AcMeServices
 90
     1024
280
     0
281
     0
  0
CLASS
  1
ACIMSTRSTATICVAR
  2
AcImStrStaticVar
  3
AcMeServices
 90
     1024
280
     0
281
     0
  0
CLASS
  1
ACIMINTSTATICVAR
  2
AcImIntStaticVar
  3
AcMeServices
 90
     1024
280
     0
281
     0
  0
CLASS
  1
ACASGREFMASTER
  2
AcAsGrefMaster
  3
AutoSurfResolverServices
 90
     1024
280
     0
281
     0
  0
CLASS
  1
ACADGREFMODULE
  2
AcAdGrefModule
  3
AdGrefServices
 90
     1024
280
     0
281
     0
  0
CLASS
  1
AMDTMAPISURFMOUDULE
  2
AmdtMApiSurfModule
  3
MApiSurfServices
 90
     1024
280
     0
281
     0
  0
CLASS
  1
MAPIAMMOUDLE
  2
MApiAmModule
  3
MApiAmServices
 90
     1024
280
     0
281
     0
  0
CLASS
  1
AMDTADMENUSTATE
  2
AmdtAdMenuState
  3
DesignerServices
 90
     1024
280
     0
281
     0
  0
CLASS
  1
ADAPPL
  2
AcAdAppl
  3
DesignerServices
 90
     1024
280
     0
281
     0
  0
CLASS
  1
DEPMGR
  2
AcAdDepMgr
  3
DesignerServices
 90
     1024
280
     0
281
     0
  0
CLASS
  1
PARAMMGR
  2
AcAdParamMgr
  3
DesignerServices
 90
     1024
280
     0
281
     0
  0
CLASS
  1
PARAMSCOPE
  2
AcAdParamScope
  3
DesignerServices
 90
     1024
280
     0
281
     0
  0
CLASS
  1
NAMEDAPPL
  2
AcAdNamedAppl
  3
DesignerServices
 90
     1024
280
     0
281
     0
  0
CLASS
  1
AMDTDMMENUSTATE
  2
AmdtDmMenuState
  3
AcMechDwgViewMgmt
 90
     1024
280
     0
281
     0
  0
CLASS
  1
MAPIADMODULE
  2
MApiAdModule
  3
MApiAdServices
 90
     1024
280
     0
281
     0
  0
CLASS
  1
AMDTAMMENUSTATE
  2
AmdtAmMenuState
  3
DesignerAssemblies
 90
     1024
280
     0
281
     0
  0
CLASS
  1
ACAMPROJECT
  2
AcAmProject
  3
DesignerAssemblies
 90
     1024
280
     0
281
     0
  0
CLASS
  1
ACAMGRCOMPDEF
  2
AcAmGrCompDef
  3
DesignerAssemblies
 90
     1024
280
     0
281
     0
  0
CLASS
  1
ACCMCONTEXT
  2
AcCmContext
  3
DesignerAssemblies
 90
     1024
280
     0
281
     0
  0
CLASS
  1
ACAMCOMPDEF
  2
AcAmCompDef
  3
DesignerAssemblies
 90
     1024
280
     0
281
     0
  0
CLASS
  1
ACAMCOMPDEFMGR
  2
AcAmCompDefMgr
  3
DesignerAssemblies
 90
     1024
280
     0
281
     0
  0
CLASS
  1
AMCONTEXTMGR
  2
AcAmContextMgr
  3
DesignerAssemblies
 90
     1024
280
     0
281
     0
  0
CLASS
  1
ACAMCONTEXTMODELER
  2
AcAmContextModeler
  3
DesignerAssemblies
 90
     1024
280
     0
281
     0
  0
CLASS
  1
ACMDATADICTIONARY
  2
AcmDataDictionary
  3
"AcmSymBB|Product Description: AutoCAD Mechanical|Company: Autodesk, Inc."
 90
     1024
280
     0
281
     0
  0
CLASS
  1
ACMDATAENTRYBLOCK
  2
AcmDataEntryBlock
  3
AcmSymBB|Product Description: AutoCAD Mechanical|Company: Autodesk, Inc.
 90
     1024
280
     0
281
     0
  0
CLASS
  1
ACRFATTGENMGR
  2
AcRfAttGeneralMgr
  3
AcAttribServices
 90
     1024
280
     0
281
     0
  0
CLASS
  1
ACRFOBJATTMGR
  2
AcRfObjAttGroupMgr
  3
AcAttribServices
 90
     1024
280
     0
281
     0
  0
CLASS
  1
ACRFMCADAPIATTHOLDER
  2
AcRfMCADAPIAttHolder
  3
AcAttribServices
 90
     1024
280
     0
281
     0
  0
CLASS
  1
AMDTSYSATTR
  2
AmdtSystemAttribute
  3
AcAttribServices
 90
     1024
280
     0
281
     0
  0
CLASS
  1
CATALOGSTATE
  2
AcAmCatalogState
  3
DesignerAssemblies
 90
     1024
280
     0
281
     0
  0
CLASS
  1
ACAMGRCOMPDEFSET
  2
AcAmGrCompDefSet
  3
DesignerAssemblies
 90
     1024
280
     0
281
     0
  0
CLASS
  1
AMDTBROWSERDBTAB
  2
AmdtBrowserDbTab
  3
McadcomServices
 90
     1024
280
     0
281
     0
  0
CLASS
  1
CBROWSERAPPOBJECT
  2
CBrowserAppObject
  3
McadcomServices
 90
     1024
280
     0
281
     0
  0
CLASS
  1
DM_PLACEHOLDER
  2
AcDmSelsetPlaceholder
  3
AcMechDwgViewMgmt
 90
     1024
280
     0
281
     0
  0
CLASS
  1
ACMSTANDARDANSI
  2
AcmStandardANSI
  3
"Amdt_StdImp|Product Description: AutoCAD Mechanical|Company: Autodesk, Inc."
 90
     1024
280
     0
281
     0
  0
CLASS
  1
ACMSURFSTANDARDANSI
  2
AcmSurfTextStdANSI
  3
"Amdt_StdImp|Product Description: AutoCAD Mechanical|Company: Autodesk, Inc."
 90
     1024
280
     0
281
     0
  0
CLASS
  1
ACMFCFSTANDARDANSI
  2
AcmFCFStdANSI
  3
"Amdt_StdImp|Product Description: AutoCAD Mechanical|Company: Autodesk, Inc."
 90
     1024
280
     0
281
     0
  0
CLASS
  1
ACMWELDSTANDARDANSI
  2
AcmWeldingStdANSI
  3
"Amdt_StdImp|Product Description: AutoCAD Mechanical|Company: Autodesk, Inc."
 90
     1024
280
     0
281
     0
  0
CLASS
  1
ACMIDSTANDARDANSI
  2
AcmIdStdANSI
  3
"Amdt_StdImp|Product Description: AutoCAD Mechanical|Company: Autodesk, Inc."
 90
     1024
280
     0
281
     0
  0
CLASS
  1
ACMDATUMSTANDARDANSI
  2
AcmDatumStdANSI
  3
"Amdt_StdImp|Product Description: AutoCAD Mechanical|Company: Autodesk, Inc."
 90
     1024
280
     0
281
     0
  0
CLASS
  1
ACMBOMSTANDARDANSI
  2
AcmBOMStdANSI
  3
"Amdt_StdImp|Product Description: AutoCAD Mechanical|Company: Autodesk, Inc."
 90
     1024
280
     0
281
     0
  0
CLASS
  1
ACMDETAILSTANDARDANSI
  2
AmdtDetailSymStdANSI
  3
"Amdt_StdImp|Product Description: AutoCAD Mechanical|Company: Autodesk, Inc."
 90
     1024
280
     0
281
     0
  0
CLASS
  1
ACMSECTIONSTANDARDANSI
  2
AmdtSectionSymStdANSI
  3
"Amdt_StdImp|Product Description: AutoCAD Mechanical|Company: Autodesk, Inc."
 90
     1024
280
     0
281
     0
  0
CLASS
  1
ACMCENTERLINESTANDARDANSI
  2
AmdtCenterLineStdANSI
  3
"Amdt_StdImp|Product Description: AutoCAD Mechanical|Company: Autodesk, Inc."
 90
     1024
280
     0
281
     0
  0
CLASS
  1
ACMTHREADLINESTANDARDANSI
  2
AmdtThreadLineStdANSI
  3
"Amdt_StdImp|Product Description: AutoCAD Mechanical|Company: Autodesk, Inc."
 90
     1024
280
     0
281
     0
  0
CLASS
  1
ACMNOTESTANDARDANSI
  2
AmdtNoteStdANSI
  3
"Amdt_StdImp|Product Description: AutoCAD Mechanical|Company: Autodesk, Inc."
 90
     1024
280
     0
281
     0
  0
CLASS
  1
ACMTAPERSTANDARDANSI
  2
AcmTaperStdANSI
  3
"Amdt_StdImp|Product Description: AutoCAD Mechanical|Company: Autodesk, Inc."
 90
     1024
280
     0
281
     0
  0
CLASS
  1
ACMANOOTATIONVIEWSTANDARDANSI
  2
AmdtAnViewStdANSI
  3
"Amdt_StdImp|Product Description: AutoCAD Mechanical|Company: Autodesk, Inc."
 90
     1024
280
     0
281
     0
  0
CLASS
  1
ACAMGLAYSTD
  2
AcAmgLayStd
  3
"AmgLay|Product Description: AutoCAD Mechanical|Company: Autodesk, Inc."
 90
     1024
280
     0
281
     0
  0
CLASS
  1
ACAMGDIMSTD
  2
AcAmgDimStd
  3
"AmgDim|Product Description: AutoCAD Mechanical|Company: Autodesk, Inc."
 90
     1024
280
     0
281
     0
  0
CLASS
  1
ACAMGHOLECHARTSTDANSI
  2
AcAmgHoleChartStdANSI
  3
AmgDim|Product Description: AutoCAD Mechanical|Company: Autodesk, Inc.
 90
     1024
280
     0
281
     0
  0
CLASS
  1
AMGOBJPROPCFG
  2
AmgObjPropCfg
  3
"AmgLay|Product Description: AutoCAD Mechanical|Company: Autodesk, Inc."
 90
     1025
280
     0
281
     0
  0
CLASS
  1
ACAMGTITLESTD
  2
AcAmgTitleStd
  3
"AmgTitle|Product Description: AutoCAD Mechanical|Company: Autodesk, Inc."
 90
     4095
280
     0
281
     0
  0
CLASS
  1
AMDTNOTETEMPLATEDB
  2
AmdtNoteTemplateDB
  3
AcmSymBB|Product Description: AutoCAD Mechanical|Company: Autodesk, Inc.
 90
     1024
280
     0
281
     0
  0
CLASS
  1
LAYER_INDEX
  2
AcDbLayerIndex
  3
ObjectDBX Classes
 90
        0
280
     0
281
     0
  0
CLASS
  1
IDBUFFER
  2
AcDbIdBuffer
  3
ObjectDBX Classes
 90
        0
280
     0
281
     0
  0
CLASS
  1
DICTIONARYVAR
  2
AcDbDictionaryVar
  3
ObjectDBX Classes
 90
        0
280
     0
281
     0
  0
CLASS
  1
CELLSTYLEMAP
  2
AcDbCellStyleMap
  3
ObjectDBX Classes
 90
     1152
280
     0
281
     0
  0
CLASS
  1
ACDBPLACEHOLDER
  2
AcDbPlaceHolder
  3
ObjectDBX Classes
 90
        0
280
     0
281
     0
  0
CLASS
  1
LAYOUT
  2
AcDbLayout
  3
ObjectDBX Classes
 90
        0
280
     0
281
     0
  0
ENDSEC
  0
SECTION
  2
TABLES
  0
TABLE
  2
VPORT
  5
25E4
330
0
100
AcDbSymbolTable
 70
     1
  0
VPORT
  5
2654
330
25E4
100
AcDbSymbolTableRecord
100
AcDbViewportTableRecord
  2
*ACTIVE
 70
     0
 10
0.0
 20
0.0
 11
1.0
 21
1.0
 12
0.0
 22
0.0
 13
0.0
 23
0.0
 14
1.0
 24
1.0
 15
0.0
 25
0.0
 16
0.0
 26
0.0
 36
1.0
 17
208.2389972268587
 27
49.77351735452089
 37
0.0
 40
2004.791727518134
 41
1.712555066079295
 42
50.0
 43
0.0
 44
0.0
 50
0.0
 51
0.0
 71
     0
 72
   100
 73
     1
 74
     0
 75
     0
 76
     0
 77
     0
 78
     0
281
     0
 65
     0
110
0.0
120
0.0
130
0.0
111
1.0
121
0.0
131
0.0
112
0.0
122
1.0
132
0.0
 79
     0
146
0.0
  0
ENDTAB
  0
TABLE
  2
LTYPE
  5
25E1
330
0
100
AcDbSymbolTable
 70
    19
  0
LTYPE
  5
263E
330
25E1
100
AcDbSymbolTableRecord
100
AcDbLinetypeTableRecord
  2
ByBlock
 70
     0
  3

 72
    65
 73
     0
 40
0.0
  0
LTYPE
  5
263F
330
25E1
100
AcDbSymbolTableRecord
100
AcDbLinetypeTableRecord
  2
ByLayer
 70
     0
  3

 72
    65
 73
     0
 40
0.0
  0
LTYPE
  5
2640
330
25E1
100
AcDbSymbolTableRecord
100
AcDbLinetypeTableRecord
  2
CONTINUOUS
 70
     0
  3
実線
 72
    65
 73
     0
 40
0.0
  0
LTYPE
  5
2655
330
25E1
100
AcDbSymbolTableRecord
100
AcDbLinetypeTableRecord
  2
DASHDOT
 70
     0
  3
____ _ ____ _ ____ _ ____ _ ____ _ ____ _ ____
 72
    65
 73
     4
 40
5.5
 49
4.0
 74
     0
 49
-0.6
 74
     0
 49
0.3
 74
     0
 49
-0.6
 74
     0
  0
LTYPE
  5
2656
330
25E1
100
AcDbSymbolTableRecord
100
AcDbLinetypeTableRecord
  2
HIDDEN
 70
     0
  3
Hidden __ __ __ __ __ __ __ __ __ __ __ __ __ _
 72
    65
 73
     2
 40
0.375
 49
0.25
 74
     0
 49
-0.125
 74
     0
  0
LTYPE
  5
2657
330
25E1
100
AcDbSymbolTableRecord
100
AcDbLinetypeTableRecord
  2
PHANTOM2
 70
     0
  3
Phantom (.5x) ___ _ _ ___ _ _ ___ _ _ ___ _ _
 72
    65
 73
     6
 40
1.25
 49
0.625
 74
     0
 49
-0.125
 74
     0
 49
0.125
 74
     0
 49
-0.125
 74
     0
 49
0.125
 74
     0
 49
-0.125
 74
     0
  0
LTYPE
  5
2658
330
25E1
100
AcDbSymbolTableRecord
100
AcDbLinetypeTableRecord
  2
CENTER
 70
     0
  3
Center ____ _ ____ _ ____ _ ____ _ ____ _ ____
 72
    65
 73
     4
 40
2.0
 49
1.25
 74
     0
 49
-0.25
 74
     0
 49
0.25
 74
     0
 49
-0.25
 74
     0
  0
LTYPE
  5
2659
330
25E1
100
AcDbSymbolTableRecord
100
AcDbLinetypeTableRecord
  2
ASULTYPE
 70
     0
  3
実線
 72
    65
 73
     2
 40
3.0
 49
2.5
 74
     0
 49
0.5
 74
     0
  0
LTYPE
  5
265A
330
25E1
100
AcDbSymbolTableRecord
100
AcDbLinetypeTableRecord
  2
ASVLTYPE
 70
     0
  3
__ __ __ __ __ __ __ __ __ __ __ __ __ __ __ __ __ __ __ __ __
 72
    65
 73
     2
 40
0.75
 49
0.5
 74
     0
 49
-0.25
 74
     0
  0
LTYPE
  5
265B
330
25E1
100
AcDbSymbolTableRecord
100
AcDbLinetypeTableRecord
  2
AM_ISO02W050
 70
     0
  3
__ __ __ __ __ __ __ __ __ __ __ __ __ __ __
 72
    65
 73
     2
 40
7.5
 49
6.0
 74
     0
 49
-1.5
 74
     0
  0
LTYPE
  5
265C
330
25E1
100
AcDbSymbolTableRecord
100
AcDbLinetypeTableRecord
  2
AM_ISO08W050
 70
     0
  3
____ . ____ . ____ . ____ . ____ . ____ . ____
 72
    65
 73
     4
 40
18.0
 49
12.0
 74
     0
 49
-1.5
 74
     0
 49
3.0
 74
     0
 49
-1.5
 74
     0
  0
LTYPE
  5
265D
330
25E1
100
AcDbSymbolTableRecord
100
AcDbLinetypeTableRecord
  2
AM_ISO09W050
 70
     0
  3
_____ . . _____ . . _____ . . ____ .. ____
 72
    65
 73
     6
 40
22.5
 49
12.0
 74
     0
 49
-1.5
 74
     0
 49
3.0
 74
     0
 49
-1.5
 74
     0
 49
3.0
 74
     0
 49
-1.5
 74
     0
  0
LTYPE
  5
265E
330
25E1
100
AcDbSymbolTableRecord
100
AcDbLinetypeTableRecord
  2
AMCONSTR
 70
     0
  3
_______________________
 72
    65
 73
     2
 40
9999.0
 49
9999.0
 74
     0
 49
0.0
 74
     0
  0
LTYPE
  5
265F
330
25E1
100
AcDbSymbolTableRecord
100
AcDbLinetypeTableRecord
  2
AM_ISO08W050X2
 70
     0
  3
__ . __ . __ . __ . __ . __
 72
    65
 73
     4
 40
9.0
 49
6.0
 74
     0
 49
-0.75
 74
     0
 49
1.5
 74
     0
 49
-0.75
 74
     0
  0
LTYPE
  5
2660
330
25E1
100
AcDbSymbolTableRecord
100
AcDbLinetypeTableRecord
  2
AM_ISO02W050X2
 70
     0
  3
 _ _ _ _ _ _ _ _ _ _ _ _
 72
    65
 73
     2
 40
3.75
 49
3.0
 74
     0
 49
-0.75
 74
     0
  0
LTYPE
  5
2661
330
25E1
100
AcDbSymbolTableRecord
100
AcDbLinetypeTableRecord
  2
AMZIGZAG
 70
     0
  3
/\/-/\/-/\/-/\/-/\/-/\/
 72
    65
 73
     2
 40
11.0001
 49
0.0001
 74
     0
 49
-11.0
 74
     0
  0
LTYPE
  5
2662
330
25E1
100
AcDbSymbolTableRecord
100
AcDbLinetypeTableRecord
  2
CENTER2
 70
     0
  3
Center (.5x) ___ _ ___ _ ___ _ ___ _ ___ _ ___
 72
    65
 73
     4
 40
1.125
 49
0.75
 74
     0
 49
-0.125
 74
     0
 49
0.125
 74
     0
 49
-0.125
 74
     0
  0
LTYPE
  5
2663
330
25E1
100
AcDbSymbolTableRecord
100
AcDbLinetypeTableRecord
  2
HIDDEN2
 70
     0
  3
Hidden (.5x) _ _ _ _ _ _ _ _ _ _ _ _ _ _ _ _ _
 72
    65
 73
     2
 40
0.1875
 49
0.125
 74
     0
 49
-0.0625
 74
     0
  0
LTYPE
  5
2664
330
25E1
100
AcDbSymbolTableRecord
100
AcDbLinetypeTableRecord
  2
AMZIGZAG2
 70
     0
  3
/\/-/\/-/\/-/\/-/\/-/\/
 72
    65
 73
     2
 40
0.4401
 49
0.0001
 74
     0
 49
-0.4400000000000003
 74
     0
  0
LTYPE
  5
2665
330
25E1
100
AcDbSymbolTableRecord
100
AcDbLinetypeTableRecord
  2
ACANSTGB
 70
     0
  3
__ . . __ . .
 72
    65
 73
     6
 40
0.35433070866
 49
0.15748031496
 74
     0
 49
-0.03937007874
 74
     0
 49
0.03937007874
 74
     0
 49
-0.03937007874
 74
     0
 49
0.03937007874
 74
     0
 49
-0.03937007874
 74
     0
  0
LTYPE
  5
2666
330
25E1
100
AcDbSymbolTableRecord
100
AcDbLinetypeTableRecord
  2
ACANSTGL
 70
     0
  3
_ _ _ _ _
 72
    65
 73
     2
 40
0.11811023622
 49
0.07874015748
 74
     0
 49
-0.03937007874
 74
     0
  0
ENDTAB
  0
TABLE
  2
LAYER
  5
25DE
330
0
100
AcDbSymbolTable
 70
    12
  0
LAYER
  5
2638
102
{ACAD_XDICTIONARY
360
27FA
102
}
330
25DE
100
AcDbSymbolTableRecord
100
AcDbLayerTableRecord
  2
0
 70
     0
 62
     7
  6
CONTINUOUS
370
    -3
390
25EB
  0
LAYER
  5
2667
102
{ACAD_XDICTIONARY
360
27FC
102
}
330
25DE
100
AcDbSymbolTableRecord
100
AcDbLayerTableRecord
  2
OUTLINE
 70
     0
 62
     3
  6
CONTINUOUS
370
    -3
390
25EB
  0
LAYER
  5
2668
102
{ACAD_XDICTIONARY
360
27FE
102
}
330
25DE
100
AcDbSymbolTableRecord
100
AcDbLayerTableRecord
  2
SIZE
 70
     0
 62
    30
  6
CONTINUOUS
370
    -3
390
25EB
  0
LAYER
  5
2669
102
{ACAD_XDICTIONARY
360
2800
102
}
330
25DE
100
AcDbSymbolTableRecord
100
AcDbLayerTableRecord
  2
BASIS
 70
     0
 62
     6
  6
DASHDOT
370
    -3
390
25EB
  0
LAYER
  5
266A
102
{ACAD_XDICTIONARY
360
2802
102
}
330
25DE
100
AcDbSymbolTableRecord
100
AcDbLayerTableRecord
  2
DETAIL
 70
     0
 62
     5
  6
CONTINUOUS
370
    -3
390
25EB
  0
LAYER
  5
266B
102
{ACAD_XDICTIONARY
360
2804
102
}
330
25DE
100
AcDbSymbolTableRecord
100
AcDbLayerTableRecord
  2
ARRANGE
 70
     0
 62
     1
  6
CONTINUOUS
370
    -3
390
25EB
  0
LAYER
  5
266C
330
25DE
100
AcDbSymbolTableRecord
100
AcDbLayerTableRecord
  2
DEFPOINTS
 70
     0
 62
     7
  6
CONTINUOUS
290
     0
370
    -3
390
25EB
  0
LAYER
  5
266D
102
{ACAD_XDICTIONARY
360
2806
102
}
330
25DE
100
AcDbSymbolTableRecord
100
AcDbLayerTableRecord
  2
ETC
 70
     0
 62
    61
  6
CONTINUOUS
370
    -3
390
25EB
  0
LAYER
  5
266E
102
{ACAD_XDICTIONARY
360
2808
102
}
330
25DE
100
AcDbSymbolTableRecord
100
AcDbLayerTableRecord
  2
FIX
 70
     0
 62
    11
  6
CONTINUOUS
370
    -3
390
25EB
  0
LAYER
  5
266F
102
{ACAD_XDICTIONARY
360
280A
102
}
330
25DE
100
AcDbSymbolTableRecord
100
AcDbLayerTableRecord
  2
NOTE
 70
     0
 62
     4
  6
CONTINUOUS
370
    -3
390
25EB
  0
LAYER
  5
2670
102
{ACAD_XDICTIONARY
360
280C
102
}
330
25DE
100
AcDbSymbolTableRecord
100
AcDbLayerTableRecord
  2
SERVICESPACE
 70
     0
 62
     2
  6
DASHDOT
370
    -3
390
25EB
  0
LAYER
  5
2671
102
{ACAD_XDICTIONARY
360
280E
102
}
330
25DE
100
AcDbSymbolTableRecord
100
AcDbLayerTableRecord
  2
SYMBOLLINE
 70
     0
 62
    15
  6
CONTINUOUS
370
    -3
390
25EB
  0
ENDTAB
  0
TABLE
  2
STYLE
  5
25DF
330
0
100
AcDbSymbolTable
 70
     5
  0
STYLE
  5
2639
330
25DF
100
AcDbSymbolTableRecord
100
AcDbTextStyleTableRecord
  2
STANDARD
 70
     0
 40
64.0
 41
0.9
 50
0.0
 71
     0
 42
64.0
  3
SIMPLEX.shx
  4
BIGFONT.shx
  0
STYLE
  5
263D
330
25DF
100
AcDbSymbolTableRecord
100
AcDbTextStyleTableRecord
  2
ANNOTATIVE
 70
     0
 40
0.0
 41
1.0
 50
0.0
 71
     0
 42
0.2
  3
txt
  4

1001
ACADANNOTATIVE
1000
AnnotativeData
1002
{
1070
     1
1070
     1
1002
}
  0
STYLE
  5
2672
330
25DF
100
AcDbSymbolTableRecord
100
AcDbTextStyleTableRecord
  2

 70
     1
 40
0.0
 41
1.0
 50
0.0
 71
     0
 42
64.0
  3
genltshp.shx
  4

  0
STYLE
  5
2673
330
25DF
100
AcDbSymbolTableRecord
100
AcDbTextStyleTableRecord
  2
ACANSTS
 70
     0
 40
1.0
 41
1.0
 50
0.0
 71
     0
 42
64.0
  3
romans.shx
  4
extfont.shx
  0
STYLE
  5
2674
330
25DF
100
AcDbSymbolTableRecord
100
AcDbTextStyleTableRecord
  2
ACANSGDT
 70
     0
 40
0.0
 41
1.0
 50
0.0
 71
     0
 42
64.0
  3
amgdt.shx
  4

  0
ENDTAB
  0
TABLE
  2
VIEW
  5
25E2
330
0
100
AcDbSymbolTable
 70
     1
  0
VIEW
  5
2675
330
25E2
100
AcDbSymbolTableRecord
100
AcDbViewTableRecord
  2
ALL
 70
     0
 40
4282.619807999997
 10
0.0
 20
41.30990399999999
 41
5940.0
 11
0.0
 21
0.0
 31
1.0
 12
0.0
 22
0.0
 32
0.0
 42
50.0
 43
0.0
 44
0.0
 50
0.0
 71
     0
281
     0
 72
     1
110
0.0
120
0.0
130
0.0
111
1.0
121
0.0
131
0.0
112
0.0
122
1.0
132
0.0
 79
     0
146
0.0
  0
ENDTAB
  0
TABLE
  2
UCS
  5
25E3
330
0
100
AcDbSymbolTable
 70
     0
  0
ENDTAB
  0
TABLE
  2
APPID
  5
25E5
330
0
100
AcDbSymbolTable
 70
    26
  0
APPID
  5
263A
330
25E5
100
AcDbSymbolTableRecord
100
AcDbRegAppTableRecord
  2
ACAD
 70
     0
  0
APPID
  5
2641
330
25E5
100
AcDbSymbolTableRecord
100
AcDbRegAppTableRecord
  2
ACADANNOTATIVE
 70
     0
  0
APPID
  5
264B
330
25E5
100
AcDbSymbolTableRecord
100
AcDbRegAppTableRecord
  2
ACAD_MLEADERVER
 70
     0
  0
APPID
  5
2676
330
25E5
100
AcDbSymbolTableRecord
100
AcDbRegAppTableRecord
  2
GENIUS_GENDIM_13
 70
     0
  0
APPID
  5
2677
330
25E5
100
AcDbSymbolTableRecord
100
AcDbRegAppTableRecord
  2
GENIUS_GENDTOL_13
 70
     0
  0
APPID
  5
2678
330
25E5
100
AcDbSymbolTableRecord
100
AcDbRegAppTableRecord
  2
GENIUS_GE3DTOL_13
 70
     0
  0
APPID
  5
2679
330
25E5
100
AcDbSymbolTableRecord
100
AcDbRegAppTableRecord
  2
MCAD_NO_VIS
 70
     0
  0
APPID
  5
267A
330
25E5
100
AcDbSymbolTableRecord
100
AcDbRegAppTableRecord
  2
ACAD_TEMP_GRAPHIC
 70
     0
  0
APPID
  5
267B
330
25E5
100
AcDbSymbolTableRecord
100
AcDbRegAppTableRecord
  2
AD_DRAW
 70
     0
  0
APPID
  5
267C
330
25E5
100
AcDbSymbolTableRecord
100
AcDbRegAppTableRecord
  2
ACATTRIBSERVICES
 70
     0
  0
APPID
  5
267D
330
25E5
100
AcDbSymbolTableRecord
100
AcDbRegAppTableRecord
  2
ASURF_PCURVE_APPNAME
 70
     0
  0
APPID
  5
267E
330
25E5
100
AcDbSymbolTableRecord
100
AcDbRegAppTableRecord
  2
AMG_3D2D_5_0
 70
     0
  0
APPID
  5
267F
330
25E5
100
AcDbSymbolTableRecord
100
AcDbRegAppTableRecord
  2
DESIGNERASSEMBLIES
 70
     0
  0
APPID
  5
2680
330
25E5
100
AcDbSymbolTableRecord
100
AcDbRegAppTableRecord
  2
ACADM_DIM_EDIT
 70
     0
  0
APPID
  5
2681
330
25E5
100
AcDbSymbolTableRecord
100
AcDbRegAppTableRecord
  2
AMDT_DM_ADJ
 70
     0
  0
APPID
  5
2682
330
25E5
100
AcDbSymbolTableRecord
100
AcDbRegAppTableRecord
  2
ACAD_DSTYLE_DIMARC_LENGTH_
 70
     0
  0
APPID
  5
2683
330
25E5
100
AcDbSymbolTableRecord
100
AcDbRegAppTableRecord
  2
ACAD_DSTYLE_DIMJOGGED_JOGA
 70
     0
  0
APPID
  5
2684
330
25E5
100
AcDbSymbolTableRecord
100
AcDbRegAppTableRecord
  2
ACAD_PSEXT
 70
     0
  0
APPID
  5
2685
330
25E5
100
AcDbSymbolTableRecord
100
AcDbRegAppTableRecord
  2
ACAD_EXEMPT_FROM_CAD_STANDARDS
 70
     0
  0
APPID
  5
2686
330
25E5
100
AcDbSymbolTableRecord
100
AcDbRegAppTableRecord
  2
ACAD_DSTYLE_DIMJAG
 70
     0
  0
APPID
  5
2687
330
25E5
100
AcDbSymbolTableRecord
100
AcDbRegAppTableRecord
  2
ACAD_DSTYLE_DIMTALN
 70
     0
  0
APPID
  5
27A1
330
25E5
100
AcDbSymbolTableRecord
100
AcDbRegAppTableRecord
  2
AMG_3D2D_5.0
 70
     0
  0
APPID
  5
2837
330
25E5
100
AcDbSymbolTableRecord
100
AcDbRegAppTableRecord
  2
ACAD_DSTYLE_DIMARC_LENGTH_SYMBOL
 70
     0
  0
APPID
  5
2838
330
25E5
100
AcDbSymbolTableRecord
100
AcDbRegAppTableRecord
  2
ACAD_DSTYLE_DIM_LINETYPE
 70
     0
  0
APPID
  5
2839
330
25E5
100
AcDbSymbolTableRecord
100
AcDbRegAppTableRecord
  2
ACAD_DSTYLE_DIM_EXT1_LINETYPE
 70
     0
  0
APPID
  5
283A
330
25E5
100
AcDbSymbolTableRecord
100
AcDbRegAppTableRecord
  2
ACAD_DSTYLE_DIM_EXT2_LINETYPE
 70
     0
  0
ENDTAB
  0
TABLE
  2
DIMSTYLE
  5
25E6
330
0
100
AcDbSymbolTable
 70
    10
100
AcDbDimStyleTable
 71
     1
340
2688
  0
DIMSTYLE
105
263B
330
25E6
100
AcDbSymbolTableRecord
100
AcDbDimStyleTableRecord
  2
STANDARD
 70
     0
 41
12.0
 42
20.0
 44
20.0
 77
     1
 78
     8
140
64.0
141
0.0
147
10.0
275
     1
279
     2
284
     7
285
     7
286
     7
340
2639
  0
DIMSTYLE
105
263C
330
25E6
100
AcDbSymbolTableRecord
100
AcDbDimStyleTableRecord
  2
ANNOTATIVE
 70
     0
275
     1
279
     2
284
     7
285
     7
286
     7
340
2639
1001
ACADANNOTATIVE
1000
AnnotativeData
1002
{
1070
     1
1070
     1
1002
}
  0
DIMSTYLE
105
2688
330
25E6
100
AcDbSymbolTableRecord
100
AcDbDimStyleTableRecord
  2
AM_ANSI
 70
     0
  4
mm
 41
0.12
 42
0.05
 43
0.5
 44
0.1
 47
0.1
 48
0.1
 78
     7
 79
     2
140
0.12
141
0.0
146
0.71
147
0.06
176
   256
177
   256
178
     2
274
     4
284
     7
340
2639
371
    -1
372
    -1
1001
ACAD_DSTYLE_DIMARC_LENGTH_SYMBOL
1070
   379
1070
     1
1001
ACAD_DSTYLE_DIM_LINETYPE
1070
   380
1005
263E
1001
ACAD_DSTYLE_DIM_EXT1_LINETYPE
1070
   381
1005
263E
1001
ACAD_DSTYLE_DIM_EXT2_LINETYPE
1070
   382
1005
263E
  0
DIMSTYLE
105
2689
330
25E6
100
AcDbSymbolTableRecord
100
AcDbDimStyleTableRecord
  2
AM_ANSI$3
 70
     0
  4
mm
 41
0.12
 42
0.05
 43
0.5
 44
0.1
 47
0.1
 48
0.1
 78
     7
 79
     2
140
0.12
141
0.0
146
0.71
147
0.06
176
   256
177
   256
178
     2
274
     4
284
     7
288
     1
289
     0
340
2639
371
    -1
372
    -1
1001
ACAD_DSTYLE_DIMARC_LENGTH_SYMBOL
1070
   379
1070
     1
1001
ACAD_DSTYLE_DIM_LINETYPE
1070
   380
1005
263E
1001
ACAD_DSTYLE_DIM_EXT1_LINETYPE
1070
   381
1005
263E
1001
ACAD_DSTYLE_DIM_EXT2_LINETYPE
1070
   382
1005
263E
  0
DIMSTYLE
105
268A
330
25E6
100
AcDbSymbolTableRecord
100
AcDbDimStyleTableRecord
  2
AM_ANSI$4
 70
     0
  4
mm
 41
0.12
 42
0.05
 43
0.5
 44
0.1
 47
0.1
 48
0.1
 78
     7
 79
     2
140
0.12
141
0.0
146
0.71
147
0.06
176
   256
177
   256
178
     2
274
     4
284
     7
340
2639
371
    -1
372
    -1
1001
ACAD_DSTYLE_DIMARC_LENGTH_SYMBOL
1070
   379
1070
     1
1001
ACAD_DSTYLE_DIM_LINETYPE
1070
   380
1005
263E
1001
ACAD_DSTYLE_DIM_EXT1_LINETYPE
1070
   381
1005
263E
1001
ACAD_DSTYLE_DIM_EXT2_LINETYPE
1070
   382
1005
263E
  0
DIMSTYLE
105
268B
330
25E6
100
AcDbSymbolTableRecord
100
AcDbDimStyleTableRecord
  2
AM_ANSI$7
 70
     0
  4
mm
 41
0.12
 42
0.05
 43
0.5
 44
0.1
 47
0.1
 48
0.1
 78
     7
 79
     2
140
0.12
141
0.0
146
0.71
147
0.06
176
   256
177
   256
178
     2
274
     4
284
     7
340
2639
371
    -1
372
    -1
1001
ACAD_DSTYLE_DIMARC_LENGTH_SYMBOL
1070
   379
1070
     1
1001
ACAD_DSTYLE_DIM_LINETYPE
1070
   380
1005
263E
1001
ACAD_DSTYLE_DIM_EXT1_LINETYPE
1070
   381
1005
263E
1001
ACAD_DSTYLE_DIM_EXT2_LINETYPE
1070
   382
1005
263E
  0
DIMSTYLE
105
268C
330
25E6
100
AcDbSymbolTableRecord
100
AcDbDimStyleTableRecord
  2
AM_ANSI$SF
 70
     0
  4
mm
 41
0.12
 42
0.05
 43
0.5
 44
0.1
 47
0.1
 48
0.1
 75
     1
 76
     1
 78
     7
 79
     2
140
0.12
141
0.0
146
0.71
147
0.06
176
   256
177
   256
178
     2
274
     4
284
     7
340
2639
371
    -1
372
    -1
1001
ACAD_DSTYLE_DIMARC_LENGTH_SYMBOL
1070
   379
1070
     1
1001
ACAD_DSTYLE_DIM_LINETYPE
1070
   380
1005
263E
1001
ACAD_DSTYLE_DIM_EXT1_LINETYPE
1070
   381
1005
263E
1001
ACAD_DSTYLE_DIM_EXT2_LINETYPE
1070
   382
1005
263E
  0
DIMSTYLE
105
268D
330
25E6
100
AcDbSymbolTableRecord
100
AcDbDimStyleTableRecord
  2
AM_ANSI$SH
 70
     0
  4
mm
 41
0.12
 42
0.05
 43
0.5
 44
0.1
 47
0.1
 48
0.1
 75
     1
 76
     1
 78
     7
 79
     2
140
0.12
141
0.0
146
0.71
147
0.06
173
     1
176
   256
177
   256
178
     2
274
     4
284
     7
340
2639
343
26AD
371
    -1
372
    -1
1001
ACAD_DSTYLE_DIMARC_LENGTH_SYMBOL
1070
   379
1070
     1
1001
ACAD_DSTYLE_DIM_LINETYPE
1070
   380
1005
263E
1001
ACAD_DSTYLE_DIM_EXT1_LINETYPE
1070
   381
1005
263E
1001
ACAD_DSTYLE_DIM_EXT2_LINETYPE
1070
   382
1005
263E
  0
DIMSTYLE
105
268E
330
25E6
100
AcDbSymbolTableRecord
100
AcDbDimStyleTableRecord
  2
STANDARD1
 70
     0
 40
6.0
 41
2.5
 42
0.625
 43
6.0
 44
1.25
 47
1.0
 48
0.5
 77
     1
 78
     8
140
2.5
141
0.0
146
0.6
147
1.0
173
     1
275
     1
279
     2
284
     7
285
     7
286
     7
340
2639
  0
DIMSTYLE
105
268F
330
25E6
100
AcDbSymbolTableRecord
100
AcDbDimStyleTableRecord
  2
STANDARD$0
 70
     0
 41
12.0
 42
20.0
 44
20.0
 73
     0
 74
     0
 77
     1
 78
     8
140
64.0
141
0.0
147
10.0
275
     1
279
     2
284
     7
285
     7
286
     7
340
2639
  0
ENDTAB
  0
TABLE
  2
BLOCK_RECORD
  5
25DD
330
0
100
AcDbSymbolTable
 70
    69
  0
BLOCK_RECORD
  5
2650
102
{ACAD_XDICTIONARY
360
2810
102
}
330
25DD
100
AcDbSymbolTableRecord
100
AcDbBlockTableRecord
  2
*Model_Space
340
2653
  0
BLOCK_RECORD
  5
264C
330
25DD
100
AcDbSymbolTableRecord
100
AcDbBlockTableRecord
  2
*Paper_Space
340
264F
  0
BLOCK_RECORD
  5
2697
330
25DD
100
AcDbSymbolTableRecord
100
AcDbBlockTableRecord
  2
$MODEL_SPACE
340
0
  0
BLOCK_RECORD
  5
2699
330
25DD
100
AcDbSymbolTableRecord
100
AcDbBlockTableRecord
  2
$PAPER_SPACE
340
0
  0
BLOCK_RECORD
  5
269B
330
25DD
100
AcDbSymbolTableRecord
100
AcDbBlockTableRecord
  2
_ORIGIN
340
0
  0
BLOCK_RECORD
  5
269D
330
25DD
100
AcDbSymbolTableRecord
100
AcDbBlockTableRecord
  2
_DOTBLANK
340
0
102
{BLKREFS
331
1299
331
129A
331
11AA
331
11AB
331
E80
331
E81
331
1123
331
1124
331
11C2
331
11C3
331
11EC
331
11ED
331
11F9
331
11FA
331
1287
331
1288
331
1417
331
1418
331
1423
331
1424
331
142F
331
1430
331
143B
331
143C
331
166E
331
166F
331
1677
331
1678
331
1680
331
1681
331
1689
331
168A
331
1696
331
1697
331
16A3
331
16A4
331
16AF
331
16B0
331
16BB
331
16BC
331
16C7
331
16C8
331
16D3
331
16D4
331
1D86
331
1D87
331
1D8F
331
1D90
331
1D98
331
1D99
331
1DA1
331
1DA2
331
1DAB
331
1DAC
331
1DB5
331
1DB6
331
2598
331
2599
331
259D
331
259E
331
25A2
331
25A3
331
25A7
331
25A8
331
25AC
331
25AD
331
25B1
331
25B2
331
25B6
331
25B7
331
25BB
331
25BC
102
}
  0
BLOCK_RECORD
  5
269F
330
25DD
100
AcDbSymbolTableRecord
100
AcDbBlockTableRecord
  2
_OPEN30
340
0
102
{BLKREFS
331
2087
331
230E
102
}
  0
BLOCK_RECORD
  5
26A1
330
25DD
100
AcDbSymbolTableRecord
100
AcDbBlockTableRecord
  2
*D5
340
0
  0
BLOCK_RECORD
  5
26A3
330
25DD
100
AcDbSymbolTableRecord
100
AcDbBlockTableRecord
  2
*U6
340
0
102
{BLKREFS
331
129B
102
}
  0
BLOCK_RECORD
  5
26A5
330
25DD
100
AcDbSymbolTableRecord
100
AcDbBlockTableRecord
  2
*D7
340
0
  0
BLOCK_RECORD
  5
26A7
330
25DD
100
AcDbSymbolTableRecord
100
AcDbBlockTableRecord
  2
*U8
340
0
102
{BLKREFS
331
11AC
102
}
  0
BLOCK_RECORD
  5
26A9
330
25DD
100
AcDbSymbolTableRecord
100
AcDbBlockTableRecord
  2
*D9
340
0
  0
BLOCK_RECORD
  5
26AB
330
25DD
100
AcDbSymbolTableRecord
100
AcDbBlockTableRecord
  2
*U10
340
0
102
{BLKREFS
331
E82
102
}
  0
BLOCK_RECORD
  5
26AD
330
25DD
100
AcDbSymbolTableRecord
100
AcDbBlockTableRecord
  2
GENAXEH
340
0
  0
BLOCK_RECORD
  5
26AF
330
25DD
100
AcDbSymbolTableRecord
100
AcDbBlockTableRecord
  2
*D12
340
0
  0
BLOCK_RECORD
  5
26B1
330
25DD
100
AcDbSymbolTableRecord
100
AcDbBlockTableRecord
  2
*U13
340
0
102
{BLKREFS
331
1125
102
}
  0
BLOCK_RECORD
  5
26B3
330
25DD
100
AcDbSymbolTableRecord
100
AcDbBlockTableRecord
  2
*D14
340
0
  0
BLOCK_RECORD
  5
26B5
330
25DD
100
AcDbSymbolTableRecord
100
AcDbBlockTableRecord
  2
*U15
340
0
102
{BLKREFS
331
11C4
102
}
  0
BLOCK_RECORD
  5
26B7
330
25DD
100
AcDbSymbolTableRecord
100
AcDbBlockTableRecord
  2
*D16
340
0
  0
BLOCK_RECORD
  5
26B9
330
25DD
100
AcDbSymbolTableRecord
100
AcDbBlockTableRecord
  2
*U17
340
0
102
{BLKREFS
331
11EE
102
}
  0
BLOCK_RECORD
  5
26BB
330
25DD
100
AcDbSymbolTableRecord
100
AcDbBlockTableRecord
  2
*D18
340
0
  0
BLOCK_RECORD
  5
26BD
330
25DD
100
AcDbSymbolTableRecord
100
AcDbBlockTableRecord
  2
*U19
340
0
102
{BLKREFS
331
11FB
102
}
  0
BLOCK_RECORD
  5
26BF
330
25DD
100
AcDbSymbolTableRecord
100
AcDbBlockTableRecord
  2
*D20
340
0
  0
BLOCK_RECORD
  5
26C1
330
25DD
100
AcDbSymbolTableRecord
100
AcDbBlockTableRecord
  2
*U21
340
0
102
{BLKREFS
331
1289
102
}
  0
BLOCK_RECORD
  5
26C3
330
25DD
100
AcDbSymbolTableRecord
100
AcDbBlockTableRecord
  2
*D22
340
0
  0
BLOCK_RECORD
  5
26C5
330
25DD
100
AcDbSymbolTableRecord
100
AcDbBlockTableRecord
  2
*U23
340
0
102
{BLKREFS
331
1419
102
}
  0
BLOCK_RECORD
  5
26C7
330
25DD
100
AcDbSymbolTableRecord
100
AcDbBlockTableRecord
  2
*D24
340
0
  0
BLOCK_RECORD
  5
26C9
330
25DD
100
AcDbSymbolTableRecord
100
AcDbBlockTableRecord
  2
*U25
340
0
102
{BLKREFS
331
1425
102
}
  0
BLOCK_RECORD
  5
26CB
330
25DD
100
AcDbSymbolTableRecord
100
AcDbBlockTableRecord
  2
*D26
340
0
  0
BLOCK_RECORD
  5
26CD
330
25DD
100
AcDbSymbolTableRecord
100
AcDbBlockTableRecord
  2
*U27
340
0
102
{BLKREFS
331
1431
102
}
  0
BLOCK_RECORD
  5
26CF
330
25DD
100
AcDbSymbolTableRecord
100
AcDbBlockTableRecord
  2
*D28
340
0
  0
BLOCK_RECORD
  5
26D1
330
25DD
100
AcDbSymbolTableRecord
100
AcDbBlockTableRecord
  2
*U29
340
0
102
{BLKREFS
331
143D
102
}
  0
BLOCK_RECORD
  5
26D3
330
25DD
100
AcDbSymbolTableRecord
100
AcDbBlockTableRecord
  2
*D30
340
0
  0
BLOCK_RECORD
  5
26D5
330
25DD
100
AcDbSymbolTableRecord
100
AcDbBlockTableRecord
  2
*U31
340
0
102
{BLKREFS
331
1670
102
}
  0
BLOCK_RECORD
  5
26D7
330
25DD
100
AcDbSymbolTableRecord
100
AcDbBlockTableRecord
  2
*D32
340
0
  0
BLOCK_RECORD
  5
26D9
330
25DD
100
AcDbSymbolTableRecord
100
AcDbBlockTableRecord
  2
*U33
340
0
102
{BLKREFS
331
1679
102
}
  0
BLOCK_RECORD
  5
26DB
330
25DD
100
AcDbSymbolTableRecord
100
AcDbBlockTableRecord
  2
*D34
340
0
  0
BLOCK_RECORD
  5
26DD
330
25DD
100
AcDbSymbolTableRecord
100
AcDbBlockTableRecord
  2
*U35
340
0
102
{BLKREFS
331
1682
102
}
  0
BLOCK_RECORD
  5
26DF
330
25DD
100
AcDbSymbolTableRecord
100
AcDbBlockTableRecord
  2
*D36
340
0
  0
BLOCK_RECORD
  5
26E1
330
25DD
100
AcDbSymbolTableRecord
100
AcDbBlockTableRecord
  2
*U37
340
0
102
{BLKREFS
331
168B
102
}
  0
BLOCK_RECORD
  5
26E3
330
25DD
100
AcDbSymbolTableRecord
100
AcDbBlockTableRecord
  2
*U38
340
0
  0
BLOCK_RECORD
  5
26E5
330
25DD
100
AcDbSymbolTableRecord
100
AcDbBlockTableRecord
  2
*D39
340
0
  0
BLOCK_RECORD
  5
26E7
330
25DD
100
AcDbSymbolTableRecord
100
AcDbBlockTableRecord
  2
*U40
340
0
102
{BLKREFS
331
1698
102
}
  0
BLOCK_RECORD
  5
26E9
330
25DD
100
AcDbSymbolTableRecord
100
AcDbBlockTableRecord
  2
*D41
340
0
  0
BLOCK_RECORD
  5
26EB
330
25DD
100
AcDbSymbolTableRecord
100
AcDbBlockTableRecord
  2
*U42
340
0
102
{BLKREFS
331
16A5
102
}
  0
BLOCK_RECORD
  5
26ED
330
25DD
100
AcDbSymbolTableRecord
100
AcDbBlockTableRecord
  2
*D43
340
0
  0
BLOCK_RECORD
  5
26EF
330
25DD
100
AcDbSymbolTableRecord
100
AcDbBlockTableRecord
  2
*U44
340
0
102
{BLKREFS
331
16B1
102
}
  0
BLOCK_RECORD
  5
26F1
330
25DD
100
AcDbSymbolTableRecord
100
AcDbBlockTableRecord
  2
*D45
340
0
  0
BLOCK_RECORD
  5
26F3
330
25DD
100
AcDbSymbolTableRecord
100
AcDbBlockTableRecord
  2
*U46
340
0
102
{BLKREFS
331
16BD
102
}
  0
BLOCK_RECORD
  5
26F5
330
25DD
100
AcDbSymbolTableRecord
100
AcDbBlockTableRecord
  2
*D47
340
0
  0
BLOCK_RECORD
  5
26F7
330
25DD
100
AcDbSymbolTableRecord
100
AcDbBlockTableRecord
  2
*U48
340
0
102
{BLKREFS
331
16C9
102
}
  0
BLOCK_RECORD
  5
26F9
330
25DD
100
AcDbSymbolTableRecord
100
AcDbBlockTableRecord
  2
*D49
340
0
  0
BLOCK_RECORD
  5
26FB
330
25DD
100
AcDbSymbolTableRecord
100
AcDbBlockTableRecord
  2
*U50
340
0
102
{BLKREFS
331
16D5
102
}
  0
BLOCK_RECORD
  5
26FD
330
25DD
100
AcDbSymbolTableRecord
100
AcDbBlockTableRecord
  2
*D51
340
0
  0
BLOCK_RECORD
  5
26FF
330
25DD
100
AcDbSymbolTableRecord
100
AcDbBlockTableRecord
  2
*U52
340
0
102
{BLKREFS
331
1D88
102
}
  0
BLOCK_RECORD
  5
2701
330
25DD
100
AcDbSymbolTableRecord
100
AcDbBlockTableRecord
  2
*D53
340
0
  0
BLOCK_RECORD
  5
2703
330
25DD
100
AcDbSymbolTableRecord
100
AcDbBlockTableRecord
  2
*U54
340
0
102
{BLKREFS
331
1D91
102
}
  0
BLOCK_RECORD
  5
2705
330
25DD
100
AcDbSymbolTableRecord
100
AcDbBlockTableRecord
  2
*D55
340
0
  0
BLOCK_RECORD
  5
2707
330
25DD
100
AcDbSymbolTableRecord
100
AcDbBlockTableRecord
  2
*U56
340
0
102
{BLKREFS
331
1D9A
102
}
  0
BLOCK_RECORD
  5
2709
330
25DD
100
AcDbSymbolTableRecord
100
AcDbBlockTableRecord
  2
*D57
340
0
  0
BLOCK_RECORD
  5
270B
330
25DD
100
AcDbSymbolTableRecord
100
AcDbBlockTableRecord
  2
*U58
340
0
102
{BLKREFS
331
1DA3
102
}
  0
BLOCK_RECORD
  5
270D
330
25DD
100
AcDbSymbolTableRecord
100
AcDbBlockTableRecord
  2
*D59
340
0
  0
BLOCK_RECORD
  5
270F
330
25DD
100
AcDbSymbolTableRecord
100
AcDbBlockTableRecord
  2
*U60
340
0
102
{BLKREFS
331
1DAD
102
}
  0
BLOCK_RECORD
  5
2711
330
25DD
100
AcDbSymbolTableRecord
100
AcDbBlockTableRecord
  2
*D61
340
0
  0
BLOCK_RECORD
  5
2713
330
25DD
100
AcDbSymbolTableRecord
100
AcDbBlockTableRecord
  2
*U62
340
0
102
{BLKREFS
331
1DB7
102
}
  0
BLOCK_RECORD
  5
2715
330
25DD
100
AcDbSymbolTableRecord
100
AcDbBlockTableRecord
  2
*U63
340
0
  0
BLOCK_RECORD
  5
2717
330
25DD
100
AcDbSymbolTableRecord
100
AcDbBlockTableRecord
  2
*U64
340
0
  0
BLOCK_RECORD
  5
2719
330
25DD
100
AcDbSymbolTableRecord
100
AcDbBlockTableRecord
  2
*U65
340
0
  0
BLOCK_RECORD
  5
271B
330
25DD
100
AcDbSymbolTableRecord
100
AcDbBlockTableRecord
  2
*U66
340
0
102
{BLKREFS
331
24FD
102
}
  0
BLOCK_RECORD
  5
271D
330
25DD
100
AcDbSymbolTableRecord
100
AcDbBlockTableRecord
  2
*U67
340
0
102
{BLKREFS
331
24FE
102
}
  0
ENDTAB
  0
ENDSEC
  0
SECTION
  2
BLOCKS
  0
BLOCK
  5
2651
330
2650
100
AcDbEntity
  8
0
100
AcDbBlockBegin
  2
*Model_Space
 70
     0
 10
0.0
 20
0.0
 30
0.0
  3
*Model_Space
  1

  0
ENDBLK
  5
2652
330
2650
100
AcDbEntity
  8
0
100
AcDbBlockEnd
  0
BLOCK
  5
264D
330
264C
100
AcDbEntity
 67
     1
  8
0
100
AcDbBlockBegin
  2
*Paper_Space
 70
     0
 10
0.0
 20
0.0
 30
0.0
  3
*Paper_Space
  1

  0
ENDBLK
  5
264E
330
264C
100
AcDbEntity
 67
     1
  8
0
100
AcDbBlockEnd
  0
BLOCK
  5
2698
330
2697
100
AcDbEntity
  8
0
100
AcDbBlockBegin
  2
$MODEL_SPACE
 70
     0
 10
0.0
 20
0.0
 30
0.0
  3
$MODEL_SPACE
  1

  0
ENDBLK
  5
2212
330
2697
100
AcDbEntity
  8
0
100
AcDbBlockEnd
  0
BLOCK
  5
269A
330
2699
100
AcDbEntity
  8
0
100
AcDbBlockBegin
  2
$PAPER_SPACE
 70
     0
 10
0.0
 20
0.0
 30
0.0
  3
$PAPER_SPACE
  1

  0
ENDBLK
  5
220E
330
2699
100
AcDbEntity
  8
0
100
AcDbBlockEnd
  0
BLOCK
  5
269C
330
269B
100
AcDbEntity
  8
0
100
AcDbBlockBegin
  2
_ORIGIN
 70
     0
 10
0.0
 20
0.0
 30
0.0
  3
_ORIGIN
  1

  0
CIRCLE
  5
880
330
269B
100
AcDbEntity
  8
0
  6
Continuous
 62
     7
100
AcDbCircle
 10
0.0
 20
0.0
 30
0.0
 40
0.5
  0
LINE
  5
881
330
269B
100
AcDbEntity
  8
0
  6
Continuous
 62
     7
100
AcDbLine
 10
0.0
 20
0.0
 30
0.0
 11
-1.0
 21
0.0
 31
0.0
  0
ENDBLK
  5
882
330
269B
100
AcDbEntity
  8
0
100
AcDbBlockEnd
  0
BLOCK
  5
269E
330
269D
100
AcDbEntity
  8
0
 62
     1
100
AcDbBlockBegin
  2
_DOTBLANK
 70
     0
 10
0.0
 20
0.0
 30
0.0
  3
_DOTBLANK
  1

  0
CIRCLE
  5
AB3
330
269D
100
AcDbEntity
  8
0
  6
ByBlock
 62
     0
100
AcDbCircle
 10
0.0
 20
0.0
 30
0.0
 40
0.5
  0
LINE
  5
AB4
330
269D
100
AcDbEntity
  8
0
  6
ByBlock
 62
     0
100
AcDbLine
 10
-0.5
 20
0.0
 30
0.0
 11
-1.0
 21
0.0
 31
0.0
  0
ENDBLK
  5
AB6
330
269D
100
AcDbEntity
  8
0
 62
     1
100
AcDbBlockEnd
  0
BLOCK
  5
26A0
330
269F
100
AcDbEntity
  8
0
 62
     1
100
AcDbBlockBegin
  2
_OPEN30
 70
     0
 10
0.0
 20
0.0
 30
0.0
  3
_OPEN30
  1

  0
LINE
  5
AB8
330
269F
100
AcDbEntity
  8
0
  6
ByBlock
 62
     0
100
AcDbLine
 10
-1.0
 20
0.26794919
 30
0.0
 11
0.0
 21
0.0
 31
0.0
  0
LINE
  5
AB9
330
269F
100
AcDbEntity
  8
0
  6
ByBlock
 62
     0
100
AcDbLine
 10
0.0
 20
0.0
 30
0.0
 11
-1.0
 21
-0.26794919
 31
0.0
  0
LINE
  5
ABA
330
269F
100
AcDbEntity
  8
0
  6
ByBlock
 62
     0
100
AcDbLine
 10
0.0
 20
0.0
 30
0.0
 11
-1.0
 21
0.0
 31
0.0
  0
ENDBLK
  5
ABC
330
269F
100
AcDbEntity
  8
0
 62
     1
100
AcDbBlockEnd
  0
BLOCK
  5
26A2
330
26A1
100
AcDbEntity
  8
0
100
AcDbBlockBegin
  2
*D5
 70
     1
 10
0.0
 20
0.0
 30
0.0
  3
*D5
  1

  0
LINE
  5
1296
330
26A1
100
AcDbEntity
  8
SIZE
 62
     0
100
AcDbLine
 10
-134.5
 20
-320.0
 30
0.0
 11
-134.5
 21
-468.0173952306001
 31
0.0
  0
LINE
  5
1297
330
26A1
100
AcDbEntity
  8
SIZE
 62
     0
100
AcDbLine
 10
134.5
 20
-320.0
 30
0.0
 11
134.5
 21
-468.0173952306001
 31
0.0
  0
LINE
  5
1298
330
26A1
100
AcDbEntity
  8
SIZE
 62
     0
100
AcDbLine
 10
-122.5
 20
-448.0173952306
 30
0.0
 11
122.5
 21
-448.0173952306
 31
0.0
  0
INSERT
  5
1299
330
26A1
100
AcDbEntity
  8
SIZE
 62
     0
100
AcDbBlockReference
  2
_DOTBLANK
 10
-134.5
 20
-448.0173952306
 30
0.0
 41
12.0
 42
12.0
 43
12.0
 50
180.0
  0
INSERT
  5
129A
330
26A1
100
AcDbEntity
  8
SIZE
 62
     0
100
AcDbBlockReference
  2
_DOTBLANK
 10
134.5
 20
-448.0173952306
 30
0.0
 41
12.0
 42
12.0
 43
12.0
  0
INSERT
  5
129B
330
26A1
100
AcDbEntity
  8
0
100
AcDbBlockReference
  2
*U6
 10
0.0
 20
0.0
 30
0.0
  0
POINT
  5
129C
330
26A1
100
AcDbEntity
  8
DEFPOINTS
 62
     0
100
AcDbPoint
 10
-134.5
 20
-300.0
 30
0.0
  0
POINT
  5
129D
330
26A1
100
AcDbEntity
  8
DEFPOINTS
 62
     0
100
AcDbPoint
 10
134.5
 20
-300.0
 30
0.0
  0
POINT
  5
129E
330
26A1
100
AcDbEntity
  8
DEFPOINTS
 62
     0
100
AcDbPoint
 10
134.5
 20
-448.0173952306
 30
0.0
  0
ENDBLK
  5
D72
330
26A1
100
AcDbEntity
  8
0
100
AcDbBlockEnd
  0
BLOCK
  5
26A4
330
26A3
100
AcDbEntity
  8
0
100
AcDbBlockBegin
  2
*U6
 70
     1
 10
0.0
 20
0.0
 30
0.0
  3
*U6
  1

  0
TEXT
  5
1EF5
330
26A3
100
AcDbEntity
  8
SIZE
 62
     0
100
AcDbText
 10
-72.68571428571426
 20
-438.0173952305999
 30
0.0
 40
64.0
  1
269
 41
0.9
100
AcDbText
  0
ENDBLK
  5
1EF7
330
26A3
100
AcDbEntity
  8
0
100
AcDbBlockEnd
  0
BLOCK
  5
26A6
330
26A5
100
AcDbEntity
  8
0
100
AcDbBlockBegin
  2
*D7
 70
     1
 10
0.0
 20
0.0
 30
0.0
  3
*D7
  1

  0
LINE
  5
11A7
330
26A5
100
AcDbEntity
  8
SIZE
  6
Continuous
 62
     0
100
AcDbLine
 10
143.5
 20
-300.0
 30
0.0
 11
304.6432844803791
 21
-300.0
 31
0.0
  0
LINE
  5
11A8
330
26A5
100
AcDbEntity
  8
SIZE
  6
Continuous
 62
     0
100
AcDbLine
 10
177.5
 20
-0.0000000000000057
 30
0.0
 11
304.6432844803792
 21
-0.0000000000000417
 31
0.0
  0
LINE
  5
11A9
330
26A5
100
AcDbEntity
  8
SIZE
  6
Continuous
 62
     0
100
AcDbLine
 10
284.6432844803791
 20
-288.0000000000001
 30
0.0
 11
284.6432844803792
 21
-12.00000000000003
 31
0.0
  0
INSERT
  5
11AA
330
26A5
100
AcDbEntity
  8
SIZE
  6
Continuous
 62
     0
100
AcDbBlockReference
  2
_DOTBLANK
 10
284.6432844803791
 20
-300.0
 30
0.0
 41
12.0
 42
12.0
 43
12.0
 50
270.0
  0
INSERT
  5
11AB
330
26A5
100
AcDbEntity
  8
SIZE
  6
Continuous
 62
     0
100
AcDbBlockReference
  2
_DOTBLANK
 10
284.6432844803792
 20
-0.000000000000036
 30
0.0
 41
12.0
 42
12.0
 43
12.0
 50
90.0
  0
INSERT
  5
11AC
330
26A5
100
AcDbEntity
  8
0
100
AcDbBlockReference
  2
*U8
 10
0.0
 20
0.0
 30
0.0
  0
POINT
  5
11AD
330
26A5
100
AcDbEntity
  8
DEFPOINTS
  6
Continuous
 62
     0
100
AcDbPoint
 10
123.5
 20
-300.0
 30
0.0
  0
POINT
  5
11AE
330
26A5
100
AcDbEntity
  8
DEFPOINTS
  6
Continuous
 62
     0
100
AcDbPoint
 10
157.5
 20
0.0
 30
0.0
  0
POINT
  5
11AF
330
26A5
100
AcDbEntity
  8
DEFPOINTS
  6
Continuous
 62
     0
100
AcDbPoint
 10
284.6432844803792
 20
-0.000000000000036
 30
0.0
  0
ENDBLK
  5
E11
330
26A5
100
AcDbEntity
  8
0
100
AcDbBlockEnd
  0
BLOCK
  5
26A8
330
26A7
100
AcDbEntity
  8
0
100
AcDbBlockBegin
  2
*U8
 70
     1
 10
0.0
 20
0.0
 30
0.0
  3
*U8
  1

  0
TEXT
  5
1EE1
330
26A7
100
AcDbEntity
  8
SIZE
 62
     0
100
AcDbText
 10
274.6432844803792
 20
-224.0571428571429
 30
0.0
 40
64.0
  1
300
 50
90.0
 41
0.9
100
AcDbText
  0
ENDBLK
  5
1EE3
330
26A7
100
AcDbEntity
  8
0
100
AcDbBlockEnd
  0
BLOCK
  5
26AA
330
26A9
100
AcDbEntity
  8
0
100
AcDbBlockBegin
  2
*D9
 70
     1
 10
0.0
 20
0.0
 30
0.0
  3
*D9
  1

  0
LINE
  5
E7D
330
26A9
100
AcDbEntity
  8
SIZE
 62
     0
100
AcDbLine
 10
-139.9999999999998
 20
32.46448280219375
 30
0.0
 11
-139.9999999999998
 21
136.4516878685508
 31
0.0
  0
LINE
  5
E7E
330
26A9
100
AcDbEntity
  8
SIZE
 62
     0
100
AcDbLine
 10
140.0
 20
32.46448280219375
 30
0.0
 11
140.0
 21
136.4516878685508
 31
0.0
  0
LINE
  5
E7F
330
26A9
100
AcDbEntity
  8
SIZE
 62
     0
100
AcDbLine
 10
-128.0
 20
116.4516878685508
 30
0.0
 11
128.0
 21
116.4516878685508
 31
0.0
  0
INSERT
  5
E80
330
26A9
100
AcDbEntity
  8
SIZE
 62
     0
100
AcDbBlockReference
  2
_DOTBLANK
 10
-139.9999999999998
 20
116.4516878685508
 30
0.0
 41
12.0
 42
12.0
 43
12.0
 50
180.0
  0
INSERT
  5
E81
330
26A9
100
AcDbEntity
  8
SIZE
 62
     0
100
AcDbBlockReference
  2
_DOTBLANK
 10
140.0
 20
116.4516878685508
 30
0.0
 41
12.0
 42
12.0
 43
12.0
  0
INSERT
  5
E82
330
26A9
100
AcDbEntity
  8
0
100
AcDbBlockReference
  2
*U10
 10
0.0
 20
0.0
 30
0.0
  0
POINT
  5
E83
330
26A9
100
AcDbEntity
  8
DEFPOINTS
 62
     0
100
AcDbPoint
 10
-139.9999999999998
 20
12.46448280219374
 30
0.0
  0
POINT
  5
E84
330
26A9
100
AcDbEntity
  8
DEFPOINTS
 62
     0
100
AcDbPoint
 10
140.0
 20
12.46448280219374
 30
0.0
  0
POINT
  5
E85
330
26A9
100
AcDbEntity
  8
DEFPOINTS
 62
     0
100
AcDbPoint
 10
140.0
 20
116.4516878685508
 30
0.0
  0
ENDBLK
  5
E7C
330
26A9
100
AcDbEntity
  8
0
100
AcDbBlockEnd
  0
BLOCK
  5
26AC
330
26AB
100
AcDbEntity
  8
0
100
AcDbBlockBegin
  2
*U10
 70
     1
 10
0.0
 20
0.0
 30
0.0
  3
*U10
  1

  0
TEXT
  5
1ED8
330
26AB
100
AcDbEntity
  8
SIZE
 62
     0
100
AcDbText
 10
-74.05714285714281
 20
126.4516878685508
 30
0.0
 40
64.0
  1
280
 41
0.9
100
AcDbText
  0
ENDBLK
  5
1EDA
330
26AB
100
AcDbEntity
  8
0
100
AcDbBlockEnd
  0
BLOCK
  5
26AE
330
26AD
100
AcDbEntity
  8
0
100
AcDbBlockBegin
  2
GENAXEH
 70
     0
 10
0.0
 20
0.0
 30
0.0
  3
GENAXEH
  1

  0
LINE
  5
FDB
330
26AD
100
AcDbEntity
  8
0
100
AcDbLine
 10
-1.0
 20
0.0
 30
0.0
 11
1.0
 21
0.0
 31
0.0
  0
ENDBLK
  5
FDD
330
26AD
100
AcDbEntity
  8
0
100
AcDbBlockEnd
  0
BLOCK
  5
26B0
330
26AF
100
AcDbEntity
  8
0
100
AcDbBlockBegin
  2
*D12
 70
     1
 10
0.0
 20
0.0
 30
0.0
  3
*D12
  1

  0
LINE
  5
1120
330
26AF
100
AcDbEntity
  8
SIZE
 62
     0
100
AcDbLine
 10
-157.5
 20
20.0
 30
0.0
 11
-157.5
 21
245.5794621189598
 31
0.0
  0
LINE
  5
1121
330
26AF
100
AcDbEntity
  8
SIZE
 62
     0
100
AcDbLine
 10
157.5
 20
20.0
 30
0.0
 11
157.5
 21
245.5794621189598
 31
0.0
  0
LINE
  5
1122
330
26AF
100
AcDbEntity
  8
SIZE
 62
     0
100
AcDbLine
 10
-145.5
 20
225.5794621189598
 30
0.0
 11
145.5
 21
225.5794621189598
 31
0.0
  0
INSERT
  5
1123
330
26AF
100
AcDbEntity
  8
SIZE
 62
     0
100
AcDbBlockReference
  2
_DOTBLANK
 10
-157.5
 20
225.5794621189598
 30
0.0
 41
12.0
 42
12.0
 43
12.0
 50
180.0
  0
INSERT
  5
1124
330
26AF
100
AcDbEntity
  8
SIZE
 62
     0
100
AcDbBlockReference
  2
_DOTBLANK
 10
157.5
 20
225.5794621189598
 30
0.0
 41
12.0
 42
12.0
 43
12.0
  0
INSERT
  5
1125
330
26AF
100
AcDbEntity
  8
0
100
AcDbBlockReference
  2
*U13
 10
0.0
 20
0.0
 30
0.0
  0
POINT
  5
1126
330
26AF
100
AcDbEntity
  8
DEFPOINTS
 62
     0
100
AcDbPoint
 10
-157.5
 20
0.0
 30
0.0
  0
POINT
  5
1127
330
26AF
100
AcDbEntity
  8
DEFPOINTS
 62
     0
100
AcDbPoint
 10
157.5
 20
0.0
 30
0.0
  0
POINT
  5
1128
330
26AF
100
AcDbEntity
  8
DEFPOINTS
 62
     0
100
AcDbPoint
 10
157.5
 20
225.5794621189598
 30
0.0
  0
ENDBLK
  5
111F
330
26AF
100
AcDbEntity
  8
0
100
AcDbBlockEnd
  0
BLOCK
  5
26B2
330
26B1
100
AcDbEntity
  8
0
100
AcDbBlockBegin
  2
*U13
 70
     1
 10
0.0
 20
0.0
 30
0.0
  3
*U13
  1

  0
TEXT
  5
1EDD
330
26B1
100
AcDbEntity
  8
SIZE
 62
     0
100
AcDbText
 10
-68.57142857142857
 20
235.5794621189599
 30
0.0
 40
64.0
  1
315
 41
0.9
100
AcDbText
  0
ENDBLK
  5
1EDF
330
26B1
100
AcDbEntity
  8
0
100
AcDbBlockEnd
  0
BLOCK
  5
26B4
330
26B3
100
AcDbEntity
  8
0
100
AcDbBlockBegin
  2
*D14
 70
     1
 10
0.0
 20
0.0
 30
0.0
  3
*D14
  1

  0
LINE
  5
11BD
330
26B3
100
AcDbEntity
  8
NOTE
 62
     0
100
AcDbLine
 10
-123.4999999999999
 20
-320.0
 30
0.0
 11
-123.4999999999999
 21
-354.9529861856111
 31
0.0
  0
LINE
  5
11BE
330
26B3
100
AcDbEntity
  8
NOTE
 62
     0
100
AcDbLine
 10
-133.4999999999998
 20
-331.2126909923287
 30
0.0
 11
-133.4999999999998
 21
-354.9529861856111
 31
0.0
  0
LINE
  5
11BF
330
26B3
100
AcDbEntity
  8
NOTE
 62
     0
100
AcDbLine
 10
-111.4999999999999
 20
-334.9529861856112
 30
0.0
 11
-99.4999999999999
 21
-334.9529861856112
 31
0.0
  0
LINE
  5
11C0
330
26B3
100
AcDbEntity
  8
NOTE
 62
     0
100
AcDbLine
 10
-145.4999999999998
 20
-334.9529861856112
 30
0.0
 11
-157.4999999999998
 21
-334.9529861856112
 31
0.0
  0
LINE
  5
11C1
330
26B3
100
AcDbEntity
  8
NOTE
 62
     0
100
AcDbLine
 10
-123.4999999999999
 20
-334.9529861856112
 30
0.0
 11
-133.4999999999998
 21
-334.9529861856112
 31
0.0
  0
INSERT
  5
11C2
330
26B3
100
AcDbEntity
  8
NOTE
 62
     0
100
AcDbBlockReference
  2
_DOTBLANK
 10
-123.4999999999999
 20
-334.9529861856112
 30
0.0
 41
12.0
 42
12.0
 43
12.0
 50
180.0
  0
INSERT
  5
11C3
330
26B3
100
AcDbEntity
  8
NOTE
 62
     0
100
AcDbBlockReference
  2
_DOTBLANK
 10
-133.4999999999998
 20
-334.9529861856112
 30
0.0
 41
12.0
 42
12.0
 43
12.0
  0
INSERT
  5
11C4
330
26B3
100
AcDbEntity
  8
0
100
AcDbBlockReference
  2
*U15
 10
0.0
 20
0.0
 30
0.0
  0
POINT
  5
11C5
330
26B3
100
AcDbEntity
  8
DEFPOINTS
 62
     0
100
AcDbPoint
 10
-123.4999999999999
 20
-300.0
 30
0.0
  0
POINT
  5
11C6
330
26B3
100
AcDbEntity
  8
DEFPOINTS
 62
     0
100
AcDbPoint
 10
-133.4999999999998
 20
-311.2126909923287
 30
0.0
  0
POINT
  5
11C7
330
26B3
100
AcDbEntity
  8
DEFPOINTS
 62
     0
100
AcDbPoint
 10
-133.4999999999998
 20
-334.9529861856112
 30
0.0
  0
ENDBLK
  5
11BC
330
26B3
100
AcDbEntity
  8
0
100
AcDbBlockEnd
  0
BLOCK
  5
26B6
330
26B5
100
AcDbEntity
  8
0
100
AcDbBlockBegin
  2
*U15
 70
     1
 10
0.0
 20
0.0
 30
0.0
  3
*U15
  1

  0
TEXT
  5
1EE5
330
26B5
100
AcDbEntity
  8
NOTE
 62
     0
100
AcDbText
 10
-169.642857142857
 20
-324.9529861856112
 30
0.0
 40
64.0
  1
10
 41
0.9
100
AcDbText
  0
ENDBLK
  5
1EE7
330
26B5
100
AcDbEntity
  8
0
100
AcDbBlockEnd
  0
BLOCK
  5
26B8
330
26B7
100
AcDbEntity
  8
0
100
AcDbBlockBegin
  2
*D16
 70
     1
 10
0.0
 20
0.0
 30
0.0
  3
*D16
  1

  0
LINE
  5
11E7
330
26B7
100
AcDbEntity
  8
NOTE
 62
     0
100
AcDbLine
 10
-135.5
 20
-333.2126909923287
 30
0.0
 11
-135.5
 21
-386.2569421441843
 31
0.0
  0
LINE
  5
11E8
330
26B7
100
AcDbEntity
  8
NOTE
 62
     0
100
AcDbLine
 10
-123.4999999999999
 20
-320.0
 30
0.0
 11
-123.4999999999999
 21
-386.2569421441843
 31
0.0
  0
LINE
  5
11E9
330
26B7
100
AcDbEntity
  8
NOTE
 62
     0
100
AcDbLine
 10
-147.5
 20
-366.2569421441844
 30
0.0
 11
-159.5
 21
-366.2569421441844
 31
0.0
  0
LINE
  5
11EA
330
26B7
100
AcDbEntity
  8
NOTE
 62
     0
100
AcDbLine
 10
-111.4999999999999
 20
-366.2569421441844
 30
0.0
 11
-99.4999999999999
 21
-366.2569421441844
 31
0.0
  0
LINE
  5
11EB
330
26B7
100
AcDbEntity
  8
NOTE
 62
     0
100
AcDbLine
 10
-135.5
 20
-366.2569421441844
 30
0.0
 11
-123.4999999999999
 21
-366.2569421441844
 31
0.0
  0
INSERT
  5
11EC
330
26B7
100
AcDbEntity
  8
NOTE
 62
     0
100
AcDbBlockReference
  2
_DOTBLANK
 10
-135.5
 20
-366.2569421441844
 30
0.0
 41
12.0
 42
12.0
 43
12.0
  0
INSERT
  5
11ED
330
26B7
100
AcDbEntity
  8
NOTE
 62
     0
100
AcDbBlockReference
  2
_DOTBLANK
 10
-123.4999999999999
 20
-366.2569421441844
 30
0.0
 41
12.0
 42
12.0
 43
12.0
 50
180.0
  0
INSERT
  5
11EE
330
26B7
100
AcDbEntity
  8
0
100
AcDbBlockReference
  2
*U17
 10
0.0
 20
0.0
 30
0.0
  0
POINT
  5
11EF
330
26B7
100
AcDbEntity
  8
DEFPOINTS
 62
     0
100
AcDbPoint
 10
-135.5
 20
-313.2126909923287
 30
0.0
  0
POINT
  5
11F0
330
26B7
100
AcDbEntity
  8
DEFPOINTS
 62
     0
100
AcDbPoint
 10
-123.4999999999999
 20
-300.0
 30
0.0
  0
POINT
  5
11F1
330
26B7
100
AcDbEntity
  8
DEFPOINTS
 62
     0
100
AcDbPoint
 10
-123.4999999999999
 20
-366.2569421441844
 30
0.0
  0
ENDBLK
  5
11E6
330
26B7
100
AcDbEntity
  8
0
100
AcDbBlockEnd
  0
BLOCK
  5
26BA
330
26B9
100
AcDbEntity
  8
0
100
AcDbBlockBegin
  2
*U17
 70
     1
 10
0.0
 20
0.0
 30
0.0
  3
*U17
  1

  0
TEXT
  5
1EE9
330
26B9
100
AcDbEntity
  8
NOTE
 62
     0
100
AcDbText
 10
-170.642857142857
 20
-356.2569421441843
 30
0.0
 40
64.0
  1
12
 41
0.9
100
AcDbText
  0
ENDBLK
  5
1EEB
330
26B9
100
AcDbEntity
  8
0
100
AcDbBlockEnd
  0
BLOCK
  5
26BC
330
26BB
100
AcDbEntity
  8
0
100
AcDbBlockBegin
  2
*D18
 70
     1
 10
0.0
 20
0.0
 30
0.0
  3
*D18
  1

  0
LINE
  5
11F6
330
26BB
100
AcDbEntity
  8
NOTE
 62
     0
100
AcDbLine
 10
-123.4999999999999
 20
-320.0
 30
0.0
 11
-123.4999999999999
 21
-583.8286022818904
 31
0.0
  0
LINE
  5
11F7
330
26BB
100
AcDbEntity
  8
NOTE
 62
     0
100
AcDbLine
 10
123.5
 20
-320.0
 30
0.0
 11
123.5
 21
-583.8286022818904
 31
0.0
  0
LINE
  5
11F8
330
26BB
100
AcDbEntity
  8
NOTE
 62
     0
100
AcDbLine
 10
-111.4999999999999
 20
-563.8286022818904
 30
0.0
 11
111.5
 21
-563.8286022818904
 31
0.0
  0
INSERT
  5
11F9
330
26BB
100
AcDbEntity
  8
NOTE
 62
     0
100
AcDbBlockReference
  2
_DOTBLANK
 10
-123.4999999999999
 20
-563.8286022818904
 30
0.0
 41
12.0
 42
12.0
 43
12.0
 50
180.0
  0
INSERT
  5
11FA
330
26BB
100
AcDbEntity
  8
NOTE
 62
     0
100
AcDbBlockReference
  2
_DOTBLANK
 10
123.5
 20
-563.8286022818904
 30
0.0
 41
12.0
 42
12.0
 43
12.0
  0
INSERT
  5
11FB
330
26BB
100
AcDbEntity
  8
0
100
AcDbBlockReference
  2
*U19
 10
0.0
 20
0.0
 30
0.0
  0
POINT
  5
11FC
330
26BB
100
AcDbEntity
  8
DEFPOINTS
 62
     0
100
AcDbPoint
 10
-123.4999999999999
 20
-300.0
 30
0.0
  0
POINT
  5
11FD
330
26BB
100
AcDbEntity
  8
DEFPOINTS
 62
     0
100
AcDbPoint
 10
123.5
 20
-300.0
 30
0.0
  0
POINT
  5
11FE
330
26BB
100
AcDbEntity
  8
DEFPOINTS
 62
     0
100
AcDbPoint
 10
123.5
 20
-563.8286022818904
 30
0.0
  0
ENDBLK
  5
11F5
330
26BB
100
AcDbEntity
  8
0
100
AcDbBlockEnd
  0
BLOCK
  5
26BE
330
26BD
100
AcDbEntity
  8
0
100
AcDbBlockBegin
  2
*U19
 70
     1
 10
0.0
 20
0.0
 30
0.0
  3
*U19
  1

  0
TEXT
  5
1EED
330
26BD
100
AcDbEntity
  8
NOTE
 62
     0
100
AcDbText
 10
-74.05714285714281
 20
-553.8286022818904
 30
0.0
 40
64.0
  1
247
 41
0.9
100
AcDbText
  0
ENDBLK
  5
1EEF
330
26BD
100
AcDbEntity
  8
0
100
AcDbBlockEnd
  0
BLOCK
  5
26C0
330
26BF
100
AcDbEntity
  8
0
100
AcDbBlockBegin
  2
*D20
 70
     1
 10
0.0
 20
0.0
 30
0.0
  3
*D20
  1

  0
LINE
  5
1284
330
26BF
100
AcDbEntity
  8
NOTE
 62
     0
100
AcDbLine
 10
-123.5
 20
12.0
 30
0.0
 11
-123.5
 21
71.83630134534229
 31
0.0
  0
LINE
  5
1285
330
26BF
100
AcDbEntity
  8
NOTE
 62
     0
100
AcDbLine
 10
123.5
 20
12.0
 30
0.0
 11
123.5
 21
71.83630134534229
 31
0.0
  0
LINE
  5
1286
330
26BF
100
AcDbEntity
  8
NOTE
 62
     0
100
AcDbLine
 10
-111.5
 20
51.83630134534229
 30
0.0
 11
111.5
 21
51.83630134534229
 31
0.0
  0
INSERT
  5
1287
330
26BF
100
AcDbEntity
  8
NOTE
 62
     0
100
AcDbBlockReference
  2
_DOTBLANK
 10
-123.5
 20
51.83630134534229
 30
0.0
 41
12.0
 42
12.0
 43
12.0
 50
180.0
  0
INSERT
  5
1288
330
26BF
100
AcDbEntity
  8
NOTE
 62
     0
100
AcDbBlockReference
  2
_DOTBLANK
 10
123.5
 20
51.83630134534229
 30
0.0
 41
12.0
 42
12.0
 43
12.0
  0
INSERT
  5
1289
330
26BF
100
AcDbEntity
  8
0
100
AcDbBlockReference
  2
*U21
 10
0.0
 20
0.0
 30
0.0
  0
POINT
  5
128A
330
26BF
100
AcDbEntity
  8
DEFPOINTS
 62
     0
100
AcDbPoint
 10
-123.5
 20
-8.0
 30
0.0
  0
POINT
  5
128B
330
26BF
100
AcDbEntity
  8
DEFPOINTS
 62
     0
100
AcDbPoint
 10
123.5
 20
-8.0
 30
0.0
  0
POINT
  5
128C
330
26BF
100
AcDbEntity
  8
DEFPOINTS
 62
     0
100
AcDbPoint
 10
123.5
 20
51.83630134534229
 30
0.0
  0
ENDBLK
  5
1283
330
26BF
100
AcDbEntity
  8
0
100
AcDbBlockEnd
  0
BLOCK
  5
26C2
330
26C1
100
AcDbEntity
  8
0
100
AcDbBlockBegin
  2
*U21
 70
     1
 10
0.0
 20
0.0
 30
0.0
  3
*U21
  1

  0
TEXT
  5
1EF1
330
26C1
100
AcDbEntity
  8
NOTE
 62
     0
100
AcDbText
 10
-74.05714285714283
 20
61.83630134534229
 30
0.0
 40
64.0
  1
247
 41
0.9
100
AcDbText
  0
ENDBLK
  5
1EF3
330
26C1
100
AcDbEntity
  8
0
100
AcDbBlockEnd
  0
BLOCK
  5
26C4
330
26C3
100
AcDbEntity
  8
0
100
AcDbBlockBegin
  2
*D22
 70
     1
 10
0.0
 20
0.0
 30
0.0
  3
*D22
  1

  0
LINE
  5
1414
330
26C3
100
AcDbEntity
  8
SIZE
 62
     0
100
AcDbLine
 10
-22313.11521613997
 20
7365.702971374808
 30
0.0
 11
-22313.11521613997
 21
7217.685576144207
 31
0.0
  0
LINE
  5
1415
330
26C3
100
AcDbEntity
  8
SIZE
 62
     0
100
AcDbLine
 10
-22044.11521613997
 20
7365.702971374808
 30
0.0
 11
-22044.11521613997
 21
7217.685576144207
 31
0.0
  0
LINE
  5
1416
330
26C3
100
AcDbEntity
  8
SIZE
 62
     0
100
AcDbLine
 10
-22301.11521613997
 20
7237.685576144207
 30
0.0
 11
-22056.11521613997
 21
7237.685576144207
 31
0.0
  0
INSERT
  5
1417
330
26C3
100
AcDbEntity
  8
SIZE
 62
     0
100
AcDbBlockReference
  2
_DOTBLANK
 10
-22313.11521613997
 20
7237.685576144207
 30
0.0
 41
12.0
 42
12.0
 43
12.0
 50
180.0
  0
INSERT
  5
1418
330
26C3
100
AcDbEntity
  8
SIZE
 62
     0
100
AcDbBlockReference
  2
_DOTBLANK
 10
-22044.11521613997
 20
7237.685576144207
 30
0.0
 41
12.0
 42
12.0
 43
12.0
  0
INSERT
  5
1419
330
26C3
100
AcDbEntity
  8
0
100
AcDbBlockReference
  2
*U23
 10
0.0
 20
0.0
 30
0.0
  0
POINT
  5
141A
330
26C3
100
AcDbEntity
  8
DEFPOINTS
 62
     0
100
AcDbPoint
 10
-22313.11521613997
 20
7385.702971374808
 30
0.0
  0
POINT
  5
141B
330
26C3
100
AcDbEntity
  8
DEFPOINTS
 62
     0
100
AcDbPoint
 10
-22044.11521613997
 20
7385.702971374808
 30
0.0
  0
POINT
  5
141C
330
26C3
100
AcDbEntity
  8
DEFPOINTS
 62
     0
100
AcDbPoint
 10
-22044.11521613997
 20
7237.685576144207
 30
0.0
  0
ENDBLK
  5
141D
330
26C3
100
AcDbEntity
  8
0
100
AcDbBlockEnd
  0
BLOCK
  5
26C6
330
26C5
100
AcDbEntity
  8
0
100
AcDbBlockBegin
  2
*U23
 70
     1
 10
0.0
 20
0.0
 30
0.0
  3
*U23
  1

  0
TEXT
  5
1EF9
330
26C5
100
AcDbEntity
  8
SIZE
 62
     0
100
AcDbText
 10
-22251.30093042568
 20
7247.685576144205
 30
0.0
 40
64.0
  1
269
 41
0.9
100
AcDbText
  0
ENDBLK
  5
1EFB
330
26C5
100
AcDbEntity
  8
0
100
AcDbBlockEnd
  0
BLOCK
  5
26C8
330
26C7
100
AcDbEntity
  8
0
100
AcDbBlockBegin
  2
*D24
 70
     1
 10
0.0
 20
0.0
 30
0.0
  3
*D24
  1

  0
LINE
  5
1420
330
26C7
100
AcDbEntity
  8
SIZE
  6
Continuous
 62
     0
100
AcDbLine
 10
-22035.11521613997
 20
7385.702971374808
 30
0.0
 11
-21873.97193165959
 21
7385.702971374808
 31
0.0
  0
LINE
  5
1421
330
26C7
100
AcDbEntity
  8
SIZE
  6
Continuous
 62
     0
100
AcDbLine
 10
-22001.11521613997
 20
7685.702971374808
 30
0.0
 11
-21873.97193165959
 21
7685.702971374808
 31
0.0
  0
LINE
  5
1422
330
26C7
100
AcDbEntity
  8
SIZE
  6
Continuous
 62
     0
100
AcDbLine
 10
-21893.97193165959
 20
7397.702971374808
 30
0.0
 11
-21893.97193165959
 21
7673.702971374808
 31
0.0
  0
INSERT
  5
1423
330
26C7
100
AcDbEntity
  8
SIZE
  6
Continuous
 62
     0
100
AcDbBlockReference
  2
_DOTBLANK
 10
-21893.97193165959
 20
7385.702971374808
 30
0.0
 41
12.0
 42
12.0
 43
12.0
 50
270.0
  0
INSERT
  5
1424
330
26C7
100
AcDbEntity
  8
SIZE
  6
Continuous
 62
     0
100
AcDbBlockReference
  2
_DOTBLANK
 10
-21893.97193165959
 20
7685.702971374808
 30
0.0
 41
12.0
 42
12.0
 43
12.0
 50
90.0
  0
INSERT
  5
1425
330
26C7
100
AcDbEntity
  8
0
100
AcDbBlockReference
  2
*U25
 10
0.0
 20
0.0
 30
0.0
  0
POINT
  5
1426
330
26C7
100
AcDbEntity
  8
DEFPOINTS
  6
Continuous
 62
     0
100
AcDbPoint
 10
-22055.11521613997
 20
7385.702971374808
 30
0.0
  0
POINT
  5
1427
330
26C7
100
AcDbEntity
  8
DEFPOINTS
  6
Continuous
 62
     0
100
AcDbPoint
 10
-22021.11521613997
 20
7685.702971374808
 30
0.0
  0
POINT
  5
1428
330
26C7
100
AcDbEntity
  8
DEFPOINTS
  6
Continuous
 62
     0
100
AcDbPoint
 10
-21893.97193165959
 20
7685.702971374808
 30
0.0
  0
ENDBLK
  5
1429
330
26C7
100
AcDbEntity
  8
0
100
AcDbBlockEnd
  0
BLOCK
  5
26CA
330
26C9
100
AcDbEntity
  8
0
100
AcDbBlockBegin
  2
*U25
 70
     1
 10
0.0
 20
0.0
 30
0.0
  3
*U25
  1

  0
TEXT
  5
1EFD
330
26C9
100
AcDbEntity
  8
SIZE
 62
     0
100
AcDbText
 10
-21903.97193165959
 20
7461.645828517662
 30
0.0
 40
64.0
  1
300
 50
90.0
 41
0.9
100
AcDbText
  0
ENDBLK
  5
1EFF
330
26C9
100
AcDbEntity
  8
0
100
AcDbBlockEnd
  0
BLOCK
  5
26CC
330
26CB
100
AcDbEntity
  8
0
100
AcDbBlockBegin
  2
*D26
 70
     1
 10
0.0
 20
0.0
 30
0.0
  3
*D26
  1

  0
LINE
  5
142C
330
26CB
100
AcDbEntity
  8
SIZE
 62
     0
100
AcDbLine
 10
-22318.61521613997
 20
7718.167454177002
 30
0.0
 11
-22318.61521613997
 21
7822.154659243358
 31
0.0
  0
LINE
  5
142D
330
26CB
100
AcDbEntity
  8
SIZE
 62
     0
100
AcDbLine
 10
-22038.61521613997
 20
7718.167454177002
 30
0.0
 11
-22038.61521613997
 21
7822.154659243358
 31
0.0
  0
LINE
  5
142E
330
26CB
100
AcDbEntity
  8
SIZE
 62
     0
100
AcDbLine
 10
-22306.61521613997
 20
7802.154659243358
 30
0.0
 11
-22050.61521613997
 21
7802.154659243358
 31
0.0
  0
INSERT
  5
142F
330
26CB
100
AcDbEntity
  8
SIZE
 62
     0
100
AcDbBlockReference
  2
_DOTBLANK
 10
-22318.61521613997
 20
7802.154659243358
 30
0.0
 41
12.0
 42
12.0
 43
12.0
 50
180.0
  0
INSERT
  5
1430
330
26CB
100
AcDbEntity
  8
SIZE
 62
     0
100
AcDbBlockReference
  2
_DOTBLANK
 10
-22038.61521613997
 20
7802.154659243358
 30
0.0
 41
12.0
 42
12.0
 43
12.0
  0
INSERT
  5
1431
330
26CB
100
AcDbEntity
  8
0
100
AcDbBlockReference
  2
*U27
 10
0.0
 20
0.0
 30
0.0
  0
POINT
  5
1432
330
26CB
100
AcDbEntity
  8
DEFPOINTS
 62
     0
100
AcDbPoint
 10
-22318.61521613997
 20
7698.167454177002
 30
0.0
  0
POINT
  5
1433
330
26CB
100
AcDbEntity
  8
DEFPOINTS
 62
     0
100
AcDbPoint
 10
-22038.61521613997
 20
7698.167454177002
 30
0.0
  0
POINT
  5
1434
330
26CB
100
AcDbEntity
  8
DEFPOINTS
 62
     0
100
AcDbPoint
 10
-22038.61521613997
 20
7802.154659243358
 30
0.0
  0
ENDBLK
  5
1435
330
26CB
100
AcDbEntity
  8
0
100
AcDbBlockEnd
  0
BLOCK
  5
26CE
330
26CD
100
AcDbEntity
  8
0
100
AcDbBlockBegin
  2
*U27
 70
     1
 10
0.0
 20
0.0
 30
0.0
  3
*U27
  1

  0
TEXT
  5
1F01
330
26CD
100
AcDbEntity
  8
SIZE
 62
     0
100
AcDbText
 10
-22252.6723589971
 20
7812.154659243358
 30
0.0
 40
64.0
  1
280
 41
0.9
100
AcDbText
  0
ENDBLK
  5
1F03
330
26CD
100
AcDbEntity
  8
0
100
AcDbBlockEnd
  0
BLOCK
  5
26D0
330
26CF
100
AcDbEntity
  8
0
100
AcDbBlockBegin
  2
*D28
 70
     1
 10
0.0
 20
0.0
 30
0.0
  3
*D28
  1

  0
LINE
  5
1438
330
26CF
100
AcDbEntity
  8
SIZE
 62
     0
100
AcDbLine
 10
-22336.11521613997
 20
7705.702971374808
 30
0.0
 11
-22336.11521613997
 21
7931.282433493766
 31
0.0
  0
LINE
  5
1439
330
26CF
100
AcDbEntity
  8
SIZE
 62
     0
100
AcDbLine
 10
-22021.11521613997
 20
7705.702971374808
 30
0.0
 11
-22021.11521613997
 21
7931.282433493766
 31
0.0
  0
LINE
  5
143A
330
26CF
100
AcDbEntity
  8
SIZE
 62
     0
100
AcDbLine
 10
-22324.11521613997
 20
7911.282433493766
 30
0.0
 11
-22033.11521613997
 21
7911.282433493766
 31
0.0
  0
INSERT
  5
143B
330
26CF
100
AcDbEntity
  8
SIZE
 62
     0
100
AcDbBlockReference
  2
_DOTBLANK
 10
-22336.11521613997
 20
7911.282433493766
 30
0.0
 41
12.0
 42
12.0
 43
12.0
 50
180.0
  0
INSERT
  5
143C
330
26CF
100
AcDbEntity
  8
SIZE
 62
     0
100
AcDbBlockReference
  2
_DOTBLANK
 10
-22021.11521613997
 20
7911.282433493766
 30
0.0
 41
12.0
 42
12.0
 43
12.0
  0
INSERT
  5
143D
330
26CF
100
AcDbEntity
  8
0
100
AcDbBlockReference
  2
*U29
 10
0.0
 20
0.0
 30
0.0
  0
POINT
  5
143E
330
26CF
100
AcDbEntity
  8
DEFPOINTS
 62
     0
100
AcDbPoint
 10
-22336.11521613997
 20
7685.702971374808
 30
0.0
  0
POINT
  5
143F
330
26CF
100
AcDbEntity
  8
DEFPOINTS
 62
     0
100
AcDbPoint
 10
-22021.11521613997
 20
7685.702971374808
 30
0.0
  0
POINT
  5
1440
330
26CF
100
AcDbEntity
  8
DEFPOINTS
 62
     0
100
AcDbPoint
 10
-22021.11521613997
 20
7911.282433493766
 30
0.0
  0
ENDBLK
  5
1441
330
26CF
100
AcDbEntity
  8
0
100
AcDbBlockEnd
  0
BLOCK
  5
26D2
330
26D1
100
AcDbEntity
  8
0
100
AcDbBlockBegin
  2
*U29
 70
     1
 10
0.0
 20
0.0
 30
0.0
  3
*U29
  1

  0
TEXT
  5
1F05
330
26D1
100
AcDbEntity
  8
SIZE
 62
     0
100
AcDbText
 10
-22247.18664471139
 20
7921.282433493766
 30
0.0
 40
64.0
  1
315
 41
0.9
100
AcDbText
  0
ENDBLK
  5
1F07
330
26D1
100
AcDbEntity
  8
0
100
AcDbBlockEnd
  0
BLOCK
  5
26D4
330
26D3
100
AcDbEntity
  8
0
100
AcDbBlockBegin
  2
*D30
 70
     1
 10
0.0
 20
0.0
 30
0.0
  3
*D30
  1

  0
LINE
  5
166B
330
26D3
100
AcDbEntity
  8
SIZE
 62
     0
100
AcDbLine
 10
-134.5
 20
-320.0
 30
0.0
 11
-134.5
 21
-468.0173952306001
 31
0.0
  0
LINE
  5
166C
330
26D3
100
AcDbEntity
  8
SIZE
 62
     0
100
AcDbLine
 10
134.5
 20
-320.0
 30
0.0
 11
134.5
 21
-468.0173952306001
 31
0.0
  0
LINE
  5
166D
330
26D3
100
AcDbEntity
  8
SIZE
 62
     0
100
AcDbLine
 10
-122.5
 20
-448.0173952306
 30
0.0
 11
122.5
 21
-448.0173952306
 31
0.0
  0
INSERT
  5
166E
330
26D3
100
AcDbEntity
  8
SIZE
 62
     0
100
AcDbBlockReference
  2
_DOTBLANK
 10
-134.5
 20
-448.0173952306
 30
0.0
 41
12.0
 42
12.0
 43
12.0
 50
180.0
  0
INSERT
  5
166F
330
26D3
100
AcDbEntity
  8
SIZE
 62
     0
100
AcDbBlockReference
  2
_DOTBLANK
 10
134.5
 20
-448.0173952306
 30
0.0
 41
12.0
 42
12.0
 43
12.0
  0
INSERT
  5
1670
330
26D3
100
AcDbEntity
  8
0
100
AcDbBlockReference
  2
*U31
 10
0.0
 20
0.0
 30
0.0
  0
POINT
  5
1671
330
26D3
100
AcDbEntity
  8
DEFPOINTS
 62
     0
100
AcDbPoint
 10
-134.5
 20
-300.0
 30
0.0
  0
POINT
  5
1672
330
26D3
100
AcDbEntity
  8
DEFPOINTS
 62
     0
100
AcDbPoint
 10
134.5
 20
-300.0
 30
0.0
  0
POINT
  5
1673
330
26D3
100
AcDbEntity
  8
DEFPOINTS
 62
     0
100
AcDbPoint
 10
134.5
 20
-448.0173952306
 30
0.0
  0
ENDBLK
  5
14A7
330
26D3
100
AcDbEntity
  8
0
100
AcDbBlockEnd
  0
BLOCK
  5
26D6
330
26D5
100
AcDbEntity
  8
0
100
AcDbBlockBegin
  2
*U31
 70
     1
 10
0.0
 20
0.0
 30
0.0
  3
*U31
  1

  0
TEXT
  5
1F09
330
26D5
100
AcDbEntity
  8
SIZE
 62
     0
100
AcDbText
 10
-72.68571428571426
 20
-438.0173952306002
 30
0.0
 40
64.0
  1
269
 41
0.9
100
AcDbText
  0
ENDBLK
  5
1F0B
330
26D5
100
AcDbEntity
  8
0
100
AcDbBlockEnd
  0
BLOCK
  5
26D8
330
26D7
100
AcDbEntity
  8
0
100
AcDbBlockBegin
  2
*D32
 70
     1
 10
0.0
 20
0.0
 30
0.0
  3
*D32
  1

  0
LINE
  5
1674
330
26D7
100
AcDbEntity
  8
SIZE
  6
Continuous
 62
     0
100
AcDbLine
 10
143.5
 20
-300.0
 30
0.0
 11
304.6432844803784
 21
-300.0
 31
0.0
  0
LINE
  5
1675
330
26D7
100
AcDbEntity
  8
SIZE
  6
Continuous
 62
     0
100
AcDbLine
 10
177.5
 20
-0.0000000000000057
 30
0.0
 11
304.6432844803785
 21
-0.0000000000000417
 31
0.0
  0
LINE
  5
1676
330
26D7
100
AcDbEntity
  8
SIZE
  6
Continuous
 62
     0
100
AcDbLine
 10
284.6432844803784
 20
-288.0000000000001
 30
0.0
 11
284.6432844803785
 21
-12.00000000000003
 31
0.0
  0
INSERT
  5
1677
330
26D7
100
AcDbEntity
  8
SIZE
  6
Continuous
 62
     0
100
AcDbBlockReference
  2
_DOTBLANK
 10
284.6432844803784
 20
-300.0
 30
0.0
 41
12.0
 42
12.0
 43
12.0
 50
270.0
  0
INSERT
  5
1678
330
26D7
100
AcDbEntity
  8
SIZE
  6
Continuous
 62
     0
100
AcDbBlockReference
  2
_DOTBLANK
 10
284.6432844803785
 20
-0.000000000000036
 30
0.0
 41
12.0
 42
12.0
 43
12.0
 50
90.0
  0
INSERT
  5
1679
330
26D7
100
AcDbEntity
  8
0
100
AcDbBlockReference
  2
*U33
 10
0.0
 20
0.0
 30
0.0
  0
POINT
  5
167A
330
26D7
100
AcDbEntity
  8
DEFPOINTS
  6
Continuous
 62
     0
100
AcDbPoint
 10
123.5
 20
-300.0
 30
0.0
  0
POINT
  5
167B
330
26D7
100
AcDbEntity
  8
DEFPOINTS
  6
Continuous
 62
     0
100
AcDbPoint
 10
157.5
 20
0.0
 30
0.0
  0
POINT
  5
167C
330
26D7
100
AcDbEntity
  8
DEFPOINTS
  6
Continuous
 62
     0
100
AcDbPoint
 10
284.6432844803785
 20
-0.000000000000036
 30
0.0
  0
ENDBLK
  5
14B3
330
26D7
100
AcDbEntity
  8
0
100
AcDbBlockEnd
  0
BLOCK
  5
26DA
330
26D9
100
AcDbEntity
  8
0
100
AcDbBlockBegin
  2
*U33
 70
     1
 10
0.0
 20
0.0
 30
0.0
  3
*U33
  1

  0
TEXT
  5
1F0D
330
26D9
100
AcDbEntity
  8
SIZE
 62
     0
100
AcDbText
 10
274.6432844803785
 20
-224.0571428571429
 30
0.0
 40
64.0
  1
300
 50
90.0
 41
0.9
100
AcDbText
  0
ENDBLK
  5
1F0F
330
26D9
100
AcDbEntity
  8
0
100
AcDbBlockEnd
  0
BLOCK
  5
26DC
330
26DB
100
AcDbEntity
  8
0
100
AcDbBlockBegin
  2
*D34
 70
     1
 10
0.0
 20
0.0
 30
0.0
  3
*D34
  1

  0
LINE
  5
167D
330
26DB
100
AcDbEntity
  8
SIZE
 62
     0
100
AcDbLine
 10
-140.0
 20
32.46448280219375
 30
0.0
 11
-140.0
 21
136.4516878685507
 31
0.0
  0
LINE
  5
167E
330
26DB
100
AcDbEntity
  8
SIZE
 62
     0
100
AcDbLine
 10
140.0
 20
32.46448280219375
 30
0.0
 11
140.0
 21
136.4516878685507
 31
0.0
  0
LINE
  5
167F
330
26DB
100
AcDbEntity
  8
SIZE
 62
     0
100
AcDbLine
 10
-128.0
 20
116.4516878685508
 30
0.0
 11
128.0
 21
116.4516878685508
 31
0.0
  0
INSERT
  5
1680
330
26DB
100
AcDbEntity
  8
SIZE
 62
     0
100
AcDbBlockReference
  2
_DOTBLANK
 10
-140.0
 20
116.4516878685508
 30
0.0
 41
12.0
 42
12.0
 43
12.0
 50
180.0
  0
INSERT
  5
1681
330
26DB
100
AcDbEntity
  8
SIZE
 62
     0
100
AcDbBlockReference
  2
_DOTBLANK
 10
140.0
 20
116.4516878685508
 30
0.0
 41
12.0
 42
12.0
 43
12.0
  0
INSERT
  5
1682
330
26DB
100
AcDbEntity
  8
0
100
AcDbBlockReference
  2
*U35
 10
0.0
 20
0.0
 30
0.0
  0
POINT
  5
1683
330
26DB
100
AcDbEntity
  8
DEFPOINTS
 62
     0
100
AcDbPoint
 10
-140.0
 20
12.46448280219374
 30
0.0
  0
POINT
  5
1684
330
26DB
100
AcDbEntity
  8
DEFPOINTS
 62
     0
100
AcDbPoint
 10
140.0
 20
12.46448280219374
 30
0.0
  0
POINT
  5
1685
330
26DB
100
AcDbEntity
  8
DEFPOINTS
 62
     0
100
AcDbPoint
 10
140.0
 20
116.4516878685508
 30
0.0
  0
ENDBLK
  5
14BF
330
26DB
100
AcDbEntity
  8
0
100
AcDbBlockEnd
  0
BLOCK
  5
26DE
330
26DD
100
AcDbEntity
  8
0
100
AcDbBlockBegin
  2
*U35
 70
     1
 10
0.0
 20
0.0
 30
0.0
  3
*U35
  1

  0
TEXT
  5
1F11
330
26DD
100
AcDbEntity
  8
SIZE
 62
     0
100
AcDbText
 10
-74.05714285714283
 20
126.4516878685507
 30
0.0
 40
64.0
  1
280
 41
0.9
100
AcDbText
  0
ENDBLK
  5
1F13
330
26DD
100
AcDbEntity
  8
0
100
AcDbBlockEnd
  0
BLOCK
  5
26E0
330
26DF
100
AcDbEntity
  8
0
100
AcDbBlockBegin
  2
*D36
 70
     1
 10
0.0
 20
0.0
 30
0.0
  3
*D36
  1

  0
LINE
  5
1686
330
26DF
100
AcDbEntity
  8
SIZE
 62
     0
100
AcDbLine
 10
-157.5
 20
20.0
 30
0.0
 11
-157.5
 21
245.5794621189598
 31
0.0
  0
LINE
  5
1687
330
26DF
100
AcDbEntity
  8
SIZE
 62
     0
100
AcDbLine
 10
157.5
 20
20.0
 30
0.0
 11
157.5
 21
245.5794621189598
 31
0.0
  0
LINE
  5
1688
330
26DF
100
AcDbEntity
  8
SIZE
 62
     0
100
AcDbLine
 10
-145.5
 20
225.5794621189598
 30
0.0
 11
145.5
 21
225.5794621189598
 31
0.0
  0
INSERT
  5
1689
330
26DF
100
AcDbEntity
  8
SIZE
 62
     0
100
AcDbBlockReference
  2
_DOTBLANK
 10
-157.5
 20
225.5794621189598
 30
0.0
 41
12.0
 42
12.0
 43
12.0
 50
180.0
  0
INSERT
  5
168A
330
26DF
100
AcDbEntity
  8
SIZE
 62
     0
100
AcDbBlockReference
  2
_DOTBLANK
 10
157.5
 20
225.5794621189598
 30
0.0
 41
12.0
 42
12.0
 43
12.0
  0
INSERT
  5
168B
330
26DF
100
AcDbEntity
  8
0
100
AcDbBlockReference
  2
*U37
 10
0.0
 20
0.0
 30
0.0
  0
POINT
  5
168C
330
26DF
100
AcDbEntity
  8
DEFPOINTS
 62
     0
100
AcDbPoint
 10
-157.5
 20
0.0
 30
0.0
  0
POINT
  5
168D
330
26DF
100
AcDbEntity
  8
DEFPOINTS
 62
     0
100
AcDbPoint
 10
157.5
 20
0.0
 30
0.0
  0
POINT
  5
168E
330
26DF
100
AcDbEntity
  8
DEFPOINTS
 62
     0
100
AcDbPoint
 10
157.5
 20
225.5794621189598
 30
0.0
  0
ENDBLK
  5
14CB
330
26DF
100
AcDbEntity
  8
0
100
AcDbBlockEnd
  0
BLOCK
  5
26E2
330
26E1
100
AcDbEntity
  8
0
100
AcDbBlockBegin
  2
*U37
 70
     1
 10
0.0
 20
0.0
 30
0.0
  3
*U37
  1

  0
TEXT
  5
1F15
330
26E1
100
AcDbEntity
  8
SIZE
 62
     0
100
AcDbText
 10
-68.57142857142857
 20
235.5794621189598
 30
0.0
 40
64.0
  1
315
 41
0.9
100
AcDbText
  0
ENDBLK
  5
1F17
330
26E1
100
AcDbEntity
  8
0
100
AcDbBlockEnd
  0
BLOCK
  5
26E4
330
26E3
100
AcDbEntity
  8
0
100
AcDbBlockBegin
  2
*U38
 70
     1
 10
0.0
 20
0.0
 30
0.0
  3
*U38
  1

  0
ENDBLK
  5
15CF
330
26E3
100
AcDbEntity
  8
0
100
AcDbBlockEnd
  0
BLOCK
  5
26E6
330
26E5
100
AcDbEntity
  8
0
100
AcDbBlockBegin
  2
*D39
 70
     1
 10
0.0
 20
0.0
 30
0.0
  3
*D39
  1

  0
LINE
  5
1692
330
26E5
100
AcDbEntity
  8
SIZE
 62
     0
100
AcDbLine
 10
-25844.51823276502
 20
7685.702971374808
 30
0.0
 11
-25981.04465488371
 21
7685.702971374808
 31
0.0
  0
LINE
  5
1693
330
26E5
100
AcDbEntity
  8
SIZE
 62
     0
100
AcDbLine
 10
-25844.51823276502
 20
7677.702971374808
 30
0.0
 11
-25981.04465488371
 21
7677.702971374808
 31
0.0
  0
LINE
  5
1694
330
26E5
100
AcDbEntity
  8
SIZE
 62
     0
100
AcDbLine
 10
-25961.04465488371
 20
7697.702971374808
 30
0.0
 11
-25961.04465488371
 21
7709.702971374809
 31
0.0
  0
LINE
  5
1695
330
26E5
100
AcDbEntity
  8
SIZE
 62
     0
100
AcDbLine
 10
-25961.04465488371
 20
7665.70297137481
 30
0.0
 11
-25961.04465488371
 21
7595.302971374808
 31
0.0
  0
INSERT
  5
1696
330
26E5
100
AcDbEntity
  8
SIZE
 62
     0
100
AcDbBlockReference
  2
_DOTBLANK
 10
-25961.04465488371
 20
7685.702971374808
 30
0.0
 41
12.0
 42
12.0
 43
12.0
 50
270.0
  0
INSERT
  5
1697
330
26E5
100
AcDbEntity
  8
SIZE
 62
     0
100
AcDbBlockReference
  2
_DOTBLANK
 10
-25961.04465488371
 20
7677.702971374808
 30
0.0
 41
12.0
 42
12.0
 43
12.0
 50
90.0
  0
INSERT
  5
1698
330
26E5
100
AcDbEntity
  8
0
100
AcDbBlockReference
  2
*U40
 10
0.0
 20
0.0
 30
0.0
  0
POINT
  5
1699
330
26E5
100
AcDbEntity
  8
DEFPOINTS
 62
     0
100
AcDbPoint
 10
-25824.51823276501
 20
7685.702971374808
 30
0.0
  0
POINT
  5
169A
330
26E5
100
AcDbEntity
  8
DEFPOINTS
 62
     0
100
AcDbPoint
 10
-25824.51823276501
 20
7677.702971374808
 30
0.0
  0
POINT
  5
169B
330
26E5
100
AcDbEntity
  8
DEFPOINTS
 62
     0
100
AcDbPoint
 10
-25961.04465488371
 20
7677.702971374808
 30
0.0
  0
ENDBLK
  5
169C
330
26E5
100
AcDbEntity
  8
0
100
AcDbBlockEnd
  0
BLOCK
  5
26E8
330
26E7
100
AcDbEntity
  8
0
100
AcDbBlockBegin
  2
*U40
 70
     1
 10
0.0
 20
0.0
 30
0.0
  3
*U40
  1

  0
TEXT
  5
1F19
330
26E7
100
AcDbEntity
  8
SIZE
 62
     0
100
AcDbText
 10
-25971.04465488371
 20
7605.302971374804
 30
0.0
 40
64.0
  1
8
 50
90.0
 41
0.9
100
AcDbText
  0
ENDBLK
  5
1F1B
330
26E7
100
AcDbEntity
  8
0
100
AcDbBlockEnd
  0
BLOCK
  5
26EA
330
26E9
100
AcDbEntity
  8
0
100
AcDbBlockBegin
  2
*D41
 70
     1
 10
0.0
 20
0.0
 30
0.0
  3
*D41
  1

  0
LINE
  5
169F
330
26E9
100
AcDbEntity
  8
SIZE
 62
     0
100
AcDbLine
 10
-25512.51823276502
 20
7385.702971374808
 30
0.0
 11
-25362.37494828464
 21
7385.702971374808
 31
0.0
  0
LINE
  5
16A0
330
26E9
100
AcDbEntity
  8
SIZE
 62
     0
100
AcDbLine
 10
-25523.51823276501
 20
7373.702971374808
 30
0.0
 11
-25362.37494828464
 21
7373.702971374808
 31
0.0
  0
LINE
  5
16A1
330
26E9
100
AcDbEntity
  8
SIZE
 62
     0
100
AcDbLine
 10
-25382.37494828464
 20
7397.702971374808
 30
0.0
 11
-25382.37494828464
 21
7409.70297137481
 31
0.0
  0
LINE
  5
16A2
330
26E9
100
AcDbEntity
  8
SIZE
 62
     0
100
AcDbLine
 10
-25382.37494828464
 20
7361.702971374808
 30
0.0
 11
-25382.37494828464
 21
7244.674399946238
 31
0.0
  0
INSERT
  5
16A3
330
26E9
100
AcDbEntity
  8
SIZE
 62
     0
100
AcDbBlockReference
  2
_DOTBLANK
 10
-25382.37494828464
 20
7385.702971374808
 30
0.0
 41
12.0
 42
12.0
 43
12.0
 50
270.0
  0
INSERT
  5
16A4
330
26E9
100
AcDbEntity
  8
SIZE
 62
     0
100
AcDbBlockReference
  2
_DOTBLANK
 10
-25382.37494828464
 20
7373.702971374808
 30
0.0
 41
12.0
 42
12.0
 43
12.0
 50
90.0
  0
INSERT
  5
16A5
330
26E9
100
AcDbEntity
  8
0
100
AcDbBlockReference
  2
*U42
 10
0.0
 20
0.0
 30
0.0
  0
POINT
  5
16A6
330
26E9
100
AcDbEntity
  8
DEFPOINTS
 62
     0
100
AcDbPoint
 10
-25532.51823276502
 20
7385.702971374808
 30
0.0
  0
POINT
  5
16A7
330
26E9
100
AcDbEntity
  8
DEFPOINTS
 62
     0
100
AcDbPoint
 10
-25543.51823276502
 20
7373.702971374808
 30
0.0
  0
POINT
  5
16A8
330
26E9
100
AcDbEntity
  8
DEFPOINTS
 62
     0
100
AcDbPoint
 10
-25382.37494828464
 20
7373.702971374808
 30
0.0
  0
ENDBLK
  5
16A9
330
26E9
100
AcDbEntity
  8
0
100
AcDbBlockEnd
  0
BLOCK
  5
26EC
330
26EB
100
AcDbEntity
  8
0
100
AcDbBlockBegin
  2
*U42
 70
     1
 10
0.0
 20
0.0
 30
0.0
  3
*U42
  1

  0
TEXT
  5
1F1D
330
26EB
100
AcDbEntity
  8
SIZE
 62
     0
100
AcDbText
 10
-25392.37494828464
 20
7256.045828517662
 30
0.0
 40
64.0
  1
12
 50
90.0
 41
0.9
100
AcDbText
  0
ENDBLK
  5
1F1F
330
26EB
100
AcDbEntity
  8
0
100
AcDbBlockEnd
  0
BLOCK
  5
26EE
330
26ED
100
AcDbEntity
  8
0
100
AcDbBlockBegin
  2
*D43
 70
     1
 10
0.0
 20
0.0
 30
0.0
  3
*D43
  1

  0
LINE
  5
16AC
330
26ED
100
AcDbEntity
  8
SIZE
 62
     0
100
AcDbLine
 10
-25801.51823276501
 20
7365.702971374808
 30
0.0
 11
-25801.51823276501
 21
7217.685576144207
 31
0.0
  0
LINE
  5
16AD
330
26ED
100
AcDbEntity
  8
SIZE
 62
     0
100
AcDbLine
 10
-25532.51823276502
 20
7365.702971374808
 30
0.0
 11
-25532.51823276502
 21
7217.685576144207
 31
0.0
  0
LINE
  5
16AE
330
26ED
100
AcDbEntity
  8
SIZE
 62
     0
100
AcDbLine
 10
-25789.51823276502
 20
7237.685576144207
 30
0.0
 11
-25544.51823276501
 21
7237.685576144207
 31
0.0
  0
INSERT
  5
16AF
330
26ED
100
AcDbEntity
  8
SIZE
 62
     0
100
AcDbBlockReference
  2
_DOTBLANK
 10
-25801.51823276501
 20
7237.685576144207
 30
0.0
 41
12.0
 42
12.0
 43
12.0
 50
180.0
  0
INSERT
  5
16B0
330
26ED
100
AcDbEntity
  8
SIZE
 62
     0
100
AcDbBlockReference
  2
_DOTBLANK
 10
-25532.51823276502
 20
7237.685576144207
 30
0.0
 41
12.0
 42
12.0
 43
12.0
  0
INSERT
  5
16B1
330
26ED
100
AcDbEntity
  8
0
100
AcDbBlockReference
  2
*U44
 10
0.0
 20
0.0
 30
0.0
  0
POINT
  5
16B2
330
26ED
100
AcDbEntity
  8
DEFPOINTS
 62
     0
100
AcDbPoint
 10
-25801.51823276501
 20
7385.702971374808
 30
0.0
  0
POINT
  5
16B3
330
26ED
100
AcDbEntity
  8
DEFPOINTS
 62
     0
100
AcDbPoint
 10
-25532.51823276502
 20
7385.702971374808
 30
0.0
  0
POINT
  5
16B4
330
26ED
100
AcDbEntity
  8
DEFPOINTS
 62
     0
100
AcDbPoint
 10
-25532.51823276502
 20
7237.685576144207
 30
0.0
  0
ENDBLK
  5
16B5
330
26ED
100
AcDbEntity
  8
0
100
AcDbBlockEnd
  0
BLOCK
  5
26F0
330
26EF
100
AcDbEntity
  8
0
100
AcDbBlockBegin
  2
*U44
 70
     1
 10
0.0
 20
0.0
 30
0.0
  3
*U44
  1

  0
TEXT
  5
1F21
330
26EF
100
AcDbEntity
  8
SIZE
 62
     0
100
AcDbText
 10
-25739.70394705074
 20
7247.685576144205
 30
0.0
 40
64.0
  1
269
 41
0.9
100
AcDbText
  0
ENDBLK
  5
1F23
330
26EF
100
AcDbEntity
  8
0
100
AcDbBlockEnd
  0
BLOCK
  5
26F2
330
26F1
100
AcDbEntity
  8
0
100
AcDbBlockBegin
  2
*D45
 70
     1
 10
0.0
 20
0.0
 30
0.0
  3
*D45
  1

  0
LINE
  5
16B8
330
26F1
100
AcDbEntity
  8
SIZE
 62
     0
100
AcDbLine
 10
-25512.51823276502
 20
7385.702971374808
 30
0.0
 11
-25362.37494828464
 21
7385.702971374808
 31
0.0
  0
LINE
  5
16B9
330
26F1
100
AcDbEntity
  8
SIZE
 62
     0
100
AcDbLine
 10
-25489.51823276501
 20
7685.702971374808
 30
0.0
 11
-25362.37494828464
 21
7685.702971374808
 31
0.0
  0
LINE
  5
16BA
330
26F1
100
AcDbEntity
  8
SIZE
 62
     0
100
AcDbLine
 10
-25382.37494828464
 20
7397.702971374808
 30
0.0
 11
-25382.37494828464
 21
7673.702971374808
 31
0.0
  0
INSERT
  5
16BB
330
26F1
100
AcDbEntity
  8
SIZE
 62
     0
100
AcDbBlockReference
  2
_DOTBLANK
 10
-25382.37494828464
 20
7385.702971374808
 30
0.0
 41
12.0
 42
12.0
 43
12.0
 50
270.0
  0
INSERT
  5
16BC
330
26F1
100
AcDbEntity
  8
SIZE
 62
     0
100
AcDbBlockReference
  2
_DOTBLANK
 10
-25382.37494828464
 20
7685.702971374808
 30
0.0
 41
12.0
 42
12.0
 43
12.0
 50
90.0
  0
INSERT
  5
16BD
330
26F1
100
AcDbEntity
  8
0
100
AcDbBlockReference
  2
*U46
 10
0.0
 20
0.0
 30
0.0
  0
POINT
  5
16BE
330
26F1
100
AcDbEntity
  8
DEFPOINTS
 62
     0
100
AcDbPoint
 10
-25532.51823276502
 20
7385.702971374808
 30
0.0
  0
POINT
  5
16BF
330
26F1
100
AcDbEntity
  8
DEFPOINTS
 62
     0
100
AcDbPoint
 10
-25509.51823276502
 20
7685.702971374808
 30
0.0
  0
POINT
  5
16C0
330
26F1
100
AcDbEntity
  8
DEFPOINTS
 62
     0
100
AcDbPoint
 10
-25382.37494828464
 20
7685.702971374808
 30
0.0
  0
ENDBLK
  5
16C1
330
26F1
100
AcDbEntity
  8
0
100
AcDbBlockEnd
  0
BLOCK
  5
26F4
330
26F3
100
AcDbEntity
  8
0
100
AcDbBlockBegin
  2
*U46
 70
     1
 10
0.0
 20
0.0
 30
0.0
  3
*U46
  1

  0
TEXT
  5
1F25
330
26F3
100
AcDbEntity
  8
SIZE
 62
     0
100
AcDbText
 10
-25392.37494828464
 20
7461.645828517662
 30
0.0
 40
64.0
  1
300
 50
90.0
 41
0.9
100
AcDbText
  0
ENDBLK
  5
1F27
330
26F3
100
AcDbEntity
  8
0
100
AcDbBlockEnd
  0
BLOCK
  5
26F6
330
26F5
100
AcDbEntity
  8
0
100
AcDbBlockBegin
  2
*D47
 70
     1
 10
0.0
 20
0.0
 30
0.0
  3
*D47
  1

  0
LINE
  5
16C4
330
26F5
100
AcDbEntity
  8
SIZE
 62
     0
100
AcDbLine
 10
-25807.01823276501
 20
7718.167454177002
 30
0.0
 11
-25807.01823276501
 21
7822.154659243358
 31
0.0
  0
LINE
  5
16C5
330
26F5
100
AcDbEntity
  8
SIZE
 62
     0
100
AcDbLine
 10
-25527.01823276501
 20
7718.167454177002
 30
0.0
 11
-25527.01823276501
 21
7822.154659243358
 31
0.0
  0
LINE
  5
16C6
330
26F5
100
AcDbEntity
  8
SIZE
 62
     0
100
AcDbLine
 10
-25795.01823276502
 20
7802.154659243358
 30
0.0
 11
-25539.01823276501
 21
7802.154659243358
 31
0.0
  0
INSERT
  5
16C7
330
26F5
100
AcDbEntity
  8
SIZE
 62
     0
100
AcDbBlockReference
  2
_DOTBLANK
 10
-25807.01823276501
 20
7802.154659243358
 30
0.0
 41
12.0
 42
12.0
 43
12.0
 50
180.0
  0
INSERT
  5
16C8
330
26F5
100
AcDbEntity
  8
SIZE
 62
     0
100
AcDbBlockReference
  2
_DOTBLANK
 10
-25527.01823276501
 20
7802.154659243358
 30
0.0
 41
12.0
 42
12.0
 43
12.0
  0
INSERT
  5
16C9
330
26F5
100
AcDbEntity
  8
0
100
AcDbBlockReference
  2
*U48
 10
0.0
 20
0.0
 30
0.0
  0
POINT
  5
16CA
330
26F5
100
AcDbEntity
  8
DEFPOINTS
 62
     0
100
AcDbPoint
 10
-25807.01823276501
 20
7698.167454177002
 30
0.0
  0
POINT
  5
16CB
330
26F5
100
AcDbEntity
  8
DEFPOINTS
 62
     0
100
AcDbPoint
 10
-25527.01823276501
 20
7698.167454177002
 30
0.0
  0
POINT
  5
16CC
330
26F5
100
AcDbEntity
  8
DEFPOINTS
 62
     0
100
AcDbPoint
 10
-25527.01823276501
 20
7802.154659243358
 30
0.0
  0
ENDBLK
  5
16CD
330
26F5
100
AcDbEntity
  8
0
100
AcDbBlockEnd
  0
BLOCK
  5
26F8
330
26F7
100
AcDbEntity
  8
0
100
AcDbBlockBegin
  2
*U48
 70
     1
 10
0.0
 20
0.0
 30
0.0
  3
*U48
  1

  0
TEXT
  5
1F29
330
26F7
100
AcDbEntity
  8
SIZE
 62
     0
100
AcDbText
 10
-25741.07537562216
 20
7812.154659243358
 30
0.0
 40
64.0
  1
280
 41
0.9
100
AcDbText
  0
ENDBLK
  5
1F2B
330
26F7
100
AcDbEntity
  8
0
100
AcDbBlockEnd
  0
BLOCK
  5
26FA
330
26F9
100
AcDbEntity
  8
0
100
AcDbBlockBegin
  2
*D49
 70
     1
 10
0.0
 20
0.0
 30
0.0
  3
*D49
  1

  0
LINE
  5
16D0
330
26F9
100
AcDbEntity
  8
SIZE
 62
     0
100
AcDbLine
 10
-25824.51823276501
 20
7705.702971374808
 30
0.0
 11
-25824.51823276501
 21
7931.282433493766
 31
0.0
  0
LINE
  5
16D1
330
26F9
100
AcDbEntity
  8
SIZE
 62
     0
100
AcDbLine
 10
-25509.51823276502
 20
7705.702971374808
 30
0.0
 11
-25509.51823276502
 21
7931.282433493766
 31
0.0
  0
LINE
  5
16D2
330
26F9
100
AcDbEntity
  8
SIZE
 62
     0
100
AcDbLine
 10
-25812.51823276502
 20
7911.282433493766
 30
0.0
 11
-25521.51823276501
 21
7911.282433493766
 31
0.0
  0
INSERT
  5
16D3
330
26F9
100
AcDbEntity
  8
SIZE
 62
     0
100
AcDbBlockReference
  2
_DOTBLANK
 10
-25824.51823276501
 20
7911.282433493766
 30
0.0
 41
12.0
 42
12.0
 43
12.0
 50
180.0
  0
INSERT
  5
16D4
330
26F9
100
AcDbEntity
  8
SIZE
 62
     0
100
AcDbBlockReference
  2
_DOTBLANK
 10
-25509.51823276502
 20
7911.282433493766
 30
0.0
 41
12.0
 42
12.0
 43
12.0
  0
INSERT
  5
16D5
330
26F9
100
AcDbEntity
  8
0
100
AcDbBlockReference
  2
*U50
 10
0.0
 20
0.0
 30
0.0
  0
POINT
  5
16D6
330
26F9
100
AcDbEntity
  8
DEFPOINTS
 62
     0
100
AcDbPoint
 10
-25824.51823276501
 20
7685.702971374808
 30
0.0
  0
POINT
  5
16D7
330
26F9
100
AcDbEntity
  8
DEFPOINTS
 62
     0
100
AcDbPoint
 10
-25509.51823276502
 20
7685.702971374808
 30
0.0
  0
POINT
  5
16D8
330
26F9
100
AcDbEntity
  8
DEFPOINTS
 62
     0
100
AcDbPoint
 10
-25509.51823276502
 20
7911.282433493766
 30
0.0
  0
ENDBLK
  5
16D9
330
26F9
100
AcDbEntity
  8
0
100
AcDbBlockEnd
  0
BLOCK
  5
26FC
330
26FB
100
AcDbEntity
  8
0
100
AcDbBlockBegin
  2
*U50
 70
     1
 10
0.0
 20
0.0
 30
0.0
  3
*U50
  1

  0
TEXT
  5
1F2D
330
26FB
100
AcDbEntity
  8
SIZE
 62
     0
100
AcDbText
 10
-25735.58966133645
 20
7921.282433493766
 30
0.0
 40
64.0
  1
315
 41
0.9
100
AcDbText
  0
ENDBLK
  5
1F2F
330
26FB
100
AcDbEntity
  8
0
100
AcDbBlockEnd
  0
BLOCK
  5
26FE
330
26FD
100
AcDbEntity
  8
0
100
AcDbBlockBegin
  2
*D51
 70
     1
 10
0.0
 20
0.0
 30
0.0
  3
*D51
  1

  0
LINE
  5
1D83
330
26FD
100
AcDbEntity
  8
SIZE
 62
     0
100
AcDbLine
 10
-134.5
 20
-320.0
 30
0.0
 11
-134.5
 21
-468.0173952306001
 31
0.0
  0
LINE
  5
1D84
330
26FD
100
AcDbEntity
  8
SIZE
 62
     0
100
AcDbLine
 10
134.5
 20
-320.0
 30
0.0
 11
134.5
 21
-468.0173952306001
 31
0.0
  0
LINE
  5
1D85
330
26FD
100
AcDbEntity
  8
SIZE
 62
     0
100
AcDbLine
 10
-122.5
 20
-448.0173952306
 30
0.0
 11
122.5
 21
-448.0173952306
 31
0.0
  0
INSERT
  5
1D86
330
26FD
100
AcDbEntity
  8
SIZE
 62
     0
100
AcDbBlockReference
  2
_DOTBLANK
 10
-134.5
 20
-448.0173952306
 30
0.0
 41
12.0
 42
12.0
 43
12.0
 50
180.0
  0
INSERT
  5
1D87
330
26FD
100
AcDbEntity
  8
SIZE
 62
     0
100
AcDbBlockReference
  2
_DOTBLANK
 10
134.5
 20
-448.0173952306
 30
0.0
 41
12.0
 42
12.0
 43
12.0
  0
INSERT
  5
1D88
330
26FD
100
AcDbEntity
  8
0
100
AcDbBlockReference
  2
*U52
 10
0.0
 20
0.0
 30
0.0
  0
POINT
  5
1D89
330
26FD
100
AcDbEntity
  8
DEFPOINTS
 62
     0
100
AcDbPoint
 10
-134.5
 20
-300.0
 30
0.0
  0
POINT
  5
1D8A
330
26FD
100
AcDbEntity
  8
DEFPOINTS
 62
     0
100
AcDbPoint
 10
134.5
 20
-300.0
 30
0.0
  0
POINT
  5
1D8B
330
26FD
100
AcDbEntity
  8
DEFPOINTS
 62
     0
100
AcDbPoint
 10
134.5
 20
-448.0173952306
 30
0.0
  0
ENDBLK
  5
173D
330
26FD
100
AcDbEntity
  8
0
100
AcDbBlockEnd
  0
BLOCK
  5
2700
330
26FF
100
AcDbEntity
  8
0
100
AcDbBlockBegin
  2
*U52
 70
     1
 10
0.0
 20
0.0
 30
0.0
  3
*U52
  1

  0
TEXT
  5
1F31
330
26FF
100
AcDbEntity
  8
SIZE
 62
     0
100
AcDbText
 10
-72.68571428571426
 20
-438.0173952306003
 30
0.0
 40
64.0
  1
269
 41
0.9
100
AcDbText
  0
ENDBLK
  5
1F33
330
26FF
100
AcDbEntity
  8
0
100
AcDbBlockEnd
  0
BLOCK
  5
2702
330
2701
100
AcDbEntity
  8
0
100
AcDbBlockBegin
  2
*D53
 70
     1
 10
0.0
 20
0.0
 30
0.0
  3
*D53
  1

  0
LINE
  5
1D8C
330
2701
100
AcDbEntity
  8
SIZE
 62
     0
100
AcDbLine
 10
154.5
 20
-300.0
 30
0.0
 11
304.6432844803784
 21
-300.0
 31
0.0
  0
LINE
  5
1D8D
330
2701
100
AcDbEntity
  8
SIZE
 62
     0
100
AcDbLine
 10
177.5
 20
-0.0000000000000057
 30
0.0
 11
304.6432844803785
 21
-0.0000000000000417
 31
0.0
  0
LINE
  5
1D8E
330
2701
100
AcDbEntity
  8
SIZE
 62
     0
100
AcDbLine
 10
284.6432844803784
 20
-288.0
 30
0.0
 11
284.6432844803785
 21
-12.00000000000003
 31
0.0
  0
INSERT
  5
1D8F
330
2701
100
AcDbEntity
  8
SIZE
 62
     0
100
AcDbBlockReference
  2
_DOTBLANK
 10
284.6432844803784
 20
-300.0
 30
0.0
 41
12.0
 42
12.0
 43
12.0
 50
270.0
  0
INSERT
  5
1D90
330
2701
100
AcDbEntity
  8
SIZE
 62
     0
100
AcDbBlockReference
  2
_DOTBLANK
 10
284.6432844803785
 20
-0.000000000000036
 30
0.0
 41
12.0
 42
12.0
 43
12.0
 50
90.0
  0
INSERT
  5
1D91
330
2701
100
AcDbEntity
  8
0
100
AcDbBlockReference
  2
*U54
 10
0.0
 20
0.0
 30
0.0
  0
POINT
  5
1D92
330
2701
100
AcDbEntity
  8
DEFPOINTS
 62
     0
100
AcDbPoint
 10
134.5
 20
-300.0
 30
0.0
  0
POINT
  5
1D93
330
2701
100
AcDbEntity
  8
DEFPOINTS
 62
     0
100
AcDbPoint
 10
157.5
 20
0.0
 30
0.0
  0
POINT
  5
1D94
330
2701
100
AcDbEntity
  8
DEFPOINTS
 62
     0
100
AcDbPoint
 10
284.6432844803785
 20
-0.000000000000036
 30
0.0
  0
ENDBLK
  5
1749
330
2701
100
AcDbEntity
  8
0
100
AcDbBlockEnd
  0
BLOCK
  5
2704
330
2703
100
AcDbEntity
  8
0
100
AcDbBlockBegin
  2
*U54
 70
     1
 10
0.0
 20
0.0
 30
0.0
  3
*U54
  1

  0
TEXT
  5
1F35
330
2703
100
AcDbEntity
  8
SIZE
 62
     0
100
AcDbText
 10
274.6432844803785
 20
-224.0571428571429
 30
0.0
 40
64.0
  1
300
 50
90.0
 41
0.9
100
AcDbText
  0
ENDBLK
  5
1F37
330
2703
100
AcDbEntity
  8
0
100
AcDbBlockEnd
  0
BLOCK
  5
2706
330
2705
100
AcDbEntity
  8
0
100
AcDbBlockBegin
  2
*D55
 70
     1
 10
0.0
 20
0.0
 30
0.0
  3
*D55
  1

  0
LINE
  5
1D95
330
2705
100
AcDbEntity
  8
SIZE
 62
     0
100
AcDbLine
 10
-140.0
 20
32.46448280219375
 30
0.0
 11
-140.0
 21
136.4516878685508
 31
0.0
  0
LINE
  5
1D96
330
2705
100
AcDbEntity
  8
SIZE
 62
     0
100
AcDbLine
 10
140.0
 20
32.46448280219375
 30
0.0
 11
140.0
 21
136.4516878685508
 31
0.0
  0
LINE
  5
1D97
330
2705
100
AcDbEntity
  8
SIZE
 62
     0
100
AcDbLine
 10
-128.0
 20
116.4516878685508
 30
0.0
 11
128.0
 21
116.4516878685508
 31
0.0
  0
INSERT
  5
1D98
330
2705
100
AcDbEntity
  8
SIZE
 62
     0
100
AcDbBlockReference
  2
_DOTBLANK
 10
-140.0
 20
116.4516878685508
 30
0.0
 41
12.0
 42
12.0
 43
12.0
 50
180.0
  0
INSERT
  5
1D99
330
2705
100
AcDbEntity
  8
SIZE
 62
     0
100
AcDbBlockReference
  2
_DOTBLANK
 10
140.0
 20
116.4516878685508
 30
0.0
 41
12.0
 42
12.0
 43
12.0
  0
INSERT
  5
1D9A
330
2705
100
AcDbEntity
  8
0
100
AcDbBlockReference
  2
*U56
 10
0.0
 20
0.0
 30
0.0
  0
POINT
  5
1D9B
330
2705
100
AcDbEntity
  8
DEFPOINTS
 62
     0
100
AcDbPoint
 10
-140.0
 20
12.46448280219374
 30
0.0
  0
POINT
  5
1D9C
330
2705
100
AcDbEntity
  8
DEFPOINTS
 62
     0
100
AcDbPoint
 10
140.0
 20
12.46448280219374
 30
0.0
  0
POINT
  5
1D9D
330
2705
100
AcDbEntity
  8
DEFPOINTS
 62
     0
100
AcDbPoint
 10
140.0
 20
116.4516878685508
 30
0.0
  0
ENDBLK
  5
1755
330
2705
100
AcDbEntity
  8
0
100
AcDbBlockEnd
  0
BLOCK
  5
2708
330
2707
100
AcDbEntity
  8
0
100
AcDbBlockBegin
  2
*U56
 70
     1
 10
0.0
 20
0.0
 30
0.0
  3
*U56
  1

  0
TEXT
  5
1F39
330
2707
100
AcDbEntity
  8
SIZE
 62
     0
100
AcDbText
 10
-74.05714285714283
 20
126.4516878685508
 30
0.0
 40
64.0
  1
280
 41
0.9
100
AcDbText
  0
ENDBLK
  5
1F3B
330
2707
100
AcDbEntity
  8
0
100
AcDbBlockEnd
  0
BLOCK
  5
270A
330
2709
100
AcDbEntity
  8
0
100
AcDbBlockBegin
  2
*D57
 70
     1
 10
0.0
 20
0.0
 30
0.0
  3
*D57
  1

  0
LINE
  5
1D9E
330
2709
100
AcDbEntity
  8
SIZE
 62
     0
100
AcDbLine
 10
-157.5
 20
20.0
 30
0.0
 11
-157.5
 21
245.5794621189598
 31
0.0
  0
LINE
  5
1D9F
330
2709
100
AcDbEntity
  8
SIZE
 62
     0
100
AcDbLine
 10
157.5
 20
20.0
 30
0.0
 11
157.5
 21
245.5794621189598
 31
0.0
  0
LINE
  5
1DA0
330
2709
100
AcDbEntity
  8
SIZE
 62
     0
100
AcDbLine
 10
-145.5
 20
225.5794621189598
 30
0.0
 11
145.5
 21
225.5794621189598
 31
0.0
  0
INSERT
  5
1DA1
330
2709
100
AcDbEntity
  8
SIZE
 62
     0
100
AcDbBlockReference
  2
_DOTBLANK
 10
-157.5
 20
225.5794621189598
 30
0.0
 41
12.0
 42
12.0
 43
12.0
 50
180.0
  0
INSERT
  5
1DA2
330
2709
100
AcDbEntity
  8
SIZE
 62
     0
100
AcDbBlockReference
  2
_DOTBLANK
 10
157.5
 20
225.5794621189598
 30
0.0
 41
12.0
 42
12.0
 43
12.0
  0
INSERT
  5
1DA3
330
2709
100
AcDbEntity
  8
0
100
AcDbBlockReference
  2
*U58
 10
0.0
 20
0.0
 30
0.0
  0
POINT
  5
1DA4
330
2709
100
AcDbEntity
  8
DEFPOINTS
 62
     0
100
AcDbPoint
 10
-157.5
 20
0.0
 30
0.0
  0
POINT
  5
1DA5
330
2709
100
AcDbEntity
  8
DEFPOINTS
 62
     0
100
AcDbPoint
 10
157.5
 20
0.0
 30
0.0
  0
POINT
  5
1DA6
330
2709
100
AcDbEntity
  8
DEFPOINTS
 62
     0
100
AcDbPoint
 10
157.5
 20
225.5794621189598
 30
0.0
  0
ENDBLK
  5
1761
330
2709
100
AcDbEntity
  8
0
100
AcDbBlockEnd
  0
BLOCK
  5
270C
330
270B
100
AcDbEntity
  8
0
100
AcDbBlockBegin
  2
*U58
 70
     1
 10
0.0
 20
0.0
 30
0.0
  3
*U58
  1

  0
TEXT
  5
1F3D
330
270B
100
AcDbEntity
  8
SIZE
 62
     0
100
AcDbText
 10
-68.57142857142857
 20
235.5794621189599
 30
0.0
 40
64.0
  1
315
 41
0.9
100
AcDbText
  0
ENDBLK
  5
1F3F
330
270B
100
AcDbEntity
  8
0
100
AcDbBlockEnd
  0
BLOCK
  5
270E
330
270D
100
AcDbEntity
  8
0
100
AcDbBlockBegin
  2
*D59
 70
     1
 10
0.0
 20
0.0
 30
0.0
  3
*D59
  1

  0
LINE
  5
1DA7
330
270D
100
AcDbEntity
  8
SIZE
 62
     0
100
AcDbLine
 10
-177.5
 20
0.0000000000000057
 30
0.0
 11
-314.0264221186908
 21
0.0000000000000443
 31
0.0
  0
LINE
  5
1DA8
330
270D
100
AcDbEntity
  8
SIZE
 62
     0
100
AcDbLine
 10
-177.5
 20
-7.999999999999993
 30
0.0
 11
-314.0264221186908
 21
-7.999999999999958
 31
0.0
  0
LINE
  5
1DA9
330
270D
100
AcDbEntity
  8
SIZE
 62
     0
100
AcDbLine
 10
-294.0264221186908
 20
12.00000000000003
 30
0.0
 11
-294.0264221186908
 21
24.00000000000004
 31
0.0
  0
LINE
  5
1DAA
330
270D
100
AcDbEntity
  8
SIZE
 62
     0
100
AcDbLine
 10
-294.0264221186908
 20
-19.99999999999996
 30
0.0
 11
-294.0264221186908
 21
-90.39999999999997
 31
0.0
  0
INSERT
  5
1DAB
330
270D
100
AcDbEntity
  8
SIZE
 62
     0
100
AcDbBlockReference
  2
_DOTBLANK
 10
-294.0264221186908
 20
0.0000000000000387
 30
0.0
 41
12.0
 42
12.0
 43
12.0
 50
270.0
  0
INSERT
  5
1DAC
330
270D
100
AcDbEntity
  8
SIZE
 62
     0
100
AcDbBlockReference
  2
_DOTBLANK
 10
-294.0264221186908
 20
-7.999999999999961
 30
0.0
 41
12.0
 42
12.0
 43
12.0
 50
90.0
  0
INSERT
  5
1DAD
330
270D
100
AcDbEntity
  8
0
100
AcDbBlockReference
  2
*U60
 10
0.0
 20
0.0
 30
0.0
  0
POINT
  5
1DAE
330
270D
100
AcDbEntity
  8
DEFPOINTS
 62
     0
100
AcDbPoint
 10
-157.5
 20
0.0
 30
0.0
  0
POINT
  5
1DAF
330
270D
100
AcDbEntity
  8
DEFPOINTS
 62
     0
100
AcDbPoint
 10
-157.5
 20
-8.000000000000003
 30
0.0
  0
POINT
  5
1DB0
330
270D
100
AcDbEntity
  8
DEFPOINTS
 62
     0
100
AcDbPoint
 10
-294.0264221186908
 20
-7.999999999999961
 30
0.0
  0
ENDBLK
  5
176D
330
270D
100
AcDbEntity
  8
0
100
AcDbBlockEnd
  0
BLOCK
  5
2710
330
270F
100
AcDbEntity
  8
0
100
AcDbBlockBegin
  2
*U60
 70
     1
 10
0.0
 20
0.0
 30
0.0
  3
*U60
  1

  0
TEXT
  5
1F41
330
270F
100
AcDbEntity
  8
SIZE
 62
     0
100
AcDbText
 10
-304.0264221186908
 20
-80.4
 30
0.0
 40
64.0
  1
8
 50
90.0
 41
0.9
100
AcDbText
  0
ENDBLK
  5
1F43
330
270F
100
AcDbEntity
  8
0
100
AcDbBlockEnd
  0
BLOCK
  5
2712
330
2711
100
AcDbEntity
  8
0
100
AcDbBlockBegin
  2
*D61
 70
     1
 10
0.0
 20
0.0
 30
0.0
  3
*D61
  1

  0
LINE
  5
1DB1
330
2711
100
AcDbEntity
  8
SIZE
 62
     0
100
AcDbLine
 10
154.5
 20
-300.0
 30
0.0
 11
304.6432844803785
 21
-300.0
 31
0.0
  0
LINE
  5
1DB2
330
2711
100
AcDbEntity
  8
SIZE
 62
     0
100
AcDbLine
 10
143.5
 20
-312.0
 30
0.0
 11
304.6432844803785
 21
-312.0
 31
0.0
  0
LINE
  5
1DB3
330
2711
100
AcDbEntity
  8
SIZE
 62
     0
100
AcDbLine
 10
284.6432844803785
 20
-288.0
 30
0.0
 11
284.6432844803785
 21
-276.0
 31
0.0
  0
LINE
  5
1DB4
330
2711
100
AcDbEntity
  8
SIZE
 62
     0
100
AcDbLine
 10
284.6432844803785
 20
-324.0000000000001
 30
0.0
 11
284.6432844803784
 21
-438.2857142857143
 31
0.0
  0
INSERT
  5
1DB5
330
2711
100
AcDbEntity
  8
SIZE
 62
     0
100
AcDbBlockReference
  2
_DOTBLANK
 10
284.6432844803785
 20
-300.0
 30
0.0
 41
12.0
 42
12.0
 43
12.0
 50
270.0
  0
INSERT
  5
1DB6
330
2711
100
AcDbEntity
  8
SIZE
 62
     0
100
AcDbBlockReference
  2
_DOTBLANK
 10
284.6432844803785
 20
-312.0
 30
0.0
 41
12.0
 42
12.0
 43
12.0
 50
90.0
  0
INSERT
  5
1DB7
330
2711
100
AcDbEntity
  8
0
100
AcDbBlockReference
  2
*U62
 10
0.0
 20
0.0
 30
0.0
  0
POINT
  5
1DB8
330
2711
100
AcDbEntity
  8
DEFPOINTS
 62
     0
100
AcDbPoint
 10
134.5
 20
-300.0
 30
0.0
  0
POINT
  5
1DB9
330
2711
100
AcDbEntity
  8
DEFPOINTS
 62
     0
100
AcDbPoint
 10
123.5
 20
-312.0
 30
0.0
  0
POINT
  5
1DBA
330
2711
100
AcDbEntity
  8
DEFPOINTS
 62
     0
100
AcDbPoint
 10
284.6432844803785
 20
-312.0
 30
0.0
  0
ENDBLK
  5
177B
330
2711
100
AcDbEntity
  8
0
100
AcDbBlockEnd
  0
BLOCK
  5
2714
330
2713
100
AcDbEntity
  8
0
100
AcDbBlockBegin
  2
*U62
 70
     1
 10
0.0
 20
0.0
 30
0.0
  3
*U62
  1

  0
TEXT
  5
1F45
330
2713
100
AcDbEntity
  8
SIZE
 62
     0
100
AcDbText
 10
274.6432844803785
 20
-428.2857142857142
 30
0.0
 40
64.0
  1
12
 50
90.0
 41
0.9
100
AcDbText
  0
ENDBLK
  5
1F47
330
2713
100
AcDbEntity
  8
0
100
AcDbBlockEnd
  0
BLOCK
  5
2716
330
2715
100
AcDbEntity
  8
0
100
AcDbBlockBegin
  2
*U63
 70
     1
 10
0.0
 20
0.0
 30
0.0
  3
*U63
  1

  0
ENDBLK
  5
1D57
330
2715
100
AcDbEntity
  8
0
100
AcDbBlockEnd
  0
BLOCK
  5
2718
330
2717
100
AcDbEntity
  8
0
100
AcDbBlockBegin
  2
*U64
 70
     1
 10
0.0
 20
0.0
 30
0.0
  3
*U64
  1

  0
INSERT
  5
2087
330
2717
100
AcDbEntity
  8
NOTE
100
AcDbBlockReference
  2
_OPEN30
 10
-400.0000000000071
 20
-0.0000000000068212
 30
0.0
 41
12.0
 42
12.0
 43
12.0
 50
312.6090116116895
  0
POLYLINE
  5
2088
330
2717
100
AcDbEntity
  8
NOTE
100
AcDb2dPolyline
 66
     1
 10
0.0
 20
0.0
 30
0.0
  0
VERTEX
  5
25C9
330
2088
100
AcDbEntity
  8
NOTE
100
AcDbVertex
100
AcDb2dVertex
 10
-408.1239008361966
 20
8.831887408908642
 30
0.0
  0
VERTEX
  5
25CA
330
2088
100
AcDbEntity
  8
NOTE
100
AcDbVertex
100
AcDb2dVertex
 10
-487.8693999922616
 20
95.52709505800651
 30
0.0
  0
VERTEX
  5
25CB
330
2088
100
AcDbEntity
  8
NOTE
100
AcDbVertex
100
AcDb2dVertex
 10
-1077.595114277976
 20
95.52709505800651
 30
0.0
  0
SEQEND
  5
25CC
330
2088
100
AcDbEntity
  8
NOTE
  0
ENDBLK
  5
2089
330
2717
100
AcDbEntity
  8
0
100
AcDbBlockEnd
  0
BLOCK
  5
271A
330
2719
100
AcDbEntity
  8
0
100
AcDbBlockBegin
  2
*U65
 70
     1
 10
0.0
 20
0.0
 30
0.0
  3
*U65
  1

  0
TEXT
  5
208C
330
2719
100
AcDbEntity
  8
NOTE
100
AcDbText
 10
-1077.595114277976
 20
113.5270950580065
 30
0.0
 40
64.0
  1
10×φ15取付穴
 41
0.9
100
AcDbText
  0
ENDBLK
  5
208D
330
2719
100
AcDbEntity
  8
0
100
AcDbBlockEnd
  0
BLOCK
  5
271C
330
271B
100
AcDbEntity
  8
0
100
AcDbBlockBegin
  2
*U66
 70
     1
 10
0.0
 20
0.0
 30
0.0
  3
*U66
  1

  0
INSERT
  5
230E
330
271B
100
AcDbEntity
  8
NOTE
100
AcDbBlockReference
  2
_OPEN30
 10
399.9999999999949
 20
400.0000000000026
 30
0.0
 41
12.0
 42
12.0
 43
12.0
 50
232.3258907693334
  0
POLYLINE
  5
230F
330
271B
100
AcDbEntity
  8
NOTE
100
AcDb2dPolyline
 66
     1
 10
0.0
 20
0.0
 30
0.0
  0
VERTEX
  5
25D9
330
230F
100
AcDbEntity
  8
NOTE
100
AcDbVertex
100
AcDb2dVertex
 10
407.3340332839396
 20
409.497997462099
 30
0.0
  0
VERTEX
  5
25DA
330
230F
100
AcDbEntity
  8
NOTE
100
AcDbVertex
100
AcDb2dVertex
 10
473.7628007872031
 20
495.5270950580151
 30
0.0
  0
VERTEX
  5
25DB
330
230F
100
AcDbEntity
  8
NOTE
100
AcDbVertex
100
AcDb2dVertex
 10
1063.488515072916
 20
495.5270950580151
 30
0.0
  0
SEQEND
  5
25DC
330
230F
100
AcDbEntity
  8
NOTE
  0
ENDBLK
  5
2310
330
271B
100
AcDbEntity
  8
0
100
AcDbBlockEnd
  0
BLOCK
  5
271E
330
271D
100
AcDbEntity
  8
0
100
AcDbBlockBegin
  2
*U67
 70
     1
 10
0.0
 20
0.0
 30
0.0
  3
*U67
  1

  0
TEXT
  5
2313
330
271D
100
AcDbEntity
  8
NOTE
100
AcDbText
 10
535.7628007872031
 20
513.5270950580152
 30
0.0
 40
64.0
  1
10×φ15取付穴
 41
0.9
100
AcDbText
  0
ENDBLK
  5
2314
330
271D
100
AcDbEntity
  8
0
100
AcDbBlockEnd
  0
ENDSEC
  0
SECTION
  2
ENTITIES
  0
TEXT
  5
953
330
2650
100
AcDbEntity
  8
OUTLINE
  6
Continuous
 62
     3
100
AcDbText
 10
-418.231467
 20
13.715189
 30
0.0
 40
64.0
  1
 
 41
0.9
100
AcDbText
  0
TEXT
  5
954
330
2650
100
AcDbEntity
  8
OUTLINE
  6
Continuous
 62
     3
100
AcDbText
 10
-418.231467
 20
13.715189
 30
0.0
 40
64.0
  1
 
 41
0.9
100
AcDbText
  0
TEXT
  5
955
330
2650
100
AcDbEntity
  8
OUTLINE
  6
Continuous
 62
     3
100
AcDbText
 10
1341.41903
 20
-706.0588199999997
 30
0.0
 40
64.0
  1
 
 41
0.9
100
AcDbText
  0
TEXT
  5
956
330
2650
100
AcDbEntity
  8
OUTLINE
  6
Continuous
 62
     3
100
AcDbText
 10
1341.41903
 20
-706.0588199999997
 30
0.0
 40
64.0
  1
 
 41
0.9
100
AcDbText
  0
TEXT
  5
957
330
2650
100
AcDbEntity
  8
OUTLINE
  6
Continuous
 62
     3
100
AcDbText
 10
1341.41903
 20
-706.0588199999997
 30
0.0
 40
64.0
  1
 
 41
0.9
100
AcDbText
  0
TEXT
  5
958
330
2650
100
AcDbEntity
  8
OUTLINE
  6
Continuous
 62
     3
100
AcDbText
 10
1341.41903
 20
-706.0588199999997
 30
0.0
 40
64.0
  1
 
 41
0.9
100
AcDbText
  0
CIRCLE
  5
246F
330
2650
100
AcDbEntity
  8
FIX
100
AcDbCircle
 10
399.9999999999996
 20
-399.9999999999964
 30
0.0
 40
7.5
  0
CIRCLE
  5
2470
330
2650
100
AcDbEntity
  8
FIX
100
AcDbCircle
 10
-400.0
 20
-399.9999999999964
 30
0.0
 40
7.5
  0
CIRCLE
  5
2471
330
2650
100
AcDbEntity
  8
FIX
100
AcDbCircle
 10
-400.0
 20
400.0000000000043
 30
0.0
 40
7.5
  0
CIRCLE
  5
2472
330
2650
100
AcDbEntity
  8
FIX
100
AcDbCircle
 10
399.9999999999996
 20
400.0000000000043
 30
0.0
 40
7.5
  0
LINE
  5
2473
330
2650
100
AcDbEntity
  8
DETAIL
100
AcDbLine
 10
-386.0
 20
-173.9999999999971
 30
0.0
 11
-386.0
 21
386.0000000000044
 31
0.0
  0
LINE
  5
2474
330
2650
100
AcDbEntity
  8
DETAIL
100
AcDbLine
 10
386.0
 20
386.0000000000044
 30
0.0
 11
386.0
 21
-173.9999999999971
 31
0.0
  0
LINE
  5
2475
330
2650
100
AcDbEntity
  8
DETAIL
100
AcDbLine
 10
424.9999999999994
 20
425.0000000000036
 30
0.0
 11
-425.0
 21
425.0000000000036
 31
0.0
  0
LINE
  5
2476
330
2650
100
AcDbEntity
  8
DETAIL
100
AcDbLine
 10
-425.0
 20
425.0000000000036
 30
0.0
 11
-425.0
 21
-424.9999999999963
 31
0.0
  0
LINE
  5
2477
330
2650
100
AcDbEntity
  8
DETAIL
100
AcDbLine
 10
386.0
 20
-424.9999999999963
 30
0.0
 11
424.9999999999994
 21
-424.9999999999963
 31
0.0
  0
LINE
  5
2478
330
2650
100
AcDbEntity
  8
DETAIL
100
AcDbLine
 10
-425.0
 20
-424.9999999999963
 30
0.0
 11
-386.0
 21
-424.9999999999963
 31
0.0
  0
LINE
  5
2479
330
2650
100
AcDbEntity
  8
DETAIL
100
AcDbLine
 10
424.9999999999994
 20
-424.9999999999963
 30
0.0
 11
424.9999999999994
 21
425.0000000000036
 31
0.0
  0
LINE
  5
247A
330
2650
100
AcDbEntity
  8
DETAIL
100
AcDbLine
 10
386.0
 20
-614.9999999999972
 30
0.0
 11
-386.0
 21
-614.9999999999972
 31
0.0
  0
LINE
  5
247B
330
2650
100
AcDbEntity
  8
DETAIL
100
AcDbLine
 10
-386.0
 20
-173.9999999999971
 30
0.0
 11
-386.0
 21
-614.9999999999972
 31
0.0
  0
LINE
  5
247C
330
2650
100
AcDbEntity
  8
DETAIL
100
AcDbLine
 10
386.0
 20
-614.9999999999972
 30
0.0
 11
386.0
 21
-173.9999999999971
 31
0.0
  0
LINE
  5
247D
330
2650
100
AcDbEntity
  8
DETAIL
100
AcDbLine
 10
386.0
 20
386.0000000000044
 30
0.0
 11
-386.0
 21
386.0000000000044
 31
0.0
  0
CIRCLE
  5
247E
330
2650
100
AcDbEntity
  8
ARRANGE
100
AcDbCircle
 10
0.0
 20
0.0
 30
0.0
 40
40.0
  0
LINE
  5
247F
330
2650
100
AcDbEntity
  8
ARRANGE
100
AcDbLine
 10
-14.31498655004179
 20
-14.31498655004816
 30
0.0
 11
14.31498655004907
 21
14.31498655004907
 31
0.0
  0
LINE
  5
2480
330
2650
100
AcDbEntity
  8
ARRANGE
100
AcDbLine
 10
14.31498655004907
 20
-14.31498655004816
 30
0.0
 11
-14.31498655004907
 21
14.3149865500518
 31
0.0
  0
LINE
  5
2481
330
2650
100
AcDbEntity
  8
BASIS
100
AcDbLine
 10
-450.0
 20
0.000000000003638
 30
0.0
 11
449.9999999999994
 21
0.0
 31
0.0
  0
LINE
  5
2482
330
2650
100
AcDbEntity
  8
BASIS
100
AcDbLine
 10
-0.0000001508306013
 20
450.0000000000036
 30
0.0
 11
-0.0000071167814895
 21
-754.6105056522881
 31
0.0
  0
CIRCLE
  5
2483
330
2650
100
AcDbEntity
  8
FIX
100
AcDbCircle
 10
-200.0
 20
400.0000000000043
 30
0.0
 40
7.5
  0
CIRCLE
  5
2484
330
2650
100
AcDbEntity
  8
FIX
100
AcDbCircle
 10
200.0
 20
400.0000000000043
 30
0.0
 40
7.5
  0
CIRCLE
  5
2485
330
2650
100
AcDbEntity
  8
FIX
100
AcDbCircle
 10
-400.0
 20
200.0000000000035
 30
0.0
 40
7.5
  0
CIRCLE
  5
2486
330
2650
100
AcDbEntity
  8
FIX
100
AcDbCircle
 10
-400.0
 20
-199.9999999999961
 30
0.0
 40
7.5
  0
CIRCLE
  5
2487
330
2650
100
AcDbEntity
  8
FIX
100
AcDbCircle
 10
399.9999999999996
 20
200.0000000000035
 30
0.0
 40
7.5
  0
CIRCLE
  5
2488
330
2650
100
AcDbEntity
  8
FIX
100
AcDbCircle
 10
399.9999999999996
 20
-199.9999999999961
 30
0.0
 40
7.5
  0
LINE
  5
2489
330
2650
100
AcDbEntity
  8
DETAIL
100
AcDbLine
 10
452.2022858888885
 20
-728.9257786166507
 30
0.0
 11
452.1610428832208
 21
-728.9505599145675
 31
0.0
  0
LINE
  5
248A
330
2650
100
AcDbEntity
  8
DETAIL
100
AcDbLine
 10
452.1610428832246
 20
-729.610505652286
 30
0.0
 11
451.1610428832246
 21
-729.610505652286
 31
0.0
  0
LINE
  5
248B
330
2650
100
AcDbEntity
  8
DETAIL
100
AcDbLine
 10
452.1610428832246
 20
-729.610505652286
 30
0.0
 11
452.1610428832246
 21
-769.6094645788415
 31
0.0
  0
LINE
  5
248C
330
2650
100
AcDbEntity
  8
DETAIL
100
AcDbLine
 10
451.1610428832246
 20
-769.6094645788415
 30
0.0
 11
452.1610428832246
 21
-769.6094645788415
 31
0.0
  0
LINE
  5
248D
330
2650
100
AcDbEntity
  8
DETAIL
100
AcDbLine
 10
451.1610428832246
 20
-729.610505652286
 30
0.0
 11
451.1610428832246
 21
-769.6094645788415
 31
0.0
  0
LINE
  5
248E
330
2650
100
AcDbEntity
  8
DETAIL
100
AcDbLine
 10
452.1610428832208
 20
-729.5093098606571
 30
0.0
 11
463.1569307829299
 21
-729.5072324563534
 31
0.0
  0
LINE
  5
248F
330
2650
100
AcDbEntity
  8
DETAIL
100
AcDbLine
 10
464.1827650562153
 20
-729.5142558993549
 30
0.0
 11
452.1610428832246
 21
-729.5165271099756
 31
0.0
  0
LINE
  5
2490
330
2650
100
AcDbEntity
  8
DETAIL
100
AcDbLine
 10
-452.1610571167801
 20
-769.6094645788415
 30
0.0
 11
-451.1610571167802
 21
-769.6094645788415
 31
0.0
  0
LINE
  5
2491
330
2650
100
AcDbEntity
  8
DETAIL
100
AcDbLine
 10
-452.1610571167801
 20
-769.6094645788415
 30
0.0
 11
-452.1610571167801
 21
-729.6105056522874
 31
0.0
  0
LINE
  5
2492
330
2650
100
AcDbEntity
  8
DETAIL
100
AcDbLine
 10
-451.1610571167802
 20
-729.6105056522874
 30
0.0
 11
-452.1610571167801
 21
-729.6105056522874
 31
0.0
  0
LINE
  5
2493
330
2650
100
AcDbEntity
  8
DETAIL
100
AcDbLine
 10
-451.1610571167802
 20
-769.6094645788415
 30
0.0
 11
-451.1610571167802
 21
-729.6105056522874
 31
0.0
  0
LINE
  5
2494
330
2650
100
AcDbEntity
  8
DETAIL
100
AcDbLine
 10
-463.156945016486
 20
-729.5072324563542
 30
0.0
 11
-452.1610571167801
 21
-729.5093098606595
 31
0.0
  0
LINE
  5
2495
330
2650
100
AcDbEntity
  8
DETAIL
100
AcDbLine
 10
-452.1610571167801
 20
-729.5165271099765
 30
0.0
 11
-464.1827792897673
 21
-729.5142558993549
 31
0.0
  0
LINE
  5
2496
330
2650
100
AcDbEntity
  8
DETAIL
100
AcDbLine
 10
451.1610428832246
 20
-769.6094645788415
 30
0.0
 11
452.1610428832246
 21
-769.6094645788415
 31
0.0
  0
LINE
  5
2497
330
2650
100
AcDbEntity
  8
DETAIL
100
AcDbLine
 10
362.1610428832209
 20
-730.6104796254492
 30
0.0
 11
451.1610428832246
 21
-769.6094645788415
 31
0.0
  0
LINE
  5
2498
330
2650
100
AcDbEntity
  8
DETAIL
100
AcDbLine
 10
362.1610428832209
 20
-729.610505652286
 30
0.0
 11
362.1610428832209
 21
-730.6104796254492
 31
0.0
  0
LINE
  5
2499
330
2650
100
AcDbEntity
  8
DETAIL
100
AcDbLine
 10
452.1610428832246
 20
-729.610505652286
 30
0.0
 11
362.1610428832209
 21
-729.610505652286
 31
0.0
  0
LINE
  5
249A
330
2650
100
AcDbEntity
  8
DETAIL
100
AcDbLine
 10
452.1610428832246
 20
-769.6094645788415
 30
0.0
 11
452.1610428832246
 21
-729.610505652286
 31
0.0
  0
LINE
  5
249B
330
2650
100
AcDbEntity
  8
DETAIL
100
AcDbLine
 10
460.9332475344557
 20
-724.1560940973204
 30
0.0
 11
460.8304110973399
 21
-724.1561135257507
 31
0.0
  0
LINE
  5
249C
330
2650
100
AcDbEntity
  8
DETAIL
100
AcDbLine
 10
464.1517514571813
 20
-729.4436215753245
 30
0.0
 11
464.1827650562118
 21
-729.5142558993549
 31
0.0
  0
LINE
  5
249D
330
2650
100
AcDbEntity
  8
DETAIL
100
AcDbLine
 10
464.1827650562118
 20
-729.5142558993549
 30
0.0
 11
463.1831077312381
 21
-729.5144447601767
 31
0.0
  0
LINE
  5
249E
330
2650
100
AcDbEntity
  8
DETAIL
100
AcDbLine
 10
460.8304110973399
 20
-724.1561135257507
 30
0.0
 11
461.3263292219848
 21
-725.2855806821651
 31
0.0
  0
LINE
  5
249F
330
2650
100
AcDbEntity
  8
DETAIL
100
AcDbLine
 10
463.1519150594868
 20
-729.4434025931067
 30
0.0
 11
463.1831077312381
 21
-729.5144447601767
 31
0.0
  0
LINE
  5
24A0
330
2650
100
AcDbEntity
  8
DETAIL
100
AcDbLine
 10
-460.8304253308959
 20
-724.1561135257524
 30
0.0
 11
-460.9332475445117
 21
-724.1560941000068
 31
0.0
  0
LINE
  5
24A1
330
2650
100
AcDbEntity
  8
DETAIL
100
AcDbLine
 10
-460.8304253308959
 20
-724.1561135257524
 30
0.0
 11
-461.3263434917389
 21
-725.2855807646073
 31
0.0
  0
LINE
  5
24A2
330
2650
100
AcDbEntity
  8
DETAIL
100
AcDbLine
 10
-463.1519292944103
 20
-729.4434025962256
 30
0.0
 11
-463.1831219647938
 21
-729.5144447601767
 31
0.0
  0
LINE
  5
24A3
330
2650
100
AcDbEntity
  8
DETAIL
100
AcDbLine
 10
-463.1831219647938
 20
-729.5144447601767
 30
0.0
 11
-464.1827792897673
 21
-729.5142558993549
 31
0.0
  0
LINE
  5
24A4
330
2650
100
AcDbEntity
  8
DETAIL
100
AcDbLine
 10
-464.151765692106
 20
-729.4436215784443
 30
0.0
 11
-464.1827792897673
 21
-729.5142558993549
 31
0.0
  0
LINE
  5
24A5
330
2650
100
AcDbEntity
  8
DETAIL
100
AcDbLine
 10
452.1610428832208
 20
-724.1577513908922
 30
0.0
 11
460.933247534398
 21
-724.156094097195
 31
0.0
  0
LINE
  5
24A6
330
2650
100
AcDbEntity
  8
DETAIL
100
AcDbLine
 10
362.1610428832246
 20
-730.6104796254492
 30
0.0
 11
450.161042883224
 21
-730.6104796254492
 31
0.0
  0
LINE
  5
24A7
330
2650
100
AcDbEntity
  8
DETAIL
100
AcDbLine
 10
362.1610428832246
 20
-730.6104796254492
 30
0.0
 11
362.1610428832246
 21
-729.610505652286
 31
0.0
  0
LINE
  5
24A8
330
2650
100
AcDbEntity
  8
DETAIL
100
AcDbLine
 10
450.161042883224
 20
-729.610505652286
 30
0.0
 11
362.1610428832246
 21
-729.610505652286
 31
0.0
  0
LINE
  5
24A9
330
2650
100
AcDbEntity
  8
DETAIL
100
AcDbLine
 10
450.161042883224
 20
-730.6104796254492
 30
0.0
 11
450.161042883224
 21
-729.610505652286
 31
0.0
  0
LINE
  5
24AA
330
2650
100
AcDbEntity
  8
DETAIL
100
AcDbLine
 10
-460.8304253308014
 20
-724.1561130363423
 30
0.0
 11
-452.1610571167801
 21
-724.1577508939135
 31
0.0
  0
LINE
  5
24AB
330
2650
100
AcDbEntity
  8
DETAIL
100
AcDbLine
 10
-450.1610571167802
 20
-730.6104796254515
 30
0.0
 11
-362.1610571167802
 21
-730.6104796254515
 31
0.0
  0
LINE
  5
24AC
330
2650
100
AcDbEntity
  8
DETAIL
100
AcDbLine
 10
-450.1610571167802
 20
-730.6104796254515
 30
0.0
 11
-450.1610571167802
 21
-729.6105056522874
 31
0.0
  0
LINE
  5
24AD
330
2650
100
AcDbEntity
  8
DETAIL
100
AcDbLine
 10
-362.1610571167802
 20
-729.6105056522874
 30
0.0
 11
-450.1610571167802
 21
-729.6105056522874
 31
0.0
  0
LINE
  5
24AE
330
2650
100
AcDbEntity
  8
DETAIL
100
AcDbLine
 10
-362.1610571167802
 20
-730.6104796254515
 30
0.0
 11
-362.1610571167802
 21
-729.6105056522874
 31
0.0
  0
LINE
  5
24AF
330
2650
100
AcDbEntity
  8
DETAIL
100
AcDbLine
 10
-453.1610571167801
 20
-729.523555433733
 30
0.0
 11
-453.1610571167801
 21
-729.6103191998953
 31
0.0
  0
LINE
  5
24B0
330
2650
100
AcDbEntity
  8
DETAIL
100
AcDbLine
 10
-464.5000000000004
 20
-729.5214132175731
 30
0.0
 11
-453.1610571167801
 21
-729.523555433733
 31
0.0
  0
LINE
  5
24B1
330
2650
100
AcDbEntity
  8
DETAIL
100
AcDbLine
 10
-464.5000000000004
 20
-784.9999817415863
 30
0.0
 11
-453.1610571167801
 21
-785.0021239577462
 31
0.0
  0
LINE
  5
24B2
330
2650
100
AcDbEntity
  8
DETAIL
100
AcDbLine
 10
-452.1610571167801
 20
-729.5165271099765
 30
0.0
 11
-464.5000000000004
 21
-729.5141959682544
 31
0.0
  0
LINE
  5
24B3
330
2650
100
AcDbEntity
  8
DETAIL
100
AcDbLine
 10
-453.1610571167801
 20
-729.6103191998953
 30
0.0
 11
-453.1610571167801
 21
-785.0021239577462
 31
0.0
  0
LINE
  5
24B4
330
2650
100
AcDbEntity
  8
DETAIL
100
AcDbLine
 10
-453.1610571167801
 20
-729.6103191998953
 30
0.0
 11
-452.1610571167801
 21
-729.6103191998953
 31
0.0
  0
LINE
  5
24B5
330
2650
100
AcDbEntity
  8
DETAIL
100
AcDbLine
 10
-452.1610571167801
 20
-769.6094645788415
 30
0.0
 11
-452.1610571167801
 21
-785.0021239577462
 31
0.0
  0
LINE
  5
24B6
330
2650
100
AcDbEntity
  8
DETAIL
100
AcDbLine
 10
-453.1610571167801
 20
-785.0021239577462
 30
0.0
 11
-452.1610571167801
 21
-785.0021239577462
 31
0.0
  0
LINE
  5
24B7
330
2650
100
AcDbEntity
  8
DETAIL
100
AcDbLine
 10
-452.2022858888885
 20
-728.9257786166507
 30
0.0
 11
-452.1610571167801
 21
-728.9505513621823
 31
0.0
  0
LINE
  5
24B8
330
2650
100
AcDbEntity
  8
DETAIL
100
AcDbLine
 10
-452.1610571167801
 20
-729.4409953968263
 30
0.0
 11
-464.3403817205872
 21
-729.4436628887587
 31
0.0
  0
LINE
  5
24B9
330
2650
100
AcDbEntity
  8
DETAIL
100
AcDbLine
 10
-464.3632540004472
 20
-713.459771218876
 30
0.0
 11
-464.3403817205872
 21
-729.4436628887587
 31
0.0
  0
LINE
  5
24BA
330
2650
100
AcDbEntity
  8
DETAIL
100
AcDbLine
 10
-452.1610571167801
 20
-728.4420018543695
 30
0.0
 11
-463.3421756125097
 21
-728.4444507211444
 31
0.0
  0
LINE
  5
24BB
330
2650
100
AcDbEntity
  8
DETAIL
100
AcDbLine
 10
-463.3636183748748
 20
-713.4595522806303
 30
0.0
 11
-464.3632540004472
 21
-713.459771218876
 31
0.0
  0
LINE
  5
24BC
330
2650
100
AcDbEntity
  8
DETAIL
100
AcDbLine
 10
-464.3632540004472
 20
-713.459771218876
 30
0.0
 11
-443.2290731662759
 21
-678.2865876802852
 31
0.0
  0
LINE
  5
24BD
330
2650
100
AcDbEntity
  8
DETAIL
100
AcDbLine
 10
-442.2294375407109
 20
-691.977436815244
 30
0.0
 11
-460.765489747937
 21
-724.1561253042764
 31
0.0
  0
LINE
  5
24BE
330
2650
100
AcDbEntity
  8
DETAIL
100
AcDbLine
 10
-461.4442490536493
 20
-725.2857704902278
 30
0.0
 11
-463.3421756125097
 21
-728.4444507211444
 31
0.0
  0
LINE
  5
24BF
330
2650
100
AcDbEntity
  8
DETAIL
100
AcDbLine
 10
-463.3421756125097
 20
-728.4444507211444
 30
0.0
 11
-463.3636183748748
 21
-713.4595522806303
 31
0.0
  0
LINE
  5
24C0
330
2650
100
AcDbEntity
  8
DETAIL
100
AcDbLine
 10
-442.2294375407072
 20
-678.2863687420394
 30
0.0
 11
-463.3636183748748
 21
-713.4595522806303
 31
0.0
  0
LINE
  5
24C1
330
2650
100
AcDbEntity
  8
DETAIL
100
AcDbLine
 10
-443.2290731662759
 20
-678.2865876802852
 30
0.0
 11
-442.2294375407072
 21
-678.2863687420394
 31
0.0
  0
LINE
  5
24C2
330
2650
100
AcDbEntity
  8
DETAIL
100
AcDbLine
 10
443.2290731662941
 20
-678.2865876802852
 30
0.0
 11
464.2284789496916
 21
-713.2354678671616
 31
0.0
  0
LINE
  5
24C3
330
2650
100
AcDbEntity
  8
DETAIL
100
AcDbLine
 10
463.3421756125129
 20
-728.4444507211435
 30
0.0
 11
461.444249017877
 21
-725.2857704306896
 31
0.0
  0
LINE
  5
24C4
330
2650
100
AcDbEntity
  8
DETAIL
100
AcDbLine
 10
463.2288433241186
 20
-713.2352489289159
 30
0.0
 11
442.2294375407146
 21
-678.2863687420394
 31
0.0
  0
LINE
  5
24C5
330
2650
100
AcDbEntity
  8
DETAIL
100
AcDbLine
 10
464.3403817205904
 20
-729.4436628887565
 30
0.0
 11
464.3561064129896
 21
-718.4547373657132
 31
0.0
  0
LINE
  5
24C6
330
2650
100
AcDbEntity
  8
DETAIL
100
AcDbLine
 10
452.1610428832208
 20
-729.4409953937089
 30
0.0
 11
464.3403817205904
 21
-729.4436628887565
 31
0.0
  0
LINE
  5
24C7
330
2650
100
AcDbEntity
  8
DETAIL
100
AcDbLine
 10
452.1610428832208
 20
-728.4420018512503
 30
0.0
 11
463.3421756125129
 21
-728.4444507211435
 31
0.0
  0
LINE
  5
24C8
330
2650
100
AcDbEntity
  8
DETAIL
100
AcDbLine
 10
463.3421756125129
 20
-728.4444507211435
 30
0.0
 11
463.356470787421
 21
-718.4545184274671
 31
0.0
  0
LINE
  5
24C9
330
2650
100
AcDbEntity
  8
DETAIL
100
AcDbLine
 10
464.2284789496916
 20
-713.2354678671616
 30
0.0
 11
463.2288433241186
 21
-713.2352489289159
 31
0.0
  0
LINE
  5
24CA
330
2650
100
AcDbEntity
  8
DETAIL
100
AcDbLine
 10
464.3561064129896
 20
-718.4547373657132
 30
0.0
 11
464.2284789496916
 21
-713.2354678671616
 31
0.0
  0
LINE
  5
24CB
330
2650
100
AcDbEntity
  8
DETAIL
100
AcDbLine
 10
463.356470787421
 20
-718.4545184274671
 30
0.0
 11
464.3561064129896
 21
-718.4547373657132
 31
0.0
  0
LINE
  5
24CC
330
2650
100
AcDbEntity
  8
DETAIL
100
AcDbLine
 10
463.2288433241186
 20
-713.2352489289159
 30
0.0
 11
463.356470787421
 21
-718.4545184274671
 31
0.0
  0
LINE
  5
24CD
330
2650
100
AcDbEntity
  8
DETAIL
100
AcDbLine
 10
443.1675585936645
 20
-677.9442873724364
 30
0.0
 11
443.1675585936645
 21
-677.9966233286794
 31
0.0
  0
LINE
  5
24CE
330
2650
100
AcDbEntity
  8
DETAIL
100
AcDbLine
 10
-443.1675414063356
 20
-677.9966233286794
 30
0.0
 11
-443.1675414063356
 21
-677.9442873724364
 31
0.0
  0
LINE
  5
24CF
330
2650
100
AcDbEntity
  8
DETAIL
100
AcDbLine
 10
-443.1675414063356
 20
-677.9442873724364
 30
0.0
 11
-421.7747522759017
 21
-677.9442873724364
 31
0.0
  0
LINE
  5
24D0
330
2650
100
AcDbEntity
  8
DETAIL
100
AcDbLine
 10
421.7747522759017
 20
-677.9442873724364
 30
0.0
 11
443.1675585936645
 21
-677.9442873724364
 31
0.0
  0
LINE
  5
24D1
330
2650
100
AcDbEntity
  8
DETAIL
100
AcDbLine
 10
443.1675585936645
 20
-678.1842102391927
 30
0.0
 11
443.1675585936645
 21
-677.9966233286794
 31
0.0
  0
LINE
  5
24D2
330
2650
100
AcDbEntity
  8
DETAIL
100
AcDbLine
 10
-430.1579760924759
 20
-691.977436815244
 30
0.0
 11
-442.2294375407109
 21
-691.977436815244
 31
0.0
  0
LINE
  5
24D3
330
2650
100
AcDbEntity
  8
DETAIL
100
AcDbLine
 10
-443.1675414063356
 20
-678.2865742037194
 30
0.0
 11
-443.1675414063356
 21
-677.9966233286794
 31
0.0
  0
LINE
  5
24D4
330
2650
100
AcDbEntity
  8
DETAIL
100
AcDbLine
 10
443.1675585936645
 20
-677.9966233286794
 30
0.0
 11
421.8060171061256
 21
-677.9966233286794
 31
0.0
  0
LINE
  5
24D5
330
2650
100
AcDbEntity
  8
DETAIL
100
AcDbLine
 10
-421.8060171061223
 20
-677.9966233286794
 30
0.0
 11
-443.1675414063356
 21
-677.9966233286794
 31
0.0
  0
LINE
  5
24D6
330
2650
100
AcDbEntity
  8
DETAIL
100
AcDbLine
 10
384.0
 20
-614.9999999999972
 30
0.0
 11
-384.0000000000005
 21
-614.9999999999972
 31
0.0
  0
LINE
  5
24D7
330
2650
100
AcDbEntity
  8
DETAIL
100
AcDbLine
 10
-443.0772332112428
 20
-713.5998073055195
 30
0.0
 11
-384.0000000000005
 21
-614.7071067811855
 31
0.0
  0
LINE
  5
24D8
330
2650
100
AcDbEntity
  8
DETAIL
100
AcDbLine
 10
384.0
 20
-614.7071067811829
 30
0.0
 11
443.0772332112463
 21
-713.5998073055177
 31
0.0
  0
LINE
  5
24D9
330
2650
100
AcDbEntity
  8
DETAIL
100
AcDbLine
 10
-452.1610571167801
 20
-718.6107919474859
 30
0.0
 11
-452.1610571167801
 21
-729.6105056522881
 31
0.0
  0
LINE
  5
24DA
330
2650
100
AcDbEntity
  8
DETAIL
100
AcDbLine
 10
452.1610428832208
 20
-729.6105056522881
 30
0.0
 11
452.1610428832208
 21
-718.6107919474854
 31
0.0
  0
LINE
  5
24DB
330
2650
100
AcDbEntity
  8
DETAIL
100
AcDbLine
 10
-452.1610571167801
 20
-729.6105056522881
 30
0.0
 11
452.1610428832208
 21
-729.6105056522881
 31
0.0
  0
LINE
  5
24DC
330
2650
100
AcDbEntity
  8
DETAIL
100
AcDbLine
 10
452.1610428832208
 20
-718.6107919474854
 30
0.0
 11
452.1610428832208
 21
-718.6035771713378
 31
0.0
  0
LINE
  5
24DD
330
2650
100
AcDbEntity
  8
DETAIL
100
AcDbLine
 10
447.1610428832208
 20
-713.6109220816661
 30
0.0
 11
452.1610428832208
 21
-718.6107919474854
 31
0.0
  0
LINE
  5
24DE
330
2650
100
AcDbEntity
  8
DETAIL
100
AcDbLine
 10
447.1610428832208
 20
-713.6037073055174
 30
0.0
 11
447.1610428832208
 21
-713.6109220816661
 31
0.0
  0
LINE
  5
24DF
330
2650
100
AcDbEntity
  8
DETAIL
100
AcDbLine
 10
447.1610428832208
 20
-713.6109220816661
 30
0.0
 11
-447.1610571167802
 21
-713.6109220816661
 31
0.0
  0
LINE
  5
24E0
330
2650
100
AcDbEntity
  8
DETAIL
100
AcDbLine
 10
452.1610428832208
 20
-718.6035771713378
 30
0.0
 11
447.1610428832208
 21
-713.6037073055174
 31
0.0
  0
LINE
  5
24E1
330
2650
100
AcDbEntity
  8
DETAIL
100
AcDbLine
 10
-447.1610571167802
 20
-713.6037073055192
 30
0.0
 11
447.1610428832208
 21
-713.6037073055174
 31
0.0
  0
LINE
  5
24E2
330
2650
100
AcDbEntity
  8
DETAIL
100
AcDbLine
 10
-447.1610571167802
 20
-713.6109220816661
 30
0.0
 11
-447.1610571167802
 21
-713.6037073055192
 31
0.0
  0
LINE
  5
24E3
330
2650
100
AcDbEntity
  8
DETAIL
100
AcDbLine
 10
-452.1610571167801
 20
-718.6107919474859
 30
0.0
 11
-447.1610571167802
 21
-713.6109220816661
 31
0.0
  0
LINE
  5
24E4
330
2650
100
AcDbEntity
  8
DETAIL
100
AcDbLine
 10
-452.1610571167801
 20
-718.6035771713378
 30
0.0
 11
-452.1610571167801
 21
-718.6107919474859
 31
0.0
  0
LINE
  5
24E5
330
2650
100
AcDbEntity
  8
DETAIL
100
AcDbLine
 10
-447.1610571167802
 20
-713.6037073055192
 30
0.0
 11
-452.1610571167801
 21
-718.6035771713378
 31
0.0
  0
LINE
  5
24E6
330
2650
100
AcDbEntity
  8
DETAIL
100
AcDbLine
 10
-451.1610571167802
 20
-769.6094645788415
 30
0.0
 11
-452.1610571167801
 21
-769.6094645788415
 31
0.0
  0
LINE
  5
24E7
330
2650
100
AcDbEntity
  8
DETAIL
100
AcDbLine
 10
-362.1610571167802
 20
-730.6104796254515
 30
0.0
 11
-451.1610571167802
 21
-769.6094645788415
 31
0.0
  0
LINE
  5
24E8
330
2650
100
AcDbEntity
  8
DETAIL
100
AcDbLine
 10
-362.1610571167802
 20
-729.6105056522874
 30
0.0
 11
-362.1610571167802
 21
-730.6104796254515
 31
0.0
  0
LINE
  5
24E9
330
2650
100
AcDbEntity
  8
DETAIL
100
AcDbLine
 10
-452.1610571167801
 20
-729.6105056522874
 30
0.0
 11
-362.1610571167802
 21
-729.6105056522874
 31
0.0
  0
LINE
  5
24EA
330
2650
100
AcDbEntity
  8
DETAIL
100
AcDbLine
 10
-452.1610571167801
 20
-769.6094645788415
 30
0.0
 11
-452.1610571167801
 21
-729.6105056522874
 31
0.0
  0
LINE
  5
24EB
330
2650
100
AcDbEntity
  8
DETAIL
100
AcDbLine
 10
453.1610428832204
 20
-729.523555433733
 30
0.0
 11
464.4999999999995
 21
-729.5214132148828
 31
0.0
  0
LINE
  5
24EC
330
2650
100
AcDbEntity
  8
DETAIL
100
AcDbLine
 10
453.1610428832204
 20
-785.0021239577462
 30
0.0
 11
464.4999999999995
 21
-784.9999817388964
 31
0.0
  0
LINE
  5
24ED
330
2650
100
AcDbEntity
  8
DETAIL
100
AcDbLine
 10
453.1610428832204
 20
-729.6103513511187
 30
0.0
 11
453.1610428832204
 21
-729.523555433733
 31
0.0
  0
LINE
  5
24EE
330
2650
100
AcDbEntity
  8
DETAIL
100
AcDbLine
 10
452.1610428832208
 20
-729.6103513511187
 30
0.0
 11
453.1610428832204
 21
-729.6103513511187
 31
0.0
  0
LINE
  5
24EF
330
2650
100
AcDbEntity
  8
DETAIL
100
AcDbLine
 10
453.1610428832204
 20
-729.6103513511187
 30
0.0
 11
453.1610428832204
 21
-785.0021239577462
 31
0.0
  0
LINE
  5
24F0
330
2650
100
AcDbEntity
  8
DETAIL
100
AcDbLine
 10
452.1610428832208
 20
-785.0021239577462
 30
0.0
 11
453.1610428832204
 21
-785.0021239577462
 31
0.0
  0
LINE
  5
24F1
330
2650
100
AcDbEntity
  8
DETAIL
100
AcDbLine
 10
452.1610428832208
 20
-769.6094645788415
 30
0.0
 11
452.1610428832208
 21
-785.0021239577462
 31
0.0
  0
LINE
  5
24F2
330
2650
100
AcDbEntity
  8
DETAIL
100
AcDbLine
 10
464.4999999999995
 20
-729.514195965564
 30
0.0
 11
452.1610428832208
 21
-729.5165271099756
 31
0.0
  0
LINE
  5
24F3
330
2650
100
AcDbEntity
  8
DETAIL
100
AcDbLine
 10
465.1827650562117
 20
-729.5212842231108
 30
0.0
 11
465.1565881079071
 21
-729.5140719192868
 31
0.0
  0
LINE
  5
24F4
330
2650
100
AcDbEntity
  8
DETAIL
100
AcDbLine
 10
-464.5000000000004
 20
-729.5141959682544
 30
0.0
 11
-464.5000000000004
 21
-784.9999817415863
 31
0.0
  0
LINE
  5
24F5
330
2650
100
AcDbEntity
  8
DETAIL
100
AcDbLine
 10
464.4999999999995
 20
-729.514195965564
 30
0.0
 11
464.4999999999995
 21
-784.9999817388964
 31
0.0
  0
LINE
  5
24F6
330
2650
100
AcDbEntity
  8
DETAIL
100
AcDbLine
 10
-442.2294375407072
 20
-678.2863687420394
 30
0.0
 11
-442.2294375407072
 21
-691.977436815244
 31
0.0
  0
LINE
  5
24F7
330
2650
100
AcDbEntity
  8
DETAIL
100
AcDbLine
 10
442.2294375407146
 20
-691.977436815244
 30
0.0
 11
460.7654897479401
 21
-724.1561253042764
 31
0.0
  0
LINE
  5
24F8
330
2650
100
AcDbEntity
  8
DETAIL
100
AcDbLine
 10
443.2290731662797
 20
-678.2865876802852
 30
0.0
 11
442.2294375407146
 21
-678.2863687420394
 31
0.0
  0
LINE
  5
24F9
330
2650
100
AcDbEntity
  8
DETAIL
100
AcDbLine
 10
443.1675414063388
 20
-677.9966233286794
 30
0.0
 11
443.1675414063388
 21
-677.9442873724364
 31
0.0
  0
LINE
  5
24FA
330
2650
100
AcDbEntity
  8
DETAIL
100
AcDbLine
 10
430.157976092479
 20
-691.977436815244
 30
0.0
 11
442.2294375407146
 21
-691.977436815244
 31
0.0
  0
LINE
  5
24FB
330
2650
100
AcDbEntity
  8
DETAIL
100
AcDbLine
 10
443.1675414063388
 20
-678.2865742037194
 30
0.0
 11
443.1675414063388
 21
-677.9966233286794
 31
0.0
  0
LINE
  5
24FC
330
2650
100
AcDbEntity
  8
DETAIL
100
AcDbLine
 10
442.2294375407146
 20
-678.2863687420394
 30
0.0
 11
442.2294375407146
 21
-691.977436815244
 31
0.0
  0
INSERT
  5
24FD
330
2650
100
AcDbEntity
  8
0
100
AcDbBlockReference
  2
*U66
 10
0.0000000000045475
 20
0.000000000001819
 30
0.0
1001
ACAD
1000
DSTYLE
1002
{
1070
    41
1040
12.0
1070
    42
1040
20.0
1070
    43
1040
200.0
1070
    44
1040
20.0
1070
    73
1070
     0
1070
    74
1070
     0
1070
    77
1070
     1
1070
    78
1070
     8
1070
   140
1040
64.0
1070
   147
1040
50.0
1070
   172
1070
     1
1070
   174
1070
     1
1070
   275
1070
     0
1070
   284
1070
     0
1070
   285
1070
     0
1070
   286
1070
     0
1070
   341
1005
0
1070
   342
1005
0
1002
}
  0
INSERT
  5
24FE
330
2650
100
AcDbEntity
  8
0
100
AcDbBlockReference
  2
*U67
 10
0.0000000000045475
 20
0.000000000001819
 30
0.0
  0
LINE
  5
24FF
330
2650
100
AcDbEntity
  8
NOTE
100
AcDbLine
 39
50.0
 10
-400.0
 20
387.5000000000047
 30
0.0
 11
-400.0
 21
412.5000000000043
 31
0.0
  0
LINE
  5
2500
330
2650
100
AcDbEntity
  8
NOTE
100
AcDbLine
 39
50.0
 10
-412.5
 20
400.0000000000043
 30
0.0
 11
-387.5000000000004
 21
400.0000000000043
 31
0.0
  0
LINE
  5
2501
330
2650
100
AcDbEntity
  8
NOTE
100
AcDbLine
 39
50.0
 10
-400.0
 20
187.5000000000035
 30
0.0
 11
-400.0
 21
212.5000000000035
 31
0.0
  0
LINE
  5
2502
330
2650
100
AcDbEntity
  8
NOTE
100
AcDbLine
 39
50.0
 10
-412.5
 20
200.0000000000035
 30
0.0
 11
-387.5000000000004
 21
200.0000000000035
 31
0.0
  0
LINE
  5
2503
330
2650
100
AcDbEntity
  8
NOTE
100
AcDbLine
 39
50.0
 10
-400.0
 20
-212.4999999999965
 30
0.0
 11
-400.0
 21
-187.4999999999961
 31
0.0
  0
LINE
  5
2504
330
2650
100
AcDbEntity
  8
NOTE
100
AcDbLine
 39
50.0
 10
-412.5
 20
-199.9999999999961
 30
0.0
 11
-387.5000000000004
 21
-199.9999999999961
 31
0.0
  0
LINE
  5
2505
330
2650
100
AcDbEntity
  8
NOTE
100
AcDbLine
 39
50.0
 10
-400.0
 20
-412.4999999999963
 30
0.0
 11
-400.0
 21
-387.4999999999964
 31
0.0
  0
LINE
  5
2506
330
2650
100
AcDbEntity
  8
NOTE
100
AcDbLine
 39
50.0
 10
-412.5
 20
-399.9999999999964
 30
0.0
 11
-387.5000000000004
 21
-399.9999999999964
 31
0.0
  0
LINE
  5
2507
330
2650
100
AcDbEntity
  8
NOTE
100
AcDbLine
 39
50.0
 10
-200.0
 20
387.5000000000047
 30
0.0
 11
-200.0
 21
412.5000000000043
 31
0.0
  0
LINE
  5
2508
330
2650
100
AcDbEntity
  8
NOTE
100
AcDbLine
 39
50.0
 10
-212.5
 20
400.0000000000043
 30
0.0
 11
-187.5
 21
400.0000000000043
 31
0.0
  0
LINE
  5
2509
330
2650
100
AcDbEntity
  8
NOTE
100
AcDbLine
 39
50.0
 10
200.0
 20
387.5000000000047
 30
0.0
 11
200.0
 21
412.5000000000043
 31
0.0
  0
LINE
  5
250A
330
2650
100
AcDbEntity
  8
NOTE
100
AcDbLine
 39
50.0
 10
187.5
 20
400.0000000000043
 30
0.0
 11
212.5
 21
400.0000000000043
 31
0.0
  0
LINE
  5
250B
330
2650
100
AcDbEntity
  8
NOTE
100
AcDbLine
 39
50.0
 10
399.9999999999996
 20
387.5000000000047
 30
0.0
 11
399.9999999999996
 21
412.5000000000043
 31
0.0
  0
LINE
  5
250C
330
2650
100
AcDbEntity
  8
NOTE
100
AcDbLine
 39
50.0
 10
387.4999999999996
 20
400.0000000000043
 30
0.0
 11
412.4999999999994
 21
400.0000000000043
 31
0.0
  0
LINE
  5
250D
330
2650
100
AcDbEntity
  8
NOTE
100
AcDbLine
 39
50.0
 10
399.9999999999996
 20
187.5000000000035
 30
0.0
 11
399.9999999999996
 21
212.5000000000035
 31
0.0
  0
LINE
  5
250E
330
2650
100
AcDbEntity
  8
NOTE
100
AcDbLine
 39
50.0
 10
387.4999999999996
 20
200.0000000000035
 30
0.0
 11
412.4999999999994
 21
200.0000000000035
 31
0.0
  0
LINE
  5
250F
330
2650
100
AcDbEntity
  8
NOTE
100
AcDbLine
 39
50.0
 10
399.9999999999996
 20
-212.4999999999965
 30
0.0
 11
399.9999999999996
 21
-187.4999999999961
 31
0.0
  0
LINE
  5
2510
330
2650
100
AcDbEntity
  8
NOTE
100
AcDbLine
 39
50.0
 10
387.4999999999996
 20
-199.9999999999961
 30
0.0
 11
412.4999999999994
 21
-199.9999999999961
 31
0.0
  0
LINE
  5
2511
330
2650
100
AcDbEntity
  8
NOTE
100
AcDbLine
 39
50.0
 10
399.9999999999996
 20
-412.4999999999963
 30
0.0
 11
399.9999999999996
 21
-387.4999999999964
 31
0.0
  0
LINE
  5
2512
330
2650
100
AcDbEntity
  8
NOTE
100
AcDbLine
 39
50.0
 10
387.4999999999996
 20
-399.9999999999964
 30
0.0
 11
412.4999999999994
 21
-399.9999999999964
 31
0.0
  0
LINE
  5
2513
330
2650
100
AcDbEntity
  8
OUTLINE
100
AcDbLine
 10
-386.0
 20
-173.9999999999971
 30
0.0
 11
-386.0
 21
386.0000000000044
 31
0.0
  0
LINE
  5
2514
330
2650
100
AcDbEntity
  8
OUTLINE
100
AcDbLine
 10
386.0
 20
386.0000000000044
 30
0.0
 11
386.0
 21
-173.9999999999971
 31
0.0
  0
LINE
  5
2515
330
2650
100
AcDbEntity
  8
OUTLINE
100
AcDbLine
 10
424.9999999999994
 20
425.0000000000036
 30
0.0
 11
-425.0
 21
425.0000000000036
 31
0.0
  0
LINE
  5
2516
330
2650
100
AcDbEntity
  8
OUTLINE
100
AcDbLine
 10
-425.0
 20
425.0000000000036
 30
0.0
 11
-425.0
 21
-424.9999999999963
 31
0.0
  0
LINE
  5
2517
330
2650
100
AcDbEntity
  8
OUTLINE
100
AcDbLine
 10
386.0
 20
-424.9999999999963
 30
0.0
 11
424.9999999999994
 21
-424.9999999999963
 31
0.0
  0
LINE
  5
2518
330
2650
100
AcDbEntity
  8
OUTLINE
100
AcDbLine
 10
-425.0
 20
-424.9999999999963
 30
0.0
 11
-386.0
 21
-424.9999999999963
 31
0.0
  0
LINE
  5
2519
330
2650
100
AcDbEntity
  8
OUTLINE
100
AcDbLine
 10
424.9999999999994
 20
-424.9999999999963
 30
0.0
 11
424.9999999999994
 21
425.0000000000036
 31
0.0
  0
LINE
  5
251A
330
2650
100
AcDbEntity
  8
OUTLINE
100
AcDbLine
 10
386.0
 20
-614.9999999999972
 30
0.0
 11
-386.0
 21
-614.9999999999972
 31
0.0
  0
LINE
  5
251B
330
2650
100
AcDbEntity
  8
OUTLINE
100
AcDbLine
 10
-386.0
 20
-173.9999999999971
 30
0.0
 11
-386.0
 21
-614.9999999999972
 31
0.0
  0
LINE
  5
251C
330
2650
100
AcDbEntity
  8
OUTLINE
100
AcDbLine
 10
386.0
 20
-614.9999999999972
 30
0.0
 11
386.0
 21
-173.9999999999971
 31
0.0
  0
LINE
  5
251D
330
2650
100
AcDbEntity
  8
OUTLINE
100
AcDbLine
 10
386.0
 20
386.0000000000044
 30
0.0
 11
-386.0
 21
386.0000000000044
 31
0.0
  0
LINE
  5
251E
330
2650
100
AcDbEntity
  8
OUTLINE
100
AcDbLine
 10
452.2022858888885
 20
-728.9257786166507
 30
0.0
 11
452.1610428832208
 21
-728.9505599145675
 31
0.0
  0
LINE
  5
251F
330
2650
100
AcDbEntity
  8
OUTLINE
100
AcDbLine
 10
452.1610428832246
 20
-729.610505652286
 30
0.0
 11
451.1610428832246
 21
-729.610505652286
 31
0.0
  0
LINE
  5
2520
330
2650
100
AcDbEntity
  8
OUTLINE
100
AcDbLine
 10
452.1610428832246
 20
-729.610505652286
 30
0.0
 11
452.1610428832246
 21
-769.6094645788415
 31
0.0
  0
LINE
  5
2521
330
2650
100
AcDbEntity
  8
OUTLINE
100
AcDbLine
 10
451.1610428832246
 20
-769.6094645788415
 30
0.0
 11
452.1610428832246
 21
-769.6094645788415
 31
0.0
  0
LINE
  5
2522
330
2650
100
AcDbEntity
  8
OUTLINE
100
AcDbLine
 10
451.1610428832246
 20
-729.610505652286
 30
0.0
 11
451.1610428832246
 21
-769.6094645788415
 31
0.0
  0
LINE
  5
2523
330
2650
100
AcDbEntity
  8
OUTLINE
100
AcDbLine
 10
452.1610428832208
 20
-729.5093098606571
 30
0.0
 11
463.1569307829299
 21
-729.5072324563534
 31
0.0
  0
LINE
  5
2524
330
2650
100
AcDbEntity
  8
OUTLINE
100
AcDbLine
 10
464.1827650562153
 20
-729.5142558993549
 30
0.0
 11
452.1610428832246
 21
-729.5165271099756
 31
0.0
  0
LINE
  5
2525
330
2650
100
AcDbEntity
  8
OUTLINE
100
AcDbLine
 10
-452.1610571167801
 20
-769.6094645788415
 30
0.0
 11
-451.1610571167802
 21
-769.6094645788415
 31
0.0
  0
LINE
  5
2526
330
2650
100
AcDbEntity
  8
OUTLINE
100
AcDbLine
 10
-452.1610571167801
 20
-769.6094645788415
 30
0.0
 11
-452.1610571167801
 21
-729.6105056522874
 31
0.0
  0
LINE
  5
2527
330
2650
100
AcDbEntity
  8
OUTLINE
100
AcDbLine
 10
-451.1610571167802
 20
-729.6105056522874
 30
0.0
 11
-452.1610571167801
 21
-729.6105056522874
 31
0.0
  0
LINE
  5
2528
330
2650
100
AcDbEntity
  8
OUTLINE
100
AcDbLine
 10
-451.1610571167802
 20
-769.6094645788415
 30
0.0
 11
-451.1610571167802
 21
-729.6105056522874
 31
0.0
  0
LINE
  5
2529
330
2650
100
AcDbEntity
  8
OUTLINE
100
AcDbLine
 10
-463.156945016486
 20
-729.5072324563542
 30
0.0
 11
-452.1610571167801
 21
-729.5093098606595
 31
0.0
  0
LINE
  5
252A
330
2650
100
AcDbEntity
  8
OUTLINE
100
AcDbLine
 10
-452.1610571167801
 20
-729.5165271099765
 30
0.0
 11
-464.1827792897673
 21
-729.5142558993549
 31
0.0
  0
LINE
  5
252B
330
2650
100
AcDbEntity
  8
OUTLINE
100
AcDbLine
 10
451.1610428832246
 20
-769.6094645788415
 30
0.0
 11
452.1610428832246
 21
-769.6094645788415
 31
0.0
  0
LINE
  5
252C
330
2650
100
AcDbEntity
  8
OUTLINE
100
AcDbLine
 10
362.1610428832209
 20
-730.6104796254492
 30
0.0
 11
451.1610428832246
 21
-769.6094645788415
 31
0.0
  0
LINE
  5
252D
330
2650
100
AcDbEntity
  8
OUTLINE
100
AcDbLine
 10
362.1610428832209
 20
-729.610505652286
 30
0.0
 11
362.1610428832209
 21
-730.6104796254492
 31
0.0
  0
LINE
  5
252E
330
2650
100
AcDbEntity
  8
OUTLINE
100
AcDbLine
 10
452.1610428832246
 20
-729.610505652286
 30
0.0
 11
362.1610428832209
 21
-729.610505652286
 31
0.0
  0
LINE
  5
252F
330
2650
100
AcDbEntity
  8
OUTLINE
100
AcDbLine
 10
452.1610428832246
 20
-769.6094645788415
 30
0.0
 11
452.1610428832246
 21
-729.610505652286
 31
0.0
  0
LINE
  5
2530
330
2650
100
AcDbEntity
  8
OUTLINE
100
AcDbLine
 10
460.9332475344557
 20
-724.1560940973204
 30
0.0
 11
460.8304110973399
 21
-724.1561135257507
 31
0.0
  0
LINE
  5
2531
330
2650
100
AcDbEntity
  8
OUTLINE
100
AcDbLine
 10
464.1517514571813
 20
-729.4436215753245
 30
0.0
 11
464.1827650562118
 21
-729.5142558993549
 31
0.0
  0
LINE
  5
2532
330
2650
100
AcDbEntity
  8
OUTLINE
100
AcDbLine
 10
464.1827650562118
 20
-729.5142558993549
 30
0.0
 11
463.1831077312381
 21
-729.5144447601767
 31
0.0
  0
LINE
  5
2533
330
2650
100
AcDbEntity
  8
OUTLINE
100
AcDbLine
 10
460.8304110973399
 20
-724.1561135257507
 30
0.0
 11
461.3263292219848
 21
-725.2855806821651
 31
0.0
  0
LINE
  5
2534
330
2650
100
AcDbEntity
  8
OUTLINE
100
AcDbLine
 10
463.1519150594868
 20
-729.4434025931067
 30
0.0
 11
463.1831077312381
 21
-729.5144447601767
 31
0.0
  0
LINE
  5
2535
330
2650
100
AcDbEntity
  8
OUTLINE
100
AcDbLine
 10
-460.8304253308959
 20
-724.1561135257524
 30
0.0
 11
-460.9332475445117
 21
-724.1560941000068
 31
0.0
  0
LINE
  5
2536
330
2650
100
AcDbEntity
  8
OUTLINE
100
AcDbLine
 10
-460.8304253308959
 20
-724.1561135257524
 30
0.0
 11
-461.3263434917389
 21
-725.2855807646073
 31
0.0
  0
LINE
  5
2537
330
2650
100
AcDbEntity
  8
OUTLINE
100
AcDbLine
 10
-463.1519292944103
 20
-729.4434025962256
 30
0.0
 11
-463.1831219647938
 21
-729.5144447601767
 31
0.0
  0
LINE
  5
2538
330
2650
100
AcDbEntity
  8
OUTLINE
100
AcDbLine
 10
-463.1831219647938
 20
-729.5144447601767
 30
0.0
 11
-464.1827792897673
 21
-729.5142558993549
 31
0.0
  0
LINE
  5
2539
330
2650
100
AcDbEntity
  8
OUTLINE
100
AcDbLine
 10
-464.151765692106
 20
-729.4436215784443
 30
0.0
 11
-464.1827792897673
 21
-729.5142558993549
 31
0.0
  0
LINE
  5
253A
330
2650
100
AcDbEntity
  8
OUTLINE
100
AcDbLine
 10
452.1610428832208
 20
-724.1577513908922
 30
0.0
 11
460.933247534398
 21
-724.156094097195
 31
0.0
  0
LINE
  5
253B
330
2650
100
AcDbEntity
  8
OUTLINE
100
AcDbLine
 10
362.1610428832246
 20
-730.6104796254492
 30
0.0
 11
450.161042883224
 21
-730.6104796254492
 31
0.0
  0
LINE
  5
253C
330
2650
100
AcDbEntity
  8
OUTLINE
100
AcDbLine
 10
362.1610428832246
 20
-730.6104796254492
 30
0.0
 11
362.1610428832246
 21
-729.610505652286
 31
0.0
  0
LINE
  5
253D
330
2650
100
AcDbEntity
  8
OUTLINE
100
AcDbLine
 10
450.161042883224
 20
-729.610505652286
 30
0.0
 11
362.1610428832246
 21
-729.610505652286
 31
0.0
  0
LINE
  5
253E
330
2650
100
AcDbEntity
  8
OUTLINE
100
AcDbLine
 10
450.161042883224
 20
-730.6104796254492
 30
0.0
 11
450.161042883224
 21
-729.610505652286
 31
0.0
  0
LINE
  5
253F
330
2650
100
AcDbEntity
  8
OUTLINE
100
AcDbLine
 10
-460.8304253308014
 20
-724.1561130363423
 30
0.0
 11
-452.1610571167801
 21
-724.1577508939135
 31
0.0
  0
LINE
  5
2540
330
2650
100
AcDbEntity
  8
OUTLINE
100
AcDbLine
 10
-450.1610571167802
 20
-730.6104796254515
 30
0.0
 11
-362.1610571167802
 21
-730.6104796254515
 31
0.0
  0
LINE
  5
2541
330
2650
100
AcDbEntity
  8
OUTLINE
100
AcDbLine
 10
-450.1610571167802
 20
-730.6104796254515
 30
0.0
 11
-450.1610571167802
 21
-729.6105056522874
 31
0.0
  0
LINE
  5
2542
330
2650
100
AcDbEntity
  8
OUTLINE
100
AcDbLine
 10
-362.1610571167802
 20
-729.6105056522874
 30
0.0
 11
-450.1610571167802
 21
-729.6105056522874
 31
0.0
  0
LINE
  5
2543
330
2650
100
AcDbEntity
  8
OUTLINE
100
AcDbLine
 10
-362.1610571167802
 20
-730.6104796254515
 30
0.0
 11
-362.1610571167802
 21
-729.6105056522874
 31
0.0
  0
LINE
  5
2544
330
2650
100
AcDbEntity
  8
OUTLINE
100
AcDbLine
 10
-453.1610571167801
 20
-729.523555433733
 30
0.0
 11
-453.1610571167801
 21
-729.6103191998953
 31
0.0
  0
LINE
  5
2545
330
2650
100
AcDbEntity
  8
OUTLINE
100
AcDbLine
 10
-464.5000000000004
 20
-729.5214132175731
 30
0.0
 11
-453.1610571167801
 21
-729.523555433733
 31
0.0
  0
LINE
  5
2546
330
2650
100
AcDbEntity
  8
OUTLINE
100
AcDbLine
 10
-464.5000000000004
 20
-784.9999817415863
 30
0.0
 11
-453.1610571167801
 21
-785.0021239577462
 31
0.0
  0
LINE
  5
2547
330
2650
100
AcDbEntity
  8
OUTLINE
100
AcDbLine
 10
-452.1610571167801
 20
-729.5165271099765
 30
0.0
 11
-464.5000000000004
 21
-729.5141959682544
 31
0.0
  0
LINE
  5
2548
330
2650
100
AcDbEntity
  8
OUTLINE
100
AcDbLine
 10
-453.1610571167801
 20
-729.6103191998953
 30
0.0
 11
-453.1610571167801
 21
-785.0021239577462
 31
0.0
  0
LINE
  5
2549
330
2650
100
AcDbEntity
  8
OUTLINE
100
AcDbLine
 10
-453.1610571167801
 20
-729.6103191998953
 30
0.0
 11
-452.1610571167801
 21
-729.6103191998953
 31
0.0
  0
LINE
  5
254A
330
2650
100
AcDbEntity
  8
OUTLINE
100
AcDbLine
 10
-452.1610571167801
 20
-769.6094645788415
 30
0.0
 11
-452.1610571167801
 21
-785.0021239577462
 31
0.0
  0
LINE
  5
254B
330
2650
100
AcDbEntity
  8
OUTLINE
100
AcDbLine
 10
-453.1610571167801
 20
-785.0021239577462
 30
0.0
 11
-452.1610571167801
 21
-785.0021239577462
 31
0.0
  0
LINE
  5
254C
330
2650
100
AcDbEntity
  8
OUTLINE
100
AcDbLine
 10
-452.2022858888885
 20
-728.9257786166507
 30
0.0
 11
-452.1610571167801
 21
-728.9505513621823
 31
0.0
  0
LINE
  5
254D
330
2650
100
AcDbEntity
  8
OUTLINE
100
AcDbLine
 10
-452.1610571167801
 20
-729.4409953968263
 30
0.0
 11
-464.3403817205872
 21
-729.4436628887587
 31
0.0
  0
LINE
  5
254E
330
2650
100
AcDbEntity
  8
OUTLINE
100
AcDbLine
 10
-464.3632540004472
 20
-713.459771218876
 30
0.0
 11
-464.3403817205872
 21
-729.4436628887587
 31
0.0
  0
LINE
  5
254F
330
2650
100
AcDbEntity
  8
OUTLINE
100
AcDbLine
 10
-452.1610571167801
 20
-728.4420018543695
 30
0.0
 11
-463.3421756125097
 21
-728.4444507211444
 31
0.0
  0
LINE
  5
2550
330
2650
100
AcDbEntity
  8
OUTLINE
100
AcDbLine
 10
-463.3636183748748
 20
-713.4595522806303
 30
0.0
 11
-464.3632540004472
 21
-713.459771218876
 31
0.0
  0
LINE
  5
2551
330
2650
100
AcDbEntity
  8
OUTLINE
100
AcDbLine
 10
-464.3632540004472
 20
-713.459771218876
 30
0.0
 11
-443.2290731662759
 21
-678.2865876802852
 31
0.0
  0
LINE
  5
2552
330
2650
100
AcDbEntity
  8
OUTLINE
100
AcDbLine
 10
-442.2294375407109
 20
-691.977436815244
 30
0.0
 11
-460.765489747937
 21
-724.1561253042764
 31
0.0
  0
LINE
  5
2553
330
2650
100
AcDbEntity
  8
OUTLINE
100
AcDbLine
 10
-461.4442490536493
 20
-725.2857704902278
 30
0.0
 11
-463.3421756125097
 21
-728.4444507211444
 31
0.0
  0
LINE
  5
2554
330
2650
100
AcDbEntity
  8
OUTLINE
100
AcDbLine
 10
-463.3421756125097
 20
-728.4444507211444
 30
0.0
 11
-463.3636183748748
 21
-713.4595522806303
 31
0.0
  0
LINE
  5
2555
330
2650
100
AcDbEntity
  8
OUTLINE
100
AcDbLine
 10
-442.2294375407072
 20
-678.2863687420394
 30
0.0
 11
-463.3636183748748
 21
-713.4595522806303
 31
0.0
  0
LINE
  5
2556
330
2650
100
AcDbEntity
  8
OUTLINE
100
AcDbLine
 10
-443.2290731662759
 20
-678.2865876802852
 30
0.0
 11
-442.2294375407072
 21
-678.2863687420394
 31
0.0
  0
LINE
  5
2557
330
2650
100
AcDbEntity
  8
OUTLINE
100
AcDbLine
 10
443.2290731662941
 20
-678.2865876802852
 30
0.0
 11
464.2284789496916
 21
-713.2354678671616
 31
0.0
  0
LINE
  5
2558
330
2650
100
AcDbEntity
  8
OUTLINE
100
AcDbLine
 10
463.3421756125129
 20
-728.4444507211435
 30
0.0
 11
461.444249017877
 21
-725.2857704306896
 31
0.0
  0
LINE
  5
2559
330
2650
100
AcDbEntity
  8
OUTLINE
100
AcDbLine
 10
463.2288433241186
 20
-713.2352489289159
 30
0.0
 11
442.2294375407146
 21
-678.2863687420394
 31
0.0
  0
LINE
  5
255A
330
2650
100
AcDbEntity
  8
OUTLINE
100
AcDbLine
 10
464.3403817205904
 20
-729.4436628887565
 30
0.0
 11
464.3561064129896
 21
-718.4547373657132
 31
0.0
  0
LINE
  5
255B
330
2650
100
AcDbEntity
  8
OUTLINE
100
AcDbLine
 10
452.1610428832208
 20
-729.4409953937089
 30
0.0
 11
464.3403817205904
 21
-729.4436628887565
 31
0.0
  0
LINE
  5
255C
330
2650
100
AcDbEntity
  8
OUTLINE
100
AcDbLine
 10
452.1610428832208
 20
-728.4420018512503
 30
0.0
 11
463.3421756125129
 21
-728.4444507211435
 31
0.0
  0
LINE
  5
255D
330
2650
100
AcDbEntity
  8
OUTLINE
100
AcDbLine
 10
463.3421756125129
 20
-728.4444507211435
 30
0.0
 11
463.356470787421
 21
-718.4545184274671
 31
0.0
  0
LINE
  5
255E
330
2650
100
AcDbEntity
  8
OUTLINE
100
AcDbLine
 10
464.2284789496916
 20
-713.2354678671616
 30
0.0
 11
463.2288433241186
 21
-713.2352489289159
 31
0.0
  0
LINE
  5
255F
330
2650
100
AcDbEntity
  8
OUTLINE
100
AcDbLine
 10
464.3561064129896
 20
-718.4547373657132
 30
0.0
 11
464.2284789496916
 21
-713.2354678671616
 31
0.0
  0
LINE
  5
2560
330
2650
100
AcDbEntity
  8
OUTLINE
100
AcDbLine
 10
463.356470787421
 20
-718.4545184274671
 30
0.0
 11
464.3561064129896
 21
-718.4547373657132
 31
0.0
  0
LINE
  5
2561
330
2650
100
AcDbEntity
  8
OUTLINE
100
AcDbLine
 10
463.2288433241186
 20
-713.2352489289159
 30
0.0
 11
463.356470787421
 21
-718.4545184274671
 31
0.0
  0
LINE
  5
2562
330
2650
100
AcDbEntity
  8
OUTLINE
100
AcDbLine
 10
443.1675585936645
 20
-677.9442873724364
 30
0.0
 11
443.1675585936645
 21
-677.9966233286794
 31
0.0
  0
LINE
  5
2563
330
2650
100
AcDbEntity
  8
OUTLINE
100
AcDbLine
 10
-443.1675414063356
 20
-677.9966233286794
 30
0.0
 11
-443.1675414063356
 21
-677.9442873724364
 31
0.0
  0
LINE
  5
2564
330
2650
100
AcDbEntity
  8
OUTLINE
100
AcDbLine
 10
-443.1675414063356
 20
-677.9442873724364
 30
0.0
 11
-421.7747522759017
 21
-677.9442873724364
 31
0.0
  0
LINE
  5
2565
330
2650
100
AcDbEntity
  8
OUTLINE
100
AcDbLine
 10
421.7747522759017
 20
-677.9442873724364
 30
0.0
 11
443.1675585936645
 21
-677.9442873724364
 31
0.0
  0
LINE
  5
2566
330
2650
100
AcDbEntity
  8
OUTLINE
100
AcDbLine
 10
443.1675585936645
 20
-678.1842102391927
 30
0.0
 11
443.1675585936645
 21
-677.9966233286794
 31
0.0
  0
LINE
  5
2567
330
2650
100
AcDbEntity
  8
OUTLINE
100
AcDbLine
 10
-430.1579760924759
 20
-691.977436815244
 30
0.0
 11
-442.2294375407109
 21
-691.977436815244
 31
0.0
  0
LINE
  5
2568
330
2650
100
AcDbEntity
  8
OUTLINE
100
AcDbLine
 10
-443.1675414063356
 20
-678.2865742037194
 30
0.0
 11
-443.1675414063356
 21
-677.9966233286794
 31
0.0
  0
LINE
  5
2569
330
2650
100
AcDbEntity
  8
OUTLINE
100
AcDbLine
 10
443.1675585936645
 20
-677.9966233286794
 30
0.0
 11
421.8060171061256
 21
-677.9966233286794
 31
0.0
  0
LINE
  5
256A
330
2650
100
AcDbEntity
  8
OUTLINE
100
AcDbLine
 10
-421.8060171061223
 20
-677.9966233286794
 30
0.0
 11
-443.1675414063356
 21
-677.9966233286794
 31
0.0
  0
LINE
  5
256B
330
2650
100
AcDbEntity
  8
OUTLINE
100
AcDbLine
 10
384.0
 20
-614.9999999999972
 30
0.0
 11
-384.0000000000005
 21
-614.9999999999972
 31
0.0
  0
LINE
  5
256C
330
2650
100
AcDbEntity
  8
OUTLINE
100
AcDbLine
 10
-443.0772332112428
 20
-713.5998073055195
 30
0.0
 11
-384.0000000000005
 21
-614.7071067811855
 31
0.0
  0
LINE
  5
256D
330
2650
100
AcDbEntity
  8
OUTLINE
100
AcDbLine
 10
384.0
 20
-614.7071067811829
 30
0.0
 11
443.0772332112463
 21
-713.5998073055177
 31
0.0
  0
LINE
  5
256E
330
2650
100
AcDbEntity
  8
OUTLINE
100
AcDbLine
 10
-452.1610571167801
 20
-718.6107919474859
 30
0.0
 11
-452.1610571167801
 21
-729.6105056522881
 31
0.0
  0
LINE
  5
256F
330
2650
100
AcDbEntity
  8
OUTLINE
100
AcDbLine
 10
452.1610428832208
 20
-729.6105056522881
 30
0.0
 11
452.1610428832208
 21
-718.6107919474854
 31
0.0
  0
LINE
  5
2570
330
2650
100
AcDbEntity
  8
OUTLINE
100
AcDbLine
 10
-452.1610571167801
 20
-729.6105056522881
 30
0.0
 11
452.1610428832208
 21
-729.6105056522881
 31
0.0
  0
LINE
  5
2571
330
2650
100
AcDbEntity
  8
OUTLINE
100
AcDbLine
 10
452.1610428832208
 20
-718.6107919474854
 30
0.0
 11
452.1610428832208
 21
-718.6035771713378
 31
0.0
  0
LINE
  5
2572
330
2650
100
AcDbEntity
  8
OUTLINE
100
AcDbLine
 10
447.1610428832208
 20
-713.6109220816661
 30
0.0
 11
452.1610428832208
 21
-718.6107919474854
 31
0.0
  0
LINE
  5
2573
330
2650
100
AcDbEntity
  8
OUTLINE
100
AcDbLine
 10
447.1610428832208
 20
-713.6037073055174
 30
0.0
 11
447.1610428832208
 21
-713.6109220816661
 31
0.0
  0
LINE
  5
2574
330
2650
100
AcDbEntity
  8
OUTLINE
100
AcDbLine
 10
447.1610428832208
 20
-713.6109220816661
 30
0.0
 11
-447.1610571167802
 21
-713.6109220816661
 31
0.0
  0
LINE
  5
2575
330
2650
100
AcDbEntity
  8
OUTLINE
100
AcDbLine
 10
452.1610428832208
 20
-718.6035771713378
 30
0.0
 11
447.1610428832208
 21
-713.6037073055174
 31
0.0
  0
LINE
  5
2576
330
2650
100
AcDbEntity
  8
OUTLINE
100
AcDbLine
 10
-447.1610571167802
 20
-713.6037073055192
 30
0.0
 11
447.1610428832208
 21
-713.6037073055174
 31
0.0
  0
LINE
  5
2577
330
2650
100
AcDbEntity
  8
OUTLINE
100
AcDbLine
 10
-447.1610571167802
 20
-713.6109220816661
 30
0.0
 11
-447.1610571167802
 21
-713.6037073055192
 31
0.0
  0
LINE
  5
2578
330
2650
100
AcDbEntity
  8
OUTLINE
100
AcDbLine
 10
-452.1610571167801
 20
-718.6107919474859
 30
0.0
 11
-447.1610571167802
 21
-713.6109220816661
 31
0.0
  0
LINE
  5
2579
330
2650
100
AcDbEntity
  8
OUTLINE
100
AcDbLine
 10
-452.1610571167801
 20
-718.6035771713378
 30
0.0
 11
-452.1610571167801
 21
-718.6107919474859
 31
0.0
  0
LINE
  5
257A
330
2650
100
AcDbEntity
  8
OUTLINE
100
AcDbLine
 10
-447.1610571167802
 20
-713.6037073055192
 30
0.0
 11
-452.1610571167801
 21
-718.6035771713378
 31
0.0
  0
LINE
  5
257B
330
2650
100
AcDbEntity
  8
OUTLINE
100
AcDbLine
 10
-451.1610571167802
 20
-769.6094645788415
 30
0.0
 11
-452.1610571167801
 21
-769.6094645788415
 31
0.0
  0
LINE
  5
257C
330
2650
100
AcDbEntity
  8
OUTLINE
100
AcDbLine
 10
-362.1610571167802
 20
-730.6104796254515
 30
0.0
 11
-451.1610571167802
 21
-769.6094645788415
 31
0.0
  0
LINE
  5
257D
330
2650
100
AcDbEntity
  8
OUTLINE
100
AcDbLine
 10
-362.1610571167802
 20
-729.6105056522874
 30
0.0
 11
-362.1610571167802
 21
-730.6104796254515
 31
0.0
  0
LINE
  5
257E
330
2650
100
AcDbEntity
  8
OUTLINE
100
AcDbLine
 10
-452.1610571167801
 20
-729.6105056522874
 30
0.0
 11
-362.1610571167802
 21
-729.6105056522874
 31
0.0
  0
LINE
  5
257F
330
2650
100
AcDbEntity
  8
OUTLINE
100
AcDbLine
 10
-452.1610571167801
 20
-769.6094645788415
 30
0.0
 11
-452.1610571167801
 21
-729.6105056522874
 31
0.0
  0
LINE
  5
2580
330
2650
100
AcDbEntity
  8
OUTLINE
100
AcDbLine
 10
453.1610428832204
 20
-729.523555433733
 30
0.0
 11
464.4999999999995
 21
-729.5214132148828
 31
0.0
  0
LINE
  5
2581
330
2650
100
AcDbEntity
  8
OUTLINE
100
AcDbLine
 10
453.1610428832204
 20
-785.0021239577462
 30
0.0
 11
464.4999999999995
 21
-784.9999817388964
 31
0.0
  0
LINE
  5
2582
330
2650
100
AcDbEntity
  8
OUTLINE
100
AcDbLine
 10
453.1610428832204
 20
-729.6103513511187
 30
0.0
 11
453.1610428832204
 21
-729.523555433733
 31
0.0
  0
LINE
  5
2583
330
2650
100
AcDbEntity
  8
OUTLINE
100
AcDbLine
 10
452.1610428832208
 20
-729.6103513511187
 30
0.0
 11
453.1610428832204
 21
-729.6103513511187
 31
0.0
  0
LINE
  5
2584
330
2650
100
AcDbEntity
  8
OUTLINE
100
AcDbLine
 10
453.1610428832204
 20
-729.6103513511187
 30
0.0
 11
453.1610428832204
 21
-785.0021239577462
 31
0.0
  0
LINE
  5
2585
330
2650
100
AcDbEntity
  8
OUTLINE
100
AcDbLine
 10
452.1610428832208
 20
-785.0021239577462
 30
0.0
 11
453.1610428832204
 21
-785.0021239577462
 31
0.0
  0
LINE
  5
2586
330
2650
100
AcDbEntity
  8
OUTLINE
100
AcDbLine
 10
452.1610428832208
 20
-769.6094645788415
 30
0.0
 11
452.1610428832208
 21
-785.0021239577462
 31
0.0
  0
LINE
  5
2587
330
2650
100
AcDbEntity
  8
OUTLINE
100
AcDbLine
 10
464.4999999999995
 20
-729.514195965564
 30
0.0
 11
452.1610428832208
 21
-729.5165271099756
 31
0.0
  0
LINE
  5
2588
330
2650
100
AcDbEntity
  8
OUTLINE
100
AcDbLine
 10
465.1827650562117
 20
-729.5212842231108
 30
0.0
 11
465.1565881079071
 21
-729.5140719192868
 31
0.0
  0
LINE
  5
2589
330
2650
100
AcDbEntity
  8
OUTLINE
100
AcDbLine
 10
-464.5000000000004
 20
-729.5141959682544
 30
0.0
 11
-464.5000000000004
 21
-784.9999817415863
 31
0.0
  0
LINE
  5
258A
330
2650
100
AcDbEntity
  8
OUTLINE
100
AcDbLine
 10
464.4999999999995
 20
-729.514195965564
 30
0.0
 11
464.4999999999995
 21
-784.9999817388964
 31
0.0
  0
LINE
  5
258B
330
2650
100
AcDbEntity
  8
OUTLINE
100
AcDbLine
 10
-442.2294375407072
 20
-678.2863687420394
 30
0.0
 11
-442.2294375407072
 21
-691.977436815244
 31
0.0
  0
LINE
  5
258C
330
2650
100
AcDbEntity
  8
OUTLINE
100
AcDbLine
 10
442.2294375407146
 20
-691.977436815244
 30
0.0
 11
460.7654897479401
 21
-724.1561253042764
 31
0.0
  0
LINE
  5
258D
330
2650
100
AcDbEntity
  8
OUTLINE
100
AcDbLine
 10
443.2290731662797
 20
-678.2865876802852
 30
0.0
 11
442.2294375407146
 21
-678.2863687420394
 31
0.0
  0
LINE
  5
258E
330
2650
100
AcDbEntity
  8
OUTLINE
100
AcDbLine
 10
443.1675414063388
 20
-677.9966233286794
 30
0.0
 11
443.1675414063388
 21
-677.9442873724364
 31
0.0
  0
LINE
  5
258F
330
2650
100
AcDbEntity
  8
OUTLINE
100
AcDbLine
 10
430.157976092479
 20
-691.977436815244
 30
0.0
 11
442.2294375407146
 21
-691.977436815244
 31
0.0
  0
LINE
  5
2590
330
2650
100
AcDbEntity
  8
OUTLINE
100
AcDbLine
 10
443.1675414063388
 20
-678.2865742037194
 30
0.0
 11
443.1675414063388
 21
-677.9966233286794
 31
0.0
  0
LINE
  5
2591
330
2650
100
AcDbEntity
  8
OUTLINE
100
AcDbLine
 10
442.2294375407146
 20
-678.2863687420394
 30
0.0
 11
442.2294375407146
 21
-691.977436815244
 31
0.0
  0
TEXT
  5
2592
330
2650
100
AcDbEntity
  8
ETC
100
AcDbText
 10
841.8088599743017
 20
933.3041490302527
 30
0.0
 40
70.0
  1
QW-70SDB_2
 41
0.9
100
AcDbText
  0
TEXT
  5
2593
330
2650
100
AcDbEntity
  8
ETC
100
AcDbText
 10
833.4088599743015
 20
816.6374823635859
 30
0.0
 40
70.0
  1
システム部材
 41
0.9
100
AcDbText
  0
TEXT
  5
2594
330
2650
100
AcDbEntity
  8
ETC
100
AcDbText
 10
841.8088599743017
 20
699.9708156969195
 30
0.0
 40
70.0
  1
QW-70SDB
 41
0.9
100
AcDbText
  0
LINE
  5
2595
330
2650
100
AcDbEntity
  8
SIZE
100
AcDbLine
 10
-200.0
 20
432.5000000000043
 30
0.0
 11
-200.0
 21
529.3897393377275
 31
0.0
  0
LINE
  5
2596
330
2650
100
AcDbEntity
  8
SIZE
100
AcDbLine
 10
200.0
 20
432.5000000000043
 30
0.0
 11
200.0
 21
529.3897393377275
 31
0.0
  0
LINE
  5
2597
330
2650
100
AcDbEntity
  8
SIZE
100
AcDbLine
 10
-188.0
 20
509.3897393377273
 30
0.0
 11
188.0
 21
509.3897393377273
 31
0.0
  0
INSERT
  5
2598
330
2650
100
AcDbEntity
  8
SIZE
100
AcDbBlockReference
  2
_DOTBLANK
 10
-200.0
 20
509.3897393377273
 30
0.0
 41
12.0
 42
12.0
 43
12.0
 50
180.0
  0
INSERT
  5
2599
330
2650
100
AcDbEntity
  8
SIZE
100
AcDbBlockReference
  2
_DOTBLANK
 10
200.0
 20
509.3897393377273
 30
0.0
 41
12.0
 42
12.0
 43
12.0
  0
LINE
  5
259A
330
2650
100
AcDbEntity
  8
SIZE
100
AcDbLine
 10
-425.0
 20
445.0000000000036
 30
0.0
 11
-425.0
 21
759.4997997842845
 31
0.0
  0
LINE
  5
259B
330
2650
100
AcDbEntity
  8
SIZE
100
AcDbLine
 10
424.9999999999994
 20
445.0000000000036
 30
0.0
 11
424.9999999999994
 21
759.4997997842845
 31
0.0
  0
LINE
  5
259C
330
2650
100
AcDbEntity
  8
SIZE
100
AcDbLine
 10
-413.0
 20
739.499799784284
 30
0.0
 11
412.9999999999994
 21
739.499799784284
 31
0.0
  0
INSERT
  5
259D
330
2650
100
AcDbEntity
  8
SIZE
100
AcDbBlockReference
  2
_DOTBLANK
 10
-425.0
 20
739.499799784284
 30
0.0
 41
12.0
 42
12.0
 43
12.0
 50
180.0
  0
INSERT
  5
259E
330
2650
100
AcDbEntity
  8
SIZE
100
AcDbBlockReference
  2
_DOTBLANK
 10
424.9999999999994
 20
739.499799784284
 30
0.0
 41
12.0
 42
12.0
 43
12.0
  0
LINE
  5
259F
330
2650
100
AcDbEntity
  8
SIZE
100
AcDbLine
 10
-400.0
 20
432.5000000000043
 30
0.0
 11
-400.0
 21
646.0025735870232
 31
0.0
  0
LINE
  5
25A0
330
2650
100
AcDbEntity
  8
SIZE
100
AcDbLine
 10
399.9999999999996
 20
432.5000000000043
 30
0.0
 11
399.9999999999996
 21
646.0025735870232
 31
0.0
  0
LINE
  5
25A1
330
2650
100
AcDbEntity
  8
SIZE
100
AcDbLine
 10
-388.0
 20
626.0025735870232
 30
0.0
 11
388.0
 21
626.0025735870232
 31
0.0
  0
INSERT
  5
25A2
330
2650
100
AcDbEntity
  8
SIZE
100
AcDbBlockReference
  2
_DOTBLANK
 10
-400.0
 20
626.0025735870232
 30
0.0
 41
12.0
 42
12.0
 43
12.0
 50
180.0
  0
INSERT
  5
25A3
330
2650
100
AcDbEntity
  8
SIZE
100
AcDbBlockReference
  2
_DOTBLANK
 10
399.9999999999996
 20
626.0025735870232
 30
0.0
 41
12.0
 42
12.0
 43
12.0
  0
LINE
  5
25A4
330
2650
100
AcDbEntity
  8
SIZE
100
AcDbLine
 10
-432.5
 20
200.0000000000035
 30
0.0
 11
-519.9184918783576
 21
200.0000000000035
 31
0.0
  0
LINE
  5
25A5
330
2650
100
AcDbEntity
  8
SIZE
100
AcDbLine
 10
-432.5
 20
-199.9999999999961
 30
0.0
 11
-519.9184918783576
 21
-199.9999999999961
 31
0.0
  0
LINE
  5
25A6
330
2650
100
AcDbEntity
  8
SIZE
100
AcDbLine
 10
-499.9184918783575
 20
188.0000000000035
 30
0.0
 11
-499.9184918783575
 21
-187.9999999999961
 31
0.0
  0
INSERT
  5
25A7
330
2650
100
AcDbEntity
  8
SIZE
100
AcDbBlockReference
  2
_DOTBLANK
 10
-499.9184918783575
 20
200.0000000000035
 30
0.0
 41
12.0
 42
12.0
 43
12.0
 50
90.0
  0
INSERT
  5
25A8
330
2650
100
AcDbEntity
  8
SIZE
100
AcDbBlockReference
  2
_DOTBLANK
 10
-499.9184918783575
 20
-199.9999999999961
 30
0.0
 41
12.0
 42
12.0
 43
12.0
 50
270.0
  0
LINE
  5
25A9
330
2650
100
AcDbEntity
  8
SIZE
100
AcDbLine
 10
-445.0
 20
425.0000000000036
 30
0.0
 11
-1007.174502777499
 21
425.0000000000036
 31
0.0
  0
LINE
  5
25AA
330
2650
100
AcDbEntity
  8
SIZE
100
AcDbLine
 10
-484.4999999999999
 20
-784.9999817415863
 30
0.0
 11
-1007.174502777499
 21
-784.9999817415863
 31
0.0
  0
LINE
  5
25AB
330
2650
100
AcDbEntity
  8
SIZE
100
AcDbLine
 10
-987.1745027774991
 20
413.0000000000036
 30
0.0
 11
-987.1745027774991
 21
-772.9999817415861
 31
0.0
  0
INSERT
  5
25AC
330
2650
100
AcDbEntity
  8
SIZE
100
AcDbBlockReference
  2
_DOTBLANK
 10
-987.1745027774991
 20
425.0000000000036
 30
0.0
 41
12.0
 42
12.0
 43
12.0
 50
90.0
  0
INSERT
  5
25AD
330
2650
100
AcDbEntity
  8
SIZE
100
AcDbBlockReference
  2
_DOTBLANK
 10
-987.1745027774991
 20
-784.9999817415863
 30
0.0
 41
12.0
 42
12.0
 43
12.0
 50
270.0
  0
LINE
  5
25AE
330
2650
100
AcDbEntity
  8
SIZE
100
AcDbLine
 10
-445.0
 20
425.0000000000036
 30
0.0
 11
-830.9003322788155
 21
425.0000000000036
 31
0.0
  0
LINE
  5
25AF
330
2650
100
AcDbEntity
  8
SIZE
100
AcDbLine
 10
-445.0
 20
-424.9999999999963
 30
0.0
 11
-830.9003322788155
 21
-424.999999999996
 31
0.0
  0
LINE
  5
25B0
330
2650
100
AcDbEntity
  8
SIZE
100
AcDbLine
 10
-810.9003322788156
 20
413.0000000000036
 30
0.0
 11
-810.9003322788156
 21
-412.9999999999959
 31
0.0
  0
INSERT
  5
25B1
330
2650
100
AcDbEntity
  8
SIZE
100
AcDbBlockReference
  2
_DOTBLANK
 10
-810.9003322788156
 20
425.0000000000036
 30
0.0
 41
12.0
 42
12.0
 43
12.0
 50
90.0
  0
INSERT
  5
25B2
330
2650
100
AcDbEntity
  8
SIZE
100
AcDbBlockReference
  2
_DOTBLANK
 10
-810.9003322788156
 20
-424.999999999996
 30
0.0
 41
12.0
 42
12.0
 43
12.0
 50
270.0
  0
LINE
  5
25B3
330
2650
100
AcDbEntity
  8
SIZE
100
AcDbLine
 10
-432.5
 20
400.0000000000043
 30
0.0
 11
-670.8976252747524
 21
400.0000000000043
 31
0.0
  0
LINE
  5
25B4
330
2650
100
AcDbEntity
  8
SIZE
100
AcDbLine
 10
-432.5
 20
-399.9999999999964
 30
0.0
 11
-670.8976252747531
 21
-399.9999999999964
 31
0.0
  0
LINE
  5
25B5
330
2650
100
AcDbEntity
  8
SIZE
100
AcDbLine
 10
-650.8976252747523
 20
388.0000000000046
 30
0.0
 11
-650.897625274753
 21
-387.9999999999964
 31
0.0
  0
INSERT
  5
25B6
330
2650
100
AcDbEntity
  8
SIZE
100
AcDbBlockReference
  2
_DOTBLANK
 10
-650.8976252747523
 20
400.0000000000043
 30
0.0
 41
12.0
 42
12.0
 43
12.0
 50
90.0
  0
INSERT
  5
25B7
330
2650
100
AcDbEntity
  8
SIZE
100
AcDbBlockReference
  2
_DOTBLANK
 10
-650.897625274753
 20
-399.9999999999964
 30
0.0
 41
12.0
 42
12.0
 43
12.0
 50
270.0
  0
LINE
  5
25B8
330
2650
100
AcDbEntity
  8
SIZE
100
AcDbLine
 10
-464.5000000000004
 20
-804.9960817415863
 30
0.0
 11
-464.5000000000004
 21
-945.5719943122876
 31
0.0
  0
LINE
  5
25B9
330
2650
100
AcDbEntity
  8
SIZE
100
AcDbLine
 10
464.4999999999995
 20
-804.9960817388964
 30
0.0
 11
464.4999999999995
 21
-945.5719943122876
 31
0.0
  0
LINE
  5
25BA
330
2650
100
AcDbEntity
  8
SIZE
100
AcDbLine
 10
-452.5
 20
-925.5719943122874
 30
0.0
 11
452.4999999999995
 21
-925.5719943122874
 31
0.0
  0
INSERT
  5
25BB
330
2650
100
AcDbEntity
  8
SIZE
100
AcDbBlockReference
  2
_DOTBLANK
 10
-464.5000000000004
 20
-925.5719943122874
 30
0.0
 41
12.0
 42
12.0
 43
12.0
 50
180.0
  0
INSERT
  5
25BC
330
2650
100
AcDbEntity
  8
SIZE
100
AcDbBlockReference
  2
_DOTBLANK
 10
464.4999999999995
 20
-925.5719943122874
 30
0.0
 41
12.0
 42
12.0
 43
12.0
  0
TEXT
  5
25BD
330
2650
100
AcDbEntity
  8
SIZE
100
AcDbText
 10
-74.05714285714293
 20
749.4997997842845
 30
0.0
 40
64.0
  1
850
 41
0.9
100
AcDbText
  0
TEXT
  5
25BE
330
2650
100
AcDbEntity
  8
SIZE
100
AcDbText
 10
-74.05714285714293
 20
636.0025735870229
 30
0.0
 40
64.0
  1
800
 41
0.9
100
AcDbText
  0
TEXT
  5
25BF
330
2650
100
AcDbEntity
  8
SIZE
100
AcDbText
 10
-74.05714285714293
 20
519.3897393377275
 30
0.0
 40
64.0
  1
400
 41
0.9
100
AcDbText
  0
TEXT
  5
25C0
330
2650
100
AcDbEntity
  8
SIZE
100
AcDbText
 10
-509.9184918783576
 20
-74.0571428571393
 30
0.0
 40
64.0
  1
400
 50
90.0
 41
0.9
100
AcDbText
  0
TEXT
  5
25C1
330
2650
100
AcDbEntity
  8
SIZE
100
AcDbText
 10
-660.8976252747525
 20
-74.05714285713826
 30
0.0
 40
64.0
  1
800
 50
90.0
 41
0.9
100
AcDbText
  0
TEXT
  5
25C2
330
2650
100
AcDbEntity
  8
SIZE
100
AcDbText
 10
-820.9003322788156
 20
-74.05714285713826
 30
0.0
 40
64.0
  1
850
 50
90.0
 41
0.9
100
AcDbText
  0
TEXT
  5
25C3
330
2650
100
AcDbEntity
  8
SIZE
100
AcDbText
 10
-997.1745027774993
 20
-270.0651645514319
 30
0.0
 40
64.0
  1
1210
 50
90.0
 41
0.9
100
AcDbText
  0
TEXT
  5
25C4
330
2650
100
AcDbEntity
  8
SIZE
100
AcDbText
 10
-72.6857142857143
 20
-915.5719943122873
 30
0.0
 40
64.0
  1
929
 41
0.9
100
AcDbText
  0
ENDSEC
  0
SECTION
  2
OBJECTS
  0
DICTIONARY
  5
25E8
330
0
100
AcDbDictionary
281
     1
  3
ACAD_2007HEADERVARS_RT
350
282A
  3
ACAD_COLOR
350
2646
  3
ACAD_GROUP
350
25E9
  3
ACAD_LAYOUT
350
2645
  3
ACAD_MATERIAL
350
25EC
  3
ACAD_MLEADERSTYLE
350
2649
  3
ACAD_MLINESTYLE
350
2642
  3
ACAD_PLOTSETTINGS
350
2644
  3
ACAD_PLOTSTYLENAME
350
25EA
  3
ACAD_SCALELIST
350
2616
  3
ACAD_TABLESTYLE
350
2647
  3
ACAD_VISUALSTYLE
350
2605
  3
ACDB_RECOMPOSE_DATA
350
2828
  3
AcDbVariableDictionary
350
281F
  3
AcmDictionary
350
27D2
  3
AMG
350
271F
  3
DWGPROPS
350
2829
  3
MAPISURF_MODULE
350
279F
  0
DICTIONARY
  5
27FA
330
2638
100
AcDbDictionary
280
     1
281
     1
  3
ADSK_XREC_LAYER_RECONCILED
360
27FB
  0
DICTIONARY
  5
27FC
330
2667
100
AcDbDictionary
280
     1
281
     1
  3
ADSK_XREC_LAYER_RECONCILED
360
27FD
  0
DICTIONARY
  5
27FE
330
2668
100
AcDbDictionary
280
     1
281
     1
  3
ADSK_XREC_LAYER_RECONCILED
360
27FF
  0
DICTIONARY
  5
2800
330
2669
100
AcDbDictionary
280
     1
281
     1
  3
ADSK_XREC_LAYER_RECONCILED
360
2801
  0
DICTIONARY
  5
2802
330
266A
100
AcDbDictionary
280
     1
281
     1
  3
ADSK_XREC_LAYER_RECONCILED
360
2803
  0
DICTIONARY
  5
2804
330
266B
100
AcDbDictionary
280
     1
281
     1
  3
ADSK_XREC_LAYER_RECONCILED
360
2805
  0
DICTIONARY
  5
2806
330
266D
100
AcDbDictionary
280
     1
281
     1
  3
ADSK_XREC_LAYER_RECONCILED
360
2807
  0
DICTIONARY
  5
2808
330
266E
100
AcDbDictionary
280
     1
281
     1
  3
ADSK_XREC_LAYER_RECONCILED
360
2809
  0
DICTIONARY
  5
280A
330
266F
100
AcDbDictionary
280
     1
281
     1
  3
ADSK_XREC_LAYER_RECONCILED
360
280B
  0
DICTIONARY
  5
280C
330
2670
100
AcDbDictionary
280
     1
281
     1
  3
ADSK_XREC_LAYER_RECONCILED
360
280D
  0
DICTIONARY
  5
280E
330
2671
100
AcDbDictionary
280
     1
281
     1
  3
ADSK_XREC_LAYER_RECONCILED
360
280F
  0
DICTIONARY
  5
2810
330
2650
100
AcDbDictionary
280
     1
281
     1
  3
ACAD_INDEX
360
2811
  0
DICTIONARY
  5
282A
102
{ACAD_REACTORS
330
25E8
102
}
330
25E8
100
AcDbDictionary
281
     1
  3
DIMARCSYM
350
282B
  3
DIMLTEX1
350
282D
  3
DIMLTEX2
350
282E
  3
DIMLTYPE
350
282C
  0
DICTIONARY
  5
2646
102
{ACAD_REACTORS
330
25E8
102
}
330
25E8
100
AcDbDictionary
281
     1
  0
DICTIONARY
  5
25E9
102
{ACAD_REACTORS
330
25E8
102
}
330
25E8
100
AcDbDictionary
281
     1
  0
DICTIONARY
  5
2645
102
{ACAD_REACTORS
330
25E8
102
}
330
25E8
100
AcDbDictionary
281
     1
  3
Model
350
2653
  3
レイアウト1
350
264F
  0
DICTIONARY
  5
25EC
102
{ACAD_REACTORS
330
25E8
102
}
330
25E8
100
AcDbDictionary
281
     1
  3
ByBlock
350
25F5
  3
ByLayer
350
25ED
  3
Global
350
25FD
  0
DICTIONARY
  5
2649
102
{ACAD_REACTORS
330
25E8
102
}
330
25E8
100
AcDbDictionary
281
     1
  3
Standard
350
264A
  0
DICTIONARY
  5
2642
102
{ACAD_REACTORS
330
25E8
102
}
330
25E8
100
AcDbDictionary
281
     1
  3
Standard
350
2643
  0
DICTIONARY
  5
2644
102
{ACAD_REACTORS
330
25E8
102
}
330
25E8
100
AcDbDictionary
281
     1
  0
ACDBDICTIONARYWDFLT
  5
25EA
102
{ACAD_REACTORS
330
25E8
102
}
330
25E8
100
AcDbDictionary
281
     1
  3
Normal
350
25EB
100
AcDbDictionaryWithDefault
340
25EB
  0
DICTIONARY
  5
2616
102
{ACAD_REACTORS
330
25E8
102
}
330
25E8
100
AcDbDictionary
281
     1
  3
A0
350
2617
  3
A1
350
2618
  3
A2
350
2619
  3
A3
350
261A
  3
A4
350
261B
  3
A5
350
261C
  3
A6
350
261D
  3
A7
350
261E
  3
A8
350
261F
  3
A9
350
2620
  3
B0
350
2621
  3
B1
350
2622
  3
B2
350
2623
  3
B3
350
2624
  3
B4
350
2625
  3
B5
350
2626
  3
B6
350
2627
  3
B7
350
2628
  3
B8
350
2629
  3
B9
350
262A
  3
C0
350
262B
  3
C1
350
262C
  3
C2
350
262D
  3
C3
350
262E
  3
C4
350
262F
  3
C5
350
2630
  3
C6
350
2631
  3
C7
350
2632
  3
C8
350
2633
  3
C9
350
2634
  3
D0
350
2635
  3
D1
350
2636
  3
D2
350
2637
  0
DICTIONARY
  5
2647
102
{ACAD_REACTORS
330
25E8
102
}
330
25E8
100
AcDbDictionary
281
     1
  3
Standard
350
2648
  0
DICTIONARY
  5
2605
102
{ACAD_REACTORS
330
25E8
102
}
330
25E8
100
AcDbDictionary
281
     1
  3
2dWireframe
350
260B
  3
3D Hidden
350
260D
  3
3dWireframe
350
260C
  3
Basic
350
260A
  3
Brighten
350
2611
  3
ColorChange
350
2615
  3
Conceptual
350
260E
  3
Dim
350
2610
  3
Facepattern
350
2614
  3
Flat
350
2606
  3
FlatWithEdges
350
2607
  3
Gouraud
350
2608
  3
GouraudWithEdges
350
2609
  3
Linepattern
350
2613
  3
Realistic
350
260F
  3
Thicken
350
2612
  0
XRECORD
  5
2828
102
{ACAD_REACTORS
330
25E8
102
}
330
25E8
100
AcDbXrecord
280
     1
 90
        1
330
2648
  0
DICTIONARY
  5
281F
102
{ACAD_REACTORS
330
25E8
102
}
330
25E8
100
AcDbDictionary
281
     1
  3
CANNOSCALE
350
2822
  3
CMLEADERSTYLE
350
2821
  3
CTABLESTYLE
350
2820
  3
DIMASSOC
350
2825
  3
INDEXCTL
350
2824
  3
SORTENTS
350
2823
  0
DICTIONARY
  5
27D2
102
{ACAD_REACTORS
330
25E8
102
}
330
25E8
100
AcDbDictionary
281
     1
  3
AcmStdDictionary
350
27E0
  0
DICTIONARY
  5
271F
102
{ACAD_REACTORS
330
25E8
102
}
330
25E8
100
AcDbDictionary
281
     1
  3
AcMgSettings
350
2720
  0
XRECORD
  5
2829
102
{ACAD_REACTORS
330
25E8
102
}
330
25E8
100
AcDbXrecord
280
     1
  1
DWGPROPS COOKIE
  2

  3

  4

  6

  7

  8
A090053
  9

300
AmdtFileType=84
301
=
302
=
303
=
304
=
305
=
306
=
307
=
308
=
309
=
 40
1.039335717592592
 41
2452321.396199653
 42
2456212.850401551
  1

 90
        1
  0
XRECORD
  5
27FB
102
{ACAD_REACTORS
330
27FA
102
}
330
27FA
100
AcDbXrecord
280
     1
290
     1
  0
XRECORD
  5
27FD
102
{ACAD_REACTORS
330
27FC
102
}
330
27FC
100
AcDbXrecord
280
     1
290
     1
  0
XRECORD
  5
27FF
102
{ACAD_REACTORS
330
27FE
102
}
330
27FE
100
AcDbXrecord
280
     1
290
     1
  0
XRECORD
  5
2801
102
{ACAD_REACTORS
330
2800
102
}
330
2800
100
AcDbXrecord
280
     1
290
     1
  0
XRECORD
  5
2803
102
{ACAD_REACTORS
330
2802
102
}
330
2802
100
AcDbXrecord
280
     1
290
     1
  0
XRECORD
  5
2805
102
{ACAD_REACTORS
330
2804
102
}
330
2804
100
AcDbXrecord
280
     1
290
     1
  0
XRECORD
  5
2807
102
{ACAD_REACTORS
330
2806
102
}
330
2806
100
AcDbXrecord
280
     1
290
     1
  0
XRECORD
  5
2809
102
{ACAD_REACTORS
330
2808
102
}
330
2808
100
AcDbXrecord
280
     1
290
     1
  0
XRECORD
  5
280B
102
{ACAD_REACTORS
330
280A
102
}
330
280A
100
AcDbXrecord
280
     1
290
     1
  0
XRECORD
  5
280D
102
{ACAD_REACTORS
330
280C
102
}
330
280C
100
AcDbXrecord
280
     1
290
     1
  0
XRECORD
  5
280F
102
{ACAD_REACTORS
330
280E
102
}
330
280E
100
AcDbXrecord
280
     1
290
     1
  0
DICTIONARY
  5
2811
102
{ACAD_REACTORS
330
2810
102
}
330
2810
100
AcDbDictionary
281
     1
  3
*A1
350
2812
  0
XRECORD
  5
282B
102
{ACAD_REACTORS
330
282A
102
}
330
282A
100
AcDbXrecord
280
     1
 70
     1
  0
XRECORD
  5
282D
102
{ACAD_REACTORS
330
282A
102
}
330
282A
100
AcDbXrecord
280
     1
340
263E
  0
XRECORD
  5
282E
102
{ACAD_REACTORS
330
282A
102
}
330
282A
100
AcDbXrecord
280
     1
340
263E
  0
XRECORD
  5
282C
102
{ACAD_REACTORS
330
282A
102
}
330
282A
100
AcDbXrecord
280
     1
340
263E
  0
LAYOUT
  5
2653
102
{ACAD_XDICTIONARY
360
2835
102
}
102
{ACAD_REACTORS
330
2645
102
}
330
2645
100
AcDbPlotSettings
  1

  2
自動 EPSON LP-9600S (W2450527 上)
  4

  6

 40
0.0
 41
0.0
 42
0.0
 43
0.0
 44
0.0
 45
0.0
 46
0.0
 47
0.0
 48
0.0
 49
0.0
140
0.0
141
0.0
142
1.0
143
1.0
 70
  1712
 72
     0
 73
     0
 74
     0
  7

 75
     0
147
1.0
148
0.0
149
0.0
100
AcDbLayout
  1
Model
 70
     1
 71
     0
 10
0.0
 20
0.0
 11
12.0
 21
9.0
 12
0.0
 22
0.0
 32
0.0
 14
0.0
 24
0.0
 34
0.0
 15
0.0
 25
0.0
 35
0.0
146
0.0
 13
0.0
 23
0.0
 33
0.0
 16
1.0
 26
0.0
 36
0.0
 17
0.0
 27
1.0
 37
0.0
 76
     0
330
2650
331
2654
  0
LAYOUT
  5
264F
102
{ACAD_XDICTIONARY
360
2833
102
}
102
{ACAD_REACTORS
330
2645
102
}
330
2645
100
AcDbPlotSettings
  1

  2
自動 EPSON LP-9600S (W2450527 上)
  4

  6

 40
0.0
 41
0.0
 42
0.0
 43
0.0
 44
0.0
 45
0.0
 46
0.0
 47
0.0
 48
0.0
 49
0.0
140
0.0
141
0.0
142
1.0
143
1.0
 70
   688
 72
     0
 73
     0
 74
     5
  7

 75
    16
147
1.0
148
0.0
149
0.0
100
AcDbLayout
  1
レイアウト1
 70
     1
 71
     1
 10
0.0
 20
0.0
 11
12.0
 21
9.0
 12
0.0
 22
0.0
 32
0.0
 14
1.000000000000000E+20
 24
1.000000000000000E+20
 34
1.000000000000000E+20
 15
-1.000000000000000E+20
 25
-1.000000000000000E+20
 35
-1.000000000000000E+20
146
0.0
 13
0.0
 23
0.0
 33
0.0
 16
1.0
 26
0.0
 36
0.0
 17
0.0
 27
1.0
 37
0.0
 76
     0
330
264C
  0
MATERIAL
  5
25F5
102
{ACAD_XDICTIONARY
360
25F6
102
}
102
{ACAD_REACTORS
330
25EC
102
}
330
25EC
100
AcDbMaterial
  1
ByBlock
 72
     0
 43
0.0208333333333333
 43
0.0
 43
0.0
 43
0.0
 43
0.0
 43
0.0208333333333333
 43
0.0
 43
0.0
 43
0.0
 43
0.0
 43
1.0
 43
0.0
 43
0.0
 43
0.0
 43
0.0
 43
1.0
 77
     0
 47
0.0208333333333333
 47
0.0
 47
0.0
 47
0.0
 47
0.0
 47
0.0208333333333333
 47
0.0
 47
0.0
 47
0.0
 47
0.0
 47
1.0
 47
0.0
 47
0.0
 47
0.0
 47
0.0
 47
1.0
171
     0
 49
0.0208333333333333
 49
0.0
 49
0.0
 49
0.0
 49
0.0
 49
0.0208333333333333
 49
0.0
 49
0.0
 49
0.0
 49
0.0
 49
1.0
 49
0.0
 49
0.0
 49
0.0
 49
0.0
 49
1.0
175
     0
142
0.0208333333333333
142
0.0
142
0.0
142
0.0
142
0.0
142
0.0208333333333333
142
0.0
142
0.0
142
0.0
142
0.0
142
1.0
142
0.0
142
0.0
142
0.0
142
0.0
142
1.0
179
     0
144
0.0208333333333333
144
0.0
144
0.0
144
0.0
144
0.0
144
0.0208333333333333
144
0.0
144
0.0
144
0.0
144
0.0
144
1.0
144
0.0
144
0.0
144
0.0
144
0.0
144
1.0
147
0.0208333333333333
147
0.0
147
0.0
147
0.0
147
0.0
147
0.0208333333333333
147
0.0
147
0.0
147
0.0
147
0.0
147
1.0
147
0.0
147
0.0
147
0.0
147
0.0
147
1.0
  0
MATERIAL
  5
25ED
102
{ACAD_XDICTIONARY
360
25EE
102
}
102
{ACAD_REACTORS
330
25EC
102
}
330
25EC
100
AcDbMaterial
  1
ByLayer
 72
     0
 43
0.0208333333333333
 43
0.0
 43
0.0
 43
0.0
 43
0.0
 43
0.0208333333333333
 43
0.0
 43
0.0
 43
0.0
 43
0.0
 43
1.0
 43
0.0
 43
0.0
 43
0.0
 43
0.0
 43
1.0
 77
     0
 47
0.0208333333333333
 47
0.0
 47
0.0
 47
0.0
 47
0.0
 47
0.0208333333333333
 47
0.0
 47
0.0
 47
0.0
 47
0.0
 47
1.0
 47
0.0
 47
0.0
 47
0.0
 47
0.0
 47
1.0
171
     0
 49
0.0208333333333333
 49
0.0
 49
0.0
 49
0.0
 49
0.0
 49
0.0208333333333333
 49
0.0
 49
0.0
 49
0.0
 49
0.0
 49
1.0
 49
0.0
 49
0.0
 49
0.0
 49
0.0
 49
1.0
175
     0
142
0.0208333333333333
142
0.0
142
0.0
142
0.0
142
0.0
142
0.0208333333333333
142
0.0
142
0.0
142
0.0
142
0.0
142
1.0
142
0.0
142
0.0
142
0.0
142
0.0
142
1.0
179
     0
144
0.0208333333333333
144
0.0
144
0.0
144
0.0
144
0.0
144
0.0208333333333333
144
0.0
144
0.0
144
0.0
144
0.0
144
1.0
144
0.0
144
0.0
144
0.0
144
0.0
144
1.0
147
0.0208333333333333
147
0.0
147
0.0
147
0.0
147
0.0
147
0.0208333333333333
147
0.0
147
0.0
147
0.0
147
0.0
147
1.0
147
0.0
147
0.0
147
0.0
147
0.0
147
1.0
  0
MATERIAL
  5
25FD
102
{ACAD_XDICTIONARY
360
25FE
102
}
102
{ACAD_REACTORS
330
25EC
102
}
330
25EC
100
AcDbMaterial
  1
Global
 72
     0
 43
0.0208333333333333
 43
0.0
 43
0.0
 43
0.0
 43
0.0
 43
0.0208333333333333
 43
0.0
 43
0.0
 43
0.0
 43
0.0
 43
1.0
 43
0.0
 43
0.0
 43
0.0
 43
0.0
 43
1.0
 77
     0
 47
0.0208333333333333
 47
0.0
 47
0.0
 47
0.0
 47
0.0
 47
0.0208333333333333
 47
0.0
 47
0.0
 47
0.0
 47
0.0
 47
1.0
 47
0.0
 47
0.0
 47
0.0
 47
0.0
 47
1.0
171
     0
 49
0.0208333333333333
 49
0.0
 49
0.0
 49
0.0
 49
0.0
 49
0.0208333333333333
 49
0.0
 49
0.0
 49
0.0
 49
0.0
 49
1.0
 49
0.0
 49
0.0
 49
0.0
 49
0.0
 49
1.0
175
     0
142
0.0208333333333333
142
0.0
142
0.0
142
0.0
142
0.0
142
0.0208333333333333
142
0.0
142
0.0
142
0.0
142
0.0
142
1.0
142
0.0
142
0.0
142
0.0
142
0.0
142
1.0
179
     0
144
0.0208333333333333
144
0.0
144
0.0
144
0.0
144
0.0
144
0.0208333333333333
144
0.0
144
0.0
144
0.0
144
0.0
144
1.0
144
0.0
144
0.0
144
0.0
144
0.0
144
1.0
147
0.0208333333333333
147
0.0
147
0.0
147
0.0
147
0.0
147
0.0208333333333333
147
0.0
147
0.0
147
0.0
147
0.0
147
1.0
147
0.0
147
0.0
147
0.0
147
0.0
147
1.0
  0
MLEADERSTYLE
  5
264A
102
{ACAD_REACTORS
330
2649
102
}
330
2649
100
AcDbMLeaderStyle
170
     2
171
     1
172
     0
 90
        2
 40
0.0
 41
0.0
173
     1
 91
-1056964608
340
263E
 92
       -2
290
     1
 42
0.09
291
     1
 43
0.36
  3
Standard
 44
0.18
300

342
2639
174
     1
178
     6
175
     1
176
     0
 93
-1056964608
 45
0.18
292
     0
297
     0
 46
0.18
 94
-1056964608
 47
1.0
 49
1.0
140
1.0
293
     1
141
0.0
294
     1
177
     0
142
1.0
295
     0
296
     0
143
0.125
1001
ACAD_MLEADERVER
1070
     2
  0
MLINESTYLE
  5
2643
102
{ACAD_REACTORS
330
2642
102
}
330
2642
100
AcDbMlineStyle
  2
STANDARD
 70
     0
  3

 62
   256
 51
90.0
 52
90.0
 71
     2
 49
0.5
 62
   256
  6
BYLAYER
 49
-0.5
 62
   256
  6
BYLAYER
  0
ACDBPLACEHOLDER
  5
25EB
102
{ACAD_REACTORS
330
25EA
102
}
330
25EA
  0
SCALE
  5
2617
102
{ACAD_REACTORS
330
2616
102
}
330
2616
100
AcDbScale
 70
     0
300
1:1
140
1.0
141
1.0
290
     1
  0
SCALE
  5
2618
102
{ACAD_REACTORS
330
2616
102
}
330
2616
100
AcDbScale
 70
     0
300
1:2
140
1.0
141
2.0
290
     0
  0
SCALE
  5
2619
102
{ACAD_REACTORS
330
2616
102
}
330
2616
100
AcDbScale
 70
     0
300
1:4
140
1.0
141
4.0
290
     0
  0
SCALE
  5
261A
102
{ACAD_REACTORS
330
2616
102
}
330
2616
100
AcDbScale
 70
     0
300
1:5
140
1.0
141
5.0
290
     0
  0
SCALE
  5
261B
102
{ACAD_REACTORS
330
2616
102
}
330
2616
100
AcDbScale
 70
     0
300
1:8
140
1.0
141
8.0
290
     0
  0
SCALE
  5
261C
102
{ACAD_REACTORS
330
2616
102
}
330
2616
100
AcDbScale
 70
     0
300
1:10
140
1.0
141
10.0
290
     0
  0
SCALE
  5
261D
102
{ACAD_REACTORS
330
2616
102
}
330
2616
100
AcDbScale
 70
     0
300
1:16
140
1.0
141
16.0
290
     0
  0
SCALE
  5
261E
102
{ACAD_REACTORS
330
2616
102
}
330
2616
100
AcDbScale
 70
     0
300
1:20
140
1.0
141
20.0
290
     0
  0
SCALE
  5
261F
102
{ACAD_REACTORS
330
2616
102
}
330
2616
100
AcDbScale
 70
     0
300
1:30
140
1.0
141
30.0
290
     0
  0
SCALE
  5
2620
102
{ACAD_REACTORS
330
2616
102
}
330
2616
100
AcDbScale
 70
     0
300
1:40
140
1.0
141
40.0
290
     0
  0
SCALE
  5
2621
102
{ACAD_REACTORS
330
2616
102
}
330
2616
100
AcDbScale
 70
     0
300
1:50
140
1.0
141
50.0
290
     0
  0
SCALE
  5
2622
102
{ACAD_REACTORS
330
2616
102
}
330
2616
100
AcDbScale
 70
     0
300
1:100
140
1.0
141
100.0
290
     0
  0
SCALE
  5
2623
102
{ACAD_REACTORS
330
2616
102
}
330
2616
100
AcDbScale
 70
     0
300
2:1
140
2.0
141
1.0
290
     0
  0
SCALE
  5
2624
102
{ACAD_REACTORS
330
2616
102
}
330
2616
100
AcDbScale
 70
     0
300
4:1
140
4.0
141
1.0
290
     0
  0
SCALE
  5
2625
102
{ACAD_REACTORS
330
2616
102
}
330
2616
100
AcDbScale
 70
     0
300
8:1
140
8.0
141
1.0
290
     0
  0
SCALE
  5
2626
102
{ACAD_REACTORS
330
2616
102
}
330
2616
100
AcDbScale
 70
     0
300
10:1
140
10.0
141
1.0
290
     0
  0
SCALE
  5
2627
102
{ACAD_REACTORS
330
2616
102
}
330
2616
100
AcDbScale
 70
     0
300
100:1
140
100.0
141
1.0
290
     0
  0
SCALE
  5
2628
102
{ACAD_REACTORS
330
2616
102
}
330
2616
100
AcDbScale
 70
     0
300
1/128" = 1'-0"
140
0.0078125
141
12.0
290
     0
  0
SCALE
  5
2629
102
{ACAD_REACTORS
330
2616
102
}
330
2616
100
AcDbScale
 70
     0
300
1/64" = 1'-0"
140
0.015625
141
12.0
290
     0
  0
SCALE
  5
262A
102
{ACAD_REACTORS
330
2616
102
}
330
2616
100
AcDbScale
 70
     0
300
1/32" = 1'-0"
140
0.03125
141
12.0
290
     0
  0
SCALE
  5
262B
102
{ACAD_REACTORS
330
2616
102
}
330
2616
100
AcDbScale
 70
     0
300
1/16" = 1'-0"
140
0.0625
141
12.0
290
     0
  0
SCALE
  5
262C
102
{ACAD_REACTORS
330
2616
102
}
330
2616
100
AcDbScale
 70
     0
300
3/32" = 1'-0"
140
0.09375
141
12.0
290
     0
  0
SCALE
  5
262D
102
{ACAD_REACTORS
330
2616
102
}
330
2616
100
AcDbScale
 70
     0
300
1/8" = 1'-0"
140
0.125
141
12.0
290
     0
  0
SCALE
  5
262E
102
{ACAD_REACTORS
330
2616
102
}
330
2616
100
AcDbScale
 70
     0
300
3/16" = 1'-0"
140
0.1875
141
12.0
290
     0
  0
SCALE
  5
262F
102
{ACAD_REACTORS
330
2616
102
}
330
2616
100
AcDbScale
 70
     0
300
1/4" = 1'-0"
140
0.25
141
12.0
290
     0
  0
SCALE
  5
2630
102
{ACAD_REACTORS
330
2616
102
}
330
2616
100
AcDbScale
 70
     0
300
3/8" = 1'-0"
140
0.375
141
12.0
290
     0
  0
SCALE
  5
2631
102
{ACAD_REACTORS
330
2616
102
}
330
2616
100
AcDbScale
 70
     0
300
1/2" = 1'-0"
140
0.5
141
12.0
290
     0
  0
SCALE
  5
2632
102
{ACAD_REACTORS
330
2616
102
}
330
2616
100
AcDbScale
 70
     0
300
3/4" = 1'-0"
140
0.75
141
12.0
290
     0
  0
SCALE
  5
2633
102
{ACAD_REACTORS
330
2616
102
}
330
2616
100
AcDbScale
 70
     0
300
1" = 1'-0"
140
1.0
141
12.0
290
     0
  0
SCALE
  5
2634
102
{ACAD_REACTORS
330
2616
102
}
330
2616
100
AcDbScale
 70
     0
300
1-1/2" = 1'-0"
140
1.5
141
12.0
290
     0
  0
SCALE
  5
2635
102
{ACAD_REACTORS
330
2616
102
}
330
2616
100
AcDbScale
 70
     0
300
3" = 1'-0"
140
3.0
141
12.0
290
     0
  0
SCALE
  5
2636
102
{ACAD_REACTORS
330
2616
102
}
330
2616
100
AcDbScale
 70
     0
300
6" = 1'-0"
140
6.0
141
12.0
290
     0
  0
SCALE
  5
2637
102
{ACAD_REACTORS
330
2616
102
}
330
2616
100
AcDbScale
 70
     0
300
1'-0" = 1'-0"
140
12.0
141
12.0
290
     0
  0
TABLESTYLE
  5
2648
102
{ACAD_XDICTIONARY
360
2826
102
}
102
{ACAD_REACTORS
330
2647
102
}
330
2647
100
AcDbTableStyle
  3
Standard
 70
     0
 71
     0
 40
0.06
 41
0.06
280
     0
281
     0
  7
STANDARD
140
0.18
170
     2
 62
     0
 63
     7
283
     0
274
    -2
284
     1
 64
     0
275
    -2
285
     1
 65
     0
276
    -2
286
     1
 66
     0
277
    -2
287
     1
 67
     0
278
    -2
288
     1
 68
     0
279
    -2
289
     1
 69
     0
  7
STANDARD
140
0.25
170
     5
 62
     0
 63
     7
283
     0
274
    -2
284
     1
 64
     0
275
    -2
285
     1
 65
     0
276
    -2
286
     1
 66
     0
277
    -2
287
     1
 67
     0
278
    -2
288
     1
 68
     0
279
    -2
289
     1
 69
     0
  7
STANDARD
140
0.18
170
     5
 62
     0
 63
     7
283
     0
274
    -2
284
     1
 64
     0
275
    -2
285
     1
 65
     0
276
    -2
286
     1
 66
     0
277
    -2
287
     1
 67
     0
278
    -2
288
     1
 68
     0
279
    -2
289
     1
 69
     0
  0
VISUALSTYLE
  5
260B
102
{ACAD_REACTORS
330
2605
102
}
330
2605
100
AcDbVisualStyle
  2
2dWireframe
 70
     4
 71
     0
 72
     2
 73
     0
 90
        0
 40
-0.6
 41
-30.0
 62
     5
 63
     7
 74
     1
 91
        4
 64
     7
 65
   257
 75
     1
175
     1
 42
1.0
 92
        0
 66
   257
 43
1.0
 76
     1
 77
     6
 78
     2
 67
     7
 79
     5
170
     0
171
     0
290
     0
174
     0
 93
        1
 44
0.0
173
     0
291
     0
 45
0.0
1001
ACAD
1000
AcDbSavedByObjectVersion
1070
     0
  0
VISUALSTYLE
  5
260D
102
{ACAD_REACTORS
330
2605
102
}
330
2605
100
AcDbVisualStyle
  2
3D Hidden
 70
     6
 71
     1
 72
     2
 73
     2
 90
        0
 40
-0.6
 41
-30.0
 62
     5
 63
     7
 74
     2
 91
        2
 64
     7
 65
   257
 75
     2
175
     1
 42
40.0
 92
        0
 66
   257
 43
1.0
 76
     1
 77
     6
 78
     2
 67
     7
 79
     3
170
     0
171
     0
290
     0
174
     0
 93
        1
 44
0.0
173
     0
291
     0
 45
0.0
1001
ACAD
1000
AcDbSavedByObjectVersion
1070
     0
  0
VISUALSTYLE
  5
260C
102
{ACAD_REACTORS
330
2605
102
}
330
2605
100
AcDbVisualStyle
  2
3dWireframe
 70
     5
 71
     0
 72
     2
 73
     0
 90
        0
 40
-0.6
 41
-30.0
 62
     5
 63
     7
 74
     1
 91
        4
 64
     7
 65
   257
 75
     1
175
     1
 42
1.0
 92
        0
 66
   257
 43
1.0
 76
     1
 77
     6
 78
     2
 67
     7
 79
     5
170
     0
171
     0
290
     0
174
     0
 93
        1
 44
0.0
173
     0
291
     0
 45
0.0
1001
ACAD
1000
AcDbSavedByObjectVersion
1070
     0
  0
VISUALSTYLE
  5
260A
102
{ACAD_REACTORS
330
2605
102
}
330
2605
100
AcDbVisualStyle
  2
Basic
 70
     7
 71
     1
 72
     0
 73
     1
 90
        0
 40
-0.6
 41
-30.0
 62
     5
 63
     7
 74
     0
 91
        4
 64
     7
 65
   257
 75
     1
175
     1
 42
1.0
 92
        8
 66
     7
 43
1.0
 76
     1
 77
     6
 78
     2
 67
     7
 79
     5
170
     0
171
     0
290
     0
174
     0
 93
        1
 44
0.0
173
     0
291
     1
 45
0.0
1001
ACAD
1000
AcDbSavedByObjectVersion
1070
     0
  0
VISUALSTYLE
  5
2611
102
{ACAD_REACTORS
330
2605
102
}
330
2605
100
AcDbVisualStyle
  2
Brighten
 70
    12
 71
     2
 72
     2
 73
     0
 90
        0
 40
-0.6
 41
-30.0
 62
     5
 63
     7
 74
     1
 91
        4
 64
     7
 65
   257
 75
     1
175
     1
 42
1.0
 92
        8
 66
     7
 43
1.0
 76
     1
 77
     6
 78
     2
 67
     7
 79
     5
170
     0
171
     0
290
     0
174
     0
 93
        1
 44
50.0
173
     0
291
     1
 45
0.0
1001
ACAD
1000
AcDbSavedByObjectVersion
1070
     0
  0
VISUALSTYLE
  5
2615
102
{ACAD_REACTORS
330
2605
102
}
330
2605
100
AcDbVisualStyle
  2
ColorChange
 70
    16
 71
     2
 72
     2
 73
     3
 90
        0
 40
-0.6
 41
-30.0
 62
     5
 63
     8
 74
     1
 91
        4
 64
     7
 65
   257
 75
     1
175
     1
 42
1.0
 92
        8
 66
     8
 43
1.0
 76
     1
 77
     6
 78
     2
 67
     7
 79
     5
170
     0
171
     0
290
     0
174
     0
 93
        1
 44
0.0
173
     0
291
     1
 45
0.0
1001
ACAD
1000
AcDbSavedByObjectVersion
1070
     0
  0
VISUALSTYLE
  5
260E
102
{ACAD_REACTORS
330
2605
102
}
330
2605
100
AcDbVisualStyle
  2
Conceptual
 70
     9
 71
     3
 72
     2
 73
     0
 90
        0
 40
-0.6
 41
-30.0
 62
     5
 63
     7
 74
     2
 91
        2
 64
     7
 65
   257
 75
     1
175
     1
 42
40.0
 92
        8
 66
     7
 43
1.0
 76
     1
 77
     6
 78
     2
 67
     7
 79
     3
170
     0
171
     0
290
     0
174
     0
 93
        1
 44
0.0
173
     0
291
     0
 45
0.0
1001
ACAD
1000
AcDbSavedByObjectVersion
1070
     0
  0
VISUALSTYLE
  5
2610
102
{ACAD_REACTORS
330
2605
102
}
330
2605
100
AcDbVisualStyle
  2
Dim
 70
    11
 71
     2
 72
     2
 73
     0
 90
        0
 40
-0.6
 41
-30.0
 62
     5
 63
     7
 74
     1
 91
        4
 64
     7
 65
   257
 75
     1
175
     1
 42
1.0
 92
        8
 66
     7
 43
1.0
 76
     1
 77
     6
 78
     2
 67
     7
 79
     5
170
     0
171
     0
290
     0
174
     0
 93
        1
 44
-50.0
173
     0
291
     1
 45
0.0
1001
ACAD
1000
AcDbSavedByObjectVersion
1070
     0
  0
VISUALSTYLE
  5
2614
102
{ACAD_REACTORS
330
2605
102
}
330
2605
100
AcDbVisualStyle
  2
Facepattern
 70
    15
 71
     2
 72
     2
 73
     0
 90
        0
 40
-0.6
 41
-30.0
 62
     5
 63
     7
 74
     1
 91
        4
 64
     7
 65
   257
 75
     1
175
     1
 42
1.0
 92
        8
 66
     7
 43
1.0
 76
     1
 77
     6
 78
     2
 67
     7
 79
     5
170
     0
171
     0
290
     0
174
     0
 93
        1
 44
0.0
173
     0
291
     1
 45
0.0
1001
ACAD
1000
AcDbSavedByObjectVersion
1070
     0
  0
VISUALSTYLE
  5
2606
102
{ACAD_REACTORS
330
2605
102
}
330
2605
100
AcDbVisualStyle
  2
Flat
 70
     0
 71
     2
 72
     1
 73
     1
 90
        2
 40
-0.6
 41
30.0
 62
     5
 63
     7
 74
     0
 91
        4
 64
     7
 65
   257
 75
     1
175
     1
 42
1.0
 92
        8
 66
     7
 43
1.0
 76
     1
 77
     6
 78
     2
 67
     7
 79
     5
170
     0
171
     0
290
     0
174
     0
 93
       13
 44
0.0
173
     0
291
     1
 45
0.0
1001
ACAD
1000
AcDbSavedByObjectVersion
1070
     0
  0
VISUALSTYLE
  5
2607
102
{ACAD_REACTORS
330
2605
102
}
330
2605
100
AcDbVisualStyle
  2
FlatWithEdges
 70
     1
 71
     2
 72
     1
 73
     1
 90
        2
 40
-0.6
 41
30.0
 62
     5
 63
     7
 74
     1
 91
        4
 64
     7
 65
   257
 75
     1
175
     1
 42
1.0
 92
        0
 66
   257
 43
1.0
 76
     1
 77
     6
 78
     2
 67
     7
 79
     5
170
     0
171
     0
290
     0
174
     0
 93
       13
 44
0.0
173
     0
291
     1
 45
0.0
1001
ACAD
1000
AcDbSavedByObjectVersion
1070
     0
  0
VISUALSTYLE
  5
2608
102
{ACAD_REACTORS
330
2605
102
}
330
2605
100
AcDbVisualStyle
  2
Gouraud
 70
     2
 71
     2
 72
     2
 73
     1
 90
        2
 40
-0.6
 41
30.0
 62
     5
 63
     7
 74
     0
 91
        4
 64
     7
 65
   257
 75
     1
175
     1
 42
1.0
 92
        0
 66
     7
 43
1.0
 76
     1
 77
     6
 78
     2
 67
     7
 79
     5
170
     0
171
     0
290
     0
174
     0
 93
       13
 44
0.0
173
     0
291
     1
 45
0.0
1001
ACAD
1000
AcDbSavedByObjectVersion
1070
     0
  0
VISUALSTYLE
  5
2609
102
{ACAD_REACTORS
330
2605
102
}
330
2605
100
AcDbVisualStyle
  2
GouraudWithEdges
 70
     3
 71
     2
 72
     2
 73
     1
 90
        2
 40
-0.6
 41
30.0
 62
     5
 63
     7
 74
     1
 91
        4
 64
     7
 65
   257
 75
     1
175
     1
 42
1.0
 92
        0
 66
   257
 43
1.0
 76
     1
 77
     6
 78
     2
 67
     7
 79
     5
170
     0
171
     0
290
     0
174
     0
 93
       13
 44
0.0
173
     0
291
     1
 45
0.0
1001
ACAD
1000
AcDbSavedByObjectVersion
1070
     0
  0
VISUALSTYLE
  5
2613
102
{ACAD_REACTORS
330
2605
102
}
330
2605
100
AcDbVisualStyle
  2
Linepattern
 70
    14
 71
     2
 72
     2
 73
     0
 90
        0
 40
-0.6
 41
-30.0
 62
     5
 63
     7
 74
     1
 91
        4
 64
     7
 65
   257
 75
     7
175
     7
 42
1.0
 92
        8
 66
     7
 43
1.0
 76
     1
 77
     6
 78
     2
 67
     7
 79
     5
170
     0
171
     0
290
     0
174
     0
 93
        1
 44
0.0
173
     0
291
     1
 45
0.0
1001
ACAD
1000
AcDbSavedByObjectVersion
1070
     0
  0
VISUALSTYLE
  5
260F
102
{ACAD_REACTORS
330
2605
102
}
330
2605
100
AcDbVisualStyle
  2
Realistic
 70
     8
 71
     2
 72
     2
 73
     0
 90
        0
 40
-0.6
 41
-30.0
 62
     5
 63
     7
 74
     1
 91
        0
 64
     7
 65
   257
 75
     1
175
     1
 42
1.0
 92
        8
 66
     8
 43
1.0
 76
     1
 77
     6
 78
     2
 67
     7
 79
     5
170
     0
171
     0
290
     0
174
     0
 93
       13
 44
0.0
173
     0
291
     0
 45
0.0
1001
ACAD
1000
AcDbSavedByObjectVersion
1070
     0
  0
VISUALSTYLE
  5
2612
102
{ACAD_REACTORS
330
2605
102
}
330
2605
100
AcDbVisualStyle
  2
Thicken
 70
    13
 71
     2
 72
     2
 73
     0
 90
        0
 40
-0.6
 41
-30.0
 62
     5
 63
     7
 74
     1
 91
        4
 64
     7
 65
   257
 75
     1
175
     1
 42
1.0
 92
       12
 66
     7
 43
1.0
 76
     1
 77
     6
 78
     2
 67
     7
 79
     5
170
     0
171
     0
290
     0
174
     0
 93
        1
 44
0.0
173
     0
291
     1
 45
0.0
1001
ACAD
1000
AcDbSavedByObjectVersion
1070
     0
  0
DICTIONARYVAR
  5
2822
102
{ACAD_REACTORS
330
281F
102
}
330
281F
100
DictionaryVariables
280
     0
  1
1:1
  0
DICTIONARYVAR
  5
2821
102
{ACAD_REACTORS
330
281F
102
}
330
281F
100
DictionaryVariables
280
     0
  1
STANDARD
  0
DICTIONARYVAR
  5
2820
102
{ACAD_REACTORS
330
281F
102
}
330
281F
100
DictionaryVariables
280
     0
  1
STANDARD
  0
DICTIONARYVAR
  5
2825
102
{ACAD_REACTORS
330
281F
102
}
330
281F
100
DictionaryVariables
280
     0
  1
1
  0
DICTIONARYVAR
  5
2824
102
{ACAD_REACTORS
330
281F
102
}
330
281F
100
DictionaryVariables
280
     0
  1
1
  0
DICTIONARYVAR
  5
2823
102
{ACAD_REACTORS
330
281F
102
}
330
281F
100
DictionaryVariables
280
     0
  1
127
  0
DICTIONARY
  5
27E0
102
{ACAD_REACTORS
330
27D2
102
}
330
27D2
100
AcDbDictionary
281
     1
  0
DICTIONARY
  5
2720
102
{ACAD_REACTORS
330
271F
102
}
330
271F
100
AcDbDictionary
281
     1
  3
DWGSETTINGS
350
2721
  3
TRANSSETTINGS
350
2722
  0
LAYER_INDEX
  5
2812
102
{ACAD_REACTORS
330
2811
102
}
330
2811
100
AcDbIndex
 40
2456212.850401551
100
AcDbLayerIndex
  8
0
360
2813
 90
        2
  8
OUTLINE
360
2814
 90
      133
  8
SIZE
360
2815
 90
       48
  8
BASIS
360
2816
 90
        2
  8
DETAIL
360
2817
 90
      127
  8
ARRANGE
360
2818
 90
        3
  8
DEFPOINTS
360
2819
 90
        0
  8
ETC
360
281A
 90
        3
  8
FIX
360
281B
 90
       10
  8
NOTE
360
281C
 90
       20
  8
SERVICESPACE
360
281D
 90
        0
  8
SYMBOLLINE
360
281E
 90
        0
  0
DICTIONARY
  5
2835
330
2653
100
AcDbDictionary
280
     1
281
     1
  3
ACAD_XREC_ROUNDTRIP
360
2836
  0
DICTIONARY
  5
2833
330
264F
100
AcDbDictionary
280
     1
281
     1
  3
ACAD_XREC_ROUNDTRIP
360
2834
  0
DICTIONARY
  5
25F6
330
25F5
100
AcDbDictionary
280
     1
281
     1
  3
ACAD_XREC_ROUNDTRIP
360
2830
  3
BUMPTILE
360
25F8
  3
DIFFUSETILE
360
25F7
  3
OPACITYTILE
360
25FB
  3
REFLECTIONTILE
360
25FA
  3
REFRACTIONTILE
360
25FC
  3
SPECULARTILE
360
25F9
  0
DICTIONARY
  5
25EE
330
25ED
100
AcDbDictionary
280
     1
281
     1
  3
ACAD_XREC_ROUNDTRIP
360
282F
  3
BUMPTILE
360
25F0
  3
DIFFUSETILE
360
25EF
  3
OPACITYTILE
360
25F3
  3
REFLECTIONTILE
360
25F2
  3
REFRACTIONTILE
360
25F4
  3
SPECULARTILE
360
25F1
  0
DICTIONARY
  5
25FE
330
25FD
100
AcDbDictionary
280
     1
281
     1
  3
ACAD_XREC_ROUNDTRIP
360
2831
  3
BUMPTILE
360
2600
  3
DIFFUSETILE
360
25FF
  3
OPACITYTILE
360
2603
  3
REFLECTIONTILE
360
2602
  3
REFRACTIONTILE
360
2604
  3
SPECULARTILE
360
2601
  0
DICTIONARY
  5
2826
330
2648
100
AcDbDictionary
280
     1
281
     1
  3
ACAD_ROUNDTRIP_2008_TABLESTYLE_CELLSTYLEMAP
360
2827
  3
ACAD_XREC_ROUNDTRIP
360
2832
  0
IDBUFFER
  5
2813
330
0
100
AcDbIdBuffer
330
24FD
330
24FE
  0
IDBUFFER
  5
2814
330
0
100
AcDbIdBuffer
330
257D
330
257E
330
257F
330
2580
330
2581
330
2582
330
2583
330
2584
330
2585
330
2586
330
2587
330
2588
330
2589
330
258A
330
258B
330
258C
330
258D
330
258E
330
258F
330
2590
330
2591
330
953
330
954
330
955
330
956
330
957
330
958
330
2513
330
2514
330
2515
330
2516
330
2517
330
2518
330
2519
330
251A
330
251B
330
251C
330
251D
330
251E
330
251F
330
2520
330
2521
330
2522
330
2523
330
2524
330
2525
330
2526
330
2527
330
2528
330
2529
330
252A
330
252B
330
252C
330
252D
330
252E
330
252F
330
2530
330
2531
330
2532
330
2533
330
2534
330
2535
330
2536
330
2537
330
2538
330
2539
330
253A
330
253B
330
253C
330
253D
330
253E
330
253F
330
2540
330
2541
330
2542
330
2543
330
2544
330
2545
330
2546
330
2547
330
2548
330
2549
330
254A
330
254B
330
254C
330
254D
330
254E
330
254F
330
2550
330
2551
330
2552
330
2553
330
2554
330
2555
330
2556
330
2557
330
2558
330
2559
330
255A
330
255B
330
255C
330
255D
330
255E
330
255F
330
2560
330
2561
330
2562
330
2563
330
2564
330
2565
330
2566
330
2567
330
2568
330
2569
330
256A
330
256B
330
256C
330
256D
330
256E
330
256F
330
2570
330
2571
330
2572
330
2573
330
2574
330
2575
330
2576
330
2577
330
2578
330
2579
330
257A
330
257B
330
257C
  0
IDBUFFER
  5
2815
330
0
100
AcDbIdBuffer
330
25A5
330
25A6
330
25A7
330
25A8
330
25A9
330
25AA
330
25AB
330
25AC
330
25AD
330
25AE
330
25AF
330
25B0
330
25B1
330
25B2
330
25B3
330
25B4
330
25B5
330
25B6
330
25B7
330
25B8
330
25B9
330
25BA
330
25BB
330
25BC
330
25BD
330
25BE
330
25BF
330
25C0
330
25C1
330
25C2
330
25C3
330
25C4
330
2595
330
2596
330
2597
330
2598
330
2599
330
259A
330
259B
330
259C
330
259D
330
259E
330
259F
330
25A0
330
25A1
330
25A2
330
25A3
330
25A4
  0
IDBUFFER
  5
2816
330
0
100
AcDbIdBuffer
330
2481
330
2482
  0
IDBUFFER
  5
2817
330
0
100
AcDbIdBuffer
330
24EE
330
24EF
330
24F0
330
24F1
330
24F2
330
24F3
330
24F4
330
24F5
330
24F6
330
24F7
330
24F8
330
24F9
330
24FA
330
24FB
330
24FC
330
2473
330
2474
330
2475
330
2476
330
2477
330
2478
330
2479
330
247A
330
247B
330
247C
330
247D
330
2489
330
248A
330
248B
330
248C
330
248D
330
248E
330
248F
330
2490
330
2491
330
2492
330
2493
330
2494
330
2495
330
2496
330
2497
330
2498
330
2499
330
249A
330
249B
330
249C
330
249D
330
249E
330
249F
330
24A0
330
24A1
330
24A2
330
24A3
330
24A4
330
24A5
330
24A6
330
24A7
330
24A8
330
24A9
330
24AA
330
24AB
330
24AC
330
24AD
330
24AE
330
24AF
330
24B0
330
24B1
330
24B2
330
24B3
330
24B4
330
24B5
330
24B6
330
24B7
330
24B8
330
24B9
330
24BA
330
24BB
330
24BC
330
24BD
330
24BE
330
24BF
330
24C0
330
24C1
330
24C2
330
24C3
330
24C4
330
24C5
330
24C6
330
24C7
330
24C8
330
24C9
330
24CA
330
24CB
330
24CC
330
24CD
330
24CE
330
24CF
330
24D0
330
24D1
330
24D2
330
24D3
330
24D4
330
24D5
330
24D6
330
24D7
330
24D8
330
24D9
330
24DA
330
24DB
330
24DC
330
24DD
330
24DE
330
24DF
330
24E0
330
24E1
330
24E2
330
24E3
330
24E4
330
24E5
330
24E6
330
24E7
330
24E8
330
24E9
330
24EA
330
24EB
330
24EC
330
24ED
  0
IDBUFFER
  5
2818
330
0
100
AcDbIdBuffer
330
247E
330
247F
330
2480
  0
IDBUFFER
  5
2819
330
0
100
AcDbIdBuffer
  0
IDBUFFER
  5
281A
330
0
100
AcDbIdBuffer
330
2592
330
2593
330
2594
  0
IDBUFFER
  5
281B
330
0
100
AcDbIdBuffer
330
246F
330
2470
330
2471
330
2472
330
2483
330
2484
330
2485
330
2486
330
2487
330
2488
  0
IDBUFFER
  5
281C
330
0
100
AcDbIdBuffer
330
250F
330
2510
330
2511
330
2512
330
24FF
330
2500
330
2501
330
2502
330
2503
330
2504
330
2505
330
2506
330
2507
330
2508
330
2509
330
250A
330
250B
330
250C
330
250D
330
250E
  0
IDBUFFER
  5
281D
330
0
100
AcDbIdBuffer
  0
IDBUFFER
  5
281E
330
0
100
AcDbIdBuffer
  0
XRECORD
  5
2836
102
{ACAD_REACTORS
330
2835
102
}
330
2835
100
AcDbXrecord
280
     1
102
SHADEPLOT
 70
     0
102
SHADEPLOTRESLEVEL
 70
     2
102
SHADEPLOTCUSTOMDPI
 70
   300
  0
XRECORD
  5
2834
102
{ACAD_REACTORS
330
2833
102
}
330
2833
100
AcDbXrecord
280
     1
102
SHADEPLOT
 70
     0
102
SHADEPLOTRESLEVEL
 70
     2
102
SHADEPLOTCUSTOMDPI
 70
   300
  0
XRECORD
  5
2830
102
{ACAD_REACTORS
330
25F6
102
}
330
25F6
100
AcDbXrecord
280
     1
102
MATERIAL
148
0.0
149
0.0
149
0.0
 93
        0
 94
      127
282
     0
 72
     0
 77
     0
171
     0
175
     0
179
     0
273
     0
  0
XRECORD
  5
25F8
102
{ACAD_REACTORS
330
25F6
102
}
330
25F6
100
AcDbXrecord
280
     1
270
     1
271
     1
  0
XRECORD
  5
25F7
102
{ACAD_REACTORS
330
25F6
102
}
330
25F6
100
AcDbXrecord
280
     1
270
     1
271
     1
  0
XRECORD
  5
25FB
102
{ACAD_REACTORS
330
25F6
102
}
330
25F6
100
AcDbXrecord
280
     1
270
     1
271
     1
  0
XRECORD
  5
25FA
102
{ACAD_REACTORS
330
25F6
102
}
330
25F6
100
AcDbXrecord
280
     1
270
     1
271
     1
  0
XRECORD
  5
25FC
102
{ACAD_REACTORS
330
25F6
102
}
330
25F6
100
AcDbXrecord
280
     1
270
     1
271
     1
  0
XRECORD
  5
25F9
102
{ACAD_REACTORS
330
25F6
102
}
330
25F6
100
AcDbXrecord
280
     1
270
     1
271
     1
  0
XRECORD
  5
282F
102
{ACAD_REACTORS
330
25EE
102
}
330
25EE
100
AcDbXrecord
280
     1
102
MATERIAL
148
0.0
149
0.0
149
0.0
 93
        0
 94
      127
282
     0
 72
     0
 77
     0
171
     0
175
     0
179
     0
273
     0
  0
XRECORD
  5
25F0
102
{ACAD_REACTORS
330
25EE
102
}
330
25EE
100
AcDbXrecord
280
     1
270
     1
271
     1
  0
XRECORD
  5
25EF
102
{ACAD_REACTORS
330
25EE
102
}
330
25EE
100
AcDbXrecord
280
     1
270
     1
271
     1
  0
XRECORD
  5
25F3
102
{ACAD_REACTORS
330
25EE
102
}
330
25EE
100
AcDbXrecord
280
     1
270
     1
271
     1
  0
XRECORD
  5
25F2
102
{ACAD_REACTORS
330
25EE
102
}
330
25EE
100
AcDbXrecord
280
     1
270
     1
271
     1
  0
XRECORD
  5
25F4
102
{ACAD_REACTORS
330
25EE
102
}
330
25EE
100
AcDbXrecord
280
     1
270
     1
271
     1
  0
XRECORD
  5
25F1
102
{ACAD_REACTORS
330
25EE
102
}
330
25EE
100
AcDbXrecord
280
     1
270
     1
271
     1
  0
XRECORD
  5
2831
102
{ACAD_REACTORS
330
25FE
102
}
330
25FE
100
AcDbXrecord
280
     1
102
MATERIAL
148
0.0
149
0.0
149
0.0
 93
        0
 94
      127
282
     0
 72
     0
 77
     0
171
     0
175
     0
179
     0
273
     0
  0
XRECORD
  5
2600
102
{ACAD_REACTORS
330
25FE
102
}
330
25FE
100
AcDbXrecord
280
     1
270
     1
271
     1
  0
XRECORD
  5
25FF
102
{ACAD_REACTORS
330
25FE
102
}
330
25FE
100
AcDbXrecord
280
     1
270
     1
271
     1
  0
XRECORD
  5
2603
102
{ACAD_REACTORS
330
25FE
102
}
330
25FE
100
AcDbXrecord
280
     1
270
     1
271
     1
  0
XRECORD
  5
2602
102
{ACAD_REACTORS
330
25FE
102
}
330
25FE
100
AcDbXrecord
280
     1
270
     1
271
     1
  0
XRECORD
  5
2604
102
{ACAD_REACTORS
330
25FE
102
}
330
25FE
100
AcDbXrecord
280
     1
270
     1
271
     1
  0
XRECORD
  5
2601
102
{ACAD_REACTORS
330
25FE
102
}
330
25FE
100
AcDbXrecord
280
     1
270
     1
271
     1
  0
CELLSTYLEMAP
  5
2827
102
{ACAD_REACTORS
330
2826
102
}
330
2826
100
AcDbCellStyleMap
 90
        3
300
CELLSTYLE
  1
TABLEFORMAT_BEGIN
 90
        5
170
     1
 91
        0
 92
    32768
 62
   257
 93
        1
300
CONTENTFORMAT
  1
CONTENTFORMAT_BEGIN
 90
        0
 91
        0
 92
      512
 93
        0
300

 40
0.0
140
1.0
 94
        5
 62
     0
340
2639
144
0.25
309
CONTENTFORMAT_END
171
     0
 94
        0
309
TABLEFORMAT_END
  1
CELLSTYLE_BEGIN
 90
        1
 91
        1
300
_TITLE
309
CELLSTYLE_END
300
CELLSTYLE
  1
TABLEFORMAT_BEGIN
 90
        5
170
     1
 91
        0
 92
        0
 62
   257
 93
        1
300
CONTENTFORMAT
  1
CONTENTFORMAT_BEGIN
 90
        0
 91
        0
 92
      512
 93
        0
300

 40
0.0
140
1.0
 94
        5
 62
     0
340
2639
144
0.18
309
CONTENTFORMAT_END
171
     0
 94
        0
309
TABLEFORMAT_END
  1
CELLSTYLE_BEGIN
 90
        2
 91
        1
300
_HEADER
309
CELLSTYLE_END
300
CELLSTYLE
  1
TABLEFORMAT_BEGIN
 90
        5
170
     1
 91
        0
 92
        0
 62
   257
 93
        1
300
CONTENTFORMAT
  1
CONTENTFORMAT_BEGIN
 90
        0
 91
        0
 92
      512
 93
        0
300

 40
0.0
140
1.0
 94
        2
 62
     0
340
2639
144
0.18
309
CONTENTFORMAT_END
171
     0
 94
        0
309
TABLEFORMAT_END
  1
CELLSTYLE_BEGIN
 90
        3
 91
        2
300
_DATA
309
CELLSTYLE_END
  0
XRECORD
  5
2832
102
{ACAD_REACTORS
330
2826
102
}
330
2826
100
AcDbXrecord
280
     1
102
ACAD_ROUNDTRIP_PRE2007_TABLESTYLE
 90
      512
 91
        0
  1

 92
      512
 93
        0
  2

 94
      512
 95
        0
  3

  0
ENDSEC
  0
EOF
