  0
SECTION
  2
HEADER
  9
$ACADVER
  1
AC1015
  9
$ACADMAINTVER
 70
    20
  9
$DWGCODEPAGE
  3
ANSI_932
  9
$INSBASE
 10
0.0
 20
0.0
 30
0.0
  9
$EXTMIN
 10
-1077.595114277971
 20
-1098.282941893284
 30
0.0
  9
$EXTMAX
 10
1410.379348113245
 20
611.7417056490339
 30
50.0
  9
$LIMMIN
 10
-2970.0
 20
-2100.0
  9
$LIMMAX
 10
2970.0
 20
2100.0
  9
$ORTHOMODE
 70
     1
  9
$REGENMODE
 70
     0
  9
$FILLMODE
 70
     1
  9
$QTEXTMODE
 70
     0
  9
$MIRRTEXT
 70
     0
  9
$LTSCALE
 40
20.0
  9
$ATTMODE
 70
     1
  9
$TEXTSIZE
 40
64.0
  9
$TRACEWID
 40
0.05
  9
$TEXTSTYLE
  7
STANDARD
  9
$CLAYER
  8
0
  9
$CELTYPE
  6
ByLayer
  9
$CECOLOR
 62
   256
  9
$CELTSCALE
 40
1.0
  9
$DISPSILH
 70
     0
  9
$DIMSCALE
 40
1.0
  9
$DIMASZ
 40
0.12
  9
$DIMEXO
 40
0.05
  9
$DIMDLI
 40
0.5
  9
$DIMRND
 40
0.0
  9
$DIMDLE
 40
0.0
  9
$DIMEXE
 40
0.1
  9
$DIMTP
 40
0.1
  9
$DIMTM
 40
0.1
  9
$DIMTXT
 40
0.12
  9
$DIMCEN
 40
0.0
  9
$DIMTSZ
 40
0.0
  9
$DIMTOL
 70
     0
  9
$DIMLIM
 70
     0
  9
$DIMTIH
 70
     1
  9
$DIMTOH
 70
     1
  9
$DIMSE1
 70
     0
  9
$DIMSE2
 70
     0
  9
$DIMTAD
 70
     0
  9
$DIMZIN
 70
     7
  9
$DIMBLK
  1

  9
$DIMASO
 70
     1
  9
$DIMSHO
 70
     0
  9
$DIMPOST
  1

  9
$DIMAPOST
  1
mm
  9
$DIMALT
 70
     0
  9
$DIMALTD
 70
     2
  9
$DIMALTF
 40
25.4
  9
$DIMLFAC
 40
1.0
  9
$DIMTOFL
 70
     0
  9
$DIMTVP
 40
0.0
  9
$DIMTIX
 70
     0
  9
$DIMSOXD
 70
     0
  9
$DIMSAH
 70
     0
  9
$DIMBLK1
  1

  9
$DIMBLK2
  1

  9
$DIMSTYLE
  2
AM_ANSI
  9
$DIMCLRD
 70
   256
  9
$DIMCLRE
 70
   256
  9
$DIMCLRT
 70
     2
  9
$DIMTFAC
 40
0.71
  9
$DIMGAP
 40
0.06
  9
$DIMJUST
 70
     0
  9
$DIMSD1
 70
     0
  9
$DIMSD2
 70
     0
  9
$DIMTOLJ
 70
     1
  9
$DIMTZIN
 70
     7
  9
$DIMALTZ
 70
     0
  9
$DIMALTTZ
 70
     0
  9
$DIMUPT
 70
     0
  9
$DIMDEC
 70
     4
  9
$DIMTDEC
 70
     4
  9
$DIMALTU
 70
     2
  9
$DIMALTTD
 70
     4
  9
$DIMTXSTY
  7
STANDARD
  9
$DIMAUNIT
 70
     0
  9
$DIMADEC
 70
     0
  9
$DIMALTRND
 40
0.0
  9
$DIMAZIN
 70
     2
  9
$DIMDSEP
 70
    46
  9
$DIMATFIT
 70
     3
  9
$DIMFRAC
 70
     0
  9
$DIMLDRBLK
  1

  9
$DIMLUNIT
 70
     2
  9
$DIMLWD
 70
    -1
  9
$DIMLWE
 70
    -1
  9
$DIMTMOVE
 70
     0
  9
$LUNITS
 70
     2
  9
$LUPREC
 70
     4
  9
$SKETCHINC
 40
0.1
  9
$FILLETRAD
 40
4.0
  9
$AUNITS
 70
     1
  9
$AUPREC
 70
     3
  9
$MENU
  1
ACAD
  9
$ELEVATION
 40
0.0
  9
$PELEVATION
 40
0.0
  9
$THICKNESS
 40
50.0
  9
$LIMCHECK
 70
     0
  9
$CHAMFERA
 40
0.0
  9
$CHAMFERB
 40
0.0
  9
$CHAMFERC
 40
0.0
  9
$CHAMFERD
 40
0.0
  9
$SKPOLY
 70
     0
  9
$TDCREATE
 40
2452321.396199653
  9
$TDUCREATE
 40
2452321.021199653
  9
$TDUPDATE
 40
2456212.852003218
  9
$TDUUPDATE
 40
2456212.477003218
  9
$TDINDWG
 40
1.0417881944
  9
$TDUSRTIMER
 40
1.0417824306
  9
$USRTIMER
 70
     1
  9
$ANGBASE
 50
0.0
  9
$ANGDIR
 70
     0
  9
$PDMODE
 70
     3
  9
$PDSIZE
 40
-2.0
  9
$PLINEWID
 40
0.0
  9
$SPLFRAME
 70
     0
  9
$SPLINETYPE
 70
     6
  9
$SPLINESEGS
 70
     8
  9
$HANDSEED
  5
2FF1
  9
$SURFTAB1
 70
     6
  9
$SURFTAB2
 70
     6
  9
$SURFTYPE
 70
     6
  9
$SURFU
 70
     6
  9
$SURFV
 70
     6
  9
$UCSBASE
  2

  9
$UCSNAME
  2

  9
$UCSORG
 10
0.0
 20
0.0
 30
0.0
  9
$UCSXDIR
 10
1.0
 20
0.0
 30
0.0
  9
$UCSYDIR
 10
0.0
 20
1.0
 30
0.0
  9
$UCSORTHOREF
  2

  9
$UCSORTHOVIEW
 70
     0
  9
$UCSORGTOP
 10
0.0
 20
0.0
 30
0.0
  9
$UCSORGBOTTOM
 10
0.0
 20
0.0
 30
0.0
  9
$UCSORGLEFT
 10
0.0
 20
0.0
 30
0.0
  9
$UCSORGRIGHT
 10
0.0
 20
0.0
 30
0.0
  9
$UCSORGFRONT
 10
0.0
 20
0.0
 30
0.0
  9
$UCSORGBACK
 10
0.0
 20
0.0
 30
0.0
  9
$PUCSBASE
  2

  9
$PUCSNAME
  2

  9
$PUCSORG
 10
0.0
 20
0.0
 30
0.0
  9
$PUCSXDIR
 10
1.0
 20
0.0
 30
0.0
  9
$PUCSYDIR
 10
0.0
 20
1.0
 30
0.0
  9
$PUCSORTHOREF
  2

  9
$PUCSORTHOVIEW
 70
     0
  9
$PUCSORGTOP
 10
0.0
 20
0.0
 30
0.0
  9
$PUCSORGBOTTOM
 10
0.0
 20
0.0
 30
0.0
  9
$PUCSORGLEFT
 10
0.0
 20
0.0
 30
0.0
  9
$PUCSORGRIGHT
 10
0.0
 20
0.0
 30
0.0
  9
$PUCSORGFRONT
 10
0.0
 20
0.0
 30
0.0
  9
$PUCSORGBACK
 10
0.0
 20
0.0
 30
0.0
  9
$USERI1
 70
     0
  9
$USERI2
 70
     0
  9
$USERI3
 70
     0
  9
$USERI4
 70
     0
  9
$USERI5
 70
     0
  9
$USERR1
 40
20.0
  9
$USERR2
 40
0.0
  9
$USERR3
 40
0.0
  9
$USERR4
 40
0.0
  9
$USERR5
 40
0.0
  9
$WORLDVIEW
 70
     1
  9
$SHADEDGE
 70
     3
  9
$SHADEDIF
 70
    70
  9
$TILEMODE
 70
     1
  9
$MAXACTVP
 70
    64
  9
$PINSBASE
 10
0.0
 20
0.0
 30
0.0
  9
$PLIMCHECK
 70
     0
  9
$PEXTMIN
 10
1.000000000000000E+20
 20
1.000000000000000E+20
 30
1.000000000000000E+20
  9
$PEXTMAX
 10
-1.000000000000000E+20
 20
-1.000000000000000E+20
 30
-1.000000000000000E+20
  9
$PLIMMIN
 10
0.0
 20
0.0
  9
$PLIMMAX
 10
12.0
 20
9.0
  9
$UNITMODE
 70
     0
  9
$VISRETAIN
 70
     1
  9
$PLINEGEN
 70
     0
  9
$PSLTSCALE
 70
     1
  9
$TREEDEPTH
 70
  3020
  9
$CMLSTYLE
  2
Standard
  9
$CMLJUST
 70
     0
  9
$CMLSCALE
 40
1.0
  9
$PROXYGRAPHICS
 70
     1
  9
$MEASUREMENT
 70
     0
  9
$CELWEIGHT
370
    -1
  9
$ENDCAPS
280
     0
  9
$JOINSTYLE
280
     0
  9
$LWDISPLAY
290
     0
  9
$INSUNITS
 70
     0
  9
$HYPERLINKBASE
  1

  9
$STYLESHEET
  1

  9
$XEDIT
290
     1
  9
$CEPSNTYPE
380
     0
  9
$PSTYLEMODE
290
     1
  9
$FINGERPRINTGUID
  2
{7B27D884-E18C-47C0-BA16-1A9E3CCC5076}
  9
$VERSIONGUID
  2
{F3E09111-D292-4D19-B661-23DC3BB64F98}
  9
$EXTNAMES
290
     1
  9
$PSVPSCALE
 40
0.0
  9
$OLESTARTUP
290
     0
  0
ENDSEC
  0
SECTION
  2
CLASSES
  0
CLASS
  1
ACDBDICTIONARYWDFLT
  2
AcDbDictionaryWithDefault
  3
ObjectDBX Classes
 90
        0
280
     0
281
     0
  0
CLASS
  1
MATERIAL
  2
AcDbMaterial
  3
ObjectDBX Classes
 90
     1153
280
     0
281
     0
  0
CLASS
  1
VISUALSTYLE
  2
AcDbVisualStyle
  3
ObjectDBX Classes
 90
     4095
280
     0
281
     0
  0
CLASS
  1
SCALE
  2
AcDbScale
  3
ObjectDBX Classes
 90
     1153
280
     0
281
     0
  0
CLASS
  1
TABLESTYLE
  2
AcDbTableStyle
  3
ObjectDBX Classes
 90
     4095
280
     0
281
     0
  0
CLASS
  1
MLEADERSTYLE
  2
AcDbMLeaderStyle
  3
ACDB_MLEADERSTYLE_CLASS
 90
     4095
280
     0
281
     0
  0
CLASS
  1
AMGSETTINGSOBJ
  2
AmgSettingsObj
  3
"AcadM|Product Description: AutoCAD Mechanical|Company: Autodesk, Inc."
 90
     1024
280
     0
281
     0
  0
CLASS
  1
ACME_DOCUMENT
  2
AcMeDbDoc
  3
AcMeServices
 90
     1024
280
     0
281
     0
  0
CLASS
  1
ACMESCOPE
  2
AcMeScope
  3
AcMeServices
 90
     1024
280
     0
281
     0
  0
CLASS
  1
ACMECOMMANDHISTORY
  2
AcMeCommandHistory
  3
AcMeServices
 90
     1024
280
     0
281
     0
  0
CLASS
  1
ACIMSYSVARMAN
  2
AcImSysVarManager
  3
AcMeServices
 90
     1024
280
     0
281
     0
  0
CLASS
  1
ACIMREALSYSVAR
  2
AcImRealSysVar
  3
AcMeServices
 90
     1024
280
     0
281
     0
  0
CLASS
  1
ACIMINTSYSVAR
  2
AcImIntSysVar
  3
AcMeServices
 90
     1024
280
     0
281
     0
  0
CLASS
  1
ACMEDRAWINGMAN
  2
AcMeDrawingMan
  3
AcMeServices
 90
     1024
280
     0
281
     0
  0
CLASS
  1
ACMEVIEW
  2
AcMeView
  3
AcMeServices
 90
     1024
280
     0
281
     0
  0
CLASS
  1
ACDBENTITYCACHE
  2
AcMeEntityCache
  3
AcMeServices
 90
     1024
280
     0
281
     0
  0
CLASS
  1
GSMANAGER
  2
AcMeGSManager
  3
AcMeServices
 90
     1024
280
     0
281
     0
  0
CLASS
  1
AMDTINTERNALREACTOR
  2
AmdtInternalReactor
  3
AcMeServices
 90
     1024
280
     0
281
     0
  0
CLASS
  1
ACMESTATEMGR
  2
AcMeStateMgr
  3
AcMeServices
 90
     1024
280
     0
281
     0
  0
CLASS
  1
ACGREFMASTER
  2
AcGrefMaster
  3
AcAttribServices
 90
     1024
280
     0
281
     0
  0
CLASS
  1
AM_DRAWING_MGR
  2
AcDmDwgMgr
  3
AcMechDwgViewMgmt
 90
     1024
280
     0
281
     0
  0
CLASS
  1
AM_DWG_DOCUMENT
  2
AcDmDwgDocument
  3
AcMechDwgViewMgmt
 90
     1024
280
     0
281
     0
  0
CLASS
  1
AM_DWG_SHEET
  2
AcDmSheet
  3
AcMechDwgViewMgmt
 90
     1024
280
     0
281
     0
  0
CLASS
  1
AM_VIEWDIMPARMAP
  2
AcDmViewDimParMap
  3
AcMechDwgViewMgmt
 90
     1024
280
     0
281
     0
  0
CLASS
  1
AM_DWGMGR_NAME
  2
AcDmDwgMgrName
  3
AcMechDwgViewMgmt
 90
     1024
280
     0
281
     0
  0
CLASS
  1
ACME_DATABASE
  2
AcMeDbDatabase
  3
AcMeServices
 90
     1024
280
     0
281
     0
  0
CLASS
  1
ACRFINSADJUSTERMGR
  2
AcRfInsAdjusterMgr
  3
AcMeServices
 90
     1024
280
     0
281
     0
  0
CLASS
  1
ACGREFACADMASTER
  2
AcGrefacadMaster
  3
AcGrefServices
 90
     1024
280
     0
281
     0
  0
CLASS
  1
AMDTMENUSTATEMGR
  2
AmdtMenuStateMgr
  3
McadcomServices
 90
     1024
280
     0
281
     0
  0
CLASS
  1
AMDTMCOMMENUSTATE
  2
AmdtMcomMenuState
  3
McadcomServices
 90
     1024
280
     0
281
     0
  0
CLASS
  1
AMIMASTER
  2
AmiMaster
  3
AmiServices
 90
     1024
280
     0
281
     0
  0
CLASS
  1
ASAPP
  2
AcAsAppObject
  3
AutoSurfServices
 90
     1024
280
     0
281
     0
  0
CLASS
  1
IM_STATIC_MAN
  2
AcImStaticVarManager
  3
AcMeServices
 90
     1024
280
     0
281
     0
  0
CLASS
  1
ACIMSTRSYSVAR
  2
AcImStrSysVar
  3
AcMeServices
 90
     1024
280
     0
281
     0
  0
CLASS
  1
ACIMDBLSTATICVAR
  2
AcImDblStaticVar
  3
AcMeServices
 90
     1024
280
     0
281
     0
  0
CLASS
  1
ACIMSTRSTATICVAR
  2
AcImStrStaticVar
  3
AcMeServices
 90
     1024
280
     0
281
     0
  0
CLASS
  1
ACIMINTSTATICVAR
  2
AcImIntStaticVar
  3
AcMeServices
 90
     1024
280
     0
281
     0
  0
CLASS
  1
ACASGREFMASTER
  2
AcAsGrefMaster
  3
AutoSurfResolverServices
 90
     1024
280
     0
281
     0
  0
CLASS
  1
ACADGREFMODULE
  2
AcAdGrefModule
  3
AdGrefServices
 90
     1024
280
     0
281
     0
  0
CLASS
  1
AMDTMAPISURFMOUDULE
  2
AmdtMApiSurfModule
  3
MApiSurfServices
 90
     1024
280
     0
281
     0
  0
CLASS
  1
MAPIAMMOUDLE
  2
MApiAmModule
  3
MApiAmServices
 90
     1024
280
     0
281
     0
  0
CLASS
  1
AMDTADMENUSTATE
  2
AmdtAdMenuState
  3
DesignerServices
 90
     1024
280
     0
281
     0
  0
CLASS
  1
ADAPPL
  2
AcAdAppl
  3
DesignerServices
 90
     1024
280
     0
281
     0
  0
CLASS
  1
DEPMGR
  2
AcAdDepMgr
  3
DesignerServices
 90
     1024
280
     0
281
     0
  0
CLASS
  1
PARAMMGR
  2
AcAdParamMgr
  3
DesignerServices
 90
     1024
280
     0
281
     0
  0
CLASS
  1
PARAMSCOPE
  2
AcAdParamScope
  3
DesignerServices
 90
     1024
280
     0
281
     0
  0
CLASS
  1
NAMEDAPPL
  2
AcAdNamedAppl
  3
DesignerServices
 90
     1024
280
     0
281
     0
  0
CLASS
  1
AMDTDMMENUSTATE
  2
AmdtDmMenuState
  3
AcMechDwgViewMgmt
 90
     1024
280
     0
281
     0
  0
CLASS
  1
MAPIADMODULE
  2
MApiAdModule
  3
MApiAdServices
 90
     1024
280
     0
281
     0
  0
CLASS
  1
AMDTAMMENUSTATE
  2
AmdtAmMenuState
  3
DesignerAssemblies
 90
     1024
280
     0
281
     0
  0
CLASS
  1
ACAMPROJECT
  2
AcAmProject
  3
DesignerAssemblies
 90
     1024
280
     0
281
     0
  0
CLASS
  1
ACAMGRCOMPDEF
  2
AcAmGrCompDef
  3
DesignerAssemblies
 90
     1024
280
     0
281
     0
  0
CLASS
  1
ACCMCONTEXT
  2
AcCmContext
  3
DesignerAssemblies
 90
     1024
280
     0
281
     0
  0
CLASS
  1
ACAMCOMPDEF
  2
AcAmCompDef
  3
DesignerAssemblies
 90
     1024
280
     0
281
     0
  0
CLASS
  1
ACAMCOMPDEFMGR
  2
AcAmCompDefMgr
  3
DesignerAssemblies
 90
     1024
280
     0
281
     0
  0
CLASS
  1
AMCONTEXTMGR
  2
AcAmContextMgr
  3
DesignerAssemblies
 90
     1024
280
     0
281
     0
  0
CLASS
  1
ACAMCONTEXTMODELER
  2
AcAmContextModeler
  3
DesignerAssemblies
 90
     1024
280
     0
281
     0
  0
CLASS
  1
ACMDATADICTIONARY
  2
AcmDataDictionary
  3
"AcmSymBB|Product Description: AutoCAD Mechanical|Company: Autodesk, Inc."
 90
     1024
280
     0
281
     0
  0
CLASS
  1
ACMDATAENTRYBLOCK
  2
AcmDataEntryBlock
  3
AcmSymBB|Product Description: AutoCAD Mechanical|Company: Autodesk, Inc.
 90
     1024
280
     0
281
     0
  0
CLASS
  1
ACRFATTGENMGR
  2
AcRfAttGeneralMgr
  3
AcAttribServices
 90
     1024
280
     0
281
     0
  0
CLASS
  1
ACRFOBJATTMGR
  2
AcRfObjAttGroupMgr
  3
AcAttribServices
 90
     1024
280
     0
281
     0
  0
CLASS
  1
ACRFMCADAPIATTHOLDER
  2
AcRfMCADAPIAttHolder
  3
AcAttribServices
 90
     1024
280
     0
281
     0
  0
CLASS
  1
AMDTSYSATTR
  2
AmdtSystemAttribute
  3
AcAttribServices
 90
     1024
280
     0
281
     0
  0
CLASS
  1
CATALOGSTATE
  2
AcAmCatalogState
  3
DesignerAssemblies
 90
     1024
280
     0
281
     0
  0
CLASS
  1
ACAMGRCOMPDEFSET
  2
AcAmGrCompDefSet
  3
DesignerAssemblies
 90
     1024
280
     0
281
     0
  0
CLASS
  1
AMDTBROWSERDBTAB
  2
AmdtBrowserDbTab
  3
McadcomServices
 90
     1024
280
     0
281
     0
  0
CLASS
  1
CBROWSERAPPOBJECT
  2
CBrowserAppObject
  3
McadcomServices
 90
     1024
280
     0
281
     0
  0
CLASS
  1
DM_PLACEHOLDER
  2
AcDmSelsetPlaceholder
  3
AcMechDwgViewMgmt
 90
     1024
280
     0
281
     0
  0
CLASS
  1
ACMSTANDARDANSI
  2
AcmStandardANSI
  3
"Amdt_StdImp|Product Description: AutoCAD Mechanical|Company: Autodesk, Inc."
 90
     1024
280
     0
281
     0
  0
CLASS
  1
ACMSURFSTANDARDANSI
  2
AcmSurfTextStdANSI
  3
"Amdt_StdImp|Product Description: AutoCAD Mechanical|Company: Autodesk, Inc."
 90
     1024
280
     0
281
     0
  0
CLASS
  1
ACMFCFSTANDARDANSI
  2
AcmFCFStdANSI
  3
"Amdt_StdImp|Product Description: AutoCAD Mechanical|Company: Autodesk, Inc."
 90
     1024
280
     0
281
     0
  0
CLASS
  1
ACMWELDSTANDARDANSI
  2
AcmWeldingStdANSI
  3
"Amdt_StdImp|Product Description: AutoCAD Mechanical|Company: Autodesk, Inc."
 90
     1024
280
     0
281
     0
  0
CLASS
  1
ACMIDSTANDARDANSI
  2
AcmIdStdANSI
  3
"Amdt_StdImp|Product Description: AutoCAD Mechanical|Company: Autodesk, Inc."
 90
     1024
280
     0
281
     0
  0
CLASS
  1
ACMDATUMSTANDARDANSI
  2
AcmDatumStdANSI
  3
"Amdt_StdImp|Product Description: AutoCAD Mechanical|Company: Autodesk, Inc."
 90
     1024
280
     0
281
     0
  0
CLASS
  1
ACMBOMSTANDARDANSI
  2
AcmBOMStdANSI
  3
"Amdt_StdImp|Product Description: AutoCAD Mechanical|Company: Autodesk, Inc."
 90
     1024
280
     0
281
     0
  0
CLASS
  1
ACMDETAILSTANDARDANSI
  2
AmdtDetailSymStdANSI
  3
"Amdt_StdImp|Product Description: AutoCAD Mechanical|Company: Autodesk, Inc."
 90
     1024
280
     0
281
     0
  0
CLASS
  1
ACMSECTIONSTANDARDANSI
  2
AmdtSectionSymStdANSI
  3
"Amdt_StdImp|Product Description: AutoCAD Mechanical|Company: Autodesk, Inc."
 90
     1024
280
     0
281
     0
  0
CLASS
  1
ACMCENTERLINESTANDARDANSI
  2
AmdtCenterLineStdANSI
  3
"Amdt_StdImp|Product Description: AutoCAD Mechanical|Company: Autodesk, Inc."
 90
     1024
280
     0
281
     0
  0
CLASS
  1
ACMTHREADLINESTANDARDANSI
  2
AmdtThreadLineStdANSI
  3
"Amdt_StdImp|Product Description: AutoCAD Mechanical|Company: Autodesk, Inc."
 90
     1024
280
     0
281
     0
  0
CLASS
  1
ACMNOTESTANDARDANSI
  2
AmdtNoteStdANSI
  3
"Amdt_StdImp|Product Description: AutoCAD Mechanical|Company: Autodesk, Inc."
 90
     1024
280
     0
281
     0
  0
CLASS
  1
ACMTAPERSTANDARDANSI
  2
AcmTaperStdANSI
  3
"Amdt_StdImp|Product Description: AutoCAD Mechanical|Company: Autodesk, Inc."
 90
     1024
280
     0
281
     0
  0
CLASS
  1
ACMANOOTATIONVIEWSTANDARDANSI
  2
AmdtAnViewStdANSI
  3
"Amdt_StdImp|Product Description: AutoCAD Mechanical|Company: Autodesk, Inc."
 90
     1024
280
     0
281
     0
  0
CLASS
  1
ACAMGLAYSTD
  2
AcAmgLayStd
  3
"AmgLay|Product Description: AutoCAD Mechanical|Company: Autodesk, Inc."
 90
     1024
280
     0
281
     0
  0
CLASS
  1
ACAMGDIMSTD
  2
AcAmgDimStd
  3
"AmgDim|Product Description: AutoCAD Mechanical|Company: Autodesk, Inc."
 90
     1024
280
     0
281
     0
  0
CLASS
  1
ACAMGHOLECHARTSTDANSI
  2
AcAmgHoleChartStdANSI
  3
AmgDim|Product Description: AutoCAD Mechanical|Company: Autodesk, Inc.
 90
     1024
280
     0
281
     0
  0
CLASS
  1
AMGOBJPROPCFG
  2
AmgObjPropCfg
  3
"AmgLay|Product Description: AutoCAD Mechanical|Company: Autodesk, Inc."
 90
     1025
280
     0
281
     0
  0
CLASS
  1
ACAMGTITLESTD
  2
AcAmgTitleStd
  3
"AmgTitle|Product Description: AutoCAD Mechanical|Company: Autodesk, Inc."
 90
     4095
280
     0
281
     0
  0
CLASS
  1
AMDTNOTETEMPLATEDB
  2
AmdtNoteTemplateDB
  3
AcmSymBB|Product Description: AutoCAD Mechanical|Company: Autodesk, Inc.
 90
     1024
280
     0
281
     0
  0
CLASS
  1
LAYER_INDEX
  2
AcDbLayerIndex
  3
ObjectDBX Classes
 90
        0
280
     0
281
     0
  0
CLASS
  1
IDBUFFER
  2
AcDbIdBuffer
  3
ObjectDBX Classes
 90
        0
280
     0
281
     0
  0
CLASS
  1
DICTIONARYVAR
  2
AcDbDictionaryVar
  3
ObjectDBX Classes
 90
        0
280
     0
281
     0
  0
CLASS
  1
CELLSTYLEMAP
  2
AcDbCellStyleMap
  3
ObjectDBX Classes
 90
     1152
280
     0
281
     0
  0
CLASS
  1
ACDBPLACEHOLDER
  2
AcDbPlaceHolder
  3
ObjectDBX Classes
 90
        0
280
     0
281
     0
  0
CLASS
  1
LAYOUT
  2
AcDbLayout
  3
ObjectDBX Classes
 90
        0
280
     0
281
     0
  0
ENDSEC
  0
SECTION
  2
TABLES
  0
TABLE
  2
VPORT
  5
2D86
330
0
100
AcDbSymbolTable
 70
     1
  0
VPORT
  5
2DF6
330
2D86
100
AcDbSymbolTableRecord
100
AcDbViewportTableRecord
  2
*ACTIVE
 70
     0
 10
0.0
 20
0.0
 11
1.0
 21
1.0
 12
0.0
 22
0.0
 13
0.0
 23
0.0
 14
1.0
 24
1.0
 15
0.0
 25
0.0
 16
0.0
 26
0.0
 36
1.0
 17
166.5458819439464
 27
-224.9799153352659
 37
0.0
 40
1759.259943735867
 41
1.712555066079295
 42
50.0
 43
0.0
 44
0.0
 50
0.0
 51
0.0
 71
     0
 72
   100
 73
     1
 74
     0
 75
     0
 76
     0
 77
     0
 78
     0
281
     0
 65
     0
110
0.0
120
0.0
130
0.0
111
1.0
121
0.0
131
0.0
112
0.0
122
1.0
132
0.0
 79
     0
146
0.0
  0
ENDTAB
  0
TABLE
  2
LTYPE
  5
2D83
330
0
100
AcDbSymbolTable
 70
    19
  0
LTYPE
  5
2DE0
330
2D83
100
AcDbSymbolTableRecord
100
AcDbLinetypeTableRecord
  2
ByBlock
 70
     0
  3

 72
    65
 73
     0
 40
0.0
  0
LTYPE
  5
2DE1
330
2D83
100
AcDbSymbolTableRecord
100
AcDbLinetypeTableRecord
  2
ByLayer
 70
     0
  3

 72
    65
 73
     0
 40
0.0
  0
LTYPE
  5
2DE2
330
2D83
100
AcDbSymbolTableRecord
100
AcDbLinetypeTableRecord
  2
CONTINUOUS
 70
     0
  3
実線
 72
    65
 73
     0
 40
0.0
  0
LTYPE
  5
2DF7
330
2D83
100
AcDbSymbolTableRecord
100
AcDbLinetypeTableRecord
  2
DASHDOT
 70
     0
  3
____ _ ____ _ ____ _ ____ _ ____ _ ____ _ ____
 72
    65
 73
     4
 40
5.5
 49
4.0
 74
     0
 49
-0.6
 74
     0
 49
0.3
 74
     0
 49
-0.6
 74
     0
  0
LTYPE
  5
2DF8
330
2D83
100
AcDbSymbolTableRecord
100
AcDbLinetypeTableRecord
  2
HIDDEN
 70
     0
  3
Hidden __ __ __ __ __ __ __ __ __ __ __ __ __ _
 72
    65
 73
     2
 40
0.375
 49
0.25
 74
     0
 49
-0.125
 74
     0
  0
LTYPE
  5
2DF9
330
2D83
100
AcDbSymbolTableRecord
100
AcDbLinetypeTableRecord
  2
PHANTOM2
 70
     0
  3
Phantom (.5x) ___ _ _ ___ _ _ ___ _ _ ___ _ _
 72
    65
 73
     6
 40
1.25
 49
0.625
 74
     0
 49
-0.125
 74
     0
 49
0.125
 74
     0
 49
-0.125
 74
     0
 49
0.125
 74
     0
 49
-0.125
 74
     0
  0
LTYPE
  5
2DFA
330
2D83
100
AcDbSymbolTableRecord
100
AcDbLinetypeTableRecord
  2
CENTER
 70
     0
  3
Center ____ _ ____ _ ____ _ ____ _ ____ _ ____
 72
    65
 73
     4
 40
2.0
 49
1.25
 74
     0
 49
-0.25
 74
     0
 49
0.25
 74
     0
 49
-0.25
 74
     0
  0
LTYPE
  5
2DFB
330
2D83
100
AcDbSymbolTableRecord
100
AcDbLinetypeTableRecord
  2
ASULTYPE
 70
     0
  3
実線
 72
    65
 73
     2
 40
3.0
 49
2.5
 74
     0
 49
0.5
 74
     0
  0
LTYPE
  5
2DFC
330
2D83
100
AcDbSymbolTableRecord
100
AcDbLinetypeTableRecord
  2
ASVLTYPE
 70
     0
  3
__ __ __ __ __ __ __ __ __ __ __ __ __ __ __ __ __ __ __ __ __
 72
    65
 73
     2
 40
0.75
 49
0.5
 74
     0
 49
-0.25
 74
     0
  0
LTYPE
  5
2DFD
330
2D83
100
AcDbSymbolTableRecord
100
AcDbLinetypeTableRecord
  2
AM_ISO02W050
 70
     0
  3
__ __ __ __ __ __ __ __ __ __ __ __ __ __ __
 72
    65
 73
     2
 40
7.5
 49
6.0
 74
     0
 49
-1.5
 74
     0
  0
LTYPE
  5
2DFE
330
2D83
100
AcDbSymbolTableRecord
100
AcDbLinetypeTableRecord
  2
AM_ISO08W050
 70
     0
  3
____ . ____ . ____ . ____ . ____ . ____ . ____
 72
    65
 73
     4
 40
18.0
 49
12.0
 74
     0
 49
-1.5
 74
     0
 49
3.0
 74
     0
 49
-1.5
 74
     0
  0
LTYPE
  5
2DFF
330
2D83
100
AcDbSymbolTableRecord
100
AcDbLinetypeTableRecord
  2
AM_ISO09W050
 70
     0
  3
_____ . . _____ . . _____ . . ____ .. ____
 72
    65
 73
     6
 40
22.5
 49
12.0
 74
     0
 49
-1.5
 74
     0
 49
3.0
 74
     0
 49
-1.5
 74
     0
 49
3.0
 74
     0
 49
-1.5
 74
     0
  0
LTYPE
  5
2E00
330
2D83
100
AcDbSymbolTableRecord
100
AcDbLinetypeTableRecord
  2
AMCONSTR
 70
     0
  3
_______________________
 72
    65
 73
     2
 40
9999.0
 49
9999.0
 74
     0
 49
0.0
 74
     0
  0
LTYPE
  5
2E01
330
2D83
100
AcDbSymbolTableRecord
100
AcDbLinetypeTableRecord
  2
AM_ISO08W050X2
 70
     0
  3
__ . __ . __ . __ . __ . __
 72
    65
 73
     4
 40
9.0
 49
6.0
 74
     0
 49
-0.75
 74
     0
 49
1.5
 74
     0
 49
-0.75
 74
     0
  0
LTYPE
  5
2E02
330
2D83
100
AcDbSymbolTableRecord
100
AcDbLinetypeTableRecord
  2
AM_ISO02W050X2
 70
     0
  3
 _ _ _ _ _ _ _ _ _ _ _ _
 72
    65
 73
     2
 40
3.75
 49
3.0
 74
     0
 49
-0.75
 74
     0
  0
LTYPE
  5
2E03
330
2D83
100
AcDbSymbolTableRecord
100
AcDbLinetypeTableRecord
  2
AMZIGZAG
 70
     0
  3
/\/-/\/-/\/-/\/-/\/-/\/
 72
    65
 73
     2
 40
11.0001
 49
0.0001
 74
     0
 49
-11.0
 74
     0
  0
LTYPE
  5
2E04
330
2D83
100
AcDbSymbolTableRecord
100
AcDbLinetypeTableRecord
  2
CENTER2
 70
     0
  3
Center (.5x) ___ _ ___ _ ___ _ ___ _ ___ _ ___
 72
    65
 73
     4
 40
1.125
 49
0.75
 74
     0
 49
-0.125
 74
     0
 49
0.125
 74
     0
 49
-0.125
 74
     0
  0
LTYPE
  5
2E05
330
2D83
100
AcDbSymbolTableRecord
100
AcDbLinetypeTableRecord
  2
HIDDEN2
 70
     0
  3
Hidden (.5x) _ _ _ _ _ _ _ _ _ _ _ _ _ _ _ _ _
 72
    65
 73
     2
 40
0.1875
 49
0.125
 74
     0
 49
-0.0625
 74
     0
  0
LTYPE
  5
2E06
330
2D83
100
AcDbSymbolTableRecord
100
AcDbLinetypeTableRecord
  2
AMZIGZAG2
 70
     0
  3
/\/-/\/-/\/-/\/-/\/-/\/
 72
    65
 73
     2
 40
0.4401
 49
0.0001
 74
     0
 49
-0.4400000000000003
 74
     0
  0
LTYPE
  5
2E07
330
2D83
100
AcDbSymbolTableRecord
100
AcDbLinetypeTableRecord
  2
ACANSTGB
 70
     0
  3
__ . . __ . .
 72
    65
 73
     6
 40
0.35433070866
 49
0.15748031496
 74
     0
 49
-0.03937007874
 74
     0
 49
0.03937007874
 74
     0
 49
-0.03937007874
 74
     0
 49
0.03937007874
 74
     0
 49
-0.03937007874
 74
     0
  0
LTYPE
  5
2E08
330
2D83
100
AcDbSymbolTableRecord
100
AcDbLinetypeTableRecord
  2
ACANSTGL
 70
     0
  3
_ _ _ _ _
 72
    65
 73
     2
 40
0.11811023622
 49
0.07874015748
 74
     0
 49
-0.03937007874
 74
     0
  0
ENDTAB
  0
TABLE
  2
LAYER
  5
2D80
330
0
100
AcDbSymbolTable
 70
    12
  0
LAYER
  5
2DDA
102
{ACAD_XDICTIONARY
360
2FB0
102
}
330
2D80
100
AcDbSymbolTableRecord
100
AcDbLayerTableRecord
  2
0
 70
     0
 62
     7
  6
CONTINUOUS
370
    -3
390
2D8D
  0
LAYER
  5
2E09
102
{ACAD_XDICTIONARY
360
2FB2
102
}
330
2D80
100
AcDbSymbolTableRecord
100
AcDbLayerTableRecord
  2
OUTLINE
 70
     0
 62
     3
  6
CONTINUOUS
370
    -3
390
2D8D
  0
LAYER
  5
2E0A
102
{ACAD_XDICTIONARY
360
2FB4
102
}
330
2D80
100
AcDbSymbolTableRecord
100
AcDbLayerTableRecord
  2
SIZE
 70
     0
 62
    30
  6
CONTINUOUS
370
    -3
390
2D8D
  0
LAYER
  5
2E0B
102
{ACAD_XDICTIONARY
360
2FB6
102
}
330
2D80
100
AcDbSymbolTableRecord
100
AcDbLayerTableRecord
  2
BASIS
 70
     0
 62
     6
  6
DASHDOT
370
    -3
390
2D8D
  0
LAYER
  5
2E0C
102
{ACAD_XDICTIONARY
360
2FB8
102
}
330
2D80
100
AcDbSymbolTableRecord
100
AcDbLayerTableRecord
  2
DETAIL
 70
     0
 62
     5
  6
CONTINUOUS
370
    -3
390
2D8D
  0
LAYER
  5
2E0D
102
{ACAD_XDICTIONARY
360
2FBA
102
}
330
2D80
100
AcDbSymbolTableRecord
100
AcDbLayerTableRecord
  2
ARRANGE
 70
     0
 62
     1
  6
CONTINUOUS
370
    -3
390
2D8D
  0
LAYER
  5
2E0E
330
2D80
100
AcDbSymbolTableRecord
100
AcDbLayerTableRecord
  2
DEFPOINTS
 70
     0
 62
     7
  6
CONTINUOUS
290
     0
370
    -3
390
2D8D
  0
LAYER
  5
2E0F
102
{ACAD_XDICTIONARY
360
2FBC
102
}
330
2D80
100
AcDbSymbolTableRecord
100
AcDbLayerTableRecord
  2
ETC
 70
     0
 62
    61
  6
CONTINUOUS
370
    -3
390
2D8D
  0
LAYER
  5
2E10
102
{ACAD_XDICTIONARY
360
2FBE
102
}
330
2D80
100
AcDbSymbolTableRecord
100
AcDbLayerTableRecord
  2
FIX
 70
     0
 62
    11
  6
CONTINUOUS
370
    -3
390
2D8D
  0
LAYER
  5
2E11
102
{ACAD_XDICTIONARY
360
2FC0
102
}
330
2D80
100
AcDbSymbolTableRecord
100
AcDbLayerTableRecord
  2
NOTE
 70
     0
 62
     4
  6
CONTINUOUS
370
    -3
390
2D8D
  0
LAYER
  5
2E12
102
{ACAD_XDICTIONARY
360
2FC2
102
}
330
2D80
100
AcDbSymbolTableRecord
100
AcDbLayerTableRecord
  2
SERVICESPACE
 70
     0
 62
     2
  6
DASHDOT
370
    -3
390
2D8D
  0
LAYER
  5
2E13
102
{ACAD_XDICTIONARY
360
2FC4
102
}
330
2D80
100
AcDbSymbolTableRecord
100
AcDbLayerTableRecord
  2
SYMBOLLINE
 70
     0
 62
    15
  6
CONTINUOUS
370
    -3
390
2D8D
  0
ENDTAB
  0
TABLE
  2
STYLE
  5
2D81
330
0
100
AcDbSymbolTable
 70
     5
  0
STYLE
  5
2DDB
330
2D81
100
AcDbSymbolTableRecord
100
AcDbTextStyleTableRecord
  2
STANDARD
 70
     0
 40
64.0
 41
0.9
 50
0.0
 71
     0
 42
64.0
  3
SIMPLEX.shx
  4
BIGFONT.shx
  0
STYLE
  5
2DDF
330
2D81
100
AcDbSymbolTableRecord
100
AcDbTextStyleTableRecord
  2
ANNOTATIVE
 70
     0
 40
0.0
 41
1.0
 50
0.0
 71
     0
 42
0.2
  3
txt
  4

1001
ACADANNOTATIVE
1000
AnnotativeData
1002
{
1070
     1
1070
     1
1002
}
  0
STYLE
  5
2E14
330
2D81
100
AcDbSymbolTableRecord
100
AcDbTextStyleTableRecord
  2

 70
     1
 40
0.0
 41
1.0
 50
0.0
 71
     0
 42
64.0
  3
genltshp.shx
  4

  0
STYLE
  5
2E15
330
2D81
100
AcDbSymbolTableRecord
100
AcDbTextStyleTableRecord
  2
ACANSTS
 70
     0
 40
1.0
 41
1.0
 50
0.0
 71
     0
 42
64.0
  3
romans.shx
  4
extfont.shx
  0
STYLE
  5
2E16
330
2D81
100
AcDbSymbolTableRecord
100
AcDbTextStyleTableRecord
  2
ACANSGDT
 70
     0
 40
0.0
 41
1.0
 50
0.0
 71
     0
 42
64.0
  3
amgdt.shx
  4

  0
ENDTAB
  0
TABLE
  2
VIEW
  5
2D84
330
0
100
AcDbSymbolTable
 70
     1
  0
VIEW
  5
2E17
330
2D84
100
AcDbSymbolTableRecord
100
AcDbViewTableRecord
  2
ALL
 70
     0
 40
4282.619807999997
 10
0.0
 20
41.30990399999999
 41
5940.0
 11
0.0
 21
0.0
 31
1.0
 12
0.0
 22
0.0
 32
0.0
 42
50.0
 43
0.0
 44
0.0
 50
0.0
 71
     0
281
     0
 72
     1
110
0.0
120
0.0
130
0.0
111
1.0
121
0.0
131
0.0
112
0.0
122
1.0
132
0.0
 79
     0
146
0.0
  0
ENDTAB
  0
TABLE
  2
UCS
  5
2D85
330
0
100
AcDbSymbolTable
 70
     0
  0
ENDTAB
  0
TABLE
  2
APPID
  5
2D87
330
0
100
AcDbSymbolTable
 70
    26
  0
APPID
  5
2DDC
330
2D87
100
AcDbSymbolTableRecord
100
AcDbRegAppTableRecord
  2
ACAD
 70
     0
  0
APPID
  5
2DE3
330
2D87
100
AcDbSymbolTableRecord
100
AcDbRegAppTableRecord
  2
ACADANNOTATIVE
 70
     0
  0
APPID
  5
2DED
330
2D87
100
AcDbSymbolTableRecord
100
AcDbRegAppTableRecord
  2
ACAD_MLEADERVER
 70
     0
  0
APPID
  5
2E18
330
2D87
100
AcDbSymbolTableRecord
100
AcDbRegAppTableRecord
  2
GENIUS_GENDIM_13
 70
     0
  0
APPID
  5
2E19
330
2D87
100
AcDbSymbolTableRecord
100
AcDbRegAppTableRecord
  2
GENIUS_GENDTOL_13
 70
     0
  0
APPID
  5
2E1A
330
2D87
100
AcDbSymbolTableRecord
100
AcDbRegAppTableRecord
  2
GENIUS_GE3DTOL_13
 70
     0
  0
APPID
  5
2E1B
330
2D87
100
AcDbSymbolTableRecord
100
AcDbRegAppTableRecord
  2
MCAD_NO_VIS
 70
     0
  0
APPID
  5
2E1C
330
2D87
100
AcDbSymbolTableRecord
100
AcDbRegAppTableRecord
  2
ACAD_TEMP_GRAPHIC
 70
     0
  0
APPID
  5
2E1D
330
2D87
100
AcDbSymbolTableRecord
100
AcDbRegAppTableRecord
  2
AD_DRAW
 70
     0
  0
APPID
  5
2E1E
330
2D87
100
AcDbSymbolTableRecord
100
AcDbRegAppTableRecord
  2
ACATTRIBSERVICES
 70
     0
  0
APPID
  5
2E1F
330
2D87
100
AcDbSymbolTableRecord
100
AcDbRegAppTableRecord
  2
ASURF_PCURVE_APPNAME
 70
     0
  0
APPID
  5
2E20
330
2D87
100
AcDbSymbolTableRecord
100
AcDbRegAppTableRecord
  2
AMG_3D2D_5_0
 70
     0
  0
APPID
  5
2E21
330
2D87
100
AcDbSymbolTableRecord
100
AcDbRegAppTableRecord
  2
DESIGNERASSEMBLIES
 70
     0
  0
APPID
  5
2E22
330
2D87
100
AcDbSymbolTableRecord
100
AcDbRegAppTableRecord
  2
ACADM_DIM_EDIT
 70
     0
  0
APPID
  5
2E23
330
2D87
100
AcDbSymbolTableRecord
100
AcDbRegAppTableRecord
  2
AMDT_DM_ADJ
 70
     0
  0
APPID
  5
2E24
330
2D87
100
AcDbSymbolTableRecord
100
AcDbRegAppTableRecord
  2
ACAD_DSTYLE_DIMARC_LENGTH_
 70
     0
  0
APPID
  5
2E25
330
2D87
100
AcDbSymbolTableRecord
100
AcDbRegAppTableRecord
  2
ACAD_DSTYLE_DIMJOGGED_JOGA
 70
     0
  0
APPID
  5
2E26
330
2D87
100
AcDbSymbolTableRecord
100
AcDbRegAppTableRecord
  2
ACAD_PSEXT
 70
     0
  0
APPID
  5
2E27
330
2D87
100
AcDbSymbolTableRecord
100
AcDbRegAppTableRecord
  2
ACAD_EXEMPT_FROM_CAD_STANDARDS
 70
     0
  0
APPID
  5
2E28
330
2D87
100
AcDbSymbolTableRecord
100
AcDbRegAppTableRecord
  2
ACAD_DSTYLE_DIMJAG
 70
     0
  0
APPID
  5
2E29
330
2D87
100
AcDbSymbolTableRecord
100
AcDbRegAppTableRecord
  2
ACAD_DSTYLE_DIMTALN
 70
     0
  0
APPID
  5
2F57
330
2D87
100
AcDbSymbolTableRecord
100
AcDbRegAppTableRecord
  2
AMG_3D2D_5.0
 70
     0
  0
APPID
  5
2FED
330
2D87
100
AcDbSymbolTableRecord
100
AcDbRegAppTableRecord
  2
ACAD_DSTYLE_DIMARC_LENGTH_SYMBOL
 70
     0
  0
APPID
  5
2FEE
330
2D87
100
AcDbSymbolTableRecord
100
AcDbRegAppTableRecord
  2
ACAD_DSTYLE_DIM_LINETYPE
 70
     0
  0
APPID
  5
2FEF
330
2D87
100
AcDbSymbolTableRecord
100
AcDbRegAppTableRecord
  2
ACAD_DSTYLE_DIM_EXT1_LINETYPE
 70
     0
  0
APPID
  5
2FF0
330
2D87
100
AcDbSymbolTableRecord
100
AcDbRegAppTableRecord
  2
ACAD_DSTYLE_DIM_EXT2_LINETYPE
 70
     0
  0
ENDTAB
  0
TABLE
  2
DIMSTYLE
  5
2D88
330
0
100
AcDbSymbolTable
 70
    10
100
AcDbDimStyleTable
 71
     1
340
2E2A
  0
DIMSTYLE
105
2DDD
330
2D88
100
AcDbSymbolTableRecord
100
AcDbDimStyleTableRecord
  2
STANDARD
 70
     0
 41
12.0
 42
20.0
 44
20.0
 77
     1
 78
     8
140
64.0
141
0.0
147
10.0
275
     1
279
     2
284
     7
285
     7
286
     7
340
2DDB
  0
DIMSTYLE
105
2DDE
330
2D88
100
AcDbSymbolTableRecord
100
AcDbDimStyleTableRecord
  2
ANNOTATIVE
 70
     0
275
     1
279
     2
284
     7
285
     7
286
     7
340
2DDB
1001
ACADANNOTATIVE
1000
AnnotativeData
1002
{
1070
     1
1070
     1
1002
}
  0
DIMSTYLE
105
2E2A
330
2D88
100
AcDbSymbolTableRecord
100
AcDbDimStyleTableRecord
  2
AM_ANSI
 70
     0
  4
mm
 41
0.12
 42
0.05
 43
0.5
 44
0.1
 47
0.1
 48
0.1
 78
     7
 79
     2
140
0.12
141
0.0
146
0.71
147
0.06
176
   256
177
   256
178
     2
274
     4
284
     7
340
2DDB
371
    -1
372
    -1
1001
ACAD_DSTYLE_DIMARC_LENGTH_SYMBOL
1070
   379
1070
     1
1001
ACAD_DSTYLE_DIM_LINETYPE
1070
   380
1005
2DE0
1001
ACAD_DSTYLE_DIM_EXT1_LINETYPE
1070
   381
1005
2DE0
1001
ACAD_DSTYLE_DIM_EXT2_LINETYPE
1070
   382
1005
2DE0
  0
DIMSTYLE
105
2E2B
330
2D88
100
AcDbSymbolTableRecord
100
AcDbDimStyleTableRecord
  2
AM_ANSI$3
 70
     0
  4
mm
 41
0.12
 42
0.05
 43
0.5
 44
0.1
 47
0.1
 48
0.1
 78
     7
 79
     2
140
0.12
141
0.0
146
0.71
147
0.06
176
   256
177
   256
178
     2
274
     4
284
     7
288
     1
289
     0
340
2DDB
371
    -1
372
    -1
1001
ACAD_DSTYLE_DIMARC_LENGTH_SYMBOL
1070
   379
1070
     1
1001
ACAD_DSTYLE_DIM_LINETYPE
1070
   380
1005
2DE0
1001
ACAD_DSTYLE_DIM_EXT1_LINETYPE
1070
   381
1005
2DE0
1001
ACAD_DSTYLE_DIM_EXT2_LINETYPE
1070
   382
1005
2DE0
  0
DIMSTYLE
105
2E2C
330
2D88
100
AcDbSymbolTableRecord
100
AcDbDimStyleTableRecord
  2
AM_ANSI$4
 70
     0
  4
mm
 41
0.12
 42
0.05
 43
0.5
 44
0.1
 47
0.1
 48
0.1
 78
     7
 79
     2
140
0.12
141
0.0
146
0.71
147
0.06
176
   256
177
   256
178
     2
274
     4
284
     7
340
2DDB
371
    -1
372
    -1
1001
ACAD_DSTYLE_DIMARC_LENGTH_SYMBOL
1070
   379
1070
     1
1001
ACAD_DSTYLE_DIM_LINETYPE
1070
   380
1005
2DE0
1001
ACAD_DSTYLE_DIM_EXT1_LINETYPE
1070
   381
1005
2DE0
1001
ACAD_DSTYLE_DIM_EXT2_LINETYPE
1070
   382
1005
2DE0
  0
DIMSTYLE
105
2E2D
330
2D88
100
AcDbSymbolTableRecord
100
AcDbDimStyleTableRecord
  2
AM_ANSI$7
 70
     0
  4
mm
 41
0.12
 42
0.05
 43
0.5
 44
0.1
 47
0.1
 48
0.1
 78
     7
 79
     2
140
0.12
141
0.0
146
0.71
147
0.06
176
   256
177
   256
178
     2
274
     4
284
     7
340
2DDB
371
    -1
372
    -1
1001
ACAD_DSTYLE_DIMARC_LENGTH_SYMBOL
1070
   379
1070
     1
1001
ACAD_DSTYLE_DIM_LINETYPE
1070
   380
1005
2DE0
1001
ACAD_DSTYLE_DIM_EXT1_LINETYPE
1070
   381
1005
2DE0
1001
ACAD_DSTYLE_DIM_EXT2_LINETYPE
1070
   382
1005
2DE0
  0
DIMSTYLE
105
2E2E
330
2D88
100
AcDbSymbolTableRecord
100
AcDbDimStyleTableRecord
  2
AM_ANSI$SF
 70
     0
  4
mm
 41
0.12
 42
0.05
 43
0.5
 44
0.1
 47
0.1
 48
0.1
 75
     1
 76
     1
 78
     7
 79
     2
140
0.12
141
0.0
146
0.71
147
0.06
176
   256
177
   256
178
     2
274
     4
284
     7
340
2DDB
371
    -1
372
    -1
1001
ACAD_DSTYLE_DIMARC_LENGTH_SYMBOL
1070
   379
1070
     1
1001
ACAD_DSTYLE_DIM_LINETYPE
1070
   380
1005
2DE0
1001
ACAD_DSTYLE_DIM_EXT1_LINETYPE
1070
   381
1005
2DE0
1001
ACAD_DSTYLE_DIM_EXT2_LINETYPE
1070
   382
1005
2DE0
  0
DIMSTYLE
105
2E2F
330
2D88
100
AcDbSymbolTableRecord
100
AcDbDimStyleTableRecord
  2
AM_ANSI$SH
 70
     0
  4
mm
 41
0.12
 42
0.05
 43
0.5
 44
0.1
 47
0.1
 48
0.1
 75
     1
 76
     1
 78
     7
 79
     2
140
0.12
141
0.0
146
0.71
147
0.06
173
     1
176
   256
177
   256
178
     2
274
     4
284
     7
340
2DDB
343
2E4F
371
    -1
372
    -1
1001
ACAD_DSTYLE_DIMARC_LENGTH_SYMBOL
1070
   379
1070
     1
1001
ACAD_DSTYLE_DIM_LINETYPE
1070
   380
1005
2DE0
1001
ACAD_DSTYLE_DIM_EXT1_LINETYPE
1070
   381
1005
2DE0
1001
ACAD_DSTYLE_DIM_EXT2_LINETYPE
1070
   382
1005
2DE0
  0
DIMSTYLE
105
2E30
330
2D88
100
AcDbSymbolTableRecord
100
AcDbDimStyleTableRecord
  2
STANDARD1
 70
     0
 40
6.0
 41
2.5
 42
0.625
 43
6.0
 44
1.25
 47
1.0
 48
0.5
 77
     1
 78
     8
140
2.5
141
0.0
146
0.6
147
1.0
173
     1
275
     1
279
     2
284
     7
285
     7
286
     7
340
2DDB
  0
DIMSTYLE
105
2E31
330
2D88
100
AcDbSymbolTableRecord
100
AcDbDimStyleTableRecord
  2
STANDARD$0
 70
     0
 41
12.0
 42
20.0
 44
20.0
 73
     0
 74
     0
 77
     1
 78
     8
140
64.0
141
0.0
147
10.0
275
     1
279
     2
284
     7
285
     7
286
     7
340
2DDB
  0
ENDTAB
  0
TABLE
  2
BLOCK_RECORD
  5
2D7F
330
0
100
AcDbSymbolTable
 70
    79
  0
BLOCK_RECORD
  5
2DF2
102
{ACAD_XDICTIONARY
360
2FC6
102
}
330
2D7F
100
AcDbSymbolTableRecord
100
AcDbBlockTableRecord
  2
*Model_Space
340
2DF5
  0
BLOCK_RECORD
  5
2DEE
330
2D7F
100
AcDbSymbolTableRecord
100
AcDbBlockTableRecord
  2
*Paper_Space
340
2DF1
  0
BLOCK_RECORD
  5
2E39
330
2D7F
100
AcDbSymbolTableRecord
100
AcDbBlockTableRecord
  2
$MODEL_SPACE
340
0
  0
BLOCK_RECORD
  5
2E3B
330
2D7F
100
AcDbSymbolTableRecord
100
AcDbBlockTableRecord
  2
$PAPER_SPACE
340
0
  0
BLOCK_RECORD
  5
2E3D
330
2D7F
100
AcDbSymbolTableRecord
100
AcDbBlockTableRecord
  2
_ORIGIN
340
0
  0
BLOCK_RECORD
  5
2E3F
330
2D7F
100
AcDbSymbolTableRecord
100
AcDbBlockTableRecord
  2
_DOTBLANK
340
0
102
{BLKREFS
331
1299
331
129A
331
11AA
331
11AB
331
E80
331
E81
331
1123
331
1124
331
11C2
331
11C3
331
11EC
331
11ED
331
11F9
331
11FA
331
1287
331
1288
331
1417
331
1418
331
1423
331
1424
331
142F
331
1430
331
143B
331
143C
331
166E
331
166F
331
1677
331
1678
331
1680
331
1681
331
1689
331
168A
331
1696
331
1697
331
16A3
331
16A4
331
16AF
331
16B0
331
16BB
331
16BC
331
16C7
331
16C8
331
16D3
331
16D4
331
1D86
331
1D87
331
1D8F
331
1D90
331
1D98
331
1D99
331
1DA1
331
1DA2
331
1DAB
331
1DAC
331
1DB5
331
1DB6
331
2D34
331
2D35
331
2D39
331
2D3A
331
2D3F
331
2D40
331
2D45
331
2D46
331
2D4A
331
2D4B
331
2D4F
331
2D50
102
}
  0
BLOCK_RECORD
  5
2E41
330
2D7F
100
AcDbSymbolTableRecord
100
AcDbBlockTableRecord
  2
_OPEN30
340
0
102
{BLKREFS
331
2087
331
219F
331
2470
331
2681
331
27CA
331
2B3A
102
}
  0
BLOCK_RECORD
  5
2E43
330
2D7F
100
AcDbSymbolTableRecord
100
AcDbBlockTableRecord
  2
*D5
340
0
  0
BLOCK_RECORD
  5
2E45
330
2D7F
100
AcDbSymbolTableRecord
100
AcDbBlockTableRecord
  2
*U6
340
0
102
{BLKREFS
331
129B
102
}
  0
BLOCK_RECORD
  5
2E47
330
2D7F
100
AcDbSymbolTableRecord
100
AcDbBlockTableRecord
  2
*D7
340
0
  0
BLOCK_RECORD
  5
2E49
330
2D7F
100
AcDbSymbolTableRecord
100
AcDbBlockTableRecord
  2
*U8
340
0
102
{BLKREFS
331
11AC
102
}
  0
BLOCK_RECORD
  5
2E4B
330
2D7F
100
AcDbSymbolTableRecord
100
AcDbBlockTableRecord
  2
*D9
340
0
  0
BLOCK_RECORD
  5
2E4D
330
2D7F
100
AcDbSymbolTableRecord
100
AcDbBlockTableRecord
  2
*U10
340
0
102
{BLKREFS
331
E82
102
}
  0
BLOCK_RECORD
  5
2E4F
330
2D7F
100
AcDbSymbolTableRecord
100
AcDbBlockTableRecord
  2
GENAXEH
340
0
  0
BLOCK_RECORD
  5
2E51
330
2D7F
100
AcDbSymbolTableRecord
100
AcDbBlockTableRecord
  2
*D12
340
0
  0
BLOCK_RECORD
  5
2E53
330
2D7F
100
AcDbSymbolTableRecord
100
AcDbBlockTableRecord
  2
*U13
340
0
102
{BLKREFS
331
1125
102
}
  0
BLOCK_RECORD
  5
2E55
330
2D7F
100
AcDbSymbolTableRecord
100
AcDbBlockTableRecord
  2
*D14
340
0
  0
BLOCK_RECORD
  5
2E57
330
2D7F
100
AcDbSymbolTableRecord
100
AcDbBlockTableRecord
  2
*U15
340
0
102
{BLKREFS
331
11C4
102
}
  0
BLOCK_RECORD
  5
2E59
330
2D7F
100
AcDbSymbolTableRecord
100
AcDbBlockTableRecord
  2
*D16
340
0
  0
BLOCK_RECORD
  5
2E5B
330
2D7F
100
AcDbSymbolTableRecord
100
AcDbBlockTableRecord
  2
*U17
340
0
102
{BLKREFS
331
11EE
102
}
  0
BLOCK_RECORD
  5
2E5D
330
2D7F
100
AcDbSymbolTableRecord
100
AcDbBlockTableRecord
  2
*D18
340
0
  0
BLOCK_RECORD
  5
2E5F
330
2D7F
100
AcDbSymbolTableRecord
100
AcDbBlockTableRecord
  2
*U19
340
0
102
{BLKREFS
331
11FB
102
}
  0
BLOCK_RECORD
  5
2E61
330
2D7F
100
AcDbSymbolTableRecord
100
AcDbBlockTableRecord
  2
*D20
340
0
  0
BLOCK_RECORD
  5
2E63
330
2D7F
100
AcDbSymbolTableRecord
100
AcDbBlockTableRecord
  2
*U21
340
0
102
{BLKREFS
331
1289
102
}
  0
BLOCK_RECORD
  5
2E65
330
2D7F
100
AcDbSymbolTableRecord
100
AcDbBlockTableRecord
  2
*D22
340
0
  0
BLOCK_RECORD
  5
2E67
330
2D7F
100
AcDbSymbolTableRecord
100
AcDbBlockTableRecord
  2
*U23
340
0
102
{BLKREFS
331
1419
102
}
  0
BLOCK_RECORD
  5
2E69
330
2D7F
100
AcDbSymbolTableRecord
100
AcDbBlockTableRecord
  2
*D24
340
0
  0
BLOCK_RECORD
  5
2E6B
330
2D7F
100
AcDbSymbolTableRecord
100
AcDbBlockTableRecord
  2
*U25
340
0
102
{BLKREFS
331
1425
102
}
  0
BLOCK_RECORD
  5
2E6D
330
2D7F
100
AcDbSymbolTableRecord
100
AcDbBlockTableRecord
  2
*D26
340
0
  0
BLOCK_RECORD
  5
2E6F
330
2D7F
100
AcDbSymbolTableRecord
100
AcDbBlockTableRecord
  2
*U27
340
0
102
{BLKREFS
331
1431
102
}
  0
BLOCK_RECORD
  5
2E71
330
2D7F
100
AcDbSymbolTableRecord
100
AcDbBlockTableRecord
  2
*D28
340
0
  0
BLOCK_RECORD
  5
2E73
330
2D7F
100
AcDbSymbolTableRecord
100
AcDbBlockTableRecord
  2
*U29
340
0
102
{BLKREFS
331
143D
102
}
  0
BLOCK_RECORD
  5
2E75
330
2D7F
100
AcDbSymbolTableRecord
100
AcDbBlockTableRecord
  2
*D30
340
0
  0
BLOCK_RECORD
  5
2E77
330
2D7F
100
AcDbSymbolTableRecord
100
AcDbBlockTableRecord
  2
*U31
340
0
102
{BLKREFS
331
1670
102
}
  0
BLOCK_RECORD
  5
2E79
330
2D7F
100
AcDbSymbolTableRecord
100
AcDbBlockTableRecord
  2
*D32
340
0
  0
BLOCK_RECORD
  5
2E7B
330
2D7F
100
AcDbSymbolTableRecord
100
AcDbBlockTableRecord
  2
*U33
340
0
102
{BLKREFS
331
1679
102
}
  0
BLOCK_RECORD
  5
2E7D
330
2D7F
100
AcDbSymbolTableRecord
100
AcDbBlockTableRecord
  2
*D34
340
0
  0
BLOCK_RECORD
  5
2E7F
330
2D7F
100
AcDbSymbolTableRecord
100
AcDbBlockTableRecord
  2
*U35
340
0
102
{BLKREFS
331
1682
102
}
  0
BLOCK_RECORD
  5
2E81
330
2D7F
100
AcDbSymbolTableRecord
100
AcDbBlockTableRecord
  2
*D36
340
0
  0
BLOCK_RECORD
  5
2E83
330
2D7F
100
AcDbSymbolTableRecord
100
AcDbBlockTableRecord
  2
*U37
340
0
102
{BLKREFS
331
168B
102
}
  0
BLOCK_RECORD
  5
2E85
330
2D7F
100
AcDbSymbolTableRecord
100
AcDbBlockTableRecord
  2
*U38
340
0
  0
BLOCK_RECORD
  5
2E87
330
2D7F
100
AcDbSymbolTableRecord
100
AcDbBlockTableRecord
  2
*D39
340
0
  0
BLOCK_RECORD
  5
2E89
330
2D7F
100
AcDbSymbolTableRecord
100
AcDbBlockTableRecord
  2
*U40
340
0
102
{BLKREFS
331
1698
102
}
  0
BLOCK_RECORD
  5
2E8B
330
2D7F
100
AcDbSymbolTableRecord
100
AcDbBlockTableRecord
  2
*D41
340
0
  0
BLOCK_RECORD
  5
2E8D
330
2D7F
100
AcDbSymbolTableRecord
100
AcDbBlockTableRecord
  2
*U42
340
0
102
{BLKREFS
331
16A5
102
}
  0
BLOCK_RECORD
  5
2E8F
330
2D7F
100
AcDbSymbolTableRecord
100
AcDbBlockTableRecord
  2
*D43
340
0
  0
BLOCK_RECORD
  5
2E91
330
2D7F
100
AcDbSymbolTableRecord
100
AcDbBlockTableRecord
  2
*U44
340
0
102
{BLKREFS
331
16B1
102
}
  0
BLOCK_RECORD
  5
2E93
330
2D7F
100
AcDbSymbolTableRecord
100
AcDbBlockTableRecord
  2
*D45
340
0
  0
BLOCK_RECORD
  5
2E95
330
2D7F
100
AcDbSymbolTableRecord
100
AcDbBlockTableRecord
  2
*U46
340
0
102
{BLKREFS
331
16BD
102
}
  0
BLOCK_RECORD
  5
2E97
330
2D7F
100
AcDbSymbolTableRecord
100
AcDbBlockTableRecord
  2
*D47
340
0
  0
BLOCK_RECORD
  5
2E99
330
2D7F
100
AcDbSymbolTableRecord
100
AcDbBlockTableRecord
  2
*U48
340
0
102
{BLKREFS
331
16C9
102
}
  0
BLOCK_RECORD
  5
2E9B
330
2D7F
100
AcDbSymbolTableRecord
100
AcDbBlockTableRecord
  2
*D49
340
0
  0
BLOCK_RECORD
  5
2E9D
330
2D7F
100
AcDbSymbolTableRecord
100
AcDbBlockTableRecord
  2
*U50
340
0
102
{BLKREFS
331
16D5
102
}
  0
BLOCK_RECORD
  5
2E9F
330
2D7F
100
AcDbSymbolTableRecord
100
AcDbBlockTableRecord
  2
*D51
340
0
  0
BLOCK_RECORD
  5
2EA1
330
2D7F
100
AcDbSymbolTableRecord
100
AcDbBlockTableRecord
  2
*U52
340
0
102
{BLKREFS
331
1D88
102
}
  0
BLOCK_RECORD
  5
2EA3
330
2D7F
100
AcDbSymbolTableRecord
100
AcDbBlockTableRecord
  2
*D53
340
0
  0
BLOCK_RECORD
  5
2EA5
330
2D7F
100
AcDbSymbolTableRecord
100
AcDbBlockTableRecord
  2
*U54
340
0
102
{BLKREFS
331
1D91
102
}
  0
BLOCK_RECORD
  5
2EA7
330
2D7F
100
AcDbSymbolTableRecord
100
AcDbBlockTableRecord
  2
*D55
340
0
  0
BLOCK_RECORD
  5
2EA9
330
2D7F
100
AcDbSymbolTableRecord
100
AcDbBlockTableRecord
  2
*U56
340
0
102
{BLKREFS
331
1D9A
102
}
  0
BLOCK_RECORD
  5
2EAB
330
2D7F
100
AcDbSymbolTableRecord
100
AcDbBlockTableRecord
  2
*D57
340
0
  0
BLOCK_RECORD
  5
2EAD
330
2D7F
100
AcDbSymbolTableRecord
100
AcDbBlockTableRecord
  2
*U58
340
0
102
{BLKREFS
331
1DA3
102
}
  0
BLOCK_RECORD
  5
2EAF
330
2D7F
100
AcDbSymbolTableRecord
100
AcDbBlockTableRecord
  2
*D59
340
0
  0
BLOCK_RECORD
  5
2EB1
330
2D7F
100
AcDbSymbolTableRecord
100
AcDbBlockTableRecord
  2
*U60
340
0
102
{BLKREFS
331
1DAD
102
}
  0
BLOCK_RECORD
  5
2EB3
330
2D7F
100
AcDbSymbolTableRecord
100
AcDbBlockTableRecord
  2
*D61
340
0
  0
BLOCK_RECORD
  5
2EB5
330
2D7F
100
AcDbSymbolTableRecord
100
AcDbBlockTableRecord
  2
*U62
340
0
102
{BLKREFS
331
1DB7
102
}
  0
BLOCK_RECORD
  5
2EB7
330
2D7F
100
AcDbSymbolTableRecord
100
AcDbBlockTableRecord
  2
*U63
340
0
  0
BLOCK_RECORD
  5
2EB9
330
2D7F
100
AcDbSymbolTableRecord
100
AcDbBlockTableRecord
  2
*U64
340
0
  0
BLOCK_RECORD
  5
2EBB
330
2D7F
100
AcDbSymbolTableRecord
100
AcDbBlockTableRecord
  2
*U65
340
0
  0
BLOCK_RECORD
  5
2EBD
330
2D7F
100
AcDbSymbolTableRecord
100
AcDbBlockTableRecord
  2
*U66
340
0
  0
BLOCK_RECORD
  5
2EBF
330
2D7F
100
AcDbSymbolTableRecord
100
AcDbBlockTableRecord
  2
*U67
340
0
  0
BLOCK_RECORD
  5
2EC1
330
2D7F
100
AcDbSymbolTableRecord
100
AcDbBlockTableRecord
  2
*U68
340
0
  0
BLOCK_RECORD
  5
2EC3
330
2D7F
100
AcDbSymbolTableRecord
100
AcDbBlockTableRecord
  2
*U69
340
0
  0
BLOCK_RECORD
  5
2EC5
330
2D7F
100
AcDbSymbolTableRecord
100
AcDbBlockTableRecord
  2
*U70
340
0
  0
BLOCK_RECORD
  5
2EC7
330
2D7F
100
AcDbSymbolTableRecord
100
AcDbBlockTableRecord
  2
*U71
340
0
  0
BLOCK_RECORD
  5
2EC9
330
2D7F
100
AcDbSymbolTableRecord
100
AcDbBlockTableRecord
  2
*U72
340
0
  0
BLOCK_RECORD
  5
2ECB
330
2D7F
100
AcDbSymbolTableRecord
100
AcDbBlockTableRecord
  2
*U73
340
0
  0
BLOCK_RECORD
  5
2ECD
330
2D7F
100
AcDbSymbolTableRecord
100
AcDbBlockTableRecord
  2
*U74
340
0
102
{BLKREFS
331
2CFE
102
}
  0
BLOCK_RECORD
  5
2ECF
330
2D7F
100
AcDbSymbolTableRecord
100
AcDbBlockTableRecord
  2
*U75
340
0
102
{BLKREFS
331
2CFF
102
}
  0
BLOCK_RECORD
  5
2ED1
330
2D7F
100
AcDbSymbolTableRecord
100
AcDbBlockTableRecord
  2
*X76
340
0
102
{BLKREFS
331
2D28
102
}
  0
BLOCK_RECORD
  5
2ED3
330
2D7F
100
AcDbSymbolTableRecord
100
AcDbBlockTableRecord
  2
*X77
340
0
102
{BLKREFS
331
2D29
102
}
  0
ENDTAB
  0
ENDSEC
  0
SECTION
  2
BLOCKS
  0
BLOCK
  5
2DF3
330
2DF2
100
AcDbEntity
  8
0
100
AcDbBlockBegin
  2
*Model_Space
 70
     0
 10
0.0
 20
0.0
 30
0.0
  3
*Model_Space
  1

  0
ENDBLK
  5
2DF4
330
2DF2
100
AcDbEntity
  8
0
100
AcDbBlockEnd
  0
BLOCK
  5
2DEF
330
2DEE
100
AcDbEntity
 67
     1
  8
0
100
AcDbBlockBegin
  2
*Paper_Space
 70
     0
 10
0.0
 20
0.0
 30
0.0
  3
*Paper_Space
  1

  0
ENDBLK
  5
2DF0
330
2DEE
100
AcDbEntity
 67
     1
  8
0
100
AcDbBlockEnd
  0
BLOCK
  5
2E3A
330
2E39
100
AcDbEntity
  8
0
100
AcDbBlockBegin
  2
$MODEL_SPACE
 70
     0
 10
0.0
 20
0.0
 30
0.0
  3
$MODEL_SPACE
  1

  0
ENDBLK
  5
1FC1
330
2E39
100
AcDbEntity
  8
0
100
AcDbBlockEnd
  0
BLOCK
  5
2E3C
330
2E3B
100
AcDbEntity
  8
0
100
AcDbBlockBegin
  2
$PAPER_SPACE
 70
     0
 10
0.0
 20
0.0
 30
0.0
  3
$PAPER_SPACE
  1

  0
ENDBLK
  5
1FBD
330
2E3B
100
AcDbEntity
  8
0
100
AcDbBlockEnd
  0
BLOCK
  5
2E3E
330
2E3D
100
AcDbEntity
  8
0
100
AcDbBlockBegin
  2
_ORIGIN
 70
     0
 10
0.0
 20
0.0
 30
0.0
  3
_ORIGIN
  1

  0
CIRCLE
  5
880
330
2E3D
100
AcDbEntity
  8
0
  6
Continuous
 62
     7
100
AcDbCircle
 10
0.0
 20
0.0
 30
0.0
 40
0.5
  0
LINE
  5
881
330
2E3D
100
AcDbEntity
  8
0
  6
Continuous
 62
     7
100
AcDbLine
 10
0.0
 20
0.0
 30
0.0
 11
-1.0
 21
0.0
 31
0.0
  0
ENDBLK
  5
882
330
2E3D
100
AcDbEntity
  8
0
100
AcDbBlockEnd
  0
BLOCK
  5
2E40
330
2E3F
100
AcDbEntity
  8
0
 62
     1
100
AcDbBlockBegin
  2
_DOTBLANK
 70
     0
 10
0.0
 20
0.0
 30
0.0
  3
_DOTBLANK
  1

  0
CIRCLE
  5
AB3
330
2E3F
100
AcDbEntity
  8
0
  6
ByBlock
 62
     0
100
AcDbCircle
 10
0.0
 20
0.0
 30
0.0
 40
0.5
  0
LINE
  5
AB4
330
2E3F
100
AcDbEntity
  8
0
  6
ByBlock
 62
     0
100
AcDbLine
 10
-0.5
 20
0.0
 30
0.0
 11
-1.0
 21
0.0
 31
0.0
  0
ENDBLK
  5
AB6
330
2E3F
100
AcDbEntity
  8
0
 62
     1
100
AcDbBlockEnd
  0
BLOCK
  5
2E42
330
2E41
100
AcDbEntity
  8
0
 62
     1
100
AcDbBlockBegin
  2
_OPEN30
 70
     0
 10
0.0
 20
0.0
 30
0.0
  3
_OPEN30
  1

  0
LINE
  5
AB8
330
2E41
100
AcDbEntity
  8
0
  6
ByBlock
 62
     0
100
AcDbLine
 10
-1.0
 20
0.26794919
 30
0.0
 11
0.0
 21
0.0
 31
0.0
  0
LINE
  5
AB9
330
2E41
100
AcDbEntity
  8
0
  6
ByBlock
 62
     0
100
AcDbLine
 10
0.0
 20
0.0
 30
0.0
 11
-1.0
 21
-0.26794919
 31
0.0
  0
LINE
  5
ABA
330
2E41
100
AcDbEntity
  8
0
  6
ByBlock
 62
     0
100
AcDbLine
 10
0.0
 20
0.0
 30
0.0
 11
-1.0
 21
0.0
 31
0.0
  0
ENDBLK
  5
ABC
330
2E41
100
AcDbEntity
  8
0
 62
     1
100
AcDbBlockEnd
  0
BLOCK
  5
2E44
330
2E43
100
AcDbEntity
  8
0
100
AcDbBlockBegin
  2
*D5
 70
     1
 10
0.0
 20
0.0
 30
0.0
  3
*D5
  1

  0
LINE
  5
1296
330
2E43
100
AcDbEntity
  8
SIZE
 62
     0
100
AcDbLine
 10
-134.5
 20
-320.0
 30
0.0
 11
-134.5
 21
-468.0173952306001
 31
0.0
  0
LINE
  5
1297
330
2E43
100
AcDbEntity
  8
SIZE
 62
     0
100
AcDbLine
 10
134.5
 20
-320.0
 30
0.0
 11
134.5
 21
-468.0173952306001
 31
0.0
  0
LINE
  5
1298
330
2E43
100
AcDbEntity
  8
SIZE
 62
     0
100
AcDbLine
 10
-122.5
 20
-448.0173952306
 30
0.0
 11
122.5
 21
-448.0173952306
 31
0.0
  0
INSERT
  5
1299
330
2E43
100
AcDbEntity
  8
SIZE
 62
     0
100
AcDbBlockReference
  2
_DOTBLANK
 10
-134.5
 20
-448.0173952306
 30
0.0
 41
12.0
 42
12.0
 43
12.0
 50
180.0
  0
INSERT
  5
129A
330
2E43
100
AcDbEntity
  8
SIZE
 62
     0
100
AcDbBlockReference
  2
_DOTBLANK
 10
134.5
 20
-448.0173952306
 30
0.0
 41
12.0
 42
12.0
 43
12.0
  0
INSERT
  5
129B
330
2E43
100
AcDbEntity
  8
0
100
AcDbBlockReference
  2
*U6
 10
0.0
 20
0.0
 30
0.0
  0
POINT
  5
129C
330
2E43
100
AcDbEntity
  8
DEFPOINTS
 62
     0
100
AcDbPoint
 10
-134.5
 20
-300.0
 30
0.0
  0
POINT
  5
129D
330
2E43
100
AcDbEntity
  8
DEFPOINTS
 62
     0
100
AcDbPoint
 10
134.5
 20
-300.0
 30
0.0
  0
POINT
  5
129E
330
2E43
100
AcDbEntity
  8
DEFPOINTS
 62
     0
100
AcDbPoint
 10
134.5
 20
-448.0173952306
 30
0.0
  0
ENDBLK
  5
D72
330
2E43
100
AcDbEntity
  8
0
100
AcDbBlockEnd
  0
BLOCK
  5
2E46
330
2E45
100
AcDbEntity
  8
0
100
AcDbBlockBegin
  2
*U6
 70
     1
 10
0.0
 20
0.0
 30
0.0
  3
*U6
  1

  0
TEXT
  5
1EF5
330
2E45
100
AcDbEntity
  8
SIZE
 62
     0
100
AcDbText
 10
-72.68571428571426
 20
-438.0173952305999
 30
0.0
 40
64.0
  1
269
 41
0.9
100
AcDbText
  0
ENDBLK
  5
1EF7
330
2E45
100
AcDbEntity
  8
0
100
AcDbBlockEnd
  0
BLOCK
  5
2E48
330
2E47
100
AcDbEntity
  8
0
100
AcDbBlockBegin
  2
*D7
 70
     1
 10
0.0
 20
0.0
 30
0.0
  3
*D7
  1

  0
LINE
  5
11A7
330
2E47
100
AcDbEntity
  8
SIZE
  6
Continuous
 62
     0
100
AcDbLine
 10
143.5
 20
-300.0
 30
0.0
 11
304.6432844803791
 21
-300.0
 31
0.0
  0
LINE
  5
11A8
330
2E47
100
AcDbEntity
  8
SIZE
  6
Continuous
 62
     0
100
AcDbLine
 10
177.5
 20
-0.0000000000000057
 30
0.0
 11
304.6432844803792
 21
-0.0000000000000417
 31
0.0
  0
LINE
  5
11A9
330
2E47
100
AcDbEntity
  8
SIZE
  6
Continuous
 62
     0
100
AcDbLine
 10
284.6432844803791
 20
-288.0000000000001
 30
0.0
 11
284.6432844803792
 21
-12.00000000000003
 31
0.0
  0
INSERT
  5
11AA
330
2E47
100
AcDbEntity
  8
SIZE
  6
Continuous
 62
     0
100
AcDbBlockReference
  2
_DOTBLANK
 10
284.6432844803791
 20
-300.0
 30
0.0
 41
12.0
 42
12.0
 43
12.0
 50
270.0
  0
INSERT
  5
11AB
330
2E47
100
AcDbEntity
  8
SIZE
  6
Continuous
 62
     0
100
AcDbBlockReference
  2
_DOTBLANK
 10
284.6432844803792
 20
-0.000000000000036
 30
0.0
 41
12.0
 42
12.0
 43
12.0
 50
90.0
  0
INSERT
  5
11AC
330
2E47
100
AcDbEntity
  8
0
100
AcDbBlockReference
  2
*U8
 10
0.0
 20
0.0
 30
0.0
  0
POINT
  5
11AD
330
2E47
100
AcDbEntity
  8
DEFPOINTS
  6
Continuous
 62
     0
100
AcDbPoint
 10
123.5
 20
-300.0
 30
0.0
  0
POINT
  5
11AE
330
2E47
100
AcDbEntity
  8
DEFPOINTS
  6
Continuous
 62
     0
100
AcDbPoint
 10
157.5
 20
0.0
 30
0.0
  0
POINT
  5
11AF
330
2E47
100
AcDbEntity
  8
DEFPOINTS
  6
Continuous
 62
     0
100
AcDbPoint
 10
284.6432844803792
 20
-0.000000000000036
 30
0.0
  0
ENDBLK
  5
E11
330
2E47
100
AcDbEntity
  8
0
100
AcDbBlockEnd
  0
BLOCK
  5
2E4A
330
2E49
100
AcDbEntity
  8
0
100
AcDbBlockBegin
  2
*U8
 70
     1
 10
0.0
 20
0.0
 30
0.0
  3
*U8
  1

  0
TEXT
  5
1EE1
330
2E49
100
AcDbEntity
  8
SIZE
 62
     0
100
AcDbText
 10
274.6432844803792
 20
-224.0571428571429
 30
0.0
 40
64.0
  1
300
 50
90.0
 41
0.9
100
AcDbText
  0
ENDBLK
  5
1EE3
330
2E49
100
AcDbEntity
  8
0
100
AcDbBlockEnd
  0
BLOCK
  5
2E4C
330
2E4B
100
AcDbEntity
  8
0
100
AcDbBlockBegin
  2
*D9
 70
     1
 10
0.0
 20
0.0
 30
0.0
  3
*D9
  1

  0
LINE
  5
E7D
330
2E4B
100
AcDbEntity
  8
SIZE
 62
     0
100
AcDbLine
 10
-139.9999999999998
 20
32.46448280219375
 30
0.0
 11
-139.9999999999998
 21
136.4516878685508
 31
0.0
  0
LINE
  5
E7E
330
2E4B
100
AcDbEntity
  8
SIZE
 62
     0
100
AcDbLine
 10
140.0
 20
32.46448280219375
 30
0.0
 11
140.0
 21
136.4516878685508
 31
0.0
  0
LINE
  5
E7F
330
2E4B
100
AcDbEntity
  8
SIZE
 62
     0
100
AcDbLine
 10
-128.0
 20
116.4516878685508
 30
0.0
 11
128.0
 21
116.4516878685508
 31
0.0
  0
INSERT
  5
E80
330
2E4B
100
AcDbEntity
  8
SIZE
 62
     0
100
AcDbBlockReference
  2
_DOTBLANK
 10
-139.9999999999998
 20
116.4516878685508
 30
0.0
 41
12.0
 42
12.0
 43
12.0
 50
180.0
  0
INSERT
  5
E81
330
2E4B
100
AcDbEntity
  8
SIZE
 62
     0
100
AcDbBlockReference
  2
_DOTBLANK
 10
140.0
 20
116.4516878685508
 30
0.0
 41
12.0
 42
12.0
 43
12.0
  0
INSERT
  5
E82
330
2E4B
100
AcDbEntity
  8
0
100
AcDbBlockReference
  2
*U10
 10
0.0
 20
0.0
 30
0.0
  0
POINT
  5
E83
330
2E4B
100
AcDbEntity
  8
DEFPOINTS
 62
     0
100
AcDbPoint
 10
-139.9999999999998
 20
12.46448280219374
 30
0.0
  0
POINT
  5
E84
330
2E4B
100
AcDbEntity
  8
DEFPOINTS
 62
     0
100
AcDbPoint
 10
140.0
 20
12.46448280219374
 30
0.0
  0
POINT
  5
E85
330
2E4B
100
AcDbEntity
  8
DEFPOINTS
 62
     0
100
AcDbPoint
 10
140.0
 20
116.4516878685508
 30
0.0
  0
ENDBLK
  5
E7C
330
2E4B
100
AcDbEntity
  8
0
100
AcDbBlockEnd
  0
BLOCK
  5
2E4E
330
2E4D
100
AcDbEntity
  8
0
100
AcDbBlockBegin
  2
*U10
 70
     1
 10
0.0
 20
0.0
 30
0.0
  3
*U10
  1

  0
TEXT
  5
1ED8
330
2E4D
100
AcDbEntity
  8
SIZE
 62
     0
100
AcDbText
 10
-74.05714285714281
 20
126.4516878685508
 30
0.0
 40
64.0
  1
280
 41
0.9
100
AcDbText
  0
ENDBLK
  5
1EDA
330
2E4D
100
AcDbEntity
  8
0
100
AcDbBlockEnd
  0
BLOCK
  5
2E50
330
2E4F
100
AcDbEntity
  8
0
100
AcDbBlockBegin
  2
GENAXEH
 70
     0
 10
0.0
 20
0.0
 30
0.0
  3
GENAXEH
  1

  0
LINE
  5
FDB
330
2E4F
100
AcDbEntity
  8
0
100
AcDbLine
 10
-1.0
 20
0.0
 30
0.0
 11
1.0
 21
0.0
 31
0.0
  0
ENDBLK
  5
FDD
330
2E4F
100
AcDbEntity
  8
0
100
AcDbBlockEnd
  0
BLOCK
  5
2E52
330
2E51
100
AcDbEntity
  8
0
100
AcDbBlockBegin
  2
*D12
 70
     1
 10
0.0
 20
0.0
 30
0.0
  3
*D12
  1

  0
LINE
  5
1120
330
2E51
100
AcDbEntity
  8
SIZE
 62
     0
100
AcDbLine
 10
-157.5
 20
20.0
 30
0.0
 11
-157.5
 21
245.5794621189598
 31
0.0
  0
LINE
  5
1121
330
2E51
100
AcDbEntity
  8
SIZE
 62
     0
100
AcDbLine
 10
157.5
 20
20.0
 30
0.0
 11
157.5
 21
245.5794621189598
 31
0.0
  0
LINE
  5
1122
330
2E51
100
AcDbEntity
  8
SIZE
 62
     0
100
AcDbLine
 10
-145.5
 20
225.5794621189598
 30
0.0
 11
145.5
 21
225.5794621189598
 31
0.0
  0
INSERT
  5
1123
330
2E51
100
AcDbEntity
  8
SIZE
 62
     0
100
AcDbBlockReference
  2
_DOTBLANK
 10
-157.5
 20
225.5794621189598
 30
0.0
 41
12.0
 42
12.0
 43
12.0
 50
180.0
  0
INSERT
  5
1124
330
2E51
100
AcDbEntity
  8
SIZE
 62
     0
100
AcDbBlockReference
  2
_DOTBLANK
 10
157.5
 20
225.5794621189598
 30
0.0
 41
12.0
 42
12.0
 43
12.0
  0
INSERT
  5
1125
330
2E51
100
AcDbEntity
  8
0
100
AcDbBlockReference
  2
*U13
 10
0.0
 20
0.0
 30
0.0
  0
POINT
  5
1126
330
2E51
100
AcDbEntity
  8
DEFPOINTS
 62
     0
100
AcDbPoint
 10
-157.5
 20
0.0
 30
0.0
  0
POINT
  5
1127
330
2E51
100
AcDbEntity
  8
DEFPOINTS
 62
     0
100
AcDbPoint
 10
157.5
 20
0.0
 30
0.0
  0
POINT
  5
1128
330
2E51
100
AcDbEntity
  8
DEFPOINTS
 62
     0
100
AcDbPoint
 10
157.5
 20
225.5794621189598
 30
0.0
  0
ENDBLK
  5
111F
330
2E51
100
AcDbEntity
  8
0
100
AcDbBlockEnd
  0
BLOCK
  5
2E54
330
2E53
100
AcDbEntity
  8
0
100
AcDbBlockBegin
  2
*U13
 70
     1
 10
0.0
 20
0.0
 30
0.0
  3
*U13
  1

  0
TEXT
  5
1EDD
330
2E53
100
AcDbEntity
  8
SIZE
 62
     0
100
AcDbText
 10
-68.57142857142857
 20
235.5794621189599
 30
0.0
 40
64.0
  1
315
 41
0.9
100
AcDbText
  0
ENDBLK
  5
1EDF
330
2E53
100
AcDbEntity
  8
0
100
AcDbBlockEnd
  0
BLOCK
  5
2E56
330
2E55
100
AcDbEntity
  8
0
100
AcDbBlockBegin
  2
*D14
 70
     1
 10
0.0
 20
0.0
 30
0.0
  3
*D14
  1

  0
LINE
  5
11BD
330
2E55
100
AcDbEntity
  8
NOTE
 62
     0
100
AcDbLine
 10
-123.4999999999999
 20
-320.0
 30
0.0
 11
-123.4999999999999
 21
-354.9529861856111
 31
0.0
  0
LINE
  5
11BE
330
2E55
100
AcDbEntity
  8
NOTE
 62
     0
100
AcDbLine
 10
-133.4999999999998
 20
-331.2126909923287
 30
0.0
 11
-133.4999999999998
 21
-354.9529861856111
 31
0.0
  0
LINE
  5
11BF
330
2E55
100
AcDbEntity
  8
NOTE
 62
     0
100
AcDbLine
 10
-111.4999999999999
 20
-334.9529861856112
 30
0.0
 11
-99.4999999999999
 21
-334.9529861856112
 31
0.0
  0
LINE
  5
11C0
330
2E55
100
AcDbEntity
  8
NOTE
 62
     0
100
AcDbLine
 10
-145.4999999999998
 20
-334.9529861856112
 30
0.0
 11
-157.4999999999998
 21
-334.9529861856112
 31
0.0
  0
LINE
  5
11C1
330
2E55
100
AcDbEntity
  8
NOTE
 62
     0
100
AcDbLine
 10
-123.4999999999999
 20
-334.9529861856112
 30
0.0
 11
-133.4999999999998
 21
-334.9529861856112
 31
0.0
  0
INSERT
  5
11C2
330
2E55
100
AcDbEntity
  8
NOTE
 62
     0
100
AcDbBlockReference
  2
_DOTBLANK
 10
-123.4999999999999
 20
-334.9529861856112
 30
0.0
 41
12.0
 42
12.0
 43
12.0
 50
180.0
  0
INSERT
  5
11C3
330
2E55
100
AcDbEntity
  8
NOTE
 62
     0
100
AcDbBlockReference
  2
_DOTBLANK
 10
-133.4999999999998
 20
-334.9529861856112
 30
0.0
 41
12.0
 42
12.0
 43
12.0
  0
INSERT
  5
11C4
330
2E55
100
AcDbEntity
  8
0
100
AcDbBlockReference
  2
*U15
 10
0.0
 20
0.0
 30
0.0
  0
POINT
  5
11C5
330
2E55
100
AcDbEntity
  8
DEFPOINTS
 62
     0
100
AcDbPoint
 10
-123.4999999999999
 20
-300.0
 30
0.0
  0
POINT
  5
11C6
330
2E55
100
AcDbEntity
  8
DEFPOINTS
 62
     0
100
AcDbPoint
 10
-133.4999999999998
 20
-311.2126909923287
 30
0.0
  0
POINT
  5
11C7
330
2E55
100
AcDbEntity
  8
DEFPOINTS
 62
     0
100
AcDbPoint
 10
-133.4999999999998
 20
-334.9529861856112
 30
0.0
  0
ENDBLK
  5
11BC
330
2E55
100
AcDbEntity
  8
0
100
AcDbBlockEnd
  0
BLOCK
  5
2E58
330
2E57
100
AcDbEntity
  8
0
100
AcDbBlockBegin
  2
*U15
 70
     1
 10
0.0
 20
0.0
 30
0.0
  3
*U15
  1

  0
TEXT
  5
1EE5
330
2E57
100
AcDbEntity
  8
NOTE
 62
     0
100
AcDbText
 10
-169.642857142857
 20
-324.9529861856112
 30
0.0
 40
64.0
  1
10
 41
0.9
100
AcDbText
  0
ENDBLK
  5
1EE7
330
2E57
100
AcDbEntity
  8
0
100
AcDbBlockEnd
  0
BLOCK
  5
2E5A
330
2E59
100
AcDbEntity
  8
0
100
AcDbBlockBegin
  2
*D16
 70
     1
 10
0.0
 20
0.0
 30
0.0
  3
*D16
  1

  0
LINE
  5
11E7
330
2E59
100
AcDbEntity
  8
NOTE
 62
     0
100
AcDbLine
 10
-135.5
 20
-333.2126909923287
 30
0.0
 11
-135.5
 21
-386.2569421441843
 31
0.0
  0
LINE
  5
11E8
330
2E59
100
AcDbEntity
  8
NOTE
 62
     0
100
AcDbLine
 10
-123.4999999999999
 20
-320.0
 30
0.0
 11
-123.4999999999999
 21
-386.2569421441843
 31
0.0
  0
LINE
  5
11E9
330
2E59
100
AcDbEntity
  8
NOTE
 62
     0
100
AcDbLine
 10
-147.5
 20
-366.2569421441844
 30
0.0
 11
-159.5
 21
-366.2569421441844
 31
0.0
  0
LINE
  5
11EA
330
2E59
100
AcDbEntity
  8
NOTE
 62
     0
100
AcDbLine
 10
-111.4999999999999
 20
-366.2569421441844
 30
0.0
 11
-99.4999999999999
 21
-366.2569421441844
 31
0.0
  0
LINE
  5
11EB
330
2E59
100
AcDbEntity
  8
NOTE
 62
     0
100
AcDbLine
 10
-135.5
 20
-366.2569421441844
 30
0.0
 11
-123.4999999999999
 21
-366.2569421441844
 31
0.0
  0
INSERT
  5
11EC
330
2E59
100
AcDbEntity
  8
NOTE
 62
     0
100
AcDbBlockReference
  2
_DOTBLANK
 10
-135.5
 20
-366.2569421441844
 30
0.0
 41
12.0
 42
12.0
 43
12.0
  0
INSERT
  5
11ED
330
2E59
100
AcDbEntity
  8
NOTE
 62
     0
100
AcDbBlockReference
  2
_DOTBLANK
 10
-123.4999999999999
 20
-366.2569421441844
 30
0.0
 41
12.0
 42
12.0
 43
12.0
 50
180.0
  0
INSERT
  5
11EE
330
2E59
100
AcDbEntity
  8
0
100
AcDbBlockReference
  2
*U17
 10
0.0
 20
0.0
 30
0.0
  0
POINT
  5
11EF
330
2E59
100
AcDbEntity
  8
DEFPOINTS
 62
     0
100
AcDbPoint
 10
-135.5
 20
-313.2126909923287
 30
0.0
  0
POINT
  5
11F0
330
2E59
100
AcDbEntity
  8
DEFPOINTS
 62
     0
100
AcDbPoint
 10
-123.4999999999999
 20
-300.0
 30
0.0
  0
POINT
  5
11F1
330
2E59
100
AcDbEntity
  8
DEFPOINTS
 62
     0
100
AcDbPoint
 10
-123.4999999999999
 20
-366.2569421441844
 30
0.0
  0
ENDBLK
  5
11E6
330
2E59
100
AcDbEntity
  8
0
100
AcDbBlockEnd
  0
BLOCK
  5
2E5C
330
2E5B
100
AcDbEntity
  8
0
100
AcDbBlockBegin
  2
*U17
 70
     1
 10
0.0
 20
0.0
 30
0.0
  3
*U17
  1

  0
TEXT
  5
1EE9
330
2E5B
100
AcDbEntity
  8
NOTE
 62
     0
100
AcDbText
 10
-170.642857142857
 20
-356.2569421441843
 30
0.0
 40
64.0
  1
12
 41
0.9
100
AcDbText
  0
ENDBLK
  5
1EEB
330
2E5B
100
AcDbEntity
  8
0
100
AcDbBlockEnd
  0
BLOCK
  5
2E5E
330
2E5D
100
AcDbEntity
  8
0
100
AcDbBlockBegin
  2
*D18
 70
     1
 10
0.0
 20
0.0
 30
0.0
  3
*D18
  1

  0
LINE
  5
11F6
330
2E5D
100
AcDbEntity
  8
NOTE
 62
     0
100
AcDbLine
 10
-123.4999999999999
 20
-320.0
 30
0.0
 11
-123.4999999999999
 21
-583.8286022818904
 31
0.0
  0
LINE
  5
11F7
330
2E5D
100
AcDbEntity
  8
NOTE
 62
     0
100
AcDbLine
 10
123.5
 20
-320.0
 30
0.0
 11
123.5
 21
-583.8286022818904
 31
0.0
  0
LINE
  5
11F8
330
2E5D
100
AcDbEntity
  8
NOTE
 62
     0
100
AcDbLine
 10
-111.4999999999999
 20
-563.8286022818904
 30
0.0
 11
111.5
 21
-563.8286022818904
 31
0.0
  0
INSERT
  5
11F9
330
2E5D
100
AcDbEntity
  8
NOTE
 62
     0
100
AcDbBlockReference
  2
_DOTBLANK
 10
-123.4999999999999
 20
-563.8286022818904
 30
0.0
 41
12.0
 42
12.0
 43
12.0
 50
180.0
  0
INSERT
  5
11FA
330
2E5D
100
AcDbEntity
  8
NOTE
 62
     0
100
AcDbBlockReference
  2
_DOTBLANK
 10
123.5
 20
-563.8286022818904
 30
0.0
 41
12.0
 42
12.0
 43
12.0
  0
INSERT
  5
11FB
330
2E5D
100
AcDbEntity
  8
0
100
AcDbBlockReference
  2
*U19
 10
0.0
 20
0.0
 30
0.0
  0
POINT
  5
11FC
330
2E5D
100
AcDbEntity
  8
DEFPOINTS
 62
     0
100
AcDbPoint
 10
-123.4999999999999
 20
-300.0
 30
0.0
  0
POINT
  5
11FD
330
2E5D
100
AcDbEntity
  8
DEFPOINTS
 62
     0
100
AcDbPoint
 10
123.5
 20
-300.0
 30
0.0
  0
POINT
  5
11FE
330
2E5D
100
AcDbEntity
  8
DEFPOINTS
 62
     0
100
AcDbPoint
 10
123.5
 20
-563.8286022818904
 30
0.0
  0
ENDBLK
  5
11F5
330
2E5D
100
AcDbEntity
  8
0
100
AcDbBlockEnd
  0
BLOCK
  5
2E60
330
2E5F
100
AcDbEntity
  8
0
100
AcDbBlockBegin
  2
*U19
 70
     1
 10
0.0
 20
0.0
 30
0.0
  3
*U19
  1

  0
TEXT
  5
1EED
330
2E5F
100
AcDbEntity
  8
NOTE
 62
     0
100
AcDbText
 10
-74.05714285714281
 20
-553.8286022818904
 30
0.0
 40
64.0
  1
247
 41
0.9
100
AcDbText
  0
ENDBLK
  5
1EEF
330
2E5F
100
AcDbEntity
  8
0
100
AcDbBlockEnd
  0
BLOCK
  5
2E62
330
2E61
100
AcDbEntity
  8
0
100
AcDbBlockBegin
  2
*D20
 70
     1
 10
0.0
 20
0.0
 30
0.0
  3
*D20
  1

  0
LINE
  5
1284
330
2E61
100
AcDbEntity
  8
NOTE
 62
     0
100
AcDbLine
 10
-123.5
 20
12.0
 30
0.0
 11
-123.5
 21
71.83630134534229
 31
0.0
  0
LINE
  5
1285
330
2E61
100
AcDbEntity
  8
NOTE
 62
     0
100
AcDbLine
 10
123.5
 20
12.0
 30
0.0
 11
123.5
 21
71.83630134534229
 31
0.0
  0
LINE
  5
1286
330
2E61
100
AcDbEntity
  8
NOTE
 62
     0
100
AcDbLine
 10
-111.5
 20
51.83630134534229
 30
0.0
 11
111.5
 21
51.83630134534229
 31
0.0
  0
INSERT
  5
1287
330
2E61
100
AcDbEntity
  8
NOTE
 62
     0
100
AcDbBlockReference
  2
_DOTBLANK
 10
-123.5
 20
51.83630134534229
 30
0.0
 41
12.0
 42
12.0
 43
12.0
 50
180.0
  0
INSERT
  5
1288
330
2E61
100
AcDbEntity
  8
NOTE
 62
     0
100
AcDbBlockReference
  2
_DOTBLANK
 10
123.5
 20
51.83630134534229
 30
0.0
 41
12.0
 42
12.0
 43
12.0
  0
INSERT
  5
1289
330
2E61
100
AcDbEntity
  8
0
100
AcDbBlockReference
  2
*U21
 10
0.0
 20
0.0
 30
0.0
  0
POINT
  5
128A
330
2E61
100
AcDbEntity
  8
DEFPOINTS
 62
     0
100
AcDbPoint
 10
-123.5
 20
-8.0
 30
0.0
  0
POINT
  5
128B
330
2E61
100
AcDbEntity
  8
DEFPOINTS
 62
     0
100
AcDbPoint
 10
123.5
 20
-8.0
 30
0.0
  0
POINT
  5
128C
330
2E61
100
AcDbEntity
  8
DEFPOINTS
 62
     0
100
AcDbPoint
 10
123.5
 20
51.83630134534229
 30
0.0
  0
ENDBLK
  5
1283
330
2E61
100
AcDbEntity
  8
0
100
AcDbBlockEnd
  0
BLOCK
  5
2E64
330
2E63
100
AcDbEntity
  8
0
100
AcDbBlockBegin
  2
*U21
 70
     1
 10
0.0
 20
0.0
 30
0.0
  3
*U21
  1

  0
TEXT
  5
1EF1
330
2E63
100
AcDbEntity
  8
NOTE
 62
     0
100
AcDbText
 10
-74.05714285714283
 20
61.83630134534229
 30
0.0
 40
64.0
  1
247
 41
0.9
100
AcDbText
  0
ENDBLK
  5
1EF3
330
2E63
100
AcDbEntity
  8
0
100
AcDbBlockEnd
  0
BLOCK
  5
2E66
330
2E65
100
AcDbEntity
  8
0
100
AcDbBlockBegin
  2
*D22
 70
     1
 10
0.0
 20
0.0
 30
0.0
  3
*D22
  1

  0
LINE
  5
1414
330
2E65
100
AcDbEntity
  8
SIZE
 62
     0
100
AcDbLine
 10
-22313.11521613997
 20
7365.702971374808
 30
0.0
 11
-22313.11521613997
 21
7217.685576144207
 31
0.0
  0
LINE
  5
1415
330
2E65
100
AcDbEntity
  8
SIZE
 62
     0
100
AcDbLine
 10
-22044.11521613997
 20
7365.702971374808
 30
0.0
 11
-22044.11521613997
 21
7217.685576144207
 31
0.0
  0
LINE
  5
1416
330
2E65
100
AcDbEntity
  8
SIZE
 62
     0
100
AcDbLine
 10
-22301.11521613997
 20
7237.685576144207
 30
0.0
 11
-22056.11521613997
 21
7237.685576144207
 31
0.0
  0
INSERT
  5
1417
330
2E65
100
AcDbEntity
  8
SIZE
 62
     0
100
AcDbBlockReference
  2
_DOTBLANK
 10
-22313.11521613997
 20
7237.685576144207
 30
0.0
 41
12.0
 42
12.0
 43
12.0
 50
180.0
  0
INSERT
  5
1418
330
2E65
100
AcDbEntity
  8
SIZE
 62
     0
100
AcDbBlockReference
  2
_DOTBLANK
 10
-22044.11521613997
 20
7237.685576144207
 30
0.0
 41
12.0
 42
12.0
 43
12.0
  0
INSERT
  5
1419
330
2E65
100
AcDbEntity
  8
0
100
AcDbBlockReference
  2
*U23
 10
0.0
 20
0.0
 30
0.0
  0
POINT
  5
141A
330
2E65
100
AcDbEntity
  8
DEFPOINTS
 62
     0
100
AcDbPoint
 10
-22313.11521613997
 20
7385.702971374808
 30
0.0
  0
POINT
  5
141B
330
2E65
100
AcDbEntity
  8
DEFPOINTS
 62
     0
100
AcDbPoint
 10
-22044.11521613997
 20
7385.702971374808
 30
0.0
  0
POINT
  5
141C
330
2E65
100
AcDbEntity
  8
DEFPOINTS
 62
     0
100
AcDbPoint
 10
-22044.11521613997
 20
7237.685576144207
 30
0.0
  0
ENDBLK
  5
141D
330
2E65
100
AcDbEntity
  8
0
100
AcDbBlockEnd
  0
BLOCK
  5
2E68
330
2E67
100
AcDbEntity
  8
0
100
AcDbBlockBegin
  2
*U23
 70
     1
 10
0.0
 20
0.0
 30
0.0
  3
*U23
  1

  0
TEXT
  5
1EF9
330
2E67
100
AcDbEntity
  8
SIZE
 62
     0
100
AcDbText
 10
-22251.30093042568
 20
7247.685576144205
 30
0.0
 40
64.0
  1
269
 41
0.9
100
AcDbText
  0
ENDBLK
  5
1EFB
330
2E67
100
AcDbEntity
  8
0
100
AcDbBlockEnd
  0
BLOCK
  5
2E6A
330
2E69
100
AcDbEntity
  8
0
100
AcDbBlockBegin
  2
*D24
 70
     1
 10
0.0
 20
0.0
 30
0.0
  3
*D24
  1

  0
LINE
  5
1420
330
2E69
100
AcDbEntity
  8
SIZE
  6
Continuous
 62
     0
100
AcDbLine
 10
-22035.11521613997
 20
7385.702971374808
 30
0.0
 11
-21873.97193165959
 21
7385.702971374808
 31
0.0
  0
LINE
  5
1421
330
2E69
100
AcDbEntity
  8
SIZE
  6
Continuous
 62
     0
100
AcDbLine
 10
-22001.11521613997
 20
7685.702971374808
 30
0.0
 11
-21873.97193165959
 21
7685.702971374808
 31
0.0
  0
LINE
  5
1422
330
2E69
100
AcDbEntity
  8
SIZE
  6
Continuous
 62
     0
100
AcDbLine
 10
-21893.97193165959
 20
7397.702971374808
 30
0.0
 11
-21893.97193165959
 21
7673.702971374808
 31
0.0
  0
INSERT
  5
1423
330
2E69
100
AcDbEntity
  8
SIZE
  6
Continuous
 62
     0
100
AcDbBlockReference
  2
_DOTBLANK
 10
-21893.97193165959
 20
7385.702971374808
 30
0.0
 41
12.0
 42
12.0
 43
12.0
 50
270.0
  0
INSERT
  5
1424
330
2E69
100
AcDbEntity
  8
SIZE
  6
Continuous
 62
     0
100
AcDbBlockReference
  2
_DOTBLANK
 10
-21893.97193165959
 20
7685.702971374808
 30
0.0
 41
12.0
 42
12.0
 43
12.0
 50
90.0
  0
INSERT
  5
1425
330
2E69
100
AcDbEntity
  8
0
100
AcDbBlockReference
  2
*U25
 10
0.0
 20
0.0
 30
0.0
  0
POINT
  5
1426
330
2E69
100
AcDbEntity
  8
DEFPOINTS
  6
Continuous
 62
     0
100
AcDbPoint
 10
-22055.11521613997
 20
7385.702971374808
 30
0.0
  0
POINT
  5
1427
330
2E69
100
AcDbEntity
  8
DEFPOINTS
  6
Continuous
 62
     0
100
AcDbPoint
 10
-22021.11521613997
 20
7685.702971374808
 30
0.0
  0
POINT
  5
1428
330
2E69
100
AcDbEntity
  8
DEFPOINTS
  6
Continuous
 62
     0
100
AcDbPoint
 10
-21893.97193165959
 20
7685.702971374808
 30
0.0
  0
ENDBLK
  5
1429
330
2E69
100
AcDbEntity
  8
0
100
AcDbBlockEnd
  0
BLOCK
  5
2E6C
330
2E6B
100
AcDbEntity
  8
0
100
AcDbBlockBegin
  2
*U25
 70
     1
 10
0.0
 20
0.0
 30
0.0
  3
*U25
  1

  0
TEXT
  5
1EFD
330
2E6B
100
AcDbEntity
  8
SIZE
 62
     0
100
AcDbText
 10
-21903.97193165959
 20
7461.645828517662
 30
0.0
 40
64.0
  1
300
 50
90.0
 41
0.9
100
AcDbText
  0
ENDBLK
  5
1EFF
330
2E6B
100
AcDbEntity
  8
0
100
AcDbBlockEnd
  0
BLOCK
  5
2E6E
330
2E6D
100
AcDbEntity
  8
0
100
AcDbBlockBegin
  2
*D26
 70
     1
 10
0.0
 20
0.0
 30
0.0
  3
*D26
  1

  0
LINE
  5
142C
330
2E6D
100
AcDbEntity
  8
SIZE
 62
     0
100
AcDbLine
 10
-22318.61521613997
 20
7718.167454177002
 30
0.0
 11
-22318.61521613997
 21
7822.154659243358
 31
0.0
  0
LINE
  5
142D
330
2E6D
100
AcDbEntity
  8
SIZE
 62
     0
100
AcDbLine
 10
-22038.61521613997
 20
7718.167454177002
 30
0.0
 11
-22038.61521613997
 21
7822.154659243358
 31
0.0
  0
LINE
  5
142E
330
2E6D
100
AcDbEntity
  8
SIZE
 62
     0
100
AcDbLine
 10
-22306.61521613997
 20
7802.154659243358
 30
0.0
 11
-22050.61521613997
 21
7802.154659243358
 31
0.0
  0
INSERT
  5
142F
330
2E6D
100
AcDbEntity
  8
SIZE
 62
     0
100
AcDbBlockReference
  2
_DOTBLANK
 10
-22318.61521613997
 20
7802.154659243358
 30
0.0
 41
12.0
 42
12.0
 43
12.0
 50
180.0
  0
INSERT
  5
1430
330
2E6D
100
AcDbEntity
  8
SIZE
 62
     0
100
AcDbBlockReference
  2
_DOTBLANK
 10
-22038.61521613997
 20
7802.154659243358
 30
0.0
 41
12.0
 42
12.0
 43
12.0
  0
INSERT
  5
1431
330
2E6D
100
AcDbEntity
  8
0
100
AcDbBlockReference
  2
*U27
 10
0.0
 20
0.0
 30
0.0
  0
POINT
  5
1432
330
2E6D
100
AcDbEntity
  8
DEFPOINTS
 62
     0
100
AcDbPoint
 10
-22318.61521613997
 20
7698.167454177002
 30
0.0
  0
POINT
  5
1433
330
2E6D
100
AcDbEntity
  8
DEFPOINTS
 62
     0
100
AcDbPoint
 10
-22038.61521613997
 20
7698.167454177002
 30
0.0
  0
POINT
  5
1434
330
2E6D
100
AcDbEntity
  8
DEFPOINTS
 62
     0
100
AcDbPoint
 10
-22038.61521613997
 20
7802.154659243358
 30
0.0
  0
ENDBLK
  5
1435
330
2E6D
100
AcDbEntity
  8
0
100
AcDbBlockEnd
  0
BLOCK
  5
2E70
330
2E6F
100
AcDbEntity
  8
0
100
AcDbBlockBegin
  2
*U27
 70
     1
 10
0.0
 20
0.0
 30
0.0
  3
*U27
  1

  0
TEXT
  5
1F01
330
2E6F
100
AcDbEntity
  8
SIZE
 62
     0
100
AcDbText
 10
-22252.6723589971
 20
7812.154659243358
 30
0.0
 40
64.0
  1
280
 41
0.9
100
AcDbText
  0
ENDBLK
  5
1F03
330
2E6F
100
AcDbEntity
  8
0
100
AcDbBlockEnd
  0
BLOCK
  5
2E72
330
2E71
100
AcDbEntity
  8
0
100
AcDbBlockBegin
  2
*D28
 70
     1
 10
0.0
 20
0.0
 30
0.0
  3
*D28
  1

  0
LINE
  5
1438
330
2E71
100
AcDbEntity
  8
SIZE
 62
     0
100
AcDbLine
 10
-22336.11521613997
 20
7705.702971374808
 30
0.0
 11
-22336.11521613997
 21
7931.282433493766
 31
0.0
  0
LINE
  5
1439
330
2E71
100
AcDbEntity
  8
SIZE
 62
     0
100
AcDbLine
 10
-22021.11521613997
 20
7705.702971374808
 30
0.0
 11
-22021.11521613997
 21
7931.282433493766
 31
0.0
  0
LINE
  5
143A
330
2E71
100
AcDbEntity
  8
SIZE
 62
     0
100
AcDbLine
 10
-22324.11521613997
 20
7911.282433493766
 30
0.0
 11
-22033.11521613997
 21
7911.282433493766
 31
0.0
  0
INSERT
  5
143B
330
2E71
100
AcDbEntity
  8
SIZE
 62
     0
100
AcDbBlockReference
  2
_DOTBLANK
 10
-22336.11521613997
 20
7911.282433493766
 30
0.0
 41
12.0
 42
12.0
 43
12.0
 50
180.0
  0
INSERT
  5
143C
330
2E71
100
AcDbEntity
  8
SIZE
 62
     0
100
AcDbBlockReference
  2
_DOTBLANK
 10
-22021.11521613997
 20
7911.282433493766
 30
0.0
 41
12.0
 42
12.0
 43
12.0
  0
INSERT
  5
143D
330
2E71
100
AcDbEntity
  8
0
100
AcDbBlockReference
  2
*U29
 10
0.0
 20
0.0
 30
0.0
  0
POINT
  5
143E
330
2E71
100
AcDbEntity
  8
DEFPOINTS
 62
     0
100
AcDbPoint
 10
-22336.11521613997
 20
7685.702971374808
 30
0.0
  0
POINT
  5
143F
330
2E71
100
AcDbEntity
  8
DEFPOINTS
 62
     0
100
AcDbPoint
 10
-22021.11521613997
 20
7685.702971374808
 30
0.0
  0
POINT
  5
1440
330
2E71
100
AcDbEntity
  8
DEFPOINTS
 62
     0
100
AcDbPoint
 10
-22021.11521613997
 20
7911.282433493766
 30
0.0
  0
ENDBLK
  5
1441
330
2E71
100
AcDbEntity
  8
0
100
AcDbBlockEnd
  0
BLOCK
  5
2E74
330
2E73
100
AcDbEntity
  8
0
100
AcDbBlockBegin
  2
*U29
 70
     1
 10
0.0
 20
0.0
 30
0.0
  3
*U29
  1

  0
TEXT
  5
1F05
330
2E73
100
AcDbEntity
  8
SIZE
 62
     0
100
AcDbText
 10
-22247.18664471139
 20
7921.282433493766
 30
0.0
 40
64.0
  1
315
 41
0.9
100
AcDbText
  0
ENDBLK
  5
1F07
330
2E73
100
AcDbEntity
  8
0
100
AcDbBlockEnd
  0
BLOCK
  5
2E76
330
2E75
100
AcDbEntity
  8
0
100
AcDbBlockBegin
  2
*D30
 70
     1
 10
0.0
 20
0.0
 30
0.0
  3
*D30
  1

  0
LINE
  5
166B
330
2E75
100
AcDbEntity
  8
SIZE
 62
     0
100
AcDbLine
 10
-134.5
 20
-320.0
 30
0.0
 11
-134.5
 21
-468.0173952306001
 31
0.0
  0
LINE
  5
166C
330
2E75
100
AcDbEntity
  8
SIZE
 62
     0
100
AcDbLine
 10
134.5
 20
-320.0
 30
0.0
 11
134.5
 21
-468.0173952306001
 31
0.0
  0
LINE
  5
166D
330
2E75
100
AcDbEntity
  8
SIZE
 62
     0
100
AcDbLine
 10
-122.5
 20
-448.0173952306
 30
0.0
 11
122.5
 21
-448.0173952306
 31
0.0
  0
INSERT
  5
166E
330
2E75
100
AcDbEntity
  8
SIZE
 62
     0
100
AcDbBlockReference
  2
_DOTBLANK
 10
-134.5
 20
-448.0173952306
 30
0.0
 41
12.0
 42
12.0
 43
12.0
 50
180.0
  0
INSERT
  5
166F
330
2E75
100
AcDbEntity
  8
SIZE
 62
     0
100
AcDbBlockReference
  2
_DOTBLANK
 10
134.5
 20
-448.0173952306
 30
0.0
 41
12.0
 42
12.0
 43
12.0
  0
INSERT
  5
1670
330
2E75
100
AcDbEntity
  8
0
100
AcDbBlockReference
  2
*U31
 10
0.0
 20
0.0
 30
0.0
  0
POINT
  5
1671
330
2E75
100
AcDbEntity
  8
DEFPOINTS
 62
     0
100
AcDbPoint
 10
-134.5
 20
-300.0
 30
0.0
  0
POINT
  5
1672
330
2E75
100
AcDbEntity
  8
DEFPOINTS
 62
     0
100
AcDbPoint
 10
134.5
 20
-300.0
 30
0.0
  0
POINT
  5
1673
330
2E75
100
AcDbEntity
  8
DEFPOINTS
 62
     0
100
AcDbPoint
 10
134.5
 20
-448.0173952306
 30
0.0
  0
ENDBLK
  5
14A7
330
2E75
100
AcDbEntity
  8
0
100
AcDbBlockEnd
  0
BLOCK
  5
2E78
330
2E77
100
AcDbEntity
  8
0
100
AcDbBlockBegin
  2
*U31
 70
     1
 10
0.0
 20
0.0
 30
0.0
  3
*U31
  1

  0
TEXT
  5
1F09
330
2E77
100
AcDbEntity
  8
SIZE
 62
     0
100
AcDbText
 10
-72.68571428571426
 20
-438.0173952306002
 30
0.0
 40
64.0
  1
269
 41
0.9
100
AcDbText
  0
ENDBLK
  5
1F0B
330
2E77
100
AcDbEntity
  8
0
100
AcDbBlockEnd
  0
BLOCK
  5
2E7A
330
2E79
100
AcDbEntity
  8
0
100
AcDbBlockBegin
  2
*D32
 70
     1
 10
0.0
 20
0.0
 30
0.0
  3
*D32
  1

  0
LINE
  5
1674
330
2E79
100
AcDbEntity
  8
SIZE
  6
Continuous
 62
     0
100
AcDbLine
 10
143.5
 20
-300.0
 30
0.0
 11
304.6432844803784
 21
-300.0
 31
0.0
  0
LINE
  5
1675
330
2E79
100
AcDbEntity
  8
SIZE
  6
Continuous
 62
     0
100
AcDbLine
 10
177.5
 20
-0.0000000000000057
 30
0.0
 11
304.6432844803785
 21
-0.0000000000000417
 31
0.0
  0
LINE
  5
1676
330
2E79
100
AcDbEntity
  8
SIZE
  6
Continuous
 62
     0
100
AcDbLine
 10
284.6432844803784
 20
-288.0000000000001
 30
0.0
 11
284.6432844803785
 21
-12.00000000000003
 31
0.0
  0
INSERT
  5
1677
330
2E79
100
AcDbEntity
  8
SIZE
  6
Continuous
 62
     0
100
AcDbBlockReference
  2
_DOTBLANK
 10
284.6432844803784
 20
-300.0
 30
0.0
 41
12.0
 42
12.0
 43
12.0
 50
270.0
  0
INSERT
  5
1678
330
2E79
100
AcDbEntity
  8
SIZE
  6
Continuous
 62
     0
100
AcDbBlockReference
  2
_DOTBLANK
 10
284.6432844803785
 20
-0.000000000000036
 30
0.0
 41
12.0
 42
12.0
 43
12.0
 50
90.0
  0
INSERT
  5
1679
330
2E79
100
AcDbEntity
  8
0
100
AcDbBlockReference
  2
*U33
 10
0.0
 20
0.0
 30
0.0
  0
POINT
  5
167A
330
2E79
100
AcDbEntity
  8
DEFPOINTS
  6
Continuous
 62
     0
100
AcDbPoint
 10
123.5
 20
-300.0
 30
0.0
  0
POINT
  5
167B
330
2E79
100
AcDbEntity
  8
DEFPOINTS
  6
Continuous
 62
     0
100
AcDbPoint
 10
157.5
 20
0.0
 30
0.0
  0
POINT
  5
167C
330
2E79
100
AcDbEntity
  8
DEFPOINTS
  6
Continuous
 62
     0
100
AcDbPoint
 10
284.6432844803785
 20
-0.000000000000036
 30
0.0
  0
ENDBLK
  5
14B3
330
2E79
100
AcDbEntity
  8
0
100
AcDbBlockEnd
  0
BLOCK
  5
2E7C
330
2E7B
100
AcDbEntity
  8
0
100
AcDbBlockBegin
  2
*U33
 70
     1
 10
0.0
 20
0.0
 30
0.0
  3
*U33
  1

  0
TEXT
  5
1F0D
330
2E7B
100
AcDbEntity
  8
SIZE
 62
     0
100
AcDbText
 10
274.6432844803785
 20
-224.0571428571429
 30
0.0
 40
64.0
  1
300
 50
90.0
 41
0.9
100
AcDbText
  0
ENDBLK
  5
1F0F
330
2E7B
100
AcDbEntity
  8
0
100
AcDbBlockEnd
  0
BLOCK
  5
2E7E
330
2E7D
100
AcDbEntity
  8
0
100
AcDbBlockBegin
  2
*D34
 70
     1
 10
0.0
 20
0.0
 30
0.0
  3
*D34
  1

  0
LINE
  5
167D
330
2E7D
100
AcDbEntity
  8
SIZE
 62
     0
100
AcDbLine
 10
-140.0
 20
32.46448280219375
 30
0.0
 11
-140.0
 21
136.4516878685507
 31
0.0
  0
LINE
  5
167E
330
2E7D
100
AcDbEntity
  8
SIZE
 62
     0
100
AcDbLine
 10
140.0
 20
32.46448280219375
 30
0.0
 11
140.0
 21
136.4516878685507
 31
0.0
  0
LINE
  5
167F
330
2E7D
100
AcDbEntity
  8
SIZE
 62
     0
100
AcDbLine
 10
-128.0
 20
116.4516878685508
 30
0.0
 11
128.0
 21
116.4516878685508
 31
0.0
  0
INSERT
  5
1680
330
2E7D
100
AcDbEntity
  8
SIZE
 62
     0
100
AcDbBlockReference
  2
_DOTBLANK
 10
-140.0
 20
116.4516878685508
 30
0.0
 41
12.0
 42
12.0
 43
12.0
 50
180.0
  0
INSERT
  5
1681
330
2E7D
100
AcDbEntity
  8
SIZE
 62
     0
100
AcDbBlockReference
  2
_DOTBLANK
 10
140.0
 20
116.4516878685508
 30
0.0
 41
12.0
 42
12.0
 43
12.0
  0
INSERT
  5
1682
330
2E7D
100
AcDbEntity
  8
0
100
AcDbBlockReference
  2
*U35
 10
0.0
 20
0.0
 30
0.0
  0
POINT
  5
1683
330
2E7D
100
AcDbEntity
  8
DEFPOINTS
 62
     0
100
AcDbPoint
 10
-140.0
 20
12.46448280219374
 30
0.0
  0
POINT
  5
1684
330
2E7D
100
AcDbEntity
  8
DEFPOINTS
 62
     0
100
AcDbPoint
 10
140.0
 20
12.46448280219374
 30
0.0
  0
POINT
  5
1685
330
2E7D
100
AcDbEntity
  8
DEFPOINTS
 62
     0
100
AcDbPoint
 10
140.0
 20
116.4516878685508
 30
0.0
  0
ENDBLK
  5
14BF
330
2E7D
100
AcDbEntity
  8
0
100
AcDbBlockEnd
  0
BLOCK
  5
2E80
330
2E7F
100
AcDbEntity
  8
0
100
AcDbBlockBegin
  2
*U35
 70
     1
 10
0.0
 20
0.0
 30
0.0
  3
*U35
  1

  0
TEXT
  5
1F11
330
2E7F
100
AcDbEntity
  8
SIZE
 62
     0
100
AcDbText
 10
-74.05714285714283
 20
126.4516878685507
 30
0.0
 40
64.0
  1
280
 41
0.9
100
AcDbText
  0
ENDBLK
  5
1F13
330
2E7F
100
AcDbEntity
  8
0
100
AcDbBlockEnd
  0
BLOCK
  5
2E82
330
2E81
100
AcDbEntity
  8
0
100
AcDbBlockBegin
  2
*D36
 70
     1
 10
0.0
 20
0.0
 30
0.0
  3
*D36
  1

  0
LINE
  5
1686
330
2E81
100
AcDbEntity
  8
SIZE
 62
     0
100
AcDbLine
 10
-157.5
 20
20.0
 30
0.0
 11
-157.5
 21
245.5794621189598
 31
0.0
  0
LINE
  5
1687
330
2E81
100
AcDbEntity
  8
SIZE
 62
     0
100
AcDbLine
 10
157.5
 20
20.0
 30
0.0
 11
157.5
 21
245.5794621189598
 31
0.0
  0
LINE
  5
1688
330
2E81
100
AcDbEntity
  8
SIZE
 62
     0
100
AcDbLine
 10
-145.5
 20
225.5794621189598
 30
0.0
 11
145.5
 21
225.5794621189598
 31
0.0
  0
INSERT
  5
1689
330
2E81
100
AcDbEntity
  8
SIZE
 62
     0
100
AcDbBlockReference
  2
_DOTBLANK
 10
-157.5
 20
225.5794621189598
 30
0.0
 41
12.0
 42
12.0
 43
12.0
 50
180.0
  0
INSERT
  5
168A
330
2E81
100
AcDbEntity
  8
SIZE
 62
     0
100
AcDbBlockReference
  2
_DOTBLANK
 10
157.5
 20
225.5794621189598
 30
0.0
 41
12.0
 42
12.0
 43
12.0
  0
INSERT
  5
168B
330
2E81
100
AcDbEntity
  8
0
100
AcDbBlockReference
  2
*U37
 10
0.0
 20
0.0
 30
0.0
  0
POINT
  5
168C
330
2E81
100
AcDbEntity
  8
DEFPOINTS
 62
     0
100
AcDbPoint
 10
-157.5
 20
0.0
 30
0.0
  0
POINT
  5
168D
330
2E81
100
AcDbEntity
  8
DEFPOINTS
 62
     0
100
AcDbPoint
 10
157.5
 20
0.0
 30
0.0
  0
POINT
  5
168E
330
2E81
100
AcDbEntity
  8
DEFPOINTS
 62
     0
100
AcDbPoint
 10
157.5
 20
225.5794621189598
 30
0.0
  0
ENDBLK
  5
14CB
330
2E81
100
AcDbEntity
  8
0
100
AcDbBlockEnd
  0
BLOCK
  5
2E84
330
2E83
100
AcDbEntity
  8
0
100
AcDbBlockBegin
  2
*U37
 70
     1
 10
0.0
 20
0.0
 30
0.0
  3
*U37
  1

  0
TEXT
  5
1F15
330
2E83
100
AcDbEntity
  8
SIZE
 62
     0
100
AcDbText
 10
-68.57142857142857
 20
235.5794621189598
 30
0.0
 40
64.0
  1
315
 41
0.9
100
AcDbText
  0
ENDBLK
  5
1F17
330
2E83
100
AcDbEntity
  8
0
100
AcDbBlockEnd
  0
BLOCK
  5
2E86
330
2E85
100
AcDbEntity
  8
0
100
AcDbBlockBegin
  2
*U38
 70
     1
 10
0.0
 20
0.0
 30
0.0
  3
*U38
  1

  0
ENDBLK
  5
15CF
330
2E85
100
AcDbEntity
  8
0
100
AcDbBlockEnd
  0
BLOCK
  5
2E88
330
2E87
100
AcDbEntity
  8
0
100
AcDbBlockBegin
  2
*D39
 70
     1
 10
0.0
 20
0.0
 30
0.0
  3
*D39
  1

  0
LINE
  5
1692
330
2E87
100
AcDbEntity
  8
SIZE
 62
     0
100
AcDbLine
 10
-25844.51823276502
 20
7685.702971374808
 30
0.0
 11
-25981.04465488371
 21
7685.702971374808
 31
0.0
  0
LINE
  5
1693
330
2E87
100
AcDbEntity
  8
SIZE
 62
     0
100
AcDbLine
 10
-25844.51823276502
 20
7677.702971374808
 30
0.0
 11
-25981.04465488371
 21
7677.702971374808
 31
0.0
  0
LINE
  5
1694
330
2E87
100
AcDbEntity
  8
SIZE
 62
     0
100
AcDbLine
 10
-25961.04465488371
 20
7697.702971374808
 30
0.0
 11
-25961.04465488371
 21
7709.702971374809
 31
0.0
  0
LINE
  5
1695
330
2E87
100
AcDbEntity
  8
SIZE
 62
     0
100
AcDbLine
 10
-25961.04465488371
 20
7665.70297137481
 30
0.0
 11
-25961.04465488371
 21
7595.302971374808
 31
0.0
  0
INSERT
  5
1696
330
2E87
100
AcDbEntity
  8
SIZE
 62
     0
100
AcDbBlockReference
  2
_DOTBLANK
 10
-25961.04465488371
 20
7685.702971374808
 30
0.0
 41
12.0
 42
12.0
 43
12.0
 50
270.0
  0
INSERT
  5
1697
330
2E87
100
AcDbEntity
  8
SIZE
 62
     0
100
AcDbBlockReference
  2
_DOTBLANK
 10
-25961.04465488371
 20
7677.702971374808
 30
0.0
 41
12.0
 42
12.0
 43
12.0
 50
90.0
  0
INSERT
  5
1698
330
2E87
100
AcDbEntity
  8
0
100
AcDbBlockReference
  2
*U40
 10
0.0
 20
0.0
 30
0.0
  0
POINT
  5
1699
330
2E87
100
AcDbEntity
  8
DEFPOINTS
 62
     0
100
AcDbPoint
 10
-25824.51823276501
 20
7685.702971374808
 30
0.0
  0
POINT
  5
169A
330
2E87
100
AcDbEntity
  8
DEFPOINTS
 62
     0
100
AcDbPoint
 10
-25824.51823276501
 20
7677.702971374808
 30
0.0
  0
POINT
  5
169B
330
2E87
100
AcDbEntity
  8
DEFPOINTS
 62
     0
100
AcDbPoint
 10
-25961.04465488371
 20
7677.702971374808
 30
0.0
  0
ENDBLK
  5
169C
330
2E87
100
AcDbEntity
  8
0
100
AcDbBlockEnd
  0
BLOCK
  5
2E8A
330
2E89
100
AcDbEntity
  8
0
100
AcDbBlockBegin
  2
*U40
 70
     1
 10
0.0
 20
0.0
 30
0.0
  3
*U40
  1

  0
TEXT
  5
1F19
330
2E89
100
AcDbEntity
  8
SIZE
 62
     0
100
AcDbText
 10
-25971.04465488371
 20
7605.302971374804
 30
0.0
 40
64.0
  1
8
 50
90.0
 41
0.9
100
AcDbText
  0
ENDBLK
  5
1F1B
330
2E89
100
AcDbEntity
  8
0
100
AcDbBlockEnd
  0
BLOCK
  5
2E8C
330
2E8B
100
AcDbEntity
  8
0
100
AcDbBlockBegin
  2
*D41
 70
     1
 10
0.0
 20
0.0
 30
0.0
  3
*D41
  1

  0
LINE
  5
169F
330
2E8B
100
AcDbEntity
  8
SIZE
 62
     0
100
AcDbLine
 10
-25512.51823276502
 20
7385.702971374808
 30
0.0
 11
-25362.37494828464
 21
7385.702971374808
 31
0.0
  0
LINE
  5
16A0
330
2E8B
100
AcDbEntity
  8
SIZE
 62
     0
100
AcDbLine
 10
-25523.51823276501
 20
7373.702971374808
 30
0.0
 11
-25362.37494828464
 21
7373.702971374808
 31
0.0
  0
LINE
  5
16A1
330
2E8B
100
AcDbEntity
  8
SIZE
 62
     0
100
AcDbLine
 10
-25382.37494828464
 20
7397.702971374808
 30
0.0
 11
-25382.37494828464
 21
7409.70297137481
 31
0.0
  0
LINE
  5
16A2
330
2E8B
100
AcDbEntity
  8
SIZE
 62
     0
100
AcDbLine
 10
-25382.37494828464
 20
7361.702971374808
 30
0.0
 11
-25382.37494828464
 21
7244.674399946237
 31
0.0
  0
INSERT
  5
16A3
330
2E8B
100
AcDbEntity
  8
SIZE
 62
     0
100
AcDbBlockReference
  2
_DOTBLANK
 10
-25382.37494828464
 20
7385.702971374808
 30
0.0
 41
12.0
 42
12.0
 43
12.0
 50
270.0
  0
INSERT
  5
16A4
330
2E8B
100
AcDbEntity
  8
SIZE
 62
     0
100
AcDbBlockReference
  2
_DOTBLANK
 10
-25382.37494828464
 20
7373.702971374808
 30
0.0
 41
12.0
 42
12.0
 43
12.0
 50
90.0
  0
INSERT
  5
16A5
330
2E8B
100
AcDbEntity
  8
0
100
AcDbBlockReference
  2
*U42
 10
0.0
 20
0.0
 30
0.0
  0
POINT
  5
16A6
330
2E8B
100
AcDbEntity
  8
DEFPOINTS
 62
     0
100
AcDbPoint
 10
-25532.51823276502
 20
7385.702971374808
 30
0.0
  0
POINT
  5
16A7
330
2E8B
100
AcDbEntity
  8
DEFPOINTS
 62
     0
100
AcDbPoint
 10
-25543.51823276502
 20
7373.702971374808
 30
0.0
  0
POINT
  5
16A8
330
2E8B
100
AcDbEntity
  8
DEFPOINTS
 62
     0
100
AcDbPoint
 10
-25382.37494828464
 20
7373.702971374808
 30
0.0
  0
ENDBLK
  5
16A9
330
2E8B
100
AcDbEntity
  8
0
100
AcDbBlockEnd
  0
BLOCK
  5
2E8E
330
2E8D
100
AcDbEntity
  8
0
100
AcDbBlockBegin
  2
*U42
 70
     1
 10
0.0
 20
0.0
 30
0.0
  3
*U42
  1

  0
TEXT
  5
1F1D
330
2E8D
100
AcDbEntity
  8
SIZE
 62
     0
100
AcDbText
 10
-25392.37494828464
 20
7256.045828517662
 30
0.0
 40
64.0
  1
12
 50
90.0
 41
0.9
100
AcDbText
  0
ENDBLK
  5
1F1F
330
2E8D
100
AcDbEntity
  8
0
100
AcDbBlockEnd
  0
BLOCK
  5
2E90
330
2E8F
100
AcDbEntity
  8
0
100
AcDbBlockBegin
  2
*D43
 70
     1
 10
0.0
 20
0.0
 30
0.0
  3
*D43
  1

  0
LINE
  5
16AC
330
2E8F
100
AcDbEntity
  8
SIZE
 62
     0
100
AcDbLine
 10
-25801.51823276501
 20
7365.702971374808
 30
0.0
 11
-25801.51823276501
 21
7217.685576144207
 31
0.0
  0
LINE
  5
16AD
330
2E8F
100
AcDbEntity
  8
SIZE
 62
     0
100
AcDbLine
 10
-25532.51823276502
 20
7365.702971374808
 30
0.0
 11
-25532.51823276502
 21
7217.685576144207
 31
0.0
  0
LINE
  5
16AE
330
2E8F
100
AcDbEntity
  8
SIZE
 62
     0
100
AcDbLine
 10
-25789.51823276502
 20
7237.685576144207
 30
0.0
 11
-25544.51823276501
 21
7237.685576144207
 31
0.0
  0
INSERT
  5
16AF
330
2E8F
100
AcDbEntity
  8
SIZE
 62
     0
100
AcDbBlockReference
  2
_DOTBLANK
 10
-25801.51823276501
 20
7237.685576144207
 30
0.0
 41
12.0
 42
12.0
 43
12.0
 50
180.0
  0
INSERT
  5
16B0
330
2E8F
100
AcDbEntity
  8
SIZE
 62
     0
100
AcDbBlockReference
  2
_DOTBLANK
 10
-25532.51823276502
 20
7237.685576144207
 30
0.0
 41
12.0
 42
12.0
 43
12.0
  0
INSERT
  5
16B1
330
2E8F
100
AcDbEntity
  8
0
100
AcDbBlockReference
  2
*U44
 10
0.0
 20
0.0
 30
0.0
  0
POINT
  5
16B2
330
2E8F
100
AcDbEntity
  8
DEFPOINTS
 62
     0
100
AcDbPoint
 10
-25801.51823276501
 20
7385.702971374808
 30
0.0
  0
POINT
  5
16B3
330
2E8F
100
AcDbEntity
  8
DEFPOINTS
 62
     0
100
AcDbPoint
 10
-25532.51823276502
 20
7385.702971374808
 30
0.0
  0
POINT
  5
16B4
330
2E8F
100
AcDbEntity
  8
DEFPOINTS
 62
     0
100
AcDbPoint
 10
-25532.51823276502
 20
7237.685576144207
 30
0.0
  0
ENDBLK
  5
16B5
330
2E8F
100
AcDbEntity
  8
0
100
AcDbBlockEnd
  0
BLOCK
  5
2E92
330
2E91
100
AcDbEntity
  8
0
100
AcDbBlockBegin
  2
*U44
 70
     1
 10
0.0
 20
0.0
 30
0.0
  3
*U44
  1

  0
TEXT
  5
1F21
330
2E91
100
AcDbEntity
  8
SIZE
 62
     0
100
AcDbText
 10
-25739.70394705074
 20
7247.685576144205
 30
0.0
 40
64.0
  1
269
 41
0.9
100
AcDbText
  0
ENDBLK
  5
1F23
330
2E91
100
AcDbEntity
  8
0
100
AcDbBlockEnd
  0
BLOCK
  5
2E94
330
2E93
100
AcDbEntity
  8
0
100
AcDbBlockBegin
  2
*D45
 70
     1
 10
0.0
 20
0.0
 30
0.0
  3
*D45
  1

  0
LINE
  5
16B8
330
2E93
100
AcDbEntity
  8
SIZE
 62
     0
100
AcDbLine
 10
-25512.51823276502
 20
7385.702971374808
 30
0.0
 11
-25362.37494828464
 21
7385.702971374808
 31
0.0
  0
LINE
  5
16B9
330
2E93
100
AcDbEntity
  8
SIZE
 62
     0
100
AcDbLine
 10
-25489.51823276501
 20
7685.702971374808
 30
0.0
 11
-25362.37494828464
 21
7685.702971374808
 31
0.0
  0
LINE
  5
16BA
330
2E93
100
AcDbEntity
  8
SIZE
 62
     0
100
AcDbLine
 10
-25382.37494828464
 20
7397.702971374808
 30
0.0
 11
-25382.37494828464
 21
7673.702971374808
 31
0.0
  0
INSERT
  5
16BB
330
2E93
100
AcDbEntity
  8
SIZE
 62
     0
100
AcDbBlockReference
  2
_DOTBLANK
 10
-25382.37494828464
 20
7385.702971374808
 30
0.0
 41
12.0
 42
12.0
 43
12.0
 50
270.0
  0
INSERT
  5
16BC
330
2E93
100
AcDbEntity
  8
SIZE
 62
     0
100
AcDbBlockReference
  2
_DOTBLANK
 10
-25382.37494828464
 20
7685.702971374808
 30
0.0
 41
12.0
 42
12.0
 43
12.0
 50
90.0
  0
INSERT
  5
16BD
330
2E93
100
AcDbEntity
  8
0
100
AcDbBlockReference
  2
*U46
 10
0.0
 20
0.0
 30
0.0
  0
POINT
  5
16BE
330
2E93
100
AcDbEntity
  8
DEFPOINTS
 62
     0
100
AcDbPoint
 10
-25532.51823276502
 20
7385.702971374808
 30
0.0
  0
POINT
  5
16BF
330
2E93
100
AcDbEntity
  8
DEFPOINTS
 62
     0
100
AcDbPoint
 10
-25509.51823276502
 20
7685.702971374808
 30
0.0
  0
POINT
  5
16C0
330
2E93
100
AcDbEntity
  8
DEFPOINTS
 62
     0
100
AcDbPoint
 10
-25382.37494828464
 20
7685.702971374808
 30
0.0
  0
ENDBLK
  5
16C1
330
2E93
100
AcDbEntity
  8
0
100
AcDbBlockEnd
  0
BLOCK
  5
2E96
330
2E95
100
AcDbEntity
  8
0
100
AcDbBlockBegin
  2
*U46
 70
     1
 10
0.0
 20
0.0
 30
0.0
  3
*U46
  1

  0
TEXT
  5
1F25
330
2E95
100
AcDbEntity
  8
SIZE
 62
     0
100
AcDbText
 10
-25392.37494828464
 20
7461.645828517662
 30
0.0
 40
64.0
  1
300
 50
90.0
 41
0.9
100
AcDbText
  0
ENDBLK
  5
1F27
330
2E95
100
AcDbEntity
  8
0
100
AcDbBlockEnd
  0
BLOCK
  5
2E98
330
2E97
100
AcDbEntity
  8
0
100
AcDbBlockBegin
  2
*D47
 70
     1
 10
0.0
 20
0.0
 30
0.0
  3
*D47
  1

  0
LINE
  5
16C4
330
2E97
100
AcDbEntity
  8
SIZE
 62
     0
100
AcDbLine
 10
-25807.01823276501
 20
7718.167454177002
 30
0.0
 11
-25807.01823276501
 21
7822.154659243358
 31
0.0
  0
LINE
  5
16C5
330
2E97
100
AcDbEntity
  8
SIZE
 62
     0
100
AcDbLine
 10
-25527.01823276501
 20
7718.167454177002
 30
0.0
 11
-25527.01823276501
 21
7822.154659243358
 31
0.0
  0
LINE
  5
16C6
330
2E97
100
AcDbEntity
  8
SIZE
 62
     0
100
AcDbLine
 10
-25795.01823276502
 20
7802.154659243358
 30
0.0
 11
-25539.01823276501
 21
7802.154659243358
 31
0.0
  0
INSERT
  5
16C7
330
2E97
100
AcDbEntity
  8
SIZE
 62
     0
100
AcDbBlockReference
  2
_DOTBLANK
 10
-25807.01823276501
 20
7802.154659243358
 30
0.0
 41
12.0
 42
12.0
 43
12.0
 50
180.0
  0
INSERT
  5
16C8
330
2E97
100
AcDbEntity
  8
SIZE
 62
     0
100
AcDbBlockReference
  2
_DOTBLANK
 10
-25527.01823276501
 20
7802.154659243358
 30
0.0
 41
12.0
 42
12.0
 43
12.0
  0
INSERT
  5
16C9
330
2E97
100
AcDbEntity
  8
0
100
AcDbBlockReference
  2
*U48
 10
0.0
 20
0.0
 30
0.0
  0
POINT
  5
16CA
330
2E97
100
AcDbEntity
  8
DEFPOINTS
 62
     0
100
AcDbPoint
 10
-25807.01823276501
 20
7698.167454177002
 30
0.0
  0
POINT
  5
16CB
330
2E97
100
AcDbEntity
  8
DEFPOINTS
 62
     0
100
AcDbPoint
 10
-25527.01823276501
 20
7698.167454177002
 30
0.0
  0
POINT
  5
16CC
330
2E97
100
AcDbEntity
  8
DEFPOINTS
 62
     0
100
AcDbPoint
 10
-25527.01823276501
 20
7802.154659243358
 30
0.0
  0
ENDBLK
  5
16CD
330
2E97
100
AcDbEntity
  8
0
100
AcDbBlockEnd
  0
BLOCK
  5
2E9A
330
2E99
100
AcDbEntity
  8
0
100
AcDbBlockBegin
  2
*U48
 70
     1
 10
0.0
 20
0.0
 30
0.0
  3
*U48
  1

  0
TEXT
  5
1F29
330
2E99
100
AcDbEntity
  8
SIZE
 62
     0
100
AcDbText
 10
-25741.07537562216
 20
7812.154659243358
 30
0.0
 40
64.0
  1
280
 41
0.9
100
AcDbText
  0
ENDBLK
  5
1F2B
330
2E99
100
AcDbEntity
  8
0
100
AcDbBlockEnd
  0
BLOCK
  5
2E9C
330
2E9B
100
AcDbEntity
  8
0
100
AcDbBlockBegin
  2
*D49
 70
     1
 10
0.0
 20
0.0
 30
0.0
  3
*D49
  1

  0
LINE
  5
16D0
330
2E9B
100
AcDbEntity
  8
SIZE
 62
     0
100
AcDbLine
 10
-25824.51823276501
 20
7705.702971374808
 30
0.0
 11
-25824.51823276501
 21
7931.282433493766
 31
0.0
  0
LINE
  5
16D1
330
2E9B
100
AcDbEntity
  8
SIZE
 62
     0
100
AcDbLine
 10
-25509.51823276502
 20
7705.702971374808
 30
0.0
 11
-25509.51823276502
 21
7931.282433493766
 31
0.0
  0
LINE
  5
16D2
330
2E9B
100
AcDbEntity
  8
SIZE
 62
     0
100
AcDbLine
 10
-25812.51823276502
 20
7911.282433493766
 30
0.0
 11
-25521.51823276501
 21
7911.282433493766
 31
0.0
  0
INSERT
  5
16D3
330
2E9B
100
AcDbEntity
  8
SIZE
 62
     0
100
AcDbBlockReference
  2
_DOTBLANK
 10
-25824.51823276501
 20
7911.282433493766
 30
0.0
 41
12.0
 42
12.0
 43
12.0
 50
180.0
  0
INSERT
  5
16D4
330
2E9B
100
AcDbEntity
  8
SIZE
 62
     0
100
AcDbBlockReference
  2
_DOTBLANK
 10
-25509.51823276502
 20
7911.282433493766
 30
0.0
 41
12.0
 42
12.0
 43
12.0
  0
INSERT
  5
16D5
330
2E9B
100
AcDbEntity
  8
0
100
AcDbBlockReference
  2
*U50
 10
0.0
 20
0.0
 30
0.0
  0
POINT
  5
16D6
330
2E9B
100
AcDbEntity
  8
DEFPOINTS
 62
     0
100
AcDbPoint
 10
-25824.51823276501
 20
7685.702971374808
 30
0.0
  0
POINT
  5
16D7
330
2E9B
100
AcDbEntity
  8
DEFPOINTS
 62
     0
100
AcDbPoint
 10
-25509.51823276502
 20
7685.702971374808
 30
0.0
  0
POINT
  5
16D8
330
2E9B
100
AcDbEntity
  8
DEFPOINTS
 62
     0
100
AcDbPoint
 10
-25509.51823276502
 20
7911.282433493766
 30
0.0
  0
ENDBLK
  5
16D9
330
2E9B
100
AcDbEntity
  8
0
100
AcDbBlockEnd
  0
BLOCK
  5
2E9E
330
2E9D
100
AcDbEntity
  8
0
100
AcDbBlockBegin
  2
*U50
 70
     1
 10
0.0
 20
0.0
 30
0.0
  3
*U50
  1

  0
TEXT
  5
1F2D
330
2E9D
100
AcDbEntity
  8
SIZE
 62
     0
100
AcDbText
 10
-25735.58966133645
 20
7921.282433493766
 30
0.0
 40
64.0
  1
315
 41
0.9
100
AcDbText
  0
ENDBLK
  5
1F2F
330
2E9D
100
AcDbEntity
  8
0
100
AcDbBlockEnd
  0
BLOCK
  5
2EA0
330
2E9F
100
AcDbEntity
  8
0
100
AcDbBlockBegin
  2
*D51
 70
     1
 10
0.0
 20
0.0
 30
0.0
  3
*D51
  1

  0
LINE
  5
1D83
330
2E9F
100
AcDbEntity
  8
SIZE
 62
     0
100
AcDbLine
 10
-134.5
 20
-320.0
 30
0.0
 11
-134.5
 21
-468.0173952306001
 31
0.0
  0
LINE
  5
1D84
330
2E9F
100
AcDbEntity
  8
SIZE
 62
     0
100
AcDbLine
 10
134.5
 20
-320.0
 30
0.0
 11
134.5
 21
-468.0173952306001
 31
0.0
  0
LINE
  5
1D85
330
2E9F
100
AcDbEntity
  8
SIZE
 62
     0
100
AcDbLine
 10
-122.5
 20
-448.0173952306
 30
0.0
 11
122.5
 21
-448.0173952306
 31
0.0
  0
INSERT
  5
1D86
330
2E9F
100
AcDbEntity
  8
SIZE
 62
     0
100
AcDbBlockReference
  2
_DOTBLANK
 10
-134.5
 20
-448.0173952306
 30
0.0
 41
12.0
 42
12.0
 43
12.0
 50
180.0
  0
INSERT
  5
1D87
330
2E9F
100
AcDbEntity
  8
SIZE
 62
     0
100
AcDbBlockReference
  2
_DOTBLANK
 10
134.5
 20
-448.0173952306
 30
0.0
 41
12.0
 42
12.0
 43
12.0
  0
INSERT
  5
1D88
330
2E9F
100
AcDbEntity
  8
0
100
AcDbBlockReference
  2
*U52
 10
0.0
 20
0.0
 30
0.0
  0
POINT
  5
1D89
330
2E9F
100
AcDbEntity
  8
DEFPOINTS
 62
     0
100
AcDbPoint
 10
-134.5
 20
-300.0
 30
0.0
  0
POINT
  5
1D8A
330
2E9F
100
AcDbEntity
  8
DEFPOINTS
 62
     0
100
AcDbPoint
 10
134.5
 20
-300.0
 30
0.0
  0
POINT
  5
1D8B
330
2E9F
100
AcDbEntity
  8
DEFPOINTS
 62
     0
100
AcDbPoint
 10
134.5
 20
-448.0173952306
 30
0.0
  0
ENDBLK
  5
173D
330
2E9F
100
AcDbEntity
  8
0
100
AcDbBlockEnd
  0
BLOCK
  5
2EA2
330
2EA1
100
AcDbEntity
  8
0
100
AcDbBlockBegin
  2
*U52
 70
     1
 10
0.0
 20
0.0
 30
0.0
  3
*U52
  1

  0
TEXT
  5
1F31
330
2EA1
100
AcDbEntity
  8
SIZE
 62
     0
100
AcDbText
 10
-72.68571428571426
 20
-438.0173952306003
 30
0.0
 40
64.0
  1
269
 41
0.9
100
AcDbText
  0
ENDBLK
  5
1F33
330
2EA1
100
AcDbEntity
  8
0
100
AcDbBlockEnd
  0
BLOCK
  5
2EA4
330
2EA3
100
AcDbEntity
  8
0
100
AcDbBlockBegin
  2
*D53
 70
     1
 10
0.0
 20
0.0
 30
0.0
  3
*D53
  1

  0
LINE
  5
1D8C
330
2EA3
100
AcDbEntity
  8
SIZE
 62
     0
100
AcDbLine
 10
154.5
 20
-300.0
 30
0.0
 11
304.6432844803784
 21
-300.0
 31
0.0
  0
LINE
  5
1D8D
330
2EA3
100
AcDbEntity
  8
SIZE
 62
     0
100
AcDbLine
 10
177.5
 20
-0.0000000000000057
 30
0.0
 11
304.6432844803785
 21
-0.0000000000000417
 31
0.0
  0
LINE
  5
1D8E
330
2EA3
100
AcDbEntity
  8
SIZE
 62
     0
100
AcDbLine
 10
284.6432844803784
 20
-288.0
 30
0.0
 11
284.6432844803785
 21
-12.00000000000003
 31
0.0
  0
INSERT
  5
1D8F
330
2EA3
100
AcDbEntity
  8
SIZE
 62
     0
100
AcDbBlockReference
  2
_DOTBLANK
 10
284.6432844803784
 20
-300.0
 30
0.0
 41
12.0
 42
12.0
 43
12.0
 50
270.0
  0
INSERT
  5
1D90
330
2EA3
100
AcDbEntity
  8
SIZE
 62
     0
100
AcDbBlockReference
  2
_DOTBLANK
 10
284.6432844803785
 20
-0.000000000000036
 30
0.0
 41
12.0
 42
12.0
 43
12.0
 50
90.0
  0
INSERT
  5
1D91
330
2EA3
100
AcDbEntity
  8
0
100
AcDbBlockReference
  2
*U54
 10
0.0
 20
0.0
 30
0.0
  0
POINT
  5
1D92
330
2EA3
100
AcDbEntity
  8
DEFPOINTS
 62
     0
100
AcDbPoint
 10
134.5
 20
-300.0
 30
0.0
  0
POINT
  5
1D93
330
2EA3
100
AcDbEntity
  8
DEFPOINTS
 62
     0
100
AcDbPoint
 10
157.5
 20
0.0
 30
0.0
  0
POINT
  5
1D94
330
2EA3
100
AcDbEntity
  8
DEFPOINTS
 62
     0
100
AcDbPoint
 10
284.6432844803785
 20
-0.000000000000036
 30
0.0
  0
ENDBLK
  5
1749
330
2EA3
100
AcDbEntity
  8
0
100
AcDbBlockEnd
  0
BLOCK
  5
2EA6
330
2EA5
100
AcDbEntity
  8
0
100
AcDbBlockBegin
  2
*U54
 70
     1
 10
0.0
 20
0.0
 30
0.0
  3
*U54
  1

  0
TEXT
  5
1F35
330
2EA5
100
AcDbEntity
  8
SIZE
 62
     0
100
AcDbText
 10
274.6432844803785
 20
-224.0571428571429
 30
0.0
 40
64.0
  1
300
 50
90.0
 41
0.9
100
AcDbText
  0
ENDBLK
  5
1F37
330
2EA5
100
AcDbEntity
  8
0
100
AcDbBlockEnd
  0
BLOCK
  5
2EA8
330
2EA7
100
AcDbEntity
  8
0
100
AcDbBlockBegin
  2
*D55
 70
     1
 10
0.0
 20
0.0
 30
0.0
  3
*D55
  1

  0
LINE
  5
1D95
330
2EA7
100
AcDbEntity
  8
SIZE
 62
     0
100
AcDbLine
 10
-140.0
 20
32.46448280219375
 30
0.0
 11
-140.0
 21
136.4516878685508
 31
0.0
  0
LINE
  5
1D96
330
2EA7
100
AcDbEntity
  8
SIZE
 62
     0
100
AcDbLine
 10
140.0
 20
32.46448280219375
 30
0.0
 11
140.0
 21
136.4516878685508
 31
0.0
  0
LINE
  5
1D97
330
2EA7
100
AcDbEntity
  8
SIZE
 62
     0
100
AcDbLine
 10
-128.0
 20
116.4516878685508
 30
0.0
 11
128.0
 21
116.4516878685508
 31
0.0
  0
INSERT
  5
1D98
330
2EA7
100
AcDbEntity
  8
SIZE
 62
     0
100
AcDbBlockReference
  2
_DOTBLANK
 10
-140.0
 20
116.4516878685508
 30
0.0
 41
12.0
 42
12.0
 43
12.0
 50
180.0
  0
INSERT
  5
1D99
330
2EA7
100
AcDbEntity
  8
SIZE
 62
     0
100
AcDbBlockReference
  2
_DOTBLANK
 10
140.0
 20
116.4516878685508
 30
0.0
 41
12.0
 42
12.0
 43
12.0
  0
INSERT
  5
1D9A
330
2EA7
100
AcDbEntity
  8
0
100
AcDbBlockReference
  2
*U56
 10
0.0
 20
0.0
 30
0.0
  0
POINT
  5
1D9B
330
2EA7
100
AcDbEntity
  8
DEFPOINTS
 62
     0
100
AcDbPoint
 10
-140.0
 20
12.46448280219374
 30
0.0
  0
POINT
  5
1D9C
330
2EA7
100
AcDbEntity
  8
DEFPOINTS
 62
     0
100
AcDbPoint
 10
140.0
 20
12.46448280219374
 30
0.0
  0
POINT
  5
1D9D
330
2EA7
100
AcDbEntity
  8
DEFPOINTS
 62
     0
100
AcDbPoint
 10
140.0
 20
116.4516878685508
 30
0.0
  0
ENDBLK
  5
1755
330
2EA7
100
AcDbEntity
  8
0
100
AcDbBlockEnd
  0
BLOCK
  5
2EAA
330
2EA9
100
AcDbEntity
  8
0
100
AcDbBlockBegin
  2
*U56
 70
     1
 10
0.0
 20
0.0
 30
0.0
  3
*U56
  1

  0
TEXT
  5
1F39
330
2EA9
100
AcDbEntity
  8
SIZE
 62
     0
100
AcDbText
 10
-74.05714285714283
 20
126.4516878685508
 30
0.0
 40
64.0
  1
280
 41
0.9
100
AcDbText
  0
ENDBLK
  5
1F3B
330
2EA9
100
AcDbEntity
  8
0
100
AcDbBlockEnd
  0
BLOCK
  5
2EAC
330
2EAB
100
AcDbEntity
  8
0
100
AcDbBlockBegin
  2
*D57
 70
     1
 10
0.0
 20
0.0
 30
0.0
  3
*D57
  1

  0
LINE
  5
1D9E
330
2EAB
100
AcDbEntity
  8
SIZE
 62
     0
100
AcDbLine
 10
-157.5
 20
20.0
 30
0.0
 11
-157.5
 21
245.5794621189598
 31
0.0
  0
LINE
  5
1D9F
330
2EAB
100
AcDbEntity
  8
SIZE
 62
     0
100
AcDbLine
 10
157.5
 20
20.0
 30
0.0
 11
157.5
 21
245.5794621189598
 31
0.0
  0
LINE
  5
1DA0
330
2EAB
100
AcDbEntity
  8
SIZE
 62
     0
100
AcDbLine
 10
-145.5
 20
225.5794621189598
 30
0.0
 11
145.5
 21
225.5794621189598
 31
0.0
  0
INSERT
  5
1DA1
330
2EAB
100
AcDbEntity
  8
SIZE
 62
     0
100
AcDbBlockReference
  2
_DOTBLANK
 10
-157.5
 20
225.5794621189598
 30
0.0
 41
12.0
 42
12.0
 43
12.0
 50
180.0
  0
INSERT
  5
1DA2
330
2EAB
100
AcDbEntity
  8
SIZE
 62
     0
100
AcDbBlockReference
  2
_DOTBLANK
 10
157.5
 20
225.5794621189598
 30
0.0
 41
12.0
 42
12.0
 43
12.0
  0
INSERT
  5
1DA3
330
2EAB
100
AcDbEntity
  8
0
100
AcDbBlockReference
  2
*U58
 10
0.0
 20
0.0
 30
0.0
  0
POINT
  5
1DA4
330
2EAB
100
AcDbEntity
  8
DEFPOINTS
 62
     0
100
AcDbPoint
 10
-157.5
 20
0.0
 30
0.0
  0
POINT
  5
1DA5
330
2EAB
100
AcDbEntity
  8
DEFPOINTS
 62
     0
100
AcDbPoint
 10
157.5
 20
0.0
 30
0.0
  0
POINT
  5
1DA6
330
2EAB
100
AcDbEntity
  8
DEFPOINTS
 62
     0
100
AcDbPoint
 10
157.5
 20
225.5794621189598
 30
0.0
  0
ENDBLK
  5
1761
330
2EAB
100
AcDbEntity
  8
0
100
AcDbBlockEnd
  0
BLOCK
  5
2EAE
330
2EAD
100
AcDbEntity
  8
0
100
AcDbBlockBegin
  2
*U58
 70
     1
 10
0.0
 20
0.0
 30
0.0
  3
*U58
  1

  0
TEXT
  5
1F3D
330
2EAD
100
AcDbEntity
  8
SIZE
 62
     0
100
AcDbText
 10
-68.57142857142857
 20
235.5794621189599
 30
0.0
 40
64.0
  1
315
 41
0.9
100
AcDbText
  0
ENDBLK
  5
1F3F
330
2EAD
100
AcDbEntity
  8
0
100
AcDbBlockEnd
  0
BLOCK
  5
2EB0
330
2EAF
100
AcDbEntity
  8
0
100
AcDbBlockBegin
  2
*D59
 70
     1
 10
0.0
 20
0.0
 30
0.0
  3
*D59
  1

  0
LINE
  5
1DA7
330
2EAF
100
AcDbEntity
  8
SIZE
 62
     0
100
AcDbLine
 10
-177.5
 20
0.0000000000000057
 30
0.0
 11
-314.0264221186908
 21
0.0000000000000443
 31
0.0
  0
LINE
  5
1DA8
330
2EAF
100
AcDbEntity
  8
SIZE
 62
     0
100
AcDbLine
 10
-177.5
 20
-7.999999999999995
 30
0.0
 11
-314.0264221186908
 21
-7.999999999999958
 31
0.0
  0
LINE
  5
1DA9
330
2EAF
100
AcDbEntity
  8
SIZE
 62
     0
100
AcDbLine
 10
-294.0264221186908
 20
12.00000000000003
 30
0.0
 11
-294.0264221186908
 21
24.00000000000004
 31
0.0
  0
LINE
  5
1DAA
330
2EAF
100
AcDbEntity
  8
SIZE
 62
     0
100
AcDbLine
 10
-294.0264221186908
 20
-19.99999999999996
 30
0.0
 11
-294.0264221186908
 21
-90.39999999999997
 31
0.0
  0
INSERT
  5
1DAB
330
2EAF
100
AcDbEntity
  8
SIZE
 62
     0
100
AcDbBlockReference
  2
_DOTBLANK
 10
-294.0264221186908
 20
0.0000000000000387
 30
0.0
 41
12.0
 42
12.0
 43
12.0
 50
270.0
  0
INSERT
  5
1DAC
330
2EAF
100
AcDbEntity
  8
SIZE
 62
     0
100
AcDbBlockReference
  2
_DOTBLANK
 10
-294.0264221186908
 20
-7.999999999999961
 30
0.0
 41
12.0
 42
12.0
 43
12.0
 50
90.0
  0
INSERT
  5
1DAD
330
2EAF
100
AcDbEntity
  8
0
100
AcDbBlockReference
  2
*U60
 10
0.0
 20
0.0
 30
0.0
  0
POINT
  5
1DAE
330
2EAF
100
AcDbEntity
  8
DEFPOINTS
 62
     0
100
AcDbPoint
 10
-157.5
 20
0.0
 30
0.0
  0
POINT
  5
1DAF
330
2EAF
100
AcDbEntity
  8
DEFPOINTS
 62
     0
100
AcDbPoint
 10
-157.5
 20
-8.000000000000003
 30
0.0
  0
POINT
  5
1DB0
330
2EAF
100
AcDbEntity
  8
DEFPOINTS
 62
     0
100
AcDbPoint
 10
-294.0264221186908
 20
-7.999999999999961
 30
0.0
  0
ENDBLK
  5
176D
330
2EAF
100
AcDbEntity
  8
0
100
AcDbBlockEnd
  0
BLOCK
  5
2EB2
330
2EB1
100
AcDbEntity
  8
0
100
AcDbBlockBegin
  2
*U60
 70
     1
 10
0.0
 20
0.0
 30
0.0
  3
*U60
  1

  0
TEXT
  5
1F41
330
2EB1
100
AcDbEntity
  8
SIZE
 62
     0
100
AcDbText
 10
-304.0264221186908
 20
-80.4
 30
0.0
 40
64.0
  1
8
 50
90.0
 41
0.9
100
AcDbText
  0
ENDBLK
  5
1F43
330
2EB1
100
AcDbEntity
  8
0
100
AcDbBlockEnd
  0
BLOCK
  5
2EB4
330
2EB3
100
AcDbEntity
  8
0
100
AcDbBlockBegin
  2
*D61
 70
     1
 10
0.0
 20
0.0
 30
0.0
  3
*D61
  1

  0
LINE
  5
1DB1
330
2EB3
100
AcDbEntity
  8
SIZE
 62
     0
100
AcDbLine
 10
154.5
 20
-300.0
 30
0.0
 11
304.6432844803785
 21
-300.0
 31
0.0
  0
LINE
  5
1DB2
330
2EB3
100
AcDbEntity
  8
SIZE
 62
     0
100
AcDbLine
 10
143.5
 20
-312.0
 30
0.0
 11
304.6432844803785
 21
-312.0
 31
0.0
  0
LINE
  5
1DB3
330
2EB3
100
AcDbEntity
  8
SIZE
 62
     0
100
AcDbLine
 10
284.6432844803785
 20
-288.0
 30
0.0
 11
284.6432844803785
 21
-276.0
 31
0.0
  0
LINE
  5
1DB4
330
2EB3
100
AcDbEntity
  8
SIZE
 62
     0
100
AcDbLine
 10
284.6432844803785
 20
-324.0000000000001
 30
0.0
 11
284.6432844803784
 21
-438.2857142857143
 31
0.0
  0
INSERT
  5
1DB5
330
2EB3
100
AcDbEntity
  8
SIZE
 62
     0
100
AcDbBlockReference
  2
_DOTBLANK
 10
284.6432844803785
 20
-300.0
 30
0.0
 41
12.0
 42
12.0
 43
12.0
 50
270.0
  0
INSERT
  5
1DB6
330
2EB3
100
AcDbEntity
  8
SIZE
 62
     0
100
AcDbBlockReference
  2
_DOTBLANK
 10
284.6432844803785
 20
-312.0
 30
0.0
 41
12.0
 42
12.0
 43
12.0
 50
90.0
  0
INSERT
  5
1DB7
330
2EB3
100
AcDbEntity
  8
0
100
AcDbBlockReference
  2
*U62
 10
0.0
 20
0.0
 30
0.0
  0
POINT
  5
1DB8
330
2EB3
100
AcDbEntity
  8
DEFPOINTS
 62
     0
100
AcDbPoint
 10
134.5
 20
-300.0
 30
0.0
  0
POINT
  5
1DB9
330
2EB3
100
AcDbEntity
  8
DEFPOINTS
 62
     0
100
AcDbPoint
 10
123.5
 20
-312.0
 30
0.0
  0
POINT
  5
1DBA
330
2EB3
100
AcDbEntity
  8
DEFPOINTS
 62
     0
100
AcDbPoint
 10
284.6432844803785
 20
-312.0
 30
0.0
  0
ENDBLK
  5
177B
330
2EB3
100
AcDbEntity
  8
0
100
AcDbBlockEnd
  0
BLOCK
  5
2EB6
330
2EB5
100
AcDbEntity
  8
0
100
AcDbBlockBegin
  2
*U62
 70
     1
 10
0.0
 20
0.0
 30
0.0
  3
*U62
  1

  0
TEXT
  5
1F45
330
2EB5
100
AcDbEntity
  8
SIZE
 62
     0
100
AcDbText
 10
274.6432844803785
 20
-428.2857142857142
 30
0.0
 40
64.0
  1
12
 50
90.0
 41
0.9
100
AcDbText
  0
ENDBLK
  5
1F47
330
2EB5
100
AcDbEntity
  8
0
100
AcDbBlockEnd
  0
BLOCK
  5
2EB8
330
2EB7
100
AcDbEntity
  8
0
100
AcDbBlockBegin
  2
*U63
 70
     1
 10
0.0
 20
0.0
 30
0.0
  3
*U63
  1

  0
ENDBLK
  5
1D57
330
2EB7
100
AcDbEntity
  8
0
100
AcDbBlockEnd
  0
BLOCK
  5
2EBA
330
2EB9
100
AcDbEntity
  8
0
100
AcDbBlockBegin
  2
*U64
 70
     1
 10
0.0
 20
0.0
 30
0.0
  3
*U64
  1

  0
INSERT
  5
2087
330
2EB9
100
AcDbEntity
  8
NOTE
100
AcDbBlockReference
  2
_OPEN30
 10
-400.0000000000071
 20
-0.0000000000068212
 30
0.0
 41
12.0
 42
12.0
 43
12.0
 50
312.6090116116895
  0
POLYLINE
  5
2088
330
2EB9
100
AcDbEntity
  8
NOTE
100
AcDb2dPolyline
 66
     1
 10
0.0
 20
0.0
 30
0.0
  0
VERTEX
  5
2D67
330
2088
100
AcDbEntity
  8
NOTE
100
AcDbVertex
100
AcDb2dVertex
 10
-408.1239008361966
 20
8.831887408908642
 30
0.0
  0
VERTEX
  5
2D68
330
2088
100
AcDbEntity
  8
NOTE
100
AcDbVertex
100
AcDb2dVertex
 10
-487.8693999922616
 20
95.52709505800651
 30
0.0
  0
VERTEX
  5
2D69
330
2088
100
AcDbEntity
  8
NOTE
100
AcDbVertex
100
AcDb2dVertex
 10
-1077.595114277976
 20
95.52709505800651
 30
0.0
  0
SEQEND
  5
2D6A
330
2088
100
AcDbEntity
  8
NOTE
  0
ENDBLK
  5
2089
330
2EB9
100
AcDbEntity
  8
0
100
AcDbBlockEnd
  0
BLOCK
  5
2EBC
330
2EBB
100
AcDbEntity
  8
0
100
AcDbBlockBegin
  2
*U65
 70
     1
 10
0.0
 20
0.0
 30
0.0
  3
*U65
  1

  0
TEXT
  5
208C
330
2EBB
100
AcDbEntity
  8
NOTE
100
AcDbText
 10
-1077.595114277976
 20
113.5270950580065
 30
0.0
 40
64.0
  1
10×φ15取付穴
 41
0.9
100
AcDbText
  0
ENDBLK
  5
208D
330
2EBB
100
AcDbEntity
  8
0
100
AcDbBlockEnd
  0
BLOCK
  5
2EBE
330
2EBD
100
AcDbEntity
  8
0
100
AcDbBlockBegin
  2
*U66
 70
     1
 10
0.0
 20
0.0
 30
0.0
  3
*U66
  1

  0
INSERT
  5
219F
330
2EBD
100
AcDbEntity
  8
NOTE
100
AcDbBlockReference
  2
_OPEN30
 10
399.9999999999949
 20
400.0000000000026
 30
0.0
 41
12.0
 42
12.0
 43
12.0
 50
232.3258907693334
  0
POLYLINE
  5
21A0
330
2EBD
100
AcDbEntity
  8
NOTE
100
AcDb2dPolyline
 66
     1
 10
0.0
 20
0.0
 30
0.0
  0
VERTEX
  5
2D6B
330
21A0
100
AcDbEntity
  8
NOTE
100
AcDbVertex
100
AcDb2dVertex
 10
407.3340332839396
 20
409.497997462099
 30
0.0
  0
VERTEX
  5
2D6C
330
21A0
100
AcDbEntity
  8
NOTE
100
AcDbVertex
100
AcDb2dVertex
 10
473.7628007872031
 20
495.5270950580151
 30
0.0
  0
VERTEX
  5
2D6D
330
21A0
100
AcDbEntity
  8
NOTE
100
AcDbVertex
100
AcDb2dVertex
 10
1063.488515072916
 20
495.5270950580151
 30
0.0
  0
SEQEND
  5
2D6E
330
21A0
100
AcDbEntity
  8
NOTE
  0
ENDBLK
  5
21A1
330
2EBD
100
AcDbEntity
  8
0
100
AcDbBlockEnd
  0
BLOCK
  5
2EC0
330
2EBF
100
AcDbEntity
  8
0
100
AcDbBlockBegin
  2
*U67
 70
     1
 10
0.0
 20
0.0
 30
0.0
  3
*U67
  1

  0
TEXT
  5
21A4
330
2EBF
100
AcDbEntity
  8
NOTE
100
AcDbText
 10
535.7628007872031
 20
513.5270950580152
 30
0.0
 40
64.0
  1
10×φ15取付穴
 41
0.9
100
AcDbText
  0
ENDBLK
  5
21A5
330
2EBF
100
AcDbEntity
  8
0
100
AcDbBlockEnd
  0
BLOCK
  5
2EC2
330
2EC1
100
AcDbEntity
  8
0
100
AcDbBlockBegin
  2
*U68
 70
     1
 10
0.0
 20
0.0
 30
0.0
  3
*U68
  1

  0
INSERT
  5
2470
330
2EC1
100
AcDbEntity
  8
NOTE
100
AcDbBlockReference
  2
_OPEN30
 10
400.0
 20
400.0000000000029
 30
0.0
 41
12.0
 42
12.0
 43
12.0
 50
232.3258907693332
  0
POLYLINE
  5
2471
330
2EC1
100
AcDbEntity
  8
NOTE
100
AcDb2dPolyline
 66
     1
 10
0.0
 20
0.0
 30
0.0
  0
VERTEX
  5
2D6F
330
2471
100
AcDbEntity
  8
NOTE
100
AcDbVertex
100
AcDb2dVertex
 10
407.3340332839448
 20
409.4979974620991
 30
0.0
  0
VERTEX
  5
2D70
330
2471
100
AcDbEntity
  8
NOTE
100
AcDbVertex
100
AcDb2dVertex
 10
473.7628007872086
 20
495.5270950580151
 30
0.0
  0
VERTEX
  5
2D71
330
2471
100
AcDbEntity
  8
NOTE
100
AcDbVertex
100
AcDb2dVertex
 10
1063.488515072923
 20
495.5270950580151
 30
0.0
  0
SEQEND
  5
2D72
330
2471
100
AcDbEntity
  8
NOTE
  0
ENDBLK
  5
2472
330
2EC1
100
AcDbEntity
  8
0
100
AcDbBlockEnd
  0
BLOCK
  5
2EC4
330
2EC3
100
AcDbEntity
  8
0
100
AcDbBlockBegin
  2
*U69
 70
     1
 10
0.0
 20
0.0
 30
0.0
  3
*U69
  1

  0
TEXT
  5
2475
330
2EC3
100
AcDbEntity
  8
NOTE
100
AcDbText
 10
535.7628007872087
 20
513.5270950580152
 30
0.0
 40
64.0
  1
10×φ15取付穴
 41
0.9
100
AcDbText
  0
ENDBLK
  5
2476
330
2EC3
100
AcDbEntity
  8
0
100
AcDbBlockEnd
  0
BLOCK
  5
2EC6
330
2EC5
100
AcDbEntity
  8
0
100
AcDbBlockBegin
  2
*U70
 70
     1
 10
0.0
 20
0.0
 30
0.0
  3
*U70
  1

  0
INSERT
  5
2681
330
2EC5
100
AcDbEntity
  8
NOTE
100
AcDbBlockReference
  2
_OPEN30
 10
-0.0000000000045475
 20
400.0000000000031
 30
0.0
 41
12.0
 42
12.0
 43
12.0
 50
312.6090116116895
  0
POLYLINE
  5
2682
330
2EC5
100
AcDbEntity
  8
NOTE
100
AcDb2dPolyline
 66
     1
 10
0.0
 20
0.0
 30
0.0
  0
VERTEX
  5
2D73
330
2682
100
AcDbEntity
  8
NOTE
100
AcDbVertex
100
AcDb2dVertex
 10
-8.12390083619406
 20
408.8318874089185
 30
0.0
  0
VERTEX
  5
2D74
330
2682
100
AcDbEntity
  8
NOTE
100
AcDbVertex
100
AcDb2dVertex
 10
-87.86939999225884
 20
495.5270950580163
 30
0.0
  0
VERTEX
  5
2D75
330
2682
100
AcDbEntity
  8
NOTE
100
AcDbVertex
100
AcDb2dVertex
 10
-677.5951142779732
 20
495.5270950580163
 30
0.0
  0
SEQEND
  5
2D76
330
2682
100
AcDbEntity
  8
NOTE
  0
ENDBLK
  5
2683
330
2EC5
100
AcDbEntity
  8
0
100
AcDbBlockEnd
  0
BLOCK
  5
2EC8
330
2EC7
100
AcDbEntity
  8
0
100
AcDbBlockBegin
  2
*U71
 70
     1
 10
0.0
 20
0.0
 30
0.0
  3
*U71
  1

  0
TEXT
  5
2686
330
2EC7
100
AcDbEntity
  8
NOTE
100
AcDbText
 10
-677.5951142779732
 20
513.5270950580162
 30
0.0
 40
64.0
  1
10×φ15取付穴
 41
0.9
100
AcDbText
  0
ENDBLK
  5
2687
330
2EC7
100
AcDbEntity
  8
0
100
AcDbBlockEnd
  0
BLOCK
  5
2ECA
330
2EC9
100
AcDbEntity
  8
0
100
AcDbBlockBegin
  2
*U72
 70
     1
 10
0.0
 20
0.0
 30
0.0
  3
*U72
  1

  0
INSERT
  5
27CA
330
2EC9
100
AcDbEntity
  8
NOTE
100
AcDbBlockReference
  2
_OPEN30
 10
0.0000000000040927
 20
400.0000000000031
 30
0.0
 41
12.0
 42
12.0
 43
12.0
 50
227.3909883883105
  0
POLYLINE
  5
27CB
330
2EC9
100
AcDbEntity
  8
NOTE
100
AcDb2dPolyline
 66
     1
 10
0.0
 20
0.0
 30
0.0
  0
VERTEX
  5
2D77
330
27CB
100
AcDbEntity
  8
NOTE
100
AcDbVertex
100
AcDb2dVertex
 10
8.123900836193604
 20
408.8318874089185
 30
0.0
  0
VERTEX
  5
2D78
330
27CB
100
AcDbEntity
  8
NOTE
100
AcDbVertex
100
AcDb2dVertex
 10
87.86939999225841
 20
495.5270950580159
 30
0.0
  0
VERTEX
  5
2D79
330
27CB
100
AcDbEntity
  8
NOTE
100
AcDbVertex
100
AcDb2dVertex
 10
677.5951142779729
 20
495.5270950580159
 30
0.0
  0
SEQEND
  5
2D7A
330
27CB
100
AcDbEntity
  8
NOTE
  0
ENDBLK
  5
27CC
330
2EC9
100
AcDbEntity
  8
0
100
AcDbBlockEnd
  0
BLOCK
  5
2ECC
330
2ECB
100
AcDbEntity
  8
0
100
AcDbBlockBegin
  2
*U73
 70
     1
 10
0.0
 20
0.0
 30
0.0
  3
*U73
  1

  0
TEXT
  5
27CF
330
2ECB
100
AcDbEntity
  8
NOTE
100
AcDbText
 10
149.8693999922584
 20
513.527095058016
 30
0.0
 40
64.0
  1
10×φ15取付穴
 41
0.9
100
AcDbText
  0
ENDBLK
  5
27D0
330
2ECB
100
AcDbEntity
  8
0
100
AcDbBlockEnd
  0
BLOCK
  5
2ECE
330
2ECD
100
AcDbEntity
  8
0
100
AcDbBlockBegin
  2
*U74
 70
     1
 10
0.0
 20
0.0
 30
0.0
  3
*U74
  1

  0
INSERT
  5
2B3A
330
2ECD
100
AcDbEntity
  8
NOTE
100
AcDbBlockReference
  2
_OPEN30
 10
-400.0
 20
-0.0000000000004547
 30
0.0
 41
12.0
 42
12.0
 43
12.0
 50
312.6090116116892
  0
POLYLINE
  5
2B3B
330
2ECD
100
AcDbEntity
  8
NOTE
100
AcDb2dPolyline
 66
     1
 10
0.0
 20
0.0
 30
0.0
  0
VERTEX
  5
2D7B
330
2B3B
100
AcDbEntity
  8
NOTE
100
AcDbVertex
100
AcDb2dVertex
 10
-408.1239008361895
 20
8.831887408915058
 30
0.0
  0
VERTEX
  5
2D7C
330
2B3B
100
AcDbEntity
  8
NOTE
100
AcDbVertex
100
AcDb2dVertex
 10
-487.8693999922543
 20
95.52709505801384
 30
0.0
  0
VERTEX
  5
2D7D
330
2B3B
100
AcDbEntity
  8
NOTE
100
AcDbVertex
100
AcDb2dVertex
 10
-1077.595114277968
 20
95.52709505801384
 30
0.0
  0
SEQEND
  5
2D7E
330
2B3B
100
AcDbEntity
  8
NOTE
  0
ENDBLK
  5
2B3C
330
2ECD
100
AcDbEntity
  8
0
100
AcDbBlockEnd
  0
BLOCK
  5
2ED0
330
2ECF
100
AcDbEntity
  8
0
100
AcDbBlockBegin
  2
*U75
 70
     1
 10
0.0
 20
0.0
 30
0.0
  3
*U75
  1

  0
TEXT
  5
2B3F
330
2ECF
100
AcDbEntity
  8
NOTE
100
AcDbText
 10
-1077.595114277968
 20
113.5270950580138
 30
0.0
 40
64.0
  1
10×φ15取付穴
 41
0.9
100
AcDbText
  0
ENDBLK
  5
2B40
330
2ECF
100
AcDbEntity
  8
0
100
AcDbBlockEnd
  0
BLOCK
  5
2ED2
330
2ED1
100
AcDbEntity
  8
0
100
AcDbBlockBegin
  2
*X76
 70
     1
 10
0.0
 20
0.0
 30
0.0
  3
*X76
  1

  0
LINE
  5
2B43
330
2ED1
100
AcDbEntity
  8
0
 62
     0
100
AcDbLine
 10
-365.0000000000054
 20
-783.174395280227
 30
0.0
 11
-361.1632880651868
 21
-785.0014000000016
 31
0.0
  0
LINE
  5
2B44
330
2ED1
100
AcDbEntity
  8
0
 62
     0
100
AcDbLine
 10
-365.0000000000073
 20
-773.1744435360925
 30
0.0
 11
-340.1633783281959
 21
-785.0014000000016
 31
0.0
  0
LINE
  5
2B45
330
2ED1
100
AcDbEntity
  8
0
 62
     0
100
AcDbLine
 10
-365.0000000000091
 20
-763.1744917919577
 30
0.0
 11
-319.1634685912068
 21
-785.0014000000016
 31
0.0
  0
LINE
  5
2B46
330
2ED1
100
AcDbEntity
  8
0
 62
     0
100
AcDbLine
 10
-365.0000000000054
 20
-753.1745400478245
 30
0.0
 11
-298.1635588542158
 21
-785.0014000000016
 31
0.0
  0
LINE
  5
2B47
330
2ED1
100
AcDbEntity
  8
0
 62
     0
100
AcDbLine
 10
-365.0000000000073
 20
-743.1745883036901
 30
0.0
 11
-277.1636491172267
 21
-785.0014000000016
 31
0.0
  0
LINE
  5
2B48
330
2ED1
100
AcDbEntity
  8
0
 62
     0
100
AcDbLine
 10
-365.0000000000054
 20
-733.1746365595553
 30
0.0
 11
-256.1637393802357
 21
-785.0014000000016
 31
0.0
  0
LINE
  5
2B49
330
2ED1
100
AcDbEntity
  8
0
 62
     0
100
AcDbLine
 10
-365.0000000000073
 20
-723.1746848154199
 30
0.0
 11
-235.163829643243
 21
-785.0014000000016
 31
0.0
  0
LINE
  5
2B4A
330
2ED1
100
AcDbEntity
  8
0
 62
     0
100
AcDbLine
 10
-365.0000000000091
 20
-713.1747330712851
 30
0.0
 11
-214.1639199062538
 21
-785.0014000000016
 31
0.0
  0
LINE
  5
2B4B
330
2ED1
100
AcDbEntity
  8
0
 62
     0
100
AcDbLine
 10
-365.0000000000073
 20
-703.1747813271504
 30
0.0
 11
-193.164010169261
 21
-785.0014000000016
 31
0.0
  0
LINE
  5
2B4C
330
2ED1
100
AcDbEntity
  8
0
 62
     0
100
AcDbLine
 10
-365.0000000000073
 20
-693.1748295830174
 30
0.0
 11
-172.16410043227
 21
-785.001400000003
 31
0.0
  0
LINE
  5
2B4D
330
2ED1
100
AcDbEntity
  8
0
 62
     0
100
AcDbLine
 10
-365.0000000000073
 20
-683.1748778388827
 30
0.0
 11
-151.1641906952791
 21
-785.001400000003
 31
0.0
  0
LINE
  5
2B4E
330
2ED1
100
AcDbEntity
  8
0
 62
     0
100
AcDbLine
 10
-365.0000000000073
 20
-673.1749260947481
 30
0.0
 11
-130.1642809582881
 21
-785.001400000003
 31
0.0
  0
LINE
  5
2B4F
330
2ED1
100
AcDbEntity
  8
0
 62
     0
100
AcDbLine
 10
-365.0000000000073
 20
-663.1749743506134
 30
0.0
 11
-109.1643712212972
 21
-785.001400000003
 31
0.0
  0
LINE
  5
2B50
330
2ED1
100
AcDbEntity
  8
0
 62
     0
100
AcDbLine
 10
-365.0000000000073
 20
-653.1750226064787
 30
0.0
 11
-88.16446148430625
 21
-785.001400000003
 31
0.0
  0
LINE
  5
2B51
330
2ED1
100
AcDbEntity
  8
0
 62
     0
100
AcDbLine
 10
-365.0000000000073
 20
-643.1750708623456
 30
0.0
 11
-67.16455174731891
 21
-785.001400000003
 31
0.0
  0
LINE
  5
2B52
330
2ED1
100
AcDbEntity
  8
0
 62
     0
100
AcDbLine
 10
-365.0000000000073
 20
-633.17511911821
 30
0.0
 11
-46.16464201032614
 21
-785.001400000003
 31
0.0
  0
LINE
  5
2B53
330
2ED1
100
AcDbEntity
  8
0
 62
     0
100
AcDbLine
 10
-365.0000000000091
 20
-623.1751673740753
 30
0.0
 11
-25.16473227334063
 21
-785.001400000001
 31
0.0
  0
LINE
  5
2B54
330
2ED1
100
AcDbEntity
  8
0
 62
     0
100
AcDbLine
 10
-365.0000000000073
 20
-613.1752156299405
 30
0.0
 11
-4.164822536346036
 21
-785.001400000001
 31
0.0
  0
LINE
  5
2B55
330
2ED1
100
AcDbEntity
  8
0
 62
     0
100
AcDbLine
 10
-365.0000000000073
 20
-603.1752638858058
 30
0.0
 11
16.8350872006431
 21
-785.001400000001
 31
0.0
  0
LINE
  5
2B56
330
2ED1
100
AcDbEntity
  8
0
 62
     0
100
AcDbLine
 10
-365.0000000000091
 20
-593.1753121416712
 30
0.0
 11
37.83499693763406
 21
-785.001400000001
 31
0.0
  0
LINE
  5
2B57
330
2ED1
100
AcDbEntity
  8
0
 62
     0
100
AcDbLine
 10
-365.0000000000054
 20
-583.1753603975385
 30
0.0
 11
58.83490667462684
 21
-785.001400000003
 31
0.0
  0
LINE
  5
2B58
330
2ED1
100
AcDbEntity
  8
0
 62
     0
100
AcDbLine
 10
-365.0000000000073
 20
-573.1754086534038
 30
0.0
 11
79.83481641161779
 21
-785.001400000003
 31
0.0
  0
LINE
  5
2B59
330
2ED1
100
AcDbEntity
  8
0
 62
     0
100
AcDbLine
 10
-365.0000000000073
 20
-563.175456909269
 30
0.0
 11
100.8347261486087
 21
-785.0014000000016
 31
0.0
  0
LINE
  5
2B5A
330
2ED1
100
AcDbEntity
  8
0
 62
     0
100
AcDbLine
 10
-365.0000000000054
 20
-553.1755051651352
 30
0.0
 11
121.8346358855997
 21
-785.0014000000016
 31
0.0
  0
LINE
  5
2B5B
330
2ED1
100
AcDbEntity
  8
0
 62
     0
100
AcDbLine
 10
-365.0000000000091
 20
-543.1755534209997
 30
0.0
 11
142.8345456225907
 21
-785.0014000000016
 31
0.0
  0
LINE
  5
2B5C
330
2ED1
100
AcDbEntity
  8
0
 62
     0
100
AcDbLine
 10
-365.0000000000054
 20
-533.1756016768677
 30
0.0
 11
163.8344553595816
 21
-785.0014000000038
 31
0.0
  0
LINE
  5
2B5D
330
2ED1
100
AcDbEntity
  8
0
 62
     0
100
AcDbLine
 10
-365.0000000000073
 20
-523.1756499327319
 30
0.0
 11
184.8343650965744
 21
-785.0014000000038
 31
0.0
  0
LINE
  5
2B5E
330
2ED1
100
AcDbEntity
  8
0
 62
     0
100
AcDbLine
 10
-365.0000000000091
 20
-513.1756981885971
 30
0.0
 11
205.8342748335635
 21
-785.0014000000038
 31
0.0
  0
LINE
  5
2B5F
330
2ED1
100
AcDbEntity
  8
0
 62
     0
100
AcDbLine
 10
-365.0000000000073
 20
-503.1757464444623
 30
0.0
 11
226.8341845705527
 21
-785.0014000000016
 31
0.0
  0
LINE
  5
2B60
330
2ED1
100
AcDbEntity
  8
0
 62
     0
100
AcDbLine
 10
-365.0000000000073
 20
-493.1757947003279
 30
0.0
 11
247.83409430754
 21
-785.0014000000001
 31
0.0
  0
LINE
  5
2B61
330
2ED1
100
AcDbEntity
  8
0
 62
     0
100
AcDbLine
 10
-365.0000000000073
 20
-483.1758429561951
 30
0.0
 11
268.8340040445309
 21
-785.0014000000016
 31
0.0
  0
LINE
  5
2B62
330
2ED1
100
AcDbEntity
  8
0
 62
     0
100
AcDbLine
 10
-365.0000000000091
 20
-473.1758912120595
 30
0.0
 11
289.8339137815221
 21
-785.0014000000016
 31
0.0
  0
LINE
  5
2B63
330
2ED1
100
AcDbEntity
  8
0
 62
     0
100
AcDbLine
 10
-365.0000000000073
 20
-463.1759394679257
 30
0.0
 11
310.8338235185147
 21
-785.0014000000016
 31
0.0
  0
LINE
  5
2B64
330
2ED1
100
AcDbEntity
  8
0
 62
     0
100
AcDbLine
 10
-365.0000000000091
 20
-453.1759877237901
 30
0.0
 11
331.8337332555038
 21
-785.0014000000016
 31
0.0
  0
LINE
  5
2B65
330
2ED1
100
AcDbEntity
  8
0
 62
     0
100
AcDbLine
 10
-365.0000000000073
 20
-443.1760359796554
 30
0.0
 11
352.8336429924967
 21
-785.0014000000016
 31
0.0
  0
LINE
  5
2B66
330
2ED1
100
AcDbEntity
  8
0
 62
     0
100
AcDbLine
 10
-365.0000000000073
 20
-433.1760842355205
 30
0.0
 11
364.9999999999945
 21
-780.7949485375647
 31
0.0
  0
LINE
  5
2B67
330
2ED1
100
AcDbEntity
  8
0
 62
     0
100
AcDbLine
 10
-365.0000000000073
 20
-423.1761324913876
 30
0.0
 11
364.9999999999945
 21
-770.794996793432
 31
0.0
  0
LINE
  5
2B68
330
2ED1
100
AcDbEntity
  8
0
 62
     0
100
AcDbLine
 10
-365.0000000000054
 20
-413.176180747253
 30
0.0
 11
364.9999999999945
 21
-760.795045049297
 31
0.0
  0
LINE
  5
2B69
330
2ED1
100
AcDbEntity
  8
0
 62
     0
100
AcDbLine
 10
-365.0000000000073
 20
-403.1762290031182
 30
0.0
 11
364.9999999999945
 21
-750.7950933051622
 31
0.0
  0
LINE
  5
2B6A
330
2ED1
100
AcDbEntity
  8
0
 62
     0
100
AcDbLine
 10
-365.0000000000073
 20
-393.1762772589836
 30
0.0
 11
364.9999999999945
 21
-740.7951415610275
 31
0.0
  0
LINE
  5
2B6B
330
2ED1
100
AcDbEntity
  8
0
 62
     0
100
AcDbLine
 10
-365.0000000000073
 20
-383.176325514848
 30
0.0
 11
364.9999999999963
 21
-730.7951898168927
 31
0.0
  0
LINE
  5
2B6C
330
2ED1
100
AcDbEntity
  8
0
 62
     0
100
AcDbLine
 10
-365.0000000000073
 20
-373.1763737707161
 30
0.0
 11
364.9999999999945
 21
-720.7952380727602
 31
0.0
  0
LINE
  5
2B6D
330
2ED1
100
AcDbEntity
  8
0
 62
     0
100
AcDbLine
 10
-365.0000000000073
 20
-363.1764220265814
 30
0.0
 11
364.9999999999927
 21
-710.7952863286246
 31
0.0
  0
LINE
  5
2B6E
330
2ED1
100
AcDbEntity
  8
0
 62
     0
100
AcDbLine
 10
-365.0000000000073
 20
-353.1764702824466
 30
0.0
 11
364.9999999999945
 21
-700.7953345844899
 31
0.0
  0
LINE
  5
2B6F
330
2ED1
100
AcDbEntity
  8
0
 62
     0
100
AcDbLine
 10
-365.0000000000091
 20
-343.1765185383119
 30
0.0
 11
364.9999999999927
 21
-690.795382840355
 31
0.0
  0
LINE
  5
2B70
330
2ED1
100
AcDbEntity
  8
0
 62
     0
100
AcDbLine
 10
-365.0000000000073
 20
-333.1765667941772
 30
0.0
 11
364.9999999999945
 21
-680.7954310962204
 31
0.0
  0
LINE
  5
2B71
330
2ED1
100
AcDbEntity
  8
0
 62
     0
100
AcDbLine
 10
-365.0000000000073
 20
-323.1766150500444
 30
0.0
 11
364.9999999999945
 21
-670.7954793520874
 31
0.0
  0
LINE
  5
2B72
330
2ED1
100
AcDbEntity
  8
0
 62
     0
100
AcDbLine
 10
-365.0000000000073
 20
-313.1766633059096
 30
0.0
 11
364.9999999999927
 21
-660.7955276079536
 31
0.0
  0
LINE
  5
2B73
330
2ED1
100
AcDbEntity
  8
0
 62
     0
100
AcDbLine
 10
-365.0000000000073
 20
-303.1767115617749
 30
0.0
 11
364.9999999999945
 21
-650.7955758638189
 31
0.0
  0
LINE
  5
2B74
330
2ED1
100
AcDbEntity
  8
0
 62
     0
100
AcDbLine
 10
-365.0000000000091
 20
-293.1767598176392
 30
0.0
 11
364.9999999999945
 21
-640.7956241196842
 31
0.0
  0
LINE
  5
2B75
330
2ED1
100
AcDbEntity
  8
0
 62
     0
100
AcDbLine
 10
-365.0000000000073
 20
-283.1768080735055
 30
0.0
 11
364.9999999999945
 21
-630.7956723755496
 31
0.0
  0
LINE
  5
2B76
330
2ED1
100
AcDbEntity
  8
0
 62
     0
100
AcDbLine
 10
-365.0000000000073
 20
-273.1768563293699
 30
0.0
 11
364.9999999999945
 21
-620.7957206314141
 31
0.0
  0
LINE
  5
2B77
330
2ED1
100
AcDbEntity
  8
0
 62
     0
100
AcDbLine
 10
-365.0000000000073
 20
-263.176904585237
 30
0.0
 11
364.9999999999945
 21
-610.795768887282
 31
0.0
  0
LINE
  5
2B78
330
2ED1
100
AcDbEntity
  8
0
 62
     0
100
AcDbLine
 10
-365.0000000000073
 20
-253.1769528411023
 30
0.0
 11
364.9999999999945
 21
-600.7958171431465
 31
0.0
  0
LINE
  5
2B79
330
2ED1
100
AcDbEntity
  8
0
 62
     0
100
AcDbLine
 10
-365.0000000000073
 20
-243.1770010969676
 30
0.0
 11
364.9999999999945
 21
-590.7958653990117
 31
0.0
  0
LINE
  5
2B7A
330
2ED1
100
AcDbEntity
  8
0
 62
     0
100
AcDbLine
 10
-365.0000000000073
 20
-233.1770493528329
 30
0.0
 11
364.9999999999945
 21
-580.795913654877
 31
0.0
  0
LINE
  5
2B7B
330
2ED1
100
AcDbEntity
  8
0
 62
     0
100
AcDbLine
 10
-365.0000000000073
 20
-223.1770976086982
 30
0.0
 11
364.9999999999945
 21
-570.7959619107423
 31
0.0
  0
LINE
  5
2B7C
330
2ED1
100
AcDbEntity
  8
0
 62
     0
100
AcDbLine
 10
-365.0000000000054
 20
-213.1771458645653
 30
0.0
 11
364.9999999999945
 21
-560.7960101666094
 31
0.0
  0
LINE
  5
2B7D
330
2ED1
100
AcDbEntity
  8
0
 62
     0
100
AcDbLine
 10
-365.0000000000091
 20
-203.1771941204297
 30
0.0
 11
364.9999999999945
 21
-550.7960584224747
 31
0.0
  0
LINE
  5
2B7E
330
2ED1
100
AcDbEntity
  8
0
 62
     0
100
AcDbLine
 10
-365.0000000000073
 20
-193.1772423762959
 30
0.0
 11
364.9999999999945
 21
-540.79610667834
 31
0.0
  0
LINE
  5
2B7F
330
2ED1
100
AcDbEntity
  8
0
 62
     0
100
AcDbLine
 10
-365.0000000000073
 20
-183.1772906321601
 30
0.0
 11
364.9999999999945
 21
-530.7961549342044
 31
0.0
  0
LINE
  5
2B80
330
2ED1
100
AcDbEntity
  8
0
 62
     0
100
AcDbLine
 10
-365.0000000000091
 20
-173.1773388880256
 30
0.0
 11
364.9999999999945
 21
-520.7962031900706
 31
0.0
  0
LINE
  5
2B81
330
2ED1
100
AcDbEntity
  8
0
 62
     0
100
AcDbLine
 10
-356.9695701187864
 20
-167.0013993564498
 30
0.0
 11
364.9999999999945
 21
-510.7962514459351
 31
0.0
  0
LINE
  5
2B82
330
2ED1
100
AcDbEntity
  8
0
 62
     0
100
AcDbLine
 10
-335.9696603130124
 20
-167.0013993892044
 30
0.0
 11
364.9999999999945
 21
-500.7962997018021
 31
0.0
  0
LINE
  5
2B83
330
2ED1
100
AcDbEntity
  8
0
 62
     0
100
AcDbLine
 10
-314.9697505072327
 20
-167.0013994219616
 30
0.0
 11
364.9999999999927
 21
-490.7963479576674
 31
0.0
  0
LINE
  5
2B84
330
2ED1
100
AcDbEntity
  8
0
 62
     0
100
AcDbLine
 10
-293.9698407014566
 20
-167.0013994547153
 30
0.0
 11
364.9999999999963
 21
-480.7963962135326
 31
0.0
  0
LINE
  5
2B85
330
2ED1
100
AcDbEntity
  8
0
 62
     0
100
AcDbLine
 10
-272.9699308956861
 20
-167.0013994874671
 30
0.0
 11
364.9999999999945
 21
-470.7964444693979
 31
0.0
  0
LINE
  5
2B86
330
2ED1
100
AcDbEntity
  8
0
 62
     0
100
AcDbLine
 10
149.1999999999916
 20
-358.0346421548775
 30
0.0
 11
155.0101955520676
 21
-360.8014004825291
 31
0.0
  0
LINE
  5
2B87
330
2ED1
100
AcDbEntity
  8
0
 62
     0
100
AcDbLine
 10
155.0101955520695
 20
-360.80140048253
 30
0.0
 11
364.9999999999945
 21
-460.7964927252631
 31
0.0
  0
LINE
  5
2B88
330
2ED1
100
AcDbEntity
  8
0
 62
     0
100
AcDbLine
 10
-251.97002108991
 20
-167.0013995202224
 30
0.0
 11
149.1999999999916
 21
-358.0346421548775
 31
0.0
  0
LINE
  5
2B89
330
2ED1
100
AcDbEntity
  8
0
 62
     0
100
AcDbLine
 10
149.1999999999934
 20
-348.0346904107445
 30
0.0
 11
176.0101052890604
 21
-360.8014004825309
 31
0.0
  0
LINE
  5
2B8A
330
2ED1
100
AcDbEntity
  8
0
 62
     0
100
AcDbLine
 10
176.0101052890622
 20
-360.8014004825317
 30
0.0
 11
364.9999999999963
 21
-450.7965409811303
 31
0.0
  0
LINE
  5
2B8B
330
2ED1
100
AcDbEntity
  8
0
 62
     0
100
AcDbLine
 10
-230.970111284134
 20
-167.001399552978
 30
0.0
 11
149.1999999999934
 21
-348.0346904107445
 31
0.0
  0
LINE
  5
2B8C
330
2ED1
100
AcDbEntity
  8
0
 62
     0
100
AcDbLine
 10
149.1999999999916
 20
-338.0347386666099
 30
0.0
 11
197.0100150260514
 21
-360.8014004825309
 31
0.0
  0
LINE
  5
2B8D
330
2ED1
100
AcDbEntity
  8
0
 62
     0
100
AcDbLine
 10
197.0100150260532
 20
-360.8014004825317
 30
0.0
 11
364.9999999999945
 21
-440.7965892369957
 31
0.0
  0
LINE
  5
2B8E
330
2ED1
100
AcDbEntity
  8
0
 62
     0
100
AcDbLine
 10
-209.9702014783634
 20
-167.0013995857307
 30
0.0
 11
149.1999999999916
 21
-338.0347386666099
 31
0.0
  0
LINE
  5
2B8F
330
2ED1
100
AcDbEntity
  8
0
 62
     0
100
AcDbLine
 10
149.1999999999934
 20
-328.0347869224752
 30
0.0
 11
218.0099247630423
 21
-360.8014004825309
 31
0.0
  0
LINE
  5
2B90
330
2ED1
100
AcDbEntity
  8
0
 62
     0
100
AcDbLine
 10
218.0099247630442
 20
-360.8014004825309
 30
0.0
 11
364.9999999999963
 21
-430.7966374928619
 31
0.0
  0
LINE
  5
2B91
330
2ED1
100
AcDbEntity
  8
0
 62
     0
100
AcDbLine
 10
-188.9702916725855
 20
-167.0013996184852
 30
0.0
 11
149.1999999999934
 21
-328.0347869224752
 31
0.0
  0
LINE
  5
2B92
330
2ED1
100
AcDbEntity
  8
0
 62
     0
100
AcDbLine
 10
149.1999999999934
 20
-318.0348351783405
 30
0.0
 11
239.0098345000351
 21
-360.80140048253
 31
0.0
  0
LINE
  5
2B93
330
2ED1
100
AcDbEntity
  8
0
 62
     0
100
AcDbLine
 10
239.0098345000351
 20
-360.8014004825309
 30
0.0
 11
364.9999999999945
 21
-420.7966857487263
 31
0.0
  0
LINE
  5
2B94
330
2ED1
100
AcDbEntity
  8
0
 62
     0
100
AcDbLine
 10
-167.9703818668112
 20
-167.0013996512389
 30
0.0
 11
149.1999999999934
 21
-318.0348351783405
 31
0.0
  0
LINE
  5
2B95
330
2ED1
100
AcDbEntity
  8
0
 62
     0
100
AcDbLine
 10
149.1999999999934
 20
-308.0348834342057
 30
0.0
 11
260.0097442370243
 21
-360.80140048253
 31
0.0
  0
LINE
  5
2B96
330
2ED1
100
AcDbEntity
  8
0
 62
     0
100
AcDbLine
 10
260.0097442370261
 20
-360.8014004825309
 30
0.0
 11
364.9999999999945
 21
-410.7967340045916
 31
0.0
  0
LINE
  5
2B97
330
2ED1
100
AcDbEntity
  8
0
 62
     0
100
AcDbLine
 10
-146.9704720610352
 20
-167.0013996839943
 30
0.0
 11
149.1999999999934
 21
-308.0348834342057
 31
0.0
  0
LINE
  5
2B98
330
2ED1
100
AcDbEntity
  8
0
 62
     0
100
AcDbLine
 10
149.1999999999934
 20
-298.0349316900729
 30
0.0
 11
281.0096539740152
 21
-360.8014004825317
 31
0.0
  0
LINE
  5
2B99
330
2ED1
100
AcDbEntity
  8
0
 62
     0
100
AcDbLine
 10
281.009653974017
 20
-360.8014004825327
 30
0.0
 11
364.9999999999945
 21
-400.7967822604586
 31
0.0
  0
LINE
  5
2B9A
330
2ED1
100
AcDbEntity
  8
0
 62
     0
100
AcDbLine
 10
-125.970562255261
 20
-167.0013997167488
 30
0.0
 11
149.1999999999934
 21
-298.0349316900729
 31
0.0
  0
LINE
  5
2B9B
330
2ED1
100
AcDbEntity
  8
0
 62
     0
100
AcDbLine
 10
149.1999999999934
 20
-288.0349799459382
 30
0.0
 11
302.009563711008
 21
-360.8014004825317
 31
0.0
  0
LINE
  5
2B9C
330
2ED1
100
AcDbEntity
  8
0
 62
     0
100
AcDbLine
 10
302.0095637110098
 20
-360.8014004825327
 30
0.0
 11
364.9999999999945
 21
-390.796830516324
 31
0.0
  0
LINE
  5
2B9D
330
2ED1
100
AcDbEntity
  8
0
 62
     0
100
AcDbLine
 10
-104.970652449485
 20
-167.0013997495034
 30
0.0
 11
149.1999999999916
 21
-288.0349799459372
 31
0.0
  0
LINE
  5
2B9E
330
2ED1
100
AcDbEntity
  8
0
 62
     0
100
AcDbLine
 10
149.1999999999934
 20
-278.0350282018035
 30
0.0
 11
323.0094734479935
 21
-360.80140048253
 31
0.0
  0
LINE
  5
2B9F
330
2ED1
100
AcDbEntity
  8
0
 62
     0
100
AcDbLine
 10
323.0094734479953
 20
-360.8014004825309
 30
0.0
 11
364.9999999999945
 21
-380.7968787721894
 31
0.0
  0
LINE
  5
2BA0
330
2ED1
100
AcDbEntity
  8
0
 62
     0
100
AcDbLine
 10
-83.97074264371259
 20
-167.0013997822571
 30
0.0
 11
149.1999999999916
 21
-278.0350282018026
 31
0.0
  0
LINE
  5
2BA1
330
2ED1
100
AcDbEntity
  8
0
 62
     0
100
AcDbLine
 10
149.1999999999916
 20
-268.0350764576679
 30
0.0
 11
344.0093831849826
 21
-360.8014004825282
 31
0.0
  0
LINE
  5
2BA2
330
2ED1
100
AcDbEntity
  8
0
 62
     0
100
AcDbLine
 10
344.0093831849845
 20
-360.8014004825291
 30
0.0
 11
364.9999999999945
 21
-370.7969270280547
 31
0.0
  0
LINE
  5
2BA3
330
2ED1
100
AcDbEntity
  8
0
 62
     0
100
AcDbLine
 10
-62.97083283794018
 20
-167.0013998150098
 30
0.0
 11
149.1999999999916
 21
-268.0350764576679
 31
0.0
  0
LINE
  5
2BA4
330
2ED1
100
AcDbEntity
  8
0
 62
     0
100
AcDbLine
 10
149.1999999999934
 20
-258.0351247135332
 30
0.0
 11
364.9999999999963
 21
-360.7969752839199
 31
0.0
  0
LINE
  5
2BA5
330
2ED1
100
AcDbEntity
  8
0
 62
     0
100
AcDbLine
 10
-41.97092303216232
 20
-167.0013998477643
 30
0.0
 11
149.1999999999898
 21
-258.0351247135321
 31
0.0
  0
LINE
  5
2BA6
330
2ED1
100
AcDbEntity
  8
0
 62
     0
100
AcDbLine
 10
149.1999999999916
 20
-248.0351729693984
 30
0.0
 11
364.9999999999927
 21
-350.7970235397842
 31
0.0
  0
LINE
  5
2BA7
330
2ED1
100
AcDbEntity
  8
0
 62
     0
100
AcDbLine
 10
-20.97101322638991
 20
-167.0013998805179
 30
0.0
 11
149.199999999988
 21
-248.0351729693975
 31
0.0
  0
LINE
  5
2BA8
330
2ED1
100
AcDbEntity
  8
0
 62
     0
100
AcDbLine
 10
149.1999999999916
 20
-238.0352212252665
 30
0.0
 11
364.9999999999945
 21
-340.7970717956523
 31
0.0
  0
LINE
  5
2BA9
330
2ED1
100
AcDbEntity
  8
0
 62
     0
100
AcDbLine
 10
0.028896579387947
 20
-167.0013999132752
 30
0.0
 11
149.1999999999898
 21
-238.0352212252645
 31
0.0
  0
LINE
  5
2BAA
330
2ED1
100
AcDbEntity
  8
0
 62
     0
100
AcDbLine
 10
149.1999999999934
 20
-228.0352694811317
 30
0.0
 11
364.9999999999945
 21
-330.7971200515167
 31
0.0
  0
LINE
  5
2BAB
330
2ED1
100
AcDbEntity
  8
0
 62
     0
100
AcDbLine
 10
21.02880638516217
 20
-167.0013999460288
 30
0.0
 11
149.1999999999898
 21
-228.0352694811299
 31
0.0
  0
LINE
  5
2BAC
330
2ED1
100
AcDbEntity
  8
0
 62
     0
100
AcDbLine
 10
149.1999999999916
 20
-218.035317736997
 30
0.0
 11
364.9999999999927
 21
-320.797168307382
 31
0.0
  0
LINE
  5
2BAD
330
2ED1
100
AcDbEntity
  8
0
 62
     0
100
AcDbLine
 10
42.02871619093636
 20
-167.0013999787825
 30
0.0
 11
149.1999999999862
 21
-218.0353177369943
 31
0.0
  0
LINE
  5
2BAE
330
2ED1
100
AcDbEntity
  8
0
 62
     0
100
AcDbLine
 10
149.1999999999952
 20
-208.0353659928623
 30
0.0
 11
364.9999999999963
 21
-310.7972165632473
 31
0.0
  0
LINE
  5
2BAF
330
2ED1
100
AcDbEntity
  8
0
 62
     0
100
AcDbLine
 10
63.02862599671242
 20
-167.0014000115361
 30
0.0
 11
149.1999999999916
 21
-208.0353659928604
 31
0.0
  0
LINE
  5
2BB0
330
2ED1
100
AcDbEntity
  8
0
 62
     0
100
AcDbLine
 10
149.1999999999934
 20
-198.0354142487276
 30
0.0
 11
364.9999999999945
 21
-300.7972648191126
 31
0.0
  0
LINE
  5
2BB1
330
2ED1
100
AcDbEntity
  8
0
 62
     0
100
AcDbLine
 10
84.02853580248484
 20
-167.0014000442897
 30
0.0
 11
149.199999999988
 21
-198.0354142487248
 31
0.0
  0
LINE
  5
2BB2
330
2ED1
100
AcDbEntity
  8
0
 62
     0
100
AcDbLine
 10
149.1999999999916
 20
-188.0354625045947
 30
0.0
 11
364.9999999999927
 21
-290.7973130749797
 31
0.0
  0
LINE
  5
2BB3
330
2ED1
100
AcDbEntity
  8
0
 62
     0
100
AcDbLine
 10
105.028445608259
 20
-167.0014000770461
 30
0.0
 11
149.199999999988
 21
-188.035462504592
 31
0.0
  0
LINE
  5
2BB4
330
2ED1
100
AcDbEntity
  8
0
 62
     0
100
AcDbLine
 10
149.1999999999934
 20
-178.0355107604591
 30
0.0
 11
364.9999999999963
 21
-280.797361330845
 31
0.0
  0
LINE
  5
2BB5
330
2ED1
100
AcDbEntity
  8
0
 62
     0
100
AcDbLine
 10
126.0283554140351
 20
-167.0014001097988
 30
0.0
 11
149.1999999999898
 21
-178.0355107604573
 31
0.0
  0
LINE
  5
2BB6
330
2ED1
100
AcDbEntity
  8
0
 62
     0
100
AcDbLine
 10
149.1999999999934
 20
-168.0355590163253
 30
0.0
 11
364.9999999999945
 21
-270.7974095867103
 31
0.0
  0
LINE
  5
2BB7
330
2ED1
100
AcDbEntity
  8
0
 62
     0
100
AcDbLine
 10
147.0282652198075
 20
-167.0014001425525
 30
0.0
 11
149.199999999988
 21
-168.0355590163226
 31
0.0
  0
LINE
  5
2BB8
330
2ED1
100
AcDbEntity
  8
0
 62
     0
100
AcDbLine
 10
168.02817567075
 20
-167.0014004825288
 30
0.0
 11
364.9999999999945
 21
-260.7974578425746
 31
0.0
  0
LINE
  5
2BB9
330
2ED1
100
AcDbEntity
  8
0
 62
     0
100
AcDbLine
 10
189.0280854077373
 20
-167.001400482528
 30
0.0
 11
364.9999999999945
 21
-250.7975060984399
 31
0.0
  0
LINE
  5
2BBA
330
2ED1
100
AcDbEntity
  8
0
 62
     0
100
AcDbLine
 10
210.0279951447283
 20
-167.001400482527
 30
0.0
 11
364.9999999999927
 21
-240.7975543543062
 31
0.0
  0
LINE
  5
2BBB
330
2ED1
100
AcDbEntity
  8
0
 62
     0
100
AcDbLine
 10
231.0279048817192
 20
-167.0014004825288
 30
0.0
 11
364.9999999999945
 21
-230.7976026101733
 31
0.0
  0
LINE
  5
2BBC
330
2ED1
100
AcDbEntity
  8
0
 62
     0
100
AcDbLine
 10
252.027814618712
 20
-167.0014004825288
 30
0.0
 11
364.9999999999945
 21
-220.7976508660385
 31
0.0
  0
LINE
  5
2BBD
330
2ED1
100
AcDbEntity
  8
0
 62
     0
100
AcDbLine
 10
273.0277243557011
 20
-167.0014004825288
 30
0.0
 11
364.9999999999927
 21
-210.7976991219029
 31
0.0
  0
LINE
  5
2BBE
330
2ED1
100
AcDbEntity
  8
0
 62
     0
100
AcDbLine
 10
294.0276340926939
 20
-167.0014004825288
 30
0.0
 11
364.9999999999945
 21
-200.7977473777692
 31
0.0
  0
LINE
  5
2BBF
330
2ED1
100
AcDbEntity
  8
0
 62
     0
100
AcDbLine
 10
315.0275438296849
 20
-167.0014004825288
 30
0.0
 11
364.9999999999945
 21
-190.7977956336335
 31
0.0
  0
LINE
  5
2BC0
330
2ED1
100
AcDbEntity
  8
0
 62
     0
100
AcDbLine
 10
336.027453566674
 20
-167.0014004825307
 30
0.0
 11
364.9999999999927
 21
-180.7978438895004
 31
0.0
  0
LINE
  5
2BC1
330
2ED1
100
AcDbEntity
  8
0
 62
     0
100
AcDbLine
 10
357.0273633036669
 20
-167.0014004825307
 30
0.0
 11
364.9999999999927
 21
-170.7978921453658
 31
0.0
  0
ENDBLK
  5
2BC2
330
2ED1
100
AcDbEntity
  8
0
100
AcDbBlockEnd
  0
BLOCK
  5
2ED4
330
2ED3
100
AcDbEntity
  8
0
100
AcDbBlockBegin
  2
*X77
 70
     1
 10
0.0
 20
0.0
 30
0.0
  3
*X77
  1

  0
LINE
  5
2BC5
330
2ED3
100
AcDbEntity
  8
0
 62
     0
100
AcDbLine
 10
354.2232226133128
 20
-785.001399999999
 30
0.0
 11
364.9999999999963
 21
-779.8696039506904
 31
0.0
  0
LINE
  5
2BC6
330
2ED3
100
AcDbEntity
  8
0
 62
     0
100
AcDbLine
 10
333.2233128763219
 20
-785.0014000000001
 30
0.0
 11
365.0
 21
-769.8696522065553
 31
0.0
  0
LINE
  5
2BC7
330
2ED3
100
AcDbEntity
  8
0
 62
     0
100
AcDbLine
 10
312.2234031393309
 20
-785.001400000001
 30
0.0
 11
365.0
 21
-759.8697004624222
 31
0.0
  0
LINE
  5
2BC8
330
2ED3
100
AcDbEntity
  8
0
 62
     0
100
AcDbLine
 10
291.22349340234
 20
-785.001400000001
 30
0.0
 11
364.9999999999963
 21
-749.869748718287
 31
0.0
  0
LINE
  5
2BC9
330
2ED3
100
AcDbEntity
  8
0
 62
     0
100
AcDbLine
 10
270.223583665349
 20
-785.001400000001
 30
0.0
 11
364.9999999999963
 21
-739.8697969741532
 31
0.0
  0
LINE
  5
2BCA
330
2ED3
100
AcDbEntity
  8
0
 62
     0
100
AcDbLine
 10
249.223673928358
 20
-785.001400000001
 30
0.0
 11
365.0
 21
-729.8698452300177
 31
0.0
  0
LINE
  5
2BCB
330
2ED3
100
AcDbEntity
  8
0
 62
     0
100
AcDbLine
 10
228.2237641913671
 20
-785.0014000000016
 30
0.0
 11
365.0
 21
-719.869893485883
 31
0.0
  0
LINE
  5
2BCC
330
2ED3
100
AcDbEntity
  8
0
 62
     0
100
AcDbLine
 10
207.2238544543761
 20
-785.0014000000001
 30
0.0
 11
365.0
 21
-709.8699417417492
 31
0.0
  0
LINE
  5
2BCD
330
2ED3
100
AcDbEntity
  8
0
 62
     0
100
AcDbLine
 10
186.2239447173852
 20
-785.001400000001
 30
0.0
 11
365.0
 21
-699.8699899976144
 31
0.0
  0
LINE
  5
2BCE
330
2ED3
100
AcDbEntity
  8
0
 62
     0
100
AcDbLine
 10
165.2240349803905
 20
-785.001400000001
 30
0.0
 11
364.9999999999963
 21
-689.8700382534806
 31
0.0
  0
LINE
  5
2BCF
330
2ED3
100
AcDbEntity
  8
0
 62
     0
100
AcDbLine
 10
144.2241252434032
 20
-785.001400000001
 30
0.0
 11
365.0
 21
-679.8700865093451
 31
0.0
  0
LINE
  5
2BD0
330
2ED3
100
AcDbEntity
  8
0
 62
     0
100
AcDbLine
 10
123.2242155064086
 20
-785.001400000001
 30
0.0
 11
364.9999999999963
 21
-669.8701347652112
 31
0.0
  0
LINE
  5
2BD1
330
2ED3
100
AcDbEntity
  8
0
 62
     0
100
AcDbLine
 10
102.2243057694177
 20
-785.0014000000016
 30
0.0
 11
365.0
 21
-659.8701830210766
 31
0.0
  0
LINE
  5
2BD2
330
2ED3
100
AcDbEntity
  8
0
 62
     0
100
AcDbLine
 10
81.22439603243401
 20
-785.001399999999
 30
0.0
 11
365.0
 21
-649.8702312769419
 31
0.0
  0
LINE
  5
2BD3
330
2ED3
100
AcDbEntity
  8
0
 62
     0
100
AcDbLine
 10
60.22448629544306
 20
-785.001399999999
 30
0.0
 11
364.9999999999963
 21
-639.8702795328081
 31
0.0
  0
LINE
  5
2BD4
330
2ED3
100
AcDbEntity
  8
0
 62
     0
100
AcDbLine
 10
39.2245765584521
 20
-785.001399999999
 30
0.0
 11
364.9999999999963
 21
-629.8703277886744
 31
0.0
  0
LINE
  5
2BD5
330
2ED3
100
AcDbEntity
  8
0
 62
     0
100
AcDbLine
 10
18.22466682146113
 20
-785.001399999999
 30
0.0
 11
365.0
 21
-619.8703760445387
 31
0.0
  0
LINE
  5
2BD6
330
2ED3
100
AcDbEntity
  8
0
 62
     0
100
AcDbLine
 10
-2.775242915529815
 20
-785.0014000000001
 30
0.0
 11
365.0
 21
-609.870424300404
 31
0.0
  0
LINE
  5
2BD7
330
2ED3
100
AcDbEntity
  8
0
 62
     0
100
AcDbLine
 10
-23.77515265252077
 20
-785.001400000001
 30
0.0
 11
364.9999999999963
 21
-599.8704725562711
 31
0.0
  0
LINE
  5
2BD8
330
2ED3
100
AcDbEntity
  8
0
 62
     0
100
AcDbLine
 10
-44.77506238951173
 20
-785.001400000001
 30
0.0
 11
365.0
 21
-589.8705208121355
 31
0.0
  0
LINE
  5
2BD9
330
2ED3
100
AcDbEntity
  8
0
 62
     0
100
AcDbLine
 10
-65.77497212650633
 20
-785.001400000001
 30
0.0
 11
364.9999999999963
 21
-579.8705690680016
 31
0.0
  0
LINE
  5
2BDA
330
2ED3
100
AcDbEntity
  8
0
 62
     0
100
AcDbLine
 10
-86.77488186349362
 20
-785.001400000001
 30
0.0
 11
365.0000000000036
 21
-569.8706173238661
 31
0.0
  0
LINE
  5
2BDB
330
2ED3
100
AcDbEntity
  8
0
 62
     0
100
AcDbLine
 10
-107.7747916004846
 20
-785.0014000000016
 30
0.0
 11
365.0000000000036
 21
-559.8706655797314
 31
0.0
  0
LINE
  5
2BDC
330
2ED3
100
AcDbEntity
  8
0
 62
     0
100
AcDbLine
 10
-128.7747013374792
 20
-785.0014000000016
 30
0.0
 11
365.0
 21
-549.8707138355976
 31
0.0
  0
LINE
  5
2BDD
330
2ED3
100
AcDbEntity
  8
0
 62
     0
100
AcDbLine
 10
-149.7746110744664
 20
-785.001400000003
 30
0.0
 11
365.0000000000036
 21
-539.8707620914628
 31
0.0
  0
LINE
  5
2BDE
330
2ED3
100
AcDbEntity
  8
0
 62
     0
100
AcDbLine
 10
-170.7745208114574
 20
-785.001400000003
 30
0.0
 11
365.0000000000036
 21
-529.8708103473289
 31
0.0
  0
LINE
  5
2BDF
330
2ED3
100
AcDbEntity
  8
0
 62
     0
100
AcDbLine
 10
-191.774430548452
 20
-785.001400000003
 30
0.0
 11
365.0000000000036
 21
-519.8708586031933
 31
0.0
  0
LINE
  5
2BE0
330
2ED3
100
AcDbEntity
  8
0
 62
     0
100
AcDbLine
 10
-212.774340285443
 20
-785.001400000003
 30
0.0
 11
365.0000000000036
 21
-509.8709068590593
 31
0.0
  0
LINE
  5
2BE1
330
2ED3
100
AcDbEntity
  8
0
 62
     0
100
AcDbLine
 10
-233.774250022434
 20
-785.0014000000038
 30
0.0
 11
365.0
 21
-499.8709551149248
 31
0.0
  0
LINE
  5
2BE2
330
2ED3
100
AcDbEntity
  8
0
 62
     0
100
AcDbLine
 10
-254.7741597594249
 20
-785.001400000003
 30
0.0
 11
365.0
 21
-489.8710033707921
 31
0.0
  0
LINE
  5
2BE3
330
2ED3
100
AcDbEntity
  8
0
 62
     0
100
AcDbLine
 10
-275.7740694964086
 20
-785.001400000001
 30
0.0
 11
365.0000000000036
 21
-479.8710516266565
 31
0.0
  0
LINE
  5
2BE4
330
2ED3
100
AcDbEntity
  8
0
 62
     0
100
AcDbLine
 10
-296.7739792334032
 20
-785.001400000001
 30
0.0
 11
365.0000000000036
 21
-469.8710998825208
 31
0.0
  0
LINE
  5
2BE5
330
2ED3
100
AcDbEntity
  8
0
 62
     0
100
AcDbLine
 10
-317.7738889703905
 20
-785.001400000001
 30
0.0
 11
365.0
 21
-459.8711481383871
 31
0.0
  0
LINE
  5
2BE6
330
2ED3
100
AcDbEntity
  8
0
 62
     0
100
AcDbLine
 10
-338.7737987073815
 20
-785.0014000000016
 30
0.0
 11
365.0000000000036
 21
-449.8711963942524
 31
0.0
  0
LINE
  5
2BE7
330
2ED3
100
AcDbEntity
  8
0
 62
     0
100
AcDbLine
 10
-359.7737084443762
 20
-785.001400000001
 30
0.0
 11
365.0
 21
-439.8712446501192
 31
0.0
  0
LINE
  5
2BE8
330
2ED3
100
AcDbEntity
  8
0
 62
     0
100
AcDbLine
 10
-365.0
 20
-777.4901572080289
 30
0.0
 11
365.0000000000036
 21
-429.8712929059838
 31
0.0
  0
LINE
  5
2BE9
330
2ED3
100
AcDbEntity
  8
0
 62
     0
100
AcDbLine
 10
-365.0
 20
-767.4902054638945
 30
0.0
 11
365.0000000000036
 21
-419.8713411618497
 31
0.0
  0
LINE
  5
2BEA
330
2ED3
100
AcDbEntity
  8
0
 62
     0
100
AcDbLine
 10
-365.0
 20
-757.490253719759
 30
0.0
 11
365.0
 21
-409.8713894177143
 31
0.0
  0
LINE
  5
2BEB
330
2ED3
100
AcDbEntity
  8
0
 62
     0
100
AcDbLine
 10
-365.0
 20
-747.4903019756265
 30
0.0
 11
365.0000000000036
 21
-399.8714376735798
 31
0.0
  0
LINE
  5
2BEC
330
2ED3
100
AcDbEntity
  8
0
 62
     0
100
AcDbLine
 10
-364.9999999999963
 20
-737.490350231491
 30
0.0
 11
365.0000000000036
 21
-389.8714859294459
 31
0.0
  0
LINE
  5
2BED
330
2ED3
100
AcDbEntity
  8
0
 62
     0
100
AcDbLine
 10
-365.0
 20
-727.4903984873581
 30
0.0
 11
365.0000000000036
 21
-379.8715341853112
 31
0.0
  0
LINE
  5
2BEE
330
2ED3
100
AcDbEntity
  8
0
 62
     0
100
AcDbLine
 10
-365.0
 20
-717.4904467432225
 30
0.0
 11
365.0000000000036
 21
-369.8715824411774
 31
0.0
  0
LINE
  5
2BEF
330
2ED3
100
AcDbEntity
  8
0
 62
     0
100
AcDbLine
 10
363.047482420825
 20
-360.8014004825291
 30
0.0
 11
365.0
 21
-359.8716306970455
 31
0.0
  0
LINE
  5
2BF0
330
2ED3
100
AcDbEntity
  8
0
 62
     0
100
AcDbLine
 10
-365.0
 20
-707.4904949990885
 30
0.0
 11
363.047482420825
 21
-360.8014004825291
 31
0.0
  0
LINE
  5
2BF1
330
2ED3
100
AcDbEntity
  8
0
 62
     0
100
AcDbLine
 10
342.0475726838304
 20
-360.8014004825291
 30
0.0
 11
364.9999999999963
 21
-349.8716789529098
 31
0.0
  0
LINE
  5
2BF2
330
2ED3
100
AcDbEntity
  8
0
 62
     0
100
AcDbLine
 10
-365.0
 20
-697.490543254953
 30
0.0
 11
342.0475726838304
 21
-360.8014004825291
 31
0.0
  0
LINE
  5
2BF3
330
2ED3
100
AcDbEntity
  8
0
 62
     0
100
AcDbLine
 10
321.0476629468394
 20
-360.8014004825272
 30
0.0
 11
365.0
 21
-339.8717272087742
 31
0.0
  0
LINE
  5
2BF4
330
2ED3
100
AcDbEntity
  8
0
 62
     0
100
AcDbLine
 10
-364.9999999999963
 20
-687.4905915108175
 30
0.0
 11
321.0476629468394
 21
-360.8014004825272
 31
0.0
  0
LINE
  5
2BF5
330
2ED3
100
AcDbEntity
  8
0
 62
     0
100
AcDbLine
 10
300.0477532098448
 20
-360.8014004825291
 30
0.0
 11
364.9999999999963
 21
-329.8717754646424
 31
0.0
  0
LINE
  5
2BF6
330
2ED3
100
AcDbEntity
  8
0
 62
     0
100
AcDbLine
 10
-365.0
 20
-677.4906397666852
 30
0.0
 11
300.0477532098448
 21
-360.8014004825291
 31
0.0
  0
LINE
  5
2BF7
330
2ED3
100
AcDbEntity
  8
0
 62
     0
100
AcDbLine
 10
279.0478434728575
 20
-360.8014004825291
 30
0.0
 11
365.0
 21
-319.8718237205067
 31
0.0
  0
LINE
  5
2BF8
330
2ED3
100
AcDbEntity
  8
0
 62
     0
100
AcDbLine
 10
-365.0
 20
-667.4906880225495
 30
0.0
 11
279.0478434728575
 21
-360.8014004825291
 31
0.0
  0
LINE
  5
2BF9
330
2ED3
100
AcDbEntity
  8
0
 62
     0
100
AcDbLine
 10
258.0479337358702
 20
-360.8014004825272
 30
0.0
 11
365.0
 21
-309.8718719763728
 31
0.0
  0
LINE
  5
2BFA
330
2ED3
100
AcDbEntity
  8
0
 62
     0
100
AcDbLine
 10
-365.0
 20
-657.4907362784158
 30
0.0
 11
258.0479337358702
 21
-360.8014004825272
 31
0.0
  0
LINE
  5
2BFB
330
2ED3
100
AcDbEntity
  8
0
 62
     0
100
AcDbLine
 10
237.0480239988756
 20
-360.8014004825272
 30
0.0
 11
364.9999999999963
 21
-299.8719202322373
 31
0.0
  0
LINE
  5
2BFC
330
2ED3
100
AcDbEntity
  8
0
 62
     0
100
AcDbLine
 10
-365.0
 20
-647.4907845342803
 30
0.0
 11
237.0480239988756
 21
-360.8014004825272
 31
0.0
  0
LINE
  5
2BFD
330
2ED3
100
AcDbEntity
  8
0
 62
     0
100
AcDbLine
 10
216.0481142618883
 20
-360.8014004825291
 30
0.0
 11
364.9999999999963
 21
-289.8719684881053
 31
0.0
  0
LINE
  5
2BFE
330
2ED3
100
AcDbEntity
  8
0
 62
     0
100
AcDbLine
 10
-365.0
 20
-637.4908327901485
 30
0.0
 11
216.0481142618883
 21
-360.8014004825291
 31
0.0
  0
LINE
  5
2BFF
330
2ED3
100
AcDbEntity
  8
0
 62
     0
100
AcDbLine
 10
195.0482045248973
 20
-360.8014004825291
 30
0.0
 11
365.0
 21
-279.8720167439697
 31
0.0
  0
LINE
  5
2C00
330
2ED3
100
AcDbEntity
  8
0
 62
     0
100
AcDbLine
 10
-365.0
 20
-627.4908810460129
 30
0.0
 11
195.0482045248973
 21
-360.8014004825291
 31
0.0
  0
LINE
  5
2C01
330
2ED3
100
AcDbEntity
  8
0
 62
     0
100
AcDbLine
 10
174.0482947879027
 20
-360.8014004825291
 30
0.0
 11
364.9999999999963
 21
-269.8720649998358
 31
0.0
  0
LINE
  5
2C02
330
2ED3
100
AcDbEntity
  8
0
 62
     0
100
AcDbLine
 10
-365.0000000000036
 20
-617.490929301879
 30
0.0
 11
174.0482947879027
 21
-360.8014004825291
 31
0.0
  0
LINE
  5
2C03
330
2ED3
100
AcDbEntity
  8
0
 62
     0
100
AcDbLine
 10
153.0483850509154
 20
-360.8014004825272
 30
0.0
 11
364.9999999999963
 21
-259.8721132557021
 31
0.0
  0
LINE
  5
2C04
330
2ED3
100
AcDbEntity
  8
0
 62
     0
100
AcDbLine
 10
-365.0
 20
-607.4909775577435
 30
0.0
 11
153.0483850509154
 21
-360.8014004825272
 31
0.0
  0
LINE
  5
2C05
330
2ED3
100
AcDbEntity
  8
0
 62
     0
100
AcDbLine
 10
149.2000000000043
 20
-352.6340120819494
 30
0.0
 11
364.9999999999963
 21
-249.8721615115664
 31
0.0
  0
LINE
  5
2C06
330
2ED3
100
AcDbEntity
  8
0
 62
     0
100
AcDbLine
 10
-364.9999999999963
 20
-597.4910258136078
 30
0.0
 11
149.2000000000043
 21
-352.6340120819494
 31
0.0
  0
LINE
  5
2C07
330
2ED3
100
AcDbEntity
  8
0
 62
     0
100
AcDbLine
 10
149.2000000000007
 20
-342.6340603378158
 30
0.0
 11
364.9999999999927
 21
-239.8722097674327
 31
0.0
  0
LINE
  5
2C08
330
2ED3
100
AcDbEntity
  8
0
 62
     0
100
AcDbLine
 10
-365.0
 20
-587.491074069474
 30
0.0
 11
149.2000000000007
 21
-342.6340603378158
 31
0.0
  0
LINE
  5
2C09
330
2ED3
100
AcDbEntity
  8
0
 62
     0
100
AcDbLine
 10
149.2000000000007
 20
-332.6341085936801
 30
0.0
 11
364.9999999999963
 21
-229.872258023297
 31
0.0
  0
LINE
  5
2C0A
330
2ED3
100
AcDbEntity
  8
0
 62
     0
100
AcDbLine
 10
-365.0
 20
-577.4911223253383
 30
0.0
 11
149.2000000000007
 21
-332.6341085936801
 31
0.0
  0
LINE
  5
2C0B
330
2ED3
100
AcDbEntity
  8
0
 62
     0
100
AcDbLine
 10
149.1999999999971
 20
-322.6341568495481
 30
0.0
 11
364.9999999999927
 21
-219.8723062791651
 31
0.0
  0
LINE
  5
2C0C
330
2ED3
100
AcDbEntity
  8
0
 62
     0
100
AcDbLine
 10
-365.0000000000036
 20
-567.4911705812063
 30
0.0
 11
149.1999999999971
 21
-322.6341568495481
 31
0.0
  0
LINE
  5
2C0D
330
2ED3
100
AcDbEntity
  8
0
 62
     0
100
AcDbLine
 10
149.2000000000007
 20
-312.6342051054125
 30
0.0
 11
364.9999999999963
 21
-209.8723545350293
 31
0.0
  0
LINE
  5
2C0E
330
2ED3
100
AcDbEntity
  8
0
 62
     0
100
AcDbLine
 10
-365.0
 20
-557.4912188370708
 30
0.0
 11
149.2000000000007
 21
-312.6342051054125
 31
0.0
  0
LINE
  5
2C0F
330
2ED3
100
AcDbEntity
  8
0
 62
     0
100
AcDbLine
 10
149.2000000000007
 20
-302.6342533612787
 30
0.0
 11
364.9999999999927
 21
-199.8724027908956
 31
0.0
  0
LINE
  5
2C10
330
2ED3
100
AcDbEntity
  8
0
 62
     0
100
AcDbLine
 10
-365.0
 20
-547.491267092937
 30
0.0
 11
149.2000000000007
 21
-302.6342533612787
 31
0.0
  0
LINE
  5
2C11
330
2ED3
100
AcDbEntity
  8
0
 62
     0
100
AcDbLine
 10
149.1999999999971
 20
-292.6343016171431
 30
0.0
 11
364.9999999999927
 21
-189.87245104676
 31
0.0
  0
LINE
  5
2C12
330
2ED3
100
AcDbEntity
  8
0
 62
     0
100
AcDbLine
 10
-365.0
 20
-537.4913153488014
 30
0.0
 11
149.1999999999971
 21
-292.6343016171431
 31
0.0
  0
LINE
  5
2C13
330
2ED3
100
AcDbEntity
  8
0
 62
     0
100
AcDbLine
 10
149.1999999999971
 20
-282.6343498730111
 30
0.0
 11
364.9999999999927
 21
-179.872499302628
 31
0.0
  0
LINE
  5
2C14
330
2ED3
100
AcDbEntity
  8
0
 62
     0
100
AcDbLine
 10
-365.0000000000036
 20
-527.4913636046695
 30
0.0
 11
149.1999999999971
 21
-282.6343498730111
 31
0.0
  0
LINE
  5
2C15
330
2ED3
100
AcDbEntity
  8
0
 62
     0
100
AcDbLine
 10
149.2000000000007
 20
-272.6343981288755
 30
0.0
 11
364.9999999999963
 21
-169.8725475584924
 31
0.0
  0
LINE
  5
2C16
330
2ED3
100
AcDbEntity
  8
0
 62
     0
100
AcDbLine
 10
-365.0
 20
-517.4914118605337
 30
0.0
 11
149.2000000000007
 21
-272.6343981288755
 31
0.0
  0
LINE
  5
2C17
330
2ED3
100
AcDbEntity
  8
0
 62
     0
100
AcDbLine
 10
149.2000000000007
 20
-262.6344463847399
 30
0.0
 11
350.029502302139
 21
-167.0014004825298
 31
0.0
  0
LINE
  5
2C18
330
2ED3
100
AcDbEntity
  8
0
 62
     0
100
AcDbLine
 10
-365.0
 20
-507.491460116398
 30
0.0
 11
149.2000000000007
 21
-262.6344463847399
 31
0.0
  0
LINE
  5
2C19
330
2ED3
100
AcDbEntity
  8
0
 62
     0
100
AcDbLine
 10
149.2000000000007
 20
-252.6344946406061
 30
0.0
 11
329.0295925651481
 21
-167.0014004825298
 31
0.0
  0
LINE
  5
2C1A
330
2ED3
100
AcDbEntity
  8
0
 62
     0
100
AcDbLine
 10
-365.0
 20
-497.4915083722644
 30
0.0
 11
149.2000000000007
 21
-252.6344946406061
 31
0.0
  0
LINE
  5
2C1B
330
2ED3
100
AcDbEntity
  8
0
 62
     0
100
AcDbLine
 10
149.2000000000007
 20
-242.6345428964705
 30
0.0
 11
308.0296828281644
 21
-167.0014004825261
 31
0.0
  0
LINE
  5
2C1C
330
2ED3
100
AcDbEntity
  8
0
 62
     0
100
AcDbLine
 10
-364.9999999999963
 20
-487.4915566281288
 30
0.0
 11
149.2000000000007
 21
-242.6345428964705
 31
0.0
  0
LINE
  5
2C1D
330
2ED3
100
AcDbEntity
  8
0
 62
     0
100
AcDbLine
 10
149.1999999999971
 20
-232.6345911523367
 30
0.0
 11
287.0297730911697
 21
-167.0014004825261
 31
0.0
  0
LINE
  5
2C1E
330
2ED3
100
AcDbEntity
  8
0
 62
     0
100
AcDbLine
 10
-365.0000000000036
 20
-477.491604883995
 30
0.0
 11
149.1999999999971
 21
-232.6345911523367
 31
0.0
  0
LINE
  5
2C1F
330
2ED3
100
AcDbEntity
  8
0
 62
     0
100
AcDbLine
 10
149.2000000000007
 20
-222.6346394082029
 30
0.0
 11
266.0298633541824
 21
-167.001400482528
 31
0.0
  0
LINE
  5
2C20
330
2ED3
100
AcDbEntity
  8
0
 62
     0
100
AcDbLine
 10
-365.0
 20
-467.4916531398612
 30
0.0
 11
149.2000000000007
 21
-222.6346394082029
 31
0.0
  0
LINE
  5
2C21
330
2ED3
100
AcDbEntity
  8
0
 62
     0
100
AcDbLine
 10
149.2000000000007
 20
-212.6346876640691
 30
0.0
 11
245.0299536171915
 21
-167.001400482528
 31
0.0
  0
LINE
  5
2C22
330
2ED3
100
AcDbEntity
  8
0
 62
     0
100
AcDbLine
 10
-365.0
 20
-457.4917013957271
 30
0.0
 11
149.2000000000007
 21
-212.6346876640691
 31
0.0
  0
LINE
  5
2C23
330
2ED3
100
AcDbEntity
  8
0
 62
     0
100
AcDbLine
 10
149.2000000000007
 20
-202.6347359199335
 30
0.0
 11
224.0300438801969
 21
-167.001400482528
 31
0.0
  0
LINE
  5
2C24
330
2ED3
100
AcDbEntity
  8
0
 62
     0
100
AcDbLine
 10
-365.0
 20
-447.4917496515918
 30
0.0
 11
149.2000000000007
 21
-202.6347359199335
 31
0.0
  0
LINE
  5
2C25
330
2ED3
100
AcDbEntity
  8
0
 62
     0
100
AcDbLine
 10
149.2000000000007
 20
-192.6347841757996
 30
0.0
 11
203.030134143206
 21
-167.001400482528
 31
0.0
  0
LINE
  5
2C26
330
2ED3
100
AcDbEntity
  8
0
 62
     0
100
AcDbLine
 10
-365.0
 20
-437.4917979074579
 30
0.0
 11
149.2000000000007
 21
-192.6347841757996
 31
0.0
  0
LINE
  5
2C27
330
2ED3
100
AcDbEntity
  8
0
 62
     0
100
AcDbLine
 10
149.2000000000007
 20
-182.6348324316659
 30
0.0
 11
182.0302244062184
 21
-167.0014004825298
 31
0.0
  0
LINE
  5
2C28
330
2ED3
100
AcDbEntity
  8
0
 62
     0
100
AcDbLine
 10
-365.0
 20
-427.4918461633242
 30
0.0
 11
149.2000000000007
 21
-182.6348324316659
 31
0.0
  0
LINE
  5
2C29
330
2ED3
100
AcDbEntity
  8
0
 62
     0
100
AcDbLine
 10
149.2000000000007
 20
-172.6348806875303
 30
0.0
 11
161.030314669224
 21
-167.001400482528
 31
0.0
  0
LINE
  5
2C2A
330
2ED3
100
AcDbEntity
  8
0
 62
     0
100
AcDbLine
 10
-365.0
 20
-417.4918944191886
 30
0.0
 11
149.2000000000007
 21
-172.6348806875303
 31
0.0
  0
LINE
  5
2C2B
330
2ED3
100
AcDbEntity
  8
0
 62
     0
100
AcDbLine
 10
-365.0
 20
-407.4919426750547
 30
0.0
 11
140.0304056691056
 21
-167.0014001316376
 31
0.0
  0
LINE
  5
2C2C
330
2ED3
100
AcDbEntity
  8
0
 62
     0
100
AcDbLine
 10
-365.0
 20
-397.4919909309192
 30
0.0
 11
119.030496000898
 21
-167.0014000988831
 31
0.0
  0
LINE
  5
2C2D
330
2ED3
100
AcDbEntity
  8
0
 62
     0
100
AcDbLine
 10
-365.0
 20
-387.4920391867854
 30
0.0
 11
98.0305863326903
 21
-167.0014000661285
 31
0.0
  0
LINE
  5
2C2E
330
2ED3
100
AcDbEntity
  8
0
 62
     0
100
AcDbLine
 10
-365.0
 20
-377.4920874426498
 30
0.0
 11
77.03067666448622
 21
-167.001400033374
 31
0.0
  0
LINE
  5
2C2F
330
2ED3
100
AcDbEntity
  8
0
 62
     0
100
AcDbLine
 10
-365.0000000000036
 20
-367.492135698516
 30
0.0
 11
56.03076699627489
 21
-167.0014000006194
 31
0.0
  0
LINE
  5
2C30
330
2ED3
100
AcDbEntity
  8
0
 62
     0
100
AcDbLine
 10
-365.0
 20
-357.4921839543822
 30
0.0
 11
35.03085732807449
 21
-167.0013999678649
 31
0.0
  0
LINE
  5
2C31
330
2ED3
100
AcDbEntity
  8
0
 62
     0
100
AcDbLine
 10
-365.0
 20
-347.4922322102484
 30
0.0
 11
14.03094765986678
 21
-167.0013999351122
 31
0.0
  0
LINE
  5
2C32
330
2ED3
100
AcDbEntity
  8
0
 62
     0
100
AcDbLine
 10
-365.0
 20
-337.4922804661129
 30
0.0
 11
-6.968962008340896
 21
-167.0013999023558
 31
0.0
  0
LINE
  5
2C33
330
2ED3
100
AcDbEntity
  8
0
 62
     0
100
AcDbLine
 10
-365.0
 20
-327.4923287219789
 30
0.0
 11
-27.96887167655223
 21
-167.0013998696049
 31
0.0
  0
LINE
  5
2C34
330
2ED3
100
AcDbEntity
  8
0
 62
     0
100
AcDbLine
 10
-365.0
 20
-317.4923769778471
 30
0.0
 11
-48.96878134475263
 21
-167.0013998368486
 31
0.0
  0
LINE
  5
2C35
330
2ED3
100
AcDbEntity
  8
0
 62
     0
100
AcDbLine
 10
-365.0
 20
-307.4924252337114
 30
0.0
 11
-69.96869101296397
 21
-167.0013998040958
 31
0.0
  0
LINE
  5
2C36
330
2ED3
100
AcDbEntity
  8
0
 62
     0
100
AcDbLine
 10
-365.0
 20
-297.4924734895777
 30
0.0
 11
-90.968600681168
 21
-167.0013997713394
 31
0.0
  0
LINE
  5
2C37
330
2ED3
100
AcDbEntity
  8
0
 62
     0
100
AcDbLine
 10
-364.9999999999963
 20
-287.492521745442
 30
0.0
 11
-111.968510349372
 21
-167.0013997385849
 31
0.0
  0
LINE
  5
2C38
330
2ED3
100
AcDbEntity
  8
0
 62
     0
100
AcDbLine
 10
-365.0000000000036
 20
-277.4925700013082
 30
0.0
 11
-132.9684200175834
 21
-167.0013997058304
 31
0.0
  0
LINE
  5
2C39
330
2ED3
100
AcDbEntity
  8
0
 62
     0
100
AcDbLine
 10
-365.0
 20
-267.4926182571724
 30
0.0
 11
-153.9683296857874
 21
-167.0013996730759
 31
0.0
  0
LINE
  5
2C3A
330
2ED3
100
AcDbEntity
  8
0
 62
     0
100
AcDbLine
 10
-365.0
 20
-257.4926665130406
 30
0.0
 11
-174.9682393539951
 21
-167.0013996403249
 31
0.0
  0
LINE
  5
2C3B
330
2ED3
100
AcDbEntity
  8
0
 62
     0
100
AcDbLine
 10
-365.0
 20
-247.4927147689049
 30
0.0
 11
-195.9681490222028
 21
-167.0013996075686
 31
0.0
  0
LINE
  5
2C3C
330
2ED3
100
AcDbEntity
  8
0
 62
     0
100
AcDbLine
 10
-364.9999999999963
 20
-237.4927630247694
 30
0.0
 11
-216.9680586904069
 21
-167.0013995748159
 31
0.0
  0
LINE
  5
2C3D
330
2ED3
100
AcDbEntity
  8
0
 62
     0
100
AcDbLine
 10
-365.0000000000036
 20
-227.4928112806356
 30
0.0
 11
-237.9679683586146
 21
-167.0013995420594
 31
0.0
  0
LINE
  5
2C3E
330
2ED3
100
AcDbEntity
  8
0
 62
     0
100
AcDbLine
 10
-365.0
 20
-217.4928595365018
 30
0.0
 11
-258.9678780268223
 21
-167.0013995093086
 31
0.0
  0
LINE
  5
2C3F
330
2ED3
100
AcDbEntity
  8
0
 62
     0
100
AcDbLine
 10
-365.0
 20
-207.492907792368
 30
0.0
 11
-279.9677876950263
 21
-167.0013994765522
 31
0.0
  0
LINE
  5
2C40
330
2ED3
100
AcDbEntity
  8
0
 62
     0
100
AcDbLine
 10
-365.0
 20
-197.4929560482324
 30
0.0
 11
-300.967697363234
 21
-167.0013994437977
 31
0.0
  0
LINE
  5
2C41
330
2ED3
100
AcDbEntity
  8
0
 62
     0
100
AcDbLine
 10
-365.0
 20
-187.4930043040986
 30
0.0
 11
-321.9676070314417
 21
-167.0013994110431
 31
0.0
  0
LINE
  5
2C42
330
2ED3
100
AcDbEntity
  8
0
 62
     0
100
AcDbLine
 10
-365.0
 20
-177.4930525599629
 30
0.0
 11
-342.9675166996494
 21
-167.0013993782904
 31
0.0
  0
LINE
  5
2C43
330
2ED3
100
AcDbEntity
  8
0
 62
     0
100
AcDbLine
 10
-365.0000000000036
 20
-167.4931008158291
 30
0.0
 11
-363.9674263678571
 21
-167.0013993455341
 31
0.0
  0
ENDBLK
  5
2C44
330
2ED3
100
AcDbEntity
  8
0
100
AcDbBlockEnd
  0
ENDSEC
  0
SECTION
  2
ENTITIES
  0
TEXT
  5
953
330
2DF2
100
AcDbEntity
  8
OUTLINE
  6
Continuous
 62
     3
100
AcDbText
 10
-418.231467
 20
13.715189
 30
0.0
 40
64.0
  1
 
 41
0.9
100
AcDbText
  0
TEXT
  5
954
330
2DF2
100
AcDbEntity
  8
OUTLINE
  6
Continuous
 62
     3
100
AcDbText
 10
-418.231467
 20
13.715189
 30
0.0
 40
64.0
  1
 
 41
0.9
100
AcDbText
  0
TEXT
  5
955
330
2DF2
100
AcDbEntity
  8
OUTLINE
  6
Continuous
 62
     3
100
AcDbText
 10
1341.41903
 20
-706.0588199999997
 30
0.0
 40
64.0
  1
 
 41
0.9
100
AcDbText
  0
TEXT
  5
956
330
2DF2
100
AcDbEntity
  8
OUTLINE
  6
Continuous
 62
     3
100
AcDbText
 10
1341.41903
 20
-706.0588199999997
 30
0.0
 40
64.0
  1
 
 41
0.9
100
AcDbText
  0
TEXT
  5
957
330
2DF2
100
AcDbEntity
  8
OUTLINE
  6
Continuous
 62
     3
100
AcDbText
 10
1341.41903
 20
-706.0588199999997
 30
0.0
 40
64.0
  1
 
 41
0.9
100
AcDbText
  0
TEXT
  5
958
330
2DF2
100
AcDbEntity
  8
OUTLINE
  6
Continuous
 62
     3
100
AcDbText
 10
1341.41903
 20
-706.0588199999997
 30
0.0
 40
64.0
  1
 
 41
0.9
100
AcDbText
  0
LINE
  5
2CD0
330
2DF2
100
AcDbEntity
  8
DETAIL
100
AcDbLine
 10
-430.601785815481
 20
-150.0013999999983
 30
0.0
 11
-449.4369297420781
 21
-847.8060348500056
 31
0.0
  0
LINE
  5
2CD1
330
2DF2
100
AcDbEntity
  8
DETAIL
100
AcDbLine
 10
-430.0761627032624
 20
-129.5020706637696
 30
0.0
 11
-443.5000000000071
 21
-129.0013999999983
 31
0.0
  0
LINE
  5
2CD2
330
2DF2
100
AcDbEntity
  8
DETAIL
100
AcDbLine
 10
-430.0761627032624
 20
-129.5020706637696
 30
0.0
 11
-449.4369297420781
 21
-847.8060348500266
 31
0.0
  0
LINE
  5
2CD3
330
2DF2
100
AcDbEntity
  8
DETAIL
100
AcDbLine
 10
430.5478299455753
 20
-147.0014005847633
 30
0.0
 11
-430.5747937932609
 21
-147.0013992416434
 31
0.0
  0
LINE
  5
2CD4
330
2DF2
100
AcDbEntity
  8
DETAIL
100
AcDbLine
 10
383.1428326992936
 20
-805.0013999999981
 30
0.0
 11
-385.0000000000036
 21
-805.0013999999993
 31
0.0
  0
LINE
  5
2CD5
330
2DF2
100
AcDbEntity
  8
DETAIL
100
AcDbLine
 10
-362.1610570957127
 20
-919.0999998761901
 30
0.0
 11
362.1610429042921
 21
-919.0999999863144
 31
0.0
  0
LINE
  5
2CD6
330
2DF2
100
AcDbEntity
  8
DETAIL
100
AcDbLine
 10
-362.1610570957127
 20
-918.9927851000406
 30
0.0
 11
-451.1610562738495
 21
-918.9999998626577
 31
0.0
  0
LINE
  5
2CD7
330
2DF2
100
AcDbEntity
  8
OUTLINE
100
AcDbLine
 10
-450.634965905392
 20
-898.0179122745676
 30
0.0
 11
-451.1349519196519
 21
-917.1038896865709
 31
0.0
  0
LINE
  5
2CD8
330
2DF2
100
AcDbEntity
  8
DETAIL
100
AcDbLine
 10
-451.1335819029844
 20
-917.0443681376793
 30
0.0
 11
-449.0021091411945
 21
-835.6796102732229
 31
0.0
  0
LINE
  5
2CD9
330
2DF2
100
AcDbEntity
  8
DETAIL
100
AcDbLine
 10
-415.0000000000036
 20
0.000000000001819
 30
0.0
 11
-425.0000000000036
 21
0.000000000001819
 31
0.0
  0
LINE
  5
2CDA
330
2DF2
100
AcDbEntity
  8
DETAIL
100
AcDbLine
 10
-425.0000000000036
 20
-9.999999999998179
 30
0.0
 11
-425.0000000000036
 21
0.000000000001819
 31
0.0
  0
LINE
  5
2CDB
330
2DF2
100
AcDbEntity
  8
DETAIL
100
AcDbLine
 10
-415.0000000000036
 20
0.000000000001819
 30
0.0
 11
414.9999999999963
 21
0.000000000001819
 31
0.0
  0
LINE
  5
2CDC
330
2DF2
100
AcDbEntity
  8
DETAIL
100
AcDbLine
 10
-425.0000000000036
 20
-9.999999999998179
 30
0.0
 11
424.9999999999963
 21
-9.999999999998179
 31
0.0
  0
LINE
  5
2CDD
330
2DF2
100
AcDbEntity
  8
DETAIL
100
AcDbLine
 10
-386.0000000000036
 20
-129.0009494485257
 30
0.0
 11
-386.0000000000036
 21
-9.999999999998179
 31
0.0
  0
LINE
  5
2CDE
330
2DF2
100
AcDbEntity
  8
NOTE
100
AcDbLine
 10
-400.0000000000036
 20
-12.49999999999818
 30
0.0
 11
-400.0000000000036
 21
12.50000000000182
 31
0.0
  0
CIRCLE
  5
2CDF
330
2DF2
100
AcDbEntity
  8
ARRANGE
100
AcDbCircle
 10
0.0
 20
0.0
 30
0.0
 40
40.0
  0
LINE
  5
2CE0
330
2DF2
100
AcDbEntity
  8
ARRANGE
100
AcDbLine
 10
-19.1963864999052
 20
19.19638649990429
 30
0.0
 11
19.19638649990156
 21
-19.19638649990338
 31
0.0
  0
LINE
  5
2CE1
330
2DF2
100
AcDbEntity
  8
ARRANGE
100
AcDbLine
 10
19.19638649989792
 20
19.1963864999052
 30
0.0
 11
-19.1963864999052
 21
-19.19638649990156
 31
0.0
  0
LINE
  5
2CE2
330
2DF2
100
AcDbEntity
  8
BASIS
100
AcDbLine
 10
-0.000000000003638
 20
25.00000000000182
 30
0.0
 11
-0.000000000003638
 21
-965.9999998626583
 31
0.0
  0
LINE
  5
2CE3
330
2DF2
100
AcDbEntity
  8
DETAIL
100
AcDbLine
 10
-385.0000000000036
 20
-805.0013999999993
 30
0.0
 11
-451.1594891083877
 21
-918.9999997356162
 31
0.0
  0
LINE
  5
2CE4
330
2DF2
100
AcDbEntity
  8
DETAIL
100
AcDbLine
 10
-443.5000000000071
 20
-129.0013999999983
 30
0.0
 11
-464.5000000000073
 21
-918.9999998626577
 31
0.0
  0
LINE
  5
2CE5
330
2DF2
100
AcDbEntity
  8
DETAIL
100
AcDbLine
 10
-451.1610562738495
 20
-933.9999998626582
 30
0.0
 11
451.1610562738423
 21
-933.9999998626582
 31
0.0
  0
LINE
  5
2CE6
330
2DF2
100
AcDbEntity
  8
DETAIL
100
AcDbLine
 10
-451.1610562738495
 20
-918.9999998626577
 30
0.0
 11
-451.1610562738495
 21
-940.9999998626583
 31
0.0
  0
LINE
  5
2CE7
330
2DF2
100
AcDbEntity
  8
DETAIL
100
AcDbLine
 10
-451.1610562738495
 20
-918.9999998626577
 30
0.0
 11
-464.5000000000073
 21
-918.9999998626577
 31
0.0
  0
LINE
  5
2CE8
330
2DF2
100
AcDbEntity
  8
DETAIL
100
AcDbLine
 10
-443.5000000000071
 20
-129.0013999999983
 30
0.0
 11
443.4999999999964
 21
-129.0013999999983
 31
0.0
  0
LINE
  5
2CE9
330
2DF2
100
AcDbEntity
  8
DETAIL
100
AcDbLine
 10
-385.0000000000036
 20
-147.0013993127276
 30
0.0
 11
-385.0000000000036
 21
-805.0013999999993
 31
0.0
  0
LINE
  5
2CEA
330
2DF2
100
AcDbEntity
  8
DETAIL
100
AcDbLine
 10
430.6017858154699
 20
-150.0013999999983
 30
0.0
 11
449.4369297420708
 21
-847.8060348500056
 31
0.0
  0
LINE
  5
2CEB
330
2DF2
100
AcDbEntity
  8
DETAIL
100
AcDbLine
 10
430.0761627032551
 20
-129.5020706637696
 30
0.0
 11
443.4999999999964
 21
-129.0013999999983
 31
0.0
  0
LINE
  5
2CEC
330
2DF2
100
AcDbEntity
  8
DETAIL
100
AcDbLine
 10
430.0761627032551
 20
-129.5020706637696
 30
0.0
 11
449.4369297420708
 21
-847.8060348500266
 31
0.0
  0
LINE
  5
2CED
330
2DF2
100
AcDbEntity
  8
DETAIL
100
AcDbLine
 10
362.1610570957055
 20
-918.9927851000406
 30
0.0
 11
451.1610562738423
 21
-918.9999998626577
 31
0.0
  0
LINE
  5
2CEE
330
2DF2
100
AcDbEntity
  8
OUTLINE
100
AcDbLine
 10
450.6349659053811
 20
-898.0179122745676
 30
0.0
 11
451.1349519196445
 21
-917.1038896865709
 31
0.0
  0
LINE
  5
2CEF
330
2DF2
100
AcDbEntity
  8
DETAIL
100
AcDbLine
 10
451.1335819029771
 20
-917.0443681376793
 30
0.0
 11
449.0021091411835
 21
-835.6796102732229
 31
0.0
  0
LINE
  5
2CF0
330
2DF2
100
AcDbEntity
  8
DETAIL
100
AcDbLine
 10
414.9999999999963
 20
0.000000000001819
 30
0.0
 11
424.9999999999963
 21
0.000000000001819
 31
0.0
  0
LINE
  5
2CF1
330
2DF2
100
AcDbEntity
  8
DETAIL
100
AcDbLine
 10
424.9999999999963
 20
-9.999999999998179
 30
0.0
 11
424.9999999999963
 21
0.000000000001819
 31
0.0
  0
LINE
  5
2CF2
330
2DF2
100
AcDbEntity
  8
DETAIL
100
AcDbLine
 10
385.9999999999964
 20
-129.0009494485257
 30
0.0
 11
385.9999999999964
 21
-9.999999999998179
 31
0.0
  0
LINE
  5
2CF3
330
2DF2
100
AcDbEntity
  8
NOTE
100
AcDbLine
 10
399.9999999999964
 20
-12.49999999999818
 30
0.0
 11
399.9999999999964
 21
12.50000000000182
 31
0.0
  0
LINE
  5
2CF4
330
2DF2
100
AcDbEntity
  8
DETAIL
100
AcDbLine
 10
384.9999999999964
 20
-805.0013999999993
 30
0.0
 11
451.1594891083805
 21
-918.9999997356162
 31
0.0
  0
LINE
  5
2CF5
330
2DF2
100
AcDbEntity
  8
DETAIL
100
AcDbLine
 10
443.4999999999964
 20
-129.0013999999983
 30
0.0
 11
464.4999999999964
 21
-918.9999998626577
 31
0.0
  0
LINE
  5
2CF6
330
2DF2
100
AcDbEntity
  8
DETAIL
100
AcDbLine
 10
451.1610562738423
 20
-918.9999998626577
 30
0.0
 11
451.1610562738423
 21
-940.9999998626583
 31
0.0
  0
LINE
  5
2CF7
330
2DF2
100
AcDbEntity
  8
DETAIL
100
AcDbLine
 10
451.1610562738423
 20
-918.9999998626577
 30
0.0
 11
464.4999999999964
 21
-918.9999998626577
 31
0.0
  0
LINE
  5
2CF8
330
2DF2
100
AcDbEntity
  8
DETAIL
100
AcDbLine
 10
384.9999999999964
 20
-147.0013993127276
 30
0.0
 11
384.9999999999964
 21
-805.0013999999993
 31
0.0
  0
LINE
  5
2CF9
330
2DF2
100
AcDbEntity
  8
DETAIL
100
AcDbLine
 10
-365.0000000000036
 20
-167.0013993439224
 30
0.0
 11
364.9999999999963
 21
-167.0014004825261
 31
0.0
  0
LINE
  5
2CFA
330
2DF2
100
AcDbEntity
  8
DETAIL
100
AcDbLine
 10
-365.0000000000036
 20
-785.001399999999
 30
0.0
 11
364.9999999999963
 21
-785.0013999999982
 31
0.0
  0
LINE
  5
2CFB
330
2DF2
100
AcDbEntity
  8
DETAIL
100
AcDbLine
 10
-365.0000000000036
 20
-167.0013993439224
 30
0.0
 11
-365.0000000000036
 21
-785.001399999999
 31
0.0
  0
LINE
  5
2CFC
330
2DF2
100
AcDbEntity
  8
DETAIL
100
AcDbLine
 10
364.9999999999963
 20
-167.0014004825261
 30
0.0
 11
364.9999999999963
 21
-785.0013999999982
 31
0.0
  0
LINE
  5
2CFD
330
2DF2
100
AcDbEntity
  8
DETAIL
100
AcDbLine
 10
-451.1610562738495
 20
-940.9999998626583
 30
0.0
 11
451.1610562738423
 21
-940.9999998626583
 31
0.0
  0
INSERT
  5
2CFE
330
2DF2
100
AcDbEntity
  8
0
100
AcDbBlockReference
  2
*U74
 10
-0.000000000003638
 20
0.0000000000022737
 30
0.0
1001
ACAD
1000
DSTYLE
1002
{
1070
    41
1040
12.0
1070
    42
1040
20.0
1070
    43
1040
200.0
1070
    44
1040
20.0
1070
    73
1070
     0
1070
    74
1070
     0
1070
    77
1070
     1
1070
    78
1070
     8
1070
   140
1040
64.0
1070
   147
1040
50.0
1070
   172
1070
     1
1070
   174
1070
     1
1070
   275
1070
     0
1070
   284
1070
     0
1070
   285
1070
     0
1070
   286
1070
     0
1070
   341
1005
0
1070
   342
1005
0
1002
}
  0
INSERT
  5
2CFF
330
2DF2
100
AcDbEntity
  8
0
100
AcDbBlockReference
  2
*U75
 10
-0.000000000003638
 20
0.0000000000022737
 30
0.0
  0
LINE
  5
2D00
330
2DF2
100
AcDbEntity
  8
NOTE
100
AcDbLine
 39
50.0
 10
387.4999999999964
 20
0.000000000001819
 30
0.0
 11
412.4999999999963
 21
0.000000000001819
 31
0.0
  0
LINE
  5
2D01
330
2DF2
100
AcDbEntity
  8
NOTE
100
AcDbLine
 39
50.0
 10
-412.5000000000036
 20
0.000000000001819
 30
0.0
 11
-387.5000000000036
 21
0.000000000001819
 31
0.0
  0
LINE
  5
2D02
330
2DF2
100
AcDbEntity
  8
OUTLINE
100
AcDbLine
 10
-430.601785815481
 20
-150.0013999999983
 30
0.0
 11
-449.4369297420781
 21
-847.8060348500056
 31
0.0
  0
LINE
  5
2D03
330
2DF2
100
AcDbEntity
  8
OUTLINE
100
AcDbLine
 10
-430.0761627032624
 20
-129.5020706637696
 30
0.0
 11
-443.5000000000071
 21
-129.0013999999983
 31
0.0
  0
LINE
  5
2D04
330
2DF2
100
AcDbEntity
  8
OUTLINE
100
AcDbLine
 10
-430.0761627032624
 20
-129.5020706637696
 30
0.0
 11
-449.4369297420781
 21
-847.8060348500266
 31
0.0
  0
LINE
  5
2D05
330
2DF2
100
AcDbEntity
  8
OUTLINE
100
AcDbLine
 10
430.5478299455753
 20
-147.0014005847633
 30
0.0
 11
-430.5747937932609
 21
-147.0013992416434
 31
0.0
  0
LINE
  5
2D06
330
2DF2
100
AcDbEntity
  8
OUTLINE
100
AcDbLine
 10
383.1428326992936
 20
-805.0013999999981
 30
0.0
 11
-385.0000000000036
 21
-805.0013999999993
 31
0.0
  0
LINE
  5
2D07
330
2DF2
100
AcDbEntity
  8
OUTLINE
100
AcDbLine
 10
-362.1610570957127
 20
-919.0999998761901
 30
0.0
 11
362.1610429042921
 21
-919.0999999863144
 31
0.0
  0
LINE
  5
2D08
330
2DF2
100
AcDbEntity
  8
OUTLINE
100
AcDbLine
 10
-362.1610570957127
 20
-918.9927851000406
 30
0.0
 11
-451.1610562738495
 21
-918.9999998626577
 31
0.0
  0
LINE
  5
2D09
330
2DF2
100
AcDbEntity
  8
OUTLINE
100
AcDbLine
 10
-451.1335819029844
 20
-917.0443681376793
 30
0.0
 11
-449.0021091411945
 21
-835.6796102732229
 31
0.0
  0
LINE
  5
2D0A
330
2DF2
100
AcDbEntity
  8
OUTLINE
100
AcDbLine
 10
-425.0000000000036
 20
-9.999999999998179
 30
0.0
 11
424.9999999999963
 21
-9.999999999998179
 31
0.0
  0
LINE
  5
2D0B
330
2DF2
100
AcDbEntity
  8
OUTLINE
100
AcDbLine
 10
-386.0000000000036
 20
-129.0009494485257
 30
0.0
 11
-386.0000000000036
 21
-9.999999999998179
 31
0.0
  0
LINE
  5
2D0C
330
2DF2
100
AcDbEntity
  8
OUTLINE
100
AcDbLine
 10
-385.0000000000036
 20
-805.0013999999993
 30
0.0
 11
-451.1594891083877
 21
-918.9999997356162
 31
0.0
  0
LINE
  5
2D0D
330
2DF2
100
AcDbEntity
  8
OUTLINE
100
AcDbLine
 10
-443.5000000000071
 20
-129.0013999999983
 30
0.0
 11
-464.5000000000073
 21
-918.9999998626577
 31
0.0
  0
LINE
  5
2D0E
330
2DF2
100
AcDbEntity
  8
OUTLINE
100
AcDbLine
 10
-451.1610562738495
 20
-933.9999998626582
 30
0.0
 11
451.1610562738423
 21
-933.9999998626582
 31
0.0
  0
LINE
  5
2D0F
330
2DF2
100
AcDbEntity
  8
OUTLINE
100
AcDbLine
 10
-451.1610562738495
 20
-918.9999998626577
 30
0.0
 11
-451.1610562738495
 21
-940.9999998626583
 31
0.0
  0
LINE
  5
2D10
330
2DF2
100
AcDbEntity
  8
OUTLINE
100
AcDbLine
 10
-451.1610562738495
 20
-918.9999998626577
 30
0.0
 11
-464.5000000000073
 21
-918.9999998626577
 31
0.0
  0
LINE
  5
2D11
330
2DF2
100
AcDbEntity
  8
OUTLINE
100
AcDbLine
 10
-443.5000000000071
 20
-129.0013999999983
 30
0.0
 11
443.4999999999964
 21
-129.0013999999983
 31
0.0
  0
LINE
  5
2D12
330
2DF2
100
AcDbEntity
  8
OUTLINE
100
AcDbLine
 10
-385.0000000000036
 20
-147.0013993127276
 30
0.0
 11
-385.0000000000036
 21
-805.0013999999993
 31
0.0
  0
LINE
  5
2D13
330
2DF2
100
AcDbEntity
  8
OUTLINE
100
AcDbLine
 10
430.6017858154699
 20
-150.0013999999983
 30
0.0
 11
449.4369297420708
 21
-847.8060348500056
 31
0.0
  0
LINE
  5
2D14
330
2DF2
100
AcDbEntity
  8
OUTLINE
100
AcDbLine
 10
430.0761627032551
 20
-129.5020706637696
 30
0.0
 11
449.4369297420708
 21
-847.8060348500266
 31
0.0
  0
LINE
  5
2D15
330
2DF2
100
AcDbEntity
  8
OUTLINE
100
AcDbLine
 10
362.1610570957055
 20
-918.9927851000406
 30
0.0
 11
451.1610562738423
 21
-918.9999998626577
 31
0.0
  0
LINE
  5
2D16
330
2DF2
100
AcDbEntity
  8
OUTLINE
100
AcDbLine
 10
451.1335819029771
 20
-917.0443681376793
 30
0.0
 11
449.0021091411835
 21
-835.6796102732229
 31
0.0
  0
LINE
  5
2D17
330
2DF2
100
AcDbEntity
  8
OUTLINE
100
AcDbLine
 10
385.9999999999964
 20
-129.0009494485257
 30
0.0
 11
385.9999999999964
 21
-9.999999999998179
 31
0.0
  0
LINE
  5
2D18
330
2DF2
100
AcDbEntity
  8
OUTLINE
100
AcDbLine
 10
384.9999999999964
 20
-805.0013999999993
 30
0.0
 11
451.1594891083805
 21
-918.9999997356162
 31
0.0
  0
LINE
  5
2D19
330
2DF2
100
AcDbEntity
  8
OUTLINE
100
AcDbLine
 10
443.4999999999964
 20
-129.0013999999983
 30
0.0
 11
464.4999999999964
 21
-918.9999998626577
 31
0.0
  0
LINE
  5
2D1A
330
2DF2
100
AcDbEntity
  8
OUTLINE
100
AcDbLine
 10
451.1610562738423
 20
-918.9999998626577
 30
0.0
 11
451.1610562738423
 21
-940.9999998626583
 31
0.0
  0
LINE
  5
2D1B
330
2DF2
100
AcDbEntity
  8
OUTLINE
100
AcDbLine
 10
451.1610562738423
 20
-918.9999998626577
 30
0.0
 11
464.4999999999964
 21
-918.9999998626577
 31
0.0
  0
LINE
  5
2D1C
330
2DF2
100
AcDbEntity
  8
OUTLINE
100
AcDbLine
 10
384.9999999999964
 20
-147.0013993127276
 30
0.0
 11
384.9999999999964
 21
-805.0013999999993
 31
0.0
  0
LINE
  5
2D1D
330
2DF2
100
AcDbEntity
  8
OUTLINE
100
AcDbLine
 10
-451.1610562738495
 20
-940.9999998626583
 30
0.0
 11
451.1610562738423
 21
-940.9999998626583
 31
0.0
  0
LINE
  5
2D1E
330
2DF2
100
AcDbEntity
  8
OUTLINE
100
AcDbLine
 10
430.0761627032551
 20
-129.5020706637696
 30
0.0
 11
443.4999999999964
 21
-129.0013999999983
 31
0.0
  0
LINE
  5
2D1F
330
2DF2
100
AcDbEntity
  8
OUTLINE
100
AcDbLine
 10
-415.0000000000036
 20
0.000000000001819
 30
0.0
 11
-425.0000000000036
 21
0.000000000001819
 31
0.0
  0
LINE
  5
2D20
330
2DF2
100
AcDbEntity
  8
OUTLINE
100
AcDbLine
 10
-425.0000000000036
 20
-9.999999999998179
 30
0.0
 11
-425.0000000000036
 21
0.000000000001819
 31
0.0
  0
LINE
  5
2D21
330
2DF2
100
AcDbEntity
  8
OUTLINE
100
AcDbLine
 10
-415.0000000000036
 20
0.000000000001819
 30
0.0
 11
414.9999999999963
 21
0.000000000001819
 31
0.0
  0
LINE
  5
2D22
330
2DF2
100
AcDbEntity
  8
OUTLINE
100
AcDbLine
 10
414.9999999999963
 20
0.000000000001819
 30
0.0
 11
424.9999999999963
 21
0.000000000001819
 31
0.0
  0
LINE
  5
2D23
330
2DF2
100
AcDbEntity
  8
OUTLINE
100
AcDbLine
 10
424.9999999999963
 20
-9.999999999998179
 30
0.0
 11
424.9999999999963
 21
0.000000000001819
 31
0.0
  0
LINE
  5
2D24
330
2DF2
100
AcDbEntity
  8
DETAIL
100
AcDbLine
 10
-365.0000000000036
 20
-167.0013993439224
 30
0.0
 11
364.9999999999963
 21
-167.0014004825261
 31
0.0
  0
LINE
  5
2D25
330
2DF2
100
AcDbEntity
  8
DETAIL
100
AcDbLine
 10
-365.0000000000036
 20
-785.001399999999
 30
0.0
 11
364.9999999999963
 21
-785.0013999999982
 31
0.0
  0
LINE
  5
2D26
330
2DF2
100
AcDbEntity
  8
DETAIL
100
AcDbLine
 10
-365.0000000000036
 20
-167.0013993439224
 30
0.0
 11
-365.0000000000036
 21
-785.001399999999
 31
0.0
  0
LINE
  5
2D27
330
2DF2
100
AcDbEntity
  8
DETAIL
100
AcDbLine
 10
364.9999999999963
 20
-167.0014004825261
 30
0.0
 11
364.9999999999963
 21
-785.0013999999982
 31
0.0
  0
INSERT
  5
2D28
330
2DF2
100
AcDbEntity
  8
DETAIL
  6
Continuous
100
AcDbBlockReference
  2
*X76
 10
-0.000000000003638
 20
0.0000000000022737
 30
0.0
1001
ACADANNOTATIVE
1000
AnnotativeData
1002
{
1070
     1
1070
     0
1002
}
1001
ACAD
1000
HATCH
1002
{
1070
    19
1000
LINE
1040
72.22849999999998
1040
5.838766301980094
1000
R14_HATCH_DATA
1000
681A
1011
0.999999999996362
1021
0.0000000000022737
1031
0.0
1011
-0.000000000003638
1021
1.000000000002273
1031
0.0
1011
-0.000000000003638
1021
0.0000000000022737
1031
1.0
1040
0.0
1010
0.0
1020
0.0
1030
1.0
1000
LINE
1070
     0
1070
     0
1071
        2
1071
        7
1070
     0
1070
     1
1071
        6
1040
365.0
1040
-360.8014004825295
1040
149.2000000000007
1040
-360.8014004825295
1040
149.1999999999971
1040
-167.001400145939
1040
-365.0
1040
-167.0013993439247
1040
-365.0
1040
-785.0014000000012
1040
365.0
1040
-785.0014000000003
1071
        0
1071
       23
1070
     0
1070
     1
1071
        4
1040
365.0
1040
-360.8014004825295
1040
365.0
1040
-167.0014004825284
1040
149.2000000000007
1040
-167.0014004825284
1040
149.2000000000007
1040
-360.8014004825286
1071
        0
1070
     0
1070
     1
1040
5.838766301980094
1040
72.22849999999998
1070
     0
1070
     1
1040
5.838766301980094
1040
20009.4439466262
1040
4714.641207157744
1040
3.881680532789153
1040
8.151533417570705
1070
     0
1040
2.562693162914893
1071
        2
1040
-208.5447717133575
1040
-391.3535822343234
1040
0.0
1040
263.3751664770971
1040
-283.7027190849326
1040
0.0
1002
}
  0
INSERT
  5
2D29
330
2DF2
100
AcDbEntity
  8
DETAIL
  6
Continuous
100
AcDbBlockReference
  2
*X77
 10
-0.000000000003638
 20
0.0000000000022737
 30
0.0
1001
ACADANNOTATIVE
1000
AnnotativeData
1002
{
1070
     1
1070
     0
1002
}
1001
ACAD
1000
HATCH
1002
{
1070
    19
1000
LINE
1040
72.22849999999998
1040
0.4444190051994898
1000
R14_HATCH_DATA
1000
6820
1011
0.999999999996362
1021
0.0000000000022737
1031
0.0
1011
-0.000000000003638
1021
1.000000000002273
1031
0.0
1011
-0.000000000003638
1021
0.0000000000022737
1031
1.0
1040
0.0
1010
0.0
1020
0.0
1030
1.0
1000
LINE
1070
     0
1070
     0
1071
        2
1071
        7
1070
     0
1070
     1
1071
        6
1040
149.2000000000007
1040
-167.001400145939
1040
-365.0
1040
-167.0013993439247
1040
-365.0
1040
-785.0014000000012
1040
365.0
1040
-785.0014000000003
1040
365.0000000000036
1040
-360.8014004825286
1040
149.2000000000007
1040
-360.8014004825286
1071
        0
1071
       23
1070
     0
1070
     1
1071
        4
1040
364.9999999999963
1040
-167.0014004825284
1040
149.2000000000007
1040
-167.0014004825284
1040
149.2000000000007
1040
-360.8014004825286
1040
365.0
1040
-360.8014004825286
1071
        0
1070
     0
1070
     1
1040
0.4444190051994898
1040
72.22849999999998
1070
     0
1070
     1
1040
0.4444190051994898
1040
20009.4439466262
1040
4714.641207157744
1040
-3.881680532789157
1040
8.151533417570702
1070
     0
1040
1.780501943060619
1071
        2
1040
-123.4944499865014
1040
-341.8298246890022
1040
0.0
1040
288.3675573120708
1040
-283.325230054746
1040
0.0
1002
}
  0
LINE
  5
2D2A
330
2DF2
100
AcDbEntity
  8
DETAIL
100
AcDbLine
 10
-365.0000000000036
 20
-167.0013993439224
 30
0.0
 11
364.9999999999963
 21
-167.0014004825261
 31
0.0
  0
LINE
  5
2D2B
330
2DF2
100
AcDbEntity
  8
DETAIL
100
AcDbLine
 10
-365.0000000000036
 20
-785.001399999999
 30
0.0
 11
364.9999999999963
 21
-785.0013999999982
 31
0.0
  0
LINE
  5
2D2C
330
2DF2
100
AcDbEntity
  8
DETAIL
100
AcDbLine
 10
-365.0000000000036
 20
-167.0013993439224
 30
0.0
 11
-365.0000000000036
 21
-785.001399999999
 31
0.0
  0
LINE
  5
2D2D
330
2DF2
100
AcDbEntity
  8
DETAIL
100
AcDbLine
 10
364.9999999999963
 20
-167.0014004825261
 30
0.0
 11
364.9999999999963
 21
-785.0013999999982
 31
0.0
  0
TEXT
  5
2D2E
330
2DF2
100
AcDbEntity
  8
ETC
100
AcDbText
 10
714.3793481132452
 20
541.7417056490337
 30
0.0
 40
70.0
  1
QW-70SDBC_6
 41
0.9
100
AcDbText
  0
TEXT
  5
2D2F
330
2DF2
100
AcDbEntity
  8
ETC
100
AcDbText
 10
705.9793481132455
 20
425.075038982367
 30
0.0
 40
70.0
  1
システム部材
 41
0.9
100
AcDbText
  0
TEXT
  5
2D30
330
2DF2
100
AcDbEntity
  8
ETC
100
AcDbText
 10
714.3793481132452
 20
308.4083723157005
 30
0.0
 40
70.0
  1
QW-70SDBC
 41
0.9
100
AcDbText
  0
LINE
  5
2D31
330
2DF2
100
AcDbEntity
  8
SIZE
100
AcDbLine
 10
-425.0000000000036
 20
20.00000000000182
 30
0.0
 11
-425.0000000000036
 21
338.0818371338537
 31
0.0
  0
LINE
  5
2D32
330
2DF2
100
AcDbEntity
  8
SIZE
100
AcDbLine
 10
424.9999999999963
 20
20.00000000000182
 30
0.0
 11
424.9999999999963
 21
338.0818371338537
 31
0.0
  0
LINE
  5
2D33
330
2DF2
100
AcDbEntity
  8
SIZE
100
AcDbLine
 10
-413.0000000000036
 20
318.0818371338537
 30
0.0
 11
412.9999999999963
 21
318.0818371338537
 31
0.0
  0
INSERT
  5
2D34
330
2DF2
100
AcDbEntity
  8
SIZE
100
AcDbBlockReference
  2
_DOTBLANK
 10
-425.0000000000036
 20
318.0818371338537
 30
0.0
 41
12.0
 42
12.0
 43
12.0
 50
180.0
  0
INSERT
  5
2D35
330
2DF2
100
AcDbEntity
  8
SIZE
100
AcDbBlockReference
  2
_DOTBLANK
 10
424.9999999999963
 20
318.0818371338537
 30
0.0
 41
12.0
 42
12.0
 43
12.0
  0
LINE
  5
2D36
330
2DF2
100
AcDbEntity
  8
SIZE
100
AcDbLine
 10
-400.0000000000036
 20
32.50000000000182
 30
0.0
 11
-400.0000000000036
 21
197.3516363077924
 31
0.0
  0
LINE
  5
2D37
330
2DF2
100
AcDbEntity
  8
SIZE
100
AcDbLine
 10
399.9999999999964
 20
32.50000000000182
 30
0.0
 11
399.9999999999964
 21
197.3516363077924
 31
0.0
  0
LINE
  5
2D38
330
2DF2
100
AcDbEntity
  8
SIZE
100
AcDbLine
 10
-388.0000000000036
 20
177.3516363077924
 30
0.0
 11
387.9999999999964
 21
177.3516363077924
 31
0.0
  0
INSERT
  5
2D39
330
2DF2
100
AcDbEntity
  8
SIZE
100
AcDbBlockReference
  2
_DOTBLANK
 10
-400.0000000000036
 20
177.3516363077924
 30
0.0
 41
12.0
 42
12.0
 43
12.0
 50
180.0
  0
INSERT
  5
2D3A
330
2DF2
100
AcDbEntity
  8
SIZE
100
AcDbBlockReference
  2
_DOTBLANK
 10
399.9999999999964
 20
177.3516363077924
 30
0.0
 41
12.0
 42
12.0
 43
12.0
  0
LINE
  5
2D3B
330
2DF2
100
AcDbEntity
  8
SIZE
100
AcDbLine
 10
444.9999999999963
 20
0.000000000001819
 30
0.0
 11
581.6374087284311
 21
0.000000000001819
 31
0.0
  0
LINE
  5
2D3C
330
2DF2
100
AcDbEntity
  8
SIZE
100
AcDbLine
 10
444.9999999999963
 20
-9.999999999998179
 30
0.0
 11
581.6374087284311
 21
-9.999999999998179
 31
0.0
  0
LINE
  5
2D3D
330
2DF2
100
AcDbEntity
  8
SIZE
100
AcDbLine
 10
561.637408728431
 20
12.00000000000182
 30
0.0
 11
561.637408728431
 21
24.00000000000181
 31
0.0
  0
LINE
  5
2D3E
330
2DF2
100
AcDbEntity
  8
SIZE
100
AcDbLine
 10
561.637408728431
 20
-21.99999999999818
 30
0.0
 11
561.637408728431
 21
-136.2857142857124
 31
0.0
  0
INSERT
  5
2D3F
330
2DF2
100
AcDbEntity
  8
SIZE
100
AcDbBlockReference
  2
_DOTBLANK
 10
561.637408728431
 20
0.000000000001819
 30
0.0
 41
12.0
 42
12.0
 43
12.0
 50
270.0
  0
INSERT
  5
2D40
330
2DF2
100
AcDbEntity
  8
SIZE
100
AcDbBlockReference
  2
_DOTBLANK
 10
561.637408728431
 20
-9.999999999998179
 30
0.0
 41
12.0
 42
12.0
 43
12.0
 50
90.0
  0
LINE
  5
2D41
330
2DF2
100
AcDbEntity
  8
SIZE
100
AcDbLine
 10
-484.5000000000071
 20
-918.9999998626577
 30
0.0
 11
-661.3011223985303
 21
-918.9999998626577
 31
0.0
  0
LINE
  5
2D42
330
2DF2
100
AcDbEntity
  8
SIZE
100
AcDbLine
 10
-471.1610562738491
 20
-940.9999998626583
 30
0.0
 11
-661.3011223985303
 21
-940.9999998626583
 31
0.0
  0
LINE
  5
2D43
330
2DF2
100
AcDbEntity
  8
SIZE
100
AcDbLine
 10
-641.3011223985303
 20
-906.9999998626583
 30
0.0
 11
-641.3011223985303
 21
-894.9999998626578
 31
0.0
  0
LINE
  5
2D44
330
2DF2
100
AcDbEntity
  8
SIZE
100
AcDbLine
 10
-641.3011223985303
 20
-952.9999998626577
 30
0.0
 11
-641.3011223985303
 21
-1078.257142719799
 31
0.0
  0
INSERT
  5
2D45
330
2DF2
100
AcDbEntity
  8
SIZE
100
AcDbBlockReference
  2
_DOTBLANK
 10
-641.3011223985303
 20
-918.9999998626577
 30
0.0
 41
12.0
 42
12.0
 43
12.0
 50
270.0
  0
INSERT
  5
2D46
330
2DF2
100
AcDbEntity
  8
SIZE
100
AcDbBlockReference
  2
_DOTBLANK
 10
-641.3011223985303
 20
-940.9999998626583
 30
0.0
 41
12.0
 42
12.0
 43
12.0
 50
90.0
  0
LINE
  5
2D47
330
2DF2
100
AcDbEntity
  8
SIZE
100
AcDbLine
 10
-445.0000000000036
 20
0.000000000001819
 30
0.0
 11
-661.3011223985303
 21
0.000000000001819
 31
0.0
  0
LINE
  5
2D48
330
2DF2
100
AcDbEntity
  8
SIZE
100
AcDbLine
 10
-484.5000000000071
 20
-918.9999998626577
 30
0.0
 11
-661.3011223985303
 21
-918.9999998626577
 31
0.0
  0
LINE
  5
2D49
330
2DF2
100
AcDbEntity
  8
SIZE
100
AcDbLine
 10
-641.3011223985303
 20
-11.99999999999818
 30
0.0
 11
-641.3011223985303
 21
-906.9999998626583
 31
0.0
  0
INSERT
  5
2D4A
330
2DF2
100
AcDbEntity
  8
SIZE
100
AcDbBlockReference
  2
_DOTBLANK
 10
-641.3011223985303
 20
0.000000000001819
 30
0.0
 41
12.0
 42
12.0
 43
12.0
 50
90.0
  0
INSERT
  5
2D4B
330
2DF2
100
AcDbEntity
  8
SIZE
100
AcDbBlockReference
  2
_DOTBLANK
 10
-641.3011223985303
 20
-918.9999998626577
 30
0.0
 41
12.0
 42
12.0
 43
12.0
 50
270.0
  0
LINE
  5
2D4C
330
2DF2
100
AcDbEntity
  8
SIZE
100
AcDbLine
 10
-464.5000000000073
 20
-938.9999998626583
 30
0.0
 11
-464.5000000000073
 21
-1098.282941893284
 31
0.0
  0
LINE
  5
2D4D
330
2DF2
100
AcDbEntity
  8
SIZE
100
AcDbLine
 10
464.4999999999964
 20
-938.9999998626583
 30
0.0
 11
464.4999999999964
 21
-1098.282941893284
 31
0.0
  0
LINE
  5
2D4E
330
2DF2
100
AcDbEntity
  8
SIZE
100
AcDbLine
 10
-452.5000000000073
 20
-1078.282941893282
 30
0.0
 11
452.4999999999963
 21
-1078.282941893282
 31
0.0
  0
INSERT
  5
2D4F
330
2DF2
100
AcDbEntity
  8
SIZE
100
AcDbBlockReference
  2
_DOTBLANK
 10
-464.5000000000073
 20
-1078.282941893282
 30
0.0
 41
12.0
 42
12.0
 43
12.0
 50
180.0
  0
INSERT
  5
2D50
330
2DF2
100
AcDbEntity
  8
SIZE
100
AcDbBlockReference
  2
_DOTBLANK
 10
464.4999999999964
 20
-1078.282941893282
 30
0.0
 41
12.0
 42
12.0
 43
12.0
  0
TEXT
  5
2D51
330
2DF2
100
AcDbEntity
  8
SIZE
100
AcDbText
 10
-72.68571428571795
 20
-1068.282941893282
 30
0.0
 40
64.0
  1
929
 41
0.9
100
AcDbText
  0
TEXT
  5
2D52
330
2DF2
100
AcDbEntity
  8
SIZE
100
AcDbText
 10
-651.3011223985302
 20
-1068.2571427198
 30
0.0
 40
64.0
  1
22
 50
90.0
 41
0.9
100
AcDbText
  0
TEXT
  5
2D53
330
2DF2
100
AcDbEntity
  8
SIZE
100
AcDbText
 10
-651.3011223985302
 20
-526.6999999313281
 30
0.0
 40
64.0
  1
919
 50
90.0
 41
0.9
100
AcDbText
  0
TEXT
  5
2D54
330
2DF2
100
AcDbEntity
  8
SIZE
100
AcDbText
 10
-74.05714285714657
 20
187.3516363077924
 30
0.0
 40
64.0
  1
800
 41
0.9
100
AcDbText
  0
TEXT
  5
2D55
330
2DF2
100
AcDbEntity
  8
SIZE
100
AcDbText
 10
-74.05714285714657
 20
328.0818371338537
 30
0.0
 40
64.0
  1
850
 41
0.9
100
AcDbText
  0
TEXT
  5
2D56
330
2DF2
100
AcDbEntity
  8
SIZE
100
AcDbText
 10
551.6374087284312
 20
-126.2857142857123
 30
0.0
 40
64.0
  1
10
 50
90.0
 41
0.9
100
AcDbText
  0
ENDSEC
  0
SECTION
  2
OBJECTS
  0
DICTIONARY
  5
2D8A
330
0
100
AcDbDictionary
281
     1
  3
ACAD_2007HEADERVARS_RT
350
2FE0
  3
ACAD_COLOR
350
2DE8
  3
ACAD_GROUP
350
2D8B
  3
ACAD_LAYOUT
350
2DE7
  3
ACAD_MATERIAL
350
2D8E
  3
ACAD_MLEADERSTYLE
350
2DEB
  3
ACAD_MLINESTYLE
350
2DE4
  3
ACAD_PLOTSETTINGS
350
2DE6
  3
ACAD_PLOTSTYLENAME
350
2D8C
  3
ACAD_SCALELIST
350
2DB8
  3
ACAD_TABLESTYLE
350
2DE9
  3
ACAD_VISUALSTYLE
350
2DA7
  3
ACDB_RECOMPOSE_DATA
350
2FDE
  3
AcDbVariableDictionary
350
2FD5
  3
AcmDictionary
350
2F88
  3
AMG
350
2ED5
  3
DWGPROPS
350
2FDF
  3
MAPISURF_MODULE
350
2F55
  0
DICTIONARY
  5
2FB0
330
2DDA
100
AcDbDictionary
280
     1
281
     1
  3
ADSK_XREC_LAYER_RECONCILED
360
2FB1
  0
DICTIONARY
  5
2FB2
330
2E09
100
AcDbDictionary
280
     1
281
     1
  3
ADSK_XREC_LAYER_RECONCILED
360
2FB3
  0
DICTIONARY
  5
2FB4
330
2E0A
100
AcDbDictionary
280
     1
281
     1
  3
ADSK_XREC_LAYER_RECONCILED
360
2FB5
  0
DICTIONARY
  5
2FB6
330
2E0B
100
AcDbDictionary
280
     1
281
     1
  3
ADSK_XREC_LAYER_RECONCILED
360
2FB7
  0
DICTIONARY
  5
2FB8
330
2E0C
100
AcDbDictionary
280
     1
281
     1
  3
ADSK_XREC_LAYER_RECONCILED
360
2FB9
  0
DICTIONARY
  5
2FBA
330
2E0D
100
AcDbDictionary
280
     1
281
     1
  3
ADSK_XREC_LAYER_RECONCILED
360
2FBB
  0
DICTIONARY
  5
2FBC
330
2E0F
100
AcDbDictionary
280
     1
281
     1
  3
ADSK_XREC_LAYER_RECONCILED
360
2FBD
  0
DICTIONARY
  5
2FBE
330
2E10
100
AcDbDictionary
280
     1
281
     1
  3
ADSK_XREC_LAYER_RECONCILED
360
2FBF
  0
DICTIONARY
  5
2FC0
330
2E11
100
AcDbDictionary
280
     1
281
     1
  3
ADSK_XREC_LAYER_RECONCILED
360
2FC1
  0
DICTIONARY
  5
2FC2
330
2E12
100
AcDbDictionary
280
     1
281
     1
  3
ADSK_XREC_LAYER_RECONCILED
360
2FC3
  0
DICTIONARY
  5
2FC4
330
2E13
100
AcDbDictionary
280
     1
281
     1
  3
ADSK_XREC_LAYER_RECONCILED
360
2FC5
  0
DICTIONARY
  5
2FC6
330
2DF2
100
AcDbDictionary
280
     1
281
     1
  3
ACAD_INDEX
360
2FC7
  0
DICTIONARY
  5
2FE0
102
{ACAD_REACTORS
330
2D8A
102
}
330
2D8A
100
AcDbDictionary
281
     1
  3
DIMARCSYM
350
2FE1
  3
DIMLTEX1
350
2FE3
  3
DIMLTEX2
350
2FE4
  3
DIMLTYPE
350
2FE2
  0
DICTIONARY
  5
2DE8
102
{ACAD_REACTORS
330
2D8A
102
}
330
2D8A
100
AcDbDictionary
281
     1
  0
DICTIONARY
  5
2D8B
102
{ACAD_REACTORS
330
2D8A
102
}
330
2D8A
100
AcDbDictionary
281
     1
  0
DICTIONARY
  5
2DE7
102
{ACAD_REACTORS
330
2D8A
102
}
330
2D8A
100
AcDbDictionary
281
     1
  3
Model
350
2DF5
  3
レイアウト1
350
2DF1
  0
DICTIONARY
  5
2D8E
102
{ACAD_REACTORS
330
2D8A
102
}
330
2D8A
100
AcDbDictionary
281
     1
  3
ByBlock
350
2D97
  3
ByLayer
350
2D8F
  3
Global
350
2D9F
  0
DICTIONARY
  5
2DEB
102
{ACAD_REACTORS
330
2D8A
102
}
330
2D8A
100
AcDbDictionary
281
     1
  3
Standard
350
2DEC
  0
DICTIONARY
  5
2DE4
102
{ACAD_REACTORS
330
2D8A
102
}
330
2D8A
100
AcDbDictionary
281
     1
  3
Standard
350
2DE5
  0
DICTIONARY
  5
2DE6
102
{ACAD_REACTORS
330
2D8A
102
}
330
2D8A
100
AcDbDictionary
281
     1
  0
ACDBDICTIONARYWDFLT
  5
2D8C
102
{ACAD_REACTORS
330
2D8A
102
}
330
2D8A
100
AcDbDictionary
281
     1
  3
Normal
350
2D8D
100
AcDbDictionaryWithDefault
340
2D8D
  0
DICTIONARY
  5
2DB8
102
{ACAD_REACTORS
330
2D8A
102
}
330
2D8A
100
AcDbDictionary
281
     1
  3
A0
350
2DB9
  3
A1
350
2DBA
  3
A2
350
2DBB
  3
A3
350
2DBC
  3
A4
350
2DBD
  3
A5
350
2DBE
  3
A6
350
2DBF
  3
A7
350
2DC0
  3
A8
350
2DC1
  3
A9
350
2DC2
  3
B0
350
2DC3
  3
B1
350
2DC4
  3
B2
350
2DC5
  3
B3
350
2DC6
  3
B4
350
2DC7
  3
B5
350
2DC8
  3
B6
350
2DC9
  3
B7
350
2DCA
  3
B8
350
2DCB
  3
B9
350
2DCC
  3
C0
350
2DCD
  3
C1
350
2DCE
  3
C2
350
2DCF
  3
C3
350
2DD0
  3
C4
350
2DD1
  3
C5
350
2DD2
  3
C6
350
2DD3
  3
C7
350
2DD4
  3
C8
350
2DD5
  3
C9
350
2DD6
  3
D0
350
2DD7
  3
D1
350
2DD8
  3
D2
350
2DD9
  0
DICTIONARY
  5
2DE9
102
{ACAD_REACTORS
330
2D8A
102
}
330
2D8A
100
AcDbDictionary
281
     1
  3
Standard
350
2DEA
  0
DICTIONARY
  5
2DA7
102
{ACAD_REACTORS
330
2D8A
102
}
330
2D8A
100
AcDbDictionary
281
     1
  3
2dWireframe
350
2DAD
  3
3D Hidden
350
2DAF
  3
3dWireframe
350
2DAE
  3
Basic
350
2DAC
  3
Brighten
350
2DB3
  3
ColorChange
350
2DB7
  3
Conceptual
350
2DB0
  3
Dim
350
2DB2
  3
Facepattern
350
2DB6
  3
Flat
350
2DA8
  3
FlatWithEdges
350
2DA9
  3
Gouraud
350
2DAA
  3
GouraudWithEdges
350
2DAB
  3
Linepattern
350
2DB5
  3
Realistic
350
2DB1
  3
Thicken
350
2DB4
  0
XRECORD
  5
2FDE
102
{ACAD_REACTORS
330
2D8A
102
}
330
2D8A
100
AcDbXrecord
280
     1
 90
        1
330
2DEA
  0
DICTIONARY
  5
2FD5
102
{ACAD_REACTORS
330
2D8A
102
}
330
2D8A
100
AcDbDictionary
281
     1
  3
CANNOSCALE
350
2FD8
  3
CMLEADERSTYLE
350
2FD7
  3
CTABLESTYLE
350
2FD6
  3
DIMASSOC
350
2FDB
  3
INDEXCTL
350
2FDA
  3
SORTENTS
350
2FD9
  0
DICTIONARY
  5
2F88
102
{ACAD_REACTORS
330
2D8A
102
}
330
2D8A
100
AcDbDictionary
281
     1
  3
AcmStdDictionary
350
2F96
  0
DICTIONARY
  5
2ED5
102
{ACAD_REACTORS
330
2D8A
102
}
330
2D8A
100
AcDbDictionary
281
     1
  3
AcMgSettings
350
2ED6
  0
XRECORD
  5
2FDF
102
{ACAD_REACTORS
330
2D8A
102
}
330
2D8A
100
AcDbXrecord
280
     1
  1
DWGPROPS COOKIE
  2

  3

  4

  6

  7

  8
A090053
  9

300
AmdtFileType=84
301
=
302
=
303
=
304
=
305
=
306
=
307
=
308
=
309
=
 40
1.041788009259259
 41
2452321.396199653
 42
2456212.852003218
  1

 90
        1
  0
XRECORD
  5
2FB1
102
{ACAD_REACTORS
330
2FB0
102
}
330
2FB0
100
AcDbXrecord
280
     1
290
     1
  0
XRECORD
  5
2FB3
102
{ACAD_REACTORS
330
2FB2
102
}
330
2FB2
100
AcDbXrecord
280
     1
290
     1
  0
XRECORD
  5
2FB5
102
{ACAD_REACTORS
330
2FB4
102
}
330
2FB4
100
AcDbXrecord
280
     1
290
     1
  0
XRECORD
  5
2FB7
102
{ACAD_REACTORS
330
2FB6
102
}
330
2FB6
100
AcDbXrecord
280
     1
290
     1
  0
XRECORD
  5
2FB9
102
{ACAD_REACTORS
330
2FB8
102
}
330
2FB8
100
AcDbXrecord
280
     1
290
     1
  0
XRECORD
  5
2FBB
102
{ACAD_REACTORS
330
2FBA
102
}
330
2FBA
100
AcDbXrecord
280
     1
290
     1
  0
XRECORD
  5
2FBD
102
{ACAD_REACTORS
330
2FBC
102
}
330
2FBC
100
AcDbXrecord
280
     1
290
     1
  0
XRECORD
  5
2FBF
102
{ACAD_REACTORS
330
2FBE
102
}
330
2FBE
100
AcDbXrecord
280
     1
290
     1
  0
XRECORD
  5
2FC1
102
{ACAD_REACTORS
330
2FC0
102
}
330
2FC0
100
AcDbXrecord
280
     1
290
     1
  0
XRECORD
  5
2FC3
102
{ACAD_REACTORS
330
2FC2
102
}
330
2FC2
100
AcDbXrecord
280
     1
290
     1
  0
XRECORD
  5
2FC5
102
{ACAD_REACTORS
330
2FC4
102
}
330
2FC4
100
AcDbXrecord
280
     1
290
     1
  0
DICTIONARY
  5
2FC7
102
{ACAD_REACTORS
330
2FC6
102
}
330
2FC6
100
AcDbDictionary
281
     1
  3
*A1
350
2FC8
  0
XRECORD
  5
2FE1
102
{ACAD_REACTORS
330
2FE0
102
}
330
2FE0
100
AcDbXrecord
280
     1
 70
     1
  0
XRECORD
  5
2FE3
102
{ACAD_REACTORS
330
2FE0
102
}
330
2FE0
100
AcDbXrecord
280
     1
340
2DE0
  0
XRECORD
  5
2FE4
102
{ACAD_REACTORS
330
2FE0
102
}
330
2FE0
100
AcDbXrecord
280
     1
340
2DE0
  0
XRECORD
  5
2FE2
102
{ACAD_REACTORS
330
2FE0
102
}
330
2FE0
100
AcDbXrecord
280
     1
340
2DE0
  0
LAYOUT
  5
2DF5
102
{ACAD_XDICTIONARY
360
2FEB
102
}
102
{ACAD_REACTORS
330
2DE7
102
}
330
2DE7
100
AcDbPlotSettings
  1

  2
自動 EPSON LP-9600S (W2450527 上)
  4

  6

 40
0.0
 41
0.0
 42
0.0
 43
0.0
 44
0.0
 45
0.0
 46
0.0
 47
0.0
 48
0.0
 49
0.0
140
0.0
141
0.0
142
1.0
143
1.0
 70
  1712
 72
     0
 73
     0
 74
     0
  7

 75
     0
147
1.0
148
0.0
149
0.0
100
AcDbLayout
  1
Model
 70
     1
 71
     0
 10
0.0
 20
0.0
 11
12.0
 21
9.0
 12
0.0
 22
0.0
 32
0.0
 14
0.0
 24
0.0
 34
0.0
 15
0.0
 25
0.0
 35
0.0
146
0.0
 13
0.0
 23
0.0
 33
0.0
 16
1.0
 26
0.0
 36
0.0
 17
0.0
 27
1.0
 37
0.0
 76
     0
330
2DF2
331
2DF6
  0
LAYOUT
  5
2DF1
102
{ACAD_XDICTIONARY
360
2FE9
102
}
102
{ACAD_REACTORS
330
2DE7
102
}
330
2DE7
100
AcDbPlotSettings
  1

  2
自動 EPSON LP-9600S (W2450527 上)
  4

  6

 40
0.0
 41
0.0
 42
0.0
 43
0.0
 44
0.0
 45
0.0
 46
0.0
 47
0.0
 48
0.0
 49
0.0
140
0.0
141
0.0
142
1.0
143
1.0
 70
   688
 72
     0
 73
     0
 74
     5
  7

 75
    16
147
1.0
148
0.0
149
0.0
100
AcDbLayout
  1
レイアウト1
 70
     1
 71
     1
 10
0.0
 20
0.0
 11
12.0
 21
9.0
 12
0.0
 22
0.0
 32
0.0
 14
1.000000000000000E+20
 24
1.000000000000000E+20
 34
1.000000000000000E+20
 15
-1.000000000000000E+20
 25
-1.000000000000000E+20
 35
-1.000000000000000E+20
146
0.0
 13
0.0
 23
0.0
 33
0.0
 16
1.0
 26
0.0
 36
0.0
 17
0.0
 27
1.0
 37
0.0
 76
     0
330
2DEE
  0
MATERIAL
  5
2D97
102
{ACAD_XDICTIONARY
360
2D98
102
}
102
{ACAD_REACTORS
330
2D8E
102
}
330
2D8E
100
AcDbMaterial
  1
ByBlock
 72
     0
 43
0.0208333333333333
 43
0.0
 43
0.0
 43
0.0
 43
0.0
 43
0.0208333333333333
 43
0.0
 43
0.0
 43
0.0
 43
0.0
 43
1.0
 43
0.0
 43
0.0
 43
0.0
 43
0.0
 43
1.0
 77
     0
 47
0.0208333333333333
 47
0.0
 47
0.0
 47
0.0
 47
0.0
 47
0.0208333333333333
 47
0.0
 47
0.0
 47
0.0
 47
0.0
 47
1.0
 47
0.0
 47
0.0
 47
0.0
 47
0.0
 47
1.0
171
     0
 49
0.0208333333333333
 49
0.0
 49
0.0
 49
0.0
 49
0.0
 49
0.0208333333333333
 49
0.0
 49
0.0
 49
0.0
 49
0.0
 49
1.0
 49
0.0
 49
0.0
 49
0.0
 49
0.0
 49
1.0
175
     0
142
0.0208333333333333
142
0.0
142
0.0
142
0.0
142
0.0
142
0.0208333333333333
142
0.0
142
0.0
142
0.0
142
0.0
142
1.0
142
0.0
142
0.0
142
0.0
142
0.0
142
1.0
179
     0
144
0.0208333333333333
144
0.0
144
0.0
144
0.0
144
0.0
144
0.0208333333333333
144
0.0
144
0.0
144
0.0
144
0.0
144
1.0
144
0.0
144
0.0
144
0.0
144
0.0
144
1.0
147
0.0208333333333333
147
0.0
147
0.0
147
0.0
147
0.0
147
0.0208333333333333
147
0.0
147
0.0
147
0.0
147
0.0
147
1.0
147
0.0
147
0.0
147
0.0
147
0.0
147
1.0
  0
MATERIAL
  5
2D8F
102
{ACAD_XDICTIONARY
360
2D90
102
}
102
{ACAD_REACTORS
330
2D8E
102
}
330
2D8E
100
AcDbMaterial
  1
ByLayer
 72
     0
 43
0.0208333333333333
 43
0.0
 43
0.0
 43
0.0
 43
0.0
 43
0.0208333333333333
 43
0.0
 43
0.0
 43
0.0
 43
0.0
 43
1.0
 43
0.0
 43
0.0
 43
0.0
 43
0.0
 43
1.0
 77
     0
 47
0.0208333333333333
 47
0.0
 47
0.0
 47
0.0
 47
0.0
 47
0.0208333333333333
 47
0.0
 47
0.0
 47
0.0
 47
0.0
 47
1.0
 47
0.0
 47
0.0
 47
0.0
 47
0.0
 47
1.0
171
     0
 49
0.0208333333333333
 49
0.0
 49
0.0
 49
0.0
 49
0.0
 49
0.0208333333333333
 49
0.0
 49
0.0
 49
0.0
 49
0.0
 49
1.0
 49
0.0
 49
0.0
 49
0.0
 49
0.0
 49
1.0
175
     0
142
0.0208333333333333
142
0.0
142
0.0
142
0.0
142
0.0
142
0.0208333333333333
142
0.0
142
0.0
142
0.0
142
0.0
142
1.0
142
0.0
142
0.0
142
0.0
142
0.0
142
1.0
179
     0
144
0.0208333333333333
144
0.0
144
0.0
144
0.0
144
0.0
144
0.0208333333333333
144
0.0
144
0.0
144
0.0
144
0.0
144
1.0
144
0.0
144
0.0
144
0.0
144
0.0
144
1.0
147
0.0208333333333333
147
0.0
147
0.0
147
0.0
147
0.0
147
0.0208333333333333
147
0.0
147
0.0
147
0.0
147
0.0
147
1.0
147
0.0
147
0.0
147
0.0
147
0.0
147
1.0
  0
MATERIAL
  5
2D9F
102
{ACAD_XDICTIONARY
360
2DA0
102
}
102
{ACAD_REACTORS
330
2D8E
102
}
330
2D8E
100
AcDbMaterial
  1
Global
 72
     0
 43
0.0208333333333333
 43
0.0
 43
0.0
 43
0.0
 43
0.0
 43
0.0208333333333333
 43
0.0
 43
0.0
 43
0.0
 43
0.0
 43
1.0
 43
0.0
 43
0.0
 43
0.0
 43
0.0
 43
1.0
 77
     0
 47
0.0208333333333333
 47
0.0
 47
0.0
 47
0.0
 47
0.0
 47
0.0208333333333333
 47
0.0
 47
0.0
 47
0.0
 47
0.0
 47
1.0
 47
0.0
 47
0.0
 47
0.0
 47
0.0
 47
1.0
171
     0
 49
0.0208333333333333
 49
0.0
 49
0.0
 49
0.0
 49
0.0
 49
0.0208333333333333
 49
0.0
 49
0.0
 49
0.0
 49
0.0
 49
1.0
 49
0.0
 49
0.0
 49
0.0
 49
0.0
 49
1.0
175
     0
142
0.0208333333333333
142
0.0
142
0.0
142
0.0
142
0.0
142
0.0208333333333333
142
0.0
142
0.0
142
0.0
142
0.0
142
1.0
142
0.0
142
0.0
142
0.0
142
0.0
142
1.0
179
     0
144
0.0208333333333333
144
0.0
144
0.0
144
0.0
144
0.0
144
0.0208333333333333
144
0.0
144
0.0
144
0.0
144
0.0
144
1.0
144
0.0
144
0.0
144
0.0
144
0.0
144
1.0
147
0.0208333333333333
147
0.0
147
0.0
147
0.0
147
0.0
147
0.0208333333333333
147
0.0
147
0.0
147
0.0
147
0.0
147
1.0
147
0.0
147
0.0
147
0.0
147
0.0
147
1.0
  0
MLEADERSTYLE
  5
2DEC
102
{ACAD_REACTORS
330
2DEB
102
}
330
2DEB
100
AcDbMLeaderStyle
170
     2
171
     1
172
     0
 90
        2
 40
0.0
 41
0.0
173
     1
 91
-1056964608
340
2DE0
 92
       -2
290
     1
 42
0.09
291
     1
 43
0.36
  3
Standard
 44
0.18
300

342
2DDB
174
     1
178
     6
175
     1
176
     0
 93
-1056964608
 45
0.18
292
     0
297
     0
 46
0.18
 94
-1056964608
 47
1.0
 49
1.0
140
1.0
293
     1
141
0.0
294
     1
177
     0
142
1.0
295
     0
296
     0
143
0.125
1001
ACAD_MLEADERVER
1070
     2
  0
MLINESTYLE
  5
2DE5
102
{ACAD_REACTORS
330
2DE4
102
}
330
2DE4
100
AcDbMlineStyle
  2
STANDARD
 70
     0
  3

 62
   256
 51
90.0
 52
90.0
 71
     2
 49
0.5
 62
   256
  6
BYLAYER
 49
-0.5
 62
   256
  6
BYLAYER
  0
ACDBPLACEHOLDER
  5
2D8D
102
{ACAD_REACTORS
330
2D8C
102
}
330
2D8C
  0
SCALE
  5
2DB9
102
{ACAD_REACTORS
330
2DB8
102
}
330
2DB8
100
AcDbScale
 70
     0
300
1:1
140
1.0
141
1.0
290
     1
  0
SCALE
  5
2DBA
102
{ACAD_REACTORS
330
2DB8
102
}
330
2DB8
100
AcDbScale
 70
     0
300
1:2
140
1.0
141
2.0
290
     0
  0
SCALE
  5
2DBB
102
{ACAD_REACTORS
330
2DB8
102
}
330
2DB8
100
AcDbScale
 70
     0
300
1:4
140
1.0
141
4.0
290
     0
  0
SCALE
  5
2DBC
102
{ACAD_REACTORS
330
2DB8
102
}
330
2DB8
100
AcDbScale
 70
     0
300
1:5
140
1.0
141
5.0
290
     0
  0
SCALE
  5
2DBD
102
{ACAD_REACTORS
330
2DB8
102
}
330
2DB8
100
AcDbScale
 70
     0
300
1:8
140
1.0
141
8.0
290
     0
  0
SCALE
  5
2DBE
102
{ACAD_REACTORS
330
2DB8
102
}
330
2DB8
100
AcDbScale
 70
     0
300
1:10
140
1.0
141
10.0
290
     0
  0
SCALE
  5
2DBF
102
{ACAD_REACTORS
330
2DB8
102
}
330
2DB8
100
AcDbScale
 70
     0
300
1:16
140
1.0
141
16.0
290
     0
  0
SCALE
  5
2DC0
102
{ACAD_REACTORS
330
2DB8
102
}
330
2DB8
100
AcDbScale
 70
     0
300
1:20
140
1.0
141
20.0
290
     0
  0
SCALE
  5
2DC1
102
{ACAD_REACTORS
330
2DB8
102
}
330
2DB8
100
AcDbScale
 70
     0
300
1:30
140
1.0
141
30.0
290
     0
  0
SCALE
  5
2DC2
102
{ACAD_REACTORS
330
2DB8
102
}
330
2DB8
100
AcDbScale
 70
     0
300
1:40
140
1.0
141
40.0
290
     0
  0
SCALE
  5
2DC3
102
{ACAD_REACTORS
330
2DB8
102
}
330
2DB8
100
AcDbScale
 70
     0
300
1:50
140
1.0
141
50.0
290
     0
  0
SCALE
  5
2DC4
102
{ACAD_REACTORS
330
2DB8
102
}
330
2DB8
100
AcDbScale
 70
     0
300
1:100
140
1.0
141
100.0
290
     0
  0
SCALE
  5
2DC5
102
{ACAD_REACTORS
330
2DB8
102
}
330
2DB8
100
AcDbScale
 70
     0
300
2:1
140
2.0
141
1.0
290
     0
  0
SCALE
  5
2DC6
102
{ACAD_REACTORS
330
2DB8
102
}
330
2DB8
100
AcDbScale
 70
     0
300
4:1
140
4.0
141
1.0
290
     0
  0
SCALE
  5
2DC7
102
{ACAD_REACTORS
330
2DB8
102
}
330
2DB8
100
AcDbScale
 70
     0
300
8:1
140
8.0
141
1.0
290
     0
  0
SCALE
  5
2DC8
102
{ACAD_REACTORS
330
2DB8
102
}
330
2DB8
100
AcDbScale
 70
     0
300
10:1
140
10.0
141
1.0
290
     0
  0
SCALE
  5
2DC9
102
{ACAD_REACTORS
330
2DB8
102
}
330
2DB8
100
AcDbScale
 70
     0
300
100:1
140
100.0
141
1.0
290
     0
  0
SCALE
  5
2DCA
102
{ACAD_REACTORS
330
2DB8
102
}
330
2DB8
100
AcDbScale
 70
     0
300
1/128" = 1'-0"
140
0.0078125
141
12.0
290
     0
  0
SCALE
  5
2DCB
102
{ACAD_REACTORS
330
2DB8
102
}
330
2DB8
100
AcDbScale
 70
     0
300
1/64" = 1'-0"
140
0.015625
141
12.0
290
     0
  0
SCALE
  5
2DCC
102
{ACAD_REACTORS
330
2DB8
102
}
330
2DB8
100
AcDbScale
 70
     0
300
1/32" = 1'-0"
140
0.03125
141
12.0
290
     0
  0
SCALE
  5
2DCD
102
{ACAD_REACTORS
330
2DB8
102
}
330
2DB8
100
AcDbScale
 70
     0
300
1/16" = 1'-0"
140
0.0625
141
12.0
290
     0
  0
SCALE
  5
2DCE
102
{ACAD_REACTORS
330
2DB8
102
}
330
2DB8
100
AcDbScale
 70
     0
300
3/32" = 1'-0"
140
0.09375
141
12.0
290
     0
  0
SCALE
  5
2DCF
102
{ACAD_REACTORS
330
2DB8
102
}
330
2DB8
100
AcDbScale
 70
     0
300
1/8" = 1'-0"
140
0.125
141
12.0
290
     0
  0
SCALE
  5
2DD0
102
{ACAD_REACTORS
330
2DB8
102
}
330
2DB8
100
AcDbScale
 70
     0
300
3/16" = 1'-0"
140
0.1875
141
12.0
290
     0
  0
SCALE
  5
2DD1
102
{ACAD_REACTORS
330
2DB8
102
}
330
2DB8
100
AcDbScale
 70
     0
300
1/4" = 1'-0"
140
0.25
141
12.0
290
     0
  0
SCALE
  5
2DD2
102
{ACAD_REACTORS
330
2DB8
102
}
330
2DB8
100
AcDbScale
 70
     0
300
3/8" = 1'-0"
140
0.375
141
12.0
290
     0
  0
SCALE
  5
2DD3
102
{ACAD_REACTORS
330
2DB8
102
}
330
2DB8
100
AcDbScale
 70
     0
300
1/2" = 1'-0"
140
0.5
141
12.0
290
     0
  0
SCALE
  5
2DD4
102
{ACAD_REACTORS
330
2DB8
102
}
330
2DB8
100
AcDbScale
 70
     0
300
3/4" = 1'-0"
140
0.75
141
12.0
290
     0
  0
SCALE
  5
2DD5
102
{ACAD_REACTORS
330
2DB8
102
}
330
2DB8
100
AcDbScale
 70
     0
300
1" = 1'-0"
140
1.0
141
12.0
290
     0
  0
SCALE
  5
2DD6
102
{ACAD_REACTORS
330
2DB8
102
}
330
2DB8
100
AcDbScale
 70
     0
300
1-1/2" = 1'-0"
140
1.5
141
12.0
290
     0
  0
SCALE
  5
2DD7
102
{ACAD_REACTORS
330
2DB8
102
}
330
2DB8
100
AcDbScale
 70
     0
300
3" = 1'-0"
140
3.0
141
12.0
290
     0
  0
SCALE
  5
2DD8
102
{ACAD_REACTORS
330
2DB8
102
}
330
2DB8
100
AcDbScale
 70
     0
300
6" = 1'-0"
140
6.0
141
12.0
290
     0
  0
SCALE
  5
2DD9
102
{ACAD_REACTORS
330
2DB8
102
}
330
2DB8
100
AcDbScale
 70
     0
300
1'-0" = 1'-0"
140
12.0
141
12.0
290
     0
  0
TABLESTYLE
  5
2DEA
102
{ACAD_XDICTIONARY
360
2FDC
102
}
102
{ACAD_REACTORS
330
2DE9
102
}
330
2DE9
100
AcDbTableStyle
  3
Standard
 70
     0
 71
     0
 40
0.06
 41
0.06
280
     0
281
     0
  7
STANDARD
140
0.18
170
     2
 62
     0
 63
     7
283
     0
274
    -2
284
     1
 64
     0
275
    -2
285
     1
 65
     0
276
    -2
286
     1
 66
     0
277
    -2
287
     1
 67
     0
278
    -2
288
     1
 68
     0
279
    -2
289
     1
 69
     0
  7
STANDARD
140
0.25
170
     5
 62
     0
 63
     7
283
     0
274
    -2
284
     1
 64
     0
275
    -2
285
     1
 65
     0
276
    -2
286
     1
 66
     0
277
    -2
287
     1
 67
     0
278
    -2
288
     1
 68
     0
279
    -2
289
     1
 69
     0
  7
STANDARD
140
0.18
170
     5
 62
     0
 63
     7
283
     0
274
    -2
284
     1
 64
     0
275
    -2
285
     1
 65
     0
276
    -2
286
     1
 66
     0
277
    -2
287
     1
 67
     0
278
    -2
288
     1
 68
     0
279
    -2
289
     1
 69
     0
  0
VISUALSTYLE
  5
2DAD
102
{ACAD_REACTORS
330
2DA7
102
}
330
2DA7
100
AcDbVisualStyle
  2
2dWireframe
 70
     4
 71
     0
 72
     2
 73
     0
 90
        0
 40
-0.6
 41
-30.0
 62
     5
 63
     7
 74
     1
 91
        4
 64
     7
 65
   257
 75
     1
175
     1
 42
1.0
 92
        0
 66
   257
 43
1.0
 76
     1
 77
     6
 78
     2
 67
     7
 79
     5
170
     0
171
     0
290
     0
174
     0
 93
        1
 44
0.0
173
     0
291
     0
 45
0.0
1001
ACAD
1000
AcDbSavedByObjectVersion
1070
     0
  0
VISUALSTYLE
  5
2DAF
102
{ACAD_REACTORS
330
2DA7
102
}
330
2DA7
100
AcDbVisualStyle
  2
3D Hidden
 70
     6
 71
     1
 72
     2
 73
     2
 90
        0
 40
-0.6
 41
-30.0
 62
     5
 63
     7
 74
     2
 91
        2
 64
     7
 65
   257
 75
     2
175
     1
 42
40.0
 92
        0
 66
   257
 43
1.0
 76
     1
 77
     6
 78
     2
 67
     7
 79
     3
170
     0
171
     0
290
     0
174
     0
 93
        1
 44
0.0
173
     0
291
     0
 45
0.0
1001
ACAD
1000
AcDbSavedByObjectVersion
1070
     0
  0
VISUALSTYLE
  5
2DAE
102
{ACAD_REACTORS
330
2DA7
102
}
330
2DA7
100
AcDbVisualStyle
  2
3dWireframe
 70
     5
 71
     0
 72
     2
 73
     0
 90
        0
 40
-0.6
 41
-30.0
 62
     5
 63
     7
 74
     1
 91
        4
 64
     7
 65
   257
 75
     1
175
     1
 42
1.0
 92
        0
 66
   257
 43
1.0
 76
     1
 77
     6
 78
     2
 67
     7
 79
     5
170
     0
171
     0
290
     0
174
     0
 93
        1
 44
0.0
173
     0
291
     0
 45
0.0
1001
ACAD
1000
AcDbSavedByObjectVersion
1070
     0
  0
VISUALSTYLE
  5
2DAC
102
{ACAD_REACTORS
330
2DA7
102
}
330
2DA7
100
AcDbVisualStyle
  2
Basic
 70
     7
 71
     1
 72
     0
 73
     1
 90
        0
 40
-0.6
 41
-30.0
 62
     5
 63
     7
 74
     0
 91
        4
 64
     7
 65
   257
 75
     1
175
     1
 42
1.0
 92
        8
 66
     7
 43
1.0
 76
     1
 77
     6
 78
     2
 67
     7
 79
     5
170
     0
171
     0
290
     0
174
     0
 93
        1
 44
0.0
173
     0
291
     1
 45
0.0
1001
ACAD
1000
AcDbSavedByObjectVersion
1070
     0
  0
VISUALSTYLE
  5
2DB3
102
{ACAD_REACTORS
330
2DA7
102
}
330
2DA7
100
AcDbVisualStyle
  2
Brighten
 70
    12
 71
     2
 72
     2
 73
     0
 90
        0
 40
-0.6
 41
-30.0
 62
     5
 63
     7
 74
     1
 91
        4
 64
     7
 65
   257
 75
     1
175
     1
 42
1.0
 92
        8
 66
     7
 43
1.0
 76
     1
 77
     6
 78
     2
 67
     7
 79
     5
170
     0
171
     0
290
     0
174
     0
 93
        1
 44
50.0
173
     0
291
     1
 45
0.0
1001
ACAD
1000
AcDbSavedByObjectVersion
1070
     0
  0
VISUALSTYLE
  5
2DB7
102
{ACAD_REACTORS
330
2DA7
102
}
330
2DA7
100
AcDbVisualStyle
  2
ColorChange
 70
    16
 71
     2
 72
     2
 73
     3
 90
        0
 40
-0.6
 41
-30.0
 62
     5
 63
     8
 74
     1
 91
        4
 64
     7
 65
   257
 75
     1
175
     1
 42
1.0
 92
        8
 66
     8
 43
1.0
 76
     1
 77
     6
 78
     2
 67
     7
 79
     5
170
     0
171
     0
290
     0
174
     0
 93
        1
 44
0.0
173
     0
291
     1
 45
0.0
1001
ACAD
1000
AcDbSavedByObjectVersion
1070
     0
  0
VISUALSTYLE
  5
2DB0
102
{ACAD_REACTORS
330
2DA7
102
}
330
2DA7
100
AcDbVisualStyle
  2
Conceptual
 70
     9
 71
     3
 72
     2
 73
     0
 90
        0
 40
-0.6
 41
-30.0
 62
     5
 63
     7
 74
     2
 91
        2
 64
     7
 65
   257
 75
     1
175
     1
 42
40.0
 92
        8
 66
     7
 43
1.0
 76
     1
 77
     6
 78
     2
 67
     7
 79
     3
170
     0
171
     0
290
     0
174
     0
 93
        1
 44
0.0
173
     0
291
     0
 45
0.0
1001
ACAD
1000
AcDbSavedByObjectVersion
1070
     0
  0
VISUALSTYLE
  5
2DB2
102
{ACAD_REACTORS
330
2DA7
102
}
330
2DA7
100
AcDbVisualStyle
  2
Dim
 70
    11
 71
     2
 72
     2
 73
     0
 90
        0
 40
-0.6
 41
-30.0
 62
     5
 63
     7
 74
     1
 91
        4
 64
     7
 65
   257
 75
     1
175
     1
 42
1.0
 92
        8
 66
     7
 43
1.0
 76
     1
 77
     6
 78
     2
 67
     7
 79
     5
170
     0
171
     0
290
     0
174
     0
 93
        1
 44
-50.0
173
     0
291
     1
 45
0.0
1001
ACAD
1000
AcDbSavedByObjectVersion
1070
     0
  0
VISUALSTYLE
  5
2DB6
102
{ACAD_REACTORS
330
2DA7
102
}
330
2DA7
100
AcDbVisualStyle
  2
Facepattern
 70
    15
 71
     2
 72
     2
 73
     0
 90
        0
 40
-0.6
 41
-30.0
 62
     5
 63
     7
 74
     1
 91
        4
 64
     7
 65
   257
 75
     1
175
     1
 42
1.0
 92
        8
 66
     7
 43
1.0
 76
     1
 77
     6
 78
     2
 67
     7
 79
     5
170
     0
171
     0
290
     0
174
     0
 93
        1
 44
0.0
173
     0
291
     1
 45
0.0
1001
ACAD
1000
AcDbSavedByObjectVersion
1070
     0
  0
VISUALSTYLE
  5
2DA8
102
{ACAD_REACTORS
330
2DA7
102
}
330
2DA7
100
AcDbVisualStyle
  2
Flat
 70
     0
 71
     2
 72
     1
 73
     1
 90
        2
 40
-0.6
 41
30.0
 62
     5
 63
     7
 74
     0
 91
        4
 64
     7
 65
   257
 75
     1
175
     1
 42
1.0
 92
        8
 66
     7
 43
1.0
 76
     1
 77
     6
 78
     2
 67
     7
 79
     5
170
     0
171
     0
290
     0
174
     0
 93
       13
 44
0.0
173
     0
291
     1
 45
0.0
1001
ACAD
1000
AcDbSavedByObjectVersion
1070
     0
  0
VISUALSTYLE
  5
2DA9
102
{ACAD_REACTORS
330
2DA7
102
}
330
2DA7
100
AcDbVisualStyle
  2
FlatWithEdges
 70
     1
 71
     2
 72
     1
 73
     1
 90
        2
 40
-0.6
 41
30.0
 62
     5
 63
     7
 74
     1
 91
        4
 64
     7
 65
   257
 75
     1
175
     1
 42
1.0
 92
        0
 66
   257
 43
1.0
 76
     1
 77
     6
 78
     2
 67
     7
 79
     5
170
     0
171
     0
290
     0
174
     0
 93
       13
 44
0.0
173
     0
291
     1
 45
0.0
1001
ACAD
1000
AcDbSavedByObjectVersion
1070
     0
  0
VISUALSTYLE
  5
2DAA
102
{ACAD_REACTORS
330
2DA7
102
}
330
2DA7
100
AcDbVisualStyle
  2
Gouraud
 70
     2
 71
     2
 72
     2
 73
     1
 90
        2
 40
-0.6
 41
30.0
 62
     5
 63
     7
 74
     0
 91
        4
 64
     7
 65
   257
 75
     1
175
     1
 42
1.0
 92
        0
 66
     7
 43
1.0
 76
     1
 77
     6
 78
     2
 67
     7
 79
     5
170
     0
171
     0
290
     0
174
     0
 93
       13
 44
0.0
173
     0
291
     1
 45
0.0
1001
ACAD
1000
AcDbSavedByObjectVersion
1070
     0
  0
VISUALSTYLE
  5
2DAB
102
{ACAD_REACTORS
330
2DA7
102
}
330
2DA7
100
AcDbVisualStyle
  2
GouraudWithEdges
 70
     3
 71
     2
 72
     2
 73
     1
 90
        2
 40
-0.6
 41
30.0
 62
     5
 63
     7
 74
     1
 91
        4
 64
     7
 65
   257
 75
     1
175
     1
 42
1.0
 92
        0
 66
   257
 43
1.0
 76
     1
 77
     6
 78
     2
 67
     7
 79
     5
170
     0
171
     0
290
     0
174
     0
 93
       13
 44
0.0
173
     0
291
     1
 45
0.0
1001
ACAD
1000
AcDbSavedByObjectVersion
1070
     0
  0
VISUALSTYLE
  5
2DB5
102
{ACAD_REACTORS
330
2DA7
102
}
330
2DA7
100
AcDbVisualStyle
  2
Linepattern
 70
    14
 71
     2
 72
     2
 73
     0
 90
        0
 40
-0.6
 41
-30.0
 62
     5
 63
     7
 74
     1
 91
        4
 64
     7
 65
   257
 75
     7
175
     7
 42
1.0
 92
        8
 66
     7
 43
1.0
 76
     1
 77
     6
 78
     2
 67
     7
 79
     5
170
     0
171
     0
290
     0
174
     0
 93
        1
 44
0.0
173
     0
291
     1
 45
0.0
1001
ACAD
1000
AcDbSavedByObjectVersion
1070
     0
  0
VISUALSTYLE
  5
2DB1
102
{ACAD_REACTORS
330
2DA7
102
}
330
2DA7
100
AcDbVisualStyle
  2
Realistic
 70
     8
 71
     2
 72
     2
 73
     0
 90
        0
 40
-0.6
 41
-30.0
 62
     5
 63
     7
 74
     1
 91
        0
 64
     7
 65
   257
 75
     1
175
     1
 42
1.0
 92
        8
 66
     8
 43
1.0
 76
     1
 77
     6
 78
     2
 67
     7
 79
     5
170
     0
171
     0
290
     0
174
     0
 93
       13
 44
0.0
173
     0
291
     0
 45
0.0
1001
ACAD
1000
AcDbSavedByObjectVersion
1070
     0
  0
VISUALSTYLE
  5
2DB4
102
{ACAD_REACTORS
330
2DA7
102
}
330
2DA7
100
AcDbVisualStyle
  2
Thicken
 70
    13
 71
     2
 72
     2
 73
     0
 90
        0
 40
-0.6
 41
-30.0
 62
     5
 63
     7
 74
     1
 91
        4
 64
     7
 65
   257
 75
     1
175
     1
 42
1.0
 92
       12
 66
     7
 43
1.0
 76
     1
 77
     6
 78
     2
 67
     7
 79
     5
170
     0
171
     0
290
     0
174
     0
 93
        1
 44
0.0
173
     0
291
     1
 45
0.0
1001
ACAD
1000
AcDbSavedByObjectVersion
1070
     0
  0
DICTIONARYVAR
  5
2FD8
102
{ACAD_REACTORS
330
2FD5
102
}
330
2FD5
100
DictionaryVariables
280
     0
  1
1:1
  0
DICTIONARYVAR
  5
2FD7
102
{ACAD_REACTORS
330
2FD5
102
}
330
2FD5
100
DictionaryVariables
280
     0
  1
STANDARD
  0
DICTIONARYVAR
  5
2FD6
102
{ACAD_REACTORS
330
2FD5
102
}
330
2FD5
100
DictionaryVariables
280
     0
  1
STANDARD
  0
DICTIONARYVAR
  5
2FDB
102
{ACAD_REACTORS
330
2FD5
102
}
330
2FD5
100
DictionaryVariables
280
     0
  1
1
  0
DICTIONARYVAR
  5
2FDA
102
{ACAD_REACTORS
330
2FD5
102
}
330
2FD5
100
DictionaryVariables
280
     0
  1
1
  0
DICTIONARYVAR
  5
2FD9
102
{ACAD_REACTORS
330
2FD5
102
}
330
2FD5
100
DictionaryVariables
280
     0
  1
127
  0
DICTIONARY
  5
2F96
102
{ACAD_REACTORS
330
2F88
102
}
330
2F88
100
AcDbDictionary
281
     1
  0
DICTIONARY
  5
2ED6
102
{ACAD_REACTORS
330
2ED5
102
}
330
2ED5
100
AcDbDictionary
281
     1
  3
DWGSETTINGS
350
2ED7
  3
TRANSSETTINGS
350
2ED8
  0
LAYER_INDEX
  5
2FC8
102
{ACAD_REACTORS
330
2FC7
102
}
330
2FC7
100
AcDbIndex
 40
2456212.852003218
100
AcDbLayerIndex
  8
0
360
2FC9
 90
        2
  8
OUTLINE
360
2FCA
 90
       42
  8
SIZE
360
2FCB
 90
       38
  8
BASIS
360
2FCC
 90
        1
  8
DETAIL
360
2FCD
 90
       48
  8
ARRANGE
360
2FCE
 90
        3
  8
DEFPOINTS
360
2FCF
 90
        0
  8
ETC
360
2FD0
 90
        3
  8
FIX
360
2FD1
 90
        0
  8
NOTE
360
2FD2
 90
        4
  8
SERVICESPACE
360
2FD3
 90
        0
  8
SYMBOLLINE
360
2FD4
 90
        0
  0
DICTIONARY
  5
2FEB
330
2DF5
100
AcDbDictionary
280
     1
281
     1
  3
ACAD_XREC_ROUNDTRIP
360
2FEC
  0
DICTIONARY
  5
2FE9
330
2DF1
100
AcDbDictionary
280
     1
281
     1
  3
ACAD_XREC_ROUNDTRIP
360
2FEA
  0
DICTIONARY
  5
2D98
330
2D97
100
AcDbDictionary
280
     1
281
     1
  3
ACAD_XREC_ROUNDTRIP
360
2FE6
  3
BUMPTILE
360
2D9A
  3
DIFFUSETILE
360
2D99
  3
OPACITYTILE
360
2D9D
  3
REFLECTIONTILE
360
2D9C
  3
REFRACTIONTILE
360
2D9E
  3
SPECULARTILE
360
2D9B
  0
DICTIONARY
  5
2D90
330
2D8F
100
AcDbDictionary
280
     1
281
     1
  3
ACAD_XREC_ROUNDTRIP
360
2FE5
  3
BUMPTILE
360
2D92
  3
DIFFUSETILE
360
2D91
  3
OPACITYTILE
360
2D95
  3
REFLECTIONTILE
360
2D94
  3
REFRACTIONTILE
360
2D96
  3
SPECULARTILE
360
2D93
  0
DICTIONARY
  5
2DA0
330
2D9F
100
AcDbDictionary
280
     1
281
     1
  3
ACAD_XREC_ROUNDTRIP
360
2FE7
  3
BUMPTILE
360
2DA2
  3
DIFFUSETILE
360
2DA1
  3
OPACITYTILE
360
2DA5
  3
REFLECTIONTILE
360
2DA4
  3
REFRACTIONTILE
360
2DA6
  3
SPECULARTILE
360
2DA3
  0
DICTIONARY
  5
2FDC
330
2DEA
100
AcDbDictionary
280
     1
281
     1
  3
ACAD_ROUNDTRIP_2008_TABLESTYLE_CELLSTYLEMAP
360
2FDD
  3
ACAD_XREC_ROUNDTRIP
360
2FE8
  0
IDBUFFER
  5
2FC9
330
0
100
AcDbIdBuffer
330
2CFE
330
2CFF
  0
IDBUFFER
  5
2FCA
330
0
100
AcDbIdBuffer
330
2D0A
330
2D0B
330
2D0C
330
2D0D
330
2D0E
330
2D0F
330
2D10
330
2D11
330
2D12
330
2D13
330
2D14
330
2D15
330
2D16
330
2D17
330
2D18
330
2D19
330
2D1A
330
2D1B
330
2D1C
330
2D1D
330
2D1E
330
2D1F
330
2D20
330
2D21
330
2D22
330
2D23
330
953
330
954
330
955
330
956
330
957
330
958
330
2CD7
330
2CEE
330
2D02
330
2D03
330
2D04
330
2D05
330
2D06
330
2D07
330
2D08
330
2D09
  0
IDBUFFER
  5
2FCB
330
0
100
AcDbIdBuffer
330
2D41
330
2D42
330
2D43
330
2D44
330
2D45
330
2D46
330
2D47
330
2D48
330
2D49
330
2D4A
330
2D4B
330
2D4C
330
2D4D
330
2D4E
330
2D4F
330
2D50
330
2D51
330
2D52
330
2D53
330
2D54
330
2D55
330
2D56
330
2D31
330
2D32
330
2D33
330
2D34
330
2D35
330
2D36
330
2D37
330
2D38
330
2D39
330
2D3A
330
2D3B
330
2D3C
330
2D3D
330
2D3E
330
2D3F
330
2D40
  0
IDBUFFER
  5
2FCC
330
0
100
AcDbIdBuffer
330
2CE2
  0
IDBUFFER
  5
2FCD
330
0
100
AcDbIdBuffer
330
2CE6
330
2CE7
330
2CE8
330
2CE9
330
2CEA
330
2CEB
330
2CEC
330
2CED
330
2CEF
330
2CF0
330
2CF1
330
2CF2
330
2CF4
330
2CF5
330
2CF6
330
2CF7
330
2CF8
330
2CF9
330
2CFA
330
2CFB
330
2CFC
330
2CFD
330
2D24
330
2D25
330
2D26
330
2D27
330
2D28
330
2D29
330
2D2A
330
2D2B
330
2D2C
330
2D2D
330
2CD0
330
2CD1
330
2CD2
330
2CD3
330
2CD4
330
2CD5
330
2CD6
330
2CD8
330
2CD9
330
2CDA
330
2CDB
330
2CDC
330
2CDD
330
2CE3
330
2CE4
330
2CE5
  0
IDBUFFER
  5
2FCE
330
0
100
AcDbIdBuffer
330
2CDF
330
2CE0
330
2CE1
  0
IDBUFFER
  5
2FCF
330
0
100
AcDbIdBuffer
  0
IDBUFFER
  5
2FD0
330
0
100
AcDbIdBuffer
330
2D2E
330
2D2F
330
2D30
  0
IDBUFFER
  5
2FD1
330
0
100
AcDbIdBuffer
  0
IDBUFFER
  5
2FD2
330
0
100
AcDbIdBuffer
330
2CDE
330
2CF3
330
2D00
330
2D01
  0
IDBUFFER
  5
2FD3
330
0
100
AcDbIdBuffer
  0
IDBUFFER
  5
2FD4
330
0
100
AcDbIdBuffer
  0
XRECORD
  5
2FEC
102
{ACAD_REACTORS
330
2FEB
102
}
330
2FEB
100
AcDbXrecord
280
     1
102
SHADEPLOT
 70
     0
102
SHADEPLOTRESLEVEL
 70
     2
102
SHADEPLOTCUSTOMDPI
 70
   300
  0
XRECORD
  5
2FEA
102
{ACAD_REACTORS
330
2FE9
102
}
330
2FE9
100
AcDbXrecord
280
     1
102
SHADEPLOT
 70
     0
102
SHADEPLOTRESLEVEL
 70
     2
102
SHADEPLOTCUSTOMDPI
 70
   300
  0
XRECORD
  5
2FE6
102
{ACAD_REACTORS
330
2D98
102
}
330
2D98
100
AcDbXrecord
280
     1
102
MATERIAL
148
0.0
149
0.0
149
0.0
 93
        0
 94
      127
282
     0
 72
     0
 77
     0
171
     0
175
     0
179
     0
273
     0
  0
XRECORD
  5
2D9A
102
{ACAD_REACTORS
330
2D98
102
}
330
2D98
100
AcDbXrecord
280
     1
270
     1
271
     1
  0
XRECORD
  5
2D99
102
{ACAD_REACTORS
330
2D98
102
}
330
2D98
100
AcDbXrecord
280
     1
270
     1
271
     1
  0
XRECORD
  5
2D9D
102
{ACAD_REACTORS
330
2D98
102
}
330
2D98
100
AcDbXrecord
280
     1
270
     1
271
     1
  0
XRECORD
  5
2D9C
102
{ACAD_REACTORS
330
2D98
102
}
330
2D98
100
AcDbXrecord
280
     1
270
     1
271
     1
  0
XRECORD
  5
2D9E
102
{ACAD_REACTORS
330
2D98
102
}
330
2D98
100
AcDbXrecord
280
     1
270
     1
271
     1
  0
XRECORD
  5
2D9B
102
{ACAD_REACTORS
330
2D98
102
}
330
2D98
100
AcDbXrecord
280
     1
270
     1
271
     1
  0
XRECORD
  5
2FE5
102
{ACAD_REACTORS
330
2D90
102
}
330
2D90
100
AcDbXrecord
280
     1
102
MATERIAL
148
0.0
149
0.0
149
0.0
 93
        0
 94
      127
282
     0
 72
     0
 77
     0
171
     0
175
     0
179
     0
273
     0
  0
XRECORD
  5
2D92
102
{ACAD_REACTORS
330
2D90
102
}
330
2D90
100
AcDbXrecord
280
     1
270
     1
271
     1
  0
XRECORD
  5
2D91
102
{ACAD_REACTORS
330
2D90
102
}
330
2D90
100
AcDbXrecord
280
     1
270
     1
271
     1
  0
XRECORD
  5
2D95
102
{ACAD_REACTORS
330
2D90
102
}
330
2D90
100
AcDbXrecord
280
     1
270
     1
271
     1
  0
XRECORD
  5
2D94
102
{ACAD_REACTORS
330
2D90
102
}
330
2D90
100
AcDbXrecord
280
     1
270
     1
271
     1
  0
XRECORD
  5
2D96
102
{ACAD_REACTORS
330
2D90
102
}
330
2D90
100
AcDbXrecord
280
     1
270
     1
271
     1
  0
XRECORD
  5
2D93
102
{ACAD_REACTORS
330
2D90
102
}
330
2D90
100
AcDbXrecord
280
     1
270
     1
271
     1
  0
XRECORD
  5
2FE7
102
{ACAD_REACTORS
330
2DA0
102
}
330
2DA0
100
AcDbXrecord
280
     1
102
MATERIAL
148
0.0
149
0.0
149
0.0
 93
        0
 94
      127
282
     0
 72
     0
 77
     0
171
     0
175
     0
179
     0
273
     0
  0
XRECORD
  5
2DA2
102
{ACAD_REACTORS
330
2DA0
102
}
330
2DA0
100
AcDbXrecord
280
     1
270
     1
271
     1
  0
XRECORD
  5
2DA1
102
{ACAD_REACTORS
330
2DA0
102
}
330
2DA0
100
AcDbXrecord
280
     1
270
     1
271
     1
  0
XRECORD
  5
2DA5
102
{ACAD_REACTORS
330
2DA0
102
}
330
2DA0
100
AcDbXrecord
280
     1
270
     1
271
     1
  0
XRECORD
  5
2DA4
102
{ACAD_REACTORS
330
2DA0
102
}
330
2DA0
100
AcDbXrecord
280
     1
270
     1
271
     1
  0
XRECORD
  5
2DA6
102
{ACAD_REACTORS
330
2DA0
102
}
330
2DA0
100
AcDbXrecord
280
     1
270
     1
271
     1
  0
XRECORD
  5
2DA3
102
{ACAD_REACTORS
330
2DA0
102
}
330
2DA0
100
AcDbXrecord
280
     1
270
     1
271
     1
  0
CELLSTYLEMAP
  5
2FDD
102
{ACAD_REACTORS
330
2FDC
102
}
330
2FDC
100
AcDbCellStyleMap
 90
        3
300
CELLSTYLE
  1
TABLEFORMAT_BEGIN
 90
        5
170
     1
 91
        0
 92
    32768
 62
   257
 93
        1
300
CONTENTFORMAT
  1
CONTENTFORMAT_BEGIN
 90
        0
 91
        0
 92
      512
 93
        0
300

 40
0.0
140
1.0
 94
        5
 62
     0
340
2DDB
144
0.25
309
CONTENTFORMAT_END
171
     0
 94
        0
309
TABLEFORMAT_END
  1
CELLSTYLE_BEGIN
 90
        1
 91
        1
300
_TITLE
309
CELLSTYLE_END
300
CELLSTYLE
  1
TABLEFORMAT_BEGIN
 90
        5
170
     1
 91
        0
 92
        0
 62
   257
 93
        1
300
CONTENTFORMAT
  1
CONTENTFORMAT_BEGIN
 90
        0
 91
        0
 92
      512
 93
        0
300

 40
0.0
140
1.0
 94
        5
 62
     0
340
2DDB
144
0.18
309
CONTENTFORMAT_END
171
     0
 94
        0
309
TABLEFORMAT_END
  1
CELLSTYLE_BEGIN
 90
        2
 91
        1
300
_HEADER
309
CELLSTYLE_END
300
CELLSTYLE
  1
TABLEFORMAT_BEGIN
 90
        5
170
     1
 91
        0
 92
        0
 62
   257
 93
        1
300
CONTENTFORMAT
  1
CONTENTFORMAT_BEGIN
 90
        0
 91
        0
 92
      512
 93
        0
300

 40
0.0
140
1.0
 94
        2
 62
     0
340
2DDB
144
0.18
309
CONTENTFORMAT_END
171
     0
 94
        0
309
TABLEFORMAT_END
  1
CELLSTYLE_BEGIN
 90
        3
 91
        2
300
_DATA
309
CELLSTYLE_END
  0
XRECORD
  5
2FE8
102
{ACAD_REACTORS
330
2FDC
102
}
330
2FDC
100
AcDbXrecord
280
     1
102
ACAD_ROUNDTRIP_PRE2007_TABLESTYLE
 90
      512
 91
        0
  1

 92
      512
 93
        0
  2

 94
      512
 95
        0
  3

  0
ENDSEC
  0
EOF
