  0
SECTION
  2
HEADER
  9
$ACADVER
  1
AC1015
  9
$ACADMAINTVER
 70
    20
  9
$DWGCODEPAGE
  3
ANSI_932
  9
$INSBASE
 10
0.0
 20
0.0
 30
0.0
  9
$EXTMIN
 10
-1077.595114277971
 20
-1098.282941893282
 30
0.0
  9
$EXTMAX
 10
1419.379348113245
 20
611.741705649034
 30
50.0
  9
$LIMMIN
 10
-2970.0
 20
-2100.0
  9
$LIMMAX
 10
2970.0
 20
2100.0
  9
$ORTHOMODE
 70
     1
  9
$REGENMODE
 70
     0
  9
$FILLMODE
 70
     1
  9
$QTEXTMODE
 70
     0
  9
$MIRRTEXT
 70
     0
  9
$LTSCALE
 40
20.0
  9
$ATTMODE
 70
     1
  9
$TEXTSIZE
 40
64.0
  9
$TRACEWID
 40
0.05
  9
$TEXTSTYLE
  7
STANDARD
  9
$CLAYER
  8
0
  9
$CELTYPE
  6
ByLayer
  9
$CECOLOR
 62
   256
  9
$CELTSCALE
 40
1.0
  9
$DISPSILH
 70
     0
  9
$DIMSCALE
 40
1.0
  9
$DIMASZ
 40
0.12
  9
$DIMEXO
 40
0.05
  9
$DIMDLI
 40
0.5
  9
$DIMRND
 40
0.0
  9
$DIMDLE
 40
0.0
  9
$DIMEXE
 40
0.1
  9
$DIMTP
 40
0.1
  9
$DIMTM
 40
0.1
  9
$DIMTXT
 40
0.12
  9
$DIMCEN
 40
0.0
  9
$DIMTSZ
 40
0.0
  9
$DIMTOL
 70
     0
  9
$DIMLIM
 70
     0
  9
$DIMTIH
 70
     1
  9
$DIMTOH
 70
     1
  9
$DIMSE1
 70
     0
  9
$DIMSE2
 70
     0
  9
$DIMTAD
 70
     0
  9
$DIMZIN
 70
     7
  9
$DIMBLK
  1

  9
$DIMASO
 70
     1
  9
$DIMSHO
 70
     0
  9
$DIMPOST
  1

  9
$DIMAPOST
  1
mm
  9
$DIMALT
 70
     0
  9
$DIMALTD
 70
     2
  9
$DIMALTF
 40
25.4
  9
$DIMLFAC
 40
1.0
  9
$DIMTOFL
 70
     0
  9
$DIMTVP
 40
0.0
  9
$DIMTIX
 70
     0
  9
$DIMSOXD
 70
     0
  9
$DIMSAH
 70
     0
  9
$DIMBLK1
  1

  9
$DIMBLK2
  1

  9
$DIMSTYLE
  2
AM_ANSI
  9
$DIMCLRD
 70
   256
  9
$DIMCLRE
 70
   256
  9
$DIMCLRT
 70
     2
  9
$DIMTFAC
 40
0.71
  9
$DIMGAP
 40
0.06
  9
$DIMJUST
 70
     0
  9
$DIMSD1
 70
     0
  9
$DIMSD2
 70
     0
  9
$DIMTOLJ
 70
     1
  9
$DIMTZIN
 70
     7
  9
$DIMALTZ
 70
     0
  9
$DIMALTTZ
 70
     0
  9
$DIMUPT
 70
     0
  9
$DIMDEC
 70
     4
  9
$DIMTDEC
 70
     4
  9
$DIMALTU
 70
     2
  9
$DIMALTTD
 70
     4
  9
$DIMTXSTY
  7
STANDARD
  9
$DIMAUNIT
 70
     0
  9
$DIMADEC
 70
     0
  9
$DIMALTRND
 40
0.0
  9
$DIMAZIN
 70
     2
  9
$DIMDSEP
 70
    46
  9
$DIMATFIT
 70
     3
  9
$DIMFRAC
 70
     0
  9
$DIMLDRBLK
  1

  9
$DIMLUNIT
 70
     2
  9
$DIMLWD
 70
    -1
  9
$DIMLWE
 70
    -1
  9
$DIMTMOVE
 70
     0
  9
$LUNITS
 70
     2
  9
$LUPREC
 70
     4
  9
$SKETCHINC
 40
0.1
  9
$FILLETRAD
 40
4.0
  9
$AUNITS
 70
     1
  9
$AUPREC
 70
     3
  9
$MENU
  1
ACAD
  9
$ELEVATION
 40
0.0
  9
$PELEVATION
 40
0.0
  9
$THICKNESS
 40
50.0
  9
$LIMCHECK
 70
     0
  9
$CHAMFERA
 40
0.0
  9
$CHAMFERB
 40
0.0
  9
$CHAMFERC
 40
0.0
  9
$CHAMFERD
 40
0.0
  9
$SKPOLY
 70
     0
  9
$TDCREATE
 40
2452321.396199653
  9
$TDUCREATE
 40
2452321.021199653
  9
$TDUPDATE
 40
2456212.854520961
  9
$TDUUPDATE
 40
2456212.479520961
  9
$TDINDWG
 40
1.0417389815
  9
$TDUSRTIMER
 40
1.0417333912
  9
$USRTIMER
 70
     1
  9
$ANGBASE
 50
0.0
  9
$ANGDIR
 70
     0
  9
$PDMODE
 70
     3
  9
$PDSIZE
 40
-2.0
  9
$PLINEWID
 40
0.0
  9
$SPLFRAME
 70
     0
  9
$SPLINETYPE
 70
     6
  9
$SPLINESEGS
 70
     8
  9
$HANDSEED
  5
3092
  9
$SURFTAB1
 70
     6
  9
$SURFTAB2
 70
     6
  9
$SURFTYPE
 70
     6
  9
$SURFU
 70
     6
  9
$SURFV
 70
     6
  9
$UCSBASE
  2

  9
$UCSNAME
  2

  9
$UCSORG
 10
0.0
 20
0.0
 30
0.0
  9
$UCSXDIR
 10
1.0
 20
0.0
 30
0.0
  9
$UCSYDIR
 10
0.0
 20
1.0
 30
0.0
  9
$UCSORTHOREF
  2

  9
$UCSORTHOVIEW
 70
     0
  9
$UCSORGTOP
 10
0.0
 20
0.0
 30
0.0
  9
$UCSORGBOTTOM
 10
0.0
 20
0.0
 30
0.0
  9
$UCSORGLEFT
 10
0.0
 20
0.0
 30
0.0
  9
$UCSORGRIGHT
 10
0.0
 20
0.0
 30
0.0
  9
$UCSORGFRONT
 10
0.0
 20
0.0
 30
0.0
  9
$UCSORGBACK
 10
0.0
 20
0.0
 30
0.0
  9
$PUCSBASE
  2

  9
$PUCSNAME
  2

  9
$PUCSORG
 10
0.0
 20
0.0
 30
0.0
  9
$PUCSXDIR
 10
1.0
 20
0.0
 30
0.0
  9
$PUCSYDIR
 10
0.0
 20
1.0
 30
0.0
  9
$PUCSORTHOREF
  2

  9
$PUCSORTHOVIEW
 70
     0
  9
$PUCSORGTOP
 10
0.0
 20
0.0
 30
0.0
  9
$PUCSORGBOTTOM
 10
0.0
 20
0.0
 30
0.0
  9
$PUCSORGLEFT
 10
0.0
 20
0.0
 30
0.0
  9
$PUCSORGRIGHT
 10
0.0
 20
0.0
 30
0.0
  9
$PUCSORGFRONT
 10
0.0
 20
0.0
 30
0.0
  9
$PUCSORGBACK
 10
0.0
 20
0.0
 30
0.0
  9
$USERI1
 70
     0
  9
$USERI2
 70
     0
  9
$USERI3
 70
     0
  9
$USERI4
 70
     0
  9
$USERI5
 70
     0
  9
$USERR1
 40
20.0
  9
$USERR2
 40
0.0
  9
$USERR3
 40
0.0
  9
$USERR4
 40
0.0
  9
$USERR5
 40
0.0
  9
$WORLDVIEW
 70
     1
  9
$SHADEDGE
 70
     3
  9
$SHADEDIF
 70
    70
  9
$TILEMODE
 70
     1
  9
$MAXACTVP
 70
    64
  9
$PINSBASE
 10
0.0
 20
0.0
 30
0.0
  9
$PLIMCHECK
 70
     0
  9
$PEXTMIN
 10
1.000000000000000E+20
 20
1.000000000000000E+20
 30
1.000000000000000E+20
  9
$PEXTMAX
 10
-1.000000000000000E+20
 20
-1.000000000000000E+20
 30
-1.000000000000000E+20
  9
$PLIMMIN
 10
0.0
 20
0.0
  9
$PLIMMAX
 10
12.0
 20
9.0
  9
$UNITMODE
 70
     0
  9
$VISRETAIN
 70
     1
  9
$PLINEGEN
 70
     0
  9
$PSLTSCALE
 70
     1
  9
$TREEDEPTH
 70
  3020
  9
$CMLSTYLE
  2
Standard
  9
$CMLJUST
 70
     0
  9
$CMLSCALE
 40
1.0
  9
$PROXYGRAPHICS
 70
     1
  9
$MEASUREMENT
 70
     0
  9
$CELWEIGHT
370
    -1
  9
$ENDCAPS
280
     0
  9
$JOINSTYLE
280
     0
  9
$LWDISPLAY
290
     0
  9
$INSUNITS
 70
     0
  9
$HYPERLINKBASE
  1

  9
$STYLESHEET
  1

  9
$XEDIT
290
     1
  9
$CEPSNTYPE
380
     0
  9
$PSTYLEMODE
290
     1
  9
$FINGERPRINTGUID
  2
{47D42958-F7EA-4FA7-B4FF-4E1427627486}
  9
$VERSIONGUID
  2
{C9F53066-4D5F-4433-8E3D-F9559AF8841F}
  9
$EXTNAMES
290
     1
  9
$PSVPSCALE
 40
0.0
  9
$OLESTARTUP
290
     0
  0
ENDSEC
  0
SECTION
  2
CLASSES
  0
CLASS
  1
ACDBDICTIONARYWDFLT
  2
AcDbDictionaryWithDefault
  3
ObjectDBX Classes
 90
        0
280
     0
281
     0
  0
CLASS
  1
MATERIAL
  2
AcDbMaterial
  3
ObjectDBX Classes
 90
     1153
280
     0
281
     0
  0
CLASS
  1
VISUALSTYLE
  2
AcDbVisualStyle
  3
ObjectDBX Classes
 90
     4095
280
     0
281
     0
  0
CLASS
  1
SCALE
  2
AcDbScale
  3
ObjectDBX Classes
 90
     1153
280
     0
281
     0
  0
CLASS
  1
TABLESTYLE
  2
AcDbTableStyle
  3
ObjectDBX Classes
 90
     4095
280
     0
281
     0
  0
CLASS
  1
MLEADERSTYLE
  2
AcDbMLeaderStyle
  3
ACDB_MLEADERSTYLE_CLASS
 90
     4095
280
     0
281
     0
  0
CLASS
  1
AMGSETTINGSOBJ
  2
AmgSettingsObj
  3
"AcadM|Product Description: AutoCAD Mechanical|Company: Autodesk, Inc."
 90
     1024
280
     0
281
     0
  0
CLASS
  1
ACME_DOCUMENT
  2
AcMeDbDoc
  3
AcMeServices
 90
     1024
280
     0
281
     0
  0
CLASS
  1
ACMESCOPE
  2
AcMeScope
  3
AcMeServices
 90
     1024
280
     0
281
     0
  0
CLASS
  1
ACMECOMMANDHISTORY
  2
AcMeCommandHistory
  3
AcMeServices
 90
     1024
280
     0
281
     0
  0
CLASS
  1
ACIMSYSVARMAN
  2
AcImSysVarManager
  3
AcMeServices
 90
     1024
280
     0
281
     0
  0
CLASS
  1
ACIMREALSYSVAR
  2
AcImRealSysVar
  3
AcMeServices
 90
     1024
280
     0
281
     0
  0
CLASS
  1
ACIMINTSYSVAR
  2
AcImIntSysVar
  3
AcMeServices
 90
     1024
280
     0
281
     0
  0
CLASS
  1
ACMEDRAWINGMAN
  2
AcMeDrawingMan
  3
AcMeServices
 90
     1024
280
     0
281
     0
  0
CLASS
  1
ACMEVIEW
  2
AcMeView
  3
AcMeServices
 90
     1024
280
     0
281
     0
  0
CLASS
  1
ACDBENTITYCACHE
  2
AcMeEntityCache
  3
AcMeServices
 90
     1024
280
     0
281
     0
  0
CLASS
  1
GSMANAGER
  2
AcMeGSManager
  3
AcMeServices
 90
     1024
280
     0
281
     0
  0
CLASS
  1
AMDTINTERNALREACTOR
  2
AmdtInternalReactor
  3
AcMeServices
 90
     1024
280
     0
281
     0
  0
CLASS
  1
ACMESTATEMGR
  2
AcMeStateMgr
  3
AcMeServices
 90
     1024
280
     0
281
     0
  0
CLASS
  1
ACGREFMASTER
  2
AcGrefMaster
  3
AcAttribServices
 90
     1024
280
     0
281
     0
  0
CLASS
  1
AM_DRAWING_MGR
  2
AcDmDwgMgr
  3
AcMechDwgViewMgmt
 90
     1024
280
     0
281
     0
  0
CLASS
  1
AM_DWG_DOCUMENT
  2
AcDmDwgDocument
  3
AcMechDwgViewMgmt
 90
     1024
280
     0
281
     0
  0
CLASS
  1
AM_DWG_SHEET
  2
AcDmSheet
  3
AcMechDwgViewMgmt
 90
     1024
280
     0
281
     0
  0
CLASS
  1
AM_VIEWDIMPARMAP
  2
AcDmViewDimParMap
  3
AcMechDwgViewMgmt
 90
     1024
280
     0
281
     0
  0
CLASS
  1
AM_DWGMGR_NAME
  2
AcDmDwgMgrName
  3
AcMechDwgViewMgmt
 90
     1024
280
     0
281
     0
  0
CLASS
  1
ACME_DATABASE
  2
AcMeDbDatabase
  3
AcMeServices
 90
     1024
280
     0
281
     0
  0
CLASS
  1
ACRFINSADJUSTERMGR
  2
AcRfInsAdjusterMgr
  3
AcMeServices
 90
     1024
280
     0
281
     0
  0
CLASS
  1
ACGREFACADMASTER
  2
AcGrefacadMaster
  3
AcGrefServices
 90
     1024
280
     0
281
     0
  0
CLASS
  1
AMDTMENUSTATEMGR
  2
AmdtMenuStateMgr
  3
McadcomServices
 90
     1024
280
     0
281
     0
  0
CLASS
  1
AMDTMCOMMENUSTATE
  2
AmdtMcomMenuState
  3
McadcomServices
 90
     1024
280
     0
281
     0
  0
CLASS
  1
AMIMASTER
  2
AmiMaster
  3
AmiServices
 90
     1024
280
     0
281
     0
  0
CLASS
  1
ASAPP
  2
AcAsAppObject
  3
AutoSurfServices
 90
     1024
280
     0
281
     0
  0
CLASS
  1
IM_STATIC_MAN
  2
AcImStaticVarManager
  3
AcMeServices
 90
     1024
280
     0
281
     0
  0
CLASS
  1
ACIMSTRSYSVAR
  2
AcImStrSysVar
  3
AcMeServices
 90
     1024
280
     0
281
     0
  0
CLASS
  1
ACIMDBLSTATICVAR
  2
AcImDblStaticVar
  3
AcMeServices
 90
     1024
280
     0
281
     0
  0
CLASS
  1
ACIMSTRSTATICVAR
  2
AcImStrStaticVar
  3
AcMeServices
 90
     1024
280
     0
281
     0
  0
CLASS
  1
ACIMINTSTATICVAR
  2
AcImIntStaticVar
  3
AcMeServices
 90
     1024
280
     0
281
     0
  0
CLASS
  1
ACASGREFMASTER
  2
AcAsGrefMaster
  3
AutoSurfResolverServices
 90
     1024
280
     0
281
     0
  0
CLASS
  1
ACADGREFMODULE
  2
AcAdGrefModule
  3
AdGrefServices
 90
     1024
280
     0
281
     0
  0
CLASS
  1
AMDTMAPISURFMOUDULE
  2
AmdtMApiSurfModule
  3
MApiSurfServices
 90
     1024
280
     0
281
     0
  0
CLASS
  1
MAPIAMMOUDLE
  2
MApiAmModule
  3
MApiAmServices
 90
     1024
280
     0
281
     0
  0
CLASS
  1
AMDTADMENUSTATE
  2
AmdtAdMenuState
  3
DesignerServices
 90
     1024
280
     0
281
     0
  0
CLASS
  1
ADAPPL
  2
AcAdAppl
  3
DesignerServices
 90
     1024
280
     0
281
     0
  0
CLASS
  1
DEPMGR
  2
AcAdDepMgr
  3
DesignerServices
 90
     1024
280
     0
281
     0
  0
CLASS
  1
PARAMMGR
  2
AcAdParamMgr
  3
DesignerServices
 90
     1024
280
     0
281
     0
  0
CLASS
  1
PARAMSCOPE
  2
AcAdParamScope
  3
DesignerServices
 90
     1024
280
     0
281
     0
  0
CLASS
  1
NAMEDAPPL
  2
AcAdNamedAppl
  3
DesignerServices
 90
     1024
280
     0
281
     0
  0
CLASS
  1
AMDTDMMENUSTATE
  2
AmdtDmMenuState
  3
AcMechDwgViewMgmt
 90
     1024
280
     0
281
     0
  0
CLASS
  1
MAPIADMODULE
  2
MApiAdModule
  3
MApiAdServices
 90
     1024
280
     0
281
     0
  0
CLASS
  1
AMDTAMMENUSTATE
  2
AmdtAmMenuState
  3
DesignerAssemblies
 90
     1024
280
     0
281
     0
  0
CLASS
  1
ACAMPROJECT
  2
AcAmProject
  3
DesignerAssemblies
 90
     1024
280
     0
281
     0
  0
CLASS
  1
ACAMGRCOMPDEF
  2
AcAmGrCompDef
  3
DesignerAssemblies
 90
     1024
280
     0
281
     0
  0
CLASS
  1
ACCMCONTEXT
  2
AcCmContext
  3
DesignerAssemblies
 90
     1024
280
     0
281
     0
  0
CLASS
  1
ACAMCOMPDEF
  2
AcAmCompDef
  3
DesignerAssemblies
 90
     1024
280
     0
281
     0
  0
CLASS
  1
ACAMCOMPDEFMGR
  2
AcAmCompDefMgr
  3
DesignerAssemblies
 90
     1024
280
     0
281
     0
  0
CLASS
  1
AMCONTEXTMGR
  2
AcAmContextMgr
  3
DesignerAssemblies
 90
     1024
280
     0
281
     0
  0
CLASS
  1
ACAMCONTEXTMODELER
  2
AcAmContextModeler
  3
DesignerAssemblies
 90
     1024
280
     0
281
     0
  0
CLASS
  1
ACMDATADICTIONARY
  2
AcmDataDictionary
  3
"AcmSymBB|Product Description: AutoCAD Mechanical|Company: Autodesk, Inc."
 90
     1024
280
     0
281
     0
  0
CLASS
  1
ACMDATAENTRYBLOCK
  2
AcmDataEntryBlock
  3
AcmSymBB|Product Description: AutoCAD Mechanical|Company: Autodesk, Inc.
 90
     1024
280
     0
281
     0
  0
CLASS
  1
ACRFATTGENMGR
  2
AcRfAttGeneralMgr
  3
AcAttribServices
 90
     1024
280
     0
281
     0
  0
CLASS
  1
ACRFOBJATTMGR
  2
AcRfObjAttGroupMgr
  3
AcAttribServices
 90
     1024
280
     0
281
     0
  0
CLASS
  1
ACRFMCADAPIATTHOLDER
  2
AcRfMCADAPIAttHolder
  3
AcAttribServices
 90
     1024
280
     0
281
     0
  0
CLASS
  1
AMDTSYSATTR
  2
AmdtSystemAttribute
  3
AcAttribServices
 90
     1024
280
     0
281
     0
  0
CLASS
  1
CATALOGSTATE
  2
AcAmCatalogState
  3
DesignerAssemblies
 90
     1024
280
     0
281
     0
  0
CLASS
  1
ACAMGRCOMPDEFSET
  2
AcAmGrCompDefSet
  3
DesignerAssemblies
 90
     1024
280
     0
281
     0
  0
CLASS
  1
AMDTBROWSERDBTAB
  2
AmdtBrowserDbTab
  3
McadcomServices
 90
     1024
280
     0
281
     0
  0
CLASS
  1
CBROWSERAPPOBJECT
  2
CBrowserAppObject
  3
McadcomServices
 90
     1024
280
     0
281
     0
  0
CLASS
  1
DM_PLACEHOLDER
  2
AcDmSelsetPlaceholder
  3
AcMechDwgViewMgmt
 90
     1024
280
     0
281
     0
  0
CLASS
  1
ACMSTANDARDANSI
  2
AcmStandardANSI
  3
"Amdt_StdImp|Product Description: AutoCAD Mechanical|Company: Autodesk, Inc."
 90
     1024
280
     0
281
     0
  0
CLASS
  1
ACMSURFSTANDARDANSI
  2
AcmSurfTextStdANSI
  3
"Amdt_StdImp|Product Description: AutoCAD Mechanical|Company: Autodesk, Inc."
 90
     1024
280
     0
281
     0
  0
CLASS
  1
ACMFCFSTANDARDANSI
  2
AcmFCFStdANSI
  3
"Amdt_StdImp|Product Description: AutoCAD Mechanical|Company: Autodesk, Inc."
 90
     1024
280
     0
281
     0
  0
CLASS
  1
ACMWELDSTANDARDANSI
  2
AcmWeldingStdANSI
  3
"Amdt_StdImp|Product Description: AutoCAD Mechanical|Company: Autodesk, Inc."
 90
     1024
280
     0
281
     0
  0
CLASS
  1
ACMIDSTANDARDANSI
  2
AcmIdStdANSI
  3
"Amdt_StdImp|Product Description: AutoCAD Mechanical|Company: Autodesk, Inc."
 90
     1024
280
     0
281
     0
  0
CLASS
  1
ACMDATUMSTANDARDANSI
  2
AcmDatumStdANSI
  3
"Amdt_StdImp|Product Description: AutoCAD Mechanical|Company: Autodesk, Inc."
 90
     1024
280
     0
281
     0
  0
CLASS
  1
ACMBOMSTANDARDANSI
  2
AcmBOMStdANSI
  3
"Amdt_StdImp|Product Description: AutoCAD Mechanical|Company: Autodesk, Inc."
 90
     1024
280
     0
281
     0
  0
CLASS
  1
ACMDETAILSTANDARDANSI
  2
AmdtDetailSymStdANSI
  3
"Amdt_StdImp|Product Description: AutoCAD Mechanical|Company: Autodesk, Inc."
 90
     1024
280
     0
281
     0
  0
CLASS
  1
ACMSECTIONSTANDARDANSI
  2
AmdtSectionSymStdANSI
  3
"Amdt_StdImp|Product Description: AutoCAD Mechanical|Company: Autodesk, Inc."
 90
     1024
280
     0
281
     0
  0
CLASS
  1
ACMCENTERLINESTANDARDANSI
  2
AmdtCenterLineStdANSI
  3
"Amdt_StdImp|Product Description: AutoCAD Mechanical|Company: Autodesk, Inc."
 90
     1024
280
     0
281
     0
  0
CLASS
  1
ACMTHREADLINESTANDARDANSI
  2
AmdtThreadLineStdANSI
  3
"Amdt_StdImp|Product Description: AutoCAD Mechanical|Company: Autodesk, Inc."
 90
     1024
280
     0
281
     0
  0
CLASS
  1
ACMNOTESTANDARDANSI
  2
AmdtNoteStdANSI
  3
"Amdt_StdImp|Product Description: AutoCAD Mechanical|Company: Autodesk, Inc."
 90
     1024
280
     0
281
     0
  0
CLASS
  1
ACMTAPERSTANDARDANSI
  2
AcmTaperStdANSI
  3
"Amdt_StdImp|Product Description: AutoCAD Mechanical|Company: Autodesk, Inc."
 90
     1024
280
     0
281
     0
  0
CLASS
  1
ACMANOOTATIONVIEWSTANDARDANSI
  2
AmdtAnViewStdANSI
  3
"Amdt_StdImp|Product Description: AutoCAD Mechanical|Company: Autodesk, Inc."
 90
     1024
280
     0
281
     0
  0
CLASS
  1
ACAMGLAYSTD
  2
AcAmgLayStd
  3
"AmgLay|Product Description: AutoCAD Mechanical|Company: Autodesk, Inc."
 90
     1024
280
     0
281
     0
  0
CLASS
  1
ACAMGDIMSTD
  2
AcAmgDimStd
  3
"AmgDim|Product Description: AutoCAD Mechanical|Company: Autodesk, Inc."
 90
     1024
280
     0
281
     0
  0
CLASS
  1
ACAMGHOLECHARTSTDANSI
  2
AcAmgHoleChartStdANSI
  3
AmgDim|Product Description: AutoCAD Mechanical|Company: Autodesk, Inc.
 90
     1024
280
     0
281
     0
  0
CLASS
  1
AMGOBJPROPCFG
  2
AmgObjPropCfg
  3
"AmgLay|Product Description: AutoCAD Mechanical|Company: Autodesk, Inc."
 90
     1025
280
     0
281
     0
  0
CLASS
  1
ACAMGTITLESTD
  2
AcAmgTitleStd
  3
"AmgTitle|Product Description: AutoCAD Mechanical|Company: Autodesk, Inc."
 90
     4095
280
     0
281
     0
  0
CLASS
  1
AMDTNOTETEMPLATEDB
  2
AmdtNoteTemplateDB
  3
AcmSymBB|Product Description: AutoCAD Mechanical|Company: Autodesk, Inc.
 90
     1024
280
     0
281
     0
  0
CLASS
  1
LAYER_INDEX
  2
AcDbLayerIndex
  3
ObjectDBX Classes
 90
        0
280
     0
281
     0
  0
CLASS
  1
IDBUFFER
  2
AcDbIdBuffer
  3
ObjectDBX Classes
 90
        0
280
     0
281
     0
  0
CLASS
  1
DICTIONARYVAR
  2
AcDbDictionaryVar
  3
ObjectDBX Classes
 90
        0
280
     0
281
     0
  0
CLASS
  1
CELLSTYLEMAP
  2
AcDbCellStyleMap
  3
ObjectDBX Classes
 90
     1152
280
     0
281
     0
  0
CLASS
  1
ACDBPLACEHOLDER
  2
AcDbPlaceHolder
  3
ObjectDBX Classes
 90
        0
280
     0
281
     0
  0
CLASS
  1
LAYOUT
  2
AcDbLayout
  3
ObjectDBX Classes
 90
        0
280
     0
281
     0
  0
ENDSEC
  0
SECTION
  2
TABLES
  0
TABLE
  2
VPORT
  5
2E27
330
0
100
AcDbSymbolTable
 70
     1
  0
VPORT
  5
2E97
330
2E27
100
AcDbSymbolTableRecord
100
AcDbViewportTableRecord
  2
*ACTIVE
 70
     0
 10
0.0
 20
0.0
 11
1.0
 21
1.0
 12
0.0
 22
0.0
 13
0.0
 23
0.0
 14
1.0
 24
1.0
 15
0.0
 25
0.0
 16
0.0
 26
0.0
 36
1.0
 17
171.0777423007846
 27
-224.9799153352659
 37
0.0
 40
1759.259943735867
 41
1.712555066079295
 42
50.0
 43
0.0
 44
0.0
 50
0.0
 51
0.0
 71
     0
 72
   100
 73
     1
 74
     0
 75
     0
 76
     0
 77
     0
 78
     0
281
     0
 65
     0
110
0.0
120
0.0
130
0.0
111
1.0
121
0.0
131
0.0
112
0.0
122
1.0
132
0.0
 79
     0
146
0.0
  0
ENDTAB
  0
TABLE
  2
LTYPE
  5
2E24
330
0
100
AcDbSymbolTable
 70
    19
  0
LTYPE
  5
2E81
330
2E24
100
AcDbSymbolTableRecord
100
AcDbLinetypeTableRecord
  2
ByBlock
 70
     0
  3

 72
    65
 73
     0
 40
0.0
  0
LTYPE
  5
2E82
330
2E24
100
AcDbSymbolTableRecord
100
AcDbLinetypeTableRecord
  2
ByLayer
 70
     0
  3

 72
    65
 73
     0
 40
0.0
  0
LTYPE
  5
2E83
330
2E24
100
AcDbSymbolTableRecord
100
AcDbLinetypeTableRecord
  2
CONTINUOUS
 70
     0
  3
実線
 72
    65
 73
     0
 40
0.0
  0
LTYPE
  5
2E98
330
2E24
100
AcDbSymbolTableRecord
100
AcDbLinetypeTableRecord
  2
DASHDOT
 70
     0
  3
____ _ ____ _ ____ _ ____ _ ____ _ ____ _ ____
 72
    65
 73
     4
 40
5.5
 49
4.0
 74
     0
 49
-0.6
 74
     0
 49
0.3
 74
     0
 49
-0.6
 74
     0
  0
LTYPE
  5
2E99
330
2E24
100
AcDbSymbolTableRecord
100
AcDbLinetypeTableRecord
  2
HIDDEN
 70
     0
  3
Hidden __ __ __ __ __ __ __ __ __ __ __ __ __ _
 72
    65
 73
     2
 40
0.375
 49
0.25
 74
     0
 49
-0.125
 74
     0
  0
LTYPE
  5
2E9A
330
2E24
100
AcDbSymbolTableRecord
100
AcDbLinetypeTableRecord
  2
PHANTOM2
 70
     0
  3
Phantom (.5x) ___ _ _ ___ _ _ ___ _ _ ___ _ _
 72
    65
 73
     6
 40
1.25
 49
0.625
 74
     0
 49
-0.125
 74
     0
 49
0.125
 74
     0
 49
-0.125
 74
     0
 49
0.125
 74
     0
 49
-0.125
 74
     0
  0
LTYPE
  5
2E9B
330
2E24
100
AcDbSymbolTableRecord
100
AcDbLinetypeTableRecord
  2
CENTER
 70
     0
  3
Center ____ _ ____ _ ____ _ ____ _ ____ _ ____
 72
    65
 73
     4
 40
2.0
 49
1.25
 74
     0
 49
-0.25
 74
     0
 49
0.25
 74
     0
 49
-0.25
 74
     0
  0
LTYPE
  5
2E9C
330
2E24
100
AcDbSymbolTableRecord
100
AcDbLinetypeTableRecord
  2
ASULTYPE
 70
     0
  3
実線
 72
    65
 73
     2
 40
3.0
 49
2.5
 74
     0
 49
0.5
 74
     0
  0
LTYPE
  5
2E9D
330
2E24
100
AcDbSymbolTableRecord
100
AcDbLinetypeTableRecord
  2
ASVLTYPE
 70
     0
  3
__ __ __ __ __ __ __ __ __ __ __ __ __ __ __ __ __ __ __ __ __
 72
    65
 73
     2
 40
0.75
 49
0.5
 74
     0
 49
-0.25
 74
     0
  0
LTYPE
  5
2E9E
330
2E24
100
AcDbSymbolTableRecord
100
AcDbLinetypeTableRecord
  2
AM_ISO02W050
 70
     0
  3
__ __ __ __ __ __ __ __ __ __ __ __ __ __ __
 72
    65
 73
     2
 40
7.5
 49
6.0
 74
     0
 49
-1.5
 74
     0
  0
LTYPE
  5
2E9F
330
2E24
100
AcDbSymbolTableRecord
100
AcDbLinetypeTableRecord
  2
AM_ISO08W050
 70
     0
  3
____ . ____ . ____ . ____ . ____ . ____ . ____
 72
    65
 73
     4
 40
18.0
 49
12.0
 74
     0
 49
-1.5
 74
     0
 49
3.0
 74
     0
 49
-1.5
 74
     0
  0
LTYPE
  5
2EA0
330
2E24
100
AcDbSymbolTableRecord
100
AcDbLinetypeTableRecord
  2
AM_ISO09W050
 70
     0
  3
_____ . . _____ . . _____ . . ____ .. ____
 72
    65
 73
     6
 40
22.5
 49
12.0
 74
     0
 49
-1.5
 74
     0
 49
3.0
 74
     0
 49
-1.5
 74
     0
 49
3.0
 74
     0
 49
-1.5
 74
     0
  0
LTYPE
  5
2EA1
330
2E24
100
AcDbSymbolTableRecord
100
AcDbLinetypeTableRecord
  2
AMCONSTR
 70
     0
  3
_______________________
 72
    65
 73
     2
 40
9999.0
 49
9999.0
 74
     0
 49
0.0
 74
     0
  0
LTYPE
  5
2EA2
330
2E24
100
AcDbSymbolTableRecord
100
AcDbLinetypeTableRecord
  2
AM_ISO08W050X2
 70
     0
  3
__ . __ . __ . __ . __ . __
 72
    65
 73
     4
 40
9.0
 49
6.0
 74
     0
 49
-0.75
 74
     0
 49
1.5
 74
     0
 49
-0.75
 74
     0
  0
LTYPE
  5
2EA3
330
2E24
100
AcDbSymbolTableRecord
100
AcDbLinetypeTableRecord
  2
AM_ISO02W050X2
 70
     0
  3
 _ _ _ _ _ _ _ _ _ _ _ _
 72
    65
 73
     2
 40
3.75
 49
3.0
 74
     0
 49
-0.75
 74
     0
  0
LTYPE
  5
2EA4
330
2E24
100
AcDbSymbolTableRecord
100
AcDbLinetypeTableRecord
  2
AMZIGZAG
 70
     0
  3
/\/-/\/-/\/-/\/-/\/-/\/
 72
    65
 73
     2
 40
11.0001
 49
0.0001
 74
     0
 49
-11.0
 74
     0
  0
LTYPE
  5
2EA5
330
2E24
100
AcDbSymbolTableRecord
100
AcDbLinetypeTableRecord
  2
CENTER2
 70
     0
  3
Center (.5x) ___ _ ___ _ ___ _ ___ _ ___ _ ___
 72
    65
 73
     4
 40
1.125
 49
0.75
 74
     0
 49
-0.125
 74
     0
 49
0.125
 74
     0
 49
-0.125
 74
     0
  0
LTYPE
  5
2EA6
330
2E24
100
AcDbSymbolTableRecord
100
AcDbLinetypeTableRecord
  2
HIDDEN2
 70
     0
  3
Hidden (.5x) _ _ _ _ _ _ _ _ _ _ _ _ _ _ _ _ _
 72
    65
 73
     2
 40
0.1875
 49
0.125
 74
     0
 49
-0.0625
 74
     0
  0
LTYPE
  5
2EA7
330
2E24
100
AcDbSymbolTableRecord
100
AcDbLinetypeTableRecord
  2
AMZIGZAG2
 70
     0
  3
/\/-/\/-/\/-/\/-/\/-/\/
 72
    65
 73
     2
 40
0.4401
 49
0.0001
 74
     0
 49
-0.4400000000000003
 74
     0
  0
LTYPE
  5
2EA8
330
2E24
100
AcDbSymbolTableRecord
100
AcDbLinetypeTableRecord
  2
ACANSTGB
 70
     0
  3
__ . . __ . .
 72
    65
 73
     6
 40
0.35433070866
 49
0.15748031496
 74
     0
 49
-0.03937007874
 74
     0
 49
0.03937007874
 74
     0
 49
-0.03937007874
 74
     0
 49
0.03937007874
 74
     0
 49
-0.03937007874
 74
     0
  0
LTYPE
  5
2EA9
330
2E24
100
AcDbSymbolTableRecord
100
AcDbLinetypeTableRecord
  2
ACANSTGL
 70
     0
  3
_ _ _ _ _
 72
    65
 73
     2
 40
0.11811023622
 49
0.07874015748
 74
     0
 49
-0.03937007874
 74
     0
  0
ENDTAB
  0
TABLE
  2
LAYER
  5
2E21
330
0
100
AcDbSymbolTable
 70
    12
  0
LAYER
  5
2E7B
102
{ACAD_XDICTIONARY
360
3051
102
}
330
2E21
100
AcDbSymbolTableRecord
100
AcDbLayerTableRecord
  2
0
 70
     0
 62
     7
  6
CONTINUOUS
370
    -3
390
2E2E
  0
LAYER
  5
2EAA
102
{ACAD_XDICTIONARY
360
3053
102
}
330
2E21
100
AcDbSymbolTableRecord
100
AcDbLayerTableRecord
  2
OUTLINE
 70
     0
 62
     3
  6
CONTINUOUS
370
    -3
390
2E2E
  0
LAYER
  5
2EAB
102
{ACAD_XDICTIONARY
360
3055
102
}
330
2E21
100
AcDbSymbolTableRecord
100
AcDbLayerTableRecord
  2
SIZE
 70
     0
 62
    30
  6
CONTINUOUS
370
    -3
390
2E2E
  0
LAYER
  5
2EAC
102
{ACAD_XDICTIONARY
360
3057
102
}
330
2E21
100
AcDbSymbolTableRecord
100
AcDbLayerTableRecord
  2
BASIS
 70
     0
 62
     6
  6
DASHDOT
370
    -3
390
2E2E
  0
LAYER
  5
2EAD
102
{ACAD_XDICTIONARY
360
3059
102
}
330
2E21
100
AcDbSymbolTableRecord
100
AcDbLayerTableRecord
  2
DETAIL
 70
     0
 62
     5
  6
CONTINUOUS
370
    -3
390
2E2E
  0
LAYER
  5
2EAE
102
{ACAD_XDICTIONARY
360
305B
102
}
330
2E21
100
AcDbSymbolTableRecord
100
AcDbLayerTableRecord
  2
ARRANGE
 70
     0
 62
     1
  6
CONTINUOUS
370
    -3
390
2E2E
  0
LAYER
  5
2EAF
330
2E21
100
AcDbSymbolTableRecord
100
AcDbLayerTableRecord
  2
DEFPOINTS
 70
     0
 62
     7
  6
CONTINUOUS
290
     0
370
    -3
390
2E2E
  0
LAYER
  5
2EB0
102
{ACAD_XDICTIONARY
360
305D
102
}
330
2E21
100
AcDbSymbolTableRecord
100
AcDbLayerTableRecord
  2
ETC
 70
     0
 62
    61
  6
CONTINUOUS
370
    -3
390
2E2E
  0
LAYER
  5
2EB1
102
{ACAD_XDICTIONARY
360
305F
102
}
330
2E21
100
AcDbSymbolTableRecord
100
AcDbLayerTableRecord
  2
FIX
 70
     0
 62
    11
  6
CONTINUOUS
370
    -3
390
2E2E
  0
LAYER
  5
2EB2
102
{ACAD_XDICTIONARY
360
3061
102
}
330
2E21
100
AcDbSymbolTableRecord
100
AcDbLayerTableRecord
  2
NOTE
 70
     0
 62
     4
  6
CONTINUOUS
370
    -3
390
2E2E
  0
LAYER
  5
2EB3
102
{ACAD_XDICTIONARY
360
3063
102
}
330
2E21
100
AcDbSymbolTableRecord
100
AcDbLayerTableRecord
  2
SERVICESPACE
 70
     0
 62
     2
  6
DASHDOT
370
    -3
390
2E2E
  0
LAYER
  5
2EB4
102
{ACAD_XDICTIONARY
360
3065
102
}
330
2E21
100
AcDbSymbolTableRecord
100
AcDbLayerTableRecord
  2
SYMBOLLINE
 70
     0
 62
    15
  6
CONTINUOUS
370
    -3
390
2E2E
  0
ENDTAB
  0
TABLE
  2
STYLE
  5
2E22
330
0
100
AcDbSymbolTable
 70
     5
  0
STYLE
  5
2E7C
330
2E22
100
AcDbSymbolTableRecord
100
AcDbTextStyleTableRecord
  2
STANDARD
 70
     0
 40
64.0
 41
0.9
 50
0.0
 71
     0
 42
64.0
  3
SIMPLEX.shx
  4
BIGFONT.shx
  0
STYLE
  5
2E80
330
2E22
100
AcDbSymbolTableRecord
100
AcDbTextStyleTableRecord
  2
ANNOTATIVE
 70
     0
 40
0.0
 41
1.0
 50
0.0
 71
     0
 42
0.2
  3
txt
  4

1001
ACADANNOTATIVE
1000
AnnotativeData
1002
{
1070
     1
1070
     1
1002
}
  0
STYLE
  5
2EB5
330
2E22
100
AcDbSymbolTableRecord
100
AcDbTextStyleTableRecord
  2

 70
     1
 40
0.0
 41
1.0
 50
0.0
 71
     0
 42
64.0
  3
genltshp.shx
  4

  0
STYLE
  5
2EB6
330
2E22
100
AcDbSymbolTableRecord
100
AcDbTextStyleTableRecord
  2
ACANSTS
 70
     0
 40
1.0
 41
1.0
 50
0.0
 71
     0
 42
64.0
  3
romans.shx
  4
extfont.shx
  0
STYLE
  5
2EB7
330
2E22
100
AcDbSymbolTableRecord
100
AcDbTextStyleTableRecord
  2
ACANSGDT
 70
     0
 40
0.0
 41
1.0
 50
0.0
 71
     0
 42
64.0
  3
amgdt.shx
  4

  0
ENDTAB
  0
TABLE
  2
VIEW
  5
2E25
330
0
100
AcDbSymbolTable
 70
     1
  0
VIEW
  5
2EB8
330
2E25
100
AcDbSymbolTableRecord
100
AcDbViewTableRecord
  2
ALL
 70
     0
 40
4282.619807999997
 10
0.0
 20
41.30990399999999
 41
5940.0
 11
0.0
 21
0.0
 31
1.0
 12
0.0
 22
0.0
 32
0.0
 42
50.0
 43
0.0
 44
0.0
 50
0.0
 71
     0
281
     0
 72
     1
110
0.0
120
0.0
130
0.0
111
1.0
121
0.0
131
0.0
112
0.0
122
1.0
132
0.0
 79
     0
146
0.0
  0
ENDTAB
  0
TABLE
  2
UCS
  5
2E26
330
0
100
AcDbSymbolTable
 70
     0
  0
ENDTAB
  0
TABLE
  2
APPID
  5
2E28
330
0
100
AcDbSymbolTable
 70
    26
  0
APPID
  5
2E7D
330
2E28
100
AcDbSymbolTableRecord
100
AcDbRegAppTableRecord
  2
ACAD
 70
     0
  0
APPID
  5
2E84
330
2E28
100
AcDbSymbolTableRecord
100
AcDbRegAppTableRecord
  2
ACADANNOTATIVE
 70
     0
  0
APPID
  5
2E8E
330
2E28
100
AcDbSymbolTableRecord
100
AcDbRegAppTableRecord
  2
ACAD_MLEADERVER
 70
     0
  0
APPID
  5
2EB9
330
2E28
100
AcDbSymbolTableRecord
100
AcDbRegAppTableRecord
  2
GENIUS_GENDIM_13
 70
     0
  0
APPID
  5
2EBA
330
2E28
100
AcDbSymbolTableRecord
100
AcDbRegAppTableRecord
  2
GENIUS_GENDTOL_13
 70
     0
  0
APPID
  5
2EBB
330
2E28
100
AcDbSymbolTableRecord
100
AcDbRegAppTableRecord
  2
GENIUS_GE3DTOL_13
 70
     0
  0
APPID
  5
2EBC
330
2E28
100
AcDbSymbolTableRecord
100
AcDbRegAppTableRecord
  2
MCAD_NO_VIS
 70
     0
  0
APPID
  5
2EBD
330
2E28
100
AcDbSymbolTableRecord
100
AcDbRegAppTableRecord
  2
ACAD_TEMP_GRAPHIC
 70
     0
  0
APPID
  5
2EBE
330
2E28
100
AcDbSymbolTableRecord
100
AcDbRegAppTableRecord
  2
AD_DRAW
 70
     0
  0
APPID
  5
2EBF
330
2E28
100
AcDbSymbolTableRecord
100
AcDbRegAppTableRecord
  2
ACATTRIBSERVICES
 70
     0
  0
APPID
  5
2EC0
330
2E28
100
AcDbSymbolTableRecord
100
AcDbRegAppTableRecord
  2
ASURF_PCURVE_APPNAME
 70
     0
  0
APPID
  5
2EC1
330
2E28
100
AcDbSymbolTableRecord
100
AcDbRegAppTableRecord
  2
AMG_3D2D_5_0
 70
     0
  0
APPID
  5
2EC2
330
2E28
100
AcDbSymbolTableRecord
100
AcDbRegAppTableRecord
  2
DESIGNERASSEMBLIES
 70
     0
  0
APPID
  5
2EC3
330
2E28
100
AcDbSymbolTableRecord
100
AcDbRegAppTableRecord
  2
ACADM_DIM_EDIT
 70
     0
  0
APPID
  5
2EC4
330
2E28
100
AcDbSymbolTableRecord
100
AcDbRegAppTableRecord
  2
AMDT_DM_ADJ
 70
     0
  0
APPID
  5
2EC5
330
2E28
100
AcDbSymbolTableRecord
100
AcDbRegAppTableRecord
  2
ACAD_DSTYLE_DIMARC_LENGTH_
 70
     0
  0
APPID
  5
2EC6
330
2E28
100
AcDbSymbolTableRecord
100
AcDbRegAppTableRecord
  2
ACAD_DSTYLE_DIMJOGGED_JOGA
 70
     0
  0
APPID
  5
2EC7
330
2E28
100
AcDbSymbolTableRecord
100
AcDbRegAppTableRecord
  2
ACAD_PSEXT
 70
     0
  0
APPID
  5
2EC8
330
2E28
100
AcDbSymbolTableRecord
100
AcDbRegAppTableRecord
  2
ACAD_EXEMPT_FROM_CAD_STANDARDS
 70
     0
  0
APPID
  5
2EC9
330
2E28
100
AcDbSymbolTableRecord
100
AcDbRegAppTableRecord
  2
ACAD_DSTYLE_DIMJAG
 70
     0
  0
APPID
  5
2ECA
330
2E28
100
AcDbSymbolTableRecord
100
AcDbRegAppTableRecord
  2
ACAD_DSTYLE_DIMTALN
 70
     0
  0
APPID
  5
2FF8
330
2E28
100
AcDbSymbolTableRecord
100
AcDbRegAppTableRecord
  2
AMG_3D2D_5.0
 70
     0
  0
APPID
  5
308E
330
2E28
100
AcDbSymbolTableRecord
100
AcDbRegAppTableRecord
  2
ACAD_DSTYLE_DIMARC_LENGTH_SYMBOL
 70
     0
  0
APPID
  5
308F
330
2E28
100
AcDbSymbolTableRecord
100
AcDbRegAppTableRecord
  2
ACAD_DSTYLE_DIM_LINETYPE
 70
     0
  0
APPID
  5
3090
330
2E28
100
AcDbSymbolTableRecord
100
AcDbRegAppTableRecord
  2
ACAD_DSTYLE_DIM_EXT1_LINETYPE
 70
     0
  0
APPID
  5
3091
330
2E28
100
AcDbSymbolTableRecord
100
AcDbRegAppTableRecord
  2
ACAD_DSTYLE_DIM_EXT2_LINETYPE
 70
     0
  0
ENDTAB
  0
TABLE
  2
DIMSTYLE
  5
2E29
330
0
100
AcDbSymbolTable
 70
    10
100
AcDbDimStyleTable
 71
     1
340
2ECB
  0
DIMSTYLE
105
2E7E
330
2E29
100
AcDbSymbolTableRecord
100
AcDbDimStyleTableRecord
  2
STANDARD
 70
     0
 41
12.0
 42
20.0
 44
20.0
 77
     1
 78
     8
140
64.0
141
0.0
147
10.0
275
     1
279
     2
284
     7
285
     7
286
     7
340
2E7C
  0
DIMSTYLE
105
2E7F
330
2E29
100
AcDbSymbolTableRecord
100
AcDbDimStyleTableRecord
  2
ANNOTATIVE
 70
     0
275
     1
279
     2
284
     7
285
     7
286
     7
340
2E7C
1001
ACADANNOTATIVE
1000
AnnotativeData
1002
{
1070
     1
1070
     1
1002
}
  0
DIMSTYLE
105
2ECB
330
2E29
100
AcDbSymbolTableRecord
100
AcDbDimStyleTableRecord
  2
AM_ANSI
 70
     0
  4
mm
 41
0.12
 42
0.05
 43
0.5
 44
0.1
 47
0.1
 48
0.1
 78
     7
 79
     2
140
0.12
141
0.0
146
0.71
147
0.06
176
   256
177
   256
178
     2
274
     4
284
     7
340
2E7C
371
    -1
372
    -1
1001
ACAD_DSTYLE_DIMARC_LENGTH_SYMBOL
1070
   379
1070
     1
1001
ACAD_DSTYLE_DIM_LINETYPE
1070
   380
1005
2E81
1001
ACAD_DSTYLE_DIM_EXT1_LINETYPE
1070
   381
1005
2E81
1001
ACAD_DSTYLE_DIM_EXT2_LINETYPE
1070
   382
1005
2E81
  0
DIMSTYLE
105
2ECC
330
2E29
100
AcDbSymbolTableRecord
100
AcDbDimStyleTableRecord
  2
AM_ANSI$3
 70
     0
  4
mm
 41
0.12
 42
0.05
 43
0.5
 44
0.1
 47
0.1
 48
0.1
 78
     7
 79
     2
140
0.12
141
0.0
146
0.71
147
0.06
176
   256
177
   256
178
     2
274
     4
284
     7
288
     1
289
     0
340
2E7C
371
    -1
372
    -1
1001
ACAD_DSTYLE_DIMARC_LENGTH_SYMBOL
1070
   379
1070
     1
1001
ACAD_DSTYLE_DIM_LINETYPE
1070
   380
1005
2E81
1001
ACAD_DSTYLE_DIM_EXT1_LINETYPE
1070
   381
1005
2E81
1001
ACAD_DSTYLE_DIM_EXT2_LINETYPE
1070
   382
1005
2E81
  0
DIMSTYLE
105
2ECD
330
2E29
100
AcDbSymbolTableRecord
100
AcDbDimStyleTableRecord
  2
AM_ANSI$4
 70
     0
  4
mm
 41
0.12
 42
0.05
 43
0.5
 44
0.1
 47
0.1
 48
0.1
 78
     7
 79
     2
140
0.12
141
0.0
146
0.71
147
0.06
176
   256
177
   256
178
     2
274
     4
284
     7
340
2E7C
371
    -1
372
    -1
1001
ACAD_DSTYLE_DIMARC_LENGTH_SYMBOL
1070
   379
1070
     1
1001
ACAD_DSTYLE_DIM_LINETYPE
1070
   380
1005
2E81
1001
ACAD_DSTYLE_DIM_EXT1_LINETYPE
1070
   381
1005
2E81
1001
ACAD_DSTYLE_DIM_EXT2_LINETYPE
1070
   382
1005
2E81
  0
DIMSTYLE
105
2ECE
330
2E29
100
AcDbSymbolTableRecord
100
AcDbDimStyleTableRecord
  2
AM_ANSI$7
 70
     0
  4
mm
 41
0.12
 42
0.05
 43
0.5
 44
0.1
 47
0.1
 48
0.1
 78
     7
 79
     2
140
0.12
141
0.0
146
0.71
147
0.06
176
   256
177
   256
178
     2
274
     4
284
     7
340
2E7C
371
    -1
372
    -1
1001
ACAD_DSTYLE_DIMARC_LENGTH_SYMBOL
1070
   379
1070
     1
1001
ACAD_DSTYLE_DIM_LINETYPE
1070
   380
1005
2E81
1001
ACAD_DSTYLE_DIM_EXT1_LINETYPE
1070
   381
1005
2E81
1001
ACAD_DSTYLE_DIM_EXT2_LINETYPE
1070
   382
1005
2E81
  0
DIMSTYLE
105
2ECF
330
2E29
100
AcDbSymbolTableRecord
100
AcDbDimStyleTableRecord
  2
AM_ANSI$SF
 70
     0
  4
mm
 41
0.12
 42
0.05
 43
0.5
 44
0.1
 47
0.1
 48
0.1
 75
     1
 76
     1
 78
     7
 79
     2
140
0.12
141
0.0
146
0.71
147
0.06
176
   256
177
   256
178
     2
274
     4
284
     7
340
2E7C
371
    -1
372
    -1
1001
ACAD_DSTYLE_DIMARC_LENGTH_SYMBOL
1070
   379
1070
     1
1001
ACAD_DSTYLE_DIM_LINETYPE
1070
   380
1005
2E81
1001
ACAD_DSTYLE_DIM_EXT1_LINETYPE
1070
   381
1005
2E81
1001
ACAD_DSTYLE_DIM_EXT2_LINETYPE
1070
   382
1005
2E81
  0
DIMSTYLE
105
2ED0
330
2E29
100
AcDbSymbolTableRecord
100
AcDbDimStyleTableRecord
  2
AM_ANSI$SH
 70
     0
  4
mm
 41
0.12
 42
0.05
 43
0.5
 44
0.1
 47
0.1
 48
0.1
 75
     1
 76
     1
 78
     7
 79
     2
140
0.12
141
0.0
146
0.71
147
0.06
173
     1
176
   256
177
   256
178
     2
274
     4
284
     7
340
2E7C
343
2EF0
371
    -1
372
    -1
1001
ACAD_DSTYLE_DIMARC_LENGTH_SYMBOL
1070
   379
1070
     1
1001
ACAD_DSTYLE_DIM_LINETYPE
1070
   380
1005
2E81
1001
ACAD_DSTYLE_DIM_EXT1_LINETYPE
1070
   381
1005
2E81
1001
ACAD_DSTYLE_DIM_EXT2_LINETYPE
1070
   382
1005
2E81
  0
DIMSTYLE
105
2ED1
330
2E29
100
AcDbSymbolTableRecord
100
AcDbDimStyleTableRecord
  2
STANDARD1
 70
     0
 40
6.0
 41
2.5
 42
0.625
 43
6.0
 44
1.25
 47
1.0
 48
0.5
 77
     1
 78
     8
140
2.5
141
0.0
146
0.6
147
1.0
173
     1
275
     1
279
     2
284
     7
285
     7
286
     7
340
2E7C
  0
DIMSTYLE
105
2ED2
330
2E29
100
AcDbSymbolTableRecord
100
AcDbDimStyleTableRecord
  2
STANDARD$0
 70
     0
 41
12.0
 42
20.0
 44
20.0
 73
     0
 74
     0
 77
     1
 78
     8
140
64.0
141
0.0
147
10.0
275
     1
279
     2
284
     7
285
     7
286
     7
340
2E7C
  0
ENDTAB
  0
TABLE
  2
BLOCK_RECORD
  5
2E20
330
0
100
AcDbSymbolTable
 70
    79
  0
BLOCK_RECORD
  5
2E93
102
{ACAD_XDICTIONARY
360
3067
102
}
330
2E20
100
AcDbSymbolTableRecord
100
AcDbBlockTableRecord
  2
*Model_Space
340
2E96
  0
BLOCK_RECORD
  5
2E8F
330
2E20
100
AcDbSymbolTableRecord
100
AcDbBlockTableRecord
  2
*Paper_Space
340
2E92
  0
BLOCK_RECORD
  5
2EDA
330
2E20
100
AcDbSymbolTableRecord
100
AcDbBlockTableRecord
  2
$MODEL_SPACE
340
0
  0
BLOCK_RECORD
  5
2EDC
330
2E20
100
AcDbSymbolTableRecord
100
AcDbBlockTableRecord
  2
$PAPER_SPACE
340
0
  0
BLOCK_RECORD
  5
2EDE
330
2E20
100
AcDbSymbolTableRecord
100
AcDbBlockTableRecord
  2
_ORIGIN
340
0
  0
BLOCK_RECORD
  5
2EE0
330
2E20
100
AcDbSymbolTableRecord
100
AcDbBlockTableRecord
  2
_DOTBLANK
340
0
102
{BLKREFS
331
1299
331
129A
331
11AA
331
11AB
331
E80
331
E81
331
1123
331
1124
331
11C2
331
11C3
331
11EC
331
11ED
331
11F9
331
11FA
331
1287
331
1288
331
1417
331
1418
331
1423
331
1424
331
142F
331
1430
331
143B
331
143C
331
166E
331
166F
331
1677
331
1678
331
1680
331
1681
331
1689
331
168A
331
1696
331
1697
331
16A3
331
16A4
331
16AF
331
16B0
331
16BB
331
16BC
331
16C7
331
16C8
331
16D3
331
16D4
331
1D86
331
1D87
331
1D8F
331
1D90
331
1D98
331
1D99
331
1DA1
331
1DA2
331
1DAB
331
1DAC
331
1DB5
331
1DB6
331
2DD2
331
2DD3
331
2DD7
331
2DD8
331
2DDD
331
2DDE
331
2DE3
331
2DE4
331
2DE8
331
2DE9
331
2DED
331
2DEE
102
}
  0
BLOCK_RECORD
  5
2EE2
330
2E20
100
AcDbSymbolTableRecord
100
AcDbBlockTableRecord
  2
_OPEN30
340
0
102
{BLKREFS
331
2087
331
219F
331
2470
331
2681
331
27CA
331
2917
102
}
  0
BLOCK_RECORD
  5
2EE4
330
2E20
100
AcDbSymbolTableRecord
100
AcDbBlockTableRecord
  2
*D5
340
0
  0
BLOCK_RECORD
  5
2EE6
330
2E20
100
AcDbSymbolTableRecord
100
AcDbBlockTableRecord
  2
*U6
340
0
102
{BLKREFS
331
129B
102
}
  0
BLOCK_RECORD
  5
2EE8
330
2E20
100
AcDbSymbolTableRecord
100
AcDbBlockTableRecord
  2
*D7
340
0
  0
BLOCK_RECORD
  5
2EEA
330
2E20
100
AcDbSymbolTableRecord
100
AcDbBlockTableRecord
  2
*U8
340
0
102
{BLKREFS
331
11AC
102
}
  0
BLOCK_RECORD
  5
2EEC
330
2E20
100
AcDbSymbolTableRecord
100
AcDbBlockTableRecord
  2
*D9
340
0
  0
BLOCK_RECORD
  5
2EEE
330
2E20
100
AcDbSymbolTableRecord
100
AcDbBlockTableRecord
  2
*U10
340
0
102
{BLKREFS
331
E82
102
}
  0
BLOCK_RECORD
  5
2EF0
330
2E20
100
AcDbSymbolTableRecord
100
AcDbBlockTableRecord
  2
GENAXEH
340
0
  0
BLOCK_RECORD
  5
2EF2
330
2E20
100
AcDbSymbolTableRecord
100
AcDbBlockTableRecord
  2
*D12
340
0
  0
BLOCK_RECORD
  5
2EF4
330
2E20
100
AcDbSymbolTableRecord
100
AcDbBlockTableRecord
  2
*U13
340
0
102
{BLKREFS
331
1125
102
}
  0
BLOCK_RECORD
  5
2EF6
330
2E20
100
AcDbSymbolTableRecord
100
AcDbBlockTableRecord
  2
*D14
340
0
  0
BLOCK_RECORD
  5
2EF8
330
2E20
100
AcDbSymbolTableRecord
100
AcDbBlockTableRecord
  2
*U15
340
0
102
{BLKREFS
331
11C4
102
}
  0
BLOCK_RECORD
  5
2EFA
330
2E20
100
AcDbSymbolTableRecord
100
AcDbBlockTableRecord
  2
*D16
340
0
  0
BLOCK_RECORD
  5
2EFC
330
2E20
100
AcDbSymbolTableRecord
100
AcDbBlockTableRecord
  2
*U17
340
0
102
{BLKREFS
331
11EE
102
}
  0
BLOCK_RECORD
  5
2EFE
330
2E20
100
AcDbSymbolTableRecord
100
AcDbBlockTableRecord
  2
*D18
340
0
  0
BLOCK_RECORD
  5
2F00
330
2E20
100
AcDbSymbolTableRecord
100
AcDbBlockTableRecord
  2
*U19
340
0
102
{BLKREFS
331
11FB
102
}
  0
BLOCK_RECORD
  5
2F02
330
2E20
100
AcDbSymbolTableRecord
100
AcDbBlockTableRecord
  2
*D20
340
0
  0
BLOCK_RECORD
  5
2F04
330
2E20
100
AcDbSymbolTableRecord
100
AcDbBlockTableRecord
  2
*U21
340
0
102
{BLKREFS
331
1289
102
}
  0
BLOCK_RECORD
  5
2F06
330
2E20
100
AcDbSymbolTableRecord
100
AcDbBlockTableRecord
  2
*D22
340
0
  0
BLOCK_RECORD
  5
2F08
330
2E20
100
AcDbSymbolTableRecord
100
AcDbBlockTableRecord
  2
*U23
340
0
102
{BLKREFS
331
1419
102
}
  0
BLOCK_RECORD
  5
2F0A
330
2E20
100
AcDbSymbolTableRecord
100
AcDbBlockTableRecord
  2
*D24
340
0
  0
BLOCK_RECORD
  5
2F0C
330
2E20
100
AcDbSymbolTableRecord
100
AcDbBlockTableRecord
  2
*U25
340
0
102
{BLKREFS
331
1425
102
}
  0
BLOCK_RECORD
  5
2F0E
330
2E20
100
AcDbSymbolTableRecord
100
AcDbBlockTableRecord
  2
*D26
340
0
  0
BLOCK_RECORD
  5
2F10
330
2E20
100
AcDbSymbolTableRecord
100
AcDbBlockTableRecord
  2
*U27
340
0
102
{BLKREFS
331
1431
102
}
  0
BLOCK_RECORD
  5
2F12
330
2E20
100
AcDbSymbolTableRecord
100
AcDbBlockTableRecord
  2
*D28
340
0
  0
BLOCK_RECORD
  5
2F14
330
2E20
100
AcDbSymbolTableRecord
100
AcDbBlockTableRecord
  2
*U29
340
0
102
{BLKREFS
331
143D
102
}
  0
BLOCK_RECORD
  5
2F16
330
2E20
100
AcDbSymbolTableRecord
100
AcDbBlockTableRecord
  2
*D30
340
0
  0
BLOCK_RECORD
  5
2F18
330
2E20
100
AcDbSymbolTableRecord
100
AcDbBlockTableRecord
  2
*U31
340
0
102
{BLKREFS
331
1670
102
}
  0
BLOCK_RECORD
  5
2F1A
330
2E20
100
AcDbSymbolTableRecord
100
AcDbBlockTableRecord
  2
*D32
340
0
  0
BLOCK_RECORD
  5
2F1C
330
2E20
100
AcDbSymbolTableRecord
100
AcDbBlockTableRecord
  2
*U33
340
0
102
{BLKREFS
331
1679
102
}
  0
BLOCK_RECORD
  5
2F1E
330
2E20
100
AcDbSymbolTableRecord
100
AcDbBlockTableRecord
  2
*D34
340
0
  0
BLOCK_RECORD
  5
2F20
330
2E20
100
AcDbSymbolTableRecord
100
AcDbBlockTableRecord
  2
*U35
340
0
102
{BLKREFS
331
1682
102
}
  0
BLOCK_RECORD
  5
2F22
330
2E20
100
AcDbSymbolTableRecord
100
AcDbBlockTableRecord
  2
*D36
340
0
  0
BLOCK_RECORD
  5
2F24
330
2E20
100
AcDbSymbolTableRecord
100
AcDbBlockTableRecord
  2
*U37
340
0
102
{BLKREFS
331
168B
102
}
  0
BLOCK_RECORD
  5
2F26
330
2E20
100
AcDbSymbolTableRecord
100
AcDbBlockTableRecord
  2
*U38
340
0
  0
BLOCK_RECORD
  5
2F28
330
2E20
100
AcDbSymbolTableRecord
100
AcDbBlockTableRecord
  2
*D39
340
0
  0
BLOCK_RECORD
  5
2F2A
330
2E20
100
AcDbSymbolTableRecord
100
AcDbBlockTableRecord
  2
*U40
340
0
102
{BLKREFS
331
1698
102
}
  0
BLOCK_RECORD
  5
2F2C
330
2E20
100
AcDbSymbolTableRecord
100
AcDbBlockTableRecord
  2
*D41
340
0
  0
BLOCK_RECORD
  5
2F2E
330
2E20
100
AcDbSymbolTableRecord
100
AcDbBlockTableRecord
  2
*U42
340
0
102
{BLKREFS
331
16A5
102
}
  0
BLOCK_RECORD
  5
2F30
330
2E20
100
AcDbSymbolTableRecord
100
AcDbBlockTableRecord
  2
*D43
340
0
  0
BLOCK_RECORD
  5
2F32
330
2E20
100
AcDbSymbolTableRecord
100
AcDbBlockTableRecord
  2
*U44
340
0
102
{BLKREFS
331
16B1
102
}
  0
BLOCK_RECORD
  5
2F34
330
2E20
100
AcDbSymbolTableRecord
100
AcDbBlockTableRecord
  2
*D45
340
0
  0
BLOCK_RECORD
  5
2F36
330
2E20
100
AcDbSymbolTableRecord
100
AcDbBlockTableRecord
  2
*U46
340
0
102
{BLKREFS
331
16BD
102
}
  0
BLOCK_RECORD
  5
2F38
330
2E20
100
AcDbSymbolTableRecord
100
AcDbBlockTableRecord
  2
*D47
340
0
  0
BLOCK_RECORD
  5
2F3A
330
2E20
100
AcDbSymbolTableRecord
100
AcDbBlockTableRecord
  2
*U48
340
0
102
{BLKREFS
331
16C9
102
}
  0
BLOCK_RECORD
  5
2F3C
330
2E20
100
AcDbSymbolTableRecord
100
AcDbBlockTableRecord
  2
*D49
340
0
  0
BLOCK_RECORD
  5
2F3E
330
2E20
100
AcDbSymbolTableRecord
100
AcDbBlockTableRecord
  2
*U50
340
0
102
{BLKREFS
331
16D5
102
}
  0
BLOCK_RECORD
  5
2F40
330
2E20
100
AcDbSymbolTableRecord
100
AcDbBlockTableRecord
  2
*D51
340
0
  0
BLOCK_RECORD
  5
2F42
330
2E20
100
AcDbSymbolTableRecord
100
AcDbBlockTableRecord
  2
*U52
340
0
102
{BLKREFS
331
1D88
102
}
  0
BLOCK_RECORD
  5
2F44
330
2E20
100
AcDbSymbolTableRecord
100
AcDbBlockTableRecord
  2
*D53
340
0
  0
BLOCK_RECORD
  5
2F46
330
2E20
100
AcDbSymbolTableRecord
100
AcDbBlockTableRecord
  2
*U54
340
0
102
{BLKREFS
331
1D91
102
}
  0
BLOCK_RECORD
  5
2F48
330
2E20
100
AcDbSymbolTableRecord
100
AcDbBlockTableRecord
  2
*D55
340
0
  0
BLOCK_RECORD
  5
2F4A
330
2E20
100
AcDbSymbolTableRecord
100
AcDbBlockTableRecord
  2
*U56
340
0
102
{BLKREFS
331
1D9A
102
}
  0
BLOCK_RECORD
  5
2F4C
330
2E20
100
AcDbSymbolTableRecord
100
AcDbBlockTableRecord
  2
*D57
340
0
  0
BLOCK_RECORD
  5
2F4E
330
2E20
100
AcDbSymbolTableRecord
100
AcDbBlockTableRecord
  2
*U58
340
0
102
{BLKREFS
331
1DA3
102
}
  0
BLOCK_RECORD
  5
2F50
330
2E20
100
AcDbSymbolTableRecord
100
AcDbBlockTableRecord
  2
*D59
340
0
  0
BLOCK_RECORD
  5
2F52
330
2E20
100
AcDbSymbolTableRecord
100
AcDbBlockTableRecord
  2
*U60
340
0
102
{BLKREFS
331
1DAD
102
}
  0
BLOCK_RECORD
  5
2F54
330
2E20
100
AcDbSymbolTableRecord
100
AcDbBlockTableRecord
  2
*D61
340
0
  0
BLOCK_RECORD
  5
2F56
330
2E20
100
AcDbSymbolTableRecord
100
AcDbBlockTableRecord
  2
*U62
340
0
102
{BLKREFS
331
1DB7
102
}
  0
BLOCK_RECORD
  5
2F58
330
2E20
100
AcDbSymbolTableRecord
100
AcDbBlockTableRecord
  2
*U63
340
0
  0
BLOCK_RECORD
  5
2F5A
330
2E20
100
AcDbSymbolTableRecord
100
AcDbBlockTableRecord
  2
*U64
340
0
  0
BLOCK_RECORD
  5
2F5C
330
2E20
100
AcDbSymbolTableRecord
100
AcDbBlockTableRecord
  2
*U65
340
0
  0
BLOCK_RECORD
  5
2F5E
330
2E20
100
AcDbSymbolTableRecord
100
AcDbBlockTableRecord
  2
*U66
340
0
  0
BLOCK_RECORD
  5
2F60
330
2E20
100
AcDbSymbolTableRecord
100
AcDbBlockTableRecord
  2
*U67
340
0
  0
BLOCK_RECORD
  5
2F62
330
2E20
100
AcDbSymbolTableRecord
100
AcDbBlockTableRecord
  2
*U68
340
0
  0
BLOCK_RECORD
  5
2F64
330
2E20
100
AcDbSymbolTableRecord
100
AcDbBlockTableRecord
  2
*U69
340
0
  0
BLOCK_RECORD
  5
2F66
330
2E20
100
AcDbSymbolTableRecord
100
AcDbBlockTableRecord
  2
*U70
340
0
  0
BLOCK_RECORD
  5
2F68
330
2E20
100
AcDbSymbolTableRecord
100
AcDbBlockTableRecord
  2
*U71
340
0
  0
BLOCK_RECORD
  5
2F6A
330
2E20
100
AcDbSymbolTableRecord
100
AcDbBlockTableRecord
  2
*U72
340
0
  0
BLOCK_RECORD
  5
2F6C
330
2E20
100
AcDbSymbolTableRecord
100
AcDbBlockTableRecord
  2
*U73
340
0
  0
BLOCK_RECORD
  5
2F6E
330
2E20
100
AcDbSymbolTableRecord
100
AcDbBlockTableRecord
  2
*U74
340
0
102
{BLKREFS
331
2D9F
102
}
  0
BLOCK_RECORD
  5
2F70
330
2E20
100
AcDbSymbolTableRecord
100
AcDbBlockTableRecord
  2
*U75
340
0
102
{BLKREFS
331
2DA0
102
}
  0
BLOCK_RECORD
  5
2F72
330
2E20
100
AcDbSymbolTableRecord
100
AcDbBlockTableRecord
  2
*X76
340
0
102
{BLKREFS
331
2DC9
102
}
  0
BLOCK_RECORD
  5
2F74
330
2E20
100
AcDbSymbolTableRecord
100
AcDbBlockTableRecord
  2
*X77
340
0
102
{BLKREFS
331
2DCA
102
}
  0
ENDTAB
  0
ENDSEC
  0
SECTION
  2
BLOCKS
  0
BLOCK
  5
2E94
330
2E93
100
AcDbEntity
  8
0
100
AcDbBlockBegin
  2
*Model_Space
 70
     0
 10
0.0
 20
0.0
 30
0.0
  3
*Model_Space
  1

  0
ENDBLK
  5
2E95
330
2E93
100
AcDbEntity
  8
0
100
AcDbBlockEnd
  0
BLOCK
  5
2E90
330
2E8F
100
AcDbEntity
 67
     1
  8
0
100
AcDbBlockBegin
  2
*Paper_Space
 70
     0
 10
0.0
 20
0.0
 30
0.0
  3
*Paper_Space
  1

  0
ENDBLK
  5
2E91
330
2E8F
100
AcDbEntity
 67
     1
  8
0
100
AcDbBlockEnd
  0
BLOCK
  5
2EDB
330
2EDA
100
AcDbEntity
  8
0
100
AcDbBlockBegin
  2
$MODEL_SPACE
 70
     0
 10
0.0
 20
0.0
 30
0.0
  3
$MODEL_SPACE
  1

  0
ENDBLK
  5
1FC1
330
2EDA
100
AcDbEntity
  8
0
100
AcDbBlockEnd
  0
BLOCK
  5
2EDD
330
2EDC
100
AcDbEntity
  8
0
100
AcDbBlockBegin
  2
$PAPER_SPACE
 70
     0
 10
0.0
 20
0.0
 30
0.0
  3
$PAPER_SPACE
  1

  0
ENDBLK
  5
1FBD
330
2EDC
100
AcDbEntity
  8
0
100
AcDbBlockEnd
  0
BLOCK
  5
2EDF
330
2EDE
100
AcDbEntity
  8
0
100
AcDbBlockBegin
  2
_ORIGIN
 70
     0
 10
0.0
 20
0.0
 30
0.0
  3
_ORIGIN
  1

  0
CIRCLE
  5
880
330
2EDE
100
AcDbEntity
  8
0
  6
Continuous
 62
     7
100
AcDbCircle
 10
0.0
 20
0.0
 30
0.0
 40
0.5
  0
LINE
  5
881
330
2EDE
100
AcDbEntity
  8
0
  6
Continuous
 62
     7
100
AcDbLine
 10
0.0
 20
0.0
 30
0.0
 11
-1.0
 21
0.0
 31
0.0
  0
ENDBLK
  5
882
330
2EDE
100
AcDbEntity
  8
0
100
AcDbBlockEnd
  0
BLOCK
  5
2EE1
330
2EE0
100
AcDbEntity
  8
0
 62
     1
100
AcDbBlockBegin
  2
_DOTBLANK
 70
     0
 10
0.0
 20
0.0
 30
0.0
  3
_DOTBLANK
  1

  0
CIRCLE
  5
AB3
330
2EE0
100
AcDbEntity
  8
0
  6
ByBlock
 62
     0
100
AcDbCircle
 10
0.0
 20
0.0
 30
0.0
 40
0.5
  0
LINE
  5
AB4
330
2EE0
100
AcDbEntity
  8
0
  6
ByBlock
 62
     0
100
AcDbLine
 10
-0.5
 20
0.0
 30
0.0
 11
-1.0
 21
0.0
 31
0.0
  0
ENDBLK
  5
AB6
330
2EE0
100
AcDbEntity
  8
0
 62
     1
100
AcDbBlockEnd
  0
BLOCK
  5
2EE3
330
2EE2
100
AcDbEntity
  8
0
 62
     1
100
AcDbBlockBegin
  2
_OPEN30
 70
     0
 10
0.0
 20
0.0
 30
0.0
  3
_OPEN30
  1

  0
LINE
  5
AB8
330
2EE2
100
AcDbEntity
  8
0
  6
ByBlock
 62
     0
100
AcDbLine
 10
-1.0
 20
0.26794919
 30
0.0
 11
0.0
 21
0.0
 31
0.0
  0
LINE
  5
AB9
330
2EE2
100
AcDbEntity
  8
0
  6
ByBlock
 62
     0
100
AcDbLine
 10
0.0
 20
0.0
 30
0.0
 11
-1.0
 21
-0.26794919
 31
0.0
  0
LINE
  5
ABA
330
2EE2
100
AcDbEntity
  8
0
  6
ByBlock
 62
     0
100
AcDbLine
 10
0.0
 20
0.0
 30
0.0
 11
-1.0
 21
0.0
 31
0.0
  0
ENDBLK
  5
ABC
330
2EE2
100
AcDbEntity
  8
0
 62
     1
100
AcDbBlockEnd
  0
BLOCK
  5
2EE5
330
2EE4
100
AcDbEntity
  8
0
100
AcDbBlockBegin
  2
*D5
 70
     1
 10
0.0
 20
0.0
 30
0.0
  3
*D5
  1

  0
LINE
  5
1296
330
2EE4
100
AcDbEntity
  8
SIZE
 62
     0
100
AcDbLine
 10
-134.5
 20
-320.0
 30
0.0
 11
-134.5
 21
-468.0173952306001
 31
0.0
  0
LINE
  5
1297
330
2EE4
100
AcDbEntity
  8
SIZE
 62
     0
100
AcDbLine
 10
134.5
 20
-320.0
 30
0.0
 11
134.5
 21
-468.0173952306001
 31
0.0
  0
LINE
  5
1298
330
2EE4
100
AcDbEntity
  8
SIZE
 62
     0
100
AcDbLine
 10
-122.5
 20
-448.0173952306
 30
0.0
 11
122.5
 21
-448.0173952306
 31
0.0
  0
INSERT
  5
1299
330
2EE4
100
AcDbEntity
  8
SIZE
 62
     0
100
AcDbBlockReference
  2
_DOTBLANK
 10
-134.5
 20
-448.0173952306
 30
0.0
 41
12.0
 42
12.0
 43
12.0
 50
180.0
  0
INSERT
  5
129A
330
2EE4
100
AcDbEntity
  8
SIZE
 62
     0
100
AcDbBlockReference
  2
_DOTBLANK
 10
134.5
 20
-448.0173952306
 30
0.0
 41
12.0
 42
12.0
 43
12.0
  0
INSERT
  5
129B
330
2EE4
100
AcDbEntity
  8
0
100
AcDbBlockReference
  2
*U6
 10
0.0
 20
0.0
 30
0.0
  0
POINT
  5
129C
330
2EE4
100
AcDbEntity
  8
DEFPOINTS
 62
     0
100
AcDbPoint
 10
-134.5
 20
-300.0
 30
0.0
  0
POINT
  5
129D
330
2EE4
100
AcDbEntity
  8
DEFPOINTS
 62
     0
100
AcDbPoint
 10
134.5
 20
-300.0
 30
0.0
  0
POINT
  5
129E
330
2EE4
100
AcDbEntity
  8
DEFPOINTS
 62
     0
100
AcDbPoint
 10
134.5
 20
-448.0173952306
 30
0.0
  0
ENDBLK
  5
D72
330
2EE4
100
AcDbEntity
  8
0
100
AcDbBlockEnd
  0
BLOCK
  5
2EE7
330
2EE6
100
AcDbEntity
  8
0
100
AcDbBlockBegin
  2
*U6
 70
     1
 10
0.0
 20
0.0
 30
0.0
  3
*U6
  1

  0
TEXT
  5
1EF5
330
2EE6
100
AcDbEntity
  8
SIZE
 62
     0
100
AcDbText
 10
-72.68571428571426
 20
-438.0173952305999
 30
0.0
 40
64.0
  1
269
 41
0.9
100
AcDbText
  0
ENDBLK
  5
1EF7
330
2EE6
100
AcDbEntity
  8
0
100
AcDbBlockEnd
  0
BLOCK
  5
2EE9
330
2EE8
100
AcDbEntity
  8
0
100
AcDbBlockBegin
  2
*D7
 70
     1
 10
0.0
 20
0.0
 30
0.0
  3
*D7
  1

  0
LINE
  5
11A7
330
2EE8
100
AcDbEntity
  8
SIZE
  6
Continuous
 62
     0
100
AcDbLine
 10
143.5
 20
-300.0
 30
0.0
 11
304.6432844803791
 21
-300.0
 31
0.0
  0
LINE
  5
11A8
330
2EE8
100
AcDbEntity
  8
SIZE
  6
Continuous
 62
     0
100
AcDbLine
 10
177.5
 20
-0.0000000000000057
 30
0.0
 11
304.6432844803792
 21
-0.0000000000000417
 31
0.0
  0
LINE
  5
11A9
330
2EE8
100
AcDbEntity
  8
SIZE
  6
Continuous
 62
     0
100
AcDbLine
 10
284.6432844803791
 20
-288.0000000000001
 30
0.0
 11
284.6432844803792
 21
-12.00000000000003
 31
0.0
  0
INSERT
  5
11AA
330
2EE8
100
AcDbEntity
  8
SIZE
  6
Continuous
 62
     0
100
AcDbBlockReference
  2
_DOTBLANK
 10
284.6432844803791
 20
-300.0
 30
0.0
 41
12.0
 42
12.0
 43
12.0
 50
270.0
  0
INSERT
  5
11AB
330
2EE8
100
AcDbEntity
  8
SIZE
  6
Continuous
 62
     0
100
AcDbBlockReference
  2
_DOTBLANK
 10
284.6432844803792
 20
-0.000000000000036
 30
0.0
 41
12.0
 42
12.0
 43
12.0
 50
90.0
  0
INSERT
  5
11AC
330
2EE8
100
AcDbEntity
  8
0
100
AcDbBlockReference
  2
*U8
 10
0.0
 20
0.0
 30
0.0
  0
POINT
  5
11AD
330
2EE8
100
AcDbEntity
  8
DEFPOINTS
  6
Continuous
 62
     0
100
AcDbPoint
 10
123.5
 20
-300.0
 30
0.0
  0
POINT
  5
11AE
330
2EE8
100
AcDbEntity
  8
DEFPOINTS
  6
Continuous
 62
     0
100
AcDbPoint
 10
157.5
 20
0.0
 30
0.0
  0
POINT
  5
11AF
330
2EE8
100
AcDbEntity
  8
DEFPOINTS
  6
Continuous
 62
     0
100
AcDbPoint
 10
284.6432844803792
 20
-0.000000000000036
 30
0.0
  0
ENDBLK
  5
E11
330
2EE8
100
AcDbEntity
  8
0
100
AcDbBlockEnd
  0
BLOCK
  5
2EEB
330
2EEA
100
AcDbEntity
  8
0
100
AcDbBlockBegin
  2
*U8
 70
     1
 10
0.0
 20
0.0
 30
0.0
  3
*U8
  1

  0
TEXT
  5
1EE1
330
2EEA
100
AcDbEntity
  8
SIZE
 62
     0
100
AcDbText
 10
274.6432844803792
 20
-224.0571428571429
 30
0.0
 40
64.0
  1
300
 50
90.0
 41
0.9
100
AcDbText
  0
ENDBLK
  5
1EE3
330
2EEA
100
AcDbEntity
  8
0
100
AcDbBlockEnd
  0
BLOCK
  5
2EED
330
2EEC
100
AcDbEntity
  8
0
100
AcDbBlockBegin
  2
*D9
 70
     1
 10
0.0
 20
0.0
 30
0.0
  3
*D9
  1

  0
LINE
  5
E7D
330
2EEC
100
AcDbEntity
  8
SIZE
 62
     0
100
AcDbLine
 10
-139.9999999999998
 20
32.46448280219375
 30
0.0
 11
-139.9999999999998
 21
136.4516878685508
 31
0.0
  0
LINE
  5
E7E
330
2EEC
100
AcDbEntity
  8
SIZE
 62
     0
100
AcDbLine
 10
140.0
 20
32.46448280219375
 30
0.0
 11
140.0
 21
136.4516878685508
 31
0.0
  0
LINE
  5
E7F
330
2EEC
100
AcDbEntity
  8
SIZE
 62
     0
100
AcDbLine
 10
-128.0
 20
116.4516878685508
 30
0.0
 11
128.0
 21
116.4516878685508
 31
0.0
  0
INSERT
  5
E80
330
2EEC
100
AcDbEntity
  8
SIZE
 62
     0
100
AcDbBlockReference
  2
_DOTBLANK
 10
-139.9999999999998
 20
116.4516878685508
 30
0.0
 41
12.0
 42
12.0
 43
12.0
 50
180.0
  0
INSERT
  5
E81
330
2EEC
100
AcDbEntity
  8
SIZE
 62
     0
100
AcDbBlockReference
  2
_DOTBLANK
 10
140.0
 20
116.4516878685508
 30
0.0
 41
12.0
 42
12.0
 43
12.0
  0
INSERT
  5
E82
330
2EEC
100
AcDbEntity
  8
0
100
AcDbBlockReference
  2
*U10
 10
0.0
 20
0.0
 30
0.0
  0
POINT
  5
E83
330
2EEC
100
AcDbEntity
  8
DEFPOINTS
 62
     0
100
AcDbPoint
 10
-139.9999999999998
 20
12.46448280219374
 30
0.0
  0
POINT
  5
E84
330
2EEC
100
AcDbEntity
  8
DEFPOINTS
 62
     0
100
AcDbPoint
 10
140.0
 20
12.46448280219374
 30
0.0
  0
POINT
  5
E85
330
2EEC
100
AcDbEntity
  8
DEFPOINTS
 62
     0
100
AcDbPoint
 10
140.0
 20
116.4516878685508
 30
0.0
  0
ENDBLK
  5
E7C
330
2EEC
100
AcDbEntity
  8
0
100
AcDbBlockEnd
  0
BLOCK
  5
2EEF
330
2EEE
100
AcDbEntity
  8
0
100
AcDbBlockBegin
  2
*U10
 70
     1
 10
0.0
 20
0.0
 30
0.0
  3
*U10
  1

  0
TEXT
  5
1ED8
330
2EEE
100
AcDbEntity
  8
SIZE
 62
     0
100
AcDbText
 10
-74.05714285714281
 20
126.4516878685508
 30
0.0
 40
64.0
  1
280
 41
0.9
100
AcDbText
  0
ENDBLK
  5
1EDA
330
2EEE
100
AcDbEntity
  8
0
100
AcDbBlockEnd
  0
BLOCK
  5
2EF1
330
2EF0
100
AcDbEntity
  8
0
100
AcDbBlockBegin
  2
GENAXEH
 70
     0
 10
0.0
 20
0.0
 30
0.0
  3
GENAXEH
  1

  0
LINE
  5
FDB
330
2EF0
100
AcDbEntity
  8
0
100
AcDbLine
 10
-1.0
 20
0.0
 30
0.0
 11
1.0
 21
0.0
 31
0.0
  0
ENDBLK
  5
FDD
330
2EF0
100
AcDbEntity
  8
0
100
AcDbBlockEnd
  0
BLOCK
  5
2EF3
330
2EF2
100
AcDbEntity
  8
0
100
AcDbBlockBegin
  2
*D12
 70
     1
 10
0.0
 20
0.0
 30
0.0
  3
*D12
  1

  0
LINE
  5
1120
330
2EF2
100
AcDbEntity
  8
SIZE
 62
     0
100
AcDbLine
 10
-157.5
 20
20.0
 30
0.0
 11
-157.5
 21
245.5794621189598
 31
0.0
  0
LINE
  5
1121
330
2EF2
100
AcDbEntity
  8
SIZE
 62
     0
100
AcDbLine
 10
157.5
 20
20.0
 30
0.0
 11
157.5
 21
245.5794621189598
 31
0.0
  0
LINE
  5
1122
330
2EF2
100
AcDbEntity
  8
SIZE
 62
     0
100
AcDbLine
 10
-145.5
 20
225.5794621189598
 30
0.0
 11
145.5
 21
225.5794621189598
 31
0.0
  0
INSERT
  5
1123
330
2EF2
100
AcDbEntity
  8
SIZE
 62
     0
100
AcDbBlockReference
  2
_DOTBLANK
 10
-157.5
 20
225.5794621189598
 30
0.0
 41
12.0
 42
12.0
 43
12.0
 50
180.0
  0
INSERT
  5
1124
330
2EF2
100
AcDbEntity
  8
SIZE
 62
     0
100
AcDbBlockReference
  2
_DOTBLANK
 10
157.5
 20
225.5794621189598
 30
0.0
 41
12.0
 42
12.0
 43
12.0
  0
INSERT
  5
1125
330
2EF2
100
AcDbEntity
  8
0
100
AcDbBlockReference
  2
*U13
 10
0.0
 20
0.0
 30
0.0
  0
POINT
  5
1126
330
2EF2
100
AcDbEntity
  8
DEFPOINTS
 62
     0
100
AcDbPoint
 10
-157.5
 20
0.0
 30
0.0
  0
POINT
  5
1127
330
2EF2
100
AcDbEntity
  8
DEFPOINTS
 62
     0
100
AcDbPoint
 10
157.5
 20
0.0
 30
0.0
  0
POINT
  5
1128
330
2EF2
100
AcDbEntity
  8
DEFPOINTS
 62
     0
100
AcDbPoint
 10
157.5
 20
225.5794621189598
 30
0.0
  0
ENDBLK
  5
111F
330
2EF2
100
AcDbEntity
  8
0
100
AcDbBlockEnd
  0
BLOCK
  5
2EF5
330
2EF4
100
AcDbEntity
  8
0
100
AcDbBlockBegin
  2
*U13
 70
     1
 10
0.0
 20
0.0
 30
0.0
  3
*U13
  1

  0
TEXT
  5
1EDD
330
2EF4
100
AcDbEntity
  8
SIZE
 62
     0
100
AcDbText
 10
-68.57142857142857
 20
235.5794621189599
 30
0.0
 40
64.0
  1
315
 41
0.9
100
AcDbText
  0
ENDBLK
  5
1EDF
330
2EF4
100
AcDbEntity
  8
0
100
AcDbBlockEnd
  0
BLOCK
  5
2EF7
330
2EF6
100
AcDbEntity
  8
0
100
AcDbBlockBegin
  2
*D14
 70
     1
 10
0.0
 20
0.0
 30
0.0
  3
*D14
  1

  0
LINE
  5
11BD
330
2EF6
100
AcDbEntity
  8
NOTE
 62
     0
100
AcDbLine
 10
-123.4999999999999
 20
-320.0
 30
0.0
 11
-123.4999999999999
 21
-354.9529861856111
 31
0.0
  0
LINE
  5
11BE
330
2EF6
100
AcDbEntity
  8
NOTE
 62
     0
100
AcDbLine
 10
-133.4999999999998
 20
-331.2126909923287
 30
0.0
 11
-133.4999999999998
 21
-354.9529861856111
 31
0.0
  0
LINE
  5
11BF
330
2EF6
100
AcDbEntity
  8
NOTE
 62
     0
100
AcDbLine
 10
-111.4999999999999
 20
-334.9529861856112
 30
0.0
 11
-99.4999999999999
 21
-334.9529861856112
 31
0.0
  0
LINE
  5
11C0
330
2EF6
100
AcDbEntity
  8
NOTE
 62
     0
100
AcDbLine
 10
-145.4999999999998
 20
-334.9529861856112
 30
0.0
 11
-157.4999999999998
 21
-334.9529861856112
 31
0.0
  0
LINE
  5
11C1
330
2EF6
100
AcDbEntity
  8
NOTE
 62
     0
100
AcDbLine
 10
-123.4999999999999
 20
-334.9529861856112
 30
0.0
 11
-133.4999999999998
 21
-334.9529861856112
 31
0.0
  0
INSERT
  5
11C2
330
2EF6
100
AcDbEntity
  8
NOTE
 62
     0
100
AcDbBlockReference
  2
_DOTBLANK
 10
-123.4999999999999
 20
-334.9529861856112
 30
0.0
 41
12.0
 42
12.0
 43
12.0
 50
180.0
  0
INSERT
  5
11C3
330
2EF6
100
AcDbEntity
  8
NOTE
 62
     0
100
AcDbBlockReference
  2
_DOTBLANK
 10
-133.4999999999998
 20
-334.9529861856112
 30
0.0
 41
12.0
 42
12.0
 43
12.0
  0
INSERT
  5
11C4
330
2EF6
100
AcDbEntity
  8
0
100
AcDbBlockReference
  2
*U15
 10
0.0
 20
0.0
 30
0.0
  0
POINT
  5
11C5
330
2EF6
100
AcDbEntity
  8
DEFPOINTS
 62
     0
100
AcDbPoint
 10
-123.4999999999999
 20
-300.0
 30
0.0
  0
POINT
  5
11C6
330
2EF6
100
AcDbEntity
  8
DEFPOINTS
 62
     0
100
AcDbPoint
 10
-133.4999999999998
 20
-311.2126909923287
 30
0.0
  0
POINT
  5
11C7
330
2EF6
100
AcDbEntity
  8
DEFPOINTS
 62
     0
100
AcDbPoint
 10
-133.4999999999998
 20
-334.9529861856112
 30
0.0
  0
ENDBLK
  5
11BC
330
2EF6
100
AcDbEntity
  8
0
100
AcDbBlockEnd
  0
BLOCK
  5
2EF9
330
2EF8
100
AcDbEntity
  8
0
100
AcDbBlockBegin
  2
*U15
 70
     1
 10
0.0
 20
0.0
 30
0.0
  3
*U15
  1

  0
TEXT
  5
1EE5
330
2EF8
100
AcDbEntity
  8
NOTE
 62
     0
100
AcDbText
 10
-169.642857142857
 20
-324.9529861856112
 30
0.0
 40
64.0
  1
10
 41
0.9
100
AcDbText
  0
ENDBLK
  5
1EE7
330
2EF8
100
AcDbEntity
  8
0
100
AcDbBlockEnd
  0
BLOCK
  5
2EFB
330
2EFA
100
AcDbEntity
  8
0
100
AcDbBlockBegin
  2
*D16
 70
     1
 10
0.0
 20
0.0
 30
0.0
  3
*D16
  1

  0
LINE
  5
11E7
330
2EFA
100
AcDbEntity
  8
NOTE
 62
     0
100
AcDbLine
 10
-135.5
 20
-333.2126909923287
 30
0.0
 11
-135.5
 21
-386.2569421441843
 31
0.0
  0
LINE
  5
11E8
330
2EFA
100
AcDbEntity
  8
NOTE
 62
     0
100
AcDbLine
 10
-123.4999999999999
 20
-320.0
 30
0.0
 11
-123.4999999999999
 21
-386.2569421441843
 31
0.0
  0
LINE
  5
11E9
330
2EFA
100
AcDbEntity
  8
NOTE
 62
     0
100
AcDbLine
 10
-147.5
 20
-366.2569421441844
 30
0.0
 11
-159.5
 21
-366.2569421441844
 31
0.0
  0
LINE
  5
11EA
330
2EFA
100
AcDbEntity
  8
NOTE
 62
     0
100
AcDbLine
 10
-111.4999999999999
 20
-366.2569421441844
 30
0.0
 11
-99.4999999999999
 21
-366.2569421441844
 31
0.0
  0
LINE
  5
11EB
330
2EFA
100
AcDbEntity
  8
NOTE
 62
     0
100
AcDbLine
 10
-135.5
 20
-366.2569421441844
 30
0.0
 11
-123.4999999999999
 21
-366.2569421441844
 31
0.0
  0
INSERT
  5
11EC
330
2EFA
100
AcDbEntity
  8
NOTE
 62
     0
100
AcDbBlockReference
  2
_DOTBLANK
 10
-135.5
 20
-366.2569421441844
 30
0.0
 41
12.0
 42
12.0
 43
12.0
  0
INSERT
  5
11ED
330
2EFA
100
AcDbEntity
  8
NOTE
 62
     0
100
AcDbBlockReference
  2
_DOTBLANK
 10
-123.4999999999999
 20
-366.2569421441844
 30
0.0
 41
12.0
 42
12.0
 43
12.0
 50
180.0
  0
INSERT
  5
11EE
330
2EFA
100
AcDbEntity
  8
0
100
AcDbBlockReference
  2
*U17
 10
0.0
 20
0.0
 30
0.0
  0
POINT
  5
11EF
330
2EFA
100
AcDbEntity
  8
DEFPOINTS
 62
     0
100
AcDbPoint
 10
-135.5
 20
-313.2126909923287
 30
0.0
  0
POINT
  5
11F0
330
2EFA
100
AcDbEntity
  8
DEFPOINTS
 62
     0
100
AcDbPoint
 10
-123.4999999999999
 20
-300.0
 30
0.0
  0
POINT
  5
11F1
330
2EFA
100
AcDbEntity
  8
DEFPOINTS
 62
     0
100
AcDbPoint
 10
-123.4999999999999
 20
-366.2569421441844
 30
0.0
  0
ENDBLK
  5
11E6
330
2EFA
100
AcDbEntity
  8
0
100
AcDbBlockEnd
  0
BLOCK
  5
2EFD
330
2EFC
100
AcDbEntity
  8
0
100
AcDbBlockBegin
  2
*U17
 70
     1
 10
0.0
 20
0.0
 30
0.0
  3
*U17
  1

  0
TEXT
  5
1EE9
330
2EFC
100
AcDbEntity
  8
NOTE
 62
     0
100
AcDbText
 10
-170.642857142857
 20
-356.2569421441843
 30
0.0
 40
64.0
  1
12
 41
0.9
100
AcDbText
  0
ENDBLK
  5
1EEB
330
2EFC
100
AcDbEntity
  8
0
100
AcDbBlockEnd
  0
BLOCK
  5
2EFF
330
2EFE
100
AcDbEntity
  8
0
100
AcDbBlockBegin
  2
*D18
 70
     1
 10
0.0
 20
0.0
 30
0.0
  3
*D18
  1

  0
LINE
  5
11F6
330
2EFE
100
AcDbEntity
  8
NOTE
 62
     0
100
AcDbLine
 10
-123.4999999999999
 20
-320.0
 30
0.0
 11
-123.4999999999999
 21
-583.8286022818904
 31
0.0
  0
LINE
  5
11F7
330
2EFE
100
AcDbEntity
  8
NOTE
 62
     0
100
AcDbLine
 10
123.5
 20
-320.0
 30
0.0
 11
123.5
 21
-583.8286022818904
 31
0.0
  0
LINE
  5
11F8
330
2EFE
100
AcDbEntity
  8
NOTE
 62
     0
100
AcDbLine
 10
-111.4999999999999
 20
-563.8286022818904
 30
0.0
 11
111.5
 21
-563.8286022818904
 31
0.0
  0
INSERT
  5
11F9
330
2EFE
100
AcDbEntity
  8
NOTE
 62
     0
100
AcDbBlockReference
  2
_DOTBLANK
 10
-123.4999999999999
 20
-563.8286022818904
 30
0.0
 41
12.0
 42
12.0
 43
12.0
 50
180.0
  0
INSERT
  5
11FA
330
2EFE
100
AcDbEntity
  8
NOTE
 62
     0
100
AcDbBlockReference
  2
_DOTBLANK
 10
123.5
 20
-563.8286022818904
 30
0.0
 41
12.0
 42
12.0
 43
12.0
  0
INSERT
  5
11FB
330
2EFE
100
AcDbEntity
  8
0
100
AcDbBlockReference
  2
*U19
 10
0.0
 20
0.0
 30
0.0
  0
POINT
  5
11FC
330
2EFE
100
AcDbEntity
  8
DEFPOINTS
 62
     0
100
AcDbPoint
 10
-123.4999999999999
 20
-300.0
 30
0.0
  0
POINT
  5
11FD
330
2EFE
100
AcDbEntity
  8
DEFPOINTS
 62
     0
100
AcDbPoint
 10
123.5
 20
-300.0
 30
0.0
  0
POINT
  5
11FE
330
2EFE
100
AcDbEntity
  8
DEFPOINTS
 62
     0
100
AcDbPoint
 10
123.5
 20
-563.8286022818904
 30
0.0
  0
ENDBLK
  5
11F5
330
2EFE
100
AcDbEntity
  8
0
100
AcDbBlockEnd
  0
BLOCK
  5
2F01
330
2F00
100
AcDbEntity
  8
0
100
AcDbBlockBegin
  2
*U19
 70
     1
 10
0.0
 20
0.0
 30
0.0
  3
*U19
  1

  0
TEXT
  5
1EED
330
2F00
100
AcDbEntity
  8
NOTE
 62
     0
100
AcDbText
 10
-74.05714285714281
 20
-553.8286022818904
 30
0.0
 40
64.0
  1
247
 41
0.9
100
AcDbText
  0
ENDBLK
  5
1EEF
330
2F00
100
AcDbEntity
  8
0
100
AcDbBlockEnd
  0
BLOCK
  5
2F03
330
2F02
100
AcDbEntity
  8
0
100
AcDbBlockBegin
  2
*D20
 70
     1
 10
0.0
 20
0.0
 30
0.0
  3
*D20
  1

  0
LINE
  5
1284
330
2F02
100
AcDbEntity
  8
NOTE
 62
     0
100
AcDbLine
 10
-123.5
 20
12.0
 30
0.0
 11
-123.5
 21
71.83630134534229
 31
0.0
  0
LINE
  5
1285
330
2F02
100
AcDbEntity
  8
NOTE
 62
     0
100
AcDbLine
 10
123.5
 20
12.0
 30
0.0
 11
123.5
 21
71.83630134534229
 31
0.0
  0
LINE
  5
1286
330
2F02
100
AcDbEntity
  8
NOTE
 62
     0
100
AcDbLine
 10
-111.5
 20
51.83630134534229
 30
0.0
 11
111.5
 21
51.83630134534229
 31
0.0
  0
INSERT
  5
1287
330
2F02
100
AcDbEntity
  8
NOTE
 62
     0
100
AcDbBlockReference
  2
_DOTBLANK
 10
-123.5
 20
51.83630134534229
 30
0.0
 41
12.0
 42
12.0
 43
12.0
 50
180.0
  0
INSERT
  5
1288
330
2F02
100
AcDbEntity
  8
NOTE
 62
     0
100
AcDbBlockReference
  2
_DOTBLANK
 10
123.5
 20
51.83630134534229
 30
0.0
 41
12.0
 42
12.0
 43
12.0
  0
INSERT
  5
1289
330
2F02
100
AcDbEntity
  8
0
100
AcDbBlockReference
  2
*U21
 10
0.0
 20
0.0
 30
0.0
  0
POINT
  5
128A
330
2F02
100
AcDbEntity
  8
DEFPOINTS
 62
     0
100
AcDbPoint
 10
-123.5
 20
-8.0
 30
0.0
  0
POINT
  5
128B
330
2F02
100
AcDbEntity
  8
DEFPOINTS
 62
     0
100
AcDbPoint
 10
123.5
 20
-8.0
 30
0.0
  0
POINT
  5
128C
330
2F02
100
AcDbEntity
  8
DEFPOINTS
 62
     0
100
AcDbPoint
 10
123.5
 20
51.83630134534229
 30
0.0
  0
ENDBLK
  5
1283
330
2F02
100
AcDbEntity
  8
0
100
AcDbBlockEnd
  0
BLOCK
  5
2F05
330
2F04
100
AcDbEntity
  8
0
100
AcDbBlockBegin
  2
*U21
 70
     1
 10
0.0
 20
0.0
 30
0.0
  3
*U21
  1

  0
TEXT
  5
1EF1
330
2F04
100
AcDbEntity
  8
NOTE
 62
     0
100
AcDbText
 10
-74.05714285714283
 20
61.83630134534229
 30
0.0
 40
64.0
  1
247
 41
0.9
100
AcDbText
  0
ENDBLK
  5
1EF3
330
2F04
100
AcDbEntity
  8
0
100
AcDbBlockEnd
  0
BLOCK
  5
2F07
330
2F06
100
AcDbEntity
  8
0
100
AcDbBlockBegin
  2
*D22
 70
     1
 10
0.0
 20
0.0
 30
0.0
  3
*D22
  1

  0
LINE
  5
1414
330
2F06
100
AcDbEntity
  8
SIZE
 62
     0
100
AcDbLine
 10
-22313.11521613997
 20
7365.702971374808
 30
0.0
 11
-22313.11521613997
 21
7217.685576144207
 31
0.0
  0
LINE
  5
1415
330
2F06
100
AcDbEntity
  8
SIZE
 62
     0
100
AcDbLine
 10
-22044.11521613997
 20
7365.702971374808
 30
0.0
 11
-22044.11521613997
 21
7217.685576144207
 31
0.0
  0
LINE
  5
1416
330
2F06
100
AcDbEntity
  8
SIZE
 62
     0
100
AcDbLine
 10
-22301.11521613997
 20
7237.685576144207
 30
0.0
 11
-22056.11521613997
 21
7237.685576144207
 31
0.0
  0
INSERT
  5
1417
330
2F06
100
AcDbEntity
  8
SIZE
 62
     0
100
AcDbBlockReference
  2
_DOTBLANK
 10
-22313.11521613997
 20
7237.685576144207
 30
0.0
 41
12.0
 42
12.0
 43
12.0
 50
180.0
  0
INSERT
  5
1418
330
2F06
100
AcDbEntity
  8
SIZE
 62
     0
100
AcDbBlockReference
  2
_DOTBLANK
 10
-22044.11521613997
 20
7237.685576144207
 30
0.0
 41
12.0
 42
12.0
 43
12.0
  0
INSERT
  5
1419
330
2F06
100
AcDbEntity
  8
0
100
AcDbBlockReference
  2
*U23
 10
0.0
 20
0.0
 30
0.0
  0
POINT
  5
141A
330
2F06
100
AcDbEntity
  8
DEFPOINTS
 62
     0
100
AcDbPoint
 10
-22313.11521613997
 20
7385.702971374808
 30
0.0
  0
POINT
  5
141B
330
2F06
100
AcDbEntity
  8
DEFPOINTS
 62
     0
100
AcDbPoint
 10
-22044.11521613997
 20
7385.702971374808
 30
0.0
  0
POINT
  5
141C
330
2F06
100
AcDbEntity
  8
DEFPOINTS
 62
     0
100
AcDbPoint
 10
-22044.11521613997
 20
7237.685576144207
 30
0.0
  0
ENDBLK
  5
141D
330
2F06
100
AcDbEntity
  8
0
100
AcDbBlockEnd
  0
BLOCK
  5
2F09
330
2F08
100
AcDbEntity
  8
0
100
AcDbBlockBegin
  2
*U23
 70
     1
 10
0.0
 20
0.0
 30
0.0
  3
*U23
  1

  0
TEXT
  5
1EF9
330
2F08
100
AcDbEntity
  8
SIZE
 62
     0
100
AcDbText
 10
-22251.30093042568
 20
7247.685576144205
 30
0.0
 40
64.0
  1
269
 41
0.9
100
AcDbText
  0
ENDBLK
  5
1EFB
330
2F08
100
AcDbEntity
  8
0
100
AcDbBlockEnd
  0
BLOCK
  5
2F0B
330
2F0A
100
AcDbEntity
  8
0
100
AcDbBlockBegin
  2
*D24
 70
     1
 10
0.0
 20
0.0
 30
0.0
  3
*D24
  1

  0
LINE
  5
1420
330
2F0A
100
AcDbEntity
  8
SIZE
  6
Continuous
 62
     0
100
AcDbLine
 10
-22035.11521613997
 20
7385.702971374808
 30
0.0
 11
-21873.97193165959
 21
7385.702971374808
 31
0.0
  0
LINE
  5
1421
330
2F0A
100
AcDbEntity
  8
SIZE
  6
Continuous
 62
     0
100
AcDbLine
 10
-22001.11521613997
 20
7685.702971374808
 30
0.0
 11
-21873.97193165959
 21
7685.702971374808
 31
0.0
  0
LINE
  5
1422
330
2F0A
100
AcDbEntity
  8
SIZE
  6
Continuous
 62
     0
100
AcDbLine
 10
-21893.97193165959
 20
7397.702971374808
 30
0.0
 11
-21893.97193165959
 21
7673.702971374808
 31
0.0
  0
INSERT
  5
1423
330
2F0A
100
AcDbEntity
  8
SIZE
  6
Continuous
 62
     0
100
AcDbBlockReference
  2
_DOTBLANK
 10
-21893.97193165959
 20
7385.702971374808
 30
0.0
 41
12.0
 42
12.0
 43
12.0
 50
270.0
  0
INSERT
  5
1424
330
2F0A
100
AcDbEntity
  8
SIZE
  6
Continuous
 62
     0
100
AcDbBlockReference
  2
_DOTBLANK
 10
-21893.97193165959
 20
7685.702971374808
 30
0.0
 41
12.0
 42
12.0
 43
12.0
 50
90.0
  0
INSERT
  5
1425
330
2F0A
100
AcDbEntity
  8
0
100
AcDbBlockReference
  2
*U25
 10
0.0
 20
0.0
 30
0.0
  0
POINT
  5
1426
330
2F0A
100
AcDbEntity
  8
DEFPOINTS
  6
Continuous
 62
     0
100
AcDbPoint
 10
-22055.11521613997
 20
7385.702971374808
 30
0.0
  0
POINT
  5
1427
330
2F0A
100
AcDbEntity
  8
DEFPOINTS
  6
Continuous
 62
     0
100
AcDbPoint
 10
-22021.11521613997
 20
7685.702971374808
 30
0.0
  0
POINT
  5
1428
330
2F0A
100
AcDbEntity
  8
DEFPOINTS
  6
Continuous
 62
     0
100
AcDbPoint
 10
-21893.97193165959
 20
7685.702971374808
 30
0.0
  0
ENDBLK
  5
1429
330
2F0A
100
AcDbEntity
  8
0
100
AcDbBlockEnd
  0
BLOCK
  5
2F0D
330
2F0C
100
AcDbEntity
  8
0
100
AcDbBlockBegin
  2
*U25
 70
     1
 10
0.0
 20
0.0
 30
0.0
  3
*U25
  1

  0
TEXT
  5
1EFD
330
2F0C
100
AcDbEntity
  8
SIZE
 62
     0
100
AcDbText
 10
-21903.97193165959
 20
7461.645828517662
 30
0.0
 40
64.0
  1
300
 50
90.0
 41
0.9
100
AcDbText
  0
ENDBLK
  5
1EFF
330
2F0C
100
AcDbEntity
  8
0
100
AcDbBlockEnd
  0
BLOCK
  5
2F0F
330
2F0E
100
AcDbEntity
  8
0
100
AcDbBlockBegin
  2
*D26
 70
     1
 10
0.0
 20
0.0
 30
0.0
  3
*D26
  1

  0
LINE
  5
142C
330
2F0E
100
AcDbEntity
  8
SIZE
 62
     0
100
AcDbLine
 10
-22318.61521613997
 20
7718.167454177002
 30
0.0
 11
-22318.61521613997
 21
7822.154659243358
 31
0.0
  0
LINE
  5
142D
330
2F0E
100
AcDbEntity
  8
SIZE
 62
     0
100
AcDbLine
 10
-22038.61521613997
 20
7718.167454177002
 30
0.0
 11
-22038.61521613997
 21
7822.154659243358
 31
0.0
  0
LINE
  5
142E
330
2F0E
100
AcDbEntity
  8
SIZE
 62
     0
100
AcDbLine
 10
-22306.61521613997
 20
7802.154659243358
 30
0.0
 11
-22050.61521613997
 21
7802.154659243358
 31
0.0
  0
INSERT
  5
142F
330
2F0E
100
AcDbEntity
  8
SIZE
 62
     0
100
AcDbBlockReference
  2
_DOTBLANK
 10
-22318.61521613997
 20
7802.154659243358
 30
0.0
 41
12.0
 42
12.0
 43
12.0
 50
180.0
  0
INSERT
  5
1430
330
2F0E
100
AcDbEntity
  8
SIZE
 62
     0
100
AcDbBlockReference
  2
_DOTBLANK
 10
-22038.61521613997
 20
7802.154659243358
 30
0.0
 41
12.0
 42
12.0
 43
12.0
  0
INSERT
  5
1431
330
2F0E
100
AcDbEntity
  8
0
100
AcDbBlockReference
  2
*U27
 10
0.0
 20
0.0
 30
0.0
  0
POINT
  5
1432
330
2F0E
100
AcDbEntity
  8
DEFPOINTS
 62
     0
100
AcDbPoint
 10
-22318.61521613997
 20
7698.167454177002
 30
0.0
  0
POINT
  5
1433
330
2F0E
100
AcDbEntity
  8
DEFPOINTS
 62
     0
100
AcDbPoint
 10
-22038.61521613997
 20
7698.167454177002
 30
0.0
  0
POINT
  5
1434
330
2F0E
100
AcDbEntity
  8
DEFPOINTS
 62
     0
100
AcDbPoint
 10
-22038.61521613997
 20
7802.154659243358
 30
0.0
  0
ENDBLK
  5
1435
330
2F0E
100
AcDbEntity
  8
0
100
AcDbBlockEnd
  0
BLOCK
  5
2F11
330
2F10
100
AcDbEntity
  8
0
100
AcDbBlockBegin
  2
*U27
 70
     1
 10
0.0
 20
0.0
 30
0.0
  3
*U27
  1

  0
TEXT
  5
1F01
330
2F10
100
AcDbEntity
  8
SIZE
 62
     0
100
AcDbText
 10
-22252.6723589971
 20
7812.154659243358
 30
0.0
 40
64.0
  1
280
 41
0.9
100
AcDbText
  0
ENDBLK
  5
1F03
330
2F10
100
AcDbEntity
  8
0
100
AcDbBlockEnd
  0
BLOCK
  5
2F13
330
2F12
100
AcDbEntity
  8
0
100
AcDbBlockBegin
  2
*D28
 70
     1
 10
0.0
 20
0.0
 30
0.0
  3
*D28
  1

  0
LINE
  5
1438
330
2F12
100
AcDbEntity
  8
SIZE
 62
     0
100
AcDbLine
 10
-22336.11521613997
 20
7705.702971374808
 30
0.0
 11
-22336.11521613997
 21
7931.282433493766
 31
0.0
  0
LINE
  5
1439
330
2F12
100
AcDbEntity
  8
SIZE
 62
     0
100
AcDbLine
 10
-22021.11521613997
 20
7705.702971374808
 30
0.0
 11
-22021.11521613997
 21
7931.282433493766
 31
0.0
  0
LINE
  5
143A
330
2F12
100
AcDbEntity
  8
SIZE
 62
     0
100
AcDbLine
 10
-22324.11521613997
 20
7911.282433493766
 30
0.0
 11
-22033.11521613997
 21
7911.282433493766
 31
0.0
  0
INSERT
  5
143B
330
2F12
100
AcDbEntity
  8
SIZE
 62
     0
100
AcDbBlockReference
  2
_DOTBLANK
 10
-22336.11521613997
 20
7911.282433493766
 30
0.0
 41
12.0
 42
12.0
 43
12.0
 50
180.0
  0
INSERT
  5
143C
330
2F12
100
AcDbEntity
  8
SIZE
 62
     0
100
AcDbBlockReference
  2
_DOTBLANK
 10
-22021.11521613997
 20
7911.282433493766
 30
0.0
 41
12.0
 42
12.0
 43
12.0
  0
INSERT
  5
143D
330
2F12
100
AcDbEntity
  8
0
100
AcDbBlockReference
  2
*U29
 10
0.0
 20
0.0
 30
0.0
  0
POINT
  5
143E
330
2F12
100
AcDbEntity
  8
DEFPOINTS
 62
     0
100
AcDbPoint
 10
-22336.11521613997
 20
7685.702971374808
 30
0.0
  0
POINT
  5
143F
330
2F12
100
AcDbEntity
  8
DEFPOINTS
 62
     0
100
AcDbPoint
 10
-22021.11521613997
 20
7685.702971374808
 30
0.0
  0
POINT
  5
1440
330
2F12
100
AcDbEntity
  8
DEFPOINTS
 62
     0
100
AcDbPoint
 10
-22021.11521613997
 20
7911.282433493766
 30
0.0
  0
ENDBLK
  5
1441
330
2F12
100
AcDbEntity
  8
0
100
AcDbBlockEnd
  0
BLOCK
  5
2F15
330
2F14
100
AcDbEntity
  8
0
100
AcDbBlockBegin
  2
*U29
 70
     1
 10
0.0
 20
0.0
 30
0.0
  3
*U29
  1

  0
TEXT
  5
1F05
330
2F14
100
AcDbEntity
  8
SIZE
 62
     0
100
AcDbText
 10
-22247.18664471139
 20
7921.282433493766
 30
0.0
 40
64.0
  1
315
 41
0.9
100
AcDbText
  0
ENDBLK
  5
1F07
330
2F14
100
AcDbEntity
  8
0
100
AcDbBlockEnd
  0
BLOCK
  5
2F17
330
2F16
100
AcDbEntity
  8
0
100
AcDbBlockBegin
  2
*D30
 70
     1
 10
0.0
 20
0.0
 30
0.0
  3
*D30
  1

  0
LINE
  5
166B
330
2F16
100
AcDbEntity
  8
SIZE
 62
     0
100
AcDbLine
 10
-134.5
 20
-320.0
 30
0.0
 11
-134.5
 21
-468.0173952306001
 31
0.0
  0
LINE
  5
166C
330
2F16
100
AcDbEntity
  8
SIZE
 62
     0
100
AcDbLine
 10
134.5
 20
-320.0
 30
0.0
 11
134.5
 21
-468.0173952306001
 31
0.0
  0
LINE
  5
166D
330
2F16
100
AcDbEntity
  8
SIZE
 62
     0
100
AcDbLine
 10
-122.5
 20
-448.0173952306
 30
0.0
 11
122.5
 21
-448.0173952306
 31
0.0
  0
INSERT
  5
166E
330
2F16
100
AcDbEntity
  8
SIZE
 62
     0
100
AcDbBlockReference
  2
_DOTBLANK
 10
-134.5
 20
-448.0173952306
 30
0.0
 41
12.0
 42
12.0
 43
12.0
 50
180.0
  0
INSERT
  5
166F
330
2F16
100
AcDbEntity
  8
SIZE
 62
     0
100
AcDbBlockReference
  2
_DOTBLANK
 10
134.5
 20
-448.0173952306
 30
0.0
 41
12.0
 42
12.0
 43
12.0
  0
INSERT
  5
1670
330
2F16
100
AcDbEntity
  8
0
100
AcDbBlockReference
  2
*U31
 10
0.0
 20
0.0
 30
0.0
  0
POINT
  5
1671
330
2F16
100
AcDbEntity
  8
DEFPOINTS
 62
     0
100
AcDbPoint
 10
-134.5
 20
-300.0
 30
0.0
  0
POINT
  5
1672
330
2F16
100
AcDbEntity
  8
DEFPOINTS
 62
     0
100
AcDbPoint
 10
134.5
 20
-300.0
 30
0.0
  0
POINT
  5
1673
330
2F16
100
AcDbEntity
  8
DEFPOINTS
 62
     0
100
AcDbPoint
 10
134.5
 20
-448.0173952306
 30
0.0
  0
ENDBLK
  5
14A7
330
2F16
100
AcDbEntity
  8
0
100
AcDbBlockEnd
  0
BLOCK
  5
2F19
330
2F18
100
AcDbEntity
  8
0
100
AcDbBlockBegin
  2
*U31
 70
     1
 10
0.0
 20
0.0
 30
0.0
  3
*U31
  1

  0
TEXT
  5
1F09
330
2F18
100
AcDbEntity
  8
SIZE
 62
     0
100
AcDbText
 10
-72.68571428571426
 20
-438.0173952306002
 30
0.0
 40
64.0
  1
269
 41
0.9
100
AcDbText
  0
ENDBLK
  5
1F0B
330
2F18
100
AcDbEntity
  8
0
100
AcDbBlockEnd
  0
BLOCK
  5
2F1B
330
2F1A
100
AcDbEntity
  8
0
100
AcDbBlockBegin
  2
*D32
 70
     1
 10
0.0
 20
0.0
 30
0.0
  3
*D32
  1

  0
LINE
  5
1674
330
2F1A
100
AcDbEntity
  8
SIZE
  6
Continuous
 62
     0
100
AcDbLine
 10
143.5
 20
-300.0
 30
0.0
 11
304.6432844803784
 21
-300.0
 31
0.0
  0
LINE
  5
1675
330
2F1A
100
AcDbEntity
  8
SIZE
  6
Continuous
 62
     0
100
AcDbLine
 10
177.5
 20
-0.0000000000000057
 30
0.0
 11
304.6432844803785
 21
-0.0000000000000417
 31
0.0
  0
LINE
  5
1676
330
2F1A
100
AcDbEntity
  8
SIZE
  6
Continuous
 62
     0
100
AcDbLine
 10
284.6432844803784
 20
-288.0000000000001
 30
0.0
 11
284.6432844803785
 21
-12.00000000000003
 31
0.0
  0
INSERT
  5
1677
330
2F1A
100
AcDbEntity
  8
SIZE
  6
Continuous
 62
     0
100
AcDbBlockReference
  2
_DOTBLANK
 10
284.6432844803784
 20
-300.0
 30
0.0
 41
12.0
 42
12.0
 43
12.0
 50
270.0
  0
INSERT
  5
1678
330
2F1A
100
AcDbEntity
  8
SIZE
  6
Continuous
 62
     0
100
AcDbBlockReference
  2
_DOTBLANK
 10
284.6432844803785
 20
-0.000000000000036
 30
0.0
 41
12.0
 42
12.0
 43
12.0
 50
90.0
  0
INSERT
  5
1679
330
2F1A
100
AcDbEntity
  8
0
100
AcDbBlockReference
  2
*U33
 10
0.0
 20
0.0
 30
0.0
  0
POINT
  5
167A
330
2F1A
100
AcDbEntity
  8
DEFPOINTS
  6
Continuous
 62
     0
100
AcDbPoint
 10
123.5
 20
-300.0
 30
0.0
  0
POINT
  5
167B
330
2F1A
100
AcDbEntity
  8
DEFPOINTS
  6
Continuous
 62
     0
100
AcDbPoint
 10
157.5
 20
0.0
 30
0.0
  0
POINT
  5
167C
330
2F1A
100
AcDbEntity
  8
DEFPOINTS
  6
Continuous
 62
     0
100
AcDbPoint
 10
284.6432844803785
 20
-0.000000000000036
 30
0.0
  0
ENDBLK
  5
14B3
330
2F1A
100
AcDbEntity
  8
0
100
AcDbBlockEnd
  0
BLOCK
  5
2F1D
330
2F1C
100
AcDbEntity
  8
0
100
AcDbBlockBegin
  2
*U33
 70
     1
 10
0.0
 20
0.0
 30
0.0
  3
*U33
  1

  0
TEXT
  5
1F0D
330
2F1C
100
AcDbEntity
  8
SIZE
 62
     0
100
AcDbText
 10
274.6432844803785
 20
-224.0571428571429
 30
0.0
 40
64.0
  1
300
 50
90.0
 41
0.9
100
AcDbText
  0
ENDBLK
  5
1F0F
330
2F1C
100
AcDbEntity
  8
0
100
AcDbBlockEnd
  0
BLOCK
  5
2F1F
330
2F1E
100
AcDbEntity
  8
0
100
AcDbBlockBegin
  2
*D34
 70
     1
 10
0.0
 20
0.0
 30
0.0
  3
*D34
  1

  0
LINE
  5
167D
330
2F1E
100
AcDbEntity
  8
SIZE
 62
     0
100
AcDbLine
 10
-140.0
 20
32.46448280219375
 30
0.0
 11
-140.0
 21
136.4516878685507
 31
0.0
  0
LINE
  5
167E
330
2F1E
100
AcDbEntity
  8
SIZE
 62
     0
100
AcDbLine
 10
140.0
 20
32.46448280219375
 30
0.0
 11
140.0
 21
136.4516878685507
 31
0.0
  0
LINE
  5
167F
330
2F1E
100
AcDbEntity
  8
SIZE
 62
     0
100
AcDbLine
 10
-128.0
 20
116.4516878685508
 30
0.0
 11
128.0
 21
116.4516878685508
 31
0.0
  0
INSERT
  5
1680
330
2F1E
100
AcDbEntity
  8
SIZE
 62
     0
100
AcDbBlockReference
  2
_DOTBLANK
 10
-140.0
 20
116.4516878685508
 30
0.0
 41
12.0
 42
12.0
 43
12.0
 50
180.0
  0
INSERT
  5
1681
330
2F1E
100
AcDbEntity
  8
SIZE
 62
     0
100
AcDbBlockReference
  2
_DOTBLANK
 10
140.0
 20
116.4516878685508
 30
0.0
 41
12.0
 42
12.0
 43
12.0
  0
INSERT
  5
1682
330
2F1E
100
AcDbEntity
  8
0
100
AcDbBlockReference
  2
*U35
 10
0.0
 20
0.0
 30
0.0
  0
POINT
  5
1683
330
2F1E
100
AcDbEntity
  8
DEFPOINTS
 62
     0
100
AcDbPoint
 10
-140.0
 20
12.46448280219374
 30
0.0
  0
POINT
  5
1684
330
2F1E
100
AcDbEntity
  8
DEFPOINTS
 62
     0
100
AcDbPoint
 10
140.0
 20
12.46448280219374
 30
0.0
  0
POINT
  5
1685
330
2F1E
100
AcDbEntity
  8
DEFPOINTS
 62
     0
100
AcDbPoint
 10
140.0
 20
116.4516878685508
 30
0.0
  0
ENDBLK
  5
14BF
330
2F1E
100
AcDbEntity
  8
0
100
AcDbBlockEnd
  0
BLOCK
  5
2F21
330
2F20
100
AcDbEntity
  8
0
100
AcDbBlockBegin
  2
*U35
 70
     1
 10
0.0
 20
0.0
 30
0.0
  3
*U35
  1

  0
TEXT
  5
1F11
330
2F20
100
AcDbEntity
  8
SIZE
 62
     0
100
AcDbText
 10
-74.05714285714283
 20
126.4516878685507
 30
0.0
 40
64.0
  1
280
 41
0.9
100
AcDbText
  0
ENDBLK
  5
1F13
330
2F20
100
AcDbEntity
  8
0
100
AcDbBlockEnd
  0
BLOCK
  5
2F23
330
2F22
100
AcDbEntity
  8
0
100
AcDbBlockBegin
  2
*D36
 70
     1
 10
0.0
 20
0.0
 30
0.0
  3
*D36
  1

  0
LINE
  5
1686
330
2F22
100
AcDbEntity
  8
SIZE
 62
     0
100
AcDbLine
 10
-157.5
 20
20.0
 30
0.0
 11
-157.5
 21
245.5794621189598
 31
0.0
  0
LINE
  5
1687
330
2F22
100
AcDbEntity
  8
SIZE
 62
     0
100
AcDbLine
 10
157.5
 20
20.0
 30
0.0
 11
157.5
 21
245.5794621189598
 31
0.0
  0
LINE
  5
1688
330
2F22
100
AcDbEntity
  8
SIZE
 62
     0
100
AcDbLine
 10
-145.5
 20
225.5794621189598
 30
0.0
 11
145.5
 21
225.5794621189598
 31
0.0
  0
INSERT
  5
1689
330
2F22
100
AcDbEntity
  8
SIZE
 62
     0
100
AcDbBlockReference
  2
_DOTBLANK
 10
-157.5
 20
225.5794621189598
 30
0.0
 41
12.0
 42
12.0
 43
12.0
 50
180.0
  0
INSERT
  5
168A
330
2F22
100
AcDbEntity
  8
SIZE
 62
     0
100
AcDbBlockReference
  2
_DOTBLANK
 10
157.5
 20
225.5794621189598
 30
0.0
 41
12.0
 42
12.0
 43
12.0
  0
INSERT
  5
168B
330
2F22
100
AcDbEntity
  8
0
100
AcDbBlockReference
  2
*U37
 10
0.0
 20
0.0
 30
0.0
  0
POINT
  5
168C
330
2F22
100
AcDbEntity
  8
DEFPOINTS
 62
     0
100
AcDbPoint
 10
-157.5
 20
0.0
 30
0.0
  0
POINT
  5
168D
330
2F22
100
AcDbEntity
  8
DEFPOINTS
 62
     0
100
AcDbPoint
 10
157.5
 20
0.0
 30
0.0
  0
POINT
  5
168E
330
2F22
100
AcDbEntity
  8
DEFPOINTS
 62
     0
100
AcDbPoint
 10
157.5
 20
225.5794621189598
 30
0.0
  0
ENDBLK
  5
14CB
330
2F22
100
AcDbEntity
  8
0
100
AcDbBlockEnd
  0
BLOCK
  5
2F25
330
2F24
100
AcDbEntity
  8
0
100
AcDbBlockBegin
  2
*U37
 70
     1
 10
0.0
 20
0.0
 30
0.0
  3
*U37
  1

  0
TEXT
  5
1F15
330
2F24
100
AcDbEntity
  8
SIZE
 62
     0
100
AcDbText
 10
-68.57142857142857
 20
235.5794621189598
 30
0.0
 40
64.0
  1
315
 41
0.9
100
AcDbText
  0
ENDBLK
  5
1F17
330
2F24
100
AcDbEntity
  8
0
100
AcDbBlockEnd
  0
BLOCK
  5
2F27
330
2F26
100
AcDbEntity
  8
0
100
AcDbBlockBegin
  2
*U38
 70
     1
 10
0.0
 20
0.0
 30
0.0
  3
*U38
  1

  0
ENDBLK
  5
15CF
330
2F26
100
AcDbEntity
  8
0
100
AcDbBlockEnd
  0
BLOCK
  5
2F29
330
2F28
100
AcDbEntity
  8
0
100
AcDbBlockBegin
  2
*D39
 70
     1
 10
0.0
 20
0.0
 30
0.0
  3
*D39
  1

  0
LINE
  5
1692
330
2F28
100
AcDbEntity
  8
SIZE
 62
     0
100
AcDbLine
 10
-25844.51823276502
 20
7685.702971374808
 30
0.0
 11
-25981.04465488371
 21
7685.702971374808
 31
0.0
  0
LINE
  5
1693
330
2F28
100
AcDbEntity
  8
SIZE
 62
     0
100
AcDbLine
 10
-25844.51823276502
 20
7677.702971374808
 30
0.0
 11
-25981.04465488371
 21
7677.702971374808
 31
0.0
  0
LINE
  5
1694
330
2F28
100
AcDbEntity
  8
SIZE
 62
     0
100
AcDbLine
 10
-25961.04465488371
 20
7697.702971374808
 30
0.0
 11
-25961.04465488371
 21
7709.702971374809
 31
0.0
  0
LINE
  5
1695
330
2F28
100
AcDbEntity
  8
SIZE
 62
     0
100
AcDbLine
 10
-25961.04465488371
 20
7665.70297137481
 30
0.0
 11
-25961.04465488371
 21
7595.302971374808
 31
0.0
  0
INSERT
  5
1696
330
2F28
100
AcDbEntity
  8
SIZE
 62
     0
100
AcDbBlockReference
  2
_DOTBLANK
 10
-25961.04465488371
 20
7685.702971374808
 30
0.0
 41
12.0
 42
12.0
 43
12.0
 50
270.0
  0
INSERT
  5
1697
330
2F28
100
AcDbEntity
  8
SIZE
 62
     0
100
AcDbBlockReference
  2
_DOTBLANK
 10
-25961.04465488371
 20
7677.702971374808
 30
0.0
 41
12.0
 42
12.0
 43
12.0
 50
90.0
  0
INSERT
  5
1698
330
2F28
100
AcDbEntity
  8
0
100
AcDbBlockReference
  2
*U40
 10
0.0
 20
0.0
 30
0.0
  0
POINT
  5
1699
330
2F28
100
AcDbEntity
  8
DEFPOINTS
 62
     0
100
AcDbPoint
 10
-25824.51823276501
 20
7685.702971374808
 30
0.0
  0
POINT
  5
169A
330
2F28
100
AcDbEntity
  8
DEFPOINTS
 62
     0
100
AcDbPoint
 10
-25824.51823276501
 20
7677.702971374808
 30
0.0
  0
POINT
  5
169B
330
2F28
100
AcDbEntity
  8
DEFPOINTS
 62
     0
100
AcDbPoint
 10
-25961.04465488371
 20
7677.702971374808
 30
0.0
  0
ENDBLK
  5
169C
330
2F28
100
AcDbEntity
  8
0
100
AcDbBlockEnd
  0
BLOCK
  5
2F2B
330
2F2A
100
AcDbEntity
  8
0
100
AcDbBlockBegin
  2
*U40
 70
     1
 10
0.0
 20
0.0
 30
0.0
  3
*U40
  1

  0
TEXT
  5
1F19
330
2F2A
100
AcDbEntity
  8
SIZE
 62
     0
100
AcDbText
 10
-25971.04465488371
 20
7605.302971374804
 30
0.0
 40
64.0
  1
8
 50
90.0
 41
0.9
100
AcDbText
  0
ENDBLK
  5
1F1B
330
2F2A
100
AcDbEntity
  8
0
100
AcDbBlockEnd
  0
BLOCK
  5
2F2D
330
2F2C
100
AcDbEntity
  8
0
100
AcDbBlockBegin
  2
*D41
 70
     1
 10
0.0
 20
0.0
 30
0.0
  3
*D41
  1

  0
LINE
  5
169F
330
2F2C
100
AcDbEntity
  8
SIZE
 62
     0
100
AcDbLine
 10
-25512.51823276502
 20
7385.702971374808
 30
0.0
 11
-25362.37494828464
 21
7385.702971374808
 31
0.0
  0
LINE
  5
16A0
330
2F2C
100
AcDbEntity
  8
SIZE
 62
     0
100
AcDbLine
 10
-25523.51823276501
 20
7373.702971374808
 30
0.0
 11
-25362.37494828464
 21
7373.702971374808
 31
0.0
  0
LINE
  5
16A1
330
2F2C
100
AcDbEntity
  8
SIZE
 62
     0
100
AcDbLine
 10
-25382.37494828464
 20
7397.702971374808
 30
0.0
 11
-25382.37494828464
 21
7409.70297137481
 31
0.0
  0
LINE
  5
16A2
330
2F2C
100
AcDbEntity
  8
SIZE
 62
     0
100
AcDbLine
 10
-25382.37494828464
 20
7361.702971374808
 30
0.0
 11
-25382.37494828464
 21
7244.674399946237
 31
0.0
  0
INSERT
  5
16A3
330
2F2C
100
AcDbEntity
  8
SIZE
 62
     0
100
AcDbBlockReference
  2
_DOTBLANK
 10
-25382.37494828464
 20
7385.702971374808
 30
0.0
 41
12.0
 42
12.0
 43
12.0
 50
270.0
  0
INSERT
  5
16A4
330
2F2C
100
AcDbEntity
  8
SIZE
 62
     0
100
AcDbBlockReference
  2
_DOTBLANK
 10
-25382.37494828464
 20
7373.702971374808
 30
0.0
 41
12.0
 42
12.0
 43
12.0
 50
90.0
  0
INSERT
  5
16A5
330
2F2C
100
AcDbEntity
  8
0
100
AcDbBlockReference
  2
*U42
 10
0.0
 20
0.0
 30
0.0
  0
POINT
  5
16A6
330
2F2C
100
AcDbEntity
  8
DEFPOINTS
 62
     0
100
AcDbPoint
 10
-25532.51823276502
 20
7385.702971374808
 30
0.0
  0
POINT
  5
16A7
330
2F2C
100
AcDbEntity
  8
DEFPOINTS
 62
     0
100
AcDbPoint
 10
-25543.51823276502
 20
7373.702971374808
 30
0.0
  0
POINT
  5
16A8
330
2F2C
100
AcDbEntity
  8
DEFPOINTS
 62
     0
100
AcDbPoint
 10
-25382.37494828464
 20
7373.702971374808
 30
0.0
  0
ENDBLK
  5
16A9
330
2F2C
100
AcDbEntity
  8
0
100
AcDbBlockEnd
  0
BLOCK
  5
2F2F
330
2F2E
100
AcDbEntity
  8
0
100
AcDbBlockBegin
  2
*U42
 70
     1
 10
0.0
 20
0.0
 30
0.0
  3
*U42
  1

  0
TEXT
  5
1F1D
330
2F2E
100
AcDbEntity
  8
SIZE
 62
     0
100
AcDbText
 10
-25392.37494828464
 20
7256.045828517662
 30
0.0
 40
64.0
  1
12
 50
90.0
 41
0.9
100
AcDbText
  0
ENDBLK
  5
1F1F
330
2F2E
100
AcDbEntity
  8
0
100
AcDbBlockEnd
  0
BLOCK
  5
2F31
330
2F30
100
AcDbEntity
  8
0
100
AcDbBlockBegin
  2
*D43
 70
     1
 10
0.0
 20
0.0
 30
0.0
  3
*D43
  1

  0
LINE
  5
16AC
330
2F30
100
AcDbEntity
  8
SIZE
 62
     0
100
AcDbLine
 10
-25801.51823276501
 20
7365.702971374808
 30
0.0
 11
-25801.51823276501
 21
7217.685576144207
 31
0.0
  0
LINE
  5
16AD
330
2F30
100
AcDbEntity
  8
SIZE
 62
     0
100
AcDbLine
 10
-25532.51823276502
 20
7365.702971374808
 30
0.0
 11
-25532.51823276502
 21
7217.685576144207
 31
0.0
  0
LINE
  5
16AE
330
2F30
100
AcDbEntity
  8
SIZE
 62
     0
100
AcDbLine
 10
-25789.51823276502
 20
7237.685576144207
 30
0.0
 11
-25544.51823276501
 21
7237.685576144207
 31
0.0
  0
INSERT
  5
16AF
330
2F30
100
AcDbEntity
  8
SIZE
 62
     0
100
AcDbBlockReference
  2
_DOTBLANK
 10
-25801.51823276501
 20
7237.685576144207
 30
0.0
 41
12.0
 42
12.0
 43
12.0
 50
180.0
  0
INSERT
  5
16B0
330
2F30
100
AcDbEntity
  8
SIZE
 62
     0
100
AcDbBlockReference
  2
_DOTBLANK
 10
-25532.51823276502
 20
7237.685576144207
 30
0.0
 41
12.0
 42
12.0
 43
12.0
  0
INSERT
  5
16B1
330
2F30
100
AcDbEntity
  8
0
100
AcDbBlockReference
  2
*U44
 10
0.0
 20
0.0
 30
0.0
  0
POINT
  5
16B2
330
2F30
100
AcDbEntity
  8
DEFPOINTS
 62
     0
100
AcDbPoint
 10
-25801.51823276501
 20
7385.702971374808
 30
0.0
  0
POINT
  5
16B3
330
2F30
100
AcDbEntity
  8
DEFPOINTS
 62
     0
100
AcDbPoint
 10
-25532.51823276502
 20
7385.702971374808
 30
0.0
  0
POINT
  5
16B4
330
2F30
100
AcDbEntity
  8
DEFPOINTS
 62
     0
100
AcDbPoint
 10
-25532.51823276502
 20
7237.685576144207
 30
0.0
  0
ENDBLK
  5
16B5
330
2F30
100
AcDbEntity
  8
0
100
AcDbBlockEnd
  0
BLOCK
  5
2F33
330
2F32
100
AcDbEntity
  8
0
100
AcDbBlockBegin
  2
*U44
 70
     1
 10
0.0
 20
0.0
 30
0.0
  3
*U44
  1

  0
TEXT
  5
1F21
330
2F32
100
AcDbEntity
  8
SIZE
 62
     0
100
AcDbText
 10
-25739.70394705074
 20
7247.685576144205
 30
0.0
 40
64.0
  1
269
 41
0.9
100
AcDbText
  0
ENDBLK
  5
1F23
330
2F32
100
AcDbEntity
  8
0
100
AcDbBlockEnd
  0
BLOCK
  5
2F35
330
2F34
100
AcDbEntity
  8
0
100
AcDbBlockBegin
  2
*D45
 70
     1
 10
0.0
 20
0.0
 30
0.0
  3
*D45
  1

  0
LINE
  5
16B8
330
2F34
100
AcDbEntity
  8
SIZE
 62
     0
100
AcDbLine
 10
-25512.51823276502
 20
7385.702971374808
 30
0.0
 11
-25362.37494828464
 21
7385.702971374808
 31
0.0
  0
LINE
  5
16B9
330
2F34
100
AcDbEntity
  8
SIZE
 62
     0
100
AcDbLine
 10
-25489.51823276501
 20
7685.702971374808
 30
0.0
 11
-25362.37494828464
 21
7685.702971374808
 31
0.0
  0
LINE
  5
16BA
330
2F34
100
AcDbEntity
  8
SIZE
 62
     0
100
AcDbLine
 10
-25382.37494828464
 20
7397.702971374808
 30
0.0
 11
-25382.37494828464
 21
7673.702971374808
 31
0.0
  0
INSERT
  5
16BB
330
2F34
100
AcDbEntity
  8
SIZE
 62
     0
100
AcDbBlockReference
  2
_DOTBLANK
 10
-25382.37494828464
 20
7385.702971374808
 30
0.0
 41
12.0
 42
12.0
 43
12.0
 50
270.0
  0
INSERT
  5
16BC
330
2F34
100
AcDbEntity
  8
SIZE
 62
     0
100
AcDbBlockReference
  2
_DOTBLANK
 10
-25382.37494828464
 20
7685.702971374808
 30
0.0
 41
12.0
 42
12.0
 43
12.0
 50
90.0
  0
INSERT
  5
16BD
330
2F34
100
AcDbEntity
  8
0
100
AcDbBlockReference
  2
*U46
 10
0.0
 20
0.0
 30
0.0
  0
POINT
  5
16BE
330
2F34
100
AcDbEntity
  8
DEFPOINTS
 62
     0
100
AcDbPoint
 10
-25532.51823276502
 20
7385.702971374808
 30
0.0
  0
POINT
  5
16BF
330
2F34
100
AcDbEntity
  8
DEFPOINTS
 62
     0
100
AcDbPoint
 10
-25509.51823276502
 20
7685.702971374808
 30
0.0
  0
POINT
  5
16C0
330
2F34
100
AcDbEntity
  8
DEFPOINTS
 62
     0
100
AcDbPoint
 10
-25382.37494828464
 20
7685.702971374808
 30
0.0
  0
ENDBLK
  5
16C1
330
2F34
100
AcDbEntity
  8
0
100
AcDbBlockEnd
  0
BLOCK
  5
2F37
330
2F36
100
AcDbEntity
  8
0
100
AcDbBlockBegin
  2
*U46
 70
     1
 10
0.0
 20
0.0
 30
0.0
  3
*U46
  1

  0
TEXT
  5
1F25
330
2F36
100
AcDbEntity
  8
SIZE
 62
     0
100
AcDbText
 10
-25392.37494828464
 20
7461.645828517662
 30
0.0
 40
64.0
  1
300
 50
90.0
 41
0.9
100
AcDbText
  0
ENDBLK
  5
1F27
330
2F36
100
AcDbEntity
  8
0
100
AcDbBlockEnd
  0
BLOCK
  5
2F39
330
2F38
100
AcDbEntity
  8
0
100
AcDbBlockBegin
  2
*D47
 70
     1
 10
0.0
 20
0.0
 30
0.0
  3
*D47
  1

  0
LINE
  5
16C4
330
2F38
100
AcDbEntity
  8
SIZE
 62
     0
100
AcDbLine
 10
-25807.01823276501
 20
7718.167454177002
 30
0.0
 11
-25807.01823276501
 21
7822.154659243358
 31
0.0
  0
LINE
  5
16C5
330
2F38
100
AcDbEntity
  8
SIZE
 62
     0
100
AcDbLine
 10
-25527.01823276501
 20
7718.167454177002
 30
0.0
 11
-25527.01823276501
 21
7822.154659243358
 31
0.0
  0
LINE
  5
16C6
330
2F38
100
AcDbEntity
  8
SIZE
 62
     0
100
AcDbLine
 10
-25795.01823276502
 20
7802.154659243358
 30
0.0
 11
-25539.01823276501
 21
7802.154659243358
 31
0.0
  0
INSERT
  5
16C7
330
2F38
100
AcDbEntity
  8
SIZE
 62
     0
100
AcDbBlockReference
  2
_DOTBLANK
 10
-25807.01823276501
 20
7802.154659243358
 30
0.0
 41
12.0
 42
12.0
 43
12.0
 50
180.0
  0
INSERT
  5
16C8
330
2F38
100
AcDbEntity
  8
SIZE
 62
     0
100
AcDbBlockReference
  2
_DOTBLANK
 10
-25527.01823276501
 20
7802.154659243358
 30
0.0
 41
12.0
 42
12.0
 43
12.0
  0
INSERT
  5
16C9
330
2F38
100
AcDbEntity
  8
0
100
AcDbBlockReference
  2
*U48
 10
0.0
 20
0.0
 30
0.0
  0
POINT
  5
16CA
330
2F38
100
AcDbEntity
  8
DEFPOINTS
 62
     0
100
AcDbPoint
 10
-25807.01823276501
 20
7698.167454177002
 30
0.0
  0
POINT
  5
16CB
330
2F38
100
AcDbEntity
  8
DEFPOINTS
 62
     0
100
AcDbPoint
 10
-25527.01823276501
 20
7698.167454177002
 30
0.0
  0
POINT
  5
16CC
330
2F38
100
AcDbEntity
  8
DEFPOINTS
 62
     0
100
AcDbPoint
 10
-25527.01823276501
 20
7802.154659243358
 30
0.0
  0
ENDBLK
  5
16CD
330
2F38
100
AcDbEntity
  8
0
100
AcDbBlockEnd
  0
BLOCK
  5
2F3B
330
2F3A
100
AcDbEntity
  8
0
100
AcDbBlockBegin
  2
*U48
 70
     1
 10
0.0
 20
0.0
 30
0.0
  3
*U48
  1

  0
TEXT
  5
1F29
330
2F3A
100
AcDbEntity
  8
SIZE
 62
     0
100
AcDbText
 10
-25741.07537562216
 20
7812.154659243358
 30
0.0
 40
64.0
  1
280
 41
0.9
100
AcDbText
  0
ENDBLK
  5
1F2B
330
2F3A
100
AcDbEntity
  8
0
100
AcDbBlockEnd
  0
BLOCK
  5
2F3D
330
2F3C
100
AcDbEntity
  8
0
100
AcDbBlockBegin
  2
*D49
 70
     1
 10
0.0
 20
0.0
 30
0.0
  3
*D49
  1

  0
LINE
  5
16D0
330
2F3C
100
AcDbEntity
  8
SIZE
 62
     0
100
AcDbLine
 10
-25824.51823276501
 20
7705.702971374808
 30
0.0
 11
-25824.51823276501
 21
7931.282433493766
 31
0.0
  0
LINE
  5
16D1
330
2F3C
100
AcDbEntity
  8
SIZE
 62
     0
100
AcDbLine
 10
-25509.51823276502
 20
7705.702971374808
 30
0.0
 11
-25509.51823276502
 21
7931.282433493766
 31
0.0
  0
LINE
  5
16D2
330
2F3C
100
AcDbEntity
  8
SIZE
 62
     0
100
AcDbLine
 10
-25812.51823276502
 20
7911.282433493766
 30
0.0
 11
-25521.51823276501
 21
7911.282433493766
 31
0.0
  0
INSERT
  5
16D3
330
2F3C
100
AcDbEntity
  8
SIZE
 62
     0
100
AcDbBlockReference
  2
_DOTBLANK
 10
-25824.51823276501
 20
7911.282433493766
 30
0.0
 41
12.0
 42
12.0
 43
12.0
 50
180.0
  0
INSERT
  5
16D4
330
2F3C
100
AcDbEntity
  8
SIZE
 62
     0
100
AcDbBlockReference
  2
_DOTBLANK
 10
-25509.51823276502
 20
7911.282433493766
 30
0.0
 41
12.0
 42
12.0
 43
12.0
  0
INSERT
  5
16D5
330
2F3C
100
AcDbEntity
  8
0
100
AcDbBlockReference
  2
*U50
 10
0.0
 20
0.0
 30
0.0
  0
POINT
  5
16D6
330
2F3C
100
AcDbEntity
  8
DEFPOINTS
 62
     0
100
AcDbPoint
 10
-25824.51823276501
 20
7685.702971374808
 30
0.0
  0
POINT
  5
16D7
330
2F3C
100
AcDbEntity
  8
DEFPOINTS
 62
     0
100
AcDbPoint
 10
-25509.51823276502
 20
7685.702971374808
 30
0.0
  0
POINT
  5
16D8
330
2F3C
100
AcDbEntity
  8
DEFPOINTS
 62
     0
100
AcDbPoint
 10
-25509.51823276502
 20
7911.282433493766
 30
0.0
  0
ENDBLK
  5
16D9
330
2F3C
100
AcDbEntity
  8
0
100
AcDbBlockEnd
  0
BLOCK
  5
2F3F
330
2F3E
100
AcDbEntity
  8
0
100
AcDbBlockBegin
  2
*U50
 70
     1
 10
0.0
 20
0.0
 30
0.0
  3
*U50
  1

  0
TEXT
  5
1F2D
330
2F3E
100
AcDbEntity
  8
SIZE
 62
     0
100
AcDbText
 10
-25735.58966133645
 20
7921.282433493766
 30
0.0
 40
64.0
  1
315
 41
0.9
100
AcDbText
  0
ENDBLK
  5
1F2F
330
2F3E
100
AcDbEntity
  8
0
100
AcDbBlockEnd
  0
BLOCK
  5
2F41
330
2F40
100
AcDbEntity
  8
0
100
AcDbBlockBegin
  2
*D51
 70
     1
 10
0.0
 20
0.0
 30
0.0
  3
*D51
  1

  0
LINE
  5
1D83
330
2F40
100
AcDbEntity
  8
SIZE
 62
     0
100
AcDbLine
 10
-134.5
 20
-320.0
 30
0.0
 11
-134.5
 21
-468.0173952306001
 31
0.0
  0
LINE
  5
1D84
330
2F40
100
AcDbEntity
  8
SIZE
 62
     0
100
AcDbLine
 10
134.5
 20
-320.0
 30
0.0
 11
134.5
 21
-468.0173952306001
 31
0.0
  0
LINE
  5
1D85
330
2F40
100
AcDbEntity
  8
SIZE
 62
     0
100
AcDbLine
 10
-122.5
 20
-448.0173952306
 30
0.0
 11
122.5
 21
-448.0173952306
 31
0.0
  0
INSERT
  5
1D86
330
2F40
100
AcDbEntity
  8
SIZE
 62
     0
100
AcDbBlockReference
  2
_DOTBLANK
 10
-134.5
 20
-448.0173952306
 30
0.0
 41
12.0
 42
12.0
 43
12.0
 50
180.0
  0
INSERT
  5
1D87
330
2F40
100
AcDbEntity
  8
SIZE
 62
     0
100
AcDbBlockReference
  2
_DOTBLANK
 10
134.5
 20
-448.0173952306
 30
0.0
 41
12.0
 42
12.0
 43
12.0
  0
INSERT
  5
1D88
330
2F40
100
AcDbEntity
  8
0
100
AcDbBlockReference
  2
*U52
 10
0.0
 20
0.0
 30
0.0
  0
POINT
  5
1D89
330
2F40
100
AcDbEntity
  8
DEFPOINTS
 62
     0
100
AcDbPoint
 10
-134.5
 20
-300.0
 30
0.0
  0
POINT
  5
1D8A
330
2F40
100
AcDbEntity
  8
DEFPOINTS
 62
     0
100
AcDbPoint
 10
134.5
 20
-300.0
 30
0.0
  0
POINT
  5
1D8B
330
2F40
100
AcDbEntity
  8
DEFPOINTS
 62
     0
100
AcDbPoint
 10
134.5
 20
-448.0173952306
 30
0.0
  0
ENDBLK
  5
173D
330
2F40
100
AcDbEntity
  8
0
100
AcDbBlockEnd
  0
BLOCK
  5
2F43
330
2F42
100
AcDbEntity
  8
0
100
AcDbBlockBegin
  2
*U52
 70
     1
 10
0.0
 20
0.0
 30
0.0
  3
*U52
  1

  0
TEXT
  5
1F31
330
2F42
100
AcDbEntity
  8
SIZE
 62
     0
100
AcDbText
 10
-72.68571428571426
 20
-438.0173952306003
 30
0.0
 40
64.0
  1
269
 41
0.9
100
AcDbText
  0
ENDBLK
  5
1F33
330
2F42
100
AcDbEntity
  8
0
100
AcDbBlockEnd
  0
BLOCK
  5
2F45
330
2F44
100
AcDbEntity
  8
0
100
AcDbBlockBegin
  2
*D53
 70
     1
 10
0.0
 20
0.0
 30
0.0
  3
*D53
  1

  0
LINE
  5
1D8C
330
2F44
100
AcDbEntity
  8
SIZE
 62
     0
100
AcDbLine
 10
154.5
 20
-300.0
 30
0.0
 11
304.6432844803784
 21
-300.0
 31
0.0
  0
LINE
  5
1D8D
330
2F44
100
AcDbEntity
  8
SIZE
 62
     0
100
AcDbLine
 10
177.5
 20
-0.0000000000000057
 30
0.0
 11
304.6432844803785
 21
-0.0000000000000417
 31
0.0
  0
LINE
  5
1D8E
330
2F44
100
AcDbEntity
  8
SIZE
 62
     0
100
AcDbLine
 10
284.6432844803784
 20
-288.0
 30
0.0
 11
284.6432844803785
 21
-12.00000000000003
 31
0.0
  0
INSERT
  5
1D8F
330
2F44
100
AcDbEntity
  8
SIZE
 62
     0
100
AcDbBlockReference
  2
_DOTBLANK
 10
284.6432844803784
 20
-300.0
 30
0.0
 41
12.0
 42
12.0
 43
12.0
 50
270.0
  0
INSERT
  5
1D90
330
2F44
100
AcDbEntity
  8
SIZE
 62
     0
100
AcDbBlockReference
  2
_DOTBLANK
 10
284.6432844803785
 20
-0.000000000000036
 30
0.0
 41
12.0
 42
12.0
 43
12.0
 50
90.0
  0
INSERT
  5
1D91
330
2F44
100
AcDbEntity
  8
0
100
AcDbBlockReference
  2
*U54
 10
0.0
 20
0.0
 30
0.0
  0
POINT
  5
1D92
330
2F44
100
AcDbEntity
  8
DEFPOINTS
 62
     0
100
AcDbPoint
 10
134.5
 20
-300.0
 30
0.0
  0
POINT
  5
1D93
330
2F44
100
AcDbEntity
  8
DEFPOINTS
 62
     0
100
AcDbPoint
 10
157.5
 20
0.0
 30
0.0
  0
POINT
  5
1D94
330
2F44
100
AcDbEntity
  8
DEFPOINTS
 62
     0
100
AcDbPoint
 10
284.6432844803785
 20
-0.000000000000036
 30
0.0
  0
ENDBLK
  5
1749
330
2F44
100
AcDbEntity
  8
0
100
AcDbBlockEnd
  0
BLOCK
  5
2F47
330
2F46
100
AcDbEntity
  8
0
100
AcDbBlockBegin
  2
*U54
 70
     1
 10
0.0
 20
0.0
 30
0.0
  3
*U54
  1

  0
TEXT
  5
1F35
330
2F46
100
AcDbEntity
  8
SIZE
 62
     0
100
AcDbText
 10
274.6432844803785
 20
-224.0571428571429
 30
0.0
 40
64.0
  1
300
 50
90.0
 41
0.9
100
AcDbText
  0
ENDBLK
  5
1F37
330
2F46
100
AcDbEntity
  8
0
100
AcDbBlockEnd
  0
BLOCK
  5
2F49
330
2F48
100
AcDbEntity
  8
0
100
AcDbBlockBegin
  2
*D55
 70
     1
 10
0.0
 20
0.0
 30
0.0
  3
*D55
  1

  0
LINE
  5
1D95
330
2F48
100
AcDbEntity
  8
SIZE
 62
     0
100
AcDbLine
 10
-140.0
 20
32.46448280219375
 30
0.0
 11
-140.0
 21
136.4516878685508
 31
0.0
  0
LINE
  5
1D96
330
2F48
100
AcDbEntity
  8
SIZE
 62
     0
100
AcDbLine
 10
140.0
 20
32.46448280219375
 30
0.0
 11
140.0
 21
136.4516878685508
 31
0.0
  0
LINE
  5
1D97
330
2F48
100
AcDbEntity
  8
SIZE
 62
     0
100
AcDbLine
 10
-128.0
 20
116.4516878685508
 30
0.0
 11
128.0
 21
116.4516878685508
 31
0.0
  0
INSERT
  5
1D98
330
2F48
100
AcDbEntity
  8
SIZE
 62
     0
100
AcDbBlockReference
  2
_DOTBLANK
 10
-140.0
 20
116.4516878685508
 30
0.0
 41
12.0
 42
12.0
 43
12.0
 50
180.0
  0
INSERT
  5
1D99
330
2F48
100
AcDbEntity
  8
SIZE
 62
     0
100
AcDbBlockReference
  2
_DOTBLANK
 10
140.0
 20
116.4516878685508
 30
0.0
 41
12.0
 42
12.0
 43
12.0
  0
INSERT
  5
1D9A
330
2F48
100
AcDbEntity
  8
0
100
AcDbBlockReference
  2
*U56
 10
0.0
 20
0.0
 30
0.0
  0
POINT
  5
1D9B
330
2F48
100
AcDbEntity
  8
DEFPOINTS
 62
     0
100
AcDbPoint
 10
-140.0
 20
12.46448280219374
 30
0.0
  0
POINT
  5
1D9C
330
2F48
100
AcDbEntity
  8
DEFPOINTS
 62
     0
100
AcDbPoint
 10
140.0
 20
12.46448280219374
 30
0.0
  0
POINT
  5
1D9D
330
2F48
100
AcDbEntity
  8
DEFPOINTS
 62
     0
100
AcDbPoint
 10
140.0
 20
116.4516878685508
 30
0.0
  0
ENDBLK
  5
1755
330
2F48
100
AcDbEntity
  8
0
100
AcDbBlockEnd
  0
BLOCK
  5
2F4B
330
2F4A
100
AcDbEntity
  8
0
100
AcDbBlockBegin
  2
*U56
 70
     1
 10
0.0
 20
0.0
 30
0.0
  3
*U56
  1

  0
TEXT
  5
1F39
330
2F4A
100
AcDbEntity
  8
SIZE
 62
     0
100
AcDbText
 10
-74.05714285714283
 20
126.4516878685508
 30
0.0
 40
64.0
  1
280
 41
0.9
100
AcDbText
  0
ENDBLK
  5
1F3B
330
2F4A
100
AcDbEntity
  8
0
100
AcDbBlockEnd
  0
BLOCK
  5
2F4D
330
2F4C
100
AcDbEntity
  8
0
100
AcDbBlockBegin
  2
*D57
 70
     1
 10
0.0
 20
0.0
 30
0.0
  3
*D57
  1

  0
LINE
  5
1D9E
330
2F4C
100
AcDbEntity
  8
SIZE
 62
     0
100
AcDbLine
 10
-157.5
 20
20.0
 30
0.0
 11
-157.5
 21
245.5794621189598
 31
0.0
  0
LINE
  5
1D9F
330
2F4C
100
AcDbEntity
  8
SIZE
 62
     0
100
AcDbLine
 10
157.5
 20
20.0
 30
0.0
 11
157.5
 21
245.5794621189598
 31
0.0
  0
LINE
  5
1DA0
330
2F4C
100
AcDbEntity
  8
SIZE
 62
     0
100
AcDbLine
 10
-145.5
 20
225.5794621189598
 30
0.0
 11
145.5
 21
225.5794621189598
 31
0.0
  0
INSERT
  5
1DA1
330
2F4C
100
AcDbEntity
  8
SIZE
 62
     0
100
AcDbBlockReference
  2
_DOTBLANK
 10
-157.5
 20
225.5794621189598
 30
0.0
 41
12.0
 42
12.0
 43
12.0
 50
180.0
  0
INSERT
  5
1DA2
330
2F4C
100
AcDbEntity
  8
SIZE
 62
     0
100
AcDbBlockReference
  2
_DOTBLANK
 10
157.5
 20
225.5794621189598
 30
0.0
 41
12.0
 42
12.0
 43
12.0
  0
INSERT
  5
1DA3
330
2F4C
100
AcDbEntity
  8
0
100
AcDbBlockReference
  2
*U58
 10
0.0
 20
0.0
 30
0.0
  0
POINT
  5
1DA4
330
2F4C
100
AcDbEntity
  8
DEFPOINTS
 62
     0
100
AcDbPoint
 10
-157.5
 20
0.0
 30
0.0
  0
POINT
  5
1DA5
330
2F4C
100
AcDbEntity
  8
DEFPOINTS
 62
     0
100
AcDbPoint
 10
157.5
 20
0.0
 30
0.0
  0
POINT
  5
1DA6
330
2F4C
100
AcDbEntity
  8
DEFPOINTS
 62
     0
100
AcDbPoint
 10
157.5
 20
225.5794621189598
 30
0.0
  0
ENDBLK
  5
1761
330
2F4C
100
AcDbEntity
  8
0
100
AcDbBlockEnd
  0
BLOCK
  5
2F4F
330
2F4E
100
AcDbEntity
  8
0
100
AcDbBlockBegin
  2
*U58
 70
     1
 10
0.0
 20
0.0
 30
0.0
  3
*U58
  1

  0
TEXT
  5
1F3D
330
2F4E
100
AcDbEntity
  8
SIZE
 62
     0
100
AcDbText
 10
-68.57142857142857
 20
235.5794621189599
 30
0.0
 40
64.0
  1
315
 41
0.9
100
AcDbText
  0
ENDBLK
  5
1F3F
330
2F4E
100
AcDbEntity
  8
0
100
AcDbBlockEnd
  0
BLOCK
  5
2F51
330
2F50
100
AcDbEntity
  8
0
100
AcDbBlockBegin
  2
*D59
 70
     1
 10
0.0
 20
0.0
 30
0.0
  3
*D59
  1

  0
LINE
  5
1DA7
330
2F50
100
AcDbEntity
  8
SIZE
 62
     0
100
AcDbLine
 10
-177.5
 20
0.0000000000000057
 30
0.0
 11
-314.0264221186908
 21
0.0000000000000443
 31
0.0
  0
LINE
  5
1DA8
330
2F50
100
AcDbEntity
  8
SIZE
 62
     0
100
AcDbLine
 10
-177.5
 20
-7.999999999999995
 30
0.0
 11
-314.0264221186908
 21
-7.999999999999958
 31
0.0
  0
LINE
  5
1DA9
330
2F50
100
AcDbEntity
  8
SIZE
 62
     0
100
AcDbLine
 10
-294.0264221186908
 20
12.00000000000003
 30
0.0
 11
-294.0264221186908
 21
24.00000000000004
 31
0.0
  0
LINE
  5
1DAA
330
2F50
100
AcDbEntity
  8
SIZE
 62
     0
100
AcDbLine
 10
-294.0264221186908
 20
-19.99999999999996
 30
0.0
 11
-294.0264221186908
 21
-90.39999999999997
 31
0.0
  0
INSERT
  5
1DAB
330
2F50
100
AcDbEntity
  8
SIZE
 62
     0
100
AcDbBlockReference
  2
_DOTBLANK
 10
-294.0264221186908
 20
0.0000000000000387
 30
0.0
 41
12.0
 42
12.0
 43
12.0
 50
270.0
  0
INSERT
  5
1DAC
330
2F50
100
AcDbEntity
  8
SIZE
 62
     0
100
AcDbBlockReference
  2
_DOTBLANK
 10
-294.0264221186908
 20
-7.999999999999961
 30
0.0
 41
12.0
 42
12.0
 43
12.0
 50
90.0
  0
INSERT
  5
1DAD
330
2F50
100
AcDbEntity
  8
0
100
AcDbBlockReference
  2
*U60
 10
0.0
 20
0.0
 30
0.0
  0
POINT
  5
1DAE
330
2F50
100
AcDbEntity
  8
DEFPOINTS
 62
     0
100
AcDbPoint
 10
-157.5
 20
0.0
 30
0.0
  0
POINT
  5
1DAF
330
2F50
100
AcDbEntity
  8
DEFPOINTS
 62
     0
100
AcDbPoint
 10
-157.5
 20
-8.000000000000003
 30
0.0
  0
POINT
  5
1DB0
330
2F50
100
AcDbEntity
  8
DEFPOINTS
 62
     0
100
AcDbPoint
 10
-294.0264221186908
 20
-7.999999999999961
 30
0.0
  0
ENDBLK
  5
176D
330
2F50
100
AcDbEntity
  8
0
100
AcDbBlockEnd
  0
BLOCK
  5
2F53
330
2F52
100
AcDbEntity
  8
0
100
AcDbBlockBegin
  2
*U60
 70
     1
 10
0.0
 20
0.0
 30
0.0
  3
*U60
  1

  0
TEXT
  5
1F41
330
2F52
100
AcDbEntity
  8
SIZE
 62
     0
100
AcDbText
 10
-304.0264221186908
 20
-80.4
 30
0.0
 40
64.0
  1
8
 50
90.0
 41
0.9
100
AcDbText
  0
ENDBLK
  5
1F43
330
2F52
100
AcDbEntity
  8
0
100
AcDbBlockEnd
  0
BLOCK
  5
2F55
330
2F54
100
AcDbEntity
  8
0
100
AcDbBlockBegin
  2
*D61
 70
     1
 10
0.0
 20
0.0
 30
0.0
  3
*D61
  1

  0
LINE
  5
1DB1
330
2F54
100
AcDbEntity
  8
SIZE
 62
     0
100
AcDbLine
 10
154.5
 20
-300.0
 30
0.0
 11
304.6432844803785
 21
-300.0
 31
0.0
  0
LINE
  5
1DB2
330
2F54
100
AcDbEntity
  8
SIZE
 62
     0
100
AcDbLine
 10
143.5
 20
-312.0
 30
0.0
 11
304.6432844803785
 21
-312.0
 31
0.0
  0
LINE
  5
1DB3
330
2F54
100
AcDbEntity
  8
SIZE
 62
     0
100
AcDbLine
 10
284.6432844803785
 20
-288.0
 30
0.0
 11
284.6432844803785
 21
-276.0
 31
0.0
  0
LINE
  5
1DB4
330
2F54
100
AcDbEntity
  8
SIZE
 62
     0
100
AcDbLine
 10
284.6432844803785
 20
-324.0000000000001
 30
0.0
 11
284.6432844803784
 21
-438.2857142857143
 31
0.0
  0
INSERT
  5
1DB5
330
2F54
100
AcDbEntity
  8
SIZE
 62
     0
100
AcDbBlockReference
  2
_DOTBLANK
 10
284.6432844803785
 20
-300.0
 30
0.0
 41
12.0
 42
12.0
 43
12.0
 50
270.0
  0
INSERT
  5
1DB6
330
2F54
100
AcDbEntity
  8
SIZE
 62
     0
100
AcDbBlockReference
  2
_DOTBLANK
 10
284.6432844803785
 20
-312.0
 30
0.0
 41
12.0
 42
12.0
 43
12.0
 50
90.0
  0
INSERT
  5
1DB7
330
2F54
100
AcDbEntity
  8
0
100
AcDbBlockReference
  2
*U62
 10
0.0
 20
0.0
 30
0.0
  0
POINT
  5
1DB8
330
2F54
100
AcDbEntity
  8
DEFPOINTS
 62
     0
100
AcDbPoint
 10
134.5
 20
-300.0
 30
0.0
  0
POINT
  5
1DB9
330
2F54
100
AcDbEntity
  8
DEFPOINTS
 62
     0
100
AcDbPoint
 10
123.5
 20
-312.0
 30
0.0
  0
POINT
  5
1DBA
330
2F54
100
AcDbEntity
  8
DEFPOINTS
 62
     0
100
AcDbPoint
 10
284.6432844803785
 20
-312.0
 30
0.0
  0
ENDBLK
  5
177B
330
2F54
100
AcDbEntity
  8
0
100
AcDbBlockEnd
  0
BLOCK
  5
2F57
330
2F56
100
AcDbEntity
  8
0
100
AcDbBlockBegin
  2
*U62
 70
     1
 10
0.0
 20
0.0
 30
0.0
  3
*U62
  1

  0
TEXT
  5
1F45
330
2F56
100
AcDbEntity
  8
SIZE
 62
     0
100
AcDbText
 10
274.6432844803785
 20
-428.2857142857142
 30
0.0
 40
64.0
  1
12
 50
90.0
 41
0.9
100
AcDbText
  0
ENDBLK
  5
1F47
330
2F56
100
AcDbEntity
  8
0
100
AcDbBlockEnd
  0
BLOCK
  5
2F59
330
2F58
100
AcDbEntity
  8
0
100
AcDbBlockBegin
  2
*U63
 70
     1
 10
0.0
 20
0.0
 30
0.0
  3
*U63
  1

  0
ENDBLK
  5
1D57
330
2F58
100
AcDbEntity
  8
0
100
AcDbBlockEnd
  0
BLOCK
  5
2F5B
330
2F5A
100
AcDbEntity
  8
0
100
AcDbBlockBegin
  2
*U64
 70
     1
 10
0.0
 20
0.0
 30
0.0
  3
*U64
  1

  0
INSERT
  5
2087
330
2F5A
100
AcDbEntity
  8
NOTE
100
AcDbBlockReference
  2
_OPEN30
 10
-400.0000000000071
 20
-0.0000000000068212
 30
0.0
 41
12.0
 42
12.0
 43
12.0
 50
312.6090116116895
  0
POLYLINE
  5
2088
330
2F5A
100
AcDbEntity
  8
NOTE
100
AcDb2dPolyline
 66
     1
 10
0.0
 20
0.0
 30
0.0
  0
VERTEX
  5
2E08
330
2088
100
AcDbEntity
  8
NOTE
100
AcDbVertex
100
AcDb2dVertex
 10
-408.1239008361966
 20
8.831887408908642
 30
0.0
  0
VERTEX
  5
2E09
330
2088
100
AcDbEntity
  8
NOTE
100
AcDbVertex
100
AcDb2dVertex
 10
-487.8693999922616
 20
95.52709505800651
 30
0.0
  0
VERTEX
  5
2E0A
330
2088
100
AcDbEntity
  8
NOTE
100
AcDbVertex
100
AcDb2dVertex
 10
-1077.595114277976
 20
95.52709505800651
 30
0.0
  0
SEQEND
  5
2E0B
330
2088
100
AcDbEntity
  8
NOTE
  0
ENDBLK
  5
2089
330
2F5A
100
AcDbEntity
  8
0
100
AcDbBlockEnd
  0
BLOCK
  5
2F5D
330
2F5C
100
AcDbEntity
  8
0
100
AcDbBlockBegin
  2
*U65
 70
     1
 10
0.0
 20
0.0
 30
0.0
  3
*U65
  1

  0
TEXT
  5
208C
330
2F5C
100
AcDbEntity
  8
NOTE
100
AcDbText
 10
-1077.595114277976
 20
113.5270950580065
 30
0.0
 40
64.0
  1
10×φ15取付穴
 41
0.9
100
AcDbText
  0
ENDBLK
  5
208D
330
2F5C
100
AcDbEntity
  8
0
100
AcDbBlockEnd
  0
BLOCK
  5
2F5F
330
2F5E
100
AcDbEntity
  8
0
100
AcDbBlockBegin
  2
*U66
 70
     1
 10
0.0
 20
0.0
 30
0.0
  3
*U66
  1

  0
INSERT
  5
219F
330
2F5E
100
AcDbEntity
  8
NOTE
100
AcDbBlockReference
  2
_OPEN30
 10
399.9999999999949
 20
400.0000000000026
 30
0.0
 41
12.0
 42
12.0
 43
12.0
 50
232.3258907693334
  0
POLYLINE
  5
21A0
330
2F5E
100
AcDbEntity
  8
NOTE
100
AcDb2dPolyline
 66
     1
 10
0.0
 20
0.0
 30
0.0
  0
VERTEX
  5
2E0C
330
21A0
100
AcDbEntity
  8
NOTE
100
AcDbVertex
100
AcDb2dVertex
 10
407.3340332839396
 20
409.497997462099
 30
0.0
  0
VERTEX
  5
2E0D
330
21A0
100
AcDbEntity
  8
NOTE
100
AcDbVertex
100
AcDb2dVertex
 10
473.7628007872031
 20
495.5270950580151
 30
0.0
  0
VERTEX
  5
2E0E
330
21A0
100
AcDbEntity
  8
NOTE
100
AcDbVertex
100
AcDb2dVertex
 10
1063.488515072916
 20
495.5270950580151
 30
0.0
  0
SEQEND
  5
2E0F
330
21A0
100
AcDbEntity
  8
NOTE
  0
ENDBLK
  5
21A1
330
2F5E
100
AcDbEntity
  8
0
100
AcDbBlockEnd
  0
BLOCK
  5
2F61
330
2F60
100
AcDbEntity
  8
0
100
AcDbBlockBegin
  2
*U67
 70
     1
 10
0.0
 20
0.0
 30
0.0
  3
*U67
  1

  0
TEXT
  5
21A4
330
2F60
100
AcDbEntity
  8
NOTE
100
AcDbText
 10
535.7628007872031
 20
513.5270950580152
 30
0.0
 40
64.0
  1
10×φ15取付穴
 41
0.9
100
AcDbText
  0
ENDBLK
  5
21A5
330
2F60
100
AcDbEntity
  8
0
100
AcDbBlockEnd
  0
BLOCK
  5
2F63
330
2F62
100
AcDbEntity
  8
0
100
AcDbBlockBegin
  2
*U68
 70
     1
 10
0.0
 20
0.0
 30
0.0
  3
*U68
  1

  0
INSERT
  5
2470
330
2F62
100
AcDbEntity
  8
NOTE
100
AcDbBlockReference
  2
_OPEN30
 10
400.0
 20
400.0000000000029
 30
0.0
 41
12.0
 42
12.0
 43
12.0
 50
232.3258907693332
  0
POLYLINE
  5
2471
330
2F62
100
AcDbEntity
  8
NOTE
100
AcDb2dPolyline
 66
     1
 10
0.0
 20
0.0
 30
0.0
  0
VERTEX
  5
2E10
330
2471
100
AcDbEntity
  8
NOTE
100
AcDbVertex
100
AcDb2dVertex
 10
407.3340332839448
 20
409.4979974620991
 30
0.0
  0
VERTEX
  5
2E11
330
2471
100
AcDbEntity
  8
NOTE
100
AcDbVertex
100
AcDb2dVertex
 10
473.7628007872086
 20
495.5270950580151
 30
0.0
  0
VERTEX
  5
2E12
330
2471
100
AcDbEntity
  8
NOTE
100
AcDbVertex
100
AcDb2dVertex
 10
1063.488515072923
 20
495.5270950580151
 30
0.0
  0
SEQEND
  5
2E13
330
2471
100
AcDbEntity
  8
NOTE
  0
ENDBLK
  5
2472
330
2F62
100
AcDbEntity
  8
0
100
AcDbBlockEnd
  0
BLOCK
  5
2F65
330
2F64
100
AcDbEntity
  8
0
100
AcDbBlockBegin
  2
*U69
 70
     1
 10
0.0
 20
0.0
 30
0.0
  3
*U69
  1

  0
TEXT
  5
2475
330
2F64
100
AcDbEntity
  8
NOTE
100
AcDbText
 10
535.7628007872087
 20
513.5270950580152
 30
0.0
 40
64.0
  1
10×φ15取付穴
 41
0.9
100
AcDbText
  0
ENDBLK
  5
2476
330
2F64
100
AcDbEntity
  8
0
100
AcDbBlockEnd
  0
BLOCK
  5
2F67
330
2F66
100
AcDbEntity
  8
0
100
AcDbBlockBegin
  2
*U70
 70
     1
 10
0.0
 20
0.0
 30
0.0
  3
*U70
  1

  0
INSERT
  5
2681
330
2F66
100
AcDbEntity
  8
NOTE
100
AcDbBlockReference
  2
_OPEN30
 10
-0.0000000000045475
 20
400.0000000000031
 30
0.0
 41
12.0
 42
12.0
 43
12.0
 50
312.6090116116895
  0
POLYLINE
  5
2682
330
2F66
100
AcDbEntity
  8
NOTE
100
AcDb2dPolyline
 66
     1
 10
0.0
 20
0.0
 30
0.0
  0
VERTEX
  5
2E14
330
2682
100
AcDbEntity
  8
NOTE
100
AcDbVertex
100
AcDb2dVertex
 10
-8.12390083619406
 20
408.8318874089185
 30
0.0
  0
VERTEX
  5
2E15
330
2682
100
AcDbEntity
  8
NOTE
100
AcDbVertex
100
AcDb2dVertex
 10
-87.86939999225884
 20
495.5270950580163
 30
0.0
  0
VERTEX
  5
2E16
330
2682
100
AcDbEntity
  8
NOTE
100
AcDbVertex
100
AcDb2dVertex
 10
-677.5951142779732
 20
495.5270950580163
 30
0.0
  0
SEQEND
  5
2E17
330
2682
100
AcDbEntity
  8
NOTE
  0
ENDBLK
  5
2683
330
2F66
100
AcDbEntity
  8
0
100
AcDbBlockEnd
  0
BLOCK
  5
2F69
330
2F68
100
AcDbEntity
  8
0
100
AcDbBlockBegin
  2
*U71
 70
     1
 10
0.0
 20
0.0
 30
0.0
  3
*U71
  1

  0
TEXT
  5
2686
330
2F68
100
AcDbEntity
  8
NOTE
100
AcDbText
 10
-677.5951142779732
 20
513.5270950580162
 30
0.0
 40
64.0
  1
10×φ15取付穴
 41
0.9
100
AcDbText
  0
ENDBLK
  5
2687
330
2F68
100
AcDbEntity
  8
0
100
AcDbBlockEnd
  0
BLOCK
  5
2F6B
330
2F6A
100
AcDbEntity
  8
0
100
AcDbBlockBegin
  2
*U72
 70
     1
 10
0.0
 20
0.0
 30
0.0
  3
*U72
  1

  0
INSERT
  5
27CA
330
2F6A
100
AcDbEntity
  8
NOTE
100
AcDbBlockReference
  2
_OPEN30
 10
0.0000000000040927
 20
400.0000000000031
 30
0.0
 41
12.0
 42
12.0
 43
12.0
 50
227.3909883883105
  0
POLYLINE
  5
27CB
330
2F6A
100
AcDbEntity
  8
NOTE
100
AcDb2dPolyline
 66
     1
 10
0.0
 20
0.0
 30
0.0
  0
VERTEX
  5
2E18
330
27CB
100
AcDbEntity
  8
NOTE
100
AcDbVertex
100
AcDb2dVertex
 10
8.123900836193604
 20
408.8318874089185
 30
0.0
  0
VERTEX
  5
2E19
330
27CB
100
AcDbEntity
  8
NOTE
100
AcDbVertex
100
AcDb2dVertex
 10
87.86939999225841
 20
495.5270950580159
 30
0.0
  0
VERTEX
  5
2E1A
330
27CB
100
AcDbEntity
  8
NOTE
100
AcDbVertex
100
AcDb2dVertex
 10
677.5951142779729
 20
495.5270950580159
 30
0.0
  0
SEQEND
  5
2E1B
330
27CB
100
AcDbEntity
  8
NOTE
  0
ENDBLK
  5
27CC
330
2F6A
100
AcDbEntity
  8
0
100
AcDbBlockEnd
  0
BLOCK
  5
2F6D
330
2F6C
100
AcDbEntity
  8
0
100
AcDbBlockBegin
  2
*U73
 70
     1
 10
0.0
 20
0.0
 30
0.0
  3
*U73
  1

  0
TEXT
  5
27CF
330
2F6C
100
AcDbEntity
  8
NOTE
100
AcDbText
 10
149.8693999922584
 20
513.527095058016
 30
0.0
 40
64.0
  1
10×φ15取付穴
 41
0.9
100
AcDbText
  0
ENDBLK
  5
27D0
330
2F6C
100
AcDbEntity
  8
0
100
AcDbBlockEnd
  0
BLOCK
  5
2F6F
330
2F6E
100
AcDbEntity
  8
0
100
AcDbBlockBegin
  2
*U74
 70
     1
 10
0.0
 20
0.0
 30
0.0
  3
*U74
  1

  0
INSERT
  5
2917
330
2F6E
100
AcDbEntity
  8
NOTE
100
AcDbBlockReference
  2
_OPEN30
 10
-400.0
 20
0.0
 30
0.0
 41
12.0
 42
12.0
 43
12.0
 50
312.6090116116892
  0
POLYLINE
  5
2918
330
2F6E
100
AcDbEntity
  8
NOTE
100
AcDb2dPolyline
 66
     1
 10
0.0
 20
0.0
 30
0.0
  0
VERTEX
  5
2E1C
330
2918
100
AcDbEntity
  8
NOTE
100
AcDbVertex
100
AcDb2dVertex
 10
-408.1239008361895
 20
8.831887408915511
 30
0.0
  0
VERTEX
  5
2E1D
330
2918
100
AcDbEntity
  8
NOTE
100
AcDbVertex
100
AcDb2dVertex
 10
-487.8693999922543
 20
95.52709505801429
 30
0.0
  0
VERTEX
  5
2E1E
330
2918
100
AcDbEntity
  8
NOTE
100
AcDbVertex
100
AcDb2dVertex
 10
-1077.595114277968
 20
95.52709505801429
 30
0.0
  0
SEQEND
  5
2E1F
330
2918
100
AcDbEntity
  8
NOTE
  0
ENDBLK
  5
2919
330
2F6E
100
AcDbEntity
  8
0
100
AcDbBlockEnd
  0
BLOCK
  5
2F71
330
2F70
100
AcDbEntity
  8
0
100
AcDbBlockBegin
  2
*U75
 70
     1
 10
0.0
 20
0.0
 30
0.0
  3
*U75
  1

  0
TEXT
  5
291C
330
2F70
100
AcDbEntity
  8
NOTE
100
AcDbText
 10
-1077.595114277968
 20
113.5270950580143
 30
0.0
 40
64.0
  1
10×φ15取付穴
 41
0.9
100
AcDbText
  0
ENDBLK
  5
291D
330
2F70
100
AcDbEntity
  8
0
100
AcDbBlockEnd
  0
BLOCK
  5
2F73
330
2F72
100
AcDbEntity
  8
0
100
AcDbBlockBegin
  2
*X76
 70
     1
 10
0.0
 20
0.0
 30
0.0
  3
*X76
  1

  0
LINE
  5
2920
330
2F72
100
AcDbEntity
  8
0
 62
     0
100
AcDbLine
 10
361.306429800352
 20
-785.001400000001
 30
0.0
 11
364.9999999999891
 21
-782.5390261546564
 31
0.0
  0
LINE
  5
2921
330
2F72
100
AcDbEntity
  8
0
 62
     0
100
AcDbLine
 10
356.8064685064637
 20
-785.001400000003
 30
0.0
 11
364.9999999999891
 21
-779.5390596192428
 31
0.0
  0
LINE
  5
2922
330
2F72
100
AcDbEntity
  8
0
 62
     0
100
AcDbLine
 10
352.3065072125828
 20
-785.001400000001
 30
0.0
 11
364.9999999999891
 21
-776.5390930838257
 31
0.0
  0
LINE
  5
2923
330
2F72
100
AcDbEntity
  8
0
 62
     0
100
AcDbLine
 10
347.806545918691
 20
-785.0014000000044
 30
0.0
 11
364.9999999999891
 21
-773.5391265484087
 31
0.0
  0
LINE
  5
2924
330
2F72
100
AcDbEntity
  8
0
 62
     0
100
AcDbLine
 10
343.30658462481
 20
-785.001400000001
 30
0.0
 11
364.9999999999891
 21
-770.5391600129932
 31
0.0
  0
LINE
  5
2925
330
2F72
100
AcDbEntity
  8
0
 62
     0
100
AcDbLine
 10
338.8066233309219
 20
-785.001400000003
 30
0.0
 11
364.9999999999891
 21
-767.5391934775758
 31
0.0
  0
LINE
  5
2926
330
2F72
100
AcDbEntity
  8
0
 62
     0
100
AcDbLine
 10
334.3066620370373
 20
-785.001400000001
 30
0.0
 11
364.9999999999855
 21
-764.5392269421603
 31
0.0
  0
LINE
  5
2927
330
2F72
100
AcDbEntity
  8
0
 62
     0
100
AcDbLine
 10
329.8067007431491
 20
-785.0014000000044
 30
0.0
 11
364.9999999999891
 21
-761.5392604067456
 31
0.0
  0
LINE
  5
2928
330
2F72
100
AcDbEntity
  8
0
 62
     0
100
AcDbLine
 10
325.3067394492682
 20
-785.001400000003
 30
0.0
 11
364.9999999999891
 21
-758.5392938713284
 31
0.0
  0
LINE
  5
2929
330
2F72
100
AcDbEntity
  8
0
 62
     0
100
AcDbLine
 10
320.80677815538
 20
-785.001400000001
 30
0.0
 11
364.9999999999891
 21
-755.5393273359112
 31
0.0
  0
LINE
  5
292A
330
2F72
100
AcDbEntity
  8
0
 62
     0
100
AcDbLine
 10
316.3068168614918
 20
-785.001400000003
 30
0.0
 11
364.9999999999891
 21
-752.5393608004942
 31
0.0
  0
LINE
  5
292B
330
2F72
100
AcDbEntity
  8
0
 62
     0
100
AcDbLine
 10
311.8068555676109
 20
-785.001400000003
 30
0.0
 11
364.9999999999891
 21
-749.5393942650805
 31
0.0
  0
LINE
  5
292C
330
2F72
100
AcDbEntity
  8
0
 62
     0
100
AcDbLine
 10
307.3068942737263
 20
-785.001400000003
 30
0.0
 11
364.9999999999891
 21
-746.5394277296653
 31
0.0
  0
LINE
  5
292D
330
2F72
100
AcDbEntity
  8
0
 62
     0
100
AcDbLine
 10
302.8069329798383
 20
-785.001400000001
 30
0.0
 11
364.9999999999855
 21
-743.5394611942465
 31
0.0
  0
LINE
  5
292E
330
2F72
100
AcDbEntity
  8
0
 62
     0
100
AcDbLine
 10
298.30697168595
 20
-785.001400000003
 30
0.0
 11
364.9999999999891
 21
-740.539494658831
 31
0.0
  0
LINE
  5
292F
330
2F72
100
AcDbEntity
  8
0
 62
     0
100
AcDbLine
 10
293.807010392069
 20
-785.001400000001
 30
0.0
 11
364.9999999999891
 21
-737.5395281234141
 31
0.0
  0
LINE
  5
2930
330
2F72
100
AcDbEntity
  8
0
 62
     0
100
AcDbLine
 10
289.3070490981845
 20
-785.001400000003
 30
0.0
 11
364.9999999999927
 21
-734.5395615879988
 31
0.0
  0
LINE
  5
2931
330
2F72
100
AcDbEntity
  8
0
 62
     0
100
AcDbLine
 10
284.8070878042927
 20
-785.001400000003
 30
0.0
 11
364.9999999999855
 21
-731.5395950525832
 31
0.0
  0
LINE
  5
2932
330
2F72
100
AcDbEntity
  8
0
 62
     0
100
AcDbLine
 10
280.3071265104081
 20
-785.0014000000044
 30
0.0
 11
364.9999999999891
 21
-728.5396285171664
 31
0.0
  0
LINE
  5
2933
330
2F72
100
AcDbEntity
  8
0
 62
     0
100
AcDbLine
 10
275.8071652165272
 20
-785.001400000001
 30
0.0
 11
364.9999999999891
 21
-725.5396619817509
 31
0.0
  0
LINE
  5
2934
330
2F72
100
AcDbEntity
  8
0
 62
     0
100
AcDbLine
 10
271.307203922639
 20
-785.001400000003
 30
0.0
 11
364.9999999999891
 21
-722.5396954463341
 31
0.0
  0
LINE
  5
2935
330
2F72
100
AcDbEntity
  8
0
 62
     0
100
AcDbLine
 10
266.8072426287508
 20
-785.001400000003
 30
0.0
 11
364.9999999999891
 21
-719.5397289109169
 31
0.0
  0
LINE
  5
2936
330
2F72
100
AcDbEntity
  8
0
 62
     0
100
AcDbLine
 10
262.3072813348699
 20
-785.001400000001
 30
0.0
 11
364.9999999999891
 21
-716.5397623755016
 31
0.0
  0
LINE
  5
2937
330
2F72
100
AcDbEntity
  8
0
 62
     0
100
AcDbLine
 10
257.8073200409817
 20
-785.001400000003
 30
0.0
 11
364.9999999999891
 21
-713.5397958400845
 31
0.0
  0
LINE
  5
2938
330
2F72
100
AcDbEntity
  8
0
 62
     0
100
AcDbLine
 10
253.3073587470972
 20
-785.001400000003
 30
0.0
 11
364.9999999999891
 21
-710.539829304671
 31
0.0
  0
LINE
  5
2939
330
2F72
100
AcDbEntity
  8
0
 62
     0
100
AcDbLine
 10
248.8073974532126
 20
-785.001400000003
 30
0.0
 11
364.9999999999891
 21
-707.539862769252
 31
0.0
  0
LINE
  5
293A
330
2F72
100
AcDbEntity
  8
0
 62
     0
100
AcDbLine
 10
244.3074361593281
 20
-785.001400000001
 30
0.0
 11
364.9999999999891
 21
-704.5398962338367
 31
0.0
  0
LINE
  5
293B
330
2F72
100
AcDbEntity
  8
0
 62
     0
100
AcDbLine
 10
239.8074748654399
 20
-785.001400000003
 30
0.0
 11
364.9999999999891
 21
-701.5399296984213
 31
0.0
  0
LINE
  5
293C
330
2F72
100
AcDbEntity
  8
0
 62
     0
100
AcDbLine
 10
235.3075135715553
 20
-785.001400000003
 30
0.0
 11
364.9999999999891
 21
-698.5399631630023
 31
0.0
  0
LINE
  5
293D
330
2F72
100
AcDbEntity
  8
0
 62
     0
100
AcDbLine
 10
230.8075522776708
 20
-785.001400000003
 30
0.0
 11
364.9999999999891
 21
-695.5399966275889
 31
0.0
  0
LINE
  5
293E
330
2F72
100
AcDbEntity
  8
0
 62
     0
100
AcDbLine
 10
226.3075909837826
 20
-785.001400000001
 30
0.0
 11
364.9999999999891
 21
-692.5400300921701
 31
0.0
  0
LINE
  5
293F
330
2F72
100
AcDbEntity
  8
0
 62
     0
100
AcDbLine
 10
221.8076296898944
 20
-785.0014000000044
 30
0.0
 11
364.9999999999891
 21
-689.5400635567567
 31
0.0
  0
LINE
  5
2940
330
2F72
100
AcDbEntity
  8
0
 62
     0
100
AcDbLine
 10
217.3076683960135
 20
-785.001400000003
 30
0.0
 11
364.9999999999891
 21
-686.5400970213395
 31
0.0
  0
LINE
  5
2941
330
2F72
100
AcDbEntity
  8
0
 62
     0
100
AcDbLine
 10
212.8077071021289
 20
-785.0014000000044
 30
0.0
 11
364.9999999999891
 21
-683.5401304859241
 31
0.0
  0
LINE
  5
2942
330
2F72
100
AcDbEntity
  8
0
 62
     0
100
AcDbLine
 10
208.3077458082407
 20
-785.001400000001
 30
0.0
 11
364.9999999999891
 21
-680.540163950507
 31
0.0
  0
LINE
  5
2943
330
2F72
100
AcDbEntity
  8
0
 62
     0
100
AcDbLine
 10
203.8077845143562
 20
-785.001400000001
 30
0.0
 11
364.9999999999891
 21
-677.5401974150881
 31
0.0
  0
LINE
  5
2944
330
2F72
100
AcDbEntity
  8
0
 62
     0
100
AcDbLine
 10
199.3078232204716
 20
-785.001400000003
 30
0.0
 11
364.9999999999891
 21
-674.5402308796747
 31
0.0
  0
LINE
  5
2945
330
2F72
100
AcDbEntity
  8
0
 62
     0
100
AcDbLine
 10
194.8078619265834
 20
-785.001400000003
 30
0.0
 11
364.9999999999855
 21
-671.5402643442612
 31
0.0
  0
LINE
  5
2946
330
2F72
100
AcDbEntity
  8
0
 62
     0
100
AcDbLine
 10
190.3079006326952
 20
-785.0014000000044
 30
0.0
 11
364.9999999999891
 21
-668.5402978088421
 31
0.0
  0
LINE
  5
2947
330
2F72
100
AcDbEntity
  8
0
 62
     0
100
AcDbLine
 10
185.8079393388143
 20
-785.001400000001
 30
0.0
 11
364.9999999999891
 21
-665.5403312734249
 31
0.0
  0
LINE
  5
2948
330
2F72
100
AcDbEntity
  8
0
 62
     0
100
AcDbLine
 10
181.3079780449261
 20
-785.001400000003
 30
0.0
 11
364.9999999999855
 21
-662.5403647380099
 31
0.0
  0
LINE
  5
2949
330
2F72
100
AcDbEntity
  8
0
 62
     0
100
AcDbLine
 10
176.8080167510416
 20
-785.001400000001
 30
0.0
 11
364.9999999999891
 21
-659.5403982025928
 31
0.0
  0
LINE
  5
294A
330
2F72
100
AcDbEntity
  8
0
 62
     0
100
AcDbLine
 10
172.3080554571534
 20
-785.0014000000044
 30
0.0
 11
364.9999999999891
 21
-656.5404316671792
 31
0.0
  0
LINE
  5
294B
330
2F72
100
AcDbEntity
  8
0
 62
     0
100
AcDbLine
 10
167.8080941632724
 20
-785.001400000003
 30
0.0
 11
364.9999999999891
 21
-653.5404651317604
 31
0.0
  0
LINE
  5
294C
330
2F72
100
AcDbEntity
  8
0
 62
     0
100
AcDbLine
 10
163.3081328693843
 20
-785.0014000000044
 30
0.0
 11
364.9999999999855
 21
-650.5404985963465
 31
0.0
  0
LINE
  5
294D
330
2F72
100
AcDbEntity
  8
0
 62
     0
100
AcDbLine
 10
158.8081715754997
 20
-785.001400000003
 30
0.0
 11
364.9999999999891
 21
-647.5405320609279
 31
0.0
  0
LINE
  5
294E
330
2F72
100
AcDbEntity
  8
0
 62
     0
100
AcDbLine
 10
154.3082102816152
 20
-785.001400000003
 30
0.0
 11
364.9999999999927
 21
-644.5405655255127
 31
0.0
  0
LINE
  5
294F
330
2F72
100
AcDbEntity
  8
0
 62
     0
100
AcDbLine
 10
149.8082489877306
 20
-785.001400000003
 30
0.0
 11
364.9999999999891
 21
-641.5405989900955
 31
0.0
  0
LINE
  5
2950
330
2F72
100
AcDbEntity
  8
0
 62
     0
100
AcDbLine
 10
145.308287693846
 20
-785.001400000001
 30
0.0
 11
364.9999999999891
 21
-638.5406324546781
 31
0.0
  0
LINE
  5
2951
330
2F72
100
AcDbEntity
  8
0
 62
     0
100
AcDbLine
 10
140.8083263999579
 20
-785.0014000000044
 30
0.0
 11
364.9999999999891
 21
-635.5406659192649
 31
0.0
  0
LINE
  5
2952
330
2F72
100
AcDbEntity
  8
0
 62
     0
100
AcDbLine
 10
136.3083651060733
 20
-785.001400000003
 30
0.0
 11
364.9999999999927
 21
-632.5406993838481
 31
0.0
  0
LINE
  5
2953
330
2F72
100
AcDbEntity
  8
0
 62
     0
100
AcDbLine
 10
131.8084038121851
 20
-785.001400000003
 30
0.0
 11
364.9999999999855
 21
-629.5407328484324
 31
0.0
  0
LINE
  5
2954
330
2F72
100
AcDbEntity
  8
0
 62
     0
100
AcDbLine
 10
127.3084425183006
 20
-785.001400000003
 30
0.0
 11
364.9999999999891
 21
-626.5407663130136
 31
0.0
  0
LINE
  5
2955
330
2F72
100
AcDbEntity
  8
0
 62
     0
100
AcDbLine
 10
122.808481224416
 20
-785.0014000000044
 30
0.0
 11
364.9999999999927
 21
-623.5407997775983
 31
0.0
  0
LINE
  5
2956
330
2F72
100
AcDbEntity
  8
0
 62
     0
100
AcDbLine
 10
118.3085199305278
 20
-785.001400000001
 30
0.0
 11
364.9999999999891
 21
-620.5408332421828
 31
0.0
  0
LINE
  5
2957
330
2F72
100
AcDbEntity
  8
0
 62
     0
100
AcDbLine
 10
113.8085586366432
 20
-785.001400000003
 30
0.0
 11
364.9999999999855
 21
-617.5408667067677
 31
0.0
  0
LINE
  5
2958
330
2F72
100
AcDbEntity
  8
0
 62
     0
100
AcDbLine
 10
109.3085973427587
 20
-785.001400000003
 30
0.0
 11
364.9999999999891
 21
-614.5409001713503
 31
0.0
  0
LINE
  5
2959
330
2F72
100
AcDbEntity
  8
0
 62
     0
100
AcDbLine
 10
104.8086360488705
 20
-785.0014000000044
 30
0.0
 11
364.9999999999891
 21
-611.5409336359333
 31
0.0
  0
LINE
  5
295A
330
2F72
100
AcDbEntity
  8
0
 62
     0
100
AcDbLine
 10
100.308674754986
 20
-785.001400000003
 30
0.0
 11
364.9999999999891
 21
-608.540967100518
 31
0.0
  0
LINE
  5
295B
330
2F72
100
AcDbEntity
  8
0
 62
     0
100
AcDbLine
 10
95.80871346110143
 20
-785.0014000000044
 30
0.0
 11
364.9999999999891
 21
-605.5410005651029
 31
0.0
  0
LINE
  5
295C
330
2F72
100
AcDbEntity
  8
0
 62
     0
100
AcDbLine
 10
91.30875216721683
 20
-785.001400000003
 30
0.0
 11
364.9999999999927
 21
-602.5410340296839
 31
0.0
  0
LINE
  5
295D
330
2F72
100
AcDbEntity
  8
0
 62
     0
100
AcDbLine
 10
86.80879087333229
 20
-785.001400000001
 30
0.0
 11
364.9999999999891
 21
-599.5410674942688
 31
0.0
  0
LINE
  5
295E
330
2F72
100
AcDbEntity
  8
0
 62
     0
100
AcDbLine
 10
82.30882957944412
 20
-785.001400000003
 30
0.0
 11
364.9999999999891
 21
-596.5411009588533
 31
0.0
  0
LINE
  5
295F
330
2F72
100
AcDbEntity
  8
0
 62
     0
100
AcDbLine
 10
77.80886828555958
 20
-785.0014000000044
 30
0.0
 11
364.9999999999891
 21
-593.5411344234381
 31
0.0
  0
LINE
  5
2960
330
2F72
100
AcDbEntity
  8
0
 62
     0
100
AcDbLine
 10
73.30890699167503
 20
-785.0014000000044
 30
0.0
 11
364.9999999999927
 21
-590.541167888021
 31
0.0
  0
LINE
  5
2961
330
2F72
100
AcDbEntity
  8
0
 62
     0
100
AcDbLine
 10
68.80894569779048
 20
-785.001400000001
 30
0.0
 11
364.9999999999891
 21
-587.5412013526036
 31
0.0
  0
LINE
  5
2962
330
2F72
100
AcDbEntity
  8
0
 62
     0
100
AcDbLine
 10
64.30898440390229
 20
-785.0014000000044
 30
0.0
 11
364.9999999999891
 21
-584.5412348171885
 31
0.0
  0
LINE
  5
2963
330
2F72
100
AcDbEntity
  8
0
 62
     0
100
AcDbLine
 10
59.80902311001774
 20
-785.0014000000044
 30
0.0
 11
364.9999999999927
 21
-581.5412682817714
 31
0.0
  0
LINE
  5
2964
330
2F72
100
AcDbEntity
  8
0
 62
     0
100
AcDbLine
 10
55.30906181612954
 20
-785.0014000000044
 30
0.0
 11
364.9999999999891
 21
-578.5413017463561
 31
0.0
  0
LINE
  5
2965
330
2F72
100
AcDbEntity
  8
0
 62
     0
100
AcDbLine
 10
50.80910052224862
 20
-785.001400000003
 30
0.0
 11
364.9999999999891
 21
-575.5413352109408
 31
0.0
  0
LINE
  5
2966
330
2F72
100
AcDbEntity
  8
0
 62
     0
100
AcDbLine
 10
46.30913922836042
 20
-785.001400000003
 30
0.0
 11
364.9999999999891
 21
-572.5413686755238
 31
0.0
  0
LINE
  5
2967
330
2F72
100
AcDbEntity
  8
0
 62
     0
100
AcDbLine
 10
41.80917793447224
 20
-785.001400000003
 30
0.0
 11
364.9999999999891
 21
-569.5414021401063
 31
0.0
  0
LINE
  5
2968
330
2F72
100
AcDbEntity
  8
0
 62
     0
100
AcDbLine
 10
37.30921664059132
 20
-785.001400000003
 30
0.0
 11
364.9999999999891
 21
-566.5414356046913
 31
0.0
  0
LINE
  5
2969
330
2F72
100
AcDbEntity
  8
0
 62
     0
100
AcDbLine
 10
32.80925534670314
 20
-785.0014000000044
 30
0.0
 11
364.9999999999891
 21
-563.5414690692742
 31
0.0
  0
LINE
  5
296A
330
2F72
100
AcDbEntity
  8
0
 62
     0
100
AcDbLine
 10
28.30929405281495
 20
-785.001400000003
 30
0.0
 11
364.9999999999855
 21
-560.5415025338586
 31
0.0
  0
LINE
  5
296B
330
2F72
100
AcDbEntity
  8
0
 62
     0
100
AcDbLine
 10
23.8093327589304
 20
-785.001400000003
 30
0.0
 11
364.9999999999891
 21
-557.5415359984416
 31
0.0
  0
LINE
  5
296C
330
2F72
100
AcDbEntity
  8
0
 62
     0
100
AcDbLine
 10
19.30937146504948
 20
-785.001400000003
 30
0.0
 11
364.9999999999891
 21
-554.5415694630283
 31
0.0
  0
LINE
  5
296D
330
2F72
100
AcDbEntity
  8
0
 62
     0
100
AcDbLine
 10
14.80941017116129
 20
-785.0014000000044
 30
0.0
 11
364.9999999999891
 21
-551.5416029276094
 31
0.0
  0
LINE
  5
296E
330
2F72
100
AcDbEntity
  8
0
 62
     0
100
AcDbLine
 10
10.3094488772731
 20
-785.001400000003
 30
0.0
 11
364.9999999999891
 21
-548.541636392192
 31
0.0
  0
LINE
  5
296F
330
2F72
100
AcDbEntity
  8
0
 62
     0
100
AcDbLine
 10
5.809487583388544
 20
-785.0014000000044
 30
0.0
 11
364.9999999999891
 21
-545.5416698567769
 31
0.0
  0
LINE
  5
2970
330
2F72
100
AcDbEntity
  8
0
 62
     0
100
AcDbLine
 10
1.309526289503992
 20
-785.0014000000044
 30
0.0
 11
364.9999999999927
 21
-542.5417033213616
 31
0.0
  0
LINE
  5
2971
330
2F72
100
AcDbEntity
  8
0
 62
     0
100
AcDbLine
 10
-3.190435004380558
 20
-785.0014000000044
 30
0.0
 11
364.9999999999891
 21
-539.5417367859463
 31
0.0
  0
LINE
  5
2972
330
2F72
100
AcDbEntity
  8
0
 62
     0
100
AcDbLine
 10
-7.690396298268751
 20
-785.001400000003
 30
0.0
 11
364.9999999999891
 21
-536.5417702505273
 31
0.0
  0
LINE
  5
2973
330
2F72
100
AcDbEntity
  8
0
 62
     0
100
AcDbLine
 10
-12.1903575921533
 20
-785.0014000000044
 30
0.0
 11
364.9999999999891
 21
-533.5418037151139
 31
0.0
  0
LINE
  5
2974
330
2F72
100
AcDbEntity
  8
0
 62
     0
100
AcDbLine
 10
-16.69031888603786
 20
-785.0014000000044
 30
0.0
 11
364.9999999999927
 21
-530.5418371796949
 31
0.0
  0
LINE
  5
2975
330
2F72
100
AcDbEntity
  8
0
 62
     0
100
AcDbLine
 10
-21.19028017992241
 20
-785.001400000003
 30
0.0
 11
364.9999999999891
 21
-527.5418706442793
 31
0.0
  0
LINE
  5
2976
330
2F72
100
AcDbEntity
  8
0
 62
     0
100
AcDbLine
 10
-25.69024147380697
 20
-785.001400000003
 30
0.0
 11
364.9999999999891
 21
-524.5419041088644
 31
0.0
  0
LINE
  5
2977
330
2F72
100
AcDbEntity
  8
0
 62
     0
100
AcDbLine
 10
-30.19020276769152
 20
-785.001400000001
 30
0.0
 11
364.9999999999891
 21
-521.5419375734468
 31
0.0
  0
LINE
  5
2978
330
2F72
100
AcDbEntity
  8
0
 62
     0
100
AcDbLine
 10
-34.69016406158336
 20
-785.0014000000044
 30
0.0
 11
364.9999999999891
 21
-518.541971038032
 31
0.0
  0
LINE
  5
2979
330
2F72
100
AcDbEntity
  8
0
 62
     0
100
AcDbLine
 10
-39.19012535546426
 20
-785.0014000000044
 30
0.0
 11
364.9999999999891
 21
-515.5420045026148
 31
0.0
  0
LINE
  5
297A
330
2F72
100
AcDbEntity
  8
0
 62
     0
100
AcDbLine
 10
-43.69008664934881
 20
-785.001400000003
 30
0.0
 11
364.9999999999891
 21
-512.5420379671996
 31
0.0
  0
LINE
  5
297B
330
2F72
100
AcDbEntity
  8
0
 62
     0
100
AcDbLine
 10
-48.19004794323699
 20
-785.001400000003
 30
0.0
 11
364.9999999999927
 21
-509.5420714317824
 31
0.0
  0
LINE
  5
297C
330
2F72
100
AcDbEntity
  8
0
 62
     0
100
AcDbLine
 10
-52.69000923712519
 20
-785.0014000000044
 30
0.0
 11
364.9999999999891
 21
-506.5421048963671
 31
0.0
  0
LINE
  5
297D
330
2F72
100
AcDbEntity
  8
0
 62
     0
100
AcDbLine
 10
-57.18997053100611
 20
-785.0014000000044
 30
0.0
 11
364.9999999999891
 21
-503.5421383609518
 31
0.0
  0
LINE
  5
297E
330
2F72
100
AcDbEntity
  8
0
 62
     0
100
AcDbLine
 10
-61.68993182489065
 20
-785.0014000000044
 30
0.0
 11
364.9999999999891
 21
-500.5421718255345
 31
0.0
  0
LINE
  5
297F
330
2F72
100
AcDbEntity
  8
0
 62
     0
100
AcDbLine
 10
-66.18989311878249
 20
-785.001400000003
 30
0.0
 11
364.9999999999891
 21
-497.5422052901176
 31
0.0
  0
LINE
  5
2980
330
2F72
100
AcDbEntity
  8
0
 62
     0
100
AcDbLine
 10
-70.68985441266341
 20
-785.001400000003
 30
0.0
 11
364.9999999999891
 21
-494.5422387547022
 31
0.0
  0
LINE
  5
2981
330
2F72
100
AcDbEntity
  8
0
 62
     0
100
AcDbLine
 10
-75.18981570654796
 20
-785.001400000003
 30
0.0
 11
364.9999999999891
 21
-491.5422722192852
 31
0.0
  0
LINE
  5
2982
330
2F72
100
AcDbEntity
  8
0
 62
     0
100
AcDbLine
 10
-79.68977700043251
 20
-785.001400000003
 30
0.0
 11
364.9999999999927
 21
-488.5423056838699
 31
0.0
  0
LINE
  5
2983
330
2F72
100
AcDbEntity
  8
0
 62
     0
100
AcDbLine
 10
-84.18973829432434
 20
-785.0014000000044
 30
0.0
 11
364.9999999999891
 21
-485.5423391484528
 31
0.0
  0
LINE
  5
2984
330
2F72
100
AcDbEntity
  8
0
 62
     0
100
AcDbLine
 10
-88.68969958820525
 20
-785.001400000003
 30
0.0
 11
364.9999999999891
 21
-482.5423726130375
 31
0.0
  0
LINE
  5
2985
330
2F72
100
AcDbEntity
  8
0
 62
     0
100
AcDbLine
 10
-93.18966088208981
 20
-785.001400000003
 30
0.0
 11
364.9999999999891
 21
-479.5424060776221
 31
0.0
  0
LINE
  5
2986
330
2F72
100
AcDbEntity
  8
0
 62
     0
100
AcDbLine
 10
-97.68962217597799
 20
-785.0014000000044
 30
0.0
 11
364.9999999999891
 21
-476.542439542205
 31
0.0
  0
LINE
  5
2987
330
2F72
100
AcDbEntity
  8
0
 62
     0
100
AcDbLine
 10
-102.1895834698662
 20
-785.0014000000044
 30
0.0
 11
364.9999999999927
 21
-473.542473006788
 31
0.0
  0
LINE
  5
2988
330
2F72
100
AcDbEntity
  8
0
 62
     0
100
AcDbLine
 10
-106.6895447637471
 20
-785.001400000003
 30
0.0
 11
364.9999999999891
 21
-470.5425064713709
 31
0.0
  0
LINE
  5
2989
330
2F72
100
AcDbEntity
  8
0
 62
     0
100
AcDbLine
 10
-111.1895060576353
 20
-785.001400000003
 30
0.0
 11
364.9999999999891
 21
-467.5425399359553
 31
0.0
  0
LINE
  5
298A
330
2F72
100
AcDbEntity
  8
0
 62
     0
100
AcDbLine
 10
-115.6894673515198
 20
-785.0014000000044
 30
0.0
 11
364.9999999999891
 21
-464.5425734005421
 31
0.0
  0
LINE
  5
298B
330
2F72
100
AcDbEntity
  8
0
 62
     0
100
AcDbLine
 10
-120.189428645408
 20
-785.0014000000044
 30
0.0
 11
364.9999999999927
 21
-461.5426068651231
 31
0.0
  0
LINE
  5
298C
330
2F72
100
AcDbEntity
  8
0
 62
     0
100
AcDbLine
 10
-124.6893899392889
 20
-785.001400000003
 30
0.0
 11
364.9999999999891
 21
-458.5426403297078
 31
0.0
  0
LINE
  5
298D
330
2F72
100
AcDbEntity
  8
0
 62
     0
100
AcDbLine
 10
-129.189351233177
 20
-785.0014000000044
 30
0.0
 11
364.9999999999891
 21
-455.5426737942904
 31
0.0
  0
LINE
  5
298E
330
2F72
100
AcDbEntity
  8
0
 62
     0
100
AcDbLine
 10
-133.6893125270617
 20
-785.0014000000044
 30
0.0
 11
364.9999999999927
 21
-452.5427072588735
 31
0.0
  0
LINE
  5
298F
330
2F72
100
AcDbEntity
  8
0
 62
     0
100
AcDbLine
 10
-138.1892738209462
 20
-785.001400000003
 30
0.0
 11
364.9999999999891
 21
-449.5427407234583
 31
0.0
  0
LINE
  5
2990
330
2F72
100
AcDbEntity
  8
0
 62
     0
100
AcDbLine
 10
-142.6892351148344
 20
-785.001400000003
 30
0.0
 11
364.9999999999891
 21
-446.5427741880411
 31
0.0
  0
LINE
  5
2991
330
2F72
100
AcDbEntity
  8
0
 62
     0
100
AcDbLine
 10
-147.189196408719
 20
-785.0014000000044
 30
0.0
 11
364.9999999999891
 21
-443.5428076526277
 31
0.0
  0
LINE
  5
2992
330
2F72
100
AcDbEntity
  8
0
 62
     0
100
AcDbLine
 10
-151.6891577026035
 20
-785.0014000000044
 30
0.0
 11
364.9999999999927
 21
-440.5428411172088
 31
0.0
  0
LINE
  5
2993
330
2F72
100
AcDbEntity
  8
0
 62
     0
100
AcDbLine
 10
-156.1891189964881
 20
-785.001400000003
 30
0.0
 11
364.9999999999891
 21
-437.5428745817952
 31
0.0
  0
LINE
  5
2994
330
2F72
100
AcDbEntity
  8
0
 62
     0
100
AcDbLine
 10
-160.6890802903763
 20
-785.001400000003
 30
0.0
 11
364.9999999999891
 21
-434.5429080463762
 31
0.0
  0
LINE
  5
2995
330
2F72
100
AcDbEntity
  8
0
 62
     0
100
AcDbLine
 10
-165.1890415842608
 20
-785.001400000003
 30
0.0
 11
364.9999999999891
 21
-431.5429415109611
 31
0.0
  0
LINE
  5
2996
330
2F72
100
AcDbEntity
  8
0
 62
     0
100
AcDbLine
 10
-169.6890028781454
 20
-785.0014000000044
 30
0.0
 11
364.9999999999927
 21
-428.5429749755458
 31
0.0
  0
LINE
  5
2997
330
2F72
100
AcDbEntity
  8
0
 62
     0
100
AcDbLine
 10
-174.1889641720336
 20
-785.0014000000044
 30
0.0
 11
364.9999999999855
 21
-425.5430084401304
 31
0.0
  0
LINE
  5
2998
330
2F72
100
AcDbEntity
  8
0
 62
     0
100
AcDbLine
 10
-178.6889254659181
 20
-785.001400000003
 30
0.0
 11
364.9999999999891
 21
-422.5430419047134
 31
0.0
  0
LINE
  5
2999
330
2F72
100
AcDbEntity
  8
0
 62
     0
100
AcDbLine
 10
-183.1888867598027
 20
-785.001400000003
 30
0.0
 11
364.9999999999927
 21
-419.5430753692942
 31
0.0
  0
LINE
  5
299A
330
2F72
100
AcDbEntity
  8
0
 62
     0
100
AcDbLine
 10
-187.6888480536871
 20
-785.001400000003
 30
0.0
 11
364.9999999999891
 21
-416.5431088338809
 31
0.0
  0
LINE
  5
299B
330
2F72
100
AcDbEntity
  8
0
 62
     0
100
AcDbLine
 10
-192.1888093475754
 20
-785.001400000003
 30
0.0
 11
364.9999999999891
 21
-413.5431422984638
 31
0.0
  0
LINE
  5
299C
330
2F72
100
AcDbEntity
  8
0
 62
     0
100
AcDbLine
 10
-196.68877064146
 20
-785.0014000000044
 30
0.0
 11
364.9999999999891
 21
-410.5431757630482
 31
0.0
  0
LINE
  5
299D
330
2F72
100
AcDbEntity
  8
0
 62
     0
100
AcDbLine
 10
-201.1887319353446
 20
-785.0014000000044
 30
0.0
 11
364.9999999999927
 21
-407.5432092276312
 31
0.0
  0
LINE
  5
299E
330
2F72
100
AcDbEntity
  8
0
 62
     0
100
AcDbLine
 10
-205.6886932292291
 20
-785.001400000003
 30
0.0
 11
364.9999999999891
 21
-404.543242692216
 31
0.0
  0
LINE
  5
299F
330
2F72
100
AcDbEntity
  8
0
 62
     0
100
AcDbLine
 10
-210.1886545231173
 20
-785.001400000003
 30
0.0
 11
364.9999999999891
 21
-401.5432761567987
 31
0.0
  0
LINE
  5
29A0
330
2F72
100
AcDbEntity
  8
0
 62
     0
100
AcDbLine
 10
-214.6886158170019
 20
-785.0014000000044
 30
0.0
 11
364.9999999999927
 21
-398.5433096213837
 31
0.0
  0
LINE
  5
29A1
330
2F72
100
AcDbEntity
  8
0
 62
     0
100
AcDbLine
 10
-219.1885771108864
 20
-785.0014000000044
 30
0.0
 11
364.9999999999927
 21
-395.5433430859666
 31
0.0
  0
LINE
  5
29A2
330
2F72
100
AcDbEntity
  8
0
 62
     0
100
AcDbLine
 10
-223.688538404771
 20
-785.001400000001
 30
0.0
 11
364.9999999999891
 21
-392.5433765505495
 31
0.0
  0
LINE
  5
29A3
330
2F72
100
AcDbEntity
  8
0
 62
     0
100
AcDbLine
 10
-228.1884996986591
 20
-785.0014000000044
 30
0.0
 11
364.9999999999891
 21
-389.5434100151343
 31
0.0
  0
LINE
  5
29A4
330
2F72
100
AcDbEntity
  8
0
 62
     0
100
AcDbLine
 10
-232.6884609925436
 20
-785.0014000000044
 30
0.0
 11
364.9999999999927
 21
-386.5434434797188
 31
0.0
  0
LINE
  5
29A5
330
2F72
100
AcDbEntity
  8
0
 62
     0
100
AcDbLine
 10
-237.1884222864319
 20
-785.0014000000044
 30
0.0
 11
364.9999999999891
 21
-383.5434769443036
 31
0.0
  0
LINE
  5
29A6
330
2F72
100
AcDbEntity
  8
0
 62
     0
100
AcDbLine
 10
-241.6883835803128
 20
-785.001400000003
 30
0.0
 11
364.9999999999891
 21
-380.5435104088847
 31
0.0
  0
LINE
  5
29A7
330
2F72
100
AcDbEntity
  8
0
 62
     0
100
AcDbLine
 10
-246.188344874201
 20
-785.0014000000044
 30
0.0
 11
364.9999999999927
 21
-377.5435438734694
 31
0.0
  0
LINE
  5
29A8
330
2F72
100
AcDbEntity
  8
0
 62
     0
100
AcDbLine
 10
-250.6883061680892
 20
-785.0014000000044
 30
0.0
 11
364.9999999999891
 21
-374.5435773380541
 31
0.0
  0
LINE
  5
29A9
330
2F72
100
AcDbEntity
  8
0
 62
     0
100
AcDbLine
 10
-255.1882674619701
 20
-785.001400000003
 30
0.0
 11
364.9999999999927
 21
-371.5436108026369
 31
0.0
  0
LINE
  5
29AA
330
2F72
100
AcDbEntity
  8
0
 62
     0
100
AcDbLine
 10
-259.6882287558547
 20
-785.001400000003
 30
0.0
 11
364.9999999999891
 21
-368.5436442672217
 31
0.0
  0
LINE
  5
29AB
330
2F72
100
AcDbEntity
  8
0
 62
     0
100
AcDbLine
 10
-264.1881900497465
 20
-785.001400000003
 30
0.0
 11
364.9999999999891
 21
-365.5436777318028
 31
0.0
  0
LINE
  5
29AC
330
2F72
100
AcDbEntity
  8
0
 62
     0
100
AcDbLine
 10
-268.688151343631
 20
-785.0014000000044
 30
0.0
 11
364.9999999999891
 21
-362.5437111963892
 31
0.0
  0
LINE
  5
29AD
330
2F72
100
AcDbEntity
  8
0
 62
     0
100
AcDbLine
 10
363.1135114504577
 20
-360.8014004825327
 30
0.0
 11
364.9999999999927
 21
-359.5437446609702
 31
0.0
  0
LINE
  5
29AE
330
2F72
100
AcDbEntity
  8
0
 62
     0
100
AcDbLine
 10
-273.188112637512
 20
-785.001400000003
 30
0.0
 11
363.1135114504577
 21
-360.8014004825327
 31
0.0
  0
LINE
  5
29AF
330
2F72
100
AcDbEntity
  8
0
 62
     0
100
AcDbLine
 10
358.6135501565696
 20
-360.8014004825327
 30
0.0
 11
364.9999999999963
 21
-356.5437781255532
 31
0.0
  0
LINE
  5
29B0
330
2F72
100
AcDbEntity
  8
0
 62
     0
100
AcDbLine
 10
-277.6880739314001
 20
-785.0014000000044
 30
0.0
 11
358.6135501565696
 21
-360.8014004825327
 31
0.0
  0
LINE
  5
29B1
330
2F72
100
AcDbEntity
  8
0
 62
     0
100
AcDbLine
 10
354.113588862685
 20
-360.8014004825309
 30
0.0
 11
364.9999999999927
 21
-353.5438115901361
 31
0.0
  0
LINE
  5
29B2
330
2F72
100
AcDbEntity
  8
0
 62
     0
100
AcDbLine
 10
-282.1880352252882
 20
-785.001400000003
 30
0.0
 11
354.113588862685
 21
-360.8014004825309
 31
0.0
  0
LINE
  5
29B3
330
2F72
100
AcDbEntity
  8
0
 62
     0
100
AcDbLine
 10
349.6136275688004
 20
-360.8014004825309
 30
0.0
 11
364.9999999999963
 21
-350.5438450547209
 31
0.0
  0
LINE
  5
29B4
330
2F72
100
AcDbEntity
  8
0
 62
     0
100
AcDbLine
 10
-286.6879965191729
 20
-785.0014000000044
 30
0.0
 11
349.6136275688004
 21
-360.8014004825309
 31
0.0
  0
LINE
  5
29B5
330
2F72
100
AcDbEntity
  8
0
 62
     0
100
AcDbLine
 10
345.1136662749158
 20
-360.8014004825327
 30
0.0
 11
364.9999999999927
 21
-347.5438785193073
 31
0.0
  0
LINE
  5
29B6
330
2F72
100
AcDbEntity
  8
0
 62
     0
100
AcDbLine
 10
-291.1879578130538
 20
-785.0014000000044
 30
0.0
 11
345.1136662749158
 21
-360.8014004825327
 31
0.0
  0
LINE
  5
29B7
330
2F72
100
AcDbEntity
  8
0
 62
     0
100
AcDbLine
 10
340.6137049810277
 20
-360.8014004825327
 30
0.0
 11
364.9999999999963
 21
-344.5439119838884
 31
0.0
  0
LINE
  5
29B8
330
2F72
100
AcDbEntity
  8
0
 62
     0
100
AcDbLine
 10
-295.6879191069384
 20
-785.001400000003
 30
0.0
 11
340.6137049810277
 21
-360.8014004825327
 31
0.0
  0
LINE
  5
29B9
330
2F72
100
AcDbEntity
  8
0
 62
     0
100
AcDbLine
 10
336.1137436871431
 20
-360.8014004825309
 30
0.0
 11
364.9999999999927
 21
-341.5439454484732
 31
0.0
  0
LINE
  5
29BA
330
2F72
100
AcDbEntity
  8
0
 62
     0
100
AcDbLine
 10
-300.1878804008302
 20
-785.001400000003
 30
0.0
 11
336.1137436871431
 21
-360.8014004825309
 31
0.0
  0
LINE
  5
29BB
330
2F72
100
AcDbEntity
  8
0
 62
     0
100
AcDbLine
 10
331.6137823932586
 20
-360.8014004825327
 30
0.0
 11
364.9999999999927
 21
-338.543978913056
 31
0.0
  0
LINE
  5
29BC
330
2F72
100
AcDbEntity
  8
0
 62
     0
100
AcDbLine
 10
-304.6878416947147
 20
-785.0014000000044
 30
0.0
 11
331.6137823932586
 21
-360.8014004825327
 31
0.0
  0
LINE
  5
29BD
330
2F72
100
AcDbEntity
  8
0
 62
     0
100
AcDbLine
 10
327.113821099374
 20
-360.8014004825327
 30
0.0
 11
364.9999999999927
 21
-335.5440123776425
 31
0.0
  0
LINE
  5
29BE
330
2F72
100
AcDbEntity
  8
0
 62
     0
100
AcDbLine
 10
-309.1878029885992
 20
-785.0014000000062
 30
0.0
 11
327.113821099374
 21
-360.8014004825327
 31
0.0
  0
LINE
  5
29BF
330
2F72
100
AcDbEntity
  8
0
 62
     0
100
AcDbLine
 10
322.6138598054859
 20
-360.8014004825309
 30
0.0
 11
364.9999999999927
 21
-332.5440458422254
 31
0.0
  0
LINE
  5
29C0
330
2F72
100
AcDbEntity
  8
0
 62
     0
100
AcDbLine
 10
-313.6877642824837
 20
-785.0014000000044
 30
0.0
 11
322.6138598054859
 21
-360.8014004825309
 31
0.0
  0
LINE
  5
29C1
330
2F72
100
AcDbEntity
  8
0
 62
     0
100
AcDbLine
 10
318.1138985116013
 20
-360.8014004825309
 30
0.0
 11
364.9999999999963
 21
-329.5440793068065
 31
0.0
  0
LINE
  5
29C2
330
2F72
100
AcDbEntity
  8
0
 62
     0
100
AcDbLine
 10
-318.1877255763684
 20
-785.001400000003
 30
0.0
 11
318.1138985116013
 21
-360.8014004825309
 31
0.0
  0
LINE
  5
29C3
330
2F72
100
AcDbEntity
  8
0
 62
     0
100
AcDbLine
 10
313.6139372177167
 20
-360.8014004825309
 30
0.0
 11
364.9999999999927
 21
-326.5441127713911
 31
0.0
  0
LINE
  5
29C4
330
2F72
100
AcDbEntity
  8
0
 62
     0
100
AcDbLine
 10
-322.6876868702529
 20
-785.001400000001
 30
0.0
 11
313.6139372177167
 21
-360.8014004825309
 31
0.0
  0
LINE
  5
29C5
330
2F72
100
AcDbEntity
  8
0
 62
     0
100
AcDbLine
 10
309.1139759238286
 20
-360.8014004825327
 30
0.0
 11
364.9999999999927
 21
-323.544146235974
 31
0.0
  0
LINE
  5
29C6
330
2F72
100
AcDbEntity
  8
0
 62
     0
100
AcDbLine
 10
-327.1876481641448
 20
-785.0014000000044
 30
0.0
 11
309.1139759238286
 21
-360.8014004825327
 31
0.0
  0
LINE
  5
29C7
330
2F72
100
AcDbEntity
  8
0
 62
     0
100
AcDbLine
 10
304.614014629944
 20
-360.8014004825309
 30
0.0
 11
364.9999999999927
 21
-320.5441797005605
 31
0.0
  0
LINE
  5
29C8
330
2F72
100
AcDbEntity
  8
0
 62
     0
100
AcDbLine
 10
-331.6876094580257
 20
-785.0014000000044
 30
0.0
 11
304.614014629944
 21
-360.8014004825309
 31
0.0
  0
LINE
  5
29C9
330
2F72
100
AcDbEntity
  8
0
 62
     0
100
AcDbLine
 10
300.1140533360594
 20
-360.8014004825309
 30
0.0
 11
364.9999999999963
 21
-317.5442131651432
 31
0.0
  0
LINE
  5
29CA
330
2F72
100
AcDbEntity
  8
0
 62
     0
100
AcDbLine
 10
-336.1875707519102
 20
-785.0014000000044
 30
0.0
 11
300.1140533360594
 21
-360.8014004825309
 31
0.0
  0
LINE
  5
29CB
330
2F72
100
AcDbEntity
  8
0
 62
     0
100
AcDbLine
 10
295.6140920421713
 20
-360.8014004825309
 30
0.0
 11
364.9999999999891
 21
-314.5442466297263
 31
0.0
  0
LINE
  5
29CC
330
2F72
100
AcDbEntity
  8
0
 62
     0
100
AcDbLine
 10
-340.6875320457984
 20
-785.001400000001
 30
0.0
 11
295.6140920421713
 21
-360.8014004825309
 31
0.0
  0
LINE
  5
29CD
330
2F72
100
AcDbEntity
  8
0
 62
     0
100
AcDbLine
 10
291.1141307482867
 20
-360.8014004825327
 30
0.0
 11
364.9999999999891
 21
-311.5442800943128
 31
0.0
  0
LINE
  5
29CE
330
2F72
100
AcDbEntity
  8
0
 62
     0
100
AcDbLine
 10
-345.1874933396867
 20
-785.0014000000044
 30
0.0
 11
291.1141307482867
 21
-360.8014004825327
 31
0.0
  0
LINE
  5
29CF
330
2F72
100
AcDbEntity
  8
0
 62
     0
100
AcDbLine
 10
286.6141694544022
 20
-360.8014004825327
 30
0.0
 11
364.9999999999891
 21
-308.5443135588976
 31
0.0
  0
LINE
  5
29D0
330
2F72
100
AcDbEntity
  8
0
 62
     0
100
AcDbLine
 10
-349.6874546335675
 20
-785.0014000000044
 30
0.0
 11
286.6141694544022
 21
-360.8014004825327
 31
0.0
  0
LINE
  5
29D1
330
2F72
100
AcDbEntity
  8
0
 62
     0
100
AcDbLine
 10
282.1142081605176
 20
-360.8014004825309
 30
0.0
 11
364.9999999999927
 21
-305.5443470234804
 31
0.0
  0
LINE
  5
29D2
330
2F72
100
AcDbEntity
  8
0
 62
     0
100
AcDbLine
 10
-354.1874159274521
 20
-785.0014000000044
 30
0.0
 11
282.1142081605176
 21
-360.8014004825309
 31
0.0
  0
LINE
  5
29D3
330
2F72
100
AcDbEntity
  8
0
 62
     0
100
AcDbLine
 10
277.6142468666294
 20
-360.8014004825309
 30
0.0
 11
364.9999999999891
 21
-302.5443804880633
 31
0.0
  0
LINE
  5
29D4
330
2F72
100
AcDbEntity
  8
0
 62
     0
100
AcDbLine
 10
-358.6873772213439
 20
-785.0014000000044
 30
0.0
 11
277.6142468666294
 21
-360.8014004825309
 31
0.0
  0
LINE
  5
29D5
330
2F72
100
AcDbEntity
  8
0
 62
     0
100
AcDbLine
 10
273.1142855727449
 20
-360.8014004825327
 30
0.0
 11
364.9999999999891
 21
-299.544413952648
 31
0.0
  0
LINE
  5
29D6
330
2F72
100
AcDbEntity
  8
0
 62
     0
100
AcDbLine
 10
-363.1873385152248
 20
-785.001400000003
 30
0.0
 11
273.1142855727449
 21
-360.8014004825327
 31
0.0
  0
LINE
  5
29D7
330
2F72
100
AcDbEntity
  8
0
 62
     0
100
AcDbLine
 10
268.6143242788603
 20
-360.8014004825327
 30
0.0
 11
364.9999999999927
 21
-296.5444474172327
 31
0.0
  0
LINE
  5
29D8
330
2F72
100
AcDbEntity
  8
0
 62
     0
100
AcDbLine
 10
-365.0000000000073
 20
-783.209871368659
 30
0.0
 11
268.6143242788603
 21
-360.8014004825327
 31
0.0
  0
LINE
  5
29D9
330
2F72
100
AcDbEntity
  8
0
 62
     0
100
AcDbLine
 10
264.1143629849757
 20
-360.8014004825327
 30
0.0
 11
364.9999999999927
 21
-293.5444808818156
 31
0.0
  0
LINE
  5
29DA
330
2F72
100
AcDbEntity
  8
0
 62
     0
100
AcDbLine
 10
-365.0000000000073
 20
-780.2099048332438
 30
0.0
 11
264.1143629849757
 21
-360.8014004825327
 31
0.0
  0
LINE
  5
29DB
330
2F72
100
AcDbEntity
  8
0
 62
     0
100
AcDbLine
 10
259.6144016910876
 20
-360.8014004825309
 30
0.0
 11
364.9999999999891
 21
-290.5445143463985
 31
0.0
  0
LINE
  5
29DC
330
2F72
100
AcDbEntity
  8
0
 62
     0
100
AcDbLine
 10
-365.0000000000109
 20
-777.2099382978285
 30
0.0
 11
259.6144016910876
 21
-360.8014004825309
 31
0.0
  0
LINE
  5
29DD
330
2F72
100
AcDbEntity
  8
0
 62
     0
100
AcDbLine
 10
255.1144403972066
 20
-360.8014004825272
 30
0.0
 11
364.9999999999891
 21
-287.5445478109832
 31
0.0
  0
LINE
  5
29DE
330
2F72
100
AcDbEntity
  8
0
 62
     0
100
AcDbLine
 10
-365.0000000000073
 20
-774.2099717624096
 30
0.0
 11
255.1144403972066
 21
-360.8014004825291
 31
0.0
  0
LINE
  5
29DF
330
2F72
100
AcDbEntity
  8
0
 62
     0
100
AcDbLine
 10
250.6144791033221
 20
-360.8014004825291
 30
0.0
 11
364.9999999999927
 21
-284.5445812755661
 31
0.0
  0
LINE
  5
29E0
330
2F72
100
AcDbEntity
  8
0
 62
     0
100
AcDbLine
 10
-365.0000000000073
 20
-771.2100052269943
 30
0.0
 11
250.6144791033185
 21
-360.8014004825309
 31
0.0
  0
LINE
  5
29E1
330
2F72
100
AcDbEntity
  8
0
 62
     0
100
AcDbLine
 10
246.1145178094338
 20
-360.8014004825309
 30
0.0
 11
364.9999999999891
 21
-281.5446147401526
 31
0.0
  0
LINE
  5
29E2
330
2F72
100
AcDbEntity
  8
0
 62
     0
100
AcDbLine
 10
-365.0000000000109
 20
-768.210038691579
 30
0.0
 11
246.1145178094302
 21
-360.8014004825327
 31
0.0
  0
LINE
  5
29E3
330
2F72
100
AcDbEntity
  8
0
 62
     0
100
AcDbLine
 10
241.6145565155493
 20
-360.8014004825309
 30
0.0
 11
364.9999999999891
 21
-278.5446482047337
 31
0.0
  0
LINE
  5
29E4
330
2F72
100
AcDbEntity
  8
0
 62
     0
100
AcDbLine
 10
-365.0000000000073
 20
-765.2100721561618
 30
0.0
 11
241.6145565155457
 21
-360.8014004825327
 31
0.0
  0
LINE
  5
29E5
330
2F72
100
AcDbEntity
  8
0
 62
     0
100
AcDbLine
 10
237.1145952216648
 20
-360.8014004825291
 30
0.0
 11
364.9999999999891
 21
-275.5446816693184
 31
0.0
  0
LINE
  5
29E6
330
2F72
100
AcDbEntity
  8
0
 62
     0
100
AcDbLine
 10
-365.0000000000073
 20
-762.2101056207427
 30
0.0
 11
237.1145952216648
 21
-360.8014004825291
 31
0.0
  0
LINE
  5
29E7
330
2F72
100
AcDbEntity
  8
0
 62
     0
100
AcDbLine
 10
232.6146339277729
 20
-360.8014004825309
 30
0.0
 11
364.9999999999891
 21
-272.5447151339031
 31
0.0
  0
LINE
  5
29E8
330
2F72
100
AcDbEntity
  8
0
 62
     0
100
AcDbLine
 10
-365.0000000000109
 20
-759.2101390853294
 30
0.0
 11
232.6146339277729
 21
-360.8014004825309
 31
0.0
  0
LINE
  5
29E9
330
2F72
100
AcDbEntity
  8
0
 62
     0
100
AcDbLine
 10
228.1146726338884
 20
-360.8014004825327
 30
0.0
 11
364.9999999999927
 21
-269.544748598486
 31
0.0
  0
LINE
  5
29EA
330
2F72
100
AcDbEntity
  8
0
 62
     0
100
AcDbLine
 10
-365.0000000000109
 20
-756.2101725499159
 30
0.0
 11
228.1146726338884
 21
-360.8014004825327
 31
0.0
  0
LINE
  5
29EB
330
2F72
100
AcDbEntity
  8
0
 62
     0
100
AcDbLine
 10
223.6147113400039
 20
-360.8014004825327
 30
0.0
 11
364.9999999999891
 21
-266.5447820630707
 31
0.0
  0
LINE
  5
29EC
330
2F72
100
AcDbEntity
  8
0
 62
     0
100
AcDbLine
 10
-365.0000000000073
 20
-753.210206014497
 30
0.0
 11
223.6147113400039
 21
-360.8014004825327
 31
0.0
  0
LINE
  5
29ED
330
2F72
100
AcDbEntity
  8
0
 62
     0
100
AcDbLine
 10
219.1147500461266
 20
-360.8014004825272
 30
0.0
 11
364.9999999999891
 21
-263.5448155276535
 31
0.0
  0
LINE
  5
29EE
330
2F72
100
AcDbEntity
  8
0
 62
     0
100
AcDbLine
 10
-365.0000000000073
 20
-750.2102394790796
 30
0.0
 11
219.1147500461228
 21
-360.8014004825309
 31
0.0
  0
LINE
  5
29EF
330
2F72
100
AcDbEntity
  8
0
 62
     0
100
AcDbLine
 10
214.6147887522348
 20
-360.8014004825291
 30
0.0
 11
364.9999999999891
 21
-260.5448489922383
 31
0.0
  0
LINE
  5
29F0
330
2F72
100
AcDbEntity
  8
0
 62
     0
100
AcDbLine
 10
-365.0000000000109
 20
-747.2102729436644
 30
0.0
 11
214.6147887522311
 21
-360.8014004825309
 31
0.0
  0
LINE
  5
29F1
330
2F72
100
AcDbEntity
  8
0
 62
     0
100
AcDbLine
 10
210.1148274583501
 20
-360.8014004825309
 30
0.0
 11
364.9999999999927
 21
-257.544882456823
 31
0.0
  0
LINE
  5
29F2
330
2F72
100
AcDbEntity
  8
0
 62
     0
100
AcDbLine
 10
-365.0000000000073
 20
-744.210306408249
 30
0.0
 11
210.1148274583465
 21
-360.8014004825327
 31
0.0
  0
LINE
  5
29F3
330
2F72
100
AcDbEntity
  8
0
 62
     0
100
AcDbLine
 10
205.6148661644656
 20
-360.8014004825309
 30
0.0
 11
364.9999999999891
 21
-254.5449159214058
 31
0.0
  0
LINE
  5
29F4
330
2F72
100
AcDbEntity
  8
0
 62
     0
100
AcDbLine
 10
-365.0000000000073
 20
-741.2103398728337
 30
0.0
 11
205.6148661644656
 21
-360.8014004825309
 31
0.0
  0
LINE
  5
29F5
330
2F72
100
AcDbEntity
  8
0
 62
     0
100
AcDbLine
 10
201.1149048705775
 20
-360.8014004825309
 30
0.0
 11
364.9999999999891
 21
-251.5449493859887
 31
0.0
  0
LINE
  5
29F6
330
2F72
100
AcDbEntity
  8
0
 62
     0
100
AcDbLine
 10
-365.0000000000109
 20
-738.210373337415
 30
0.0
 11
201.1149048705775
 21
-360.8014004825309
 31
0.0
  0
LINE
  5
29F7
330
2F72
100
AcDbEntity
  8
0
 62
     0
100
AcDbLine
 10
196.6149435766965
 20
-360.8014004825254
 30
0.0
 11
364.9999999999891
 21
-248.5449828505716
 31
0.0
  0
LINE
  5
29F8
330
2F72
100
AcDbEntity
  8
0
 62
     0
100
AcDbLine
 10
-365.0000000000109
 20
-735.2104068019998
 30
0.0
 11
196.6149435766892
 21
-360.8014004825309
 31
0.0
  0
LINE
  5
29F9
330
2F72
100
AcDbEntity
  8
0
 62
     0
100
AcDbLine
 10
192.1149822828047
 20
-360.8014004825309
 30
0.0
 11
364.9999999999927
 21
-245.5450163151563
 31
0.0
  0
LINE
  5
29FA
330
2F72
100
AcDbEntity
  8
0
 62
     0
100
AcDbLine
 10
-365.0000000000073
 20
-732.2104402665829
 30
0.0
 11
192.1149822828047
 21
-360.8014004825309
 31
0.0
  0
LINE
  5
29FB
330
2F72
100
AcDbEntity
  8
0
 62
     0
100
AcDbLine
 10
187.6150209889274
 20
-360.8014004825291
 30
0.0
 11
364.9999999999891
 21
-242.5450497797428
 31
0.0
  0
LINE
  5
29FC
330
2F72
100
AcDbEntity
  8
0
 62
     0
100
AcDbLine
 10
-365.0000000000036
 20
-729.2104737311674
 30
0.0
 11
187.6150209889237
 21
-360.8014004825309
 31
0.0
  0
LINE
  5
29FD
330
2F72
100
AcDbEntity
  8
0
 62
     0
100
AcDbLine
 10
183.1150596950392
 20
-360.8014004825291
 30
0.0
 11
364.9999999999891
 21
-239.5450832443239
 31
0.0
  0
LINE
  5
29FE
330
2F72
100
AcDbEntity
  8
0
 62
     0
100
AcDbLine
 10
-365.0000000000109
 20
-726.2105071957521
 30
0.0
 11
183.1150596950356
 21
-360.8014004825309
 31
0.0
  0
LINE
  5
29FF
330
2F72
100
AcDbEntity
  8
0
 62
     0
100
AcDbLine
 10
178.615098401151
 20
-360.8014004825291
 30
0.0
 11
364.9999999999891
 21
-236.5451167089086
 31
0.0
  0
LINE
  5
2A00
330
2F72
100
AcDbEntity
  8
0
 62
     0
100
AcDbLine
 10
-365.0000000000109
 20
-723.2105406603348
 30
0.0
 11
178.615098401151
 21
-360.8014004825309
 31
0.0
  0
LINE
  5
2A01
330
2F72
100
AcDbEntity
  8
0
 62
     0
100
AcDbLine
 10
174.1151371072664
 20
-360.8014004825309
 30
0.0
 11
364.9999999999927
 21
-233.5451501734915
 31
0.0
  0
LINE
  5
2A02
330
2F72
100
AcDbEntity
  8
0
 62
     0
100
AcDbLine
 10
-365.0000000000073
 20
-720.2105741249196
 30
0.0
 11
174.1151371072628
 21
-360.8014004825327
 31
0.0
  0
LINE
  5
2A03
330
2F72
100
AcDbEntity
  8
0
 62
     0
100
AcDbLine
 10
169.6151758133783
 20
-360.8014004825309
 30
0.0
 11
364.9999999999855
 21
-230.545183638078
 31
0.0
  0
LINE
  5
2A04
330
2F72
100
AcDbEntity
  8
0
 62
     0
100
AcDbLine
 10
-365.0000000000109
 20
-717.2106075895026
 30
0.0
 11
169.6151758133783
 21
-360.8014004825309
 31
0.0
  0
LINE
  5
2A05
330
2F72
100
AcDbEntity
  8
0
 62
     0
100
AcDbLine
 10
165.1152145194937
 20
-360.8014004825309
 30
0.0
 11
364.9999999999891
 21
-227.5452171026609
 31
0.0
  0
LINE
  5
2A06
330
2F72
100
AcDbEntity
  8
0
 62
     0
100
AcDbLine
 10
-365.0000000000109
 20
-714.2106410540872
 30
0.0
 11
165.1152145194901
 21
-360.8014004825327
 31
0.0
  0
LINE
  5
2A07
330
2F72
100
AcDbEntity
  8
0
 62
     0
100
AcDbLine
 10
160.6152532256092
 20
-360.8014004825309
 30
0.0
 11
364.9999999999927
 21
-224.545250567242
 31
0.0
  0
LINE
  5
2A08
330
2F72
100
AcDbEntity
  8
0
 62
     0
100
AcDbLine
 10
-365.0000000000073
 20
-711.2106745186702
 30
0.0
 11
160.6152532256092
 21
-360.8014004825309
 31
0.0
  0
LINE
  5
2A09
330
2F72
100
AcDbEntity
  8
0
 62
     0
100
AcDbLine
 10
156.1152919317173
 20
-360.8014004825327
 30
0.0
 11
364.9999999999891
 21
-221.5452840318285
 31
0.0
  0
LINE
  5
2A0A
330
2F72
100
AcDbEntity
  8
0
 62
     0
100
AcDbLine
 10
-365.0000000000073
 20
-708.2107079832527
 30
0.0
 11
156.1152919317173
 21
-360.8014004825327
 31
0.0
  0
LINE
  5
2A0B
330
2F72
100
AcDbEntity
  8
0
 62
     0
100
AcDbLine
 10
151.6153306378401
 20
-360.8014004825291
 30
0.0
 11
364.9999999999891
 21
-218.5453174964114
 31
0.0
  0
LINE
  5
2A0C
330
2F72
100
AcDbEntity
  8
0
 62
     0
100
AcDbLine
 10
-365.0000000000109
 20
-705.2107414478395
 30
0.0
 11
151.6153306378364
 21
-360.8014004825327
 31
0.0
  0
LINE
  5
2A0D
330
2F72
100
AcDbEntity
  8
0
 62
     0
100
AcDbLine
 10
149.1999999999934
 20
-359.4116502606084
 30
0.0
 11
364.9999999999891
 21
-215.5453509609961
 31
0.0
  0
LINE
  5
2A0E
330
2F72
100
AcDbEntity
  8
0
 62
     0
100
AcDbLine
 10
-365.0000000000109
 20
-702.2107749124224
 30
0.0
 11
149.1999999999934
 21
-359.4116502606084
 31
0.0
  0
LINE
  5
2A0F
330
2F72
100
AcDbEntity
  8
0
 62
     0
100
AcDbLine
 10
149.1999999999934
 20
-356.4116837251912
 30
0.0
 11
364.9999999999927
 21
-212.5453844255771
 31
0.0
  0
LINE
  5
2A10
330
2F72
100
AcDbEntity
  8
0
 62
     0
100
AcDbLine
 10
-365.0000000000073
 20
-699.2108083770053
 30
0.0
 11
149.1999999999934
 21
-356.4116837251912
 31
0.0
  0
LINE
  5
2A11
330
2F72
100
AcDbEntity
  8
0
 62
     0
100
AcDbLine
 10
149.1999999999898
 20
-353.4117171897741
 30
0.0
 11
364.9999999999855
 21
-209.5454178901619
 31
0.0
  0
LINE
  5
2A12
330
2F72
100
AcDbEntity
  8
0
 62
     0
100
AcDbLine
 10
-365.0000000000073
 20
-696.2108418415883
 30
0.0
 11
149.1999999999898
 21
-353.4117171897741
 31
0.0
  0
LINE
  5
2A13
330
2F72
100
AcDbEntity
  8
0
 62
     0
100
AcDbLine
 10
149.1999999999898
 20
-350.4117506543589
 30
0.0
 11
364.9999999999891
 21
-206.5454513547464
 31
0.0
  0
LINE
  5
2A14
330
2F72
100
AcDbEntity
  8
0
 62
     0
100
AcDbLine
 10
-365.0000000000109
 20
-693.2108753061729
 30
0.0
 11
149.1999999999898
 21
-350.4117506543589
 31
0.0
  0
LINE
  5
2A15
330
2F72
100
AcDbEntity
  8
0
 62
     0
100
AcDbLine
 10
149.1999999999934
 20
-347.4117841189436
 30
0.0
 11
364.9999999999891
 21
-203.5454848193313
 31
0.0
  0
LINE
  5
2A16
330
2F72
100
AcDbEntity
  8
0
 62
     0
100
AcDbLine
 10
-365.0000000000073
 20
-690.2109087707575
 30
0.0
 11
149.1999999999934
 21
-347.4117841189436
 31
0.0
  0
LINE
  5
2A17
330
2F72
100
AcDbEntity
  8
0
 62
     0
100
AcDbLine
 10
149.1999999999898
 20
-344.4118175835283
 30
0.0
 11
364.9999999999891
 21
-200.5455182839142
 31
0.0
  0
LINE
  5
2A18
330
2F72
100
AcDbEntity
  8
0
 62
     0
100
AcDbLine
 10
-365.0000000000109
 20
-687.2109422353405
 30
0.0
 11
149.1999999999898
 21
-344.4118175835283
 31
0.0
  0
LINE
  5
2A19
330
2F72
100
AcDbEntity
  8
0
 62
     0
100
AcDbLine
 10
149.1999999999898
 20
-341.4118510481094
 30
0.0
 11
364.9999999999855
 21
-197.5455517484988
 31
0.0
  0
LINE
  5
2A1A
330
2F72
100
AcDbEntity
  8
0
 62
     0
100
AcDbLine
 10
-365.0000000000073
 20
-684.2109756999234
 30
0.0
 11
149.1999999999898
 21
-341.4118510481094
 31
0.0
  0
LINE
  5
2A1B
330
2F72
100
AcDbEntity
  8
0
 62
     0
100
AcDbLine
 10
149.1999999999934
 20
-338.411884512694
 30
0.0
 11
364.9999999999891
 21
-194.5455852130817
 31
0.0
  0
LINE
  5
2A1C
330
2F72
100
AcDbEntity
  8
0
 62
     0
100
AcDbLine
 10
-365.0000000000109
 20
-681.21100916451
 30
0.0
 11
149.1999999999934
 21
-338.411884512694
 31
0.0
  0
LINE
  5
2A1D
330
2F72
100
AcDbEntity
  8
0
 62
     0
100
AcDbLine
 10
149.1999999999934
 20
-335.4119179772788
 30
0.0
 11
364.9999999999927
 21
-191.5456186776664
 31
0.0
  0
LINE
  5
2A1E
330
2F72
100
AcDbEntity
  8
0
 62
     0
100
AcDbLine
 10
-365.0000000000073
 20
-678.2110426290927
 30
0.0
 11
149.1999999999934
 21
-335.4119179772788
 31
0.0
  0
LINE
  5
2A1F
330
2F72
100
AcDbEntity
  8
0
 62
     0
100
AcDbLine
 10
149.1999999999898
 20
-332.4119514418635
 30
0.0
 11
364.9999999999891
 21
-188.5456521422493
 31
0.0
  0
LINE
  5
2A20
330
2F72
100
AcDbEntity
  8
0
 62
     0
100
AcDbLine
 10
-365.0000000000073
 20
-675.2110760936756
 30
0.0
 11
149.1999999999898
 21
-332.4119514418635
 31
0.0
  0
LINE
  5
2A21
330
2F72
100
AcDbEntity
  8
0
 62
     0
100
AcDbLine
 10
149.1999999999898
 20
-329.4119849064464
 30
0.0
 11
364.9999999999891
 21
-185.5456856068322
 31
0.0
  0
LINE
  5
2A22
330
2F72
100
AcDbEntity
  8
0
 62
     0
100
AcDbLine
 10
-365.0000000000073
 20
-672.2111095582585
 30
0.0
 11
149.1999999999898
 21
-329.4119849064464
 31
0.0
  0
LINE
  5
2A23
330
2F72
100
AcDbEntity
  8
0
 62
     0
100
AcDbLine
 10
149.1999999999934
 20
-326.4120183710293
 30
0.0
 11
364.9999999999891
 21
-182.5457190714169
 31
0.0
  0
LINE
  5
2A24
330
2F72
100
AcDbEntity
  8
0
 62
     0
100
AcDbLine
 10
-365.0000000000073
 20
-669.2111430228432
 30
0.0
 11
149.1999999999934
 21
-326.4120183710293
 31
0.0
  0
LINE
  5
2A25
330
2F72
100
AcDbEntity
  8
0
 62
     0
100
AcDbLine
 10
149.1999999999898
 20
-323.4120518356158
 30
0.0
 11
364.9999999999891
 21
-179.5457525360016
 31
0.0
  0
LINE
  5
2A26
330
2F72
100
AcDbEntity
  8
0
 62
     0
100
AcDbLine
 10
-365.0000000000109
 20
-666.2111764874296
 30
0.0
 11
149.1999999999898
 21
-323.4120518356158
 31
0.0
  0
LINE
  5
2A27
330
2F72
100
AcDbEntity
  8
0
 62
     0
100
AcDbLine
 10
149.1999999999898
 20
-320.4120853001969
 30
0.0
 11
364.9999999999891
 21
-176.5457860005863
 31
0.0
  0
LINE
  5
2A28
330
2F72
100
AcDbEntity
  8
0
 62
     0
100
AcDbLine
 10
-365.0000000000073
 20
-663.2112099520107
 30
0.0
 11
149.1999999999898
 21
-320.4120853001969
 31
0.0
  0
LINE
  5
2A29
330
2F72
100
AcDbEntity
  8
0
 62
     0
100
AcDbLine
 10
149.1999999999898
 20
-317.4121187647815
 30
0.0
 11
364.9999999999891
 21
-173.5458194651674
 31
0.0
  0
LINE
  5
2A2A
330
2F72
100
AcDbEntity
  8
0
 62
     0
100
AcDbLine
 10
-365.0000000000073
 20
-660.2112434165956
 30
0.0
 11
149.1999999999898
 21
-317.4121187647815
 31
0.0
  0
LINE
  5
2A2B
330
2F72
100
AcDbEntity
  8
0
 62
     0
100
AcDbLine
 10
149.1999999999898
 20
-314.4121522293644
 30
0.0
 11
364.9999999999855
 21
-170.5458529297521
 31
0.0
  0
LINE
  5
2A2C
330
2F72
100
AcDbEntity
  8
0
 62
     0
100
AcDbLine
 10
-365.0000000000109
 20
-657.2112768811765
 30
0.0
 11
149.1999999999898
 21
-314.4121522293644
 31
0.0
  0
LINE
  5
2A2D
330
2F72
100
AcDbEntity
  8
0
 62
     0
100
AcDbLine
 10
149.1999999999898
 20
-311.412185693949
 30
0.0
 11
364.9999999999891
 21
-167.5458863943349
 31
0.0
  0
LINE
  5
2A2E
330
2F72
100
AcDbEntity
  8
0
 62
     0
100
AcDbLine
 10
-365.0000000000109
 20
-654.2113103457632
 30
0.0
 11
149.1999999999898
 21
-311.412185693949
 31
0.0
  0
LINE
  5
2A2F
330
2F72
100
AcDbEntity
  8
0
 62
     0
100
AcDbLine
 10
149.1999999999898
 20
-308.4122191585337
 30
0.0
 11
361.3167696593519
 21
-167.0014004825334
 31
0.0
  0
LINE
  5
2A30
330
2F72
100
AcDbEntity
  8
0
 62
     0
100
AcDbLine
 10
-365.0000000000073
 20
-651.2113438103479
 30
0.0
 11
149.1999999999898
 21
-308.4122191585337
 31
0.0
  0
LINE
  5
2A31
330
2F72
100
AcDbEntity
  8
0
 62
     0
100
AcDbLine
 10
149.1999999999934
 20
-305.4122526231149
 30
0.0
 11
356.8168083654673
 21
-167.0014004825334
 31
0.0
  0
LINE
  5
2A32
330
2F72
100
AcDbEntity
  8
0
 62
     0
100
AcDbLine
 10
-365.0000000000073
 20
-648.2113772749307
 30
0.0
 11
149.1999999999934
 21
-305.4122526231149
 31
0.0
  0
LINE
  5
2A33
330
2F72
100
AcDbEntity
  8
0
 62
     0
100
AcDbLine
 10
149.1999999999898
 20
-302.4122860876996
 30
0.0
 11
352.3168470715791
 21
-167.0014004825298
 31
0.0
  0
LINE
  5
2A34
330
2F72
100
AcDbEntity
  8
0
 62
     0
100
AcDbLine
 10
-365.0000000000109
 20
-645.2114107395137
 30
0.0
 11
149.1999999999898
 21
-302.4122860876996
 31
0.0
  0
LINE
  5
2A35
330
2F72
100
AcDbEntity
  8
0
 62
     0
100
AcDbLine
 10
149.1999999999898
 20
-299.4123195522825
 30
0.0
 11
347.8168857776946
 21
-167.0014004825316
 31
0.0
  0
LINE
  5
2A36
330
2F72
100
AcDbEntity
  8
0
 62
     0
100
AcDbLine
 10
-365.0000000000073
 20
-642.2114442040965
 30
0.0
 11
149.1999999999898
 21
-299.4123195522825
 31
0.0
  0
LINE
  5
2A37
330
2F72
100
AcDbEntity
  8
0
 62
     0
100
AcDbLine
 10
149.1999999999898
 20
-296.4123530168691
 30
0.0
 11
343.31692448381
 21
-167.0014004825334
 31
0.0
  0
LINE
  5
2A38
330
2F72
100
AcDbEntity
  8
0
 62
     0
100
AcDbLine
 10
-365.0000000000073
 20
-639.2114776686828
 30
0.0
 11
149.1999999999898
 21
-296.4123530168691
 31
0.0
  0
LINE
  5
2A39
330
2F72
100
AcDbEntity
  8
0
 62
     0
100
AcDbLine
 10
149.1999999999934
 20
-293.4123864814519
 30
0.0
 11
338.8169631899255
 21
-167.0014004825334
 31
0.0
  0
LINE
  5
2A3A
330
2F72
100
AcDbEntity
  8
0
 62
     0
100
AcDbLine
 10
-365.0000000000073
 20
-636.2115111332675
 30
0.0
 11
149.1999999999934
 21
-293.4123864814519
 31
0.0
  0
LINE
  5
2A3B
330
2F72
100
AcDbEntity
  8
0
 62
     0
100
AcDbLine
 10
149.1999999999898
 20
-290.4124199460348
 30
0.0
 11
334.3170018960373
 21
-167.0014004825334
 31
0.0
  0
LINE
  5
2A3C
330
2F72
100
AcDbEntity
  8
0
 62
     0
100
AcDbLine
 10
-365.0000000000109
 20
-633.2115445978487
 30
0.0
 11
149.1999999999898
 21
-290.4124199460348
 31
0.0
  0
LINE
  5
2A3D
330
2F72
100
AcDbEntity
  8
0
 62
     0
100
AcDbLine
 10
149.1999999999898
 20
-287.4124534106195
 30
0.0
 11
329.8170406021526
 21
-167.0014004825316
 31
0.0
  0
LINE
  5
2A3E
330
2F72
100
AcDbEntity
  8
0
 62
     0
100
AcDbLine
 10
-365.0000000000073
 20
-630.2115780624336
 30
0.0
 11
149.1999999999898
 21
-287.4124534106195
 31
0.0
  0
LINE
  5
2A3F
330
2F72
100
AcDbEntity
  8
0
 62
     0
100
AcDbLine
 10
149.1999999999934
 20
-284.4124868752024
 30
0.0
 11
325.3170793082682
 21
-167.0014004825334
 31
0.0
  0
LINE
  5
2A40
330
2F72
100
AcDbEntity
  8
0
 62
     0
100
AcDbLine
 10
-365.0000000000073
 20
-627.2116115270184
 30
0.0
 11
149.1999999999934
 21
-284.4124868752024
 31
0.0
  0
LINE
  5
2A41
330
2F72
100
AcDbEntity
  8
0
 62
     0
100
AcDbLine
 10
149.1999999999898
 20
-281.4125203397871
 30
0.0
 11
320.8171180143836
 21
-167.0014004825316
 31
0.0
  0
LINE
  5
2A42
330
2F72
100
AcDbEntity
  8
0
 62
     0
100
AcDbLine
 10
-365.0000000000109
 20
-624.2116449916011
 30
0.0
 11
149.1999999999898
 21
-281.4125203397871
 31
0.0
  0
LINE
  5
2A43
330
2F72
100
AcDbEntity
  8
0
 62
     0
100
AcDbLine
 10
149.1999999999934
 20
-278.41255380437
 30
0.0
 11
316.3171567204954
 21
-167.0014004825334
 31
0.0
  0
LINE
  5
2A44
330
2F72
100
AcDbEntity
  8
0
 62
     0
100
AcDbLine
 10
-365.0000000000073
 20
-621.2116784561819
 30
0.0
 11
149.1999999999934
 21
-278.41255380437
 31
0.0
  0
LINE
  5
2A45
330
2F72
100
AcDbEntity
  8
0
 62
     0
100
AcDbLine
 10
149.1999999999898
 20
-275.4125872689528
 30
0.0
 11
311.8171954266109
 21
-167.0014004825316
 31
0.0
  0
LINE
  5
2A46
330
2F72
100
AcDbEntity
  8
0
 62
     0
100
AcDbLine
 10
-365.0000000000073
 20
-618.2117119207669
 30
0.0
 11
149.1999999999898
 21
-275.4125872689528
 31
0.0
  0
LINE
  5
2A47
330
2F72
100
AcDbEntity
  8
0
 62
     0
100
AcDbLine
 10
149.1999999999898
 20
-272.4126207335376
 30
0.0
 11
307.3172341327226
 21
-167.0014004825316
 31
0.0
  0
LINE
  5
2A48
330
2F72
100
AcDbEntity
  8
0
 62
     0
100
AcDbLine
 10
-365.0000000000109
 20
-615.2117453853534
 30
0.0
 11
149.1999999999898
 21
-272.4126207335376
 31
0.0
  0
LINE
  5
2A49
330
2F72
100
AcDbEntity
  8
0
 62
     0
100
AcDbLine
 10
149.1999999999898
 20
-269.4126541981223
 30
0.0
 11
302.8172728388418
 21
-167.0014004825316
 31
0.0
  0
LINE
  5
2A4A
330
2F72
100
AcDbEntity
  8
0
 62
     0
100
AcDbLine
 10
-365.0000000000109
 20
-612.2117788499362
 30
0.0
 11
149.1999999999898
 21
-269.4126541981223
 31
0.0
  0
LINE
  5
2A4B
330
2F72
100
AcDbEntity
  8
0
 62
     0
100
AcDbLine
 10
149.1999999999934
 20
-266.4126876627051
 30
0.0
 11
298.3173115449536
 21
-167.0014004825334
 31
0.0
  0
LINE
  5
2A4C
330
2F72
100
AcDbEntity
  8
0
 62
     0
100
AcDbLine
 10
-365.0000000000073
 20
-609.2118123145191
 30
0.0
 11
149.1999999999934
 21
-266.4126876627051
 31
0.0
  0
LINE
  5
2A4D
330
2F72
100
AcDbEntity
  8
0
 62
     0
100
AcDbLine
 10
149.1999999999862
 20
-263.4127211272899
 30
0.0
 11
293.8173502510654
 21
-167.0014004825316
 31
0.0
  0
LINE
  5
2A4E
330
2F72
100
AcDbEntity
  8
0
 62
     0
100
AcDbLine
 10
-365.0000000000109
 20
-606.211845779102
 30
0.0
 11
149.1999999999862
 21
-263.4127211272899
 31
0.0
  0
LINE
  5
2A4F
330
2F72
100
AcDbEntity
  8
0
 62
     0
100
AcDbLine
 10
149.1999999999898
 20
-260.4127545918727
 30
0.0
 11
289.3173889571808
 21
-167.0014004825334
 31
0.0
  0
LINE
  5
2A50
330
2F72
100
AcDbEntity
  8
0
 62
     0
100
AcDbLine
 10
-365.0000000000073
 20
-603.2118792436865
 30
0.0
 11
149.1999999999898
 21
-260.4127545918727
 31
0.0
  0
LINE
  5
2A51
330
2F72
100
AcDbEntity
  8
0
 62
     0
100
AcDbLine
 10
149.1999999999898
 20
-257.4127880564593
 30
0.0
 11
284.8174276632962
 21
-167.0014004825334
 31
0.0
  0
LINE
  5
2A52
330
2F72
100
AcDbEntity
  8
0
 62
     0
100
AcDbLine
 10
-365.0000000000109
 20
-600.2119127082732
 30
0.0
 11
149.1999999999898
 21
-257.4127880564593
 31
0.0
  0
LINE
  5
2A53
330
2F72
100
AcDbEntity
  8
0
 62
     0
100
AcDbLine
 10
149.1999999999934
 20
-254.4128215210403
 30
0.0
 11
280.3174663694154
 21
-167.0014004825316
 31
0.0
  0
LINE
  5
2A54
330
2F72
100
AcDbEntity
  8
0
 62
     0
100
AcDbLine
 10
-365.0000000000073
 20
-597.2119461728543
 30
0.0
 11
149.1999999999934
 21
-254.4128215210403
 31
0.0
  0
LINE
  5
2A55
330
2F72
100
AcDbEntity
  8
0
 62
     0
100
AcDbLine
 10
149.1999999999898
 20
-251.4128549856232
 30
0.0
 11
275.8175050755235
 21
-167.0014004825316
 31
0.0
  0
LINE
  5
2A56
330
2F72
100
AcDbEntity
  8
0
 62
     0
100
AcDbLine
 10
-365.0000000000109
 20
-594.2119796374391
 30
0.0
 11
149.1999999999898
 21
-251.4128549856232
 31
0.0
  0
LINE
  5
2A57
330
2F72
100
AcDbEntity
  8
0
 62
     0
100
AcDbLine
 10
149.1999999999898
 20
-248.4128884502097
 30
0.0
 11
271.3175437816426
 21
-167.0014004825316
 31
0.0
  0
LINE
  5
2A58
330
2F72
100
AcDbEntity
  8
0
 62
     0
100
AcDbLine
 10
-365.0000000000109
 20
-591.2120131020221
 30
0.0
 11
149.1999999999898
 21
-248.4128884502097
 31
0.0
  0
LINE
  5
2A59
330
2F72
100
AcDbEntity
  8
0
 62
     0
100
AcDbLine
 10
149.1999999999934
 20
-245.4129219147926
 30
0.0
 11
266.8175824877544
 21
-167.0014004825352
 31
0.0
  0
LINE
  5
2A5A
330
2F72
100
AcDbEntity
  8
0
 62
     0
100
AcDbLine
 10
-365.0000000000073
 20
-588.2120465666065
 30
0.0
 11
149.1999999999934
 21
-245.4129219147926
 31
0.0
  0
LINE
  5
2A5B
330
2F72
100
AcDbEntity
  8
0
 62
     0
100
AcDbLine
 10
149.1999999999934
 20
-242.4129553793773
 30
0.0
 11
262.3176211938735
 21
-167.0014004825316
 31
0.0
  0
LINE
  5
2A5C
330
2F72
100
AcDbEntity
  8
0
 62
     0
100
AcDbLine
 10
-365.0000000000073
 20
-585.2120800311912
 30
0.0
 11
149.1999999999934
 21
-242.4129553793773
 31
0.0
  0
LINE
  5
2A5D
330
2F72
100
AcDbEntity
  8
0
 62
     0
100
AcDbLine
 10
149.1999999999898
 20
-239.4129888439584
 30
0.0
 11
257.8176598999817
 21
-167.0014004825316
 31
0.0
  0
LINE
  5
2A5E
330
2F72
100
AcDbEntity
  8
0
 62
     0
100
AcDbLine
 10
-365.0000000000073
 20
-582.2121134957724
 30
0.0
 11
149.1999999999898
 21
-239.4129888439584
 31
0.0
  0
LINE
  5
2A5F
330
2F72
100
AcDbEntity
  8
0
 62
     0
100
AcDbLine
 10
149.1999999999898
 20
-236.4130223085431
 30
0.0
 11
253.3176986061008
 21
-167.0014004825298
 31
0.0
  0
LINE
  5
2A60
330
2F72
100
AcDbEntity
  8
0
 62
     0
100
AcDbLine
 10
-365.0000000000109
 20
-579.212146960357
 30
0.0
 11
149.1999999999898
 21
-236.4130223085431
 31
0.0
  0
LINE
  5
2A61
330
2F72
100
AcDbEntity
  8
0
 62
     0
100
AcDbLine
 10
149.1999999999934
 20
-233.4130557731278
 30
0.0
 11
248.8177373122125
 21
-167.0014004825334
 31
0.0
  0
LINE
  5
2A62
330
2F72
100
AcDbEntity
  8
0
 62
     0
100
AcDbLine
 10
-365.0000000000073
 20
-576.21218042494
 30
0.0
 11
149.1999999999934
 21
-233.4130557731278
 31
0.0
  0
LINE
  5
2A63
330
2F72
100
AcDbEntity
  8
0
 62
     0
100
AcDbLine
 10
149.1999999999898
 20
-230.4130892377107
 30
0.0
 11
244.317776018328
 21
-167.0014004825334
 31
0.0
  0
LINE
  5
2A64
330
2F72
100
AcDbEntity
  8
0
 62
     0
100
AcDbLine
 10
-365.0000000000109
 20
-573.2122138895265
 30
0.0
 11
149.1999999999898
 21
-230.4130892377107
 31
0.0
  0
LINE
  5
2A65
330
2F72
100
AcDbEntity
  8
0
 62
     0
100
AcDbLine
 10
149.1999999999898
 20
-227.4131227022954
 30
0.0
 11
239.8178147244398
 21
-167.0014004825316
 31
0.0
  0
LINE
  5
2A66
330
2F72
100
AcDbEntity
  8
0
 62
     0
100
AcDbLine
 10
-365.0000000000073
 20
-570.2122473541096
 30
0.0
 11
149.1999999999898
 21
-227.4131227022954
 31
0.0
  0
LINE
  5
2A67
330
2F72
100
AcDbEntity
  8
0
 62
     0
100
AcDbLine
 10
149.1999999999934
 20
-224.4131561668764
 30
0.0
 11
235.3178534305552
 21
-167.0014004825316
 31
0.0
  0
LINE
  5
2A68
330
2F72
100
AcDbEntity
  8
0
 62
     0
100
AcDbLine
 10
-365.0000000000073
 20
-567.2122808186903
 30
0.0
 11
149.1999999999934
 21
-224.4131561668764
 31
0.0
  0
LINE
  5
2A69
330
2F72
100
AcDbEntity
  8
0
 62
     0
100
AcDbLine
 10
149.1999999999898
 20
-221.413189631463
 30
0.0
 11
230.8178921366671
 21
-167.0014004825334
 31
0.0
  0
LINE
  5
2A6A
330
2F72
100
AcDbEntity
  8
0
 62
     0
100
AcDbLine
 10
-365.0000000000109
 20
-564.212314283277
 30
0.0
 11
149.1999999999898
 21
-221.413189631463
 31
0.0
  0
LINE
  5
2A6B
330
2F72
100
AcDbEntity
  8
0
 62
     0
100
AcDbLine
 10
149.1999999999898
 20
-218.4132230960476
 30
0.0
 11
226.3179308427861
 21
-167.0014004825334
 31
0.0
  0
LINE
  5
2A6C
330
2F72
100
AcDbEntity
  8
0
 62
     0
100
AcDbLine
 10
-365.0000000000109
 20
-561.2123477478617
 30
0.0
 11
149.1999999999898
 21
-218.4132230960476
 31
0.0
  0
LINE
  5
2A6D
330
2F72
100
AcDbEntity
  8
0
 62
     0
100
AcDbLine
 10
149.1999999999898
 20
-215.4132565606305
 30
0.0
 11
221.817969548898
 21
-167.0014004825334
 31
0.0
  0
LINE
  5
2A6E
330
2F72
100
AcDbEntity
  8
0
 62
     0
100
AcDbLine
 10
-365.0000000000073
 20
-558.2123812124446
 30
0.0
 11
149.1999999999898
 21
-215.4132565606305
 31
0.0
  0
LINE
  5
2A6F
330
2F72
100
AcDbEntity
  8
0
 62
     0
100
AcDbLine
 10
149.1999999999898
 20
-212.4132900252134
 30
0.0
 11
217.3180082550098
 21
-167.0014004825334
 31
0.0
  0
LINE
  5
2A70
330
2F72
100
AcDbEntity
  8
0
 62
     0
100
AcDbLine
 10
-365.0000000000109
 20
-555.2124146770275
 30
0.0
 11
149.1999999999898
 21
-212.4132900252134
 31
0.0
  0
LINE
  5
2A71
330
2F72
100
AcDbEntity
  8
0
 62
     0
100
AcDbLine
 10
149.1999999999898
 20
-209.4133234897981
 30
0.0
 11
212.8180469611288
 21
-167.0014004825316
 31
0.0
  0
LINE
  5
2A72
330
2F72
100
AcDbEntity
  8
0
 62
     0
100
AcDbLine
 10
-365.0000000000109
 20
-552.2124481416121
 30
0.0
 11
149.1999999999898
 21
-209.4133234897981
 31
0.0
  0
LINE
  5
2A73
330
2F72
100
AcDbEntity
  8
0
 62
     0
100
AcDbLine
 10
149.1999999999898
 20
-206.4133569543828
 30
0.0
 11
208.3180856672443
 21
-167.0014004825334
 31
0.0
  0
LINE
  5
2A74
330
2F72
100
AcDbEntity
  8
0
 62
     0
100
AcDbLine
 10
-365.0000000000073
 20
-549.2124816061967
 30
0.0
 11
149.1999999999898
 21
-206.4133569543828
 31
0.0
  0
LINE
  5
2A75
330
2F72
100
AcDbEntity
  8
0
 62
     0
100
AcDbLine
 10
149.1999999999898
 20
-203.4133904189675
 30
0.0
 11
203.8181243733597
 21
-167.0014004825316
 31
0.0
  0
LINE
  5
2A76
330
2F72
100
AcDbEntity
  8
0
 62
     0
100
AcDbLine
 10
-365.0000000000073
 20
-546.2125150707797
 30
0.0
 11
149.1999999999898
 21
-203.4133904189675
 31
0.0
  0
LINE
  5
2A77
330
2F72
100
AcDbEntity
  8
0
 62
     0
100
AcDbLine
 10
149.1999999999898
 20
-200.4134238835486
 30
0.0
 11
199.3181630794679
 21
-167.0014004825334
 31
0.0
  0
LINE
  5
2A78
330
2F72
100
AcDbEntity
  8
0
 62
     0
100
AcDbLine
 10
-365.0000000000109
 20
-543.2125485353625
 30
0.0
 11
149.1999999999898
 21
-200.4134238835486
 31
0.0
  0
LINE
  5
2A79
330
2F72
100
AcDbEntity
  8
0
 62
     0
100
AcDbLine
 10
149.1999999999934
 20
-197.4134573481333
 30
0.0
 11
194.818201785587
 21
-167.0014004825316
 31
0.0
  0
LINE
  5
2A7A
330
2F72
100
AcDbEntity
  8
0
 62
     0
100
AcDbLine
 10
-365.0000000000109
 20
-540.2125819999492
 30
0.0
 11
149.1999999999934
 21
-197.4134573481333
 31
0.0
  0
LINE
  5
2A7B
330
2F72
100
AcDbEntity
  8
0
 62
     0
100
AcDbLine
 10
149.1999999999898
 20
-194.4134908127161
 30
0.0
 11
190.3182404917024
 21
-167.0014004825316
 31
0.0
  0
LINE
  5
2A7C
330
2F72
100
AcDbEntity
  8
0
 62
     0
100
AcDbLine
 10
-365.0000000000073
 20
-537.2126154645302
 30
0.0
 11
149.1999999999898
 21
-194.4134908127161
 31
0.0
  0
LINE
  5
2A7D
330
2F72
100
AcDbEntity
  8
0
 62
     0
100
AcDbLine
 10
149.1999999999934
 20
-191.4135242773008
 30
0.0
 11
185.8182791978141
 21
-167.0014004825334
 31
0.0
  0
LINE
  5
2A7E
330
2F72
100
AcDbEntity
  8
0
 62
     0
100
AcDbLine
 10
-365.0000000000073
 20
-534.2126489291149
 30
0.0
 11
149.1999999999934
 21
-191.4135242773008
 31
0.0
  0
LINE
  5
2A7F
330
2F72
100
AcDbEntity
  8
0
 62
     0
100
AcDbLine
 10
149.1999999999898
 20
-188.4135577418856
 30
0.0
 11
181.3183179039261
 21
-167.0014004825334
 31
0.0
  0
LINE
  5
2A80
330
2F72
100
AcDbEntity
  8
0
 62
     0
100
AcDbLine
 10
-365.0000000000109
 20
-531.2126823936977
 30
0.0
 11
149.1999999999898
 21
-188.4135577418856
 31
0.0
  0
LINE
  5
2A81
330
2F72
100
AcDbEntity
  8
0
 62
     0
100
AcDbLine
 10
149.1999999999898
 20
-185.4135912064666
 30
0.0
 11
176.8183566100451
 21
-167.0014004825316
 31
0.0
  0
LINE
  5
2A82
330
2F72
100
AcDbEntity
  8
0
 62
     0
100
AcDbLine
 10
-365.0000000000073
 20
-528.2127158582807
 30
0.0
 11
149.1999999999898
 21
-185.4135912064666
 31
0.0
  0
LINE
  5
2A83
330
2F72
100
AcDbEntity
  8
0
 62
     0
100
AcDbLine
 10
149.1999999999898
 20
-182.4136246710532
 30
0.0
 11
172.3183953161606
 21
-167.0014004825316
 31
0.0
  0
LINE
  5
2A84
330
2F72
100
AcDbEntity
  8
0
 62
     0
100
AcDbLine
 10
-365.0000000000073
 20
-525.2127493228672
 30
0.0
 11
149.1999999999898
 21
-182.4136246710532
 31
0.0
  0
LINE
  5
2A85
330
2F72
100
AcDbEntity
  8
0
 62
     0
100
AcDbLine
 10
149.1999999999898
 20
-179.4136581356361
 30
0.0
 11
167.8184340222687
 21
-167.0014004825334
 31
0.0
  0
LINE
  5
2A86
330
2F72
100
AcDbEntity
  8
0
 62
     0
100
AcDbLine
 10
-365.0000000000109
 20
-522.21278278745
 30
0.0
 11
149.1999999999898
 21
-179.4136581356361
 31
0.0
  0
LINE
  5
2A87
330
2F72
100
AcDbEntity
  8
0
 62
     0
100
AcDbLine
 10
149.1999999999934
 20
-176.4136916002189
 30
0.0
 11
163.3184727283878
 21
-167.0014004825316
 31
0.0
  0
LINE
  5
2A88
330
2F72
100
AcDbEntity
  8
0
 62
     0
100
AcDbLine
 10
-365.0000000000109
 20
-519.2128162520348
 30
0.0
 11
149.1999999999934
 21
-176.4136916002189
 31
0.0
  0
LINE
  5
2A89
330
2F72
100
AcDbEntity
  8
0
 62
     0
100
AcDbLine
 10
149.1999999999898
 20
-173.4137250648034
 30
0.0
 11
158.8185114345033
 21
-167.0014004825316
 31
0.0
  0
LINE
  5
2A8A
330
2F72
100
AcDbEntity
  8
0
 62
     0
100
AcDbLine
 10
-365.0000000000073
 20
-516.2128497166158
 30
0.0
 11
149.1999999999898
 21
-173.4137250648034
 31
0.0
  0
LINE
  5
2A8B
330
2F72
100
AcDbEntity
  8
0
 62
     0
100
AcDbLine
 10
149.1999999999898
 20
-170.4137585293865
 30
0.0
 11
154.3185501406187
 21
-167.0014004825316
 31
0.0
  0
LINE
  5
2A8C
330
2F72
100
AcDbEntity
  8
0
 62
     0
100
AcDbLine
 10
-365.0000000000109
 20
-513.2128831812024
 30
0.0
 11
149.1999999999898
 21
-170.4137585293865
 31
0.0
  0
LINE
  5
2A8D
330
2F72
100
AcDbEntity
  8
0
 62
     0
100
AcDbLine
 10
149.1999999999898
 20
-167.413791993973
 30
0.0
 11
149.8185888467269
 21
-167.0014004825352
 31
0.0
  0
LINE
  5
2A8E
330
2F72
100
AcDbEntity
  8
0
 62
     0
100
AcDbLine
 10
-365.0000000000109
 20
-510.2129166457853
 30
0.0
 11
149.1999999999898
 21
-167.413791993973
 31
0.0
  0
LINE
  5
2A8F
330
2F72
100
AcDbEntity
  8
0
 62
     0
100
AcDbLine
 10
-365.0000000000109
 20
-507.21295011037
 30
0.0
 11
145.318628066816
 21
-167.0014001398867
 31
0.0
  0
LINE
  5
2A90
330
2F72
100
AcDbEntity
  8
0
 62
     0
100
AcDbLine
 10
-365.0000000000073
 20
-504.2129835749528
 30
0.0
 11
140.8186667834598
 21
-167.0014001328673
 31
0.0
  0
LINE
  5
2A91
330
2F72
100
AcDbEntity
  8
0
 62
     0
100
AcDbLine
 10
-365.0000000000073
 20
-501.2130170395358
 30
0.0
 11
136.3187055000999
 21
-167.0014001258478
 31
0.0
  0
LINE
  5
2A92
330
2F72
100
AcDbEntity
  8
0
 62
     0
100
AcDbLine
 10
-365.0000000000109
 20
-498.2130505041205
 30
0.0
 11
131.8187442167436
 21
-167.0014001188301
 31
0.0
  0
LINE
  5
2A93
330
2F72
100
AcDbEntity
  8
0
 62
     0
100
AcDbLine
 10
-365.0000000000073
 20
-495.2130839687034
 30
0.0
 11
127.3187829333874
 21
-167.0014001118125
 31
0.0
  0
LINE
  5
2A94
330
2F72
100
AcDbEntity
  8
0
 62
     0
100
AcDbLine
 10
-365.0000000000109
 20
-492.2131174332879
 30
0.0
 11
122.8188216500275
 21
-167.0014001047912
 31
0.0
  0
LINE
  5
2A95
330
2F72
100
AcDbEntity
  8
0
 62
     0
100
AcDbLine
 10
-365.0000000000073
 20
-489.2131508978708
 30
0.0
 11
118.3188603666713
 21
-167.0014000977735
 31
0.0
  0
LINE
  5
2A96
330
2F72
100
AcDbEntity
  8
0
 62
     0
100
AcDbLine
 10
-365.0000000000109
 20
-486.2131843624552
 30
0.0
 11
113.8188990833114
 21
-167.0014000907558
 31
0.0
  0
LINE
  5
2A97
330
2F72
100
AcDbEntity
  8
0
 62
     0
100
AcDbLine
 10
-365.0000000000073
 20
-483.2132178270403
 30
0.0
 11
109.3189377999588
 21
-167.0014000837364
 31
0.0
  0
LINE
  5
2A98
330
2F72
100
AcDbEntity
  8
0
 62
     0
100
AcDbLine
 10
-365.0000000000109
 20
-480.2132512916231
 30
0.0
 11
104.8189765165988
 21
-167.0014000767187
 31
0.0
  0
LINE
  5
2A99
330
2F72
100
AcDbEntity
  8
0
 62
     0
100
AcDbLine
 10
-365.0000000000109
 20
-477.2132847562058
 30
0.0
 11
100.3190152332427
 21
-167.0014000696974
 31
0.0
  0
LINE
  5
2A9A
330
2F72
100
AcDbEntity
  8
0
 62
     0
100
AcDbLine
 10
-365.0000000000109
 20
-474.2133182207925
 30
0.0
 11
95.81905394988643
 21
-167.0014000626797
 31
0.0
  0
LINE
  5
2A9B
330
2F72
100
AcDbEntity
  8
0
 62
     0
100
AcDbLine
 10
-365.0000000000109
 20
-471.2133516853755
 30
0.0
 11
91.31909266652291
 21
-167.0014000556639
 31
0.0
  0
LINE
  5
2A9C
330
2F72
100
AcDbEntity
  8
0
 62
     0
100
AcDbLine
 10
-365.0000000000073
 20
-468.2133851499584
 30
0.0
 11
86.8191313831703
 21
-167.0014000486426
 31
0.0
  0
LINE
  5
2A9D
330
2F72
100
AcDbEntity
  8
0
 62
     0
100
AcDbLine
 10
-365.0000000000109
 20
-465.2134186145413
 30
0.0
 11
82.31917009981406
 21
-167.0014000416231
 31
0.0
  0
LINE
  5
2A9E
330
2F72
100
AcDbEntity
  8
0
 62
     0
100
AcDbLine
 10
-365.0000000000109
 20
-462.2134520791258
 30
0.0
 11
77.81920881645056
 21
-167.0014000346054
 31
0.0
  0
LINE
  5
2A9F
330
2F72
100
AcDbEntity
  8
0
 62
     0
100
AcDbLine
 10
-365.0000000000109
 20
-459.2134855437107
 30
0.0
 11
73.31924753309795
 21
-167.001400027586
 31
0.0
  0
LINE
  5
2AA0
330
2F72
100
AcDbEntity
  8
0
 62
     0
100
AcDbLine
 10
-365.0000000000073
 20
-456.2135190082935
 30
0.0
 11
68.81928624973807
 21
-167.0014000205683
 31
0.0
  0
LINE
  5
2AA1
330
2F72
100
AcDbEntity
  8
0
 62
     0
100
AcDbLine
 10
-365.0000000000109
 20
-453.2135524728783
 30
0.0
 11
64.31932496638181
 21
-167.0014000135488
 31
0.0
  0
LINE
  5
2AA2
330
2F72
100
AcDbEntity
  8
0
 62
     0
100
AcDbLine
 10
-365.0000000000109
 20
-450.2135859374593
 30
0.0
 11
59.81936368302559
 21
-167.0014000065293
 31
0.0
  0
LINE
  5
2AA3
330
2F72
100
AcDbEntity
  8
0
 62
     0
100
AcDbLine
 10
-365.0000000000073
 20
-447.213619402044
 30
0.0
 11
55.31940239966569
 21
-167.0013999995117
 31
0.0
  0
LINE
  5
2AA4
330
2F72
100
AcDbEntity
  8
0
 62
     0
100
AcDbLine
 10
-365.0000000000073
 20
-444.2136528666305
 30
0.0
 11
50.81944111630946
 21
-167.001399992494
 31
0.0
  0
LINE
  5
2AA5
330
2F72
100
AcDbEntity
  8
0
 62
     0
100
AcDbLine
 10
-365.0000000000073
 20
-441.2136863312116
 30
0.0
 11
46.31947983295321
 21
-167.0013999854745
 31
0.0
  0
LINE
  5
2AA6
330
2F72
100
AcDbEntity
  8
0
 62
     0
100
AcDbLine
 10
-365.0000000000109
 20
-438.2137197957963
 30
0.0
 11
41.81951854959698
 21
-167.0013999784532
 31
0.0
  0
LINE
  5
2AA7
330
2F72
100
AcDbEntity
  8
0
 62
     0
100
AcDbLine
 10
-365.0000000000073
 20
-435.2137532603792
 30
0.0
 11
37.31955726623709
 21
-167.0013999714374
 31
0.0
  0
LINE
  5
2AA8
330
2F72
100
AcDbEntity
  8
0
 62
     0
100
AcDbLine
 10
-365.0000000000073
 20
-432.2137867249655
 30
0.0
 11
32.81959598288086
 21
-167.0013999644179
 31
0.0
  0
LINE
  5
2AA9
330
2F72
100
AcDbEntity
  8
0
 62
     0
100
AcDbLine
 10
-365.0000000000109
 20
-429.2138201895483
 30
0.0
 11
28.31963469952098
 21
-167.0013999574003
 31
0.0
  0
LINE
  5
2AAA
330
2F72
100
AcDbEntity
  8
0
 62
     0
100
AcDbLine
 10
-365.0000000000073
 20
-426.2138536541296
 30
0.0
 11
23.81967341616473
 21
-167.001399950379
 31
0.0
  0
LINE
  5
2AAB
330
2F72
100
AcDbEntity
  8
0
 62
     0
100
AcDbLine
 10
-365.0000000000073
 20
-423.2138871187162
 30
0.0
 11
19.31971213280849
 21
-167.0013999433613
 31
0.0
  0
LINE
  5
2AAC
330
2F72
100
AcDbEntity
  8
0
 62
     0
100
AcDbLine
 10
-365.0000000000109
 20
-420.2139205833009
 30
0.0
 11
14.81975084945225
 21
-167.0013999363436
 31
0.0
  0
LINE
  5
2AAD
330
2F72
100
AcDbEntity
  8
0
 62
     0
100
AcDbLine
 10
-365.0000000000109
 20
-417.2139540478838
 30
0.0
 11
10.31978956609236
 21
-167.0013999293242
 31
0.0
  0
LINE
  5
2AAE
330
2F72
100
AcDbEntity
  8
0
 62
     0
100
AcDbLine
 10
-365.0000000000073
 20
-414.2139875124648
 30
0.0
 11
5.819828282736122
 21
-167.0013999223047
 31
0.0
  0
LINE
  5
2AAF
330
2F72
100
AcDbEntity
  8
0
 62
     0
100
AcDbLine
 10
-365.0000000000109
 20
-411.2140209770496
 30
0.0
 11
1.319866999376245
 21
-167.001399915287
 31
0.0
  0
LINE
  5
2AB0
330
2F72
100
AcDbEntity
  8
0
 62
     0
100
AcDbLine
 10
-365.0000000000109
 20
-408.2140544416342
 30
0.0
 11
-3.180094283979995
 21
-167.0013999082675
 31
0.0
  0
LINE
  5
2AB1
330
2F72
100
AcDbEntity
  8
0
 62
     0
100
AcDbLine
 10
-365.0000000000109
 20
-405.2140879062188
 30
0.0
 11
-7.680055567336236
 21
-167.0013999012499
 31
0.0
  0
LINE
  5
2AB2
330
2F72
100
AcDbEntity
  8
0
 62
     0
100
AcDbLine
 10
-365.0000000000073
 20
-402.2141213708017
 30
0.0
 11
-12.18001685069248
 21
-167.0013998942286
 31
0.0
  0
LINE
  5
2AB3
330
2F72
100
AcDbEntity
  8
0
 62
     0
100
AcDbLine
 10
-365.0000000000109
 20
-399.2141548353866
 30
0.0
 11
-16.67997813405236
 21
-167.0013998872109
 31
0.0
  0
LINE
  5
2AB4
330
2F72
100
AcDbEntity
  8
0
 62
     0
100
AcDbLine
 10
-365.0000000000109
 20
-396.2141882999695
 30
0.0
 11
-21.17993941740861
 21
-167.0013998801932
 31
0.0
  0
LINE
  5
2AB5
330
2F72
100
AcDbEntity
  8
0
 62
     0
100
AcDbLine
 10
-365.0000000000109
 20
-393.214221764556
 30
0.0
 11
-25.67990070076485
 21
-167.0013998731738
 31
0.0
  0
LINE
  5
2AB6
330
2F72
100
AcDbEntity
  8
0
 62
     0
100
AcDbLine
 10
-365.0000000000073
 20
-390.2142552291369
 30
0.0
 11
-30.17986198411745
 21
-167.0013998661543
 31
0.0
  0
LINE
  5
2AB7
330
2F72
100
AcDbEntity
  8
0
 62
     0
100
AcDbLine
 10
-365.0000000000109
 20
-387.2142886937218
 30
0.0
 11
-34.67982326748097
 21
-167.0013998591366
 31
0.0
  0
LINE
  5
2AB8
330
2F72
100
AcDbEntity
  8
0
 62
     0
100
AcDbLine
 10
-365.0000000000109
 20
-384.2143221583065
 30
0.0
 11
-39.17978455083721
 21
-167.0013998521171
 31
0.0
  0
LINE
  5
2AB9
330
2F72
100
AcDbEntity
  8
0
 62
     0
100
AcDbLine
 10
-365.0000000000073
 20
-381.2143556228893
 30
0.0
 11
-43.67974583419345
 21
-167.0013998451013
 31
0.0
  0
LINE
  5
2ABA
330
2F72
100
AcDbEntity
  8
0
 62
     0
100
AcDbLine
 10
-365.0000000000109
 20
-378.2143890874742
 30
0.0
 11
-48.17970711755697
 21
-167.0013998380818
 31
0.0
  0
LINE
  5
2ABB
330
2F72
100
AcDbEntity
  8
0
 62
     0
100
AcDbLine
 10
-365.0000000000073
 20
-375.2144225520551
 30
0.0
 11
-52.67966840090958
 21
-167.0013998310605
 31
0.0
  0
LINE
  5
2ABC
330
2F72
100
AcDbEntity
  8
0
 62
     0
100
AcDbLine
 10
-365.0000000000109
 20
-372.2144560166398
 30
0.0
 11
-57.17962968426583
 21
-167.0013998240392
 31
0.0
  0
LINE
  5
2ABD
330
2F72
100
AcDbEntity
  8
0
 62
     0
100
AcDbLine
 10
-365.0000000000109
 20
-369.2144894812227
 30
0.0
 11
-61.67959096762935
 21
-167.0013998170252
 31
0.0
  0
LINE
  5
2ABE
330
2F72
100
AcDbEntity
  8
0
 62
     0
100
AcDbLine
 10
-365.0000000000109
 20
-366.2145229458092
 30
0.0
 11
-66.17955225098194
 21
-167.0013998100057
 31
0.0
  0
LINE
  5
2ABF
330
2F72
100
AcDbEntity
  8
0
 62
     0
100
AcDbLine
 10
-365.0000000000073
 20
-363.214556410392
 30
0.0
 11
-70.67951353434181
 21
-167.0013998029862
 31
0.0
  0
LINE
  5
2AC0
330
2F72
100
AcDbEntity
  8
0
 62
     0
100
AcDbLine
 10
-365.0000000000109
 20
-360.2145898749733
 30
0.0
 11
-75.1794748177017
 21
-167.0013997959685
 31
0.0
  0
LINE
  5
2AC1
330
2F72
100
AcDbEntity
  8
0
 62
     0
100
AcDbLine
 10
-365.0000000000109
 20
-357.2146233395597
 30
0.0
 11
-79.67943610105429
 21
-167.0013997889491
 31
0.0
  0
LINE
  5
2AC2
330
2F72
100
AcDbEntity
  8
0
 62
     0
100
AcDbLine
 10
-365.0000000000073
 20
-354.2146568041425
 30
0.0
 11
-84.17939738441054
 21
-167.0013997819296
 31
0.0
  0
LINE
  5
2AC3
330
2F72
100
AcDbEntity
  8
0
 62
     0
100
AcDbLine
 10
-365.0000000000109
 20
-351.2146902687273
 30
0.0
 11
-88.67935866777044
 21
-167.0013997749138
 31
0.0
  0
LINE
  5
2AC4
330
2F72
100
AcDbEntity
  8
0
 62
     0
100
AcDbLine
 10
-365.0000000000109
 20
-348.2147237333102
 30
0.0
 11
-93.17931995113031
 21
-167.0013997678925
 31
0.0
  0
LINE
  5
2AC5
330
2F72
100
AcDbEntity
  8
0
 62
     0
100
AcDbLine
 10
-365.0000000000109
 20
-345.214757197895
 30
0.0
 11
-97.67928123448657
 21
-167.0013997608748
 31
0.0
  0
LINE
  5
2AC6
330
2F72
100
AcDbEntity
  8
0
 62
     0
100
AcDbLine
 10
-365.0000000000073
 20
-342.2147906624796
 30
0.0
 11
-102.1792425178391
 21
-167.0013997538572
 31
0.0
  0
LINE
  5
2AC7
330
2F72
100
AcDbEntity
  8
0
 62
     0
100
AcDbLine
 10
-365.0000000000073
 20
-339.2148241270605
 30
0.0
 11
-106.679203801199
 21
-167.0013997468377
 31
0.0
  0
LINE
  5
2AC8
330
2F72
100
AcDbEntity
  8
0
 62
     0
100
AcDbLine
 10
-365.0000000000109
 20
-336.2148575916452
 30
0.0
 11
-111.1791650845552
 21
-167.0013997398164
 31
0.0
  0
LINE
  5
2AC9
330
2F72
100
AcDbEntity
  8
0
 62
     0
100
AcDbLine
 10
-365.0000000000109
 20
-333.21489105623
 30
0.0
 11
-115.6791263679151
 21
-167.0013997328005
 31
0.0
  0
LINE
  5
2ACA
330
2F72
100
AcDbEntity
  8
0
 62
     0
100
AcDbLine
 10
-365.0000000000073
 20
-330.2149245208129
 30
0.0
 11
-120.1790876512714
 21
-167.0013997257811
 31
0.0
  0
LINE
  5
2ACB
330
2F72
100
AcDbEntity
  8
0
 62
     0
100
AcDbLine
 10
-365.0000000000109
 20
-327.2149579853977
 30
0.0
 11
-124.6790489346313
 21
-167.0013997187634
 31
0.0
  0
LINE
  5
2ACC
330
2F72
100
AcDbEntity
  8
0
 62
     0
100
AcDbLine
 10
-365.0000000000109
 20
-324.2149914499805
 30
0.0
 11
-129.1790102179875
 21
-167.0013997117421
 31
0.0
  0
LINE
  5
2ACD
330
2F72
100
AcDbEntity
  8
0
 62
     0
100
AcDbLine
 10
-365.0000000000073
 20
-321.2150249145632
 30
0.0
 11
-133.6789715013438
 21
-167.0013997047244
 31
0.0
  0
LINE
  5
2ACE
330
2F72
100
AcDbEntity
  8
0
 62
     0
100
AcDbLine
 10
-365.0000000000109
 20
-318.2150583791499
 30
0.0
 11
-138.1789327847036
 21
-167.001399697705
 31
0.0
  0
LINE
  5
2ACF
330
2F72
100
AcDbEntity
  8
0
 62
     0
100
AcDbLine
 10
-365.0000000000109
 20
-315.2150918437328
 30
0.0
 11
-142.6788940680635
 21
-167.0013996906891
 31
0.0
  0
LINE
  5
2AD0
330
2F72
100
AcDbEntity
  8
0
 62
     0
100
AcDbLine
 10
-365.0000000000109
 20
-312.2151253083175
 30
0.0
 11
-147.1788553514161
 21
-167.0013996836696
 31
0.0
  0
LINE
  5
2AD1
330
2F72
100
AcDbEntity
  8
0
 62
     0
100
AcDbLine
 10
-365.0000000000073
 20
-309.2151587728986
 30
0.0
 11
-151.678816634776
 21
-167.0013996766502
 31
0.0
  0
LINE
  5
2AD2
330
2F72
100
AcDbEntity
  8
0
 62
     0
100
AcDbLine
 10
-365.0000000000109
 20
-306.2151922374833
 30
0.0
 11
-156.1787779181322
 21
-167.0013996696306
 31
0.0
  0
LINE
  5
2AD3
330
2F72
100
AcDbEntity
  8
0
 62
     0
100
AcDbLine
 10
-365.0000000000109
 20
-303.2152257020698
 30
0.0
 11
-160.6787392014885
 21
-167.0013996626148
 31
0.0
  0
LINE
  5
2AD4
330
2F72
100
AcDbEntity
  8
0
 62
     0
100
AcDbLine
 10
-365.0000000000073
 20
-300.2152591666509
 30
0.0
 11
-165.1787004848447
 21
-167.0013996555935
 31
0.0
  0
LINE
  5
2AD5
330
2F72
100
AcDbEntity
  8
0
 62
     0
100
AcDbLine
 10
-365.0000000000109
 20
-297.2152926312356
 30
0.0
 11
-169.6786617682082
 21
-167.0013996485759
 31
0.0
  0
LINE
  5
2AD6
330
2F72
100
AcDbEntity
  8
0
 62
     0
100
AcDbLine
 10
-365.0000000000109
 20
-294.2153260958166
 30
0.0
 11
-174.1786230515645
 21
-167.0013996415546
 31
0.0
  0
LINE
  5
2AD7
330
2F72
100
AcDbEntity
  8
0
 62
     0
100
AcDbLine
 10
-365.0000000000109
 20
-291.2153595604031
 30
0.0
 11
-178.6785843349171
 21
-167.0013996345369
 31
0.0
  0
LINE
  5
2AD8
330
2F72
100
AcDbEntity
  8
0
 62
     0
100
AcDbLine
 10
-365.0000000000073
 20
-288.2153930249879
 30
0.0
 11
-183.1785456182733
 21
-167.0013996275192
 31
0.0
  0
LINE
  5
2AD9
330
2F72
100
AcDbEntity
  8
0
 62
     0
100
AcDbLine
 10
-365.0000000000073
 20
-285.2154264895689
 30
0.0
 11
-187.6785069016369
 21
-167.0013996204998
 31
0.0
  0
LINE
  5
2ADA
330
2F72
100
AcDbEntity
  8
0
 62
     0
100
AcDbLine
 10
-365.0000000000109
 20
-282.2154599541536
 30
0.0
 11
-192.1784681849894
 21
-167.0013996134803
 31
0.0
  0
LINE
  5
2ADB
330
2F72
100
AcDbEntity
  8
0
 62
     0
100
AcDbLine
 10
-365.0000000000073
 20
-279.2154934187365
 30
0.0
 11
-196.6784294683492
 21
-167.0013996064644
 31
0.0
  0
LINE
  5
2ADC
330
2F72
100
AcDbEntity
  8
0
 62
     0
100
AcDbLine
 10
-365.0000000000109
 20
-276.215526883323
 30
0.0
 11
-201.1783907517092
 21
-167.001399599445
 31
0.0
  0
LINE
  5
2ADD
330
2F72
100
AcDbEntity
  8
0
 62
     0
100
AcDbLine
 10
-365.0000000000073
 20
-273.2155603479041
 30
0.0
 11
-205.6783520350618
 21
-167.0013995924255
 31
0.0
  0
LINE
  5
2ADE
330
2F72
100
AcDbEntity
  8
0
 62
     0
100
AcDbLine
 10
-365.0000000000109
 20
-270.2155938124888
 30
0.0
 11
-210.1783133184217
 21
-167.001399585406
 31
0.0
  0
LINE
  5
2ADF
330
2F72
100
AcDbEntity
  8
0
 62
     0
100
AcDbLine
 10
-365.0000000000109
 20
-267.2156272770735
 30
0.0
 11
-214.6782746017816
 21
-167.0013995783883
 31
0.0
  0
LINE
  5
2AE0
330
2F72
100
AcDbEntity
  8
0
 62
     0
100
AcDbLine
 10
-365.0000000000109
 20
-264.2156607416581
 30
0.0
 11
-219.1782358851342
 21
-167.0013995713688
 31
0.0
  0
LINE
  5
2AE1
330
2F72
100
AcDbEntity
  8
0
 62
     0
100
AcDbLine
 10
-365.0000000000073
 20
-261.2156942062411
 30
0.0
 11
-223.6781971684977
 21
-167.001399564353
 31
0.0
  0
LINE
  5
2AE2
330
2F72
100
AcDbEntity
  8
0
 62
     0
100
AcDbLine
 10
-365.0000000000109
 20
-258.2157276708258
 30
0.0
 11
-228.1781584518467
 21
-167.0013995573299
 31
0.0
  0
LINE
  5
2AE3
330
2F72
100
AcDbEntity
  8
0
 62
     0
100
AcDbLine
 10
-365.0000000000109
 20
-255.2157611354068
 30
0.0
 11
-232.6781197352102
 21
-167.0013995503104
 31
0.0
  0
LINE
  5
2AE4
330
2F72
100
AcDbEntity
  8
0
 62
     0
100
AcDbLine
 10
-365.0000000000073
 20
-252.2157945999916
 30
0.0
 11
-237.1780810185628
 21
-167.0013995432928
 31
0.0
  0
LINE
  5
2AE5
330
2F72
100
AcDbEntity
  8
0
 62
     0
100
AcDbLine
 10
-365.0000000000073
 20
-249.2158280645763
 30
0.0
 11
-241.6780423019227
 21
-167.0013995362768
 31
0.0
  0
LINE
  5
2AE6
330
2F72
100
AcDbEntity
  8
0
 62
     0
100
AcDbLine
 10
-365.0000000000109
 20
-246.2158615291591
 30
0.0
 11
-246.1780035852826
 21
-167.0013995292556
 31
0.0
  0
LINE
  5
2AE7
330
2F72
100
AcDbEntity
  8
0
 62
     0
100
AcDbLine
 10
-365.0000000000109
 20
-243.215894993742
 30
0.0
 11
-250.6779648686388
 21
-167.001399522238
 31
0.0
  0
LINE
  5
2AE8
330
2F72
100
AcDbEntity
  8
0
 62
     0
100
AcDbLine
 10
-365.0000000000073
 20
-240.2159284583267
 30
0.0
 11
-255.177926151995
 21
-167.0013995152185
 31
0.0
  0
LINE
  5
2AE9
330
2F72
100
AcDbEntity
  8
0
 62
     0
100
AcDbLine
 10
-365.0000000000109
 20
-237.2159619229133
 30
0.0
 11
-259.6778874353513
 21
-167.0013995082008
 31
0.0
  0
LINE
  5
2AEA
330
2F72
100
AcDbEntity
  8
0
 62
     0
100
AcDbLine
 10
-365.0000000000109
 20
-234.2159953874944
 30
0.0
 11
-264.1778487187075
 21
-167.0013995011794
 31
0.0
  0
LINE
  5
2AEB
330
2F72
100
AcDbEntity
  8
0
 62
     0
100
AcDbLine
 10
-365.0000000000073
 20
-231.2160288520772
 30
0.0
 11
-268.6778100020711
 21
-167.0013994941637
 31
0.0
  0
LINE
  5
2AEC
330
2F72
100
AcDbEntity
  8
0
 62
     0
100
AcDbLine
 10
-365.0000000000073
 20
-228.2160623166618
 30
0.0
 11
-273.1777712854237
 21
-167.0013994871442
 31
0.0
  0
LINE
  5
2AED
330
2F72
100
AcDbEntity
  8
0
 62
     0
100
AcDbLine
 10
-365.0000000000109
 20
-225.2160957812466
 30
0.0
 11
-277.6777325687835
 21
-167.0013994801284
 31
0.0
  0
LINE
  5
2AEE
330
2F72
100
AcDbEntity
  8
0
 62
     0
100
AcDbLine
 10
-365.0000000000109
 20
-222.2161292458313
 30
0.0
 11
-282.1776938521397
 21
-167.001399473107
 31
0.0
  0
LINE
  5
2AEF
330
2F72
100
AcDbEntity
  8
0
 62
     0
100
AcDbLine
 10
-365.0000000000073
 20
-219.2161627104124
 30
0.0
 11
-286.677655135496
 21
-167.0013994660876
 31
0.0
  0
LINE
  5
2AF0
330
2F72
100
AcDbEntity
  8
0
 62
     0
100
AcDbLine
 10
-365.0000000000109
 20
-216.2161961749971
 30
0.0
 11
-291.177616418856
 21
-167.0013994590663
 31
0.0
  0
LINE
  5
2AF1
330
2F72
100
AcDbEntity
  8
0
 62
     0
100
AcDbLine
 10
-365.0000000000109
 20
-213.21622963958
 30
0.0
 11
-295.6775777022158
 21
-167.0013994520522
 31
0.0
  0
LINE
  5
2AF2
330
2F72
100
AcDbEntity
  8
0
 62
     0
100
AcDbLine
 10
-365.0000000000109
 20
-210.2162631041665
 30
0.0
 11
-300.1775389855684
 21
-167.0013994450328
 31
0.0
  0
LINE
  5
2AF3
330
2F72
100
AcDbEntity
  8
0
 62
     0
100
AcDbLine
 10
-365.0000000000073
 20
-207.2162965687494
 30
0.0
 11
-304.6775002689284
 21
-167.0013994380133
 31
0.0
  0
LINE
  5
2AF4
330
2F72
100
AcDbEntity
  8
0
 62
     0
100
AcDbLine
 10
-365.0000000000109
 20
-204.2163300333323
 30
0.0
 11
-309.1774615522845
 21
-167.0013994309938
 31
0.0
  0
LINE
  5
2AF5
330
2F72
100
AcDbEntity
  8
0
 62
     0
100
AcDbLine
 10
-365.0000000000109
 20
-201.216363497917
 30
0.0
 11
-313.6774228356444
 21
-167.0013994239762
 31
0.0
  0
LINE
  5
2AF6
330
2F72
100
AcDbEntity
  8
0
 62
     0
100
AcDbLine
 10
-365.0000000000073
 20
-198.2163969624998
 30
0.0
 11
-318.177384118997
 21
-167.0013994169567
 31
0.0
  0
LINE
  5
2AF7
330
2F72
100
AcDbEntity
  8
0
 62
     0
100
AcDbLine
 10
-365.0000000000073
 20
-195.2164304270845
 30
0.0
 11
-322.6773454023569
 21
-167.0013994099408
 31
0.0
  0
LINE
  5
2AF8
330
2F72
100
AcDbEntity
  8
0
 62
     0
100
AcDbLine
 10
-365.0000000000109
 20
-192.2164638916673
 30
0.0
 11
-327.1773066857168
 21
-167.0013994029195
 31
0.0
  0
LINE
  5
2AF9
330
2F72
100
AcDbEntity
  8
0
 62
     0
100
AcDbLine
 10
-365.0000000000109
 20
-189.2164973562521
 30
0.0
 11
-331.677267969073
 21
-167.0013993959019
 31
0.0
  0
LINE
  5
2AFA
330
2F72
100
AcDbEntity
  8
0
 62
     0
100
AcDbLine
 10
-365.0000000000073
 20
-186.2165308208368
 30
0.0
 11
-336.1772292524292
 21
-167.0013993888824
 31
0.0
  0
LINE
  5
2AFB
330
2F72
100
AcDbEntity
  8
0
 62
     0
100
AcDbLine
 10
-365.0000000000109
 20
-183.2165642854197
 30
0.0
 11
-340.6771905357891
 21
-167.0013993818646
 31
0.0
  0
LINE
  5
2AFC
330
2F72
100
AcDbEntity
  8
0
 62
     0
100
AcDbLine
 10
-365.0000000000109
 20
-180.2165977500024
 30
0.0
 11
-345.1771518191418
 21
-167.0013993748434
 31
0.0
  0
LINE
  5
2AFD
330
2F72
100
AcDbEntity
  8
0
 62
     0
100
AcDbLine
 10
-365.0000000000073
 20
-177.2166312145837
 30
0.0
 11
-349.6771131025052
 21
-167.0013993678258
 31
0.0
  0
LINE
  5
2AFE
330
2F72
100
AcDbEntity
  8
0
 62
     0
100
AcDbLine
 10
-365.0000000000109
 20
-174.2166646791702
 30
0.0
 11
-354.1770743858615
 21
-167.0013993608081
 31
0.0
  0
LINE
  5
2AFF
330
2F72
100
AcDbEntity
  8
0
 62
     0
100
AcDbLine
 10
-365.0000000000073
 20
-171.2166981437549
 30
0.0
 11
-358.6770356692178
 21
-167.0013993537886
 31
0.0
  0
LINE
  5
2B00
330
2F72
100
AcDbEntity
  8
0
 62
     0
100
AcDbLine
 10
-365.0000000000109
 20
-168.2167316083378
 30
0.0
 11
-363.176996952574
 21
-167.0013993467692
 31
0.0
  0
ENDBLK
  5
2B01
330
2F72
100
AcDbEntity
  8
0
100
AcDbBlockEnd
  0
BLOCK
  5
2F75
330
2F74
100
AcDbEntity
  8
0
100
AcDbBlockBegin
  2
*X77
 70
     1
 10
0.0
 20
0.0
 30
0.0
  3
*X77
  1

  0
LINE
  5
2B04
330
2F74
100
AcDbEntity
  8
0
 62
     0
100
AcDbLine
 10
-365.0000000000036
 20
-782.0378010713739
 30
0.0
 11
-360.5545902556005
 21
-785.001400000001
 31
0.0
  0
LINE
  5
2B05
330
2F74
100
AcDbEntity
  8
0
 62
     0
100
AcDbLine
 10
-365.0000000000036
 20
-779.0378345359595
 30
0.0
 11
-356.0546289617178
 21
-785.001400000001
 31
0.0
  0
LINE
  5
2B06
330
2F74
100
AcDbEntity
  8
0
 62
     0
100
AcDbLine
 10
-365.0000000000036
 20
-776.0378680005414
 30
0.0
 11
-351.5546676678312
 21
-785.0014000000001
 31
0.0
  0
LINE
  5
2B07
330
2F74
100
AcDbEntity
  8
0
 62
     0
100
AcDbLine
 10
-365.0000000000036
 20
-773.037901465127
 30
0.0
 11
-347.0547063739468
 21
-785.0014000000001
 31
0.0
  0
LINE
  5
2B08
330
2F74
100
AcDbEntity
  8
0
 62
     0
100
AcDbLine
 10
-365.0000000000036
 20
-770.0379349297101
 30
0.0
 11
-342.5547450800623
 21
-785.001399999999
 31
0.0
  0
LINE
  5
2B09
330
2F74
100
AcDbEntity
  8
0
 62
     0
100
AcDbLine
 10
-365.0000000000036
 20
-767.0379683942947
 30
0.0
 11
-338.054783786174
 21
-785.001400000001
 31
0.0
  0
LINE
  5
2B0A
330
2F74
100
AcDbEntity
  8
0
 62
     0
100
AcDbLine
 10
-365.0000000000036
 20
-764.0380018588776
 30
0.0
 11
-333.5548224922932
 21
-785.0013999999982
 31
0.0
  0
LINE
  5
2B0B
330
2F74
100
AcDbEntity
  8
0
 62
     0
100
AcDbLine
 10
-365.0000000000036
 20
-761.0380353234611
 30
0.0
 11
-329.0548611984049
 21
-785.0014000000001
 31
0.0
  0
LINE
  5
2B0C
330
2F74
100
AcDbEntity
  8
0
 62
     0
100
AcDbLine
 10
-365.0000000000036
 20
-758.0380687880458
 30
0.0
 11
-324.5548999045205
 21
-785.0014000000001
 31
0.0
  0
LINE
  5
2B0D
330
2F74
100
AcDbEntity
  8
0
 62
     0
100
AcDbLine
 10
-365.0000000000036
 20
-755.0381022526297
 30
0.0
 11
-320.0549386106323
 21
-785.001400000001
 31
0.0
  0
LINE
  5
2B0E
330
2F74
100
AcDbEntity
  8
0
 62
     0
100
AcDbLine
 10
-365.0000000000018
 20
-752.0381357172134
 30
0.0
 11
-315.5549773167495
 21
-785.001399999999
 31
0.0
  0
LINE
  5
2B0F
330
2F74
100
AcDbEntity
  8
0
 62
     0
100
AcDbLine
 10
-365.0000000000036
 20
-749.0381691817972
 30
0.0
 11
-311.0550160228612
 21
-785.001400000003
 31
0.0
  0
LINE
  5
2B10
330
2F74
100
AcDbEntity
  8
0
 62
     0
100
AcDbLine
 10
-365.0000000000036
 20
-746.0382026463803
 30
0.0
 11
-306.5550547289768
 21
-785.0014000000001
 31
0.0
  0
LINE
  5
2B11
330
2F74
100
AcDbEntity
  8
0
 62
     0
100
AcDbLine
 10
-365.0000000000036
 20
-743.0382361109649
 30
0.0
 11
-302.0550934350904
 21
-785.0014000000016
 31
0.0
  0
LINE
  5
2B12
330
2F74
100
AcDbEntity
  8
0
 62
     0
100
AcDbLine
 10
-365.0000000000036
 20
-740.0382695755484
 30
0.0
 11
-297.5551321412076
 21
-785.001399999999
 31
0.0
  0
LINE
  5
2B13
330
2F74
100
AcDbEntity
  8
0
 62
     0
100
AcDbLine
 10
-365.0000000000018
 20
-737.0383030401317
 30
0.0
 11
-293.0551708473195
 21
-785.001399999999
 31
0.0
  0
LINE
  5
2B14
330
2F74
100
AcDbEntity
  8
0
 62
     0
100
AcDbLine
 10
-365.0000000000054
 20
-734.0383365047156
 30
0.0
 11
-288.5552095534348
 21
-785.001400000001
 31
0.0
  0
LINE
  5
2B15
330
2F74
100
AcDbEntity
  8
0
 62
     0
100
AcDbLine
 10
-365.0000000000018
 20
-731.0383699692993
 30
0.0
 11
-284.0552482595504
 21
-785.0013999999982
 31
0.0
  0
LINE
  5
2B16
330
2F74
100
AcDbEntity
  8
0
 62
     0
100
AcDbLine
 10
-365.0000000000054
 20
-728.0384034338831
 30
0.0
 11
-279.5552869656658
 21
-785.0014000000001
 31
0.0
  0
LINE
  5
2B17
330
2F74
100
AcDbEntity
  8
0
 62
     0
100
AcDbLine
 10
-365.0000000000018
 20
-725.0384368984676
 30
0.0
 11
-275.0553256717776
 21
-785.001399999999
 31
0.0
  0
LINE
  5
2B18
330
2F74
100
AcDbEntity
  8
0
 62
     0
100
AcDbLine
 10
-365.0000000000054
 20
-722.0384703630513
 30
0.0
 11
-270.5553643778933
 21
-785.001400000001
 31
0.0
  0
LINE
  5
2B19
330
2F74
100
AcDbEntity
  8
0
 62
     0
100
AcDbLine
 10
-365.0000000000018
 20
-719.0385038276351
 30
0.0
 11
-266.0554030840085
 21
-785.0013999999982
 31
0.0
  0
LINE
  5
2B1A
330
2F74
100
AcDbEntity
  8
0
 62
     0
100
AcDbLine
 10
-365.0000000000036
 20
-716.0385372922192
 30
0.0
 11
-261.5554417901185
 21
-785.0014000000016
 31
0.0
  0
LINE
  5
2B1B
330
2F74
100
AcDbEntity
  8
0
 62
     0
100
AcDbLine
 10
-365.0000000000036
 20
-713.038570756802
 30
0.0
 11
-257.0554804962359
 21
-785.0014000000001
 31
0.0
  0
LINE
  5
2B1C
330
2F74
100
AcDbEntity
  8
0
 62
     0
100
AcDbLine
 10
-365.0000000000036
 20
-710.0386042213877
 30
0.0
 11
-252.5555192023494
 21
-785.001400000001
 31
0.0
  0
LINE
  5
2B1D
330
2F74
100
AcDbEntity
  8
0
 62
     0
100
AcDbLine
 10
-365.0000000000036
 20
-707.0386376859703
 30
0.0
 11
-248.0555579084667
 21
-785.001399999999
 31
0.0
  0
LINE
  5
2B1E
330
2F74
100
AcDbEntity
  8
0
 62
     0
100
AcDbLine
 10
-365.0000000000036
 20
-704.0386711505552
 30
0.0
 11
-243.5555966145765
 21
-785.001400000003
 31
0.0
  0
LINE
  5
2B1F
330
2F74
100
AcDbEntity
  8
0
 62
     0
100
AcDbLine
 10
-365.0000000000036
 20
-701.0387046151371
 30
0.0
 11
-239.0556353206921
 21
-785.0014000000001
 31
0.0
  0
LINE
  5
2B20
330
2F74
100
AcDbEntity
  8
0
 62
     0
100
AcDbLine
 10
-365.0000000000036
 20
-698.038738079721
 30
0.0
 11
-234.5556740268075
 21
-785.0014000000001
 31
0.0
  0
LINE
  5
2B21
330
2F74
100
AcDbEntity
  8
0
 62
     0
100
AcDbLine
 10
-365.0000000000036
 20
-695.0387715443048
 30
0.0
 11
-230.055712732923
 21
-785.001399999999
 31
0.0
  0
LINE
  5
2B22
330
2F74
100
AcDbEntity
  8
0
 62
     0
100
AcDbLine
 10
-365.0000000000036
 20
-692.0388050088896
 30
0.0
 11
-225.5557514390384
 21
-785.001399999999
 31
0.0
  0
LINE
  5
2B23
330
2F74
100
AcDbEntity
  8
0
 62
     0
100
AcDbLine
 10
-365.0000000000036
 20
-689.0388384734732
 30
0.0
 11
-221.0557901451502
 21
-785.001400000001
 31
0.0
  0
LINE
  5
2B24
330
2F74
100
AcDbEntity
  8
0
 62
     0
100
AcDbLine
 10
-365.0000000000036
 20
-686.0388719380559
 30
0.0
 11
-216.5558288512693
 21
-785.0013999999982
 31
0.0
  0
LINE
  5
2B25
330
2F74
100
AcDbEntity
  8
0
 62
     0
100
AcDbLine
 10
-365.0000000000036
 20
-683.0389054026408
 30
0.0
 11
-212.0558675573792
 21
-785.0014000000016
 31
0.0
  0
LINE
  5
2B26
330
2F74
100
AcDbEntity
  8
0
 62
     0
100
AcDbLine
 10
-365.0000000000018
 20
-680.0389388672239
 30
0.0
 11
-207.5559062634948
 21
-785.001399999999
 31
0.0
  0
LINE
  5
2B27
330
2F74
100
AcDbEntity
  8
0
 62
     0
100
AcDbLine
 10
-365.0000000000036
 20
-677.0389723318094
 30
0.0
 11
-203.0559449696102
 21
-785.001400000001
 31
0.0
  0
LINE
  5
2B28
330
2F74
100
AcDbEntity
  8
0
 62
     0
100
AcDbLine
 10
-365.0000000000036
 20
-674.0390057963914
 30
0.0
 11
-198.5559836757256
 21
-785.001399999999
 31
0.0
  0
LINE
  5
2B29
330
2F74
100
AcDbEntity
  8
0
 62
     0
100
AcDbLine
 10
-365.0000000000036
 20
-671.0390392609767
 30
0.0
 11
-194.0560223818375
 21
-785.0014000000016
 31
0.0
  0
LINE
  5
2B2A
330
2F74
100
AcDbEntity
  8
0
 62
     0
100
AcDbLine
 10
-365.0000000000036
 20
-668.039072725559
 30
0.0
 11
-189.5560610879529
 21
-785.0014000000001
 31
0.0
  0
LINE
  5
2B2B
330
2F74
100
AcDbEntity
  8
0
 62
     0
100
AcDbLine
 10
-365.0000000000018
 20
-665.0391061901443
 30
0.0
 11
-185.0560997940664
 21
-785.0014000000016
 31
0.0
  0
LINE
  5
2B2C
330
2F74
100
AcDbEntity
  8
0
 62
     0
100
AcDbLine
 10
-365.0000000000036
 20
-662.0391396547272
 30
0.0
 11
-180.5561385001801
 21
-785.001400000001
 31
0.0
  0
LINE
  5
2B2D
330
2F74
100
AcDbEntity
  8
0
 62
     0
100
AcDbLine
 10
-365.0000000000036
 20
-659.0391731193103
 30
0.0
 11
-176.0561772062956
 21
-785.001399999999
 31
0.0
  0
LINE
  5
2B2E
330
2F74
100
AcDbEntity
  8
0
 62
     0
100
AcDbLine
 10
-365.0000000000036
 20
-656.039206583895
 30
0.0
 11
-171.556215912411
 21
-785.0014000000001
 31
0.0
  0
LINE
  5
2B2F
330
2F74
100
AcDbEntity
  8
0
 62
     0
100
AcDbLine
 10
-365.0000000000036
 20
-653.039240048478
 30
0.0
 11
-167.0562546185247
 21
-785.0014000000001
 31
0.0
  0
LINE
  5
2B30
330
2F74
100
AcDbEntity
  8
0
 62
     0
100
AcDbLine
 10
-365.0000000000018
 20
-650.0392735130625
 30
0.0
 11
-162.5562933246365
 21
-785.0014000000016
 31
0.0
  0
LINE
  5
2B31
330
2F74
100
AcDbEntity
  8
0
 62
     0
100
AcDbLine
 10
-365.0000000000036
 20
-647.0393069776446
 30
0.0
 11
-158.0563320307537
 21
-785.001399999999
 31
0.0
  0
LINE
  5
2B32
330
2F74
100
AcDbEntity
  8
0
 62
     0
100
AcDbLine
 10
-365.0000000000018
 20
-644.0393404422312
 30
0.0
 11
-153.5563707368674
 21
-785.001400000001
 31
0.0
  0
LINE
  5
2B33
330
2F74
100
AcDbEntity
  8
0
 62
     0
100
AcDbLine
 10
-365.0000000000036
 20
-641.0393739068131
 30
0.0
 11
-149.0564094429846
 21
-785.0013999999982
 31
0.0
  0
LINE
  5
2B34
330
2F74
100
AcDbEntity
  8
0
 62
     0
100
AcDbLine
 10
-365.0000000000018
 20
-638.0394073713987
 30
0.0
 11
-144.5564481490946
 21
-785.0014000000016
 31
0.0
  0
LINE
  5
2B35
330
2F74
100
AcDbEntity
  8
0
 62
     0
100
AcDbLine
 10
-365.0000000000036
 20
-635.0394408359806
 30
0.0
 11
-140.0564868552137
 21
-785.001399999999
 31
0.0
  0
LINE
  5
2B36
330
2F74
100
AcDbEntity
  8
0
 62
     0
100
AcDbLine
 10
-365.0000000000018
 20
-632.0394743005672
 30
0.0
 11
-135.5565255613255
 21
-785.001400000001
 31
0.0
  0
LINE
  5
2B37
330
2F74
100
AcDbEntity
  8
0
 62
     0
100
AcDbLine
 10
-365.0000000000018
 20
-629.0395077651492
 30
0.0
 11
-131.0565642674391
 21
-785.001400000001
 31
0.0
  0
LINE
  5
2B38
330
2F74
100
AcDbEntity
  8
0
 62
     0
100
AcDbLine
 10
-365.0000000000036
 20
-626.0395412297339
 30
0.0
 11
-126.5566029735528
 21
-785.0014000000016
 31
0.0
  0
LINE
  5
2B39
330
2F74
100
AcDbEntity
  8
0
 62
     0
100
AcDbLine
 10
-365.0000000000018
 20
-623.0395746943168
 30
0.0
 11
-122.05664167967
 21
-785.0014000000001
 31
0.0
  0
LINE
  5
2B3A
330
2F74
100
AcDbEntity
  8
0
 62
     0
100
AcDbLine
 10
-365.0000000000036
 20
-620.0396081588995
 30
0.0
 11
-117.5566803857837
 21
-785.0014000000001
 31
0.0
  0
LINE
  5
2B3B
330
2F74
100
AcDbEntity
  8
0
 62
     0
100
AcDbLine
 10
-365.0000000000018
 20
-617.0396416234853
 30
0.0
 11
-113.0567190918973
 21
-785.001400000001
 31
0.0
  0
LINE
  5
2B3C
330
2F74
100
AcDbEntity
  8
0
 62
     0
100
AcDbLine
 10
-365.0000000000036
 20
-614.0396750880673
 30
0.0
 11
-108.5567577980127
 21
-785.001399999999
 31
0.0
  0
LINE
  5
2B3D
330
2F74
100
AcDbEntity
  8
0
 62
     0
100
AcDbLine
 10
-365.0000000000018
 20
-611.0397085526527
 30
0.0
 11
-104.0567965041282
 21
-785.0014000000001
 31
0.0
  0
LINE
  5
2B3E
330
2F74
100
AcDbEntity
  8
0
 62
     0
100
AcDbLine
 10
-365.0000000000036
 20
-608.0397420172347
 30
0.0
 11
-99.55683521024369
 21
-785.0013999999982
 31
0.0
  0
LINE
  5
2B3F
330
2F74
100
AcDbEntity
  8
0
 62
     0
100
AcDbLine
 10
-365.0000000000018
 20
-605.0397754818203
 30
0.0
 11
-95.05687391635547
 21
-785.0014000000016
 31
0.0
  0
LINE
  5
2B40
330
2F74
100
AcDbEntity
  8
0
 62
     0
100
AcDbLine
 10
-365.0000000000036
 20
-602.0398089464025
 30
0.0
 11
-90.55691262247092
 21
-785.001399999999
 31
0.0
  0
LINE
  5
2B41
330
2F74
100
AcDbEntity
  8
0
 62
     0
100
AcDbLine
 10
-365.0000000000036
 20
-599.039842410988
 30
0.0
 11
-86.05695132858636
 21
-785.001400000001
 31
0.0
  0
LINE
  5
2B42
330
2F74
100
AcDbEntity
  8
0
 62
     0
100
AcDbLine
 10
-365.0000000000036
 20
-596.0398758755709
 30
0.0
 11
-81.55699003469818
 21
-785.0014000000001
 31
0.0
  0
LINE
  5
2B43
330
2F74
100
AcDbEntity
  8
0
 62
     0
100
AcDbLine
 10
-365.0000000000018
 20
-593.0399093401556
 30
0.0
 11
-77.05702874081182
 21
-785.0014000000016
 31
0.0
  0
LINE
  5
2B44
330
2F74
100
AcDbEntity
  8
0
 62
     0
100
AcDbLine
 10
-365.0000000000036
 20
-590.0399428047384
 30
0.0
 11
-72.55706744692907
 21
-785.0014000000001
 31
0.0
  0
LINE
  5
2B45
330
2F74
100
AcDbEntity
  8
0
 62
     0
100
AcDbLine
 10
-365.0000000000036
 20
-587.0399762693223
 30
0.0
 11
-68.05710615304271
 21
-785.001400000001
 31
0.0
  0
LINE
  5
2B46
330
2F74
100
AcDbEntity
  8
0
 62
     0
100
AcDbLine
 10
-365.0000000000036
 20
-584.0400097339069
 30
0.0
 11
-63.55714485915632
 21
-785.001400000001
 31
0.0
  0
LINE
  5
2B47
330
2F74
100
AcDbEntity
  8
0
 62
     0
100
AcDbLine
 10
-365.0000000000036
 20
-581.040043198489
 30
0.0
 11
-59.05718356527358
 21
-785.0013999999982
 31
0.0
  0
LINE
  5
2B48
330
2F74
100
AcDbEntity
  8
0
 62
     0
100
AcDbLine
 10
-365.0000000000018
 20
-578.0400766630743
 30
0.0
 11
-54.5572222713854
 21
-785.0014000000001
 31
0.0
  0
LINE
  5
2B49
330
2F74
100
AcDbEntity
  8
0
 62
     0
100
AcDbLine
 10
-365.0000000000036
 20
-575.0401101276565
 30
0.0
 11
-50.05726097750084
 21
-785.0014000000001
 31
0.0
  0
LINE
  5
2B4A
330
2F74
100
AcDbEntity
  8
0
 62
     0
100
AcDbLine
 10
-365.0000000000018
 20
-572.0401435922412
 30
0.0
 11
-45.55729968361265
 21
-785.001400000001
 31
0.0
  0
LINE
  5
2B4B
330
2F74
100
AcDbEntity
  8
0
 62
     0
100
AcDbLine
 10
-365.0000000000036
 20
-569.0401770568247
 30
0.0
 11
-41.05733838973174
 21
-785.001399999999
 31
0.0
  0
LINE
  5
2B4C
330
2F74
100
AcDbEntity
  8
0
 62
     0
100
AcDbLine
 10
-365.0000000000018
 20
-566.0402105214098
 30
0.0
 11
-36.55737709584355
 21
-785.0014000000001
 31
0.0
  0
LINE
  5
2B4D
330
2F74
100
AcDbEntity
  8
0
 62
     0
100
AcDbLine
 10
-365.0000000000036
 20
-563.0402439859928
 30
0.0
 11
-32.057415801959
 21
-785.0014000000001
 31
0.0
  0
LINE
  5
2B4E
330
2F74
100
AcDbEntity
  8
0
 62
     0
100
AcDbLine
 10
-365.0000000000036
 20
-560.0402774505765
 30
0.0
 11
-27.55745450807081
 21
-785.0014000000016
 31
0.0
  0
LINE
  5
2B4F
330
2F74
100
AcDbEntity
  8
0
 62
     0
100
AcDbLine
 10
-365.0000000000018
 20
-557.0403109151603
 30
0.0
 11
-23.05749321418807
 21
-785.001399999999
 31
0.0
  0
LINE
  5
2B50
330
2F74
100
AcDbEntity
  8
0
 62
     0
100
AcDbLine
 10
-365.0000000000036
 20
-554.040344379744
 30
0.0
 11
-18.55753192030169
 21
-785.001400000001
 31
0.0
  0
LINE
  5
2B51
330
2F74
100
AcDbEntity
  8
0
 62
     0
100
AcDbLine
 10
-365.0000000000018
 20
-551.0403778443287
 30
0.0
 11
-14.05757062641533
 21
-785.001400000001
 31
0.0
  0
LINE
  5
2B52
330
2F74
100
AcDbEntity
  8
0
 62
     0
100
AcDbLine
 10
-365.0000000000036
 20
-548.0404113089125
 30
0.0
 11
-9.557609332528951
 21
-785.0014000000016
 31
0.0
  0
LINE
  5
2B53
330
2F74
100
AcDbEntity
  8
0
 62
     0
100
AcDbLine
 10
-365.0000000000036
 20
-545.0404447734954
 30
0.0
 11
-5.057648038646219
 21
-785.0014000000001
 31
0.0
  0
LINE
  5
2B54
330
2F74
100
AcDbEntity
  8
0
 62
     0
100
AcDbLine
 10
-365.0000000000018
 20
-542.0404782380802
 30
0.0
 11
-0.5576867447580299
 21
-785.001400000001
 31
0.0
  0
LINE
  5
2B55
330
2F74
100
AcDbEntity
  8
0
 62
     0
100
AcDbLine
 10
-365.0000000000036
 20
-539.040511702663
 30
0.0
 11
3.942274549126523
 21
-785.001400000001
 31
0.0
  0
LINE
  5
2B56
330
2F74
100
AcDbEntity
  8
0
 62
     0
100
AcDbLine
 10
-365.0000000000018
 20
-536.0405451672468
 30
0.0
 11
8.442235843011074
 21
-785.0013999999982
 31
0.0
  0
LINE
  5
2B57
330
2F74
100
AcDbEntity
  8
0
 62
     0
100
AcDbLine
 10
-365.0000000000036
 20
-533.0405786318315
 30
0.0
 11
12.94219713689563
 21
-785.0014000000001
 31
0.0
  0
LINE
  5
2B58
330
2F74
100
AcDbEntity
  8
0
 62
     0
100
AcDbLine
 10
-365.0000000000018
 20
-530.0406120964143
 30
0.0
 11
17.44215843078382
 21
-785.0014000000001
 31
0.0
  0
LINE
  5
2B59
330
2F74
100
AcDbEntity
  8
0
 62
     0
100
AcDbLine
 10
-365.0000000000036
 20
-527.0406455609982
 30
0.0
 11
21.94211972466837
 21
-785.001400000001
 31
0.0
  0
LINE
  5
2B5A
330
2F74
100
AcDbEntity
  8
0
 62
     0
100
AcDbLine
 10
-365.0000000000018
 20
-524.040679025582
 30
0.0
 11
26.44208101855293
 21
-785.001399999999
 31
0.0
  0
LINE
  5
2B5B
330
2F74
100
AcDbEntity
  8
0
 62
     0
100
AcDbLine
 10
-365.0000000000018
 20
-521.0407124901665
 30
0.0
 11
30.9420423124393
 21
-785.0014000000001
 31
0.0
  0
LINE
  5
2B5C
330
2F74
100
AcDbEntity
  8
0
 62
     0
100
AcDbLine
 10
-365.0000000000018
 20
-518.0407459547502
 30
0.0
 11
35.44200360632568
 21
-785.0014000000001
 31
0.0
  0
LINE
  5
2B5D
330
2F74
100
AcDbEntity
  8
0
 62
     0
100
AcDbLine
 10
-365.0000000000018
 20
-515.0407794193339
 30
0.0
 11
39.94196490021204
 21
-785.0014000000016
 31
0.0
  0
LINE
  5
2B5E
330
2F74
100
AcDbEntity
  8
0
 62
     0
100
AcDbLine
 10
-365.0000000000036
 20
-512.040812883917
 30
0.0
 11
44.44192619409474
 21
-785.001399999999
 31
0.0
  0
LINE
  5
2B5F
330
2F74
100
AcDbEntity
  8
0
 62
     0
100
AcDbLine
 10
-365.0000000000018
 20
-509.0408463485015
 30
0.0
 11
48.94188748798114
 21
-785.001400000001
 31
0.0
  0
LINE
  5
2B60
330
2F74
100
AcDbEntity
  8
0
 62
     0
100
AcDbLine
 10
-365.0000000000018
 20
-506.0408798130857
 30
0.0
 11
53.44184878186934
 21
-785.001400000001
 31
0.0
  0
LINE
  5
2B61
330
2F74
100
AcDbEntity
  8
0
 62
     0
100
AcDbLine
 10
-365.0000000000018
 20
-503.0409132776703
 30
0.0
 11
57.94181007575389
 21
-785.0014000000016
 31
0.0
  0
LINE
  5
2B62
330
2F74
100
AcDbEntity
  8
0
 62
     0
100
AcDbLine
 10
-365.0000000000036
 20
-500.0409467422523
 30
0.0
 11
62.44177136963845
 21
-785.0014000000001
 31
0.0
  0
LINE
  5
2B63
330
2F74
100
AcDbEntity
  8
0
 62
     0
100
AcDbLine
 10
-365.0000000000018
 20
-497.0409802068361
 30
0.0
 11
66.941732663523
 21
-785.001399999999
 31
0.0
  0
LINE
  5
2B64
330
2F74
100
AcDbEntity
  8
0
 62
     0
100
AcDbLine
 10
-365.0000000000036
 20
-494.0410136714199
 30
0.0
 11
71.44169395740937
 21
-785.001400000001
 31
0.0
  0
LINE
  5
2B65
330
2F74
100
AcDbEntity
  8
0
 62
     0
100
AcDbLine
 10
-365.0
 20
-491.0410471360044
 30
0.0
 11
75.94165525129392
 21
-785.0013999999982
 31
0.0
  0
LINE
  5
2B66
330
2F74
100
AcDbEntity
  8
0
 62
     0
100
AcDbLine
 10
-365.0000000000036
 20
-488.0410806005881
 30
0.0
 11
80.44161654518211
 21
-785.0014000000016
 31
0.0
  0
LINE
  5
2B67
330
2F74
100
AcDbEntity
  8
0
 62
     0
100
AcDbLine
 10
-365.0000000000018
 20
-485.0411140651711
 30
0.0
 11
84.94157783906665
 21
-785.0014000000001
 31
0.0
  0
LINE
  5
2B68
330
2F74
100
AcDbEntity
  8
0
 62
     0
100
AcDbLine
 10
-365.0000000000036
 20
-482.041147529756
 30
0.0
 11
89.44153913295123
 21
-785.001400000001
 31
0.0
  0
LINE
  5
2B69
330
2F74
100
AcDbEntity
  8
0
 62
     0
100
AcDbLine
 10
-365.0000000000018
 20
-479.0411809943389
 30
0.0
 11
93.94150042683573
 21
-785.001399999999
 31
0.0
  0
LINE
  5
2B6A
330
2F74
100
AcDbEntity
  8
0
 62
     0
100
AcDbLine
 10
-365.0000000000036
 20
-476.0412144589237
 30
0.0
 11
98.44146172072395
 21
-785.001400000003
 31
0.0
  0
LINE
  5
2B6B
330
2F74
100
AcDbEntity
  8
0
 62
     0
100
AcDbLine
 10
-365.0000000000018
 20
-473.0412479235074
 30
0.0
 11
102.9414230146085
 21
-785.0014000000001
 31
0.0
  0
LINE
  5
2B6C
330
2F74
100
AcDbEntity
  8
0
 62
     0
100
AcDbLine
 10
-365.0000000000018
 20
-470.041281388092
 30
0.0
 11
107.4413843084949
 21
-785.0014000000016
 31
0.0
  0
LINE
  5
2B6D
330
2F74
100
AcDbEntity
  8
0
 62
     0
100
AcDbLine
 10
-365.0000000000036
 20
-467.041314852674
 30
0.0
 11
111.9413456023812
 21
-785.0014000000016
 31
0.0
  0
LINE
  5
2B6E
330
2F74
100
AcDbEntity
  8
0
 62
     0
100
AcDbLine
 10
-365.0000000000018
 20
-464.0413483172587
 30
0.0
 11
116.4413068962658
 21
-785.001400000001
 31
0.0
  0
LINE
  5
2B6F
330
2F74
100
AcDbEntity
  8
0
 62
     0
100
AcDbLine
 10
-365.0000000000036
 20
-461.0413817818416
 30
0.0
 11
120.9412681901503
 21
-785.001400000001
 31
0.0
  0
LINE
  5
2B70
330
2F74
100
AcDbEntity
  8
0
 62
     0
100
AcDbLine
 10
-365.0000000000018
 20
-458.0414152464252
 30
0.0
 11
125.4412294840349
 21
-785.0013999999982
 31
0.0
  0
LINE
  5
2B71
330
2F74
100
AcDbEntity
  8
0
 62
     0
100
AcDbLine
 10
-365.0000000000018
 20
-455.0414487110101
 30
0.0
 11
129.9411907779249
 21
-785.0014000000016
 31
0.0
  0
LINE
  5
2B72
330
2F74
100
AcDbEntity
  8
0
 62
     0
100
AcDbLine
 10
-365.0000000000018
 20
-452.0414821755927
 30
0.0
 11
134.4411520718058
 21
-785.001399999999
 31
0.0
  0
LINE
  5
2B73
330
2F74
100
AcDbEntity
  8
0
 62
     0
100
AcDbLine
 10
-365.0000000000018
 20
-449.0415156401777
 30
0.0
 11
138.941113365694
 21
-785.001400000001
 31
0.0
  0
LINE
  5
2B74
330
2F74
100
AcDbEntity
  8
0
 62
     0
100
AcDbLine
 10
-365.0000000000018
 20
-446.0415491047605
 30
0.0
 11
143.4410746595786
 21
-785.001400000001
 31
0.0
  0
LINE
  5
2B75
330
2F74
100
AcDbEntity
  8
0
 62
     0
100
AcDbLine
 10
-365.0000000000018
 20
-443.0415825693461
 30
0.0
 11
147.9410359534668
 21
-785.0014000000016
 31
0.0
  0
LINE
  5
2B76
330
2F74
100
AcDbEntity
  8
0
 62
     0
100
AcDbLine
 10
-365.0000000000036
 20
-440.0416160339282
 30
0.0
 11
152.4409972473477
 21
-785.0014000000001
 31
0.0
  0
LINE
  5
2B77
330
2F74
100
AcDbEntity
  8
0
 62
     0
100
AcDbLine
 10
-365.0000000000036
 20
-437.0416494985128
 30
0.0
 11
156.9409585412358
 21
-785.001400000001
 31
0.0
  0
LINE
  5
2B78
330
2F74
100
AcDbEntity
  8
0
 62
     0
100
AcDbLine
 10
-365.0000000000018
 20
-434.0416829630957
 30
0.0
 11
161.4409198351222
 21
-785.001400000001
 31
0.0
  0
LINE
  5
2B79
330
2F74
100
AcDbEntity
  8
0
 62
     0
100
AcDbLine
 10
-365.0000000000036
 20
-431.0417164276805
 30
0.0
 11
165.9408811290086
 21
-785.001400000003
 31
0.0
  0
LINE
  5
2B7A
330
2F74
100
AcDbEntity
  8
0
 62
     0
100
AcDbLine
 10
-365.0000000000018
 20
-428.0417498922632
 30
0.0
 11
170.4408424228913
 21
-785.0014000000001
 31
0.0
  0
LINE
  5
2B7B
330
2F74
100
AcDbEntity
  8
0
 62
     0
100
AcDbLine
 10
-365.0000000000036
 20
-425.0417833568489
 30
0.0
 11
174.9408037167777
 21
-785.0014000000016
 31
0.0
  0
LINE
  5
2B7C
330
2F74
100
AcDbEntity
  8
0
 62
     0
100
AcDbLine
 10
-365.0000000000018
 20
-422.0418168214319
 30
0.0
 11
179.4407650106641
 21
-785.0014000000016
 31
0.0
  0
LINE
  5
2B7D
330
2F74
100
AcDbEntity
  8
0
 62
     0
100
AcDbLine
 10
-365.0000000000018
 20
-419.0418502860136
 30
0.0
 11
183.9407263045487
 21
-785.001399999999
 31
0.0
  0
LINE
  5
2B7E
330
2F74
100
AcDbEntity
  8
0
 62
     0
100
AcDbLine
 10
-365.0000000000018
 20
-416.0418837505991
 30
0.0
 11
188.4406875984332
 21
-785.001400000001
 31
0.0
  0
LINE
  5
2B7F
330
2F74
100
AcDbEntity
  8
0
 62
     0
100
AcDbLine
 10
-365.0000000000018
 20
-413.0419172151811
 30
0.0
 11
192.9406488923214
 21
-785.0014000000001
 31
0.0
  0
LINE
  5
2B80
330
2F74
100
AcDbEntity
  8
0
 62
     0
100
AcDbLine
 10
-365.0000000000036
 20
-410.041950679767
 30
0.0
 11
197.4406101862059
 21
-785.0014000000016
 31
0.0
  0
LINE
  5
2B81
330
2F74
100
AcDbEntity
  8
0
 62
     0
100
AcDbLine
 10
-365.0000000000018
 20
-407.0419841443499
 30
0.0
 11
201.9405714800905
 21
-785.001399999999
 31
0.0
  0
LINE
  5
2B82
330
2F74
100
AcDbEntity
  8
0
 62
     0
100
AcDbLine
 10
-365.0000000000036
 20
-404.0420176089346
 30
0.0
 11
206.4405327739787
 21
-785.001400000003
 31
0.0
  0
LINE
  5
2B83
330
2F74
100
AcDbEntity
  8
0
 62
     0
100
AcDbLine
 10
-365.0000000000018
 20
-401.0420510735175
 30
0.0
 11
210.9404940678632
 21
-785.001400000001
 31
0.0
  0
LINE
  5
2B84
330
2F74
100
AcDbEntity
  8
0
 62
     0
100
AcDbLine
 10
-365.0000000000018
 20
-398.0420845381022
 30
0.0
 11
215.4404553617496
 21
-785.0014000000016
 31
0.0
  0
LINE
  5
2B85
330
2F74
100
AcDbEntity
  8
0
 62
     0
100
AcDbLine
 10
-365.0000000000018
 20
-395.0421180026862
 30
0.0
 11
219.9404166556324
 21
-785.0014000000001
 31
0.0
  0
LINE
  5
2B86
330
2F74
100
AcDbEntity
  8
0
 62
     0
100
AcDbLine
 10
-365.0000000000036
 20
-392.0421514672696
 30
0.0
 11
224.4403779495187
 21
-785.0014000000016
 31
0.0
  0
LINE
  5
2B87
330
2F74
100
AcDbEntity
  8
0
 62
     0
100
AcDbLine
 10
-365.0000000000018
 20
-389.0421849318536
 30
0.0
 11
228.9403392434051
 21
-785.001400000001
 31
0.0
  0
LINE
  5
2B88
330
2F74
100
AcDbEntity
  8
0
 62
     0
100
AcDbLine
 10
-365.0000000000036
 20
-386.0422183964375
 30
0.0
 11
233.4403005372879
 21
-785.001400000001
 31
0.0
  0
LINE
  5
2B89
330
2F74
100
AcDbEntity
  8
0
 62
     0
100
AcDbLine
 10
-365.0000000000018
 20
-383.0422518610203
 30
0.0
 11
237.9402618311778
 21
-785.001400000003
 31
0.0
  0
LINE
  5
2B8A
330
2F74
100
AcDbEntity
  8
0
 62
     0
100
AcDbLine
 10
-365.0000000000036
 20
-380.0422853256032
 30
0.0
 11
242.4402231250606
 21
-785.0014000000001
 31
0.0
  0
LINE
  5
2B8B
330
2F74
100
AcDbEntity
  8
0
 62
     0
100
AcDbLine
 10
-365.0000000000018
 20
-377.0423187901888
 30
0.0
 11
246.9401844189488
 21
-785.0014000000016
 31
0.0
  0
LINE
  5
2B8C
330
2F74
100
AcDbEntity
  8
0
 62
     0
100
AcDbLine
 10
-365.0000000000036
 20
-374.0423522547716
 30
0.0
 11
251.4401457128297
 21
-785.001399999999
 31
0.0
  0
LINE
  5
2B8D
330
2F74
100
AcDbEntity
  8
0
 62
     0
100
AcDbLine
 10
-365.0000000000018
 20
-371.0423857193564
 30
0.0
 11
255.9401070067197
 21
-785.001400000003
 31
0.0
  0
LINE
  5
2B8E
330
2F74
100
AcDbEntity
  8
0
 62
     0
100
AcDbLine
 10
-365.0000000000018
 20
-368.0424191839393
 30
0.0
 11
260.4400683006042
 21
-785.0014000000001
 31
0.0
  0
LINE
  5
2B8F
330
2F74
100
AcDbEntity
  8
0
 62
     0
100
AcDbLine
 10
-365.0000000000036
 20
-365.0424526485231
 30
0.0
 11
264.9400295944906
 21
-785.0014000000016
 31
0.0
  0
LINE
  5
2B90
330
2F74
100
AcDbEntity
  8
0
 62
     0
100
AcDbLine
 10
-365.0000000000018
 20
-362.0424861131078
 30
0.0
 11
269.439990888377
 21
-785.0014000000016
 31
0.0
  0
LINE
  5
2B91
330
2F74
100
AcDbEntity
  8
0
 62
     0
100
AcDbLine
 10
-365.0000000000036
 20
-359.0425195776917
 30
0.0
 11
273.9399521822597
 21
-785.001400000001
 31
0.0
  0
LINE
  5
2B92
330
2F74
100
AcDbEntity
  8
0
 62
     0
100
AcDbLine
 10
-365.0000000000018
 20
-356.0425530422744
 30
0.0
 11
278.4399134761461
 21
-785.001400000001
 31
0.0
  0
LINE
  5
2B93
330
2F74
100
AcDbEntity
  8
0
 62
     0
100
AcDbLine
 10
-365.0000000000036
 20
-353.0425865068592
 30
0.0
 11
282.9398747700306
 21
-785.001400000003
 31
0.0
  0
LINE
  5
2B94
330
2F74
100
AcDbEntity
  8
0
 62
     0
100
AcDbLine
 10
-365.0000000000018
 20
-350.0426199714421
 30
0.0
 11
287.4398360639188
 21
-785.0014000000016
 31
0.0
  0
LINE
  5
2B95
330
2F74
100
AcDbEntity
  8
0
 62
     0
100
AcDbLine
 10
-365.0000000000018
 20
-347.0426534360277
 30
0.0
 11
291.9397973578034
 21
-785.0014000000016
 31
0.0
  0
LINE
  5
2B96
330
2F74
100
AcDbEntity
  8
0
 62
     0
100
AcDbLine
 10
-365.0000000000018
 20
-344.0426869006105
 30
0.0
 11
296.4397586516879
 21
-785.001400000001
 31
0.0
  0
LINE
  5
2B97
330
2F74
100
AcDbEntity
  8
0
 62
     0
100
AcDbLine
 10
-365.0000000000018
 20
-341.0427203651952
 30
0.0
 11
300.9397199455743
 21
-785.001400000003
 31
0.0
  0
LINE
  5
2B98
330
2F74
100
AcDbEntity
  8
0
 62
     0
100
AcDbLine
 10
-365.0000000000036
 20
-338.0427538297772
 30
0.0
 11
305.4396812394607
 21
-785.001400000003
 31
0.0
  0
LINE
  5
2B99
330
2F74
100
AcDbEntity
  8
0
 62
     0
100
AcDbLine
 10
-365.0000000000018
 20
-335.042787294361
 30
0.0
 11
309.9396425333452
 21
-785.0014000000001
 31
0.0
  0
LINE
  5
2B9A
330
2F74
100
AcDbEntity
  8
0
 62
     0
100
AcDbLine
 10
-365.0000000000018
 20
-332.0428207589448
 30
0.0
 11
314.4396038272316
 21
-785.0014000000016
 31
0.0
  0
LINE
  5
2B9B
330
2F74
100
AcDbEntity
  8
0
 62
     0
100
AcDbLine
 10
-365.0000000000036
 20
-329.0428542235285
 30
0.0
 11
318.9395651211162
 21
-785.001400000001
 31
0.0
  0
LINE
  5
2B9C
330
2F74
100
AcDbEntity
  8
0
 62
     0
100
AcDbLine
 10
-365.0000000000018
 20
-326.0428876881134
 30
0.0
 11
323.4395264150044
 21
-785.001400000003
 31
0.0
  0
LINE
  5
2B9D
330
2F74
100
AcDbEntity
  8
0
 62
     0
100
AcDbLine
 10
-365.0000000000036
 20
-323.0429211526962
 30
0.0
 11
327.9394877088872
 21
-785.0014000000001
 31
0.0
  0
LINE
  5
2B9E
330
2F74
100
AcDbEntity
  8
0
 62
     0
100
AcDbLine
 10
-365.0000000000018
 20
-320.0429546172809
 30
0.0
 11
332.4394490027736
 21
-785.0014000000016
 31
0.0
  0
LINE
  5
2B9F
330
2F74
100
AcDbEntity
  8
0
 62
     0
100
AcDbLine
 10
-365.0000000000036
 20
-317.0429880818647
 30
0.0
 11
336.939410296658
 21
-785.0014000000016
 31
0.0
  0
LINE
  5
2BA0
330
2F74
100
AcDbEntity
  8
0
 62
     0
100
AcDbLine
 10
-365.0000000000018
 20
-314.0430215464494
 30
0.0
 11
341.4393715905426
 21
-785.001400000001
 31
0.0
  0
LINE
  5
2BA1
330
2F74
100
AcDbEntity
  8
0
 62
     0
100
AcDbLine
 10
-365.0000000000018
 20
-311.0430550110314
 30
0.0
 11
345.9393328844289
 21
-785.001400000001
 31
0.0
  0
LINE
  5
2BA2
330
2F74
100
AcDbEntity
  8
0
 62
     0
100
AcDbLine
 10
-365.0000000000018
 20
-308.0430884756171
 30
0.0
 11
350.4392941783152
 21
-785.001400000003
 31
0.0
  0
LINE
  5
2BA3
330
2F74
100
AcDbEntity
  8
0
 62
     0
100
AcDbLine
 10
-365.0000000000018
 20
-305.043121940199
 30
0.0
 11
354.9392554722017
 21
-785.0014000000016
 31
0.0
  0
LINE
  5
2BA4
330
2F74
100
AcDbEntity
  8
0
 62
     0
100
AcDbLine
 10
-365.0000000000036
 20
-302.0431554047836
 30
0.0
 11
359.4392167660844
 21
-785.0014000000016
 31
0.0
  0
LINE
  5
2BA5
330
2F74
100
AcDbEntity
  8
0
 62
     0
100
AcDbLine
 10
-365.0000000000018
 20
-299.0431888693674
 30
0.0
 11
363.9391780599708
 21
-785.001400000001
 31
0.0
  0
LINE
  5
2BA6
330
2F74
100
AcDbEntity
  8
0
 62
     0
100
AcDbLine
 10
-365.0000000000018
 20
-296.0432223339504
 30
0.0
 11
364.9999999999963
 21
-782.7086462853766
 31
0.0
  0
LINE
  5
2BA7
330
2F74
100
AcDbEntity
  8
0
 62
     0
100
AcDbLine
 10
-365.0000000000018
 20
-293.0432557985349
 30
0.0
 11
364.9999999999945
 21
-779.7086797499615
 31
0.0
  0
LINE
  5
2BA8
330
2F74
100
AcDbEntity
  8
0
 62
     0
100
AcDbLine
 10
-365.0000000000018
 20
-290.0432892631179
 30
0.0
 11
364.9999999999963
 21
-776.7087132145443
 31
0.0
  0
LINE
  5
2BA9
330
2F74
100
AcDbEntity
  8
0
 62
     0
100
AcDbLine
 10
-365.0000000000018
 20
-287.0433227277026
 30
0.0
 11
364.9999999999945
 21
-773.708746679129
 31
0.0
  0
LINE
  5
2BAA
330
2F74
100
AcDbEntity
  8
0
 62
     0
100
AcDbLine
 10
-365.0000000000036
 20
-284.0433561922855
 30
0.0
 11
364.9999999999963
 21
-770.7087801437126
 31
0.0
  0
LINE
  5
2BAB
330
2F74
100
AcDbEntity
  8
0
 62
     0
100
AcDbLine
 10
-365.0000000000018
 20
-281.0433896568711
 30
0.0
 11
364.9999999999927
 21
-767.7088136082966
 31
0.0
  0
LINE
  5
2BAC
330
2F74
100
AcDbEntity
  8
0
 62
     0
100
AcDbLine
 10
-365.0000000000036
 20
-278.0434231214531
 30
0.0
 11
364.9999999999963
 21
-764.7088470728804
 31
0.0
  0
LINE
  5
2BAD
330
2F74
100
AcDbEntity
  8
0
 62
     0
100
AcDbLine
 10
-365.0000000000018
 20
-275.0434565860377
 30
0.0
 11
364.9999999999945
 21
-761.7088805374641
 31
0.0
  0
LINE
  5
2BAE
330
2F74
100
AcDbEntity
  8
0
 62
     0
100
AcDbLine
 10
-365.0000000000036
 20
-272.0434900506207
 30
0.0
 11
364.9999999999963
 21
-758.708914002048
 31
0.0
  0
LINE
  5
2BAF
330
2F74
100
AcDbEntity
  8
0
 62
     0
100
AcDbLine
 10
-365.0000000000018
 20
-269.0435235152063
 30
0.0
 11
364.9999999999945
 21
-755.7089474666318
 31
0.0
  0
LINE
  5
2BB0
330
2F74
100
AcDbEntity
  8
0
 62
     0
100
AcDbLine
 10
-365.0000000000036
 20
-266.0435569797892
 30
0.0
 11
364.9999999999945
 21
-752.7089809312156
 31
0.0
  0
LINE
  5
2BB1
330
2F74
100
AcDbEntity
  8
0
 62
     0
100
AcDbLine
 10
-365.0000000000018
 20
-263.0435904443739
 30
0.0
 11
364.9999999999945
 21
-749.7090143958002
 31
0.0
  0
LINE
  5
2BB2
330
2F74
100
AcDbEntity
  8
0
 62
     0
100
AcDbLine
 10
-365.0000000000018
 20
-260.0436239089559
 30
0.0
 11
364.9999999999963
 21
-746.7090478603827
 31
0.0
  0
LINE
  5
2BB3
330
2F74
100
AcDbEntity
  8
0
 62
     0
100
AcDbLine
 10
-365.0000000000036
 20
-257.0436573735388
 30
0.0
 11
364.9999999999945
 21
-743.7090813249658
 31
0.0
  0
LINE
  5
2BB4
330
2F74
100
AcDbEntity
  8
0
 62
     0
100
AcDbLine
 10
-365.0000000000018
 20
-254.0436908381234
 30
0.0
 11
364.9999999999945
 21
-740.7091147895497
 31
0.0
  0
LINE
  5
2BB5
330
2F74
100
AcDbEntity
  8
0
 62
     0
100
AcDbLine
 10
-365.0000000000036
 20
-251.0437243027072
 30
0.0
 11
364.9999999999945
 21
-737.7091482541342
 31
0.0
  0
LINE
  5
2BB6
330
2F74
100
AcDbEntity
  8
0
 62
     0
100
AcDbLine
 10
-365.0000000000018
 20
-248.0437577672919
 30
0.0
 11
364.9999999999963
 21
-734.709181718719
 31
0.0
  0
LINE
  5
2BB7
330
2F74
100
AcDbEntity
  8
0
 62
     0
100
AcDbLine
 10
-365.0000000000018
 20
-245.0437912318748
 30
0.0
 11
364.9999999999963
 21
-731.7092151833021
 31
0.0
  0
LINE
  5
2BB8
330
2F74
100
AcDbEntity
  8
0
 62
     0
100
AcDbLine
 10
-365.0000000000018
 20
-242.0438246964595
 30
0.0
 11
364.9999999999945
 21
-728.7092486478859
 31
0.0
  0
LINE
  5
2BB9
330
2F74
100
AcDbEntity
  8
0
 62
     0
100
AcDbLine
 10
-365.0000000000018
 20
-239.0438581610424
 30
0.0
 11
364.9999999999963
 21
-725.7092821124697
 31
0.0
  0
LINE
  5
2BBA
330
2F74
100
AcDbEntity
  8
0
 62
     0
100
AcDbLine
 10
-365.0000000000036
 20
-236.0438916256272
 30
0.0
 11
364.9999999999945
 21
-722.7093155770544
 31
0.0
  0
LINE
  5
2BBB
330
2F74
100
AcDbEntity
  8
0
 62
     0
100
AcDbLine
 10
-365.0000000000036
 20
-233.04392509021
 30
0.0
 11
364.9999999999963
 21
-719.7093490416373
 31
0.0
  0
LINE
  5
2BBC
330
2F74
100
AcDbEntity
  8
0
 62
     0
100
AcDbLine
 10
-365.0000000000036
 20
-230.0439585547947
 30
0.0
 11
364.9999999999945
 21
-716.7093825062218
 31
0.0
  0
LINE
  5
2BBD
330
2F74
100
AcDbEntity
  8
0
 62
     0
100
AcDbLine
 10
-365.0000000000036
 20
-227.0439920193776
 30
0.0
 11
364.9999999999963
 21
-713.7094159708047
 31
0.0
  0
LINE
  5
2BBE
330
2F74
100
AcDbEntity
  8
0
 62
     0
100
AcDbLine
 10
-365.0000000000018
 20
-224.0440254839623
 30
0.0
 11
364.9999999999963
 21
-710.7094494353892
 31
0.0
  0
LINE
  5
2BBF
330
2F74
100
AcDbEntity
  8
0
 62
     0
100
AcDbLine
 10
-365.0000000000036
 20
-221.0440589485461
 30
0.0
 11
364.9999999999963
 21
-707.7094828999734
 31
0.0
  0
LINE
  5
2BC0
330
2F74
100
AcDbEntity
  8
0
 62
     0
100
AcDbLine
 10
-365.0000000000018
 20
-218.044092413129
 30
0.0
 11
364.9999999999963
 21
-704.7095163645563
 31
0.0
  0
LINE
  5
2BC1
330
2F74
100
AcDbEntity
  8
0
 62
     0
100
AcDbLine
 10
-365.0000000000036
 20
-215.0441258777137
 30
0.0
 11
364.9999999999945
 21
-701.7095498291403
 31
0.0
  0
LINE
  5
2BC2
330
2F74
100
AcDbEntity
  8
0
 62
     0
100
AcDbLine
 10
-365.0000000000018
 20
-212.0441593422965
 30
0.0
 11
364.9999999999963
 21
-698.7095832937239
 31
0.0
  0
LINE
  5
2BC3
330
2F74
100
AcDbEntity
  8
0
 62
     0
100
AcDbLine
 10
-365.0000000000036
 20
-209.0441928068802
 30
0.0
 11
364.9999999999963
 21
-695.7096167583077
 31
0.0
  0
LINE
  5
2BC4
330
2F74
100
AcDbEntity
  8
0
 62
     0
100
AcDbLine
 10
-365.0000000000036
 20
-206.0442262714632
 30
0.0
 11
364.9999999999945
 21
-692.7096502228904
 31
0.0
  0
LINE
  5
2BC5
330
2F74
100
AcDbEntity
  8
0
 62
     0
100
AcDbLine
 10
-365.0000000000018
 20
-203.0442597360488
 30
0.0
 11
364.9999999999963
 21
-689.7096836874761
 31
0.0
  0
LINE
  5
2BC6
330
2F74
100
AcDbEntity
  8
0
 62
     0
100
AcDbLine
 10
-365.0000000000036
 20
-200.0442932006317
 30
0.0
 11
364.9999999999945
 21
-686.709717152059
 31
0.0
  0
LINE
  5
2BC7
330
2F74
100
AcDbEntity
  8
0
 62
     0
100
AcDbLine
 10
-365.0000000000018
 20
-197.0443266652164
 30
0.0
 11
364.9999999999963
 21
-683.7097506166436
 31
0.0
  0
LINE
  5
2BC8
330
2F74
100
AcDbEntity
  8
0
 62
     0
100
AcDbLine
 10
-365.0000000000036
 20
-194.0443601297992
 30
0.0
 11
364.9999999999927
 21
-680.7097840812255
 31
0.0
  0
LINE
  5
2BC9
330
2F74
100
AcDbEntity
  8
0
 62
     0
100
AcDbLine
 10
-365.0000000000018
 20
-191.044393594384
 30
0.0
 11
364.9999999999963
 21
-677.7098175458113
 31
0.0
  0
LINE
  5
2BCA
330
2F74
100
AcDbEntity
  8
0
 62
     0
100
AcDbLine
 10
-365.0000000000036
 20
-188.0444270589669
 30
0.0
 11
364.9999999999945
 21
-674.7098510103942
 31
0.0
  0
LINE
  5
2BCB
330
2F74
100
AcDbEntity
  8
0
 62
     0
100
AcDbLine
 10
-365.0000000000018
 20
-185.0444605235525
 30
0.0
 11
364.9999999999963
 21
-671.7098844749799
 31
0.0
  0
LINE
  5
2BCC
330
2F74
100
AcDbEntity
  8
0
 62
     0
100
AcDbLine
 10
-365.0000000000036
 20
-182.0444939881344
 30
0.0
 11
364.9999999999963
 21
-668.7099179395618
 31
0.0
  0
LINE
  5
2BCD
330
2F74
100
AcDbEntity
  8
0
 62
     0
100
AcDbLine
 10
-365.0000000000036
 20
-179.0445274527173
 30
0.0
 11
364.9999999999945
 21
-665.7099514041447
 31
0.0
  0
LINE
  5
2BCE
330
2F74
100
AcDbEntity
  8
0
 62
     0
100
AcDbLine
 10
-365.0000000000036
 20
-176.044560917302
 30
0.0
 11
364.9999999999963
 21
-662.7099848687294
 31
0.0
  0
LINE
  5
2BCF
330
2F74
100
AcDbEntity
  8
0
 62
     0
100
AcDbLine
 10
-365.0000000000018
 20
-173.0445943818859
 30
0.0
 11
364.9999999999963
 21
-659.710018333313
 31
0.0
  0
LINE
  5
2BD0
330
2F74
100
AcDbEntity
  8
0
 62
     0
100
AcDbLine
 10
-365.0000000000036
 20
-170.0446278464706
 30
0.0
 11
364.9999999999963
 21
-656.7100517978976
 31
0.0
  0
LINE
  5
2BD1
330
2F74
100
AcDbEntity
  8
0
 62
     0
100
AcDbLine
 10
-365.0000000000018
 20
-167.0446613110534
 30
0.0
 11
364.9999999999945
 21
-653.7100852624798
 31
0.0
  0
LINE
  5
2BD2
330
2F74
100
AcDbEntity
  8
0
 62
     0
100
AcDbLine
 10
-360.5649318121394
 20
-167.0013993508446
 30
0.0
 11
364.9999999999963
 21
-650.7101187270655
 31
0.0
  0
LINE
  5
2BD3
330
2F74
100
AcDbEntity
  8
0
 62
     0
100
AcDbLine
 10
-356.0649705077249
 20
-167.0013993578614
 30
0.0
 11
364.9999999999945
 21
-647.7101521916473
 31
0.0
  0
LINE
  5
2BD4
330
2F74
100
AcDbEntity
  8
0
 62
     0
100
AcDbLine
 10
-351.565009203312
 20
-167.0013993648817
 30
0.0
 11
364.9999999999963
 21
-644.710185656234
 31
0.0
  0
LINE
  5
2BD5
330
2F74
100
AcDbEntity
  8
0
 62
     0
100
AcDbLine
 10
-347.065047898901
 20
-167.0013993718976
 30
0.0
 11
364.9999999999945
 21
-641.7102191208158
 31
0.0
  0
LINE
  5
2BD6
330
2F74
100
AcDbEntity
  8
0
 62
     0
100
AcDbLine
 10
-342.5650865944845
 20
-167.0013993789189
 30
0.0
 11
364.9999999999963
 21
-638.7102525854007
 31
0.0
  0
LINE
  5
2BD7
330
2F74
100
AcDbEntity
  8
0
 62
     0
100
AcDbLine
 10
-338.0651252900717
 20
-167.0013993859375
 30
0.0
 11
364.9999999999945
 21
-635.7102860499836
 31
0.0
  0
LINE
  5
2BD8
330
2F74
100
AcDbEntity
  8
0
 62
     0
100
AcDbLine
 10
-333.5651639856549
 20
-167.0013993929578
 30
0.0
 11
364.9999999999963
 21
-632.7103195145682
 31
0.0
  0
LINE
  5
2BD9
330
2F74
100
AcDbEntity
  8
0
 62
     0
100
AcDbLine
 10
-329.065202681244
 20
-167.0013993999746
 30
0.0
 11
364.9999999999945
 21
-629.7103529791512
 31
0.0
  0
LINE
  5
2BDA
330
2F74
100
AcDbEntity
  8
0
 62
     0
100
AcDbLine
 10
-324.565241376833
 20
-167.0013994069923
 30
0.0
 11
364.9999999999945
 21
-626.7103864437358
 31
0.0
  0
LINE
  5
2BDB
330
2F74
100
AcDbEntity
  8
0
 62
     0
100
AcDbLine
 10
-320.0652800724147
 20
-167.0013994140125
 30
0.0
 11
364.9999999999963
 21
-623.7104199083196
 31
0.0
  0
LINE
  5
2BDC
330
2F74
100
AcDbEntity
  8
0
 62
     0
100
AcDbLine
 10
-315.5653187680018
 20
-167.0013994210303
 30
0.0
 11
364.9999999999963
 21
-620.7104533729025
 31
0.0
  0
LINE
  5
2BDD
330
2F74
100
AcDbEntity
  8
0
 62
     0
100
AcDbLine
 10
-311.0653574635871
 20
-167.0013994280498
 30
0.0
 11
364.9999999999963
 21
-617.7104868374872
 31
0.0
  0
LINE
  5
2BDE
330
2F74
100
AcDbEntity
  8
0
 62
     0
100
AcDbLine
 10
-306.5653961591761
 20
-167.0013994350674
 30
0.0
 11
364.9999999999945
 21
-614.7105203020692
 31
0.0
  0
LINE
  5
2BDF
330
2F74
100
AcDbEntity
  8
0
 62
     0
100
AcDbLine
 10
-302.0654348547614
 20
-167.0013994420878
 30
0.0
 11
364.9999999999963
 21
-611.7105537666556
 31
0.0
  0
LINE
  5
2BE0
330
2F74
100
AcDbEntity
  8
0
 62
     0
100
AcDbLine
 10
-297.5654735503486
 20
-167.0013994491054
 30
0.0
 11
364.9999999999945
 21
-608.7105872312377
 31
0.0
  0
LINE
  5
2BE1
330
2F74
100
AcDbEntity
  8
0
 62
     0
100
AcDbLine
 10
-293.0655122459357
 20
-167.0013994561241
 30
0.0
 11
364.9999999999963
 21
-605.7106206958223
 31
0.0
  0
LINE
  5
2BE2
330
2F74
100
AcDbEntity
  8
0
 62
     0
100
AcDbLine
 10
-288.5655509415192
 20
-167.0013994631426
 30
0.0
 11
364.9999999999963
 21
-602.7106541604053
 31
0.0
  0
LINE
  5
2BE3
330
2F74
100
AcDbEntity
  8
0
 62
     0
100
AcDbLine
 10
-284.0655896371099
 20
-167.0013994701612
 30
0.0
 11
364.9999999999963
 21
-599.7106876249898
 31
0.0
  0
LINE
  5
2BE4
330
2F74
100
AcDbEntity
  8
0
 62
     0
100
AcDbLine
 10
-279.5656283326934
 20
-167.0013994771798
 30
0.0
 11
364.9999999999963
 21
-596.7107210895735
 31
0.0
  0
LINE
  5
2BE5
330
2F74
100
AcDbEntity
  8
0
 62
     0
100
AcDbLine
 10
-275.0656670282806
 20
-167.0013994842002
 30
0.0
 11
364.9999999999945
 21
-593.7107545541574
 31
0.0
  0
LINE
  5
2BE6
330
2F74
100
AcDbEntity
  8
0
 62
     0
100
AcDbLine
 10
-270.5657057238641
 20
-167.0013994912187
 30
0.0
 11
364.9999999999963
 21
-590.7107880187412
 31
0.0
  0
LINE
  5
2BE7
330
2F74
100
AcDbEntity
  8
0
 62
     0
100
AcDbLine
 10
-266.065744419453
 20
-167.0013994982364
 30
0.0
 11
364.9999999999963
 21
-587.7108214833249
 31
0.0
  0
LINE
  5
2BE8
330
2F74
100
AcDbEntity
  8
0
 62
     0
100
AcDbLine
 10
-261.565783115042
 20
-167.001399505254
 30
0.0
 11
364.9999999999963
 21
-584.7108549479089
 31
0.0
  0
LINE
  5
2BE9
330
2F74
100
AcDbEntity
  8
0
 62
     0
100
AcDbLine
 10
-257.0658218106219
 20
-167.0013995122754
 30
0.0
 11
364.9999999999963
 21
-581.7108884124919
 31
0.0
  0
LINE
  5
2BEA
330
2F74
100
AcDbEntity
  8
0
 62
     0
100
AcDbLine
 10
-252.5658605062108
 20
-167.001399519293
 30
0.0
 11
364.9999999999945
 21
-578.7109218770765
 31
0.0
  0
LINE
  5
2BEB
330
2F74
100
AcDbEntity
  8
0
 62
     0
100
AcDbLine
 10
-248.0658992017961
 20
-167.0013995263116
 30
0.0
 11
364.9999999999982
 21
-575.7109553416612
 31
0.0
  0
LINE
  5
2BEC
330
2F74
100
AcDbEntity
  8
0
 62
     0
100
AcDbLine
 10
-243.5659378973852
 20
-167.0013995333293
 30
0.0
 11
365.0
 21
-572.710988806246
 31
0.0
  0
LINE
  5
2BED
330
2F74
100
AcDbEntity
  8
0
 62
     0
100
AcDbLine
 10
-239.0659765929704
 20
-167.0013995403486
 30
0.0
 11
364.9999999999982
 21
-569.7110222708297
 31
0.0
  0
LINE
  5
2BEE
330
2F74
100
AcDbEntity
  8
0
 62
     0
100
AcDbLine
 10
-234.5660152885557
 20
-167.0013995473691
 30
0.0
 11
364.9999999999982
 21
-566.7110557354135
 31
0.0
  0
LINE
  5
2BEF
330
2F74
100
AcDbEntity
  8
0
 62
     0
100
AcDbLine
 10
-230.0660539841429
 20
-167.0013995543859
 30
0.0
 11
364.9999999999982
 21
-563.7110891999972
 31
0.0
  0
LINE
  5
2BF0
330
2F74
100
AcDbEntity
  8
0
 62
     0
100
AcDbLine
 10
-225.5660926797282
 20
-167.0013995614063
 30
0.0
 11
364.9999999999982
 21
-560.7111226645811
 31
0.0
  0
LINE
  5
2BF1
330
2F74
100
AcDbEntity
  8
0
 62
     0
100
AcDbLine
 10
-221.066131375319
 20
-167.0013995684221
 30
0.0
 11
364.9999999999982
 21
-557.7111561291649
 31
0.0
  0
LINE
  5
2BF2
330
2F74
100
AcDbEntity
  8
0
 62
     0
100
AcDbLine
 10
-216.5661700709043
 20
-167.0013995754424
 30
0.0
 11
364.9999999999982
 21
-554.7111895937486
 31
0.0
  0
LINE
  5
2BF3
330
2F74
100
AcDbEntity
  8
0
 62
     0
100
AcDbLine
 10
-212.0662087664877
 20
-167.001399582462
 30
0.0
 11
365.0
 21
-551.7112230583324
 31
0.0
  0
LINE
  5
2BF4
330
2F74
100
AcDbEntity
  8
0
 62
     0
100
AcDbLine
 10
-207.5662474620749
 20
-167.0013995894805
 30
0.0
 11
364.9999999999982
 21
-548.7112565229172
 31
0.0
  0
LINE
  5
2BF5
330
2F74
100
AcDbEntity
  8
0
 62
     0
100
AcDbLine
 10
-203.0662861576601
 20
-167.0013995964991
 30
0.0
 11
365.0
 21
-545.7112899874998
 31
0.0
  0
LINE
  5
2BF6
330
2F74
100
AcDbEntity
  8
0
 62
     0
100
AcDbLine
 10
-198.5663248532509
 20
-167.001399603515
 30
0.0
 11
364.9999999999982
 21
-542.7113234520828
 31
0.0
  0
LINE
  5
2BF7
330
2F74
100
AcDbEntity
  8
0
 62
     0
100
AcDbLine
 10
-194.0663635488326
 20
-167.0013996105372
 30
0.0
 11
364.9999999999982
 21
-539.7113569166665
 31
0.0
  0
LINE
  5
2BF8
330
2F74
100
AcDbEntity
  8
0
 62
     0
100
AcDbLine
 10
-189.5664022444198
 20
-167.001399617553
 30
0.0
 11
365.0
 21
-536.7113903812515
 31
0.0
  0
LINE
  5
2BF9
330
2F74
100
AcDbEntity
  8
0
 62
     0
100
AcDbLine
 10
-185.0664409400051
 20
-167.0013996245743
 30
0.0
 11
364.9999999999982
 21
-533.7114238458353
 31
0.0
  0
LINE
  5
2BFA
330
2F74
100
AcDbEntity
  8
0
 62
     0
100
AcDbLine
 10
-180.5664796355922
 20
-167.001399631592
 30
0.0
 11
365.0
 21
-530.7114573104191
 31
0.0
  0
LINE
  5
2BFB
330
2F74
100
AcDbEntity
  8
0
 62
     0
100
AcDbLine
 10
-176.0665183311794
 20
-167.0013996386114
 30
0.0
 11
364.9999999999982
 21
-527.7114907750029
 31
0.0
  0
LINE
  5
2BFC
330
2F74
100
AcDbEntity
  8
0
 62
     0
100
AcDbLine
 10
-171.5665570267647
 20
-167.00139964563
 30
0.0
 11
364.9999999999982
 21
-524.7115242395857
 31
0.0
  0
LINE
  5
2BFD
330
2F74
100
AcDbEntity
  8
0
 62
     0
100
AcDbLine
 10
-167.0665957223536
 20
-167.0013996526477
 30
0.0
 11
364.9999999999982
 21
-521.7115577041713
 31
0.0
  0
LINE
  5
2BFE
330
2F74
100
AcDbEntity
  8
0
 62
     0
100
AcDbLine
 10
-162.5666344179371
 20
-167.0013996596672
 30
0.0
 11
364.9999999999982
 21
-518.7115911687542
 31
0.0
  0
LINE
  5
2BFF
330
2F74
100
AcDbEntity
  8
0
 62
     0
100
AcDbLine
 10
-158.0666731135261
 20
-167.0013996666857
 30
0.0
 11
365.0
 21
-515.7116246333388
 31
0.0
  0
LINE
  5
2C00
330
2F74
100
AcDbEntity
  8
0
 62
     0
100
AcDbLine
 10
-153.5667118091078
 20
-167.0013996737061
 30
0.0
 11
364.9999999999982
 21
-512.7116580979207
 31
0.0
  0
LINE
  5
2C01
330
2F74
100
AcDbEntity
  8
0
 62
     0
100
AcDbLine
 10
-149.0667505046967
 20
-167.0013996807247
 30
0.0
 11
365.0
 21
-509.7116915625064
 31
0.0
  0
LINE
  5
2C02
330
2F74
100
AcDbEntity
  8
0
 62
     0
100
AcDbLine
 10
-144.5667892002857
 20
-167.0013996877405
 30
0.0
 11
364.9999999999982
 21
-506.7117250270881
 31
0.0
  0
LINE
  5
2C03
330
2F74
100
AcDbEntity
  8
0
 62
     0
100
AcDbLine
 10
149.2000000000007
 20
-359.8454591920591
 30
0.0
 11
150.63391559724
 21
-360.8014004825264
 31
0.0
  0
LINE
  5
2C04
330
2F74
100
AcDbEntity
  8
0
 62
     0
100
AcDbLine
 10
150.63391559724
 20
-360.8014004825264
 30
0.0
 11
365.0
 21
-503.7117584916732
 31
0.0
  0
LINE
  5
2C05
330
2F74
100
AcDbEntity
  8
0
 62
     0
100
AcDbLine
 10
-140.066827895871
 20
-167.0013996947591
 30
0.0
 11
149.2000000000007
 21
-359.8454591920591
 31
0.0
  0
LINE
  5
2C06
330
2F74
100
AcDbEntity
  8
0
 62
     0
100
AcDbLine
 10
149.2000000000007
 20
-356.8454926566437
 30
0.0
 11
155.1338768911264
 21
-360.8014004825282
 31
0.0
  0
LINE
  5
2C07
330
2F74
100
AcDbEntity
  8
0
 62
     0
100
AcDbLine
 10
155.1338768911264
 20
-360.8014004825282
 30
0.0
 11
365.0
 21
-500.711791956257
 31
0.0
  0
LINE
  5
2C08
330
2F74
100
AcDbEntity
  8
0
 62
     0
100
AcDbLine
 10
-135.5668665914581
 20
-167.0013997017777
 30
0.0
 11
149.2000000000007
 21
-356.8454926566437
 31
0.0
  0
LINE
  5
2C09
330
2F74
100
AcDbEntity
  8
0
 62
     0
100
AcDbLine
 10
149.2000000000007
 20
-353.8455261212275
 30
0.0
 11
159.6338381850128
 21
-360.8014004825272
 31
0.0
  0
LINE
  5
2C0A
330
2F74
100
AcDbEntity
  8
0
 62
     0
100
AcDbLine
 10
159.6338381850128
 20
-360.8014004825272
 30
0.0
 11
364.9999999999982
 21
-497.7118254208399
 31
0.0
  0
LINE
  5
2C0B
330
2F74
100
AcDbEntity
  8
0
 62
     0
100
AcDbLine
 10
-131.0669052870398
 20
-167.001399708799
 30
0.0
 11
149.2000000000007
 21
-353.8455261212275
 31
0.0
  0
LINE
  5
2C0C
330
2F74
100
AcDbEntity
  8
0
 62
     0
100
AcDbLine
 10
149.2000000000007
 20
-350.8455595858122
 30
0.0
 11
164.1337994788991
 21
-360.8014004825291
 31
0.0
  0
LINE
  5
2C0D
330
2F74
100
AcDbEntity
  8
0
 62
     0
100
AcDbLine
 10
164.1337994788991
 20
-360.8014004825291
 30
0.0
 11
365.0
 21
-494.7118588854245
 31
0.0
  0
LINE
  5
2C0E
330
2F74
100
AcDbEntity
  8
0
 62
     0
100
AcDbLine
 10
-126.5669439826288
 20
-167.0013997158176
 30
0.0
 11
149.2000000000007
 21
-350.8455595858122
 31
0.0
  0
LINE
  5
2C0F
330
2F74
100
AcDbEntity
  8
0
 62
     0
100
AcDbLine
 10
149.2000000000007
 20
-347.8455930503951
 30
0.0
 11
168.6337607727819
 21
-360.8014004825272
 31
0.0
  0
LINE
  5
2C10
330
2F74
100
AcDbEntity
  8
0
 62
     0
100
AcDbLine
 10
168.6337607727819
 20
-360.8014004825272
 30
0.0
 11
364.9999999999982
 21
-491.7118923500074
 31
0.0
  0
LINE
  5
2C11
330
2F74
100
AcDbEntity
  8
0
 62
     0
100
AcDbLine
 10
-122.0669826782141
 20
-167.0013997228352
 30
0.0
 11
149.2000000000007
 21
-347.8455930503951
 31
0.0
  0
LINE
  5
2C12
330
2F74
100
AcDbEntity
  8
0
 62
     0
100
AcDbLine
 10
149.2000000000007
 20
-344.8456265149797
 30
0.0
 11
173.1337220666683
 21
-360.8014004825282
 31
0.0
  0
LINE
  5
2C13
330
2F74
100
AcDbEntity
  8
0
 62
     0
100
AcDbLine
 10
173.1337220666683
 20
-360.8014004825282
 30
0.0
 11
365.0
 21
-488.7119258145927
 31
0.0
  0
LINE
  5
2C14
330
2F74
100
AcDbEntity
  8
0
 62
     0
100
AcDbLine
 10
-117.5670213738031
 20
-167.0013997298538
 30
0.0
 11
149.2000000000007
 21
-344.8456265149797
 31
0.0
  0
LINE
  5
2C15
330
2F74
100
AcDbEntity
  8
0
 62
     0
100
AcDbLine
 10
149.2000000000007
 20
-341.8456599795627
 30
0.0
 11
177.6336833605546
 21
-360.8014004825282
 31
0.0
  0
LINE
  5
2C16
330
2F74
100
AcDbEntity
  8
0
 62
     0
100
AcDbLine
 10
177.6336833605546
 20
-360.8014004825282
 30
0.0
 11
364.9999999999982
 21
-485.7119592791759
 31
0.0
  0
LINE
  5
2C17
330
2F74
100
AcDbEntity
  8
0
 62
     0
100
AcDbLine
 10
-113.0670600693884
 20
-167.0013997368733
 30
0.0
 11
149.2000000000007
 21
-341.8456599795627
 31
0.0
  0
LINE
  5
2C18
330
2F74
100
AcDbEntity
  8
0
 62
     0
100
AcDbLine
 10
149.2000000000007
 20
-338.8456934441474
 30
0.0
 11
182.1336446544373
 21
-360.8014004825272
 31
0.0
  0
LINE
  5
2C19
330
2F74
100
AcDbEntity
  8
0
 62
     0
100
AcDbLine
 10
182.1336446544373
 20
-360.8014004825272
 30
0.0
 11
365.0
 21
-482.7119927437606
 31
0.0
  0
LINE
  5
2C1A
330
2F74
100
AcDbEntity
  8
0
 62
     0
100
AcDbLine
 10
-108.5670987649737
 20
-167.0013997438926
 30
0.0
 11
149.2000000000007
 21
-338.8456934441474
 31
0.0
  0
LINE
  5
2C1B
330
2F74
100
AcDbEntity
  8
0
 62
     0
100
AcDbLine
 10
149.2000000000024
 20
-335.8457269087312
 30
0.0
 11
186.6336059483255
 21
-360.8014004825272
 31
0.0
  0
LINE
  5
2C1C
330
2F74
100
AcDbEntity
  8
0
 62
     0
100
AcDbLine
 10
186.6336059483255
 20
-360.8014004825272
 30
0.0
 11
365.0
 21
-479.7120262083435
 31
0.0
  0
LINE
  5
2C1D
330
2F74
100
AcDbEntity
  8
0
 62
     0
100
AcDbLine
 10
-104.0671374605608
 20
-167.0013997509104
 30
0.0
 11
149.2000000000024
 21
-335.8457269087312
 31
0.0
  0
LINE
  5
2C1E
330
2F74
100
AcDbEntity
  8
0
 62
     0
100
AcDbLine
 10
149.2000000000007
 20
-332.8457603733149
 30
0.0
 11
191.1335672422064
 21
-360.8014004825264
 31
0.0
  0
LINE
  5
2C1F
330
2F74
100
AcDbEntity
  8
0
 62
     0
100
AcDbLine
 10
191.1335672422064
 20
-360.8014004825264
 30
0.0
 11
365.0
 21
-476.7120596729283
 31
0.0
  0
LINE
  5
2C20
330
2F74
100
AcDbEntity
  8
0
 62
     0
100
AcDbLine
 10
-99.56717615614616
 20
-167.0013997579299
 30
0.0
 11
149.2000000000007
 21
-332.8457603733149
 31
0.0
  0
LINE
  5
2C21
330
2F74
100
AcDbEntity
  8
0
 62
     0
100
AcDbLine
 10
149.2000000000007
 20
-329.8457938378979
 30
0.0
 11
195.6335285360983
 21
-360.8014004825282
 31
0.0
  0
LINE
  5
2C22
330
2F74
100
AcDbEntity
  8
0
 62
     0
100
AcDbLine
 10
195.6335285360983
 20
-360.8014004825282
 30
0.0
 11
364.9999999999982
 21
-473.7120931375111
 31
0.0
  0
LINE
  5
2C23
330
2F74
100
AcDbEntity
  8
0
 62
     0
100
AcDbLine
 10
-95.06721485173512
 20
-167.0013997649466
 30
0.0
 11
149.2000000000007
 21
-329.8457938378979
 31
0.0
  0
LINE
  5
2C24
330
2F74
100
AcDbEntity
  8
0
 62
     0
100
AcDbLine
 10
149.2000000000007
 20
-326.8458273024826
 30
0.0
 11
200.1334898299792
 21
-360.8014004825282
 31
0.0
  0
LINE
  5
2C25
330
2F74
100
AcDbEntity
  8
0
 62
     0
100
AcDbLine
 10
200.1334898299792
 20
-360.8014004825282
 30
0.0
 11
364.9999999999982
 21
-470.7121266020957
 31
0.0
  0
LINE
  5
2C26
330
2F74
100
AcDbEntity
  8
0
 62
     0
100
AcDbLine
 10
-90.56725354732224
 20
-167.001399771967
 30
0.0
 11
149.2000000000007
 21
-326.8458273024826
 31
0.0
  0
LINE
  5
2C27
330
2F74
100
AcDbEntity
  8
0
 62
     0
100
AcDbLine
 10
149.2000000000007
 20
-323.8458607670664
 30
0.0
 11
204.6334511238674
 21
-360.8014004825272
 31
0.0
  0
LINE
  5
2C28
330
2F74
100
AcDbEntity
  8
0
 62
     0
100
AcDbLine
 10
204.6334511238674
 20
-360.8014004825272
 30
0.0
 11
364.9999999999982
 21
-467.7121600666786
 31
0.0
  0
LINE
  5
2C29
330
2F74
100
AcDbEntity
  8
0
 62
     0
100
AcDbLine
 10
-86.06729224290573
 20
-167.0013997789856
 30
0.0
 11
149.2000000000007
 21
-323.8458607670664
 31
0.0
  0
LINE
  5
2C2A
330
2F74
100
AcDbEntity
  8
0
 62
     0
100
AcDbLine
 10
149.2000000000024
 20
-320.8458942316493
 30
0.0
 11
209.1334124177501
 21
-360.8014004825254
 31
0.0
  0
LINE
  5
2C2B
330
2F74
100
AcDbEntity
  8
0
 62
     0
100
AcDbLine
 10
209.1334124177538
 20
-360.8014004825272
 30
0.0
 11
365.0
 21
-464.7121935312616
 31
0.0
  0
LINE
  5
2C2C
330
2F74
100
AcDbEntity
  8
0
 62
     0
100
AcDbLine
 10
-81.56733093849288
 20
-167.0013997860023
 30
0.0
 11
149.2000000000024
 21
-320.8458942316493
 31
0.0
  0
LINE
  5
2C2D
330
2F74
100
AcDbEntity
  8
0
 62
     0
100
AcDbLine
 10
149.2000000000007
 20
-317.8459276962337
 30
0.0
 11
213.6333737116383
 21
-360.8014004825291
 31
0.0
  0
LINE
  5
2C2E
330
2F74
100
AcDbEntity
  8
0
 62
     0
100
AcDbLine
 10
213.6333737116383
 20
-360.8014004825291
 30
0.0
 11
364.9999999999982
 21
-461.7122269958463
 31
0.0
  0
LINE
  5
2C2F
330
2F74
100
AcDbEntity
  8
0
 62
     0
100
AcDbLine
 10
-77.0673696340782
 20
-167.0013997930227
 30
0.0
 11
149.2000000000007
 21
-317.8459276962337
 31
0.0
  0
LINE
  5
2C30
330
2F74
100
AcDbEntity
  8
0
 62
     0
100
AcDbLine
 10
149.2000000000024
 20
-314.8459611608168
 30
0.0
 11
218.1333350055229
 21
-360.8014004825264
 31
0.0
  0
LINE
  5
2C31
330
2F74
100
AcDbEntity
  8
0
 62
     0
100
AcDbLine
 10
218.1333350055229
 20
-360.8014004825264
 30
0.0
 11
365.0
 21
-458.7122604604298
 31
0.0
  0
LINE
  5
2C32
330
2F74
100
AcDbEntity
  8
0
 62
     0
100
AcDbLine
 10
-72.56740832966716
 20
-167.0013998000395
 30
0.0
 11
149.2000000000024
 21
-314.8459611608168
 31
0.0
  0
LINE
  5
2C33
330
2F74
100
AcDbEntity
  8
0
 62
     0
100
AcDbLine
 10
149.1999999999989
 20
-311.8459946254006
 30
0.0
 11
222.6332962994093
 21
-360.8014004825282
 31
0.0
  0
LINE
  5
2C34
330
2F74
100
AcDbEntity
  8
0
 62
     0
100
AcDbLine
 10
222.6332962994093
 20
-360.8014004825282
 30
0.0
 11
364.9999999999982
 21
-455.7122939250148
 31
0.0
  0
LINE
  5
2C35
330
2F74
100
AcDbEntity
  8
0
 62
     0
100
AcDbLine
 10
-68.06744702525064
 20
-167.0013998070617
 30
0.0
 11
149.1999999999989
 21
-311.8459946254006
 31
0.0
  0
LINE
  5
2C36
330
2F74
100
AcDbEntity
  8
0
 62
     0
100
AcDbLine
 10
149.2000000000024
 20
-308.8460280899854
 30
0.0
 11
227.1332575932957
 21
-360.8014004825282
 31
0.0
  0
LINE
  5
2C37
330
2F74
100
AcDbEntity
  8
0
 62
     0
100
AcDbLine
 10
227.1332575932957
 20
-360.8014004825282
 30
0.0
 11
365.0
 21
-452.7123273895977
 31
0.0
  0
LINE
  5
2C38
330
2F74
100
AcDbEntity
  8
0
 62
     0
100
AcDbLine
 10
-63.56748572083779
 20
-167.0013998140775
 30
0.0
 11
149.2000000000024
 21
-308.8460280899854
 31
0.0
  0
LINE
  5
2C39
330
2F74
100
AcDbEntity
  8
0
 62
     0
100
AcDbLine
 10
149.2000000000007
 20
-305.8460615545691
 30
0.0
 11
231.633218887182
 21
-360.8014004825291
 31
0.0
  0
LINE
  5
2C3A
330
2F74
100
AcDbEntity
  8
0
 62
     0
100
AcDbLine
 10
231.633218887182
 20
-360.8014004825291
 30
0.0
 11
365.0
 21
-449.7123608541823
 31
0.0
  0
LINE
  5
2C3B
330
2F74
100
AcDbEntity
  8
0
 62
     0
100
AcDbLine
 10
-59.06752441642311
 20
-167.0013998210988
 30
0.0
 11
149.2000000000007
 21
-305.8460615545691
 31
0.0
  0
LINE
  5
2C3C
330
2F74
100
AcDbEntity
  8
0
 62
     0
100
AcDbLine
 10
149.2000000000007
 20
-302.846095019152
 30
0.0
 11
236.1331801810647
 21
-360.8014004825272
 31
0.0
  0
LINE
  5
2C3D
330
2F74
100
AcDbEntity
  8
0
 62
     0
100
AcDbLine
 10
236.1331801810647
 20
-360.8014004825272
 30
0.0
 11
364.9999999999982
 21
-446.7123943187643
 31
0.0
  0
LINE
  5
2C3E
330
2F74
100
AcDbEntity
  8
0
 62
     0
100
AcDbLine
 10
-54.56756311201025
 20
-167.0013998281156
 30
0.0
 11
149.2000000000007
 21
-302.846095019152
 31
0.0
  0
LINE
  5
2C3F
330
2F74
100
AcDbEntity
  8
0
 62
     0
100
AcDbLine
 10
149.2000000000007
 20
-299.8461284837368
 30
0.0
 11
240.633141474953
 21
-360.8014004825282
 31
0.0
  0
LINE
  5
2C40
330
2F74
100
AcDbEntity
  8
0
 62
     0
100
AcDbLine
 10
240.633141474953
 20
-360.8014004825282
 30
0.0
 11
365.0
 21
-443.7124277833491
 31
0.0
  0
LINE
  5
2C41
330
2F74
100
AcDbEntity
  8
0
 62
     0
100
AcDbLine
 10
-50.0676018075992
 20
-167.0013998351342
 30
0.0
 11
149.2000000000007
 21
-299.8461284837368
 31
0.0
  0
LINE
  5
2C42
330
2F74
100
AcDbEntity
  8
0
 62
     0
100
AcDbLine
 10
149.2000000000007
 20
-296.8461619483196
 30
0.0
 11
245.1331027688375
 21
-360.8014004825282
 31
0.0
  0
LINE
  5
2C43
330
2F74
100
AcDbEntity
  8
0
 62
     0
100
AcDbLine
 10
245.1331027688375
 20
-360.8014004825282
 30
0.0
 11
364.9999999999982
 21
-440.7124612479329
 31
0.0
  0
LINE
  5
2C44
330
2F74
100
AcDbEntity
  8
0
 62
     0
100
AcDbLine
 10
-45.5676405031827
 20
-167.0013998421545
 30
0.0
 11
149.2000000000007
 21
-296.8461619483196
 31
0.0
  0
LINE
  5
2C45
330
2F74
100
AcDbEntity
  8
0
 62
     0
100
AcDbLine
 10
149.2000000000007
 20
-293.8461954129043
 30
0.0
 11
249.633064062722
 21
-360.8014004825272
 31
0.0
  0
LINE
  5
2C46
330
2F74
100
AcDbEntity
  8
0
 62
     0
100
AcDbLine
 10
249.633064062722
 20
-360.8014004825272
 30
0.0
 11
365.0
 21
-437.7124947125174
 31
0.0
  0
LINE
  5
2C47
330
2F74
100
AcDbEntity
  8
0
 62
     0
100
AcDbLine
 10
-41.06767919876981
 20
-167.0013998491722
 30
0.0
 11
149.2000000000007
 21
-293.8461954129043
 31
0.0
  0
LINE
  5
2C48
330
2F74
100
AcDbEntity
  8
0
 62
     0
100
AcDbLine
 10
149.2000000000007
 20
-290.8462288774881
 30
0.0
 11
254.1330253566066
 21
-360.8014004825272
 31
0.0
  0
LINE
  5
2C49
330
2F74
100
AcDbEntity
  8
0
 62
     0
100
AcDbLine
 10
254.1330253566066
 20
-360.8014004825272
 30
0.0
 11
364.9999999999982
 21
-434.7125281771003
 31
0.0
  0
LINE
  5
2C4A
330
2F74
100
AcDbEntity
  8
0
 62
     0
100
AcDbLine
 10
-36.56771789435516
 20
-167.0013998561917
 30
0.0
 11
149.1999999999989
 21
-290.8462288774872
 31
0.0
  0
LINE
  5
2C4B
330
2F74
100
AcDbEntity
  8
0
 62
     0
100
AcDbLine
 10
149.2000000000007
 20
-287.8462623420728
 30
0.0
 11
258.6329866504911
 21
-360.8014004825272
 31
0.0
  0
LINE
  5
2C4C
330
2F74
100
AcDbEntity
  8
0
 62
     0
100
AcDbLine
 10
258.6329866504948
 20
-360.8014004825291
 30
0.0
 11
365.0
 21
-431.7125616416851
 31
0.0
  0
LINE
  5
2C4D
330
2F74
100
AcDbEntity
  8
0
 62
     0
100
AcDbLine
 10
-32.06775658994411
 20
-167.0013998632093
 30
0.0
 11
149.2000000000007
 21
-287.8462623420719
 31
0.0
  0
LINE
  5
2C4E
330
2F74
100
AcDbEntity
  8
0
 62
     0
100
AcDbLine
 10
149.2000000000007
 20
-284.8462958066548
 30
0.0
 11
263.1329479443812
 21
-360.8014004825282
 31
0.0
  0
LINE
  5
2C4F
330
2F74
100
AcDbEntity
  8
0
 62
     0
100
AcDbLine
 10
263.1329479443812
 20
-360.8014004825282
 30
0.0
 11
365.0
 21
-428.7125951062679
 31
0.0
  0
LINE
  5
2C50
330
2F74
100
AcDbEntity
  8
0
 62
     0
100
AcDbLine
 10
-27.56779528552761
 20
-167.0013998702288
 30
0.0
 11
149.2000000000007
 21
-284.8462958066548
 31
0.0
  0
LINE
  5
2C51
330
2F74
100
AcDbEntity
  8
0
 62
     0
100
AcDbLine
 10
149.2000000000007
 20
-281.8463292712386
 30
0.0
 11
267.6329092382639
 21
-360.8014004825264
 31
0.0
  0
LINE
  5
2C52
330
2F74
100
AcDbEntity
  8
0
 62
     0
100
AcDbLine
 10
267.6329092382639
 20
-360.8014004825264
 30
0.0
 11
365.0
 21
-425.7126285708515
 31
0.0
  0
LINE
  5
2C53
330
2F74
100
AcDbEntity
  8
0
 62
     0
100
AcDbLine
 10
-23.06783398111475
 20
-167.0013998772474
 30
0.0
 11
149.2000000000007
 21
-281.8463292712376
 31
0.0
  0
LINE
  5
2C54
330
2F74
100
AcDbEntity
  8
0
 62
     0
100
AcDbLine
 10
149.2000000000007
 20
-278.8463627358224
 30
0.0
 11
272.1328705321503
 21
-360.8014004825282
 31
0.0
  0
LINE
  5
2C55
330
2F74
100
AcDbEntity
  8
0
 62
     0
100
AcDbLine
 10
272.1328705321503
 20
-360.8014004825282
 30
0.0
 11
365.0
 21
-422.7126620354365
 31
0.0
  0
LINE
  5
2C56
330
2F74
100
AcDbEntity
  8
0
 62
     0
100
AcDbLine
 10
-18.56787267670188
 20
-167.0013998842651
 30
0.0
 11
149.2000000000007
 21
-278.8463627358224
 31
0.0
  0
LINE
  5
2C57
330
2F74
100
AcDbEntity
  8
0
 62
     0
100
AcDbLine
 10
149.2000000000007
 20
-275.8463962004063
 30
0.0
 11
276.6328318260348
 21
-360.8014004825272
 31
0.0
  0
LINE
  5
2C58
330
2F74
100
AcDbEntity
  8
0
 62
     0
100
AcDbLine
 10
276.6328318260348
 20
-360.8014004825272
 30
0.0
 11
364.9999999999982
 21
-419.7126955000184
 31
0.0
  0
LINE
  5
2C59
330
2F74
100
AcDbEntity
  8
0
 62
     0
100
AcDbLine
 10
-14.06791137228902
 20
-167.0013998912836
 30
0.0
 11
149.2000000000007
 21
-275.8463962004063
 31
0.0
  0
LINE
  5
2C5A
330
2F74
100
AcDbEntity
  8
0
 62
     0
100
AcDbLine
 10
149.2000000000007
 20
-272.8464296649909
 30
0.0
 11
281.132793119923
 21
-360.8014004825291
 31
0.0
  0
LINE
  5
2C5B
330
2F74
100
AcDbEntity
  8
0
 62
     0
100
AcDbLine
 10
281.132793119923
 20
-360.8014004825291
 30
0.0
 11
364.9999999999982
 21
-416.7127289646031
 31
0.0
  0
LINE
  5
2C5C
330
2F74
100
AcDbEntity
  8
0
 62
     0
100
AcDbLine
 10
-9.567950067876154
 20
-167.0013998983022
 30
0.0
 11
149.2000000000007
 21
-272.8464296649909
 31
0.0
  0
LINE
  5
2C5D
330
2F74
100
AcDbEntity
  8
0
 62
     0
100
AcDbLine
 10
149.2000000000024
 20
-269.8464631295737
 30
0.0
 11
285.6327544138076
 21
-360.8014004825264
 31
0.0
  0
LINE
  5
2C5E
330
2F74
100
AcDbEntity
  8
0
 62
     0
100
AcDbLine
 10
285.6327544138076
 20
-360.8014004825264
 30
0.0
 11
365.0
 21
-413.7127624291861
 31
0.0
  0
LINE
  5
2C5F
330
2F74
100
AcDbEntity
  8
0
 62
     0
100
AcDbLine
 10
-5.06798876345783
 20
-167.0013999053226
 30
0.0
 11
149.2000000000024
 21
-269.8464631295737
 31
0.0
  0
LINE
  5
2C60
330
2F74
100
AcDbEntity
  8
0
 62
     0
100
AcDbLine
 10
149.2000000000007
 20
-266.8464965941585
 30
0.0
 11
290.132715707692
 21
-360.8014004825282
 31
0.0
  0
LINE
  5
2C61
330
2F74
100
AcDbEntity
  8
0
 62
     0
100
AcDbLine
 10
290.132715707692
 20
-360.8014004825282
 30
0.0
 11
364.9999999999982
 21
-410.7127958937716
 31
0.0
  0
LINE
  5
2C62
330
2F74
100
AcDbEntity
  8
0
 62
     0
100
AcDbLine
 10
-0.5680274590467889
 20
-167.0013999123421
 30
0.0
 11
149.2000000000007
 21
-266.8464965941585
 31
0.0
  0
LINE
  5
2C63
330
2F74
100
AcDbEntity
  8
0
 62
     0
100
AcDbLine
 10
149.2000000000024
 20
-263.8465300587413
 30
0.0
 11
294.6326770015785
 21
-360.8014004825282
 31
0.0
  0
LINE
  5
2C64
330
2F74
100
AcDbEntity
  8
0
 62
     0
100
AcDbLine
 10
294.6326770015785
 20
-360.8014004825282
 30
0.0
 11
365.0
 21
-407.7128293583546
 31
0.0
  0
LINE
  5
2C65
330
2F74
100
AcDbEntity
  8
0
 62
     0
100
AcDbLine
 10
3.931933845367892
 20
-167.0013999193596
 30
0.0
 11
149.2000000000007
 21
-263.8465300587404
 31
0.0
  0
LINE
  5
2C66
330
2F74
100
AcDbEntity
  8
0
 62
     0
100
AcDbLine
 10
149.2000000000007
 20
-260.8465635233269
 30
0.0
 11
299.1326382954612
 21
-360.8014004825272
 31
0.0
  0
LINE
  5
2C67
330
2F74
100
AcDbEntity
  8
0
 62
     0
100
AcDbLine
 10
299.1326382954612
 20
-360.8014004825272
 30
0.0
 11
364.9999999999982
 21
-404.7128628229391
 31
0.0
  0
LINE
  5
2C68
330
2F74
100
AcDbEntity
  8
0
 62
     0
100
AcDbLine
 10
8.431895149778936
 20
-167.0013999263783
 30
0.0
 11
149.1999999999989
 21
-260.8465635233251
 31
0.0
  0
LINE
  5
2C69
330
2F74
100
AcDbEntity
  8
0
 62
     0
100
AcDbLine
 10
149.2000000000007
 20
-257.8465969879089
 30
0.0
 11
303.6325995893494
 21
-360.8014004825272
 31
0.0
  0
LINE
  5
2C6A
330
2F74
100
AcDbEntity
  8
0
 62
     0
100
AcDbLine
 10
303.6325995893494
 20
-360.8014004825272
 30
0.0
 11
365.0
 21
-401.712896287522
 31
0.0
  0
LINE
  5
2C6B
330
2F74
100
AcDbEntity
  8
0
 62
     0
100
AcDbLine
 10
12.93185645419544
 20
-167.0013999333969
 30
0.0
 11
149.2000000000007
 21
-257.8465969879089
 31
0.0
  0
LINE
  5
2C6C
330
2F74
100
AcDbEntity
  8
0
 62
     0
100
AcDbLine
 10
149.2000000000007
 20
-254.8466304524946
 30
0.0
 11
308.1325608832304
 21
-360.8014004825264
 31
0.0
  0
LINE
  5
2C6D
330
2F74
100
AcDbEntity
  8
0
 62
     0
100
AcDbLine
 10
308.132560883234
 20
-360.8014004825282
 30
0.0
 11
364.9999999999982
 21
-398.7129297521068
 31
0.0
  0
LINE
  5
2C6E
330
2F74
100
AcDbEntity
  8
0
 62
     0
100
AcDbLine
 10
17.4318177586083
 20
-167.0013999404173
 30
0.0
 11
149.1999999999989
 21
-254.8466304524936
 31
0.0
  0
LINE
  5
2C6F
330
2F74
100
AcDbEntity
  8
0
 62
     0
100
AcDbLine
 10
149.2000000000007
 20
-251.8466639170764
 30
0.0
 11
312.6325221771204
 21
-360.8014004825282
 31
0.0
  0
LINE
  5
2C70
330
2F74
100
AcDbEntity
  8
0
 62
     0
100
AcDbLine
 10
312.6325221771204
 20
-360.8014004825282
 30
0.0
 11
365.0
 21
-395.7129632166907
 31
0.0
  0
LINE
  5
2C71
330
2F74
100
AcDbEntity
  8
0
 62
     0
100
AcDbLine
 10
21.93177906302117
 20
-167.0013999474331
 30
0.0
 11
149.2000000000007
 21
-251.8466639170764
 31
0.0
  0
LINE
  5
2C72
330
2F74
100
AcDbEntity
  8
0
 62
     0
100
AcDbLine
 10
149.2000000000007
 20
-248.8466973816612
 30
0.0
 11
317.1324834710049
 21
-360.8014004825272
 31
0.0
  0
LINE
  5
2C73
330
2F74
100
AcDbEntity
  8
0
 62
     0
100
AcDbLine
 10
317.1324834710049
 20
-360.8014004825272
 30
0.0
 11
365.0
 21
-392.7129966812745
 31
0.0
  0
LINE
  5
2C74
330
2F74
100
AcDbEntity
  8
0
 62
     0
100
AcDbLine
 10
26.43174036743767
 20
-167.0013999544544
 30
0.0
 11
149.2000000000007
 21
-248.8466973816612
 31
0.0
  0
LINE
  5
2C75
330
2F74
100
AcDbEntity
  8
0
 62
     0
100
AcDbLine
 10
149.2000000000007
 20
-245.846730846245
 30
0.0
 11
321.6324447648913
 21
-360.8014004825272
 31
0.0
  0
LINE
  5
2C76
330
2F74
100
AcDbEntity
  8
0
 62
     0
100
AcDbLine
 10
321.6324447648913
 20
-360.8014004825272
 30
0.0
 11
364.9999999999982
 21
-389.7130301458574
 31
0.0
  0
LINE
  5
2C77
330
2F74
100
AcDbEntity
  8
0
 62
     0
100
AcDbLine
 10
30.9317016718469
 20
-167.0013999614712
 30
0.0
 11
149.2000000000007
 21
-245.846730846245
 31
0.0
  0
LINE
  5
2C78
330
2F74
100
AcDbEntity
  8
0
 62
     0
100
AcDbLine
 10
149.2000000000007
 20
-242.8467643108297
 30
0.0
 11
326.132406058774
 21
-360.8014004825272
 31
0.0
  0
LINE
  5
2C79
330
2F74
100
AcDbEntity
  8
0
 62
     0
100
AcDbLine
 10
326.1324060587776
 20
-360.8014004825291
 30
0.0
 11
365.0
 21
-386.713063610442
 31
0.0
  0
LINE
  5
2C7A
330
2F74
100
AcDbEntity
  8
0
 62
     0
100
AcDbLine
 10
35.43166297626158
 20
-167.0013999684906
 30
0.0
 11
149.2000000000007
 21
-242.8467643108297
 31
0.0
  0
LINE
  5
2C7B
330
2F74
100
AcDbEntity
  8
0
 62
     0
100
AcDbLine
 10
149.2000000000007
 20
-239.8467977754126
 30
0.0
 11
330.6323673526622
 21
-360.8014004825282
 31
0.0
  0
LINE
  5
2C7C
330
2F74
100
AcDbEntity
  8
0
 62
     0
100
AcDbLine
 10
330.6323673526622
 20
-360.8014004825282
 30
0.0
 11
364.9999999999982
 21
-383.713097075025
 31
0.0
  0
LINE
  5
2C7D
330
2F74
100
AcDbEntity
  8
0
 62
     0
100
AcDbLine
 10
39.93162428067626
 20
-167.0013999755101
 30
0.0
 11
149.2000000000007
 21
-239.8467977754126
 31
0.0
  0
LINE
  5
2C7E
330
2F74
100
AcDbEntity
  8
0
 62
     0
100
AcDbLine
 10
149.2000000000007
 20
-236.8468312399955
 30
0.0
 11
335.1323286465468
 21
-360.8014004825264
 31
0.0
  0
LINE
  5
2C7F
330
2F74
100
AcDbEntity
  8
0
 62
     0
100
AcDbLine
 10
335.1323286465468
 20
-360.8014004825264
 30
0.0
 11
365.0
 21
-380.7131305396079
 31
0.0
  0
LINE
  5
2C80
330
2F74
100
AcDbEntity
  8
0
 62
     0
100
AcDbLine
 10
44.43158558508912
 20
-167.001399982526
 30
0.0
 11
149.1999999999989
 21
-236.8468312399946
 31
0.0
  0
LINE
  5
2C81
330
2F74
100
AcDbEntity
  8
0
 62
     0
100
AcDbLine
 10
149.2000000000024
 20
-233.8468647045802
 30
0.0
 11
339.6322899404331
 21
-360.8014004825282
 31
0.0
  0
LINE
  5
2C82
330
2F74
100
AcDbEntity
  8
0
 62
     0
100
AcDbLine
 10
339.6322899404331
 20
-360.8014004825282
 30
0.0
 11
365.0
 21
-377.7131640041935
 31
0.0
  0
LINE
  5
2C83
330
2F74
100
AcDbEntity
  8
0
 62
     0
100
AcDbLine
 10
48.93154688950563
 20
-167.0013999895473
 30
0.0
 11
149.2000000000007
 21
-233.8468647045793
 31
0.0
  0
LINE
  5
2C84
330
2F74
100
AcDbEntity
  8
0
 62
     0
100
AcDbLine
 10
149.2000000000007
 20
-230.8468981691621
 30
0.0
 11
344.1322512343195
 21
-360.8014004825272
 31
0.0
  0
LINE
  5
2C85
330
2F74
100
AcDbEntity
  8
0
 62
     0
100
AcDbLine
 10
344.1322512343195
 20
-360.8014004825272
 30
0.0
 11
365.0
 21
-374.7131974687762
 31
0.0
  0
LINE
  5
2C86
330
2F74
100
AcDbEntity
  8
0
 62
     0
100
AcDbLine
 10
53.43150819391849
 20
-167.0013999965658
 30
0.0
 11
149.2000000000007
 21
-230.8468981691621
 31
0.0
  0
LINE
  5
2C87
330
2F74
100
AcDbEntity
  8
0
 62
     0
100
AcDbLine
 10
149.2000000000007
 20
-227.8469316337478
 30
0.0
 11
348.6322125282058
 21
-360.8014004825291
 31
0.0
  0
LINE
  5
2C88
330
2F74
100
AcDbEntity
  8
0
 62
     0
100
AcDbLine
 10
348.6322125282058
 20
-360.8014004825291
 30
0.0
 11
365.0
 21
-371.7132309333611
 31
0.0
  0
LINE
  5
2C89
330
2F74
100
AcDbEntity
  8
0
 62
     0
100
AcDbLine
 10
57.93146949833317
 20
-167.0014000035853
 30
0.0
 11
149.2000000000007
 21
-227.8469316337478
 31
0.0
  0
LINE
  5
2C8A
330
2F74
100
AcDbEntity
  8
0
 62
     0
100
AcDbLine
 10
149.2000000000007
 20
-224.8469650983306
 30
0.0
 11
353.1321738220885
 21
-360.8014004825264
 31
0.0
  0
LINE
  5
2C8B
330
2F74
100
AcDbEntity
  8
0
 62
     0
100
AcDbLine
 10
353.1321738220885
 20
-360.8014004825264
 30
0.0
 11
365.0
 21
-368.7132643979439
 31
0.0
  0
LINE
  5
2C8C
330
2F74
100
AcDbEntity
  8
0
 62
     0
100
AcDbLine
 10
62.4314308027424
 20
-167.0014000106021
 30
0.0
 11
149.2000000000007
 21
-224.8469650983306
 31
0.0
  0
LINE
  5
2C8D
330
2F74
100
AcDbEntity
  8
0
 62
     0
100
AcDbLine
 10
149.2000000000007
 20
-221.8469985629154
 30
0.0
 11
357.632135115975
 21
-360.8014004825282
 31
0.0
  0
LINE
  5
2C8E
330
2F74
100
AcDbEntity
  8
0
 62
     0
100
AcDbLine
 10
357.632135115975
 20
-360.8014004825282
 30
0.0
 11
365.0
 21
-365.7132978625285
 31
0.0
  0
LINE
  5
2C8F
330
2F74
100
AcDbEntity
  8
0
 62
     0
100
AcDbLine
 10
66.9313921071589
 20
-167.0014000176234
 30
0.0
 11
149.2000000000007
 21
-221.8469985629154
 31
0.0
  0
LINE
  5
2C90
330
2F74
100
AcDbEntity
  8
0
 62
     0
100
AcDbLine
 10
149.2000000000007
 20
-218.8470320274984
 30
0.0
 11
362.1320964098612
 21
-360.8014004825282
 31
0.0
  0
LINE
  5
2C91
330
2F74
100
AcDbEntity
  8
0
 62
     0
100
AcDbLine
 10
362.1320964098612
 20
-360.8014004825282
 30
0.0
 11
365.0
 21
-362.7133313271124
 31
0.0
  0
LINE
  5
2C92
330
2F74
100
AcDbEntity
  8
0
 62
     0
100
AcDbLine
 10
71.43135341156995
 20
-167.0014000246392
 30
0.0
 11
149.2000000000007
 21
-218.8470320274984
 31
0.0
  0
LINE
  5
2C93
330
2F74
100
AcDbEntity
  8
0
 62
     0
100
AcDbLine
 10
149.2000000000007
 20
-215.8470654920829
 30
0.0
 11
365.0000000000036
 21
-359.713364791699
 31
0.0
  0
LINE
  5
2C94
330
2F74
100
AcDbEntity
  8
0
 62
     0
100
AcDbLine
 10
75.93131471598643
 20
-167.0014000316604
 30
0.0
 11
149.2000000000007
 21
-215.8470654920829
 31
0.0
  0
LINE
  5
2C95
330
2F74
100
AcDbEntity
  8
0
 62
     0
100
AcDbLine
 10
149.2000000000024
 20
-212.8470989566667
 30
0.0
 11
365.0000000000036
 21
-356.7133982562816
 31
0.0
  0
LINE
  5
2C96
330
2F74
100
AcDbEntity
  8
0
 62
     0
100
AcDbLine
 10
80.43127602040113
 20
-167.0014000386782
 30
0.0
 11
149.2000000000024
 21
-212.8470989566667
 31
0.0
  0
LINE
  5
2C97
330
2F74
100
AcDbEntity
  8
0
 62
     0
100
AcDbLine
 10
149.2000000000007
 20
-209.8471324212515
 30
0.0
 11
365.0000000000036
 21
-353.7134317208674
 31
0.0
  0
LINE
  5
2C98
330
2F74
100
AcDbEntity
  8
0
 62
     0
100
AcDbLine
 10
84.93123732481034
 20
-167.0014000456967
 30
0.0
 11
149.1999999999989
 21
-209.8471324212504
 31
0.0
  0
LINE
  5
2C99
330
2F74
100
AcDbEntity
  8
0
 62
     0
100
AcDbLine
 10
149.2000000000024
 20
-206.8471658858343
 30
0.0
 11
365.0000000000036
 21
-350.7134651854503
 31
0.0
  0
LINE
  5
2C9A
330
2F74
100
AcDbEntity
  8
0
 62
     0
100
AcDbLine
 10
89.43119862922682
 20
-167.0014000527161
 30
0.0
 11
149.2000000000007
 21
-206.8471658858334
 31
0.0
  0
LINE
  5
2C9B
330
2F74
100
AcDbEntity
  8
0
 62
     0
100
AcDbLine
 10
149.1999999999989
 20
-203.8471993504181
 30
0.0
 11
365.0000000000036
 21
-347.7134986500349
 31
0.0
  0
LINE
  5
2C9C
330
2F74
100
AcDbEntity
  8
0
 62
     0
100
AcDbLine
 10
93.93115993363792
 20
-167.0014000597339
 30
0.0
 11
149.1999999999989
 21
-203.8471993504181
 31
0.0
  0
LINE
  5
2C9D
330
2F74
100
AcDbEntity
  8
0
 62
     0
100
AcDbLine
 10
149.2000000000007
 20
-200.847232815001
 30
0.0
 11
365.0000000000036
 21
-344.7135321146179
 31
0.0
  0
LINE
  5
2C9E
330
2F74
100
AcDbEntity
  8
0
 62
     0
100
AcDbLine
 10
98.43112123805259
 20
-167.0014000667524
 30
0.0
 11
149.2000000000007
 21
-200.847232815001
 31
0.0
  0
LINE
  5
2C9F
330
2F74
100
AcDbEntity
  8
0
 62
     0
100
AcDbLine
 10
149.2000000000007
 20
-197.8472662795848
 30
0.0
 11
365.0000000000036
 21
-341.7135655791999
 31
0.0
  0
LINE
  5
2CA0
330
2F74
100
AcDbEntity
  8
0
 62
     0
100
AcDbLine
 10
102.931082542469
 20
-167.001400073771
 30
0.0
 11
149.2000000000007
 21
-197.8472662795848
 31
0.0
  0
LINE
  5
2CA1
330
2F74
100
AcDbEntity
  8
0
 62
     0
100
AcDbLine
 10
149.2000000000007
 20
-194.8472997441695
 30
0.0
 11
365.0000000000036
 21
-338.7135990437864
 31
0.0
  0
LINE
  5
2CA2
330
2F74
100
AcDbEntity
  8
0
 62
     0
100
AcDbLine
 10
107.4310438468801
 20
-167.0014000807896
 30
0.0
 11
149.2000000000007
 21
-194.8472997441695
 31
0.0
  0
LINE
  5
2CA3
330
2F74
100
AcDbEntity
  8
0
 62
     0
100
AcDbLine
 10
149.2000000000007
 20
-191.8473332087524
 30
0.0
 11
365.0000000000036
 21
-335.7136325083684
 31
0.0
  0
LINE
  5
2CA4
330
2F74
100
AcDbEntity
  8
0
 62
     0
100
AcDbLine
 10
111.9310051512948
 20
-167.0014000878073
 30
0.0
 11
149.2000000000007
 21
-191.8473332087524
 31
0.0
  0
LINE
  5
2CA5
330
2F74
100
AcDbEntity
  8
0
 62
     0
100
AcDbLine
 10
149.2000000000007
 20
-188.8473666733371
 30
0.0
 11
365.0000000000036
 21
-332.7136659729531
 31
0.0
  0
LINE
  5
2CA6
330
2F74
100
AcDbEntity
  8
0
 62
     0
100
AcDbLine
 10
116.4309664557094
 20
-167.0014000948286
 30
0.0
 11
149.1999999999989
 21
-188.8473666733362
 31
0.0
  0
LINE
  5
2CA7
330
2F74
100
AcDbEntity
  8
0
 62
     0
100
AcDbLine
 10
149.2000000000007
 20
-185.84740013792
 30
0.0
 11
365.0000000000036
 21
-329.713699437536
 31
0.0
  0
LINE
  5
2CA8
330
2F74
100
AcDbEntity
  8
0
 62
     0
100
AcDbLine
 10
120.9309277601241
 20
-167.0014001018471
 30
0.0
 11
149.2000000000007
 21
-185.84740013792
 31
0.0
  0
LINE
  5
2CA9
330
2F74
100
AcDbEntity
  8
0
 62
     0
100
AcDbLine
 10
149.2000000000024
 20
-182.8474336025056
 30
0.0
 11
365.0000000000054
 21
-326.7137329021207
 31
0.0
  0
LINE
  5
2CAA
330
2F74
100
AcDbEntity
  8
0
 62
     0
100
AcDbLine
 10
125.430889064537
 20
-167.0014001088657
 30
0.0
 11
149.2000000000007
 21
-182.8474336025037
 31
0.0
  0
LINE
  5
2CAB
330
2F74
100
AcDbEntity
  8
0
 62
     0
100
AcDbLine
 10
149.1999999999989
 20
-179.8474670670875
 30
0.0
 11
365.0000000000036
 21
-323.7137663667036
 31
0.0
  0
LINE
  5
2CAC
330
2F74
100
AcDbEntity
  8
0
 62
     0
100
AcDbLine
 10
129.9308503689481
 20
-167.0014001158824
 30
0.0
 11
149.1999999999989
 21
-179.8474670670875
 31
0.0
  0
LINE
  5
2CAD
330
2F74
100
AcDbEntity
  8
0
 62
     0
100
AcDbLine
 10
149.2000000000007
 20
-176.8475005316721
 30
0.0
 11
365.0000000000054
 21
-320.7137998312892
 31
0.0
  0
LINE
  5
2CAE
330
2F74
100
AcDbEntity
  8
0
 62
     0
100
AcDbLine
 10
134.4308116733627
 20
-167.0014001229018
 30
0.0
 11
149.2000000000007
 21
-176.8475005316721
 31
0.0
  0
LINE
  5
2CAF
330
2F74
100
AcDbEntity
  8
0
 62
     0
100
AcDbLine
 10
149.1999999999989
 20
-173.8475339962551
 30
0.0
 11
365.0000000000036
 21
-317.7138332958721
 31
0.0
  0
LINE
  5
2CB0
330
2F74
100
AcDbEntity
  8
0
 62
     0
100
AcDbLine
 10
138.9307729777756
 20
-167.0014001299205
 30
0.0
 11
149.1999999999989
 21
-173.8475339962551
 31
0.0
  0
LINE
  5
2CB1
330
2F74
100
AcDbEntity
  8
0
 62
     0
100
AcDbLine
 10
149.2000000000007
 20
-170.8475674608398
 30
0.0
 11
365.0000000000036
 21
-314.7138667604559
 31
0.0
  0
LINE
  5
2CB2
330
2F74
100
AcDbEntity
  8
0
 62
     0
100
AcDbLine
 10
143.4307342821921
 20
-167.0014001369418
 30
0.0
 11
149.2000000000007
 21
-170.8475674608398
 31
0.0
  0
LINE
  5
2CB3
330
2F74
100
AcDbEntity
  8
0
 62
     0
100
AcDbLine
 10
149.2000000000007
 20
-167.8476009254227
 30
0.0
 11
365.0000000000036
 21
-311.7139002250397
 31
0.0
  0
LINE
  5
2CB4
330
2F74
100
AcDbEntity
  8
0
 62
     0
100
AcDbLine
 10
147.9306955866013
 20
-167.0014001439576
 30
0.0
 11
149.2000000000007
 21
-167.8476009254227
 31
0.0
  0
LINE
  5
2CB5
330
2F74
100
AcDbEntity
  8
0
 62
     0
100
AcDbLine
 10
152.4306573883459
 20
-167.0014004825298
 30
0.0
 11
365.0000000000036
 21
-308.7139336896234
 31
0.0
  0
LINE
  5
2CB6
330
2F74
100
AcDbEntity
  8
0
 62
     0
100
AcDbLine
 10
156.9306186822323
 20
-167.0014004825298
 30
0.0
 11
365.0000000000036
 21
-305.7139671542072
 31
0.0
  0
LINE
  5
2CB7
330
2F74
100
AcDbEntity
  8
0
 62
     0
100
AcDbLine
 10
161.430579976115
 20
-167.001400482527
 30
0.0
 11
365.0000000000036
 21
-302.7140006187901
 31
0.0
  0
LINE
  5
2CB8
330
2F74
100
AcDbEntity
  8
0
 62
     0
100
AcDbLine
 10
165.9305412700032
 20
-167.0014004825288
 30
0.0
 11
365.0000000000036
 21
-299.7140340833748
 31
0.0
  0
LINE
  5
2CB9
330
2F74
100
AcDbEntity
  8
0
 62
     0
100
AcDbLine
 10
170.4305025638878
 20
-167.001400482528
 30
0.0
 11
365.0000000000036
 21
-296.7140675479577
 31
0.0
  0
LINE
  5
2CBA
330
2F74
100
AcDbEntity
  8
0
 62
     0
100
AcDbLine
 10
174.930463857774
 20
-167.0014004825298
 30
0.0
 11
365.0000000000036
 21
-293.7141010125415
 31
0.0
  0
LINE
  5
2CBB
330
2F74
100
AcDbEntity
  8
0
 62
     0
100
AcDbLine
 10
179.4304251516587
 20
-167.001400482527
 30
0.0
 11
365.0000000000054
 21
-290.7141344771262
 31
0.0
  0
LINE
  5
2CBC
330
2F74
100
AcDbEntity
  8
0
 62
     0
100
AcDbLine
 10
183.9303864455451
 20
-167.0014004825288
 30
0.0
 11
365.0000000000036
 21
-287.71416794171
 31
0.0
  0
LINE
  5
2CBD
330
2F74
100
AcDbEntity
  8
0
 62
     0
100
AcDbLine
 10
188.4303477394314
 20
-167.0014004825288
 30
0.0
 11
365.0000000000036
 21
-284.7142014062929
 31
0.0
  0
LINE
  5
2CBE
330
2F74
100
AcDbEntity
  8
0
 62
     0
100
AcDbLine
 10
192.9303090333141
 20
-167.001400482528
 30
0.0
 11
365.0000000000036
 21
-281.7142348708776
 31
0.0
  0
LINE
  5
2CBF
330
2F74
100
AcDbEntity
  8
0
 62
     0
100
AcDbLine
 10
197.4302703272041
 20
-167.0014004825298
 30
0.0
 11
365.0000000000036
 21
-278.7142683354605
 31
0.0
  0
LINE
  5
2CC0
330
2F74
100
AcDbEntity
  8
0
 62
     0
100
AcDbLine
 10
201.9302316210851
 20
-167.0014004825298
 30
0.0
 11
365.0000000000036
 21
-275.7143018000452
 31
0.0
  0
LINE
  5
2CC1
330
2F74
100
AcDbEntity
  8
0
 62
     0
100
AcDbLine
 10
206.4301929149733
 20
-167.0014004825288
 30
0.0
 11
365.0000000000036
 21
-272.714335264629
 31
0.0
  0
LINE
  5
2CC2
330
2F74
100
AcDbEntity
  8
0
 62
     0
100
AcDbLine
 10
210.9301542088579
 20
-167.0014004825288
 30
0.0
 11
365.0000000000054
 21
-269.7143687292137
 31
0.0
  0
LINE
  5
2CC3
330
2F74
100
AcDbEntity
  8
0
 62
     0
100
AcDbLine
 10
215.430115502746
 20
-167.0014004825307
 30
0.0
 11
365.0000000000018
 21
-266.7144021937957
 31
0.0
  0
LINE
  5
2CC4
330
2F74
100
AcDbEntity
  8
0
 62
     0
100
AcDbLine
 10
219.9300767966288
 20
-167.001400482528
 30
0.0
 11
365.0000000000018
 21
-263.7144356583776
 31
0.0
  0
LINE
  5
2CC5
330
2F74
100
AcDbEntity
  8
0
 62
     0
100
AcDbLine
 10
224.4300380905151
 20
-167.0014004825298
 30
0.0
 11
365.0
 21
-260.7144691229614
 31
0.0
  0
LINE
  5
2CC6
330
2F74
100
AcDbEntity
  8
0
 62
     0
100
AcDbLine
 10
228.9299993843997
 20
-167.001400482527
 30
0.0
 11
365.0
 21
-257.7145025875443
 31
0.0
  0
LINE
  5
2CC7
330
2F74
100
AcDbEntity
  8
0
 62
     0
100
AcDbLine
 10
233.4299606782861
 20
-167.0014004825288
 30
0.0
 11
365.0000000000018
 21
-254.7145360521299
 31
0.0
  0
LINE
  5
2CC8
330
2F74
100
AcDbEntity
  8
0
 62
     0
100
AcDbLine
 10
237.9299219721706
 20
-167.001400482528
 30
0.0
 11
365.0
 21
-251.7145695167128
 31
0.0
  0
LINE
  5
2CC9
330
2F74
100
AcDbEntity
  8
0
 62
     0
100
AcDbLine
 10
242.4298832660552
 20
-167.001400482528
 30
0.0
 11
365.0000000000018
 21
-248.7146029812975
 31
0.0
  0
LINE
  5
2CCA
330
2F74
100
AcDbEntity
  8
0
 62
     0
100
AcDbLine
 10
246.9298445599434
 20
-167.0014004825298
 30
0.0
 11
365.0
 21
-245.7146364458804
 31
0.0
  0
LINE
  5
2CCB
330
2F74
100
AcDbEntity
  8
0
 62
     0
100
AcDbLine
 10
251.4298058538279
 20
-167.0014004825288
 30
0.0
 11
365.0
 21
-242.7146699104642
 31
0.0
  0
LINE
  5
2CCC
330
2F74
100
AcDbEntity
  8
0
 62
     0
100
AcDbLine
 10
255.9297671477125
 20
-167.0014004825288
 30
0.0
 11
364.9999999999982
 21
-239.7147033750471
 31
0.0
  0
LINE
  5
2CCD
330
2F74
100
AcDbEntity
  8
0
 62
     0
100
AcDbLine
 10
260.429728441597
 20
-167.001400482528
 30
0.0
 11
365.0
 21
-236.7147368396327
 31
0.0
  0
LINE
  5
2CCE
330
2F74
100
AcDbEntity
  8
0
 62
     0
100
AcDbLine
 10
264.929689735487
 20
-167.0014004825298
 30
0.0
 11
365.0
 21
-233.7147703042155
 31
0.0
  0
LINE
  5
2CCF
330
2F74
100
AcDbEntity
  8
0
 62
     0
100
AcDbLine
 10
269.4296510293697
 20
-167.0014004825298
 30
0.0
 11
365.0
 21
-230.7148037688003
 31
0.0
  0
LINE
  5
2CD0
330
2F74
100
AcDbEntity
  8
0
 62
     0
100
AcDbLine
 10
273.9296123232561
 20
-167.0014004825288
 30
0.0
 11
365.0
 21
-227.7148372333832
 31
0.0
  0
LINE
  5
2CD1
330
2F74
100
AcDbEntity
  8
0
 62
     0
100
AcDbLine
 10
278.4295736171389
 20
-167.001400482527
 30
0.0
 11
365.0
 21
-224.714870697966
 31
0.0
  0
LINE
  5
2CD2
330
2F74
100
AcDbEntity
  8
0
 62
     0
100
AcDbLine
 10
282.9295349110288
 20
-167.0014004825307
 30
0.0
 11
365.0
 21
-221.7149041625515
 31
0.0
  0
LINE
  5
2CD3
330
2F74
100
AcDbEntity
  8
0
 62
     0
100
AcDbLine
 10
287.4294962049134
 20
-167.001400482528
 30
0.0
 11
365.0
 21
-218.7149376271336
 31
0.0
  0
LINE
  5
2CD4
330
2F74
100
AcDbEntity
  8
0
 62
     0
100
AcDbLine
 10
291.929457498798
 20
-167.0014004825298
 30
0.0
 11
365.0
 21
-215.7149710917183
 31
0.0
  0
LINE
  5
2CD5
330
2F74
100
AcDbEntity
  8
0
 62
     0
100
AcDbLine
 10
296.4294187926862
 20
-167.0014004825288
 30
0.0
 11
365.0
 21
-212.7150045563012
 31
0.0
  0
LINE
  5
2CD6
330
2F74
100
AcDbEntity
  8
0
 62
     0
100
AcDbLine
 10
300.9293800865671
 20
-167.0014004825288
 30
0.0
 11
365.0
 21
-209.7150380208859
 31
0.0
  0
LINE
  5
2CD7
330
2F74
100
AcDbEntity
  8
0
 62
     0
100
AcDbLine
 10
305.4293413804553
 20
-167.001400482528
 30
0.0
 11
365.0
 21
-206.7150714854697
 31
0.0
  0
LINE
  5
2CD8
330
2F74
100
AcDbEntity
  8
0
 62
     0
100
AcDbLine
 10
309.9293026743398
 20
-167.001400482528
 30
0.0
 11
365.0000000000018
 21
-203.7151049500544
 31
0.0
  0
LINE
  5
2CD9
330
2F74
100
AcDbEntity
  8
0
 62
     0
100
AcDbLine
 10
314.4292639682281
 20
-167.0014004825298
 30
0.0
 11
365.0
 21
-200.7151384146373
 31
0.0
  0
LINE
  5
2CDA
330
2F74
100
AcDbEntity
  8
0
 62
     0
100
AcDbLine
 10
318.9292252621108
 20
-167.0014004825288
 30
0.0
 11
365.0000000000018
 21
-197.715171879222
 31
0.0
  0
LINE
  5
2CDB
330
2F74
100
AcDbEntity
  8
0
 62
     0
100
AcDbLine
 10
323.4291865559971
 20
-167.0014004825288
 30
0.0
 11
365.0
 21
-194.7152053438049
 31
0.0
  0
LINE
  5
2CDC
330
2F74
100
AcDbEntity
  8
0
 62
     0
100
AcDbLine
 10
327.9291478498835
 20
-167.0014004825307
 30
0.0
 11
365.0
 21
-191.7152388083884
 31
0.0
  0
LINE
  5
2CDD
330
2F74
100
AcDbEntity
  8
0
 62
     0
100
AcDbLine
 10
332.4291091437699
 20
-167.0014004825298
 30
0.0
 11
364.9999999999982
 21
-188.7152722729724
 31
0.0
  0
LINE
  5
2CDE
330
2F74
100
AcDbEntity
  8
0
 62
     0
100
AcDbLine
 10
336.9290704376526
 20
-167.0014004825298
 30
0.0
 11
365.0
 21
-185.7153057375571
 31
0.0
  0
LINE
  5
2CDF
330
2F74
100
AcDbEntity
  8
0
 62
     0
100
AcDbLine
 10
341.4290317315408
 20
-167.0014004825288
 30
0.0
 11
365.0
 21
-182.71533920214
 31
0.0
  0
LINE
  5
2CE0
330
2F74
100
AcDbEntity
  8
0
 62
     0
100
AcDbLine
 10
345.9289930254254
 20
-167.0014004825288
 30
0.0
 11
365.0
 21
-179.7153726667229
 31
0.0
  0
LINE
  5
2CE1
330
2F74
100
AcDbEntity
  8
0
 62
     0
100
AcDbLine
 10
350.4289543193099
 20
-167.001400482528
 30
0.0
 11
365.0
 21
-176.7154061313067
 31
0.0
  0
LINE
  5
2CE2
330
2F74
100
AcDbEntity
  8
0
 62
     0
100
AcDbLine
 10
354.9289156131945
 20
-167.001400482528
 30
0.0
 11
365.0
 21
-173.7154395958914
 31
0.0
  0
LINE
  5
2CE3
330
2F74
100
AcDbEntity
  8
0
 62
     0
100
AcDbLine
 10
359.4288769070788
 20
-167.001400482528
 30
0.0
 11
365.0
 21
-170.7154730604752
 31
0.0
  0
LINE
  5
2CE4
330
2F74
100
AcDbEntity
  8
0
 62
     0
100
AcDbLine
 10
363.9288382009691
 20
-167.0014004825288
 30
0.0
 11
365.0
 21
-167.7155065250581
 31
0.0
  0
ENDBLK
  5
2CE5
330
2F74
100
AcDbEntity
  8
0
100
AcDbBlockEnd
  0
ENDSEC
  0
SECTION
  2
ENTITIES
  0
TEXT
  5
953
330
2E93
100
AcDbEntity
  8
OUTLINE
  6
Continuous
 62
     3
100
AcDbText
 10
-418.231467
 20
13.715189
 30
0.0
 40
64.0
  1
 
 41
0.9
100
AcDbText
  0
TEXT
  5
954
330
2E93
100
AcDbEntity
  8
OUTLINE
  6
Continuous
 62
     3
100
AcDbText
 10
-418.231467
 20
13.715189
 30
0.0
 40
64.0
  1
 
 41
0.9
100
AcDbText
  0
TEXT
  5
955
330
2E93
100
AcDbEntity
  8
OUTLINE
  6
Continuous
 62
     3
100
AcDbText
 10
1341.41903
 20
-706.0588199999997
 30
0.0
 40
64.0
  1
 
 41
0.9
100
AcDbText
  0
TEXT
  5
956
330
2E93
100
AcDbEntity
  8
OUTLINE
  6
Continuous
 62
     3
100
AcDbText
 10
1341.41903
 20
-706.0588199999997
 30
0.0
 40
64.0
  1
 
 41
0.9
100
AcDbText
  0
TEXT
  5
957
330
2E93
100
AcDbEntity
  8
OUTLINE
  6
Continuous
 62
     3
100
AcDbText
 10
1341.41903
 20
-706.0588199999997
 30
0.0
 40
64.0
  1
 
 41
0.9
100
AcDbText
  0
TEXT
  5
958
330
2E93
100
AcDbEntity
  8
OUTLINE
  6
Continuous
 62
     3
100
AcDbText
 10
1341.41903
 20
-706.0588199999997
 30
0.0
 40
64.0
  1
 
 41
0.9
100
AcDbText
  0
LINE
  5
2D71
330
2E93
100
AcDbEntity
  8
DETAIL
100
AcDbLine
 10
-430.601785815481
 20
-150.0013999999983
 30
0.0
 11
-449.4369297420781
 21
-847.8060348500052
 31
0.0
  0
LINE
  5
2D72
330
2E93
100
AcDbEntity
  8
DETAIL
100
AcDbLine
 10
-430.0761627032624
 20
-129.5020706637697
 30
0.0
 11
-443.5000000000071
 21
-129.0013999999983
 31
0.0
  0
LINE
  5
2D73
330
2E93
100
AcDbEntity
  8
DETAIL
100
AcDbLine
 10
-430.0761627032624
 20
-129.5020706637697
 30
0.0
 11
-449.4369297420781
 21
-847.8060348500266
 31
0.0
  0
LINE
  5
2D74
330
2E93
100
AcDbEntity
  8
DETAIL
100
AcDbLine
 10
430.5478299455753
 20
-147.0014005847633
 30
0.0
 11
-430.5747937932609
 21
-147.0013992416433
 31
0.0
  0
LINE
  5
2D75
330
2E93
100
AcDbEntity
  8
DETAIL
100
AcDbLine
 10
383.1428326992936
 20
-805.0013999999981
 30
0.0
 11
-385.0000000000036
 21
-805.001399999999
 31
0.0
  0
LINE
  5
2D76
330
2E93
100
AcDbEntity
  8
DETAIL
100
AcDbLine
 10
-362.1610570957127
 20
-919.0999998761895
 30
0.0
 11
362.1610429042921
 21
-919.0999999863144
 31
0.0
  0
LINE
  5
2D77
330
2E93
100
AcDbEntity
  8
DETAIL
100
AcDbLine
 10
-362.1610570957127
 20
-918.9927851000412
 30
0.0
 11
-451.1610562738495
 21
-918.9999998626582
 31
0.0
  0
LINE
  5
2D78
330
2E93
100
AcDbEntity
  8
OUTLINE
100
AcDbLine
 10
-450.634965905392
 20
-898.0179122745678
 30
0.0
 11
-451.1349519196519
 21
-917.1038896865709
 31
0.0
  0
LINE
  5
2D79
330
2E93
100
AcDbEntity
  8
DETAIL
100
AcDbLine
 10
-451.1335819029844
 20
-917.044368137679
 30
0.0
 11
-449.0021091411945
 21
-835.6796102732229
 31
0.0
  0
LINE
  5
2D7A
330
2E93
100
AcDbEntity
  8
DETAIL
100
AcDbLine
 10
-415.0000000000036
 20
0.000000000001819
 30
0.0
 11
-425.0000000000036
 21
0.000000000001819
 31
0.0
  0
LINE
  5
2D7B
330
2E93
100
AcDbEntity
  8
DETAIL
100
AcDbLine
 10
-425.0000000000036
 20
-9.999999999998179
 30
0.0
 11
-425.0000000000036
 21
0.000000000001819
 31
0.0
  0
LINE
  5
2D7C
330
2E93
100
AcDbEntity
  8
DETAIL
100
AcDbLine
 10
-415.0000000000036
 20
0.000000000001819
 30
0.0
 11
414.9999999999963
 21
0.000000000001819
 31
0.0
  0
LINE
  5
2D7D
330
2E93
100
AcDbEntity
  8
DETAIL
100
AcDbLine
 10
-425.0000000000036
 20
-9.999999999998179
 30
0.0
 11
424.9999999999963
 21
-9.999999999998179
 31
0.0
  0
LINE
  5
2D7E
330
2E93
100
AcDbEntity
  8
DETAIL
100
AcDbLine
 10
-386.0000000000036
 20
-129.0009494485257
 30
0.0
 11
-386.0000000000036
 21
-9.999999999998179
 31
0.0
  0
LINE
  5
2D7F
330
2E93
100
AcDbEntity
  8
NOTE
100
AcDbLine
 10
-400.0000000000036
 20
-12.49999999999818
 30
0.0
 11
-400.0000000000036
 21
12.50000000000182
 31
0.0
  0
CIRCLE
  5
2D80
330
2E93
100
AcDbEntity
  8
ARRANGE
100
AcDbCircle
 10
0.0
 20
0.0
 30
0.0
 40
40.0
  0
LINE
  5
2D81
330
2E93
100
AcDbEntity
  8
ARRANGE
100
AcDbLine
 10
-19.1963864999052
 20
19.19638649990429
 30
0.0
 11
19.19638649990156
 21
-19.19638649990338
 31
0.0
  0
LINE
  5
2D82
330
2E93
100
AcDbEntity
  8
ARRANGE
100
AcDbLine
 10
19.19638649989792
 20
19.1963864999052
 30
0.0
 11
-19.1963864999052
 21
-19.19638649990156
 31
0.0
  0
LINE
  5
2D83
330
2E93
100
AcDbEntity
  8
BASIS
100
AcDbLine
 10
-0.000000000003638
 20
25.00000000000182
 30
0.0
 11
-0.000000000003638
 21
-965.9999998626583
 31
0.0
  0
LINE
  5
2D84
330
2E93
100
AcDbEntity
  8
DETAIL
100
AcDbLine
 10
-385.0000000000036
 20
-805.001399999999
 30
0.0
 11
-451.1594891083877
 21
-918.9999997356157
 31
0.0
  0
LINE
  5
2D85
330
2E93
100
AcDbEntity
  8
DETAIL
100
AcDbLine
 10
-443.5000000000071
 20
-129.0013999999983
 30
0.0
 11
-464.5000000000073
 21
-918.9999998626582
 31
0.0
  0
LINE
  5
2D86
330
2E93
100
AcDbEntity
  8
DETAIL
100
AcDbLine
 10
-451.1610562738495
 20
-933.9999998626577
 30
0.0
 11
451.1610562738423
 21
-933.9999998626577
 31
0.0
  0
LINE
  5
2D87
330
2E93
100
AcDbEntity
  8
DETAIL
100
AcDbLine
 10
-451.1610562738495
 20
-918.9999998626582
 30
0.0
 11
-451.1610562738495
 21
-940.9999998626583
 31
0.0
  0
LINE
  5
2D88
330
2E93
100
AcDbEntity
  8
DETAIL
100
AcDbLine
 10
-451.1610562738495
 20
-918.9999998626582
 30
0.0
 11
-464.5000000000073
 21
-918.9999998626582
 31
0.0
  0
LINE
  5
2D89
330
2E93
100
AcDbEntity
  8
DETAIL
100
AcDbLine
 10
-443.5000000000071
 20
-129.0013999999983
 30
0.0
 11
443.4999999999964
 21
-129.0013999999983
 31
0.0
  0
LINE
  5
2D8A
330
2E93
100
AcDbEntity
  8
DETAIL
100
AcDbLine
 10
-385.0000000000036
 20
-147.0013993127276
 30
0.0
 11
-385.0000000000036
 21
-805.001399999999
 31
0.0
  0
LINE
  5
2D8B
330
2E93
100
AcDbEntity
  8
DETAIL
100
AcDbLine
 10
430.6017858154699
 20
-150.0013999999983
 30
0.0
 11
449.4369297420708
 21
-847.8060348500052
 31
0.0
  0
LINE
  5
2D8C
330
2E93
100
AcDbEntity
  8
DETAIL
100
AcDbLine
 10
430.0761627032551
 20
-129.5020706637697
 30
0.0
 11
443.4999999999964
 21
-129.0013999999983
 31
0.0
  0
LINE
  5
2D8D
330
2E93
100
AcDbEntity
  8
DETAIL
100
AcDbLine
 10
430.0761627032551
 20
-129.5020706637697
 30
0.0
 11
449.4369297420708
 21
-847.8060348500266
 31
0.0
  0
LINE
  5
2D8E
330
2E93
100
AcDbEntity
  8
DETAIL
100
AcDbLine
 10
362.1610570957055
 20
-918.9927851000412
 30
0.0
 11
451.1610562738423
 21
-918.9999998626582
 31
0.0
  0
LINE
  5
2D8F
330
2E93
100
AcDbEntity
  8
OUTLINE
100
AcDbLine
 10
450.6349659053811
 20
-898.0179122745678
 30
0.0
 11
451.1349519196445
 21
-917.1038896865709
 31
0.0
  0
LINE
  5
2D90
330
2E93
100
AcDbEntity
  8
DETAIL
100
AcDbLine
 10
451.1335819029771
 20
-917.044368137679
 30
0.0
 11
449.0021091411835
 21
-835.6796102732229
 31
0.0
  0
LINE
  5
2D91
330
2E93
100
AcDbEntity
  8
DETAIL
100
AcDbLine
 10
414.9999999999963
 20
0.000000000001819
 30
0.0
 11
424.9999999999963
 21
0.000000000001819
 31
0.0
  0
LINE
  5
2D92
330
2E93
100
AcDbEntity
  8
DETAIL
100
AcDbLine
 10
424.9999999999963
 20
-9.999999999998179
 30
0.0
 11
424.9999999999963
 21
0.000000000001819
 31
0.0
  0
LINE
  5
2D93
330
2E93
100
AcDbEntity
  8
DETAIL
100
AcDbLine
 10
385.9999999999964
 20
-129.0009494485257
 30
0.0
 11
385.9999999999964
 21
-9.999999999998179
 31
0.0
  0
LINE
  5
2D94
330
2E93
100
AcDbEntity
  8
NOTE
100
AcDbLine
 10
399.9999999999964
 20
-12.49999999999818
 30
0.0
 11
399.9999999999964
 21
12.50000000000182
 31
0.0
  0
LINE
  5
2D95
330
2E93
100
AcDbEntity
  8
DETAIL
100
AcDbLine
 10
384.9999999999964
 20
-805.001399999999
 30
0.0
 11
451.1594891083805
 21
-918.9999997356157
 31
0.0
  0
LINE
  5
2D96
330
2E93
100
AcDbEntity
  8
DETAIL
100
AcDbLine
 10
443.4999999999964
 20
-129.0013999999983
 30
0.0
 11
464.4999999999964
 21
-918.9999998626582
 31
0.0
  0
LINE
  5
2D97
330
2E93
100
AcDbEntity
  8
DETAIL
100
AcDbLine
 10
451.1610562738423
 20
-918.9999998626582
 30
0.0
 11
451.1610562738423
 21
-940.9999998626583
 31
0.0
  0
LINE
  5
2D98
330
2E93
100
AcDbEntity
  8
DETAIL
100
AcDbLine
 10
451.1610562738423
 20
-918.9999998626582
 30
0.0
 11
464.4999999999964
 21
-918.9999998626582
 31
0.0
  0
LINE
  5
2D99
330
2E93
100
AcDbEntity
  8
DETAIL
100
AcDbLine
 10
384.9999999999964
 20
-147.0013993127276
 30
0.0
 11
384.9999999999964
 21
-805.001399999999
 31
0.0
  0
LINE
  5
2D9A
330
2E93
100
AcDbEntity
  8
DETAIL
100
AcDbLine
 10
-365.0000000000036
 20
-167.0013993439224
 30
0.0
 11
364.9999999999963
 21
-167.0014004825261
 31
0.0
  0
LINE
  5
2D9B
330
2E93
100
AcDbEntity
  8
DETAIL
100
AcDbLine
 10
-365.0000000000036
 20
-785.001399999999
 30
0.0
 11
364.9999999999963
 21
-785.0013999999982
 31
0.0
  0
LINE
  5
2D9C
330
2E93
100
AcDbEntity
  8
DETAIL
100
AcDbLine
 10
-365.0000000000036
 20
-167.0013993439224
 30
0.0
 11
-365.0000000000036
 21
-785.001399999999
 31
0.0
  0
LINE
  5
2D9D
330
2E93
100
AcDbEntity
  8
DETAIL
100
AcDbLine
 10
364.9999999999963
 20
-167.0014004825261
 30
0.0
 11
364.9999999999963
 21
-785.0013999999982
 31
0.0
  0
LINE
  5
2D9E
330
2E93
100
AcDbEntity
  8
DETAIL
100
AcDbLine
 10
-451.1610562738495
 20
-940.9999998626583
 30
0.0
 11
451.1610562738423
 21
-940.9999998626583
 31
0.0
  0
INSERT
  5
2D9F
330
2E93
100
AcDbEntity
  8
0
100
AcDbBlockReference
  2
*U74
 10
-0.000000000003638
 20
0.000000000001819
 30
0.0
1001
ACAD
1000
DSTYLE
1002
{
1070
    41
1040
12.0
1070
    42
1040
20.0
1070
    43
1040
200.0
1070
    44
1040
20.0
1070
    73
1070
     0
1070
    74
1070
     0
1070
    77
1070
     1
1070
    78
1070
     8
1070
   140
1040
64.0
1070
   147
1040
50.0
1070
   172
1070
     1
1070
   174
1070
     1
1070
   275
1070
     0
1070
   284
1070
     0
1070
   285
1070
     0
1070
   286
1070
     0
1070
   341
1005
0
1070
   342
1005
0
1002
}
  0
INSERT
  5
2DA0
330
2E93
100
AcDbEntity
  8
0
100
AcDbBlockReference
  2
*U75
 10
-0.000000000003638
 20
0.000000000001819
 30
0.0
  0
LINE
  5
2DA1
330
2E93
100
AcDbEntity
  8
NOTE
100
AcDbLine
 39
50.0
 10
387.4999999999964
 20
0.000000000001819
 30
0.0
 11
412.4999999999963
 21
0.000000000001819
 31
0.0
  0
LINE
  5
2DA2
330
2E93
100
AcDbEntity
  8
NOTE
100
AcDbLine
 39
50.0
 10
-412.5000000000036
 20
0.000000000001819
 30
0.0
 11
-387.5000000000036
 21
0.000000000001819
 31
0.0
  0
LINE
  5
2DA3
330
2E93
100
AcDbEntity
  8
OUTLINE
100
AcDbLine
 10
-430.601785815481
 20
-150.0013999999983
 30
0.0
 11
-449.4369297420781
 21
-847.8060348500052
 31
0.0
  0
LINE
  5
2DA4
330
2E93
100
AcDbEntity
  8
OUTLINE
100
AcDbLine
 10
-430.0761627032624
 20
-129.5020706637697
 30
0.0
 11
-443.5000000000071
 21
-129.0013999999983
 31
0.0
  0
LINE
  5
2DA5
330
2E93
100
AcDbEntity
  8
OUTLINE
100
AcDbLine
 10
-430.0761627032624
 20
-129.5020706637697
 30
0.0
 11
-449.4369297420781
 21
-847.8060348500266
 31
0.0
  0
LINE
  5
2DA6
330
2E93
100
AcDbEntity
  8
OUTLINE
100
AcDbLine
 10
430.5478299455753
 20
-147.0014005847633
 30
0.0
 11
-430.5747937932609
 21
-147.0013992416433
 31
0.0
  0
LINE
  5
2DA7
330
2E93
100
AcDbEntity
  8
OUTLINE
100
AcDbLine
 10
383.1428326992936
 20
-805.0013999999981
 30
0.0
 11
-385.0000000000036
 21
-805.001399999999
 31
0.0
  0
LINE
  5
2DA8
330
2E93
100
AcDbEntity
  8
OUTLINE
100
AcDbLine
 10
-362.1610570957127
 20
-919.0999998761895
 30
0.0
 11
362.1610429042921
 21
-919.0999999863144
 31
0.0
  0
LINE
  5
2DA9
330
2E93
100
AcDbEntity
  8
OUTLINE
100
AcDbLine
 10
-362.1610570957127
 20
-918.9927851000412
 30
0.0
 11
-451.1610562738495
 21
-918.9999998626582
 31
0.0
  0
LINE
  5
2DAA
330
2E93
100
AcDbEntity
  8
OUTLINE
100
AcDbLine
 10
-451.1335819029844
 20
-917.044368137679
 30
0.0
 11
-449.0021091411945
 21
-835.6796102732229
 31
0.0
  0
LINE
  5
2DAB
330
2E93
100
AcDbEntity
  8
OUTLINE
100
AcDbLine
 10
-425.0000000000036
 20
-9.999999999998179
 30
0.0
 11
424.9999999999963
 21
-9.999999999998179
 31
0.0
  0
LINE
  5
2DAC
330
2E93
100
AcDbEntity
  8
OUTLINE
100
AcDbLine
 10
-386.0000000000036
 20
-129.0009494485257
 30
0.0
 11
-386.0000000000036
 21
-9.999999999998179
 31
0.0
  0
LINE
  5
2DAD
330
2E93
100
AcDbEntity
  8
OUTLINE
100
AcDbLine
 10
-385.0000000000036
 20
-805.001399999999
 30
0.0
 11
-451.1594891083877
 21
-918.9999997356157
 31
0.0
  0
LINE
  5
2DAE
330
2E93
100
AcDbEntity
  8
OUTLINE
100
AcDbLine
 10
-443.5000000000071
 20
-129.0013999999983
 30
0.0
 11
-464.5000000000073
 21
-918.9999998626582
 31
0.0
  0
LINE
  5
2DAF
330
2E93
100
AcDbEntity
  8
OUTLINE
100
AcDbLine
 10
-451.1610562738495
 20
-933.9999998626577
 30
0.0
 11
451.1610562738423
 21
-933.9999998626577
 31
0.0
  0
LINE
  5
2DB0
330
2E93
100
AcDbEntity
  8
OUTLINE
100
AcDbLine
 10
-451.1610562738495
 20
-918.9999998626582
 30
0.0
 11
-451.1610562738495
 21
-940.9999998626583
 31
0.0
  0
LINE
  5
2DB1
330
2E93
100
AcDbEntity
  8
OUTLINE
100
AcDbLine
 10
-451.1610562738495
 20
-918.9999998626582
 30
0.0
 11
-464.5000000000073
 21
-918.9999998626582
 31
0.0
  0
LINE
  5
2DB2
330
2E93
100
AcDbEntity
  8
OUTLINE
100
AcDbLine
 10
-443.5000000000071
 20
-129.0013999999983
 30
0.0
 11
443.4999999999964
 21
-129.0013999999983
 31
0.0
  0
LINE
  5
2DB3
330
2E93
100
AcDbEntity
  8
OUTLINE
100
AcDbLine
 10
-385.0000000000036
 20
-147.0013993127276
 30
0.0
 11
-385.0000000000036
 21
-805.001399999999
 31
0.0
  0
LINE
  5
2DB4
330
2E93
100
AcDbEntity
  8
OUTLINE
100
AcDbLine
 10
430.6017858154699
 20
-150.0013999999983
 30
0.0
 11
449.4369297420708
 21
-847.8060348500052
 31
0.0
  0
LINE
  5
2DB5
330
2E93
100
AcDbEntity
  8
OUTLINE
100
AcDbLine
 10
430.0761627032551
 20
-129.5020706637697
 30
0.0
 11
449.4369297420708
 21
-847.8060348500266
 31
0.0
  0
LINE
  5
2DB6
330
2E93
100
AcDbEntity
  8
OUTLINE
100
AcDbLine
 10
362.1610570957055
 20
-918.9927851000412
 30
0.0
 11
451.1610562738423
 21
-918.9999998626582
 31
0.0
  0
LINE
  5
2DB7
330
2E93
100
AcDbEntity
  8
OUTLINE
100
AcDbLine
 10
451.1335819029771
 20
-917.044368137679
 30
0.0
 11
449.0021091411835
 21
-835.6796102732229
 31
0.0
  0
LINE
  5
2DB8
330
2E93
100
AcDbEntity
  8
OUTLINE
100
AcDbLine
 10
385.9999999999964
 20
-129.0009494485257
 30
0.0
 11
385.9999999999964
 21
-9.999999999998179
 31
0.0
  0
LINE
  5
2DB9
330
2E93
100
AcDbEntity
  8
OUTLINE
100
AcDbLine
 10
384.9999999999964
 20
-805.001399999999
 30
0.0
 11
451.1594891083805
 21
-918.9999997356157
 31
0.0
  0
LINE
  5
2DBA
330
2E93
100
AcDbEntity
  8
OUTLINE
100
AcDbLine
 10
443.4999999999964
 20
-129.0013999999983
 30
0.0
 11
464.4999999999964
 21
-918.9999998626582
 31
0.0
  0
LINE
  5
2DBB
330
2E93
100
AcDbEntity
  8
OUTLINE
100
AcDbLine
 10
451.1610562738423
 20
-918.9999998626582
 30
0.0
 11
451.1610562738423
 21
-940.9999998626583
 31
0.0
  0
LINE
  5
2DBC
330
2E93
100
AcDbEntity
  8
OUTLINE
100
AcDbLine
 10
451.1610562738423
 20
-918.9999998626582
 30
0.0
 11
464.4999999999964
 21
-918.9999998626582
 31
0.0
  0
LINE
  5
2DBD
330
2E93
100
AcDbEntity
  8
OUTLINE
100
AcDbLine
 10
384.9999999999964
 20
-147.0013993127276
 30
0.0
 11
384.9999999999964
 21
-805.001399999999
 31
0.0
  0
LINE
  5
2DBE
330
2E93
100
AcDbEntity
  8
OUTLINE
100
AcDbLine
 10
-451.1610562738495
 20
-940.9999998626583
 30
0.0
 11
451.1610562738423
 21
-940.9999998626583
 31
0.0
  0
LINE
  5
2DBF
330
2E93
100
AcDbEntity
  8
OUTLINE
100
AcDbLine
 10
430.0761627032551
 20
-129.5020706637697
 30
0.0
 11
443.4999999999964
 21
-129.0013999999983
 31
0.0
  0
LINE
  5
2DC0
330
2E93
100
AcDbEntity
  8
OUTLINE
100
AcDbLine
 10
-415.0000000000036
 20
0.000000000001819
 30
0.0
 11
-425.0000000000036
 21
0.000000000001819
 31
0.0
  0
LINE
  5
2DC1
330
2E93
100
AcDbEntity
  8
OUTLINE
100
AcDbLine
 10
-425.0000000000036
 20
-9.999999999998179
 30
0.0
 11
-425.0000000000036
 21
0.000000000001819
 31
0.0
  0
LINE
  5
2DC2
330
2E93
100
AcDbEntity
  8
OUTLINE
100
AcDbLine
 10
-415.0000000000036
 20
0.000000000001819
 30
0.0
 11
414.9999999999963
 21
0.000000000001819
 31
0.0
  0
LINE
  5
2DC3
330
2E93
100
AcDbEntity
  8
OUTLINE
100
AcDbLine
 10
414.9999999999963
 20
0.000000000001819
 30
0.0
 11
424.9999999999963
 21
0.000000000001819
 31
0.0
  0
LINE
  5
2DC4
330
2E93
100
AcDbEntity
  8
OUTLINE
100
AcDbLine
 10
424.9999999999963
 20
-9.999999999998179
 30
0.0
 11
424.9999999999963
 21
0.000000000001819
 31
0.0
  0
LINE
  5
2DC5
330
2E93
100
AcDbEntity
  8
DETAIL
100
AcDbLine
 10
-365.0000000000036
 20
-167.0013993439224
 30
0.0
 11
364.9999999999963
 21
-167.0014004825261
 31
0.0
  0
LINE
  5
2DC6
330
2E93
100
AcDbEntity
  8
DETAIL
100
AcDbLine
 10
-365.0000000000036
 20
-785.001399999999
 30
0.0
 11
364.9999999999963
 21
-785.0013999999982
 31
0.0
  0
LINE
  5
2DC7
330
2E93
100
AcDbEntity
  8
DETAIL
100
AcDbLine
 10
-365.0000000000036
 20
-167.0013993439224
 30
0.0
 11
-365.0000000000036
 21
-785.001399999999
 31
0.0
  0
LINE
  5
2DC8
330
2E93
100
AcDbEntity
  8
DETAIL
100
AcDbLine
 10
364.9999999999963
 20
-167.0014004825261
 30
0.0
 11
364.9999999999963
 21
-785.0013999999982
 31
0.0
  0
INSERT
  5
2DC9
330
2E93
100
AcDbEntity
  8
DETAIL
  6
Continuous
100
AcDbBlockReference
  2
*X76
 10
-0.000000000003638
 20
0.000000000001819
 30
0.0
1001
ACADANNOTATIVE
1000
AnnotativeData
1002
{
1070
     1
1070
     0
1002
}
1001
ACAD
1000
HATCH
1002
{
1070
    19
1000
LINE
1040
19.969
1040
0.5880014249968896
1000
R14_HATCH_DATA
1000
6AE0
1011
0.999999999996362
1021
0.000000000001819
1031
0.0
1011
-0.000000000003638
1021
1.000000000001818
1031
0.0
1011
-0.000000000003638
1021
0.000000000001819
1031
1.0
1040
0.0
1010
0.0
1020
0.0
1030
1.0
1000
LINE
1070
     0
1070
     0
1071
        2
1071
        7
1070
     0
1070
     1
1071
        6
1040
149.2000000000007
1040
-167.0014001459376
1040
-365.0
1040
-167.0013993439243
1040
-365.0
1040
-785.001400000001
1040
364.9999999999963
1040
-785.0014000000001
1040
365.0
1040
-360.8014004825282
1040
149.2000000000007
1040
-360.8014004825282
1071
        0
1071
        7
1070
     0
1070
     1
1071
        4
1040
364.9999999999963
1040
-167.0014004825298
1040
149.2000000000007
1040
-167.0014004825298
1040
149.2000000000007
1040
-360.8014004825272
1040
365.0000000000036
1040
-360.8014004825282
1071
        0
1070
     0
1070
     1
1040
0.5880014249968896
1040
19.969
1070
     0
1070
     1
1040
0.5880014249968896
1040
20157.9525357327
1040
6898.790477713173
1040
-1.384598579568018
1040
2.076903172775084
1070
     0
1040
3.21879414237047
1071
        2
1040
-144.2232226078849
1040
-334.3775567993116
1040
0.0
1040
295.5833088850486
1040
-285.7228219667513
1040
0.0
1002
}
  0
INSERT
  5
2DCA
330
2E93
100
AcDbEntity
  8
DETAIL
  6
Continuous
100
AcDbBlockReference
  2
*X77
 10
-0.000000000003638
 20
0.000000000001819
 30
0.0
1001
ACADANNOTATIVE
1000
AnnotativeData
1002
{
1070
     1
1070
     0
1002
}
1001
ACAD
1000
HATCH
1002
{
1070
    19
1000
LINE
1040
19.969
1040
5.695183882182695
1000
R14_HATCH_DATA
1000
6AE6
1011
0.999999999996362
1021
0.000000000001819
1031
0.0
1011
-0.000000000003638
1021
1.000000000001818
1031
0.0
1011
-0.000000000003638
1021
0.000000000001819
1031
1.0
1040
0.0
1010
0.0
1020
0.0
1030
1.0
1000
LINE
1070
     0
1070
     0
1071
        2
1071
        7
1070
     0
1070
     1
1071
        6
1040
149.2000000000007
1040
-167.0014001459385
1040
-365.0
1040
-167.0013993439252
1040
-365.0
1040
-785.001400000001
1040
364.9999999999963
1040
-785.0014000000001
1040
365.0
1040
-360.8014004825282
1040
149.2000000000007
1040
-360.8014004825282
1071
        0
1071
        7
1070
     0
1070
     1
1071
        4
1040
149.2000000000007
1040
-167.001400482528
1040
149.2000000000007
1040
-360.8014004825282
1040
365.0000000000036
1040
-360.8014004825282
1040
365.0
1040
-167.0014004825288
1071
        0
1070
     0
1070
     1
1040
5.695183882182695
1040
19.969
1070
     0
1070
     1
1040
5.695183882182695
1040
20157.9525357327
1040
6898.790477713173
1040
1.384598579568018
1040
2.076903172775084
1070
     0
1040
1.631221175176063
1071
        2
1040
-99.82164641121201
1040
-334.5270733189945
1040
0.0
1040
260.5780182326853
1040
-212.3707235107713
1040
0.0
1002
}
  0
LINE
  5
2DCB
330
2E93
100
AcDbEntity
  8
DETAIL
100
AcDbLine
 10
-365.0000000000036
 20
-167.0013993439224
 30
0.0
 11
364.9999999999963
 21
-167.0014004825261
 31
0.0
  0
LINE
  5
2DCC
330
2E93
100
AcDbEntity
  8
DETAIL
100
AcDbLine
 10
-365.0000000000036
 20
-785.001399999999
 30
0.0
 11
364.9999999999963
 21
-785.0013999999982
 31
0.0
  0
LINE
  5
2DCD
330
2E93
100
AcDbEntity
  8
DETAIL
100
AcDbLine
 10
-365.0000000000036
 20
-167.0013993439224
 30
0.0
 11
-365.0000000000036
 21
-785.001399999999
 31
0.0
  0
LINE
  5
2DCE
330
2E93
100
AcDbEntity
  8
DETAIL
100
AcDbLine
 10
364.9999999999963
 20
-167.0014004825261
 30
0.0
 11
364.9999999999963
 21
-785.0013999999982
 31
0.0
  0
LINE
  5
2DCF
330
2E93
100
AcDbEntity
  8
SIZE
100
AcDbLine
 10
-425.0000000000036
 20
20.00000000000182
 30
0.0
 11
-425.0000000000036
 21
338.0818371338537
 31
0.0
  0
LINE
  5
2DD0
330
2E93
100
AcDbEntity
  8
SIZE
100
AcDbLine
 10
424.9999999999963
 20
20.00000000000182
 30
0.0
 11
424.9999999999963
 21
338.0818371338537
 31
0.0
  0
LINE
  5
2DD1
330
2E93
100
AcDbEntity
  8
SIZE
100
AcDbLine
 10
-413.0000000000036
 20
318.0818371338537
 30
0.0
 11
412.9999999999963
 21
318.0818371338537
 31
0.0
  0
INSERT
  5
2DD2
330
2E93
100
AcDbEntity
  8
SIZE
100
AcDbBlockReference
  2
_DOTBLANK
 10
-425.0000000000036
 20
318.0818371338537
 30
0.0
 41
12.0
 42
12.0
 43
12.0
 50
180.0
  0
INSERT
  5
2DD3
330
2E93
100
AcDbEntity
  8
SIZE
100
AcDbBlockReference
  2
_DOTBLANK
 10
424.9999999999963
 20
318.0818371338537
 30
0.0
 41
12.0
 42
12.0
 43
12.0
  0
LINE
  5
2DD4
330
2E93
100
AcDbEntity
  8
SIZE
100
AcDbLine
 10
-400.0000000000036
 20
32.50000000000182
 30
0.0
 11
-400.0000000000036
 21
197.3516363077924
 31
0.0
  0
LINE
  5
2DD5
330
2E93
100
AcDbEntity
  8
SIZE
100
AcDbLine
 10
399.9999999999964
 20
32.50000000000182
 30
0.0
 11
399.9999999999964
 21
197.3516363077924
 31
0.0
  0
LINE
  5
2DD6
330
2E93
100
AcDbEntity
  8
SIZE
100
AcDbLine
 10
-388.0000000000036
 20
177.3516363077924
 30
0.0
 11
387.9999999999964
 21
177.3516363077924
 31
0.0
  0
INSERT
  5
2DD7
330
2E93
100
AcDbEntity
  8
SIZE
100
AcDbBlockReference
  2
_DOTBLANK
 10
-400.0000000000036
 20
177.3516363077924
 30
0.0
 41
12.0
 42
12.0
 43
12.0
 50
180.0
  0
INSERT
  5
2DD8
330
2E93
100
AcDbEntity
  8
SIZE
100
AcDbBlockReference
  2
_DOTBLANK
 10
399.9999999999964
 20
177.3516363077924
 30
0.0
 41
12.0
 42
12.0
 43
12.0
  0
LINE
  5
2DD9
330
2E93
100
AcDbEntity
  8
SIZE
100
AcDbLine
 10
444.9999999999963
 20
0.000000000001819
 30
0.0
 11
581.6374087284311
 21
0.000000000001819
 31
0.0
  0
LINE
  5
2DDA
330
2E93
100
AcDbEntity
  8
SIZE
100
AcDbLine
 10
444.9999999999963
 20
-9.999999999998179
 30
0.0
 11
581.6374087284311
 21
-9.999999999998179
 31
0.0
  0
LINE
  5
2DDB
330
2E93
100
AcDbEntity
  8
SIZE
100
AcDbLine
 10
561.637408728431
 20
12.00000000000182
 30
0.0
 11
561.637408728431
 21
24.00000000000181
 31
0.0
  0
LINE
  5
2DDC
330
2E93
100
AcDbEntity
  8
SIZE
100
AcDbLine
 10
561.637408728431
 20
-21.99999999999818
 30
0.0
 11
561.637408728431
 21
-136.2857142857125
 31
0.0
  0
INSERT
  5
2DDD
330
2E93
100
AcDbEntity
  8
SIZE
100
AcDbBlockReference
  2
_DOTBLANK
 10
561.637408728431
 20
0.000000000001819
 30
0.0
 41
12.0
 42
12.0
 43
12.0
 50
270.0
  0
INSERT
  5
2DDE
330
2E93
100
AcDbEntity
  8
SIZE
100
AcDbBlockReference
  2
_DOTBLANK
 10
561.637408728431
 20
-9.999999999998179
 30
0.0
 41
12.0
 42
12.0
 43
12.0
 50
90.0
  0
LINE
  5
2DDF
330
2E93
100
AcDbEntity
  8
SIZE
100
AcDbLine
 10
-484.5000000000071
 20
-918.9999998626582
 30
0.0
 11
-661.3011223985303
 21
-918.9999998626582
 31
0.0
  0
LINE
  5
2DE0
330
2E93
100
AcDbEntity
  8
SIZE
100
AcDbLine
 10
-471.1610562738491
 20
-940.9999998626583
 30
0.0
 11
-661.3011223985303
 21
-940.9999998626583
 31
0.0
  0
LINE
  5
2DE1
330
2E93
100
AcDbEntity
  8
SIZE
100
AcDbLine
 10
-641.3011223985303
 20
-906.9999998626583
 30
0.0
 11
-641.3011223985303
 21
-894.9999998626582
 31
0.0
  0
LINE
  5
2DE2
330
2E93
100
AcDbEntity
  8
SIZE
100
AcDbLine
 10
-641.3011223985303
 20
-952.9999998626582
 30
0.0
 11
-641.3011223985303
 21
-1078.2571427198
 31
0.0
  0
INSERT
  5
2DE3
330
2E93
100
AcDbEntity
  8
SIZE
100
AcDbBlockReference
  2
_DOTBLANK
 10
-641.3011223985303
 20
-918.9999998626582
 30
0.0
 41
12.0
 42
12.0
 43
12.0
 50
270.0
  0
INSERT
  5
2DE4
330
2E93
100
AcDbEntity
  8
SIZE
100
AcDbBlockReference
  2
_DOTBLANK
 10
-641.3011223985303
 20
-940.9999998626583
 30
0.0
 41
12.0
 42
12.0
 43
12.0
 50
90.0
  0
LINE
  5
2DE5
330
2E93
100
AcDbEntity
  8
SIZE
100
AcDbLine
 10
-445.0000000000036
 20
0.000000000001819
 30
0.0
 11
-661.3011223985303
 21
0.000000000001819
 31
0.0
  0
LINE
  5
2DE6
330
2E93
100
AcDbEntity
  8
SIZE
100
AcDbLine
 10
-484.5000000000071
 20
-918.9999998626582
 30
0.0
 11
-661.3011223985303
 21
-918.9999998626582
 31
0.0
  0
LINE
  5
2DE7
330
2E93
100
AcDbEntity
  8
SIZE
100
AcDbLine
 10
-641.3011223985303
 20
-11.99999999999818
 30
0.0
 11
-641.3011223985303
 21
-906.9999998626583
 31
0.0
  0
INSERT
  5
2DE8
330
2E93
100
AcDbEntity
  8
SIZE
100
AcDbBlockReference
  2
_DOTBLANK
 10
-641.3011223985303
 20
0.000000000001819
 30
0.0
 41
12.0
 42
12.0
 43
12.0
 50
90.0
  0
INSERT
  5
2DE9
330
2E93
100
AcDbEntity
  8
SIZE
100
AcDbBlockReference
  2
_DOTBLANK
 10
-641.3011223985303
 20
-918.9999998626582
 30
0.0
 41
12.0
 42
12.0
 43
12.0
 50
270.0
  0
LINE
  5
2DEA
330
2E93
100
AcDbEntity
  8
SIZE
100
AcDbLine
 10
-464.5000000000073
 20
-938.9999998626578
 30
0.0
 11
-464.5000000000073
 21
-1098.282941893282
 31
0.0
  0
LINE
  5
2DEB
330
2E93
100
AcDbEntity
  8
SIZE
100
AcDbLine
 10
464.4999999999964
 20
-938.9999998626578
 30
0.0
 11
464.4999999999964
 21
-1098.282941893282
 31
0.0
  0
LINE
  5
2DEC
330
2E93
100
AcDbEntity
  8
SIZE
100
AcDbLine
 10
-452.5000000000073
 20
-1078.282941893282
 30
0.0
 11
452.4999999999963
 21
-1078.282941893282
 31
0.0
  0
INSERT
  5
2DED
330
2E93
100
AcDbEntity
  8
SIZE
100
AcDbBlockReference
  2
_DOTBLANK
 10
-464.5000000000073
 20
-1078.282941893282
 30
0.0
 41
12.0
 42
12.0
 43
12.0
 50
180.0
  0
INSERT
  5
2DEE
330
2E93
100
AcDbEntity
  8
SIZE
100
AcDbBlockReference
  2
_DOTBLANK
 10
464.4999999999964
 20
-1078.282941893282
 30
0.0
 41
12.0
 42
12.0
 43
12.0
  0
TEXT
  5
2DEF
330
2E93
100
AcDbEntity
  8
SIZE
100
AcDbText
 10
-72.68571428571795
 20
-1068.282941893282
 30
0.0
 40
64.0
  1
929
 41
0.9
100
AcDbText
  0
TEXT
  5
2DF0
330
2E93
100
AcDbEntity
  8
SIZE
100
AcDbText
 10
-651.3011223985302
 20
-1068.2571427198
 30
0.0
 40
64.0
  1
22
 50
90.0
 41
0.9
100
AcDbText
  0
TEXT
  5
2DF1
330
2E93
100
AcDbEntity
  8
SIZE
100
AcDbText
 10
-651.3011223985302
 20
-526.6999999313279
 30
0.0
 40
64.0
  1
919
 50
90.0
 41
0.9
100
AcDbText
  0
TEXT
  5
2DF2
330
2E93
100
AcDbEntity
  8
SIZE
100
AcDbText
 10
-74.05714285714657
 20
187.3516363077924
 30
0.0
 40
64.0
  1
800
 41
0.9
100
AcDbText
  0
TEXT
  5
2DF3
330
2E93
100
AcDbEntity
  8
SIZE
100
AcDbText
 10
-74.05714285714657
 20
328.0818371338537
 30
0.0
 40
64.0
  1
850
 41
0.9
100
AcDbText
  0
TEXT
  5
2DF4
330
2E93
100
AcDbEntity
  8
SIZE
100
AcDbText
 10
551.6374087284312
 20
-126.2857142857124
 30
0.0
 40
64.0
  1
10
 50
90.0
 41
0.9
100
AcDbText
  0
TEXT
  5
2DF5
330
2E93
100
AcDbEntity
  8
ETC
100
AcDbText
 10
714.3793481132452
 20
541.7417056490339
 30
0.0
 40
70.0
  1
QW-70SDBM_6
 41
0.9
100
AcDbText
  0
TEXT
  5
2DF6
330
2E93
100
AcDbEntity
  8
ETC
100
AcDbText
 10
705.9793481132451
 20
425.0750389823672
 30
0.0
 40
70.0
  1
システム部材
 41
0.9
100
AcDbText
  0
TEXT
  5
2DF7
330
2E93
100
AcDbEntity
  8
ETC
100
AcDbText
 10
714.3793481132452
 20
308.4083723157008
 30
0.0
 40
70.0
  1
QW-70SDBM
 41
0.9
100
AcDbText
  0
ENDSEC
  0
SECTION
  2
OBJECTS
  0
DICTIONARY
  5
2E2B
330
0
100
AcDbDictionary
281
     1
  3
ACAD_2007HEADERVARS_RT
350
3081
  3
ACAD_COLOR
350
2E89
  3
ACAD_GROUP
350
2E2C
  3
ACAD_LAYOUT
350
2E88
  3
ACAD_MATERIAL
350
2E2F
  3
ACAD_MLEADERSTYLE
350
2E8C
  3
ACAD_MLINESTYLE
350
2E85
  3
ACAD_PLOTSETTINGS
350
2E87
  3
ACAD_PLOTSTYLENAME
350
2E2D
  3
ACAD_SCALELIST
350
2E59
  3
ACAD_TABLESTYLE
350
2E8A
  3
ACAD_VISUALSTYLE
350
2E48
  3
ACDB_RECOMPOSE_DATA
350
307F
  3
AcDbVariableDictionary
350
3076
  3
AcmDictionary
350
3029
  3
AMG
350
2F76
  3
DWGPROPS
350
3080
  3
MAPISURF_MODULE
350
2FF6
  0
DICTIONARY
  5
3051
330
2E7B
100
AcDbDictionary
280
     1
281
     1
  3
ADSK_XREC_LAYER_RECONCILED
360
3052
  0
DICTIONARY
  5
3053
330
2EAA
100
AcDbDictionary
280
     1
281
     1
  3
ADSK_XREC_LAYER_RECONCILED
360
3054
  0
DICTIONARY
  5
3055
330
2EAB
100
AcDbDictionary
280
     1
281
     1
  3
ADSK_XREC_LAYER_RECONCILED
360
3056
  0
DICTIONARY
  5
3057
330
2EAC
100
AcDbDictionary
280
     1
281
     1
  3
ADSK_XREC_LAYER_RECONCILED
360
3058
  0
DICTIONARY
  5
3059
330
2EAD
100
AcDbDictionary
280
     1
281
     1
  3
ADSK_XREC_LAYER_RECONCILED
360
305A
  0
DICTIONARY
  5
305B
330
2EAE
100
AcDbDictionary
280
     1
281
     1
  3
ADSK_XREC_LAYER_RECONCILED
360
305C
  0
DICTIONARY
  5
305D
330
2EB0
100
AcDbDictionary
280
     1
281
     1
  3
ADSK_XREC_LAYER_RECONCILED
360
305E
  0
DICTIONARY
  5
305F
330
2EB1
100
AcDbDictionary
280
     1
281
     1
  3
ADSK_XREC_LAYER_RECONCILED
360
3060
  0
DICTIONARY
  5
3061
330
2EB2
100
AcDbDictionary
280
     1
281
     1
  3
ADSK_XREC_LAYER_RECONCILED
360
3062
  0
DICTIONARY
  5
3063
330
2EB3
100
AcDbDictionary
280
     1
281
     1
  3
ADSK_XREC_LAYER_RECONCILED
360
3064
  0
DICTIONARY
  5
3065
330
2EB4
100
AcDbDictionary
280
     1
281
     1
  3
ADSK_XREC_LAYER_RECONCILED
360
3066
  0
DICTIONARY
  5
3067
330
2E93
100
AcDbDictionary
280
     1
281
     1
  3
ACAD_INDEX
360
3068
  0
DICTIONARY
  5
3081
102
{ACAD_REACTORS
330
2E2B
102
}
330
2E2B
100
AcDbDictionary
281
     1
  3
DIMARCSYM
350
3082
  3
DIMLTEX1
350
3084
  3
DIMLTEX2
350
3085
  3
DIMLTYPE
350
3083
  0
DICTIONARY
  5
2E89
102
{ACAD_REACTORS
330
2E2B
102
}
330
2E2B
100
AcDbDictionary
281
     1
  0
DICTIONARY
  5
2E2C
102
{ACAD_REACTORS
330
2E2B
102
}
330
2E2B
100
AcDbDictionary
281
     1
  0
DICTIONARY
  5
2E88
102
{ACAD_REACTORS
330
2E2B
102
}
330
2E2B
100
AcDbDictionary
281
     1
  3
Model
350
2E96
  3
レイアウト1
350
2E92
  0
DICTIONARY
  5
2E2F
102
{ACAD_REACTORS
330
2E2B
102
}
330
2E2B
100
AcDbDictionary
281
     1
  3
ByBlock
350
2E38
  3
ByLayer
350
2E30
  3
Global
350
2E40
  0
DICTIONARY
  5
2E8C
102
{ACAD_REACTORS
330
2E2B
102
}
330
2E2B
100
AcDbDictionary
281
     1
  3
Standard
350
2E8D
  0
DICTIONARY
  5
2E85
102
{ACAD_REACTORS
330
2E2B
102
}
330
2E2B
100
AcDbDictionary
281
     1
  3
Standard
350
2E86
  0
DICTIONARY
  5
2E87
102
{ACAD_REACTORS
330
2E2B
102
}
330
2E2B
100
AcDbDictionary
281
     1
  0
ACDBDICTIONARYWDFLT
  5
2E2D
102
{ACAD_REACTORS
330
2E2B
102
}
330
2E2B
100
AcDbDictionary
281
     1
  3
Normal
350
2E2E
100
AcDbDictionaryWithDefault
340
2E2E
  0
DICTIONARY
  5
2E59
102
{ACAD_REACTORS
330
2E2B
102
}
330
2E2B
100
AcDbDictionary
281
     1
  3
A0
350
2E5A
  3
A1
350
2E5B
  3
A2
350
2E5C
  3
A3
350
2E5D
  3
A4
350
2E5E
  3
A5
350
2E5F
  3
A6
350
2E60
  3
A7
350
2E61
  3
A8
350
2E62
  3
A9
350
2E63
  3
B0
350
2E64
  3
B1
350
2E65
  3
B2
350
2E66
  3
B3
350
2E67
  3
B4
350
2E68
  3
B5
350
2E69
  3
B6
350
2E6A
  3
B7
350
2E6B
  3
B8
350
2E6C
  3
B9
350
2E6D
  3
C0
350
2E6E
  3
C1
350
2E6F
  3
C2
350
2E70
  3
C3
350
2E71
  3
C4
350
2E72
  3
C5
350
2E73
  3
C6
350
2E74
  3
C7
350
2E75
  3
C8
350
2E76
  3
C9
350
2E77
  3
D0
350
2E78
  3
D1
350
2E79
  3
D2
350
2E7A
  0
DICTIONARY
  5
2E8A
102
{ACAD_REACTORS
330
2E2B
102
}
330
2E2B
100
AcDbDictionary
281
     1
  3
Standard
350
2E8B
  0
DICTIONARY
  5
2E48
102
{ACAD_REACTORS
330
2E2B
102
}
330
2E2B
100
AcDbDictionary
281
     1
  3
2dWireframe
350
2E4E
  3
3D Hidden
350
2E50
  3
3dWireframe
350
2E4F
  3
Basic
350
2E4D
  3
Brighten
350
2E54
  3
ColorChange
350
2E58
  3
Conceptual
350
2E51
  3
Dim
350
2E53
  3
Facepattern
350
2E57
  3
Flat
350
2E49
  3
FlatWithEdges
350
2E4A
  3
Gouraud
350
2E4B
  3
GouraudWithEdges
350
2E4C
  3
Linepattern
350
2E56
  3
Realistic
350
2E52
  3
Thicken
350
2E55
  0
XRECORD
  5
307F
102
{ACAD_REACTORS
330
2E2B
102
}
330
2E2B
100
AcDbXrecord
280
     1
 90
        1
330
2E8B
  0
DICTIONARY
  5
3076
102
{ACAD_REACTORS
330
2E2B
102
}
330
2E2B
100
AcDbDictionary
281
     1
  3
CANNOSCALE
350
3079
  3
CMLEADERSTYLE
350
3078
  3
CTABLESTYLE
350
3077
  3
DIMASSOC
350
307C
  3
INDEXCTL
350
307B
  3
SORTENTS
350
307A
  0
DICTIONARY
  5
3029
102
{ACAD_REACTORS
330
2E2B
102
}
330
2E2B
100
AcDbDictionary
281
     1
  3
AcmStdDictionary
350
3037
  0
DICTIONARY
  5
2F76
102
{ACAD_REACTORS
330
2E2B
102
}
330
2E2B
100
AcDbDictionary
281
     1
  3
AcMgSettings
350
2F77
  0
XRECORD
  5
3080
102
{ACAD_REACTORS
330
2E2B
102
}
330
2E2B
100
AcDbXrecord
280
     1
  1
DWGPROPS COOKIE
  2

  3

  4

  6

  7

  8
A090053
  9

300
AmdtFileType=84
301
=
302
=
303
=
304
=
305
=
306
=
307
=
308
=
309
=
 40
1.041738981481481
 41
2452321.396199653
 42
2456212.854520961
  1

 90
        1
  0
XRECORD
  5
3052
102
{ACAD_REACTORS
330
3051
102
}
330
3051
100
AcDbXrecord
280
     1
290
     1
  0
XRECORD
  5
3054
102
{ACAD_REACTORS
330
3053
102
}
330
3053
100
AcDbXrecord
280
     1
290
     1
  0
XRECORD
  5
3056
102
{ACAD_REACTORS
330
3055
102
}
330
3055
100
AcDbXrecord
280
     1
290
     1
  0
XRECORD
  5
3058
102
{ACAD_REACTORS
330
3057
102
}
330
3057
100
AcDbXrecord
280
     1
290
     1
  0
XRECORD
  5
305A
102
{ACAD_REACTORS
330
3059
102
}
330
3059
100
AcDbXrecord
280
     1
290
     1
  0
XRECORD
  5
305C
102
{ACAD_REACTORS
330
305B
102
}
330
305B
100
AcDbXrecord
280
     1
290
     1
  0
XRECORD
  5
305E
102
{ACAD_REACTORS
330
305D
102
}
330
305D
100
AcDbXrecord
280
     1
290
     1
  0
XRECORD
  5
3060
102
{ACAD_REACTORS
330
305F
102
}
330
305F
100
AcDbXrecord
280
     1
290
     1
  0
XRECORD
  5
3062
102
{ACAD_REACTORS
330
3061
102
}
330
3061
100
AcDbXrecord
280
     1
290
     1
  0
XRECORD
  5
3064
102
{ACAD_REACTORS
330
3063
102
}
330
3063
100
AcDbXrecord
280
     1
290
     1
  0
XRECORD
  5
3066
102
{ACAD_REACTORS
330
3065
102
}
330
3065
100
AcDbXrecord
280
     1
290
     1
  0
DICTIONARY
  5
3068
102
{ACAD_REACTORS
330
3067
102
}
330
3067
100
AcDbDictionary
281
     1
  3
*A1
350
3069
  0
XRECORD
  5
3082
102
{ACAD_REACTORS
330
3081
102
}
330
3081
100
AcDbXrecord
280
     1
 70
     1
  0
XRECORD
  5
3084
102
{ACAD_REACTORS
330
3081
102
}
330
3081
100
AcDbXrecord
280
     1
340
2E81
  0
XRECORD
  5
3085
102
{ACAD_REACTORS
330
3081
102
}
330
3081
100
AcDbXrecord
280
     1
340
2E81
  0
XRECORD
  5
3083
102
{ACAD_REACTORS
330
3081
102
}
330
3081
100
AcDbXrecord
280
     1
340
2E81
  0
LAYOUT
  5
2E96
102
{ACAD_XDICTIONARY
360
308C
102
}
102
{ACAD_REACTORS
330
2E88
102
}
330
2E88
100
AcDbPlotSettings
  1

  2
自動 EPSON LP-9600S (W2450527 上)
  4

  6

 40
0.0
 41
0.0
 42
0.0
 43
0.0
 44
0.0
 45
0.0
 46
0.0
 47
0.0
 48
0.0
 49
0.0
140
0.0
141
0.0
142
1.0
143
1.0
 70
  1712
 72
     0
 73
     0
 74
     0
  7

 75
     0
147
1.0
148
0.0
149
0.0
100
AcDbLayout
  1
Model
 70
     1
 71
     0
 10
0.0
 20
0.0
 11
12.0
 21
9.0
 12
0.0
 22
0.0
 32
0.0
 14
0.0
 24
0.0
 34
0.0
 15
0.0
 25
0.0
 35
0.0
146
0.0
 13
0.0
 23
0.0
 33
0.0
 16
1.0
 26
0.0
 36
0.0
 17
0.0
 27
1.0
 37
0.0
 76
     0
330
2E93
331
2E97
  0
LAYOUT
  5
2E92
102
{ACAD_XDICTIONARY
360
308A
102
}
102
{ACAD_REACTORS
330
2E88
102
}
330
2E88
100
AcDbPlotSettings
  1

  2
自動 EPSON LP-9600S (W2450527 上)
  4

  6

 40
0.0
 41
0.0
 42
0.0
 43
0.0
 44
0.0
 45
0.0
 46
0.0
 47
0.0
 48
0.0
 49
0.0
140
0.0
141
0.0
142
1.0
143
1.0
 70
   688
 72
     0
 73
     0
 74
     5
  7

 75
    16
147
1.0
148
0.0
149
0.0
100
AcDbLayout
  1
レイアウト1
 70
     1
 71
     1
 10
0.0
 20
0.0
 11
12.0
 21
9.0
 12
0.0
 22
0.0
 32
0.0
 14
1.000000000000000E+20
 24
1.000000000000000E+20
 34
1.000000000000000E+20
 15
-1.000000000000000E+20
 25
-1.000000000000000E+20
 35
-1.000000000000000E+20
146
0.0
 13
0.0
 23
0.0
 33
0.0
 16
1.0
 26
0.0
 36
0.0
 17
0.0
 27
1.0
 37
0.0
 76
     0
330
2E8F
  0
MATERIAL
  5
2E38
102
{ACAD_XDICTIONARY
360
2E39
102
}
102
{ACAD_REACTORS
330
2E2F
102
}
330
2E2F
100
AcDbMaterial
  1
ByBlock
 72
     0
 43
0.0208333333333333
 43
0.0
 43
0.0
 43
0.0
 43
0.0
 43
0.0208333333333333
 43
0.0
 43
0.0
 43
0.0
 43
0.0
 43
1.0
 43
0.0
 43
0.0
 43
0.0
 43
0.0
 43
1.0
 77
     0
 47
0.0208333333333333
 47
0.0
 47
0.0
 47
0.0
 47
0.0
 47
0.0208333333333333
 47
0.0
 47
0.0
 47
0.0
 47
0.0
 47
1.0
 47
0.0
 47
0.0
 47
0.0
 47
0.0
 47
1.0
171
     0
 49
0.0208333333333333
 49
0.0
 49
0.0
 49
0.0
 49
0.0
 49
0.0208333333333333
 49
0.0
 49
0.0
 49
0.0
 49
0.0
 49
1.0
 49
0.0
 49
0.0
 49
0.0
 49
0.0
 49
1.0
175
     0
142
0.0208333333333333
142
0.0
142
0.0
142
0.0
142
0.0
142
0.0208333333333333
142
0.0
142
0.0
142
0.0
142
0.0
142
1.0
142
0.0
142
0.0
142
0.0
142
0.0
142
1.0
179
     0
144
0.0208333333333333
144
0.0
144
0.0
144
0.0
144
0.0
144
0.0208333333333333
144
0.0
144
0.0
144
0.0
144
0.0
144
1.0
144
0.0
144
0.0
144
0.0
144
0.0
144
1.0
147
0.0208333333333333
147
0.0
147
0.0
147
0.0
147
0.0
147
0.0208333333333333
147
0.0
147
0.0
147
0.0
147
0.0
147
1.0
147
0.0
147
0.0
147
0.0
147
0.0
147
1.0
  0
MATERIAL
  5
2E30
102
{ACAD_XDICTIONARY
360
2E31
102
}
102
{ACAD_REACTORS
330
2E2F
102
}
330
2E2F
100
AcDbMaterial
  1
ByLayer
 72
     0
 43
0.0208333333333333
 43
0.0
 43
0.0
 43
0.0
 43
0.0
 43
0.0208333333333333
 43
0.0
 43
0.0
 43
0.0
 43
0.0
 43
1.0
 43
0.0
 43
0.0
 43
0.0
 43
0.0
 43
1.0
 77
     0
 47
0.0208333333333333
 47
0.0
 47
0.0
 47
0.0
 47
0.0
 47
0.0208333333333333
 47
0.0
 47
0.0
 47
0.0
 47
0.0
 47
1.0
 47
0.0
 47
0.0
 47
0.0
 47
0.0
 47
1.0
171
     0
 49
0.0208333333333333
 49
0.0
 49
0.0
 49
0.0
 49
0.0
 49
0.0208333333333333
 49
0.0
 49
0.0
 49
0.0
 49
0.0
 49
1.0
 49
0.0
 49
0.0
 49
0.0
 49
0.0
 49
1.0
175
     0
142
0.0208333333333333
142
0.0
142
0.0
142
0.0
142
0.0
142
0.0208333333333333
142
0.0
142
0.0
142
0.0
142
0.0
142
1.0
142
0.0
142
0.0
142
0.0
142
0.0
142
1.0
179
     0
144
0.0208333333333333
144
0.0
144
0.0
144
0.0
144
0.0
144
0.0208333333333333
144
0.0
144
0.0
144
0.0
144
0.0
144
1.0
144
0.0
144
0.0
144
0.0
144
0.0
144
1.0
147
0.0208333333333333
147
0.0
147
0.0
147
0.0
147
0.0
147
0.0208333333333333
147
0.0
147
0.0
147
0.0
147
0.0
147
1.0
147
0.0
147
0.0
147
0.0
147
0.0
147
1.0
  0
MATERIAL
  5
2E40
102
{ACAD_XDICTIONARY
360
2E41
102
}
102
{ACAD_REACTORS
330
2E2F
102
}
330
2E2F
100
AcDbMaterial
  1
Global
 72
     0
 43
0.0208333333333333
 43
0.0
 43
0.0
 43
0.0
 43
0.0
 43
0.0208333333333333
 43
0.0
 43
0.0
 43
0.0
 43
0.0
 43
1.0
 43
0.0
 43
0.0
 43
0.0
 43
0.0
 43
1.0
 77
     0
 47
0.0208333333333333
 47
0.0
 47
0.0
 47
0.0
 47
0.0
 47
0.0208333333333333
 47
0.0
 47
0.0
 47
0.0
 47
0.0
 47
1.0
 47
0.0
 47
0.0
 47
0.0
 47
0.0
 47
1.0
171
     0
 49
0.0208333333333333
 49
0.0
 49
0.0
 49
0.0
 49
0.0
 49
0.0208333333333333
 49
0.0
 49
0.0
 49
0.0
 49
0.0
 49
1.0
 49
0.0
 49
0.0
 49
0.0
 49
0.0
 49
1.0
175
     0
142
0.0208333333333333
142
0.0
142
0.0
142
0.0
142
0.0
142
0.0208333333333333
142
0.0
142
0.0
142
0.0
142
0.0
142
1.0
142
0.0
142
0.0
142
0.0
142
0.0
142
1.0
179
     0
144
0.0208333333333333
144
0.0
144
0.0
144
0.0
144
0.0
144
0.0208333333333333
144
0.0
144
0.0
144
0.0
144
0.0
144
1.0
144
0.0
144
0.0
144
0.0
144
0.0
144
1.0
147
0.0208333333333333
147
0.0
147
0.0
147
0.0
147
0.0
147
0.0208333333333333
147
0.0
147
0.0
147
0.0
147
0.0
147
1.0
147
0.0
147
0.0
147
0.0
147
0.0
147
1.0
  0
MLEADERSTYLE
  5
2E8D
102
{ACAD_REACTORS
330
2E8C
102
}
330
2E8C
100
AcDbMLeaderStyle
170
     2
171
     1
172
     0
 90
        2
 40
0.0
 41
0.0
173
     1
 91
-1056964608
340
2E81
 92
       -2
290
     1
 42
0.09
291
     1
 43
0.36
  3
Standard
 44
0.18
300

342
2E7C
174
     1
178
     6
175
     1
176
     0
 93
-1056964608
 45
0.18
292
     0
297
     0
 46
0.18
 94
-1056964608
 47
1.0
 49
1.0
140
1.0
293
     1
141
0.0
294
     1
177
     0
142
1.0
295
     0
296
     0
143
0.125
1001
ACAD_MLEADERVER
1070
     2
  0
MLINESTYLE
  5
2E86
102
{ACAD_REACTORS
330
2E85
102
}
330
2E85
100
AcDbMlineStyle
  2
STANDARD
 70
     0
  3

 62
   256
 51
90.0
 52
90.0
 71
     2
 49
0.5
 62
   256
  6
BYLAYER
 49
-0.5
 62
   256
  6
BYLAYER
  0
ACDBPLACEHOLDER
  5
2E2E
102
{ACAD_REACTORS
330
2E2D
102
}
330
2E2D
  0
SCALE
  5
2E5A
102
{ACAD_REACTORS
330
2E59
102
}
330
2E59
100
AcDbScale
 70
     0
300
1:1
140
1.0
141
1.0
290
     1
  0
SCALE
  5
2E5B
102
{ACAD_REACTORS
330
2E59
102
}
330
2E59
100
AcDbScale
 70
     0
300
1:2
140
1.0
141
2.0
290
     0
  0
SCALE
  5
2E5C
102
{ACAD_REACTORS
330
2E59
102
}
330
2E59
100
AcDbScale
 70
     0
300
1:4
140
1.0
141
4.0
290
     0
  0
SCALE
  5
2E5D
102
{ACAD_REACTORS
330
2E59
102
}
330
2E59
100
AcDbScale
 70
     0
300
1:5
140
1.0
141
5.0
290
     0
  0
SCALE
  5
2E5E
102
{ACAD_REACTORS
330
2E59
102
}
330
2E59
100
AcDbScale
 70
     0
300
1:8
140
1.0
141
8.0
290
     0
  0
SCALE
  5
2E5F
102
{ACAD_REACTORS
330
2E59
102
}
330
2E59
100
AcDbScale
 70
     0
300
1:10
140
1.0
141
10.0
290
     0
  0
SCALE
  5
2E60
102
{ACAD_REACTORS
330
2E59
102
}
330
2E59
100
AcDbScale
 70
     0
300
1:16
140
1.0
141
16.0
290
     0
  0
SCALE
  5
2E61
102
{ACAD_REACTORS
330
2E59
102
}
330
2E59
100
AcDbScale
 70
     0
300
1:20
140
1.0
141
20.0
290
     0
  0
SCALE
  5
2E62
102
{ACAD_REACTORS
330
2E59
102
}
330
2E59
100
AcDbScale
 70
     0
300
1:30
140
1.0
141
30.0
290
     0
  0
SCALE
  5
2E63
102
{ACAD_REACTORS
330
2E59
102
}
330
2E59
100
AcDbScale
 70
     0
300
1:40
140
1.0
141
40.0
290
     0
  0
SCALE
  5
2E64
102
{ACAD_REACTORS
330
2E59
102
}
330
2E59
100
AcDbScale
 70
     0
300
1:50
140
1.0
141
50.0
290
     0
  0
SCALE
  5
2E65
102
{ACAD_REACTORS
330
2E59
102
}
330
2E59
100
AcDbScale
 70
     0
300
1:100
140
1.0
141
100.0
290
     0
  0
SCALE
  5
2E66
102
{ACAD_REACTORS
330
2E59
102
}
330
2E59
100
AcDbScale
 70
     0
300
2:1
140
2.0
141
1.0
290
     0
  0
SCALE
  5
2E67
102
{ACAD_REACTORS
330
2E59
102
}
330
2E59
100
AcDbScale
 70
     0
300
4:1
140
4.0
141
1.0
290
     0
  0
SCALE
  5
2E68
102
{ACAD_REACTORS
330
2E59
102
}
330
2E59
100
AcDbScale
 70
     0
300
8:1
140
8.0
141
1.0
290
     0
  0
SCALE
  5
2E69
102
{ACAD_REACTORS
330
2E59
102
}
330
2E59
100
AcDbScale
 70
     0
300
10:1
140
10.0
141
1.0
290
     0
  0
SCALE
  5
2E6A
102
{ACAD_REACTORS
330
2E59
102
}
330
2E59
100
AcDbScale
 70
     0
300
100:1
140
100.0
141
1.0
290
     0
  0
SCALE
  5
2E6B
102
{ACAD_REACTORS
330
2E59
102
}
330
2E59
100
AcDbScale
 70
     0
300
1/128" = 1'-0"
140
0.0078125
141
12.0
290
     0
  0
SCALE
  5
2E6C
102
{ACAD_REACTORS
330
2E59
102
}
330
2E59
100
AcDbScale
 70
     0
300
1/64" = 1'-0"
140
0.015625
141
12.0
290
     0
  0
SCALE
  5
2E6D
102
{ACAD_REACTORS
330
2E59
102
}
330
2E59
100
AcDbScale
 70
     0
300
1/32" = 1'-0"
140
0.03125
141
12.0
290
     0
  0
SCALE
  5
2E6E
102
{ACAD_REACTORS
330
2E59
102
}
330
2E59
100
AcDbScale
 70
     0
300
1/16" = 1'-0"
140
0.0625
141
12.0
290
     0
  0
SCALE
  5
2E6F
102
{ACAD_REACTORS
330
2E59
102
}
330
2E59
100
AcDbScale
 70
     0
300
3/32" = 1'-0"
140
0.09375
141
12.0
290
     0
  0
SCALE
  5
2E70
102
{ACAD_REACTORS
330
2E59
102
}
330
2E59
100
AcDbScale
 70
     0
300
1/8" = 1'-0"
140
0.125
141
12.0
290
     0
  0
SCALE
  5
2E71
102
{ACAD_REACTORS
330
2E59
102
}
330
2E59
100
AcDbScale
 70
     0
300
3/16" = 1'-0"
140
0.1875
141
12.0
290
     0
  0
SCALE
  5
2E72
102
{ACAD_REACTORS
330
2E59
102
}
330
2E59
100
AcDbScale
 70
     0
300
1/4" = 1'-0"
140
0.25
141
12.0
290
     0
  0
SCALE
  5
2E73
102
{ACAD_REACTORS
330
2E59
102
}
330
2E59
100
AcDbScale
 70
     0
300
3/8" = 1'-0"
140
0.375
141
12.0
290
     0
  0
SCALE
  5
2E74
102
{ACAD_REACTORS
330
2E59
102
}
330
2E59
100
AcDbScale
 70
     0
300
1/2" = 1'-0"
140
0.5
141
12.0
290
     0
  0
SCALE
  5
2E75
102
{ACAD_REACTORS
330
2E59
102
}
330
2E59
100
AcDbScale
 70
     0
300
3/4" = 1'-0"
140
0.75
141
12.0
290
     0
  0
SCALE
  5
2E76
102
{ACAD_REACTORS
330
2E59
102
}
330
2E59
100
AcDbScale
 70
     0
300
1" = 1'-0"
140
1.0
141
12.0
290
     0
  0
SCALE
  5
2E77
102
{ACAD_REACTORS
330
2E59
102
}
330
2E59
100
AcDbScale
 70
     0
300
1-1/2" = 1'-0"
140
1.5
141
12.0
290
     0
  0
SCALE
  5
2E78
102
{ACAD_REACTORS
330
2E59
102
}
330
2E59
100
AcDbScale
 70
     0
300
3" = 1'-0"
140
3.0
141
12.0
290
     0
  0
SCALE
  5
2E79
102
{ACAD_REACTORS
330
2E59
102
}
330
2E59
100
AcDbScale
 70
     0
300
6" = 1'-0"
140
6.0
141
12.0
290
     0
  0
SCALE
  5
2E7A
102
{ACAD_REACTORS
330
2E59
102
}
330
2E59
100
AcDbScale
 70
     0
300
1'-0" = 1'-0"
140
12.0
141
12.0
290
     0
  0
TABLESTYLE
  5
2E8B
102
{ACAD_XDICTIONARY
360
307D
102
}
102
{ACAD_REACTORS
330
2E8A
102
}
330
2E8A
100
AcDbTableStyle
  3
Standard
 70
     0
 71
     0
 40
0.06
 41
0.06
280
     0
281
     0
  7
STANDARD
140
0.18
170
     2
 62
     0
 63
     7
283
     0
274
    -2
284
     1
 64
     0
275
    -2
285
     1
 65
     0
276
    -2
286
     1
 66
     0
277
    -2
287
     1
 67
     0
278
    -2
288
     1
 68
     0
279
    -2
289
     1
 69
     0
  7
STANDARD
140
0.25
170
     5
 62
     0
 63
     7
283
     0
274
    -2
284
     1
 64
     0
275
    -2
285
     1
 65
     0
276
    -2
286
     1
 66
     0
277
    -2
287
     1
 67
     0
278
    -2
288
     1
 68
     0
279
    -2
289
     1
 69
     0
  7
STANDARD
140
0.18
170
     5
 62
     0
 63
     7
283
     0
274
    -2
284
     1
 64
     0
275
    -2
285
     1
 65
     0
276
    -2
286
     1
 66
     0
277
    -2
287
     1
 67
     0
278
    -2
288
     1
 68
     0
279
    -2
289
     1
 69
     0
  0
VISUALSTYLE
  5
2E4E
102
{ACAD_REACTORS
330
2E48
102
}
330
2E48
100
AcDbVisualStyle
  2
2dWireframe
 70
     4
 71
     0
 72
     2
 73
     0
 90
        0
 40
-0.6
 41
-30.0
 62
     5
 63
     7
 74
     1
 91
        4
 64
     7
 65
   257
 75
     1
175
     1
 42
1.0
 92
        0
 66
   257
 43
1.0
 76
     1
 77
     6
 78
     2
 67
     7
 79
     5
170
     0
171
     0
290
     0
174
     0
 93
        1
 44
0.0
173
     0
291
     0
 45
0.0
1001
ACAD
1000
AcDbSavedByObjectVersion
1070
     0
  0
VISUALSTYLE
  5
2E50
102
{ACAD_REACTORS
330
2E48
102
}
330
2E48
100
AcDbVisualStyle
  2
3D Hidden
 70
     6
 71
     1
 72
     2
 73
     2
 90
        0
 40
-0.6
 41
-30.0
 62
     5
 63
     7
 74
     2
 91
        2
 64
     7
 65
   257
 75
     2
175
     1
 42
40.0
 92
        0
 66
   257
 43
1.0
 76
     1
 77
     6
 78
     2
 67
     7
 79
     3
170
     0
171
     0
290
     0
174
     0
 93
        1
 44
0.0
173
     0
291
     0
 45
0.0
1001
ACAD
1000
AcDbSavedByObjectVersion
1070
     0
  0
VISUALSTYLE
  5
2E4F
102
{ACAD_REACTORS
330
2E48
102
}
330
2E48
100
AcDbVisualStyle
  2
3dWireframe
 70
     5
 71
     0
 72
     2
 73
     0
 90
        0
 40
-0.6
 41
-30.0
 62
     5
 63
     7
 74
     1
 91
        4
 64
     7
 65
   257
 75
     1
175
     1
 42
1.0
 92
        0
 66
   257
 43
1.0
 76
     1
 77
     6
 78
     2
 67
     7
 79
     5
170
     0
171
     0
290
     0
174
     0
 93
        1
 44
0.0
173
     0
291
     0
 45
0.0
1001
ACAD
1000
AcDbSavedByObjectVersion
1070
     0
  0
VISUALSTYLE
  5
2E4D
102
{ACAD_REACTORS
330
2E48
102
}
330
2E48
100
AcDbVisualStyle
  2
Basic
 70
     7
 71
     1
 72
     0
 73
     1
 90
        0
 40
-0.6
 41
-30.0
 62
     5
 63
     7
 74
     0
 91
        4
 64
     7
 65
   257
 75
     1
175
     1
 42
1.0
 92
        8
 66
     7
 43
1.0
 76
     1
 77
     6
 78
     2
 67
     7
 79
     5
170
     0
171
     0
290
     0
174
     0
 93
        1
 44
0.0
173
     0
291
     1
 45
0.0
1001
ACAD
1000
AcDbSavedByObjectVersion
1070
     0
  0
VISUALSTYLE
  5
2E54
102
{ACAD_REACTORS
330
2E48
102
}
330
2E48
100
AcDbVisualStyle
  2
Brighten
 70
    12
 71
     2
 72
     2
 73
     0
 90
        0
 40
-0.6
 41
-30.0
 62
     5
 63
     7
 74
     1
 91
        4
 64
     7
 65
   257
 75
     1
175
     1
 42
1.0
 92
        8
 66
     7
 43
1.0
 76
     1
 77
     6
 78
     2
 67
     7
 79
     5
170
     0
171
     0
290
     0
174
     0
 93
        1
 44
50.0
173
     0
291
     1
 45
0.0
1001
ACAD
1000
AcDbSavedByObjectVersion
1070
     0
  0
VISUALSTYLE
  5
2E58
102
{ACAD_REACTORS
330
2E48
102
}
330
2E48
100
AcDbVisualStyle
  2
ColorChange
 70
    16
 71
     2
 72
     2
 73
     3
 90
        0
 40
-0.6
 41
-30.0
 62
     5
 63
     8
 74
     1
 91
        4
 64
     7
 65
   257
 75
     1
175
     1
 42
1.0
 92
        8
 66
     8
 43
1.0
 76
     1
 77
     6
 78
     2
 67
     7
 79
     5
170
     0
171
     0
290
     0
174
     0
 93
        1
 44
0.0
173
     0
291
     1
 45
0.0
1001
ACAD
1000
AcDbSavedByObjectVersion
1070
     0
  0
VISUALSTYLE
  5
2E51
102
{ACAD_REACTORS
330
2E48
102
}
330
2E48
100
AcDbVisualStyle
  2
Conceptual
 70
     9
 71
     3
 72
     2
 73
     0
 90
        0
 40
-0.6
 41
-30.0
 62
     5
 63
     7
 74
     2
 91
        2
 64
     7
 65
   257
 75
     1
175
     1
 42
40.0
 92
        8
 66
     7
 43
1.0
 76
     1
 77
     6
 78
     2
 67
     7
 79
     3
170
     0
171
     0
290
     0
174
     0
 93
        1
 44
0.0
173
     0
291
     0
 45
0.0
1001
ACAD
1000
AcDbSavedByObjectVersion
1070
     0
  0
VISUALSTYLE
  5
2E53
102
{ACAD_REACTORS
330
2E48
102
}
330
2E48
100
AcDbVisualStyle
  2
Dim
 70
    11
 71
     2
 72
     2
 73
     0
 90
        0
 40
-0.6
 41
-30.0
 62
     5
 63
     7
 74
     1
 91
        4
 64
     7
 65
   257
 75
     1
175
     1
 42
1.0
 92
        8
 66
     7
 43
1.0
 76
     1
 77
     6
 78
     2
 67
     7
 79
     5
170
     0
171
     0
290
     0
174
     0
 93
        1
 44
-50.0
173
     0
291
     1
 45
0.0
1001
ACAD
1000
AcDbSavedByObjectVersion
1070
     0
  0
VISUALSTYLE
  5
2E57
102
{ACAD_REACTORS
330
2E48
102
}
330
2E48
100
AcDbVisualStyle
  2
Facepattern
 70
    15
 71
     2
 72
     2
 73
     0
 90
        0
 40
-0.6
 41
-30.0
 62
     5
 63
     7
 74
     1
 91
        4
 64
     7
 65
   257
 75
     1
175
     1
 42
1.0
 92
        8
 66
     7
 43
1.0
 76
     1
 77
     6
 78
     2
 67
     7
 79
     5
170
     0
171
     0
290
     0
174
     0
 93
        1
 44
0.0
173
     0
291
     1
 45
0.0
1001
ACAD
1000
AcDbSavedByObjectVersion
1070
     0
  0
VISUALSTYLE
  5
2E49
102
{ACAD_REACTORS
330
2E48
102
}
330
2E48
100
AcDbVisualStyle
  2
Flat
 70
     0
 71
     2
 72
     1
 73
     1
 90
        2
 40
-0.6
 41
30.0
 62
     5
 63
     7
 74
     0
 91
        4
 64
     7
 65
   257
 75
     1
175
     1
 42
1.0
 92
        8
 66
     7
 43
1.0
 76
     1
 77
     6
 78
     2
 67
     7
 79
     5
170
     0
171
     0
290
     0
174
     0
 93
       13
 44
0.0
173
     0
291
     1
 45
0.0
1001
ACAD
1000
AcDbSavedByObjectVersion
1070
     0
  0
VISUALSTYLE
  5
2E4A
102
{ACAD_REACTORS
330
2E48
102
}
330
2E48
100
AcDbVisualStyle
  2
FlatWithEdges
 70
     1
 71
     2
 72
     1
 73
     1
 90
        2
 40
-0.6
 41
30.0
 62
     5
 63
     7
 74
     1
 91
        4
 64
     7
 65
   257
 75
     1
175
     1
 42
1.0
 92
        0
 66
   257
 43
1.0
 76
     1
 77
     6
 78
     2
 67
     7
 79
     5
170
     0
171
     0
290
     0
174
     0
 93
       13
 44
0.0
173
     0
291
     1
 45
0.0
1001
ACAD
1000
AcDbSavedByObjectVersion
1070
     0
  0
VISUALSTYLE
  5
2E4B
102
{ACAD_REACTORS
330
2E48
102
}
330
2E48
100
AcDbVisualStyle
  2
Gouraud
 70
     2
 71
     2
 72
     2
 73
     1
 90
        2
 40
-0.6
 41
30.0
 62
     5
 63
     7
 74
     0
 91
        4
 64
     7
 65
   257
 75
     1
175
     1
 42
1.0
 92
        0
 66
     7
 43
1.0
 76
     1
 77
     6
 78
     2
 67
     7
 79
     5
170
     0
171
     0
290
     0
174
     0
 93
       13
 44
0.0
173
     0
291
     1
 45
0.0
1001
ACAD
1000
AcDbSavedByObjectVersion
1070
     0
  0
VISUALSTYLE
  5
2E4C
102
{ACAD_REACTORS
330
2E48
102
}
330
2E48
100
AcDbVisualStyle
  2
GouraudWithEdges
 70
     3
 71
     2
 72
     2
 73
     1
 90
        2
 40
-0.6
 41
30.0
 62
     5
 63
     7
 74
     1
 91
        4
 64
     7
 65
   257
 75
     1
175
     1
 42
1.0
 92
        0
 66
   257
 43
1.0
 76
     1
 77
     6
 78
     2
 67
     7
 79
     5
170
     0
171
     0
290
     0
174
     0
 93
       13
 44
0.0
173
     0
291
     1
 45
0.0
1001
ACAD
1000
AcDbSavedByObjectVersion
1070
     0
  0
VISUALSTYLE
  5
2E56
102
{ACAD_REACTORS
330
2E48
102
}
330
2E48
100
AcDbVisualStyle
  2
Linepattern
 70
    14
 71
     2
 72
     2
 73
     0
 90
        0
 40
-0.6
 41
-30.0
 62
     5
 63
     7
 74
     1
 91
        4
 64
     7
 65
   257
 75
     7
175
     7
 42
1.0
 92
        8
 66
     7
 43
1.0
 76
     1
 77
     6
 78
     2
 67
     7
 79
     5
170
     0
171
     0
290
     0
174
     0
 93
        1
 44
0.0
173
     0
291
     1
 45
0.0
1001
ACAD
1000
AcDbSavedByObjectVersion
1070
     0
  0
VISUALSTYLE
  5
2E52
102
{ACAD_REACTORS
330
2E48
102
}
330
2E48
100
AcDbVisualStyle
  2
Realistic
 70
     8
 71
     2
 72
     2
 73
     0
 90
        0
 40
-0.6
 41
-30.0
 62
     5
 63
     7
 74
     1
 91
        0
 64
     7
 65
   257
 75
     1
175
     1
 42
1.0
 92
        8
 66
     8
 43
1.0
 76
     1
 77
     6
 78
     2
 67
     7
 79
     5
170
     0
171
     0
290
     0
174
     0
 93
       13
 44
0.0
173
     0
291
     0
 45
0.0
1001
ACAD
1000
AcDbSavedByObjectVersion
1070
     0
  0
VISUALSTYLE
  5
2E55
102
{ACAD_REACTORS
330
2E48
102
}
330
2E48
100
AcDbVisualStyle
  2
Thicken
 70
    13
 71
     2
 72
     2
 73
     0
 90
        0
 40
-0.6
 41
-30.0
 62
     5
 63
     7
 74
     1
 91
        4
 64
     7
 65
   257
 75
     1
175
     1
 42
1.0
 92
       12
 66
     7
 43
1.0
 76
     1
 77
     6
 78
     2
 67
     7
 79
     5
170
     0
171
     0
290
     0
174
     0
 93
        1
 44
0.0
173
     0
291
     1
 45
0.0
1001
ACAD
1000
AcDbSavedByObjectVersion
1070
     0
  0
DICTIONARYVAR
  5
3079
102
{ACAD_REACTORS
330
3076
102
}
330
3076
100
DictionaryVariables
280
     0
  1
1:1
  0
DICTIONARYVAR
  5
3078
102
{ACAD_REACTORS
330
3076
102
}
330
3076
100
DictionaryVariables
280
     0
  1
STANDARD
  0
DICTIONARYVAR
  5
3077
102
{ACAD_REACTORS
330
3076
102
}
330
3076
100
DictionaryVariables
280
     0
  1
STANDARD
  0
DICTIONARYVAR
  5
307C
102
{ACAD_REACTORS
330
3076
102
}
330
3076
100
DictionaryVariables
280
     0
  1
1
  0
DICTIONARYVAR
  5
307B
102
{ACAD_REACTORS
330
3076
102
}
330
3076
100
DictionaryVariables
280
     0
  1
1
  0
DICTIONARYVAR
  5
307A
102
{ACAD_REACTORS
330
3076
102
}
330
3076
100
DictionaryVariables
280
     0
  1
127
  0
DICTIONARY
  5
3037
102
{ACAD_REACTORS
330
3029
102
}
330
3029
100
AcDbDictionary
281
     1
  0
DICTIONARY
  5
2F77
102
{ACAD_REACTORS
330
2F76
102
}
330
2F76
100
AcDbDictionary
281
     1
  3
DWGSETTINGS
350
2F78
  3
TRANSSETTINGS
350
2F79
  0
LAYER_INDEX
  5
3069
102
{ACAD_REACTORS
330
3068
102
}
330
3068
100
AcDbIndex
 40
2456212.854520961
100
AcDbLayerIndex
  8
0
360
306A
 90
        2
  8
OUTLINE
360
306B
 90
       42
  8
SIZE
360
306C
 90
       38
  8
BASIS
360
306D
 90
        1
  8
DETAIL
360
306E
 90
       48
  8
ARRANGE
360
306F
 90
        3
  8
DEFPOINTS
360
3070
 90
        0
  8
ETC
360
3071
 90
        3
  8
FIX
360
3072
 90
        0
  8
NOTE
360
3073
 90
        4
  8
SERVICESPACE
360
3074
 90
        0
  8
SYMBOLLINE
360
3075
 90
        0
  0
DICTIONARY
  5
308C
330
2E96
100
AcDbDictionary
280
     1
281
     1
  3
ACAD_XREC_ROUNDTRIP
360
308D
  0
DICTIONARY
  5
308A
330
2E92
100
AcDbDictionary
280
     1
281
     1
  3
ACAD_XREC_ROUNDTRIP
360
308B
  0
DICTIONARY
  5
2E39
330
2E38
100
AcDbDictionary
280
     1
281
     1
  3
ACAD_XREC_ROUNDTRIP
360
3087
  3
BUMPTILE
360
2E3B
  3
DIFFUSETILE
360
2E3A
  3
OPACITYTILE
360
2E3E
  3
REFLECTIONTILE
360
2E3D
  3
REFRACTIONTILE
360
2E3F
  3
SPECULARTILE
360
2E3C
  0
DICTIONARY
  5
2E31
330
2E30
100
AcDbDictionary
280
     1
281
     1
  3
ACAD_XREC_ROUNDTRIP
360
3086
  3
BUMPTILE
360
2E33
  3
DIFFUSETILE
360
2E32
  3
OPACITYTILE
360
2E36
  3
REFLECTIONTILE
360
2E35
  3
REFRACTIONTILE
360
2E37
  3
SPECULARTILE
360
2E34
  0
DICTIONARY
  5
2E41
330
2E40
100
AcDbDictionary
280
     1
281
     1
  3
ACAD_XREC_ROUNDTRIP
360
3088
  3
BUMPTILE
360
2E43
  3
DIFFUSETILE
360
2E42
  3
OPACITYTILE
360
2E46
  3
REFLECTIONTILE
360
2E45
  3
REFRACTIONTILE
360
2E47
  3
SPECULARTILE
360
2E44
  0
DICTIONARY
  5
307D
330
2E8B
100
AcDbDictionary
280
     1
281
     1
  3
ACAD_ROUNDTRIP_2008_TABLESTYLE_CELLSTYLEMAP
360
307E
  3
ACAD_XREC_ROUNDTRIP
360
3089
  0
IDBUFFER
  5
306A
330
0
100
AcDbIdBuffer
330
2D9F
330
2DA0
  0
IDBUFFER
  5
306B
330
0
100
AcDbIdBuffer
330
2DAB
330
2DAC
330
2DAD
330
2DAE
330
2DAF
330
2DB0
330
2DB1
330
2DB2
330
2DB3
330
2DB4
330
2DB5
330
2DB6
330
2DB7
330
2DB8
330
2DB9
330
2DBA
330
2DBB
330
2DBC
330
2DBD
330
2DBE
330
2DBF
330
2DC0
330
2DC1
330
2DC2
330
2DC3
330
2DC4
330
953
330
954
330
955
330
956
330
957
330
958
330
2D78
330
2D8F
330
2DA3
330
2DA4
330
2DA5
330
2DA6
330
2DA7
330
2DA8
330
2DA9
330
2DAA
  0
IDBUFFER
  5
306C
330
0
100
AcDbIdBuffer
330
2DDF
330
2DE0
330
2DE1
330
2DE2
330
2DE3
330
2DE4
330
2DE5
330
2DE6
330
2DE7
330
2DE8
330
2DE9
330
2DEA
330
2DEB
330
2DEC
330
2DED
330
2DEE
330
2DEF
330
2DF0
330
2DF1
330
2DF2
330
2DF3
330
2DF4
330
2DCF
330
2DD0
330
2DD1
330
2DD2
330
2DD3
330
2DD4
330
2DD5
330
2DD6
330
2DD7
330
2DD8
330
2DD9
330
2DDA
330
2DDB
330
2DDC
330
2DDD
330
2DDE
  0
IDBUFFER
  5
306D
330
0
100
AcDbIdBuffer
330
2D83
  0
IDBUFFER
  5
306E
330
0
100
AcDbIdBuffer
330
2D87
330
2D88
330
2D89
330
2D8A
330
2D8B
330
2D8C
330
2D8D
330
2D8E
330
2D90
330
2D91
330
2D92
330
2D93
330
2D95
330
2D96
330
2D97
330
2D98
330
2D99
330
2D9A
330
2D9B
330
2D9C
330
2D9D
330
2D9E
330
2DC5
330
2DC6
330
2DC7
330
2DC8
330
2DC9
330
2DCA
330
2DCB
330
2DCC
330
2DCD
330
2DCE
330
2D71
330
2D72
330
2D73
330
2D74
330
2D75
330
2D76
330
2D77
330
2D79
330
2D7A
330
2D7B
330
2D7C
330
2D7D
330
2D7E
330
2D84
330
2D85
330
2D86
  0
IDBUFFER
  5
306F
330
0
100
AcDbIdBuffer
330
2D80
330
2D81
330
2D82
  0
IDBUFFER
  5
3070
330
0
100
AcDbIdBuffer
  0
IDBUFFER
  5
3071
330
0
100
AcDbIdBuffer
330
2DF5
330
2DF6
330
2DF7
  0
IDBUFFER
  5
3072
330
0
100
AcDbIdBuffer
  0
IDBUFFER
  5
3073
330
0
100
AcDbIdBuffer
330
2D7F
330
2D94
330
2DA1
330
2DA2
  0
IDBUFFER
  5
3074
330
0
100
AcDbIdBuffer
  0
IDBUFFER
  5
3075
330
0
100
AcDbIdBuffer
  0
XRECORD
  5
308D
102
{ACAD_REACTORS
330
308C
102
}
330
308C
100
AcDbXrecord
280
     1
102
SHADEPLOT
 70
     0
102
SHADEPLOTRESLEVEL
 70
     2
102
SHADEPLOTCUSTOMDPI
 70
   300
  0
XRECORD
  5
308B
102
{ACAD_REACTORS
330
308A
102
}
330
308A
100
AcDbXrecord
280
     1
102
SHADEPLOT
 70
     0
102
SHADEPLOTRESLEVEL
 70
     2
102
SHADEPLOTCUSTOMDPI
 70
   300
  0
XRECORD
  5
3087
102
{ACAD_REACTORS
330
2E39
102
}
330
2E39
100
AcDbXrecord
280
     1
102
MATERIAL
148
0.0
149
0.0
149
0.0
 93
        0
 94
      127
282
     0
 72
     0
 77
     0
171
     0
175
     0
179
     0
273
     0
  0
XRECORD
  5
2E3B
102
{ACAD_REACTORS
330
2E39
102
}
330
2E39
100
AcDbXrecord
280
     1
270
     1
271
     1
  0
XRECORD
  5
2E3A
102
{ACAD_REACTORS
330
2E39
102
}
330
2E39
100
AcDbXrecord
280
     1
270
     1
271
     1
  0
XRECORD
  5
2E3E
102
{ACAD_REACTORS
330
2E39
102
}
330
2E39
100
AcDbXrecord
280
     1
270
     1
271
     1
  0
XRECORD
  5
2E3D
102
{ACAD_REACTORS
330
2E39
102
}
330
2E39
100
AcDbXrecord
280
     1
270
     1
271
     1
  0
XRECORD
  5
2E3F
102
{ACAD_REACTORS
330
2E39
102
}
330
2E39
100
AcDbXrecord
280
     1
270
     1
271
     1
  0
XRECORD
  5
2E3C
102
{ACAD_REACTORS
330
2E39
102
}
330
2E39
100
AcDbXrecord
280
     1
270
     1
271
     1
  0
XRECORD
  5
3086
102
{ACAD_REACTORS
330
2E31
102
}
330
2E31
100
AcDbXrecord
280
     1
102
MATERIAL
148
0.0
149
0.0
149
0.0
 93
        0
 94
      127
282
     0
 72
     0
 77
     0
171
     0
175
     0
179
     0
273
     0
  0
XRECORD
  5
2E33
102
{ACAD_REACTORS
330
2E31
102
}
330
2E31
100
AcDbXrecord
280
     1
270
     1
271
     1
  0
XRECORD
  5
2E32
102
{ACAD_REACTORS
330
2E31
102
}
330
2E31
100
AcDbXrecord
280
     1
270
     1
271
     1
  0
XRECORD
  5
2E36
102
{ACAD_REACTORS
330
2E31
102
}
330
2E31
100
AcDbXrecord
280
     1
270
     1
271
     1
  0
XRECORD
  5
2E35
102
{ACAD_REACTORS
330
2E31
102
}
330
2E31
100
AcDbXrecord
280
     1
270
     1
271
     1
  0
XRECORD
  5
2E37
102
{ACAD_REACTORS
330
2E31
102
}
330
2E31
100
AcDbXrecord
280
     1
270
     1
271
     1
  0
XRECORD
  5
2E34
102
{ACAD_REACTORS
330
2E31
102
}
330
2E31
100
AcDbXrecord
280
     1
270
     1
271
     1
  0
XRECORD
  5
3088
102
{ACAD_REACTORS
330
2E41
102
}
330
2E41
100
AcDbXrecord
280
     1
102
MATERIAL
148
0.0
149
0.0
149
0.0
 93
        0
 94
      127
282
     0
 72
     0
 77
     0
171
     0
175
     0
179
     0
273
     0
  0
XRECORD
  5
2E43
102
{ACAD_REACTORS
330
2E41
102
}
330
2E41
100
AcDbXrecord
280
     1
270
     1
271
     1
  0
XRECORD
  5
2E42
102
{ACAD_REACTORS
330
2E41
102
}
330
2E41
100
AcDbXrecord
280
     1
270
     1
271
     1
  0
XRECORD
  5
2E46
102
{ACAD_REACTORS
330
2E41
102
}
330
2E41
100
AcDbXrecord
280
     1
270
     1
271
     1
  0
XRECORD
  5
2E45
102
{ACAD_REACTORS
330
2E41
102
}
330
2E41
100
AcDbXrecord
280
     1
270
     1
271
     1
  0
XRECORD
  5
2E47
102
{ACAD_REACTORS
330
2E41
102
}
330
2E41
100
AcDbXrecord
280
     1
270
     1
271
     1
  0
XRECORD
  5
2E44
102
{ACAD_REACTORS
330
2E41
102
}
330
2E41
100
AcDbXrecord
280
     1
270
     1
271
     1
  0
CELLSTYLEMAP
  5
307E
102
{ACAD_REACTORS
330
307D
102
}
330
307D
100
AcDbCellStyleMap
 90
        3
300
CELLSTYLE
  1
TABLEFORMAT_BEGIN
 90
        5
170
     1
 91
        0
 92
    32768
 62
   257
 93
        1
300
CONTENTFORMAT
  1
CONTENTFORMAT_BEGIN
 90
        0
 91
        0
 92
      512
 93
        0
300

 40
0.0
140
1.0
 94
        5
 62
     0
340
2E7C
144
0.25
309
CONTENTFORMAT_END
171
     0
 94
        0
309
TABLEFORMAT_END
  1
CELLSTYLE_BEGIN
 90
        1
 91
        1
300
_TITLE
309
CELLSTYLE_END
300
CELLSTYLE
  1
TABLEFORMAT_BEGIN
 90
        5
170
     1
 91
        0
 92
        0
 62
   257
 93
        1
300
CONTENTFORMAT
  1
CONTENTFORMAT_BEGIN
 90
        0
 91
        0
 92
      512
 93
        0
300

 40
0.0
140
1.0
 94
        5
 62
     0
340
2E7C
144
0.18
309
CONTENTFORMAT_END
171
     0
 94
        0
309
TABLEFORMAT_END
  1
CELLSTYLE_BEGIN
 90
        2
 91
        1
300
_HEADER
309
CELLSTYLE_END
300
CELLSTYLE
  1
TABLEFORMAT_BEGIN
 90
        5
170
     1
 91
        0
 92
        0
 62
   257
 93
        1
300
CONTENTFORMAT
  1
CONTENTFORMAT_BEGIN
 90
        0
 91
        0
 92
      512
 93
        0
300

 40
0.0
140
1.0
 94
        2
 62
     0
340
2E7C
144
0.18
309
CONTENTFORMAT_END
171
     0
 94
        0
309
TABLEFORMAT_END
  1
CELLSTYLE_BEGIN
 90
        3
 91
        2
300
_DATA
309
CELLSTYLE_END
  0
XRECORD
  5
3089
102
{ACAD_REACTORS
330
307D
102
}
330
307D
100
AcDbXrecord
280
     1
102
ACAD_ROUNDTRIP_PRE2007_TABLESTYLE
 90
      512
 91
        0
  1

 92
      512
 93
        0
  2

 94
      512
 95
        0
  3

  0
ENDSEC
  0
EOF
