  0
SECTION
  2
HEADER
  9
$ACADVER
  1
AC1015
  9
$ACADMAINTVER
 70
    20
  9
$DWGCODEPAGE
  3
ANSI_932
  9
$INSBASE
 10
0.0
 20
0.0
 30
0.0
  9
$EXTMIN
 10
-1149.915024939721
 20
-1034.57199431229
 30
0.0
  9
$EXTMAX
 10
1504.7863371796
 20
1064.320782247022
 30
50.0
  9
$LIMMIN
 10
-2970.0
 20
-2100.0
  9
$LIMMAX
 10
2970.0
 20
2100.0
  9
$ORTHOMODE
 70
     1
  9
$REGENMODE
 70
     0
  9
$FILLMODE
 70
     1
  9
$QTEXTMODE
 70
     0
  9
$MIRRTEXT
 70
     0
  9
$LTSCALE
 40
20.0
  9
$ATTMODE
 70
     1
  9
$TEXTSIZE
 40
64.0
  9
$TRACEWID
 40
0.05
  9
$TEXTSTYLE
  7
STANDARD
  9
$CLAYER
  8
0
  9
$CELTYPE
  6
ByLayer
  9
$CECOLOR
 62
   256
  9
$CELTSCALE
 40
1.0
  9
$DISPSILH
 70
     0
  9
$DIMSCALE
 40
1.0
  9
$DIMASZ
 40
0.12
  9
$DIMEXO
 40
0.05
  9
$DIMDLI
 40
0.5
  9
$DIMRND
 40
0.0
  9
$DIMDLE
 40
0.0
  9
$DIMEXE
 40
0.1
  9
$DIMTP
 40
0.1
  9
$DIMTM
 40
0.1
  9
$DIMTXT
 40
0.12
  9
$DIMCEN
 40
0.0
  9
$DIMTSZ
 40
0.0
  9
$DIMTOL
 70
     0
  9
$DIMLIM
 70
     0
  9
$DIMTIH
 70
     1
  9
$DIMTOH
 70
     1
  9
$DIMSE1
 70
     0
  9
$DIMSE2
 70
     0
  9
$DIMTAD
 70
     0
  9
$DIMZIN
 70
     7
  9
$DIMBLK
  1

  9
$DIMASO
 70
     1
  9
$DIMSHO
 70
     0
  9
$DIMPOST
  1

  9
$DIMAPOST
  1
mm
  9
$DIMALT
 70
     0
  9
$DIMALTD
 70
     2
  9
$DIMALTF
 40
25.4
  9
$DIMLFAC
 40
1.0
  9
$DIMTOFL
 70
     0
  9
$DIMTVP
 40
0.0
  9
$DIMTIX
 70
     0
  9
$DIMSOXD
 70
     0
  9
$DIMSAH
 70
     0
  9
$DIMBLK1
  1

  9
$DIMBLK2
  1

  9
$DIMSTYLE
  2
AM_ANSI
  9
$DIMCLRD
 70
   256
  9
$DIMCLRE
 70
   256
  9
$DIMCLRT
 70
     2
  9
$DIMTFAC
 40
0.71
  9
$DIMGAP
 40
0.06
  9
$DIMJUST
 70
     0
  9
$DIMSD1
 70
     0
  9
$DIMSD2
 70
     0
  9
$DIMTOLJ
 70
     1
  9
$DIMTZIN
 70
     7
  9
$DIMALTZ
 70
     0
  9
$DIMALTTZ
 70
     0
  9
$DIMUPT
 70
     0
  9
$DIMDEC
 70
     4
  9
$DIMTDEC
 70
     4
  9
$DIMALTU
 70
     2
  9
$DIMALTTD
 70
     4
  9
$DIMTXSTY
  7
STANDARD
  9
$DIMAUNIT
 70
     0
  9
$DIMADEC
 70
     0
  9
$DIMALTRND
 40
0.0
  9
$DIMAZIN
 70
     2
  9
$DIMDSEP
 70
    46
  9
$DIMATFIT
 70
     3
  9
$DIMFRAC
 70
     0
  9
$DIMLDRBLK
  1

  9
$DIMLUNIT
 70
     2
  9
$DIMLWD
 70
    -1
  9
$DIMLWE
 70
    -1
  9
$DIMTMOVE
 70
     0
  9
$LUNITS
 70
     2
  9
$LUPREC
 70
     4
  9
$SKETCHINC
 40
0.1
  9
$FILLETRAD
 40
4.0
  9
$AUNITS
 70
     1
  9
$AUPREC
 70
     3
  9
$MENU
  1
ACAD
  9
$ELEVATION
 40
0.0
  9
$PELEVATION
 40
0.0
  9
$THICKNESS
 40
50.0
  9
$LIMCHECK
 70
     0
  9
$CHAMFERA
 40
0.0
  9
$CHAMFERB
 40
0.0
  9
$CHAMFERC
 40
0.0
  9
$CHAMFERD
 40
0.0
  9
$SKPOLY
 70
     0
  9
$TDCREATE
 40
2452321.396199653
  9
$TDUCREATE
 40
2452321.021199653
  9
$TDUPDATE
 40
2456212.855072396
  9
$TDUUPDATE
 40
2456212.480072396
  9
$TDINDWG
 40
1.0396462500
  9
$TDUSRTIMER
 40
1.0396404745
  9
$USRTIMER
 70
     1
  9
$ANGBASE
 50
0.0
  9
$ANGDIR
 70
     0
  9
$PDMODE
 70
     3
  9
$PDSIZE
 40
-2.0
  9
$PLINEWID
 40
0.0
  9
$SPLFRAME
 70
     0
  9
$SPLINETYPE
 70
     6
  9
$SPLINESEGS
 70
     8
  9
$HANDSEED
  5
2B20
  9
$SURFTAB1
 70
     6
  9
$SURFTAB2
 70
     6
  9
$SURFTYPE
 70
     6
  9
$SURFU
 70
     6
  9
$SURFV
 70
     6
  9
$UCSBASE
  2

  9
$UCSNAME
  2

  9
$UCSORG
 10
0.0
 20
0.0
 30
0.0
  9
$UCSXDIR
 10
1.0
 20
0.0
 30
0.0
  9
$UCSYDIR
 10
0.0
 20
1.0
 30
0.0
  9
$UCSORTHOREF
  2

  9
$UCSORTHOVIEW
 70
     0
  9
$UCSORGTOP
 10
0.0
 20
0.0
 30
0.0
  9
$UCSORGBOTTOM
 10
0.0
 20
0.0
 30
0.0
  9
$UCSORGLEFT
 10
0.0
 20
0.0
 30
0.0
  9
$UCSORGRIGHT
 10
0.0
 20
0.0
 30
0.0
  9
$UCSORGFRONT
 10
0.0
 20
0.0
 30
0.0
  9
$UCSORGBACK
 10
0.0
 20
0.0
 30
0.0
  9
$PUCSBASE
  2

  9
$PUCSNAME
  2

  9
$PUCSORG
 10
0.0
 20
0.0
 30
0.0
  9
$PUCSXDIR
 10
1.0
 20
0.0
 30
0.0
  9
$PUCSYDIR
 10
0.0
 20
1.0
 30
0.0
  9
$PUCSORTHOREF
  2

  9
$PUCSORTHOVIEW
 70
     0
  9
$PUCSORGTOP
 10
0.0
 20
0.0
 30
0.0
  9
$PUCSORGBOTTOM
 10
0.0
 20
0.0
 30
0.0
  9
$PUCSORGLEFT
 10
0.0
 20
0.0
 30
0.0
  9
$PUCSORGRIGHT
 10
0.0
 20
0.0
 30
0.0
  9
$PUCSORGFRONT
 10
0.0
 20
0.0
 30
0.0
  9
$PUCSORGBACK
 10
0.0
 20
0.0
 30
0.0
  9
$USERI1
 70
     0
  9
$USERI2
 70
     0
  9
$USERI3
 70
     0
  9
$USERI4
 70
     0
  9
$USERI5
 70
     0
  9
$USERR1
 40
20.0
  9
$USERR2
 40
0.0
  9
$USERR3
 40
0.0
  9
$USERR4
 40
0.0
  9
$USERR5
 40
0.0
  9
$WORLDVIEW
 70
     1
  9
$SHADEDGE
 70
     3
  9
$SHADEDIF
 70
    70
  9
$TILEMODE
 70
     1
  9
$MAXACTVP
 70
    64
  9
$PINSBASE
 10
0.0
 20
0.0
 30
0.0
  9
$PLIMCHECK
 70
     0
  9
$PEXTMIN
 10
1.000000000000000E+20
 20
1.000000000000000E+20
 30
1.000000000000000E+20
  9
$PEXTMAX
 10
-1.000000000000000E+20
 20
-1.000000000000000E+20
 30
-1.000000000000000E+20
  9
$PLIMMIN
 10
0.0
 20
0.0
  9
$PLIMMAX
 10
12.0
 20
9.0
  9
$UNITMODE
 70
     0
  9
$VISRETAIN
 70
     1
  9
$PLINEGEN
 70
     0
  9
$PSLTSCALE
 70
     1
  9
$TREEDEPTH
 70
  3020
  9
$CMLSTYLE
  2
Standard
  9
$CMLJUST
 70
     0
  9
$CMLSCALE
 40
1.0
  9
$PROXYGRAPHICS
 70
     1
  9
$MEASUREMENT
 70
     0
  9
$CELWEIGHT
370
    -1
  9
$ENDCAPS
280
     0
  9
$JOINSTYLE
280
     0
  9
$LWDISPLAY
290
     0
  9
$INSUNITS
 70
     0
  9
$HYPERLINKBASE
  1

  9
$STYLESHEET
  1

  9
$XEDIT
290
     1
  9
$CEPSNTYPE
380
     0
  9
$PSTYLEMODE
290
     1
  9
$FINGERPRINTGUID
  2
{E8E68721-83B9-4F5E-80FE-D077CB313F2B}
  9
$VERSIONGUID
  2
{3032381E-5011-4F72-99A6-30FA3258D47A}
  9
$EXTNAMES
290
     1
  9
$PSVPSCALE
 40
0.0
  9
$OLESTARTUP
290
     0
  0
ENDSEC
  0
SECTION
  2
CLASSES
  0
CLASS
  1
ACDBDICTIONARYWDFLT
  2
AcDbDictionaryWithDefault
  3
ObjectDBX Classes
 90
        0
280
     0
281
     0
  0
CLASS
  1
MATERIAL
  2
AcDbMaterial
  3
ObjectDBX Classes
 90
     1153
280
     0
281
     0
  0
CLASS
  1
VISUALSTYLE
  2
AcDbVisualStyle
  3
ObjectDBX Classes
 90
     4095
280
     0
281
     0
  0
CLASS
  1
SCALE
  2
AcDbScale
  3
ObjectDBX Classes
 90
     1153
280
     0
281
     0
  0
CLASS
  1
TABLESTYLE
  2
AcDbTableStyle
  3
ObjectDBX Classes
 90
     4095
280
     0
281
     0
  0
CLASS
  1
MLEADERSTYLE
  2
AcDbMLeaderStyle
  3
ACDB_MLEADERSTYLE_CLASS
 90
     4095
280
     0
281
     0
  0
CLASS
  1
AMGSETTINGSOBJ
  2
AmgSettingsObj
  3
"AcadM|Product Description: AutoCAD Mechanical|Company: Autodesk, Inc."
 90
     1024
280
     0
281
     0
  0
CLASS
  1
ACME_DOCUMENT
  2
AcMeDbDoc
  3
AcMeServices
 90
     1024
280
     0
281
     0
  0
CLASS
  1
ACMESCOPE
  2
AcMeScope
  3
AcMeServices
 90
     1024
280
     0
281
     0
  0
CLASS
  1
ACMECOMMANDHISTORY
  2
AcMeCommandHistory
  3
AcMeServices
 90
     1024
280
     0
281
     0
  0
CLASS
  1
ACIMSYSVARMAN
  2
AcImSysVarManager
  3
AcMeServices
 90
     1024
280
     0
281
     0
  0
CLASS
  1
ACIMREALSYSVAR
  2
AcImRealSysVar
  3
AcMeServices
 90
     1024
280
     0
281
     0
  0
CLASS
  1
ACIMINTSYSVAR
  2
AcImIntSysVar
  3
AcMeServices
 90
     1024
280
     0
281
     0
  0
CLASS
  1
ACMEDRAWINGMAN
  2
AcMeDrawingMan
  3
AcMeServices
 90
     1024
280
     0
281
     0
  0
CLASS
  1
ACMEVIEW
  2
AcMeView
  3
AcMeServices
 90
     1024
280
     0
281
     0
  0
CLASS
  1
ACDBENTITYCACHE
  2
AcMeEntityCache
  3
AcMeServices
 90
     1024
280
     0
281
     0
  0
CLASS
  1
GSMANAGER
  2
AcMeGSManager
  3
AcMeServices
 90
     1024
280
     0
281
     0
  0
CLASS
  1
AMDTINTERNALREACTOR
  2
AmdtInternalReactor
  3
AcMeServices
 90
     1024
280
     0
281
     0
  0
CLASS
  1
ACMESTATEMGR
  2
AcMeStateMgr
  3
AcMeServices
 90
     1024
280
     0
281
     0
  0
CLASS
  1
ACGREFMASTER
  2
AcGrefMaster
  3
AcAttribServices
 90
     1024
280
     0
281
     0
  0
CLASS
  1
AM_DRAWING_MGR
  2
AcDmDwgMgr
  3
AcMechDwgViewMgmt
 90
     1024
280
     0
281
     0
  0
CLASS
  1
AM_DWG_DOCUMENT
  2
AcDmDwgDocument
  3
AcMechDwgViewMgmt
 90
     1024
280
     0
281
     0
  0
CLASS
  1
AM_DWG_SHEET
  2
AcDmSheet
  3
AcMechDwgViewMgmt
 90
     1024
280
     0
281
     0
  0
CLASS
  1
AM_VIEWDIMPARMAP
  2
AcDmViewDimParMap
  3
AcMechDwgViewMgmt
 90
     1024
280
     0
281
     0
  0
CLASS
  1
AM_DWGMGR_NAME
  2
AcDmDwgMgrName
  3
AcMechDwgViewMgmt
 90
     1024
280
     0
281
     0
  0
CLASS
  1
ACME_DATABASE
  2
AcMeDbDatabase
  3
AcMeServices
 90
     1024
280
     0
281
     0
  0
CLASS
  1
ACRFINSADJUSTERMGR
  2
AcRfInsAdjusterMgr
  3
AcMeServices
 90
     1024
280
     0
281
     0
  0
CLASS
  1
ACGREFACADMASTER
  2
AcGrefacadMaster
  3
AcGrefServices
 90
     1024
280
     0
281
     0
  0
CLASS
  1
AMDTMENUSTATEMGR
  2
AmdtMenuStateMgr
  3
McadcomServices
 90
     1024
280
     0
281
     0
  0
CLASS
  1
AMDTMCOMMENUSTATE
  2
AmdtMcomMenuState
  3
McadcomServices
 90
     1024
280
     0
281
     0
  0
CLASS
  1
AMIMASTER
  2
AmiMaster
  3
AmiServices
 90
     1024
280
     0
281
     0
  0
CLASS
  1
ASAPP
  2
AcAsAppObject
  3
AutoSurfServices
 90
     1024
280
     0
281
     0
  0
CLASS
  1
IM_STATIC_MAN
  2
AcImStaticVarManager
  3
AcMeServices
 90
     1024
280
     0
281
     0
  0
CLASS
  1
ACIMSTRSYSVAR
  2
AcImStrSysVar
  3
AcMeServices
 90
     1024
280
     0
281
     0
  0
CLASS
  1
ACIMDBLSTATICVAR
  2
AcImDblStaticVar
  3
AcMeServices
 90
     1024
280
     0
281
     0
  0
CLASS
  1
ACIMSTRSTATICVAR
  2
AcImStrStaticVar
  3
AcMeServices
 90
     1024
280
     0
281
     0
  0
CLASS
  1
ACIMINTSTATICVAR
  2
AcImIntStaticVar
  3
AcMeServices
 90
     1024
280
     0
281
     0
  0
CLASS
  1
ACASGREFMASTER
  2
AcAsGrefMaster
  3
AutoSurfResolverServices
 90
     1024
280
     0
281
     0
  0
CLASS
  1
ACADGREFMODULE
  2
AcAdGrefModule
  3
AdGrefServices
 90
     1024
280
     0
281
     0
  0
CLASS
  1
AMDTMAPISURFMOUDULE
  2
AmdtMApiSurfModule
  3
MApiSurfServices
 90
     1024
280
     0
281
     0
  0
CLASS
  1
MAPIAMMOUDLE
  2
MApiAmModule
  3
MApiAmServices
 90
     1024
280
     0
281
     0
  0
CLASS
  1
AMDTADMENUSTATE
  2
AmdtAdMenuState
  3
DesignerServices
 90
     1024
280
     0
281
     0
  0
CLASS
  1
ADAPPL
  2
AcAdAppl
  3
DesignerServices
 90
     1024
280
     0
281
     0
  0
CLASS
  1
DEPMGR
  2
AcAdDepMgr
  3
DesignerServices
 90
     1024
280
     0
281
     0
  0
CLASS
  1
PARAMMGR
  2
AcAdParamMgr
  3
DesignerServices
 90
     1024
280
     0
281
     0
  0
CLASS
  1
PARAMSCOPE
  2
AcAdParamScope
  3
DesignerServices
 90
     1024
280
     0
281
     0
  0
CLASS
  1
NAMEDAPPL
  2
AcAdNamedAppl
  3
DesignerServices
 90
     1024
280
     0
281
     0
  0
CLASS
  1
AMDTDMMENUSTATE
  2
AmdtDmMenuState
  3
AcMechDwgViewMgmt
 90
     1024
280
     0
281
     0
  0
CLASS
  1
MAPIADMODULE
  2
MApiAdModule
  3
MApiAdServices
 90
     1024
280
     0
281
     0
  0
CLASS
  1
AMDTAMMENUSTATE
  2
AmdtAmMenuState
  3
DesignerAssemblies
 90
     1024
280
     0
281
     0
  0
CLASS
  1
ACAMPROJECT
  2
AcAmProject
  3
DesignerAssemblies
 90
     1024
280
     0
281
     0
  0
CLASS
  1
ACAMGRCOMPDEF
  2
AcAmGrCompDef
  3
DesignerAssemblies
 90
     1024
280
     0
281
     0
  0
CLASS
  1
ACCMCONTEXT
  2
AcCmContext
  3
DesignerAssemblies
 90
     1024
280
     0
281
     0
  0
CLASS
  1
ACAMCOMPDEF
  2
AcAmCompDef
  3
DesignerAssemblies
 90
     1024
280
     0
281
     0
  0
CLASS
  1
ACAMCOMPDEFMGR
  2
AcAmCompDefMgr
  3
DesignerAssemblies
 90
     1024
280
     0
281
     0
  0
CLASS
  1
AMCONTEXTMGR
  2
AcAmContextMgr
  3
DesignerAssemblies
 90
     1024
280
     0
281
     0
  0
CLASS
  1
ACAMCONTEXTMODELER
  2
AcAmContextModeler
  3
DesignerAssemblies
 90
     1024
280
     0
281
     0
  0
CLASS
  1
ACMDATADICTIONARY
  2
AcmDataDictionary
  3
"AcmSymBB|Product Description: AutoCAD Mechanical|Company: Autodesk, Inc."
 90
     1024
280
     0
281
     0
  0
CLASS
  1
ACMDATAENTRYBLOCK
  2
AcmDataEntryBlock
  3
AcmSymBB|Product Description: AutoCAD Mechanical|Company: Autodesk, Inc.
 90
     1024
280
     0
281
     0
  0
CLASS
  1
ACRFATTGENMGR
  2
AcRfAttGeneralMgr
  3
AcAttribServices
 90
     1024
280
     0
281
     0
  0
CLASS
  1
ACRFOBJATTMGR
  2
AcRfObjAttGroupMgr
  3
AcAttribServices
 90
     1024
280
     0
281
     0
  0
CLASS
  1
ACRFMCADAPIATTHOLDER
  2
AcRfMCADAPIAttHolder
  3
AcAttribServices
 90
     1024
280
     0
281
     0
  0
CLASS
  1
AMDTSYSATTR
  2
AmdtSystemAttribute
  3
AcAttribServices
 90
     1024
280
     0
281
     0
  0
CLASS
  1
CATALOGSTATE
  2
AcAmCatalogState
  3
DesignerAssemblies
 90
     1024
280
     0
281
     0
  0
CLASS
  1
ACAMGRCOMPDEFSET
  2
AcAmGrCompDefSet
  3
DesignerAssemblies
 90
     1024
280
     0
281
     0
  0
CLASS
  1
AMDTBROWSERDBTAB
  2
AmdtBrowserDbTab
  3
McadcomServices
 90
     1024
280
     0
281
     0
  0
CLASS
  1
CBROWSERAPPOBJECT
  2
CBrowserAppObject
  3
McadcomServices
 90
     1024
280
     0
281
     0
  0
CLASS
  1
DM_PLACEHOLDER
  2
AcDmSelsetPlaceholder
  3
AcMechDwgViewMgmt
 90
     1024
280
     0
281
     0
  0
CLASS
  1
ACMSTANDARDANSI
  2
AcmStandardANSI
  3
"Amdt_StdImp|Product Description: AutoCAD Mechanical|Company: Autodesk, Inc."
 90
     1024
280
     0
281
     0
  0
CLASS
  1
ACMSURFSTANDARDANSI
  2
AcmSurfTextStdANSI
  3
"Amdt_StdImp|Product Description: AutoCAD Mechanical|Company: Autodesk, Inc."
 90
     1024
280
     0
281
     0
  0
CLASS
  1
ACMFCFSTANDARDANSI
  2
AcmFCFStdANSI
  3
"Amdt_StdImp|Product Description: AutoCAD Mechanical|Company: Autodesk, Inc."
 90
     1024
280
     0
281
     0
  0
CLASS
  1
ACMWELDSTANDARDANSI
  2
AcmWeldingStdANSI
  3
"Amdt_StdImp|Product Description: AutoCAD Mechanical|Company: Autodesk, Inc."
 90
     1024
280
     0
281
     0
  0
CLASS
  1
ACMIDSTANDARDANSI
  2
AcmIdStdANSI
  3
"Amdt_StdImp|Product Description: AutoCAD Mechanical|Company: Autodesk, Inc."
 90
     1024
280
     0
281
     0
  0
CLASS
  1
ACMDATUMSTANDARDANSI
  2
AcmDatumStdANSI
  3
"Amdt_StdImp|Product Description: AutoCAD Mechanical|Company: Autodesk, Inc."
 90
     1024
280
     0
281
     0
  0
CLASS
  1
ACMBOMSTANDARDANSI
  2
AcmBOMStdANSI
  3
"Amdt_StdImp|Product Description: AutoCAD Mechanical|Company: Autodesk, Inc."
 90
     1024
280
     0
281
     0
  0
CLASS
  1
ACMDETAILSTANDARDANSI
  2
AmdtDetailSymStdANSI
  3
"Amdt_StdImp|Product Description: AutoCAD Mechanical|Company: Autodesk, Inc."
 90
     1024
280
     0
281
     0
  0
CLASS
  1
ACMSECTIONSTANDARDANSI
  2
AmdtSectionSymStdANSI
  3
"Amdt_StdImp|Product Description: AutoCAD Mechanical|Company: Autodesk, Inc."
 90
     1024
280
     0
281
     0
  0
CLASS
  1
ACMCENTERLINESTANDARDANSI
  2
AmdtCenterLineStdANSI
  3
"Amdt_StdImp|Product Description: AutoCAD Mechanical|Company: Autodesk, Inc."
 90
     1024
280
     0
281
     0
  0
CLASS
  1
ACMTHREADLINESTANDARDANSI
  2
AmdtThreadLineStdANSI
  3
"Amdt_StdImp|Product Description: AutoCAD Mechanical|Company: Autodesk, Inc."
 90
     1024
280
     0
281
     0
  0
CLASS
  1
ACMNOTESTANDARDANSI
  2
AmdtNoteStdANSI
  3
"Amdt_StdImp|Product Description: AutoCAD Mechanical|Company: Autodesk, Inc."
 90
     1024
280
     0
281
     0
  0
CLASS
  1
ACMTAPERSTANDARDANSI
  2
AcmTaperStdANSI
  3
"Amdt_StdImp|Product Description: AutoCAD Mechanical|Company: Autodesk, Inc."
 90
     1024
280
     0
281
     0
  0
CLASS
  1
ACMANOOTATIONVIEWSTANDARDANSI
  2
AmdtAnViewStdANSI
  3
"Amdt_StdImp|Product Description: AutoCAD Mechanical|Company: Autodesk, Inc."
 90
     1024
280
     0
281
     0
  0
CLASS
  1
ACAMGLAYSTD
  2
AcAmgLayStd
  3
"AmgLay|Product Description: AutoCAD Mechanical|Company: Autodesk, Inc."
 90
     1024
280
     0
281
     0
  0
CLASS
  1
ACAMGDIMSTD
  2
AcAmgDimStd
  3
"AmgDim|Product Description: AutoCAD Mechanical|Company: Autodesk, Inc."
 90
     1024
280
     0
281
     0
  0
CLASS
  1
ACAMGHOLECHARTSTDANSI
  2
AcAmgHoleChartStdANSI
  3
AmgDim|Product Description: AutoCAD Mechanical|Company: Autodesk, Inc.
 90
     1024
280
     0
281
     0
  0
CLASS
  1
AMGOBJPROPCFG
  2
AmgObjPropCfg
  3
"AmgLay|Product Description: AutoCAD Mechanical|Company: Autodesk, Inc."
 90
     1025
280
     0
281
     0
  0
CLASS
  1
ACAMGTITLESTD
  2
AcAmgTitleStd
  3
"AmgTitle|Product Description: AutoCAD Mechanical|Company: Autodesk, Inc."
 90
     4095
280
     0
281
     0
  0
CLASS
  1
AMDTNOTETEMPLATEDB
  2
AmdtNoteTemplateDB
  3
AcmSymBB|Product Description: AutoCAD Mechanical|Company: Autodesk, Inc.
 90
     1024
280
     0
281
     0
  0
CLASS
  1
LAYER_INDEX
  2
AcDbLayerIndex
  3
ObjectDBX Classes
 90
        0
280
     0
281
     0
  0
CLASS
  1
IDBUFFER
  2
AcDbIdBuffer
  3
ObjectDBX Classes
 90
        0
280
     0
281
     0
  0
CLASS
  1
DICTIONARYVAR
  2
AcDbDictionaryVar
  3
ObjectDBX Classes
 90
        0
280
     0
281
     0
  0
CLASS
  1
CELLSTYLEMAP
  2
AcDbCellStyleMap
  3
ObjectDBX Classes
 90
     1152
280
     0
281
     0
  0
CLASS
  1
ACDBPLACEHOLDER
  2
AcDbPlaceHolder
  3
ObjectDBX Classes
 90
        0
280
     0
281
     0
  0
CLASS
  1
LAYOUT
  2
AcDbLayout
  3
ObjectDBX Classes
 90
        0
280
     0
281
     0
  0
ENDSEC
  0
SECTION
  2
TABLES
  0
TABLE
  2
VPORT
  5
28C5
330
0
100
AcDbSymbolTable
 70
     1
  0
VPORT
  5
2935
330
28C5
100
AcDbSymbolTableRecord
100
AcDbViewportTableRecord
  2
*ACTIVE
 70
     0
 10
0.0
 20
0.0
 11
1.0
 21
1.0
 12
0.0
 22
0.0
 13
0.0
 23
0.0
 14
1.0
 24
1.0
 15
0.0
 25
0.0
 16
0.0
 26
0.0
 36
1.0
 17
177.4223468003577
 27
37.27267271369397
 37
0.0
 40
2159.031827934375
 41
1.712555066079295
 42
50.0
 43
0.0
 44
0.0
 50
0.0
 51
0.0
 71
     0
 72
   100
 73
     1
 74
     0
 75
     0
 76
     0
 77
     0
 78
     0
281
     0
 65
     0
110
0.0
120
0.0
130
0.0
111
1.0
121
0.0
131
0.0
112
0.0
122
1.0
132
0.0
 79
     0
146
0.0
  0
ENDTAB
  0
TABLE
  2
LTYPE
  5
28C2
330
0
100
AcDbSymbolTable
 70
    19
  0
LTYPE
  5
291F
330
28C2
100
AcDbSymbolTableRecord
100
AcDbLinetypeTableRecord
  2
ByBlock
 70
     0
  3

 72
    65
 73
     0
 40
0.0
  0
LTYPE
  5
2920
330
28C2
100
AcDbSymbolTableRecord
100
AcDbLinetypeTableRecord
  2
ByLayer
 70
     0
  3

 72
    65
 73
     0
 40
0.0
  0
LTYPE
  5
2921
330
28C2
100
AcDbSymbolTableRecord
100
AcDbLinetypeTableRecord
  2
CONTINUOUS
 70
     0
  3
実線
 72
    65
 73
     0
 40
0.0
  0
LTYPE
  5
2936
330
28C2
100
AcDbSymbolTableRecord
100
AcDbLinetypeTableRecord
  2
DASHDOT
 70
     0
  3
____ _ ____ _ ____ _ ____ _ ____ _ ____ _ ____
 72
    65
 73
     4
 40
5.5
 49
4.0
 74
     0
 49
-0.6
 74
     0
 49
0.3
 74
     0
 49
-0.6
 74
     0
  0
LTYPE
  5
2937
330
28C2
100
AcDbSymbolTableRecord
100
AcDbLinetypeTableRecord
  2
HIDDEN
 70
     0
  3
Hidden __ __ __ __ __ __ __ __ __ __ __ __ __ _
 72
    65
 73
     2
 40
0.375
 49
0.25
 74
     0
 49
-0.125
 74
     0
  0
LTYPE
  5
2938
330
28C2
100
AcDbSymbolTableRecord
100
AcDbLinetypeTableRecord
  2
PHANTOM2
 70
     0
  3
Phantom (.5x) ___ _ _ ___ _ _ ___ _ _ ___ _ _
 72
    65
 73
     6
 40
1.25
 49
0.625
 74
     0
 49
-0.125
 74
     0
 49
0.125
 74
     0
 49
-0.125
 74
     0
 49
0.125
 74
     0
 49
-0.125
 74
     0
  0
LTYPE
  5
2939
330
28C2
100
AcDbSymbolTableRecord
100
AcDbLinetypeTableRecord
  2
CENTER
 70
     0
  3
Center ____ _ ____ _ ____ _ ____ _ ____ _ ____
 72
    65
 73
     4
 40
2.0
 49
1.25
 74
     0
 49
-0.25
 74
     0
 49
0.25
 74
     0
 49
-0.25
 74
     0
  0
LTYPE
  5
293A
330
28C2
100
AcDbSymbolTableRecord
100
AcDbLinetypeTableRecord
  2
ASULTYPE
 70
     0
  3
実線
 72
    65
 73
     2
 40
3.0
 49
2.5
 74
     0
 49
0.5
 74
     0
  0
LTYPE
  5
293B
330
28C2
100
AcDbSymbolTableRecord
100
AcDbLinetypeTableRecord
  2
ASVLTYPE
 70
     0
  3
__ __ __ __ __ __ __ __ __ __ __ __ __ __ __ __ __ __ __ __ __
 72
    65
 73
     2
 40
0.75
 49
0.5
 74
     0
 49
-0.25
 74
     0
  0
LTYPE
  5
293C
330
28C2
100
AcDbSymbolTableRecord
100
AcDbLinetypeTableRecord
  2
AM_ISO02W050
 70
     0
  3
__ __ __ __ __ __ __ __ __ __ __ __ __ __ __
 72
    65
 73
     2
 40
7.5
 49
6.0
 74
     0
 49
-1.5
 74
     0
  0
LTYPE
  5
293D
330
28C2
100
AcDbSymbolTableRecord
100
AcDbLinetypeTableRecord
  2
AM_ISO08W050
 70
     0
  3
____ . ____ . ____ . ____ . ____ . ____ . ____
 72
    65
 73
     4
 40
18.0
 49
12.0
 74
     0
 49
-1.5
 74
     0
 49
3.0
 74
     0
 49
-1.5
 74
     0
  0
LTYPE
  5
293E
330
28C2
100
AcDbSymbolTableRecord
100
AcDbLinetypeTableRecord
  2
AM_ISO09W050
 70
     0
  3
_____ . . _____ . . _____ . . ____ .. ____
 72
    65
 73
     6
 40
22.5
 49
12.0
 74
     0
 49
-1.5
 74
     0
 49
3.0
 74
     0
 49
-1.5
 74
     0
 49
3.0
 74
     0
 49
-1.5
 74
     0
  0
LTYPE
  5
293F
330
28C2
100
AcDbSymbolTableRecord
100
AcDbLinetypeTableRecord
  2
AMCONSTR
 70
     0
  3
_______________________
 72
    65
 73
     2
 40
9999.0
 49
9999.0
 74
     0
 49
0.0
 74
     0
  0
LTYPE
  5
2940
330
28C2
100
AcDbSymbolTableRecord
100
AcDbLinetypeTableRecord
  2
AM_ISO08W050X2
 70
     0
  3
__ . __ . __ . __ . __ . __
 72
    65
 73
     4
 40
9.0
 49
6.0
 74
     0
 49
-0.75
 74
     0
 49
1.5
 74
     0
 49
-0.75
 74
     0
  0
LTYPE
  5
2941
330
28C2
100
AcDbSymbolTableRecord
100
AcDbLinetypeTableRecord
  2
AM_ISO02W050X2
 70
     0
  3
 _ _ _ _ _ _ _ _ _ _ _ _
 72
    65
 73
     2
 40
3.75
 49
3.0
 74
     0
 49
-0.75
 74
     0
  0
LTYPE
  5
2942
330
28C2
100
AcDbSymbolTableRecord
100
AcDbLinetypeTableRecord
  2
AMZIGZAG
 70
     0
  3
/\/-/\/-/\/-/\/-/\/-/\/
 72
    65
 73
     2
 40
11.0001
 49
0.0001
 74
     0
 49
-11.0
 74
     0
  0
LTYPE
  5
2943
330
28C2
100
AcDbSymbolTableRecord
100
AcDbLinetypeTableRecord
  2
CENTER2
 70
     0
  3
Center (.5x) ___ _ ___ _ ___ _ ___ _ ___ _ ___
 72
    65
 73
     4
 40
1.125
 49
0.75
 74
     0
 49
-0.125
 74
     0
 49
0.125
 74
     0
 49
-0.125
 74
     0
  0
LTYPE
  5
2944
330
28C2
100
AcDbSymbolTableRecord
100
AcDbLinetypeTableRecord
  2
HIDDEN2
 70
     0
  3
Hidden (.5x) _ _ _ _ _ _ _ _ _ _ _ _ _ _ _ _ _
 72
    65
 73
     2
 40
0.1875
 49
0.125
 74
     0
 49
-0.0625
 74
     0
  0
LTYPE
  5
2945
330
28C2
100
AcDbSymbolTableRecord
100
AcDbLinetypeTableRecord
  2
AMZIGZAG2
 70
     0
  3
/\/-/\/-/\/-/\/-/\/-/\/
 72
    65
 73
     2
 40
0.4401
 49
0.0001
 74
     0
 49
-0.4400000000000003
 74
     0
  0
LTYPE
  5
2946
330
28C2
100
AcDbSymbolTableRecord
100
AcDbLinetypeTableRecord
  2
ACANSTGB
 70
     0
  3
__ . . __ . .
 72
    65
 73
     6
 40
0.35433070866
 49
0.15748031496
 74
     0
 49
-0.03937007874
 74
     0
 49
0.03937007874
 74
     0
 49
-0.03937007874
 74
     0
 49
0.03937007874
 74
     0
 49
-0.03937007874
 74
     0
  0
LTYPE
  5
2947
330
28C2
100
AcDbSymbolTableRecord
100
AcDbLinetypeTableRecord
  2
ACANSTGL
 70
     0
  3
_ _ _ _ _
 72
    65
 73
     2
 40
0.11811023622
 49
0.07874015748
 74
     0
 49
-0.03937007874
 74
     0
  0
ENDTAB
  0
TABLE
  2
LAYER
  5
28BF
330
0
100
AcDbSymbolTable
 70
    12
  0
LAYER
  5
2919
102
{ACAD_XDICTIONARY
360
2ADF
102
}
330
28BF
100
AcDbSymbolTableRecord
100
AcDbLayerTableRecord
  2
0
 70
     0
 62
     7
  6
CONTINUOUS
370
    -3
390
28CC
  0
LAYER
  5
2948
102
{ACAD_XDICTIONARY
360
2AE1
102
}
330
28BF
100
AcDbSymbolTableRecord
100
AcDbLayerTableRecord
  2
OUTLINE
 70
     0
 62
     3
  6
CONTINUOUS
370
    -3
390
28CC
  0
LAYER
  5
2949
102
{ACAD_XDICTIONARY
360
2AE3
102
}
330
28BF
100
AcDbSymbolTableRecord
100
AcDbLayerTableRecord
  2
SIZE
 70
     0
 62
    30
  6
CONTINUOUS
370
    -3
390
28CC
  0
LAYER
  5
294A
102
{ACAD_XDICTIONARY
360
2AE5
102
}
330
28BF
100
AcDbSymbolTableRecord
100
AcDbLayerTableRecord
  2
BASIS
 70
     0
 62
     6
  6
DASHDOT
370
    -3
390
28CC
  0
LAYER
  5
294B
102
{ACAD_XDICTIONARY
360
2AE7
102
}
330
28BF
100
AcDbSymbolTableRecord
100
AcDbLayerTableRecord
  2
DETAIL
 70
     0
 62
     5
  6
CONTINUOUS
370
    -3
390
28CC
  0
LAYER
  5
294C
102
{ACAD_XDICTIONARY
360
2AE9
102
}
330
28BF
100
AcDbSymbolTableRecord
100
AcDbLayerTableRecord
  2
ARRANGE
 70
     0
 62
     1
  6
CONTINUOUS
370
    -3
390
28CC
  0
LAYER
  5
294D
330
28BF
100
AcDbSymbolTableRecord
100
AcDbLayerTableRecord
  2
DEFPOINTS
 70
     0
 62
     7
  6
CONTINUOUS
290
     0
370
    -3
390
28CC
  0
LAYER
  5
294E
102
{ACAD_XDICTIONARY
360
2AEB
102
}
330
28BF
100
AcDbSymbolTableRecord
100
AcDbLayerTableRecord
  2
ETC
 70
     0
 62
    61
  6
CONTINUOUS
370
    -3
390
28CC
  0
LAYER
  5
294F
102
{ACAD_XDICTIONARY
360
2AED
102
}
330
28BF
100
AcDbSymbolTableRecord
100
AcDbLayerTableRecord
  2
FIX
 70
     0
 62
    11
  6
CONTINUOUS
370
    -3
390
28CC
  0
LAYER
  5
2950
102
{ACAD_XDICTIONARY
360
2AEF
102
}
330
28BF
100
AcDbSymbolTableRecord
100
AcDbLayerTableRecord
  2
NOTE
 70
     0
 62
     4
  6
CONTINUOUS
370
    -3
390
28CC
  0
LAYER
  5
2951
102
{ACAD_XDICTIONARY
360
2AF1
102
}
330
28BF
100
AcDbSymbolTableRecord
100
AcDbLayerTableRecord
  2
SERVICESPACE
 70
     0
 62
     2
  6
DASHDOT
370
    -3
390
28CC
  0
LAYER
  5
2952
102
{ACAD_XDICTIONARY
360
2AF3
102
}
330
28BF
100
AcDbSymbolTableRecord
100
AcDbLayerTableRecord
  2
SYMBOLLINE
 70
     0
 62
    15
  6
CONTINUOUS
370
    -3
390
28CC
  0
ENDTAB
  0
TABLE
  2
STYLE
  5
28C0
330
0
100
AcDbSymbolTable
 70
     5
  0
STYLE
  5
291A
330
28C0
100
AcDbSymbolTableRecord
100
AcDbTextStyleTableRecord
  2
STANDARD
 70
     0
 40
64.0
 41
0.9
 50
0.0
 71
     0
 42
64.0
  3
SIMPLEX.shx
  4
BIGFONT.shx
  0
STYLE
  5
291E
330
28C0
100
AcDbSymbolTableRecord
100
AcDbTextStyleTableRecord
  2
ANNOTATIVE
 70
     0
 40
0.0
 41
1.0
 50
0.0
 71
     0
 42
0.2
  3
txt
  4

1001
ACADANNOTATIVE
1000
AnnotativeData
1002
{
1070
     1
1070
     1
1002
}
  0
STYLE
  5
2953
330
28C0
100
AcDbSymbolTableRecord
100
AcDbTextStyleTableRecord
  2

 70
     1
 40
0.0
 41
1.0
 50
0.0
 71
     0
 42
64.0
  3
genltshp.shx
  4

  0
STYLE
  5
2954
330
28C0
100
AcDbSymbolTableRecord
100
AcDbTextStyleTableRecord
  2
ACANSTS
 70
     0
 40
1.0
 41
1.0
 50
0.0
 71
     0
 42
64.0
  3
romans.shx
  4
extfont.shx
  0
STYLE
  5
2955
330
28C0
100
AcDbSymbolTableRecord
100
AcDbTextStyleTableRecord
  2
ACANSGDT
 70
     0
 40
0.0
 41
1.0
 50
0.0
 71
     0
 42
64.0
  3
amgdt.shx
  4

  0
ENDTAB
  0
TABLE
  2
VIEW
  5
28C3
330
0
100
AcDbSymbolTable
 70
     1
  0
VIEW
  5
2956
330
28C3
100
AcDbSymbolTableRecord
100
AcDbViewTableRecord
  2
ALL
 70
     0
 40
4282.619807999997
 10
0.0
 20
41.30990399999999
 41
5940.0
 11
0.0
 21
0.0
 31
1.0
 12
0.0
 22
0.0
 32
0.0
 42
50.0
 43
0.0
 44
0.0
 50
0.0
 71
     0
281
     0
 72
     1
110
0.0
120
0.0
130
0.0
111
1.0
121
0.0
131
0.0
112
0.0
122
1.0
132
0.0
 79
     0
146
0.0
  0
ENDTAB
  0
TABLE
  2
UCS
  5
28C4
330
0
100
AcDbSymbolTable
 70
     0
  0
ENDTAB
  0
TABLE
  2
APPID
  5
28C6
330
0
100
AcDbSymbolTable
 70
    26
  0
APPID
  5
291B
330
28C6
100
AcDbSymbolTableRecord
100
AcDbRegAppTableRecord
  2
ACAD
 70
     0
  0
APPID
  5
2922
330
28C6
100
AcDbSymbolTableRecord
100
AcDbRegAppTableRecord
  2
ACADANNOTATIVE
 70
     0
  0
APPID
  5
292C
330
28C6
100
AcDbSymbolTableRecord
100
AcDbRegAppTableRecord
  2
ACAD_MLEADERVER
 70
     0
  0
APPID
  5
2957
330
28C6
100
AcDbSymbolTableRecord
100
AcDbRegAppTableRecord
  2
GENIUS_GENDIM_13
 70
     0
  0
APPID
  5
2958
330
28C6
100
AcDbSymbolTableRecord
100
AcDbRegAppTableRecord
  2
GENIUS_GENDTOL_13
 70
     0
  0
APPID
  5
2959
330
28C6
100
AcDbSymbolTableRecord
100
AcDbRegAppTableRecord
  2
GENIUS_GE3DTOL_13
 70
     0
  0
APPID
  5
295A
330
28C6
100
AcDbSymbolTableRecord
100
AcDbRegAppTableRecord
  2
MCAD_NO_VIS
 70
     0
  0
APPID
  5
295B
330
28C6
100
AcDbSymbolTableRecord
100
AcDbRegAppTableRecord
  2
ACAD_TEMP_GRAPHIC
 70
     0
  0
APPID
  5
295C
330
28C6
100
AcDbSymbolTableRecord
100
AcDbRegAppTableRecord
  2
AD_DRAW
 70
     0
  0
APPID
  5
295D
330
28C6
100
AcDbSymbolTableRecord
100
AcDbRegAppTableRecord
  2
ACATTRIBSERVICES
 70
     0
  0
APPID
  5
295E
330
28C6
100
AcDbSymbolTableRecord
100
AcDbRegAppTableRecord
  2
ASURF_PCURVE_APPNAME
 70
     0
  0
APPID
  5
295F
330
28C6
100
AcDbSymbolTableRecord
100
AcDbRegAppTableRecord
  2
AMG_3D2D_5_0
 70
     0
  0
APPID
  5
2960
330
28C6
100
AcDbSymbolTableRecord
100
AcDbRegAppTableRecord
  2
DESIGNERASSEMBLIES
 70
     0
  0
APPID
  5
2961
330
28C6
100
AcDbSymbolTableRecord
100
AcDbRegAppTableRecord
  2
ACADM_DIM_EDIT
 70
     0
  0
APPID
  5
2962
330
28C6
100
AcDbSymbolTableRecord
100
AcDbRegAppTableRecord
  2
AMDT_DM_ADJ
 70
     0
  0
APPID
  5
2963
330
28C6
100
AcDbSymbolTableRecord
100
AcDbRegAppTableRecord
  2
ACAD_DSTYLE_DIMARC_LENGTH_
 70
     0
  0
APPID
  5
2964
330
28C6
100
AcDbSymbolTableRecord
100
AcDbRegAppTableRecord
  2
ACAD_DSTYLE_DIMJOGGED_JOGA
 70
     0
  0
APPID
  5
2965
330
28C6
100
AcDbSymbolTableRecord
100
AcDbRegAppTableRecord
  2
ACAD_PSEXT
 70
     0
  0
APPID
  5
2966
330
28C6
100
AcDbSymbolTableRecord
100
AcDbRegAppTableRecord
  2
ACAD_EXEMPT_FROM_CAD_STANDARDS
 70
     0
  0
APPID
  5
2967
330
28C6
100
AcDbSymbolTableRecord
100
AcDbRegAppTableRecord
  2
ACAD_DSTYLE_DIMJAG
 70
     0
  0
APPID
  5
2968
330
28C6
100
AcDbSymbolTableRecord
100
AcDbRegAppTableRecord
  2
ACAD_DSTYLE_DIMTALN
 70
     0
  0
APPID
  5
2A86
330
28C6
100
AcDbSymbolTableRecord
100
AcDbRegAppTableRecord
  2
AMG_3D2D_5.0
 70
     0
  0
APPID
  5
2B1C
330
28C6
100
AcDbSymbolTableRecord
100
AcDbRegAppTableRecord
  2
ACAD_DSTYLE_DIMARC_LENGTH_SYMBOL
 70
     0
  0
APPID
  5
2B1D
330
28C6
100
AcDbSymbolTableRecord
100
AcDbRegAppTableRecord
  2
ACAD_DSTYLE_DIM_LINETYPE
 70
     0
  0
APPID
  5
2B1E
330
28C6
100
AcDbSymbolTableRecord
100
AcDbRegAppTableRecord
  2
ACAD_DSTYLE_DIM_EXT1_LINETYPE
 70
     0
  0
APPID
  5
2B1F
330
28C6
100
AcDbSymbolTableRecord
100
AcDbRegAppTableRecord
  2
ACAD_DSTYLE_DIM_EXT2_LINETYPE
 70
     0
  0
ENDTAB
  0
TABLE
  2
DIMSTYLE
  5
28C7
330
0
100
AcDbSymbolTable
 70
    10
100
AcDbDimStyleTable
 71
     1
340
2969
  0
DIMSTYLE
105
291C
330
28C7
100
AcDbSymbolTableRecord
100
AcDbDimStyleTableRecord
  2
STANDARD
 70
     0
 41
12.0
 42
20.0
 44
20.0
 77
     1
 78
     8
140
64.0
141
0.0
147
10.0
275
     1
279
     2
284
     7
285
     7
286
     7
340
291A
  0
DIMSTYLE
105
291D
330
28C7
100
AcDbSymbolTableRecord
100
AcDbDimStyleTableRecord
  2
ANNOTATIVE
 70
     0
275
     1
279
     2
284
     7
285
     7
286
     7
340
291A
1001
ACADANNOTATIVE
1000
AnnotativeData
1002
{
1070
     1
1070
     1
1002
}
  0
DIMSTYLE
105
2969
330
28C7
100
AcDbSymbolTableRecord
100
AcDbDimStyleTableRecord
  2
AM_ANSI
 70
     0
  4
mm
 41
0.12
 42
0.05
 43
0.5
 44
0.1
 47
0.1
 48
0.1
 78
     7
 79
     2
140
0.12
141
0.0
146
0.71
147
0.06
176
   256
177
   256
178
     2
274
     4
284
     7
340
291A
371
    -1
372
    -1
1001
ACAD_DSTYLE_DIMARC_LENGTH_SYMBOL
1070
   379
1070
     1
1001
ACAD_DSTYLE_DIM_LINETYPE
1070
   380
1005
291F
1001
ACAD_DSTYLE_DIM_EXT1_LINETYPE
1070
   381
1005
291F
1001
ACAD_DSTYLE_DIM_EXT2_LINETYPE
1070
   382
1005
291F
  0
DIMSTYLE
105
296A
330
28C7
100
AcDbSymbolTableRecord
100
AcDbDimStyleTableRecord
  2
AM_ANSI$3
 70
     0
  4
mm
 41
0.12
 42
0.05
 43
0.5
 44
0.1
 47
0.1
 48
0.1
 78
     7
 79
     2
140
0.12
141
0.0
146
0.71
147
0.06
176
   256
177
   256
178
     2
274
     4
284
     7
288
     1
289
     0
340
291A
371
    -1
372
    -1
1001
ACAD_DSTYLE_DIMARC_LENGTH_SYMBOL
1070
   379
1070
     1
1001
ACAD_DSTYLE_DIM_LINETYPE
1070
   380
1005
291F
1001
ACAD_DSTYLE_DIM_EXT1_LINETYPE
1070
   381
1005
291F
1001
ACAD_DSTYLE_DIM_EXT2_LINETYPE
1070
   382
1005
291F
  0
DIMSTYLE
105
296B
330
28C7
100
AcDbSymbolTableRecord
100
AcDbDimStyleTableRecord
  2
AM_ANSI$4
 70
     0
  4
mm
 41
0.12
 42
0.05
 43
0.5
 44
0.1
 47
0.1
 48
0.1
 78
     7
 79
     2
140
0.12
141
0.0
146
0.71
147
0.06
176
   256
177
   256
178
     2
274
     4
284
     7
340
291A
371
    -1
372
    -1
1001
ACAD_DSTYLE_DIMARC_LENGTH_SYMBOL
1070
   379
1070
     1
1001
ACAD_DSTYLE_DIM_LINETYPE
1070
   380
1005
291F
1001
ACAD_DSTYLE_DIM_EXT1_LINETYPE
1070
   381
1005
291F
1001
ACAD_DSTYLE_DIM_EXT2_LINETYPE
1070
   382
1005
291F
  0
DIMSTYLE
105
296C
330
28C7
100
AcDbSymbolTableRecord
100
AcDbDimStyleTableRecord
  2
AM_ANSI$7
 70
     0
  4
mm
 41
0.12
 42
0.05
 43
0.5
 44
0.1
 47
0.1
 48
0.1
 78
     7
 79
     2
140
0.12
141
0.0
146
0.71
147
0.06
176
   256
177
   256
178
     2
274
     4
284
     7
340
291A
371
    -1
372
    -1
1001
ACAD_DSTYLE_DIMARC_LENGTH_SYMBOL
1070
   379
1070
     1
1001
ACAD_DSTYLE_DIM_LINETYPE
1070
   380
1005
291F
1001
ACAD_DSTYLE_DIM_EXT1_LINETYPE
1070
   381
1005
291F
1001
ACAD_DSTYLE_DIM_EXT2_LINETYPE
1070
   382
1005
291F
  0
DIMSTYLE
105
296D
330
28C7
100
AcDbSymbolTableRecord
100
AcDbDimStyleTableRecord
  2
AM_ANSI$SF
 70
     0
  4
mm
 41
0.12
 42
0.05
 43
0.5
 44
0.1
 47
0.1
 48
0.1
 75
     1
 76
     1
 78
     7
 79
     2
140
0.12
141
0.0
146
0.71
147
0.06
176
   256
177
   256
178
     2
274
     4
284
     7
340
291A
371
    -1
372
    -1
1001
ACAD_DSTYLE_DIMARC_LENGTH_SYMBOL
1070
   379
1070
     1
1001
ACAD_DSTYLE_DIM_LINETYPE
1070
   380
1005
291F
1001
ACAD_DSTYLE_DIM_EXT1_LINETYPE
1070
   381
1005
291F
1001
ACAD_DSTYLE_DIM_EXT2_LINETYPE
1070
   382
1005
291F
  0
DIMSTYLE
105
296E
330
28C7
100
AcDbSymbolTableRecord
100
AcDbDimStyleTableRecord
  2
AM_ANSI$SH
 70
     0
  4
mm
 41
0.12
 42
0.05
 43
0.5
 44
0.1
 47
0.1
 48
0.1
 75
     1
 76
     1
 78
     7
 79
     2
140
0.12
141
0.0
146
0.71
147
0.06
173
     1
176
   256
177
   256
178
     2
274
     4
284
     7
340
291A
343
298E
371
    -1
372
    -1
1001
ACAD_DSTYLE_DIMARC_LENGTH_SYMBOL
1070
   379
1070
     1
1001
ACAD_DSTYLE_DIM_LINETYPE
1070
   380
1005
291F
1001
ACAD_DSTYLE_DIM_EXT1_LINETYPE
1070
   381
1005
291F
1001
ACAD_DSTYLE_DIM_EXT2_LINETYPE
1070
   382
1005
291F
  0
DIMSTYLE
105
296F
330
28C7
100
AcDbSymbolTableRecord
100
AcDbDimStyleTableRecord
  2
STANDARD1
 70
     0
 40
6.0
 41
2.5
 42
0.625
 43
6.0
 44
1.25
 47
1.0
 48
0.5
 77
     1
 78
     8
140
2.5
141
0.0
146
0.6
147
1.0
173
     1
275
     1
279
     2
284
     7
285
     7
286
     7
340
291A
  0
DIMSTYLE
105
2970
330
28C7
100
AcDbSymbolTableRecord
100
AcDbDimStyleTableRecord
  2
STANDARD$0
 70
     0
 41
12.0
 42
20.0
 44
20.0
 73
     0
 74
     0
 77
     1
 78
     8
140
64.0
141
0.0
147
10.0
275
     1
279
     2
284
     7
285
     7
286
     7
340
291A
  0
ENDTAB
  0
TABLE
  2
BLOCK_RECORD
  5
28BE
330
0
100
AcDbSymbolTable
 70
    71
  0
BLOCK_RECORD
  5
2931
102
{ACAD_XDICTIONARY
360
2AF5
102
}
330
28BE
100
AcDbSymbolTableRecord
100
AcDbBlockTableRecord
  2
*Model_Space
340
2934
  0
BLOCK_RECORD
  5
292D
330
28BE
100
AcDbSymbolTableRecord
100
AcDbBlockTableRecord
  2
*Paper_Space
340
2930
  0
BLOCK_RECORD
  5
2978
330
28BE
100
AcDbSymbolTableRecord
100
AcDbBlockTableRecord
  2
$MODEL_SPACE
340
0
  0
BLOCK_RECORD
  5
297A
330
28BE
100
AcDbSymbolTableRecord
100
AcDbBlockTableRecord
  2
$PAPER_SPACE
340
0
  0
BLOCK_RECORD
  5
297C
330
28BE
100
AcDbSymbolTableRecord
100
AcDbBlockTableRecord
  2
_ORIGIN
340
0
  0
BLOCK_RECORD
  5
297E
330
28BE
100
AcDbSymbolTableRecord
100
AcDbBlockTableRecord
  2
_DOTBLANK
340
0
102
{BLKREFS
331
1299
331
129A
331
11AA
331
11AB
331
E80
331
E81
331
1123
331
1124
331
11C2
331
11C3
331
11EC
331
11ED
331
11F9
331
11FA
331
1287
331
1288
331
1417
331
1418
331
1423
331
1424
331
142F
331
1430
331
143B
331
143C
331
166E
331
166F
331
1677
331
1678
331
1680
331
1681
331
1689
331
168A
331
1696
331
1697
331
16A3
331
16A4
331
16AF
331
16B0
331
16BB
331
16BC
331
16C7
331
16C8
331
16D3
331
16D4
331
1D86
331
1D87
331
1D8F
331
1D90
331
1D98
331
1D99
331
1DA1
331
1DA2
331
1DAB
331
1DAC
331
1DB5
331
1DB6
331
2860
331
2861
331
2865
331
2866
331
286A
331
286B
331
286F
331
2870
331
2877
331
2878
331
287C
331
287D
331
2881
331
2882
331
2886
331
2887
331
288B
331
288C
331
2890
331
2891
331
2895
331
2896
102
}
  0
BLOCK_RECORD
  5
2980
330
28BE
100
AcDbSymbolTableRecord
100
AcDbBlockTableRecord
  2
_OPEN30
340
0
102
{BLKREFS
331
218C
331
22BE
331
25AF
102
}
  0
BLOCK_RECORD
  5
2982
330
28BE
100
AcDbSymbolTableRecord
100
AcDbBlockTableRecord
  2
*D5
340
0
  0
BLOCK_RECORD
  5
2984
330
28BE
100
AcDbSymbolTableRecord
100
AcDbBlockTableRecord
  2
*U6
340
0
102
{BLKREFS
331
129B
102
}
  0
BLOCK_RECORD
  5
2986
330
28BE
100
AcDbSymbolTableRecord
100
AcDbBlockTableRecord
  2
*D7
340
0
  0
BLOCK_RECORD
  5
2988
330
28BE
100
AcDbSymbolTableRecord
100
AcDbBlockTableRecord
  2
*U8
340
0
102
{BLKREFS
331
11AC
102
}
  0
BLOCK_RECORD
  5
298A
330
28BE
100
AcDbSymbolTableRecord
100
AcDbBlockTableRecord
  2
*D9
340
0
  0
BLOCK_RECORD
  5
298C
330
28BE
100
AcDbSymbolTableRecord
100
AcDbBlockTableRecord
  2
*U10
340
0
102
{BLKREFS
331
E82
102
}
  0
BLOCK_RECORD
  5
298E
330
28BE
100
AcDbSymbolTableRecord
100
AcDbBlockTableRecord
  2
GENAXEH
340
0
  0
BLOCK_RECORD
  5
2990
330
28BE
100
AcDbSymbolTableRecord
100
AcDbBlockTableRecord
  2
*D12
340
0
  0
BLOCK_RECORD
  5
2992
330
28BE
100
AcDbSymbolTableRecord
100
AcDbBlockTableRecord
  2
*U13
340
0
102
{BLKREFS
331
1125
102
}
  0
BLOCK_RECORD
  5
2994
330
28BE
100
AcDbSymbolTableRecord
100
AcDbBlockTableRecord
  2
*D14
340
0
  0
BLOCK_RECORD
  5
2996
330
28BE
100
AcDbSymbolTableRecord
100
AcDbBlockTableRecord
  2
*U15
340
0
102
{BLKREFS
331
11C4
102
}
  0
BLOCK_RECORD
  5
2998
330
28BE
100
AcDbSymbolTableRecord
100
AcDbBlockTableRecord
  2
*D16
340
0
  0
BLOCK_RECORD
  5
299A
330
28BE
100
AcDbSymbolTableRecord
100
AcDbBlockTableRecord
  2
*U17
340
0
102
{BLKREFS
331
11EE
102
}
  0
BLOCK_RECORD
  5
299C
330
28BE
100
AcDbSymbolTableRecord
100
AcDbBlockTableRecord
  2
*D18
340
0
  0
BLOCK_RECORD
  5
299E
330
28BE
100
AcDbSymbolTableRecord
100
AcDbBlockTableRecord
  2
*U19
340
0
102
{BLKREFS
331
11FB
102
}
  0
BLOCK_RECORD
  5
29A0
330
28BE
100
AcDbSymbolTableRecord
100
AcDbBlockTableRecord
  2
*D20
340
0
  0
BLOCK_RECORD
  5
29A2
330
28BE
100
AcDbSymbolTableRecord
100
AcDbBlockTableRecord
  2
*U21
340
0
102
{BLKREFS
331
1289
102
}
  0
BLOCK_RECORD
  5
29A4
330
28BE
100
AcDbSymbolTableRecord
100
AcDbBlockTableRecord
  2
*D22
340
0
  0
BLOCK_RECORD
  5
29A6
330
28BE
100
AcDbSymbolTableRecord
100
AcDbBlockTableRecord
  2
*U23
340
0
102
{BLKREFS
331
1419
102
}
  0
BLOCK_RECORD
  5
29A8
330
28BE
100
AcDbSymbolTableRecord
100
AcDbBlockTableRecord
  2
*D24
340
0
  0
BLOCK_RECORD
  5
29AA
330
28BE
100
AcDbSymbolTableRecord
100
AcDbBlockTableRecord
  2
*U25
340
0
102
{BLKREFS
331
1425
102
}
  0
BLOCK_RECORD
  5
29AC
330
28BE
100
AcDbSymbolTableRecord
100
AcDbBlockTableRecord
  2
*D26
340
0
  0
BLOCK_RECORD
  5
29AE
330
28BE
100
AcDbSymbolTableRecord
100
AcDbBlockTableRecord
  2
*U27
340
0
102
{BLKREFS
331
1431
102
}
  0
BLOCK_RECORD
  5
29B0
330
28BE
100
AcDbSymbolTableRecord
100
AcDbBlockTableRecord
  2
*D28
340
0
  0
BLOCK_RECORD
  5
29B2
330
28BE
100
AcDbSymbolTableRecord
100
AcDbBlockTableRecord
  2
*U29
340
0
102
{BLKREFS
331
143D
102
}
  0
BLOCK_RECORD
  5
29B4
330
28BE
100
AcDbSymbolTableRecord
100
AcDbBlockTableRecord
  2
*D30
340
0
  0
BLOCK_RECORD
  5
29B6
330
28BE
100
AcDbSymbolTableRecord
100
AcDbBlockTableRecord
  2
*U31
340
0
102
{BLKREFS
331
1670
102
}
  0
BLOCK_RECORD
  5
29B8
330
28BE
100
AcDbSymbolTableRecord
100
AcDbBlockTableRecord
  2
*D32
340
0
  0
BLOCK_RECORD
  5
29BA
330
28BE
100
AcDbSymbolTableRecord
100
AcDbBlockTableRecord
  2
*U33
340
0
102
{BLKREFS
331
1679
102
}
  0
BLOCK_RECORD
  5
29BC
330
28BE
100
AcDbSymbolTableRecord
100
AcDbBlockTableRecord
  2
*D34
340
0
  0
BLOCK_RECORD
  5
29BE
330
28BE
100
AcDbSymbolTableRecord
100
AcDbBlockTableRecord
  2
*U35
340
0
102
{BLKREFS
331
1682
102
}
  0
BLOCK_RECORD
  5
29C0
330
28BE
100
AcDbSymbolTableRecord
100
AcDbBlockTableRecord
  2
*D36
340
0
  0
BLOCK_RECORD
  5
29C2
330
28BE
100
AcDbSymbolTableRecord
100
AcDbBlockTableRecord
  2
*U37
340
0
102
{BLKREFS
331
168B
102
}
  0
BLOCK_RECORD
  5
29C4
330
28BE
100
AcDbSymbolTableRecord
100
AcDbBlockTableRecord
  2
*U38
340
0
  0
BLOCK_RECORD
  5
29C6
330
28BE
100
AcDbSymbolTableRecord
100
AcDbBlockTableRecord
  2
*D39
340
0
  0
BLOCK_RECORD
  5
29C8
330
28BE
100
AcDbSymbolTableRecord
100
AcDbBlockTableRecord
  2
*U40
340
0
102
{BLKREFS
331
1698
102
}
  0
BLOCK_RECORD
  5
29CA
330
28BE
100
AcDbSymbolTableRecord
100
AcDbBlockTableRecord
  2
*D41
340
0
  0
BLOCK_RECORD
  5
29CC
330
28BE
100
AcDbSymbolTableRecord
100
AcDbBlockTableRecord
  2
*U42
340
0
102
{BLKREFS
331
16A5
102
}
  0
BLOCK_RECORD
  5
29CE
330
28BE
100
AcDbSymbolTableRecord
100
AcDbBlockTableRecord
  2
*D43
340
0
  0
BLOCK_RECORD
  5
29D0
330
28BE
100
AcDbSymbolTableRecord
100
AcDbBlockTableRecord
  2
*U44
340
0
102
{BLKREFS
331
16B1
102
}
  0
BLOCK_RECORD
  5
29D2
330
28BE
100
AcDbSymbolTableRecord
100
AcDbBlockTableRecord
  2
*D45
340
0
  0
BLOCK_RECORD
  5
29D4
330
28BE
100
AcDbSymbolTableRecord
100
AcDbBlockTableRecord
  2
*U46
340
0
102
{BLKREFS
331
16BD
102
}
  0
BLOCK_RECORD
  5
29D6
330
28BE
100
AcDbSymbolTableRecord
100
AcDbBlockTableRecord
  2
*D47
340
0
  0
BLOCK_RECORD
  5
29D8
330
28BE
100
AcDbSymbolTableRecord
100
AcDbBlockTableRecord
  2
*U48
340
0
102
{BLKREFS
331
16C9
102
}
  0
BLOCK_RECORD
  5
29DA
330
28BE
100
AcDbSymbolTableRecord
100
AcDbBlockTableRecord
  2
*D49
340
0
  0
BLOCK_RECORD
  5
29DC
330
28BE
100
AcDbSymbolTableRecord
100
AcDbBlockTableRecord
  2
*U50
340
0
102
{BLKREFS
331
16D5
102
}
  0
BLOCK_RECORD
  5
29DE
330
28BE
100
AcDbSymbolTableRecord
100
AcDbBlockTableRecord
  2
*D51
340
0
  0
BLOCK_RECORD
  5
29E0
330
28BE
100
AcDbSymbolTableRecord
100
AcDbBlockTableRecord
  2
*U52
340
0
102
{BLKREFS
331
1D88
102
}
  0
BLOCK_RECORD
  5
29E2
330
28BE
100
AcDbSymbolTableRecord
100
AcDbBlockTableRecord
  2
*D53
340
0
  0
BLOCK_RECORD
  5
29E4
330
28BE
100
AcDbSymbolTableRecord
100
AcDbBlockTableRecord
  2
*U54
340
0
102
{BLKREFS
331
1D91
102
}
  0
BLOCK_RECORD
  5
29E6
330
28BE
100
AcDbSymbolTableRecord
100
AcDbBlockTableRecord
  2
*D55
340
0
  0
BLOCK_RECORD
  5
29E8
330
28BE
100
AcDbSymbolTableRecord
100
AcDbBlockTableRecord
  2
*U56
340
0
102
{BLKREFS
331
1D9A
102
}
  0
BLOCK_RECORD
  5
29EA
330
28BE
100
AcDbSymbolTableRecord
100
AcDbBlockTableRecord
  2
*D57
340
0
  0
BLOCK_RECORD
  5
29EC
330
28BE
100
AcDbSymbolTableRecord
100
AcDbBlockTableRecord
  2
*U58
340
0
102
{BLKREFS
331
1DA3
102
}
  0
BLOCK_RECORD
  5
29EE
330
28BE
100
AcDbSymbolTableRecord
100
AcDbBlockTableRecord
  2
*D59
340
0
  0
BLOCK_RECORD
  5
29F0
330
28BE
100
AcDbSymbolTableRecord
100
AcDbBlockTableRecord
  2
*U60
340
0
102
{BLKREFS
331
1DAD
102
}
  0
BLOCK_RECORD
  5
29F2
330
28BE
100
AcDbSymbolTableRecord
100
AcDbBlockTableRecord
  2
*D61
340
0
  0
BLOCK_RECORD
  5
29F4
330
28BE
100
AcDbSymbolTableRecord
100
AcDbBlockTableRecord
  2
*U62
340
0
102
{BLKREFS
331
1DB7
102
}
  0
BLOCK_RECORD
  5
29F6
330
28BE
100
AcDbSymbolTableRecord
100
AcDbBlockTableRecord
  2
*U63
340
0
  0
BLOCK_RECORD
  5
29F8
330
28BE
100
AcDbSymbolTableRecord
100
AcDbBlockTableRecord
  2
*U64
340
0
  0
BLOCK_RECORD
  5
29FA
330
28BE
100
AcDbSymbolTableRecord
100
AcDbBlockTableRecord
  2
*U65
340
0
  0
BLOCK_RECORD
  5
29FC
330
28BE
100
AcDbSymbolTableRecord
100
AcDbBlockTableRecord
  2
*U66
340
0
  0
BLOCK_RECORD
  5
29FE
330
28BE
100
AcDbSymbolTableRecord
100
AcDbBlockTableRecord
  2
*U67
340
0
  0
BLOCK_RECORD
  5
2A00
330
28BE
100
AcDbSymbolTableRecord
100
AcDbBlockTableRecord
  2
*U68
340
0
102
{BLKREFS
331
27BC
102
}
  0
BLOCK_RECORD
  5
2A02
330
28BE
100
AcDbSymbolTableRecord
100
AcDbBlockTableRecord
  2
*U69
340
0
102
{BLKREFS
331
27BD
102
}
  0
ENDTAB
  0
ENDSEC
  0
SECTION
  2
BLOCKS
  0
BLOCK
  5
2932
330
2931
100
AcDbEntity
  8
0
100
AcDbBlockBegin
  2
*Model_Space
 70
     0
 10
0.0
 20
0.0
 30
0.0
  3
*Model_Space
  1

  0
ENDBLK
  5
2933
330
2931
100
AcDbEntity
  8
0
100
AcDbBlockEnd
  0
BLOCK
  5
292E
330
292D
100
AcDbEntity
 67
     1
  8
0
100
AcDbBlockBegin
  2
*Paper_Space
 70
     0
 10
0.0
 20
0.0
 30
0.0
  3
*Paper_Space
  1

  0
ENDBLK
  5
292F
330
292D
100
AcDbEntity
 67
     1
  8
0
100
AcDbBlockEnd
  0
BLOCK
  5
2979
330
2978
100
AcDbEntity
  8
0
100
AcDbBlockBegin
  2
$MODEL_SPACE
 70
     0
 10
0.0
 20
0.0
 30
0.0
  3
$MODEL_SPACE
  1

  0
ENDBLK
  5
1FC1
330
2978
100
AcDbEntity
  8
0
100
AcDbBlockEnd
  0
BLOCK
  5
297B
330
297A
100
AcDbEntity
  8
0
100
AcDbBlockBegin
  2
$PAPER_SPACE
 70
     0
 10
0.0
 20
0.0
 30
0.0
  3
$PAPER_SPACE
  1

  0
ENDBLK
  5
1FBD
330
297A
100
AcDbEntity
  8
0
100
AcDbBlockEnd
  0
BLOCK
  5
297D
330
297C
100
AcDbEntity
  8
0
100
AcDbBlockBegin
  2
_ORIGIN
 70
     0
 10
0.0
 20
0.0
 30
0.0
  3
_ORIGIN
  1

  0
CIRCLE
  5
880
330
297C
100
AcDbEntity
  8
0
  6
Continuous
 62
     7
100
AcDbCircle
 10
0.0
 20
0.0
 30
0.0
 40
0.5
  0
LINE
  5
881
330
297C
100
AcDbEntity
  8
0
  6
Continuous
 62
     7
100
AcDbLine
 10
0.0
 20
0.0
 30
0.0
 11
-1.0
 21
0.0
 31
0.0
  0
ENDBLK
  5
882
330
297C
100
AcDbEntity
  8
0
100
AcDbBlockEnd
  0
BLOCK
  5
297F
330
297E
100
AcDbEntity
  8
0
 62
     1
100
AcDbBlockBegin
  2
_DOTBLANK
 70
     0
 10
0.0
 20
0.0
 30
0.0
  3
_DOTBLANK
  1

  0
CIRCLE
  5
AB3
330
297E
100
AcDbEntity
  8
0
  6
ByBlock
 62
     0
100
AcDbCircle
 10
0.0
 20
0.0
 30
0.0
 40
0.5
  0
LINE
  5
AB4
330
297E
100
AcDbEntity
  8
0
  6
ByBlock
 62
     0
100
AcDbLine
 10
-0.5
 20
0.0
 30
0.0
 11
-1.0
 21
0.0
 31
0.0
  0
ENDBLK
  5
AB6
330
297E
100
AcDbEntity
  8
0
 62
     1
100
AcDbBlockEnd
  0
BLOCK
  5
2981
330
2980
100
AcDbEntity
  8
0
 62
     1
100
AcDbBlockBegin
  2
_OPEN30
 70
     0
 10
0.0
 20
0.0
 30
0.0
  3
_OPEN30
  1

  0
LINE
  5
AB8
330
2980
100
AcDbEntity
  8
0
  6
ByBlock
 62
     0
100
AcDbLine
 10
-1.0
 20
0.26794919
 30
0.0
 11
0.0
 21
0.0
 31
0.0
  0
LINE
  5
AB9
330
2980
100
AcDbEntity
  8
0
  6
ByBlock
 62
     0
100
AcDbLine
 10
0.0
 20
0.0
 30
0.0
 11
-1.0
 21
-0.26794919
 31
0.0
  0
LINE
  5
ABA
330
2980
100
AcDbEntity
  8
0
  6
ByBlock
 62
     0
100
AcDbLine
 10
0.0
 20
0.0
 30
0.0
 11
-1.0
 21
0.0
 31
0.0
  0
ENDBLK
  5
ABC
330
2980
100
AcDbEntity
  8
0
 62
     1
100
AcDbBlockEnd
  0
BLOCK
  5
2983
330
2982
100
AcDbEntity
  8
0
100
AcDbBlockBegin
  2
*D5
 70
     1
 10
0.0
 20
0.0
 30
0.0
  3
*D5
  1

  0
LINE
  5
1296
330
2982
100
AcDbEntity
  8
SIZE
 62
     0
100
AcDbLine
 10
-134.5
 20
-320.0
 30
0.0
 11
-134.5
 21
-468.0173952306001
 31
0.0
  0
LINE
  5
1297
330
2982
100
AcDbEntity
  8
SIZE
 62
     0
100
AcDbLine
 10
134.5
 20
-320.0
 30
0.0
 11
134.5
 21
-468.0173952306001
 31
0.0
  0
LINE
  5
1298
330
2982
100
AcDbEntity
  8
SIZE
 62
     0
100
AcDbLine
 10
-122.5
 20
-448.0173952306
 30
0.0
 11
122.5
 21
-448.0173952306
 31
0.0
  0
INSERT
  5
1299
330
2982
100
AcDbEntity
  8
SIZE
 62
     0
100
AcDbBlockReference
  2
_DOTBLANK
 10
-134.5
 20
-448.0173952306
 30
0.0
 41
12.0
 42
12.0
 43
12.0
 50
180.0
  0
INSERT
  5
129A
330
2982
100
AcDbEntity
  8
SIZE
 62
     0
100
AcDbBlockReference
  2
_DOTBLANK
 10
134.5
 20
-448.0173952306
 30
0.0
 41
12.0
 42
12.0
 43
12.0
  0
INSERT
  5
129B
330
2982
100
AcDbEntity
  8
0
100
AcDbBlockReference
  2
*U6
 10
0.0
 20
0.0
 30
0.0
  0
POINT
  5
129C
330
2982
100
AcDbEntity
  8
DEFPOINTS
 62
     0
100
AcDbPoint
 10
-134.5
 20
-300.0
 30
0.0
  0
POINT
  5
129D
330
2982
100
AcDbEntity
  8
DEFPOINTS
 62
     0
100
AcDbPoint
 10
134.5
 20
-300.0
 30
0.0
  0
POINT
  5
129E
330
2982
100
AcDbEntity
  8
DEFPOINTS
 62
     0
100
AcDbPoint
 10
134.5
 20
-448.0173952306
 30
0.0
  0
ENDBLK
  5
D72
330
2982
100
AcDbEntity
  8
0
100
AcDbBlockEnd
  0
BLOCK
  5
2985
330
2984
100
AcDbEntity
  8
0
100
AcDbBlockBegin
  2
*U6
 70
     1
 10
0.0
 20
0.0
 30
0.0
  3
*U6
  1

  0
TEXT
  5
1EF5
330
2984
100
AcDbEntity
  8
SIZE
 62
     0
100
AcDbText
 10
-72.68571428571426
 20
-438.0173952305999
 30
0.0
 40
64.0
  1
269
 41
0.9
100
AcDbText
  0
ENDBLK
  5
1EF7
330
2984
100
AcDbEntity
  8
0
100
AcDbBlockEnd
  0
BLOCK
  5
2987
330
2986
100
AcDbEntity
  8
0
100
AcDbBlockBegin
  2
*D7
 70
     1
 10
0.0
 20
0.0
 30
0.0
  3
*D7
  1

  0
LINE
  5
11A7
330
2986
100
AcDbEntity
  8
SIZE
  6
Continuous
 62
     0
100
AcDbLine
 10
143.5
 20
-300.0
 30
0.0
 11
304.6432844803791
 21
-300.0
 31
0.0
  0
LINE
  5
11A8
330
2986
100
AcDbEntity
  8
SIZE
  6
Continuous
 62
     0
100
AcDbLine
 10
177.5
 20
-0.0000000000000057
 30
0.0
 11
304.6432844803792
 21
-0.0000000000000417
 31
0.0
  0
LINE
  5
11A9
330
2986
100
AcDbEntity
  8
SIZE
  6
Continuous
 62
     0
100
AcDbLine
 10
284.6432844803791
 20
-288.0000000000001
 30
0.0
 11
284.6432844803792
 21
-12.00000000000003
 31
0.0
  0
INSERT
  5
11AA
330
2986
100
AcDbEntity
  8
SIZE
  6
Continuous
 62
     0
100
AcDbBlockReference
  2
_DOTBLANK
 10
284.6432844803791
 20
-300.0
 30
0.0
 41
12.0
 42
12.0
 43
12.0
 50
270.0
  0
INSERT
  5
11AB
330
2986
100
AcDbEntity
  8
SIZE
  6
Continuous
 62
     0
100
AcDbBlockReference
  2
_DOTBLANK
 10
284.6432844803792
 20
-0.000000000000036
 30
0.0
 41
12.0
 42
12.0
 43
12.0
 50
90.0
  0
INSERT
  5
11AC
330
2986
100
AcDbEntity
  8
0
100
AcDbBlockReference
  2
*U8
 10
0.0
 20
0.0
 30
0.0
  0
POINT
  5
11AD
330
2986
100
AcDbEntity
  8
DEFPOINTS
  6
Continuous
 62
     0
100
AcDbPoint
 10
123.5
 20
-300.0
 30
0.0
  0
POINT
  5
11AE
330
2986
100
AcDbEntity
  8
DEFPOINTS
  6
Continuous
 62
     0
100
AcDbPoint
 10
157.5
 20
0.0
 30
0.0
  0
POINT
  5
11AF
330
2986
100
AcDbEntity
  8
DEFPOINTS
  6
Continuous
 62
     0
100
AcDbPoint
 10
284.6432844803792
 20
-0.000000000000036
 30
0.0
  0
ENDBLK
  5
E11
330
2986
100
AcDbEntity
  8
0
100
AcDbBlockEnd
  0
BLOCK
  5
2989
330
2988
100
AcDbEntity
  8
0
100
AcDbBlockBegin
  2
*U8
 70
     1
 10
0.0
 20
0.0
 30
0.0
  3
*U8
  1

  0
TEXT
  5
1EE1
330
2988
100
AcDbEntity
  8
SIZE
 62
     0
100
AcDbText
 10
274.6432844803792
 20
-224.0571428571429
 30
0.0
 40
64.0
  1
300
 50
90.0
 41
0.9
100
AcDbText
  0
ENDBLK
  5
1EE3
330
2988
100
AcDbEntity
  8
0
100
AcDbBlockEnd
  0
BLOCK
  5
298B
330
298A
100
AcDbEntity
  8
0
100
AcDbBlockBegin
  2
*D9
 70
     1
 10
0.0
 20
0.0
 30
0.0
  3
*D9
  1

  0
LINE
  5
E7D
330
298A
100
AcDbEntity
  8
SIZE
 62
     0
100
AcDbLine
 10
-139.9999999999998
 20
32.46448280219375
 30
0.0
 11
-139.9999999999998
 21
136.4516878685508
 31
0.0
  0
LINE
  5
E7E
330
298A
100
AcDbEntity
  8
SIZE
 62
     0
100
AcDbLine
 10
140.0
 20
32.46448280219375
 30
0.0
 11
140.0
 21
136.4516878685508
 31
0.0
  0
LINE
  5
E7F
330
298A
100
AcDbEntity
  8
SIZE
 62
     0
100
AcDbLine
 10
-128.0
 20
116.4516878685508
 30
0.0
 11
128.0
 21
116.4516878685508
 31
0.0
  0
INSERT
  5
E80
330
298A
100
AcDbEntity
  8
SIZE
 62
     0
100
AcDbBlockReference
  2
_DOTBLANK
 10
-139.9999999999998
 20
116.4516878685508
 30
0.0
 41
12.0
 42
12.0
 43
12.0
 50
180.0
  0
INSERT
  5
E81
330
298A
100
AcDbEntity
  8
SIZE
 62
     0
100
AcDbBlockReference
  2
_DOTBLANK
 10
140.0
 20
116.4516878685508
 30
0.0
 41
12.0
 42
12.0
 43
12.0
  0
INSERT
  5
E82
330
298A
100
AcDbEntity
  8
0
100
AcDbBlockReference
  2
*U10
 10
0.0
 20
0.0
 30
0.0
  0
POINT
  5
E83
330
298A
100
AcDbEntity
  8
DEFPOINTS
 62
     0
100
AcDbPoint
 10
-139.9999999999998
 20
12.46448280219374
 30
0.0
  0
POINT
  5
E84
330
298A
100
AcDbEntity
  8
DEFPOINTS
 62
     0
100
AcDbPoint
 10
140.0
 20
12.46448280219374
 30
0.0
  0
POINT
  5
E85
330
298A
100
AcDbEntity
  8
DEFPOINTS
 62
     0
100
AcDbPoint
 10
140.0
 20
116.4516878685508
 30
0.0
  0
ENDBLK
  5
E7C
330
298A
100
AcDbEntity
  8
0
100
AcDbBlockEnd
  0
BLOCK
  5
298D
330
298C
100
AcDbEntity
  8
0
100
AcDbBlockBegin
  2
*U10
 70
     1
 10
0.0
 20
0.0
 30
0.0
  3
*U10
  1

  0
TEXT
  5
1ED8
330
298C
100
AcDbEntity
  8
SIZE
 62
     0
100
AcDbText
 10
-74.05714285714281
 20
126.4516878685508
 30
0.0
 40
64.0
  1
280
 41
0.9
100
AcDbText
  0
ENDBLK
  5
1EDA
330
298C
100
AcDbEntity
  8
0
100
AcDbBlockEnd
  0
BLOCK
  5
298F
330
298E
100
AcDbEntity
  8
0
100
AcDbBlockBegin
  2
GENAXEH
 70
     0
 10
0.0
 20
0.0
 30
0.0
  3
GENAXEH
  1

  0
LINE
  5
FDB
330
298E
100
AcDbEntity
  8
0
100
AcDbLine
 10
-1.0
 20
0.0
 30
0.0
 11
1.0
 21
0.0
 31
0.0
  0
ENDBLK
  5
FDD
330
298E
100
AcDbEntity
  8
0
100
AcDbBlockEnd
  0
BLOCK
  5
2991
330
2990
100
AcDbEntity
  8
0
100
AcDbBlockBegin
  2
*D12
 70
     1
 10
0.0
 20
0.0
 30
0.0
  3
*D12
  1

  0
LINE
  5
1120
330
2990
100
AcDbEntity
  8
SIZE
 62
     0
100
AcDbLine
 10
-157.5
 20
20.0
 30
0.0
 11
-157.5
 21
245.5794621189598
 31
0.0
  0
LINE
  5
1121
330
2990
100
AcDbEntity
  8
SIZE
 62
     0
100
AcDbLine
 10
157.5
 20
20.0
 30
0.0
 11
157.5
 21
245.5794621189598
 31
0.0
  0
LINE
  5
1122
330
2990
100
AcDbEntity
  8
SIZE
 62
     0
100
AcDbLine
 10
-145.5
 20
225.5794621189598
 30
0.0
 11
145.5
 21
225.5794621189598
 31
0.0
  0
INSERT
  5
1123
330
2990
100
AcDbEntity
  8
SIZE
 62
     0
100
AcDbBlockReference
  2
_DOTBLANK
 10
-157.5
 20
225.5794621189598
 30
0.0
 41
12.0
 42
12.0
 43
12.0
 50
180.0
  0
INSERT
  5
1124
330
2990
100
AcDbEntity
  8
SIZE
 62
     0
100
AcDbBlockReference
  2
_DOTBLANK
 10
157.5
 20
225.5794621189598
 30
0.0
 41
12.0
 42
12.0
 43
12.0
  0
INSERT
  5
1125
330
2990
100
AcDbEntity
  8
0
100
AcDbBlockReference
  2
*U13
 10
0.0
 20
0.0
 30
0.0
  0
POINT
  5
1126
330
2990
100
AcDbEntity
  8
DEFPOINTS
 62
     0
100
AcDbPoint
 10
-157.5
 20
0.0
 30
0.0
  0
POINT
  5
1127
330
2990
100
AcDbEntity
  8
DEFPOINTS
 62
     0
100
AcDbPoint
 10
157.5
 20
0.0
 30
0.0
  0
POINT
  5
1128
330
2990
100
AcDbEntity
  8
DEFPOINTS
 62
     0
100
AcDbPoint
 10
157.5
 20
225.5794621189598
 30
0.0
  0
ENDBLK
  5
111F
330
2990
100
AcDbEntity
  8
0
100
AcDbBlockEnd
  0
BLOCK
  5
2993
330
2992
100
AcDbEntity
  8
0
100
AcDbBlockBegin
  2
*U13
 70
     1
 10
0.0
 20
0.0
 30
0.0
  3
*U13
  1

  0
TEXT
  5
1EDD
330
2992
100
AcDbEntity
  8
SIZE
 62
     0
100
AcDbText
 10
-68.57142857142857
 20
235.5794621189599
 30
0.0
 40
64.0
  1
315
 41
0.9
100
AcDbText
  0
ENDBLK
  5
1EDF
330
2992
100
AcDbEntity
  8
0
100
AcDbBlockEnd
  0
BLOCK
  5
2995
330
2994
100
AcDbEntity
  8
0
100
AcDbBlockBegin
  2
*D14
 70
     1
 10
0.0
 20
0.0
 30
0.0
  3
*D14
  1

  0
LINE
  5
11BD
330
2994
100
AcDbEntity
  8
NOTE
 62
     0
100
AcDbLine
 10
-123.4999999999999
 20
-320.0
 30
0.0
 11
-123.4999999999999
 21
-354.9529861856111
 31
0.0
  0
LINE
  5
11BE
330
2994
100
AcDbEntity
  8
NOTE
 62
     0
100
AcDbLine
 10
-133.4999999999998
 20
-331.2126909923287
 30
0.0
 11
-133.4999999999998
 21
-354.9529861856111
 31
0.0
  0
LINE
  5
11BF
330
2994
100
AcDbEntity
  8
NOTE
 62
     0
100
AcDbLine
 10
-111.4999999999999
 20
-334.9529861856112
 30
0.0
 11
-99.4999999999999
 21
-334.9529861856112
 31
0.0
  0
LINE
  5
11C0
330
2994
100
AcDbEntity
  8
NOTE
 62
     0
100
AcDbLine
 10
-145.4999999999998
 20
-334.9529861856112
 30
0.0
 11
-157.4999999999998
 21
-334.9529861856112
 31
0.0
  0
LINE
  5
11C1
330
2994
100
AcDbEntity
  8
NOTE
 62
     0
100
AcDbLine
 10
-123.4999999999999
 20
-334.9529861856112
 30
0.0
 11
-133.4999999999998
 21
-334.9529861856112
 31
0.0
  0
INSERT
  5
11C2
330
2994
100
AcDbEntity
  8
NOTE
 62
     0
100
AcDbBlockReference
  2
_DOTBLANK
 10
-123.4999999999999
 20
-334.9529861856112
 30
0.0
 41
12.0
 42
12.0
 43
12.0
 50
180.0
  0
INSERT
  5
11C3
330
2994
100
AcDbEntity
  8
NOTE
 62
     0
100
AcDbBlockReference
  2
_DOTBLANK
 10
-133.4999999999998
 20
-334.9529861856112
 30
0.0
 41
12.0
 42
12.0
 43
12.0
  0
INSERT
  5
11C4
330
2994
100
AcDbEntity
  8
0
100
AcDbBlockReference
  2
*U15
 10
0.0
 20
0.0
 30
0.0
  0
POINT
  5
11C5
330
2994
100
AcDbEntity
  8
DEFPOINTS
 62
     0
100
AcDbPoint
 10
-123.4999999999999
 20
-300.0
 30
0.0
  0
POINT
  5
11C6
330
2994
100
AcDbEntity
  8
DEFPOINTS
 62
     0
100
AcDbPoint
 10
-133.4999999999998
 20
-311.2126909923287
 30
0.0
  0
POINT
  5
11C7
330
2994
100
AcDbEntity
  8
DEFPOINTS
 62
     0
100
AcDbPoint
 10
-133.4999999999998
 20
-334.9529861856112
 30
0.0
  0
ENDBLK
  5
11BC
330
2994
100
AcDbEntity
  8
0
100
AcDbBlockEnd
  0
BLOCK
  5
2997
330
2996
100
AcDbEntity
  8
0
100
AcDbBlockBegin
  2
*U15
 70
     1
 10
0.0
 20
0.0
 30
0.0
  3
*U15
  1

  0
TEXT
  5
1EE5
330
2996
100
AcDbEntity
  8
NOTE
 62
     0
100
AcDbText
 10
-169.642857142857
 20
-324.9529861856112
 30
0.0
 40
64.0
  1
10
 41
0.9
100
AcDbText
  0
ENDBLK
  5
1EE7
330
2996
100
AcDbEntity
  8
0
100
AcDbBlockEnd
  0
BLOCK
  5
2999
330
2998
100
AcDbEntity
  8
0
100
AcDbBlockBegin
  2
*D16
 70
     1
 10
0.0
 20
0.0
 30
0.0
  3
*D16
  1

  0
LINE
  5
11E7
330
2998
100
AcDbEntity
  8
NOTE
 62
     0
100
AcDbLine
 10
-135.5
 20
-333.2126909923287
 30
0.0
 11
-135.5
 21
-386.2569421441843
 31
0.0
  0
LINE
  5
11E8
330
2998
100
AcDbEntity
  8
NOTE
 62
     0
100
AcDbLine
 10
-123.4999999999999
 20
-320.0
 30
0.0
 11
-123.4999999999999
 21
-386.2569421441843
 31
0.0
  0
LINE
  5
11E9
330
2998
100
AcDbEntity
  8
NOTE
 62
     0
100
AcDbLine
 10
-147.5
 20
-366.2569421441844
 30
0.0
 11
-159.5
 21
-366.2569421441844
 31
0.0
  0
LINE
  5
11EA
330
2998
100
AcDbEntity
  8
NOTE
 62
     0
100
AcDbLine
 10
-111.4999999999999
 20
-366.2569421441844
 30
0.0
 11
-99.4999999999999
 21
-366.2569421441844
 31
0.0
  0
LINE
  5
11EB
330
2998
100
AcDbEntity
  8
NOTE
 62
     0
100
AcDbLine
 10
-135.5
 20
-366.2569421441844
 30
0.0
 11
-123.4999999999999
 21
-366.2569421441844
 31
0.0
  0
INSERT
  5
11EC
330
2998
100
AcDbEntity
  8
NOTE
 62
     0
100
AcDbBlockReference
  2
_DOTBLANK
 10
-135.5
 20
-366.2569421441844
 30
0.0
 41
12.0
 42
12.0
 43
12.0
  0
INSERT
  5
11ED
330
2998
100
AcDbEntity
  8
NOTE
 62
     0
100
AcDbBlockReference
  2
_DOTBLANK
 10
-123.4999999999999
 20
-366.2569421441844
 30
0.0
 41
12.0
 42
12.0
 43
12.0
 50
180.0
  0
INSERT
  5
11EE
330
2998
100
AcDbEntity
  8
0
100
AcDbBlockReference
  2
*U17
 10
0.0
 20
0.0
 30
0.0
  0
POINT
  5
11EF
330
2998
100
AcDbEntity
  8
DEFPOINTS
 62
     0
100
AcDbPoint
 10
-135.5
 20
-313.2126909923287
 30
0.0
  0
POINT
  5
11F0
330
2998
100
AcDbEntity
  8
DEFPOINTS
 62
     0
100
AcDbPoint
 10
-123.4999999999999
 20
-300.0
 30
0.0
  0
POINT
  5
11F1
330
2998
100
AcDbEntity
  8
DEFPOINTS
 62
     0
100
AcDbPoint
 10
-123.4999999999999
 20
-366.2569421441844
 30
0.0
  0
ENDBLK
  5
11E6
330
2998
100
AcDbEntity
  8
0
100
AcDbBlockEnd
  0
BLOCK
  5
299B
330
299A
100
AcDbEntity
  8
0
100
AcDbBlockBegin
  2
*U17
 70
     1
 10
0.0
 20
0.0
 30
0.0
  3
*U17
  1

  0
TEXT
  5
1EE9
330
299A
100
AcDbEntity
  8
NOTE
 62
     0
100
AcDbText
 10
-170.642857142857
 20
-356.2569421441843
 30
0.0
 40
64.0
  1
12
 41
0.9
100
AcDbText
  0
ENDBLK
  5
1EEB
330
299A
100
AcDbEntity
  8
0
100
AcDbBlockEnd
  0
BLOCK
  5
299D
330
299C
100
AcDbEntity
  8
0
100
AcDbBlockBegin
  2
*D18
 70
     1
 10
0.0
 20
0.0
 30
0.0
  3
*D18
  1

  0
LINE
  5
11F6
330
299C
100
AcDbEntity
  8
NOTE
 62
     0
100
AcDbLine
 10
-123.4999999999999
 20
-320.0
 30
0.0
 11
-123.4999999999999
 21
-583.8286022818904
 31
0.0
  0
LINE
  5
11F7
330
299C
100
AcDbEntity
  8
NOTE
 62
     0
100
AcDbLine
 10
123.5
 20
-320.0
 30
0.0
 11
123.5
 21
-583.8286022818904
 31
0.0
  0
LINE
  5
11F8
330
299C
100
AcDbEntity
  8
NOTE
 62
     0
100
AcDbLine
 10
-111.4999999999999
 20
-563.8286022818904
 30
0.0
 11
111.5
 21
-563.8286022818904
 31
0.0
  0
INSERT
  5
11F9
330
299C
100
AcDbEntity
  8
NOTE
 62
     0
100
AcDbBlockReference
  2
_DOTBLANK
 10
-123.4999999999999
 20
-563.8286022818904
 30
0.0
 41
12.0
 42
12.0
 43
12.0
 50
180.0
  0
INSERT
  5
11FA
330
299C
100
AcDbEntity
  8
NOTE
 62
     0
100
AcDbBlockReference
  2
_DOTBLANK
 10
123.5
 20
-563.8286022818904
 30
0.0
 41
12.0
 42
12.0
 43
12.0
  0
INSERT
  5
11FB
330
299C
100
AcDbEntity
  8
0
100
AcDbBlockReference
  2
*U19
 10
0.0
 20
0.0
 30
0.0
  0
POINT
  5
11FC
330
299C
100
AcDbEntity
  8
DEFPOINTS
 62
     0
100
AcDbPoint
 10
-123.4999999999999
 20
-300.0
 30
0.0
  0
POINT
  5
11FD
330
299C
100
AcDbEntity
  8
DEFPOINTS
 62
     0
100
AcDbPoint
 10
123.5
 20
-300.0
 30
0.0
  0
POINT
  5
11FE
330
299C
100
AcDbEntity
  8
DEFPOINTS
 62
     0
100
AcDbPoint
 10
123.5
 20
-563.8286022818904
 30
0.0
  0
ENDBLK
  5
11F5
330
299C
100
AcDbEntity
  8
0
100
AcDbBlockEnd
  0
BLOCK
  5
299F
330
299E
100
AcDbEntity
  8
0
100
AcDbBlockBegin
  2
*U19
 70
     1
 10
0.0
 20
0.0
 30
0.0
  3
*U19
  1

  0
TEXT
  5
1EED
330
299E
100
AcDbEntity
  8
NOTE
 62
     0
100
AcDbText
 10
-74.05714285714281
 20
-553.8286022818904
 30
0.0
 40
64.0
  1
247
 41
0.9
100
AcDbText
  0
ENDBLK
  5
1EEF
330
299E
100
AcDbEntity
  8
0
100
AcDbBlockEnd
  0
BLOCK
  5
29A1
330
29A0
100
AcDbEntity
  8
0
100
AcDbBlockBegin
  2
*D20
 70
     1
 10
0.0
 20
0.0
 30
0.0
  3
*D20
  1

  0
LINE
  5
1284
330
29A0
100
AcDbEntity
  8
NOTE
 62
     0
100
AcDbLine
 10
-123.5
 20
12.0
 30
0.0
 11
-123.5
 21
71.83630134534229
 31
0.0
  0
LINE
  5
1285
330
29A0
100
AcDbEntity
  8
NOTE
 62
     0
100
AcDbLine
 10
123.5
 20
12.0
 30
0.0
 11
123.5
 21
71.83630134534229
 31
0.0
  0
LINE
  5
1286
330
29A0
100
AcDbEntity
  8
NOTE
 62
     0
100
AcDbLine
 10
-111.5
 20
51.83630134534229
 30
0.0
 11
111.5
 21
51.83630134534229
 31
0.0
  0
INSERT
  5
1287
330
29A0
100
AcDbEntity
  8
NOTE
 62
     0
100
AcDbBlockReference
  2
_DOTBLANK
 10
-123.5
 20
51.83630134534229
 30
0.0
 41
12.0
 42
12.0
 43
12.0
 50
180.0
  0
INSERT
  5
1288
330
29A0
100
AcDbEntity
  8
NOTE
 62
     0
100
AcDbBlockReference
  2
_DOTBLANK
 10
123.5
 20
51.83630134534229
 30
0.0
 41
12.0
 42
12.0
 43
12.0
  0
INSERT
  5
1289
330
29A0
100
AcDbEntity
  8
0
100
AcDbBlockReference
  2
*U21
 10
0.0
 20
0.0
 30
0.0
  0
POINT
  5
128A
330
29A0
100
AcDbEntity
  8
DEFPOINTS
 62
     0
100
AcDbPoint
 10
-123.5
 20
-8.0
 30
0.0
  0
POINT
  5
128B
330
29A0
100
AcDbEntity
  8
DEFPOINTS
 62
     0
100
AcDbPoint
 10
123.5
 20
-8.0
 30
0.0
  0
POINT
  5
128C
330
29A0
100
AcDbEntity
  8
DEFPOINTS
 62
     0
100
AcDbPoint
 10
123.5
 20
51.83630134534229
 30
0.0
  0
ENDBLK
  5
1283
330
29A0
100
AcDbEntity
  8
0
100
AcDbBlockEnd
  0
BLOCK
  5
29A3
330
29A2
100
AcDbEntity
  8
0
100
AcDbBlockBegin
  2
*U21
 70
     1
 10
0.0
 20
0.0
 30
0.0
  3
*U21
  1

  0
TEXT
  5
1EF1
330
29A2
100
AcDbEntity
  8
NOTE
 62
     0
100
AcDbText
 10
-74.05714285714283
 20
61.83630134534229
 30
0.0
 40
64.0
  1
247
 41
0.9
100
AcDbText
  0
ENDBLK
  5
1EF3
330
29A2
100
AcDbEntity
  8
0
100
AcDbBlockEnd
  0
BLOCK
  5
29A5
330
29A4
100
AcDbEntity
  8
0
100
AcDbBlockBegin
  2
*D22
 70
     1
 10
0.0
 20
0.0
 30
0.0
  3
*D22
  1

  0
LINE
  5
1414
330
29A4
100
AcDbEntity
  8
SIZE
 62
     0
100
AcDbLine
 10
-22313.11521613997
 20
7365.702971374808
 30
0.0
 11
-22313.11521613997
 21
7217.685576144207
 31
0.0
  0
LINE
  5
1415
330
29A4
100
AcDbEntity
  8
SIZE
 62
     0
100
AcDbLine
 10
-22044.11521613997
 20
7365.702971374808
 30
0.0
 11
-22044.11521613997
 21
7217.685576144207
 31
0.0
  0
LINE
  5
1416
330
29A4
100
AcDbEntity
  8
SIZE
 62
     0
100
AcDbLine
 10
-22301.11521613997
 20
7237.685576144207
 30
0.0
 11
-22056.11521613997
 21
7237.685576144207
 31
0.0
  0
INSERT
  5
1417
330
29A4
100
AcDbEntity
  8
SIZE
 62
     0
100
AcDbBlockReference
  2
_DOTBLANK
 10
-22313.11521613997
 20
7237.685576144207
 30
0.0
 41
12.0
 42
12.0
 43
12.0
 50
180.0
  0
INSERT
  5
1418
330
29A4
100
AcDbEntity
  8
SIZE
 62
     0
100
AcDbBlockReference
  2
_DOTBLANK
 10
-22044.11521613997
 20
7237.685576144207
 30
0.0
 41
12.0
 42
12.0
 43
12.0
  0
INSERT
  5
1419
330
29A4
100
AcDbEntity
  8
0
100
AcDbBlockReference
  2
*U23
 10
0.0
 20
0.0
 30
0.0
  0
POINT
  5
141A
330
29A4
100
AcDbEntity
  8
DEFPOINTS
 62
     0
100
AcDbPoint
 10
-22313.11521613997
 20
7385.702971374808
 30
0.0
  0
POINT
  5
141B
330
29A4
100
AcDbEntity
  8
DEFPOINTS
 62
     0
100
AcDbPoint
 10
-22044.11521613997
 20
7385.702971374808
 30
0.0
  0
POINT
  5
141C
330
29A4
100
AcDbEntity
  8
DEFPOINTS
 62
     0
100
AcDbPoint
 10
-22044.11521613997
 20
7237.685576144207
 30
0.0
  0
ENDBLK
  5
141D
330
29A4
100
AcDbEntity
  8
0
100
AcDbBlockEnd
  0
BLOCK
  5
29A7
330
29A6
100
AcDbEntity
  8
0
100
AcDbBlockBegin
  2
*U23
 70
     1
 10
0.0
 20
0.0
 30
0.0
  3
*U23
  1

  0
TEXT
  5
1EF9
330
29A6
100
AcDbEntity
  8
SIZE
 62
     0
100
AcDbText
 10
-22251.30093042568
 20
7247.685576144205
 30
0.0
 40
64.0
  1
269
 41
0.9
100
AcDbText
  0
ENDBLK
  5
1EFB
330
29A6
100
AcDbEntity
  8
0
100
AcDbBlockEnd
  0
BLOCK
  5
29A9
330
29A8
100
AcDbEntity
  8
0
100
AcDbBlockBegin
  2
*D24
 70
     1
 10
0.0
 20
0.0
 30
0.0
  3
*D24
  1

  0
LINE
  5
1420
330
29A8
100
AcDbEntity
  8
SIZE
  6
Continuous
 62
     0
100
AcDbLine
 10
-22035.11521613997
 20
7385.702971374808
 30
0.0
 11
-21873.97193165959
 21
7385.702971374808
 31
0.0
  0
LINE
  5
1421
330
29A8
100
AcDbEntity
  8
SIZE
  6
Continuous
 62
     0
100
AcDbLine
 10
-22001.11521613997
 20
7685.702971374808
 30
0.0
 11
-21873.97193165959
 21
7685.702971374808
 31
0.0
  0
LINE
  5
1422
330
29A8
100
AcDbEntity
  8
SIZE
  6
Continuous
 62
     0
100
AcDbLine
 10
-21893.97193165959
 20
7397.702971374808
 30
0.0
 11
-21893.97193165959
 21
7673.702971374808
 31
0.0
  0
INSERT
  5
1423
330
29A8
100
AcDbEntity
  8
SIZE
  6
Continuous
 62
     0
100
AcDbBlockReference
  2
_DOTBLANK
 10
-21893.97193165959
 20
7385.702971374808
 30
0.0
 41
12.0
 42
12.0
 43
12.0
 50
270.0
  0
INSERT
  5
1424
330
29A8
100
AcDbEntity
  8
SIZE
  6
Continuous
 62
     0
100
AcDbBlockReference
  2
_DOTBLANK
 10
-21893.97193165959
 20
7685.702971374808
 30
0.0
 41
12.0
 42
12.0
 43
12.0
 50
90.0
  0
INSERT
  5
1425
330
29A8
100
AcDbEntity
  8
0
100
AcDbBlockReference
  2
*U25
 10
0.0
 20
0.0
 30
0.0
  0
POINT
  5
1426
330
29A8
100
AcDbEntity
  8
DEFPOINTS
  6
Continuous
 62
     0
100
AcDbPoint
 10
-22055.11521613997
 20
7385.702971374808
 30
0.0
  0
POINT
  5
1427
330
29A8
100
AcDbEntity
  8
DEFPOINTS
  6
Continuous
 62
     0
100
AcDbPoint
 10
-22021.11521613997
 20
7685.702971374808
 30
0.0
  0
POINT
  5
1428
330
29A8
100
AcDbEntity
  8
DEFPOINTS
  6
Continuous
 62
     0
100
AcDbPoint
 10
-21893.97193165959
 20
7685.702971374808
 30
0.0
  0
ENDBLK
  5
1429
330
29A8
100
AcDbEntity
  8
0
100
AcDbBlockEnd
  0
BLOCK
  5
29AB
330
29AA
100
AcDbEntity
  8
0
100
AcDbBlockBegin
  2
*U25
 70
     1
 10
0.0
 20
0.0
 30
0.0
  3
*U25
  1

  0
TEXT
  5
1EFD
330
29AA
100
AcDbEntity
  8
SIZE
 62
     0
100
AcDbText
 10
-21903.97193165959
 20
7461.645828517662
 30
0.0
 40
64.0
  1
300
 50
90.0
 41
0.9
100
AcDbText
  0
ENDBLK
  5
1EFF
330
29AA
100
AcDbEntity
  8
0
100
AcDbBlockEnd
  0
BLOCK
  5
29AD
330
29AC
100
AcDbEntity
  8
0
100
AcDbBlockBegin
  2
*D26
 70
     1
 10
0.0
 20
0.0
 30
0.0
  3
*D26
  1

  0
LINE
  5
142C
330
29AC
100
AcDbEntity
  8
SIZE
 62
     0
100
AcDbLine
 10
-22318.61521613997
 20
7718.167454177002
 30
0.0
 11
-22318.61521613997
 21
7822.154659243358
 31
0.0
  0
LINE
  5
142D
330
29AC
100
AcDbEntity
  8
SIZE
 62
     0
100
AcDbLine
 10
-22038.61521613997
 20
7718.167454177002
 30
0.0
 11
-22038.61521613997
 21
7822.154659243358
 31
0.0
  0
LINE
  5
142E
330
29AC
100
AcDbEntity
  8
SIZE
 62
     0
100
AcDbLine
 10
-22306.61521613997
 20
7802.154659243358
 30
0.0
 11
-22050.61521613997
 21
7802.154659243358
 31
0.0
  0
INSERT
  5
142F
330
29AC
100
AcDbEntity
  8
SIZE
 62
     0
100
AcDbBlockReference
  2
_DOTBLANK
 10
-22318.61521613997
 20
7802.154659243358
 30
0.0
 41
12.0
 42
12.0
 43
12.0
 50
180.0
  0
INSERT
  5
1430
330
29AC
100
AcDbEntity
  8
SIZE
 62
     0
100
AcDbBlockReference
  2
_DOTBLANK
 10
-22038.61521613997
 20
7802.154659243358
 30
0.0
 41
12.0
 42
12.0
 43
12.0
  0
INSERT
  5
1431
330
29AC
100
AcDbEntity
  8
0
100
AcDbBlockReference
  2
*U27
 10
0.0
 20
0.0
 30
0.0
  0
POINT
  5
1432
330
29AC
100
AcDbEntity
  8
DEFPOINTS
 62
     0
100
AcDbPoint
 10
-22318.61521613997
 20
7698.167454177002
 30
0.0
  0
POINT
  5
1433
330
29AC
100
AcDbEntity
  8
DEFPOINTS
 62
     0
100
AcDbPoint
 10
-22038.61521613997
 20
7698.167454177002
 30
0.0
  0
POINT
  5
1434
330
29AC
100
AcDbEntity
  8
DEFPOINTS
 62
     0
100
AcDbPoint
 10
-22038.61521613997
 20
7802.154659243358
 30
0.0
  0
ENDBLK
  5
1435
330
29AC
100
AcDbEntity
  8
0
100
AcDbBlockEnd
  0
BLOCK
  5
29AF
330
29AE
100
AcDbEntity
  8
0
100
AcDbBlockBegin
  2
*U27
 70
     1
 10
0.0
 20
0.0
 30
0.0
  3
*U27
  1

  0
TEXT
  5
1F01
330
29AE
100
AcDbEntity
  8
SIZE
 62
     0
100
AcDbText
 10
-22252.6723589971
 20
7812.154659243358
 30
0.0
 40
64.0
  1
280
 41
0.9
100
AcDbText
  0
ENDBLK
  5
1F03
330
29AE
100
AcDbEntity
  8
0
100
AcDbBlockEnd
  0
BLOCK
  5
29B1
330
29B0
100
AcDbEntity
  8
0
100
AcDbBlockBegin
  2
*D28
 70
     1
 10
0.0
 20
0.0
 30
0.0
  3
*D28
  1

  0
LINE
  5
1438
330
29B0
100
AcDbEntity
  8
SIZE
 62
     0
100
AcDbLine
 10
-22336.11521613997
 20
7705.702971374808
 30
0.0
 11
-22336.11521613997
 21
7931.282433493766
 31
0.0
  0
LINE
  5
1439
330
29B0
100
AcDbEntity
  8
SIZE
 62
     0
100
AcDbLine
 10
-22021.11521613997
 20
7705.702971374808
 30
0.0
 11
-22021.11521613997
 21
7931.282433493766
 31
0.0
  0
LINE
  5
143A
330
29B0
100
AcDbEntity
  8
SIZE
 62
     0
100
AcDbLine
 10
-22324.11521613997
 20
7911.282433493766
 30
0.0
 11
-22033.11521613997
 21
7911.282433493766
 31
0.0
  0
INSERT
  5
143B
330
29B0
100
AcDbEntity
  8
SIZE
 62
     0
100
AcDbBlockReference
  2
_DOTBLANK
 10
-22336.11521613997
 20
7911.282433493766
 30
0.0
 41
12.0
 42
12.0
 43
12.0
 50
180.0
  0
INSERT
  5
143C
330
29B0
100
AcDbEntity
  8
SIZE
 62
     0
100
AcDbBlockReference
  2
_DOTBLANK
 10
-22021.11521613997
 20
7911.282433493766
 30
0.0
 41
12.0
 42
12.0
 43
12.0
  0
INSERT
  5
143D
330
29B0
100
AcDbEntity
  8
0
100
AcDbBlockReference
  2
*U29
 10
0.0
 20
0.0
 30
0.0
  0
POINT
  5
143E
330
29B0
100
AcDbEntity
  8
DEFPOINTS
 62
     0
100
AcDbPoint
 10
-22336.11521613997
 20
7685.702971374808
 30
0.0
  0
POINT
  5
143F
330
29B0
100
AcDbEntity
  8
DEFPOINTS
 62
     0
100
AcDbPoint
 10
-22021.11521613997
 20
7685.702971374808
 30
0.0
  0
POINT
  5
1440
330
29B0
100
AcDbEntity
  8
DEFPOINTS
 62
     0
100
AcDbPoint
 10
-22021.11521613997
 20
7911.282433493766
 30
0.0
  0
ENDBLK
  5
1441
330
29B0
100
AcDbEntity
  8
0
100
AcDbBlockEnd
  0
BLOCK
  5
29B3
330
29B2
100
AcDbEntity
  8
0
100
AcDbBlockBegin
  2
*U29
 70
     1
 10
0.0
 20
0.0
 30
0.0
  3
*U29
  1

  0
TEXT
  5
1F05
330
29B2
100
AcDbEntity
  8
SIZE
 62
     0
100
AcDbText
 10
-22247.18664471139
 20
7921.282433493766
 30
0.0
 40
64.0
  1
315
 41
0.9
100
AcDbText
  0
ENDBLK
  5
1F07
330
29B2
100
AcDbEntity
  8
0
100
AcDbBlockEnd
  0
BLOCK
  5
29B5
330
29B4
100
AcDbEntity
  8
0
100
AcDbBlockBegin
  2
*D30
 70
     1
 10
0.0
 20
0.0
 30
0.0
  3
*D30
  1

  0
LINE
  5
166B
330
29B4
100
AcDbEntity
  8
SIZE
 62
     0
100
AcDbLine
 10
-134.5
 20
-320.0
 30
0.0
 11
-134.5
 21
-468.0173952306001
 31
0.0
  0
LINE
  5
166C
330
29B4
100
AcDbEntity
  8
SIZE
 62
     0
100
AcDbLine
 10
134.5
 20
-320.0
 30
0.0
 11
134.5
 21
-468.0173952306001
 31
0.0
  0
LINE
  5
166D
330
29B4
100
AcDbEntity
  8
SIZE
 62
     0
100
AcDbLine
 10
-122.5
 20
-448.0173952306
 30
0.0
 11
122.5
 21
-448.0173952306
 31
0.0
  0
INSERT
  5
166E
330
29B4
100
AcDbEntity
  8
SIZE
 62
     0
100
AcDbBlockReference
  2
_DOTBLANK
 10
-134.5
 20
-448.0173952306
 30
0.0
 41
12.0
 42
12.0
 43
12.0
 50
180.0
  0
INSERT
  5
166F
330
29B4
100
AcDbEntity
  8
SIZE
 62
     0
100
AcDbBlockReference
  2
_DOTBLANK
 10
134.5
 20
-448.0173952306
 30
0.0
 41
12.0
 42
12.0
 43
12.0
  0
INSERT
  5
1670
330
29B4
100
AcDbEntity
  8
0
100
AcDbBlockReference
  2
*U31
 10
0.0
 20
0.0
 30
0.0
  0
POINT
  5
1671
330
29B4
100
AcDbEntity
  8
DEFPOINTS
 62
     0
100
AcDbPoint
 10
-134.5
 20
-300.0
 30
0.0
  0
POINT
  5
1672
330
29B4
100
AcDbEntity
  8
DEFPOINTS
 62
     0
100
AcDbPoint
 10
134.5
 20
-300.0
 30
0.0
  0
POINT
  5
1673
330
29B4
100
AcDbEntity
  8
DEFPOINTS
 62
     0
100
AcDbPoint
 10
134.5
 20
-448.0173952306
 30
0.0
  0
ENDBLK
  5
14A7
330
29B4
100
AcDbEntity
  8
0
100
AcDbBlockEnd
  0
BLOCK
  5
29B7
330
29B6
100
AcDbEntity
  8
0
100
AcDbBlockBegin
  2
*U31
 70
     1
 10
0.0
 20
0.0
 30
0.0
  3
*U31
  1

  0
TEXT
  5
1F09
330
29B6
100
AcDbEntity
  8
SIZE
 62
     0
100
AcDbText
 10
-72.68571428571426
 20
-438.0173952306002
 30
0.0
 40
64.0
  1
269
 41
0.9
100
AcDbText
  0
ENDBLK
  5
1F0B
330
29B6
100
AcDbEntity
  8
0
100
AcDbBlockEnd
  0
BLOCK
  5
29B9
330
29B8
100
AcDbEntity
  8
0
100
AcDbBlockBegin
  2
*D32
 70
     1
 10
0.0
 20
0.0
 30
0.0
  3
*D32
  1

  0
LINE
  5
1674
330
29B8
100
AcDbEntity
  8
SIZE
  6
Continuous
 62
     0
100
AcDbLine
 10
143.5
 20
-300.0
 30
0.0
 11
304.6432844803784
 21
-300.0
 31
0.0
  0
LINE
  5
1675
330
29B8
100
AcDbEntity
  8
SIZE
  6
Continuous
 62
     0
100
AcDbLine
 10
177.5
 20
-0.0000000000000057
 30
0.0
 11
304.6432844803785
 21
-0.0000000000000417
 31
0.0
  0
LINE
  5
1676
330
29B8
100
AcDbEntity
  8
SIZE
  6
Continuous
 62
     0
100
AcDbLine
 10
284.6432844803784
 20
-288.0000000000001
 30
0.0
 11
284.6432844803785
 21
-12.00000000000003
 31
0.0
  0
INSERT
  5
1677
330
29B8
100
AcDbEntity
  8
SIZE
  6
Continuous
 62
     0
100
AcDbBlockReference
  2
_DOTBLANK
 10
284.6432844803784
 20
-300.0
 30
0.0
 41
12.0
 42
12.0
 43
12.0
 50
270.0
  0
INSERT
  5
1678
330
29B8
100
AcDbEntity
  8
SIZE
  6
Continuous
 62
     0
100
AcDbBlockReference
  2
_DOTBLANK
 10
284.6432844803785
 20
-0.000000000000036
 30
0.0
 41
12.0
 42
12.0
 43
12.0
 50
90.0
  0
INSERT
  5
1679
330
29B8
100
AcDbEntity
  8
0
100
AcDbBlockReference
  2
*U33
 10
0.0
 20
0.0
 30
0.0
  0
POINT
  5
167A
330
29B8
100
AcDbEntity
  8
DEFPOINTS
  6
Continuous
 62
     0
100
AcDbPoint
 10
123.5
 20
-300.0
 30
0.0
  0
POINT
  5
167B
330
29B8
100
AcDbEntity
  8
DEFPOINTS
  6
Continuous
 62
     0
100
AcDbPoint
 10
157.5
 20
0.0
 30
0.0
  0
POINT
  5
167C
330
29B8
100
AcDbEntity
  8
DEFPOINTS
  6
Continuous
 62
     0
100
AcDbPoint
 10
284.6432844803785
 20
-0.000000000000036
 30
0.0
  0
ENDBLK
  5
14B3
330
29B8
100
AcDbEntity
  8
0
100
AcDbBlockEnd
  0
BLOCK
  5
29BB
330
29BA
100
AcDbEntity
  8
0
100
AcDbBlockBegin
  2
*U33
 70
     1
 10
0.0
 20
0.0
 30
0.0
  3
*U33
  1

  0
TEXT
  5
1F0D
330
29BA
100
AcDbEntity
  8
SIZE
 62
     0
100
AcDbText
 10
274.6432844803785
 20
-224.0571428571429
 30
0.0
 40
64.0
  1
300
 50
90.0
 41
0.9
100
AcDbText
  0
ENDBLK
  5
1F0F
330
29BA
100
AcDbEntity
  8
0
100
AcDbBlockEnd
  0
BLOCK
  5
29BD
330
29BC
100
AcDbEntity
  8
0
100
AcDbBlockBegin
  2
*D34
 70
     1
 10
0.0
 20
0.0
 30
0.0
  3
*D34
  1

  0
LINE
  5
167D
330
29BC
100
AcDbEntity
  8
SIZE
 62
     0
100
AcDbLine
 10
-140.0
 20
32.46448280219375
 30
0.0
 11
-140.0
 21
136.4516878685507
 31
0.0
  0
LINE
  5
167E
330
29BC
100
AcDbEntity
  8
SIZE
 62
     0
100
AcDbLine
 10
140.0
 20
32.46448280219375
 30
0.0
 11
140.0
 21
136.4516878685507
 31
0.0
  0
LINE
  5
167F
330
29BC
100
AcDbEntity
  8
SIZE
 62
     0
100
AcDbLine
 10
-128.0
 20
116.4516878685508
 30
0.0
 11
128.0
 21
116.4516878685508
 31
0.0
  0
INSERT
  5
1680
330
29BC
100
AcDbEntity
  8
SIZE
 62
     0
100
AcDbBlockReference
  2
_DOTBLANK
 10
-140.0
 20
116.4516878685508
 30
0.0
 41
12.0
 42
12.0
 43
12.0
 50
180.0
  0
INSERT
  5
1681
330
29BC
100
AcDbEntity
  8
SIZE
 62
     0
100
AcDbBlockReference
  2
_DOTBLANK
 10
140.0
 20
116.4516878685508
 30
0.0
 41
12.0
 42
12.0
 43
12.0
  0
INSERT
  5
1682
330
29BC
100
AcDbEntity
  8
0
100
AcDbBlockReference
  2
*U35
 10
0.0
 20
0.0
 30
0.0
  0
POINT
  5
1683
330
29BC
100
AcDbEntity
  8
DEFPOINTS
 62
     0
100
AcDbPoint
 10
-140.0
 20
12.46448280219374
 30
0.0
  0
POINT
  5
1684
330
29BC
100
AcDbEntity
  8
DEFPOINTS
 62
     0
100
AcDbPoint
 10
140.0
 20
12.46448280219374
 30
0.0
  0
POINT
  5
1685
330
29BC
100
AcDbEntity
  8
DEFPOINTS
 62
     0
100
AcDbPoint
 10
140.0
 20
116.4516878685508
 30
0.0
  0
ENDBLK
  5
14BF
330
29BC
100
AcDbEntity
  8
0
100
AcDbBlockEnd
  0
BLOCK
  5
29BF
330
29BE
100
AcDbEntity
  8
0
100
AcDbBlockBegin
  2
*U35
 70
     1
 10
0.0
 20
0.0
 30
0.0
  3
*U35
  1

  0
TEXT
  5
1F11
330
29BE
100
AcDbEntity
  8
SIZE
 62
     0
100
AcDbText
 10
-74.05714285714283
 20
126.4516878685507
 30
0.0
 40
64.0
  1
280
 41
0.9
100
AcDbText
  0
ENDBLK
  5
1F13
330
29BE
100
AcDbEntity
  8
0
100
AcDbBlockEnd
  0
BLOCK
  5
29C1
330
29C0
100
AcDbEntity
  8
0
100
AcDbBlockBegin
  2
*D36
 70
     1
 10
0.0
 20
0.0
 30
0.0
  3
*D36
  1

  0
LINE
  5
1686
330
29C0
100
AcDbEntity
  8
SIZE
 62
     0
100
AcDbLine
 10
-157.5
 20
20.0
 30
0.0
 11
-157.5
 21
245.5794621189598
 31
0.0
  0
LINE
  5
1687
330
29C0
100
AcDbEntity
  8
SIZE
 62
     0
100
AcDbLine
 10
157.5
 20
20.0
 30
0.0
 11
157.5
 21
245.5794621189598
 31
0.0
  0
LINE
  5
1688
330
29C0
100
AcDbEntity
  8
SIZE
 62
     0
100
AcDbLine
 10
-145.5
 20
225.5794621189598
 30
0.0
 11
145.5
 21
225.5794621189598
 31
0.0
  0
INSERT
  5
1689
330
29C0
100
AcDbEntity
  8
SIZE
 62
     0
100
AcDbBlockReference
  2
_DOTBLANK
 10
-157.5
 20
225.5794621189598
 30
0.0
 41
12.0
 42
12.0
 43
12.0
 50
180.0
  0
INSERT
  5
168A
330
29C0
100
AcDbEntity
  8
SIZE
 62
     0
100
AcDbBlockReference
  2
_DOTBLANK
 10
157.5
 20
225.5794621189598
 30
0.0
 41
12.0
 42
12.0
 43
12.0
  0
INSERT
  5
168B
330
29C0
100
AcDbEntity
  8
0
100
AcDbBlockReference
  2
*U37
 10
0.0
 20
0.0
 30
0.0
  0
POINT
  5
168C
330
29C0
100
AcDbEntity
  8
DEFPOINTS
 62
     0
100
AcDbPoint
 10
-157.5
 20
0.0
 30
0.0
  0
POINT
  5
168D
330
29C0
100
AcDbEntity
  8
DEFPOINTS
 62
     0
100
AcDbPoint
 10
157.5
 20
0.0
 30
0.0
  0
POINT
  5
168E
330
29C0
100
AcDbEntity
  8
DEFPOINTS
 62
     0
100
AcDbPoint
 10
157.5
 20
225.5794621189598
 30
0.0
  0
ENDBLK
  5
14CB
330
29C0
100
AcDbEntity
  8
0
100
AcDbBlockEnd
  0
BLOCK
  5
29C3
330
29C2
100
AcDbEntity
  8
0
100
AcDbBlockBegin
  2
*U37
 70
     1
 10
0.0
 20
0.0
 30
0.0
  3
*U37
  1

  0
TEXT
  5
1F15
330
29C2
100
AcDbEntity
  8
SIZE
 62
     0
100
AcDbText
 10
-68.57142857142857
 20
235.5794621189598
 30
0.0
 40
64.0
  1
315
 41
0.9
100
AcDbText
  0
ENDBLK
  5
1F17
330
29C2
100
AcDbEntity
  8
0
100
AcDbBlockEnd
  0
BLOCK
  5
29C5
330
29C4
100
AcDbEntity
  8
0
100
AcDbBlockBegin
  2
*U38
 70
     1
 10
0.0
 20
0.0
 30
0.0
  3
*U38
  1

  0
ENDBLK
  5
15CF
330
29C4
100
AcDbEntity
  8
0
100
AcDbBlockEnd
  0
BLOCK
  5
29C7
330
29C6
100
AcDbEntity
  8
0
100
AcDbBlockBegin
  2
*D39
 70
     1
 10
0.0
 20
0.0
 30
0.0
  3
*D39
  1

  0
LINE
  5
1692
330
29C6
100
AcDbEntity
  8
SIZE
 62
     0
100
AcDbLine
 10
-25844.51823276502
 20
7685.702971374808
 30
0.0
 11
-25981.04465488371
 21
7685.702971374808
 31
0.0
  0
LINE
  5
1693
330
29C6
100
AcDbEntity
  8
SIZE
 62
     0
100
AcDbLine
 10
-25844.51823276502
 20
7677.702971374808
 30
0.0
 11
-25981.04465488371
 21
7677.702971374808
 31
0.0
  0
LINE
  5
1694
330
29C6
100
AcDbEntity
  8
SIZE
 62
     0
100
AcDbLine
 10
-25961.04465488371
 20
7697.702971374808
 30
0.0
 11
-25961.04465488371
 21
7709.702971374809
 31
0.0
  0
LINE
  5
1695
330
29C6
100
AcDbEntity
  8
SIZE
 62
     0
100
AcDbLine
 10
-25961.04465488371
 20
7665.70297137481
 30
0.0
 11
-25961.04465488371
 21
7595.302971374808
 31
0.0
  0
INSERT
  5
1696
330
29C6
100
AcDbEntity
  8
SIZE
 62
     0
100
AcDbBlockReference
  2
_DOTBLANK
 10
-25961.04465488371
 20
7685.702971374808
 30
0.0
 41
12.0
 42
12.0
 43
12.0
 50
270.0
  0
INSERT
  5
1697
330
29C6
100
AcDbEntity
  8
SIZE
 62
     0
100
AcDbBlockReference
  2
_DOTBLANK
 10
-25961.04465488371
 20
7677.702971374808
 30
0.0
 41
12.0
 42
12.0
 43
12.0
 50
90.0
  0
INSERT
  5
1698
330
29C6
100
AcDbEntity
  8
0
100
AcDbBlockReference
  2
*U40
 10
0.0
 20
0.0
 30
0.0
  0
POINT
  5
1699
330
29C6
100
AcDbEntity
  8
DEFPOINTS
 62
     0
100
AcDbPoint
 10
-25824.51823276501
 20
7685.702971374808
 30
0.0
  0
POINT
  5
169A
330
29C6
100
AcDbEntity
  8
DEFPOINTS
 62
     0
100
AcDbPoint
 10
-25824.51823276501
 20
7677.702971374808
 30
0.0
  0
POINT
  5
169B
330
29C6
100
AcDbEntity
  8
DEFPOINTS
 62
     0
100
AcDbPoint
 10
-25961.04465488371
 20
7677.702971374808
 30
0.0
  0
ENDBLK
  5
169C
330
29C6
100
AcDbEntity
  8
0
100
AcDbBlockEnd
  0
BLOCK
  5
29C9
330
29C8
100
AcDbEntity
  8
0
100
AcDbBlockBegin
  2
*U40
 70
     1
 10
0.0
 20
0.0
 30
0.0
  3
*U40
  1

  0
TEXT
  5
1F19
330
29C8
100
AcDbEntity
  8
SIZE
 62
     0
100
AcDbText
 10
-25971.04465488371
 20
7605.302971374804
 30
0.0
 40
64.0
  1
8
 50
90.0
 41
0.9
100
AcDbText
  0
ENDBLK
  5
1F1B
330
29C8
100
AcDbEntity
  8
0
100
AcDbBlockEnd
  0
BLOCK
  5
29CB
330
29CA
100
AcDbEntity
  8
0
100
AcDbBlockBegin
  2
*D41
 70
     1
 10
0.0
 20
0.0
 30
0.0
  3
*D41
  1

  0
LINE
  5
169F
330
29CA
100
AcDbEntity
  8
SIZE
 62
     0
100
AcDbLine
 10
-25512.51823276502
 20
7385.702971374808
 30
0.0
 11
-25362.37494828464
 21
7385.702971374808
 31
0.0
  0
LINE
  5
16A0
330
29CA
100
AcDbEntity
  8
SIZE
 62
     0
100
AcDbLine
 10
-25523.51823276501
 20
7373.702971374808
 30
0.0
 11
-25362.37494828464
 21
7373.702971374808
 31
0.0
  0
LINE
  5
16A1
330
29CA
100
AcDbEntity
  8
SIZE
 62
     0
100
AcDbLine
 10
-25382.37494828464
 20
7397.702971374808
 30
0.0
 11
-25382.37494828464
 21
7409.70297137481
 31
0.0
  0
LINE
  5
16A2
330
29CA
100
AcDbEntity
  8
SIZE
 62
     0
100
AcDbLine
 10
-25382.37494828464
 20
7361.702971374808
 30
0.0
 11
-25382.37494828464
 21
7244.674399946237
 31
0.0
  0
INSERT
  5
16A3
330
29CA
100
AcDbEntity
  8
SIZE
 62
     0
100
AcDbBlockReference
  2
_DOTBLANK
 10
-25382.37494828464
 20
7385.702971374808
 30
0.0
 41
12.0
 42
12.0
 43
12.0
 50
270.0
  0
INSERT
  5
16A4
330
29CA
100
AcDbEntity
  8
SIZE
 62
     0
100
AcDbBlockReference
  2
_DOTBLANK
 10
-25382.37494828464
 20
7373.702971374808
 30
0.0
 41
12.0
 42
12.0
 43
12.0
 50
90.0
  0
INSERT
  5
16A5
330
29CA
100
AcDbEntity
  8
0
100
AcDbBlockReference
  2
*U42
 10
0.0
 20
0.0
 30
0.0
  0
POINT
  5
16A6
330
29CA
100
AcDbEntity
  8
DEFPOINTS
 62
     0
100
AcDbPoint
 10
-25532.51823276502
 20
7385.702971374808
 30
0.0
  0
POINT
  5
16A7
330
29CA
100
AcDbEntity
  8
DEFPOINTS
 62
     0
100
AcDbPoint
 10
-25543.51823276502
 20
7373.702971374808
 30
0.0
  0
POINT
  5
16A8
330
29CA
100
AcDbEntity
  8
DEFPOINTS
 62
     0
100
AcDbPoint
 10
-25382.37494828464
 20
7373.702971374808
 30
0.0
  0
ENDBLK
  5
16A9
330
29CA
100
AcDbEntity
  8
0
100
AcDbBlockEnd
  0
BLOCK
  5
29CD
330
29CC
100
AcDbEntity
  8
0
100
AcDbBlockBegin
  2
*U42
 70
     1
 10
0.0
 20
0.0
 30
0.0
  3
*U42
  1

  0
TEXT
  5
1F1D
330
29CC
100
AcDbEntity
  8
SIZE
 62
     0
100
AcDbText
 10
-25392.37494828464
 20
7256.045828517662
 30
0.0
 40
64.0
  1
12
 50
90.0
 41
0.9
100
AcDbText
  0
ENDBLK
  5
1F1F
330
29CC
100
AcDbEntity
  8
0
100
AcDbBlockEnd
  0
BLOCK
  5
29CF
330
29CE
100
AcDbEntity
  8
0
100
AcDbBlockBegin
  2
*D43
 70
     1
 10
0.0
 20
0.0
 30
0.0
  3
*D43
  1

  0
LINE
  5
16AC
330
29CE
100
AcDbEntity
  8
SIZE
 62
     0
100
AcDbLine
 10
-25801.51823276501
 20
7365.702971374808
 30
0.0
 11
-25801.51823276501
 21
7217.685576144207
 31
0.0
  0
LINE
  5
16AD
330
29CE
100
AcDbEntity
  8
SIZE
 62
     0
100
AcDbLine
 10
-25532.51823276502
 20
7365.702971374808
 30
0.0
 11
-25532.51823276502
 21
7217.685576144207
 31
0.0
  0
LINE
  5
16AE
330
29CE
100
AcDbEntity
  8
SIZE
 62
     0
100
AcDbLine
 10
-25789.51823276502
 20
7237.685576144207
 30
0.0
 11
-25544.51823276501
 21
7237.685576144207
 31
0.0
  0
INSERT
  5
16AF
330
29CE
100
AcDbEntity
  8
SIZE
 62
     0
100
AcDbBlockReference
  2
_DOTBLANK
 10
-25801.51823276501
 20
7237.685576144207
 30
0.0
 41
12.0
 42
12.0
 43
12.0
 50
180.0
  0
INSERT
  5
16B0
330
29CE
100
AcDbEntity
  8
SIZE
 62
     0
100
AcDbBlockReference
  2
_DOTBLANK
 10
-25532.51823276502
 20
7237.685576144207
 30
0.0
 41
12.0
 42
12.0
 43
12.0
  0
INSERT
  5
16B1
330
29CE
100
AcDbEntity
  8
0
100
AcDbBlockReference
  2
*U44
 10
0.0
 20
0.0
 30
0.0
  0
POINT
  5
16B2
330
29CE
100
AcDbEntity
  8
DEFPOINTS
 62
     0
100
AcDbPoint
 10
-25801.51823276501
 20
7385.702971374808
 30
0.0
  0
POINT
  5
16B3
330
29CE
100
AcDbEntity
  8
DEFPOINTS
 62
     0
100
AcDbPoint
 10
-25532.51823276502
 20
7385.702971374808
 30
0.0
  0
POINT
  5
16B4
330
29CE
100
AcDbEntity
  8
DEFPOINTS
 62
     0
100
AcDbPoint
 10
-25532.51823276502
 20
7237.685576144207
 30
0.0
  0
ENDBLK
  5
16B5
330
29CE
100
AcDbEntity
  8
0
100
AcDbBlockEnd
  0
BLOCK
  5
29D1
330
29D0
100
AcDbEntity
  8
0
100
AcDbBlockBegin
  2
*U44
 70
     1
 10
0.0
 20
0.0
 30
0.0
  3
*U44
  1

  0
TEXT
  5
1F21
330
29D0
100
AcDbEntity
  8
SIZE
 62
     0
100
AcDbText
 10
-25739.70394705074
 20
7247.685576144205
 30
0.0
 40
64.0
  1
269
 41
0.9
100
AcDbText
  0
ENDBLK
  5
1F23
330
29D0
100
AcDbEntity
  8
0
100
AcDbBlockEnd
  0
BLOCK
  5
29D3
330
29D2
100
AcDbEntity
  8
0
100
AcDbBlockBegin
  2
*D45
 70
     1
 10
0.0
 20
0.0
 30
0.0
  3
*D45
  1

  0
LINE
  5
16B8
330
29D2
100
AcDbEntity
  8
SIZE
 62
     0
100
AcDbLine
 10
-25512.51823276502
 20
7385.702971374808
 30
0.0
 11
-25362.37494828464
 21
7385.702971374808
 31
0.0
  0
LINE
  5
16B9
330
29D2
100
AcDbEntity
  8
SIZE
 62
     0
100
AcDbLine
 10
-25489.51823276501
 20
7685.702971374808
 30
0.0
 11
-25362.37494828464
 21
7685.702971374808
 31
0.0
  0
LINE
  5
16BA
330
29D2
100
AcDbEntity
  8
SIZE
 62
     0
100
AcDbLine
 10
-25382.37494828464
 20
7397.702971374808
 30
0.0
 11
-25382.37494828464
 21
7673.702971374808
 31
0.0
  0
INSERT
  5
16BB
330
29D2
100
AcDbEntity
  8
SIZE
 62
     0
100
AcDbBlockReference
  2
_DOTBLANK
 10
-25382.37494828464
 20
7385.702971374808
 30
0.0
 41
12.0
 42
12.0
 43
12.0
 50
270.0
  0
INSERT
  5
16BC
330
29D2
100
AcDbEntity
  8
SIZE
 62
     0
100
AcDbBlockReference
  2
_DOTBLANK
 10
-25382.37494828464
 20
7685.702971374808
 30
0.0
 41
12.0
 42
12.0
 43
12.0
 50
90.0
  0
INSERT
  5
16BD
330
29D2
100
AcDbEntity
  8
0
100
AcDbBlockReference
  2
*U46
 10
0.0
 20
0.0
 30
0.0
  0
POINT
  5
16BE
330
29D2
100
AcDbEntity
  8
DEFPOINTS
 62
     0
100
AcDbPoint
 10
-25532.51823276502
 20
7385.702971374808
 30
0.0
  0
POINT
  5
16BF
330
29D2
100
AcDbEntity
  8
DEFPOINTS
 62
     0
100
AcDbPoint
 10
-25509.51823276502
 20
7685.702971374808
 30
0.0
  0
POINT
  5
16C0
330
29D2
100
AcDbEntity
  8
DEFPOINTS
 62
     0
100
AcDbPoint
 10
-25382.37494828464
 20
7685.702971374808
 30
0.0
  0
ENDBLK
  5
16C1
330
29D2
100
AcDbEntity
  8
0
100
AcDbBlockEnd
  0
BLOCK
  5
29D5
330
29D4
100
AcDbEntity
  8
0
100
AcDbBlockBegin
  2
*U46
 70
     1
 10
0.0
 20
0.0
 30
0.0
  3
*U46
  1

  0
TEXT
  5
1F25
330
29D4
100
AcDbEntity
  8
SIZE
 62
     0
100
AcDbText
 10
-25392.37494828464
 20
7461.645828517662
 30
0.0
 40
64.0
  1
300
 50
90.0
 41
0.9
100
AcDbText
  0
ENDBLK
  5
1F27
330
29D4
100
AcDbEntity
  8
0
100
AcDbBlockEnd
  0
BLOCK
  5
29D7
330
29D6
100
AcDbEntity
  8
0
100
AcDbBlockBegin
  2
*D47
 70
     1
 10
0.0
 20
0.0
 30
0.0
  3
*D47
  1

  0
LINE
  5
16C4
330
29D6
100
AcDbEntity
  8
SIZE
 62
     0
100
AcDbLine
 10
-25807.01823276501
 20
7718.167454177002
 30
0.0
 11
-25807.01823276501
 21
7822.154659243358
 31
0.0
  0
LINE
  5
16C5
330
29D6
100
AcDbEntity
  8
SIZE
 62
     0
100
AcDbLine
 10
-25527.01823276501
 20
7718.167454177002
 30
0.0
 11
-25527.01823276501
 21
7822.154659243358
 31
0.0
  0
LINE
  5
16C6
330
29D6
100
AcDbEntity
  8
SIZE
 62
     0
100
AcDbLine
 10
-25795.01823276502
 20
7802.154659243358
 30
0.0
 11
-25539.01823276501
 21
7802.154659243358
 31
0.0
  0
INSERT
  5
16C7
330
29D6
100
AcDbEntity
  8
SIZE
 62
     0
100
AcDbBlockReference
  2
_DOTBLANK
 10
-25807.01823276501
 20
7802.154659243358
 30
0.0
 41
12.0
 42
12.0
 43
12.0
 50
180.0
  0
INSERT
  5
16C8
330
29D6
100
AcDbEntity
  8
SIZE
 62
     0
100
AcDbBlockReference
  2
_DOTBLANK
 10
-25527.01823276501
 20
7802.154659243358
 30
0.0
 41
12.0
 42
12.0
 43
12.0
  0
INSERT
  5
16C9
330
29D6
100
AcDbEntity
  8
0
100
AcDbBlockReference
  2
*U48
 10
0.0
 20
0.0
 30
0.0
  0
POINT
  5
16CA
330
29D6
100
AcDbEntity
  8
DEFPOINTS
 62
     0
100
AcDbPoint
 10
-25807.01823276501
 20
7698.167454177002
 30
0.0
  0
POINT
  5
16CB
330
29D6
100
AcDbEntity
  8
DEFPOINTS
 62
     0
100
AcDbPoint
 10
-25527.01823276501
 20
7698.167454177002
 30
0.0
  0
POINT
  5
16CC
330
29D6
100
AcDbEntity
  8
DEFPOINTS
 62
     0
100
AcDbPoint
 10
-25527.01823276501
 20
7802.154659243358
 30
0.0
  0
ENDBLK
  5
16CD
330
29D6
100
AcDbEntity
  8
0
100
AcDbBlockEnd
  0
BLOCK
  5
29D9
330
29D8
100
AcDbEntity
  8
0
100
AcDbBlockBegin
  2
*U48
 70
     1
 10
0.0
 20
0.0
 30
0.0
  3
*U48
  1

  0
TEXT
  5
1F29
330
29D8
100
AcDbEntity
  8
SIZE
 62
     0
100
AcDbText
 10
-25741.07537562216
 20
7812.154659243358
 30
0.0
 40
64.0
  1
280
 41
0.9
100
AcDbText
  0
ENDBLK
  5
1F2B
330
29D8
100
AcDbEntity
  8
0
100
AcDbBlockEnd
  0
BLOCK
  5
29DB
330
29DA
100
AcDbEntity
  8
0
100
AcDbBlockBegin
  2
*D49
 70
     1
 10
0.0
 20
0.0
 30
0.0
  3
*D49
  1

  0
LINE
  5
16D0
330
29DA
100
AcDbEntity
  8
SIZE
 62
     0
100
AcDbLine
 10
-25824.51823276501
 20
7705.702971374808
 30
0.0
 11
-25824.51823276501
 21
7931.282433493766
 31
0.0
  0
LINE
  5
16D1
330
29DA
100
AcDbEntity
  8
SIZE
 62
     0
100
AcDbLine
 10
-25509.51823276502
 20
7705.702971374808
 30
0.0
 11
-25509.51823276502
 21
7931.282433493766
 31
0.0
  0
LINE
  5
16D2
330
29DA
100
AcDbEntity
  8
SIZE
 62
     0
100
AcDbLine
 10
-25812.51823276502
 20
7911.282433493766
 30
0.0
 11
-25521.51823276501
 21
7911.282433493766
 31
0.0
  0
INSERT
  5
16D3
330
29DA
100
AcDbEntity
  8
SIZE
 62
     0
100
AcDbBlockReference
  2
_DOTBLANK
 10
-25824.51823276501
 20
7911.282433493766
 30
0.0
 41
12.0
 42
12.0
 43
12.0
 50
180.0
  0
INSERT
  5
16D4
330
29DA
100
AcDbEntity
  8
SIZE
 62
     0
100
AcDbBlockReference
  2
_DOTBLANK
 10
-25509.51823276502
 20
7911.282433493766
 30
0.0
 41
12.0
 42
12.0
 43
12.0
  0
INSERT
  5
16D5
330
29DA
100
AcDbEntity
  8
0
100
AcDbBlockReference
  2
*U50
 10
0.0
 20
0.0
 30
0.0
  0
POINT
  5
16D6
330
29DA
100
AcDbEntity
  8
DEFPOINTS
 62
     0
100
AcDbPoint
 10
-25824.51823276501
 20
7685.702971374808
 30
0.0
  0
POINT
  5
16D7
330
29DA
100
AcDbEntity
  8
DEFPOINTS
 62
     0
100
AcDbPoint
 10
-25509.51823276502
 20
7685.702971374808
 30
0.0
  0
POINT
  5
16D8
330
29DA
100
AcDbEntity
  8
DEFPOINTS
 62
     0
100
AcDbPoint
 10
-25509.51823276502
 20
7911.282433493766
 30
0.0
  0
ENDBLK
  5
16D9
330
29DA
100
AcDbEntity
  8
0
100
AcDbBlockEnd
  0
BLOCK
  5
29DD
330
29DC
100
AcDbEntity
  8
0
100
AcDbBlockBegin
  2
*U50
 70
     1
 10
0.0
 20
0.0
 30
0.0
  3
*U50
  1

  0
TEXT
  5
1F2D
330
29DC
100
AcDbEntity
  8
SIZE
 62
     0
100
AcDbText
 10
-25735.58966133645
 20
7921.282433493766
 30
0.0
 40
64.0
  1
315
 41
0.9
100
AcDbText
  0
ENDBLK
  5
1F2F
330
29DC
100
AcDbEntity
  8
0
100
AcDbBlockEnd
  0
BLOCK
  5
29DF
330
29DE
100
AcDbEntity
  8
0
100
AcDbBlockBegin
  2
*D51
 70
     1
 10
0.0
 20
0.0
 30
0.0
  3
*D51
  1

  0
LINE
  5
1D83
330
29DE
100
AcDbEntity
  8
SIZE
 62
     0
100
AcDbLine
 10
-134.5
 20
-320.0
 30
0.0
 11
-134.5
 21
-468.0173952306001
 31
0.0
  0
LINE
  5
1D84
330
29DE
100
AcDbEntity
  8
SIZE
 62
     0
100
AcDbLine
 10
134.5
 20
-320.0
 30
0.0
 11
134.5
 21
-468.0173952306001
 31
0.0
  0
LINE
  5
1D85
330
29DE
100
AcDbEntity
  8
SIZE
 62
     0
100
AcDbLine
 10
-122.5
 20
-448.0173952306
 30
0.0
 11
122.5
 21
-448.0173952306
 31
0.0
  0
INSERT
  5
1D86
330
29DE
100
AcDbEntity
  8
SIZE
 62
     0
100
AcDbBlockReference
  2
_DOTBLANK
 10
-134.5
 20
-448.0173952306
 30
0.0
 41
12.0
 42
12.0
 43
12.0
 50
180.0
  0
INSERT
  5
1D87
330
29DE
100
AcDbEntity
  8
SIZE
 62
     0
100
AcDbBlockReference
  2
_DOTBLANK
 10
134.5
 20
-448.0173952306
 30
0.0
 41
12.0
 42
12.0
 43
12.0
  0
INSERT
  5
1D88
330
29DE
100
AcDbEntity
  8
0
100
AcDbBlockReference
  2
*U52
 10
0.0
 20
0.0
 30
0.0
  0
POINT
  5
1D89
330
29DE
100
AcDbEntity
  8
DEFPOINTS
 62
     0
100
AcDbPoint
 10
-134.5
 20
-300.0
 30
0.0
  0
POINT
  5
1D8A
330
29DE
100
AcDbEntity
  8
DEFPOINTS
 62
     0
100
AcDbPoint
 10
134.5
 20
-300.0
 30
0.0
  0
POINT
  5
1D8B
330
29DE
100
AcDbEntity
  8
DEFPOINTS
 62
     0
100
AcDbPoint
 10
134.5
 20
-448.0173952306
 30
0.0
  0
ENDBLK
  5
173D
330
29DE
100
AcDbEntity
  8
0
100
AcDbBlockEnd
  0
BLOCK
  5
29E1
330
29E0
100
AcDbEntity
  8
0
100
AcDbBlockBegin
  2
*U52
 70
     1
 10
0.0
 20
0.0
 30
0.0
  3
*U52
  1

  0
TEXT
  5
1F31
330
29E0
100
AcDbEntity
  8
SIZE
 62
     0
100
AcDbText
 10
-72.68571428571426
 20
-438.0173952306003
 30
0.0
 40
64.0
  1
269
 41
0.9
100
AcDbText
  0
ENDBLK
  5
1F33
330
29E0
100
AcDbEntity
  8
0
100
AcDbBlockEnd
  0
BLOCK
  5
29E3
330
29E2
100
AcDbEntity
  8
0
100
AcDbBlockBegin
  2
*D53
 70
     1
 10
0.0
 20
0.0
 30
0.0
  3
*D53
  1

  0
LINE
  5
1D8C
330
29E2
100
AcDbEntity
  8
SIZE
 62
     0
100
AcDbLine
 10
154.5
 20
-300.0
 30
0.0
 11
304.6432844803784
 21
-300.0
 31
0.0
  0
LINE
  5
1D8D
330
29E2
100
AcDbEntity
  8
SIZE
 62
     0
100
AcDbLine
 10
177.5
 20
-0.0000000000000057
 30
0.0
 11
304.6432844803785
 21
-0.0000000000000417
 31
0.0
  0
LINE
  5
1D8E
330
29E2
100
AcDbEntity
  8
SIZE
 62
     0
100
AcDbLine
 10
284.6432844803784
 20
-288.0
 30
0.0
 11
284.6432844803785
 21
-12.00000000000003
 31
0.0
  0
INSERT
  5
1D8F
330
29E2
100
AcDbEntity
  8
SIZE
 62
     0
100
AcDbBlockReference
  2
_DOTBLANK
 10
284.6432844803784
 20
-300.0
 30
0.0
 41
12.0
 42
12.0
 43
12.0
 50
270.0
  0
INSERT
  5
1D90
330
29E2
100
AcDbEntity
  8
SIZE
 62
     0
100
AcDbBlockReference
  2
_DOTBLANK
 10
284.6432844803785
 20
-0.000000000000036
 30
0.0
 41
12.0
 42
12.0
 43
12.0
 50
90.0
  0
INSERT
  5
1D91
330
29E2
100
AcDbEntity
  8
0
100
AcDbBlockReference
  2
*U54
 10
0.0
 20
0.0
 30
0.0
  0
POINT
  5
1D92
330
29E2
100
AcDbEntity
  8
DEFPOINTS
 62
     0
100
AcDbPoint
 10
134.5
 20
-300.0
 30
0.0
  0
POINT
  5
1D93
330
29E2
100
AcDbEntity
  8
DEFPOINTS
 62
     0
100
AcDbPoint
 10
157.5
 20
0.0
 30
0.0
  0
POINT
  5
1D94
330
29E2
100
AcDbEntity
  8
DEFPOINTS
 62
     0
100
AcDbPoint
 10
284.6432844803785
 20
-0.000000000000036
 30
0.0
  0
ENDBLK
  5
1749
330
29E2
100
AcDbEntity
  8
0
100
AcDbBlockEnd
  0
BLOCK
  5
29E5
330
29E4
100
AcDbEntity
  8
0
100
AcDbBlockBegin
  2
*U54
 70
     1
 10
0.0
 20
0.0
 30
0.0
  3
*U54
  1

  0
TEXT
  5
1F35
330
29E4
100
AcDbEntity
  8
SIZE
 62
     0
100
AcDbText
 10
274.6432844803785
 20
-224.0571428571429
 30
0.0
 40
64.0
  1
300
 50
90.0
 41
0.9
100
AcDbText
  0
ENDBLK
  5
1F37
330
29E4
100
AcDbEntity
  8
0
100
AcDbBlockEnd
  0
BLOCK
  5
29E7
330
29E6
100
AcDbEntity
  8
0
100
AcDbBlockBegin
  2
*D55
 70
     1
 10
0.0
 20
0.0
 30
0.0
  3
*D55
  1

  0
LINE
  5
1D95
330
29E6
100
AcDbEntity
  8
SIZE
 62
     0
100
AcDbLine
 10
-140.0
 20
32.46448280219375
 30
0.0
 11
-140.0
 21
136.4516878685508
 31
0.0
  0
LINE
  5
1D96
330
29E6
100
AcDbEntity
  8
SIZE
 62
     0
100
AcDbLine
 10
140.0
 20
32.46448280219375
 30
0.0
 11
140.0
 21
136.4516878685508
 31
0.0
  0
LINE
  5
1D97
330
29E6
100
AcDbEntity
  8
SIZE
 62
     0
100
AcDbLine
 10
-128.0
 20
116.4516878685508
 30
0.0
 11
128.0
 21
116.4516878685508
 31
0.0
  0
INSERT
  5
1D98
330
29E6
100
AcDbEntity
  8
SIZE
 62
     0
100
AcDbBlockReference
  2
_DOTBLANK
 10
-140.0
 20
116.4516878685508
 30
0.0
 41
12.0
 42
12.0
 43
12.0
 50
180.0
  0
INSERT
  5
1D99
330
29E6
100
AcDbEntity
  8
SIZE
 62
     0
100
AcDbBlockReference
  2
_DOTBLANK
 10
140.0
 20
116.4516878685508
 30
0.0
 41
12.0
 42
12.0
 43
12.0
  0
INSERT
  5
1D9A
330
29E6
100
AcDbEntity
  8
0
100
AcDbBlockReference
  2
*U56
 10
0.0
 20
0.0
 30
0.0
  0
POINT
  5
1D9B
330
29E6
100
AcDbEntity
  8
DEFPOINTS
 62
     0
100
AcDbPoint
 10
-140.0
 20
12.46448280219374
 30
0.0
  0
POINT
  5
1D9C
330
29E6
100
AcDbEntity
  8
DEFPOINTS
 62
     0
100
AcDbPoint
 10
140.0
 20
12.46448280219374
 30
0.0
  0
POINT
  5
1D9D
330
29E6
100
AcDbEntity
  8
DEFPOINTS
 62
     0
100
AcDbPoint
 10
140.0
 20
116.4516878685508
 30
0.0
  0
ENDBLK
  5
1755
330
29E6
100
AcDbEntity
  8
0
100
AcDbBlockEnd
  0
BLOCK
  5
29E9
330
29E8
100
AcDbEntity
  8
0
100
AcDbBlockBegin
  2
*U56
 70
     1
 10
0.0
 20
0.0
 30
0.0
  3
*U56
  1

  0
TEXT
  5
1F39
330
29E8
100
AcDbEntity
  8
SIZE
 62
     0
100
AcDbText
 10
-74.05714285714283
 20
126.4516878685508
 30
0.0
 40
64.0
  1
280
 41
0.9
100
AcDbText
  0
ENDBLK
  5
1F3B
330
29E8
100
AcDbEntity
  8
0
100
AcDbBlockEnd
  0
BLOCK
  5
29EB
330
29EA
100
AcDbEntity
  8
0
100
AcDbBlockBegin
  2
*D57
 70
     1
 10
0.0
 20
0.0
 30
0.0
  3
*D57
  1

  0
LINE
  5
1D9E
330
29EA
100
AcDbEntity
  8
SIZE
 62
     0
100
AcDbLine
 10
-157.5
 20
20.0
 30
0.0
 11
-157.5
 21
245.5794621189598
 31
0.0
  0
LINE
  5
1D9F
330
29EA
100
AcDbEntity
  8
SIZE
 62
     0
100
AcDbLine
 10
157.5
 20
20.0
 30
0.0
 11
157.5
 21
245.5794621189598
 31
0.0
  0
LINE
  5
1DA0
330
29EA
100
AcDbEntity
  8
SIZE
 62
     0
100
AcDbLine
 10
-145.5
 20
225.5794621189598
 30
0.0
 11
145.5
 21
225.5794621189598
 31
0.0
  0
INSERT
  5
1DA1
330
29EA
100
AcDbEntity
  8
SIZE
 62
     0
100
AcDbBlockReference
  2
_DOTBLANK
 10
-157.5
 20
225.5794621189598
 30
0.0
 41
12.0
 42
12.0
 43
12.0
 50
180.0
  0
INSERT
  5
1DA2
330
29EA
100
AcDbEntity
  8
SIZE
 62
     0
100
AcDbBlockReference
  2
_DOTBLANK
 10
157.5
 20
225.5794621189598
 30
0.0
 41
12.0
 42
12.0
 43
12.0
  0
INSERT
  5
1DA3
330
29EA
100
AcDbEntity
  8
0
100
AcDbBlockReference
  2
*U58
 10
0.0
 20
0.0
 30
0.0
  0
POINT
  5
1DA4
330
29EA
100
AcDbEntity
  8
DEFPOINTS
 62
     0
100
AcDbPoint
 10
-157.5
 20
0.0
 30
0.0
  0
POINT
  5
1DA5
330
29EA
100
AcDbEntity
  8
DEFPOINTS
 62
     0
100
AcDbPoint
 10
157.5
 20
0.0
 30
0.0
  0
POINT
  5
1DA6
330
29EA
100
AcDbEntity
  8
DEFPOINTS
 62
     0
100
AcDbPoint
 10
157.5
 20
225.5794621189598
 30
0.0
  0
ENDBLK
  5
1761
330
29EA
100
AcDbEntity
  8
0
100
AcDbBlockEnd
  0
BLOCK
  5
29ED
330
29EC
100
AcDbEntity
  8
0
100
AcDbBlockBegin
  2
*U58
 70
     1
 10
0.0
 20
0.0
 30
0.0
  3
*U58
  1

  0
TEXT
  5
1F3D
330
29EC
100
AcDbEntity
  8
SIZE
 62
     0
100
AcDbText
 10
-68.57142857142857
 20
235.5794621189599
 30
0.0
 40
64.0
  1
315
 41
0.9
100
AcDbText
  0
ENDBLK
  5
1F3F
330
29EC
100
AcDbEntity
  8
0
100
AcDbBlockEnd
  0
BLOCK
  5
29EF
330
29EE
100
AcDbEntity
  8
0
100
AcDbBlockBegin
  2
*D59
 70
     1
 10
0.0
 20
0.0
 30
0.0
  3
*D59
  1

  0
LINE
  5
1DA7
330
29EE
100
AcDbEntity
  8
SIZE
 62
     0
100
AcDbLine
 10
-177.5
 20
0.0000000000000057
 30
0.0
 11
-314.0264221186908
 21
0.0000000000000443
 31
0.0
  0
LINE
  5
1DA8
330
29EE
100
AcDbEntity
  8
SIZE
 62
     0
100
AcDbLine
 10
-177.5
 20
-7.999999999999995
 30
0.0
 11
-314.0264221186908
 21
-7.999999999999958
 31
0.0
  0
LINE
  5
1DA9
330
29EE
100
AcDbEntity
  8
SIZE
 62
     0
100
AcDbLine
 10
-294.0264221186908
 20
12.00000000000003
 30
0.0
 11
-294.0264221186908
 21
24.00000000000004
 31
0.0
  0
LINE
  5
1DAA
330
29EE
100
AcDbEntity
  8
SIZE
 62
     0
100
AcDbLine
 10
-294.0264221186908
 20
-19.99999999999996
 30
0.0
 11
-294.0264221186908
 21
-90.39999999999997
 31
0.0
  0
INSERT
  5
1DAB
330
29EE
100
AcDbEntity
  8
SIZE
 62
     0
100
AcDbBlockReference
  2
_DOTBLANK
 10
-294.0264221186908
 20
0.0000000000000387
 30
0.0
 41
12.0
 42
12.0
 43
12.0
 50
270.0
  0
INSERT
  5
1DAC
330
29EE
100
AcDbEntity
  8
SIZE
 62
     0
100
AcDbBlockReference
  2
_DOTBLANK
 10
-294.0264221186908
 20
-7.999999999999961
 30
0.0
 41
12.0
 42
12.0
 43
12.0
 50
90.0
  0
INSERT
  5
1DAD
330
29EE
100
AcDbEntity
  8
0
100
AcDbBlockReference
  2
*U60
 10
0.0
 20
0.0
 30
0.0
  0
POINT
  5
1DAE
330
29EE
100
AcDbEntity
  8
DEFPOINTS
 62
     0
100
AcDbPoint
 10
-157.5
 20
0.0
 30
0.0
  0
POINT
  5
1DAF
330
29EE
100
AcDbEntity
  8
DEFPOINTS
 62
     0
100
AcDbPoint
 10
-157.5
 20
-8.000000000000003
 30
0.0
  0
POINT
  5
1DB0
330
29EE
100
AcDbEntity
  8
DEFPOINTS
 62
     0
100
AcDbPoint
 10
-294.0264221186908
 20
-7.999999999999961
 30
0.0
  0
ENDBLK
  5
176D
330
29EE
100
AcDbEntity
  8
0
100
AcDbBlockEnd
  0
BLOCK
  5
29F1
330
29F0
100
AcDbEntity
  8
0
100
AcDbBlockBegin
  2
*U60
 70
     1
 10
0.0
 20
0.0
 30
0.0
  3
*U60
  1

  0
TEXT
  5
1F41
330
29F0
100
AcDbEntity
  8
SIZE
 62
     0
100
AcDbText
 10
-304.0264221186908
 20
-80.4
 30
0.0
 40
64.0
  1
8
 50
90.0
 41
0.9
100
AcDbText
  0
ENDBLK
  5
1F43
330
29F0
100
AcDbEntity
  8
0
100
AcDbBlockEnd
  0
BLOCK
  5
29F3
330
29F2
100
AcDbEntity
  8
0
100
AcDbBlockBegin
  2
*D61
 70
     1
 10
0.0
 20
0.0
 30
0.0
  3
*D61
  1

  0
LINE
  5
1DB1
330
29F2
100
AcDbEntity
  8
SIZE
 62
     0
100
AcDbLine
 10
154.5
 20
-300.0
 30
0.0
 11
304.6432844803785
 21
-300.0
 31
0.0
  0
LINE
  5
1DB2
330
29F2
100
AcDbEntity
  8
SIZE
 62
     0
100
AcDbLine
 10
143.5
 20
-312.0
 30
0.0
 11
304.6432844803785
 21
-312.0
 31
0.0
  0
LINE
  5
1DB3
330
29F2
100
AcDbEntity
  8
SIZE
 62
     0
100
AcDbLine
 10
284.6432844803785
 20
-288.0
 30
0.0
 11
284.6432844803785
 21
-276.0
 31
0.0
  0
LINE
  5
1DB4
330
29F2
100
AcDbEntity
  8
SIZE
 62
     0
100
AcDbLine
 10
284.6432844803785
 20
-324.0000000000001
 30
0.0
 11
284.6432844803784
 21
-438.2857142857143
 31
0.0
  0
INSERT
  5
1DB5
330
29F2
100
AcDbEntity
  8
SIZE
 62
     0
100
AcDbBlockReference
  2
_DOTBLANK
 10
284.6432844803785
 20
-300.0
 30
0.0
 41
12.0
 42
12.0
 43
12.0
 50
270.0
  0
INSERT
  5
1DB6
330
29F2
100
AcDbEntity
  8
SIZE
 62
     0
100
AcDbBlockReference
  2
_DOTBLANK
 10
284.6432844803785
 20
-312.0
 30
0.0
 41
12.0
 42
12.0
 43
12.0
 50
90.0
  0
INSERT
  5
1DB7
330
29F2
100
AcDbEntity
  8
0
100
AcDbBlockReference
  2
*U62
 10
0.0
 20
0.0
 30
0.0
  0
POINT
  5
1DB8
330
29F2
100
AcDbEntity
  8
DEFPOINTS
 62
     0
100
AcDbPoint
 10
134.5
 20
-300.0
 30
0.0
  0
POINT
  5
1DB9
330
29F2
100
AcDbEntity
  8
DEFPOINTS
 62
     0
100
AcDbPoint
 10
123.5
 20
-312.0
 30
0.0
  0
POINT
  5
1DBA
330
29F2
100
AcDbEntity
  8
DEFPOINTS
 62
     0
100
AcDbPoint
 10
284.6432844803785
 20
-312.0
 30
0.0
  0
ENDBLK
  5
177B
330
29F2
100
AcDbEntity
  8
0
100
AcDbBlockEnd
  0
BLOCK
  5
29F5
330
29F4
100
AcDbEntity
  8
0
100
AcDbBlockBegin
  2
*U62
 70
     1
 10
0.0
 20
0.0
 30
0.0
  3
*U62
  1

  0
TEXT
  5
1F45
330
29F4
100
AcDbEntity
  8
SIZE
 62
     0
100
AcDbText
 10
274.6432844803785
 20
-428.2857142857142
 30
0.0
 40
64.0
  1
12
 50
90.0
 41
0.9
100
AcDbText
  0
ENDBLK
  5
1F47
330
29F4
100
AcDbEntity
  8
0
100
AcDbBlockEnd
  0
BLOCK
  5
29F7
330
29F6
100
AcDbEntity
  8
0
100
AcDbBlockBegin
  2
*U63
 70
     1
 10
0.0
 20
0.0
 30
0.0
  3
*U63
  1

  0
ENDBLK
  5
1D57
330
29F6
100
AcDbEntity
  8
0
100
AcDbBlockEnd
  0
BLOCK
  5
29F9
330
29F8
100
AcDbEntity
  8
0
100
AcDbBlockBegin
  2
*U64
 70
     1
 10
0.0
 20
0.0
 30
0.0
  3
*U64
  1

  0
INSERT
  5
218C
330
29F8
100
AcDbEntity
  8
NOTE
100
AcDbBlockReference
  2
_OPEN30
 10
-449.9999999999944
 20
0.0
 30
0.0
 41
12.0
 42
12.0
 43
12.0
 50
312.6090116116894
  0
POLYLINE
  5
218D
330
29F8
100
AcDbEntity
  8
NOTE
100
AcDb2dPolyline
 66
     1
 10
0.0
 20
0.0
 30
0.0
  0
VERTEX
  5
28B2
330
218D
100
AcDbEntity
  8
NOTE
100
AcDbVertex
100
AcDb2dVertex
 10
-458.123900836184
 20
8.83188740891547
 30
0.0
  0
VERTEX
  5
28B3
330
218D
100
AcDbEntity
  8
NOTE
100
AcDbVertex
100
AcDb2dVertex
 10
-537.8693999922488
 20
95.52709505801338
 30
0.0
  0
VERTEX
  5
28B4
330
218D
100
AcDbEntity
  8
NOTE
100
AcDbVertex
100
AcDb2dVertex
 10
-1127.595114277962
 20
95.52709505801338
 30
0.0
  0
SEQEND
  5
28B5
330
218D
100
AcDbEntity
  8
NOTE
  0
ENDBLK
  5
218E
330
29F8
100
AcDbEntity
  8
0
100
AcDbBlockEnd
  0
BLOCK
  5
29FB
330
29FA
100
AcDbEntity
  8
0
100
AcDbBlockBegin
  2
*U65
 70
     1
 10
0.0
 20
0.0
 30
0.0
  3
*U65
  1

  0
TEXT
  5
2191
330
29FA
100
AcDbEntity
  8
NOTE
100
AcDbText
 10
-1127.595114277962
 20
113.5270950580134
 30
0.0
 40
64.0
  1
16×φ15取付穴
 41
0.9
100
AcDbText
  0
ENDBLK
  5
2192
330
29FA
100
AcDbEntity
  8
0
100
AcDbBlockEnd
  0
BLOCK
  5
29FD
330
29FC
100
AcDbEntity
  8
0
100
AcDbBlockBegin
  2
*U66
 70
     1
 10
0.0
 20
0.0
 30
0.0
  3
*U66
  1

  0
INSERT
  5
22BE
330
29FC
100
AcDbEntity
  8
NOTE
100
AcDbBlockReference
  2
_OPEN30
 10
449.9999999999984
 20
450.0000000000078
 30
0.0
 41
12.0
 42
12.0
 43
12.0
 50
232.3258907693335
  0
POLYLINE
  5
22BF
330
29FC
100
AcDbEntity
  8
NOTE
100
AcDb2dPolyline
 66
     1
 10
0.0
 20
0.0
 30
0.0
  0
VERTEX
  5
28B6
330
22BF
100
AcDbEntity
  8
NOTE
100
AcDbVertex
100
AcDb2dVertex
 10
457.3340332839434
 20
459.4979974621043
 30
0.0
  0
VERTEX
  5
28B7
330
22BF
100
AcDbEntity
  8
NOTE
100
AcDbVertex
100
AcDb2dVertex
 10
523.7628007872066
 20
545.5270950580207
 30
0.0
  0
VERTEX
  5
28B8
330
22BF
100
AcDbEntity
  8
NOTE
100
AcDbVertex
100
AcDb2dVertex
 10
1113.488515072921
 20
545.5270950580207
 30
0.0
  0
SEQEND
  5
28B9
330
22BF
100
AcDbEntity
  8
NOTE
  0
ENDBLK
  5
22C0
330
29FC
100
AcDbEntity
  8
0
100
AcDbBlockEnd
  0
BLOCK
  5
29FF
330
29FE
100
AcDbEntity
  8
0
100
AcDbBlockBegin
  2
*U67
 70
     1
 10
0.0
 20
0.0
 30
0.0
  3
*U67
  1

  0
TEXT
  5
22C3
330
29FE
100
AcDbEntity
  8
NOTE
100
AcDbText
 10
585.7628007872067
 20
563.5270950580204
 30
0.0
 40
64.0
  1
16×φ15取付穴
 41
0.9
100
AcDbText
  0
ENDBLK
  5
22C4
330
29FE
100
AcDbEntity
  8
0
100
AcDbBlockEnd
  0
BLOCK
  5
2A01
330
2A00
100
AcDbEntity
  8
0
100
AcDbBlockBegin
  2
*U68
 70
     1
 10
0.0
 20
0.0
 30
0.0
  3
*U68
  1

  0
INSERT
  5
25AF
330
2A00
100
AcDbEntity
  8
NOTE
100
AcDbBlockReference
  2
_OPEN30
 10
450.0
 20
450.0000000000036
 30
0.0
 41
12.0
 42
12.0
 43
12.0
 50
232.3258907693334
  0
POLYLINE
  5
25B0
330
2A00
100
AcDbEntity
  8
NOTE
100
AcDb2dPolyline
 66
     1
 10
0.0
 20
0.0
 30
0.0
  0
VERTEX
  5
28BA
330
25B0
100
AcDbEntity
  8
NOTE
100
AcDbVertex
100
AcDb2dVertex
 10
457.3340332839448
 20
459.4979974621
 30
0.0
  0
VERTEX
  5
28BB
330
25B0
100
AcDbEntity
  8
NOTE
100
AcDbVertex
100
AcDb2dVertex
 10
523.7628007872079
 20
545.5270950580159
 30
0.0
  0
VERTEX
  5
28BC
330
25B0
100
AcDbEntity
  8
NOTE
100
AcDbVertex
100
AcDb2dVertex
 10
1113.488515072922
 20
545.5270950580159
 30
0.0
  0
SEQEND
  5
28BD
330
25B0
100
AcDbEntity
  8
NOTE
  0
ENDBLK
  5
25B1
330
2A00
100
AcDbEntity
  8
0
100
AcDbBlockEnd
  0
BLOCK
  5
2A03
330
2A02
100
AcDbEntity
  8
0
100
AcDbBlockBegin
  2
*U69
 70
     1
 10
0.0
 20
0.0
 30
0.0
  3
*U69
  1

  0
TEXT
  5
25B4
330
2A02
100
AcDbEntity
  8
NOTE
100
AcDbText
 10
585.7628007872079
 20
563.5270950580161
 30
0.0
 40
64.0
  1
16×φ15取付穴
 41
0.9
100
AcDbText
  0
ENDBLK
  5
25B5
330
2A02
100
AcDbEntity
  8
0
100
AcDbBlockEnd
  0
ENDSEC
  0
SECTION
  2
ENTITIES
  0
TEXT
  5
953
330
2931
100
AcDbEntity
  8
OUTLINE
  6
Continuous
 62
     3
100
AcDbText
 10
-418.231467
 20
13.715189
 30
0.0
 40
64.0
  1
 
 41
0.9
100
AcDbText
  0
TEXT
  5
954
330
2931
100
AcDbEntity
  8
OUTLINE
  6
Continuous
 62
     3
100
AcDbText
 10
-418.231467
 20
13.715189
 30
0.0
 40
64.0
  1
 
 41
0.9
100
AcDbText
  0
TEXT
  5
955
330
2931
100
AcDbEntity
  8
OUTLINE
  6
Continuous
 62
     3
100
AcDbText
 10
1341.41903
 20
-706.0588199999997
 30
0.0
 40
64.0
  1
 
 41
0.9
100
AcDbText
  0
TEXT
  5
956
330
2931
100
AcDbEntity
  8
OUTLINE
  6
Continuous
 62
     3
100
AcDbText
 10
1341.41903
 20
-706.0588199999997
 30
0.0
 40
64.0
  1
 
 41
0.9
100
AcDbText
  0
TEXT
  5
957
330
2931
100
AcDbEntity
  8
OUTLINE
  6
Continuous
 62
     3
100
AcDbText
 10
1341.41903
 20
-706.0588199999997
 30
0.0
 40
64.0
  1
 
 41
0.9
100
AcDbText
  0
TEXT
  5
958
330
2931
100
AcDbEntity
  8
OUTLINE
  6
Continuous
 62
     3
100
AcDbText
 10
1341.41903
 20
-706.0588199999997
 30
0.0
 40
64.0
  1
 
 41
0.9
100
AcDbText
  0
CIRCLE
  5
272E
330
2931
100
AcDbEntity
  8
FIX
100
AcDbCircle
 10
-450.0
 20
-450.0
 30
0.0
 40
7.5
  0
CIRCLE
  5
272F
330
2931
100
AcDbEntity
  8
FIX
100
AcDbCircle
 10
450.0
 20
-450.0
 30
0.0
 40
7.5
  0
CIRCLE
  5
2730
330
2931
100
AcDbEntity
  8
FIX
100
AcDbCircle
 10
450.0
 20
450.0000000000004
 30
0.0
 40
7.5
  0
CIRCLE
  5
2731
330
2931
100
AcDbEntity
  8
FIX
100
AcDbCircle
 10
-450.0
 20
450.0
 30
0.0
 40
7.5
  0
LINE
  5
2732
330
2931
100
AcDbEntity
  8
DETAIL
100
AcDbLine
 10
-475.0
 20
475.0
 30
0.0
 11
475.0
 21
475.0
 31
0.0
  0
LINE
  5
2733
330
2931
100
AcDbEntity
  8
DETAIL
100
AcDbLine
 10
475.0
 20
475.0
 30
0.0
 11
475.0
 21
-475.0
 31
0.0
  0
LINE
  5
2734
330
2931
100
AcDbEntity
  8
DETAIL
100
AcDbLine
 10
475.0
 20
-475.0
 30
0.0
 11
-475.0
 21
-475.0
 31
0.0
  0
LINE
  5
2735
330
2931
100
AcDbEntity
  8
DETAIL
100
AcDbLine
 10
-475.0
 20
-475.0
 30
0.0
 11
-475.0
 21
475.0
 31
0.0
  0
LINE
  5
2736
330
2931
100
AcDbEntity
  8
DETAIL
100
AcDbLine
 10
-436.0
 20
-690.0
 30
0.0
 11
436.0
 21
-690.0
 31
0.0
  0
LINE
  5
2737
330
2931
100
AcDbEntity
  8
OUTLINE
100
AcDbLine
 10
436.0
 20
-475.4142135623732
 30
0.0
 11
436.0
 21
-474.9999999999994
 31
0.0
  0
LINE
  5
2738
330
2931
100
AcDbEntity
  8
DETAIL
100
AcDbLine
 10
436.0
 20
-690.0
 30
0.0
 11
436.0
 21
-475.4142135623729
 31
0.0
  0
LINE
  5
2739
330
2931
100
AcDbEntity
  8
DETAIL
100
AcDbLine
 10
-436.0
 20
-475.4142135623732
 30
0.0
 11
-436.0
 21
-690.0
 31
0.0
  0
LINE
  5
273A
330
2931
100
AcDbEntity
  8
OUTLINE
100
AcDbLine
 10
-436.0
 20
-475.0
 30
0.0
 11
-436.0
 21
-475.4142135623732
 31
0.0
  0
LINE
  5
273B
330
2931
100
AcDbEntity
  8
DETAIL
100
AcDbLine
 10
-436.0
 20
-475.4142135623732
 30
0.0
 11
436.0
 21
-475.4142135623732
 31
0.0
  0
CIRCLE
  5
273C
330
2931
100
AcDbEntity
  8
ARRANGE
100
AcDbCircle
 10
0.0
 20
0.0
 30
0.0
 40
40.0
  0
LINE
  5
273D
330
2931
100
AcDbEntity
  8
ARRANGE
100
AcDbLine
 10
-17.03206414425949
 20
-17.03206414425585
 30
0.0
 11
17.03206414425222
 21
17.03206414425675
 31
0.0
  0
LINE
  5
273E
330
2931
100
AcDbEntity
  8
ARRANGE
100
AcDbLine
 10
17.03206414425222
 20
-17.03206414425585
 30
0.0
 11
-17.03206414425949
 21
17.03206414425675
 31
0.0
  0
LINE
  5
273F
330
2931
100
AcDbEntity
  8
BASIS
100
AcDbLine
 10
0.0
 20
500.0
 30
0.0
 11
0.0
 21
-843.6105056522904
 31
0.0
  0
LINE
  5
2740
330
2931
100
AcDbEntity
  8
BASIS
100
AcDbLine
 10
-500.0
 20
0.0
 30
0.0
 11
500.0
 21
0.0
 31
0.0
  0
CIRCLE
  5
2741
330
2931
100
AcDbEntity
  8
FIX
100
AcDbCircle
 10
450.0
 20
250.0000000000004
 30
0.0
 40
7.5
  0
CIRCLE
  5
2742
330
2931
100
AcDbEntity
  8
FIX
100
AcDbCircle
 10
450.0
 20
200.0000000000004
 30
0.0
 40
7.5
  0
CIRCLE
  5
2743
330
2931
100
AcDbEntity
  8
FIX
100
AcDbCircle
 10
-450.0
 20
-250.0
 30
0.0
 40
7.5
  0
CIRCLE
  5
2744
330
2931
100
AcDbEntity
  8
FIX
100
AcDbCircle
 10
-450.0
 20
250.0
 30
0.0
 40
7.5
  0
CIRCLE
  5
2745
330
2931
100
AcDbEntity
  8
FIX
100
AcDbCircle
 10
-450.0
 20
200.0
 30
0.0
 40
7.5
  0
CIRCLE
  5
2746
330
2931
100
AcDbEntity
  8
FIX
100
AcDbCircle
 10
-450.0
 20
-199.9999999999994
 30
0.0
 40
7.5
  0
CIRCLE
  5
2747
330
2931
100
AcDbEntity
  8
FIX
100
AcDbCircle
 10
450.0
 20
-250.0
 30
0.0
 40
7.5
  0
CIRCLE
  5
2748
330
2931
100
AcDbEntity
  8
FIX
100
AcDbCircle
 10
450.0
 20
-199.9999999999994
 30
0.0
 40
7.5
  0
CIRCLE
  5
2749
330
2931
100
AcDbEntity
  8
FIX
100
AcDbCircle
 10
250.0
 20
450.0000000000004
 30
0.0
 40
7.5
  0
CIRCLE
  5
274A
330
2931
100
AcDbEntity
  8
FIX
100
AcDbCircle
 10
200.0
 20
450.0000000000004
 30
0.0
 40
7.5
  0
CIRCLE
  5
274B
330
2931
100
AcDbEntity
  8
FIX
100
AcDbCircle
 10
-250.0
 20
450.0000000000004
 30
0.0
 40
7.5
  0
CIRCLE
  5
274C
330
2931
100
AcDbEntity
  8
FIX
100
AcDbCircle
 10
-200.0
 20
450.0000000000004
 30
0.0
 40
7.5
  0
LINE
  5
274D
330
2931
100
AcDbEntity
  8
DETAIL
100
AcDbLine
 10
385.9999999999964
 20
-690.0
 30
0.0
 11
-386.0
 21
-690.0
 31
0.0
  0
LINE
  5
274E
330
2931
100
AcDbEntity
  8
DETAIL
100
AcDbLine
 10
-511.1610571167839
 20
-858.6094645788445
 30
0.0
 11
-510.1610571167839
 21
-858.6094645788445
 31
0.0
  0
LINE
  5
274F
330
2931
100
AcDbEntity
  8
DETAIL
100
AcDbLine
 10
-511.1610571167839
 20
-858.6094645788445
 30
0.0
 11
-511.1610571167839
 21
-818.6105056522897
 31
0.0
  0
LINE
  5
2750
330
2931
100
AcDbEntity
  8
DETAIL
100
AcDbLine
 10
-510.1610571167839
 20
-818.6105056522897
 30
0.0
 11
-511.1610571167839
 21
-818.6105056522897
 31
0.0
  0
LINE
  5
2751
330
2931
100
AcDbEntity
  8
DETAIL
100
AcDbLine
 10
-510.1610571167839
 20
-858.6094645788445
 30
0.0
 11
-510.1610571167839
 21
-818.6105056522897
 31
0.0
  0
LINE
  5
2752
330
2931
100
AcDbEntity
  8
DETAIL
100
AcDbLine
 10
-522.1569450164897
 20
-818.5072324563567
 30
0.0
 11
-511.1610571167839
 21
-818.5093098606619
 31
0.0
  0
LINE
  5
2753
330
2931
100
AcDbEntity
  8
DETAIL
100
AcDbLine
 10
-511.1610571167839
 20
-818.5165271099798
 30
0.0
 11
-523.1827792897746
 21
-818.5142558993574
 31
0.0
  0
LINE
  5
2754
330
2931
100
AcDbEntity
  8
DETAIL
100
AcDbLine
 10
-519.8304253308996
 20
-813.156113525755
 30
0.0
 11
-519.9332475445117
 21
-813.1560941000099
 31
0.0
  0
LINE
  5
2755
330
2931
100
AcDbEntity
  8
DETAIL
100
AcDbLine
 10
-519.8304253308996
 20
-813.156113525755
 30
0.0
 11
-520.3263434917389
 21
-814.2855807646098
 31
0.0
  0
LINE
  5
2756
330
2931
100
AcDbEntity
  8
DETAIL
100
AcDbLine
 10
-522.1519292944138
 20
-818.4434025962273
 30
0.0
 11
-522.1831219647973
 21
-818.5144447601798
 31
0.0
  0
LINE
  5
2757
330
2931
100
AcDbEntity
  8
DETAIL
100
AcDbLine
 10
-522.1831219647973
 20
-818.5144447601798
 30
0.0
 11
-523.1827792897746
 21
-818.5142558993574
 31
0.0
  0
LINE
  5
2758
330
2931
100
AcDbEntity
  8
DETAIL
100
AcDbLine
 10
-523.1517656921131
 20
-818.4436215784463
 30
0.0
 11
-523.1827792897746
 21
-818.5142558993574
 31
0.0
  0
LINE
  5
2759
330
2931
100
AcDbEntity
  8
DETAIL
100
AcDbLine
 10
-519.8304253308086
 20
-813.1561130363444
 30
0.0
 11
-511.1610571167839
 21
-813.1577508939161
 31
0.0
  0
LINE
  5
275A
330
2931
100
AcDbEntity
  8
DETAIL
100
AcDbLine
 10
-509.1610571167839
 20
-819.6104796254541
 30
0.0
 11
-421.1610571167839
 21
-819.6104796254541
 31
0.0
  0
LINE
  5
275B
330
2931
100
AcDbEntity
  8
DETAIL
100
AcDbLine
 10
-509.1610571167839
 20
-819.6104796254541
 30
0.0
 11
-509.1610571167839
 21
-818.6105056522897
 31
0.0
  0
LINE
  5
275C
330
2931
100
AcDbEntity
  8
DETAIL
100
AcDbLine
 10
-421.1610571167839
 20
-818.6105056522897
 30
0.0
 11
-509.1610571167839
 21
-818.6105056522897
 31
0.0
  0
LINE
  5
275D
330
2931
100
AcDbEntity
  8
DETAIL
100
AcDbLine
 10
-421.1610571167839
 20
-819.6104796254541
 30
0.0
 11
-421.1610571167839
 21
-818.6105056522897
 31
0.0
  0
LINE
  5
275E
330
2931
100
AcDbEntity
  8
DETAIL
100
AcDbLine
 10
-512.1610571167839
 20
-818.5235554337355
 30
0.0
 11
-512.1610571167839
 21
-818.6103191998977
 31
0.0
  0
LINE
  5
275F
330
2931
100
AcDbEntity
  8
DETAIL
100
AcDbLine
 10
-523.5000000000036
 20
-818.5214132175756
 30
0.0
 11
-512.1610571167839
 21
-818.5235554337355
 31
0.0
  0
LINE
  5
2760
330
2931
100
AcDbEntity
  8
DETAIL
100
AcDbLine
 10
-523.5000000000036
 20
-873.9999817415887
 30
0.0
 11
-512.1610571167839
 21
-874.0021239577487
 31
0.0
  0
LINE
  5
2761
330
2931
100
AcDbEntity
  8
DETAIL
100
AcDbLine
 10
-511.1610571167839
 20
-818.5165271099798
 30
0.0
 11
-523.5000000000036
 21
-818.5141959682571
 31
0.0
  0
LINE
  5
2762
330
2931
100
AcDbEntity
  8
DETAIL
100
AcDbLine
 10
-512.1610571167839
 20
-818.6103191998977
 30
0.0
 11
-512.1610571167839
 21
-874.0021239577487
 31
0.0
  0
LINE
  5
2763
330
2931
100
AcDbEntity
  8
DETAIL
100
AcDbLine
 10
-512.1610571167839
 20
-818.6103191998977
 30
0.0
 11
-511.1610571167839
 21
-818.6103191998977
 31
0.0
  0
LINE
  5
2764
330
2931
100
AcDbEntity
  8
DETAIL
100
AcDbLine
 10
-511.1610571167839
 20
-858.6094645788445
 30
0.0
 11
-511.1610571167839
 21
-874.0021239577487
 31
0.0
  0
LINE
  5
2765
330
2931
100
AcDbEntity
  8
DETAIL
100
AcDbLine
 10
-512.1610571167839
 20
-874.0021239577487
 30
0.0
 11
-511.1610571167839
 21
-874.0021239577487
 31
0.0
  0
LINE
  5
2766
330
2931
100
AcDbEntity
  8
DETAIL
100
AcDbLine
 10
-511.2022858888922
 20
-817.9257786166537
 30
0.0
 11
-511.1610571167839
 21
-817.9505513621849
 31
0.0
  0
LINE
  5
2767
330
2931
100
AcDbEntity
  8
DETAIL
100
AcDbLine
 10
-511.1610571167839
 20
-818.44099539683
 30
0.0
 11
-523.3403817205908
 21
-818.4436628887613
 31
0.0
  0
LINE
  5
2768
330
2931
100
AcDbEntity
  8
DETAIL
100
AcDbLine
 10
-523.3632540004508
 20
-802.4597712188789
 30
0.0
 11
-523.3403817205908
 21
-818.4436628887613
 31
0.0
  0
LINE
  5
2769
330
2931
100
AcDbEntity
  8
DETAIL
100
AcDbLine
 10
-511.1610571167839
 20
-817.4420018543724
 30
0.0
 11
-522.342175612517
 21
-817.4444507211472
 31
0.0
  0
LINE
  5
276A
330
2931
100
AcDbEntity
  8
DETAIL
100
AcDbLine
 10
-522.3636183748823
 20
-802.4595522806324
 30
0.0
 11
-523.3632540004508
 21
-802.4597712188789
 31
0.0
  0
LINE
  5
276B
330
2931
100
AcDbEntity
  8
DETAIL
100
AcDbLine
 10
-523.3632540004508
 20
-802.4597712188789
 30
0.0
 11
-502.2290731662796
 21
-767.286587680288
 31
0.0
  0
LINE
  5
276C
330
2931
100
AcDbEntity
  8
DETAIL
100
AcDbLine
 10
-501.2294375407146
 20
-780.9774368152467
 30
0.0
 11
-519.7654897479406
 21
-813.1561253042786
 31
0.0
  0
LINE
  5
276D
330
2931
100
AcDbEntity
  8
DETAIL
100
AcDbLine
 10
-520.4442490536528
 20
-814.285770490231
 30
0.0
 11
-522.342175612517
 21
-817.4444507211472
 31
0.0
  0
LINE
  5
276E
330
2931
100
AcDbEntity
  8
DETAIL
100
AcDbLine
 10
-522.342175612517
 20
-817.4444507211472
 30
0.0
 11
-522.3636183748823
 21
-802.4595522806324
 31
0.0
  0
LINE
  5
276F
330
2931
100
AcDbEntity
  8
DETAIL
100
AcDbLine
 10
-501.2294375407146
 20
-767.2863687420422
 30
0.0
 11
-522.3636183748823
 21
-802.4595522806324
 31
0.0
  0
LINE
  5
2770
330
2931
100
AcDbEntity
  8
DETAIL
100
AcDbLine
 10
-502.2290731662796
 20
-767.286587680288
 30
0.0
 11
-501.2294375407146
 21
-767.2863687420422
 31
0.0
  0
LINE
  5
2771
330
2931
100
AcDbEntity
  8
DETAIL
100
AcDbLine
 10
-502.1675414063393
 20
-766.9966233286824
 30
0.0
 11
-502.1675414063393
 21
-766.9442873724392
 31
0.0
  0
LINE
  5
2772
330
2931
100
AcDbEntity
  8
DETAIL
100
AcDbLine
 10
-502.1675414063393
 20
-766.9442873724392
 30
0.0
 11
-480.7747522759017
 21
-766.9442873724392
 31
0.0
  0
LINE
  5
2773
330
2931
100
AcDbEntity
  8
DETAIL
100
AcDbLine
 10
-489.1579760924797
 20
-780.9774368152467
 30
0.0
 11
-501.2294375407146
 21
-780.9774368152467
 31
0.0
  0
LINE
  5
2774
330
2931
100
AcDbEntity
  8
DETAIL
100
AcDbLine
 10
-502.1675414063393
 20
-767.2865742037219
 30
0.0
 11
-502.1675414063393
 21
-766.9966233286824
 31
0.0
  0
LINE
  5
2775
330
2931
100
AcDbEntity
  8
DETAIL
100
AcDbLine
 10
-480.8060171061296
 20
-766.9966233286824
 30
0.0
 11
-502.1675414063393
 21
-766.9966233286824
 31
0.0
  0
LINE
  5
2776
330
2931
100
AcDbEntity
  8
DETAIL
100
AcDbLine
 10
383.9999999999964
 20
-690.0
 30
0.0
 11
-384.0000000000073
 21
-690.0
 31
0.0
  0
LINE
  5
2777
330
2931
100
AcDbEntity
  8
DETAIL
100
AcDbLine
 10
-502.0772332112463
 20
-802.5998073055212
 30
0.0
 11
-434.8115498952974
 21
-690.0
 31
0.0
  0
LINE
  5
2778
330
2931
100
AcDbEntity
  8
DETAIL
100
AcDbLine
 10
-511.1610571167839
 20
-807.6107919474889
 30
0.0
 11
-511.1610571167839
 21
-818.6105056522904
 31
0.0
  0
LINE
  5
2779
330
2931
100
AcDbEntity
  8
DETAIL
100
AcDbLine
 10
-452.1610571167839
 20
-818.6105056522904
 30
0.0
 11
452.1610428832136
 21
-818.6105056522904
 31
0.0
  0
LINE
  5
277A
330
2931
100
AcDbEntity
  8
DETAIL
100
AcDbLine
 10
447.1610428832136
 20
-802.607022081669
 30
0.0
 11
-447.1610571167839
 21
-802.607022081669
 31
0.0
  0
LINE
  5
277B
330
2931
100
AcDbEntity
  8
DETAIL
100
AcDbLine
 10
-506.1610571167839
 20
-802.6037073055219
 30
0.0
 11
506.1610571167766
 21
-802.6037073055206
 31
0.0
  0
LINE
  5
277C
330
2931
100
AcDbEntity
  8
DETAIL
100
AcDbLine
 10
-506.1610571167839
 20
-802.6109220816691
 30
0.0
 11
-506.1610571167839
 21
-802.6037073055212
 31
0.0
  0
LINE
  5
277D
330
2931
100
AcDbEntity
  8
DETAIL
100
AcDbLine
 10
-511.1610571167839
 20
-807.6107919474889
 30
0.0
 11
-506.1610571167839
 21
-802.6109220816691
 31
0.0
  0
LINE
  5
277E
330
2931
100
AcDbEntity
  8
DETAIL
100
AcDbLine
 10
-511.1610571167839
 20
-807.6035771713405
 30
0.0
 11
-511.1610571167839
 21
-807.6107919474889
 31
0.0
  0
LINE
  5
277F
330
2931
100
AcDbEntity
  8
DETAIL
100
AcDbLine
 10
-506.1610571167839
 20
-802.6037073055212
 30
0.0
 11
-511.1610571167839
 21
-807.6035771713405
 31
0.0
  0
LINE
  5
2780
330
2931
100
AcDbEntity
  8
DETAIL
100
AcDbLine
 10
-510.1610571167839
 20
-858.6094645788445
 30
0.0
 11
-511.1610571167839
 21
-858.6094645788445
 31
0.0
  0
LINE
  5
2781
330
2931
100
AcDbEntity
  8
DETAIL
100
AcDbLine
 10
-421.1610571167839
 20
-819.6104796254541
 30
0.0
 11
-510.1610571167839
 21
-858.6094645788445
 31
0.0
  0
LINE
  5
2782
330
2931
100
AcDbEntity
  8
DETAIL
100
AcDbLine
 10
-421.1610571167839
 20
-818.6105056522897
 30
0.0
 11
-421.1610571167839
 21
-819.6104796254541
 31
0.0
  0
LINE
  5
2783
330
2931
100
AcDbEntity
  8
DETAIL
100
AcDbLine
 10
-511.1610571167839
 20
-818.6105056522897
 30
0.0
 11
-421.1610571167839
 21
-818.6105056522897
 31
0.0
  0
LINE
  5
2784
330
2931
100
AcDbEntity
  8
DETAIL
100
AcDbLine
 10
-511.1610571167839
 20
-858.6094645788445
 30
0.0
 11
-511.1610571167839
 21
-818.6105056522897
 31
0.0
  0
LINE
  5
2785
330
2931
100
AcDbEntity
  8
DETAIL
100
AcDbLine
 10
-523.5000000000036
 20
-818.5141959682571
 30
0.0
 11
-523.5000000000036
 21
-873.9999817415887
 31
0.0
  0
LINE
  5
2786
330
2931
100
AcDbEntity
  8
DETAIL
100
AcDbLine
 10
-501.2294375407146
 20
-767.2863687420422
 30
0.0
 11
-501.2294375407146
 21
-780.9774368152467
 31
0.0
  0
LINE
  5
2787
330
2931
100
AcDbEntity
  8
DETAIL
100
AcDbLine
 10
511.1610571167766
 20
-858.6094645788445
 30
0.0
 11
510.1610571167766
 21
-858.6094645788445
 31
0.0
  0
LINE
  5
2788
330
2931
100
AcDbEntity
  8
DETAIL
100
AcDbLine
 10
511.1610571167766
 20
-858.6094645788445
 30
0.0
 11
511.1610571167766
 21
-818.6105056522897
 31
0.0
  0
LINE
  5
2789
330
2931
100
AcDbEntity
  8
DETAIL
100
AcDbLine
 10
510.1610571167766
 20
-818.6105056522897
 30
0.0
 11
511.1610571167766
 21
-818.6105056522897
 31
0.0
  0
LINE
  5
278A
330
2931
100
AcDbEntity
  8
DETAIL
100
AcDbLine
 10
510.1610571167766
 20
-858.6094645788445
 30
0.0
 11
510.1610571167766
 21
-818.6105056522897
 31
0.0
  0
LINE
  5
278B
330
2931
100
AcDbEntity
  8
DETAIL
100
AcDbLine
 10
522.156945016486
 20
-818.5072324563567
 30
0.0
 11
511.1610571167801
 21
-818.5093098606619
 31
0.0
  0
LINE
  5
278C
330
2931
100
AcDbEntity
  8
DETAIL
100
AcDbLine
 10
511.1610571167766
 20
-818.5165271099798
 30
0.0
 11
523.1827792897673
 21
-818.5142558993574
 31
0.0
  0
LINE
  5
278D
330
2931
100
AcDbEntity
  8
DETAIL
100
AcDbLine
 10
519.8304253308959
 20
-813.156113525755
 30
0.0
 11
519.9332475445117
 21
-813.1560941000099
 31
0.0
  0
LINE
  5
278E
330
2931
100
AcDbEntity
  8
DETAIL
100
AcDbLine
 10
519.8304253308959
 20
-813.156113525755
 30
0.0
 11
520.3263434917389
 21
-814.2855807646098
 31
0.0
  0
LINE
  5
278F
330
2931
100
AcDbEntity
  8
DETAIL
100
AcDbLine
 10
522.1519292944103
 20
-818.4434025962273
 30
0.0
 11
522.1831219647937
 21
-818.5144447601798
 31
0.0
  0
LINE
  5
2790
330
2931
100
AcDbEntity
  8
DETAIL
100
AcDbLine
 10
522.1831219647937
 20
-818.5144447601798
 30
0.0
 11
523.1827792897673
 21
-818.5142558993574
 31
0.0
  0
LINE
  5
2791
330
2931
100
AcDbEntity
  8
DETAIL
100
AcDbLine
 10
523.1517656921057
 20
-818.4436215784463
 30
0.0
 11
523.1827792897673
 21
-818.5142558993574
 31
0.0
  0
LINE
  5
2792
330
2931
100
AcDbEntity
  8
DETAIL
100
AcDbLine
 10
519.8304253308015
 20
-813.1561130363444
 30
0.0
 11
511.1610571167801
 21
-813.1577508939161
 31
0.0
  0
LINE
  5
2793
330
2931
100
AcDbEntity
  8
DETAIL
100
AcDbLine
 10
509.1610571167802
 20
-819.6104796254541
 30
0.0
 11
421.1610571167802
 21
-819.6104796254541
 31
0.0
  0
LINE
  5
2794
330
2931
100
AcDbEntity
  8
DETAIL
100
AcDbLine
 10
509.1610571167802
 20
-819.6104796254541
 30
0.0
 11
509.1610571167802
 21
-818.6105056522897
 31
0.0
  0
LINE
  5
2795
330
2931
100
AcDbEntity
  8
DETAIL
100
AcDbLine
 10
421.1610571167802
 20
-818.6105056522897
 30
0.0
 11
509.1610571167802
 21
-818.6105056522897
 31
0.0
  0
LINE
  5
2796
330
2931
100
AcDbEntity
  8
DETAIL
100
AcDbLine
 10
421.1610571167802
 20
-819.6104796254541
 30
0.0
 11
421.1610571167802
 21
-818.6105056522897
 31
0.0
  0
LINE
  5
2797
330
2931
100
AcDbEntity
  8
DETAIL
100
AcDbLine
 10
512.1610571167803
 20
-818.5235554337355
 30
0.0
 11
512.1610571167803
 21
-818.6103191998977
 31
0.0
  0
LINE
  5
2798
330
2931
100
AcDbEntity
  8
DETAIL
100
AcDbLine
 10
523.5
 20
-818.5214132175756
 30
0.0
 11
512.1610571167803
 21
-818.5235554337355
 31
0.0
  0
LINE
  5
2799
330
2931
100
AcDbEntity
  8
DETAIL
100
AcDbLine
 10
523.5
 20
-873.9999817415887
 30
0.0
 11
512.1610571167803
 21
-874.0021239577487
 31
0.0
  0
LINE
  5
279A
330
2931
100
AcDbEntity
  8
DETAIL
100
AcDbLine
 10
511.1610571167801
 20
-818.5165271099798
 30
0.0
 11
523.5
 21
-818.5141959682571
 31
0.0
  0
LINE
  5
279B
330
2931
100
AcDbEntity
  8
DETAIL
100
AcDbLine
 10
512.1610571167803
 20
-818.6103191998977
 30
0.0
 11
512.1610571167803
 21
-874.0021239577487
 31
0.0
  0
LINE
  5
279C
330
2931
100
AcDbEntity
  8
DETAIL
100
AcDbLine
 10
512.1610571167803
 20
-818.6103191998977
 30
0.0
 11
511.1610571167801
 21
-818.6103191998977
 31
0.0
  0
LINE
  5
279D
330
2931
100
AcDbEntity
  8
DETAIL
100
AcDbLine
 10
511.1610571167801
 20
-858.6094645788445
 30
0.0
 11
511.1610571167801
 21
-874.0021239577487
 31
0.0
  0
LINE
  5
279E
330
2931
100
AcDbEntity
  8
DETAIL
100
AcDbLine
 10
512.1610571167803
 20
-874.0021239577487
 30
0.0
 11
511.1610571167801
 21
-874.0021239577487
 31
0.0
  0
LINE
  5
279F
330
2931
100
AcDbEntity
  8
DETAIL
100
AcDbLine
 10
511.2022858888884
 20
-817.9257786166537
 30
0.0
 11
511.1610571167801
 21
-817.9505513621849
 31
0.0
  0
LINE
  5
27A0
330
2931
100
AcDbEntity
  8
DETAIL
100
AcDbLine
 10
511.1610571167801
 20
-818.44099539683
 30
0.0
 11
523.3403817205871
 21
-818.4436628887613
 31
0.0
  0
LINE
  5
27A1
330
2931
100
AcDbEntity
  8
DETAIL
100
AcDbLine
 10
523.3632540004473
 20
-802.4597712188789
 30
0.0
 11
523.3403817205871
 21
-818.4436628887613
 31
0.0
  0
LINE
  5
27A2
330
2931
100
AcDbEntity
  8
DETAIL
100
AcDbLine
 10
511.1610571167801
 20
-817.4420018543724
 30
0.0
 11
522.3421756125097
 21
-817.4444507211472
 31
0.0
  0
LINE
  5
27A3
330
2931
100
AcDbEntity
  8
DETAIL
100
AcDbLine
 10
522.3636183748749
 20
-802.4595522806324
 30
0.0
 11
523.3632540004473
 21
-802.4597712188789
 31
0.0
  0
LINE
  5
27A4
330
2931
100
AcDbEntity
  8
DETAIL
100
AcDbLine
 10
523.3632540004473
 20
-802.4597712188789
 30
0.0
 11
502.229073166276
 21
-767.286587680288
 31
0.0
  0
LINE
  5
27A5
330
2931
100
AcDbEntity
  8
DETAIL
100
AcDbLine
 10
501.2294375407072
 20
-780.9774368152467
 30
0.0
 11
519.7654897479369
 21
-813.1561253042786
 31
0.0
  0
LINE
  5
27A6
330
2931
100
AcDbEntity
  8
DETAIL
100
AcDbLine
 10
520.4442490536494
 20
-814.285770490231
 30
0.0
 11
522.3421756125097
 21
-817.4444507211472
 31
0.0
  0
LINE
  5
27A7
330
2931
100
AcDbEntity
  8
DETAIL
100
AcDbLine
 10
522.3421756125097
 20
-817.4444507211472
 30
0.0
 11
522.3636183748749
 21
-802.4595522806324
 31
0.0
  0
LINE
  5
27A8
330
2931
100
AcDbEntity
  8
DETAIL
100
AcDbLine
 10
501.2294375407072
 20
-767.2863687420422
 30
0.0
 11
522.3636183748749
 21
-802.4595522806324
 31
0.0
  0
LINE
  5
27A9
330
2931
100
AcDbEntity
  8
DETAIL
100
AcDbLine
 10
502.229073166276
 20
-767.286587680288
 30
0.0
 11
501.2294375407072
 21
-767.2863687420422
 31
0.0
  0
LINE
  5
27AA
330
2931
100
AcDbEntity
  8
DETAIL
100
AcDbLine
 10
502.1675414063357
 20
-766.9966233286824
 30
0.0
 11
502.1675414063357
 21
-766.9442873724392
 31
0.0
  0
LINE
  5
27AB
330
2931
100
AcDbEntity
  8
DETAIL
100
AcDbLine
 10
502.1675414063357
 20
-766.9442873724392
 30
0.0
 11
480.7747522759017
 21
-766.9442873724392
 31
0.0
  0
LINE
  5
27AC
330
2931
100
AcDbEntity
  8
DETAIL
100
AcDbLine
 10
489.1579760924724
 20
-780.9774368152467
 30
0.0
 11
501.2294375407072
 21
-780.9774368152467
 31
0.0
  0
LINE
  5
27AD
330
2931
100
AcDbEntity
  8
DETAIL
100
AcDbLine
 10
502.1675414063357
 20
-767.2865742037219
 30
0.0
 11
502.1675414063357
 21
-766.9966233286824
 31
0.0
  0
LINE
  5
27AE
330
2931
100
AcDbEntity
  8
DETAIL
100
AcDbLine
 10
480.8060171061223
 20
-766.9966233286824
 30
0.0
 11
502.1675414063357
 21
-766.9966233286824
 31
0.0
  0
LINE
  5
27AF
330
2931
100
AcDbEntity
  8
DETAIL
100
AcDbLine
 10
502.0772332112428
 20
-802.5998073055212
 30
0.0
 11
434.8115498952902
 21
-690.0
 31
0.0
  0
LINE
  5
27B0
330
2931
100
AcDbEntity
  8
DETAIL
100
AcDbLine
 10
511.1610571167801
 20
-807.6107919474889
 30
0.0
 11
511.1610571167801
 21
-818.6105056522904
 31
0.0
  0
LINE
  5
27B1
330
2931
100
AcDbEntity
  8
DETAIL
100
AcDbLine
 10
506.1610571167766
 20
-802.6109220816691
 30
0.0
 11
506.1610571167766
 21
-802.6037073055212
 31
0.0
  0
LINE
  5
27B2
330
2931
100
AcDbEntity
  8
DETAIL
100
AcDbLine
 10
511.1610571167801
 20
-807.6107919474889
 30
0.0
 11
506.1610571167766
 21
-802.6109220816691
 31
0.0
  0
LINE
  5
27B3
330
2931
100
AcDbEntity
  8
DETAIL
100
AcDbLine
 10
511.1610571167801
 20
-807.6035771713405
 30
0.0
 11
511.1610571167801
 21
-807.6107919474889
 31
0.0
  0
LINE
  5
27B4
330
2931
100
AcDbEntity
  8
DETAIL
100
AcDbLine
 10
506.1610571167766
 20
-802.6037073055212
 30
0.0
 11
511.1610571167801
 21
-807.6035771713405
 31
0.0
  0
LINE
  5
27B5
330
2931
100
AcDbEntity
  8
DETAIL
100
AcDbLine
 10
510.1610571167766
 20
-858.6094645788445
 30
0.0
 11
511.1610571167766
 21
-858.6094645788445
 31
0.0
  0
LINE
  5
27B6
330
2931
100
AcDbEntity
  8
DETAIL
100
AcDbLine
 10
421.1610571167765
 20
-819.6104796254541
 30
0.0
 11
510.1610571167766
 21
-858.6094645788445
 31
0.0
  0
LINE
  5
27B7
330
2931
100
AcDbEntity
  8
DETAIL
100
AcDbLine
 10
421.1610571167765
 20
-818.6105056522897
 30
0.0
 11
421.1610571167765
 21
-819.6104796254541
 31
0.0
  0
LINE
  5
27B8
330
2931
100
AcDbEntity
  8
DETAIL
100
AcDbLine
 10
511.1610571167766
 20
-818.6105056522897
 30
0.0
 11
421.1610571167765
 21
-818.6105056522897
 31
0.0
  0
LINE
  5
27B9
330
2931
100
AcDbEntity
  8
DETAIL
100
AcDbLine
 10
511.1610571167766
 20
-858.6094645788445
 30
0.0
 11
511.1610571167766
 21
-818.6105056522897
 31
0.0
  0
LINE
  5
27BA
330
2931
100
AcDbEntity
  8
DETAIL
100
AcDbLine
 10
523.5
 20
-818.5141959682571
 30
0.0
 11
523.5
 21
-873.9999817415887
 31
0.0
  0
LINE
  5
27BB
330
2931
100
AcDbEntity
  8
DETAIL
100
AcDbLine
 10
501.2294375407072
 20
-767.2863687420422
 30
0.0
 11
501.2294375407072
 21
-780.9774368152467
 31
0.0
  0
INSERT
  5
27BC
330
2931
100
AcDbEntity
  8
0
100
AcDbBlockReference
  2
*U68
 10
0.0
 20
-0.0000000000031832
 30
0.0
1001
ACAD
1000
DSTYLE
1002
{
1070
    41
1040
12.0
1070
    42
1040
20.0
1070
    43
1040
200.0
1070
    44
1040
20.0
1070
    73
1070
     0
1070
    74
1070
     0
1070
    77
1070
     1
1070
    78
1070
     8
1070
   140
1040
64.0
1070
   147
1040
50.0
1070
   172
1070
     1
1070
   174
1070
     1
1070
   275
1070
     0
1070
   284
1070
     0
1070
   285
1070
     0
1070
   286
1070
     0
1070
   341
1005
0
1070
   342
1005
0
1002
}
  0
INSERT
  5
27BD
330
2931
100
AcDbEntity
  8
0
100
AcDbBlockReference
  2
*U69
 10
0.0
 20
-0.0000000000031832
 30
0.0
  0
LINE
  5
27BE
330
2931
100
AcDbEntity
  8
NOTE
100
AcDbLine
 39
50.0
 10
462.5
 20
-450.0
 30
0.0
 11
437.5
 21
-450.0
 31
0.0
  0
LINE
  5
27BF
330
2931
100
AcDbEntity
  8
NOTE
100
AcDbLine
 39
50.0
 10
450.0
 20
-437.5
 30
0.0
 11
450.0
 21
-462.5
 31
0.0
  0
LINE
  5
27C0
330
2931
100
AcDbEntity
  8
NOTE
100
AcDbLine
 39
50.0
 10
462.5
 20
-250.0
 30
0.0
 11
437.5
 21
-250.0
 31
0.0
  0
LINE
  5
27C1
330
2931
100
AcDbEntity
  8
NOTE
100
AcDbLine
 39
50.0
 10
450.0
 20
-237.5
 30
0.0
 11
450.0
 21
-262.5
 31
0.0
  0
LINE
  5
27C2
330
2931
100
AcDbEntity
  8
NOTE
100
AcDbLine
 39
50.0
 10
462.5
 20
-199.9999999999994
 30
0.0
 11
437.5
 21
-199.9999999999994
 31
0.0
  0
LINE
  5
27C3
330
2931
100
AcDbEntity
  8
NOTE
100
AcDbLine
 39
50.0
 10
450.0
 20
-187.4999999999994
 30
0.0
 11
450.0
 21
-212.4999999999996
 31
0.0
  0
LINE
  5
27C4
330
2931
100
AcDbEntity
  8
NOTE
100
AcDbLine
 39
50.0
 10
462.5
 20
200.0000000000004
 30
0.0
 11
437.5
 21
200.0000000000004
 31
0.0
  0
LINE
  5
27C5
330
2931
100
AcDbEntity
  8
NOTE
100
AcDbLine
 39
50.0
 10
450.0
 20
212.5000000000004
 30
0.0
 11
450.0
 21
187.5000000000002
 31
0.0
  0
LINE
  5
27C6
330
2931
100
AcDbEntity
  8
NOTE
100
AcDbLine
 39
50.0
 10
462.5
 20
250.0000000000004
 30
0.0
 11
437.5
 21
250.0000000000004
 31
0.0
  0
LINE
  5
27C7
330
2931
100
AcDbEntity
  8
NOTE
100
AcDbLine
 39
50.0
 10
450.0
 20
262.5000000000004
 30
0.0
 11
450.0
 21
237.5000000000004
 31
0.0
  0
LINE
  5
27C8
330
2931
100
AcDbEntity
  8
NOTE
100
AcDbLine
 39
50.0
 10
462.5
 20
450.0000000000004
 30
0.0
 11
437.5
 21
450.0000000000004
 31
0.0
  0
LINE
  5
27C9
330
2931
100
AcDbEntity
  8
NOTE
100
AcDbLine
 39
50.0
 10
450.0
 20
462.5000000000004
 30
0.0
 11
450.0
 21
437.5000000000004
 31
0.0
  0
LINE
  5
27CA
330
2931
100
AcDbEntity
  8
NOTE
100
AcDbLine
 39
50.0
 10
262.5
 20
450.0000000000004
 30
0.0
 11
237.5
 21
450.0000000000004
 31
0.0
  0
LINE
  5
27CB
330
2931
100
AcDbEntity
  8
NOTE
100
AcDbLine
 39
50.0
 10
250.0
 20
462.5000000000004
 30
0.0
 11
250.0
 21
437.5000000000004
 31
0.0
  0
LINE
  5
27CC
330
2931
100
AcDbEntity
  8
NOTE
100
AcDbLine
 39
50.0
 10
212.5
 20
450.0000000000004
 30
0.0
 11
187.5
 21
450.0000000000004
 31
0.0
  0
LINE
  5
27CD
330
2931
100
AcDbEntity
  8
NOTE
100
AcDbLine
 39
50.0
 10
200.0
 20
462.5000000000004
 30
0.0
 11
200.0
 21
437.5000000000004
 31
0.0
  0
LINE
  5
27CE
330
2931
100
AcDbEntity
  8
NOTE
100
AcDbLine
 39
50.0
 10
-187.5
 20
450.0000000000004
 30
0.0
 11
-212.5
 21
450.0000000000004
 31
0.0
  0
LINE
  5
27CF
330
2931
100
AcDbEntity
  8
NOTE
100
AcDbLine
 39
50.0
 10
-200.0
 20
462.5000000000004
 30
0.0
 11
-200.0
 21
437.5000000000004
 31
0.0
  0
LINE
  5
27D0
330
2931
100
AcDbEntity
  8
NOTE
100
AcDbLine
 39
50.0
 10
-237.5
 20
450.0000000000004
 30
0.0
 11
-262.5
 21
450.0000000000004
 31
0.0
  0
LINE
  5
27D1
330
2931
100
AcDbEntity
  8
NOTE
100
AcDbLine
 39
50.0
 10
-250.0
 20
462.5000000000004
 30
0.0
 11
-250.0
 21
437.5000000000004
 31
0.0
  0
LINE
  5
27D2
330
2931
100
AcDbEntity
  8
NOTE
100
AcDbLine
 39
50.0
 10
-437.5
 20
450.0
 30
0.0
 11
-462.5
 21
450.0
 31
0.0
  0
LINE
  5
27D3
330
2931
100
AcDbEntity
  8
NOTE
100
AcDbLine
 39
50.0
 10
-450.0
 20
462.5
 30
0.0
 11
-450.0
 21
437.5
 31
0.0
  0
LINE
  5
27D4
330
2931
100
AcDbEntity
  8
NOTE
100
AcDbLine
 39
50.0
 10
-437.5
 20
250.0
 30
0.0
 11
-462.5
 21
250.0
 31
0.0
  0
LINE
  5
27D5
330
2931
100
AcDbEntity
  8
NOTE
100
AcDbLine
 39
50.0
 10
-450.0
 20
262.5
 30
0.0
 11
-450.0
 21
237.5
 31
0.0
  0
LINE
  5
27D6
330
2931
100
AcDbEntity
  8
NOTE
100
AcDbLine
 39
50.0
 10
-437.5
 20
200.0
 30
0.0
 11
-462.5
 21
200.0
 31
0.0
  0
LINE
  5
27D7
330
2931
100
AcDbEntity
  8
NOTE
100
AcDbLine
 39
50.0
 10
-450.0
 20
212.5
 30
0.0
 11
-450.0
 21
187.5
 31
0.0
  0
LINE
  5
27D8
330
2931
100
AcDbEntity
  8
NOTE
100
AcDbLine
 39
50.0
 10
-437.5
 20
-199.9999999999994
 30
0.0
 11
-462.5
 21
-199.9999999999994
 31
0.0
  0
LINE
  5
27D9
330
2931
100
AcDbEntity
  8
NOTE
100
AcDbLine
 39
50.0
 10
-450.0
 20
-187.4999999999994
 30
0.0
 11
-450.0
 21
-212.4999999999996
 31
0.0
  0
LINE
  5
27DA
330
2931
100
AcDbEntity
  8
NOTE
100
AcDbLine
 39
50.0
 10
-437.5
 20
-250.0
 30
0.0
 11
-462.5
 21
-250.0
 31
0.0
  0
LINE
  5
27DB
330
2931
100
AcDbEntity
  8
NOTE
100
AcDbLine
 39
50.0
 10
-450.0
 20
-237.5
 30
0.0
 11
-450.0
 21
-262.5
 31
0.0
  0
LINE
  5
27DC
330
2931
100
AcDbEntity
  8
NOTE
100
AcDbLine
 39
50.0
 10
-437.5
 20
-450.0
 30
0.0
 11
-462.5
 21
-450.0
 31
0.0
  0
LINE
  5
27DD
330
2931
100
AcDbEntity
  8
NOTE
100
AcDbLine
 39
50.0
 10
-450.0
 20
-437.5
 30
0.0
 11
-450.0
 21
-462.5
 31
0.0
  0
LINE
  5
27DE
330
2931
100
AcDbEntity
  8
OUTLINE
100
AcDbLine
 10
-475.0
 20
475.0
 30
0.0
 11
475.0
 21
475.0
 31
0.0
  0
LINE
  5
27DF
330
2931
100
AcDbEntity
  8
OUTLINE
100
AcDbLine
 10
475.0
 20
475.0
 30
0.0
 11
475.0
 21
-475.0
 31
0.0
  0
LINE
  5
27E0
330
2931
100
AcDbEntity
  8
OUTLINE
100
AcDbLine
 10
475.0
 20
-475.0
 30
0.0
 11
-475.0
 21
-475.0
 31
0.0
  0
LINE
  5
27E1
330
2931
100
AcDbEntity
  8
OUTLINE
100
AcDbLine
 10
-475.0
 20
-475.0
 30
0.0
 11
-475.0
 21
475.0
 31
0.0
  0
LINE
  5
27E2
330
2931
100
AcDbEntity
  8
OUTLINE
100
AcDbLine
 10
-436.0
 20
-690.0
 30
0.0
 11
436.0
 21
-690.0
 31
0.0
  0
LINE
  5
27E3
330
2931
100
AcDbEntity
  8
OUTLINE
100
AcDbLine
 10
436.0
 20
-690.0
 30
0.0
 11
436.0
 21
-475.4142135623729
 31
0.0
  0
LINE
  5
27E4
330
2931
100
AcDbEntity
  8
OUTLINE
100
AcDbLine
 10
-436.0
 20
-475.4142135623732
 30
0.0
 11
-436.0
 21
-690.0
 31
0.0
  0
LINE
  5
27E5
330
2931
100
AcDbEntity
  8
OUTLINE
100
AcDbLine
 10
-436.0
 20
-475.4142135623732
 30
0.0
 11
436.0
 21
-475.4142135623732
 31
0.0
  0
LINE
  5
27E6
330
2931
100
AcDbEntity
  8
OUTLINE
100
AcDbLine
 10
385.9999999999964
 20
-690.0
 30
0.0
 11
-386.0
 21
-690.0
 31
0.0
  0
LINE
  5
27E7
330
2931
100
AcDbEntity
  8
OUTLINE
100
AcDbLine
 10
-511.1610571167839
 20
-858.6094645788445
 30
0.0
 11
-510.1610571167839
 21
-858.6094645788445
 31
0.0
  0
LINE
  5
27E8
330
2931
100
AcDbEntity
  8
OUTLINE
100
AcDbLine
 10
-511.1610571167839
 20
-858.6094645788445
 30
0.0
 11
-511.1610571167839
 21
-818.6105056522897
 31
0.0
  0
LINE
  5
27E9
330
2931
100
AcDbEntity
  8
OUTLINE
100
AcDbLine
 10
-510.1610571167839
 20
-818.6105056522897
 30
0.0
 11
-511.1610571167839
 21
-818.6105056522897
 31
0.0
  0
LINE
  5
27EA
330
2931
100
AcDbEntity
  8
OUTLINE
100
AcDbLine
 10
-510.1610571167839
 20
-858.6094645788445
 30
0.0
 11
-510.1610571167839
 21
-818.6105056522897
 31
0.0
  0
LINE
  5
27EB
330
2931
100
AcDbEntity
  8
OUTLINE
100
AcDbLine
 10
-522.1569450164897
 20
-818.5072324563567
 30
0.0
 11
-511.1610571167839
 21
-818.5093098606619
 31
0.0
  0
LINE
  5
27EC
330
2931
100
AcDbEntity
  8
OUTLINE
100
AcDbLine
 10
-511.1610571167839
 20
-818.5165271099798
 30
0.0
 11
-523.1827792897746
 21
-818.5142558993574
 31
0.0
  0
LINE
  5
27ED
330
2931
100
AcDbEntity
  8
OUTLINE
100
AcDbLine
 10
-519.8304253308996
 20
-813.156113525755
 30
0.0
 11
-519.9332475445117
 21
-813.1560941000099
 31
0.0
  0
LINE
  5
27EE
330
2931
100
AcDbEntity
  8
OUTLINE
100
AcDbLine
 10
-519.8304253308996
 20
-813.156113525755
 30
0.0
 11
-520.3263434917389
 21
-814.2855807646098
 31
0.0
  0
LINE
  5
27EF
330
2931
100
AcDbEntity
  8
OUTLINE
100
AcDbLine
 10
-522.1519292944138
 20
-818.4434025962273
 30
0.0
 11
-522.1831219647973
 21
-818.5144447601798
 31
0.0
  0
LINE
  5
27F0
330
2931
100
AcDbEntity
  8
OUTLINE
100
AcDbLine
 10
-522.1831219647973
 20
-818.5144447601798
 30
0.0
 11
-523.1827792897746
 21
-818.5142558993574
 31
0.0
  0
LINE
  5
27F1
330
2931
100
AcDbEntity
  8
OUTLINE
100
AcDbLine
 10
-523.1517656921131
 20
-818.4436215784463
 30
0.0
 11
-523.1827792897746
 21
-818.5142558993574
 31
0.0
  0
LINE
  5
27F2
330
2931
100
AcDbEntity
  8
OUTLINE
100
AcDbLine
 10
-519.8304253308086
 20
-813.1561130363444
 30
0.0
 11
-511.1610571167839
 21
-813.1577508939161
 31
0.0
  0
LINE
  5
27F3
330
2931
100
AcDbEntity
  8
OUTLINE
100
AcDbLine
 10
-509.1610571167839
 20
-819.6104796254541
 30
0.0
 11
-421.1610571167839
 21
-819.6104796254541
 31
0.0
  0
LINE
  5
27F4
330
2931
100
AcDbEntity
  8
OUTLINE
100
AcDbLine
 10
-509.1610571167839
 20
-819.6104796254541
 30
0.0
 11
-509.1610571167839
 21
-818.6105056522897
 31
0.0
  0
LINE
  5
27F5
330
2931
100
AcDbEntity
  8
OUTLINE
100
AcDbLine
 10
-421.1610571167839
 20
-818.6105056522897
 30
0.0
 11
-509.1610571167839
 21
-818.6105056522897
 31
0.0
  0
LINE
  5
27F6
330
2931
100
AcDbEntity
  8
OUTLINE
100
AcDbLine
 10
-421.1610571167839
 20
-819.6104796254541
 30
0.0
 11
-421.1610571167839
 21
-818.6105056522897
 31
0.0
  0
LINE
  5
27F7
330
2931
100
AcDbEntity
  8
OUTLINE
100
AcDbLine
 10
-512.1610571167839
 20
-818.5235554337355
 30
0.0
 11
-512.1610571167839
 21
-818.6103191998977
 31
0.0
  0
LINE
  5
27F8
330
2931
100
AcDbEntity
  8
OUTLINE
100
AcDbLine
 10
-523.5000000000036
 20
-818.5214132175756
 30
0.0
 11
-512.1610571167839
 21
-818.5235554337355
 31
0.0
  0
LINE
  5
27F9
330
2931
100
AcDbEntity
  8
OUTLINE
100
AcDbLine
 10
-523.5000000000036
 20
-873.9999817415887
 30
0.0
 11
-512.1610571167839
 21
-874.0021239577487
 31
0.0
  0
LINE
  5
27FA
330
2931
100
AcDbEntity
  8
OUTLINE
100
AcDbLine
 10
-511.1610571167839
 20
-818.5165271099798
 30
0.0
 11
-523.5000000000036
 21
-818.5141959682571
 31
0.0
  0
LINE
  5
27FB
330
2931
100
AcDbEntity
  8
OUTLINE
100
AcDbLine
 10
-512.1610571167839
 20
-818.6103191998977
 30
0.0
 11
-512.1610571167839
 21
-874.0021239577487
 31
0.0
  0
LINE
  5
27FC
330
2931
100
AcDbEntity
  8
OUTLINE
100
AcDbLine
 10
-512.1610571167839
 20
-818.6103191998977
 30
0.0
 11
-511.1610571167839
 21
-818.6103191998977
 31
0.0
  0
LINE
  5
27FD
330
2931
100
AcDbEntity
  8
OUTLINE
100
AcDbLine
 10
-511.1610571167839
 20
-858.6094645788445
 30
0.0
 11
-511.1610571167839
 21
-874.0021239577487
 31
0.0
  0
LINE
  5
27FE
330
2931
100
AcDbEntity
  8
OUTLINE
100
AcDbLine
 10
-512.1610571167839
 20
-874.0021239577487
 30
0.0
 11
-511.1610571167839
 21
-874.0021239577487
 31
0.0
  0
LINE
  5
27FF
330
2931
100
AcDbEntity
  8
OUTLINE
100
AcDbLine
 10
-511.2022858888922
 20
-817.9257786166537
 30
0.0
 11
-511.1610571167839
 21
-817.9505513621849
 31
0.0
  0
LINE
  5
2800
330
2931
100
AcDbEntity
  8
OUTLINE
100
AcDbLine
 10
-511.1610571167839
 20
-818.44099539683
 30
0.0
 11
-523.3403817205908
 21
-818.4436628887613
 31
0.0
  0
LINE
  5
2801
330
2931
100
AcDbEntity
  8
OUTLINE
100
AcDbLine
 10
-523.3632540004508
 20
-802.4597712188789
 30
0.0
 11
-523.3403817205908
 21
-818.4436628887613
 31
0.0
  0
LINE
  5
2802
330
2931
100
AcDbEntity
  8
OUTLINE
100
AcDbLine
 10
-511.1610571167839
 20
-817.4420018543724
 30
0.0
 11
-522.342175612517
 21
-817.4444507211472
 31
0.0
  0
LINE
  5
2803
330
2931
100
AcDbEntity
  8
OUTLINE
100
AcDbLine
 10
-522.3636183748823
 20
-802.4595522806324
 30
0.0
 11
-523.3632540004508
 21
-802.4597712188789
 31
0.0
  0
LINE
  5
2804
330
2931
100
AcDbEntity
  8
OUTLINE
100
AcDbLine
 10
-523.3632540004508
 20
-802.4597712188789
 30
0.0
 11
-502.2290731662796
 21
-767.286587680288
 31
0.0
  0
LINE
  5
2805
330
2931
100
AcDbEntity
  8
OUTLINE
100
AcDbLine
 10
-501.2294375407146
 20
-780.9774368152467
 30
0.0
 11
-519.7654897479406
 21
-813.1561253042786
 31
0.0
  0
LINE
  5
2806
330
2931
100
AcDbEntity
  8
OUTLINE
100
AcDbLine
 10
-520.4442490536528
 20
-814.285770490231
 30
0.0
 11
-522.342175612517
 21
-817.4444507211472
 31
0.0
  0
LINE
  5
2807
330
2931
100
AcDbEntity
  8
OUTLINE
100
AcDbLine
 10
-522.342175612517
 20
-817.4444507211472
 30
0.0
 11
-522.3636183748823
 21
-802.4595522806324
 31
0.0
  0
LINE
  5
2808
330
2931
100
AcDbEntity
  8
OUTLINE
100
AcDbLine
 10
-501.2294375407146
 20
-767.2863687420422
 30
0.0
 11
-522.3636183748823
 21
-802.4595522806324
 31
0.0
  0
LINE
  5
2809
330
2931
100
AcDbEntity
  8
OUTLINE
100
AcDbLine
 10
-502.2290731662796
 20
-767.286587680288
 30
0.0
 11
-501.2294375407146
 21
-767.2863687420422
 31
0.0
  0
LINE
  5
280A
330
2931
100
AcDbEntity
  8
OUTLINE
100
AcDbLine
 10
-502.1675414063393
 20
-766.9966233286824
 30
0.0
 11
-502.1675414063393
 21
-766.9442873724392
 31
0.0
  0
LINE
  5
280B
330
2931
100
AcDbEntity
  8
OUTLINE
100
AcDbLine
 10
-502.1675414063393
 20
-766.9442873724392
 30
0.0
 11
-480.7747522759017
 21
-766.9442873724392
 31
0.0
  0
LINE
  5
280C
330
2931
100
AcDbEntity
  8
OUTLINE
100
AcDbLine
 10
-489.1579760924797
 20
-780.9774368152467
 30
0.0
 11
-501.2294375407146
 21
-780.9774368152467
 31
0.0
  0
LINE
  5
280D
330
2931
100
AcDbEntity
  8
OUTLINE
100
AcDbLine
 10
-502.1675414063393
 20
-767.2865742037219
 30
0.0
 11
-502.1675414063393
 21
-766.9966233286824
 31
0.0
  0
LINE
  5
280E
330
2931
100
AcDbEntity
  8
OUTLINE
100
AcDbLine
 10
-480.8060171061296
 20
-766.9966233286824
 30
0.0
 11
-502.1675414063393
 21
-766.9966233286824
 31
0.0
  0
LINE
  5
280F
330
2931
100
AcDbEntity
  8
OUTLINE
100
AcDbLine
 10
383.9999999999964
 20
-690.0
 30
0.0
 11
-384.0000000000073
 21
-690.0
 31
0.0
  0
LINE
  5
2810
330
2931
100
AcDbEntity
  8
OUTLINE
100
AcDbLine
 10
-502.0772332112463
 20
-802.5998073055212
 30
0.0
 11
-434.8115498952974
 21
-690.0
 31
0.0
  0
LINE
  5
2811
330
2931
100
AcDbEntity
  8
OUTLINE
100
AcDbLine
 10
-511.1610571167839
 20
-807.6107919474889
 30
0.0
 11
-511.1610571167839
 21
-818.6105056522904
 31
0.0
  0
LINE
  5
2812
330
2931
100
AcDbEntity
  8
OUTLINE
100
AcDbLine
 10
-452.1610571167839
 20
-818.6105056522904
 30
0.0
 11
452.1610428832136
 21
-818.6105056522904
 31
0.0
  0
LINE
  5
2813
330
2931
100
AcDbEntity
  8
OUTLINE
100
AcDbLine
 10
447.1610428832136
 20
-802.607022081669
 30
0.0
 11
-447.1610571167839
 21
-802.607022081669
 31
0.0
  0
LINE
  5
2814
330
2931
100
AcDbEntity
  8
OUTLINE
100
AcDbLine
 10
-506.1610571167839
 20
-802.6037073055219
 30
0.0
 11
506.1610571167766
 21
-802.6037073055206
 31
0.0
  0
LINE
  5
2815
330
2931
100
AcDbEntity
  8
OUTLINE
100
AcDbLine
 10
-506.1610571167839
 20
-802.6109220816691
 30
0.0
 11
-506.1610571167839
 21
-802.6037073055212
 31
0.0
  0
LINE
  5
2816
330
2931
100
AcDbEntity
  8
OUTLINE
100
AcDbLine
 10
-511.1610571167839
 20
-807.6107919474889
 30
0.0
 11
-506.1610571167839
 21
-802.6109220816691
 31
0.0
  0
LINE
  5
2817
330
2931
100
AcDbEntity
  8
OUTLINE
100
AcDbLine
 10
-511.1610571167839
 20
-807.6035771713405
 30
0.0
 11
-511.1610571167839
 21
-807.6107919474889
 31
0.0
  0
LINE
  5
2818
330
2931
100
AcDbEntity
  8
OUTLINE
100
AcDbLine
 10
-506.1610571167839
 20
-802.6037073055212
 30
0.0
 11
-511.1610571167839
 21
-807.6035771713405
 31
0.0
  0
LINE
  5
2819
330
2931
100
AcDbEntity
  8
OUTLINE
100
AcDbLine
 10
-510.1610571167839
 20
-858.6094645788445
 30
0.0
 11
-511.1610571167839
 21
-858.6094645788445
 31
0.0
  0
LINE
  5
281A
330
2931
100
AcDbEntity
  8
OUTLINE
100
AcDbLine
 10
-421.1610571167839
 20
-819.6104796254541
 30
0.0
 11
-510.1610571167839
 21
-858.6094645788445
 31
0.0
  0
LINE
  5
281B
330
2931
100
AcDbEntity
  8
OUTLINE
100
AcDbLine
 10
-421.1610571167839
 20
-818.6105056522897
 30
0.0
 11
-421.1610571167839
 21
-819.6104796254541
 31
0.0
  0
LINE
  5
281C
330
2931
100
AcDbEntity
  8
OUTLINE
100
AcDbLine
 10
-511.1610571167839
 20
-818.6105056522897
 30
0.0
 11
-421.1610571167839
 21
-818.6105056522897
 31
0.0
  0
LINE
  5
281D
330
2931
100
AcDbEntity
  8
OUTLINE
100
AcDbLine
 10
-511.1610571167839
 20
-858.6094645788445
 30
0.0
 11
-511.1610571167839
 21
-818.6105056522897
 31
0.0
  0
LINE
  5
281E
330
2931
100
AcDbEntity
  8
OUTLINE
100
AcDbLine
 10
-523.5000000000036
 20
-818.5141959682571
 30
0.0
 11
-523.5000000000036
 21
-873.9999817415887
 31
0.0
  0
LINE
  5
281F
330
2931
100
AcDbEntity
  8
OUTLINE
100
AcDbLine
 10
-501.2294375407146
 20
-767.2863687420422
 30
0.0
 11
-501.2294375407146
 21
-780.9774368152467
 31
0.0
  0
LINE
  5
2820
330
2931
100
AcDbEntity
  8
OUTLINE
100
AcDbLine
 10
511.1610571167766
 20
-858.6094645788445
 30
0.0
 11
510.1610571167766
 21
-858.6094645788445
 31
0.0
  0
LINE
  5
2821
330
2931
100
AcDbEntity
  8
OUTLINE
100
AcDbLine
 10
511.1610571167766
 20
-858.6094645788445
 30
0.0
 11
511.1610571167766
 21
-818.6105056522897
 31
0.0
  0
LINE
  5
2822
330
2931
100
AcDbEntity
  8
OUTLINE
100
AcDbLine
 10
510.1610571167766
 20
-818.6105056522897
 30
0.0
 11
511.1610571167766
 21
-818.6105056522897
 31
0.0
  0
LINE
  5
2823
330
2931
100
AcDbEntity
  8
OUTLINE
100
AcDbLine
 10
510.1610571167766
 20
-858.6094645788445
 30
0.0
 11
510.1610571167766
 21
-818.6105056522897
 31
0.0
  0
LINE
  5
2824
330
2931
100
AcDbEntity
  8
OUTLINE
100
AcDbLine
 10
522.156945016486
 20
-818.5072324563567
 30
0.0
 11
511.1610571167801
 21
-818.5093098606619
 31
0.0
  0
LINE
  5
2825
330
2931
100
AcDbEntity
  8
OUTLINE
100
AcDbLine
 10
511.1610571167766
 20
-818.5165271099798
 30
0.0
 11
523.1827792897673
 21
-818.5142558993574
 31
0.0
  0
LINE
  5
2826
330
2931
100
AcDbEntity
  8
OUTLINE
100
AcDbLine
 10
519.8304253308959
 20
-813.156113525755
 30
0.0
 11
519.9332475445117
 21
-813.1560941000099
 31
0.0
  0
LINE
  5
2827
330
2931
100
AcDbEntity
  8
OUTLINE
100
AcDbLine
 10
519.8304253308959
 20
-813.156113525755
 30
0.0
 11
520.3263434917389
 21
-814.2855807646098
 31
0.0
  0
LINE
  5
2828
330
2931
100
AcDbEntity
  8
OUTLINE
100
AcDbLine
 10
522.1519292944103
 20
-818.4434025962273
 30
0.0
 11
522.1831219647937
 21
-818.5144447601798
 31
0.0
  0
LINE
  5
2829
330
2931
100
AcDbEntity
  8
OUTLINE
100
AcDbLine
 10
522.1831219647937
 20
-818.5144447601798
 30
0.0
 11
523.1827792897673
 21
-818.5142558993574
 31
0.0
  0
LINE
  5
282A
330
2931
100
AcDbEntity
  8
OUTLINE
100
AcDbLine
 10
523.1517656921057
 20
-818.4436215784463
 30
0.0
 11
523.1827792897673
 21
-818.5142558993574
 31
0.0
  0
LINE
  5
282B
330
2931
100
AcDbEntity
  8
OUTLINE
100
AcDbLine
 10
519.8304253308015
 20
-813.1561130363444
 30
0.0
 11
511.1610571167801
 21
-813.1577508939161
 31
0.0
  0
LINE
  5
282C
330
2931
100
AcDbEntity
  8
OUTLINE
100
AcDbLine
 10
509.1610571167802
 20
-819.6104796254541
 30
0.0
 11
421.1610571167802
 21
-819.6104796254541
 31
0.0
  0
LINE
  5
282D
330
2931
100
AcDbEntity
  8
OUTLINE
100
AcDbLine
 10
509.1610571167802
 20
-819.6104796254541
 30
0.0
 11
509.1610571167802
 21
-818.6105056522897
 31
0.0
  0
LINE
  5
282E
330
2931
100
AcDbEntity
  8
OUTLINE
100
AcDbLine
 10
421.1610571167802
 20
-818.6105056522897
 30
0.0
 11
509.1610571167802
 21
-818.6105056522897
 31
0.0
  0
LINE
  5
282F
330
2931
100
AcDbEntity
  8
OUTLINE
100
AcDbLine
 10
421.1610571167802
 20
-819.6104796254541
 30
0.0
 11
421.1610571167802
 21
-818.6105056522897
 31
0.0
  0
LINE
  5
2830
330
2931
100
AcDbEntity
  8
OUTLINE
100
AcDbLine
 10
512.1610571167803
 20
-818.5235554337355
 30
0.0
 11
512.1610571167803
 21
-818.6103191998977
 31
0.0
  0
LINE
  5
2831
330
2931
100
AcDbEntity
  8
OUTLINE
100
AcDbLine
 10
523.5
 20
-818.5214132175756
 30
0.0
 11
512.1610571167803
 21
-818.5235554337355
 31
0.0
  0
LINE
  5
2832
330
2931
100
AcDbEntity
  8
OUTLINE
100
AcDbLine
 10
523.5
 20
-873.9999817415887
 30
0.0
 11
512.1610571167803
 21
-874.0021239577487
 31
0.0
  0
LINE
  5
2833
330
2931
100
AcDbEntity
  8
OUTLINE
100
AcDbLine
 10
511.1610571167801
 20
-818.5165271099798
 30
0.0
 11
523.5
 21
-818.5141959682571
 31
0.0
  0
LINE
  5
2834
330
2931
100
AcDbEntity
  8
OUTLINE
100
AcDbLine
 10
512.1610571167803
 20
-818.6103191998977
 30
0.0
 11
512.1610571167803
 21
-874.0021239577487
 31
0.0
  0
LINE
  5
2835
330
2931
100
AcDbEntity
  8
OUTLINE
100
AcDbLine
 10
512.1610571167803
 20
-818.6103191998977
 30
0.0
 11
511.1610571167801
 21
-818.6103191998977
 31
0.0
  0
LINE
  5
2836
330
2931
100
AcDbEntity
  8
OUTLINE
100
AcDbLine
 10
511.1610571167801
 20
-858.6094645788445
 30
0.0
 11
511.1610571167801
 21
-874.0021239577487
 31
0.0
  0
LINE
  5
2837
330
2931
100
AcDbEntity
  8
OUTLINE
100
AcDbLine
 10
512.1610571167803
 20
-874.0021239577487
 30
0.0
 11
511.1610571167801
 21
-874.0021239577487
 31
0.0
  0
LINE
  5
2838
330
2931
100
AcDbEntity
  8
OUTLINE
100
AcDbLine
 10
511.2022858888884
 20
-817.9257786166537
 30
0.0
 11
511.1610571167801
 21
-817.9505513621849
 31
0.0
  0
LINE
  5
2839
330
2931
100
AcDbEntity
  8
OUTLINE
100
AcDbLine
 10
511.1610571167801
 20
-818.44099539683
 30
0.0
 11
523.3403817205871
 21
-818.4436628887613
 31
0.0
  0
LINE
  5
283A
330
2931
100
AcDbEntity
  8
OUTLINE
100
AcDbLine
 10
523.3632540004473
 20
-802.4597712188789
 30
0.0
 11
523.3403817205871
 21
-818.4436628887613
 31
0.0
  0
LINE
  5
283B
330
2931
100
AcDbEntity
  8
OUTLINE
100
AcDbLine
 10
511.1610571167801
 20
-817.4420018543724
 30
0.0
 11
522.3421756125097
 21
-817.4444507211472
 31
0.0
  0
LINE
  5
283C
330
2931
100
AcDbEntity
  8
OUTLINE
100
AcDbLine
 10
522.3636183748749
 20
-802.4595522806324
 30
0.0
 11
523.3632540004473
 21
-802.4597712188789
 31
0.0
  0
LINE
  5
283D
330
2931
100
AcDbEntity
  8
OUTLINE
100
AcDbLine
 10
523.3632540004473
 20
-802.4597712188789
 30
0.0
 11
502.229073166276
 21
-767.286587680288
 31
0.0
  0
LINE
  5
283E
330
2931
100
AcDbEntity
  8
OUTLINE
100
AcDbLine
 10
501.2294375407072
 20
-780.9774368152467
 30
0.0
 11
519.7654897479369
 21
-813.1561253042786
 31
0.0
  0
LINE
  5
283F
330
2931
100
AcDbEntity
  8
OUTLINE
100
AcDbLine
 10
520.4442490536494
 20
-814.285770490231
 30
0.0
 11
522.3421756125097
 21
-817.4444507211472
 31
0.0
  0
LINE
  5
2840
330
2931
100
AcDbEntity
  8
OUTLINE
100
AcDbLine
 10
522.3421756125097
 20
-817.4444507211472
 30
0.0
 11
522.3636183748749
 21
-802.4595522806324
 31
0.0
  0
LINE
  5
2841
330
2931
100
AcDbEntity
  8
OUTLINE
100
AcDbLine
 10
501.2294375407072
 20
-767.2863687420422
 30
0.0
 11
522.3636183748749
 21
-802.4595522806324
 31
0.0
  0
LINE
  5
2842
330
2931
100
AcDbEntity
  8
OUTLINE
100
AcDbLine
 10
502.229073166276
 20
-767.286587680288
 30
0.0
 11
501.2294375407072
 21
-767.2863687420422
 31
0.0
  0
LINE
  5
2843
330
2931
100
AcDbEntity
  8
OUTLINE
100
AcDbLine
 10
502.1675414063357
 20
-766.9966233286824
 30
0.0
 11
502.1675414063357
 21
-766.9442873724392
 31
0.0
  0
LINE
  5
2844
330
2931
100
AcDbEntity
  8
OUTLINE
100
AcDbLine
 10
502.1675414063357
 20
-766.9442873724392
 30
0.0
 11
480.7747522759017
 21
-766.9442873724392
 31
0.0
  0
LINE
  5
2845
330
2931
100
AcDbEntity
  8
OUTLINE
100
AcDbLine
 10
489.1579760924724
 20
-780.9774368152467
 30
0.0
 11
501.2294375407072
 21
-780.9774368152467
 31
0.0
  0
LINE
  5
2846
330
2931
100
AcDbEntity
  8
OUTLINE
100
AcDbLine
 10
502.1675414063357
 20
-767.2865742037219
 30
0.0
 11
502.1675414063357
 21
-766.9966233286824
 31
0.0
  0
LINE
  5
2847
330
2931
100
AcDbEntity
  8
OUTLINE
100
AcDbLine
 10
480.8060171061223
 20
-766.9966233286824
 30
0.0
 11
502.1675414063357
 21
-766.9966233286824
 31
0.0
  0
LINE
  5
2848
330
2931
100
AcDbEntity
  8
OUTLINE
100
AcDbLine
 10
502.0772332112428
 20
-802.5998073055212
 30
0.0
 11
434.8115498952902
 21
-690.0
 31
0.0
  0
LINE
  5
2849
330
2931
100
AcDbEntity
  8
OUTLINE
100
AcDbLine
 10
511.1610571167801
 20
-807.6107919474889
 30
0.0
 11
511.1610571167801
 21
-818.6105056522904
 31
0.0
  0
LINE
  5
284A
330
2931
100
AcDbEntity
  8
OUTLINE
100
AcDbLine
 10
506.1610571167766
 20
-802.6109220816691
 30
0.0
 11
506.1610571167766
 21
-802.6037073055212
 31
0.0
  0
LINE
  5
284B
330
2931
100
AcDbEntity
  8
OUTLINE
100
AcDbLine
 10
511.1610571167801
 20
-807.6107919474889
 30
0.0
 11
506.1610571167766
 21
-802.6109220816691
 31
0.0
  0
LINE
  5
284C
330
2931
100
AcDbEntity
  8
OUTLINE
100
AcDbLine
 10
511.1610571167801
 20
-807.6035771713405
 30
0.0
 11
511.1610571167801
 21
-807.6107919474889
 31
0.0
  0
LINE
  5
284D
330
2931
100
AcDbEntity
  8
OUTLINE
100
AcDbLine
 10
506.1610571167766
 20
-802.6037073055212
 30
0.0
 11
511.1610571167801
 21
-807.6035771713405
 31
0.0
  0
LINE
  5
284E
330
2931
100
AcDbEntity
  8
OUTLINE
100
AcDbLine
 10
510.1610571167766
 20
-858.6094645788445
 30
0.0
 11
511.1610571167766
 21
-858.6094645788445
 31
0.0
  0
LINE
  5
284F
330
2931
100
AcDbEntity
  8
OUTLINE
100
AcDbLine
 10
421.1610571167765
 20
-819.6104796254541
 30
0.0
 11
510.1610571167766
 21
-858.6094645788445
 31
0.0
  0
LINE
  5
2850
330
2931
100
AcDbEntity
  8
OUTLINE
100
AcDbLine
 10
421.1610571167765
 20
-818.6105056522897
 30
0.0
 11
421.1610571167765
 21
-819.6104796254541
 31
0.0
  0
LINE
  5
2851
330
2931
100
AcDbEntity
  8
OUTLINE
100
AcDbLine
 10
511.1610571167766
 20
-818.6105056522897
 30
0.0
 11
421.1610571167765
 21
-818.6105056522897
 31
0.0
  0
LINE
  5
2852
330
2931
100
AcDbEntity
  8
OUTLINE
100
AcDbLine
 10
511.1610571167766
 20
-858.6094645788445
 30
0.0
 11
511.1610571167766
 21
-818.6105056522897
 31
0.0
  0
LINE
  5
2853
330
2931
100
AcDbEntity
  8
OUTLINE
100
AcDbLine
 10
523.5
 20
-818.5141959682571
 30
0.0
 11
523.5
 21
-873.9999817415887
 31
0.0
  0
LINE
  5
2854
330
2931
100
AcDbEntity
  8
OUTLINE
100
AcDbLine
 10
501.2294375407072
 20
-767.2863687420422
 30
0.0
 11
501.2294375407072
 21
-780.9774368152467
 31
0.0
  0
LINE
  5
2855
330
2931
100
AcDbEntity
  8
DETAIL
100
AcDbLine
 10
-418.5
 20
-418.4999999999995
 30
0.0
 11
418.5
 21
-418.4999999999995
 31
0.0
  0
LINE
  5
2856
330
2931
100
AcDbEntity
  8
DETAIL
100
AcDbLine
 10
418.5
 20
-418.4999999999995
 30
0.0
 11
418.5
 21
418.5000000000004
 31
0.0
  0
LINE
  5
2857
330
2931
100
AcDbEntity
  8
DETAIL
100
AcDbLine
 10
-418.5
 20
418.5
 30
0.0
 11
-418.5
 21
-418.4999999999995
 31
0.0
  0
LINE
  5
2858
330
2931
100
AcDbEntity
  8
DETAIL
100
AcDbLine
 10
418.5
 20
418.5000000000004
 30
0.0
 11
-418.5
 21
418.5
 31
0.0
  0
LINE
  5
2859
330
2931
100
AcDbEntity
  8
OUTLINE
100
AcDbLine
 10
-418.5
 20
-418.4999999999995
 30
0.0
 11
418.5
 21
-418.4999999999995
 31
0.0
  0
LINE
  5
285A
330
2931
100
AcDbEntity
  8
OUTLINE
100
AcDbLine
 10
418.5
 20
-418.4999999999995
 30
0.0
 11
418.5
 21
418.5000000000004
 31
0.0
  0
LINE
  5
285B
330
2931
100
AcDbEntity
  8
OUTLINE
100
AcDbLine
 10
-418.5
 20
418.5
 30
0.0
 11
-418.5
 21
-418.4999999999995
 31
0.0
  0
LINE
  5
285C
330
2931
100
AcDbEntity
  8
OUTLINE
100
AcDbLine
 10
418.5
 20
418.5000000000004
 30
0.0
 11
-418.5
 21
418.5
 31
0.0
  0
LINE
  5
285D
330
2931
100
AcDbEntity
  8
SIZE
100
AcDbLine
 10
-250.0
 20
482.5000000000003
 30
0.0
 11
-250.0
 21
684.879453317868
 31
0.0
  0
LINE
  5
285E
330
2931
100
AcDbEntity
  8
SIZE
100
AcDbLine
 10
250.0
 20
482.5000000000003
 30
0.0
 11
250.0
 21
684.879453317868
 31
0.0
  0
LINE
  5
285F
330
2931
100
AcDbEntity
  8
SIZE
100
AcDbLine
 10
-238.0
 20
664.879453317868
 30
0.0
 11
238.0
 21
664.879453317868
 31
0.0
  0
INSERT
  5
2860
330
2931
100
AcDbEntity
  8
SIZE
100
AcDbBlockReference
  2
_DOTBLANK
 10
-250.0
 20
664.879453317868
 30
0.0
 41
12.0
 42
12.0
 43
12.0
 50
180.0
  0
INSERT
  5
2861
330
2931
100
AcDbEntity
  8
SIZE
100
AcDbBlockReference
  2
_DOTBLANK
 10
250.0
 20
664.879453317868
 30
0.0
 41
12.0
 42
12.0
 43
12.0
  0
LINE
  5
2862
330
2931
100
AcDbEntity
  8
SIZE
100
AcDbLine
 10
-200.0
 20
482.5000000000003
 30
0.0
 11
-200.0
 21
583.4575791701507
 31
0.0
  0
LINE
  5
2863
330
2931
100
AcDbEntity
  8
SIZE
100
AcDbLine
 10
200.0
 20
482.5000000000003
 30
0.0
 11
200.0
 21
583.4575791701507
 31
0.0
  0
LINE
  5
2864
330
2931
100
AcDbEntity
  8
SIZE
100
AcDbLine
 10
-188.0
 20
563.4575791701507
 30
0.0
 11
188.0
 21
563.4575791701507
 31
0.0
  0
INSERT
  5
2865
330
2931
100
AcDbEntity
  8
SIZE
100
AcDbBlockReference
  2
_DOTBLANK
 10
-200.0
 20
563.4575791701507
 30
0.0
 41
12.0
 42
12.0
 43
12.0
 50
180.0
  0
INSERT
  5
2866
330
2931
100
AcDbEntity
  8
SIZE
100
AcDbBlockReference
  2
_DOTBLANK
 10
200.0
 20
563.4575791701507
 30
0.0
 41
12.0
 42
12.0
 43
12.0
  0
LINE
  5
2867
330
2931
100
AcDbEntity
  8
SIZE
100
AcDbLine
 10
-475.0
 20
495.0
 30
0.0
 11
-475.0
 21
897.1129105188438
 31
0.0
  0
LINE
  5
2868
330
2931
100
AcDbEntity
  8
SIZE
100
AcDbLine
 10
475.0
 20
495.0
 30
0.0
 11
475.0
 21
897.1129105188438
 31
0.0
  0
LINE
  5
2869
330
2931
100
AcDbEntity
  8
SIZE
100
AcDbLine
 10
-463.0
 20
877.1129105188435
 30
0.0
 11
463.0
 21
877.1129105188435
 31
0.0
  0
INSERT
  5
286A
330
2931
100
AcDbEntity
  8
SIZE
100
AcDbBlockReference
  2
_DOTBLANK
 10
-475.0
 20
877.1129105188435
 30
0.0
 41
12.0
 42
12.0
 43
12.0
 50
180.0
  0
INSERT
  5
286B
330
2931
100
AcDbEntity
  8
SIZE
100
AcDbBlockReference
  2
_DOTBLANK
 10
475.0
 20
877.1129105188435
 30
0.0
 41
12.0
 42
12.0
 43
12.0
  0
LINE
  5
286C
330
2931
100
AcDbEntity
  8
SIZE
100
AcDbLine
 10
450.0
 20
482.5000000000003
 30
0.0
 11
450.0
 21
791.2903994110554
 31
0.0
  0
LINE
  5
286D
330
2931
100
AcDbEntity
  8
SIZE
100
AcDbLine
 10
-450.0
 20
482.5
 30
0.0
 11
-450.0
 21
791.2903994110554
 31
0.0
  0
LINE
  5
286E
330
2931
100
AcDbEntity
  8
SIZE
100
AcDbLine
 10
438.0
 20
771.2903994110554
 30
0.0
 11
-438.0
 21
771.2903994110554
 31
0.0
  0
INSERT
  5
286F
330
2931
100
AcDbEntity
  8
SIZE
100
AcDbBlockReference
  2
_DOTBLANK
 10
450.0
 20
771.2903994110554
 30
0.0
 41
12.0
 42
12.0
 43
12.0
  0
INSERT
  5
2870
330
2931
100
AcDbEntity
  8
SIZE
100
AcDbBlockReference
  2
_DOTBLANK
 10
-450.0
 20
771.2903994110554
 30
0.0
 41
12.0
 42
12.0
 43
12.0
 50
180.0
  0
TEXT
  5
2871
330
2931
100
AcDbEntity
  8
ETC
100
AcDbText
 10
923.3006228938862
 20
1000.320782247022
 30
0.0
 40
64.0
  1
QW-80SDB_3
 41
0.9
100
AcDbText
  0
TEXT
  5
2872
330
2931
100
AcDbEntity
  8
ETC
100
AcDbText
 10
915.6206228938865
 20
893.6541155803551
 30
0.0
 40
64.0
  1
システム部材
 41
0.9
100
AcDbText
  0
TEXT
  5
2873
330
2931
100
AcDbEntity
  8
ETC
100
AcDbText
 10
923.3006228938862
 20
786.9874489136884
 30
0.0
 40
64.0
  1
QW-80SDB
 41
0.9
100
AcDbText
  0
LINE
  5
2874
330
2931
100
AcDbEntity
  8
SIZE
100
AcDbLine
 10
-495.0
 20
475.0
 30
0.0
 11
-1095.915024939721
 21
475.0
 31
0.0
  0
LINE
  5
2875
330
2931
100
AcDbEntity
  8
SIZE
100
AcDbLine
 10
-543.5000000000036
 20
-873.9999817415887
 30
0.0
 11
-1095.915024939721
 21
-873.9999817415887
 31
0.0
  0
LINE
  5
2876
330
2931
100
AcDbEntity
  8
SIZE
100
AcDbLine
 10
-1075.91502493972
 20
463.0
 30
0.0
 11
-1075.915024939721
 21
-861.9999817415886
 31
0.0
  0
INSERT
  5
2877
330
2931
100
AcDbEntity
  8
SIZE
100
AcDbBlockReference
  2
_DOTBLANK
 10
-1075.91502493972
 20
475.0
 30
0.0
 41
12.0
 42
12.0
 43
12.0
 50
90.0
  0
INSERT
  5
2878
330
2931
100
AcDbEntity
  8
SIZE
100
AcDbBlockReference
  2
_DOTBLANK
 10
-1075.915024939721
 20
-873.9999817415887
 30
0.0
 41
12.0
 42
12.0
 43
12.0
 50
270.0
  0
LINE
  5
2879
330
2931
100
AcDbEntity
  8
SIZE
100
AcDbLine
 10
-482.5
 20
250.0
 30
0.0
 11
-684.5095905096457
 21
250.0
 31
0.0
  0
LINE
  5
287A
330
2931
100
AcDbEntity
  8
SIZE
100
AcDbLine
 10
-482.5
 20
-250.0
 30
0.0
 11
-684.5095905096457
 21
-250.0
 31
0.0
  0
LINE
  5
287B
330
2931
100
AcDbEntity
  8
SIZE
100
AcDbLine
 10
-664.5095905096458
 20
238.0
 30
0.0
 11
-664.5095905096458
 21
-238.0
 31
0.0
  0
INSERT
  5
287C
330
2931
100
AcDbEntity
  8
SIZE
100
AcDbBlockReference
  2
_DOTBLANK
 10
-664.5095905096458
 20
250.0
 30
0.0
 41
12.0
 42
12.0
 43
12.0
 50
90.0
  0
INSERT
  5
287D
330
2931
100
AcDbEntity
  8
SIZE
100
AcDbBlockReference
  2
_DOTBLANK
 10
-664.5095905096458
 20
-250.0
 30
0.0
 41
12.0
 42
12.0
 43
12.0
 50
270.0
  0
LINE
  5
287E
330
2931
100
AcDbEntity
  8
SIZE
100
AcDbLine
 10
-482.5
 20
200.0
 30
0.0
 11
-571.8999154471385
 21
200.0
 31
0.0
  0
LINE
  5
287F
330
2931
100
AcDbEntity
  8
SIZE
100
AcDbLine
 10
-482.5
 20
-199.9999999999994
 30
0.0
 11
-571.8999154471385
 21
-199.9999999999994
 31
0.0
  0
LINE
  5
2880
330
2931
100
AcDbEntity
  8
SIZE
100
AcDbLine
 10
-551.8999154471385
 20
188.0
 30
0.0
 11
-551.8999154471385
 21
-187.9999999999994
 31
0.0
  0
INSERT
  5
2881
330
2931
100
AcDbEntity
  8
SIZE
100
AcDbBlockReference
  2
_DOTBLANK
 10
-551.8999154471385
 20
200.0
 30
0.0
 41
12.0
 42
12.0
 43
12.0
 50
90.0
  0
INSERT
  5
2882
330
2931
100
AcDbEntity
  8
SIZE
100
AcDbBlockReference
  2
_DOTBLANK
 10
-551.8999154471385
 20
-199.9999999999994
 30
0.0
 41
12.0
 42
12.0
 43
12.0
 50
270.0
  0
LINE
  5
2883
330
2931
100
AcDbEntity
  8
SIZE
100
AcDbLine
 10
-495.0
 20
475.0
 30
0.0
 11
-961.0790228103578
 21
475.0
 31
0.0
  0
LINE
  5
2884
330
2931
100
AcDbEntity
  8
SIZE
100
AcDbLine
 10
-495.0
 20
-475.0
 30
0.0
 11
-961.079022810358
 21
-474.9999999999998
 31
0.0
  0
LINE
  5
2885
330
2931
100
AcDbEntity
  8
SIZE
100
AcDbLine
 10
-941.0790228103577
 20
463.0
 30
0.0
 11
-941.0790228103579
 21
-462.9999999999998
 31
0.0
  0
INSERT
  5
2886
330
2931
100
AcDbEntity
  8
SIZE
100
AcDbBlockReference
  2
_DOTBLANK
 10
-941.0790228103577
 20
475.0
 30
0.0
 41
12.0
 42
12.0
 43
12.0
 50
90.0
  0
INSERT
  5
2887
330
2931
100
AcDbEntity
  8
SIZE
100
AcDbBlockReference
  2
_DOTBLANK
 10
-941.0790228103579
 20
-474.9999999999998
 30
0.0
 41
12.0
 42
12.0
 43
12.0
 50
270.0
  0
LINE
  5
2888
330
2931
100
AcDbEntity
  8
SIZE
100
AcDbLine
 10
-482.5
 20
450.0
 30
0.0
 11
-819.7661684956909
 21
450.0
 31
0.0
  0
LINE
  5
2889
330
2931
100
AcDbEntity
  8
SIZE
100
AcDbLine
 10
-482.5
 20
-450.0
 30
0.0
 11
-819.7661684956909
 21
-450.0
 31
0.0
  0
LINE
  5
288A
330
2931
100
AcDbEntity
  8
SIZE
100
AcDbLine
 10
-799.7661684956904
 20
438.0
 30
0.0
 11
-799.7661684956908
 21
-437.9999999999999
 31
0.0
  0
INSERT
  5
288B
330
2931
100
AcDbEntity
  8
SIZE
100
AcDbBlockReference
  2
_DOTBLANK
 10
-799.7661684956904
 20
450.0
 30
0.0
 41
12.0
 42
12.0
 43
12.0
 50
90.0
  0
INSERT
  5
288C
330
2931
100
AcDbEntity
  8
SIZE
100
AcDbBlockReference
  2
_DOTBLANK
 10
-799.7661684956908
 20
-450.0
 30
0.0
 41
12.0
 42
12.0
 43
12.0
 50
270.0
  0
LINE
  5
288D
330
2931
100
AcDbEntity
  8
SIZE
100
AcDbLine
 10
438.4999999999999
 20
418.5000000000004
 30
0.0
 11
673.9013283067325
 21
418.5000000000004
 31
0.0
  0
LINE
  5
288E
330
2931
100
AcDbEntity
  8
SIZE
100
AcDbLine
 10
438.4999999999999
 20
-418.4999999999995
 30
0.0
 11
673.9013283067325
 21
-418.4999999999995
 31
0.0
  0
LINE
  5
288F
330
2931
100
AcDbEntity
  8
SIZE
100
AcDbLine
 10
653.9013283067323
 20
406.5000000000002
 30
0.0
 11
653.9013283067323
 21
-406.4999999999995
 31
0.0
  0
INSERT
  5
2890
330
2931
100
AcDbEntity
  8
SIZE
100
AcDbBlockReference
  2
_DOTBLANK
 10
653.9013283067323
 20
418.5000000000004
 30
0.0
 41
12.0
 42
12.0
 43
12.0
 50
90.0
  0
INSERT
  5
2891
330
2931
100
AcDbEntity
  8
SIZE
100
AcDbBlockReference
  2
_DOTBLANK
 10
653.9013283067323
 20
-418.4999999999995
 30
0.0
 41
12.0
 42
12.0
 43
12.0
 50
270.0
  0
LINE
  5
2892
330
2931
100
AcDbEntity
  8
SIZE
100
AcDbLine
 10
-523.5000000000036
 20
-893.9960817415888
 30
0.0
 11
-523.5000000000036
 21
-1034.57199431229
 31
0.0
  0
LINE
  5
2893
330
2931
100
AcDbEntity
  8
SIZE
100
AcDbLine
 10
523.5
 20
-893.9960817415888
 30
0.0
 11
523.5
 21
-1034.57199431229
 31
0.0
  0
LINE
  5
2894
330
2931
100
AcDbEntity
  8
SIZE
100
AcDbLine
 10
-511.5000000000036
 20
-1014.57199431229
 30
0.0
 11
511.5
 21
-1014.57199431229
 31
0.0
  0
INSERT
  5
2895
330
2931
100
AcDbEntity
  8
SIZE
100
AcDbBlockReference
  2
_DOTBLANK
 10
-523.5000000000036
 20
-1014.57199431229
 30
0.0
 41
12.0
 42
12.0
 43
12.0
 50
180.0
  0
INSERT
  5
2896
330
2931
100
AcDbEntity
  8
SIZE
100
AcDbBlockReference
  2
_DOTBLANK
 10
523.5
 20
-1014.57199431229
 30
0.0
 41
12.0
 42
12.0
 43
12.0
  0
TEXT
  5
2897
330
2931
100
AcDbEntity
  8
SIZE
100
AcDbText
 10
-74.05714285714293
 20
887.1129105188432
 30
0.0
 40
64.0
  1
950
 41
0.9
100
AcDbText
  0
TEXT
  5
2898
330
2931
100
AcDbEntity
  8
SIZE
100
AcDbText
 10
-74.05714285714293
 20
781.2903994110554
 30
0.0
 40
64.0
  1
900
 41
0.9
100
AcDbText
  0
TEXT
  5
2899
330
2931
100
AcDbEntity
  8
SIZE
100
AcDbText
 10
-74.05714285714293
 20
674.879453317868
 30
0.0
 40
64.0
  1
500
 41
0.9
100
AcDbText
  0
TEXT
  5
289A
330
2931
100
AcDbEntity
  8
SIZE
100
AcDbText
 10
-74.05714285714293
 20
573.4575791701509
 30
0.0
 40
64.0
  1
400
 41
0.9
100
AcDbText
  0
TEXT
  5
289B
330
2931
100
AcDbEntity
  8
SIZE
100
AcDbText
 10
-561.8999154471383
 20
-74.05714285714272
 30
0.0
 40
64.0
  1
400
 50
90.0
 41
0.9
100
AcDbText
  0
TEXT
  5
289C
330
2931
100
AcDbEntity
  8
SIZE
100
AcDbText
 10
-674.5095905096458
 20
-74.05714285714293
 30
0.0
 40
64.0
  1
500
 50
90.0
 41
0.9
100
AcDbText
  0
TEXT
  5
289D
330
2931
100
AcDbEntity
  8
SIZE
100
AcDbText
 10
-809.7661684956912
 20
-74.05714285714281
 30
0.0
 40
64.0
  1
900
 50
90.0
 41
0.9
100
AcDbText
  0
TEXT
  5
289E
330
2931
100
AcDbEntity
  8
SIZE
100
AcDbText
 10
-951.079022810358
 20
-74.05714285714281
 30
0.0
 40
64.0
  1
950
 50
90.0
 41
0.9
100
AcDbText
  0
TEXT
  5
289F
330
2931
100
AcDbEntity
  8
SIZE
100
AcDbText
 10
-1085.915024939721
 20
-349.1794502657204
 30
0.0
 40
64.0
  1
1349
 50
90.0
 41
0.9
100
AcDbText
  0
TEXT
  5
28A0
330
2931
100
AcDbEntity
  8
SIZE
100
AcDbText
 10
643.9013283067325
 20
-110.5371428571422
 30
0.0
 40
64.0
  1
□837
 50
90.0
 41
0.9
100
AcDbText
  0
TEXT
  5
28A1
330
2931
100
AcDbEntity
  8
SIZE
100
AcDbText
 10
-96.00000000000179
 20
-1004.57199431229
 30
0.0
 40
64.0
  1
1047
 41
0.9
100
AcDbText
  0
ENDSEC
  0
SECTION
  2
OBJECTS
  0
DICTIONARY
  5
28C9
330
0
100
AcDbDictionary
281
     1
  3
ACAD_2007HEADERVARS_RT
350
2B0F
  3
ACAD_COLOR
350
2927
  3
ACAD_GROUP
350
28CA
  3
ACAD_LAYOUT
350
2926
  3
ACAD_MATERIAL
350
28CD
  3
ACAD_MLEADERSTYLE
350
292A
  3
ACAD_MLINESTYLE
350
2923
  3
ACAD_PLOTSETTINGS
350
2925
  3
ACAD_PLOTSTYLENAME
350
28CB
  3
ACAD_SCALELIST
350
28F7
  3
ACAD_TABLESTYLE
350
2928
  3
ACAD_VISUALSTYLE
350
28E6
  3
ACDB_RECOMPOSE_DATA
350
2B0D
  3
AcDbVariableDictionary
350
2B04
  3
AcmDictionary
350
2AB7
  3
AMG
350
2A04
  3
DWGPROPS
350
2B0E
  3
MAPISURF_MODULE
350
2A84
  0
DICTIONARY
  5
2ADF
330
2919
100
AcDbDictionary
280
     1
281
     1
  3
ADSK_XREC_LAYER_RECONCILED
360
2AE0
  0
DICTIONARY
  5
2AE1
330
2948
100
AcDbDictionary
280
     1
281
     1
  3
ADSK_XREC_LAYER_RECONCILED
360
2AE2
  0
DICTIONARY
  5
2AE3
330
2949
100
AcDbDictionary
280
     1
281
     1
  3
ADSK_XREC_LAYER_RECONCILED
360
2AE4
  0
DICTIONARY
  5
2AE5
330
294A
100
AcDbDictionary
280
     1
281
     1
  3
ADSK_XREC_LAYER_RECONCILED
360
2AE6
  0
DICTIONARY
  5
2AE7
330
294B
100
AcDbDictionary
280
     1
281
     1
  3
ADSK_XREC_LAYER_RECONCILED
360
2AE8
  0
DICTIONARY
  5
2AE9
330
294C
100
AcDbDictionary
280
     1
281
     1
  3
ADSK_XREC_LAYER_RECONCILED
360
2AEA
  0
DICTIONARY
  5
2AEB
330
294E
100
AcDbDictionary
280
     1
281
     1
  3
ADSK_XREC_LAYER_RECONCILED
360
2AEC
  0
DICTIONARY
  5
2AED
330
294F
100
AcDbDictionary
280
     1
281
     1
  3
ADSK_XREC_LAYER_RECONCILED
360
2AEE
  0
DICTIONARY
  5
2AEF
330
2950
100
AcDbDictionary
280
     1
281
     1
  3
ADSK_XREC_LAYER_RECONCILED
360
2AF0
  0
DICTIONARY
  5
2AF1
330
2951
100
AcDbDictionary
280
     1
281
     1
  3
ADSK_XREC_LAYER_RECONCILED
360
2AF2
  0
DICTIONARY
  5
2AF3
330
2952
100
AcDbDictionary
280
     1
281
     1
  3
ADSK_XREC_LAYER_RECONCILED
360
2AF4
  0
DICTIONARY
  5
2AF5
330
2931
100
AcDbDictionary
280
     1
281
     1
  3
ACAD_INDEX
360
2AF6
  0
DICTIONARY
  5
2B0F
102
{ACAD_REACTORS
330
28C9
102
}
330
28C9
100
AcDbDictionary
281
     1
  3
DIMARCSYM
350
2B10
  3
DIMLTEX1
350
2B12
  3
DIMLTEX2
350
2B13
  3
DIMLTYPE
350
2B11
  0
DICTIONARY
  5
2927
102
{ACAD_REACTORS
330
28C9
102
}
330
28C9
100
AcDbDictionary
281
     1
  0
DICTIONARY
  5
28CA
102
{ACAD_REACTORS
330
28C9
102
}
330
28C9
100
AcDbDictionary
281
     1
  0
DICTIONARY
  5
2926
102
{ACAD_REACTORS
330
28C9
102
}
330
28C9
100
AcDbDictionary
281
     1
  3
Model
350
2934
  3
レイアウト1
350
2930
  0
DICTIONARY
  5
28CD
102
{ACAD_REACTORS
330
28C9
102
}
330
28C9
100
AcDbDictionary
281
     1
  3
ByBlock
350
28D6
  3
ByLayer
350
28CE
  3
Global
350
28DE
  0
DICTIONARY
  5
292A
102
{ACAD_REACTORS
330
28C9
102
}
330
28C9
100
AcDbDictionary
281
     1
  3
Standard
350
292B
  0
DICTIONARY
  5
2923
102
{ACAD_REACTORS
330
28C9
102
}
330
28C9
100
AcDbDictionary
281
     1
  3
Standard
350
2924
  0
DICTIONARY
  5
2925
102
{ACAD_REACTORS
330
28C9
102
}
330
28C9
100
AcDbDictionary
281
     1
  0
ACDBDICTIONARYWDFLT
  5
28CB
102
{ACAD_REACTORS
330
28C9
102
}
330
28C9
100
AcDbDictionary
281
     1
  3
Normal
350
28CC
100
AcDbDictionaryWithDefault
340
28CC
  0
DICTIONARY
  5
28F7
102
{ACAD_REACTORS
330
28C9
102
}
330
28C9
100
AcDbDictionary
281
     1
  3
A0
350
28F8
  3
A1
350
28F9
  3
A2
350
28FA
  3
A3
350
28FB
  3
A4
350
28FC
  3
A5
350
28FD
  3
A6
350
28FE
  3
A7
350
28FF
  3
A8
350
2900
  3
A9
350
2901
  3
B0
350
2902
  3
B1
350
2903
  3
B2
350
2904
  3
B3
350
2905
  3
B4
350
2906
  3
B5
350
2907
  3
B6
350
2908
  3
B7
350
2909
  3
B8
350
290A
  3
B9
350
290B
  3
C0
350
290C
  3
C1
350
290D
  3
C2
350
290E
  3
C3
350
290F
  3
C4
350
2910
  3
C5
350
2911
  3
C6
350
2912
  3
C7
350
2913
  3
C8
350
2914
  3
C9
350
2915
  3
D0
350
2916
  3
D1
350
2917
  3
D2
350
2918
  0
DICTIONARY
  5
2928
102
{ACAD_REACTORS
330
28C9
102
}
330
28C9
100
AcDbDictionary
281
     1
  3
Standard
350
2929
  0
DICTIONARY
  5
28E6
102
{ACAD_REACTORS
330
28C9
102
}
330
28C9
100
AcDbDictionary
281
     1
  3
2dWireframe
350
28EC
  3
3D Hidden
350
28EE
  3
3dWireframe
350
28ED
  3
Basic
350
28EB
  3
Brighten
350
28F2
  3
ColorChange
350
28F6
  3
Conceptual
350
28EF
  3
Dim
350
28F1
  3
Facepattern
350
28F5
  3
Flat
350
28E7
  3
FlatWithEdges
350
28E8
  3
Gouraud
350
28E9
  3
GouraudWithEdges
350
28EA
  3
Linepattern
350
28F4
  3
Realistic
350
28F0
  3
Thicken
350
28F3
  0
XRECORD
  5
2B0D
102
{ACAD_REACTORS
330
28C9
102
}
330
28C9
100
AcDbXrecord
280
     1
 90
        1
330
2929
  0
DICTIONARY
  5
2B04
102
{ACAD_REACTORS
330
28C9
102
}
330
28C9
100
AcDbDictionary
281
     1
  3
CANNOSCALE
350
2B07
  3
CMLEADERSTYLE
350
2B06
  3
CTABLESTYLE
350
2B05
  3
DIMASSOC
350
2B0A
  3
INDEXCTL
350
2B09
  3
SORTENTS
350
2B08
  0
DICTIONARY
  5
2AB7
102
{ACAD_REACTORS
330
28C9
102
}
330
28C9
100
AcDbDictionary
281
     1
  3
AcmStdDictionary
350
2AC5
  0
DICTIONARY
  5
2A04
102
{ACAD_REACTORS
330
28C9
102
}
330
28C9
100
AcDbDictionary
281
     1
  3
AcMgSettings
350
2A05
  0
XRECORD
  5
2B0E
102
{ACAD_REACTORS
330
28C9
102
}
330
28C9
100
AcDbXrecord
280
     1
  1
DWGPROPS COOKIE
  2

  3

  4

  6

  7

  8
A090053
  9

300
AmdtFileType=84
301
=
302
=
303
=
304
=
305
=
306
=
307
=
308
=
309
=
 40
1.03964625
 41
2452321.396199653
 42
2456212.855072396
  1

 90
        1
  0
XRECORD
  5
2AE0
102
{ACAD_REACTORS
330
2ADF
102
}
330
2ADF
100
AcDbXrecord
280
     1
290
     1
  0
XRECORD
  5
2AE2
102
{ACAD_REACTORS
330
2AE1
102
}
330
2AE1
100
AcDbXrecord
280
     1
290
     1
  0
XRECORD
  5
2AE4
102
{ACAD_REACTORS
330
2AE3
102
}
330
2AE3
100
AcDbXrecord
280
     1
290
     1
  0
XRECORD
  5
2AE6
102
{ACAD_REACTORS
330
2AE5
102
}
330
2AE5
100
AcDbXrecord
280
     1
290
     1
  0
XRECORD
  5
2AE8
102
{ACAD_REACTORS
330
2AE7
102
}
330
2AE7
100
AcDbXrecord
280
     1
290
     1
  0
XRECORD
  5
2AEA
102
{ACAD_REACTORS
330
2AE9
102
}
330
2AE9
100
AcDbXrecord
280
     1
290
     1
  0
XRECORD
  5
2AEC
102
{ACAD_REACTORS
330
2AEB
102
}
330
2AEB
100
AcDbXrecord
280
     1
290
     1
  0
XRECORD
  5
2AEE
102
{ACAD_REACTORS
330
2AED
102
}
330
2AED
100
AcDbXrecord
280
     1
290
     1
  0
XRECORD
  5
2AF0
102
{ACAD_REACTORS
330
2AEF
102
}
330
2AEF
100
AcDbXrecord
280
     1
290
     1
  0
XRECORD
  5
2AF2
102
{ACAD_REACTORS
330
2AF1
102
}
330
2AF1
100
AcDbXrecord
280
     1
290
     1
  0
XRECORD
  5
2AF4
102
{ACAD_REACTORS
330
2AF3
102
}
330
2AF3
100
AcDbXrecord
280
     1
290
     1
  0
DICTIONARY
  5
2AF6
102
{ACAD_REACTORS
330
2AF5
102
}
330
2AF5
100
AcDbDictionary
281
     1
  3
*A1
350
2AF7
  0
XRECORD
  5
2B10
102
{ACAD_REACTORS
330
2B0F
102
}
330
2B0F
100
AcDbXrecord
280
     1
 70
     1
  0
XRECORD
  5
2B12
102
{ACAD_REACTORS
330
2B0F
102
}
330
2B0F
100
AcDbXrecord
280
     1
340
291F
  0
XRECORD
  5
2B13
102
{ACAD_REACTORS
330
2B0F
102
}
330
2B0F
100
AcDbXrecord
280
     1
340
291F
  0
XRECORD
  5
2B11
102
{ACAD_REACTORS
330
2B0F
102
}
330
2B0F
100
AcDbXrecord
280
     1
340
291F
  0
LAYOUT
  5
2934
102
{ACAD_XDICTIONARY
360
2B1A
102
}
102
{ACAD_REACTORS
330
2926
102
}
330
2926
100
AcDbPlotSettings
  1

  2
自動 EPSON LP-9600S (W2450527 上)
  4

  6

 40
0.0
 41
0.0
 42
0.0
 43
0.0
 44
0.0
 45
0.0
 46
0.0
 47
0.0
 48
0.0
 49
0.0
140
0.0
141
0.0
142
1.0
143
1.0
 70
  1712
 72
     0
 73
     0
 74
     0
  7

 75
     0
147
1.0
148
0.0
149
0.0
100
AcDbLayout
  1
Model
 70
     1
 71
     0
 10
0.0
 20
0.0
 11
12.0
 21
9.0
 12
0.0
 22
0.0
 32
0.0
 14
0.0
 24
0.0
 34
0.0
 15
0.0
 25
0.0
 35
0.0
146
0.0
 13
0.0
 23
0.0
 33
0.0
 16
1.0
 26
0.0
 36
0.0
 17
0.0
 27
1.0
 37
0.0
 76
     0
330
2931
331
2935
  0
LAYOUT
  5
2930
102
{ACAD_XDICTIONARY
360
2B18
102
}
102
{ACAD_REACTORS
330
2926
102
}
330
2926
100
AcDbPlotSettings
  1

  2
自動 EPSON LP-9600S (W2450527 上)
  4

  6

 40
0.0
 41
0.0
 42
0.0
 43
0.0
 44
0.0
 45
0.0
 46
0.0
 47
0.0
 48
0.0
 49
0.0
140
0.0
141
0.0
142
1.0
143
1.0
 70
   688
 72
     0
 73
     0
 74
     5
  7

 75
    16
147
1.0
148
0.0
149
0.0
100
AcDbLayout
  1
レイアウト1
 70
     1
 71
     1
 10
0.0
 20
0.0
 11
12.0
 21
9.0
 12
0.0
 22
0.0
 32
0.0
 14
1.000000000000000E+20
 24
1.000000000000000E+20
 34
1.000000000000000E+20
 15
-1.000000000000000E+20
 25
-1.000000000000000E+20
 35
-1.000000000000000E+20
146
0.0
 13
0.0
 23
0.0
 33
0.0
 16
1.0
 26
0.0
 36
0.0
 17
0.0
 27
1.0
 37
0.0
 76
     0
330
292D
  0
MATERIAL
  5
28D6
102
{ACAD_XDICTIONARY
360
28D7
102
}
102
{ACAD_REACTORS
330
28CD
102
}
330
28CD
100
AcDbMaterial
  1
ByBlock
 72
     0
 43
0.0208333333333333
 43
0.0
 43
0.0
 43
0.0
 43
0.0
 43
0.0208333333333333
 43
0.0
 43
0.0
 43
0.0
 43
0.0
 43
1.0
 43
0.0
 43
0.0
 43
0.0
 43
0.0
 43
1.0
 77
     0
 47
0.0208333333333333
 47
0.0
 47
0.0
 47
0.0
 47
0.0
 47
0.0208333333333333
 47
0.0
 47
0.0
 47
0.0
 47
0.0
 47
1.0
 47
0.0
 47
0.0
 47
0.0
 47
0.0
 47
1.0
171
     0
 49
0.0208333333333333
 49
0.0
 49
0.0
 49
0.0
 49
0.0
 49
0.0208333333333333
 49
0.0
 49
0.0
 49
0.0
 49
0.0
 49
1.0
 49
0.0
 49
0.0
 49
0.0
 49
0.0
 49
1.0
175
     0
142
0.0208333333333333
142
0.0
142
0.0
142
0.0
142
0.0
142
0.0208333333333333
142
0.0
142
0.0
142
0.0
142
0.0
142
1.0
142
0.0
142
0.0
142
0.0
142
0.0
142
1.0
179
     0
144
0.0208333333333333
144
0.0
144
0.0
144
0.0
144
0.0
144
0.0208333333333333
144
0.0
144
0.0
144
0.0
144
0.0
144
1.0
144
0.0
144
0.0
144
0.0
144
0.0
144
1.0
147
0.0208333333333333
147
0.0
147
0.0
147
0.0
147
0.0
147
0.0208333333333333
147
0.0
147
0.0
147
0.0
147
0.0
147
1.0
147
0.0
147
0.0
147
0.0
147
0.0
147
1.0
  0
MATERIAL
  5
28CE
102
{ACAD_XDICTIONARY
360
28CF
102
}
102
{ACAD_REACTORS
330
28CD
102
}
330
28CD
100
AcDbMaterial
  1
ByLayer
 72
     0
 43
0.0208333333333333
 43
0.0
 43
0.0
 43
0.0
 43
0.0
 43
0.0208333333333333
 43
0.0
 43
0.0
 43
0.0
 43
0.0
 43
1.0
 43
0.0
 43
0.0
 43
0.0
 43
0.0
 43
1.0
 77
     0
 47
0.0208333333333333
 47
0.0
 47
0.0
 47
0.0
 47
0.0
 47
0.0208333333333333
 47
0.0
 47
0.0
 47
0.0
 47
0.0
 47
1.0
 47
0.0
 47
0.0
 47
0.0
 47
0.0
 47
1.0
171
     0
 49
0.0208333333333333
 49
0.0
 49
0.0
 49
0.0
 49
0.0
 49
0.0208333333333333
 49
0.0
 49
0.0
 49
0.0
 49
0.0
 49
1.0
 49
0.0
 49
0.0
 49
0.0
 49
0.0
 49
1.0
175
     0
142
0.0208333333333333
142
0.0
142
0.0
142
0.0
142
0.0
142
0.0208333333333333
142
0.0
142
0.0
142
0.0
142
0.0
142
1.0
142
0.0
142
0.0
142
0.0
142
0.0
142
1.0
179
     0
144
0.0208333333333333
144
0.0
144
0.0
144
0.0
144
0.0
144
0.0208333333333333
144
0.0
144
0.0
144
0.0
144
0.0
144
1.0
144
0.0
144
0.0
144
0.0
144
0.0
144
1.0
147
0.0208333333333333
147
0.0
147
0.0
147
0.0
147
0.0
147
0.0208333333333333
147
0.0
147
0.0
147
0.0
147
0.0
147
1.0
147
0.0
147
0.0
147
0.0
147
0.0
147
1.0
  0
MATERIAL
  5
28DE
102
{ACAD_XDICTIONARY
360
28DF
102
}
102
{ACAD_REACTORS
330
28CD
102
}
330
28CD
100
AcDbMaterial
  1
Global
 72
     0
 43
0.0208333333333333
 43
0.0
 43
0.0
 43
0.0
 43
0.0
 43
0.0208333333333333
 43
0.0
 43
0.0
 43
0.0
 43
0.0
 43
1.0
 43
0.0
 43
0.0
 43
0.0
 43
0.0
 43
1.0
 77
     0
 47
0.0208333333333333
 47
0.0
 47
0.0
 47
0.0
 47
0.0
 47
0.0208333333333333
 47
0.0
 47
0.0
 47
0.0
 47
0.0
 47
1.0
 47
0.0
 47
0.0
 47
0.0
 47
0.0
 47
1.0
171
     0
 49
0.0208333333333333
 49
0.0
 49
0.0
 49
0.0
 49
0.0
 49
0.0208333333333333
 49
0.0
 49
0.0
 49
0.0
 49
0.0
 49
1.0
 49
0.0
 49
0.0
 49
0.0
 49
0.0
 49
1.0
175
     0
142
0.0208333333333333
142
0.0
142
0.0
142
0.0
142
0.0
142
0.0208333333333333
142
0.0
142
0.0
142
0.0
142
0.0
142
1.0
142
0.0
142
0.0
142
0.0
142
0.0
142
1.0
179
     0
144
0.0208333333333333
144
0.0
144
0.0
144
0.0
144
0.0
144
0.0208333333333333
144
0.0
144
0.0
144
0.0
144
0.0
144
1.0
144
0.0
144
0.0
144
0.0
144
0.0
144
1.0
147
0.0208333333333333
147
0.0
147
0.0
147
0.0
147
0.0
147
0.0208333333333333
147
0.0
147
0.0
147
0.0
147
0.0
147
1.0
147
0.0
147
0.0
147
0.0
147
0.0
147
1.0
  0
MLEADERSTYLE
  5
292B
102
{ACAD_REACTORS
330
292A
102
}
330
292A
100
AcDbMLeaderStyle
170
     2
171
     1
172
     0
 90
        2
 40
0.0
 41
0.0
173
     1
 91
-1056964608
340
291F
 92
       -2
290
     1
 42
0.09
291
     1
 43
0.36
  3
Standard
 44
0.18
300

342
291A
174
     1
178
     6
175
     1
176
     0
 93
-1056964608
 45
0.18
292
     0
297
     0
 46
0.18
 94
-1056964608
 47
1.0
 49
1.0
140
1.0
293
     1
141
0.0
294
     1
177
     0
142
1.0
295
     0
296
     0
143
0.125
1001
ACAD_MLEADERVER
1070
     2
  0
MLINESTYLE
  5
2924
102
{ACAD_REACTORS
330
2923
102
}
330
2923
100
AcDbMlineStyle
  2
STANDARD
 70
     0
  3

 62
   256
 51
90.0
 52
90.0
 71
     2
 49
0.5
 62
   256
  6
BYLAYER
 49
-0.5
 62
   256
  6
BYLAYER
  0
ACDBPLACEHOLDER
  5
28CC
102
{ACAD_REACTORS
330
28CB
102
}
330
28CB
  0
SCALE
  5
28F8
102
{ACAD_REACTORS
330
28F7
102
}
330
28F7
100
AcDbScale
 70
     0
300
1:1
140
1.0
141
1.0
290
     1
  0
SCALE
  5
28F9
102
{ACAD_REACTORS
330
28F7
102
}
330
28F7
100
AcDbScale
 70
     0
300
1:2
140
1.0
141
2.0
290
     0
  0
SCALE
  5
28FA
102
{ACAD_REACTORS
330
28F7
102
}
330
28F7
100
AcDbScale
 70
     0
300
1:4
140
1.0
141
4.0
290
     0
  0
SCALE
  5
28FB
102
{ACAD_REACTORS
330
28F7
102
}
330
28F7
100
AcDbScale
 70
     0
300
1:5
140
1.0
141
5.0
290
     0
  0
SCALE
  5
28FC
102
{ACAD_REACTORS
330
28F7
102
}
330
28F7
100
AcDbScale
 70
     0
300
1:8
140
1.0
141
8.0
290
     0
  0
SCALE
  5
28FD
102
{ACAD_REACTORS
330
28F7
102
}
330
28F7
100
AcDbScale
 70
     0
300
1:10
140
1.0
141
10.0
290
     0
  0
SCALE
  5
28FE
102
{ACAD_REACTORS
330
28F7
102
}
330
28F7
100
AcDbScale
 70
     0
300
1:16
140
1.0
141
16.0
290
     0
  0
SCALE
  5
28FF
102
{ACAD_REACTORS
330
28F7
102
}
330
28F7
100
AcDbScale
 70
     0
300
1:20
140
1.0
141
20.0
290
     0
  0
SCALE
  5
2900
102
{ACAD_REACTORS
330
28F7
102
}
330
28F7
100
AcDbScale
 70
     0
300
1:30
140
1.0
141
30.0
290
     0
  0
SCALE
  5
2901
102
{ACAD_REACTORS
330
28F7
102
}
330
28F7
100
AcDbScale
 70
     0
300
1:40
140
1.0
141
40.0
290
     0
  0
SCALE
  5
2902
102
{ACAD_REACTORS
330
28F7
102
}
330
28F7
100
AcDbScale
 70
     0
300
1:50
140
1.0
141
50.0
290
     0
  0
SCALE
  5
2903
102
{ACAD_REACTORS
330
28F7
102
}
330
28F7
100
AcDbScale
 70
     0
300
1:100
140
1.0
141
100.0
290
     0
  0
SCALE
  5
2904
102
{ACAD_REACTORS
330
28F7
102
}
330
28F7
100
AcDbScale
 70
     0
300
2:1
140
2.0
141
1.0
290
     0
  0
SCALE
  5
2905
102
{ACAD_REACTORS
330
28F7
102
}
330
28F7
100
AcDbScale
 70
     0
300
4:1
140
4.0
141
1.0
290
     0
  0
SCALE
  5
2906
102
{ACAD_REACTORS
330
28F7
102
}
330
28F7
100
AcDbScale
 70
     0
300
8:1
140
8.0
141
1.0
290
     0
  0
SCALE
  5
2907
102
{ACAD_REACTORS
330
28F7
102
}
330
28F7
100
AcDbScale
 70
     0
300
10:1
140
10.0
141
1.0
290
     0
  0
SCALE
  5
2908
102
{ACAD_REACTORS
330
28F7
102
}
330
28F7
100
AcDbScale
 70
     0
300
100:1
140
100.0
141
1.0
290
     0
  0
SCALE
  5
2909
102
{ACAD_REACTORS
330
28F7
102
}
330
28F7
100
AcDbScale
 70
     0
300
1/128" = 1'-0"
140
0.0078125
141
12.0
290
     0
  0
SCALE
  5
290A
102
{ACAD_REACTORS
330
28F7
102
}
330
28F7
100
AcDbScale
 70
     0
300
1/64" = 1'-0"
140
0.015625
141
12.0
290
     0
  0
SCALE
  5
290B
102
{ACAD_REACTORS
330
28F7
102
}
330
28F7
100
AcDbScale
 70
     0
300
1/32" = 1'-0"
140
0.03125
141
12.0
290
     0
  0
SCALE
  5
290C
102
{ACAD_REACTORS
330
28F7
102
}
330
28F7
100
AcDbScale
 70
     0
300
1/16" = 1'-0"
140
0.0625
141
12.0
290
     0
  0
SCALE
  5
290D
102
{ACAD_REACTORS
330
28F7
102
}
330
28F7
100
AcDbScale
 70
     0
300
3/32" = 1'-0"
140
0.09375
141
12.0
290
     0
  0
SCALE
  5
290E
102
{ACAD_REACTORS
330
28F7
102
}
330
28F7
100
AcDbScale
 70
     0
300
1/8" = 1'-0"
140
0.125
141
12.0
290
     0
  0
SCALE
  5
290F
102
{ACAD_REACTORS
330
28F7
102
}
330
28F7
100
AcDbScale
 70
     0
300
3/16" = 1'-0"
140
0.1875
141
12.0
290
     0
  0
SCALE
  5
2910
102
{ACAD_REACTORS
330
28F7
102
}
330
28F7
100
AcDbScale
 70
     0
300
1/4" = 1'-0"
140
0.25
141
12.0
290
     0
  0
SCALE
  5
2911
102
{ACAD_REACTORS
330
28F7
102
}
330
28F7
100
AcDbScale
 70
     0
300
3/8" = 1'-0"
140
0.375
141
12.0
290
     0
  0
SCALE
  5
2912
102
{ACAD_REACTORS
330
28F7
102
}
330
28F7
100
AcDbScale
 70
     0
300
1/2" = 1'-0"
140
0.5
141
12.0
290
     0
  0
SCALE
  5
2913
102
{ACAD_REACTORS
330
28F7
102
}
330
28F7
100
AcDbScale
 70
     0
300
3/4" = 1'-0"
140
0.75
141
12.0
290
     0
  0
SCALE
  5
2914
102
{ACAD_REACTORS
330
28F7
102
}
330
28F7
100
AcDbScale
 70
     0
300
1" = 1'-0"
140
1.0
141
12.0
290
     0
  0
SCALE
  5
2915
102
{ACAD_REACTORS
330
28F7
102
}
330
28F7
100
AcDbScale
 70
     0
300
1-1/2" = 1'-0"
140
1.5
141
12.0
290
     0
  0
SCALE
  5
2916
102
{ACAD_REACTORS
330
28F7
102
}
330
28F7
100
AcDbScale
 70
     0
300
3" = 1'-0"
140
3.0
141
12.0
290
     0
  0
SCALE
  5
2917
102
{ACAD_REACTORS
330
28F7
102
}
330
28F7
100
AcDbScale
 70
     0
300
6" = 1'-0"
140
6.0
141
12.0
290
     0
  0
SCALE
  5
2918
102
{ACAD_REACTORS
330
28F7
102
}
330
28F7
100
AcDbScale
 70
     0
300
1'-0" = 1'-0"
140
12.0
141
12.0
290
     0
  0
TABLESTYLE
  5
2929
102
{ACAD_XDICTIONARY
360
2B0B
102
}
102
{ACAD_REACTORS
330
2928
102
}
330
2928
100
AcDbTableStyle
  3
Standard
 70
     0
 71
     0
 40
0.06
 41
0.06
280
     0
281
     0
  7
STANDARD
140
0.18
170
     2
 62
     0
 63
     7
283
     0
274
    -2
284
     1
 64
     0
275
    -2
285
     1
 65
     0
276
    -2
286
     1
 66
     0
277
    -2
287
     1
 67
     0
278
    -2
288
     1
 68
     0
279
    -2
289
     1
 69
     0
  7
STANDARD
140
0.25
170
     5
 62
     0
 63
     7
283
     0
274
    -2
284
     1
 64
     0
275
    -2
285
     1
 65
     0
276
    -2
286
     1
 66
     0
277
    -2
287
     1
 67
     0
278
    -2
288
     1
 68
     0
279
    -2
289
     1
 69
     0
  7
STANDARD
140
0.18
170
     5
 62
     0
 63
     7
283
     0
274
    -2
284
     1
 64
     0
275
    -2
285
     1
 65
     0
276
    -2
286
     1
 66
     0
277
    -2
287
     1
 67
     0
278
    -2
288
     1
 68
     0
279
    -2
289
     1
 69
     0
  0
VISUALSTYLE
  5
28EC
102
{ACAD_REACTORS
330
28E6
102
}
330
28E6
100
AcDbVisualStyle
  2
2dWireframe
 70
     4
 71
     0
 72
     2
 73
     0
 90
        0
 40
-0.6
 41
-30.0
 62
     5
 63
     7
 74
     1
 91
        4
 64
     7
 65
   257
 75
     1
175
     1
 42
1.0
 92
        0
 66
   257
 43
1.0
 76
     1
 77
     6
 78
     2
 67
     7
 79
     5
170
     0
171
     0
290
     0
174
     0
 93
        1
 44
0.0
173
     0
291
     0
 45
0.0
1001
ACAD
1000
AcDbSavedByObjectVersion
1070
     0
  0
VISUALSTYLE
  5
28EE
102
{ACAD_REACTORS
330
28E6
102
}
330
28E6
100
AcDbVisualStyle
  2
3D Hidden
 70
     6
 71
     1
 72
     2
 73
     2
 90
        0
 40
-0.6
 41
-30.0
 62
     5
 63
     7
 74
     2
 91
        2
 64
     7
 65
   257
 75
     2
175
     1
 42
40.0
 92
        0
 66
   257
 43
1.0
 76
     1
 77
     6
 78
     2
 67
     7
 79
     3
170
     0
171
     0
290
     0
174
     0
 93
        1
 44
0.0
173
     0
291
     0
 45
0.0
1001
ACAD
1000
AcDbSavedByObjectVersion
1070
     0
  0
VISUALSTYLE
  5
28ED
102
{ACAD_REACTORS
330
28E6
102
}
330
28E6
100
AcDbVisualStyle
  2
3dWireframe
 70
     5
 71
     0
 72
     2
 73
     0
 90
        0
 40
-0.6
 41
-30.0
 62
     5
 63
     7
 74
     1
 91
        4
 64
     7
 65
   257
 75
     1
175
     1
 42
1.0
 92
        0
 66
   257
 43
1.0
 76
     1
 77
     6
 78
     2
 67
     7
 79
     5
170
     0
171
     0
290
     0
174
     0
 93
        1
 44
0.0
173
     0
291
     0
 45
0.0
1001
ACAD
1000
AcDbSavedByObjectVersion
1070
     0
  0
VISUALSTYLE
  5
28EB
102
{ACAD_REACTORS
330
28E6
102
}
330
28E6
100
AcDbVisualStyle
  2
Basic
 70
     7
 71
     1
 72
     0
 73
     1
 90
        0
 40
-0.6
 41
-30.0
 62
     5
 63
     7
 74
     0
 91
        4
 64
     7
 65
   257
 75
     1
175
     1
 42
1.0
 92
        8
 66
     7
 43
1.0
 76
     1
 77
     6
 78
     2
 67
     7
 79
     5
170
     0
171
     0
290
     0
174
     0
 93
        1
 44
0.0
173
     0
291
     1
 45
0.0
1001
ACAD
1000
AcDbSavedByObjectVersion
1070
     0
  0
VISUALSTYLE
  5
28F2
102
{ACAD_REACTORS
330
28E6
102
}
330
28E6
100
AcDbVisualStyle
  2
Brighten
 70
    12
 71
     2
 72
     2
 73
     0
 90
        0
 40
-0.6
 41
-30.0
 62
     5
 63
     7
 74
     1
 91
        4
 64
     7
 65
   257
 75
     1
175
     1
 42
1.0
 92
        8
 66
     7
 43
1.0
 76
     1
 77
     6
 78
     2
 67
     7
 79
     5
170
     0
171
     0
290
     0
174
     0
 93
        1
 44
50.0
173
     0
291
     1
 45
0.0
1001
ACAD
1000
AcDbSavedByObjectVersion
1070
     0
  0
VISUALSTYLE
  5
28F6
102
{ACAD_REACTORS
330
28E6
102
}
330
28E6
100
AcDbVisualStyle
  2
ColorChange
 70
    16
 71
     2
 72
     2
 73
     3
 90
        0
 40
-0.6
 41
-30.0
 62
     5
 63
     8
 74
     1
 91
        4
 64
     7
 65
   257
 75
     1
175
     1
 42
1.0
 92
        8
 66
     8
 43
1.0
 76
     1
 77
     6
 78
     2
 67
     7
 79
     5
170
     0
171
     0
290
     0
174
     0
 93
        1
 44
0.0
173
     0
291
     1
 45
0.0
1001
ACAD
1000
AcDbSavedByObjectVersion
1070
     0
  0
VISUALSTYLE
  5
28EF
102
{ACAD_REACTORS
330
28E6
102
}
330
28E6
100
AcDbVisualStyle
  2
Conceptual
 70
     9
 71
     3
 72
     2
 73
     0
 90
        0
 40
-0.6
 41
-30.0
 62
     5
 63
     7
 74
     2
 91
        2
 64
     7
 65
   257
 75
     1
175
     1
 42
40.0
 92
        8
 66
     7
 43
1.0
 76
     1
 77
     6
 78
     2
 67
     7
 79
     3
170
     0
171
     0
290
     0
174
     0
 93
        1
 44
0.0
173
     0
291
     0
 45
0.0
1001
ACAD
1000
AcDbSavedByObjectVersion
1070
     0
  0
VISUALSTYLE
  5
28F1
102
{ACAD_REACTORS
330
28E6
102
}
330
28E6
100
AcDbVisualStyle
  2
Dim
 70
    11
 71
     2
 72
     2
 73
     0
 90
        0
 40
-0.6
 41
-30.0
 62
     5
 63
     7
 74
     1
 91
        4
 64
     7
 65
   257
 75
     1
175
     1
 42
1.0
 92
        8
 66
     7
 43
1.0
 76
     1
 77
     6
 78
     2
 67
     7
 79
     5
170
     0
171
     0
290
     0
174
     0
 93
        1
 44
-50.0
173
     0
291
     1
 45
0.0
1001
ACAD
1000
AcDbSavedByObjectVersion
1070
     0
  0
VISUALSTYLE
  5
28F5
102
{ACAD_REACTORS
330
28E6
102
}
330
28E6
100
AcDbVisualStyle
  2
Facepattern
 70
    15
 71
     2
 72
     2
 73
     0
 90
        0
 40
-0.6
 41
-30.0
 62
     5
 63
     7
 74
     1
 91
        4
 64
     7
 65
   257
 75
     1
175
     1
 42
1.0
 92
        8
 66
     7
 43
1.0
 76
     1
 77
     6
 78
     2
 67
     7
 79
     5
170
     0
171
     0
290
     0
174
     0
 93
        1
 44
0.0
173
     0
291
     1
 45
0.0
1001
ACAD
1000
AcDbSavedByObjectVersion
1070
     0
  0
VISUALSTYLE
  5
28E7
102
{ACAD_REACTORS
330
28E6
102
}
330
28E6
100
AcDbVisualStyle
  2
Flat
 70
     0
 71
     2
 72
     1
 73
     1
 90
        2
 40
-0.6
 41
30.0
 62
     5
 63
     7
 74
     0
 91
        4
 64
     7
 65
   257
 75
     1
175
     1
 42
1.0
 92
        8
 66
     7
 43
1.0
 76
     1
 77
     6
 78
     2
 67
     7
 79
     5
170
     0
171
     0
290
     0
174
     0
 93
       13
 44
0.0
173
     0
291
     1
 45
0.0
1001
ACAD
1000
AcDbSavedByObjectVersion
1070
     0
  0
VISUALSTYLE
  5
28E8
102
{ACAD_REACTORS
330
28E6
102
}
330
28E6
100
AcDbVisualStyle
  2
FlatWithEdges
 70
     1
 71
     2
 72
     1
 73
     1
 90
        2
 40
-0.6
 41
30.0
 62
     5
 63
     7
 74
     1
 91
        4
 64
     7
 65
   257
 75
     1
175
     1
 42
1.0
 92
        0
 66
   257
 43
1.0
 76
     1
 77
     6
 78
     2
 67
     7
 79
     5
170
     0
171
     0
290
     0
174
     0
 93
       13
 44
0.0
173
     0
291
     1
 45
0.0
1001
ACAD
1000
AcDbSavedByObjectVersion
1070
     0
  0
VISUALSTYLE
  5
28E9
102
{ACAD_REACTORS
330
28E6
102
}
330
28E6
100
AcDbVisualStyle
  2
Gouraud
 70
     2
 71
     2
 72
     2
 73
     1
 90
        2
 40
-0.6
 41
30.0
 62
     5
 63
     7
 74
     0
 91
        4
 64
     7
 65
   257
 75
     1
175
     1
 42
1.0
 92
        0
 66
     7
 43
1.0
 76
     1
 77
     6
 78
     2
 67
     7
 79
     5
170
     0
171
     0
290
     0
174
     0
 93
       13
 44
0.0
173
     0
291
     1
 45
0.0
1001
ACAD
1000
AcDbSavedByObjectVersion
1070
     0
  0
VISUALSTYLE
  5
28EA
102
{ACAD_REACTORS
330
28E6
102
}
330
28E6
100
AcDbVisualStyle
  2
GouraudWithEdges
 70
     3
 71
     2
 72
     2
 73
     1
 90
        2
 40
-0.6
 41
30.0
 62
     5
 63
     7
 74
     1
 91
        4
 64
     7
 65
   257
 75
     1
175
     1
 42
1.0
 92
        0
 66
   257
 43
1.0
 76
     1
 77
     6
 78
     2
 67
     7
 79
     5
170
     0
171
     0
290
     0
174
     0
 93
       13
 44
0.0
173
     0
291
     1
 45
0.0
1001
ACAD
1000
AcDbSavedByObjectVersion
1070
     0
  0
VISUALSTYLE
  5
28F4
102
{ACAD_REACTORS
330
28E6
102
}
330
28E6
100
AcDbVisualStyle
  2
Linepattern
 70
    14
 71
     2
 72
     2
 73
     0
 90
        0
 40
-0.6
 41
-30.0
 62
     5
 63
     7
 74
     1
 91
        4
 64
     7
 65
   257
 75
     7
175
     7
 42
1.0
 92
        8
 66
     7
 43
1.0
 76
     1
 77
     6
 78
     2
 67
     7
 79
     5
170
     0
171
     0
290
     0
174
     0
 93
        1
 44
0.0
173
     0
291
     1
 45
0.0
1001
ACAD
1000
AcDbSavedByObjectVersion
1070
     0
  0
VISUALSTYLE
  5
28F0
102
{ACAD_REACTORS
330
28E6
102
}
330
28E6
100
AcDbVisualStyle
  2
Realistic
 70
     8
 71
     2
 72
     2
 73
     0
 90
        0
 40
-0.6
 41
-30.0
 62
     5
 63
     7
 74
     1
 91
        0
 64
     7
 65
   257
 75
     1
175
     1
 42
1.0
 92
        8
 66
     8
 43
1.0
 76
     1
 77
     6
 78
     2
 67
     7
 79
     5
170
     0
171
     0
290
     0
174
     0
 93
       13
 44
0.0
173
     0
291
     0
 45
0.0
1001
ACAD
1000
AcDbSavedByObjectVersion
1070
     0
  0
VISUALSTYLE
  5
28F3
102
{ACAD_REACTORS
330
28E6
102
}
330
28E6
100
AcDbVisualStyle
  2
Thicken
 70
    13
 71
     2
 72
     2
 73
     0
 90
        0
 40
-0.6
 41
-30.0
 62
     5
 63
     7
 74
     1
 91
        4
 64
     7
 65
   257
 75
     1
175
     1
 42
1.0
 92
       12
 66
     7
 43
1.0
 76
     1
 77
     6
 78
     2
 67
     7
 79
     5
170
     0
171
     0
290
     0
174
     0
 93
        1
 44
0.0
173
     0
291
     1
 45
0.0
1001
ACAD
1000
AcDbSavedByObjectVersion
1070
     0
  0
DICTIONARYVAR
  5
2B07
102
{ACAD_REACTORS
330
2B04
102
}
330
2B04
100
DictionaryVariables
280
     0
  1
1:1
  0
DICTIONARYVAR
  5
2B06
102
{ACAD_REACTORS
330
2B04
102
}
330
2B04
100
DictionaryVariables
280
     0
  1
STANDARD
  0
DICTIONARYVAR
  5
2B05
102
{ACAD_REACTORS
330
2B04
102
}
330
2B04
100
DictionaryVariables
280
     0
  1
STANDARD
  0
DICTIONARYVAR
  5
2B0A
102
{ACAD_REACTORS
330
2B04
102
}
330
2B04
100
DictionaryVariables
280
     0
  1
1
  0
DICTIONARYVAR
  5
2B09
102
{ACAD_REACTORS
330
2B04
102
}
330
2B04
100
DictionaryVariables
280
     0
  1
1
  0
DICTIONARYVAR
  5
2B08
102
{ACAD_REACTORS
330
2B04
102
}
330
2B04
100
DictionaryVariables
280
     0
  1
127
  0
DICTIONARY
  5
2AC5
102
{ACAD_REACTORS
330
2AB7
102
}
330
2AB7
100
AcDbDictionary
281
     1
  0
DICTIONARY
  5
2A05
102
{ACAD_REACTORS
330
2A04
102
}
330
2A04
100
AcDbDictionary
281
     1
  3
DWGSETTINGS
350
2A06
  3
TRANSSETTINGS
350
2A07
  0
LAYER_INDEX
  5
2AF7
102
{ACAD_REACTORS
330
2AF6
102
}
330
2AF6
100
AcDbIndex
 40
2456212.855072396
100
AcDbLayerIndex
  8
0
360
2AF8
 90
        2
  8
OUTLINE
360
2AF9
 90
      131
  8
SIZE
360
2AFA
 90
       66
  8
BASIS
360
2AFB
 90
        2
  8
DETAIL
360
2AFC
 90
      123
  8
ARRANGE
360
2AFD
 90
        3
  8
DEFPOINTS
360
2AFE
 90
        0
  8
ETC
360
2AFF
 90
        3
  8
FIX
360
2B00
 90
       16
  8
NOTE
360
2B01
 90
       32
  8
SERVICESPACE
360
2B02
 90
        0
  8
SYMBOLLINE
360
2B03
 90
        0
  0
DICTIONARY
  5
2B1A
330
2934
100
AcDbDictionary
280
     1
281
     1
  3
ACAD_XREC_ROUNDTRIP
360
2B1B
  0
DICTIONARY
  5
2B18
330
2930
100
AcDbDictionary
280
     1
281
     1
  3
ACAD_XREC_ROUNDTRIP
360
2B19
  0
DICTIONARY
  5
28D7
330
28D6
100
AcDbDictionary
280
     1
281
     1
  3
ACAD_XREC_ROUNDTRIP
360
2B15
  3
BUMPTILE
360
28D9
  3
DIFFUSETILE
360
28D8
  3
OPACITYTILE
360
28DC
  3
REFLECTIONTILE
360
28DB
  3
REFRACTIONTILE
360
28DD
  3
SPECULARTILE
360
28DA
  0
DICTIONARY
  5
28CF
330
28CE
100
AcDbDictionary
280
     1
281
     1
  3
ACAD_XREC_ROUNDTRIP
360
2B14
  3
BUMPTILE
360
28D1
  3
DIFFUSETILE
360
28D0
  3
OPACITYTILE
360
28D4
  3
REFLECTIONTILE
360
28D3
  3
REFRACTIONTILE
360
28D5
  3
SPECULARTILE
360
28D2
  0
DICTIONARY
  5
28DF
330
28DE
100
AcDbDictionary
280
     1
281
     1
  3
ACAD_XREC_ROUNDTRIP
360
2B16
  3
BUMPTILE
360
28E1
  3
DIFFUSETILE
360
28E0
  3
OPACITYTILE
360
28E4
  3
REFLECTIONTILE
360
28E3
  3
REFRACTIONTILE
360
28E5
  3
SPECULARTILE
360
28E2
  0
DICTIONARY
  5
2B0B
330
2929
100
AcDbDictionary
280
     1
281
     1
  3
ACAD_ROUNDTRIP_2008_TABLESTYLE_CELLSTYLEMAP
360
2B0C
  3
ACAD_XREC_ROUNDTRIP
360
2B17
  0
IDBUFFER
  5
2AF8
330
0
100
AcDbIdBuffer
330
27BC
330
27BD
  0
IDBUFFER
  5
2AF9
330
0
100
AcDbIdBuffer
330
2846
330
2847
330
2848
330
2849
330
284A
330
284B
330
284C
330
284D
330
284E
330
284F
330
2850
330
2851
330
2852
330
2853
330
2854
330
2859
330
285A
330
285B
330
285C
330
953
330
954
330
955
330
956
330
957
330
958
330
2737
330
273A
330
27DE
330
27DF
330
27E0
330
27E1
330
27E2
330
27E3
330
27E4
330
27E5
330
27E6
330
27E7
330
27E8
330
27E9
330
27EA
330
27EB
330
27EC
330
27ED
330
27EE
330
27EF
330
27F0
330
27F1
330
27F2
330
27F3
330
27F4
330
27F5
330
27F6
330
27F7
330
27F8
330
27F9
330
27FA
330
27FB
330
27FC
330
27FD
330
27FE
330
27FF
330
2800
330
2801
330
2802
330
2803
330
2804
330
2805
330
2806
330
2807
330
2808
330
2809
330
280A
330
280B
330
280C
330
280D
330
280E
330
280F
330
2810
330
2811
330
2812
330
2813
330
2814
330
2815
330
2816
330
2817
330
2818
330
2819
330
281A
330
281B
330
281C
330
281D
330
281E
330
281F
330
2820
330
2821
330
2822
330
2823
330
2824
330
2825
330
2826
330
2827
330
2828
330
2829
330
282A
330
282B
330
282C
330
282D
330
282E
330
282F
330
2830
330
2831
330
2832
330
2833
330
2834
330
2835
330
2836
330
2837
330
2838
330
2839
330
283A
330
283B
330
283C
330
283D
330
283E
330
283F
330
2840
330
2841
330
2842
330
2843
330
2844
330
2845
  0
IDBUFFER
  5
2AFA
330
0
100
AcDbIdBuffer
330
2890
330
2891
330
2892
330
2893
330
2894
330
2895
330
2896
330
2897
330
2898
330
2899
330
289A
330
289B
330
289C
330
289D
330
289E
330
289F
330
28A0
330
28A1
330
285D
330
285E
330
285F
330
2860
330
2861
330
2862
330
2863
330
2864
330
2865
330
2866
330
2867
330
2868
330
2869
330
286A
330
286B
330
286C
330
286D
330
286E
330
286F
330
2870
330
2874
330
2875
330
2876
330
2877
330
2878
330
2879
330
287A
330
287B
330
287C
330
287D
330
287E
330
287F
330
2880
330
2881
330
2882
330
2883
330
2884
330
2885
330
2886
330
2887
330
2888
330
2889
330
288A
330
288B
330
288C
330
288D
330
288E
330
288F
  0
IDBUFFER
  5
2AFB
330
0
100
AcDbIdBuffer
330
273F
330
2740
  0
IDBUFFER
  5
2AFC
330
0
100
AcDbIdBuffer
330
27B5
330
27B6
330
27B7
330
27B8
330
27B9
330
27BA
330
27BB
330
2855
330
2856
330
2857
330
2858
330
2732
330
2733
330
2734
330
2735
330
2736
330
2738
330
2739
330
273B
330
274D
330
274E
330
274F
330
2750
330
2751
330
2752
330
2753
330
2754
330
2755
330
2756
330
2757
330
2758
330
2759
330
275A
330
275B
330
275C
330
275D
330
275E
330
275F
330
2760
330
2761
330
2762
330
2763
330
2764
330
2765
330
2766
330
2767
330
2768
330
2769
330
276A
330
276B
330
276C
330
276D
330
276E
330
276F
330
2770
330
2771
330
2772
330
2773
330
2774
330
2775
330
2776
330
2777
330
2778
330
2779
330
277A
330
277B
330
277C
330
277D
330
277E
330
277F
330
2780
330
2781
330
2782
330
2783
330
2784
330
2785
330
2786
330
2787
330
2788
330
2789
330
278A
330
278B
330
278C
330
278D
330
278E
330
278F
330
2790
330
2791
330
2792
330
2793
330
2794
330
2795
330
2796
330
2797
330
2798
330
2799
330
279A
330
279B
330
279C
330
279D
330
279E
330
279F
330
27A0
330
27A1
330
27A2
330
27A3
330
27A4
330
27A5
330
27A6
330
27A7
330
27A8
330
27A9
330
27AA
330
27AB
330
27AC
330
27AD
330
27AE
330
27AF
330
27B0
330
27B1
330
27B2
330
27B3
330
27B4
  0
IDBUFFER
  5
2AFD
330
0
100
AcDbIdBuffer
330
273C
330
273D
330
273E
  0
IDBUFFER
  5
2AFE
330
0
100
AcDbIdBuffer
  0
IDBUFFER
  5
2AFF
330
0
100
AcDbIdBuffer
330
2871
330
2872
330
2873
  0
IDBUFFER
  5
2B00
330
0
100
AcDbIdBuffer
330
272E
330
272F
330
2730
330
2731
330
2741
330
2742
330
2743
330
2744
330
2745
330
2746
330
2747
330
2748
330
2749
330
274A
330
274B
330
274C
  0
IDBUFFER
  5
2B01
330
0
100
AcDbIdBuffer
330
27CE
330
27CF
330
27D0
330
27D1
330
27D2
330
27D3
330
27D4
330
27D5
330
27D6
330
27D7
330
27D8
330
27D9
330
27DA
330
27DB
330
27DC
330
27DD
330
27BE
330
27BF
330
27C0
330
27C1
330
27C2
330
27C3
330
27C4
330
27C5
330
27C6
330
27C7
330
27C8
330
27C9
330
27CA
330
27CB
330
27CC
330
27CD
  0
IDBUFFER
  5
2B02
330
0
100
AcDbIdBuffer
  0
IDBUFFER
  5
2B03
330
0
100
AcDbIdBuffer
  0
XRECORD
  5
2B1B
102
{ACAD_REACTORS
330
2B1A
102
}
330
2B1A
100
AcDbXrecord
280
     1
102
SHADEPLOT
 70
     0
102
SHADEPLOTRESLEVEL
 70
     2
102
SHADEPLOTCUSTOMDPI
 70
   300
  0
XRECORD
  5
2B19
102
{ACAD_REACTORS
330
2B18
102
}
330
2B18
100
AcDbXrecord
280
     1
102
SHADEPLOT
 70
     0
102
SHADEPLOTRESLEVEL
 70
     2
102
SHADEPLOTCUSTOMDPI
 70
   300
  0
XRECORD
  5
2B15
102
{ACAD_REACTORS
330
28D7
102
}
330
28D7
100
AcDbXrecord
280
     1
102
MATERIAL
148
0.0
149
0.0
149
0.0
 93
        0
 94
      127
282
     0
 72
     0
 77
     0
171
     0
175
     0
179
     0
273
     0
  0
XRECORD
  5
28D9
102
{ACAD_REACTORS
330
28D7
102
}
330
28D7
100
AcDbXrecord
280
     1
270
     1
271
     1
  0
XRECORD
  5
28D8
102
{ACAD_REACTORS
330
28D7
102
}
330
28D7
100
AcDbXrecord
280
     1
270
     1
271
     1
  0
XRECORD
  5
28DC
102
{ACAD_REACTORS
330
28D7
102
}
330
28D7
100
AcDbXrecord
280
     1
270
     1
271
     1
  0
XRECORD
  5
28DB
102
{ACAD_REACTORS
330
28D7
102
}
330
28D7
100
AcDbXrecord
280
     1
270
     1
271
     1
  0
XRECORD
  5
28DD
102
{ACAD_REACTORS
330
28D7
102
}
330
28D7
100
AcDbXrecord
280
     1
270
     1
271
     1
  0
XRECORD
  5
28DA
102
{ACAD_REACTORS
330
28D7
102
}
330
28D7
100
AcDbXrecord
280
     1
270
     1
271
     1
  0
XRECORD
  5
2B14
102
{ACAD_REACTORS
330
28CF
102
}
330
28CF
100
AcDbXrecord
280
     1
102
MATERIAL
148
0.0
149
0.0
149
0.0
 93
        0
 94
      127
282
     0
 72
     0
 77
     0
171
     0
175
     0
179
     0
273
     0
  0
XRECORD
  5
28D1
102
{ACAD_REACTORS
330
28CF
102
}
330
28CF
100
AcDbXrecord
280
     1
270
     1
271
     1
  0
XRECORD
  5
28D0
102
{ACAD_REACTORS
330
28CF
102
}
330
28CF
100
AcDbXrecord
280
     1
270
     1
271
     1
  0
XRECORD
  5
28D4
102
{ACAD_REACTORS
330
28CF
102
}
330
28CF
100
AcDbXrecord
280
     1
270
     1
271
     1
  0
XRECORD
  5
28D3
102
{ACAD_REACTORS
330
28CF
102
}
330
28CF
100
AcDbXrecord
280
     1
270
     1
271
     1
  0
XRECORD
  5
28D5
102
{ACAD_REACTORS
330
28CF
102
}
330
28CF
100
AcDbXrecord
280
     1
270
     1
271
     1
  0
XRECORD
  5
28D2
102
{ACAD_REACTORS
330
28CF
102
}
330
28CF
100
AcDbXrecord
280
     1
270
     1
271
     1
  0
XRECORD
  5
2B16
102
{ACAD_REACTORS
330
28DF
102
}
330
28DF
100
AcDbXrecord
280
     1
102
MATERIAL
148
0.0
149
0.0
149
0.0
 93
        0
 94
      127
282
     0
 72
     0
 77
     0
171
     0
175
     0
179
     0
273
     0
  0
XRECORD
  5
28E1
102
{ACAD_REACTORS
330
28DF
102
}
330
28DF
100
AcDbXrecord
280
     1
270
     1
271
     1
  0
XRECORD
  5
28E0
102
{ACAD_REACTORS
330
28DF
102
}
330
28DF
100
AcDbXrecord
280
     1
270
     1
271
     1
  0
XRECORD
  5
28E4
102
{ACAD_REACTORS
330
28DF
102
}
330
28DF
100
AcDbXrecord
280
     1
270
     1
271
     1
  0
XRECORD
  5
28E3
102
{ACAD_REACTORS
330
28DF
102
}
330
28DF
100
AcDbXrecord
280
     1
270
     1
271
     1
  0
XRECORD
  5
28E5
102
{ACAD_REACTORS
330
28DF
102
}
330
28DF
100
AcDbXrecord
280
     1
270
     1
271
     1
  0
XRECORD
  5
28E2
102
{ACAD_REACTORS
330
28DF
102
}
330
28DF
100
AcDbXrecord
280
     1
270
     1
271
     1
  0
CELLSTYLEMAP
  5
2B0C
102
{ACAD_REACTORS
330
2B0B
102
}
330
2B0B
100
AcDbCellStyleMap
 90
        3
300
CELLSTYLE
  1
TABLEFORMAT_BEGIN
 90
        5
170
     1
 91
        0
 92
    32768
 62
   257
 93
        1
300
CONTENTFORMAT
  1
CONTENTFORMAT_BEGIN
 90
        0
 91
        0
 92
      512
 93
        0
300

 40
0.0
140
1.0
 94
        5
 62
     0
340
291A
144
0.25
309
CONTENTFORMAT_END
171
     0
 94
        0
309
TABLEFORMAT_END
  1
CELLSTYLE_BEGIN
 90
        1
 91
        1
300
_TITLE
309
CELLSTYLE_END
300
CELLSTYLE
  1
TABLEFORMAT_BEGIN
 90
        5
170
     1
 91
        0
 92
        0
 62
   257
 93
        1
300
CONTENTFORMAT
  1
CONTENTFORMAT_BEGIN
 90
        0
 91
        0
 92
      512
 93
        0
300

 40
0.0
140
1.0
 94
        5
 62
     0
340
291A
144
0.18
309
CONTENTFORMAT_END
171
     0
 94
        0
309
TABLEFORMAT_END
  1
CELLSTYLE_BEGIN
 90
        2
 91
        1
300
_HEADER
309
CELLSTYLE_END
300
CELLSTYLE
  1
TABLEFORMAT_BEGIN
 90
        5
170
     1
 91
        0
 92
        0
 62
   257
 93
        1
300
CONTENTFORMAT
  1
CONTENTFORMAT_BEGIN
 90
        0
 91
        0
 92
      512
 93
        0
300

 40
0.0
140
1.0
 94
        2
 62
     0
340
291A
144
0.18
309
CONTENTFORMAT_END
171
     0
 94
        0
309
TABLEFORMAT_END
  1
CELLSTYLE_BEGIN
 90
        3
 91
        2
300
_DATA
309
CELLSTYLE_END
  0
XRECORD
  5
2B17
102
{ACAD_REACTORS
330
2B0B
102
}
330
2B0B
100
AcDbXrecord
280
     1
102
ACAD_ROUNDTRIP_PRE2007_TABLESTYLE
 90
      512
 91
        0
  1

 92
      512
 93
        0
  2

 94
      512
 95
        0
  3

  0
ENDSEC
  0
EOF
