  0
SECTION
  2
HEADER
  9
$ACADVER
  1
AC1015
  9
$ACADMAINTVER
 70
    20
  9
$DWGCODEPAGE
  3
ANSI_932
  9
$INSBASE
 10
0.0
 20
0.0
 30
0.0
  9
$EXTMIN
 10
-1127.595114277968
 20
-1235.919125479282
 30
0.0
  9
$EXTMAX
 10
1463.544489897596
 20
392.0818371338519
 30
50.0
  9
$LIMMIN
 10
-2970.0
 20
-2100.0
  9
$LIMMAX
 10
2970.0
 20
2100.0
  9
$ORTHOMODE
 70
     1
  9
$REGENMODE
 70
     0
  9
$FILLMODE
 70
     1
  9
$QTEXTMODE
 70
     0
  9
$MIRRTEXT
 70
     0
  9
$LTSCALE
 40
20.0
  9
$ATTMODE
 70
     1
  9
$TEXTSIZE
 40
64.0
  9
$TRACEWID
 40
0.05
  9
$TEXTSTYLE
  7
STANDARD
  9
$CLAYER
  8
0
  9
$CELTYPE
  6
ByLayer
  9
$CECOLOR
 62
   256
  9
$CELTSCALE
 40
1.0
  9
$DISPSILH
 70
     0
  9
$DIMSCALE
 40
1.0
  9
$DIMASZ
 40
0.12
  9
$DIMEXO
 40
0.05
  9
$DIMDLI
 40
0.5
  9
$DIMRND
 40
0.0
  9
$DIMDLE
 40
0.0
  9
$DIMEXE
 40
0.1
  9
$DIMTP
 40
0.1
  9
$DIMTM
 40
0.1
  9
$DIMTXT
 40
0.12
  9
$DIMCEN
 40
0.0
  9
$DIMTSZ
 40
0.0
  9
$DIMTOL
 70
     0
  9
$DIMLIM
 70
     0
  9
$DIMTIH
 70
     1
  9
$DIMTOH
 70
     1
  9
$DIMSE1
 70
     0
  9
$DIMSE2
 70
     0
  9
$DIMTAD
 70
     0
  9
$DIMZIN
 70
     7
  9
$DIMBLK
  1

  9
$DIMASO
 70
     1
  9
$DIMSHO
 70
     0
  9
$DIMPOST
  1

  9
$DIMAPOST
  1
mm
  9
$DIMALT
 70
     0
  9
$DIMALTD
 70
     2
  9
$DIMALTF
 40
25.4
  9
$DIMLFAC
 40
1.0
  9
$DIMTOFL
 70
     0
  9
$DIMTVP
 40
0.0
  9
$DIMTIX
 70
     0
  9
$DIMSOXD
 70
     0
  9
$DIMSAH
 70
     0
  9
$DIMBLK1
  1

  9
$DIMBLK2
  1

  9
$DIMSTYLE
  2
AM_ANSI
  9
$DIMCLRD
 70
   256
  9
$DIMCLRE
 70
   256
  9
$DIMCLRT
 70
     2
  9
$DIMTFAC
 40
0.71
  9
$DIMGAP
 40
0.06
  9
$DIMJUST
 70
     0
  9
$DIMSD1
 70
     0
  9
$DIMSD2
 70
     0
  9
$DIMTOLJ
 70
     1
  9
$DIMTZIN
 70
     7
  9
$DIMALTZ
 70
     0
  9
$DIMALTTZ
 70
     0
  9
$DIMUPT
 70
     0
  9
$DIMDEC
 70
     4
  9
$DIMTDEC
 70
     4
  9
$DIMALTU
 70
     2
  9
$DIMALTTD
 70
     4
  9
$DIMTXSTY
  7
STANDARD
  9
$DIMAUNIT
 70
     0
  9
$DIMADEC
 70
     0
  9
$DIMALTRND
 40
0.0
  9
$DIMAZIN
 70
     2
  9
$DIMDSEP
 70
    46
  9
$DIMATFIT
 70
     3
  9
$DIMFRAC
 70
     0
  9
$DIMLDRBLK
  1

  9
$DIMLUNIT
 70
     2
  9
$DIMLWD
 70
    -1
  9
$DIMLWE
 70
    -1
  9
$DIMTMOVE
 70
     0
  9
$LUNITS
 70
     2
  9
$LUPREC
 70
     4
  9
$SKETCHINC
 40
0.1
  9
$FILLETRAD
 40
4.0
  9
$AUNITS
 70
     1
  9
$AUPREC
 70
     3
  9
$MENU
  1
ACAD
  9
$ELEVATION
 40
0.0
  9
$PELEVATION
 40
0.0
  9
$THICKNESS
 40
50.0
  9
$LIMCHECK
 70
     0
  9
$CHAMFERA
 40
0.0
  9
$CHAMFERB
 40
0.0
  9
$CHAMFERC
 40
0.0
  9
$CHAMFERD
 40
0.0
  9
$SKPOLY
 70
     0
  9
$TDCREATE
 40
2452321.396199653
  9
$TDUCREATE
 40
2452321.021199653
  9
$TDUPDATE
 40
2456212.856270162
  9
$TDUUPDATE
 40
2456212.481270162
  9
$TDINDWG
 40
1.0410673380
  9
$TDUSRTIMER
 40
1.0410617477
  9
$USRTIMER
 70
     1
  9
$ANGBASE
 50
0.0
  9
$ANGDIR
 70
     0
  9
$PDMODE
 70
     3
  9
$PDSIZE
 40
-2.0
  9
$PLINEWID
 40
0.0
  9
$SPLFRAME
 70
     0
  9
$SPLINETYPE
 70
     6
  9
$SPLINESEGS
 70
     8
  9
$HANDSEED
  5
2F2F
  9
$SURFTAB1
 70
     6
  9
$SURFTAB2
 70
     6
  9
$SURFTYPE
 70
     6
  9
$SURFU
 70
     6
  9
$SURFV
 70
     6
  9
$UCSBASE
  2

  9
$UCSNAME
  2

  9
$UCSORG
 10
0.0
 20
0.0
 30
0.0
  9
$UCSXDIR
 10
1.0
 20
0.0
 30
0.0
  9
$UCSYDIR
 10
0.0
 20
1.0
 30
0.0
  9
$UCSORTHOREF
  2

  9
$UCSORTHOVIEW
 70
     0
  9
$UCSORGTOP
 10
0.0
 20
0.0
 30
0.0
  9
$UCSORGBOTTOM
 10
0.0
 20
0.0
 30
0.0
  9
$UCSORGLEFT
 10
0.0
 20
0.0
 30
0.0
  9
$UCSORGRIGHT
 10
0.0
 20
0.0
 30
0.0
  9
$UCSORGFRONT
 10
0.0
 20
0.0
 30
0.0
  9
$UCSORGBACK
 10
0.0
 20
0.0
 30
0.0
  9
$PUCSBASE
  2

  9
$PUCSNAME
  2

  9
$PUCSORG
 10
0.0
 20
0.0
 30
0.0
  9
$PUCSXDIR
 10
1.0
 20
0.0
 30
0.0
  9
$PUCSYDIR
 10
0.0
 20
1.0
 30
0.0
  9
$PUCSORTHOREF
  2

  9
$PUCSORTHOVIEW
 70
     0
  9
$PUCSORGTOP
 10
0.0
 20
0.0
 30
0.0
  9
$PUCSORGBOTTOM
 10
0.0
 20
0.0
 30
0.0
  9
$PUCSORGLEFT
 10
0.0
 20
0.0
 30
0.0
  9
$PUCSORGRIGHT
 10
0.0
 20
0.0
 30
0.0
  9
$PUCSORGFRONT
 10
0.0
 20
0.0
 30
0.0
  9
$PUCSORGBACK
 10
0.0
 20
0.0
 30
0.0
  9
$USERI1
 70
     0
  9
$USERI2
 70
     0
  9
$USERI3
 70
     0
  9
$USERI4
 70
     0
  9
$USERI5
 70
     0
  9
$USERR1
 40
20.0
  9
$USERR2
 40
0.0
  9
$USERR3
 40
0.0
  9
$USERR4
 40
0.0
  9
$USERR5
 40
0.0
  9
$WORLDVIEW
 70
     1
  9
$SHADEDGE
 70
     3
  9
$SHADEDIF
 70
    70
  9
$TILEMODE
 70
     1
  9
$MAXACTVP
 70
    64
  9
$PINSBASE
 10
0.0
 20
0.0
 30
0.0
  9
$PLIMCHECK
 70
     0
  9
$PEXTMIN
 10
1.000000000000000E+20
 20
1.000000000000000E+20
 30
1.000000000000000E+20
  9
$PEXTMAX
 10
-1.000000000000000E+20
 20
-1.000000000000000E+20
 30
-1.000000000000000E+20
  9
$PLIMMIN
 10
0.0
 20
0.0
  9
$PLIMMAX
 10
12.0
 20
9.0
  9
$UNITMODE
 70
     0
  9
$VISRETAIN
 70
     1
  9
$PLINEGEN
 70
     0
  9
$PSLTSCALE
 70
     1
  9
$TREEDEPTH
 70
  3020
  9
$CMLSTYLE
  2
Standard
  9
$CMLJUST
 70
     0
  9
$CMLSCALE
 40
1.0
  9
$PROXYGRAPHICS
 70
     1
  9
$MEASUREMENT
 70
     0
  9
$CELWEIGHT
370
    -1
  9
$ENDCAPS
280
     0
  9
$JOINSTYLE
280
     0
  9
$LWDISPLAY
290
     0
  9
$INSUNITS
 70
     0
  9
$HYPERLINKBASE
  1

  9
$STYLESHEET
  1

  9
$XEDIT
290
     1
  9
$CEPSNTYPE
380
     0
  9
$PSTYLEMODE
290
     1
  9
$FINGERPRINTGUID
  2
{3548CE0F-5978-4AF6-8413-456C3196E15E}
  9
$VERSIONGUID
  2
{5BAE816D-AF83-4E17-AF3A-DA593A9CF9EA}
  9
$EXTNAMES
290
     1
  9
$PSVPSCALE
 40
0.0
  9
$OLESTARTUP
290
     0
  0
ENDSEC
  0
SECTION
  2
CLASSES
  0
CLASS
  1
ACDBDICTIONARYWDFLT
  2
AcDbDictionaryWithDefault
  3
ObjectDBX Classes
 90
        0
280
     0
281
     0
  0
CLASS
  1
MATERIAL
  2
AcDbMaterial
  3
ObjectDBX Classes
 90
     1153
280
     0
281
     0
  0
CLASS
  1
VISUALSTYLE
  2
AcDbVisualStyle
  3
ObjectDBX Classes
 90
     4095
280
     0
281
     0
  0
CLASS
  1
SCALE
  2
AcDbScale
  3
ObjectDBX Classes
 90
     1153
280
     0
281
     0
  0
CLASS
  1
TABLESTYLE
  2
AcDbTableStyle
  3
ObjectDBX Classes
 90
     4095
280
     0
281
     0
  0
CLASS
  1
MLEADERSTYLE
  2
AcDbMLeaderStyle
  3
ACDB_MLEADERSTYLE_CLASS
 90
     4095
280
     0
281
     0
  0
CLASS
  1
AMGSETTINGSOBJ
  2
AmgSettingsObj
  3
"AcadM|Product Description: AutoCAD Mechanical|Company: Autodesk, Inc."
 90
     1024
280
     0
281
     0
  0
CLASS
  1
ACME_DOCUMENT
  2
AcMeDbDoc
  3
AcMeServices
 90
     1024
280
     0
281
     0
  0
CLASS
  1
ACMESCOPE
  2
AcMeScope
  3
AcMeServices
 90
     1024
280
     0
281
     0
  0
CLASS
  1
ACMECOMMANDHISTORY
  2
AcMeCommandHistory
  3
AcMeServices
 90
     1024
280
     0
281
     0
  0
CLASS
  1
ACIMSYSVARMAN
  2
AcImSysVarManager
  3
AcMeServices
 90
     1024
280
     0
281
     0
  0
CLASS
  1
ACIMREALSYSVAR
  2
AcImRealSysVar
  3
AcMeServices
 90
     1024
280
     0
281
     0
  0
CLASS
  1
ACIMINTSYSVAR
  2
AcImIntSysVar
  3
AcMeServices
 90
     1024
280
     0
281
     0
  0
CLASS
  1
ACMEDRAWINGMAN
  2
AcMeDrawingMan
  3
AcMeServices
 90
     1024
280
     0
281
     0
  0
CLASS
  1
ACMEVIEW
  2
AcMeView
  3
AcMeServices
 90
     1024
280
     0
281
     0
  0
CLASS
  1
ACDBENTITYCACHE
  2
AcMeEntityCache
  3
AcMeServices
 90
     1024
280
     0
281
     0
  0
CLASS
  1
GSMANAGER
  2
AcMeGSManager
  3
AcMeServices
 90
     1024
280
     0
281
     0
  0
CLASS
  1
AMDTINTERNALREACTOR
  2
AmdtInternalReactor
  3
AcMeServices
 90
     1024
280
     0
281
     0
  0
CLASS
  1
ACMESTATEMGR
  2
AcMeStateMgr
  3
AcMeServices
 90
     1024
280
     0
281
     0
  0
CLASS
  1
ACGREFMASTER
  2
AcGrefMaster
  3
AcAttribServices
 90
     1024
280
     0
281
     0
  0
CLASS
  1
AM_DRAWING_MGR
  2
AcDmDwgMgr
  3
AcMechDwgViewMgmt
 90
     1024
280
     0
281
     0
  0
CLASS
  1
AM_DWG_DOCUMENT
  2
AcDmDwgDocument
  3
AcMechDwgViewMgmt
 90
     1024
280
     0
281
     0
  0
CLASS
  1
AM_DWG_SHEET
  2
AcDmSheet
  3
AcMechDwgViewMgmt
 90
     1024
280
     0
281
     0
  0
CLASS
  1
AM_VIEWDIMPARMAP
  2
AcDmViewDimParMap
  3
AcMechDwgViewMgmt
 90
     1024
280
     0
281
     0
  0
CLASS
  1
AM_DWGMGR_NAME
  2
AcDmDwgMgrName
  3
AcMechDwgViewMgmt
 90
     1024
280
     0
281
     0
  0
CLASS
  1
ACME_DATABASE
  2
AcMeDbDatabase
  3
AcMeServices
 90
     1024
280
     0
281
     0
  0
CLASS
  1
ACRFINSADJUSTERMGR
  2
AcRfInsAdjusterMgr
  3
AcMeServices
 90
     1024
280
     0
281
     0
  0
CLASS
  1
ACGREFACADMASTER
  2
AcGrefacadMaster
  3
AcGrefServices
 90
     1024
280
     0
281
     0
  0
CLASS
  1
AMDTMENUSTATEMGR
  2
AmdtMenuStateMgr
  3
McadcomServices
 90
     1024
280
     0
281
     0
  0
CLASS
  1
AMDTMCOMMENUSTATE
  2
AmdtMcomMenuState
  3
McadcomServices
 90
     1024
280
     0
281
     0
  0
CLASS
  1
AMIMASTER
  2
AmiMaster
  3
AmiServices
 90
     1024
280
     0
281
     0
  0
CLASS
  1
ASAPP
  2
AcAsAppObject
  3
AutoSurfServices
 90
     1024
280
     0
281
     0
  0
CLASS
  1
IM_STATIC_MAN
  2
AcImStaticVarManager
  3
AcMeServices
 90
     1024
280
     0
281
     0
  0
CLASS
  1
ACIMSTRSYSVAR
  2
AcImStrSysVar
  3
AcMeServices
 90
     1024
280
     0
281
     0
  0
CLASS
  1
ACIMDBLSTATICVAR
  2
AcImDblStaticVar
  3
AcMeServices
 90
     1024
280
     0
281
     0
  0
CLASS
  1
ACIMSTRSTATICVAR
  2
AcImStrStaticVar
  3
AcMeServices
 90
     1024
280
     0
281
     0
  0
CLASS
  1
ACIMINTSTATICVAR
  2
AcImIntStaticVar
  3
AcMeServices
 90
     1024
280
     0
281
     0
  0
CLASS
  1
ACASGREFMASTER
  2
AcAsGrefMaster
  3
AutoSurfResolverServices
 90
     1024
280
     0
281
     0
  0
CLASS
  1
ACADGREFMODULE
  2
AcAdGrefModule
  3
AdGrefServices
 90
     1024
280
     0
281
     0
  0
CLASS
  1
AMDTMAPISURFMOUDULE
  2
AmdtMApiSurfModule
  3
MApiSurfServices
 90
     1024
280
     0
281
     0
  0
CLASS
  1
MAPIAMMOUDLE
  2
MApiAmModule
  3
MApiAmServices
 90
     1024
280
     0
281
     0
  0
CLASS
  1
AMDTADMENUSTATE
  2
AmdtAdMenuState
  3
DesignerServices
 90
     1024
280
     0
281
     0
  0
CLASS
  1
ADAPPL
  2
AcAdAppl
  3
DesignerServices
 90
     1024
280
     0
281
     0
  0
CLASS
  1
DEPMGR
  2
AcAdDepMgr
  3
DesignerServices
 90
     1024
280
     0
281
     0
  0
CLASS
  1
PARAMMGR
  2
AcAdParamMgr
  3
DesignerServices
 90
     1024
280
     0
281
     0
  0
CLASS
  1
PARAMSCOPE
  2
AcAdParamScope
  3
DesignerServices
 90
     1024
280
     0
281
     0
  0
CLASS
  1
NAMEDAPPL
  2
AcAdNamedAppl
  3
DesignerServices
 90
     1024
280
     0
281
     0
  0
CLASS
  1
AMDTDMMENUSTATE
  2
AmdtDmMenuState
  3
AcMechDwgViewMgmt
 90
     1024
280
     0
281
     0
  0
CLASS
  1
MAPIADMODULE
  2
MApiAdModule
  3
MApiAdServices
 90
     1024
280
     0
281
     0
  0
CLASS
  1
AMDTAMMENUSTATE
  2
AmdtAmMenuState
  3
DesignerAssemblies
 90
     1024
280
     0
281
     0
  0
CLASS
  1
ACAMPROJECT
  2
AcAmProject
  3
DesignerAssemblies
 90
     1024
280
     0
281
     0
  0
CLASS
  1
ACAMGRCOMPDEF
  2
AcAmGrCompDef
  3
DesignerAssemblies
 90
     1024
280
     0
281
     0
  0
CLASS
  1
ACCMCONTEXT
  2
AcCmContext
  3
DesignerAssemblies
 90
     1024
280
     0
281
     0
  0
CLASS
  1
ACAMCOMPDEF
  2
AcAmCompDef
  3
DesignerAssemblies
 90
     1024
280
     0
281
     0
  0
CLASS
  1
ACAMCOMPDEFMGR
  2
AcAmCompDefMgr
  3
DesignerAssemblies
 90
     1024
280
     0
281
     0
  0
CLASS
  1
AMCONTEXTMGR
  2
AcAmContextMgr
  3
DesignerAssemblies
 90
     1024
280
     0
281
     0
  0
CLASS
  1
ACAMCONTEXTMODELER
  2
AcAmContextModeler
  3
DesignerAssemblies
 90
     1024
280
     0
281
     0
  0
CLASS
  1
ACMDATADICTIONARY
  2
AcmDataDictionary
  3
"AcmSymBB|Product Description: AutoCAD Mechanical|Company: Autodesk, Inc."
 90
     1024
280
     0
281
     0
  0
CLASS
  1
ACMDATAENTRYBLOCK
  2
AcmDataEntryBlock
  3
AcmSymBB|Product Description: AutoCAD Mechanical|Company: Autodesk, Inc.
 90
     1024
280
     0
281
     0
  0
CLASS
  1
ACRFATTGENMGR
  2
AcRfAttGeneralMgr
  3
AcAttribServices
 90
     1024
280
     0
281
     0
  0
CLASS
  1
ACRFOBJATTMGR
  2
AcRfObjAttGroupMgr
  3
AcAttribServices
 90
     1024
280
     0
281
     0
  0
CLASS
  1
ACRFMCADAPIATTHOLDER
  2
AcRfMCADAPIAttHolder
  3
AcAttribServices
 90
     1024
280
     0
281
     0
  0
CLASS
  1
AMDTSYSATTR
  2
AmdtSystemAttribute
  3
AcAttribServices
 90
     1024
280
     0
281
     0
  0
CLASS
  1
CATALOGSTATE
  2
AcAmCatalogState
  3
DesignerAssemblies
 90
     1024
280
     0
281
     0
  0
CLASS
  1
ACAMGRCOMPDEFSET
  2
AcAmGrCompDefSet
  3
DesignerAssemblies
 90
     1024
280
     0
281
     0
  0
CLASS
  1
AMDTBROWSERDBTAB
  2
AmdtBrowserDbTab
  3
McadcomServices
 90
     1024
280
     0
281
     0
  0
CLASS
  1
CBROWSERAPPOBJECT
  2
CBrowserAppObject
  3
McadcomServices
 90
     1024
280
     0
281
     0
  0
CLASS
  1
DM_PLACEHOLDER
  2
AcDmSelsetPlaceholder
  3
AcMechDwgViewMgmt
 90
     1024
280
     0
281
     0
  0
CLASS
  1
ACMSTANDARDANSI
  2
AcmStandardANSI
  3
"Amdt_StdImp|Product Description: AutoCAD Mechanical|Company: Autodesk, Inc."
 90
     1024
280
     0
281
     0
  0
CLASS
  1
ACMSURFSTANDARDANSI
  2
AcmSurfTextStdANSI
  3
"Amdt_StdImp|Product Description: AutoCAD Mechanical|Company: Autodesk, Inc."
 90
     1024
280
     0
281
     0
  0
CLASS
  1
ACMFCFSTANDARDANSI
  2
AcmFCFStdANSI
  3
"Amdt_StdImp|Product Description: AutoCAD Mechanical|Company: Autodesk, Inc."
 90
     1024
280
     0
281
     0
  0
CLASS
  1
ACMWELDSTANDARDANSI
  2
AcmWeldingStdANSI
  3
"Amdt_StdImp|Product Description: AutoCAD Mechanical|Company: Autodesk, Inc."
 90
     1024
280
     0
281
     0
  0
CLASS
  1
ACMIDSTANDARDANSI
  2
AcmIdStdANSI
  3
"Amdt_StdImp|Product Description: AutoCAD Mechanical|Company: Autodesk, Inc."
 90
     1024
280
     0
281
     0
  0
CLASS
  1
ACMDATUMSTANDARDANSI
  2
AcmDatumStdANSI
  3
"Amdt_StdImp|Product Description: AutoCAD Mechanical|Company: Autodesk, Inc."
 90
     1024
280
     0
281
     0
  0
CLASS
  1
ACMBOMSTANDARDANSI
  2
AcmBOMStdANSI
  3
"Amdt_StdImp|Product Description: AutoCAD Mechanical|Company: Autodesk, Inc."
 90
     1024
280
     0
281
     0
  0
CLASS
  1
ACMDETAILSTANDARDANSI
  2
AmdtDetailSymStdANSI
  3
"Amdt_StdImp|Product Description: AutoCAD Mechanical|Company: Autodesk, Inc."
 90
     1024
280
     0
281
     0
  0
CLASS
  1
ACMSECTIONSTANDARDANSI
  2
AmdtSectionSymStdANSI
  3
"Amdt_StdImp|Product Description: AutoCAD Mechanical|Company: Autodesk, Inc."
 90
     1024
280
     0
281
     0
  0
CLASS
  1
ACMCENTERLINESTANDARDANSI
  2
AmdtCenterLineStdANSI
  3
"Amdt_StdImp|Product Description: AutoCAD Mechanical|Company: Autodesk, Inc."
 90
     1024
280
     0
281
     0
  0
CLASS
  1
ACMTHREADLINESTANDARDANSI
  2
AmdtThreadLineStdANSI
  3
"Amdt_StdImp|Product Description: AutoCAD Mechanical|Company: Autodesk, Inc."
 90
     1024
280
     0
281
     0
  0
CLASS
  1
ACMNOTESTANDARDANSI
  2
AmdtNoteStdANSI
  3
"Amdt_StdImp|Product Description: AutoCAD Mechanical|Company: Autodesk, Inc."
 90
     1024
280
     0
281
     0
  0
CLASS
  1
ACMTAPERSTANDARDANSI
  2
AcmTaperStdANSI
  3
"Amdt_StdImp|Product Description: AutoCAD Mechanical|Company: Autodesk, Inc."
 90
     1024
280
     0
281
     0
  0
CLASS
  1
ACMANOOTATIONVIEWSTANDARDANSI
  2
AmdtAnViewStdANSI
  3
"Amdt_StdImp|Product Description: AutoCAD Mechanical|Company: Autodesk, Inc."
 90
     1024
280
     0
281
     0
  0
CLASS
  1
ACAMGLAYSTD
  2
AcAmgLayStd
  3
"AmgLay|Product Description: AutoCAD Mechanical|Company: Autodesk, Inc."
 90
     1024
280
     0
281
     0
  0
CLASS
  1
ACAMGDIMSTD
  2
AcAmgDimStd
  3
"AmgDim|Product Description: AutoCAD Mechanical|Company: Autodesk, Inc."
 90
     1024
280
     0
281
     0
  0
CLASS
  1
ACAMGHOLECHARTSTDANSI
  2
AcAmgHoleChartStdANSI
  3
AmgDim|Product Description: AutoCAD Mechanical|Company: Autodesk, Inc.
 90
     1024
280
     0
281
     0
  0
CLASS
  1
AMGOBJPROPCFG
  2
AmgObjPropCfg
  3
"AmgLay|Product Description: AutoCAD Mechanical|Company: Autodesk, Inc."
 90
     1025
280
     0
281
     0
  0
CLASS
  1
ACAMGTITLESTD
  2
AcAmgTitleStd
  3
"AmgTitle|Product Description: AutoCAD Mechanical|Company: Autodesk, Inc."
 90
     4095
280
     0
281
     0
  0
CLASS
  1
AMDTNOTETEMPLATEDB
  2
AmdtNoteTemplateDB
  3
AcmSymBB|Product Description: AutoCAD Mechanical|Company: Autodesk, Inc.
 90
     1024
280
     0
281
     0
  0
CLASS
  1
LAYER_INDEX
  2
AcDbLayerIndex
  3
ObjectDBX Classes
 90
        0
280
     0
281
     0
  0
CLASS
  1
IDBUFFER
  2
AcDbIdBuffer
  3
ObjectDBX Classes
 90
        0
280
     0
281
     0
  0
CLASS
  1
DICTIONARYVAR
  2
AcDbDictionaryVar
  3
ObjectDBX Classes
 90
        0
280
     0
281
     0
  0
CLASS
  1
CELLSTYLEMAP
  2
AcDbCellStyleMap
  3
ObjectDBX Classes
 90
     1152
280
     0
281
     0
  0
CLASS
  1
ACDBPLACEHOLDER
  2
AcDbPlaceHolder
  3
ObjectDBX Classes
 90
        0
280
     0
281
     0
  0
CLASS
  1
LAYOUT
  2
AcDbLayout
  3
ObjectDBX Classes
 90
        0
280
     0
281
     0
  0
ENDSEC
  0
SECTION
  2
TABLES
  0
TABLE
  2
VPORT
  5
2CC4
330
0
100
AcDbSymbolTable
 70
     1
  0
VPORT
  5
2D34
330
2CC4
100
AcDbSymbolTableRecord
100
AcDbViewportTableRecord
  2
*ACTIVE
 70
     0
 10
0.0
 20
0.0
 11
1.0
 21
1.0
 12
0.0
 22
0.0
 13
0.0
 23
0.0
 14
1.0
 24
1.0
 15
0.0
 25
0.0
 16
0.0
 26
0.0
 36
1.0
 17
167.9054400509968
 27
-404.6566766670045
 37
0.0
 40
1674.889290516726
 41
1.712555066079295
 42
50.0
 43
0.0
 44
0.0
 50
0.0
 51
0.0
 71
     0
 72
   100
 73
     1
 74
     0
 75
     0
 76
     0
 77
     0
 78
     0
281
     0
 65
     0
110
0.0
120
0.0
130
0.0
111
1.0
121
0.0
131
0.0
112
0.0
122
1.0
132
0.0
 79
     0
146
0.0
  0
ENDTAB
  0
TABLE
  2
LTYPE
  5
2CC1
330
0
100
AcDbSymbolTable
 70
    19
  0
LTYPE
  5
2D1E
330
2CC1
100
AcDbSymbolTableRecord
100
AcDbLinetypeTableRecord
  2
ByBlock
 70
     0
  3

 72
    65
 73
     0
 40
0.0
  0
LTYPE
  5
2D1F
330
2CC1
100
AcDbSymbolTableRecord
100
AcDbLinetypeTableRecord
  2
ByLayer
 70
     0
  3

 72
    65
 73
     0
 40
0.0
  0
LTYPE
  5
2D20
330
2CC1
100
AcDbSymbolTableRecord
100
AcDbLinetypeTableRecord
  2
CONTINUOUS
 70
     0
  3
実線
 72
    65
 73
     0
 40
0.0
  0
LTYPE
  5
2D35
330
2CC1
100
AcDbSymbolTableRecord
100
AcDbLinetypeTableRecord
  2
DASHDOT
 70
     0
  3
____ _ ____ _ ____ _ ____ _ ____ _ ____ _ ____
 72
    65
 73
     4
 40
5.5
 49
4.0
 74
     0
 49
-0.6
 74
     0
 49
0.3
 74
     0
 49
-0.6
 74
     0
  0
LTYPE
  5
2D36
330
2CC1
100
AcDbSymbolTableRecord
100
AcDbLinetypeTableRecord
  2
HIDDEN
 70
     0
  3
Hidden __ __ __ __ __ __ __ __ __ __ __ __ __ _
 72
    65
 73
     2
 40
0.375
 49
0.25
 74
     0
 49
-0.125
 74
     0
  0
LTYPE
  5
2D37
330
2CC1
100
AcDbSymbolTableRecord
100
AcDbLinetypeTableRecord
  2
PHANTOM2
 70
     0
  3
Phantom (.5x) ___ _ _ ___ _ _ ___ _ _ ___ _ _
 72
    65
 73
     6
 40
1.25
 49
0.625
 74
     0
 49
-0.125
 74
     0
 49
0.125
 74
     0
 49
-0.125
 74
     0
 49
0.125
 74
     0
 49
-0.125
 74
     0
  0
LTYPE
  5
2D38
330
2CC1
100
AcDbSymbolTableRecord
100
AcDbLinetypeTableRecord
  2
CENTER
 70
     0
  3
Center ____ _ ____ _ ____ _ ____ _ ____ _ ____
 72
    65
 73
     4
 40
2.0
 49
1.25
 74
     0
 49
-0.25
 74
     0
 49
0.25
 74
     0
 49
-0.25
 74
     0
  0
LTYPE
  5
2D39
330
2CC1
100
AcDbSymbolTableRecord
100
AcDbLinetypeTableRecord
  2
ASULTYPE
 70
     0
  3
実線
 72
    65
 73
     2
 40
3.0
 49
2.5
 74
     0
 49
0.5
 74
     0
  0
LTYPE
  5
2D3A
330
2CC1
100
AcDbSymbolTableRecord
100
AcDbLinetypeTableRecord
  2
ASVLTYPE
 70
     0
  3
__ __ __ __ __ __ __ __ __ __ __ __ __ __ __ __ __ __ __ __ __
 72
    65
 73
     2
 40
0.75
 49
0.5
 74
     0
 49
-0.25
 74
     0
  0
LTYPE
  5
2D3B
330
2CC1
100
AcDbSymbolTableRecord
100
AcDbLinetypeTableRecord
  2
AM_ISO02W050
 70
     0
  3
__ __ __ __ __ __ __ __ __ __ __ __ __ __ __
 72
    65
 73
     2
 40
7.5
 49
6.0
 74
     0
 49
-1.5
 74
     0
  0
LTYPE
  5
2D3C
330
2CC1
100
AcDbSymbolTableRecord
100
AcDbLinetypeTableRecord
  2
AM_ISO08W050
 70
     0
  3
____ . ____ . ____ . ____ . ____ . ____ . ____
 72
    65
 73
     4
 40
18.0
 49
12.0
 74
     0
 49
-1.5
 74
     0
 49
3.0
 74
     0
 49
-1.5
 74
     0
  0
LTYPE
  5
2D3D
330
2CC1
100
AcDbSymbolTableRecord
100
AcDbLinetypeTableRecord
  2
AM_ISO09W050
 70
     0
  3
_____ . . _____ . . _____ . . ____ .. ____
 72
    65
 73
     6
 40
22.5
 49
12.0
 74
     0
 49
-1.5
 74
     0
 49
3.0
 74
     0
 49
-1.5
 74
     0
 49
3.0
 74
     0
 49
-1.5
 74
     0
  0
LTYPE
  5
2D3E
330
2CC1
100
AcDbSymbolTableRecord
100
AcDbLinetypeTableRecord
  2
AMCONSTR
 70
     0
  3
_______________________
 72
    65
 73
     2
 40
9999.0
 49
9999.0
 74
     0
 49
0.0
 74
     0
  0
LTYPE
  5
2D3F
330
2CC1
100
AcDbSymbolTableRecord
100
AcDbLinetypeTableRecord
  2
AM_ISO08W050X2
 70
     0
  3
__ . __ . __ . __ . __ . __
 72
    65
 73
     4
 40
9.0
 49
6.0
 74
     0
 49
-0.75
 74
     0
 49
1.5
 74
     0
 49
-0.75
 74
     0
  0
LTYPE
  5
2D40
330
2CC1
100
AcDbSymbolTableRecord
100
AcDbLinetypeTableRecord
  2
AM_ISO02W050X2
 70
     0
  3
 _ _ _ _ _ _ _ _ _ _ _ _
 72
    65
 73
     2
 40
3.75
 49
3.0
 74
     0
 49
-0.75
 74
     0
  0
LTYPE
  5
2D41
330
2CC1
100
AcDbSymbolTableRecord
100
AcDbLinetypeTableRecord
  2
AMZIGZAG
 70
     0
  3
/\/-/\/-/\/-/\/-/\/-/\/
 72
    65
 73
     2
 40
11.0001
 49
0.0001
 74
     0
 49
-11.0
 74
     0
  0
LTYPE
  5
2D42
330
2CC1
100
AcDbSymbolTableRecord
100
AcDbLinetypeTableRecord
  2
CENTER2
 70
     0
  3
Center (.5x) ___ _ ___ _ ___ _ ___ _ ___ _ ___
 72
    65
 73
     4
 40
1.125
 49
0.75
 74
     0
 49
-0.125
 74
     0
 49
0.125
 74
     0
 49
-0.125
 74
     0
  0
LTYPE
  5
2D43
330
2CC1
100
AcDbSymbolTableRecord
100
AcDbLinetypeTableRecord
  2
HIDDEN2
 70
     0
  3
Hidden (.5x) _ _ _ _ _ _ _ _ _ _ _ _ _ _ _ _ _
 72
    65
 73
     2
 40
0.1875
 49
0.125
 74
     0
 49
-0.0625
 74
     0
  0
LTYPE
  5
2D44
330
2CC1
100
AcDbSymbolTableRecord
100
AcDbLinetypeTableRecord
  2
AMZIGZAG2
 70
     0
  3
/\/-/\/-/\/-/\/-/\/-/\/
 72
    65
 73
     2
 40
0.4401
 49
0.0001
 74
     0
 49
-0.4400000000000003
 74
     0
  0
LTYPE
  5
2D45
330
2CC1
100
AcDbSymbolTableRecord
100
AcDbLinetypeTableRecord
  2
ACANSTGB
 70
     0
  3
__ . . __ . .
 72
    65
 73
     6
 40
0.35433070866
 49
0.15748031496
 74
     0
 49
-0.03937007874
 74
     0
 49
0.03937007874
 74
     0
 49
-0.03937007874
 74
     0
 49
0.03937007874
 74
     0
 49
-0.03937007874
 74
     0
  0
LTYPE
  5
2D46
330
2CC1
100
AcDbSymbolTableRecord
100
AcDbLinetypeTableRecord
  2
ACANSTGL
 70
     0
  3
_ _ _ _ _
 72
    65
 73
     2
 40
0.11811023622
 49
0.07874015748
 74
     0
 49
-0.03937007874
 74
     0
  0
ENDTAB
  0
TABLE
  2
LAYER
  5
2CBE
330
0
100
AcDbSymbolTable
 70
    12
  0
LAYER
  5
2D18
102
{ACAD_XDICTIONARY
360
2EEE
102
}
330
2CBE
100
AcDbSymbolTableRecord
100
AcDbLayerTableRecord
  2
0
 70
     0
 62
     7
  6
CONTINUOUS
370
    -3
390
2CCB
  0
LAYER
  5
2D47
102
{ACAD_XDICTIONARY
360
2EF0
102
}
330
2CBE
100
AcDbSymbolTableRecord
100
AcDbLayerTableRecord
  2
OUTLINE
 70
     0
 62
     3
  6
CONTINUOUS
370
    -3
390
2CCB
  0
LAYER
  5
2D48
102
{ACAD_XDICTIONARY
360
2EF2
102
}
330
2CBE
100
AcDbSymbolTableRecord
100
AcDbLayerTableRecord
  2
SIZE
 70
     0
 62
    30
  6
CONTINUOUS
370
    -3
390
2CCB
  0
LAYER
  5
2D49
102
{ACAD_XDICTIONARY
360
2EF4
102
}
330
2CBE
100
AcDbSymbolTableRecord
100
AcDbLayerTableRecord
  2
BASIS
 70
     0
 62
     6
  6
DASHDOT
370
    -3
390
2CCB
  0
LAYER
  5
2D4A
102
{ACAD_XDICTIONARY
360
2EF6
102
}
330
2CBE
100
AcDbSymbolTableRecord
100
AcDbLayerTableRecord
  2
DETAIL
 70
     0
 62
     5
  6
CONTINUOUS
370
    -3
390
2CCB
  0
LAYER
  5
2D4B
102
{ACAD_XDICTIONARY
360
2EF8
102
}
330
2CBE
100
AcDbSymbolTableRecord
100
AcDbLayerTableRecord
  2
ARRANGE
 70
     0
 62
     1
  6
CONTINUOUS
370
    -3
390
2CCB
  0
LAYER
  5
2D4C
330
2CBE
100
AcDbSymbolTableRecord
100
AcDbLayerTableRecord
  2
DEFPOINTS
 70
     0
 62
     7
  6
CONTINUOUS
290
     0
370
    -3
390
2CCB
  0
LAYER
  5
2D4D
102
{ACAD_XDICTIONARY
360
2EFA
102
}
330
2CBE
100
AcDbSymbolTableRecord
100
AcDbLayerTableRecord
  2
ETC
 70
     0
 62
    61
  6
CONTINUOUS
370
    -3
390
2CCB
  0
LAYER
  5
2D4E
102
{ACAD_XDICTIONARY
360
2EFC
102
}
330
2CBE
100
AcDbSymbolTableRecord
100
AcDbLayerTableRecord
  2
FIX
 70
     0
 62
    11
  6
CONTINUOUS
370
    -3
390
2CCB
  0
LAYER
  5
2D4F
102
{ACAD_XDICTIONARY
360
2EFE
102
}
330
2CBE
100
AcDbSymbolTableRecord
100
AcDbLayerTableRecord
  2
NOTE
 70
     0
 62
     4
  6
CONTINUOUS
370
    -3
390
2CCB
  0
LAYER
  5
2D50
102
{ACAD_XDICTIONARY
360
2F00
102
}
330
2CBE
100
AcDbSymbolTableRecord
100
AcDbLayerTableRecord
  2
SERVICESPACE
 70
     0
 62
     2
  6
DASHDOT
370
    -3
390
2CCB
  0
LAYER
  5
2D51
102
{ACAD_XDICTIONARY
360
2F02
102
}
330
2CBE
100
AcDbSymbolTableRecord
100
AcDbLayerTableRecord
  2
SYMBOLLINE
 70
     0
 62
    15
  6
CONTINUOUS
370
    -3
390
2CCB
  0
ENDTAB
  0
TABLE
  2
STYLE
  5
2CBF
330
0
100
AcDbSymbolTable
 70
     5
  0
STYLE
  5
2D19
330
2CBF
100
AcDbSymbolTableRecord
100
AcDbTextStyleTableRecord
  2
STANDARD
 70
     0
 40
64.0
 41
0.9
 50
0.0
 71
     0
 42
64.0
  3
SIMPLEX.shx
  4
BIGFONT.shx
  0
STYLE
  5
2D1D
330
2CBF
100
AcDbSymbolTableRecord
100
AcDbTextStyleTableRecord
  2
ANNOTATIVE
 70
     0
 40
0.0
 41
1.0
 50
0.0
 71
     0
 42
0.2
  3
txt
  4

1001
ACADANNOTATIVE
1000
AnnotativeData
1002
{
1070
     1
1070
     1
1002
}
  0
STYLE
  5
2D52
330
2CBF
100
AcDbSymbolTableRecord
100
AcDbTextStyleTableRecord
  2

 70
     1
 40
0.0
 41
1.0
 50
0.0
 71
     0
 42
64.0
  3
genltshp.shx
  4

  0
STYLE
  5
2D53
330
2CBF
100
AcDbSymbolTableRecord
100
AcDbTextStyleTableRecord
  2
ACANSTS
 70
     0
 40
1.0
 41
1.0
 50
0.0
 71
     0
 42
64.0
  3
romans.shx
  4
extfont.shx
  0
STYLE
  5
2D54
330
2CBF
100
AcDbSymbolTableRecord
100
AcDbTextStyleTableRecord
  2
ACANSGDT
 70
     0
 40
0.0
 41
1.0
 50
0.0
 71
     0
 42
64.0
  3
amgdt.shx
  4

  0
ENDTAB
  0
TABLE
  2
VIEW
  5
2CC2
330
0
100
AcDbSymbolTable
 70
     1
  0
VIEW
  5
2D55
330
2CC2
100
AcDbSymbolTableRecord
100
AcDbViewTableRecord
  2
ALL
 70
     0
 40
4282.619807999997
 10
0.0
 20
41.30990399999999
 41
5940.0
 11
0.0
 21
0.0
 31
1.0
 12
0.0
 22
0.0
 32
0.0
 42
50.0
 43
0.0
 44
0.0
 50
0.0
 71
     0
281
     0
 72
     1
110
0.0
120
0.0
130
0.0
111
1.0
121
0.0
131
0.0
112
0.0
122
1.0
132
0.0
 79
     0
146
0.0
  0
ENDTAB
  0
TABLE
  2
UCS
  5
2CC3
330
0
100
AcDbSymbolTable
 70
     0
  0
ENDTAB
  0
TABLE
  2
APPID
  5
2CC5
330
0
100
AcDbSymbolTable
 70
    26
  0
APPID
  5
2D1A
330
2CC5
100
AcDbSymbolTableRecord
100
AcDbRegAppTableRecord
  2
ACAD
 70
     0
  0
APPID
  5
2D21
330
2CC5
100
AcDbSymbolTableRecord
100
AcDbRegAppTableRecord
  2
ACADANNOTATIVE
 70
     0
  0
APPID
  5
2D2B
330
2CC5
100
AcDbSymbolTableRecord
100
AcDbRegAppTableRecord
  2
ACAD_MLEADERVER
 70
     0
  0
APPID
  5
2D56
330
2CC5
100
AcDbSymbolTableRecord
100
AcDbRegAppTableRecord
  2
GENIUS_GENDIM_13
 70
     0
  0
APPID
  5
2D57
330
2CC5
100
AcDbSymbolTableRecord
100
AcDbRegAppTableRecord
  2
GENIUS_GENDTOL_13
 70
     0
  0
APPID
  5
2D58
330
2CC5
100
AcDbSymbolTableRecord
100
AcDbRegAppTableRecord
  2
GENIUS_GE3DTOL_13
 70
     0
  0
APPID
  5
2D59
330
2CC5
100
AcDbSymbolTableRecord
100
AcDbRegAppTableRecord
  2
MCAD_NO_VIS
 70
     0
  0
APPID
  5
2D5A
330
2CC5
100
AcDbSymbolTableRecord
100
AcDbRegAppTableRecord
  2
ACAD_TEMP_GRAPHIC
 70
     0
  0
APPID
  5
2D5B
330
2CC5
100
AcDbSymbolTableRecord
100
AcDbRegAppTableRecord
  2
AD_DRAW
 70
     0
  0
APPID
  5
2D5C
330
2CC5
100
AcDbSymbolTableRecord
100
AcDbRegAppTableRecord
  2
ACATTRIBSERVICES
 70
     0
  0
APPID
  5
2D5D
330
2CC5
100
AcDbSymbolTableRecord
100
AcDbRegAppTableRecord
  2
ASURF_PCURVE_APPNAME
 70
     0
  0
APPID
  5
2D5E
330
2CC5
100
AcDbSymbolTableRecord
100
AcDbRegAppTableRecord
  2
AMG_3D2D_5_0
 70
     0
  0
APPID
  5
2D5F
330
2CC5
100
AcDbSymbolTableRecord
100
AcDbRegAppTableRecord
  2
DESIGNERASSEMBLIES
 70
     0
  0
APPID
  5
2D60
330
2CC5
100
AcDbSymbolTableRecord
100
AcDbRegAppTableRecord
  2
ACADM_DIM_EDIT
 70
     0
  0
APPID
  5
2D61
330
2CC5
100
AcDbSymbolTableRecord
100
AcDbRegAppTableRecord
  2
AMDT_DM_ADJ
 70
     0
  0
APPID
  5
2D62
330
2CC5
100
AcDbSymbolTableRecord
100
AcDbRegAppTableRecord
  2
ACAD_DSTYLE_DIMARC_LENGTH_
 70
     0
  0
APPID
  5
2D63
330
2CC5
100
AcDbSymbolTableRecord
100
AcDbRegAppTableRecord
  2
ACAD_DSTYLE_DIMJOGGED_JOGA
 70
     0
  0
APPID
  5
2D64
330
2CC5
100
AcDbSymbolTableRecord
100
AcDbRegAppTableRecord
  2
ACAD_PSEXT
 70
     0
  0
APPID
  5
2D65
330
2CC5
100
AcDbSymbolTableRecord
100
AcDbRegAppTableRecord
  2
ACAD_EXEMPT_FROM_CAD_STANDARDS
 70
     0
  0
APPID
  5
2D66
330
2CC5
100
AcDbSymbolTableRecord
100
AcDbRegAppTableRecord
  2
ACAD_DSTYLE_DIMJAG
 70
     0
  0
APPID
  5
2D67
330
2CC5
100
AcDbSymbolTableRecord
100
AcDbRegAppTableRecord
  2
ACAD_DSTYLE_DIMTALN
 70
     0
  0
APPID
  5
2E95
330
2CC5
100
AcDbSymbolTableRecord
100
AcDbRegAppTableRecord
  2
AMG_3D2D_5.0
 70
     0
  0
APPID
  5
2F2B
330
2CC5
100
AcDbSymbolTableRecord
100
AcDbRegAppTableRecord
  2
ACAD_DSTYLE_DIMARC_LENGTH_SYMBOL
 70
     0
  0
APPID
  5
2F2C
330
2CC5
100
AcDbSymbolTableRecord
100
AcDbRegAppTableRecord
  2
ACAD_DSTYLE_DIM_LINETYPE
 70
     0
  0
APPID
  5
2F2D
330
2CC5
100
AcDbSymbolTableRecord
100
AcDbRegAppTableRecord
  2
ACAD_DSTYLE_DIM_EXT1_LINETYPE
 70
     0
  0
APPID
  5
2F2E
330
2CC5
100
AcDbSymbolTableRecord
100
AcDbRegAppTableRecord
  2
ACAD_DSTYLE_DIM_EXT2_LINETYPE
 70
     0
  0
ENDTAB
  0
TABLE
  2
DIMSTYLE
  5
2CC6
330
0
100
AcDbSymbolTable
 70
    10
100
AcDbDimStyleTable
 71
     1
340
2D68
  0
DIMSTYLE
105
2D1B
330
2CC6
100
AcDbSymbolTableRecord
100
AcDbDimStyleTableRecord
  2
STANDARD
 70
     0
 41
12.0
 42
20.0
 44
20.0
 77
     1
 78
     8
140
64.0
141
0.0
147
10.0
275
     1
279
     2
284
     7
285
     7
286
     7
340
2D19
  0
DIMSTYLE
105
2D1C
330
2CC6
100
AcDbSymbolTableRecord
100
AcDbDimStyleTableRecord
  2
ANNOTATIVE
 70
     0
275
     1
279
     2
284
     7
285
     7
286
     7
340
2D19
1001
ACADANNOTATIVE
1000
AnnotativeData
1002
{
1070
     1
1070
     1
1002
}
  0
DIMSTYLE
105
2D68
330
2CC6
100
AcDbSymbolTableRecord
100
AcDbDimStyleTableRecord
  2
AM_ANSI
 70
     0
  4
mm
 41
0.12
 42
0.05
 43
0.5
 44
0.1
 47
0.1
 48
0.1
 78
     7
 79
     2
140
0.12
141
0.0
146
0.71
147
0.06
176
   256
177
   256
178
     2
274
     4
284
     7
340
2D19
371
    -1
372
    -1
1001
ACAD_DSTYLE_DIMARC_LENGTH_SYMBOL
1070
   379
1070
     1
1001
ACAD_DSTYLE_DIM_LINETYPE
1070
   380
1005
2D1E
1001
ACAD_DSTYLE_DIM_EXT1_LINETYPE
1070
   381
1005
2D1E
1001
ACAD_DSTYLE_DIM_EXT2_LINETYPE
1070
   382
1005
2D1E
  0
DIMSTYLE
105
2D69
330
2CC6
100
AcDbSymbolTableRecord
100
AcDbDimStyleTableRecord
  2
AM_ANSI$3
 70
     0
  4
mm
 41
0.12
 42
0.05
 43
0.5
 44
0.1
 47
0.1
 48
0.1
 78
     7
 79
     2
140
0.12
141
0.0
146
0.71
147
0.06
176
   256
177
   256
178
     2
274
     4
284
     7
288
     1
289
     0
340
2D19
371
    -1
372
    -1
1001
ACAD_DSTYLE_DIMARC_LENGTH_SYMBOL
1070
   379
1070
     1
1001
ACAD_DSTYLE_DIM_LINETYPE
1070
   380
1005
2D1E
1001
ACAD_DSTYLE_DIM_EXT1_LINETYPE
1070
   381
1005
2D1E
1001
ACAD_DSTYLE_DIM_EXT2_LINETYPE
1070
   382
1005
2D1E
  0
DIMSTYLE
105
2D6A
330
2CC6
100
AcDbSymbolTableRecord
100
AcDbDimStyleTableRecord
  2
AM_ANSI$4
 70
     0
  4
mm
 41
0.12
 42
0.05
 43
0.5
 44
0.1
 47
0.1
 48
0.1
 78
     7
 79
     2
140
0.12
141
0.0
146
0.71
147
0.06
176
   256
177
   256
178
     2
274
     4
284
     7
340
2D19
371
    -1
372
    -1
1001
ACAD_DSTYLE_DIMARC_LENGTH_SYMBOL
1070
   379
1070
     1
1001
ACAD_DSTYLE_DIM_LINETYPE
1070
   380
1005
2D1E
1001
ACAD_DSTYLE_DIM_EXT1_LINETYPE
1070
   381
1005
2D1E
1001
ACAD_DSTYLE_DIM_EXT2_LINETYPE
1070
   382
1005
2D1E
  0
DIMSTYLE
105
2D6B
330
2CC6
100
AcDbSymbolTableRecord
100
AcDbDimStyleTableRecord
  2
AM_ANSI$7
 70
     0
  4
mm
 41
0.12
 42
0.05
 43
0.5
 44
0.1
 47
0.1
 48
0.1
 78
     7
 79
     2
140
0.12
141
0.0
146
0.71
147
0.06
176
   256
177
   256
178
     2
274
     4
284
     7
340
2D19
371
    -1
372
    -1
1001
ACAD_DSTYLE_DIMARC_LENGTH_SYMBOL
1070
   379
1070
     1
1001
ACAD_DSTYLE_DIM_LINETYPE
1070
   380
1005
2D1E
1001
ACAD_DSTYLE_DIM_EXT1_LINETYPE
1070
   381
1005
2D1E
1001
ACAD_DSTYLE_DIM_EXT2_LINETYPE
1070
   382
1005
2D1E
  0
DIMSTYLE
105
2D6C
330
2CC6
100
AcDbSymbolTableRecord
100
AcDbDimStyleTableRecord
  2
AM_ANSI$SF
 70
     0
  4
mm
 41
0.12
 42
0.05
 43
0.5
 44
0.1
 47
0.1
 48
0.1
 75
     1
 76
     1
 78
     7
 79
     2
140
0.12
141
0.0
146
0.71
147
0.06
176
   256
177
   256
178
     2
274
     4
284
     7
340
2D19
371
    -1
372
    -1
1001
ACAD_DSTYLE_DIMARC_LENGTH_SYMBOL
1070
   379
1070
     1
1001
ACAD_DSTYLE_DIM_LINETYPE
1070
   380
1005
2D1E
1001
ACAD_DSTYLE_DIM_EXT1_LINETYPE
1070
   381
1005
2D1E
1001
ACAD_DSTYLE_DIM_EXT2_LINETYPE
1070
   382
1005
2D1E
  0
DIMSTYLE
105
2D6D
330
2CC6
100
AcDbSymbolTableRecord
100
AcDbDimStyleTableRecord
  2
AM_ANSI$SH
 70
     0
  4
mm
 41
0.12
 42
0.05
 43
0.5
 44
0.1
 47
0.1
 48
0.1
 75
     1
 76
     1
 78
     7
 79
     2
140
0.12
141
0.0
146
0.71
147
0.06
173
     1
176
   256
177
   256
178
     2
274
     4
284
     7
340
2D19
343
2D8D
371
    -1
372
    -1
1001
ACAD_DSTYLE_DIMARC_LENGTH_SYMBOL
1070
   379
1070
     1
1001
ACAD_DSTYLE_DIM_LINETYPE
1070
   380
1005
2D1E
1001
ACAD_DSTYLE_DIM_EXT1_LINETYPE
1070
   381
1005
2D1E
1001
ACAD_DSTYLE_DIM_EXT2_LINETYPE
1070
   382
1005
2D1E
  0
DIMSTYLE
105
2D6E
330
2CC6
100
AcDbSymbolTableRecord
100
AcDbDimStyleTableRecord
  2
STANDARD1
 70
     0
 40
6.0
 41
2.5
 42
0.625
 43
6.0
 44
1.25
 47
1.0
 48
0.5
 77
     1
 78
     8
140
2.5
141
0.0
146
0.6
147
1.0
173
     1
275
     1
279
     2
284
     7
285
     7
286
     7
340
2D19
  0
DIMSTYLE
105
2D6F
330
2CC6
100
AcDbSymbolTableRecord
100
AcDbDimStyleTableRecord
  2
STANDARD$0
 70
     0
 41
12.0
 42
20.0
 44
20.0
 73
     0
 74
     0
 77
     1
 78
     8
140
64.0
141
0.0
147
10.0
275
     1
279
     2
284
     7
285
     7
286
     7
340
2D19
  0
ENDTAB
  0
TABLE
  2
BLOCK_RECORD
  5
2CBD
330
0
100
AcDbSymbolTable
 70
    79
  0
BLOCK_RECORD
  5
2D30
102
{ACAD_XDICTIONARY
360
2F04
102
}
330
2CBD
100
AcDbSymbolTableRecord
100
AcDbBlockTableRecord
  2
*Model_Space
340
2D33
  0
BLOCK_RECORD
  5
2D2C
330
2CBD
100
AcDbSymbolTableRecord
100
AcDbBlockTableRecord
  2
*Paper_Space
340
2D2F
  0
BLOCK_RECORD
  5
2D77
330
2CBD
100
AcDbSymbolTableRecord
100
AcDbBlockTableRecord
  2
$MODEL_SPACE
340
0
  0
BLOCK_RECORD
  5
2D79
330
2CBD
100
AcDbSymbolTableRecord
100
AcDbBlockTableRecord
  2
$PAPER_SPACE
340
0
  0
BLOCK_RECORD
  5
2D7B
330
2CBD
100
AcDbSymbolTableRecord
100
AcDbBlockTableRecord
  2
_ORIGIN
340
0
  0
BLOCK_RECORD
  5
2D7D
330
2CBD
100
AcDbSymbolTableRecord
100
AcDbBlockTableRecord
  2
_DOTBLANK
340
0
102
{BLKREFS
331
1299
331
129A
331
11AA
331
11AB
331
E80
331
E81
331
1123
331
1124
331
11C2
331
11C3
331
11EC
331
11ED
331
11F9
331
11FA
331
1287
331
1288
331
1417
331
1418
331
1423
331
1424
331
142F
331
1430
331
143B
331
143C
331
166E
331
166F
331
1677
331
1678
331
1680
331
1681
331
1689
331
168A
331
1696
331
1697
331
16A3
331
16A4
331
16AF
331
16B0
331
16BB
331
16BC
331
16C7
331
16C8
331
16D3
331
16D4
331
1D86
331
1D87
331
1D8F
331
1D90
331
1D98
331
1D99
331
1DA1
331
1DA2
331
1DAB
331
1DAC
331
1DB5
331
1DB6
331
2C72
331
2C73
331
2C77
331
2C78
331
2C7D
331
2C7E
331
2C82
331
2C83
331
2C88
331
2C89
331
2C8D
331
2C8E
102
}
  0
BLOCK_RECORD
  5
2D7F
330
2CBD
100
AcDbSymbolTableRecord
100
AcDbBlockTableRecord
  2
_OPEN30
340
0
102
{BLKREFS
331
2087
331
21BB
331
24AC
331
27BD
331
291A
331
2A7B
102
}
  0
BLOCK_RECORD
  5
2D81
330
2CBD
100
AcDbSymbolTableRecord
100
AcDbBlockTableRecord
  2
*D5
340
0
  0
BLOCK_RECORD
  5
2D83
330
2CBD
100
AcDbSymbolTableRecord
100
AcDbBlockTableRecord
  2
*U6
340
0
102
{BLKREFS
331
129B
102
}
  0
BLOCK_RECORD
  5
2D85
330
2CBD
100
AcDbSymbolTableRecord
100
AcDbBlockTableRecord
  2
*D7
340
0
  0
BLOCK_RECORD
  5
2D87
330
2CBD
100
AcDbSymbolTableRecord
100
AcDbBlockTableRecord
  2
*U8
340
0
102
{BLKREFS
331
11AC
102
}
  0
BLOCK_RECORD
  5
2D89
330
2CBD
100
AcDbSymbolTableRecord
100
AcDbBlockTableRecord
  2
*D9
340
0
  0
BLOCK_RECORD
  5
2D8B
330
2CBD
100
AcDbSymbolTableRecord
100
AcDbBlockTableRecord
  2
*U10
340
0
102
{BLKREFS
331
E82
102
}
  0
BLOCK_RECORD
  5
2D8D
330
2CBD
100
AcDbSymbolTableRecord
100
AcDbBlockTableRecord
  2
GENAXEH
340
0
  0
BLOCK_RECORD
  5
2D8F
330
2CBD
100
AcDbSymbolTableRecord
100
AcDbBlockTableRecord
  2
*D12
340
0
  0
BLOCK_RECORD
  5
2D91
330
2CBD
100
AcDbSymbolTableRecord
100
AcDbBlockTableRecord
  2
*U13
340
0
102
{BLKREFS
331
1125
102
}
  0
BLOCK_RECORD
  5
2D93
330
2CBD
100
AcDbSymbolTableRecord
100
AcDbBlockTableRecord
  2
*D14
340
0
  0
BLOCK_RECORD
  5
2D95
330
2CBD
100
AcDbSymbolTableRecord
100
AcDbBlockTableRecord
  2
*U15
340
0
102
{BLKREFS
331
11C4
102
}
  0
BLOCK_RECORD
  5
2D97
330
2CBD
100
AcDbSymbolTableRecord
100
AcDbBlockTableRecord
  2
*D16
340
0
  0
BLOCK_RECORD
  5
2D99
330
2CBD
100
AcDbSymbolTableRecord
100
AcDbBlockTableRecord
  2
*U17
340
0
102
{BLKREFS
331
11EE
102
}
  0
BLOCK_RECORD
  5
2D9B
330
2CBD
100
AcDbSymbolTableRecord
100
AcDbBlockTableRecord
  2
*D18
340
0
  0
BLOCK_RECORD
  5
2D9D
330
2CBD
100
AcDbSymbolTableRecord
100
AcDbBlockTableRecord
  2
*U19
340
0
102
{BLKREFS
331
11FB
102
}
  0
BLOCK_RECORD
  5
2D9F
330
2CBD
100
AcDbSymbolTableRecord
100
AcDbBlockTableRecord
  2
*D20
340
0
  0
BLOCK_RECORD
  5
2DA1
330
2CBD
100
AcDbSymbolTableRecord
100
AcDbBlockTableRecord
  2
*U21
340
0
102
{BLKREFS
331
1289
102
}
  0
BLOCK_RECORD
  5
2DA3
330
2CBD
100
AcDbSymbolTableRecord
100
AcDbBlockTableRecord
  2
*D22
340
0
  0
BLOCK_RECORD
  5
2DA5
330
2CBD
100
AcDbSymbolTableRecord
100
AcDbBlockTableRecord
  2
*U23
340
0
102
{BLKREFS
331
1419
102
}
  0
BLOCK_RECORD
  5
2DA7
330
2CBD
100
AcDbSymbolTableRecord
100
AcDbBlockTableRecord
  2
*D24
340
0
  0
BLOCK_RECORD
  5
2DA9
330
2CBD
100
AcDbSymbolTableRecord
100
AcDbBlockTableRecord
  2
*U25
340
0
102
{BLKREFS
331
1425
102
}
  0
BLOCK_RECORD
  5
2DAB
330
2CBD
100
AcDbSymbolTableRecord
100
AcDbBlockTableRecord
  2
*D26
340
0
  0
BLOCK_RECORD
  5
2DAD
330
2CBD
100
AcDbSymbolTableRecord
100
AcDbBlockTableRecord
  2
*U27
340
0
102
{BLKREFS
331
1431
102
}
  0
BLOCK_RECORD
  5
2DAF
330
2CBD
100
AcDbSymbolTableRecord
100
AcDbBlockTableRecord
  2
*D28
340
0
  0
BLOCK_RECORD
  5
2DB1
330
2CBD
100
AcDbSymbolTableRecord
100
AcDbBlockTableRecord
  2
*U29
340
0
102
{BLKREFS
331
143D
102
}
  0
BLOCK_RECORD
  5
2DB3
330
2CBD
100
AcDbSymbolTableRecord
100
AcDbBlockTableRecord
  2
*D30
340
0
  0
BLOCK_RECORD
  5
2DB5
330
2CBD
100
AcDbSymbolTableRecord
100
AcDbBlockTableRecord
  2
*U31
340
0
102
{BLKREFS
331
1670
102
}
  0
BLOCK_RECORD
  5
2DB7
330
2CBD
100
AcDbSymbolTableRecord
100
AcDbBlockTableRecord
  2
*D32
340
0
  0
BLOCK_RECORD
  5
2DB9
330
2CBD
100
AcDbSymbolTableRecord
100
AcDbBlockTableRecord
  2
*U33
340
0
102
{BLKREFS
331
1679
102
}
  0
BLOCK_RECORD
  5
2DBB
330
2CBD
100
AcDbSymbolTableRecord
100
AcDbBlockTableRecord
  2
*D34
340
0
  0
BLOCK_RECORD
  5
2DBD
330
2CBD
100
AcDbSymbolTableRecord
100
AcDbBlockTableRecord
  2
*U35
340
0
102
{BLKREFS
331
1682
102
}
  0
BLOCK_RECORD
  5
2DBF
330
2CBD
100
AcDbSymbolTableRecord
100
AcDbBlockTableRecord
  2
*D36
340
0
  0
BLOCK_RECORD
  5
2DC1
330
2CBD
100
AcDbSymbolTableRecord
100
AcDbBlockTableRecord
  2
*U37
340
0
102
{BLKREFS
331
168B
102
}
  0
BLOCK_RECORD
  5
2DC3
330
2CBD
100
AcDbSymbolTableRecord
100
AcDbBlockTableRecord
  2
*U38
340
0
  0
BLOCK_RECORD
  5
2DC5
330
2CBD
100
AcDbSymbolTableRecord
100
AcDbBlockTableRecord
  2
*D39
340
0
  0
BLOCK_RECORD
  5
2DC7
330
2CBD
100
AcDbSymbolTableRecord
100
AcDbBlockTableRecord
  2
*U40
340
0
102
{BLKREFS
331
1698
102
}
  0
BLOCK_RECORD
  5
2DC9
330
2CBD
100
AcDbSymbolTableRecord
100
AcDbBlockTableRecord
  2
*D41
340
0
  0
BLOCK_RECORD
  5
2DCB
330
2CBD
100
AcDbSymbolTableRecord
100
AcDbBlockTableRecord
  2
*U42
340
0
102
{BLKREFS
331
16A5
102
}
  0
BLOCK_RECORD
  5
2DCD
330
2CBD
100
AcDbSymbolTableRecord
100
AcDbBlockTableRecord
  2
*D43
340
0
  0
BLOCK_RECORD
  5
2DCF
330
2CBD
100
AcDbSymbolTableRecord
100
AcDbBlockTableRecord
  2
*U44
340
0
102
{BLKREFS
331
16B1
102
}
  0
BLOCK_RECORD
  5
2DD1
330
2CBD
100
AcDbSymbolTableRecord
100
AcDbBlockTableRecord
  2
*D45
340
0
  0
BLOCK_RECORD
  5
2DD3
330
2CBD
100
AcDbSymbolTableRecord
100
AcDbBlockTableRecord
  2
*U46
340
0
102
{BLKREFS
331
16BD
102
}
  0
BLOCK_RECORD
  5
2DD5
330
2CBD
100
AcDbSymbolTableRecord
100
AcDbBlockTableRecord
  2
*D47
340
0
  0
BLOCK_RECORD
  5
2DD7
330
2CBD
100
AcDbSymbolTableRecord
100
AcDbBlockTableRecord
  2
*U48
340
0
102
{BLKREFS
331
16C9
102
}
  0
BLOCK_RECORD
  5
2DD9
330
2CBD
100
AcDbSymbolTableRecord
100
AcDbBlockTableRecord
  2
*D49
340
0
  0
BLOCK_RECORD
  5
2DDB
330
2CBD
100
AcDbSymbolTableRecord
100
AcDbBlockTableRecord
  2
*U50
340
0
102
{BLKREFS
331
16D5
102
}
  0
BLOCK_RECORD
  5
2DDD
330
2CBD
100
AcDbSymbolTableRecord
100
AcDbBlockTableRecord
  2
*D51
340
0
  0
BLOCK_RECORD
  5
2DDF
330
2CBD
100
AcDbSymbolTableRecord
100
AcDbBlockTableRecord
  2
*U52
340
0
102
{BLKREFS
331
1D88
102
}
  0
BLOCK_RECORD
  5
2DE1
330
2CBD
100
AcDbSymbolTableRecord
100
AcDbBlockTableRecord
  2
*D53
340
0
  0
BLOCK_RECORD
  5
2DE3
330
2CBD
100
AcDbSymbolTableRecord
100
AcDbBlockTableRecord
  2
*U54
340
0
102
{BLKREFS
331
1D91
102
}
  0
BLOCK_RECORD
  5
2DE5
330
2CBD
100
AcDbSymbolTableRecord
100
AcDbBlockTableRecord
  2
*D55
340
0
  0
BLOCK_RECORD
  5
2DE7
330
2CBD
100
AcDbSymbolTableRecord
100
AcDbBlockTableRecord
  2
*U56
340
0
102
{BLKREFS
331
1D9A
102
}
  0
BLOCK_RECORD
  5
2DE9
330
2CBD
100
AcDbSymbolTableRecord
100
AcDbBlockTableRecord
  2
*D57
340
0
  0
BLOCK_RECORD
  5
2DEB
330
2CBD
100
AcDbSymbolTableRecord
100
AcDbBlockTableRecord
  2
*U58
340
0
102
{BLKREFS
331
1DA3
102
}
  0
BLOCK_RECORD
  5
2DED
330
2CBD
100
AcDbSymbolTableRecord
100
AcDbBlockTableRecord
  2
*D59
340
0
  0
BLOCK_RECORD
  5
2DEF
330
2CBD
100
AcDbSymbolTableRecord
100
AcDbBlockTableRecord
  2
*U60
340
0
102
{BLKREFS
331
1DAD
102
}
  0
BLOCK_RECORD
  5
2DF1
330
2CBD
100
AcDbSymbolTableRecord
100
AcDbBlockTableRecord
  2
*D61
340
0
  0
BLOCK_RECORD
  5
2DF3
330
2CBD
100
AcDbSymbolTableRecord
100
AcDbBlockTableRecord
  2
*U62
340
0
102
{BLKREFS
331
1DB7
102
}
  0
BLOCK_RECORD
  5
2DF5
330
2CBD
100
AcDbSymbolTableRecord
100
AcDbBlockTableRecord
  2
*U63
340
0
  0
BLOCK_RECORD
  5
2DF7
330
2CBD
100
AcDbSymbolTableRecord
100
AcDbBlockTableRecord
  2
*U64
340
0
  0
BLOCK_RECORD
  5
2DF9
330
2CBD
100
AcDbSymbolTableRecord
100
AcDbBlockTableRecord
  2
*U65
340
0
  0
BLOCK_RECORD
  5
2DFB
330
2CBD
100
AcDbSymbolTableRecord
100
AcDbBlockTableRecord
  2
*U66
340
0
  0
BLOCK_RECORD
  5
2DFD
330
2CBD
100
AcDbSymbolTableRecord
100
AcDbBlockTableRecord
  2
*U67
340
0
  0
BLOCK_RECORD
  5
2DFF
330
2CBD
100
AcDbSymbolTableRecord
100
AcDbBlockTableRecord
  2
*U68
340
0
  0
BLOCK_RECORD
  5
2E01
330
2CBD
100
AcDbSymbolTableRecord
100
AcDbBlockTableRecord
  2
*U69
340
0
  0
BLOCK_RECORD
  5
2E03
330
2CBD
100
AcDbSymbolTableRecord
100
AcDbBlockTableRecord
  2
*U70
340
0
  0
BLOCK_RECORD
  5
2E05
330
2CBD
100
AcDbSymbolTableRecord
100
AcDbBlockTableRecord
  2
*U71
340
0
  0
BLOCK_RECORD
  5
2E07
330
2CBD
100
AcDbSymbolTableRecord
100
AcDbBlockTableRecord
  2
*U72
340
0
  0
BLOCK_RECORD
  5
2E09
330
2CBD
100
AcDbSymbolTableRecord
100
AcDbBlockTableRecord
  2
*U73
340
0
  0
BLOCK_RECORD
  5
2E0B
330
2CBD
100
AcDbSymbolTableRecord
100
AcDbBlockTableRecord
  2
*U74
340
0
102
{BLKREFS
331
2C42
102
}
  0
BLOCK_RECORD
  5
2E0D
330
2CBD
100
AcDbSymbolTableRecord
100
AcDbBlockTableRecord
  2
*U75
340
0
102
{BLKREFS
331
2C43
102
}
  0
BLOCK_RECORD
  5
2E0F
330
2CBD
100
AcDbSymbolTableRecord
100
AcDbBlockTableRecord
  2
*X76
340
0
102
{BLKREFS
331
2C66
102
}
  0
BLOCK_RECORD
  5
2E11
330
2CBD
100
AcDbSymbolTableRecord
100
AcDbBlockTableRecord
  2
*X77
340
0
102
{BLKREFS
331
2C67
102
}
  0
ENDTAB
  0
ENDSEC
  0
SECTION
  2
BLOCKS
  0
BLOCK
  5
2D31
330
2D30
100
AcDbEntity
  8
0
100
AcDbBlockBegin
  2
*Model_Space
 70
     0
 10
0.0
 20
0.0
 30
0.0
  3
*Model_Space
  1

  0
ENDBLK
  5
2D32
330
2D30
100
AcDbEntity
  8
0
100
AcDbBlockEnd
  0
BLOCK
  5
2D2D
330
2D2C
100
AcDbEntity
 67
     1
  8
0
100
AcDbBlockBegin
  2
*Paper_Space
 70
     0
 10
0.0
 20
0.0
 30
0.0
  3
*Paper_Space
  1

  0
ENDBLK
  5
2D2E
330
2D2C
100
AcDbEntity
 67
     1
  8
0
100
AcDbBlockEnd
  0
BLOCK
  5
2D78
330
2D77
100
AcDbEntity
  8
0
100
AcDbBlockBegin
  2
$MODEL_SPACE
 70
     0
 10
0.0
 20
0.0
 30
0.0
  3
$MODEL_SPACE
  1

  0
ENDBLK
  5
1FC1
330
2D77
100
AcDbEntity
  8
0
100
AcDbBlockEnd
  0
BLOCK
  5
2D7A
330
2D79
100
AcDbEntity
  8
0
100
AcDbBlockBegin
  2
$PAPER_SPACE
 70
     0
 10
0.0
 20
0.0
 30
0.0
  3
$PAPER_SPACE
  1

  0
ENDBLK
  5
1FBD
330
2D79
100
AcDbEntity
  8
0
100
AcDbBlockEnd
  0
BLOCK
  5
2D7C
330
2D7B
100
AcDbEntity
  8
0
100
AcDbBlockBegin
  2
_ORIGIN
 70
     0
 10
0.0
 20
0.0
 30
0.0
  3
_ORIGIN
  1

  0
CIRCLE
  5
880
330
2D7B
100
AcDbEntity
  8
0
  6
Continuous
 62
     7
100
AcDbCircle
 10
0.0
 20
0.0
 30
0.0
 40
0.5
  0
LINE
  5
881
330
2D7B
100
AcDbEntity
  8
0
  6
Continuous
 62
     7
100
AcDbLine
 10
0.0
 20
0.0
 30
0.0
 11
-1.0
 21
0.0
 31
0.0
  0
ENDBLK
  5
882
330
2D7B
100
AcDbEntity
  8
0
100
AcDbBlockEnd
  0
BLOCK
  5
2D7E
330
2D7D
100
AcDbEntity
  8
0
 62
     1
100
AcDbBlockBegin
  2
_DOTBLANK
 70
     0
 10
0.0
 20
0.0
 30
0.0
  3
_DOTBLANK
  1

  0
CIRCLE
  5
AB3
330
2D7D
100
AcDbEntity
  8
0
  6
ByBlock
 62
     0
100
AcDbCircle
 10
0.0
 20
0.0
 30
0.0
 40
0.5
  0
LINE
  5
AB4
330
2D7D
100
AcDbEntity
  8
0
  6
ByBlock
 62
     0
100
AcDbLine
 10
-0.5
 20
0.0
 30
0.0
 11
-1.0
 21
0.0
 31
0.0
  0
ENDBLK
  5
AB6
330
2D7D
100
AcDbEntity
  8
0
 62
     1
100
AcDbBlockEnd
  0
BLOCK
  5
2D80
330
2D7F
100
AcDbEntity
  8
0
 62
     1
100
AcDbBlockBegin
  2
_OPEN30
 70
     0
 10
0.0
 20
0.0
 30
0.0
  3
_OPEN30
  1

  0
LINE
  5
AB8
330
2D7F
100
AcDbEntity
  8
0
  6
ByBlock
 62
     0
100
AcDbLine
 10
-1.0
 20
0.26794919
 30
0.0
 11
0.0
 21
0.0
 31
0.0
  0
LINE
  5
AB9
330
2D7F
100
AcDbEntity
  8
0
  6
ByBlock
 62
     0
100
AcDbLine
 10
0.0
 20
0.0
 30
0.0
 11
-1.0
 21
-0.26794919
 31
0.0
  0
LINE
  5
ABA
330
2D7F
100
AcDbEntity
  8
0
  6
ByBlock
 62
     0
100
AcDbLine
 10
0.0
 20
0.0
 30
0.0
 11
-1.0
 21
0.0
 31
0.0
  0
ENDBLK
  5
ABC
330
2D7F
100
AcDbEntity
  8
0
 62
     1
100
AcDbBlockEnd
  0
BLOCK
  5
2D82
330
2D81
100
AcDbEntity
  8
0
100
AcDbBlockBegin
  2
*D5
 70
     1
 10
0.0
 20
0.0
 30
0.0
  3
*D5
  1

  0
LINE
  5
1296
330
2D81
100
AcDbEntity
  8
SIZE
 62
     0
100
AcDbLine
 10
-134.5
 20
-320.0
 30
0.0
 11
-134.5
 21
-468.0173952306001
 31
0.0
  0
LINE
  5
1297
330
2D81
100
AcDbEntity
  8
SIZE
 62
     0
100
AcDbLine
 10
134.5
 20
-320.0
 30
0.0
 11
134.5
 21
-468.0173952306001
 31
0.0
  0
LINE
  5
1298
330
2D81
100
AcDbEntity
  8
SIZE
 62
     0
100
AcDbLine
 10
-122.5
 20
-448.0173952306
 30
0.0
 11
122.5
 21
-448.0173952306
 31
0.0
  0
INSERT
  5
1299
330
2D81
100
AcDbEntity
  8
SIZE
 62
     0
100
AcDbBlockReference
  2
_DOTBLANK
 10
-134.5
 20
-448.0173952306
 30
0.0
 41
12.0
 42
12.0
 43
12.0
 50
180.0
  0
INSERT
  5
129A
330
2D81
100
AcDbEntity
  8
SIZE
 62
     0
100
AcDbBlockReference
  2
_DOTBLANK
 10
134.5
 20
-448.0173952306
 30
0.0
 41
12.0
 42
12.0
 43
12.0
  0
INSERT
  5
129B
330
2D81
100
AcDbEntity
  8
0
100
AcDbBlockReference
  2
*U6
 10
0.0
 20
0.0
 30
0.0
  0
POINT
  5
129C
330
2D81
100
AcDbEntity
  8
DEFPOINTS
 62
     0
100
AcDbPoint
 10
-134.5
 20
-300.0
 30
0.0
  0
POINT
  5
129D
330
2D81
100
AcDbEntity
  8
DEFPOINTS
 62
     0
100
AcDbPoint
 10
134.5
 20
-300.0
 30
0.0
  0
POINT
  5
129E
330
2D81
100
AcDbEntity
  8
DEFPOINTS
 62
     0
100
AcDbPoint
 10
134.5
 20
-448.0173952306
 30
0.0
  0
ENDBLK
  5
D72
330
2D81
100
AcDbEntity
  8
0
100
AcDbBlockEnd
  0
BLOCK
  5
2D84
330
2D83
100
AcDbEntity
  8
0
100
AcDbBlockBegin
  2
*U6
 70
     1
 10
0.0
 20
0.0
 30
0.0
  3
*U6
  1

  0
TEXT
  5
1EF5
330
2D83
100
AcDbEntity
  8
SIZE
 62
     0
100
AcDbText
 10
-72.68571428571426
 20
-438.0173952305999
 30
0.0
 40
64.0
  1
269
 41
0.9
100
AcDbText
  0
ENDBLK
  5
1EF7
330
2D83
100
AcDbEntity
  8
0
100
AcDbBlockEnd
  0
BLOCK
  5
2D86
330
2D85
100
AcDbEntity
  8
0
100
AcDbBlockBegin
  2
*D7
 70
     1
 10
0.0
 20
0.0
 30
0.0
  3
*D7
  1

  0
LINE
  5
11A7
330
2D85
100
AcDbEntity
  8
SIZE
  6
Continuous
 62
     0
100
AcDbLine
 10
143.5
 20
-300.0
 30
0.0
 11
304.6432844803791
 21
-300.0
 31
0.0
  0
LINE
  5
11A8
330
2D85
100
AcDbEntity
  8
SIZE
  6
Continuous
 62
     0
100
AcDbLine
 10
177.5
 20
-0.0000000000000057
 30
0.0
 11
304.6432844803792
 21
-0.0000000000000417
 31
0.0
  0
LINE
  5
11A9
330
2D85
100
AcDbEntity
  8
SIZE
  6
Continuous
 62
     0
100
AcDbLine
 10
284.6432844803791
 20
-288.0000000000001
 30
0.0
 11
284.6432844803792
 21
-12.00000000000003
 31
0.0
  0
INSERT
  5
11AA
330
2D85
100
AcDbEntity
  8
SIZE
  6
Continuous
 62
     0
100
AcDbBlockReference
  2
_DOTBLANK
 10
284.6432844803791
 20
-300.0
 30
0.0
 41
12.0
 42
12.0
 43
12.0
 50
270.0
  0
INSERT
  5
11AB
330
2D85
100
AcDbEntity
  8
SIZE
  6
Continuous
 62
     0
100
AcDbBlockReference
  2
_DOTBLANK
 10
284.6432844803792
 20
-0.000000000000036
 30
0.0
 41
12.0
 42
12.0
 43
12.0
 50
90.0
  0
INSERT
  5
11AC
330
2D85
100
AcDbEntity
  8
0
100
AcDbBlockReference
  2
*U8
 10
0.0
 20
0.0
 30
0.0
  0
POINT
  5
11AD
330
2D85
100
AcDbEntity
  8
DEFPOINTS
  6
Continuous
 62
     0
100
AcDbPoint
 10
123.5
 20
-300.0
 30
0.0
  0
POINT
  5
11AE
330
2D85
100
AcDbEntity
  8
DEFPOINTS
  6
Continuous
 62
     0
100
AcDbPoint
 10
157.5
 20
0.0
 30
0.0
  0
POINT
  5
11AF
330
2D85
100
AcDbEntity
  8
DEFPOINTS
  6
Continuous
 62
     0
100
AcDbPoint
 10
284.6432844803792
 20
-0.000000000000036
 30
0.0
  0
ENDBLK
  5
E11
330
2D85
100
AcDbEntity
  8
0
100
AcDbBlockEnd
  0
BLOCK
  5
2D88
330
2D87
100
AcDbEntity
  8
0
100
AcDbBlockBegin
  2
*U8
 70
     1
 10
0.0
 20
0.0
 30
0.0
  3
*U8
  1

  0
TEXT
  5
1EE1
330
2D87
100
AcDbEntity
  8
SIZE
 62
     0
100
AcDbText
 10
274.6432844803792
 20
-224.0571428571429
 30
0.0
 40
64.0
  1
300
 50
90.0
 41
0.9
100
AcDbText
  0
ENDBLK
  5
1EE3
330
2D87
100
AcDbEntity
  8
0
100
AcDbBlockEnd
  0
BLOCK
  5
2D8A
330
2D89
100
AcDbEntity
  8
0
100
AcDbBlockBegin
  2
*D9
 70
     1
 10
0.0
 20
0.0
 30
0.0
  3
*D9
  1

  0
LINE
  5
E7D
330
2D89
100
AcDbEntity
  8
SIZE
 62
     0
100
AcDbLine
 10
-139.9999999999998
 20
32.46448280219375
 30
0.0
 11
-139.9999999999998
 21
136.4516878685508
 31
0.0
  0
LINE
  5
E7E
330
2D89
100
AcDbEntity
  8
SIZE
 62
     0
100
AcDbLine
 10
140.0
 20
32.46448280219375
 30
0.0
 11
140.0
 21
136.4516878685508
 31
0.0
  0
LINE
  5
E7F
330
2D89
100
AcDbEntity
  8
SIZE
 62
     0
100
AcDbLine
 10
-128.0
 20
116.4516878685508
 30
0.0
 11
128.0
 21
116.4516878685508
 31
0.0
  0
INSERT
  5
E80
330
2D89
100
AcDbEntity
  8
SIZE
 62
     0
100
AcDbBlockReference
  2
_DOTBLANK
 10
-139.9999999999998
 20
116.4516878685508
 30
0.0
 41
12.0
 42
12.0
 43
12.0
 50
180.0
  0
INSERT
  5
E81
330
2D89
100
AcDbEntity
  8
SIZE
 62
     0
100
AcDbBlockReference
  2
_DOTBLANK
 10
140.0
 20
116.4516878685508
 30
0.0
 41
12.0
 42
12.0
 43
12.0
  0
INSERT
  5
E82
330
2D89
100
AcDbEntity
  8
0
100
AcDbBlockReference
  2
*U10
 10
0.0
 20
0.0
 30
0.0
  0
POINT
  5
E83
330
2D89
100
AcDbEntity
  8
DEFPOINTS
 62
     0
100
AcDbPoint
 10
-139.9999999999998
 20
12.46448280219374
 30
0.0
  0
POINT
  5
E84
330
2D89
100
AcDbEntity
  8
DEFPOINTS
 62
     0
100
AcDbPoint
 10
140.0
 20
12.46448280219374
 30
0.0
  0
POINT
  5
E85
330
2D89
100
AcDbEntity
  8
DEFPOINTS
 62
     0
100
AcDbPoint
 10
140.0
 20
116.4516878685508
 30
0.0
  0
ENDBLK
  5
E7C
330
2D89
100
AcDbEntity
  8
0
100
AcDbBlockEnd
  0
BLOCK
  5
2D8C
330
2D8B
100
AcDbEntity
  8
0
100
AcDbBlockBegin
  2
*U10
 70
     1
 10
0.0
 20
0.0
 30
0.0
  3
*U10
  1

  0
TEXT
  5
1ED8
330
2D8B
100
AcDbEntity
  8
SIZE
 62
     0
100
AcDbText
 10
-74.05714285714281
 20
126.4516878685508
 30
0.0
 40
64.0
  1
280
 41
0.9
100
AcDbText
  0
ENDBLK
  5
1EDA
330
2D8B
100
AcDbEntity
  8
0
100
AcDbBlockEnd
  0
BLOCK
  5
2D8E
330
2D8D
100
AcDbEntity
  8
0
100
AcDbBlockBegin
  2
GENAXEH
 70
     0
 10
0.0
 20
0.0
 30
0.0
  3
GENAXEH
  1

  0
LINE
  5
FDB
330
2D8D
100
AcDbEntity
  8
0
100
AcDbLine
 10
-1.0
 20
0.0
 30
0.0
 11
1.0
 21
0.0
 31
0.0
  0
ENDBLK
  5
FDD
330
2D8D
100
AcDbEntity
  8
0
100
AcDbBlockEnd
  0
BLOCK
  5
2D90
330
2D8F
100
AcDbEntity
  8
0
100
AcDbBlockBegin
  2
*D12
 70
     1
 10
0.0
 20
0.0
 30
0.0
  3
*D12
  1

  0
LINE
  5
1120
330
2D8F
100
AcDbEntity
  8
SIZE
 62
     0
100
AcDbLine
 10
-157.5
 20
20.0
 30
0.0
 11
-157.5
 21
245.5794621189598
 31
0.0
  0
LINE
  5
1121
330
2D8F
100
AcDbEntity
  8
SIZE
 62
     0
100
AcDbLine
 10
157.5
 20
20.0
 30
0.0
 11
157.5
 21
245.5794621189598
 31
0.0
  0
LINE
  5
1122
330
2D8F
100
AcDbEntity
  8
SIZE
 62
     0
100
AcDbLine
 10
-145.5
 20
225.5794621189598
 30
0.0
 11
145.5
 21
225.5794621189598
 31
0.0
  0
INSERT
  5
1123
330
2D8F
100
AcDbEntity
  8
SIZE
 62
     0
100
AcDbBlockReference
  2
_DOTBLANK
 10
-157.5
 20
225.5794621189598
 30
0.0
 41
12.0
 42
12.0
 43
12.0
 50
180.0
  0
INSERT
  5
1124
330
2D8F
100
AcDbEntity
  8
SIZE
 62
     0
100
AcDbBlockReference
  2
_DOTBLANK
 10
157.5
 20
225.5794621189598
 30
0.0
 41
12.0
 42
12.0
 43
12.0
  0
INSERT
  5
1125
330
2D8F
100
AcDbEntity
  8
0
100
AcDbBlockReference
  2
*U13
 10
0.0
 20
0.0
 30
0.0
  0
POINT
  5
1126
330
2D8F
100
AcDbEntity
  8
DEFPOINTS
 62
     0
100
AcDbPoint
 10
-157.5
 20
0.0
 30
0.0
  0
POINT
  5
1127
330
2D8F
100
AcDbEntity
  8
DEFPOINTS
 62
     0
100
AcDbPoint
 10
157.5
 20
0.0
 30
0.0
  0
POINT
  5
1128
330
2D8F
100
AcDbEntity
  8
DEFPOINTS
 62
     0
100
AcDbPoint
 10
157.5
 20
225.5794621189598
 30
0.0
  0
ENDBLK
  5
111F
330
2D8F
100
AcDbEntity
  8
0
100
AcDbBlockEnd
  0
BLOCK
  5
2D92
330
2D91
100
AcDbEntity
  8
0
100
AcDbBlockBegin
  2
*U13
 70
     1
 10
0.0
 20
0.0
 30
0.0
  3
*U13
  1

  0
TEXT
  5
1EDD
330
2D91
100
AcDbEntity
  8
SIZE
 62
     0
100
AcDbText
 10
-68.57142857142857
 20
235.5794621189599
 30
0.0
 40
64.0
  1
315
 41
0.9
100
AcDbText
  0
ENDBLK
  5
1EDF
330
2D91
100
AcDbEntity
  8
0
100
AcDbBlockEnd
  0
BLOCK
  5
2D94
330
2D93
100
AcDbEntity
  8
0
100
AcDbBlockBegin
  2
*D14
 70
     1
 10
0.0
 20
0.0
 30
0.0
  3
*D14
  1

  0
LINE
  5
11BD
330
2D93
100
AcDbEntity
  8
NOTE
 62
     0
100
AcDbLine
 10
-123.4999999999999
 20
-320.0
 30
0.0
 11
-123.4999999999999
 21
-354.9529861856111
 31
0.0
  0
LINE
  5
11BE
330
2D93
100
AcDbEntity
  8
NOTE
 62
     0
100
AcDbLine
 10
-133.4999999999998
 20
-331.2126909923287
 30
0.0
 11
-133.4999999999998
 21
-354.9529861856111
 31
0.0
  0
LINE
  5
11BF
330
2D93
100
AcDbEntity
  8
NOTE
 62
     0
100
AcDbLine
 10
-111.4999999999999
 20
-334.9529861856112
 30
0.0
 11
-99.4999999999999
 21
-334.9529861856112
 31
0.0
  0
LINE
  5
11C0
330
2D93
100
AcDbEntity
  8
NOTE
 62
     0
100
AcDbLine
 10
-145.4999999999998
 20
-334.9529861856112
 30
0.0
 11
-157.4999999999998
 21
-334.9529861856112
 31
0.0
  0
LINE
  5
11C1
330
2D93
100
AcDbEntity
  8
NOTE
 62
     0
100
AcDbLine
 10
-123.4999999999999
 20
-334.9529861856112
 30
0.0
 11
-133.4999999999998
 21
-334.9529861856112
 31
0.0
  0
INSERT
  5
11C2
330
2D93
100
AcDbEntity
  8
NOTE
 62
     0
100
AcDbBlockReference
  2
_DOTBLANK
 10
-123.4999999999999
 20
-334.9529861856112
 30
0.0
 41
12.0
 42
12.0
 43
12.0
 50
180.0
  0
INSERT
  5
11C3
330
2D93
100
AcDbEntity
  8
NOTE
 62
     0
100
AcDbBlockReference
  2
_DOTBLANK
 10
-133.4999999999998
 20
-334.9529861856112
 30
0.0
 41
12.0
 42
12.0
 43
12.0
  0
INSERT
  5
11C4
330
2D93
100
AcDbEntity
  8
0
100
AcDbBlockReference
  2
*U15
 10
0.0
 20
0.0
 30
0.0
  0
POINT
  5
11C5
330
2D93
100
AcDbEntity
  8
DEFPOINTS
 62
     0
100
AcDbPoint
 10
-123.4999999999999
 20
-300.0
 30
0.0
  0
POINT
  5
11C6
330
2D93
100
AcDbEntity
  8
DEFPOINTS
 62
     0
100
AcDbPoint
 10
-133.4999999999998
 20
-311.2126909923287
 30
0.0
  0
POINT
  5
11C7
330
2D93
100
AcDbEntity
  8
DEFPOINTS
 62
     0
100
AcDbPoint
 10
-133.4999999999998
 20
-334.9529861856112
 30
0.0
  0
ENDBLK
  5
11BC
330
2D93
100
AcDbEntity
  8
0
100
AcDbBlockEnd
  0
BLOCK
  5
2D96
330
2D95
100
AcDbEntity
  8
0
100
AcDbBlockBegin
  2
*U15
 70
     1
 10
0.0
 20
0.0
 30
0.0
  3
*U15
  1

  0
TEXT
  5
1EE5
330
2D95
100
AcDbEntity
  8
NOTE
 62
     0
100
AcDbText
 10
-169.642857142857
 20
-324.9529861856112
 30
0.0
 40
64.0
  1
10
 41
0.9
100
AcDbText
  0
ENDBLK
  5
1EE7
330
2D95
100
AcDbEntity
  8
0
100
AcDbBlockEnd
  0
BLOCK
  5
2D98
330
2D97
100
AcDbEntity
  8
0
100
AcDbBlockBegin
  2
*D16
 70
     1
 10
0.0
 20
0.0
 30
0.0
  3
*D16
  1

  0
LINE
  5
11E7
330
2D97
100
AcDbEntity
  8
NOTE
 62
     0
100
AcDbLine
 10
-135.5
 20
-333.2126909923287
 30
0.0
 11
-135.5
 21
-386.2569421441843
 31
0.0
  0
LINE
  5
11E8
330
2D97
100
AcDbEntity
  8
NOTE
 62
     0
100
AcDbLine
 10
-123.4999999999999
 20
-320.0
 30
0.0
 11
-123.4999999999999
 21
-386.2569421441843
 31
0.0
  0
LINE
  5
11E9
330
2D97
100
AcDbEntity
  8
NOTE
 62
     0
100
AcDbLine
 10
-147.5
 20
-366.2569421441844
 30
0.0
 11
-159.5
 21
-366.2569421441844
 31
0.0
  0
LINE
  5
11EA
330
2D97
100
AcDbEntity
  8
NOTE
 62
     0
100
AcDbLine
 10
-111.4999999999999
 20
-366.2569421441844
 30
0.0
 11
-99.4999999999999
 21
-366.2569421441844
 31
0.0
  0
LINE
  5
11EB
330
2D97
100
AcDbEntity
  8
NOTE
 62
     0
100
AcDbLine
 10
-135.5
 20
-366.2569421441844
 30
0.0
 11
-123.4999999999999
 21
-366.2569421441844
 31
0.0
  0
INSERT
  5
11EC
330
2D97
100
AcDbEntity
  8
NOTE
 62
     0
100
AcDbBlockReference
  2
_DOTBLANK
 10
-135.5
 20
-366.2569421441844
 30
0.0
 41
12.0
 42
12.0
 43
12.0
  0
INSERT
  5
11ED
330
2D97
100
AcDbEntity
  8
NOTE
 62
     0
100
AcDbBlockReference
  2
_DOTBLANK
 10
-123.4999999999999
 20
-366.2569421441844
 30
0.0
 41
12.0
 42
12.0
 43
12.0
 50
180.0
  0
INSERT
  5
11EE
330
2D97
100
AcDbEntity
  8
0
100
AcDbBlockReference
  2
*U17
 10
0.0
 20
0.0
 30
0.0
  0
POINT
  5
11EF
330
2D97
100
AcDbEntity
  8
DEFPOINTS
 62
     0
100
AcDbPoint
 10
-135.5
 20
-313.2126909923287
 30
0.0
  0
POINT
  5
11F0
330
2D97
100
AcDbEntity
  8
DEFPOINTS
 62
     0
100
AcDbPoint
 10
-123.4999999999999
 20
-300.0
 30
0.0
  0
POINT
  5
11F1
330
2D97
100
AcDbEntity
  8
DEFPOINTS
 62
     0
100
AcDbPoint
 10
-123.4999999999999
 20
-366.2569421441844
 30
0.0
  0
ENDBLK
  5
11E6
330
2D97
100
AcDbEntity
  8
0
100
AcDbBlockEnd
  0
BLOCK
  5
2D9A
330
2D99
100
AcDbEntity
  8
0
100
AcDbBlockBegin
  2
*U17
 70
     1
 10
0.0
 20
0.0
 30
0.0
  3
*U17
  1

  0
TEXT
  5
1EE9
330
2D99
100
AcDbEntity
  8
NOTE
 62
     0
100
AcDbText
 10
-170.642857142857
 20
-356.2569421441843
 30
0.0
 40
64.0
  1
12
 41
0.9
100
AcDbText
  0
ENDBLK
  5
1EEB
330
2D99
100
AcDbEntity
  8
0
100
AcDbBlockEnd
  0
BLOCK
  5
2D9C
330
2D9B
100
AcDbEntity
  8
0
100
AcDbBlockBegin
  2
*D18
 70
     1
 10
0.0
 20
0.0
 30
0.0
  3
*D18
  1

  0
LINE
  5
11F6
330
2D9B
100
AcDbEntity
  8
NOTE
 62
     0
100
AcDbLine
 10
-123.4999999999999
 20
-320.0
 30
0.0
 11
-123.4999999999999
 21
-583.8286022818904
 31
0.0
  0
LINE
  5
11F7
330
2D9B
100
AcDbEntity
  8
NOTE
 62
     0
100
AcDbLine
 10
123.5
 20
-320.0
 30
0.0
 11
123.5
 21
-583.8286022818904
 31
0.0
  0
LINE
  5
11F8
330
2D9B
100
AcDbEntity
  8
NOTE
 62
     0
100
AcDbLine
 10
-111.4999999999999
 20
-563.8286022818904
 30
0.0
 11
111.5
 21
-563.8286022818904
 31
0.0
  0
INSERT
  5
11F9
330
2D9B
100
AcDbEntity
  8
NOTE
 62
     0
100
AcDbBlockReference
  2
_DOTBLANK
 10
-123.4999999999999
 20
-563.8286022818904
 30
0.0
 41
12.0
 42
12.0
 43
12.0
 50
180.0
  0
INSERT
  5
11FA
330
2D9B
100
AcDbEntity
  8
NOTE
 62
     0
100
AcDbBlockReference
  2
_DOTBLANK
 10
123.5
 20
-563.8286022818904
 30
0.0
 41
12.0
 42
12.0
 43
12.0
  0
INSERT
  5
11FB
330
2D9B
100
AcDbEntity
  8
0
100
AcDbBlockReference
  2
*U19
 10
0.0
 20
0.0
 30
0.0
  0
POINT
  5
11FC
330
2D9B
100
AcDbEntity
  8
DEFPOINTS
 62
     0
100
AcDbPoint
 10
-123.4999999999999
 20
-300.0
 30
0.0
  0
POINT
  5
11FD
330
2D9B
100
AcDbEntity
  8
DEFPOINTS
 62
     0
100
AcDbPoint
 10
123.5
 20
-300.0
 30
0.0
  0
POINT
  5
11FE
330
2D9B
100
AcDbEntity
  8
DEFPOINTS
 62
     0
100
AcDbPoint
 10
123.5
 20
-563.8286022818904
 30
0.0
  0
ENDBLK
  5
11F5
330
2D9B
100
AcDbEntity
  8
0
100
AcDbBlockEnd
  0
BLOCK
  5
2D9E
330
2D9D
100
AcDbEntity
  8
0
100
AcDbBlockBegin
  2
*U19
 70
     1
 10
0.0
 20
0.0
 30
0.0
  3
*U19
  1

  0
TEXT
  5
1EED
330
2D9D
100
AcDbEntity
  8
NOTE
 62
     0
100
AcDbText
 10
-74.05714285714281
 20
-553.8286022818904
 30
0.0
 40
64.0
  1
247
 41
0.9
100
AcDbText
  0
ENDBLK
  5
1EEF
330
2D9D
100
AcDbEntity
  8
0
100
AcDbBlockEnd
  0
BLOCK
  5
2DA0
330
2D9F
100
AcDbEntity
  8
0
100
AcDbBlockBegin
  2
*D20
 70
     1
 10
0.0
 20
0.0
 30
0.0
  3
*D20
  1

  0
LINE
  5
1284
330
2D9F
100
AcDbEntity
  8
NOTE
 62
     0
100
AcDbLine
 10
-123.5
 20
12.0
 30
0.0
 11
-123.5
 21
71.83630134534229
 31
0.0
  0
LINE
  5
1285
330
2D9F
100
AcDbEntity
  8
NOTE
 62
     0
100
AcDbLine
 10
123.5
 20
12.0
 30
0.0
 11
123.5
 21
71.83630134534229
 31
0.0
  0
LINE
  5
1286
330
2D9F
100
AcDbEntity
  8
NOTE
 62
     0
100
AcDbLine
 10
-111.5
 20
51.83630134534229
 30
0.0
 11
111.5
 21
51.83630134534229
 31
0.0
  0
INSERT
  5
1287
330
2D9F
100
AcDbEntity
  8
NOTE
 62
     0
100
AcDbBlockReference
  2
_DOTBLANK
 10
-123.5
 20
51.83630134534229
 30
0.0
 41
12.0
 42
12.0
 43
12.0
 50
180.0
  0
INSERT
  5
1288
330
2D9F
100
AcDbEntity
  8
NOTE
 62
     0
100
AcDbBlockReference
  2
_DOTBLANK
 10
123.5
 20
51.83630134534229
 30
0.0
 41
12.0
 42
12.0
 43
12.0
  0
INSERT
  5
1289
330
2D9F
100
AcDbEntity
  8
0
100
AcDbBlockReference
  2
*U21
 10
0.0
 20
0.0
 30
0.0
  0
POINT
  5
128A
330
2D9F
100
AcDbEntity
  8
DEFPOINTS
 62
     0
100
AcDbPoint
 10
-123.5
 20
-8.0
 30
0.0
  0
POINT
  5
128B
330
2D9F
100
AcDbEntity
  8
DEFPOINTS
 62
     0
100
AcDbPoint
 10
123.5
 20
-8.0
 30
0.0
  0
POINT
  5
128C
330
2D9F
100
AcDbEntity
  8
DEFPOINTS
 62
     0
100
AcDbPoint
 10
123.5
 20
51.83630134534229
 30
0.0
  0
ENDBLK
  5
1283
330
2D9F
100
AcDbEntity
  8
0
100
AcDbBlockEnd
  0
BLOCK
  5
2DA2
330
2DA1
100
AcDbEntity
  8
0
100
AcDbBlockBegin
  2
*U21
 70
     1
 10
0.0
 20
0.0
 30
0.0
  3
*U21
  1

  0
TEXT
  5
1EF1
330
2DA1
100
AcDbEntity
  8
NOTE
 62
     0
100
AcDbText
 10
-74.05714285714283
 20
61.83630134534229
 30
0.0
 40
64.0
  1
247
 41
0.9
100
AcDbText
  0
ENDBLK
  5
1EF3
330
2DA1
100
AcDbEntity
  8
0
100
AcDbBlockEnd
  0
BLOCK
  5
2DA4
330
2DA3
100
AcDbEntity
  8
0
100
AcDbBlockBegin
  2
*D22
 70
     1
 10
0.0
 20
0.0
 30
0.0
  3
*D22
  1

  0
LINE
  5
1414
330
2DA3
100
AcDbEntity
  8
SIZE
 62
     0
100
AcDbLine
 10
-22313.11521613997
 20
7365.702971374808
 30
0.0
 11
-22313.11521613997
 21
7217.685576144207
 31
0.0
  0
LINE
  5
1415
330
2DA3
100
AcDbEntity
  8
SIZE
 62
     0
100
AcDbLine
 10
-22044.11521613997
 20
7365.702971374808
 30
0.0
 11
-22044.11521613997
 21
7217.685576144207
 31
0.0
  0
LINE
  5
1416
330
2DA3
100
AcDbEntity
  8
SIZE
 62
     0
100
AcDbLine
 10
-22301.11521613997
 20
7237.685576144207
 30
0.0
 11
-22056.11521613997
 21
7237.685576144207
 31
0.0
  0
INSERT
  5
1417
330
2DA3
100
AcDbEntity
  8
SIZE
 62
     0
100
AcDbBlockReference
  2
_DOTBLANK
 10
-22313.11521613997
 20
7237.685576144207
 30
0.0
 41
12.0
 42
12.0
 43
12.0
 50
180.0
  0
INSERT
  5
1418
330
2DA3
100
AcDbEntity
  8
SIZE
 62
     0
100
AcDbBlockReference
  2
_DOTBLANK
 10
-22044.11521613997
 20
7237.685576144207
 30
0.0
 41
12.0
 42
12.0
 43
12.0
  0
INSERT
  5
1419
330
2DA3
100
AcDbEntity
  8
0
100
AcDbBlockReference
  2
*U23
 10
0.0
 20
0.0
 30
0.0
  0
POINT
  5
141A
330
2DA3
100
AcDbEntity
  8
DEFPOINTS
 62
     0
100
AcDbPoint
 10
-22313.11521613997
 20
7385.702971374808
 30
0.0
  0
POINT
  5
141B
330
2DA3
100
AcDbEntity
  8
DEFPOINTS
 62
     0
100
AcDbPoint
 10
-22044.11521613997
 20
7385.702971374808
 30
0.0
  0
POINT
  5
141C
330
2DA3
100
AcDbEntity
  8
DEFPOINTS
 62
     0
100
AcDbPoint
 10
-22044.11521613997
 20
7237.685576144207
 30
0.0
  0
ENDBLK
  5
141D
330
2DA3
100
AcDbEntity
  8
0
100
AcDbBlockEnd
  0
BLOCK
  5
2DA6
330
2DA5
100
AcDbEntity
  8
0
100
AcDbBlockBegin
  2
*U23
 70
     1
 10
0.0
 20
0.0
 30
0.0
  3
*U23
  1

  0
TEXT
  5
1EF9
330
2DA5
100
AcDbEntity
  8
SIZE
 62
     0
100
AcDbText
 10
-22251.30093042568
 20
7247.685576144205
 30
0.0
 40
64.0
  1
269
 41
0.9
100
AcDbText
  0
ENDBLK
  5
1EFB
330
2DA5
100
AcDbEntity
  8
0
100
AcDbBlockEnd
  0
BLOCK
  5
2DA8
330
2DA7
100
AcDbEntity
  8
0
100
AcDbBlockBegin
  2
*D24
 70
     1
 10
0.0
 20
0.0
 30
0.0
  3
*D24
  1

  0
LINE
  5
1420
330
2DA7
100
AcDbEntity
  8
SIZE
  6
Continuous
 62
     0
100
AcDbLine
 10
-22035.11521613997
 20
7385.702971374808
 30
0.0
 11
-21873.97193165959
 21
7385.702971374808
 31
0.0
  0
LINE
  5
1421
330
2DA7
100
AcDbEntity
  8
SIZE
  6
Continuous
 62
     0
100
AcDbLine
 10
-22001.11521613997
 20
7685.702971374808
 30
0.0
 11
-21873.97193165959
 21
7685.702971374808
 31
0.0
  0
LINE
  5
1422
330
2DA7
100
AcDbEntity
  8
SIZE
  6
Continuous
 62
     0
100
AcDbLine
 10
-21893.97193165959
 20
7397.702971374808
 30
0.0
 11
-21893.97193165959
 21
7673.702971374808
 31
0.0
  0
INSERT
  5
1423
330
2DA7
100
AcDbEntity
  8
SIZE
  6
Continuous
 62
     0
100
AcDbBlockReference
  2
_DOTBLANK
 10
-21893.97193165959
 20
7385.702971374808
 30
0.0
 41
12.0
 42
12.0
 43
12.0
 50
270.0
  0
INSERT
  5
1424
330
2DA7
100
AcDbEntity
  8
SIZE
  6
Continuous
 62
     0
100
AcDbBlockReference
  2
_DOTBLANK
 10
-21893.97193165959
 20
7685.702971374808
 30
0.0
 41
12.0
 42
12.0
 43
12.0
 50
90.0
  0
INSERT
  5
1425
330
2DA7
100
AcDbEntity
  8
0
100
AcDbBlockReference
  2
*U25
 10
0.0
 20
0.0
 30
0.0
  0
POINT
  5
1426
330
2DA7
100
AcDbEntity
  8
DEFPOINTS
  6
Continuous
 62
     0
100
AcDbPoint
 10
-22055.11521613997
 20
7385.702971374808
 30
0.0
  0
POINT
  5
1427
330
2DA7
100
AcDbEntity
  8
DEFPOINTS
  6
Continuous
 62
     0
100
AcDbPoint
 10
-22021.11521613997
 20
7685.702971374808
 30
0.0
  0
POINT
  5
1428
330
2DA7
100
AcDbEntity
  8
DEFPOINTS
  6
Continuous
 62
     0
100
AcDbPoint
 10
-21893.97193165959
 20
7685.702971374808
 30
0.0
  0
ENDBLK
  5
1429
330
2DA7
100
AcDbEntity
  8
0
100
AcDbBlockEnd
  0
BLOCK
  5
2DAA
330
2DA9
100
AcDbEntity
  8
0
100
AcDbBlockBegin
  2
*U25
 70
     1
 10
0.0
 20
0.0
 30
0.0
  3
*U25
  1

  0
TEXT
  5
1EFD
330
2DA9
100
AcDbEntity
  8
SIZE
 62
     0
100
AcDbText
 10
-21903.97193165959
 20
7461.645828517662
 30
0.0
 40
64.0
  1
300
 50
90.0
 41
0.9
100
AcDbText
  0
ENDBLK
  5
1EFF
330
2DA9
100
AcDbEntity
  8
0
100
AcDbBlockEnd
  0
BLOCK
  5
2DAC
330
2DAB
100
AcDbEntity
  8
0
100
AcDbBlockBegin
  2
*D26
 70
     1
 10
0.0
 20
0.0
 30
0.0
  3
*D26
  1

  0
LINE
  5
142C
330
2DAB
100
AcDbEntity
  8
SIZE
 62
     0
100
AcDbLine
 10
-22318.61521613997
 20
7718.167454177002
 30
0.0
 11
-22318.61521613997
 21
7822.154659243358
 31
0.0
  0
LINE
  5
142D
330
2DAB
100
AcDbEntity
  8
SIZE
 62
     0
100
AcDbLine
 10
-22038.61521613997
 20
7718.167454177002
 30
0.0
 11
-22038.61521613997
 21
7822.154659243358
 31
0.0
  0
LINE
  5
142E
330
2DAB
100
AcDbEntity
  8
SIZE
 62
     0
100
AcDbLine
 10
-22306.61521613997
 20
7802.154659243358
 30
0.0
 11
-22050.61521613997
 21
7802.154659243358
 31
0.0
  0
INSERT
  5
142F
330
2DAB
100
AcDbEntity
  8
SIZE
 62
     0
100
AcDbBlockReference
  2
_DOTBLANK
 10
-22318.61521613997
 20
7802.154659243358
 30
0.0
 41
12.0
 42
12.0
 43
12.0
 50
180.0
  0
INSERT
  5
1430
330
2DAB
100
AcDbEntity
  8
SIZE
 62
     0
100
AcDbBlockReference
  2
_DOTBLANK
 10
-22038.61521613997
 20
7802.154659243358
 30
0.0
 41
12.0
 42
12.0
 43
12.0
  0
INSERT
  5
1431
330
2DAB
100
AcDbEntity
  8
0
100
AcDbBlockReference
  2
*U27
 10
0.0
 20
0.0
 30
0.0
  0
POINT
  5
1432
330
2DAB
100
AcDbEntity
  8
DEFPOINTS
 62
     0
100
AcDbPoint
 10
-22318.61521613997
 20
7698.167454177002
 30
0.0
  0
POINT
  5
1433
330
2DAB
100
AcDbEntity
  8
DEFPOINTS
 62
     0
100
AcDbPoint
 10
-22038.61521613997
 20
7698.167454177002
 30
0.0
  0
POINT
  5
1434
330
2DAB
100
AcDbEntity
  8
DEFPOINTS
 62
     0
100
AcDbPoint
 10
-22038.61521613997
 20
7802.154659243358
 30
0.0
  0
ENDBLK
  5
1435
330
2DAB
100
AcDbEntity
  8
0
100
AcDbBlockEnd
  0
BLOCK
  5
2DAE
330
2DAD
100
AcDbEntity
  8
0
100
AcDbBlockBegin
  2
*U27
 70
     1
 10
0.0
 20
0.0
 30
0.0
  3
*U27
  1

  0
TEXT
  5
1F01
330
2DAD
100
AcDbEntity
  8
SIZE
 62
     0
100
AcDbText
 10
-22252.6723589971
 20
7812.154659243358
 30
0.0
 40
64.0
  1
280
 41
0.9
100
AcDbText
  0
ENDBLK
  5
1F03
330
2DAD
100
AcDbEntity
  8
0
100
AcDbBlockEnd
  0
BLOCK
  5
2DB0
330
2DAF
100
AcDbEntity
  8
0
100
AcDbBlockBegin
  2
*D28
 70
     1
 10
0.0
 20
0.0
 30
0.0
  3
*D28
  1

  0
LINE
  5
1438
330
2DAF
100
AcDbEntity
  8
SIZE
 62
     0
100
AcDbLine
 10
-22336.11521613997
 20
7705.702971374808
 30
0.0
 11
-22336.11521613997
 21
7931.282433493766
 31
0.0
  0
LINE
  5
1439
330
2DAF
100
AcDbEntity
  8
SIZE
 62
     0
100
AcDbLine
 10
-22021.11521613997
 20
7705.702971374808
 30
0.0
 11
-22021.11521613997
 21
7931.282433493766
 31
0.0
  0
LINE
  5
143A
330
2DAF
100
AcDbEntity
  8
SIZE
 62
     0
100
AcDbLine
 10
-22324.11521613997
 20
7911.282433493766
 30
0.0
 11
-22033.11521613997
 21
7911.282433493766
 31
0.0
  0
INSERT
  5
143B
330
2DAF
100
AcDbEntity
  8
SIZE
 62
     0
100
AcDbBlockReference
  2
_DOTBLANK
 10
-22336.11521613997
 20
7911.282433493766
 30
0.0
 41
12.0
 42
12.0
 43
12.0
 50
180.0
  0
INSERT
  5
143C
330
2DAF
100
AcDbEntity
  8
SIZE
 62
     0
100
AcDbBlockReference
  2
_DOTBLANK
 10
-22021.11521613997
 20
7911.282433493766
 30
0.0
 41
12.0
 42
12.0
 43
12.0
  0
INSERT
  5
143D
330
2DAF
100
AcDbEntity
  8
0
100
AcDbBlockReference
  2
*U29
 10
0.0
 20
0.0
 30
0.0
  0
POINT
  5
143E
330
2DAF
100
AcDbEntity
  8
DEFPOINTS
 62
     0
100
AcDbPoint
 10
-22336.11521613997
 20
7685.702971374808
 30
0.0
  0
POINT
  5
143F
330
2DAF
100
AcDbEntity
  8
DEFPOINTS
 62
     0
100
AcDbPoint
 10
-22021.11521613997
 20
7685.702971374808
 30
0.0
  0
POINT
  5
1440
330
2DAF
100
AcDbEntity
  8
DEFPOINTS
 62
     0
100
AcDbPoint
 10
-22021.11521613997
 20
7911.282433493766
 30
0.0
  0
ENDBLK
  5
1441
330
2DAF
100
AcDbEntity
  8
0
100
AcDbBlockEnd
  0
BLOCK
  5
2DB2
330
2DB1
100
AcDbEntity
  8
0
100
AcDbBlockBegin
  2
*U29
 70
     1
 10
0.0
 20
0.0
 30
0.0
  3
*U29
  1

  0
TEXT
  5
1F05
330
2DB1
100
AcDbEntity
  8
SIZE
 62
     0
100
AcDbText
 10
-22247.18664471139
 20
7921.282433493766
 30
0.0
 40
64.0
  1
315
 41
0.9
100
AcDbText
  0
ENDBLK
  5
1F07
330
2DB1
100
AcDbEntity
  8
0
100
AcDbBlockEnd
  0
BLOCK
  5
2DB4
330
2DB3
100
AcDbEntity
  8
0
100
AcDbBlockBegin
  2
*D30
 70
     1
 10
0.0
 20
0.0
 30
0.0
  3
*D30
  1

  0
LINE
  5
166B
330
2DB3
100
AcDbEntity
  8
SIZE
 62
     0
100
AcDbLine
 10
-134.5
 20
-320.0
 30
0.0
 11
-134.5
 21
-468.0173952306001
 31
0.0
  0
LINE
  5
166C
330
2DB3
100
AcDbEntity
  8
SIZE
 62
     0
100
AcDbLine
 10
134.5
 20
-320.0
 30
0.0
 11
134.5
 21
-468.0173952306001
 31
0.0
  0
LINE
  5
166D
330
2DB3
100
AcDbEntity
  8
SIZE
 62
     0
100
AcDbLine
 10
-122.5
 20
-448.0173952306
 30
0.0
 11
122.5
 21
-448.0173952306
 31
0.0
  0
INSERT
  5
166E
330
2DB3
100
AcDbEntity
  8
SIZE
 62
     0
100
AcDbBlockReference
  2
_DOTBLANK
 10
-134.5
 20
-448.0173952306
 30
0.0
 41
12.0
 42
12.0
 43
12.0
 50
180.0
  0
INSERT
  5
166F
330
2DB3
100
AcDbEntity
  8
SIZE
 62
     0
100
AcDbBlockReference
  2
_DOTBLANK
 10
134.5
 20
-448.0173952306
 30
0.0
 41
12.0
 42
12.0
 43
12.0
  0
INSERT
  5
1670
330
2DB3
100
AcDbEntity
  8
0
100
AcDbBlockReference
  2
*U31
 10
0.0
 20
0.0
 30
0.0
  0
POINT
  5
1671
330
2DB3
100
AcDbEntity
  8
DEFPOINTS
 62
     0
100
AcDbPoint
 10
-134.5
 20
-300.0
 30
0.0
  0
POINT
  5
1672
330
2DB3
100
AcDbEntity
  8
DEFPOINTS
 62
     0
100
AcDbPoint
 10
134.5
 20
-300.0
 30
0.0
  0
POINT
  5
1673
330
2DB3
100
AcDbEntity
  8
DEFPOINTS
 62
     0
100
AcDbPoint
 10
134.5
 20
-448.0173952306
 30
0.0
  0
ENDBLK
  5
14A7
330
2DB3
100
AcDbEntity
  8
0
100
AcDbBlockEnd
  0
BLOCK
  5
2DB6
330
2DB5
100
AcDbEntity
  8
0
100
AcDbBlockBegin
  2
*U31
 70
     1
 10
0.0
 20
0.0
 30
0.0
  3
*U31
  1

  0
TEXT
  5
1F09
330
2DB5
100
AcDbEntity
  8
SIZE
 62
     0
100
AcDbText
 10
-72.68571428571426
 20
-438.0173952306002
 30
0.0
 40
64.0
  1
269
 41
0.9
100
AcDbText
  0
ENDBLK
  5
1F0B
330
2DB5
100
AcDbEntity
  8
0
100
AcDbBlockEnd
  0
BLOCK
  5
2DB8
330
2DB7
100
AcDbEntity
  8
0
100
AcDbBlockBegin
  2
*D32
 70
     1
 10
0.0
 20
0.0
 30
0.0
  3
*D32
  1

  0
LINE
  5
1674
330
2DB7
100
AcDbEntity
  8
SIZE
  6
Continuous
 62
     0
100
AcDbLine
 10
143.5
 20
-300.0
 30
0.0
 11
304.6432844803784
 21
-300.0
 31
0.0
  0
LINE
  5
1675
330
2DB7
100
AcDbEntity
  8
SIZE
  6
Continuous
 62
     0
100
AcDbLine
 10
177.5
 20
-0.0000000000000057
 30
0.0
 11
304.6432844803785
 21
-0.0000000000000417
 31
0.0
  0
LINE
  5
1676
330
2DB7
100
AcDbEntity
  8
SIZE
  6
Continuous
 62
     0
100
AcDbLine
 10
284.6432844803784
 20
-288.0000000000001
 30
0.0
 11
284.6432844803785
 21
-12.00000000000003
 31
0.0
  0
INSERT
  5
1677
330
2DB7
100
AcDbEntity
  8
SIZE
  6
Continuous
 62
     0
100
AcDbBlockReference
  2
_DOTBLANK
 10
284.6432844803784
 20
-300.0
 30
0.0
 41
12.0
 42
12.0
 43
12.0
 50
270.0
  0
INSERT
  5
1678
330
2DB7
100
AcDbEntity
  8
SIZE
  6
Continuous
 62
     0
100
AcDbBlockReference
  2
_DOTBLANK
 10
284.6432844803785
 20
-0.000000000000036
 30
0.0
 41
12.0
 42
12.0
 43
12.0
 50
90.0
  0
INSERT
  5
1679
330
2DB7
100
AcDbEntity
  8
0
100
AcDbBlockReference
  2
*U33
 10
0.0
 20
0.0
 30
0.0
  0
POINT
  5
167A
330
2DB7
100
AcDbEntity
  8
DEFPOINTS
  6
Continuous
 62
     0
100
AcDbPoint
 10
123.5
 20
-300.0
 30
0.0
  0
POINT
  5
167B
330
2DB7
100
AcDbEntity
  8
DEFPOINTS
  6
Continuous
 62
     0
100
AcDbPoint
 10
157.5
 20
0.0
 30
0.0
  0
POINT
  5
167C
330
2DB7
100
AcDbEntity
  8
DEFPOINTS
  6
Continuous
 62
     0
100
AcDbPoint
 10
284.6432844803785
 20
-0.000000000000036
 30
0.0
  0
ENDBLK
  5
14B3
330
2DB7
100
AcDbEntity
  8
0
100
AcDbBlockEnd
  0
BLOCK
  5
2DBA
330
2DB9
100
AcDbEntity
  8
0
100
AcDbBlockBegin
  2
*U33
 70
     1
 10
0.0
 20
0.0
 30
0.0
  3
*U33
  1

  0
TEXT
  5
1F0D
330
2DB9
100
AcDbEntity
  8
SIZE
 62
     0
100
AcDbText
 10
274.6432844803785
 20
-224.0571428571429
 30
0.0
 40
64.0
  1
300
 50
90.0
 41
0.9
100
AcDbText
  0
ENDBLK
  5
1F0F
330
2DB9
100
AcDbEntity
  8
0
100
AcDbBlockEnd
  0
BLOCK
  5
2DBC
330
2DBB
100
AcDbEntity
  8
0
100
AcDbBlockBegin
  2
*D34
 70
     1
 10
0.0
 20
0.0
 30
0.0
  3
*D34
  1

  0
LINE
  5
167D
330
2DBB
100
AcDbEntity
  8
SIZE
 62
     0
100
AcDbLine
 10
-140.0
 20
32.46448280219375
 30
0.0
 11
-140.0
 21
136.4516878685507
 31
0.0
  0
LINE
  5
167E
330
2DBB
100
AcDbEntity
  8
SIZE
 62
     0
100
AcDbLine
 10
140.0
 20
32.46448280219375
 30
0.0
 11
140.0
 21
136.4516878685507
 31
0.0
  0
LINE
  5
167F
330
2DBB
100
AcDbEntity
  8
SIZE
 62
     0
100
AcDbLine
 10
-128.0
 20
116.4516878685508
 30
0.0
 11
128.0
 21
116.4516878685508
 31
0.0
  0
INSERT
  5
1680
330
2DBB
100
AcDbEntity
  8
SIZE
 62
     0
100
AcDbBlockReference
  2
_DOTBLANK
 10
-140.0
 20
116.4516878685508
 30
0.0
 41
12.0
 42
12.0
 43
12.0
 50
180.0
  0
INSERT
  5
1681
330
2DBB
100
AcDbEntity
  8
SIZE
 62
     0
100
AcDbBlockReference
  2
_DOTBLANK
 10
140.0
 20
116.4516878685508
 30
0.0
 41
12.0
 42
12.0
 43
12.0
  0
INSERT
  5
1682
330
2DBB
100
AcDbEntity
  8
0
100
AcDbBlockReference
  2
*U35
 10
0.0
 20
0.0
 30
0.0
  0
POINT
  5
1683
330
2DBB
100
AcDbEntity
  8
DEFPOINTS
 62
     0
100
AcDbPoint
 10
-140.0
 20
12.46448280219374
 30
0.0
  0
POINT
  5
1684
330
2DBB
100
AcDbEntity
  8
DEFPOINTS
 62
     0
100
AcDbPoint
 10
140.0
 20
12.46448280219374
 30
0.0
  0
POINT
  5
1685
330
2DBB
100
AcDbEntity
  8
DEFPOINTS
 62
     0
100
AcDbPoint
 10
140.0
 20
116.4516878685508
 30
0.0
  0
ENDBLK
  5
14BF
330
2DBB
100
AcDbEntity
  8
0
100
AcDbBlockEnd
  0
BLOCK
  5
2DBE
330
2DBD
100
AcDbEntity
  8
0
100
AcDbBlockBegin
  2
*U35
 70
     1
 10
0.0
 20
0.0
 30
0.0
  3
*U35
  1

  0
TEXT
  5
1F11
330
2DBD
100
AcDbEntity
  8
SIZE
 62
     0
100
AcDbText
 10
-74.05714285714283
 20
126.4516878685507
 30
0.0
 40
64.0
  1
280
 41
0.9
100
AcDbText
  0
ENDBLK
  5
1F13
330
2DBD
100
AcDbEntity
  8
0
100
AcDbBlockEnd
  0
BLOCK
  5
2DC0
330
2DBF
100
AcDbEntity
  8
0
100
AcDbBlockBegin
  2
*D36
 70
     1
 10
0.0
 20
0.0
 30
0.0
  3
*D36
  1

  0
LINE
  5
1686
330
2DBF
100
AcDbEntity
  8
SIZE
 62
     0
100
AcDbLine
 10
-157.5
 20
20.0
 30
0.0
 11
-157.5
 21
245.5794621189598
 31
0.0
  0
LINE
  5
1687
330
2DBF
100
AcDbEntity
  8
SIZE
 62
     0
100
AcDbLine
 10
157.5
 20
20.0
 30
0.0
 11
157.5
 21
245.5794621189598
 31
0.0
  0
LINE
  5
1688
330
2DBF
100
AcDbEntity
  8
SIZE
 62
     0
100
AcDbLine
 10
-145.5
 20
225.5794621189598
 30
0.0
 11
145.5
 21
225.5794621189598
 31
0.0
  0
INSERT
  5
1689
330
2DBF
100
AcDbEntity
  8
SIZE
 62
     0
100
AcDbBlockReference
  2
_DOTBLANK
 10
-157.5
 20
225.5794621189598
 30
0.0
 41
12.0
 42
12.0
 43
12.0
 50
180.0
  0
INSERT
  5
168A
330
2DBF
100
AcDbEntity
  8
SIZE
 62
     0
100
AcDbBlockReference
  2
_DOTBLANK
 10
157.5
 20
225.5794621189598
 30
0.0
 41
12.0
 42
12.0
 43
12.0
  0
INSERT
  5
168B
330
2DBF
100
AcDbEntity
  8
0
100
AcDbBlockReference
  2
*U37
 10
0.0
 20
0.0
 30
0.0
  0
POINT
  5
168C
330
2DBF
100
AcDbEntity
  8
DEFPOINTS
 62
     0
100
AcDbPoint
 10
-157.5
 20
0.0
 30
0.0
  0
POINT
  5
168D
330
2DBF
100
AcDbEntity
  8
DEFPOINTS
 62
     0
100
AcDbPoint
 10
157.5
 20
0.0
 30
0.0
  0
POINT
  5
168E
330
2DBF
100
AcDbEntity
  8
DEFPOINTS
 62
     0
100
AcDbPoint
 10
157.5
 20
225.5794621189598
 30
0.0
  0
ENDBLK
  5
14CB
330
2DBF
100
AcDbEntity
  8
0
100
AcDbBlockEnd
  0
BLOCK
  5
2DC2
330
2DC1
100
AcDbEntity
  8
0
100
AcDbBlockBegin
  2
*U37
 70
     1
 10
0.0
 20
0.0
 30
0.0
  3
*U37
  1

  0
TEXT
  5
1F15
330
2DC1
100
AcDbEntity
  8
SIZE
 62
     0
100
AcDbText
 10
-68.57142857142857
 20
235.5794621189598
 30
0.0
 40
64.0
  1
315
 41
0.9
100
AcDbText
  0
ENDBLK
  5
1F17
330
2DC1
100
AcDbEntity
  8
0
100
AcDbBlockEnd
  0
BLOCK
  5
2DC4
330
2DC3
100
AcDbEntity
  8
0
100
AcDbBlockBegin
  2
*U38
 70
     1
 10
0.0
 20
0.0
 30
0.0
  3
*U38
  1

  0
ENDBLK
  5
15CF
330
2DC3
100
AcDbEntity
  8
0
100
AcDbBlockEnd
  0
BLOCK
  5
2DC6
330
2DC5
100
AcDbEntity
  8
0
100
AcDbBlockBegin
  2
*D39
 70
     1
 10
0.0
 20
0.0
 30
0.0
  3
*D39
  1

  0
LINE
  5
1692
330
2DC5
100
AcDbEntity
  8
SIZE
 62
     0
100
AcDbLine
 10
-25844.51823276502
 20
7685.702971374808
 30
0.0
 11
-25981.04465488371
 21
7685.702971374808
 31
0.0
  0
LINE
  5
1693
330
2DC5
100
AcDbEntity
  8
SIZE
 62
     0
100
AcDbLine
 10
-25844.51823276502
 20
7677.702971374808
 30
0.0
 11
-25981.04465488371
 21
7677.702971374808
 31
0.0
  0
LINE
  5
1694
330
2DC5
100
AcDbEntity
  8
SIZE
 62
     0
100
AcDbLine
 10
-25961.04465488371
 20
7697.702971374808
 30
0.0
 11
-25961.04465488371
 21
7709.702971374809
 31
0.0
  0
LINE
  5
1695
330
2DC5
100
AcDbEntity
  8
SIZE
 62
     0
100
AcDbLine
 10
-25961.04465488371
 20
7665.70297137481
 30
0.0
 11
-25961.04465488371
 21
7595.302971374808
 31
0.0
  0
INSERT
  5
1696
330
2DC5
100
AcDbEntity
  8
SIZE
 62
     0
100
AcDbBlockReference
  2
_DOTBLANK
 10
-25961.04465488371
 20
7685.702971374808
 30
0.0
 41
12.0
 42
12.0
 43
12.0
 50
270.0
  0
INSERT
  5
1697
330
2DC5
100
AcDbEntity
  8
SIZE
 62
     0
100
AcDbBlockReference
  2
_DOTBLANK
 10
-25961.04465488371
 20
7677.702971374808
 30
0.0
 41
12.0
 42
12.0
 43
12.0
 50
90.0
  0
INSERT
  5
1698
330
2DC5
100
AcDbEntity
  8
0
100
AcDbBlockReference
  2
*U40
 10
0.0
 20
0.0
 30
0.0
  0
POINT
  5
1699
330
2DC5
100
AcDbEntity
  8
DEFPOINTS
 62
     0
100
AcDbPoint
 10
-25824.51823276501
 20
7685.702971374808
 30
0.0
  0
POINT
  5
169A
330
2DC5
100
AcDbEntity
  8
DEFPOINTS
 62
     0
100
AcDbPoint
 10
-25824.51823276501
 20
7677.702971374808
 30
0.0
  0
POINT
  5
169B
330
2DC5
100
AcDbEntity
  8
DEFPOINTS
 62
     0
100
AcDbPoint
 10
-25961.04465488371
 20
7677.702971374808
 30
0.0
  0
ENDBLK
  5
169C
330
2DC5
100
AcDbEntity
  8
0
100
AcDbBlockEnd
  0
BLOCK
  5
2DC8
330
2DC7
100
AcDbEntity
  8
0
100
AcDbBlockBegin
  2
*U40
 70
     1
 10
0.0
 20
0.0
 30
0.0
  3
*U40
  1

  0
TEXT
  5
1F19
330
2DC7
100
AcDbEntity
  8
SIZE
 62
     0
100
AcDbText
 10
-25971.04465488371
 20
7605.302971374804
 30
0.0
 40
64.0
  1
8
 50
90.0
 41
0.9
100
AcDbText
  0
ENDBLK
  5
1F1B
330
2DC7
100
AcDbEntity
  8
0
100
AcDbBlockEnd
  0
BLOCK
  5
2DCA
330
2DC9
100
AcDbEntity
  8
0
100
AcDbBlockBegin
  2
*D41
 70
     1
 10
0.0
 20
0.0
 30
0.0
  3
*D41
  1

  0
LINE
  5
169F
330
2DC9
100
AcDbEntity
  8
SIZE
 62
     0
100
AcDbLine
 10
-25512.51823276502
 20
7385.702971374808
 30
0.0
 11
-25362.37494828464
 21
7385.702971374808
 31
0.0
  0
LINE
  5
16A0
330
2DC9
100
AcDbEntity
  8
SIZE
 62
     0
100
AcDbLine
 10
-25523.51823276501
 20
7373.702971374808
 30
0.0
 11
-25362.37494828464
 21
7373.702971374808
 31
0.0
  0
LINE
  5
16A1
330
2DC9
100
AcDbEntity
  8
SIZE
 62
     0
100
AcDbLine
 10
-25382.37494828464
 20
7397.702971374808
 30
0.0
 11
-25382.37494828464
 21
7409.70297137481
 31
0.0
  0
LINE
  5
16A2
330
2DC9
100
AcDbEntity
  8
SIZE
 62
     0
100
AcDbLine
 10
-25382.37494828464
 20
7361.702971374808
 30
0.0
 11
-25382.37494828464
 21
7244.674399946237
 31
0.0
  0
INSERT
  5
16A3
330
2DC9
100
AcDbEntity
  8
SIZE
 62
     0
100
AcDbBlockReference
  2
_DOTBLANK
 10
-25382.37494828464
 20
7385.702971374808
 30
0.0
 41
12.0
 42
12.0
 43
12.0
 50
270.0
  0
INSERT
  5
16A4
330
2DC9
100
AcDbEntity
  8
SIZE
 62
     0
100
AcDbBlockReference
  2
_DOTBLANK
 10
-25382.37494828464
 20
7373.702971374808
 30
0.0
 41
12.0
 42
12.0
 43
12.0
 50
90.0
  0
INSERT
  5
16A5
330
2DC9
100
AcDbEntity
  8
0
100
AcDbBlockReference
  2
*U42
 10
0.0
 20
0.0
 30
0.0
  0
POINT
  5
16A6
330
2DC9
100
AcDbEntity
  8
DEFPOINTS
 62
     0
100
AcDbPoint
 10
-25532.51823276502
 20
7385.702971374808
 30
0.0
  0
POINT
  5
16A7
330
2DC9
100
AcDbEntity
  8
DEFPOINTS
 62
     0
100
AcDbPoint
 10
-25543.51823276502
 20
7373.702971374808
 30
0.0
  0
POINT
  5
16A8
330
2DC9
100
AcDbEntity
  8
DEFPOINTS
 62
     0
100
AcDbPoint
 10
-25382.37494828464
 20
7373.702971374808
 30
0.0
  0
ENDBLK
  5
16A9
330
2DC9
100
AcDbEntity
  8
0
100
AcDbBlockEnd
  0
BLOCK
  5
2DCC
330
2DCB
100
AcDbEntity
  8
0
100
AcDbBlockBegin
  2
*U42
 70
     1
 10
0.0
 20
0.0
 30
0.0
  3
*U42
  1

  0
TEXT
  5
1F1D
330
2DCB
100
AcDbEntity
  8
SIZE
 62
     0
100
AcDbText
 10
-25392.37494828464
 20
7256.045828517662
 30
0.0
 40
64.0
  1
12
 50
90.0
 41
0.9
100
AcDbText
  0
ENDBLK
  5
1F1F
330
2DCB
100
AcDbEntity
  8
0
100
AcDbBlockEnd
  0
BLOCK
  5
2DCE
330
2DCD
100
AcDbEntity
  8
0
100
AcDbBlockBegin
  2
*D43
 70
     1
 10
0.0
 20
0.0
 30
0.0
  3
*D43
  1

  0
LINE
  5
16AC
330
2DCD
100
AcDbEntity
  8
SIZE
 62
     0
100
AcDbLine
 10
-25801.51823276501
 20
7365.702971374808
 30
0.0
 11
-25801.51823276501
 21
7217.685576144207
 31
0.0
  0
LINE
  5
16AD
330
2DCD
100
AcDbEntity
  8
SIZE
 62
     0
100
AcDbLine
 10
-25532.51823276502
 20
7365.702971374808
 30
0.0
 11
-25532.51823276502
 21
7217.685576144207
 31
0.0
  0
LINE
  5
16AE
330
2DCD
100
AcDbEntity
  8
SIZE
 62
     0
100
AcDbLine
 10
-25789.51823276502
 20
7237.685576144207
 30
0.0
 11
-25544.51823276501
 21
7237.685576144207
 31
0.0
  0
INSERT
  5
16AF
330
2DCD
100
AcDbEntity
  8
SIZE
 62
     0
100
AcDbBlockReference
  2
_DOTBLANK
 10
-25801.51823276501
 20
7237.685576144207
 30
0.0
 41
12.0
 42
12.0
 43
12.0
 50
180.0
  0
INSERT
  5
16B0
330
2DCD
100
AcDbEntity
  8
SIZE
 62
     0
100
AcDbBlockReference
  2
_DOTBLANK
 10
-25532.51823276502
 20
7237.685576144207
 30
0.0
 41
12.0
 42
12.0
 43
12.0
  0
INSERT
  5
16B1
330
2DCD
100
AcDbEntity
  8
0
100
AcDbBlockReference
  2
*U44
 10
0.0
 20
0.0
 30
0.0
  0
POINT
  5
16B2
330
2DCD
100
AcDbEntity
  8
DEFPOINTS
 62
     0
100
AcDbPoint
 10
-25801.51823276501
 20
7385.702971374808
 30
0.0
  0
POINT
  5
16B3
330
2DCD
100
AcDbEntity
  8
DEFPOINTS
 62
     0
100
AcDbPoint
 10
-25532.51823276502
 20
7385.702971374808
 30
0.0
  0
POINT
  5
16B4
330
2DCD
100
AcDbEntity
  8
DEFPOINTS
 62
     0
100
AcDbPoint
 10
-25532.51823276502
 20
7237.685576144207
 30
0.0
  0
ENDBLK
  5
16B5
330
2DCD
100
AcDbEntity
  8
0
100
AcDbBlockEnd
  0
BLOCK
  5
2DD0
330
2DCF
100
AcDbEntity
  8
0
100
AcDbBlockBegin
  2
*U44
 70
     1
 10
0.0
 20
0.0
 30
0.0
  3
*U44
  1

  0
TEXT
  5
1F21
330
2DCF
100
AcDbEntity
  8
SIZE
 62
     0
100
AcDbText
 10
-25739.70394705074
 20
7247.685576144205
 30
0.0
 40
64.0
  1
269
 41
0.9
100
AcDbText
  0
ENDBLK
  5
1F23
330
2DCF
100
AcDbEntity
  8
0
100
AcDbBlockEnd
  0
BLOCK
  5
2DD2
330
2DD1
100
AcDbEntity
  8
0
100
AcDbBlockBegin
  2
*D45
 70
     1
 10
0.0
 20
0.0
 30
0.0
  3
*D45
  1

  0
LINE
  5
16B8
330
2DD1
100
AcDbEntity
  8
SIZE
 62
     0
100
AcDbLine
 10
-25512.51823276502
 20
7385.702971374808
 30
0.0
 11
-25362.37494828464
 21
7385.702971374808
 31
0.0
  0
LINE
  5
16B9
330
2DD1
100
AcDbEntity
  8
SIZE
 62
     0
100
AcDbLine
 10
-25489.51823276501
 20
7685.702971374808
 30
0.0
 11
-25362.37494828464
 21
7685.702971374808
 31
0.0
  0
LINE
  5
16BA
330
2DD1
100
AcDbEntity
  8
SIZE
 62
     0
100
AcDbLine
 10
-25382.37494828464
 20
7397.702971374808
 30
0.0
 11
-25382.37494828464
 21
7673.702971374808
 31
0.0
  0
INSERT
  5
16BB
330
2DD1
100
AcDbEntity
  8
SIZE
 62
     0
100
AcDbBlockReference
  2
_DOTBLANK
 10
-25382.37494828464
 20
7385.702971374808
 30
0.0
 41
12.0
 42
12.0
 43
12.0
 50
270.0
  0
INSERT
  5
16BC
330
2DD1
100
AcDbEntity
  8
SIZE
 62
     0
100
AcDbBlockReference
  2
_DOTBLANK
 10
-25382.37494828464
 20
7685.702971374808
 30
0.0
 41
12.0
 42
12.0
 43
12.0
 50
90.0
  0
INSERT
  5
16BD
330
2DD1
100
AcDbEntity
  8
0
100
AcDbBlockReference
  2
*U46
 10
0.0
 20
0.0
 30
0.0
  0
POINT
  5
16BE
330
2DD1
100
AcDbEntity
  8
DEFPOINTS
 62
     0
100
AcDbPoint
 10
-25532.51823276502
 20
7385.702971374808
 30
0.0
  0
POINT
  5
16BF
330
2DD1
100
AcDbEntity
  8
DEFPOINTS
 62
     0
100
AcDbPoint
 10
-25509.51823276502
 20
7685.702971374808
 30
0.0
  0
POINT
  5
16C0
330
2DD1
100
AcDbEntity
  8
DEFPOINTS
 62
     0
100
AcDbPoint
 10
-25382.37494828464
 20
7685.702971374808
 30
0.0
  0
ENDBLK
  5
16C1
330
2DD1
100
AcDbEntity
  8
0
100
AcDbBlockEnd
  0
BLOCK
  5
2DD4
330
2DD3
100
AcDbEntity
  8
0
100
AcDbBlockBegin
  2
*U46
 70
     1
 10
0.0
 20
0.0
 30
0.0
  3
*U46
  1

  0
TEXT
  5
1F25
330
2DD3
100
AcDbEntity
  8
SIZE
 62
     0
100
AcDbText
 10
-25392.37494828464
 20
7461.645828517662
 30
0.0
 40
64.0
  1
300
 50
90.0
 41
0.9
100
AcDbText
  0
ENDBLK
  5
1F27
330
2DD3
100
AcDbEntity
  8
0
100
AcDbBlockEnd
  0
BLOCK
  5
2DD6
330
2DD5
100
AcDbEntity
  8
0
100
AcDbBlockBegin
  2
*D47
 70
     1
 10
0.0
 20
0.0
 30
0.0
  3
*D47
  1

  0
LINE
  5
16C4
330
2DD5
100
AcDbEntity
  8
SIZE
 62
     0
100
AcDbLine
 10
-25807.01823276501
 20
7718.167454177002
 30
0.0
 11
-25807.01823276501
 21
7822.154659243358
 31
0.0
  0
LINE
  5
16C5
330
2DD5
100
AcDbEntity
  8
SIZE
 62
     0
100
AcDbLine
 10
-25527.01823276501
 20
7718.167454177002
 30
0.0
 11
-25527.01823276501
 21
7822.154659243358
 31
0.0
  0
LINE
  5
16C6
330
2DD5
100
AcDbEntity
  8
SIZE
 62
     0
100
AcDbLine
 10
-25795.01823276502
 20
7802.154659243358
 30
0.0
 11
-25539.01823276501
 21
7802.154659243358
 31
0.0
  0
INSERT
  5
16C7
330
2DD5
100
AcDbEntity
  8
SIZE
 62
     0
100
AcDbBlockReference
  2
_DOTBLANK
 10
-25807.01823276501
 20
7802.154659243358
 30
0.0
 41
12.0
 42
12.0
 43
12.0
 50
180.0
  0
INSERT
  5
16C8
330
2DD5
100
AcDbEntity
  8
SIZE
 62
     0
100
AcDbBlockReference
  2
_DOTBLANK
 10
-25527.01823276501
 20
7802.154659243358
 30
0.0
 41
12.0
 42
12.0
 43
12.0
  0
INSERT
  5
16C9
330
2DD5
100
AcDbEntity
  8
0
100
AcDbBlockReference
  2
*U48
 10
0.0
 20
0.0
 30
0.0
  0
POINT
  5
16CA
330
2DD5
100
AcDbEntity
  8
DEFPOINTS
 62
     0
100
AcDbPoint
 10
-25807.01823276501
 20
7698.167454177002
 30
0.0
  0
POINT
  5
16CB
330
2DD5
100
AcDbEntity
  8
DEFPOINTS
 62
     0
100
AcDbPoint
 10
-25527.01823276501
 20
7698.167454177002
 30
0.0
  0
POINT
  5
16CC
330
2DD5
100
AcDbEntity
  8
DEFPOINTS
 62
     0
100
AcDbPoint
 10
-25527.01823276501
 20
7802.154659243358
 30
0.0
  0
ENDBLK
  5
16CD
330
2DD5
100
AcDbEntity
  8
0
100
AcDbBlockEnd
  0
BLOCK
  5
2DD8
330
2DD7
100
AcDbEntity
  8
0
100
AcDbBlockBegin
  2
*U48
 70
     1
 10
0.0
 20
0.0
 30
0.0
  3
*U48
  1

  0
TEXT
  5
1F29
330
2DD7
100
AcDbEntity
  8
SIZE
 62
     0
100
AcDbText
 10
-25741.07537562216
 20
7812.154659243358
 30
0.0
 40
64.0
  1
280
 41
0.9
100
AcDbText
  0
ENDBLK
  5
1F2B
330
2DD7
100
AcDbEntity
  8
0
100
AcDbBlockEnd
  0
BLOCK
  5
2DDA
330
2DD9
100
AcDbEntity
  8
0
100
AcDbBlockBegin
  2
*D49
 70
     1
 10
0.0
 20
0.0
 30
0.0
  3
*D49
  1

  0
LINE
  5
16D0
330
2DD9
100
AcDbEntity
  8
SIZE
 62
     0
100
AcDbLine
 10
-25824.51823276501
 20
7705.702971374808
 30
0.0
 11
-25824.51823276501
 21
7931.282433493766
 31
0.0
  0
LINE
  5
16D1
330
2DD9
100
AcDbEntity
  8
SIZE
 62
     0
100
AcDbLine
 10
-25509.51823276502
 20
7705.702971374808
 30
0.0
 11
-25509.51823276502
 21
7931.282433493766
 31
0.0
  0
LINE
  5
16D2
330
2DD9
100
AcDbEntity
  8
SIZE
 62
     0
100
AcDbLine
 10
-25812.51823276502
 20
7911.282433493766
 30
0.0
 11
-25521.51823276501
 21
7911.282433493766
 31
0.0
  0
INSERT
  5
16D3
330
2DD9
100
AcDbEntity
  8
SIZE
 62
     0
100
AcDbBlockReference
  2
_DOTBLANK
 10
-25824.51823276501
 20
7911.282433493766
 30
0.0
 41
12.0
 42
12.0
 43
12.0
 50
180.0
  0
INSERT
  5
16D4
330
2DD9
100
AcDbEntity
  8
SIZE
 62
     0
100
AcDbBlockReference
  2
_DOTBLANK
 10
-25509.51823276502
 20
7911.282433493766
 30
0.0
 41
12.0
 42
12.0
 43
12.0
  0
INSERT
  5
16D5
330
2DD9
100
AcDbEntity
  8
0
100
AcDbBlockReference
  2
*U50
 10
0.0
 20
0.0
 30
0.0
  0
POINT
  5
16D6
330
2DD9
100
AcDbEntity
  8
DEFPOINTS
 62
     0
100
AcDbPoint
 10
-25824.51823276501
 20
7685.702971374808
 30
0.0
  0
POINT
  5
16D7
330
2DD9
100
AcDbEntity
  8
DEFPOINTS
 62
     0
100
AcDbPoint
 10
-25509.51823276502
 20
7685.702971374808
 30
0.0
  0
POINT
  5
16D8
330
2DD9
100
AcDbEntity
  8
DEFPOINTS
 62
     0
100
AcDbPoint
 10
-25509.51823276502
 20
7911.282433493766
 30
0.0
  0
ENDBLK
  5
16D9
330
2DD9
100
AcDbEntity
  8
0
100
AcDbBlockEnd
  0
BLOCK
  5
2DDC
330
2DDB
100
AcDbEntity
  8
0
100
AcDbBlockBegin
  2
*U50
 70
     1
 10
0.0
 20
0.0
 30
0.0
  3
*U50
  1

  0
TEXT
  5
1F2D
330
2DDB
100
AcDbEntity
  8
SIZE
 62
     0
100
AcDbText
 10
-25735.58966133645
 20
7921.282433493766
 30
0.0
 40
64.0
  1
315
 41
0.9
100
AcDbText
  0
ENDBLK
  5
1F2F
330
2DDB
100
AcDbEntity
  8
0
100
AcDbBlockEnd
  0
BLOCK
  5
2DDE
330
2DDD
100
AcDbEntity
  8
0
100
AcDbBlockBegin
  2
*D51
 70
     1
 10
0.0
 20
0.0
 30
0.0
  3
*D51
  1

  0
LINE
  5
1D83
330
2DDD
100
AcDbEntity
  8
SIZE
 62
     0
100
AcDbLine
 10
-134.5
 20
-320.0
 30
0.0
 11
-134.5
 21
-468.0173952306001
 31
0.0
  0
LINE
  5
1D84
330
2DDD
100
AcDbEntity
  8
SIZE
 62
     0
100
AcDbLine
 10
134.5
 20
-320.0
 30
0.0
 11
134.5
 21
-468.0173952306001
 31
0.0
  0
LINE
  5
1D85
330
2DDD
100
AcDbEntity
  8
SIZE
 62
     0
100
AcDbLine
 10
-122.5
 20
-448.0173952306
 30
0.0
 11
122.5
 21
-448.0173952306
 31
0.0
  0
INSERT
  5
1D86
330
2DDD
100
AcDbEntity
  8
SIZE
 62
     0
100
AcDbBlockReference
  2
_DOTBLANK
 10
-134.5
 20
-448.0173952306
 30
0.0
 41
12.0
 42
12.0
 43
12.0
 50
180.0
  0
INSERT
  5
1D87
330
2DDD
100
AcDbEntity
  8
SIZE
 62
     0
100
AcDbBlockReference
  2
_DOTBLANK
 10
134.5
 20
-448.0173952306
 30
0.0
 41
12.0
 42
12.0
 43
12.0
  0
INSERT
  5
1D88
330
2DDD
100
AcDbEntity
  8
0
100
AcDbBlockReference
  2
*U52
 10
0.0
 20
0.0
 30
0.0
  0
POINT
  5
1D89
330
2DDD
100
AcDbEntity
  8
DEFPOINTS
 62
     0
100
AcDbPoint
 10
-134.5
 20
-300.0
 30
0.0
  0
POINT
  5
1D8A
330
2DDD
100
AcDbEntity
  8
DEFPOINTS
 62
     0
100
AcDbPoint
 10
134.5
 20
-300.0
 30
0.0
  0
POINT
  5
1D8B
330
2DDD
100
AcDbEntity
  8
DEFPOINTS
 62
     0
100
AcDbPoint
 10
134.5
 20
-448.0173952306
 30
0.0
  0
ENDBLK
  5
173D
330
2DDD
100
AcDbEntity
  8
0
100
AcDbBlockEnd
  0
BLOCK
  5
2DE0
330
2DDF
100
AcDbEntity
  8
0
100
AcDbBlockBegin
  2
*U52
 70
     1
 10
0.0
 20
0.0
 30
0.0
  3
*U52
  1

  0
TEXT
  5
1F31
330
2DDF
100
AcDbEntity
  8
SIZE
 62
     0
100
AcDbText
 10
-72.68571428571426
 20
-438.0173952306003
 30
0.0
 40
64.0
  1
269
 41
0.9
100
AcDbText
  0
ENDBLK
  5
1F33
330
2DDF
100
AcDbEntity
  8
0
100
AcDbBlockEnd
  0
BLOCK
  5
2DE2
330
2DE1
100
AcDbEntity
  8
0
100
AcDbBlockBegin
  2
*D53
 70
     1
 10
0.0
 20
0.0
 30
0.0
  3
*D53
  1

  0
LINE
  5
1D8C
330
2DE1
100
AcDbEntity
  8
SIZE
 62
     0
100
AcDbLine
 10
154.5
 20
-300.0
 30
0.0
 11
304.6432844803784
 21
-300.0
 31
0.0
  0
LINE
  5
1D8D
330
2DE1
100
AcDbEntity
  8
SIZE
 62
     0
100
AcDbLine
 10
177.5
 20
-0.0000000000000057
 30
0.0
 11
304.6432844803785
 21
-0.0000000000000417
 31
0.0
  0
LINE
  5
1D8E
330
2DE1
100
AcDbEntity
  8
SIZE
 62
     0
100
AcDbLine
 10
284.6432844803784
 20
-288.0
 30
0.0
 11
284.6432844803785
 21
-12.00000000000003
 31
0.0
  0
INSERT
  5
1D8F
330
2DE1
100
AcDbEntity
  8
SIZE
 62
     0
100
AcDbBlockReference
  2
_DOTBLANK
 10
284.6432844803784
 20
-300.0
 30
0.0
 41
12.0
 42
12.0
 43
12.0
 50
270.0
  0
INSERT
  5
1D90
330
2DE1
100
AcDbEntity
  8
SIZE
 62
     0
100
AcDbBlockReference
  2
_DOTBLANK
 10
284.6432844803785
 20
-0.000000000000036
 30
0.0
 41
12.0
 42
12.0
 43
12.0
 50
90.0
  0
INSERT
  5
1D91
330
2DE1
100
AcDbEntity
  8
0
100
AcDbBlockReference
  2
*U54
 10
0.0
 20
0.0
 30
0.0
  0
POINT
  5
1D92
330
2DE1
100
AcDbEntity
  8
DEFPOINTS
 62
     0
100
AcDbPoint
 10
134.5
 20
-300.0
 30
0.0
  0
POINT
  5
1D93
330
2DE1
100
AcDbEntity
  8
DEFPOINTS
 62
     0
100
AcDbPoint
 10
157.5
 20
0.0
 30
0.0
  0
POINT
  5
1D94
330
2DE1
100
AcDbEntity
  8
DEFPOINTS
 62
     0
100
AcDbPoint
 10
284.6432844803785
 20
-0.000000000000036
 30
0.0
  0
ENDBLK
  5
1749
330
2DE1
100
AcDbEntity
  8
0
100
AcDbBlockEnd
  0
BLOCK
  5
2DE4
330
2DE3
100
AcDbEntity
  8
0
100
AcDbBlockBegin
  2
*U54
 70
     1
 10
0.0
 20
0.0
 30
0.0
  3
*U54
  1

  0
TEXT
  5
1F35
330
2DE3
100
AcDbEntity
  8
SIZE
 62
     0
100
AcDbText
 10
274.6432844803785
 20
-224.0571428571429
 30
0.0
 40
64.0
  1
300
 50
90.0
 41
0.9
100
AcDbText
  0
ENDBLK
  5
1F37
330
2DE3
100
AcDbEntity
  8
0
100
AcDbBlockEnd
  0
BLOCK
  5
2DE6
330
2DE5
100
AcDbEntity
  8
0
100
AcDbBlockBegin
  2
*D55
 70
     1
 10
0.0
 20
0.0
 30
0.0
  3
*D55
  1

  0
LINE
  5
1D95
330
2DE5
100
AcDbEntity
  8
SIZE
 62
     0
100
AcDbLine
 10
-140.0
 20
32.46448280219375
 30
0.0
 11
-140.0
 21
136.4516878685508
 31
0.0
  0
LINE
  5
1D96
330
2DE5
100
AcDbEntity
  8
SIZE
 62
     0
100
AcDbLine
 10
140.0
 20
32.46448280219375
 30
0.0
 11
140.0
 21
136.4516878685508
 31
0.0
  0
LINE
  5
1D97
330
2DE5
100
AcDbEntity
  8
SIZE
 62
     0
100
AcDbLine
 10
-128.0
 20
116.4516878685508
 30
0.0
 11
128.0
 21
116.4516878685508
 31
0.0
  0
INSERT
  5
1D98
330
2DE5
100
AcDbEntity
  8
SIZE
 62
     0
100
AcDbBlockReference
  2
_DOTBLANK
 10
-140.0
 20
116.4516878685508
 30
0.0
 41
12.0
 42
12.0
 43
12.0
 50
180.0
  0
INSERT
  5
1D99
330
2DE5
100
AcDbEntity
  8
SIZE
 62
     0
100
AcDbBlockReference
  2
_DOTBLANK
 10
140.0
 20
116.4516878685508
 30
0.0
 41
12.0
 42
12.0
 43
12.0
  0
INSERT
  5
1D9A
330
2DE5
100
AcDbEntity
  8
0
100
AcDbBlockReference
  2
*U56
 10
0.0
 20
0.0
 30
0.0
  0
POINT
  5
1D9B
330
2DE5
100
AcDbEntity
  8
DEFPOINTS
 62
     0
100
AcDbPoint
 10
-140.0
 20
12.46448280219374
 30
0.0
  0
POINT
  5
1D9C
330
2DE5
100
AcDbEntity
  8
DEFPOINTS
 62
     0
100
AcDbPoint
 10
140.0
 20
12.46448280219374
 30
0.0
  0
POINT
  5
1D9D
330
2DE5
100
AcDbEntity
  8
DEFPOINTS
 62
     0
100
AcDbPoint
 10
140.0
 20
116.4516878685508
 30
0.0
  0
ENDBLK
  5
1755
330
2DE5
100
AcDbEntity
  8
0
100
AcDbBlockEnd
  0
BLOCK
  5
2DE8
330
2DE7
100
AcDbEntity
  8
0
100
AcDbBlockBegin
  2
*U56
 70
     1
 10
0.0
 20
0.0
 30
0.0
  3
*U56
  1

  0
TEXT
  5
1F39
330
2DE7
100
AcDbEntity
  8
SIZE
 62
     0
100
AcDbText
 10
-74.05714285714283
 20
126.4516878685508
 30
0.0
 40
64.0
  1
280
 41
0.9
100
AcDbText
  0
ENDBLK
  5
1F3B
330
2DE7
100
AcDbEntity
  8
0
100
AcDbBlockEnd
  0
BLOCK
  5
2DEA
330
2DE9
100
AcDbEntity
  8
0
100
AcDbBlockBegin
  2
*D57
 70
     1
 10
0.0
 20
0.0
 30
0.0
  3
*D57
  1

  0
LINE
  5
1D9E
330
2DE9
100
AcDbEntity
  8
SIZE
 62
     0
100
AcDbLine
 10
-157.5
 20
20.0
 30
0.0
 11
-157.5
 21
245.5794621189598
 31
0.0
  0
LINE
  5
1D9F
330
2DE9
100
AcDbEntity
  8
SIZE
 62
     0
100
AcDbLine
 10
157.5
 20
20.0
 30
0.0
 11
157.5
 21
245.5794621189598
 31
0.0
  0
LINE
  5
1DA0
330
2DE9
100
AcDbEntity
  8
SIZE
 62
     0
100
AcDbLine
 10
-145.5
 20
225.5794621189598
 30
0.0
 11
145.5
 21
225.5794621189598
 31
0.0
  0
INSERT
  5
1DA1
330
2DE9
100
AcDbEntity
  8
SIZE
 62
     0
100
AcDbBlockReference
  2
_DOTBLANK
 10
-157.5
 20
225.5794621189598
 30
0.0
 41
12.0
 42
12.0
 43
12.0
 50
180.0
  0
INSERT
  5
1DA2
330
2DE9
100
AcDbEntity
  8
SIZE
 62
     0
100
AcDbBlockReference
  2
_DOTBLANK
 10
157.5
 20
225.5794621189598
 30
0.0
 41
12.0
 42
12.0
 43
12.0
  0
INSERT
  5
1DA3
330
2DE9
100
AcDbEntity
  8
0
100
AcDbBlockReference
  2
*U58
 10
0.0
 20
0.0
 30
0.0
  0
POINT
  5
1DA4
330
2DE9
100
AcDbEntity
  8
DEFPOINTS
 62
     0
100
AcDbPoint
 10
-157.5
 20
0.0
 30
0.0
  0
POINT
  5
1DA5
330
2DE9
100
AcDbEntity
  8
DEFPOINTS
 62
     0
100
AcDbPoint
 10
157.5
 20
0.0
 30
0.0
  0
POINT
  5
1DA6
330
2DE9
100
AcDbEntity
  8
DEFPOINTS
 62
     0
100
AcDbPoint
 10
157.5
 20
225.5794621189598
 30
0.0
  0
ENDBLK
  5
1761
330
2DE9
100
AcDbEntity
  8
0
100
AcDbBlockEnd
  0
BLOCK
  5
2DEC
330
2DEB
100
AcDbEntity
  8
0
100
AcDbBlockBegin
  2
*U58
 70
     1
 10
0.0
 20
0.0
 30
0.0
  3
*U58
  1

  0
TEXT
  5
1F3D
330
2DEB
100
AcDbEntity
  8
SIZE
 62
     0
100
AcDbText
 10
-68.57142857142857
 20
235.5794621189599
 30
0.0
 40
64.0
  1
315
 41
0.9
100
AcDbText
  0
ENDBLK
  5
1F3F
330
2DEB
100
AcDbEntity
  8
0
100
AcDbBlockEnd
  0
BLOCK
  5
2DEE
330
2DED
100
AcDbEntity
  8
0
100
AcDbBlockBegin
  2
*D59
 70
     1
 10
0.0
 20
0.0
 30
0.0
  3
*D59
  1

  0
LINE
  5
1DA7
330
2DED
100
AcDbEntity
  8
SIZE
 62
     0
100
AcDbLine
 10
-177.5
 20
0.0000000000000057
 30
0.0
 11
-314.0264221186908
 21
0.0000000000000443
 31
0.0
  0
LINE
  5
1DA8
330
2DED
100
AcDbEntity
  8
SIZE
 62
     0
100
AcDbLine
 10
-177.5
 20
-7.999999999999995
 30
0.0
 11
-314.0264221186908
 21
-7.999999999999958
 31
0.0
  0
LINE
  5
1DA9
330
2DED
100
AcDbEntity
  8
SIZE
 62
     0
100
AcDbLine
 10
-294.0264221186908
 20
12.00000000000003
 30
0.0
 11
-294.0264221186908
 21
24.00000000000004
 31
0.0
  0
LINE
  5
1DAA
330
2DED
100
AcDbEntity
  8
SIZE
 62
     0
100
AcDbLine
 10
-294.0264221186908
 20
-19.99999999999996
 30
0.0
 11
-294.0264221186908
 21
-90.39999999999997
 31
0.0
  0
INSERT
  5
1DAB
330
2DED
100
AcDbEntity
  8
SIZE
 62
     0
100
AcDbBlockReference
  2
_DOTBLANK
 10
-294.0264221186908
 20
0.0000000000000387
 30
0.0
 41
12.0
 42
12.0
 43
12.0
 50
270.0
  0
INSERT
  5
1DAC
330
2DED
100
AcDbEntity
  8
SIZE
 62
     0
100
AcDbBlockReference
  2
_DOTBLANK
 10
-294.0264221186908
 20
-7.999999999999961
 30
0.0
 41
12.0
 42
12.0
 43
12.0
 50
90.0
  0
INSERT
  5
1DAD
330
2DED
100
AcDbEntity
  8
0
100
AcDbBlockReference
  2
*U60
 10
0.0
 20
0.0
 30
0.0
  0
POINT
  5
1DAE
330
2DED
100
AcDbEntity
  8
DEFPOINTS
 62
     0
100
AcDbPoint
 10
-157.5
 20
0.0
 30
0.0
  0
POINT
  5
1DAF
330
2DED
100
AcDbEntity
  8
DEFPOINTS
 62
     0
100
AcDbPoint
 10
-157.5
 20
-8.000000000000003
 30
0.0
  0
POINT
  5
1DB0
330
2DED
100
AcDbEntity
  8
DEFPOINTS
 62
     0
100
AcDbPoint
 10
-294.0264221186908
 20
-7.999999999999961
 30
0.0
  0
ENDBLK
  5
176D
330
2DED
100
AcDbEntity
  8
0
100
AcDbBlockEnd
  0
BLOCK
  5
2DF0
330
2DEF
100
AcDbEntity
  8
0
100
AcDbBlockBegin
  2
*U60
 70
     1
 10
0.0
 20
0.0
 30
0.0
  3
*U60
  1

  0
TEXT
  5
1F41
330
2DEF
100
AcDbEntity
  8
SIZE
 62
     0
100
AcDbText
 10
-304.0264221186908
 20
-80.4
 30
0.0
 40
64.0
  1
8
 50
90.0
 41
0.9
100
AcDbText
  0
ENDBLK
  5
1F43
330
2DEF
100
AcDbEntity
  8
0
100
AcDbBlockEnd
  0
BLOCK
  5
2DF2
330
2DF1
100
AcDbEntity
  8
0
100
AcDbBlockBegin
  2
*D61
 70
     1
 10
0.0
 20
0.0
 30
0.0
  3
*D61
  1

  0
LINE
  5
1DB1
330
2DF1
100
AcDbEntity
  8
SIZE
 62
     0
100
AcDbLine
 10
154.5
 20
-300.0
 30
0.0
 11
304.6432844803785
 21
-300.0
 31
0.0
  0
LINE
  5
1DB2
330
2DF1
100
AcDbEntity
  8
SIZE
 62
     0
100
AcDbLine
 10
143.5
 20
-312.0
 30
0.0
 11
304.6432844803785
 21
-312.0
 31
0.0
  0
LINE
  5
1DB3
330
2DF1
100
AcDbEntity
  8
SIZE
 62
     0
100
AcDbLine
 10
284.6432844803785
 20
-288.0
 30
0.0
 11
284.6432844803785
 21
-276.0
 31
0.0
  0
LINE
  5
1DB4
330
2DF1
100
AcDbEntity
  8
SIZE
 62
     0
100
AcDbLine
 10
284.6432844803785
 20
-324.0000000000001
 30
0.0
 11
284.6432844803784
 21
-438.2857142857143
 31
0.0
  0
INSERT
  5
1DB5
330
2DF1
100
AcDbEntity
  8
SIZE
 62
     0
100
AcDbBlockReference
  2
_DOTBLANK
 10
284.6432844803785
 20
-300.0
 30
0.0
 41
12.0
 42
12.0
 43
12.0
 50
270.0
  0
INSERT
  5
1DB6
330
2DF1
100
AcDbEntity
  8
SIZE
 62
     0
100
AcDbBlockReference
  2
_DOTBLANK
 10
284.6432844803785
 20
-312.0
 30
0.0
 41
12.0
 42
12.0
 43
12.0
 50
90.0
  0
INSERT
  5
1DB7
330
2DF1
100
AcDbEntity
  8
0
100
AcDbBlockReference
  2
*U62
 10
0.0
 20
0.0
 30
0.0
  0
POINT
  5
1DB8
330
2DF1
100
AcDbEntity
  8
DEFPOINTS
 62
     0
100
AcDbPoint
 10
134.5
 20
-300.0
 30
0.0
  0
POINT
  5
1DB9
330
2DF1
100
AcDbEntity
  8
DEFPOINTS
 62
     0
100
AcDbPoint
 10
123.5
 20
-312.0
 30
0.0
  0
POINT
  5
1DBA
330
2DF1
100
AcDbEntity
  8
DEFPOINTS
 62
     0
100
AcDbPoint
 10
284.6432844803785
 20
-312.0
 30
0.0
  0
ENDBLK
  5
177B
330
2DF1
100
AcDbEntity
  8
0
100
AcDbBlockEnd
  0
BLOCK
  5
2DF4
330
2DF3
100
AcDbEntity
  8
0
100
AcDbBlockBegin
  2
*U62
 70
     1
 10
0.0
 20
0.0
 30
0.0
  3
*U62
  1

  0
TEXT
  5
1F45
330
2DF3
100
AcDbEntity
  8
SIZE
 62
     0
100
AcDbText
 10
274.6432844803785
 20
-428.2857142857142
 30
0.0
 40
64.0
  1
12
 50
90.0
 41
0.9
100
AcDbText
  0
ENDBLK
  5
1F47
330
2DF3
100
AcDbEntity
  8
0
100
AcDbBlockEnd
  0
BLOCK
  5
2DF6
330
2DF5
100
AcDbEntity
  8
0
100
AcDbBlockBegin
  2
*U63
 70
     1
 10
0.0
 20
0.0
 30
0.0
  3
*U63
  1

  0
ENDBLK
  5
1D57
330
2DF5
100
AcDbEntity
  8
0
100
AcDbBlockEnd
  0
BLOCK
  5
2DF8
330
2DF7
100
AcDbEntity
  8
0
100
AcDbBlockBegin
  2
*U64
 70
     1
 10
0.0
 20
0.0
 30
0.0
  3
*U64
  1

  0
INSERT
  5
2087
330
2DF7
100
AcDbEntity
  8
NOTE
100
AcDbBlockReference
  2
_OPEN30
 10
-449.9999999999944
 20
0.0
 30
0.0
 41
12.0
 42
12.0
 43
12.0
 50
312.6090116116894
  0
POLYLINE
  5
2088
330
2DF7
100
AcDbEntity
  8
NOTE
100
AcDb2dPolyline
 66
     1
 10
0.0
 20
0.0
 30
0.0
  0
VERTEX
  5
2CA5
330
2088
100
AcDbEntity
  8
NOTE
100
AcDbVertex
100
AcDb2dVertex
 10
-458.123900836184
 20
8.83188740891547
 30
0.0
  0
VERTEX
  5
2CA6
330
2088
100
AcDbEntity
  8
NOTE
100
AcDbVertex
100
AcDb2dVertex
 10
-537.8693999922488
 20
95.52709505801338
 30
0.0
  0
VERTEX
  5
2CA7
330
2088
100
AcDbEntity
  8
NOTE
100
AcDbVertex
100
AcDb2dVertex
 10
-1127.595114277962
 20
95.52709505801338
 30
0.0
  0
SEQEND
  5
2CA8
330
2088
100
AcDbEntity
  8
NOTE
  0
ENDBLK
  5
2089
330
2DF7
100
AcDbEntity
  8
0
100
AcDbBlockEnd
  0
BLOCK
  5
2DFA
330
2DF9
100
AcDbEntity
  8
0
100
AcDbBlockBegin
  2
*U65
 70
     1
 10
0.0
 20
0.0
 30
0.0
  3
*U65
  1

  0
TEXT
  5
208C
330
2DF9
100
AcDbEntity
  8
NOTE
100
AcDbText
 10
-1127.595114277962
 20
113.5270950580134
 30
0.0
 40
64.0
  1
16×φ15取付穴
 41
0.9
100
AcDbText
  0
ENDBLK
  5
208D
330
2DF9
100
AcDbEntity
  8
0
100
AcDbBlockEnd
  0
BLOCK
  5
2DFC
330
2DFB
100
AcDbEntity
  8
0
100
AcDbBlockBegin
  2
*U66
 70
     1
 10
0.0
 20
0.0
 30
0.0
  3
*U66
  1

  0
INSERT
  5
21BB
330
2DFB
100
AcDbEntity
  8
NOTE
100
AcDbBlockReference
  2
_OPEN30
 10
449.9999999999984
 20
450.0000000000078
 30
0.0
 41
12.0
 42
12.0
 43
12.0
 50
232.3258907693335
  0
POLYLINE
  5
21BC
330
2DFB
100
AcDbEntity
  8
NOTE
100
AcDb2dPolyline
 66
     1
 10
0.0
 20
0.0
 30
0.0
  0
VERTEX
  5
2CA9
330
21BC
100
AcDbEntity
  8
NOTE
100
AcDbVertex
100
AcDb2dVertex
 10
457.3340332839434
 20
459.4979974621043
 30
0.0
  0
VERTEX
  5
2CAA
330
21BC
100
AcDbEntity
  8
NOTE
100
AcDbVertex
100
AcDb2dVertex
 10
523.7628007872066
 20
545.5270950580207
 30
0.0
  0
VERTEX
  5
2CAB
330
21BC
100
AcDbEntity
  8
NOTE
100
AcDbVertex
100
AcDb2dVertex
 10
1113.488515072921
 20
545.5270950580207
 30
0.0
  0
SEQEND
  5
2CAC
330
21BC
100
AcDbEntity
  8
NOTE
  0
ENDBLK
  5
21BD
330
2DFB
100
AcDbEntity
  8
0
100
AcDbBlockEnd
  0
BLOCK
  5
2DFE
330
2DFD
100
AcDbEntity
  8
0
100
AcDbBlockBegin
  2
*U67
 70
     1
 10
0.0
 20
0.0
 30
0.0
  3
*U67
  1

  0
TEXT
  5
21C0
330
2DFD
100
AcDbEntity
  8
NOTE
100
AcDbText
 10
585.7628007872067
 20
563.5270950580204
 30
0.0
 40
64.0
  1
16×φ15取付穴
 41
0.9
100
AcDbText
  0
ENDBLK
  5
21C1
330
2DFD
100
AcDbEntity
  8
0
100
AcDbBlockEnd
  0
BLOCK
  5
2E00
330
2DFF
100
AcDbEntity
  8
0
100
AcDbBlockBegin
  2
*U68
 70
     1
 10
0.0
 20
0.0
 30
0.0
  3
*U68
  1

  0
INSERT
  5
24AC
330
2DFF
100
AcDbEntity
  8
NOTE
100
AcDbBlockReference
  2
_OPEN30
 10
450.0
 20
450.0000000000036
 30
0.0
 41
12.0
 42
12.0
 43
12.0
 50
232.3258907693334
  0
POLYLINE
  5
24AD
330
2DFF
100
AcDbEntity
  8
NOTE
100
AcDb2dPolyline
 66
     1
 10
0.0
 20
0.0
 30
0.0
  0
VERTEX
  5
2CAD
330
24AD
100
AcDbEntity
  8
NOTE
100
AcDbVertex
100
AcDb2dVertex
 10
457.3340332839448
 20
459.4979974621
 30
0.0
  0
VERTEX
  5
2CAE
330
24AD
100
AcDbEntity
  8
NOTE
100
AcDbVertex
100
AcDb2dVertex
 10
523.7628007872079
 20
545.5270950580159
 30
0.0
  0
VERTEX
  5
2CAF
330
24AD
100
AcDbEntity
  8
NOTE
100
AcDbVertex
100
AcDb2dVertex
 10
1113.488515072922
 20
545.5270950580159
 30
0.0
  0
SEQEND
  5
2CB0
330
24AD
100
AcDbEntity
  8
NOTE
  0
ENDBLK
  5
24AE
330
2DFF
100
AcDbEntity
  8
0
100
AcDbBlockEnd
  0
BLOCK
  5
2E02
330
2E01
100
AcDbEntity
  8
0
100
AcDbBlockBegin
  2
*U69
 70
     1
 10
0.0
 20
0.0
 30
0.0
  3
*U69
  1

  0
TEXT
  5
24B1
330
2E01
100
AcDbEntity
  8
NOTE
100
AcDbText
 10
585.7628007872079
 20
563.5270950580161
 30
0.0
 40
64.0
  1
16×φ15取付穴
 41
0.9
100
AcDbText
  0
ENDBLK
  5
24B2
330
2E01
100
AcDbEntity
  8
0
100
AcDbBlockEnd
  0
BLOCK
  5
2E04
330
2E03
100
AcDbEntity
  8
0
100
AcDbBlockBegin
  2
*U70
 70
     1
 10
0.0
 20
0.0
 30
0.0
  3
*U70
  1

  0
INSERT
  5
27BD
330
2E03
100
AcDbEntity
  8
NOTE
100
AcDbBlockReference
  2
_OPEN30
 10
-0.0000000000027285
 20
450.0000000000031
 30
0.0
 41
12.0
 42
12.0
 43
12.0
 50
312.6090116116895
  0
POLYLINE
  5
27BE
330
2E03
100
AcDbEntity
  8
NOTE
100
AcDb2dPolyline
 66
     1
 10
0.0
 20
0.0
 30
0.0
  0
VERTEX
  5
2CB1
330
27BE
100
AcDbEntity
  8
NOTE
100
AcDbVertex
100
AcDb2dVertex
 10
-8.123900836192241
 20
458.8318874089185
 30
0.0
  0
VERTEX
  5
2CB2
330
27BE
100
AcDbEntity
  8
NOTE
100
AcDbVertex
100
AcDb2dVertex
 10
-87.86939999225706
 20
545.5270950580159
 30
0.0
  0
VERTEX
  5
2CB3
330
27BE
100
AcDbEntity
  8
NOTE
100
AcDbVertex
100
AcDb2dVertex
 10
-677.5951142779716
 20
545.5270950580159
 30
0.0
  0
SEQEND
  5
2CB4
330
27BE
100
AcDbEntity
  8
NOTE
  0
ENDBLK
  5
27BF
330
2E03
100
AcDbEntity
  8
0
100
AcDbBlockEnd
  0
BLOCK
  5
2E06
330
2E05
100
AcDbEntity
  8
0
100
AcDbBlockBegin
  2
*U71
 70
     1
 10
0.0
 20
0.0
 30
0.0
  3
*U71
  1

  0
TEXT
  5
27C2
330
2E05
100
AcDbEntity
  8
NOTE
100
AcDbText
 10
-677.5951142779716
 20
563.5270950580161
 30
0.0
 40
64.0
  1
16×φ15取付穴
 41
0.9
100
AcDbText
  0
ENDBLK
  5
27C3
330
2E05
100
AcDbEntity
  8
0
100
AcDbBlockEnd
  0
BLOCK
  5
2E08
330
2E07
100
AcDbEntity
  8
0
100
AcDbBlockBegin
  2
*U72
 70
     1
 10
0.0
 20
0.0
 30
0.0
  3
*U72
  1

  0
INSERT
  5
291A
330
2E07
100
AcDbEntity
  8
NOTE
100
AcDbBlockReference
  2
_OPEN30
 10
-0.000000000001819
 20
450.0000000000078
 30
0.0
 41
12.0
 42
12.0
 43
12.0
 50
227.3909883883103
  0
POLYLINE
  5
291B
330
2E07
100
AcDbEntity
  8
NOTE
100
AcDb2dPolyline
 66
     1
 10
0.0
 20
0.0
 30
0.0
  0
VERTEX
  5
2CB5
330
291B
100
AcDbEntity
  8
NOTE
100
AcDbVertex
100
AcDb2dVertex
 10
8.123900836187717
 20
458.8318874089234
 30
0.0
  0
VERTEX
  5
2CB6
330
291B
100
AcDbEntity
  8
NOTE
100
AcDbVertex
100
AcDb2dVertex
 10
87.86939999225252
 20
545.5270950580207
 30
0.0
  0
VERTEX
  5
2CB7
330
291B
100
AcDbEntity
  8
NOTE
100
AcDbVertex
100
AcDb2dVertex
 10
677.5951142779668
 20
545.5270950580207
 30
0.0
  0
SEQEND
  5
2CB8
330
291B
100
AcDbEntity
  8
NOTE
  0
ENDBLK
  5
291C
330
2E07
100
AcDbEntity
  8
0
100
AcDbBlockEnd
  0
BLOCK
  5
2E0A
330
2E09
100
AcDbEntity
  8
0
100
AcDbBlockBegin
  2
*U73
 70
     1
 10
0.0
 20
0.0
 30
0.0
  3
*U73
  1

  0
TEXT
  5
291F
330
2E09
100
AcDbEntity
  8
NOTE
100
AcDbText
 10
149.8693999922525
 20
563.5270950580204
 30
0.0
 40
64.0
  1
16×φ15取付穴
 41
0.9
100
AcDbText
  0
ENDBLK
  5
2920
330
2E09
100
AcDbEntity
  8
0
100
AcDbBlockEnd
  0
BLOCK
  5
2E0C
330
2E0B
100
AcDbEntity
  8
0
100
AcDbBlockBegin
  2
*U74
 70
     1
 10
0.0
 20
0.0
 30
0.0
  3
*U74
  1

  0
INSERT
  5
2A7B
330
2E0B
100
AcDbEntity
  8
NOTE
100
AcDbBlockReference
  2
_OPEN30
 10
-450.0
 20
-0.000000000001819
 30
0.0
 41
12.0
 42
12.0
 43
12.0
 50
312.6090116116892
  0
POLYLINE
  5
2A7C
330
2E0B
100
AcDbEntity
  8
NOTE
100
AcDb2dPolyline
 66
     1
 10
0.0
 20
0.0
 30
0.0
  0
VERTEX
  5
2CB9
330
2A7C
100
AcDbEntity
  8
NOTE
100
AcDbVertex
100
AcDb2dVertex
 10
-458.1239008361895
 20
8.831887408913694
 30
0.0
  0
VERTEX
  5
2CBA
330
2A7C
100
AcDbEntity
  8
NOTE
100
AcDbVertex
100
AcDb2dVertex
 10
-537.8693999922543
 20
95.52709505801249
 30
0.0
  0
VERTEX
  5
2CBB
330
2A7C
100
AcDbEntity
  8
NOTE
100
AcDbVertex
100
AcDb2dVertex
 10
-1127.595114277968
 20
95.52709505801249
 30
0.0
  0
SEQEND
  5
2CBC
330
2A7C
100
AcDbEntity
  8
NOTE
  0
ENDBLK
  5
2A7D
330
2E0B
100
AcDbEntity
  8
0
100
AcDbBlockEnd
  0
BLOCK
  5
2E0E
330
2E0D
100
AcDbEntity
  8
0
100
AcDbBlockBegin
  2
*U75
 70
     1
 10
0.0
 20
0.0
 30
0.0
  3
*U75
  1

  0
TEXT
  5
2A80
330
2E0D
100
AcDbEntity
  8
NOTE
100
AcDbText
 10
-1127.595114277968
 20
113.5270950580125
 30
0.0
 40
64.0
  1
16×φ15取付穴
 41
0.9
100
AcDbText
  0
ENDBLK
  5
2A81
330
2E0D
100
AcDbEntity
  8
0
100
AcDbBlockEnd
  0
BLOCK
  5
2E10
330
2E0F
100
AcDbEntity
  8
0
100
AcDbBlockBegin
  2
*X76
 70
     1
 10
0.0
 20
0.0
 30
0.0
  3
*X76
  1

  0
LINE
  5
2A84
330
2E0F
100
AcDbEntity
  8
0
 62
     0
100
AcDbLine
 10
-415.0000000000051
 20
-868.3379058133096
 30
0.0
 11
-396.8066526136809
 21
-877.0014000000029
 31
0.0
  0
LINE
  5
2A85
330
2E0F
100
AcDbEntity
  8
0
 62
     0
100
AcDbLine
 10
-415.0000000000073
 20
-858.3379540691767
 30
0.0
 11
-375.8067428766917
 21
-877.0014000000044
 31
0.0
  0
LINE
  5
2A86
330
2E0F
100
AcDbEntity
  8
0
 62
     0
100
AcDbLine
 10
-415.0000000000073
 20
-848.3380023250411
 30
0.0
 11
-354.8068331397025
 21
-877.0014000000029
 31
0.0
  0
LINE
  5
2A87
330
2E0F
100
AcDbEntity
  8
0
 62
     0
100
AcDbLine
 10
-415.0000000000073
 20
-838.3380505809061
 30
0.0
 11
-333.8069234027116
 21
-877.0014000000029
 31
0.0
  0
LINE
  5
2A88
330
2E0F
100
AcDbEntity
  8
0
 62
     0
100
AcDbLine
 10
-415.0000000000073
 20
-828.3380988367714
 30
0.0
 11
-312.8070136657208
 21
-877.0014000000029
 31
0.0
  0
LINE
  5
2A89
330
2E0F
100
AcDbEntity
  8
0
 62
     0
100
AcDbLine
 10
-415.0000000000073
 20
-818.338147092637
 30
0.0
 11
-291.8071039287297
 21
-877.0014000000029
 31
0.0
  0
LINE
  5
2A8A
330
2E0F
100
AcDbEntity
  8
0
 62
     0
100
AcDbLine
 10
-415.0000000000073
 20
-808.3381953485021
 30
0.0
 11
-270.8071941917369
 21
-877.0014000000029
 31
0.0
  0
LINE
  5
2A8B
330
2E0F
100
AcDbEntity
  8
0
 62
     0
100
AcDbLine
 10
-415.0000000000073
 20
-798.338243604369
 30
0.0
 11
-249.8072844547477
 21
-877.0014000000044
 31
0.0
  0
LINE
  5
2A8C
330
2E0F
100
AcDbEntity
  8
0
 62
     0
100
AcDbLine
 10
-415.0000000000051
 20
-788.3382918602342
 30
0.0
 11
-228.807374717755
 21
-877.0014000000044
 31
0.0
  0
LINE
  5
2A8D
330
2E0F
100
AcDbEntity
  8
0
 62
     0
100
AcDbLine
 10
-415.0000000000051
 20
-778.3383401160997
 30
0.0
 11
-207.8074649807641
 21
-877.0014000000044
 31
0.0
  0
LINE
  5
2A8E
330
2E0F
100
AcDbEntity
  8
0
 62
     0
100
AcDbLine
 10
-415.0000000000073
 20
-768.3383883719651
 30
0.0
 11
-186.8075552437785
 21
-877.0014000000029
 31
0.0
  0
LINE
  5
2A8F
330
2E0F
100
AcDbEntity
  8
0
 62
     0
100
AcDbLine
 10
-415.0000000000073
 20
-758.3384366278294
 30
0.0
 11
-165.8076455067839
 21
-877.0014000000029
 31
0.0
  0
LINE
  5
2A90
330
2E0F
100
AcDbEntity
  8
0
 62
     0
100
AcDbLine
 10
-415.0000000000073
 20
-748.3384848836964
 30
0.0
 11
-144.8077357697948
 21
-877.0014000000044
 31
0.0
  0
LINE
  5
2A91
330
2E0F
100
AcDbEntity
  8
0
 62
     0
100
AcDbLine
 10
-415.0000000000073
 20
-738.3385331395619
 30
0.0
 11
-123.807826032802
 21
-877.0014000000037
 31
0.0
  0
LINE
  5
2A92
330
2E0F
100
AcDbEntity
  8
0
 62
     0
100
AcDbLine
 10
-415.0000000000051
 20
-728.3385813954273
 30
0.0
 11
-102.807916295811
 21
-877.0014000000037
 31
0.0
  0
LINE
  5
2A93
330
2E0F
100
AcDbEntity
  8
0
 62
     0
100
AcDbLine
 10
-415.0000000000073
 20
-718.3386296512927
 30
0.0
 11
-81.80800655882377
 21
-877.0014000000017
 31
0.0
  0
LINE
  5
2A94
330
2E0F
100
AcDbEntity
  8
0
 62
     0
100
AcDbLine
 10
-415.0000000000073
 20
-708.3386779071579
 30
0.0
 11
-60.80809682183279
 21
-877.0014000000017
 31
0.0
  0
LINE
  5
2A95
330
2E0F
100
AcDbEntity
  8
0
 62
     0
100
AcDbLine
 10
-415.0000000000051
 20
-698.3387261630232
 30
0.0
 11
-39.80818708484001
 21
-877.0014000000017
 31
0.0
  0
LINE
  5
2A96
330
2E0F
100
AcDbEntity
  8
0
 62
     0
100
AcDbLine
 10
-415.0000000000073
 20
-688.3387744188903
 30
0.0
 11
-18.80827734785089
 21
-877.0014000000037
 31
0.0
  0
LINE
  5
2A97
330
2E0F
100
AcDbEntity
  8
0
 62
     0
100
AcDbLine
 10
-415.0000000000051
 20
-678.3388226747556
 30
0.0
 11
2.191632389140067
 21
-877.0014000000037
 31
0.0
  0
LINE
  5
2A98
330
2E0F
100
AcDbEntity
  8
0
 62
     0
100
AcDbLine
 10
-415.0000000000073
 20
-668.338870930621
 30
0.0
 11
23.19154212613284
 21
-877.0014000000037
 31
0.0
  0
LINE
  5
2A99
330
2E0F
100
AcDbEntity
  8
0
 62
     0
100
AcDbLine
 10
-415.0000000000089
 20
-658.3389191864862
 30
0.0
 11
44.19145186312198
 21
-877.0014000000037
 31
0.0
  0
LINE
  5
2A9A
330
2E0F
100
AcDbEntity
  8
0
 62
     0
100
AcDbLine
 10
-415.0000000000073
 20
-648.3389674423515
 30
0.0
 11
65.19136160011476
 21
-877.0014000000037
 31
0.0
  0
LINE
  5
2A9B
330
2E0F
100
AcDbEntity
  8
0
 62
     0
100
AcDbLine
 10
-415.0000000000073
 20
-638.3390156982186
 30
0.0
 11
86.19127133710573
 21
-877.0014000000044
 31
0.0
  0
LINE
  5
2A9C
330
2E0F
100
AcDbEntity
  8
0
 62
     0
100
AcDbLine
 10
-415.0000000000073
 20
-628.339063954084
 30
0.0
 11
107.1911810740967
 21
-877.0014000000044
 31
0.0
  0
LINE
  5
2A9D
330
2E0F
100
AcDbEntity
  8
0
 62
     0
100
AcDbLine
 10
-415.0000000000051
 20
-618.3391122099492
 30
0.0
 11
128.1910908110858
 21
-877.0014000000037
 31
0.0
  0
LINE
  5
2A9E
330
2E0F
100
AcDbEntity
  8
0
 62
     0
100
AcDbLine
 10
-415.0000000000073
 20
-608.3391604658145
 30
0.0
 11
149.1910005480766
 21
-877.0014000000029
 31
0.0
  0
LINE
  5
2A9F
330
2E0F
100
AcDbEntity
  8
0
 62
     0
100
AcDbLine
 10
-415.0000000000073
 20
-598.3392087216798
 30
0.0
 11
170.1909102850659
 21
-877.0014000000029
 31
0.0
  0
LINE
  5
2AA0
330
2E0F
100
AcDbEntity
  8
0
 62
     0
100
AcDbLine
 10
-415.0000000000051
 20
-588.3392569775468
 30
0.0
 11
191.1908200220569
 21
-877.0014000000029
 31
0.0
  0
LINE
  5
2AA1
330
2E0F
100
AcDbEntity
  8
0
 62
     0
100
AcDbLine
 10
-415.0000000000073
 20
-578.3393052334112
 30
0.0
 11
212.190729759046
 21
-877.0014000000029
 31
0.0
  0
LINE
  5
2AA2
330
2E0F
100
AcDbEntity
  8
0
 62
     0
100
AcDbLine
 10
-415.0000000000051
 20
-568.3393534892775
 30
0.0
 11
233.190639496037
 21
-877.0014000000029
 31
0.0
  0
LINE
  5
2AA3
330
2E0F
100
AcDbEntity
  8
0
 62
     0
100
AcDbLine
 10
-415.0000000000051
 20
-558.3394017451419
 30
0.0
 11
254.1905492330297
 21
-877.0014000000029
 31
0.0
  0
LINE
  5
2AA4
330
2E0F
100
AcDbEntity
  8
0
 62
     0
100
AcDbLine
 10
-415.0000000000073
 20
-548.3394500010072
 30
0.0
 11
275.1904589700189
 21
-877.0014000000029
 31
0.0
  0
LINE
  5
2AA5
330
2E0F
100
AcDbEntity
  8
0
 62
     0
100
AcDbLine
 10
-415.0000000000073
 20
-538.3394982568725
 30
0.0
 11
296.1903687070117
 21
-877.0014000000029
 31
0.0
  0
LINE
  5
2AA6
330
2E0F
100
AcDbEntity
  8
0
 62
     0
100
AcDbLine
 10
-415.0000000000051
 20
-528.3395465127396
 30
0.0
 11
317.1902784440026
 21
-877.0014000000044
 31
0.0
  0
LINE
  5
2AA7
330
2E0F
100
AcDbEntity
  8
0
 62
     0
100
AcDbLine
 10
-415.0000000000073
 20
-518.3395947686049
 30
0.0
 11
338.1901881809936
 21
-877.0014000000044
 31
0.0
  0
LINE
  5
2AA8
330
2E0F
100
AcDbEntity
  8
0
 62
     0
100
AcDbLine
 10
-415.0000000000051
 20
-508.3396430244702
 30
0.0
 11
359.1900979179845
 21
-877.0014000000037
 31
0.0
  0
LINE
  5
2AA9
330
2E0F
100
AcDbEntity
  8
0
 62
     0
100
AcDbLine
 10
-415.0000000000051
 20
-498.3396912803351
 30
0.0
 11
380.1900076549754
 21
-877.0014000000037
 31
0.0
  0
LINE
  5
2AAA
330
2E0F
100
AcDbEntity
  8
0
 62
     0
100
AcDbLine
 10
-415.0000000000089
 20
-488.3397395361996
 30
0.0
 11
401.1899173919664
 21
-877.0014000000037
 31
0.0
  0
LINE
  5
2AAB
330
2E0F
100
AcDbEntity
  8
0
 62
     0
100
AcDbLine
 10
-415.0000000000051
 20
-478.339787792068
 30
0.0
 11
414.9999999999945
 21
-873.5776746012403
 31
0.0
  0
LINE
  5
2AAC
330
2E0F
100
AcDbEntity
  8
0
 62
     0
100
AcDbLine
 10
-415.0000000000073
 20
-468.3398360479323
 30
0.0
 11
414.9999999999945
 21
-863.5777228571058
 31
0.0
  0
LINE
  5
2AAD
330
2E0F
100
AcDbEntity
  8
0
 62
     0
100
AcDbLine
 10
-415.0000000000073
 20
-458.3398843037976
 30
0.0
 11
414.9999999999945
 21
-853.5777711129711
 31
0.0
  0
LINE
  5
2AAE
330
2E0F
100
AcDbEntity
  8
0
 62
     0
100
AcDbLine
 10
-415.0000000000051
 20
-448.3399325596638
 30
0.0
 11
414.9999999999963
 21
-843.5778193688365
 31
0.0
  0
LINE
  5
2AAF
330
2E0F
100
AcDbEntity
  8
0
 62
     0
100
AcDbLine
 10
-415.0000000000073
 20
-438.3399808155288
 30
0.0
 11
414.9999999999963
 21
-833.5778676247016
 31
0.0
  0
LINE
  5
2AB0
330
2E0F
100
AcDbEntity
  8
0
 62
     0
100
AcDbLine
 10
-415.0000000000073
 20
-428.3400290713943
 30
0.0
 11
414.9999999999945
 21
-823.5779158805666
 31
0.0
  0
LINE
  5
2AB1
330
2E0F
100
AcDbEntity
  8
0
 62
     0
100
AcDbLine
 10
-415.0000000000051
 20
-418.3400773272611
 30
0.0
 11
414.9999999999945
 21
-813.5779641364333
 31
0.0
  0
LINE
  5
2AB2
330
2E0F
100
AcDbEntity
  8
0
 62
     0
100
AcDbLine
 10
-415.0000000000051
 20
-408.3401255831264
 30
0.0
 11
414.9999999999945
 21
-803.5780123922993
 31
0.0
  0
LINE
  5
2AB3
330
2E0F
100
AcDbEntity
  8
0
 62
     0
100
AcDbLine
 10
-415.0000000000051
 20
-398.3401738389921
 30
0.0
 11
414.9999999999945
 21
-793.5780606481649
 31
0.0
  0
LINE
  5
2AB4
330
2E0F
100
AcDbEntity
  8
0
 62
     0
100
AcDbLine
 10
-415.0000000000051
 20
-388.3402220948574
 30
0.0
 11
414.9999999999963
 21
-783.5781089040302
 31
0.0
  0
LINE
  5
2AB5
330
2E0F
100
AcDbEntity
  8
0
 62
     0
100
AcDbLine
 10
-415.0000000000073
 20
-378.3402703507217
 30
0.0
 11
414.9999999999945
 21
-773.5781571598953
 31
0.0
  0
LINE
  5
2AB6
330
2E0F
100
AcDbEntity
  8
0
 62
     0
100
AcDbLine
 10
-415.0000000000073
 20
-368.3403186065889
 30
0.0
 11
414.9999999999945
 21
-763.5782054157622
 31
0.0
  0
LINE
  5
2AB7
330
2E0F
100
AcDbEntity
  8
0
 62
     0
100
AcDbLine
 10
-415.0000000000051
 20
-358.3403668624542
 30
0.0
 11
414.9999999999963
 21
-753.5782536716275
 31
0.0
  0
LINE
  5
2AB8
330
2E0F
100
AcDbEntity
  8
0
 62
     0
100
AcDbLine
 10
-415.0000000000073
 20
-348.3404151183195
 30
0.0
 11
414.9999999999945
 21
-743.5783019274929
 31
0.0
  0
LINE
  5
2AB9
330
2E0F
100
AcDbEntity
  8
0
 62
     0
100
AcDbLine
 10
-415.0000000000073
 20
-338.3404633741847
 30
0.0
 11
414.9999999999963
 21
-733.5783501833583
 31
0.0
  0
LINE
  5
2ABA
330
2E0F
100
AcDbEntity
  8
0
 62
     0
100
AcDbLine
 10
-415.0000000000051
 20
-328.34051163005
 30
0.0
 11
414.9999999999945
 21
-723.5783984392227
 31
0.0
  0
LINE
  5
2ABB
330
2E0F
100
AcDbEntity
  8
0
 62
     0
100
AcDbLine
 10
-415.0000000000073
 20
-318.3405598859172
 30
0.0
 11
414.9999999999945
 21
-713.578446695091
 31
0.0
  0
LINE
  5
2ABC
330
2E0F
100
AcDbEntity
  8
0
 62
     0
100
AcDbLine
 10
-415.0000000000051
 20
-308.3406081417825
 30
0.0
 11
414.9999999999945
 21
-703.5784949509552
 31
0.0
  0
LINE
  5
2ABD
330
2E0F
100
AcDbEntity
  8
0
 62
     0
100
AcDbLine
 10
-415.0000000000051
 20
-298.3406563976478
 30
0.0
 11
414.9999999999945
 21
-693.5785432068205
 31
0.0
  0
LINE
  5
2ABE
330
2E0F
100
AcDbEntity
  8
0
 62
     0
100
AcDbLine
 10
-415.0000000000089
 20
-288.3407046535122
 30
0.0
 11
414.9999999999945
 21
-683.5785914626856
 31
0.0
  0
LINE
  5
2ABF
330
2E0F
100
AcDbEntity
  8
0
 62
     0
100
AcDbLine
 10
-415.0000000000051
 20
-278.3407529093774
 30
0.0
 11
414.9999999999963
 21
-673.5786397185511
 31
0.0
  0
LINE
  5
2AC0
330
2E0F
100
AcDbEntity
  8
0
 62
     0
100
AcDbLine
 10
-415.0000000000073
 20
-268.3408011652427
 30
0.0
 11
414.9999999999945
 21
-663.5786879744163
 31
0.0
  0
LINE
  5
2AC1
330
2E0F
100
AcDbEntity
  8
0
 62
     0
100
AcDbLine
 10
-415.0000000000051
 20
-258.3408494211099
 30
0.0
 11
414.9999999999963
 21
-653.5787362302835
 31
0.0
  0
LINE
  5
2AC2
330
2E0F
100
AcDbEntity
  8
0
 62
     0
100
AcDbLine
 10
-415.0000000000051
 20
-248.3408976769752
 30
0.0
 11
414.9999999999963
 21
-643.5787844861486
 31
0.0
  0
LINE
  5
2AC3
330
2E0F
100
AcDbEntity
  8
0
 62
     0
100
AcDbLine
 10
-415.0000000000073
 20
-238.3409459328404
 30
0.0
 11
414.9999999999945
 21
-633.5788327420132
 31
0.0
  0
LINE
  5
2AC4
330
2E0F
100
AcDbEntity
  8
0
 62
     0
100
AcDbLine
 10
-415.0000000000051
 20
-228.3409941887057
 30
0.0
 11
414.9999999999963
 21
-623.5788809978794
 31
0.0
  0
LINE
  5
2AC5
330
2E0F
100
AcDbEntity
  8
0
 62
     0
100
AcDbLine
 10
-415.0000000000073
 20
-218.341042444571
 30
0.0
 11
414.9999999999945
 21
-613.5789292537439
 31
0.0
  0
LINE
  5
2AC6
330
2E0F
100
AcDbEntity
  8
0
 62
     0
100
AcDbLine
 10
-415.0000000000051
 20
-208.341090700439
 30
0.0
 11
414.9999999999945
 21
-603.5789775096109
 31
0.0
  0
LINE
  5
2AC7
330
2E0F
100
AcDbEntity
  8
0
 62
     0
100
AcDbLine
 10
-415.0000000000073
 20
-198.3411389563034
 30
0.0
 11
414.9999999999945
 21
-593.5790257654761
 31
0.0
  0
LINE
  5
2AC8
330
2E0F
100
AcDbEntity
  8
0
 62
     0
100
AcDbLine
 10
-415.0000000000051
 20
-188.3411872121687
 30
0.0
 11
414.9999999999963
 21
-583.5790740213415
 31
0.0
  0
LINE
  5
2AC9
330
2E0F
100
AcDbEntity
  8
0
 62
     0
100
AcDbLine
 10
-415.0000000000073
 20
-178.3412354680338
 30
0.0
 11
414.9999999999945
 21
-573.5791222772076
 31
0.0
  0
LINE
  5
2ACA
330
2E0F
100
AcDbEntity
  8
0
 62
     0
100
AcDbLine
 10
-415.0000000000073
 20
-168.3412837238993
 30
0.0
 11
414.9999999999945
 21
-563.5791705330721
 31
0.0
  0
LINE
  5
2ACB
330
2E0F
100
AcDbEntity
  8
0
 62
     0
100
AcDbLine
 10
-396.8138490489982
 20
-167.0013992943068
 30
0.0
 11
414.9999999999945
 21
-553.5792187889389
 31
0.0
  0
LINE
  5
2ACC
330
2E0F
100
AcDbEntity
  8
0
 62
     0
100
AcDbLine
 10
-375.813939243224
 20
-167.0013993270613
 30
0.0
 11
414.9999999999927
 21
-543.5792670448043
 31
0.0
  0
LINE
  5
2ACD
330
2E0F
100
AcDbEntity
  8
0
 62
     0
100
AcDbLine
 10
-354.8140294374497
 20
-167.0013993598149
 30
0.0
 11
414.9999999999945
 21
-533.5793153006695
 31
0.0
  0
LINE
  5
2ACE
330
2E0F
100
AcDbEntity
  8
0
 62
     0
100
AcDbLine
 10
-333.8141196316755
 20
-167.0013993925677
 30
0.0
 11
414.9999999999945
 21
-523.5793635565348
 31
0.0
  0
LINE
  5
2ACF
330
2E0F
100
AcDbEntity
  8
0
 62
     0
100
AcDbLine
 10
-312.8142098259013
 20
-167.0013994253231
 30
0.0
 11
414.9999999999945
 21
-513.5794118124
 31
0.0
  0
LINE
  5
2AD0
330
2E0F
100
AcDbEntity
  8
0
 62
     0
100
AcDbLine
 10
-291.8143000201253
 20
-167.0013994580758
 30
0.0
 11
414.9999999999963
 21
-503.5794600682656
 31
0.0
  0
LINE
  5
2AD1
330
2E0F
100
AcDbEntity
  8
0
 62
     0
100
AcDbLine
 10
-270.8143902143511
 20
-167.0013994908322
 30
0.0
 11
414.9999999999945
 21
-493.5795083241329
 31
0.0
  0
LINE
  5
2AD2
330
2E0F
100
AcDbEntity
  8
0
 62
     0
100
AcDbLine
 10
-249.8144804085768
 20
-167.0013995235858
 30
0.0
 11
414.9999999999963
 21
-483.5795565799981
 31
0.0
  0
LINE
  5
2AD3
330
2E0F
100
AcDbEntity
  8
0
 62
     0
100
AcDbLine
 10
-228.8145706028008
 20
-167.0013995563404
 30
0.0
 11
414.9999999999945
 21
-473.5796048358625
 31
0.0
  0
LINE
  5
2AD4
330
2E0F
100
AcDbEntity
  8
0
 62
     0
100
AcDbLine
 10
-207.8146607970284
 20
-167.001399589094
 30
0.0
 11
414.9999999999945
 21
-463.5796530917287
 31
0.0
  0
LINE
  5
2AD5
330
2E0F
100
AcDbEntity
  8
0
 62
     0
100
AcDbLine
 10
199.1999999999971
 20
-350.8178507772091
 30
0.0
 11
220.1654656010833
 21
-360.8014005605145
 31
0.0
  0
LINE
  5
2AD6
330
2E0F
100
AcDbEntity
  8
0
 62
     0
100
AcDbLine
 10
220.1654656010833
 20
-360.8014005605145
 30
0.0
 11
414.9999999999945
 21
-453.5797013475931
 31
0.0
  0
LINE
  5
2AD7
330
2E0F
100
AcDbEntity
  8
0
 62
     0
100
AcDbLine
 10
-186.8147509912541
 20
-167.0013996218477
 30
0.0
 11
199.1999999999971
 21
-350.8178507772091
 31
0.0
  0
LINE
  5
2AD8
330
2E0F
100
AcDbEntity
  8
0
 62
     0
100
AcDbLine
 10
199.1999999999971
 20
-340.8178990330762
 30
0.0
 11
241.1653753380742
 21
-360.8014005605164
 31
0.0
  0
LINE
  5
2AD9
330
2E0F
100
AcDbEntity
  8
0
 62
     0
100
AcDbLine
 10
241.1653753380742
 20
-360.8014005605164
 30
0.0
 11
414.9999999999945
 21
-443.57974960346
 31
0.0
  0
LINE
  5
2ADA
330
2E0F
100
AcDbEntity
  8
0
 62
     0
100
AcDbLine
 10
-165.8148411854763
 20
-167.001399654604
 30
0.0
 11
199.1999999999971
 21
-340.8178990330762
 31
0.0
  0
LINE
  5
2ADB
330
2E0F
100
AcDbEntity
  8
0
 62
     0
100
AcDbLine
 10
199.1999999999971
 20
-330.8179472889416
 30
0.0
 11
262.1652850750634
 21
-360.8014005605164
 31
0.0
  0
LINE
  5
2ADC
330
2E0F
100
AcDbEntity
  8
0
 62
     0
100
AcDbLine
 10
262.1652850750634
 20
-360.8014005605164
 30
0.0
 11
414.9999999999945
 21
-433.5797978593254
 31
0.0
  0
LINE
  5
2ADD
330
2E0F
100
AcDbEntity
  8
0
 62
     0
100
AcDbLine
 10
-144.8149313797039
 20
-167.0013996873576
 30
0.0
 11
199.1999999999971
 21
-330.8179472889416
 31
0.0
  0
LINE
  5
2ADE
330
2E0F
100
AcDbEntity
  8
0
 62
     0
100
AcDbLine
 10
199.1999999999971
 20
-320.8179955448068
 30
0.0
 11
283.1651948120562
 21
-360.8014005605164
 31
0.0
  0
LINE
  5
2ADF
330
2E0F
100
AcDbEntity
  8
0
 62
     0
100
AcDbLine
 10
283.1651948120562
 20
-360.8014005605164
 30
0.0
 11
414.9999999999945
 21
-423.5798461151905
 31
0.0
  0
LINE
  5
2AE0
330
2E0F
100
AcDbEntity
  8
0
 62
     0
100
AcDbLine
 10
-123.8150215739315
 20
-167.0013997201104
 30
0.0
 11
199.1999999999971
 21
-320.8179955448068
 31
0.0
  0
LINE
  5
2AE1
330
2E0F
100
AcDbEntity
  8
0
 62
     0
100
AcDbLine
 10
199.1999999999971
 20
-310.8180438006721
 30
0.0
 11
304.1651045490471
 21
-360.8014005605164
 31
0.0
  0
LINE
  5
2AE2
330
2E0F
100
AcDbEntity
  8
0
 62
     0
100
AcDbLine
 10
304.1651045490471
 20
-360.8014005605164
 30
0.0
 11
414.9999999999963
 21
-413.5798943710557
 31
0.0
  0
LINE
  5
2AE3
330
2E0F
100
AcDbEntity
  8
0
 62
     0
100
AcDbLine
 10
-102.8151117681536
 20
-167.0013997528649
 30
0.0
 11
199.1999999999971
 21
-310.8180438006721
 31
0.0
  0
LINE
  5
2AE4
330
2E0F
100
AcDbEntity
  8
0
 62
     0
100
AcDbLine
 10
199.1999999999971
 20
-300.8180920565374
 30
0.0
 11
325.1650142860381
 21
-360.8014005605164
 31
0.0
  0
LINE
  5
2AE5
330
2E0F
100
AcDbEntity
  8
0
 62
     0
100
AcDbLine
 10
325.1650142860381
 20
-360.8014005605164
 30
0.0
 11
414.9999999999945
 21
-403.579942626921
 31
0.0
  0
LINE
  5
2AE6
330
2E0F
100
AcDbEntity
  8
0
 62
     0
100
AcDbLine
 10
-81.81520196237762
 20
-167.0013997856204
 30
0.0
 11
199.1999999999971
 21
-300.8180920565374
 31
0.0
  0
LINE
  5
2AE7
330
2E0F
100
AcDbEntity
  8
0
 62
     0
100
AcDbLine
 10
199.1999999999971
 20
-290.8181403124036
 30
0.0
 11
346.1649240230291
 21
-360.8014005605164
 31
0.0
  0
LINE
  5
2AE8
330
2E0F
100
AcDbEntity
  8
0
 62
     0
100
AcDbLine
 10
346.1649240230291
 20
-360.8014005605164
 30
0.0
 11
414.9999999999945
 21
-393.5799908827867
 31
0.0
  0
LINE
  5
2AE9
330
2E0F
100
AcDbEntity
  8
0
 62
     0
100
AcDbLine
 10
-60.81529215660522
 20
-167.0013998183731
 30
0.0
 11
199.1999999999971
 21
-290.8181403124036
 31
0.0
  0
LINE
  5
2AEA
330
2E0F
100
AcDbEntity
  8
0
 62
     0
100
AcDbLine
 10
199.1999999999989
 20
-280.8181885682706
 30
0.0
 11
367.16483376002
 21
-360.8014005605173
 31
0.0
  0
LINE
  5
2AEB
330
2E0F
100
AcDbEntity
  8
0
 62
     0
100
AcDbLine
 10
367.1648337600217
 20
-360.8014005605182
 30
0.0
 11
414.9999999999945
 21
-383.5800391386537
 31
0.0
  0
LINE
  5
2AEC
330
2E0F
100
AcDbEntity
  8
0
 62
     0
100
AcDbLine
 10
-39.81538235083099
 20
-167.0013998511285
 30
0.0
 11
199.1999999999971
 21
-280.8181885682698
 31
0.0
  0
LINE
  5
2AED
330
2E0F
100
AcDbEntity
  8
0
 62
     0
100
AcDbLine
 10
199.1999999999971
 20
-270.8182368241359
 30
0.0
 11
388.1647434970109
 21
-360.8014005605173
 31
0.0
  0
LINE
  5
2AEE
330
2E0F
100
AcDbEntity
  8
0
 62
     0
100
AcDbLine
 10
388.1647434970128
 20
-360.8014005605182
 30
0.0
 11
414.9999999999945
 21
-373.5800873945191
 31
0.0
  0
LINE
  5
2AEF
330
2E0F
100
AcDbEntity
  8
0
 62
     0
100
AcDbLine
 10
-18.81547254505494
 20
-167.0013998838831
 30
0.0
 11
199.1999999999952
 21
-270.8182368241351
 31
0.0
  0
LINE
  5
2AF0
330
2E0F
100
AcDbEntity
  8
0
 62
     0
100
AcDbLine
 10
199.1999999999971
 20
-260.8182850800004
 30
0.0
 11
409.1646532340034
 21
-360.8014005605173
 31
0.0
  0
LINE
  5
2AF1
330
2E0F
100
AcDbEntity
  8
0
 62
     0
100
AcDbLine
 10
409.1646532340055
 20
-360.8014005605182
 30
0.0
 11
414.9999999999963
 21
-363.5801356503844
 31
0.0
  0
LINE
  5
2AF2
330
2E0F
100
AcDbEntity
  8
0
 62
     0
100
AcDbLine
 10
2.184437260721094
 20
-167.0013999166367
 30
0.0
 11
199.1999999999952
 21
-260.8182850799985
 31
0.0
  0
LINE
  5
2AF3
330
2E0F
100
AcDbEntity
  8
0
 62
     0
100
AcDbLine
 10
199.1999999999989
 20
-250.8183333358665
 30
0.0
 11
414.9999999999963
 21
-353.5801839062497
 31
0.0
  0
LINE
  5
2AF4
330
2E0F
100
AcDbEntity
  8
0
 62
     0
100
AcDbLine
 10
23.18434706649168
 20
-167.0013999493894
 30
0.0
 11
199.1999999999933
 21
-250.8183333358638
 31
0.0
  0
LINE
  5
2AF5
330
2E0F
100
AcDbEntity
  8
0
 62
     0
100
AcDbLine
 10
199.1999999999952
 20
-240.8183815917309
 30
0.0
 11
414.9999999999927
 21
-343.5802321621149
 31
0.0
  0
LINE
  5
2AF6
330
2E0F
100
AcDbEntity
  8
0
 62
     0
100
AcDbLine
 10
44.18425687226772
 20
-167.0013999821449
 30
0.0
 11
199.1999999999916
 21
-240.8183815917291
 31
0.0
  0
LINE
  5
2AF7
330
2E0F
100
AcDbEntity
  8
0
 62
     0
100
AcDbLine
 10
199.1999999999989
 20
-230.8184298475981
 30
0.0
 11
414.9999999999963
 21
-333.5802804179821
 31
0.0
  0
LINE
  5
2AF8
330
2E0F
100
AcDbEntity
  8
0
 62
     0
100
AcDbLine
 10
65.1841666780474
 20
-167.0014000149012
 30
0.0
 11
199.1999999999933
 21
-230.8184298475953
 31
0.0
  0
LINE
  5
2AF9
330
2E0F
100
AcDbEntity
  8
0
 62
     0
100
AcDbLine
 10
199.1999999999971
 20
-220.8184781034634
 30
0.0
 11
414.9999999999945
 21
-323.5803286738474
 31
0.0
  0
LINE
  5
2AFA
330
2E0F
100
AcDbEntity
  8
0
 62
     0
100
AcDbLine
 10
86.18407648381801
 20
-167.0014000476539
 30
0.0
 11
199.1999999999933
 21
-220.8184781034615
 31
0.0
  0
LINE
  5
2AFB
330
2E0F
100
AcDbEntity
  8
0
 62
     0
100
AcDbLine
 10
199.1999999999971
 20
-210.8185263593286
 30
0.0
 11
414.9999999999963
 21
-313.5803769297128
 31
0.0
  0
LINE
  5
2AFC
330
2E0F
100
AcDbEntity
  8
0
 62
     0
100
AcDbLine
 10
107.1839862895922
 20
-167.0014000804076
 30
0.0
 11
199.1999999999933
 21
-210.8185263593258
 31
0.0
  0
LINE
  5
2AFD
330
2E0F
100
AcDbEntity
  8
0
 62
     0
100
AcDbLine
 10
199.1999999999989
 20
-200.8185746151939
 30
0.0
 11
414.9999999999963
 21
-303.5804251855779
 31
0.0
  0
LINE
  5
2AFE
330
2E0F
100
AcDbEntity
  8
0
 62
     0
100
AcDbLine
 10
128.1838960953701
 20
-167.0014001131621
 30
0.0
 11
199.1999999999933
 21
-200.8185746151912
 31
0.0
  0
LINE
  5
2AFF
330
2E0F
100
AcDbEntity
  8
0
 62
     0
100
AcDbLine
 10
199.1999999999971
 20
-190.8186228710592
 30
0.0
 11
414.9999999999945
 21
-293.5804734414432
 31
0.0
  0
LINE
  5
2B00
330
2E0F
100
AcDbEntity
  8
0
 62
     0
100
AcDbLine
 10
149.1838059011425
 20
-167.0014001459158
 30
0.0
 11
199.1999999999916
 21
-190.8186228710565
 31
0.0
  0
LINE
  5
2B01
330
2E0F
100
AcDbEntity
  8
0
 62
     0
100
AcDbLine
 10
199.1999999999989
 20
-180.8186711269262
 30
0.0
 11
414.9999999999963
 21
-283.5805216973104
 31
0.0
  0
LINE
  5
2B02
330
2E0F
100
AcDbEntity
  8
0
 62
     0
100
AcDbLine
 10
170.1837157069167
 20
-167.0014001786712
 30
0.0
 11
199.1999999999933
 21
-180.8186711269236
 31
0.0
  0
LINE
  5
2B03
330
2E0F
100
AcDbEntity
  8
0
 62
     0
100
AcDbLine
 10
199.1999999999971
 20
-170.8187193827907
 30
0.0
 11
414.9999999999945
 21
-273.5805699531748
 31
0.0
  0
LINE
  5
2B04
330
2E0F
100
AcDbEntity
  8
0
 62
     0
100
AcDbLine
 10
191.1836255126927
 20
-167.0014002114258
 30
0.0
 11
199.1999999999933
 21
-170.8187193827889
 31
0.0
  0
LINE
  5
2B05
330
2E0F
100
AcDbEntity
  8
0
 62
     0
100
AcDbLine
 10
212.1835359827746
 20
-167.0014005605171
 30
0.0
 11
414.9999999999945
 21
-263.5806182090401
 31
0.0
  0
LINE
  5
2B06
330
2E0F
100
AcDbEntity
  8
0
 62
     0
100
AcDbLine
 10
233.1834457197656
 20
-167.0014005605161
 30
0.0
 11
414.9999999999945
 21
-253.5806664649054
 31
0.0
  0
LINE
  5
2B07
330
2E0F
100
AcDbEntity
  8
0
 62
     0
100
AcDbLine
 10
254.1833554567584
 20
-167.0014005605161
 30
0.0
 11
414.9999999999945
 21
-243.5807147207706
 31
0.0
  0
LINE
  5
2B08
330
2E0F
100
AcDbEntity
  8
0
 62
     0
100
AcDbLine
 10
275.1832651937475
 20
-167.0014005605161
 30
0.0
 11
414.9999999999945
 21
-233.5807629766359
 31
0.0
  0
LINE
  5
2B09
330
2E0F
100
AcDbEntity
  8
0
 62
     0
100
AcDbLine
 10
296.1831749307402
 20
-167.001400560518
 30
0.0
 11
414.9999999999945
 21
-223.5808112325031
 31
0.0
  0
LINE
  5
2B0A
330
2E0F
100
AcDbEntity
  8
0
 62
     0
100
AcDbLine
 10
317.1830846677276
 20
-167.0014005605161
 30
0.0
 11
414.9999999999963
 21
-213.5808594883684
 31
0.0
  0
LINE
  5
2B0B
330
2E0F
100
AcDbEntity
  8
0
 62
     0
100
AcDbLine
 10
338.1829944047185
 20
-167.0014005605161
 30
0.0
 11
414.9999999999927
 21
-203.5809077442327
 31
0.0
  0
LINE
  5
2B0C
330
2E0F
100
AcDbEntity
  8
0
 62
     0
100
AcDbLine
 10
359.1829041417113
 20
-167.0014005605161
 30
0.0
 11
414.9999999999963
 21
-193.5809560000988
 31
0.0
  0
LINE
  5
2B0D
330
2E0F
100
AcDbEntity
  8
0
 62
     0
100
AcDbLine
 10
380.1828138787005
 20
-167.0014005605161
 30
0.0
 11
414.9999999999945
 21
-183.5810042559633
 31
0.0
  0
LINE
  5
2B0E
330
2E0F
100
AcDbEntity
  8
0
 62
     0
100
AcDbLine
 10
401.1827236156951
 20
-167.0014005605189
 30
0.0
 11
414.9999999999927
 21
-173.5810525118304
 31
0.0
  0
ENDBLK
  5
2B0F
330
2E0F
100
AcDbEntity
  8
0
100
AcDbBlockEnd
  0
BLOCK
  5
2E12
330
2E11
100
AcDbEntity
  8
0
100
AcDbBlockBegin
  2
*X77
 70
     1
 10
0.0
 20
0.0
 30
0.0
  3
*X77
  1

  0
LINE
  5
2B12
330
2E11
100
AcDbEntity
  8
0
 62
     0
100
AcDbLine
 10
408.89885198342
 20
-877.0013999999992
 30
0.0
 11
415.0000000000036
 21
-874.0960929527901
 31
0.0
  0
LINE
  5
2B13
330
2E11
100
AcDbEntity
  8
0
 62
     0
100
AcDbLine
 10
387.8989422464292
 20
-877.0014000000001
 30
0.0
 11
415.0
 21
-864.096141208657
 31
0.0
  0
LINE
  5
2B14
330
2E11
100
AcDbEntity
  8
0
 62
     0
100
AcDbLine
 10
366.8990325094382
 20
-877.001400000001
 30
0.0
 11
415.0000000000036
 21
-854.0961894645223
 31
0.0
  0
LINE
  5
2B15
330
2E11
100
AcDbEntity
  8
0
 62
     0
100
AcDbLine
 10
345.8991227724473
 20
-877.001400000001
 30
0.0
 11
415.0000000000036
 21
-844.0962377203868
 31
0.0
  0
LINE
  5
2B16
330
2E11
100
AcDbEntity
  8
0
 62
     0
100
AcDbLine
 10
324.8992130354562
 20
-877.001400000001
 30
0.0
 11
415.0000000000036
 21
-834.096285976253
 31
0.0
  0
LINE
  5
2B17
330
2E11
100
AcDbEntity
  8
0
 62
     0
100
AcDbLine
 10
303.8993032984654
 20
-877.001400000001
 30
0.0
 11
415.0000000000036
 21
-824.0963342321174
 31
0.0
  0
LINE
  5
2B18
330
2E11
100
AcDbEntity
  8
0
 62
     0
100
AcDbLine
 10
282.8993935614744
 20
-877.0014000000017
 30
0.0
 11
415.0
 21
-814.0963824879843
 31
0.0
  0
LINE
  5
2B19
330
2E11
100
AcDbEntity
  8
0
 62
     0
100
AcDbLine
 10
261.8994838244836
 20
-877.0014000000017
 30
0.0
 11
415.0000000000036
 21
-804.0964307438491
 31
0.0
  0
LINE
  5
2B1A
330
2E11
100
AcDbEntity
  8
0
 62
     0
100
AcDbLine
 10
240.8995740874925
 20
-877.001400000001
 30
0.0
 11
415.0
 21
-794.0964789997161
 31
0.0
  0
LINE
  5
2B1B
330
2E11
100
AcDbEntity
  8
0
 62
     0
100
AcDbLine
 10
219.8996643505016
 20
-877.001400000001
 30
0.0
 11
415.0000000000036
 21
-784.0965272555804
 31
0.0
  0
LINE
  5
2B1C
330
2E11
100
AcDbEntity
  8
0
 62
     0
100
AcDbLine
 10
198.8997546135142
 20
-877.001400000001
 30
0.0
 11
415.0000000000036
 21
-774.0965755114465
 31
0.0
  0
LINE
  5
2B1D
330
2E11
100
AcDbEntity
  8
0
 62
     0
100
AcDbLine
 10
177.8998448765196
 20
-877.001400000001
 30
0.0
 11
415.0
 21
-764.0966237673109
 31
0.0
  0
LINE
  5
2B1E
330
2E11
100
AcDbEntity
  8
0
 62
     0
100
AcDbLine
 10
156.8999351395323
 20
-877.0014000000001
 30
0.0
 11
415.0000000000036
 21
-754.0966720231764
 31
0.0
  0
LINE
  5
2B1F
330
2E11
100
AcDbEntity
  8
0
 62
     0
100
AcDbLine
 10
135.9000254025413
 20
-877.001400000001
 30
0.0
 11
415.0000000000036
 21
-744.0967202790434
 31
0.0
  0
LINE
  5
2B20
330
2E11
100
AcDbEntity
  8
0
 62
     0
100
AcDbLine
 10
114.9001156655504
 20
-877.001400000001
 30
0.0
 11
415.0000000000036
 21
-734.0967685349077
 31
0.0
  0
LINE
  5
2B21
330
2E11
100
AcDbEntity
  8
0
 62
     0
100
AcDbLine
 10
93.90020592855943
 20
-877.001400000001
 30
0.0
 11
415.0000000000036
 21
-724.096816790774
 31
0.0
  0
LINE
  5
2B22
330
2E11
100
AcDbEntity
  8
0
 62
     0
100
AcDbLine
 10
72.90029619156848
 20
-877.001400000001
 30
0.0
 11
415.0000000000036
 21
-714.0968650466382
 31
0.0
  0
LINE
  5
2B23
330
2E11
100
AcDbEntity
  8
0
 62
     0
100
AcDbLine
 10
51.90038645457753
 20
-877.0014000000017
 30
0.0
 11
415.0
 21
-704.0969133025055
 31
0.0
  0
LINE
  5
2B24
330
2E11
100
AcDbEntity
  8
0
 62
     0
100
AcDbLine
 10
30.90047671758657
 20
-877.0014000000029
 30
0.0
 11
415.0000000000036
 21
-694.0969615583708
 31
0.0
  0
LINE
  5
2B25
330
2E11
100
AcDbEntity
  8
0
 62
     0
100
AcDbLine
 10
9.900566980595613
 20
-877.001400000001
 30
0.0
 11
415.0000000000036
 21
-684.097009814237
 31
0.0
  0
LINE
  5
2B26
330
2E11
100
AcDbEntity
  8
0
 62
     0
100
AcDbLine
 10
-11.09934275639898
 20
-877.001400000001
 30
0.0
 11
415.0
 21
-674.0970580701015
 31
0.0
  0
LINE
  5
2B27
330
2E11
100
AcDbEntity
  8
0
 62
     0
100
AcDbLine
 10
-32.09925249338631
 20
-877.001400000001
 30
0.0
 11
415.0000000000036
 21
-664.0971063259676
 31
0.0
  0
LINE
  5
2B28
330
2E11
100
AcDbEntity
  8
0
 62
     0
100
AcDbLine
 10
-53.09916223037725
 20
-877.0014000000017
 30
0.0
 11
415.0000000000036
 21
-654.0971545818347
 31
0.0
  0
LINE
  5
2B29
330
2E11
100
AcDbEntity
  8
0
 62
     0
100
AcDbLine
 10
-74.09907196737186
 20
-877.0014000000017
 30
0.0
 11
415.0000000000036
 21
-644.097202837699
 31
0.0
  0
LINE
  5
2B2A
330
2E11
100
AcDbEntity
  8
0
 62
     0
100
AcDbLine
 10
-95.09898170435551
 20
-877.001400000001
 30
0.0
 11
415.0000000000036
 21
-634.0972510935662
 31
0.0
  0
LINE
  5
2B2B
330
2E11
100
AcDbEntity
  8
0
 62
     0
100
AcDbLine
 10
-116.0988914413501
 20
-877.001400000001
 30
0.0
 11
415.0
 21
-624.0972993494303
 31
0.0
  0
LINE
  5
2B2C
330
2E11
100
AcDbEntity
  8
0
 62
     0
100
AcDbLine
 10
-137.0988011783411
 20
-877.001400000001
 30
0.0
 11
415.0
 21
-614.0973476052968
 31
0.0
  0
LINE
  5
2B2D
330
2E11
100
AcDbEntity
  8
0
 62
     0
100
AcDbLine
 10
-158.0987109153284
 20
-877.0013999999992
 30
0.0
 11
415.0000000000036
 21
-604.0973958611613
 31
0.0
  0
LINE
  5
2B2E
330
2E11
100
AcDbEntity
  8
0
 62
     0
100
AcDbLine
 10
-179.0986206523193
 20
-877.0014000000001
 30
0.0
 11
415.0
 21
-594.0974441170283
 31
0.0
  0
LINE
  5
2B2F
330
2E11
100
AcDbEntity
  8
0
 62
     0
100
AcDbLine
 10
-200.0985303893103
 20
-877.001400000001
 30
0.0
 11
415.0000000000036
 21
-584.0974923728936
 31
0.0
  0
LINE
  5
2B30
330
2E11
100
AcDbEntity
  8
0
 62
     0
100
AcDbLine
 10
-221.0984401263012
 20
-877.001400000001
 30
0.0
 11
415.0000000000036
 21
-574.097540628758
 31
0.0
  0
LINE
  5
2B31
330
2E11
100
AcDbEntity
  8
0
 62
     0
100
AcDbLine
 10
-242.0983498632959
 20
-877.001400000001
 30
0.0
 11
415.0
 21
-564.0975888846242
 31
0.0
  0
LINE
  5
2B32
330
2E11
100
AcDbEntity
  8
0
 62
     0
100
AcDbLine
 10
-263.0982596002832
 20
-877.001400000001
 30
0.0
 11
415.0000000000036
 21
-554.0976371404886
 31
0.0
  0
LINE
  5
2B33
330
2E11
100
AcDbEntity
  8
0
 62
     0
100
AcDbLine
 10
-284.0981693372742
 20
-877.0014000000017
 30
0.0
 11
415.0000000000036
 21
-544.0976853963555
 31
0.0
  0
LINE
  5
2B34
330
2E11
100
AcDbEntity
  8
0
 62
     0
100
AcDbLine
 10
-305.0980790742688
 20
-877.0014000000029
 30
0.0
 11
415.0000000000036
 21
-534.0977336522208
 31
0.0
  0
LINE
  5
2B35
330
2E11
100
AcDbEntity
  8
0
 62
     0
100
AcDbLine
 10
-326.0979888112561
 20
-877.0014000000029
 30
0.0
 11
415.0000000000036
 21
-524.0977819080852
 31
0.0
  0
LINE
  5
2B36
330
2E11
100
AcDbEntity
  8
0
 62
     0
100
AcDbLine
 10
-347.0978985482469
 20
-877.0014000000029
 30
0.0
 11
415.0000000000036
 21
-514.0978301639512
 31
0.0
  0
LINE
  5
2B37
330
2E11
100
AcDbEntity
  8
0
 62
     0
100
AcDbLine
 10
-368.0978082852381
 20
-877.001400000001
 30
0.0
 11
415.0
 21
-504.0978784198176
 31
0.0
  0
LINE
  5
2B38
330
2E11
100
AcDbEntity
  8
0
 62
     0
100
AcDbLine
 10
-389.0977180222289
 20
-877.0014000000017
 30
0.0
 11
415.0000000000036
 21
-494.0979266756831
 31
0.0
  0
LINE
  5
2B39
330
2E11
100
AcDbEntity
  8
0
 62
     0
100
AcDbLine
 10
-410.0976277592161
 20
-877.0014000000017
 30
0.0
 11
415.0000000000073
 21
-484.0979749315474
 31
0.0
  0
LINE
  5
2B3A
330
2E11
100
AcDbEntity
  8
0
 62
     0
100
AcDbLine
 10
-414.9999999999963
 20
-869.3359099965872
 30
0.0
 11
415.0
 21
-474.0980231874145
 31
0.0
  0
LINE
  5
2B3B
330
2E11
100
AcDbEntity
  8
0
 62
     0
100
AcDbLine
 10
-414.9999999999927
 20
-859.3359582524517
 30
0.0
 11
415.0000000000036
 21
-464.098071443279
 31
0.0
  0
LINE
  5
2B3C
330
2E11
100
AcDbEntity
  8
0
 62
     0
100
AcDbLine
 10
-414.9999999999963
 20
-849.3360065083162
 30
0.0
 11
415.0
 21
-454.0981196991451
 31
0.0
  0
LINE
  5
2B3D
330
2E11
100
AcDbEntity
  8
0
 62
     0
100
AcDbLine
 10
-414.9999999999963
 20
-839.336054764183
 30
0.0
 11
415.0000000000036
 21
-444.0981679550104
 31
0.0
  0
LINE
  5
2B3E
330
2E11
100
AcDbEntity
  8
0
 62
     0
100
AcDbLine
 10
-414.9999999999963
 20
-829.3361030200495
 30
0.0
 11
415.0000000000036
 21
-434.0982162108764
 31
0.0
  0
LINE
  5
2B3F
330
2E11
100
AcDbEntity
  8
0
 62
     0
100
AcDbLine
 10
-414.9999999999963
 20
-819.3361512759148
 30
0.0
 11
415.0
 21
-424.0982644667419
 31
0.0
  0
LINE
  5
2B40
330
2E11
100
AcDbEntity
  8
0
 62
     0
100
AcDbLine
 10
-414.9999999999927
 20
-809.336199531779
 30
0.0
 11
415.0000000000036
 21
-414.0983127226061
 31
0.0
  0
LINE
  5
2B41
330
2E11
100
AcDbEntity
  8
0
 62
     0
100
AcDbLine
 10
-414.9999999999963
 20
-799.3362477876451
 30
0.0
 11
415.0000000000036
 21
-404.0983609784722
 31
0.0
  0
LINE
  5
2B42
330
2E11
100
AcDbEntity
  8
0
 62
     0
100
AcDbLine
 10
-414.9999999999963
 20
-789.3362960435097
 30
0.0
 11
415.0000000000036
 21
-394.098409234337
 31
0.0
  0
LINE
  5
2B43
330
2E11
100
AcDbEntity
  8
0
 62
     0
100
AcDbLine
 10
-414.9999999999963
 20
-779.3363442993767
 30
0.0
 11
415.0000000000036
 21
-384.0984574902041
 31
0.0
  0
LINE
  5
2B44
330
2E11
100
AcDbEntity
  8
0
 62
     0
100
AcDbLine
 10
-414.9999999999927
 20
-769.3363925552421
 30
0.0
 11
415.0000000000036
 21
-374.0985057460694
 31
0.0
  0
LINE
  5
2B45
330
2E11
100
AcDbEntity
  8
0
 62
     0
100
AcDbLine
 10
-414.9999999999927
 20
-759.3364408111065
 30
0.0
 11
415.0
 21
-364.0985540019357
 31
0.0
  0
LINE
  5
2B46
330
2E11
100
AcDbEntity
  8
0
 62
     0
100
AcDbLine
 10
400.9241161413808
 20
-360.8014005605145
 30
0.0
 11
415.0000000000036
 21
-354.0986022578
 31
0.0
  0
LINE
  5
2B47
330
2E11
100
AcDbEntity
  8
0
 62
     0
100
AcDbLine
 10
-414.9999999999963
 20
-749.3364890669726
 30
0.0
 11
400.9241161413774
 21
-360.8014005605164
 31
0.0
  0
LINE
  5
2B48
330
2E11
100
AcDbEntity
  8
0
 62
     0
100
AcDbLine
 10
379.9242064043865
 20
-360.8014005605145
 30
0.0
 11
415.0
 21
-344.0986505136661
 31
0.0
  0
LINE
  5
2B49
330
2E11
100
AcDbEntity
  8
0
 62
     0
100
AcDbLine
 10
-415.0
 20
-739.3365373228389
 30
0.0
 11
379.9242064043865
 21
-360.8014005605164
 31
0.0
  0
LINE
  5
2B4A
330
2E11
100
AcDbEntity
  8
0
 62
     0
100
AcDbLine
 10
358.9242966673992
 20
-360.8014005605155
 30
0.0
 11
415.0000000000036
 21
-334.0986987695314
 31
0.0
  0
LINE
  5
2B4B
330
2E11
100
AcDbEntity
  8
0
 62
     0
100
AcDbLine
 10
-414.9999999999963
 20
-729.336585578704
 30
0.0
 11
358.9242966673992
 21
-360.8014005605155
 31
0.0
  0
LINE
  5
2B4C
330
2E11
100
AcDbEntity
  8
0
 62
     0
100
AcDbLine
 10
337.9243869304083
 20
-360.8014005605164
 30
0.0
 11
415.0000000000036
 21
-324.0987470253967
 31
0.0
  0
LINE
  5
2B4D
330
2E11
100
AcDbEntity
  8
0
 62
     0
100
AcDbLine
 10
-414.9999999999927
 20
-719.3366338345695
 30
0.0
 11
337.9243869304083
 21
-360.8014005605164
 31
0.0
  0
LINE
  5
2B4E
330
2E11
100
AcDbEntity
  8
0
 62
     0
100
AcDbLine
 10
316.9244771934136
 20
-360.8014005605164
 30
0.0
 11
415.0
 21
-314.098795281263
 31
0.0
  0
LINE
  5
2B4F
330
2E11
100
AcDbEntity
  8
0
 62
     0
100
AcDbLine
 10
-414.9999999999963
 20
-709.3366820904356
 30
0.0
 11
316.9244771934136
 21
-360.8014005605164
 31
0.0
  0
LINE
  5
2B50
330
2E11
100
AcDbEntity
  8
0
 62
     0
100
AcDbLine
 10
295.9245674564263
 20
-360.8014005605164
 30
0.0
 11
415.0000000000036
 21
-304.0988435371273
 31
0.0
  0
LINE
  5
2B51
330
2E11
100
AcDbEntity
  8
0
 62
     0
100
AcDbLine
 10
-414.9999999999963
 20
-699.3367303463001
 30
0.0
 11
295.9245674564263
 21
-360.8014005605164
 31
0.0
  0
LINE
  5
2B52
330
2E11
100
AcDbEntity
  8
0
 62
     0
100
AcDbLine
 10
274.9246577194353
 20
-360.8014005605164
 30
0.0
 11
415.0000000000036
 21
-294.0988917929935
 31
0.0
  0
LINE
  5
2B53
330
2E11
100
AcDbEntity
  8
0
 62
     0
100
AcDbLine
 10
-414.9999999999963
 20
-689.3367786021664
 30
0.0
 11
274.9246577194353
 21
-360.8014005605164
 31
0.0
  0
LINE
  5
2B54
330
2E11
100
AcDbEntity
  8
0
 62
     0
100
AcDbLine
 10
253.9247479824407
 20
-360.8014005605182
 30
0.0
 11
415.0000000000036
 21
-284.0989400488597
 31
0.0
  0
LINE
  5
2B55
330
2E11
100
AcDbEntity
  8
0
 62
     0
100
AcDbLine
 10
-414.9999999999963
 20
-679.3368268580325
 30
0.0
 11
253.9247479824407
 21
-360.8014005605182
 31
0.0
  0
LINE
  5
2B56
330
2E11
100
AcDbEntity
  8
0
 62
     0
100
AcDbLine
 10
232.9248382454498
 20
-360.8014005605182
 30
0.0
 11
415.0
 21
-274.0989883047259
 31
0.0
  0
LINE
  5
2B57
330
2E11
100
AcDbEntity
  8
0
 62
     0
100
AcDbLine
 10
-414.9999999999963
 20
-669.3368751138986
 30
0.0
 11
232.9248382454498
 21
-360.8014005605182
 31
0.0
  0
LINE
  5
2B58
330
2E11
100
AcDbEntity
  8
0
 62
     0
100
AcDbLine
 10
211.9249285084661
 20
-360.8014005605164
 30
0.0
 11
415.0000000000036
 21
-264.0990365605903
 31
0.0
  0
LINE
  5
2B59
330
2E11
100
AcDbEntity
  8
0
 62
     0
100
AcDbLine
 10
-414.9999999999927
 20
-659.3369233697631
 30
0.0
 11
211.9249285084661
 21
-360.8014005605164
 31
0.0
  0
LINE
  5
2B5A
330
2E11
100
AcDbEntity
  8
0
 62
     0
100
AcDbLine
 10
199.2000000000007
 20
-356.8609353868414
 30
0.0
 11
415.0000000000036
 21
-254.0990848164565
 31
0.0
  0
LINE
  5
2B5B
330
2E11
100
AcDbEntity
  8
0
 62
     0
100
AcDbLine
 10
-414.9999999999963
 20
-649.3369716256275
 30
0.0
 11
199.2000000000007
 21
-356.8609353868414
 31
0.0
  0
LINE
  5
2B5C
330
2E11
100
AcDbEntity
  8
0
 62
     0
100
AcDbLine
 10
199.2000000000043
 20
-346.8609836427059
 30
0.0
 11
415.0000000000036
 21
-244.0991330723209
 31
0.0
  0
LINE
  5
2B5D
330
2E11
100
AcDbEntity
  8
0
 62
     0
100
AcDbLine
 10
-414.9999999999963
 20
-639.3370198814936
 30
0.0
 11
199.2000000000043
 21
-346.8609836427059
 31
0.0
  0
LINE
  5
2B5E
330
2E11
100
AcDbEntity
  8
0
 62
     0
100
AcDbLine
 10
199.2000000000043
 20
-336.861031898572
 30
0.0
 11
415.0000000000036
 21
-234.0991813281871
 31
0.0
  0
LINE
  5
2B5F
330
2E11
100
AcDbEntity
  8
0
 62
     0
100
AcDbLine
 10
-414.9999999999927
 20
-629.3370681373581
 30
0.0
 11
199.2000000000043
 21
-336.861031898572
 31
0.0
  0
LINE
  5
2B60
330
2E11
100
AcDbEntity
  8
0
 62
     0
100
AcDbLine
 10
199.2000000000043
 20
-326.8610801544364
 30
0.0
 11
415.0
 21
-224.0992295840533
 31
0.0
  0
LINE
  5
2B61
330
2E11
100
AcDbEntity
  8
0
 62
     0
100
AcDbLine
 10
-414.9999999999963
 20
-619.3371163932241
 30
0.0
 11
199.2000000000043
 21
-326.8610801544364
 31
0.0
  0
LINE
  5
2B62
330
2E11
100
AcDbEntity
  8
0
 62
     0
100
AcDbLine
 10
199.2000000000043
 20
-316.8611284103026
 30
0.0
 11
415.0000000000036
 21
-214.0992778399195
 31
0.0
  0
LINE
  5
2B63
330
2E11
100
AcDbEntity
  8
0
 62
     0
100
AcDbLine
 10
-414.9999999999927
 20
-609.3371646490903
 30
0.0
 11
199.2000000000043
 21
-316.8611284103026
 31
0.0
  0
LINE
  5
2B64
330
2E11
100
AcDbEntity
  8
0
 62
     0
100
AcDbLine
 10
199.2000000000043
 20
-306.8611766661688
 30
0.0
 11
415.0000000000036
 21
-204.0993260957857
 31
0.0
  0
LINE
  5
2B65
330
2E11
100
AcDbEntity
  8
0
 62
     0
100
AcDbLine
 10
-414.9999999999963
 20
-599.3372129049567
 30
0.0
 11
199.2000000000043
 21
-306.8611766661688
 31
0.0
  0
LINE
  5
2B66
330
2E11
100
AcDbEntity
  8
0
 62
     0
100
AcDbLine
 10
199.2000000000043
 20
-296.8612249220332
 30
0.0
 11
415.0000000000036
 21
-194.09937435165
 31
0.0
  0
LINE
  5
2B67
330
2E11
100
AcDbEntity
  8
0
 62
     0
100
AcDbLine
 10
-414.9999999999963
 20
-589.3372611608207
 30
0.0
 11
199.2000000000043
 21
-296.8612249220332
 31
0.0
  0
LINE
  5
2B68
330
2E11
100
AcDbEntity
  8
0
 62
     0
100
AcDbLine
 10
199.2000000000043
 20
-286.8612731778994
 30
0.0
 11
415.0000000000036
 21
-184.0994226075163
 31
0.0
  0
LINE
  5
2B69
330
2E11
100
AcDbEntity
  8
0
 62
     0
100
AcDbLine
 10
-414.9999999999963
 20
-579.3373094166873
 30
0.0
 11
199.2000000000043
 21
-286.8612731778994
 31
0.0
  0
LINE
  5
2B6A
330
2E11
100
AcDbEntity
  8
0
 62
     0
100
AcDbLine
 10
199.2000000000043
 20
-276.8613214337656
 30
0.0
 11
415.0
 21
-174.0994708633824
 31
0.0
  0
LINE
  5
2B6B
330
2E11
100
AcDbEntity
  8
0
 62
     0
100
AcDbLine
 10
-414.9999999999963
 20
-569.3373576725535
 30
0.0
 11
199.2000000000043
 21
-276.8613214337656
 31
0.0
  0
LINE
  5
2B6C
330
2E11
100
AcDbEntity
  8
0
 62
     0
100
AcDbLine
 10
199.2000000000043
 20
-266.8613696896318
 30
0.0
 11
408.9060457596859
 21
-167.0014005605171
 31
0.0
  0
LINE
  5
2B6D
330
2E11
100
AcDbEntity
  8
0
 62
     0
100
AcDbLine
 10
-414.9999999999963
 20
-559.3374059284179
 30
0.0
 11
199.2000000000043
 21
-266.8613696896318
 31
0.0
  0
LINE
  5
2B6E
330
2E11
100
AcDbEntity
  8
0
 62
     0
100
AcDbLine
 10
199.2000000000043
 20
-256.8614179454962
 30
0.0
 11
387.9061360226952
 21
-167.0014005605171
 31
0.0
  0
LINE
  5
2B6F
330
2E11
100
AcDbEntity
  8
0
 62
     0
100
AcDbLine
 10
-414.9999999999963
 20
-549.3374541842841
 30
0.0
 11
199.2000000000043
 21
-256.8614179454962
 31
0.0
  0
LINE
  5
2B70
330
2E11
100
AcDbEntity
  8
0
 62
     0
100
AcDbLine
 10
199.2000000000007
 20
-246.8614662013624
 30
0.0
 11
366.9062262857042
 21
-167.0014005605171
 31
0.0
  0
LINE
  5
2B71
330
2E11
100
AcDbEntity
  8
0
 62
     0
100
AcDbLine
 10
-414.9999999999963
 20
-539.3375024401485
 30
0.0
 11
199.2000000000007
 21
-246.8614662013624
 31
0.0
  0
LINE
  5
2B72
330
2E11
100
AcDbEntity
  8
0
 62
     0
100
AcDbLine
 10
199.2000000000043
 20
-236.8615144572268
 30
0.0
 11
345.9063165487131
 21
-167.0014005605171
 31
0.0
  0
LINE
  5
2B73
330
2E11
100
AcDbEntity
  8
0
 62
     0
100
AcDbLine
 10
-414.9999999999963
 20
-529.3375506960145
 30
0.0
 11
199.2000000000043
 21
-236.8615144572268
 31
0.0
  0
LINE
  5
2B74
330
2E11
100
AcDbEntity
  8
0
 62
     0
100
AcDbLine
 10
199.200000000008
 20
-226.8615627130912
 30
0.0
 11
324.9064068117295
 21
-167.0014005605135
 31
0.0
  0
LINE
  5
2B75
330
2E11
100
AcDbEntity
  8
0
 62
     0
100
AcDbLine
 10
-414.9999999999963
 20
-519.3375989518807
 30
0.0
 11
199.200000000008
 21
-226.8615627130912
 31
0.0
  0
LINE
  5
2B76
330
2E11
100
AcDbEntity
  8
0
 62
     0
100
AcDbLine
 10
199.2000000000043
 20
-216.8616109689573
 30
0.0
 11
303.9064970747349
 21
-167.0014005605135
 31
0.0
  0
LINE
  5
2B77
330
2E11
100
AcDbEntity
  8
0
 62
     0
100
AcDbLine
 10
-415.0
 20
-509.337647207747
 30
0.0
 11
199.2000000000043
 21
-216.8616109689573
 31
0.0
  0
LINE
  5
2B78
330
2E11
100
AcDbEntity
  8
0
 62
     0
100
AcDbLine
 10
199.2000000000043
 20
-206.8616592248236
 30
0.0
 11
282.9065873377476
 21
-167.0014005605153
 31
0.0
  0
LINE
  5
2B79
330
2E11
100
AcDbEntity
  8
0
 62
     0
100
AcDbLine
 10
-415.0
 20
-499.3376954636132
 30
0.0
 11
199.2000000000043
 21
-206.8616592248236
 31
0.0
  0
LINE
  5
2B7A
330
2E11
100
AcDbEntity
  8
0
 62
     0
100
AcDbLine
 10
199.2000000000043
 20
-196.8617074806898
 30
0.0
 11
261.9066776007567
 21
-167.0014005605153
 31
0.0
  0
LINE
  5
2B7B
330
2E11
100
AcDbEntity
  8
0
 62
     0
100
AcDbLine
 10
-415.0
 20
-489.3377437194792
 30
0.0
 11
199.2000000000043
 21
-196.8617074806898
 31
0.0
  0
LINE
  5
2B7C
330
2E11
100
AcDbEntity
  8
0
 62
     0
100
AcDbLine
 10
199.2000000000043
 20
-186.8617557365541
 30
0.0
 11
240.9067678637621
 21
-167.0014005605153
 31
0.0
  0
LINE
  5
2B7D
330
2E11
100
AcDbEntity
  8
0
 62
     0
100
AcDbLine
 10
-415.0
 20
-479.3377919753438
 30
0.0
 11
199.2000000000043
 21
-186.8617557365541
 31
0.0
  0
LINE
  5
2B7E
330
2E11
100
AcDbEntity
  8
0
 62
     0
100
AcDbLine
 10
199.2000000000043
 20
-176.8618039924204
 30
0.0
 11
219.9068581267711
 21
-167.0014005605153
 31
0.0
  0
LINE
  5
2B7F
330
2E11
100
AcDbEntity
  8
0
 62
     0
100
AcDbLine
 10
-414.9999999999963
 20
-469.3378402312082
 30
0.0
 11
199.2000000000043
 21
-176.8618039924204
 31
0.0
  0
LINE
  5
2B80
330
2E11
100
AcDbEntity
  8
0
 62
     0
100
AcDbLine
 10
-414.9999999999963
 20
-459.3378884870761
 30
0.0
 11
198.906949097578
 21
-167.0014002234711
 31
0.0
  0
LINE
  5
2B81
330
2E11
100
AcDbEntity
  8
0
 62
     0
100
AcDbLine
 10
-415.0
 20
-449.3379367429406
 30
0.0
 11
177.9070394293702
 21
-167.0014001907166
 31
0.0
  0
LINE
  5
2B82
330
2E11
100
AcDbEntity
  8
0
 62
     0
100
AcDbLine
 10
-415.0
 20
-439.3379849988068
 30
0.0
 11
156.9071297611663
 21
-167.0014001579602
 31
0.0
  0
LINE
  5
2B83
330
2E11
100
AcDbEntity
  8
0
 62
     0
100
AcDbLine
 10
-414.9999999999963
 20
-429.3380332546711
 30
0.0
 11
135.9072200929586
 21
-167.0014001252075
 31
0.0
  0
LINE
  5
2B84
330
2E11
100
AcDbEntity
  8
0
 62
     0
100
AcDbLine
 10
-415.0
 20
-419.3380815105371
 30
0.0
 11
114.9073104247545
 21
-167.0014000924511
 31
0.0
  0
LINE
  5
2B85
330
2E11
100
AcDbEntity
  8
0
 62
     0
100
AcDbLine
 10
-414.9999999999963
 20
-409.3381297664036
 30
0.0
 11
93.90740075654687
 21
-167.0014000596966
 31
0.0
  0
LINE
  5
2B86
330
2E11
100
AcDbEntity
  8
0
 62
     0
100
AcDbLine
 10
-415.0000000000036
 20
-399.33817802227
 30
0.0
 11
72.9074910883355
 21
-167.0014000269457
 31
0.0
  0
LINE
  5
2B87
330
2E11
100
AcDbEntity
  8
0
 62
     0
100
AcDbLine
 10
-415.0
 20
-389.3382262781361
 30
0.0
 11
51.90758142012782
 21
-167.0013999941911
 31
0.0
  0
LINE
  5
2B88
330
2E11
100
AcDbEntity
  8
0
 62
     0
100
AcDbLine
 10
-414.9999999999963
 20
-379.3382745340005
 30
0.0
 11
30.90767175192377
 21
-167.0013999614366
 31
0.0
  0
LINE
  5
2B89
330
2E11
100
AcDbEntity
  8
0
 62
     0
100
AcDbLine
 10
-415.0
 20
-369.3383227898666
 30
0.0
 11
9.907762083716079
 21
-167.0013999286802
 31
0.0
  0
LINE
  5
2B8A
330
2E11
100
AcDbEntity
  8
0
 62
     0
100
AcDbLine
 10
-414.9999999999963
 20
-359.3383710457329
 30
0.0
 11
-11.09214758448797
 21
-167.0013998959293
 31
0.0
  0
LINE
  5
2B8B
330
2E11
100
AcDbEntity
  8
0
 62
     0
100
AcDbLine
 10
-415.0
 20
-349.3384193015991
 30
0.0
 11
-32.09205725269203
 21
-167.001399863173
 31
0.0
  0
LINE
  5
2B8C
330
2E11
100
AcDbEntity
  8
0
 62
     0
100
AcDbLine
 10
-415.0
 20
-339.3384675574635
 30
0.0
 11
-53.09196692089972
 21
-167.0013998304184
 31
0.0
  0
LINE
  5
2B8D
330
2E11
100
AcDbEntity
  8
0
 62
     0
100
AcDbLine
 10
-415.0
 20
-329.3385158133296
 30
0.0
 11
-74.09187658910379
 21
-167.0013997976639
 31
0.0
  0
LINE
  5
2B8E
330
2E11
100
AcDbEntity
  8
0
 62
     0
100
AcDbLine
 10
-414.9999999999963
 20
-319.338564069194
 30
0.0
 11
-95.09178625731511
 21
-167.0013997649112
 31
0.0
  0
LINE
  5
2B8F
330
2E11
100
AcDbEntity
  8
0
 62
     0
100
AcDbLine
 10
-415.0
 20
-309.3386123250602
 30
0.0
 11
-116.0916959255228
 21
-167.0013997321566
 31
0.0
  0
LINE
  5
2B90
330
2E11
100
AcDbEntity
  8
0
 62
     0
100
AcDbLine
 10
-415.0
 20
-299.3386605809246
 30
0.0
 11
-137.0916055937268
 21
-167.0013996994003
 31
0.0
  0
LINE
  5
2B91
330
2E11
100
AcDbEntity
  8
0
 62
     0
100
AcDbLine
 10
-414.9999999999963
 20
-289.3387088367908
 30
0.0
 11
-158.0915152619344
 21
-167.0013996666494
 31
0.0
  0
LINE
  5
2B92
330
2E11
100
AcDbEntity
  8
0
 62
     0
100
AcDbLine
 10
-415.0
 20
-279.338757092657
 30
0.0
 11
-179.0914249301422
 21
-167.001399633893
 31
0.0
  0
LINE
  5
2B93
330
2E11
100
AcDbEntity
  8
0
 62
     0
100
AcDbLine
 10
-414.9999999999963
 20
-269.3388053485214
 30
0.0
 11
-200.0913345983463
 21
-167.0013996011384
 31
0.0
  0
LINE
  5
2B94
330
2E11
100
AcDbEntity
  8
0
 62
     0
100
AcDbLine
 10
-414.9999999999963
 20
-259.3388536043875
 30
0.0
 11
-221.0912442665503
 21
-167.0013995683821
 31
0.0
  0
LINE
  5
2B95
330
2E11
100
AcDbEntity
  8
0
 62
     0
100
AcDbLine
 10
-415.0
 20
-249.3389018602538
 30
0.0
 11
-242.0911539347617
 21
-167.0013995356312
 31
0.0
  0
LINE
  5
2B96
330
2E11
100
AcDbEntity
  8
0
 62
     0
100
AcDbLine
 10
-415.0
 20
-239.33895011612
 30
0.0
 11
-263.0910636029657
 21
-167.0013995028766
 31
0.0
  0
LINE
  5
2B97
330
2E11
100
AcDbEntity
  8
0
 62
     0
100
AcDbLine
 10
-415.0
 20
-229.3389983719844
 30
0.0
 11
-284.0909732711771
 21
-167.0013994701221
 31
0.0
  0
LINE
  5
2B98
330
2E11
100
AcDbEntity
  8
0
 62
     0
100
AcDbLine
 10
-415.0
 20
-219.3390466278505
 30
0.0
 11
-305.0908829393847
 21
-167.0013994373675
 31
0.0
  0
LINE
  5
2B99
330
2E11
100
AcDbEntity
  8
0
 62
     0
100
AcDbLine
 10
-415.0
 20
-209.339094883715
 30
0.0
 11
-326.0907926075888
 21
-167.001399404613
 31
0.0
  0
LINE
  5
2B9A
330
2E11
100
AcDbEntity
  8
0
 62
     0
100
AcDbLine
 10
-415.0
 20
-199.3391431395794
 30
0.0
 11
-347.0907022757965
 21
-167.0013993718585
 31
0.0
  0
LINE
  5
2B9B
330
2E11
100
AcDbEntity
  8
0
 62
     0
100
AcDbLine
 10
-415.0
 20
-189.3391913954474
 30
0.0
 11
-368.0906119440006
 21
-167.0013993391039
 31
0.0
  0
LINE
  5
2B9C
330
2E11
100
AcDbEntity
  8
0
 62
     0
100
AcDbLine
 10
-414.9999999999963
 20
-179.3392396513118
 30
0.0
 11
-389.0905216122082
 21
-167.0013993063512
 31
0.0
  0
LINE
  5
2B9D
330
2E11
100
AcDbEntity
  8
0
 62
     0
100
AcDbLine
 10
-415.0
 20
-169.339287907178
 30
0.0
 11
-410.0904312804159
 21
-167.0013992735948
 31
0.0
  0
ENDBLK
  5
2B9E
330
2E11
100
AcDbEntity
  8
0
100
AcDbBlockEnd
  0
ENDSEC
  0
SECTION
  2
ENTITIES
  0
TEXT
  5
953
330
2D30
100
AcDbEntity
  8
OUTLINE
  6
Continuous
 62
     3
100
AcDbText
 10
-418.231467
 20
13.715189
 30
0.0
 40
64.0
  1
 
 41
0.9
100
AcDbText
  0
TEXT
  5
954
330
2D30
100
AcDbEntity
  8
OUTLINE
  6
Continuous
 62
     3
100
AcDbText
 10
-418.231467
 20
13.715189
 30
0.0
 40
64.0
  1
 
 41
0.9
100
AcDbText
  0
TEXT
  5
955
330
2D30
100
AcDbEntity
  8
OUTLINE
  6
Continuous
 62
     3
100
AcDbText
 10
1341.41903
 20
-706.0588199999997
 30
0.0
 40
64.0
  1
 
 41
0.9
100
AcDbText
  0
TEXT
  5
956
330
2D30
100
AcDbEntity
  8
OUTLINE
  6
Continuous
 62
     3
100
AcDbText
 10
1341.41903
 20
-706.0588199999997
 30
0.0
 40
64.0
  1
 
 41
0.9
100
AcDbText
  0
TEXT
  5
957
330
2D30
100
AcDbEntity
  8
OUTLINE
  6
Continuous
 62
     3
100
AcDbText
 10
1341.41903
 20
-706.0588199999997
 30
0.0
 40
64.0
  1
 
 41
0.9
100
AcDbText
  0
TEXT
  5
958
330
2D30
100
AcDbEntity
  8
OUTLINE
  6
Continuous
 62
     3
100
AcDbText
 10
1341.41903
 20
-706.0588199999997
 30
0.0
 40
64.0
  1
 
 41
0.9
100
AcDbText
  0
LINE
  5
2C1C
330
2D30
100
AcDbEntity
  8
NOTE
100
AcDbLine
 10
450.0
 20
-12.5
 30
0.0
 11
450.0
 21
12.5
 31
0.0
  0
LINE
  5
2C1D
330
2D30
100
AcDbEntity
  8
NOTE
100
AcDbLine
 10
-450.0
 20
-12.5
 30
0.0
 11
-450.0
 21
12.5
 31
0.0
  0
LINE
  5
2C1E
330
2D30
100
AcDbEntity
  8
DETAIL
100
AcDbLine
 10
-480.5072970172767
 20
-129.4369102784976
 30
0.0
 11
-493.5
 21
-129.0013999999999
 31
0.0
  0
LINE
  5
2C1F
330
2D30
100
AcDbEntity
  8
DETAIL
100
AcDbLine
 10
480.5478299455785
 20
-147.0014006627516
 30
0.0
 11
-480.5747937932538
 21
-147.0013991636579
 31
0.0
  0
LINE
  5
2C20
330
2D30
100
AcDbEntity
  8
DETAIL
100
AcDbLine
 10
-465.0
 20
0.0
 30
0.0
 11
-475.0
 21
0.0
 31
0.0
  0
LINE
  5
2C21
330
2D30
100
AcDbEntity
  8
DETAIL
100
AcDbLine
 10
-475.0
 20
-10.0
 30
0.0
 11
-475.0
 21
0.0
 31
0.0
  0
LINE
  5
2C22
330
2D30
100
AcDbEntity
  8
DETAIL
100
AcDbLine
 10
-465.0
 20
0.0
 30
0.0
 11
465.0000000000036
 21
0.0
 31
0.0
  0
LINE
  5
2C23
330
2D30
100
AcDbEntity
  8
DETAIL
100
AcDbLine
 10
-475.0
 20
-10.0
 30
0.0
 11
475.0
 21
-10.0
 31
0.0
  0
LINE
  5
2C24
330
2D30
100
AcDbEntity
  8
DETAIL
100
AcDbLine
 10
-436.0
 20
-129.0013999999999
 30
0.0
 11
-436.0
 21
-9.999999999999088
 31
0.0
  0
CIRCLE
  5
2C25
330
2D30
100
AcDbEntity
  8
ARRANGE
100
AcDbCircle
 10
0.0
 20
0.0
 30
0.0
 40
40.0
  0
LINE
  5
2C26
330
2D30
100
AcDbEntity
  8
ARRANGE
100
AcDbLine
 10
-19.19638649990156
 20
19.19638649990429
 30
0.0
 11
19.19638649990156
 21
-19.19638649990338
 31
0.0
  0
LINE
  5
2C27
330
2D30
100
AcDbEntity
  8
ARRANGE
100
AcDbLine
 10
19.19638649990156
 20
19.1963864999052
 30
0.0
 11
-19.19638649990156
 21
-19.19638649990156
 31
0.0
  0
LINE
  5
2C28
330
2D30
100
AcDbEntity
  8
BASIS
100
AcDbLine
 10
0.0
 20
25.00000000000182
 30
0.0
 11
0.0
 21
-1070.99999986266
 31
0.0
  0
LINE
  5
2C29
330
2D30
100
AcDbEntity
  8
DETAIL
100
AcDbLine
 10
-435.0
 20
-897.0014
 30
0.0
 11
-510.1610562738422
 21
-1023.999999862659
 31
0.0
  0
LINE
  5
2C2A
330
2D30
100
AcDbEntity
  8
DETAIL
100
AcDbLine
 10
-493.5
 20
-129.0013999999999
 30
0.0
 11
-523.5
 21
-1023.999999862659
 31
0.0
  0
LINE
  5
2C2B
330
2D30
100
AcDbEntity
  8
DETAIL
100
AcDbLine
 10
-480.5072970172767
 20
-129.4369102784976
 30
0.0
 11
-510.1610562738422
 21
-1023.999999862659
 31
0.0
  0
LINE
  5
2C2C
330
2D30
100
AcDbEntity
  8
DETAIL
100
AcDbLine
 10
-510.1610562738422
 20
-1038.99999986266
 30
0.0
 11
510.161056273846
 21
-1038.99999986266
 31
0.0
  0
LINE
  5
2C2D
330
2D30
100
AcDbEntity
  8
DETAIL
100
AcDbLine
 10
-510.1610562738422
 20
-1023.999999862659
 30
0.0
 11
-510.1610562738422
 21
-1045.99999986266
 31
0.0
  0
LINE
  5
2C2E
330
2D30
100
AcDbEntity
  8
DETAIL
100
AcDbLine
 10
-510.1610562738422
 20
-1023.999999862659
 30
0.0
 11
-523.5
 21
-1023.999999862659
 31
0.0
  0
LINE
  5
2C2F
330
2D30
100
AcDbEntity
  8
DETAIL
100
AcDbLine
 10
-493.5
 20
-129.0013999999999
 30
0.0
 11
493.5
 21
-129.0013999999999
 31
0.0
  0
LINE
  5
2C30
330
2D30
100
AcDbEntity
  8
DETAIL
100
AcDbLine
 10
-435.0
 20
-147.0013993127286
 30
0.0
 11
-435.0
 21
-897.0014
 31
0.0
  0
LINE
  5
2C31
330
2D30
100
AcDbEntity
  8
DETAIL
100
AcDbLine
 10
-434.9999999999964
 20
-897.0014
 30
0.0
 11
435.0000000000036
 21
-897.0014
 31
0.0
  0
LINE
  5
2C32
330
2D30
100
AcDbEntity
  8
DETAIL
100
AcDbLine
 10
-510.1610562738422
 20
-1023.999999862659
 30
0.0
 11
510.161056273846
 21
-1024.106137243588
 31
0.0
  0
LINE
  5
2C33
330
2D30
100
AcDbEntity
  8
DETAIL
100
AcDbLine
 10
480.5072970172763
 20
-129.4369102784976
 30
0.0
 11
493.5000000000036
 21
-129.0013999999999
 31
0.0
  0
LINE
  5
2C34
330
2D30
100
AcDbEntity
  8
DETAIL
100
AcDbLine
 10
465.0
 20
0.0
 30
0.0
 11
475.0
 21
0.0
 31
0.0
  0
LINE
  5
2C35
330
2D30
100
AcDbEntity
  8
DETAIL
100
AcDbLine
 10
475.0
 20
-10.0
 30
0.0
 11
475.0
 21
0.0
 31
0.0
  0
LINE
  5
2C36
330
2D30
100
AcDbEntity
  8
DETAIL
100
AcDbLine
 10
436.0
 20
-129.0013999999999
 30
0.0
 11
436.0
 21
-9.999999999999088
 31
0.0
  0
LINE
  5
2C37
330
2D30
100
AcDbEntity
  8
DETAIL
100
AcDbLine
 10
435.0000000000036
 20
-897.0014
 30
0.0
 11
510.161056273846
 21
-1023.999999862659
 31
0.0
  0
LINE
  5
2C38
330
2D30
100
AcDbEntity
  8
DETAIL
100
AcDbLine
 10
493.5000000000036
 20
-129.0013999999999
 30
0.0
 11
523.5000000000036
 21
-1023.999999862659
 31
0.0
  0
LINE
  5
2C39
330
2D30
100
AcDbEntity
  8
DETAIL
100
AcDbLine
 10
480.5072970172763
 20
-129.4369102784976
 30
0.0
 11
510.161056273846
 21
-1023.999999862659
 31
0.0
  0
LINE
  5
2C3A
330
2D30
100
AcDbEntity
  8
DETAIL
100
AcDbLine
 10
510.161056273846
 20
-1023.999999862659
 30
0.0
 11
510.161056273846
 21
-1045.99999986266
 31
0.0
  0
LINE
  5
2C3B
330
2D30
100
AcDbEntity
  8
DETAIL
100
AcDbLine
 10
510.161056273846
 20
-1023.999999862659
 30
0.0
 11
523.5000000000036
 21
-1023.999999862659
 31
0.0
  0
LINE
  5
2C3C
330
2D30
100
AcDbEntity
  8
DETAIL
100
AcDbLine
 10
435.0000000000036
 20
-147.0013993127286
 30
0.0
 11
435.0000000000036
 21
-897.0014
 31
0.0
  0
LINE
  5
2C3D
330
2D30
100
AcDbEntity
  8
DETAIL
100
AcDbLine
 10
-415.0
 20
-167.0013992659369
 30
0.0
 11
415.0000000000036
 21
-167.0014005605142
 31
0.0
  0
LINE
  5
2C3E
330
2D30
100
AcDbEntity
  8
DETAIL
100
AcDbLine
 10
-415.0
 20
-877.0013999999999
 30
0.0
 11
415.0000000000036
 21
-877.0013999999999
 31
0.0
  0
LINE
  5
2C3F
330
2D30
100
AcDbEntity
  8
DETAIL
100
AcDbLine
 10
-415.0
 20
-167.0013992659369
 30
0.0
 11
-415.0
 21
-877.0013999999999
 31
0.0
  0
LINE
  5
2C40
330
2D30
100
AcDbEntity
  8
DETAIL
100
AcDbLine
 10
415.0000000000036
 20
-167.0014005605142
 30
0.0
 11
415.0000000000036
 21
-877.0013999999999
 31
0.0
  0
LINE
  5
2C41
330
2D30
100
AcDbEntity
  8
DETAIL
100
AcDbLine
 10
-510.1610562738422
 20
-1045.99999986266
 30
0.0
 11
510.161056273846
 21
-1045.99999986266
 31
0.0
  0
INSERT
  5
2C42
330
2D30
100
AcDbEntity
  8
0
100
AcDbBlockReference
  2
*U74
 10
0.0
 20
0.000000000001819
 30
0.0
1001
ACAD
1000
DSTYLE
1002
{
1070
    41
1040
12.0
1070
    42
1040
20.0
1070
    43
1040
200.0
1070
    44
1040
20.0
1070
    73
1070
     0
1070
    74
1070
     0
1070
    77
1070
     1
1070
    78
1070
     8
1070
   140
1040
64.0
1070
   147
1040
50.0
1070
   172
1070
     1
1070
   174
1070
     1
1070
   275
1070
     0
1070
   284
1070
     0
1070
   285
1070
     0
1070
   286
1070
     0
1070
   341
1005
0
1070
   342
1005
0
1002
}
  0
INSERT
  5
2C43
330
2D30
100
AcDbEntity
  8
0
100
AcDbBlockReference
  2
*U75
 10
0.0
 20
0.000000000001819
 30
0.0
  0
LINE
  5
2C44
330
2D30
100
AcDbEntity
  8
NOTE
100
AcDbLine
 39
50.0
 10
437.5
 20
0.0
 30
0.0
 11
462.5
 21
0.0
 31
0.0
  0
LINE
  5
2C45
330
2D30
100
AcDbEntity
  8
NOTE
100
AcDbLine
 39
50.0
 10
-462.5
 20
0.0
 30
0.0
 11
-437.5
 21
0.0
 31
0.0
  0
LINE
  5
2C46
330
2D30
100
AcDbEntity
  8
OUTLINE
100
AcDbLine
 10
-480.5072970172767
 20
-129.4369102784976
 30
0.0
 11
-493.5
 21
-129.0013999999999
 31
0.0
  0
LINE
  5
2C47
330
2D30
100
AcDbEntity
  8
OUTLINE
100
AcDbLine
 10
480.5478299455785
 20
-147.0014006627516
 30
0.0
 11
-480.5747937932538
 21
-147.0013991636579
 31
0.0
  0
LINE
  5
2C48
330
2D30
100
AcDbEntity
  8
OUTLINE
100
AcDbLine
 10
-475.0
 20
-10.0
 30
0.0
 11
475.0
 21
-10.0
 31
0.0
  0
LINE
  5
2C49
330
2D30
100
AcDbEntity
  8
OUTLINE
100
AcDbLine
 10
-436.0
 20
-129.0013999999999
 30
0.0
 11
-436.0
 21
-9.999999999999088
 31
0.0
  0
LINE
  5
2C4A
330
2D30
100
AcDbEntity
  8
OUTLINE
100
AcDbLine
 10
-435.0
 20
-897.0014
 30
0.0
 11
-510.1610562738422
 21
-1023.999999862659
 31
0.0
  0
LINE
  5
2C4B
330
2D30
100
AcDbEntity
  8
OUTLINE
100
AcDbLine
 10
-493.5
 20
-129.0013999999999
 30
0.0
 11
-523.5
 21
-1023.999999862659
 31
0.0
  0
LINE
  5
2C4C
330
2D30
100
AcDbEntity
  8
OUTLINE
100
AcDbLine
 10
-480.5072970172767
 20
-129.4369102784976
 30
0.0
 11
-510.1610562738422
 21
-1023.999999862659
 31
0.0
  0
LINE
  5
2C4D
330
2D30
100
AcDbEntity
  8
OUTLINE
100
AcDbLine
 10
-510.1610562738422
 20
-1038.99999986266
 30
0.0
 11
510.161056273846
 21
-1038.99999986266
 31
0.0
  0
LINE
  5
2C4E
330
2D30
100
AcDbEntity
  8
OUTLINE
100
AcDbLine
 10
-510.1610562738422
 20
-1023.999999862659
 30
0.0
 11
-510.1610562738422
 21
-1045.99999986266
 31
0.0
  0
LINE
  5
2C4F
330
2D30
100
AcDbEntity
  8
OUTLINE
100
AcDbLine
 10
-510.1610562738422
 20
-1023.999999862659
 30
0.0
 11
-523.5
 21
-1023.999999862659
 31
0.0
  0
LINE
  5
2C50
330
2D30
100
AcDbEntity
  8
OUTLINE
100
AcDbLine
 10
-493.5
 20
-129.0013999999999
 30
0.0
 11
493.5
 21
-129.0013999999999
 31
0.0
  0
LINE
  5
2C51
330
2D30
100
AcDbEntity
  8
OUTLINE
100
AcDbLine
 10
-435.0
 20
-147.0013993127286
 30
0.0
 11
-435.0
 21
-897.0014
 31
0.0
  0
LINE
  5
2C52
330
2D30
100
AcDbEntity
  8
OUTLINE
100
AcDbLine
 10
-434.9999999999964
 20
-897.0014
 30
0.0
 11
435.0000000000036
 21
-897.0014
 31
0.0
  0
LINE
  5
2C53
330
2D30
100
AcDbEntity
  8
OUTLINE
100
AcDbLine
 10
-510.1610562738422
 20
-1023.999999862659
 30
0.0
 11
510.161056273846
 21
-1024.106137243588
 31
0.0
  0
LINE
  5
2C54
330
2D30
100
AcDbEntity
  8
OUTLINE
100
AcDbLine
 10
480.5072970172763
 20
-129.4369102784976
 30
0.0
 11
493.5000000000036
 21
-129.0013999999999
 31
0.0
  0
LINE
  5
2C55
330
2D30
100
AcDbEntity
  8
OUTLINE
100
AcDbLine
 10
436.0
 20
-129.0013999999999
 30
0.0
 11
436.0
 21
-9.999999999999088
 31
0.0
  0
LINE
  5
2C56
330
2D30
100
AcDbEntity
  8
OUTLINE
100
AcDbLine
 10
435.0000000000036
 20
-897.0014
 30
0.0
 11
510.161056273846
 21
-1023.999999862659
 31
0.0
  0
LINE
  5
2C57
330
2D30
100
AcDbEntity
  8
OUTLINE
100
AcDbLine
 10
493.5000000000036
 20
-129.0013999999999
 30
0.0
 11
523.5000000000036
 21
-1023.999999862659
 31
0.0
  0
LINE
  5
2C58
330
2D30
100
AcDbEntity
  8
OUTLINE
100
AcDbLine
 10
480.5072970172763
 20
-129.4369102784976
 30
0.0
 11
510.161056273846
 21
-1023.999999862659
 31
0.0
  0
LINE
  5
2C59
330
2D30
100
AcDbEntity
  8
OUTLINE
100
AcDbLine
 10
510.161056273846
 20
-1023.999999862659
 30
0.0
 11
510.161056273846
 21
-1045.99999986266
 31
0.0
  0
LINE
  5
2C5A
330
2D30
100
AcDbEntity
  8
OUTLINE
100
AcDbLine
 10
510.161056273846
 20
-1023.999999862659
 30
0.0
 11
523.5000000000036
 21
-1023.999999862659
 31
0.0
  0
LINE
  5
2C5B
330
2D30
100
AcDbEntity
  8
OUTLINE
100
AcDbLine
 10
435.0000000000036
 20
-147.0013993127286
 30
0.0
 11
435.0000000000036
 21
-897.0014
 31
0.0
  0
LINE
  5
2C5C
330
2D30
100
AcDbEntity
  8
OUTLINE
100
AcDbLine
 10
-510.1610562738422
 20
-1045.99999986266
 30
0.0
 11
510.161056273846
 21
-1045.99999986266
 31
0.0
  0
LINE
  5
2C5D
330
2D30
100
AcDbEntity
  8
OUTLINE
100
AcDbLine
 10
-465.0
 20
0.0
 30
0.0
 11
-475.0
 21
0.0
 31
0.0
  0
LINE
  5
2C5E
330
2D30
100
AcDbEntity
  8
OUTLINE
100
AcDbLine
 10
-475.0
 20
-10.0
 30
0.0
 11
-475.0
 21
0.0
 31
0.0
  0
LINE
  5
2C5F
330
2D30
100
AcDbEntity
  8
OUTLINE
100
AcDbLine
 10
-465.0
 20
0.0
 30
0.0
 11
465.0000000000036
 21
0.0
 31
0.0
  0
LINE
  5
2C60
330
2D30
100
AcDbEntity
  8
OUTLINE
100
AcDbLine
 10
465.0
 20
0.0
 30
0.0
 11
475.0
 21
0.0
 31
0.0
  0
LINE
  5
2C61
330
2D30
100
AcDbEntity
  8
OUTLINE
100
AcDbLine
 10
475.0
 20
-10.0
 30
0.0
 11
475.0
 21
0.0
 31
0.0
  0
LINE
  5
2C62
330
2D30
100
AcDbEntity
  8
DETAIL
100
AcDbLine
 10
-415.0
 20
-167.0013992659369
 30
0.0
 11
415.0000000000036
 21
-167.0014005605142
 31
0.0
  0
LINE
  5
2C63
330
2D30
100
AcDbEntity
  8
DETAIL
100
AcDbLine
 10
-415.0
 20
-877.0013999999999
 30
0.0
 11
415.0000000000036
 21
-877.0013999999999
 31
0.0
  0
LINE
  5
2C64
330
2D30
100
AcDbEntity
  8
DETAIL
100
AcDbLine
 10
-415.0
 20
-167.0013992659369
 30
0.0
 11
-415.0
 21
-877.0013999999999
 31
0.0
  0
LINE
  5
2C65
330
2D30
100
AcDbEntity
  8
DETAIL
100
AcDbLine
 10
415.0000000000036
 20
-167.0014005605142
 30
0.0
 11
415.0000000000036
 21
-877.0013999999999
 31
0.0
  0
INSERT
  5
2C66
330
2D30
100
AcDbEntity
  8
DETAIL
  6
Continuous
100
AcDbBlockReference
  2
*X76
 10
0.0
 20
0.000000000001819
 30
0.0
1001
ACADANNOTATIVE
1000
AnnotativeData
1002
{
1070
     1
1070
     0
1002
}
1001
ACAD
1000
HATCH
1002
{
1070
    19
1000
LINE
1040
72.22849999999998
1040
5.838766301980094
1000
R14_HATCH_DATA
1000
6E35
1011
1.0
1021
0.000000000001819
1031
0.0
1011
0.0
1021
1.000000000001818
1031
0.0
1011
0.0
1021
0.000000000001819
1031
1.0
1040
0.0
1010
0.0
1020
0.0
1030
1.0
1000
LINE
1070
     0
1070
     0
1071
        2
1071
        7
1070
     0
1070
     1
1071
        6
1040
415.0000000000036
1040
-360.8014005605155
1040
199.2000000000043
1040
-360.8014005605155
1040
199.2000000000007
1040
-167.0014002239268
1040
-415.0
1040
-167.0013992659396
1040
-415.0
1040
-877.0014000000017
1040
415.0000000000036
1040
-877.0014000000017
1071
        0
1071
       23
1070
     0
1070
     1
1071
        4
1040
415.0000000000036
1040
-360.8014005605173
1040
415.0000000000036
1040
-167.0014005605161
1040
199.2000000000043
1040
-167.0014005605161
1040
199.2000000000043
1040
-360.8014005605155
1071
        0
1070
     0
1070
     1
1040
5.838766301980094
1040
72.22849999999998
1070
     0
1070
     1
1040
5.838766301980094
1040
19808.9609816671
1040
4951.135007181292
1040
3.881680532789153
1040
8.151533417570705
1070
     0
1040
3.614068936004954
1071
        2
1040
-67.10547197758207
1040
-413.6439546848041
1040
0.0
1040
313.3751664771008
1040
-283.7027191629204
1040
0.0
1002
}
  0
INSERT
  5
2C67
330
2D30
100
AcDbEntity
  8
DETAIL
  6
Continuous
100
AcDbBlockReference
  2
*X77
 10
0.0
 20
0.000000000001819
 30
0.0
1001
ACADANNOTATIVE
1000
AnnotativeData
1002
{
1070
     1
1070
     0
1002
}
1001
ACAD
1000
HATCH
1002
{
1070
    19
1000
LINE
1040
72.22849999999998
1040
0.4444190051994898
1000
R14_HATCH_DATA
1000
6E3B
1011
1.0
1021
0.000000000001819
1031
0.0
1011
0.0
1021
1.000000000001818
1031
0.0
1011
0.0
1021
0.000000000001819
1031
1.0
1040
0.0
1010
0.0
1020
0.0
1030
1.0
1000
LINE
1070
     0
1070
     0
1071
        2
1071
        7
1070
     0
1070
     1
1071
        6
1040
199.2000000000043
1040
-167.0014002239268
1040
-415.0
1040
-167.0013992659387
1040
-414.9999999999963
1040
-877.0014000000017
1040
415.0000000000036
1040
-877.001400000001
1040
415.0000000000036
1040
-360.8014005605164
1040
199.2000000000043
1040
-360.8014005605155
1071
        0
1071
       23
1070
     0
1070
     1
1071
        4
1040
415.0000000000036
1040
-167.0014005605161
1040
199.2000000000043
1040
-167.0014005605161
1040
199.2000000000043
1040
-360.8014005605155
1040
415.0000000000036
1040
-360.8014005605155
1071
        0
1070
     0
1070
     1
1040
0.4444190051994898
1040
72.22849999999998
1070
     0
1070
     1
1040
0.4444190051994898
1040
19808.9609816671
1040
4951.135007181292
1040
-3.881680532789157
1040
8.151533417570702
1070
     0
1040
3.285085478594332
1071
        2
1040
-39.6081842475287
1040
-360.5339118532129
1040
0.0
1040
338.3675573120745
1040
-283.3252301327338
1040
0.0
1002
}
  0
LINE
  5
2C68
330
2D30
100
AcDbEntity
  8
DETAIL
100
AcDbLine
 10
-415.0
 20
-167.0013992659369
 30
0.0
 11
415.0000000000036
 21
-167.0014005605142
 31
0.0
  0
LINE
  5
2C69
330
2D30
100
AcDbEntity
  8
DETAIL
100
AcDbLine
 10
-415.0
 20
-877.0013999999999
 30
0.0
 11
415.0000000000036
 21
-877.0013999999999
 31
0.0
  0
LINE
  5
2C6A
330
2D30
100
AcDbEntity
  8
DETAIL
100
AcDbLine
 10
-415.0
 20
-167.0013992659369
 30
0.0
 11
-415.0
 21
-877.0013999999999
 31
0.0
  0
LINE
  5
2C6B
330
2D30
100
AcDbEntity
  8
DETAIL
100
AcDbLine
 10
415.0000000000036
 20
-167.0014005605142
 30
0.0
 11
415.0000000000036
 21
-877.0013999999999
 31
0.0
  0
TEXT
  5
2C6C
330
2D30
100
AcDbEntity
  8
ETC
100
AcDbText
 10
827.2016327547389
 20
288.4143619662836
 30
0.0
 40
64.0
  1
QW-80SDBC_6
 41
0.9
100
AcDbText
  0
TEXT
  5
2C6D
330
2D30
100
AcDbEntity
  8
ETC
100
AcDbText
 10
819.5216327547393
 20
181.7476952996169
 30
0.0
 40
64.0
  1
システム部材
 41
0.9
100
AcDbText
  0
TEXT
  5
2C6E
330
2D30
100
AcDbEntity
  8
ETC
100
AcDbText
 10
827.2016327547389
 20
75.08102863295015
 30
0.0
 40
64.0
  1
QW-80SDBC
 41
0.9
100
AcDbText
  0
LINE
  5
2C6F
330
2D30
100
AcDbEntity
  8
SIZE
100
AcDbLine
 10
-475.0
 20
20.0
 30
0.0
 11
-475.0
 21
338.0818371338519
 31
0.0
  0
LINE
  5
2C70
330
2D30
100
AcDbEntity
  8
SIZE
100
AcDbLine
 10
475.0
 20
20.0
 30
0.0
 11
475.0
 21
338.0818371338519
 31
0.0
  0
LINE
  5
2C71
330
2D30
100
AcDbEntity
  8
SIZE
100
AcDbLine
 10
-463.0
 20
318.0818371338519
 30
0.0
 11
463.0
 21
318.0818371338519
 31
0.0
  0
INSERT
  5
2C72
330
2D30
100
AcDbEntity
  8
SIZE
100
AcDbBlockReference
  2
_DOTBLANK
 10
-475.0
 20
318.0818371338519
 30
0.0
 41
12.0
 42
12.0
 43
12.0
 50
180.0
  0
INSERT
  5
2C73
330
2D30
100
AcDbEntity
  8
SIZE
100
AcDbBlockReference
  2
_DOTBLANK
 10
475.0
 20
318.0818371338519
 30
0.0
 41
12.0
 42
12.0
 43
12.0
  0
LINE
  5
2C74
330
2D30
100
AcDbEntity
  8
SIZE
100
AcDbLine
 10
-450.0
 20
32.5
 30
0.0
 11
-450.0
 21
197.3516363077915
 31
0.0
  0
LINE
  5
2C75
330
2D30
100
AcDbEntity
  8
SIZE
100
AcDbLine
 10
450.0
 20
32.5
 30
0.0
 11
450.0
 21
197.3516363077915
 31
0.0
  0
LINE
  5
2C76
330
2D30
100
AcDbEntity
  8
SIZE
100
AcDbLine
 10
-438.0
 20
177.3516363077915
 30
0.0
 11
438.0
 21
177.3516363077915
 31
0.0
  0
INSERT
  5
2C77
330
2D30
100
AcDbEntity
  8
SIZE
100
AcDbBlockReference
  2
_DOTBLANK
 10
-450.0
 20
177.3516363077915
 30
0.0
 41
12.0
 42
12.0
 43
12.0
 50
180.0
  0
INSERT
  5
2C78
330
2D30
100
AcDbEntity
  8
SIZE
100
AcDbBlockReference
  2
_DOTBLANK
 10
450.0
 20
177.3516363077915
 30
0.0
 41
12.0
 42
12.0
 43
12.0
  0
LINE
  5
2C79
330
2D30
100
AcDbEntity
  8
SIZE
100
AcDbLine
 10
495.0
 20
0.0
 30
0.0
 11
637.3530739139559
 21
0.0
 31
0.0
  0
LINE
  5
2C7A
330
2D30
100
AcDbEntity
  8
SIZE
100
AcDbLine
 10
495.0
 20
-10.0
 30
0.0
 11
637.3530739139559
 21
-10.0
 31
0.0
  0
LINE
  5
2C7B
330
2D30
100
AcDbEntity
  8
SIZE
100
AcDbLine
 10
617.3530739139569
 20
12.0
 30
0.0
 11
617.3530739139569
 21
24.0
 31
0.0
  0
LINE
  5
2C7C
330
2D30
100
AcDbEntity
  8
SIZE
100
AcDbLine
 10
617.3530739139569
 20
-22.0
 30
0.0
 11
617.3530739139569
 21
-136.2857142857142
 31
0.0
  0
INSERT
  5
2C7D
330
2D30
100
AcDbEntity
  8
SIZE
100
AcDbBlockReference
  2
_DOTBLANK
 10
617.3530739139569
 20
0.0
 30
0.0
 41
12.0
 42
12.0
 43
12.0
 50
270.0
  0
INSERT
  5
2C7E
330
2D30
100
AcDbEntity
  8
SIZE
100
AcDbBlockReference
  2
_DOTBLANK
 10
617.3530739139569
 20
-10.0
 30
0.0
 41
12.0
 42
12.0
 43
12.0
 50
90.0
  0
LINE
  5
2C7F
330
2D30
100
AcDbEntity
  8
SIZE
100
AcDbLine
 10
-523.5
 20
-1043.998599862659
 30
0.0
 11
-523.5
 21
-1235.919125479282
 31
0.0
  0
LINE
  5
2C80
330
2D30
100
AcDbEntity
  8
SIZE
100
AcDbLine
 10
523.5000000000036
 20
-1043.998599862659
 30
0.0
 11
523.5000000000036
 21
-1235.919125479282
 31
0.0
  0
LINE
  5
2C81
330
2D30
100
AcDbEntity
  8
SIZE
100
AcDbLine
 10
-511.5
 20
-1215.919125479282
 30
0.0
 11
511.5000000000036
 21
-1215.919125479282
 31
0.0
  0
INSERT
  5
2C82
330
2D30
100
AcDbEntity
  8
SIZE
100
AcDbBlockReference
  2
_DOTBLANK
 10
-523.5
 20
-1215.919125479282
 30
0.0
 41
12.0
 42
12.0
 43
12.0
 50
180.0
  0
INSERT
  5
2C83
330
2D30
100
AcDbEntity
  8
SIZE
100
AcDbBlockReference
  2
_DOTBLANK
 10
523.5000000000036
 20
-1215.919125479282
 30
0.0
 41
12.0
 42
12.0
 43
12.0
  0
LINE
  5
2C84
330
2D30
100
AcDbEntity
  8
SIZE
100
AcDbLine
 10
-530.1610562738424
 20
-1023.998599862659
 30
0.0
 11
-711.3011223985235
 21
-1023.998599862659
 31
0.0
  0
LINE
  5
2C85
330
2D30
100
AcDbEntity
  8
SIZE
100
AcDbLine
 10
-530.1610562738424
 20
-1045.998599862659
 30
0.0
 11
-711.3011223985235
 21
-1045.998599862659
 31
0.0
  0
LINE
  5
2C86
330
2D30
100
AcDbEntity
  8
SIZE
100
AcDbLine
 10
-691.3011223985236
 20
-1011.998599862659
 30
0.0
 11
-691.3011223985236
 21
-999.9985998626595
 31
0.0
  0
LINE
  5
2C87
330
2D30
100
AcDbEntity
  8
SIZE
100
AcDbLine
 10
-691.3011223985236
 20
-1057.998599862658
 30
0.0
 11
-691.3011223985236
 21
-1183.255742719802
 31
0.0
  0
INSERT
  5
2C88
330
2D30
100
AcDbEntity
  8
SIZE
100
AcDbBlockReference
  2
_DOTBLANK
 10
-691.3011223985236
 20
-1023.998599862659
 30
0.0
 41
12.0
 42
12.0
 43
12.0
 50
270.0
  0
INSERT
  5
2C89
330
2D30
100
AcDbEntity
  8
SIZE
100
AcDbBlockReference
  2
_DOTBLANK
 10
-691.3011223985236
 20
-1045.998599862659
 30
0.0
 41
12.0
 42
12.0
 43
12.0
 50
90.0
  0
LINE
  5
2C8A
330
2D30
100
AcDbEntity
  8
SIZE
100
AcDbLine
 10
-495.0
 20
0.0
 30
0.0
 11
-711.3011223985232
 21
0.0
 31
0.0
  0
LINE
  5
2C8B
330
2D30
100
AcDbEntity
  8
SIZE
100
AcDbLine
 10
-543.5
 20
-1023.999999862659
 30
0.0
 11
-711.3011223985235
 21
-1023.999999862659
 31
0.0
  0
LINE
  5
2C8C
330
2D30
100
AcDbEntity
  8
SIZE
100
AcDbLine
 10
-691.3011223985233
 20
-12.0
 30
0.0
 11
-691.3011223985236
 21
-1011.99999986266
 31
0.0
  0
INSERT
  5
2C8D
330
2D30
100
AcDbEntity
  8
SIZE
100
AcDbBlockReference
  2
_DOTBLANK
 10
-691.3011223985233
 20
0.0
 30
0.0
 41
12.0
 42
12.0
 43
12.0
 50
90.0
  0
INSERT
  5
2C8E
330
2D30
100
AcDbEntity
  8
SIZE
100
AcDbBlockReference
  2
_DOTBLANK
 10
-691.3011223985236
 20
-1023.999999862659
 30
0.0
 41
12.0
 42
12.0
 43
12.0
 50
270.0
  0
TEXT
  5
2C8F
330
2D30
100
AcDbEntity
  8
SIZE
100
AcDbText
 10
-95.99999999999637
 20
-1205.919125479282
 30
0.0
 40
64.0
  1
1047
 41
0.9
100
AcDbText
  0
TEXT
  5
2C90
330
2D30
100
AcDbEntity
  8
SIZE
100
AcDbText
 10
-701.3011223985232
 20
-1173.255742719802
 30
0.0
 40
64.0
  1
22
 50
90.0
 41
0.9
100
AcDbText
  0
TEXT
  5
2C91
330
2D30
100
AcDbEntity
  8
SIZE
100
AcDbText
 10
-701.3011223985232
 20
-609.3714285027584
 30
0.0
 40
64.0
  1
1024
 50
90.0
 41
0.9
100
AcDbText
  0
TEXT
  5
2C92
330
2D30
100
AcDbEntity
  8
SIZE
100
AcDbText
 10
-74.0571428571393
 20
187.3516363077915
 30
0.0
 40
64.0
  1
900
 41
0.9
100
AcDbText
  0
TEXT
  5
2C93
330
2D30
100
AcDbEntity
  8
SIZE
100
AcDbText
 10
-74.0571428571393
 20
328.0818371338519
 30
0.0
 40
64.0
  1
950
 41
0.9
100
AcDbText
  0
TEXT
  5
2C94
330
2D30
100
AcDbEntity
  8
SIZE
100
AcDbText
 10
607.353073913956
 20
-126.2857142857142
 30
0.0
 40
64.0
  1
10
 50
90.0
 41
0.9
100
AcDbText
  0
ENDSEC
  0
SECTION
  2
OBJECTS
  0
DICTIONARY
  5
2CC8
330
0
100
AcDbDictionary
281
     1
  3
ACAD_2007HEADERVARS_RT
350
2F1E
  3
ACAD_COLOR
350
2D26
  3
ACAD_GROUP
350
2CC9
  3
ACAD_LAYOUT
350
2D25
  3
ACAD_MATERIAL
350
2CCC
  3
ACAD_MLEADERSTYLE
350
2D29
  3
ACAD_MLINESTYLE
350
2D22
  3
ACAD_PLOTSETTINGS
350
2D24
  3
ACAD_PLOTSTYLENAME
350
2CCA
  3
ACAD_SCALELIST
350
2CF6
  3
ACAD_TABLESTYLE
350
2D27
  3
ACAD_VISUALSTYLE
350
2CE5
  3
ACDB_RECOMPOSE_DATA
350
2F1C
  3
AcDbVariableDictionary
350
2F13
  3
AcmDictionary
350
2EC6
  3
AMG
350
2E13
  3
DWGPROPS
350
2F1D
  3
MAPISURF_MODULE
350
2E93
  0
DICTIONARY
  5
2EEE
330
2D18
100
AcDbDictionary
280
     1
281
     1
  3
ADSK_XREC_LAYER_RECONCILED
360
2EEF
  0
DICTIONARY
  5
2EF0
330
2D47
100
AcDbDictionary
280
     1
281
     1
  3
ADSK_XREC_LAYER_RECONCILED
360
2EF1
  0
DICTIONARY
  5
2EF2
330
2D48
100
AcDbDictionary
280
     1
281
     1
  3
ADSK_XREC_LAYER_RECONCILED
360
2EF3
  0
DICTIONARY
  5
2EF4
330
2D49
100
AcDbDictionary
280
     1
281
     1
  3
ADSK_XREC_LAYER_RECONCILED
360
2EF5
  0
DICTIONARY
  5
2EF6
330
2D4A
100
AcDbDictionary
280
     1
281
     1
  3
ADSK_XREC_LAYER_RECONCILED
360
2EF7
  0
DICTIONARY
  5
2EF8
330
2D4B
100
AcDbDictionary
280
     1
281
     1
  3
ADSK_XREC_LAYER_RECONCILED
360
2EF9
  0
DICTIONARY
  5
2EFA
330
2D4D
100
AcDbDictionary
280
     1
281
     1
  3
ADSK_XREC_LAYER_RECONCILED
360
2EFB
  0
DICTIONARY
  5
2EFC
330
2D4E
100
AcDbDictionary
280
     1
281
     1
  3
ADSK_XREC_LAYER_RECONCILED
360
2EFD
  0
DICTIONARY
  5
2EFE
330
2D4F
100
AcDbDictionary
280
     1
281
     1
  3
ADSK_XREC_LAYER_RECONCILED
360
2EFF
  0
DICTIONARY
  5
2F00
330
2D50
100
AcDbDictionary
280
     1
281
     1
  3
ADSK_XREC_LAYER_RECONCILED
360
2F01
  0
DICTIONARY
  5
2F02
330
2D51
100
AcDbDictionary
280
     1
281
     1
  3
ADSK_XREC_LAYER_RECONCILED
360
2F03
  0
DICTIONARY
  5
2F04
330
2D30
100
AcDbDictionary
280
     1
281
     1
  3
ACAD_INDEX
360
2F05
  0
DICTIONARY
  5
2F1E
102
{ACAD_REACTORS
330
2CC8
102
}
330
2CC8
100
AcDbDictionary
281
     1
  3
DIMARCSYM
350
2F1F
  3
DIMLTEX1
350
2F21
  3
DIMLTEX2
350
2F22
  3
DIMLTYPE
350
2F20
  0
DICTIONARY
  5
2D26
102
{ACAD_REACTORS
330
2CC8
102
}
330
2CC8
100
AcDbDictionary
281
     1
  0
DICTIONARY
  5
2CC9
102
{ACAD_REACTORS
330
2CC8
102
}
330
2CC8
100
AcDbDictionary
281
     1
  0
DICTIONARY
  5
2D25
102
{ACAD_REACTORS
330
2CC8
102
}
330
2CC8
100
AcDbDictionary
281
     1
  3
Model
350
2D33
  3
レイアウト1
350
2D2F
  0
DICTIONARY
  5
2CCC
102
{ACAD_REACTORS
330
2CC8
102
}
330
2CC8
100
AcDbDictionary
281
     1
  3
ByBlock
350
2CD5
  3
ByLayer
350
2CCD
  3
Global
350
2CDD
  0
DICTIONARY
  5
2D29
102
{ACAD_REACTORS
330
2CC8
102
}
330
2CC8
100
AcDbDictionary
281
     1
  3
Standard
350
2D2A
  0
DICTIONARY
  5
2D22
102
{ACAD_REACTORS
330
2CC8
102
}
330
2CC8
100
AcDbDictionary
281
     1
  3
Standard
350
2D23
  0
DICTIONARY
  5
2D24
102
{ACAD_REACTORS
330
2CC8
102
}
330
2CC8
100
AcDbDictionary
281
     1
  0
ACDBDICTIONARYWDFLT
  5
2CCA
102
{ACAD_REACTORS
330
2CC8
102
}
330
2CC8
100
AcDbDictionary
281
     1
  3
Normal
350
2CCB
100
AcDbDictionaryWithDefault
340
2CCB
  0
DICTIONARY
  5
2CF6
102
{ACAD_REACTORS
330
2CC8
102
}
330
2CC8
100
AcDbDictionary
281
     1
  3
A0
350
2CF7
  3
A1
350
2CF8
  3
A2
350
2CF9
  3
A3
350
2CFA
  3
A4
350
2CFB
  3
A5
350
2CFC
  3
A6
350
2CFD
  3
A7
350
2CFE
  3
A8
350
2CFF
  3
A9
350
2D00
  3
B0
350
2D01
  3
B1
350
2D02
  3
B2
350
2D03
  3
B3
350
2D04
  3
B4
350
2D05
  3
B5
350
2D06
  3
B6
350
2D07
  3
B7
350
2D08
  3
B8
350
2D09
  3
B9
350
2D0A
  3
C0
350
2D0B
  3
C1
350
2D0C
  3
C2
350
2D0D
  3
C3
350
2D0E
  3
C4
350
2D0F
  3
C5
350
2D10
  3
C6
350
2D11
  3
C7
350
2D12
  3
C8
350
2D13
  3
C9
350
2D14
  3
D0
350
2D15
  3
D1
350
2D16
  3
D2
350
2D17
  0
DICTIONARY
  5
2D27
102
{ACAD_REACTORS
330
2CC8
102
}
330
2CC8
100
AcDbDictionary
281
     1
  3
Standard
350
2D28
  0
DICTIONARY
  5
2CE5
102
{ACAD_REACTORS
330
2CC8
102
}
330
2CC8
100
AcDbDictionary
281
     1
  3
2dWireframe
350
2CEB
  3
3D Hidden
350
2CED
  3
3dWireframe
350
2CEC
  3
Basic
350
2CEA
  3
Brighten
350
2CF1
  3
ColorChange
350
2CF5
  3
Conceptual
350
2CEE
  3
Dim
350
2CF0
  3
Facepattern
350
2CF4
  3
Flat
350
2CE6
  3
FlatWithEdges
350
2CE7
  3
Gouraud
350
2CE8
  3
GouraudWithEdges
350
2CE9
  3
Linepattern
350
2CF3
  3
Realistic
350
2CEF
  3
Thicken
350
2CF2
  0
XRECORD
  5
2F1C
102
{ACAD_REACTORS
330
2CC8
102
}
330
2CC8
100
AcDbXrecord
280
     1
 90
        1
330
2D28
  0
DICTIONARY
  5
2F13
102
{ACAD_REACTORS
330
2CC8
102
}
330
2CC8
100
AcDbDictionary
281
     1
  3
CANNOSCALE
350
2F16
  3
CMLEADERSTYLE
350
2F15
  3
CTABLESTYLE
350
2F14
  3
DIMASSOC
350
2F19
  3
INDEXCTL
350
2F18
  3
SORTENTS
350
2F17
  0
DICTIONARY
  5
2EC6
102
{ACAD_REACTORS
330
2CC8
102
}
330
2CC8
100
AcDbDictionary
281
     1
  3
AcmStdDictionary
350
2ED4
  0
DICTIONARY
  5
2E13
102
{ACAD_REACTORS
330
2CC8
102
}
330
2CC8
100
AcDbDictionary
281
     1
  3
AcMgSettings
350
2E14
  0
XRECORD
  5
2F1D
102
{ACAD_REACTORS
330
2CC8
102
}
330
2CC8
100
AcDbXrecord
280
     1
  1
DWGPROPS COOKIE
  2

  3

  4

  6

  7

  8
A090053
  9

300
AmdtFileType=84
301
=
302
=
303
=
304
=
305
=
306
=
307
=
308
=
309
=
 40
1.041067337962962
 41
2452321.396199653
 42
2456212.856270162
  1

 90
        1
  0
XRECORD
  5
2EEF
102
{ACAD_REACTORS
330
2EEE
102
}
330
2EEE
100
AcDbXrecord
280
     1
290
     1
  0
XRECORD
  5
2EF1
102
{ACAD_REACTORS
330
2EF0
102
}
330
2EF0
100
AcDbXrecord
280
     1
290
     1
  0
XRECORD
  5
2EF3
102
{ACAD_REACTORS
330
2EF2
102
}
330
2EF2
100
AcDbXrecord
280
     1
290
     1
  0
XRECORD
  5
2EF5
102
{ACAD_REACTORS
330
2EF4
102
}
330
2EF4
100
AcDbXrecord
280
     1
290
     1
  0
XRECORD
  5
2EF7
102
{ACAD_REACTORS
330
2EF6
102
}
330
2EF6
100
AcDbXrecord
280
     1
290
     1
  0
XRECORD
  5
2EF9
102
{ACAD_REACTORS
330
2EF8
102
}
330
2EF8
100
AcDbXrecord
280
     1
290
     1
  0
XRECORD
  5
2EFB
102
{ACAD_REACTORS
330
2EFA
102
}
330
2EFA
100
AcDbXrecord
280
     1
290
     1
  0
XRECORD
  5
2EFD
102
{ACAD_REACTORS
330
2EFC
102
}
330
2EFC
100
AcDbXrecord
280
     1
290
     1
  0
XRECORD
  5
2EFF
102
{ACAD_REACTORS
330
2EFE
102
}
330
2EFE
100
AcDbXrecord
280
     1
290
     1
  0
XRECORD
  5
2F01
102
{ACAD_REACTORS
330
2F00
102
}
330
2F00
100
AcDbXrecord
280
     1
290
     1
  0
XRECORD
  5
2F03
102
{ACAD_REACTORS
330
2F02
102
}
330
2F02
100
AcDbXrecord
280
     1
290
     1
  0
DICTIONARY
  5
2F05
102
{ACAD_REACTORS
330
2F04
102
}
330
2F04
100
AcDbDictionary
281
     1
  3
*A1
350
2F06
  0
XRECORD
  5
2F1F
102
{ACAD_REACTORS
330
2F1E
102
}
330
2F1E
100
AcDbXrecord
280
     1
 70
     1
  0
XRECORD
  5
2F21
102
{ACAD_REACTORS
330
2F1E
102
}
330
2F1E
100
AcDbXrecord
280
     1
340
2D1E
  0
XRECORD
  5
2F22
102
{ACAD_REACTORS
330
2F1E
102
}
330
2F1E
100
AcDbXrecord
280
     1
340
2D1E
  0
XRECORD
  5
2F20
102
{ACAD_REACTORS
330
2F1E
102
}
330
2F1E
100
AcDbXrecord
280
     1
340
2D1E
  0
LAYOUT
  5
2D33
102
{ACAD_XDICTIONARY
360
2F29
102
}
102
{ACAD_REACTORS
330
2D25
102
}
330
2D25
100
AcDbPlotSettings
  1

  2
自動 EPSON LP-9600S (W2450527 上)
  4

  6

 40
0.0
 41
0.0
 42
0.0
 43
0.0
 44
0.0
 45
0.0
 46
0.0
 47
0.0
 48
0.0
 49
0.0
140
0.0
141
0.0
142
1.0
143
1.0
 70
  1712
 72
     0
 73
     0
 74
     0
  7

 75
     0
147
1.0
148
0.0
149
0.0
100
AcDbLayout
  1
Model
 70
     1
 71
     0
 10
0.0
 20
0.0
 11
12.0
 21
9.0
 12
0.0
 22
0.0
 32
0.0
 14
0.0
 24
0.0
 34
0.0
 15
0.0
 25
0.0
 35
0.0
146
0.0
 13
0.0
 23
0.0
 33
0.0
 16
1.0
 26
0.0
 36
0.0
 17
0.0
 27
1.0
 37
0.0
 76
     0
330
2D30
331
2D34
  0
LAYOUT
  5
2D2F
102
{ACAD_XDICTIONARY
360
2F27
102
}
102
{ACAD_REACTORS
330
2D25
102
}
330
2D25
100
AcDbPlotSettings
  1

  2
自動 EPSON LP-9600S (W2450527 上)
  4

  6

 40
0.0
 41
0.0
 42
0.0
 43
0.0
 44
0.0
 45
0.0
 46
0.0
 47
0.0
 48
0.0
 49
0.0
140
0.0
141
0.0
142
1.0
143
1.0
 70
   688
 72
     0
 73
     0
 74
     5
  7

 75
    16
147
1.0
148
0.0
149
0.0
100
AcDbLayout
  1
レイアウト1
 70
     1
 71
     1
 10
0.0
 20
0.0
 11
12.0
 21
9.0
 12
0.0
 22
0.0
 32
0.0
 14
1.000000000000000E+20
 24
1.000000000000000E+20
 34
1.000000000000000E+20
 15
-1.000000000000000E+20
 25
-1.000000000000000E+20
 35
-1.000000000000000E+20
146
0.0
 13
0.0
 23
0.0
 33
0.0
 16
1.0
 26
0.0
 36
0.0
 17
0.0
 27
1.0
 37
0.0
 76
     0
330
2D2C
  0
MATERIAL
  5
2CD5
102
{ACAD_XDICTIONARY
360
2CD6
102
}
102
{ACAD_REACTORS
330
2CCC
102
}
330
2CCC
100
AcDbMaterial
  1
ByBlock
 72
     0
 43
0.0208333333333333
 43
0.0
 43
0.0
 43
0.0
 43
0.0
 43
0.0208333333333333
 43
0.0
 43
0.0
 43
0.0
 43
0.0
 43
1.0
 43
0.0
 43
0.0
 43
0.0
 43
0.0
 43
1.0
 77
     0
 47
0.0208333333333333
 47
0.0
 47
0.0
 47
0.0
 47
0.0
 47
0.0208333333333333
 47
0.0
 47
0.0
 47
0.0
 47
0.0
 47
1.0
 47
0.0
 47
0.0
 47
0.0
 47
0.0
 47
1.0
171
     0
 49
0.0208333333333333
 49
0.0
 49
0.0
 49
0.0
 49
0.0
 49
0.0208333333333333
 49
0.0
 49
0.0
 49
0.0
 49
0.0
 49
1.0
 49
0.0
 49
0.0
 49
0.0
 49
0.0
 49
1.0
175
     0
142
0.0208333333333333
142
0.0
142
0.0
142
0.0
142
0.0
142
0.0208333333333333
142
0.0
142
0.0
142
0.0
142
0.0
142
1.0
142
0.0
142
0.0
142
0.0
142
0.0
142
1.0
179
     0
144
0.0208333333333333
144
0.0
144
0.0
144
0.0
144
0.0
144
0.0208333333333333
144
0.0
144
0.0
144
0.0
144
0.0
144
1.0
144
0.0
144
0.0
144
0.0
144
0.0
144
1.0
147
0.0208333333333333
147
0.0
147
0.0
147
0.0
147
0.0
147
0.0208333333333333
147
0.0
147
0.0
147
0.0
147
0.0
147
1.0
147
0.0
147
0.0
147
0.0
147
0.0
147
1.0
  0
MATERIAL
  5
2CCD
102
{ACAD_XDICTIONARY
360
2CCE
102
}
102
{ACAD_REACTORS
330
2CCC
102
}
330
2CCC
100
AcDbMaterial
  1
ByLayer
 72
     0
 43
0.0208333333333333
 43
0.0
 43
0.0
 43
0.0
 43
0.0
 43
0.0208333333333333
 43
0.0
 43
0.0
 43
0.0
 43
0.0
 43
1.0
 43
0.0
 43
0.0
 43
0.0
 43
0.0
 43
1.0
 77
     0
 47
0.0208333333333333
 47
0.0
 47
0.0
 47
0.0
 47
0.0
 47
0.0208333333333333
 47
0.0
 47
0.0
 47
0.0
 47
0.0
 47
1.0
 47
0.0
 47
0.0
 47
0.0
 47
0.0
 47
1.0
171
     0
 49
0.0208333333333333
 49
0.0
 49
0.0
 49
0.0
 49
0.0
 49
0.0208333333333333
 49
0.0
 49
0.0
 49
0.0
 49
0.0
 49
1.0
 49
0.0
 49
0.0
 49
0.0
 49
0.0
 49
1.0
175
     0
142
0.0208333333333333
142
0.0
142
0.0
142
0.0
142
0.0
142
0.0208333333333333
142
0.0
142
0.0
142
0.0
142
0.0
142
1.0
142
0.0
142
0.0
142
0.0
142
0.0
142
1.0
179
     0
144
0.0208333333333333
144
0.0
144
0.0
144
0.0
144
0.0
144
0.0208333333333333
144
0.0
144
0.0
144
0.0
144
0.0
144
1.0
144
0.0
144
0.0
144
0.0
144
0.0
144
1.0
147
0.0208333333333333
147
0.0
147
0.0
147
0.0
147
0.0
147
0.0208333333333333
147
0.0
147
0.0
147
0.0
147
0.0
147
1.0
147
0.0
147
0.0
147
0.0
147
0.0
147
1.0
  0
MATERIAL
  5
2CDD
102
{ACAD_XDICTIONARY
360
2CDE
102
}
102
{ACAD_REACTORS
330
2CCC
102
}
330
2CCC
100
AcDbMaterial
  1
Global
 72
     0
 43
0.0208333333333333
 43
0.0
 43
0.0
 43
0.0
 43
0.0
 43
0.0208333333333333
 43
0.0
 43
0.0
 43
0.0
 43
0.0
 43
1.0
 43
0.0
 43
0.0
 43
0.0
 43
0.0
 43
1.0
 77
     0
 47
0.0208333333333333
 47
0.0
 47
0.0
 47
0.0
 47
0.0
 47
0.0208333333333333
 47
0.0
 47
0.0
 47
0.0
 47
0.0
 47
1.0
 47
0.0
 47
0.0
 47
0.0
 47
0.0
 47
1.0
171
     0
 49
0.0208333333333333
 49
0.0
 49
0.0
 49
0.0
 49
0.0
 49
0.0208333333333333
 49
0.0
 49
0.0
 49
0.0
 49
0.0
 49
1.0
 49
0.0
 49
0.0
 49
0.0
 49
0.0
 49
1.0
175
     0
142
0.0208333333333333
142
0.0
142
0.0
142
0.0
142
0.0
142
0.0208333333333333
142
0.0
142
0.0
142
0.0
142
0.0
142
1.0
142
0.0
142
0.0
142
0.0
142
0.0
142
1.0
179
     0
144
0.0208333333333333
144
0.0
144
0.0
144
0.0
144
0.0
144
0.0208333333333333
144
0.0
144
0.0
144
0.0
144
0.0
144
1.0
144
0.0
144
0.0
144
0.0
144
0.0
144
1.0
147
0.0208333333333333
147
0.0
147
0.0
147
0.0
147
0.0
147
0.0208333333333333
147
0.0
147
0.0
147
0.0
147
0.0
147
1.0
147
0.0
147
0.0
147
0.0
147
0.0
147
1.0
  0
MLEADERSTYLE
  5
2D2A
102
{ACAD_REACTORS
330
2D29
102
}
330
2D29
100
AcDbMLeaderStyle
170
     2
171
     1
172
     0
 90
        2
 40
0.0
 41
0.0
173
     1
 91
-1056964608
340
2D1E
 92
       -2
290
     1
 42
0.09
291
     1
 43
0.36
  3
Standard
 44
0.18
300

342
2D19
174
     1
178
     6
175
     1
176
     0
 93
-1056964608
 45
0.18
292
     0
297
     0
 46
0.18
 94
-1056964608
 47
1.0
 49
1.0
140
1.0
293
     1
141
0.0
294
     1
177
     0
142
1.0
295
     0
296
     0
143
0.125
1001
ACAD_MLEADERVER
1070
     2
  0
MLINESTYLE
  5
2D23
102
{ACAD_REACTORS
330
2D22
102
}
330
2D22
100
AcDbMlineStyle
  2
STANDARD
 70
     0
  3

 62
   256
 51
90.0
 52
90.0
 71
     2
 49
0.5
 62
   256
  6
BYLAYER
 49
-0.5
 62
   256
  6
BYLAYER
  0
ACDBPLACEHOLDER
  5
2CCB
102
{ACAD_REACTORS
330
2CCA
102
}
330
2CCA
  0
SCALE
  5
2CF7
102
{ACAD_REACTORS
330
2CF6
102
}
330
2CF6
100
AcDbScale
 70
     0
300
1:1
140
1.0
141
1.0
290
     1
  0
SCALE
  5
2CF8
102
{ACAD_REACTORS
330
2CF6
102
}
330
2CF6
100
AcDbScale
 70
     0
300
1:2
140
1.0
141
2.0
290
     0
  0
SCALE
  5
2CF9
102
{ACAD_REACTORS
330
2CF6
102
}
330
2CF6
100
AcDbScale
 70
     0
300
1:4
140
1.0
141
4.0
290
     0
  0
SCALE
  5
2CFA
102
{ACAD_REACTORS
330
2CF6
102
}
330
2CF6
100
AcDbScale
 70
     0
300
1:5
140
1.0
141
5.0
290
     0
  0
SCALE
  5
2CFB
102
{ACAD_REACTORS
330
2CF6
102
}
330
2CF6
100
AcDbScale
 70
     0
300
1:8
140
1.0
141
8.0
290
     0
  0
SCALE
  5
2CFC
102
{ACAD_REACTORS
330
2CF6
102
}
330
2CF6
100
AcDbScale
 70
     0
300
1:10
140
1.0
141
10.0
290
     0
  0
SCALE
  5
2CFD
102
{ACAD_REACTORS
330
2CF6
102
}
330
2CF6
100
AcDbScale
 70
     0
300
1:16
140
1.0
141
16.0
290
     0
  0
SCALE
  5
2CFE
102
{ACAD_REACTORS
330
2CF6
102
}
330
2CF6
100
AcDbScale
 70
     0
300
1:20
140
1.0
141
20.0
290
     0
  0
SCALE
  5
2CFF
102
{ACAD_REACTORS
330
2CF6
102
}
330
2CF6
100
AcDbScale
 70
     0
300
1:30
140
1.0
141
30.0
290
     0
  0
SCALE
  5
2D00
102
{ACAD_REACTORS
330
2CF6
102
}
330
2CF6
100
AcDbScale
 70
     0
300
1:40
140
1.0
141
40.0
290
     0
  0
SCALE
  5
2D01
102
{ACAD_REACTORS
330
2CF6
102
}
330
2CF6
100
AcDbScale
 70
     0
300
1:50
140
1.0
141
50.0
290
     0
  0
SCALE
  5
2D02
102
{ACAD_REACTORS
330
2CF6
102
}
330
2CF6
100
AcDbScale
 70
     0
300
1:100
140
1.0
141
100.0
290
     0
  0
SCALE
  5
2D03
102
{ACAD_REACTORS
330
2CF6
102
}
330
2CF6
100
AcDbScale
 70
     0
300
2:1
140
2.0
141
1.0
290
     0
  0
SCALE
  5
2D04
102
{ACAD_REACTORS
330
2CF6
102
}
330
2CF6
100
AcDbScale
 70
     0
300
4:1
140
4.0
141
1.0
290
     0
  0
SCALE
  5
2D05
102
{ACAD_REACTORS
330
2CF6
102
}
330
2CF6
100
AcDbScale
 70
     0
300
8:1
140
8.0
141
1.0
290
     0
  0
SCALE
  5
2D06
102
{ACAD_REACTORS
330
2CF6
102
}
330
2CF6
100
AcDbScale
 70
     0
300
10:1
140
10.0
141
1.0
290
     0
  0
SCALE
  5
2D07
102
{ACAD_REACTORS
330
2CF6
102
}
330
2CF6
100
AcDbScale
 70
     0
300
100:1
140
100.0
141
1.0
290
     0
  0
SCALE
  5
2D08
102
{ACAD_REACTORS
330
2CF6
102
}
330
2CF6
100
AcDbScale
 70
     0
300
1/128" = 1'-0"
140
0.0078125
141
12.0
290
     0
  0
SCALE
  5
2D09
102
{ACAD_REACTORS
330
2CF6
102
}
330
2CF6
100
AcDbScale
 70
     0
300
1/64" = 1'-0"
140
0.015625
141
12.0
290
     0
  0
SCALE
  5
2D0A
102
{ACAD_REACTORS
330
2CF6
102
}
330
2CF6
100
AcDbScale
 70
     0
300
1/32" = 1'-0"
140
0.03125
141
12.0
290
     0
  0
SCALE
  5
2D0B
102
{ACAD_REACTORS
330
2CF6
102
}
330
2CF6
100
AcDbScale
 70
     0
300
1/16" = 1'-0"
140
0.0625
141
12.0
290
     0
  0
SCALE
  5
2D0C
102
{ACAD_REACTORS
330
2CF6
102
}
330
2CF6
100
AcDbScale
 70
     0
300
3/32" = 1'-0"
140
0.09375
141
12.0
290
     0
  0
SCALE
  5
2D0D
102
{ACAD_REACTORS
330
2CF6
102
}
330
2CF6
100
AcDbScale
 70
     0
300
1/8" = 1'-0"
140
0.125
141
12.0
290
     0
  0
SCALE
  5
2D0E
102
{ACAD_REACTORS
330
2CF6
102
}
330
2CF6
100
AcDbScale
 70
     0
300
3/16" = 1'-0"
140
0.1875
141
12.0
290
     0
  0
SCALE
  5
2D0F
102
{ACAD_REACTORS
330
2CF6
102
}
330
2CF6
100
AcDbScale
 70
     0
300
1/4" = 1'-0"
140
0.25
141
12.0
290
     0
  0
SCALE
  5
2D10
102
{ACAD_REACTORS
330
2CF6
102
}
330
2CF6
100
AcDbScale
 70
     0
300
3/8" = 1'-0"
140
0.375
141
12.0
290
     0
  0
SCALE
  5
2D11
102
{ACAD_REACTORS
330
2CF6
102
}
330
2CF6
100
AcDbScale
 70
     0
300
1/2" = 1'-0"
140
0.5
141
12.0
290
     0
  0
SCALE
  5
2D12
102
{ACAD_REACTORS
330
2CF6
102
}
330
2CF6
100
AcDbScale
 70
     0
300
3/4" = 1'-0"
140
0.75
141
12.0
290
     0
  0
SCALE
  5
2D13
102
{ACAD_REACTORS
330
2CF6
102
}
330
2CF6
100
AcDbScale
 70
     0
300
1" = 1'-0"
140
1.0
141
12.0
290
     0
  0
SCALE
  5
2D14
102
{ACAD_REACTORS
330
2CF6
102
}
330
2CF6
100
AcDbScale
 70
     0
300
1-1/2" = 1'-0"
140
1.5
141
12.0
290
     0
  0
SCALE
  5
2D15
102
{ACAD_REACTORS
330
2CF6
102
}
330
2CF6
100
AcDbScale
 70
     0
300
3" = 1'-0"
140
3.0
141
12.0
290
     0
  0
SCALE
  5
2D16
102
{ACAD_REACTORS
330
2CF6
102
}
330
2CF6
100
AcDbScale
 70
     0
300
6" = 1'-0"
140
6.0
141
12.0
290
     0
  0
SCALE
  5
2D17
102
{ACAD_REACTORS
330
2CF6
102
}
330
2CF6
100
AcDbScale
 70
     0
300
1'-0" = 1'-0"
140
12.0
141
12.0
290
     0
  0
TABLESTYLE
  5
2D28
102
{ACAD_XDICTIONARY
360
2F1A
102
}
102
{ACAD_REACTORS
330
2D27
102
}
330
2D27
100
AcDbTableStyle
  3
Standard
 70
     0
 71
     0
 40
0.06
 41
0.06
280
     0
281
     0
  7
STANDARD
140
0.18
170
     2
 62
     0
 63
     7
283
     0
274
    -2
284
     1
 64
     0
275
    -2
285
     1
 65
     0
276
    -2
286
     1
 66
     0
277
    -2
287
     1
 67
     0
278
    -2
288
     1
 68
     0
279
    -2
289
     1
 69
     0
  7
STANDARD
140
0.25
170
     5
 62
     0
 63
     7
283
     0
274
    -2
284
     1
 64
     0
275
    -2
285
     1
 65
     0
276
    -2
286
     1
 66
     0
277
    -2
287
     1
 67
     0
278
    -2
288
     1
 68
     0
279
    -2
289
     1
 69
     0
  7
STANDARD
140
0.18
170
     5
 62
     0
 63
     7
283
     0
274
    -2
284
     1
 64
     0
275
    -2
285
     1
 65
     0
276
    -2
286
     1
 66
     0
277
    -2
287
     1
 67
     0
278
    -2
288
     1
 68
     0
279
    -2
289
     1
 69
     0
  0
VISUALSTYLE
  5
2CEB
102
{ACAD_REACTORS
330
2CE5
102
}
330
2CE5
100
AcDbVisualStyle
  2
2dWireframe
 70
     4
 71
     0
 72
     2
 73
     0
 90
        0
 40
-0.6
 41
-30.0
 62
     5
 63
     7
 74
     1
 91
        4
 64
     7
 65
   257
 75
     1
175
     1
 42
1.0
 92
        0
 66
   257
 43
1.0
 76
     1
 77
     6
 78
     2
 67
     7
 79
     5
170
     0
171
     0
290
     0
174
     0
 93
        1
 44
0.0
173
     0
291
     0
 45
0.0
1001
ACAD
1000
AcDbSavedByObjectVersion
1070
     0
  0
VISUALSTYLE
  5
2CED
102
{ACAD_REACTORS
330
2CE5
102
}
330
2CE5
100
AcDbVisualStyle
  2
3D Hidden
 70
     6
 71
     1
 72
     2
 73
     2
 90
        0
 40
-0.6
 41
-30.0
 62
     5
 63
     7
 74
     2
 91
        2
 64
     7
 65
   257
 75
     2
175
     1
 42
40.0
 92
        0
 66
   257
 43
1.0
 76
     1
 77
     6
 78
     2
 67
     7
 79
     3
170
     0
171
     0
290
     0
174
     0
 93
        1
 44
0.0
173
     0
291
     0
 45
0.0
1001
ACAD
1000
AcDbSavedByObjectVersion
1070
     0
  0
VISUALSTYLE
  5
2CEC
102
{ACAD_REACTORS
330
2CE5
102
}
330
2CE5
100
AcDbVisualStyle
  2
3dWireframe
 70
     5
 71
     0
 72
     2
 73
     0
 90
        0
 40
-0.6
 41
-30.0
 62
     5
 63
     7
 74
     1
 91
        4
 64
     7
 65
   257
 75
     1
175
     1
 42
1.0
 92
        0
 66
   257
 43
1.0
 76
     1
 77
     6
 78
     2
 67
     7
 79
     5
170
     0
171
     0
290
     0
174
     0
 93
        1
 44
0.0
173
     0
291
     0
 45
0.0
1001
ACAD
1000
AcDbSavedByObjectVersion
1070
     0
  0
VISUALSTYLE
  5
2CEA
102
{ACAD_REACTORS
330
2CE5
102
}
330
2CE5
100
AcDbVisualStyle
  2
Basic
 70
     7
 71
     1
 72
     0
 73
     1
 90
        0
 40
-0.6
 41
-30.0
 62
     5
 63
     7
 74
     0
 91
        4
 64
     7
 65
   257
 75
     1
175
     1
 42
1.0
 92
        8
 66
     7
 43
1.0
 76
     1
 77
     6
 78
     2
 67
     7
 79
     5
170
     0
171
     0
290
     0
174
     0
 93
        1
 44
0.0
173
     0
291
     1
 45
0.0
1001
ACAD
1000
AcDbSavedByObjectVersion
1070
     0
  0
VISUALSTYLE
  5
2CF1
102
{ACAD_REACTORS
330
2CE5
102
}
330
2CE5
100
AcDbVisualStyle
  2
Brighten
 70
    12
 71
     2
 72
     2
 73
     0
 90
        0
 40
-0.6
 41
-30.0
 62
     5
 63
     7
 74
     1
 91
        4
 64
     7
 65
   257
 75
     1
175
     1
 42
1.0
 92
        8
 66
     7
 43
1.0
 76
     1
 77
     6
 78
     2
 67
     7
 79
     5
170
     0
171
     0
290
     0
174
     0
 93
        1
 44
50.0
173
     0
291
     1
 45
0.0
1001
ACAD
1000
AcDbSavedByObjectVersion
1070
     0
  0
VISUALSTYLE
  5
2CF5
102
{ACAD_REACTORS
330
2CE5
102
}
330
2CE5
100
AcDbVisualStyle
  2
ColorChange
 70
    16
 71
     2
 72
     2
 73
     3
 90
        0
 40
-0.6
 41
-30.0
 62
     5
 63
     8
 74
     1
 91
        4
 64
     7
 65
   257
 75
     1
175
     1
 42
1.0
 92
        8
 66
     8
 43
1.0
 76
     1
 77
     6
 78
     2
 67
     7
 79
     5
170
     0
171
     0
290
     0
174
     0
 93
        1
 44
0.0
173
     0
291
     1
 45
0.0
1001
ACAD
1000
AcDbSavedByObjectVersion
1070
     0
  0
VISUALSTYLE
  5
2CEE
102
{ACAD_REACTORS
330
2CE5
102
}
330
2CE5
100
AcDbVisualStyle
  2
Conceptual
 70
     9
 71
     3
 72
     2
 73
     0
 90
        0
 40
-0.6
 41
-30.0
 62
     5
 63
     7
 74
     2
 91
        2
 64
     7
 65
   257
 75
     1
175
     1
 42
40.0
 92
        8
 66
     7
 43
1.0
 76
     1
 77
     6
 78
     2
 67
     7
 79
     3
170
     0
171
     0
290
     0
174
     0
 93
        1
 44
0.0
173
     0
291
     0
 45
0.0
1001
ACAD
1000
AcDbSavedByObjectVersion
1070
     0
  0
VISUALSTYLE
  5
2CF0
102
{ACAD_REACTORS
330
2CE5
102
}
330
2CE5
100
AcDbVisualStyle
  2
Dim
 70
    11
 71
     2
 72
     2
 73
     0
 90
        0
 40
-0.6
 41
-30.0
 62
     5
 63
     7
 74
     1
 91
        4
 64
     7
 65
   257
 75
     1
175
     1
 42
1.0
 92
        8
 66
     7
 43
1.0
 76
     1
 77
     6
 78
     2
 67
     7
 79
     5
170
     0
171
     0
290
     0
174
     0
 93
        1
 44
-50.0
173
     0
291
     1
 45
0.0
1001
ACAD
1000
AcDbSavedByObjectVersion
1070
     0
  0
VISUALSTYLE
  5
2CF4
102
{ACAD_REACTORS
330
2CE5
102
}
330
2CE5
100
AcDbVisualStyle
  2
Facepattern
 70
    15
 71
     2
 72
     2
 73
     0
 90
        0
 40
-0.6
 41
-30.0
 62
     5
 63
     7
 74
     1
 91
        4
 64
     7
 65
   257
 75
     1
175
     1
 42
1.0
 92
        8
 66
     7
 43
1.0
 76
     1
 77
     6
 78
     2
 67
     7
 79
     5
170
     0
171
     0
290
     0
174
     0
 93
        1
 44
0.0
173
     0
291
     1
 45
0.0
1001
ACAD
1000
AcDbSavedByObjectVersion
1070
     0
  0
VISUALSTYLE
  5
2CE6
102
{ACAD_REACTORS
330
2CE5
102
}
330
2CE5
100
AcDbVisualStyle
  2
Flat
 70
     0
 71
     2
 72
     1
 73
     1
 90
        2
 40
-0.6
 41
30.0
 62
     5
 63
     7
 74
     0
 91
        4
 64
     7
 65
   257
 75
     1
175
     1
 42
1.0
 92
        8
 66
     7
 43
1.0
 76
     1
 77
     6
 78
     2
 67
     7
 79
     5
170
     0
171
     0
290
     0
174
     0
 93
       13
 44
0.0
173
     0
291
     1
 45
0.0
1001
ACAD
1000
AcDbSavedByObjectVersion
1070
     0
  0
VISUALSTYLE
  5
2CE7
102
{ACAD_REACTORS
330
2CE5
102
}
330
2CE5
100
AcDbVisualStyle
  2
FlatWithEdges
 70
     1
 71
     2
 72
     1
 73
     1
 90
        2
 40
-0.6
 41
30.0
 62
     5
 63
     7
 74
     1
 91
        4
 64
     7
 65
   257
 75
     1
175
     1
 42
1.0
 92
        0
 66
   257
 43
1.0
 76
     1
 77
     6
 78
     2
 67
     7
 79
     5
170
     0
171
     0
290
     0
174
     0
 93
       13
 44
0.0
173
     0
291
     1
 45
0.0
1001
ACAD
1000
AcDbSavedByObjectVersion
1070
     0
  0
VISUALSTYLE
  5
2CE8
102
{ACAD_REACTORS
330
2CE5
102
}
330
2CE5
100
AcDbVisualStyle
  2
Gouraud
 70
     2
 71
     2
 72
     2
 73
     1
 90
        2
 40
-0.6
 41
30.0
 62
     5
 63
     7
 74
     0
 91
        4
 64
     7
 65
   257
 75
     1
175
     1
 42
1.0
 92
        0
 66
     7
 43
1.0
 76
     1
 77
     6
 78
     2
 67
     7
 79
     5
170
     0
171
     0
290
     0
174
     0
 93
       13
 44
0.0
173
     0
291
     1
 45
0.0
1001
ACAD
1000
AcDbSavedByObjectVersion
1070
     0
  0
VISUALSTYLE
  5
2CE9
102
{ACAD_REACTORS
330
2CE5
102
}
330
2CE5
100
AcDbVisualStyle
  2
GouraudWithEdges
 70
     3
 71
     2
 72
     2
 73
     1
 90
        2
 40
-0.6
 41
30.0
 62
     5
 63
     7
 74
     1
 91
        4
 64
     7
 65
   257
 75
     1
175
     1
 42
1.0
 92
        0
 66
   257
 43
1.0
 76
     1
 77
     6
 78
     2
 67
     7
 79
     5
170
     0
171
     0
290
     0
174
     0
 93
       13
 44
0.0
173
     0
291
     1
 45
0.0
1001
ACAD
1000
AcDbSavedByObjectVersion
1070
     0
  0
VISUALSTYLE
  5
2CF3
102
{ACAD_REACTORS
330
2CE5
102
}
330
2CE5
100
AcDbVisualStyle
  2
Linepattern
 70
    14
 71
     2
 72
     2
 73
     0
 90
        0
 40
-0.6
 41
-30.0
 62
     5
 63
     7
 74
     1
 91
        4
 64
     7
 65
   257
 75
     7
175
     7
 42
1.0
 92
        8
 66
     7
 43
1.0
 76
     1
 77
     6
 78
     2
 67
     7
 79
     5
170
     0
171
     0
290
     0
174
     0
 93
        1
 44
0.0
173
     0
291
     1
 45
0.0
1001
ACAD
1000
AcDbSavedByObjectVersion
1070
     0
  0
VISUALSTYLE
  5
2CEF
102
{ACAD_REACTORS
330
2CE5
102
}
330
2CE5
100
AcDbVisualStyle
  2
Realistic
 70
     8
 71
     2
 72
     2
 73
     0
 90
        0
 40
-0.6
 41
-30.0
 62
     5
 63
     7
 74
     1
 91
        0
 64
     7
 65
   257
 75
     1
175
     1
 42
1.0
 92
        8
 66
     8
 43
1.0
 76
     1
 77
     6
 78
     2
 67
     7
 79
     5
170
     0
171
     0
290
     0
174
     0
 93
       13
 44
0.0
173
     0
291
     0
 45
0.0
1001
ACAD
1000
AcDbSavedByObjectVersion
1070
     0
  0
VISUALSTYLE
  5
2CF2
102
{ACAD_REACTORS
330
2CE5
102
}
330
2CE5
100
AcDbVisualStyle
  2
Thicken
 70
    13
 71
     2
 72
     2
 73
     0
 90
        0
 40
-0.6
 41
-30.0
 62
     5
 63
     7
 74
     1
 91
        4
 64
     7
 65
   257
 75
     1
175
     1
 42
1.0
 92
       12
 66
     7
 43
1.0
 76
     1
 77
     6
 78
     2
 67
     7
 79
     5
170
     0
171
     0
290
     0
174
     0
 93
        1
 44
0.0
173
     0
291
     1
 45
0.0
1001
ACAD
1000
AcDbSavedByObjectVersion
1070
     0
  0
DICTIONARYVAR
  5
2F16
102
{ACAD_REACTORS
330
2F13
102
}
330
2F13
100
DictionaryVariables
280
     0
  1
1:1
  0
DICTIONARYVAR
  5
2F15
102
{ACAD_REACTORS
330
2F13
102
}
330
2F13
100
DictionaryVariables
280
     0
  1
STANDARD
  0
DICTIONARYVAR
  5
2F14
102
{ACAD_REACTORS
330
2F13
102
}
330
2F13
100
DictionaryVariables
280
     0
  1
STANDARD
  0
DICTIONARYVAR
  5
2F19
102
{ACAD_REACTORS
330
2F13
102
}
330
2F13
100
DictionaryVariables
280
     0
  1
1
  0
DICTIONARYVAR
  5
2F18
102
{ACAD_REACTORS
330
2F13
102
}
330
2F13
100
DictionaryVariables
280
     0
  1
1
  0
DICTIONARYVAR
  5
2F17
102
{ACAD_REACTORS
330
2F13
102
}
330
2F13
100
DictionaryVariables
280
     0
  1
127
  0
DICTIONARY
  5
2ED4
102
{ACAD_REACTORS
330
2EC6
102
}
330
2EC6
100
AcDbDictionary
281
     1
  0
DICTIONARY
  5
2E14
102
{ACAD_REACTORS
330
2E13
102
}
330
2E13
100
AcDbDictionary
281
     1
  3
DWGSETTINGS
350
2E15
  3
TRANSSETTINGS
350
2E16
  0
LAYER_INDEX
  5
2F06
102
{ACAD_REACTORS
330
2F05
102
}
330
2F05
100
AcDbIndex
 40
2456212.856270162
100
AcDbLayerIndex
  8
0
360
2F07
 90
        2
  8
OUTLINE
360
2F08
 90
       34
  8
SIZE
360
2F09
 90
       38
  8
BASIS
360
2F0A
 90
        1
  8
DETAIL
360
2F0B
 90
       42
  8
ARRANGE
360
2F0C
 90
        3
  8
DEFPOINTS
360
2F0D
 90
        0
  8
ETC
360
2F0E
 90
        3
  8
FIX
360
2F0F
 90
        0
  8
NOTE
360
2F10
 90
        4
  8
SERVICESPACE
360
2F11
 90
        0
  8
SYMBOLLINE
360
2F12
 90
        0
  0
DICTIONARY
  5
2F29
330
2D33
100
AcDbDictionary
280
     1
281
     1
  3
ACAD_XREC_ROUNDTRIP
360
2F2A
  0
DICTIONARY
  5
2F27
330
2D2F
100
AcDbDictionary
280
     1
281
     1
  3
ACAD_XREC_ROUNDTRIP
360
2F28
  0
DICTIONARY
  5
2CD6
330
2CD5
100
AcDbDictionary
280
     1
281
     1
  3
ACAD_XREC_ROUNDTRIP
360
2F24
  3
BUMPTILE
360
2CD8
  3
DIFFUSETILE
360
2CD7
  3
OPACITYTILE
360
2CDB
  3
REFLECTIONTILE
360
2CDA
  3
REFRACTIONTILE
360
2CDC
  3
SPECULARTILE
360
2CD9
  0
DICTIONARY
  5
2CCE
330
2CCD
100
AcDbDictionary
280
     1
281
     1
  3
ACAD_XREC_ROUNDTRIP
360
2F23
  3
BUMPTILE
360
2CD0
  3
DIFFUSETILE
360
2CCF
  3
OPACITYTILE
360
2CD3
  3
REFLECTIONTILE
360
2CD2
  3
REFRACTIONTILE
360
2CD4
  3
SPECULARTILE
360
2CD1
  0
DICTIONARY
  5
2CDE
330
2CDD
100
AcDbDictionary
280
     1
281
     1
  3
ACAD_XREC_ROUNDTRIP
360
2F25
  3
BUMPTILE
360
2CE0
  3
DIFFUSETILE
360
2CDF
  3
OPACITYTILE
360
2CE3
  3
REFLECTIONTILE
360
2CE2
  3
REFRACTIONTILE
360
2CE4
  3
SPECULARTILE
360
2CE1
  0
DICTIONARY
  5
2F1A
330
2D28
100
AcDbDictionary
280
     1
281
     1
  3
ACAD_ROUNDTRIP_2008_TABLESTYLE_CELLSTYLEMAP
360
2F1B
  3
ACAD_XREC_ROUNDTRIP
360
2F26
  0
IDBUFFER
  5
2F07
330
0
100
AcDbIdBuffer
330
2C42
330
2C43
  0
IDBUFFER
  5
2F08
330
0
100
AcDbIdBuffer
330
2C50
330
2C51
330
2C52
330
2C53
330
2C54
330
2C55
330
2C56
330
2C57
330
2C58
330
2C59
330
2C5A
330
2C5B
330
2C5C
330
2C5D
330
2C5E
330
2C5F
330
2C60
330
2C61
330
953
330
954
330
955
330
956
330
957
330
958
330
2C46
330
2C47
330
2C48
330
2C49
330
2C4A
330
2C4B
330
2C4C
330
2C4D
330
2C4E
330
2C4F
  0
IDBUFFER
  5
2F09
330
0
100
AcDbIdBuffer
330
2C7F
330
2C80
330
2C81
330
2C82
330
2C83
330
2C84
330
2C85
330
2C86
330
2C87
330
2C88
330
2C89
330
2C8A
330
2C8B
330
2C8C
330
2C8D
330
2C8E
330
2C8F
330
2C90
330
2C91
330
2C92
330
2C93
330
2C94
330
2C6F
330
2C70
330
2C71
330
2C72
330
2C73
330
2C74
330
2C75
330
2C76
330
2C77
330
2C78
330
2C79
330
2C7A
330
2C7B
330
2C7C
330
2C7D
330
2C7E
  0
IDBUFFER
  5
2F0A
330
0
100
AcDbIdBuffer
330
2C28
  0
IDBUFFER
  5
2F0B
330
0
100
AcDbIdBuffer
330
2C32
330
2C33
330
2C34
330
2C35
330
2C36
330
2C37
330
2C38
330
2C39
330
2C3A
330
2C3B
330
2C3C
330
2C3D
330
2C3E
330
2C3F
330
2C40
330
2C41
330
2C62
330
2C63
330
2C64
330
2C65
330
2C66
330
2C67
330
2C68
330
2C69
330
2C6A
330
2C6B
330
2C1E
330
2C1F
330
2C20
330
2C21
330
2C22
330
2C23
330
2C24
330
2C29
330
2C2A
330
2C2B
330
2C2C
330
2C2D
330
2C2E
330
2C2F
330
2C30
330
2C31
  0
IDBUFFER
  5
2F0C
330
0
100
AcDbIdBuffer
330
2C25
330
2C26
330
2C27
  0
IDBUFFER
  5
2F0D
330
0
100
AcDbIdBuffer
  0
IDBUFFER
  5
2F0E
330
0
100
AcDbIdBuffer
330
2C6C
330
2C6D
330
2C6E
  0
IDBUFFER
  5
2F0F
330
0
100
AcDbIdBuffer
  0
IDBUFFER
  5
2F10
330
0
100
AcDbIdBuffer
330
2C1C
330
2C1D
330
2C44
330
2C45
  0
IDBUFFER
  5
2F11
330
0
100
AcDbIdBuffer
  0
IDBUFFER
  5
2F12
330
0
100
AcDbIdBuffer
  0
XRECORD
  5
2F2A
102
{ACAD_REACTORS
330
2F29
102
}
330
2F29
100
AcDbXrecord
280
     1
102
SHADEPLOT
 70
     0
102
SHADEPLOTRESLEVEL
 70
     2
102
SHADEPLOTCUSTOMDPI
 70
   300
  0
XRECORD
  5
2F28
102
{ACAD_REACTORS
330
2F27
102
}
330
2F27
100
AcDbXrecord
280
     1
102
SHADEPLOT
 70
     0
102
SHADEPLOTRESLEVEL
 70
     2
102
SHADEPLOTCUSTOMDPI
 70
   300
  0
XRECORD
  5
2F24
102
{ACAD_REACTORS
330
2CD6
102
}
330
2CD6
100
AcDbXrecord
280
     1
102
MATERIAL
148
0.0
149
0.0
149
0.0
 93
        0
 94
      127
282
     0
 72
     0
 77
     0
171
     0
175
     0
179
     0
273
     0
  0
XRECORD
  5
2CD8
102
{ACAD_REACTORS
330
2CD6
102
}
330
2CD6
100
AcDbXrecord
280
     1
270
     1
271
     1
  0
XRECORD
  5
2CD7
102
{ACAD_REACTORS
330
2CD6
102
}
330
2CD6
100
AcDbXrecord
280
     1
270
     1
271
     1
  0
XRECORD
  5
2CDB
102
{ACAD_REACTORS
330
2CD6
102
}
330
2CD6
100
AcDbXrecord
280
     1
270
     1
271
     1
  0
XRECORD
  5
2CDA
102
{ACAD_REACTORS
330
2CD6
102
}
330
2CD6
100
AcDbXrecord
280
     1
270
     1
271
     1
  0
XRECORD
  5
2CDC
102
{ACAD_REACTORS
330
2CD6
102
}
330
2CD6
100
AcDbXrecord
280
     1
270
     1
271
     1
  0
XRECORD
  5
2CD9
102
{ACAD_REACTORS
330
2CD6
102
}
330
2CD6
100
AcDbXrecord
280
     1
270
     1
271
     1
  0
XRECORD
  5
2F23
102
{ACAD_REACTORS
330
2CCE
102
}
330
2CCE
100
AcDbXrecord
280
     1
102
MATERIAL
148
0.0
149
0.0
149
0.0
 93
        0
 94
      127
282
     0
 72
     0
 77
     0
171
     0
175
     0
179
     0
273
     0
  0
XRECORD
  5
2CD0
102
{ACAD_REACTORS
330
2CCE
102
}
330
2CCE
100
AcDbXrecord
280
     1
270
     1
271
     1
  0
XRECORD
  5
2CCF
102
{ACAD_REACTORS
330
2CCE
102
}
330
2CCE
100
AcDbXrecord
280
     1
270
     1
271
     1
  0
XRECORD
  5
2CD3
102
{ACAD_REACTORS
330
2CCE
102
}
330
2CCE
100
AcDbXrecord
280
     1
270
     1
271
     1
  0
XRECORD
  5
2CD2
102
{ACAD_REACTORS
330
2CCE
102
}
330
2CCE
100
AcDbXrecord
280
     1
270
     1
271
     1
  0
XRECORD
  5
2CD4
102
{ACAD_REACTORS
330
2CCE
102
}
330
2CCE
100
AcDbXrecord
280
     1
270
     1
271
     1
  0
XRECORD
  5
2CD1
102
{ACAD_REACTORS
330
2CCE
102
}
330
2CCE
100
AcDbXrecord
280
     1
270
     1
271
     1
  0
XRECORD
  5
2F25
102
{ACAD_REACTORS
330
2CDE
102
}
330
2CDE
100
AcDbXrecord
280
     1
102
MATERIAL
148
0.0
149
0.0
149
0.0
 93
        0
 94
      127
282
     0
 72
     0
 77
     0
171
     0
175
     0
179
     0
273
     0
  0
XRECORD
  5
2CE0
102
{ACAD_REACTORS
330
2CDE
102
}
330
2CDE
100
AcDbXrecord
280
     1
270
     1
271
     1
  0
XRECORD
  5
2CDF
102
{ACAD_REACTORS
330
2CDE
102
}
330
2CDE
100
AcDbXrecord
280
     1
270
     1
271
     1
  0
XRECORD
  5
2CE3
102
{ACAD_REACTORS
330
2CDE
102
}
330
2CDE
100
AcDbXrecord
280
     1
270
     1
271
     1
  0
XRECORD
  5
2CE2
102
{ACAD_REACTORS
330
2CDE
102
}
330
2CDE
100
AcDbXrecord
280
     1
270
     1
271
     1
  0
XRECORD
  5
2CE4
102
{ACAD_REACTORS
330
2CDE
102
}
330
2CDE
100
AcDbXrecord
280
     1
270
     1
271
     1
  0
XRECORD
  5
2CE1
102
{ACAD_REACTORS
330
2CDE
102
}
330
2CDE
100
AcDbXrecord
280
     1
270
     1
271
     1
  0
CELLSTYLEMAP
  5
2F1B
102
{ACAD_REACTORS
330
2F1A
102
}
330
2F1A
100
AcDbCellStyleMap
 90
        3
300
CELLSTYLE
  1
TABLEFORMAT_BEGIN
 90
        5
170
     1
 91
        0
 92
    32768
 62
   257
 93
        1
300
CONTENTFORMAT
  1
CONTENTFORMAT_BEGIN
 90
        0
 91
        0
 92
      512
 93
        0
300

 40
0.0
140
1.0
 94
        5
 62
     0
340
2D19
144
0.25
309
CONTENTFORMAT_END
171
     0
 94
        0
309
TABLEFORMAT_END
  1
CELLSTYLE_BEGIN
 90
        1
 91
        1
300
_TITLE
309
CELLSTYLE_END
300
CELLSTYLE
  1
TABLEFORMAT_BEGIN
 90
        5
170
     1
 91
        0
 92
        0
 62
   257
 93
        1
300
CONTENTFORMAT
  1
CONTENTFORMAT_BEGIN
 90
        0
 91
        0
 92
      512
 93
        0
300

 40
0.0
140
1.0
 94
        5
 62
     0
340
2D19
144
0.18
309
CONTENTFORMAT_END
171
     0
 94
        0
309
TABLEFORMAT_END
  1
CELLSTYLE_BEGIN
 90
        2
 91
        1
300
_HEADER
309
CELLSTYLE_END
300
CELLSTYLE
  1
TABLEFORMAT_BEGIN
 90
        5
170
     1
 91
        0
 92
        0
 62
   257
 93
        1
300
CONTENTFORMAT
  1
CONTENTFORMAT_BEGIN
 90
        0
 91
        0
 92
      512
 93
        0
300

 40
0.0
140
1.0
 94
        2
 62
     0
340
2D19
144
0.18
309
CONTENTFORMAT_END
171
     0
 94
        0
309
TABLEFORMAT_END
  1
CELLSTYLE_BEGIN
 90
        3
 91
        2
300
_DATA
309
CELLSTYLE_END
  0
XRECORD
  5
2F26
102
{ACAD_REACTORS
330
2F1A
102
}
330
2F1A
100
AcDbXrecord
280
     1
102
ACAD_ROUNDTRIP_PRE2007_TABLESTYLE
 90
      512
 91
        0
  1

 92
      512
 93
        0
  2

 94
      512
 95
        0
  3

  0
ENDSEC
  0
EOF
