  0
SECTION
  2
HEADER
  9
$ACADVER
  1
AC1015
  9
$ACADMAINTVER
 70
    20
  9
$DWGCODEPAGE
  3
ANSI_932
  9
$INSBASE
 10
0.0
 20
0.0
 30
0.0
  9
$EXTMIN
 10
-961.4522571351114
 20
-1039.152290639288
 30
0.0
  9
$EXTMAX
 10
1149.735305413156
 20
516.971308630213
 30
50.0
  9
$LIMMIN
 10
-2970.0
 20
-2100.0
  9
$LIMMAX
 10
2970.0
 20
2100.0
  9
$ORTHOMODE
 70
     1
  9
$REGENMODE
 70
     0
  9
$FILLMODE
 70
     1
  9
$QTEXTMODE
 70
     0
  9
$MIRRTEXT
 70
     0
  9
$LTSCALE
 40
20.0
  9
$ATTMODE
 70
     1
  9
$TEXTSIZE
 40
64.0
  9
$TRACEWID
 40
0.05
  9
$TEXTSTYLE
  7
STANDARD
  9
$CLAYER
  8
0
  9
$CELTYPE
  6
ByLayer
  9
$CECOLOR
 62
   256
  9
$CELTSCALE
 40
1.0
  9
$DISPSILH
 70
     0
  9
$DIMSCALE
 40
1.0
  9
$DIMASZ
 40
0.12
  9
$DIMEXO
 40
0.05
  9
$DIMDLI
 40
0.5
  9
$DIMRND
 40
0.0
  9
$DIMDLE
 40
0.0
  9
$DIMEXE
 40
0.1
  9
$DIMTP
 40
0.1
  9
$DIMTM
 40
0.1
  9
$DIMTXT
 40
0.12
  9
$DIMCEN
 40
0.0
  9
$DIMTSZ
 40
0.0
  9
$DIMTOL
 70
     0
  9
$DIMLIM
 70
     0
  9
$DIMTIH
 70
     1
  9
$DIMTOH
 70
     1
  9
$DIMSE1
 70
     0
  9
$DIMSE2
 70
     0
  9
$DIMTAD
 70
     0
  9
$DIMZIN
 70
     7
  9
$DIMBLK
  1

  9
$DIMASO
 70
     1
  9
$DIMSHO
 70
     0
  9
$DIMPOST
  1

  9
$DIMAPOST
  1
mm
  9
$DIMALT
 70
     0
  9
$DIMALTD
 70
     2
  9
$DIMALTF
 40
25.4
  9
$DIMLFAC
 40
1.0
  9
$DIMTOFL
 70
     0
  9
$DIMTVP
 40
0.0
  9
$DIMTIX
 70
     0
  9
$DIMSOXD
 70
     0
  9
$DIMSAH
 70
     0
  9
$DIMBLK1
  1

  9
$DIMBLK2
  1

  9
$DIMSTYLE
  2
AM_ANSI
  9
$DIMCLRD
 70
   256
  9
$DIMCLRE
 70
   256
  9
$DIMCLRT
 70
     2
  9
$DIMTFAC
 40
0.71
  9
$DIMGAP
 40
0.06
  9
$DIMJUST
 70
     0
  9
$DIMSD1
 70
     0
  9
$DIMSD2
 70
     0
  9
$DIMTOLJ
 70
     1
  9
$DIMTZIN
 70
     7
  9
$DIMALTZ
 70
     0
  9
$DIMALTTZ
 70
     0
  9
$DIMUPT
 70
     0
  9
$DIMDEC
 70
     4
  9
$DIMTDEC
 70
     4
  9
$DIMALTU
 70
     2
  9
$DIMALTTD
 70
     4
  9
$DIMTXSTY
  7
STANDARD
  9
$DIMAUNIT
 70
     0
  9
$DIMADEC
 70
     0
  9
$DIMALTRND
 40
0.0
  9
$DIMAZIN
 70
     2
  9
$DIMDSEP
 70
    46
  9
$DIMATFIT
 70
     3
  9
$DIMFRAC
 70
     0
  9
$DIMLDRBLK
  1

  9
$DIMLUNIT
 70
     2
  9
$DIMLWD
 70
    -1
  9
$DIMLWE
 70
    -1
  9
$DIMTMOVE
 70
     0
  9
$LUNITS
 70
     2
  9
$LUPREC
 70
     4
  9
$SKETCHINC
 40
0.1
  9
$FILLETRAD
 40
4.0
  9
$AUNITS
 70
     1
  9
$AUPREC
 70
     3
  9
$MENU
  1
ACAD
  9
$ELEVATION
 40
0.0
  9
$PELEVATION
 40
0.0
  9
$THICKNESS
 40
50.0
  9
$LIMCHECK
 70
     0
  9
$CHAMFERA
 40
0.0
  9
$CHAMFERB
 40
0.0
  9
$CHAMFERC
 40
0.0
  9
$CHAMFERD
 40
0.0
  9
$SKPOLY
 70
     0
  9
$TDCREATE
 40
2452321.396199653
  9
$TDUCREATE
 40
2452321.021199653
  9
$TDUPDATE
 40
2456213.407129445
  9
$TDUUPDATE
 40
2456213.032129445
  9
$TDINDWG
 40
1.0438939931
  9
$TDUSRTIMER
 40
1.0438885880
  9
$USRTIMER
 70
     1
  9
$ANGBASE
 50
0.0
  9
$ANGDIR
 70
     0
  9
$PDMODE
 70
     3
  9
$PDSIZE
 40
-2.0
  9
$PLINEWID
 40
0.0
  9
$SPLFRAME
 70
     0
  9
$SPLINETYPE
 70
     6
  9
$SPLINESEGS
 70
     8
  9
$HANDSEED
  5
2CCF
  9
$SURFTAB1
 70
     6
  9
$SURFTAB2
 70
     6
  9
$SURFTYPE
 70
     6
  9
$SURFU
 70
     6
  9
$SURFV
 70
     6
  9
$UCSBASE
  2

  9
$UCSNAME
  2

  9
$UCSORG
 10
0.0
 20
0.0
 30
0.0
  9
$UCSXDIR
 10
1.0
 20
0.0
 30
0.0
  9
$UCSYDIR
 10
0.0
 20
1.0
 30
0.0
  9
$UCSORTHOREF
  2

  9
$UCSORTHOVIEW
 70
     0
  9
$UCSORGTOP
 10
0.0
 20
0.0
 30
0.0
  9
$UCSORGBOTTOM
 10
0.0
 20
0.0
 30
0.0
  9
$UCSORGLEFT
 10
0.0
 20
0.0
 30
0.0
  9
$UCSORGRIGHT
 10
0.0
 20
0.0
 30
0.0
  9
$UCSORGFRONT
 10
0.0
 20
0.0
 30
0.0
  9
$UCSORGBACK
 10
0.0
 20
0.0
 30
0.0
  9
$PUCSBASE
  2

  9
$PUCSNAME
  2

  9
$PUCSORG
 10
0.0
 20
0.0
 30
0.0
  9
$PUCSXDIR
 10
1.0
 20
0.0
 30
0.0
  9
$PUCSYDIR
 10
0.0
 20
1.0
 30
0.0
  9
$PUCSORTHOREF
  2

  9
$PUCSORTHOVIEW
 70
     0
  9
$PUCSORGTOP
 10
0.0
 20
0.0
 30
0.0
  9
$PUCSORGBOTTOM
 10
0.0
 20
0.0
 30
0.0
  9
$PUCSORGLEFT
 10
0.0
 20
0.0
 30
0.0
  9
$PUCSORGRIGHT
 10
0.0
 20
0.0
 30
0.0
  9
$PUCSORGFRONT
 10
0.0
 20
0.0
 30
0.0
  9
$PUCSORGBACK
 10
0.0
 20
0.0
 30
0.0
  9
$USERI1
 70
     0
  9
$USERI2
 70
     0
  9
$USERI3
 70
     0
  9
$USERI4
 70
     0
  9
$USERI5
 70
     0
  9
$USERR1
 40
20.0
  9
$USERR2
 40
0.0
  9
$USERR3
 40
0.0
  9
$USERR4
 40
0.0
  9
$USERR5
 40
0.0
  9
$WORLDVIEW
 70
     1
  9
$SHADEDGE
 70
     3
  9
$SHADEDIF
 70
    70
  9
$TILEMODE
 70
     1
  9
$MAXACTVP
 70
    64
  9
$PINSBASE
 10
0.0
 20
0.0
 30
0.0
  9
$PLIMCHECK
 70
     0
  9
$PEXTMIN
 10
1.000000000000000E+20
 20
1.000000000000000E+20
 30
1.000000000000000E+20
  9
$PEXTMAX
 10
-1.000000000000000E+20
 20
-1.000000000000000E+20
 30
-1.000000000000000E+20
  9
$PLIMMIN
 10
0.0
 20
0.0
  9
$PLIMMAX
 10
12.0
 20
9.0
  9
$UNITMODE
 70
     0
  9
$VISRETAIN
 70
     1
  9
$PLINEGEN
 70
     0
  9
$PSLTSCALE
 70
     1
  9
$TREEDEPTH
 70
  3020
  9
$CMLSTYLE
  2
Standard
  9
$CMLJUST
 70
     0
  9
$CMLSCALE
 40
1.0
  9
$PROXYGRAPHICS
 70
     1
  9
$MEASUREMENT
 70
     0
  9
$CELWEIGHT
370
    -1
  9
$ENDCAPS
280
     0
  9
$JOINSTYLE
280
     0
  9
$LWDISPLAY
290
     0
  9
$INSUNITS
 70
     0
  9
$HYPERLINKBASE
  1

  9
$STYLESHEET
  1

  9
$XEDIT
290
     1
  9
$CEPSNTYPE
380
     0
  9
$PSTYLEMODE
290
     1
  9
$FINGERPRINTGUID
  2
{F9332727-940B-4463-9BF2-3020EE0D055A}
  9
$VERSIONGUID
  2
{4A25ED3C-6C29-45E2-9D0B-A9D331141F67}
  9
$EXTNAMES
290
     1
  9
$PSVPSCALE
 40
0.0
  9
$OLESTARTUP
290
     0
  0
ENDSEC
  0
SECTION
  2
CLASSES
  0
CLASS
  1
ACDBDICTIONARYWDFLT
  2
AcDbDictionaryWithDefault
  3
ObjectDBX Classes
 90
        0
280
     0
281
     0
  0
CLASS
  1
MATERIAL
  2
AcDbMaterial
  3
ObjectDBX Classes
 90
     1153
280
     0
281
     0
  0
CLASS
  1
VISUALSTYLE
  2
AcDbVisualStyle
  3
ObjectDBX Classes
 90
     4095
280
     0
281
     0
  0
CLASS
  1
SCALE
  2
AcDbScale
  3
ObjectDBX Classes
 90
     1153
280
     0
281
     0
  0
CLASS
  1
TABLESTYLE
  2
AcDbTableStyle
  3
ObjectDBX Classes
 90
     4095
280
     0
281
     0
  0
CLASS
  1
MLEADERSTYLE
  2
AcDbMLeaderStyle
  3
ACDB_MLEADERSTYLE_CLASS
 90
     4095
280
     0
281
     0
  0
CLASS
  1
AMGSETTINGSOBJ
  2
AmgSettingsObj
  3
"AcadM|Product Description: AutoCAD Mechanical|Company: Autodesk, Inc."
 90
     1024
280
     0
281
     0
  0
CLASS
  1
ACME_DOCUMENT
  2
AcMeDbDoc
  3
AcMeServices
 90
     1024
280
     0
281
     0
  0
CLASS
  1
ACMESCOPE
  2
AcMeScope
  3
AcMeServices
 90
     1024
280
     0
281
     0
  0
CLASS
  1
ACMECOMMANDHISTORY
  2
AcMeCommandHistory
  3
AcMeServices
 90
     1024
280
     0
281
     0
  0
CLASS
  1
ACIMSYSVARMAN
  2
AcImSysVarManager
  3
AcMeServices
 90
     1024
280
     0
281
     0
  0
CLASS
  1
ACIMREALSYSVAR
  2
AcImRealSysVar
  3
AcMeServices
 90
     1024
280
     0
281
     0
  0
CLASS
  1
ACIMINTSYSVAR
  2
AcImIntSysVar
  3
AcMeServices
 90
     1024
280
     0
281
     0
  0
CLASS
  1
ACMEDRAWINGMAN
  2
AcMeDrawingMan
  3
AcMeServices
 90
     1024
280
     0
281
     0
  0
CLASS
  1
ACMEVIEW
  2
AcMeView
  3
AcMeServices
 90
     1024
280
     0
281
     0
  0
CLASS
  1
ACDBENTITYCACHE
  2
AcMeEntityCache
  3
AcMeServices
 90
     1024
280
     0
281
     0
  0
CLASS
  1
GSMANAGER
  2
AcMeGSManager
  3
AcMeServices
 90
     1024
280
     0
281
     0
  0
CLASS
  1
AMDTINTERNALREACTOR
  2
AmdtInternalReactor
  3
AcMeServices
 90
     1024
280
     0
281
     0
  0
CLASS
  1
ACMESTATEMGR
  2
AcMeStateMgr
  3
AcMeServices
 90
     1024
280
     0
281
     0
  0
CLASS
  1
ACGREFMASTER
  2
AcGrefMaster
  3
AcAttribServices
 90
     1024
280
     0
281
     0
  0
CLASS
  1
AM_DRAWING_MGR
  2
AcDmDwgMgr
  3
AcMechDwgViewMgmt
 90
     1024
280
     0
281
     0
  0
CLASS
  1
AM_DWG_DOCUMENT
  2
AcDmDwgDocument
  3
AcMechDwgViewMgmt
 90
     1024
280
     0
281
     0
  0
CLASS
  1
AM_DWG_SHEET
  2
AcDmSheet
  3
AcMechDwgViewMgmt
 90
     1024
280
     0
281
     0
  0
CLASS
  1
AM_VIEWDIMPARMAP
  2
AcDmViewDimParMap
  3
AcMechDwgViewMgmt
 90
     1024
280
     0
281
     0
  0
CLASS
  1
AM_DWGMGR_NAME
  2
AcDmDwgMgrName
  3
AcMechDwgViewMgmt
 90
     1024
280
     0
281
     0
  0
CLASS
  1
ACME_DATABASE
  2
AcMeDbDatabase
  3
AcMeServices
 90
     1024
280
     0
281
     0
  0
CLASS
  1
ACRFINSADJUSTERMGR
  2
AcRfInsAdjusterMgr
  3
AcMeServices
 90
     1024
280
     0
281
     0
  0
CLASS
  1
ACGREFACADMASTER
  2
AcGrefacadMaster
  3
AcGrefServices
 90
     1024
280
     0
281
     0
  0
CLASS
  1
AMDTMENUSTATEMGR
  2
AmdtMenuStateMgr
  3
McadcomServices
 90
     1024
280
     0
281
     0
  0
CLASS
  1
AMDTMCOMMENUSTATE
  2
AmdtMcomMenuState
  3
McadcomServices
 90
     1024
280
     0
281
     0
  0
CLASS
  1
AMIMASTER
  2
AmiMaster
  3
AmiServices
 90
     1024
280
     0
281
     0
  0
CLASS
  1
ASAPP
  2
AcAsAppObject
  3
AutoSurfServices
 90
     1024
280
     0
281
     0
  0
CLASS
  1
IM_STATIC_MAN
  2
AcImStaticVarManager
  3
AcMeServices
 90
     1024
280
     0
281
     0
  0
CLASS
  1
ACIMSTRSYSVAR
  2
AcImStrSysVar
  3
AcMeServices
 90
     1024
280
     0
281
     0
  0
CLASS
  1
ACIMDBLSTATICVAR
  2
AcImDblStaticVar
  3
AcMeServices
 90
     1024
280
     0
281
     0
  0
CLASS
  1
ACIMSTRSTATICVAR
  2
AcImStrStaticVar
  3
AcMeServices
 90
     1024
280
     0
281
     0
  0
CLASS
  1
ACIMINTSTATICVAR
  2
AcImIntStaticVar
  3
AcMeServices
 90
     1024
280
     0
281
     0
  0
CLASS
  1
ACASGREFMASTER
  2
AcAsGrefMaster
  3
AutoSurfResolverServices
 90
     1024
280
     0
281
     0
  0
CLASS
  1
ACADGREFMODULE
  2
AcAdGrefModule
  3
AdGrefServices
 90
     1024
280
     0
281
     0
  0
CLASS
  1
AMDTMAPISURFMOUDULE
  2
AmdtMApiSurfModule
  3
MApiSurfServices
 90
     1024
280
     0
281
     0
  0
CLASS
  1
MAPIAMMOUDLE
  2
MApiAmModule
  3
MApiAmServices
 90
     1024
280
     0
281
     0
  0
CLASS
  1
AMDTADMENUSTATE
  2
AmdtAdMenuState
  3
DesignerServices
 90
     1024
280
     0
281
     0
  0
CLASS
  1
ADAPPL
  2
AcAdAppl
  3
DesignerServices
 90
     1024
280
     0
281
     0
  0
CLASS
  1
DEPMGR
  2
AcAdDepMgr
  3
DesignerServices
 90
     1024
280
     0
281
     0
  0
CLASS
  1
PARAMMGR
  2
AcAdParamMgr
  3
DesignerServices
 90
     1024
280
     0
281
     0
  0
CLASS
  1
PARAMSCOPE
  2
AcAdParamScope
  3
DesignerServices
 90
     1024
280
     0
281
     0
  0
CLASS
  1
NAMEDAPPL
  2
AcAdNamedAppl
  3
DesignerServices
 90
     1024
280
     0
281
     0
  0
CLASS
  1
AMDTDMMENUSTATE
  2
AmdtDmMenuState
  3
AcMechDwgViewMgmt
 90
     1024
280
     0
281
     0
  0
CLASS
  1
MAPIADMODULE
  2
MApiAdModule
  3
MApiAdServices
 90
     1024
280
     0
281
     0
  0
CLASS
  1
AMDTAMMENUSTATE
  2
AmdtAmMenuState
  3
DesignerAssemblies
 90
     1024
280
     0
281
     0
  0
CLASS
  1
ACAMPROJECT
  2
AcAmProject
  3
DesignerAssemblies
 90
     1024
280
     0
281
     0
  0
CLASS
  1
ACAMGRCOMPDEF
  2
AcAmGrCompDef
  3
DesignerAssemblies
 90
     1024
280
     0
281
     0
  0
CLASS
  1
ACCMCONTEXT
  2
AcCmContext
  3
DesignerAssemblies
 90
     1024
280
     0
281
     0
  0
CLASS
  1
ACAMCOMPDEF
  2
AcAmCompDef
  3
DesignerAssemblies
 90
     1024
280
     0
281
     0
  0
CLASS
  1
ACAMCOMPDEFMGR
  2
AcAmCompDefMgr
  3
DesignerAssemblies
 90
     1024
280
     0
281
     0
  0
CLASS
  1
AMCONTEXTMGR
  2
AcAmContextMgr
  3
DesignerAssemblies
 90
     1024
280
     0
281
     0
  0
CLASS
  1
ACAMCONTEXTMODELER
  2
AcAmContextModeler
  3
DesignerAssemblies
 90
     1024
280
     0
281
     0
  0
CLASS
  1
ACMDATADICTIONARY
  2
AcmDataDictionary
  3
"AcmSymBB|Product Description: AutoCAD Mechanical|Company: Autodesk, Inc."
 90
     1024
280
     0
281
     0
  0
CLASS
  1
ACMDATAENTRYBLOCK
  2
AcmDataEntryBlock
  3
AcmSymBB|Product Description: AutoCAD Mechanical|Company: Autodesk, Inc.
 90
     1024
280
     0
281
     0
  0
CLASS
  1
ACRFATTGENMGR
  2
AcRfAttGeneralMgr
  3
AcAttribServices
 90
     1024
280
     0
281
     0
  0
CLASS
  1
ACRFOBJATTMGR
  2
AcRfObjAttGroupMgr
  3
AcAttribServices
 90
     1024
280
     0
281
     0
  0
CLASS
  1
ACRFMCADAPIATTHOLDER
  2
AcRfMCADAPIAttHolder
  3
AcAttribServices
 90
     1024
280
     0
281
     0
  0
CLASS
  1
AMDTSYSATTR
  2
AmdtSystemAttribute
  3
AcAttribServices
 90
     1024
280
     0
281
     0
  0
CLASS
  1
CATALOGSTATE
  2
AcAmCatalogState
  3
DesignerAssemblies
 90
     1024
280
     0
281
     0
  0
CLASS
  1
ACAMGRCOMPDEFSET
  2
AcAmGrCompDefSet
  3
DesignerAssemblies
 90
     1024
280
     0
281
     0
  0
CLASS
  1
AMDTBROWSERDBTAB
  2
AmdtBrowserDbTab
  3
McadcomServices
 90
     1024
280
     0
281
     0
  0
CLASS
  1
CBROWSERAPPOBJECT
  2
CBrowserAppObject
  3
McadcomServices
 90
     1024
280
     0
281
     0
  0
CLASS
  1
DM_PLACEHOLDER
  2
AcDmSelsetPlaceholder
  3
AcMechDwgViewMgmt
 90
     1024
280
     0
281
     0
  0
CLASS
  1
ACMSTANDARDANSI
  2
AcmStandardANSI
  3
"Amdt_StdImp|Product Description: AutoCAD Mechanical|Company: Autodesk, Inc."
 90
     1024
280
     0
281
     0
  0
CLASS
  1
ACMSURFSTANDARDANSI
  2
AcmSurfTextStdANSI
  3
"Amdt_StdImp|Product Description: AutoCAD Mechanical|Company: Autodesk, Inc."
 90
     1024
280
     0
281
     0
  0
CLASS
  1
ACMFCFSTANDARDANSI
  2
AcmFCFStdANSI
  3
"Amdt_StdImp|Product Description: AutoCAD Mechanical|Company: Autodesk, Inc."
 90
     1024
280
     0
281
     0
  0
CLASS
  1
ACMWELDSTANDARDANSI
  2
AcmWeldingStdANSI
  3
"Amdt_StdImp|Product Description: AutoCAD Mechanical|Company: Autodesk, Inc."
 90
     1024
280
     0
281
     0
  0
CLASS
  1
ACMIDSTANDARDANSI
  2
AcmIdStdANSI
  3
"Amdt_StdImp|Product Description: AutoCAD Mechanical|Company: Autodesk, Inc."
 90
     1024
280
     0
281
     0
  0
CLASS
  1
ACMDATUMSTANDARDANSI
  2
AcmDatumStdANSI
  3
"Amdt_StdImp|Product Description: AutoCAD Mechanical|Company: Autodesk, Inc."
 90
     1024
280
     0
281
     0
  0
CLASS
  1
ACMBOMSTANDARDANSI
  2
AcmBOMStdANSI
  3
"Amdt_StdImp|Product Description: AutoCAD Mechanical|Company: Autodesk, Inc."
 90
     1024
280
     0
281
     0
  0
CLASS
  1
ACMDETAILSTANDARDANSI
  2
AmdtDetailSymStdANSI
  3
"Amdt_StdImp|Product Description: AutoCAD Mechanical|Company: Autodesk, Inc."
 90
     1024
280
     0
281
     0
  0
CLASS
  1
ACMSECTIONSTANDARDANSI
  2
AmdtSectionSymStdANSI
  3
"Amdt_StdImp|Product Description: AutoCAD Mechanical|Company: Autodesk, Inc."
 90
     1024
280
     0
281
     0
  0
CLASS
  1
ACMCENTERLINESTANDARDANSI
  2
AmdtCenterLineStdANSI
  3
"Amdt_StdImp|Product Description: AutoCAD Mechanical|Company: Autodesk, Inc."
 90
     1024
280
     0
281
     0
  0
CLASS
  1
ACMTHREADLINESTANDARDANSI
  2
AmdtThreadLineStdANSI
  3
"Amdt_StdImp|Product Description: AutoCAD Mechanical|Company: Autodesk, Inc."
 90
     1024
280
     0
281
     0
  0
CLASS
  1
ACMNOTESTANDARDANSI
  2
AmdtNoteStdANSI
  3
"Amdt_StdImp|Product Description: AutoCAD Mechanical|Company: Autodesk, Inc."
 90
     1024
280
     0
281
     0
  0
CLASS
  1
ACMTAPERSTANDARDANSI
  2
AcmTaperStdANSI
  3
"Amdt_StdImp|Product Description: AutoCAD Mechanical|Company: Autodesk, Inc."
 90
     1024
280
     0
281
     0
  0
CLASS
  1
ACMANOOTATIONVIEWSTANDARDANSI
  2
AmdtAnViewStdANSI
  3
"Amdt_StdImp|Product Description: AutoCAD Mechanical|Company: Autodesk, Inc."
 90
     1024
280
     0
281
     0
  0
CLASS
  1
ACAMGLAYSTD
  2
AcAmgLayStd
  3
"AmgLay|Product Description: AutoCAD Mechanical|Company: Autodesk, Inc."
 90
     1024
280
     0
281
     0
  0
CLASS
  1
ACAMGDIMSTD
  2
AcAmgDimStd
  3
"AmgDim|Product Description: AutoCAD Mechanical|Company: Autodesk, Inc."
 90
     1024
280
     0
281
     0
  0
CLASS
  1
ACAMGHOLECHARTSTDANSI
  2
AcAmgHoleChartStdANSI
  3
AmgDim|Product Description: AutoCAD Mechanical|Company: Autodesk, Inc.
 90
     1024
280
     0
281
     0
  0
CLASS
  1
AMGOBJPROPCFG
  2
AmgObjPropCfg
  3
"AmgLay|Product Description: AutoCAD Mechanical|Company: Autodesk, Inc."
 90
     1025
280
     0
281
     0
  0
CLASS
  1
ACAMGTITLESTD
  2
AcAmgTitleStd
  3
"AmgTitle|Product Description: AutoCAD Mechanical|Company: Autodesk, Inc."
 90
     4095
280
     0
281
     0
  0
CLASS
  1
AMDTNOTETEMPLATEDB
  2
AmdtNoteTemplateDB
  3
AcmSymBB|Product Description: AutoCAD Mechanical|Company: Autodesk, Inc.
 90
     1024
280
     0
281
     0
  0
CLASS
  1
LAYER_INDEX
  2
AcDbLayerIndex
  3
ObjectDBX Classes
 90
        0
280
     0
281
     0
  0
CLASS
  1
IDBUFFER
  2
AcDbIdBuffer
  3
ObjectDBX Classes
 90
        0
280
     0
281
     0
  0
CLASS
  1
DICTIONARYVAR
  2
AcDbDictionaryVar
  3
ObjectDBX Classes
 90
        0
280
     0
281
     0
  0
CLASS
  1
CELLSTYLEMAP
  2
AcDbCellStyleMap
  3
ObjectDBX Classes
 90
     1152
280
     0
281
     0
  0
CLASS
  1
ACDBPLACEHOLDER
  2
AcDbPlaceHolder
  3
ObjectDBX Classes
 90
        0
280
     0
281
     0
  0
CLASS
  1
LAYOUT
  2
AcDbLayout
  3
ObjectDBX Classes
 90
        0
280
     0
281
     0
  0
ENDSEC
  0
SECTION
  2
TABLES
  0
TABLE
  2
VPORT
  5
2AC7
330
0
100
AcDbSymbolTable
 70
     1
  0
VPORT
  5
2B37
330
2AC7
100
AcDbSymbolTableRecord
100
AcDbViewportTableRecord
  2
*ACTIVE
 70
     0
 10
0.0
 20
0.0
 11
1.0
 21
1.0
 12
0.0
 22
0.0
 13
0.0
 23
0.0
 14
1.0
 24
1.0
 15
0.0
 25
0.0
 16
0.0
 26
0.0
 36
1.0
 17
94.26270925237551
 27
-260.9939480444818
 37
0.0
 40
1566.623646876935
 41
1.712555066079295
 42
50.0
 43
0.0
 44
0.0
 50
0.0
 51
0.0
 71
     0
 72
   100
 73
     1
 74
     0
 75
     0
 76
     0
 77
     0
 78
     0
281
     0
 65
     0
110
0.0
120
0.0
130
0.0
111
1.0
121
0.0
131
0.0
112
0.0
122
1.0
132
0.0
 79
     0
146
0.0
  0
ENDTAB
  0
TABLE
  2
LTYPE
  5
2AC4
330
0
100
AcDbSymbolTable
 70
    19
  0
LTYPE
  5
2B21
330
2AC4
100
AcDbSymbolTableRecord
100
AcDbLinetypeTableRecord
  2
ByBlock
 70
     0
  3

 72
    65
 73
     0
 40
0.0
  0
LTYPE
  5
2B22
330
2AC4
100
AcDbSymbolTableRecord
100
AcDbLinetypeTableRecord
  2
ByLayer
 70
     0
  3

 72
    65
 73
     0
 40
0.0
  0
LTYPE
  5
2B23
330
2AC4
100
AcDbSymbolTableRecord
100
AcDbLinetypeTableRecord
  2
CONTINUOUS
 70
     0
  3
実線
 72
    65
 73
     0
 40
0.0
  0
LTYPE
  5
2B38
330
2AC4
100
AcDbSymbolTableRecord
100
AcDbLinetypeTableRecord
  2
DASHDOT
 70
     0
  3
____ _ ____ _ ____ _ ____ _ ____ _ ____ _ ____
 72
    65
 73
     4
 40
5.5
 49
4.0
 74
     0
 49
-0.6
 74
     0
 49
0.3
 74
     0
 49
-0.6
 74
     0
  0
LTYPE
  5
2B39
330
2AC4
100
AcDbSymbolTableRecord
100
AcDbLinetypeTableRecord
  2
HIDDEN
 70
     0
  3
Hidden __ __ __ __ __ __ __ __ __ __ __ __ __ _
 72
    65
 73
     2
 40
0.375
 49
0.25
 74
     0
 49
-0.125
 74
     0
  0
LTYPE
  5
2B3A
330
2AC4
100
AcDbSymbolTableRecord
100
AcDbLinetypeTableRecord
  2
PHANTOM2
 70
     0
  3
Phantom (.5x) ___ _ _ ___ _ _ ___ _ _ ___ _ _
 72
    65
 73
     6
 40
1.25
 49
0.625
 74
     0
 49
-0.125
 74
     0
 49
0.125
 74
     0
 49
-0.125
 74
     0
 49
0.125
 74
     0
 49
-0.125
 74
     0
  0
LTYPE
  5
2B3B
330
2AC4
100
AcDbSymbolTableRecord
100
AcDbLinetypeTableRecord
  2
CENTER
 70
     0
  3
Center ____ _ ____ _ ____ _ ____ _ ____ _ ____
 72
    65
 73
     4
 40
2.0
 49
1.25
 74
     0
 49
-0.25
 74
     0
 49
0.25
 74
     0
 49
-0.25
 74
     0
  0
LTYPE
  5
2B3C
330
2AC4
100
AcDbSymbolTableRecord
100
AcDbLinetypeTableRecord
  2
ASULTYPE
 70
     0
  3
実線
 72
    65
 73
     2
 40
3.0
 49
2.5
 74
     0
 49
0.5
 74
     0
  0
LTYPE
  5
2B3D
330
2AC4
100
AcDbSymbolTableRecord
100
AcDbLinetypeTableRecord
  2
ASVLTYPE
 70
     0
  3
__ __ __ __ __ __ __ __ __ __ __ __ __ __ __ __ __ __ __ __ __
 72
    65
 73
     2
 40
0.75
 49
0.5
 74
     0
 49
-0.25
 74
     0
  0
LTYPE
  5
2B3E
330
2AC4
100
AcDbSymbolTableRecord
100
AcDbLinetypeTableRecord
  2
AM_ISO02W050
 70
     0
  3
__ __ __ __ __ __ __ __ __ __ __ __ __ __ __
 72
    65
 73
     2
 40
7.5
 49
6.0
 74
     0
 49
-1.5
 74
     0
  0
LTYPE
  5
2B3F
330
2AC4
100
AcDbSymbolTableRecord
100
AcDbLinetypeTableRecord
  2
AM_ISO08W050
 70
     0
  3
____ . ____ . ____ . ____ . ____ . ____ . ____
 72
    65
 73
     4
 40
18.0
 49
12.0
 74
     0
 49
-1.5
 74
     0
 49
3.0
 74
     0
 49
-1.5
 74
     0
  0
LTYPE
  5
2B40
330
2AC4
100
AcDbSymbolTableRecord
100
AcDbLinetypeTableRecord
  2
AM_ISO09W050
 70
     0
  3
_____ . . _____ . . _____ . . ____ .. ____
 72
    65
 73
     6
 40
22.5
 49
12.0
 74
     0
 49
-1.5
 74
     0
 49
3.0
 74
     0
 49
-1.5
 74
     0
 49
3.0
 74
     0
 49
-1.5
 74
     0
  0
LTYPE
  5
2B41
330
2AC4
100
AcDbSymbolTableRecord
100
AcDbLinetypeTableRecord
  2
AMCONSTR
 70
     0
  3
_______________________
 72
    65
 73
     2
 40
9999.0
 49
9999.0
 74
     0
 49
0.0
 74
     0
  0
LTYPE
  5
2B42
330
2AC4
100
AcDbSymbolTableRecord
100
AcDbLinetypeTableRecord
  2
AM_ISO08W050X2
 70
     0
  3
__ . __ . __ . __ . __ . __
 72
    65
 73
     4
 40
9.0
 49
6.0
 74
     0
 49
-0.75
 74
     0
 49
1.5
 74
     0
 49
-0.75
 74
     0
  0
LTYPE
  5
2B43
330
2AC4
100
AcDbSymbolTableRecord
100
AcDbLinetypeTableRecord
  2
AM_ISO02W050X2
 70
     0
  3
 _ _ _ _ _ _ _ _ _ _ _ _
 72
    65
 73
     2
 40
3.75
 49
3.0
 74
     0
 49
-0.75
 74
     0
  0
LTYPE
  5
2B44
330
2AC4
100
AcDbSymbolTableRecord
100
AcDbLinetypeTableRecord
  2
AMZIGZAG
 70
     0
  3
/\/-/\/-/\/-/\/-/\/-/\/
 72
    65
 73
     2
 40
11.0001
 49
0.0001
 74
     0
 49
-11.0
 74
     0
  0
LTYPE
  5
2B45
330
2AC4
100
AcDbSymbolTableRecord
100
AcDbLinetypeTableRecord
  2
CENTER2
 70
     0
  3
Center (.5x) ___ _ ___ _ ___ _ ___ _ ___ _ ___
 72
    65
 73
     4
 40
1.125
 49
0.75
 74
     0
 49
-0.125
 74
     0
 49
0.125
 74
     0
 49
-0.125
 74
     0
  0
LTYPE
  5
2B46
330
2AC4
100
AcDbSymbolTableRecord
100
AcDbLinetypeTableRecord
  2
HIDDEN2
 70
     0
  3
Hidden (.5x) _ _ _ _ _ _ _ _ _ _ _ _ _ _ _ _ _
 72
    65
 73
     2
 40
0.1875
 49
0.125
 74
     0
 49
-0.0625
 74
     0
  0
LTYPE
  5
2B47
330
2AC4
100
AcDbSymbolTableRecord
100
AcDbLinetypeTableRecord
  2
AMZIGZAG2
 70
     0
  3
/\/-/\/-/\/-/\/-/\/-/\/
 72
    65
 73
     2
 40
0.4401
 49
0.0001
 74
     0
 49
-0.4400000000000003
 74
     0
  0
LTYPE
  5
2B48
330
2AC4
100
AcDbSymbolTableRecord
100
AcDbLinetypeTableRecord
  2
ACANSTGB
 70
     0
  3
__ . . __ . .
 72
    65
 73
     6
 40
0.35433070866
 49
0.15748031496
 74
     0
 49
-0.03937007874
 74
     0
 49
0.03937007874
 74
     0
 49
-0.03937007874
 74
     0
 49
0.03937007874
 74
     0
 49
-0.03937007874
 74
     0
  0
LTYPE
  5
2B49
330
2AC4
100
AcDbSymbolTableRecord
100
AcDbLinetypeTableRecord
  2
ACANSTGL
 70
     0
  3
_ _ _ _ _
 72
    65
 73
     2
 40
0.11811023622
 49
0.07874015748
 74
     0
 49
-0.03937007874
 74
     0
  0
ENDTAB
  0
TABLE
  2
LAYER
  5
2AC1
330
0
100
AcDbSymbolTable
 70
    13
  0
LAYER
  5
2B1B
102
{ACAD_XDICTIONARY
360
2C8B
102
}
330
2AC1
100
AcDbSymbolTableRecord
100
AcDbLayerTableRecord
  2
0
 70
     0
 62
     7
  6
CONTINUOUS
370
    -3
390
2ACE
  0
LAYER
  5
2B4A
102
{ACAD_XDICTIONARY
360
2C8D
102
}
330
2AC1
100
AcDbSymbolTableRecord
100
AcDbLayerTableRecord
  2
OUTLINE
 70
     0
 62
     3
  6
CONTINUOUS
370
    -3
390
2ACE
  0
LAYER
  5
2B4B
102
{ACAD_XDICTIONARY
360
2C8F
102
}
330
2AC1
100
AcDbSymbolTableRecord
100
AcDbLayerTableRecord
  2
SIZE
 70
     0
 62
    30
  6
CONTINUOUS
370
    -3
390
2ACE
  0
LAYER
  5
2B4C
102
{ACAD_XDICTIONARY
360
2C91
102
}
330
2AC1
100
AcDbSymbolTableRecord
100
AcDbLayerTableRecord
  2
BASIS
 70
     0
 62
     6
  6
DASHDOT
370
    -3
390
2ACE
  0
LAYER
  5
2B4D
102
{ACAD_XDICTIONARY
360
2C93
102
}
330
2AC1
100
AcDbSymbolTableRecord
100
AcDbLayerTableRecord
  2
DETAIL
 70
     0
 62
     5
  6
CONTINUOUS
370
    -3
390
2ACE
  0
LAYER
  5
2B4E
102
{ACAD_XDICTIONARY
360
2C95
102
}
330
2AC1
100
AcDbSymbolTableRecord
100
AcDbLayerTableRecord
  2
ARRANGE
 70
     0
 62
     1
  6
CONTINUOUS
370
    -3
390
2ACE
  0
LAYER
  5
2B4F
330
2AC1
100
AcDbSymbolTableRecord
100
AcDbLayerTableRecord
  2
DEFPOINTS
 70
     0
 62
     7
  6
CONTINUOUS
290
     0
370
    -3
390
2ACE
  0
LAYER
  5
2B50
102
{ACAD_XDICTIONARY
360
2C97
102
}
330
2AC1
100
AcDbSymbolTableRecord
100
AcDbLayerTableRecord
  2
ETC
 70
     0
 62
    61
  6
CONTINUOUS
370
    -3
390
2ACE
  0
LAYER
  5
2B51
102
{ACAD_XDICTIONARY
360
2C99
102
}
330
2AC1
100
AcDbSymbolTableRecord
100
AcDbLayerTableRecord
  2
FIX
 70
     0
 62
    11
  6
CONTINUOUS
370
    -3
390
2ACE
  0
LAYER
  5
2B52
102
{ACAD_XDICTIONARY
360
2C9B
102
}
330
2AC1
100
AcDbSymbolTableRecord
100
AcDbLayerTableRecord
  2
NOTE
 70
     0
 62
     4
  6
CONTINUOUS
370
    -3
390
2ACE
  0
LAYER
  5
2B53
102
{ACAD_XDICTIONARY
360
2C9D
102
}
330
2AC1
100
AcDbSymbolTableRecord
100
AcDbLayerTableRecord
  2
SERVICESPACE
 70
     0
 62
     2
  6
DASHDOT
370
    -3
390
2ACE
  0
LAYER
  5
2B54
102
{ACAD_XDICTIONARY
360
2C9F
102
}
330
2AC1
100
AcDbSymbolTableRecord
100
AcDbLayerTableRecord
  2
SYMBOLLINE
 70
     0
 62
    15
  6
CONTINUOUS
370
    -3
390
2ACE
  0
LAYER
  5
2B55
102
{ACAD_XDICTIONARY
360
2CA1
102
}
330
2AC1
100
AcDbSymbolTableRecord
100
AcDbLayerTableRecord
  2
DETAIL___1
 70
     0
 62
     5
  6
CONTINUOUS
370
    -3
390
2ACE
  0
ENDTAB
  0
TABLE
  2
STYLE
  5
2AC2
330
0
100
AcDbSymbolTable
 70
     5
  0
STYLE
  5
2B1C
330
2AC2
100
AcDbSymbolTableRecord
100
AcDbTextStyleTableRecord
  2
STANDARD
 70
     0
 40
64.0
 41
0.9
 50
0.0
 71
     0
 42
64.0
  3
SIMPLEX.shx
  4
BIGFONT.shx
  0
STYLE
  5
2B20
330
2AC2
100
AcDbSymbolTableRecord
100
AcDbTextStyleTableRecord
  2
ANNOTATIVE
 70
     0
 40
0.0
 41
1.0
 50
0.0
 71
     0
 42
0.2
  3
txt
  4

1001
ACADANNOTATIVE
1000
AnnotativeData
1002
{
1070
     1
1070
     1
1002
}
  0
STYLE
  5
2B56
330
2AC2
100
AcDbSymbolTableRecord
100
AcDbTextStyleTableRecord
  2

 70
     1
 40
0.0
 41
1.0
 50
0.0
 71
     0
 42
64.0
  3
genltshp.shx
  4

  0
STYLE
  5
2B57
330
2AC2
100
AcDbSymbolTableRecord
100
AcDbTextStyleTableRecord
  2
ACANSTS
 70
     0
 40
1.0
 41
1.0
 50
0.0
 71
     0
 42
64.0
  3
romans.shx
  4
extfont.shx
  0
STYLE
  5
2B58
330
2AC2
100
AcDbSymbolTableRecord
100
AcDbTextStyleTableRecord
  2
ACANSGDT
 70
     0
 40
0.0
 41
1.0
 50
0.0
 71
     0
 42
64.0
  3
amgdt.shx
  4

  0
ENDTAB
  0
TABLE
  2
VIEW
  5
2AC5
330
0
100
AcDbSymbolTable
 70
     1
  0
VIEW
  5
2B59
330
2AC5
100
AcDbSymbolTableRecord
100
AcDbViewTableRecord
  2
ALL
 70
     0
 40
4282.619807999997
 10
0.0
 20
41.30990399999999
 41
5940.0
 11
0.0
 21
0.0
 31
1.0
 12
0.0
 22
0.0
 32
0.0
 42
50.0
 43
0.0
 44
0.0
 50
0.0
 71
     0
281
     0
 72
     1
110
0.0
120
0.0
130
0.0
111
1.0
121
0.0
131
0.0
112
0.0
122
1.0
132
0.0
 79
     0
146
0.0
  0
ENDTAB
  0
TABLE
  2
UCS
  5
2AC6
330
0
100
AcDbSymbolTable
 70
     0
  0
ENDTAB
  0
TABLE
  2
APPID
  5
2AC8
330
0
100
AcDbSymbolTable
 70
    29
  0
APPID
  5
2B1D
330
2AC8
100
AcDbSymbolTableRecord
100
AcDbRegAppTableRecord
  2
ACAD
 70
     0
  0
APPID
  5
2B24
330
2AC8
100
AcDbSymbolTableRecord
100
AcDbRegAppTableRecord
  2
ACADANNOTATIVE
 70
     0
  0
APPID
  5
2B2E
330
2AC8
100
AcDbSymbolTableRecord
100
AcDbRegAppTableRecord
  2
ACAD_MLEADERVER
 70
     0
  0
APPID
  5
2B5A
330
2AC8
100
AcDbSymbolTableRecord
100
AcDbRegAppTableRecord
  2
GENIUS_GENDIM_13
 70
     0
  0
APPID
  5
2B5B
330
2AC8
100
AcDbSymbolTableRecord
100
AcDbRegAppTableRecord
  2
GENIUS_GENDTOL_13
 70
     0
  0
APPID
  5
2B5C
330
2AC8
100
AcDbSymbolTableRecord
100
AcDbRegAppTableRecord
  2
GENIUS_GE3DTOL_13
 70
     0
  0
APPID
  5
2B5D
330
2AC8
100
AcDbSymbolTableRecord
100
AcDbRegAppTableRecord
  2
MCAD_NO_VIS
 70
     0
  0
APPID
  5
2B5E
330
2AC8
100
AcDbSymbolTableRecord
100
AcDbRegAppTableRecord
  2
ACAD_TEMP_GRAPHIC
 70
     0
  0
APPID
  5
2B5F
330
2AC8
100
AcDbSymbolTableRecord
100
AcDbRegAppTableRecord
  2
AD_DRAW
 70
     0
  0
APPID
  5
2B60
330
2AC8
100
AcDbSymbolTableRecord
100
AcDbRegAppTableRecord
  2
ACATTRIBSERVICES
 70
     0
  0
APPID
  5
2B61
330
2AC8
100
AcDbSymbolTableRecord
100
AcDbRegAppTableRecord
  2
ASURF_PCURVE_APPNAME
 70
     0
  0
APPID
  5
2B62
330
2AC8
100
AcDbSymbolTableRecord
100
AcDbRegAppTableRecord
  2
AMG_3D2D_5_0
 70
     0
  0
APPID
  5
2B63
330
2AC8
100
AcDbSymbolTableRecord
100
AcDbRegAppTableRecord
  2
DESIGNERASSEMBLIES
 70
     0
  0
APPID
  5
2B64
330
2AC8
100
AcDbSymbolTableRecord
100
AcDbRegAppTableRecord
  2
ACADM_DIM_EDIT
 70
     0
  0
APPID
  5
2B65
330
2AC8
100
AcDbSymbolTableRecord
100
AcDbRegAppTableRecord
  2
AMDT_DM_ADJ
 70
     0
  0
APPID
  5
2B66
330
2AC8
100
AcDbSymbolTableRecord
100
AcDbRegAppTableRecord
  2
ACAD_DSTYLE_DIMARC_LENGTH_
 70
     0
  0
APPID
  5
2B67
330
2AC8
100
AcDbSymbolTableRecord
100
AcDbRegAppTableRecord
  2
ACAD_DSTYLE_DIMJOGGED_JOGA
 70
     0
  0
APPID
  5
2B68
330
2AC8
100
AcDbSymbolTableRecord
100
AcDbRegAppTableRecord
  2
ACAD_PSEXT
 70
     0
  0
APPID
  5
2B69
330
2AC8
100
AcDbSymbolTableRecord
100
AcDbRegAppTableRecord
  2
ACAD_EXEMPT_FROM_CAD_STANDARDS
 70
     0
  0
APPID
  5
2B6A
330
2AC8
100
AcDbSymbolTableRecord
100
AcDbRegAppTableRecord
  2
ACAD_DSTYLE_DIMJAG
 70
     0
  0
APPID
  5
2B6B
330
2AC8
100
AcDbSymbolTableRecord
100
AcDbRegAppTableRecord
  2
ACAD_DSTYLE_DIMTALN
 70
     0
  0
APPID
  5
2B6C
330
2AC8
100
AcDbSymbolTableRecord
100
AcDbRegAppTableRecord
  2
AMG_3D2D_5_00
 70
     0
  0
APPID
  5
2B6D
330
2AC8
100
AcDbSymbolTableRecord
100
AcDbRegAppTableRecord
  2
AMG_3D2D_5_01
 70
     0
  0
APPID
  5
2B6E
330
2AC8
100
AcDbSymbolTableRecord
100
AcDbRegAppTableRecord
  2
AMG_3D2D_5_02
 70
     0
  0
APPID
  5
2C32
330
2AC8
100
AcDbSymbolTableRecord
100
AcDbRegAppTableRecord
  2
AMG_3D2D_5.0
 70
     0
  0
APPID
  5
2CCB
330
2AC8
100
AcDbSymbolTableRecord
100
AcDbRegAppTableRecord
  2
ACAD_DSTYLE_DIMARC_LENGTH_SYMBOL
 70
     0
  0
APPID
  5
2CCC
330
2AC8
100
AcDbSymbolTableRecord
100
AcDbRegAppTableRecord
  2
ACAD_DSTYLE_DIM_LINETYPE
 70
     0
  0
APPID
  5
2CCD
330
2AC8
100
AcDbSymbolTableRecord
100
AcDbRegAppTableRecord
  2
ACAD_DSTYLE_DIM_EXT1_LINETYPE
 70
     0
  0
APPID
  5
2CCE
330
2AC8
100
AcDbSymbolTableRecord
100
AcDbRegAppTableRecord
  2
ACAD_DSTYLE_DIM_EXT2_LINETYPE
 70
     0
  0
ENDTAB
  0
TABLE
  2
DIMSTYLE
  5
2AC9
330
0
100
AcDbSymbolTable
 70
    10
100
AcDbDimStyleTable
 71
     1
340
2B6F
  0
DIMSTYLE
105
2B1E
330
2AC9
100
AcDbSymbolTableRecord
100
AcDbDimStyleTableRecord
  2
STANDARD
 70
     0
 41
12.0
 42
20.0
 44
20.0
 77
     1
 78
     8
140
64.0
141
0.0
147
10.0
172
     1
275
     1
279
     2
284
     7
285
     7
286
     7
340
2B1C
  0
DIMSTYLE
105
2B1F
330
2AC9
100
AcDbSymbolTableRecord
100
AcDbDimStyleTableRecord
  2
ANNOTATIVE
 70
     0
275
     1
279
     2
284
     7
285
     7
286
     7
340
2B1C
1001
ACADANNOTATIVE
1000
AnnotativeData
1002
{
1070
     1
1070
     1
1002
}
  0
DIMSTYLE
105
2B6F
330
2AC9
100
AcDbSymbolTableRecord
100
AcDbDimStyleTableRecord
  2
AM_ANSI
 70
     0
  4
mm
 41
0.12
 42
0.05
 43
0.5
 44
0.1
 47
0.1
 48
0.1
 78
     7
 79
     2
140
0.12
141
0.0
146
0.71
147
0.06
176
   256
177
   256
178
     2
274
     4
284
     7
340
2B1C
371
    -1
372
    -1
1001
ACAD_DSTYLE_DIMARC_LENGTH_SYMBOL
1070
   379
1070
     1
1001
ACAD_DSTYLE_DIM_LINETYPE
1070
   380
1005
2B21
1001
ACAD_DSTYLE_DIM_EXT1_LINETYPE
1070
   381
1005
2B21
1001
ACAD_DSTYLE_DIM_EXT2_LINETYPE
1070
   382
1005
2B21
  0
DIMSTYLE
105
2B70
330
2AC9
100
AcDbSymbolTableRecord
100
AcDbDimStyleTableRecord
  2
AM_ANSI$3
 70
     0
  4
mm
 41
0.12
 42
0.05
 43
0.5
 44
0.1
 47
0.1
 48
0.1
 78
     7
 79
     2
140
0.12
141
0.0
146
0.71
147
0.06
176
   256
177
   256
178
     2
274
     4
284
     7
288
     1
289
     0
340
2B1C
371
    -1
372
    -1
1001
ACAD_DSTYLE_DIMARC_LENGTH_SYMBOL
1070
   379
1070
     1
1001
ACAD_DSTYLE_DIM_LINETYPE
1070
   380
1005
2B21
1001
ACAD_DSTYLE_DIM_EXT1_LINETYPE
1070
   381
1005
2B21
1001
ACAD_DSTYLE_DIM_EXT2_LINETYPE
1070
   382
1005
2B21
  0
DIMSTYLE
105
2B71
330
2AC9
100
AcDbSymbolTableRecord
100
AcDbDimStyleTableRecord
  2
AM_ANSI$4
 70
     0
  4
mm
 41
0.12
 42
0.05
 43
0.5
 44
0.1
 47
0.1
 48
0.1
 78
     7
 79
     2
140
0.12
141
0.0
146
0.71
147
0.06
176
   256
177
   256
178
     2
274
     4
284
     7
340
2B1C
371
    -1
372
    -1
1001
ACAD_DSTYLE_DIMARC_LENGTH_SYMBOL
1070
   379
1070
     1
1001
ACAD_DSTYLE_DIM_LINETYPE
1070
   380
1005
2B21
1001
ACAD_DSTYLE_DIM_EXT1_LINETYPE
1070
   381
1005
2B21
1001
ACAD_DSTYLE_DIM_EXT2_LINETYPE
1070
   382
1005
2B21
  0
DIMSTYLE
105
2B72
330
2AC9
100
AcDbSymbolTableRecord
100
AcDbDimStyleTableRecord
  2
AM_ANSI$7
 70
     0
  4
mm
 41
0.12
 42
0.05
 43
0.5
 44
0.1
 47
0.1
 48
0.1
 78
     7
 79
     2
140
0.12
141
0.0
146
0.71
147
0.06
176
   256
177
   256
178
     2
274
     4
284
     7
340
2B1C
371
    -1
372
    -1
1001
ACAD_DSTYLE_DIMARC_LENGTH_SYMBOL
1070
   379
1070
     1
1001
ACAD_DSTYLE_DIM_LINETYPE
1070
   380
1005
2B21
1001
ACAD_DSTYLE_DIM_EXT1_LINETYPE
1070
   381
1005
2B21
1001
ACAD_DSTYLE_DIM_EXT2_LINETYPE
1070
   382
1005
2B21
  0
DIMSTYLE
105
2B73
330
2AC9
100
AcDbSymbolTableRecord
100
AcDbDimStyleTableRecord
  2
AM_ANSI$SF
 70
     0
  4
mm
 41
0.12
 42
0.05
 43
0.5
 44
0.1
 47
0.1
 48
0.1
 75
     1
 76
     1
 78
     7
 79
     2
140
0.12
141
0.0
146
0.71
147
0.06
176
   256
177
   256
178
     2
274
     4
284
     7
340
2B1C
371
    -1
372
    -1
1001
ACAD_DSTYLE_DIMARC_LENGTH_SYMBOL
1070
   379
1070
     1
1001
ACAD_DSTYLE_DIM_LINETYPE
1070
   380
1005
2B21
1001
ACAD_DSTYLE_DIM_EXT1_LINETYPE
1070
   381
1005
2B21
1001
ACAD_DSTYLE_DIM_EXT2_LINETYPE
1070
   382
1005
2B21
  0
DIMSTYLE
105
2B74
330
2AC9
100
AcDbSymbolTableRecord
100
AcDbDimStyleTableRecord
  2
AM_ANSI$SH
 70
     0
  4
mm
 41
0.12
 42
0.05
 43
0.5
 44
0.1
 47
0.1
 48
0.1
 75
     1
 76
     1
 78
     7
 79
     2
140
0.12
141
0.0
146
0.71
147
0.06
173
     1
176
   256
177
   256
178
     2
274
     4
284
     7
340
2B1C
343
2B88
371
    -1
372
    -1
1001
ACAD_DSTYLE_DIMARC_LENGTH_SYMBOL
1070
   379
1070
     1
1001
ACAD_DSTYLE_DIM_LINETYPE
1070
   380
1005
2B21
1001
ACAD_DSTYLE_DIM_EXT1_LINETYPE
1070
   381
1005
2B21
1001
ACAD_DSTYLE_DIM_EXT2_LINETYPE
1070
   382
1005
2B21
  0
DIMSTYLE
105
2B75
330
2AC9
100
AcDbSymbolTableRecord
100
AcDbDimStyleTableRecord
  2
STANDARD1
 70
     0
 40
6.0
 41
2.5
 42
0.625
 43
6.0
 44
1.25
 47
1.0
 48
0.5
 77
     1
 78
     8
140
2.5
141
0.0
146
0.6
147
1.0
173
     1
275
     1
279
     2
284
     7
285
     7
286
     7
340
2B1C
  0
DIMSTYLE
105
2B76
330
2AC9
100
AcDbSymbolTableRecord
100
AcDbDimStyleTableRecord
  2
STANDARD$0
 70
     0
 41
12.0
 42
20.0
 44
20.0
 73
     0
 74
     0
 77
     1
 78
     8
140
64.0
141
0.0
147
10.0
172
     1
275
     1
279
     2
284
     7
285
     7
286
     7
340
2B1C
  0
ENDTAB
  0
TABLE
  2
BLOCK_RECORD
  5
2AC0
330
0
100
AcDbSymbolTable
 70
    26
  0
BLOCK_RECORD
  5
2B33
102
{ACAD_XDICTIONARY
360
2CA3
102
}
330
2AC0
100
AcDbSymbolTableRecord
100
AcDbBlockTableRecord
  2
*Model_Space
340
2B36
  0
BLOCK_RECORD
  5
2B2F
330
2AC0
100
AcDbSymbolTableRecord
100
AcDbBlockTableRecord
  2
*Paper_Space
340
2B32
  0
BLOCK_RECORD
  5
2B7E
330
2AC0
100
AcDbSymbolTableRecord
100
AcDbBlockTableRecord
  2
$MODEL_SPACE
340
0
  0
BLOCK_RECORD
  5
2B80
330
2AC0
100
AcDbSymbolTableRecord
100
AcDbBlockTableRecord
  2
$PAPER_SPACE
340
0
  0
BLOCK_RECORD
  5
2B82
330
2AC0
100
AcDbSymbolTableRecord
100
AcDbBlockTableRecord
  2
_ORIGIN
340
0
  0
BLOCK_RECORD
  5
2B84
330
2AC0
100
AcDbSymbolTableRecord
100
AcDbBlockTableRecord
  2
_DOTBLANK
340
0
102
{BLKREFS
331
202C
331
202D
331
2035
331
2036
331
203E
331
203F
331
2047
331
2048
331
2052
331
2053
331
205D
331
205E
331
2A5E
331
2A5F
331
2A63
331
2A64
331
2A68
331
2A69
331
2A6F
331
2A70
331
2A74
331
2A75
331
2A79
331
2A7A
102
}
  0
BLOCK_RECORD
  5
2B86
330
2AC0
100
AcDbSymbolTableRecord
100
AcDbBlockTableRecord
  2
_OPEN30
340
0
102
{BLKREFS
331
2199
331
2586
331
2857
102
}
  0
BLOCK_RECORD
  5
2B88
330
2AC0
100
AcDbSymbolTableRecord
100
AcDbBlockTableRecord
  2
GENAXEH
340
0
  0
BLOCK_RECORD
  5
2B8A
330
2AC0
100
AcDbSymbolTableRecord
100
AcDbBlockTableRecord
  2
*U6
340
0
  0
BLOCK_RECORD
  5
2B8C
330
2AC0
100
AcDbSymbolTableRecord
100
AcDbBlockTableRecord
  2
*D7
340
0
  0
BLOCK_RECORD
  5
2B8E
330
2AC0
100
AcDbSymbolTableRecord
100
AcDbBlockTableRecord
  2
*U8
340
0
102
{BLKREFS
331
202E
102
}
  0
BLOCK_RECORD
  5
2B90
330
2AC0
100
AcDbSymbolTableRecord
100
AcDbBlockTableRecord
  2
*D9
340
0
  0
BLOCK_RECORD
  5
2B92
330
2AC0
100
AcDbSymbolTableRecord
100
AcDbBlockTableRecord
  2
*U10
340
0
102
{BLKREFS
331
2037
102
}
  0
BLOCK_RECORD
  5
2B94
330
2AC0
100
AcDbSymbolTableRecord
100
AcDbBlockTableRecord
  2
*D11
340
0
  0
BLOCK_RECORD
  5
2B96
330
2AC0
100
AcDbSymbolTableRecord
100
AcDbBlockTableRecord
  2
*U12
340
0
102
{BLKREFS
331
2040
102
}
  0
BLOCK_RECORD
  5
2B98
330
2AC0
100
AcDbSymbolTableRecord
100
AcDbBlockTableRecord
  2
*D13
340
0
  0
BLOCK_RECORD
  5
2B9A
330
2AC0
100
AcDbSymbolTableRecord
100
AcDbBlockTableRecord
  2
*U14
340
0
102
{BLKREFS
331
2049
102
}
  0
BLOCK_RECORD
  5
2B9C
330
2AC0
100
AcDbSymbolTableRecord
100
AcDbBlockTableRecord
  2
*D15
340
0
  0
BLOCK_RECORD
  5
2B9E
330
2AC0
100
AcDbSymbolTableRecord
100
AcDbBlockTableRecord
  2
*U16
340
0
102
{BLKREFS
331
2054
102
}
  0
BLOCK_RECORD
  5
2BA0
330
2AC0
100
AcDbSymbolTableRecord
100
AcDbBlockTableRecord
  2
*D17
340
0
  0
BLOCK_RECORD
  5
2BA2
330
2AC0
100
AcDbSymbolTableRecord
100
AcDbBlockTableRecord
  2
*U18
340
0
102
{BLKREFS
331
205F
102
}
  0
BLOCK_RECORD
  5
2BA4
330
2AC0
100
AcDbSymbolTableRecord
100
AcDbBlockTableRecord
  2
*U19
340
0
  0
BLOCK_RECORD
  5
2BA6
330
2AC0
100
AcDbSymbolTableRecord
100
AcDbBlockTableRecord
  2
*U20
340
0
  0
BLOCK_RECORD
  5
2BA8
330
2AC0
100
AcDbSymbolTableRecord
100
AcDbBlockTableRecord
  2
*U21
340
0
  0
BLOCK_RECORD
  5
2BAA
330
2AC0
100
AcDbSymbolTableRecord
100
AcDbBlockTableRecord
  2
*U22
340
0
102
{BLKREFS
331
2A2E
102
}
  0
BLOCK_RECORD
  5
2BAC
330
2AC0
100
AcDbSymbolTableRecord
100
AcDbBlockTableRecord
  2
*X23
340
0
102
{BLKREFS
331
2A53
102
}
  0
BLOCK_RECORD
  5
2BAE
330
2AC0
100
AcDbSymbolTableRecord
100
AcDbBlockTableRecord
  2
*X24
340
0
102
{BLKREFS
331
2A54
102
}
  0
ENDTAB
  0
ENDSEC
  0
SECTION
  2
BLOCKS
  0
BLOCK
  5
2B34
330
2B33
100
AcDbEntity
  8
0
100
AcDbBlockBegin
  2
*Model_Space
 70
     0
 10
0.0
 20
0.0
 30
0.0
  3
*Model_Space
  1

  0
ENDBLK
  5
2B35
330
2B33
100
AcDbEntity
  8
0
100
AcDbBlockEnd
  0
BLOCK
  5
2B30
330
2B2F
100
AcDbEntity
 67
     1
  8
0
100
AcDbBlockBegin
  2
*Paper_Space
 70
     0
 10
0.0
 20
0.0
 30
0.0
  3
*Paper_Space
  1

  0
ENDBLK
  5
2B31
330
2B2F
100
AcDbEntity
 67
     1
  8
0
100
AcDbBlockEnd
  0
BLOCK
  5
2B7F
330
2B7E
100
AcDbEntity
  8
0
100
AcDbBlockBegin
  2
$MODEL_SPACE
 70
     0
 10
0.0
 20
0.0
 30
0.0
  3
$MODEL_SPACE
  1

  0
ENDBLK
  5
2706
330
2B7E
100
AcDbEntity
  8
0
100
AcDbBlockEnd
  0
BLOCK
  5
2B81
330
2B80
100
AcDbEntity
  8
0
100
AcDbBlockBegin
  2
$PAPER_SPACE
 70
     0
 10
0.0
 20
0.0
 30
0.0
  3
$PAPER_SPACE
  1

  0
ENDBLK
  5
2702
330
2B80
100
AcDbEntity
  8
0
100
AcDbBlockEnd
  0
BLOCK
  5
2B83
330
2B82
100
AcDbEntity
  8
0
100
AcDbBlockBegin
  2
_ORIGIN
 70
     0
 10
0.0
 20
0.0
 30
0.0
  3
_ORIGIN
  1

  0
CIRCLE
  5
880
330
2B82
100
AcDbEntity
  8
0
  6
Continuous
 62
     7
100
AcDbCircle
 10
0.0
 20
0.0
 30
0.0
 40
0.5
  0
LINE
  5
881
330
2B82
100
AcDbEntity
  8
0
  6
Continuous
 62
     7
100
AcDbLine
 10
0.0
 20
0.0
 30
0.0
 11
-1.0
 21
0.0
 31
0.0
  0
ENDBLK
  5
882
330
2B82
100
AcDbEntity
  8
0
100
AcDbBlockEnd
  0
BLOCK
  5
2B85
330
2B84
100
AcDbEntity
  8
0
 62
     1
100
AcDbBlockBegin
  2
_DOTBLANK
 70
     0
 10
0.0
 20
0.0
 30
0.0
  3
_DOTBLANK
  1

  0
CIRCLE
  5
AB3
330
2B84
100
AcDbEntity
  8
0
  6
ByBlock
 62
     0
100
AcDbCircle
 10
0.0
 20
0.0
 30
0.0
 40
0.5
  0
LINE
  5
AB4
330
2B84
100
AcDbEntity
  8
0
  6
ByBlock
 62
     0
100
AcDbLine
 10
-0.5
 20
0.0
 30
0.0
 11
-1.0
 21
0.0
 31
0.0
  0
ENDBLK
  5
AB6
330
2B84
100
AcDbEntity
  8
0
 62
     1
100
AcDbBlockEnd
  0
BLOCK
  5
2B87
330
2B86
100
AcDbEntity
  8
0
 62
     1
100
AcDbBlockBegin
  2
_OPEN30
 70
     0
 10
0.0
 20
0.0
 30
0.0
  3
_OPEN30
  1

  0
LINE
  5
AB8
330
2B86
100
AcDbEntity
  8
0
  6
ByBlock
 62
     0
100
AcDbLine
 10
-1.0
 20
0.26794919
 30
0.0
 11
0.0
 21
0.0
 31
0.0
  0
LINE
  5
AB9
330
2B86
100
AcDbEntity
  8
0
  6
ByBlock
 62
     0
100
AcDbLine
 10
0.0
 20
0.0
 30
0.0
 11
-1.0
 21
-0.26794919
 31
0.0
  0
LINE
  5
ABA
330
2B86
100
AcDbEntity
  8
0
  6
ByBlock
 62
     0
100
AcDbLine
 10
0.0
 20
0.0
 30
0.0
 11
-1.0
 21
0.0
 31
0.0
  0
ENDBLK
  5
ABC
330
2B86
100
AcDbEntity
  8
0
 62
     1
100
AcDbBlockEnd
  0
BLOCK
  5
2B89
330
2B88
100
AcDbEntity
  8
0
100
AcDbBlockBegin
  2
GENAXEH
 70
     0
 10
0.0
 20
0.0
 30
0.0
  3
GENAXEH
  1

  0
LINE
  5
FDB
330
2B88
100
AcDbEntity
  8
0
100
AcDbLine
 10
-1.0
 20
0.0
 30
0.0
 11
1.0
 21
0.0
 31
0.0
  0
ENDBLK
  5
FDD
330
2B88
100
AcDbEntity
  8
0
100
AcDbBlockEnd
  0
BLOCK
  5
2B8B
330
2B8A
100
AcDbEntity
  8
0
100
AcDbBlockBegin
  2
*U6
 70
     1
 10
0.0
 20
0.0
 30
0.0
  3
*U6
  1

  0
ENDBLK
  5
1ED4
330
2B8A
100
AcDbEntity
  8
0
100
AcDbBlockEnd
  0
BLOCK
  5
2B8D
330
2B8C
100
AcDbEntity
  8
0
100
AcDbBlockBegin
  2
*D7
 70
     1
 10
0.0
 20
0.0
 30
0.0
  3
*D7
  1

  0
LINE
  5
2029
330
2B8C
100
AcDbEntity
  8
SIZE
 62
     0
100
AcDbLine
 10
-135.5
 20
-449.4732256776551
 30
0.0
 11
-135.5
 21
-638.0173952306003
 31
0.0
  0
LINE
  5
202A
330
2B8C
100
AcDbEntity
  8
SIZE
 62
     0
100
AcDbLine
 10
135.5
 20
-449.4732256776551
 30
0.0
 11
135.5
 21
-638.0173952306003
 31
0.0
  0
LINE
  5
202B
330
2B8C
100
AcDbEntity
  8
SIZE
 62
     0
100
AcDbLine
 10
-123.5
 20
-618.0173952306001
 30
0.0
 11
123.5
 21
-618.0173952306001
 31
0.0
  0
INSERT
  5
202C
330
2B8C
100
AcDbEntity
  8
SIZE
 62
     0
100
AcDbBlockReference
  2
_DOTBLANK
 10
-135.5
 20
-618.0173952306001
 30
0.0
 41
12.0
 42
12.0
 43
12.0
 50
180.0
  0
INSERT
  5
202D
330
2B8C
100
AcDbEntity
  8
SIZE
 62
     0
100
AcDbBlockReference
  2
_DOTBLANK
 10
135.5
 20
-618.0173952306001
 30
0.0
 41
12.0
 42
12.0
 43
12.0
  0
INSERT
  5
202E
330
2B8C
100
AcDbEntity
  8
0
100
AcDbBlockReference
  2
*U8
 10
0.0
 20
0.0
 30
0.0
  0
POINT
  5
202F
330
2B8C
100
AcDbEntity
  8
DEFPOINTS
 62
     0
100
AcDbPoint
 10
-135.5
 20
-429.473225677655
 30
0.0
  0
POINT
  5
2030
330
2B8C
100
AcDbEntity
  8
DEFPOINTS
 62
     0
100
AcDbPoint
 10
135.5
 20
-429.473225677655
 30
0.0
  0
POINT
  5
2031
330
2B8C
100
AcDbEntity
  8
DEFPOINTS
 62
     0
100
AcDbPoint
 10
135.5
 20
-618.0173952306001
 30
0.0
  0
ENDBLK
  5
1FDF
330
2B8C
100
AcDbEntity
  8
0
100
AcDbBlockEnd
  0
BLOCK
  5
2B8F
330
2B8E
100
AcDbEntity
  8
0
100
AcDbBlockBegin
  2
*U8
 70
     1
 10
0.0
 20
0.0
 30
0.0
  3
*U8
  1

  0
TEXT
  5
21A6
330
2B8E
100
AcDbEntity
  8
SIZE
 62
     0
100
AcDbText
 10
-61.7142857142857
 20
-608.0173952306003
 30
0.0
 40
64.0
  1
271
 41
0.9
100
AcDbText
  0
ENDBLK
  5
21A8
330
2B8E
100
AcDbEntity
  8
0
100
AcDbBlockEnd
  0
BLOCK
  5
2B91
330
2B90
100
AcDbEntity
  8
0
100
AcDbBlockBegin
  2
*D9
 70
     1
 10
0.0
 20
0.0
 30
0.0
  3
*D9
  1

  0
LINE
  5
2032
330
2B90
100
AcDbEntity
  8
SIZE
 62
     0
100
AcDbLine
 10
143.7000000000007
 20
-430.0
 30
0.0
 11
304.6432844803784
 21
-430.0
 31
0.0
  0
LINE
  5
2033
330
2B90
100
AcDbEntity
  8
SIZE
 62
     0
100
AcDbLine
 10
177.5
 20
-0.0000000000000057
 30
0.0
 11
304.6432844803785
 21
-0.0000000000000417
 31
0.0
  0
LINE
  5
2034
330
2B90
100
AcDbEntity
  8
SIZE
 62
     0
100
AcDbLine
 10
284.6432844803784
 20
-418.0
 30
0.0
 11
284.6432844803785
 21
-12.00000000000003
 31
0.0
  0
INSERT
  5
2035
330
2B90
100
AcDbEntity
  8
SIZE
 62
     0
100
AcDbBlockReference
  2
_DOTBLANK
 10
284.6432844803784
 20
-430.0
 30
0.0
 41
12.0
 42
12.0
 43
12.0
 50
270.0
  0
INSERT
  5
2036
330
2B90
100
AcDbEntity
  8
SIZE
 62
     0
100
AcDbBlockReference
  2
_DOTBLANK
 10
284.6432844803785
 20
-0.000000000000036
 30
0.0
 41
12.0
 42
12.0
 43
12.0
 50
90.0
  0
INSERT
  5
2037
330
2B90
100
AcDbEntity
  8
0
100
AcDbBlockReference
  2
*U10
 10
0.0
 20
0.0
 30
0.0
  0
POINT
  5
2038
330
2B90
100
AcDbEntity
  8
DEFPOINTS
 62
     0
100
AcDbPoint
 10
123.7000000000007
 20
-430.0
 30
0.0
  0
POINT
  5
2039
330
2B90
100
AcDbEntity
  8
DEFPOINTS
 62
     0
100
AcDbPoint
 10
157.5
 20
0.0
 30
0.0
  0
POINT
  5
203A
330
2B90
100
AcDbEntity
  8
DEFPOINTS
 62
     0
100
AcDbPoint
 10
284.6432844803785
 20
-0.000000000000036
 30
0.0
  0
ENDBLK
  5
1FEB
330
2B90
100
AcDbEntity
  8
0
100
AcDbBlockEnd
  0
BLOCK
  5
2B93
330
2B92
100
AcDbEntity
  8
0
100
AcDbBlockBegin
  2
*U10
 70
     1
 10
0.0
 20
0.0
 30
0.0
  3
*U10
  1

  0
TEXT
  5
21AA
330
2B92
100
AcDbEntity
  8
SIZE
 62
     0
100
AcDbText
 10
274.6432844803785
 20
-289.0571428571429
 30
0.0
 40
64.0
  1
430
 50
90.0
 41
0.9
100
AcDbText
  0
ENDBLK
  5
21AC
330
2B92
100
AcDbEntity
  8
0
100
AcDbBlockEnd
  0
BLOCK
  5
2B95
330
2B94
100
AcDbEntity
  8
0
100
AcDbBlockBegin
  2
*D11
 70
     1
 10
0.0
 20
0.0
 30
0.0
  3
*D11
  1

  0
LINE
  5
203B
330
2B94
100
AcDbEntity
  8
SIZE
 62
     0
100
AcDbLine
 10
-140.0
 20
32.5
 30
0.0
 11
-140.0
 21
136.4516878685499
 31
0.0
  0
LINE
  5
203C
330
2B94
100
AcDbEntity
  8
SIZE
 62
     0
100
AcDbLine
 10
140.0
 20
32.5
 30
0.0
 11
140.0
 21
136.4516878685499
 31
0.0
  0
LINE
  5
203D
330
2B94
100
AcDbEntity
  8
SIZE
 62
     0
100
AcDbLine
 10
-128.0
 20
116.4516878685499
 30
0.0
 11
128.0
 21
116.4516878685499
 31
0.0
  0
INSERT
  5
203E
330
2B94
100
AcDbEntity
  8
SIZE
 62
     0
100
AcDbBlockReference
  2
_DOTBLANK
 10
-140.0
 20
116.4516878685499
 30
0.0
 41
12.0
 42
12.0
 43
12.0
 50
180.0
  0
INSERT
  5
203F
330
2B94
100
AcDbEntity
  8
SIZE
 62
     0
100
AcDbBlockReference
  2
_DOTBLANK
 10
140.0
 20
116.4516878685499
 30
0.0
 41
12.0
 42
12.0
 43
12.0
  0
INSERT
  5
2040
330
2B94
100
AcDbEntity
  8
0
100
AcDbBlockReference
  2
*U12
 10
0.0
 20
0.0
 30
0.0
  0
POINT
  5
2041
330
2B94
100
AcDbEntity
  8
DEFPOINTS
 62
     0
100
AcDbPoint
 10
-140.0
 20
12.5
 30
0.0
  0
POINT
  5
2042
330
2B94
100
AcDbEntity
  8
DEFPOINTS
 62
     0
100
AcDbPoint
 10
140.0
 20
12.5
 30
0.0
  0
POINT
  5
2043
330
2B94
100
AcDbEntity
  8
DEFPOINTS
 62
     0
100
AcDbPoint
 10
140.0
 20
116.4516878685499
 30
0.0
  0
ENDBLK
  5
1FF7
330
2B94
100
AcDbEntity
  8
0
100
AcDbBlockEnd
  0
BLOCK
  5
2B97
330
2B96
100
AcDbEntity
  8
0
100
AcDbBlockBegin
  2
*U12
 70
     1
 10
0.0
 20
0.0
 30
0.0
  3
*U12
  1

  0
TEXT
  5
21AE
330
2B96
100
AcDbEntity
  8
SIZE
 62
     0
100
AcDbText
 10
-74.05714285714283
 20
126.4516878685499
 30
0.0
 40
64.0
  1
280
 41
0.9
100
AcDbText
  0
ENDBLK
  5
21B0
330
2B96
100
AcDbEntity
  8
0
100
AcDbBlockEnd
  0
BLOCK
  5
2B99
330
2B98
100
AcDbEntity
  8
0
100
AcDbBlockBegin
  2
*D13
 70
     1
 10
0.0
 20
0.0
 30
0.0
  3
*D13
  1

  0
LINE
  5
2044
330
2B98
100
AcDbEntity
  8
SIZE
 62
     0
100
AcDbLine
 10
-157.5
 20
20.0
 30
0.0
 11
-157.5
 21
245.5794621189598
 31
0.0
  0
LINE
  5
2045
330
2B98
100
AcDbEntity
  8
SIZE
 62
     0
100
AcDbLine
 10
157.5
 20
20.0
 30
0.0
 11
157.5
 21
245.5794621189598
 31
0.0
  0
LINE
  5
2046
330
2B98
100
AcDbEntity
  8
SIZE
 62
     0
100
AcDbLine
 10
-145.5
 20
225.5794621189598
 30
0.0
 11
145.5
 21
225.5794621189598
 31
0.0
  0
INSERT
  5
2047
330
2B98
100
AcDbEntity
  8
SIZE
 62
     0
100
AcDbBlockReference
  2
_DOTBLANK
 10
-157.5
 20
225.5794621189598
 30
0.0
 41
12.0
 42
12.0
 43
12.0
 50
180.0
  0
INSERT
  5
2048
330
2B98
100
AcDbEntity
  8
SIZE
 62
     0
100
AcDbBlockReference
  2
_DOTBLANK
 10
157.5
 20
225.5794621189598
 30
0.0
 41
12.0
 42
12.0
 43
12.0
  0
INSERT
  5
2049
330
2B98
100
AcDbEntity
  8
0
100
AcDbBlockReference
  2
*U14
 10
0.0
 20
0.0
 30
0.0
  0
POINT
  5
204A
330
2B98
100
AcDbEntity
  8
DEFPOINTS
 62
     0
100
AcDbPoint
 10
-157.5
 20
0.0
 30
0.0
  0
POINT
  5
204B
330
2B98
100
AcDbEntity
  8
DEFPOINTS
 62
     0
100
AcDbPoint
 10
157.5
 20
0.0
 30
0.0
  0
POINT
  5
204C
330
2B98
100
AcDbEntity
  8
DEFPOINTS
 62
     0
100
AcDbPoint
 10
157.5
 20
225.5794621189598
 30
0.0
  0
ENDBLK
  5
2003
330
2B98
100
AcDbEntity
  8
0
100
AcDbBlockEnd
  0
BLOCK
  5
2B9B
330
2B9A
100
AcDbEntity
  8
0
100
AcDbBlockBegin
  2
*U14
 70
     1
 10
0.0
 20
0.0
 30
0.0
  3
*U14
  1

  0
TEXT
  5
21B2
330
2B9A
100
AcDbEntity
  8
SIZE
 62
     0
100
AcDbText
 10
-68.57142857142857
 20
235.5794621189598
 30
0.0
 40
64.0
  1
315
 41
0.9
100
AcDbText
  0
ENDBLK
  5
21B4
330
2B9A
100
AcDbEntity
  8
0
100
AcDbBlockEnd
  0
BLOCK
  5
2B9D
330
2B9C
100
AcDbEntity
  8
0
100
AcDbBlockBegin
  2
*D15
 70
     1
 10
0.0
 20
0.0
 30
0.0
  3
*D15
  1

  0
LINE
  5
204D
330
2B9C
100
AcDbEntity
  8
SIZE
 62
     0
100
AcDbLine
 10
-177.5
 20
0.0000000000000057
 30
0.0
 11
-219.7694545525301
 21
0.0000000000000176
 31
0.0
  0
LINE
  5
204E
330
2B9C
100
AcDbEntity
  8
SIZE
 62
     0
100
AcDbLine
 10
-177.5
 20
-7.999999999999993
 30
0.0
 11
-219.7694545525301
 21
-7.999999999999982
 31
0.0
  0
LINE
  5
204F
330
2B9C
100
AcDbEntity
  8
SIZE
 62
     0
100
AcDbLine
 10
-199.76945455253
 20
12.00000000000001
 30
0.0
 11
-199.76945455253
 21
24.00000000000001
 31
0.0
  0
LINE
  5
2050
330
2B9C
100
AcDbEntity
  8
SIZE
 62
     0
100
AcDbLine
 10
-199.76945455253
 20
-19.99999999999999
 30
0.0
 11
-199.7694545525301
 21
-90.4
 31
0.0
  0
LINE
  5
2051
330
2B9C
100
AcDbEntity
  8
SIZE
 62
     0
100
AcDbLine
 10
-199.76945455253
 20
0.000000000000012
 30
0.0
 11
-199.76945455253
 21
-7.999999999999985
 31
0.0
  0
INSERT
  5
2052
330
2B9C
100
AcDbEntity
  8
SIZE
 62
     0
100
AcDbBlockReference
  2
_DOTBLANK
 10
-199.76945455253
 20
0.000000000000012
 30
0.0
 41
12.0
 42
12.0
 43
12.0
 50
270.0
  0
INSERT
  5
2053
330
2B9C
100
AcDbEntity
  8
SIZE
 62
     0
100
AcDbBlockReference
  2
_DOTBLANK
 10
-199.76945455253
 20
-7.999999999999985
 30
0.0
 41
12.0
 42
12.0
 43
12.0
 50
90.0
  0
INSERT
  5
2054
330
2B9C
100
AcDbEntity
  8
0
100
AcDbBlockReference
  2
*U16
 10
0.0
 20
0.0
 30
0.0
  0
POINT
  5
2055
330
2B9C
100
AcDbEntity
  8
DEFPOINTS
 62
     0
100
AcDbPoint
 10
-157.5
 20
0.0
 30
0.0
  0
POINT
  5
2056
330
2B9C
100
AcDbEntity
  8
DEFPOINTS
 62
     0
100
AcDbPoint
 10
-157.5
 20
-8.0
 30
0.0
  0
POINT
  5
2057
330
2B9C
100
AcDbEntity
  8
DEFPOINTS
 62
     0
100
AcDbPoint
 10
-199.76945455253
 20
-7.999999999999985
 30
0.0
  0
ENDBLK
  5
200F
330
2B9C
100
AcDbEntity
  8
0
100
AcDbBlockEnd
  0
BLOCK
  5
2B9F
330
2B9E
100
AcDbEntity
  8
0
100
AcDbBlockBegin
  2
*U16
 70
     1
 10
0.0
 20
0.0
 30
0.0
  3
*U16
  1

  0
TEXT
  5
21B6
330
2B9E
100
AcDbEntity
  8
SIZE
 62
     0
100
AcDbText
 10
-209.7694545525301
 20
-80.4
 30
0.0
 40
64.0
  1
8
 50
90.0
 41
0.9
100
AcDbText
  0
ENDBLK
  5
21B8
330
2B9E
100
AcDbEntity
  8
0
100
AcDbBlockEnd
  0
BLOCK
  5
2BA1
330
2BA0
100
AcDbEntity
  8
0
100
AcDbBlockBegin
  2
*D17
 70
     1
 10
0.0
 20
0.0
 30
0.0
  3
*D17
  1

  0
LINE
  5
2058
330
2BA0
100
AcDbEntity
  8
SIZE
 62
     0
100
AcDbLine
 10
143.7000000000007
 20
-430.0
 30
0.0
 11
304.626441221626
 21
-430.0
 31
0.0
  0
LINE
  5
2059
330
2BA0
100
AcDbEntity
  8
SIZE
 62
     0
100
AcDbLine
 10
143.1000000000022
 20
-441.0000000000001
 30
0.0
 11
304.626441221626
 21
-441.0000000000001
 31
0.0
  0
LINE
  5
205A
330
2BA0
100
AcDbEntity
  8
SIZE
 62
     0
100
AcDbLine
 10
284.626441221626
 20
-418.0
 30
0.0
 11
284.626441221626
 21
-406.0
 31
0.0
  0
LINE
  5
205B
330
2BA0
100
AcDbEntity
  8
SIZE
 62
     0
100
AcDbLine
 10
284.626441221626
 20
-453.0
 30
0.0
 11
284.626441221626
 21
-542.6000000000001
 31
0.0
  0
LINE
  5
205C
330
2BA0
100
AcDbEntity
  8
SIZE
 62
     0
100
AcDbLine
 10
284.626441221626
 20
-430.0
 30
0.0
 11
284.626441221626
 21
-441.0000000000001
 31
0.0
  0
INSERT
  5
205D
330
2BA0
100
AcDbEntity
  8
SIZE
 62
     0
100
AcDbBlockReference
  2
_DOTBLANK
 10
284.626441221626
 20
-430.0
 30
0.0
 41
12.0
 42
12.0
 43
12.0
 50
270.0
  0
INSERT
  5
205E
330
2BA0
100
AcDbEntity
  8
SIZE
 62
     0
100
AcDbBlockReference
  2
_DOTBLANK
 10
284.626441221626
 20
-441.0000000000001
 30
0.0
 41
12.0
 42
12.0
 43
12.0
 50
90.0
  0
INSERT
  5
205F
330
2BA0
100
AcDbEntity
  8
0
100
AcDbBlockReference
  2
*U18
 10
0.0
 20
0.0
 30
0.0
  0
POINT
  5
2060
330
2BA0
100
AcDbEntity
  8
DEFPOINTS
 62
     0
100
AcDbPoint
 10
123.7000000000007
 20
-430.0
 30
0.0
  0
POINT
  5
2061
330
2BA0
100
AcDbEntity
  8
DEFPOINTS
 62
     0
100
AcDbPoint
 10
123.1000000000022
 20
-441.0
 30
0.0
  0
POINT
  5
2062
330
2BA0
100
AcDbEntity
  8
DEFPOINTS
 62
     0
100
AcDbPoint
 10
284.626441221626
 20
-441.0000000000001
 30
0.0
  0
ENDBLK
  5
201D
330
2BA0
100
AcDbEntity
  8
0
100
AcDbBlockEnd
  0
BLOCK
  5
2BA3
330
2BA2
100
AcDbEntity
  8
0
100
AcDbBlockBegin
  2
*U18
 70
     1
 10
0.0
 20
0.0
 30
0.0
  3
*U18
  1

  0
TEXT
  5
21BA
330
2BA2
100
AcDbEntity
  8
SIZE
 62
     0
100
AcDbText
 10
274.6264412216261
 20
-532.6
 30
0.0
 40
64.0
  1
11
 50
90.0
 41
0.9
100
AcDbText
  0
ENDBLK
  5
21BC
330
2BA2
100
AcDbEntity
  8
0
100
AcDbBlockEnd
  0
BLOCK
  5
2BA5
330
2BA4
100
AcDbEntity
  8
0
100
AcDbBlockBegin
  2
*U19
 70
     1
 10
0.0
 20
0.0
 30
0.0
  3
*U19
  1

  0
INSERT
  5
2199
330
2BA4
100
AcDbEntity
  8
NOTE
100
AcDbBlockReference
  2
_OPEN30
 10
-140.0
 20
0.0
 30
0.0
 41
12.0
 42
12.0
 43
12.0
 50
312.6090116116894
  0
POLYLINE
  5
219A
330
2BA4
100
AcDbEntity
  8
NOTE
100
AcDb2dPolyline
 66
     1
 10
0.0
 20
0.0
 30
0.0
  0
VERTEX
  5
219B
330
219A
100
AcDbEntity
  8
NOTE
100
AcDbVertex
100
AcDb2dVertex
 10
-148.1239008361894
 20
8.831887408915472
 30
0.0
  0
VERTEX
  5
219C
330
219A
100
AcDbEntity
  8
NOTE
100
AcDbVertex
100
AcDb2dVertex
 10
-227.8693999922543
 20
95.5270950580134
 30
0.0
  0
VERTEX
  5
219D
330
219A
100
AcDbEntity
  8
NOTE
100
AcDbVertex
100
AcDb2dVertex
 10
-776.4522571351115
 20
95.5270950580134
 30
0.0
  0
SEQEND
  5
219E
330
219A
100
AcDbEntity
  8
NOTE
  0
ENDBLK
  5
21A0
330
2BA4
100
AcDbEntity
  8
0
100
AcDbBlockEnd
  0
BLOCK
  5
2BA7
330
2BA6
100
AcDbEntity
  8
0
100
AcDbBlockBegin
  2
*U20
 70
     1
 10
0.0
 20
0.0
 30
0.0
  3
*U20
  1

  0
TEXT
  5
21A2
330
2BA6
100
AcDbEntity
  8
NOTE
100
AcDbText
 10
-773.7093999922541
 20
113.5270950580134
 30
0.0
 40
64.0
  1
4×φ10取付穴
 41
0.9
100
AcDbText
  0
ENDBLK
  5
21A4
330
2BA6
100
AcDbEntity
  8
0
100
AcDbBlockEnd
  0
BLOCK
  5
2BA9
330
2BA8
100
AcDbEntity
  8
0
100
AcDbBlockBegin
  2
*U21
 70
     1
 10
0.0
 20
0.0
 30
0.0
  3
*U21
  1

  0
INSERT
  5
2586
330
2BA8
100
AcDbEntity
  8
NOTE
100
AcDbBlockReference
  2
_OPEN30
 10
-325.0
 20
0.0
 30
0.0
 41
12.0
 42
12.0
 43
12.0
 50
312.6090116116894
  0
POLYLINE
  5
2587
330
2BA8
100
AcDbEntity
  8
NOTE
100
AcDb2dPolyline
 66
     1
 10
0.0
 20
0.0
 30
0.0
  0
VERTEX
  5
2588
330
2587
100
AcDbEntity
  8
NOTE
100
AcDbVertex
100
AcDb2dVertex
 10
-333.1239008361895
 20
8.831887408915472
 30
0.0
  0
VERTEX
  5
2589
330
2587
100
AcDbEntity
  8
NOTE
100
AcDbVertex
100
AcDb2dVertex
 10
-412.8693999922543
 20
95.5270950580134
 30
0.0
  0
VERTEX
  5
258A
330
2587
100
AcDbEntity
  8
NOTE
100
AcDbVertex
100
AcDb2dVertex
 10
-961.4522571351114
 20
95.5270950580134
 30
0.0
  0
SEQEND
  5
258B
330
2587
100
AcDbEntity
  8
NOTE
  0
ENDBLK
  5
258C
330
2BA8
100
AcDbEntity
  8
0
100
AcDbBlockEnd
  0
BLOCK
  5
2BAB
330
2BAA
100
AcDbEntity
  8
0
100
AcDbBlockBegin
  2
*U22
 70
     1
 10
0.0
 20
0.0
 30
0.0
  3
*U22
  1

  0
INSERT
  5
2857
330
2BAA
100
AcDbEntity
  8
NOTE
100
AcDbBlockReference
  2
_OPEN30
 10
-325.0
 20
0.0
 30
0.0
 41
12.0
 42
12.0
 43
12.0
 50
312.6090116116894
  0
POLYLINE
  5
2858
330
2BAA
100
AcDbEntity
  8
NOTE
100
AcDb2dPolyline
 66
     1
 10
0.0
 20
0.0
 30
0.0
  0
VERTEX
  5
2859
330
2858
100
AcDbEntity
  8
NOTE
100
AcDbVertex
100
AcDb2dVertex
 10
-333.1239008361895
 20
8.831887408915472
 30
0.0
  0
VERTEX
  5
285A
330
2858
100
AcDbEntity
  8
NOTE
100
AcDbVertex
100
AcDb2dVertex
 10
-412.8693999922543
 20
95.5270950580134
 30
0.0
  0
VERTEX
  5
285B
330
2858
100
AcDbEntity
  8
NOTE
100
AcDbVertex
100
AcDb2dVertex
 10
-961.4522571351114
 20
95.5270950580134
 30
0.0
  0
SEQEND
  5
285C
330
2858
100
AcDbEntity
  8
NOTE
  0
ENDBLK
  5
285D
330
2BAA
100
AcDbEntity
  8
0
100
AcDbBlockEnd
  0
BLOCK
  5
2BAD
330
2BAC
100
AcDbEntity
  8
0
100
AcDbBlockBegin
  2
*X23
 70
     1
 10
0.0
 20
0.0
 30
0.0
  3
*X23
  1

  0
LINE
  5
2860
330
2BAC
100
AcDbEntity
  8
0
 62
     0
100
AcDbLine
 10
-298.8000000000068
 20
-852.8712180246794
 30
0.0
 11
-294.7325860243545
 21
-854.8080808012025
 31
0.0
  0
LINE
  5
2861
330
2BAC
100
AcDbEntity
  8
0
 62
     0
100
AcDbLine
 10
-298.8000000000047
 20
-842.8712662805462
 30
0.0
 11
-273.7326762873654
 21
-854.8080808012025
 31
0.0
  0
LINE
  5
2862
330
2BAC
100
AcDbEntity
  8
0
 62
     0
100
AcDbLine
 10
-298.8000000000047
 20
-832.8713145364114
 30
0.0
 11
-252.7327665503744
 21
-854.8080808012025
 31
0.0
  0
LINE
  5
2863
330
2BAC
100
AcDbEntity
  8
0
 62
     0
100
AcDbLine
 10
-298.8000000000047
 20
-822.871362792277
 30
0.0
 11
-231.7328568133871
 21
-854.8080808012008
 31
0.0
  0
LINE
  5
2864
330
2BAC
100
AcDbEntity
  8
0
 62
     0
100
AcDbLine
 10
-298.8000000000068
 20
-812.8714110481414
 30
0.0
 11
-210.7329470763961
 21
-854.8080808012008
 31
0.0
  0
LINE
  5
2865
330
2BAC
100
AcDbEntity
  8
0
 62
     0
100
AcDbLine
 10
-298.8000000000047
 20
-802.8714593040074
 30
0.0
 11
-189.7330373394034
 21
-854.8080808012008
 31
0.0
  0
LINE
  5
2866
330
2BAC
100
AcDbEntity
  8
0
 62
     0
100
AcDbLine
 10
-298.8000000000068
 20
-792.8715075598717
 30
0.0
 11
-168.7331276024142
 21
-854.8080808012008
 31
0.0
  0
LINE
  5
2867
330
2BAC
100
AcDbEntity
  8
0
 62
     0
100
AcDbLine
 10
-298.8000000000068
 20
-782.8715558157388
 30
0.0
 11
-147.7332178654233
 21
-854.8080808012025
 31
0.0
  0
LINE
  5
2868
330
2BAC
100
AcDbEntity
  8
0
 62
     0
100
AcDbLine
 10
-298.8000000000047
 20
-772.8716040716045
 30
0.0
 11
-126.7333081284305
 21
-854.8080808012025
 31
0.0
  0
LINE
  5
2869
330
2BAC
100
AcDbEntity
  8
0
 62
     0
100
AcDbLine
 10
-298.8000000000068
 20
-762.8716523274697
 30
0.0
 11
-105.7333983914414
 21
-854.8080808012016
 31
0.0
  0
LINE
  5
286A
330
2BAC
100
AcDbEntity
  8
0
 62
     0
100
AcDbLine
 10
-298.8000000000028
 20
-752.8717005833348
 30
0.0
 11
-84.73348865444673
 21
-854.8080808012016
 31
0.0
  0
LINE
  5
286B
330
2BAC
100
AcDbEntity
  8
0
 62
     0
100
AcDbLine
 10
-298.8000000000068
 20
-742.8717488392004
 30
0.0
 11
-63.73357891745762
 21
-854.8080808012016
 31
0.0
  0
LINE
  5
286C
330
2BAC
100
AcDbEntity
  8
0
 62
     0
100
AcDbLine
 10
-298.8000000000068
 20
-732.8717970950674
 30
0.0
 11
-42.73366918046849
 21
-854.8080808012032
 31
0.0
  0
LINE
  5
286D
330
2BAC
100
AcDbEntity
  8
0
 62
     0
100
AcDbLine
 10
-298.8000000000047
 20
-722.8718453509326
 30
0.0
 11
-21.7337594434739
 21
-854.8080808012032
 31
0.0
  0
LINE
  5
286E
330
2BAC
100
AcDbEntity
  8
0
 62
     0
100
AcDbLine
 10
-298.8000000000068
 20
-712.871893606798
 30
0.0
 11
-0.7338497064847616
 21
-854.8080808012032
 31
0.0
  0
LINE
  5
286F
330
2BAC
100
AcDbEntity
  8
0
 62
     0
100
AcDbLine
 10
-298.8000000000047
 20
-702.8719418626632
 30
0.0
 11
20.26606003050438
 21
-854.8080808012016
 31
0.0
  0
LINE
  5
2870
330
2BAC
100
AcDbEntity
  8
0
 62
     0
100
AcDbLine
 10
-298.8000000000047
 20
-692.8719901185286
 30
0.0
 11
41.26596976749532
 21
-854.8080808012016
 31
0.0
  0
LINE
  5
2871
330
2BAC
100
AcDbEntity
  8
0
 62
     0
100
AcDbLine
 10
-298.8000000000068
 20
-682.8720383743938
 30
0.0
 11
62.26587950448629
 21
-854.8080808012016
 31
0.0
  0
LINE
  5
2872
330
2BAC
100
AcDbEntity
  8
0
 62
     0
100
AcDbLine
 10
-298.8000000000047
 20
-672.872086630261
 30
0.0
 11
83.26578924147725
 21
-854.8080808012032
 31
0.0
  0
LINE
  5
2873
330
2BAC
100
AcDbEntity
  8
0
 62
     0
100
AcDbLine
 10
-298.8000000000047
 20
-662.8721348861264
 30
0.0
 11
104.26569897847
 21
-854.8080808012025
 31
0.0
  0
LINE
  5
2874
330
2BAC
100
AcDbEntity
  8
0
 62
     0
100
AcDbLine
 10
-298.8000000000047
 20
-652.8721831419916
 30
0.0
 11
125.2656087154591
 21
-854.8080808012025
 31
0.0
  0
LINE
  5
2875
330
2BAC
100
AcDbEntity
  8
0
 62
     0
100
AcDbLine
 10
-298.8000000000047
 20
-642.8722313978567
 30
0.0
 11
146.2655184524501
 21
-854.8080808012025
 31
0.0
  0
LINE
  5
2876
330
2BAC
100
AcDbEntity
  8
0
 62
     0
100
AcDbLine
 10
-298.8000000000068
 20
-632.8722796537212
 30
0.0
 11
167.2654281894429
 21
-854.8080808012025
 31
0.0
  0
LINE
  5
2877
330
2BAC
100
AcDbEntity
  8
0
 62
     0
100
AcDbLine
 10
-298.8000000000068
 20
-622.8723279095884
 30
0.0
 11
188.265337926432
 21
-854.8080808012045
 31
0.0
  0
LINE
  5
2878
330
2BAC
100
AcDbEntity
  8
0
 62
     0
100
AcDbLine
 10
-298.8000000000068
 20
-612.8723761654534
 30
0.0
 11
209.2652476634248
 21
-854.8080808012045
 31
0.0
  0
LINE
  5
2879
330
2BAC
100
AcDbEntity
  8
0
 62
     0
100
AcDbLine
 10
-298.8000000000047
 20
-602.872424421319
 30
0.0
 11
230.2651574004158
 21
-854.8080808012045
 31
0.0
  0
LINE
  5
287A
330
2BAC
100
AcDbEntity
  8
0
 62
     0
100
AcDbLine
 10
-298.8000000000068
 20
-592.8724726771844
 30
0.0
 11
251.2650671374067
 21
-854.8080808012045
 31
0.0
  0
LINE
  5
287B
330
2BAC
100
AcDbEntity
  8
0
 62
     0
100
AcDbLine
 10
-298.8000000000047
 20
-582.8725209330496
 30
0.0
 11
272.2649768743961
 21
-854.8080808012025
 31
0.0
  0
LINE
  5
287C
330
2BAC
100
AcDbEntity
  8
0
 62
     0
100
AcDbLine
 10
-298.8000000000047
 20
-572.8725691889168
 30
0.0
 11
293.2648866113868
 21
-854.8080808012045
 31
0.0
  0
LINE
  5
287D
330
2BAC
100
AcDbEntity
  8
0
 62
     0
100
AcDbLine
 10
-298.8000000000068
 20
-562.872617444782
 30
0.0
 11
298.799999999992
 21
-847.4438959473856
 31
0.0
  0
LINE
  5
287E
330
2BAC
100
AcDbEntity
  8
0
 62
     0
100
AcDbLine
 10
-298.8000000000028
 20
-552.8726657006473
 30
0.0
 11
298.799999999992
 21
-837.4439442032498
 31
0.0
  0
LINE
  5
287F
330
2BAC
100
AcDbEntity
  8
0
 62
     0
100
AcDbLine
 10
-298.8000000000068
 20
-542.8727139565117
 30
0.0
 11
298.799999999992
 21
-827.4439924591147
 31
0.0
  0
LINE
  5
2880
330
2BAC
100
AcDbEntity
  8
0
 62
     0
100
AcDbLine
 10
-298.8000000000068
 20
-532.872762212377
 30
0.0
 11
298.799999999992
 21
-817.4440407149804
 31
0.0
  0
LINE
  5
2881
330
2BAC
100
AcDbEntity
  8
0
 62
     0
100
AcDbLine
 10
-298.8000000000047
 20
-522.8728104682422
 30
0.0
 11
298.7999999999938
 21
-807.4440889708457
 31
0.0
  0
LINE
  5
2882
330
2BAC
100
AcDbEntity
  8
0
 62
     0
100
AcDbLine
 10
-298.8000000000068
 20
-512.8728587241103
 30
0.0
 11
298.799999999992
 21
-797.4441372267127
 31
0.0
  0
LINE
  5
2883
330
2BAC
100
AcDbEntity
  8
0
 62
     0
100
AcDbLine
 10
-298.8000000000047
 20
-502.8729069799756
 30
0.0
 11
298.799999999992
 21
-787.4441854825778
 31
0.0
  0
LINE
  5
2884
330
2BAC
100
AcDbEntity
  8
0
 62
     0
100
AcDbLine
 10
-298.8000000000047
 20
-492.8729552358409
 30
0.0
 11
298.7999999999938
 21
-777.4442337384434
 31
0.0
  0
LINE
  5
2885
330
2BAC
100
AcDbEntity
  8
0
 62
     0
100
AcDbLine
 10
-298.8000000000068
 20
-482.8730034917062
 30
0.0
 11
298.7999999999902
 21
-767.4442819943075
 31
0.0
  0
LINE
  5
2886
330
2BAC
100
AcDbEntity
  8
0
 62
     0
100
AcDbLine
 10
-298.8000000000068
 20
-472.8730517475705
 30
0.0
 11
298.799999999992
 21
-757.4443302501739
 31
0.0
  0
LINE
  5
2887
330
2BAC
100
AcDbEntity
  8
0
 62
     0
100
AcDbLine
 10
-298.8000000000047
 20
-462.8731000034385
 30
0.0
 11
298.799999999992
 21
-747.4443785060401
 31
0.0
  0
LINE
  5
2888
330
2BAC
100
AcDbEntity
  8
0
 62
     0
100
AcDbLine
 10
-298.8000000000068
 20
-452.8731482593029
 30
0.0
 11
298.7999999999902
 21
-737.4444267619055
 31
0.0
  0
LINE
  5
2889
330
2BAC
100
AcDbEntity
  8
0
 62
     0
100
AcDbLine
 10
-298.8000000000068
 20
-442.8731965151682
 30
0.0
 11
298.799999999992
 21
-727.4444750177708
 31
0.0
  0
LINE
  5
288A
330
2BAC
100
AcDbEntity
  8
0
 62
     0
100
AcDbLine
 10
-298.8000000000047
 20
-432.8732447710335
 30
0.0
 11
298.799999999992
 21
-717.4445232736369
 31
0.0
  0
LINE
  5
288B
330
2BAC
100
AcDbEntity
  8
0
 62
     0
100
AcDbLine
 10
-298.8000000000068
 20
-422.8732930268986
 30
0.0
 11
298.799999999992
 21
-707.4445715295023
 31
0.0
  0
LINE
  5
288C
330
2BAC
100
AcDbEntity
  8
0
 62
     0
100
AcDbLine
 10
-298.8000000000047
 20
-412.873341282764
 30
0.0
 11
298.7999999999938
 21
-697.4446197853674
 31
0.0
  0
LINE
  5
288D
330
2BAC
100
AcDbEntity
  8
0
 62
     0
100
AcDbLine
 10
-298.8000000000047
 20
-402.8733895386312
 30
0.0
 11
298.799999999992
 21
-687.4446680412344
 31
0.0
  0
LINE
  5
288E
330
2BAC
100
AcDbEntity
  8
0
 62
     0
100
AcDbLine
 10
-298.8000000000068
 20
-392.8734377944966
 30
0.0
 11
298.7999999999902
 21
-677.4447162970992
 31
0.0
  0
LINE
  5
288F
330
2BAC
100
AcDbEntity
  8
0
 62
     0
100
AcDbLine
 10
-298.8000000000047
 20
-382.873486050361
 30
0.0
 11
298.7999999999938
 21
-667.4447645529653
 31
0.0
  0
LINE
  5
2890
330
2BAC
100
AcDbEntity
  8
0
 62
     0
100
AcDbLine
 10
-298.8000000000047
 20
-372.8735343062272
 30
0.0
 11
298.799999999992
 21
-657.4448128088297
 31
0.0
  0
LINE
  5
2891
330
2BAC
100
AcDbEntity
  8
0
 62
     0
100
AcDbLine
 10
-298.8000000000068
 20
-362.8735825620915
 30
0.0
 11
298.799999999992
 21
-647.444861064695
 31
0.0
  0
LINE
  5
2892
330
2BAC
100
AcDbEntity
  8
0
 62
     0
100
AcDbLine
 10
-298.8000000000047
 20
-352.8736308179588
 30
0.0
 11
298.799999999992
 21
-637.4449093205621
 31
0.0
  0
LINE
  5
2893
330
2BAC
100
AcDbEntity
  8
0
 62
     0
100
AcDbLine
 10
-298.8000000000068
 20
-342.873679073824
 30
0.0
 11
298.799999999992
 21
-627.4449575764272
 31
0.0
  0
LINE
  5
2894
330
2BAC
100
AcDbEntity
  8
0
 62
     0
100
AcDbLine
 10
-298.8000000000047
 20
-332.8737273296892
 30
0.0
 11
298.799999999992
 21
-617.4450058322927
 31
0.0
  0
LINE
  5
2895
330
2BAC
100
AcDbEntity
  8
0
 62
     0
100
AcDbLine
 10
-298.8000000000047
 20
-322.8737755855545
 30
0.0
 11
298.7999999999938
 21
-607.445054088158
 31
0.0
  0
LINE
  5
2896
330
2BAC
100
AcDbEntity
  8
0
 62
     0
100
AcDbLine
 10
-298.8000000000068
 20
-312.8738238414198
 30
0.0
 11
298.799999999992
 21
-597.4451023440233
 31
0.0
  0
LINE
  5
2897
330
2BAC
100
AcDbEntity
  8
0
 62
     0
100
AcDbLine
 10
-298.8000000000047
 20
-302.873872097287
 30
0.0
 11
298.7999999999902
 21
-587.4451505998895
 31
0.0
  0
LINE
  5
2898
330
2BAC
100
AcDbEntity
  8
0
 62
     0
100
AcDbLine
 10
-298.8000000000047
 20
-292.8739203531522
 30
0.0
 11
298.7999999999938
 21
-577.4451988557556
 31
0.0
  0
LINE
  5
2899
330
2BAC
100
AcDbEntity
  8
0
 62
     0
100
AcDbLine
 10
-298.8000000000068
 20
-282.8739686090175
 30
0.0
 11
298.7999999999902
 21
-567.4452471116201
 31
0.0
  0
LINE
  5
289A
330
2BAC
100
AcDbEntity
  8
0
 62
     0
100
AcDbLine
 10
-298.8000000000068
 20
-272.8740168648828
 30
0.0
 11
298.799999999992
 21
-557.4452953674854
 31
0.0
  0
LINE
  5
289B
330
2BAC
100
AcDbEntity
  8
0
 62
     0
100
AcDbLine
 10
-298.8000000000068
 20
-262.8740651207481
 30
0.0
 11
298.799999999992
 21
-547.4453436233507
 31
0.0
  0
LINE
  5
289C
330
2BAC
100
AcDbEntity
  8
0
 62
     0
100
AcDbLine
 10
-298.8000000000068
 20
-252.8741133766134
 30
0.0
 11
298.7999999999902
 21
-537.445391879216
 31
0.0
  0
LINE
  5
289D
330
2BAC
100
AcDbEntity
  8
0
 62
     0
100
AcDbLine
 10
-298.8000000000047
 20
-242.8741616324805
 30
0.0
 11
298.7999999999938
 21
-527.4454401350831
 31
0.0
  0
LINE
  5
289E
330
2BAC
100
AcDbEntity
  8
0
 62
     0
100
AcDbLine
 10
-298.8000000000047
 20
-232.8742098883458
 30
0.0
 11
298.799999999992
 21
-517.4454883909484
 31
0.0
  0
LINE
  5
289F
330
2BAC
100
AcDbEntity
  8
0
 62
     0
100
AcDbLine
 10
-298.8000000000047
 20
-222.8742581442111
 30
0.0
 11
298.7999999999938
 21
-507.4455366468136
 31
0.0
  0
LINE
  5
28A0
330
2BAC
100
AcDbEntity
  8
0
 62
     0
100
AcDbLine
 10
-298.8000000000047
 20
-212.8743064000764
 30
0.0
 11
298.799999999992
 21
-497.445584902679
 31
0.0
  0
LINE
  5
28A1
330
2BAC
100
AcDbEntity
  8
0
 62
     0
100
AcDbLine
 10
-298.8000000000047
 20
-202.8743546559417
 30
0.0
 11
298.799999999992
 21
-487.4456331585443
 31
0.0
  0
LINE
  5
28A2
330
2BAC
100
AcDbEntity
  8
0
 62
     0
100
AcDbLine
 10
-298.8000000000068
 20
-192.8744029118078
 30
0.0
 11
298.799999999992
 21
-477.4456814144114
 31
0.0
  0
LINE
  5
28A3
330
2BAC
100
AcDbEntity
  8
0
 62
     0
100
AcDbLine
 10
-298.8000000000047
 20
-182.8744511676731
 30
0.0
 11
298.799999999992
 21
-467.4457296702767
 31
0.0
  0
LINE
  5
28A4
330
2BAC
100
AcDbEntity
  8
0
 62
     0
100
AcDbLine
 10
-298.8000000000068
 20
-172.8744994235385
 30
0.0
 11
298.799999999992
 21
-457.4457779261418
 31
0.0
  0
LINE
  5
28A5
330
2BAC
100
AcDbEntity
  8
0
 62
     0
100
AcDbLine
 10
82.99999999999634
 20
-344.6839756116243
 30
0.0
 11
87.42973092208194
 21
-346.7933701764168
 31
0.0
  0
LINE
  5
28A6
330
2BAC
100
AcDbEntity
  8
0
 62
     0
100
AcDbLine
 10
87.42973092208194
 20
-346.7933701764168
 30
0.0
 11
298.799999999992
 21
-447.4458261820072
 31
0.0
  0
LINE
  5
28A7
330
2BAC
100
AcDbEntity
  8
0
 62
     0
100
AcDbLine
 10
-298.8000000000068
 20
-162.8745476794038
 30
0.0
 11
82.99999999999634
 21
-344.6839756116243
 31
0.0
  0
LINE
  5
28A8
330
2BAC
100
AcDbEntity
  8
0
 62
     0
100
AcDbLine
 10
82.99999999999455
 20
-334.6840238674886
 30
0.0
 11
108.4296406590729
 21
-346.7933701764168
 31
0.0
  0
LINE
  5
28A9
330
2BAC
100
AcDbEntity
  8
0
 62
     0
100
AcDbLine
 10
108.4296406590729
 20
-346.7933701764168
 30
0.0
 11
298.7999999999938
 21
-437.4458744378724
 31
0.0
  0
LINE
  5
28AA
330
2BAC
100
AcDbEntity
  8
0
 62
     0
100
AcDbLine
 10
-298.5505739620603
 20
-152.9933701764166
 30
0.0
 11
82.99999999999455
 21
-334.6840238674886
 31
0.0
  0
LINE
  5
28AB
330
2BAC
100
AcDbEntity
  8
0
 62
     0
100
AcDbLine
 10
82.99999999999455
 20
-324.6840721233557
 30
0.0
 11
129.4295503960638
 21
-346.7933701764187
 31
0.0
  0
LINE
  5
28AC
330
2BAC
100
AcDbEntity
  8
0
 62
     0
100
AcDbLine
 10
129.4295503960638
 20
-346.7933701764187
 30
0.0
 11
298.799999999992
 21
-427.4459226937397
 31
0.0
  0
LINE
  5
28AD
330
2BAC
100
AcDbEntity
  8
0
 62
     0
100
AcDbLine
 10
-277.5506642250693
 20
-152.9933701764185
 30
0.0
 11
82.99999999999455
 21
-324.6840721233557
 31
0.0
  0
LINE
  5
28AE
330
2BAC
100
AcDbEntity
  8
0
 62
     0
100
AcDbLine
 10
82.99999999999455
 20
-314.6841203792209
 30
0.0
 11
150.4294601330548
 21
-346.7933701764187
 31
0.0
  0
LINE
  5
28AF
330
2BAC
100
AcDbEntity
  8
0
 62
     0
100
AcDbLine
 10
150.4294601330548
 20
-346.7933701764187
 30
0.0
 11
298.799999999992
 21
-417.445970949605
 31
0.0
  0
LINE
  5
28B0
330
2BAC
100
AcDbEntity
  8
0
 62
     0
100
AcDbLine
 10
-256.5507544880784
 20
-152.9933701764185
 30
0.0
 11
82.99999999999455
 21
-314.6841203792209
 31
0.0
  0
LINE
  5
28B1
330
2BAC
100
AcDbEntity
  8
0
 62
     0
100
AcDbLine
 10
82.99999999999455
 20
-304.6841686350862
 30
0.0
 11
171.4293698700458
 21
-346.7933701764187
 31
0.0
  0
LINE
  5
28B2
330
2BAC
100
AcDbEntity
  8
0
 62
     0
100
AcDbLine
 10
171.4293698700458
 20
-346.7933701764187
 30
0.0
 11
298.799999999992
 21
-407.4460192054694
 31
0.0
  0
LINE
  5
28B3
330
2BAC
100
AcDbEntity
  8
0
 62
     0
100
AcDbLine
 10
-235.5508447510874
 20
-152.9933701764185
 30
0.0
 11
82.99999999999455
 21
-304.6841686350862
 31
0.0
  0
LINE
  5
28B4
330
2BAC
100
AcDbEntity
  8
0
 62
     0
100
AcDbLine
 10
82.99999999999455
 20
-294.6842168909516
 30
0.0
 11
192.4292796070367
 21
-346.7933701764187
 31
0.0
  0
LINE
  5
28B5
330
2BAC
100
AcDbEntity
  8
0
 62
     0
100
AcDbLine
 10
192.4292796070367
 20
-346.7933701764187
 30
0.0
 11
298.7999999999902
 21
-397.4460674613345
 31
0.0
  0
LINE
  5
28B6
330
2BAC
100
AcDbEntity
  8
0
 62
     0
100
AcDbLine
 10
-214.5509350140965
 20
-152.9933701764185
 30
0.0
 11
82.99999999999455
 21
-294.6842168909516
 31
0.0
  0
LINE
  5
28B7
330
2BAC
100
AcDbEntity
  8
0
 62
     0
100
AcDbLine
 10
82.99999999999455
 20
-284.6842651468169
 30
0.0
 11
213.4291893440277
 21
-346.7933701764187
 31
0.0
  0
LINE
  5
28B8
330
2BAC
100
AcDbEntity
  8
0
 62
     0
100
AcDbLine
 10
213.4291893440277
 20
-346.7933701764187
 30
0.0
 11
298.799999999992
 21
-387.4461157172
 31
0.0
  0
LINE
  5
28B9
330
2BAC
100
AcDbEntity
  8
0
 62
     0
100
AcDbLine
 10
-193.5510252771055
 20
-152.9933701764185
 30
0.0
 11
82.99999999999455
 21
-284.6842651468169
 31
0.0
  0
LINE
  5
28BA
330
2BAC
100
AcDbEntity
  8
0
 62
     0
100
AcDbLine
 10
82.99999999999634
 20
-274.6843134026823
 30
0.0
 11
234.4290990810204
 21
-346.7933701764177
 31
0.0
  0
LINE
  5
28BB
330
2BAC
100
AcDbEntity
  8
0
 62
     0
100
AcDbLine
 10
234.4290990810204
 20
-346.7933701764177
 30
0.0
 11
298.799999999992
 21
-377.4461639730653
 31
0.0
  0
LINE
  5
28BC
330
2BAC
100
AcDbEntity
  8
0
 62
     0
100
AcDbLine
 10
-172.5511155401127
 20
-152.9933701764175
 30
0.0
 11
82.99999999999634
 21
-274.6843134026823
 31
0.0
  0
LINE
  5
28BD
330
2BAC
100
AcDbEntity
  8
0
 62
     0
100
AcDbLine
 10
82.99999999999272
 20
-264.6843616585484
 30
0.0
 11
255.4290088180096
 21
-346.7933701764196
 31
0.0
  0
LINE
  5
28BE
330
2BAC
100
AcDbEntity
  8
0
 62
     0
100
AcDbLine
 10
255.4290088180096
 20
-346.7933701764196
 30
0.0
 11
298.7999999999902
 21
-367.4462122289323
 31
0.0
  0
LINE
  5
28BF
330
2BAC
100
AcDbEntity
  8
0
 62
     0
100
AcDbLine
 10
-151.5512058031272
 20
-152.9933701764185
 30
0.0
 11
82.99999999999272
 21
-264.6843616585484
 31
0.0
  0
LINE
  5
28C0
330
2BAC
100
AcDbEntity
  8
0
 62
     0
100
AcDbLine
 10
82.99999999999634
 20
-254.6844099144137
 30
0.0
 11
276.4289185550006
 21
-346.7933701764187
 31
0.0
  0
LINE
  5
28C1
330
2BAC
100
AcDbEntity
  8
0
 62
     0
100
AcDbLine
 10
276.4289185550006
 20
-346.7933701764187
 30
0.0
 11
298.7999999999938
 21
-357.4462604847977
 31
0.0
  0
LINE
  5
28C2
330
2BAC
100
AcDbEntity
  8
0
 62
     0
100
AcDbLine
 10
-130.5512960661326
 20
-152.9933701764185
 30
0.0
 11
82.99999999999634
 21
-254.6844099144137
 31
0.0
  0
LINE
  5
28C3
330
2BAC
100
AcDbEntity
  8
0
 62
     0
100
AcDbLine
 10
82.99999999999455
 20
-244.6844581702789
 30
0.0
 11
297.4288282919896
 21
-346.7933701764177
 31
0.0
  0
LINE
  5
28C4
330
2BAC
100
AcDbEntity
  8
0
 62
     0
100
AcDbLine
 10
297.4288282919896
 20
-346.7933701764177
 30
0.0
 11
298.799999999992
 21
-347.4463087406631
 31
0.0
  0
LINE
  5
28C5
330
2BAC
100
AcDbEntity
  8
0
 62
     0
100
AcDbLine
 10
-109.5513863291435
 20
-152.9933701764175
 30
0.0
 11
82.99999999999455
 21
-244.6844581702789
 31
0.0
  0
LINE
  5
28C6
330
2BAC
100
AcDbEntity
  8
0
 62
     0
100
AcDbLine
 10
82.99999999999455
 20
-234.6845064261442
 30
0.0
 11
298.7999999999956
 21
-337.4463569965301
 31
0.0
  0
LINE
  5
28C7
330
2BAC
100
AcDbEntity
  8
0
 62
     0
100
AcDbLine
 10
-88.55147659215438
 20
-152.9933701764166
 30
0.0
 11
82.99999999999455
 21
-234.6845064261442
 31
0.0
  0
LINE
  5
28C8
330
2BAC
100
AcDbEntity
  8
0
 62
     0
100
AcDbLine
 10
82.99999999999634
 20
-224.6845546820094
 30
0.0
 11
298.7999999999975
 21
-327.4464052523954
 31
0.0
  0
LINE
  5
28C9
330
2BAC
100
AcDbEntity
  8
0
 62
     0
100
AcDbLine
 10
-67.5515668551634
 20
-152.9933701764157
 30
0.0
 11
82.99999999999634
 21
-224.6845546820094
 31
0.0
  0
LINE
  5
28CA
330
2BAC
100
AcDbEntity
  8
0
 62
     0
100
AcDbLine
 10
82.99999999999455
 20
-214.6846029378767
 30
0.0
 11
298.7999999999956
 21
-317.4464535082625
 31
0.0
  0
LINE
  5
28CB
330
2BAC
100
AcDbEntity
  8
0
 62
     0
100
AcDbLine
 10
-46.55165711817242
 20
-152.9933701764175
 30
0.0
 11
82.99999999999455
 21
-214.6846029378767
 31
0.0
  0
LINE
  5
28CC
330
2BAC
100
AcDbEntity
  8
0
 62
     0
100
AcDbLine
 10
82.99999999999455
 20
-204.6846511937429
 30
0.0
 11
298.7999999999975
 21
-307.4465017641277
 31
0.0
  0
LINE
  5
28CD
330
2BAC
100
AcDbEntity
  8
0
 62
     0
100
AcDbLine
 10
-25.55174738118149
 20
-152.9933701764175
 30
0.0
 11
82.99999999999455
 21
-204.6846511937429
 31
0.0
  0
LINE
  5
28CE
330
2BAC
100
AcDbEntity
  8
0
 62
     0
100
AcDbLine
 10
82.99999999999634
 20
-194.6846994496081
 30
0.0
 11
298.7999999999975
 21
-297.4465500199931
 31
0.0
  0
LINE
  5
28CF
330
2BAC
100
AcDbEntity
  8
0
 62
     0
100
AcDbLine
 10
-4.551837644190527
 20
-152.9933701764175
 30
0.0
 11
82.99999999999634
 21
-194.6846994496081
 31
0.0
  0
LINE
  5
28D0
330
2BAC
100
AcDbEntity
  8
0
 62
     0
100
AcDbLine
 10
82.99999999999455
 20
-184.6847477054734
 30
0.0
 11
298.7999999999956
 21
-287.4465982758584
 31
0.0
  0
LINE
  5
28D1
330
2BAC
100
AcDbEntity
  8
0
 62
     0
100
AcDbLine
 10
16.44807209280043
 20
-152.9933701764175
 30
0.0
 11
82.99999999999455
 21
-184.6847477054734
 31
0.0
  0
LINE
  5
28D2
330
2BAC
100
AcDbEntity
  8
0
 62
     0
100
AcDbLine
 10
82.99999999999455
 20
-174.6847959613378
 30
0.0
 11
298.7999999999975
 21
-277.4466465317237
 31
0.0
  0
LINE
  5
28D3
330
2BAC
100
AcDbEntity
  8
0
 62
     0
100
AcDbLine
 10
37.44798182979137
 20
-152.9933701764175
 30
0.0
 11
82.99999999999455
 21
-174.6847959613378
 31
0.0
  0
LINE
  5
28D4
330
2BAC
100
AcDbEntity
  8
0
 62
     0
100
AcDbLine
 10
82.99999999999455
 20
-164.6848442172031
 30
0.0
 11
298.7999999999975
 21
-267.446694787589
 31
0.0
  0
LINE
  5
28D5
330
2BAC
100
AcDbEntity
  8
0
 62
     0
100
AcDbLine
 10
58.44789156678415
 20
-152.9933701764175
 30
0.0
 11
82.99999999999455
 21
-164.6848442172031
 31
0.0
  0
LINE
  5
28D6
330
2BAC
100
AcDbEntity
  8
0
 62
     0
100
AcDbLine
 10
82.99999999999455
 20
-154.6848924730702
 30
0.0
 11
298.7999999999956
 21
-257.4467430434552
 31
0.0
  0
LINE
  5
28D7
330
2BAC
100
AcDbEntity
  8
0
 62
     0
100
AcDbLine
 10
79.4478013037733
 20
-152.9933701764194
 30
0.0
 11
82.99999999999455
 21
-154.6848924730702
 31
0.0
  0
LINE
  5
28D8
330
2BAC
100
AcDbEntity
  8
0
 62
     0
100
AcDbLine
 10
100.4477110407642
 20
-152.9933701764185
 30
0.0
 11
298.7999999999956
 21
-247.4467912993204
 31
0.0
  0
LINE
  5
28D9
330
2BAC
100
AcDbEntity
  8
0
 62
     0
100
AcDbLine
 10
121.4476207777534
 20
-152.9933701764175
 30
0.0
 11
298.7999999999956
 21
-237.4468395551857
 31
0.0
  0
LINE
  5
28DA
330
2BAC
100
AcDbEntity
  8
0
 62
     0
100
AcDbLine
 10
142.4475305147443
 20
-152.9933701764166
 30
0.0
 11
298.7999999999956
 21
-227.4468878110512
 31
0.0
  0
LINE
  5
28DB
330
2BAC
100
AcDbEntity
  8
0
 62
     0
100
AcDbLine
 10
163.4474402517335
 20
-152.9933701764157
 30
0.0
 11
298.7999999999975
 21
-217.4469360669164
 31
0.0
  0
LINE
  5
28DC
330
2BAC
100
AcDbEntity
  8
0
 62
     0
100
AcDbLine
 10
184.4473499887244
 20
-152.9933701764175
 30
0.0
 11
298.7999999999975
 21
-207.4469843227845
 31
0.0
  0
LINE
  5
28DD
330
2BAC
100
AcDbEntity
  8
0
 62
     0
100
AcDbLine
 10
205.4472597257136
 20
-152.9933701764166
 30
0.0
 11
298.7999999999956
 21
-197.4470325786496
 31
0.0
  0
LINE
  5
28DE
330
2BAC
100
AcDbEntity
  8
0
 62
     0
100
AcDbLine
 10
226.4471694627064
 20
-152.9933701764166
 30
0.0
 11
298.7999999999975
 21
-187.4470808345149
 31
0.0
  0
LINE
  5
28DF
330
2BAC
100
AcDbEntity
  8
0
 62
     0
100
AcDbLine
 10
247.4470791996973
 20
-152.9933701764166
 30
0.0
 11
298.7999999999975
 21
-177.4471290903802
 31
0.0
  0
LINE
  5
28E0
330
2BAC
100
AcDbEntity
  8
0
 62
     0
100
AcDbLine
 10
268.4469889366883
 20
-152.9933701764166
 30
0.0
 11
298.7999999999975
 21
-167.4471773462455
 31
0.0
  0
LINE
  5
28E1
330
2BAC
100
AcDbEntity
  8
0
 62
     0
100
AcDbLine
 10
289.4468986736811
 20
-152.9933701764185
 30
0.0
 11
298.7999999999975
 21
-157.4472256021117
 31
0.0
  0
ENDBLK
  5
28E2
330
2BAC
100
AcDbEntity
  8
0
100
AcDbBlockEnd
  0
BLOCK
  5
2BAF
330
2BAE
100
AcDbEntity
  8
0
100
AcDbBlockBegin
  2
*X24
 70
     1
 10
0.0
 20
0.0
 30
0.0
  3
*X24
  1

  0
LINE
  5
28E5
330
2BAE
100
AcDbEntity
  8
0
 62
     0
100
AcDbLine
 10
292.3771001863606
 20
-854.8080808012016
 30
0.0
 11
298.8000000000028
 21
-851.7495586933344
 31
0.0
  0
LINE
  5
28E6
330
2BAE
100
AcDbEntity
  8
0
 62
     0
100
AcDbLine
 10
271.3771904493733
 20
-854.8080808012025
 30
0.0
 11
298.8000000000028
 21
-841.7496069492019
 31
0.0
  0
LINE
  5
28E7
330
2BAE
100
AcDbEntity
  8
0
 62
     0
100
AcDbLine
 10
250.3772807123787
 20
-854.8080808012032
 30
0.0
 11
298.7999999999956
 21
-831.7496552050688
 31
0.0
  0
LINE
  5
28E8
330
2BAE
100
AcDbEntity
  8
0
 62
     0
100
AcDbLine
 10
229.3773709753878
 20
-854.8080808012032
 30
0.0
 11
298.7999999999992
 21
-821.7497034609332
 31
0.0
  0
LINE
  5
28E9
330
2BAE
100
AcDbEntity
  8
0
 62
     0
100
AcDbLine
 10
208.3774612384004
 20
-854.8080808012016
 30
0.0
 11
298.8000000000028
 21
-811.7497517167976
 31
0.0
  0
LINE
  5
28EA
330
2BAE
100
AcDbEntity
  8
0
 62
     0
100
AcDbLine
 10
187.3775515014131
 20
-854.8080808011999
 30
0.0
 11
298.7999999999992
 21
-801.7497999726638
 31
0.0
  0
LINE
  5
28EB
330
2BAE
100
AcDbEntity
  8
0
 62
     0
100
AcDbLine
 10
166.3776417644221
 20
-854.8080808012008
 30
0.0
 11
298.7999999999992
 21
-791.749848228529
 31
0.0
  0
LINE
  5
28EC
330
2BAE
100
AcDbEntity
  8
0
 62
     0
100
AcDbLine
 10
145.3777320274312
 20
-854.8080808012008
 30
0.0
 11
298.7999999999992
 21
-781.7498964843954
 31
0.0
  0
LINE
  5
28ED
330
2BAE
100
AcDbEntity
  8
0
 62
     0
100
AcDbLine
 10
124.3778222904366
 20
-854.8080808012016
 30
0.0
 11
298.7999999999992
 21
-771.7499447402606
 31
0.0
  0
LINE
  5
28EE
330
2BAE
100
AcDbEntity
  8
0
 62
     0
100
AcDbLine
 10
103.3779125534529
 20
-854.8080808011999
 30
0.0
 11
298.7999999999992
 21
-761.7499929961267
 31
0.0
  0
LINE
  5
28EF
330
2BAE
100
AcDbEntity
  8
0
 62
     0
100
AcDbLine
 10
82.3780028164583
 20
-854.8080808011999
 30
0.0
 11
298.7999999999992
 21
-751.7500412519914
 31
0.0
  0
LINE
  5
28F0
330
2BAE
100
AcDbEntity
  8
0
 62
     0
100
AcDbLine
 10
61.37809307946736
 20
-854.8080808011999
 30
0.0
 11
298.7999999999992
 21
-741.7500895078553
 31
0.0
  0
LINE
  5
28F1
330
2BAE
100
AcDbEntity
  8
0
 62
     0
100
AcDbLine
 10
40.37818334248004
 20
-854.8080808012008
 30
0.0
 11
298.7999999999992
 21
-731.7501377637227
 31
0.0
  0
LINE
  5
28F2
330
2BAE
100
AcDbEntity
  8
0
 62
     0
100
AcDbLine
 10
19.37827360548545
 20
-854.8080808012016
 30
0.0
 11
298.7999999999992
 21
-721.750186019588
 31
0.0
  0
LINE
  5
28F3
330
2BAE
100
AcDbEntity
  8
0
 62
     0
100
AcDbLine
 10
-1.621636131505511
 20
-854.8080808012016
 30
0.0
 11
298.7999999999992
 21
-711.7502342754542
 31
0.0
  0
LINE
  5
28F4
330
2BAE
100
AcDbEntity
  8
0
 62
     0
100
AcDbLine
 10
-22.62154586849647
 20
-854.8080808012016
 30
0.0
 11
298.8000000000028
 21
-701.7502825313185
 31
0.0
  0
LINE
  5
28F5
330
2BAE
100
AcDbEntity
  8
0
 62
     0
100
AcDbLine
 10
-43.6214556054874
 20
-854.8080808012016
 30
0.0
 11
298.7999999999956
 21
-691.7503307871847
 31
0.0
  0
LINE
  5
28F6
330
2BAE
100
AcDbEntity
  8
0
 62
     0
100
AcDbLine
 10
-64.62136534247838
 20
-854.8080808012025
 30
0.0
 11
298.7999999999992
 21
-681.75037904305
 31
0.0
  0
LINE
  5
28F7
330
2BAE
100
AcDbEntity
  8
0
 62
     0
100
AcDbLine
 10
-85.62127507946206
 20
-854.8080808011999
 30
0.0
 11
298.8000000000028
 21
-671.7504272989152
 31
0.0
  0
LINE
  5
28F8
330
2BAE
100
AcDbEntity
  8
0
 62
     0
100
AcDbLine
 10
-106.6211848164566
 20
-854.8080808011999
 30
0.0
 11
298.7999999999992
 21
-661.7504755547813
 31
0.0
  0
LINE
  5
28F9
330
2BAE
100
AcDbEntity
  8
0
 62
     0
100
AcDbLine
 10
-127.621094553444
 20
-854.8080808011999
 30
0.0
 11
298.8000000000028
 21
-651.7505238106457
 31
0.0
  0
LINE
  5
28FA
330
2BAE
100
AcDbEntity
  8
0
 62
     0
100
AcDbLine
 10
-148.6210042904349
 20
-854.8080808011999
 30
0.0
 11
298.7999999999992
 21
-641.7505720665121
 31
0.0
  0
LINE
  5
28FB
330
2BAE
100
AcDbEntity
  8
0
 62
     0
100
AcDbLine
 10
-169.6209140274295
 20
-854.8080808012008
 30
0.0
 11
298.7999999999992
 21
-631.7506203223772
 31
0.0
  0
LINE
  5
28FC
330
2BAE
100
AcDbEntity
  8
0
 62
     0
100
AcDbLine
 10
-190.6208237644168
 20
-854.8080808011992
 30
0.0
 11
298.7999999999992
 21
-621.7506685782437
 31
0.0
  0
LINE
  5
28FD
330
2BAE
100
AcDbEntity
  8
0
 62
     0
100
AcDbLine
 10
-211.6207335014078
 20
-854.8080808011999
 30
0.0
 11
298.8000000000028
 21
-611.750716834109
 31
0.0
  0
LINE
  5
28FE
330
2BAE
100
AcDbEntity
  8
0
 62
     0
100
AcDbLine
 10
-232.6206432384024
 20
-854.8080808011999
 30
0.0
 11
298.8000000000028
 21
-601.7507650899752
 31
0.0
  0
LINE
  5
28FF
330
2BAE
100
AcDbEntity
  8
0
 62
     0
100
AcDbLine
 10
-253.6205529753934
 20
-854.8080808011999
 30
0.0
 11
298.8000000000028
 21
-591.7508133458396
 31
0.0
  0
LINE
  5
2900
330
2BAE
100
AcDbEntity
  8
0
 62
     0
100
AcDbLine
 10
-274.6204627123843
 20
-854.8080808011999
 30
0.0
 11
298.8000000000028
 21
-581.7508616017041
 31
0.0
  0
LINE
  5
2901
330
2BAE
100
AcDbEntity
  8
0
 62
     0
100
AcDbLine
 10
-295.6203724493753
 20
-854.8080808012008
 30
0.0
 11
298.8000000000028
 21
-571.750909857571
 31
0.0
  0
LINE
  5
2902
330
2BAE
100
AcDbEntity
  8
0
 62
     0
100
AcDbLine
 10
-298.7999999999956
 20
-846.3222366160406
 30
0.0
 11
298.8000000000068
 21
-561.7509581134363
 31
0.0
  0
LINE
  5
2903
330
2BAE
100
AcDbEntity
  8
0
 62
     0
100
AcDbLine
 10
-298.7999999999992
 20
-836.3222848719068
 30
0.0
 11
298.8000000000028
 21
-551.7510063693022
 31
0.0
  0
LINE
  5
2904
330
2BAE
100
AcDbEntity
  8
0
 62
     0
100
AcDbLine
 10
-298.7999999999992
 20
-826.3223331277732
 30
0.0
 11
298.8000000000028
 21
-541.7510546251668
 31
0.0
  0
LINE
  5
2905
330
2BAE
100
AcDbEntity
  8
0
 62
     0
100
AcDbLine
 10
-298.7999999999956
 20
-816.3223813836376
 30
0.0
 11
298.8000000000028
 21
-531.7511028810331
 31
0.0
  0
LINE
  5
2906
330
2BAE
100
AcDbEntity
  8
0
 62
     0
100
AcDbLine
 10
-298.7999999999992
 20
-806.3224296395047
 30
0.0
 11
298.8000000000028
 21
-521.7511511368983
 31
0.0
  0
LINE
  5
2907
330
2BAE
100
AcDbEntity
  8
0
 62
     0
100
AcDbLine
 10
-298.7999999999956
 20
-796.3224778953697
 30
0.0
 11
298.8000000000068
 21
-511.7511993927635
 31
0.0
  0
LINE
  5
2908
330
2BAE
100
AcDbEntity
  8
0
 62
     0
100
AcDbLine
 10
-298.7999999999992
 20
-786.3225261512358
 30
0.0
 11
298.8000000000028
 21
-501.7512476486297
 31
0.0
  0
LINE
  5
2909
330
2BAE
100
AcDbEntity
  8
0
 62
     0
100
AcDbLine
 10
-298.7999999999992
 20
-776.3225744071005
 30
0.0
 11
298.8000000000028
 21
-491.7512959044943
 31
0.0
  0
LINE
  5
290A
330
2BAE
100
AcDbEntity
  8
0
 62
     0
100
AcDbLine
 10
-298.7999999999992
 20
-766.3226226629667
 30
0.0
 11
298.8000000000028
 21
-481.7513441603605
 31
0.0
  0
LINE
  5
290B
330
2BAE
100
AcDbEntity
  8
0
 62
     0
100
AcDbLine
 10
-298.7999999999956
 20
-756.3226709188319
 30
0.0
 11
298.8000000000068
 21
-471.7513924162256
 31
0.0
  0
LINE
  5
290C
330
2BAE
100
AcDbEntity
  8
0
 62
     0
100
AcDbLine
 10
-298.7999999999992
 20
-746.3227191746972
 30
0.0
 11
298.8000000000028
 21
-461.7514406720927
 31
0.0
  0
LINE
  5
290D
330
2BAE
100
AcDbEntity
  8
0
 62
     0
100
AcDbLine
 10
-298.7999999999992
 20
-736.3227674305635
 30
0.0
 11
298.8000000000028
 21
-451.7514889279572
 31
0.0
  0
LINE
  5
290E
330
2BAE
100
AcDbEntity
  8
0
 62
     0
100
AcDbLine
 10
-298.7999999999956
 20
-726.3228156864279
 30
0.0
 11
298.8000000000028
 21
-441.7515371838233
 31
0.0
  0
LINE
  5
290F
330
2BAE
100
AcDbEntity
  8
0
 62
     0
100
AcDbLine
 10
-298.7999999999992
 20
-716.3228639422941
 30
0.0
 11
298.8000000000028
 21
-431.7515854396879
 31
0.0
  0
LINE
  5
2910
330
2BAE
100
AcDbEntity
  8
0
 62
     0
100
AcDbLine
 10
-298.7999999999956
 20
-706.3229121981592
 30
0.0
 11
298.8000000000068
 21
-421.7516336955531
 31
0.0
  0
LINE
  5
2911
330
2BAE
100
AcDbEntity
  8
0
 62
     0
100
AcDbLine
 10
-298.7999999999992
 20
-696.3229604540255
 30
0.0
 11
298.8000000000028
 21
-411.7516819514192
 31
0.0
  0
LINE
  5
2912
330
2BAE
100
AcDbEntity
  8
0
 62
     0
100
AcDbLine
 10
-298.7999999999992
 20
-686.3230087098909
 30
0.0
 11
298.8000000000028
 21
-401.7517302072847
 31
0.0
  0
LINE
  5
2913
330
2BAE
100
AcDbEntity
  8
0
 62
     0
100
AcDbLine
 10
-298.7999999999992
 20
-676.3230569657571
 30
0.0
 11
298.8000000000028
 21
-391.7517784631509
 31
0.0
  0
LINE
  5
2914
330
2BAE
100
AcDbEntity
  8
0
 62
     0
100
AcDbLine
 10
-298.7999999999992
 20
-666.3231052216215
 30
0.0
 11
298.8000000000028
 21
-381.7518267190154
 31
0.0
  0
LINE
  5
2915
330
2BAE
100
AcDbEntity
  8
0
 62
     0
100
AcDbLine
 10
-298.7999999999956
 20
-656.3231534774859
 30
0.0
 11
298.8000000000028
 21
-371.7518749748815
 31
0.0
  0
LINE
  5
2916
330
2BAE
100
AcDbEntity
  8
0
 62
     0
100
AcDbLine
 10
-298.7999999999956
 20
-646.323201733353
 30
0.0
 11
298.8000000000068
 21
-361.7519232307468
 31
0.0
  0
LINE
  5
2917
330
2BAE
100
AcDbEntity
  8
0
 62
     0
100
AcDbLine
 10
-298.7999999999992
 20
-636.3232499892184
 30
0.0
 11
298.7999999999992
 21
-351.7519714866139
 31
0.0
  0
LINE
  5
2918
330
2BAE
100
AcDbEntity
  8
0
 62
     0
100
AcDbLine
 10
288.2131585057614
 20
-346.7933701764177
 30
0.0
 11
298.8000000000028
 21
-341.7520197424783
 31
0.0
  0
LINE
  5
2919
330
2BAE
100
AcDbEntity
  8
0
 62
     0
100
AcDbLine
 10
-298.7999999999992
 20
-626.3232982450845
 30
0.0
 11
288.2131585057614
 21
-346.7933701764177
 31
0.0
  0
LINE
  5
291A
330
2BAE
100
AcDbEntity
  8
0
 62
     0
100
AcDbLine
 10
267.2132487687704
 20
-346.7933701764159
 30
0.0
 11
298.8000000000068
 21
-331.7520679983427
 31
0.0
  0
LINE
  5
291B
330
2BAE
100
AcDbEntity
  8
0
 62
     0
100
AcDbLine
 10
-298.7999999999956
 20
-616.3233465009489
 30
0.0
 11
267.2132487687704
 21
-346.7933701764159
 31
0.0
  0
LINE
  5
291C
330
2BAE
100
AcDbEntity
  8
0
 62
     0
100
AcDbLine
 10
246.2133390317758
 20
-346.7933701764159
 30
0.0
 11
298.8000000000028
 21
-321.7521162542089
 31
0.0
  0
LINE
  5
291D
330
2BAE
100
AcDbEntity
  8
0
 62
     0
100
AcDbLine
 10
-298.7999999999992
 20
-606.3233947568151
 30
0.0
 11
246.2133390317758
 21
-346.7933701764159
 31
0.0
  0
LINE
  5
291E
330
2BAE
100
AcDbEntity
  8
0
 62
     0
100
AcDbLine
 10
225.2134292947849
 20
-346.7933701764168
 30
0.0
 11
298.8000000000068
 21
-311.7521645100742
 31
0.0
  0
LINE
  5
291F
330
2BAE
100
AcDbEntity
  8
0
 62
     0
100
AcDbLine
 10
-298.7999999999992
 20
-596.3234430126804
 30
0.0
 11
225.2134292947849
 21
-346.7933701764168
 31
0.0
  0
LINE
  5
2920
330
2BAE
100
AcDbEntity
  8
0
 62
     0
100
AcDbLine
 10
204.2135195577976
 20
-346.7933701764177
 30
0.0
 11
298.8000000000028
 21
-301.7522127659412
 31
0.0
  0
LINE
  5
2921
330
2BAE
100
AcDbEntity
  8
0
 62
     0
100
AcDbLine
 10
-298.7999999999992
 20
-586.3234912685475
 30
0.0
 11
204.2135195577976
 21
-346.7933701764177
 31
0.0
  0
LINE
  5
2922
330
2BAE
100
AcDbEntity
  8
0
 62
     0
100
AcDbLine
 10
183.2136098208064
 20
-346.7933701764159
 30
0.0
 11
298.8000000000028
 21
-291.7522610218057
 31
0.0
  0
LINE
  5
2923
330
2BAE
100
AcDbEntity
  8
0
 62
     0
100
AcDbLine
 10
-298.7999999999992
 20
-576.3235395244119
 30
0.0
 11
183.2136098208064
 21
-346.7933701764159
 31
0.0
  0
LINE
  5
2924
330
2BAE
100
AcDbEntity
  8
0
 62
     0
100
AcDbLine
 10
162.2137000838156
 20
-346.7933701764159
 30
0.0
 11
298.8000000000028
 21
-281.7523092776719
 31
0.0
  0
LINE
  5
2925
330
2BAE
100
AcDbEntity
  8
0
 62
     0
100
AcDbLine
 10
-298.7999999999956
 20
-566.3235877802763
 30
0.0
 11
162.2137000838156
 21
-346.7933701764159
 31
0.0
  0
LINE
  5
2926
330
2BAE
100
AcDbEntity
  8
0
 62
     0
100
AcDbLine
 10
141.2137903468247
 20
-346.7933701764159
 30
0.0
 11
298.8000000000068
 21
-271.7523575335365
 31
0.0
  0
LINE
  5
2927
330
2BAE
100
AcDbEntity
  8
0
 62
     0
100
AcDbLine
 10
-298.7999999999956
 20
-556.3236360361424
 30
0.0
 11
141.2137903468247
 21
-346.7933701764159
 31
0.0
  0
LINE
  5
2928
330
2BAE
100
AcDbEntity
  8
0
 62
     0
100
AcDbLine
 10
120.2138806098337
 20
-346.7933701764168
 30
0.0
 11
298.8000000000028
 21
-261.7524057894034
 31
0.0
  0
LINE
  5
2929
330
2BAE
100
AcDbEntity
  8
0
 62
     0
100
AcDbLine
 10
-298.7999999999992
 20
-546.3236842920077
 30
0.0
 11
120.2138806098337
 21
-346.7933701764168
 31
0.0
  0
LINE
  5
292A
330
2BAE
100
AcDbEntity
  8
0
 62
     0
100
AcDbLine
 10
99.21397087284276
 20
-346.7933701764168
 30
0.0
 11
298.8000000000028
 21
-251.7524540452678
 31
0.0
  0
LINE
  5
292B
330
2BAE
100
AcDbEntity
  8
0
 62
     0
100
AcDbLine
 10
-298.7999999999992
 20
-536.3237325478737
 30
0.0
 11
99.21397087284276
 21
-346.7933701764168
 31
0.0
  0
LINE
  5
292C
330
2BAE
100
AcDbEntity
  8
0
 62
     0
100
AcDbLine
 10
83.0
 20
-344.5143528715216
 30
0.0
 11
298.7999999999956
 21
-241.7525023011367
 31
0.0
  0
LINE
  5
292D
330
2BAE
100
AcDbEntity
  8
0
 62
     0
100
AcDbLine
 10
-298.7999999999992
 20
-526.323780803739
 30
0.0
 11
83.0
 21
-344.5143528715216
 31
0.0
  0
LINE
  5
292E
330
2BAE
100
AcDbEntity
  8
0
 62
     0
100
AcDbLine
 10
83.0
 20
-334.514401127386
 30
0.0
 11
298.7999999999992
 21
-231.7525505570011
 31
0.0
  0
LINE
  5
292F
330
2BAE
100
AcDbEntity
  8
0
 62
     0
100
AcDbLine
 10
-298.7999999999992
 20
-516.3238290596052
 30
0.0
 11
83.0
 21
-334.514401127386
 31
0.0
  0
LINE
  5
2930
330
2BAE
100
AcDbEntity
  8
0
 62
     0
100
AcDbLine
 10
83.00000000000364
 20
-324.5144493832504
 30
0.0
 11
298.8000000000028
 21
-221.7525988128655
 31
0.0
  0
LINE
  5
2931
330
2BAE
100
AcDbEntity
  8
0
 62
     0
100
AcDbLine
 10
-298.7999999999956
 20
-506.3238773154696
 30
0.0
 11
83.00000000000364
 21
-324.5144493832504
 31
0.0
  0
LINE
  5
2932
330
2BAE
100
AcDbEntity
  8
0
 62
     0
100
AcDbLine
 10
83.0
 20
-314.5144976391168
 30
0.0
 11
298.7999999999992
 21
-211.7526470687317
 31
0.0
  0
LINE
  5
2933
330
2BAE
100
AcDbEntity
  8
0
 62
     0
100
AcDbLine
 10
-298.8000000000028
 20
-496.3239255713359
 30
0.0
 11
83.0
 21
-314.5144976391168
 31
0.0
  0
LINE
  5
2934
330
2BAE
100
AcDbEntity
  8
0
 62
     0
100
AcDbLine
 10
83.00000000000364
 20
-304.5145458949819
 30
0.0
 11
298.7999999999992
 21
-201.752695324597
 31
0.0
  0
LINE
  5
2935
330
2BAE
100
AcDbEntity
  8
0
 62
     0
100
AcDbLine
 10
-298.7999999999992
 20
-486.3239738272011
 30
0.0
 11
83.00000000000364
 21
-304.5145458949819
 31
0.0
  0
LINE
  5
2936
330
2BAE
100
AcDbEntity
  8
0
 62
     0
100
AcDbLine
 10
83.00000000000364
 20
-294.514594150849
 30
0.0
 11
298.7999999999992
 21
-191.7527435804641
 31
0.0
  0
LINE
  5
2937
330
2BAE
100
AcDbEntity
  8
0
 62
     0
100
AcDbLine
 10
-298.7999999999956
 20
-476.3240220830665
 30
0.0
 11
83.00000000000364
 21
-294.514594150849
 31
0.0
  0
LINE
  5
2938
330
2BAE
100
AcDbEntity
  8
0
 62
     0
100
AcDbLine
 10
83.0
 20
-284.5146424067134
 30
0.0
 11
298.7999999999992
 21
-181.7527918363284
 31
0.0
  0
LINE
  5
2939
330
2BAE
100
AcDbEntity
  8
0
 62
     0
100
AcDbLine
 10
-298.7999999999992
 20
-466.3240703389329
 30
0.0
 11
83.0
 21
-284.5146424067134
 31
0.0
  0
LINE
  5
293A
330
2BAE
100
AcDbEntity
  8
0
 62
     0
100
AcDbLine
 10
83.0
 20
-274.5146906625796
 30
0.0
 11
298.7999999999992
 21
-171.7528400921946
 31
0.0
  0
LINE
  5
293B
330
2BAE
100
AcDbEntity
  8
0
 62
     0
100
AcDbLine
 10
-298.7999999999956
 20
-456.3241185947972
 30
0.0
 11
83.0
 21
-274.5146906625796
 31
0.0
  0
LINE
  5
293C
330
2BAE
100
AcDbEntity
  8
0
 62
     0
100
AcDbLine
 10
83.00000000000364
 20
-264.514738918444
 30
0.0
 11
298.8000000000028
 21
-161.752888348059
 31
0.0
  0
LINE
  5
293D
330
2BAE
100
AcDbEntity
  8
0
 62
     0
100
AcDbLine
 10
-298.7999999999992
 20
-446.3241668506634
 30
0.0
 11
83.00000000000364
 21
-264.514738918444
 31
0.0
  0
LINE
  5
293E
330
2BAE
100
AcDbEntity
  8
0
 62
     0
100
AcDbLine
 10
83.00000000000364
 20
-254.5147871743093
 30
0.0
 11
296.19508812407
 21
-152.9933701764157
 31
0.0
  0
LINE
  5
293F
330
2BAE
100
AcDbEntity
  8
0
 62
     0
100
AcDbLine
 10
-298.7999999999992
 20
-436.3242151065287
 30
0.0
 11
83.00000000000364
 21
-254.5147871743093
 31
0.0
  0
LINE
  5
2940
330
2BAE
100
AcDbEntity
  8
0
 62
     0
100
AcDbLine
 10
83.00000000000364
 20
-244.5148354301764
 30
0.0
 11
275.195178387079
 21
-152.9933701764166
 31
0.0
  0
LINE
  5
2941
330
2BAE
100
AcDbEntity
  8
0
 62
     0
100
AcDbLine
 10
-298.7999999999992
 20
-426.3242633623956
 30
0.0
 11
83.00000000000364
 21
-244.5148354301764
 31
0.0
  0
LINE
  5
2942
330
2BAE
100
AcDbEntity
  8
0
 62
     0
100
AcDbLine
 10
83.00000000000364
 20
-234.5148836860408
 30
0.0
 11
254.1952686500918
 21
-152.9933701764166
 31
0.0
  0
LINE
  5
2943
330
2BAE
100
AcDbEntity
  8
0
 62
     0
100
AcDbLine
 10
-298.7999999999956
 20
-416.32431161826
 30
0.0
 11
83.00000000000364
 21
-234.5148836860408
 31
0.0
  0
LINE
  5
2944
330
2BAE
100
AcDbEntity
  8
0
 62
     0
100
AcDbLine
 10
83.0
 20
-224.514931941907
 30
0.0
 11
233.1953589130971
 21
-152.9933701764166
 31
0.0
  0
LINE
  5
2945
330
2BAE
100
AcDbEntity
  8
0
 62
     0
100
AcDbLine
 10
-298.7999999999992
 20
-406.3243598741262
 30
0.0
 11
83.0
 21
-224.514931941907
 31
0.0
  0
LINE
  5
2946
330
2BAE
100
AcDbEntity
  8
0
 62
     0
100
AcDbLine
 10
83.00000000000364
 20
-214.5149801977713
 30
0.0
 11
212.1954491761061
 21
-152.9933701764166
 31
0.0
  0
LINE
  5
2947
330
2BAE
100
AcDbEntity
  8
0
 62
     0
100
AcDbLine
 10
-298.7999999999992
 20
-396.3244081299908
 30
0.0
 11
83.00000000000364
 21
-214.5149801977713
 31
0.0
  0
LINE
  5
2948
330
2BAE
100
AcDbEntity
  8
0
 62
     0
100
AcDbLine
 10
83.00000000000364
 20
-204.5150284536385
 30
0.0
 11
191.1955394391189
 21
-152.9933701764175
 31
0.0
  0
LINE
  5
2949
330
2BAE
100
AcDbEntity
  8
0
 62
     0
100
AcDbLine
 10
-298.7999999999956
 20
-386.324456385858
 30
0.0
 11
83.00000000000364
 21
-204.5150284536385
 31
0.0
  0
LINE
  5
294A
330
2BAE
100
AcDbEntity
  8
0
 62
     0
100
AcDbLine
 10
83.00000000000364
 20
-194.5150767095029
 30
0.0
 11
170.1956297021243
 21
-152.9933701764157
 31
0.0
  0
LINE
  5
294B
330
2BAE
100
AcDbEntity
  8
0
 62
     0
100
AcDbLine
 10
-298.7999999999992
 20
-376.3245046417242
 30
0.0
 11
83.00000000000364
 21
-194.5150767095029
 31
0.0
  0
LINE
  5
294C
330
2BAE
100
AcDbEntity
  8
0
 62
     0
100
AcDbLine
 10
83.0
 20
-184.51512496537
 30
0.0
 11
149.1957199651333
 21
-152.9933701764166
 31
0.0
  0
LINE
  5
294D
330
2BAE
100
AcDbEntity
  8
0
 62
     0
100
AcDbLine
 10
-298.7999999999956
 20
-366.3245528975894
 30
0.0
 11
83.0
 21
-184.51512496537
 31
0.0
  0
LINE
  5
294E
330
2BAE
100
AcDbEntity
  8
0
 62
     0
100
AcDbLine
 10
83.0
 20
-174.5151732212343
 30
0.0
 11
128.1958102281423
 21
-152.9933701764166
 31
0.0
  0
LINE
  5
294F
330
2BAE
100
AcDbEntity
  8
0
 62
     0
100
AcDbLine
 10
-298.7999999999992
 20
-356.3246011534557
 30
0.0
 11
83.0
 21
-174.5151732212343
 31
0.0
  0
LINE
  5
2950
330
2BAE
100
AcDbEntity
  8
0
 62
     0
100
AcDbLine
 10
83.00000000000364
 20
-164.5152214770987
 30
0.0
 11
107.195900491155
 21
-152.9933701764148
 31
0.0
  0
LINE
  5
2951
330
2BAE
100
AcDbEntity
  8
0
 62
     0
100
AcDbLine
 10
-298.7999999999992
 20
-346.32464940932
 30
0.0
 11
83.00000000000364
 21
-164.5152214770987
 31
0.0
  0
LINE
  5
2952
330
2BAE
100
AcDbEntity
  8
0
 62
     0
100
AcDbLine
 10
83.00000000000364
 20
-154.5152697329649
 30
0.0
 11
86.19599075416408
 21
-152.9933701764148
 31
0.0
  0
LINE
  5
2953
330
2BAE
100
AcDbEntity
  8
0
 62
     0
100
AcDbLine
 10
-298.7999999999992
 20
-336.3246976651863
 30
0.0
 11
83.00000000000364
 21
-154.5152697329649
 31
0.0
  0
LINE
  5
2954
330
2BAE
100
AcDbEntity
  8
0
 62
     0
100
AcDbLine
 10
-298.7999999999992
 20
-326.3247459210524
 30
0.0
 11
65.19608101717313
 21
-152.9933701764148
 31
0.0
  0
LINE
  5
2955
330
2BAE
100
AcDbEntity
  8
0
 62
     0
100
AcDbLine
 10
-298.7999999999992
 20
-316.3247941769188
 30
0.0
 11
44.19617128018217
 21
-152.9933701764148
 31
0.0
  0
LINE
  5
2956
330
2BAE
100
AcDbEntity
  8
0
 62
     0
100
AcDbLine
 10
-298.7999999999956
 20
-306.3248424327829
 30
0.0
 11
23.19626154319485
 21
-152.9933701764148
 31
0.0
  0
LINE
  5
2957
330
2BAE
100
AcDbEntity
  8
0
 62
     0
100
AcDbLine
 10
-298.7999999999992
 20
-296.3248906886473
 30
0.0
 11
2.196351806200254
 21
-152.9933701764148
 31
0.0
  0
LINE
  5
2958
330
2BAE
100
AcDbEntity
  8
0
 62
     0
100
AcDbLine
 10
-298.7999999999992
 20
-286.3249389445136
 30
0.0
 11
-18.80355793079068
 21
-152.9933701764148
 31
0.0
  0
LINE
  5
2959
330
2BAE
100
AcDbEntity
  8
0
 62
     0
100
AcDbLine
 10
-298.7999999999956
 20
-276.324987200378
 30
0.0
 11
-39.80346766777802
 21
-152.9933701764148
 31
0.0
  0
LINE
  5
295A
330
2BAE
100
AcDbEntity
  8
0
 62
     0
100
AcDbLine
 10
-298.7999999999992
 20
-266.3250354562442
 30
0.0
 11
-60.8033774047726
 21
-152.9933701764148
 31
0.0
  0
LINE
  5
295B
330
2BAE
100
AcDbEntity
  8
0
 62
     0
100
AcDbLine
 10
-298.7999999999956
 20
-256.3250837121104
 30
0.0
 11
-81.80328714176354
 21
-152.9933701764166
 31
0.0
  0
LINE
  5
295C
330
2BAE
100
AcDbEntity
  8
0
 62
     0
100
AcDbLine
 10
-298.8000000000028
 20
-246.3251319679766
 30
0.0
 11
-102.8031968787545
 21
-152.9933701764166
 31
0.0
  0
LINE
  5
295D
330
2BAE
100
AcDbEntity
  8
0
 62
     0
100
AcDbLine
 10
-298.7999999999992
 20
-236.325180223841
 30
0.0
 11
-123.8031066157455
 21
-152.9933701764166
 31
0.0
  0
LINE
  5
295E
330
2BAE
100
AcDbEntity
  8
0
 62
     0
100
AcDbLine
 10
-298.7999999999992
 20
-226.325228479709
 30
0.0
 11
-144.8030163527364
 21
-152.9933701764185
 31
0.0
  0
LINE
  5
295F
330
2BAE
100
AcDbEntity
  8
0
 62
     0
100
AcDbLine
 10
-298.7999999999992
 20
-216.3252767355734
 30
0.0
 11
-165.802926089731
 21
-152.9933701764185
 31
0.0
  0
LINE
  5
2960
330
2BAE
100
AcDbEntity
  8
0
 62
     0
100
AcDbLine
 10
-298.7999999999956
 20
-206.3253249914378
 30
0.0
 11
-186.8028358267183
 21
-152.9933701764185
 31
0.0
  0
LINE
  5
2961
330
2BAE
100
AcDbEntity
  8
0
 62
     0
100
AcDbLine
 10
-298.7999999999992
 20
-196.325373247304
 30
0.0
 11
-207.8027455637093
 21
-152.9933701764185
 31
0.0
  0
LINE
  5
2962
330
2BAE
100
AcDbEntity
  8
0
 62
     0
100
AcDbLine
 10
-298.7999999999992
 20
-186.3254215031684
 30
0.0
 11
-228.8026553007039
 21
-152.9933701764185
 31
0.0
  0
LINE
  5
2963
330
2BAE
100
AcDbEntity
  8
0
 62
     0
100
AcDbLine
 10
-298.7999999999992
 20
-176.3254697590346
 30
0.0
 11
-249.8025650376912
 21
-152.9933701764185
 31
0.0
  0
LINE
  5
2964
330
2BAE
100
AcDbEntity
  8
0
 62
     0
100
AcDbLine
 10
-298.7999999999956
 20
-166.325518014899
 30
0.0
 11
-270.8024747746748
 21
-152.9933701764148
 31
0.0
  0
LINE
  5
2965
330
2BAE
100
AcDbEntity
  8
0
 62
     0
100
AcDbLine
 10
-298.7999999999992
 20
-156.325566270767
 30
0.0
 11
-291.8023845116695
 21
-152.9933701764166
 31
0.0
  0
ENDBLK
  5
2966
330
2BAE
100
AcDbEntity
  8
0
100
AcDbBlockEnd
  0
ENDSEC
  0
SECTION
  2
ENTITIES
  0
TEXT
  5
953
330
2B33
100
AcDbEntity
  8
OUTLINE
  6
Continuous
 62
     3
100
AcDbText
 10
-418.231467
 20
13.715189
 30
0.0
 40
64.0
  1
 
 41
0.9
100
AcDbText
  0
TEXT
  5
954
330
2B33
100
AcDbEntity
  8
OUTLINE
  6
Continuous
 62
     3
100
AcDbText
 10
-418.231467
 20
13.715189
 30
0.0
 40
64.0
  1
 
 41
0.9
100
AcDbText
  0
TEXT
  5
955
330
2B33
100
AcDbEntity
  8
OUTLINE
  6
Continuous
 62
     3
100
AcDbText
 10
1341.41903
 20
-706.0588199999997
 30
0.0
 40
64.0
  1
 
 41
0.9
100
AcDbText
  0
TEXT
  5
956
330
2B33
100
AcDbEntity
  8
OUTLINE
  6
Continuous
 62
     3
100
AcDbText
 10
1341.41903
 20
-706.0588199999997
 30
0.0
 40
64.0
  1
 
 41
0.9
100
AcDbText
  0
TEXT
  5
957
330
2B33
100
AcDbEntity
  8
OUTLINE
  6
Continuous
 62
     3
100
AcDbText
 10
1341.41903
 20
-706.0588199999997
 30
0.0
 40
64.0
  1
 
 41
0.9
100
AcDbText
  0
TEXT
  5
958
330
2B33
100
AcDbEntity
  8
OUTLINE
  6
Continuous
 62
     3
100
AcDbText
 10
1341.41903
 20
-706.0588199999997
 30
0.0
 40
64.0
  1
 
 41
0.9
100
AcDbText
  0
TEXT
  5
29FB
330
2B33
100
AcDbEntity
  8
ETC
100
AcDbText
 10
559.2987359845865
 20
352.0879826302129
 30
0.0
 40
64.0
  1
システム部材
 41
0.9
100
AcDbText
  0
TEXT
  5
29FC
330
2B33
100
AcDbEntity
  8
ETC
100
AcDbText
 10
565.5067339845844
 20
452.9713086302128
 30
0.0
 40
64.0
  1
QWH-60SA_6
 41
0.9
100
AcDbText
  0
TEXT
  5
29FD
330
2B33
100
AcDbEntity
  8
ETC
100
AcDbText
 10
565.5067339845844
 20
252.9713086302131
 30
0.0
 40
64.0
  1
QWH-60SA
 41
0.9
100
AcDbText
  0
POINT
  5
29FE
330
2B33
100
AcDbEntity
  8
ARRANGE
100
AcDbPoint
 10
0.0
 20
0.0000000986738087
 30
0.0
 39
50.0
  0
LINE
  5
29FF
330
2B33
100
AcDbEntity
  8
DETAIL
100
AcDbLine
 10
-298.7999999999992
 20
-152.9933701764175
 30
0.0
 11
298.8000000000028
 21
-152.9933701764175
 31
0.0
  0
LINE
  5
2A00
330
2B33
100
AcDbEntity
  8
DETAIL
100
AcDbLine
 10
298.8000000000028
 20
-854.8080808012016
 30
0.0
 11
-298.7999999999992
 21
-854.8080808012016
 31
0.0
  0
LINE
  5
2A01
330
2B33
100
AcDbEntity
  8
DETAIL
100
AcDbLine
 10
-298.7999999999992
 20
-854.8080808012016
 30
0.0
 11
-298.7999999999992
 21
-152.9933701764185
 31
0.0
  0
LINE
  5
2A02
330
2B33
100
AcDbEntity
  8
NOTE
100
AcDbLine
 10
-325.0
 20
12.5
 30
0.0
 11
-325.0
 21
-12.5
 31
0.0
  0
LINE
  5
2A03
330
2B33
100
AcDbEntity
  8
DETAIL
100
AcDbLine
 10
298.8000000000028
 20
-854.8080808012016
 30
0.0
 11
298.8000000000028
 21
-152.9933701764175
 31
0.0
  0
LINE
  5
2A04
330
2B33
100
AcDbEntity
  8
BASIS
100
AcDbLine
 10
0.0
 20
25.0
 30
0.0
 11
0.0
 21
-906.0000000000004
 31
0.0
  0
CIRCLE
  5
2A05
330
2B33
100
AcDbEntity
  8
ARRANGE
100
AcDbCircle
 10
0.0
 20
0.0
 30
0.0
 40
40.0
  0
LINE
  5
2A06
330
2B33
100
AcDbEntity
  8
NOTE
100
AcDbLine
 10
325.0
 20
-12.5
 30
0.0
 11
325.0
 21
12.5
 31
0.0
  0
LINE
  5
2A07
330
2B33
100
AcDbEntity
  8
DETAIL
100
AcDbLine
 10
-310.7999999999992
 20
-881.0000000000011
 30
0.0
 11
-310.7999999999992
 21
-870.0
 31
0.0
  0
LINE
  5
2A08
330
2B33
100
AcDbEntity
  8
DETAIL
100
AcDbLine
 10
310.8000000000028
 20
-881.0000000000011
 30
0.0
 11
-310.7999999999992
 21
-881.0000000000011
 31
0.0
  0
LINE
  5
2A09
330
2B33
100
AcDbEntity
  8
DETAIL
100
AcDbLine
 10
310.8000000000028
 20
-870.0
 30
0.0
 11
310.8000000000028
 21
-881.0000000000016
 31
0.0
  0
LINE
  5
2A0A
330
2B33
100
AcDbEntity
  8
DETAIL
100
AcDbLine
 10
310.8000000000028
 20
-99.66862915010096
 30
0.0
 11
-310.7999999999957
 21
-99.66862915010096
 31
0.0
  0
LINE
  5
2A0B
330
2B33
100
AcDbEntity
  8
DETAIL
100
AcDbLine
 10
311.6000000000022
 20
-99.66862915010096
 30
0.0
 11
311.6000000000022
 21
-126.9019089103367
 31
0.0
  0
LINE
  5
2A0C
330
2B33
100
AcDbEntity
  8
DETAIL
100
AcDbLine
 10
-311.5999999999985
 20
-99.66862915010096
 30
0.0
 11
-311.5999999999985
 21
-7.999999999999089
 31
0.0
  0
LINE
  5
2A0D
330
2B33
100
AcDbEntity
  8
DETAIL
100
AcDbLine
 10
-311.5999999999985
 20
-126.9019089103376
 30
0.0
 11
-311.5999999999985
 21
-99.66862915010096
 31
0.0
  0
LINE
  5
2A0E
330
2B33
100
AcDbEntity
  8
DETAIL
100
AcDbLine
 10
-310.7999999999957
 20
-99.66862915010096
 30
0.0
 11
-311.5999999999985
 21
-99.66862915010096
 31
0.0
  0
LINE
  5
2A0F
330
2B33
100
AcDbEntity
  8
DETAIL
100
AcDbLine
 10
311.6000000000022
 20
-8.0
 30
0.0
 11
311.6000000000022
 21
-99.66862915010187
 31
0.0
  0
LINE
  5
2A10
330
2B33
100
AcDbEntity
  8
DETAIL
100
AcDbLine
 10
310.8000000000028
 20
-99.66862915010096
 30
0.0
 11
311.6000000000022
 21
-99.66862915010096
 31
0.0
  0
LINE
  5
2A11
330
2B33
100
AcDbEntity
  8
DETAIL
100
AcDbLine
 10
350.0
 20
0.0
 30
0.0
 11
-350.0
 21
0.0
 31
0.0
  0
LINE
  5
2A12
330
2B33
100
AcDbEntity
  8
DETAIL
100
AcDbLine
 10
350.0
 20
-8.0
 30
0.0
 11
-350.0
 21
-8.0
 31
0.0
  0
LINE
  5
2A13
330
2B33
100
AcDbEntity
  8
DETAIL
100
AcDbLine
 10
-350.0
 20
0.0
 30
0.0
 11
-350.0
 21
-8.0
 31
0.0
  0
LINE
  5
2A14
330
2B33
100
AcDbEntity
  8
DETAIL
100
AcDbLine
 10
350.0
 20
0.0
 30
0.0
 11
350.0
 21
-8.0
 31
0.0
  0
LINE
  5
2A15
330
2B33
100
AcDbEntity
  8
DETAIL
100
AcDbLine
 10
299.6000000000022
 20
-126.9019089103376
 30
0.0
 11
323.0
 21
-126.9019089103376
 31
0.0
  0
LINE
  5
2A16
330
2B33
100
AcDbEntity
  8
DETAIL
100
AcDbLine
 10
-299.7999999999992
 20
-126.9019089103376
 30
0.0
 11
-323.0
 21
-126.9019089103376
 31
0.0
  0
LINE
  5
2A17
330
2B33
100
AcDbEntity
  8
DETAIL
100
AcDbLine
 10
313.6000000000022
 20
-126.9019089103376
 30
0.0
 11
313.6000000000022
 21
-152.8958358562695
 31
0.0
  0
LINE
  5
2A18
330
2B33
100
AcDbEntity
  8
DETAIL
100
AcDbLine
 10
-313.5999999999985
 20
-126.9019089103376
 30
0.0
 11
-313.5999999999985
 21
-152.8958358562695
 31
0.0
  0
LINE
  5
2A19
330
2B33
100
AcDbEntity
  8
DETAIL
100
AcDbLine
 10
-313.5999999999985
 20
-126.9019089103376
 30
0.0
 11
313.6000000000022
 21
-126.9019089103376
 31
0.0
  0
LINE
  5
2A1A
330
2B33
100
AcDbEntity
  8
DETAIL
100
AcDbLine
 10
-313.5999999999985
 20
-152.8958358562704
 30
0.0
 11
-313.5999999999985
 21
-152.9933701764175
 31
0.0
  0
LINE
  5
2A1B
330
2B33
100
AcDbEntity
  8
DETAIL
100
AcDbLine
 10
-313.5999999999985
 20
-152.9933701764175
 30
0.0
 11
313.6000000000022
 21
-152.9933701764175
 31
0.0
  0
LINE
  5
2A1C
330
2B33
100
AcDbEntity
  8
OUTLINE
100
AcDbLine
 10
313.6000000000022
 20
-152.8958358562704
 30
0.0
 11
313.6000000000022
 21
-152.9933701764175
 31
0.0
  0
LINE
  5
2A1D
330
2B33
100
AcDbEntity
  8
DETAIL
100
AcDbLine
 10
-323.0
 20
-870.0
 30
0.0
 11
-323.0
 21
-126.9019089103376
 31
0.0
  0
LINE
  5
2A1E
330
2B33
100
AcDbEntity
  8
DETAIL
100
AcDbLine
 10
-298.7999999999992
 20
-868.5138723045742
 30
0.0
 11
-313.5999999999985
 21
-868.5138723045742
 31
0.0
  0
LINE
  5
2A1F
330
2B33
100
AcDbEntity
  8
DETAIL
100
AcDbLine
 10
-298.7999999999992
 20
-868.4163379844267
 30
0.0
 11
-298.7999999999992
 21
-868.5138723045742
 31
0.0
  0
LINE
  5
2A20
330
2B33
100
AcDbEntity
  8
DETAIL
100
AcDbLine
 10
-313.5999999999985
 20
-868.5138723045742
 30
0.0
 11
-313.5999999999985
 21
-152.9933701764166
 31
0.0
  0
LINE
  5
2A21
330
2B33
100
AcDbEntity
  8
DETAIL
100
AcDbLine
 10
-313.5999999999985
 20
-868.4163379844267
 30
0.0
 11
-298.7999999999992
 21
-868.4163379844267
 31
0.0
  0
LINE
  5
2A22
330
2B33
100
AcDbEntity
  8
DETAIL
100
AcDbLine
 10
-298.7999999999992
 20
-868.4163379844267
 30
0.0
 11
-298.7999999999992
 21
-152.9933701764185
 31
0.0
  0
LINE
  5
2A23
330
2B33
100
AcDbEntity
  8
DETAIL
100
AcDbLine
 10
323.0
 20
-126.9019089103376
 30
0.0
 11
323.0
 21
-870.0
 31
0.0
  0
LINE
  5
2A24
330
2B33
100
AcDbEntity
  8
DETAIL
100
AcDbLine
 10
298.8000000000028
 20
-868.5138723045742
 30
0.0
 11
313.6000000000022
 21
-868.5138723045742
 31
0.0
  0
LINE
  5
2A25
330
2B33
100
AcDbEntity
  8
DETAIL
100
AcDbLine
 10
298.8000000000028
 20
-868.4163379844267
 30
0.0
 11
298.8000000000028
 21
-868.5138723045742
 31
0.0
  0
LINE
  5
2A26
330
2B33
100
AcDbEntity
  8
DETAIL
100
AcDbLine
 10
298.8000000000028
 20
-152.9933701764175
 30
0.0
 11
298.8000000000028
 21
-868.4163379844267
 31
0.0
  0
LINE
  5
2A27
330
2B33
100
AcDbEntity
  8
DETAIL
100
AcDbLine
 10
313.6000000000022
 20
-868.4163379844267
 30
0.0
 11
298.8000000000028
 21
-868.4163379844267
 31
0.0
  0
LINE
  5
2A28
330
2B33
100
AcDbEntity
  8
DETAIL
100
AcDbLine
 10
313.6000000000022
 20
-152.9933701764175
 30
0.0
 11
313.6000000000022
 21
-868.5138723045742
 31
0.0
  0
LINE
  5
2A29
330
2B33
100
AcDbEntity
  8
DETAIL
100
AcDbLine
 10
298.8000000000028
 20
-867.8870858167137
 30
0.0
 11
-298.7999999999992
 21
-867.8870858167137
 31
0.0
  0
LINE
  5
2A2A
330
2B33
100
AcDbEntity
  8
DETAIL
100
AcDbLine
 10
298.8000000000028
 20
-868.104624609168
 30
0.0
 11
-298.7999999999992
 21
-868.104624609168
 31
0.0
  0
LINE
  5
2A2B
330
2B33
100
AcDbEntity
  8
DETAIL
100
AcDbLine
 10
-298.7999999999992
 20
-854.8080808012016
 30
0.0
 11
298.8000000000028
 21
-854.8080808012016
 31
0.0
  0
LINE
  5
2A2C
330
2B33
100
AcDbEntity
  8
DETAIL
100
AcDbLine
 10
323.0
 20
-870.0
 30
0.0
 11
-323.0
 21
-870.0
 31
0.0
  0
LINE
  5
2A2D
330
2B33
100
AcDbEntity
  8
DETAIL
100
AcDbLine
 10
313.6000000000022
 20
-140.0
 30
0.0
 11
-313.5999999999985
 21
-140.0
 31
0.0
  0
INSERT
  5
2A2E
330
2B33
100
AcDbEntity
  8
0
100
AcDbBlockReference
  2
*U22
 10
0.0
 20
0.0
 30
0.0
1001
ACAD
1000
DSTYLE
1002
{
1070
    41
1040
12.0
1070
    42
1040
20.0
1070
    43
1040
200.0
1070
    44
1040
20.0
1070
    73
1070
     0
1070
    74
1070
     0
1070
    77
1070
     1
1070
    78
1070
     8
1070
   140
1040
64.0
1070
   147
1040
50.0
1070
   172
1070
     1
1070
   174
1070
     1
1070
   275
1070
     0
1070
   284
1070
     0
1070
   285
1070
     0
1070
   286
1070
     0
1070
   341
1005
0
1070
   342
1005
0
1002
}
  0
LINE
  5
2A2F
330
2B33
100
AcDbEntity
  8
NOTE
100
AcDbLine
 39
50.0
 10
-337.5
 20
0.0
 30
0.0
 11
-312.5
 21
0.0
 31
0.0
  0
LINE
  5
2A30
330
2B33
100
AcDbEntity
  8
NOTE
100
AcDbLine
 39
50.0
 10
312.5
 20
0.0
 30
0.0
 11
337.5
 21
0.0
 31
0.0
  0
LINE
  5
2A31
330
2B33
100
AcDbEntity
  8
OUTLINE
100
AcDbLine
 39
50.0
 10
-350.0
 20
0.0
 30
0.0
 11
350.0
 21
0.0
 31
0.0
  0
LINE
  5
2A32
330
2B33
100
AcDbEntity
  8
OUTLINE
100
AcDbLine
 10
-310.7999999999992
 20
-881.0000000000011
 30
0.0
 11
-310.7999999999992
 21
-870.0
 31
0.0
  0
LINE
  5
2A33
330
2B33
100
AcDbEntity
  8
OUTLINE
100
AcDbLine
 10
310.8000000000028
 20
-881.0000000000011
 30
0.0
 11
-310.7999999999992
 21
-881.0000000000011
 31
0.0
  0
LINE
  5
2A34
330
2B33
100
AcDbEntity
  8
OUTLINE
100
AcDbLine
 10
310.8000000000028
 20
-870.0
 30
0.0
 11
310.8000000000028
 21
-881.0000000000016
 31
0.0
  0
LINE
  5
2A35
330
2B33
100
AcDbEntity
  8
OUTLINE
100
AcDbLine
 10
310.8000000000028
 20
-99.66862915010096
 30
0.0
 11
-310.7999999999957
 21
-99.66862915010096
 31
0.0
  0
LINE
  5
2A36
330
2B33
100
AcDbEntity
  8
OUTLINE
100
AcDbLine
 10
311.6000000000022
 20
-99.66862915010096
 30
0.0
 11
311.6000000000022
 21
-126.9019089103367
 31
0.0
  0
LINE
  5
2A37
330
2B33
100
AcDbEntity
  8
OUTLINE
100
AcDbLine
 10
-311.5999999999985
 20
-99.66862915010096
 30
0.0
 11
-311.5999999999985
 21
-7.999999999999089
 31
0.0
  0
LINE
  5
2A38
330
2B33
100
AcDbEntity
  8
OUTLINE
100
AcDbLine
 10
-311.5999999999985
 20
-126.9019089103376
 30
0.0
 11
-311.5999999999985
 21
-99.66862915010096
 31
0.0
  0
LINE
  5
2A39
330
2B33
100
AcDbEntity
  8
OUTLINE
100
AcDbLine
 10
-310.7999999999957
 20
-99.66862915010096
 30
0.0
 11
-311.5999999999985
 21
-99.66862915010096
 31
0.0
  0
LINE
  5
2A3A
330
2B33
100
AcDbEntity
  8
OUTLINE
100
AcDbLine
 10
311.6000000000022
 20
-8.0
 30
0.0
 11
311.6000000000022
 21
-99.66862915010187
 31
0.0
  0
LINE
  5
2A3B
330
2B33
100
AcDbEntity
  8
OUTLINE
100
AcDbLine
 10
350.0
 20
-8.0
 30
0.0
 11
-350.0
 21
-8.0
 31
0.0
  0
LINE
  5
2A3C
330
2B33
100
AcDbEntity
  8
OUTLINE
100
AcDbLine
 10
-350.0
 20
0.0
 30
0.0
 11
-350.0
 21
-8.0
 31
0.0
  0
LINE
  5
2A3D
330
2B33
100
AcDbEntity
  8
OUTLINE
100
AcDbLine
 10
350.0
 20
0.0
 30
0.0
 11
350.0
 21
-8.0
 31
0.0
  0
LINE
  5
2A3E
330
2B33
100
AcDbEntity
  8
OUTLINE
100
AcDbLine
 10
299.6000000000022
 20
-126.9019089103376
 30
0.0
 11
323.0
 21
-126.9019089103376
 31
0.0
  0
LINE
  5
2A3F
330
2B33
100
AcDbEntity
  8
OUTLINE
100
AcDbLine
 10
-299.7999999999992
 20
-126.9019089103376
 30
0.0
 11
-323.0
 21
-126.9019089103376
 31
0.0
  0
LINE
  5
2A40
330
2B33
100
AcDbEntity
  8
OUTLINE
100
AcDbLine
 10
313.6000000000022
 20
-126.9019089103376
 30
0.0
 11
313.6000000000022
 21
-152.8958358562695
 31
0.0
  0
LINE
  5
2A41
330
2B33
100
AcDbEntity
  8
OUTLINE
100
AcDbLine
 10
-313.5999999999985
 20
-126.9019089103376
 30
0.0
 11
-313.5999999999985
 21
-152.8958358562695
 31
0.0
  0
LINE
  5
2A42
330
2B33
100
AcDbEntity
  8
OUTLINE
100
AcDbLine
 10
-313.5999999999985
 20
-126.9019089103376
 30
0.0
 11
313.6000000000022
 21
-126.9019089103376
 31
0.0
  0
LINE
  5
2A43
330
2B33
100
AcDbEntity
  8
OUTLINE
100
AcDbLine
 10
-313.5999999999985
 20
-152.8958358562704
 30
0.0
 11
-313.5999999999985
 21
-152.9933701764175
 31
0.0
  0
LINE
  5
2A44
330
2B33
100
AcDbEntity
  8
OUTLINE
100
AcDbLine
 10
-323.0
 20
-870.0
 30
0.0
 11
-323.0
 21
-126.9019089103376
 31
0.0
  0
LINE
  5
2A45
330
2B33
100
AcDbEntity
  8
OUTLINE
100
AcDbLine
 10
-298.7999999999992
 20
-868.5138723045742
 30
0.0
 11
-313.5999999999985
 21
-868.5138723045742
 31
0.0
  0
LINE
  5
2A46
330
2B33
100
AcDbEntity
  8
OUTLINE
100
AcDbLine
 10
-298.7999999999992
 20
-868.4163379844267
 30
0.0
 11
-298.7999999999992
 21
-868.5138723045742
 31
0.0
  0
LINE
  5
2A47
330
2B33
100
AcDbEntity
  8
OUTLINE
100
AcDbLine
 10
-313.5999999999985
 20
-868.5138723045742
 30
0.0
 11
-313.5999999999985
 21
-152.9933701764166
 31
0.0
  0
LINE
  5
2A48
330
2B33
100
AcDbEntity
  8
OUTLINE
100
AcDbLine
 10
-313.5999999999985
 20
-868.4163379844267
 30
0.0
 11
-298.7999999999992
 21
-868.4163379844267
 31
0.0
  0
LINE
  5
2A49
330
2B33
100
AcDbEntity
  8
OUTLINE
100
AcDbLine
 10
323.0
 20
-126.9019089103376
 30
0.0
 11
323.0
 21
-870.0
 31
0.0
  0
LINE
  5
2A4A
330
2B33
100
AcDbEntity
  8
OUTLINE
100
AcDbLine
 10
298.8000000000028
 20
-868.5138723045742
 30
0.0
 11
313.6000000000022
 21
-868.5138723045742
 31
0.0
  0
LINE
  5
2A4B
330
2B33
100
AcDbEntity
  8
OUTLINE
100
AcDbLine
 10
298.8000000000028
 20
-868.4163379844267
 30
0.0
 11
298.8000000000028
 21
-868.5138723045742
 31
0.0
  0
LINE
  5
2A4C
330
2B33
100
AcDbEntity
  8
OUTLINE
100
AcDbLine
 10
313.6000000000022
 20
-868.4163379844267
 30
0.0
 11
298.8000000000028
 21
-868.4163379844267
 31
0.0
  0
LINE
  5
2A4D
330
2B33
100
AcDbEntity
  8
OUTLINE
100
AcDbLine
 10
313.6000000000022
 20
-152.9933701764175
 30
0.0
 11
313.6000000000022
 21
-868.5138723045742
 31
0.0
  0
LINE
  5
2A4E
330
2B33
100
AcDbEntity
  8
OUTLINE
100
AcDbLine
 10
298.8000000000028
 20
-867.8870858167137
 30
0.0
 11
-298.7999999999992
 21
-867.8870858167137
 31
0.0
  0
LINE
  5
2A4F
330
2B33
100
AcDbEntity
  8
OUTLINE
100
AcDbLine
 10
298.8000000000028
 20
-868.104624609168
 30
0.0
 11
-298.7999999999992
 21
-868.104624609168
 31
0.0
  0
LINE
  5
2A50
330
2B33
100
AcDbEntity
  8
OUTLINE
100
AcDbLine
 10
323.0
 20
-870.0
 30
0.0
 11
-323.0
 21
-870.0
 31
0.0
  0
LINE
  5
2A51
330
2B33
100
AcDbEntity
  8
OUTLINE
100
AcDbLine
 10
313.6000000000022
 20
-140.0
 30
0.0
 11
-313.5999999999985
 21
-140.0
 31
0.0
  0
LINE
  5
2A52
330
2B33
100
AcDbEntity
  8
OUTLINE
100
AcDbLine
 10
310.8000000000028
 20
-99.66862915010096
 30
0.0
 11
311.6000000000022
 21
-99.66862915010096
 31
0.0
  0
INSERT
  5
2A53
330
2B33
100
AcDbEntity
  8
DETAIL___1
  6
Continuous
100
AcDbBlockReference
  2
*X23
 10
0.0
 20
0.0
 30
0.0
1001
ACADANNOTATIVE
1000
AnnotativeData
1002
{
1070
     1
1070
     0
1002
}
1001
ACAD
1000
HATCH
1002
{
1070
    19
1000
LINE
1040
72.22849999999998
1040
5.838766301980095
1000
R14_HATCH_DATA
1000
3D34
1011
1.0
1021
0.0
1031
0.0
1011
0.0
1021
1.0
1031
0.0
1011
0.0
1021
0.0
1031
1.0
1040
0.0
1010
0.0
1020
0.0
1030
1.0
1000
LINE
1070
     0
1070
     0
1071
        2
1071
        7
1070
     0
1070
     1
1071
        6
1040
298.7999999999992
1040
-346.7933701764168
1040
83.00000000000364
1040
-346.7933701764168
1040
83.00000000000364
1040
-152.9933701764166
1040
-298.7999999999992
1040
-152.9933701764175
1040
-298.7999999999992
1040
-854.8080808012008
1040
298.7999999999992
1040
-854.8080808012016
1071
        0
1071
        7
1070
     0
1070
     1
1071
        4
1040
298.8000000000028
1040
-346.7933701764168
1040
298.8000000000028
1040
-152.9933701764166
1040
83.00000000000364
1040
-152.9933701764166
1040
83.00000000000364
1040
-346.7933701764168
1071
        0
1070
     0
1070
     1
1040
5.838766301980095
1040
72.22849999999998
1070
     0
1070
     1
1040
5.838766301980095
1040
19591.73804169333
1040
4155.379120618925
1040
3.881680532789153
1040
8.151533417570705
1070
     0
1040
3.524853665991813
1071
        2
1040
-75.86735663720538
1040
-512.1115752559326
1040
0.0
1040
197.1751664771
1040
-269.6946887788208
1040
0.0
1002
}
  0
INSERT
  5
2A54
330
2B33
100
AcDbEntity
  8
DETAIL___1
  6
Continuous
100
AcDbBlockReference
  2
*X24
 10
0.0
 20
0.0
 30
0.0
1001
ACADANNOTATIVE
1000
AnnotativeData
1002
{
1070
     1
1070
     0
1002
}
1001
ACAD
1000
HATCH
1002
{
1070
    19
1000
LINE
1040
72.22849999999998
1040
0.4444190051994897
1000
R14_HATCH_DATA
1000
3D3A
1011
1.0
1021
0.0
1031
0.0
1011
0.0
1021
1.0
1031
0.0
1011
0.0
1021
0.0
1031
1.0
1040
0.0
1010
0.0
1020
0.0
1030
1.0
1000
LINE
1070
     0
1070
     0
1071
        2
1071
        7
1070
     0
1070
     1
1071
        6
1040
298.8000000000028
1040
-346.7933701764168
1040
83.00000000000364
1040
-346.7933701764168
1040
83.00000000000364
1040
-152.9933701764166
1040
-298.7999999999992
1040
-152.9933701764175
1040
-298.7999999999992
1040
-854.8080808012008
1040
298.7999999999992
1040
-854.8080808012016
1071
        0
1071
       23
1070
     0
1070
     1
1071
        4
1040
298.7999999999992
1040
-152.9933701764166
1040
83.00000000000364
1040
-152.9933701764166
1040
83.00000000000364
1040
-346.7933701764168
1040
298.8000000000028
1040
-346.7933701764168
1071
        0
1070
     0
1070
     1
1040
0.4444190051994897
1040
72.22849999999998
1070
     0
1070
     1
1040
0.4444190051994897
1040
19591.73804169333
1040
4155.379120618925
1040
-3.881680532789157
1040
8.151533417570702
1070
     0
1040
2.02878778326169
1071
        2
1040
-114.8549545163878
1040
-401.7257128723631
1040
0.0
1040
222.1675573120738
1040
-269.3171997486343
1040
0.0
1002
}
  0
LINE
  5
2A55
330
2B33
100
AcDbEntity
  8
OUTLINE
100
AcDbLine
 39
50.0
 10
-298.7999999999992
 20
-854.8080808012016
 30
0.0
 11
298.8000000000028
 21
-854.8080808012016
 31
0.0
  0
LINE
  5
2A56
330
2B33
100
AcDbEntity
  8
OUTLINE
100
AcDbLine
 39
50.0
 10
298.8000000000028
 20
-868.4163379844267
 30
0.0
 11
298.8000000000028
 21
-152.9933701764175
 31
0.0
  0
LINE
  5
2A57
330
2B33
100
AcDbEntity
  8
OUTLINE
100
AcDbLine
 39
50.0
 10
-313.5999999999985
 20
-152.9933701764175
 30
0.0
 11
313.6000000000022
 21
-152.9933701764175
 31
0.0
  0
LINE
  5
2A58
330
2B33
100
AcDbEntity
  8
OUTLINE
100
AcDbLine
 39
50.0
 10
-298.7999999999992
 20
-152.9933701764185
 30
0.0
 11
-298.7999999999992
 21
-868.4163379844267
 31
0.0
  0
LINE
  5
2A59
330
2B33
100
AcDbEntity
  8
SIZE
100
AcDbLine
 10
370.0
 20
0.0
 30
0.0
 11
474.9505766349283
 21
0.0
 31
0.0
  0
LINE
  5
2A5A
330
2B33
100
AcDbEntity
  8
SIZE
100
AcDbLine
 10
370.0
 20
-8.0
 30
0.0
 11
474.9505766349283
 21
-8.0
 31
0.0
  0
LINE
  5
2A5B
330
2B33
100
AcDbEntity
  8
SIZE
100
AcDbLine
 10
454.9505766349283
 20
12.0
 30
0.0
 11
454.9505766349283
 21
24.0
 31
0.0
  0
LINE
  5
2A5C
330
2B33
100
AcDbEntity
  8
SIZE
100
AcDbLine
 10
454.9505766349283
 20
-20.0
 30
0.0
 11
454.9505766349283
 21
-90.39999999999997
 31
0.0
  0
LINE
  5
2A5D
330
2B33
100
AcDbEntity
  8
SIZE
100
AcDbLine
 10
454.9505766349283
 20
0.0
 30
0.0
 11
454.9505766349283
 21
-8.0
 31
0.0
  0
INSERT
  5
2A5E
330
2B33
100
AcDbEntity
  8
SIZE
100
AcDbBlockReference
  2
_DOTBLANK
 10
454.9505766349283
 20
0.0
 30
0.0
 41
12.0
 42
12.0
 43
12.0
 50
270.0
  0
INSERT
  5
2A5F
330
2B33
100
AcDbEntity
  8
SIZE
100
AcDbBlockReference
  2
_DOTBLANK
 10
454.9505766349283
 20
-8.0
 30
0.0
 41
12.0
 42
12.0
 43
12.0
 50
90.0
  0
LINE
  5
2A60
330
2B33
100
AcDbEntity
  8
SIZE
100
AcDbLine
 10
325.0
 20
32.5
 30
0.0
 11
325.0
 21
181.1320911082903
 31
0.0
  0
LINE
  5
2A61
330
2B33
100
AcDbEntity
  8
SIZE
100
AcDbLine
 10
-325.0
 20
32.5
 30
0.0
 11
-325.0
 21
181.1320911082903
 31
0.0
  0
LINE
  5
2A62
330
2B33
100
AcDbEntity
  8
SIZE
100
AcDbLine
 10
313.0
 20
161.1320911082903
 30
0.0
 11
-313.0
 21
161.1320911082903
 31
0.0
  0
INSERT
  5
2A63
330
2B33
100
AcDbEntity
  8
SIZE
100
AcDbBlockReference
  2
_DOTBLANK
 10
325.0
 20
161.1320911082903
 30
0.0
 41
12.0
 42
12.0
 43
12.0
  0
INSERT
  5
2A64
330
2B33
100
AcDbEntity
  8
SIZE
100
AcDbBlockReference
  2
_DOTBLANK
 10
-325.0
 20
161.1320911082903
 30
0.0
 41
12.0
 42
12.0
 43
12.0
 50
180.0
  0
LINE
  5
2A65
330
2B33
100
AcDbEntity
  8
SIZE
100
AcDbLine
 10
350.0
 20
20.00000009867381
 30
0.0
 11
350.0
 21
299.6865930351905
 31
0.0
  0
LINE
  5
2A66
330
2B33
100
AcDbEntity
  8
SIZE
100
AcDbLine
 10
-350.0
 20
20.00000009867381
 30
0.0
 11
-350.0
 21
299.6865930351905
 31
0.0
  0
LINE
  5
2A67
330
2B33
100
AcDbEntity
  8
SIZE
100
AcDbLine
 10
338.0
 20
279.6865930351905
 30
0.0
 11
-338.0
 21
279.6865930351905
 31
0.0
  0
INSERT
  5
2A68
330
2B33
100
AcDbEntity
  8
SIZE
100
AcDbBlockReference
  2
_DOTBLANK
 10
350.0
 20
279.6865930351905
 30
0.0
 41
12.0
 42
12.0
 43
12.0
  0
INSERT
  5
2A69
330
2B33
100
AcDbEntity
  8
SIZE
100
AcDbBlockReference
  2
_DOTBLANK
 10
-350.0
 20
279.6865930351905
 30
0.0
 41
12.0
 42
12.0
 43
12.0
 50
180.0
  0
LINE
  5
2A6A
330
2B33
100
AcDbEntity
  8
SIZE
100
AcDbLine
 10
-343.0
 20
-870.0
 30
0.0
 11
-543.5633253057094
 21
-870.0
 31
0.0
  0
LINE
  5
2A6B
330
2B33
100
AcDbEntity
  8
SIZE
100
AcDbLine
 10
-330.7999999999992
 20
-881.0000000000011
 30
0.0
 11
-543.5633253057094
 21
-881.0000000000011
 31
0.0
  0
LINE
  5
2A6C
330
2B33
100
AcDbEntity
  8
SIZE
100
AcDbLine
 10
-523.5633253057094
 20
-858.0
 30
0.0
 11
-523.5633253057094
 21
-846.0
 31
0.0
  0
LINE
  5
2A6D
330
2B33
100
AcDbEntity
  8
SIZE
100
AcDbLine
 10
-523.5633253057094
 20
-893.0000000000008
 30
0.0
 11
-523.5633253057094
 21
-982.6000000000007
 31
0.0
  0
LINE
  5
2A6E
330
2B33
100
AcDbEntity
  8
SIZE
100
AcDbLine
 10
-523.5633253057094
 20
-870.0
 30
0.0
 11
-523.5633253057094
 21
-881.0000000000011
 31
0.0
  0
INSERT
  5
2A6F
330
2B33
100
AcDbEntity
  8
SIZE
100
AcDbBlockReference
  2
_DOTBLANK
 10
-523.5633253057094
 20
-870.0
 30
0.0
 41
12.0
 42
12.0
 43
12.0
 50
270.0
  0
INSERT
  5
2A70
330
2B33
100
AcDbEntity
  8
SIZE
100
AcDbBlockReference
  2
_DOTBLANK
 10
-523.5633253057094
 20
-881.0000000000011
 30
0.0
 41
12.0
 42
12.0
 43
12.0
 50
90.0
  0
LINE
  5
2A71
330
2B33
100
AcDbEntity
  8
SIZE
100
AcDbLine
 10
-343.0
 20
-870.0
 30
0.0
 11
-543.5633253057094
 21
-870.0
 31
0.0
  0
LINE
  5
2A72
330
2B33
100
AcDbEntity
  8
SIZE
100
AcDbLine
 10
-370.0
 20
0.0000000986738087
 30
0.0
 11
-543.5633253057094
 21
0.0000000986738087
 31
0.0
  0
LINE
  5
2A73
330
2B33
100
AcDbEntity
  8
SIZE
100
AcDbLine
 10
-523.5633253057094
 20
-858.0
 30
0.0
 11
-523.5633253057094
 21
-11.99999990132619
 31
0.0
  0
INSERT
  5
2A74
330
2B33
100
AcDbEntity
  8
SIZE
100
AcDbBlockReference
  2
_DOTBLANK
 10
-523.5633253057094
 20
-870.0
 30
0.0
 41
12.0
 42
12.0
 43
12.0
 50
270.0
  0
INSERT
  5
2A75
330
2B33
100
AcDbEntity
  8
SIZE
100
AcDbBlockReference
  2
_DOTBLANK
 10
-523.5633253057094
 20
0.0000000986738087
 30
0.0
 41
12.0
 42
12.0
 43
12.0
 50
90.0
  0
LINE
  5
2A76
330
2B33
100
AcDbEntity
  8
SIZE
100
AcDbLine
 10
323.0
 20
-890.0
 30
0.0
 11
323.0
 21
-1039.152290639288
 31
0.0
  0
LINE
  5
2A77
330
2B33
100
AcDbEntity
  8
SIZE
100
AcDbLine
 10
-323.0
 20
-890.0
 30
0.0
 11
-323.0
 21
-1039.152290639288
 31
0.0
  0
LINE
  5
2A78
330
2B33
100
AcDbEntity
  8
SIZE
100
AcDbLine
 10
311.0
 20
-1019.152290639288
 30
0.0
 11
-311.0
 21
-1019.152290639288
 31
0.0
  0
INSERT
  5
2A79
330
2B33
100
AcDbEntity
  8
SIZE
100
AcDbBlockReference
  2
_DOTBLANK
 10
323.0
 20
-1019.152290639288
 30
0.0
 41
12.0
 42
12.0
 43
12.0
  0
INSERT
  5
2A7A
330
2B33
100
AcDbEntity
  8
SIZE
100
AcDbBlockReference
  2
_DOTBLANK
 10
-323.0
 20
-1019.152290639288
 30
0.0
 41
12.0
 42
12.0
 43
12.0
 50
180.0
  0
TEXT
  5
2A7B
330
2B33
100
AcDbEntity
  8
SIZE
100
AcDbText
 10
-72.6857142857143
 20
-1009.152290639288
 30
0.0
 40
64.0
  1
646
 41
0.9
100
AcDbText
  0
TEXT
  5
2A7C
330
2B33
100
AcDbEntity
  8
SIZE
100
AcDbText
 10
-533.5633253057088
 20
-972.6000000000007
 30
0.0
 40
64.0
  1
11
 50
90.0
 41
0.9
100
AcDbText
  0
TEXT
  5
2A7D
330
2B33
100
AcDbEntity
  8
SIZE
100
AcDbText
 10
-533.5633253057094
 20
-510.1897240729612
 30
0.0
 40
64.0
  1
870
 50
90.0
 41
0.9
100
AcDbText
  0
TEXT
  5
2A7E
330
2B33
100
AcDbEntity
  8
SIZE
100
AcDbText
 10
-74.61302049113601
 20
171.1320911082903
 30
0.0
 40
64.0
  1
650
 41
0.9
100
AcDbText
  0
TEXT
  5
2A7F
330
2B33
100
AcDbEntity
  8
SIZE
100
AcDbText
 10
-74.05714285714293
 20
289.6865930351905
 30
0.0
 40
64.0
  1
700
 41
0.9
100
AcDbText
  0
TEXT
  5
2A80
330
2B33
100
AcDbEntity
  8
SIZE
100
AcDbText
 10
444.9505766349283
 20
-80.39999999999997
 30
0.0
 40
64.0
  1
8
 50
90.0
 41
0.9
100
AcDbText
  0
TEXT
  5
2A81
330
2B33
100
AcDbEntity
  8
NOTE
100
AcDbText
 10
-958.7093999922544
 20
113.5270950580134
 30
0.0
 40
64.0
  1
4×φ15取付穴
 41
0.9
100
AcDbText
  0
ENDSEC
  0
SECTION
  2
OBJECTS
  0
DICTIONARY
  5
2ACB
330
0
100
AcDbDictionary
281
     1
  3
ACAD_2007HEADERVARS_RT
350
2CBE
  3
ACAD_COLOR
350
2B29
  3
ACAD_GROUP
350
2ACC
  3
ACAD_LAYOUT
350
2B28
  3
ACAD_MATERIAL
350
2ACF
  3
ACAD_MLEADERSTYLE
350
2B2C
  3
ACAD_MLINESTYLE
350
2B25
  3
ACAD_PLOTSETTINGS
350
2B27
  3
ACAD_PLOTSTYLENAME
350
2ACD
  3
ACAD_SCALELIST
350
2AF9
  3
ACAD_TABLESTYLE
350
2B2A
  3
ACAD_VISUALSTYLE
350
2AE8
  3
ACDB_RECOMPOSE_DATA
350
2CBC
  3
AcDbVariableDictionary
350
2CB3
  3
AcmDictionary
350
2C63
  3
AMG
350
2BB0
  3
DWGPROPS
350
2CBD
  3
MAPISURF_MODULE
350
2C30
  0
DICTIONARY
  5
2C8B
330
2B1B
100
AcDbDictionary
280
     1
281
     1
  3
ADSK_XREC_LAYER_RECONCILED
360
2C8C
  0
DICTIONARY
  5
2C8D
330
2B4A
100
AcDbDictionary
280
     1
281
     1
  3
ADSK_XREC_LAYER_RECONCILED
360
2C8E
  0
DICTIONARY
  5
2C8F
330
2B4B
100
AcDbDictionary
280
     1
281
     1
  3
ADSK_XREC_LAYER_RECONCILED
360
2C90
  0
DICTIONARY
  5
2C91
330
2B4C
100
AcDbDictionary
280
     1
281
     1
  3
ADSK_XREC_LAYER_RECONCILED
360
2C92
  0
DICTIONARY
  5
2C93
330
2B4D
100
AcDbDictionary
280
     1
281
     1
  3
ADSK_XREC_LAYER_RECONCILED
360
2C94
  0
DICTIONARY
  5
2C95
330
2B4E
100
AcDbDictionary
280
     1
281
     1
  3
ADSK_XREC_LAYER_RECONCILED
360
2C96
  0
DICTIONARY
  5
2C97
330
2B50
100
AcDbDictionary
280
     1
281
     1
  3
ADSK_XREC_LAYER_RECONCILED
360
2C98
  0
DICTIONARY
  5
2C99
330
2B51
100
AcDbDictionary
280
     1
281
     1
  3
ADSK_XREC_LAYER_RECONCILED
360
2C9A
  0
DICTIONARY
  5
2C9B
330
2B52
100
AcDbDictionary
280
     1
281
     1
  3
ADSK_XREC_LAYER_RECONCILED
360
2C9C
  0
DICTIONARY
  5
2C9D
330
2B53
100
AcDbDictionary
280
     1
281
     1
  3
ADSK_XREC_LAYER_RECONCILED
360
2C9E
  0
DICTIONARY
  5
2C9F
330
2B54
100
AcDbDictionary
280
     1
281
     1
  3
ADSK_XREC_LAYER_RECONCILED
360
2CA0
  0
DICTIONARY
  5
2CA1
330
2B55
100
AcDbDictionary
280
     1
281
     1
  3
ADSK_XREC_LAYER_RECONCILED
360
2CA2
  0
DICTIONARY
  5
2CA3
330
2B33
100
AcDbDictionary
280
     1
281
     1
  3
ACAD_INDEX
360
2CA4
  0
DICTIONARY
  5
2CBE
102
{ACAD_REACTORS
330
2ACB
102
}
330
2ACB
100
AcDbDictionary
281
     1
  3
DIMARCSYM
350
2CBF
  3
DIMLTEX1
350
2CC1
  3
DIMLTEX2
350
2CC2
  3
DIMLTYPE
350
2CC0
  0
DICTIONARY
  5
2B29
102
{ACAD_REACTORS
330
2ACB
102
}
330
2ACB
100
AcDbDictionary
281
     1
  0
DICTIONARY
  5
2ACC
102
{ACAD_REACTORS
330
2ACB
102
}
330
2ACB
100
AcDbDictionary
281
     1
  0
DICTIONARY
  5
2B28
102
{ACAD_REACTORS
330
2ACB
102
}
330
2ACB
100
AcDbDictionary
281
     1
  3
Model
350
2B36
  3
レイアウト1
350
2B32
  0
DICTIONARY
  5
2ACF
102
{ACAD_REACTORS
330
2ACB
102
}
330
2ACB
100
AcDbDictionary
281
     1
  3
ByBlock
350
2AD8
  3
ByLayer
350
2AD0
  3
Global
350
2AE0
  0
DICTIONARY
  5
2B2C
102
{ACAD_REACTORS
330
2ACB
102
}
330
2ACB
100
AcDbDictionary
281
     1
  3
Standard
350
2B2D
  0
DICTIONARY
  5
2B25
102
{ACAD_REACTORS
330
2ACB
102
}
330
2ACB
100
AcDbDictionary
281
     1
  3
Standard
350
2B26
  0
DICTIONARY
  5
2B27
102
{ACAD_REACTORS
330
2ACB
102
}
330
2ACB
100
AcDbDictionary
281
     1
  0
ACDBDICTIONARYWDFLT
  5
2ACD
102
{ACAD_REACTORS
330
2ACB
102
}
330
2ACB
100
AcDbDictionary
281
     1
  3
Normal
350
2ACE
100
AcDbDictionaryWithDefault
340
2ACE
  0
DICTIONARY
  5
2AF9
102
{ACAD_REACTORS
330
2ACB
102
}
330
2ACB
100
AcDbDictionary
281
     1
  3
A0
350
2AFA
  3
A1
350
2AFB
  3
A2
350
2AFC
  3
A3
350
2AFD
  3
A4
350
2AFE
  3
A5
350
2AFF
  3
A6
350
2B00
  3
A7
350
2B01
  3
A8
350
2B02
  3
A9
350
2B03
  3
B0
350
2B04
  3
B1
350
2B05
  3
B2
350
2B06
  3
B3
350
2B07
  3
B4
350
2B08
  3
B5
350
2B09
  3
B6
350
2B0A
  3
B7
350
2B0B
  3
B8
350
2B0C
  3
B9
350
2B0D
  3
C0
350
2B0E
  3
C1
350
2B0F
  3
C2
350
2B10
  3
C3
350
2B11
  3
C4
350
2B12
  3
C5
350
2B13
  3
C6
350
2B14
  3
C7
350
2B15
  3
C8
350
2B16
  3
C9
350
2B17
  3
D0
350
2B18
  3
D1
350
2B19
  3
D2
350
2B1A
  0
DICTIONARY
  5
2B2A
102
{ACAD_REACTORS
330
2ACB
102
}
330
2ACB
100
AcDbDictionary
281
     1
  3
Standard
350
2B2B
  0
DICTIONARY
  5
2AE8
102
{ACAD_REACTORS
330
2ACB
102
}
330
2ACB
100
AcDbDictionary
281
     1
  3
2dWireframe
350
2AEE
  3
3D Hidden
350
2AF0
  3
3dWireframe
350
2AEF
  3
Basic
350
2AED
  3
Brighten
350
2AF4
  3
ColorChange
350
2AF8
  3
Conceptual
350
2AF1
  3
Dim
350
2AF3
  3
Facepattern
350
2AF7
  3
Flat
350
2AE9
  3
FlatWithEdges
350
2AEA
  3
Gouraud
350
2AEB
  3
GouraudWithEdges
350
2AEC
  3
Linepattern
350
2AF6
  3
Realistic
350
2AF2
  3
Thicken
350
2AF5
  0
XRECORD
  5
2CBC
102
{ACAD_REACTORS
330
2ACB
102
}
330
2ACB
100
AcDbXrecord
280
     1
 90
        1
330
2B2B
  0
DICTIONARY
  5
2CB3
102
{ACAD_REACTORS
330
2ACB
102
}
330
2ACB
100
AcDbDictionary
281
     1
  3
CANNOSCALE
350
2CB6
  3
CMLEADERSTYLE
350
2CB5
  3
CTABLESTYLE
350
2CB4
  3
DIMASSOC
350
2CB9
  3
INDEXCTL
350
2CB8
  3
SORTENTS
350
2CB7
  0
DICTIONARY
  5
2C63
102
{ACAD_REACTORS
330
2ACB
102
}
330
2ACB
100
AcDbDictionary
281
     1
  3
AcmStdDictionary
350
2C71
  0
DICTIONARY
  5
2BB0
102
{ACAD_REACTORS
330
2ACB
102
}
330
2ACB
100
AcDbDictionary
281
     1
  3
AcMgSettings
350
2BB1
  0
XRECORD
  5
2CBD
102
{ACAD_REACTORS
330
2ACB
102
}
330
2ACB
100
AcDbXrecord
280
     1
  1
DWGPROPS COOKIE
  2

  3

  4

  6

  7

  8
A090053
  9

300
AmdtFileType=84
301
=
302
=
303
=
304
=
305
=
306
=
307
=
308
=
309
=
 40
1.043893993055555
 41
2452321.396199653
 42
2456213.407129445
  1

 90
        1
  0
XRECORD
  5
2C8C
102
{ACAD_REACTORS
330
2C8B
102
}
330
2C8B
100
AcDbXrecord
280
     1
290
     1
  0
XRECORD
  5
2C8E
102
{ACAD_REACTORS
330
2C8D
102
}
330
2C8D
100
AcDbXrecord
280
     1
290
     1
  0
XRECORD
  5
2C90
102
{ACAD_REACTORS
330
2C8F
102
}
330
2C8F
100
AcDbXrecord
280
     1
290
     1
  0
XRECORD
  5
2C92
102
{ACAD_REACTORS
330
2C91
102
}
330
2C91
100
AcDbXrecord
280
     1
290
     1
  0
XRECORD
  5
2C94
102
{ACAD_REACTORS
330
2C93
102
}
330
2C93
100
AcDbXrecord
280
     1
290
     1
  0
XRECORD
  5
2C96
102
{ACAD_REACTORS
330
2C95
102
}
330
2C95
100
AcDbXrecord
280
     1
290
     1
  0
XRECORD
  5
2C98
102
{ACAD_REACTORS
330
2C97
102
}
330
2C97
100
AcDbXrecord
280
     1
290
     1
  0
XRECORD
  5
2C9A
102
{ACAD_REACTORS
330
2C99
102
}
330
2C99
100
AcDbXrecord
280
     1
290
     1
  0
XRECORD
  5
2C9C
102
{ACAD_REACTORS
330
2C9B
102
}
330
2C9B
100
AcDbXrecord
280
     1
290
     1
  0
XRECORD
  5
2C9E
102
{ACAD_REACTORS
330
2C9D
102
}
330
2C9D
100
AcDbXrecord
280
     1
290
     1
  0
XRECORD
  5
2CA0
102
{ACAD_REACTORS
330
2C9F
102
}
330
2C9F
100
AcDbXrecord
280
     1
290
     1
  0
XRECORD
  5
2CA2
102
{ACAD_REACTORS
330
2CA1
102
}
330
2CA1
100
AcDbXrecord
280
     1
290
     1
  0
DICTIONARY
  5
2CA4
102
{ACAD_REACTORS
330
2CA3
102
}
330
2CA3
100
AcDbDictionary
281
     1
  3
*A1
350
2CA5
  0
XRECORD
  5
2CBF
102
{ACAD_REACTORS
330
2CBE
102
}
330
2CBE
100
AcDbXrecord
280
     1
 70
     1
  0
XRECORD
  5
2CC1
102
{ACAD_REACTORS
330
2CBE
102
}
330
2CBE
100
AcDbXrecord
280
     1
340
2B21
  0
XRECORD
  5
2CC2
102
{ACAD_REACTORS
330
2CBE
102
}
330
2CBE
100
AcDbXrecord
280
     1
340
2B21
  0
XRECORD
  5
2CC0
102
{ACAD_REACTORS
330
2CBE
102
}
330
2CBE
100
AcDbXrecord
280
     1
340
2B21
  0
LAYOUT
  5
2B36
102
{ACAD_XDICTIONARY
360
2CC9
102
}
102
{ACAD_REACTORS
330
2B28
102
}
330
2B28
100
AcDbPlotSettings
  1

  2
自動 EPSON LP-9600S (W2450527 上)
  4

  6

 40
0.0
 41
0.0
 42
0.0
 43
0.0
 44
0.0
 45
0.0
 46
0.0
 47
0.0
 48
0.0
 49
0.0
140
0.0
141
0.0
142
1.0
143
1.0
 70
  1712
 72
     0
 73
     0
 74
     0
  7

 75
     0
147
1.0
148
0.0
149
0.0
100
AcDbLayout
  1
Model
 70
     1
 71
     0
 10
0.0
 20
0.0
 11
12.0
 21
9.0
 12
0.0
 22
0.0
 32
0.0
 14
0.0
 24
0.0
 34
0.0
 15
0.0
 25
0.0
 35
0.0
146
0.0
 13
0.0
 23
0.0
 33
0.0
 16
1.0
 26
0.0
 36
0.0
 17
0.0
 27
1.0
 37
0.0
 76
     0
330
2B33
331
2B37
  0
LAYOUT
  5
2B32
102
{ACAD_XDICTIONARY
360
2CC7
102
}
102
{ACAD_REACTORS
330
2B28
102
}
330
2B28
100
AcDbPlotSettings
  1

  2
自動 EPSON LP-9600S (W2450527 上)
  4

  6

 40
0.0
 41
0.0
 42
0.0
 43
0.0
 44
0.0
 45
0.0
 46
0.0
 47
0.0
 48
0.0
 49
0.0
140
0.0
141
0.0
142
1.0
143
1.0
 70
   688
 72
     0
 73
     0
 74
     5
  7

 75
    16
147
1.0
148
0.0
149
0.0
100
AcDbLayout
  1
レイアウト1
 70
     1
 71
     1
 10
0.0
 20
0.0
 11
12.0
 21
9.0
 12
0.0
 22
0.0
 32
0.0
 14
1.000000000000000E+20
 24
1.000000000000000E+20
 34
1.000000000000000E+20
 15
-1.000000000000000E+20
 25
-1.000000000000000E+20
 35
-1.000000000000000E+20
146
0.0
 13
0.0
 23
0.0
 33
0.0
 16
1.0
 26
0.0
 36
0.0
 17
0.0
 27
1.0
 37
0.0
 76
     0
330
2B2F
  0
MATERIAL
  5
2AD8
102
{ACAD_XDICTIONARY
360
2AD9
102
}
102
{ACAD_REACTORS
330
2ACF
102
}
330
2ACF
100
AcDbMaterial
  1
ByBlock
 72
     0
 43
0.0208333333333333
 43
0.0
 43
0.0
 43
0.0
 43
0.0
 43
0.0208333333333333
 43
0.0
 43
0.0
 43
0.0
 43
0.0
 43
1.0
 43
0.0
 43
0.0
 43
0.0
 43
0.0
 43
1.0
 77
     0
 47
0.0208333333333333
 47
0.0
 47
0.0
 47
0.0
 47
0.0
 47
0.0208333333333333
 47
0.0
 47
0.0
 47
0.0
 47
0.0
 47
1.0
 47
0.0
 47
0.0
 47
0.0
 47
0.0
 47
1.0
171
     0
 49
0.0208333333333333
 49
0.0
 49
0.0
 49
0.0
 49
0.0
 49
0.0208333333333333
 49
0.0
 49
0.0
 49
0.0
 49
0.0
 49
1.0
 49
0.0
 49
0.0
 49
0.0
 49
0.0
 49
1.0
175
     0
142
0.0208333333333333
142
0.0
142
0.0
142
0.0
142
0.0
142
0.0208333333333333
142
0.0
142
0.0
142
0.0
142
0.0
142
1.0
142
0.0
142
0.0
142
0.0
142
0.0
142
1.0
179
     0
144
0.0208333333333333
144
0.0
144
0.0
144
0.0
144
0.0
144
0.0208333333333333
144
0.0
144
0.0
144
0.0
144
0.0
144
1.0
144
0.0
144
0.0
144
0.0
144
0.0
144
1.0
147
0.0208333333333333
147
0.0
147
0.0
147
0.0
147
0.0
147
0.0208333333333333
147
0.0
147
0.0
147
0.0
147
0.0
147
1.0
147
0.0
147
0.0
147
0.0
147
0.0
147
1.0
  0
MATERIAL
  5
2AD0
102
{ACAD_XDICTIONARY
360
2AD1
102
}
102
{ACAD_REACTORS
330
2ACF
102
}
330
2ACF
100
AcDbMaterial
  1
ByLayer
 72
     0
 43
0.0208333333333333
 43
0.0
 43
0.0
 43
0.0
 43
0.0
 43
0.0208333333333333
 43
0.0
 43
0.0
 43
0.0
 43
0.0
 43
1.0
 43
0.0
 43
0.0
 43
0.0
 43
0.0
 43
1.0
 77
     0
 47
0.0208333333333333
 47
0.0
 47
0.0
 47
0.0
 47
0.0
 47
0.0208333333333333
 47
0.0
 47
0.0
 47
0.0
 47
0.0
 47
1.0
 47
0.0
 47
0.0
 47
0.0
 47
0.0
 47
1.0
171
     0
 49
0.0208333333333333
 49
0.0
 49
0.0
 49
0.0
 49
0.0
 49
0.0208333333333333
 49
0.0
 49
0.0
 49
0.0
 49
0.0
 49
1.0
 49
0.0
 49
0.0
 49
0.0
 49
0.0
 49
1.0
175
     0
142
0.0208333333333333
142
0.0
142
0.0
142
0.0
142
0.0
142
0.0208333333333333
142
0.0
142
0.0
142
0.0
142
0.0
142
1.0
142
0.0
142
0.0
142
0.0
142
0.0
142
1.0
179
     0
144
0.0208333333333333
144
0.0
144
0.0
144
0.0
144
0.0
144
0.0208333333333333
144
0.0
144
0.0
144
0.0
144
0.0
144
1.0
144
0.0
144
0.0
144
0.0
144
0.0
144
1.0
147
0.0208333333333333
147
0.0
147
0.0
147
0.0
147
0.0
147
0.0208333333333333
147
0.0
147
0.0
147
0.0
147
0.0
147
1.0
147
0.0
147
0.0
147
0.0
147
0.0
147
1.0
  0
MATERIAL
  5
2AE0
102
{ACAD_XDICTIONARY
360
2AE1
102
}
102
{ACAD_REACTORS
330
2ACF
102
}
330
2ACF
100
AcDbMaterial
  1
Global
 72
     0
 43
0.0208333333333333
 43
0.0
 43
0.0
 43
0.0
 43
0.0
 43
0.0208333333333333
 43
0.0
 43
0.0
 43
0.0
 43
0.0
 43
1.0
 43
0.0
 43
0.0
 43
0.0
 43
0.0
 43
1.0
 77
     0
 47
0.0208333333333333
 47
0.0
 47
0.0
 47
0.0
 47
0.0
 47
0.0208333333333333
 47
0.0
 47
0.0
 47
0.0
 47
0.0
 47
1.0
 47
0.0
 47
0.0
 47
0.0
 47
0.0
 47
1.0
171
     0
 49
0.0208333333333333
 49
0.0
 49
0.0
 49
0.0
 49
0.0
 49
0.0208333333333333
 49
0.0
 49
0.0
 49
0.0
 49
0.0
 49
1.0
 49
0.0
 49
0.0
 49
0.0
 49
0.0
 49
1.0
175
     0
142
0.0208333333333333
142
0.0
142
0.0
142
0.0
142
0.0
142
0.0208333333333333
142
0.0
142
0.0
142
0.0
142
0.0
142
1.0
142
0.0
142
0.0
142
0.0
142
0.0
142
1.0
179
     0
144
0.0208333333333333
144
0.0
144
0.0
144
0.0
144
0.0
144
0.0208333333333333
144
0.0
144
0.0
144
0.0
144
0.0
144
1.0
144
0.0
144
0.0
144
0.0
144
0.0
144
1.0
147
0.0208333333333333
147
0.0
147
0.0
147
0.0
147
0.0
147
0.0208333333333333
147
0.0
147
0.0
147
0.0
147
0.0
147
1.0
147
0.0
147
0.0
147
0.0
147
0.0
147
1.0
  0
MLEADERSTYLE
  5
2B2D
102
{ACAD_REACTORS
330
2B2C
102
}
330
2B2C
100
AcDbMLeaderStyle
170
     2
171
     1
172
     0
 90
        2
 40
0.0
 41
0.0
173
     1
 91
-1056964608
340
2B21
 92
       -2
290
     1
 42
0.09
291
     1
 43
0.36
  3
Standard
 44
0.18
300

342
2B1C
174
     1
178
     6
175
     1
176
     0
 93
-1056964608
 45
0.18
292
     0
297
     0
 46
0.18
 94
-1056964608
 47
1.0
 49
1.0
140
1.0
293
     1
141
0.0
294
     1
177
     0
142
1.0
295
     0
296
     0
143
0.125
1001
ACAD_MLEADERVER
1070
     2
  0
MLINESTYLE
  5
2B26
102
{ACAD_REACTORS
330
2B25
102
}
330
2B25
100
AcDbMlineStyle
  2
STANDARD
 70
     0
  3

 62
   256
 51
90.0
 52
90.0
 71
     2
 49
0.5
 62
   256
  6
BYLAYER
 49
-0.5
 62
   256
  6
BYLAYER
  0
ACDBPLACEHOLDER
  5
2ACE
102
{ACAD_REACTORS
330
2ACD
102
}
330
2ACD
  0
SCALE
  5
2AFA
102
{ACAD_REACTORS
330
2AF9
102
}
330
2AF9
100
AcDbScale
 70
     0
300
1:1
140
1.0
141
1.0
290
     1
  0
SCALE
  5
2AFB
102
{ACAD_REACTORS
330
2AF9
102
}
330
2AF9
100
AcDbScale
 70
     0
300
1:2
140
1.0
141
2.0
290
     0
  0
SCALE
  5
2AFC
102
{ACAD_REACTORS
330
2AF9
102
}
330
2AF9
100
AcDbScale
 70
     0
300
1:4
140
1.0
141
4.0
290
     0
  0
SCALE
  5
2AFD
102
{ACAD_REACTORS
330
2AF9
102
}
330
2AF9
100
AcDbScale
 70
     0
300
1:5
140
1.0
141
5.0
290
     0
  0
SCALE
  5
2AFE
102
{ACAD_REACTORS
330
2AF9
102
}
330
2AF9
100
AcDbScale
 70
     0
300
1:8
140
1.0
141
8.0
290
     0
  0
SCALE
  5
2AFF
102
{ACAD_REACTORS
330
2AF9
102
}
330
2AF9
100
AcDbScale
 70
     0
300
1:10
140
1.0
141
10.0
290
     0
  0
SCALE
  5
2B00
102
{ACAD_REACTORS
330
2AF9
102
}
330
2AF9
100
AcDbScale
 70
     0
300
1:16
140
1.0
141
16.0
290
     0
  0
SCALE
  5
2B01
102
{ACAD_REACTORS
330
2AF9
102
}
330
2AF9
100
AcDbScale
 70
     0
300
1:20
140
1.0
141
20.0
290
     0
  0
SCALE
  5
2B02
102
{ACAD_REACTORS
330
2AF9
102
}
330
2AF9
100
AcDbScale
 70
     0
300
1:30
140
1.0
141
30.0
290
     0
  0
SCALE
  5
2B03
102
{ACAD_REACTORS
330
2AF9
102
}
330
2AF9
100
AcDbScale
 70
     0
300
1:40
140
1.0
141
40.0
290
     0
  0
SCALE
  5
2B04
102
{ACAD_REACTORS
330
2AF9
102
}
330
2AF9
100
AcDbScale
 70
     0
300
1:50
140
1.0
141
50.0
290
     0
  0
SCALE
  5
2B05
102
{ACAD_REACTORS
330
2AF9
102
}
330
2AF9
100
AcDbScale
 70
     0
300
1:100
140
1.0
141
100.0
290
     0
  0
SCALE
  5
2B06
102
{ACAD_REACTORS
330
2AF9
102
}
330
2AF9
100
AcDbScale
 70
     0
300
2:1
140
2.0
141
1.0
290
     0
  0
SCALE
  5
2B07
102
{ACAD_REACTORS
330
2AF9
102
}
330
2AF9
100
AcDbScale
 70
     0
300
4:1
140
4.0
141
1.0
290
     0
  0
SCALE
  5
2B08
102
{ACAD_REACTORS
330
2AF9
102
}
330
2AF9
100
AcDbScale
 70
     0
300
8:1
140
8.0
141
1.0
290
     0
  0
SCALE
  5
2B09
102
{ACAD_REACTORS
330
2AF9
102
}
330
2AF9
100
AcDbScale
 70
     0
300
10:1
140
10.0
141
1.0
290
     0
  0
SCALE
  5
2B0A
102
{ACAD_REACTORS
330
2AF9
102
}
330
2AF9
100
AcDbScale
 70
     0
300
100:1
140
100.0
141
1.0
290
     0
  0
SCALE
  5
2B0B
102
{ACAD_REACTORS
330
2AF9
102
}
330
2AF9
100
AcDbScale
 70
     0
300
1/128" = 1'-0"
140
0.0078125
141
12.0
290
     0
  0
SCALE
  5
2B0C
102
{ACAD_REACTORS
330
2AF9
102
}
330
2AF9
100
AcDbScale
 70
     0
300
1/64" = 1'-0"
140
0.015625
141
12.0
290
     0
  0
SCALE
  5
2B0D
102
{ACAD_REACTORS
330
2AF9
102
}
330
2AF9
100
AcDbScale
 70
     0
300
1/32" = 1'-0"
140
0.03125
141
12.0
290
     0
  0
SCALE
  5
2B0E
102
{ACAD_REACTORS
330
2AF9
102
}
330
2AF9
100
AcDbScale
 70
     0
300
1/16" = 1'-0"
140
0.0625
141
12.0
290
     0
  0
SCALE
  5
2B0F
102
{ACAD_REACTORS
330
2AF9
102
}
330
2AF9
100
AcDbScale
 70
     0
300
3/32" = 1'-0"
140
0.09375
141
12.0
290
     0
  0
SCALE
  5
2B10
102
{ACAD_REACTORS
330
2AF9
102
}
330
2AF9
100
AcDbScale
 70
     0
300
1/8" = 1'-0"
140
0.125
141
12.0
290
     0
  0
SCALE
  5
2B11
102
{ACAD_REACTORS
330
2AF9
102
}
330
2AF9
100
AcDbScale
 70
     0
300
3/16" = 1'-0"
140
0.1875
141
12.0
290
     0
  0
SCALE
  5
2B12
102
{ACAD_REACTORS
330
2AF9
102
}
330
2AF9
100
AcDbScale
 70
     0
300
1/4" = 1'-0"
140
0.25
141
12.0
290
     0
  0
SCALE
  5
2B13
102
{ACAD_REACTORS
330
2AF9
102
}
330
2AF9
100
AcDbScale
 70
     0
300
3/8" = 1'-0"
140
0.375
141
12.0
290
     0
  0
SCALE
  5
2B14
102
{ACAD_REACTORS
330
2AF9
102
}
330
2AF9
100
AcDbScale
 70
     0
300
1/2" = 1'-0"
140
0.5
141
12.0
290
     0
  0
SCALE
  5
2B15
102
{ACAD_REACTORS
330
2AF9
102
}
330
2AF9
100
AcDbScale
 70
     0
300
3/4" = 1'-0"
140
0.75
141
12.0
290
     0
  0
SCALE
  5
2B16
102
{ACAD_REACTORS
330
2AF9
102
}
330
2AF9
100
AcDbScale
 70
     0
300
1" = 1'-0"
140
1.0
141
12.0
290
     0
  0
SCALE
  5
2B17
102
{ACAD_REACTORS
330
2AF9
102
}
330
2AF9
100
AcDbScale
 70
     0
300
1-1/2" = 1'-0"
140
1.5
141
12.0
290
     0
  0
SCALE
  5
2B18
102
{ACAD_REACTORS
330
2AF9
102
}
330
2AF9
100
AcDbScale
 70
     0
300
3" = 1'-0"
140
3.0
141
12.0
290
     0
  0
SCALE
  5
2B19
102
{ACAD_REACTORS
330
2AF9
102
}
330
2AF9
100
AcDbScale
 70
     0
300
6" = 1'-0"
140
6.0
141
12.0
290
     0
  0
SCALE
  5
2B1A
102
{ACAD_REACTORS
330
2AF9
102
}
330
2AF9
100
AcDbScale
 70
     0
300
1'-0" = 1'-0"
140
12.0
141
12.0
290
     0
  0
TABLESTYLE
  5
2B2B
102
{ACAD_XDICTIONARY
360
2CBA
102
}
102
{ACAD_REACTORS
330
2B2A
102
}
330
2B2A
100
AcDbTableStyle
  3
Standard
 70
     0
 71
     0
 40
0.06
 41
0.06
280
     0
281
     0
  7
STANDARD
140
0.18
170
     2
 62
     0
 63
     7
283
     0
274
    -2
284
     1
 64
     0
275
    -2
285
     1
 65
     0
276
    -2
286
     1
 66
     0
277
    -2
287
     1
 67
     0
278
    -2
288
     1
 68
     0
279
    -2
289
     1
 69
     0
  7
STANDARD
140
0.25
170
     5
 62
     0
 63
     7
283
     0
274
    -2
284
     1
 64
     0
275
    -2
285
     1
 65
     0
276
    -2
286
     1
 66
     0
277
    -2
287
     1
 67
     0
278
    -2
288
     1
 68
     0
279
    -2
289
     1
 69
     0
  7
STANDARD
140
0.18
170
     5
 62
     0
 63
     7
283
     0
274
    -2
284
     1
 64
     0
275
    -2
285
     1
 65
     0
276
    -2
286
     1
 66
     0
277
    -2
287
     1
 67
     0
278
    -2
288
     1
 68
     0
279
    -2
289
     1
 69
     0
  0
VISUALSTYLE
  5
2AEE
102
{ACAD_REACTORS
330
2AE8
102
}
330
2AE8
100
AcDbVisualStyle
  2
2dWireframe
 70
     4
 71
     0
 72
     2
 73
     0
 90
        0
 40
-0.6
 41
-30.0
 62
     5
 63
     7
 74
     1
 91
        4
 64
     7
 65
   257
 75
     1
175
     1
 42
1.0
 92
        0
 66
   257
 43
1.0
 76
     1
 77
     6
 78
     2
 67
     7
 79
     5
170
     0
171
     0
290
     0
174
     0
 93
        1
 44
0.0
173
     0
291
     0
 45
0.0
1001
ACAD
1000
AcDbSavedByObjectVersion
1070
     0
  0
VISUALSTYLE
  5
2AF0
102
{ACAD_REACTORS
330
2AE8
102
}
330
2AE8
100
AcDbVisualStyle
  2
3D Hidden
 70
     6
 71
     1
 72
     2
 73
     2
 90
        0
 40
-0.6
 41
-30.0
 62
     5
 63
     7
 74
     2
 91
        2
 64
     7
 65
   257
 75
     2
175
     1
 42
40.0
 92
        0
 66
   257
 43
1.0
 76
     1
 77
     6
 78
     2
 67
     7
 79
     3
170
     0
171
     0
290
     0
174
     0
 93
        1
 44
0.0
173
     0
291
     0
 45
0.0
1001
ACAD
1000
AcDbSavedByObjectVersion
1070
     0
  0
VISUALSTYLE
  5
2AEF
102
{ACAD_REACTORS
330
2AE8
102
}
330
2AE8
100
AcDbVisualStyle
  2
3dWireframe
 70
     5
 71
     0
 72
     2
 73
     0
 90
        0
 40
-0.6
 41
-30.0
 62
     5
 63
     7
 74
     1
 91
        4
 64
     7
 65
   257
 75
     1
175
     1
 42
1.0
 92
        0
 66
   257
 43
1.0
 76
     1
 77
     6
 78
     2
 67
     7
 79
     5
170
     0
171
     0
290
     0
174
     0
 93
        1
 44
0.0
173
     0
291
     0
 45
0.0
1001
ACAD
1000
AcDbSavedByObjectVersion
1070
     0
  0
VISUALSTYLE
  5
2AED
102
{ACAD_REACTORS
330
2AE8
102
}
330
2AE8
100
AcDbVisualStyle
  2
Basic
 70
     7
 71
     1
 72
     0
 73
     1
 90
        0
 40
-0.6
 41
-30.0
 62
     5
 63
     7
 74
     0
 91
        4
 64
     7
 65
   257
 75
     1
175
     1
 42
1.0
 92
        8
 66
     7
 43
1.0
 76
     1
 77
     6
 78
     2
 67
     7
 79
     5
170
     0
171
     0
290
     0
174
     0
 93
        1
 44
0.0
173
     0
291
     1
 45
0.0
1001
ACAD
1000
AcDbSavedByObjectVersion
1070
     0
  0
VISUALSTYLE
  5
2AF4
102
{ACAD_REACTORS
330
2AE8
102
}
330
2AE8
100
AcDbVisualStyle
  2
Brighten
 70
    12
 71
     2
 72
     2
 73
     0
 90
        0
 40
-0.6
 41
-30.0
 62
     5
 63
     7
 74
     1
 91
        4
 64
     7
 65
   257
 75
     1
175
     1
 42
1.0
 92
        8
 66
     7
 43
1.0
 76
     1
 77
     6
 78
     2
 67
     7
 79
     5
170
     0
171
     0
290
     0
174
     0
 93
        1
 44
50.0
173
     0
291
     1
 45
0.0
1001
ACAD
1000
AcDbSavedByObjectVersion
1070
     0
  0
VISUALSTYLE
  5
2AF8
102
{ACAD_REACTORS
330
2AE8
102
}
330
2AE8
100
AcDbVisualStyle
  2
ColorChange
 70
    16
 71
     2
 72
     2
 73
     3
 90
        0
 40
-0.6
 41
-30.0
 62
     5
 63
     8
 74
     1
 91
        4
 64
     7
 65
   257
 75
     1
175
     1
 42
1.0
 92
        8
 66
     8
 43
1.0
 76
     1
 77
     6
 78
     2
 67
     7
 79
     5
170
     0
171
     0
290
     0
174
     0
 93
        1
 44
0.0
173
     0
291
     1
 45
0.0
1001
ACAD
1000
AcDbSavedByObjectVersion
1070
     0
  0
VISUALSTYLE
  5
2AF1
102
{ACAD_REACTORS
330
2AE8
102
}
330
2AE8
100
AcDbVisualStyle
  2
Conceptual
 70
     9
 71
     3
 72
     2
 73
     0
 90
        0
 40
-0.6
 41
-30.0
 62
     5
 63
     7
 74
     2
 91
        2
 64
     7
 65
   257
 75
     1
175
     1
 42
40.0
 92
        8
 66
     7
 43
1.0
 76
     1
 77
     6
 78
     2
 67
     7
 79
     3
170
     0
171
     0
290
     0
174
     0
 93
        1
 44
0.0
173
     0
291
     0
 45
0.0
1001
ACAD
1000
AcDbSavedByObjectVersion
1070
     0
  0
VISUALSTYLE
  5
2AF3
102
{ACAD_REACTORS
330
2AE8
102
}
330
2AE8
100
AcDbVisualStyle
  2
Dim
 70
    11
 71
     2
 72
     2
 73
     0
 90
        0
 40
-0.6
 41
-30.0
 62
     5
 63
     7
 74
     1
 91
        4
 64
     7
 65
   257
 75
     1
175
     1
 42
1.0
 92
        8
 66
     7
 43
1.0
 76
     1
 77
     6
 78
     2
 67
     7
 79
     5
170
     0
171
     0
290
     0
174
     0
 93
        1
 44
-50.0
173
     0
291
     1
 45
0.0
1001
ACAD
1000
AcDbSavedByObjectVersion
1070
     0
  0
VISUALSTYLE
  5
2AF7
102
{ACAD_REACTORS
330
2AE8
102
}
330
2AE8
100
AcDbVisualStyle
  2
Facepattern
 70
    15
 71
     2
 72
     2
 73
     0
 90
        0
 40
-0.6
 41
-30.0
 62
     5
 63
     7
 74
     1
 91
        4
 64
     7
 65
   257
 75
     1
175
     1
 42
1.0
 92
        8
 66
     7
 43
1.0
 76
     1
 77
     6
 78
     2
 67
     7
 79
     5
170
     0
171
     0
290
     0
174
     0
 93
        1
 44
0.0
173
     0
291
     1
 45
0.0
1001
ACAD
1000
AcDbSavedByObjectVersion
1070
     0
  0
VISUALSTYLE
  5
2AE9
102
{ACAD_REACTORS
330
2AE8
102
}
330
2AE8
100
AcDbVisualStyle
  2
Flat
 70
     0
 71
     2
 72
     1
 73
     1
 90
        2
 40
-0.6
 41
30.0
 62
     5
 63
     7
 74
     0
 91
        4
 64
     7
 65
   257
 75
     1
175
     1
 42
1.0
 92
        8
 66
     7
 43
1.0
 76
     1
 77
     6
 78
     2
 67
     7
 79
     5
170
     0
171
     0
290
     0
174
     0
 93
       13
 44
0.0
173
     0
291
     1
 45
0.0
1001
ACAD
1000
AcDbSavedByObjectVersion
1070
     0
  0
VISUALSTYLE
  5
2AEA
102
{ACAD_REACTORS
330
2AE8
102
}
330
2AE8
100
AcDbVisualStyle
  2
FlatWithEdges
 70
     1
 71
     2
 72
     1
 73
     1
 90
        2
 40
-0.6
 41
30.0
 62
     5
 63
     7
 74
     1
 91
        4
 64
     7
 65
   257
 75
     1
175
     1
 42
1.0
 92
        0
 66
   257
 43
1.0
 76
     1
 77
     6
 78
     2
 67
     7
 79
     5
170
     0
171
     0
290
     0
174
     0
 93
       13
 44
0.0
173
     0
291
     1
 45
0.0
1001
ACAD
1000
AcDbSavedByObjectVersion
1070
     0
  0
VISUALSTYLE
  5
2AEB
102
{ACAD_REACTORS
330
2AE8
102
}
330
2AE8
100
AcDbVisualStyle
  2
Gouraud
 70
     2
 71
     2
 72
     2
 73
     1
 90
        2
 40
-0.6
 41
30.0
 62
     5
 63
     7
 74
     0
 91
        4
 64
     7
 65
   257
 75
     1
175
     1
 42
1.0
 92
        0
 66
     7
 43
1.0
 76
     1
 77
     6
 78
     2
 67
     7
 79
     5
170
     0
171
     0
290
     0
174
     0
 93
       13
 44
0.0
173
     0
291
     1
 45
0.0
1001
ACAD
1000
AcDbSavedByObjectVersion
1070
     0
  0
VISUALSTYLE
  5
2AEC
102
{ACAD_REACTORS
330
2AE8
102
}
330
2AE8
100
AcDbVisualStyle
  2
GouraudWithEdges
 70
     3
 71
     2
 72
     2
 73
     1
 90
        2
 40
-0.6
 41
30.0
 62
     5
 63
     7
 74
     1
 91
        4
 64
     7
 65
   257
 75
     1
175
     1
 42
1.0
 92
        0
 66
   257
 43
1.0
 76
     1
 77
     6
 78
     2
 67
     7
 79
     5
170
     0
171
     0
290
     0
174
     0
 93
       13
 44
0.0
173
     0
291
     1
 45
0.0
1001
ACAD
1000
AcDbSavedByObjectVersion
1070
     0
  0
VISUALSTYLE
  5
2AF6
102
{ACAD_REACTORS
330
2AE8
102
}
330
2AE8
100
AcDbVisualStyle
  2
Linepattern
 70
    14
 71
     2
 72
     2
 73
     0
 90
        0
 40
-0.6
 41
-30.0
 62
     5
 63
     7
 74
     1
 91
        4
 64
     7
 65
   257
 75
     7
175
     7
 42
1.0
 92
        8
 66
     7
 43
1.0
 76
     1
 77
     6
 78
     2
 67
     7
 79
     5
170
     0
171
     0
290
     0
174
     0
 93
        1
 44
0.0
173
     0
291
     1
 45
0.0
1001
ACAD
1000
AcDbSavedByObjectVersion
1070
     0
  0
VISUALSTYLE
  5
2AF2
102
{ACAD_REACTORS
330
2AE8
102
}
330
2AE8
100
AcDbVisualStyle
  2
Realistic
 70
     8
 71
     2
 72
     2
 73
     0
 90
        0
 40
-0.6
 41
-30.0
 62
     5
 63
     7
 74
     1
 91
        0
 64
     7
 65
   257
 75
     1
175
     1
 42
1.0
 92
        8
 66
     8
 43
1.0
 76
     1
 77
     6
 78
     2
 67
     7
 79
     5
170
     0
171
     0
290
     0
174
     0
 93
       13
 44
0.0
173
     0
291
     0
 45
0.0
1001
ACAD
1000
AcDbSavedByObjectVersion
1070
     0
  0
VISUALSTYLE
  5
2AF5
102
{ACAD_REACTORS
330
2AE8
102
}
330
2AE8
100
AcDbVisualStyle
  2
Thicken
 70
    13
 71
     2
 72
     2
 73
     0
 90
        0
 40
-0.6
 41
-30.0
 62
     5
 63
     7
 74
     1
 91
        4
 64
     7
 65
   257
 75
     1
175
     1
 42
1.0
 92
       12
 66
     7
 43
1.0
 76
     1
 77
     6
 78
     2
 67
     7
 79
     5
170
     0
171
     0
290
     0
174
     0
 93
        1
 44
0.0
173
     0
291
     1
 45
0.0
1001
ACAD
1000
AcDbSavedByObjectVersion
1070
     0
  0
DICTIONARYVAR
  5
2CB6
102
{ACAD_REACTORS
330
2CB3
102
}
330
2CB3
100
DictionaryVariables
280
     0
  1
1:1
  0
DICTIONARYVAR
  5
2CB5
102
{ACAD_REACTORS
330
2CB3
102
}
330
2CB3
100
DictionaryVariables
280
     0
  1
STANDARD
  0
DICTIONARYVAR
  5
2CB4
102
{ACAD_REACTORS
330
2CB3
102
}
330
2CB3
100
DictionaryVariables
280
     0
  1
STANDARD
  0
DICTIONARYVAR
  5
2CB9
102
{ACAD_REACTORS
330
2CB3
102
}
330
2CB3
100
DictionaryVariables
280
     0
  1
1
  0
DICTIONARYVAR
  5
2CB8
102
{ACAD_REACTORS
330
2CB3
102
}
330
2CB3
100
DictionaryVariables
280
     0
  1
1
  0
DICTIONARYVAR
  5
2CB7
102
{ACAD_REACTORS
330
2CB3
102
}
330
2CB3
100
DictionaryVariables
280
     0
  1
127
  0
DICTIONARY
  5
2C71
102
{ACAD_REACTORS
330
2C63
102
}
330
2C63
100
AcDbDictionary
281
     1
  0
DICTIONARY
  5
2BB1
102
{ACAD_REACTORS
330
2BB0
102
}
330
2BB0
100
AcDbDictionary
281
     1
  3
DWGSETTINGS
350
2BB2
  3
TRANSSETTINGS
350
2BB3
  0
LAYER_INDEX
  5
2CA5
102
{ACAD_REACTORS
330
2CA4
102
}
330
2CA4
100
AcDbIndex
 40
2456213.407129445
100
AcDbLayerIndex
  8
0
360
2CA6
 90
        1
  8
OUTLINE
360
2CA7
 90
       45
  8
SIZE
360
2CA8
 90
       40
  8
BASIS
360
2CA9
 90
        1
  8
DETAIL
360
2CAA
 90
       42
  8
ARRANGE
360
2CAB
 90
        2
  8
DEFPOINTS
360
2CAC
 90
        0
  8
ETC
360
2CAD
 90
        3
  8
FIX
360
2CAE
 90
        0
  8
NOTE
360
2CAF
 90
        5
  8
SERVICESPACE
360
2CB0
 90
        0
  8
SYMBOLLINE
360
2CB1
 90
        0
  8
DETAIL___1
360
2CB2
 90
        2
  0
DICTIONARY
  5
2CC9
330
2B36
100
AcDbDictionary
280
     1
281
     1
  3
ACAD_XREC_ROUNDTRIP
360
2CCA
  0
DICTIONARY
  5
2CC7
330
2B32
100
AcDbDictionary
280
     1
281
     1
  3
ACAD_XREC_ROUNDTRIP
360
2CC8
  0
DICTIONARY
  5
2AD9
330
2AD8
100
AcDbDictionary
280
     1
281
     1
  3
ACAD_XREC_ROUNDTRIP
360
2CC4
  3
BUMPTILE
360
2ADB
  3
DIFFUSETILE
360
2ADA
  3
OPACITYTILE
360
2ADE
  3
REFLECTIONTILE
360
2ADD
  3
REFRACTIONTILE
360
2ADF
  3
SPECULARTILE
360
2ADC
  0
DICTIONARY
  5
2AD1
330
2AD0
100
AcDbDictionary
280
     1
281
     1
  3
ACAD_XREC_ROUNDTRIP
360
2CC3
  3
BUMPTILE
360
2AD3
  3
DIFFUSETILE
360
2AD2
  3
OPACITYTILE
360
2AD6
  3
REFLECTIONTILE
360
2AD5
  3
REFRACTIONTILE
360
2AD7
  3
SPECULARTILE
360
2AD4
  0
DICTIONARY
  5
2AE1
330
2AE0
100
AcDbDictionary
280
     1
281
     1
  3
ACAD_XREC_ROUNDTRIP
360
2CC5
  3
BUMPTILE
360
2AE3
  3
DIFFUSETILE
360
2AE2
  3
OPACITYTILE
360
2AE6
  3
REFLECTIONTILE
360
2AE5
  3
REFRACTIONTILE
360
2AE7
  3
SPECULARTILE
360
2AE4
  0
DICTIONARY
  5
2CBA
330
2B2B
100
AcDbDictionary
280
     1
281
     1
  3
ACAD_ROUNDTRIP_2008_TABLESTYLE_CELLSTYLEMAP
360
2CBB
  3
ACAD_XREC_ROUNDTRIP
360
2CC6
  0
IDBUFFER
  5
2CA6
330
0
100
AcDbIdBuffer
330
2A2E
  0
IDBUFFER
  5
2CA7
330
0
100
AcDbIdBuffer
330
2A3A
330
2A3B
330
2A3C
330
2A3D
330
2A3E
330
2A3F
330
2A40
330
2A41
330
2A42
330
2A43
330
2A44
330
2A45
330
2A46
330
2A47
330
2A48
330
2A49
330
2A4A
330
2A4B
330
2A4C
330
2A4D
330
2A4E
330
2A4F
330
2A50
330
2A51
330
2A52
330
2A55
330
2A56
330
2A57
330
2A58
330
953
330
954
330
955
330
956
330
957
330
958
330
2A1C
330
2A31
330
2A32
330
2A33
330
2A34
330
2A35
330
2A36
330
2A37
330
2A38
330
2A39
  0
IDBUFFER
  5
2CA8
330
0
100
AcDbIdBuffer
330
2A69
330
2A6A
330
2A6B
330
2A6C
330
2A6D
330
2A6E
330
2A6F
330
2A70
330
2A71
330
2A72
330
2A73
330
2A74
330
2A75
330
2A76
330
2A77
330
2A78
330
2A79
330
2A7A
330
2A7B
330
2A7C
330
2A7D
330
2A7E
330
2A7F
330
2A80
330
2A59
330
2A5A
330
2A5B
330
2A5C
330
2A5D
330
2A5E
330
2A5F
330
2A60
330
2A61
330
2A62
330
2A63
330
2A64
330
2A65
330
2A66
330
2A67
330
2A68
  0
IDBUFFER
  5
2CA9
330
0
100
AcDbIdBuffer
330
2A04
  0
IDBUFFER
  5
2CAA
330
0
100
AcDbIdBuffer
330
2A13
330
2A14
330
2A15
330
2A16
330
2A17
330
2A18
330
2A19
330
2A1A
330
2A1B
330
2A1D
330
2A1E
330
2A1F
330
2A20
330
2A21
330
2A22
330
2A23
330
2A24
330
2A25
330
2A26
330
2A27
330
2A28
330
2A29
330
2A2A
330
2A2B
330
2A2C
330
2A2D
330
29FF
330
2A00
330
2A01
330
2A03
330
2A07
330
2A08
330
2A09
330
2A0A
330
2A0B
330
2A0C
330
2A0D
330
2A0E
330
2A0F
330
2A10
330
2A11
330
2A12
  0
IDBUFFER
  5
2CAB
330
0
100
AcDbIdBuffer
330
29FE
330
2A05
  0
IDBUFFER
  5
2CAC
330
0
100
AcDbIdBuffer
  0
IDBUFFER
  5
2CAD
330
0
100
AcDbIdBuffer
330
29FB
330
29FC
330
29FD
  0
IDBUFFER
  5
2CAE
330
0
100
AcDbIdBuffer
  0
IDBUFFER
  5
2CAF
330
0
100
AcDbIdBuffer
330
2A02
330
2A06
330
2A2F
330
2A30
330
2A81
  0
IDBUFFER
  5
2CB0
330
0
100
AcDbIdBuffer
  0
IDBUFFER
  5
2CB1
330
0
100
AcDbIdBuffer
  0
IDBUFFER
  5
2CB2
330
0
100
AcDbIdBuffer
330
2A53
330
2A54
  0
XRECORD
  5
2CCA
102
{ACAD_REACTORS
330
2CC9
102
}
330
2CC9
100
AcDbXrecord
280
     1
102
SHADEPLOT
 70
     0
102
SHADEPLOTRESLEVEL
 70
     2
102
SHADEPLOTCUSTOMDPI
 70
   300
  0
XRECORD
  5
2CC8
102
{ACAD_REACTORS
330
2CC7
102
}
330
2CC7
100
AcDbXrecord
280
     1
102
SHADEPLOT
 70
     0
102
SHADEPLOTRESLEVEL
 70
     2
102
SHADEPLOTCUSTOMDPI
 70
   300
  0
XRECORD
  5
2CC4
102
{ACAD_REACTORS
330
2AD9
102
}
330
2AD9
100
AcDbXrecord
280
     1
102
MATERIAL
148
0.0
149
0.0
149
0.0
 93
        0
 94
      127
282
     0
 72
     0
 77
     0
171
     0
175
     0
179
     0
273
     0
  0
XRECORD
  5
2ADB
102
{ACAD_REACTORS
330
2AD9
102
}
330
2AD9
100
AcDbXrecord
280
     1
270
     1
271
     1
  0
XRECORD
  5
2ADA
102
{ACAD_REACTORS
330
2AD9
102
}
330
2AD9
100
AcDbXrecord
280
     1
270
     1
271
     1
  0
XRECORD
  5
2ADE
102
{ACAD_REACTORS
330
2AD9
102
}
330
2AD9
100
AcDbXrecord
280
     1
270
     1
271
     1
  0
XRECORD
  5
2ADD
102
{ACAD_REACTORS
330
2AD9
102
}
330
2AD9
100
AcDbXrecord
280
     1
270
     1
271
     1
  0
XRECORD
  5
2ADF
102
{ACAD_REACTORS
330
2AD9
102
}
330
2AD9
100
AcDbXrecord
280
     1
270
     1
271
     1
  0
XRECORD
  5
2ADC
102
{ACAD_REACTORS
330
2AD9
102
}
330
2AD9
100
AcDbXrecord
280
     1
270
     1
271
     1
  0
XRECORD
  5
2CC3
102
{ACAD_REACTORS
330
2AD1
102
}
330
2AD1
100
AcDbXrecord
280
     1
102
MATERIAL
148
0.0
149
0.0
149
0.0
 93
        0
 94
      127
282
     0
 72
     0
 77
     0
171
     0
175
     0
179
     0
273
     0
  0
XRECORD
  5
2AD3
102
{ACAD_REACTORS
330
2AD1
102
}
330
2AD1
100
AcDbXrecord
280
     1
270
     1
271
     1
  0
XRECORD
  5
2AD2
102
{ACAD_REACTORS
330
2AD1
102
}
330
2AD1
100
AcDbXrecord
280
     1
270
     1
271
     1
  0
XRECORD
  5
2AD6
102
{ACAD_REACTORS
330
2AD1
102
}
330
2AD1
100
AcDbXrecord
280
     1
270
     1
271
     1
  0
XRECORD
  5
2AD5
102
{ACAD_REACTORS
330
2AD1
102
}
330
2AD1
100
AcDbXrecord
280
     1
270
     1
271
     1
  0
XRECORD
  5
2AD7
102
{ACAD_REACTORS
330
2AD1
102
}
330
2AD1
100
AcDbXrecord
280
     1
270
     1
271
     1
  0
XRECORD
  5
2AD4
102
{ACAD_REACTORS
330
2AD1
102
}
330
2AD1
100
AcDbXrecord
280
     1
270
     1
271
     1
  0
XRECORD
  5
2CC5
102
{ACAD_REACTORS
330
2AE1
102
}
330
2AE1
100
AcDbXrecord
280
     1
102
MATERIAL
148
0.0
149
0.0
149
0.0
 93
        0
 94
      127
282
     0
 72
     0
 77
     0
171
     0
175
     0
179
     0
273
     0
  0
XRECORD
  5
2AE3
102
{ACAD_REACTORS
330
2AE1
102
}
330
2AE1
100
AcDbXrecord
280
     1
270
     1
271
     1
  0
XRECORD
  5
2AE2
102
{ACAD_REACTORS
330
2AE1
102
}
330
2AE1
100
AcDbXrecord
280
     1
270
     1
271
     1
  0
XRECORD
  5
2AE6
102
{ACAD_REACTORS
330
2AE1
102
}
330
2AE1
100
AcDbXrecord
280
     1
270
     1
271
     1
  0
XRECORD
  5
2AE5
102
{ACAD_REACTORS
330
2AE1
102
}
330
2AE1
100
AcDbXrecord
280
     1
270
     1
271
     1
  0
XRECORD
  5
2AE7
102
{ACAD_REACTORS
330
2AE1
102
}
330
2AE1
100
AcDbXrecord
280
     1
270
     1
271
     1
  0
XRECORD
  5
2AE4
102
{ACAD_REACTORS
330
2AE1
102
}
330
2AE1
100
AcDbXrecord
280
     1
270
     1
271
     1
  0
CELLSTYLEMAP
  5
2CBB
102
{ACAD_REACTORS
330
2CBA
102
}
330
2CBA
100
AcDbCellStyleMap
 90
        3
300
CELLSTYLE
  1
TABLEFORMAT_BEGIN
 90
        5
170
     1
 91
        0
 92
    32768
 62
   257
 93
        1
300
CONTENTFORMAT
  1
CONTENTFORMAT_BEGIN
 90
        0
 91
        0
 92
      512
 93
        0
300

 40
0.0
140
1.0
 94
        5
 62
     0
340
2B1C
144
0.25
309
CONTENTFORMAT_END
171
     0
 94
        0
309
TABLEFORMAT_END
  1
CELLSTYLE_BEGIN
 90
        1
 91
        1
300
_TITLE
309
CELLSTYLE_END
300
CELLSTYLE
  1
TABLEFORMAT_BEGIN
 90
        5
170
     1
 91
        0
 92
        0
 62
   257
 93
        1
300
CONTENTFORMAT
  1
CONTENTFORMAT_BEGIN
 90
        0
 91
        0
 92
      512
 93
        0
300

 40
0.0
140
1.0
 94
        5
 62
     0
340
2B1C
144
0.18
309
CONTENTFORMAT_END
171
     0
 94
        0
309
TABLEFORMAT_END
  1
CELLSTYLE_BEGIN
 90
        2
 91
        1
300
_HEADER
309
CELLSTYLE_END
300
CELLSTYLE
  1
TABLEFORMAT_BEGIN
 90
        5
170
     1
 91
        0
 92
        0
 62
   257
 93
        1
300
CONTENTFORMAT
  1
CONTENTFORMAT_BEGIN
 90
        0
 91
        0
 92
      512
 93
        0
300

 40
0.0
140
1.0
 94
        2
 62
     0
340
2B1C
144
0.18
309
CONTENTFORMAT_END
171
     0
 94
        0
309
TABLEFORMAT_END
  1
CELLSTYLE_BEGIN
 90
        3
 91
        2
300
_DATA
309
CELLSTYLE_END
  0
XRECORD
  5
2CC6
102
{ACAD_REACTORS
330
2CBA
102
}
330
2CBA
100
AcDbXrecord
280
     1
102
ACAD_ROUNDTRIP_PRE2007_TABLESTYLE
 90
      512
 91
        0
  1

 92
      512
 93
        0
  2

 94
      512
 95
        0
  3

  0
ENDSEC
  0
EOF
