  0
SECTION
  2
HEADER
  9
$ACADVER
  1
AC1015
  9
$ACADMAINTVER
 70
    20
  9
$DWGCODEPAGE
  3
ANSI_932
  9
$INSBASE
 10
0.0
 20
0.0
 30
0.0
  9
$EXTMIN
 10
-1083.114607996675
 20
-1274.047840822079
 30
-0.0022882129575947
  9
$EXTMAX
 10
1342.790234103786
 20
450.2105791473423
 30
50.00228914432991
  9
$LIMMIN
 10
-2970.0
 20
-2100.0
  9
$LIMMAX
 10
2970.0
 20
2100.0
  9
$ORTHOMODE
 70
     1
  9
$REGENMODE
 70
     0
  9
$FILLMODE
 70
     1
  9
$QTEXTMODE
 70
     0
  9
$MIRRTEXT
 70
     0
  9
$LTSCALE
 40
20.0
  9
$ATTMODE
 70
     1
  9
$TEXTSIZE
 40
64.0
  9
$TRACEWID
 40
0.05
  9
$TEXTSTYLE
  7
STANDARD
  9
$CLAYER
  8
0
  9
$CELTYPE
  6
ByLayer
  9
$CECOLOR
 62
   256
  9
$CELTSCALE
 40
1.0
  9
$DISPSILH
 70
     0
  9
$DIMSCALE
 40
1.0
  9
$DIMASZ
 40
0.12
  9
$DIMEXO
 40
0.05
  9
$DIMDLI
 40
0.5
  9
$DIMRND
 40
0.0
  9
$DIMDLE
 40
0.0
  9
$DIMEXE
 40
0.1
  9
$DIMTP
 40
0.1
  9
$DIMTM
 40
0.1
  9
$DIMTXT
 40
0.12
  9
$DIMCEN
 40
0.0
  9
$DIMTSZ
 40
0.0
  9
$DIMTOL
 70
     0
  9
$DIMLIM
 70
     0
  9
$DIMTIH
 70
     1
  9
$DIMTOH
 70
     1
  9
$DIMSE1
 70
     0
  9
$DIMSE2
 70
     0
  9
$DIMTAD
 70
     0
  9
$DIMZIN
 70
     7
  9
$DIMBLK
  1

  9
$DIMASO
 70
     1
  9
$DIMSHO
 70
     0
  9
$DIMPOST
  1

  9
$DIMAPOST
  1
mm
  9
$DIMALT
 70
     0
  9
$DIMALTD
 70
     2
  9
$DIMALTF
 40
25.4
  9
$DIMLFAC
 40
1.0
  9
$DIMTOFL
 70
     0
  9
$DIMTVP
 40
0.0
  9
$DIMTIX
 70
     0
  9
$DIMSOXD
 70
     0
  9
$DIMSAH
 70
     0
  9
$DIMBLK1
  1

  9
$DIMBLK2
  1

  9
$DIMSTYLE
  2
AM_ANSI
  9
$DIMCLRD
 70
   256
  9
$DIMCLRE
 70
   256
  9
$DIMCLRT
 70
     2
  9
$DIMTFAC
 40
0.71
  9
$DIMGAP
 40
0.06
  9
$DIMJUST
 70
     0
  9
$DIMSD1
 70
     0
  9
$DIMSD2
 70
     0
  9
$DIMTOLJ
 70
     1
  9
$DIMTZIN
 70
     7
  9
$DIMALTZ
 70
     0
  9
$DIMALTTZ
 70
     0
  9
$DIMUPT
 70
     0
  9
$DIMDEC
 70
     4
  9
$DIMTDEC
 70
     4
  9
$DIMALTU
 70
     2
  9
$DIMALTTD
 70
     4
  9
$DIMTXSTY
  7
STANDARD
  9
$DIMAUNIT
 70
     0
  9
$DIMADEC
 70
     0
  9
$DIMALTRND
 40
0.0
  9
$DIMAZIN
 70
     2
  9
$DIMDSEP
 70
    46
  9
$DIMATFIT
 70
     3
  9
$DIMFRAC
 70
     0
  9
$DIMLDRBLK
  1

  9
$DIMLUNIT
 70
     2
  9
$DIMLWD
 70
    -1
  9
$DIMLWE
 70
    -1
  9
$DIMTMOVE
 70
     0
  9
$LUNITS
 70
     2
  9
$LUPREC
 70
     4
  9
$SKETCHINC
 40
0.1
  9
$FILLETRAD
 40
4.0
  9
$AUNITS
 70
     1
  9
$AUPREC
 70
     3
  9
$MENU
  1
ACAD
  9
$ELEVATION
 40
0.0
  9
$PELEVATION
 40
0.0
  9
$THICKNESS
 40
50.0
  9
$LIMCHECK
 70
     0
  9
$CHAMFERA
 40
0.0
  9
$CHAMFERB
 40
0.0
  9
$CHAMFERC
 40
0.0
  9
$CHAMFERD
 40
0.0
  9
$SKPOLY
 70
     0
  9
$TDCREATE
 40
2452321.396199653
  9
$TDUCREATE
 40
2452321.021199653
  9
$TDUPDATE
 40
2456213.408302882
  9
$TDUUPDATE
 40
2456213.033302882
  9
$TDINDWG
 40
1.0428601273
  9
$TDUSRTIMER
 40
1.0428545486
  9
$USRTIMER
 70
     1
  9
$ANGBASE
 50
0.0
  9
$ANGDIR
 70
     0
  9
$PDMODE
 70
     3
  9
$PDSIZE
 40
-2.0
  9
$PLINEWID
 40
0.0
  9
$SPLFRAME
 70
     0
  9
$SPLINETYPE
 70
     6
  9
$SPLINESEGS
 70
     8
  9
$HANDSEED
  5
28EB
  9
$SURFTAB1
 70
     6
  9
$SURFTAB2
 70
     6
  9
$SURFTYPE
 70
     6
  9
$SURFU
 70
     6
  9
$SURFV
 70
     6
  9
$UCSBASE
  2

  9
$UCSNAME
  2

  9
$UCSORG
 10
0.0
 20
0.0
 30
0.0
  9
$UCSXDIR
 10
1.0
 20
0.0
 30
0.0
  9
$UCSYDIR
 10
0.0
 20
1.0
 30
0.0
  9
$UCSORTHOREF
  2

  9
$UCSORTHOVIEW
 70
     0
  9
$UCSORGTOP
 10
0.0
 20
0.0
 30
0.0
  9
$UCSORGBOTTOM
 10
0.0
 20
0.0
 30
0.0
  9
$UCSORGLEFT
 10
0.0
 20
0.0
 30
0.0
  9
$UCSORGRIGHT
 10
0.0
 20
0.0
 30
0.0
  9
$UCSORGFRONT
 10
0.0
 20
0.0
 30
0.0
  9
$UCSORGBACK
 10
0.0
 20
0.0
 30
0.0
  9
$PUCSBASE
  2

  9
$PUCSNAME
  2

  9
$PUCSORG
 10
0.0
 20
0.0
 30
0.0
  9
$PUCSXDIR
 10
1.0
 20
0.0
 30
0.0
  9
$PUCSYDIR
 10
0.0
 20
1.0
 30
0.0
  9
$PUCSORTHOREF
  2

  9
$PUCSORTHOVIEW
 70
     0
  9
$PUCSORGTOP
 10
0.0
 20
0.0
 30
0.0
  9
$PUCSORGBOTTOM
 10
0.0
 20
0.0
 30
0.0
  9
$PUCSORGLEFT
 10
0.0
 20
0.0
 30
0.0
  9
$PUCSORGRIGHT
 10
0.0
 20
0.0
 30
0.0
  9
$PUCSORGFRONT
 10
0.0
 20
0.0
 30
0.0
  9
$PUCSORGBACK
 10
0.0
 20
0.0
 30
0.0
  9
$USERI1
 70
     0
  9
$USERI2
 70
     0
  9
$USERI3
 70
     0
  9
$USERI4
 70
     0
  9
$USERI5
 70
     0
  9
$USERR1
 40
20.0
  9
$USERR2
 40
0.0
  9
$USERR3
 40
0.0
  9
$USERR4
 40
0.0
  9
$USERR5
 40
0.0
  9
$WORLDVIEW
 70
     1
  9
$SHADEDGE
 70
     3
  9
$SHADEDIF
 70
    70
  9
$TILEMODE
 70
     1
  9
$MAXACTVP
 70
    64
  9
$PINSBASE
 10
0.0
 20
0.0
 30
0.0
  9
$PLIMCHECK
 70
     0
  9
$PEXTMIN
 10
1.000000000000000E+20
 20
1.000000000000000E+20
 30
1.000000000000000E+20
  9
$PEXTMAX
 10
-1.000000000000000E+20
 20
-1.000000000000000E+20
 30
-1.000000000000000E+20
  9
$PLIMMIN
 10
0.0
 20
0.0
  9
$PLIMMAX
 10
12.0
 20
9.0
  9
$UNITMODE
 70
     0
  9
$VISRETAIN
 70
     1
  9
$PLINEGEN
 70
     0
  9
$PSLTSCALE
 70
     1
  9
$TREEDEPTH
 70
  3020
  9
$CMLSTYLE
  2
Standard
  9
$CMLJUST
 70
     0
  9
$CMLSCALE
 40
1.0
  9
$PROXYGRAPHICS
 70
     1
  9
$MEASUREMENT
 70
     0
  9
$CELWEIGHT
370
    -1
  9
$ENDCAPS
280
     0
  9
$JOINSTYLE
280
     0
  9
$LWDISPLAY
290
     0
  9
$INSUNITS
 70
     0
  9
$HYPERLINKBASE
  1

  9
$STYLESHEET
  1

  9
$XEDIT
290
     1
  9
$CEPSNTYPE
380
     0
  9
$PSTYLEMODE
290
     1
  9
$FINGERPRINTGUID
  2
{BD0DFD7D-B97E-44E2-A5D6-1ABFC8EC98AD}
  9
$VERSIONGUID
  2
{ACC7E08D-5C66-4FD6-A9EF-6F07A04A1DD1}
  9
$EXTNAMES
290
     1
  9
$PSVPSCALE
 40
0.0
  9
$OLESTARTUP
290
     0
  0
ENDSEC
  0
SECTION
  2
CLASSES
  0
CLASS
  1
ACDBDICTIONARYWDFLT
  2
AcDbDictionaryWithDefault
  3
ObjectDBX Classes
 90
        0
280
     0
281
     0
  0
CLASS
  1
MATERIAL
  2
AcDbMaterial
  3
ObjectDBX Classes
 90
     1153
280
     0
281
     0
  0
CLASS
  1
VISUALSTYLE
  2
AcDbVisualStyle
  3
ObjectDBX Classes
 90
     4095
280
     0
281
     0
  0
CLASS
  1
SCALE
  2
AcDbScale
  3
ObjectDBX Classes
 90
     1153
280
     0
281
     0
  0
CLASS
  1
TABLESTYLE
  2
AcDbTableStyle
  3
ObjectDBX Classes
 90
     4095
280
     0
281
     0
  0
CLASS
  1
MLEADERSTYLE
  2
AcDbMLeaderStyle
  3
ACDB_MLEADERSTYLE_CLASS
 90
     4095
280
     0
281
     0
  0
CLASS
  1
AMGSETTINGSOBJ
  2
AmgSettingsObj
  3
"AcadM|Product Description: AutoCAD Mechanical|Company: Autodesk, Inc."
 90
     1024
280
     0
281
     0
  0
CLASS
  1
ACME_DOCUMENT
  2
AcMeDbDoc
  3
AcMeServices
 90
     1024
280
     0
281
     0
  0
CLASS
  1
ACMESCOPE
  2
AcMeScope
  3
AcMeServices
 90
     1024
280
     0
281
     0
  0
CLASS
  1
ACMECOMMANDHISTORY
  2
AcMeCommandHistory
  3
AcMeServices
 90
     1024
280
     0
281
     0
  0
CLASS
  1
ACIMSYSVARMAN
  2
AcImSysVarManager
  3
AcMeServices
 90
     1024
280
     0
281
     0
  0
CLASS
  1
ACIMREALSYSVAR
  2
AcImRealSysVar
  3
AcMeServices
 90
     1024
280
     0
281
     0
  0
CLASS
  1
ACIMINTSYSVAR
  2
AcImIntSysVar
  3
AcMeServices
 90
     1024
280
     0
281
     0
  0
CLASS
  1
ACMEDRAWINGMAN
  2
AcMeDrawingMan
  3
AcMeServices
 90
     1024
280
     0
281
     0
  0
CLASS
  1
ACMEVIEW
  2
AcMeView
  3
AcMeServices
 90
     1024
280
     0
281
     0
  0
CLASS
  1
ACDBENTITYCACHE
  2
AcMeEntityCache
  3
AcMeServices
 90
     1024
280
     0
281
     0
  0
CLASS
  1
GSMANAGER
  2
AcMeGSManager
  3
AcMeServices
 90
     1024
280
     0
281
     0
  0
CLASS
  1
AMDTINTERNALREACTOR
  2
AmdtInternalReactor
  3
AcMeServices
 90
     1024
280
     0
281
     0
  0
CLASS
  1
ACMESTATEMGR
  2
AcMeStateMgr
  3
AcMeServices
 90
     1024
280
     0
281
     0
  0
CLASS
  1
ACGREFMASTER
  2
AcGrefMaster
  3
AcAttribServices
 90
     1024
280
     0
281
     0
  0
CLASS
  1
AM_DRAWING_MGR
  2
AcDmDwgMgr
  3
AcMechDwgViewMgmt
 90
     1024
280
     0
281
     0
  0
CLASS
  1
AM_DWG_DOCUMENT
  2
AcDmDwgDocument
  3
AcMechDwgViewMgmt
 90
     1024
280
     0
281
     0
  0
CLASS
  1
AM_DWG_SHEET
  2
AcDmSheet
  3
AcMechDwgViewMgmt
 90
     1024
280
     0
281
     0
  0
CLASS
  1
AM_VIEWDIMPARMAP
  2
AcDmViewDimParMap
  3
AcMechDwgViewMgmt
 90
     1024
280
     0
281
     0
  0
CLASS
  1
AM_DWGMGR_NAME
  2
AcDmDwgMgrName
  3
AcMechDwgViewMgmt
 90
     1024
280
     0
281
     0
  0
CLASS
  1
ACME_DATABASE
  2
AcMeDbDatabase
  3
AcMeServices
 90
     1024
280
     0
281
     0
  0
CLASS
  1
ACRFINSADJUSTERMGR
  2
AcRfInsAdjusterMgr
  3
AcMeServices
 90
     1024
280
     0
281
     0
  0
CLASS
  1
ACGREFACADMASTER
  2
AcGrefacadMaster
  3
AcGrefServices
 90
     1024
280
     0
281
     0
  0
CLASS
  1
AMDTMENUSTATEMGR
  2
AmdtMenuStateMgr
  3
McadcomServices
 90
     1024
280
     0
281
     0
  0
CLASS
  1
AMDTMCOMMENUSTATE
  2
AmdtMcomMenuState
  3
McadcomServices
 90
     1024
280
     0
281
     0
  0
CLASS
  1
AMIMASTER
  2
AmiMaster
  3
AmiServices
 90
     1024
280
     0
281
     0
  0
CLASS
  1
ASAPP
  2
AcAsAppObject
  3
AutoSurfServices
 90
     1024
280
     0
281
     0
  0
CLASS
  1
IM_STATIC_MAN
  2
AcImStaticVarManager
  3
AcMeServices
 90
     1024
280
     0
281
     0
  0
CLASS
  1
ACIMSTRSYSVAR
  2
AcImStrSysVar
  3
AcMeServices
 90
     1024
280
     0
281
     0
  0
CLASS
  1
ACIMDBLSTATICVAR
  2
AcImDblStaticVar
  3
AcMeServices
 90
     1024
280
     0
281
     0
  0
CLASS
  1
ACIMSTRSTATICVAR
  2
AcImStrStaticVar
  3
AcMeServices
 90
     1024
280
     0
281
     0
  0
CLASS
  1
ACIMINTSTATICVAR
  2
AcImIntStaticVar
  3
AcMeServices
 90
     1024
280
     0
281
     0
  0
CLASS
  1
ACASGREFMASTER
  2
AcAsGrefMaster
  3
AutoSurfResolverServices
 90
     1024
280
     0
281
     0
  0
CLASS
  1
ACADGREFMODULE
  2
AcAdGrefModule
  3
AdGrefServices
 90
     1024
280
     0
281
     0
  0
CLASS
  1
AMDTMAPISURFMOUDULE
  2
AmdtMApiSurfModule
  3
MApiSurfServices
 90
     1024
280
     0
281
     0
  0
CLASS
  1
MAPIAMMOUDLE
  2
MApiAmModule
  3
MApiAmServices
 90
     1024
280
     0
281
     0
  0
CLASS
  1
AMDTADMENUSTATE
  2
AmdtAdMenuState
  3
DesignerServices
 90
     1024
280
     0
281
     0
  0
CLASS
  1
ADAPPL
  2
AcAdAppl
  3
DesignerServices
 90
     1024
280
     0
281
     0
  0
CLASS
  1
DEPMGR
  2
AcAdDepMgr
  3
DesignerServices
 90
     1024
280
     0
281
     0
  0
CLASS
  1
PARAMMGR
  2
AcAdParamMgr
  3
DesignerServices
 90
     1024
280
     0
281
     0
  0
CLASS
  1
PARAMSCOPE
  2
AcAdParamScope
  3
DesignerServices
 90
     1024
280
     0
281
     0
  0
CLASS
  1
NAMEDAPPL
  2
AcAdNamedAppl
  3
DesignerServices
 90
     1024
280
     0
281
     0
  0
CLASS
  1
AMDTDMMENUSTATE
  2
AmdtDmMenuState
  3
AcMechDwgViewMgmt
 90
     1024
280
     0
281
     0
  0
CLASS
  1
MAPIADMODULE
  2
MApiAdModule
  3
MApiAdServices
 90
     1024
280
     0
281
     0
  0
CLASS
  1
AMDTAMMENUSTATE
  2
AmdtAmMenuState
  3
DesignerAssemblies
 90
     1024
280
     0
281
     0
  0
CLASS
  1
ACAMPROJECT
  2
AcAmProject
  3
DesignerAssemblies
 90
     1024
280
     0
281
     0
  0
CLASS
  1
ACAMGRCOMPDEF
  2
AcAmGrCompDef
  3
DesignerAssemblies
 90
     1024
280
     0
281
     0
  0
CLASS
  1
ACCMCONTEXT
  2
AcCmContext
  3
DesignerAssemblies
 90
     1024
280
     0
281
     0
  0
CLASS
  1
ACAMCOMPDEF
  2
AcAmCompDef
  3
DesignerAssemblies
 90
     1024
280
     0
281
     0
  0
CLASS
  1
ACAMCOMPDEFMGR
  2
AcAmCompDefMgr
  3
DesignerAssemblies
 90
     1024
280
     0
281
     0
  0
CLASS
  1
AMCONTEXTMGR
  2
AcAmContextMgr
  3
DesignerAssemblies
 90
     1024
280
     0
281
     0
  0
CLASS
  1
ACAMCONTEXTMODELER
  2
AcAmContextModeler
  3
DesignerAssemblies
 90
     1024
280
     0
281
     0
  0
CLASS
  1
ACMDATADICTIONARY
  2
AcmDataDictionary
  3
"AcmSymBB|Product Description: AutoCAD Mechanical|Company: Autodesk, Inc."
 90
     1024
280
     0
281
     0
  0
CLASS
  1
ACMDATAENTRYBLOCK
  2
AcmDataEntryBlock
  3
AcmSymBB|Product Description: AutoCAD Mechanical|Company: Autodesk, Inc.
 90
     1024
280
     0
281
     0
  0
CLASS
  1
ACRFATTGENMGR
  2
AcRfAttGeneralMgr
  3
AcAttribServices
 90
     1024
280
     0
281
     0
  0
CLASS
  1
ACRFOBJATTMGR
  2
AcRfObjAttGroupMgr
  3
AcAttribServices
 90
     1024
280
     0
281
     0
  0
CLASS
  1
ACRFMCADAPIATTHOLDER
  2
AcRfMCADAPIAttHolder
  3
AcAttribServices
 90
     1024
280
     0
281
     0
  0
CLASS
  1
AMDTSYSATTR
  2
AmdtSystemAttribute
  3
AcAttribServices
 90
     1024
280
     0
281
     0
  0
CLASS
  1
CATALOGSTATE
  2
AcAmCatalogState
  3
DesignerAssemblies
 90
     1024
280
     0
281
     0
  0
CLASS
  1
ACAMGRCOMPDEFSET
  2
AcAmGrCompDefSet
  3
DesignerAssemblies
 90
     1024
280
     0
281
     0
  0
CLASS
  1
AMDTBROWSERDBTAB
  2
AmdtBrowserDbTab
  3
McadcomServices
 90
     1024
280
     0
281
     0
  0
CLASS
  1
CBROWSERAPPOBJECT
  2
CBrowserAppObject
  3
McadcomServices
 90
     1024
280
     0
281
     0
  0
CLASS
  1
DM_PLACEHOLDER
  2
AcDmSelsetPlaceholder
  3
AcMechDwgViewMgmt
 90
     1024
280
     0
281
     0
  0
CLASS
  1
ACMSTANDARDANSI
  2
AcmStandardANSI
  3
"Amdt_StdImp|Product Description: AutoCAD Mechanical|Company: Autodesk, Inc."
 90
     1024
280
     0
281
     0
  0
CLASS
  1
ACMSURFSTANDARDANSI
  2
AcmSurfTextStdANSI
  3
"Amdt_StdImp|Product Description: AutoCAD Mechanical|Company: Autodesk, Inc."
 90
     1024
280
     0
281
     0
  0
CLASS
  1
ACMFCFSTANDARDANSI
  2
AcmFCFStdANSI
  3
"Amdt_StdImp|Product Description: AutoCAD Mechanical|Company: Autodesk, Inc."
 90
     1024
280
     0
281
     0
  0
CLASS
  1
ACMWELDSTANDARDANSI
  2
AcmWeldingStdANSI
  3
"Amdt_StdImp|Product Description: AutoCAD Mechanical|Company: Autodesk, Inc."
 90
     1024
280
     0
281
     0
  0
CLASS
  1
ACMIDSTANDARDANSI
  2
AcmIdStdANSI
  3
"Amdt_StdImp|Product Description: AutoCAD Mechanical|Company: Autodesk, Inc."
 90
     1024
280
     0
281
     0
  0
CLASS
  1
ACMDATUMSTANDARDANSI
  2
AcmDatumStdANSI
  3
"Amdt_StdImp|Product Description: AutoCAD Mechanical|Company: Autodesk, Inc."
 90
     1024
280
     0
281
     0
  0
CLASS
  1
ACMBOMSTANDARDANSI
  2
AcmBOMStdANSI
  3
"Amdt_StdImp|Product Description: AutoCAD Mechanical|Company: Autodesk, Inc."
 90
     1024
280
     0
281
     0
  0
CLASS
  1
ACMDETAILSTANDARDANSI
  2
AmdtDetailSymStdANSI
  3
"Amdt_StdImp|Product Description: AutoCAD Mechanical|Company: Autodesk, Inc."
 90
     1024
280
     0
281
     0
  0
CLASS
  1
ACMSECTIONSTANDARDANSI
  2
AmdtSectionSymStdANSI
  3
"Amdt_StdImp|Product Description: AutoCAD Mechanical|Company: Autodesk, Inc."
 90
     1024
280
     0
281
     0
  0
CLASS
  1
ACMCENTERLINESTANDARDANSI
  2
AmdtCenterLineStdANSI
  3
"Amdt_StdImp|Product Description: AutoCAD Mechanical|Company: Autodesk, Inc."
 90
     1024
280
     0
281
     0
  0
CLASS
  1
ACMTHREADLINESTANDARDANSI
  2
AmdtThreadLineStdANSI
  3
"Amdt_StdImp|Product Description: AutoCAD Mechanical|Company: Autodesk, Inc."
 90
     1024
280
     0
281
     0
  0
CLASS
  1
ACMNOTESTANDARDANSI
  2
AmdtNoteStdANSI
  3
"Amdt_StdImp|Product Description: AutoCAD Mechanical|Company: Autodesk, Inc."
 90
     1024
280
     0
281
     0
  0
CLASS
  1
ACMTAPERSTANDARDANSI
  2
AcmTaperStdANSI
  3
"Amdt_StdImp|Product Description: AutoCAD Mechanical|Company: Autodesk, Inc."
 90
     1024
280
     0
281
     0
  0
CLASS
  1
ACMANOOTATIONVIEWSTANDARDANSI
  2
AmdtAnViewStdANSI
  3
"Amdt_StdImp|Product Description: AutoCAD Mechanical|Company: Autodesk, Inc."
 90
     1024
280
     0
281
     0
  0
CLASS
  1
ACAMGLAYSTD
  2
AcAmgLayStd
  3
"AmgLay|Product Description: AutoCAD Mechanical|Company: Autodesk, Inc."
 90
     1024
280
     0
281
     0
  0
CLASS
  1
ACAMGDIMSTD
  2
AcAmgDimStd
  3
"AmgDim|Product Description: AutoCAD Mechanical|Company: Autodesk, Inc."
 90
     1024
280
     0
281
     0
  0
CLASS
  1
ACAMGHOLECHARTSTDANSI
  2
AcAmgHoleChartStdANSI
  3
AmgDim|Product Description: AutoCAD Mechanical|Company: Autodesk, Inc.
 90
     1024
280
     0
281
     0
  0
CLASS
  1
AMGOBJPROPCFG
  2
AmgObjPropCfg
  3
"AmgLay|Product Description: AutoCAD Mechanical|Company: Autodesk, Inc."
 90
     1025
280
     0
281
     0
  0
CLASS
  1
ACAMGTITLESTD
  2
AcAmgTitleStd
  3
"AmgTitle|Product Description: AutoCAD Mechanical|Company: Autodesk, Inc."
 90
     4095
280
     0
281
     0
  0
CLASS
  1
AMDTNOTETEMPLATEDB
  2
AmdtNoteTemplateDB
  3
AcmSymBB|Product Description: AutoCAD Mechanical|Company: Autodesk, Inc.
 90
     1024
280
     0
281
     0
  0
CLASS
  1
ACAMGFILTERDAT
  2
AcAmgFilterDat
  3
"AcadM|Product Description: AutoCAD Mechanical|Company: Autodesk, Inc."
 90
     1024
280
     0
281
     0
  0
CLASS
  1
LAYER_INDEX
  2
AcDbLayerIndex
  3
ObjectDBX Classes
 90
        0
280
     0
281
     0
  0
CLASS
  1
IDBUFFER
  2
AcDbIdBuffer
  3
ObjectDBX Classes
 90
        0
280
     0
281
     0
  0
CLASS
  1
DICTIONARYVAR
  2
AcDbDictionaryVar
  3
ObjectDBX Classes
 90
        0
280
     0
281
     0
  0
CLASS
  1
CELLSTYLEMAP
  2
AcDbCellStyleMap
  3
ObjectDBX Classes
 90
     1152
280
     0
281
     0
  0
CLASS
  1
ACDBPLACEHOLDER
  2
AcDbPlaceHolder
  3
ObjectDBX Classes
 90
        0
280
     0
281
     0
  0
CLASS
  1
LAYOUT
  2
AcDbLayout
  3
ObjectDBX Classes
 90
        0
280
     0
281
     0
  0
ENDSEC
  0
SECTION
  2
TABLES
  0
TABLE
  2
VPORT
  5
26E2
330
0
100
AcDbSymbolTable
 70
     1
  0
VPORT
  5
2752
330
26E2
100
AcDbSymbolTableRecord
100
AcDbViewportTableRecord
  2
*ACTIVE
 70
     0
 10
0.0
 20
0.0
 11
1.0
 21
1.0
 12
-296.2821011763946
 22
0.0000000000001137
 13
0.0
 23
0.0
 14
1.0
 24
1.0
 15
0.0
 25
0.0
 16
0.0
 26
0.0
 36
1.0
 17
426.1199142299504
 27
-411.9186308373683
 37
0.0
 40
1735.639663665589
 41
1.712555066079295
 42
50.0
 43
0.0
 44
0.0
 50
0.0
 51
0.0
 71
     0
 72
   100
 73
     1
 74
     0
 75
     0
 76
     0
 77
     0
 78
     0
281
     0
 65
     0
110
0.0
120
0.0
130
0.0
111
1.0
121
0.0
131
0.0
112
0.0
122
1.0
132
0.0
 79
     0
146
0.0
  0
ENDTAB
  0
TABLE
  2
LTYPE
  5
26DF
330
0
100
AcDbSymbolTable
 70
    20
  0
LTYPE
  5
273C
330
26DF
100
AcDbSymbolTableRecord
100
AcDbLinetypeTableRecord
  2
ByBlock
 70
     0
  3

 72
    65
 73
     0
 40
0.0
  0
LTYPE
  5
273D
330
26DF
100
AcDbSymbolTableRecord
100
AcDbLinetypeTableRecord
  2
ByLayer
 70
     0
  3

 72
    65
 73
     0
 40
0.0
  0
LTYPE
  5
273E
330
26DF
100
AcDbSymbolTableRecord
100
AcDbLinetypeTableRecord
  2
CONTINUOUS
 70
     0
  3
実線
 72
    65
 73
     0
 40
0.0
  0
LTYPE
  5
2753
330
26DF
100
AcDbSymbolTableRecord
100
AcDbLinetypeTableRecord
  2
DASHDOT
 70
     0
  3
____ _ ____ _ ____ _ ____ _ ____ _ ____ _ ____
 72
    65
 73
     4
 40
5.5
 49
4.0
 74
     0
 49
-0.6
 74
     0
 49
0.3
 74
     0
 49
-0.6
 74
     0
  0
LTYPE
  5
2754
330
26DF
100
AcDbSymbolTableRecord
100
AcDbLinetypeTableRecord
  2
HIDDEN
 70
     0
  3
Hidden __ __ __ __ __ __ __ __ __ __ __ __ __ _
 72
    65
 73
     2
 40
0.375
 49
0.25
 74
     0
 49
-0.125
 74
     0
  0
LTYPE
  5
2755
330
26DF
100
AcDbSymbolTableRecord
100
AcDbLinetypeTableRecord
  2
PHANTOM2
 70
     0
  3
Phantom (.5x) ___ _ _ ___ _ _ ___ _ _ ___ _ _
 72
    65
 73
     6
 40
1.25
 49
0.625
 74
     0
 49
-0.125
 74
     0
 49
0.125
 74
     0
 49
-0.125
 74
     0
 49
0.125
 74
     0
 49
-0.125
 74
     0
  0
LTYPE
  5
2756
330
26DF
100
AcDbSymbolTableRecord
100
AcDbLinetypeTableRecord
  2
CENTER
 70
     0
  3
Center ____ _ ____ _ ____ _ ____ _ ____ _ ____
 72
    65
 73
     4
 40
2.0
 49
1.25
 74
     0
 49
-0.25
 74
     0
 49
0.25
 74
     0
 49
-0.25
 74
     0
  0
LTYPE
  5
2757
330
26DF
100
AcDbSymbolTableRecord
100
AcDbLinetypeTableRecord
  2
ASULTYPE
 70
     0
  3
実線
 72
    65
 73
     2
 40
3.0
 49
2.5
 74
     0
 49
0.5
 74
     0
  0
LTYPE
  5
2758
330
26DF
100
AcDbSymbolTableRecord
100
AcDbLinetypeTableRecord
  2
ASVLTYPE
 70
     0
  3
__ __ __ __ __ __ __ __ __ __ __ __ __ __ __ __ __ __ __ __ __
 72
    65
 73
     2
 40
0.75
 49
0.5
 74
     0
 49
-0.25
 74
     0
  0
LTYPE
  5
2759
330
26DF
100
AcDbSymbolTableRecord
100
AcDbLinetypeTableRecord
  2
AM_ISO02W050
 70
     0
  3
__ __ __ __ __ __ __ __ __ __ __ __ __ __ __
 72
    65
 73
     2
 40
7.5
 49
6.0
 74
     0
 49
-1.5
 74
     0
  0
LTYPE
  5
275A
330
26DF
100
AcDbSymbolTableRecord
100
AcDbLinetypeTableRecord
  2
AM_ISO08W050
 70
     0
  3
____ . ____ . ____ . ____ . ____ . ____ . ____
 72
    65
 73
     4
 40
18.0
 49
12.0
 74
     0
 49
-1.5
 74
     0
 49
3.0
 74
     0
 49
-1.5
 74
     0
  0
LTYPE
  5
275B
330
26DF
100
AcDbSymbolTableRecord
100
AcDbLinetypeTableRecord
  2
AM_ISO09W050
 70
     0
  3
_____ . . _____ . . _____ . . ____ .. ____
 72
    65
 73
     6
 40
22.5
 49
12.0
 74
     0
 49
-1.5
 74
     0
 49
3.0
 74
     0
 49
-1.5
 74
     0
 49
3.0
 74
     0
 49
-1.5
 74
     0
  0
LTYPE
  5
275C
330
26DF
100
AcDbSymbolTableRecord
100
AcDbLinetypeTableRecord
  2
AMCONSTR
 70
     0
  3
_______________________
 72
    65
 73
     2
 40
9999.0
 49
9999.0
 74
     0
 49
0.0
 74
     0
  0
LTYPE
  5
275D
330
26DF
100
AcDbSymbolTableRecord
100
AcDbLinetypeTableRecord
  2
AM_ISO08W050X2
 70
     0
  3
__ . __ . __ . __ . __ . __
 72
    65
 73
     4
 40
9.0
 49
6.0
 74
     0
 49
-0.75
 74
     0
 49
1.5
 74
     0
 49
-0.75
 74
     0
  0
LTYPE
  5
275E
330
26DF
100
AcDbSymbolTableRecord
100
AcDbLinetypeTableRecord
  2
AM_ISO02W050X2
 70
     0
  3
 _ _ _ _ _ _ _ _ _ _ _ _
 72
    65
 73
     2
 40
3.75
 49
3.0
 74
     0
 49
-0.75
 74
     0
  0
LTYPE
  5
275F
330
26DF
100
AcDbSymbolTableRecord
100
AcDbLinetypeTableRecord
  2
AMZIGZAG
 70
     0
  3
/\/-/\/-/\/-/\/-/\/-/\/
 72
    65
 73
     2
 40
11.0001
 49
0.0001
 74
     0
 49
-11.0
 74
     0
  0
LTYPE
  5
2760
330
26DF
100
AcDbSymbolTableRecord
100
AcDbLinetypeTableRecord
  2
CENTER2
 70
     0
  3
Center (.5x) ___ _ ___ _ ___ _ ___ _ ___ _ ___
 72
    65
 73
     4
 40
1.125
 49
0.75
 74
     0
 49
-0.125
 74
     0
 49
0.125
 74
     0
 49
-0.125
 74
     0
  0
LTYPE
  5
2761
330
26DF
100
AcDbSymbolTableRecord
100
AcDbLinetypeTableRecord
  2
HIDDEN2
 70
     0
  3
Hidden (.5x) _ _ _ _ _ _ _ _ _ _ _ _ _ _ _ _ _
 72
    65
 73
     2
 40
0.1875
 49
0.125
 74
     0
 49
-0.0625
 74
     0
  0
LTYPE
  5
2762
330
26DF
100
AcDbSymbolTableRecord
100
AcDbLinetypeTableRecord
  2
AMZIGZAG2
 70
     0
  3
/\/-/\/-/\/-/\/-/\/-/\/
 72
    65
 73
     2
 40
0.4401
 49
0.0001
 74
     0
 49
-0.4400000000000003
 74
     0
  0
LTYPE
  5
2763
330
26DF
100
AcDbSymbolTableRecord
100
AcDbLinetypeTableRecord
  2
ACANSTGB
 70
     0
  3
__ . . __ . .
 72
    65
 73
     6
 40
0.35433070866
 49
0.15748031496
 74
     0
 49
-0.03937007874
 74
     0
 49
0.03937007874
 74
     0
 49
-0.03937007874
 74
     0
 49
0.03937007874
 74
     0
 49
-0.03937007874
 74
     0
  0
LTYPE
  5
2764
330
26DF
100
AcDbSymbolTableRecord
100
AcDbLinetypeTableRecord
  2
ACANSTGL
 70
     0
  3
_ _ _ _ _
 72
    65
 73
     2
 40
0.11811023622
 49
0.07874015748
 74
     0
 49
-0.03937007874
 74
     0
  0
LTYPE
  5
2765
330
26DF
100
AcDbSymbolTableRecord
100
AcDbLinetypeTableRecord
  2
CENTERX2
 70
     0
  3
________  __  ________  __  ________  __  _____
 72
    65
 73
     4
 40
4.0
 49
2.5
 74
     0
 49
-0.5
 74
     0
 49
0.5
 74
     0
 49
-0.5
 74
     0
  0
ENDTAB
  0
TABLE
  2
LAYER
  5
26DC
330
0
100
AcDbSymbolTable
 70
    13
  0
LAYER
  5
2736
102
{ACAD_XDICTIONARY
360
28A7
102
}
330
26DC
100
AcDbSymbolTableRecord
100
AcDbLayerTableRecord
  2
0
 70
     0
 62
     7
  6
CONTINUOUS
370
    -3
390
26E9
  0
LAYER
  5
2766
102
{ACAD_XDICTIONARY
360
28A9
102
}
330
26DC
100
AcDbSymbolTableRecord
100
AcDbLayerTableRecord
  2
OUTLINE
 70
     0
 62
     3
  6
CONTINUOUS
370
    -3
390
26E9
  0
LAYER
  5
2767
102
{ACAD_XDICTIONARY
360
28AB
102
}
330
26DC
100
AcDbSymbolTableRecord
100
AcDbLayerTableRecord
  2
SIZE
 70
     0
 62
    30
  6
CONTINUOUS
370
    -3
390
26E9
  0
LAYER
  5
2768
102
{ACAD_XDICTIONARY
360
28AD
102
}
330
26DC
100
AcDbSymbolTableRecord
100
AcDbLayerTableRecord
  2
BASIS
 70
     0
 62
     6
  6
DASHDOT
370
    -3
390
26E9
  0
LAYER
  5
2769
102
{ACAD_XDICTIONARY
360
28AF
102
}
330
26DC
100
AcDbSymbolTableRecord
100
AcDbLayerTableRecord
  2
DETAIL
 70
     0
 62
     5
  6
CONTINUOUS
370
    -3
390
26E9
  0
LAYER
  5
276A
102
{ACAD_XDICTIONARY
360
28B1
102
}
330
26DC
100
AcDbSymbolTableRecord
100
AcDbLayerTableRecord
  2
ARRANGE
 70
     0
 62
     1
  6
CONTINUOUS
370
    -3
390
26E9
  0
LAYER
  5
276B
330
26DC
100
AcDbSymbolTableRecord
100
AcDbLayerTableRecord
  2
DEFPOINTS
 70
     0
 62
     7
  6
CONTINUOUS
290
     0
370
    -3
390
26E9
  0
LAYER
  5
276C
102
{ACAD_XDICTIONARY
360
28B3
102
}
330
26DC
100
AcDbSymbolTableRecord
100
AcDbLayerTableRecord
  2
ETC
 70
     0
 62
    61
  6
CONTINUOUS
370
    -3
390
26E9
  0
LAYER
  5
276D
102
{ACAD_XDICTIONARY
360
28B5
102
}
330
26DC
100
AcDbSymbolTableRecord
100
AcDbLayerTableRecord
  2
FIX
 70
     0
 62
    11
  6
CONTINUOUS
370
    -3
390
26E9
  0
LAYER
  5
276E
102
{ACAD_XDICTIONARY
360
28B7
102
}
330
26DC
100
AcDbSymbolTableRecord
100
AcDbLayerTableRecord
  2
NOTE
 70
     0
 62
     4
  6
CONTINUOUS
370
    -3
390
26E9
  0
LAYER
  5
276F
102
{ACAD_XDICTIONARY
360
28B9
102
}
330
26DC
100
AcDbSymbolTableRecord
100
AcDbLayerTableRecord
  2
SERVICESPACE
 70
     0
 62
     2
  6
DASHDOT
370
    -3
390
26E9
  0
LAYER
  5
2770
102
{ACAD_XDICTIONARY
360
28BB
102
}
330
26DC
100
AcDbSymbolTableRecord
100
AcDbLayerTableRecord
  2
SYMBOLLINE
 70
     0
 62
    15
  6
CONTINUOUS
370
    -3
390
26E9
  0
LAYER
  5
2771
102
{ACAD_XDICTIONARY
360
28BD
102
}
330
26DC
100
AcDbSymbolTableRecord
100
AcDbLayerTableRecord
  2
BASIC
 70
     0
 62
     6
  6
CENTERX2
370
    -3
390
26E9
  0
ENDTAB
  0
TABLE
  2
STYLE
  5
26DD
330
0
100
AcDbSymbolTable
 70
     5
  0
STYLE
  5
2737
330
26DD
100
AcDbSymbolTableRecord
100
AcDbTextStyleTableRecord
  2
STANDARD
 70
     0
 40
64.0
 41
0.9
 50
0.0
 71
     0
 42
64.0
  3
SIMPLEX.shx
  4
BIGFONT.shx
  0
STYLE
  5
273B
330
26DD
100
AcDbSymbolTableRecord
100
AcDbTextStyleTableRecord
  2
ANNOTATIVE
 70
     0
 40
0.0
 41
1.0
 50
0.0
 71
     0
 42
0.2
  3
txt
  4

1001
ACADANNOTATIVE
1000
AnnotativeData
1002
{
1070
     1
1070
     1
1002
}
  0
STYLE
  5
2772
330
26DD
100
AcDbSymbolTableRecord
100
AcDbTextStyleTableRecord
  2

 70
     1
 40
0.0
 41
1.0
 50
0.0
 71
     0
 42
64.0
  3
genltshp.shx
  4

  0
STYLE
  5
2773
330
26DD
100
AcDbSymbolTableRecord
100
AcDbTextStyleTableRecord
  2
ACANSTS
 70
     0
 40
1.0
 41
1.0
 50
0.0
 71
     0
 42
64.0
  3
romans.shx
  4
extfont.shx
  0
STYLE
  5
2774
330
26DD
100
AcDbSymbolTableRecord
100
AcDbTextStyleTableRecord
  2
ACANSGDT
 70
     0
 40
0.0
 41
1.0
 50
0.0
 71
     0
 42
64.0
  3
amgdt.shx
  4

  0
ENDTAB
  0
TABLE
  2
VIEW
  5
26E0
330
0
100
AcDbSymbolTable
 70
     1
  0
VIEW
  5
2775
330
26E0
100
AcDbSymbolTableRecord
100
AcDbViewTableRecord
  2
ALL
 70
     0
 40
4282.619807999997
 10
0.0
 20
41.30990399999999
 41
5940.0
 11
0.0
 21
0.0
 31
1.0
 12
0.0
 22
0.0
 32
0.0
 42
50.0
 43
0.0
 44
0.0
 50
0.0
 71
     0
281
     0
 72
     1
110
0.0
120
0.0
130
0.0
111
1.0
121
0.0
131
0.0
112
0.0
122
1.0
132
0.0
 79
     0
146
0.0
  0
ENDTAB
  0
TABLE
  2
UCS
  5
26E1
330
0
100
AcDbSymbolTable
 70
     0
  0
ENDTAB
  0
TABLE
  2
APPID
  5
26E3
330
0
100
AcDbSymbolTable
 70
    28
  0
APPID
  5
2738
330
26E3
100
AcDbSymbolTableRecord
100
AcDbRegAppTableRecord
  2
ACAD
 70
     0
  0
APPID
  5
273F
330
26E3
100
AcDbSymbolTableRecord
100
AcDbRegAppTableRecord
  2
ACADANNOTATIVE
 70
     0
  0
APPID
  5
2749
330
26E3
100
AcDbSymbolTableRecord
100
AcDbRegAppTableRecord
  2
ACAD_MLEADERVER
 70
     0
  0
APPID
  5
2776
330
26E3
100
AcDbSymbolTableRecord
100
AcDbRegAppTableRecord
  2
GENIUS_GENDIM_13
 70
     0
  0
APPID
  5
2777
330
26E3
100
AcDbSymbolTableRecord
100
AcDbRegAppTableRecord
  2
GENIUS_GENDTOL_13
 70
     0
  0
APPID
  5
2778
330
26E3
100
AcDbSymbolTableRecord
100
AcDbRegAppTableRecord
  2
GENIUS_GE3DTOL_13
 70
     0
  0
APPID
  5
2779
330
26E3
100
AcDbSymbolTableRecord
100
AcDbRegAppTableRecord
  2
MCAD_NO_VIS
 70
     0
  0
APPID
  5
277A
330
26E3
100
AcDbSymbolTableRecord
100
AcDbRegAppTableRecord
  2
ACAD_TEMP_GRAPHIC
 70
     0
  0
APPID
  5
277B
330
26E3
100
AcDbSymbolTableRecord
100
AcDbRegAppTableRecord
  2
AD_DRAW
 70
     0
  0
APPID
  5
277C
330
26E3
100
AcDbSymbolTableRecord
100
AcDbRegAppTableRecord
  2
ACATTRIBSERVICES
 70
     0
  0
APPID
  5
277D
330
26E3
100
AcDbSymbolTableRecord
100
AcDbRegAppTableRecord
  2
ASURF_PCURVE_APPNAME
 70
     0
  0
APPID
  5
277E
330
26E3
100
AcDbSymbolTableRecord
100
AcDbRegAppTableRecord
  2
AMG_3D2D_5_0
 70
     0
  0
APPID
  5
277F
330
26E3
100
AcDbSymbolTableRecord
100
AcDbRegAppTableRecord
  2
DESIGNERASSEMBLIES
 70
     0
  0
APPID
  5
2780
330
26E3
100
AcDbSymbolTableRecord
100
AcDbRegAppTableRecord
  2
ACADM_DIM_EDIT
 70
     0
  0
APPID
  5
2781
330
26E3
100
AcDbSymbolTableRecord
100
AcDbRegAppTableRecord
  2
AMDT_DM_ADJ
 70
     0
  0
APPID
  5
2782
330
26E3
100
AcDbSymbolTableRecord
100
AcDbRegAppTableRecord
  2
ACAD_DSTYLE_DIMARC_LENGTH_
 70
     0
  0
APPID
  5
2783
330
26E3
100
AcDbSymbolTableRecord
100
AcDbRegAppTableRecord
  2
ACAD_DSTYLE_DIMJOGGED_JOGA
 70
     0
  0
APPID
  5
2784
330
26E3
100
AcDbSymbolTableRecord
100
AcDbRegAppTableRecord
  2
ACAD_PSEXT
 70
     0
  0
APPID
  5
2785
330
26E3
100
AcDbSymbolTableRecord
100
AcDbRegAppTableRecord
  2
ACAD_EXEMPT_FROM_CAD_STANDARDS
 70
     0
  0
APPID
  5
2786
330
26E3
100
AcDbSymbolTableRecord
100
AcDbRegAppTableRecord
  2
ACAD_DSTYLE_DIMJAG
 70
     0
  0
APPID
  5
2787
330
26E3
100
AcDbSymbolTableRecord
100
AcDbRegAppTableRecord
  2
ACAD_DSTYLE_DIMTALN
 70
     0
  0
APPID
  5
2788
330
26E3
100
AcDbSymbolTableRecord
100
AcDbRegAppTableRecord
  2
AMG_3D2D_5_00
 70
     0
  0
APPID
  5
2789
330
26E3
100
AcDbSymbolTableRecord
100
AcDbRegAppTableRecord
  2
AMG_3D2D_5_01
 70
     0
  0
APPID
  5
2847
330
26E3
100
AcDbSymbolTableRecord
100
AcDbRegAppTableRecord
  2
AMG_3D2D_5.0
 70
     0
  0
APPID
  5
28E7
330
26E3
100
AcDbSymbolTableRecord
100
AcDbRegAppTableRecord
  2
ACAD_DSTYLE_DIMARC_LENGTH_SYMBOL
 70
     0
  0
APPID
  5
28E8
330
26E3
100
AcDbSymbolTableRecord
100
AcDbRegAppTableRecord
  2
ACAD_DSTYLE_DIM_LINETYPE
 70
     0
  0
APPID
  5
28E9
330
26E3
100
AcDbSymbolTableRecord
100
AcDbRegAppTableRecord
  2
ACAD_DSTYLE_DIM_EXT1_LINETYPE
 70
     0
  0
APPID
  5
28EA
330
26E3
100
AcDbSymbolTableRecord
100
AcDbRegAppTableRecord
  2
ACAD_DSTYLE_DIM_EXT2_LINETYPE
 70
     0
  0
ENDTAB
  0
TABLE
  2
DIMSTYLE
  5
26E4
330
0
100
AcDbSymbolTable
 70
    10
100
AcDbDimStyleTable
 71
     1
340
278A
  0
DIMSTYLE
105
2739
330
26E4
100
AcDbSymbolTableRecord
100
AcDbDimStyleTableRecord
  2
STANDARD
 70
     0
 41
12.0
 42
20.0
 44
20.0
 77
     1
 78
     8
140
64.0
141
0.0
147
10.0
172
     1
275
     1
279
     2
284
     7
285
     7
286
     7
340
2737
  0
DIMSTYLE
105
273A
330
26E4
100
AcDbSymbolTableRecord
100
AcDbDimStyleTableRecord
  2
ANNOTATIVE
 70
     0
275
     1
279
     2
284
     7
285
     7
286
     7
340
2737
1001
ACADANNOTATIVE
1000
AnnotativeData
1002
{
1070
     1
1070
     1
1002
}
  0
DIMSTYLE
105
278A
330
26E4
100
AcDbSymbolTableRecord
100
AcDbDimStyleTableRecord
  2
AM_ANSI
 70
     0
  4
mm
 41
0.12
 42
0.05
 43
0.5
 44
0.1
 47
0.1
 48
0.1
 78
     7
 79
     2
140
0.12
141
0.0
146
0.71
147
0.06
176
   256
177
   256
178
     2
274
     4
284
     7
340
2737
371
    -1
372
    -1
1001
ACAD_DSTYLE_DIMARC_LENGTH_SYMBOL
1070
   379
1070
     1
1001
ACAD_DSTYLE_DIM_LINETYPE
1070
   380
1005
273C
1001
ACAD_DSTYLE_DIM_EXT1_LINETYPE
1070
   381
1005
273C
1001
ACAD_DSTYLE_DIM_EXT2_LINETYPE
1070
   382
1005
273C
  0
DIMSTYLE
105
278B
330
26E4
100
AcDbSymbolTableRecord
100
AcDbDimStyleTableRecord
  2
AM_ANSI$3
 70
     0
  4
mm
 41
0.12
 42
0.05
 43
0.5
 44
0.1
 47
0.1
 48
0.1
 78
     7
 79
     2
140
0.12
141
0.0
146
0.71
147
0.06
176
   256
177
   256
178
     2
274
     4
284
     7
288
     1
289
     0
340
2737
371
    -1
372
    -1
1001
ACAD_DSTYLE_DIMARC_LENGTH_SYMBOL
1070
   379
1070
     1
1001
ACAD_DSTYLE_DIM_LINETYPE
1070
   380
1005
273C
1001
ACAD_DSTYLE_DIM_EXT1_LINETYPE
1070
   381
1005
273C
1001
ACAD_DSTYLE_DIM_EXT2_LINETYPE
1070
   382
1005
273C
  0
DIMSTYLE
105
278C
330
26E4
100
AcDbSymbolTableRecord
100
AcDbDimStyleTableRecord
  2
AM_ANSI$4
 70
     0
  4
mm
 41
0.12
 42
0.05
 43
0.5
 44
0.1
 47
0.1
 48
0.1
 78
     7
 79
     2
140
0.12
141
0.0
146
0.71
147
0.06
176
   256
177
   256
178
     2
274
     4
284
     7
340
2737
371
    -1
372
    -1
1001
ACAD_DSTYLE_DIMARC_LENGTH_SYMBOL
1070
   379
1070
     1
1001
ACAD_DSTYLE_DIM_LINETYPE
1070
   380
1005
273C
1001
ACAD_DSTYLE_DIM_EXT1_LINETYPE
1070
   381
1005
273C
1001
ACAD_DSTYLE_DIM_EXT2_LINETYPE
1070
   382
1005
273C
  0
DIMSTYLE
105
278D
330
26E4
100
AcDbSymbolTableRecord
100
AcDbDimStyleTableRecord
  2
AM_ANSI$7
 70
     0
  4
mm
 41
0.12
 42
0.05
 43
0.5
 44
0.1
 47
0.1
 48
0.1
 78
     7
 79
     2
140
0.12
141
0.0
146
0.71
147
0.06
176
   256
177
   256
178
     2
274
     4
284
     7
340
2737
371
    -1
372
    -1
1001
ACAD_DSTYLE_DIMARC_LENGTH_SYMBOL
1070
   379
1070
     1
1001
ACAD_DSTYLE_DIM_LINETYPE
1070
   380
1005
273C
1001
ACAD_DSTYLE_DIM_EXT1_LINETYPE
1070
   381
1005
273C
1001
ACAD_DSTYLE_DIM_EXT2_LINETYPE
1070
   382
1005
273C
  0
DIMSTYLE
105
278E
330
26E4
100
AcDbSymbolTableRecord
100
AcDbDimStyleTableRecord
  2
AM_ANSI$SF
 70
     0
  4
mm
 41
0.12
 42
0.05
 43
0.5
 44
0.1
 47
0.1
 48
0.1
 75
     1
 76
     1
 78
     7
 79
     2
140
0.12
141
0.0
146
0.71
147
0.06
176
   256
177
   256
178
     2
274
     4
284
     7
340
2737
371
    -1
372
    -1
1001
ACAD_DSTYLE_DIMARC_LENGTH_SYMBOL
1070
   379
1070
     1
1001
ACAD_DSTYLE_DIM_LINETYPE
1070
   380
1005
273C
1001
ACAD_DSTYLE_DIM_EXT1_LINETYPE
1070
   381
1005
273C
1001
ACAD_DSTYLE_DIM_EXT2_LINETYPE
1070
   382
1005
273C
  0
DIMSTYLE
105
278F
330
26E4
100
AcDbSymbolTableRecord
100
AcDbDimStyleTableRecord
  2
AM_ANSI$SH
 70
     0
  4
mm
 41
0.12
 42
0.05
 43
0.5
 44
0.1
 47
0.1
 48
0.1
 75
     1
 76
     1
 78
     7
 79
     2
140
0.12
141
0.0
146
0.71
147
0.06
173
     1
176
   256
177
   256
178
     2
274
     4
284
     7
340
2737
343
27A3
371
    -1
372
    -1
1001
ACAD_DSTYLE_DIMARC_LENGTH_SYMBOL
1070
   379
1070
     1
1001
ACAD_DSTYLE_DIM_LINETYPE
1070
   380
1005
273C
1001
ACAD_DSTYLE_DIM_EXT1_LINETYPE
1070
   381
1005
273C
1001
ACAD_DSTYLE_DIM_EXT2_LINETYPE
1070
   382
1005
273C
  0
DIMSTYLE
105
2790
330
26E4
100
AcDbSymbolTableRecord
100
AcDbDimStyleTableRecord
  2
STANDARD1
 70
     0
 40
6.0
 41
2.5
 42
0.625
 43
6.0
 44
1.25
 47
1.0
 48
0.5
 77
     1
 78
     8
140
2.5
141
0.0
146
0.6
147
1.0
173
     1
275
     1
279
     2
284
     7
285
     7
286
     7
340
2737
  0
DIMSTYLE
105
2791
330
26E4
100
AcDbSymbolTableRecord
100
AcDbDimStyleTableRecord
  2
STANDARD$0
 70
     0
 41
12.0
 42
20.0
 44
20.0
 73
     0
 74
     0
 77
     1
 78
     8
140
64.0
141
0.0
147
10.0
172
     1
275
     1
279
     2
284
     7
285
     7
286
     7
340
2737
  0
ENDTAB
  0
TABLE
  2
BLOCK_RECORD
  5
26DB
330
0
100
AcDbSymbolTable
 70
    23
  0
BLOCK_RECORD
  5
274E
102
{ACAD_XDICTIONARY
360
28BF
102
}
330
26DB
100
AcDbSymbolTableRecord
100
AcDbBlockTableRecord
  2
*Model_Space
340
2751
  0
BLOCK_RECORD
  5
274A
330
26DB
100
AcDbSymbolTableRecord
100
AcDbBlockTableRecord
  2
*Paper_Space
340
274D
  0
BLOCK_RECORD
  5
2799
330
26DB
100
AcDbSymbolTableRecord
100
AcDbBlockTableRecord
  2
$MODEL_SPACE
340
0
  0
BLOCK_RECORD
  5
279B
330
26DB
100
AcDbSymbolTableRecord
100
AcDbBlockTableRecord
  2
$PAPER_SPACE
340
0
  0
BLOCK_RECORD
  5
279D
330
26DB
100
AcDbSymbolTableRecord
100
AcDbBlockTableRecord
  2
_ORIGIN
340
0
  0
BLOCK_RECORD
  5
279F
330
26DB
100
AcDbSymbolTableRecord
100
AcDbBlockTableRecord
  2
_DOTBLANK
340
0
102
{BLKREFS
331
202C
331
202D
331
2035
331
2036
331
203E
331
203F
331
2047
331
2048
331
2052
331
2053
331
205D
331
205E
331
2673
331
2674
331
2678
331
2679
331
267D
331
267E
331
2682
331
2683
331
2687
331
2688
331
268C
331
268D
331
2693
331
2694
102
}
  0
BLOCK_RECORD
  5
27A1
330
26DB
100
AcDbSymbolTableRecord
100
AcDbBlockTableRecord
  2
_OPEN30
340
0
102
{BLKREFS
331
2199
331
2586
102
}
  0
BLOCK_RECORD
  5
27A3
330
26DB
100
AcDbSymbolTableRecord
100
AcDbBlockTableRecord
  2
GENAXEH
340
0
  0
BLOCK_RECORD
  5
27A5
330
26DB
100
AcDbSymbolTableRecord
100
AcDbBlockTableRecord
  2
*U6
340
0
  0
BLOCK_RECORD
  5
27A7
330
26DB
100
AcDbSymbolTableRecord
100
AcDbBlockTableRecord
  2
*D7
340
0
  0
BLOCK_RECORD
  5
27A9
330
26DB
100
AcDbSymbolTableRecord
100
AcDbBlockTableRecord
  2
*U8
340
0
102
{BLKREFS
331
202E
102
}
  0
BLOCK_RECORD
  5
27AB
330
26DB
100
AcDbSymbolTableRecord
100
AcDbBlockTableRecord
  2
*D9
340
0
  0
BLOCK_RECORD
  5
27AD
330
26DB
100
AcDbSymbolTableRecord
100
AcDbBlockTableRecord
  2
*U10
340
0
102
{BLKREFS
331
2037
102
}
  0
BLOCK_RECORD
  5
27AF
330
26DB
100
AcDbSymbolTableRecord
100
AcDbBlockTableRecord
  2
*D11
340
0
  0
BLOCK_RECORD
  5
27B1
330
26DB
100
AcDbSymbolTableRecord
100
AcDbBlockTableRecord
  2
*U12
340
0
102
{BLKREFS
331
2040
102
}
  0
BLOCK_RECORD
  5
27B3
330
26DB
100
AcDbSymbolTableRecord
100
AcDbBlockTableRecord
  2
*D13
340
0
  0
BLOCK_RECORD
  5
27B5
330
26DB
100
AcDbSymbolTableRecord
100
AcDbBlockTableRecord
  2
*U14
340
0
102
{BLKREFS
331
2049
102
}
  0
BLOCK_RECORD
  5
27B7
330
26DB
100
AcDbSymbolTableRecord
100
AcDbBlockTableRecord
  2
*D15
340
0
  0
BLOCK_RECORD
  5
27B9
330
26DB
100
AcDbSymbolTableRecord
100
AcDbBlockTableRecord
  2
*U16
340
0
102
{BLKREFS
331
2054
102
}
  0
BLOCK_RECORD
  5
27BB
330
26DB
100
AcDbSymbolTableRecord
100
AcDbBlockTableRecord
  2
*D17
340
0
  0
BLOCK_RECORD
  5
27BD
330
26DB
100
AcDbSymbolTableRecord
100
AcDbBlockTableRecord
  2
*U18
340
0
102
{BLKREFS
331
205F
102
}
  0
BLOCK_RECORD
  5
27BF
330
26DB
100
AcDbSymbolTableRecord
100
AcDbBlockTableRecord
  2
*U19
340
0
  0
BLOCK_RECORD
  5
27C1
330
26DB
100
AcDbSymbolTableRecord
100
AcDbBlockTableRecord
  2
*U20
340
0
  0
BLOCK_RECORD
  5
27C3
330
26DB
100
AcDbSymbolTableRecord
100
AcDbBlockTableRecord
  2
*U21
340
0
102
{BLKREFS
331
2646
102
}
  0
ENDTAB
  0
ENDSEC
  0
SECTION
  2
BLOCKS
  0
BLOCK
  5
274F
330
274E
100
AcDbEntity
  8
0
100
AcDbBlockBegin
  2
*Model_Space
 70
     0
 10
0.0
 20
0.0
 30
0.0
  3
*Model_Space
  1

  0
ENDBLK
  5
2750
330
274E
100
AcDbEntity
  8
0
100
AcDbBlockEnd
  0
BLOCK
  5
274B
330
274A
100
AcDbEntity
 67
     1
  8
0
100
AcDbBlockBegin
  2
*Paper_Space
 70
     0
 10
0.0
 20
0.0
 30
0.0
  3
*Paper_Space
  1

  0
ENDBLK
  5
274C
330
274A
100
AcDbEntity
 67
     1
  8
0
100
AcDbBlockEnd
  0
BLOCK
  5
279A
330
2799
100
AcDbEntity
  8
0
100
AcDbBlockBegin
  2
$MODEL_SPACE
 70
     0
 10
0.0
 20
0.0
 30
0.0
  3
$MODEL_SPACE
  1

  0
ENDBLK
  5
2438
330
2799
100
AcDbEntity
  8
0
100
AcDbBlockEnd
  0
BLOCK
  5
279C
330
279B
100
AcDbEntity
  8
0
100
AcDbBlockBegin
  2
$PAPER_SPACE
 70
     0
 10
0.0
 20
0.0
 30
0.0
  3
$PAPER_SPACE
  1

  0
ENDBLK
  5
2434
330
279B
100
AcDbEntity
  8
0
100
AcDbBlockEnd
  0
BLOCK
  5
279E
330
279D
100
AcDbEntity
  8
0
100
AcDbBlockBegin
  2
_ORIGIN
 70
     0
 10
0.0
 20
0.0
 30
0.0
  3
_ORIGIN
  1

  0
CIRCLE
  5
880
330
279D
100
AcDbEntity
  8
0
  6
Continuous
 62
     7
100
AcDbCircle
 10
0.0
 20
0.0
 30
0.0
 40
0.5
  0
LINE
  5
881
330
279D
100
AcDbEntity
  8
0
  6
Continuous
 62
     7
100
AcDbLine
 10
0.0
 20
0.0
 30
0.0
 11
-1.0
 21
0.0
 31
0.0
  0
ENDBLK
  5
882
330
279D
100
AcDbEntity
  8
0
100
AcDbBlockEnd
  0
BLOCK
  5
27A0
330
279F
100
AcDbEntity
  8
0
 62
     1
100
AcDbBlockBegin
  2
_DOTBLANK
 70
     0
 10
0.0
 20
0.0
 30
0.0
  3
_DOTBLANK
  1

  0
CIRCLE
  5
AB3
330
279F
100
AcDbEntity
  8
0
  6
ByBlock
 62
     0
100
AcDbCircle
 10
0.0
 20
0.0
 30
0.0
 40
0.5
  0
LINE
  5
AB4
330
279F
100
AcDbEntity
  8
0
  6
ByBlock
 62
     0
100
AcDbLine
 10
-0.5
 20
0.0
 30
0.0
 11
-1.0
 21
0.0
 31
0.0
  0
ENDBLK
  5
AB6
330
279F
100
AcDbEntity
  8
0
 62
     1
100
AcDbBlockEnd
  0
BLOCK
  5
27A2
330
27A1
100
AcDbEntity
  8
0
 62
     1
100
AcDbBlockBegin
  2
_OPEN30
 70
     0
 10
0.0
 20
0.0
 30
0.0
  3
_OPEN30
  1

  0
LINE
  5
AB8
330
27A1
100
AcDbEntity
  8
0
  6
ByBlock
 62
     0
100
AcDbLine
 10
-1.0
 20
0.26794919
 30
0.0
 11
0.0
 21
0.0
 31
0.0
  0
LINE
  5
AB9
330
27A1
100
AcDbEntity
  8
0
  6
ByBlock
 62
     0
100
AcDbLine
 10
0.0
 20
0.0
 30
0.0
 11
-1.0
 21
-0.26794919
 31
0.0
  0
LINE
  5
ABA
330
27A1
100
AcDbEntity
  8
0
  6
ByBlock
 62
     0
100
AcDbLine
 10
0.0
 20
0.0
 30
0.0
 11
-1.0
 21
0.0
 31
0.0
  0
ENDBLK
  5
ABC
330
27A1
100
AcDbEntity
  8
0
 62
     1
100
AcDbBlockEnd
  0
BLOCK
  5
27A4
330
27A3
100
AcDbEntity
  8
0
100
AcDbBlockBegin
  2
GENAXEH
 70
     0
 10
0.0
 20
0.0
 30
0.0
  3
GENAXEH
  1

  0
LINE
  5
FDB
330
27A3
100
AcDbEntity
  8
0
100
AcDbLine
 10
-1.0
 20
0.0
 30
0.0
 11
1.0
 21
0.0
 31
0.0
  0
ENDBLK
  5
FDD
330
27A3
100
AcDbEntity
  8
0
100
AcDbBlockEnd
  0
BLOCK
  5
27A6
330
27A5
100
AcDbEntity
  8
0
100
AcDbBlockBegin
  2
*U6
 70
     1
 10
0.0
 20
0.0
 30
0.0
  3
*U6
  1

  0
ENDBLK
  5
1ED4
330
27A5
100
AcDbEntity
  8
0
100
AcDbBlockEnd
  0
BLOCK
  5
27A8
330
27A7
100
AcDbEntity
  8
0
100
AcDbBlockBegin
  2
*D7
 70
     1
 10
0.0
 20
0.0
 30
0.0
  3
*D7
  1

  0
LINE
  5
2029
330
27A7
100
AcDbEntity
  8
SIZE
 62
     0
100
AcDbLine
 10
-135.5
 20
-449.4732256776551
 30
0.0
 11
-135.5
 21
-638.0173952306003
 31
0.0
  0
LINE
  5
202A
330
27A7
100
AcDbEntity
  8
SIZE
 62
     0
100
AcDbLine
 10
135.5
 20
-449.4732256776551
 30
0.0
 11
135.5
 21
-638.0173952306003
 31
0.0
  0
LINE
  5
202B
330
27A7
100
AcDbEntity
  8
SIZE
 62
     0
100
AcDbLine
 10
-123.5
 20
-618.0173952306001
 30
0.0
 11
123.5
 21
-618.0173952306001
 31
0.0
  0
INSERT
  5
202C
330
27A7
100
AcDbEntity
  8
SIZE
 62
     0
100
AcDbBlockReference
  2
_DOTBLANK
 10
-135.5
 20
-618.0173952306001
 30
0.0
 41
12.0
 42
12.0
 43
12.0
 50
180.0
  0
INSERT
  5
202D
330
27A7
100
AcDbEntity
  8
SIZE
 62
     0
100
AcDbBlockReference
  2
_DOTBLANK
 10
135.5
 20
-618.0173952306001
 30
0.0
 41
12.0
 42
12.0
 43
12.0
  0
INSERT
  5
202E
330
27A7
100
AcDbEntity
  8
0
100
AcDbBlockReference
  2
*U8
 10
0.0
 20
0.0
 30
0.0
  0
POINT
  5
202F
330
27A7
100
AcDbEntity
  8
DEFPOINTS
 62
     0
100
AcDbPoint
 10
-135.5
 20
-429.473225677655
 30
0.0
  0
POINT
  5
2030
330
27A7
100
AcDbEntity
  8
DEFPOINTS
 62
     0
100
AcDbPoint
 10
135.5
 20
-429.473225677655
 30
0.0
  0
POINT
  5
2031
330
27A7
100
AcDbEntity
  8
DEFPOINTS
 62
     0
100
AcDbPoint
 10
135.5
 20
-618.0173952306001
 30
0.0
  0
ENDBLK
  5
1FDF
330
27A7
100
AcDbEntity
  8
0
100
AcDbBlockEnd
  0
BLOCK
  5
27AA
330
27A9
100
AcDbEntity
  8
0
100
AcDbBlockBegin
  2
*U8
 70
     1
 10
0.0
 20
0.0
 30
0.0
  3
*U8
  1

  0
TEXT
  5
21A6
330
27A9
100
AcDbEntity
  8
SIZE
 62
     0
100
AcDbText
 10
-61.7142857142857
 20
-608.0173952306003
 30
0.0
 40
64.0
  1
271
 41
0.9
100
AcDbText
  0
ENDBLK
  5
21A8
330
27A9
100
AcDbEntity
  8
0
100
AcDbBlockEnd
  0
BLOCK
  5
27AC
330
27AB
100
AcDbEntity
  8
0
100
AcDbBlockBegin
  2
*D9
 70
     1
 10
0.0
 20
0.0
 30
0.0
  3
*D9
  1

  0
LINE
  5
2032
330
27AB
100
AcDbEntity
  8
SIZE
 62
     0
100
AcDbLine
 10
143.7000000000007
 20
-430.0
 30
0.0
 11
304.6432844803784
 21
-430.0
 31
0.0
  0
LINE
  5
2033
330
27AB
100
AcDbEntity
  8
SIZE
 62
     0
100
AcDbLine
 10
177.5
 20
-0.0000000000000057
 30
0.0
 11
304.6432844803785
 21
-0.0000000000000417
 31
0.0
  0
LINE
  5
2034
330
27AB
100
AcDbEntity
  8
SIZE
 62
     0
100
AcDbLine
 10
284.6432844803784
 20
-418.0
 30
0.0
 11
284.6432844803785
 21
-12.00000000000003
 31
0.0
  0
INSERT
  5
2035
330
27AB
100
AcDbEntity
  8
SIZE
 62
     0
100
AcDbBlockReference
  2
_DOTBLANK
 10
284.6432844803784
 20
-430.0
 30
0.0
 41
12.0
 42
12.0
 43
12.0
 50
270.0
  0
INSERT
  5
2036
330
27AB
100
AcDbEntity
  8
SIZE
 62
     0
100
AcDbBlockReference
  2
_DOTBLANK
 10
284.6432844803785
 20
-0.000000000000036
 30
0.0
 41
12.0
 42
12.0
 43
12.0
 50
90.0
  0
INSERT
  5
2037
330
27AB
100
AcDbEntity
  8
0
100
AcDbBlockReference
  2
*U10
 10
0.0
 20
0.0
 30
0.0
  0
POINT
  5
2038
330
27AB
100
AcDbEntity
  8
DEFPOINTS
 62
     0
100
AcDbPoint
 10
123.7000000000007
 20
-430.0
 30
0.0
  0
POINT
  5
2039
330
27AB
100
AcDbEntity
  8
DEFPOINTS
 62
     0
100
AcDbPoint
 10
157.5
 20
0.0
 30
0.0
  0
POINT
  5
203A
330
27AB
100
AcDbEntity
  8
DEFPOINTS
 62
     0
100
AcDbPoint
 10
284.6432844803785
 20
-0.000000000000036
 30
0.0
  0
ENDBLK
  5
1FEB
330
27AB
100
AcDbEntity
  8
0
100
AcDbBlockEnd
  0
BLOCK
  5
27AE
330
27AD
100
AcDbEntity
  8
0
100
AcDbBlockBegin
  2
*U10
 70
     1
 10
0.0
 20
0.0
 30
0.0
  3
*U10
  1

  0
TEXT
  5
21AA
330
27AD
100
AcDbEntity
  8
SIZE
 62
     0
100
AcDbText
 10
274.6432844803785
 20
-289.0571428571429
 30
0.0
 40
64.0
  1
430
 50
90.0
 41
0.9
100
AcDbText
  0
ENDBLK
  5
21AC
330
27AD
100
AcDbEntity
  8
0
100
AcDbBlockEnd
  0
BLOCK
  5
27B0
330
27AF
100
AcDbEntity
  8
0
100
AcDbBlockBegin
  2
*D11
 70
     1
 10
0.0
 20
0.0
 30
0.0
  3
*D11
  1

  0
LINE
  5
203B
330
27AF
100
AcDbEntity
  8
SIZE
 62
     0
100
AcDbLine
 10
-140.0
 20
32.5
 30
0.0
 11
-140.0
 21
136.4516878685499
 31
0.0
  0
LINE
  5
203C
330
27AF
100
AcDbEntity
  8
SIZE
 62
     0
100
AcDbLine
 10
140.0
 20
32.5
 30
0.0
 11
140.0
 21
136.4516878685499
 31
0.0
  0
LINE
  5
203D
330
27AF
100
AcDbEntity
  8
SIZE
 62
     0
100
AcDbLine
 10
-128.0
 20
116.4516878685499
 30
0.0
 11
128.0
 21
116.4516878685499
 31
0.0
  0
INSERT
  5
203E
330
27AF
100
AcDbEntity
  8
SIZE
 62
     0
100
AcDbBlockReference
  2
_DOTBLANK
 10
-140.0
 20
116.4516878685499
 30
0.0
 41
12.0
 42
12.0
 43
12.0
 50
180.0
  0
INSERT
  5
203F
330
27AF
100
AcDbEntity
  8
SIZE
 62
     0
100
AcDbBlockReference
  2
_DOTBLANK
 10
140.0
 20
116.4516878685499
 30
0.0
 41
12.0
 42
12.0
 43
12.0
  0
INSERT
  5
2040
330
27AF
100
AcDbEntity
  8
0
100
AcDbBlockReference
  2
*U12
 10
0.0
 20
0.0
 30
0.0
  0
POINT
  5
2041
330
27AF
100
AcDbEntity
  8
DEFPOINTS
 62
     0
100
AcDbPoint
 10
-140.0
 20
12.5
 30
0.0
  0
POINT
  5
2042
330
27AF
100
AcDbEntity
  8
DEFPOINTS
 62
     0
100
AcDbPoint
 10
140.0
 20
12.5
 30
0.0
  0
POINT
  5
2043
330
27AF
100
AcDbEntity
  8
DEFPOINTS
 62
     0
100
AcDbPoint
 10
140.0
 20
116.4516878685499
 30
0.0
  0
ENDBLK
  5
1FF7
330
27AF
100
AcDbEntity
  8
0
100
AcDbBlockEnd
  0
BLOCK
  5
27B2
330
27B1
100
AcDbEntity
  8
0
100
AcDbBlockBegin
  2
*U12
 70
     1
 10
0.0
 20
0.0
 30
0.0
  3
*U12
  1

  0
TEXT
  5
21AE
330
27B1
100
AcDbEntity
  8
SIZE
 62
     0
100
AcDbText
 10
-74.05714285714283
 20
126.4516878685499
 30
0.0
 40
64.0
  1
280
 41
0.9
100
AcDbText
  0
ENDBLK
  5
21B0
330
27B1
100
AcDbEntity
  8
0
100
AcDbBlockEnd
  0
BLOCK
  5
27B4
330
27B3
100
AcDbEntity
  8
0
100
AcDbBlockBegin
  2
*D13
 70
     1
 10
0.0
 20
0.0
 30
0.0
  3
*D13
  1

  0
LINE
  5
2044
330
27B3
100
AcDbEntity
  8
SIZE
 62
     0
100
AcDbLine
 10
-157.5
 20
20.0
 30
0.0
 11
-157.5
 21
245.5794621189598
 31
0.0
  0
LINE
  5
2045
330
27B3
100
AcDbEntity
  8
SIZE
 62
     0
100
AcDbLine
 10
157.5
 20
20.0
 30
0.0
 11
157.5
 21
245.5794621189598
 31
0.0
  0
LINE
  5
2046
330
27B3
100
AcDbEntity
  8
SIZE
 62
     0
100
AcDbLine
 10
-145.5
 20
225.5794621189598
 30
0.0
 11
145.5
 21
225.5794621189598
 31
0.0
  0
INSERT
  5
2047
330
27B3
100
AcDbEntity
  8
SIZE
 62
     0
100
AcDbBlockReference
  2
_DOTBLANK
 10
-157.5
 20
225.5794621189598
 30
0.0
 41
12.0
 42
12.0
 43
12.0
 50
180.0
  0
INSERT
  5
2048
330
27B3
100
AcDbEntity
  8
SIZE
 62
     0
100
AcDbBlockReference
  2
_DOTBLANK
 10
157.5
 20
225.5794621189598
 30
0.0
 41
12.0
 42
12.0
 43
12.0
  0
INSERT
  5
2049
330
27B3
100
AcDbEntity
  8
0
100
AcDbBlockReference
  2
*U14
 10
0.0
 20
0.0
 30
0.0
  0
POINT
  5
204A
330
27B3
100
AcDbEntity
  8
DEFPOINTS
 62
     0
100
AcDbPoint
 10
-157.5
 20
0.0
 30
0.0
  0
POINT
  5
204B
330
27B3
100
AcDbEntity
  8
DEFPOINTS
 62
     0
100
AcDbPoint
 10
157.5
 20
0.0
 30
0.0
  0
POINT
  5
204C
330
27B3
100
AcDbEntity
  8
DEFPOINTS
 62
     0
100
AcDbPoint
 10
157.5
 20
225.5794621189598
 30
0.0
  0
ENDBLK
  5
2003
330
27B3
100
AcDbEntity
  8
0
100
AcDbBlockEnd
  0
BLOCK
  5
27B6
330
27B5
100
AcDbEntity
  8
0
100
AcDbBlockBegin
  2
*U14
 70
     1
 10
0.0
 20
0.0
 30
0.0
  3
*U14
  1

  0
TEXT
  5
21B2
330
27B5
100
AcDbEntity
  8
SIZE
 62
     0
100
AcDbText
 10
-68.57142857142857
 20
235.5794621189598
 30
0.0
 40
64.0
  1
315
 41
0.9
100
AcDbText
  0
ENDBLK
  5
21B4
330
27B5
100
AcDbEntity
  8
0
100
AcDbBlockEnd
  0
BLOCK
  5
27B8
330
27B7
100
AcDbEntity
  8
0
100
AcDbBlockBegin
  2
*D15
 70
     1
 10
0.0
 20
0.0
 30
0.0
  3
*D15
  1

  0
LINE
  5
204D
330
27B7
100
AcDbEntity
  8
SIZE
 62
     0
100
AcDbLine
 10
-177.5
 20
0.0000000000000057
 30
0.0
 11
-219.7694545525301
 21
0.0000000000000176
 31
0.0
  0
LINE
  5
204E
330
27B7
100
AcDbEntity
  8
SIZE
 62
     0
100
AcDbLine
 10
-177.5
 20
-7.999999999999993
 30
0.0
 11
-219.7694545525301
 21
-7.999999999999982
 31
0.0
  0
LINE
  5
204F
330
27B7
100
AcDbEntity
  8
SIZE
 62
     0
100
AcDbLine
 10
-199.76945455253
 20
12.00000000000001
 30
0.0
 11
-199.76945455253
 21
24.00000000000001
 31
0.0
  0
LINE
  5
2050
330
27B7
100
AcDbEntity
  8
SIZE
 62
     0
100
AcDbLine
 10
-199.76945455253
 20
-19.99999999999999
 30
0.0
 11
-199.7694545525301
 21
-90.4
 31
0.0
  0
LINE
  5
2051
330
27B7
100
AcDbEntity
  8
SIZE
 62
     0
100
AcDbLine
 10
-199.76945455253
 20
0.000000000000012
 30
0.0
 11
-199.76945455253
 21
-7.999999999999985
 31
0.0
  0
INSERT
  5
2052
330
27B7
100
AcDbEntity
  8
SIZE
 62
     0
100
AcDbBlockReference
  2
_DOTBLANK
 10
-199.76945455253
 20
0.000000000000012
 30
0.0
 41
12.0
 42
12.0
 43
12.0
 50
270.0
  0
INSERT
  5
2053
330
27B7
100
AcDbEntity
  8
SIZE
 62
     0
100
AcDbBlockReference
  2
_DOTBLANK
 10
-199.76945455253
 20
-7.999999999999985
 30
0.0
 41
12.0
 42
12.0
 43
12.0
 50
90.0
  0
INSERT
  5
2054
330
27B7
100
AcDbEntity
  8
0
100
AcDbBlockReference
  2
*U16
 10
0.0
 20
0.0
 30
0.0
  0
POINT
  5
2055
330
27B7
100
AcDbEntity
  8
DEFPOINTS
 62
     0
100
AcDbPoint
 10
-157.5
 20
0.0
 30
0.0
  0
POINT
  5
2056
330
27B7
100
AcDbEntity
  8
DEFPOINTS
 62
     0
100
AcDbPoint
 10
-157.5
 20
-8.0
 30
0.0
  0
POINT
  5
2057
330
27B7
100
AcDbEntity
  8
DEFPOINTS
 62
     0
100
AcDbPoint
 10
-199.76945455253
 20
-7.999999999999985
 30
0.0
  0
ENDBLK
  5
200F
330
27B7
100
AcDbEntity
  8
0
100
AcDbBlockEnd
  0
BLOCK
  5
27BA
330
27B9
100
AcDbEntity
  8
0
100
AcDbBlockBegin
  2
*U16
 70
     1
 10
0.0
 20
0.0
 30
0.0
  3
*U16
  1

  0
TEXT
  5
21B6
330
27B9
100
AcDbEntity
  8
SIZE
 62
     0
100
AcDbText
 10
-209.7694545525301
 20
-80.4
 30
0.0
 40
64.0
  1
8
 50
90.0
 41
0.9
100
AcDbText
  0
ENDBLK
  5
21B8
330
27B9
100
AcDbEntity
  8
0
100
AcDbBlockEnd
  0
BLOCK
  5
27BC
330
27BB
100
AcDbEntity
  8
0
100
AcDbBlockBegin
  2
*D17
 70
     1
 10
0.0
 20
0.0
 30
0.0
  3
*D17
  1

  0
LINE
  5
2058
330
27BB
100
AcDbEntity
  8
SIZE
 62
     0
100
AcDbLine
 10
143.7000000000007
 20
-430.0
 30
0.0
 11
304.626441221626
 21
-430.0
 31
0.0
  0
LINE
  5
2059
330
27BB
100
AcDbEntity
  8
SIZE
 62
     0
100
AcDbLine
 10
143.1000000000022
 20
-441.0000000000001
 30
0.0
 11
304.626441221626
 21
-441.0000000000001
 31
0.0
  0
LINE
  5
205A
330
27BB
100
AcDbEntity
  8
SIZE
 62
     0
100
AcDbLine
 10
284.626441221626
 20
-418.0
 30
0.0
 11
284.626441221626
 21
-406.0
 31
0.0
  0
LINE
  5
205B
330
27BB
100
AcDbEntity
  8
SIZE
 62
     0
100
AcDbLine
 10
284.626441221626
 20
-453.0
 30
0.0
 11
284.626441221626
 21
-542.6000000000001
 31
0.0
  0
LINE
  5
205C
330
27BB
100
AcDbEntity
  8
SIZE
 62
     0
100
AcDbLine
 10
284.626441221626
 20
-430.0
 30
0.0
 11
284.626441221626
 21
-441.0000000000001
 31
0.0
  0
INSERT
  5
205D
330
27BB
100
AcDbEntity
  8
SIZE
 62
     0
100
AcDbBlockReference
  2
_DOTBLANK
 10
284.626441221626
 20
-430.0
 30
0.0
 41
12.0
 42
12.0
 43
12.0
 50
270.0
  0
INSERT
  5
205E
330
27BB
100
AcDbEntity
  8
SIZE
 62
     0
100
AcDbBlockReference
  2
_DOTBLANK
 10
284.626441221626
 20
-441.0000000000001
 30
0.0
 41
12.0
 42
12.0
 43
12.0
 50
90.0
  0
INSERT
  5
205F
330
27BB
100
AcDbEntity
  8
0
100
AcDbBlockReference
  2
*U18
 10
0.0
 20
0.0
 30
0.0
  0
POINT
  5
2060
330
27BB
100
AcDbEntity
  8
DEFPOINTS
 62
     0
100
AcDbPoint
 10
123.7000000000007
 20
-430.0
 30
0.0
  0
POINT
  5
2061
330
27BB
100
AcDbEntity
  8
DEFPOINTS
 62
     0
100
AcDbPoint
 10
123.1000000000022
 20
-441.0
 30
0.0
  0
POINT
  5
2062
330
27BB
100
AcDbEntity
  8
DEFPOINTS
 62
     0
100
AcDbPoint
 10
284.626441221626
 20
-441.0000000000001
 30
0.0
  0
ENDBLK
  5
201D
330
27BB
100
AcDbEntity
  8
0
100
AcDbBlockEnd
  0
BLOCK
  5
27BE
330
27BD
100
AcDbEntity
  8
0
100
AcDbBlockBegin
  2
*U18
 70
     1
 10
0.0
 20
0.0
 30
0.0
  3
*U18
  1

  0
TEXT
  5
21BA
330
27BD
100
AcDbEntity
  8
SIZE
 62
     0
100
AcDbText
 10
274.6264412216261
 20
-532.6
 30
0.0
 40
64.0
  1
11
 50
90.0
 41
0.9
100
AcDbText
  0
ENDBLK
  5
21BC
330
27BD
100
AcDbEntity
  8
0
100
AcDbBlockEnd
  0
BLOCK
  5
27C0
330
27BF
100
AcDbEntity
  8
0
100
AcDbBlockBegin
  2
*U19
 70
     1
 10
0.0
 20
0.0
 30
0.0
  3
*U19
  1

  0
INSERT
  5
2199
330
27BF
100
AcDbEntity
  8
NOTE
100
AcDbBlockReference
  2
_OPEN30
 10
-140.0
 20
0.0
 30
0.0
 41
12.0
 42
12.0
 43
12.0
 50
312.6090116116894
  0
POLYLINE
  5
219A
330
27BF
100
AcDbEntity
  8
NOTE
100
AcDb2dPolyline
 66
     1
 10
0.0
 20
0.0
 30
0.0
  0
VERTEX
  5
219B
330
219A
100
AcDbEntity
  8
NOTE
100
AcDbVertex
100
AcDb2dVertex
 10
-148.1239008361894
 20
8.831887408915472
 30
0.0
  0
VERTEX
  5
219C
330
219A
100
AcDbEntity
  8
NOTE
100
AcDbVertex
100
AcDb2dVertex
 10
-227.8693999922543
 20
95.5270950580134
 30
0.0
  0
VERTEX
  5
219D
330
219A
100
AcDbEntity
  8
NOTE
100
AcDbVertex
100
AcDb2dVertex
 10
-776.4522571351115
 20
95.5270950580134
 30
0.0
  0
SEQEND
  5
219E
330
219A
100
AcDbEntity
  8
NOTE
  0
ENDBLK
  5
21A0
330
27BF
100
AcDbEntity
  8
0
100
AcDbBlockEnd
  0
BLOCK
  5
27C2
330
27C1
100
AcDbEntity
  8
0
100
AcDbBlockBegin
  2
*U20
 70
     1
 10
0.0
 20
0.0
 30
0.0
  3
*U20
  1

  0
TEXT
  5
21A2
330
27C1
100
AcDbEntity
  8
NOTE
100
AcDbText
 10
-773.7093999922541
 20
113.5270950580134
 30
0.0
 40
64.0
  1
4×φ10取付穴
 41
0.9
100
AcDbText
  0
ENDBLK
  5
21A4
330
27C1
100
AcDbEntity
  8
0
100
AcDbBlockEnd
  0
BLOCK
  5
27C4
330
27C3
100
AcDbEntity
  8
0
100
AcDbBlockBegin
  2
*U21
 70
     1
 10
0.0
 20
0.0
 30
0.0
  3
*U21
  1

  0
INSERT
  5
2586
330
27C3
100
AcDbEntity
  8
NOTE
100
AcDbBlockReference
  2
_OPEN30
 10
-399.9999999998221
 20
0.0000000005587708
 30
0.0
 41
12.0
 42
12.0
 43
12.0
 50
312.6090116116894
  0
POLYLINE
  5
2587
330
27C3
100
AcDbEntity
  8
NOTE
100
AcDb2dPolyline
 66
     1
 10
0.0
 20
0.0
 30
0.0
  0
VERTEX
  5
2588
330
2587
100
AcDbEntity
  8
NOTE
100
AcDbVertex
100
AcDb2dVertex
 10
-408.1239008360117
 20
8.831887409474241
 30
0.0
  0
VERTEX
  5
2589
330
2587
100
AcDbEntity
  8
NOTE
100
AcDbVertex
100
AcDb2dVertex
 10
-487.8693999920765
 20
95.52709505857214
 30
0.0
  0
VERTEX
  5
258A
330
2587
100
AcDbEntity
  8
NOTE
100
AcDbVertex
100
AcDb2dVertex
 10
-1083.080828563505
 20
95.52709505857214
 30
0.0
  0
SEQEND
  5
258B
330
2587
100
AcDbEntity
  8
NOTE
  0
ENDBLK
  5
258C
330
27C3
100
AcDbEntity
  8
0
100
AcDbBlockEnd
  0
ENDSEC
  0
SECTION
  2
ENTITIES
  0
TEXT
  5
953
330
274E
100
AcDbEntity
  8
OUTLINE
  6
Continuous
 62
     3
100
AcDbText
 10
-418.231467
 20
13.715189
 30
0.0
 40
64.0
  1
 
 41
0.9
100
AcDbText
  0
TEXT
  5
954
330
274E
100
AcDbEntity
  8
OUTLINE
  6
Continuous
 62
     3
100
AcDbText
 10
-418.231467
 20
13.715189
 30
0.0
 40
64.0
  1
 
 41
0.9
100
AcDbText
  0
TEXT
  5
955
330
274E
100
AcDbEntity
  8
OUTLINE
  6
Continuous
 62
     3
100
AcDbText
 10
1341.41903
 20
-706.0588199999997
 30
0.0
 40
64.0
  1
 
 41
0.9
100
AcDbText
  0
TEXT
  5
956
330
274E
100
AcDbEntity
  8
OUTLINE
  6
Continuous
 62
     3
100
AcDbText
 10
1341.41903
 20
-706.0588199999997
 30
0.0
 40
64.0
  1
 
 41
0.9
100
AcDbText
  0
TEXT
  5
957
330
274E
100
AcDbEntity
  8
OUTLINE
  6
Continuous
 62
     3
100
AcDbText
 10
1341.41903
 20
-706.0588199999997
 30
0.0
 40
64.0
  1
 
 41
0.9
100
AcDbText
  0
TEXT
  5
958
330
274E
100
AcDbEntity
  8
OUTLINE
  6
Continuous
 62
     3
100
AcDbText
 10
1341.41903
 20
-706.0588199999997
 30
0.0
 40
64.0
  1
 
 41
0.9
100
AcDbText
  0
TEXT
  5
261C
330
274E
100
AcDbEntity
  8
ETC
100
AcDbText
 10
783.2280639244559
 20
284.05956512757
 30
0.0
 40
64.0
  1
システム部材
 41
0.9
100
AcDbText
  0
TEXT
  5
261D
330
274E
100
AcDbEntity
  8
ETC
100
AcDbText
 10
780.361498198813
 20
385.8903248830906
 30
0.0
 40
64.0
  1
QWH-70SA_1
 41
0.9
100
AcDbText
  0
CIRCLE
  5
261E
330
274E
100
AcDbEntity
  8
ARRANGE
100
AcDbCircle
 10
0.0000000001778062
 20
-0.0000000001890754
 30
0.0
 40
40.0
  0
LINE
  5
261F
330
274E
100
AcDbEntity
  8
ARRANGE
100
AcDbLine
 10
-16.88733230551634
 20
-17.88733230624406
 30
0.0
 11
16.88733230622119
 21
17.88733230549529
 31
0.0
  0
LINE
  5
2620
330
274E
100
AcDbEntity
  8
ARRANGE
100
AcDbLine
 10
16.88733230622846
 20
-17.88733230624952
 30
0.0
 11
-16.88733230551634
 21
17.88733230549529
 31
0.0
  0
LINE
  5
2621
330
274E
100
AcDbEntity
  8
BASIC
100
AcDbLine
 10
-0.0000000000040927
 20
24.99999999981092
 30
0.0
 11
0.0000000001778062
 21
-1076.99997280535
 31
0.0
  0
LINE
  5
2622
330
274E
100
AcDbEntity
  8
DETAIL
100
AcDbLine
 10
-424.999999999822
 20
-0.4000000001903034
 30
0.0
 11
-424.999999999822
 21
-8.000000000188848
 31
0.0
  0
LINE
  5
2623
330
274E
100
AcDbEntity
  8
DETAIL
100
AcDbLine
 10
425.0000000001705
 20
-0.4000000001903034
 30
0.0
 11
425.0000000001705
 21
-8.000000000188848
 31
0.0
  0
LINE
  5
2624
330
274E
100
AcDbEntity
  8
DETAIL
100
AcDbLine
 10
387.0000000001783
 20
-331.0000000001898
 30
0.0
 11
387.0000000001783
 21
-1030.00000000019
 31
0.0
  0
LINE
  5
2625
330
274E
100
AcDbEntity
  8
DETAIL
100
AcDbLine
 10
-386.9999999998221
 20
-1030.00000000019
 30
0.0
 11
-386.9999999998221
 21
-331.0000000001898
 31
0.0
  0
LINE
  5
2626
330
274E
100
AcDbEntity
  8
DETAIL
100
AcDbLine
 10
-424.999999999822
 20
-8.000000000188848
 30
0.0
 11
425.0000000001705
 21
-8.000000000188848
 31
0.0
  0
LINE
  5
2627
330
274E
100
AcDbEntity
  8
DETAIL
100
AcDbLine
 10
387.0000000001783
 20
-331.0000000001898
 30
0.0
 11
387.0000000001783
 21
-8.000000000188848
 31
0.0
  0
LINE
  5
2628
330
274E
100
AcDbEntity
  8
DETAIL
100
AcDbLine
 10
-386.9999999998185
 20
-8.000000000188848
 30
0.0
 11
-386.9999999998221
 21
-331.0000000001898
 31
0.0
  0
LINE
  5
2629
330
274E
100
AcDbEntity
  8
DETAIL
100
AcDbLine
 10
-386.9999999998221
 20
-1030.00000000019
 30
0.0
 11
387.0000000001783
 21
-1030.00000000019
 31
0.0
  0
LINE
  5
262A
330
274E
100
AcDbEntity
  8
DETAIL
100
AcDbLine
 10
385.0000000001783
 20
-0.0000000001890754
 30
0.0
 11
-384.9999999998221
 21
-0.0000000001890754
 31
0.0
  0
LINE
  5
262B
330
274E
100
AcDbEntity
  8
DETAIL
100
AcDbLine
 10
-384.9999999998221
 20
-0.0000000001890754
 30
0.0
 11
-424.999999999822
 21
-0.0000000001890754
 31
0.0
  0
LINE
  5
262C
330
274E
100
AcDbEntity
  8
DETAIL
100
AcDbLine
 10
-424.999999999822
 20
-0.0000000001890754
 30
0.0
 11
-424.999999999822
 21
-0.4000000001893939
 31
0.0
  0
LINE
  5
262D
330
274E
100
AcDbEntity
  8
DETAIL
100
AcDbLine
 10
425.0000000001781
 20
-0.0000000001890754
 30
0.0
 11
385.0000000001783
 21
-0.0000000001890754
 31
0.0
  0
LINE
  5
262E
330
274E
100
AcDbEntity
  8
DETAIL
100
AcDbLine
 10
425.0000000001781
 20
-0.4000000001903034
 30
0.0
 11
425.0000000001781
 21
-0.0000000001899849
 31
0.0
  0
LINE
  5
262F
330
274E
100
AcDbEntity
  8
DETAIL
100
AcDbLine
 10
-386.9999999998221
 20
-1028.621818561529
 30
0.0
 11
-398.4999999998221
 21
-1028.621818561529
 31
0.0
  0
LINE
  5
2630
330
274E
100
AcDbEntity
  8
DETAIL
100
AcDbLine
 10
379.5000000001778
 20
-1051.999972805351
 30
0.0
 11
384.5000000001783
 21
-1049.883730150016
 31
0.0
  0
LINE
  5
2631
330
274E
100
AcDbEntity
  8
DETAIL
100
AcDbLine
 10
384.5000000001783
 20
-1049.883730150016
 30
0.0
 11
384.5000000001783
 21
-1048.95571687445
 31
0.0
  0
LINE
  5
2632
330
274E
100
AcDbEntity
  8
DETAIL
100
AcDbLine
 10
379.5000000001778
 20
-1051.999972805351
 30
0.0
 11
-379.4999999998221
 21
-1051.999972805351
 31
0.0
  0
LINE
  5
2633
330
274E
100
AcDbEntity
  8
DETAIL
100
AcDbLine
 10
384.5000000001783
 20
-1044.99997280535
 30
0.0
 11
-384.4999999998222
 21
-1044.99997280535
 31
0.0
  0
LINE
  5
2634
330
274E
100
AcDbEntity
  8
DETAIL
100
AcDbLine
 10
-384.4999999998222
 20
-1044.99997280535
 30
0.0
 11
-384.4999999998222
 21
-1048.95571687445
 31
0.0
  0
LINE
  5
2635
330
274E
100
AcDbEntity
  8
DETAIL
100
AcDbLine
 10
-384.4999999998222
 20
-1049.883730150016
 30
0.0
 11
-379.4999999998221
 21
-1051.999972805351
 31
0.0
  0
LINE
  5
2636
330
274E
100
AcDbEntity
  8
DETAIL
100
AcDbLine
 10
-384.4999999998222
 20
-1048.95571687445
 30
0.0
 11
-384.4999999998222
 21
-1049.883730150016
 31
0.0
  0
LINE
  5
2637
330
274E
100
AcDbEntity
  8
DETAIL
100
AcDbLine
 10
-384.4999999998222
 20
-1030.00000000019
 30
0.0
 11
-384.4999999998222
 21
-1044.99997280535
 31
0.0
  0
LINE
  5
2638
330
274E
100
AcDbEntity
  8
DETAIL
100
AcDbLine
 10
387.0000000001783
 20
-1028.621818576318
 30
0.0
 11
398.5000000001851
 21
-1028.621818576318
 31
0.0
  0
LINE
  5
2639
330
274E
100
AcDbEntity
  8
DETAIL
100
AcDbLine
 10
398.5000000001851
 20
-1028.621818576318
 30
0.0
 11
398.5000000001888
 21
-1025.238972691268
 31
0.0
  0
LINE
  5
263A
330
274E
100
AcDbEntity
  8
DETAIL
100
AcDbLine
 10
398.5000000001888
 20
-1025.238972691268
 30
0.0
 11
398.5000000001888
 21
-166.1959600685154
 31
0.0
  0
LINE
  5
263B
330
274E
100
AcDbEntity
  8
DETAIL
100
AcDbLine
 10
398.5000000001888
 20
-164.3680706293577
 30
0.0
 11
398.5000000001888
 21
-166.1959600685154
 31
0.0
  0
LINE
  5
263C
330
274E
100
AcDbEntity
  8
DETAIL
100
AcDbLine
 10
387.0000000001783
 20
-164.3680706293577
 30
0.0
 11
398.5000000001783
 21
-164.3680706293577
 31
0.0
  0
LINE
  5
263D
330
274E
100
AcDbEntity
  8
DETAIL
100
AcDbLine
 10
-386.9999999998221
 20
-164.3680706293586
 30
0.0
 11
-398.4999999998149
 21
-164.3680706293586
 31
0.0
  0
LINE
  5
263E
330
274E
100
AcDbEntity
  8
DETAIL
100
AcDbLine
 10
-398.4999999998221
 20
-1025.238972691269
 30
0.0
 11
-398.4999999998221
 21
-1028.621818561529
 31
0.0
  0
LINE
  5
263F
330
274E
100
AcDbEntity
  8
DETAIL
100
AcDbLine
 10
-398.4999999998221
 20
-166.1959600685164
 30
0.0
 11
-398.4999999998221
 21
-1025.238972691269
 31
0.0
  0
LINE
  5
2640
330
274E
100
AcDbEntity
  8
DETAIL
100
AcDbLine
 10
-398.4999999998221
 20
-164.3680706293586
 30
0.0
 11
-398.4999999998221
 21
-166.1959600685164
 31
0.0
  0
LINE
  5
2641
330
274E
100
AcDbEntity
  8
NOTE
100
AcDbLine
 10
200.0000000001778
 20
-12.50000000018885
 30
0.0
 11
200.0000000001778
 21
12.49999999981115
 31
0.0
  0
LINE
  5
2642
330
274E
100
AcDbEntity
  8
NOTE
100
AcDbLine
 10
-199.9999999998221
 20
-12.50000000018885
 30
0.0
 11
-199.9999999998221
 21
12.49999999981115
 31
0.0
  0
LINE
  5
2643
330
274E
100
AcDbEntity
  8
NOTE
100
AcDbLine
 10
400.0000000001781
 20
-12.50000000018885
 30
0.0
 11
400.0000000001781
 21
12.49999999981115
 31
0.0
  0
LINE
  5
2644
330
274E
100
AcDbEntity
  8
NOTE
100
AcDbLine
 10
-399.9999999998221
 20
-12.50000000018885
 30
0.0
 11
-399.9999999998221
 21
12.49999999981115
 31
0.0
  0
TEXT
  5
2645
330
274E
100
AcDbEntity
  8
ETC
100
AcDbText
 10
780.361498198813
 20
185.8903248830903
 30
0.0
 40
64.0
  1
QWH-70SA
 41
0.9
100
AcDbText
  0
INSERT
  5
2646
330
274E
100
AcDbEntity
  8
0
100
AcDbBlockReference
  2
*U21
 10
0.0
 20
-0.0000000007477325
 30
0.0
1001
ACAD
1000
DSTYLE
1002
{
1070
    41
1040
12.0
1070
    42
1040
20.0
1070
    43
1040
200.0
1070
    44
1040
20.0
1070
    73
1070
     0
1070
    74
1070
     0
1070
    77
1070
     1
1070
    78
1070
     8
1070
   140
1040
64.0
1070
   147
1040
50.0
1070
   172
1070
     1
1070
   174
1070
     1
1070
   275
1070
     0
1070
   284
1070
     0
1070
   285
1070
     0
1070
   286
1070
     0
1070
   341
1005
0
1070
   342
1005
0
1002
}
  0
LINE
  5
2647
330
274E
100
AcDbEntity
  8
NOTE
100
AcDbLine
 39
50.0
 10
-412.499999999822
 20
-0.0000000001890754
 30
0.0
 11
-387.4999999998221
 21
-0.0000000001890754
 31
0.0
  0
LINE
  5
2648
330
274E
100
AcDbEntity
  8
NOTE
100
AcDbLine
 39
50.0
 10
-212.4999999998222
 20
-0.0000000001890754
 30
0.0
 11
-187.4999999998221
 21
-0.0000000001890754
 31
0.0
  0
LINE
  5
2649
330
274E
100
AcDbEntity
  8
NOTE
100
AcDbLine
 39
50.0
 10
187.5000000001778
 20
-0.0000000001890754
 30
0.0
 11
212.5000000001778
 21
-0.0000000001890754
 31
0.0
  0
LINE
  5
264A
330
274E
100
AcDbEntity
  8
NOTE
100
AcDbLine
 39
50.0
 10
387.5000000001783
 20
-0.0000000001890754
 30
0.0
 11
412.5000000001781
 21
-0.0000000001890754
 31
0.0
  0
LINE
  5
264B
330
274E
100
AcDbEntity
  8
OUTLINE
100
AcDbLine
 10
385.0000000001783
 20
-0.0000000001899849
 30
0.0
 11
-384.9999999998221
 21
-0.0000000001899849
 31
0.0
  0
LINE
  5
264C
330
274E
100
AcDbEntity
  8
OUTLINE
100
AcDbLine
 10
-384.9999999998221
 20
-0.0000000001899849
 30
0.0
 11
-424.999999999822
 21
-0.0000000001899849
 31
0.0
  0
LINE
  5
264D
330
274E
100
AcDbEntity
  8
OUTLINE
100
AcDbLine
 10
425.0000000001781
 20
-0.0000000001899849
 30
0.0
 11
385.0000000001783
 21
-0.0000000001899849
 31
0.0
  0
LINE
  5
264E
330
274E
100
AcDbEntity
  8
OUTLINE
100
AcDbLine
 10
-424.999999999822
 20
-0.4000000001903034
 30
0.0
 11
-424.999999999822
 21
-8.000000000188848
 31
0.0
  0
LINE
  5
264F
330
274E
100
AcDbEntity
  8
OUTLINE
100
AcDbLine
 10
425.0000000001705
 20
-0.4000000001903034
 30
0.0
 11
425.0000000001705
 21
-8.000000000188848
 31
0.0
  0
LINE
  5
2650
330
274E
100
AcDbEntity
  8
OUTLINE
100
AcDbLine
 10
387.0000000001783
 20
-331.0000000001898
 30
0.0
 11
387.0000000001783
 21
-1030.00000000019
 31
0.0
  0
LINE
  5
2651
330
274E
100
AcDbEntity
  8
OUTLINE
100
AcDbLine
 10
-386.9999999998221
 20
-1030.00000000019
 30
0.0
 11
-386.9999999998221
 21
-331.0000000001898
 31
0.0
  0
LINE
  5
2652
330
274E
100
AcDbEntity
  8
OUTLINE
100
AcDbLine
 10
-424.999999999822
 20
-8.000000000188848
 30
0.0
 11
425.0000000001705
 21
-8.000000000188848
 31
0.0
  0
LINE
  5
2653
330
274E
100
AcDbEntity
  8
OUTLINE
100
AcDbLine
 10
387.0000000001783
 20
-331.0000000001898
 30
0.0
 11
387.0000000001783
 21
-8.000000000188848
 31
0.0
  0
LINE
  5
2654
330
274E
100
AcDbEntity
  8
OUTLINE
100
AcDbLine
 10
-386.9999999998185
 20
-8.000000000188848
 30
0.0
 11
-386.9999999998221
 21
-331.0000000001898
 31
0.0
  0
LINE
  5
2655
330
274E
100
AcDbEntity
  8
OUTLINE
100
AcDbLine
 10
-386.9999999998221
 20
-1030.00000000019
 30
0.0
 11
387.0000000001783
 21
-1030.00000000019
 31
0.0
  0
LINE
  5
2656
330
274E
100
AcDbEntity
  8
OUTLINE
100
AcDbLine
 10
-424.999999999822
 20
-0.0000000001890754
 30
0.0
 11
-424.999999999822
 21
-0.4000000001893939
 31
0.0
  0
LINE
  5
2657
330
274E
100
AcDbEntity
  8
OUTLINE
100
AcDbLine
 10
425.0000000001781
 20
-0.4000000001903034
 30
0.0
 11
425.0000000001781
 21
-0.0000000001899849
 31
0.0
  0
LINE
  5
2658
330
274E
100
AcDbEntity
  8
OUTLINE
100
AcDbLine
 10
-386.9999999998221
 20
-1028.621818561529
 30
0.0
 11
-398.4999999998221
 21
-1028.621818561529
 31
0.0
  0
LINE
  5
2659
330
274E
100
AcDbEntity
  8
OUTLINE
100
AcDbLine
 10
379.5000000001778
 20
-1051.999972805351
 30
0.0
 11
384.5000000001783
 21
-1049.883730150016
 31
0.0
  0
LINE
  5
265A
330
274E
100
AcDbEntity
  8
OUTLINE
100
AcDbLine
 10
384.5000000001783
 20
-1049.883730150016
 30
0.0
 11
384.5000000001783
 21
-1048.95571687445
 31
0.0
  0
LINE
  5
265B
330
274E
100
AcDbEntity
  8
OUTLINE
100
AcDbLine
 10
379.5000000001778
 20
-1051.999972805351
 30
0.0
 11
-379.4999999998221
 21
-1051.999972805351
 31
0.0
  0
LINE
  5
265C
330
274E
100
AcDbEntity
  8
OUTLINE
100
AcDbLine
 10
384.5000000001783
 20
-1044.99997280535
 30
0.0
 11
-384.4999999998222
 21
-1044.99997280535
 31
0.0
  0
LINE
  5
265D
330
274E
100
AcDbEntity
  8
OUTLINE
100
AcDbLine
 10
-384.4999999998222
 20
-1049.883730150016
 30
0.0
 11
-379.4999999998221
 21
-1051.999972805351
 31
0.0
  0
LINE
  5
265E
330
274E
100
AcDbEntity
  8
OUTLINE
100
AcDbLine
 10
-384.4999999998222
 20
-1048.95571687445
 30
0.0
 11
-384.4999999998222
 21
-1049.883730150016
 31
0.0
  0
LINE
  5
265F
330
274E
100
AcDbEntity
  8
DETAIL
100
AcDbLine
 10
384.5000000001783
 20
-1030.00000000019
 30
0.0
 11
384.5000000001783
 21
-1044.99997280535
 31
0.0
  0
LINE
  5
2660
330
274E
100
AcDbEntity
  8
OUTLINE
100
AcDbLine
 10
387.0000000001783
 20
-1028.621818576318
 30
0.0
 11
398.5000000001851
 21
-1028.621818576318
 31
0.0
  0
LINE
  5
2661
330
274E
100
AcDbEntity
  8
OUTLINE
100
AcDbLine
 10
398.5000000001851
 20
-1028.621818576318
 30
0.0
 11
398.5000000001888
 21
-1025.238972691268
 31
0.0
  0
LINE
  5
2662
330
274E
100
AcDbEntity
  8
OUTLINE
100
AcDbLine
 10
398.5000000001888
 20
-1025.238972691268
 30
0.0
 11
398.5000000001888
 21
-166.1959600685154
 31
0.0
  0
LINE
  5
2663
330
274E
100
AcDbEntity
  8
OUTLINE
100
AcDbLine
 10
398.5000000001888
 20
-164.3680706293577
 30
0.0
 11
398.5000000001888
 21
-166.1959600685154
 31
0.0
  0
LINE
  5
2664
330
274E
100
AcDbEntity
  8
OUTLINE
100
AcDbLine
 10
387.0000000001783
 20
-164.3680706293577
 30
0.0
 11
398.5000000001783
 21
-164.3680706293577
 31
0.0
  0
LINE
  5
2665
330
274E
100
AcDbEntity
  8
OUTLINE
100
AcDbLine
 10
-386.9999999998221
 20
-164.3680706293586
 30
0.0
 11
-398.4999999998149
 21
-164.3680706293586
 31
0.0
  0
LINE
  5
2666
330
274E
100
AcDbEntity
  8
OUTLINE
100
AcDbLine
 10
-398.4999999998221
 20
-1025.238972691269
 30
0.0
 11
-398.4999999998221
 21
-1028.621818561529
 31
0.0
  0
LINE
  5
2667
330
274E
100
AcDbEntity
  8
OUTLINE
100
AcDbLine
 10
-398.4999999998221
 20
-166.1959600685164
 30
0.0
 11
-398.4999999998221
 21
-1025.238972691269
 31
0.0
  0
LINE
  5
2668
330
274E
100
AcDbEntity
  8
OUTLINE
100
AcDbLine
 10
-398.4999999998221
 20
-164.3680706293586
 30
0.0
 11
-398.4999999998221
 21
-166.1959600685164
 31
0.0
  0
LINE
  5
2669
330
274E
100
AcDbEntity
  8
OUTLINE
100
AcDbLine
 10
384.5000000001783
 20
-1030.00000000019
 30
0.0
 11
384.5000000001783
 21
-1044.99997280535
 31
0.0
  0
LINE
  5
266A
330
274E
100
AcDbEntity
  8
OUTLINE
100
AcDbLine
 10
-384.4999999998222
 20
-1030.00000000019
 30
0.0
 11
-384.4999999998222
 21
-1044.99997280535
 31
0.0
  0
LINE
  5
266B
330
274E
100
AcDbEntity
  8
DETAIL
100
AcDbLine
 39
50.0
 10
384.5000000001783
 20
-1048.95571687445
 30
0.0
 11
384.5000000001783
 21
-1044.99997280535
 31
0.0
  0
LINE
  5
266C
330
274E
100
AcDbEntity
  8
OUTLINE
100
AcDbLine
 39
50.0
 10
384.5000000001783
 20
-1048.95571687445
 30
0.0
 11
384.5000000001783
 21
-1044.99997280535
 31
0.0
  0
LINE
  5
266D
330
274E
100
AcDbEntity
  8
OUTLINE
100
AcDbLine
 10
-384.4999999998222
 20
-1044.99997280535
 30
0.0
 11
-384.4999999998222
 21
-1048.95571687445
 31
0.0
  0
LINE
  5
266E
330
274E
100
AcDbEntity
  8
SIZE
100
AcDbLine
 10
407.0000000001777
 20
-1030.00000000019
 30
0.0
 11
668.1127558142462
 21
-1030.00000000019
 31
0.0
  0
LINE
  5
266F
330
274E
100
AcDbEntity
  8
SIZE
100
AcDbLine
 10
399.5000000001783
 20
-1051.999972805351
 30
0.0
 11
668.1127558142462
 21
-1051.999972805351
 31
0.0
  0
LINE
  5
2670
330
274E
100
AcDbEntity
  8
SIZE
100
AcDbLine
 10
648.1127558142461
 20
-1018.000000000188
 30
0.0
 11
648.1127558142461
 21
-1006.00000000019
 31
0.0
  0
LINE
  5
2671
330
274E
100
AcDbEntity
  8
SIZE
100
AcDbLine
 10
648.1127558142461
 20
-1063.999972805351
 30
0.0
 11
648.1127558142461
 21
-1189.257115662493
 31
0.0
  0
LINE
  5
2672
330
274E
100
AcDbEntity
  8
SIZE
100
AcDbLine
 10
648.1127558142461
 20
-1030.00000000019
 30
0.0
 11
648.1127558142461
 21
-1051.999972805351
 31
0.0
  0
INSERT
  5
2673
330
274E
100
AcDbEntity
  8
SIZE
100
AcDbBlockReference
  2
_DOTBLANK
 10
648.1127558142461
 20
-1030.00000000019
 30
0.0
 41
12.0
 42
12.0
 43
12.0
 50
270.0
  0
INSERT
  5
2674
330
274E
100
AcDbEntity
  8
SIZE
100
AcDbBlockReference
  2
_DOTBLANK
 10
648.1127558142461
 20
-1051.999972805351
 30
0.0
 41
12.0
 42
12.0
 43
12.0
 50
90.0
  0
LINE
  5
2675
330
274E
100
AcDbEntity
  8
SIZE
100
AcDbLine
 10
445.0000000001777
 20
-0.0000000001890754
 30
0.0
 11
668.1127558142462
 21
-0.0000000001890754
 31
0.0
  0
LINE
  5
2676
330
274E
100
AcDbEntity
  8
SIZE
100
AcDbLine
 10
407.0000000001777
 20
-1030.00000000019
 30
0.0
 11
668.1127558142462
 21
-1030.00000000019
 31
0.0
  0
LINE
  5
2677
330
274E
100
AcDbEntity
  8
SIZE
100
AcDbLine
 10
648.1127558142461
 20
-12.00000000018907
 30
0.0
 11
648.1127558142461
 21
-1018.000000000188
 31
0.0
  0
INSERT
  5
2678
330
274E
100
AcDbEntity
  8
SIZE
100
AcDbBlockReference
  2
_DOTBLANK
 10
648.1127558142461
 20
-0.0000000001890754
 30
0.0
 41
12.0
 42
12.0
 43
12.0
 50
90.0
  0
INSERT
  5
2679
330
274E
100
AcDbEntity
  8
SIZE
100
AcDbBlockReference
  2
_DOTBLANK
 10
648.1127558142461
 20
-1030.00000000019
 30
0.0
 41
12.0
 42
12.0
 43
12.0
 50
270.0
  0
LINE
  5
267A
330
274E
100
AcDbEntity
  8
SIZE
100
AcDbLine
 10
-398.4999999998221
 20
-1048.621818576318
 30
0.0
 11
-398.4999999998221
 21
-1273.977627091068
 31
0.0
  0
LINE
  5
267B
330
274E
100
AcDbEntity
  8
SIZE
100
AcDbLine
 10
398.5000000001888
 20
-1048.621818576318
 30
0.0
 11
398.5000000001888
 21
-1273.977627091068
 31
0.0
  0
LINE
  5
267C
330
274E
100
AcDbEntity
  8
SIZE
100
AcDbLine
 10
-386.4999999998222
 20
-1253.977627091068
 30
0.0
 11
386.5000000001888
 21
-1253.977627091068
 31
0.0
  0
INSERT
  5
267D
330
274E
100
AcDbEntity
  8
SIZE
100
AcDbBlockReference
  2
_DOTBLANK
 10
-398.4999999998221
 20
-1253.977627091068
 30
0.0
 41
12.0
 42
12.0
 43
12.0
 50
180.0
  0
INSERT
  5
267E
330
274E
100
AcDbEntity
  8
SIZE
100
AcDbBlockReference
  2
_DOTBLANK
 10
398.5000000001888
 20
-1253.977627091068
 30
0.0
 41
12.0
 42
12.0
 43
12.0
  0
LINE
  5
267F
330
274E
100
AcDbEntity
  8
SIZE
100
AcDbLine
 10
-424.999999999822
 20
19.99999999981092
 30
0.0
 11
-424.999999999822
 21
316.4868308750578
 31
0.0
  0
LINE
  5
2680
330
274E
100
AcDbEntity
  8
SIZE
100
AcDbLine
 10
425.0000000001781
 20
19.99999999981092
 30
0.0
 11
425.0000000001781
 21
316.4868308750578
 31
0.0
  0
LINE
  5
2681
330
274E
100
AcDbEntity
  8
SIZE
100
AcDbLine
 10
-412.999999999822
 20
296.4868308750578
 30
0.0
 11
413.0000000001777
 21
296.4868308750578
 31
0.0
  0
INSERT
  5
2682
330
274E
100
AcDbEntity
  8
SIZE
100
AcDbBlockReference
  2
_DOTBLANK
 10
-424.999999999822
 20
296.4868308750578
 30
0.0
 41
12.0
 42
12.0
 43
12.0
 50
180.0
  0
INSERT
  5
2683
330
274E
100
AcDbEntity
  8
SIZE
100
AcDbBlockReference
  2
_DOTBLANK
 10
425.0000000001781
 20
296.4868308750578
 30
0.0
 41
12.0
 42
12.0
 43
12.0
  0
LINE
  5
2684
330
274E
100
AcDbEntity
  8
SIZE
100
AcDbLine
 10
-399.9999999998221
 20
32.49999999981115
 30
0.0
 11
-399.9999999998221
 21
211.0864784527215
 31
0.0
  0
LINE
  5
2685
330
274E
100
AcDbEntity
  8
SIZE
100
AcDbLine
 10
400.0000000001781
 20
32.49999999981115
 30
0.0
 11
400.0000000001781
 21
211.0864784527215
 31
0.0
  0
LINE
  5
2686
330
274E
100
AcDbEntity
  8
SIZE
100
AcDbLine
 10
-387.9999999998221
 20
191.0864784527215
 30
0.0
 11
388.0000000001783
 21
191.0864784527215
 31
0.0
  0
INSERT
  5
2687
330
274E
100
AcDbEntity
  8
SIZE
100
AcDbBlockReference
  2
_DOTBLANK
 10
-399.9999999998221
 20
191.0864784527215
 30
0.0
 41
12.0
 42
12.0
 43
12.0
 50
180.0
  0
INSERT
  5
2688
330
274E
100
AcDbEntity
  8
SIZE
100
AcDbBlockReference
  2
_DOTBLANK
 10
400.0000000001781
 20
191.0864784527215
 30
0.0
 41
12.0
 42
12.0
 43
12.0
  0
LINE
  5
2689
330
274E
100
AcDbEntity
  8
SIZE
100
AcDbLine
 10
-199.9999999998221
 20
32.49999999981115
 30
0.0
 11
-199.9999999998221
 21
105.9900601718755
 31
0.0
  0
LINE
  5
268A
330
274E
100
AcDbEntity
  8
SIZE
100
AcDbLine
 10
200.0000000001778
 20
32.49999999981115
 30
0.0
 11
200.0000000001778
 21
105.9900601718755
 31
0.0
  0
LINE
  5
268B
330
274E
100
AcDbEntity
  8
SIZE
100
AcDbLine
 10
-187.9999999998221
 20
85.99006017187582
 30
0.0
 11
188.0000000001778
 21
85.99006017187582
 31
0.0
  0
INSERT
  5
268C
330
274E
100
AcDbEntity
  8
SIZE
100
AcDbBlockReference
  2
_DOTBLANK
 10
-199.9999999998221
 20
85.99006017187582
 30
0.0
 41
12.0
 42
12.0
 43
12.0
 50
180.0
  0
INSERT
  5
268D
330
274E
100
AcDbEntity
  8
SIZE
100
AcDbBlockReference
  2
_DOTBLANK
 10
200.0000000001778
 20
85.99006017187582
 30
0.0
 41
12.0
 42
12.0
 43
12.0
  0
LINE
  5
268E
330
274E
100
AcDbEntity
  8
SIZE
100
AcDbLine
 10
-444.9999999998221
 20
-0.0000000001897575
 30
0.0
 11
-510.2714459812601
 21
-0.0000000001897575
 31
0.0
  0
LINE
  5
268F
330
274E
100
AcDbEntity
  8
SIZE
100
AcDbLine
 10
-444.9999999998221
 20
-8.000000000188848
 30
0.0
 11
-510.2714459812601
 21
-8.000000000188848
 31
0.0
  0
LINE
  5
2690
330
274E
100
AcDbEntity
  8
SIZE
100
AcDbLine
 10
-490.27144598126
 20
11.99999999981024
 30
0.0
 11
-490.27144598126
 21
23.99999999981024
 31
0.0
  0
LINE
  5
2691
330
274E
100
AcDbEntity
  8
SIZE
100
AcDbLine
 10
-490.27144598126
 20
-20.00000000018885
 30
0.0
 11
-490.27144598126
 21
-90.40000000018894
 31
0.0
  0
LINE
  5
2692
330
274E
100
AcDbEntity
  8
SIZE
100
AcDbLine
 10
-490.27144598126
 20
-0.0000000001897575
 30
0.0
 11
-490.27144598126
 21
-8.000000000188848
 31
0.0
  0
INSERT
  5
2693
330
274E
100
AcDbEntity
  8
SIZE
100
AcDbBlockReference
  2
_DOTBLANK
 10
-490.27144598126
 20
-0.0000000001897575
 30
0.0
 41
12.0
 42
12.0
 43
12.0
 50
270.0
  0
INSERT
  5
2694
330
274E
100
AcDbEntity
  8
SIZE
100
AcDbBlockReference
  2
_DOTBLANK
 10
-490.27144598126
 20
-8.000000000188848
 30
0.0
 41
12.0
 42
12.0
 43
12.0
 50
90.0
  0
TEXT
  5
2695
330
274E
100
AcDbEntity
  8
SIZE
100
AcDbText
 10
-500.27144598126
 20
-80.40000000018894
 30
0.0
 40
64.0
  1
8
 50
90.0
 41
0.9
100
AcDbText
  0
TEXT
  5
2696
330
274E
100
AcDbEntity
  8
SIZE
100
AcDbText
 10
-74.05714285696515
 20
95.99006017187557
 30
0.0
 40
64.0
  1
400
 41
0.9
100
AcDbText
  0
TEXT
  5
2697
330
274E
100
AcDbEntity
  8
SIZE
100
AcDbText
 10
-74.05714285696515
 20
201.0864784527215
 30
0.0
 40
64.0
  1
800
 41
0.9
100
AcDbText
  0
TEXT
  5
2698
330
274E
100
AcDbEntity
  8
SIZE
100
AcDbText
 10
-74.05714285696515
 20
306.4868308750578
 30
0.0
 40
64.0
  1
850
 41
0.9
100
AcDbText
  0
TEXT
  5
2699
330
274E
100
AcDbEntity
  8
SIZE
100
AcDbText
 10
638.1127558142461
 20
-611.0000000001897
 30
0.0
 40
64.0
  1
1030
 50
90.0
 41
0.9
100
AcDbText
  0
TEXT
  5
269A
330
274E
100
AcDbEntity
  8
SIZE
100
AcDbText
 10
-74.05714285696149
 20
-1243.977627091068
 30
0.0
 40
64.0
  1
797
 41
0.9
100
AcDbText
  0
TEXT
  5
269B
330
274E
100
AcDbEntity
  8
SIZE
100
AcDbText
 10
638.1127558142472
 20
-1179.257115662493
 30
0.0
 40
64.0
  1
22
 50
90.0
 41
0.9
100
AcDbText
  0
TEXT
  5
269C
330
274E
100
AcDbEntity
  8
NOTE
100
AcDbText
 10
-1077.595114277791
 20
113.5270950578243
 30
0.0
 40
64.0
  1
10×φ15取付穴
 41
0.9
100
AcDbText
  0
ENDSEC
  0
SECTION
  2
OBJECTS
  0
DICTIONARY
  5
26E6
330
0
100
AcDbDictionary
281
     1
  3
ACAD_2007HEADERVARS_RT
350
28DA
  3
ACAD_COLOR
350
2744
  3
ACAD_GROUP
350
26E7
  3
ACAD_LAYOUT
350
2743
  3
ACAD_MATERIAL
350
26EA
  3
ACAD_MLEADERSTYLE
350
2747
  3
ACAD_MLINESTYLE
350
2740
  3
ACAD_PLOTSETTINGS
350
2742
  3
ACAD_PLOTSTYLENAME
350
26E8
  3
ACAD_SCALELIST
350
2714
  3
ACAD_TABLESTYLE
350
2745
  3
ACAD_VISUALSTYLE
350
2703
  3
ACDB_RECOMPOSE_DATA
350
28D8
  3
AcDbVariableDictionary
350
28CF
  3
AcmDictionary
350
2878
  3
AMG
350
27C5
  3
AMGSNAPSETTINGS
350
28A0
  3
DWGPROPS
350
28D9
  3
MAPISURF_MODULE
350
2845
  0
DICTIONARY
  5
28A7
330
2736
100
AcDbDictionary
280
     1
281
     1
  3
ADSK_XREC_LAYER_RECONCILED
360
28A8
  0
DICTIONARY
  5
28A9
330
2766
100
AcDbDictionary
280
     1
281
     1
  3
ADSK_XREC_LAYER_RECONCILED
360
28AA
  0
DICTIONARY
  5
28AB
330
2767
100
AcDbDictionary
280
     1
281
     1
  3
ADSK_XREC_LAYER_RECONCILED
360
28AC
  0
DICTIONARY
  5
28AD
330
2768
100
AcDbDictionary
280
     1
281
     1
  3
ADSK_XREC_LAYER_RECONCILED
360
28AE
  0
DICTIONARY
  5
28AF
330
2769
100
AcDbDictionary
280
     1
281
     1
  3
ADSK_XREC_LAYER_RECONCILED
360
28B0
  0
DICTIONARY
  5
28B1
330
276A
100
AcDbDictionary
280
     1
281
     1
  3
ADSK_XREC_LAYER_RECONCILED
360
28B2
  0
DICTIONARY
  5
28B3
330
276C
100
AcDbDictionary
280
     1
281
     1
  3
ADSK_XREC_LAYER_RECONCILED
360
28B4
  0
DICTIONARY
  5
28B5
330
276D
100
AcDbDictionary
280
     1
281
     1
  3
ADSK_XREC_LAYER_RECONCILED
360
28B6
  0
DICTIONARY
  5
28B7
330
276E
100
AcDbDictionary
280
     1
281
     1
  3
ADSK_XREC_LAYER_RECONCILED
360
28B8
  0
DICTIONARY
  5
28B9
330
276F
100
AcDbDictionary
280
     1
281
     1
  3
ADSK_XREC_LAYER_RECONCILED
360
28BA
  0
DICTIONARY
  5
28BB
330
2770
100
AcDbDictionary
280
     1
281
     1
  3
ADSK_XREC_LAYER_RECONCILED
360
28BC
  0
DICTIONARY
  5
28BD
330
2771
100
AcDbDictionary
280
     1
281
     1
  3
ADSK_XREC_LAYER_RECONCILED
360
28BE
  0
DICTIONARY
  5
28BF
330
274E
100
AcDbDictionary
280
     1
281
     1
  3
ACAD_INDEX
360
28C0
  0
DICTIONARY
  5
28DA
102
{ACAD_REACTORS
330
26E6
102
}
330
26E6
100
AcDbDictionary
281
     1
  3
DIMARCSYM
350
28DB
  3
DIMLTEX1
350
28DD
  3
DIMLTEX2
350
28DE
  3
DIMLTYPE
350
28DC
  0
DICTIONARY
  5
2744
102
{ACAD_REACTORS
330
26E6
102
}
330
26E6
100
AcDbDictionary
281
     1
  0
DICTIONARY
  5
26E7
102
{ACAD_REACTORS
330
26E6
102
}
330
26E6
100
AcDbDictionary
281
     1
  0
DICTIONARY
  5
2743
102
{ACAD_REACTORS
330
26E6
102
}
330
26E6
100
AcDbDictionary
281
     1
  3
Model
350
2751
  3
レイアウト1
350
274D
  0
DICTIONARY
  5
26EA
102
{ACAD_REACTORS
330
26E6
102
}
330
26E6
100
AcDbDictionary
281
     1
  3
ByBlock
350
26F3
  3
ByLayer
350
26EB
  3
Global
350
26FB
  0
DICTIONARY
  5
2747
102
{ACAD_REACTORS
330
26E6
102
}
330
26E6
100
AcDbDictionary
281
     1
  3
Standard
350
2748
  0
DICTIONARY
  5
2740
102
{ACAD_REACTORS
330
26E6
102
}
330
26E6
100
AcDbDictionary
281
     1
  3
Standard
350
2741
  0
DICTIONARY
  5
2742
102
{ACAD_REACTORS
330
26E6
102
}
330
26E6
100
AcDbDictionary
281
     1
  0
ACDBDICTIONARYWDFLT
  5
26E8
102
{ACAD_REACTORS
330
26E6
102
}
330
26E6
100
AcDbDictionary
281
     1
  3
Normal
350
26E9
100
AcDbDictionaryWithDefault
340
26E9
  0
DICTIONARY
  5
2714
102
{ACAD_REACTORS
330
26E6
102
}
330
26E6
100
AcDbDictionary
281
     1
  3
A0
350
2715
  3
A1
350
2716
  3
A2
350
2717
  3
A3
350
2718
  3
A4
350
2719
  3
A5
350
271A
  3
A6
350
271B
  3
A7
350
271C
  3
A8
350
271D
  3
A9
350
271E
  3
B0
350
271F
  3
B1
350
2720
  3
B2
350
2721
  3
B3
350
2722
  3
B4
350
2723
  3
B5
350
2724
  3
B6
350
2725
  3
B7
350
2726
  3
B8
350
2727
  3
B9
350
2728
  3
C0
350
2729
  3
C1
350
272A
  3
C2
350
272B
  3
C3
350
272C
  3
C4
350
272D
  3
C5
350
272E
  3
C6
350
272F
  3
C7
350
2730
  3
C8
350
2731
  3
C9
350
2732
  3
D0
350
2733
  3
D1
350
2734
  3
D2
350
2735
  0
DICTIONARY
  5
2745
102
{ACAD_REACTORS
330
26E6
102
}
330
26E6
100
AcDbDictionary
281
     1
  3
Standard
350
2746
  0
DICTIONARY
  5
2703
102
{ACAD_REACTORS
330
26E6
102
}
330
26E6
100
AcDbDictionary
281
     1
  3
2dWireframe
350
2709
  3
3D Hidden
350
270B
  3
3dWireframe
350
270A
  3
Basic
350
2708
  3
Brighten
350
270F
  3
ColorChange
350
2713
  3
Conceptual
350
270C
  3
Dim
350
270E
  3
Facepattern
350
2712
  3
Flat
350
2704
  3
FlatWithEdges
350
2705
  3
Gouraud
350
2706
  3
GouraudWithEdges
350
2707
  3
Linepattern
350
2711
  3
Realistic
350
270D
  3
Thicken
350
2710
  0
XRECORD
  5
28D8
102
{ACAD_REACTORS
330
26E6
102
}
330
26E6
100
AcDbXrecord
280
     1
 90
        1
330
2746
  0
DICTIONARY
  5
28CF
102
{ACAD_REACTORS
330
26E6
102
}
330
26E6
100
AcDbDictionary
281
     1
  3
CANNOSCALE
350
28D2
  3
CMLEADERSTYLE
350
28D1
  3
CTABLESTYLE
350
28D0
  3
DIMASSOC
350
28D5
  3
INDEXCTL
350
28D4
  3
SORTENTS
350
28D3
  0
DICTIONARY
  5
2878
102
{ACAD_REACTORS
330
26E6
102
}
330
26E6
100
AcDbDictionary
281
     1
  3
AcmStdDictionary
350
2886
  0
DICTIONARY
  5
27C5
102
{ACAD_REACTORS
330
26E6
102
}
330
26E6
100
AcDbDictionary
281
     1
  3
AcMgSettings
350
27C6
  0
DICTIONARY
  5
28A0
102
{ACAD_REACTORS
330
26E6
102
}
330
26E6
100
AcDbDictionary
281
     1
  3
DIMENSION
350
28A5
  3
FEA
350
28A4
  3
HATCH (1)
350
28A1
  3
HATCH (2)
350
28A2
  3
SIMPLE WELD
350
28A6
  3
SYMBOLS
350
28A3
  0
XRECORD
  5
28D9
102
{ACAD_REACTORS
330
26E6
102
}
330
26E6
100
AcDbXrecord
280
     1
  1
DWGPROPS COOKIE
  2

  3

  4

  6

  7

  8
A090053
  9

300
AmdtFileType=84
301
=
302
=
303
=
304
=
305
=
306
=
307
=
308
=
309
=
 40
1.042860127314814
 41
2452321.396199653
 42
2456213.408302882
  1

 90
        1
  0
XRECORD
  5
28A8
102
{ACAD_REACTORS
330
28A7
102
}
330
28A7
100
AcDbXrecord
280
     1
290
     1
  0
XRECORD
  5
28AA
102
{ACAD_REACTORS
330
28A9
102
}
330
28A9
100
AcDbXrecord
280
     1
290
     1
  0
XRECORD
  5
28AC
102
{ACAD_REACTORS
330
28AB
102
}
330
28AB
100
AcDbXrecord
280
     1
290
     1
  0
XRECORD
  5
28AE
102
{ACAD_REACTORS
330
28AD
102
}
330
28AD
100
AcDbXrecord
280
     1
290
     1
  0
XRECORD
  5
28B0
102
{ACAD_REACTORS
330
28AF
102
}
330
28AF
100
AcDbXrecord
280
     1
290
     1
  0
XRECORD
  5
28B2
102
{ACAD_REACTORS
330
28B1
102
}
330
28B1
100
AcDbXrecord
280
     1
290
     1
  0
XRECORD
  5
28B4
102
{ACAD_REACTORS
330
28B3
102
}
330
28B3
100
AcDbXrecord
280
     1
290
     1
  0
XRECORD
  5
28B6
102
{ACAD_REACTORS
330
28B5
102
}
330
28B5
100
AcDbXrecord
280
     1
290
     1
  0
XRECORD
  5
28B8
102
{ACAD_REACTORS
330
28B7
102
}
330
28B7
100
AcDbXrecord
280
     1
290
     1
  0
XRECORD
  5
28BA
102
{ACAD_REACTORS
330
28B9
102
}
330
28B9
100
AcDbXrecord
280
     1
290
     1
  0
XRECORD
  5
28BC
102
{ACAD_REACTORS
330
28BB
102
}
330
28BB
100
AcDbXrecord
280
     1
290
     1
  0
XRECORD
  5
28BE
102
{ACAD_REACTORS
330
28BD
102
}
330
28BD
100
AcDbXrecord
280
     1
290
     1
  0
DICTIONARY
  5
28C0
102
{ACAD_REACTORS
330
28BF
102
}
330
28BF
100
AcDbDictionary
281
     1
  3
*A1
350
28C1
  0
XRECORD
  5
28DB
102
{ACAD_REACTORS
330
28DA
102
}
330
28DA
100
AcDbXrecord
280
     1
 70
     1
  0
XRECORD
  5
28DD
102
{ACAD_REACTORS
330
28DA
102
}
330
28DA
100
AcDbXrecord
280
     1
340
273C
  0
XRECORD
  5
28DE
102
{ACAD_REACTORS
330
28DA
102
}
330
28DA
100
AcDbXrecord
280
     1
340
273C
  0
XRECORD
  5
28DC
102
{ACAD_REACTORS
330
28DA
102
}
330
28DA
100
AcDbXrecord
280
     1
340
273C
  0
LAYOUT
  5
2751
102
{ACAD_XDICTIONARY
360
28E5
102
}
102
{ACAD_REACTORS
330
2743
102
}
330
2743
100
AcDbPlotSettings
  1

  2
自動 EPSON LP-9600S (W2450527 上)
  4

  6

 40
0.0
 41
0.0
 42
0.0
 43
0.0
 44
0.0
 45
0.0
 46
0.0
 47
0.0
 48
0.0
 49
0.0
140
0.0
141
0.0
142
1.0
143
1.0
 70
  1712
 72
     0
 73
     0
 74
     0
  7

 75
     0
147
1.0
148
0.0
149
0.0
100
AcDbLayout
  1
Model
 70
     1
 71
     0
 10
0.0
 20
0.0
 11
12.0
 21
9.0
 12
0.0
 22
0.0
 32
0.0
 14
0.0
 24
0.0
 34
0.0
 15
0.0
 25
0.0
 35
0.0
146
0.0
 13
0.0
 23
0.0
 33
0.0
 16
1.0
 26
0.0
 36
0.0
 17
0.0
 27
1.0
 37
0.0
 76
     0
330
274E
331
2752
  0
LAYOUT
  5
274D
102
{ACAD_XDICTIONARY
360
28E3
102
}
102
{ACAD_REACTORS
330
2743
102
}
330
2743
100
AcDbPlotSettings
  1

  2
自動 EPSON LP-9600S (W2450527 上)
  4

  6

 40
0.0
 41
0.0
 42
0.0
 43
0.0
 44
0.0
 45
0.0
 46
0.0
 47
0.0
 48
0.0
 49
0.0
140
0.0
141
0.0
142
1.0
143
1.0
 70
   688
 72
     0
 73
     0
 74
     5
  7

 75
    16
147
1.0
148
0.0
149
0.0
100
AcDbLayout
  1
レイアウト1
 70
     1
 71
     1
 10
0.0
 20
0.0
 11
12.0
 21
9.0
 12
0.0
 22
0.0
 32
0.0
 14
1.000000000000000E+20
 24
1.000000000000000E+20
 34
1.000000000000000E+20
 15
-1.000000000000000E+20
 25
-1.000000000000000E+20
 35
-1.000000000000000E+20
146
0.0
 13
0.0
 23
0.0
 33
0.0
 16
1.0
 26
0.0
 36
0.0
 17
0.0
 27
1.0
 37
0.0
 76
     0
330
274A
  0
MATERIAL
  5
26F3
102
{ACAD_XDICTIONARY
360
26F4
102
}
102
{ACAD_REACTORS
330
26EA
102
}
330
26EA
100
AcDbMaterial
  1
ByBlock
 72
     0
 43
0.0208333333333333
 43
0.0
 43
0.0
 43
0.0
 43
0.0
 43
0.0208333333333333
 43
0.0
 43
0.0
 43
0.0
 43
0.0
 43
1.0
 43
0.0
 43
0.0
 43
0.0
 43
0.0
 43
1.0
 77
     0
 47
0.0208333333333333
 47
0.0
 47
0.0
 47
0.0
 47
0.0
 47
0.0208333333333333
 47
0.0
 47
0.0
 47
0.0
 47
0.0
 47
1.0
 47
0.0
 47
0.0
 47
0.0
 47
0.0
 47
1.0
171
     0
 49
0.0208333333333333
 49
0.0
 49
0.0
 49
0.0
 49
0.0
 49
0.0208333333333333
 49
0.0
 49
0.0
 49
0.0
 49
0.0
 49
1.0
 49
0.0
 49
0.0
 49
0.0
 49
0.0
 49
1.0
175
     0
142
0.0208333333333333
142
0.0
142
0.0
142
0.0
142
0.0
142
0.0208333333333333
142
0.0
142
0.0
142
0.0
142
0.0
142
1.0
142
0.0
142
0.0
142
0.0
142
0.0
142
1.0
179
     0
144
0.0208333333333333
144
0.0
144
0.0
144
0.0
144
0.0
144
0.0208333333333333
144
0.0
144
0.0
144
0.0
144
0.0
144
1.0
144
0.0
144
0.0
144
0.0
144
0.0
144
1.0
147
0.0208333333333333
147
0.0
147
0.0
147
0.0
147
0.0
147
0.0208333333333333
147
0.0
147
0.0
147
0.0
147
0.0
147
1.0
147
0.0
147
0.0
147
0.0
147
0.0
147
1.0
  0
MATERIAL
  5
26EB
102
{ACAD_XDICTIONARY
360
26EC
102
}
102
{ACAD_REACTORS
330
26EA
102
}
330
26EA
100
AcDbMaterial
  1
ByLayer
 72
     0
 43
0.0208333333333333
 43
0.0
 43
0.0
 43
0.0
 43
0.0
 43
0.0208333333333333
 43
0.0
 43
0.0
 43
0.0
 43
0.0
 43
1.0
 43
0.0
 43
0.0
 43
0.0
 43
0.0
 43
1.0
 77
     0
 47
0.0208333333333333
 47
0.0
 47
0.0
 47
0.0
 47
0.0
 47
0.0208333333333333
 47
0.0
 47
0.0
 47
0.0
 47
0.0
 47
1.0
 47
0.0
 47
0.0
 47
0.0
 47
0.0
 47
1.0
171
     0
 49
0.0208333333333333
 49
0.0
 49
0.0
 49
0.0
 49
0.0
 49
0.0208333333333333
 49
0.0
 49
0.0
 49
0.0
 49
0.0
 49
1.0
 49
0.0
 49
0.0
 49
0.0
 49
0.0
 49
1.0
175
     0
142
0.0208333333333333
142
0.0
142
0.0
142
0.0
142
0.0
142
0.0208333333333333
142
0.0
142
0.0
142
0.0
142
0.0
142
1.0
142
0.0
142
0.0
142
0.0
142
0.0
142
1.0
179
     0
144
0.0208333333333333
144
0.0
144
0.0
144
0.0
144
0.0
144
0.0208333333333333
144
0.0
144
0.0
144
0.0
144
0.0
144
1.0
144
0.0
144
0.0
144
0.0
144
0.0
144
1.0
147
0.0208333333333333
147
0.0
147
0.0
147
0.0
147
0.0
147
0.0208333333333333
147
0.0
147
0.0
147
0.0
147
0.0
147
1.0
147
0.0
147
0.0
147
0.0
147
0.0
147
1.0
  0
MATERIAL
  5
26FB
102
{ACAD_XDICTIONARY
360
26FC
102
}
102
{ACAD_REACTORS
330
26EA
102
}
330
26EA
100
AcDbMaterial
  1
Global
 72
     0
 43
0.0208333333333333
 43
0.0
 43
0.0
 43
0.0
 43
0.0
 43
0.0208333333333333
 43
0.0
 43
0.0
 43
0.0
 43
0.0
 43
1.0
 43
0.0
 43
0.0
 43
0.0
 43
0.0
 43
1.0
 77
     0
 47
0.0208333333333333
 47
0.0
 47
0.0
 47
0.0
 47
0.0
 47
0.0208333333333333
 47
0.0
 47
0.0
 47
0.0
 47
0.0
 47
1.0
 47
0.0
 47
0.0
 47
0.0
 47
0.0
 47
1.0
171
     0
 49
0.0208333333333333
 49
0.0
 49
0.0
 49
0.0
 49
0.0
 49
0.0208333333333333
 49
0.0
 49
0.0
 49
0.0
 49
0.0
 49
1.0
 49
0.0
 49
0.0
 49
0.0
 49
0.0
 49
1.0
175
     0
142
0.0208333333333333
142
0.0
142
0.0
142
0.0
142
0.0
142
0.0208333333333333
142
0.0
142
0.0
142
0.0
142
0.0
142
1.0
142
0.0
142
0.0
142
0.0
142
0.0
142
1.0
179
     0
144
0.0208333333333333
144
0.0
144
0.0
144
0.0
144
0.0
144
0.0208333333333333
144
0.0
144
0.0
144
0.0
144
0.0
144
1.0
144
0.0
144
0.0
144
0.0
144
0.0
144
1.0
147
0.0208333333333333
147
0.0
147
0.0
147
0.0
147
0.0
147
0.0208333333333333
147
0.0
147
0.0
147
0.0
147
0.0
147
1.0
147
0.0
147
0.0
147
0.0
147
0.0
147
1.0
  0
MLEADERSTYLE
  5
2748
102
{ACAD_REACTORS
330
2747
102
}
330
2747
100
AcDbMLeaderStyle
170
     2
171
     1
172
     0
 90
        2
 40
0.0
 41
0.0
173
     1
 91
-1056964608
340
273C
 92
       -2
290
     1
 42
0.09
291
     1
 43
0.36
  3
Standard
 44
0.18
300

342
2737
174
     1
178
     6
175
     1
176
     0
 93
-1056964608
 45
0.18
292
     0
297
     0
 46
0.18
 94
-1056964608
 47
1.0
 49
1.0
140
1.0
293
     1
141
0.0
294
     1
177
     0
142
1.0
295
     0
296
     0
143
0.125
1001
ACAD_MLEADERVER
1070
     2
  0
MLINESTYLE
  5
2741
102
{ACAD_REACTORS
330
2740
102
}
330
2740
100
AcDbMlineStyle
  2
STANDARD
 70
     0
  3

 62
   256
 51
90.0
 52
90.0
 71
     2
 49
0.5
 62
   256
  6
BYLAYER
 49
-0.5
 62
   256
  6
BYLAYER
  0
ACDBPLACEHOLDER
  5
26E9
102
{ACAD_REACTORS
330
26E8
102
}
330
26E8
  0
SCALE
  5
2715
102
{ACAD_REACTORS
330
2714
102
}
330
2714
100
AcDbScale
 70
     0
300
1:1
140
1.0
141
1.0
290
     1
  0
SCALE
  5
2716
102
{ACAD_REACTORS
330
2714
102
}
330
2714
100
AcDbScale
 70
     0
300
1:2
140
1.0
141
2.0
290
     0
  0
SCALE
  5
2717
102
{ACAD_REACTORS
330
2714
102
}
330
2714
100
AcDbScale
 70
     0
300
1:4
140
1.0
141
4.0
290
     0
  0
SCALE
  5
2718
102
{ACAD_REACTORS
330
2714
102
}
330
2714
100
AcDbScale
 70
     0
300
1:5
140
1.0
141
5.0
290
     0
  0
SCALE
  5
2719
102
{ACAD_REACTORS
330
2714
102
}
330
2714
100
AcDbScale
 70
     0
300
1:8
140
1.0
141
8.0
290
     0
  0
SCALE
  5
271A
102
{ACAD_REACTORS
330
2714
102
}
330
2714
100
AcDbScale
 70
     0
300
1:10
140
1.0
141
10.0
290
     0
  0
SCALE
  5
271B
102
{ACAD_REACTORS
330
2714
102
}
330
2714
100
AcDbScale
 70
     0
300
1:16
140
1.0
141
16.0
290
     0
  0
SCALE
  5
271C
102
{ACAD_REACTORS
330
2714
102
}
330
2714
100
AcDbScale
 70
     0
300
1:20
140
1.0
141
20.0
290
     0
  0
SCALE
  5
271D
102
{ACAD_REACTORS
330
2714
102
}
330
2714
100
AcDbScale
 70
     0
300
1:30
140
1.0
141
30.0
290
     0
  0
SCALE
  5
271E
102
{ACAD_REACTORS
330
2714
102
}
330
2714
100
AcDbScale
 70
     0
300
1:40
140
1.0
141
40.0
290
     0
  0
SCALE
  5
271F
102
{ACAD_REACTORS
330
2714
102
}
330
2714
100
AcDbScale
 70
     0
300
1:50
140
1.0
141
50.0
290
     0
  0
SCALE
  5
2720
102
{ACAD_REACTORS
330
2714
102
}
330
2714
100
AcDbScale
 70
     0
300
1:100
140
1.0
141
100.0
290
     0
  0
SCALE
  5
2721
102
{ACAD_REACTORS
330
2714
102
}
330
2714
100
AcDbScale
 70
     0
300
2:1
140
2.0
141
1.0
290
     0
  0
SCALE
  5
2722
102
{ACAD_REACTORS
330
2714
102
}
330
2714
100
AcDbScale
 70
     0
300
4:1
140
4.0
141
1.0
290
     0
  0
SCALE
  5
2723
102
{ACAD_REACTORS
330
2714
102
}
330
2714
100
AcDbScale
 70
     0
300
8:1
140
8.0
141
1.0
290
     0
  0
SCALE
  5
2724
102
{ACAD_REACTORS
330
2714
102
}
330
2714
100
AcDbScale
 70
     0
300
10:1
140
10.0
141
1.0
290
     0
  0
SCALE
  5
2725
102
{ACAD_REACTORS
330
2714
102
}
330
2714
100
AcDbScale
 70
     0
300
100:1
140
100.0
141
1.0
290
     0
  0
SCALE
  5
2726
102
{ACAD_REACTORS
330
2714
102
}
330
2714
100
AcDbScale
 70
     0
300
1/128" = 1'-0"
140
0.0078125
141
12.0
290
     0
  0
SCALE
  5
2727
102
{ACAD_REACTORS
330
2714
102
}
330
2714
100
AcDbScale
 70
     0
300
1/64" = 1'-0"
140
0.015625
141
12.0
290
     0
  0
SCALE
  5
2728
102
{ACAD_REACTORS
330
2714
102
}
330
2714
100
AcDbScale
 70
     0
300
1/32" = 1'-0"
140
0.03125
141
12.0
290
     0
  0
SCALE
  5
2729
102
{ACAD_REACTORS
330
2714
102
}
330
2714
100
AcDbScale
 70
     0
300
1/16" = 1'-0"
140
0.0625
141
12.0
290
     0
  0
SCALE
  5
272A
102
{ACAD_REACTORS
330
2714
102
}
330
2714
100
AcDbScale
 70
     0
300
3/32" = 1'-0"
140
0.09375
141
12.0
290
     0
  0
SCALE
  5
272B
102
{ACAD_REACTORS
330
2714
102
}
330
2714
100
AcDbScale
 70
     0
300
1/8" = 1'-0"
140
0.125
141
12.0
290
     0
  0
SCALE
  5
272C
102
{ACAD_REACTORS
330
2714
102
}
330
2714
100
AcDbScale
 70
     0
300
3/16" = 1'-0"
140
0.1875
141
12.0
290
     0
  0
SCALE
  5
272D
102
{ACAD_REACTORS
330
2714
102
}
330
2714
100
AcDbScale
 70
     0
300
1/4" = 1'-0"
140
0.25
141
12.0
290
     0
  0
SCALE
  5
272E
102
{ACAD_REACTORS
330
2714
102
}
330
2714
100
AcDbScale
 70
     0
300
3/8" = 1'-0"
140
0.375
141
12.0
290
     0
  0
SCALE
  5
272F
102
{ACAD_REACTORS
330
2714
102
}
330
2714
100
AcDbScale
 70
     0
300
1/2" = 1'-0"
140
0.5
141
12.0
290
     0
  0
SCALE
  5
2730
102
{ACAD_REACTORS
330
2714
102
}
330
2714
100
AcDbScale
 70
     0
300
3/4" = 1'-0"
140
0.75
141
12.0
290
     0
  0
SCALE
  5
2731
102
{ACAD_REACTORS
330
2714
102
}
330
2714
100
AcDbScale
 70
     0
300
1" = 1'-0"
140
1.0
141
12.0
290
     0
  0
SCALE
  5
2732
102
{ACAD_REACTORS
330
2714
102
}
330
2714
100
AcDbScale
 70
     0
300
1-1/2" = 1'-0"
140
1.5
141
12.0
290
     0
  0
SCALE
  5
2733
102
{ACAD_REACTORS
330
2714
102
}
330
2714
100
AcDbScale
 70
     0
300
3" = 1'-0"
140
3.0
141
12.0
290
     0
  0
SCALE
  5
2734
102
{ACAD_REACTORS
330
2714
102
}
330
2714
100
AcDbScale
 70
     0
300
6" = 1'-0"
140
6.0
141
12.0
290
     0
  0
SCALE
  5
2735
102
{ACAD_REACTORS
330
2714
102
}
330
2714
100
AcDbScale
 70
     0
300
1'-0" = 1'-0"
140
12.0
141
12.0
290
     0
  0
TABLESTYLE
  5
2746
102
{ACAD_XDICTIONARY
360
28D6
102
}
102
{ACAD_REACTORS
330
2745
102
}
330
2745
100
AcDbTableStyle
  3
Standard
 70
     0
 71
     0
 40
0.06
 41
0.06
280
     0
281
     0
  7
STANDARD
140
0.18
170
     2
 62
     0
 63
     7
283
     0
274
    -2
284
     1
 64
     0
275
    -2
285
     1
 65
     0
276
    -2
286
     1
 66
     0
277
    -2
287
     1
 67
     0
278
    -2
288
     1
 68
     0
279
    -2
289
     1
 69
     0
  7
STANDARD
140
0.25
170
     5
 62
     0
 63
     7
283
     0
274
    -2
284
     1
 64
     0
275
    -2
285
     1
 65
     0
276
    -2
286
     1
 66
     0
277
    -2
287
     1
 67
     0
278
    -2
288
     1
 68
     0
279
    -2
289
     1
 69
     0
  7
STANDARD
140
0.18
170
     5
 62
     0
 63
     7
283
     0
274
    -2
284
     1
 64
     0
275
    -2
285
     1
 65
     0
276
    -2
286
     1
 66
     0
277
    -2
287
     1
 67
     0
278
    -2
288
     1
 68
     0
279
    -2
289
     1
 69
     0
  0
VISUALSTYLE
  5
2709
102
{ACAD_REACTORS
330
2703
102
}
330
2703
100
AcDbVisualStyle
  2
2dWireframe
 70
     4
 71
     0
 72
     2
 73
     0
 90
        0
 40
-0.6
 41
-30.0
 62
     5
 63
     7
 74
     1
 91
        4
 64
     7
 65
   257
 75
     1
175
     1
 42
1.0
 92
        0
 66
   257
 43
1.0
 76
     1
 77
     6
 78
     2
 67
     7
 79
     5
170
     0
171
     0
290
     0
174
     0
 93
        1
 44
0.0
173
     0
291
     0
 45
0.0
1001
ACAD
1000
AcDbSavedByObjectVersion
1070
     0
  0
VISUALSTYLE
  5
270B
102
{ACAD_REACTORS
330
2703
102
}
330
2703
100
AcDbVisualStyle
  2
3D Hidden
 70
     6
 71
     1
 72
     2
 73
     2
 90
        0
 40
-0.6
 41
-30.0
 62
     5
 63
     7
 74
     2
 91
        2
 64
     7
 65
   257
 75
     2
175
     1
 42
40.0
 92
        0
 66
   257
 43
1.0
 76
     1
 77
     6
 78
     2
 67
     7
 79
     3
170
     0
171
     0
290
     0
174
     0
 93
        1
 44
0.0
173
     0
291
     0
 45
0.0
1001
ACAD
1000
AcDbSavedByObjectVersion
1070
     0
  0
VISUALSTYLE
  5
270A
102
{ACAD_REACTORS
330
2703
102
}
330
2703
100
AcDbVisualStyle
  2
3dWireframe
 70
     5
 71
     0
 72
     2
 73
     0
 90
        0
 40
-0.6
 41
-30.0
 62
     5
 63
     7
 74
     1
 91
        4
 64
     7
 65
   257
 75
     1
175
     1
 42
1.0
 92
        0
 66
   257
 43
1.0
 76
     1
 77
     6
 78
     2
 67
     7
 79
     5
170
     0
171
     0
290
     0
174
     0
 93
        1
 44
0.0
173
     0
291
     0
 45
0.0
1001
ACAD
1000
AcDbSavedByObjectVersion
1070
     0
  0
VISUALSTYLE
  5
2708
102
{ACAD_REACTORS
330
2703
102
}
330
2703
100
AcDbVisualStyle
  2
Basic
 70
     7
 71
     1
 72
     0
 73
     1
 90
        0
 40
-0.6
 41
-30.0
 62
     5
 63
     7
 74
     0
 91
        4
 64
     7
 65
   257
 75
     1
175
     1
 42
1.0
 92
        8
 66
     7
 43
1.0
 76
     1
 77
     6
 78
     2
 67
     7
 79
     5
170
     0
171
     0
290
     0
174
     0
 93
        1
 44
0.0
173
     0
291
     1
 45
0.0
1001
ACAD
1000
AcDbSavedByObjectVersion
1070
     0
  0
VISUALSTYLE
  5
270F
102
{ACAD_REACTORS
330
2703
102
}
330
2703
100
AcDbVisualStyle
  2
Brighten
 70
    12
 71
     2
 72
     2
 73
     0
 90
        0
 40
-0.6
 41
-30.0
 62
     5
 63
     7
 74
     1
 91
        4
 64
     7
 65
   257
 75
     1
175
     1
 42
1.0
 92
        8
 66
     7
 43
1.0
 76
     1
 77
     6
 78
     2
 67
     7
 79
     5
170
     0
171
     0
290
     0
174
     0
 93
        1
 44
50.0
173
     0
291
     1
 45
0.0
1001
ACAD
1000
AcDbSavedByObjectVersion
1070
     0
  0
VISUALSTYLE
  5
2713
102
{ACAD_REACTORS
330
2703
102
}
330
2703
100
AcDbVisualStyle
  2
ColorChange
 70
    16
 71
     2
 72
     2
 73
     3
 90
        0
 40
-0.6
 41
-30.0
 62
     5
 63
     8
 74
     1
 91
        4
 64
     7
 65
   257
 75
     1
175
     1
 42
1.0
 92
        8
 66
     8
 43
1.0
 76
     1
 77
     6
 78
     2
 67
     7
 79
     5
170
     0
171
     0
290
     0
174
     0
 93
        1
 44
0.0
173
     0
291
     1
 45
0.0
1001
ACAD
1000
AcDbSavedByObjectVersion
1070
     0
  0
VISUALSTYLE
  5
270C
102
{ACAD_REACTORS
330
2703
102
}
330
2703
100
AcDbVisualStyle
  2
Conceptual
 70
     9
 71
     3
 72
     2
 73
     0
 90
        0
 40
-0.6
 41
-30.0
 62
     5
 63
     7
 74
     2
 91
        2
 64
     7
 65
   257
 75
     1
175
     1
 42
40.0
 92
        8
 66
     7
 43
1.0
 76
     1
 77
     6
 78
     2
 67
     7
 79
     3
170
     0
171
     0
290
     0
174
     0
 93
        1
 44
0.0
173
     0
291
     0
 45
0.0
1001
ACAD
1000
AcDbSavedByObjectVersion
1070
     0
  0
VISUALSTYLE
  5
270E
102
{ACAD_REACTORS
330
2703
102
}
330
2703
100
AcDbVisualStyle
  2
Dim
 70
    11
 71
     2
 72
     2
 73
     0
 90
        0
 40
-0.6
 41
-30.0
 62
     5
 63
     7
 74
     1
 91
        4
 64
     7
 65
   257
 75
     1
175
     1
 42
1.0
 92
        8
 66
     7
 43
1.0
 76
     1
 77
     6
 78
     2
 67
     7
 79
     5
170
     0
171
     0
290
     0
174
     0
 93
        1
 44
-50.0
173
     0
291
     1
 45
0.0
1001
ACAD
1000
AcDbSavedByObjectVersion
1070
     0
  0
VISUALSTYLE
  5
2712
102
{ACAD_REACTORS
330
2703
102
}
330
2703
100
AcDbVisualStyle
  2
Facepattern
 70
    15
 71
     2
 72
     2
 73
     0
 90
        0
 40
-0.6
 41
-30.0
 62
     5
 63
     7
 74
     1
 91
        4
 64
     7
 65
   257
 75
     1
175
     1
 42
1.0
 92
        8
 66
     7
 43
1.0
 76
     1
 77
     6
 78
     2
 67
     7
 79
     5
170
     0
171
     0
290
     0
174
     0
 93
        1
 44
0.0
173
     0
291
     1
 45
0.0
1001
ACAD
1000
AcDbSavedByObjectVersion
1070
     0
  0
VISUALSTYLE
  5
2704
102
{ACAD_REACTORS
330
2703
102
}
330
2703
100
AcDbVisualStyle
  2
Flat
 70
     0
 71
     2
 72
     1
 73
     1
 90
        2
 40
-0.6
 41
30.0
 62
     5
 63
     7
 74
     0
 91
        4
 64
     7
 65
   257
 75
     1
175
     1
 42
1.0
 92
        8
 66
     7
 43
1.0
 76
     1
 77
     6
 78
     2
 67
     7
 79
     5
170
     0
171
     0
290
     0
174
     0
 93
       13
 44
0.0
173
     0
291
     1
 45
0.0
1001
ACAD
1000
AcDbSavedByObjectVersion
1070
     0
  0
VISUALSTYLE
  5
2705
102
{ACAD_REACTORS
330
2703
102
}
330
2703
100
AcDbVisualStyle
  2
FlatWithEdges
 70
     1
 71
     2
 72
     1
 73
     1
 90
        2
 40
-0.6
 41
30.0
 62
     5
 63
     7
 74
     1
 91
        4
 64
     7
 65
   257
 75
     1
175
     1
 42
1.0
 92
        0
 66
   257
 43
1.0
 76
     1
 77
     6
 78
     2
 67
     7
 79
     5
170
     0
171
     0
290
     0
174
     0
 93
       13
 44
0.0
173
     0
291
     1
 45
0.0
1001
ACAD
1000
AcDbSavedByObjectVersion
1070
     0
  0
VISUALSTYLE
  5
2706
102
{ACAD_REACTORS
330
2703
102
}
330
2703
100
AcDbVisualStyle
  2
Gouraud
 70
     2
 71
     2
 72
     2
 73
     1
 90
        2
 40
-0.6
 41
30.0
 62
     5
 63
     7
 74
     0
 91
        4
 64
     7
 65
   257
 75
     1
175
     1
 42
1.0
 92
        0
 66
     7
 43
1.0
 76
     1
 77
     6
 78
     2
 67
     7
 79
     5
170
     0
171
     0
290
     0
174
     0
 93
       13
 44
0.0
173
     0
291
     1
 45
0.0
1001
ACAD
1000
AcDbSavedByObjectVersion
1070
     0
  0
VISUALSTYLE
  5
2707
102
{ACAD_REACTORS
330
2703
102
}
330
2703
100
AcDbVisualStyle
  2
GouraudWithEdges
 70
     3
 71
     2
 72
     2
 73
     1
 90
        2
 40
-0.6
 41
30.0
 62
     5
 63
     7
 74
     1
 91
        4
 64
     7
 65
   257
 75
     1
175
     1
 42
1.0
 92
        0
 66
   257
 43
1.0
 76
     1
 77
     6
 78
     2
 67
     7
 79
     5
170
     0
171
     0
290
     0
174
     0
 93
       13
 44
0.0
173
     0
291
     1
 45
0.0
1001
ACAD
1000
AcDbSavedByObjectVersion
1070
     0
  0
VISUALSTYLE
  5
2711
102
{ACAD_REACTORS
330
2703
102
}
330
2703
100
AcDbVisualStyle
  2
Linepattern
 70
    14
 71
     2
 72
     2
 73
     0
 90
        0
 40
-0.6
 41
-30.0
 62
     5
 63
     7
 74
     1
 91
        4
 64
     7
 65
   257
 75
     7
175
     7
 42
1.0
 92
        8
 66
     7
 43
1.0
 76
     1
 77
     6
 78
     2
 67
     7
 79
     5
170
     0
171
     0
290
     0
174
     0
 93
        1
 44
0.0
173
     0
291
     1
 45
0.0
1001
ACAD
1000
AcDbSavedByObjectVersion
1070
     0
  0
VISUALSTYLE
  5
270D
102
{ACAD_REACTORS
330
2703
102
}
330
2703
100
AcDbVisualStyle
  2
Realistic
 70
     8
 71
     2
 72
     2
 73
     0
 90
        0
 40
-0.6
 41
-30.0
 62
     5
 63
     7
 74
     1
 91
        0
 64
     7
 65
   257
 75
     1
175
     1
 42
1.0
 92
        8
 66
     8
 43
1.0
 76
     1
 77
     6
 78
     2
 67
     7
 79
     5
170
     0
171
     0
290
     0
174
     0
 93
       13
 44
0.0
173
     0
291
     0
 45
0.0
1001
ACAD
1000
AcDbSavedByObjectVersion
1070
     0
  0
VISUALSTYLE
  5
2710
102
{ACAD_REACTORS
330
2703
102
}
330
2703
100
AcDbVisualStyle
  2
Thicken
 70
    13
 71
     2
 72
     2
 73
     0
 90
        0
 40
-0.6
 41
-30.0
 62
     5
 63
     7
 74
     1
 91
        4
 64
     7
 65
   257
 75
     1
175
     1
 42
1.0
 92
       12
 66
     7
 43
1.0
 76
     1
 77
     6
 78
     2
 67
     7
 79
     5
170
     0
171
     0
290
     0
174
     0
 93
        1
 44
0.0
173
     0
291
     1
 45
0.0
1001
ACAD
1000
AcDbSavedByObjectVersion
1070
     0
  0
DICTIONARYVAR
  5
28D2
102
{ACAD_REACTORS
330
28CF
102
}
330
28CF
100
DictionaryVariables
280
     0
  1
1:1
  0
DICTIONARYVAR
  5
28D1
102
{ACAD_REACTORS
330
28CF
102
}
330
28CF
100
DictionaryVariables
280
     0
  1
STANDARD
  0
DICTIONARYVAR
  5
28D0
102
{ACAD_REACTORS
330
28CF
102
}
330
28CF
100
DictionaryVariables
280
     0
  1
STANDARD
  0
DICTIONARYVAR
  5
28D5
102
{ACAD_REACTORS
330
28CF
102
}
330
28CF
100
DictionaryVariables
280
     0
  1
1
  0
DICTIONARYVAR
  5
28D4
102
{ACAD_REACTORS
330
28CF
102
}
330
28CF
100
DictionaryVariables
280
     0
  1
1
  0
DICTIONARYVAR
  5
28D3
102
{ACAD_REACTORS
330
28CF
102
}
330
28CF
100
DictionaryVariables
280
     0
  1
127
  0
DICTIONARY
  5
2886
102
{ACAD_REACTORS
330
2878
102
}
330
2878
100
AcDbDictionary
281
     1
  0
DICTIONARY
  5
27C6
102
{ACAD_REACTORS
330
27C5
102
}
330
27C5
100
AcDbDictionary
281
     1
  3
DWGSETTINGS
350
27C7
  3
TRANSSETTINGS
350
27C8
  0
ACAMGFILTERDAT
  5
28A5
102
{ACAD_REACTORS
330
28A0
102
}
330
28A0
100
AcAmgFilterDat
 70
    15
  1
DIMENSION,AMDT_*_DIM
  2
*
  3
*
  4
*
  5
*
290
     1
  0
ACAMGFILTERDAT
  5
28A4
102
{ACAD_REACTORS
330
28A0
102
}
330
28A0
100
AcAmgFilterDat
 70
    15
  1
*
  2
AM_FEA-AM_*
  3
*
  4
*
  5
*
290
     1
  0
ACAMGFILTERDAT
  5
28A1
102
{ACAD_REACTORS
330
28A0
102
}
330
28A0
100
AcAmgFilterDat
 70
    15
  1
HATCH
  2
*
  3
*
  4
*
  5
*
290
     1
  0
ACAMGFILTERDAT
  5
28A2
102
{ACAD_REACTORS
330
28A0
102
}
330
28A0
100
AcAmgFilterDat
 70
    15
  1
LINE
  2
8,8N,*-8,*-8N,AM_8,AM_8N,*-AM_8,*-AM_8N
  3
*
  4
*
  5
INSERT,STDPART2D
290
     1
  0
ACAMGFILTERDAT
  5
28A6
102
{ACAD_REACTORS
330
28A0
102
}
330
28A0
100
AcAmgFilterDat
 70
    15
  1
ARC
  2
AM_5
  3
*
  4
2
  5
INSERT
290
     0
  0
ACAMGFILTERDAT
  5
28A3
102
{ACAD_REACTORS
330
28A0
102
}
330
28A0
100
AcAmgFilterDat
 70
    15
  1
ACMFCFRAME,ACMDATUMTARGET,ACMDATUMID,ACMWELDSYM,ACMSURFSYM,ACMFEATID,ACMPARTREF,ACMBALLOON,AMDTEDGESYM,AMGSCREWCALCTABLE,ACMMARKSTAMP
  2
*
  3
*
  4
*
  5
*
290
     1
  0
LAYER_INDEX
  5
28C1
102
{ACAD_REACTORS
330
28C0
102
}
330
28C0
100
AcDbIndex
 40
2456213.408302882
100
AcDbLayerIndex
  8
0
360
28C2
 90
        1
  8
OUTLINE
360
28C3
 90
       39
  8
SIZE
360
28C4
 90
       46
  8
BASIS
360
28C5
 90
        0
  8
DETAIL
360
28C6
 90
       33
  8
ARRANGE
360
28C7
 90
        3
  8
DEFPOINTS
360
28C8
 90
        0
  8
ETC
360
28C9
 90
        3
  8
FIX
360
28CA
 90
        0
  8
NOTE
360
28CB
 90
        9
  8
SERVICESPACE
360
28CC
 90
        0
  8
SYMBOLLINE
360
28CD
 90
        0
  8
BASIC
360
28CE
 90
        1
  0
DICTIONARY
  5
28E5
330
2751
100
AcDbDictionary
280
     1
281
     1
  3
ACAD_XREC_ROUNDTRIP
360
28E6
  0
DICTIONARY
  5
28E3
330
274D
100
AcDbDictionary
280
     1
281
     1
  3
ACAD_XREC_ROUNDTRIP
360
28E4
  0
DICTIONARY
  5
26F4
330
26F3
100
AcDbDictionary
280
     1
281
     1
  3
ACAD_XREC_ROUNDTRIP
360
28E0
  3
BUMPTILE
360
26F6
  3
DIFFUSETILE
360
26F5
  3
OPACITYTILE
360
26F9
  3
REFLECTIONTILE
360
26F8
  3
REFRACTIONTILE
360
26FA
  3
SPECULARTILE
360
26F7
  0
DICTIONARY
  5
26EC
330
26EB
100
AcDbDictionary
280
     1
281
     1
  3
ACAD_XREC_ROUNDTRIP
360
28DF
  3
BUMPTILE
360
26EE
  3
DIFFUSETILE
360
26ED
  3
OPACITYTILE
360
26F1
  3
REFLECTIONTILE
360
26F0
  3
REFRACTIONTILE
360
26F2
  3
SPECULARTILE
360
26EF
  0
DICTIONARY
  5
26FC
330
26FB
100
AcDbDictionary
280
     1
281
     1
  3
ACAD_XREC_ROUNDTRIP
360
28E1
  3
BUMPTILE
360
26FE
  3
DIFFUSETILE
360
26FD
  3
OPACITYTILE
360
2701
  3
REFLECTIONTILE
360
2700
  3
REFRACTIONTILE
360
2702
  3
SPECULARTILE
360
26FF
  0
DICTIONARY
  5
28D6
330
2746
100
AcDbDictionary
280
     1
281
     1
  3
ACAD_ROUNDTRIP_2008_TABLESTYLE_CELLSTYLEMAP
360
28D7
  3
ACAD_XREC_ROUNDTRIP
360
28E2
  0
IDBUFFER
  5
28C2
330
0
100
AcDbIdBuffer
330
2646
  0
IDBUFFER
  5
28C3
330
0
100
AcDbIdBuffer
330
2655
330
2656
330
2657
330
2658
330
2659
330
265A
330
265B
330
265C
330
265D
330
265E
330
2660
330
2661
330
2662
330
2663
330
2664
330
2665
330
2666
330
2667
330
2668
330
2669
330
266A
330
266C
330
266D
330
953
330
954
330
955
330
956
330
957
330
958
330
264B
330
264C
330
264D
330
264E
330
264F
330
2650
330
2651
330
2652
330
2653
330
2654
  0
IDBUFFER
  5
28C4
330
0
100
AcDbIdBuffer
330
267E
330
267F
330
2680
330
2681
330
2682
330
2683
330
2684
330
2685
330
2686
330
2687
330
2688
330
2689
330
268A
330
268B
330
268C
330
268D
330
268E
330
268F
330
2690
330
2691
330
2692
330
2693
330
2694
330
2695
330
2696
330
2697
330
2698
330
2699
330
269A
330
269B
330
266E
330
266F
330
2670
330
2671
330
2672
330
2673
330
2674
330
2675
330
2676
330
2677
330
2678
330
2679
330
267A
330
267B
330
267C
330
267D
  0
IDBUFFER
  5
28C5
330
0
100
AcDbIdBuffer
  0
IDBUFFER
  5
28C6
330
0
100
AcDbIdBuffer
330
2632
330
2633
330
2634
330
2635
330
2636
330
2637
330
2638
330
2639
330
263A
330
263B
330
263C
330
263D
330
263E
330
263F
330
2640
330
265F
330
266B
330
2622
330
2623
330
2624
330
2625
330
2626
330
2627
330
2628
330
2629
330
262A
330
262B
330
262C
330
262D
330
262E
330
262F
330
2630
330
2631
  0
IDBUFFER
  5
28C7
330
0
100
AcDbIdBuffer
330
261E
330
261F
330
2620
  0
IDBUFFER
  5
28C8
330
0
100
AcDbIdBuffer
  0
IDBUFFER
  5
28C9
330
0
100
AcDbIdBuffer
330
261C
330
261D
330
2645
  0
IDBUFFER
  5
28CA
330
0
100
AcDbIdBuffer
  0
IDBUFFER
  5
28CB
330
0
100
AcDbIdBuffer
330
2641
330
2642
330
2643
330
2644
330
2647
330
2648
330
2649
330
264A
330
269C
  0
IDBUFFER
  5
28CC
330
0
100
AcDbIdBuffer
  0
IDBUFFER
  5
28CD
330
0
100
AcDbIdBuffer
  0
IDBUFFER
  5
28CE
330
0
100
AcDbIdBuffer
330
2621
  0
XRECORD
  5
28E6
102
{ACAD_REACTORS
330
28E5
102
}
330
28E5
100
AcDbXrecord
280
     1
102
SHADEPLOT
 70
     0
102
SHADEPLOTRESLEVEL
 70
     2
102
SHADEPLOTCUSTOMDPI
 70
   300
  0
XRECORD
  5
28E4
102
{ACAD_REACTORS
330
28E3
102
}
330
28E3
100
AcDbXrecord
280
     1
102
SHADEPLOT
 70
     0
102
SHADEPLOTRESLEVEL
 70
     2
102
SHADEPLOTCUSTOMDPI
 70
   300
  0
XRECORD
  5
28E0
102
{ACAD_REACTORS
330
26F4
102
}
330
26F4
100
AcDbXrecord
280
     1
102
MATERIAL
148
0.0
149
0.0
149
0.0
 93
        0
 94
      127
282
     0
 72
     0
 77
     0
171
     0
175
     0
179
     0
273
     0
  0
XRECORD
  5
26F6
102
{ACAD_REACTORS
330
26F4
102
}
330
26F4
100
AcDbXrecord
280
     1
270
     1
271
     1
  0
XRECORD
  5
26F5
102
{ACAD_REACTORS
330
26F4
102
}
330
26F4
100
AcDbXrecord
280
     1
270
     1
271
     1
  0
XRECORD
  5
26F9
102
{ACAD_REACTORS
330
26F4
102
}
330
26F4
100
AcDbXrecord
280
     1
270
     1
271
     1
  0
XRECORD
  5
26F8
102
{ACAD_REACTORS
330
26F4
102
}
330
26F4
100
AcDbXrecord
280
     1
270
     1
271
     1
  0
XRECORD
  5
26FA
102
{ACAD_REACTORS
330
26F4
102
}
330
26F4
100
AcDbXrecord
280
     1
270
     1
271
     1
  0
XRECORD
  5
26F7
102
{ACAD_REACTORS
330
26F4
102
}
330
26F4
100
AcDbXrecord
280
     1
270
     1
271
     1
  0
XRECORD
  5
28DF
102
{ACAD_REACTORS
330
26EC
102
}
330
26EC
100
AcDbXrecord
280
     1
102
MATERIAL
148
0.0
149
0.0
149
0.0
 93
        0
 94
      127
282
     0
 72
     0
 77
     0
171
     0
175
     0
179
     0
273
     0
  0
XRECORD
  5
26EE
102
{ACAD_REACTORS
330
26EC
102
}
330
26EC
100
AcDbXrecord
280
     1
270
     1
271
     1
  0
XRECORD
  5
26ED
102
{ACAD_REACTORS
330
26EC
102
}
330
26EC
100
AcDbXrecord
280
     1
270
     1
271
     1
  0
XRECORD
  5
26F1
102
{ACAD_REACTORS
330
26EC
102
}
330
26EC
100
AcDbXrecord
280
     1
270
     1
271
     1
  0
XRECORD
  5
26F0
102
{ACAD_REACTORS
330
26EC
102
}
330
26EC
100
AcDbXrecord
280
     1
270
     1
271
     1
  0
XRECORD
  5
26F2
102
{ACAD_REACTORS
330
26EC
102
}
330
26EC
100
AcDbXrecord
280
     1
270
     1
271
     1
  0
XRECORD
  5
26EF
102
{ACAD_REACTORS
330
26EC
102
}
330
26EC
100
AcDbXrecord
280
     1
270
     1
271
     1
  0
XRECORD
  5
28E1
102
{ACAD_REACTORS
330
26FC
102
}
330
26FC
100
AcDbXrecord
280
     1
102
MATERIAL
148
0.0
149
0.0
149
0.0
 93
        0
 94
      127
282
     0
 72
     0
 77
     0
171
     0
175
     0
179
     0
273
     0
  0
XRECORD
  5
26FE
102
{ACAD_REACTORS
330
26FC
102
}
330
26FC
100
AcDbXrecord
280
     1
270
     1
271
     1
  0
XRECORD
  5
26FD
102
{ACAD_REACTORS
330
26FC
102
}
330
26FC
100
AcDbXrecord
280
     1
270
     1
271
     1
  0
XRECORD
  5
2701
102
{ACAD_REACTORS
330
26FC
102
}
330
26FC
100
AcDbXrecord
280
     1
270
     1
271
     1
  0
XRECORD
  5
2700
102
{ACAD_REACTORS
330
26FC
102
}
330
26FC
100
AcDbXrecord
280
     1
270
     1
271
     1
  0
XRECORD
  5
2702
102
{ACAD_REACTORS
330
26FC
102
}
330
26FC
100
AcDbXrecord
280
     1
270
     1
271
     1
  0
XRECORD
  5
26FF
102
{ACAD_REACTORS
330
26FC
102
}
330
26FC
100
AcDbXrecord
280
     1
270
     1
271
     1
  0
CELLSTYLEMAP
  5
28D7
102
{ACAD_REACTORS
330
28D6
102
}
330
28D6
100
AcDbCellStyleMap
 90
        3
300
CELLSTYLE
  1
TABLEFORMAT_BEGIN
 90
        5
170
     1
 91
        0
 92
    32768
 62
   257
 93
        1
300
CONTENTFORMAT
  1
CONTENTFORMAT_BEGIN
 90
        0
 91
        0
 92
      512
 93
        0
300

 40
0.0
140
1.0
 94
        5
 62
     0
340
2737
144
0.25
309
CONTENTFORMAT_END
171
     0
 94
        0
309
TABLEFORMAT_END
  1
CELLSTYLE_BEGIN
 90
        1
 91
        1
300
_TITLE
309
CELLSTYLE_END
300
CELLSTYLE
  1
TABLEFORMAT_BEGIN
 90
        5
170
     1
 91
        0
 92
        0
 62
   257
 93
        1
300
CONTENTFORMAT
  1
CONTENTFORMAT_BEGIN
 90
        0
 91
        0
 92
      512
 93
        0
300

 40
0.0
140
1.0
 94
        5
 62
     0
340
2737
144
0.18
309
CONTENTFORMAT_END
171
     0
 94
        0
309
TABLEFORMAT_END
  1
CELLSTYLE_BEGIN
 90
        2
 91
        1
300
_HEADER
309
CELLSTYLE_END
300
CELLSTYLE
  1
TABLEFORMAT_BEGIN
 90
        5
170
     1
 91
        0
 92
        0
 62
   257
 93
        1
300
CONTENTFORMAT
  1
CONTENTFORMAT_BEGIN
 90
        0
 91
        0
 92
      512
 93
        0
300

 40
0.0
140
1.0
 94
        2
 62
     0
340
2737
144
0.18
309
CONTENTFORMAT_END
171
     0
 94
        0
309
TABLEFORMAT_END
  1
CELLSTYLE_BEGIN
 90
        3
 91
        2
300
_DATA
309
CELLSTYLE_END
  0
XRECORD
  5
28E2
102
{ACAD_REACTORS
330
28D6
102
}
330
28D6
100
AcDbXrecord
280
     1
102
ACAD_ROUNDTRIP_PRE2007_TABLESTYLE
 90
      512
 91
        0
  1

 92
      512
 93
        0
  2

 94
      512
 95
        0
  3

  0
ENDSEC
  0
EOF
