  0
SECTION
  2
HEADER
  9
$ACADVER
  1
AC1015
  9
$ACADMAINTVER
 70
    20
  9
$DWGCODEPAGE
  3
ANSI_932
  9
$INSBASE
 10
0.0
 20
0.0
 30
0.0
  9
$EXTMIN
 10
-787.4381944931252
 20
-1414.670453074532
 30
0.0
  9
$EXTMAX
 10
1794.693579374406
 20
854.387059116836
 30
50.0
  9
$LIMMIN
 10
-2970.0
 20
-2100.0
  9
$LIMMAX
 10
2970.0
 20
2100.0
  9
$ORTHOMODE
 70
     1
  9
$REGENMODE
 70
     0
  9
$FILLMODE
 70
     1
  9
$QTEXTMODE
 70
     0
  9
$MIRRTEXT
 70
     0
  9
$LTSCALE
 40
20.0
  9
$ATTMODE
 70
     1
  9
$TEXTSIZE
 40
64.0
  9
$TRACEWID
 40
0.05
  9
$TEXTSTYLE
  7
STANDARD
  9
$CLAYER
  8
0
  9
$CELTYPE
  6
ByLayer
  9
$CECOLOR
 62
   256
  9
$CELTSCALE
 40
1.0
  9
$DISPSILH
 70
     0
  9
$DIMSCALE
 40
1.0
  9
$DIMASZ
 40
0.12
  9
$DIMEXO
 40
0.05
  9
$DIMDLI
 40
0.5
  9
$DIMRND
 40
0.0
  9
$DIMDLE
 40
0.0
  9
$DIMEXE
 40
0.1
  9
$DIMTP
 40
0.1
  9
$DIMTM
 40
0.1
  9
$DIMTXT
 40
0.12
  9
$DIMCEN
 40
0.0
  9
$DIMTSZ
 40
0.0
  9
$DIMTOL
 70
     0
  9
$DIMLIM
 70
     0
  9
$DIMTIH
 70
     1
  9
$DIMTOH
 70
     1
  9
$DIMSE1
 70
     0
  9
$DIMSE2
 70
     0
  9
$DIMTAD
 70
     0
  9
$DIMZIN
 70
     7
  9
$DIMBLK
  1

  9
$DIMASO
 70
     1
  9
$DIMSHO
 70
     0
  9
$DIMPOST
  1

  9
$DIMAPOST
  1
mm
  9
$DIMALT
 70
     0
  9
$DIMALTD
 70
     2
  9
$DIMALTF
 40
25.4
  9
$DIMLFAC
 40
1.0
  9
$DIMTOFL
 70
     0
  9
$DIMTVP
 40
0.0
  9
$DIMTIX
 70
     0
  9
$DIMSOXD
 70
     0
  9
$DIMSAH
 70
     0
  9
$DIMBLK1
  1

  9
$DIMBLK2
  1

  9
$DIMSTYLE
  2
AM_ANSI
  9
$DIMCLRD
 70
   256
  9
$DIMCLRE
 70
   256
  9
$DIMCLRT
 70
     2
  9
$DIMTFAC
 40
0.71
  9
$DIMGAP
 40
0.06
  9
$DIMJUST
 70
     0
  9
$DIMSD1
 70
     0
  9
$DIMSD2
 70
     0
  9
$DIMTOLJ
 70
     1
  9
$DIMTZIN
 70
     7
  9
$DIMALTZ
 70
     0
  9
$DIMALTTZ
 70
     0
  9
$DIMUPT
 70
     0
  9
$DIMDEC
 70
     4
  9
$DIMTDEC
 70
     4
  9
$DIMALTU
 70
     2
  9
$DIMALTTD
 70
     4
  9
$DIMTXSTY
  7
STANDARD
  9
$DIMAUNIT
 70
     0
  9
$DIMADEC
 70
     0
  9
$DIMALTRND
 40
0.0
  9
$DIMAZIN
 70
     2
  9
$DIMDSEP
 70
    46
  9
$DIMATFIT
 70
     3
  9
$DIMFRAC
 70
     0
  9
$DIMLDRBLK
  1

  9
$DIMLUNIT
 70
     2
  9
$DIMLWD
 70
    -1
  9
$DIMLWE
 70
    -1
  9
$DIMTMOVE
 70
     0
  9
$LUNITS
 70
     2
  9
$LUPREC
 70
     4
  9
$SKETCHINC
 40
0.1
  9
$FILLETRAD
 40
4.0
  9
$AUNITS
 70
     1
  9
$AUPREC
 70
     3
  9
$MENU
  1
ACAD
  9
$ELEVATION
 40
0.0
  9
$PELEVATION
 40
0.0
  9
$THICKNESS
 40
50.0
  9
$LIMCHECK
 70
     0
  9
$CHAMFERA
 40
0.0
  9
$CHAMFERB
 40
0.0
  9
$CHAMFERC
 40
0.0
  9
$CHAMFERD
 40
0.0
  9
$SKPOLY
 70
     0
  9
$TDCREATE
 40
2452321.396199653
  9
$TDUCREATE
 40
2452321.021199653
  9
$TDUPDATE
 40
2456213.408789282
  9
$TDUUPDATE
 40
2456213.033789282
  9
$TDINDWG
 40
1.0464765856
  9
$TDUSRTIMER
 40
1.0464709954
  9
$USRTIMER
 70
     1
  9
$ANGBASE
 50
0.0
  9
$ANGDIR
 70
     0
  9
$PDMODE
 70
     3
  9
$PDSIZE
 40
-2.0
  9
$PLINEWID
 40
0.0
  9
$SPLFRAME
 70
     0
  9
$SPLINETYPE
 70
     6
  9
$SPLINESEGS
 70
     8
  9
$HANDSEED
  5
2FEF
  9
$SURFTAB1
 70
     6
  9
$SURFTAB2
 70
     6
  9
$SURFTYPE
 70
     6
  9
$SURFU
 70
     6
  9
$SURFV
 70
     6
  9
$UCSBASE
  2

  9
$UCSNAME
  2

  9
$UCSORG
 10
0.0
 20
0.0
 30
0.0
  9
$UCSXDIR
 10
1.0
 20
0.0
 30
0.0
  9
$UCSYDIR
 10
0.0
 20
1.0
 30
0.0
  9
$UCSORTHOREF
  2

  9
$UCSORTHOVIEW
 70
     0
  9
$UCSORGTOP
 10
0.0
 20
0.0
 30
0.0
  9
$UCSORGBOTTOM
 10
0.0
 20
0.0
 30
0.0
  9
$UCSORGLEFT
 10
0.0
 20
0.0
 30
0.0
  9
$UCSORGRIGHT
 10
0.0
 20
0.0
 30
0.0
  9
$UCSORGFRONT
 10
0.0
 20
0.0
 30
0.0
  9
$UCSORGBACK
 10
0.0
 20
0.0
 30
0.0
  9
$PUCSBASE
  2

  9
$PUCSNAME
  2

  9
$PUCSORG
 10
0.0
 20
0.0
 30
0.0
  9
$PUCSXDIR
 10
1.0
 20
0.0
 30
0.0
  9
$PUCSYDIR
 10
0.0
 20
1.0
 30
0.0
  9
$PUCSORTHOREF
  2

  9
$PUCSORTHOVIEW
 70
     0
  9
$PUCSORGTOP
 10
0.0
 20
0.0
 30
0.0
  9
$PUCSORGBOTTOM
 10
0.0
 20
0.0
 30
0.0
  9
$PUCSORGLEFT
 10
0.0
 20
0.0
 30
0.0
  9
$PUCSORGRIGHT
 10
0.0
 20
0.0
 30
0.0
  9
$PUCSORGFRONT
 10
0.0
 20
0.0
 30
0.0
  9
$PUCSORGBACK
 10
0.0
 20
0.0
 30
0.0
  9
$USERI1
 70
     0
  9
$USERI2
 70
     0
  9
$USERI3
 70
     0
  9
$USERI4
 70
     0
  9
$USERI5
 70
     0
  9
$USERR1
 40
20.0
  9
$USERR2
 40
0.0
  9
$USERR3
 40
0.0
  9
$USERR4
 40
0.0
  9
$USERR5
 40
0.0
  9
$WORLDVIEW
 70
     1
  9
$SHADEDGE
 70
     3
  9
$SHADEDIF
 70
    70
  9
$TILEMODE
 70
     1
  9
$MAXACTVP
 70
    64
  9
$PINSBASE
 10
0.0
 20
0.0
 30
0.0
  9
$PLIMCHECK
 70
     0
  9
$PEXTMIN
 10
1.000000000000000E+20
 20
1.000000000000000E+20
 30
1.000000000000000E+20
  9
$PEXTMAX
 10
-1.000000000000000E+20
 20
-1.000000000000000E+20
 30
-1.000000000000000E+20
  9
$PLIMMIN
 10
0.0
 20
0.0
  9
$PLIMMAX
 10
12.0
 20
9.0
  9
$UNITMODE
 70
     0
  9
$VISRETAIN
 70
     1
  9
$PLINEGEN
 70
     0
  9
$PSLTSCALE
 70
     1
  9
$TREEDEPTH
 70
  3020
  9
$CMLSTYLE
  2
Standard
  9
$CMLJUST
 70
     0
  9
$CMLSCALE
 40
1.0
  9
$PROXYGRAPHICS
 70
     1
  9
$MEASUREMENT
 70
     0
  9
$CELWEIGHT
370
    -1
  9
$ENDCAPS
280
     0
  9
$JOINSTYLE
280
     0
  9
$LWDISPLAY
290
     0
  9
$INSUNITS
 70
     0
  9
$HYPERLINKBASE
  1

  9
$STYLESHEET
  1

  9
$XEDIT
290
     1
  9
$CEPSNTYPE
380
     0
  9
$PSTYLEMODE
290
     1
  9
$FINGERPRINTGUID
  2
{57CDCB03-D538-4B56-9C75-48BC0D236349}
  9
$VERSIONGUID
  2
{CE91B9B8-7C1C-490A-ACC4-CF95E47DE9B1}
  9
$EXTNAMES
290
     1
  9
$PSVPSCALE
 40
0.0
  9
$OLESTARTUP
290
     0
  0
ENDSEC
  0
SECTION
  2
CLASSES
  0
CLASS
  1
ACDBDICTIONARYWDFLT
  2
AcDbDictionaryWithDefault
  3
ObjectDBX Classes
 90
        0
280
     0
281
     0
  0
CLASS
  1
MATERIAL
  2
AcDbMaterial
  3
ObjectDBX Classes
 90
     1153
280
     0
281
     0
  0
CLASS
  1
VISUALSTYLE
  2
AcDbVisualStyle
  3
ObjectDBX Classes
 90
     4095
280
     0
281
     0
  0
CLASS
  1
SCALE
  2
AcDbScale
  3
ObjectDBX Classes
 90
     1153
280
     0
281
     0
  0
CLASS
  1
TABLESTYLE
  2
AcDbTableStyle
  3
ObjectDBX Classes
 90
     4095
280
     0
281
     0
  0
CLASS
  1
MLEADERSTYLE
  2
AcDbMLeaderStyle
  3
ACDB_MLEADERSTYLE_CLASS
 90
     4095
280
     0
281
     0
  0
CLASS
  1
AMGSETTINGSOBJ
  2
AmgSettingsObj
  3
"AcadM|Product Description: AutoCAD Mechanical|Company: Autodesk, Inc."
 90
     1024
280
     0
281
     0
  0
CLASS
  1
ACME_DOCUMENT
  2
AcMeDbDoc
  3
AcMeServices
 90
     1024
280
     0
281
     0
  0
CLASS
  1
ACMESCOPE
  2
AcMeScope
  3
AcMeServices
 90
     1024
280
     0
281
     0
  0
CLASS
  1
ACMECOMMANDHISTORY
  2
AcMeCommandHistory
  3
AcMeServices
 90
     1024
280
     0
281
     0
  0
CLASS
  1
ACIMSYSVARMAN
  2
AcImSysVarManager
  3
AcMeServices
 90
     1024
280
     0
281
     0
  0
CLASS
  1
ACIMREALSYSVAR
  2
AcImRealSysVar
  3
AcMeServices
 90
     1024
280
     0
281
     0
  0
CLASS
  1
ACIMINTSYSVAR
  2
AcImIntSysVar
  3
AcMeServices
 90
     1024
280
     0
281
     0
  0
CLASS
  1
ACMEDRAWINGMAN
  2
AcMeDrawingMan
  3
AcMeServices
 90
     1024
280
     0
281
     0
  0
CLASS
  1
ACMEVIEW
  2
AcMeView
  3
AcMeServices
 90
     1024
280
     0
281
     0
  0
CLASS
  1
ACDBENTITYCACHE
  2
AcMeEntityCache
  3
AcMeServices
 90
     1024
280
     0
281
     0
  0
CLASS
  1
GSMANAGER
  2
AcMeGSManager
  3
AcMeServices
 90
     1024
280
     0
281
     0
  0
CLASS
  1
AMDTINTERNALREACTOR
  2
AmdtInternalReactor
  3
AcMeServices
 90
     1024
280
     0
281
     0
  0
CLASS
  1
ACMESTATEMGR
  2
AcMeStateMgr
  3
AcMeServices
 90
     1024
280
     0
281
     0
  0
CLASS
  1
ACGREFMASTER
  2
AcGrefMaster
  3
AcAttribServices
 90
     1024
280
     0
281
     0
  0
CLASS
  1
AM_DRAWING_MGR
  2
AcDmDwgMgr
  3
AcMechDwgViewMgmt
 90
     1024
280
     0
281
     0
  0
CLASS
  1
AM_DWG_DOCUMENT
  2
AcDmDwgDocument
  3
AcMechDwgViewMgmt
 90
     1024
280
     0
281
     0
  0
CLASS
  1
AM_DWG_SHEET
  2
AcDmSheet
  3
AcMechDwgViewMgmt
 90
     1024
280
     0
281
     0
  0
CLASS
  1
AM_VIEWDIMPARMAP
  2
AcDmViewDimParMap
  3
AcMechDwgViewMgmt
 90
     1024
280
     0
281
     0
  0
CLASS
  1
AM_DWGMGR_NAME
  2
AcDmDwgMgrName
  3
AcMechDwgViewMgmt
 90
     1024
280
     0
281
     0
  0
CLASS
  1
ACME_DATABASE
  2
AcMeDbDatabase
  3
AcMeServices
 90
     1024
280
     0
281
     0
  0
CLASS
  1
ACRFINSADJUSTERMGR
  2
AcRfInsAdjusterMgr
  3
AcMeServices
 90
     1024
280
     0
281
     0
  0
CLASS
  1
ACGREFACADMASTER
  2
AcGrefacadMaster
  3
AcGrefServices
 90
     1024
280
     0
281
     0
  0
CLASS
  1
AMDTMENUSTATEMGR
  2
AmdtMenuStateMgr
  3
McadcomServices
 90
     1024
280
     0
281
     0
  0
CLASS
  1
AMDTMCOMMENUSTATE
  2
AmdtMcomMenuState
  3
McadcomServices
 90
     1024
280
     0
281
     0
  0
CLASS
  1
AMIMASTER
  2
AmiMaster
  3
AmiServices
 90
     1024
280
     0
281
     0
  0
CLASS
  1
ASAPP
  2
AcAsAppObject
  3
AutoSurfServices
 90
     1024
280
     0
281
     0
  0
CLASS
  1
IM_STATIC_MAN
  2
AcImStaticVarManager
  3
AcMeServices
 90
     1024
280
     0
281
     0
  0
CLASS
  1
ACIMSTRSYSVAR
  2
AcImStrSysVar
  3
AcMeServices
 90
     1024
280
     0
281
     0
  0
CLASS
  1
ACIMDBLSTATICVAR
  2
AcImDblStaticVar
  3
AcMeServices
 90
     1024
280
     0
281
     0
  0
CLASS
  1
ACIMSTRSTATICVAR
  2
AcImStrStaticVar
  3
AcMeServices
 90
     1024
280
     0
281
     0
  0
CLASS
  1
ACIMINTSTATICVAR
  2
AcImIntStaticVar
  3
AcMeServices
 90
     1024
280
     0
281
     0
  0
CLASS
  1
ACASGREFMASTER
  2
AcAsGrefMaster
  3
AutoSurfResolverServices
 90
     1024
280
     0
281
     0
  0
CLASS
  1
ACADGREFMODULE
  2
AcAdGrefModule
  3
AdGrefServices
 90
     1024
280
     0
281
     0
  0
CLASS
  1
AMDTMAPISURFMOUDULE
  2
AmdtMApiSurfModule
  3
MApiSurfServices
 90
     1024
280
     0
281
     0
  0
CLASS
  1
MAPIAMMOUDLE
  2
MApiAmModule
  3
MApiAmServices
 90
     1024
280
     0
281
     0
  0
CLASS
  1
AMDTADMENUSTATE
  2
AmdtAdMenuState
  3
DesignerServices
 90
     1024
280
     0
281
     0
  0
CLASS
  1
ADAPPL
  2
AcAdAppl
  3
DesignerServices
 90
     1024
280
     0
281
     0
  0
CLASS
  1
DEPMGR
  2
AcAdDepMgr
  3
DesignerServices
 90
     1024
280
     0
281
     0
  0
CLASS
  1
PARAMMGR
  2
AcAdParamMgr
  3
DesignerServices
 90
     1024
280
     0
281
     0
  0
CLASS
  1
PARAMSCOPE
  2
AcAdParamScope
  3
DesignerServices
 90
     1024
280
     0
281
     0
  0
CLASS
  1
NAMEDAPPL
  2
AcAdNamedAppl
  3
DesignerServices
 90
     1024
280
     0
281
     0
  0
CLASS
  1
AMDTDMMENUSTATE
  2
AmdtDmMenuState
  3
AcMechDwgViewMgmt
 90
     1024
280
     0
281
     0
  0
CLASS
  1
MAPIADMODULE
  2
MApiAdModule
  3
MApiAdServices
 90
     1024
280
     0
281
     0
  0
CLASS
  1
AMDTAMMENUSTATE
  2
AmdtAmMenuState
  3
DesignerAssemblies
 90
     1024
280
     0
281
     0
  0
CLASS
  1
ACAMPROJECT
  2
AcAmProject
  3
DesignerAssemblies
 90
     1024
280
     0
281
     0
  0
CLASS
  1
ACAMGRCOMPDEF
  2
AcAmGrCompDef
  3
DesignerAssemblies
 90
     1024
280
     0
281
     0
  0
CLASS
  1
ACCMCONTEXT
  2
AcCmContext
  3
DesignerAssemblies
 90
     1024
280
     0
281
     0
  0
CLASS
  1
ACAMCOMPDEF
  2
AcAmCompDef
  3
DesignerAssemblies
 90
     1024
280
     0
281
     0
  0
CLASS
  1
ACAMCOMPDEFMGR
  2
AcAmCompDefMgr
  3
DesignerAssemblies
 90
     1024
280
     0
281
     0
  0
CLASS
  1
AMCONTEXTMGR
  2
AcAmContextMgr
  3
DesignerAssemblies
 90
     1024
280
     0
281
     0
  0
CLASS
  1
ACAMCONTEXTMODELER
  2
AcAmContextModeler
  3
DesignerAssemblies
 90
     1024
280
     0
281
     0
  0
CLASS
  1
ACMDATADICTIONARY
  2
AcmDataDictionary
  3
"AcmSymBB|Product Description: AutoCAD Mechanical|Company: Autodesk, Inc."
 90
     1024
280
     0
281
     0
  0
CLASS
  1
ACMDATAENTRYBLOCK
  2
AcmDataEntryBlock
  3
AcmSymBB|Product Description: AutoCAD Mechanical|Company: Autodesk, Inc.
 90
     1024
280
     0
281
     0
  0
CLASS
  1
ACRFATTGENMGR
  2
AcRfAttGeneralMgr
  3
AcAttribServices
 90
     1024
280
     0
281
     0
  0
CLASS
  1
ACRFOBJATTMGR
  2
AcRfObjAttGroupMgr
  3
AcAttribServices
 90
     1024
280
     0
281
     0
  0
CLASS
  1
ACRFMCADAPIATTHOLDER
  2
AcRfMCADAPIAttHolder
  3
AcAttribServices
 90
     1024
280
     0
281
     0
  0
CLASS
  1
AMDTSYSATTR
  2
AmdtSystemAttribute
  3
AcAttribServices
 90
     1024
280
     0
281
     0
  0
CLASS
  1
CATALOGSTATE
  2
AcAmCatalogState
  3
DesignerAssemblies
 90
     1024
280
     0
281
     0
  0
CLASS
  1
ACAMGRCOMPDEFSET
  2
AcAmGrCompDefSet
  3
DesignerAssemblies
 90
     1024
280
     0
281
     0
  0
CLASS
  1
AMDTBROWSERDBTAB
  2
AmdtBrowserDbTab
  3
McadcomServices
 90
     1024
280
     0
281
     0
  0
CLASS
  1
CBROWSERAPPOBJECT
  2
CBrowserAppObject
  3
McadcomServices
 90
     1024
280
     0
281
     0
  0
CLASS
  1
DM_PLACEHOLDER
  2
AcDmSelsetPlaceholder
  3
AcMechDwgViewMgmt
 90
     1024
280
     0
281
     0
  0
CLASS
  1
ACMSTANDARDANSI
  2
AcmStandardANSI
  3
"Amdt_StdImp|Product Description: AutoCAD Mechanical|Company: Autodesk, Inc."
 90
     1024
280
     0
281
     0
  0
CLASS
  1
ACMSURFSTANDARDANSI
  2
AcmSurfTextStdANSI
  3
"Amdt_StdImp|Product Description: AutoCAD Mechanical|Company: Autodesk, Inc."
 90
     1024
280
     0
281
     0
  0
CLASS
  1
ACMFCFSTANDARDANSI
  2
AcmFCFStdANSI
  3
"Amdt_StdImp|Product Description: AutoCAD Mechanical|Company: Autodesk, Inc."
 90
     1024
280
     0
281
     0
  0
CLASS
  1
ACMWELDSTANDARDANSI
  2
AcmWeldingStdANSI
  3
"Amdt_StdImp|Product Description: AutoCAD Mechanical|Company: Autodesk, Inc."
 90
     1024
280
     0
281
     0
  0
CLASS
  1
ACMIDSTANDARDANSI
  2
AcmIdStdANSI
  3
"Amdt_StdImp|Product Description: AutoCAD Mechanical|Company: Autodesk, Inc."
 90
     1024
280
     0
281
     0
  0
CLASS
  1
ACMDATUMSTANDARDANSI
  2
AcmDatumStdANSI
  3
"Amdt_StdImp|Product Description: AutoCAD Mechanical|Company: Autodesk, Inc."
 90
     1024
280
     0
281
     0
  0
CLASS
  1
ACMBOMSTANDARDANSI
  2
AcmBOMStdANSI
  3
"Amdt_StdImp|Product Description: AutoCAD Mechanical|Company: Autodesk, Inc."
 90
     1024
280
     0
281
     0
  0
CLASS
  1
ACMDETAILSTANDARDANSI
  2
AmdtDetailSymStdANSI
  3
"Amdt_StdImp|Product Description: AutoCAD Mechanical|Company: Autodesk, Inc."
 90
     1024
280
     0
281
     0
  0
CLASS
  1
ACMSECTIONSTANDARDANSI
  2
AmdtSectionSymStdANSI
  3
"Amdt_StdImp|Product Description: AutoCAD Mechanical|Company: Autodesk, Inc."
 90
     1024
280
     0
281
     0
  0
CLASS
  1
ACMCENTERLINESTANDARDANSI
  2
AmdtCenterLineStdANSI
  3
"Amdt_StdImp|Product Description: AutoCAD Mechanical|Company: Autodesk, Inc."
 90
     1024
280
     0
281
     0
  0
CLASS
  1
ACMTHREADLINESTANDARDANSI
  2
AmdtThreadLineStdANSI
  3
"Amdt_StdImp|Product Description: AutoCAD Mechanical|Company: Autodesk, Inc."
 90
     1024
280
     0
281
     0
  0
CLASS
  1
ACMNOTESTANDARDANSI
  2
AmdtNoteStdANSI
  3
"Amdt_StdImp|Product Description: AutoCAD Mechanical|Company: Autodesk, Inc."
 90
     1024
280
     0
281
     0
  0
CLASS
  1
ACMTAPERSTANDARDANSI
  2
AcmTaperStdANSI
  3
"Amdt_StdImp|Product Description: AutoCAD Mechanical|Company: Autodesk, Inc."
 90
     1024
280
     0
281
     0
  0
CLASS
  1
ACMANOOTATIONVIEWSTANDARDANSI
  2
AmdtAnViewStdANSI
  3
"Amdt_StdImp|Product Description: AutoCAD Mechanical|Company: Autodesk, Inc."
 90
     1024
280
     0
281
     0
  0
CLASS
  1
ACAMGLAYSTD
  2
AcAmgLayStd
  3
"AmgLay|Product Description: AutoCAD Mechanical|Company: Autodesk, Inc."
 90
     1024
280
     0
281
     0
  0
CLASS
  1
ACAMGDIMSTD
  2
AcAmgDimStd
  3
"AmgDim|Product Description: AutoCAD Mechanical|Company: Autodesk, Inc."
 90
     1024
280
     0
281
     0
  0
CLASS
  1
ACAMGHOLECHARTSTDANSI
  2
AcAmgHoleChartStdANSI
  3
AmgDim|Product Description: AutoCAD Mechanical|Company: Autodesk, Inc.
 90
     1024
280
     0
281
     0
  0
CLASS
  1
AMGOBJPROPCFG
  2
AmgObjPropCfg
  3
"AmgLay|Product Description: AutoCAD Mechanical|Company: Autodesk, Inc."
 90
     1025
280
     0
281
     0
  0
CLASS
  1
ACAMGTITLESTD
  2
AcAmgTitleStd
  3
"AmgTitle|Product Description: AutoCAD Mechanical|Company: Autodesk, Inc."
 90
     4095
280
     0
281
     0
  0
CLASS
  1
AMDTNOTETEMPLATEDB
  2
AmdtNoteTemplateDB
  3
AcmSymBB|Product Description: AutoCAD Mechanical|Company: Autodesk, Inc.
 90
     1024
280
     0
281
     0
  0
CLASS
  1
LAYER_INDEX
  2
AcDbLayerIndex
  3
ObjectDBX Classes
 90
        0
280
     0
281
     0
  0
CLASS
  1
IDBUFFER
  2
AcDbIdBuffer
  3
ObjectDBX Classes
 90
        0
280
     0
281
     0
  0
CLASS
  1
DICTIONARYVAR
  2
AcDbDictionaryVar
  3
ObjectDBX Classes
 90
        0
280
     0
281
     0
  0
CLASS
  1
CELLSTYLEMAP
  2
AcDbCellStyleMap
  3
ObjectDBX Classes
 90
     1152
280
     0
281
     0
  0
CLASS
  1
ACDBPLACEHOLDER
  2
AcDbPlaceHolder
  3
ObjectDBX Classes
 90
        0
280
     0
281
     0
  0
CLASS
  1
LAYOUT
  2
AcDbLayout
  3
ObjectDBX Classes
 90
        0
280
     0
281
     0
  0
ENDSEC
  0
SECTION
  2
TABLES
  0
TABLE
  2
VPORT
  5
2DE3
330
0
100
AcDbSymbolTable
 70
     1
  0
VPORT
  5
2E53
330
2DE3
100
AcDbSymbolTableRecord
100
AcDbViewportTableRecord
  2
*ACTIVE
 70
     0
 10
0.0
 20
0.0
 11
1.0
 21
1.0
 12
0.0
 22
0.0
 13
0.0
 23
0.0
 14
1.0
 24
1.0
 15
0.0
 25
0.0
 16
0.0
 26
0.0
 36
1.0
 17
503.7162924927137
 27
-280.0598050002709
 37
0.0
 40
2284.296618927993
 41
1.712555066079295
 42
50.0
 43
0.0
 44
0.0
 50
0.0
 51
0.0
 71
     0
 72
   100
 73
     1
 74
     0
 75
     0
 76
     0
 77
     0
 78
     0
281
     0
 65
     0
110
0.0
120
0.0
130
0.0
111
1.0
121
0.0
131
0.0
112
0.0
122
1.0
132
0.0
 79
     0
146
0.0
  0
ENDTAB
  0
TABLE
  2
LTYPE
  5
2DE0
330
0
100
AcDbSymbolTable
 70
    20
  0
LTYPE
  5
2E3D
330
2DE0
100
AcDbSymbolTableRecord
100
AcDbLinetypeTableRecord
  2
ByBlock
 70
     0
  3

 72
    65
 73
     0
 40
0.0
  0
LTYPE
  5
2E3E
330
2DE0
100
AcDbSymbolTableRecord
100
AcDbLinetypeTableRecord
  2
ByLayer
 70
     0
  3

 72
    65
 73
     0
 40
0.0
  0
LTYPE
  5
2E3F
330
2DE0
100
AcDbSymbolTableRecord
100
AcDbLinetypeTableRecord
  2
CONTINUOUS
 70
     0
  3
実線
 72
    65
 73
     0
 40
0.0
  0
LTYPE
  5
2E54
330
2DE0
100
AcDbSymbolTableRecord
100
AcDbLinetypeTableRecord
  2
DASHDOT
 70
     0
  3
____ _ ____ _ ____ _ ____ _ ____ _ ____ _ ____
 72
    65
 73
     4
 40
5.5
 49
4.0
 74
     0
 49
-0.6
 74
     0
 49
0.3
 74
     0
 49
-0.6
 74
     0
  0
LTYPE
  5
2E55
330
2DE0
100
AcDbSymbolTableRecord
100
AcDbLinetypeTableRecord
  2
HIDDEN
 70
     0
  3
Hidden __ __ __ __ __ __ __ __ __ __ __ __ __ _
 72
    65
 73
     2
 40
0.375
 49
0.25
 74
     0
 49
-0.125
 74
     0
  0
LTYPE
  5
2E56
330
2DE0
100
AcDbSymbolTableRecord
100
AcDbLinetypeTableRecord
  2
PHANTOM2
 70
     0
  3
Phantom (.5x) ___ _ _ ___ _ _ ___ _ _ ___ _ _
 72
    65
 73
     6
 40
1.25
 49
0.625
 74
     0
 49
-0.125
 74
     0
 49
0.125
 74
     0
 49
-0.125
 74
     0
 49
0.125
 74
     0
 49
-0.125
 74
     0
  0
LTYPE
  5
2E57
330
2DE0
100
AcDbSymbolTableRecord
100
AcDbLinetypeTableRecord
  2
CENTER
 70
     0
  3
Center ____ _ ____ _ ____ _ ____ _ ____ _ ____
 72
    65
 73
     4
 40
2.0
 49
1.25
 74
     0
 49
-0.25
 74
     0
 49
0.25
 74
     0
 49
-0.25
 74
     0
  0
LTYPE
  5
2E58
330
2DE0
100
AcDbSymbolTableRecord
100
AcDbLinetypeTableRecord
  2
ASULTYPE
 70
     0
  3
実線
 72
    65
 73
     2
 40
3.0
 49
2.5
 74
     0
 49
0.5
 74
     0
  0
LTYPE
  5
2E59
330
2DE0
100
AcDbSymbolTableRecord
100
AcDbLinetypeTableRecord
  2
ASVLTYPE
 70
     0
  3
__ __ __ __ __ __ __ __ __ __ __ __ __ __ __ __ __ __ __ __ __
 72
    65
 73
     2
 40
0.75
 49
0.5
 74
     0
 49
-0.25
 74
     0
  0
LTYPE
  5
2E5A
330
2DE0
100
AcDbSymbolTableRecord
100
AcDbLinetypeTableRecord
  2
AM_ISO02W050
 70
     0
  3
__ __ __ __ __ __ __ __ __ __ __ __ __ __ __
 72
    65
 73
     2
 40
7.5
 49
6.0
 74
     0
 49
-1.5
 74
     0
  0
LTYPE
  5
2E5B
330
2DE0
100
AcDbSymbolTableRecord
100
AcDbLinetypeTableRecord
  2
AM_ISO08W050
 70
     0
  3
____ . ____ . ____ . ____ . ____ . ____ . ____
 72
    65
 73
     4
 40
18.0
 49
12.0
 74
     0
 49
-1.5
 74
     0
 49
3.0
 74
     0
 49
-1.5
 74
     0
  0
LTYPE
  5
2E5C
330
2DE0
100
AcDbSymbolTableRecord
100
AcDbLinetypeTableRecord
  2
AM_ISO09W050
 70
     0
  3
_____ . . _____ . . _____ . . ____ .. ____
 72
    65
 73
     6
 40
22.5
 49
12.0
 74
     0
 49
-1.5
 74
     0
 49
3.0
 74
     0
 49
-1.5
 74
     0
 49
3.0
 74
     0
 49
-1.5
 74
     0
  0
LTYPE
  5
2E5D
330
2DE0
100
AcDbSymbolTableRecord
100
AcDbLinetypeTableRecord
  2
AMCONSTR
 70
     0
  3
_______________________
 72
    65
 73
     2
 40
9999.0
 49
9999.0
 74
     0
 49
0.0
 74
     0
  0
LTYPE
  5
2E5E
330
2DE0
100
AcDbSymbolTableRecord
100
AcDbLinetypeTableRecord
  2
AM_ISO08W050X2
 70
     0
  3
__ . __ . __ . __ . __ . __
 72
    65
 73
     4
 40
9.0
 49
6.0
 74
     0
 49
-0.75
 74
     0
 49
1.5
 74
     0
 49
-0.75
 74
     0
  0
LTYPE
  5
2E5F
330
2DE0
100
AcDbSymbolTableRecord
100
AcDbLinetypeTableRecord
  2
AM_ISO02W050X2
 70
     0
  3
 _ _ _ _ _ _ _ _ _ _ _ _
 72
    65
 73
     2
 40
3.75
 49
3.0
 74
     0
 49
-0.75
 74
     0
  0
LTYPE
  5
2E60
330
2DE0
100
AcDbSymbolTableRecord
100
AcDbLinetypeTableRecord
  2
AMZIGZAG
 70
     0
  3
/\/-/\/-/\/-/\/-/\/-/\/
 72
    65
 73
     2
 40
11.0001
 49
0.0001
 74
     0
 49
-11.0
 74
     0
  0
LTYPE
  5
2E61
330
2DE0
100
AcDbSymbolTableRecord
100
AcDbLinetypeTableRecord
  2
CENTER2
 70
     0
  3
Center (.5x) ___ _ ___ _ ___ _ ___ _ ___ _ ___
 72
    65
 73
     4
 40
1.125
 49
0.75
 74
     0
 49
-0.125
 74
     0
 49
0.125
 74
     0
 49
-0.125
 74
     0
  0
LTYPE
  5
2E62
330
2DE0
100
AcDbSymbolTableRecord
100
AcDbLinetypeTableRecord
  2
HIDDEN2
 70
     0
  3
Hidden (.5x) _ _ _ _ _ _ _ _ _ _ _ _ _ _ _ _ _
 72
    65
 73
     2
 40
0.1875
 49
0.125
 74
     0
 49
-0.0625
 74
     0
  0
LTYPE
  5
2E63
330
2DE0
100
AcDbSymbolTableRecord
100
AcDbLinetypeTableRecord
  2
AMZIGZAG2
 70
     0
  3
/\/-/\/-/\/-/\/-/\/-/\/
 72
    65
 73
     2
 40
0.4401
 49
0.0001
 74
     0
 49
-0.4400000000000003
 74
     0
  0
LTYPE
  5
2E64
330
2DE0
100
AcDbSymbolTableRecord
100
AcDbLinetypeTableRecord
  2
ACANSTGB
 70
     0
  3
__ . . __ . .
 72
    65
 73
     6
 40
0.35433070866
 49
0.15748031496
 74
     0
 49
-0.03937007874
 74
     0
 49
0.03937007874
 74
     0
 49
-0.03937007874
 74
     0
 49
0.03937007874
 74
     0
 49
-0.03937007874
 74
     0
  0
LTYPE
  5
2E65
330
2DE0
100
AcDbSymbolTableRecord
100
AcDbLinetypeTableRecord
  2
ACANSTGL
 70
     0
  3
_ _ _ _ _
 72
    65
 73
     2
 40
0.11811023622
 49
0.07874015748
 74
     0
 49
-0.03937007874
 74
     0
  0
LTYPE
  5
2E66
330
2DE0
100
AcDbSymbolTableRecord
100
AcDbLinetypeTableRecord
  2
CENTERX2
 70
     0
  3
________  __  ________  __  ________  __  _____
 72
    65
 73
     4
 40
4.0
 49
2.5
 74
     0
 49
-0.5
 74
     0
 49
0.5
 74
     0
 49
-0.5
 74
     0
  0
ENDTAB
  0
TABLE
  2
LAYER
  5
2DDD
330
0
100
AcDbSymbolTable
 70
    13
  0
LAYER
  5
2E37
102
{ACAD_XDICTIONARY
360
2FAB
102
}
330
2DDD
100
AcDbSymbolTableRecord
100
AcDbLayerTableRecord
  2
0
 70
     0
 62
     7
  6
CONTINUOUS
370
    -3
390
2DEA
  0
LAYER
  5
2E67
102
{ACAD_XDICTIONARY
360
2FAD
102
}
330
2DDD
100
AcDbSymbolTableRecord
100
AcDbLayerTableRecord
  2
OUTLINE
 70
     0
 62
     3
  6
CONTINUOUS
370
    -3
390
2DEA
  0
LAYER
  5
2E68
102
{ACAD_XDICTIONARY
360
2FAF
102
}
330
2DDD
100
AcDbSymbolTableRecord
100
AcDbLayerTableRecord
  2
SIZE
 70
     0
 62
    30
  6
CONTINUOUS
370
    -3
390
2DEA
  0
LAYER
  5
2E69
102
{ACAD_XDICTIONARY
360
2FB1
102
}
330
2DDD
100
AcDbSymbolTableRecord
100
AcDbLayerTableRecord
  2
BASIS
 70
     0
 62
     6
  6
DASHDOT
370
    -3
390
2DEA
  0
LAYER
  5
2E6A
102
{ACAD_XDICTIONARY
360
2FB3
102
}
330
2DDD
100
AcDbSymbolTableRecord
100
AcDbLayerTableRecord
  2
DETAIL
 70
     0
 62
     5
  6
CONTINUOUS
370
    -3
390
2DEA
  0
LAYER
  5
2E6B
102
{ACAD_XDICTIONARY
360
2FB5
102
}
330
2DDD
100
AcDbSymbolTableRecord
100
AcDbLayerTableRecord
  2
ARRANGE
 70
     0
 62
     1
  6
CONTINUOUS
370
    -3
390
2DEA
  0
LAYER
  5
2E6C
330
2DDD
100
AcDbSymbolTableRecord
100
AcDbLayerTableRecord
  2
DEFPOINTS
 70
     0
 62
     7
  6
CONTINUOUS
290
     0
370
    -3
390
2DEA
  0
LAYER
  5
2E6D
102
{ACAD_XDICTIONARY
360
2FB7
102
}
330
2DDD
100
AcDbSymbolTableRecord
100
AcDbLayerTableRecord
  2
ETC
 70
     0
 62
    61
  6
CONTINUOUS
370
    -3
390
2DEA
  0
LAYER
  5
2E6E
102
{ACAD_XDICTIONARY
360
2FB9
102
}
330
2DDD
100
AcDbSymbolTableRecord
100
AcDbLayerTableRecord
  2
FIX
 70
     0
 62
    11
  6
CONTINUOUS
370
    -3
390
2DEA
  0
LAYER
  5
2E6F
102
{ACAD_XDICTIONARY
360
2FBB
102
}
330
2DDD
100
AcDbSymbolTableRecord
100
AcDbLayerTableRecord
  2
NOTE
 70
     0
 62
     4
  6
CONTINUOUS
370
    -3
390
2DEA
  0
LAYER
  5
2E70
102
{ACAD_XDICTIONARY
360
2FBD
102
}
330
2DDD
100
AcDbSymbolTableRecord
100
AcDbLayerTableRecord
  2
SERVICESPACE
 70
     0
 62
     2
  6
DASHDOT
370
    -3
390
2DEA
  0
LAYER
  5
2E71
102
{ACAD_XDICTIONARY
360
2FBF
102
}
330
2DDD
100
AcDbSymbolTableRecord
100
AcDbLayerTableRecord
  2
SYMBOLLINE
 70
     0
 62
    15
  6
CONTINUOUS
370
    -3
390
2DEA
  0
LAYER
  5
2E72
102
{ACAD_XDICTIONARY
360
2FC1
102
}
330
2DDD
100
AcDbSymbolTableRecord
100
AcDbLayerTableRecord
  2
BASIC
 70
     0
 62
     6
  6
CENTERX2
370
    -3
390
2DEA
  0
ENDTAB
  0
TABLE
  2
STYLE
  5
2DDE
330
0
100
AcDbSymbolTable
 70
     5
  0
STYLE
  5
2E38
330
2DDE
100
AcDbSymbolTableRecord
100
AcDbTextStyleTableRecord
  2
STANDARD
 70
     0
 40
64.0
 41
0.9
 50
0.0
 71
     0
 42
64.0
  3
SIMPLEX.shx
  4
BIGFONT.shx
  0
STYLE
  5
2E3C
330
2DDE
100
AcDbSymbolTableRecord
100
AcDbTextStyleTableRecord
  2
ANNOTATIVE
 70
     0
 40
0.0
 41
1.0
 50
0.0
 71
     0
 42
0.2
  3
txt
  4

1001
ACADANNOTATIVE
1000
AnnotativeData
1002
{
1070
     1
1070
     1
1002
}
  0
STYLE
  5
2E73
330
2DDE
100
AcDbSymbolTableRecord
100
AcDbTextStyleTableRecord
  2

 70
     1
 40
0.0
 41
1.0
 50
0.0
 71
     0
 42
64.0
  3
genltshp.shx
  4

  0
STYLE
  5
2E74
330
2DDE
100
AcDbSymbolTableRecord
100
AcDbTextStyleTableRecord
  2
ACANSTS
 70
     0
 40
1.0
 41
1.0
 50
0.0
 71
     0
 42
64.0
  3
romans.shx
  4
extfont.shx
  0
STYLE
  5
2E75
330
2DDE
100
AcDbSymbolTableRecord
100
AcDbTextStyleTableRecord
  2
ACANSGDT
 70
     0
 40
0.0
 41
1.0
 50
0.0
 71
     0
 42
64.0
  3
amgdt.shx
  4

  0
ENDTAB
  0
TABLE
  2
VIEW
  5
2DE1
330
0
100
AcDbSymbolTable
 70
     1
  0
VIEW
  5
2E76
330
2DE1
100
AcDbSymbolTableRecord
100
AcDbViewTableRecord
  2
ALL
 70
     0
 40
4282.619807999997
 10
0.0
 20
41.30990399999999
 41
5940.0
 11
0.0
 21
0.0
 31
1.0
 12
0.0
 22
0.0
 32
0.0
 42
50.0
 43
0.0
 44
0.0
 50
0.0
 71
     0
281
     0
 72
     1
110
0.0
120
0.0
130
0.0
111
1.0
121
0.0
131
0.0
112
0.0
122
1.0
132
0.0
 79
     0
146
0.0
  0
ENDTAB
  0
TABLE
  2
UCS
  5
2DE2
330
0
100
AcDbSymbolTable
 70
     0
  0
ENDTAB
  0
TABLE
  2
APPID
  5
2DE4
330
0
100
AcDbSymbolTable
 70
    32
  0
APPID
  5
2E39
330
2DE4
100
AcDbSymbolTableRecord
100
AcDbRegAppTableRecord
  2
ACAD
 70
     0
  0
APPID
  5
2E40
330
2DE4
100
AcDbSymbolTableRecord
100
AcDbRegAppTableRecord
  2
ACADANNOTATIVE
 70
     0
  0
APPID
  5
2E4A
330
2DE4
100
AcDbSymbolTableRecord
100
AcDbRegAppTableRecord
  2
ACAD_MLEADERVER
 70
     0
  0
APPID
  5
2E77
330
2DE4
100
AcDbSymbolTableRecord
100
AcDbRegAppTableRecord
  2
GENIUS_GENDIM_13
 70
     0
  0
APPID
  5
2E78
330
2DE4
100
AcDbSymbolTableRecord
100
AcDbRegAppTableRecord
  2
GENIUS_GENDTOL_13
 70
     0
  0
APPID
  5
2E79
330
2DE4
100
AcDbSymbolTableRecord
100
AcDbRegAppTableRecord
  2
GENIUS_GE3DTOL_13
 70
     0
  0
APPID
  5
2E7A
330
2DE4
100
AcDbSymbolTableRecord
100
AcDbRegAppTableRecord
  2
MCAD_NO_VIS
 70
     0
  0
APPID
  5
2E7B
330
2DE4
100
AcDbSymbolTableRecord
100
AcDbRegAppTableRecord
  2
ACAD_TEMP_GRAPHIC
 70
     0
  0
APPID
  5
2E7C
330
2DE4
100
AcDbSymbolTableRecord
100
AcDbRegAppTableRecord
  2
AD_DRAW
 70
     0
  0
APPID
  5
2E7D
330
2DE4
100
AcDbSymbolTableRecord
100
AcDbRegAppTableRecord
  2
ACATTRIBSERVICES
 70
     0
  0
APPID
  5
2E7E
330
2DE4
100
AcDbSymbolTableRecord
100
AcDbRegAppTableRecord
  2
ASURF_PCURVE_APPNAME
 70
     0
  0
APPID
  5
2E7F
330
2DE4
100
AcDbSymbolTableRecord
100
AcDbRegAppTableRecord
  2
AMG_3D2D_5_0
 70
     0
  0
APPID
  5
2E80
330
2DE4
100
AcDbSymbolTableRecord
100
AcDbRegAppTableRecord
  2
DESIGNERASSEMBLIES
 70
     0
  0
APPID
  5
2E81
330
2DE4
100
AcDbSymbolTableRecord
100
AcDbRegAppTableRecord
  2
ACADM_DIM_EDIT
 70
     0
  0
APPID
  5
2E82
330
2DE4
100
AcDbSymbolTableRecord
100
AcDbRegAppTableRecord
  2
AMDT_DM_ADJ
 70
     0
  0
APPID
  5
2E83
330
2DE4
100
AcDbSymbolTableRecord
100
AcDbRegAppTableRecord
  2
ACAD_DSTYLE_DIMARC_LENGTH_
 70
     0
  0
APPID
  5
2E84
330
2DE4
100
AcDbSymbolTableRecord
100
AcDbRegAppTableRecord
  2
ACAD_DSTYLE_DIMJOGGED_JOGA
 70
     0
  0
APPID
  5
2E85
330
2DE4
100
AcDbSymbolTableRecord
100
AcDbRegAppTableRecord
  2
ACAD_PSEXT
 70
     0
  0
APPID
  5
2E86
330
2DE4
100
AcDbSymbolTableRecord
100
AcDbRegAppTableRecord
  2
ACAD_EXEMPT_FROM_CAD_STANDARDS
 70
     0
  0
APPID
  5
2E87
330
2DE4
100
AcDbSymbolTableRecord
100
AcDbRegAppTableRecord
  2
ACAD_DSTYLE_DIMJAG
 70
     0
  0
APPID
  5
2E88
330
2DE4
100
AcDbSymbolTableRecord
100
AcDbRegAppTableRecord
  2
ACAD_DSTYLE_DIMTALN
 70
     0
  0
APPID
  5
2E89
330
2DE4
100
AcDbSymbolTableRecord
100
AcDbRegAppTableRecord
  2
AMG_3D2D_5_00
 70
     0
  0
APPID
  5
2E8A
330
2DE4
100
AcDbSymbolTableRecord
100
AcDbRegAppTableRecord
  2
AMG_3D2D_5_01
 70
     0
  0
APPID
  5
2E8B
330
2DE4
100
AcDbSymbolTableRecord
100
AcDbRegAppTableRecord
  2
ACAD_DSTYLE_DIMJOGGED_JOG0
 70
     0
  0
APPID
  5
2E8C
330
2DE4
100
AcDbSymbolTableRecord
100
AcDbRegAppTableRecord
  2
AMG_3D2D_5_02
 70
     0
  0
APPID
  5
2E8D
330
2DE4
100
AcDbSymbolTableRecord
100
AcDbRegAppTableRecord
  2
ACAD_DSTYLE_DIMJOGGED_JOG1
 70
     0
  0
APPID
  5
2E8E
330
2DE4
100
AcDbSymbolTableRecord
100
AcDbRegAppTableRecord
  2
AMG_3D2D_5_03
 70
     0
  0
APPID
  5
2F52
330
2DE4
100
AcDbSymbolTableRecord
100
AcDbRegAppTableRecord
  2
AMG_3D2D_5.0
 70
     0
  0
APPID
  5
2FEB
330
2DE4
100
AcDbSymbolTableRecord
100
AcDbRegAppTableRecord
  2
ACAD_DSTYLE_DIMARC_LENGTH_SYMBOL
 70
     0
  0
APPID
  5
2FEC
330
2DE4
100
AcDbSymbolTableRecord
100
AcDbRegAppTableRecord
  2
ACAD_DSTYLE_DIM_LINETYPE
 70
     0
  0
APPID
  5
2FED
330
2DE4
100
AcDbSymbolTableRecord
100
AcDbRegAppTableRecord
  2
ACAD_DSTYLE_DIM_EXT1_LINETYPE
 70
     0
  0
APPID
  5
2FEE
330
2DE4
100
AcDbSymbolTableRecord
100
AcDbRegAppTableRecord
  2
ACAD_DSTYLE_DIM_EXT2_LINETYPE
 70
     0
  0
ENDTAB
  0
TABLE
  2
DIMSTYLE
  5
2DE5
330
0
100
AcDbSymbolTable
 70
    10
100
AcDbDimStyleTable
 71
     1
340
2E8F
  0
DIMSTYLE
105
2E3A
330
2DE5
100
AcDbSymbolTableRecord
100
AcDbDimStyleTableRecord
  2
STANDARD
 70
     0
 41
12.0
 42
20.0
 44
20.0
 77
     1
 78
     8
140
64.0
141
0.0
147
10.0
172
     1
275
     1
279
     2
284
     7
285
     7
286
     7
340
2E38
  0
DIMSTYLE
105
2E3B
330
2DE5
100
AcDbSymbolTableRecord
100
AcDbDimStyleTableRecord
  2
ANNOTATIVE
 70
     0
275
     1
279
     2
284
     7
285
     7
286
     7
340
2E38
1001
ACADANNOTATIVE
1000
AnnotativeData
1002
{
1070
     1
1070
     1
1002
}
  0
DIMSTYLE
105
2E8F
330
2DE5
100
AcDbSymbolTableRecord
100
AcDbDimStyleTableRecord
  2
AM_ANSI
 70
     0
  4
mm
 41
0.12
 42
0.05
 43
0.5
 44
0.1
 47
0.1
 48
0.1
 78
     7
 79
     2
140
0.12
141
0.0
146
0.71
147
0.06
176
   256
177
   256
178
     2
274
     4
284
     7
340
2E38
371
    -1
372
    -1
1001
ACAD_DSTYLE_DIMARC_LENGTH_SYMBOL
1070
   379
1070
     1
1001
ACAD_DSTYLE_DIM_LINETYPE
1070
   380
1005
2E3D
1001
ACAD_DSTYLE_DIM_EXT1_LINETYPE
1070
   381
1005
2E3D
1001
ACAD_DSTYLE_DIM_EXT2_LINETYPE
1070
   382
1005
2E3D
  0
DIMSTYLE
105
2E90
330
2DE5
100
AcDbSymbolTableRecord
100
AcDbDimStyleTableRecord
  2
AM_ANSI$3
 70
     0
  4
mm
 41
0.12
 42
0.05
 43
0.5
 44
0.1
 47
0.1
 48
0.1
 78
     7
 79
     2
140
0.12
141
0.0
146
0.71
147
0.06
176
   256
177
   256
178
     2
274
     4
284
     7
288
     1
289
     0
340
2E38
371
    -1
372
    -1
1001
ACAD_DSTYLE_DIMARC_LENGTH_SYMBOL
1070
   379
1070
     1
1001
ACAD_DSTYLE_DIM_LINETYPE
1070
   380
1005
2E3D
1001
ACAD_DSTYLE_DIM_EXT1_LINETYPE
1070
   381
1005
2E3D
1001
ACAD_DSTYLE_DIM_EXT2_LINETYPE
1070
   382
1005
2E3D
  0
DIMSTYLE
105
2E91
330
2DE5
100
AcDbSymbolTableRecord
100
AcDbDimStyleTableRecord
  2
AM_ANSI$4
 70
     0
  4
mm
 41
0.12
 42
0.05
 43
0.5
 44
0.1
 47
0.1
 48
0.1
 78
     7
 79
     2
140
0.12
141
0.0
146
0.71
147
0.06
176
   256
177
   256
178
     2
274
     4
284
     7
340
2E38
371
    -1
372
    -1
1001
ACAD_DSTYLE_DIMARC_LENGTH_SYMBOL
1070
   379
1070
     1
1001
ACAD_DSTYLE_DIM_LINETYPE
1070
   380
1005
2E3D
1001
ACAD_DSTYLE_DIM_EXT1_LINETYPE
1070
   381
1005
2E3D
1001
ACAD_DSTYLE_DIM_EXT2_LINETYPE
1070
   382
1005
2E3D
  0
DIMSTYLE
105
2E92
330
2DE5
100
AcDbSymbolTableRecord
100
AcDbDimStyleTableRecord
  2
AM_ANSI$7
 70
     0
  4
mm
 41
0.12
 42
0.05
 43
0.5
 44
0.1
 47
0.1
 48
0.1
 78
     7
 79
     2
140
0.12
141
0.0
146
0.71
147
0.06
176
   256
177
   256
178
     2
274
     4
284
     7
340
2E38
371
    -1
372
    -1
1001
ACAD_DSTYLE_DIMARC_LENGTH_SYMBOL
1070
   379
1070
     1
1001
ACAD_DSTYLE_DIM_LINETYPE
1070
   380
1005
2E3D
1001
ACAD_DSTYLE_DIM_EXT1_LINETYPE
1070
   381
1005
2E3D
1001
ACAD_DSTYLE_DIM_EXT2_LINETYPE
1070
   382
1005
2E3D
  0
DIMSTYLE
105
2E93
330
2DE5
100
AcDbSymbolTableRecord
100
AcDbDimStyleTableRecord
  2
AM_ANSI$SF
 70
     0
  4
mm
 41
0.12
 42
0.05
 43
0.5
 44
0.1
 47
0.1
 48
0.1
 75
     1
 76
     1
 78
     7
 79
     2
140
0.12
141
0.0
146
0.71
147
0.06
176
   256
177
   256
178
     2
274
     4
284
     7
340
2E38
371
    -1
372
    -1
1001
ACAD_DSTYLE_DIMARC_LENGTH_SYMBOL
1070
   379
1070
     1
1001
ACAD_DSTYLE_DIM_LINETYPE
1070
   380
1005
2E3D
1001
ACAD_DSTYLE_DIM_EXT1_LINETYPE
1070
   381
1005
2E3D
1001
ACAD_DSTYLE_DIM_EXT2_LINETYPE
1070
   382
1005
2E3D
  0
DIMSTYLE
105
2E94
330
2DE5
100
AcDbSymbolTableRecord
100
AcDbDimStyleTableRecord
  2
AM_ANSI$SH
 70
     0
  4
mm
 41
0.12
 42
0.05
 43
0.5
 44
0.1
 47
0.1
 48
0.1
 75
     1
 76
     1
 78
     7
 79
     2
140
0.12
141
0.0
146
0.71
147
0.06
173
     1
176
   256
177
   256
178
     2
274
     4
284
     7
340
2E38
343
2EA8
371
    -1
372
    -1
1001
ACAD_DSTYLE_DIMARC_LENGTH_SYMBOL
1070
   379
1070
     1
1001
ACAD_DSTYLE_DIM_LINETYPE
1070
   380
1005
2E3D
1001
ACAD_DSTYLE_DIM_EXT1_LINETYPE
1070
   381
1005
2E3D
1001
ACAD_DSTYLE_DIM_EXT2_LINETYPE
1070
   382
1005
2E3D
  0
DIMSTYLE
105
2E95
330
2DE5
100
AcDbSymbolTableRecord
100
AcDbDimStyleTableRecord
  2
STANDARD1
 70
     0
 40
6.0
 41
2.5
 42
0.625
 43
6.0
 44
1.25
 47
1.0
 48
0.5
 77
     1
 78
     8
140
2.5
141
0.0
146
0.6
147
1.0
173
     1
275
     1
279
     2
284
     7
285
     7
286
     7
340
2E38
  0
DIMSTYLE
105
2E96
330
2DE5
100
AcDbSymbolTableRecord
100
AcDbDimStyleTableRecord
  2
STANDARD$0
 70
     0
 41
12.0
 42
20.0
 44
20.0
 73
     0
 74
     0
 77
     1
 78
     8
140
64.0
141
0.0
147
10.0
172
     1
275
     1
279
     2
284
     7
285
     7
286
     7
340
2E38
  0
ENDTAB
  0
TABLE
  2
BLOCK_RECORD
  5
2DDC
330
0
100
AcDbSymbolTable
 70
    26
  0
BLOCK_RECORD
  5
2E4F
102
{ACAD_XDICTIONARY
360
2FC3
102
}
330
2DDC
100
AcDbSymbolTableRecord
100
AcDbBlockTableRecord
  2
*Model_Space
340
2E52
  0
BLOCK_RECORD
  5
2E4B
330
2DDC
100
AcDbSymbolTableRecord
100
AcDbBlockTableRecord
  2
*Paper_Space
340
2E4E
  0
BLOCK_RECORD
  5
2E9E
330
2DDC
100
AcDbSymbolTableRecord
100
AcDbBlockTableRecord
  2
$MODEL_SPACE
340
0
  0
BLOCK_RECORD
  5
2EA0
330
2DDC
100
AcDbSymbolTableRecord
100
AcDbBlockTableRecord
  2
$PAPER_SPACE
340
0
  0
BLOCK_RECORD
  5
2EA2
330
2DDC
100
AcDbSymbolTableRecord
100
AcDbBlockTableRecord
  2
_ORIGIN
340
0
  0
BLOCK_RECORD
  5
2EA4
330
2DDC
100
AcDbSymbolTableRecord
100
AcDbBlockTableRecord
  2
_DOTBLANK
340
0
102
{BLKREFS
331
202C
331
202D
331
2035
331
2036
331
203E
331
203F
331
2047
331
2048
331
2052
331
2053
331
205D
331
205E
331
2D53
331
2D54
331
2D58
331
2D59
331
2D5F
331
2D60
331
2D64
331
2D65
331
2D69
331
2D6A
331
2D6F
331
2D70
331
2D74
331
2D75
331
2D79
331
2D7A
331
2D7E
331
2D7F
331
2D83
331
2D84
331
2D8A
331
2D8B
102
}
  0
BLOCK_RECORD
  5
2EA6
330
2DDC
100
AcDbSymbolTableRecord
100
AcDbBlockTableRecord
  2
_OPEN30
340
0
102
{BLKREFS
331
2199
331
270D
331
2A65
331
2D98
102
}
  0
BLOCK_RECORD
  5
2EA8
330
2DDC
100
AcDbSymbolTableRecord
100
AcDbBlockTableRecord
  2
GENAXEH
340
0
  0
BLOCK_RECORD
  5
2EAA
330
2DDC
100
AcDbSymbolTableRecord
100
AcDbBlockTableRecord
  2
*U6
340
0
  0
BLOCK_RECORD
  5
2EAC
330
2DDC
100
AcDbSymbolTableRecord
100
AcDbBlockTableRecord
  2
*D7
340
0
  0
BLOCK_RECORD
  5
2EAE
330
2DDC
100
AcDbSymbolTableRecord
100
AcDbBlockTableRecord
  2
*U8
340
0
102
{BLKREFS
331
202E
102
}
  0
BLOCK_RECORD
  5
2EB0
330
2DDC
100
AcDbSymbolTableRecord
100
AcDbBlockTableRecord
  2
*D9
340
0
  0
BLOCK_RECORD
  5
2EB2
330
2DDC
100
AcDbSymbolTableRecord
100
AcDbBlockTableRecord
  2
*U10
340
0
102
{BLKREFS
331
2037
102
}
  0
BLOCK_RECORD
  5
2EB4
330
2DDC
100
AcDbSymbolTableRecord
100
AcDbBlockTableRecord
  2
*D11
340
0
  0
BLOCK_RECORD
  5
2EB6
330
2DDC
100
AcDbSymbolTableRecord
100
AcDbBlockTableRecord
  2
*U12
340
0
102
{BLKREFS
331
2040
102
}
  0
BLOCK_RECORD
  5
2EB8
330
2DDC
100
AcDbSymbolTableRecord
100
AcDbBlockTableRecord
  2
*D13
340
0
  0
BLOCK_RECORD
  5
2EBA
330
2DDC
100
AcDbSymbolTableRecord
100
AcDbBlockTableRecord
  2
*U14
340
0
102
{BLKREFS
331
2049
102
}
  0
BLOCK_RECORD
  5
2EBC
330
2DDC
100
AcDbSymbolTableRecord
100
AcDbBlockTableRecord
  2
*D15
340
0
  0
BLOCK_RECORD
  5
2EBE
330
2DDC
100
AcDbSymbolTableRecord
100
AcDbBlockTableRecord
  2
*U16
340
0
102
{BLKREFS
331
2054
102
}
  0
BLOCK_RECORD
  5
2EC0
330
2DDC
100
AcDbSymbolTableRecord
100
AcDbBlockTableRecord
  2
*D17
340
0
  0
BLOCK_RECORD
  5
2EC2
330
2DDC
100
AcDbSymbolTableRecord
100
AcDbBlockTableRecord
  2
*U18
340
0
102
{BLKREFS
331
205F
102
}
  0
BLOCK_RECORD
  5
2EC4
330
2DDC
100
AcDbSymbolTableRecord
100
AcDbBlockTableRecord
  2
*U19
340
0
  0
BLOCK_RECORD
  5
2EC6
330
2DDC
100
AcDbSymbolTableRecord
100
AcDbBlockTableRecord
  2
*U20
340
0
  0
BLOCK_RECORD
  5
2EC8
330
2DDC
100
AcDbSymbolTableRecord
100
AcDbBlockTableRecord
  2
*U21
340
0
  0
BLOCK_RECORD
  5
2ECA
330
2DDC
100
AcDbSymbolTableRecord
100
AcDbBlockTableRecord
  2
*U22
340
0
  0
BLOCK_RECORD
  5
2ECC
330
2DDC
100
AcDbSymbolTableRecord
100
AcDbBlockTableRecord
  2
*U23
340
0
  0
BLOCK_RECORD
  5
2ECE
330
2DDC
100
AcDbSymbolTableRecord
100
AcDbBlockTableRecord
  2
*U24
340
0
  0
ENDTAB
  0
ENDSEC
  0
SECTION
  2
BLOCKS
  0
BLOCK
  5
2E50
330
2E4F
100
AcDbEntity
  8
0
100
AcDbBlockBegin
  2
*Model_Space
 70
     0
 10
0.0
 20
0.0
 30
0.0
  3
*Model_Space
  1

  0
ENDBLK
  5
2E51
330
2E4F
100
AcDbEntity
  8
0
100
AcDbBlockEnd
  0
BLOCK
  5
2E4C
330
2E4B
100
AcDbEntity
 67
     1
  8
0
100
AcDbBlockBegin
  2
*Paper_Space
 70
     0
 10
0.0
 20
0.0
 30
0.0
  3
*Paper_Space
  1

  0
ENDBLK
  5
2E4D
330
2E4B
100
AcDbEntity
 67
     1
  8
0
100
AcDbBlockEnd
  0
BLOCK
  5
2E9F
330
2E9E
100
AcDbEntity
  8
0
100
AcDbBlockBegin
  2
$MODEL_SPACE
 70
     0
 10
0.0
 20
0.0
 30
0.0
  3
$MODEL_SPACE
  1

  0
ENDBLK
  5
2AE2
330
2E9E
100
AcDbEntity
  8
0
100
AcDbBlockEnd
  0
BLOCK
  5
2EA1
330
2EA0
100
AcDbEntity
  8
0
100
AcDbBlockBegin
  2
$PAPER_SPACE
 70
     0
 10
0.0
 20
0.0
 30
0.0
  3
$PAPER_SPACE
  1

  0
ENDBLK
  5
2ADE
330
2EA0
100
AcDbEntity
  8
0
100
AcDbBlockEnd
  0
BLOCK
  5
2EA3
330
2EA2
100
AcDbEntity
  8
0
100
AcDbBlockBegin
  2
_ORIGIN
 70
     0
 10
0.0
 20
0.0
 30
0.0
  3
_ORIGIN
  1

  0
CIRCLE
  5
880
330
2EA2
100
AcDbEntity
  8
0
  6
Continuous
 62
     7
100
AcDbCircle
 10
0.0
 20
0.0
 30
0.0
 40
0.5
  0
LINE
  5
881
330
2EA2
100
AcDbEntity
  8
0
  6
Continuous
 62
     7
100
AcDbLine
 10
0.0
 20
0.0
 30
0.0
 11
-1.0
 21
0.0
 31
0.0
  0
ENDBLK
  5
882
330
2EA2
100
AcDbEntity
  8
0
100
AcDbBlockEnd
  0
BLOCK
  5
2EA5
330
2EA4
100
AcDbEntity
  8
0
 62
     1
100
AcDbBlockBegin
  2
_DOTBLANK
 70
     0
 10
0.0
 20
0.0
 30
0.0
  3
_DOTBLANK
  1

  0
CIRCLE
  5
AB3
330
2EA4
100
AcDbEntity
  8
0
  6
ByBlock
 62
     0
100
AcDbCircle
 10
0.0
 20
0.0
 30
0.0
 40
0.5
  0
LINE
  5
AB4
330
2EA4
100
AcDbEntity
  8
0
  6
ByBlock
 62
     0
100
AcDbLine
 10
-0.5
 20
0.0
 30
0.0
 11
-1.0
 21
0.0
 31
0.0
  0
ENDBLK
  5
AB6
330
2EA4
100
AcDbEntity
  8
0
 62
     1
100
AcDbBlockEnd
  0
BLOCK
  5
2EA7
330
2EA6
100
AcDbEntity
  8
0
 62
     1
100
AcDbBlockBegin
  2
_OPEN30
 70
     0
 10
0.0
 20
0.0
 30
0.0
  3
_OPEN30
  1

  0
LINE
  5
AB8
330
2EA6
100
AcDbEntity
  8
0
  6
ByBlock
 62
     0
100
AcDbLine
 10
-1.0
 20
0.26794919
 30
0.0
 11
0.0
 21
0.0
 31
0.0
  0
LINE
  5
AB9
330
2EA6
100
AcDbEntity
  8
0
  6
ByBlock
 62
     0
100
AcDbLine
 10
0.0
 20
0.0
 30
0.0
 11
-1.0
 21
-0.26794919
 31
0.0
  0
LINE
  5
ABA
330
2EA6
100
AcDbEntity
  8
0
  6
ByBlock
 62
     0
100
AcDbLine
 10
0.0
 20
0.0
 30
0.0
 11
-1.0
 21
0.0
 31
0.0
  0
ENDBLK
  5
ABC
330
2EA6
100
AcDbEntity
  8
0
 62
     1
100
AcDbBlockEnd
  0
BLOCK
  5
2EA9
330
2EA8
100
AcDbEntity
  8
0
100
AcDbBlockBegin
  2
GENAXEH
 70
     0
 10
0.0
 20
0.0
 30
0.0
  3
GENAXEH
  1

  0
LINE
  5
FDB
330
2EA8
100
AcDbEntity
  8
0
100
AcDbLine
 10
-1.0
 20
0.0
 30
0.0
 11
1.0
 21
0.0
 31
0.0
  0
ENDBLK
  5
FDD
330
2EA8
100
AcDbEntity
  8
0
100
AcDbBlockEnd
  0
BLOCK
  5
2EAB
330
2EAA
100
AcDbEntity
  8
0
100
AcDbBlockBegin
  2
*U6
 70
     1
 10
0.0
 20
0.0
 30
0.0
  3
*U6
  1

  0
ENDBLK
  5
1ED4
330
2EAA
100
AcDbEntity
  8
0
100
AcDbBlockEnd
  0
BLOCK
  5
2EAD
330
2EAC
100
AcDbEntity
  8
0
100
AcDbBlockBegin
  2
*D7
 70
     1
 10
0.0
 20
0.0
 30
0.0
  3
*D7
  1

  0
LINE
  5
2029
330
2EAC
100
AcDbEntity
  8
SIZE
 62
     0
100
AcDbLine
 10
-135.5
 20
-449.4732256776551
 30
0.0
 11
-135.5
 21
-638.0173952306003
 31
0.0
  0
LINE
  5
202A
330
2EAC
100
AcDbEntity
  8
SIZE
 62
     0
100
AcDbLine
 10
135.5
 20
-449.4732256776551
 30
0.0
 11
135.5
 21
-638.0173952306003
 31
0.0
  0
LINE
  5
202B
330
2EAC
100
AcDbEntity
  8
SIZE
 62
     0
100
AcDbLine
 10
-123.5
 20
-618.0173952306001
 30
0.0
 11
123.5
 21
-618.0173952306001
 31
0.0
  0
INSERT
  5
202C
330
2EAC
100
AcDbEntity
  8
SIZE
 62
     0
100
AcDbBlockReference
  2
_DOTBLANK
 10
-135.5
 20
-618.0173952306001
 30
0.0
 41
12.0
 42
12.0
 43
12.0
 50
180.0
  0
INSERT
  5
202D
330
2EAC
100
AcDbEntity
  8
SIZE
 62
     0
100
AcDbBlockReference
  2
_DOTBLANK
 10
135.5
 20
-618.0173952306001
 30
0.0
 41
12.0
 42
12.0
 43
12.0
  0
INSERT
  5
202E
330
2EAC
100
AcDbEntity
  8
0
100
AcDbBlockReference
  2
*U8
 10
0.0
 20
0.0
 30
0.0
  0
POINT
  5
202F
330
2EAC
100
AcDbEntity
  8
DEFPOINTS
 62
     0
100
AcDbPoint
 10
-135.5
 20
-429.473225677655
 30
0.0
  0
POINT
  5
2030
330
2EAC
100
AcDbEntity
  8
DEFPOINTS
 62
     0
100
AcDbPoint
 10
135.5
 20
-429.473225677655
 30
0.0
  0
POINT
  5
2031
330
2EAC
100
AcDbEntity
  8
DEFPOINTS
 62
     0
100
AcDbPoint
 10
135.5
 20
-618.0173952306001
 30
0.0
  0
ENDBLK
  5
1FDF
330
2EAC
100
AcDbEntity
  8
0
100
AcDbBlockEnd
  0
BLOCK
  5
2EAF
330
2EAE
100
AcDbEntity
  8
0
100
AcDbBlockBegin
  2
*U8
 70
     1
 10
0.0
 20
0.0
 30
0.0
  3
*U8
  1

  0
TEXT
  5
21A6
330
2EAE
100
AcDbEntity
  8
SIZE
 62
     0
100
AcDbText
 10
-61.7142857142857
 20
-608.0173952306003
 30
0.0
 40
64.0
  1
271
 41
0.9
100
AcDbText
  0
ENDBLK
  5
21A8
330
2EAE
100
AcDbEntity
  8
0
100
AcDbBlockEnd
  0
BLOCK
  5
2EB1
330
2EB0
100
AcDbEntity
  8
0
100
AcDbBlockBegin
  2
*D9
 70
     1
 10
0.0
 20
0.0
 30
0.0
  3
*D9
  1

  0
LINE
  5
2032
330
2EB0
100
AcDbEntity
  8
SIZE
 62
     0
100
AcDbLine
 10
143.7000000000007
 20
-430.0
 30
0.0
 11
304.6432844803784
 21
-430.0
 31
0.0
  0
LINE
  5
2033
330
2EB0
100
AcDbEntity
  8
SIZE
 62
     0
100
AcDbLine
 10
177.5
 20
-0.0000000000000057
 30
0.0
 11
304.6432844803785
 21
-0.0000000000000417
 31
0.0
  0
LINE
  5
2034
330
2EB0
100
AcDbEntity
  8
SIZE
 62
     0
100
AcDbLine
 10
284.6432844803784
 20
-418.0
 30
0.0
 11
284.6432844803785
 21
-12.00000000000003
 31
0.0
  0
INSERT
  5
2035
330
2EB0
100
AcDbEntity
  8
SIZE
 62
     0
100
AcDbBlockReference
  2
_DOTBLANK
 10
284.6432844803784
 20
-430.0
 30
0.0
 41
12.0
 42
12.0
 43
12.0
 50
270.0
  0
INSERT
  5
2036
330
2EB0
100
AcDbEntity
  8
SIZE
 62
     0
100
AcDbBlockReference
  2
_DOTBLANK
 10
284.6432844803785
 20
-0.000000000000036
 30
0.0
 41
12.0
 42
12.0
 43
12.0
 50
90.0
  0
INSERT
  5
2037
330
2EB0
100
AcDbEntity
  8
0
100
AcDbBlockReference
  2
*U10
 10
0.0
 20
0.0
 30
0.0
  0
POINT
  5
2038
330
2EB0
100
AcDbEntity
  8
DEFPOINTS
 62
     0
100
AcDbPoint
 10
123.7000000000007
 20
-430.0
 30
0.0
  0
POINT
  5
2039
330
2EB0
100
AcDbEntity
  8
DEFPOINTS
 62
     0
100
AcDbPoint
 10
157.5
 20
0.0
 30
0.0
  0
POINT
  5
203A
330
2EB0
100
AcDbEntity
  8
DEFPOINTS
 62
     0
100
AcDbPoint
 10
284.6432844803785
 20
-0.000000000000036
 30
0.0
  0
ENDBLK
  5
1FEB
330
2EB0
100
AcDbEntity
  8
0
100
AcDbBlockEnd
  0
BLOCK
  5
2EB3
330
2EB2
100
AcDbEntity
  8
0
100
AcDbBlockBegin
  2
*U10
 70
     1
 10
0.0
 20
0.0
 30
0.0
  3
*U10
  1

  0
TEXT
  5
21AA
330
2EB2
100
AcDbEntity
  8
SIZE
 62
     0
100
AcDbText
 10
274.6432844803785
 20
-289.0571428571429
 30
0.0
 40
64.0
  1
430
 50
90.0
 41
0.9
100
AcDbText
  0
ENDBLK
  5
21AC
330
2EB2
100
AcDbEntity
  8
0
100
AcDbBlockEnd
  0
BLOCK
  5
2EB5
330
2EB4
100
AcDbEntity
  8
0
100
AcDbBlockBegin
  2
*D11
 70
     1
 10
0.0
 20
0.0
 30
0.0
  3
*D11
  1

  0
LINE
  5
203B
330
2EB4
100
AcDbEntity
  8
SIZE
 62
     0
100
AcDbLine
 10
-140.0
 20
32.5
 30
0.0
 11
-140.0
 21
136.4516878685499
 31
0.0
  0
LINE
  5
203C
330
2EB4
100
AcDbEntity
  8
SIZE
 62
     0
100
AcDbLine
 10
140.0
 20
32.5
 30
0.0
 11
140.0
 21
136.4516878685499
 31
0.0
  0
LINE
  5
203D
330
2EB4
100
AcDbEntity
  8
SIZE
 62
     0
100
AcDbLine
 10
-128.0
 20
116.4516878685499
 30
0.0
 11
128.0
 21
116.4516878685499
 31
0.0
  0
INSERT
  5
203E
330
2EB4
100
AcDbEntity
  8
SIZE
 62
     0
100
AcDbBlockReference
  2
_DOTBLANK
 10
-140.0
 20
116.4516878685499
 30
0.0
 41
12.0
 42
12.0
 43
12.0
 50
180.0
  0
INSERT
  5
203F
330
2EB4
100
AcDbEntity
  8
SIZE
 62
     0
100
AcDbBlockReference
  2
_DOTBLANK
 10
140.0
 20
116.4516878685499
 30
0.0
 41
12.0
 42
12.0
 43
12.0
  0
INSERT
  5
2040
330
2EB4
100
AcDbEntity
  8
0
100
AcDbBlockReference
  2
*U12
 10
0.0
 20
0.0
 30
0.0
  0
POINT
  5
2041
330
2EB4
100
AcDbEntity
  8
DEFPOINTS
 62
     0
100
AcDbPoint
 10
-140.0
 20
12.5
 30
0.0
  0
POINT
  5
2042
330
2EB4
100
AcDbEntity
  8
DEFPOINTS
 62
     0
100
AcDbPoint
 10
140.0
 20
12.5
 30
0.0
  0
POINT
  5
2043
330
2EB4
100
AcDbEntity
  8
DEFPOINTS
 62
     0
100
AcDbPoint
 10
140.0
 20
116.4516878685499
 30
0.0
  0
ENDBLK
  5
1FF7
330
2EB4
100
AcDbEntity
  8
0
100
AcDbBlockEnd
  0
BLOCK
  5
2EB7
330
2EB6
100
AcDbEntity
  8
0
100
AcDbBlockBegin
  2
*U12
 70
     1
 10
0.0
 20
0.0
 30
0.0
  3
*U12
  1

  0
TEXT
  5
21AE
330
2EB6
100
AcDbEntity
  8
SIZE
 62
     0
100
AcDbText
 10
-74.05714285714283
 20
126.4516878685499
 30
0.0
 40
64.0
  1
280
 41
0.9
100
AcDbText
  0
ENDBLK
  5
21B0
330
2EB6
100
AcDbEntity
  8
0
100
AcDbBlockEnd
  0
BLOCK
  5
2EB9
330
2EB8
100
AcDbEntity
  8
0
100
AcDbBlockBegin
  2
*D13
 70
     1
 10
0.0
 20
0.0
 30
0.0
  3
*D13
  1

  0
LINE
  5
2044
330
2EB8
100
AcDbEntity
  8
SIZE
 62
     0
100
AcDbLine
 10
-157.5
 20
20.0
 30
0.0
 11
-157.5
 21
245.5794621189598
 31
0.0
  0
LINE
  5
2045
330
2EB8
100
AcDbEntity
  8
SIZE
 62
     0
100
AcDbLine
 10
157.5
 20
20.0
 30
0.0
 11
157.5
 21
245.5794621189598
 31
0.0
  0
LINE
  5
2046
330
2EB8
100
AcDbEntity
  8
SIZE
 62
     0
100
AcDbLine
 10
-145.5
 20
225.5794621189598
 30
0.0
 11
145.5
 21
225.5794621189598
 31
0.0
  0
INSERT
  5
2047
330
2EB8
100
AcDbEntity
  8
SIZE
 62
     0
100
AcDbBlockReference
  2
_DOTBLANK
 10
-157.5
 20
225.5794621189598
 30
0.0
 41
12.0
 42
12.0
 43
12.0
 50
180.0
  0
INSERT
  5
2048
330
2EB8
100
AcDbEntity
  8
SIZE
 62
     0
100
AcDbBlockReference
  2
_DOTBLANK
 10
157.5
 20
225.5794621189598
 30
0.0
 41
12.0
 42
12.0
 43
12.0
  0
INSERT
  5
2049
330
2EB8
100
AcDbEntity
  8
0
100
AcDbBlockReference
  2
*U14
 10
0.0
 20
0.0
 30
0.0
  0
POINT
  5
204A
330
2EB8
100
AcDbEntity
  8
DEFPOINTS
 62
     0
100
AcDbPoint
 10
-157.5
 20
0.0
 30
0.0
  0
POINT
  5
204B
330
2EB8
100
AcDbEntity
  8
DEFPOINTS
 62
     0
100
AcDbPoint
 10
157.5
 20
0.0
 30
0.0
  0
POINT
  5
204C
330
2EB8
100
AcDbEntity
  8
DEFPOINTS
 62
     0
100
AcDbPoint
 10
157.5
 20
225.5794621189598
 30
0.0
  0
ENDBLK
  5
2003
330
2EB8
100
AcDbEntity
  8
0
100
AcDbBlockEnd
  0
BLOCK
  5
2EBB
330
2EBA
100
AcDbEntity
  8
0
100
AcDbBlockBegin
  2
*U14
 70
     1
 10
0.0
 20
0.0
 30
0.0
  3
*U14
  1

  0
TEXT
  5
21B2
330
2EBA
100
AcDbEntity
  8
SIZE
 62
     0
100
AcDbText
 10
-68.57142857142857
 20
235.5794621189598
 30
0.0
 40
64.0
  1
315
 41
0.9
100
AcDbText
  0
ENDBLK
  5
21B4
330
2EBA
100
AcDbEntity
  8
0
100
AcDbBlockEnd
  0
BLOCK
  5
2EBD
330
2EBC
100
AcDbEntity
  8
0
100
AcDbBlockBegin
  2
*D15
 70
     1
 10
0.0
 20
0.0
 30
0.0
  3
*D15
  1

  0
LINE
  5
204D
330
2EBC
100
AcDbEntity
  8
SIZE
 62
     0
100
AcDbLine
 10
-177.5
 20
0.0000000000000057
 30
0.0
 11
-219.7694545525301
 21
0.0000000000000176
 31
0.0
  0
LINE
  5
204E
330
2EBC
100
AcDbEntity
  8
SIZE
 62
     0
100
AcDbLine
 10
-177.5
 20
-7.999999999999993
 30
0.0
 11
-219.7694545525301
 21
-7.999999999999982
 31
0.0
  0
LINE
  5
204F
330
2EBC
100
AcDbEntity
  8
SIZE
 62
     0
100
AcDbLine
 10
-199.76945455253
 20
12.00000000000001
 30
0.0
 11
-199.76945455253
 21
24.00000000000001
 31
0.0
  0
LINE
  5
2050
330
2EBC
100
AcDbEntity
  8
SIZE
 62
     0
100
AcDbLine
 10
-199.76945455253
 20
-19.99999999999999
 30
0.0
 11
-199.7694545525301
 21
-90.4
 31
0.0
  0
LINE
  5
2051
330
2EBC
100
AcDbEntity
  8
SIZE
 62
     0
100
AcDbLine
 10
-199.76945455253
 20
0.000000000000012
 30
0.0
 11
-199.76945455253
 21
-7.999999999999985
 31
0.0
  0
INSERT
  5
2052
330
2EBC
100
AcDbEntity
  8
SIZE
 62
     0
100
AcDbBlockReference
  2
_DOTBLANK
 10
-199.76945455253
 20
0.000000000000012
 30
0.0
 41
12.0
 42
12.0
 43
12.0
 50
270.0
  0
INSERT
  5
2053
330
2EBC
100
AcDbEntity
  8
SIZE
 62
     0
100
AcDbBlockReference
  2
_DOTBLANK
 10
-199.76945455253
 20
-7.999999999999985
 30
0.0
 41
12.0
 42
12.0
 43
12.0
 50
90.0
  0
INSERT
  5
2054
330
2EBC
100
AcDbEntity
  8
0
100
AcDbBlockReference
  2
*U16
 10
0.0
 20
0.0
 30
0.0
  0
POINT
  5
2055
330
2EBC
100
AcDbEntity
  8
DEFPOINTS
 62
     0
100
AcDbPoint
 10
-157.5
 20
0.0
 30
0.0
  0
POINT
  5
2056
330
2EBC
100
AcDbEntity
  8
DEFPOINTS
 62
     0
100
AcDbPoint
 10
-157.5
 20
-8.0
 30
0.0
  0
POINT
  5
2057
330
2EBC
100
AcDbEntity
  8
DEFPOINTS
 62
     0
100
AcDbPoint
 10
-199.76945455253
 20
-7.999999999999985
 30
0.0
  0
ENDBLK
  5
200F
330
2EBC
100
AcDbEntity
  8
0
100
AcDbBlockEnd
  0
BLOCK
  5
2EBF
330
2EBE
100
AcDbEntity
  8
0
100
AcDbBlockBegin
  2
*U16
 70
     1
 10
0.0
 20
0.0
 30
0.0
  3
*U16
  1

  0
TEXT
  5
21B6
330
2EBE
100
AcDbEntity
  8
SIZE
 62
     0
100
AcDbText
 10
-209.7694545525301
 20
-80.4
 30
0.0
 40
64.0
  1
8
 50
90.0
 41
0.9
100
AcDbText
  0
ENDBLK
  5
21B8
330
2EBE
100
AcDbEntity
  8
0
100
AcDbBlockEnd
  0
BLOCK
  5
2EC1
330
2EC0
100
AcDbEntity
  8
0
100
AcDbBlockBegin
  2
*D17
 70
     1
 10
0.0
 20
0.0
 30
0.0
  3
*D17
  1

  0
LINE
  5
2058
330
2EC0
100
AcDbEntity
  8
SIZE
 62
     0
100
AcDbLine
 10
143.7000000000007
 20
-430.0
 30
0.0
 11
304.626441221626
 21
-430.0
 31
0.0
  0
LINE
  5
2059
330
2EC0
100
AcDbEntity
  8
SIZE
 62
     0
100
AcDbLine
 10
143.1000000000022
 20
-441.0000000000001
 30
0.0
 11
304.626441221626
 21
-441.0000000000001
 31
0.0
  0
LINE
  5
205A
330
2EC0
100
AcDbEntity
  8
SIZE
 62
     0
100
AcDbLine
 10
284.626441221626
 20
-418.0
 30
0.0
 11
284.626441221626
 21
-406.0
 31
0.0
  0
LINE
  5
205B
330
2EC0
100
AcDbEntity
  8
SIZE
 62
     0
100
AcDbLine
 10
284.626441221626
 20
-453.0
 30
0.0
 11
284.626441221626
 21
-542.6000000000001
 31
0.0
  0
LINE
  5
205C
330
2EC0
100
AcDbEntity
  8
SIZE
 62
     0
100
AcDbLine
 10
284.626441221626
 20
-430.0
 30
0.0
 11
284.626441221626
 21
-441.0000000000001
 31
0.0
  0
INSERT
  5
205D
330
2EC0
100
AcDbEntity
  8
SIZE
 62
     0
100
AcDbBlockReference
  2
_DOTBLANK
 10
284.626441221626
 20
-430.0
 30
0.0
 41
12.0
 42
12.0
 43
12.0
 50
270.0
  0
INSERT
  5
205E
330
2EC0
100
AcDbEntity
  8
SIZE
 62
     0
100
AcDbBlockReference
  2
_DOTBLANK
 10
284.626441221626
 20
-441.0000000000001
 30
0.0
 41
12.0
 42
12.0
 43
12.0
 50
90.0
  0
INSERT
  5
205F
330
2EC0
100
AcDbEntity
  8
0
100
AcDbBlockReference
  2
*U18
 10
0.0
 20
0.0
 30
0.0
  0
POINT
  5
2060
330
2EC0
100
AcDbEntity
  8
DEFPOINTS
 62
     0
100
AcDbPoint
 10
123.7000000000007
 20
-430.0
 30
0.0
  0
POINT
  5
2061
330
2EC0
100
AcDbEntity
  8
DEFPOINTS
 62
     0
100
AcDbPoint
 10
123.1000000000022
 20
-441.0
 30
0.0
  0
POINT
  5
2062
330
2EC0
100
AcDbEntity
  8
DEFPOINTS
 62
     0
100
AcDbPoint
 10
284.626441221626
 20
-441.0000000000001
 30
0.0
  0
ENDBLK
  5
201D
330
2EC0
100
AcDbEntity
  8
0
100
AcDbBlockEnd
  0
BLOCK
  5
2EC3
330
2EC2
100
AcDbEntity
  8
0
100
AcDbBlockBegin
  2
*U18
 70
     1
 10
0.0
 20
0.0
 30
0.0
  3
*U18
  1

  0
TEXT
  5
21BA
330
2EC2
100
AcDbEntity
  8
SIZE
 62
     0
100
AcDbText
 10
274.6264412216261
 20
-532.6
 30
0.0
 40
64.0
  1
11
 50
90.0
 41
0.9
100
AcDbText
  0
ENDBLK
  5
21BC
330
2EC2
100
AcDbEntity
  8
0
100
AcDbBlockEnd
  0
BLOCK
  5
2EC5
330
2EC4
100
AcDbEntity
  8
0
100
AcDbBlockBegin
  2
*U19
 70
     1
 10
0.0
 20
0.0
 30
0.0
  3
*U19
  1

  0
INSERT
  5
2199
330
2EC4
100
AcDbEntity
  8
NOTE
100
AcDbBlockReference
  2
_OPEN30
 10
-140.0
 20
0.0
 30
0.0
 41
12.0
 42
12.0
 43
12.0
 50
312.6090116116894
  0
POLYLINE
  5
219A
330
2EC4
100
AcDbEntity
  8
NOTE
100
AcDb2dPolyline
 66
     1
 10
0.0
 20
0.0
 30
0.0
  0
VERTEX
  5
219B
330
219A
100
AcDbEntity
  8
NOTE
100
AcDbVertex
100
AcDb2dVertex
 10
-148.1239008361894
 20
8.831887408915472
 30
0.0
  0
VERTEX
  5
219C
330
219A
100
AcDbEntity
  8
NOTE
100
AcDbVertex
100
AcDb2dVertex
 10
-227.8693999922543
 20
95.5270950580134
 30
0.0
  0
VERTEX
  5
219D
330
219A
100
AcDbEntity
  8
NOTE
100
AcDbVertex
100
AcDb2dVertex
 10
-776.4522571351115
 20
95.5270950580134
 30
0.0
  0
SEQEND
  5
219E
330
219A
100
AcDbEntity
  8
NOTE
  0
ENDBLK
  5
21A0
330
2EC4
100
AcDbEntity
  8
0
100
AcDbBlockEnd
  0
BLOCK
  5
2EC7
330
2EC6
100
AcDbEntity
  8
0
100
AcDbBlockBegin
  2
*U20
 70
     1
 10
0.0
 20
0.0
 30
0.0
  3
*U20
  1

  0
TEXT
  5
21A2
330
2EC6
100
AcDbEntity
  8
NOTE
100
AcDbText
 10
-773.7093999922541
 20
113.5270950580134
 30
0.0
 40
64.0
  1
4×φ10取付穴
 41
0.9
100
AcDbText
  0
ENDBLK
  5
21A4
330
2EC6
100
AcDbEntity
  8
0
100
AcDbBlockEnd
  0
BLOCK
  5
2EC9
330
2EC8
100
AcDbEntity
  8
0
100
AcDbBlockBegin
  2
*U21
 70
     1
 10
0.0
 20
0.0
 30
0.0
  3
*U21
  1

  0
POLYLINE
  5
2706
330
2EC8
100
AcDbEntity
  8
NOTE
100
AcDb2dPolyline
 66
     1
 10
0.0
 20
0.0
 30
0.0
  0
VERTEX
  5
2707
330
2706
100
AcDbEntity
  8
NOTE
100
AcDbVertex
100
AcDb2dVertex
 10
560.81428561626
 20
788.4870806964439
 30
0.0
  0
VERTEX
  5
2708
330
2706
100
AcDbEntity
  8
NOTE
100
AcDbVertex
100
AcDb2dVertex
 10
652.0119765085743
 20
875.7195111267567
 30
0.0
  0
SEQEND
  5
2709
330
2706
100
AcDbEntity
  8
NOTE
  0
ENDBLK
  5
270B
330
2EC8
100
AcDbEntity
  8
0
100
AcDbBlockEnd
  0
BLOCK
  5
2ECB
330
2ECA
100
AcDbEntity
  8
0
100
AcDbBlockBegin
  2
*U22
 70
     1
 10
0.0
 20
0.0
 30
0.0
  3
*U22
  1

  0
INSERT
  5
270D
330
2ECA
100
AcDbEntity
  8
NOTE
100
AcDbBlockReference
  2
_OPEN30
 10
0.0
 20
139.9999999999998
 30
0.0
 41
12.0
 42
12.0
 43
12.0
 50
223.7269229107866
  0
POLYLINE
  5
270E
330
2ECA
100
AcDbEntity
  8
NOTE
100
AcDb2dPolyline
 66
     1
 10
0.0
 20
0.0
 30
0.0
  0
VERTEX
  5
270F
330
270E
100
AcDbEntity
  8
NOTE
100
AcDbVertex
100
AcDb2dVertex
 10
8.671709099939857
 20
148.2946646277001
 30
0.0
  0
VERTEX
  5
2710
330
270E
100
AcDbEntity
  8
NOTE
100
AcDbVertex
100
AcDb2dVertex
 10
99.86939999225436
 20
235.5270950580129
 30
0.0
  0
SEQEND
  5
2711
330
270E
100
AcDbEntity
  8
NOTE
  0
ENDBLK
  5
2713
330
2ECA
100
AcDbEntity
  8
0
100
AcDbBlockEnd
  0
BLOCK
  5
2ECD
330
2ECC
100
AcDbEntity
  8
0
100
AcDbBlockBegin
  2
*U23
 70
     1
 10
0.0
 20
0.0
 30
0.0
  3
*U23
  1

  0
POLYLINE
  5
2A5D
330
2ECC
100
AcDbEntity
  8
NOTE
100
AcDb2dPolyline
 66
     1
 10
0.0
 20
0.0
 30
0.0
  0
VERTEX
  5
2A5E
330
2A5D
100
AcDbEntity
  8
NOTE
100
AcDbVertex
100
AcDb2dVertex
 10
559.4766098002649
 20
789.6904135308401
 30
0.0
  0
VERTEX
  5
2A5F
330
2A5D
100
AcDbEntity
  8
NOTE
100
AcDbVertex
100
AcDb2dVertex
 10
625.9053773035279
 20
875.7195111267567
 30
0.0
  0
VERTEX
  5
2A60
330
2A5D
100
AcDbEntity
  8
NOTE
100
AcDbVertex
100
AcDb2dVertex
 10
1174.488234446384
 20
875.7195111267567
 30
0.0
  0
SEQEND
  5
2A61
330
2A5D
100
AcDbEntity
  8
NOTE
  0
ENDBLK
  5
2A63
330
2ECC
100
AcDbEntity
  8
0
100
AcDbBlockEnd
  0
BLOCK
  5
2ECF
330
2ECE
100
AcDbEntity
  8
0
100
AcDbBlockBegin
  2
*U24
 70
     1
 10
0.0
 20
0.0
 30
0.0
  3
*U24
  1

  0
INSERT
  5
2A65
330
2ECE
100
AcDbEntity
  8
NOTE
100
AcDbBlockReference
  2
_OPEN30
 10
0.0
 20
140.0000000000002
 30
0.0
 41
12.0
 42
12.0
 43
12.0
 50
232.3258907693335
  0
POLYLINE
  5
2A66
330
2ECE
100
AcDbEntity
  8
NOTE
100
AcDb2dPolyline
 66
     1
 10
0.0
 20
0.0
 30
0.0
  0
VERTEX
  5
2A67
330
2A66
100
AcDbEntity
  8
NOTE
100
AcDbVertex
100
AcDb2dVertex
 10
7.334033283944799
 20
149.4979974620966
 30
0.0
  0
VERTEX
  5
2A68
330
2A66
100
AcDbEntity
  8
NOTE
100
AcDbVertex
100
AcDb2dVertex
 10
73.76280078720809
 20
235.5270950580132
 30
0.0
  0
VERTEX
  5
2A69
330
2A66
100
AcDbEntity
  8
NOTE
100
AcDbVertex
100
AcDb2dVertex
 10
622.3456579300652
 20
235.5270950580132
 30
0.0
  0
SEQEND
  5
2A6A
330
2A66
100
AcDbEntity
  8
NOTE
  0
ENDBLK
  5
2A6C
330
2ECE
100
AcDbEntity
  8
0
100
AcDbBlockEnd
  0
ENDSEC
  0
SECTION
  2
ENTITIES
  0
TEXT
  5
953
330
2E4F
100
AcDbEntity
  8
OUTLINE
  6
Continuous
 62
     3
100
AcDbText
 10
-418.231467
 20
13.715189
 30
0.0
 40
64.0
  1
 
 41
0.9
100
AcDbText
  0
TEXT
  5
954
330
2E4F
100
AcDbEntity
  8
OUTLINE
  6
Continuous
 62
     3
100
AcDbText
 10
-418.231467
 20
13.715189
 30
0.0
 40
64.0
  1
 
 41
0.9
100
AcDbText
  0
TEXT
  5
955
330
2E4F
100
AcDbEntity
  8
OUTLINE
  6
Continuous
 62
     3
100
AcDbText
 10
1341.41903
 20
-706.0588199999997
 30
0.0
 40
64.0
  1
 
 41
0.9
100
AcDbText
  0
TEXT
  5
956
330
2E4F
100
AcDbEntity
  8
OUTLINE
  6
Continuous
 62
     3
100
AcDbText
 10
1341.41903
 20
-706.0588199999997
 30
0.0
 40
64.0
  1
 
 41
0.9
100
AcDbText
  0
TEXT
  5
957
330
2E4F
100
AcDbEntity
  8
OUTLINE
  6
Continuous
 62
     3
100
AcDbText
 10
1341.41903
 20
-706.0588199999997
 30
0.0
 40
64.0
  1
 
 41
0.9
100
AcDbText
  0
TEXT
  5
958
330
2E4F
100
AcDbEntity
  8
OUTLINE
  6
Continuous
 62
     3
100
AcDbText
 10
1341.41903
 20
-706.0588199999997
 30
0.0
 40
64.0
  1
 
 41
0.9
100
AcDbText
  0
CIRCLE
  5
2CF3
330
2E4F
100
AcDbEntity
  8
ARRANGE
100
AcDbCircle
 10
0.0000000000013642
 20
0.0000000000000426
 30
0.0
 40
40.0
  0
LINE
  5
2CF4
330
2E4F
100
AcDbEntity
  8
ARRANGE
100
AcDbLine
 10
17.10854537401019
 20
-16.60854537400833
 30
0.0
 11
-17.10854537400746
 21
16.60854537400568
 31
0.0
  0
LINE
  5
2CF5
330
2E4F
100
AcDbEntity
  8
ARRANGE
100
AcDbLine
 10
-17.10854537400746
 20
-16.60854537400833
 30
0.0
 11
17.10854537401019
 21
16.60854537400887
 31
0.0
  0
LINE
  5
2CF6
330
2E4F
100
AcDbEntity
  8
BASIC
100
AcDbLine
 10
-24.99999999999864
 20
0.0000000000000426
 30
0.0
 11
1081.500000000001
 21
-0.0000000000017764
 31
0.0
  0
LINE
  5
2CF7
330
2E4F
100
AcDbEntity
  8
NOTE
100
AcDbLine
 10
-12.49999999999863
 20
200.0000000000004
 30
0.0
 11
12.500000000005
 21
200.0000000000004
 31
0.0
  0
LINE
  5
2CF8
330
2E4F
100
AcDbEntity
  8
NOTE
100
AcDbLine
 10
-12.49999999999863
 20
-199.9999999999999
 30
0.0
 11
12.500000000005
 21
-199.9999999999999
 31
0.0
  0
LINE
  5
2CF9
330
2E4F
100
AcDbEntity
  8
DETAIL
100
AcDbLine
 10
0.4000000000028196
 20
425.0000000000005
 30
0.0
 11
8.000000000001362
 21
425.0000000000005
 31
0.0
  0
LINE
  5
2CFA
330
2E4F
100
AcDbEntity
  8
DETAIL
100
AcDbLine
 10
0.4000000000028196
 20
-425.0000000000004
 30
0.0
 11
8.000000000001362
 21
-425.0000000000004
 31
0.0
  0
ARC
  5
2CFB
330
2E4F
100
AcDbEntity
  8
DETAIL
100
AcDbCircle
 10
331.5000000000015
 20
-314.0
 30
0.0
 40
700.0
100
AcDbArc
 50
0.0
 51
90.0
  0
LINE
  5
2CFC
330
2E4F
100
AcDbEntity
  8
DETAIL
100
AcDbLine
 10
0.0000000000013642
 20
425.0000000000005
 30
0.0
 11
0.0000000000013642
 21
385.0000000000005
 31
0.0
  0
LINE
  5
2CFD
330
2E4F
100
AcDbEntity
  8
DETAIL
100
AcDbLine
 10
0.4000000000028196
 20
425.0000000000005
 30
0.0
 11
0.0000000000013642
 21
425.0000000000005
 31
0.0
  0
LINE
  5
2CFE
330
2E4F
100
AcDbEntity
  8
DETAIL
100
AcDbLine
 10
331.5000000000015
 20
386.0000000000005
 30
0.0
 11
8.000000000001362
 21
386.0000000000005
 31
0.0
  0
LINE
  5
2CFF
330
2E4F
100
AcDbEntity
  8
DETAIL
100
AcDbLine
 10
1031.5
 20
-565.0
 30
0.0
 11
1031.5
 21
-314.0
 31
0.0
  0
LINE
  5
2D00
330
2E4F
100
AcDbEntity
  8
DETAIL
100
AcDbLine
 10
8.000000000001362
 20
425.0000000000005
 30
0.0
 11
8.000000000001362
 21
-425.0000000000004
 31
0.0
  0
LINE
  5
2D01
330
2E4F
100
AcDbEntity
  8
DETAIL
100
AcDbLine
 10
0.0000000000013642
 20
385.0000000000005
 30
0.0
 11
0.0000000000013642
 21
-385.0
 31
0.0
  0
LINE
  5
2D02
330
2E4F
100
AcDbEntity
  8
DETAIL
100
AcDbLine
 10
0.0000000000013642
 20
-385.0
 30
0.0
 11
0.0000000000013642
 21
-425.0000000000004
 31
0.0
  0
LINE
  5
2D03
330
2E4F
100
AcDbEntity
  8
DETAIL
100
AcDbLine
 10
177.5000000000013
 20
-425.9999999999997
 30
0.0
 11
177.5000000000013
 21
-565.0
 31
0.0
  0
LINE
  5
2D04
330
2E4F
100
AcDbEntity
  8
DETAIL
100
AcDbLine
 10
8.000000000001362
 20
-385.9999999999999
 30
0.0
 11
137.5000000000013
 21
-385.9999999999999
 31
0.0
  0
LINE
  5
2D05
330
2E4F
100
AcDbEntity
  8
DETAIL
100
AcDbLine
 10
0.0000000000013642
 20
-425.0000000000004
 30
0.0
 11
0.4000000000028196
 21
-425.0000000000004
 31
0.0
  0
LINE
  5
2D06
330
2E4F
100
AcDbEntity
  8
DETAIL
100
AcDbLine
 10
1052.0
 20
-1023.043944635925
 30
0.0
 11
1050.336122579484
 21
-1026.612141279106
 31
0.0
  0
LINE
  5
2D07
330
2E4F
100
AcDbEntity
  8
DETAIL
100
AcDbLine
 10
1050.336122579484
 20
-1026.612141279106
 30
0.0
 11
1049.408109303914
 21
-1026.239594154071
 31
0.0
  0
LINE
  5
2D08
330
2E4F
100
AcDbEntity
  8
DETAIL
100
AcDbLine
 10
1049.408109303918
 20
-1026.239594154071
 30
0.0
 11
1051.071986724434
 21
-1022.671397510888
 31
0.0
  0
LINE
  5
2D09
330
2E4F
100
AcDbEntity
  8
DETAIL
100
AcDbLine
 10
1051.071986724434
 20
-1022.671397510888
 30
0.0
 11
1052.0
 21
-1023.043944635925
 31
0.0
  0
LINE
  5
2D0A
330
2E4F
100
AcDbEntity
  8
DETAIL
100
AcDbLine
 10
1043.364572805165
 20
-1039.200000000001
 30
0.0
 11
1049.408109303918
 21
-1026.239594154071
 31
0.0
  0
LINE
  5
2D0B
330
2E4F
100
AcDbEntity
  8
DETAIL
100
AcDbLine
 10
1031.499999999998
 20
-1039.200000000001
 30
0.0
 11
1043.364572805165
 21
-1039.200000000001
 31
0.0
  0
LINE
  5
2D0C
330
2E4F
100
AcDbEntity
  8
DETAIL
100
AcDbLine
 10
1050.336122579484
 20
-1026.612141279106
 30
0.0
 11
1044.0
 21
-1040.2
 31
0.0
  0
LINE
  5
2D0D
330
2E4F
100
AcDbEntity
  8
DETAIL
100
AcDbLine
 10
1044.0
 20
-1040.2
 30
0.0
 11
1030.499957289042
 21
-1040.2
 31
0.0
  0
LINE
  5
2D0E
330
2E4F
100
AcDbEntity
  8
DETAIL
100
AcDbLine
 10
1031.5
 20
-1032.054624054485
 30
0.0
 11
1031.5
 21
-1039.200000000032
 31
0.0
  0
LINE
  5
2D0F
330
2E4F
100
AcDbEntity
  8
DETAIL
100
AcDbLine
 10
1031.5
 20
-565.0
 30
0.0
 11
1031.5
 21
-1031.183635500414
 31
0.0
  0
LINE
  5
2D10
330
2E4F
100
AcDbEntity
  8
OUTLINE
100
AcDbLine
 10
1030.621818576129
 20
-1039.207447616708
 30
0.0
 11
1030.621817219061
 21
-1039.20744745015
 31
0.0
  0
LINE
  5
2D11
330
2E4F
100
AcDbEntity
  8
DETAIL
100
AcDbLine
 10
1030.500000000005
 20
-1040.200000000468
 30
0.0
 11
1030.621818576129
 21
-1039.207447616708
 31
0.0
  0
LINE
  5
2D12
330
2E4F
100
AcDbEntity
  8
DETAIL
100
AcDbLine
 10
1030.499957923015
 20
-1040.199994836249
 30
0.0
 11
1030.500000000005
 21
-1040.200000000468
 31
0.0
  0
LINE
  5
2D13
330
2E4F
100
AcDbEntity
  8
DETAIL
100
AcDbLine
 10
177.5000000000013
 20
-565.0
 30
0.0
 11
177.4999999999977
 21
-921.5854539490957
 31
0.0
  0
LINE
  5
2D14
330
2E4F
100
AcDbEntity
  8
DETAIL
100
AcDbLine
 10
1031.592413137679
 20
-1031.301916454693
 30
0.0
 11
1027.238972691085
 21
-1025.729883048658
 31
0.0
  0
LINE
  5
2D15
330
2E4F
100
AcDbEntity
  8
DETAIL
100
AcDbLine
 10
1027.238972691085
 20
-1025.729883048658
 30
0.0
 11
165.8278894391564
 21
-920.15491430126
 31
0.0
  0
LINE
  5
2D16
330
2E4F
100
AcDbEntity
  8
DETAIL
100
AcDbLine
 10
1030.373820178241
 20
-1041.227390307322
 30
0.0
 11
1031.592413137679
 21
-1031.301916454693
 31
0.0
  0
LINE
  5
2D17
330
2E4F
100
AcDbEntity
  8
DETAIL
100
AcDbLine
 10
1030.351545646235
 20
-1041.408816995629
 30
0.0
 11
164.0000000000013
 21
-935.0431250802012
 31
0.0
  0
LINE
  5
2D18
330
2E4F
100
AcDbEntity
  8
DETAIL
100
AcDbLine
 10
164.0000000000013
 20
-935.0431250802012
 30
0.0
 11
165.8278894391564
 21
-920.15491430126
 31
0.0
  0
LINE
  5
2D19
330
2E4F
100
AcDbEntity
  8
OUTLINE
100
AcDbLine
 10
179.0251256324494
 20
-942.9328755821019
 30
0.0
 11
179.7562814081189
 21
-936.9775912705264
 31
0.0
  0
LINE
  5
2D1A
330
2E4F
100
AcDbEntity
  8
DETAIL
100
AcDbLine
 10
1030.373820178241
 20
-1041.227390307322
 30
0.0
 11
1030.251960882292
 21
-1042.219937692584
 31
0.0
  0
LINE
  5
2D1B
330
2E4F
100
AcDbEntity
  8
DETAIL
100
AcDbLine
 10
1030.251960882292
 20
-1042.219937692584
 30
0.0
 11
1029.665095264515
 21
-1046.999974618898
 31
0.0
  0
LINE
  5
2D1C
330
2E4F
100
AcDbEntity
  8
DETAIL
100
AcDbLine
 10
179.0251256324494
 20
-942.9328755821019
 30
0.0
 11
1029.665095264515
 21
-1046.999974618898
 31
0.0
  0
LINE
  5
2D1D
330
2E4F
100
AcDbEntity
  8
DETAIL
100
AcDbLine
 10
179.7562814081189
 20
-936.9775912705264
 30
0.0
 11
179.0251256324494
 21
-942.9328755821019
 31
0.0
  0
LINE
  5
2D1E
330
2E4F
100
AcDbEntity
  8
DETAIL
100
AcDbLine
 10
1030.379007143705
 20
-1041.185142328044
 30
0.0
 11
1030.500000000005
 21
-1041.200000000031
 31
0.0
  0
LINE
  5
2D1F
330
2E4F
100
AcDbEntity
  8
DETAIL
100
AcDbLine
 10
1030.500000000005
 20
-1041.200000000031
 30
0.0
 11
1030.500000000005
 21
-1040.200000000086
 31
0.0
  0
LINE
  5
2D20
330
2E4F
100
AcDbEntity
  8
NOTE
100
AcDbLine
 10
-12.49999999999863
 20
400.0000000000005
 30
0.0
 11
12.500000000005
 21
400.0000000000005
 31
0.0
  0
LINE
  5
2D21
330
2E4F
100
AcDbEntity
  8
NOTE
100
AcDbLine
 10
-12.49999999999863
 20
-400.0
 30
0.0
 11
12.500000000005
 21
-400.0
 31
0.0
  0
LINE
  5
2D22
330
2E4F
100
AcDbEntity
  8
NOTE
100
AcDbLine
 39
50.0
 10
0.0000000000013642
 20
412.5000000000005
 30
0.0
 11
0.0000000000013642
 21
387.5000000000005
 31
0.0
  0
LINE
  5
2D23
330
2E4F
100
AcDbEntity
  8
NOTE
100
AcDbLine
 39
50.0
 10
0.0000000000013642
 20
212.5000000000004
 30
0.0
 11
0.0000000000013642
 21
187.5000000000004
 31
0.0
  0
LINE
  5
2D24
330
2E4F
100
AcDbEntity
  8
NOTE
100
AcDbLine
 39
50.0
 10
0.0000000000013642
 20
-187.4999999999999
 30
0.0
 11
0.0000000000013642
 21
-212.5
 31
0.0
  0
LINE
  5
2D25
330
2E4F
100
AcDbEntity
  8
NOTE
100
AcDbLine
 39
50.0
 10
0.0000000000013642
 20
-387.5
 30
0.0
 11
0.0000000000013642
 21
-412.4999999999997
 31
0.0
  0
LINE
  5
2D26
330
2E4F
100
AcDbEntity
  8
OUTLINE
100
AcDbLine
 10
0.0000000000013642
 20
425.0000000000005
 30
0.0
 11
0.0000000000013642
 21
385.0000000000005
 31
0.0
  0
LINE
  5
2D27
330
2E4F
100
AcDbEntity
  8
OUTLINE
100
AcDbLine
 10
0.0000000000013642
 20
385.0000000000005
 30
0.0
 11
0.0000000000013642
 21
-385.0
 31
0.0
  0
LINE
  5
2D28
330
2E4F
100
AcDbEntity
  8
OUTLINE
100
AcDbLine
 10
0.0000000000013642
 20
-385.0
 30
0.0
 11
0.0000000000013642
 21
-425.0000000000004
 31
0.0
  0
LINE
  5
2D29
330
2E4F
100
AcDbEntity
  8
DETAIL
100
AcDbLine
 39
50.0
 10
177.5000000000013
 20
-425.9999999999997
 30
0.0
 11
137.5000000000013
 21
-385.9999999999999
 31
0.0
  0
LINE
  5
2D2A
330
2E4F
100
AcDbEntity
  8
OUTLINE
100
AcDbLine
 10
0.4000000000028196
 20
425.0000000000005
 30
0.0
 11
8.000000000001362
 21
425.0000000000005
 31
0.0
  0
LINE
  5
2D2B
330
2E4F
100
AcDbEntity
  8
OUTLINE
100
AcDbLine
 10
0.4000000000028196
 20
-425.0000000000004
 30
0.0
 11
8.000000000001362
 21
-425.0000000000004
 31
0.0
  0
ARC
  5
2D2C
330
2E4F
100
AcDbEntity
  8
OUTLINE
100
AcDbCircle
 10
331.5000000000015
 20
-314.0
 30
0.0
 40
700.0
100
AcDbArc
 50
0.0
 51
90.0
  0
LINE
  5
2D2D
330
2E4F
100
AcDbEntity
  8
OUTLINE
100
AcDbLine
 10
331.5000000000015
 20
386.0000000000005
 30
0.0
 11
8.000000000001362
 21
386.0000000000005
 31
0.0
  0
LINE
  5
2D2E
330
2E4F
100
AcDbEntity
  8
OUTLINE
100
AcDbLine
 10
1031.5
 20
-565.0
 30
0.0
 11
1031.5
 21
-314.0
 31
0.0
  0
LINE
  5
2D2F
330
2E4F
100
AcDbEntity
  8
OUTLINE
100
AcDbLine
 10
8.000000000001362
 20
425.0000000000005
 30
0.0
 11
8.000000000001362
 21
-425.0000000000004
 31
0.0
  0
LINE
  5
2D30
330
2E4F
100
AcDbEntity
  8
OUTLINE
100
AcDbLine
 10
177.5000000000013
 20
-425.9999999999997
 30
0.0
 11
177.5000000000013
 21
-565.0
 31
0.0
  0
LINE
  5
2D31
330
2E4F
100
AcDbEntity
  8
OUTLINE
100
AcDbLine
 10
8.000000000001362
 20
-385.9999999999999
 30
0.0
 11
137.5000000000013
 21
-385.9999999999999
 31
0.0
  0
LINE
  5
2D32
330
2E4F
100
AcDbEntity
  8
OUTLINE
100
AcDbLine
 10
1052.0
 20
-1023.043944635925
 30
0.0
 11
1050.336122579484
 21
-1026.612141279106
 31
0.0
  0
LINE
  5
2D33
330
2E4F
100
AcDbEntity
  8
OUTLINE
100
AcDbLine
 10
1050.336122579484
 20
-1026.612141279106
 30
0.0
 11
1049.408109303914
 21
-1026.239594154071
 31
0.0
  0
LINE
  5
2D34
330
2E4F
100
AcDbEntity
  8
OUTLINE
100
AcDbLine
 10
1049.408109303918
 20
-1026.239594154071
 30
0.0
 11
1051.071986724434
 21
-1022.671397510888
 31
0.0
  0
LINE
  5
2D35
330
2E4F
100
AcDbEntity
  8
OUTLINE
100
AcDbLine
 10
1051.071986724434
 20
-1022.671397510888
 30
0.0
 11
1052.0
 21
-1023.043944635925
 31
0.0
  0
LINE
  5
2D36
330
2E4F
100
AcDbEntity
  8
OUTLINE
100
AcDbLine
 10
1043.364572805165
 20
-1039.200000000001
 30
0.0
 11
1049.408109303918
 21
-1026.239594154071
 31
0.0
  0
LINE
  5
2D37
330
2E4F
100
AcDbEntity
  8
OUTLINE
100
AcDbLine
 10
1031.499999999998
 20
-1039.200000000001
 30
0.0
 11
1043.364572805165
 21
-1039.200000000001
 31
0.0
  0
LINE
  5
2D38
330
2E4F
100
AcDbEntity
  8
OUTLINE
100
AcDbLine
 10
1050.336122579484
 20
-1026.612141279106
 30
0.0
 11
1044.0
 21
-1040.2
 31
0.0
  0
LINE
  5
2D39
330
2E4F
100
AcDbEntity
  8
OUTLINE
100
AcDbLine
 10
1044.0
 20
-1040.2
 30
0.0
 11
1030.499957289042
 21
-1040.2
 31
0.0
  0
LINE
  5
2D3A
330
2E4F
100
AcDbEntity
  8
OUTLINE
100
AcDbLine
 10
1031.5
 20
-1032.054624054485
 30
0.0
 11
1031.5
 21
-1039.200000000032
 31
0.0
  0
LINE
  5
2D3B
330
2E4F
100
AcDbEntity
  8
OUTLINE
100
AcDbLine
 10
1031.5
 20
-565.0
 30
0.0
 11
1031.5
 21
-1031.183635500414
 31
0.0
  0
LINE
  5
2D3C
330
2E4F
100
AcDbEntity
  8
OUTLINE
100
AcDbLine
 10
1030.500000000005
 20
-1040.200000000468
 30
0.0
 11
1030.621818576129
 21
-1039.207447616708
 31
0.0
  0
LINE
  5
2D3D
330
2E4F
100
AcDbEntity
  8
OUTLINE
100
AcDbLine
 10
1030.499957923015
 20
-1040.199994836249
 30
0.0
 11
1030.500000000005
 21
-1040.200000000468
 31
0.0
  0
LINE
  5
2D3E
330
2E4F
100
AcDbEntity
  8
OUTLINE
100
AcDbLine
 10
177.5000000000013
 20
-565.0
 30
0.0
 11
177.4999999999977
 21
-921.5854539490957
 31
0.0
  0
LINE
  5
2D3F
330
2E4F
100
AcDbEntity
  8
OUTLINE
100
AcDbLine
 10
1031.592413137679
 20
-1031.301916454693
 30
0.0
 11
1027.238972691085
 21
-1025.729883048658
 31
0.0
  0
LINE
  5
2D40
330
2E4F
100
AcDbEntity
  8
OUTLINE
100
AcDbLine
 10
1030.373820178241
 20
-1041.227390307322
 30
0.0
 11
1031.592413137679
 21
-1031.301916454693
 31
0.0
  0
LINE
  5
2D41
330
2E4F
100
AcDbEntity
  8
OUTLINE
100
AcDbLine
 10
164.0000000000013
 20
-935.0431250802012
 30
0.0
 11
165.8278894391564
 21
-920.15491430126
 31
0.0
  0
LINE
  5
2D42
330
2E4F
100
AcDbEntity
  8
OUTLINE
100
AcDbLine
 10
1030.373820178241
 20
-1041.227390307322
 30
0.0
 11
1030.251960882292
 21
-1042.219937692584
 31
0.0
  0
LINE
  5
2D43
330
2E4F
100
AcDbEntity
  8
OUTLINE
100
AcDbLine
 10
1030.251960882292
 20
-1042.219937692584
 30
0.0
 11
1029.665095264515
 21
-1046.999974618898
 31
0.0
  0
LINE
  5
2D44
330
2E4F
100
AcDbEntity
  8
OUTLINE
100
AcDbLine
 10
179.0251256324494
 20
-942.9328755821019
 30
0.0
 11
1029.665095264515
 21
-1046.999974618898
 31
0.0
  0
LINE
  5
2D45
330
2E4F
100
AcDbEntity
  8
OUTLINE
100
AcDbLine
 10
179.7562814081189
 20
-936.9775912705264
 30
0.0
 11
179.0251256324494
 21
-942.9328755821019
 31
0.0
  0
LINE
  5
2D46
330
2E4F
100
AcDbEntity
  8
OUTLINE
100
AcDbLine
 10
1030.379007143705
 20
-1041.185142328044
 30
0.0
 11
1030.500000000005
 21
-1041.200000000031
 31
0.0
  0
LINE
  5
2D47
330
2E4F
100
AcDbEntity
  8
OUTLINE
100
AcDbLine
 10
1030.500000000005
 20
-1041.200000000031
 30
0.0
 11
1030.500000000005
 21
-1040.200000000086
 31
0.0
  0
LINE
  5
2D48
330
2E4F
100
AcDbEntity
  8
OUTLINE
100
AcDbLine
 39
50.0
 10
177.5000000000013
 20
-425.9999999999997
 30
0.0
 11
137.5000000000013
 21
-385.9999999999999
 31
0.0
  0
LINE
  5
2D49
330
2E4F
100
AcDbEntity
  8
OUTLINE
100
AcDbLine
 10
0.4000000000028196
 20
425.0000000000005
 30
0.0
 11
0.0000000000013642
 21
425.0000000000005
 31
0.0
  0
LINE
  5
2D4A
330
2E4F
100
AcDbEntity
  8
OUTLINE
100
AcDbLine
 10
0.0000000000013642
 20
-425.0000000000004
 30
0.0
 11
0.4000000000028196
 21
-425.0000000000004
 31
0.0
  0
LINE
  5
2D4B
330
2E4F
100
AcDbEntity
  8
OUTLINE
100
AcDbLine
 10
1027.238972691085
 20
-1025.729883048658
 30
0.0
 11
165.8278894391564
 21
-920.15491430126
 31
0.0
  0
LINE
  5
2D4C
330
2E4F
100
AcDbEntity
  8
OUTLINE
100
AcDbLine
 10
1030.351545646231
 20
-1041.408816995628
 30
0.0
 11
163.9999999999977
 21
-935.0431250802012
 31
0.0
  0
TEXT
  5
2D4D
330
2E4F
100
AcDbEntity
  8
ETC
100
AcDbText
 10
1210.588716528627
 20
688.5562993613147
 30
0.0
 40
64.0
  1
システム部材
 41
0.9
100
AcDbText
  0
TEXT
  5
2D4E
330
2E4F
100
AcDbEntity
  8
ETC
100
AcDbText
 10
1207.722150802977
 20
790.3870591168359
 30
0.0
 40
64.0
  1
QWH-70SA_5
 41
0.9
100
AcDbText
  0
TEXT
  5
2D4F
330
2E4F
100
AcDbEntity
  8
ETC
100
AcDbText
 10
1207.722150802977
 20
590.3870591168359
 30
0.0
 40
64.0
  1
QWH-70SA
 41
0.9
100
AcDbText
  0
LINE
  5
2D50
330
2E4F
100
AcDbEntity
  8
SIZE
100
AcDbLine
 10
28.00000000000137
 20
425.0000000000005
 30
0.0
 11
1253.28993137211
 21
425.0
 31
0.0
  0
LINE
  5
2D51
330
2E4F
100
AcDbEntity
  8
SIZE
100
AcDbLine
 10
1049.665095264515
 20
-1046.999974618898
 30
0.0
 11
1253.28993137211
 21
-1046.999974618898
 31
0.0
  0
LINE
  5
2D52
330
2E4F
100
AcDbEntity
  8
SIZE
100
AcDbLine
 10
1233.289931372111
 20
413.0
 30
0.0
 11
1233.289931372111
 21
-1034.999974618898
 31
0.0
  0
INSERT
  5
2D53
330
2E4F
100
AcDbEntity
  8
SIZE
100
AcDbBlockReference
  2
_DOTBLANK
 10
1233.289931372111
 20
425.0
 30
0.0
 41
12.0
 42
12.0
 43
12.0
 50
90.0
  0
INSERT
  5
2D54
330
2E4F
100
AcDbEntity
  8
SIZE
100
AcDbBlockReference
  2
_DOTBLANK
 10
1233.289931372111
 20
-1046.999974618898
 30
0.0
 41
12.0
 42
12.0
 43
12.0
 50
270.0
  0
LINE
  5
2D55
330
2E4F
100
AcDbEntity
  8
SIZE
100
AcDbLine
 10
1030.000000000001
 20
-1059.200000000001
 30
0.0
 11
1030.000000000001
 21
-1414.670453074532
 31
0.0
  0
LINE
  5
2D56
330
2E4F
100
AcDbEntity
  8
SIZE
100
AcDbLine
 10
0.0000000000013642
 20
-445.0000000000001
 30
0.0
 11
0.0000000000013642
 21
-1414.670453074532
 31
0.0
  0
LINE
  5
2D57
330
2E4F
100
AcDbEntity
  8
SIZE
100
AcDbLine
 10
1018.000000000001
 20
-1394.670453074532
 30
0.0
 11
12.00000000000136
 21
-1394.670453074532
 31
0.0
  0
INSERT
  5
2D58
330
2E4F
100
AcDbEntity
  8
SIZE
100
AcDbBlockReference
  2
_DOTBLANK
 10
1030.000000000001
 20
-1394.670453074532
 30
0.0
 41
12.0
 42
12.0
 43
12.0
  0
INSERT
  5
2D59
330
2E4F
100
AcDbEntity
  8
SIZE
100
AcDbBlockReference
  2
_DOTBLANK
 10
0.0000000000013642
 20
-1394.670453074532
 30
0.0
 41
12.0
 42
12.0
 43
12.0
 50
180.0
  0
LINE
  5
2D5A
330
2E4F
100
AcDbEntity
  8
SIZE
100
AcDbLine
 10
1052.0
 20
-1043.043944635925
 30
0.0
 11
1052.0
 21
-1414.670453074532
 31
0.0
  0
LINE
  5
2D5B
330
2E4F
100
AcDbEntity
  8
SIZE
100
AcDbLine
 10
1030.000000000001
 20
-1059.200000000001
 30
0.0
 11
1030.000000000001
 21
-1414.670453074532
 31
0.0
  0
LINE
  5
2D5C
330
2E4F
100
AcDbEntity
  8
SIZE
100
AcDbLine
 10
1018.000000000001
 20
-1394.670453074532
 30
0.0
 11
1006.000000000001
 21
-1394.670453074532
 31
0.0
  0
LINE
  5
2D5D
330
2E4F
100
AcDbEntity
  8
SIZE
100
AcDbLine
 10
1064.0
 20
-1394.670453074532
 30
0.0
 11
1189.709508091964
 21
-1394.670453074532
 31
0.0
  0
LINE
  5
2D5E
330
2E4F
100
AcDbEntity
  8
SIZE
100
AcDbLine
 10
1030.000000000001
 20
-1394.670453074532
 30
0.0
 11
1052.0
 21
-1394.670453074532
 31
0.0
  0
INSERT
  5
2D5F
330
2E4F
100
AcDbEntity
  8
SIZE
100
AcDbBlockReference
  2
_DOTBLANK
 10
1030.000000000001
 20
-1394.670453074532
 30
0.0
 41
12.0
 42
12.0
 43
12.0
  0
INSERT
  5
2D60
330
2E4F
100
AcDbEntity
  8
SIZE
100
AcDbBlockReference
  2
_DOTBLANK
 10
1052.0
 20
-1394.670453074532
 30
0.0
 41
12.0
 42
12.0
 43
12.0
 50
180.0
  0
LINE
  5
2D61
330
2E4F
100
AcDbEntity
  8
SIZE
100
AcDbLine
 10
1030.000000000001
 20
-1059.200000000001
 30
0.0
 11
1030.000000000001
 21
-1278.571944177436
 31
0.0
  0
LINE
  5
2D62
330
2E4F
100
AcDbEntity
  8
SIZE
100
AcDbLine
 10
180.0000000000013
 20
-956.0
 30
0.0
 11
180.0000000000013
 21
-1278.571944177436
 31
0.0
  0
LINE
  5
2D63
330
2E4F
100
AcDbEntity
  8
SIZE
100
AcDbLine
 10
1018.000000000001
 20
-1258.571944177436
 30
0.0
 11
192.0000000000013
 21
-1258.571944177436
 31
0.0
  0
INSERT
  5
2D64
330
2E4F
100
AcDbEntity
  8
SIZE
100
AcDbBlockReference
  2
_DOTBLANK
 10
1030.000000000001
 20
-1258.571944177436
 30
0.0
 41
12.0
 42
12.0
 43
12.0
  0
INSERT
  5
2D65
330
2E4F
100
AcDbEntity
  8
SIZE
100
AcDbBlockReference
  2
_DOTBLANK
 10
180.0000000000013
 20
-1258.571944177436
 30
0.0
 41
12.0
 42
12.0
 43
12.0
 50
180.0
  0
LINE
  5
2D66
330
2E4F
100
AcDbEntity
  8
SIZE
100
AcDbLine
 10
-19.99999999999863
 20
-385.0
 30
0.0
 11
-440.4786502908851
 21
-384.9999999999997
 31
0.0
  0
LINE
  5
2D67
330
2E4F
100
AcDbEntity
  8
SIZE
100
AcDbLine
 10
160.0000000000013
 20
-936.0
 30
0.0
 11
-440.4786502908851
 21
-936.0
 31
0.0
  0
LINE
  5
2D68
330
2E4F
100
AcDbEntity
  8
SIZE
100
AcDbLine
 10
-420.4786502908848
 20
-396.9999999999997
 30
0.0
 11
-420.478650290885
 21
-923.9999999999996
 31
0.0
  0
INSERT
  5
2D69
330
2E4F
100
AcDbEntity
  8
SIZE
100
AcDbBlockReference
  2
_DOTBLANK
 10
-420.4786502908848
 20
-384.9999999999997
 30
0.0
 41
12.0
 42
12.0
 43
12.0
 50
90.0
  0
INSERT
  5
2D6A
330
2E4F
100
AcDbEntity
  8
SIZE
100
AcDbBlockReference
  2
_DOTBLANK
 10
-420.478650290885
 20
-936.0
 30
0.0
 41
12.0
 42
12.0
 43
12.0
 50
270.0
  0
LINE
  5
2D6B
330
2E4F
100
AcDbEntity
  8
SIZE
100
AcDbLine
 10
164.0000000000013
 20
-955.0431250802011
 30
0.0
 11
164.0000000000013
 21
-1176.93307083708
 31
0.0
  0
LINE
  5
2D6C
330
2E4F
100
AcDbEntity
  8
SIZE
100
AcDbLine
 10
0.0000000000013642
 20
-445.0000000000001
 30
0.0
 11
0.0000000000013642
 21
-1176.93307083708
 31
0.0
  0
LINE
  5
2D6D
330
2E4F
100
AcDbEntity
  8
SIZE
100
AcDbLine
 10
152.0000000000013
 20
-1156.93307083708
 30
0.0
 11
12.00000000000136
 21
-1156.93307083708
 31
0.0
  0
LINE
  5
2D6E
330
2E4F
100
AcDbEntity
  8
SIZE
100
AcDbLine
 10
0.0000000000013642
 20
-1156.93307083708
 30
0.0
 11
-196.1693811013041
 21
-1156.93307083708
 31
0.0
  0
INSERT
  5
2D6F
330
2E4F
100
AcDbEntity
  8
SIZE
100
AcDbBlockReference
  2
_DOTBLANK
 10
164.0000000000013
 20
-1156.93307083708
 30
0.0
 41
12.0
 42
12.0
 43
12.0
  0
INSERT
  5
2D70
330
2E4F
100
AcDbEntity
  8
SIZE
100
AcDbBlockReference
  2
_DOTBLANK
 10
0.0000000000013642
 20
-1156.93307083708
 30
0.0
 41
12.0
 42
12.0
 43
12.0
 50
180.0
  0
LINE
  5
2D71
330
2E4F
100
AcDbEntity
  8
SIZE
100
AcDbLine
 10
-32.49999999999864
 20
200.0000000000004
 30
0.0
 11
-294.7942519511839
 21
200.0000000000007
 31
0.0
  0
LINE
  5
2D72
330
2E4F
100
AcDbEntity
  8
SIZE
100
AcDbLine
 10
-32.49999999999864
 20
-199.9999999999999
 30
0.0
 11
-294.7942519511839
 21
-199.9999999999997
 31
0.0
  0
LINE
  5
2D73
330
2E4F
100
AcDbEntity
  8
SIZE
100
AcDbLine
 10
-274.7942519511837
 20
188.0000000000007
 30
0.0
 11
-274.7942519511838
 21
-187.9999999999997
 31
0.0
  0
INSERT
  5
2D74
330
2E4F
100
AcDbEntity
  8
SIZE
100
AcDbBlockReference
  2
_DOTBLANK
 10
-274.7942519511837
 20
200.0000000000007
 30
0.0
 41
12.0
 42
12.0
 43
12.0
 50
90.0
  0
INSERT
  5
2D75
330
2E4F
100
AcDbEntity
  8
SIZE
100
AcDbBlockReference
  2
_DOTBLANK
 10
-274.7942519511838
 20
-199.9999999999997
 30
0.0
 41
12.0
 42
12.0
 43
12.0
 50
270.0
  0
LINE
  5
2D76
330
2E4F
100
AcDbEntity
  8
SIZE
100
AcDbLine
 10
-19.99999999999863
 20
385.0000000000005
 30
0.0
 11
-440.4786502908846
 21
385.0000000000008
 31
0.0
  0
LINE
  5
2D77
330
2E4F
100
AcDbEntity
  8
SIZE
100
AcDbLine
 10
-19.99999999999863
 20
-385.0
 30
0.0
 11
-440.4786502908851
 21
-384.9999999999997
 31
0.0
  0
LINE
  5
2D78
330
2E4F
100
AcDbEntity
  8
SIZE
100
AcDbLine
 10
-420.4786502908846
 20
373.0000000000007
 30
0.0
 11
-420.4786502908848
 21
-372.9999999999997
 31
0.0
  0
INSERT
  5
2D79
330
2E4F
100
AcDbEntity
  8
SIZE
100
AcDbBlockReference
  2
_DOTBLANK
 10
-420.4786502908846
 20
385.0000000000008
 30
0.0
 41
12.0
 42
12.0
 43
12.0
 50
90.0
  0
INSERT
  5
2D7A
330
2E4F
100
AcDbEntity
  8
SIZE
100
AcDbBlockReference
  2
_DOTBLANK
 10
-420.4786502908848
 20
-384.9999999999997
 30
0.0
 41
12.0
 42
12.0
 43
12.0
 50
270.0
  0
LINE
  5
2D7B
330
2E4F
100
AcDbEntity
  8
SIZE
100
AcDbLine
 10
-19.99999999999863
 20
425.0000000000005
 30
0.0
 11
-733.438194493125
 21
425.0000000000007
 31
0.0
  0
LINE
  5
2D7C
330
2E4F
100
AcDbEntity
  8
SIZE
100
AcDbLine
 10
-19.99999999999863
 20
-425.0000000000004
 30
0.0
 11
-733.4381944931251
 21
-424.9999999999999
 31
0.0
  0
LINE
  5
2D7D
330
2E4F
100
AcDbEntity
  8
SIZE
100
AcDbLine
 10
-713.4381944931247
 20
413.0000000000007
 30
0.0
 11
-713.4381944931251
 21
-412.9999999999999
 31
0.0
  0
INSERT
  5
2D7E
330
2E4F
100
AcDbEntity
  8
SIZE
100
AcDbBlockReference
  2
_DOTBLANK
 10
-713.4381944931247
 20
425.0000000000007
 30
0.0
 41
12.0
 42
12.0
 43
12.0
 50
90.0
  0
INSERT
  5
2D7F
330
2E4F
100
AcDbEntity
  8
SIZE
100
AcDbBlockReference
  2
_DOTBLANK
 10
-713.4381944931251
 20
-424.9999999999999
 30
0.0
 41
12.0
 42
12.0
 43
12.0
 50
270.0
  0
LINE
  5
2D80
330
2E4F
100
AcDbEntity
  8
SIZE
100
AcDbLine
 10
-32.49999999999864
 20
400.0000000000005
 30
0.0
 11
-584.9699774768833
 21
400.0000000000007
 31
0.0
  0
LINE
  5
2D81
330
2E4F
100
AcDbEntity
  8
SIZE
100
AcDbLine
 10
-32.49999999999864
 20
-400.0
 30
0.0
 11
-584.9699774768835
 21
-399.9999999999997
 31
0.0
  0
LINE
  5
2D82
330
2E4F
100
AcDbEntity
  8
SIZE
100
AcDbLine
 10
-564.9699774768834
 20
388.0000000000007
 30
0.0
 11
-564.9699774768834
 21
-387.9999999999999
 31
0.0
  0
INSERT
  5
2D83
330
2E4F
100
AcDbEntity
  8
SIZE
100
AcDbBlockReference
  2
_DOTBLANK
 10
-564.9699774768834
 20
400.0000000000007
 30
0.0
 41
12.0
 42
12.0
 43
12.0
 50
90.0
  0
INSERT
  5
2D84
330
2E4F
100
AcDbEntity
  8
SIZE
100
AcDbBlockReference
  2
_DOTBLANK
 10
-564.9699774768834
 20
-399.9999999999997
 30
0.0
 41
12.0
 42
12.0
 43
12.0
 50
270.0
  0
LINE
  5
2D85
330
2E4F
100
AcDbEntity
  8
SIZE
100
AcDbLine
 10
8.000000000001362
 20
445.0000000000005
 30
0.0
 11
8.000000000001362
 21
581.907746270035
 31
0.0
  0
LINE
  5
2D86
330
2E4F
100
AcDbEntity
  8
SIZE
100
AcDbLine
 10
0.0000000000013642
 20
445.0000000000005
 30
0.0
 11
0.0000000000013642
 21
581.907746270035
 31
0.0
  0
LINE
  5
2D87
330
2E4F
100
AcDbEntity
  8
SIZE
100
AcDbLine
 10
20.00000000000136
 20
561.9077462700352
 30
0.0
 11
32.00000000000136
 21
561.9077462700352
 31
0.0
  0
LINE
  5
2D88
330
2E4F
100
AcDbEntity
  8
SIZE
100
AcDbLine
 10
-11.99999999999863
 20
561.9077462700352
 30
0.0
 11
-127.8319808147912
 21
561.9077462700352
 31
0.0
  0
LINE
  5
2D89
330
2E4F
100
AcDbEntity
  8
SIZE
100
AcDbLine
 10
8.000000000001362
 20
561.9077462700352
 30
0.0
 11
0.0000000000013642
 21
561.9077462700352
 31
0.0
  0
INSERT
  5
2D8A
330
2E4F
100
AcDbEntity
  8
SIZE
100
AcDbBlockReference
  2
_DOTBLANK
 10
8.000000000001362
 20
561.9077462700352
 30
0.0
 41
12.0
 42
12.0
 43
12.0
 50
180.0
  0
INSERT
  5
2D8B
330
2E4F
100
AcDbEntity
  8
SIZE
100
AcDbBlockReference
  2
_DOTBLANK
 10
0.0000000000013642
 20
561.9077462700352
 30
0.0
 41
12.0
 42
12.0
 43
12.0
  0
TEXT
  5
2D8C
330
2E4F
100
AcDbEntity
  8
SIZE
100
AcDbText
 10
1086.452365234821
 20
-1384.670453074532
 30
0.0
 40
64.0
  1
22
 41
0.9
100
AcDbText
  0
TEXT
  5
2D8D
330
2E4F
100
AcDbEntity
  8
SIZE
100
AcDbText
 10
419.2500000000014
 20
-1384.670453074532
 30
0.0
 40
64.0
  1
1030
 41
0.9
100
AcDbText
  0
TEXT
  5
2D8E
330
2E4F
100
AcDbEntity
  8
SIZE
100
AcDbText
 10
530.9428571428583
 20
-1248.571944177436
 30
0.0
 40
64.0
  1
850
 41
0.9
100
AcDbText
  0
TEXT
  5
2D8F
330
2E4F
100
AcDbEntity
  8
SIZE
100
AcDbText
 10
-186.1693811013041
 20
-1146.93307083708
 30
0.0
 40
64.0
  1
164
 41
0.9
100
AcDbText
  0
TEXT
  5
2D90
330
2E4F
100
AcDbEntity
  8
SIZE
100
AcDbText
 10
-430.4786502908847
 20
-722.2142857142854
 30
0.0
 40
64.0
  1
551
 50
90.0
 41
0.9
100
AcDbText
  0
TEXT
  5
2D91
330
2E4F
100
AcDbEntity
  8
SIZE
100
AcDbText
 10
-284.7942519511839
 20
-74.05714285714219
 30
0.0
 40
64.0
  1
400
 50
90.0
 41
0.9
100
AcDbText
  0
TEXT
  5
2D92
330
2E4F
100
AcDbEntity
  8
SIZE
100
AcDbText
 10
-430.4786502908846
 20
-74.05714285714243
 30
0.0
 40
64.0
  1
770
 50
90.0
 41
0.9
100
AcDbText
  0
TEXT
  5
2D93
330
2E4F
100
AcDbEntity
  8
SIZE
100
AcDbText
 10
-574.9699774768835
 20
-74.05714285714219
 30
0.0
 40
64.0
  1
800
 50
90.0
 41
0.9
100
AcDbText
  0
TEXT
  5
2D94
330
2E4F
100
AcDbEntity
  8
SIZE
100
AcDbText
 10
-723.4381944931251
 20
-74.05714285714219
 30
0.0
 40
64.0
  1
850
 50
90.0
 41
0.9
100
AcDbText
  0
TEXT
  5
2D95
330
2E4F
100
AcDbEntity
  8
SIZE
100
AcDbText
 10
1223.289931372111
 20
-406.9999873094486
 30
0.0
 40
64.0
  1
1472
 50
90.0
 41
0.9
100
AcDbText
  0
TEXT
  5
2D96
330
2E4F
100
AcDbEntity
  8
SIZE
100
AcDbText
 10
-117.8319808147912
 20
571.9077462700352
 30
0.0
 40
64.0
  1
8
 41
0.9
100
AcDbText
  0
TEXT
  5
2D97
330
2E4F
100
AcDbEntity
  8
NOTE
100
AcDbText
 10
149.8693999922557
 20
513.5270950580132
 30
0.0
 40
64.0
  1
10×φ15取付穴
 41
0.9
100
AcDbText
  0
INSERT
  5
2D98
330
2E4F
100
AcDbEntity
  8
NOTE
100
AcDbBlockReference
  2
_OPEN30
 10
0.0000000000013642
 20
400.0000000000005
 30
0.0
 41
11.99999999999998
 42
12.0
 43
12.0
 50
227.3909883883106
1001
ACAD
1000
DSTYLE
1002
{
1070
    41
1040
12.0
1070
    42
1040
20.0
1070
    43
1040
200.0
1070
    44
1040
20.0
1070
    73
1070
     0
1070
    74
1070
     0
1070
    77
1070
     1
1070
    78
1070
     8
1070
   140
1040
64.0
1070
   147
1040
50.0
1070
   172
1070
     1
1070
   174
1070
     1
1070
   275
1070
     0
1070
   284
1070
     0
1070
   285
1070
     0
1070
   286
1070
     0
1070
   341
1005
0
1070
   342
1005
0
1002
}
  0
POLYLINE
  5
2D99
330
2E4F
100
AcDbEntity
  8
NOTE
100
AcDb2dPolyline
 66
     1
 10
0.0
 20
0.0
 30
0.0
1001
ACAD
1000
DSTYLE
1002
{
1070
    41
1040
12.0
1070
    42
1040
20.0
1070
    43
1040
200.0
1070
    44
1040
20.0
1070
    73
1070
     0
1070
    74
1070
     0
1070
    77
1070
     1
1070
    78
1070
     8
1070
   140
1040
64.0
1070
   147
1040
50.0
1070
   172
1070
     1
1070
   174
1070
     1
1070
   275
1070
     0
1070
   284
1070
     0
1070
   285
1070
     0
1070
   286
1070
     0
1070
   341
1005
0
1070
   342
1005
0
1002
}
  0
VERTEX
  5
2D9A
330
2D99
100
AcDbEntity
  8
NOTE
100
AcDbVertex
100
AcDb2dVertex
 10
8.123900836190841
 20
408.8318874089159
 30
0.0
  0
VERTEX
  5
2D9B
330
2D99
100
AcDbEntity
  8
NOTE
100
AcDbVertex
100
AcDb2dVertex
 10
87.86939999225571
 20
495.5270950580135
 30
0.0
  0
VERTEX
  5
2D9C
330
2D99
100
AcDbEntity
  8
NOTE
100
AcDbVertex
100
AcDb2dVertex
 10
677.59511427797
 20
495.5270950580135
 30
0.0
  0
SEQEND
  5
2D9D
330
2D99
100
AcDbEntity
  8
NOTE
  0
ENDSEC
  0
SECTION
  2
OBJECTS
  0
DICTIONARY
  5
2DE7
330
0
100
AcDbDictionary
281
     1
  3
ACAD_2007HEADERVARS_RT
350
2FDE
  3
ACAD_COLOR
350
2E45
  3
ACAD_GROUP
350
2DE8
  3
ACAD_LAYOUT
350
2E44
  3
ACAD_MATERIAL
350
2DEB
  3
ACAD_MLEADERSTYLE
350
2E48
  3
ACAD_MLINESTYLE
350
2E41
  3
ACAD_PLOTSETTINGS
350
2E43
  3
ACAD_PLOTSTYLENAME
350
2DE9
  3
ACAD_SCALELIST
350
2E15
  3
ACAD_TABLESTYLE
350
2E46
  3
ACAD_VISUALSTYLE
350
2E04
  3
ACDB_RECOMPOSE_DATA
350
2FDC
  3
AcDbVariableDictionary
350
2FD3
  3
AcmDictionary
350
2F83
  3
AMG
350
2ED0
  3
DWGPROPS
350
2FDD
  3
MAPISURF_MODULE
350
2F50
  0
DICTIONARY
  5
2FAB
330
2E37
100
AcDbDictionary
280
     1
281
     1
  3
ADSK_XREC_LAYER_RECONCILED
360
2FAC
  0
DICTIONARY
  5
2FAD
330
2E67
100
AcDbDictionary
280
     1
281
     1
  3
ADSK_XREC_LAYER_RECONCILED
360
2FAE
  0
DICTIONARY
  5
2FAF
330
2E68
100
AcDbDictionary
280
     1
281
     1
  3
ADSK_XREC_LAYER_RECONCILED
360
2FB0
  0
DICTIONARY
  5
2FB1
330
2E69
100
AcDbDictionary
280
     1
281
     1
  3
ADSK_XREC_LAYER_RECONCILED
360
2FB2
  0
DICTIONARY
  5
2FB3
330
2E6A
100
AcDbDictionary
280
     1
281
     1
  3
ADSK_XREC_LAYER_RECONCILED
360
2FB4
  0
DICTIONARY
  5
2FB5
330
2E6B
100
AcDbDictionary
280
     1
281
     1
  3
ADSK_XREC_LAYER_RECONCILED
360
2FB6
  0
DICTIONARY
  5
2FB7
330
2E6D
100
AcDbDictionary
280
     1
281
     1
  3
ADSK_XREC_LAYER_RECONCILED
360
2FB8
  0
DICTIONARY
  5
2FB9
330
2E6E
100
AcDbDictionary
280
     1
281
     1
  3
ADSK_XREC_LAYER_RECONCILED
360
2FBA
  0
DICTIONARY
  5
2FBB
330
2E6F
100
AcDbDictionary
280
     1
281
     1
  3
ADSK_XREC_LAYER_RECONCILED
360
2FBC
  0
DICTIONARY
  5
2FBD
330
2E70
100
AcDbDictionary
280
     1
281
     1
  3
ADSK_XREC_LAYER_RECONCILED
360
2FBE
  0
DICTIONARY
  5
2FBF
330
2E71
100
AcDbDictionary
280
     1
281
     1
  3
ADSK_XREC_LAYER_RECONCILED
360
2FC0
  0
DICTIONARY
  5
2FC1
330
2E72
100
AcDbDictionary
280
     1
281
     1
  3
ADSK_XREC_LAYER_RECONCILED
360
2FC2
  0
DICTIONARY
  5
2FC3
330
2E4F
100
AcDbDictionary
280
     1
281
     1
  3
ACAD_INDEX
360
2FC4
  0
DICTIONARY
  5
2FDE
102
{ACAD_REACTORS
330
2DE7
102
}
330
2DE7
100
AcDbDictionary
281
     1
  3
DIMARCSYM
350
2FDF
  3
DIMLTEX1
350
2FE1
  3
DIMLTEX2
350
2FE2
  3
DIMLTYPE
350
2FE0
  0
DICTIONARY
  5
2E45
102
{ACAD_REACTORS
330
2DE7
102
}
330
2DE7
100
AcDbDictionary
281
     1
  0
DICTIONARY
  5
2DE8
102
{ACAD_REACTORS
330
2DE7
102
}
330
2DE7
100
AcDbDictionary
281
     1
  0
DICTIONARY
  5
2E44
102
{ACAD_REACTORS
330
2DE7
102
}
330
2DE7
100
AcDbDictionary
281
     1
  3
Model
350
2E52
  3
レイアウト1
350
2E4E
  0
DICTIONARY
  5
2DEB
102
{ACAD_REACTORS
330
2DE7
102
}
330
2DE7
100
AcDbDictionary
281
     1
  3
ByBlock
350
2DF4
  3
ByLayer
350
2DEC
  3
Global
350
2DFC
  0
DICTIONARY
  5
2E48
102
{ACAD_REACTORS
330
2DE7
102
}
330
2DE7
100
AcDbDictionary
281
     1
  3
Standard
350
2E49
  0
DICTIONARY
  5
2E41
102
{ACAD_REACTORS
330
2DE7
102
}
330
2DE7
100
AcDbDictionary
281
     1
  3
Standard
350
2E42
  0
DICTIONARY
  5
2E43
102
{ACAD_REACTORS
330
2DE7
102
}
330
2DE7
100
AcDbDictionary
281
     1
  0
ACDBDICTIONARYWDFLT
  5
2DE9
102
{ACAD_REACTORS
330
2DE7
102
}
330
2DE7
100
AcDbDictionary
281
     1
  3
Normal
350
2DEA
100
AcDbDictionaryWithDefault
340
2DEA
  0
DICTIONARY
  5
2E15
102
{ACAD_REACTORS
330
2DE7
102
}
330
2DE7
100
AcDbDictionary
281
     1
  3
A0
350
2E16
  3
A1
350
2E17
  3
A2
350
2E18
  3
A3
350
2E19
  3
A4
350
2E1A
  3
A5
350
2E1B
  3
A6
350
2E1C
  3
A7
350
2E1D
  3
A8
350
2E1E
  3
A9
350
2E1F
  3
B0
350
2E20
  3
B1
350
2E21
  3
B2
350
2E22
  3
B3
350
2E23
  3
B4
350
2E24
  3
B5
350
2E25
  3
B6
350
2E26
  3
B7
350
2E27
  3
B8
350
2E28
  3
B9
350
2E29
  3
C0
350
2E2A
  3
C1
350
2E2B
  3
C2
350
2E2C
  3
C3
350
2E2D
  3
C4
350
2E2E
  3
C5
350
2E2F
  3
C6
350
2E30
  3
C7
350
2E31
  3
C8
350
2E32
  3
C9
350
2E33
  3
D0
350
2E34
  3
D1
350
2E35
  3
D2
350
2E36
  0
DICTIONARY
  5
2E46
102
{ACAD_REACTORS
330
2DE7
102
}
330
2DE7
100
AcDbDictionary
281
     1
  3
Standard
350
2E47
  0
DICTIONARY
  5
2E04
102
{ACAD_REACTORS
330
2DE7
102
}
330
2DE7
100
AcDbDictionary
281
     1
  3
2dWireframe
350
2E0A
  3
3D Hidden
350
2E0C
  3
3dWireframe
350
2E0B
  3
Basic
350
2E09
  3
Brighten
350
2E10
  3
ColorChange
350
2E14
  3
Conceptual
350
2E0D
  3
Dim
350
2E0F
  3
Facepattern
350
2E13
  3
Flat
350
2E05
  3
FlatWithEdges
350
2E06
  3
Gouraud
350
2E07
  3
GouraudWithEdges
350
2E08
  3
Linepattern
350
2E12
  3
Realistic
350
2E0E
  3
Thicken
350
2E11
  0
XRECORD
  5
2FDC
102
{ACAD_REACTORS
330
2DE7
102
}
330
2DE7
100
AcDbXrecord
280
     1
 90
        1
330
2E47
  0
DICTIONARY
  5
2FD3
102
{ACAD_REACTORS
330
2DE7
102
}
330
2DE7
100
AcDbDictionary
281
     1
  3
CANNOSCALE
350
2FD6
  3
CMLEADERSTYLE
350
2FD5
  3
CTABLESTYLE
350
2FD4
  3
DIMASSOC
350
2FD9
  3
INDEXCTL
350
2FD8
  3
SORTENTS
350
2FD7
  0
DICTIONARY
  5
2F83
102
{ACAD_REACTORS
330
2DE7
102
}
330
2DE7
100
AcDbDictionary
281
     1
  3
AcmStdDictionary
350
2F91
  0
DICTIONARY
  5
2ED0
102
{ACAD_REACTORS
330
2DE7
102
}
330
2DE7
100
AcDbDictionary
281
     1
  3
AcMgSettings
350
2ED1
  0
XRECORD
  5
2FDD
102
{ACAD_REACTORS
330
2DE7
102
}
330
2DE7
100
AcDbXrecord
280
     1
  1
DWGPROPS COOKIE
  2

  3

  4

  6

  7

  8
A090053
  9

300
AmdtFileType=84
301
=
302
=
303
=
304
=
305
=
306
=
307
=
308
=
309
=
 40
1.046476585648148
 41
2452321.396199653
 42
2456213.408789282
  1

 90
        1
  0
XRECORD
  5
2FAC
102
{ACAD_REACTORS
330
2FAB
102
}
330
2FAB
100
AcDbXrecord
280
     1
290
     1
  0
XRECORD
  5
2FAE
102
{ACAD_REACTORS
330
2FAD
102
}
330
2FAD
100
AcDbXrecord
280
     1
290
     1
  0
XRECORD
  5
2FB0
102
{ACAD_REACTORS
330
2FAF
102
}
330
2FAF
100
AcDbXrecord
280
     1
290
     1
  0
XRECORD
  5
2FB2
102
{ACAD_REACTORS
330
2FB1
102
}
330
2FB1
100
AcDbXrecord
280
     1
290
     1
  0
XRECORD
  5
2FB4
102
{ACAD_REACTORS
330
2FB3
102
}
330
2FB3
100
AcDbXrecord
280
     1
290
     1
  0
XRECORD
  5
2FB6
102
{ACAD_REACTORS
330
2FB5
102
}
330
2FB5
100
AcDbXrecord
280
     1
290
     1
  0
XRECORD
  5
2FB8
102
{ACAD_REACTORS
330
2FB7
102
}
330
2FB7
100
AcDbXrecord
280
     1
290
     1
  0
XRECORD
  5
2FBA
102
{ACAD_REACTORS
330
2FB9
102
}
330
2FB9
100
AcDbXrecord
280
     1
290
     1
  0
XRECORD
  5
2FBC
102
{ACAD_REACTORS
330
2FBB
102
}
330
2FBB
100
AcDbXrecord
280
     1
290
     1
  0
XRECORD
  5
2FBE
102
{ACAD_REACTORS
330
2FBD
102
}
330
2FBD
100
AcDbXrecord
280
     1
290
     1
  0
XRECORD
  5
2FC0
102
{ACAD_REACTORS
330
2FBF
102
}
330
2FBF
100
AcDbXrecord
280
     1
290
     1
  0
XRECORD
  5
2FC2
102
{ACAD_REACTORS
330
2FC1
102
}
330
2FC1
100
AcDbXrecord
280
     1
290
     1
  0
DICTIONARY
  5
2FC4
102
{ACAD_REACTORS
330
2FC3
102
}
330
2FC3
100
AcDbDictionary
281
     1
  3
*A1
350
2FC5
  0
XRECORD
  5
2FDF
102
{ACAD_REACTORS
330
2FDE
102
}
330
2FDE
100
AcDbXrecord
280
     1
 70
     1
  0
XRECORD
  5
2FE1
102
{ACAD_REACTORS
330
2FDE
102
}
330
2FDE
100
AcDbXrecord
280
     1
340
2E3D
  0
XRECORD
  5
2FE2
102
{ACAD_REACTORS
330
2FDE
102
}
330
2FDE
100
AcDbXrecord
280
     1
340
2E3D
  0
XRECORD
  5
2FE0
102
{ACAD_REACTORS
330
2FDE
102
}
330
2FDE
100
AcDbXrecord
280
     1
340
2E3D
  0
LAYOUT
  5
2E52
102
{ACAD_XDICTIONARY
360
2FE9
102
}
102
{ACAD_REACTORS
330
2E44
102
}
330
2E44
100
AcDbPlotSettings
  1

  2
自動 EPSON LP-9600S (W2450527 上)
  4

  6

 40
0.0
 41
0.0
 42
0.0
 43
0.0
 44
0.0
 45
0.0
 46
0.0
 47
0.0
 48
0.0
 49
0.0
140
0.0
141
0.0
142
1.0
143
1.0
 70
  1712
 72
     0
 73
     0
 74
     0
  7

 75
     0
147
1.0
148
0.0
149
0.0
100
AcDbLayout
  1
Model
 70
     1
 71
     0
 10
0.0
 20
0.0
 11
12.0
 21
9.0
 12
0.0
 22
0.0
 32
0.0
 14
0.0
 24
0.0
 34
0.0
 15
0.0
 25
0.0
 35
0.0
146
0.0
 13
0.0
 23
0.0
 33
0.0
 16
1.0
 26
0.0
 36
0.0
 17
0.0
 27
1.0
 37
0.0
 76
     0
330
2E4F
331
2E53
  0
LAYOUT
  5
2E4E
102
{ACAD_XDICTIONARY
360
2FE7
102
}
102
{ACAD_REACTORS
330
2E44
102
}
330
2E44
100
AcDbPlotSettings
  1

  2
自動 EPSON LP-9600S (W2450527 上)
  4

  6

 40
0.0
 41
0.0
 42
0.0
 43
0.0
 44
0.0
 45
0.0
 46
0.0
 47
0.0
 48
0.0
 49
0.0
140
0.0
141
0.0
142
1.0
143
1.0
 70
   688
 72
     0
 73
     0
 74
     5
  7

 75
    16
147
1.0
148
0.0
149
0.0
100
AcDbLayout
  1
レイアウト1
 70
     1
 71
     1
 10
0.0
 20
0.0
 11
12.0
 21
9.0
 12
0.0
 22
0.0
 32
0.0
 14
1.000000000000000E+20
 24
1.000000000000000E+20
 34
1.000000000000000E+20
 15
-1.000000000000000E+20
 25
-1.000000000000000E+20
 35
-1.000000000000000E+20
146
0.0
 13
0.0
 23
0.0
 33
0.0
 16
1.0
 26
0.0
 36
0.0
 17
0.0
 27
1.0
 37
0.0
 76
     0
330
2E4B
  0
MATERIAL
  5
2DF4
102
{ACAD_XDICTIONARY
360
2DF5
102
}
102
{ACAD_REACTORS
330
2DEB
102
}
330
2DEB
100
AcDbMaterial
  1
ByBlock
 72
     0
 43
0.0208333333333333
 43
0.0
 43
0.0
 43
0.0
 43
0.0
 43
0.0208333333333333
 43
0.0
 43
0.0
 43
0.0
 43
0.0
 43
1.0
 43
0.0
 43
0.0
 43
0.0
 43
0.0
 43
1.0
 77
     0
 47
0.0208333333333333
 47
0.0
 47
0.0
 47
0.0
 47
0.0
 47
0.0208333333333333
 47
0.0
 47
0.0
 47
0.0
 47
0.0
 47
1.0
 47
0.0
 47
0.0
 47
0.0
 47
0.0
 47
1.0
171
     0
 49
0.0208333333333333
 49
0.0
 49
0.0
 49
0.0
 49
0.0
 49
0.0208333333333333
 49
0.0
 49
0.0
 49
0.0
 49
0.0
 49
1.0
 49
0.0
 49
0.0
 49
0.0
 49
0.0
 49
1.0
175
     0
142
0.0208333333333333
142
0.0
142
0.0
142
0.0
142
0.0
142
0.0208333333333333
142
0.0
142
0.0
142
0.0
142
0.0
142
1.0
142
0.0
142
0.0
142
0.0
142
0.0
142
1.0
179
     0
144
0.0208333333333333
144
0.0
144
0.0
144
0.0
144
0.0
144
0.0208333333333333
144
0.0
144
0.0
144
0.0
144
0.0
144
1.0
144
0.0
144
0.0
144
0.0
144
0.0
144
1.0
147
0.0208333333333333
147
0.0
147
0.0
147
0.0
147
0.0
147
0.0208333333333333
147
0.0
147
0.0
147
0.0
147
0.0
147
1.0
147
0.0
147
0.0
147
0.0
147
0.0
147
1.0
  0
MATERIAL
  5
2DEC
102
{ACAD_XDICTIONARY
360
2DED
102
}
102
{ACAD_REACTORS
330
2DEB
102
}
330
2DEB
100
AcDbMaterial
  1
ByLayer
 72
     0
 43
0.0208333333333333
 43
0.0
 43
0.0
 43
0.0
 43
0.0
 43
0.0208333333333333
 43
0.0
 43
0.0
 43
0.0
 43
0.0
 43
1.0
 43
0.0
 43
0.0
 43
0.0
 43
0.0
 43
1.0
 77
     0
 47
0.0208333333333333
 47
0.0
 47
0.0
 47
0.0
 47
0.0
 47
0.0208333333333333
 47
0.0
 47
0.0
 47
0.0
 47
0.0
 47
1.0
 47
0.0
 47
0.0
 47
0.0
 47
0.0
 47
1.0
171
     0
 49
0.0208333333333333
 49
0.0
 49
0.0
 49
0.0
 49
0.0
 49
0.0208333333333333
 49
0.0
 49
0.0
 49
0.0
 49
0.0
 49
1.0
 49
0.0
 49
0.0
 49
0.0
 49
0.0
 49
1.0
175
     0
142
0.0208333333333333
142
0.0
142
0.0
142
0.0
142
0.0
142
0.0208333333333333
142
0.0
142
0.0
142
0.0
142
0.0
142
1.0
142
0.0
142
0.0
142
0.0
142
0.0
142
1.0
179
     0
144
0.0208333333333333
144
0.0
144
0.0
144
0.0
144
0.0
144
0.0208333333333333
144
0.0
144
0.0
144
0.0
144
0.0
144
1.0
144
0.0
144
0.0
144
0.0
144
0.0
144
1.0
147
0.0208333333333333
147
0.0
147
0.0
147
0.0
147
0.0
147
0.0208333333333333
147
0.0
147
0.0
147
0.0
147
0.0
147
1.0
147
0.0
147
0.0
147
0.0
147
0.0
147
1.0
  0
MATERIAL
  5
2DFC
102
{ACAD_XDICTIONARY
360
2DFD
102
}
102
{ACAD_REACTORS
330
2DEB
102
}
330
2DEB
100
AcDbMaterial
  1
Global
 72
     0
 43
0.0208333333333333
 43
0.0
 43
0.0
 43
0.0
 43
0.0
 43
0.0208333333333333
 43
0.0
 43
0.0
 43
0.0
 43
0.0
 43
1.0
 43
0.0
 43
0.0
 43
0.0
 43
0.0
 43
1.0
 77
     0
 47
0.0208333333333333
 47
0.0
 47
0.0
 47
0.0
 47
0.0
 47
0.0208333333333333
 47
0.0
 47
0.0
 47
0.0
 47
0.0
 47
1.0
 47
0.0
 47
0.0
 47
0.0
 47
0.0
 47
1.0
171
     0
 49
0.0208333333333333
 49
0.0
 49
0.0
 49
0.0
 49
0.0
 49
0.0208333333333333
 49
0.0
 49
0.0
 49
0.0
 49
0.0
 49
1.0
 49
0.0
 49
0.0
 49
0.0
 49
0.0
 49
1.0
175
     0
142
0.0208333333333333
142
0.0
142
0.0
142
0.0
142
0.0
142
0.0208333333333333
142
0.0
142
0.0
142
0.0
142
0.0
142
1.0
142
0.0
142
0.0
142
0.0
142
0.0
142
1.0
179
     0
144
0.0208333333333333
144
0.0
144
0.0
144
0.0
144
0.0
144
0.0208333333333333
144
0.0
144
0.0
144
0.0
144
0.0
144
1.0
144
0.0
144
0.0
144
0.0
144
0.0
144
1.0
147
0.0208333333333333
147
0.0
147
0.0
147
0.0
147
0.0
147
0.0208333333333333
147
0.0
147
0.0
147
0.0
147
0.0
147
1.0
147
0.0
147
0.0
147
0.0
147
0.0
147
1.0
  0
MLEADERSTYLE
  5
2E49
102
{ACAD_REACTORS
330
2E48
102
}
330
2E48
100
AcDbMLeaderStyle
170
     2
171
     1
172
     0
 90
        2
 40
0.0
 41
0.0
173
     1
 91
-1056964608
340
2E3D
 92
       -2
290
     1
 42
0.09
291
     1
 43
0.36
  3
Standard
 44
0.18
300

342
2E38
174
     1
178
     6
175
     1
176
     0
 93
-1056964608
 45
0.18
292
     0
297
     0
 46
0.18
 94
-1056964608
 47
1.0
 49
1.0
140
1.0
293
     1
141
0.0
294
     1
177
     0
142
1.0
295
     0
296
     0
143
0.125
1001
ACAD_MLEADERVER
1070
     2
  0
MLINESTYLE
  5
2E42
102
{ACAD_REACTORS
330
2E41
102
}
330
2E41
100
AcDbMlineStyle
  2
STANDARD
 70
     0
  3

 62
   256
 51
90.0
 52
90.0
 71
     2
 49
0.5
 62
   256
  6
BYLAYER
 49
-0.5
 62
   256
  6
BYLAYER
  0
ACDBPLACEHOLDER
  5
2DEA
102
{ACAD_REACTORS
330
2DE9
102
}
330
2DE9
  0
SCALE
  5
2E16
102
{ACAD_REACTORS
330
2E15
102
}
330
2E15
100
AcDbScale
 70
     0
300
1:1
140
1.0
141
1.0
290
     1
  0
SCALE
  5
2E17
102
{ACAD_REACTORS
330
2E15
102
}
330
2E15
100
AcDbScale
 70
     0
300
1:2
140
1.0
141
2.0
290
     0
  0
SCALE
  5
2E18
102
{ACAD_REACTORS
330
2E15
102
}
330
2E15
100
AcDbScale
 70
     0
300
1:4
140
1.0
141
4.0
290
     0
  0
SCALE
  5
2E19
102
{ACAD_REACTORS
330
2E15
102
}
330
2E15
100
AcDbScale
 70
     0
300
1:5
140
1.0
141
5.0
290
     0
  0
SCALE
  5
2E1A
102
{ACAD_REACTORS
330
2E15
102
}
330
2E15
100
AcDbScale
 70
     0
300
1:8
140
1.0
141
8.0
290
     0
  0
SCALE
  5
2E1B
102
{ACAD_REACTORS
330
2E15
102
}
330
2E15
100
AcDbScale
 70
     0
300
1:10
140
1.0
141
10.0
290
     0
  0
SCALE
  5
2E1C
102
{ACAD_REACTORS
330
2E15
102
}
330
2E15
100
AcDbScale
 70
     0
300
1:16
140
1.0
141
16.0
290
     0
  0
SCALE
  5
2E1D
102
{ACAD_REACTORS
330
2E15
102
}
330
2E15
100
AcDbScale
 70
     0
300
1:20
140
1.0
141
20.0
290
     0
  0
SCALE
  5
2E1E
102
{ACAD_REACTORS
330
2E15
102
}
330
2E15
100
AcDbScale
 70
     0
300
1:30
140
1.0
141
30.0
290
     0
  0
SCALE
  5
2E1F
102
{ACAD_REACTORS
330
2E15
102
}
330
2E15
100
AcDbScale
 70
     0
300
1:40
140
1.0
141
40.0
290
     0
  0
SCALE
  5
2E20
102
{ACAD_REACTORS
330
2E15
102
}
330
2E15
100
AcDbScale
 70
     0
300
1:50
140
1.0
141
50.0
290
     0
  0
SCALE
  5
2E21
102
{ACAD_REACTORS
330
2E15
102
}
330
2E15
100
AcDbScale
 70
     0
300
1:100
140
1.0
141
100.0
290
     0
  0
SCALE
  5
2E22
102
{ACAD_REACTORS
330
2E15
102
}
330
2E15
100
AcDbScale
 70
     0
300
2:1
140
2.0
141
1.0
290
     0
  0
SCALE
  5
2E23
102
{ACAD_REACTORS
330
2E15
102
}
330
2E15
100
AcDbScale
 70
     0
300
4:1
140
4.0
141
1.0
290
     0
  0
SCALE
  5
2E24
102
{ACAD_REACTORS
330
2E15
102
}
330
2E15
100
AcDbScale
 70
     0
300
8:1
140
8.0
141
1.0
290
     0
  0
SCALE
  5
2E25
102
{ACAD_REACTORS
330
2E15
102
}
330
2E15
100
AcDbScale
 70
     0
300
10:1
140
10.0
141
1.0
290
     0
  0
SCALE
  5
2E26
102
{ACAD_REACTORS
330
2E15
102
}
330
2E15
100
AcDbScale
 70
     0
300
100:1
140
100.0
141
1.0
290
     0
  0
SCALE
  5
2E27
102
{ACAD_REACTORS
330
2E15
102
}
330
2E15
100
AcDbScale
 70
     0
300
1/128" = 1'-0"
140
0.0078125
141
12.0
290
     0
  0
SCALE
  5
2E28
102
{ACAD_REACTORS
330
2E15
102
}
330
2E15
100
AcDbScale
 70
     0
300
1/64" = 1'-0"
140
0.015625
141
12.0
290
     0
  0
SCALE
  5
2E29
102
{ACAD_REACTORS
330
2E15
102
}
330
2E15
100
AcDbScale
 70
     0
300
1/32" = 1'-0"
140
0.03125
141
12.0
290
     0
  0
SCALE
  5
2E2A
102
{ACAD_REACTORS
330
2E15
102
}
330
2E15
100
AcDbScale
 70
     0
300
1/16" = 1'-0"
140
0.0625
141
12.0
290
     0
  0
SCALE
  5
2E2B
102
{ACAD_REACTORS
330
2E15
102
}
330
2E15
100
AcDbScale
 70
     0
300
3/32" = 1'-0"
140
0.09375
141
12.0
290
     0
  0
SCALE
  5
2E2C
102
{ACAD_REACTORS
330
2E15
102
}
330
2E15
100
AcDbScale
 70
     0
300
1/8" = 1'-0"
140
0.125
141
12.0
290
     0
  0
SCALE
  5
2E2D
102
{ACAD_REACTORS
330
2E15
102
}
330
2E15
100
AcDbScale
 70
     0
300
3/16" = 1'-0"
140
0.1875
141
12.0
290
     0
  0
SCALE
  5
2E2E
102
{ACAD_REACTORS
330
2E15
102
}
330
2E15
100
AcDbScale
 70
     0
300
1/4" = 1'-0"
140
0.25
141
12.0
290
     0
  0
SCALE
  5
2E2F
102
{ACAD_REACTORS
330
2E15
102
}
330
2E15
100
AcDbScale
 70
     0
300
3/8" = 1'-0"
140
0.375
141
12.0
290
     0
  0
SCALE
  5
2E30
102
{ACAD_REACTORS
330
2E15
102
}
330
2E15
100
AcDbScale
 70
     0
300
1/2" = 1'-0"
140
0.5
141
12.0
290
     0
  0
SCALE
  5
2E31
102
{ACAD_REACTORS
330
2E15
102
}
330
2E15
100
AcDbScale
 70
     0
300
3/4" = 1'-0"
140
0.75
141
12.0
290
     0
  0
SCALE
  5
2E32
102
{ACAD_REACTORS
330
2E15
102
}
330
2E15
100
AcDbScale
 70
     0
300
1" = 1'-0"
140
1.0
141
12.0
290
     0
  0
SCALE
  5
2E33
102
{ACAD_REACTORS
330
2E15
102
}
330
2E15
100
AcDbScale
 70
     0
300
1-1/2" = 1'-0"
140
1.5
141
12.0
290
     0
  0
SCALE
  5
2E34
102
{ACAD_REACTORS
330
2E15
102
}
330
2E15
100
AcDbScale
 70
     0
300
3" = 1'-0"
140
3.0
141
12.0
290
     0
  0
SCALE
  5
2E35
102
{ACAD_REACTORS
330
2E15
102
}
330
2E15
100
AcDbScale
 70
     0
300
6" = 1'-0"
140
6.0
141
12.0
290
     0
  0
SCALE
  5
2E36
102
{ACAD_REACTORS
330
2E15
102
}
330
2E15
100
AcDbScale
 70
     0
300
1'-0" = 1'-0"
140
12.0
141
12.0
290
     0
  0
TABLESTYLE
  5
2E47
102
{ACAD_XDICTIONARY
360
2FDA
102
}
102
{ACAD_REACTORS
330
2E46
102
}
330
2E46
100
AcDbTableStyle
  3
Standard
 70
     0
 71
     0
 40
0.06
 41
0.06
280
     0
281
     0
  7
STANDARD
140
0.18
170
     2
 62
     0
 63
     7
283
     0
274
    -2
284
     1
 64
     0
275
    -2
285
     1
 65
     0
276
    -2
286
     1
 66
     0
277
    -2
287
     1
 67
     0
278
    -2
288
     1
 68
     0
279
    -2
289
     1
 69
     0
  7
STANDARD
140
0.25
170
     5
 62
     0
 63
     7
283
     0
274
    -2
284
     1
 64
     0
275
    -2
285
     1
 65
     0
276
    -2
286
     1
 66
     0
277
    -2
287
     1
 67
     0
278
    -2
288
     1
 68
     0
279
    -2
289
     1
 69
     0
  7
STANDARD
140
0.18
170
     5
 62
     0
 63
     7
283
     0
274
    -2
284
     1
 64
     0
275
    -2
285
     1
 65
     0
276
    -2
286
     1
 66
     0
277
    -2
287
     1
 67
     0
278
    -2
288
     1
 68
     0
279
    -2
289
     1
 69
     0
  0
VISUALSTYLE
  5
2E0A
102
{ACAD_REACTORS
330
2E04
102
}
330
2E04
100
AcDbVisualStyle
  2
2dWireframe
 70
     4
 71
     0
 72
     2
 73
     0
 90
        0
 40
-0.6
 41
-30.0
 62
     5
 63
     7
 74
     1
 91
        4
 64
     7
 65
   257
 75
     1
175
     1
 42
1.0
 92
        0
 66
   257
 43
1.0
 76
     1
 77
     6
 78
     2
 67
     7
 79
     5
170
     0
171
     0
290
     0
174
     0
 93
        1
 44
0.0
173
     0
291
     0
 45
0.0
1001
ACAD
1000
AcDbSavedByObjectVersion
1070
     0
  0
VISUALSTYLE
  5
2E0C
102
{ACAD_REACTORS
330
2E04
102
}
330
2E04
100
AcDbVisualStyle
  2
3D Hidden
 70
     6
 71
     1
 72
     2
 73
     2
 90
        0
 40
-0.6
 41
-30.0
 62
     5
 63
     7
 74
     2
 91
        2
 64
     7
 65
   257
 75
     2
175
     1
 42
40.0
 92
        0
 66
   257
 43
1.0
 76
     1
 77
     6
 78
     2
 67
     7
 79
     3
170
     0
171
     0
290
     0
174
     0
 93
        1
 44
0.0
173
     0
291
     0
 45
0.0
1001
ACAD
1000
AcDbSavedByObjectVersion
1070
     0
  0
VISUALSTYLE
  5
2E0B
102
{ACAD_REACTORS
330
2E04
102
}
330
2E04
100
AcDbVisualStyle
  2
3dWireframe
 70
     5
 71
     0
 72
     2
 73
     0
 90
        0
 40
-0.6
 41
-30.0
 62
     5
 63
     7
 74
     1
 91
        4
 64
     7
 65
   257
 75
     1
175
     1
 42
1.0
 92
        0
 66
   257
 43
1.0
 76
     1
 77
     6
 78
     2
 67
     7
 79
     5
170
     0
171
     0
290
     0
174
     0
 93
        1
 44
0.0
173
     0
291
     0
 45
0.0
1001
ACAD
1000
AcDbSavedByObjectVersion
1070
     0
  0
VISUALSTYLE
  5
2E09
102
{ACAD_REACTORS
330
2E04
102
}
330
2E04
100
AcDbVisualStyle
  2
Basic
 70
     7
 71
     1
 72
     0
 73
     1
 90
        0
 40
-0.6
 41
-30.0
 62
     5
 63
     7
 74
     0
 91
        4
 64
     7
 65
   257
 75
     1
175
     1
 42
1.0
 92
        8
 66
     7
 43
1.0
 76
     1
 77
     6
 78
     2
 67
     7
 79
     5
170
     0
171
     0
290
     0
174
     0
 93
        1
 44
0.0
173
     0
291
     1
 45
0.0
1001
ACAD
1000
AcDbSavedByObjectVersion
1070
     0
  0
VISUALSTYLE
  5
2E10
102
{ACAD_REACTORS
330
2E04
102
}
330
2E04
100
AcDbVisualStyle
  2
Brighten
 70
    12
 71
     2
 72
     2
 73
     0
 90
        0
 40
-0.6
 41
-30.0
 62
     5
 63
     7
 74
     1
 91
        4
 64
     7
 65
   257
 75
     1
175
     1
 42
1.0
 92
        8
 66
     7
 43
1.0
 76
     1
 77
     6
 78
     2
 67
     7
 79
     5
170
     0
171
     0
290
     0
174
     0
 93
        1
 44
50.0
173
     0
291
     1
 45
0.0
1001
ACAD
1000
AcDbSavedByObjectVersion
1070
     0
  0
VISUALSTYLE
  5
2E14
102
{ACAD_REACTORS
330
2E04
102
}
330
2E04
100
AcDbVisualStyle
  2
ColorChange
 70
    16
 71
     2
 72
     2
 73
     3
 90
        0
 40
-0.6
 41
-30.0
 62
     5
 63
     8
 74
     1
 91
        4
 64
     7
 65
   257
 75
     1
175
     1
 42
1.0
 92
        8
 66
     8
 43
1.0
 76
     1
 77
     6
 78
     2
 67
     7
 79
     5
170
     0
171
     0
290
     0
174
     0
 93
        1
 44
0.0
173
     0
291
     1
 45
0.0
1001
ACAD
1000
AcDbSavedByObjectVersion
1070
     0
  0
VISUALSTYLE
  5
2E0D
102
{ACAD_REACTORS
330
2E04
102
}
330
2E04
100
AcDbVisualStyle
  2
Conceptual
 70
     9
 71
     3
 72
     2
 73
     0
 90
        0
 40
-0.6
 41
-30.0
 62
     5
 63
     7
 74
     2
 91
        2
 64
     7
 65
   257
 75
     1
175
     1
 42
40.0
 92
        8
 66
     7
 43
1.0
 76
     1
 77
     6
 78
     2
 67
     7
 79
     3
170
     0
171
     0
290
     0
174
     0
 93
        1
 44
0.0
173
     0
291
     0
 45
0.0
1001
ACAD
1000
AcDbSavedByObjectVersion
1070
     0
  0
VISUALSTYLE
  5
2E0F
102
{ACAD_REACTORS
330
2E04
102
}
330
2E04
100
AcDbVisualStyle
  2
Dim
 70
    11
 71
     2
 72
     2
 73
     0
 90
        0
 40
-0.6
 41
-30.0
 62
     5
 63
     7
 74
     1
 91
        4
 64
     7
 65
   257
 75
     1
175
     1
 42
1.0
 92
        8
 66
     7
 43
1.0
 76
     1
 77
     6
 78
     2
 67
     7
 79
     5
170
     0
171
     0
290
     0
174
     0
 93
        1
 44
-50.0
173
     0
291
     1
 45
0.0
1001
ACAD
1000
AcDbSavedByObjectVersion
1070
     0
  0
VISUALSTYLE
  5
2E13
102
{ACAD_REACTORS
330
2E04
102
}
330
2E04
100
AcDbVisualStyle
  2
Facepattern
 70
    15
 71
     2
 72
     2
 73
     0
 90
        0
 40
-0.6
 41
-30.0
 62
     5
 63
     7
 74
     1
 91
        4
 64
     7
 65
   257
 75
     1
175
     1
 42
1.0
 92
        8
 66
     7
 43
1.0
 76
     1
 77
     6
 78
     2
 67
     7
 79
     5
170
     0
171
     0
290
     0
174
     0
 93
        1
 44
0.0
173
     0
291
     1
 45
0.0
1001
ACAD
1000
AcDbSavedByObjectVersion
1070
     0
  0
VISUALSTYLE
  5
2E05
102
{ACAD_REACTORS
330
2E04
102
}
330
2E04
100
AcDbVisualStyle
  2
Flat
 70
     0
 71
     2
 72
     1
 73
     1
 90
        2
 40
-0.6
 41
30.0
 62
     5
 63
     7
 74
     0
 91
        4
 64
     7
 65
   257
 75
     1
175
     1
 42
1.0
 92
        8
 66
     7
 43
1.0
 76
     1
 77
     6
 78
     2
 67
     7
 79
     5
170
     0
171
     0
290
     0
174
     0
 93
       13
 44
0.0
173
     0
291
     1
 45
0.0
1001
ACAD
1000
AcDbSavedByObjectVersion
1070
     0
  0
VISUALSTYLE
  5
2E06
102
{ACAD_REACTORS
330
2E04
102
}
330
2E04
100
AcDbVisualStyle
  2
FlatWithEdges
 70
     1
 71
     2
 72
     1
 73
     1
 90
        2
 40
-0.6
 41
30.0
 62
     5
 63
     7
 74
     1
 91
        4
 64
     7
 65
   257
 75
     1
175
     1
 42
1.0
 92
        0
 66
   257
 43
1.0
 76
     1
 77
     6
 78
     2
 67
     7
 79
     5
170
     0
171
     0
290
     0
174
     0
 93
       13
 44
0.0
173
     0
291
     1
 45
0.0
1001
ACAD
1000
AcDbSavedByObjectVersion
1070
     0
  0
VISUALSTYLE
  5
2E07
102
{ACAD_REACTORS
330
2E04
102
}
330
2E04
100
AcDbVisualStyle
  2
Gouraud
 70
     2
 71
     2
 72
     2
 73
     1
 90
        2
 40
-0.6
 41
30.0
 62
     5
 63
     7
 74
     0
 91
        4
 64
     7
 65
   257
 75
     1
175
     1
 42
1.0
 92
        0
 66
     7
 43
1.0
 76
     1
 77
     6
 78
     2
 67
     7
 79
     5
170
     0
171
     0
290
     0
174
     0
 93
       13
 44
0.0
173
     0
291
     1
 45
0.0
1001
ACAD
1000
AcDbSavedByObjectVersion
1070
     0
  0
VISUALSTYLE
  5
2E08
102
{ACAD_REACTORS
330
2E04
102
}
330
2E04
100
AcDbVisualStyle
  2
GouraudWithEdges
 70
     3
 71
     2
 72
     2
 73
     1
 90
        2
 40
-0.6
 41
30.0
 62
     5
 63
     7
 74
     1
 91
        4
 64
     7
 65
   257
 75
     1
175
     1
 42
1.0
 92
        0
 66
   257
 43
1.0
 76
     1
 77
     6
 78
     2
 67
     7
 79
     5
170
     0
171
     0
290
     0
174
     0
 93
       13
 44
0.0
173
     0
291
     1
 45
0.0
1001
ACAD
1000
AcDbSavedByObjectVersion
1070
     0
  0
VISUALSTYLE
  5
2E12
102
{ACAD_REACTORS
330
2E04
102
}
330
2E04
100
AcDbVisualStyle
  2
Linepattern
 70
    14
 71
     2
 72
     2
 73
     0
 90
        0
 40
-0.6
 41
-30.0
 62
     5
 63
     7
 74
     1
 91
        4
 64
     7
 65
   257
 75
     7
175
     7
 42
1.0
 92
        8
 66
     7
 43
1.0
 76
     1
 77
     6
 78
     2
 67
     7
 79
     5
170
     0
171
     0
290
     0
174
     0
 93
        1
 44
0.0
173
     0
291
     1
 45
0.0
1001
ACAD
1000
AcDbSavedByObjectVersion
1070
     0
  0
VISUALSTYLE
  5
2E0E
102
{ACAD_REACTORS
330
2E04
102
}
330
2E04
100
AcDbVisualStyle
  2
Realistic
 70
     8
 71
     2
 72
     2
 73
     0
 90
        0
 40
-0.6
 41
-30.0
 62
     5
 63
     7
 74
     1
 91
        0
 64
     7
 65
   257
 75
     1
175
     1
 42
1.0
 92
        8
 66
     8
 43
1.0
 76
     1
 77
     6
 78
     2
 67
     7
 79
     5
170
     0
171
     0
290
     0
174
     0
 93
       13
 44
0.0
173
     0
291
     0
 45
0.0
1001
ACAD
1000
AcDbSavedByObjectVersion
1070
     0
  0
VISUALSTYLE
  5
2E11
102
{ACAD_REACTORS
330
2E04
102
}
330
2E04
100
AcDbVisualStyle
  2
Thicken
 70
    13
 71
     2
 72
     2
 73
     0
 90
        0
 40
-0.6
 41
-30.0
 62
     5
 63
     7
 74
     1
 91
        4
 64
     7
 65
   257
 75
     1
175
     1
 42
1.0
 92
       12
 66
     7
 43
1.0
 76
     1
 77
     6
 78
     2
 67
     7
 79
     5
170
     0
171
     0
290
     0
174
     0
 93
        1
 44
0.0
173
     0
291
     1
 45
0.0
1001
ACAD
1000
AcDbSavedByObjectVersion
1070
     0
  0
DICTIONARYVAR
  5
2FD6
102
{ACAD_REACTORS
330
2FD3
102
}
330
2FD3
100
DictionaryVariables
280
     0
  1
1:1
  0
DICTIONARYVAR
  5
2FD5
102
{ACAD_REACTORS
330
2FD3
102
}
330
2FD3
100
DictionaryVariables
280
     0
  1
STANDARD
  0
DICTIONARYVAR
  5
2FD4
102
{ACAD_REACTORS
330
2FD3
102
}
330
2FD3
100
DictionaryVariables
280
     0
  1
STANDARD
  0
DICTIONARYVAR
  5
2FD9
102
{ACAD_REACTORS
330
2FD3
102
}
330
2FD3
100
DictionaryVariables
280
     0
  1
1
  0
DICTIONARYVAR
  5
2FD8
102
{ACAD_REACTORS
330
2FD3
102
}
330
2FD3
100
DictionaryVariables
280
     0
  1
1
  0
DICTIONARYVAR
  5
2FD7
102
{ACAD_REACTORS
330
2FD3
102
}
330
2FD3
100
DictionaryVariables
280
     0
  1
127
  0
DICTIONARY
  5
2F91
102
{ACAD_REACTORS
330
2F83
102
}
330
2F83
100
AcDbDictionary
281
     1
  0
DICTIONARY
  5
2ED1
102
{ACAD_REACTORS
330
2ED0
102
}
330
2ED0
100
AcDbDictionary
281
     1
  3
DWGSETTINGS
350
2ED2
  3
TRANSSETTINGS
350
2ED3
  0
LAYER_INDEX
  5
2FC5
102
{ACAD_REACTORS
330
2FC4
102
}
330
2FC4
100
AcDbIndex
 40
2456213.408789282
100
AcDbLayerIndex
  8
0
360
2FC6
 90
        0
  8
OUTLINE
360
2FC7
 90
       46
  8
SIZE
360
2FC8
 90
       71
  8
BASIS
360
2FC9
 90
        0
  8
DETAIL
360
2FCA
 90
       38
  8
ARRANGE
360
2FCB
 90
        3
  8
DEFPOINTS
360
2FCC
 90
        0
  8
ETC
360
2FCD
 90
        3
  8
FIX
360
2FCE
 90
        0
  8
NOTE
360
2FCF
 90
       11
  8
SERVICESPACE
360
2FD0
 90
        0
  8
SYMBOLLINE
360
2FD1
 90
        0
  8
BASIC
360
2FD2
 90
        1
  0
DICTIONARY
  5
2FE9
330
2E52
100
AcDbDictionary
280
     1
281
     1
  3
ACAD_XREC_ROUNDTRIP
360
2FEA
  0
DICTIONARY
  5
2FE7
330
2E4E
100
AcDbDictionary
280
     1
281
     1
  3
ACAD_XREC_ROUNDTRIP
360
2FE8
  0
DICTIONARY
  5
2DF5
330
2DF4
100
AcDbDictionary
280
     1
281
     1
  3
ACAD_XREC_ROUNDTRIP
360
2FE4
  3
BUMPTILE
360
2DF7
  3
DIFFUSETILE
360
2DF6
  3
OPACITYTILE
360
2DFA
  3
REFLECTIONTILE
360
2DF9
  3
REFRACTIONTILE
360
2DFB
  3
SPECULARTILE
360
2DF8
  0
DICTIONARY
  5
2DED
330
2DEC
100
AcDbDictionary
280
     1
281
     1
  3
ACAD_XREC_ROUNDTRIP
360
2FE3
  3
BUMPTILE
360
2DEF
  3
DIFFUSETILE
360
2DEE
  3
OPACITYTILE
360
2DF2
  3
REFLECTIONTILE
360
2DF1
  3
REFRACTIONTILE
360
2DF3
  3
SPECULARTILE
360
2DF0
  0
DICTIONARY
  5
2DFD
330
2DFC
100
AcDbDictionary
280
     1
281
     1
  3
ACAD_XREC_ROUNDTRIP
360
2FE5
  3
BUMPTILE
360
2DFF
  3
DIFFUSETILE
360
2DFE
  3
OPACITYTILE
360
2E02
  3
REFLECTIONTILE
360
2E01
  3
REFRACTIONTILE
360
2E03
  3
SPECULARTILE
360
2E00
  0
DICTIONARY
  5
2FDA
330
2E47
100
AcDbDictionary
280
     1
281
     1
  3
ACAD_ROUNDTRIP_2008_TABLESTYLE_CELLSTYLEMAP
360
2FDB
  3
ACAD_XREC_ROUNDTRIP
360
2FE6
  0
IDBUFFER
  5
2FC6
330
0
100
AcDbIdBuffer
  0
IDBUFFER
  5
2FC7
330
0
100
AcDbIdBuffer
330
2D2F
330
2D30
330
2D31
330
2D32
330
2D33
330
2D34
330
2D35
330
2D36
330
2D37
330
2D38
330
2D39
330
2D3A
330
2D3B
330
2D3C
330
2D3D
330
2D3E
330
2D3F
330
2D40
330
2D41
330
2D42
330
2D43
330
2D44
330
2D45
330
2D46
330
2D47
330
2D48
330
2D49
330
2D4A
330
2D4B
330
2D4C
330
953
330
954
330
955
330
956
330
957
330
958
330
2D10
330
2D19
330
2D26
330
2D27
330
2D28
330
2D2A
330
2D2B
330
2D2C
330
2D2D
330
2D2E
  0
IDBUFFER
  5
2FC8
330
0
100
AcDbIdBuffer
330
2D80
330
2D81
330
2D82
330
2D83
330
2D84
330
2D85
330
2D86
330
2D87
330
2D88
330
2D89
330
2D8A
330
2D8B
330
2D8C
330
2D8D
330
2D8E
330
2D8F
330
2D90
330
2D91
330
2D92
330
2D93
330
2D94
330
2D95
330
2D96
330
2D50
330
2D51
330
2D52
330
2D53
330
2D54
330
2D55
330
2D56
330
2D57
330
2D58
330
2D59
330
2D5A
330
2D5B
330
2D5C
330
2D5D
330
2D5E
330
2D5F
330
2D60
330
2D61
330
2D62
330
2D63
330
2D64
330
2D65
330
2D66
330
2D67
330
2D68
330
2D69
330
2D6A
330
2D6B
330
2D6C
330
2D6D
330
2D6E
330
2D6F
330
2D70
330
2D71
330
2D72
330
2D73
330
2D74
330
2D75
330
2D76
330
2D77
330
2D78
330
2D79
330
2D7A
330
2D7B
330
2D7C
330
2D7D
330
2D7E
330
2D7F
  0
IDBUFFER
  5
2FC9
330
0
100
AcDbIdBuffer
  0
IDBUFFER
  5
2FCA
330
0
100
AcDbIdBuffer
330
2D09
330
2D0A
330
2D0B
330
2D0C
330
2D0D
330
2D0E
330
2D0F
330
2D11
330
2D12
330
2D13
330
2D14
330
2D15
330
2D16
330
2D17
330
2D18
330
2D1A
330
2D1B
330
2D1C
330
2D1D
330
2D1E
330
2D1F
330
2D29
330
2CF9
330
2CFA
330
2CFB
330
2CFC
330
2CFD
330
2CFE
330
2CFF
330
2D00
330
2D01
330
2D02
330
2D03
330
2D04
330
2D05
330
2D06
330
2D07
330
2D08
  0
IDBUFFER
  5
2FCB
330
0
100
AcDbIdBuffer
330
2CF3
330
2CF4
330
2CF5
  0
IDBUFFER
  5
2FCC
330
0
100
AcDbIdBuffer
  0
IDBUFFER
  5
2FCD
330
0
100
AcDbIdBuffer
330
2D4D
330
2D4E
330
2D4F
  0
IDBUFFER
  5
2FCE
330
0
100
AcDbIdBuffer
  0
IDBUFFER
  5
2FCF
330
0
100
AcDbIdBuffer
330
2CF7
330
2CF8
330
2D20
330
2D21
330
2D22
330
2D23
330
2D24
330
2D25
330
2D97
330
2D98
330
2D99
  0
IDBUFFER
  5
2FD0
330
0
100
AcDbIdBuffer
  0
IDBUFFER
  5
2FD1
330
0
100
AcDbIdBuffer
  0
IDBUFFER
  5
2FD2
330
0
100
AcDbIdBuffer
330
2CF6
  0
XRECORD
  5
2FEA
102
{ACAD_REACTORS
330
2FE9
102
}
330
2FE9
100
AcDbXrecord
280
     1
102
SHADEPLOT
 70
     0
102
SHADEPLOTRESLEVEL
 70
     2
102
SHADEPLOTCUSTOMDPI
 70
   300
  0
XRECORD
  5
2FE8
102
{ACAD_REACTORS
330
2FE7
102
}
330
2FE7
100
AcDbXrecord
280
     1
102
SHADEPLOT
 70
     0
102
SHADEPLOTRESLEVEL
 70
     2
102
SHADEPLOTCUSTOMDPI
 70
   300
  0
XRECORD
  5
2FE4
102
{ACAD_REACTORS
330
2DF5
102
}
330
2DF5
100
AcDbXrecord
280
     1
102
MATERIAL
148
0.0
149
0.0
149
0.0
 93
        0
 94
      127
282
     0
 72
     0
 77
     0
171
     0
175
     0
179
     0
273
     0
  0
XRECORD
  5
2DF7
102
{ACAD_REACTORS
330
2DF5
102
}
330
2DF5
100
AcDbXrecord
280
     1
270
     1
271
     1
  0
XRECORD
  5
2DF6
102
{ACAD_REACTORS
330
2DF5
102
}
330
2DF5
100
AcDbXrecord
280
     1
270
     1
271
     1
  0
XRECORD
  5
2DFA
102
{ACAD_REACTORS
330
2DF5
102
}
330
2DF5
100
AcDbXrecord
280
     1
270
     1
271
     1
  0
XRECORD
  5
2DF9
102
{ACAD_REACTORS
330
2DF5
102
}
330
2DF5
100
AcDbXrecord
280
     1
270
     1
271
     1
  0
XRECORD
  5
2DFB
102
{ACAD_REACTORS
330
2DF5
102
}
330
2DF5
100
AcDbXrecord
280
     1
270
     1
271
     1
  0
XRECORD
  5
2DF8
102
{ACAD_REACTORS
330
2DF5
102
}
330
2DF5
100
AcDbXrecord
280
     1
270
     1
271
     1
  0
XRECORD
  5
2FE3
102
{ACAD_REACTORS
330
2DED
102
}
330
2DED
100
AcDbXrecord
280
     1
102
MATERIAL
148
0.0
149
0.0
149
0.0
 93
        0
 94
      127
282
     0
 72
     0
 77
     0
171
     0
175
     0
179
     0
273
     0
  0
XRECORD
  5
2DEF
102
{ACAD_REACTORS
330
2DED
102
}
330
2DED
100
AcDbXrecord
280
     1
270
     1
271
     1
  0
XRECORD
  5
2DEE
102
{ACAD_REACTORS
330
2DED
102
}
330
2DED
100
AcDbXrecord
280
     1
270
     1
271
     1
  0
XRECORD
  5
2DF2
102
{ACAD_REACTORS
330
2DED
102
}
330
2DED
100
AcDbXrecord
280
     1
270
     1
271
     1
  0
XRECORD
  5
2DF1
102
{ACAD_REACTORS
330
2DED
102
}
330
2DED
100
AcDbXrecord
280
     1
270
     1
271
     1
  0
XRECORD
  5
2DF3
102
{ACAD_REACTORS
330
2DED
102
}
330
2DED
100
AcDbXrecord
280
     1
270
     1
271
     1
  0
XRECORD
  5
2DF0
102
{ACAD_REACTORS
330
2DED
102
}
330
2DED
100
AcDbXrecord
280
     1
270
     1
271
     1
  0
XRECORD
  5
2FE5
102
{ACAD_REACTORS
330
2DFD
102
}
330
2DFD
100
AcDbXrecord
280
     1
102
MATERIAL
148
0.0
149
0.0
149
0.0
 93
        0
 94
      127
282
     0
 72
     0
 77
     0
171
     0
175
     0
179
     0
273
     0
  0
XRECORD
  5
2DFF
102
{ACAD_REACTORS
330
2DFD
102
}
330
2DFD
100
AcDbXrecord
280
     1
270
     1
271
     1
  0
XRECORD
  5
2DFE
102
{ACAD_REACTORS
330
2DFD
102
}
330
2DFD
100
AcDbXrecord
280
     1
270
     1
271
     1
  0
XRECORD
  5
2E02
102
{ACAD_REACTORS
330
2DFD
102
}
330
2DFD
100
AcDbXrecord
280
     1
270
     1
271
     1
  0
XRECORD
  5
2E01
102
{ACAD_REACTORS
330
2DFD
102
}
330
2DFD
100
AcDbXrecord
280
     1
270
     1
271
     1
  0
XRECORD
  5
2E03
102
{ACAD_REACTORS
330
2DFD
102
}
330
2DFD
100
AcDbXrecord
280
     1
270
     1
271
     1
  0
XRECORD
  5
2E00
102
{ACAD_REACTORS
330
2DFD
102
}
330
2DFD
100
AcDbXrecord
280
     1
270
     1
271
     1
  0
CELLSTYLEMAP
  5
2FDB
102
{ACAD_REACTORS
330
2FDA
102
}
330
2FDA
100
AcDbCellStyleMap
 90
        3
300
CELLSTYLE
  1
TABLEFORMAT_BEGIN
 90
        5
170
     1
 91
        0
 92
    32768
 62
   257
 93
        1
300
CONTENTFORMAT
  1
CONTENTFORMAT_BEGIN
 90
        0
 91
        0
 92
      512
 93
        0
300

 40
0.0
140
1.0
 94
        5
 62
     0
340
2E38
144
0.25
309
CONTENTFORMAT_END
171
     0
 94
        0
309
TABLEFORMAT_END
  1
CELLSTYLE_BEGIN
 90
        1
 91
        1
300
_TITLE
309
CELLSTYLE_END
300
CELLSTYLE
  1
TABLEFORMAT_BEGIN
 90
        5
170
     1
 91
        0
 92
        0
 62
   257
 93
        1
300
CONTENTFORMAT
  1
CONTENTFORMAT_BEGIN
 90
        0
 91
        0
 92
      512
 93
        0
300

 40
0.0
140
1.0
 94
        5
 62
     0
340
2E38
144
0.18
309
CONTENTFORMAT_END
171
     0
 94
        0
309
TABLEFORMAT_END
  1
CELLSTYLE_BEGIN
 90
        2
 91
        1
300
_HEADER
309
CELLSTYLE_END
300
CELLSTYLE
  1
TABLEFORMAT_BEGIN
 90
        5
170
     1
 91
        0
 92
        0
 62
   257
 93
        1
300
CONTENTFORMAT
  1
CONTENTFORMAT_BEGIN
 90
        0
 91
        0
 92
      512
 93
        0
300

 40
0.0
140
1.0
 94
        2
 62
     0
340
2E38
144
0.18
309
CONTENTFORMAT_END
171
     0
 94
        0
309
TABLEFORMAT_END
  1
CELLSTYLE_BEGIN
 90
        3
 91
        2
300
_DATA
309
CELLSTYLE_END
  0
XRECORD
  5
2FE6
102
{ACAD_REACTORS
330
2FDA
102
}
330
2FDA
100
AcDbXrecord
280
     1
102
ACAD_ROUNDTRIP_PRE2007_TABLESTYLE
 90
      512
 91
        0
  1

 92
      512
 93
        0
  2

 94
      512
 95
        0
  3

  0
ENDSEC
  0
EOF
