  0
SECTION
  2
HEADER
  9
$ACADVER
  1
AC1015
  9
$ACADMAINTVER
 70
    20
  9
$DWGCODEPAGE
  3
ANSI_932
  9
$INSBASE
 10
0.0
 20
0.0
 30
0.0
  9
$EXTMIN
 10
-1083.080828563683
 20
-1265.674000478013
 30
0.0
  9
$EXTMAX
 10
1280.890714252036
 20
568.8365397587915
 30
50.0
  9
$LIMMIN
 10
-2970.0
 20
-2100.0
  9
$LIMMAX
 10
2970.0
 20
2100.0
  9
$ORTHOMODE
 70
     1
  9
$REGENMODE
 70
     0
  9
$FILLMODE
 70
     1
  9
$QTEXTMODE
 70
     0
  9
$MIRRTEXT
 70
     0
  9
$LTSCALE
 40
20.0
  9
$ATTMODE
 70
     1
  9
$TEXTSIZE
 40
64.0
  9
$TRACEWID
 40
0.05
  9
$TEXTSTYLE
  7
STANDARD
  9
$CLAYER
  8
0
  9
$CELTYPE
  6
ByLayer
  9
$CECOLOR
 62
   256
  9
$CELTSCALE
 40
1.0
  9
$DISPSILH
 70
     0
  9
$DIMSCALE
 40
1.0
  9
$DIMASZ
 40
0.12
  9
$DIMEXO
 40
0.05
  9
$DIMDLI
 40
0.5
  9
$DIMRND
 40
0.0
  9
$DIMDLE
 40
0.0
  9
$DIMEXE
 40
0.1
  9
$DIMTP
 40
0.1
  9
$DIMTM
 40
0.1
  9
$DIMTXT
 40
0.12
  9
$DIMCEN
 40
0.0
  9
$DIMTSZ
 40
0.0
  9
$DIMTOL
 70
     0
  9
$DIMLIM
 70
     0
  9
$DIMTIH
 70
     1
  9
$DIMTOH
 70
     1
  9
$DIMSE1
 70
     0
  9
$DIMSE2
 70
     0
  9
$DIMTAD
 70
     0
  9
$DIMZIN
 70
     7
  9
$DIMBLK
  1

  9
$DIMASO
 70
     1
  9
$DIMSHO
 70
     0
  9
$DIMPOST
  1

  9
$DIMAPOST
  1
mm
  9
$DIMALT
 70
     0
  9
$DIMALTD
 70
     2
  9
$DIMALTF
 40
25.4
  9
$DIMLFAC
 40
1.0
  9
$DIMTOFL
 70
     0
  9
$DIMTVP
 40
0.0
  9
$DIMTIX
 70
     0
  9
$DIMSOXD
 70
     0
  9
$DIMSAH
 70
     0
  9
$DIMBLK1
  1

  9
$DIMBLK2
  1

  9
$DIMSTYLE
  2
AM_ANSI
  9
$DIMCLRD
 70
   256
  9
$DIMCLRE
 70
   256
  9
$DIMCLRT
 70
     2
  9
$DIMTFAC
 40
0.71
  9
$DIMGAP
 40
0.06
  9
$DIMJUST
 70
     0
  9
$DIMSD1
 70
     0
  9
$DIMSD2
 70
     0
  9
$DIMTOLJ
 70
     1
  9
$DIMTZIN
 70
     7
  9
$DIMALTZ
 70
     0
  9
$DIMALTTZ
 70
     0
  9
$DIMUPT
 70
     0
  9
$DIMDEC
 70
     4
  9
$DIMTDEC
 70
     4
  9
$DIMALTU
 70
     2
  9
$DIMALTTD
 70
     4
  9
$DIMTXSTY
  7
STANDARD
  9
$DIMAUNIT
 70
     0
  9
$DIMADEC
 70
     0
  9
$DIMALTRND
 40
0.0
  9
$DIMAZIN
 70
     2
  9
$DIMDSEP
 70
    46
  9
$DIMATFIT
 70
     3
  9
$DIMFRAC
 70
     0
  9
$DIMLDRBLK
  1

  9
$DIMLUNIT
 70
     2
  9
$DIMLWD
 70
    -1
  9
$DIMLWE
 70
    -1
  9
$DIMTMOVE
 70
     0
  9
$LUNITS
 70
     2
  9
$LUPREC
 70
     4
  9
$SKETCHINC
 40
0.1
  9
$FILLETRAD
 40
4.0
  9
$AUNITS
 70
     1
  9
$AUPREC
 70
     3
  9
$MENU
  1
ACAD
  9
$ELEVATION
 40
0.0
  9
$PELEVATION
 40
0.0
  9
$THICKNESS
 40
50.0
  9
$LIMCHECK
 70
     0
  9
$CHAMFERA
 40
0.0
  9
$CHAMFERB
 40
0.0
  9
$CHAMFERC
 40
0.0
  9
$CHAMFERD
 40
0.0
  9
$SKPOLY
 70
     0
  9
$TDCREATE
 40
2452321.396199653
  9
$TDUCREATE
 40
2452321.021199653
  9
$TDUPDATE
 40
2456213.408901007
  9
$TDUUPDATE
 40
2456213.033901007
  9
$TDINDWG
 40
1.0452206597
  9
$TDUSRTIMER
 40
1.0452150694
  9
$USRTIMER
 70
     1
  9
$ANGBASE
 50
0.0
  9
$ANGDIR
 70
     0
  9
$PDMODE
 70
     3
  9
$PDSIZE
 40
-2.0
  9
$PLINEWID
 40
0.0
  9
$SPLFRAME
 70
     0
  9
$SPLINETYPE
 70
     6
  9
$SPLINESEGS
 70
     8
  9
$HANDSEED
  5
3565
  9
$SURFTAB1
 70
     6
  9
$SURFTAB2
 70
     6
  9
$SURFTYPE
 70
     6
  9
$SURFU
 70
     6
  9
$SURFV
 70
     6
  9
$UCSBASE
  2

  9
$UCSNAME
  2

  9
$UCSORG
 10
0.0
 20
0.0
 30
0.0
  9
$UCSXDIR
 10
1.0
 20
0.0
 30
0.0
  9
$UCSYDIR
 10
0.0
 20
1.0
 30
0.0
  9
$UCSORTHOREF
  2

  9
$UCSORTHOVIEW
 70
     0
  9
$UCSORGTOP
 10
0.0
 20
0.0
 30
0.0
  9
$UCSORGBOTTOM
 10
0.0
 20
0.0
 30
0.0
  9
$UCSORGLEFT
 10
0.0
 20
0.0
 30
0.0
  9
$UCSORGRIGHT
 10
0.0
 20
0.0
 30
0.0
  9
$UCSORGFRONT
 10
0.0
 20
0.0
 30
0.0
  9
$UCSORGBACK
 10
0.0
 20
0.0
 30
0.0
  9
$PUCSBASE
  2

  9
$PUCSNAME
  2

  9
$PUCSORG
 10
0.0
 20
0.0
 30
0.0
  9
$PUCSXDIR
 10
1.0
 20
0.0
 30
0.0
  9
$PUCSYDIR
 10
0.0
 20
1.0
 30
0.0
  9
$PUCSORTHOREF
  2

  9
$PUCSORTHOVIEW
 70
     0
  9
$PUCSORGTOP
 10
0.0
 20
0.0
 30
0.0
  9
$PUCSORGBOTTOM
 10
0.0
 20
0.0
 30
0.0
  9
$PUCSORGLEFT
 10
0.0
 20
0.0
 30
0.0
  9
$PUCSORGRIGHT
 10
0.0
 20
0.0
 30
0.0
  9
$PUCSORGFRONT
 10
0.0
 20
0.0
 30
0.0
  9
$PUCSORGBACK
 10
0.0
 20
0.0
 30
0.0
  9
$USERI1
 70
     0
  9
$USERI2
 70
     0
  9
$USERI3
 70
     0
  9
$USERI4
 70
     0
  9
$USERI5
 70
     0
  9
$USERR1
 40
20.0
  9
$USERR2
 40
0.0
  9
$USERR3
 40
0.0
  9
$USERR4
 40
0.0
  9
$USERR5
 40
0.0
  9
$WORLDVIEW
 70
     1
  9
$SHADEDGE
 70
     3
  9
$SHADEDIF
 70
    70
  9
$TILEMODE
 70
     1
  9
$MAXACTVP
 70
    64
  9
$PINSBASE
 10
0.0
 20
0.0
 30
0.0
  9
$PLIMCHECK
 70
     0
  9
$PEXTMIN
 10
1.000000000000000E+20
 20
1.000000000000000E+20
 30
1.000000000000000E+20
  9
$PEXTMAX
 10
-1.000000000000000E+20
 20
-1.000000000000000E+20
 30
-1.000000000000000E+20
  9
$PLIMMIN
 10
0.0
 20
0.0
  9
$PLIMMAX
 10
12.0
 20
9.0
  9
$UNITMODE
 70
     0
  9
$VISRETAIN
 70
     1
  9
$PLINEGEN
 70
     0
  9
$PSLTSCALE
 70
     1
  9
$TREEDEPTH
 70
  3020
  9
$CMLSTYLE
  2
Standard
  9
$CMLJUST
 70
     0
  9
$CMLSCALE
 40
1.0
  9
$PROXYGRAPHICS
 70
     1
  9
$MEASUREMENT
 70
     0
  9
$CELWEIGHT
370
    -1
  9
$ENDCAPS
280
     0
  9
$JOINSTYLE
280
     0
  9
$LWDISPLAY
290
     0
  9
$INSUNITS
 70
     0
  9
$HYPERLINKBASE
  1

  9
$STYLESHEET
  1

  9
$XEDIT
290
     1
  9
$CEPSNTYPE
380
     0
  9
$PSTYLEMODE
290
     1
  9
$FINGERPRINTGUID
  2
{A831A5AE-7B7C-4DDE-8EF9-7B03B764013A}
  9
$VERSIONGUID
  2
{59C50E4A-80DE-429A-9598-76F400B3EDEE}
  9
$EXTNAMES
290
     1
  9
$PSVPSCALE
 40
0.0
  9
$OLESTARTUP
290
     0
  0
ENDSEC
  0
SECTION
  2
CLASSES
  0
CLASS
  1
ACDBDICTIONARYWDFLT
  2
AcDbDictionaryWithDefault
  3
ObjectDBX Classes
 90
        0
280
     0
281
     0
  0
CLASS
  1
MATERIAL
  2
AcDbMaterial
  3
ObjectDBX Classes
 90
     1153
280
     0
281
     0
  0
CLASS
  1
VISUALSTYLE
  2
AcDbVisualStyle
  3
ObjectDBX Classes
 90
     4095
280
     0
281
     0
  0
CLASS
  1
SCALE
  2
AcDbScale
  3
ObjectDBX Classes
 90
     1153
280
     0
281
     0
  0
CLASS
  1
TABLESTYLE
  2
AcDbTableStyle
  3
ObjectDBX Classes
 90
     4095
280
     0
281
     0
  0
CLASS
  1
MLEADERSTYLE
  2
AcDbMLeaderStyle
  3
ACDB_MLEADERSTYLE_CLASS
 90
     4095
280
     0
281
     0
  0
CLASS
  1
AMGSETTINGSOBJ
  2
AmgSettingsObj
  3
"AcadM|Product Description: AutoCAD Mechanical|Company: Autodesk, Inc."
 90
     1024
280
     0
281
     0
  0
CLASS
  1
ACME_DOCUMENT
  2
AcMeDbDoc
  3
AcMeServices
 90
     1024
280
     0
281
     0
  0
CLASS
  1
ACMESCOPE
  2
AcMeScope
  3
AcMeServices
 90
     1024
280
     0
281
     0
  0
CLASS
  1
ACMECOMMANDHISTORY
  2
AcMeCommandHistory
  3
AcMeServices
 90
     1024
280
     0
281
     0
  0
CLASS
  1
ACIMSYSVARMAN
  2
AcImSysVarManager
  3
AcMeServices
 90
     1024
280
     0
281
     0
  0
CLASS
  1
ACIMREALSYSVAR
  2
AcImRealSysVar
  3
AcMeServices
 90
     1024
280
     0
281
     0
  0
CLASS
  1
ACIMINTSYSVAR
  2
AcImIntSysVar
  3
AcMeServices
 90
     1024
280
     0
281
     0
  0
CLASS
  1
ACMEDRAWINGMAN
  2
AcMeDrawingMan
  3
AcMeServices
 90
     1024
280
     0
281
     0
  0
CLASS
  1
ACMEVIEW
  2
AcMeView
  3
AcMeServices
 90
     1024
280
     0
281
     0
  0
CLASS
  1
ACDBENTITYCACHE
  2
AcMeEntityCache
  3
AcMeServices
 90
     1024
280
     0
281
     0
  0
CLASS
  1
GSMANAGER
  2
AcMeGSManager
  3
AcMeServices
 90
     1024
280
     0
281
     0
  0
CLASS
  1
AMDTINTERNALREACTOR
  2
AmdtInternalReactor
  3
AcMeServices
 90
     1024
280
     0
281
     0
  0
CLASS
  1
ACMESTATEMGR
  2
AcMeStateMgr
  3
AcMeServices
 90
     1024
280
     0
281
     0
  0
CLASS
  1
ACGREFMASTER
  2
AcGrefMaster
  3
AcAttribServices
 90
     1024
280
     0
281
     0
  0
CLASS
  1
AM_DRAWING_MGR
  2
AcDmDwgMgr
  3
AcMechDwgViewMgmt
 90
     1024
280
     0
281
     0
  0
CLASS
  1
AM_DWG_DOCUMENT
  2
AcDmDwgDocument
  3
AcMechDwgViewMgmt
 90
     1024
280
     0
281
     0
  0
CLASS
  1
AM_DWG_SHEET
  2
AcDmSheet
  3
AcMechDwgViewMgmt
 90
     1024
280
     0
281
     0
  0
CLASS
  1
AM_VIEWDIMPARMAP
  2
AcDmViewDimParMap
  3
AcMechDwgViewMgmt
 90
     1024
280
     0
281
     0
  0
CLASS
  1
AM_DWGMGR_NAME
  2
AcDmDwgMgrName
  3
AcMechDwgViewMgmt
 90
     1024
280
     0
281
     0
  0
CLASS
  1
ACME_DATABASE
  2
AcMeDbDatabase
  3
AcMeServices
 90
     1024
280
     0
281
     0
  0
CLASS
  1
ACRFINSADJUSTERMGR
  2
AcRfInsAdjusterMgr
  3
AcMeServices
 90
     1024
280
     0
281
     0
  0
CLASS
  1
ACGREFACADMASTER
  2
AcGrefacadMaster
  3
AcGrefServices
 90
     1024
280
     0
281
     0
  0
CLASS
  1
AMDTMENUSTATEMGR
  2
AmdtMenuStateMgr
  3
McadcomServices
 90
     1024
280
     0
281
     0
  0
CLASS
  1
AMDTMCOMMENUSTATE
  2
AmdtMcomMenuState
  3
McadcomServices
 90
     1024
280
     0
281
     0
  0
CLASS
  1
AMIMASTER
  2
AmiMaster
  3
AmiServices
 90
     1024
280
     0
281
     0
  0
CLASS
  1
ASAPP
  2
AcAsAppObject
  3
AutoSurfServices
 90
     1024
280
     0
281
     0
  0
CLASS
  1
IM_STATIC_MAN
  2
AcImStaticVarManager
  3
AcMeServices
 90
     1024
280
     0
281
     0
  0
CLASS
  1
ACIMSTRSYSVAR
  2
AcImStrSysVar
  3
AcMeServices
 90
     1024
280
     0
281
     0
  0
CLASS
  1
ACIMDBLSTATICVAR
  2
AcImDblStaticVar
  3
AcMeServices
 90
     1024
280
     0
281
     0
  0
CLASS
  1
ACIMSTRSTATICVAR
  2
AcImStrStaticVar
  3
AcMeServices
 90
     1024
280
     0
281
     0
  0
CLASS
  1
ACIMINTSTATICVAR
  2
AcImIntStaticVar
  3
AcMeServices
 90
     1024
280
     0
281
     0
  0
CLASS
  1
ACASGREFMASTER
  2
AcAsGrefMaster
  3
AutoSurfResolverServices
 90
     1024
280
     0
281
     0
  0
CLASS
  1
ACADGREFMODULE
  2
AcAdGrefModule
  3
AdGrefServices
 90
     1024
280
     0
281
     0
  0
CLASS
  1
AMDTMAPISURFMOUDULE
  2
AmdtMApiSurfModule
  3
MApiSurfServices
 90
     1024
280
     0
281
     0
  0
CLASS
  1
MAPIAMMOUDLE
  2
MApiAmModule
  3
MApiAmServices
 90
     1024
280
     0
281
     0
  0
CLASS
  1
AMDTADMENUSTATE
  2
AmdtAdMenuState
  3
DesignerServices
 90
     1024
280
     0
281
     0
  0
CLASS
  1
ADAPPL
  2
AcAdAppl
  3
DesignerServices
 90
     1024
280
     0
281
     0
  0
CLASS
  1
DEPMGR
  2
AcAdDepMgr
  3
DesignerServices
 90
     1024
280
     0
281
     0
  0
CLASS
  1
PARAMMGR
  2
AcAdParamMgr
  3
DesignerServices
 90
     1024
280
     0
281
     0
  0
CLASS
  1
PARAMSCOPE
  2
AcAdParamScope
  3
DesignerServices
 90
     1024
280
     0
281
     0
  0
CLASS
  1
NAMEDAPPL
  2
AcAdNamedAppl
  3
DesignerServices
 90
     1024
280
     0
281
     0
  0
CLASS
  1
AMDTDMMENUSTATE
  2
AmdtDmMenuState
  3
AcMechDwgViewMgmt
 90
     1024
280
     0
281
     0
  0
CLASS
  1
MAPIADMODULE
  2
MApiAdModule
  3
MApiAdServices
 90
     1024
280
     0
281
     0
  0
CLASS
  1
AMDTAMMENUSTATE
  2
AmdtAmMenuState
  3
DesignerAssemblies
 90
     1024
280
     0
281
     0
  0
CLASS
  1
ACAMPROJECT
  2
AcAmProject
  3
DesignerAssemblies
 90
     1024
280
     0
281
     0
  0
CLASS
  1
ACAMGRCOMPDEF
  2
AcAmGrCompDef
  3
DesignerAssemblies
 90
     1024
280
     0
281
     0
  0
CLASS
  1
ACCMCONTEXT
  2
AcCmContext
  3
DesignerAssemblies
 90
     1024
280
     0
281
     0
  0
CLASS
  1
ACAMCOMPDEF
  2
AcAmCompDef
  3
DesignerAssemblies
 90
     1024
280
     0
281
     0
  0
CLASS
  1
ACAMCOMPDEFMGR
  2
AcAmCompDefMgr
  3
DesignerAssemblies
 90
     1024
280
     0
281
     0
  0
CLASS
  1
AMCONTEXTMGR
  2
AcAmContextMgr
  3
DesignerAssemblies
 90
     1024
280
     0
281
     0
  0
CLASS
  1
ACAMCONTEXTMODELER
  2
AcAmContextModeler
  3
DesignerAssemblies
 90
     1024
280
     0
281
     0
  0
CLASS
  1
ACMDATADICTIONARY
  2
AcmDataDictionary
  3
"AcmSymBB|Product Description: AutoCAD Mechanical|Company: Autodesk, Inc."
 90
     1024
280
     0
281
     0
  0
CLASS
  1
ACMDATAENTRYBLOCK
  2
AcmDataEntryBlock
  3
AcmSymBB|Product Description: AutoCAD Mechanical|Company: Autodesk, Inc.
 90
     1024
280
     0
281
     0
  0
CLASS
  1
ACRFATTGENMGR
  2
AcRfAttGeneralMgr
  3
AcAttribServices
 90
     1024
280
     0
281
     0
  0
CLASS
  1
ACRFOBJATTMGR
  2
AcRfObjAttGroupMgr
  3
AcAttribServices
 90
     1024
280
     0
281
     0
  0
CLASS
  1
ACRFMCADAPIATTHOLDER
  2
AcRfMCADAPIAttHolder
  3
AcAttribServices
 90
     1024
280
     0
281
     0
  0
CLASS
  1
AMDTSYSATTR
  2
AmdtSystemAttribute
  3
AcAttribServices
 90
     1024
280
     0
281
     0
  0
CLASS
  1
CATALOGSTATE
  2
AcAmCatalogState
  3
DesignerAssemblies
 90
     1024
280
     0
281
     0
  0
CLASS
  1
ACAMGRCOMPDEFSET
  2
AcAmGrCompDefSet
  3
DesignerAssemblies
 90
     1024
280
     0
281
     0
  0
CLASS
  1
AMDTBROWSERDBTAB
  2
AmdtBrowserDbTab
  3
McadcomServices
 90
     1024
280
     0
281
     0
  0
CLASS
  1
CBROWSERAPPOBJECT
  2
CBrowserAppObject
  3
McadcomServices
 90
     1024
280
     0
281
     0
  0
CLASS
  1
DM_PLACEHOLDER
  2
AcDmSelsetPlaceholder
  3
AcMechDwgViewMgmt
 90
     1024
280
     0
281
     0
  0
CLASS
  1
ACMSTANDARDANSI
  2
AcmStandardANSI
  3
"Amdt_StdImp|Product Description: AutoCAD Mechanical|Company: Autodesk, Inc."
 90
     1024
280
     0
281
     0
  0
CLASS
  1
ACMSURFSTANDARDANSI
  2
AcmSurfTextStdANSI
  3
"Amdt_StdImp|Product Description: AutoCAD Mechanical|Company: Autodesk, Inc."
 90
     1024
280
     0
281
     0
  0
CLASS
  1
ACMFCFSTANDARDANSI
  2
AcmFCFStdANSI
  3
"Amdt_StdImp|Product Description: AutoCAD Mechanical|Company: Autodesk, Inc."
 90
     1024
280
     0
281
     0
  0
CLASS
  1
ACMWELDSTANDARDANSI
  2
AcmWeldingStdANSI
  3
"Amdt_StdImp|Product Description: AutoCAD Mechanical|Company: Autodesk, Inc."
 90
     1024
280
     0
281
     0
  0
CLASS
  1
ACMIDSTANDARDANSI
  2
AcmIdStdANSI
  3
"Amdt_StdImp|Product Description: AutoCAD Mechanical|Company: Autodesk, Inc."
 90
     1024
280
     0
281
     0
  0
CLASS
  1
ACMDATUMSTANDARDANSI
  2
AcmDatumStdANSI
  3
"Amdt_StdImp|Product Description: AutoCAD Mechanical|Company: Autodesk, Inc."
 90
     1024
280
     0
281
     0
  0
CLASS
  1
ACMBOMSTANDARDANSI
  2
AcmBOMStdANSI
  3
"Amdt_StdImp|Product Description: AutoCAD Mechanical|Company: Autodesk, Inc."
 90
     1024
280
     0
281
     0
  0
CLASS
  1
ACMDETAILSTANDARDANSI
  2
AmdtDetailSymStdANSI
  3
"Amdt_StdImp|Product Description: AutoCAD Mechanical|Company: Autodesk, Inc."
 90
     1024
280
     0
281
     0
  0
CLASS
  1
ACMSECTIONSTANDARDANSI
  2
AmdtSectionSymStdANSI
  3
"Amdt_StdImp|Product Description: AutoCAD Mechanical|Company: Autodesk, Inc."
 90
     1024
280
     0
281
     0
  0
CLASS
  1
ACMCENTERLINESTANDARDANSI
  2
AmdtCenterLineStdANSI
  3
"Amdt_StdImp|Product Description: AutoCAD Mechanical|Company: Autodesk, Inc."
 90
     1024
280
     0
281
     0
  0
CLASS
  1
ACMTHREADLINESTANDARDANSI
  2
AmdtThreadLineStdANSI
  3
"Amdt_StdImp|Product Description: AutoCAD Mechanical|Company: Autodesk, Inc."
 90
     1024
280
     0
281
     0
  0
CLASS
  1
ACMNOTESTANDARDANSI
  2
AmdtNoteStdANSI
  3
"Amdt_StdImp|Product Description: AutoCAD Mechanical|Company: Autodesk, Inc."
 90
     1024
280
     0
281
     0
  0
CLASS
  1
ACMTAPERSTANDARDANSI
  2
AcmTaperStdANSI
  3
"Amdt_StdImp|Product Description: AutoCAD Mechanical|Company: Autodesk, Inc."
 90
     1024
280
     0
281
     0
  0
CLASS
  1
ACMANOOTATIONVIEWSTANDARDANSI
  2
AmdtAnViewStdANSI
  3
"Amdt_StdImp|Product Description: AutoCAD Mechanical|Company: Autodesk, Inc."
 90
     1024
280
     0
281
     0
  0
CLASS
  1
ACAMGLAYSTD
  2
AcAmgLayStd
  3
"AmgLay|Product Description: AutoCAD Mechanical|Company: Autodesk, Inc."
 90
     1024
280
     0
281
     0
  0
CLASS
  1
ACAMGDIMSTD
  2
AcAmgDimStd
  3
"AmgDim|Product Description: AutoCAD Mechanical|Company: Autodesk, Inc."
 90
     1024
280
     0
281
     0
  0
CLASS
  1
ACAMGHOLECHARTSTDANSI
  2
AcAmgHoleChartStdANSI
  3
AmgDim|Product Description: AutoCAD Mechanical|Company: Autodesk, Inc.
 90
     1024
280
     0
281
     0
  0
CLASS
  1
AMGOBJPROPCFG
  2
AmgObjPropCfg
  3
"AmgLay|Product Description: AutoCAD Mechanical|Company: Autodesk, Inc."
 90
     1025
280
     0
281
     0
  0
CLASS
  1
ACAMGTITLESTD
  2
AcAmgTitleStd
  3
"AmgTitle|Product Description: AutoCAD Mechanical|Company: Autodesk, Inc."
 90
     4095
280
     0
281
     0
  0
CLASS
  1
AMDTNOTETEMPLATEDB
  2
AmdtNoteTemplateDB
  3
AcmSymBB|Product Description: AutoCAD Mechanical|Company: Autodesk, Inc.
 90
     1024
280
     0
281
     0
  0
CLASS
  1
LAYER_INDEX
  2
AcDbLayerIndex
  3
ObjectDBX Classes
 90
        0
280
     0
281
     0
  0
CLASS
  1
IDBUFFER
  2
AcDbIdBuffer
  3
ObjectDBX Classes
 90
        0
280
     0
281
     0
  0
CLASS
  1
DICTIONARYVAR
  2
AcDbDictionaryVar
  3
ObjectDBX Classes
 90
        0
280
     0
281
     0
  0
CLASS
  1
CELLSTYLEMAP
  2
AcDbCellStyleMap
  3
ObjectDBX Classes
 90
     1152
280
     0
281
     0
  0
CLASS
  1
ACDBPLACEHOLDER
  2
AcDbPlaceHolder
  3
ObjectDBX Classes
 90
        0
280
     0
281
     0
  0
CLASS
  1
LAYOUT
  2
AcDbLayout
  3
ObjectDBX Classes
 90
        0
280
     0
281
     0
  0
ENDSEC
  0
SECTION
  2
TABLES
  0
TABLE
  2
VPORT
  5
3344
330
0
100
AcDbSymbolTable
 70
     1
  0
VPORT
  5
33B4
330
3344
100
AcDbSymbolTableRecord
100
AcDbViewportTableRecord
  2
*ACTIVE
 70
     0
 10
0.0
 20
0.0
 11
1.0
 21
1.0
 12
0.0
 22
0.0
 13
0.0
 23
0.0
 14
1.0
 24
1.0
 15
0.0
 25
0.0
 16
0.0
 26
0.0
 36
1.0
 17
99.02116262705579
 27
-348.3123685562893
 37
0.0
 40
1846.919293039798
 41
1.712555066079295
 42
50.0
 43
0.0
 44
0.0
 50
0.0
 51
0.0
 71
     0
 72
   100
 73
     1
 74
     0
 75
     0
 76
     0
 77
     0
 78
     0
281
     0
 65
     0
110
0.0
120
0.0
130
0.0
111
1.0
121
0.0
131
0.0
112
0.0
122
1.0
132
0.0
 79
     0
146
0.0
  0
ENDTAB
  0
TABLE
  2
LTYPE
  5
3341
330
0
100
AcDbSymbolTable
 70
    20
  0
LTYPE
  5
339E
330
3341
100
AcDbSymbolTableRecord
100
AcDbLinetypeTableRecord
  2
ByBlock
 70
     0
  3

 72
    65
 73
     0
 40
0.0
  0
LTYPE
  5
339F
330
3341
100
AcDbSymbolTableRecord
100
AcDbLinetypeTableRecord
  2
ByLayer
 70
     0
  3

 72
    65
 73
     0
 40
0.0
  0
LTYPE
  5
33A0
330
3341
100
AcDbSymbolTableRecord
100
AcDbLinetypeTableRecord
  2
CONTINUOUS
 70
     0
  3
実線
 72
    65
 73
     0
 40
0.0
  0
LTYPE
  5
33B5
330
3341
100
AcDbSymbolTableRecord
100
AcDbLinetypeTableRecord
  2
DASHDOT
 70
     0
  3
____ _ ____ _ ____ _ ____ _ ____ _ ____ _ ____
 72
    65
 73
     4
 40
5.5
 49
4.0
 74
     0
 49
-0.6
 74
     0
 49
0.3
 74
     0
 49
-0.6
 74
     0
  0
LTYPE
  5
33B6
330
3341
100
AcDbSymbolTableRecord
100
AcDbLinetypeTableRecord
  2
HIDDEN
 70
     0
  3
Hidden __ __ __ __ __ __ __ __ __ __ __ __ __ _
 72
    65
 73
     2
 40
0.375
 49
0.25
 74
     0
 49
-0.125
 74
     0
  0
LTYPE
  5
33B7
330
3341
100
AcDbSymbolTableRecord
100
AcDbLinetypeTableRecord
  2
PHANTOM2
 70
     0
  3
Phantom (.5x) ___ _ _ ___ _ _ ___ _ _ ___ _ _
 72
    65
 73
     6
 40
1.25
 49
0.625
 74
     0
 49
-0.125
 74
     0
 49
0.125
 74
     0
 49
-0.125
 74
     0
 49
0.125
 74
     0
 49
-0.125
 74
     0
  0
LTYPE
  5
33B8
330
3341
100
AcDbSymbolTableRecord
100
AcDbLinetypeTableRecord
  2
CENTER
 70
     0
  3
Center ____ _ ____ _ ____ _ ____ _ ____ _ ____
 72
    65
 73
     4
 40
2.0
 49
1.25
 74
     0
 49
-0.25
 74
     0
 49
0.25
 74
     0
 49
-0.25
 74
     0
  0
LTYPE
  5
33B9
330
3341
100
AcDbSymbolTableRecord
100
AcDbLinetypeTableRecord
  2
ASULTYPE
 70
     0
  3
実線
 72
    65
 73
     2
 40
3.0
 49
2.5
 74
     0
 49
0.5
 74
     0
  0
LTYPE
  5
33BA
330
3341
100
AcDbSymbolTableRecord
100
AcDbLinetypeTableRecord
  2
ASVLTYPE
 70
     0
  3
__ __ __ __ __ __ __ __ __ __ __ __ __ __ __ __ __ __ __ __ __
 72
    65
 73
     2
 40
0.75
 49
0.5
 74
     0
 49
-0.25
 74
     0
  0
LTYPE
  5
33BB
330
3341
100
AcDbSymbolTableRecord
100
AcDbLinetypeTableRecord
  2
AM_ISO02W050
 70
     0
  3
__ __ __ __ __ __ __ __ __ __ __ __ __ __ __
 72
    65
 73
     2
 40
7.5
 49
6.0
 74
     0
 49
-1.5
 74
     0
  0
LTYPE
  5
33BC
330
3341
100
AcDbSymbolTableRecord
100
AcDbLinetypeTableRecord
  2
AM_ISO08W050
 70
     0
  3
____ . ____ . ____ . ____ . ____ . ____ . ____
 72
    65
 73
     4
 40
18.0
 49
12.0
 74
     0
 49
-1.5
 74
     0
 49
3.0
 74
     0
 49
-1.5
 74
     0
  0
LTYPE
  5
33BD
330
3341
100
AcDbSymbolTableRecord
100
AcDbLinetypeTableRecord
  2
AM_ISO09W050
 70
     0
  3
_____ . . _____ . . _____ . . ____ .. ____
 72
    65
 73
     6
 40
22.5
 49
12.0
 74
     0
 49
-1.5
 74
     0
 49
3.0
 74
     0
 49
-1.5
 74
     0
 49
3.0
 74
     0
 49
-1.5
 74
     0
  0
LTYPE
  5
33BE
330
3341
100
AcDbSymbolTableRecord
100
AcDbLinetypeTableRecord
  2
AMCONSTR
 70
     0
  3
_______________________
 72
    65
 73
     2
 40
9999.0
 49
9999.0
 74
     0
 49
0.0
 74
     0
  0
LTYPE
  5
33BF
330
3341
100
AcDbSymbolTableRecord
100
AcDbLinetypeTableRecord
  2
AM_ISO08W050X2
 70
     0
  3
__ . __ . __ . __ . __ . __
 72
    65
 73
     4
 40
9.0
 49
6.0
 74
     0
 49
-0.75
 74
     0
 49
1.5
 74
     0
 49
-0.75
 74
     0
  0
LTYPE
  5
33C0
330
3341
100
AcDbSymbolTableRecord
100
AcDbLinetypeTableRecord
  2
AM_ISO02W050X2
 70
     0
  3
 _ _ _ _ _ _ _ _ _ _ _ _
 72
    65
 73
     2
 40
3.75
 49
3.0
 74
     0
 49
-0.75
 74
     0
  0
LTYPE
  5
33C1
330
3341
100
AcDbSymbolTableRecord
100
AcDbLinetypeTableRecord
  2
AMZIGZAG
 70
     0
  3
/\/-/\/-/\/-/\/-/\/-/\/
 72
    65
 73
     2
 40
11.0001
 49
0.0001
 74
     0
 49
-11.0
 74
     0
  0
LTYPE
  5
33C2
330
3341
100
AcDbSymbolTableRecord
100
AcDbLinetypeTableRecord
  2
CENTER2
 70
     0
  3
Center (.5x) ___ _ ___ _ ___ _ ___ _ ___ _ ___
 72
    65
 73
     4
 40
1.125
 49
0.75
 74
     0
 49
-0.125
 74
     0
 49
0.125
 74
     0
 49
-0.125
 74
     0
  0
LTYPE
  5
33C3
330
3341
100
AcDbSymbolTableRecord
100
AcDbLinetypeTableRecord
  2
HIDDEN2
 70
     0
  3
Hidden (.5x) _ _ _ _ _ _ _ _ _ _ _ _ _ _ _ _ _
 72
    65
 73
     2
 40
0.1875
 49
0.125
 74
     0
 49
-0.0625
 74
     0
  0
LTYPE
  5
33C4
330
3341
100
AcDbSymbolTableRecord
100
AcDbLinetypeTableRecord
  2
AMZIGZAG2
 70
     0
  3
/\/-/\/-/\/-/\/-/\/-/\/
 72
    65
 73
     2
 40
0.4401
 49
0.0001
 74
     0
 49
-0.4400000000000003
 74
     0
  0
LTYPE
  5
33C5
330
3341
100
AcDbSymbolTableRecord
100
AcDbLinetypeTableRecord
  2
ACANSTGB
 70
     0
  3
__ . . __ . .
 72
    65
 73
     6
 40
0.35433070866
 49
0.15748031496
 74
     0
 49
-0.03937007874
 74
     0
 49
0.03937007874
 74
     0
 49
-0.03937007874
 74
     0
 49
0.03937007874
 74
     0
 49
-0.03937007874
 74
     0
  0
LTYPE
  5
33C6
330
3341
100
AcDbSymbolTableRecord
100
AcDbLinetypeTableRecord
  2
ACANSTGL
 70
     0
  3
_ _ _ _ _
 72
    65
 73
     2
 40
0.11811023622
 49
0.07874015748
 74
     0
 49
-0.03937007874
 74
     0
  0
LTYPE
  5
33C7
330
3341
100
AcDbSymbolTableRecord
100
AcDbLinetypeTableRecord
  2
CENTERX2
 70
     0
  3
________  __  ________  __  ________  __  _____
 72
    65
 73
     4
 40
4.0
 49
2.5
 74
     0
 49
-0.5
 74
     0
 49
0.5
 74
     0
 49
-0.5
 74
     0
  0
ENDTAB
  0
TABLE
  2
LAYER
  5
333E
330
0
100
AcDbSymbolTable
 70
    14
  0
LAYER
  5
3398
102
{ACAD_XDICTIONARY
360
351E
102
}
330
333E
100
AcDbSymbolTableRecord
100
AcDbLayerTableRecord
  2
0
 70
     0
 62
     7
  6
CONTINUOUS
370
    -3
390
334B
  0
LAYER
  5
33C8
102
{ACAD_XDICTIONARY
360
3520
102
}
330
333E
100
AcDbSymbolTableRecord
100
AcDbLayerTableRecord
  2
OUTLINE
 70
     0
 62
     3
  6
CONTINUOUS
370
    -3
390
334B
  0
LAYER
  5
33C9
102
{ACAD_XDICTIONARY
360
3522
102
}
330
333E
100
AcDbSymbolTableRecord
100
AcDbLayerTableRecord
  2
SIZE
 70
     0
 62
    30
  6
CONTINUOUS
370
    -3
390
334B
  0
LAYER
  5
33CA
102
{ACAD_XDICTIONARY
360
3524
102
}
330
333E
100
AcDbSymbolTableRecord
100
AcDbLayerTableRecord
  2
BASIS
 70
     0
 62
     6
  6
DASHDOT
370
    -3
390
334B
  0
LAYER
  5
33CB
102
{ACAD_XDICTIONARY
360
3526
102
}
330
333E
100
AcDbSymbolTableRecord
100
AcDbLayerTableRecord
  2
DETAIL
 70
     0
 62
     5
  6
CONTINUOUS
370
    -3
390
334B
  0
LAYER
  5
33CC
102
{ACAD_XDICTIONARY
360
3528
102
}
330
333E
100
AcDbSymbolTableRecord
100
AcDbLayerTableRecord
  2
ARRANGE
 70
     0
 62
     1
  6
CONTINUOUS
370
    -3
390
334B
  0
LAYER
  5
33CD
330
333E
100
AcDbSymbolTableRecord
100
AcDbLayerTableRecord
  2
DEFPOINTS
 70
     0
 62
     7
  6
CONTINUOUS
290
     0
370
    -3
390
334B
  0
LAYER
  5
33CE
102
{ACAD_XDICTIONARY
360
352A
102
}
330
333E
100
AcDbSymbolTableRecord
100
AcDbLayerTableRecord
  2
ETC
 70
     0
 62
    61
  6
CONTINUOUS
370
    -3
390
334B
  0
LAYER
  5
33CF
102
{ACAD_XDICTIONARY
360
352C
102
}
330
333E
100
AcDbSymbolTableRecord
100
AcDbLayerTableRecord
  2
FIX
 70
     0
 62
    11
  6
CONTINUOUS
370
    -3
390
334B
  0
LAYER
  5
33D0
102
{ACAD_XDICTIONARY
360
352E
102
}
330
333E
100
AcDbSymbolTableRecord
100
AcDbLayerTableRecord
  2
NOTE
 70
     0
 62
     4
  6
CONTINUOUS
370
    -3
390
334B
  0
LAYER
  5
33D1
102
{ACAD_XDICTIONARY
360
3530
102
}
330
333E
100
AcDbSymbolTableRecord
100
AcDbLayerTableRecord
  2
SERVICESPACE
 70
     0
 62
     2
  6
DASHDOT
370
    -3
390
334B
  0
LAYER
  5
33D2
102
{ACAD_XDICTIONARY
360
3532
102
}
330
333E
100
AcDbSymbolTableRecord
100
AcDbLayerTableRecord
  2
SYMBOLLINE
 70
     0
 62
    15
  6
CONTINUOUS
370
    -3
390
334B
  0
LAYER
  5
33D3
102
{ACAD_XDICTIONARY
360
3534
102
}
330
333E
100
AcDbSymbolTableRecord
100
AcDbLayerTableRecord
  2
DETAIL___1
 70
     0
 62
     5
  6
CONTINUOUS
370
    -3
390
334B
  0
LAYER
  5
33D4
102
{ACAD_XDICTIONARY
360
3536
102
}
330
333E
100
AcDbSymbolTableRecord
100
AcDbLayerTableRecord
  2
BASIC
 70
     0
 62
     6
  6
CENTERX2
370
    -3
390
334B
  0
ENDTAB
  0
TABLE
  2
STYLE
  5
333F
330
0
100
AcDbSymbolTable
 70
     5
  0
STYLE
  5
3399
330
333F
100
AcDbSymbolTableRecord
100
AcDbTextStyleTableRecord
  2
STANDARD
 70
     0
 40
64.0
 41
0.9
 50
0.0
 71
     0
 42
64.0
  3
SIMPLEX.shx
  4
BIGFONT.shx
  0
STYLE
  5
339D
330
333F
100
AcDbSymbolTableRecord
100
AcDbTextStyleTableRecord
  2
ANNOTATIVE
 70
     0
 40
0.0
 41
1.0
 50
0.0
 71
     0
 42
0.2
  3
txt
  4

1001
ACADANNOTATIVE
1000
AnnotativeData
1002
{
1070
     1
1070
     1
1002
}
  0
STYLE
  5
33D5
330
333F
100
AcDbSymbolTableRecord
100
AcDbTextStyleTableRecord
  2

 70
     1
 40
0.0
 41
1.0
 50
0.0
 71
     0
 42
64.0
  3
genltshp.shx
  4

  0
STYLE
  5
33D6
330
333F
100
AcDbSymbolTableRecord
100
AcDbTextStyleTableRecord
  2
ACANSTS
 70
     0
 40
1.0
 41
1.0
 50
0.0
 71
     0
 42
64.0
  3
romans.shx
  4
extfont.shx
  0
STYLE
  5
33D7
330
333F
100
AcDbSymbolTableRecord
100
AcDbTextStyleTableRecord
  2
ACANSGDT
 70
     0
 40
0.0
 41
1.0
 50
0.0
 71
     0
 42
64.0
  3
amgdt.shx
  4

  0
ENDTAB
  0
TABLE
  2
VIEW
  5
3342
330
0
100
AcDbSymbolTable
 70
     1
  0
VIEW
  5
33D8
330
3342
100
AcDbSymbolTableRecord
100
AcDbViewTableRecord
  2
ALL
 70
     0
 40
4282.619807999997
 10
0.0
 20
41.30990399999999
 41
5940.0
 11
0.0
 21
0.0
 31
1.0
 12
0.0
 22
0.0
 32
0.0
 42
50.0
 43
0.0
 44
0.0
 50
0.0
 71
     0
281
     0
 72
     1
110
0.0
120
0.0
130
0.0
111
1.0
121
0.0
131
0.0
112
0.0
122
1.0
132
0.0
 79
     0
146
0.0
  0
ENDTAB
  0
TABLE
  2
UCS
  5
3343
330
0
100
AcDbSymbolTable
 70
     0
  0
ENDTAB
  0
TABLE
  2
APPID
  5
3345
330
0
100
AcDbSymbolTable
 70
    31
  0
APPID
  5
339A
330
3345
100
AcDbSymbolTableRecord
100
AcDbRegAppTableRecord
  2
ACAD
 70
     0
  0
APPID
  5
33A1
330
3345
100
AcDbSymbolTableRecord
100
AcDbRegAppTableRecord
  2
ACADANNOTATIVE
 70
     0
  0
APPID
  5
33AB
330
3345
100
AcDbSymbolTableRecord
100
AcDbRegAppTableRecord
  2
ACAD_MLEADERVER
 70
     0
  0
APPID
  5
33D9
330
3345
100
AcDbSymbolTableRecord
100
AcDbRegAppTableRecord
  2
GENIUS_GENDIM_13
 70
     0
  0
APPID
  5
33DA
330
3345
100
AcDbSymbolTableRecord
100
AcDbRegAppTableRecord
  2
GENIUS_GENDTOL_13
 70
     0
  0
APPID
  5
33DB
330
3345
100
AcDbSymbolTableRecord
100
AcDbRegAppTableRecord
  2
GENIUS_GE3DTOL_13
 70
     0
  0
APPID
  5
33DC
330
3345
100
AcDbSymbolTableRecord
100
AcDbRegAppTableRecord
  2
MCAD_NO_VIS
 70
     0
  0
APPID
  5
33DD
330
3345
100
AcDbSymbolTableRecord
100
AcDbRegAppTableRecord
  2
ACAD_TEMP_GRAPHIC
 70
     0
  0
APPID
  5
33DE
330
3345
100
AcDbSymbolTableRecord
100
AcDbRegAppTableRecord
  2
AD_DRAW
 70
     0
  0
APPID
  5
33DF
330
3345
100
AcDbSymbolTableRecord
100
AcDbRegAppTableRecord
  2
ACATTRIBSERVICES
 70
     0
  0
APPID
  5
33E0
330
3345
100
AcDbSymbolTableRecord
100
AcDbRegAppTableRecord
  2
ASURF_PCURVE_APPNAME
 70
     0
  0
APPID
  5
33E1
330
3345
100
AcDbSymbolTableRecord
100
AcDbRegAppTableRecord
  2
AMG_3D2D_5_0
 70
     0
  0
APPID
  5
33E2
330
3345
100
AcDbSymbolTableRecord
100
AcDbRegAppTableRecord
  2
DESIGNERASSEMBLIES
 70
     0
  0
APPID
  5
33E3
330
3345
100
AcDbSymbolTableRecord
100
AcDbRegAppTableRecord
  2
ACADM_DIM_EDIT
 70
     0
  0
APPID
  5
33E4
330
3345
100
AcDbSymbolTableRecord
100
AcDbRegAppTableRecord
  2
AMDT_DM_ADJ
 70
     0
  0
APPID
  5
33E5
330
3345
100
AcDbSymbolTableRecord
100
AcDbRegAppTableRecord
  2
ACAD_DSTYLE_DIMARC_LENGTH_
 70
     0
  0
APPID
  5
33E6
330
3345
100
AcDbSymbolTableRecord
100
AcDbRegAppTableRecord
  2
ACAD_DSTYLE_DIMJOGGED_JOGA
 70
     0
  0
APPID
  5
33E7
330
3345
100
AcDbSymbolTableRecord
100
AcDbRegAppTableRecord
  2
ACAD_PSEXT
 70
     0
  0
APPID
  5
33E8
330
3345
100
AcDbSymbolTableRecord
100
AcDbRegAppTableRecord
  2
ACAD_EXEMPT_FROM_CAD_STANDARDS
 70
     0
  0
APPID
  5
33E9
330
3345
100
AcDbSymbolTableRecord
100
AcDbRegAppTableRecord
  2
ACAD_DSTYLE_DIMJAG
 70
     0
  0
APPID
  5
33EA
330
3345
100
AcDbSymbolTableRecord
100
AcDbRegAppTableRecord
  2
ACAD_DSTYLE_DIMTALN
 70
     0
  0
APPID
  5
33EB
330
3345
100
AcDbSymbolTableRecord
100
AcDbRegAppTableRecord
  2
AMG_3D2D_5_00
 70
     0
  0
APPID
  5
33EC
330
3345
100
AcDbSymbolTableRecord
100
AcDbRegAppTableRecord
  2
AMG_3D2D_5_01
 70
     0
  0
APPID
  5
33ED
330
3345
100
AcDbSymbolTableRecord
100
AcDbRegAppTableRecord
  2
AMG_3D2D_5_02
 70
     0
  0
APPID
  5
33EE
330
3345
100
AcDbSymbolTableRecord
100
AcDbRegAppTableRecord
  2
AMG_3D2D_5_03
 70
     0
  0
APPID
  5
33EF
330
3345
100
AcDbSymbolTableRecord
100
AcDbRegAppTableRecord
  2
AMG_3D2D_5_04
 70
     0
  0
APPID
  5
34C5
330
3345
100
AcDbSymbolTableRecord
100
AcDbRegAppTableRecord
  2
AMG_3D2D_5.0
 70
     0
  0
APPID
  5
3561
330
3345
100
AcDbSymbolTableRecord
100
AcDbRegAppTableRecord
  2
ACAD_DSTYLE_DIMARC_LENGTH_SYMBOL
 70
     0
  0
APPID
  5
3562
330
3345
100
AcDbSymbolTableRecord
100
AcDbRegAppTableRecord
  2
ACAD_DSTYLE_DIM_LINETYPE
 70
     0
  0
APPID
  5
3563
330
3345
100
AcDbSymbolTableRecord
100
AcDbRegAppTableRecord
  2
ACAD_DSTYLE_DIM_EXT1_LINETYPE
 70
     0
  0
APPID
  5
3564
330
3345
100
AcDbSymbolTableRecord
100
AcDbRegAppTableRecord
  2
ACAD_DSTYLE_DIM_EXT2_LINETYPE
 70
     0
  0
ENDTAB
  0
TABLE
  2
DIMSTYLE
  5
3346
330
0
100
AcDbSymbolTable
 70
    10
100
AcDbDimStyleTable
 71
     1
340
33F0
  0
DIMSTYLE
105
339B
330
3346
100
AcDbSymbolTableRecord
100
AcDbDimStyleTableRecord
  2
STANDARD
 70
     0
 41
12.0
 42
20.0
 44
20.0
 77
     1
 78
     8
140
64.0
141
0.0
147
10.0
172
     1
275
     1
279
     2
284
     7
285
     7
286
     7
340
3399
  0
DIMSTYLE
105
339C
330
3346
100
AcDbSymbolTableRecord
100
AcDbDimStyleTableRecord
  2
ANNOTATIVE
 70
     0
275
     1
279
     2
284
     7
285
     7
286
     7
340
3399
1001
ACADANNOTATIVE
1000
AnnotativeData
1002
{
1070
     1
1070
     1
1002
}
  0
DIMSTYLE
105
33F0
330
3346
100
AcDbSymbolTableRecord
100
AcDbDimStyleTableRecord
  2
AM_ANSI
 70
     0
  4
mm
 41
0.12
 42
0.05
 43
0.5
 44
0.1
 47
0.1
 48
0.1
 78
     7
 79
     2
140
0.12
141
0.0
146
0.71
147
0.06
176
   256
177
   256
178
     2
274
     4
284
     7
340
3399
371
    -1
372
    -1
1001
ACAD_DSTYLE_DIMARC_LENGTH_SYMBOL
1070
   379
1070
     1
1001
ACAD_DSTYLE_DIM_LINETYPE
1070
   380
1005
339E
1001
ACAD_DSTYLE_DIM_EXT1_LINETYPE
1070
   381
1005
339E
1001
ACAD_DSTYLE_DIM_EXT2_LINETYPE
1070
   382
1005
339E
  0
DIMSTYLE
105
33F1
330
3346
100
AcDbSymbolTableRecord
100
AcDbDimStyleTableRecord
  2
AM_ANSI$3
 70
     0
  4
mm
 41
0.12
 42
0.05
 43
0.5
 44
0.1
 47
0.1
 48
0.1
 78
     7
 79
     2
140
0.12
141
0.0
146
0.71
147
0.06
176
   256
177
   256
178
     2
274
     4
284
     7
288
     1
289
     0
340
3399
371
    -1
372
    -1
1001
ACAD_DSTYLE_DIMARC_LENGTH_SYMBOL
1070
   379
1070
     1
1001
ACAD_DSTYLE_DIM_LINETYPE
1070
   380
1005
339E
1001
ACAD_DSTYLE_DIM_EXT1_LINETYPE
1070
   381
1005
339E
1001
ACAD_DSTYLE_DIM_EXT2_LINETYPE
1070
   382
1005
339E
  0
DIMSTYLE
105
33F2
330
3346
100
AcDbSymbolTableRecord
100
AcDbDimStyleTableRecord
  2
AM_ANSI$4
 70
     0
  4
mm
 41
0.12
 42
0.05
 43
0.5
 44
0.1
 47
0.1
 48
0.1
 78
     7
 79
     2
140
0.12
141
0.0
146
0.71
147
0.06
176
   256
177
   256
178
     2
274
     4
284
     7
340
3399
371
    -1
372
    -1
1001
ACAD_DSTYLE_DIMARC_LENGTH_SYMBOL
1070
   379
1070
     1
1001
ACAD_DSTYLE_DIM_LINETYPE
1070
   380
1005
339E
1001
ACAD_DSTYLE_DIM_EXT1_LINETYPE
1070
   381
1005
339E
1001
ACAD_DSTYLE_DIM_EXT2_LINETYPE
1070
   382
1005
339E
  0
DIMSTYLE
105
33F3
330
3346
100
AcDbSymbolTableRecord
100
AcDbDimStyleTableRecord
  2
AM_ANSI$7
 70
     0
  4
mm
 41
0.12
 42
0.05
 43
0.5
 44
0.1
 47
0.1
 48
0.1
 78
     7
 79
     2
140
0.12
141
0.0
146
0.71
147
0.06
176
   256
177
   256
178
     2
274
     4
284
     7
340
3399
371
    -1
372
    -1
1001
ACAD_DSTYLE_DIMARC_LENGTH_SYMBOL
1070
   379
1070
     1
1001
ACAD_DSTYLE_DIM_LINETYPE
1070
   380
1005
339E
1001
ACAD_DSTYLE_DIM_EXT1_LINETYPE
1070
   381
1005
339E
1001
ACAD_DSTYLE_DIM_EXT2_LINETYPE
1070
   382
1005
339E
  0
DIMSTYLE
105
33F4
330
3346
100
AcDbSymbolTableRecord
100
AcDbDimStyleTableRecord
  2
AM_ANSI$SF
 70
     0
  4
mm
 41
0.12
 42
0.05
 43
0.5
 44
0.1
 47
0.1
 48
0.1
 75
     1
 76
     1
 78
     7
 79
     2
140
0.12
141
0.0
146
0.71
147
0.06
176
   256
177
   256
178
     2
274
     4
284
     7
340
3399
371
    -1
372
    -1
1001
ACAD_DSTYLE_DIMARC_LENGTH_SYMBOL
1070
   379
1070
     1
1001
ACAD_DSTYLE_DIM_LINETYPE
1070
   380
1005
339E
1001
ACAD_DSTYLE_DIM_EXT1_LINETYPE
1070
   381
1005
339E
1001
ACAD_DSTYLE_DIM_EXT2_LINETYPE
1070
   382
1005
339E
  0
DIMSTYLE
105
33F5
330
3346
100
AcDbSymbolTableRecord
100
AcDbDimStyleTableRecord
  2
AM_ANSI$SH
 70
     0
  4
mm
 41
0.12
 42
0.05
 43
0.5
 44
0.1
 47
0.1
 48
0.1
 75
     1
 76
     1
 78
     7
 79
     2
140
0.12
141
0.0
146
0.71
147
0.06
173
     1
176
   256
177
   256
178
     2
274
     4
284
     7
340
3399
343
3409
371
    -1
372
    -1
1001
ACAD_DSTYLE_DIMARC_LENGTH_SYMBOL
1070
   379
1070
     1
1001
ACAD_DSTYLE_DIM_LINETYPE
1070
   380
1005
339E
1001
ACAD_DSTYLE_DIM_EXT1_LINETYPE
1070
   381
1005
339E
1001
ACAD_DSTYLE_DIM_EXT2_LINETYPE
1070
   382
1005
339E
  0
DIMSTYLE
105
33F6
330
3346
100
AcDbSymbolTableRecord
100
AcDbDimStyleTableRecord
  2
STANDARD1
 70
     0
 40
6.0
 41
2.5
 42
0.625
 43
6.0
 44
1.25
 47
1.0
 48
0.5
 77
     1
 78
     8
140
2.5
141
0.0
146
0.6
147
1.0
173
     1
275
     1
279
     2
284
     7
285
     7
286
     7
340
3399
  0
DIMSTYLE
105
33F7
330
3346
100
AcDbSymbolTableRecord
100
AcDbDimStyleTableRecord
  2
STANDARD$0
 70
     0
 41
12.0
 42
20.0
 44
20.0
 73
     0
 74
     0
 77
     1
 78
     8
140
64.0
141
0.0
147
10.0
172
     1
275
     1
279
     2
284
     7
285
     7
286
     7
340
3399
  0
ENDTAB
  0
TABLE
  2
BLOCK_RECORD
  5
333D
330
0
100
AcDbSymbolTable
 70
    35
  0
BLOCK_RECORD
  5
33B0
102
{ACAD_XDICTIONARY
360
3538
102
}
330
333D
100
AcDbSymbolTableRecord
100
AcDbBlockTableRecord
  2
*Model_Space
340
33B3
  0
BLOCK_RECORD
  5
33AC
330
333D
100
AcDbSymbolTableRecord
100
AcDbBlockTableRecord
  2
*Paper_Space
340
33AF
  0
BLOCK_RECORD
  5
33FF
330
333D
100
AcDbSymbolTableRecord
100
AcDbBlockTableRecord
  2
$MODEL_SPACE
340
0
  0
BLOCK_RECORD
  5
3401
330
333D
100
AcDbSymbolTableRecord
100
AcDbBlockTableRecord
  2
$PAPER_SPACE
340
0
  0
BLOCK_RECORD
  5
3403
330
333D
100
AcDbSymbolTableRecord
100
AcDbBlockTableRecord
  2
_ORIGIN
340
0
  0
BLOCK_RECORD
  5
3405
330
333D
100
AcDbSymbolTableRecord
100
AcDbBlockTableRecord
  2
_DOTBLANK
340
0
102
{BLKREFS
331
202C
331
202D
331
2035
331
2036
331
203E
331
203F
331
2047
331
2048
331
2052
331
2053
331
205D
331
205E
331
32D7
331
32D8
331
32DC
331
32DD
331
32E1
331
32E2
331
32E8
331
32E9
331
32ED
331
32EE
331
32F2
331
32F3
102
}
  0
BLOCK_RECORD
  5
3407
330
333D
100
AcDbSymbolTableRecord
100
AcDbBlockTableRecord
  2
_OPEN30
340
0
102
{BLKREFS
331
2199
331
261A
331
2A62
331
3045
102
}
  0
BLOCK_RECORD
  5
3409
330
333D
100
AcDbSymbolTableRecord
100
AcDbBlockTableRecord
  2
GENAXEH
340
0
  0
BLOCK_RECORD
  5
340B
330
333D
100
AcDbSymbolTableRecord
100
AcDbBlockTableRecord
  2
*U6
340
0
  0
BLOCK_RECORD
  5
340D
330
333D
100
AcDbSymbolTableRecord
100
AcDbBlockTableRecord
  2
*D7
340
0
  0
BLOCK_RECORD
  5
340F
330
333D
100
AcDbSymbolTableRecord
100
AcDbBlockTableRecord
  2
*U8
340
0
102
{BLKREFS
331
202E
102
}
  0
BLOCK_RECORD
  5
3411
330
333D
100
AcDbSymbolTableRecord
100
AcDbBlockTableRecord
  2
*D9
340
0
  0
BLOCK_RECORD
  5
3413
330
333D
100
AcDbSymbolTableRecord
100
AcDbBlockTableRecord
  2
*U10
340
0
102
{BLKREFS
331
2037
102
}
  0
BLOCK_RECORD
  5
3415
330
333D
100
AcDbSymbolTableRecord
100
AcDbBlockTableRecord
  2
*D11
340
0
  0
BLOCK_RECORD
  5
3417
330
333D
100
AcDbSymbolTableRecord
100
AcDbBlockTableRecord
  2
*U12
340
0
102
{BLKREFS
331
2040
102
}
  0
BLOCK_RECORD
  5
3419
330
333D
100
AcDbSymbolTableRecord
100
AcDbBlockTableRecord
  2
*D13
340
0
  0
BLOCK_RECORD
  5
341B
330
333D
100
AcDbSymbolTableRecord
100
AcDbBlockTableRecord
  2
*U14
340
0
102
{BLKREFS
331
2049
102
}
  0
BLOCK_RECORD
  5
341D
330
333D
100
AcDbSymbolTableRecord
100
AcDbBlockTableRecord
  2
*D15
340
0
  0
BLOCK_RECORD
  5
341F
330
333D
100
AcDbSymbolTableRecord
100
AcDbBlockTableRecord
  2
*U16
340
0
102
{BLKREFS
331
2054
102
}
  0
BLOCK_RECORD
  5
3421
330
333D
100
AcDbSymbolTableRecord
100
AcDbBlockTableRecord
  2
*D17
340
0
  0
BLOCK_RECORD
  5
3423
330
333D
100
AcDbSymbolTableRecord
100
AcDbBlockTableRecord
  2
*U18
340
0
102
{BLKREFS
331
205F
102
}
  0
BLOCK_RECORD
  5
3425
330
333D
100
AcDbSymbolTableRecord
100
AcDbBlockTableRecord
  2
*U19
340
0
  0
BLOCK_RECORD
  5
3427
330
333D
100
AcDbSymbolTableRecord
100
AcDbBlockTableRecord
  2
*U20
340
0
  0
BLOCK_RECORD
  5
3429
330
333D
100
AcDbSymbolTableRecord
100
AcDbBlockTableRecord
  2
*X21
340
0
  0
BLOCK_RECORD
  5
342B
330
333D
100
AcDbSymbolTableRecord
100
AcDbBlockTableRecord
  2
*X22
340
0
  0
BLOCK_RECORD
  5
342D
330
333D
100
AcDbSymbolTableRecord
100
AcDbBlockTableRecord
  2
*U23
340
0
  0
BLOCK_RECORD
  5
342F
330
333D
100
AcDbSymbolTableRecord
100
AcDbBlockTableRecord
  2
*X24
340
0
  0
BLOCK_RECORD
  5
3431
330
333D
100
AcDbSymbolTableRecord
100
AcDbBlockTableRecord
  2
*X25
340
0
  0
BLOCK_RECORD
  5
3433
330
333D
100
AcDbSymbolTableRecord
100
AcDbBlockTableRecord
  2
*X26
340
0
  0
BLOCK_RECORD
  5
3435
330
333D
100
AcDbSymbolTableRecord
100
AcDbBlockTableRecord
  2
*X27
340
0
  0
BLOCK_RECORD
  5
3437
330
333D
100
AcDbSymbolTableRecord
100
AcDbBlockTableRecord
  2
*U28
340
0
  0
BLOCK_RECORD
  5
3439
330
333D
100
AcDbSymbolTableRecord
100
AcDbBlockTableRecord
  2
*X29
340
0
  0
BLOCK_RECORD
  5
343B
330
333D
100
AcDbSymbolTableRecord
100
AcDbBlockTableRecord
  2
*X30
340
0
  0
BLOCK_RECORD
  5
343D
330
333D
100
AcDbSymbolTableRecord
100
AcDbBlockTableRecord
  2
*U31
340
0
102
{BLKREFS
331
3288
102
}
  0
BLOCK_RECORD
  5
343F
330
333D
100
AcDbSymbolTableRecord
100
AcDbBlockTableRecord
  2
*X32
340
0
102
{BLKREFS
331
32C4
102
}
  0
BLOCK_RECORD
  5
3441
330
333D
100
AcDbSymbolTableRecord
100
AcDbBlockTableRecord
  2
*X33
340
0
102
{BLKREFS
331
32C5
102
}
  0
ENDTAB
  0
ENDSEC
  0
SECTION
  2
BLOCKS
  0
BLOCK
  5
33B1
330
33B0
100
AcDbEntity
  8
0
100
AcDbBlockBegin
  2
*Model_Space
 70
     0
 10
0.0
 20
0.0
 30
0.0
  3
*Model_Space
  1

  0
ENDBLK
  5
33B2
330
33B0
100
AcDbEntity
  8
0
100
AcDbBlockEnd
  0
BLOCK
  5
33AD
330
33AC
100
AcDbEntity
 67
     1
  8
0
100
AcDbBlockBegin
  2
*Paper_Space
 70
     0
 10
0.0
 20
0.0
 30
0.0
  3
*Paper_Space
  1

  0
ENDBLK
  5
33AE
330
33AC
100
AcDbEntity
 67
     1
  8
0
100
AcDbBlockEnd
  0
BLOCK
  5
3400
330
33FF
100
AcDbEntity
  8
0
100
AcDbBlockBegin
  2
$MODEL_SPACE
 70
     0
 10
0.0
 20
0.0
 30
0.0
  3
$MODEL_SPACE
  1

  0
ENDBLK
  5
2EDF
330
33FF
100
AcDbEntity
  8
0
100
AcDbBlockEnd
  0
BLOCK
  5
3402
330
3401
100
AcDbEntity
  8
0
100
AcDbBlockBegin
  2
$PAPER_SPACE
 70
     0
 10
0.0
 20
0.0
 30
0.0
  3
$PAPER_SPACE
  1

  0
ENDBLK
  5
2EDB
330
3401
100
AcDbEntity
  8
0
100
AcDbBlockEnd
  0
BLOCK
  5
3404
330
3403
100
AcDbEntity
  8
0
100
AcDbBlockBegin
  2
_ORIGIN
 70
     0
 10
0.0
 20
0.0
 30
0.0
  3
_ORIGIN
  1

  0
CIRCLE
  5
880
330
3403
100
AcDbEntity
  8
0
  6
Continuous
 62
     7
100
AcDbCircle
 10
0.0
 20
0.0
 30
0.0
 40
0.5
  0
LINE
  5
881
330
3403
100
AcDbEntity
  8
0
  6
Continuous
 62
     7
100
AcDbLine
 10
0.0
 20
0.0
 30
0.0
 11
-1.0
 21
0.0
 31
0.0
  0
ENDBLK
  5
882
330
3403
100
AcDbEntity
  8
0
100
AcDbBlockEnd
  0
BLOCK
  5
3406
330
3405
100
AcDbEntity
  8
0
 62
     1
100
AcDbBlockBegin
  2
_DOTBLANK
 70
     0
 10
0.0
 20
0.0
 30
0.0
  3
_DOTBLANK
  1

  0
CIRCLE
  5
AB3
330
3405
100
AcDbEntity
  8
0
  6
ByBlock
 62
     0
100
AcDbCircle
 10
0.0
 20
0.0
 30
0.0
 40
0.5
  0
LINE
  5
AB4
330
3405
100
AcDbEntity
  8
0
  6
ByBlock
 62
     0
100
AcDbLine
 10
-0.5
 20
0.0
 30
0.0
 11
-1.0
 21
0.0
 31
0.0
  0
ENDBLK
  5
AB6
330
3405
100
AcDbEntity
  8
0
 62
     1
100
AcDbBlockEnd
  0
BLOCK
  5
3408
330
3407
100
AcDbEntity
  8
0
 62
     1
100
AcDbBlockBegin
  2
_OPEN30
 70
     0
 10
0.0
 20
0.0
 30
0.0
  3
_OPEN30
  1

  0
LINE
  5
AB8
330
3407
100
AcDbEntity
  8
0
  6
ByBlock
 62
     0
100
AcDbLine
 10
-1.0
 20
0.26794919
 30
0.0
 11
0.0
 21
0.0
 31
0.0
  0
LINE
  5
AB9
330
3407
100
AcDbEntity
  8
0
  6
ByBlock
 62
     0
100
AcDbLine
 10
0.0
 20
0.0
 30
0.0
 11
-1.0
 21
-0.26794919
 31
0.0
  0
LINE
  5
ABA
330
3407
100
AcDbEntity
  8
0
  6
ByBlock
 62
     0
100
AcDbLine
 10
0.0
 20
0.0
 30
0.0
 11
-1.0
 21
0.0
 31
0.0
  0
ENDBLK
  5
ABC
330
3407
100
AcDbEntity
  8
0
 62
     1
100
AcDbBlockEnd
  0
BLOCK
  5
340A
330
3409
100
AcDbEntity
  8
0
100
AcDbBlockBegin
  2
GENAXEH
 70
     0
 10
0.0
 20
0.0
 30
0.0
  3
GENAXEH
  1

  0
LINE
  5
FDB
330
3409
100
AcDbEntity
  8
0
100
AcDbLine
 10
-1.0
 20
0.0
 30
0.0
 11
1.0
 21
0.0
 31
0.0
  0
ENDBLK
  5
FDD
330
3409
100
AcDbEntity
  8
0
100
AcDbBlockEnd
  0
BLOCK
  5
340C
330
340B
100
AcDbEntity
  8
0
100
AcDbBlockBegin
  2
*U6
 70
     1
 10
0.0
 20
0.0
 30
0.0
  3
*U6
  1

  0
ENDBLK
  5
1ED4
330
340B
100
AcDbEntity
  8
0
100
AcDbBlockEnd
  0
BLOCK
  5
340E
330
340D
100
AcDbEntity
  8
0
100
AcDbBlockBegin
  2
*D7
 70
     1
 10
0.0
 20
0.0
 30
0.0
  3
*D7
  1

  0
LINE
  5
2029
330
340D
100
AcDbEntity
  8
SIZE
 62
     0
100
AcDbLine
 10
-135.5
 20
-449.4732256776551
 30
0.0
 11
-135.5
 21
-638.0173952306003
 31
0.0
  0
LINE
  5
202A
330
340D
100
AcDbEntity
  8
SIZE
 62
     0
100
AcDbLine
 10
135.5
 20
-449.4732256776551
 30
0.0
 11
135.5
 21
-638.0173952306003
 31
0.0
  0
LINE
  5
202B
330
340D
100
AcDbEntity
  8
SIZE
 62
     0
100
AcDbLine
 10
-123.5
 20
-618.0173952306001
 30
0.0
 11
123.5
 21
-618.0173952306001
 31
0.0
  0
INSERT
  5
202C
330
340D
100
AcDbEntity
  8
SIZE
 62
     0
100
AcDbBlockReference
  2
_DOTBLANK
 10
-135.5
 20
-618.0173952306001
 30
0.0
 41
12.0
 42
12.0
 43
12.0
 50
180.0
  0
INSERT
  5
202D
330
340D
100
AcDbEntity
  8
SIZE
 62
     0
100
AcDbBlockReference
  2
_DOTBLANK
 10
135.5
 20
-618.0173952306001
 30
0.0
 41
12.0
 42
12.0
 43
12.0
  0
INSERT
  5
202E
330
340D
100
AcDbEntity
  8
0
100
AcDbBlockReference
  2
*U8
 10
0.0
 20
0.0
 30
0.0
  0
POINT
  5
202F
330
340D
100
AcDbEntity
  8
DEFPOINTS
 62
     0
100
AcDbPoint
 10
-135.5
 20
-429.473225677655
 30
0.0
  0
POINT
  5
2030
330
340D
100
AcDbEntity
  8
DEFPOINTS
 62
     0
100
AcDbPoint
 10
135.5
 20
-429.473225677655
 30
0.0
  0
POINT
  5
2031
330
340D
100
AcDbEntity
  8
DEFPOINTS
 62
     0
100
AcDbPoint
 10
135.5
 20
-618.0173952306001
 30
0.0
  0
ENDBLK
  5
1FDF
330
340D
100
AcDbEntity
  8
0
100
AcDbBlockEnd
  0
BLOCK
  5
3410
330
340F
100
AcDbEntity
  8
0
100
AcDbBlockBegin
  2
*U8
 70
     1
 10
0.0
 20
0.0
 30
0.0
  3
*U8
  1

  0
TEXT
  5
21A6
330
340F
100
AcDbEntity
  8
SIZE
 62
     0
100
AcDbText
 10
-61.7142857142857
 20
-608.0173952306003
 30
0.0
 40
64.0
  1
271
 41
0.9
100
AcDbText
  0
ENDBLK
  5
21A8
330
340F
100
AcDbEntity
  8
0
100
AcDbBlockEnd
  0
BLOCK
  5
3412
330
3411
100
AcDbEntity
  8
0
100
AcDbBlockBegin
  2
*D9
 70
     1
 10
0.0
 20
0.0
 30
0.0
  3
*D9
  1

  0
LINE
  5
2032
330
3411
100
AcDbEntity
  8
SIZE
 62
     0
100
AcDbLine
 10
143.7000000000007
 20
-430.0
 30
0.0
 11
304.6432844803784
 21
-430.0
 31
0.0
  0
LINE
  5
2033
330
3411
100
AcDbEntity
  8
SIZE
 62
     0
100
AcDbLine
 10
177.5
 20
-0.0000000000000057
 30
0.0
 11
304.6432844803785
 21
-0.0000000000000417
 31
0.0
  0
LINE
  5
2034
330
3411
100
AcDbEntity
  8
SIZE
 62
     0
100
AcDbLine
 10
284.6432844803784
 20
-418.0
 30
0.0
 11
284.6432844803785
 21
-12.00000000000003
 31
0.0
  0
INSERT
  5
2035
330
3411
100
AcDbEntity
  8
SIZE
 62
     0
100
AcDbBlockReference
  2
_DOTBLANK
 10
284.6432844803784
 20
-430.0
 30
0.0
 41
12.0
 42
12.0
 43
12.0
 50
270.0
  0
INSERT
  5
2036
330
3411
100
AcDbEntity
  8
SIZE
 62
     0
100
AcDbBlockReference
  2
_DOTBLANK
 10
284.6432844803785
 20
-0.000000000000036
 30
0.0
 41
12.0
 42
12.0
 43
12.0
 50
90.0
  0
INSERT
  5
2037
330
3411
100
AcDbEntity
  8
0
100
AcDbBlockReference
  2
*U10
 10
0.0
 20
0.0
 30
0.0
  0
POINT
  5
2038
330
3411
100
AcDbEntity
  8
DEFPOINTS
 62
     0
100
AcDbPoint
 10
123.7000000000007
 20
-430.0
 30
0.0
  0
POINT
  5
2039
330
3411
100
AcDbEntity
  8
DEFPOINTS
 62
     0
100
AcDbPoint
 10
157.5
 20
0.0
 30
0.0
  0
POINT
  5
203A
330
3411
100
AcDbEntity
  8
DEFPOINTS
 62
     0
100
AcDbPoint
 10
284.6432844803785
 20
-0.000000000000036
 30
0.0
  0
ENDBLK
  5
1FEB
330
3411
100
AcDbEntity
  8
0
100
AcDbBlockEnd
  0
BLOCK
  5
3414
330
3413
100
AcDbEntity
  8
0
100
AcDbBlockBegin
  2
*U10
 70
     1
 10
0.0
 20
0.0
 30
0.0
  3
*U10
  1

  0
TEXT
  5
21AA
330
3413
100
AcDbEntity
  8
SIZE
 62
     0
100
AcDbText
 10
274.6432844803785
 20
-289.0571428571429
 30
0.0
 40
64.0
  1
430
 50
90.0
 41
0.9
100
AcDbText
  0
ENDBLK
  5
21AC
330
3413
100
AcDbEntity
  8
0
100
AcDbBlockEnd
  0
BLOCK
  5
3416
330
3415
100
AcDbEntity
  8
0
100
AcDbBlockBegin
  2
*D11
 70
     1
 10
0.0
 20
0.0
 30
0.0
  3
*D11
  1

  0
LINE
  5
203B
330
3415
100
AcDbEntity
  8
SIZE
 62
     0
100
AcDbLine
 10
-140.0
 20
32.5
 30
0.0
 11
-140.0
 21
136.4516878685499
 31
0.0
  0
LINE
  5
203C
330
3415
100
AcDbEntity
  8
SIZE
 62
     0
100
AcDbLine
 10
140.0
 20
32.5
 30
0.0
 11
140.0
 21
136.4516878685499
 31
0.0
  0
LINE
  5
203D
330
3415
100
AcDbEntity
  8
SIZE
 62
     0
100
AcDbLine
 10
-128.0
 20
116.4516878685499
 30
0.0
 11
128.0
 21
116.4516878685499
 31
0.0
  0
INSERT
  5
203E
330
3415
100
AcDbEntity
  8
SIZE
 62
     0
100
AcDbBlockReference
  2
_DOTBLANK
 10
-140.0
 20
116.4516878685499
 30
0.0
 41
12.0
 42
12.0
 43
12.0
 50
180.0
  0
INSERT
  5
203F
330
3415
100
AcDbEntity
  8
SIZE
 62
     0
100
AcDbBlockReference
  2
_DOTBLANK
 10
140.0
 20
116.4516878685499
 30
0.0
 41
12.0
 42
12.0
 43
12.0
  0
INSERT
  5
2040
330
3415
100
AcDbEntity
  8
0
100
AcDbBlockReference
  2
*U12
 10
0.0
 20
0.0
 30
0.0
  0
POINT
  5
2041
330
3415
100
AcDbEntity
  8
DEFPOINTS
 62
     0
100
AcDbPoint
 10
-140.0
 20
12.5
 30
0.0
  0
POINT
  5
2042
330
3415
100
AcDbEntity
  8
DEFPOINTS
 62
     0
100
AcDbPoint
 10
140.0
 20
12.5
 30
0.0
  0
POINT
  5
2043
330
3415
100
AcDbEntity
  8
DEFPOINTS
 62
     0
100
AcDbPoint
 10
140.0
 20
116.4516878685499
 30
0.0
  0
ENDBLK
  5
1FF7
330
3415
100
AcDbEntity
  8
0
100
AcDbBlockEnd
  0
BLOCK
  5
3418
330
3417
100
AcDbEntity
  8
0
100
AcDbBlockBegin
  2
*U12
 70
     1
 10
0.0
 20
0.0
 30
0.0
  3
*U12
  1

  0
TEXT
  5
21AE
330
3417
100
AcDbEntity
  8
SIZE
 62
     0
100
AcDbText
 10
-74.05714285714283
 20
126.4516878685499
 30
0.0
 40
64.0
  1
280
 41
0.9
100
AcDbText
  0
ENDBLK
  5
21B0
330
3417
100
AcDbEntity
  8
0
100
AcDbBlockEnd
  0
BLOCK
  5
341A
330
3419
100
AcDbEntity
  8
0
100
AcDbBlockBegin
  2
*D13
 70
     1
 10
0.0
 20
0.0
 30
0.0
  3
*D13
  1

  0
LINE
  5
2044
330
3419
100
AcDbEntity
  8
SIZE
 62
     0
100
AcDbLine
 10
-157.5
 20
20.0
 30
0.0
 11
-157.5
 21
245.5794621189598
 31
0.0
  0
LINE
  5
2045
330
3419
100
AcDbEntity
  8
SIZE
 62
     0
100
AcDbLine
 10
157.5
 20
20.0
 30
0.0
 11
157.5
 21
245.5794621189598
 31
0.0
  0
LINE
  5
2046
330
3419
100
AcDbEntity
  8
SIZE
 62
     0
100
AcDbLine
 10
-145.5
 20
225.5794621189598
 30
0.0
 11
145.5
 21
225.5794621189598
 31
0.0
  0
INSERT
  5
2047
330
3419
100
AcDbEntity
  8
SIZE
 62
     0
100
AcDbBlockReference
  2
_DOTBLANK
 10
-157.5
 20
225.5794621189598
 30
0.0
 41
12.0
 42
12.0
 43
12.0
 50
180.0
  0
INSERT
  5
2048
330
3419
100
AcDbEntity
  8
SIZE
 62
     0
100
AcDbBlockReference
  2
_DOTBLANK
 10
157.5
 20
225.5794621189598
 30
0.0
 41
12.0
 42
12.0
 43
12.0
  0
INSERT
  5
2049
330
3419
100
AcDbEntity
  8
0
100
AcDbBlockReference
  2
*U14
 10
0.0
 20
0.0
 30
0.0
  0
POINT
  5
204A
330
3419
100
AcDbEntity
  8
DEFPOINTS
 62
     0
100
AcDbPoint
 10
-157.5
 20
0.0
 30
0.0
  0
POINT
  5
204B
330
3419
100
AcDbEntity
  8
DEFPOINTS
 62
     0
100
AcDbPoint
 10
157.5
 20
0.0
 30
0.0
  0
POINT
  5
204C
330
3419
100
AcDbEntity
  8
DEFPOINTS
 62
     0
100
AcDbPoint
 10
157.5
 20
225.5794621189598
 30
0.0
  0
ENDBLK
  5
2003
330
3419
100
AcDbEntity
  8
0
100
AcDbBlockEnd
  0
BLOCK
  5
341C
330
341B
100
AcDbEntity
  8
0
100
AcDbBlockBegin
  2
*U14
 70
     1
 10
0.0
 20
0.0
 30
0.0
  3
*U14
  1

  0
TEXT
  5
21B2
330
341B
100
AcDbEntity
  8
SIZE
 62
     0
100
AcDbText
 10
-68.57142857142857
 20
235.5794621189598
 30
0.0
 40
64.0
  1
315
 41
0.9
100
AcDbText
  0
ENDBLK
  5
21B4
330
341B
100
AcDbEntity
  8
0
100
AcDbBlockEnd
  0
BLOCK
  5
341E
330
341D
100
AcDbEntity
  8
0
100
AcDbBlockBegin
  2
*D15
 70
     1
 10
0.0
 20
0.0
 30
0.0
  3
*D15
  1

  0
LINE
  5
204D
330
341D
100
AcDbEntity
  8
SIZE
 62
     0
100
AcDbLine
 10
-177.5
 20
0.0000000000000057
 30
0.0
 11
-219.7694545525301
 21
0.0000000000000176
 31
0.0
  0
LINE
  5
204E
330
341D
100
AcDbEntity
  8
SIZE
 62
     0
100
AcDbLine
 10
-177.5
 20
-7.999999999999993
 30
0.0
 11
-219.7694545525301
 21
-7.999999999999982
 31
0.0
  0
LINE
  5
204F
330
341D
100
AcDbEntity
  8
SIZE
 62
     0
100
AcDbLine
 10
-199.76945455253
 20
12.00000000000001
 30
0.0
 11
-199.76945455253
 21
24.00000000000001
 31
0.0
  0
LINE
  5
2050
330
341D
100
AcDbEntity
  8
SIZE
 62
     0
100
AcDbLine
 10
-199.76945455253
 20
-19.99999999999999
 30
0.0
 11
-199.7694545525301
 21
-90.4
 31
0.0
  0
LINE
  5
2051
330
341D
100
AcDbEntity
  8
SIZE
 62
     0
100
AcDbLine
 10
-199.76945455253
 20
0.000000000000012
 30
0.0
 11
-199.76945455253
 21
-7.999999999999985
 31
0.0
  0
INSERT
  5
2052
330
341D
100
AcDbEntity
  8
SIZE
 62
     0
100
AcDbBlockReference
  2
_DOTBLANK
 10
-199.76945455253
 20
0.000000000000012
 30
0.0
 41
12.0
 42
12.0
 43
12.0
 50
270.0
  0
INSERT
  5
2053
330
341D
100
AcDbEntity
  8
SIZE
 62
     0
100
AcDbBlockReference
  2
_DOTBLANK
 10
-199.76945455253
 20
-7.999999999999985
 30
0.0
 41
12.0
 42
12.0
 43
12.0
 50
90.0
  0
INSERT
  5
2054
330
341D
100
AcDbEntity
  8
0
100
AcDbBlockReference
  2
*U16
 10
0.0
 20
0.0
 30
0.0
  0
POINT
  5
2055
330
341D
100
AcDbEntity
  8
DEFPOINTS
 62
     0
100
AcDbPoint
 10
-157.5
 20
0.0
 30
0.0
  0
POINT
  5
2056
330
341D
100
AcDbEntity
  8
DEFPOINTS
 62
     0
100
AcDbPoint
 10
-157.5
 20
-8.0
 30
0.0
  0
POINT
  5
2057
330
341D
100
AcDbEntity
  8
DEFPOINTS
 62
     0
100
AcDbPoint
 10
-199.76945455253
 20
-7.999999999999985
 30
0.0
  0
ENDBLK
  5
200F
330
341D
100
AcDbEntity
  8
0
100
AcDbBlockEnd
  0
BLOCK
  5
3420
330
341F
100
AcDbEntity
  8
0
100
AcDbBlockBegin
  2
*U16
 70
     1
 10
0.0
 20
0.0
 30
0.0
  3
*U16
  1

  0
TEXT
  5
21B6
330
341F
100
AcDbEntity
  8
SIZE
 62
     0
100
AcDbText
 10
-209.7694545525301
 20
-80.4
 30
0.0
 40
64.0
  1
8
 50
90.0
 41
0.9
100
AcDbText
  0
ENDBLK
  5
21B8
330
341F
100
AcDbEntity
  8
0
100
AcDbBlockEnd
  0
BLOCK
  5
3422
330
3421
100
AcDbEntity
  8
0
100
AcDbBlockBegin
  2
*D17
 70
     1
 10
0.0
 20
0.0
 30
0.0
  3
*D17
  1

  0
LINE
  5
2058
330
3421
100
AcDbEntity
  8
SIZE
 62
     0
100
AcDbLine
 10
143.7000000000007
 20
-430.0
 30
0.0
 11
304.626441221626
 21
-430.0
 31
0.0
  0
LINE
  5
2059
330
3421
100
AcDbEntity
  8
SIZE
 62
     0
100
AcDbLine
 10
143.1000000000022
 20
-441.0000000000001
 30
0.0
 11
304.626441221626
 21
-441.0000000000001
 31
0.0
  0
LINE
  5
205A
330
3421
100
AcDbEntity
  8
SIZE
 62
     0
100
AcDbLine
 10
284.626441221626
 20
-418.0
 30
0.0
 11
284.626441221626
 21
-406.0
 31
0.0
  0
LINE
  5
205B
330
3421
100
AcDbEntity
  8
SIZE
 62
     0
100
AcDbLine
 10
284.626441221626
 20
-453.0
 30
0.0
 11
284.626441221626
 21
-542.6000000000001
 31
0.0
  0
LINE
  5
205C
330
3421
100
AcDbEntity
  8
SIZE
 62
     0
100
AcDbLine
 10
284.626441221626
 20
-430.0
 30
0.0
 11
284.626441221626
 21
-441.0000000000001
 31
0.0
  0
INSERT
  5
205D
330
3421
100
AcDbEntity
  8
SIZE
 62
     0
100
AcDbBlockReference
  2
_DOTBLANK
 10
284.626441221626
 20
-430.0
 30
0.0
 41
12.0
 42
12.0
 43
12.0
 50
270.0
  0
INSERT
  5
205E
330
3421
100
AcDbEntity
  8
SIZE
 62
     0
100
AcDbBlockReference
  2
_DOTBLANK
 10
284.626441221626
 20
-441.0000000000001
 30
0.0
 41
12.0
 42
12.0
 43
12.0
 50
90.0
  0
INSERT
  5
205F
330
3421
100
AcDbEntity
  8
0
100
AcDbBlockReference
  2
*U18
 10
0.0
 20
0.0
 30
0.0
  0
POINT
  5
2060
330
3421
100
AcDbEntity
  8
DEFPOINTS
 62
     0
100
AcDbPoint
 10
123.7000000000007
 20
-430.0
 30
0.0
  0
POINT
  5
2061
330
3421
100
AcDbEntity
  8
DEFPOINTS
 62
     0
100
AcDbPoint
 10
123.1000000000022
 20
-441.0
 30
0.0
  0
POINT
  5
2062
330
3421
100
AcDbEntity
  8
DEFPOINTS
 62
     0
100
AcDbPoint
 10
284.626441221626
 20
-441.0000000000001
 30
0.0
  0
ENDBLK
  5
201D
330
3421
100
AcDbEntity
  8
0
100
AcDbBlockEnd
  0
BLOCK
  5
3424
330
3423
100
AcDbEntity
  8
0
100
AcDbBlockBegin
  2
*U18
 70
     1
 10
0.0
 20
0.0
 30
0.0
  3
*U18
  1

  0
TEXT
  5
21BA
330
3423
100
AcDbEntity
  8
SIZE
 62
     0
100
AcDbText
 10
274.6264412216261
 20
-532.6
 30
0.0
 40
64.0
  1
11
 50
90.0
 41
0.9
100
AcDbText
  0
ENDBLK
  5
21BC
330
3423
100
AcDbEntity
  8
0
100
AcDbBlockEnd
  0
BLOCK
  5
3426
330
3425
100
AcDbEntity
  8
0
100
AcDbBlockBegin
  2
*U19
 70
     1
 10
0.0
 20
0.0
 30
0.0
  3
*U19
  1

  0
INSERT
  5
2199
330
3425
100
AcDbEntity
  8
NOTE
100
AcDbBlockReference
  2
_OPEN30
 10
-140.0
 20
0.0
 30
0.0
 41
12.0
 42
12.0
 43
12.0
 50
312.6090116116894
  0
POLYLINE
  5
219A
330
3425
100
AcDbEntity
  8
NOTE
100
AcDb2dPolyline
 66
     1
 10
0.0
 20
0.0
 30
0.0
  0
VERTEX
  5
219B
330
219A
100
AcDbEntity
  8
NOTE
100
AcDbVertex
100
AcDb2dVertex
 10
-148.1239008361894
 20
8.831887408915472
 30
0.0
  0
VERTEX
  5
219C
330
219A
100
AcDbEntity
  8
NOTE
100
AcDbVertex
100
AcDb2dVertex
 10
-227.8693999922543
 20
95.5270950580134
 30
0.0
  0
VERTEX
  5
219D
330
219A
100
AcDbEntity
  8
NOTE
100
AcDbVertex
100
AcDb2dVertex
 10
-776.4522571351115
 20
95.5270950580134
 30
0.0
  0
SEQEND
  5
219E
330
219A
100
AcDbEntity
  8
NOTE
  0
ENDBLK
  5
21A0
330
3425
100
AcDbEntity
  8
0
100
AcDbBlockEnd
  0
BLOCK
  5
3428
330
3427
100
AcDbEntity
  8
0
100
AcDbBlockBegin
  2
*U20
 70
     1
 10
0.0
 20
0.0
 30
0.0
  3
*U20
  1

  0
TEXT
  5
21A2
330
3427
100
AcDbEntity
  8
NOTE
100
AcDbText
 10
-773.7093999922541
 20
113.5270950580134
 30
0.0
 40
64.0
  1
4×φ10取付穴
 41
0.9
100
AcDbText
  0
ENDBLK
  5
21A4
330
3427
100
AcDbEntity
  8
0
100
AcDbBlockEnd
  0
BLOCK
  5
342A
330
3429
100
AcDbEntity
  8
0
100
AcDbBlockBegin
  2
*X21
 70
     1
 10
0.0
 20
0.0
 30
0.0
  3
*X21
  1

  0
LINE
  5
258E
330
3429
100
AcDbEntity
  8
0
 62
     0
100
AcDbLine
 10
-111.3000000000047
 20
-412.8030970261443
 30
0.0
 11
-106.6695316305049
 21
-415.0080808012017
 31
0.0
  0
LINE
  5
258F
330
3429
100
AcDbEntity
  8
0
 62
     0
100
AcDbLine
 10
-111.3000000000065
 20
-402.8031452820105
 30
0.0
 11
-85.66962189351579
 21
-415.0080808012035
 31
0.0
  0
LINE
  5
2590
330
3429
100
AcDbEntity
  8
0
 62
     0
100
AcDbLine
 10
-111.3000000000047
 20
-392.8031935378767
 30
0.0
 11
-64.66971215652304
 21
-415.0080808012035
 31
0.0
  0
LINE
  5
2591
330
3429
100
AcDbEntity
  8
0
 62
     0
100
AcDbLine
 10
-111.3000000000065
 20
-382.8032417937412
 30
0.0
 11
-43.66980241953569
 21
-415.0080808012017
 31
0.0
  0
LINE
  5
2592
330
3429
100
AcDbEntity
  8
0
 62
     0
100
AcDbLine
 10
-111.3000000000047
 20
-372.8032900496073
 30
0.0
 11
-22.66989268254475
 21
-415.0080808012017
 31
0.0
  0
LINE
  5
2593
330
3429
100
AcDbEntity
  8
0
 62
     0
100
AcDbLine
 10
-111.3000000000065
 20
-362.8033383054717
 30
0.0
 11
-1.669982945553782
 21
-415.0080808012017
 31
0.0
  0
LINE
  5
2594
330
3429
100
AcDbEntity
  8
0
 62
     0
100
AcDbLine
 10
-111.3000000000065
 20
-352.8033865613379
 30
0.0
 11
19.32992679143898
 21
-415.0080808012035
 31
0.0
  0
LINE
  5
2595
330
3429
100
AcDbEntity
  8
0
 62
     0
100
AcDbLine
 10
-111.3000000000065
 20
-342.8034348172041
 30
0.0
 11
40.32983652842449
 21
-415.0080808012017
 31
0.0
  0
LINE
  5
2596
330
3429
100
AcDbEntity
  8
0
 62
     0
100
AcDbLine
 10
-104.5000000000072
 20
-336.0415766035529
 30
0.0
 11
-92.42122712724812
 21
-341.7933701764177
 31
0.0
  0
LINE
  5
2597
330
3429
100
AcDbEntity
  8
0
 62
     0
100
AcDbLine
 10
-92.42122712724812
 20
-341.7933701764177
 30
0.0
 11
61.32974626541908
 21
-415.0080808012017
 31
0.0
  0
LINE
  5
2598
330
3429
100
AcDbEntity
  8
0
 62
     0
100
AcDbLine
 10
-111.3000000000065
 20
-332.8034830730694
 30
0.0
 11
-104.5000000000072
 21
-336.0415766035529
 31
0.0
  0
LINE
  5
2599
330
3429
100
AcDbEntity
  8
0
 62
     0
100
AcDbLine
 10
-104.5000000000054
 20
-326.0416248594192
 30
0.0
 11
-71.42131739025717
 21
-341.7933701764177
 31
0.0
  0
LINE
  5
259A
330
3429
100
AcDbEntity
  8
0
 62
     0
100
AcDbLine
 10
-71.42131739025717
 20
-341.7933701764177
 30
0.0
 11
82.3296560024082
 21
-415.0080808012017
 31
0.0
  0
LINE
  5
259B
330
3429
100
AcDbEntity
  8
0
 62
     0
100
AcDbLine
 10
-111.3000000000047
 20
-322.8035313289347
 30
0.0
 11
-104.5000000000054
 21
-326.0416248594192
 31
0.0
  0
LINE
  5
259C
330
3429
100
AcDbEntity
  8
0
 62
     0
100
AcDbLine
 10
-104.500000000009
 20
-316.0416731152836
 30
0.0
 11
-50.42140765326802
 21
-341.7933701764177
 31
0.0
  0
LINE
  5
259D
330
3429
100
AcDbEntity
  8
0
 62
     0
100
AcDbLine
 10
-50.42140765326802
 20
-341.7933701764177
 30
0.0
 11
103.3295657393992
 21
-415.0080808012007
 31
0.0
  0
LINE
  5
259E
330
3429
100
AcDbEntity
  8
0
 62
     0
100
AcDbLine
 10
-111.3000000000083
 20
-312.8035795848
 30
0.0
 11
-104.500000000009
 21
-316.0416731152836
 31
0.0
  0
LINE
  5
259F
330
3429
100
AcDbEntity
  8
0
 62
     0
100
AcDbLine
 10
-104.5000000000072
 20
-306.041721371148
 30
0.0
 11
-29.42149791627344
 21
-341.7933701764168
 31
0.0
  0
LINE
  5
25A0
330
3429
100
AcDbEntity
  8
0
 62
     0
100
AcDbLine
 10
-29.42149791627344
 20
-341.7933701764168
 30
0.0
 11
111.2999999999902
 21
-408.8035719415318
 31
0.0
  0
LINE
  5
25A1
330
3429
100
AcDbEntity
  8
0
 62
     0
100
AcDbLine
 10
-111.3000000000029
 20
-302.8036278406653
 30
0.0
 11
-104.5000000000072
 21
-306.041721371148
 31
0.0
  0
LINE
  5
25A2
330
3429
100
AcDbEntity
  8
0
 62
     0
100
AcDbLine
 10
-104.5000000000072
 20
-296.041769627016
 30
0.0
 11
-8.421588179284299
 21
-341.7933701764186
 31
0.0
  0
LINE
  5
25A3
330
3429
100
AcDbEntity
  8
0
 62
     0
100
AcDbLine
 10
-8.421588179284299
 20
-341.7933701764186
 30
0.0
 11
111.2999999999902
 21
-398.8036201974001
 31
0.0
  0
LINE
  5
25A4
330
3429
100
AcDbEntity
  8
0
 62
     0
100
AcDbLine
 10
-111.3000000000065
 20
-292.8036760965322
 30
0.0
 11
-104.5000000000072
 21
-296.041769627016
 31
0.0
  0
LINE
  5
25A5
330
3429
100
AcDbEntity
  8
0
 62
     0
100
AcDbLine
 10
-104.500000000009
 20
-286.0418178828804
 30
0.0
 11
12.57832155770848
 21
-341.7933701764186
 31
0.0
  0
LINE
  5
25A6
330
3429
100
AcDbEntity
  8
0
 62
     0
100
AcDbLine
 10
12.57832155770848
 20
-341.7933701764186
 30
0.0
 11
111.299999999992
 21
-388.8036684532663
 31
0.0
  0
LINE
  5
25A7
330
3429
100
AcDbEntity
  8
0
 62
     0
100
AcDbLine
 10
-111.3000000000047
 20
-282.8037243523986
 30
0.0
 11
-104.500000000009
 21
-286.0418178828804
 31
0.0
  0
LINE
  5
25A8
330
3429
100
AcDbEntity
  8
0
 62
     0
100
AcDbLine
 10
-104.5000000000054
 20
-276.0418661387466
 30
0.0
 11
33.57823129469944
 21
-341.7933701764186
 31
0.0
  0
LINE
  5
25A9
330
3429
100
AcDbEntity
  8
0
 62
     0
100
AcDbLine
 10
33.57823129469944
 20
-341.7933701764186
 30
0.0
 11
111.299999999992
 21
-378.8037167091307
 31
0.0
  0
LINE
  5
25AA
330
3429
100
AcDbEntity
  8
0
 62
     0
100
AcDbLine
 10
-111.3000000000047
 20
-272.803772608263
 30
0.0
 11
-104.5000000000054
 21
-276.0418661387466
 31
0.0
  0
LINE
  5
25AB
330
3429
100
AcDbEntity
  8
0
 62
     0
100
AcDbLine
 10
-104.500000000009
 20
-266.0419143946119
 30
0.0
 11
54.57814103168676
 21
-341.7933701764168
 31
0.0
  0
LINE
  5
25AC
330
3429
100
AcDbEntity
  8
0
 62
     0
100
AcDbLine
 10
54.57814103168676
 20
-341.7933701764168
 30
0.0
 11
111.299999999992
 21
-368.8037649649968
 31
0.0
  0
LINE
  5
25AD
330
3429
100
AcDbEntity
  8
0
 62
     0
100
AcDbLine
 10
-111.3000000000083
 20
-262.8038208641274
 30
0.0
 11
-104.500000000009
 21
-266.0419143946119
 31
0.0
  0
LINE
  5
25AE
330
3429
100
AcDbEntity
  8
0
 62
     0
100
AcDbLine
 10
-104.5000000000072
 20
-256.0419626504772
 30
0.0
 11
75.57805076867406
 21
-341.793370176415
 31
0.0
  0
LINE
  5
25AF
330
3429
100
AcDbEntity
  8
0
 62
     0
100
AcDbLine
 10
75.5780507686777
 20
-341.7933701764168
 30
0.0
 11
111.2999999999938
 21
-358.8038132208631
 31
0.0
  0
LINE
  5
25B0
330
3429
100
AcDbEntity
  8
0
 62
     0
100
AcDbLine
 10
-111.3000000000047
 20
-252.8038691199936
 30
0.0
 11
-104.500000000009
 21
-256.0419626504763
 31
0.0
  0
LINE
  5
25B1
330
3429
100
AcDbEntity
  8
0
 62
     0
100
AcDbLine
 10
-104.5000000000072
 20
-246.0420109063443
 30
0.0
 11
96.57796050566687
 21
-341.7933701764168
 31
0.0
  0
LINE
  5
25B2
330
3429
100
AcDbEntity
  8
0
 62
     0
100
AcDbLine
 10
96.57796050566869
 20
-341.7933701764186
 30
0.0
 11
111.2999999999938
 21
-348.8038614767293
 31
0.0
  0
LINE
  5
25B3
330
3429
100
AcDbEntity
  8
0
 62
     0
100
AcDbLine
 10
-111.3000000000065
 20
-242.8039173758598
 30
0.0
 11
-104.5000000000072
 21
-246.0420109063443
 31
0.0
  0
LINE
  5
25B4
330
3429
100
AcDbEntity
  8
0
 62
     0
100
AcDbLine
 10
-104.5000000000072
 20
-236.0420591622096
 30
0.0
 11
111.2999999999883
 21
-338.8039097325927
 31
0.0
  0
LINE
  5
25B5
330
3429
100
AcDbEntity
  8
0
 62
     0
100
AcDbLine
 10
-111.3000000000065
 20
-232.803965631726
 30
0.0
 11
-104.5000000000127
 21
-236.0420591622069
 31
0.0
  0
LINE
  5
25B6
330
3429
100
AcDbEntity
  8
0
 62
     0
100
AcDbLine
 10
-104.5000000000072
 20
-226.0421074180749
 30
0.0
 11
111.2999999999865
 21
-328.8039579884571
 31
0.0
  0
LINE
  5
25B7
330
3429
100
AcDbEntity
  8
0
 62
     0
100
AcDbLine
 10
-111.3000000000065
 20
-222.8040138875904
 30
0.0
 11
-104.5000000000109
 21
-226.0421074180731
 31
0.0
  0
LINE
  5
25B8
330
3429
100
AcDbEntity
  8
0
 62
     0
100
AcDbLine
 10
-104.500000000009
 20
-216.0421556739393
 30
0.0
 11
111.2999999999865
 21
-318.8040062443215
 31
0.0
  0
LINE
  5
25B9
330
3429
100
AcDbEntity
  8
0
 62
     0
100
AcDbLine
 10
-111.3000000000047
 20
-212.8040621434566
 30
0.0
 11
-104.5000000000127
 21
-216.0421556739374
 31
0.0
  0
LINE
  5
25BA
330
3429
100
AcDbEntity
  8
0
 62
     0
100
AcDbLine
 10
-104.500000000009
 20
-206.0422039298055
 30
0.0
 11
111.2999999999865
 21
-308.8040545001877
 31
0.0
  0
LINE
  5
25BB
330
3429
100
AcDbEntity
  8
0
 62
     0
100
AcDbLine
 10
-111.3000000000065
 20
-202.804110399321
 30
0.0
 11
-104.5000000000109
 21
-206.0422039298037
 31
0.0
  0
LINE
  5
25BC
330
3429
100
AcDbEntity
  8
0
 62
     0
100
AcDbLine
 10
-104.500000000009
 20
-196.0422521856717
 30
0.0
 11
111.2999999999847
 21
-298.8041027560539
 31
0.0
  0
LINE
  5
25BD
330
3429
100
AcDbEntity
  8
0
 62
     0
100
AcDbLine
 10
-111.3000000000047
 20
-192.804158655189
 30
0.0
 11
-104.5000000000127
 21
-196.0422521856698
 31
0.0
  0
LINE
  5
25BE
330
3429
100
AcDbEntity
  8
0
 62
     0
100
AcDbLine
 10
-104.5000000000072
 20
-186.0423004415378
 30
0.0
 11
111.2999999999883
 21
-288.8041510119201
 31
0.0
  0
LINE
  5
25BF
330
3429
100
AcDbEntity
  8
0
 62
     0
100
AcDbLine
 10
-111.3000000000065
 20
-182.8042069110533
 30
0.0
 11
-104.5000000000127
 21
-186.0423004415343
 31
0.0
  0
LINE
  5
25C0
330
3429
100
AcDbEntity
  8
0
 62
     0
100
AcDbLine
 10
-104.500000000009
 20
-176.0423486974023
 30
0.0
 11
111.2999999999847
 21
-278.8041992677845
 31
0.0
  0
LINE
  5
25C1
330
3429
100
AcDbEntity
  8
0
 62
     0
100
AcDbLine
 10
-111.3000000000083
 20
-172.8042551669177
 30
0.0
 11
-104.5000000000127
 21
-176.0423486974005
 31
0.0
  0
LINE
  5
25C2
330
3429
100
AcDbEntity
  8
0
 62
     0
100
AcDbLine
 10
-104.5000000000054
 20
-166.0423969532685
 30
0.0
 11
111.2999999999883
 21
-268.8042475236507
 31
0.0
  0
LINE
  5
25C3
330
3429
100
AcDbEntity
  8
0
 62
     0
100
AcDbLine
 10
-111.3000000000047
 20
-162.8043034227839
 30
0.0
 11
-104.5000000000127
 21
-166.0423969532649
 31
0.0
  0
LINE
  5
25C4
330
3429
100
AcDbEntity
  8
0
 62
     0
100
AcDbLine
 10
-104.5000000000072
 20
-156.0424452091329
 30
0.0
 11
111.2999999999865
 21
-258.8042957795151
 31
0.0
  0
LINE
  5
25C5
330
3429
100
AcDbEntity
  8
0
 62
     0
100
AcDbLine
 10
-111.3000000000065
 20
-152.8043516786483
 30
0.0
 11
-104.5000000000109
 21
-156.0424452091311
 31
0.0
  0
LINE
  5
25C6
330
3429
100
AcDbEntity
  8
0
 62
     0
100
AcDbLine
 10
-100.4031567455549
 20
-147.9933701764184
 30
0.0
 11
111.2999999999865
 21
-248.8043440353813
 31
0.0
  0
LINE
  5
25C7
330
3429
100
AcDbEntity
  8
0
 62
     0
100
AcDbLine
 10
-79.40324700856582
 20
-147.9933701764184
 30
0.0
 11
111.299999999992
 21
-238.8043922912493
 31
0.0
  0
LINE
  5
25C8
330
3429
100
AcDbEntity
  8
0
 62
     0
100
AcDbLine
 10
-58.40333727157485
 20
-147.9933701764184
 30
0.0
 11
111.2999999999883
 21
-228.8044405471137
 31
0.0
  0
LINE
  5
25C9
330
3429
100
AcDbEntity
  8
0
 62
     0
100
AcDbLine
 10
-37.4034275345839
 20
-147.9933701764184
 30
0.0
 11
111.2999999999902
 21
-218.8044888029799
 31
0.0
  0
LINE
  5
25CA
330
3429
100
AcDbEntity
  8
0
 62
     0
100
AcDbLine
 10
-16.40351779759112
 20
-147.9933701764184
 30
0.0
 11
111.2999999999902
 21
-208.8045370588443
 31
0.0
  0
LINE
  5
25CB
330
3429
100
AcDbEntity
  8
0
 62
     0
100
AcDbLine
 10
4.596391939398014
 20
-147.9933701764184
 30
0.0
 11
111.2999999999902
 21
-198.8045853147104
 31
0.0
  0
LINE
  5
25CC
330
3429
100
AcDbEntity
  8
0
 62
     0
100
AcDbLine
 10
25.59630167638898
 20
-147.9933701764194
 30
0.0
 11
111.2999999999902
 21
-188.8046335705767
 31
0.0
  0
LINE
  5
25CD
330
3429
100
AcDbEntity
  8
0
 62
     0
100
AcDbLine
 10
46.59621141338173
 20
-147.9933701764194
 30
0.0
 11
111.299999999992
 21
-178.8046818264429
 31
0.0
  0
LINE
  5
25CE
330
3429
100
AcDbEntity
  8
0
 62
     0
100
AcDbLine
 10
67.59612115037089
 20
-147.9933701764194
 30
0.0
 11
111.2999999999883
 21
-168.8047300823073
 31
0.0
  0
LINE
  5
25CF
330
3429
100
AcDbEntity
  8
0
 62
     0
100
AcDbLine
 10
88.59603088736369
 20
-147.9933701764194
 30
0.0
 11
111.299999999992
 21
-158.8047783381734
 31
0.0
  0
LINE
  5
25D0
330
3429
100
AcDbEntity
  8
0
 62
     0
100
AcDbLine
 10
109.5959406243546
 20
-147.9933701764194
 30
0.0
 11
111.2999999999902
 21
-148.8048265940379
 31
0.0
  0
ENDBLK
  5
25D1
330
3429
100
AcDbEntity
  8
0
100
AcDbBlockEnd
  0
BLOCK
  5
342C
330
342B
100
AcDbEntity
  8
0
100
AcDbBlockBegin
  2
*X22
 70
     1
 10
0.0
 20
0.0
 30
0.0
  3
*X22
  1

  0
LINE
  5
25D4
330
342B
100
AcDbEntity
  8
0
 62
     0
100
AcDbLine
 10
106.3545697506306
 20
-415.0080808011996
 30
0.0
 11
111.2999999999992
 21
-412.6531152576799
 31
0.0
  0
LINE
  5
25D5
330
342B
100
AcDbEntity
  8
0
 62
     0
100
AcDbLine
 10
85.35466001363966
 20
-415.0080808012007
 30
0.0
 11
111.3000000000029
 21
-402.6531635135452
 31
0.0
  0
LINE
  5
25D6
330
342B
100
AcDbEntity
  8
0
 62
     0
100
AcDbLine
 10
64.3547502766487
 20
-415.0080808012007
 30
0.0
 11
111.2999999999956
 21
-392.6532117694114
 31
0.0
  0
LINE
  5
25D7
330
342B
100
AcDbEntity
  8
0
 62
     0
100
AcDbLine
 10
43.35484053965774
 20
-415.0080808012007
 30
0.0
 11
111.2999999999992
 21
-382.6532600252758
 31
0.0
  0
LINE
  5
25D8
330
342B
100
AcDbEntity
  8
0
 62
     0
100
AcDbLine
 10
22.35493080266316
 20
-415.0080808012017
 30
0.0
 11
111.2999999999956
 21
-372.6533082811429
 31
0.0
  0
LINE
  5
25D9
330
342B
100
AcDbEntity
  8
0
 62
     0
100
AcDbLine
 10
1.355021065675827
 20
-415.0080808011996
 30
0.0
 11
111.2999999999992
 21
-362.6533565370072
 31
0.0
  0
LINE
  5
25DA
330
342B
100
AcDbEntity
  8
0
 62
     0
100
AcDbLine
 10
-19.64488867131149
 20
-415.0080808012007
 30
0.0
 11
111.2999999999992
 21
-352.6534047928744
 31
0.0
  0
LINE
  5
25DB
330
342B
100
AcDbEntity
  8
0
 62
     0
100
AcDbLine
 10
-40.64479840830609
 20
-415.0080808012007
 30
0.0
 11
111.2999999999956
 21
-342.6534530487388
 31
0.0
  0
LINE
  5
25DC
330
342B
100
AcDbEntity
  8
0
 62
     0
100
AcDbLine
 10
92.10626524737014
 20
-341.7933701764159
 30
0.0
 11
111.2999999999956
 21
-332.6535013046051
 31
0.0
  0
LINE
  5
25DD
330
342B
100
AcDbEntity
  8
0
 62
     0
100
AcDbLine
 10
-61.64470814529703
 20
-415.0080808012007
 30
0.0
 11
92.10626524737014
 21
-341.7933701764159
 31
0.0
  0
LINE
  5
25DE
330
342B
100
AcDbEntity
  8
0
 62
     0
100
AcDbLine
 10
71.10635551037922
 20
-341.7933701764168
 30
0.0
 11
111.2999999999992
 21
-322.6535495604703
 31
0.0
  0
LINE
  5
25DF
330
342B
100
AcDbEntity
  8
0
 62
     0
100
AcDbLine
 10
-82.64461788228436
 20
-415.0080808012017
 30
0.0
 11
71.10635551037922
 21
-341.7933701764168
 31
0.0
  0
LINE
  5
25E0
330
342B
100
AcDbEntity
  8
0
 62
     0
100
AcDbLine
 10
50.10644577338462
 20
-341.7933701764168
 30
0.0
 11
111.2999999999992
 21
-312.6535978163347
 31
0.0
  0
LINE
  5
25E1
330
342B
100
AcDbEntity
  8
0
 62
     0
100
AcDbLine
 10
-103.6445276192752
 20
-415.0080808011996
 30
0.0
 11
50.10644577338462
 21
-341.7933701764168
 31
0.0
  0
LINE
  5
25E2
330
342B
100
AcDbEntity
  8
0
 62
     0
100
AcDbLine
 10
29.1065360363973
 20
-341.7933701764168
 30
0.0
 11
111.2999999999992
 21
-302.6536460722009
 31
0.0
  0
LINE
  5
25E3
330
342B
100
AcDbEntity
  8
0
 62
     0
100
AcDbLine
 10
-111.2999999999992
 20
-408.6535901730685
 30
0.0
 11
29.1065360363973
 21
-341.7933701764168
 31
0.0
  0
LINE
  5
25E4
330
342B
100
AcDbEntity
  8
0
 62
     0
100
AcDbLine
 10
8.106626299406341
 20
-341.7933701764177
 30
0.0
 11
111.2999999999992
 21
-292.6536943280662
 31
0.0
  0
LINE
  5
25E5
330
342B
100
AcDbEntity
  8
0
 62
     0
100
AcDbLine
 10
-111.2999999999956
 20
-398.6536384289339
 30
0.0
 11
8.106626299406341
 21
-341.7933701764177
 31
0.0
  0
LINE
  5
25E6
330
342B
100
AcDbEntity
  8
0
 62
     0
100
AcDbLine
 10
-12.89328343758461
 20
-341.7933701764159
 30
0.0
 11
111.2999999999956
 21
-282.6537425839324
 31
0.0
  0
LINE
  5
25E7
330
342B
100
AcDbEntity
  8
0
 62
     0
100
AcDbLine
 10
-111.2999999999992
 20
-388.6536866848
 30
0.0
 11
-12.89328343758461
 21
-341.7933701764159
 31
0.0
  0
LINE
  5
25E8
330
342B
100
AcDbEntity
  8
0
 62
     0
100
AcDbLine
 10
-33.89319317457193
 20
-341.7933701764168
 30
0.0
 11
111.2999999999992
 21
-272.6537908397977
 31
0.0
  0
LINE
  5
25E9
330
342B
100
AcDbEntity
  8
0
 62
     0
100
AcDbLine
 10
-111.2999999999992
 20
-378.6537349406653
 30
0.0
 11
-33.89319317457193
 21
-341.7933701764168
 31
0.0
  0
LINE
  5
25EA
330
342B
100
AcDbEntity
  8
0
 62
     0
100
AcDbLine
 10
-54.89310291156654
 20
-341.7933701764168
 30
0.0
 11
111.2999999999956
 21
-262.6538390956639
 31
0.0
  0
LINE
  5
25EB
330
342B
100
AcDbEntity
  8
0
 62
     0
100
AcDbLine
 10
-111.3000000000029
 20
-368.6537831965316
 30
0.0
 11
-54.89310291156654
 21
-341.7933701764168
 31
0.0
  0
LINE
  5
25EC
330
342B
100
AcDbEntity
  8
0
 62
     0
100
AcDbLine
 10
-75.89301264855386
 20
-341.793370176415
 30
0.0
 11
111.2999999999992
 21
-252.6538873515283
 31
0.0
  0
LINE
  5
25ED
330
342B
100
AcDbEntity
  8
0
 62
     0
100
AcDbLine
 10
-111.2999999999992
 20
-358.6538314523959
 30
0.0
 11
-75.89301264855747
 21
-341.7933701764168
 31
0.0
  0
LINE
  5
25EE
330
342B
100
AcDbEntity
  8
0
 62
     0
100
AcDbLine
 10
-96.89292238554479
 20
-341.7933701764159
 30
0.0
 11
111.2999999999992
 21
-242.6539356073936
 31
0.0
  0
LINE
  5
25EF
330
342B
100
AcDbEntity
  8
0
 62
     0
100
AcDbLine
 10
-111.2999999999956
 20
-348.6538797082612
 30
0.0
 11
-96.89292238554845
 21
-341.7933701764177
 31
0.0
  0
LINE
  5
25F0
330
342B
100
AcDbEntity
  8
0
 62
     0
100
AcDbLine
 10
-104.4999999999963
 20
-335.4158344336429
 30
0.0
 11
111.2999999999992
 21
-232.6539838632598
 31
0.0
  0
LINE
  5
25F1
330
342B
100
AcDbEntity
  8
0
 62
     0
100
AcDbLine
 10
-111.2999999999956
 20
-338.6539279641274
 30
0.0
 11
-104.4999999999963
 21
-335.4158344336429
 31
0.0
  0
LINE
  5
25F2
330
342B
100
AcDbEntity
  8
0
 62
     0
100
AcDbLine
 10
-104.5000000000036
 20
-325.4158826895089
 30
0.0
 11
111.2999999999992
 21
-222.6540321191242
 31
0.0
  0
LINE
  5
25F3
330
342B
100
AcDbEntity
  8
0
 62
     0
100
AcDbLine
 10
-111.2999999999992
 20
-328.6539762199918
 30
0.0
 11
-104.5000000000036
 21
-325.4158826895089
 31
0.0
  0
LINE
  5
25F4
330
342B
100
AcDbEntity
  8
0
 62
     0
100
AcDbLine
 10
-104.5
 20
-315.4159309453744
 30
0.0
 11
111.2999999999992
 21
-212.6540803749913
 31
0.0
  0
LINE
  5
25F5
330
342B
100
AcDbEntity
  8
0
 62
     0
100
AcDbLine
 10
-111.2999999999992
 20
-318.6540244758589
 30
0.0
 11
-104.5
 21
-315.4159309453744
 31
0.0
  0
LINE
  5
25F6
330
342B
100
AcDbEntity
  8
0
 62
     0
100
AcDbLine
 10
-104.5
 20
-305.4159792012406
 30
0.0
 11
111.2999999999956
 21
-202.6541286308557
 31
0.0
  0
LINE
  5
25F7
330
342B
100
AcDbEntity
  8
0
 62
     0
100
AcDbLine
 10
-111.2999999999992
 20
-308.6540727317232
 30
0.0
 11
-104.5
 21
-305.4159792012406
 31
0.0
  0
LINE
  5
25F8
330
342B
100
AcDbEntity
  8
0
 62
     0
100
AcDbLine
 10
-104.5
 20
-295.4160274571077
 30
0.0
 11
111.2999999999956
 21
-192.6541768867228
 31
0.0
  0
LINE
  5
25F9
330
342B
100
AcDbEntity
  8
0
 62
     0
100
AcDbLine
 10
-111.2999999999992
 20
-298.6541209875904
 30
0.0
 11
-104.5
 21
-295.4160274571077
 31
0.0
  0
LINE
  5
25FA
330
342B
100
AcDbEntity
  8
0
 62
     0
100
AcDbLine
 10
-104.5
 20
-285.4160757129721
 30
0.0
 11
111.2999999999992
 21
-182.6542251425872
 31
0.0
  0
LINE
  5
25FB
330
342B
100
AcDbEntity
  8
0
 62
     0
100
AcDbLine
 10
-111.2999999999956
 20
-288.6541692434548
 30
0.0
 11
-104.5
 21
-285.4160757129721
 31
0.0
  0
LINE
  5
25FC
330
342B
100
AcDbEntity
  8
0
 62
     0
100
AcDbLine
 10
-104.5000000000036
 20
-275.4161239688383
 30
0.0
 11
111.2999999999956
 21
-172.6542733984534
 31
0.0
  0
LINE
  5
25FD
330
342B
100
AcDbEntity
  8
0
 62
     0
100
AcDbLine
 10
-111.3000000000029
 20
-278.654217499321
 30
0.0
 11
-104.5000000000036
 21
-275.4161239688383
 31
0.0
  0
LINE
  5
25FE
330
342B
100
AcDbEntity
  8
0
 62
     0
100
AcDbLine
 10
-104.5
 20
-265.4161722247036
 30
0.0
 11
111.2999999999992
 21
-162.6543216543186
 31
0.0
  0
LINE
  5
25FF
330
342B
100
AcDbEntity
  8
0
 62
     0
100
AcDbLine
 10
-111.2999999999992
 20
-268.6542657551863
 30
0.0
 11
-104.5
 21
-265.4161722247036
 31
0.0
  0
LINE
  5
2600
330
342B
100
AcDbEntity
  8
0
 62
     0
100
AcDbLine
 10
-104.5
 20
-255.4162204805707
 30
0.0
 11
111.2999999999992
 21
-152.6543699101839
 31
0.0
  0
LINE
  5
2601
330
342B
100
AcDbEntity
  8
0
 62
     0
100
AcDbLine
 10
-111.2999999999956
 20
-258.6543140110534
 30
0.0
 11
-104.5
 21
-255.4162204805707
 31
0.0
  0
LINE
  5
2602
330
342B
100
AcDbEntity
  8
0
 62
     0
100
AcDbLine
 10
-104.5
 20
-245.4162687364351
 30
0.0
 11
100.0881948656788
 21
-147.9933701764166
 31
0.0
  0
LINE
  5
2603
330
342B
100
AcDbEntity
  8
0
 62
     0
100
AcDbLine
 10
-111.2999999999992
 20
-248.6543622669178
 30
0.0
 11
-104.5
 21
-245.4162687364351
 31
0.0
  0
LINE
  5
2604
330
342B
100
AcDbEntity
  8
0
 62
     0
100
AcDbLine
 10
-104.5
 20
-235.4163169923013
 30
0.0
 11
79.08828512868787
 21
-147.9933701764166
 31
0.0
  0
LINE
  5
2605
330
342B
100
AcDbEntity
  8
0
 62
     0
100
AcDbLine
 10
-111.2999999999956
 20
-238.654410522784
 30
0.0
 11
-104.5000000000036
 21
-235.4163169923013
 31
0.0
  0
LINE
  5
2606
330
342B
100
AcDbEntity
  8
0
 62
     0
100
AcDbLine
 10
-104.5
 20
-225.4163652481657
 30
0.0
 11
58.0883753916969
 21
-147.9933701764166
 31
0.0
  0
LINE
  5
2607
330
342B
100
AcDbEntity
  8
0
 62
     0
100
AcDbLine
 10
-111.2999999999992
 20
-228.6544587786502
 30
0.0
 11
-104.5000000000036
 21
-225.4163652481675
 31
0.0
  0
LINE
  5
2608
330
342B
100
AcDbEntity
  8
0
 62
     0
100
AcDbLine
 10
-104.5
 20
-215.41641350403
 30
0.0
 11
37.0884656547023
 21
-147.9933701764166
 31
0.0
  0
LINE
  5
2609
330
342B
100
AcDbEntity
  8
0
 62
     0
100
AcDbLine
 10
-111.2999999999992
 20
-218.6545070345146
 30
0.0
 11
-104.5000000000072
 21
-215.4164135040319
 31
0.0
  0
LINE
  5
260A
330
342B
100
AcDbEntity
  8
0
 62
     0
100
AcDbLine
 10
-104.5
 20
-205.4164617598963
 30
0.0
 11
16.08855591771498
 21
-147.9933701764166
 31
0.0
  0
LINE
  5
260B
330
342B
100
AcDbEntity
  8
0
 62
     0
100
AcDbLine
 10
-111.2999999999992
 20
-208.6545552903808
 30
0.0
 11
-104.5000000000036
 21
-205.4164617598981
 31
0.0
  0
LINE
  5
260C
330
342B
100
AcDbEntity
  8
0
 62
     0
100
AcDbLine
 10
-104.5
 20
-195.4165100157606
 30
0.0
 11
-4.911353819279611
 21
-147.9933701764166
 31
0.0
  0
LINE
  5
260D
330
342B
100
AcDbEntity
  8
0
 62
     0
100
AcDbLine
 10
-111.2999999999992
 20
-198.6546035462452
 30
0.0
 11
-104.5000000000036
 21
-195.4165100157625
 31
0.0
  0
LINE
  5
260E
330
342B
100
AcDbEntity
  8
0
 62
     0
100
AcDbLine
 10
-104.5000000000036
 20
-185.4165582716287
 30
0.0
 11
-25.91126355627057
 21
-147.9933701764184
 31
0.0
  0
LINE
  5
260F
330
342B
100
AcDbEntity
  8
0
 62
     0
100
AcDbLine
 10
-111.2999999999992
 20
-188.6546518021132
 30
0.0
 11
-104.5000000000036
 21
-185.4165582716304
 31
0.0
  0
LINE
  5
2610
330
342B
100
AcDbEntity
  8
0
 62
     0
100
AcDbLine
 10
-104.5
 20
-175.416606527493
 30
0.0
 11
-46.91117329325789
 21
-147.9933701764184
 31
0.0
  0
LINE
  5
2611
330
342B
100
AcDbEntity
  8
0
 62
     0
100
AcDbLine
 10
-111.2999999999992
 20
-178.6547000579776
 30
0.0
 11
-104.5000000000036
 21
-175.4166065274949
 31
0.0
  0
LINE
  5
2612
330
342B
100
AcDbEntity
  8
0
 62
     0
100
AcDbLine
 10
-104.5
 20
-165.4166547833592
 30
0.0
 11
-67.91108303024884
 21
-147.9933701764184
 31
0.0
  0
LINE
  5
2613
330
342B
100
AcDbEntity
  8
0
 62
     0
100
AcDbLine
 10
-111.2999999999956
 20
-168.654748313842
 30
0.0
 11
-104.5000000000036
 21
-165.4166547833611
 31
0.0
  0
LINE
  5
2614
330
342B
100
AcDbEntity
  8
0
 62
     0
100
AcDbLine
 10
-104.5
 20
-155.4167030392255
 30
0.0
 11
-88.91099276723982
 21
-147.9933701764184
 31
0.0
  0
LINE
  5
2615
330
342B
100
AcDbEntity
  8
0
 62
     0
100
AcDbLine
 10
-111.2999999999992
 20
-158.65479656971
 30
0.0
 11
-104.5000000000036
 21
-155.4167030392273
 31
0.0
  0
LINE
  5
2616
330
342B
100
AcDbEntity
  8
0
 62
     0
100
AcDbLine
 10
-111.2999999999956
 20
-148.6548448255744
 30
0.0
 11
-109.9109025042307
 21
-147.9933701764184
 31
0.0
  0
ENDBLK
  5
2617
330
342B
100
AcDbEntity
  8
0
100
AcDbBlockEnd
  0
BLOCK
  5
342E
330
342D
100
AcDbEntity
  8
0
100
AcDbBlockBegin
  2
*U23
 70
     1
 10
0.0
 20
0.0
 30
0.0
  3
*U23
  1

  0
INSERT
  5
261A
330
342D
100
AcDbEntity
  8
NOTE
100
AcDbBlockReference
  2
_OPEN30
 10
-140.0
 20
0.0000000000004547
 30
0.0
 41
12.0
 42
12.0
 43
12.0
 50
312.6090116116894
  0
POLYLINE
  5
261B
330
342D
100
AcDbEntity
  8
NOTE
100
AcDb2dPolyline
 66
     1
 10
0.0
 20
0.0
 30
0.0
  0
VERTEX
  5
261C
330
261B
100
AcDbEntity
  8
NOTE
100
AcDbVertex
100
AcDb2dVertex
 10
-148.1239008361894
 20
8.831887408915928
 30
0.0
  0
VERTEX
  5
261D
330
261B
100
AcDbEntity
  8
NOTE
100
AcDbVertex
100
AcDb2dVertex
 10
-227.8693999922543
 20
95.52709505801384
 30
0.0
  0
VERTEX
  5
261E
330
261B
100
AcDbEntity
  8
NOTE
100
AcDbVertex
100
AcDb2dVertex
 10
-776.4522571351115
 20
95.52709505801384
 30
0.0
  0
SEQEND
  5
261F
330
261B
100
AcDbEntity
  8
NOTE
  0
ENDBLK
  5
2620
330
342D
100
AcDbEntity
  8
0
100
AcDbBlockEnd
  0
BLOCK
  5
3430
330
342F
100
AcDbEntity
  8
0
100
AcDbBlockBegin
  2
*X24
 70
     1
 10
0.0
 20
0.0
 30
0.0
  3
*X24
  1

  0
LINE
  5
2623
330
342F
100
AcDbEntity
  8
0
 62
     0
100
AcDbLine
 10
-111.3000000000047
 20
-412.8030970261443
 30
0.0
 11
-106.6695316305049
 21
-415.0080808012017
 31
0.0
  0
LINE
  5
2624
330
342F
100
AcDbEntity
  8
0
 62
     0
100
AcDbLine
 10
-111.3000000000065
 20
-402.8031452820105
 30
0.0
 11
-85.66962189351579
 21
-415.0080808012035
 31
0.0
  0
LINE
  5
2625
330
342F
100
AcDbEntity
  8
0
 62
     0
100
AcDbLine
 10
-111.3000000000047
 20
-392.8031935378767
 30
0.0
 11
-64.66971215652304
 21
-415.0080808012035
 31
0.0
  0
LINE
  5
2626
330
342F
100
AcDbEntity
  8
0
 62
     0
100
AcDbLine
 10
-111.3000000000065
 20
-382.8032417937412
 30
0.0
 11
-43.66980241953569
 21
-415.0080808012017
 31
0.0
  0
LINE
  5
2627
330
342F
100
AcDbEntity
  8
0
 62
     0
100
AcDbLine
 10
-111.3000000000047
 20
-372.8032900496073
 30
0.0
 11
-22.66989268254475
 21
-415.0080808012017
 31
0.0
  0
LINE
  5
2628
330
342F
100
AcDbEntity
  8
0
 62
     0
100
AcDbLine
 10
-111.3000000000065
 20
-362.8033383054717
 30
0.0
 11
-1.669982945553782
 21
-415.0080808012017
 31
0.0
  0
LINE
  5
2629
330
342F
100
AcDbEntity
  8
0
 62
     0
100
AcDbLine
 10
-111.3000000000065
 20
-352.8033865613379
 30
0.0
 11
19.32992679143898
 21
-415.0080808012035
 31
0.0
  0
LINE
  5
262A
330
342F
100
AcDbEntity
  8
0
 62
     0
100
AcDbLine
 10
-111.3000000000065
 20
-342.8034348172041
 30
0.0
 11
40.32983652842449
 21
-415.0080808012017
 31
0.0
  0
LINE
  5
262B
330
342F
100
AcDbEntity
  8
0
 62
     0
100
AcDbLine
 10
-104.5000000000072
 20
-336.0415766035529
 30
0.0
 11
-92.42122712724812
 21
-341.7933701764177
 31
0.0
  0
LINE
  5
262C
330
342F
100
AcDbEntity
  8
0
 62
     0
100
AcDbLine
 10
-92.42122712724812
 20
-341.7933701764177
 30
0.0
 11
61.32974626541908
 21
-415.0080808012017
 31
0.0
  0
LINE
  5
262D
330
342F
100
AcDbEntity
  8
0
 62
     0
100
AcDbLine
 10
-111.3000000000065
 20
-332.8034830730694
 30
0.0
 11
-104.5000000000072
 21
-336.0415766035529
 31
0.0
  0
LINE
  5
262E
330
342F
100
AcDbEntity
  8
0
 62
     0
100
AcDbLine
 10
-104.5000000000054
 20
-326.0416248594192
 30
0.0
 11
-71.42131739025717
 21
-341.7933701764177
 31
0.0
  0
LINE
  5
262F
330
342F
100
AcDbEntity
  8
0
 62
     0
100
AcDbLine
 10
-71.42131739025717
 20
-341.7933701764177
 30
0.0
 11
82.3296560024082
 21
-415.0080808012017
 31
0.0
  0
LINE
  5
2630
330
342F
100
AcDbEntity
  8
0
 62
     0
100
AcDbLine
 10
-111.3000000000047
 20
-322.8035313289347
 30
0.0
 11
-104.5000000000054
 21
-326.0416248594192
 31
0.0
  0
LINE
  5
2631
330
342F
100
AcDbEntity
  8
0
 62
     0
100
AcDbLine
 10
-104.500000000009
 20
-316.0416731152836
 30
0.0
 11
-50.42140765326802
 21
-341.7933701764177
 31
0.0
  0
LINE
  5
2632
330
342F
100
AcDbEntity
  8
0
 62
     0
100
AcDbLine
 10
-50.42140765326802
 20
-341.7933701764177
 30
0.0
 11
103.3295657393992
 21
-415.0080808012007
 31
0.0
  0
LINE
  5
2633
330
342F
100
AcDbEntity
  8
0
 62
     0
100
AcDbLine
 10
-111.3000000000083
 20
-312.8035795848
 30
0.0
 11
-104.500000000009
 21
-316.0416731152836
 31
0.0
  0
LINE
  5
2634
330
342F
100
AcDbEntity
  8
0
 62
     0
100
AcDbLine
 10
-104.5000000000072
 20
-306.041721371148
 30
0.0
 11
-29.42149791627344
 21
-341.7933701764168
 31
0.0
  0
LINE
  5
2635
330
342F
100
AcDbEntity
  8
0
 62
     0
100
AcDbLine
 10
-29.42149791627344
 20
-341.7933701764168
 30
0.0
 11
111.2999999999902
 21
-408.8035719415318
 31
0.0
  0
LINE
  5
2636
330
342F
100
AcDbEntity
  8
0
 62
     0
100
AcDbLine
 10
-111.3000000000029
 20
-302.8036278406653
 30
0.0
 11
-104.5000000000072
 21
-306.041721371148
 31
0.0
  0
LINE
  5
2637
330
342F
100
AcDbEntity
  8
0
 62
     0
100
AcDbLine
 10
-104.5000000000072
 20
-296.041769627016
 30
0.0
 11
-8.421588179284299
 21
-341.7933701764186
 31
0.0
  0
LINE
  5
2638
330
342F
100
AcDbEntity
  8
0
 62
     0
100
AcDbLine
 10
-8.421588179284299
 20
-341.7933701764186
 30
0.0
 11
111.2999999999902
 21
-398.8036201974001
 31
0.0
  0
LINE
  5
2639
330
342F
100
AcDbEntity
  8
0
 62
     0
100
AcDbLine
 10
-111.3000000000065
 20
-292.8036760965322
 30
0.0
 11
-104.5000000000072
 21
-296.041769627016
 31
0.0
  0
LINE
  5
263A
330
342F
100
AcDbEntity
  8
0
 62
     0
100
AcDbLine
 10
-104.500000000009
 20
-286.0418178828804
 30
0.0
 11
12.57832155770848
 21
-341.7933701764186
 31
0.0
  0
LINE
  5
263B
330
342F
100
AcDbEntity
  8
0
 62
     0
100
AcDbLine
 10
12.57832155770848
 20
-341.7933701764186
 30
0.0
 11
111.299999999992
 21
-388.8036684532663
 31
0.0
  0
LINE
  5
263C
330
342F
100
AcDbEntity
  8
0
 62
     0
100
AcDbLine
 10
-111.3000000000047
 20
-282.8037243523986
 30
0.0
 11
-104.500000000009
 21
-286.0418178828804
 31
0.0
  0
LINE
  5
263D
330
342F
100
AcDbEntity
  8
0
 62
     0
100
AcDbLine
 10
-104.5000000000054
 20
-276.0418661387466
 30
0.0
 11
33.57823129469944
 21
-341.7933701764186
 31
0.0
  0
LINE
  5
263E
330
342F
100
AcDbEntity
  8
0
 62
     0
100
AcDbLine
 10
33.57823129469944
 20
-341.7933701764186
 30
0.0
 11
111.299999999992
 21
-378.8037167091307
 31
0.0
  0
LINE
  5
263F
330
342F
100
AcDbEntity
  8
0
 62
     0
100
AcDbLine
 10
-111.3000000000047
 20
-272.803772608263
 30
0.0
 11
-104.5000000000054
 21
-276.0418661387466
 31
0.0
  0
LINE
  5
2640
330
342F
100
AcDbEntity
  8
0
 62
     0
100
AcDbLine
 10
-104.500000000009
 20
-266.0419143946119
 30
0.0
 11
54.57814103168676
 21
-341.7933701764168
 31
0.0
  0
LINE
  5
2641
330
342F
100
AcDbEntity
  8
0
 62
     0
100
AcDbLine
 10
54.57814103168676
 20
-341.7933701764168
 30
0.0
 11
111.299999999992
 21
-368.8037649649968
 31
0.0
  0
LINE
  5
2642
330
342F
100
AcDbEntity
  8
0
 62
     0
100
AcDbLine
 10
-111.3000000000083
 20
-262.8038208641274
 30
0.0
 11
-104.500000000009
 21
-266.0419143946119
 31
0.0
  0
LINE
  5
2643
330
342F
100
AcDbEntity
  8
0
 62
     0
100
AcDbLine
 10
-104.5000000000072
 20
-256.0419626504772
 30
0.0
 11
75.57805076867406
 21
-341.793370176415
 31
0.0
  0
LINE
  5
2644
330
342F
100
AcDbEntity
  8
0
 62
     0
100
AcDbLine
 10
75.5780507686777
 20
-341.7933701764168
 30
0.0
 11
111.2999999999938
 21
-358.8038132208631
 31
0.0
  0
LINE
  5
2645
330
342F
100
AcDbEntity
  8
0
 62
     0
100
AcDbLine
 10
-111.3000000000047
 20
-252.8038691199936
 30
0.0
 11
-104.500000000009
 21
-256.0419626504763
 31
0.0
  0
LINE
  5
2646
330
342F
100
AcDbEntity
  8
0
 62
     0
100
AcDbLine
 10
-104.5000000000072
 20
-246.0420109063443
 30
0.0
 11
96.57796050566687
 21
-341.7933701764168
 31
0.0
  0
LINE
  5
2647
330
342F
100
AcDbEntity
  8
0
 62
     0
100
AcDbLine
 10
96.57796050566869
 20
-341.7933701764186
 30
0.0
 11
111.2999999999938
 21
-348.8038614767293
 31
0.0
  0
LINE
  5
2648
330
342F
100
AcDbEntity
  8
0
 62
     0
100
AcDbLine
 10
-111.3000000000065
 20
-242.8039173758598
 30
0.0
 11
-104.5000000000072
 21
-246.0420109063443
 31
0.0
  0
LINE
  5
2649
330
342F
100
AcDbEntity
  8
0
 62
     0
100
AcDbLine
 10
-104.5000000000072
 20
-236.0420591622096
 30
0.0
 11
111.2999999999883
 21
-338.8039097325927
 31
0.0
  0
LINE
  5
264A
330
342F
100
AcDbEntity
  8
0
 62
     0
100
AcDbLine
 10
-111.3000000000065
 20
-232.803965631726
 30
0.0
 11
-104.5000000000127
 21
-236.0420591622069
 31
0.0
  0
LINE
  5
264B
330
342F
100
AcDbEntity
  8
0
 62
     0
100
AcDbLine
 10
-104.5000000000072
 20
-226.0421074180749
 30
0.0
 11
111.2999999999865
 21
-328.8039579884571
 31
0.0
  0
LINE
  5
264C
330
342F
100
AcDbEntity
  8
0
 62
     0
100
AcDbLine
 10
-111.3000000000065
 20
-222.8040138875904
 30
0.0
 11
-104.5000000000109
 21
-226.0421074180731
 31
0.0
  0
LINE
  5
264D
330
342F
100
AcDbEntity
  8
0
 62
     0
100
AcDbLine
 10
-104.500000000009
 20
-216.0421556739393
 30
0.0
 11
111.2999999999865
 21
-318.8040062443215
 31
0.0
  0
LINE
  5
264E
330
342F
100
AcDbEntity
  8
0
 62
     0
100
AcDbLine
 10
-111.3000000000047
 20
-212.8040621434566
 30
0.0
 11
-104.5000000000127
 21
-216.0421556739374
 31
0.0
  0
LINE
  5
264F
330
342F
100
AcDbEntity
  8
0
 62
     0
100
AcDbLine
 10
-104.500000000009
 20
-206.0422039298055
 30
0.0
 11
111.2999999999865
 21
-308.8040545001877
 31
0.0
  0
LINE
  5
2650
330
342F
100
AcDbEntity
  8
0
 62
     0
100
AcDbLine
 10
-111.3000000000065
 20
-202.804110399321
 30
0.0
 11
-104.5000000000109
 21
-206.0422039298037
 31
0.0
  0
LINE
  5
2651
330
342F
100
AcDbEntity
  8
0
 62
     0
100
AcDbLine
 10
-104.500000000009
 20
-196.0422521856717
 30
0.0
 11
111.2999999999847
 21
-298.8041027560539
 31
0.0
  0
LINE
  5
2652
330
342F
100
AcDbEntity
  8
0
 62
     0
100
AcDbLine
 10
-111.3000000000047
 20
-192.804158655189
 30
0.0
 11
-104.5000000000127
 21
-196.0422521856698
 31
0.0
  0
LINE
  5
2653
330
342F
100
AcDbEntity
  8
0
 62
     0
100
AcDbLine
 10
-104.5000000000072
 20
-186.0423004415378
 30
0.0
 11
111.2999999999883
 21
-288.8041510119201
 31
0.0
  0
LINE
  5
2654
330
342F
100
AcDbEntity
  8
0
 62
     0
100
AcDbLine
 10
-111.3000000000065
 20
-182.8042069110533
 30
0.0
 11
-104.5000000000127
 21
-186.0423004415343
 31
0.0
  0
LINE
  5
2655
330
342F
100
AcDbEntity
  8
0
 62
     0
100
AcDbLine
 10
-104.500000000009
 20
-176.0423486974023
 30
0.0
 11
111.2999999999847
 21
-278.8041992677845
 31
0.0
  0
LINE
  5
2656
330
342F
100
AcDbEntity
  8
0
 62
     0
100
AcDbLine
 10
-111.3000000000083
 20
-172.8042551669177
 30
0.0
 11
-104.5000000000127
 21
-176.0423486974005
 31
0.0
  0
LINE
  5
2657
330
342F
100
AcDbEntity
  8
0
 62
     0
100
AcDbLine
 10
-104.5000000000054
 20
-166.0423969532685
 30
0.0
 11
111.2999999999883
 21
-268.8042475236507
 31
0.0
  0
LINE
  5
2658
330
342F
100
AcDbEntity
  8
0
 62
     0
100
AcDbLine
 10
-111.3000000000047
 20
-162.8043034227839
 30
0.0
 11
-104.5000000000127
 21
-166.0423969532649
 31
0.0
  0
LINE
  5
2659
330
342F
100
AcDbEntity
  8
0
 62
     0
100
AcDbLine
 10
-104.5000000000072
 20
-156.0424452091329
 30
0.0
 11
111.2999999999865
 21
-258.8042957795151
 31
0.0
  0
LINE
  5
265A
330
342F
100
AcDbEntity
  8
0
 62
     0
100
AcDbLine
 10
-111.3000000000065
 20
-152.8043516786483
 30
0.0
 11
-104.5000000000109
 21
-156.0424452091311
 31
0.0
  0
LINE
  5
265B
330
342F
100
AcDbEntity
  8
0
 62
     0
100
AcDbLine
 10
-100.4031567455549
 20
-147.9933701764184
 30
0.0
 11
111.2999999999865
 21
-248.8043440353813
 31
0.0
  0
LINE
  5
265C
330
342F
100
AcDbEntity
  8
0
 62
     0
100
AcDbLine
 10
-79.40324700856582
 20
-147.9933701764184
 30
0.0
 11
111.299999999992
 21
-238.8043922912493
 31
0.0
  0
LINE
  5
265D
330
342F
100
AcDbEntity
  8
0
 62
     0
100
AcDbLine
 10
-58.40333727157485
 20
-147.9933701764184
 30
0.0
 11
111.2999999999883
 21
-228.8044405471137
 31
0.0
  0
LINE
  5
265E
330
342F
100
AcDbEntity
  8
0
 62
     0
100
AcDbLine
 10
-37.4034275345839
 20
-147.9933701764184
 30
0.0
 11
111.2999999999902
 21
-218.8044888029799
 31
0.0
  0
LINE
  5
265F
330
342F
100
AcDbEntity
  8
0
 62
     0
100
AcDbLine
 10
-16.40351779759112
 20
-147.9933701764184
 30
0.0
 11
111.2999999999902
 21
-208.8045370588443
 31
0.0
  0
LINE
  5
2660
330
342F
100
AcDbEntity
  8
0
 62
     0
100
AcDbLine
 10
4.596391939398014
 20
-147.9933701764184
 30
0.0
 11
111.2999999999902
 21
-198.8045853147104
 31
0.0
  0
LINE
  5
2661
330
342F
100
AcDbEntity
  8
0
 62
     0
100
AcDbLine
 10
25.59630167638898
 20
-147.9933701764194
 30
0.0
 11
111.2999999999902
 21
-188.8046335705767
 31
0.0
  0
LINE
  5
2662
330
342F
100
AcDbEntity
  8
0
 62
     0
100
AcDbLine
 10
46.59621141338173
 20
-147.9933701764194
 30
0.0
 11
111.299999999992
 21
-178.8046818264429
 31
0.0
  0
LINE
  5
2663
330
342F
100
AcDbEntity
  8
0
 62
     0
100
AcDbLine
 10
67.59612115037089
 20
-147.9933701764194
 30
0.0
 11
111.2999999999883
 21
-168.8047300823073
 31
0.0
  0
LINE
  5
2664
330
342F
100
AcDbEntity
  8
0
 62
     0
100
AcDbLine
 10
88.59603088736369
 20
-147.9933701764194
 30
0.0
 11
111.299999999992
 21
-158.8047783381734
 31
0.0
  0
LINE
  5
2665
330
342F
100
AcDbEntity
  8
0
 62
     0
100
AcDbLine
 10
109.5959406243546
 20
-147.9933701764194
 30
0.0
 11
111.2999999999902
 21
-148.8048265940379
 31
0.0
  0
ENDBLK
  5
2666
330
342F
100
AcDbEntity
  8
0
100
AcDbBlockEnd
  0
BLOCK
  5
3432
330
3431
100
AcDbEntity
  8
0
100
AcDbBlockBegin
  2
*X25
 70
     1
 10
0.0
 20
0.0
 30
0.0
  3
*X25
  1

  0
LINE
  5
2669
330
3431
100
AcDbEntity
  8
0
 62
     0
100
AcDbLine
 10
106.3545697506306
 20
-415.0080808011996
 30
0.0
 11
111.2999999999992
 21
-412.6531152576799
 31
0.0
  0
LINE
  5
266A
330
3431
100
AcDbEntity
  8
0
 62
     0
100
AcDbLine
 10
85.35466001363966
 20
-415.0080808012007
 30
0.0
 11
111.3000000000029
 21
-402.6531635135452
 31
0.0
  0
LINE
  5
266B
330
3431
100
AcDbEntity
  8
0
 62
     0
100
AcDbLine
 10
64.3547502766487
 20
-415.0080808012007
 30
0.0
 11
111.2999999999956
 21
-392.6532117694114
 31
0.0
  0
LINE
  5
266C
330
3431
100
AcDbEntity
  8
0
 62
     0
100
AcDbLine
 10
43.35484053965774
 20
-415.0080808012007
 30
0.0
 11
111.2999999999992
 21
-382.6532600252758
 31
0.0
  0
LINE
  5
266D
330
3431
100
AcDbEntity
  8
0
 62
     0
100
AcDbLine
 10
22.35493080266316
 20
-415.0080808012017
 30
0.0
 11
111.2999999999956
 21
-372.6533082811429
 31
0.0
  0
LINE
  5
266E
330
3431
100
AcDbEntity
  8
0
 62
     0
100
AcDbLine
 10
1.355021065675827
 20
-415.0080808011996
 30
0.0
 11
111.2999999999992
 21
-362.6533565370072
 31
0.0
  0
LINE
  5
266F
330
3431
100
AcDbEntity
  8
0
 62
     0
100
AcDbLine
 10
-19.64488867131149
 20
-415.0080808012007
 30
0.0
 11
111.2999999999992
 21
-352.6534047928744
 31
0.0
  0
LINE
  5
2670
330
3431
100
AcDbEntity
  8
0
 62
     0
100
AcDbLine
 10
-40.64479840830609
 20
-415.0080808012007
 30
0.0
 11
111.2999999999956
 21
-342.6534530487388
 31
0.0
  0
LINE
  5
2671
330
3431
100
AcDbEntity
  8
0
 62
     0
100
AcDbLine
 10
92.10626524737014
 20
-341.7933701764159
 30
0.0
 11
111.2999999999956
 21
-332.6535013046051
 31
0.0
  0
LINE
  5
2672
330
3431
100
AcDbEntity
  8
0
 62
     0
100
AcDbLine
 10
-61.64470814529703
 20
-415.0080808012007
 30
0.0
 11
92.10626524737014
 21
-341.7933701764159
 31
0.0
  0
LINE
  5
2673
330
3431
100
AcDbEntity
  8
0
 62
     0
100
AcDbLine
 10
71.10635551037922
 20
-341.7933701764168
 30
0.0
 11
111.2999999999992
 21
-322.6535495604703
 31
0.0
  0
LINE
  5
2674
330
3431
100
AcDbEntity
  8
0
 62
     0
100
AcDbLine
 10
-82.64461788228436
 20
-415.0080808012017
 30
0.0
 11
71.10635551037922
 21
-341.7933701764168
 31
0.0
  0
LINE
  5
2675
330
3431
100
AcDbEntity
  8
0
 62
     0
100
AcDbLine
 10
50.10644577338462
 20
-341.7933701764168
 30
0.0
 11
111.2999999999992
 21
-312.6535978163347
 31
0.0
  0
LINE
  5
2676
330
3431
100
AcDbEntity
  8
0
 62
     0
100
AcDbLine
 10
-103.6445276192752
 20
-415.0080808011996
 30
0.0
 11
50.10644577338462
 21
-341.7933701764168
 31
0.0
  0
LINE
  5
2677
330
3431
100
AcDbEntity
  8
0
 62
     0
100
AcDbLine
 10
29.1065360363973
 20
-341.7933701764168
 30
0.0
 11
111.2999999999992
 21
-302.6536460722009
 31
0.0
  0
LINE
  5
2678
330
3431
100
AcDbEntity
  8
0
 62
     0
100
AcDbLine
 10
-111.2999999999992
 20
-408.6535901730685
 30
0.0
 11
29.1065360363973
 21
-341.7933701764168
 31
0.0
  0
LINE
  5
2679
330
3431
100
AcDbEntity
  8
0
 62
     0
100
AcDbLine
 10
8.106626299406341
 20
-341.7933701764177
 30
0.0
 11
111.2999999999992
 21
-292.6536943280662
 31
0.0
  0
LINE
  5
267A
330
3431
100
AcDbEntity
  8
0
 62
     0
100
AcDbLine
 10
-111.2999999999956
 20
-398.6536384289339
 30
0.0
 11
8.106626299406341
 21
-341.7933701764177
 31
0.0
  0
LINE
  5
267B
330
3431
100
AcDbEntity
  8
0
 62
     0
100
AcDbLine
 10
-12.89328343758461
 20
-341.7933701764159
 30
0.0
 11
111.2999999999956
 21
-282.6537425839324
 31
0.0
  0
LINE
  5
267C
330
3431
100
AcDbEntity
  8
0
 62
     0
100
AcDbLine
 10
-111.2999999999992
 20
-388.6536866848
 30
0.0
 11
-12.89328343758461
 21
-341.7933701764159
 31
0.0
  0
LINE
  5
267D
330
3431
100
AcDbEntity
  8
0
 62
     0
100
AcDbLine
 10
-33.89319317457193
 20
-341.7933701764168
 30
0.0
 11
111.2999999999992
 21
-272.6537908397977
 31
0.0
  0
LINE
  5
267E
330
3431
100
AcDbEntity
  8
0
 62
     0
100
AcDbLine
 10
-111.2999999999992
 20
-378.6537349406653
 30
0.0
 11
-33.89319317457193
 21
-341.7933701764168
 31
0.0
  0
LINE
  5
267F
330
3431
100
AcDbEntity
  8
0
 62
     0
100
AcDbLine
 10
-54.89310291156654
 20
-341.7933701764168
 30
0.0
 11
111.2999999999956
 21
-262.6538390956639
 31
0.0
  0
LINE
  5
2680
330
3431
100
AcDbEntity
  8
0
 62
     0
100
AcDbLine
 10
-111.3000000000029
 20
-368.6537831965316
 30
0.0
 11
-54.89310291156654
 21
-341.7933701764168
 31
0.0
  0
LINE
  5
2681
330
3431
100
AcDbEntity
  8
0
 62
     0
100
AcDbLine
 10
-75.89301264855386
 20
-341.793370176415
 30
0.0
 11
111.2999999999992
 21
-252.6538873515283
 31
0.0
  0
LINE
  5
2682
330
3431
100
AcDbEntity
  8
0
 62
     0
100
AcDbLine
 10
-111.2999999999992
 20
-358.6538314523959
 30
0.0
 11
-75.89301264855747
 21
-341.7933701764168
 31
0.0
  0
LINE
  5
2683
330
3431
100
AcDbEntity
  8
0
 62
     0
100
AcDbLine
 10
-96.89292238554479
 20
-341.7933701764159
 30
0.0
 11
111.2999999999992
 21
-242.6539356073936
 31
0.0
  0
LINE
  5
2684
330
3431
100
AcDbEntity
  8
0
 62
     0
100
AcDbLine
 10
-111.2999999999956
 20
-348.6538797082612
 30
0.0
 11
-96.89292238554845
 21
-341.7933701764177
 31
0.0
  0
LINE
  5
2685
330
3431
100
AcDbEntity
  8
0
 62
     0
100
AcDbLine
 10
-104.4999999999963
 20
-335.4158344336429
 30
0.0
 11
111.2999999999992
 21
-232.6539838632598
 31
0.0
  0
LINE
  5
2686
330
3431
100
AcDbEntity
  8
0
 62
     0
100
AcDbLine
 10
-111.2999999999956
 20
-338.6539279641274
 30
0.0
 11
-104.4999999999963
 21
-335.4158344336429
 31
0.0
  0
LINE
  5
2687
330
3431
100
AcDbEntity
  8
0
 62
     0
100
AcDbLine
 10
-104.5000000000036
 20
-325.4158826895089
 30
0.0
 11
111.2999999999992
 21
-222.6540321191242
 31
0.0
  0
LINE
  5
2688
330
3431
100
AcDbEntity
  8
0
 62
     0
100
AcDbLine
 10
-111.2999999999992
 20
-328.6539762199918
 30
0.0
 11
-104.5000000000036
 21
-325.4158826895089
 31
0.0
  0
LINE
  5
2689
330
3431
100
AcDbEntity
  8
0
 62
     0
100
AcDbLine
 10
-104.5
 20
-315.4159309453744
 30
0.0
 11
111.2999999999992
 21
-212.6540803749913
 31
0.0
  0
LINE
  5
268A
330
3431
100
AcDbEntity
  8
0
 62
     0
100
AcDbLine
 10
-111.2999999999992
 20
-318.6540244758589
 30
0.0
 11
-104.5
 21
-315.4159309453744
 31
0.0
  0
LINE
  5
268B
330
3431
100
AcDbEntity
  8
0
 62
     0
100
AcDbLine
 10
-104.5
 20
-305.4159792012406
 30
0.0
 11
111.2999999999956
 21
-202.6541286308557
 31
0.0
  0
LINE
  5
268C
330
3431
100
AcDbEntity
  8
0
 62
     0
100
AcDbLine
 10
-111.2999999999992
 20
-308.6540727317232
 30
0.0
 11
-104.5
 21
-305.4159792012406
 31
0.0
  0
LINE
  5
268D
330
3431
100
AcDbEntity
  8
0
 62
     0
100
AcDbLine
 10
-104.5
 20
-295.4160274571077
 30
0.0
 11
111.2999999999956
 21
-192.6541768867228
 31
0.0
  0
LINE
  5
268E
330
3431
100
AcDbEntity
  8
0
 62
     0
100
AcDbLine
 10
-111.2999999999992
 20
-298.6541209875904
 30
0.0
 11
-104.5
 21
-295.4160274571077
 31
0.0
  0
LINE
  5
268F
330
3431
100
AcDbEntity
  8
0
 62
     0
100
AcDbLine
 10
-104.5
 20
-285.4160757129721
 30
0.0
 11
111.2999999999992
 21
-182.6542251425872
 31
0.0
  0
LINE
  5
2690
330
3431
100
AcDbEntity
  8
0
 62
     0
100
AcDbLine
 10
-111.2999999999956
 20
-288.6541692434548
 30
0.0
 11
-104.5
 21
-285.4160757129721
 31
0.0
  0
LINE
  5
2691
330
3431
100
AcDbEntity
  8
0
 62
     0
100
AcDbLine
 10
-104.5000000000036
 20
-275.4161239688383
 30
0.0
 11
111.2999999999956
 21
-172.6542733984534
 31
0.0
  0
LINE
  5
2692
330
3431
100
AcDbEntity
  8
0
 62
     0
100
AcDbLine
 10
-111.3000000000029
 20
-278.654217499321
 30
0.0
 11
-104.5000000000036
 21
-275.4161239688383
 31
0.0
  0
LINE
  5
2693
330
3431
100
AcDbEntity
  8
0
 62
     0
100
AcDbLine
 10
-104.5
 20
-265.4161722247036
 30
0.0
 11
111.2999999999992
 21
-162.6543216543186
 31
0.0
  0
LINE
  5
2694
330
3431
100
AcDbEntity
  8
0
 62
     0
100
AcDbLine
 10
-111.2999999999992
 20
-268.6542657551863
 30
0.0
 11
-104.5
 21
-265.4161722247036
 31
0.0
  0
LINE
  5
2695
330
3431
100
AcDbEntity
  8
0
 62
     0
100
AcDbLine
 10
-104.5
 20
-255.4162204805707
 30
0.0
 11
111.2999999999992
 21
-152.6543699101839
 31
0.0
  0
LINE
  5
2696
330
3431
100
AcDbEntity
  8
0
 62
     0
100
AcDbLine
 10
-111.2999999999956
 20
-258.6543140110534
 30
0.0
 11
-104.5
 21
-255.4162204805707
 31
0.0
  0
LINE
  5
2697
330
3431
100
AcDbEntity
  8
0
 62
     0
100
AcDbLine
 10
-104.5
 20
-245.4162687364351
 30
0.0
 11
100.0881948656788
 21
-147.9933701764166
 31
0.0
  0
LINE
  5
2698
330
3431
100
AcDbEntity
  8
0
 62
     0
100
AcDbLine
 10
-111.2999999999992
 20
-248.6543622669178
 30
0.0
 11
-104.5
 21
-245.4162687364351
 31
0.0
  0
LINE
  5
2699
330
3431
100
AcDbEntity
  8
0
 62
     0
100
AcDbLine
 10
-104.5
 20
-235.4163169923013
 30
0.0
 11
79.08828512868787
 21
-147.9933701764166
 31
0.0
  0
LINE
  5
269A
330
3431
100
AcDbEntity
  8
0
 62
     0
100
AcDbLine
 10
-111.2999999999956
 20
-238.654410522784
 30
0.0
 11
-104.5000000000036
 21
-235.4163169923013
 31
0.0
  0
LINE
  5
269B
330
3431
100
AcDbEntity
  8
0
 62
     0
100
AcDbLine
 10
-104.5
 20
-225.4163652481657
 30
0.0
 11
58.0883753916969
 21
-147.9933701764166
 31
0.0
  0
LINE
  5
269C
330
3431
100
AcDbEntity
  8
0
 62
     0
100
AcDbLine
 10
-111.2999999999992
 20
-228.6544587786502
 30
0.0
 11
-104.5000000000036
 21
-225.4163652481675
 31
0.0
  0
LINE
  5
269D
330
3431
100
AcDbEntity
  8
0
 62
     0
100
AcDbLine
 10
-104.5
 20
-215.41641350403
 30
0.0
 11
37.0884656547023
 21
-147.9933701764166
 31
0.0
  0
LINE
  5
269E
330
3431
100
AcDbEntity
  8
0
 62
     0
100
AcDbLine
 10
-111.2999999999992
 20
-218.6545070345146
 30
0.0
 11
-104.5000000000072
 21
-215.4164135040319
 31
0.0
  0
LINE
  5
269F
330
3431
100
AcDbEntity
  8
0
 62
     0
100
AcDbLine
 10
-104.5
 20
-205.4164617598963
 30
0.0
 11
16.08855591771498
 21
-147.9933701764166
 31
0.0
  0
LINE
  5
26A0
330
3431
100
AcDbEntity
  8
0
 62
     0
100
AcDbLine
 10
-111.2999999999992
 20
-208.6545552903808
 30
0.0
 11
-104.5000000000036
 21
-205.4164617598981
 31
0.0
  0
LINE
  5
26A1
330
3431
100
AcDbEntity
  8
0
 62
     0
100
AcDbLine
 10
-104.5
 20
-195.4165100157606
 30
0.0
 11
-4.911353819279611
 21
-147.9933701764166
 31
0.0
  0
LINE
  5
26A2
330
3431
100
AcDbEntity
  8
0
 62
     0
100
AcDbLine
 10
-111.2999999999992
 20
-198.6546035462452
 30
0.0
 11
-104.5000000000036
 21
-195.4165100157625
 31
0.0
  0
LINE
  5
26A3
330
3431
100
AcDbEntity
  8
0
 62
     0
100
AcDbLine
 10
-104.5000000000036
 20
-185.4165582716287
 30
0.0
 11
-25.91126355627057
 21
-147.9933701764184
 31
0.0
  0
LINE
  5
26A4
330
3431
100
AcDbEntity
  8
0
 62
     0
100
AcDbLine
 10
-111.2999999999992
 20
-188.6546518021132
 30
0.0
 11
-104.5000000000036
 21
-185.4165582716304
 31
0.0
  0
LINE
  5
26A5
330
3431
100
AcDbEntity
  8
0
 62
     0
100
AcDbLine
 10
-104.5
 20
-175.416606527493
 30
0.0
 11
-46.91117329325789
 21
-147.9933701764184
 31
0.0
  0
LINE
  5
26A6
330
3431
100
AcDbEntity
  8
0
 62
     0
100
AcDbLine
 10
-111.2999999999992
 20
-178.6547000579776
 30
0.0
 11
-104.5000000000036
 21
-175.4166065274949
 31
0.0
  0
LINE
  5
26A7
330
3431
100
AcDbEntity
  8
0
 62
     0
100
AcDbLine
 10
-104.5
 20
-165.4166547833592
 30
0.0
 11
-67.91108303024884
 21
-147.9933701764184
 31
0.0
  0
LINE
  5
26A8
330
3431
100
AcDbEntity
  8
0
 62
     0
100
AcDbLine
 10
-111.2999999999956
 20
-168.654748313842
 30
0.0
 11
-104.5000000000036
 21
-165.4166547833611
 31
0.0
  0
LINE
  5
26A9
330
3431
100
AcDbEntity
  8
0
 62
     0
100
AcDbLine
 10
-104.5
 20
-155.4167030392255
 30
0.0
 11
-88.91099276723982
 21
-147.9933701764184
 31
0.0
  0
LINE
  5
26AA
330
3431
100
AcDbEntity
  8
0
 62
     0
100
AcDbLine
 10
-111.2999999999992
 20
-158.65479656971
 30
0.0
 11
-104.5000000000036
 21
-155.4167030392273
 31
0.0
  0
LINE
  5
26AB
330
3431
100
AcDbEntity
  8
0
 62
     0
100
AcDbLine
 10
-111.2999999999956
 20
-148.6548448255744
 30
0.0
 11
-109.9109025042307
 21
-147.9933701764184
 31
0.0
  0
ENDBLK
  5
26AC
330
3431
100
AcDbEntity
  8
0
100
AcDbBlockEnd
  0
BLOCK
  5
3434
330
3433
100
AcDbEntity
  8
0
100
AcDbBlockBegin
  2
*X26
 70
     1
 10
0.0
 20
0.0
 30
0.0
  3
*X26
  1

  0
LINE
  5
29D6
330
3433
100
AcDbEntity
  8
0
 62
     0
100
AcDbLine
 10
-111.3000000000047
 20
-412.8030970261443
 30
0.0
 11
-106.6695316305049
 21
-415.0080808012017
 31
0.0
  0
LINE
  5
29D7
330
3433
100
AcDbEntity
  8
0
 62
     0
100
AcDbLine
 10
-111.3000000000065
 20
-402.8031452820105
 30
0.0
 11
-85.66962189351579
 21
-415.0080808012035
 31
0.0
  0
LINE
  5
29D8
330
3433
100
AcDbEntity
  8
0
 62
     0
100
AcDbLine
 10
-111.3000000000047
 20
-392.8031935378767
 30
0.0
 11
-64.66971215652304
 21
-415.0080808012035
 31
0.0
  0
LINE
  5
29D9
330
3433
100
AcDbEntity
  8
0
 62
     0
100
AcDbLine
 10
-111.3000000000065
 20
-382.8032417937412
 30
0.0
 11
-43.66980241953569
 21
-415.0080808012017
 31
0.0
  0
LINE
  5
29DA
330
3433
100
AcDbEntity
  8
0
 62
     0
100
AcDbLine
 10
-111.3000000000047
 20
-372.8032900496073
 30
0.0
 11
-22.66989268254475
 21
-415.0080808012017
 31
0.0
  0
LINE
  5
29DB
330
3433
100
AcDbEntity
  8
0
 62
     0
100
AcDbLine
 10
-111.3000000000065
 20
-362.8033383054717
 30
0.0
 11
-1.669982945553782
 21
-415.0080808012017
 31
0.0
  0
LINE
  5
29DC
330
3433
100
AcDbEntity
  8
0
 62
     0
100
AcDbLine
 10
-111.3000000000065
 20
-352.8033865613379
 30
0.0
 11
19.32992679143898
 21
-415.0080808012035
 31
0.0
  0
LINE
  5
29DD
330
3433
100
AcDbEntity
  8
0
 62
     0
100
AcDbLine
 10
-111.3000000000065
 20
-342.8034348172041
 30
0.0
 11
40.32983652842449
 21
-415.0080808012017
 31
0.0
  0
LINE
  5
29DE
330
3433
100
AcDbEntity
  8
0
 62
     0
100
AcDbLine
 10
-104.5000000000072
 20
-336.0415766035529
 30
0.0
 11
-92.42122712724812
 21
-341.7933701764177
 31
0.0
  0
LINE
  5
29DF
330
3433
100
AcDbEntity
  8
0
 62
     0
100
AcDbLine
 10
-92.42122712724812
 20
-341.7933701764177
 30
0.0
 11
61.32974626541908
 21
-415.0080808012017
 31
0.0
  0
LINE
  5
29E0
330
3433
100
AcDbEntity
  8
0
 62
     0
100
AcDbLine
 10
-111.3000000000065
 20
-332.8034830730694
 30
0.0
 11
-104.5000000000072
 21
-336.0415766035529
 31
0.0
  0
LINE
  5
29E1
330
3433
100
AcDbEntity
  8
0
 62
     0
100
AcDbLine
 10
-104.5000000000054
 20
-326.0416248594192
 30
0.0
 11
-71.42131739025717
 21
-341.7933701764177
 31
0.0
  0
LINE
  5
29E2
330
3433
100
AcDbEntity
  8
0
 62
     0
100
AcDbLine
 10
-71.42131739025717
 20
-341.7933701764177
 30
0.0
 11
82.3296560024082
 21
-415.0080808012017
 31
0.0
  0
LINE
  5
29E3
330
3433
100
AcDbEntity
  8
0
 62
     0
100
AcDbLine
 10
-111.3000000000047
 20
-322.8035313289347
 30
0.0
 11
-104.5000000000054
 21
-326.0416248594192
 31
0.0
  0
LINE
  5
29E4
330
3433
100
AcDbEntity
  8
0
 62
     0
100
AcDbLine
 10
-104.500000000009
 20
-316.0416731152836
 30
0.0
 11
-50.42140765326802
 21
-341.7933701764177
 31
0.0
  0
LINE
  5
29E5
330
3433
100
AcDbEntity
  8
0
 62
     0
100
AcDbLine
 10
-50.42140765326802
 20
-341.7933701764177
 30
0.0
 11
103.3295657393992
 21
-415.0080808012007
 31
0.0
  0
LINE
  5
29E6
330
3433
100
AcDbEntity
  8
0
 62
     0
100
AcDbLine
 10
-111.3000000000083
 20
-312.8035795848
 30
0.0
 11
-104.500000000009
 21
-316.0416731152836
 31
0.0
  0
LINE
  5
29E7
330
3433
100
AcDbEntity
  8
0
 62
     0
100
AcDbLine
 10
-104.5000000000072
 20
-306.041721371148
 30
0.0
 11
-29.42149791627344
 21
-341.7933701764168
 31
0.0
  0
LINE
  5
29E8
330
3433
100
AcDbEntity
  8
0
 62
     0
100
AcDbLine
 10
-29.42149791627344
 20
-341.7933701764168
 30
0.0
 11
111.2999999999902
 21
-408.8035719415318
 31
0.0
  0
LINE
  5
29E9
330
3433
100
AcDbEntity
  8
0
 62
     0
100
AcDbLine
 10
-111.3000000000029
 20
-302.8036278406653
 30
0.0
 11
-104.5000000000072
 21
-306.041721371148
 31
0.0
  0
LINE
  5
29EA
330
3433
100
AcDbEntity
  8
0
 62
     0
100
AcDbLine
 10
-104.5000000000072
 20
-296.041769627016
 30
0.0
 11
-8.421588179284299
 21
-341.7933701764186
 31
0.0
  0
LINE
  5
29EB
330
3433
100
AcDbEntity
  8
0
 62
     0
100
AcDbLine
 10
-8.421588179284299
 20
-341.7933701764186
 30
0.0
 11
111.2999999999902
 21
-398.8036201974001
 31
0.0
  0
LINE
  5
29EC
330
3433
100
AcDbEntity
  8
0
 62
     0
100
AcDbLine
 10
-111.3000000000065
 20
-292.8036760965322
 30
0.0
 11
-104.5000000000072
 21
-296.041769627016
 31
0.0
  0
LINE
  5
29ED
330
3433
100
AcDbEntity
  8
0
 62
     0
100
AcDbLine
 10
-104.500000000009
 20
-286.0418178828804
 30
0.0
 11
12.57832155770848
 21
-341.7933701764186
 31
0.0
  0
LINE
  5
29EE
330
3433
100
AcDbEntity
  8
0
 62
     0
100
AcDbLine
 10
12.57832155770848
 20
-341.7933701764186
 30
0.0
 11
111.299999999992
 21
-388.8036684532663
 31
0.0
  0
LINE
  5
29EF
330
3433
100
AcDbEntity
  8
0
 62
     0
100
AcDbLine
 10
-111.3000000000047
 20
-282.8037243523986
 30
0.0
 11
-104.500000000009
 21
-286.0418178828804
 31
0.0
  0
LINE
  5
29F0
330
3433
100
AcDbEntity
  8
0
 62
     0
100
AcDbLine
 10
-104.5000000000054
 20
-276.0418661387466
 30
0.0
 11
33.57823129469944
 21
-341.7933701764186
 31
0.0
  0
LINE
  5
29F1
330
3433
100
AcDbEntity
  8
0
 62
     0
100
AcDbLine
 10
33.57823129469944
 20
-341.7933701764186
 30
0.0
 11
111.299999999992
 21
-378.8037167091307
 31
0.0
  0
LINE
  5
29F2
330
3433
100
AcDbEntity
  8
0
 62
     0
100
AcDbLine
 10
-111.3000000000047
 20
-272.803772608263
 30
0.0
 11
-104.5000000000054
 21
-276.0418661387466
 31
0.0
  0
LINE
  5
29F3
330
3433
100
AcDbEntity
  8
0
 62
     0
100
AcDbLine
 10
-104.500000000009
 20
-266.0419143946119
 30
0.0
 11
54.57814103168676
 21
-341.7933701764168
 31
0.0
  0
LINE
  5
29F4
330
3433
100
AcDbEntity
  8
0
 62
     0
100
AcDbLine
 10
54.57814103168676
 20
-341.7933701764168
 30
0.0
 11
111.299999999992
 21
-368.8037649649968
 31
0.0
  0
LINE
  5
29F5
330
3433
100
AcDbEntity
  8
0
 62
     0
100
AcDbLine
 10
-111.3000000000083
 20
-262.8038208641274
 30
0.0
 11
-104.500000000009
 21
-266.0419143946119
 31
0.0
  0
LINE
  5
29F6
330
3433
100
AcDbEntity
  8
0
 62
     0
100
AcDbLine
 10
-104.5000000000072
 20
-256.0419626504772
 30
0.0
 11
75.57805076867406
 21
-341.793370176415
 31
0.0
  0
LINE
  5
29F7
330
3433
100
AcDbEntity
  8
0
 62
     0
100
AcDbLine
 10
75.5780507686777
 20
-341.7933701764168
 30
0.0
 11
111.2999999999938
 21
-358.8038132208631
 31
0.0
  0
LINE
  5
29F8
330
3433
100
AcDbEntity
  8
0
 62
     0
100
AcDbLine
 10
-111.3000000000047
 20
-252.8038691199936
 30
0.0
 11
-104.500000000009
 21
-256.0419626504763
 31
0.0
  0
LINE
  5
29F9
330
3433
100
AcDbEntity
  8
0
 62
     0
100
AcDbLine
 10
-104.5000000000072
 20
-246.0420109063443
 30
0.0
 11
96.57796050566687
 21
-341.7933701764168
 31
0.0
  0
LINE
  5
29FA
330
3433
100
AcDbEntity
  8
0
 62
     0
100
AcDbLine
 10
96.57796050566869
 20
-341.7933701764186
 30
0.0
 11
111.2999999999938
 21
-348.8038614767293
 31
0.0
  0
LINE
  5
29FB
330
3433
100
AcDbEntity
  8
0
 62
     0
100
AcDbLine
 10
-111.3000000000065
 20
-242.8039173758598
 30
0.0
 11
-104.5000000000072
 21
-246.0420109063443
 31
0.0
  0
LINE
  5
29FC
330
3433
100
AcDbEntity
  8
0
 62
     0
100
AcDbLine
 10
-104.5000000000072
 20
-236.0420591622096
 30
0.0
 11
111.2999999999883
 21
-338.8039097325927
 31
0.0
  0
LINE
  5
29FD
330
3433
100
AcDbEntity
  8
0
 62
     0
100
AcDbLine
 10
-111.3000000000065
 20
-232.803965631726
 30
0.0
 11
-104.5000000000127
 21
-236.0420591622069
 31
0.0
  0
LINE
  5
29FE
330
3433
100
AcDbEntity
  8
0
 62
     0
100
AcDbLine
 10
-104.5000000000072
 20
-226.0421074180749
 30
0.0
 11
111.2999999999865
 21
-328.8039579884571
 31
0.0
  0
LINE
  5
29FF
330
3433
100
AcDbEntity
  8
0
 62
     0
100
AcDbLine
 10
-111.3000000000065
 20
-222.8040138875904
 30
0.0
 11
-104.5000000000109
 21
-226.0421074180731
 31
0.0
  0
LINE
  5
2A00
330
3433
100
AcDbEntity
  8
0
 62
     0
100
AcDbLine
 10
-104.500000000009
 20
-216.0421556739393
 30
0.0
 11
111.2999999999865
 21
-318.8040062443215
 31
0.0
  0
LINE
  5
2A01
330
3433
100
AcDbEntity
  8
0
 62
     0
100
AcDbLine
 10
-111.3000000000047
 20
-212.8040621434566
 30
0.0
 11
-104.5000000000127
 21
-216.0421556739374
 31
0.0
  0
LINE
  5
2A02
330
3433
100
AcDbEntity
  8
0
 62
     0
100
AcDbLine
 10
-104.500000000009
 20
-206.0422039298055
 30
0.0
 11
111.2999999999865
 21
-308.8040545001877
 31
0.0
  0
LINE
  5
2A03
330
3433
100
AcDbEntity
  8
0
 62
     0
100
AcDbLine
 10
-111.3000000000065
 20
-202.804110399321
 30
0.0
 11
-104.5000000000109
 21
-206.0422039298037
 31
0.0
  0
LINE
  5
2A04
330
3433
100
AcDbEntity
  8
0
 62
     0
100
AcDbLine
 10
-104.500000000009
 20
-196.0422521856717
 30
0.0
 11
111.2999999999847
 21
-298.8041027560539
 31
0.0
  0
LINE
  5
2A05
330
3433
100
AcDbEntity
  8
0
 62
     0
100
AcDbLine
 10
-111.3000000000047
 20
-192.804158655189
 30
0.0
 11
-104.5000000000127
 21
-196.0422521856698
 31
0.0
  0
LINE
  5
2A06
330
3433
100
AcDbEntity
  8
0
 62
     0
100
AcDbLine
 10
-104.5000000000072
 20
-186.0423004415378
 30
0.0
 11
111.2999999999883
 21
-288.8041510119201
 31
0.0
  0
LINE
  5
2A07
330
3433
100
AcDbEntity
  8
0
 62
     0
100
AcDbLine
 10
-111.3000000000065
 20
-182.8042069110533
 30
0.0
 11
-104.5000000000127
 21
-186.0423004415343
 31
0.0
  0
LINE
  5
2A08
330
3433
100
AcDbEntity
  8
0
 62
     0
100
AcDbLine
 10
-104.500000000009
 20
-176.0423486974023
 30
0.0
 11
111.2999999999847
 21
-278.8041992677845
 31
0.0
  0
LINE
  5
2A09
330
3433
100
AcDbEntity
  8
0
 62
     0
100
AcDbLine
 10
-111.3000000000083
 20
-172.8042551669177
 30
0.0
 11
-104.5000000000127
 21
-176.0423486974005
 31
0.0
  0
LINE
  5
2A0A
330
3433
100
AcDbEntity
  8
0
 62
     0
100
AcDbLine
 10
-104.5000000000054
 20
-166.0423969532685
 30
0.0
 11
111.2999999999883
 21
-268.8042475236507
 31
0.0
  0
LINE
  5
2A0B
330
3433
100
AcDbEntity
  8
0
 62
     0
100
AcDbLine
 10
-111.3000000000047
 20
-162.8043034227839
 30
0.0
 11
-104.5000000000127
 21
-166.0423969532649
 31
0.0
  0
LINE
  5
2A0C
330
3433
100
AcDbEntity
  8
0
 62
     0
100
AcDbLine
 10
-104.5000000000072
 20
-156.0424452091329
 30
0.0
 11
111.2999999999865
 21
-258.8042957795151
 31
0.0
  0
LINE
  5
2A0D
330
3433
100
AcDbEntity
  8
0
 62
     0
100
AcDbLine
 10
-111.3000000000065
 20
-152.8043516786483
 30
0.0
 11
-104.5000000000109
 21
-156.0424452091311
 31
0.0
  0
LINE
  5
2A0E
330
3433
100
AcDbEntity
  8
0
 62
     0
100
AcDbLine
 10
-100.4031567455549
 20
-147.9933701764184
 30
0.0
 11
111.2999999999865
 21
-248.8043440353813
 31
0.0
  0
LINE
  5
2A0F
330
3433
100
AcDbEntity
  8
0
 62
     0
100
AcDbLine
 10
-79.40324700856582
 20
-147.9933701764184
 30
0.0
 11
111.299999999992
 21
-238.8043922912493
 31
0.0
  0
LINE
  5
2A10
330
3433
100
AcDbEntity
  8
0
 62
     0
100
AcDbLine
 10
-58.40333727157485
 20
-147.9933701764184
 30
0.0
 11
111.2999999999883
 21
-228.8044405471137
 31
0.0
  0
LINE
  5
2A11
330
3433
100
AcDbEntity
  8
0
 62
     0
100
AcDbLine
 10
-37.4034275345839
 20
-147.9933701764184
 30
0.0
 11
111.2999999999902
 21
-218.8044888029799
 31
0.0
  0
LINE
  5
2A12
330
3433
100
AcDbEntity
  8
0
 62
     0
100
AcDbLine
 10
-16.40351779759112
 20
-147.9933701764184
 30
0.0
 11
111.2999999999902
 21
-208.8045370588443
 31
0.0
  0
LINE
  5
2A13
330
3433
100
AcDbEntity
  8
0
 62
     0
100
AcDbLine
 10
4.596391939398014
 20
-147.9933701764184
 30
0.0
 11
111.2999999999902
 21
-198.8045853147104
 31
0.0
  0
LINE
  5
2A14
330
3433
100
AcDbEntity
  8
0
 62
     0
100
AcDbLine
 10
25.59630167638898
 20
-147.9933701764194
 30
0.0
 11
111.2999999999902
 21
-188.8046335705767
 31
0.0
  0
LINE
  5
2A15
330
3433
100
AcDbEntity
  8
0
 62
     0
100
AcDbLine
 10
46.59621141338173
 20
-147.9933701764194
 30
0.0
 11
111.299999999992
 21
-178.8046818264429
 31
0.0
  0
LINE
  5
2A16
330
3433
100
AcDbEntity
  8
0
 62
     0
100
AcDbLine
 10
67.59612115037089
 20
-147.9933701764194
 30
0.0
 11
111.2999999999883
 21
-168.8047300823073
 31
0.0
  0
LINE
  5
2A17
330
3433
100
AcDbEntity
  8
0
 62
     0
100
AcDbLine
 10
88.59603088736369
 20
-147.9933701764194
 30
0.0
 11
111.299999999992
 21
-158.8047783381734
 31
0.0
  0
LINE
  5
2A18
330
3433
100
AcDbEntity
  8
0
 62
     0
100
AcDbLine
 10
109.5959406243546
 20
-147.9933701764194
 30
0.0
 11
111.2999999999902
 21
-148.8048265940379
 31
0.0
  0
ENDBLK
  5
2A19
330
3433
100
AcDbEntity
  8
0
100
AcDbBlockEnd
  0
BLOCK
  5
3436
330
3435
100
AcDbEntity
  8
0
100
AcDbBlockBegin
  2
*X27
 70
     1
 10
0.0
 20
0.0
 30
0.0
  3
*X27
  1

  0
LINE
  5
2A1C
330
3435
100
AcDbEntity
  8
0
 62
     0
100
AcDbLine
 10
106.3545697506306
 20
-415.0080808011996
 30
0.0
 11
111.2999999999992
 21
-412.6531152576799
 31
0.0
  0
LINE
  5
2A1D
330
3435
100
AcDbEntity
  8
0
 62
     0
100
AcDbLine
 10
85.35466001363966
 20
-415.0080808012007
 30
0.0
 11
111.3000000000029
 21
-402.6531635135452
 31
0.0
  0
LINE
  5
2A1E
330
3435
100
AcDbEntity
  8
0
 62
     0
100
AcDbLine
 10
64.3547502766487
 20
-415.0080808012007
 30
0.0
 11
111.2999999999956
 21
-392.6532117694114
 31
0.0
  0
LINE
  5
2A1F
330
3435
100
AcDbEntity
  8
0
 62
     0
100
AcDbLine
 10
43.35484053965774
 20
-415.0080808012007
 30
0.0
 11
111.2999999999992
 21
-382.6532600252758
 31
0.0
  0
LINE
  5
2A20
330
3435
100
AcDbEntity
  8
0
 62
     0
100
AcDbLine
 10
22.35493080266316
 20
-415.0080808012017
 30
0.0
 11
111.2999999999956
 21
-372.6533082811429
 31
0.0
  0
LINE
  5
2A21
330
3435
100
AcDbEntity
  8
0
 62
     0
100
AcDbLine
 10
1.355021065675827
 20
-415.0080808011996
 30
0.0
 11
111.2999999999992
 21
-362.6533565370072
 31
0.0
  0
LINE
  5
2A22
330
3435
100
AcDbEntity
  8
0
 62
     0
100
AcDbLine
 10
-19.64488867131149
 20
-415.0080808012007
 30
0.0
 11
111.2999999999992
 21
-352.6534047928744
 31
0.0
  0
LINE
  5
2A23
330
3435
100
AcDbEntity
  8
0
 62
     0
100
AcDbLine
 10
-40.64479840830609
 20
-415.0080808012007
 30
0.0
 11
111.2999999999956
 21
-342.6534530487388
 31
0.0
  0
LINE
  5
2A24
330
3435
100
AcDbEntity
  8
0
 62
     0
100
AcDbLine
 10
92.10626524737014
 20
-341.7933701764159
 30
0.0
 11
111.2999999999956
 21
-332.6535013046051
 31
0.0
  0
LINE
  5
2A25
330
3435
100
AcDbEntity
  8
0
 62
     0
100
AcDbLine
 10
-61.64470814529703
 20
-415.0080808012007
 30
0.0
 11
92.10626524737014
 21
-341.7933701764159
 31
0.0
  0
LINE
  5
2A26
330
3435
100
AcDbEntity
  8
0
 62
     0
100
AcDbLine
 10
71.10635551037922
 20
-341.7933701764168
 30
0.0
 11
111.2999999999992
 21
-322.6535495604703
 31
0.0
  0
LINE
  5
2A27
330
3435
100
AcDbEntity
  8
0
 62
     0
100
AcDbLine
 10
-82.64461788228436
 20
-415.0080808012017
 30
0.0
 11
71.10635551037922
 21
-341.7933701764168
 31
0.0
  0
LINE
  5
2A28
330
3435
100
AcDbEntity
  8
0
 62
     0
100
AcDbLine
 10
50.10644577338462
 20
-341.7933701764168
 30
0.0
 11
111.2999999999992
 21
-312.6535978163347
 31
0.0
  0
LINE
  5
2A29
330
3435
100
AcDbEntity
  8
0
 62
     0
100
AcDbLine
 10
-103.6445276192752
 20
-415.0080808011996
 30
0.0
 11
50.10644577338462
 21
-341.7933701764168
 31
0.0
  0
LINE
  5
2A2A
330
3435
100
AcDbEntity
  8
0
 62
     0
100
AcDbLine
 10
29.1065360363973
 20
-341.7933701764168
 30
0.0
 11
111.2999999999992
 21
-302.6536460722009
 31
0.0
  0
LINE
  5
2A2B
330
3435
100
AcDbEntity
  8
0
 62
     0
100
AcDbLine
 10
-111.2999999999992
 20
-408.6535901730685
 30
0.0
 11
29.1065360363973
 21
-341.7933701764168
 31
0.0
  0
LINE
  5
2A2C
330
3435
100
AcDbEntity
  8
0
 62
     0
100
AcDbLine
 10
8.106626299406341
 20
-341.7933701764177
 30
0.0
 11
111.2999999999992
 21
-292.6536943280662
 31
0.0
  0
LINE
  5
2A2D
330
3435
100
AcDbEntity
  8
0
 62
     0
100
AcDbLine
 10
-111.2999999999956
 20
-398.6536384289339
 30
0.0
 11
8.106626299406341
 21
-341.7933701764177
 31
0.0
  0
LINE
  5
2A2E
330
3435
100
AcDbEntity
  8
0
 62
     0
100
AcDbLine
 10
-12.89328343758461
 20
-341.7933701764159
 30
0.0
 11
111.2999999999956
 21
-282.6537425839324
 31
0.0
  0
LINE
  5
2A2F
330
3435
100
AcDbEntity
  8
0
 62
     0
100
AcDbLine
 10
-111.2999999999992
 20
-388.6536866848
 30
0.0
 11
-12.89328343758461
 21
-341.7933701764159
 31
0.0
  0
LINE
  5
2A30
330
3435
100
AcDbEntity
  8
0
 62
     0
100
AcDbLine
 10
-33.89319317457193
 20
-341.7933701764168
 30
0.0
 11
111.2999999999992
 21
-272.6537908397977
 31
0.0
  0
LINE
  5
2A31
330
3435
100
AcDbEntity
  8
0
 62
     0
100
AcDbLine
 10
-111.2999999999992
 20
-378.6537349406653
 30
0.0
 11
-33.89319317457193
 21
-341.7933701764168
 31
0.0
  0
LINE
  5
2A32
330
3435
100
AcDbEntity
  8
0
 62
     0
100
AcDbLine
 10
-54.89310291156654
 20
-341.7933701764168
 30
0.0
 11
111.2999999999956
 21
-262.6538390956639
 31
0.0
  0
LINE
  5
2A33
330
3435
100
AcDbEntity
  8
0
 62
     0
100
AcDbLine
 10
-111.3000000000029
 20
-368.6537831965316
 30
0.0
 11
-54.89310291156654
 21
-341.7933701764168
 31
0.0
  0
LINE
  5
2A34
330
3435
100
AcDbEntity
  8
0
 62
     0
100
AcDbLine
 10
-75.89301264855386
 20
-341.793370176415
 30
0.0
 11
111.2999999999992
 21
-252.6538873515283
 31
0.0
  0
LINE
  5
2A35
330
3435
100
AcDbEntity
  8
0
 62
     0
100
AcDbLine
 10
-111.2999999999992
 20
-358.6538314523959
 30
0.0
 11
-75.89301264855747
 21
-341.7933701764168
 31
0.0
  0
LINE
  5
2A36
330
3435
100
AcDbEntity
  8
0
 62
     0
100
AcDbLine
 10
-96.89292238554479
 20
-341.7933701764159
 30
0.0
 11
111.2999999999992
 21
-242.6539356073936
 31
0.0
  0
LINE
  5
2A37
330
3435
100
AcDbEntity
  8
0
 62
     0
100
AcDbLine
 10
-111.2999999999956
 20
-348.6538797082612
 30
0.0
 11
-96.89292238554845
 21
-341.7933701764177
 31
0.0
  0
LINE
  5
2A38
330
3435
100
AcDbEntity
  8
0
 62
     0
100
AcDbLine
 10
-104.4999999999963
 20
-335.4158344336429
 30
0.0
 11
111.2999999999992
 21
-232.6539838632598
 31
0.0
  0
LINE
  5
2A39
330
3435
100
AcDbEntity
  8
0
 62
     0
100
AcDbLine
 10
-111.2999999999956
 20
-338.6539279641274
 30
0.0
 11
-104.4999999999963
 21
-335.4158344336429
 31
0.0
  0
LINE
  5
2A3A
330
3435
100
AcDbEntity
  8
0
 62
     0
100
AcDbLine
 10
-104.5000000000036
 20
-325.4158826895089
 30
0.0
 11
111.2999999999992
 21
-222.6540321191242
 31
0.0
  0
LINE
  5
2A3B
330
3435
100
AcDbEntity
  8
0
 62
     0
100
AcDbLine
 10
-111.2999999999992
 20
-328.6539762199918
 30
0.0
 11
-104.5000000000036
 21
-325.4158826895089
 31
0.0
  0
LINE
  5
2A3C
330
3435
100
AcDbEntity
  8
0
 62
     0
100
AcDbLine
 10
-104.5
 20
-315.4159309453744
 30
0.0
 11
111.2999999999992
 21
-212.6540803749913
 31
0.0
  0
LINE
  5
2A3D
330
3435
100
AcDbEntity
  8
0
 62
     0
100
AcDbLine
 10
-111.2999999999992
 20
-318.6540244758589
 30
0.0
 11
-104.5
 21
-315.4159309453744
 31
0.0
  0
LINE
  5
2A3E
330
3435
100
AcDbEntity
  8
0
 62
     0
100
AcDbLine
 10
-104.5
 20
-305.4159792012406
 30
0.0
 11
111.2999999999956
 21
-202.6541286308557
 31
0.0
  0
LINE
  5
2A3F
330
3435
100
AcDbEntity
  8
0
 62
     0
100
AcDbLine
 10
-111.2999999999992
 20
-308.6540727317232
 30
0.0
 11
-104.5
 21
-305.4159792012406
 31
0.0
  0
LINE
  5
2A40
330
3435
100
AcDbEntity
  8
0
 62
     0
100
AcDbLine
 10
-104.5
 20
-295.4160274571077
 30
0.0
 11
111.2999999999956
 21
-192.6541768867228
 31
0.0
  0
LINE
  5
2A41
330
3435
100
AcDbEntity
  8
0
 62
     0
100
AcDbLine
 10
-111.2999999999992
 20
-298.6541209875904
 30
0.0
 11
-104.5
 21
-295.4160274571077
 31
0.0
  0
LINE
  5
2A42
330
3435
100
AcDbEntity
  8
0
 62
     0
100
AcDbLine
 10
-104.5
 20
-285.4160757129721
 30
0.0
 11
111.2999999999992
 21
-182.6542251425872
 31
0.0
  0
LINE
  5
2A43
330
3435
100
AcDbEntity
  8
0
 62
     0
100
AcDbLine
 10
-111.2999999999956
 20
-288.6541692434548
 30
0.0
 11
-104.5
 21
-285.4160757129721
 31
0.0
  0
LINE
  5
2A44
330
3435
100
AcDbEntity
  8
0
 62
     0
100
AcDbLine
 10
-104.5000000000036
 20
-275.4161239688383
 30
0.0
 11
111.2999999999956
 21
-172.6542733984534
 31
0.0
  0
LINE
  5
2A45
330
3435
100
AcDbEntity
  8
0
 62
     0
100
AcDbLine
 10
-111.3000000000029
 20
-278.654217499321
 30
0.0
 11
-104.5000000000036
 21
-275.4161239688383
 31
0.0
  0
LINE
  5
2A46
330
3435
100
AcDbEntity
  8
0
 62
     0
100
AcDbLine
 10
-104.5
 20
-265.4161722247036
 30
0.0
 11
111.2999999999992
 21
-162.6543216543186
 31
0.0
  0
LINE
  5
2A47
330
3435
100
AcDbEntity
  8
0
 62
     0
100
AcDbLine
 10
-111.2999999999992
 20
-268.6542657551863
 30
0.0
 11
-104.5
 21
-265.4161722247036
 31
0.0
  0
LINE
  5
2A48
330
3435
100
AcDbEntity
  8
0
 62
     0
100
AcDbLine
 10
-104.5
 20
-255.4162204805707
 30
0.0
 11
111.2999999999992
 21
-152.6543699101839
 31
0.0
  0
LINE
  5
2A49
330
3435
100
AcDbEntity
  8
0
 62
     0
100
AcDbLine
 10
-111.2999999999956
 20
-258.6543140110534
 30
0.0
 11
-104.5
 21
-255.4162204805707
 31
0.0
  0
LINE
  5
2A4A
330
3435
100
AcDbEntity
  8
0
 62
     0
100
AcDbLine
 10
-104.5
 20
-245.4162687364351
 30
0.0
 11
100.0881948656788
 21
-147.9933701764166
 31
0.0
  0
LINE
  5
2A4B
330
3435
100
AcDbEntity
  8
0
 62
     0
100
AcDbLine
 10
-111.2999999999992
 20
-248.6543622669178
 30
0.0
 11
-104.5
 21
-245.4162687364351
 31
0.0
  0
LINE
  5
2A4C
330
3435
100
AcDbEntity
  8
0
 62
     0
100
AcDbLine
 10
-104.5
 20
-235.4163169923013
 30
0.0
 11
79.08828512868787
 21
-147.9933701764166
 31
0.0
  0
LINE
  5
2A4D
330
3435
100
AcDbEntity
  8
0
 62
     0
100
AcDbLine
 10
-111.2999999999956
 20
-238.654410522784
 30
0.0
 11
-104.5000000000036
 21
-235.4163169923013
 31
0.0
  0
LINE
  5
2A4E
330
3435
100
AcDbEntity
  8
0
 62
     0
100
AcDbLine
 10
-104.5
 20
-225.4163652481657
 30
0.0
 11
58.0883753916969
 21
-147.9933701764166
 31
0.0
  0
LINE
  5
2A4F
330
3435
100
AcDbEntity
  8
0
 62
     0
100
AcDbLine
 10
-111.2999999999992
 20
-228.6544587786502
 30
0.0
 11
-104.5000000000036
 21
-225.4163652481675
 31
0.0
  0
LINE
  5
2A50
330
3435
100
AcDbEntity
  8
0
 62
     0
100
AcDbLine
 10
-104.5
 20
-215.41641350403
 30
0.0
 11
37.0884656547023
 21
-147.9933701764166
 31
0.0
  0
LINE
  5
2A51
330
3435
100
AcDbEntity
  8
0
 62
     0
100
AcDbLine
 10
-111.2999999999992
 20
-218.6545070345146
 30
0.0
 11
-104.5000000000072
 21
-215.4164135040319
 31
0.0
  0
LINE
  5
2A52
330
3435
100
AcDbEntity
  8
0
 62
     0
100
AcDbLine
 10
-104.5
 20
-205.4164617598963
 30
0.0
 11
16.08855591771498
 21
-147.9933701764166
 31
0.0
  0
LINE
  5
2A53
330
3435
100
AcDbEntity
  8
0
 62
     0
100
AcDbLine
 10
-111.2999999999992
 20
-208.6545552903808
 30
0.0
 11
-104.5000000000036
 21
-205.4164617598981
 31
0.0
  0
LINE
  5
2A54
330
3435
100
AcDbEntity
  8
0
 62
     0
100
AcDbLine
 10
-104.5
 20
-195.4165100157606
 30
0.0
 11
-4.911353819279611
 21
-147.9933701764166
 31
0.0
  0
LINE
  5
2A55
330
3435
100
AcDbEntity
  8
0
 62
     0
100
AcDbLine
 10
-111.2999999999992
 20
-198.6546035462452
 30
0.0
 11
-104.5000000000036
 21
-195.4165100157625
 31
0.0
  0
LINE
  5
2A56
330
3435
100
AcDbEntity
  8
0
 62
     0
100
AcDbLine
 10
-104.5000000000036
 20
-185.4165582716287
 30
0.0
 11
-25.91126355627057
 21
-147.9933701764184
 31
0.0
  0
LINE
  5
2A57
330
3435
100
AcDbEntity
  8
0
 62
     0
100
AcDbLine
 10
-111.2999999999992
 20
-188.6546518021132
 30
0.0
 11
-104.5000000000036
 21
-185.4165582716304
 31
0.0
  0
LINE
  5
2A58
330
3435
100
AcDbEntity
  8
0
 62
     0
100
AcDbLine
 10
-104.5
 20
-175.416606527493
 30
0.0
 11
-46.91117329325789
 21
-147.9933701764184
 31
0.0
  0
LINE
  5
2A59
330
3435
100
AcDbEntity
  8
0
 62
     0
100
AcDbLine
 10
-111.2999999999992
 20
-178.6547000579776
 30
0.0
 11
-104.5000000000036
 21
-175.4166065274949
 31
0.0
  0
LINE
  5
2A5A
330
3435
100
AcDbEntity
  8
0
 62
     0
100
AcDbLine
 10
-104.5
 20
-165.4166547833592
 30
0.0
 11
-67.91108303024884
 21
-147.9933701764184
 31
0.0
  0
LINE
  5
2A5B
330
3435
100
AcDbEntity
  8
0
 62
     0
100
AcDbLine
 10
-111.2999999999956
 20
-168.654748313842
 30
0.0
 11
-104.5000000000036
 21
-165.4166547833611
 31
0.0
  0
LINE
  5
2A5C
330
3435
100
AcDbEntity
  8
0
 62
     0
100
AcDbLine
 10
-104.5
 20
-155.4167030392255
 30
0.0
 11
-88.91099276723982
 21
-147.9933701764184
 31
0.0
  0
LINE
  5
2A5D
330
3435
100
AcDbEntity
  8
0
 62
     0
100
AcDbLine
 10
-111.2999999999992
 20
-158.65479656971
 30
0.0
 11
-104.5000000000036
 21
-155.4167030392273
 31
0.0
  0
LINE
  5
2A5E
330
3435
100
AcDbEntity
  8
0
 62
     0
100
AcDbLine
 10
-111.2999999999956
 20
-148.6548448255744
 30
0.0
 11
-109.9109025042307
 21
-147.9933701764184
 31
0.0
  0
ENDBLK
  5
2A5F
330
3435
100
AcDbEntity
  8
0
100
AcDbBlockEnd
  0
BLOCK
  5
3438
330
3437
100
AcDbEntity
  8
0
100
AcDbBlockBegin
  2
*U28
 70
     1
 10
0.0
 20
0.0
 30
0.0
  3
*U28
  1

  0
INSERT
  5
2A62
330
3437
100
AcDbEntity
  8
NOTE
100
AcDbBlockReference
  2
_OPEN30
 10
-140.0
 20
0.0000000000004547
 30
0.0
 41
12.0
 42
12.0
 43
12.0
 50
312.6090116116894
  0
POLYLINE
  5
2A63
330
3437
100
AcDbEntity
  8
NOTE
100
AcDb2dPolyline
 66
     1
 10
0.0
 20
0.0
 30
0.0
  0
VERTEX
  5
2A64
330
2A63
100
AcDbEntity
  8
NOTE
100
AcDbVertex
100
AcDb2dVertex
 10
-148.1239008361894
 20
8.831887408915928
 30
0.0
  0
VERTEX
  5
2A65
330
2A63
100
AcDbEntity
  8
NOTE
100
AcDbVertex
100
AcDb2dVertex
 10
-227.8693999922543
 20
95.52709505801384
 30
0.0
  0
VERTEX
  5
2A66
330
2A63
100
AcDbEntity
  8
NOTE
100
AcDbVertex
100
AcDb2dVertex
 10
-776.4522571351115
 20
95.52709505801384
 30
0.0
  0
SEQEND
  5
2A67
330
2A63
100
AcDbEntity
  8
NOTE
  0
ENDBLK
  5
2A68
330
3437
100
AcDbEntity
  8
0
100
AcDbBlockEnd
  0
BLOCK
  5
343A
330
3439
100
AcDbEntity
  8
0
100
AcDbBlockBegin
  2
*X29
 70
     1
 10
0.0
 20
0.0
 30
0.0
  3
*X29
  1

  0
LINE
  5
2A6B
330
3439
100
AcDbEntity
  8
0
 62
     0
100
AcDbLine
 10
-111.3000000000047
 20
-412.8030970261443
 30
0.0
 11
-106.6695316305049
 21
-415.0080808012017
 31
0.0
  0
LINE
  5
2A6C
330
3439
100
AcDbEntity
  8
0
 62
     0
100
AcDbLine
 10
-111.3000000000065
 20
-402.8031452820105
 30
0.0
 11
-85.66962189351579
 21
-415.0080808012035
 31
0.0
  0
LINE
  5
2A6D
330
3439
100
AcDbEntity
  8
0
 62
     0
100
AcDbLine
 10
-111.3000000000047
 20
-392.8031935378767
 30
0.0
 11
-64.66971215652304
 21
-415.0080808012035
 31
0.0
  0
LINE
  5
2A6E
330
3439
100
AcDbEntity
  8
0
 62
     0
100
AcDbLine
 10
-111.3000000000065
 20
-382.8032417937412
 30
0.0
 11
-43.66980241953569
 21
-415.0080808012017
 31
0.0
  0
LINE
  5
2A6F
330
3439
100
AcDbEntity
  8
0
 62
     0
100
AcDbLine
 10
-111.3000000000047
 20
-372.8032900496073
 30
0.0
 11
-22.66989268254475
 21
-415.0080808012017
 31
0.0
  0
LINE
  5
2A70
330
3439
100
AcDbEntity
  8
0
 62
     0
100
AcDbLine
 10
-111.3000000000065
 20
-362.8033383054717
 30
0.0
 11
-1.669982945553782
 21
-415.0080808012017
 31
0.0
  0
LINE
  5
2A71
330
3439
100
AcDbEntity
  8
0
 62
     0
100
AcDbLine
 10
-111.3000000000065
 20
-352.8033865613379
 30
0.0
 11
19.32992679143898
 21
-415.0080808012035
 31
0.0
  0
LINE
  5
2A72
330
3439
100
AcDbEntity
  8
0
 62
     0
100
AcDbLine
 10
-111.3000000000065
 20
-342.8034348172041
 30
0.0
 11
40.32983652842449
 21
-415.0080808012017
 31
0.0
  0
LINE
  5
2A73
330
3439
100
AcDbEntity
  8
0
 62
     0
100
AcDbLine
 10
-104.5000000000072
 20
-336.0415766035529
 30
0.0
 11
-92.42122712724812
 21
-341.7933701764177
 31
0.0
  0
LINE
  5
2A74
330
3439
100
AcDbEntity
  8
0
 62
     0
100
AcDbLine
 10
-92.42122712724812
 20
-341.7933701764177
 30
0.0
 11
61.32974626541908
 21
-415.0080808012017
 31
0.0
  0
LINE
  5
2A75
330
3439
100
AcDbEntity
  8
0
 62
     0
100
AcDbLine
 10
-111.3000000000065
 20
-332.8034830730694
 30
0.0
 11
-104.5000000000072
 21
-336.0415766035529
 31
0.0
  0
LINE
  5
2A76
330
3439
100
AcDbEntity
  8
0
 62
     0
100
AcDbLine
 10
-104.5000000000054
 20
-326.0416248594192
 30
0.0
 11
-71.42131739025717
 21
-341.7933701764177
 31
0.0
  0
LINE
  5
2A77
330
3439
100
AcDbEntity
  8
0
 62
     0
100
AcDbLine
 10
-71.42131739025717
 20
-341.7933701764177
 30
0.0
 11
82.3296560024082
 21
-415.0080808012017
 31
0.0
  0
LINE
  5
2A78
330
3439
100
AcDbEntity
  8
0
 62
     0
100
AcDbLine
 10
-111.3000000000047
 20
-322.8035313289347
 30
0.0
 11
-104.5000000000054
 21
-326.0416248594192
 31
0.0
  0
LINE
  5
2A79
330
3439
100
AcDbEntity
  8
0
 62
     0
100
AcDbLine
 10
-104.500000000009
 20
-316.0416731152836
 30
0.0
 11
-50.42140765326802
 21
-341.7933701764177
 31
0.0
  0
LINE
  5
2A7A
330
3439
100
AcDbEntity
  8
0
 62
     0
100
AcDbLine
 10
-50.42140765326802
 20
-341.7933701764177
 30
0.0
 11
103.3295657393992
 21
-415.0080808012007
 31
0.0
  0
LINE
  5
2A7B
330
3439
100
AcDbEntity
  8
0
 62
     0
100
AcDbLine
 10
-111.3000000000083
 20
-312.8035795848
 30
0.0
 11
-104.500000000009
 21
-316.0416731152836
 31
0.0
  0
LINE
  5
2A7C
330
3439
100
AcDbEntity
  8
0
 62
     0
100
AcDbLine
 10
-104.5000000000072
 20
-306.041721371148
 30
0.0
 11
-29.42149791627344
 21
-341.7933701764168
 31
0.0
  0
LINE
  5
2A7D
330
3439
100
AcDbEntity
  8
0
 62
     0
100
AcDbLine
 10
-29.42149791627344
 20
-341.7933701764168
 30
0.0
 11
111.2999999999902
 21
-408.8035719415318
 31
0.0
  0
LINE
  5
2A7E
330
3439
100
AcDbEntity
  8
0
 62
     0
100
AcDbLine
 10
-111.3000000000029
 20
-302.8036278406653
 30
0.0
 11
-104.5000000000072
 21
-306.041721371148
 31
0.0
  0
LINE
  5
2A7F
330
3439
100
AcDbEntity
  8
0
 62
     0
100
AcDbLine
 10
-104.5000000000072
 20
-296.041769627016
 30
0.0
 11
-8.421588179284299
 21
-341.7933701764186
 31
0.0
  0
LINE
  5
2A80
330
3439
100
AcDbEntity
  8
0
 62
     0
100
AcDbLine
 10
-8.421588179284299
 20
-341.7933701764186
 30
0.0
 11
111.2999999999902
 21
-398.8036201974001
 31
0.0
  0
LINE
  5
2A81
330
3439
100
AcDbEntity
  8
0
 62
     0
100
AcDbLine
 10
-111.3000000000065
 20
-292.8036760965322
 30
0.0
 11
-104.5000000000072
 21
-296.041769627016
 31
0.0
  0
LINE
  5
2A82
330
3439
100
AcDbEntity
  8
0
 62
     0
100
AcDbLine
 10
-104.500000000009
 20
-286.0418178828804
 30
0.0
 11
12.57832155770848
 21
-341.7933701764186
 31
0.0
  0
LINE
  5
2A83
330
3439
100
AcDbEntity
  8
0
 62
     0
100
AcDbLine
 10
12.57832155770848
 20
-341.7933701764186
 30
0.0
 11
111.299999999992
 21
-388.8036684532663
 31
0.0
  0
LINE
  5
2A84
330
3439
100
AcDbEntity
  8
0
 62
     0
100
AcDbLine
 10
-111.3000000000047
 20
-282.8037243523986
 30
0.0
 11
-104.500000000009
 21
-286.0418178828804
 31
0.0
  0
LINE
  5
2A85
330
3439
100
AcDbEntity
  8
0
 62
     0
100
AcDbLine
 10
-104.5000000000054
 20
-276.0418661387466
 30
0.0
 11
33.57823129469944
 21
-341.7933701764186
 31
0.0
  0
LINE
  5
2A86
330
3439
100
AcDbEntity
  8
0
 62
     0
100
AcDbLine
 10
33.57823129469944
 20
-341.7933701764186
 30
0.0
 11
111.299999999992
 21
-378.8037167091307
 31
0.0
  0
LINE
  5
2A87
330
3439
100
AcDbEntity
  8
0
 62
     0
100
AcDbLine
 10
-111.3000000000047
 20
-272.803772608263
 30
0.0
 11
-104.5000000000054
 21
-276.0418661387466
 31
0.0
  0
LINE
  5
2A88
330
3439
100
AcDbEntity
  8
0
 62
     0
100
AcDbLine
 10
-104.500000000009
 20
-266.0419143946119
 30
0.0
 11
54.57814103168676
 21
-341.7933701764168
 31
0.0
  0
LINE
  5
2A89
330
3439
100
AcDbEntity
  8
0
 62
     0
100
AcDbLine
 10
54.57814103168676
 20
-341.7933701764168
 30
0.0
 11
111.299999999992
 21
-368.8037649649968
 31
0.0
  0
LINE
  5
2A8A
330
3439
100
AcDbEntity
  8
0
 62
     0
100
AcDbLine
 10
-111.3000000000083
 20
-262.8038208641274
 30
0.0
 11
-104.500000000009
 21
-266.0419143946119
 31
0.0
  0
LINE
  5
2A8B
330
3439
100
AcDbEntity
  8
0
 62
     0
100
AcDbLine
 10
-104.5000000000072
 20
-256.0419626504772
 30
0.0
 11
75.57805076867406
 21
-341.793370176415
 31
0.0
  0
LINE
  5
2A8C
330
3439
100
AcDbEntity
  8
0
 62
     0
100
AcDbLine
 10
75.5780507686777
 20
-341.7933701764168
 30
0.0
 11
111.2999999999938
 21
-358.8038132208631
 31
0.0
  0
LINE
  5
2A8D
330
3439
100
AcDbEntity
  8
0
 62
     0
100
AcDbLine
 10
-111.3000000000047
 20
-252.8038691199936
 30
0.0
 11
-104.500000000009
 21
-256.0419626504763
 31
0.0
  0
LINE
  5
2A8E
330
3439
100
AcDbEntity
  8
0
 62
     0
100
AcDbLine
 10
-104.5000000000072
 20
-246.0420109063443
 30
0.0
 11
96.57796050566687
 21
-341.7933701764168
 31
0.0
  0
LINE
  5
2A8F
330
3439
100
AcDbEntity
  8
0
 62
     0
100
AcDbLine
 10
96.57796050566869
 20
-341.7933701764186
 30
0.0
 11
111.2999999999938
 21
-348.8038614767293
 31
0.0
  0
LINE
  5
2A90
330
3439
100
AcDbEntity
  8
0
 62
     0
100
AcDbLine
 10
-111.3000000000065
 20
-242.8039173758598
 30
0.0
 11
-104.5000000000072
 21
-246.0420109063443
 31
0.0
  0
LINE
  5
2A91
330
3439
100
AcDbEntity
  8
0
 62
     0
100
AcDbLine
 10
-104.5000000000072
 20
-236.0420591622096
 30
0.0
 11
111.2999999999883
 21
-338.8039097325927
 31
0.0
  0
LINE
  5
2A92
330
3439
100
AcDbEntity
  8
0
 62
     0
100
AcDbLine
 10
-111.3000000000065
 20
-232.803965631726
 30
0.0
 11
-104.5000000000127
 21
-236.0420591622069
 31
0.0
  0
LINE
  5
2A93
330
3439
100
AcDbEntity
  8
0
 62
     0
100
AcDbLine
 10
-104.5000000000072
 20
-226.0421074180749
 30
0.0
 11
111.2999999999865
 21
-328.8039579884571
 31
0.0
  0
LINE
  5
2A94
330
3439
100
AcDbEntity
  8
0
 62
     0
100
AcDbLine
 10
-111.3000000000065
 20
-222.8040138875904
 30
0.0
 11
-104.5000000000109
 21
-226.0421074180731
 31
0.0
  0
LINE
  5
2A95
330
3439
100
AcDbEntity
  8
0
 62
     0
100
AcDbLine
 10
-104.500000000009
 20
-216.0421556739393
 30
0.0
 11
111.2999999999865
 21
-318.8040062443215
 31
0.0
  0
LINE
  5
2A96
330
3439
100
AcDbEntity
  8
0
 62
     0
100
AcDbLine
 10
-111.3000000000047
 20
-212.8040621434566
 30
0.0
 11
-104.5000000000127
 21
-216.0421556739374
 31
0.0
  0
LINE
  5
2A97
330
3439
100
AcDbEntity
  8
0
 62
     0
100
AcDbLine
 10
-104.500000000009
 20
-206.0422039298055
 30
0.0
 11
111.2999999999865
 21
-308.8040545001877
 31
0.0
  0
LINE
  5
2A98
330
3439
100
AcDbEntity
  8
0
 62
     0
100
AcDbLine
 10
-111.3000000000065
 20
-202.804110399321
 30
0.0
 11
-104.5000000000109
 21
-206.0422039298037
 31
0.0
  0
LINE
  5
2A99
330
3439
100
AcDbEntity
  8
0
 62
     0
100
AcDbLine
 10
-104.500000000009
 20
-196.0422521856717
 30
0.0
 11
111.2999999999847
 21
-298.8041027560539
 31
0.0
  0
LINE
  5
2A9A
330
3439
100
AcDbEntity
  8
0
 62
     0
100
AcDbLine
 10
-111.3000000000047
 20
-192.804158655189
 30
0.0
 11
-104.5000000000127
 21
-196.0422521856698
 31
0.0
  0
LINE
  5
2A9B
330
3439
100
AcDbEntity
  8
0
 62
     0
100
AcDbLine
 10
-104.5000000000072
 20
-186.0423004415378
 30
0.0
 11
111.2999999999883
 21
-288.8041510119201
 31
0.0
  0
LINE
  5
2A9C
330
3439
100
AcDbEntity
  8
0
 62
     0
100
AcDbLine
 10
-111.3000000000065
 20
-182.8042069110533
 30
0.0
 11
-104.5000000000127
 21
-186.0423004415343
 31
0.0
  0
LINE
  5
2A9D
330
3439
100
AcDbEntity
  8
0
 62
     0
100
AcDbLine
 10
-104.500000000009
 20
-176.0423486974023
 30
0.0
 11
111.2999999999847
 21
-278.8041992677845
 31
0.0
  0
LINE
  5
2A9E
330
3439
100
AcDbEntity
  8
0
 62
     0
100
AcDbLine
 10
-111.3000000000083
 20
-172.8042551669177
 30
0.0
 11
-104.5000000000127
 21
-176.0423486974005
 31
0.0
  0
LINE
  5
2A9F
330
3439
100
AcDbEntity
  8
0
 62
     0
100
AcDbLine
 10
-104.5000000000054
 20
-166.0423969532685
 30
0.0
 11
111.2999999999883
 21
-268.8042475236507
 31
0.0
  0
LINE
  5
2AA0
330
3439
100
AcDbEntity
  8
0
 62
     0
100
AcDbLine
 10
-111.3000000000047
 20
-162.8043034227839
 30
0.0
 11
-104.5000000000127
 21
-166.0423969532649
 31
0.0
  0
LINE
  5
2AA1
330
3439
100
AcDbEntity
  8
0
 62
     0
100
AcDbLine
 10
-104.5000000000072
 20
-156.0424452091329
 30
0.0
 11
111.2999999999865
 21
-258.8042957795151
 31
0.0
  0
LINE
  5
2AA2
330
3439
100
AcDbEntity
  8
0
 62
     0
100
AcDbLine
 10
-111.3000000000065
 20
-152.8043516786483
 30
0.0
 11
-104.5000000000109
 21
-156.0424452091311
 31
0.0
  0
LINE
  5
2AA3
330
3439
100
AcDbEntity
  8
0
 62
     0
100
AcDbLine
 10
-100.4031567455549
 20
-147.9933701764184
 30
0.0
 11
111.2999999999865
 21
-248.8043440353813
 31
0.0
  0
LINE
  5
2AA4
330
3439
100
AcDbEntity
  8
0
 62
     0
100
AcDbLine
 10
-79.40324700856582
 20
-147.9933701764184
 30
0.0
 11
111.299999999992
 21
-238.8043922912493
 31
0.0
  0
LINE
  5
2AA5
330
3439
100
AcDbEntity
  8
0
 62
     0
100
AcDbLine
 10
-58.40333727157485
 20
-147.9933701764184
 30
0.0
 11
111.2999999999883
 21
-228.8044405471137
 31
0.0
  0
LINE
  5
2AA6
330
3439
100
AcDbEntity
  8
0
 62
     0
100
AcDbLine
 10
-37.4034275345839
 20
-147.9933701764184
 30
0.0
 11
111.2999999999902
 21
-218.8044888029799
 31
0.0
  0
LINE
  5
2AA7
330
3439
100
AcDbEntity
  8
0
 62
     0
100
AcDbLine
 10
-16.40351779759112
 20
-147.9933701764184
 30
0.0
 11
111.2999999999902
 21
-208.8045370588443
 31
0.0
  0
LINE
  5
2AA8
330
3439
100
AcDbEntity
  8
0
 62
     0
100
AcDbLine
 10
4.596391939398014
 20
-147.9933701764184
 30
0.0
 11
111.2999999999902
 21
-198.8045853147104
 31
0.0
  0
LINE
  5
2AA9
330
3439
100
AcDbEntity
  8
0
 62
     0
100
AcDbLine
 10
25.59630167638898
 20
-147.9933701764194
 30
0.0
 11
111.2999999999902
 21
-188.8046335705767
 31
0.0
  0
LINE
  5
2AAA
330
3439
100
AcDbEntity
  8
0
 62
     0
100
AcDbLine
 10
46.59621141338173
 20
-147.9933701764194
 30
0.0
 11
111.299999999992
 21
-178.8046818264429
 31
0.0
  0
LINE
  5
2AAB
330
3439
100
AcDbEntity
  8
0
 62
     0
100
AcDbLine
 10
67.59612115037089
 20
-147.9933701764194
 30
0.0
 11
111.2999999999883
 21
-168.8047300823073
 31
0.0
  0
LINE
  5
2AAC
330
3439
100
AcDbEntity
  8
0
 62
     0
100
AcDbLine
 10
88.59603088736369
 20
-147.9933701764194
 30
0.0
 11
111.299999999992
 21
-158.8047783381734
 31
0.0
  0
LINE
  5
2AAD
330
3439
100
AcDbEntity
  8
0
 62
     0
100
AcDbLine
 10
109.5959406243546
 20
-147.9933701764194
 30
0.0
 11
111.2999999999902
 21
-148.8048265940379
 31
0.0
  0
ENDBLK
  5
2AAE
330
3439
100
AcDbEntity
  8
0
100
AcDbBlockEnd
  0
BLOCK
  5
343C
330
343B
100
AcDbEntity
  8
0
100
AcDbBlockBegin
  2
*X30
 70
     1
 10
0.0
 20
0.0
 30
0.0
  3
*X30
  1

  0
LINE
  5
2AB1
330
343B
100
AcDbEntity
  8
0
 62
     0
100
AcDbLine
 10
106.3545697506306
 20
-415.0080808011996
 30
0.0
 11
111.2999999999992
 21
-412.6531152576799
 31
0.0
  0
LINE
  5
2AB2
330
343B
100
AcDbEntity
  8
0
 62
     0
100
AcDbLine
 10
85.35466001363966
 20
-415.0080808012007
 30
0.0
 11
111.3000000000029
 21
-402.6531635135452
 31
0.0
  0
LINE
  5
2AB3
330
343B
100
AcDbEntity
  8
0
 62
     0
100
AcDbLine
 10
64.3547502766487
 20
-415.0080808012007
 30
0.0
 11
111.2999999999956
 21
-392.6532117694114
 31
0.0
  0
LINE
  5
2AB4
330
343B
100
AcDbEntity
  8
0
 62
     0
100
AcDbLine
 10
43.35484053965774
 20
-415.0080808012007
 30
0.0
 11
111.2999999999992
 21
-382.6532600252758
 31
0.0
  0
LINE
  5
2AB5
330
343B
100
AcDbEntity
  8
0
 62
     0
100
AcDbLine
 10
22.35493080266316
 20
-415.0080808012017
 30
0.0
 11
111.2999999999956
 21
-372.6533082811429
 31
0.0
  0
LINE
  5
2AB6
330
343B
100
AcDbEntity
  8
0
 62
     0
100
AcDbLine
 10
1.355021065675827
 20
-415.0080808011996
 30
0.0
 11
111.2999999999992
 21
-362.6533565370072
 31
0.0
  0
LINE
  5
2AB7
330
343B
100
AcDbEntity
  8
0
 62
     0
100
AcDbLine
 10
-19.64488867131149
 20
-415.0080808012007
 30
0.0
 11
111.2999999999992
 21
-352.6534047928744
 31
0.0
  0
LINE
  5
2AB8
330
343B
100
AcDbEntity
  8
0
 62
     0
100
AcDbLine
 10
-40.64479840830609
 20
-415.0080808012007
 30
0.0
 11
111.2999999999956
 21
-342.6534530487388
 31
0.0
  0
LINE
  5
2AB9
330
343B
100
AcDbEntity
  8
0
 62
     0
100
AcDbLine
 10
92.10626524737014
 20
-341.7933701764159
 30
0.0
 11
111.2999999999956
 21
-332.6535013046051
 31
0.0
  0
LINE
  5
2ABA
330
343B
100
AcDbEntity
  8
0
 62
     0
100
AcDbLine
 10
-61.64470814529703
 20
-415.0080808012007
 30
0.0
 11
92.10626524737014
 21
-341.7933701764159
 31
0.0
  0
LINE
  5
2ABB
330
343B
100
AcDbEntity
  8
0
 62
     0
100
AcDbLine
 10
71.10635551037922
 20
-341.7933701764168
 30
0.0
 11
111.2999999999992
 21
-322.6535495604703
 31
0.0
  0
LINE
  5
2ABC
330
343B
100
AcDbEntity
  8
0
 62
     0
100
AcDbLine
 10
-82.64461788228436
 20
-415.0080808012017
 30
0.0
 11
71.10635551037922
 21
-341.7933701764168
 31
0.0
  0
LINE
  5
2ABD
330
343B
100
AcDbEntity
  8
0
 62
     0
100
AcDbLine
 10
50.10644577338462
 20
-341.7933701764168
 30
0.0
 11
111.2999999999992
 21
-312.6535978163347
 31
0.0
  0
LINE
  5
2ABE
330
343B
100
AcDbEntity
  8
0
 62
     0
100
AcDbLine
 10
-103.6445276192752
 20
-415.0080808011996
 30
0.0
 11
50.10644577338462
 21
-341.7933701764168
 31
0.0
  0
LINE
  5
2ABF
330
343B
100
AcDbEntity
  8
0
 62
     0
100
AcDbLine
 10
29.1065360363973
 20
-341.7933701764168
 30
0.0
 11
111.2999999999992
 21
-302.6536460722009
 31
0.0
  0
LINE
  5
2AC0
330
343B
100
AcDbEntity
  8
0
 62
     0
100
AcDbLine
 10
-111.2999999999992
 20
-408.6535901730685
 30
0.0
 11
29.1065360363973
 21
-341.7933701764168
 31
0.0
  0
LINE
  5
2AC1
330
343B
100
AcDbEntity
  8
0
 62
     0
100
AcDbLine
 10
8.106626299406341
 20
-341.7933701764177
 30
0.0
 11
111.2999999999992
 21
-292.6536943280662
 31
0.0
  0
LINE
  5
2AC2
330
343B
100
AcDbEntity
  8
0
 62
     0
100
AcDbLine
 10
-111.2999999999956
 20
-398.6536384289339
 30
0.0
 11
8.106626299406341
 21
-341.7933701764177
 31
0.0
  0
LINE
  5
2AC3
330
343B
100
AcDbEntity
  8
0
 62
     0
100
AcDbLine
 10
-12.89328343758461
 20
-341.7933701764159
 30
0.0
 11
111.2999999999956
 21
-282.6537425839324
 31
0.0
  0
LINE
  5
2AC4
330
343B
100
AcDbEntity
  8
0
 62
     0
100
AcDbLine
 10
-111.2999999999992
 20
-388.6536866848
 30
0.0
 11
-12.89328343758461
 21
-341.7933701764159
 31
0.0
  0
LINE
  5
2AC5
330
343B
100
AcDbEntity
  8
0
 62
     0
100
AcDbLine
 10
-33.89319317457193
 20
-341.7933701764168
 30
0.0
 11
111.2999999999992
 21
-272.6537908397977
 31
0.0
  0
LINE
  5
2AC6
330
343B
100
AcDbEntity
  8
0
 62
     0
100
AcDbLine
 10
-111.2999999999992
 20
-378.6537349406653
 30
0.0
 11
-33.89319317457193
 21
-341.7933701764168
 31
0.0
  0
LINE
  5
2AC7
330
343B
100
AcDbEntity
  8
0
 62
     0
100
AcDbLine
 10
-54.89310291156654
 20
-341.7933701764168
 30
0.0
 11
111.2999999999956
 21
-262.6538390956639
 31
0.0
  0
LINE
  5
2AC8
330
343B
100
AcDbEntity
  8
0
 62
     0
100
AcDbLine
 10
-111.3000000000029
 20
-368.6537831965316
 30
0.0
 11
-54.89310291156654
 21
-341.7933701764168
 31
0.0
  0
LINE
  5
2AC9
330
343B
100
AcDbEntity
  8
0
 62
     0
100
AcDbLine
 10
-75.89301264855386
 20
-341.793370176415
 30
0.0
 11
111.2999999999992
 21
-252.6538873515283
 31
0.0
  0
LINE
  5
2ACA
330
343B
100
AcDbEntity
  8
0
 62
     0
100
AcDbLine
 10
-111.2999999999992
 20
-358.6538314523959
 30
0.0
 11
-75.89301264855747
 21
-341.7933701764168
 31
0.0
  0
LINE
  5
2ACB
330
343B
100
AcDbEntity
  8
0
 62
     0
100
AcDbLine
 10
-96.89292238554479
 20
-341.7933701764159
 30
0.0
 11
111.2999999999992
 21
-242.6539356073936
 31
0.0
  0
LINE
  5
2ACC
330
343B
100
AcDbEntity
  8
0
 62
     0
100
AcDbLine
 10
-111.2999999999956
 20
-348.6538797082612
 30
0.0
 11
-96.89292238554845
 21
-341.7933701764177
 31
0.0
  0
LINE
  5
2ACD
330
343B
100
AcDbEntity
  8
0
 62
     0
100
AcDbLine
 10
-104.4999999999963
 20
-335.4158344336429
 30
0.0
 11
111.2999999999992
 21
-232.6539838632598
 31
0.0
  0
LINE
  5
2ACE
330
343B
100
AcDbEntity
  8
0
 62
     0
100
AcDbLine
 10
-111.2999999999956
 20
-338.6539279641274
 30
0.0
 11
-104.4999999999963
 21
-335.4158344336429
 31
0.0
  0
LINE
  5
2ACF
330
343B
100
AcDbEntity
  8
0
 62
     0
100
AcDbLine
 10
-104.5000000000036
 20
-325.4158826895089
 30
0.0
 11
111.2999999999992
 21
-222.6540321191242
 31
0.0
  0
LINE
  5
2AD0
330
343B
100
AcDbEntity
  8
0
 62
     0
100
AcDbLine
 10
-111.2999999999992
 20
-328.6539762199918
 30
0.0
 11
-104.5000000000036
 21
-325.4158826895089
 31
0.0
  0
LINE
  5
2AD1
330
343B
100
AcDbEntity
  8
0
 62
     0
100
AcDbLine
 10
-104.5
 20
-315.4159309453744
 30
0.0
 11
111.2999999999992
 21
-212.6540803749913
 31
0.0
  0
LINE
  5
2AD2
330
343B
100
AcDbEntity
  8
0
 62
     0
100
AcDbLine
 10
-111.2999999999992
 20
-318.6540244758589
 30
0.0
 11
-104.5
 21
-315.4159309453744
 31
0.0
  0
LINE
  5
2AD3
330
343B
100
AcDbEntity
  8
0
 62
     0
100
AcDbLine
 10
-104.5
 20
-305.4159792012406
 30
0.0
 11
111.2999999999956
 21
-202.6541286308557
 31
0.0
  0
LINE
  5
2AD4
330
343B
100
AcDbEntity
  8
0
 62
     0
100
AcDbLine
 10
-111.2999999999992
 20
-308.6540727317232
 30
0.0
 11
-104.5
 21
-305.4159792012406
 31
0.0
  0
LINE
  5
2AD5
330
343B
100
AcDbEntity
  8
0
 62
     0
100
AcDbLine
 10
-104.5
 20
-295.4160274571077
 30
0.0
 11
111.2999999999956
 21
-192.6541768867228
 31
0.0
  0
LINE
  5
2AD6
330
343B
100
AcDbEntity
  8
0
 62
     0
100
AcDbLine
 10
-111.2999999999992
 20
-298.6541209875904
 30
0.0
 11
-104.5
 21
-295.4160274571077
 31
0.0
  0
LINE
  5
2AD7
330
343B
100
AcDbEntity
  8
0
 62
     0
100
AcDbLine
 10
-104.5
 20
-285.4160757129721
 30
0.0
 11
111.2999999999992
 21
-182.6542251425872
 31
0.0
  0
LINE
  5
2AD8
330
343B
100
AcDbEntity
  8
0
 62
     0
100
AcDbLine
 10
-111.2999999999956
 20
-288.6541692434548
 30
0.0
 11
-104.5
 21
-285.4160757129721
 31
0.0
  0
LINE
  5
2AD9
330
343B
100
AcDbEntity
  8
0
 62
     0
100
AcDbLine
 10
-104.5000000000036
 20
-275.4161239688383
 30
0.0
 11
111.2999999999956
 21
-172.6542733984534
 31
0.0
  0
LINE
  5
2ADA
330
343B
100
AcDbEntity
  8
0
 62
     0
100
AcDbLine
 10
-111.3000000000029
 20
-278.654217499321
 30
0.0
 11
-104.5000000000036
 21
-275.4161239688383
 31
0.0
  0
LINE
  5
2ADB
330
343B
100
AcDbEntity
  8
0
 62
     0
100
AcDbLine
 10
-104.5
 20
-265.4161722247036
 30
0.0
 11
111.2999999999992
 21
-162.6543216543186
 31
0.0
  0
LINE
  5
2ADC
330
343B
100
AcDbEntity
  8
0
 62
     0
100
AcDbLine
 10
-111.2999999999992
 20
-268.6542657551863
 30
0.0
 11
-104.5
 21
-265.4161722247036
 31
0.0
  0
LINE
  5
2ADD
330
343B
100
AcDbEntity
  8
0
 62
     0
100
AcDbLine
 10
-104.5
 20
-255.4162204805707
 30
0.0
 11
111.2999999999992
 21
-152.6543699101839
 31
0.0
  0
LINE
  5
2ADE
330
343B
100
AcDbEntity
  8
0
 62
     0
100
AcDbLine
 10
-111.2999999999956
 20
-258.6543140110534
 30
0.0
 11
-104.5
 21
-255.4162204805707
 31
0.0
  0
LINE
  5
2ADF
330
343B
100
AcDbEntity
  8
0
 62
     0
100
AcDbLine
 10
-104.5
 20
-245.4162687364351
 30
0.0
 11
100.0881948656788
 21
-147.9933701764166
 31
0.0
  0
LINE
  5
2AE0
330
343B
100
AcDbEntity
  8
0
 62
     0
100
AcDbLine
 10
-111.2999999999992
 20
-248.6543622669178
 30
0.0
 11
-104.5
 21
-245.4162687364351
 31
0.0
  0
LINE
  5
2AE1
330
343B
100
AcDbEntity
  8
0
 62
     0
100
AcDbLine
 10
-104.5
 20
-235.4163169923013
 30
0.0
 11
79.08828512868787
 21
-147.9933701764166
 31
0.0
  0
LINE
  5
2AE2
330
343B
100
AcDbEntity
  8
0
 62
     0
100
AcDbLine
 10
-111.2999999999956
 20
-238.654410522784
 30
0.0
 11
-104.5000000000036
 21
-235.4163169923013
 31
0.0
  0
LINE
  5
2AE3
330
343B
100
AcDbEntity
  8
0
 62
     0
100
AcDbLine
 10
-104.5
 20
-225.4163652481657
 30
0.0
 11
58.0883753916969
 21
-147.9933701764166
 31
0.0
  0
LINE
  5
2AE4
330
343B
100
AcDbEntity
  8
0
 62
     0
100
AcDbLine
 10
-111.2999999999992
 20
-228.6544587786502
 30
0.0
 11
-104.5000000000036
 21
-225.4163652481675
 31
0.0
  0
LINE
  5
2AE5
330
343B
100
AcDbEntity
  8
0
 62
     0
100
AcDbLine
 10
-104.5
 20
-215.41641350403
 30
0.0
 11
37.0884656547023
 21
-147.9933701764166
 31
0.0
  0
LINE
  5
2AE6
330
343B
100
AcDbEntity
  8
0
 62
     0
100
AcDbLine
 10
-111.2999999999992
 20
-218.6545070345146
 30
0.0
 11
-104.5000000000072
 21
-215.4164135040319
 31
0.0
  0
LINE
  5
2AE7
330
343B
100
AcDbEntity
  8
0
 62
     0
100
AcDbLine
 10
-104.5
 20
-205.4164617598963
 30
0.0
 11
16.08855591771498
 21
-147.9933701764166
 31
0.0
  0
LINE
  5
2AE8
330
343B
100
AcDbEntity
  8
0
 62
     0
100
AcDbLine
 10
-111.2999999999992
 20
-208.6545552903808
 30
0.0
 11
-104.5000000000036
 21
-205.4164617598981
 31
0.0
  0
LINE
  5
2AE9
330
343B
100
AcDbEntity
  8
0
 62
     0
100
AcDbLine
 10
-104.5
 20
-195.4165100157606
 30
0.0
 11
-4.911353819279611
 21
-147.9933701764166
 31
0.0
  0
LINE
  5
2AEA
330
343B
100
AcDbEntity
  8
0
 62
     0
100
AcDbLine
 10
-111.2999999999992
 20
-198.6546035462452
 30
0.0
 11
-104.5000000000036
 21
-195.4165100157625
 31
0.0
  0
LINE
  5
2AEB
330
343B
100
AcDbEntity
  8
0
 62
     0
100
AcDbLine
 10
-104.5000000000036
 20
-185.4165582716287
 30
0.0
 11
-25.91126355627057
 21
-147.9933701764184
 31
0.0
  0
LINE
  5
2AEC
330
343B
100
AcDbEntity
  8
0
 62
     0
100
AcDbLine
 10
-111.2999999999992
 20
-188.6546518021132
 30
0.0
 11
-104.5000000000036
 21
-185.4165582716304
 31
0.0
  0
LINE
  5
2AED
330
343B
100
AcDbEntity
  8
0
 62
     0
100
AcDbLine
 10
-104.5
 20
-175.416606527493
 30
0.0
 11
-46.91117329325789
 21
-147.9933701764184
 31
0.0
  0
LINE
  5
2AEE
330
343B
100
AcDbEntity
  8
0
 62
     0
100
AcDbLine
 10
-111.2999999999992
 20
-178.6547000579776
 30
0.0
 11
-104.5000000000036
 21
-175.4166065274949
 31
0.0
  0
LINE
  5
2AEF
330
343B
100
AcDbEntity
  8
0
 62
     0
100
AcDbLine
 10
-104.5
 20
-165.4166547833592
 30
0.0
 11
-67.91108303024884
 21
-147.9933701764184
 31
0.0
  0
LINE
  5
2AF0
330
343B
100
AcDbEntity
  8
0
 62
     0
100
AcDbLine
 10
-111.2999999999956
 20
-168.654748313842
 30
0.0
 11
-104.5000000000036
 21
-165.4166547833611
 31
0.0
  0
LINE
  5
2AF1
330
343B
100
AcDbEntity
  8
0
 62
     0
100
AcDbLine
 10
-104.5
 20
-155.4167030392255
 30
0.0
 11
-88.91099276723982
 21
-147.9933701764184
 31
0.0
  0
LINE
  5
2AF2
330
343B
100
AcDbEntity
  8
0
 62
     0
100
AcDbLine
 10
-111.2999999999992
 20
-158.65479656971
 30
0.0
 11
-104.5000000000036
 21
-155.4167030392273
 31
0.0
  0
LINE
  5
2AF3
330
343B
100
AcDbEntity
  8
0
 62
     0
100
AcDbLine
 10
-111.2999999999956
 20
-148.6548448255744
 30
0.0
 11
-109.9109025042307
 21
-147.9933701764184
 31
0.0
  0
ENDBLK
  5
2AF4
330
343B
100
AcDbEntity
  8
0
100
AcDbBlockEnd
  0
BLOCK
  5
343E
330
343D
100
AcDbEntity
  8
0
100
AcDbBlockBegin
  2
*U31
 70
     1
 10
0.0
 20
0.0
 30
0.0
  3
*U31
  1

  0
INSERT
  5
3045
330
343D
100
AcDbEntity
  8
NOTE
100
AcDbBlockReference
  2
_OPEN30
 10
-400.0
 20
-0.000000000001819
 30
0.0
 41
12.0
 42
12.0
 43
12.0
 50
312.6090116116894
  0
POLYLINE
  5
3046
330
343D
100
AcDbEntity
  8
NOTE
100
AcDb2dPolyline
 66
     1
 10
0.0
 20
0.0
 30
0.0
  0
VERTEX
  5
3047
330
3046
100
AcDbEntity
  8
NOTE
100
AcDbVertex
100
AcDb2dVertex
 10
-408.1239008361895
 20
8.831887408913653
 30
0.0
  0
VERTEX
  5
3048
330
3046
100
AcDbEntity
  8
NOTE
100
AcDbVertex
100
AcDb2dVertex
 10
-487.8693999922543
 20
95.52709505801159
 30
0.0
  0
VERTEX
  5
3049
330
3046
100
AcDbEntity
  8
NOTE
100
AcDbVertex
100
AcDb2dVertex
 10
-1083.080828563683
 20
95.52709505801159
 30
0.0
  0
SEQEND
  5
304A
330
3046
100
AcDbEntity
  8
NOTE
  0
ENDBLK
  5
304B
330
343D
100
AcDbEntity
  8
0
100
AcDbBlockEnd
  0
BLOCK
  5
3440
330
343F
100
AcDbEntity
  8
0
100
AcDbBlockBegin
  2
*X32
 70
     1
 10
0.0
 20
0.0
 30
0.0
  3
*X32
  1

  0
LINE
  5
304E
330
343F
100
AcDbEntity
  8
0
 62
     0
100
AcDbLine
 10
-372.2999999999992
 20
-1010.762401919793
 30
0.0
 11
-362.1240201147391
 21
-1015.608104071675
 31
0.0
  0
LINE
  5
304F
330
343F
100
AcDbEntity
  8
0
 62
     0
100
AcDbLine
 10
-372.2999999999974
 20
-1000.762450175658
 30
0.0
 11
-341.1241103777484
 21
-1015.608104071675
 31
0.0
  0
LINE
  5
3050
330
343F
100
AcDbEntity
  8
0
 62
     0
100
AcDbLine
 10
-372.2999999999992
 20
-990.7624984315233
 30
0.0
 11
-320.1242006407574
 21
-1015.608104071675
 31
0.0
  0
LINE
  5
3051
330
343F
100
AcDbEntity
  8
0
 62
     0
100
AcDbLine
 10
-372.2999999999956
 20
-980.7625466873904
 30
0.0
 11
-299.1242909037646
 21
-1015.608104071677
 31
0.0
  0
LINE
  5
3052
330
343F
100
AcDbEntity
  8
0
 62
     0
100
AcDbLine
 10
-372.2999999999992
 20
-970.7625949432559
 30
0.0
 11
-278.1243811667755
 21
-1015.608104071677
 31
0.0
  0
LINE
  5
3053
330
343F
100
AcDbEntity
  8
0
 62
     0
100
AcDbLine
 10
-372.2999999999992
 20
-960.7626431991212
 30
0.0
 11
-257.1244714297827
 21
-1015.608104071677
 31
0.0
  0
LINE
  5
3054
330
343F
100
AcDbEntity
  8
0
 62
     0
100
AcDbLine
 10
-372.2999999999974
 20
-950.7626914549865
 30
0.0
 11
-236.1245616927954
 21
-1015.608104071675
 31
0.0
  0
LINE
  5
3055
330
343F
100
AcDbEntity
  8
0
 62
     0
100
AcDbLine
 10
-372.2999999999992
 20
-940.7627397108514
 30
0.0
 11
-215.1246519558045
 21
-1015.608104071675
 31
0.0
  0
LINE
  5
3056
330
343F
100
AcDbEntity
  8
0
 62
     0
100
AcDbLine
 10
-372.2999999999974
 20
-930.7627879667171
 30
0.0
 11
-194.1247422188171
 21
-1015.608104071673
 31
0.0
  0
LINE
  5
3057
330
343F
100
AcDbEntity
  8
0
 62
     0
100
AcDbLine
 10
-372.2999999999974
 20
-920.762836222584
 30
0.0
 11
-173.1248324818243
 21
-1015.608104071675
 31
0.0
  0
LINE
  5
3058
330
343F
100
AcDbEntity
  8
0
 62
     0
100
AcDbLine
 10
-372.2999999999992
 20
-910.7628844784496
 30
0.0
 11
-152.1249227448351
 21
-1015.608104071674
 31
0.0
  0
LINE
  5
3059
330
343F
100
AcDbEntity
  8
0
 62
     0
100
AcDbLine
 10
-372.2999999999974
 20
-900.7629327343149
 30
0.0
 11
-131.1250130078424
 21
-1015.608104071674
 31
0.0
  0
LINE
  5
305A
330
343F
100
AcDbEntity
  8
0
 62
     0
100
AcDbLine
 10
-372.2999999999974
 20
-890.76298099018
 30
0.0
 11
-110.1251032708514
 21
-1015.608104071674
 31
0.0
  0
LINE
  5
305B
330
343F
100
AcDbEntity
  8
0
 62
     0
100
AcDbLine
 10
-372.2999999999992
 20
-880.7630292460444
 30
0.0
 11
-89.1251935338605
 21
-1015.608104071674
 31
0.0
  0
LINE
  5
305C
330
343F
100
AcDbEntity
  8
0
 62
     0
100
AcDbLine
 10
-372.2999999999974
 20
-870.7630775019124
 30
0.0
 11
-68.12528379686954
 21
-1015.608104071676
 31
0.0
  0
LINE
  5
305D
330
343F
100
AcDbEntity
  8
0
 62
     0
100
AcDbLine
 10
-372.2999999999992
 20
-860.7631257577768
 30
0.0
 11
-47.12537405987858
 21
-1015.608104071676
 31
0.0
  0
LINE
  5
305E
330
343F
100
AcDbEntity
  8
0
 62
     0
100
AcDbLine
 10
-372.2999999999992
 20
-850.7631740136421
 30
0.0
 11
-26.12546432288764
 21
-1015.608104071676
 31
0.0
  0
LINE
  5
305F
330
343F
100
AcDbEntity
  8
0
 62
     0
100
AcDbLine
 10
-372.2999999999974
 20
-840.7632222695074
 30
0.0
 11
-5.125554585894858
 21
-1015.608104071676
 31
0.0
  0
LINE
  5
3060
330
343F
100
AcDbEntity
  8
0
 62
     0
100
AcDbLine
 10
-372.2999999999974
 20
-830.7632705253725
 30
0.0
 11
15.8743551510961
 21
-1015.608104071676
 31
0.0
  0
LINE
  5
3061
330
343F
100
AcDbEntity
  8
0
 62
     0
100
AcDbLine
 10
-372.2999999999992
 20
-820.7633187812399
 30
0.0
 11
36.87426488808525
 21
-1015.608104071677
 31
0.0
  0
LINE
  5
3062
330
343F
100
AcDbEntity
  8
0
 62
     0
100
AcDbLine
 10
-372.2999999999974
 20
-810.7633670371049
 30
0.0
 11
57.87417462507619
 21
-1015.608104071676
 31
0.0
  0
LINE
  5
3063
330
343F
100
AcDbEntity
  8
0
 62
     0
100
AcDbLine
 10
-372.2999999999974
 20
-800.7634152929703
 30
0.0
 11
78.87408436206529
 21
-1015.608104071675
 31
0.0
  0
LINE
  5
3064
330
343F
100
AcDbEntity
  8
0
 62
     0
100
AcDbLine
 10
-372.2999999999992
 20
-790.7634635488347
 30
0.0
 11
99.87399409905814
 21
-1015.608104071675
 31
0.0
  0
LINE
  5
3065
330
343F
100
AcDbEntity
  8
0
 62
     0
100
AcDbLine
 10
-372.2999999999956
 20
-780.7635118047008
 30
0.0
 11
120.8739038360454
 21
-1015.608104071673
 31
0.0
  0
LINE
  5
3066
330
343F
100
AcDbEntity
  8
0
 62
     0
100
AcDbLine
 10
-372.2999999999992
 20
-770.7635600605663
 30
0.0
 11
141.8738135730364
 21
-1015.608104071673
 31
0.0
  0
LINE
  5
3067
330
343F
100
AcDbEntity
  8
0
 62
     0
100
AcDbLine
 10
-372.2999999999974
 20
-760.7636083164335
 30
0.0
 11
162.8737233100273
 21
-1015.608104071675
 31
0.0
  0
LINE
  5
3068
330
343F
100
AcDbEntity
  8
0
 62
     0
100
AcDbLine
 10
-372.2999999999974
 20
-750.7636565722987
 30
0.0
 11
183.8736330470183
 21
-1015.608104071675
 31
0.0
  0
LINE
  5
3069
330
343F
100
AcDbEntity
  8
0
 62
     0
100
AcDbLine
 10
-372.2999999999992
 20
-740.763704828164
 30
0.0
 11
204.8735427840092
 21
-1015.608104071675
 31
0.0
  0
LINE
  5
306A
330
343F
100
AcDbEntity
  8
0
 62
     0
100
AcDbLine
 10
-372.2999999999974
 20
-730.7637530840292
 30
0.0
 11
225.8734525210001
 21
-1015.608104071675
 31
0.0
  0
LINE
  5
306B
330
343F
100
AcDbEntity
  8
0
 62
     0
100
AcDbLine
 10
-372.2999999999992
 20
-720.7638013398938
 30
0.0
 11
246.873362257993
 21
-1015.608104071675
 31
0.0
  0
LINE
  5
306C
330
343F
100
AcDbEntity
  8
0
 62
     0
100
AcDbLine
 10
-372.2999999999992
 20
-710.7638495957615
 30
0.0
 11
267.8732719949821
 21
-1015.608104071677
 31
0.0
  0
LINE
  5
306D
330
343F
100
AcDbEntity
  8
0
 62
     0
100
AcDbLine
 10
-372.2999999999992
 20
-700.763897851626
 30
0.0
 11
288.8731817319749
 21
-1015.608104071676
 31
0.0
  0
LINE
  5
306E
330
343F
100
AcDbEntity
  8
0
 62
     0
100
AcDbLine
 10
-372.2999999999992
 20
-690.7639461074913
 30
0.0
 11
309.8730914689659
 21
-1015.608104071676
 31
0.0
  0
LINE
  5
306F
330
343F
100
AcDbEntity
  8
0
 62
     0
100
AcDbLine
 10
-372.2999999999992
 20
-680.7639943633565
 30
0.0
 11
330.8730012059532
 21
-1015.608104071675
 31
0.0
  0
LINE
  5
3070
330
343F
100
AcDbEntity
  8
0
 62
     0
100
AcDbLine
 10
-372.2999999999974
 20
-670.7640426192218
 30
0.0
 11
351.872910942946
 21
-1015.608104071674
 31
0.0
  0
LINE
  5
3071
330
343F
100
AcDbEntity
  8
0
 62
     0
100
AcDbLine
 10
-372.2999999999974
 20
-660.7640908750872
 30
0.0
 11
372.3000000000029
 21
-1015.335332463172
 31
0.0
  0
LINE
  5
3072
330
343F
100
AcDbEntity
  8
0
 62
     0
100
AcDbLine
 10
-372.2999999999992
 20
-650.7641391309544
 30
0.0
 11
372.3000000000011
 21
-1005.335380719039
 31
0.0
  0
LINE
  5
3073
330
343F
100
AcDbEntity
  8
0
 62
     0
100
AcDbLine
 10
-372.2999999999974
 20
-640.7641873868195
 30
0.0
 11
372.3000000000047
 21
-995.3354289749047
 31
0.0
  0
LINE
  5
3074
330
343F
100
AcDbEntity
  8
0
 62
     0
100
AcDbLine
 10
-372.2999999999992
 20
-630.764235642684
 30
0.0
 11
372.3000000000011
 21
-985.3354772307692
 31
0.0
  0
LINE
  5
3075
330
343F
100
AcDbEntity
  8
0
 62
     0
100
AcDbLine
 10
-372.2999999999974
 20
-620.7642838985504
 30
0.0
 11
372.3000000000029
 21
-975.3355254866344
 31
0.0
  0
LINE
  5
3076
330
343F
100
AcDbEntity
  8
0
 62
     0
100
AcDbLine
 10
-372.2999999999974
 20
-610.7643321544145
 30
0.0
 11
372.3000000000029
 21
-965.3355737425
 31
0.0
  0
LINE
  5
3077
330
343F
100
AcDbEntity
  8
0
 62
     0
100
AcDbLine
 10
-372.2999999999992
 20
-600.7643804102815
 30
0.0
 11
372.3000000000029
 21
-955.3356219983671
 31
0.0
  0
LINE
  5
3078
330
343F
100
AcDbEntity
  8
0
 62
     0
100
AcDbLine
 10
-372.2999999999992
 20
-590.764428666147
 30
0.0
 11
372.3000000000029
 21
-945.3356702542324
 31
0.0
  0
LINE
  5
3079
330
343F
100
AcDbEntity
  8
0
 62
     0
100
AcDbLine
 10
-372.2999999999974
 20
-580.7644769220122
 30
0.0
 11
372.3000000000029
 21
-935.3357185100977
 31
0.0
  0
LINE
  5
307A
330
343F
100
AcDbEntity
  8
0
 62
     0
100
AcDbLine
 10
-372.2999999999992
 20
-570.7645251778776
 30
0.0
 11
372.3000000000029
 21
-925.3357667659628
 31
0.0
  0
LINE
  5
307B
330
343F
100
AcDbEntity
  8
0
 62
     0
100
AcDbLine
 10
-372.2999999999974
 20
-560.7645734337429
 30
0.0
 11
372.3000000000011
 21
-915.3358150218274
 31
0.0
  0
LINE
  5
307C
330
343F
100
AcDbEntity
  8
0
 62
     0
100
AcDbLine
 10
-372.2999999999974
 20
-550.7646216896099
 30
0.0
 11
372.3000000000047
 21
-905.3358632776953
 31
0.0
  0
LINE
  5
307D
330
343F
100
AcDbEntity
  8
0
 62
     0
100
AcDbLine
 10
-372.2999999999992
 20
-540.7646699454763
 30
0.0
 11
372.3000000000011
 21
-895.3359115335596
 31
0.0
  0
LINE
  5
307E
330
343F
100
AcDbEntity
  8
0
 62
     0
100
AcDbLine
 10
-372.2999999999974
 20
-530.7647182013417
 30
0.0
 11
372.3000000000029
 21
-885.335959789425
 31
0.0
  0
LINE
  5
307F
330
343F
100
AcDbEntity
  8
0
 62
     0
100
AcDbLine
 10
-372.2999999999992
 20
-520.7647664572059
 30
0.0
 11
372.3000000000029
 21
-875.3360080452901
 31
0.0
  0
LINE
  5
3080
330
343F
100
AcDbEntity
  8
0
 62
     0
100
AcDbLine
 10
-372.2999999999992
 20
-510.7648147130712
 30
0.0
 11
372.3000000000011
 21
-865.3360563011554
 31
0.0
  0
LINE
  5
3081
330
343F
100
AcDbEntity
  8
0
 62
     0
100
AcDbLine
 10
-372.2999999999974
 20
-500.7648629689365
 30
0.0
 11
372.3000000000047
 21
-855.3361045570211
 31
0.0
  0
LINE
  5
3082
330
343F
100
AcDbEntity
  8
0
 62
     0
100
AcDbLine
 10
-372.2999999999992
 20
-490.7649112248035
 30
0.0
 11
372.3000000000011
 21
-845.3361528128867
 31
0.0
  0
LINE
  5
3083
330
343F
100
AcDbEntity
  8
0
 62
     0
100
AcDbLine
 10
-372.2999999999992
 20
-480.7649594806687
 30
0.0
 11
372.3000000000011
 21
-835.3362010687531
 31
0.0
  0
LINE
  5
3084
330
343F
100
AcDbEntity
  8
0
 62
     0
100
AcDbLine
 10
-372.2999999999974
 20
-470.765007736534
 30
0.0
 11
372.3000000000029
 21
-825.3362493246184
 31
0.0
  0
LINE
  5
3085
330
343F
100
AcDbEntity
  8
0
 62
     0
100
AcDbLine
 10
-372.2999999999974
 20
-460.7650559923993
 30
0.0
 11
372.3000000000011
 21
-815.3362975804835
 31
0.0
  0
LINE
  5
3086
330
343F
100
AcDbEntity
  8
0
 62
     0
100
AcDbLine
 10
-372.2999999999974
 20
-450.7651042482648
 30
0.0
 11
372.3000000000029
 21
-805.3363458363492
 31
0.0
  0
LINE
  5
3087
330
343F
100
AcDbEntity
  8
0
 62
     0
100
AcDbLine
 10
-372.2999999999974
 20
-440.7651525041319
 30
0.0
 11
372.3000000000029
 21
-795.3363940922163
 31
0.0
  0
LINE
  5
3088
330
343F
100
AcDbEntity
  8
0
 62
     0
100
AcDbLine
 10
-372.2999999999992
 20
-430.7652007599961
 30
0.0
 11
372.3000000000029
 21
-785.3364423480816
 31
0.0
  0
LINE
  5
3089
330
343F
100
AcDbEntity
  8
0
 62
     0
100
AcDbLine
 10
-372.2999999999992
 20
-420.7652490158615
 30
0.0
 11
372.3000000000029
 21
-775.3364906039466
 31
0.0
  0
LINE
  5
308A
330
343F
100
AcDbEntity
  8
0
 62
     0
100
AcDbLine
 10
-372.2999999999974
 20
-410.7652972717268
 30
0.0
 11
372.3000000000029
 21
-765.3365388598122
 31
0.0
  0
LINE
  5
308B
330
343F
100
AcDbEntity
  8
0
 62
     0
100
AcDbLine
 10
-372.2999999999992
 20
-400.7653455275921
 30
0.0
 11
372.3000000000011
 21
-755.3365871156765
 31
0.0
  0
LINE
  5
308C
330
343F
100
AcDbEntity
  8
0
 62
     0
100
AcDbLine
 10
-372.2999999999974
 20
-390.7653937834575
 30
0.0
 11
372.3000000000029
 21
-745.3366353715428
 31
0.0
  0
LINE
  5
308D
330
343F
100
AcDbEntity
  8
0
 62
     0
100
AcDbLine
 10
-372.2999999999974
 20
-380.7654420393246
 30
0.0
 11
372.3000000000029
 21
-735.336683627409
 31
0.0
  0
LINE
  5
308E
330
343F
100
AcDbEntity
  8
0
 62
     0
100
AcDbLine
 10
-372.2999999999992
 20
-370.76549029519
 30
0.0
 11
372.3000000000011
 21
-725.3367318832742
 31
0.0
  0
LINE
  5
308F
330
343F
100
AcDbEntity
  8
0
 62
     0
100
AcDbLine
 10
-372.2999999999974
 20
-360.7655385510552
 30
0.0
 11
372.3000000000011
 21
-715.3367801391396
 31
0.0
  0
LINE
  5
3090
330
343F
100
AcDbEntity
  8
0
 62
     0
100
AcDbLine
 10
-372.2999999999974
 20
-350.7655868069205
 30
0.0
 11
372.3000000000029
 21
-705.3368283950049
 31
0.0
  0
LINE
  5
3091
330
343F
100
AcDbEntity
  8
0
 62
     0
100
AcDbLine
 10
-372.2999999999992
 20
-340.7656350627858
 30
0.0
 11
372.3000000000011
 21
-695.3368766508701
 31
0.0
  0
LINE
  5
3092
330
343F
100
AcDbEntity
  8
0
 62
     0
100
AcDbLine
 10
-372.2999999999956
 20
-330.7656833186529
 30
0.0
 11
372.3000000000011
 21
-685.3369249067355
 31
0.0
  0
LINE
  5
3093
330
343F
100
AcDbEntity
  8
0
 62
     0
100
AcDbLine
 10
-372.2999999999992
 20
-320.7657315745182
 30
0.0
 11
372.2999999999992
 21
-675.3369731626007
 31
0.0
  0
LINE
  5
3094
330
343F
100
AcDbEntity
  8
0
 62
     0
100
AcDbLine
 10
-372.2999999999992
 20
-310.7657798303835
 30
0.0
 11
372.2999999999992
 21
-665.337021418466
 31
0.0
  0
LINE
  5
3095
330
343F
100
AcDbEntity
  8
0
 62
     0
100
AcDbLine
 10
-372.2999999999974
 20
-300.7658280862488
 30
0.0
 11
372.3000000000011
 21
-655.3370696743312
 31
0.0
  0
LINE
  5
3096
330
343F
100
AcDbEntity
  8
0
 62
     0
100
AcDbLine
 10
-372.2999999999974
 20
-290.7658763421141
 30
0.0
 11
372.2999999999974
 21
-645.3371179301967
 31
0.0
  0
LINE
  5
3097
330
343F
100
AcDbEntity
  8
0
 62
     0
100
AcDbLine
 10
-372.2999999999974
 20
-280.7659245979812
 30
0.0
 11
372.2999999999992
 21
-635.3371661860636
 31
0.0
  0
LINE
  5
3098
330
343F
100
AcDbEntity
  8
0
 62
     0
100
AcDbLine
 10
-372.2999999999974
 20
-270.7659728538465
 30
0.0
 11
372.2999999999992
 21
-625.337214441929
 31
0.0
  0
LINE
  5
3099
330
343F
100
AcDbEntity
  8
0
 62
     0
100
AcDbLine
 10
-372.2999999999974
 20
-260.7660211097118
 30
0.0
 11
372.2999999999992
 21
-615.3372626977942
 31
0.0
  0
LINE
  5
309A
330
343F
100
AcDbEntity
  8
0
 62
     0
100
AcDbLine
 10
-372.2999999999992
 20
-250.7660693655762
 30
0.0
 11
372.2999999999992
 21
-605.3373109536595
 31
0.0
  0
LINE
  5
309B
330
343F
100
AcDbEntity
  8
0
 62
     0
100
AcDbLine
 10
-372.2999999999956
 20
-240.7661176214424
 30
0.0
 11
372.2999999999992
 21
-595.3373592095249
 31
0.0
  0
LINE
  5
309C
330
343F
100
AcDbEntity
  8
0
 62
     0
100
AcDbLine
 10
-372.2999999999992
 20
-230.7661658773068
 30
0.0
 11
372.2999999999992
 21
-585.3374074653902
 31
0.0
  0
LINE
  5
309D
330
343F
100
AcDbEntity
  8
0
 62
     0
100
AcDbLine
 10
-372.2999999999992
 20
-220.7662141331739
 30
0.0
 11
372.2999999999974
 21
-575.3374557212564
 31
0.0
  0
LINE
  5
309E
330
343F
100
AcDbEntity
  8
0
 62
     0
100
AcDbLine
 10
-372.2999999999974
 20
-210.7662623890392
 30
0.0
 11
372.3000000000011
 21
-565.3375039771226
 31
0.0
  0
LINE
  5
309F
330
343F
100
AcDbEntity
  8
0
 62
     0
100
AcDbLine
 10
-372.2999999999992
 20
-200.7663106449045
 30
0.0
 11
372.2999999999974
 21
-555.337552232987
 31
0.0
  0
LINE
  5
30A0
330
343F
100
AcDbEntity
  8
0
 62
     0
100
AcDbLine
 10
-365.6756932434073
 20
-193.9207890261323
 30
0.0
 11
372.2999999999992
 21
-545.3376004888523
 31
0.0
  0
LINE
  5
30A1
330
343F
100
AcDbEntity
  8
0
 62
     0
100
AcDbLine
 10
-344.6757835064145
 20
-193.9207890261323
 30
0.0
 11
372.2999999999992
 21
-535.3376487447176
 31
0.0
  0
LINE
  5
30A2
330
343F
100
AcDbEntity
  8
0
 62
     0
100
AcDbLine
 10
-323.6758737694291
 20
-193.9207890261323
 30
0.0
 11
372.2999999999974
 21
-525.3376970005847
 31
0.0
  0
LINE
  5
30A3
330
343F
100
AcDbEntity
  8
0
 62
     0
100
AcDbLine
 10
-302.6759640324343
 20
-193.9207890261323
 30
0.0
 11
372.3000000000011
 21
-515.3377452564499
 31
0.0
  0
LINE
  5
30A4
330
343F
100
AcDbEntity
  8
0
 62
     0
100
AcDbLine
 10
-281.6760542954452
 20
-193.9207890261323
 30
0.0
 11
372.2999999999992
 21
-505.3377935123152
 31
0.0
  0
LINE
  5
30A5
330
343F
100
AcDbEntity
  8
0
 62
     0
100
AcDbLine
 10
-260.6761445584524
 20
-193.9207890261323
 30
0.0
 11
372.2999999999992
 21
-495.3378417681806
 31
0.0
  0
LINE
  5
30A6
330
343F
100
AcDbEntity
  8
0
 62
     0
100
AcDbLine
 10
156.5000000000054
 20
-382.5760394536628
 30
0.0
 11
167.3039797996716
 21
-387.7207890261325
 31
0.0
  0
LINE
  5
30A7
330
343F
100
AcDbEntity
  8
0
 62
     0
100
AcDbLine
 10
167.3039797996716
 20
-387.7207890261325
 30
0.0
 11
372.2999999999992
 21
-485.3378900240449
 31
0.0
  0
LINE
  5
30A8
330
343F
100
AcDbEntity
  8
0
 62
     0
100
AcDbLine
 10
-239.6762348214616
 20
-193.9207890261323
 30
0.0
 11
156.5000000000054
 21
-382.5760394536628
 31
0.0
  0
LINE
  5
30A9
330
343F
100
AcDbEntity
  8
0
 62
     0
100
AcDbLine
 10
156.5000000000054
 20
-372.576087709529
 30
0.0
 11
188.3038895366588
 21
-387.7207890261308
 31
0.0
  0
LINE
  5
30AA
330
343F
100
AcDbEntity
  8
0
 62
     0
100
AcDbLine
 10
188.3038895366626
 20
-387.7207890261325
 30
0.0
 11
372.2999999999974
 21
-475.3379382799103
 31
0.0
  0
LINE
  5
30AB
330
343F
100
AcDbEntity
  8
0
 62
     0
100
AcDbLine
 10
-218.6763250844705
 20
-193.9207890261323
 30
0.0
 11
156.5000000000054
 21
-372.576087709529
 31
0.0
  0
LINE
  5
30AC
330
343F
100
AcDbEntity
  8
0
 62
     0
100
AcDbLine
 10
156.5000000000036
 20
-362.5761359653952
 30
0.0
 11
209.3037992736499
 21
-387.7207890261325
 31
0.0
  0
LINE
  5
30AD
330
343F
100
AcDbEntity
  8
0
 62
     0
100
AcDbLine
 10
209.3037992736536
 20
-387.7207890261344
 30
0.0
 11
372.2999999999992
 21
-465.3379865357774
 31
0.0
  0
LINE
  5
30AE
330
343F
100
AcDbEntity
  8
0
 62
     0
100
AcDbLine
 10
-197.6764153474796
 20
-193.9207890261341
 30
0.0
 11
156.5000000000036
 21
-362.5761359653952
 31
0.0
  0
LINE
  5
30AF
330
343F
100
AcDbEntity
  8
0
 62
     0
100
AcDbLine
 10
156.5000000000054
 20
-352.5761842212605
 30
0.0
 11
230.3037090106427
 21
-387.7207890261325
 31
0.0
  0
LINE
  5
30B0
330
343F
100
AcDbEntity
  8
0
 62
     0
100
AcDbLine
 10
230.3037090106445
 20
-387.7207890261333
 30
0.0
 11
372.2999999999992
 21
-455.3380347916426
 31
0.0
  0
LINE
  5
30B1
330
343F
100
AcDbEntity
  8
0
 62
     0
100
AcDbLine
 10
-176.6765056104887
 20
-193.9207890261332
 30
0.0
 11
156.5000000000054
 21
-352.5761842212605
 31
0.0
  0
LINE
  5
30B2
330
343F
100
AcDbEntity
  8
0
 62
     0
100
AcDbLine
 10
156.5000000000036
 20
-342.5762324771258
 30
0.0
 11
251.3036187476318
 21
-387.7207890261325
 31
0.0
  0
LINE
  5
30B3
330
343F
100
AcDbEntity
  8
0
 62
     0
100
AcDbLine
 10
251.3036187476355
 20
-387.7207890261333
 30
0.0
 11
372.2999999999992
 21
-445.3380830475088
 31
0.0
  0
LINE
  5
30B4
330
343F
100
AcDbEntity
  8
0
 62
     0
100
AcDbLine
 10
-155.6765958734977
 20
-193.9207890261332
 30
0.0
 11
156.5000000000036
 21
-342.5762324771258
 31
0.0
  0
LINE
  5
30B5
330
343F
100
AcDbEntity
  8
0
 62
     0
100
AcDbLine
 10
156.5000000000054
 20
-332.5762807329912
 30
0.0
 11
272.3035284846228
 21
-387.7207890261325
 31
0.0
  0
LINE
  5
30B6
330
343F
100
AcDbEntity
  8
0
 62
     0
100
AcDbLine
 10
272.3035284846265
 20
-387.7207890261333
 30
0.0
 11
372.2999999999992
 21
-435.3381313033742
 31
0.0
  0
LINE
  5
30B7
330
343F
100
AcDbEntity
  8
0
 62
     0
100
AcDbLine
 10
-134.6766861365104
 20
-193.9207890261313
 30
0.0
 11
156.5000000000054
 21
-332.5762807329912
 31
0.0
  0
LINE
  5
30B8
330
343F
100
AcDbEntity
  8
0
 62
     0
100
AcDbLine
 10
156.5000000000054
 20
-322.5763289888564
 30
0.0
 11
293.3034382216156
 21
-387.7207890261315
 31
0.0
  0
LINE
  5
30B9
330
343F
100
AcDbEntity
  8
0
 62
     0
100
AcDbLine
 10
293.3034382216156
 20
-387.7207890261315
 30
0.0
 11
372.2999999999992
 21
-425.3381795592392
 31
0.0
  0
LINE
  5
30BA
330
343F
100
AcDbEntity
  8
0
 62
     0
100
AcDbLine
 10
-113.6767763995176
 20
-193.9207890261313
 30
0.0
 11
156.5000000000054
 21
-322.5763289888564
 31
0.0
  0
LINE
  5
30BB
330
343F
100
AcDbEntity
  8
0
 62
     0
100
AcDbLine
 10
156.5000000000036
 20
-312.5763772447244
 30
0.0
 11
314.3033479586011
 21
-387.7207890261325
 31
0.0
  0
LINE
  5
30BC
330
343F
100
AcDbEntity
  8
0
 62
     0
100
AcDbLine
 10
314.3033479586047
 20
-387.7207890261333
 30
0.0
 11
372.2999999999974
 21
-415.3382278151055
 31
0.0
  0
LINE
  5
30BD
330
343F
100
AcDbEntity
  8
0
 62
     0
100
AcDbLine
 10
-92.67686666253212
 20
-193.9207890261323
 30
0.0
 11
156.5000000000036
 21
-312.5763772447244
 31
0.0
  0
LINE
  5
30BE
330
343F
100
AcDbEntity
  8
0
 62
     0
100
AcDbLine
 10
156.5000000000054
 20
-302.5764255005896
 30
0.0
 11
335.3032576955941
 21
-387.7207890261315
 31
0.0
  0
LINE
  5
30BF
330
343F
100
AcDbEntity
  8
0
 62
     0
100
AcDbLine
 10
335.3032576955975
 20
-387.7207890261333
 30
0.0
 11
372.2999999999992
 21
-405.3382760709719
 31
0.0
  0
LINE
  5
30C0
330
343F
100
AcDbEntity
  8
0
 62
     0
100
AcDbLine
 10
-71.67695692553934
 20
-193.9207890261313
 30
0.0
 11
156.5000000000054
 21
-302.5764255005896
 31
0.0
  0
LINE
  5
30C1
330
343F
100
AcDbEntity
  8
0
 62
     0
100
AcDbLine
 10
156.5000000000054
 20
-292.5764737564551
 30
0.0
 11
356.3031674325848
 21
-387.7207890261315
 31
0.0
  0
LINE
  5
30C2
330
343F
100
AcDbEntity
  8
0
 62
     0
100
AcDbLine
 10
356.3031674325884
 20
-387.7207890261333
 30
0.0
 11
372.2999999999992
 21
-395.3383243268363
 31
0.0
  0
LINE
  5
30C3
330
343F
100
AcDbEntity
  8
0
 62
     0
100
AcDbLine
 10
-50.67704718854838
 20
-193.9207890261313
 30
0.0
 11
156.5000000000036
 21
-292.5764737564541
 31
0.0
  0
LINE
  5
30C4
330
343F
100
AcDbEntity
  8
0
 62
     0
100
AcDbLine
 10
156.5000000000036
 20
-282.5765220123203
 30
0.0
 11
372.2999999999974
 21
-385.3383725827017
 31
0.0
  0
LINE
  5
30C5
330
343F
100
AcDbEntity
  8
0
 62
     0
100
AcDbLine
 10
-29.67713745155743
 20
-193.9207890261313
 30
0.0
 11
156.5000000000036
 21
-282.5765220123203
 31
0.0
  0
LINE
  5
30C6
330
343F
100
AcDbEntity
  8
0
 62
     0
100
AcDbLine
 10
156.5000000000036
 20
-272.5765702681847
 30
0.0
 11
372.2999999999974
 21
-375.3384208385669
 31
0.0
  0
LINE
  5
30C7
330
343F
100
AcDbEntity
  8
0
 62
     0
100
AcDbLine
 10
-8.67722771456647
 20
-193.9207890261313
 30
0.0
 11
156.5000000000036
 21
-272.5765702681847
 31
0.0
  0
LINE
  5
30C8
330
343F
100
AcDbEntity
  8
0
 62
     0
100
AcDbLine
 10
156.5000000000054
 20
-262.5766185240527
 30
0.0
 11
372.2999999999992
 21
-365.338469094434
 31
0.0
  0
LINE
  5
30C9
330
343F
100
AcDbEntity
  8
0
 62
     0
100
AcDbLine
 10
12.32268202242631
 20
-193.9207890261332
 30
0.0
 11
156.5000000000036
 21
-262.5766185240518
 31
0.0
  0
LINE
  5
30CA
330
343F
100
AcDbEntity
  8
0
 62
     0
100
AcDbLine
 10
156.5000000000036
 20
-252.5766667799171
 30
0.0
 11
372.2999999999974
 21
-355.3385173502993
 31
0.0
  0
LINE
  5
30CB
330
343F
100
AcDbEntity
  8
0
 62
     0
100
AcDbLine
 10
33.32259175941544
 20
-193.9207890261332
 30
0.0
 11
156.5000000000036
 21
-252.5766667799171
 31
0.0
  0
LINE
  5
30CC
330
343F
100
AcDbEntity
  8
0
 62
     0
100
AcDbLine
 10
156.5000000000073
 20
-242.5767150357833
 30
0.0
 11
372.3000000000011
 21
-345.3385656061645
 31
0.0
  0
LINE
  5
30CD
330
343F
100
AcDbEntity
  8
0
 62
     0
100
AcDbLine
 10
54.32250149640822
 20
-193.9207890261332
 30
0.0
 11
156.5000000000054
 21
-242.5767150357824
 31
0.0
  0
LINE
  5
30CE
330
343F
100
AcDbEntity
  8
0
 62
     0
100
AcDbLine
 10
156.5000000000054
 20
-232.5767632916477
 30
0.0
 11
372.2999999999992
 21
-335.3386138620299
 31
0.0
  0
LINE
  5
30CF
330
343F
100
AcDbEntity
  8
0
 62
     0
100
AcDbLine
 10
75.32241123339919
 20
-193.9207890261332
 30
0.0
 11
156.5000000000054
 21
-232.5767632916477
 31
0.0
  0
LINE
  5
30D0
330
343F
100
AcDbEntity
  8
0
 62
     0
100
AcDbLine
 10
156.5000000000054
 20
-222.576811547513
 30
0.0
 11
372.2999999999974
 21
-325.3386621178943
 31
0.0
  0
LINE
  5
30D1
330
343F
100
AcDbEntity
  8
0
 62
     0
100
AcDbLine
 10
96.32232097039015
 20
-193.9207890261323
 30
0.0
 11
156.5000000000036
 21
-222.5768115475121
 31
0.0
  0
LINE
  5
30D2
330
343F
100
AcDbEntity
  8
0
 62
     0
100
AcDbLine
 10
156.5000000000054
 20
-212.5768598033783
 30
0.0
 11
372.2999999999992
 21
-315.3387103737596
 31
0.0
  0
LINE
  5
30D3
330
343F
100
AcDbEntity
  8
0
 62
     0
100
AcDbLine
 10
117.3222307073793
 20
-193.9207890261313
 30
0.0
 11
156.5000000000054
 21
-212.5768598033783
 31
0.0
  0
LINE
  5
30D4
330
343F
100
AcDbEntity
  8
0
 62
     0
100
AcDbLine
 10
156.5000000000054
 20
-202.5769080592454
 30
0.0
 11
372.2999999999974
 21
-305.3387586296267
 31
0.0
  0
LINE
  5
30D5
330
343F
100
AcDbEntity
  8
0
 62
     0
100
AcDbLine
 10
138.3221404443684
 20
-193.9207890261323
 30
0.0
 11
156.5000000000036
 21
-202.5769080592445
 31
0.0
  0
LINE
  5
30D6
330
343F
100
AcDbEntity
  8
0
 62
     0
100
AcDbLine
 10
159.3220501813612
 20
-193.9207890261323
 30
0.0
 11
372.2999999999992
 21
-295.338806885492
 31
0.0
  0
LINE
  5
30D7
330
343F
100
AcDbEntity
  8
0
 62
     0
100
AcDbLine
 10
180.3219599183521
 20
-193.9207890261323
 30
0.0
 11
372.3000000000029
 21
-285.3388551413591
 31
0.0
  0
LINE
  5
30D8
330
343F
100
AcDbEntity
  8
0
 62
     0
100
AcDbLine
 10
201.3218696553395
 20
-193.9207890261305
 30
0.0
 11
372.3000000000011
 21
-275.3389033972244
 31
0.0
  0
LINE
  5
30D9
330
343F
100
AcDbEntity
  8
0
 62
     0
100
AcDbLine
 10
222.3217793923304
 20
-193.9207890261305
 30
0.0
 11
372.3000000000029
 21
-265.3389516530897
 31
0.0
  0
LINE
  5
30DA
330
343F
100
AcDbEntity
  8
0
 62
     0
100
AcDbLine
 10
243.3216891293232
 20
-193.9207890261323
 30
0.0
 11
372.3000000000029
 21
-255.3389999089568
 31
0.0
  0
LINE
  5
30DB
330
343F
100
AcDbEntity
  8
0
 62
     0
100
AcDbLine
 10
264.3215988663123
 20
-193.9207890261323
 30
0.0
 11
372.3000000000011
 21
-245.3390481648221
 31
0.0
  0
LINE
  5
30DC
330
343F
100
AcDbEntity
  8
0
 62
     0
100
AcDbLine
 10
285.3215086033033
 20
-193.9207890261323
 30
0.0
 11
372.3000000000029
 21
-235.3390964206874
 31
0.0
  0
LINE
  5
30DD
330
343F
100
AcDbEntity
  8
0
 62
     0
100
AcDbLine
 10
306.3214183402961
 20
-193.9207890261323
 30
0.0
 11
372.3000000000029
 21
-225.3391446765527
 31
0.0
  0
LINE
  5
30DE
330
343F
100
AcDbEntity
  8
0
 62
     0
100
AcDbLine
 10
327.3213280772852
 20
-193.9207890261323
 30
0.0
 11
372.3000000000011
 21
-215.3391929324171
 31
0.0
  0
LINE
  5
30DF
330
343F
100
AcDbEntity
  8
0
 62
     0
100
AcDbLine
 10
348.3212378142798
 20
-193.9207890261341
 30
0.0
 11
372.3000000000047
 21
-205.3392411882851
 31
0.0
  0
LINE
  5
30E0
330
343F
100
AcDbEntity
  8
0
 62
     0
100
AcDbLine
 10
369.3211475512689
 20
-193.9207890261332
 30
0.0
 11
372.3000000000029
 21
-195.3392894441493
 31
0.0
  0
ENDBLK
  5
30E1
330
343F
100
AcDbEntity
  8
0
100
AcDbBlockEnd
  0
BLOCK
  5
3442
330
3441
100
AcDbEntity
  8
0
100
AcDbBlockBegin
  2
*X33
 70
     1
 10
0.0
 20
0.0
 30
0.0
  3
*X33
  1

  0
LINE
  5
30E4
330
3441
100
AcDbEntity
  8
0
 62
     0
100
AcDbLine
 10
357.6942773265728
 20
-1015.608104071672
 30
0.0
 11
372.3000000000102
 21
-1008.653001704479
 31
0.0
  0
LINE
  5
30E5
330
3441
100
AcDbEntity
  8
0
 62
     0
100
AcDbLine
 10
336.6943675895818
 20
-1015.608104071671
 30
0.0
 11
372.3000000000137
 21
-998.6530499603432
 31
0.0
  0
LINE
  5
30E6
330
3441
100
AcDbEntity
  8
0
 62
     0
100
AcDbLine
 10
315.6944578525909
 20
-1015.608104071671
 30
0.0
 11
372.3000000000066
 21
-988.6530982162094
 31
0.0
  0
LINE
  5
30E7
330
3441
100
AcDbEntity
  8
0
 62
     0
100
AcDbLine
 10
294.6945481155997
 20
-1015.608104071672
 30
0.0
 11
372.3000000000102
 21
-978.6531464720747
 31
0.0
  0
LINE
  5
30E8
330
3441
100
AcDbEntity
  8
0
 62
     0
100
AcDbLine
 10
273.694638378609
 20
-1015.608104071672
 30
0.0
 11
372.3000000000137
 21
-968.6531947279393
 31
0.0
  0
LINE
  5
30E9
330
3441
100
AcDbEntity
  8
0
 62
     0
100
AcDbLine
 10
252.694728641618
 20
-1015.608104071672
 30
0.0
 11
372.3000000000102
 21
-958.6532429838063
 31
0.0
  0
LINE
  5
30EA
330
3441
100
AcDbEntity
  8
0
 62
     0
100
AcDbLine
 10
231.694818904627
 20
-1015.608104071672
 30
0.0
 11
372.3000000000137
 21
-948.6532912396704
 31
0.0
  0
LINE
  5
30EB
330
3441
100
AcDbEntity
  8
0
 62
     0
100
AcDbLine
 10
210.6949091676324
 20
-1015.608104071672
 30
0.0
 11
372.3000000000066
 21
-938.6533394955362
 31
0.0
  0
LINE
  5
30EC
330
3441
100
AcDbEntity
  8
0
 62
     0
100
AcDbLine
 10
189.6949994306415
 20
-1015.608104071672
 30
0.0
 11
372.3000000000102
 21
-928.6533877514029
 31
0.0
  0
LINE
  5
30ED
330
3441
100
AcDbEntity
  8
0
 62
     0
100
AcDbLine
 10
168.6950896936541
 20
-1015.608104071673
 30
0.0
 11
372.3000000000102
 21
-918.653436007268
 31
0.0
  0
LINE
  5
30EE
330
3441
100
AcDbEntity
  8
0
 62
     0
100
AcDbLine
 10
147.6951799566595
 20
-1015.608104071674
 30
0.0
 11
372.3000000000102
 21
-908.6534842631353
 31
0.0
  0
LINE
  5
30EF
330
3441
100
AcDbEntity
  8
0
 62
     0
100
AcDbLine
 10
126.6952702196686
 20
-1015.608104071674
 30
0.0
 11
372.3000000000102
 21
-898.6535325190017
 31
0.0
  0
LINE
  5
30F0
330
3441
100
AcDbEntity
  8
0
 62
     0
100
AcDbLine
 10
105.6953604826813
 20
-1015.608104071672
 30
0.0
 11
372.3000000000102
 21
-888.6535807748655
 31
0.0
  0
LINE
  5
30F1
330
3441
100
AcDbEntity
  8
0
 62
     0
100
AcDbLine
 10
84.69545074569394
 20
-1015.608104071671
 30
0.0
 11
372.3000000000102
 21
-878.6536290307303
 31
0.0
  0
LINE
  5
30F2
330
3441
100
AcDbEntity
  8
0
 62
     0
100
AcDbLine
 10
63.695541008703
 20
-1015.608104071672
 30
0.0
 11
372.3000000000102
 21
-868.6536772865975
 31
0.0
  0
LINE
  5
30F3
330
3441
100
AcDbEntity
  8
0
 62
     0
100
AcDbLine
 10
42.69563127171204
 20
-1015.608104071672
 30
0.0
 11
372.3000000000137
 21
-858.6537255424628
 31
0.0
  0
LINE
  5
30F4
330
3441
100
AcDbEntity
  8
0
 62
     0
100
AcDbLine
 10
21.69572153472108
 20
-1015.608104071672
 30
0.0
 11
372.3000000000102
 21
-848.653773798329
 31
0.0
  0
LINE
  5
30F5
330
3441
100
AcDbEntity
  8
0
 62
     0
100
AcDbLine
 10
0.6958117977301299
 20
-1015.608104071672
 30
0.0
 11
372.3000000000102
 21
-838.6538220541932
 31
0.0
  0
LINE
  5
30F6
330
3441
100
AcDbEntity
  8
0
 62
     0
100
AcDbLine
 10
-20.30409793926083
 20
-1015.608104071672
 30
0.0
 11
372.3000000000102
 21
-828.6538703100593
 31
0.0
  0
LINE
  5
30F7
330
3441
100
AcDbEntity
  8
0
 62
     0
100
AcDbLine
 10
-41.30400767625539
 20
-1015.608104071673
 30
0.0
 11
372.3000000000102
 21
-818.6539185659245
 31
0.0
  0
LINE
  5
30F8
330
3441
100
AcDbEntity
  8
0
 62
     0
100
AcDbLine
 10
-62.30391741324274
 20
-1015.608104071673
 30
0.0
 11
372.3000000000102
 21
-808.6539668217907
 31
0.0
  0
LINE
  5
30F9
330
3441
100
AcDbEntity
  8
0
 62
     0
100
AcDbLine
 10
-83.3038271502337
 20
-1015.608104071674
 30
0.0
 11
372.3000000000137
 21
-798.6540150776561
 31
0.0
  0
LINE
  5
30FA
330
3441
100
AcDbEntity
  8
0
 62
     0
100
AcDbLine
 10
-104.3037368872283
 20
-1015.608104071674
 30
0.0
 11
372.3000000000102
 21
-788.6540633335206
 31
0.0
  0
LINE
  5
30FB
330
3441
100
AcDbEntity
  8
0
 62
     0
100
AcDbLine
 10
-125.3036466242156
 20
-1015.608104071674
 30
0.0
 11
372.3000000000102
 21
-778.6541115893869
 31
0.0
  0
LINE
  5
30FC
330
3441
100
AcDbEntity
  8
0
 62
     0
100
AcDbLine
 10
-146.3035563612102
 20
-1015.608104071672
 30
0.0
 11
372.3000000000102
 21
-768.6541598452513
 31
0.0
  0
LINE
  5
30FD
330
3441
100
AcDbEntity
  8
0
 62
     0
100
AcDbLine
 10
-167.3034660981975
 20
-1015.608104071672
 30
0.0
 11
372.3000000000102
 21
-758.6542081011175
 31
0.0
  0
LINE
  5
30FE
330
3441
100
AcDbEntity
  8
0
 62
     0
100
AcDbLine
 10
-188.3033758351848
 20
-1015.608104071672
 30
0.0
 11
372.3000000000102
 21
-748.6542563569836
 31
0.0
  0
LINE
  5
30FF
330
3441
100
AcDbEntity
  8
0
 62
     0
100
AcDbLine
 10
-209.3032855721758
 20
-1015.608104071672
 30
0.0
 11
372.3000000000066
 21
-738.6543046128497
 31
0.0
  0
LINE
  5
3100
330
3441
100
AcDbEntity
  8
0
 62
     0
100
AcDbLine
 10
-230.3031953091668
 20
-1015.608104071671
 30
0.0
 11
372.3000000000102
 21
-728.6543528687143
 31
0.0
  0
LINE
  5
3101
330
3441
100
AcDbEntity
  8
0
 62
     0
100
AcDbLine
 10
-251.3031050461577
 20
-1015.608104071671
 30
0.0
 11
372.3000000000102
 21
-718.6544011245805
 31
0.0
  0
LINE
  5
3102
330
3441
100
AcDbEntity
  8
0
 62
     0
100
AcDbLine
 10
-272.3030147831523
 20
-1015.608104071672
 30
0.0
 11
372.3000000000102
 21
-708.6544493804467
 31
0.0
  0
LINE
  5
3103
330
3441
100
AcDbEntity
  8
0
 62
     0
100
AcDbLine
 10
-293.3029245201396
 20
-1015.608104071672
 30
0.0
 11
372.3000000000102
 21
-698.6544976363111
 31
0.0
  0
LINE
  5
3104
330
3441
100
AcDbEntity
  8
0
 62
     0
100
AcDbLine
 10
-314.3028342571306
 20
-1015.608104071672
 30
0.0
 11
372.3000000000066
 21
-688.6545458921792
 31
0.0
  0
LINE
  5
3105
330
3441
100
AcDbEntity
  8
0
 62
     0
100
AcDbLine
 10
-335.3027439941252
 20
-1015.608104071672
 30
0.0
 11
372.3000000000066
 21
-678.6545941480435
 31
0.0
  0
LINE
  5
3106
330
3441
100
AcDbEntity
  8
0
 62
     0
100
AcDbLine
 10
-356.3026537311125
 20
-1015.608104071672
 30
0.0
 11
372.3000000000066
 21
-668.6546424039097
 31
0.0
  0
LINE
  5
3107
330
3441
100
AcDbEntity
  8
0
 62
     0
100
AcDbLine
 10
-372.299999999992
 20
-1013.225932247858
 30
0.0
 11
372.3000000000102
 21
-658.6546906597741
 31
0.0
  0
LINE
  5
3108
330
3441
100
AcDbEntity
  8
0
 62
     0
100
AcDbLine
 10
-372.2999999999956
 20
-1003.225980503724
 30
0.0
 11
372.3000000000066
 21
-648.6547389156404
 31
0.0
  0
LINE
  5
3109
330
3441
100
AcDbEntity
  8
0
 62
     0
100
AcDbLine
 10
-372.299999999992
 20
-993.2260287595907
 30
0.0
 11
372.3000000000066
 21
-638.6547871715065
 31
0.0
  0
LINE
  5
310A
330
3441
100
AcDbEntity
  8
0
 62
     0
100
AcDbLine
 10
-372.299999999992
 20
-983.2260770154553
 30
0.0
 11
372.3000000000066
 21
-628.6548354273727
 31
0.0
  0
LINE
  5
310B
330
3441
100
AcDbEntity
  8
0
 62
     0
100
AcDbLine
 10
-372.2999999999956
 20
-973.2261252713215
 30
0.0
 11
372.3000000000066
 21
-618.6548836832371
 31
0.0
  0
LINE
  5
310C
330
3441
100
AcDbEntity
  8
0
 62
     0
100
AcDbLine
 10
-372.299999999992
 20
-963.2261735271876
 30
0.0
 11
372.3000000000066
 21
-608.6549319391034
 31
0.0
  0
LINE
  5
310D
330
3441
100
AcDbEntity
  8
0
 62
     0
100
AcDbLine
 10
-372.2999999999956
 20
-953.2262217830535
 30
0.0
 11
372.3000000000066
 21
-598.6549801949696
 31
0.0
  0
LINE
  5
310E
330
3441
100
AcDbEntity
  8
0
 62
     0
100
AcDbLine
 10
-372.299999999992
 20
-943.22627003892
 30
0.0
 11
372.3000000000066
 21
-588.6550284508339
 31
0.0
  0
LINE
  5
310F
330
3441
100
AcDbEntity
  8
0
 62
     0
100
AcDbLine
 10
-372.2999999999956
 20
-933.2263182947844
 30
0.0
 11
372.3000000000066
 21
-578.6550767067001
 31
0.0
  0
LINE
  5
3110
330
3441
100
AcDbEntity
  8
0
 62
     0
100
AcDbLine
 10
-372.2999999999956
 20
-923.2263665506506
 30
0.0
 11
372.3000000000066
 21
-568.6551249625645
 31
0.0
  0
LINE
  5
3111
330
3441
100
AcDbEntity
  8
0
 62
     0
100
AcDbLine
 10
-372.2999999999956
 20
-913.226414806517
 30
0.0
 11
372.3000000000066
 21
-558.6551732184308
 31
0.0
  0
LINE
  5
3112
330
3441
100
AcDbEntity
  8
0
 62
     0
100
AcDbLine
 10
-372.299999999992
 20
-903.2264630623812
 30
0.0
 11
372.3000000000102
 21
-548.6552214742951
 31
0.0
  0
LINE
  5
3113
330
3441
100
AcDbEntity
  8
0
 62
     0
100
AcDbLine
 10
-372.299999999992
 20
-893.2265113182475
 30
0.0
 11
372.3000000000029
 21
-538.6552697301631
 31
0.0
  0
LINE
  5
3114
330
3441
100
AcDbEntity
  8
0
 62
     0
100
AcDbLine
 10
-372.2999999999956
 20
-883.2265595741137
 30
0.0
 11
372.3000000000066
 21
-528.6553179860275
 31
0.0
  0
LINE
  5
3115
330
3441
100
AcDbEntity
  8
0
 62
     0
100
AcDbLine
 10
-372.299999999992
 20
-873.2266078299781
 30
0.0
 11
372.3000000000066
 21
-518.6553662418937
 31
0.0
  0
LINE
  5
3116
330
3441
100
AcDbEntity
  8
0
 62
     0
100
AcDbLine
 10
-372.2999999999956
 20
-863.2266560858443
 30
0.0
 11
372.3000000000066
 21
-508.6554144977581
 31
0.0
  0
LINE
  5
3117
330
3441
100
AcDbEntity
  8
0
 62
     0
100
AcDbLine
 10
-372.299999999992
 20
-853.2267043417105
 30
0.0
 11
372.3000000000066
 21
-498.6554627536243
 31
0.0
  0
LINE
  5
3118
330
3441
100
AcDbEntity
  8
0
 62
     0
100
AcDbLine
 10
-372.299999999992
 20
-843.2267525975765
 30
0.0
 11
372.3000000000066
 21
-488.6555110094905
 31
0.0
  0
LINE
  5
3119
330
3441
100
AcDbEntity
  8
0
 62
     0
100
AcDbLine
 10
-372.2999999999956
 20
-833.2268008534411
 30
0.0
 11
372.3000000000066
 21
-478.6555592653548
 31
0.0
  0
LINE
  5
311A
330
3441
100
AcDbEntity
  8
0
 62
     0
100
AcDbLine
 10
-372.2999999999956
 20
-823.2268491093073
 30
0.0
 11
372.3000000000066
 21
-468.6556075212211
 31
0.0
  0
LINE
  5
311B
330
3441
100
AcDbEntity
  8
0
 62
     0
100
AcDbLine
 10
-372.299999999992
 20
-813.2268973651713
 30
0.0
 11
372.3000000000102
 21
-458.6556557770855
 31
0.0
  0
LINE
  5
311C
330
3441
100
AcDbEntity
  8
0
 62
     0
100
AcDbLine
 10
-372.299999999992
 20
-803.2269456210361
 30
0.0
 11
372.3000000000066
 21
-448.6557040329516
 31
0.0
  0
LINE
  5
311D
330
3441
100
AcDbEntity
  8
0
 62
     0
100
AcDbLine
 10
-372.299999999992
 20
-793.2269938769023
 30
0.0
 11
372.3000000000066
 21
-438.6557522888161
 31
0.0
  0
LINE
  5
311E
330
3441
100
AcDbEntity
  8
0
 62
     0
100
AcDbLine
 10
-372.2999999999956
 20
-783.2270421327684
 30
0.0
 11
372.3000000000029
 21
-428.6558005446841
 31
0.0
  0
LINE
  5
311F
330
3441
100
AcDbEntity
  8
0
 62
     0
100
AcDbLine
 10
-372.2999999999956
 20
-773.2270903886343
 30
0.0
 11
372.3000000000066
 21
-418.6558488005484
 31
0.0
  0
LINE
  5
3120
330
3441
100
AcDbEntity
  8
0
 62
     0
100
AcDbLine
 10
-372.299999999992
 20
-763.227138644499
 30
0.0
 11
372.3000000000102
 21
-408.6558970564145
 31
0.0
  0
LINE
  5
3121
330
3441
100
AcDbEntity
  8
0
 62
     0
100
AcDbLine
 10
-372.2999999999956
 20
-753.2271869003651
 30
0.0
 11
372.3000000000029
 21
-398.6559453122809
 31
0.0
  0
LINE
  5
3122
330
3441
100
AcDbEntity
  8
0
 62
     0
100
AcDbLine
 10
-372.299999999992
 20
-743.2272351562312
 30
0.0
 11
372.3000000000066
 21
-388.6559935681471
 31
0.0
  0
LINE
  5
3123
330
3441
100
AcDbEntity
  8
0
 62
     0
100
AcDbLine
 10
353.264020836934
 20
-387.7207890261288
 30
0.0
 11
372.3000000000175
 21
-378.6560418240079
 31
0.0
  0
LINE
  5
3124
330
3441
100
AcDbEntity
  8
0
 62
     0
100
AcDbLine
 10
-372.299999999992
 20
-733.2272834120956
 30
0.0
 11
353.264020836934
 21
-387.7207890261288
 31
0.0
  0
LINE
  5
3125
330
3441
100
AcDbEntity
  8
0
 62
     0
100
AcDbLine
 10
332.2641110999393
 20
-387.7207890261288
 30
0.0
 11
372.3000000000137
 21
-368.656090079874
 31
0.0
  0
LINE
  5
3126
330
3441
100
AcDbEntity
  8
0
 62
     0
100
AcDbLine
 10
-372.2999999999956
 20
-723.2273316679616
 30
0.0
 11
332.2641110999393
 21
-387.7207890261288
 31
0.0
  0
LINE
  5
3127
330
3441
100
AcDbEntity
  8
0
 62
     0
100
AcDbLine
 10
311.2642013629485
 20
-387.7207890261288
 30
0.0
 11
372.3000000000137
 21
-358.6561383357385
 31
0.0
  0
LINE
  5
3128
330
3441
100
AcDbEntity
  8
0
 62
     0
100
AcDbLine
 10
-372.299999999992
 20
-713.2273799238264
 30
0.0
 11
311.2642013629485
 21
-387.7207890261288
 31
0.0
  0
LINE
  5
3129
330
3441
100
AcDbEntity
  8
0
 62
     0
100
AcDbLine
 10
290.2642916259609
 20
-387.7207890261288
 30
0.0
 11
372.3000000000137
 21
-348.6561865916045
 31
0.0
  0
LINE
  5
312A
330
3441
100
AcDbEntity
  8
0
 62
     0
100
AcDbLine
 10
-372.299999999992
 20
-703.2274281796926
 30
0.0
 11
290.2642916259609
 21
-387.7207890261288
 31
0.0
  0
LINE
  5
312B
330
3441
100
AcDbEntity
  8
0
 62
     0
100
AcDbLine
 10
269.2643818889664
 20
-387.7207890261288
 30
0.0
 11
372.3000000000137
 21
-338.6562348474691
 31
0.0
  0
LINE
  5
312C
330
3441
100
AcDbEntity
  8
0
 62
     0
100
AcDbLine
 10
-372.2999999999956
 20
-693.2274764355569
 30
0.0
 11
269.2643818889664
 21
-387.7207890261288
 31
0.0
  0
LINE
  5
312D
330
3441
100
AcDbEntity
  8
0
 62
     0
100
AcDbLine
 10
248.2644721519755
 20
-387.7207890261288
 30
0.0
 11
372.3000000000137
 21
-328.6562831033353
 31
0.0
  0
LINE
  5
312E
330
3441
100
AcDbEntity
  8
0
 62
     0
100
AcDbLine
 10
-372.2999999999956
 20
-683.2275246914232
 30
0.0
 11
248.2644721519755
 21
-387.7207890261288
 31
0.0
  0
LINE
  5
312F
330
3441
100
AcDbEntity
  8
0
 62
     0
100
AcDbLine
 10
227.2645624149882
 20
-387.7207890261308
 30
0.0
 11
372.3000000000175
 21
-318.6563313592014
 31
0.0
  0
LINE
  5
3130
330
3441
100
AcDbEntity
  8
0
 62
     0
100
AcDbLine
 10
-372.299999999992
 20
-673.2275729472895
 30
0.0
 11
227.2645624149882
 21
-387.7207890261308
 31
0.0
  0
LINE
  5
3131
330
3441
100
AcDbEntity
  8
0
 62
     0
100
AcDbLine
 10
206.2646526779936
 20
-387.7207890261308
 30
0.0
 11
372.3000000000137
 21
-308.6563796150658
 31
0.0
  0
LINE
  5
3132
330
3441
100
AcDbEntity
  8
0
 62
     0
100
AcDbLine
 10
-372.2999999999956
 20
-663.2276212031556
 30
0.0
 11
206.2646526779936
 21
-387.7207890261308
 31
0.0
  0
LINE
  5
3133
330
3441
100
AcDbEntity
  8
0
 62
     0
100
AcDbLine
 10
185.2647429410024
 20
-387.7207890261308
 30
0.0
 11
372.3000000000137
 21
-298.656427870932
 31
0.0
  0
LINE
  5
3134
330
3441
100
AcDbEntity
  8
0
 62
     0
100
AcDbLine
 10
-372.299999999992
 20
-653.22766945902
 30
0.0
 11
185.2647429410024
 21
-387.7207890261308
 31
0.0
  0
LINE
  5
3135
330
3441
100
AcDbEntity
  8
0
 62
     0
100
AcDbLine
 10
164.2648332040153
 20
-387.7207890261288
 30
0.0
 11
372.3000000000137
 21
-288.6564761267982
 31
0.0
  0
LINE
  5
3136
330
3441
100
AcDbEntity
  8
0
 62
     0
100
AcDbLine
 10
-372.299999999992
 20
-643.2277177148843
 30
0.0
 11
164.2648332040153
 21
-387.7207890261288
 31
0.0
  0
LINE
  5
3137
330
3441
100
AcDbEntity
  8
0
 62
     0
100
AcDbLine
 10
156.5000000000073
 20
-381.4183749530512
 30
0.0
 11
372.3000000000102
 21
-278.6565243826662
 31
0.0
  0
LINE
  5
3138
330
3441
100
AcDbEntity
  8
0
 62
     0
100
AcDbLine
 10
-372.2999999999956
 20
-633.2277659707524
 30
0.0
 11
156.5000000000073
 21
-381.4183749530512
 31
0.0
  0
LINE
  5
3139
330
3441
100
AcDbEntity
  8
0
 62
     0
100
AcDbLine
 10
156.5000000000109
 20
-371.4184232089156
 30
0.0
 11
372.3000000000137
 21
-268.6565726385306
 31
0.0
  0
LINE
  5
313A
330
3441
100
AcDbEntity
  8
0
 62
     0
100
AcDbLine
 10
-372.299999999992
 20
-623.2278142266167
 30
0.0
 11
156.5000000000109
 21
-371.4184232089156
 31
0.0
  0
LINE
  5
313B
330
3441
100
AcDbEntity
  8
0
 62
     0
100
AcDbLine
 10
156.5000000000073
 20
-361.4184714647817
 30
0.0
 11
372.3000000000102
 21
-258.6566208943968
 31
0.0
  0
LINE
  5
313C
330
3441
100
AcDbEntity
  8
0
 62
     0
100
AcDbLine
 10
-372.2999999999956
 20
-613.227862482483
 30
0.0
 11
156.5000000000073
 21
-361.4184714647817
 31
0.0
  0
LINE
  5
313D
330
3441
100
AcDbEntity
  8
0
 62
     0
100
AcDbLine
 10
156.5000000000109
 20
-351.4185197206462
 30
0.0
 11
372.3000000000102
 21
-248.6566691502612
 31
0.0
  0
LINE
  5
313E
330
3441
100
AcDbEntity
  8
0
 62
     0
100
AcDbLine
 10
-372.299999999992
 20
-603.2279107383474
 30
0.0
 11
156.5000000000109
 21
-351.4185197206462
 31
0.0
  0
LINE
  5
313F
330
3441
100
AcDbEntity
  8
0
 62
     0
100
AcDbLine
 10
156.5000000000109
 20
-341.4185679765122
 30
0.0
 11
372.3000000000102
 21
-238.6567174061274
 31
0.0
  0
LINE
  5
3140
330
3441
100
AcDbEntity
  8
0
 62
     0
100
AcDbLine
 10
-372.2999999999956
 20
-593.2279589942136
 30
0.0
 11
156.5000000000109
 21
-341.4185679765122
 31
0.0
  0
LINE
  5
3141
330
3441
100
AcDbEntity
  8
0
 62
     0
100
AcDbLine
 10
156.5000000000109
 20
-331.4186162323768
 30
0.0
 11
372.3000000000102
 21
-228.6567656619918
 31
0.0
  0
LINE
  5
3142
330
3441
100
AcDbEntity
  8
0
 62
     0
100
AcDbLine
 10
-372.2999999999956
 20
-583.228007250078
 30
0.0
 11
156.5000000000073
 21
-331.4186162323768
 31
0.0
  0
LINE
  5
3143
330
3441
100
AcDbEntity
  8
0
 62
     0
100
AcDbLine
 10
156.5000000000109
 20
-321.4186644882448
 30
0.0
 11
372.3000000000102
 21
-218.6568139178598
 31
0.0
  0
LINE
  5
3144
330
3441
100
AcDbEntity
  8
0
 62
     0
100
AcDbLine
 10
-372.2999999999956
 20
-573.2280555059459
 30
0.0
 11
156.5000000000073
 21
-321.4186644882448
 31
0.0
  0
LINE
  5
3145
330
3441
100
AcDbEntity
  8
0
 62
     0
100
AcDbLine
 10
156.5000000000145
 20
-311.4187127441092
 30
0.0
 11
372.3000000000102
 21
-208.6568621737242
 31
0.0
  0
LINE
  5
3146
330
3441
100
AcDbEntity
  8
0
 62
     0
100
AcDbLine
 10
-372.299999999992
 20
-563.2281037618104
 30
0.0
 11
156.5000000000109
 21
-311.4187127441092
 31
0.0
  0
LINE
  5
3147
330
3441
100
AcDbEntity
  8
0
 62
     0
100
AcDbLine
 10
156.5000000000145
 20
-301.4187609999735
 30
0.0
 11
372.3000000000102
 21
-198.6569104295884
 31
0.0
  0
LINE
  5
3148
330
3441
100
AcDbEntity
  8
0
 62
     0
100
AcDbLine
 10
-372.299999999992
 20
-553.2281520176748
 30
0.0
 11
156.5000000000073
 21
-301.4187609999752
 31
0.0
  0
LINE
  5
3149
330
3441
100
AcDbEntity
  8
0
 62
     0
100
AcDbLine
 10
156.5000000000145
 20
-291.4188092558397
 30
0.0
 11
361.2459504552389
 21
-193.9207890261295
 31
0.0
  0
LINE
  5
314A
330
3441
100
AcDbEntity
  8
0
 62
     0
100
AcDbLine
 10
-372.2999999999956
 20
-543.2282002735409
 30
0.0
 11
156.5000000000109
 21
-291.4188092558397
 31
0.0
  0
LINE
  5
314B
330
3441
100
AcDbEntity
  8
0
 62
     0
100
AcDbLine
 10
156.5000000000145
 20
-281.4188575117059
 30
0.0
 11
340.2460407182516
 21
-193.9207890261295
 31
0.0
  0
LINE
  5
314C
330
3441
100
AcDbEntity
  8
0
 62
     0
100
AcDbLine
 10
-372.299999999992
 20
-533.228248529407
 30
0.0
 11
156.5000000000109
 21
-281.4188575117078
 31
0.0
  0
LINE
  5
314D
330
3441
100
AcDbEntity
  8
0
 62
     0
100
AcDbLine
 10
156.5000000000109
 20
-271.4189057675721
 30
0.0
 11
319.246130981257
 21
-193.9207890261295
 31
0.0
  0
LINE
  5
314E
330
3441
100
AcDbEntity
  8
0
 62
     0
100
AcDbLine
 10
-372.2999999999956
 20
-523.2282967852734
 30
0.0
 11
156.5000000000073
 21
-271.4189057675739
 31
0.0
  0
LINE
  5
314F
330
3441
100
AcDbEntity
  8
0
 62
     0
100
AcDbLine
 10
156.5000000000145
 20
-261.4189540234365
 30
0.0
 11
298.2462212442697
 21
-193.9207890261295
 31
0.0
  0
LINE
  5
3150
330
3441
100
AcDbEntity
  8
0
 62
     0
100
AcDbLine
 10
-372.299999999992
 20
-513.2283450411396
 30
0.0
 11
156.5000000000109
 21
-261.4189540234383
 31
0.0
  0
LINE
  5
3151
330
3441
100
AcDbEntity
  8
0
 62
     0
100
AcDbLine
 10
156.5000000000145
 20
-251.4190022793027
 30
0.0
 11
277.2463115072824
 21
-193.9207890261277
 31
0.0
  0
LINE
  5
3152
330
3441
100
AcDbEntity
  8
0
 62
     0
100
AcDbLine
 10
-372.299999999992
 20
-503.228393297004
 30
0.0
 11
156.5000000000109
 21
-251.4190022793044
 31
0.0
  0
LINE
  5
3153
330
3441
100
AcDbEntity
  8
0
 62
     0
100
AcDbLine
 10
156.5000000000145
 20
-241.4190505351653
 30
0.0
 11
256.2464017702877
 21
-193.9207890261277
 31
0.0
  0
LINE
  5
3154
330
3441
100
AcDbEntity
  8
0
 62
     0
100
AcDbLine
 10
-372.2999999999956
 20
-493.2284415528703
 30
0.0
 11
156.5000000000109
 21
-241.4190505351689
 31
0.0
  0
LINE
  5
3155
330
3441
100
AcDbEntity
  8
0
 62
     0
100
AcDbLine
 10
156.5000000000182
 20
-231.4190987910297
 30
0.0
 11
235.2464920332968
 21
-193.9207890261277
 31
0.0
  0
LINE
  5
3156
330
3441
100
AcDbEntity
  8
0
 62
     0
100
AcDbLine
 10
-372.299999999992
 20
-483.2284898087346
 30
0.0
 11
156.5000000000073
 21
-231.4190987910351
 31
0.0
  0
LINE
  5
3157
330
3441
100
AcDbEntity
  8
0
 62
     0
100
AcDbLine
 10
156.5000000000182
 20
-221.4191470468958
 30
0.0
 11
214.2465822963095
 21
-193.9207890261277
 31
0.0
  0
LINE
  5
3158
330
3441
100
AcDbEntity
  8
0
 62
     0
100
AcDbLine
 10
-372.299999999992
 20
-473.2285380646009
 30
0.0
 11
156.5000000000109
 21
-221.4191470468995
 31
0.0
  0
LINE
  5
3159
330
3441
100
AcDbEntity
  8
0
 62
     0
100
AcDbLine
 10
156.5000000000182
 20
-211.4191953027621
 30
0.0
 11
193.2466725593149
 21
-193.9207890261295
 31
0.0
  0
LINE
  5
315A
330
3441
100
AcDbEntity
  8
0
 62
     0
100
AcDbLine
 10
-372.2999999999956
 20
-463.2285863204688
 30
0.0
 11
156.5000000000073
 21
-211.4191953027675
 31
0.0
  0
LINE
  5
315B
330
3441
100
AcDbEntity
  8
0
 62
     0
100
AcDbLine
 10
156.5000000000182
 20
-201.4192435586283
 30
0.0
 11
172.2467628223239
 21
-193.9207890261295
 31
0.0
  0
LINE
  5
315C
330
3441
100
AcDbEntity
  8
0
 62
     0
100
AcDbLine
 10
-372.299999999992
 20
-453.2286345763329
 30
0.0
 11
156.5000000000109
 21
-201.4192435586319
 31
0.0
  0
LINE
  5
315D
330
3441
100
AcDbEntity
  8
0
 62
     0
100
AcDbLine
 10
-372.2999999999956
 20
-443.2286828321974
 30
0.0
 11
151.2468530853293
 21
-193.9207890261295
 31
0.0
  0
LINE
  5
315E
330
3441
100
AcDbEntity
  8
0
 62
     0
100
AcDbLine
 10
-372.2999999999956
 20
-433.2287310880636
 30
0.0
 11
130.246943348342
 21
-193.9207890261295
 31
0.0
  0
LINE
  5
315F
330
3441
100
AcDbEntity
  8
0
 62
     0
100
AcDbLine
 10
-372.299999999992
 20
-423.22877934393
 30
0.0
 11
109.247033611351
 21
-193.9207890261313
 31
0.0
  0
LINE
  5
3160
330
3441
100
AcDbEntity
  8
0
 62
     0
100
AcDbLine
 10
-372.2999999999956
 20
-413.2288275997962
 30
0.0
 11
88.24712387435646
 21
-193.9207890261313
 31
0.0
  0
LINE
  5
3161
330
3441
100
AcDbEntity
  8
0
 62
     0
100
AcDbLine
 10
-372.299999999992
 20
-403.2288758556604
 30
0.0
 11
67.24721413736915
 21
-193.9207890261295
 31
0.0
  0
LINE
  5
3162
330
3441
100
AcDbEntity
  8
0
 62
     0
100
AcDbLine
 10
-372.299999999992
 20
-393.228924111525
 30
0.0
 11
46.24730440038184
 21
-193.9207890261295
 31
0.0
  0
LINE
  5
3163
330
3441
100
AcDbEntity
  8
0
 62
     0
100
AcDbLine
 10
-372.2999999999956
 20
-383.2289723673912
 30
0.0
 11
25.24739466338724
 21
-193.9207890261277
 31
0.0
  0
LINE
  5
3164
330
3441
100
AcDbEntity
  8
0
 62
     0
100
AcDbLine
 10
-372.2999999999956
 20
-373.2290206232574
 30
0.0
 11
4.24748492639992
 21
-193.9207890261277
 31
0.0
  0
LINE
  5
3165
330
3441
100
AcDbEntity
  8
0
 62
     0
100
AcDbLine
 10
-372.299999999992
 20
-363.2290688791236
 30
0.0
 11
-16.7524248105874
 21
-193.9207890261295
 31
0.0
  0
LINE
  5
3166
330
3441
100
AcDbEntity
  8
0
 62
     0
100
AcDbLine
 10
-372.299999999992
 20
-353.229117134988
 30
0.0
 11
-37.752334547582
 21
-193.9207890261277
 31
0.0
  0
LINE
  5
3167
330
3441
100
AcDbEntity
  8
0
 62
     0
100
AcDbLine
 10
-372.2999999999956
 20
-343.2291653908542
 30
0.0
 11
-58.75224428457295
 21
-193.9207890261277
 31
0.0
  0
LINE
  5
3168
330
3441
100
AcDbEntity
  8
0
 62
     0
100
AcDbLine
 10
-372.2999999999956
 20
-333.2292136467186
 30
0.0
 11
-79.75215402156755
 21
-193.9207890261277
 31
0.0
  0
LINE
  5
3169
330
3441
100
AcDbEntity
  8
0
 62
     0
100
AcDbLine
 10
-372.2999999999956
 20
-323.2292619025865
 30
0.0
 11
-100.7520637585548
 21
-193.9207890261295
 31
0.0
  0
LINE
  5
316A
330
3441
100
AcDbEntity
  8
0
 62
     0
100
AcDbLine
 10
-372.299999999992
 20
-313.2293101584511
 30
0.0
 11
-121.7519734955458
 21
-193.9207890261295
 31
0.0
  0
LINE
  5
316B
330
3441
100
AcDbEntity
  8
0
 62
     0
100
AcDbLine
 10
-372.299999999992
 20
-303.2293584143153
 30
0.0
 11
-142.7518832325404
 21
-193.9207890261295
 31
0.0
  0
LINE
  5
316C
330
3441
100
AcDbEntity
  8
0
 62
     0
100
AcDbLine
 10
-372.2999999999956
 20
-293.2294066701816
 30
0.0
 11
-163.7517929695277
 21
-193.9207890261295
 31
0.0
  0
LINE
  5
316D
330
3441
100
AcDbEntity
  8
0
 62
     0
100
AcDbLine
 10
-372.2999999999956
 20
-283.2294549260478
 30
0.0
 11
-184.7517027065187
 21
-193.9207890261295
 31
0.0
  0
LINE
  5
316E
330
3441
100
AcDbEntity
  8
0
 62
     0
100
AcDbLine
 10
-372.2999999999956
 20
-273.2295031819122
 30
0.0
 11
-205.7516124435133
 21
-193.9207890261295
 31
0.0
  0
LINE
  5
316F
330
3441
100
AcDbEntity
  8
0
 62
     0
100
AcDbLine
 10
-372.299999999992
 20
-263.2295514377765
 30
0.0
 11
-226.7515221805005
 21
-193.9207890261295
 31
0.0
  0
LINE
  5
3170
330
3441
100
AcDbEntity
  8
0
 62
     0
100
AcDbLine
 10
-372.299999999992
 20
-253.2295996936446
 30
0.0
 11
-247.7514319174879
 21
-193.9207890261295
 31
0.0
  0
LINE
  5
3171
330
3441
100
AcDbEntity
  8
0
 62
     0
100
AcDbLine
 10
-372.2999999999956
 20
-243.2296479495088
 30
0.0
 11
-268.7513416544825
 21
-193.9207890261295
 31
0.0
  0
LINE
  5
3172
330
3441
100
AcDbEntity
  8
0
 62
     0
100
AcDbLine
 10
-372.2999999999956
 20
-233.2296962053752
 30
0.0
 11
-289.7512513914699
 21
-193.9207890261277
 31
0.0
  0
LINE
  5
3173
330
3441
100
AcDbEntity
  8
0
 62
     0
100
AcDbLine
 10
-372.299999999992
 20
-223.2297444612395
 30
0.0
 11
-310.7511611284608
 21
-193.9207890261277
 31
0.0
  0
LINE
  5
3174
330
3441
100
AcDbEntity
  8
0
 62
     0
100
AcDbLine
 10
-372.299999999992
 20
-213.2297927171058
 30
0.0
 11
-331.7510708654518
 21
-193.9207890261295
 31
0.0
  0
LINE
  5
3175
330
3441
100
AcDbEntity
  8
0
 62
     0
100
AcDbLine
 10
-372.299999999992
 20
-203.2298409729719
 30
0.0
 11
-352.7509806024428
 21
-193.9207890261295
 31
0.0
  0
ENDBLK
  5
3176
330
3441
100
AcDbEntity
  8
0
100
AcDbBlockEnd
  0
ENDSEC
  0
SECTION
  2
ENTITIES
  0
TEXT
  5
953
330
33B0
100
AcDbEntity
  8
OUTLINE
  6
Continuous
 62
     3
100
AcDbText
 10
-418.231467
 20
13.715189
 30
0.0
 40
64.0
  1
 
 41
0.9
100
AcDbText
  0
TEXT
  5
954
330
33B0
100
AcDbEntity
  8
OUTLINE
  6
Continuous
 62
     3
100
AcDbText
 10
-418.231467
 20
13.715189
 30
0.0
 40
64.0
  1
 
 41
0.9
100
AcDbText
  0
TEXT
  5
955
330
33B0
100
AcDbEntity
  8
OUTLINE
  6
Continuous
 62
     3
100
AcDbText
 10
1341.41903
 20
-706.0588199999997
 30
0.0
 40
64.0
  1
 
 41
0.9
100
AcDbText
  0
TEXT
  5
956
330
33B0
100
AcDbEntity
  8
OUTLINE
  6
Continuous
 62
     3
100
AcDbText
 10
1341.41903
 20
-706.0588199999997
 30
0.0
 40
64.0
  1
 
 41
0.9
100
AcDbText
  0
TEXT
  5
957
330
33B0
100
AcDbEntity
  8
OUTLINE
  6
Continuous
 62
     3
100
AcDbText
 10
1341.41903
 20
-706.0588199999997
 30
0.0
 40
64.0
  1
 
 41
0.9
100
AcDbText
  0
TEXT
  5
958
330
33B0
100
AcDbEntity
  8
OUTLINE
  6
Continuous
 62
     3
100
AcDbText
 10
1341.41903
 20
-706.0588199999997
 30
0.0
 40
64.0
  1
 
 41
0.9
100
AcDbText
  0
TEXT
  5
3240
330
33B0
100
AcDbEntity
  8
ETC
100
AcDbText
 10
699.5287085491145
 20
403.0057800032706
 30
0.0
 40
64.0
  1
システム部材
 41
0.9
100
AcDbText
  0
TEXT
  5
3241
330
33B0
100
AcDbEntity
  8
ETC
100
AcDbText
 10
696.6621428234648
 20
504.8365397587913
 30
0.0
 40
64.0
  1
QWH-70SA_6
 41
0.9
100
AcDbText
  0
TEXT
  5
3242
330
33B0
100
AcDbEntity
  8
ETC
100
AcDbText
 10
696.6621428234648
 20
304.8365397587911
 30
0.0
 40
64.0
  1
QWH-70SA
 41
0.9
100
AcDbText
  0
CIRCLE
  5
3243
330
33B0
100
AcDbEntity
  8
ARRANGE
100
AcDbCircle
 10
0.0
 20
-0.000000000001819
 30
0.0
 40
40.0
  0
LINE
  5
3244
330
33B0
100
AcDbEntity
  8
ARRANGE
100
AcDbLine
 10
-19.19638649990156
 20
19.19638649989974
 30
0.0
 11
19.19638649989792
 21
-19.19638649990702
 31
0.0
  0
LINE
  5
3245
330
33B0
100
AcDbEntity
  8
ARRANGE
100
AcDbLine
 10
19.19638649989792
 20
19.19638649990156
 30
0.0
 11
-19.19638649990156
 21
-19.1963864999052
 31
0.0
  0
LINE
  5
3246
330
33B0
100
AcDbEntity
  8
BASIC
100
AcDbLine
 10
0.0
 20
-1.500000000001818
 30
0.0
 11
0.0
 21
-1.500000000001818
 31
0.0
  0
LINE
  5
3247
330
33B0
100
AcDbEntity
  8
BASIC
100
AcDbLine
 10
0.0
 20
24.99999999999818
 30
0.0
 11
0.0
 21
-1077.000000000002
 31
0.0
  0
LINE
  5
3248
330
33B0
100
AcDbEntity
  8
NOTE
100
AcDbLine
 10
400.0
 20
-12.50000000000182
 30
0.0
 11
400.0
 21
12.49999999999818
 31
0.0
  0
LINE
  5
3249
330
33B0
100
AcDbEntity
  8
NOTE
100
AcDbLine
 10
-399.9999999999998
 20
-12.50000000000182
 30
0.0
 11
-399.9999999999998
 21
12.49999999999818
 31
0.0
  0
LINE
  5
324A
330
33B0
100
AcDbEntity
  8
DETAIL
100
AcDbLine
 10
425.0
 20
-0.4000000000032742
 30
0.0
 11
425.0
 21
-8.000000000002728
 31
0.0
  0
LINE
  5
324B
330
33B0
100
AcDbEntity
  8
DETAIL
100
AcDbLine
 10
-424.9999999999998
 20
-0.4000000000032742
 30
0.0
 11
-424.9999999999998
 21
-8.000000000002728
 31
0.0
  0
LINE
  5
324C
330
33B0
100
AcDbEntity
  8
DETAIL
100
AcDbLine
 10
-384.9999999999998
 20
-0.000000000001819
 30
0.0
 11
-424.9999999999998
 21
-0.000000000001819
 31
0.0
  0
LINE
  5
324D
330
33B0
100
AcDbEntity
  8
DETAIL
100
AcDbLine
 10
425.0
 20
-0.000000000001819
 30
0.0
 11
385.0
 21
-0.000000000001819
 31
0.0
  0
LINE
  5
324E
330
33B0
100
AcDbEntity
  8
DETAIL
100
AcDbLine
 10
425.0
 20
-8.000000000002728
 30
0.0
 11
-424.9999999999998
 21
-8.000000000002728
 31
0.0
  0
LINE
  5
324F
330
33B0
100
AcDbEntity
  8
DETAIL
100
AcDbLine
 10
385.0
 20
-0.000000000001819
 30
0.0
 11
-384.9999999999998
 21
-0.000000000001819
 31
0.0
  0
LINE
  5
3250
330
33B0
100
AcDbEntity
  8
DETAIL
100
AcDbLine
 10
386.0
 20
-139.0857864376284
 30
0.0
 11
387.0
 21
-139.0857864376284
 31
0.0
  0
LINE
  5
3251
330
33B0
100
AcDbEntity
  8
DETAIL
100
AcDbLine
 10
387.0
 20
-8.000000000002728
 30
0.0
 11
387.0
 21
-139.0857864376284
 31
0.0
  0
LINE
  5
3252
330
33B0
100
AcDbEntity
  8
DETAIL
100
AcDbLine
 10
-385.9999999999998
 20
-139.0857864376284
 30
0.0
 11
-386.9999999999998
 21
-139.0857864376284
 31
0.0
  0
LINE
  5
3253
330
33B0
100
AcDbEntity
  8
DETAIL
100
AcDbLine
 10
-386.9999999999998
 20
-165.8680706291725
 30
0.0
 11
-386.9999999999998
 21
-139.0857864376284
 31
0.0
  0
LINE
  5
3254
330
33B0
100
AcDbEntity
  8
DETAIL
100
AcDbLine
 10
-386.9999999999998
 20
-139.0857864376284
 30
0.0
 11
-386.9999999999998
 21
-8.000000000002728
 31
0.0
  0
LINE
  5
3255
330
33B0
100
AcDbEntity
  8
DETAIL
100
AcDbLine
 10
387.0
 20
-139.0857864376284
 30
0.0
 11
387.0
 21
-165.8680706291725
 31
0.0
  0
LINE
  5
3256
330
33B0
100
AcDbEntity
  8
DETAIL
100
AcDbLine
 10
386.0
 20
-139.0857864376284
 30
0.0
 11
-385.9999999999998
 21
-139.0857864376284
 31
0.0
  0
LINE
  5
3257
330
33B0
100
AcDbEntity
  8
DETAIL
100
AcDbLine
 10
-376.4999999999925
 20
-1029.995679474183
 30
0.0
 11
-376.4999999999925
 21
-1030.000000000002
 31
0.0
  0
LINE
  5
3258
330
33B0
100
AcDbEntity
  8
DETAIL
100
AcDbLine
 10
-383.4999999999925
 20
-1030.000000000002
 30
0.0
 11
-398.4999999999928
 21
-1030.000000000012
 31
0.0
  0
LINE
  5
3259
330
33B0
100
AcDbEntity
  8
DETAIL
100
AcDbLine
 10
379.5
 20
-1052.000000000002
 30
0.0
 11
384.5
 21
-1049.883757344667
 31
0.0
  0
LINE
  5
325A
330
33B0
100
AcDbEntity
  8
DETAIL
100
AcDbLine
 10
379.5
 20
-1052.000000000002
 30
0.0
 11
-379.4999999999998
 21
-1052.000000000002
 31
0.0
  0
LINE
  5
325B
330
33B0
100
AcDbEntity
  8
DETAIL
100
AcDbLine
 10
-384.4999999999998
 20
-1049.883757344667
 30
0.0
 11
-379.4999999999998
 21
-1052.000000000002
 31
0.0
  0
LINE
  5
325C
330
33B0
100
AcDbEntity
  8
DETAIL
100
AcDbLine
 10
-384.4999999999998
 20
-1045.000000000002
 30
0.0
 11
-384.4999999999998
 21
-1030.000000000002
 31
0.0
  0
LINE
  5
325D
330
33B0
100
AcDbEntity
  8
DETAIL
100
AcDbLine
 10
-384.4999999999998
 20
-1049.883757344667
 30
0.0
 11
-384.4999999999998
 21
-1045.000000000002
 31
0.0
  0
LINE
  5
325E
330
33B0
100
AcDbEntity
  8
DETAIL
100
AcDbLine
 10
384.5
 20
-1045.000000000002
 30
0.0
 11
-384.4999999999998
 21
-1045.000000000002
 31
0.0
  0
LINE
  5
325F
330
33B0
100
AcDbEntity
  8
DETAIL
100
AcDbLine
 10
384.5
 20
-1049.883757344668
 30
0.0
 11
384.5
 21
-1045.000000000002
 31
0.0
  0
LINE
  5
3260
330
33B0
100
AcDbEntity
  8
DETAIL
100
AcDbLine
 10
-374.4999999999998
 20
-1030.000000000002
 30
0.0
 11
-384.4999999999998
 21
-1030.000000000002
 31
0.0
  0
LINE
  5
3261
330
33B0
100
AcDbEntity
  8
DETAIL
100
AcDbLine
 10
384.5
 20
-1030.000000000002
 30
0.0
 11
374.5
 21
-1030.000000000002
 31
0.0
  0
LINE
  5
3262
330
33B0
100
AcDbEntity
  8
DETAIL
100
AcDbLine
 10
384.5
 20
-1045.000000000002
 30
0.0
 11
384.5
 21
-1030.000000000002
 31
0.0
  0
LINE
  5
3263
330
33B0
100
AcDbEntity
  8
DETAIL
100
AcDbLine
 10
383.5000000000073
 20
-1030.000000000002
 30
0.0
 11
383.5000000000073
 21
-1029.995679474183
 31
0.0
  0
LINE
  5
3264
330
33B0
100
AcDbEntity
  8
DETAIL
100
AcDbLine
 10
398.5
 20
-1030.000000000009
 30
0.0
 11
383.5000000000073
 21
-1030.000000000002
 31
0.0
  0
LINE
  5
3265
330
33B0
100
AcDbEntity
  8
DETAIL
100
AcDbLine
 10
387.3000000000102
 20
-178.9107189512451
 30
0.0
 11
387.3000000000102
 21
-165.8680706291707
 31
0.0
  0
LINE
  5
3266
330
33B0
100
AcDbEntity
  8
DETAIL
100
AcDbLine
 10
398.5000000000073
 20
-180.6344221121708
 30
0.0
 11
398.5000000000073
 21
-165.8680706291707
 31
0.0
  0
LINE
  5
3267
330
33B0
100
AcDbEntity
  8
DETAIL
100
AcDbLine
 10
387.3000000000102
 20
-165.8680706291707
 30
0.0
 11
398.5
 21
-165.8680706291707
 31
0.0
  0
LINE
  5
3268
330
33B0
100
AcDbEntity
  8
DETAIL
100
AcDbLine
 10
-387.2999999999917
 20
-165.8680706291725
 30
0.0
 11
-387.2999999999917
 21
-178.9107189512451
 31
0.0
  0
LINE
  5
3269
330
33B0
100
AcDbEntity
  8
DETAIL
100
AcDbLine
 10
-398.4999999999998
 20
-165.8680706291725
 30
0.0
 11
-398.4999999999998
 21
-180.634422112169
 31
0.0
  0
LINE
  5
326A
330
33B0
100
AcDbEntity
  8
DETAIL
100
AcDbLine
 10
-387.2999999999917
 20
-165.8680706291725
 30
0.0
 11
-398.4999999999928
 21
-165.8680706291725
 31
0.0
  0
LINE
  5
326B
330
33B0
100
AcDbEntity
  8
DETAIL
100
AcDbLine
 10
387.3000000000102
 20
-193.7989297301865
 30
0.0
 11
387.3000000000102
 21
-193.9207890261295
 31
0.0
  0
LINE
  5
326C
330
33B0
100
AcDbEntity
  8
DETAIL
100
AcDbLine
 10
-387.2999999999917
 20
-193.9207890261295
 30
0.0
 11
387.3000000000102
 21
-193.9207890261295
 31
0.0
  0
LINE
  5
326D
330
33B0
100
AcDbEntity
  8
OUTLINE
100
AcDbLine
 10
-387.2999999999917
 20
-193.7989297301865
 30
0.0
 11
-387.2999999999917
 21
-193.9207890261295
 31
0.0
  0
LINE
  5
326E
330
33B0
100
AcDbEntity
  8
DETAIL
100
AcDbLine
 10
-387.2999999999917
 20
-165.8680706291725
 30
0.0
 11
387.3000000000102
 21
-165.8680706291725
 31
0.0
  0
LINE
  5
326F
330
33B0
100
AcDbEntity
  8
DETAIL
100
AcDbLine
 10
387.3000000000102
 20
-165.8680706291725
 30
0.0
 11
387.3000000000102
 21
-178.9107189512451
 31
0.0
  0
LINE
  5
3270
330
33B0
100
AcDbEntity
  8
DETAIL
100
AcDbLine
 10
-387.2999999999917
 20
-165.8680706291725
 30
0.0
 11
-387.2999999999917
 21
-178.9107189512451
 31
0.0
  0
LINE
  5
3271
330
33B0
100
AcDbEntity
  8
DETAIL
100
AcDbLine
 10
-387.2999999999917
 20
-178.9107189512451
 30
0.0
 11
387.3000000000102
 21
-178.9107189512451
 31
0.0
  0
LINE
  5
3272
330
33B0
100
AcDbEntity
  8
DETAIL
100
AcDbLine
 10
-387.2999999999917
 20
-178.9107189512451
 30
0.0
 11
-387.2999999999917
 21
-193.7989297301865
 31
0.0
  0
LINE
  5
3273
330
33B0
100
AcDbEntity
  8
DETAIL
100
AcDbLine
 10
387.3000000000102
 20
-178.9107189512451
 30
0.0
 11
387.3000000000102
 21
-193.7989297301865
 31
0.0
  0
LINE
  5
3274
330
33B0
100
AcDbEntity
  8
DETAIL
100
AcDbLine
 10
372.3000000000102
 20
-1029.264523698521
 30
0.0
 11
387.3000000000102
 21
-1029.264523698521
 31
0.0
  0
LINE
  5
3275
330
33B0
100
AcDbEntity
  8
DETAIL
100
AcDbLine
 10
372.3000000000102
 20
-193.9207890261295
 30
0.0
 11
372.3000000000102
 21
-1029.142664402576
 31
0.0
  0
LINE
  5
3276
330
33B0
100
AcDbEntity
  8
DETAIL
100
AcDbLine
 10
372.3000000000102
 20
-1029.142664402576
 30
0.0
 11
372.3000000000102
 21
-1029.264523698521
 31
0.0
  0
LINE
  5
3277
330
33B0
100
AcDbEntity
  8
DETAIL
100
AcDbLine
 10
398.5
 20
-1030.000000000009
 30
0.0
 11
398.5
 21
-1029.751960882297
 31
0.0
  0
LINE
  5
3278
330
33B0
100
AcDbEntity
  8
DETAIL
100
AcDbLine
 10
398.5
 20
-180.6344221121708
 30
0.0
 11
398.5
 21
-1029.751960882297
 31
0.0
  0
LINE
  5
3279
330
33B0
100
AcDbEntity
  8
DETAIL
100
AcDbLine
 10
398.5
 20
-180.6344221121708
 30
0.0
 11
387.3000000000102
 21
-180.6344221121708
 31
0.0
  0
LINE
  5
327A
330
33B0
100
AcDbEntity
  8
DETAIL
100
AcDbLine
 10
387.3000000000102
 20
-193.9207890261295
 30
0.0
 11
387.3000000000102
 21
-1029.264523698521
 31
0.0
  0
LINE
  5
327B
330
33B0
100
AcDbEntity
  8
DETAIL
100
AcDbLine
 10
387.3000000000102
 20
-1029.142664402576
 30
0.0
 11
372.3000000000102
 21
-1029.142664402576
 31
0.0
  0
LINE
  5
327C
330
33B0
100
AcDbEntity
  8
DETAIL
100
AcDbLine
 10
372.3000000000102
 20
-1028.637554201088
 30
0.0
 11
-372.2999999999808
 21
-1028.637554201088
 31
0.0
  0
LINE
  5
327D
330
33B0
100
AcDbEntity
  8
DETAIL
100
AcDbLine
 10
372.3000000000102
 20
-1028.881272792976
 30
0.0
 11
-372.2999999999808
 21
-1028.881272792976
 31
0.0
  0
LINE
  5
327E
330
33B0
100
AcDbEntity
  8
DETAIL
100
AcDbLine
 10
-372.2999999999918
 20
-1029.264523698521
 30
0.0
 11
-387.2999999999917
 21
-1029.264523698521
 31
0.0
  0
LINE
  5
327F
330
33B0
100
AcDbEntity
  8
DETAIL
100
AcDbLine
 10
-372.2999999999918
 20
-1029.142664402574
 30
0.0
 11
-372.2999999999918
 21
-1029.264523698521
 31
0.0
  0
LINE
  5
3280
330
33B0
100
AcDbEntity
  8
DETAIL
100
AcDbLine
 10
-372.2999999999918
 20
-1029.142664402574
 30
0.0
 11
-372.2999999999918
 21
-193.9207890261295
 31
0.0
  0
LINE
  5
3281
330
33B0
100
AcDbEntity
  8
DETAIL
100
AcDbLine
 10
-398.4999999999928
 20
-1029.751960882292
 30
0.0
 11
-398.4999999999928
 21
-180.634422112169
 31
0.0
  0
LINE
  5
3282
330
33B0
100
AcDbEntity
  8
DETAIL
100
AcDbLine
 10
-398.4999999999928
 20
-1030.000000000012
 30
0.0
 11
-398.4999999999928
 21
-1029.751960882292
 31
0.0
  0
LINE
  5
3283
330
33B0
100
AcDbEntity
  8
DETAIL
100
AcDbLine
 10
-398.4999999999928
 20
-180.634422112169
 30
0.0
 11
-387.2999999999917
 21
-180.634422112169
 31
0.0
  0
LINE
  5
3284
330
33B0
100
AcDbEntity
  8
DETAIL
100
AcDbLine
 10
-387.2999999999917
 20
-1029.264523698521
 30
0.0
 11
-387.2999999999917
 21
-193.9207890261295
 31
0.0
  0
LINE
  5
3285
330
33B0
100
AcDbEntity
  8
DETAIL
100
AcDbLine
 10
-387.2999999999917
 20
-1029.142664402574
 30
0.0
 11
-372.2999999999918
 21
-1029.142664402574
 31
0.0
  0
LINE
  5
3286
330
33B0
100
AcDbEntity
  8
DETAIL
100
AcDbLine
 10
-372.2999999999918
 20
-1015.608104071672
 30
0.0
 11
372.3000000000102
 21
-1015.608104071672
 31
0.0
  0
LINE
  5
3287
330
33B0
100
AcDbEntity
  8
DETAIL
100
AcDbLine
 10
-374.4999999999998
 20
-1030.000000000002
 30
0.0
 11
374.5
 21
-1030.000000000002
 31
0.0
  0
INSERT
  5
3288
330
33B0
100
AcDbEntity
  8
0
100
AcDbBlockReference
  2
*U31
 10
0.0
 20
0.0
 30
0.0
1001
ACAD
1000
DSTYLE
1002
{
1070
    41
1040
12.0
1070
    42
1040
20.0
1070
    43
1040
200.0
1070
    44
1040
20.0
1070
    73
1070
     0
1070
    74
1070
     0
1070
    77
1070
     1
1070
    78
1070
     8
1070
   140
1040
64.0
1070
   147
1040
50.0
1070
   172
1070
     1
1070
   174
1070
     1
1070
   275
1070
     0
1070
   284
1070
     0
1070
   285
1070
     0
1070
   286
1070
     0
1070
   341
1005
0
1070
   342
1005
0
1002
}
  0
LINE
  5
3289
330
33B0
100
AcDbEntity
  8
NOTE
100
AcDbLine
 39
50.0
 10
-412.4999999999998
 20
-0.000000000001819
 30
0.0
 11
-387.4999999999998
 21
-0.000000000001819
 31
0.0
  0
LINE
  5
328A
330
33B0
100
AcDbEntity
  8
NOTE
100
AcDbLine
 39
50.0
 10
387.5
 20
-0.000000000001819
 30
0.0
 11
412.5
 21
-0.000000000001819
 31
0.0
  0
LINE
  5
328B
330
33B0
100
AcDbEntity
  8
OUTLINE
100
AcDbLine
 10
-384.9999999999998
 20
-0.000000000001819
 30
0.0
 11
-424.9999999999998
 21
-0.000000000001819
 31
0.0
  0
LINE
  5
328C
330
33B0
100
AcDbEntity
  8
OUTLINE
100
AcDbLine
 10
425.0
 20
-0.000000000001819
 30
0.0
 11
385.0
 21
-0.000000000001819
 31
0.0
  0
LINE
  5
328D
330
33B0
100
AcDbEntity
  8
OUTLINE
100
AcDbLine
 10
385.0
 20
-0.000000000001819
 30
0.0
 11
-384.9999999999998
 21
-0.000000000001819
 31
0.0
  0
LINE
  5
328E
330
33B0
100
AcDbEntity
  8
DETAIL
100
AcDbLine
 10
-424.9999999999998
 20
-0.4000000000032742
 30
0.0
 11
-424.9999999999998
 21
-0.000000000001819
 31
0.0
  0
LINE
  5
328F
330
33B0
100
AcDbEntity
  8
DETAIL
100
AcDbLine
 10
425.0
 20
-0.000000000001819
 30
0.0
 11
425.0
 21
-0.4000000000032742
 31
0.0
  0
LINE
  5
3290
330
33B0
100
AcDbEntity
  8
OUTLINE
100
AcDbLine
 10
425.0
 20
-8.000000000002728
 30
0.0
 11
-424.9999999999998
 21
-8.000000000002728
 31
0.0
  0
LINE
  5
3291
330
33B0
100
AcDbEntity
  8
OUTLINE
100
AcDbLine
 10
-386.9999999999998
 20
-165.8680706291725
 30
0.0
 11
-386.9999999999998
 21
-139.0857864376284
 31
0.0
  0
LINE
  5
3292
330
33B0
100
AcDbEntity
  8
OUTLINE
100
AcDbLine
 10
387.0
 20
-139.0857864376284
 30
0.0
 11
387.0
 21
-165.8680706291725
 31
0.0
  0
LINE
  5
3293
330
33B0
100
AcDbEntity
  8
OUTLINE
100
AcDbLine
 10
386.0
 20
-139.0857864376284
 30
0.0
 11
-385.9999999999998
 21
-139.0857864376284
 31
0.0
  0
LINE
  5
3294
330
33B0
100
AcDbEntity
  8
OUTLINE
100
AcDbLine
 10
-376.4999999999925
 20
-1029.995679474183
 30
0.0
 11
-376.4999999999925
 21
-1030.000000000002
 31
0.0
  0
LINE
  5
3295
330
33B0
100
AcDbEntity
  8
OUTLINE
100
AcDbLine
 10
-383.4999999999925
 20
-1030.000000000002
 30
0.0
 11
-398.4999999999928
 21
-1030.000000000012
 31
0.0
  0
LINE
  5
3296
330
33B0
100
AcDbEntity
  8
OUTLINE
100
AcDbLine
 10
379.5
 20
-1052.000000000002
 30
0.0
 11
384.5
 21
-1049.883757344667
 31
0.0
  0
LINE
  5
3297
330
33B0
100
AcDbEntity
  8
OUTLINE
100
AcDbLine
 10
379.5
 20
-1052.000000000002
 30
0.0
 11
-379.4999999999998
 21
-1052.000000000002
 31
0.0
  0
LINE
  5
3298
330
33B0
100
AcDbEntity
  8
OUTLINE
100
AcDbLine
 10
-384.4999999999998
 20
-1049.883757344667
 30
0.0
 11
-379.4999999999998
 21
-1052.000000000002
 31
0.0
  0
LINE
  5
3299
330
33B0
100
AcDbEntity
  8
OUTLINE
100
AcDbLine
 10
-384.4999999999998
 20
-1045.000000000002
 30
0.0
 11
-384.4999999999998
 21
-1030.000000000002
 31
0.0
  0
LINE
  5
329A
330
33B0
100
AcDbEntity
  8
OUTLINE
100
AcDbLine
 10
-384.4999999999998
 20
-1049.883757344667
 30
0.0
 11
-384.4999999999998
 21
-1045.000000000002
 31
0.0
  0
LINE
  5
329B
330
33B0
100
AcDbEntity
  8
OUTLINE
100
AcDbLine
 10
384.5
 20
-1045.000000000002
 30
0.0
 11
-384.4999999999998
 21
-1045.000000000002
 31
0.0
  0
LINE
  5
329C
330
33B0
100
AcDbEntity
  8
OUTLINE
100
AcDbLine
 10
384.5
 20
-1049.883757344668
 30
0.0
 11
384.5
 21
-1045.000000000002
 31
0.0
  0
LINE
  5
329D
330
33B0
100
AcDbEntity
  8
OUTLINE
100
AcDbLine
 10
-374.4999999999998
 20
-1030.000000000002
 30
0.0
 11
-384.4999999999998
 21
-1030.000000000002
 31
0.0
  0
LINE
  5
329E
330
33B0
100
AcDbEntity
  8
OUTLINE
100
AcDbLine
 10
384.5
 20
-1030.000000000002
 30
0.0
 11
374.5
 21
-1030.000000000002
 31
0.0
  0
LINE
  5
329F
330
33B0
100
AcDbEntity
  8
OUTLINE
100
AcDbLine
 10
384.5
 20
-1045.000000000002
 30
0.0
 11
384.5
 21
-1030.000000000002
 31
0.0
  0
LINE
  5
32A0
330
33B0
100
AcDbEntity
  8
OUTLINE
100
AcDbLine
 10
383.5000000000073
 20
-1030.000000000002
 30
0.0
 11
383.5000000000073
 21
-1029.995679474183
 31
0.0
  0
LINE
  5
32A1
330
33B0
100
AcDbEntity
  8
OUTLINE
100
AcDbLine
 10
398.5
 20
-1030.000000000009
 30
0.0
 11
383.5000000000073
 21
-1030.000000000002
 31
0.0
  0
LINE
  5
32A2
330
33B0
100
AcDbEntity
  8
OUTLINE
100
AcDbLine
 10
387.3000000000102
 20
-178.9107189512451
 30
0.0
 11
387.3000000000102
 21
-165.8680706291707
 31
0.0
  0
LINE
  5
32A3
330
33B0
100
AcDbEntity
  8
OUTLINE
100
AcDbLine
 10
398.5000000000073
 20
-180.6344221121708
 30
0.0
 11
398.5000000000073
 21
-165.8680706291707
 31
0.0
  0
LINE
  5
32A4
330
33B0
100
AcDbEntity
  8
OUTLINE
100
AcDbLine
 10
387.3000000000102
 20
-165.8680706291707
 30
0.0
 11
398.5
 21
-165.8680706291707
 31
0.0
  0
LINE
  5
32A5
330
33B0
100
AcDbEntity
  8
OUTLINE
100
AcDbLine
 10
-387.2999999999917
 20
-165.8680706291725
 30
0.0
 11
-387.2999999999917
 21
-178.9107189512451
 31
0.0
  0
LINE
  5
32A6
330
33B0
100
AcDbEntity
  8
OUTLINE
100
AcDbLine
 10
-398.4999999999998
 20
-165.8680706291725
 30
0.0
 11
-398.4999999999998
 21
-180.634422112169
 31
0.0
  0
LINE
  5
32A7
330
33B0
100
AcDbEntity
  8
OUTLINE
100
AcDbLine
 10
-387.2999999999917
 20
-165.8680706291725
 30
0.0
 11
-398.4999999999928
 21
-165.8680706291725
 31
0.0
  0
LINE
  5
32A8
330
33B0
100
AcDbEntity
  8
OUTLINE
100
AcDbLine
 10
-387.2999999999917
 20
-165.8680706291725
 30
0.0
 11
387.3000000000102
 21
-165.8680706291725
 31
0.0
  0
LINE
  5
32A9
330
33B0
100
AcDbEntity
  8
OUTLINE
100
AcDbLine
 10
387.3000000000102
 20
-165.8680706291725
 30
0.0
 11
387.3000000000102
 21
-178.9107189512451
 31
0.0
  0
LINE
  5
32AA
330
33B0
100
AcDbEntity
  8
OUTLINE
100
AcDbLine
 10
-387.2999999999917
 20
-165.8680706291725
 30
0.0
 11
-387.2999999999917
 21
-178.9107189512451
 31
0.0
  0
LINE
  5
32AB
330
33B0
100
AcDbEntity
  8
OUTLINE
100
AcDbLine
 10
-387.2999999999917
 20
-178.9107189512451
 30
0.0
 11
387.3000000000102
 21
-178.9107189512451
 31
0.0
  0
LINE
  5
32AC
330
33B0
100
AcDbEntity
  8
OUTLINE
100
AcDbLine
 10
-387.2999999999917
 20
-178.9107189512451
 30
0.0
 11
-387.2999999999917
 21
-193.7989297301865
 31
0.0
  0
LINE
  5
32AD
330
33B0
100
AcDbEntity
  8
OUTLINE
100
AcDbLine
 10
387.3000000000102
 20
-178.9107189512451
 30
0.0
 11
387.3000000000102
 21
-193.7989297301865
 31
0.0
  0
LINE
  5
32AE
330
33B0
100
AcDbEntity
  8
OUTLINE
100
AcDbLine
 10
372.3000000000102
 20
-1029.264523698521
 30
0.0
 11
387.3000000000102
 21
-1029.264523698521
 31
0.0
  0
LINE
  5
32AF
330
33B0
100
AcDbEntity
  8
OUTLINE
100
AcDbLine
 10
372.3000000000102
 20
-1029.142664402576
 30
0.0
 11
372.3000000000102
 21
-1029.264523698521
 31
0.0
  0
LINE
  5
32B0
330
33B0
100
AcDbEntity
  8
OUTLINE
100
AcDbLine
 10
398.5
 20
-1030.000000000009
 30
0.0
 11
398.5
 21
-1029.751960882297
 31
0.0
  0
LINE
  5
32B1
330
33B0
100
AcDbEntity
  8
OUTLINE
100
AcDbLine
 10
398.5
 20
-180.6344221121708
 30
0.0
 11
398.5
 21
-1029.751960882297
 31
0.0
  0
LINE
  5
32B2
330
33B0
100
AcDbEntity
  8
OUTLINE
100
AcDbLine
 10
398.5
 20
-180.6344221121708
 30
0.0
 11
387.3000000000102
 21
-180.6344221121708
 31
0.0
  0
LINE
  5
32B3
330
33B0
100
AcDbEntity
  8
OUTLINE
100
AcDbLine
 10
387.3000000000102
 20
-193.9207890261295
 30
0.0
 11
387.3000000000102
 21
-1029.264523698521
 31
0.0
  0
LINE
  5
32B4
330
33B0
100
AcDbEntity
  8
OUTLINE
100
AcDbLine
 10
387.3000000000102
 20
-1029.142664402576
 30
0.0
 11
372.3000000000102
 21
-1029.142664402576
 31
0.0
  0
LINE
  5
32B5
330
33B0
100
AcDbEntity
  8
OUTLINE
100
AcDbLine
 10
372.3000000000102
 20
-1028.637554201088
 30
0.0
 11
-372.2999999999808
 21
-1028.637554201088
 31
0.0
  0
LINE
  5
32B6
330
33B0
100
AcDbEntity
  8
OUTLINE
100
AcDbLine
 10
372.3000000000102
 20
-1028.881272792976
 30
0.0
 11
-372.2999999999808
 21
-1028.881272792976
 31
0.0
  0
LINE
  5
32B7
330
33B0
100
AcDbEntity
  8
OUTLINE
100
AcDbLine
 10
-372.2999999999918
 20
-1029.264523698521
 30
0.0
 11
-387.2999999999917
 21
-1029.264523698521
 31
0.0
  0
LINE
  5
32B8
330
33B0
100
AcDbEntity
  8
OUTLINE
100
AcDbLine
 10
-398.4999999999928
 20
-1029.751960882292
 30
0.0
 11
-398.4999999999928
 21
-180.634422112169
 31
0.0
  0
LINE
  5
32B9
330
33B0
100
AcDbEntity
  8
OUTLINE
100
AcDbLine
 10
-398.4999999999928
 20
-1030.000000000012
 30
0.0
 11
-398.4999999999928
 21
-1029.751960882292
 31
0.0
  0
LINE
  5
32BA
330
33B0
100
AcDbEntity
  8
OUTLINE
100
AcDbLine
 10
-398.4999999999928
 20
-180.634422112169
 30
0.0
 11
-387.2999999999917
 21
-180.634422112169
 31
0.0
  0
LINE
  5
32BB
330
33B0
100
AcDbEntity
  8
OUTLINE
100
AcDbLine
 10
-387.2999999999917
 20
-1029.264523698521
 30
0.0
 11
-387.2999999999917
 21
-193.9207890261295
 31
0.0
  0
LINE
  5
32BC
330
33B0
100
AcDbEntity
  8
OUTLINE
100
AcDbLine
 10
-387.2999999999917
 20
-1029.142664402574
 30
0.0
 11
-372.2999999999918
 21
-1029.142664402574
 31
0.0
  0
LINE
  5
32BD
330
33B0
100
AcDbEntity
  8
OUTLINE
100
AcDbLine
 10
-374.4999999999998
 20
-1030.000000000002
 30
0.0
 11
374.5
 21
-1030.000000000002
 31
0.0
  0
LINE
  5
32BE
330
33B0
100
AcDbEntity
  8
OUTLINE
100
AcDbLine
 10
-424.9999999999998
 20
-0.4000000000032742
 30
0.0
 11
-424.9999999999998
 21
-8.000000000002728
 31
0.0
  0
LINE
  5
32BF
330
33B0
100
AcDbEntity
  8
OUTLINE
100
AcDbLine
 10
-424.9999999999998
 20
-0.4000000000032742
 30
0.0
 11
-424.9999999999998
 21
-0.000000000001819
 31
0.0
  0
LINE
  5
32C0
330
33B0
100
AcDbEntity
  8
OUTLINE
100
AcDbLine
 10
425.0
 20
-0.4000000000032742
 30
0.0
 11
425.0
 21
-8.000000000002728
 31
0.0
  0
LINE
  5
32C1
330
33B0
100
AcDbEntity
  8
OUTLINE
100
AcDbLine
 10
425.0
 20
-0.000000000001819
 30
0.0
 11
425.0
 21
-0.4000000000032742
 31
0.0
  0
LINE
  5
32C2
330
33B0
100
AcDbEntity
  8
OUTLINE
100
AcDbLine
 10
387.0
 20
-8.000000000002728
 30
0.0
 11
387.0
 21
-139.0857864376284
 31
0.0
  0
LINE
  5
32C3
330
33B0
100
AcDbEntity
  8
OUTLINE
100
AcDbLine
 10
-386.9999999999998
 20
-139.0857864376284
 30
0.0
 11
-386.9999999999998
 21
-8.000000000002728
 31
0.0
  0
INSERT
  5
32C4
330
33B0
100
AcDbEntity
  8
DETAIL___1
  6
Continuous
100
AcDbBlockReference
  2
*X32
 10
0.0
 20
0.0
 30
0.0
1001
ACADANNOTATIVE
1000
AnnotativeData
1002
{
1070
     1
1070
     0
1002
}
1001
ACAD
1000
HATCH
1002
{
1070
    19
1000
LINE
1040
72.22849999999998
1040
5.838766301980095
1000
R14_HATCH_DATA
1000
30C3
1011
1.0
1021
0.0
1031
0.0
1011
0.0
1021
1.0
1031
0.0
1011
0.0
1021
0.0
1031
1.0
1040
0.0
1010
0.0
1020
0.0
1030
1.0
1000
LINE
1070
     0
1070
     0
1071
        2
1071
        7
1070
     0
1070
     1
1071
        6
1040
156.5000000000145
1040
-193.9207890261295
1040
-372.2999999999883
1040
-193.9207890261295
1040
-372.299999999992
1040
-1015.608104071673
1040
372.3000000000102
1040
-1015.608104071673
1040
372.3000000000066
1040
-387.7207890261297
1040
156.5000000000109
1040
-387.7207890261297
1071
        0
1071
        7
1070
     0
1070
     1
1071
        4
1040
372.3000000000066
1040
-387.7207890261308
1040
372.3000000000102
1040
-193.9207890261283
1040
156.5000000000109
1040
-193.9207890261295
1040
156.5000000000109
1040
-387.7207890261297
1071
        0
1070
     0
1070
     1
1040
5.838766301980095
1040
72.22849999999998
1070
     0
1070
     1
1040
5.838766301980095
1040
20262.69802480193
1040
6032.971836658882
1040
3.881680532789153
1040
8.151533417570705
1070
     0
1040
1.913891920395272
1071
        2
1040
-55.16533986798094
1040
-363.9452478212934
1040
0.0
1040
270.6751664771072
1040
-310.6221076285337
1040
0.0
1002
}
  0
INSERT
  5
32C5
330
33B0
100
AcDbEntity
  8
DETAIL___1
  6
Continuous
100
AcDbBlockReference
  2
*X33
 10
0.0
 20
0.0
 30
0.0
1001
ACADANNOTATIVE
1000
AnnotativeData
1002
{
1070
     1
1070
     0
1002
}
1001
ACAD
1000
HATCH
1002
{
1070
    19
1000
LINE
1040
72.22849999999998
1040
0.4444190051994897
1000
R14_HATCH_DATA
1000
30C9
1011
1.0
1021
0.0
1031
0.0
1011
0.0
1021
1.0
1031
0.0
1011
0.0
1021
0.0
1031
1.0
1040
0.0
1010
0.0
1020
0.0
1030
1.0
1000
LINE
1070
     0
1070
     0
1071
        2
1071
        7
1070
     0
1070
     1
1071
        6
1040
156.5000000000182
1040
-193.9207890261295
1040
-372.299999999992
1040
-193.9207890261295
1040
-372.299999999992
1040
-1015.608104071673
1040
372.3000000000102
1040
-1015.608104071673
1040
372.3000000000066
1040
-387.7207890261297
1040
156.5000000000109
1040
-387.7207890261297
1071
        0
1071
        7
1070
     0
1070
     1
1071
        4
1040
372.3000000000102
1040
-193.9207890261295
1040
156.5000000000109
1040
-193.9207890261283
1040
156.5000000000109
1040
-387.7207890261297
1040
372.3000000000137
1040
-387.7207890261297
1071
        0
1070
     0
1070
     1
1040
0.4444190051994897
1040
72.22849999999998
1070
     0
1070
     1
1040
0.4444190051994897
1040
20262.69802480193
1040
6032.971836658882
1040
-3.881680532789157
1040
8.151533417570702
1070
     0
1040
1.118643846247624
1071
        2
1040
-14.3586881264091
1040
-348.0812009322162
1040
0.0
1040
295.6675573120809
1040
-310.2446185983472
1040
0.0
1002
}
  0
LINE
  5
32C6
330
33B0
100
AcDbEntity
  8
DETAIL
100
AcDbLine
 39
50.0
 10
-372.2999999999918
 20
-1015.608104071672
 30
0.0
 11
372.3000000000102
 21
-1015.608104071672
 31
0.0
  0
LINE
  5
32C7
330
33B0
100
AcDbEntity
  8
OUTLINE
100
AcDbLine
 10
386.0
 20
-139.0857864376284
 30
0.0
 11
387.0
 21
-139.0857864376284
 31
0.0
  0
LINE
  5
32C8
330
33B0
100
AcDbEntity
  8
OUTLINE
100
AcDbLine
 10
387.3000000000102
 20
-193.7989297301865
 30
0.0
 11
387.3000000000102
 21
-193.9207890261295
 31
0.0
  0
LINE
  5
32C9
330
33B0
100
AcDbEntity
  8
OUTLINE
100
AcDbLine
 10
-385.9999999999998
 20
-139.0857864376284
 30
0.0
 11
-386.9999999999998
 21
-139.0857864376284
 31
0.0
  0
LINE
  5
32CA
330
33B0
100
AcDbEntity
  8
OUTLINE
100
AcDbLine
 10
-372.2999999999918
 20
-1029.142664402574
 30
0.0
 11
-372.2999999999918
 21
-1029.264523698521
 31
0.0
  0
LINE
  5
32CB
330
33B0
100
AcDbEntity
  8
DETAIL
100
AcDbLine
 39
50.0
 10
-372.2999999999918
 20
-193.9207890261295
 30
0.0
 11
-372.2999999999918
 21
-1015.608104071672
 31
0.0
  0
LINE
  5
32CC
330
33B0
100
AcDbEntity
  8
DETAIL
100
AcDbLine
 39
50.0
 10
372.3000000000102
 20
-1015.608104071672
 30
0.0
 11
372.3000000000102
 21
-193.9207890261295
 31
0.0
  0
LINE
  5
32CD
330
33B0
100
AcDbEntity
  8
DETAIL
100
AcDbLine
 39
50.0
 10
372.3000000000102
 20
-193.9207890261295
 30
0.0
 11
-372.2999999999918
 21
-193.9207890261295
 31
0.0
  0
LINE
  5
32CE
330
33B0
100
AcDbEntity
  8
OUTLINE
100
AcDbLine
 39
50.0
 10
372.3000000000102
 20
-1029.142664402576
 30
0.0
 11
372.3000000000102
 21
-193.9207890261295
 31
0.0
  0
LINE
  5
32CF
330
33B0
100
AcDbEntity
  8
OUTLINE
100
AcDbLine
 39
50.0
 10
387.3000000000102
 20
-193.9207890261295
 30
0.0
 11
-387.2999999999917
 21
-193.9207890261295
 31
0.0
  0
LINE
  5
32D0
330
33B0
100
AcDbEntity
  8
OUTLINE
100
AcDbLine
 39
50.0
 10
-372.2999999999918
 20
-1029.142664402574
 30
0.0
 11
-372.2999999999918
 21
-193.9207890261295
 31
0.0
  0
LINE
  5
32D1
330
33B0
100
AcDbEntity
  8
OUTLINE
100
AcDbLine
 39
50.0
 10
-372.2999999999918
 20
-1015.608104071672
 30
0.0
 11
372.3000000000102
 21
-1015.608104071672
 31
0.0
  0
LINE
  5
32D2
330
33B0
100
AcDbEntity
  8
SIZE
100
AcDbLine
 10
445.0
 20
-0.000000000001819
 30
0.0
 11
551.6911315252908
 21
-0.000000000001819
 31
0.0
  0
LINE
  5
32D3
330
33B0
100
AcDbEntity
  8
SIZE
100
AcDbLine
 10
445.0
 20
-8.000000000002728
 30
0.0
 11
551.6911315252908
 21
-8.000000000002728
 31
0.0
  0
LINE
  5
32D4
330
33B0
100
AcDbEntity
  8
SIZE
100
AcDbLine
 10
531.6911315252908
 20
11.99999999999818
 30
0.0
 11
531.6911315252908
 21
23.99999999999818
 31
0.0
  0
LINE
  5
32D5
330
33B0
100
AcDbEntity
  8
SIZE
100
AcDbLine
 10
531.6911315252908
 20
-20.00000000000273
 30
0.0
 11
531.6911315252908
 21
-90.40000000000281
 31
0.0
  0
LINE
  5
32D6
330
33B0
100
AcDbEntity
  8
SIZE
100
AcDbLine
 10
531.6911315252908
 20
-0.000000000001819
 30
0.0
 11
531.6911315252908
 21
-8.000000000002728
 31
0.0
  0
INSERT
  5
32D7
330
33B0
100
AcDbEntity
  8
SIZE
100
AcDbBlockReference
  2
_DOTBLANK
 10
531.6911315252908
 20
-0.000000000001819
 30
0.0
 41
12.0
 42
12.0
 43
12.0
 50
270.0
  0
INSERT
  5
32D8
330
33B0
100
AcDbEntity
  8
SIZE
100
AcDbBlockReference
  2
_DOTBLANK
 10
531.6911315252908
 20
-8.000000000002728
 30
0.0
 41
12.0
 42
12.0
 43
12.0
 50
90.0
  0
LINE
  5
32D9
330
33B0
100
AcDbEntity
  8
SIZE
100
AcDbLine
 10
-424.9999999999998
 20
19.99999999999818
 30
0.0
 11
-424.9999999999998
 21
298.8655437218622
 31
0.0
  0
LINE
  5
32DA
330
33B0
100
AcDbEntity
  8
SIZE
100
AcDbLine
 10
425.0
 20
19.59999999999672
 30
0.0
 11
425.0
 21
298.8655437218622
 31
0.0
  0
LINE
  5
32DB
330
33B0
100
AcDbEntity
  8
SIZE
100
AcDbLine
 10
-412.9999999999998
 20
278.8655437218622
 30
0.0
 11
413.0
 21
278.8655437218622
 31
0.0
  0
INSERT
  5
32DC
330
33B0
100
AcDbEntity
  8
SIZE
100
AcDbBlockReference
  2
_DOTBLANK
 10
-424.9999999999998
 20
278.8655437218622
 30
0.0
 41
12.0
 42
12.0
 43
12.0
 50
180.0
  0
INSERT
  5
32DD
330
33B0
100
AcDbEntity
  8
SIZE
100
AcDbBlockReference
  2
_DOTBLANK
 10
425.0
 20
278.8655437218622
 30
0.0
 41
12.0
 42
12.0
 43
12.0
  0
LINE
  5
32DE
330
33B0
100
AcDbEntity
  8
SIZE
100
AcDbLine
 10
-399.9999999999998
 20
32.49999999999818
 30
0.0
 11
-399.9999999999998
 21
195.0961526155295
 31
0.0
  0
LINE
  5
32DF
330
33B0
100
AcDbEntity
  8
SIZE
100
AcDbLine
 10
400.0
 20
32.49999999999818
 30
0.0
 11
400.0
 21
195.0961526155295
 31
0.0
  0
LINE
  5
32E0
330
33B0
100
AcDbEntity
  8
SIZE
100
AcDbLine
 10
-387.9999999999998
 20
175.0961526155295
 30
0.0
 11
388.0
 21
175.0961526155295
 31
0.0
  0
INSERT
  5
32E1
330
33B0
100
AcDbEntity
  8
SIZE
100
AcDbBlockReference
  2
_DOTBLANK
 10
-399.9999999999998
 20
175.0961526155295
 30
0.0
 41
12.0
 42
12.0
 43
12.0
 50
180.0
  0
INSERT
  5
32E2
330
33B0
100
AcDbEntity
  8
SIZE
100
AcDbBlockReference
  2
_DOTBLANK
 10
400.0
 20
175.0961526155295
 30
0.0
 41
12.0
 42
12.0
 43
12.0
  0
LINE
  5
32E3
330
33B0
100
AcDbEntity
  8
SIZE
100
AcDbLine
 10
-418.4999999999922
 20
-1030.000000000012
 30
0.0
 11
-687.4407793343812
 21
-1030.000000000012
 31
0.0
  0
LINE
  5
32E4
330
33B0
100
AcDbEntity
  8
SIZE
100
AcDbLine
 10
-399.4999999999998
 20
-1052.000000000002
 30
0.0
 11
-687.4407793343812
 21
-1052.0
 31
0.0
  0
LINE
  5
32E5
330
33B0
100
AcDbEntity
  8
SIZE
100
AcDbLine
 10
-667.4407793343814
 20
-1018.000000000012
 30
0.0
 11
-667.4407793343814
 21
-1006.000000000012
 31
0.0
  0
LINE
  5
32E6
330
33B0
100
AcDbEntity
  8
SIZE
100
AcDbLine
 10
-667.4407793343814
 20
-1064.0
 30
0.0
 11
-667.4407793343814
 21
-1189.257142857144
 31
0.0
  0
LINE
  5
32E7
330
33B0
100
AcDbEntity
  8
SIZE
100
AcDbLine
 10
-667.4407793343814
 20
-1030.000000000012
 30
0.0
 11
-667.4407793343814
 21
-1052.0
 31
0.0
  0
INSERT
  5
32E8
330
33B0
100
AcDbEntity
  8
SIZE
100
AcDbBlockReference
  2
_DOTBLANK
 10
-667.4407793343814
 20
-1030.000000000012
 30
0.0
 41
12.0
 42
12.0
 43
12.0
 50
270.0
  0
INSERT
  5
32E9
330
33B0
100
AcDbEntity
  8
SIZE
100
AcDbBlockReference
  2
_DOTBLANK
 10
-667.4407793343814
 20
-1052.0
 30
0.0
 41
12.0
 42
12.0
 43
12.0
 50
90.0
  0
LINE
  5
32EA
330
33B0
100
AcDbEntity
  8
SIZE
100
AcDbLine
 10
-444.9999999999997
 20
-0.000000000001819
 30
0.0
 11
-687.4407793343812
 21
-0.000000000001819
 31
0.0
  0
LINE
  5
32EB
330
33B0
100
AcDbEntity
  8
SIZE
100
AcDbLine
 10
-418.4999999999922
 20
-1030.000000000012
 30
0.0
 11
-687.4407793343812
 21
-1030.000000000012
 31
0.0
  0
LINE
  5
32EC
330
33B0
100
AcDbEntity
  8
SIZE
100
AcDbLine
 10
-667.4407793343814
 20
-12.00000000000182
 30
0.0
 11
-667.4407793343814
 21
-1018.000000000012
 31
0.0
  0
INSERT
  5
32ED
330
33B0
100
AcDbEntity
  8
SIZE
100
AcDbBlockReference
  2
_DOTBLANK
 10
-667.4407793343814
 20
-0.000000000001819
 30
0.0
 41
12.0
 42
12.0
 43
12.0
 50
90.0
  0
INSERT
  5
32EE
330
33B0
100
AcDbEntity
  8
SIZE
100
AcDbBlockReference
  2
_DOTBLANK
 10
-667.4407793343814
 20
-1030.000000000012
 30
0.0
 41
12.0
 42
12.0
 43
12.0
 50
270.0
  0
LINE
  5
32EF
330
33B0
100
AcDbEntity
  8
SIZE
100
AcDbLine
 10
-398.4999999999928
 20
-1050.000000000013
 30
0.0
 11
-398.4999999999928
 21
-1265.674000478013
 31
0.0
  0
LINE
  5
32F0
330
33B0
100
AcDbEntity
  8
SIZE
100
AcDbLine
 10
398.5
 20
-1050.000000000009
 30
0.0
 11
398.5
 21
-1265.674000478013
 31
0.0
  0
LINE
  5
32F1
330
33B0
100
AcDbEntity
  8
SIZE
100
AcDbLine
 10
-386.4999999999925
 20
-1245.674000478013
 30
0.0
 11
386.5
 21
-1245.674000478013
 31
0.0
  0
INSERT
  5
32F2
330
33B0
100
AcDbEntity
  8
SIZE
100
AcDbBlockReference
  2
_DOTBLANK
 10
-398.4999999999928
 20
-1245.674000478013
 30
0.0
 41
12.0
 42
12.0
 43
12.0
 50
180.0
  0
INSERT
  5
32F3
330
33B0
100
AcDbEntity
  8
SIZE
100
AcDbBlockReference
  2
_DOTBLANK
 10
398.5
 20
-1245.674000478013
 30
0.0
 41
12.0
 42
12.0
 43
12.0
  0
TEXT
  5
32F4
330
33B0
100
AcDbEntity
  8
SIZE
100
AcDbText
 10
-74.0571428571352
 20
-1235.674000478013
 30
0.0
 40
64.0
  1
797
 41
0.9
100
AcDbText
  0
TEXT
  5
32F5
330
33B0
100
AcDbEntity
  8
SIZE
100
AcDbText
 10
-677.4407793343814
 20
-1179.257142857144
 30
0.0
 40
64.0
  1
22
 50
90.0
 41
0.9
100
AcDbText
  0
TEXT
  5
32F6
330
33B0
100
AcDbEntity
  8
SIZE
100
AcDbText
 10
-677.4407793343814
 20
-612.0500000000029
 30
0.0
 40
64.0
  1
1030
 50
90.0
 41
0.9
100
AcDbText
  0
TEXT
  5
32F7
330
33B0
100
AcDbEntity
  8
SIZE
100
AcDbText
 10
-74.02565180574355
 20
185.0961526155295
 30
0.0
 40
64.0
  1
800
 41
0.9
100
AcDbText
  0
TEXT
  5
32F8
330
33B0
100
AcDbEntity
  8
SIZE
100
AcDbText
 10
-74.02565180574355
 20
288.8655437218622
 30
0.0
 40
64.0
  1
850
 41
0.9
100
AcDbText
  0
TEXT
  5
32F9
330
33B0
100
AcDbEntity
  8
SIZE
100
AcDbText
 10
521.6911315252908
 20
-80.4000000000026
 30
0.0
 40
64.0
  1
8
 50
90.0
 41
0.9
100
AcDbText
  0
TEXT
  5
32FA
330
33B0
100
AcDbEntity
  8
NOTE
100
AcDbText
 10
-1077.595114277968
 20
113.5270950580116
 30
0.0
 40
64.0
  1
10×φ15取付穴
 41
0.9
100
AcDbText
  0
ENDSEC
  0
SECTION
  2
OBJECTS
  0
DICTIONARY
  5
3348
330
0
100
AcDbDictionary
281
     1
  3
ACAD_2007HEADERVARS_RT
350
3554
  3
ACAD_COLOR
350
33A6
  3
ACAD_GROUP
350
3349
  3
ACAD_LAYOUT
350
33A5
  3
ACAD_MATERIAL
350
334C
  3
ACAD_MLEADERSTYLE
350
33A9
  3
ACAD_MLINESTYLE
350
33A2
  3
ACAD_PLOTSETTINGS
350
33A4
  3
ACAD_PLOTSTYLENAME
350
334A
  3
ACAD_SCALELIST
350
3376
  3
ACAD_TABLESTYLE
350
33A7
  3
ACAD_VISUALSTYLE
350
3365
  3
ACDB_RECOMPOSE_DATA
350
3552
  3
AcDbVariableDictionary
350
3549
  3
AcmDictionary
350
34F6
  3
AMG
350
3443
  3
DWGPROPS
350
3553
  3
MAPISURF_MODULE
350
34C3
  0
DICTIONARY
  5
351E
330
3398
100
AcDbDictionary
280
     1
281
     1
  3
ADSK_XREC_LAYER_RECONCILED
360
351F
  0
DICTIONARY
  5
3520
330
33C8
100
AcDbDictionary
280
     1
281
     1
  3
ADSK_XREC_LAYER_RECONCILED
360
3521
  0
DICTIONARY
  5
3522
330
33C9
100
AcDbDictionary
280
     1
281
     1
  3
ADSK_XREC_LAYER_RECONCILED
360
3523
  0
DICTIONARY
  5
3524
330
33CA
100
AcDbDictionary
280
     1
281
     1
  3
ADSK_XREC_LAYER_RECONCILED
360
3525
  0
DICTIONARY
  5
3526
330
33CB
100
AcDbDictionary
280
     1
281
     1
  3
ADSK_XREC_LAYER_RECONCILED
360
3527
  0
DICTIONARY
  5
3528
330
33CC
100
AcDbDictionary
280
     1
281
     1
  3
ADSK_XREC_LAYER_RECONCILED
360
3529
  0
DICTIONARY
  5
352A
330
33CE
100
AcDbDictionary
280
     1
281
     1
  3
ADSK_XREC_LAYER_RECONCILED
360
352B
  0
DICTIONARY
  5
352C
330
33CF
100
AcDbDictionary
280
     1
281
     1
  3
ADSK_XREC_LAYER_RECONCILED
360
352D
  0
DICTIONARY
  5
352E
330
33D0
100
AcDbDictionary
280
     1
281
     1
  3
ADSK_XREC_LAYER_RECONCILED
360
352F
  0
DICTIONARY
  5
3530
330
33D1
100
AcDbDictionary
280
     1
281
     1
  3
ADSK_XREC_LAYER_RECONCILED
360
3531
  0
DICTIONARY
  5
3532
330
33D2
100
AcDbDictionary
280
     1
281
     1
  3
ADSK_XREC_LAYER_RECONCILED
360
3533
  0
DICTIONARY
  5
3534
330
33D3
100
AcDbDictionary
280
     1
281
     1
  3
ADSK_XREC_LAYER_RECONCILED
360
3535
  0
DICTIONARY
  5
3536
330
33D4
100
AcDbDictionary
280
     1
281
     1
  3
ADSK_XREC_LAYER_RECONCILED
360
3537
  0
DICTIONARY
  5
3538
330
33B0
100
AcDbDictionary
280
     1
281
     1
  3
ACAD_INDEX
360
3539
  0
DICTIONARY
  5
3554
102
{ACAD_REACTORS
330
3348
102
}
330
3348
100
AcDbDictionary
281
     1
  3
DIMARCSYM
350
3555
  3
DIMLTEX1
350
3557
  3
DIMLTEX2
350
3558
  3
DIMLTYPE
350
3556
  0
DICTIONARY
  5
33A6
102
{ACAD_REACTORS
330
3348
102
}
330
3348
100
AcDbDictionary
281
     1
  0
DICTIONARY
  5
3349
102
{ACAD_REACTORS
330
3348
102
}
330
3348
100
AcDbDictionary
281
     1
  0
DICTIONARY
  5
33A5
102
{ACAD_REACTORS
330
3348
102
}
330
3348
100
AcDbDictionary
281
     1
  3
Model
350
33B3
  3
レイアウト1
350
33AF
  0
DICTIONARY
  5
334C
102
{ACAD_REACTORS
330
3348
102
}
330
3348
100
AcDbDictionary
281
     1
  3
ByBlock
350
3355
  3
ByLayer
350
334D
  3
Global
350
335D
  0
DICTIONARY
  5
33A9
102
{ACAD_REACTORS
330
3348
102
}
330
3348
100
AcDbDictionary
281
     1
  3
Standard
350
33AA
  0
DICTIONARY
  5
33A2
102
{ACAD_REACTORS
330
3348
102
}
330
3348
100
AcDbDictionary
281
     1
  3
Standard
350
33A3
  0
DICTIONARY
  5
33A4
102
{ACAD_REACTORS
330
3348
102
}
330
3348
100
AcDbDictionary
281
     1
  0
ACDBDICTIONARYWDFLT
  5
334A
102
{ACAD_REACTORS
330
3348
102
}
330
3348
100
AcDbDictionary
281
     1
  3
Normal
350
334B
100
AcDbDictionaryWithDefault
340
334B
  0
DICTIONARY
  5
3376
102
{ACAD_REACTORS
330
3348
102
}
330
3348
100
AcDbDictionary
281
     1
  3
A0
350
3377
  3
A1
350
3378
  3
A2
350
3379
  3
A3
350
337A
  3
A4
350
337B
  3
A5
350
337C
  3
A6
350
337D
  3
A7
350
337E
  3
A8
350
337F
  3
A9
350
3380
  3
B0
350
3381
  3
B1
350
3382
  3
B2
350
3383
  3
B3
350
3384
  3
B4
350
3385
  3
B5
350
3386
  3
B6
350
3387
  3
B7
350
3388
  3
B8
350
3389
  3
B9
350
338A
  3
C0
350
338B
  3
C1
350
338C
  3
C2
350
338D
  3
C3
350
338E
  3
C4
350
338F
  3
C5
350
3390
  3
C6
350
3391
  3
C7
350
3392
  3
C8
350
3393
  3
C9
350
3394
  3
D0
350
3395
  3
D1
350
3396
  3
D2
350
3397
  0
DICTIONARY
  5
33A7
102
{ACAD_REACTORS
330
3348
102
}
330
3348
100
AcDbDictionary
281
     1
  3
Standard
350
33A8
  0
DICTIONARY
  5
3365
102
{ACAD_REACTORS
330
3348
102
}
330
3348
100
AcDbDictionary
281
     1
  3
2dWireframe
350
336B
  3
3D Hidden
350
336D
  3
3dWireframe
350
336C
  3
Basic
350
336A
  3
Brighten
350
3371
  3
ColorChange
350
3375
  3
Conceptual
350
336E
  3
Dim
350
3370
  3
Facepattern
350
3374
  3
Flat
350
3366
  3
FlatWithEdges
350
3367
  3
Gouraud
350
3368
  3
GouraudWithEdges
350
3369
  3
Linepattern
350
3373
  3
Realistic
350
336F
  3
Thicken
350
3372
  0
XRECORD
  5
3552
102
{ACAD_REACTORS
330
3348
102
}
330
3348
100
AcDbXrecord
280
     1
 90
        1
330
33A8
  0
DICTIONARY
  5
3549
102
{ACAD_REACTORS
330
3348
102
}
330
3348
100
AcDbDictionary
281
     1
  3
CANNOSCALE
350
354C
  3
CMLEADERSTYLE
350
354B
  3
CTABLESTYLE
350
354A
  3
DIMASSOC
350
354F
  3
INDEXCTL
350
354E
  3
SORTENTS
350
354D
  0
DICTIONARY
  5
34F6
102
{ACAD_REACTORS
330
3348
102
}
330
3348
100
AcDbDictionary
281
     1
  3
AcmStdDictionary
350
3504
  0
DICTIONARY
  5
3443
102
{ACAD_REACTORS
330
3348
102
}
330
3348
100
AcDbDictionary
281
     1
  3
AcMgSettings
350
3444
  0
XRECORD
  5
3553
102
{ACAD_REACTORS
330
3348
102
}
330
3348
100
AcDbXrecord
280
     1
  1
DWGPROPS COOKIE
  2

  3

  4

  6

  7

  8
A090053
  9

300
AmdtFileType=84
301
=
302
=
303
=
304
=
305
=
306
=
307
=
308
=
309
=
 40
1.045220474537037
 41
2452321.396199653
 42
2456213.408901007
  1

 90
        1
  0
XRECORD
  5
351F
102
{ACAD_REACTORS
330
351E
102
}
330
351E
100
AcDbXrecord
280
     1
290
     1
  0
XRECORD
  5
3521
102
{ACAD_REACTORS
330
3520
102
}
330
3520
100
AcDbXrecord
280
     1
290
     1
  0
XRECORD
  5
3523
102
{ACAD_REACTORS
330
3522
102
}
330
3522
100
AcDbXrecord
280
     1
290
     1
  0
XRECORD
  5
3525
102
{ACAD_REACTORS
330
3524
102
}
330
3524
100
AcDbXrecord
280
     1
290
     1
  0
XRECORD
  5
3527
102
{ACAD_REACTORS
330
3526
102
}
330
3526
100
AcDbXrecord
280
     1
290
     1
  0
XRECORD
  5
3529
102
{ACAD_REACTORS
330
3528
102
}
330
3528
100
AcDbXrecord
280
     1
290
     1
  0
XRECORD
  5
352B
102
{ACAD_REACTORS
330
352A
102
}
330
352A
100
AcDbXrecord
280
     1
290
     1
  0
XRECORD
  5
352D
102
{ACAD_REACTORS
330
352C
102
}
330
352C
100
AcDbXrecord
280
     1
290
     1
  0
XRECORD
  5
352F
102
{ACAD_REACTORS
330
352E
102
}
330
352E
100
AcDbXrecord
280
     1
290
     1
  0
XRECORD
  5
3531
102
{ACAD_REACTORS
330
3530
102
}
330
3530
100
AcDbXrecord
280
     1
290
     1
  0
XRECORD
  5
3533
102
{ACAD_REACTORS
330
3532
102
}
330
3532
100
AcDbXrecord
280
     1
290
     1
  0
XRECORD
  5
3535
102
{ACAD_REACTORS
330
3534
102
}
330
3534
100
AcDbXrecord
280
     1
290
     1
  0
XRECORD
  5
3537
102
{ACAD_REACTORS
330
3536
102
}
330
3536
100
AcDbXrecord
280
     1
290
     1
  0
DICTIONARY
  5
3539
102
{ACAD_REACTORS
330
3538
102
}
330
3538
100
AcDbDictionary
281
     1
  3
*A1
350
353A
  0
XRECORD
  5
3555
102
{ACAD_REACTORS
330
3554
102
}
330
3554
100
AcDbXrecord
280
     1
 70
     1
  0
XRECORD
  5
3557
102
{ACAD_REACTORS
330
3554
102
}
330
3554
100
AcDbXrecord
280
     1
340
339E
  0
XRECORD
  5
3558
102
{ACAD_REACTORS
330
3554
102
}
330
3554
100
AcDbXrecord
280
     1
340
339E
  0
XRECORD
  5
3556
102
{ACAD_REACTORS
330
3554
102
}
330
3554
100
AcDbXrecord
280
     1
340
339E
  0
LAYOUT
  5
33B3
102
{ACAD_XDICTIONARY
360
355F
102
}
102
{ACAD_REACTORS
330
33A5
102
}
330
33A5
100
AcDbPlotSettings
  1

  2
自動 EPSON LP-9600S (W2450527 上)
  4

  6

 40
0.0
 41
0.0
 42
0.0
 43
0.0
 44
0.0
 45
0.0
 46
0.0
 47
0.0
 48
0.0
 49
0.0
140
0.0
141
0.0
142
1.0
143
1.0
 70
  1712
 72
     0
 73
     0
 74
     0
  7

 75
     0
147
1.0
148
0.0
149
0.0
100
AcDbLayout
  1
Model
 70
     1
 71
     0
 10
0.0
 20
0.0
 11
12.0
 21
9.0
 12
0.0
 22
0.0
 32
0.0
 14
0.0
 24
0.0
 34
0.0
 15
0.0
 25
0.0
 35
0.0
146
0.0
 13
0.0
 23
0.0
 33
0.0
 16
1.0
 26
0.0
 36
0.0
 17
0.0
 27
1.0
 37
0.0
 76
     0
330
33B0
331
33B4
  0
LAYOUT
  5
33AF
102
{ACAD_XDICTIONARY
360
355D
102
}
102
{ACAD_REACTORS
330
33A5
102
}
330
33A5
100
AcDbPlotSettings
  1

  2
自動 EPSON LP-9600S (W2450527 上)
  4

  6

 40
0.0
 41
0.0
 42
0.0
 43
0.0
 44
0.0
 45
0.0
 46
0.0
 47
0.0
 48
0.0
 49
0.0
140
0.0
141
0.0
142
1.0
143
1.0
 70
   688
 72
     0
 73
     0
 74
     5
  7

 75
    16
147
1.0
148
0.0
149
0.0
100
AcDbLayout
  1
レイアウト1
 70
     1
 71
     1
 10
0.0
 20
0.0
 11
12.0
 21
9.0
 12
0.0
 22
0.0
 32
0.0
 14
1.000000000000000E+20
 24
1.000000000000000E+20
 34
1.000000000000000E+20
 15
-1.000000000000000E+20
 25
-1.000000000000000E+20
 35
-1.000000000000000E+20
146
0.0
 13
0.0
 23
0.0
 33
0.0
 16
1.0
 26
0.0
 36
0.0
 17
0.0
 27
1.0
 37
0.0
 76
     0
330
33AC
  0
MATERIAL
  5
3355
102
{ACAD_XDICTIONARY
360
3356
102
}
102
{ACAD_REACTORS
330
334C
102
}
330
334C
100
AcDbMaterial
  1
ByBlock
 72
     0
 43
0.0208333333333333
 43
0.0
 43
0.0
 43
0.0
 43
0.0
 43
0.0208333333333333
 43
0.0
 43
0.0
 43
0.0
 43
0.0
 43
1.0
 43
0.0
 43
0.0
 43
0.0
 43
0.0
 43
1.0
 77
     0
 47
0.0208333333333333
 47
0.0
 47
0.0
 47
0.0
 47
0.0
 47
0.0208333333333333
 47
0.0
 47
0.0
 47
0.0
 47
0.0
 47
1.0
 47
0.0
 47
0.0
 47
0.0
 47
0.0
 47
1.0
171
     0
 49
0.0208333333333333
 49
0.0
 49
0.0
 49
0.0
 49
0.0
 49
0.0208333333333333
 49
0.0
 49
0.0
 49
0.0
 49
0.0
 49
1.0
 49
0.0
 49
0.0
 49
0.0
 49
0.0
 49
1.0
175
     0
142
0.0208333333333333
142
0.0
142
0.0
142
0.0
142
0.0
142
0.0208333333333333
142
0.0
142
0.0
142
0.0
142
0.0
142
1.0
142
0.0
142
0.0
142
0.0
142
0.0
142
1.0
179
     0
144
0.0208333333333333
144
0.0
144
0.0
144
0.0
144
0.0
144
0.0208333333333333
144
0.0
144
0.0
144
0.0
144
0.0
144
1.0
144
0.0
144
0.0
144
0.0
144
0.0
144
1.0
147
0.0208333333333333
147
0.0
147
0.0
147
0.0
147
0.0
147
0.0208333333333333
147
0.0
147
0.0
147
0.0
147
0.0
147
1.0
147
0.0
147
0.0
147
0.0
147
0.0
147
1.0
  0
MATERIAL
  5
334D
102
{ACAD_XDICTIONARY
360
334E
102
}
102
{ACAD_REACTORS
330
334C
102
}
330
334C
100
AcDbMaterial
  1
ByLayer
 72
     0
 43
0.0208333333333333
 43
0.0
 43
0.0
 43
0.0
 43
0.0
 43
0.0208333333333333
 43
0.0
 43
0.0
 43
0.0
 43
0.0
 43
1.0
 43
0.0
 43
0.0
 43
0.0
 43
0.0
 43
1.0
 77
     0
 47
0.0208333333333333
 47
0.0
 47
0.0
 47
0.0
 47
0.0
 47
0.0208333333333333
 47
0.0
 47
0.0
 47
0.0
 47
0.0
 47
1.0
 47
0.0
 47
0.0
 47
0.0
 47
0.0
 47
1.0
171
     0
 49
0.0208333333333333
 49
0.0
 49
0.0
 49
0.0
 49
0.0
 49
0.0208333333333333
 49
0.0
 49
0.0
 49
0.0
 49
0.0
 49
1.0
 49
0.0
 49
0.0
 49
0.0
 49
0.0
 49
1.0
175
     0
142
0.0208333333333333
142
0.0
142
0.0
142
0.0
142
0.0
142
0.0208333333333333
142
0.0
142
0.0
142
0.0
142
0.0
142
1.0
142
0.0
142
0.0
142
0.0
142
0.0
142
1.0
179
     0
144
0.0208333333333333
144
0.0
144
0.0
144
0.0
144
0.0
144
0.0208333333333333
144
0.0
144
0.0
144
0.0
144
0.0
144
1.0
144
0.0
144
0.0
144
0.0
144
0.0
144
1.0
147
0.0208333333333333
147
0.0
147
0.0
147
0.0
147
0.0
147
0.0208333333333333
147
0.0
147
0.0
147
0.0
147
0.0
147
1.0
147
0.0
147
0.0
147
0.0
147
0.0
147
1.0
  0
MATERIAL
  5
335D
102
{ACAD_XDICTIONARY
360
335E
102
}
102
{ACAD_REACTORS
330
334C
102
}
330
334C
100
AcDbMaterial
  1
Global
 72
     0
 43
0.0208333333333333
 43
0.0
 43
0.0
 43
0.0
 43
0.0
 43
0.0208333333333333
 43
0.0
 43
0.0
 43
0.0
 43
0.0
 43
1.0
 43
0.0
 43
0.0
 43
0.0
 43
0.0
 43
1.0
 77
     0
 47
0.0208333333333333
 47
0.0
 47
0.0
 47
0.0
 47
0.0
 47
0.0208333333333333
 47
0.0
 47
0.0
 47
0.0
 47
0.0
 47
1.0
 47
0.0
 47
0.0
 47
0.0
 47
0.0
 47
1.0
171
     0
 49
0.0208333333333333
 49
0.0
 49
0.0
 49
0.0
 49
0.0
 49
0.0208333333333333
 49
0.0
 49
0.0
 49
0.0
 49
0.0
 49
1.0
 49
0.0
 49
0.0
 49
0.0
 49
0.0
 49
1.0
175
     0
142
0.0208333333333333
142
0.0
142
0.0
142
0.0
142
0.0
142
0.0208333333333333
142
0.0
142
0.0
142
0.0
142
0.0
142
1.0
142
0.0
142
0.0
142
0.0
142
0.0
142
1.0
179
     0
144
0.0208333333333333
144
0.0
144
0.0
144
0.0
144
0.0
144
0.0208333333333333
144
0.0
144
0.0
144
0.0
144
0.0
144
1.0
144
0.0
144
0.0
144
0.0
144
0.0
144
1.0
147
0.0208333333333333
147
0.0
147
0.0
147
0.0
147
0.0
147
0.0208333333333333
147
0.0
147
0.0
147
0.0
147
0.0
147
1.0
147
0.0
147
0.0
147
0.0
147
0.0
147
1.0
  0
MLEADERSTYLE
  5
33AA
102
{ACAD_REACTORS
330
33A9
102
}
330
33A9
100
AcDbMLeaderStyle
170
     2
171
     1
172
     0
 90
        2
 40
0.0
 41
0.0
173
     1
 91
-1056964608
340
339E
 92
       -2
290
     1
 42
0.09
291
     1
 43
0.36
  3
Standard
 44
0.18
300

342
3399
174
     1
178
     6
175
     1
176
     0
 93
-1056964608
 45
0.18
292
     0
297
     0
 46
0.18
 94
-1056964608
 47
1.0
 49
1.0
140
1.0
293
     1
141
0.0
294
     1
177
     0
142
1.0
295
     0
296
     0
143
0.125
1001
ACAD_MLEADERVER
1070
     2
  0
MLINESTYLE
  5
33A3
102
{ACAD_REACTORS
330
33A2
102
}
330
33A2
100
AcDbMlineStyle
  2
STANDARD
 70
     0
  3

 62
   256
 51
90.0
 52
90.0
 71
     2
 49
0.5
 62
   256
  6
BYLAYER
 49
-0.5
 62
   256
  6
BYLAYER
  0
ACDBPLACEHOLDER
  5
334B
102
{ACAD_REACTORS
330
334A
102
}
330
334A
  0
SCALE
  5
3377
102
{ACAD_REACTORS
330
3376
102
}
330
3376
100
AcDbScale
 70
     0
300
1:1
140
1.0
141
1.0
290
     1
  0
SCALE
  5
3378
102
{ACAD_REACTORS
330
3376
102
}
330
3376
100
AcDbScale
 70
     0
300
1:2
140
1.0
141
2.0
290
     0
  0
SCALE
  5
3379
102
{ACAD_REACTORS
330
3376
102
}
330
3376
100
AcDbScale
 70
     0
300
1:4
140
1.0
141
4.0
290
     0
  0
SCALE
  5
337A
102
{ACAD_REACTORS
330
3376
102
}
330
3376
100
AcDbScale
 70
     0
300
1:5
140
1.0
141
5.0
290
     0
  0
SCALE
  5
337B
102
{ACAD_REACTORS
330
3376
102
}
330
3376
100
AcDbScale
 70
     0
300
1:8
140
1.0
141
8.0
290
     0
  0
SCALE
  5
337C
102
{ACAD_REACTORS
330
3376
102
}
330
3376
100
AcDbScale
 70
     0
300
1:10
140
1.0
141
10.0
290
     0
  0
SCALE
  5
337D
102
{ACAD_REACTORS
330
3376
102
}
330
3376
100
AcDbScale
 70
     0
300
1:16
140
1.0
141
16.0
290
     0
  0
SCALE
  5
337E
102
{ACAD_REACTORS
330
3376
102
}
330
3376
100
AcDbScale
 70
     0
300
1:20
140
1.0
141
20.0
290
     0
  0
SCALE
  5
337F
102
{ACAD_REACTORS
330
3376
102
}
330
3376
100
AcDbScale
 70
     0
300
1:30
140
1.0
141
30.0
290
     0
  0
SCALE
  5
3380
102
{ACAD_REACTORS
330
3376
102
}
330
3376
100
AcDbScale
 70
     0
300
1:40
140
1.0
141
40.0
290
     0
  0
SCALE
  5
3381
102
{ACAD_REACTORS
330
3376
102
}
330
3376
100
AcDbScale
 70
     0
300
1:50
140
1.0
141
50.0
290
     0
  0
SCALE
  5
3382
102
{ACAD_REACTORS
330
3376
102
}
330
3376
100
AcDbScale
 70
     0
300
1:100
140
1.0
141
100.0
290
     0
  0
SCALE
  5
3383
102
{ACAD_REACTORS
330
3376
102
}
330
3376
100
AcDbScale
 70
     0
300
2:1
140
2.0
141
1.0
290
     0
  0
SCALE
  5
3384
102
{ACAD_REACTORS
330
3376
102
}
330
3376
100
AcDbScale
 70
     0
300
4:1
140
4.0
141
1.0
290
     0
  0
SCALE
  5
3385
102
{ACAD_REACTORS
330
3376
102
}
330
3376
100
AcDbScale
 70
     0
300
8:1
140
8.0
141
1.0
290
     0
  0
SCALE
  5
3386
102
{ACAD_REACTORS
330
3376
102
}
330
3376
100
AcDbScale
 70
     0
300
10:1
140
10.0
141
1.0
290
     0
  0
SCALE
  5
3387
102
{ACAD_REACTORS
330
3376
102
}
330
3376
100
AcDbScale
 70
     0
300
100:1
140
100.0
141
1.0
290
     0
  0
SCALE
  5
3388
102
{ACAD_REACTORS
330
3376
102
}
330
3376
100
AcDbScale
 70
     0
300
1/128" = 1'-0"
140
0.0078125
141
12.0
290
     0
  0
SCALE
  5
3389
102
{ACAD_REACTORS
330
3376
102
}
330
3376
100
AcDbScale
 70
     0
300
1/64" = 1'-0"
140
0.015625
141
12.0
290
     0
  0
SCALE
  5
338A
102
{ACAD_REACTORS
330
3376
102
}
330
3376
100
AcDbScale
 70
     0
300
1/32" = 1'-0"
140
0.03125
141
12.0
290
     0
  0
SCALE
  5
338B
102
{ACAD_REACTORS
330
3376
102
}
330
3376
100
AcDbScale
 70
     0
300
1/16" = 1'-0"
140
0.0625
141
12.0
290
     0
  0
SCALE
  5
338C
102
{ACAD_REACTORS
330
3376
102
}
330
3376
100
AcDbScale
 70
     0
300
3/32" = 1'-0"
140
0.09375
141
12.0
290
     0
  0
SCALE
  5
338D
102
{ACAD_REACTORS
330
3376
102
}
330
3376
100
AcDbScale
 70
     0
300
1/8" = 1'-0"
140
0.125
141
12.0
290
     0
  0
SCALE
  5
338E
102
{ACAD_REACTORS
330
3376
102
}
330
3376
100
AcDbScale
 70
     0
300
3/16" = 1'-0"
140
0.1875
141
12.0
290
     0
  0
SCALE
  5
338F
102
{ACAD_REACTORS
330
3376
102
}
330
3376
100
AcDbScale
 70
     0
300
1/4" = 1'-0"
140
0.25
141
12.0
290
     0
  0
SCALE
  5
3390
102
{ACAD_REACTORS
330
3376
102
}
330
3376
100
AcDbScale
 70
     0
300
3/8" = 1'-0"
140
0.375
141
12.0
290
     0
  0
SCALE
  5
3391
102
{ACAD_REACTORS
330
3376
102
}
330
3376
100
AcDbScale
 70
     0
300
1/2" = 1'-0"
140
0.5
141
12.0
290
     0
  0
SCALE
  5
3392
102
{ACAD_REACTORS
330
3376
102
}
330
3376
100
AcDbScale
 70
     0
300
3/4" = 1'-0"
140
0.75
141
12.0
290
     0
  0
SCALE
  5
3393
102
{ACAD_REACTORS
330
3376
102
}
330
3376
100
AcDbScale
 70
     0
300
1" = 1'-0"
140
1.0
141
12.0
290
     0
  0
SCALE
  5
3394
102
{ACAD_REACTORS
330
3376
102
}
330
3376
100
AcDbScale
 70
     0
300
1-1/2" = 1'-0"
140
1.5
141
12.0
290
     0
  0
SCALE
  5
3395
102
{ACAD_REACTORS
330
3376
102
}
330
3376
100
AcDbScale
 70
     0
300
3" = 1'-0"
140
3.0
141
12.0
290
     0
  0
SCALE
  5
3396
102
{ACAD_REACTORS
330
3376
102
}
330
3376
100
AcDbScale
 70
     0
300
6" = 1'-0"
140
6.0
141
12.0
290
     0
  0
SCALE
  5
3397
102
{ACAD_REACTORS
330
3376
102
}
330
3376
100
AcDbScale
 70
     0
300
1'-0" = 1'-0"
140
12.0
141
12.0
290
     0
  0
TABLESTYLE
  5
33A8
102
{ACAD_XDICTIONARY
360
3550
102
}
102
{ACAD_REACTORS
330
33A7
102
}
330
33A7
100
AcDbTableStyle
  3
Standard
 70
     0
 71
     0
 40
0.06
 41
0.06
280
     0
281
     0
  7
STANDARD
140
0.18
170
     2
 62
     0
 63
     7
283
     0
274
    -2
284
     1
 64
     0
275
    -2
285
     1
 65
     0
276
    -2
286
     1
 66
     0
277
    -2
287
     1
 67
     0
278
    -2
288
     1
 68
     0
279
    -2
289
     1
 69
     0
  7
STANDARD
140
0.25
170
     5
 62
     0
 63
     7
283
     0
274
    -2
284
     1
 64
     0
275
    -2
285
     1
 65
     0
276
    -2
286
     1
 66
     0
277
    -2
287
     1
 67
     0
278
    -2
288
     1
 68
     0
279
    -2
289
     1
 69
     0
  7
STANDARD
140
0.18
170
     5
 62
     0
 63
     7
283
     0
274
    -2
284
     1
 64
     0
275
    -2
285
     1
 65
     0
276
    -2
286
     1
 66
     0
277
    -2
287
     1
 67
     0
278
    -2
288
     1
 68
     0
279
    -2
289
     1
 69
     0
  0
VISUALSTYLE
  5
336B
102
{ACAD_REACTORS
330
3365
102
}
330
3365
100
AcDbVisualStyle
  2
2dWireframe
 70
     4
 71
     0
 72
     2
 73
     0
 90
        0
 40
-0.6
 41
-30.0
 62
     5
 63
     7
 74
     1
 91
        4
 64
     7
 65
   257
 75
     1
175
     1
 42
1.0
 92
        0
 66
   257
 43
1.0
 76
     1
 77
     6
 78
     2
 67
     7
 79
     5
170
     0
171
     0
290
     0
174
     0
 93
        1
 44
0.0
173
     0
291
     0
 45
0.0
1001
ACAD
1000
AcDbSavedByObjectVersion
1070
     0
  0
VISUALSTYLE
  5
336D
102
{ACAD_REACTORS
330
3365
102
}
330
3365
100
AcDbVisualStyle
  2
3D Hidden
 70
     6
 71
     1
 72
     2
 73
     2
 90
        0
 40
-0.6
 41
-30.0
 62
     5
 63
     7
 74
     2
 91
        2
 64
     7
 65
   257
 75
     2
175
     1
 42
40.0
 92
        0
 66
   257
 43
1.0
 76
     1
 77
     6
 78
     2
 67
     7
 79
     3
170
     0
171
     0
290
     0
174
     0
 93
        1
 44
0.0
173
     0
291
     0
 45
0.0
1001
ACAD
1000
AcDbSavedByObjectVersion
1070
     0
  0
VISUALSTYLE
  5
336C
102
{ACAD_REACTORS
330
3365
102
}
330
3365
100
AcDbVisualStyle
  2
3dWireframe
 70
     5
 71
     0
 72
     2
 73
     0
 90
        0
 40
-0.6
 41
-30.0
 62
     5
 63
     7
 74
     1
 91
        4
 64
     7
 65
   257
 75
     1
175
     1
 42
1.0
 92
        0
 66
   257
 43
1.0
 76
     1
 77
     6
 78
     2
 67
     7
 79
     5
170
     0
171
     0
290
     0
174
     0
 93
        1
 44
0.0
173
     0
291
     0
 45
0.0
1001
ACAD
1000
AcDbSavedByObjectVersion
1070
     0
  0
VISUALSTYLE
  5
336A
102
{ACAD_REACTORS
330
3365
102
}
330
3365
100
AcDbVisualStyle
  2
Basic
 70
     7
 71
     1
 72
     0
 73
     1
 90
        0
 40
-0.6
 41
-30.0
 62
     5
 63
     7
 74
     0
 91
        4
 64
     7
 65
   257
 75
     1
175
     1
 42
1.0
 92
        8
 66
     7
 43
1.0
 76
     1
 77
     6
 78
     2
 67
     7
 79
     5
170
     0
171
     0
290
     0
174
     0
 93
        1
 44
0.0
173
     0
291
     1
 45
0.0
1001
ACAD
1000
AcDbSavedByObjectVersion
1070
     0
  0
VISUALSTYLE
  5
3371
102
{ACAD_REACTORS
330
3365
102
}
330
3365
100
AcDbVisualStyle
  2
Brighten
 70
    12
 71
     2
 72
     2
 73
     0
 90
        0
 40
-0.6
 41
-30.0
 62
     5
 63
     7
 74
     1
 91
        4
 64
     7
 65
   257
 75
     1
175
     1
 42
1.0
 92
        8
 66
     7
 43
1.0
 76
     1
 77
     6
 78
     2
 67
     7
 79
     5
170
     0
171
     0
290
     0
174
     0
 93
        1
 44
50.0
173
     0
291
     1
 45
0.0
1001
ACAD
1000
AcDbSavedByObjectVersion
1070
     0
  0
VISUALSTYLE
  5
3375
102
{ACAD_REACTORS
330
3365
102
}
330
3365
100
AcDbVisualStyle
  2
ColorChange
 70
    16
 71
     2
 72
     2
 73
     3
 90
        0
 40
-0.6
 41
-30.0
 62
     5
 63
     8
 74
     1
 91
        4
 64
     7
 65
   257
 75
     1
175
     1
 42
1.0
 92
        8
 66
     8
 43
1.0
 76
     1
 77
     6
 78
     2
 67
     7
 79
     5
170
     0
171
     0
290
     0
174
     0
 93
        1
 44
0.0
173
     0
291
     1
 45
0.0
1001
ACAD
1000
AcDbSavedByObjectVersion
1070
     0
  0
VISUALSTYLE
  5
336E
102
{ACAD_REACTORS
330
3365
102
}
330
3365
100
AcDbVisualStyle
  2
Conceptual
 70
     9
 71
     3
 72
     2
 73
     0
 90
        0
 40
-0.6
 41
-30.0
 62
     5
 63
     7
 74
     2
 91
        2
 64
     7
 65
   257
 75
     1
175
     1
 42
40.0
 92
        8
 66
     7
 43
1.0
 76
     1
 77
     6
 78
     2
 67
     7
 79
     3
170
     0
171
     0
290
     0
174
     0
 93
        1
 44
0.0
173
     0
291
     0
 45
0.0
1001
ACAD
1000
AcDbSavedByObjectVersion
1070
     0
  0
VISUALSTYLE
  5
3370
102
{ACAD_REACTORS
330
3365
102
}
330
3365
100
AcDbVisualStyle
  2
Dim
 70
    11
 71
     2
 72
     2
 73
     0
 90
        0
 40
-0.6
 41
-30.0
 62
     5
 63
     7
 74
     1
 91
        4
 64
     7
 65
   257
 75
     1
175
     1
 42
1.0
 92
        8
 66
     7
 43
1.0
 76
     1
 77
     6
 78
     2
 67
     7
 79
     5
170
     0
171
     0
290
     0
174
     0
 93
        1
 44
-50.0
173
     0
291
     1
 45
0.0
1001
ACAD
1000
AcDbSavedByObjectVersion
1070
     0
  0
VISUALSTYLE
  5
3374
102
{ACAD_REACTORS
330
3365
102
}
330
3365
100
AcDbVisualStyle
  2
Facepattern
 70
    15
 71
     2
 72
     2
 73
     0
 90
        0
 40
-0.6
 41
-30.0
 62
     5
 63
     7
 74
     1
 91
        4
 64
     7
 65
   257
 75
     1
175
     1
 42
1.0
 92
        8
 66
     7
 43
1.0
 76
     1
 77
     6
 78
     2
 67
     7
 79
     5
170
     0
171
     0
290
     0
174
     0
 93
        1
 44
0.0
173
     0
291
     1
 45
0.0
1001
ACAD
1000
AcDbSavedByObjectVersion
1070
     0
  0
VISUALSTYLE
  5
3366
102
{ACAD_REACTORS
330
3365
102
}
330
3365
100
AcDbVisualStyle
  2
Flat
 70
     0
 71
     2
 72
     1
 73
     1
 90
        2
 40
-0.6
 41
30.0
 62
     5
 63
     7
 74
     0
 91
        4
 64
     7
 65
   257
 75
     1
175
     1
 42
1.0
 92
        8
 66
     7
 43
1.0
 76
     1
 77
     6
 78
     2
 67
     7
 79
     5
170
     0
171
     0
290
     0
174
     0
 93
       13
 44
0.0
173
     0
291
     1
 45
0.0
1001
ACAD
1000
AcDbSavedByObjectVersion
1070
     0
  0
VISUALSTYLE
  5
3367
102
{ACAD_REACTORS
330
3365
102
}
330
3365
100
AcDbVisualStyle
  2
FlatWithEdges
 70
     1
 71
     2
 72
     1
 73
     1
 90
        2
 40
-0.6
 41
30.0
 62
     5
 63
     7
 74
     1
 91
        4
 64
     7
 65
   257
 75
     1
175
     1
 42
1.0
 92
        0
 66
   257
 43
1.0
 76
     1
 77
     6
 78
     2
 67
     7
 79
     5
170
     0
171
     0
290
     0
174
     0
 93
       13
 44
0.0
173
     0
291
     1
 45
0.0
1001
ACAD
1000
AcDbSavedByObjectVersion
1070
     0
  0
VISUALSTYLE
  5
3368
102
{ACAD_REACTORS
330
3365
102
}
330
3365
100
AcDbVisualStyle
  2
Gouraud
 70
     2
 71
     2
 72
     2
 73
     1
 90
        2
 40
-0.6
 41
30.0
 62
     5
 63
     7
 74
     0
 91
        4
 64
     7
 65
   257
 75
     1
175
     1
 42
1.0
 92
        0
 66
     7
 43
1.0
 76
     1
 77
     6
 78
     2
 67
     7
 79
     5
170
     0
171
     0
290
     0
174
     0
 93
       13
 44
0.0
173
     0
291
     1
 45
0.0
1001
ACAD
1000
AcDbSavedByObjectVersion
1070
     0
  0
VISUALSTYLE
  5
3369
102
{ACAD_REACTORS
330
3365
102
}
330
3365
100
AcDbVisualStyle
  2
GouraudWithEdges
 70
     3
 71
     2
 72
     2
 73
     1
 90
        2
 40
-0.6
 41
30.0
 62
     5
 63
     7
 74
     1
 91
        4
 64
     7
 65
   257
 75
     1
175
     1
 42
1.0
 92
        0
 66
   257
 43
1.0
 76
     1
 77
     6
 78
     2
 67
     7
 79
     5
170
     0
171
     0
290
     0
174
     0
 93
       13
 44
0.0
173
     0
291
     1
 45
0.0
1001
ACAD
1000
AcDbSavedByObjectVersion
1070
     0
  0
VISUALSTYLE
  5
3373
102
{ACAD_REACTORS
330
3365
102
}
330
3365
100
AcDbVisualStyle
  2
Linepattern
 70
    14
 71
     2
 72
     2
 73
     0
 90
        0
 40
-0.6
 41
-30.0
 62
     5
 63
     7
 74
     1
 91
        4
 64
     7
 65
   257
 75
     7
175
     7
 42
1.0
 92
        8
 66
     7
 43
1.0
 76
     1
 77
     6
 78
     2
 67
     7
 79
     5
170
     0
171
     0
290
     0
174
     0
 93
        1
 44
0.0
173
     0
291
     1
 45
0.0
1001
ACAD
1000
AcDbSavedByObjectVersion
1070
     0
  0
VISUALSTYLE
  5
336F
102
{ACAD_REACTORS
330
3365
102
}
330
3365
100
AcDbVisualStyle
  2
Realistic
 70
     8
 71
     2
 72
     2
 73
     0
 90
        0
 40
-0.6
 41
-30.0
 62
     5
 63
     7
 74
     1
 91
        0
 64
     7
 65
   257
 75
     1
175
     1
 42
1.0
 92
        8
 66
     8
 43
1.0
 76
     1
 77
     6
 78
     2
 67
     7
 79
     5
170
     0
171
     0
290
     0
174
     0
 93
       13
 44
0.0
173
     0
291
     0
 45
0.0
1001
ACAD
1000
AcDbSavedByObjectVersion
1070
     0
  0
VISUALSTYLE
  5
3372
102
{ACAD_REACTORS
330
3365
102
}
330
3365
100
AcDbVisualStyle
  2
Thicken
 70
    13
 71
     2
 72
     2
 73
     0
 90
        0
 40
-0.6
 41
-30.0
 62
     5
 63
     7
 74
     1
 91
        4
 64
     7
 65
   257
 75
     1
175
     1
 42
1.0
 92
       12
 66
     7
 43
1.0
 76
     1
 77
     6
 78
     2
 67
     7
 79
     5
170
     0
171
     0
290
     0
174
     0
 93
        1
 44
0.0
173
     0
291
     1
 45
0.0
1001
ACAD
1000
AcDbSavedByObjectVersion
1070
     0
  0
DICTIONARYVAR
  5
354C
102
{ACAD_REACTORS
330
3549
102
}
330
3549
100
DictionaryVariables
280
     0
  1
1:1
  0
DICTIONARYVAR
  5
354B
102
{ACAD_REACTORS
330
3549
102
}
330
3549
100
DictionaryVariables
280
     0
  1
STANDARD
  0
DICTIONARYVAR
  5
354A
102
{ACAD_REACTORS
330
3549
102
}
330
3549
100
DictionaryVariables
280
     0
  1
STANDARD
  0
DICTIONARYVAR
  5
354F
102
{ACAD_REACTORS
330
3549
102
}
330
3549
100
DictionaryVariables
280
     0
  1
1
  0
DICTIONARYVAR
  5
354E
102
{ACAD_REACTORS
330
3549
102
}
330
3549
100
DictionaryVariables
280
     0
  1
1
  0
DICTIONARYVAR
  5
354D
102
{ACAD_REACTORS
330
3549
102
}
330
3549
100
DictionaryVariables
280
     0
  1
127
  0
DICTIONARY
  5
3504
102
{ACAD_REACTORS
330
34F6
102
}
330
34F6
100
AcDbDictionary
281
     1
  0
DICTIONARY
  5
3444
102
{ACAD_REACTORS
330
3443
102
}
330
3443
100
AcDbDictionary
281
     1
  3
DWGSETTINGS
350
3445
  3
TRANSSETTINGS
350
3446
  0
LAYER_INDEX
  5
353A
102
{ACAD_REACTORS
330
3539
102
}
330
3539
100
AcDbIndex
 40
2456213.408901007
100
AcDbLayerIndex
  8
0
360
353B
 90
        1
  8
OUTLINE
360
353C
 90
       70
  8
SIZE
360
353D
 90
       40
  8
BASIS
360
353E
 90
        0
  8
DETAIL
360
353F
 90
       67
  8
ARRANGE
360
3540
 90
        3
  8
DEFPOINTS
360
3541
 90
        0
  8
ETC
360
3542
 90
        3
  8
FIX
360
3543
 90
        0
  8
NOTE
360
3544
 90
        5
  8
SERVICESPACE
360
3545
 90
        0
  8
SYMBOLLINE
360
3546
 90
        0
  8
DETAIL___1
360
3547
 90
        2
  8
BASIC
360
3548
 90
        2
  0
DICTIONARY
  5
355F
330
33B3
100
AcDbDictionary
280
     1
281
     1
  3
ACAD_XREC_ROUNDTRIP
360
3560
  0
DICTIONARY
  5
355D
330
33AF
100
AcDbDictionary
280
     1
281
     1
  3
ACAD_XREC_ROUNDTRIP
360
355E
  0
DICTIONARY
  5
3356
330
3355
100
AcDbDictionary
280
     1
281
     1
  3
ACAD_XREC_ROUNDTRIP
360
355A
  3
BUMPTILE
360
3358
  3
DIFFUSETILE
360
3357
  3
OPACITYTILE
360
335B
  3
REFLECTIONTILE
360
335A
  3
REFRACTIONTILE
360
335C
  3
SPECULARTILE
360
3359
  0
DICTIONARY
  5
334E
330
334D
100
AcDbDictionary
280
     1
281
     1
  3
ACAD_XREC_ROUNDTRIP
360
3559
  3
BUMPTILE
360
3350
  3
DIFFUSETILE
360
334F
  3
OPACITYTILE
360
3353
  3
REFLECTIONTILE
360
3352
  3
REFRACTIONTILE
360
3354
  3
SPECULARTILE
360
3351
  0
DICTIONARY
  5
335E
330
335D
100
AcDbDictionary
280
     1
281
     1
  3
ACAD_XREC_ROUNDTRIP
360
355B
  3
BUMPTILE
360
3360
  3
DIFFUSETILE
360
335F
  3
OPACITYTILE
360
3363
  3
REFLECTIONTILE
360
3362
  3
REFRACTIONTILE
360
3364
  3
SPECULARTILE
360
3361
  0
DICTIONARY
  5
3550
330
33A8
100
AcDbDictionary
280
     1
281
     1
  3
ACAD_ROUNDTRIP_2008_TABLESTYLE_CELLSTYLEMAP
360
3551
  3
ACAD_XREC_ROUNDTRIP
360
355C
  0
IDBUFFER
  5
353B
330
0
100
AcDbIdBuffer
330
3288
  0
IDBUFFER
  5
353C
330
0
100
AcDbIdBuffer
330
32B6
330
32B7
330
32B8
330
32B9
330
32BA
330
32BB
330
32BC
330
32BD
330
32BE
330
32BF
330
32C0
330
32C1
330
32C2
330
32C3
330
32C7
330
32C8
330
32C9
330
32CA
330
32CE
330
32CF
330
32D0
330
32D1
330
953
330
954
330
955
330
956
330
957
330
958
330
326D
330
328B
330
328C
330
328D
330
3290
330
3291
330
3292
330
3293
330
3294
330
3295
330
3296
330
3297
330
3298
330
3299
330
329A
330
329B
330
329C
330
329D
330
329E
330
329F
330
32A0
330
32A1
330
32A2
330
32A3
330
32A4
330
32A5
330
32A6
330
32A7
330
32A8
330
32A9
330
32AA
330
32AB
330
32AC
330
32AD
330
32AE
330
32AF
330
32B0
330
32B1
330
32B2
330
32B3
330
32B4
330
32B5
  0
IDBUFFER
  5
353D
330
0
100
AcDbIdBuffer
330
32E2
330
32E3
330
32E4
330
32E5
330
32E6
330
32E7
330
32E8
330
32E9
330
32EA
330
32EB
330
32EC
330
32ED
330
32EE
330
32EF
330
32F0
330
32F1
330
32F2
330
32F3
330
32F4
330
32F5
330
32F6
330
32F7
330
32F8
330
32F9
330
32D2
330
32D3
330
32D4
330
32D5
330
32D6
330
32D7
330
32D8
330
32D9
330
32DA
330
32DB
330
32DC
330
32DD
330
32DE
330
32DF
330
32E0
330
32E1
  0
IDBUFFER
  5
353E
330
0
100
AcDbIdBuffer
  0
IDBUFFER
  5
353F
330
0
100
AcDbIdBuffer
330
327B
330
327C
330
327D
330
327E
330
327F
330
3280
330
3281
330
3282
330
3283
330
3284
330
3285
330
3286
330
3287
330
328E
330
328F
330
32C6
330
32CB
330
32CC
330
32CD
330
324A
330
324B
330
324C
330
324D
330
324E
330
324F
330
3250
330
3251
330
3252
330
3253
330
3254
330
3255
330
3256
330
3257
330
3258
330
3259
330
325A
330
325B
330
325C
330
325D
330
325E
330
325F
330
3260
330
3261
330
3262
330
3263
330
3264
330
3265
330
3266
330
3267
330
3268
330
3269
330
326A
330
326B
330
326C
330
326E
330
326F
330
3270
330
3271
330
3272
330
3273
330
3274
330
3275
330
3276
330
3277
330
3278
330
3279
330
327A
  0
IDBUFFER
  5
3540
330
0
100
AcDbIdBuffer
330
3243
330
3244
330
3245
  0
IDBUFFER
  5
3541
330
0
100
AcDbIdBuffer
  0
IDBUFFER
  5
3542
330
0
100
AcDbIdBuffer
330
3240
330
3241
330
3242
  0
IDBUFFER
  5
3543
330
0
100
AcDbIdBuffer
  0
IDBUFFER
  5
3544
330
0
100
AcDbIdBuffer
330
3248
330
3249
330
3289
330
328A
330
32FA
  0
IDBUFFER
  5
3545
330
0
100
AcDbIdBuffer
  0
IDBUFFER
  5
3546
330
0
100
AcDbIdBuffer
  0
IDBUFFER
  5
3547
330
0
100
AcDbIdBuffer
330
32C4
330
32C5
  0
IDBUFFER
  5
3548
330
0
100
AcDbIdBuffer
330
3246
330
3247
  0
XRECORD
  5
3560
102
{ACAD_REACTORS
330
355F
102
}
330
355F
100
AcDbXrecord
280
     1
102
SHADEPLOT
 70
     0
102
SHADEPLOTRESLEVEL
 70
     2
102
SHADEPLOTCUSTOMDPI
 70
   300
  0
XRECORD
  5
355E
102
{ACAD_REACTORS
330
355D
102
}
330
355D
100
AcDbXrecord
280
     1
102
SHADEPLOT
 70
     0
102
SHADEPLOTRESLEVEL
 70
     2
102
SHADEPLOTCUSTOMDPI
 70
   300
  0
XRECORD
  5
355A
102
{ACAD_REACTORS
330
3356
102
}
330
3356
100
AcDbXrecord
280
     1
102
MATERIAL
148
0.0
149
0.0
149
0.0
 93
        0
 94
      127
282
     0
 72
     0
 77
     0
171
     0
175
     0
179
     0
273
     0
  0
XRECORD
  5
3358
102
{ACAD_REACTORS
330
3356
102
}
330
3356
100
AcDbXrecord
280
     1
270
     1
271
     1
  0
XRECORD
  5
3357
102
{ACAD_REACTORS
330
3356
102
}
330
3356
100
AcDbXrecord
280
     1
270
     1
271
     1
  0
XRECORD
  5
335B
102
{ACAD_REACTORS
330
3356
102
}
330
3356
100
AcDbXrecord
280
     1
270
     1
271
     1
  0
XRECORD
  5
335A
102
{ACAD_REACTORS
330
3356
102
}
330
3356
100
AcDbXrecord
280
     1
270
     1
271
     1
  0
XRECORD
  5
335C
102
{ACAD_REACTORS
330
3356
102
}
330
3356
100
AcDbXrecord
280
     1
270
     1
271
     1
  0
XRECORD
  5
3359
102
{ACAD_REACTORS
330
3356
102
}
330
3356
100
AcDbXrecord
280
     1
270
     1
271
     1
  0
XRECORD
  5
3559
102
{ACAD_REACTORS
330
334E
102
}
330
334E
100
AcDbXrecord
280
     1
102
MATERIAL
148
0.0
149
0.0
149
0.0
 93
        0
 94
      127
282
     0
 72
     0
 77
     0
171
     0
175
     0
179
     0
273
     0
  0
XRECORD
  5
3350
102
{ACAD_REACTORS
330
334E
102
}
330
334E
100
AcDbXrecord
280
     1
270
     1
271
     1
  0
XRECORD
  5
334F
102
{ACAD_REACTORS
330
334E
102
}
330
334E
100
AcDbXrecord
280
     1
270
     1
271
     1
  0
XRECORD
  5
3353
102
{ACAD_REACTORS
330
334E
102
}
330
334E
100
AcDbXrecord
280
     1
270
     1
271
     1
  0
XRECORD
  5
3352
102
{ACAD_REACTORS
330
334E
102
}
330
334E
100
AcDbXrecord
280
     1
270
     1
271
     1
  0
XRECORD
  5
3354
102
{ACAD_REACTORS
330
334E
102
}
330
334E
100
AcDbXrecord
280
     1
270
     1
271
     1
  0
XRECORD
  5
3351
102
{ACAD_REACTORS
330
334E
102
}
330
334E
100
AcDbXrecord
280
     1
270
     1
271
     1
  0
XRECORD
  5
355B
102
{ACAD_REACTORS
330
335E
102
}
330
335E
100
AcDbXrecord
280
     1
102
MATERIAL
148
0.0
149
0.0
149
0.0
 93
        0
 94
      127
282
     0
 72
     0
 77
     0
171
     0
175
     0
179
     0
273
     0
  0
XRECORD
  5
3360
102
{ACAD_REACTORS
330
335E
102
}
330
335E
100
AcDbXrecord
280
     1
270
     1
271
     1
  0
XRECORD
  5
335F
102
{ACAD_REACTORS
330
335E
102
}
330
335E
100
AcDbXrecord
280
     1
270
     1
271
     1
  0
XRECORD
  5
3363
102
{ACAD_REACTORS
330
335E
102
}
330
335E
100
AcDbXrecord
280
     1
270
     1
271
     1
  0
XRECORD
  5
3362
102
{ACAD_REACTORS
330
335E
102
}
330
335E
100
AcDbXrecord
280
     1
270
     1
271
     1
  0
XRECORD
  5
3364
102
{ACAD_REACTORS
330
335E
102
}
330
335E
100
AcDbXrecord
280
     1
270
     1
271
     1
  0
XRECORD
  5
3361
102
{ACAD_REACTORS
330
335E
102
}
330
335E
100
AcDbXrecord
280
     1
270
     1
271
     1
  0
CELLSTYLEMAP
  5
3551
102
{ACAD_REACTORS
330
3550
102
}
330
3550
100
AcDbCellStyleMap
 90
        3
300
CELLSTYLE
  1
TABLEFORMAT_BEGIN
 90
        5
170
     1
 91
        0
 92
    32768
 62
   257
 93
        1
300
CONTENTFORMAT
  1
CONTENTFORMAT_BEGIN
 90
        0
 91
        0
 92
      512
 93
        0
300

 40
0.0
140
1.0
 94
        5
 62
     0
340
3399
144
0.25
309
CONTENTFORMAT_END
171
     0
 94
        0
309
TABLEFORMAT_END
  1
CELLSTYLE_BEGIN
 90
        1
 91
        1
300
_TITLE
309
CELLSTYLE_END
300
CELLSTYLE
  1
TABLEFORMAT_BEGIN
 90
        5
170
     1
 91
        0
 92
        0
 62
   257
 93
        1
300
CONTENTFORMAT
  1
CONTENTFORMAT_BEGIN
 90
        0
 91
        0
 92
      512
 93
        0
300

 40
0.0
140
1.0
 94
        5
 62
     0
340
3399
144
0.18
309
CONTENTFORMAT_END
171
     0
 94
        0
309
TABLEFORMAT_END
  1
CELLSTYLE_BEGIN
 90
        2
 91
        1
300
_HEADER
309
CELLSTYLE_END
300
CELLSTYLE
  1
TABLEFORMAT_BEGIN
 90
        5
170
     1
 91
        0
 92
        0
 62
   257
 93
        1
300
CONTENTFORMAT
  1
CONTENTFORMAT_BEGIN
 90
        0
 91
        0
 92
      512
 93
        0
300

 40
0.0
140
1.0
 94
        2
 62
     0
340
3399
144
0.18
309
CONTENTFORMAT_END
171
     0
 94
        0
309
TABLEFORMAT_END
  1
CELLSTYLE_BEGIN
 90
        3
 91
        2
300
_DATA
309
CELLSTYLE_END
  0
XRECORD
  5
355C
102
{ACAD_REACTORS
330
3550
102
}
330
3550
100
AcDbXrecord
280
     1
102
ACAD_ROUNDTRIP_PRE2007_TABLESTYLE
 90
      512
 91
        0
  1

 92
      512
 93
        0
  2

 94
      512
 95
        0
  3

  0
ENDSEC
  0
EOF
