  0
SECTION
  2
HEADER
  9
$ACADVER
  1
AC1015
  9
$ACADMAINTVER
 70
    20
  9
$DWGCODEPAGE
  3
ANSI_932
  9
$INSBASE
 10
0.0
 20
0.0
 30
0.0
  9
$EXTMIN
 10
-917.1620139029988
 20
-1265.62014867139
 30
0.0
  9
$EXTMAX
 10
1445.191779700978
 20
1047.628670448309
 30
0.0
  9
$LIMMIN
 10
-2970.0
 20
-2100.0
  9
$LIMMAX
 10
2970.0
 20
2100.0
  9
$ORTHOMODE
 70
     1
  9
$REGENMODE
 70
     0
  9
$FILLMODE
 70
     1
  9
$QTEXTMODE
 70
     0
  9
$MIRRTEXT
 70
     0
  9
$LTSCALE
 40
20.0
  9
$ATTMODE
 70
     1
  9
$TEXTSIZE
 40
64.0
  9
$TRACEWID
 40
0.05
  9
$TEXTSTYLE
  7
STANDARD
  9
$CLAYER
  8
0
  9
$CELTYPE
  6
ByLayer
  9
$CECOLOR
 62
   256
  9
$CELTSCALE
 40
1.0
  9
$DISPSILH
 70
     0
  9
$DIMSCALE
 40
1.0
  9
$DIMASZ
 40
0.12
  9
$DIMEXO
 40
0.05
  9
$DIMDLI
 40
0.5
  9
$DIMRND
 40
0.0
  9
$DIMDLE
 40
0.0
  9
$DIMEXE
 40
0.1
  9
$DIMTP
 40
0.1
  9
$DIMTM
 40
0.1
  9
$DIMTXT
 40
0.12
  9
$DIMCEN
 40
0.0
  9
$DIMTSZ
 40
0.0
  9
$DIMTOL
 70
     0
  9
$DIMLIM
 70
     0
  9
$DIMTIH
 70
     1
  9
$DIMTOH
 70
     1
  9
$DIMSE1
 70
     0
  9
$DIMSE2
 70
     0
  9
$DIMTAD
 70
     0
  9
$DIMZIN
 70
     7
  9
$DIMBLK
  1

  9
$DIMASO
 70
     1
  9
$DIMSHO
 70
     0
  9
$DIMPOST
  1

  9
$DIMAPOST
  1
mm
  9
$DIMALT
 70
     0
  9
$DIMALTD
 70
     2
  9
$DIMALTF
 40
25.4
  9
$DIMLFAC
 40
1.0
  9
$DIMTOFL
 70
     0
  9
$DIMTVP
 40
0.0
  9
$DIMTIX
 70
     0
  9
$DIMSOXD
 70
     0
  9
$DIMSAH
 70
     0
  9
$DIMBLK1
  1

  9
$DIMBLK2
  1

  9
$DIMSTYLE
  2
AM_ANSI
  9
$DIMCLRD
 70
   256
  9
$DIMCLRE
 70
   256
  9
$DIMCLRT
 70
     2
  9
$DIMTFAC
 40
0.71
  9
$DIMGAP
 40
0.06
  9
$DIMJUST
 70
     0
  9
$DIMSD1
 70
     0
  9
$DIMSD2
 70
     0
  9
$DIMTOLJ
 70
     1
  9
$DIMTZIN
 70
     7
  9
$DIMALTZ
 70
     0
  9
$DIMALTTZ
 70
     0
  9
$DIMUPT
 70
     0
  9
$DIMDEC
 70
     4
  9
$DIMTDEC
 70
     4
  9
$DIMALTU
 70
     2
  9
$DIMALTTD
 70
     4
  9
$DIMTXSTY
  7
STANDARD
  9
$DIMAUNIT
 70
     0
  9
$DIMADEC
 70
     0
  9
$DIMALTRND
 40
0.0
  9
$DIMAZIN
 70
     2
  9
$DIMDSEP
 70
    46
  9
$DIMATFIT
 70
     3
  9
$DIMFRAC
 70
     0
  9
$DIMLDRBLK
  1

  9
$DIMLUNIT
 70
     2
  9
$DIMLWD
 70
    -1
  9
$DIMLWE
 70
    -1
  9
$DIMTMOVE
 70
     0
  9
$LUNITS
 70
     2
  9
$LUPREC
 70
     4
  9
$SKETCHINC
 40
0.1
  9
$FILLETRAD
 40
4.0
  9
$AUNITS
 70
     1
  9
$AUPREC
 70
     3
  9
$MENU
  1
ACAD
  9
$ELEVATION
 40
0.0
  9
$PELEVATION
 40
0.0
  9
$THICKNESS
 40
50.0
  9
$LIMCHECK
 70
     0
  9
$CHAMFERA
 40
0.0
  9
$CHAMFERB
 40
0.0
  9
$CHAMFERC
 40
0.0
  9
$CHAMFERD
 40
0.0
  9
$SKPOLY
 70
     0
  9
$TDCREATE
 40
2452321.396199653
  9
$TDUCREATE
 40
2452321.021199653
  9
$TDUPDATE
 40
2456213.409439676
  9
$TDUUPDATE
 40
2456213.034439676
  9
$TDINDWG
 40
1.0442532755
  9
$TDUSRTIMER
 40
1.0442478704
  9
$USRTIMER
 70
     1
  9
$ANGBASE
 50
0.0
  9
$ANGDIR
 70
     0
  9
$PDMODE
 70
     3
  9
$PDSIZE
 40
-2.0
  9
$PLINEWID
 40
0.0
  9
$SPLFRAME
 70
     0
  9
$SPLINETYPE
 70
     6
  9
$SPLINESEGS
 70
     8
  9
$HANDSEED
  5
2EF3
  9
$SURFTAB1
 70
     6
  9
$SURFTAB2
 70
     6
  9
$SURFTYPE
 70
     6
  9
$SURFU
 70
     6
  9
$SURFV
 70
     6
  9
$UCSBASE
  2

  9
$UCSNAME
  2

  9
$UCSORG
 10
0.0
 20
0.0
 30
0.0
  9
$UCSXDIR
 10
1.0
 20
0.0
 30
0.0
  9
$UCSYDIR
 10
0.0
 20
1.0
 30
0.0
  9
$UCSORTHOREF
  2

  9
$UCSORTHOVIEW
 70
     0
  9
$UCSORGTOP
 10
0.0
 20
0.0
 30
0.0
  9
$UCSORGBOTTOM
 10
0.0
 20
0.0
 30
0.0
  9
$UCSORGLEFT
 10
0.0
 20
0.0
 30
0.0
  9
$UCSORGRIGHT
 10
0.0
 20
0.0
 30
0.0
  9
$UCSORGFRONT
 10
0.0
 20
0.0
 30
0.0
  9
$UCSORGBACK
 10
0.0
 20
0.0
 30
0.0
  9
$PUCSBASE
  2

  9
$PUCSNAME
  2

  9
$PUCSORG
 10
0.0
 20
0.0
 30
0.0
  9
$PUCSXDIR
 10
1.0
 20
0.0
 30
0.0
  9
$PUCSYDIR
 10
0.0
 20
1.0
 30
0.0
  9
$PUCSORTHOREF
  2

  9
$PUCSORTHOVIEW
 70
     0
  9
$PUCSORGTOP
 10
0.0
 20
0.0
 30
0.0
  9
$PUCSORGBOTTOM
 10
0.0
 20
0.0
 30
0.0
  9
$PUCSORGLEFT
 10
0.0
 20
0.0
 30
0.0
  9
$PUCSORGRIGHT
 10
0.0
 20
0.0
 30
0.0
  9
$PUCSORGFRONT
 10
0.0
 20
0.0
 30
0.0
  9
$PUCSORGBACK
 10
0.0
 20
0.0
 30
0.0
  9
$USERI1
 70
     0
  9
$USERI2
 70
     0
  9
$USERI3
 70
     0
  9
$USERI4
 70
     0
  9
$USERI5
 70
     0
  9
$USERR1
 40
20.0
  9
$USERR2
 40
0.0
  9
$USERR3
 40
0.0
  9
$USERR4
 40
0.0
  9
$USERR5
 40
0.0
  9
$WORLDVIEW
 70
     1
  9
$SHADEDGE
 70
     3
  9
$SHADEDIF
 70
    70
  9
$TILEMODE
 70
     1
  9
$MAXACTVP
 70
    64
  9
$PINSBASE
 10
0.0
 20
0.0
 30
0.0
  9
$PLIMCHECK
 70
     0
  9
$PEXTMIN
 10
1.000000000000000E+20
 20
1.000000000000000E+20
 30
1.000000000000000E+20
  9
$PEXTMAX
 10
-1.000000000000000E+20
 20
-1.000000000000000E+20
 30
-1.000000000000000E+20
  9
$PLIMMIN
 10
0.0
 20
0.0
  9
$PLIMMAX
 10
12.0
 20
9.0
  9
$UNITMODE
 70
     0
  9
$VISRETAIN
 70
     1
  9
$PLINEGEN
 70
     0
  9
$PSLTSCALE
 70
     1
  9
$TREEDEPTH
 70
  3020
  9
$CMLSTYLE
  2
Standard
  9
$CMLJUST
 70
     0
  9
$CMLSCALE
 40
1.0
  9
$PROXYGRAPHICS
 70
     1
  9
$MEASUREMENT
 70
     0
  9
$CELWEIGHT
370
    -1
  9
$ENDCAPS
280
     0
  9
$JOINSTYLE
280
     0
  9
$LWDISPLAY
290
     0
  9
$INSUNITS
 70
     0
  9
$HYPERLINKBASE
  1

  9
$STYLESHEET
  1

  9
$XEDIT
290
     1
  9
$CEPSNTYPE
380
     0
  9
$PSTYLEMODE
290
     1
  9
$FINGERPRINTGUID
  2
{5F727C11-B4CF-4512-BC30-76ADC67ACBE4}
  9
$VERSIONGUID
  2
{1A82B8CA-2F3D-4A31-9DB0-EB51FC2B5A4C}
  9
$EXTNAMES
290
     1
  9
$PSVPSCALE
 40
0.0
  9
$OLESTARTUP
290
     0
  0
ENDSEC
  0
SECTION
  2
CLASSES
  0
CLASS
  1
ACDBDICTIONARYWDFLT
  2
AcDbDictionaryWithDefault
  3
ObjectDBX Classes
 90
        0
280
     0
281
     0
  0
CLASS
  1
MATERIAL
  2
AcDbMaterial
  3
ObjectDBX Classes
 90
     1153
280
     0
281
     0
  0
CLASS
  1
VISUALSTYLE
  2
AcDbVisualStyle
  3
ObjectDBX Classes
 90
     4095
280
     0
281
     0
  0
CLASS
  1
SCALE
  2
AcDbScale
  3
ObjectDBX Classes
 90
     1153
280
     0
281
     0
  0
CLASS
  1
TABLESTYLE
  2
AcDbTableStyle
  3
ObjectDBX Classes
 90
     4095
280
     0
281
     0
  0
CLASS
  1
MLEADERSTYLE
  2
AcDbMLeaderStyle
  3
ACDB_MLEADERSTYLE_CLASS
 90
     4095
280
     0
281
     0
  0
CLASS
  1
AMGSETTINGSOBJ
  2
AmgSettingsObj
  3
"AcadM|Product Description: AutoCAD Mechanical|Company: Autodesk, Inc."
 90
     1024
280
     0
281
     0
  0
CLASS
  1
ACME_DOCUMENT
  2
AcMeDbDoc
  3
AcMeServices
 90
     1024
280
     0
281
     0
  0
CLASS
  1
ACMESCOPE
  2
AcMeScope
  3
AcMeServices
 90
     1024
280
     0
281
     0
  0
CLASS
  1
ACMECOMMANDHISTORY
  2
AcMeCommandHistory
  3
AcMeServices
 90
     1024
280
     0
281
     0
  0
CLASS
  1
ACIMSYSVARMAN
  2
AcImSysVarManager
  3
AcMeServices
 90
     1024
280
     0
281
     0
  0
CLASS
  1
ACIMREALSYSVAR
  2
AcImRealSysVar
  3
AcMeServices
 90
     1024
280
     0
281
     0
  0
CLASS
  1
ACIMINTSYSVAR
  2
AcImIntSysVar
  3
AcMeServices
 90
     1024
280
     0
281
     0
  0
CLASS
  1
ACMEDRAWINGMAN
  2
AcMeDrawingMan
  3
AcMeServices
 90
     1024
280
     0
281
     0
  0
CLASS
  1
ACMEVIEW
  2
AcMeView
  3
AcMeServices
 90
     1024
280
     0
281
     0
  0
CLASS
  1
ACDBENTITYCACHE
  2
AcMeEntityCache
  3
AcMeServices
 90
     1024
280
     0
281
     0
  0
CLASS
  1
GSMANAGER
  2
AcMeGSManager
  3
AcMeServices
 90
     1024
280
     0
281
     0
  0
CLASS
  1
AMDTINTERNALREACTOR
  2
AmdtInternalReactor
  3
AcMeServices
 90
     1024
280
     0
281
     0
  0
CLASS
  1
ACMESTATEMGR
  2
AcMeStateMgr
  3
AcMeServices
 90
     1024
280
     0
281
     0
  0
CLASS
  1
ACGREFMASTER
  2
AcGrefMaster
  3
AcAttribServices
 90
     1024
280
     0
281
     0
  0
CLASS
  1
AM_DRAWING_MGR
  2
AcDmDwgMgr
  3
AcMechDwgViewMgmt
 90
     1024
280
     0
281
     0
  0
CLASS
  1
AM_DWG_DOCUMENT
  2
AcDmDwgDocument
  3
AcMechDwgViewMgmt
 90
     1024
280
     0
281
     0
  0
CLASS
  1
AM_DWG_SHEET
  2
AcDmSheet
  3
AcMechDwgViewMgmt
 90
     1024
280
     0
281
     0
  0
CLASS
  1
AM_VIEWDIMPARMAP
  2
AcDmViewDimParMap
  3
AcMechDwgViewMgmt
 90
     1024
280
     0
281
     0
  0
CLASS
  1
AM_DWGMGR_NAME
  2
AcDmDwgMgrName
  3
AcMechDwgViewMgmt
 90
     1024
280
     0
281
     0
  0
CLASS
  1
ACME_DATABASE
  2
AcMeDbDatabase
  3
AcMeServices
 90
     1024
280
     0
281
     0
  0
CLASS
  1
ACRFINSADJUSTERMGR
  2
AcRfInsAdjusterMgr
  3
AcMeServices
 90
     1024
280
     0
281
     0
  0
CLASS
  1
ACGREFACADMASTER
  2
AcGrefacadMaster
  3
AcGrefServices
 90
     1024
280
     0
281
     0
  0
CLASS
  1
AMDTMENUSTATEMGR
  2
AmdtMenuStateMgr
  3
McadcomServices
 90
     1024
280
     0
281
     0
  0
CLASS
  1
AMDTMCOMMENUSTATE
  2
AmdtMcomMenuState
  3
McadcomServices
 90
     1024
280
     0
281
     0
  0
CLASS
  1
AMIMASTER
  2
AmiMaster
  3
AmiServices
 90
     1024
280
     0
281
     0
  0
CLASS
  1
ASAPP
  2
AcAsAppObject
  3
AutoSurfServices
 90
     1024
280
     0
281
     0
  0
CLASS
  1
IM_STATIC_MAN
  2
AcImStaticVarManager
  3
AcMeServices
 90
     1024
280
     0
281
     0
  0
CLASS
  1
ACIMSTRSYSVAR
  2
AcImStrSysVar
  3
AcMeServices
 90
     1024
280
     0
281
     0
  0
CLASS
  1
ACIMDBLSTATICVAR
  2
AcImDblStaticVar
  3
AcMeServices
 90
     1024
280
     0
281
     0
  0
CLASS
  1
ACIMSTRSTATICVAR
  2
AcImStrStaticVar
  3
AcMeServices
 90
     1024
280
     0
281
     0
  0
CLASS
  1
ACIMINTSTATICVAR
  2
AcImIntStaticVar
  3
AcMeServices
 90
     1024
280
     0
281
     0
  0
CLASS
  1
ACASGREFMASTER
  2
AcAsGrefMaster
  3
AutoSurfResolverServices
 90
     1024
280
     0
281
     0
  0
CLASS
  1
ACADGREFMODULE
  2
AcAdGrefModule
  3
AdGrefServices
 90
     1024
280
     0
281
     0
  0
CLASS
  1
AMDTMAPISURFMOUDULE
  2
AmdtMApiSurfModule
  3
MApiSurfServices
 90
     1024
280
     0
281
     0
  0
CLASS
  1
MAPIAMMOUDLE
  2
MApiAmModule
  3
MApiAmServices
 90
     1024
280
     0
281
     0
  0
CLASS
  1
AMDTADMENUSTATE
  2
AmdtAdMenuState
  3
DesignerServices
 90
     1024
280
     0
281
     0
  0
CLASS
  1
ADAPPL
  2
AcAdAppl
  3
DesignerServices
 90
     1024
280
     0
281
     0
  0
CLASS
  1
DEPMGR
  2
AcAdDepMgr
  3
DesignerServices
 90
     1024
280
     0
281
     0
  0
CLASS
  1
PARAMMGR
  2
AcAdParamMgr
  3
DesignerServices
 90
     1024
280
     0
281
     0
  0
CLASS
  1
PARAMSCOPE
  2
AcAdParamScope
  3
DesignerServices
 90
     1024
280
     0
281
     0
  0
CLASS
  1
NAMEDAPPL
  2
AcAdNamedAppl
  3
DesignerServices
 90
     1024
280
     0
281
     0
  0
CLASS
  1
AMDTDMMENUSTATE
  2
AmdtDmMenuState
  3
AcMechDwgViewMgmt
 90
     1024
280
     0
281
     0
  0
CLASS
  1
MAPIADMODULE
  2
MApiAdModule
  3
MApiAdServices
 90
     1024
280
     0
281
     0
  0
CLASS
  1
AMDTAMMENUSTATE
  2
AmdtAmMenuState
  3
DesignerAssemblies
 90
     1024
280
     0
281
     0
  0
CLASS
  1
ACAMPROJECT
  2
AcAmProject
  3
DesignerAssemblies
 90
     1024
280
     0
281
     0
  0
CLASS
  1
ACAMGRCOMPDEF
  2
AcAmGrCompDef
  3
DesignerAssemblies
 90
     1024
280
     0
281
     0
  0
CLASS
  1
ACCMCONTEXT
  2
AcCmContext
  3
DesignerAssemblies
 90
     1024
280
     0
281
     0
  0
CLASS
  1
ACAMCOMPDEF
  2
AcAmCompDef
  3
DesignerAssemblies
 90
     1024
280
     0
281
     0
  0
CLASS
  1
ACAMCOMPDEFMGR
  2
AcAmCompDefMgr
  3
DesignerAssemblies
 90
     1024
280
     0
281
     0
  0
CLASS
  1
AMCONTEXTMGR
  2
AcAmContextMgr
  3
DesignerAssemblies
 90
     1024
280
     0
281
     0
  0
CLASS
  1
ACAMCONTEXTMODELER
  2
AcAmContextModeler
  3
DesignerAssemblies
 90
     1024
280
     0
281
     0
  0
CLASS
  1
ACMDATADICTIONARY
  2
AcmDataDictionary
  3
"AcmSymBB|Product Description: AutoCAD Mechanical|Company: Autodesk, Inc."
 90
     1024
280
     0
281
     0
  0
CLASS
  1
ACMDATAENTRYBLOCK
  2
AcmDataEntryBlock
  3
AcmSymBB|Product Description: AutoCAD Mechanical|Company: Autodesk, Inc.
 90
     1024
280
     0
281
     0
  0
CLASS
  1
ACRFATTGENMGR
  2
AcRfAttGeneralMgr
  3
AcAttribServices
 90
     1024
280
     0
281
     0
  0
CLASS
  1
ACRFOBJATTMGR
  2
AcRfObjAttGroupMgr
  3
AcAttribServices
 90
     1024
280
     0
281
     0
  0
CLASS
  1
ACRFMCADAPIATTHOLDER
  2
AcRfMCADAPIAttHolder
  3
AcAttribServices
 90
     1024
280
     0
281
     0
  0
CLASS
  1
AMDTSYSATTR
  2
AmdtSystemAttribute
  3
AcAttribServices
 90
     1024
280
     0
281
     0
  0
CLASS
  1
CATALOGSTATE
  2
AcAmCatalogState
  3
DesignerAssemblies
 90
     1024
280
     0
281
     0
  0
CLASS
  1
ACAMGRCOMPDEFSET
  2
AcAmGrCompDefSet
  3
DesignerAssemblies
 90
     1024
280
     0
281
     0
  0
CLASS
  1
AMDTBROWSERDBTAB
  2
AmdtBrowserDbTab
  3
McadcomServices
 90
     1024
280
     0
281
     0
  0
CLASS
  1
CBROWSERAPPOBJECT
  2
CBrowserAppObject
  3
McadcomServices
 90
     1024
280
     0
281
     0
  0
CLASS
  1
DM_PLACEHOLDER
  2
AcDmSelsetPlaceholder
  3
AcMechDwgViewMgmt
 90
     1024
280
     0
281
     0
  0
CLASS
  1
ACMSTANDARDANSI
  2
AcmStandardANSI
  3
"Amdt_StdImp|Product Description: AutoCAD Mechanical|Company: Autodesk, Inc."
 90
     1024
280
     0
281
     0
  0
CLASS
  1
ACMSURFSTANDARDANSI
  2
AcmSurfTextStdANSI
  3
"Amdt_StdImp|Product Description: AutoCAD Mechanical|Company: Autodesk, Inc."
 90
     1024
280
     0
281
     0
  0
CLASS
  1
ACMFCFSTANDARDANSI
  2
AcmFCFStdANSI
  3
"Amdt_StdImp|Product Description: AutoCAD Mechanical|Company: Autodesk, Inc."
 90
     1024
280
     0
281
     0
  0
CLASS
  1
ACMWELDSTANDARDANSI
  2
AcmWeldingStdANSI
  3
"Amdt_StdImp|Product Description: AutoCAD Mechanical|Company: Autodesk, Inc."
 90
     1024
280
     0
281
     0
  0
CLASS
  1
ACMIDSTANDARDANSI
  2
AcmIdStdANSI
  3
"Amdt_StdImp|Product Description: AutoCAD Mechanical|Company: Autodesk, Inc."
 90
     1024
280
     0
281
     0
  0
CLASS
  1
ACMDATUMSTANDARDANSI
  2
AcmDatumStdANSI
  3
"Amdt_StdImp|Product Description: AutoCAD Mechanical|Company: Autodesk, Inc."
 90
     1024
280
     0
281
     0
  0
CLASS
  1
ACMBOMSTANDARDANSI
  2
AcmBOMStdANSI
  3
"Amdt_StdImp|Product Description: AutoCAD Mechanical|Company: Autodesk, Inc."
 90
     1024
280
     0
281
     0
  0
CLASS
  1
ACMDETAILSTANDARDANSI
  2
AmdtDetailSymStdANSI
  3
"Amdt_StdImp|Product Description: AutoCAD Mechanical|Company: Autodesk, Inc."
 90
     1024
280
     0
281
     0
  0
CLASS
  1
ACMSECTIONSTANDARDANSI
  2
AmdtSectionSymStdANSI
  3
"Amdt_StdImp|Product Description: AutoCAD Mechanical|Company: Autodesk, Inc."
 90
     1024
280
     0
281
     0
  0
CLASS
  1
ACMCENTERLINESTANDARDANSI
  2
AmdtCenterLineStdANSI
  3
"Amdt_StdImp|Product Description: AutoCAD Mechanical|Company: Autodesk, Inc."
 90
     1024
280
     0
281
     0
  0
CLASS
  1
ACMTHREADLINESTANDARDANSI
  2
AmdtThreadLineStdANSI
  3
"Amdt_StdImp|Product Description: AutoCAD Mechanical|Company: Autodesk, Inc."
 90
     1024
280
     0
281
     0
  0
CLASS
  1
ACMNOTESTANDARDANSI
  2
AmdtNoteStdANSI
  3
"Amdt_StdImp|Product Description: AutoCAD Mechanical|Company: Autodesk, Inc."
 90
     1024
280
     0
281
     0
  0
CLASS
  1
ACMTAPERSTANDARDANSI
  2
AcmTaperStdANSI
  3
"Amdt_StdImp|Product Description: AutoCAD Mechanical|Company: Autodesk, Inc."
 90
     1024
280
     0
281
     0
  0
CLASS
  1
ACMANOOTATIONVIEWSTANDARDANSI
  2
AmdtAnViewStdANSI
  3
"Amdt_StdImp|Product Description: AutoCAD Mechanical|Company: Autodesk, Inc."
 90
     1024
280
     0
281
     0
  0
CLASS
  1
ACAMGLAYSTD
  2
AcAmgLayStd
  3
"AmgLay|Product Description: AutoCAD Mechanical|Company: Autodesk, Inc."
 90
     1024
280
     0
281
     0
  0
CLASS
  1
ACAMGDIMSTD
  2
AcAmgDimStd
  3
"AmgDim|Product Description: AutoCAD Mechanical|Company: Autodesk, Inc."
 90
     1024
280
     0
281
     0
  0
CLASS
  1
ACAMGHOLECHARTSTDANSI
  2
AcAmgHoleChartStdANSI
  3
AmgDim|Product Description: AutoCAD Mechanical|Company: Autodesk, Inc.
 90
     1024
280
     0
281
     0
  0
CLASS
  1
AMGOBJPROPCFG
  2
AmgObjPropCfg
  3
"AmgLay|Product Description: AutoCAD Mechanical|Company: Autodesk, Inc."
 90
     1025
280
     0
281
     0
  0
CLASS
  1
ACAMGTITLESTD
  2
AcAmgTitleStd
  3
"AmgTitle|Product Description: AutoCAD Mechanical|Company: Autodesk, Inc."
 90
     4095
280
     0
281
     0
  0
CLASS
  1
AMDTNOTETEMPLATEDB
  2
AmdtNoteTemplateDB
  3
AcmSymBB|Product Description: AutoCAD Mechanical|Company: Autodesk, Inc.
 90
     1024
280
     0
281
     0
  0
CLASS
  1
LAYER_INDEX
  2
AcDbLayerIndex
  3
ObjectDBX Classes
 90
        0
280
     0
281
     0
  0
CLASS
  1
IDBUFFER
  2
AcDbIdBuffer
  3
ObjectDBX Classes
 90
        0
280
     0
281
     0
  0
CLASS
  1
DICTIONARYVAR
  2
AcDbDictionaryVar
  3
ObjectDBX Classes
 90
        0
280
     0
281
     0
  0
CLASS
  1
CELLSTYLEMAP
  2
AcDbCellStyleMap
  3
ObjectDBX Classes
 90
     1152
280
     0
281
     0
  0
CLASS
  1
ACDBPLACEHOLDER
  2
AcDbPlaceHolder
  3
ObjectDBX Classes
 90
        0
280
     0
281
     0
  0
CLASS
  1
LAYOUT
  2
AcDbLayout
  3
ObjectDBX Classes
 90
        0
280
     0
281
     0
  0
ENDSEC
  0
SECTION
  2
TABLES
  0
TABLE
  2
VPORT
  5
2CEC
330
0
100
AcDbSymbolTable
 70
     1
  0
VPORT
  5
2D5C
330
2CEC
100
AcDbSymbolTableRecord
100
AcDbViewportTableRecord
  2
*ACTIVE
 70
     0
 10
0.0
 20
0.0
 11
1.0
 21
1.0
 12
0.0
 22
0.0
 13
0.0
 23
0.0
 14
1.0
 24
1.0
 15
0.0
 25
0.0
 16
0.0
 26
0.0
 36
1.0
 17
231.1248920288912
 27
-108.9477442541956
 37
0.0
 40
2328.808470677677
 41
1.712555066079295
 42
50.0
 43
0.0
 44
0.0
 50
0.0
 51
0.0
 71
     0
 72
   100
 73
     1
 74
     0
 75
     0
 76
     0
 77
     0
 78
     0
281
     0
 65
     0
110
0.0
120
0.0
130
0.0
111
1.0
121
0.0
131
0.0
112
0.0
122
1.0
132
0.0
 79
     0
146
0.0
  0
ENDTAB
  0
TABLE
  2
LTYPE
  5
2CE9
330
0
100
AcDbSymbolTable
 70
    20
  0
LTYPE
  5
2D46
330
2CE9
100
AcDbSymbolTableRecord
100
AcDbLinetypeTableRecord
  2
ByBlock
 70
     0
  3

 72
    65
 73
     0
 40
0.0
  0
LTYPE
  5
2D47
330
2CE9
100
AcDbSymbolTableRecord
100
AcDbLinetypeTableRecord
  2
ByLayer
 70
     0
  3

 72
    65
 73
     0
 40
0.0
  0
LTYPE
  5
2D48
330
2CE9
100
AcDbSymbolTableRecord
100
AcDbLinetypeTableRecord
  2
CONTINUOUS
 70
     0
  3
実線
 72
    65
 73
     0
 40
0.0
  0
LTYPE
  5
2D5D
330
2CE9
100
AcDbSymbolTableRecord
100
AcDbLinetypeTableRecord
  2
DASHDOT
 70
     0
  3
____ _ ____ _ ____ _ ____ _ ____ _ ____ _ ____
 72
    65
 73
     4
 40
5.5
 49
4.0
 74
     0
 49
-0.6
 74
     0
 49
0.3
 74
     0
 49
-0.6
 74
     0
  0
LTYPE
  5
2D5E
330
2CE9
100
AcDbSymbolTableRecord
100
AcDbLinetypeTableRecord
  2
HIDDEN
 70
     0
  3
Hidden __ __ __ __ __ __ __ __ __ __ __ __ __ _
 72
    65
 73
     2
 40
0.375
 49
0.25
 74
     0
 49
-0.125
 74
     0
  0
LTYPE
  5
2D5F
330
2CE9
100
AcDbSymbolTableRecord
100
AcDbLinetypeTableRecord
  2
PHANTOM2
 70
     0
  3
Phantom (.5x) ___ _ _ ___ _ _ ___ _ _ ___ _ _
 72
    65
 73
     6
 40
1.25
 49
0.625
 74
     0
 49
-0.125
 74
     0
 49
0.125
 74
     0
 49
-0.125
 74
     0
 49
0.125
 74
     0
 49
-0.125
 74
     0
  0
LTYPE
  5
2D60
330
2CE9
100
AcDbSymbolTableRecord
100
AcDbLinetypeTableRecord
  2
CENTER
 70
     0
  3
Center ____ _ ____ _ ____ _ ____ _ ____ _ ____
 72
    65
 73
     4
 40
2.0
 49
1.25
 74
     0
 49
-0.25
 74
     0
 49
0.25
 74
     0
 49
-0.25
 74
     0
  0
LTYPE
  5
2D61
330
2CE9
100
AcDbSymbolTableRecord
100
AcDbLinetypeTableRecord
  2
ASULTYPE
 70
     0
  3
実線
 72
    65
 73
     2
 40
3.0
 49
2.5
 74
     0
 49
0.5
 74
     0
  0
LTYPE
  5
2D62
330
2CE9
100
AcDbSymbolTableRecord
100
AcDbLinetypeTableRecord
  2
ASVLTYPE
 70
     0
  3
__ __ __ __ __ __ __ __ __ __ __ __ __ __ __ __ __ __ __ __ __
 72
    65
 73
     2
 40
0.75
 49
0.5
 74
     0
 49
-0.25
 74
     0
  0
LTYPE
  5
2D63
330
2CE9
100
AcDbSymbolTableRecord
100
AcDbLinetypeTableRecord
  2
AM_ISO02W050
 70
     0
  3
__ __ __ __ __ __ __ __ __ __ __ __ __ __ __
 72
    65
 73
     2
 40
7.5
 49
6.0
 74
     0
 49
-1.5
 74
     0
  0
LTYPE
  5
2D64
330
2CE9
100
AcDbSymbolTableRecord
100
AcDbLinetypeTableRecord
  2
AM_ISO08W050
 70
     0
  3
____ . ____ . ____ . ____ . ____ . ____ . ____
 72
    65
 73
     4
 40
18.0
 49
12.0
 74
     0
 49
-1.5
 74
     0
 49
3.0
 74
     0
 49
-1.5
 74
     0
  0
LTYPE
  5
2D65
330
2CE9
100
AcDbSymbolTableRecord
100
AcDbLinetypeTableRecord
  2
AM_ISO09W050
 70
     0
  3
_____ . . _____ . . _____ . . ____ .. ____
 72
    65
 73
     6
 40
22.5
 49
12.0
 74
     0
 49
-1.5
 74
     0
 49
3.0
 74
     0
 49
-1.5
 74
     0
 49
3.0
 74
     0
 49
-1.5
 74
     0
  0
LTYPE
  5
2D66
330
2CE9
100
AcDbSymbolTableRecord
100
AcDbLinetypeTableRecord
  2
AMCONSTR
 70
     0
  3
_______________________
 72
    65
 73
     2
 40
9999.0
 49
9999.0
 74
     0
 49
0.0
 74
     0
  0
LTYPE
  5
2D67
330
2CE9
100
AcDbSymbolTableRecord
100
AcDbLinetypeTableRecord
  2
AM_ISO08W050X2
 70
     0
  3
__ . __ . __ . __ . __ . __
 72
    65
 73
     4
 40
9.0
 49
6.0
 74
     0
 49
-0.75
 74
     0
 49
1.5
 74
     0
 49
-0.75
 74
     0
  0
LTYPE
  5
2D68
330
2CE9
100
AcDbSymbolTableRecord
100
AcDbLinetypeTableRecord
  2
AM_ISO02W050X2
 70
     0
  3
 _ _ _ _ _ _ _ _ _ _ _ _
 72
    65
 73
     2
 40
3.75
 49
3.0
 74
     0
 49
-0.75
 74
     0
  0
LTYPE
  5
2D69
330
2CE9
100
AcDbSymbolTableRecord
100
AcDbLinetypeTableRecord
  2
AMZIGZAG
 70
     0
  3
/\/-/\/-/\/-/\/-/\/-/\/
 72
    65
 73
     2
 40
11.0001
 49
0.0001
 74
     0
 49
-11.0
 74
     0
  0
LTYPE
  5
2D6A
330
2CE9
100
AcDbSymbolTableRecord
100
AcDbLinetypeTableRecord
  2
CENTER2
 70
     0
  3
Center (.5x) ___ _ ___ _ ___ _ ___ _ ___ _ ___
 72
    65
 73
     4
 40
1.125
 49
0.75
 74
     0
 49
-0.125
 74
     0
 49
0.125
 74
     0
 49
-0.125
 74
     0
  0
LTYPE
  5
2D6B
330
2CE9
100
AcDbSymbolTableRecord
100
AcDbLinetypeTableRecord
  2
HIDDEN2
 70
     0
  3
Hidden (.5x) _ _ _ _ _ _ _ _ _ _ _ _ _ _ _ _ _
 72
    65
 73
     2
 40
0.1875
 49
0.125
 74
     0
 49
-0.0625
 74
     0
  0
LTYPE
  5
2D6C
330
2CE9
100
AcDbSymbolTableRecord
100
AcDbLinetypeTableRecord
  2
AMZIGZAG2
 70
     0
  3
/\/-/\/-/\/-/\/-/\/-/\/
 72
    65
 73
     2
 40
0.4401
 49
0.0001
 74
     0
 49
-0.4400000000000003
 74
     0
  0
LTYPE
  5
2D6D
330
2CE9
100
AcDbSymbolTableRecord
100
AcDbLinetypeTableRecord
  2
ACANSTGB
 70
     0
  3
__ . . __ . .
 72
    65
 73
     6
 40
0.35433070866
 49
0.15748031496
 74
     0
 49
-0.03937007874
 74
     0
 49
0.03937007874
 74
     0
 49
-0.03937007874
 74
     0
 49
0.03937007874
 74
     0
 49
-0.03937007874
 74
     0
  0
LTYPE
  5
2D6E
330
2CE9
100
AcDbSymbolTableRecord
100
AcDbLinetypeTableRecord
  2
ACANSTGL
 70
     0
  3
_ _ _ _ _
 72
    65
 73
     2
 40
0.11811023622
 49
0.07874015748
 74
     0
 49
-0.03937007874
 74
     0
  0
LTYPE
  5
2D6F
330
2CE9
100
AcDbSymbolTableRecord
100
AcDbLinetypeTableRecord
  2
CENTERX2
 70
     0
  3
________  __  ________  __  ________  __  _____
 72
    65
 73
     4
 40
4.0
 49
2.5
 74
     0
 49
-0.5
 74
     0
 49
0.5
 74
     0
 49
-0.5
 74
     0
  0
ENDTAB
  0
TABLE
  2
LAYER
  5
2CE6
330
0
100
AcDbSymbolTable
 70
    13
  0
LAYER
  5
2D40
102
{ACAD_XDICTIONARY
360
2EAF
102
}
330
2CE6
100
AcDbSymbolTableRecord
100
AcDbLayerTableRecord
  2
0
 70
     0
 62
     7
  6
CONTINUOUS
370
    -3
390
2CF3
  0
LAYER
  5
2D70
102
{ACAD_XDICTIONARY
360
2EB1
102
}
330
2CE6
100
AcDbSymbolTableRecord
100
AcDbLayerTableRecord
  2
OUTLINE
 70
     0
 62
     3
  6
CONTINUOUS
370
    -3
390
2CF3
  0
LAYER
  5
2D71
102
{ACAD_XDICTIONARY
360
2EB3
102
}
330
2CE6
100
AcDbSymbolTableRecord
100
AcDbLayerTableRecord
  2
SIZE
 70
     0
 62
    30
  6
CONTINUOUS
370
    -3
390
2CF3
  0
LAYER
  5
2D72
102
{ACAD_XDICTIONARY
360
2EB5
102
}
330
2CE6
100
AcDbSymbolTableRecord
100
AcDbLayerTableRecord
  2
BASIS
 70
     0
 62
     6
  6
DASHDOT
370
    -3
390
2CF3
  0
LAYER
  5
2D73
102
{ACAD_XDICTIONARY
360
2EB7
102
}
330
2CE6
100
AcDbSymbolTableRecord
100
AcDbLayerTableRecord
  2
DETAIL
 70
     0
 62
     5
  6
CONTINUOUS
370
    -3
390
2CF3
  0
LAYER
  5
2D74
102
{ACAD_XDICTIONARY
360
2EB9
102
}
330
2CE6
100
AcDbSymbolTableRecord
100
AcDbLayerTableRecord
  2
ARRANGE
 70
     0
 62
     1
  6
CONTINUOUS
370
    -3
390
2CF3
  0
LAYER
  5
2D75
330
2CE6
100
AcDbSymbolTableRecord
100
AcDbLayerTableRecord
  2
DEFPOINTS
 70
     0
 62
     7
  6
CONTINUOUS
290
     0
370
    -3
390
2CF3
  0
LAYER
  5
2D76
102
{ACAD_XDICTIONARY
360
2EBB
102
}
330
2CE6
100
AcDbSymbolTableRecord
100
AcDbLayerTableRecord
  2
ETC
 70
     0
 62
    61
  6
CONTINUOUS
370
    -3
390
2CF3
  0
LAYER
  5
2D77
102
{ACAD_XDICTIONARY
360
2EBD
102
}
330
2CE6
100
AcDbSymbolTableRecord
100
AcDbLayerTableRecord
  2
FIX
 70
     0
 62
    11
  6
CONTINUOUS
370
    -3
390
2CF3
  0
LAYER
  5
2D78
102
{ACAD_XDICTIONARY
360
2EBF
102
}
330
2CE6
100
AcDbSymbolTableRecord
100
AcDbLayerTableRecord
  2
NOTE
 70
     0
 62
     4
  6
CONTINUOUS
370
    -3
390
2CF3
  0
LAYER
  5
2D79
102
{ACAD_XDICTIONARY
360
2EC1
102
}
330
2CE6
100
AcDbSymbolTableRecord
100
AcDbLayerTableRecord
  2
SERVICESPACE
 70
     0
 62
     2
  6
DASHDOT
370
    -3
390
2CF3
  0
LAYER
  5
2D7A
102
{ACAD_XDICTIONARY
360
2EC3
102
}
330
2CE6
100
AcDbSymbolTableRecord
100
AcDbLayerTableRecord
  2
SYMBOLLINE
 70
     0
 62
    15
  6
CONTINUOUS
370
    -3
390
2CF3
  0
LAYER
  5
2D7B
102
{ACAD_XDICTIONARY
360
2EC5
102
}
330
2CE6
100
AcDbSymbolTableRecord
100
AcDbLayerTableRecord
  2
BASIC
 70
     0
 62
     6
  6
CENTERX2
370
    -3
390
2CF3
  0
ENDTAB
  0
TABLE
  2
STYLE
  5
2CE7
330
0
100
AcDbSymbolTable
 70
     5
  0
STYLE
  5
2D41
330
2CE7
100
AcDbSymbolTableRecord
100
AcDbTextStyleTableRecord
  2
STANDARD
 70
     0
 40
64.0
 41
0.9
 50
0.0
 71
     0
 42
64.0
  3
SIMPLEX.shx
  4
BIGFONT.shx
  0
STYLE
  5
2D45
330
2CE7
100
AcDbSymbolTableRecord
100
AcDbTextStyleTableRecord
  2
ANNOTATIVE
 70
     0
 40
0.0
 41
1.0
 50
0.0
 71
     0
 42
0.2
  3
txt
  4

1001
ACADANNOTATIVE
1000
AnnotativeData
1002
{
1070
     1
1070
     1
1002
}
  0
STYLE
  5
2D7C
330
2CE7
100
AcDbSymbolTableRecord
100
AcDbTextStyleTableRecord
  2

 70
     1
 40
0.0
 41
1.0
 50
0.0
 71
     0
 42
64.0
  3
genltshp.shx
  4

  0
STYLE
  5
2D7D
330
2CE7
100
AcDbSymbolTableRecord
100
AcDbTextStyleTableRecord
  2
ACANSTS
 70
     0
 40
1.0
 41
1.0
 50
0.0
 71
     0
 42
64.0
  3
romans.shx
  4
extfont.shx
  0
STYLE
  5
2D7E
330
2CE7
100
AcDbSymbolTableRecord
100
AcDbTextStyleTableRecord
  2
ACANSGDT
 70
     0
 40
0.0
 41
1.0
 50
0.0
 71
     0
 42
64.0
  3
amgdt.shx
  4

  0
ENDTAB
  0
TABLE
  2
VIEW
  5
2CEA
330
0
100
AcDbSymbolTable
 70
     1
  0
VIEW
  5
2D7F
330
2CEA
100
AcDbSymbolTableRecord
100
AcDbViewTableRecord
  2
ALL
 70
     0
 40
4282.619807999997
 10
0.0
 20
41.30990399999999
 41
5940.0
 11
0.0
 21
0.0
 31
1.0
 12
0.0
 22
0.0
 32
0.0
 42
50.0
 43
0.0
 44
0.0
 50
0.0
 71
     0
281
     0
 72
     1
110
0.0
120
0.0
130
0.0
111
1.0
121
0.0
131
0.0
112
0.0
122
1.0
132
0.0
 79
     0
146
0.0
  0
ENDTAB
  0
TABLE
  2
UCS
  5
2CEB
330
0
100
AcDbSymbolTable
 70
     0
  0
ENDTAB
  0
TABLE
  2
APPID
  5
2CED
330
0
100
AcDbSymbolTable
 70
    31
  0
APPID
  5
2D42
330
2CED
100
AcDbSymbolTableRecord
100
AcDbRegAppTableRecord
  2
ACAD
 70
     0
  0
APPID
  5
2D49
330
2CED
100
AcDbSymbolTableRecord
100
AcDbRegAppTableRecord
  2
ACADANNOTATIVE
 70
     0
  0
APPID
  5
2D53
330
2CED
100
AcDbSymbolTableRecord
100
AcDbRegAppTableRecord
  2
ACAD_MLEADERVER
 70
     0
  0
APPID
  5
2D80
330
2CED
100
AcDbSymbolTableRecord
100
AcDbRegAppTableRecord
  2
GENIUS_GENDIM_13
 70
     0
  0
APPID
  5
2D81
330
2CED
100
AcDbSymbolTableRecord
100
AcDbRegAppTableRecord
  2
GENIUS_GENDTOL_13
 70
     0
  0
APPID
  5
2D82
330
2CED
100
AcDbSymbolTableRecord
100
AcDbRegAppTableRecord
  2
GENIUS_GE3DTOL_13
 70
     0
  0
APPID
  5
2D83
330
2CED
100
AcDbSymbolTableRecord
100
AcDbRegAppTableRecord
  2
MCAD_NO_VIS
 70
     0
  0
APPID
  5
2D84
330
2CED
100
AcDbSymbolTableRecord
100
AcDbRegAppTableRecord
  2
ACAD_TEMP_GRAPHIC
 70
     0
  0
APPID
  5
2D85
330
2CED
100
AcDbSymbolTableRecord
100
AcDbRegAppTableRecord
  2
AD_DRAW
 70
     0
  0
APPID
  5
2D86
330
2CED
100
AcDbSymbolTableRecord
100
AcDbRegAppTableRecord
  2
ACATTRIBSERVICES
 70
     0
  0
APPID
  5
2D87
330
2CED
100
AcDbSymbolTableRecord
100
AcDbRegAppTableRecord
  2
ASURF_PCURVE_APPNAME
 70
     0
  0
APPID
  5
2D88
330
2CED
100
AcDbSymbolTableRecord
100
AcDbRegAppTableRecord
  2
AMG_3D2D_5_0
 70
     0
  0
APPID
  5
2D89
330
2CED
100
AcDbSymbolTableRecord
100
AcDbRegAppTableRecord
  2
DESIGNERASSEMBLIES
 70
     0
  0
APPID
  5
2D8A
330
2CED
100
AcDbSymbolTableRecord
100
AcDbRegAppTableRecord
  2
ACADM_DIM_EDIT
 70
     0
  0
APPID
  5
2D8B
330
2CED
100
AcDbSymbolTableRecord
100
AcDbRegAppTableRecord
  2
AMDT_DM_ADJ
 70
     0
  0
APPID
  5
2D8C
330
2CED
100
AcDbSymbolTableRecord
100
AcDbRegAppTableRecord
  2
ACAD_DSTYLE_DIMARC_LENGTH_
 70
     0
  0
APPID
  5
2D8D
330
2CED
100
AcDbSymbolTableRecord
100
AcDbRegAppTableRecord
  2
ACAD_DSTYLE_DIMJOGGED_JOGA
 70
     0
  0
APPID
  5
2D8E
330
2CED
100
AcDbSymbolTableRecord
100
AcDbRegAppTableRecord
  2
ACAD_PSEXT
 70
     0
  0
APPID
  5
2D8F
330
2CED
100
AcDbSymbolTableRecord
100
AcDbRegAppTableRecord
  2
ACAD_EXEMPT_FROM_CAD_STANDARDS
 70
     0
  0
APPID
  5
2D90
330
2CED
100
AcDbSymbolTableRecord
100
AcDbRegAppTableRecord
  2
ACAD_DSTYLE_DIMJAG
 70
     0
  0
APPID
  5
2D91
330
2CED
100
AcDbSymbolTableRecord
100
AcDbRegAppTableRecord
  2
ACAD_DSTYLE_DIMTALN
 70
     0
  0
APPID
  5
2D92
330
2CED
100
AcDbSymbolTableRecord
100
AcDbRegAppTableRecord
  2
AMG_3D2D_5_00
 70
     0
  0
APPID
  5
2D93
330
2CED
100
AcDbSymbolTableRecord
100
AcDbRegAppTableRecord
  2
AMG_3D2D_5_01
 70
     0
  0
APPID
  5
2D94
330
2CED
100
AcDbSymbolTableRecord
100
AcDbRegAppTableRecord
  2
ACAD_DSTYLE_DIMJOGGED_JOG0
 70
     0
  0
APPID
  5
2D95
330
2CED
100
AcDbSymbolTableRecord
100
AcDbRegAppTableRecord
  2
AMG_3D2D_5_02
 70
     0
  0
APPID
  5
2D96
330
2CED
100
AcDbSymbolTableRecord
100
AcDbRegAppTableRecord
  2
AMG_3D2D_5_03
 70
     0
  0
APPID
  5
2E56
330
2CED
100
AcDbSymbolTableRecord
100
AcDbRegAppTableRecord
  2
AMG_3D2D_5.0
 70
     0
  0
APPID
  5
2EEF
330
2CED
100
AcDbSymbolTableRecord
100
AcDbRegAppTableRecord
  2
ACAD_DSTYLE_DIMARC_LENGTH_SYMBOL
 70
     0
  0
APPID
  5
2EF0
330
2CED
100
AcDbSymbolTableRecord
100
AcDbRegAppTableRecord
  2
ACAD_DSTYLE_DIM_LINETYPE
 70
     0
  0
APPID
  5
2EF1
330
2CED
100
AcDbSymbolTableRecord
100
AcDbRegAppTableRecord
  2
ACAD_DSTYLE_DIM_EXT1_LINETYPE
 70
     0
  0
APPID
  5
2EF2
330
2CED
100
AcDbSymbolTableRecord
100
AcDbRegAppTableRecord
  2
ACAD_DSTYLE_DIM_EXT2_LINETYPE
 70
     0
  0
ENDTAB
  0
TABLE
  2
DIMSTYLE
  5
2CEE
330
0
100
AcDbSymbolTable
 70
    10
100
AcDbDimStyleTable
 71
     1
340
2D97
  0
DIMSTYLE
105
2D43
330
2CEE
100
AcDbSymbolTableRecord
100
AcDbDimStyleTableRecord
  2
STANDARD
 70
     0
 41
12.0
 42
20.0
 44
20.0
 77
     1
 78
     8
140
64.0
141
0.0
147
10.0
172
     1
275
     1
279
     2
284
     7
285
     7
286
     7
340
2D41
  0
DIMSTYLE
105
2D44
330
2CEE
100
AcDbSymbolTableRecord
100
AcDbDimStyleTableRecord
  2
ANNOTATIVE
 70
     0
275
     1
279
     2
284
     7
285
     7
286
     7
340
2D41
1001
ACADANNOTATIVE
1000
AnnotativeData
1002
{
1070
     1
1070
     1
1002
}
  0
DIMSTYLE
105
2D97
330
2CEE
100
AcDbSymbolTableRecord
100
AcDbDimStyleTableRecord
  2
AM_ANSI
 70
     0
  4
mm
 41
0.12
 42
0.05
 43
0.5
 44
0.1
 47
0.1
 48
0.1
 78
     7
 79
     2
140
0.12
141
0.0
146
0.71
147
0.06
176
   256
177
   256
178
     2
274
     4
284
     7
340
2D41
371
    -1
372
    -1
1001
ACAD_DSTYLE_DIMARC_LENGTH_SYMBOL
1070
   379
1070
     1
1001
ACAD_DSTYLE_DIM_LINETYPE
1070
   380
1005
2D46
1001
ACAD_DSTYLE_DIM_EXT1_LINETYPE
1070
   381
1005
2D46
1001
ACAD_DSTYLE_DIM_EXT2_LINETYPE
1070
   382
1005
2D46
  0
DIMSTYLE
105
2D98
330
2CEE
100
AcDbSymbolTableRecord
100
AcDbDimStyleTableRecord
  2
AM_ANSI$3
 70
     0
  4
mm
 41
0.12
 42
0.05
 43
0.5
 44
0.1
 47
0.1
 48
0.1
 78
     7
 79
     2
140
0.12
141
0.0
146
0.71
147
0.06
176
   256
177
   256
178
     2
274
     4
284
     7
288
     1
289
     0
340
2D41
371
    -1
372
    -1
1001
ACAD_DSTYLE_DIMARC_LENGTH_SYMBOL
1070
   379
1070
     1
1001
ACAD_DSTYLE_DIM_LINETYPE
1070
   380
1005
2D46
1001
ACAD_DSTYLE_DIM_EXT1_LINETYPE
1070
   381
1005
2D46
1001
ACAD_DSTYLE_DIM_EXT2_LINETYPE
1070
   382
1005
2D46
  0
DIMSTYLE
105
2D99
330
2CEE
100
AcDbSymbolTableRecord
100
AcDbDimStyleTableRecord
  2
AM_ANSI$4
 70
     0
  4
mm
 41
0.12
 42
0.05
 43
0.5
 44
0.1
 47
0.1
 48
0.1
 78
     7
 79
     2
140
0.12
141
0.0
146
0.71
147
0.06
176
   256
177
   256
178
     2
274
     4
284
     7
340
2D41
371
    -1
372
    -1
1001
ACAD_DSTYLE_DIMARC_LENGTH_SYMBOL
1070
   379
1070
     1
1001
ACAD_DSTYLE_DIM_LINETYPE
1070
   380
1005
2D46
1001
ACAD_DSTYLE_DIM_EXT1_LINETYPE
1070
   381
1005
2D46
1001
ACAD_DSTYLE_DIM_EXT2_LINETYPE
1070
   382
1005
2D46
  0
DIMSTYLE
105
2D9A
330
2CEE
100
AcDbSymbolTableRecord
100
AcDbDimStyleTableRecord
  2
AM_ANSI$7
 70
     0
  4
mm
 41
0.12
 42
0.05
 43
0.5
 44
0.1
 47
0.1
 48
0.1
 78
     7
 79
     2
140
0.12
141
0.0
146
0.71
147
0.06
176
   256
177
   256
178
     2
274
     4
284
     7
340
2D41
371
    -1
372
    -1
1001
ACAD_DSTYLE_DIMARC_LENGTH_SYMBOL
1070
   379
1070
     1
1001
ACAD_DSTYLE_DIM_LINETYPE
1070
   380
1005
2D46
1001
ACAD_DSTYLE_DIM_EXT1_LINETYPE
1070
   381
1005
2D46
1001
ACAD_DSTYLE_DIM_EXT2_LINETYPE
1070
   382
1005
2D46
  0
DIMSTYLE
105
2D9B
330
2CEE
100
AcDbSymbolTableRecord
100
AcDbDimStyleTableRecord
  2
AM_ANSI$SF
 70
     0
  4
mm
 41
0.12
 42
0.05
 43
0.5
 44
0.1
 47
0.1
 48
0.1
 75
     1
 76
     1
 78
     7
 79
     2
140
0.12
141
0.0
146
0.71
147
0.06
176
   256
177
   256
178
     2
274
     4
284
     7
340
2D41
371
    -1
372
    -1
1001
ACAD_DSTYLE_DIMARC_LENGTH_SYMBOL
1070
   379
1070
     1
1001
ACAD_DSTYLE_DIM_LINETYPE
1070
   380
1005
2D46
1001
ACAD_DSTYLE_DIM_EXT1_LINETYPE
1070
   381
1005
2D46
1001
ACAD_DSTYLE_DIM_EXT2_LINETYPE
1070
   382
1005
2D46
  0
DIMSTYLE
105
2D9C
330
2CEE
100
AcDbSymbolTableRecord
100
AcDbDimStyleTableRecord
  2
AM_ANSI$SH
 70
     0
  4
mm
 41
0.12
 42
0.05
 43
0.5
 44
0.1
 47
0.1
 48
0.1
 75
     1
 76
     1
 78
     7
 79
     2
140
0.12
141
0.0
146
0.71
147
0.06
173
     1
176
   256
177
   256
178
     2
274
     4
284
     7
340
2D41
343
2DB0
371
    -1
372
    -1
1001
ACAD_DSTYLE_DIMARC_LENGTH_SYMBOL
1070
   379
1070
     1
1001
ACAD_DSTYLE_DIM_LINETYPE
1070
   380
1005
2D46
1001
ACAD_DSTYLE_DIM_EXT1_LINETYPE
1070
   381
1005
2D46
1001
ACAD_DSTYLE_DIM_EXT2_LINETYPE
1070
   382
1005
2D46
  0
DIMSTYLE
105
2D9D
330
2CEE
100
AcDbSymbolTableRecord
100
AcDbDimStyleTableRecord
  2
STANDARD1
 70
     0
 40
6.0
 41
2.5
 42
0.625
 43
6.0
 44
1.25
 47
1.0
 48
0.5
 77
     1
 78
     8
140
2.5
141
0.0
146
0.6
147
1.0
173
     1
275
     1
279
     2
284
     7
285
     7
286
     7
340
2D41
  0
DIMSTYLE
105
2D9E
330
2CEE
100
AcDbSymbolTableRecord
100
AcDbDimStyleTableRecord
  2
STANDARD$0
 70
     0
 41
12.0
 42
20.0
 44
20.0
 73
     0
 74
     0
 77
     1
 78
     8
140
64.0
141
0.0
147
10.0
172
     1
275
     1
279
     2
284
     7
285
     7
286
     7
340
2D41
  0
ENDTAB
  0
TABLE
  2
BLOCK_RECORD
  5
2CE5
330
0
100
AcDbSymbolTable
 70
    24
  0
BLOCK_RECORD
  5
2D58
102
{ACAD_XDICTIONARY
360
2EC7
102
}
330
2CE5
100
AcDbSymbolTableRecord
100
AcDbBlockTableRecord
  2
*Model_Space
340
2D5B
  0
BLOCK_RECORD
  5
2D54
330
2CE5
100
AcDbSymbolTableRecord
100
AcDbBlockTableRecord
  2
*Paper_Space
340
2D57
  0
BLOCK_RECORD
  5
2DA6
330
2CE5
100
AcDbSymbolTableRecord
100
AcDbBlockTableRecord
  2
$MODEL_SPACE
340
0
  0
BLOCK_RECORD
  5
2DA8
330
2CE5
100
AcDbSymbolTableRecord
100
AcDbBlockTableRecord
  2
$PAPER_SPACE
340
0
  0
BLOCK_RECORD
  5
2DAA
330
2CE5
100
AcDbSymbolTableRecord
100
AcDbBlockTableRecord
  2
_ORIGIN
340
0
  0
BLOCK_RECORD
  5
2DAC
330
2CE5
100
AcDbSymbolTableRecord
100
AcDbBlockTableRecord
  2
_DOTBLANK
340
0
102
{BLKREFS
331
202C
331
202D
331
2035
331
2036
331
203E
331
203F
331
2047
331
2048
331
2052
331
2053
331
205D
331
205E
331
2A5D
331
2A5E
331
2A62
331
2A63
331
2A67
331
2A68
331
2A6C
331
2A6D
331
2A71
331
2A72
331
2A76
331
2A77
331
2A7B
331
2A7C
331
2A80
331
2A81
331
2A85
331
2A86
102
}
  0
BLOCK_RECORD
  5
2DAE
330
2CE5
100
AcDbSymbolTableRecord
100
AcDbBlockTableRecord
  2
_OPEN30
340
0
102
{BLKREFS
331
2199
331
2708
331
2A91
102
}
  0
BLOCK_RECORD
  5
2DB0
330
2CE5
100
AcDbSymbolTableRecord
100
AcDbBlockTableRecord
  2
GENAXEH
340
0
  0
BLOCK_RECORD
  5
2DB2
330
2CE5
100
AcDbSymbolTableRecord
100
AcDbBlockTableRecord
  2
*U6
340
0
  0
BLOCK_RECORD
  5
2DB4
330
2CE5
100
AcDbSymbolTableRecord
100
AcDbBlockTableRecord
  2
*D7
340
0
  0
BLOCK_RECORD
  5
2DB6
330
2CE5
100
AcDbSymbolTableRecord
100
AcDbBlockTableRecord
  2
*U8
340
0
102
{BLKREFS
331
202E
102
}
  0
BLOCK_RECORD
  5
2DB8
330
2CE5
100
AcDbSymbolTableRecord
100
AcDbBlockTableRecord
  2
*D9
340
0
  0
BLOCK_RECORD
  5
2DBA
330
2CE5
100
AcDbSymbolTableRecord
100
AcDbBlockTableRecord
  2
*U10
340
0
102
{BLKREFS
331
2037
102
}
  0
BLOCK_RECORD
  5
2DBC
330
2CE5
100
AcDbSymbolTableRecord
100
AcDbBlockTableRecord
  2
*D11
340
0
  0
BLOCK_RECORD
  5
2DBE
330
2CE5
100
AcDbSymbolTableRecord
100
AcDbBlockTableRecord
  2
*U12
340
0
102
{BLKREFS
331
2040
102
}
  0
BLOCK_RECORD
  5
2DC0
330
2CE5
100
AcDbSymbolTableRecord
100
AcDbBlockTableRecord
  2
*D13
340
0
  0
BLOCK_RECORD
  5
2DC2
330
2CE5
100
AcDbSymbolTableRecord
100
AcDbBlockTableRecord
  2
*U14
340
0
102
{BLKREFS
331
2049
102
}
  0
BLOCK_RECORD
  5
2DC4
330
2CE5
100
AcDbSymbolTableRecord
100
AcDbBlockTableRecord
  2
*D15
340
0
  0
BLOCK_RECORD
  5
2DC6
330
2CE5
100
AcDbSymbolTableRecord
100
AcDbBlockTableRecord
  2
*U16
340
0
102
{BLKREFS
331
2054
102
}
  0
BLOCK_RECORD
  5
2DC8
330
2CE5
100
AcDbSymbolTableRecord
100
AcDbBlockTableRecord
  2
*D17
340
0
  0
BLOCK_RECORD
  5
2DCA
330
2CE5
100
AcDbSymbolTableRecord
100
AcDbBlockTableRecord
  2
*U18
340
0
102
{BLKREFS
331
205F
102
}
  0
BLOCK_RECORD
  5
2DCC
330
2CE5
100
AcDbSymbolTableRecord
100
AcDbBlockTableRecord
  2
*U19
340
0
  0
BLOCK_RECORD
  5
2DCE
330
2CE5
100
AcDbSymbolTableRecord
100
AcDbBlockTableRecord
  2
*U20
340
0
  0
BLOCK_RECORD
  5
2DD0
330
2CE5
100
AcDbSymbolTableRecord
100
AcDbBlockTableRecord
  2
*U21
340
0
  0
BLOCK_RECORD
  5
2DD2
330
2CE5
100
AcDbSymbolTableRecord
100
AcDbBlockTableRecord
  2
*U22
340
0
  0
ENDTAB
  0
ENDSEC
  0
SECTION
  2
BLOCKS
  0
BLOCK
  5
2D59
330
2D58
100
AcDbEntity
  8
0
100
AcDbBlockBegin
  2
*Model_Space
 70
     0
 10
0.0
 20
0.0
 30
0.0
  3
*Model_Space
  1

  0
ENDBLK
  5
2D5A
330
2D58
100
AcDbEntity
  8
0
100
AcDbBlockEnd
  0
BLOCK
  5
2D55
330
2D54
100
AcDbEntity
 67
     1
  8
0
100
AcDbBlockBegin
  2
*Paper_Space
 70
     0
 10
0.0
 20
0.0
 30
0.0
  3
*Paper_Space
  1

  0
ENDBLK
  5
2D56
330
2D54
100
AcDbEntity
 67
     1
  8
0
100
AcDbBlockEnd
  0
BLOCK
  5
2DA7
330
2DA6
100
AcDbEntity
  8
0
100
AcDbBlockBegin
  2
$MODEL_SPACE
 70
     0
 10
0.0
 20
0.0
 30
0.0
  3
$MODEL_SPACE
  1

  0
ENDBLK
  5
2B4B
330
2DA6
100
AcDbEntity
  8
0
100
AcDbBlockEnd
  0
BLOCK
  5
2DA9
330
2DA8
100
AcDbEntity
  8
0
100
AcDbBlockBegin
  2
$PAPER_SPACE
 70
     0
 10
0.0
 20
0.0
 30
0.0
  3
$PAPER_SPACE
  1

  0
ENDBLK
  5
2B47
330
2DA8
100
AcDbEntity
  8
0
100
AcDbBlockEnd
  0
BLOCK
  5
2DAB
330
2DAA
100
AcDbEntity
  8
0
100
AcDbBlockBegin
  2
_ORIGIN
 70
     0
 10
0.0
 20
0.0
 30
0.0
  3
_ORIGIN
  1

  0
CIRCLE
  5
880
330
2DAA
100
AcDbEntity
  8
0
  6
Continuous
 62
     7
100
AcDbCircle
 10
0.0
 20
0.0
 30
0.0
 40
0.5
  0
LINE
  5
881
330
2DAA
100
AcDbEntity
  8
0
  6
Continuous
 62
     7
100
AcDbLine
 10
0.0
 20
0.0
 30
0.0
 11
-1.0
 21
0.0
 31
0.0
  0
ENDBLK
  5
882
330
2DAA
100
AcDbEntity
  8
0
100
AcDbBlockEnd
  0
BLOCK
  5
2DAD
330
2DAC
100
AcDbEntity
  8
0
 62
     1
100
AcDbBlockBegin
  2
_DOTBLANK
 70
     0
 10
0.0
 20
0.0
 30
0.0
  3
_DOTBLANK
  1

  0
CIRCLE
  5
AB3
330
2DAC
100
AcDbEntity
  8
0
  6
ByBlock
 62
     0
100
AcDbCircle
 10
0.0
 20
0.0
 30
0.0
 40
0.5
  0
LINE
  5
AB4
330
2DAC
100
AcDbEntity
  8
0
  6
ByBlock
 62
     0
100
AcDbLine
 10
-0.5
 20
0.0
 30
0.0
 11
-1.0
 21
0.0
 31
0.0
  0
ENDBLK
  5
AB6
330
2DAC
100
AcDbEntity
  8
0
 62
     1
100
AcDbBlockEnd
  0
BLOCK
  5
2DAF
330
2DAE
100
AcDbEntity
  8
0
 62
     1
100
AcDbBlockBegin
  2
_OPEN30
 70
     0
 10
0.0
 20
0.0
 30
0.0
  3
_OPEN30
  1

  0
LINE
  5
AB8
330
2DAE
100
AcDbEntity
  8
0
  6
ByBlock
 62
     0
100
AcDbLine
 10
-1.0
 20
0.26794919
 30
0.0
 11
0.0
 21
0.0
 31
0.0
  0
LINE
  5
AB9
330
2DAE
100
AcDbEntity
  8
0
  6
ByBlock
 62
     0
100
AcDbLine
 10
0.0
 20
0.0
 30
0.0
 11
-1.0
 21
-0.26794919
 31
0.0
  0
LINE
  5
ABA
330
2DAE
100
AcDbEntity
  8
0
  6
ByBlock
 62
     0
100
AcDbLine
 10
0.0
 20
0.0
 30
0.0
 11
-1.0
 21
0.0
 31
0.0
  0
ENDBLK
  5
ABC
330
2DAE
100
AcDbEntity
  8
0
 62
     1
100
AcDbBlockEnd
  0
BLOCK
  5
2DB1
330
2DB0
100
AcDbEntity
  8
0
100
AcDbBlockBegin
  2
GENAXEH
 70
     0
 10
0.0
 20
0.0
 30
0.0
  3
GENAXEH
  1

  0
LINE
  5
FDB
330
2DB0
100
AcDbEntity
  8
0
100
AcDbLine
 10
-1.0
 20
0.0
 30
0.0
 11
1.0
 21
0.0
 31
0.0
  0
ENDBLK
  5
FDD
330
2DB0
100
AcDbEntity
  8
0
100
AcDbBlockEnd
  0
BLOCK
  5
2DB3
330
2DB2
100
AcDbEntity
  8
0
100
AcDbBlockBegin
  2
*U6
 70
     1
 10
0.0
 20
0.0
 30
0.0
  3
*U6
  1

  0
ENDBLK
  5
1ED4
330
2DB2
100
AcDbEntity
  8
0
100
AcDbBlockEnd
  0
BLOCK
  5
2DB5
330
2DB4
100
AcDbEntity
  8
0
100
AcDbBlockBegin
  2
*D7
 70
     1
 10
0.0
 20
0.0
 30
0.0
  3
*D7
  1

  0
LINE
  5
2029
330
2DB4
100
AcDbEntity
  8
SIZE
 62
     0
100
AcDbLine
 10
-135.5
 20
-449.4732256776551
 30
0.0
 11
-135.5
 21
-638.0173952306003
 31
0.0
  0
LINE
  5
202A
330
2DB4
100
AcDbEntity
  8
SIZE
 62
     0
100
AcDbLine
 10
135.5
 20
-449.4732256776551
 30
0.0
 11
135.5
 21
-638.0173952306003
 31
0.0
  0
LINE
  5
202B
330
2DB4
100
AcDbEntity
  8
SIZE
 62
     0
100
AcDbLine
 10
-123.5
 20
-618.0173952306001
 30
0.0
 11
123.5
 21
-618.0173952306001
 31
0.0
  0
INSERT
  5
202C
330
2DB4
100
AcDbEntity
  8
SIZE
 62
     0
100
AcDbBlockReference
  2
_DOTBLANK
 10
-135.5
 20
-618.0173952306001
 30
0.0
 41
12.0
 42
12.0
 43
12.0
 50
180.0
  0
INSERT
  5
202D
330
2DB4
100
AcDbEntity
  8
SIZE
 62
     0
100
AcDbBlockReference
  2
_DOTBLANK
 10
135.5
 20
-618.0173952306001
 30
0.0
 41
12.0
 42
12.0
 43
12.0
  0
INSERT
  5
202E
330
2DB4
100
AcDbEntity
  8
0
100
AcDbBlockReference
  2
*U8
 10
0.0
 20
0.0
 30
0.0
  0
POINT
  5
202F
330
2DB4
100
AcDbEntity
  8
DEFPOINTS
 62
     0
100
AcDbPoint
 10
-135.5
 20
-429.473225677655
 30
0.0
  0
POINT
  5
2030
330
2DB4
100
AcDbEntity
  8
DEFPOINTS
 62
     0
100
AcDbPoint
 10
135.5
 20
-429.473225677655
 30
0.0
  0
POINT
  5
2031
330
2DB4
100
AcDbEntity
  8
DEFPOINTS
 62
     0
100
AcDbPoint
 10
135.5
 20
-618.0173952306001
 30
0.0
  0
ENDBLK
  5
1FDF
330
2DB4
100
AcDbEntity
  8
0
100
AcDbBlockEnd
  0
BLOCK
  5
2DB7
330
2DB6
100
AcDbEntity
  8
0
100
AcDbBlockBegin
  2
*U8
 70
     1
 10
0.0
 20
0.0
 30
0.0
  3
*U8
  1

  0
TEXT
  5
21A6
330
2DB6
100
AcDbEntity
  8
SIZE
 62
     0
100
AcDbText
 10
-61.7142857142857
 20
-608.0173952306003
 30
0.0
 40
64.0
  1
271
 41
0.9
100
AcDbText
  0
ENDBLK
  5
21A8
330
2DB6
100
AcDbEntity
  8
0
100
AcDbBlockEnd
  0
BLOCK
  5
2DB9
330
2DB8
100
AcDbEntity
  8
0
100
AcDbBlockBegin
  2
*D9
 70
     1
 10
0.0
 20
0.0
 30
0.0
  3
*D9
  1

  0
LINE
  5
2032
330
2DB8
100
AcDbEntity
  8
SIZE
 62
     0
100
AcDbLine
 10
143.7000000000007
 20
-430.0
 30
0.0
 11
304.6432844803784
 21
-430.0
 31
0.0
  0
LINE
  5
2033
330
2DB8
100
AcDbEntity
  8
SIZE
 62
     0
100
AcDbLine
 10
177.5
 20
-0.0000000000000057
 30
0.0
 11
304.6432844803785
 21
-0.0000000000000417
 31
0.0
  0
LINE
  5
2034
330
2DB8
100
AcDbEntity
  8
SIZE
 62
     0
100
AcDbLine
 10
284.6432844803784
 20
-418.0
 30
0.0
 11
284.6432844803785
 21
-12.00000000000003
 31
0.0
  0
INSERT
  5
2035
330
2DB8
100
AcDbEntity
  8
SIZE
 62
     0
100
AcDbBlockReference
  2
_DOTBLANK
 10
284.6432844803784
 20
-430.0
 30
0.0
 41
12.0
 42
12.0
 43
12.0
 50
270.0
  0
INSERT
  5
2036
330
2DB8
100
AcDbEntity
  8
SIZE
 62
     0
100
AcDbBlockReference
  2
_DOTBLANK
 10
284.6432844803785
 20
-0.000000000000036
 30
0.0
 41
12.0
 42
12.0
 43
12.0
 50
90.0
  0
INSERT
  5
2037
330
2DB8
100
AcDbEntity
  8
0
100
AcDbBlockReference
  2
*U10
 10
0.0
 20
0.0
 30
0.0
  0
POINT
  5
2038
330
2DB8
100
AcDbEntity
  8
DEFPOINTS
 62
     0
100
AcDbPoint
 10
123.7000000000007
 20
-430.0
 30
0.0
  0
POINT
  5
2039
330
2DB8
100
AcDbEntity
  8
DEFPOINTS
 62
     0
100
AcDbPoint
 10
157.5
 20
0.0
 30
0.0
  0
POINT
  5
203A
330
2DB8
100
AcDbEntity
  8
DEFPOINTS
 62
     0
100
AcDbPoint
 10
284.6432844803785
 20
-0.000000000000036
 30
0.0
  0
ENDBLK
  5
1FEB
330
2DB8
100
AcDbEntity
  8
0
100
AcDbBlockEnd
  0
BLOCK
  5
2DBB
330
2DBA
100
AcDbEntity
  8
0
100
AcDbBlockBegin
  2
*U10
 70
     1
 10
0.0
 20
0.0
 30
0.0
  3
*U10
  1

  0
TEXT
  5
21AA
330
2DBA
100
AcDbEntity
  8
SIZE
 62
     0
100
AcDbText
 10
274.6432844803785
 20
-289.0571428571429
 30
0.0
 40
64.0
  1
430
 50
90.0
 41
0.9
100
AcDbText
  0
ENDBLK
  5
21AC
330
2DBA
100
AcDbEntity
  8
0
100
AcDbBlockEnd
  0
BLOCK
  5
2DBD
330
2DBC
100
AcDbEntity
  8
0
100
AcDbBlockBegin
  2
*D11
 70
     1
 10
0.0
 20
0.0
 30
0.0
  3
*D11
  1

  0
LINE
  5
203B
330
2DBC
100
AcDbEntity
  8
SIZE
 62
     0
100
AcDbLine
 10
-140.0
 20
32.5
 30
0.0
 11
-140.0
 21
136.4516878685499
 31
0.0
  0
LINE
  5
203C
330
2DBC
100
AcDbEntity
  8
SIZE
 62
     0
100
AcDbLine
 10
140.0
 20
32.5
 30
0.0
 11
140.0
 21
136.4516878685499
 31
0.0
  0
LINE
  5
203D
330
2DBC
100
AcDbEntity
  8
SIZE
 62
     0
100
AcDbLine
 10
-128.0
 20
116.4516878685499
 30
0.0
 11
128.0
 21
116.4516878685499
 31
0.0
  0
INSERT
  5
203E
330
2DBC
100
AcDbEntity
  8
SIZE
 62
     0
100
AcDbBlockReference
  2
_DOTBLANK
 10
-140.0
 20
116.4516878685499
 30
0.0
 41
12.0
 42
12.0
 43
12.0
 50
180.0
  0
INSERT
  5
203F
330
2DBC
100
AcDbEntity
  8
SIZE
 62
     0
100
AcDbBlockReference
  2
_DOTBLANK
 10
140.0
 20
116.4516878685499
 30
0.0
 41
12.0
 42
12.0
 43
12.0
  0
INSERT
  5
2040
330
2DBC
100
AcDbEntity
  8
0
100
AcDbBlockReference
  2
*U12
 10
0.0
 20
0.0
 30
0.0
  0
POINT
  5
2041
330
2DBC
100
AcDbEntity
  8
DEFPOINTS
 62
     0
100
AcDbPoint
 10
-140.0
 20
12.5
 30
0.0
  0
POINT
  5
2042
330
2DBC
100
AcDbEntity
  8
DEFPOINTS
 62
     0
100
AcDbPoint
 10
140.0
 20
12.5
 30
0.0
  0
POINT
  5
2043
330
2DBC
100
AcDbEntity
  8
DEFPOINTS
 62
     0
100
AcDbPoint
 10
140.0
 20
116.4516878685499
 30
0.0
  0
ENDBLK
  5
1FF7
330
2DBC
100
AcDbEntity
  8
0
100
AcDbBlockEnd
  0
BLOCK
  5
2DBF
330
2DBE
100
AcDbEntity
  8
0
100
AcDbBlockBegin
  2
*U12
 70
     1
 10
0.0
 20
0.0
 30
0.0
  3
*U12
  1

  0
TEXT
  5
21AE
330
2DBE
100
AcDbEntity
  8
SIZE
 62
     0
100
AcDbText
 10
-74.05714285714283
 20
126.4516878685499
 30
0.0
 40
64.0
  1
280
 41
0.9
100
AcDbText
  0
ENDBLK
  5
21B0
330
2DBE
100
AcDbEntity
  8
0
100
AcDbBlockEnd
  0
BLOCK
  5
2DC1
330
2DC0
100
AcDbEntity
  8
0
100
AcDbBlockBegin
  2
*D13
 70
     1
 10
0.0
 20
0.0
 30
0.0
  3
*D13
  1

  0
LINE
  5
2044
330
2DC0
100
AcDbEntity
  8
SIZE
 62
     0
100
AcDbLine
 10
-157.5
 20
20.0
 30
0.0
 11
-157.5
 21
245.5794621189598
 31
0.0
  0
LINE
  5
2045
330
2DC0
100
AcDbEntity
  8
SIZE
 62
     0
100
AcDbLine
 10
157.5
 20
20.0
 30
0.0
 11
157.5
 21
245.5794621189598
 31
0.0
  0
LINE
  5
2046
330
2DC0
100
AcDbEntity
  8
SIZE
 62
     0
100
AcDbLine
 10
-145.5
 20
225.5794621189598
 30
0.0
 11
145.5
 21
225.5794621189598
 31
0.0
  0
INSERT
  5
2047
330
2DC0
100
AcDbEntity
  8
SIZE
 62
     0
100
AcDbBlockReference
  2
_DOTBLANK
 10
-157.5
 20
225.5794621189598
 30
0.0
 41
12.0
 42
12.0
 43
12.0
 50
180.0
  0
INSERT
  5
2048
330
2DC0
100
AcDbEntity
  8
SIZE
 62
     0
100
AcDbBlockReference
  2
_DOTBLANK
 10
157.5
 20
225.5794621189598
 30
0.0
 41
12.0
 42
12.0
 43
12.0
  0
INSERT
  5
2049
330
2DC0
100
AcDbEntity
  8
0
100
AcDbBlockReference
  2
*U14
 10
0.0
 20
0.0
 30
0.0
  0
POINT
  5
204A
330
2DC0
100
AcDbEntity
  8
DEFPOINTS
 62
     0
100
AcDbPoint
 10
-157.5
 20
0.0
 30
0.0
  0
POINT
  5
204B
330
2DC0
100
AcDbEntity
  8
DEFPOINTS
 62
     0
100
AcDbPoint
 10
157.5
 20
0.0
 30
0.0
  0
POINT
  5
204C
330
2DC0
100
AcDbEntity
  8
DEFPOINTS
 62
     0
100
AcDbPoint
 10
157.5
 20
225.5794621189598
 30
0.0
  0
ENDBLK
  5
2003
330
2DC0
100
AcDbEntity
  8
0
100
AcDbBlockEnd
  0
BLOCK
  5
2DC3
330
2DC2
100
AcDbEntity
  8
0
100
AcDbBlockBegin
  2
*U14
 70
     1
 10
0.0
 20
0.0
 30
0.0
  3
*U14
  1

  0
TEXT
  5
21B2
330
2DC2
100
AcDbEntity
  8
SIZE
 62
     0
100
AcDbText
 10
-68.57142857142857
 20
235.5794621189598
 30
0.0
 40
64.0
  1
315
 41
0.9
100
AcDbText
  0
ENDBLK
  5
21B4
330
2DC2
100
AcDbEntity
  8
0
100
AcDbBlockEnd
  0
BLOCK
  5
2DC5
330
2DC4
100
AcDbEntity
  8
0
100
AcDbBlockBegin
  2
*D15
 70
     1
 10
0.0
 20
0.0
 30
0.0
  3
*D15
  1

  0
LINE
  5
204D
330
2DC4
100
AcDbEntity
  8
SIZE
 62
     0
100
AcDbLine
 10
-177.5
 20
0.0000000000000057
 30
0.0
 11
-219.7694545525301
 21
0.0000000000000176
 31
0.0
  0
LINE
  5
204E
330
2DC4
100
AcDbEntity
  8
SIZE
 62
     0
100
AcDbLine
 10
-177.5
 20
-7.999999999999993
 30
0.0
 11
-219.7694545525301
 21
-7.999999999999982
 31
0.0
  0
LINE
  5
204F
330
2DC4
100
AcDbEntity
  8
SIZE
 62
     0
100
AcDbLine
 10
-199.76945455253
 20
12.00000000000001
 30
0.0
 11
-199.76945455253
 21
24.00000000000001
 31
0.0
  0
LINE
  5
2050
330
2DC4
100
AcDbEntity
  8
SIZE
 62
     0
100
AcDbLine
 10
-199.76945455253
 20
-19.99999999999999
 30
0.0
 11
-199.7694545525301
 21
-90.4
 31
0.0
  0
LINE
  5
2051
330
2DC4
100
AcDbEntity
  8
SIZE
 62
     0
100
AcDbLine
 10
-199.76945455253
 20
0.000000000000012
 30
0.0
 11
-199.76945455253
 21
-7.999999999999985
 31
0.0
  0
INSERT
  5
2052
330
2DC4
100
AcDbEntity
  8
SIZE
 62
     0
100
AcDbBlockReference
  2
_DOTBLANK
 10
-199.76945455253
 20
0.000000000000012
 30
0.0
 41
12.0
 42
12.0
 43
12.0
 50
270.0
  0
INSERT
  5
2053
330
2DC4
100
AcDbEntity
  8
SIZE
 62
     0
100
AcDbBlockReference
  2
_DOTBLANK
 10
-199.76945455253
 20
-7.999999999999985
 30
0.0
 41
12.0
 42
12.0
 43
12.0
 50
90.0
  0
INSERT
  5
2054
330
2DC4
100
AcDbEntity
  8
0
100
AcDbBlockReference
  2
*U16
 10
0.0
 20
0.0
 30
0.0
  0
POINT
  5
2055
330
2DC4
100
AcDbEntity
  8
DEFPOINTS
 62
     0
100
AcDbPoint
 10
-157.5
 20
0.0
 30
0.0
  0
POINT
  5
2056
330
2DC4
100
AcDbEntity
  8
DEFPOINTS
 62
     0
100
AcDbPoint
 10
-157.5
 20
-8.0
 30
0.0
  0
POINT
  5
2057
330
2DC4
100
AcDbEntity
  8
DEFPOINTS
 62
     0
100
AcDbPoint
 10
-199.76945455253
 20
-7.999999999999985
 30
0.0
  0
ENDBLK
  5
200F
330
2DC4
100
AcDbEntity
  8
0
100
AcDbBlockEnd
  0
BLOCK
  5
2DC7
330
2DC6
100
AcDbEntity
  8
0
100
AcDbBlockBegin
  2
*U16
 70
     1
 10
0.0
 20
0.0
 30
0.0
  3
*U16
  1

  0
TEXT
  5
21B6
330
2DC6
100
AcDbEntity
  8
SIZE
 62
     0
100
AcDbText
 10
-209.7694545525301
 20
-80.4
 30
0.0
 40
64.0
  1
8
 50
90.0
 41
0.9
100
AcDbText
  0
ENDBLK
  5
21B8
330
2DC6
100
AcDbEntity
  8
0
100
AcDbBlockEnd
  0
BLOCK
  5
2DC9
330
2DC8
100
AcDbEntity
  8
0
100
AcDbBlockBegin
  2
*D17
 70
     1
 10
0.0
 20
0.0
 30
0.0
  3
*D17
  1

  0
LINE
  5
2058
330
2DC8
100
AcDbEntity
  8
SIZE
 62
     0
100
AcDbLine
 10
143.7000000000007
 20
-430.0
 30
0.0
 11
304.626441221626
 21
-430.0
 31
0.0
  0
LINE
  5
2059
330
2DC8
100
AcDbEntity
  8
SIZE
 62
     0
100
AcDbLine
 10
143.1000000000022
 20
-441.0000000000001
 30
0.0
 11
304.626441221626
 21
-441.0000000000001
 31
0.0
  0
LINE
  5
205A
330
2DC8
100
AcDbEntity
  8
SIZE
 62
     0
100
AcDbLine
 10
284.626441221626
 20
-418.0
 30
0.0
 11
284.626441221626
 21
-406.0
 31
0.0
  0
LINE
  5
205B
330
2DC8
100
AcDbEntity
  8
SIZE
 62
     0
100
AcDbLine
 10
284.626441221626
 20
-453.0
 30
0.0
 11
284.626441221626
 21
-542.6000000000001
 31
0.0
  0
LINE
  5
205C
330
2DC8
100
AcDbEntity
  8
SIZE
 62
     0
100
AcDbLine
 10
284.626441221626
 20
-430.0
 30
0.0
 11
284.626441221626
 21
-441.0000000000001
 31
0.0
  0
INSERT
  5
205D
330
2DC8
100
AcDbEntity
  8
SIZE
 62
     0
100
AcDbBlockReference
  2
_DOTBLANK
 10
284.626441221626
 20
-430.0
 30
0.0
 41
12.0
 42
12.0
 43
12.0
 50
270.0
  0
INSERT
  5
205E
330
2DC8
100
AcDbEntity
  8
SIZE
 62
     0
100
AcDbBlockReference
  2
_DOTBLANK
 10
284.626441221626
 20
-441.0000000000001
 30
0.0
 41
12.0
 42
12.0
 43
12.0
 50
90.0
  0
INSERT
  5
205F
330
2DC8
100
AcDbEntity
  8
0
100
AcDbBlockReference
  2
*U18
 10
0.0
 20
0.0
 30
0.0
  0
POINT
  5
2060
330
2DC8
100
AcDbEntity
  8
DEFPOINTS
 62
     0
100
AcDbPoint
 10
123.7000000000007
 20
-430.0
 30
0.0
  0
POINT
  5
2061
330
2DC8
100
AcDbEntity
  8
DEFPOINTS
 62
     0
100
AcDbPoint
 10
123.1000000000022
 20
-441.0
 30
0.0
  0
POINT
  5
2062
330
2DC8
100
AcDbEntity
  8
DEFPOINTS
 62
     0
100
AcDbPoint
 10
284.626441221626
 20
-441.0000000000001
 30
0.0
  0
ENDBLK
  5
201D
330
2DC8
100
AcDbEntity
  8
0
100
AcDbBlockEnd
  0
BLOCK
  5
2DCB
330
2DCA
100
AcDbEntity
  8
0
100
AcDbBlockBegin
  2
*U18
 70
     1
 10
0.0
 20
0.0
 30
0.0
  3
*U18
  1

  0
TEXT
  5
21BA
330
2DCA
100
AcDbEntity
  8
SIZE
 62
     0
100
AcDbText
 10
274.6264412216261
 20
-532.6
 30
0.0
 40
64.0
  1
11
 50
90.0
 41
0.9
100
AcDbText
  0
ENDBLK
  5
21BC
330
2DCA
100
AcDbEntity
  8
0
100
AcDbBlockEnd
  0
BLOCK
  5
2DCD
330
2DCC
100
AcDbEntity
  8
0
100
AcDbBlockBegin
  2
*U19
 70
     1
 10
0.0
 20
0.0
 30
0.0
  3
*U19
  1

  0
INSERT
  5
2199
330
2DCC
100
AcDbEntity
  8
NOTE
100
AcDbBlockReference
  2
_OPEN30
 10
-140.0
 20
0.0
 30
0.0
 41
12.0
 42
12.0
 43
12.0
 50
312.6090116116894
  0
POLYLINE
  5
219A
330
2DCC
100
AcDbEntity
  8
NOTE
100
AcDb2dPolyline
 66
     1
 10
0.0
 20
0.0
 30
0.0
  0
VERTEX
  5
219B
330
219A
100
AcDbEntity
  8
NOTE
100
AcDbVertex
100
AcDb2dVertex
 10
-148.1239008361894
 20
8.831887408915472
 30
0.0
  0
VERTEX
  5
219C
330
219A
100
AcDbEntity
  8
NOTE
100
AcDbVertex
100
AcDb2dVertex
 10
-227.8693999922543
 20
95.5270950580134
 30
0.0
  0
VERTEX
  5
219D
330
219A
100
AcDbEntity
  8
NOTE
100
AcDbVertex
100
AcDb2dVertex
 10
-776.4522571351115
 20
95.5270950580134
 30
0.0
  0
SEQEND
  5
219E
330
219A
100
AcDbEntity
  8
NOTE
  0
ENDBLK
  5
21A0
330
2DCC
100
AcDbEntity
  8
0
100
AcDbBlockEnd
  0
BLOCK
  5
2DCF
330
2DCE
100
AcDbEntity
  8
0
100
AcDbBlockBegin
  2
*U20
 70
     1
 10
0.0
 20
0.0
 30
0.0
  3
*U20
  1

  0
TEXT
  5
21A2
330
2DCE
100
AcDbEntity
  8
NOTE
100
AcDbText
 10
-773.7093999922541
 20
113.5270950580134
 30
0.0
 40
64.0
  1
4×φ10取付穴
 41
0.9
100
AcDbText
  0
ENDBLK
  5
21A4
330
2DCE
100
AcDbEntity
  8
0
100
AcDbBlockEnd
  0
BLOCK
  5
2DD1
330
2DD0
100
AcDbEntity
  8
0
100
AcDbBlockBegin
  2
*U21
 70
     1
 10
0.0
 20
0.0
 30
0.0
  3
*U21
  1

  0
POLYLINE
  5
2700
330
2DD0
100
AcDbEntity
  8
NOTE
100
AcDb2dPolyline
 66
     1
 10
0.0
 20
0.0
 30
0.0
  0
VERTEX
  5
2701
330
2700
100
AcDbEntity
  8
NOTE
100
AcDbVertex
100
AcDb2dVertex
 10
874.2336775530022
 20
670.9488948310767
 30
0.0
  0
VERTEX
  5
2702
330
2700
100
AcDbEntity
  8
NOTE
100
AcDbVertex
100
AcDb2dVertex
 10
940.6624450562656
 20
756.9779924269933
 30
0.0
  0
VERTEX
  5
2703
330
2700
100
AcDbEntity
  8
NOTE
100
AcDbVertex
100
AcDb2dVertex
 10
1489.245302199123
 20
756.9779924269933
 30
0.0
  0
SEQEND
  5
2704
330
2700
100
AcDbEntity
  8
NOTE
  0
ENDBLK
  5
2706
330
2DD0
100
AcDbEntity
  8
0
100
AcDbBlockEnd
  0
BLOCK
  5
2DD3
330
2DD2
100
AcDbEntity
  8
0
100
AcDbBlockBegin
  2
*U22
 70
     1
 10
0.0
 20
0.0
 30
0.0
  3
*U22
  1

  0
INSERT
  5
2708
330
2DD2
100
AcDbEntity
  8
NOTE
100
AcDbBlockReference
  2
_OPEN30
 10
140.0
 20
140.0
 30
0.0
 41
12.0
 42
12.0
 43
12.0
 50
232.3258907693335
  0
POLYLINE
  5
2709
330
2DD2
100
AcDbEntity
  8
NOTE
100
AcDb2dPolyline
 66
     1
 10
0.0
 20
0.0
 30
0.0
  0
VERTEX
  5
270A
330
2709
100
AcDbEntity
  8
NOTE
100
AcDbVertex
100
AcDb2dVertex
 10
147.3340332839448
 20
149.4979974620964
 30
0.0
  0
VERTEX
  5
270B
330
2709
100
AcDbEntity
  8
NOTE
100
AcDbVertex
100
AcDb2dVertex
 10
213.7628007872081
 20
235.527095058013
 30
0.0
  0
VERTEX
  5
270C
330
2709
100
AcDbEntity
  8
NOTE
100
AcDbVertex
100
AcDb2dVertex
 10
762.3456579300651
 20
235.527095058013
 30
0.0
  0
SEQEND
  5
270D
330
2709
100
AcDbEntity
  8
NOTE
  0
ENDBLK
  5
270F
330
2DD2
100
AcDbEntity
  8
0
100
AcDbBlockEnd
  0
ENDSEC
  0
SECTION
  2
ENTITIES
  0
TEXT
  5
953
330
2D58
100
AcDbEntity
  8
OUTLINE
  6
Continuous
 62
     3
100
AcDbText
 10
-418.231467
 20
13.715189
 30
0.0
 40
64.0
  1
 
 41
0.9
100
AcDbText
  0
TEXT
  5
954
330
2D58
100
AcDbEntity
  8
OUTLINE
  6
Continuous
 62
     3
100
AcDbText
 10
-418.231467
 20
13.715189
 30
0.0
 40
64.0
  1
 
 41
0.9
100
AcDbText
  0
TEXT
  5
955
330
2D58
100
AcDbEntity
  8
OUTLINE
  6
Continuous
 62
     3
100
AcDbText
 10
1341.41903
 20
-706.0588199999997
 30
0.0
 40
64.0
  1
 
 41
0.9
100
AcDbText
  0
TEXT
  5
956
330
2D58
100
AcDbEntity
  8
OUTLINE
  6
Continuous
 62
     3
100
AcDbText
 10
1341.41903
 20
-706.0588199999997
 30
0.0
 40
64.0
  1
 
 41
0.9
100
AcDbText
  0
TEXT
  5
957
330
2D58
100
AcDbEntity
  8
OUTLINE
  6
Continuous
 62
     3
100
AcDbText
 10
1341.41903
 20
-706.0588199999997
 30
0.0
 40
64.0
  1
 
 41
0.9
100
AcDbText
  0
TEXT
  5
958
330
2D58
100
AcDbEntity
  8
OUTLINE
  6
Continuous
 62
     3
100
AcDbText
 10
1341.41903
 20
-706.0588199999997
 30
0.0
 40
64.0
  1
 
 41
0.9
100
AcDbText
  0
TEXT
  5
29BE
330
2D58
100
AcDbEntity
  8
ETC
100
AcDbText
 10
795.2583454266273
 20
881.7979106927888
 30
0.0
 40
64.0
  1
システム部材
 41
0.9
100
AcDbText
  0
TEXT
  5
29BF
330
2D58
100
AcDbEntity
  8
ETC
100
AcDbText
 10
792.3917797009776
 20
983.6286704483084
 30
0.0
 40
64.0
  1
QWH-70SAM_3
 41
0.9
100
AcDbText
  0
CIRCLE
  5
29C0
330
2D58
100
AcDbEntity
  8
ARRANGE
100
AcDbCircle
 10
-0.0000000000004547
 20
0.0000000000024443
 30
0.0
 40
40.0
  0
LINE
  5
29C1
330
2D58
100
AcDbEntity
  8
ARRANGE
100
AcDbLine
 10
-14.31498655004588
 20
-14.31498655004526
 30
0.0
 11
14.31498655004498
 21
14.31498655005151
 31
0.0
  0
LINE
  5
29C2
330
2D58
100
AcDbEntity
  8
ARRANGE
100
AcDbLine
 10
14.31498655004498
 20
-14.31498655004526
 30
0.0
 11
-14.31498655005316
 21
14.31498655005333
 31
0.0
  0
LINE
  5
29C3
330
2D58
100
AcDbEntity
  8
BASIC
100
AcDbLine
 10
449.9999999999993
 20
0.000000000002899
 30
0.0
 11
-450.0
 21
0.0000000000024443
 31
0.0
  0
LINE
  5
29C4
330
2D58
100
AcDbEntity
  8
BASIC
100
AcDbLine
 10
0.0000000000031832
 20
450.0000000000031
 30
0.0
 11
-0.0000000000077307
 21
-1068.09062578187
 31
0.0
  0
CIRCLE
  5
29C5
330
2D58
100
AcDbEntity
  8
FIX
100
AcDbCircle
 10
399.9999999999996
 20
400.0000000000031
 30
0.0
 40
7.5
  0
CIRCLE
  5
29C6
330
2D58
100
AcDbEntity
  8
FIX
100
AcDbCircle
 10
-399.9999999999929
 20
400.0000000000031
 30
0.0
 40
7.5
  0
CIRCLE
  5
29C7
330
2D58
100
AcDbEntity
  8
FIX
100
AcDbCircle
 10
-400.0000000000039
 20
-399.9999999999992
 30
0.0
 40
7.5
  0
CIRCLE
  5
29C8
330
2D58
100
AcDbEntity
  8
FIX
100
AcDbCircle
 10
399.9999999999996
 20
-399.9999999999992
 30
0.0
 40
7.5
  0
CIRCLE
  5
29C9
330
2D58
100
AcDbEntity
  8
FIX
100
AcDbCircle
 10
-200.0000000000041
 20
400.0000000000031
 30
0.0
 40
7.5
  0
CIRCLE
  5
29CA
330
2D58
100
AcDbEntity
  8
FIX
100
AcDbCircle
 10
199.9999999999959
 20
400.0000000000031
 30
0.0
 40
7.5
  0
LINE
  5
29CB
330
2D58
100
AcDbEntity
  8
DETAIL
100
AcDbLine
 10
-385.0
 20
385.0000000000024
 30
0.0
 11
384.9999999999996
 21
385.0000000000024
 31
0.0
  0
LINE
  5
29CC
330
2D58
100
AcDbEntity
  8
DETAIL
100
AcDbLine
 10
-424.9999999999928
 20
425.0000000000031
 30
0.0
 11
424.9999999999993
 21
425.0000000000031
 31
0.0
  0
CIRCLE
  5
29CD
330
2D58
100
AcDbEntity
  8
FIX
100
AcDbCircle
 10
399.9999999999996
 20
-199.9999999999961
 30
0.0
 40
7.5
  0
CIRCLE
  5
29CE
330
2D58
100
AcDbEntity
  8
FIX
100
AcDbCircle
 10
399.9999999999996
 20
200.0000000000024
 30
0.0
 40
7.5
  0
LINE
  5
29CF
330
2D58
100
AcDbEntity
  8
DETAIL
100
AcDbLine
 10
384.9999999999996
 20
385.0000000000024
 30
0.0
 11
384.9999999999996
 21
-384.9999999999976
 31
0.0
  0
LINE
  5
29D0
330
2D58
100
AcDbEntity
  8
DETAIL
100
AcDbLine
 10
424.9999999999993
 20
-424.9999999999976
 30
0.0
 11
424.9999999999993
 21
425.0000000000031
 31
0.0
  0
CIRCLE
  5
29D1
330
2D58
100
AcDbEntity
  8
FIX
100
AcDbCircle
 10
-400.0000000000039
 20
-199.9999999999961
 30
0.0
 40
7.5
  0
CIRCLE
  5
29D2
330
2D58
100
AcDbEntity
  8
FIX
100
AcDbCircle
 10
-400.0000000000039
 20
200.0000000000024
 30
0.0
 40
7.5
  0
LINE
  5
29D3
330
2D58
100
AcDbEntity
  8
DETAIL
100
AcDbLine
 10
-385.0
 20
-384.9999999999976
 30
0.0
 11
-385.0
 21
385.0000000000024
 31
0.0
  0
LINE
  5
29D4
330
2D58
100
AcDbEntity
  8
DETAIL
100
AcDbLine
 10
-424.9999999999928
 20
425.0000000000031
 30
0.0
 11
-425.0000000000039
 21
-424.9999999999976
 31
0.0
  0
LINE
  5
29D5
330
2D58
100
AcDbEntity
  8
DETAIL
100
AcDbLine
 10
-384.9999999999929
 20
-384.9999999999976
 30
0.0
 11
384.9999999999996
 21
-384.9999999999976
 31
0.0
  0
LINE
  5
29D6
330
2D58
100
AcDbEntity
  8
DETAIL
100
AcDbLine
 10
-425.0000000000039
 20
-424.9999999999976
 30
0.0
 11
424.9999999999993
 21
-424.9999999999976
 31
0.0
  0
LINE
  5
29D7
330
2D58
100
AcDbEntity
  8
DETAIL
100
AcDbLine
 10
-385.9999999999966
 20
-425.4142135623703
 30
0.0
 11
-386.9999999999929
 21
-425.4142135623703
 31
0.0
  0
LINE
  5
29D8
330
2D58
100
AcDbEntity
  8
DETAIL
100
AcDbLine
 10
-386.9999999999929
 20
-425.4142135623703
 30
0.0
 11
-386.9999999999929
 21
-564.9999999999975
 31
0.0
  0
LINE
  5
29D9
330
2D58
100
AcDbEntity
  8
DETAIL
100
AcDbLine
 10
385.9999999999995
 20
-425.4142135623703
 30
0.0
 11
386.9999999999996
 21
-425.4142135623703
 31
0.0
  0
LINE
  5
29DA
330
2D58
100
AcDbEntity
  8
DETAIL
100
AcDbLine
 10
386.9999999999996
 20
-425.4142135623703
 30
0.0
 11
386.9999999999996
 21
-424.9999999999976
 31
0.0
  0
LINE
  5
29DB
330
2D58
100
AcDbEntity
  8
DETAIL
100
AcDbLine
 10
386.9999999999996
 20
-564.9999999999975
 30
0.0
 11
386.9999999999996
 21
-425.4142135623703
 31
0.0
  0
LINE
  5
29DC
330
2D58
100
AcDbEntity
  8
DETAIL
100
AcDbLine
 10
-386.9999999999929
 20
-424.9999999999976
 30
0.0
 11
-386.9999999999929
 21
-425.4142135623703
 31
0.0
  0
LINE
  5
29DD
330
2D58
100
AcDbEntity
  8
DETAIL
100
AcDbLine
 10
-385.9999999999966
 20
-425.4142135623703
 30
0.0
 11
385.9999999999995
 21
-425.4142135623703
 31
0.0
  0
LINE
  5
29DE
330
2D58
100
AcDbEntity
  8
DETAIL
100
AcDbLine
 10
386.9999999999996
 20
-920.2614910524207
 30
0.0
 11
386.9999999999996
 21
-564.9999999999975
 31
0.0
  0
LINE
  5
29DF
330
2D58
100
AcDbEntity
  8
DETAIL
100
AcDbLine
 10
-386.9999999999929
 20
-564.9999999999975
 30
0.0
 11
-386.9999999999929
 21
-920.2614910524207
 31
0.0
  0
LINE
  5
29E0
330
2D58
100
AcDbEntity
  8
DETAIL
100
AcDbLine
 10
-398.5000000000075
 20
-934.1571544461016
 30
0.0
 11
398.4999999999995
 21
-934.1571544461016
 31
0.0
  0
LINE
  5
29E1
330
2D58
100
AcDbEntity
  8
DETAIL
100
AcDbLine
 10
-397.5
 20
-920.2614910524207
 30
0.0
 11
397.4999999999996
 21
-920.2614910524228
 31
0.0
  0
LINE
  5
29E2
330
2D58
100
AcDbEntity
  8
DETAIL
100
AcDbLine
 10
-387.3000000000029
 20
-935.1497018313633
 30
0.0
 11
-387.3000000000029
 21
-934.1571544461016
 31
0.0
  0
LINE
  5
29E3
330
2D58
100
AcDbEntity
  8
DETAIL
100
AcDbLine
 10
-387.3000000000029
 20
-936.85573197458
 30
0.0
 11
-387.3000000000029
 21
-935.1497018313633
 31
0.0
  0
LINE
  5
29E4
330
2D58
100
AcDbEntity
  8
DETAIL
100
AcDbLine
 10
-398.5000000000075
 20
-920.2614910524207
 30
0.0
 11
-397.5000000000075
 21
-920.2614910524207
 31
0.0
  0
LINE
  5
29E5
330
2D58
100
AcDbEntity
  8
DETAIL
100
AcDbLine
 10
-398.5000000000075
 20
-936.9775912705211
 30
0.0
 11
-398.5000000000075
 21
-935.1497018313633
 31
0.0
  0
LINE
  5
29E6
330
2D58
100
AcDbEntity
  8
DETAIL
100
AcDbLine
 10
-398.5000000000075
 20
-935.1497018313633
 30
0.0
 11
-398.5000000000075
 21
-920.2614910524207
 31
0.0
  0
LINE
  5
29E7
330
2D58
100
AcDbEntity
  8
DETAIL
100
AcDbLine
 10
-387.3000000000029
 20
-935.1497018313633
 30
0.0
 11
-398.500000000004
 21
-935.1497018313633
 31
0.0
  0
LINE
  5
29E8
330
2D58
100
AcDbEntity
  8
DETAIL
100
AcDbLine
 10
387.2999999999877
 20
-935.1497018313638
 30
0.0
 11
387.2999999999877
 21
-936.85573197458
 31
0.0
  0
LINE
  5
29E9
330
2D58
100
AcDbEntity
  8
DETAIL
100
AcDbLine
 10
387.2999999999877
 20
-934.1571544461016
 30
0.0
 11
387.2999999999877
 21
-935.1497018313638
 31
0.0
  0
LINE
  5
29EA
330
2D58
100
AcDbEntity
  8
DETAIL
100
AcDbLine
 10
398.4999999999995
 20
-935.1497018313638
 30
0.0
 11
398.4999999999995
 21
-936.9775912705211
 31
0.0
  0
LINE
  5
29EB
330
2D58
100
AcDbEntity
  8
DETAIL
100
AcDbLine
 10
387.2999999999877
 20
-935.1497018313638
 30
0.0
 11
398.4999999999886
 21
-935.1497018313638
 31
0.0
  0
LINE
  5
29EC
330
2D58
100
AcDbEntity
  8
DETAIL
100
AcDbLine
 10
398.4999999999995
 20
-935.1497018313638
 30
0.0
 11
398.4999999999995
 21
-920.2614910524207
 31
0.0
  0
LINE
  5
29ED
330
2D58
100
AcDbEntity
  8
DETAIL
100
AcDbLine
 10
398.4999999999995
 20
-920.2614910524207
 30
0.0
 11
397.4999999999996
 21
-920.2614910524207
 31
0.0
  0
LINE
  5
29EE
330
2D58
100
AcDbEntity
  8
DETAIL
100
AcDbLine
 10
387.2999999999877
 20
-945.6314531105777
 30
0.0
 11
-387.3000000000029
 21
-945.6314531105762
 31
0.0
  0
LINE
  5
29EF
330
2D58
100
AcDbEntity
  8
DETAIL
100
AcDbLine
 10
387.2999999999877
 20
-934.1571544461016
 30
0.0
 11
-387.3000000000029
 21
-934.1571544461016
 31
0.0
  0
LINE
  5
29F0
330
2D58
100
AcDbEntity
  8
DETAIL
100
AcDbLine
 10
-387.3000000000029
 20
-934.1571544461016
 30
0.0
 11
-387.3000000000029
 21
-935.1497018313638
 31
0.0
  0
LINE
  5
29F1
330
2D58
100
AcDbEntity
  8
DETAIL
100
AcDbLine
 10
387.2999999999877
 20
-935.1497018313638
 30
0.0
 11
-387.3000000000029
 21
-935.1497018313638
 31
0.0
  0
LINE
  5
29F2
330
2D58
100
AcDbEntity
  8
DETAIL
100
AcDbLine
 10
387.2999999999877
 20
-934.1571544461016
 30
0.0
 11
387.2999999999877
 21
-935.1497018313638
 31
0.0
  0
LINE
  5
29F3
330
2D58
100
AcDbEntity
  8
DETAIL
100
AcDbLine
 10
-387.3000000000029
 20
-935.1497018313638
 30
0.0
 11
-387.3000000000029
 21
-936.85573197458
 31
0.0
  0
LINE
  5
29F4
330
2D58
100
AcDbEntity
  8
DETAIL
100
AcDbLine
 10
387.2999999999877
 20
-935.1497018313638
 30
0.0
 11
387.2999999999877
 21
-936.85573197458
 31
0.0
  0
LINE
  5
29F5
330
2D58
100
AcDbEntity
  8
DETAIL
100
AcDbLine
 10
-387.3000000000029
 20
-936.85573197458
 30
0.0
 11
-387.3000000000029
 21
-943.8035636714177
 31
0.0
  0
LINE
  5
29F6
330
2D58
100
AcDbEntity
  8
DETAIL
100
AcDbLine
 10
387.2999999999877
 20
-943.8035636714177
 30
0.0
 11
-387.3000000000029
 21
-943.8035636714177
 31
0.0
  0
LINE
  5
29F7
330
2D58
100
AcDbEntity
  8
DETAIL
100
AcDbLine
 10
387.2999999999877
 20
-936.85573197458
 30
0.0
 11
387.2999999999877
 21
-943.8035636714177
 31
0.0
  0
LINE
  5
29F8
330
2D58
100
AcDbEntity
  8
DETAIL
100
AcDbLine
 10
387.2999999999877
 20
-943.8035636714177
 30
0.0
 11
387.2999999999877
 21
-945.6314531105762
 31
0.0
  0
LINE
  5
29F9
330
2D58
100
AcDbEntity
  8
DETAIL
100
AcDbLine
 10
-387.3000000000029
 20
-943.8035636714177
 30
0.0
 11
-387.3000000000029
 21
-945.6314531105762
 31
0.0
  0
LINE
  5
29FA
330
2D58
100
AcDbEntity
  8
DETAIL
100
AcDbLine
 10
-372.3000000000029
 20
-945.6314531105762
 30
0.0
 11
-372.3000000000029
 21
-1046.999974618864
 31
0.0
  0
LINE
  5
29FB
330
2D58
100
AcDbEntity
  8
DETAIL
100
AcDbLine
 10
-398.500000000004
 20
-937.9701386557863
 30
0.0
 11
-398.500000000004
 21
-1042.219937692548
 31
0.0
  0
LINE
  5
29FC
330
2D58
100
AcDbEntity
  8
DETAIL
100
AcDbLine
 10
-398.500000000004
 20
-936.9775912705211
 30
0.0
 11
-398.500000000004
 21
-937.9701386557863
 31
0.0
  0
LINE
  5
29FD
330
2D58
100
AcDbEntity
  8
DETAIL
100
AcDbLine
 10
-398.500000000004
 20
-1042.219937692548
 30
0.0
 11
-387.3000000000029
 21
-1042.219937692548
 31
0.0
  0
LINE
  5
29FE
330
2D58
100
AcDbEntity
  8
DETAIL
100
AcDbLine
 10
-387.3000000000029
 20
-945.6314531105762
 30
0.0
 11
-387.3000000000029
 21
-1046.999974618864
 31
0.0
  0
LINE
  5
29FF
330
2D58
100
AcDbEntity
  8
DETAIL
100
AcDbLine
 10
-387.3000000000029
 20
-1046.999974618864
 30
0.0
 11
-372.3000000000029
 21
-1046.999974618864
 31
0.0
  0
LINE
  5
2A00
330
2D58
100
AcDbEntity
  8
DETAIL
100
AcDbLine
 10
372.2999999999879
 20
-1031.676079210007
 30
0.0
 11
372.2999999999879
 21
-1032.206773024042
 31
0.0
  0
LINE
  5
2A01
330
2D58
100
AcDbEntity
  8
DETAIL
100
AcDbLine
 10
-372.299999999996
 20
-1043.09062578187
 30
0.0
 11
372.2999999999806
 21
-1043.09062578187
 31
0.0
  0
LINE
  5
2A02
330
2D58
100
AcDbEntity
  8
DETAIL
100
AcDbLine
 10
372.2999999999879
 20
-1033.199320409305
 30
0.0
 11
372.2999999999879
 21
-1032.206773024042
 31
0.0
  0
LINE
  5
2A03
330
2D58
100
AcDbEntity
  8
DETAIL
100
AcDbLine
 10
372.2999999999879
 20
-1046.999974618864
 30
0.0
 11
372.2999999999879
 21
-1033.199320409305
 31
0.0
  0
LINE
  5
2A04
330
2D58
100
AcDbEntity
  8
DETAIL
100
AcDbLine
 10
372.2999999999879
 20
-1031.676079210007
 30
0.0
 11
372.2999999999879
 21
-945.6314531105762
 31
0.0
  0
LINE
  5
2A05
330
2D58
100
AcDbEntity
  8
DETAIL
100
AcDbLine
 10
398.4999999999886
 20
-936.9775912705211
 30
0.0
 11
398.4999999999886
 21
-937.9701386557863
 31
0.0
  0
LINE
  5
2A06
330
2D58
100
AcDbEntity
  8
DETAIL
100
AcDbLine
 10
398.4999999999886
 20
-1042.219937692548
 30
0.0
 11
398.4999999999886
 21
-937.9701386557863
 31
0.0
  0
LINE
  5
2A07
330
2D58
100
AcDbEntity
  8
DETAIL
100
AcDbLine
 10
398.4999999999886
 20
-1042.219937692548
 30
0.0
 11
387.2999999999877
 21
-1042.219937692548
 31
0.0
  0
LINE
  5
2A08
330
2D58
100
AcDbEntity
  8
DETAIL
100
AcDbLine
 10
387.2999999999843
 20
-1046.999974618864
 30
0.0
 11
387.2999999999877
 21
-945.6314531105762
 31
0.0
  0
LINE
  5
2A09
330
2D58
100
AcDbEntity
  8
DETAIL
100
AcDbLine
 10
387.2999999999877
 20
-1046.999974618864
 30
0.0
 11
372.2999999999879
 21
-1046.999974618864
 31
0.0
  0
TEXT
  5
2A0A
330
2D58
100
AcDbEntity
  8
ETC
100
AcDbText
 10
792.3917797009776
 20
783.6286704483085
 30
0.0
 40
64.0
  1
QWH-70SAM
 41
0.9
100
AcDbText
  0
LINE
  5
2A0B
330
2D58
100
AcDbEntity
  8
NOTE
100
AcDbLine
 10
412.4999999999993
 20
400.0000000000031
 30
0.0
 11
387.4999999999996
 21
400.0000000000031
 31
0.0
  0
LINE
  5
2A0C
330
2D58
100
AcDbEntity
  8
NOTE
100
AcDbLine
 10
399.9999999999996
 20
412.5000000000031
 30
0.0
 11
399.9999999999996
 21
387.5000000000034
 31
0.0
  0
LINE
  5
2A0D
330
2D58
100
AcDbEntity
  8
NOTE
100
AcDbLine
 10
212.5000000000032
 20
400.0000000000031
 30
0.0
 11
187.5000000000032
 21
400.0000000000031
 31
0.0
  0
LINE
  5
2A0E
330
2D58
100
AcDbEntity
  8
NOTE
100
AcDbLine
 10
200.0000000000032
 20
412.5000000000031
 30
0.0
 11
200.0000000000032
 21
387.5000000000034
 31
0.0
  0
LINE
  5
2A0F
330
2D58
100
AcDbEntity
  8
NOTE
100
AcDbLine
 10
-187.4999999999968
 20
400.0000000000031
 30
0.0
 11
-212.4999999999968
 21
400.0000000000031
 31
0.0
  0
LINE
  5
2A10
330
2D58
100
AcDbEntity
  8
NOTE
100
AcDbLine
 10
-199.9999999999968
 20
412.5000000000031
 30
0.0
 11
-199.9999999999968
 21
387.5000000000034
 31
0.0
  0
LINE
  5
2A11
330
2D58
100
AcDbEntity
  8
NOTE
100
AcDbLine
 10
-387.4999999999859
 20
400.0000000000031
 30
0.0
 11
-412.4999999999857
 21
400.0000000000031
 31
0.0
  0
LINE
  5
2A12
330
2D58
100
AcDbEntity
  8
NOTE
100
AcDbLine
 10
-399.9999999999859
 20
412.5000000000031
 30
0.0
 11
-399.9999999999859
 21
387.5000000000034
 31
0.0
  0
LINE
  5
2A13
330
2D58
100
AcDbEntity
  8
NOTE
100
AcDbLine
 10
-387.4999999999966
 20
200.0000000000024
 30
0.0
 11
-412.4999999999966
 21
200.0000000000024
 31
0.0
  0
LINE
  5
2A14
330
2D58
100
AcDbEntity
  8
NOTE
100
AcDbLine
 10
-399.9999999999966
 20
212.5000000000024
 30
0.0
 11
-399.9999999999966
 21
187.5000000000024
 31
0.0
  0
LINE
  5
2A15
330
2D58
100
AcDbEntity
  8
NOTE
100
AcDbLine
 10
-387.4999999999966
 20
-199.9999999999961
 30
0.0
 11
-412.4999999999966
 21
-199.9999999999961
 31
0.0
  0
LINE
  5
2A16
330
2D58
100
AcDbEntity
  8
NOTE
100
AcDbLine
 10
-399.9999999999966
 20
-187.4999999999961
 30
0.0
 11
-399.9999999999966
 21
-212.4999999999961
 31
0.0
  0
LINE
  5
2A17
330
2D58
100
AcDbEntity
  8
NOTE
100
AcDbLine
 10
-387.4999999999966
 20
-399.9999999999992
 30
0.0
 11
-412.4999999999966
 21
-399.9999999999992
 31
0.0
  0
LINE
  5
2A18
330
2D58
100
AcDbEntity
  8
NOTE
100
AcDbLine
 10
-399.9999999999966
 20
-387.4999999999994
 30
0.0
 11
-399.9999999999966
 21
-412.4999999999991
 31
0.0
  0
LINE
  5
2A19
330
2D58
100
AcDbEntity
  8
NOTE
100
AcDbLine
 10
412.5000000000067
 20
-399.9999999999992
 30
0.0
 11
387.5000000000068
 21
-399.9999999999992
 31
0.0
  0
LINE
  5
2A1A
330
2D58
100
AcDbEntity
  8
NOTE
100
AcDbLine
 10
400.0000000000067
 20
-387.4999999999994
 30
0.0
 11
400.0000000000067
 21
-412.4999999999991
 31
0.0
  0
LINE
  5
2A1B
330
2D58
100
AcDbEntity
  8
NOTE
100
AcDbLine
 10
412.5000000000067
 20
-199.9999999999961
 30
0.0
 11
387.5000000000068
 21
-199.9999999999961
 31
0.0
  0
LINE
  5
2A1C
330
2D58
100
AcDbEntity
  8
NOTE
100
AcDbLine
 10
400.0000000000067
 20
-187.4999999999961
 30
0.0
 11
400.0000000000067
 21
-212.4999999999961
 31
0.0
  0
LINE
  5
2A1D
330
2D58
100
AcDbEntity
  8
NOTE
100
AcDbLine
 10
412.5000000000067
 20
200.0000000000024
 30
0.0
 11
387.5000000000068
 21
200.0000000000024
 31
0.0
  0
LINE
  5
2A1E
330
2D58
100
AcDbEntity
  8
NOTE
100
AcDbLine
 10
400.0000000000067
 20
212.5000000000024
 30
0.0
 11
400.0000000000067
 21
187.5000000000024
 31
0.0
  0
LINE
  5
2A1F
330
2D58
100
AcDbEntity
  8
OUTLINE
100
AcDbLine
 10
-385.0
 20
385.0000000000024
 30
0.0
 11
384.9999999999996
 21
385.0000000000024
 31
0.0
  0
LINE
  5
2A20
330
2D58
100
AcDbEntity
  8
OUTLINE
100
AcDbLine
 10
-424.9999999999928
 20
425.0000000000031
 30
0.0
 11
424.9999999999993
 21
425.0000000000031
 31
0.0
  0
LINE
  5
2A21
330
2D58
100
AcDbEntity
  8
OUTLINE
100
AcDbLine
 10
384.9999999999996
 20
385.0000000000024
 30
0.0
 11
384.9999999999996
 21
-384.9999999999976
 31
0.0
  0
LINE
  5
2A22
330
2D58
100
AcDbEntity
  8
OUTLINE
100
AcDbLine
 10
424.9999999999993
 20
-424.9999999999976
 30
0.0
 11
424.9999999999993
 21
425.0000000000031
 31
0.0
  0
LINE
  5
2A23
330
2D58
100
AcDbEntity
  8
OUTLINE
100
AcDbLine
 10
-385.0
 20
-384.9999999999976
 30
0.0
 11
-385.0
 21
385.0000000000024
 31
0.0
  0
LINE
  5
2A24
330
2D58
100
AcDbEntity
  8
OUTLINE
100
AcDbLine
 10
-424.9999999999928
 20
425.0000000000031
 30
0.0
 11
-425.0000000000039
 21
-424.9999999999976
 31
0.0
  0
LINE
  5
2A25
330
2D58
100
AcDbEntity
  8
OUTLINE
100
AcDbLine
 10
-384.9999999999929
 20
-384.9999999999976
 30
0.0
 11
384.9999999999996
 21
-384.9999999999976
 31
0.0
  0
LINE
  5
2A26
330
2D58
100
AcDbEntity
  8
OUTLINE
100
AcDbLine
 10
-425.0000000000039
 20
-424.9999999999976
 30
0.0
 11
424.9999999999993
 21
-424.9999999999976
 31
0.0
  0
LINE
  5
2A27
330
2D58
100
AcDbEntity
  8
OUTLINE
100
AcDbLine
 10
-386.9999999999929
 20
-425.4142135623703
 30
0.0
 11
-386.9999999999929
 21
-564.9999999999975
 31
0.0
  0
LINE
  5
2A28
330
2D58
100
AcDbEntity
  8
OUTLINE
100
AcDbLine
 10
386.9999999999996
 20
-564.9999999999975
 30
0.0
 11
386.9999999999996
 21
-425.4142135623703
 31
0.0
  0
LINE
  5
2A29
330
2D58
100
AcDbEntity
  8
OUTLINE
100
AcDbLine
 10
-385.9999999999966
 20
-425.4142135623703
 30
0.0
 11
385.9999999999995
 21
-425.4142135623703
 31
0.0
  0
LINE
  5
2A2A
330
2D58
100
AcDbEntity
  8
OUTLINE
100
AcDbLine
 10
386.9999999999996
 20
-920.2614910524207
 30
0.0
 11
386.9999999999996
 21
-564.9999999999975
 31
0.0
  0
LINE
  5
2A2B
330
2D58
100
AcDbEntity
  8
OUTLINE
100
AcDbLine
 10
-386.9999999999929
 20
-564.9999999999975
 30
0.0
 11
-386.9999999999929
 21
-920.2614910524207
 31
0.0
  0
LINE
  5
2A2C
330
2D58
100
AcDbEntity
  8
OUTLINE
100
AcDbLine
 10
-398.5000000000075
 20
-934.1571544461016
 30
0.0
 11
398.4999999999995
 21
-934.1571544461016
 31
0.0
  0
LINE
  5
2A2D
330
2D58
100
AcDbEntity
  8
OUTLINE
100
AcDbLine
 10
-397.5
 20
-920.2614910524207
 30
0.0
 11
397.4999999999996
 21
-920.2614910524228
 31
0.0
  0
LINE
  5
2A2E
330
2D58
100
AcDbEntity
  8
OUTLINE
100
AcDbLine
 10
-387.3000000000029
 20
-935.1497018313633
 30
0.0
 11
-387.3000000000029
 21
-934.1571544461016
 31
0.0
  0
LINE
  5
2A2F
330
2D58
100
AcDbEntity
  8
OUTLINE
100
AcDbLine
 10
-387.3000000000029
 20
-936.85573197458
 30
0.0
 11
-387.3000000000029
 21
-935.1497018313633
 31
0.0
  0
LINE
  5
2A30
330
2D58
100
AcDbEntity
  8
OUTLINE
100
AcDbLine
 10
-398.5000000000075
 20
-920.2614910524207
 30
0.0
 11
-397.5000000000075
 21
-920.2614910524207
 31
0.0
  0
LINE
  5
2A31
330
2D58
100
AcDbEntity
  8
OUTLINE
100
AcDbLine
 10
-398.5000000000075
 20
-936.9775912705211
 30
0.0
 11
-398.5000000000075
 21
-935.1497018313633
 31
0.0
  0
LINE
  5
2A32
330
2D58
100
AcDbEntity
  8
OUTLINE
100
AcDbLine
 10
-398.5000000000075
 20
-935.1497018313633
 30
0.0
 11
-398.5000000000075
 21
-920.2614910524207
 31
0.0
  0
LINE
  5
2A33
330
2D58
100
AcDbEntity
  8
OUTLINE
100
AcDbLine
 10
-387.3000000000029
 20
-935.1497018313633
 30
0.0
 11
-398.500000000004
 21
-935.1497018313633
 31
0.0
  0
LINE
  5
2A34
330
2D58
100
AcDbEntity
  8
OUTLINE
100
AcDbLine
 10
387.2999999999877
 20
-935.1497018313638
 30
0.0
 11
387.2999999999877
 21
-936.85573197458
 31
0.0
  0
LINE
  5
2A35
330
2D58
100
AcDbEntity
  8
OUTLINE
100
AcDbLine
 10
387.2999999999877
 20
-934.1571544461016
 30
0.0
 11
387.2999999999877
 21
-935.1497018313638
 31
0.0
  0
LINE
  5
2A36
330
2D58
100
AcDbEntity
  8
OUTLINE
100
AcDbLine
 10
398.4999999999995
 20
-935.1497018313638
 30
0.0
 11
398.4999999999995
 21
-936.9775912705211
 31
0.0
  0
LINE
  5
2A37
330
2D58
100
AcDbEntity
  8
OUTLINE
100
AcDbLine
 10
387.2999999999877
 20
-935.1497018313638
 30
0.0
 11
398.4999999999886
 21
-935.1497018313638
 31
0.0
  0
LINE
  5
2A38
330
2D58
100
AcDbEntity
  8
OUTLINE
100
AcDbLine
 10
398.4999999999995
 20
-935.1497018313638
 30
0.0
 11
398.4999999999995
 21
-920.2614910524207
 31
0.0
  0
LINE
  5
2A39
330
2D58
100
AcDbEntity
  8
OUTLINE
100
AcDbLine
 10
398.4999999999995
 20
-920.2614910524207
 30
0.0
 11
397.4999999999996
 21
-920.2614910524207
 31
0.0
  0
LINE
  5
2A3A
330
2D58
100
AcDbEntity
  8
OUTLINE
100
AcDbLine
 10
387.2999999999877
 20
-945.6314531105777
 30
0.0
 11
-387.3000000000029
 21
-945.6314531105762
 31
0.0
  0
LINE
  5
2A3B
330
2D58
100
AcDbEntity
  8
OUTLINE
100
AcDbLine
 10
387.2999999999877
 20
-934.1571544461016
 30
0.0
 11
-387.3000000000029
 21
-934.1571544461016
 31
0.0
  0
LINE
  5
2A3C
330
2D58
100
AcDbEntity
  8
OUTLINE
100
AcDbLine
 10
-387.3000000000029
 20
-934.1571544461016
 30
0.0
 11
-387.3000000000029
 21
-935.1497018313638
 31
0.0
  0
LINE
  5
2A3D
330
2D58
100
AcDbEntity
  8
OUTLINE
100
AcDbLine
 10
387.2999999999877
 20
-935.1497018313638
 30
0.0
 11
-387.3000000000029
 21
-935.1497018313638
 31
0.0
  0
LINE
  5
2A3E
330
2D58
100
AcDbEntity
  8
OUTLINE
100
AcDbLine
 10
387.2999999999877
 20
-934.1571544461016
 30
0.0
 11
387.2999999999877
 21
-935.1497018313638
 31
0.0
  0
LINE
  5
2A3F
330
2D58
100
AcDbEntity
  8
OUTLINE
100
AcDbLine
 10
-387.3000000000029
 20
-935.1497018313638
 30
0.0
 11
-387.3000000000029
 21
-936.85573197458
 31
0.0
  0
LINE
  5
2A40
330
2D58
100
AcDbEntity
  8
OUTLINE
100
AcDbLine
 10
387.2999999999877
 20
-935.1497018313638
 30
0.0
 11
387.2999999999877
 21
-936.85573197458
 31
0.0
  0
LINE
  5
2A41
330
2D58
100
AcDbEntity
  8
OUTLINE
100
AcDbLine
 10
-387.3000000000029
 20
-936.85573197458
 30
0.0
 11
-387.3000000000029
 21
-943.8035636714177
 31
0.0
  0
LINE
  5
2A42
330
2D58
100
AcDbEntity
  8
OUTLINE
100
AcDbLine
 10
387.2999999999877
 20
-943.8035636714177
 30
0.0
 11
-387.3000000000029
 21
-943.8035636714177
 31
0.0
  0
LINE
  5
2A43
330
2D58
100
AcDbEntity
  8
OUTLINE
100
AcDbLine
 10
387.2999999999877
 20
-936.85573197458
 30
0.0
 11
387.2999999999877
 21
-943.8035636714177
 31
0.0
  0
LINE
  5
2A44
330
2D58
100
AcDbEntity
  8
OUTLINE
100
AcDbLine
 10
387.2999999999877
 20
-943.8035636714177
 30
0.0
 11
387.2999999999877
 21
-945.6314531105762
 31
0.0
  0
LINE
  5
2A45
330
2D58
100
AcDbEntity
  8
OUTLINE
100
AcDbLine
 10
-387.3000000000029
 20
-943.8035636714177
 30
0.0
 11
-387.3000000000029
 21
-945.6314531105762
 31
0.0
  0
LINE
  5
2A46
330
2D58
100
AcDbEntity
  8
OUTLINE
100
AcDbLine
 10
-372.3000000000029
 20
-945.6314531105762
 30
0.0
 11
-372.3000000000029
 21
-1046.999974618864
 31
0.0
  0
LINE
  5
2A47
330
2D58
100
AcDbEntity
  8
OUTLINE
100
AcDbLine
 10
-398.500000000004
 20
-937.9701386557863
 30
0.0
 11
-398.500000000004
 21
-1042.219937692548
 31
0.0
  0
LINE
  5
2A48
330
2D58
100
AcDbEntity
  8
OUTLINE
100
AcDbLine
 10
-398.500000000004
 20
-936.9775912705211
 30
0.0
 11
-398.500000000004
 21
-937.9701386557863
 31
0.0
  0
LINE
  5
2A49
330
2D58
100
AcDbEntity
  8
OUTLINE
100
AcDbLine
 10
-398.500000000004
 20
-1042.219937692548
 30
0.0
 11
-387.3000000000029
 21
-1042.219937692548
 31
0.0
  0
LINE
  5
2A4A
330
2D58
100
AcDbEntity
  8
OUTLINE
100
AcDbLine
 10
-387.3000000000029
 20
-945.6314531105762
 30
0.0
 11
-387.3000000000029
 21
-1046.999974618864
 31
0.0
  0
LINE
  5
2A4B
330
2D58
100
AcDbEntity
  8
OUTLINE
100
AcDbLine
 10
-387.3000000000029
 20
-1046.999974618864
 30
0.0
 11
-372.3000000000029
 21
-1046.999974618864
 31
0.0
  0
LINE
  5
2A4C
330
2D58
100
AcDbEntity
  8
OUTLINE
100
AcDbLine
 10
372.2999999999879
 20
-1031.676079210007
 30
0.0
 11
372.2999999999879
 21
-1032.206773024042
 31
0.0
  0
LINE
  5
2A4D
330
2D58
100
AcDbEntity
  8
OUTLINE
100
AcDbLine
 10
-372.299999999996
 20
-1043.09062578187
 30
0.0
 11
372.2999999999806
 21
-1043.09062578187
 31
0.0
  0
LINE
  5
2A4E
330
2D58
100
AcDbEntity
  8
OUTLINE
100
AcDbLine
 10
372.2999999999879
 20
-1033.199320409305
 30
0.0
 11
372.2999999999879
 21
-1032.206773024042
 31
0.0
  0
LINE
  5
2A4F
330
2D58
100
AcDbEntity
  8
OUTLINE
100
AcDbLine
 10
372.2999999999879
 20
-1046.999974618864
 30
0.0
 11
372.2999999999879
 21
-1033.199320409305
 31
0.0
  0
LINE
  5
2A50
330
2D58
100
AcDbEntity
  8
OUTLINE
100
AcDbLine
 10
372.2999999999879
 20
-1031.676079210007
 30
0.0
 11
372.2999999999879
 21
-945.6314531105762
 31
0.0
  0
LINE
  5
2A51
330
2D58
100
AcDbEntity
  8
OUTLINE
100
AcDbLine
 10
398.4999999999886
 20
-936.9775912705211
 30
0.0
 11
398.4999999999886
 21
-937.9701386557863
 31
0.0
  0
LINE
  5
2A52
330
2D58
100
AcDbEntity
  8
OUTLINE
100
AcDbLine
 10
398.4999999999886
 20
-1042.219937692548
 30
0.0
 11
398.4999999999886
 21
-937.9701386557863
 31
0.0
  0
LINE
  5
2A53
330
2D58
100
AcDbEntity
  8
OUTLINE
100
AcDbLine
 10
398.4999999999886
 20
-1042.219937692548
 30
0.0
 11
387.2999999999877
 21
-1042.219937692548
 31
0.0
  0
LINE
  5
2A54
330
2D58
100
AcDbEntity
  8
OUTLINE
100
AcDbLine
 10
387.2999999999843
 20
-1046.999974618864
 30
0.0
 11
387.2999999999877
 21
-945.6314531105762
 31
0.0
  0
LINE
  5
2A55
330
2D58
100
AcDbEntity
  8
OUTLINE
100
AcDbLine
 10
387.2999999999877
 20
-1046.999974618864
 30
0.0
 11
372.2999999999879
 21
-1046.999974618864
 31
0.0
  0
LINE
  5
2A56
330
2D58
100
AcDbEntity
  8
OUTLINE
100
AcDbLine
 10
-385.9999999999966
 20
-425.4142135623703
 30
0.0
 11
-386.9999999999929
 21
-425.4142135623703
 31
0.0
  0
LINE
  5
2A57
330
2D58
100
AcDbEntity
  8
OUTLINE
100
AcDbLine
 10
-386.9999999999929
 20
-424.9999999999976
 30
0.0
 11
-386.9999999999929
 21
-425.4142135623703
 31
0.0
  0
LINE
  5
2A58
330
2D58
100
AcDbEntity
  8
OUTLINE
100
AcDbLine
 10
385.9999999999995
 20
-425.4142135623703
 30
0.0
 11
386.9999999999996
 21
-425.4142135623703
 31
0.0
  0
LINE
  5
2A59
330
2D58
100
AcDbEntity
  8
OUTLINE
100
AcDbLine
 10
386.9999999999996
 20
-425.4142135623703
 30
0.0
 11
386.9999999999996
 21
-424.9999999999976
 31
0.0
  0
LINE
  5
2A5A
330
2D58
100
AcDbEntity
  8
SIZE
100
AcDbLine
 10
404.9999999999995
 20
385.0000000000024
 30
0.0
 11
680.1263901581181
 21
385.0000000000024
 31
0.0
  0
LINE
  5
2A5B
330
2D58
100
AcDbEntity
  8
SIZE
100
AcDbLine
 10
404.9999999999995
 20
-384.9999999999976
 30
0.0
 11
680.1263901581176
 21
-384.9999999999977
 31
0.0
  0
LINE
  5
2A5C
330
2D58
100
AcDbEntity
  8
SIZE
100
AcDbLine
 10
660.1263901581184
 20
373.0000000000022
 30
0.0
 11
660.1263901581176
 21
-372.9999999999976
 31
0.0
  0
INSERT
  5
2A5D
330
2D58
100
AcDbEntity
  8
SIZE
100
AcDbBlockReference
  2
_DOTBLANK
 10
660.1263901581184
 20
385.0000000000024
 30
0.0
 41
12.0
 42
12.0
 43
12.0
 50
90.0
  0
INSERT
  5
2A5E
330
2D58
100
AcDbEntity
  8
SIZE
100
AcDbBlockReference
  2
_DOTBLANK
 10
660.1263901581176
 20
-384.9999999999977
 30
0.0
 41
12.0
 42
12.0
 43
12.0
 50
270.0
  0
LINE
  5
2A5F
330
2D58
100
AcDbEntity
  8
SIZE
100
AcDbLine
 10
-398.500000000004
 20
-1062.219937692548
 30
0.0
 11
-398.500000000004
 21
-1265.62014867139
 31
0.0
  0
LINE
  5
2A60
330
2D58
100
AcDbEntity
  8
SIZE
100
AcDbLine
 10
398.4999999999886
 20
-1062.219937692548
 30
0.0
 11
398.4999999999886
 21
-1265.62014867139
 31
0.0
  0
LINE
  5
2A61
330
2D58
100
AcDbEntity
  8
SIZE
100
AcDbLine
 10
-386.500000000004
 20
-1245.62014867139
 30
0.0
 11
386.4999999999886
 21
-1245.62014867139
 31
0.0
  0
INSERT
  5
2A62
330
2D58
100
AcDbEntity
  8
SIZE
100
AcDbBlockReference
  2
_DOTBLANK
 10
-398.500000000004
 20
-1245.62014867139
 30
0.0
 41
12.0
 42
12.0
 43
12.0
 50
180.0
  0
INSERT
  5
2A63
330
2D58
100
AcDbEntity
  8
SIZE
100
AcDbBlockReference
  2
_DOTBLANK
 10
398.4999999999886
 20
-1245.62014867139
 30
0.0
 41
12.0
 42
12.0
 43
12.0
  0
LINE
  5
2A64
330
2D58
100
AcDbEntity
  8
SIZE
100
AcDbLine
 10
-444.9999999999929
 20
425.0000000000031
 30
0.0
 11
-750.0754804816461
 21
425.0000000000031
 31
0.0
  0
LINE
  5
2A65
330
2D58
100
AcDbEntity
  8
SIZE
100
AcDbLine
 10
-445.0000000000038
 20
-424.9999999999976
 30
0.0
 11
-750.0754804816465
 21
-424.9999999999976
 31
0.0
  0
LINE
  5
2A66
330
2D58
100
AcDbEntity
  8
SIZE
100
AcDbLine
 10
-730.0754804816458
 20
413.0000000000031
 30
0.0
 11
-730.0754804816465
 21
-412.9999999999974
 31
0.0
  0
INSERT
  5
2A67
330
2D58
100
AcDbEntity
  8
SIZE
100
AcDbBlockReference
  2
_DOTBLANK
 10
-730.0754804816458
 20
425.0000000000031
 30
0.0
 41
12.0
 42
12.0
 43
12.0
 50
90.0
  0
INSERT
  5
2A68
330
2D58
100
AcDbEntity
  8
SIZE
100
AcDbBlockReference
  2
_DOTBLANK
 10
-730.0754804816465
 20
-424.9999999999976
 30
0.0
 41
12.0
 42
12.0
 43
12.0
 50
270.0
  0
LINE
  5
2A69
330
2D58
100
AcDbEntity
  8
SIZE
100
AcDbLine
 10
-432.4999999999857
 20
400.0000000000031
 30
0.0
 11
-638.2201890231373
 21
400.0000000000031
 31
0.0
  0
LINE
  5
2A6A
330
2D58
100
AcDbEntity
  8
SIZE
100
AcDbLine
 10
-432.4999999999963
 20
-399.9999999999992
 30
0.0
 11
-638.2201890231375
 21
-399.9999999999992
 31
0.0
  0
LINE
  5
2A6B
330
2D58
100
AcDbEntity
  8
SIZE
100
AcDbLine
 10
-618.2201890231373
 20
388.0000000000034
 30
0.0
 11
-618.2201890231373
 21
-387.9999999999994
 31
0.0
  0
INSERT
  5
2A6C
330
2D58
100
AcDbEntity
  8
SIZE
100
AcDbBlockReference
  2
_DOTBLANK
 10
-618.2201890231373
 20
400.0000000000031
 30
0.0
 41
12.0
 42
12.0
 43
12.0
 50
90.0
  0
INSERT
  5
2A6D
330
2D58
100
AcDbEntity
  8
SIZE
100
AcDbBlockReference
  2
_DOTBLANK
 10
-618.2201890231373
 20
-399.9999999999992
 30
0.0
 41
12.0
 42
12.0
 43
12.0
 50
270.0
  0
LINE
  5
2A6E
330
2D58
100
AcDbEntity
  8
SIZE
100
AcDbLine
 10
-432.4999999999963
 20
200.0000000000024
 30
0.0
 11
-536.015489131365
 21
200.0000000000024
 31
0.0
  0
LINE
  5
2A6F
330
2D58
100
AcDbEntity
  8
SIZE
100
AcDbLine
 10
-432.4999999999963
 20
-199.9999999999961
 30
0.0
 11
-536.015489131365
 21
-199.9999999999961
 31
0.0
  0
LINE
  5
2A70
330
2D58
100
AcDbEntity
  8
SIZE
100
AcDbLine
 10
-516.015489131365
 20
188.0000000000024
 30
0.0
 11
-516.015489131365
 21
-187.9999999999961
 31
0.0
  0
INSERT
  5
2A71
330
2D58
100
AcDbEntity
  8
SIZE
100
AcDbBlockReference
  2
_DOTBLANK
 10
-516.015489131365
 20
200.0000000000024
 30
0.0
 41
12.0
 42
12.0
 43
12.0
 50
90.0
  0
INSERT
  5
2A72
330
2D58
100
AcDbEntity
  8
SIZE
100
AcDbBlockReference
  2
_DOTBLANK
 10
-516.015489131365
 20
-199.9999999999961
 30
0.0
 41
12.0
 42
12.0
 43
12.0
 50
270.0
  0
LINE
  5
2A73
330
2D58
100
AcDbEntity
  8
SIZE
100
AcDbLine
 10
-444.9999999999929
 20
425.0000000000031
 30
0.0
 11
-863.1620139029982
 21
425.0000000000031
 31
0.0
  0
LINE
  5
2A74
330
2D58
100
AcDbEntity
  8
SIZE
100
AcDbLine
 10
-407.3000000000026
 20
-1046.999974618864
 30
0.0
 11
-863.1620139029989
 21
-1046.999974618863
 31
0.0
  0
LINE
  5
2A75
330
2D58
100
AcDbEntity
  8
SIZE
100
AcDbLine
 10
-843.1620139029982
 20
413.0000000000031
 30
0.0
 11
-843.1620139029988
 21
-1034.999974618863
 31
0.0
  0
INSERT
  5
2A76
330
2D58
100
AcDbEntity
  8
SIZE
100
AcDbBlockReference
  2
_DOTBLANK
 10
-843.1620139029982
 20
425.0000000000031
 30
0.0
 41
12.0
 42
12.0
 43
12.0
 50
90.0
  0
INSERT
  5
2A77
330
2D58
100
AcDbEntity
  8
SIZE
100
AcDbBlockReference
  2
_DOTBLANK
 10
-843.1620139029988
 20
-1046.999974618863
 30
0.0
 41
12.0
 42
12.0
 43
12.0
 50
270.0
  0
LINE
  5
2A78
330
2D58
100
AcDbEntity
  8
SIZE
100
AcDbLine
 10
-424.9999999999928
 20
445.0000000000033
 30
0.0
 11
-424.9999999999928
 21
741.9932457983468
 31
0.0
  0
LINE
  5
2A79
330
2D58
100
AcDbEntity
  8
SIZE
100
AcDbLine
 10
424.9999999999993
 20
445.0000000000033
 30
0.0
 11
424.9999999999993
 21
741.9932457983468
 31
0.0
  0
LINE
  5
2A7A
330
2D58
100
AcDbEntity
  8
SIZE
100
AcDbLine
 10
-412.9999999999928
 20
721.9932457983473
 30
0.0
 11
412.9999999999993
 21
721.9932457983473
 31
0.0
  0
INSERT
  5
2A7B
330
2D58
100
AcDbEntity
  8
SIZE
100
AcDbBlockReference
  2
_DOTBLANK
 10
-424.9999999999928
 20
721.9932457983473
 30
0.0
 41
12.0
 42
12.0
 43
12.0
 50
180.0
  0
INSERT
  5
2A7C
330
2D58
100
AcDbEntity
  8
SIZE
100
AcDbBlockReference
  2
_DOTBLANK
 10
424.9999999999993
 20
721.9932457983473
 30
0.0
 41
12.0
 42
12.0
 43
12.0
  0
LINE
  5
2A7D
330
2D58
100
AcDbEntity
  8
SIZE
100
AcDbLine
 10
-399.9999999999859
 20
432.5000000000033
 30
0.0
 11
-399.9999999999859
 21
637.3421906272568
 31
0.0
  0
LINE
  5
2A7E
330
2D58
100
AcDbEntity
  8
SIZE
100
AcDbLine
 10
399.9999999999996
 20
432.5000000000033
 30
0.0
 11
399.9999999999996
 21
637.3421906272568
 31
0.0
  0
LINE
  5
2A7F
330
2D58
100
AcDbEntity
  8
SIZE
100
AcDbLine
 10
-387.9999999999857
 20
617.342190627257
 30
0.0
 11
387.9999999999995
 21
617.342190627257
 31
0.0
  0
INSERT
  5
2A80
330
2D58
100
AcDbEntity
  8
SIZE
100
AcDbBlockReference
  2
_DOTBLANK
 10
-399.9999999999859
 20
617.342190627257
 30
0.0
 41
12.0
 42
12.0
 43
12.0
 50
180.0
  0
INSERT
  5
2A81
330
2D58
100
AcDbEntity
  8
SIZE
100
AcDbBlockReference
  2
_DOTBLANK
 10
399.9999999999996
 20
617.342190627257
 30
0.0
 41
12.0
 42
12.0
 43
12.0
  0
LINE
  5
2A82
330
2D58
100
AcDbEntity
  8
SIZE
100
AcDbLine
 10
-199.9999999999968
 20
432.5000000000033
 30
0.0
 11
-199.9999999999968
 21
530.9900601720658
 31
0.0
  0
LINE
  5
2A83
330
2D58
100
AcDbEntity
  8
SIZE
100
AcDbLine
 10
200.0000000000032
 20
432.5000000000033
 30
0.0
 11
200.0000000000032
 21
530.9900601720658
 31
0.0
  0
LINE
  5
2A84
330
2D58
100
AcDbEntity
  8
SIZE
100
AcDbLine
 10
-187.9999999999968
 20
510.9900601720662
 30
0.0
 11
188.0000000000027
 21
510.9900601720662
 31
0.0
  0
INSERT
  5
2A85
330
2D58
100
AcDbEntity
  8
SIZE
100
AcDbBlockReference
  2
_DOTBLANK
 10
-199.9999999999968
 20
510.9900601720662
 30
0.0
 41
12.0
 42
12.0
 43
12.0
 50
180.0
  0
INSERT
  5
2A86
330
2D58
100
AcDbEntity
  8
SIZE
100
AcDbBlockReference
  2
_DOTBLANK
 10
200.0000000000032
 20
510.9900601720662
 30
0.0
 41
12.0
 42
12.0
 43
12.0
  0
TEXT
  5
2A87
330
2D58
100
AcDbEntity
  8
SIZE
100
AcDbText
 10
-74.0571428571502
 20
-1235.62014867139
 30
0.0
 40
64.0
  1
797
 41
0.9
100
AcDbText
  0
TEXT
  5
2A88
330
2D58
100
AcDbEntity
  8
SIZE
100
AcDbText
 10
-853.1620139029989
 20
-407.0913373094284
 30
0.0
 40
64.0
  1
1472
 50
90.0
 41
0.9
100
AcDbText
  0
TEXT
  5
2A89
330
2D58
100
AcDbEntity
  8
SIZE
100
AcDbText
 10
-740.0754804816465
 20
-74.05714285713958
 30
0.0
 40
64.0
  1
850
 50
90.0
 41
0.9
100
AcDbText
  0
TEXT
  5
2A8A
330
2D58
100
AcDbEntity
  8
SIZE
100
AcDbText
 10
-628.220189023137
 20
-74.05714285713958
 30
0.0
 40
64.0
  1
800
 50
90.0
 41
0.9
100
AcDbText
  0
TEXT
  5
2A8B
330
2D58
100
AcDbEntity
  8
SIZE
100
AcDbText
 10
-526.015489131365
 20
-74.05714285714051
 30
0.0
 40
64.0
  1
400
 50
90.0
 41
0.9
100
AcDbText
  0
TEXT
  5
2A8C
330
2D58
100
AcDbEntity
  8
SIZE
100
AcDbText
 10
-74.05714285714704
 20
520.9900601720659
 30
0.0
 40
64.0
  1
400
 41
0.9
100
AcDbText
  0
TEXT
  5
2A8D
330
2D58
100
AcDbEntity
  8
SIZE
100
AcDbText
 10
-74.05714285714704
 20
627.3421906272568
 30
0.0
 40
64.0
  1
800
 41
0.9
100
AcDbText
  0
TEXT
  5
2A8E
330
2D58
100
AcDbEntity
  8
SIZE
100
AcDbText
 10
-74.05714285714704
 20
731.9932457983473
 30
0.0
 40
64.0
  1
850
 41
0.9
100
AcDbText
  0
TEXT
  5
2A8F
330
2D58
100
AcDbEntity
  8
SIZE
100
AcDbText
 10
650.1263901581181
 20
-110.5371428571403
 30
0.0
 40
64.0
  1
□770
 50
90.0
 41
0.9
100
AcDbText
  0
TEXT
  5
2A90
330
2D58
100
AcDbEntity
  8
NOTE
100
AcDbText
 10
535.7628007872001
 20
513.5270950580141
 30
0.0
 40
64.0
  1
10×φ15取付穴
 41
0.9
100
AcDbText
  0
INSERT
  5
2A91
330
2D58
100
AcDbEntity
  8
NOTE
100
AcDbBlockReference
  2
_OPEN30
 10
399.9999999999923
 20
400.0000000000015
 30
0.0
 41
12.00000000000003
 42
12.0
 43
12.0
 50
232.3258907693337
1001
ACAD
1000
DSTYLE
1002
{
1070
    41
1040
12.0
1070
    42
1040
20.0
1070
    43
1040
200.0
1070
    44
1040
20.0
1070
    73
1070
     0
1070
    74
1070
     0
1070
    77
1070
     1
1070
    78
1070
     8
1070
   140
1040
64.0
1070
   147
1040
50.0
1070
   172
1070
     1
1070
   174
1070
     1
1070
   275
1070
     0
1070
   284
1070
     0
1070
   285
1070
     0
1070
   286
1070
     0
1070
   341
1005
0
1070
   342
1005
0
1002
}
  0
POLYLINE
  5
2A92
330
2D58
100
AcDbEntity
  8
NOTE
100
AcDb2dPolyline
 66
     1
 10
0.0
 20
0.0
 30
0.0
1001
ACAD
1000
DSTYLE
1002
{
1070
    41
1040
12.0
1070
    42
1040
20.0
1070
    43
1040
200.0
1070
    44
1040
20.0
1070
    73
1070
     0
1070
    74
1070
     0
1070
    77
1070
     1
1070
    78
1070
     8
1070
   140
1040
64.0
1070
   147
1040
50.0
1070
   172
1070
     1
1070
   174
1070
     1
1070
   275
1070
     0
1070
   284
1070
     0
1070
   285
1070
     0
1070
   286
1070
     0
1070
   341
1005
0
1070
   342
1005
0
1002
}
  0
VERTEX
  5
2A93
330
2A92
100
AcDbEntity
  8
NOTE
100
AcDbVertex
100
AcDb2dVertex
 10
407.334033283937
 20
409.4979974620978
 30
0.0
  0
VERTEX
  5
2A94
330
2A92
100
AcDbEntity
  8
NOTE
100
AcDbVertex
100
AcDb2dVertex
 10
473.7628007871999
 20
495.5270950580136
 30
0.0
  0
VERTEX
  5
2A95
330
2A92
100
AcDbEntity
  8
NOTE
100
AcDbVertex
100
AcDb2dVertex
 10
1063.488515072914
 20
495.5270950580136
 30
0.0
  0
SEQEND
  5
2A96
330
2A92
100
AcDbEntity
  8
NOTE
  0
ENDSEC
  0
SECTION
  2
OBJECTS
  0
DICTIONARY
  5
2CF0
330
0
100
AcDbDictionary
281
     1
  3
ACAD_2007HEADERVARS_RT
350
2EE2
  3
ACAD_COLOR
350
2D4E
  3
ACAD_GROUP
350
2CF1
  3
ACAD_LAYOUT
350
2D4D
  3
ACAD_MATERIAL
350
2CF4
  3
ACAD_MLEADERSTYLE
350
2D51
  3
ACAD_MLINESTYLE
350
2D4A
  3
ACAD_PLOTSETTINGS
350
2D4C
  3
ACAD_PLOTSTYLENAME
350
2CF2
  3
ACAD_SCALELIST
350
2D1E
  3
ACAD_TABLESTYLE
350
2D4F
  3
ACAD_VISUALSTYLE
350
2D0D
  3
ACDB_RECOMPOSE_DATA
350
2EE0
  3
AcDbVariableDictionary
350
2ED7
  3
AcmDictionary
350
2E87
  3
AMG
350
2DD4
  3
DWGPROPS
350
2EE1
  3
MAPISURF_MODULE
350
2E54
  0
DICTIONARY
  5
2EAF
330
2D40
100
AcDbDictionary
280
     1
281
     1
  3
ADSK_XREC_LAYER_RECONCILED
360
2EB0
  0
DICTIONARY
  5
2EB1
330
2D70
100
AcDbDictionary
280
     1
281
     1
  3
ADSK_XREC_LAYER_RECONCILED
360
2EB2
  0
DICTIONARY
  5
2EB3
330
2D71
100
AcDbDictionary
280
     1
281
     1
  3
ADSK_XREC_LAYER_RECONCILED
360
2EB4
  0
DICTIONARY
  5
2EB5
330
2D72
100
AcDbDictionary
280
     1
281
     1
  3
ADSK_XREC_LAYER_RECONCILED
360
2EB6
  0
DICTIONARY
  5
2EB7
330
2D73
100
AcDbDictionary
280
     1
281
     1
  3
ADSK_XREC_LAYER_RECONCILED
360
2EB8
  0
DICTIONARY
  5
2EB9
330
2D74
100
AcDbDictionary
280
     1
281
     1
  3
ADSK_XREC_LAYER_RECONCILED
360
2EBA
  0
DICTIONARY
  5
2EBB
330
2D76
100
AcDbDictionary
280
     1
281
     1
  3
ADSK_XREC_LAYER_RECONCILED
360
2EBC
  0
DICTIONARY
  5
2EBD
330
2D77
100
AcDbDictionary
280
     1
281
     1
  3
ADSK_XREC_LAYER_RECONCILED
360
2EBE
  0
DICTIONARY
  5
2EBF
330
2D78
100
AcDbDictionary
280
     1
281
     1
  3
ADSK_XREC_LAYER_RECONCILED
360
2EC0
  0
DICTIONARY
  5
2EC1
330
2D79
100
AcDbDictionary
280
     1
281
     1
  3
ADSK_XREC_LAYER_RECONCILED
360
2EC2
  0
DICTIONARY
  5
2EC3
330
2D7A
100
AcDbDictionary
280
     1
281
     1
  3
ADSK_XREC_LAYER_RECONCILED
360
2EC4
  0
DICTIONARY
  5
2EC5
330
2D7B
100
AcDbDictionary
280
     1
281
     1
  3
ADSK_XREC_LAYER_RECONCILED
360
2EC6
  0
DICTIONARY
  5
2EC7
330
2D58
100
AcDbDictionary
280
     1
281
     1
  3
ACAD_INDEX
360
2EC8
  0
DICTIONARY
  5
2EE2
102
{ACAD_REACTORS
330
2CF0
102
}
330
2CF0
100
AcDbDictionary
281
     1
  3
DIMARCSYM
350
2EE3
  3
DIMLTEX1
350
2EE5
  3
DIMLTEX2
350
2EE6
  3
DIMLTYPE
350
2EE4
  0
DICTIONARY
  5
2D4E
102
{ACAD_REACTORS
330
2CF0
102
}
330
2CF0
100
AcDbDictionary
281
     1
  0
DICTIONARY
  5
2CF1
102
{ACAD_REACTORS
330
2CF0
102
}
330
2CF0
100
AcDbDictionary
281
     1
  0
DICTIONARY
  5
2D4D
102
{ACAD_REACTORS
330
2CF0
102
}
330
2CF0
100
AcDbDictionary
281
     1
  3
Model
350
2D5B
  3
レイアウト1
350
2D57
  0
DICTIONARY
  5
2CF4
102
{ACAD_REACTORS
330
2CF0
102
}
330
2CF0
100
AcDbDictionary
281
     1
  3
ByBlock
350
2CFD
  3
ByLayer
350
2CF5
  3
Global
350
2D05
  0
DICTIONARY
  5
2D51
102
{ACAD_REACTORS
330
2CF0
102
}
330
2CF0
100
AcDbDictionary
281
     1
  3
Standard
350
2D52
  0
DICTIONARY
  5
2D4A
102
{ACAD_REACTORS
330
2CF0
102
}
330
2CF0
100
AcDbDictionary
281
     1
  3
Standard
350
2D4B
  0
DICTIONARY
  5
2D4C
102
{ACAD_REACTORS
330
2CF0
102
}
330
2CF0
100
AcDbDictionary
281
     1
  0
ACDBDICTIONARYWDFLT
  5
2CF2
102
{ACAD_REACTORS
330
2CF0
102
}
330
2CF0
100
AcDbDictionary
281
     1
  3
Normal
350
2CF3
100
AcDbDictionaryWithDefault
340
2CF3
  0
DICTIONARY
  5
2D1E
102
{ACAD_REACTORS
330
2CF0
102
}
330
2CF0
100
AcDbDictionary
281
     1
  3
A0
350
2D1F
  3
A1
350
2D20
  3
A2
350
2D21
  3
A3
350
2D22
  3
A4
350
2D23
  3
A5
350
2D24
  3
A6
350
2D25
  3
A7
350
2D26
  3
A8
350
2D27
  3
A9
350
2D28
  3
B0
350
2D29
  3
B1
350
2D2A
  3
B2
350
2D2B
  3
B3
350
2D2C
  3
B4
350
2D2D
  3
B5
350
2D2E
  3
B6
350
2D2F
  3
B7
350
2D30
  3
B8
350
2D31
  3
B9
350
2D32
  3
C0
350
2D33
  3
C1
350
2D34
  3
C2
350
2D35
  3
C3
350
2D36
  3
C4
350
2D37
  3
C5
350
2D38
  3
C6
350
2D39
  3
C7
350
2D3A
  3
C8
350
2D3B
  3
C9
350
2D3C
  3
D0
350
2D3D
  3
D1
350
2D3E
  3
D2
350
2D3F
  0
DICTIONARY
  5
2D4F
102
{ACAD_REACTORS
330
2CF0
102
}
330
2CF0
100
AcDbDictionary
281
     1
  3
Standard
350
2D50
  0
DICTIONARY
  5
2D0D
102
{ACAD_REACTORS
330
2CF0
102
}
330
2CF0
100
AcDbDictionary
281
     1
  3
2dWireframe
350
2D13
  3
3D Hidden
350
2D15
  3
3dWireframe
350
2D14
  3
Basic
350
2D12
  3
Brighten
350
2D19
  3
ColorChange
350
2D1D
  3
Conceptual
350
2D16
  3
Dim
350
2D18
  3
Facepattern
350
2D1C
  3
Flat
350
2D0E
  3
FlatWithEdges
350
2D0F
  3
Gouraud
350
2D10
  3
GouraudWithEdges
350
2D11
  3
Linepattern
350
2D1B
  3
Realistic
350
2D17
  3
Thicken
350
2D1A
  0
XRECORD
  5
2EE0
102
{ACAD_REACTORS
330
2CF0
102
}
330
2CF0
100
AcDbXrecord
280
     1
 90
        1
330
2D50
  0
DICTIONARY
  5
2ED7
102
{ACAD_REACTORS
330
2CF0
102
}
330
2CF0
100
AcDbDictionary
281
     1
  3
CANNOSCALE
350
2EDA
  3
CMLEADERSTYLE
350
2ED9
  3
CTABLESTYLE
350
2ED8
  3
DIMASSOC
350
2EDD
  3
INDEXCTL
350
2EDC
  3
SORTENTS
350
2EDB
  0
DICTIONARY
  5
2E87
102
{ACAD_REACTORS
330
2CF0
102
}
330
2CF0
100
AcDbDictionary
281
     1
  3
AcmStdDictionary
350
2E95
  0
DICTIONARY
  5
2DD4
102
{ACAD_REACTORS
330
2CF0
102
}
330
2CF0
100
AcDbDictionary
281
     1
  3
AcMgSettings
350
2DD5
  0
XRECORD
  5
2EE1
102
{ACAD_REACTORS
330
2CF0
102
}
330
2CF0
100
AcDbXrecord
280
     1
  1
DWGPROPS COOKIE
  2

  3

  4

  6

  7

  8
A090053
  9

300
AmdtFileType=84
301
=
302
=
303
=
304
=
305
=
306
=
307
=
308
=
309
=
 40
1.044253275462962
 41
2452321.396199653
 42
2456213.409439676
  1

 90
        1
  0
XRECORD
  5
2EB0
102
{ACAD_REACTORS
330
2EAF
102
}
330
2EAF
100
AcDbXrecord
280
     1
290
     1
  0
XRECORD
  5
2EB2
102
{ACAD_REACTORS
330
2EB1
102
}
330
2EB1
100
AcDbXrecord
280
     1
290
     1
  0
XRECORD
  5
2EB4
102
{ACAD_REACTORS
330
2EB3
102
}
330
2EB3
100
AcDbXrecord
280
     1
290
     1
  0
XRECORD
  5
2EB6
102
{ACAD_REACTORS
330
2EB5
102
}
330
2EB5
100
AcDbXrecord
280
     1
290
     1
  0
XRECORD
  5
2EB8
102
{ACAD_REACTORS
330
2EB7
102
}
330
2EB7
100
AcDbXrecord
280
     1
290
     1
  0
XRECORD
  5
2EBA
102
{ACAD_REACTORS
330
2EB9
102
}
330
2EB9
100
AcDbXrecord
280
     1
290
     1
  0
XRECORD
  5
2EBC
102
{ACAD_REACTORS
330
2EBB
102
}
330
2EBB
100
AcDbXrecord
280
     1
290
     1
  0
XRECORD
  5
2EBE
102
{ACAD_REACTORS
330
2EBD
102
}
330
2EBD
100
AcDbXrecord
280
     1
290
     1
  0
XRECORD
  5
2EC0
102
{ACAD_REACTORS
330
2EBF
102
}
330
2EBF
100
AcDbXrecord
280
     1
290
     1
  0
XRECORD
  5
2EC2
102
{ACAD_REACTORS
330
2EC1
102
}
330
2EC1
100
AcDbXrecord
280
     1
290
     1
  0
XRECORD
  5
2EC4
102
{ACAD_REACTORS
330
2EC3
102
}
330
2EC3
100
AcDbXrecord
280
     1
290
     1
  0
XRECORD
  5
2EC6
102
{ACAD_REACTORS
330
2EC5
102
}
330
2EC5
100
AcDbXrecord
280
     1
290
     1
  0
DICTIONARY
  5
2EC8
102
{ACAD_REACTORS
330
2EC7
102
}
330
2EC7
100
AcDbDictionary
281
     1
  3
*A1
350
2EC9
  0
XRECORD
  5
2EE3
102
{ACAD_REACTORS
330
2EE2
102
}
330
2EE2
100
AcDbXrecord
280
     1
 70
     1
  0
XRECORD
  5
2EE5
102
{ACAD_REACTORS
330
2EE2
102
}
330
2EE2
100
AcDbXrecord
280
     1
340
2D46
  0
XRECORD
  5
2EE6
102
{ACAD_REACTORS
330
2EE2
102
}
330
2EE2
100
AcDbXrecord
280
     1
340
2D46
  0
XRECORD
  5
2EE4
102
{ACAD_REACTORS
330
2EE2
102
}
330
2EE2
100
AcDbXrecord
280
     1
340
2D46
  0
LAYOUT
  5
2D5B
102
{ACAD_XDICTIONARY
360
2EED
102
}
102
{ACAD_REACTORS
330
2D4D
102
}
330
2D4D
100
AcDbPlotSettings
  1

  2
自動 EPSON LP-9600S (W2450527 上)
  4

  6

 40
0.0
 41
0.0
 42
0.0
 43
0.0
 44
0.0
 45
0.0
 46
0.0
 47
0.0
 48
0.0
 49
0.0
140
0.0
141
0.0
142
1.0
143
1.0
 70
  1712
 72
     0
 73
     0
 74
     0
  7

 75
     0
147
1.0
148
0.0
149
0.0
100
AcDbLayout
  1
Model
 70
     1
 71
     0
 10
0.0
 20
0.0
 11
12.0
 21
9.0
 12
0.0
 22
0.0
 32
0.0
 14
0.0
 24
0.0
 34
0.0
 15
0.0
 25
0.0
 35
0.0
146
0.0
 13
0.0
 23
0.0
 33
0.0
 16
1.0
 26
0.0
 36
0.0
 17
0.0
 27
1.0
 37
0.0
 76
     0
330
2D58
331
2D5C
  0
LAYOUT
  5
2D57
102
{ACAD_XDICTIONARY
360
2EEB
102
}
102
{ACAD_REACTORS
330
2D4D
102
}
330
2D4D
100
AcDbPlotSettings
  1

  2
自動 EPSON LP-9600S (W2450527 上)
  4

  6

 40
0.0
 41
0.0
 42
0.0
 43
0.0
 44
0.0
 45
0.0
 46
0.0
 47
0.0
 48
0.0
 49
0.0
140
0.0
141
0.0
142
1.0
143
1.0
 70
   688
 72
     0
 73
     0
 74
     5
  7

 75
    16
147
1.0
148
0.0
149
0.0
100
AcDbLayout
  1
レイアウト1
 70
     1
 71
     1
 10
0.0
 20
0.0
 11
12.0
 21
9.0
 12
0.0
 22
0.0
 32
0.0
 14
1.000000000000000E+20
 24
1.000000000000000E+20
 34
1.000000000000000E+20
 15
-1.000000000000000E+20
 25
-1.000000000000000E+20
 35
-1.000000000000000E+20
146
0.0
 13
0.0
 23
0.0
 33
0.0
 16
1.0
 26
0.0
 36
0.0
 17
0.0
 27
1.0
 37
0.0
 76
     0
330
2D54
  0
MATERIAL
  5
2CFD
102
{ACAD_XDICTIONARY
360
2CFE
102
}
102
{ACAD_REACTORS
330
2CF4
102
}
330
2CF4
100
AcDbMaterial
  1
ByBlock
 72
     0
 43
0.0208333333333333
 43
0.0
 43
0.0
 43
0.0
 43
0.0
 43
0.0208333333333333
 43
0.0
 43
0.0
 43
0.0
 43
0.0
 43
1.0
 43
0.0
 43
0.0
 43
0.0
 43
0.0
 43
1.0
 77
     0
 47
0.0208333333333333
 47
0.0
 47
0.0
 47
0.0
 47
0.0
 47
0.0208333333333333
 47
0.0
 47
0.0
 47
0.0
 47
0.0
 47
1.0
 47
0.0
 47
0.0
 47
0.0
 47
0.0
 47
1.0
171
     0
 49
0.0208333333333333
 49
0.0
 49
0.0
 49
0.0
 49
0.0
 49
0.0208333333333333
 49
0.0
 49
0.0
 49
0.0
 49
0.0
 49
1.0
 49
0.0
 49
0.0
 49
0.0
 49
0.0
 49
1.0
175
     0
142
0.0208333333333333
142
0.0
142
0.0
142
0.0
142
0.0
142
0.0208333333333333
142
0.0
142
0.0
142
0.0
142
0.0
142
1.0
142
0.0
142
0.0
142
0.0
142
0.0
142
1.0
179
     0
144
0.0208333333333333
144
0.0
144
0.0
144
0.0
144
0.0
144
0.0208333333333333
144
0.0
144
0.0
144
0.0
144
0.0
144
1.0
144
0.0
144
0.0
144
0.0
144
0.0
144
1.0
147
0.0208333333333333
147
0.0
147
0.0
147
0.0
147
0.0
147
0.0208333333333333
147
0.0
147
0.0
147
0.0
147
0.0
147
1.0
147
0.0
147
0.0
147
0.0
147
0.0
147
1.0
  0
MATERIAL
  5
2CF5
102
{ACAD_XDICTIONARY
360
2CF6
102
}
102
{ACAD_REACTORS
330
2CF4
102
}
330
2CF4
100
AcDbMaterial
  1
ByLayer
 72
     0
 43
0.0208333333333333
 43
0.0
 43
0.0
 43
0.0
 43
0.0
 43
0.0208333333333333
 43
0.0
 43
0.0
 43
0.0
 43
0.0
 43
1.0
 43
0.0
 43
0.0
 43
0.0
 43
0.0
 43
1.0
 77
     0
 47
0.0208333333333333
 47
0.0
 47
0.0
 47
0.0
 47
0.0
 47
0.0208333333333333
 47
0.0
 47
0.0
 47
0.0
 47
0.0
 47
1.0
 47
0.0
 47
0.0
 47
0.0
 47
0.0
 47
1.0
171
     0
 49
0.0208333333333333
 49
0.0
 49
0.0
 49
0.0
 49
0.0
 49
0.0208333333333333
 49
0.0
 49
0.0
 49
0.0
 49
0.0
 49
1.0
 49
0.0
 49
0.0
 49
0.0
 49
0.0
 49
1.0
175
     0
142
0.0208333333333333
142
0.0
142
0.0
142
0.0
142
0.0
142
0.0208333333333333
142
0.0
142
0.0
142
0.0
142
0.0
142
1.0
142
0.0
142
0.0
142
0.0
142
0.0
142
1.0
179
     0
144
0.0208333333333333
144
0.0
144
0.0
144
0.0
144
0.0
144
0.0208333333333333
144
0.0
144
0.0
144
0.0
144
0.0
144
1.0
144
0.0
144
0.0
144
0.0
144
0.0
144
1.0
147
0.0208333333333333
147
0.0
147
0.0
147
0.0
147
0.0
147
0.0208333333333333
147
0.0
147
0.0
147
0.0
147
0.0
147
1.0
147
0.0
147
0.0
147
0.0
147
0.0
147
1.0
  0
MATERIAL
  5
2D05
102
{ACAD_XDICTIONARY
360
2D06
102
}
102
{ACAD_REACTORS
330
2CF4
102
}
330
2CF4
100
AcDbMaterial
  1
Global
 72
     0
 43
0.0208333333333333
 43
0.0
 43
0.0
 43
0.0
 43
0.0
 43
0.0208333333333333
 43
0.0
 43
0.0
 43
0.0
 43
0.0
 43
1.0
 43
0.0
 43
0.0
 43
0.0
 43
0.0
 43
1.0
 77
     0
 47
0.0208333333333333
 47
0.0
 47
0.0
 47
0.0
 47
0.0
 47
0.0208333333333333
 47
0.0
 47
0.0
 47
0.0
 47
0.0
 47
1.0
 47
0.0
 47
0.0
 47
0.0
 47
0.0
 47
1.0
171
     0
 49
0.0208333333333333
 49
0.0
 49
0.0
 49
0.0
 49
0.0
 49
0.0208333333333333
 49
0.0
 49
0.0
 49
0.0
 49
0.0
 49
1.0
 49
0.0
 49
0.0
 49
0.0
 49
0.0
 49
1.0
175
     0
142
0.0208333333333333
142
0.0
142
0.0
142
0.0
142
0.0
142
0.0208333333333333
142
0.0
142
0.0
142
0.0
142
0.0
142
1.0
142
0.0
142
0.0
142
0.0
142
0.0
142
1.0
179
     0
144
0.0208333333333333
144
0.0
144
0.0
144
0.0
144
0.0
144
0.0208333333333333
144
0.0
144
0.0
144
0.0
144
0.0
144
1.0
144
0.0
144
0.0
144
0.0
144
0.0
144
1.0
147
0.0208333333333333
147
0.0
147
0.0
147
0.0
147
0.0
147
0.0208333333333333
147
0.0
147
0.0
147
0.0
147
0.0
147
1.0
147
0.0
147
0.0
147
0.0
147
0.0
147
1.0
  0
MLEADERSTYLE
  5
2D52
102
{ACAD_REACTORS
330
2D51
102
}
330
2D51
100
AcDbMLeaderStyle
170
     2
171
     1
172
     0
 90
        2
 40
0.0
 41
0.0
173
     1
 91
-1056964608
340
2D46
 92
       -2
290
     1
 42
0.09
291
     1
 43
0.36
  3
Standard
 44
0.18
300

342
2D41
174
     1
178
     6
175
     1
176
     0
 93
-1056964608
 45
0.18
292
     0
297
     0
 46
0.18
 94
-1056964608
 47
1.0
 49
1.0
140
1.0
293
     1
141
0.0
294
     1
177
     0
142
1.0
295
     0
296
     0
143
0.125
1001
ACAD_MLEADERVER
1070
     2
  0
MLINESTYLE
  5
2D4B
102
{ACAD_REACTORS
330
2D4A
102
}
330
2D4A
100
AcDbMlineStyle
  2
STANDARD
 70
     0
  3

 62
   256
 51
90.0
 52
90.0
 71
     2
 49
0.5
 62
   256
  6
BYLAYER
 49
-0.5
 62
   256
  6
BYLAYER
  0
ACDBPLACEHOLDER
  5
2CF3
102
{ACAD_REACTORS
330
2CF2
102
}
330
2CF2
  0
SCALE
  5
2D1F
102
{ACAD_REACTORS
330
2D1E
102
}
330
2D1E
100
AcDbScale
 70
     0
300
1:1
140
1.0
141
1.0
290
     1
  0
SCALE
  5
2D20
102
{ACAD_REACTORS
330
2D1E
102
}
330
2D1E
100
AcDbScale
 70
     0
300
1:2
140
1.0
141
2.0
290
     0
  0
SCALE
  5
2D21
102
{ACAD_REACTORS
330
2D1E
102
}
330
2D1E
100
AcDbScale
 70
     0
300
1:4
140
1.0
141
4.0
290
     0
  0
SCALE
  5
2D22
102
{ACAD_REACTORS
330
2D1E
102
}
330
2D1E
100
AcDbScale
 70
     0
300
1:5
140
1.0
141
5.0
290
     0
  0
SCALE
  5
2D23
102
{ACAD_REACTORS
330
2D1E
102
}
330
2D1E
100
AcDbScale
 70
     0
300
1:8
140
1.0
141
8.0
290
     0
  0
SCALE
  5
2D24
102
{ACAD_REACTORS
330
2D1E
102
}
330
2D1E
100
AcDbScale
 70
     0
300
1:10
140
1.0
141
10.0
290
     0
  0
SCALE
  5
2D25
102
{ACAD_REACTORS
330
2D1E
102
}
330
2D1E
100
AcDbScale
 70
     0
300
1:16
140
1.0
141
16.0
290
     0
  0
SCALE
  5
2D26
102
{ACAD_REACTORS
330
2D1E
102
}
330
2D1E
100
AcDbScale
 70
     0
300
1:20
140
1.0
141
20.0
290
     0
  0
SCALE
  5
2D27
102
{ACAD_REACTORS
330
2D1E
102
}
330
2D1E
100
AcDbScale
 70
     0
300
1:30
140
1.0
141
30.0
290
     0
  0
SCALE
  5
2D28
102
{ACAD_REACTORS
330
2D1E
102
}
330
2D1E
100
AcDbScale
 70
     0
300
1:40
140
1.0
141
40.0
290
     0
  0
SCALE
  5
2D29
102
{ACAD_REACTORS
330
2D1E
102
}
330
2D1E
100
AcDbScale
 70
     0
300
1:50
140
1.0
141
50.0
290
     0
  0
SCALE
  5
2D2A
102
{ACAD_REACTORS
330
2D1E
102
}
330
2D1E
100
AcDbScale
 70
     0
300
1:100
140
1.0
141
100.0
290
     0
  0
SCALE
  5
2D2B
102
{ACAD_REACTORS
330
2D1E
102
}
330
2D1E
100
AcDbScale
 70
     0
300
2:1
140
2.0
141
1.0
290
     0
  0
SCALE
  5
2D2C
102
{ACAD_REACTORS
330
2D1E
102
}
330
2D1E
100
AcDbScale
 70
     0
300
4:1
140
4.0
141
1.0
290
     0
  0
SCALE
  5
2D2D
102
{ACAD_REACTORS
330
2D1E
102
}
330
2D1E
100
AcDbScale
 70
     0
300
8:1
140
8.0
141
1.0
290
     0
  0
SCALE
  5
2D2E
102
{ACAD_REACTORS
330
2D1E
102
}
330
2D1E
100
AcDbScale
 70
     0
300
10:1
140
10.0
141
1.0
290
     0
  0
SCALE
  5
2D2F
102
{ACAD_REACTORS
330
2D1E
102
}
330
2D1E
100
AcDbScale
 70
     0
300
100:1
140
100.0
141
1.0
290
     0
  0
SCALE
  5
2D30
102
{ACAD_REACTORS
330
2D1E
102
}
330
2D1E
100
AcDbScale
 70
     0
300
1/128" = 1'-0"
140
0.0078125
141
12.0
290
     0
  0
SCALE
  5
2D31
102
{ACAD_REACTORS
330
2D1E
102
}
330
2D1E
100
AcDbScale
 70
     0
300
1/64" = 1'-0"
140
0.015625
141
12.0
290
     0
  0
SCALE
  5
2D32
102
{ACAD_REACTORS
330
2D1E
102
}
330
2D1E
100
AcDbScale
 70
     0
300
1/32" = 1'-0"
140
0.03125
141
12.0
290
     0
  0
SCALE
  5
2D33
102
{ACAD_REACTORS
330
2D1E
102
}
330
2D1E
100
AcDbScale
 70
     0
300
1/16" = 1'-0"
140
0.0625
141
12.0
290
     0
  0
SCALE
  5
2D34
102
{ACAD_REACTORS
330
2D1E
102
}
330
2D1E
100
AcDbScale
 70
     0
300
3/32" = 1'-0"
140
0.09375
141
12.0
290
     0
  0
SCALE
  5
2D35
102
{ACAD_REACTORS
330
2D1E
102
}
330
2D1E
100
AcDbScale
 70
     0
300
1/8" = 1'-0"
140
0.125
141
12.0
290
     0
  0
SCALE
  5
2D36
102
{ACAD_REACTORS
330
2D1E
102
}
330
2D1E
100
AcDbScale
 70
     0
300
3/16" = 1'-0"
140
0.1875
141
12.0
290
     0
  0
SCALE
  5
2D37
102
{ACAD_REACTORS
330
2D1E
102
}
330
2D1E
100
AcDbScale
 70
     0
300
1/4" = 1'-0"
140
0.25
141
12.0
290
     0
  0
SCALE
  5
2D38
102
{ACAD_REACTORS
330
2D1E
102
}
330
2D1E
100
AcDbScale
 70
     0
300
3/8" = 1'-0"
140
0.375
141
12.0
290
     0
  0
SCALE
  5
2D39
102
{ACAD_REACTORS
330
2D1E
102
}
330
2D1E
100
AcDbScale
 70
     0
300
1/2" = 1'-0"
140
0.5
141
12.0
290
     0
  0
SCALE
  5
2D3A
102
{ACAD_REACTORS
330
2D1E
102
}
330
2D1E
100
AcDbScale
 70
     0
300
3/4" = 1'-0"
140
0.75
141
12.0
290
     0
  0
SCALE
  5
2D3B
102
{ACAD_REACTORS
330
2D1E
102
}
330
2D1E
100
AcDbScale
 70
     0
300
1" = 1'-0"
140
1.0
141
12.0
290
     0
  0
SCALE
  5
2D3C
102
{ACAD_REACTORS
330
2D1E
102
}
330
2D1E
100
AcDbScale
 70
     0
300
1-1/2" = 1'-0"
140
1.5
141
12.0
290
     0
  0
SCALE
  5
2D3D
102
{ACAD_REACTORS
330
2D1E
102
}
330
2D1E
100
AcDbScale
 70
     0
300
3" = 1'-0"
140
3.0
141
12.0
290
     0
  0
SCALE
  5
2D3E
102
{ACAD_REACTORS
330
2D1E
102
}
330
2D1E
100
AcDbScale
 70
     0
300
6" = 1'-0"
140
6.0
141
12.0
290
     0
  0
SCALE
  5
2D3F
102
{ACAD_REACTORS
330
2D1E
102
}
330
2D1E
100
AcDbScale
 70
     0
300
1'-0" = 1'-0"
140
12.0
141
12.0
290
     0
  0
TABLESTYLE
  5
2D50
102
{ACAD_XDICTIONARY
360
2EDE
102
}
102
{ACAD_REACTORS
330
2D4F
102
}
330
2D4F
100
AcDbTableStyle
  3
Standard
 70
     0
 71
     0
 40
0.06
 41
0.06
280
     0
281
     0
  7
STANDARD
140
0.18
170
     2
 62
     0
 63
     7
283
     0
274
    -2
284
     1
 64
     0
275
    -2
285
     1
 65
     0
276
    -2
286
     1
 66
     0
277
    -2
287
     1
 67
     0
278
    -2
288
     1
 68
     0
279
    -2
289
     1
 69
     0
  7
STANDARD
140
0.25
170
     5
 62
     0
 63
     7
283
     0
274
    -2
284
     1
 64
     0
275
    -2
285
     1
 65
     0
276
    -2
286
     1
 66
     0
277
    -2
287
     1
 67
     0
278
    -2
288
     1
 68
     0
279
    -2
289
     1
 69
     0
  7
STANDARD
140
0.18
170
     5
 62
     0
 63
     7
283
     0
274
    -2
284
     1
 64
     0
275
    -2
285
     1
 65
     0
276
    -2
286
     1
 66
     0
277
    -2
287
     1
 67
     0
278
    -2
288
     1
 68
     0
279
    -2
289
     1
 69
     0
  0
VISUALSTYLE
  5
2D13
102
{ACAD_REACTORS
330
2D0D
102
}
330
2D0D
100
AcDbVisualStyle
  2
2dWireframe
 70
     4
 71
     0
 72
     2
 73
     0
 90
        0
 40
-0.6
 41
-30.0
 62
     5
 63
     7
 74
     1
 91
        4
 64
     7
 65
   257
 75
     1
175
     1
 42
1.0
 92
        0
 66
   257
 43
1.0
 76
     1
 77
     6
 78
     2
 67
     7
 79
     5
170
     0
171
     0
290
     0
174
     0
 93
        1
 44
0.0
173
     0
291
     0
 45
0.0
1001
ACAD
1000
AcDbSavedByObjectVersion
1070
     0
  0
VISUALSTYLE
  5
2D15
102
{ACAD_REACTORS
330
2D0D
102
}
330
2D0D
100
AcDbVisualStyle
  2
3D Hidden
 70
     6
 71
     1
 72
     2
 73
     2
 90
        0
 40
-0.6
 41
-30.0
 62
     5
 63
     7
 74
     2
 91
        2
 64
     7
 65
   257
 75
     2
175
     1
 42
40.0
 92
        0
 66
   257
 43
1.0
 76
     1
 77
     6
 78
     2
 67
     7
 79
     3
170
     0
171
     0
290
     0
174
     0
 93
        1
 44
0.0
173
     0
291
     0
 45
0.0
1001
ACAD
1000
AcDbSavedByObjectVersion
1070
     0
  0
VISUALSTYLE
  5
2D14
102
{ACAD_REACTORS
330
2D0D
102
}
330
2D0D
100
AcDbVisualStyle
  2
3dWireframe
 70
     5
 71
     0
 72
     2
 73
     0
 90
        0
 40
-0.6
 41
-30.0
 62
     5
 63
     7
 74
     1
 91
        4
 64
     7
 65
   257
 75
     1
175
     1
 42
1.0
 92
        0
 66
   257
 43
1.0
 76
     1
 77
     6
 78
     2
 67
     7
 79
     5
170
     0
171
     0
290
     0
174
     0
 93
        1
 44
0.0
173
     0
291
     0
 45
0.0
1001
ACAD
1000
AcDbSavedByObjectVersion
1070
     0
  0
VISUALSTYLE
  5
2D12
102
{ACAD_REACTORS
330
2D0D
102
}
330
2D0D
100
AcDbVisualStyle
  2
Basic
 70
     7
 71
     1
 72
     0
 73
     1
 90
        0
 40
-0.6
 41
-30.0
 62
     5
 63
     7
 74
     0
 91
        4
 64
     7
 65
   257
 75
     1
175
     1
 42
1.0
 92
        8
 66
     7
 43
1.0
 76
     1
 77
     6
 78
     2
 67
     7
 79
     5
170
     0
171
     0
290
     0
174
     0
 93
        1
 44
0.0
173
     0
291
     1
 45
0.0
1001
ACAD
1000
AcDbSavedByObjectVersion
1070
     0
  0
VISUALSTYLE
  5
2D19
102
{ACAD_REACTORS
330
2D0D
102
}
330
2D0D
100
AcDbVisualStyle
  2
Brighten
 70
    12
 71
     2
 72
     2
 73
     0
 90
        0
 40
-0.6
 41
-30.0
 62
     5
 63
     7
 74
     1
 91
        4
 64
     7
 65
   257
 75
     1
175
     1
 42
1.0
 92
        8
 66
     7
 43
1.0
 76
     1
 77
     6
 78
     2
 67
     7
 79
     5
170
     0
171
     0
290
     0
174
     0
 93
        1
 44
50.0
173
     0
291
     1
 45
0.0
1001
ACAD
1000
AcDbSavedByObjectVersion
1070
     0
  0
VISUALSTYLE
  5
2D1D
102
{ACAD_REACTORS
330
2D0D
102
}
330
2D0D
100
AcDbVisualStyle
  2
ColorChange
 70
    16
 71
     2
 72
     2
 73
     3
 90
        0
 40
-0.6
 41
-30.0
 62
     5
 63
     8
 74
     1
 91
        4
 64
     7
 65
   257
 75
     1
175
     1
 42
1.0
 92
        8
 66
     8
 43
1.0
 76
     1
 77
     6
 78
     2
 67
     7
 79
     5
170
     0
171
     0
290
     0
174
     0
 93
        1
 44
0.0
173
     0
291
     1
 45
0.0
1001
ACAD
1000
AcDbSavedByObjectVersion
1070
     0
  0
VISUALSTYLE
  5
2D16
102
{ACAD_REACTORS
330
2D0D
102
}
330
2D0D
100
AcDbVisualStyle
  2
Conceptual
 70
     9
 71
     3
 72
     2
 73
     0
 90
        0
 40
-0.6
 41
-30.0
 62
     5
 63
     7
 74
     2
 91
        2
 64
     7
 65
   257
 75
     1
175
     1
 42
40.0
 92
        8
 66
     7
 43
1.0
 76
     1
 77
     6
 78
     2
 67
     7
 79
     3
170
     0
171
     0
290
     0
174
     0
 93
        1
 44
0.0
173
     0
291
     0
 45
0.0
1001
ACAD
1000
AcDbSavedByObjectVersion
1070
     0
  0
VISUALSTYLE
  5
2D18
102
{ACAD_REACTORS
330
2D0D
102
}
330
2D0D
100
AcDbVisualStyle
  2
Dim
 70
    11
 71
     2
 72
     2
 73
     0
 90
        0
 40
-0.6
 41
-30.0
 62
     5
 63
     7
 74
     1
 91
        4
 64
     7
 65
   257
 75
     1
175
     1
 42
1.0
 92
        8
 66
     7
 43
1.0
 76
     1
 77
     6
 78
     2
 67
     7
 79
     5
170
     0
171
     0
290
     0
174
     0
 93
        1
 44
-50.0
173
     0
291
     1
 45
0.0
1001
ACAD
1000
AcDbSavedByObjectVersion
1070
     0
  0
VISUALSTYLE
  5
2D1C
102
{ACAD_REACTORS
330
2D0D
102
}
330
2D0D
100
AcDbVisualStyle
  2
Facepattern
 70
    15
 71
     2
 72
     2
 73
     0
 90
        0
 40
-0.6
 41
-30.0
 62
     5
 63
     7
 74
     1
 91
        4
 64
     7
 65
   257
 75
     1
175
     1
 42
1.0
 92
        8
 66
     7
 43
1.0
 76
     1
 77
     6
 78
     2
 67
     7
 79
     5
170
     0
171
     0
290
     0
174
     0
 93
        1
 44
0.0
173
     0
291
     1
 45
0.0
1001
ACAD
1000
AcDbSavedByObjectVersion
1070
     0
  0
VISUALSTYLE
  5
2D0E
102
{ACAD_REACTORS
330
2D0D
102
}
330
2D0D
100
AcDbVisualStyle
  2
Flat
 70
     0
 71
     2
 72
     1
 73
     1
 90
        2
 40
-0.6
 41
30.0
 62
     5
 63
     7
 74
     0
 91
        4
 64
     7
 65
   257
 75
     1
175
     1
 42
1.0
 92
        8
 66
     7
 43
1.0
 76
     1
 77
     6
 78
     2
 67
     7
 79
     5
170
     0
171
     0
290
     0
174
     0
 93
       13
 44
0.0
173
     0
291
     1
 45
0.0
1001
ACAD
1000
AcDbSavedByObjectVersion
1070
     0
  0
VISUALSTYLE
  5
2D0F
102
{ACAD_REACTORS
330
2D0D
102
}
330
2D0D
100
AcDbVisualStyle
  2
FlatWithEdges
 70
     1
 71
     2
 72
     1
 73
     1
 90
        2
 40
-0.6
 41
30.0
 62
     5
 63
     7
 74
     1
 91
        4
 64
     7
 65
   257
 75
     1
175
     1
 42
1.0
 92
        0
 66
   257
 43
1.0
 76
     1
 77
     6
 78
     2
 67
     7
 79
     5
170
     0
171
     0
290
     0
174
     0
 93
       13
 44
0.0
173
     0
291
     1
 45
0.0
1001
ACAD
1000
AcDbSavedByObjectVersion
1070
     0
  0
VISUALSTYLE
  5
2D10
102
{ACAD_REACTORS
330
2D0D
102
}
330
2D0D
100
AcDbVisualStyle
  2
Gouraud
 70
     2
 71
     2
 72
     2
 73
     1
 90
        2
 40
-0.6
 41
30.0
 62
     5
 63
     7
 74
     0
 91
        4
 64
     7
 65
   257
 75
     1
175
     1
 42
1.0
 92
        0
 66
     7
 43
1.0
 76
     1
 77
     6
 78
     2
 67
     7
 79
     5
170
     0
171
     0
290
     0
174
     0
 93
       13
 44
0.0
173
     0
291
     1
 45
0.0
1001
ACAD
1000
AcDbSavedByObjectVersion
1070
     0
  0
VISUALSTYLE
  5
2D11
102
{ACAD_REACTORS
330
2D0D
102
}
330
2D0D
100
AcDbVisualStyle
  2
GouraudWithEdges
 70
     3
 71
     2
 72
     2
 73
     1
 90
        2
 40
-0.6
 41
30.0
 62
     5
 63
     7
 74
     1
 91
        4
 64
     7
 65
   257
 75
     1
175
     1
 42
1.0
 92
        0
 66
   257
 43
1.0
 76
     1
 77
     6
 78
     2
 67
     7
 79
     5
170
     0
171
     0
290
     0
174
     0
 93
       13
 44
0.0
173
     0
291
     1
 45
0.0
1001
ACAD
1000
AcDbSavedByObjectVersion
1070
     0
  0
VISUALSTYLE
  5
2D1B
102
{ACAD_REACTORS
330
2D0D
102
}
330
2D0D
100
AcDbVisualStyle
  2
Linepattern
 70
    14
 71
     2
 72
     2
 73
     0
 90
        0
 40
-0.6
 41
-30.0
 62
     5
 63
     7
 74
     1
 91
        4
 64
     7
 65
   257
 75
     7
175
     7
 42
1.0
 92
        8
 66
     7
 43
1.0
 76
     1
 77
     6
 78
     2
 67
     7
 79
     5
170
     0
171
     0
290
     0
174
     0
 93
        1
 44
0.0
173
     0
291
     1
 45
0.0
1001
ACAD
1000
AcDbSavedByObjectVersion
1070
     0
  0
VISUALSTYLE
  5
2D17
102
{ACAD_REACTORS
330
2D0D
102
}
330
2D0D
100
AcDbVisualStyle
  2
Realistic
 70
     8
 71
     2
 72
     2
 73
     0
 90
        0
 40
-0.6
 41
-30.0
 62
     5
 63
     7
 74
     1
 91
        0
 64
     7
 65
   257
 75
     1
175
     1
 42
1.0
 92
        8
 66
     8
 43
1.0
 76
     1
 77
     6
 78
     2
 67
     7
 79
     5
170
     0
171
     0
290
     0
174
     0
 93
       13
 44
0.0
173
     0
291
     0
 45
0.0
1001
ACAD
1000
AcDbSavedByObjectVersion
1070
     0
  0
VISUALSTYLE
  5
2D1A
102
{ACAD_REACTORS
330
2D0D
102
}
330
2D0D
100
AcDbVisualStyle
  2
Thicken
 70
    13
 71
     2
 72
     2
 73
     0
 90
        0
 40
-0.6
 41
-30.0
 62
     5
 63
     7
 74
     1
 91
        4
 64
     7
 65
   257
 75
     1
175
     1
 42
1.0
 92
       12
 66
     7
 43
1.0
 76
     1
 77
     6
 78
     2
 67
     7
 79
     5
170
     0
171
     0
290
     0
174
     0
 93
        1
 44
0.0
173
     0
291
     1
 45
0.0
1001
ACAD
1000
AcDbSavedByObjectVersion
1070
     0
  0
DICTIONARYVAR
  5
2EDA
102
{ACAD_REACTORS
330
2ED7
102
}
330
2ED7
100
DictionaryVariables
280
     0
  1
1:1
  0
DICTIONARYVAR
  5
2ED9
102
{ACAD_REACTORS
330
2ED7
102
}
330
2ED7
100
DictionaryVariables
280
     0
  1
STANDARD
  0
DICTIONARYVAR
  5
2ED8
102
{ACAD_REACTORS
330
2ED7
102
}
330
2ED7
100
DictionaryVariables
280
     0
  1
STANDARD
  0
DICTIONARYVAR
  5
2EDD
102
{ACAD_REACTORS
330
2ED7
102
}
330
2ED7
100
DictionaryVariables
280
     0
  1
1
  0
DICTIONARYVAR
  5
2EDC
102
{ACAD_REACTORS
330
2ED7
102
}
330
2ED7
100
DictionaryVariables
280
     0
  1
1
  0
DICTIONARYVAR
  5
2EDB
102
{ACAD_REACTORS
330
2ED7
102
}
330
2ED7
100
DictionaryVariables
280
     0
  1
127
  0
DICTIONARY
  5
2E95
102
{ACAD_REACTORS
330
2E87
102
}
330
2E87
100
AcDbDictionary
281
     1
  0
DICTIONARY
  5
2DD5
102
{ACAD_REACTORS
330
2DD4
102
}
330
2DD4
100
AcDbDictionary
281
     1
  3
DWGSETTINGS
350
2DD6
  3
TRANSSETTINGS
350
2DD7
  0
LAYER_INDEX
  5
2EC9
102
{ACAD_REACTORS
330
2EC8
102
}
330
2EC8
100
AcDbIndex
 40
2456213.409439676
100
AcDbLayerIndex
  8
0
360
2ECA
 90
        0
  8
OUTLINE
360
2ECB
 90
       65
  8
SIZE
360
2ECC
 90
       54
  8
BASIS
360
2ECD
 90
        0
  8
DETAIL
360
2ECE
 90
       59
  8
ARRANGE
360
2ECF
 90
        3
  8
DEFPOINTS
360
2ED0
 90
        0
  8
ETC
360
2ED1
 90
        3
  8
FIX
360
2ED2
 90
       10
  8
NOTE
360
2ED3
 90
       23
  8
SERVICESPACE
360
2ED4
 90
        0
  8
SYMBOLLINE
360
2ED5
 90
        0
  8
BASIC
360
2ED6
 90
        2
  0
DICTIONARY
  5
2EED
330
2D5B
100
AcDbDictionary
280
     1
281
     1
  3
ACAD_XREC_ROUNDTRIP
360
2EEE
  0
DICTIONARY
  5
2EEB
330
2D57
100
AcDbDictionary
280
     1
281
     1
  3
ACAD_XREC_ROUNDTRIP
360
2EEC
  0
DICTIONARY
  5
2CFE
330
2CFD
100
AcDbDictionary
280
     1
281
     1
  3
ACAD_XREC_ROUNDTRIP
360
2EE8
  3
BUMPTILE
360
2D00
  3
DIFFUSETILE
360
2CFF
  3
OPACITYTILE
360
2D03
  3
REFLECTIONTILE
360
2D02
  3
REFRACTIONTILE
360
2D04
  3
SPECULARTILE
360
2D01
  0
DICTIONARY
  5
2CF6
330
2CF5
100
AcDbDictionary
280
     1
281
     1
  3
ACAD_XREC_ROUNDTRIP
360
2EE7
  3
BUMPTILE
360
2CF8
  3
DIFFUSETILE
360
2CF7
  3
OPACITYTILE
360
2CFB
  3
REFLECTIONTILE
360
2CFA
  3
REFRACTIONTILE
360
2CFC
  3
SPECULARTILE
360
2CF9
  0
DICTIONARY
  5
2D06
330
2D05
100
AcDbDictionary
280
     1
281
     1
  3
ACAD_XREC_ROUNDTRIP
360
2EE9
  3
BUMPTILE
360
2D08
  3
DIFFUSETILE
360
2D07
  3
OPACITYTILE
360
2D0B
  3
REFLECTIONTILE
360
2D0A
  3
REFRACTIONTILE
360
2D0C
  3
SPECULARTILE
360
2D09
  0
DICTIONARY
  5
2EDE
330
2D50
100
AcDbDictionary
280
     1
281
     1
  3
ACAD_ROUNDTRIP_2008_TABLESTYLE_CELLSTYLEMAP
360
2EDF
  3
ACAD_XREC_ROUNDTRIP
360
2EEA
  0
IDBUFFER
  5
2ECA
330
0
100
AcDbIdBuffer
  0
IDBUFFER
  5
2ECB
330
0
100
AcDbIdBuffer
330
2A49
330
2A4A
330
2A4B
330
2A4C
330
2A4D
330
2A4E
330
2A4F
330
2A50
330
2A51
330
2A52
330
2A53
330
2A54
330
2A55
330
2A56
330
2A57
330
2A58
330
2A59
330
953
330
954
330
955
330
956
330
957
330
958
330
2A1F
330
2A20
330
2A21
330
2A22
330
2A23
330
2A24
330
2A25
330
2A26
330
2A27
330
2A28
330
2A29
330
2A2A
330
2A2B
330
2A2C
330
2A2D
330
2A2E
330
2A2F
330
2A30
330
2A31
330
2A32
330
2A33
330
2A34
330
2A35
330
2A36
330
2A37
330
2A38
330
2A39
330
2A3A
330
2A3B
330
2A3C
330
2A3D
330
2A3E
330
2A3F
330
2A40
330
2A41
330
2A42
330
2A43
330
2A44
330
2A45
330
2A46
330
2A47
330
2A48
  0
IDBUFFER
  5
2ECC
330
0
100
AcDbIdBuffer
330
2A8A
330
2A8B
330
2A8C
330
2A8D
330
2A8E
330
2A8F
330
2A5A
330
2A5B
330
2A5C
330
2A5D
330
2A5E
330
2A5F
330
2A60
330
2A61
330
2A62
330
2A63
330
2A64
330
2A65
330
2A66
330
2A67
330
2A68
330
2A69
330
2A6A
330
2A6B
330
2A6C
330
2A6D
330
2A6E
330
2A6F
330
2A70
330
2A71
330
2A72
330
2A73
330
2A74
330
2A75
330
2A76
330
2A77
330
2A78
330
2A79
330
2A7A
330
2A7B
330
2A7C
330
2A7D
330
2A7E
330
2A7F
330
2A80
330
2A81
330
2A82
330
2A83
330
2A84
330
2A85
330
2A86
330
2A87
330
2A88
330
2A89
  0
IDBUFFER
  5
2ECD
330
0
100
AcDbIdBuffer
  0
IDBUFFER
  5
2ECE
330
0
100
AcDbIdBuffer
330
29FF
330
2A00
330
2A01
330
2A02
330
2A03
330
2A04
330
2A05
330
2A06
330
2A07
330
2A08
330
2A09
330
29CB
330
29CC
330
29CF
330
29D0
330
29D3
330
29D4
330
29D5
330
29D6
330
29D7
330
29D8
330
29D9
330
29DA
330
29DB
330
29DC
330
29DD
330
29DE
330
29DF
330
29E0
330
29E1
330
29E2
330
29E3
330
29E4
330
29E5
330
29E6
330
29E7
330
29E8
330
29E9
330
29EA
330
29EB
330
29EC
330
29ED
330
29EE
330
29EF
330
29F0
330
29F1
330
29F2
330
29F3
330
29F4
330
29F5
330
29F6
330
29F7
330
29F8
330
29F9
330
29FA
330
29FB
330
29FC
330
29FD
330
29FE
  0
IDBUFFER
  5
2ECF
330
0
100
AcDbIdBuffer
330
29C0
330
29C1
330
29C2
  0
IDBUFFER
  5
2ED0
330
0
100
AcDbIdBuffer
  0
IDBUFFER
  5
2ED1
330
0
100
AcDbIdBuffer
330
29BE
330
29BF
330
2A0A
  0
IDBUFFER
  5
2ED2
330
0
100
AcDbIdBuffer
330
29C5
330
29C6
330
29C7
330
29C8
330
29C9
330
29CA
330
29CD
330
29CE
330
29D1
330
29D2
  0
IDBUFFER
  5
2ED3
330
0
100
AcDbIdBuffer
330
2A1B
330
2A1C
330
2A1D
330
2A1E
330
2A90
330
2A91
330
2A92
330
2A0B
330
2A0C
330
2A0D
330
2A0E
330
2A0F
330
2A10
330
2A11
330
2A12
330
2A13
330
2A14
330
2A15
330
2A16
330
2A17
330
2A18
330
2A19
330
2A1A
  0
IDBUFFER
  5
2ED4
330
0
100
AcDbIdBuffer
  0
IDBUFFER
  5
2ED5
330
0
100
AcDbIdBuffer
  0
IDBUFFER
  5
2ED6
330
0
100
AcDbIdBuffer
330
29C3
330
29C4
  0
XRECORD
  5
2EEE
102
{ACAD_REACTORS
330
2EED
102
}
330
2EED
100
AcDbXrecord
280
     1
102
SHADEPLOT
 70
     0
102
SHADEPLOTRESLEVEL
 70
     2
102
SHADEPLOTCUSTOMDPI
 70
   300
  0
XRECORD
  5
2EEC
102
{ACAD_REACTORS
330
2EEB
102
}
330
2EEB
100
AcDbXrecord
280
     1
102
SHADEPLOT
 70
     0
102
SHADEPLOTRESLEVEL
 70
     2
102
SHADEPLOTCUSTOMDPI
 70
   300
  0
XRECORD
  5
2EE8
102
{ACAD_REACTORS
330
2CFE
102
}
330
2CFE
100
AcDbXrecord
280
     1
102
MATERIAL
148
0.0
149
0.0
149
0.0
 93
        0
 94
      127
282
     0
 72
     0
 77
     0
171
     0
175
     0
179
     0
273
     0
  0
XRECORD
  5
2D00
102
{ACAD_REACTORS
330
2CFE
102
}
330
2CFE
100
AcDbXrecord
280
     1
270
     1
271
     1
  0
XRECORD
  5
2CFF
102
{ACAD_REACTORS
330
2CFE
102
}
330
2CFE
100
AcDbXrecord
280
     1
270
     1
271
     1
  0
XRECORD
  5
2D03
102
{ACAD_REACTORS
330
2CFE
102
}
330
2CFE
100
AcDbXrecord
280
     1
270
     1
271
     1
  0
XRECORD
  5
2D02
102
{ACAD_REACTORS
330
2CFE
102
}
330
2CFE
100
AcDbXrecord
280
     1
270
     1
271
     1
  0
XRECORD
  5
2D04
102
{ACAD_REACTORS
330
2CFE
102
}
330
2CFE
100
AcDbXrecord
280
     1
270
     1
271
     1
  0
XRECORD
  5
2D01
102
{ACAD_REACTORS
330
2CFE
102
}
330
2CFE
100
AcDbXrecord
280
     1
270
     1
271
     1
  0
XRECORD
  5
2EE7
102
{ACAD_REACTORS
330
2CF6
102
}
330
2CF6
100
AcDbXrecord
280
     1
102
MATERIAL
148
0.0
149
0.0
149
0.0
 93
        0
 94
      127
282
     0
 72
     0
 77
     0
171
     0
175
     0
179
     0
273
     0
  0
XRECORD
  5
2CF8
102
{ACAD_REACTORS
330
2CF6
102
}
330
2CF6
100
AcDbXrecord
280
     1
270
     1
271
     1
  0
XRECORD
  5
2CF7
102
{ACAD_REACTORS
330
2CF6
102
}
330
2CF6
100
AcDbXrecord
280
     1
270
     1
271
     1
  0
XRECORD
  5
2CFB
102
{ACAD_REACTORS
330
2CF6
102
}
330
2CF6
100
AcDbXrecord
280
     1
270
     1
271
     1
  0
XRECORD
  5
2CFA
102
{ACAD_REACTORS
330
2CF6
102
}
330
2CF6
100
AcDbXrecord
280
     1
270
     1
271
     1
  0
XRECORD
  5
2CFC
102
{ACAD_REACTORS
330
2CF6
102
}
330
2CF6
100
AcDbXrecord
280
     1
270
     1
271
     1
  0
XRECORD
  5
2CF9
102
{ACAD_REACTORS
330
2CF6
102
}
330
2CF6
100
AcDbXrecord
280
     1
270
     1
271
     1
  0
XRECORD
  5
2EE9
102
{ACAD_REACTORS
330
2D06
102
}
330
2D06
100
AcDbXrecord
280
     1
102
MATERIAL
148
0.0
149
0.0
149
0.0
 93
        0
 94
      127
282
     0
 72
     0
 77
     0
171
     0
175
     0
179
     0
273
     0
  0
XRECORD
  5
2D08
102
{ACAD_REACTORS
330
2D06
102
}
330
2D06
100
AcDbXrecord
280
     1
270
     1
271
     1
  0
XRECORD
  5
2D07
102
{ACAD_REACTORS
330
2D06
102
}
330
2D06
100
AcDbXrecord
280
     1
270
     1
271
     1
  0
XRECORD
  5
2D0B
102
{ACAD_REACTORS
330
2D06
102
}
330
2D06
100
AcDbXrecord
280
     1
270
     1
271
     1
  0
XRECORD
  5
2D0A
102
{ACAD_REACTORS
330
2D06
102
}
330
2D06
100
AcDbXrecord
280
     1
270
     1
271
     1
  0
XRECORD
  5
2D0C
102
{ACAD_REACTORS
330
2D06
102
}
330
2D06
100
AcDbXrecord
280
     1
270
     1
271
     1
  0
XRECORD
  5
2D09
102
{ACAD_REACTORS
330
2D06
102
}
330
2D06
100
AcDbXrecord
280
     1
270
     1
271
     1
  0
CELLSTYLEMAP
  5
2EDF
102
{ACAD_REACTORS
330
2EDE
102
}
330
2EDE
100
AcDbCellStyleMap
 90
        3
300
CELLSTYLE
  1
TABLEFORMAT_BEGIN
 90
        5
170
     1
 91
        0
 92
    32768
 62
   257
 93
        1
300
CONTENTFORMAT
  1
CONTENTFORMAT_BEGIN
 90
        0
 91
        0
 92
      512
 93
        0
300

 40
0.0
140
1.0
 94
        5
 62
     0
340
2D41
144
0.25
309
CONTENTFORMAT_END
171
     0
 94
        0
309
TABLEFORMAT_END
  1
CELLSTYLE_BEGIN
 90
        1
 91
        1
300
_TITLE
309
CELLSTYLE_END
300
CELLSTYLE
  1
TABLEFORMAT_BEGIN
 90
        5
170
     1
 91
        0
 92
        0
 62
   257
 93
        1
300
CONTENTFORMAT
  1
CONTENTFORMAT_BEGIN
 90
        0
 91
        0
 92
      512
 93
        0
300

 40
0.0
140
1.0
 94
        5
 62
     0
340
2D41
144
0.18
309
CONTENTFORMAT_END
171
     0
 94
        0
309
TABLEFORMAT_END
  1
CELLSTYLE_BEGIN
 90
        2
 91
        1
300
_HEADER
309
CELLSTYLE_END
300
CELLSTYLE
  1
TABLEFORMAT_BEGIN
 90
        5
170
     1
 91
        0
 92
        0
 62
   257
 93
        1
300
CONTENTFORMAT
  1
CONTENTFORMAT_BEGIN
 90
        0
 91
        0
 92
      512
 93
        0
300

 40
0.0
140
1.0
 94
        2
 62
     0
340
2D41
144
0.18
309
CONTENTFORMAT_END
171
     0
 94
        0
309
TABLEFORMAT_END
  1
CELLSTYLE_BEGIN
 90
        3
 91
        2
300
_DATA
309
CELLSTYLE_END
  0
XRECORD
  5
2EEA
102
{ACAD_REACTORS
330
2EDE
102
}
330
2EDE
100
AcDbXrecord
280
     1
102
ACAD_ROUNDTRIP_PRE2007_TABLESTYLE
 90
      512
 91
        0
  1

 92
      512
 93
        0
  2

 94
      512
 95
        0
  3

  0
ENDSEC
  0
EOF
