  0
SECTION
  2
HEADER
  9
$ACADVER
  1
AC1015
  9
$ACADMAINTVER
 70
    20
  9
$DWGCODEPAGE
  3
ANSI_932
  9
$INSBASE
 10
0.0
 20
0.0
 30
0.0
  9
$EXTMIN
 10
-1077.595114277968
 20
-1265.674000478014
 30
0.0
  9
$EXTMAX
 10
1346.719285680607
 20
568.8365397587915
 30
50.0
  9
$LIMMIN
 10
-2970.0
 20
-2100.0
  9
$LIMMAX
 10
2970.0
 20
2100.0
  9
$ORTHOMODE
 70
     1
  9
$REGENMODE
 70
     0
  9
$FILLMODE
 70
     1
  9
$QTEXTMODE
 70
     0
  9
$MIRRTEXT
 70
     0
  9
$LTSCALE
 40
20.0
  9
$ATTMODE
 70
     1
  9
$TEXTSIZE
 40
64.0
  9
$TRACEWID
 40
0.05
  9
$TEXTSTYLE
  7
STANDARD
  9
$CLAYER
  8
0
  9
$CELTYPE
  6
ByLayer
  9
$CECOLOR
 62
   256
  9
$CELTSCALE
 40
1.0
  9
$DISPSILH
 70
     0
  9
$DIMSCALE
 40
1.0
  9
$DIMASZ
 40
0.12
  9
$DIMEXO
 40
0.05
  9
$DIMDLI
 40
0.5
  9
$DIMRND
 40
0.0
  9
$DIMDLE
 40
0.0
  9
$DIMEXE
 40
0.1
  9
$DIMTP
 40
0.1
  9
$DIMTM
 40
0.1
  9
$DIMTXT
 40
0.12
  9
$DIMCEN
 40
0.0
  9
$DIMTSZ
 40
0.0
  9
$DIMTOL
 70
     0
  9
$DIMLIM
 70
     0
  9
$DIMTIH
 70
     1
  9
$DIMTOH
 70
     1
  9
$DIMSE1
 70
     0
  9
$DIMSE2
 70
     0
  9
$DIMTAD
 70
     0
  9
$DIMZIN
 70
     7
  9
$DIMBLK
  1

  9
$DIMASO
 70
     1
  9
$DIMSHO
 70
     0
  9
$DIMPOST
  1

  9
$DIMAPOST
  1
mm
  9
$DIMALT
 70
     0
  9
$DIMALTD
 70
     2
  9
$DIMALTF
 40
25.4
  9
$DIMLFAC
 40
1.0
  9
$DIMTOFL
 70
     0
  9
$DIMTVP
 40
0.0
  9
$DIMTIX
 70
     0
  9
$DIMSOXD
 70
     0
  9
$DIMSAH
 70
     0
  9
$DIMBLK1
  1

  9
$DIMBLK2
  1

  9
$DIMSTYLE
  2
AM_ANSI
  9
$DIMCLRD
 70
   256
  9
$DIMCLRE
 70
   256
  9
$DIMCLRT
 70
     2
  9
$DIMTFAC
 40
0.71
  9
$DIMGAP
 40
0.06
  9
$DIMJUST
 70
     0
  9
$DIMSD1
 70
     0
  9
$DIMSD2
 70
     0
  9
$DIMTOLJ
 70
     1
  9
$DIMTZIN
 70
     7
  9
$DIMALTZ
 70
     0
  9
$DIMALTTZ
 70
     0
  9
$DIMUPT
 70
     0
  9
$DIMDEC
 70
     4
  9
$DIMTDEC
 70
     4
  9
$DIMALTU
 70
     2
  9
$DIMALTTD
 70
     4
  9
$DIMTXSTY
  7
STANDARD
  9
$DIMAUNIT
 70
     0
  9
$DIMADEC
 70
     0
  9
$DIMALTRND
 40
0.0
  9
$DIMAZIN
 70
     2
  9
$DIMDSEP
 70
    46
  9
$DIMATFIT
 70
     3
  9
$DIMFRAC
 70
     0
  9
$DIMLDRBLK
  1

  9
$DIMLUNIT
 70
     2
  9
$DIMLWD
 70
    -1
  9
$DIMLWE
 70
    -1
  9
$DIMTMOVE
 70
     0
  9
$LUNITS
 70
     2
  9
$LUPREC
 70
     4
  9
$SKETCHINC
 40
0.1
  9
$FILLETRAD
 40
4.0
  9
$AUNITS
 70
     1
  9
$AUPREC
 70
     3
  9
$MENU
  1
ACAD
  9
$ELEVATION
 40
0.0
  9
$PELEVATION
 40
0.0
  9
$THICKNESS
 40
50.0
  9
$LIMCHECK
 70
     0
  9
$CHAMFERA
 40
0.0
  9
$CHAMFERB
 40
0.0
  9
$CHAMFERC
 40
0.0
  9
$CHAMFERD
 40
0.0
  9
$SKPOLY
 70
     0
  9
$TDCREATE
 40
2452321.396199653
  9
$TDUCREATE
 40
2452321.021199653
  9
$TDUPDATE
 40
2456213.409787593
  9
$TDUUPDATE
 40
2456213.034787593
  9
$TDINDWG
 40
1.0436289352
  9
$TDUSRTIMER
 40
1.0436231713
  9
$USRTIMER
 70
     1
  9
$ANGBASE
 50
0.0
  9
$ANGDIR
 70
     0
  9
$PDMODE
 70
     3
  9
$PDSIZE
 40
-2.0
  9
$PLINEWID
 40
0.0
  9
$SPLFRAME
 70
     0
  9
$SPLINETYPE
 70
     6
  9
$SPLINESEGS
 70
     8
  9
$HANDSEED
  5
32E4
  9
$SURFTAB1
 70
     6
  9
$SURFTAB2
 70
     6
  9
$SURFTYPE
 70
     6
  9
$SURFU
 70
     6
  9
$SURFV
 70
     6
  9
$UCSBASE
  2

  9
$UCSNAME
  2

  9
$UCSORG
 10
0.0
 20
0.0
 30
0.0
  9
$UCSXDIR
 10
1.0
 20
0.0
 30
0.0
  9
$UCSYDIR
 10
0.0
 20
1.0
 30
0.0
  9
$UCSORTHOREF
  2

  9
$UCSORTHOVIEW
 70
     0
  9
$UCSORGTOP
 10
0.0
 20
0.0
 30
0.0
  9
$UCSORGBOTTOM
 10
0.0
 20
0.0
 30
0.0
  9
$UCSORGLEFT
 10
0.0
 20
0.0
 30
0.0
  9
$UCSORGRIGHT
 10
0.0
 20
0.0
 30
0.0
  9
$UCSORGFRONT
 10
0.0
 20
0.0
 30
0.0
  9
$UCSORGBACK
 10
0.0
 20
0.0
 30
0.0
  9
$PUCSBASE
  2

  9
$PUCSNAME
  2

  9
$PUCSORG
 10
0.0
 20
0.0
 30
0.0
  9
$PUCSXDIR
 10
1.0
 20
0.0
 30
0.0
  9
$PUCSYDIR
 10
0.0
 20
1.0
 30
0.0
  9
$PUCSORTHOREF
  2

  9
$PUCSORTHOVIEW
 70
     0
  9
$PUCSORGTOP
 10
0.0
 20
0.0
 30
0.0
  9
$PUCSORGBOTTOM
 10
0.0
 20
0.0
 30
0.0
  9
$PUCSORGLEFT
 10
0.0
 20
0.0
 30
0.0
  9
$PUCSORGRIGHT
 10
0.0
 20
0.0
 30
0.0
  9
$PUCSORGFRONT
 10
0.0
 20
0.0
 30
0.0
  9
$PUCSORGBACK
 10
0.0
 20
0.0
 30
0.0
  9
$USERI1
 70
     0
  9
$USERI2
 70
     0
  9
$USERI3
 70
     0
  9
$USERI4
 70
     0
  9
$USERI5
 70
     0
  9
$USERR1
 40
20.0
  9
$USERR2
 40
0.0
  9
$USERR3
 40
0.0
  9
$USERR4
 40
0.0
  9
$USERR5
 40
0.0
  9
$WORLDVIEW
 70
     1
  9
$SHADEDGE
 70
     3
  9
$SHADEDIF
 70
    70
  9
$TILEMODE
 70
     1
  9
$MAXACTVP
 70
    64
  9
$PINSBASE
 10
0.0
 20
0.0
 30
0.0
  9
$PLIMCHECK
 70
     0
  9
$PEXTMIN
 10
1.000000000000000E+20
 20
1.000000000000000E+20
 30
1.000000000000000E+20
  9
$PEXTMAX
 10
-1.000000000000000E+20
 20
-1.000000000000000E+20
 30
-1.000000000000000E+20
  9
$PLIMMIN
 10
0.0
 20
0.0
  9
$PLIMMAX
 10
12.0
 20
9.0
  9
$UNITMODE
 70
     0
  9
$VISRETAIN
 70
     1
  9
$PLINEGEN
 70
     0
  9
$PSLTSCALE
 70
     1
  9
$TREEDEPTH
 70
  3020
  9
$CMLSTYLE
  2
Standard
  9
$CMLJUST
 70
     0
  9
$CMLSCALE
 40
1.0
  9
$PROXYGRAPHICS
 70
     1
  9
$MEASUREMENT
 70
     0
  9
$CELWEIGHT
370
    -1
  9
$ENDCAPS
280
     0
  9
$JOINSTYLE
280
     0
  9
$LWDISPLAY
290
     0
  9
$INSUNITS
 70
     0
  9
$HYPERLINKBASE
  1

  9
$STYLESHEET
  1

  9
$XEDIT
290
     1
  9
$CEPSNTYPE
380
     0
  9
$PSTYLEMODE
290
     1
  9
$FINGERPRINTGUID
  2
{6A7077AE-7861-483F-983D-32E627DA9AE1}
  9
$VERSIONGUID
  2
{EEFFABE9-8256-4F44-9D15-5C0295CB3F50}
  9
$EXTNAMES
290
     1
  9
$PSVPSCALE
 40
0.0
  9
$OLESTARTUP
290
     0
  0
ENDSEC
  0
SECTION
  2
CLASSES
  0
CLASS
  1
ACDBDICTIONARYWDFLT
  2
AcDbDictionaryWithDefault
  3
ObjectDBX Classes
 90
        0
280
     0
281
     0
  0
CLASS
  1
MATERIAL
  2
AcDbMaterial
  3
ObjectDBX Classes
 90
     1153
280
     0
281
     0
  0
CLASS
  1
VISUALSTYLE
  2
AcDbVisualStyle
  3
ObjectDBX Classes
 90
     4095
280
     0
281
     0
  0
CLASS
  1
SCALE
  2
AcDbScale
  3
ObjectDBX Classes
 90
     1153
280
     0
281
     0
  0
CLASS
  1
TABLESTYLE
  2
AcDbTableStyle
  3
ObjectDBX Classes
 90
     4095
280
     0
281
     0
  0
CLASS
  1
MLEADERSTYLE
  2
AcDbMLeaderStyle
  3
ACDB_MLEADERSTYLE_CLASS
 90
     4095
280
     0
281
     0
  0
CLASS
  1
AMGSETTINGSOBJ
  2
AmgSettingsObj
  3
"AcadM|Product Description: AutoCAD Mechanical|Company: Autodesk, Inc."
 90
     1024
280
     0
281
     0
  0
CLASS
  1
ACME_DOCUMENT
  2
AcMeDbDoc
  3
AcMeServices
 90
     1024
280
     0
281
     0
  0
CLASS
  1
ACMESCOPE
  2
AcMeScope
  3
AcMeServices
 90
     1024
280
     0
281
     0
  0
CLASS
  1
ACMECOMMANDHISTORY
  2
AcMeCommandHistory
  3
AcMeServices
 90
     1024
280
     0
281
     0
  0
CLASS
  1
ACIMSYSVARMAN
  2
AcImSysVarManager
  3
AcMeServices
 90
     1024
280
     0
281
     0
  0
CLASS
  1
ACIMREALSYSVAR
  2
AcImRealSysVar
  3
AcMeServices
 90
     1024
280
     0
281
     0
  0
CLASS
  1
ACIMINTSYSVAR
  2
AcImIntSysVar
  3
AcMeServices
 90
     1024
280
     0
281
     0
  0
CLASS
  1
ACMEDRAWINGMAN
  2
AcMeDrawingMan
  3
AcMeServices
 90
     1024
280
     0
281
     0
  0
CLASS
  1
ACMEVIEW
  2
AcMeView
  3
AcMeServices
 90
     1024
280
     0
281
     0
  0
CLASS
  1
ACDBENTITYCACHE
  2
AcMeEntityCache
  3
AcMeServices
 90
     1024
280
     0
281
     0
  0
CLASS
  1
GSMANAGER
  2
AcMeGSManager
  3
AcMeServices
 90
     1024
280
     0
281
     0
  0
CLASS
  1
AMDTINTERNALREACTOR
  2
AmdtInternalReactor
  3
AcMeServices
 90
     1024
280
     0
281
     0
  0
CLASS
  1
ACMESTATEMGR
  2
AcMeStateMgr
  3
AcMeServices
 90
     1024
280
     0
281
     0
  0
CLASS
  1
ACGREFMASTER
  2
AcGrefMaster
  3
AcAttribServices
 90
     1024
280
     0
281
     0
  0
CLASS
  1
AM_DRAWING_MGR
  2
AcDmDwgMgr
  3
AcMechDwgViewMgmt
 90
     1024
280
     0
281
     0
  0
CLASS
  1
AM_DWG_DOCUMENT
  2
AcDmDwgDocument
  3
AcMechDwgViewMgmt
 90
     1024
280
     0
281
     0
  0
CLASS
  1
AM_DWG_SHEET
  2
AcDmSheet
  3
AcMechDwgViewMgmt
 90
     1024
280
     0
281
     0
  0
CLASS
  1
AM_VIEWDIMPARMAP
  2
AcDmViewDimParMap
  3
AcMechDwgViewMgmt
 90
     1024
280
     0
281
     0
  0
CLASS
  1
AM_DWGMGR_NAME
  2
AcDmDwgMgrName
  3
AcMechDwgViewMgmt
 90
     1024
280
     0
281
     0
  0
CLASS
  1
ACME_DATABASE
  2
AcMeDbDatabase
  3
AcMeServices
 90
     1024
280
     0
281
     0
  0
CLASS
  1
ACRFINSADJUSTERMGR
  2
AcRfInsAdjusterMgr
  3
AcMeServices
 90
     1024
280
     0
281
     0
  0
CLASS
  1
ACGREFACADMASTER
  2
AcGrefacadMaster
  3
AcGrefServices
 90
     1024
280
     0
281
     0
  0
CLASS
  1
AMDTMENUSTATEMGR
  2
AmdtMenuStateMgr
  3
McadcomServices
 90
     1024
280
     0
281
     0
  0
CLASS
  1
AMDTMCOMMENUSTATE
  2
AmdtMcomMenuState
  3
McadcomServices
 90
     1024
280
     0
281
     0
  0
CLASS
  1
AMIMASTER
  2
AmiMaster
  3
AmiServices
 90
     1024
280
     0
281
     0
  0
CLASS
  1
ASAPP
  2
AcAsAppObject
  3
AutoSurfServices
 90
     1024
280
     0
281
     0
  0
CLASS
  1
IM_STATIC_MAN
  2
AcImStaticVarManager
  3
AcMeServices
 90
     1024
280
     0
281
     0
  0
CLASS
  1
ACIMSTRSYSVAR
  2
AcImStrSysVar
  3
AcMeServices
 90
     1024
280
     0
281
     0
  0
CLASS
  1
ACIMDBLSTATICVAR
  2
AcImDblStaticVar
  3
AcMeServices
 90
     1024
280
     0
281
     0
  0
CLASS
  1
ACIMSTRSTATICVAR
  2
AcImStrStaticVar
  3
AcMeServices
 90
     1024
280
     0
281
     0
  0
CLASS
  1
ACIMINTSTATICVAR
  2
AcImIntStaticVar
  3
AcMeServices
 90
     1024
280
     0
281
     0
  0
CLASS
  1
ACASGREFMASTER
  2
AcAsGrefMaster
  3
AutoSurfResolverServices
 90
     1024
280
     0
281
     0
  0
CLASS
  1
ACADGREFMODULE
  2
AcAdGrefModule
  3
AdGrefServices
 90
     1024
280
     0
281
     0
  0
CLASS
  1
AMDTMAPISURFMOUDULE
  2
AmdtMApiSurfModule
  3
MApiSurfServices
 90
     1024
280
     0
281
     0
  0
CLASS
  1
MAPIAMMOUDLE
  2
MApiAmModule
  3
MApiAmServices
 90
     1024
280
     0
281
     0
  0
CLASS
  1
AMDTADMENUSTATE
  2
AmdtAdMenuState
  3
DesignerServices
 90
     1024
280
     0
281
     0
  0
CLASS
  1
ADAPPL
  2
AcAdAppl
  3
DesignerServices
 90
     1024
280
     0
281
     0
  0
CLASS
  1
DEPMGR
  2
AcAdDepMgr
  3
DesignerServices
 90
     1024
280
     0
281
     0
  0
CLASS
  1
PARAMMGR
  2
AcAdParamMgr
  3
DesignerServices
 90
     1024
280
     0
281
     0
  0
CLASS
  1
PARAMSCOPE
  2
AcAdParamScope
  3
DesignerServices
 90
     1024
280
     0
281
     0
  0
CLASS
  1
NAMEDAPPL
  2
AcAdNamedAppl
  3
DesignerServices
 90
     1024
280
     0
281
     0
  0
CLASS
  1
AMDTDMMENUSTATE
  2
AmdtDmMenuState
  3
AcMechDwgViewMgmt
 90
     1024
280
     0
281
     0
  0
CLASS
  1
MAPIADMODULE
  2
MApiAdModule
  3
MApiAdServices
 90
     1024
280
     0
281
     0
  0
CLASS
  1
AMDTAMMENUSTATE
  2
AmdtAmMenuState
  3
DesignerAssemblies
 90
     1024
280
     0
281
     0
  0
CLASS
  1
ACAMPROJECT
  2
AcAmProject
  3
DesignerAssemblies
 90
     1024
280
     0
281
     0
  0
CLASS
  1
ACAMGRCOMPDEF
  2
AcAmGrCompDef
  3
DesignerAssemblies
 90
     1024
280
     0
281
     0
  0
CLASS
  1
ACCMCONTEXT
  2
AcCmContext
  3
DesignerAssemblies
 90
     1024
280
     0
281
     0
  0
CLASS
  1
ACAMCOMPDEF
  2
AcAmCompDef
  3
DesignerAssemblies
 90
     1024
280
     0
281
     0
  0
CLASS
  1
ACAMCOMPDEFMGR
  2
AcAmCompDefMgr
  3
DesignerAssemblies
 90
     1024
280
     0
281
     0
  0
CLASS
  1
AMCONTEXTMGR
  2
AcAmContextMgr
  3
DesignerAssemblies
 90
     1024
280
     0
281
     0
  0
CLASS
  1
ACAMCONTEXTMODELER
  2
AcAmContextModeler
  3
DesignerAssemblies
 90
     1024
280
     0
281
     0
  0
CLASS
  1
ACMDATADICTIONARY
  2
AcmDataDictionary
  3
"AcmSymBB|Product Description: AutoCAD Mechanical|Company: Autodesk, Inc."
 90
     1024
280
     0
281
     0
  0
CLASS
  1
ACMDATAENTRYBLOCK
  2
AcmDataEntryBlock
  3
AcmSymBB|Product Description: AutoCAD Mechanical|Company: Autodesk, Inc.
 90
     1024
280
     0
281
     0
  0
CLASS
  1
ACRFATTGENMGR
  2
AcRfAttGeneralMgr
  3
AcAttribServices
 90
     1024
280
     0
281
     0
  0
CLASS
  1
ACRFOBJATTMGR
  2
AcRfObjAttGroupMgr
  3
AcAttribServices
 90
     1024
280
     0
281
     0
  0
CLASS
  1
ACRFMCADAPIATTHOLDER
  2
AcRfMCADAPIAttHolder
  3
AcAttribServices
 90
     1024
280
     0
281
     0
  0
CLASS
  1
AMDTSYSATTR
  2
AmdtSystemAttribute
  3
AcAttribServices
 90
     1024
280
     0
281
     0
  0
CLASS
  1
CATALOGSTATE
  2
AcAmCatalogState
  3
DesignerAssemblies
 90
     1024
280
     0
281
     0
  0
CLASS
  1
ACAMGRCOMPDEFSET
  2
AcAmGrCompDefSet
  3
DesignerAssemblies
 90
     1024
280
     0
281
     0
  0
CLASS
  1
AMDTBROWSERDBTAB
  2
AmdtBrowserDbTab
  3
McadcomServices
 90
     1024
280
     0
281
     0
  0
CLASS
  1
CBROWSERAPPOBJECT
  2
CBrowserAppObject
  3
McadcomServices
 90
     1024
280
     0
281
     0
  0
CLASS
  1
DM_PLACEHOLDER
  2
AcDmSelsetPlaceholder
  3
AcMechDwgViewMgmt
 90
     1024
280
     0
281
     0
  0
CLASS
  1
ACMSTANDARDANSI
  2
AcmStandardANSI
  3
"Amdt_StdImp|Product Description: AutoCAD Mechanical|Company: Autodesk, Inc."
 90
     1024
280
     0
281
     0
  0
CLASS
  1
ACMSURFSTANDARDANSI
  2
AcmSurfTextStdANSI
  3
"Amdt_StdImp|Product Description: AutoCAD Mechanical|Company: Autodesk, Inc."
 90
     1024
280
     0
281
     0
  0
CLASS
  1
ACMFCFSTANDARDANSI
  2
AcmFCFStdANSI
  3
"Amdt_StdImp|Product Description: AutoCAD Mechanical|Company: Autodesk, Inc."
 90
     1024
280
     0
281
     0
  0
CLASS
  1
ACMWELDSTANDARDANSI
  2
AcmWeldingStdANSI
  3
"Amdt_StdImp|Product Description: AutoCAD Mechanical|Company: Autodesk, Inc."
 90
     1024
280
     0
281
     0
  0
CLASS
  1
ACMIDSTANDARDANSI
  2
AcmIdStdANSI
  3
"Amdt_StdImp|Product Description: AutoCAD Mechanical|Company: Autodesk, Inc."
 90
     1024
280
     0
281
     0
  0
CLASS
  1
ACMDATUMSTANDARDANSI
  2
AcmDatumStdANSI
  3
"Amdt_StdImp|Product Description: AutoCAD Mechanical|Company: Autodesk, Inc."
 90
     1024
280
     0
281
     0
  0
CLASS
  1
ACMBOMSTANDARDANSI
  2
AcmBOMStdANSI
  3
"Amdt_StdImp|Product Description: AutoCAD Mechanical|Company: Autodesk, Inc."
 90
     1024
280
     0
281
     0
  0
CLASS
  1
ACMDETAILSTANDARDANSI
  2
AmdtDetailSymStdANSI
  3
"Amdt_StdImp|Product Description: AutoCAD Mechanical|Company: Autodesk, Inc."
 90
     1024
280
     0
281
     0
  0
CLASS
  1
ACMSECTIONSTANDARDANSI
  2
AmdtSectionSymStdANSI
  3
"Amdt_StdImp|Product Description: AutoCAD Mechanical|Company: Autodesk, Inc."
 90
     1024
280
     0
281
     0
  0
CLASS
  1
ACMCENTERLINESTANDARDANSI
  2
AmdtCenterLineStdANSI
  3
"Amdt_StdImp|Product Description: AutoCAD Mechanical|Company: Autodesk, Inc."
 90
     1024
280
     0
281
     0
  0
CLASS
  1
ACMTHREADLINESTANDARDANSI
  2
AmdtThreadLineStdANSI
  3
"Amdt_StdImp|Product Description: AutoCAD Mechanical|Company: Autodesk, Inc."
 90
     1024
280
     0
281
     0
  0
CLASS
  1
ACMNOTESTANDARDANSI
  2
AmdtNoteStdANSI
  3
"Amdt_StdImp|Product Description: AutoCAD Mechanical|Company: Autodesk, Inc."
 90
     1024
280
     0
281
     0
  0
CLASS
  1
ACMTAPERSTANDARDANSI
  2
AcmTaperStdANSI
  3
"Amdt_StdImp|Product Description: AutoCAD Mechanical|Company: Autodesk, Inc."
 90
     1024
280
     0
281
     0
  0
CLASS
  1
ACMANOOTATIONVIEWSTANDARDANSI
  2
AmdtAnViewStdANSI
  3
"Amdt_StdImp|Product Description: AutoCAD Mechanical|Company: Autodesk, Inc."
 90
     1024
280
     0
281
     0
  0
CLASS
  1
ACAMGLAYSTD
  2
AcAmgLayStd
  3
"AmgLay|Product Description: AutoCAD Mechanical|Company: Autodesk, Inc."
 90
     1024
280
     0
281
     0
  0
CLASS
  1
ACAMGDIMSTD
  2
AcAmgDimStd
  3
"AmgDim|Product Description: AutoCAD Mechanical|Company: Autodesk, Inc."
 90
     1024
280
     0
281
     0
  0
CLASS
  1
ACAMGHOLECHARTSTDANSI
  2
AcAmgHoleChartStdANSI
  3
AmgDim|Product Description: AutoCAD Mechanical|Company: Autodesk, Inc.
 90
     1024
280
     0
281
     0
  0
CLASS
  1
AMGOBJPROPCFG
  2
AmgObjPropCfg
  3
"AmgLay|Product Description: AutoCAD Mechanical|Company: Autodesk, Inc."
 90
     1025
280
     0
281
     0
  0
CLASS
  1
ACAMGTITLESTD
  2
AcAmgTitleStd
  3
"AmgTitle|Product Description: AutoCAD Mechanical|Company: Autodesk, Inc."
 90
     4095
280
     0
281
     0
  0
CLASS
  1
AMDTNOTETEMPLATEDB
  2
AmdtNoteTemplateDB
  3
AcmSymBB|Product Description: AutoCAD Mechanical|Company: Autodesk, Inc.
 90
     1024
280
     0
281
     0
  0
CLASS
  1
LAYER_INDEX
  2
AcDbLayerIndex
  3
ObjectDBX Classes
 90
        0
280
     0
281
     0
  0
CLASS
  1
IDBUFFER
  2
AcDbIdBuffer
  3
ObjectDBX Classes
 90
        0
280
     0
281
     0
  0
CLASS
  1
DICTIONARYVAR
  2
AcDbDictionaryVar
  3
ObjectDBX Classes
 90
        0
280
     0
281
     0
  0
CLASS
  1
CELLSTYLEMAP
  2
AcDbCellStyleMap
  3
ObjectDBX Classes
 90
     1152
280
     0
281
     0
  0
CLASS
  1
ACDBPLACEHOLDER
  2
AcDbPlaceHolder
  3
ObjectDBX Classes
 90
        0
280
     0
281
     0
  0
CLASS
  1
LAYOUT
  2
AcDbLayout
  3
ObjectDBX Classes
 90
        0
280
     0
281
     0
  0
ENDSEC
  0
SECTION
  2
TABLES
  0
TABLE
  2
VPORT
  5
30D8
330
0
100
AcDbSymbolTable
 70
     1
  0
VPORT
  5
3148
330
30D8
100
AcDbSymbolTableRecord
100
AcDbViewportTableRecord
  2
*ACTIVE
 70
     0
 10
0.0
 20
0.0
 11
1.0
 21
1.0
 12
0.0
 22
0.0
 13
0.0
 23
0.0
 14
1.0
 24
1.0
 15
0.0
 25
0.0
 16
0.0
 26
0.0
 36
1.0
 17
134.5962664282364
 27
-348.3123685562895
 37
0.0
 40
1846.919293039798
 41
1.712555066079295
 42
50.0
 43
0.0
 44
0.0
 50
0.0
 51
0.0
 71
     0
 72
   100
 73
     1
 74
     0
 75
     0
 76
     0
 77
     0
 78
     0
281
     0
 65
     0
110
0.0
120
0.0
130
0.0
111
1.0
121
0.0
131
0.0
112
0.0
122
1.0
132
0.0
 79
     0
146
0.0
  0
ENDTAB
  0
TABLE
  2
LTYPE
  5
30D5
330
0
100
AcDbSymbolTable
 70
    20
  0
LTYPE
  5
3132
330
30D5
100
AcDbSymbolTableRecord
100
AcDbLinetypeTableRecord
  2
ByBlock
 70
     0
  3

 72
    65
 73
     0
 40
0.0
  0
LTYPE
  5
3133
330
30D5
100
AcDbSymbolTableRecord
100
AcDbLinetypeTableRecord
  2
ByLayer
 70
     0
  3

 72
    65
 73
     0
 40
0.0
  0
LTYPE
  5
3134
330
30D5
100
AcDbSymbolTableRecord
100
AcDbLinetypeTableRecord
  2
CONTINUOUS
 70
     0
  3
実線
 72
    65
 73
     0
 40
0.0
  0
LTYPE
  5
3149
330
30D5
100
AcDbSymbolTableRecord
100
AcDbLinetypeTableRecord
  2
DASHDOT
 70
     0
  3
____ _ ____ _ ____ _ ____ _ ____ _ ____ _ ____
 72
    65
 73
     4
 40
5.5
 49
4.0
 74
     0
 49
-0.6
 74
     0
 49
0.3
 74
     0
 49
-0.6
 74
     0
  0
LTYPE
  5
314A
330
30D5
100
AcDbSymbolTableRecord
100
AcDbLinetypeTableRecord
  2
HIDDEN
 70
     0
  3
Hidden __ __ __ __ __ __ __ __ __ __ __ __ __ _
 72
    65
 73
     2
 40
0.375
 49
0.25
 74
     0
 49
-0.125
 74
     0
  0
LTYPE
  5
314B
330
30D5
100
AcDbSymbolTableRecord
100
AcDbLinetypeTableRecord
  2
PHANTOM2
 70
     0
  3
Phantom (.5x) ___ _ _ ___ _ _ ___ _ _ ___ _ _
 72
    65
 73
     6
 40
1.25
 49
0.625
 74
     0
 49
-0.125
 74
     0
 49
0.125
 74
     0
 49
-0.125
 74
     0
 49
0.125
 74
     0
 49
-0.125
 74
     0
  0
LTYPE
  5
314C
330
30D5
100
AcDbSymbolTableRecord
100
AcDbLinetypeTableRecord
  2
CENTER
 70
     0
  3
Center ____ _ ____ _ ____ _ ____ _ ____ _ ____
 72
    65
 73
     4
 40
2.0
 49
1.25
 74
     0
 49
-0.25
 74
     0
 49
0.25
 74
     0
 49
-0.25
 74
     0
  0
LTYPE
  5
314D
330
30D5
100
AcDbSymbolTableRecord
100
AcDbLinetypeTableRecord
  2
ASULTYPE
 70
     0
  3
実線
 72
    65
 73
     2
 40
3.0
 49
2.5
 74
     0
 49
0.5
 74
     0
  0
LTYPE
  5
314E
330
30D5
100
AcDbSymbolTableRecord
100
AcDbLinetypeTableRecord
  2
ASVLTYPE
 70
     0
  3
__ __ __ __ __ __ __ __ __ __ __ __ __ __ __ __ __ __ __ __ __
 72
    65
 73
     2
 40
0.75
 49
0.5
 74
     0
 49
-0.25
 74
     0
  0
LTYPE
  5
314F
330
30D5
100
AcDbSymbolTableRecord
100
AcDbLinetypeTableRecord
  2
AM_ISO02W050
 70
     0
  3
__ __ __ __ __ __ __ __ __ __ __ __ __ __ __
 72
    65
 73
     2
 40
7.5
 49
6.0
 74
     0
 49
-1.5
 74
     0
  0
LTYPE
  5
3150
330
30D5
100
AcDbSymbolTableRecord
100
AcDbLinetypeTableRecord
  2
AM_ISO08W050
 70
     0
  3
____ . ____ . ____ . ____ . ____ . ____ . ____
 72
    65
 73
     4
 40
18.0
 49
12.0
 74
     0
 49
-1.5
 74
     0
 49
3.0
 74
     0
 49
-1.5
 74
     0
  0
LTYPE
  5
3151
330
30D5
100
AcDbSymbolTableRecord
100
AcDbLinetypeTableRecord
  2
AM_ISO09W050
 70
     0
  3
_____ . . _____ . . _____ . . ____ .. ____
 72
    65
 73
     6
 40
22.5
 49
12.0
 74
     0
 49
-1.5
 74
     0
 49
3.0
 74
     0
 49
-1.5
 74
     0
 49
3.0
 74
     0
 49
-1.5
 74
     0
  0
LTYPE
  5
3152
330
30D5
100
AcDbSymbolTableRecord
100
AcDbLinetypeTableRecord
  2
AMCONSTR
 70
     0
  3
_______________________
 72
    65
 73
     2
 40
9999.0
 49
9999.0
 74
     0
 49
0.0
 74
     0
  0
LTYPE
  5
3153
330
30D5
100
AcDbSymbolTableRecord
100
AcDbLinetypeTableRecord
  2
AM_ISO08W050X2
 70
     0
  3
__ . __ . __ . __ . __ . __
 72
    65
 73
     4
 40
9.0
 49
6.0
 74
     0
 49
-0.75
 74
     0
 49
1.5
 74
     0
 49
-0.75
 74
     0
  0
LTYPE
  5
3154
330
30D5
100
AcDbSymbolTableRecord
100
AcDbLinetypeTableRecord
  2
AM_ISO02W050X2
 70
     0
  3
 _ _ _ _ _ _ _ _ _ _ _ _
 72
    65
 73
     2
 40
3.75
 49
3.0
 74
     0
 49
-0.75
 74
     0
  0
LTYPE
  5
3155
330
30D5
100
AcDbSymbolTableRecord
100
AcDbLinetypeTableRecord
  2
AMZIGZAG
 70
     0
  3
/\/-/\/-/\/-/\/-/\/-/\/
 72
    65
 73
     2
 40
11.0001
 49
0.0001
 74
     0
 49
-11.0
 74
     0
  0
LTYPE
  5
3156
330
30D5
100
AcDbSymbolTableRecord
100
AcDbLinetypeTableRecord
  2
CENTER2
 70
     0
  3
Center (.5x) ___ _ ___ _ ___ _ ___ _ ___ _ ___
 72
    65
 73
     4
 40
1.125
 49
0.75
 74
     0
 49
-0.125
 74
     0
 49
0.125
 74
     0
 49
-0.125
 74
     0
  0
LTYPE
  5
3157
330
30D5
100
AcDbSymbolTableRecord
100
AcDbLinetypeTableRecord
  2
HIDDEN2
 70
     0
  3
Hidden (.5x) _ _ _ _ _ _ _ _ _ _ _ _ _ _ _ _ _
 72
    65
 73
     2
 40
0.1875
 49
0.125
 74
     0
 49
-0.0625
 74
     0
  0
LTYPE
  5
3158
330
30D5
100
AcDbSymbolTableRecord
100
AcDbLinetypeTableRecord
  2
AMZIGZAG2
 70
     0
  3
/\/-/\/-/\/-/\/-/\/-/\/
 72
    65
 73
     2
 40
0.4401
 49
0.0001
 74
     0
 49
-0.4400000000000003
 74
     0
  0
LTYPE
  5
3159
330
30D5
100
AcDbSymbolTableRecord
100
AcDbLinetypeTableRecord
  2
ACANSTGB
 70
     0
  3
__ . . __ . .
 72
    65
 73
     6
 40
0.35433070866
 49
0.15748031496
 74
     0
 49
-0.03937007874
 74
     0
 49
0.03937007874
 74
     0
 49
-0.03937007874
 74
     0
 49
0.03937007874
 74
     0
 49
-0.03937007874
 74
     0
  0
LTYPE
  5
315A
330
30D5
100
AcDbSymbolTableRecord
100
AcDbLinetypeTableRecord
  2
ACANSTGL
 70
     0
  3
_ _ _ _ _
 72
    65
 73
     2
 40
0.11811023622
 49
0.07874015748
 74
     0
 49
-0.03937007874
 74
     0
  0
LTYPE
  5
315B
330
30D5
100
AcDbSymbolTableRecord
100
AcDbLinetypeTableRecord
  2
CENTERX2
 70
     0
  3
________  __  ________  __  ________  __  _____
 72
    65
 73
     4
 40
4.0
 49
2.5
 74
     0
 49
-0.5
 74
     0
 49
0.5
 74
     0
 49
-0.5
 74
     0
  0
ENDTAB
  0
TABLE
  2
LAYER
  5
30D2
330
0
100
AcDbSymbolTable
 70
    14
  0
LAYER
  5
312C
102
{ACAD_XDICTIONARY
360
329D
102
}
330
30D2
100
AcDbSymbolTableRecord
100
AcDbLayerTableRecord
  2
0
 70
     0
 62
     7
  6
CONTINUOUS
370
    -3
390
30DF
  0
LAYER
  5
315C
102
{ACAD_XDICTIONARY
360
329F
102
}
330
30D2
100
AcDbSymbolTableRecord
100
AcDbLayerTableRecord
  2
OUTLINE
 70
     0
 62
     3
  6
CONTINUOUS
370
    -3
390
30DF
  0
LAYER
  5
315D
102
{ACAD_XDICTIONARY
360
32A1
102
}
330
30D2
100
AcDbSymbolTableRecord
100
AcDbLayerTableRecord
  2
SIZE
 70
     0
 62
    30
  6
CONTINUOUS
370
    -3
390
30DF
  0
LAYER
  5
315E
102
{ACAD_XDICTIONARY
360
32A3
102
}
330
30D2
100
AcDbSymbolTableRecord
100
AcDbLayerTableRecord
  2
BASIS
 70
     0
 62
     6
  6
DASHDOT
370
    -3
390
30DF
  0
LAYER
  5
315F
102
{ACAD_XDICTIONARY
360
32A5
102
}
330
30D2
100
AcDbSymbolTableRecord
100
AcDbLayerTableRecord
  2
DETAIL
 70
     0
 62
     5
  6
CONTINUOUS
370
    -3
390
30DF
  0
LAYER
  5
3160
102
{ACAD_XDICTIONARY
360
32A7
102
}
330
30D2
100
AcDbSymbolTableRecord
100
AcDbLayerTableRecord
  2
ARRANGE
 70
     0
 62
     1
  6
CONTINUOUS
370
    -3
390
30DF
  0
LAYER
  5
3161
330
30D2
100
AcDbSymbolTableRecord
100
AcDbLayerTableRecord
  2
DEFPOINTS
 70
     0
 62
     7
  6
CONTINUOUS
290
     0
370
    -3
390
30DF
  0
LAYER
  5
3162
102
{ACAD_XDICTIONARY
360
32A9
102
}
330
30D2
100
AcDbSymbolTableRecord
100
AcDbLayerTableRecord
  2
ETC
 70
     0
 62
    61
  6
CONTINUOUS
370
    -3
390
30DF
  0
LAYER
  5
3163
102
{ACAD_XDICTIONARY
360
32AB
102
}
330
30D2
100
AcDbSymbolTableRecord
100
AcDbLayerTableRecord
  2
FIX
 70
     0
 62
    11
  6
CONTINUOUS
370
    -3
390
30DF
  0
LAYER
  5
3164
102
{ACAD_XDICTIONARY
360
32AD
102
}
330
30D2
100
AcDbSymbolTableRecord
100
AcDbLayerTableRecord
  2
NOTE
 70
     0
 62
     4
  6
CONTINUOUS
370
    -3
390
30DF
  0
LAYER
  5
3165
102
{ACAD_XDICTIONARY
360
32AF
102
}
330
30D2
100
AcDbSymbolTableRecord
100
AcDbLayerTableRecord
  2
SERVICESPACE
 70
     0
 62
     2
  6
DASHDOT
370
    -3
390
30DF
  0
LAYER
  5
3166
102
{ACAD_XDICTIONARY
360
32B1
102
}
330
30D2
100
AcDbSymbolTableRecord
100
AcDbLayerTableRecord
  2
SYMBOLLINE
 70
     0
 62
    15
  6
CONTINUOUS
370
    -3
390
30DF
  0
LAYER
  5
3167
102
{ACAD_XDICTIONARY
360
32B3
102
}
330
30D2
100
AcDbSymbolTableRecord
100
AcDbLayerTableRecord
  2
BASIC
 70
     0
 62
     6
  6
CENTERX2
370
    -3
390
30DF
  0
LAYER
  5
3168
102
{ACAD_XDICTIONARY
360
32B5
102
}
330
30D2
100
AcDbSymbolTableRecord
100
AcDbLayerTableRecord
  2
DETAIL___1
 70
     0
 62
     5
  6
CONTINUOUS
370
    -3
390
30DF
  0
ENDTAB
  0
TABLE
  2
STYLE
  5
30D3
330
0
100
AcDbSymbolTable
 70
     5
  0
STYLE
  5
312D
330
30D3
100
AcDbSymbolTableRecord
100
AcDbTextStyleTableRecord
  2
STANDARD
 70
     0
 40
64.0
 41
0.9
 50
0.0
 71
     0
 42
64.0
  3
SIMPLEX.shx
  4
BIGFONT.shx
  0
STYLE
  5
3131
330
30D3
100
AcDbSymbolTableRecord
100
AcDbTextStyleTableRecord
  2
ANNOTATIVE
 70
     0
 40
0.0
 41
1.0
 50
0.0
 71
     0
 42
0.2
  3
txt
  4

1001
ACADANNOTATIVE
1000
AnnotativeData
1002
{
1070
     1
1070
     1
1002
}
  0
STYLE
  5
3169
330
30D3
100
AcDbSymbolTableRecord
100
AcDbTextStyleTableRecord
  2

 70
     1
 40
0.0
 41
1.0
 50
0.0
 71
     0
 42
64.0
  3
genltshp.shx
  4

  0
STYLE
  5
316A
330
30D3
100
AcDbSymbolTableRecord
100
AcDbTextStyleTableRecord
  2
ACANSTS
 70
     0
 40
1.0
 41
1.0
 50
0.0
 71
     0
 42
64.0
  3
romans.shx
  4
extfont.shx
  0
STYLE
  5
316B
330
30D3
100
AcDbSymbolTableRecord
100
AcDbTextStyleTableRecord
  2
ACANSGDT
 70
     0
 40
0.0
 41
1.0
 50
0.0
 71
     0
 42
64.0
  3
amgdt.shx
  4

  0
ENDTAB
  0
TABLE
  2
VIEW
  5
30D6
330
0
100
AcDbSymbolTable
 70
     1
  0
VIEW
  5
316C
330
30D6
100
AcDbSymbolTableRecord
100
AcDbViewTableRecord
  2
ALL
 70
     0
 40
4282.619807999997
 10
0.0
 20
41.30990399999999
 41
5940.0
 11
0.0
 21
0.0
 31
1.0
 12
0.0
 22
0.0
 32
0.0
 42
50.0
 43
0.0
 44
0.0
 50
0.0
 71
     0
281
     0
 72
     1
110
0.0
120
0.0
130
0.0
111
1.0
121
0.0
131
0.0
112
0.0
122
1.0
132
0.0
 79
     0
146
0.0
  0
ENDTAB
  0
TABLE
  2
UCS
  5
30D7
330
0
100
AcDbSymbolTable
 70
     0
  0
ENDTAB
  0
TABLE
  2
APPID
  5
30D9
330
0
100
AcDbSymbolTable
 70
    30
  0
APPID
  5
312E
330
30D9
100
AcDbSymbolTableRecord
100
AcDbRegAppTableRecord
  2
ACAD
 70
     0
  0
APPID
  5
3135
330
30D9
100
AcDbSymbolTableRecord
100
AcDbRegAppTableRecord
  2
ACADANNOTATIVE
 70
     0
  0
APPID
  5
313F
330
30D9
100
AcDbSymbolTableRecord
100
AcDbRegAppTableRecord
  2
ACAD_MLEADERVER
 70
     0
  0
APPID
  5
316D
330
30D9
100
AcDbSymbolTableRecord
100
AcDbRegAppTableRecord
  2
GENIUS_GENDIM_13
 70
     0
  0
APPID
  5
316E
330
30D9
100
AcDbSymbolTableRecord
100
AcDbRegAppTableRecord
  2
GENIUS_GENDTOL_13
 70
     0
  0
APPID
  5
316F
330
30D9
100
AcDbSymbolTableRecord
100
AcDbRegAppTableRecord
  2
GENIUS_GE3DTOL_13
 70
     0
  0
APPID
  5
3170
330
30D9
100
AcDbSymbolTableRecord
100
AcDbRegAppTableRecord
  2
MCAD_NO_VIS
 70
     0
  0
APPID
  5
3171
330
30D9
100
AcDbSymbolTableRecord
100
AcDbRegAppTableRecord
  2
ACAD_TEMP_GRAPHIC
 70
     0
  0
APPID
  5
3172
330
30D9
100
AcDbSymbolTableRecord
100
AcDbRegAppTableRecord
  2
AD_DRAW
 70
     0
  0
APPID
  5
3173
330
30D9
100
AcDbSymbolTableRecord
100
AcDbRegAppTableRecord
  2
ACATTRIBSERVICES
 70
     0
  0
APPID
  5
3174
330
30D9
100
AcDbSymbolTableRecord
100
AcDbRegAppTableRecord
  2
ASURF_PCURVE_APPNAME
 70
     0
  0
APPID
  5
3175
330
30D9
100
AcDbSymbolTableRecord
100
AcDbRegAppTableRecord
  2
AMG_3D2D_5_0
 70
     0
  0
APPID
  5
3176
330
30D9
100
AcDbSymbolTableRecord
100
AcDbRegAppTableRecord
  2
DESIGNERASSEMBLIES
 70
     0
  0
APPID
  5
3177
330
30D9
100
AcDbSymbolTableRecord
100
AcDbRegAppTableRecord
  2
ACADM_DIM_EDIT
 70
     0
  0
APPID
  5
3178
330
30D9
100
AcDbSymbolTableRecord
100
AcDbRegAppTableRecord
  2
AMDT_DM_ADJ
 70
     0
  0
APPID
  5
3179
330
30D9
100
AcDbSymbolTableRecord
100
AcDbRegAppTableRecord
  2
ACAD_DSTYLE_DIMARC_LENGTH_
 70
     0
  0
APPID
  5
317A
330
30D9
100
AcDbSymbolTableRecord
100
AcDbRegAppTableRecord
  2
ACAD_DSTYLE_DIMJOGGED_JOGA
 70
     0
  0
APPID
  5
317B
330
30D9
100
AcDbSymbolTableRecord
100
AcDbRegAppTableRecord
  2
ACAD_PSEXT
 70
     0
  0
APPID
  5
317C
330
30D9
100
AcDbSymbolTableRecord
100
AcDbRegAppTableRecord
  2
ACAD_EXEMPT_FROM_CAD_STANDARDS
 70
     0
  0
APPID
  5
317D
330
30D9
100
AcDbSymbolTableRecord
100
AcDbRegAppTableRecord
  2
ACAD_DSTYLE_DIMJAG
 70
     0
  0
APPID
  5
317E
330
30D9
100
AcDbSymbolTableRecord
100
AcDbRegAppTableRecord
  2
ACAD_DSTYLE_DIMTALN
 70
     0
  0
APPID
  5
317F
330
30D9
100
AcDbSymbolTableRecord
100
AcDbRegAppTableRecord
  2
AMG_3D2D_5_00
 70
     0
  0
APPID
  5
3180
330
30D9
100
AcDbSymbolTableRecord
100
AcDbRegAppTableRecord
  2
AMG_3D2D_5_01
 70
     0
  0
APPID
  5
3181
330
30D9
100
AcDbSymbolTableRecord
100
AcDbRegAppTableRecord
  2
AMG_3D2D_5_02
 70
     0
  0
APPID
  5
3182
330
30D9
100
AcDbSymbolTableRecord
100
AcDbRegAppTableRecord
  2
AMG_3D2D_5_03
 70
     0
  0
APPID
  5
3244
330
30D9
100
AcDbSymbolTableRecord
100
AcDbRegAppTableRecord
  2
AMG_3D2D_5.0
 70
     0
  0
APPID
  5
32E0
330
30D9
100
AcDbSymbolTableRecord
100
AcDbRegAppTableRecord
  2
ACAD_DSTYLE_DIMARC_LENGTH_SYMBOL
 70
     0
  0
APPID
  5
32E1
330
30D9
100
AcDbSymbolTableRecord
100
AcDbRegAppTableRecord
  2
ACAD_DSTYLE_DIM_LINETYPE
 70
     0
  0
APPID
  5
32E2
330
30D9
100
AcDbSymbolTableRecord
100
AcDbRegAppTableRecord
  2
ACAD_DSTYLE_DIM_EXT1_LINETYPE
 70
     0
  0
APPID
  5
32E3
330
30D9
100
AcDbSymbolTableRecord
100
AcDbRegAppTableRecord
  2
ACAD_DSTYLE_DIM_EXT2_LINETYPE
 70
     0
  0
ENDTAB
  0
TABLE
  2
DIMSTYLE
  5
30DA
330
0
100
AcDbSymbolTable
 70
    10
100
AcDbDimStyleTable
 71
     1
340
3183
  0
DIMSTYLE
105
312F
330
30DA
100
AcDbSymbolTableRecord
100
AcDbDimStyleTableRecord
  2
STANDARD
 70
     0
 41
12.0
 42
20.0
 44
20.0
 77
     1
 78
     8
140
64.0
141
0.0
147
10.0
172
     1
275
     1
279
     2
284
     7
285
     7
286
     7
340
312D
  0
DIMSTYLE
105
3130
330
30DA
100
AcDbSymbolTableRecord
100
AcDbDimStyleTableRecord
  2
ANNOTATIVE
 70
     0
275
     1
279
     2
284
     7
285
     7
286
     7
340
312D
1001
ACADANNOTATIVE
1000
AnnotativeData
1002
{
1070
     1
1070
     1
1002
}
  0
DIMSTYLE
105
3183
330
30DA
100
AcDbSymbolTableRecord
100
AcDbDimStyleTableRecord
  2
AM_ANSI
 70
     0
  4
mm
 41
0.12
 42
0.05
 43
0.5
 44
0.1
 47
0.1
 48
0.1
 78
     7
 79
     2
140
0.12
141
0.0
146
0.71
147
0.06
176
   256
177
   256
178
     2
274
     4
284
     7
340
312D
371
    -1
372
    -1
1001
ACAD_DSTYLE_DIMARC_LENGTH_SYMBOL
1070
   379
1070
     1
1001
ACAD_DSTYLE_DIM_LINETYPE
1070
   380
1005
3132
1001
ACAD_DSTYLE_DIM_EXT1_LINETYPE
1070
   381
1005
3132
1001
ACAD_DSTYLE_DIM_EXT2_LINETYPE
1070
   382
1005
3132
  0
DIMSTYLE
105
3184
330
30DA
100
AcDbSymbolTableRecord
100
AcDbDimStyleTableRecord
  2
AM_ANSI$3
 70
     0
  4
mm
 41
0.12
 42
0.05
 43
0.5
 44
0.1
 47
0.1
 48
0.1
 78
     7
 79
     2
140
0.12
141
0.0
146
0.71
147
0.06
176
   256
177
   256
178
     2
274
     4
284
     7
288
     1
289
     0
340
312D
371
    -1
372
    -1
1001
ACAD_DSTYLE_DIMARC_LENGTH_SYMBOL
1070
   379
1070
     1
1001
ACAD_DSTYLE_DIM_LINETYPE
1070
   380
1005
3132
1001
ACAD_DSTYLE_DIM_EXT1_LINETYPE
1070
   381
1005
3132
1001
ACAD_DSTYLE_DIM_EXT2_LINETYPE
1070
   382
1005
3132
  0
DIMSTYLE
105
3185
330
30DA
100
AcDbSymbolTableRecord
100
AcDbDimStyleTableRecord
  2
AM_ANSI$4
 70
     0
  4
mm
 41
0.12
 42
0.05
 43
0.5
 44
0.1
 47
0.1
 48
0.1
 78
     7
 79
     2
140
0.12
141
0.0
146
0.71
147
0.06
176
   256
177
   256
178
     2
274
     4
284
     7
340
312D
371
    -1
372
    -1
1001
ACAD_DSTYLE_DIMARC_LENGTH_SYMBOL
1070
   379
1070
     1
1001
ACAD_DSTYLE_DIM_LINETYPE
1070
   380
1005
3132
1001
ACAD_DSTYLE_DIM_EXT1_LINETYPE
1070
   381
1005
3132
1001
ACAD_DSTYLE_DIM_EXT2_LINETYPE
1070
   382
1005
3132
  0
DIMSTYLE
105
3186
330
30DA
100
AcDbSymbolTableRecord
100
AcDbDimStyleTableRecord
  2
AM_ANSI$7
 70
     0
  4
mm
 41
0.12
 42
0.05
 43
0.5
 44
0.1
 47
0.1
 48
0.1
 78
     7
 79
     2
140
0.12
141
0.0
146
0.71
147
0.06
176
   256
177
   256
178
     2
274
     4
284
     7
340
312D
371
    -1
372
    -1
1001
ACAD_DSTYLE_DIMARC_LENGTH_SYMBOL
1070
   379
1070
     1
1001
ACAD_DSTYLE_DIM_LINETYPE
1070
   380
1005
3132
1001
ACAD_DSTYLE_DIM_EXT1_LINETYPE
1070
   381
1005
3132
1001
ACAD_DSTYLE_DIM_EXT2_LINETYPE
1070
   382
1005
3132
  0
DIMSTYLE
105
3187
330
30DA
100
AcDbSymbolTableRecord
100
AcDbDimStyleTableRecord
  2
AM_ANSI$SF
 70
     0
  4
mm
 41
0.12
 42
0.05
 43
0.5
 44
0.1
 47
0.1
 48
0.1
 75
     1
 76
     1
 78
     7
 79
     2
140
0.12
141
0.0
146
0.71
147
0.06
176
   256
177
   256
178
     2
274
     4
284
     7
340
312D
371
    -1
372
    -1
1001
ACAD_DSTYLE_DIMARC_LENGTH_SYMBOL
1070
   379
1070
     1
1001
ACAD_DSTYLE_DIM_LINETYPE
1070
   380
1005
3132
1001
ACAD_DSTYLE_DIM_EXT1_LINETYPE
1070
   381
1005
3132
1001
ACAD_DSTYLE_DIM_EXT2_LINETYPE
1070
   382
1005
3132
  0
DIMSTYLE
105
3188
330
30DA
100
AcDbSymbolTableRecord
100
AcDbDimStyleTableRecord
  2
AM_ANSI$SH
 70
     0
  4
mm
 41
0.12
 42
0.05
 43
0.5
 44
0.1
 47
0.1
 48
0.1
 75
     1
 76
     1
 78
     7
 79
     2
140
0.12
141
0.0
146
0.71
147
0.06
173
     1
176
   256
177
   256
178
     2
274
     4
284
     7
340
312D
343
319C
371
    -1
372
    -1
1001
ACAD_DSTYLE_DIMARC_LENGTH_SYMBOL
1070
   379
1070
     1
1001
ACAD_DSTYLE_DIM_LINETYPE
1070
   380
1005
3132
1001
ACAD_DSTYLE_DIM_EXT1_LINETYPE
1070
   381
1005
3132
1001
ACAD_DSTYLE_DIM_EXT2_LINETYPE
1070
   382
1005
3132
  0
DIMSTYLE
105
3189
330
30DA
100
AcDbSymbolTableRecord
100
AcDbDimStyleTableRecord
  2
STANDARD1
 70
     0
 40
6.0
 41
2.5
 42
0.625
 43
6.0
 44
1.25
 47
1.0
 48
0.5
 77
     1
 78
     8
140
2.5
141
0.0
146
0.6
147
1.0
173
     1
275
     1
279
     2
284
     7
285
     7
286
     7
340
312D
  0
DIMSTYLE
105
318A
330
30DA
100
AcDbSymbolTableRecord
100
AcDbDimStyleTableRecord
  2
STANDARD$0
 70
     0
 41
12.0
 42
20.0
 44
20.0
 73
     0
 74
     0
 77
     1
 78
     8
140
64.0
141
0.0
147
10.0
172
     1
275
     1
279
     2
284
     7
285
     7
286
     7
340
312D
  0
ENDTAB
  0
TABLE
  2
BLOCK_RECORD
  5
30D1
330
0
100
AcDbSymbolTable
 70
    25
  0
BLOCK_RECORD
  5
3144
102
{ACAD_XDICTIONARY
360
32B7
102
}
330
30D1
100
AcDbSymbolTableRecord
100
AcDbBlockTableRecord
  2
*Model_Space
340
3147
  0
BLOCK_RECORD
  5
3140
330
30D1
100
AcDbSymbolTableRecord
100
AcDbBlockTableRecord
  2
*Paper_Space
340
3143
  0
BLOCK_RECORD
  5
3192
330
30D1
100
AcDbSymbolTableRecord
100
AcDbBlockTableRecord
  2
$MODEL_SPACE
340
0
  0
BLOCK_RECORD
  5
3194
330
30D1
100
AcDbSymbolTableRecord
100
AcDbBlockTableRecord
  2
$PAPER_SPACE
340
0
  0
BLOCK_RECORD
  5
3196
330
30D1
100
AcDbSymbolTableRecord
100
AcDbBlockTableRecord
  2
_ORIGIN
340
0
  0
BLOCK_RECORD
  5
3198
330
30D1
100
AcDbSymbolTableRecord
100
AcDbBlockTableRecord
  2
_DOTBLANK
340
0
102
{BLKREFS
331
202C
331
202D
331
2035
331
2036
331
203E
331
203F
331
2047
331
2048
331
2052
331
2053
331
205D
331
205E
331
3065
331
3066
331
306A
331
306B
331
306F
331
3070
331
3076
331
3077
331
307B
331
307C
331
3080
331
3081
102
}
  0
BLOCK_RECORD
  5
319A
330
30D1
100
AcDbSymbolTableRecord
100
AcDbBlockTableRecord
  2
_OPEN30
340
0
102
{BLKREFS
331
2199
331
2586
331
3089
102
}
  0
BLOCK_RECORD
  5
319C
330
30D1
100
AcDbSymbolTableRecord
100
AcDbBlockTableRecord
  2
GENAXEH
340
0
  0
BLOCK_RECORD
  5
319E
330
30D1
100
AcDbSymbolTableRecord
100
AcDbBlockTableRecord
  2
*U6
340
0
  0
BLOCK_RECORD
  5
31A0
330
30D1
100
AcDbSymbolTableRecord
100
AcDbBlockTableRecord
  2
*D7
340
0
  0
BLOCK_RECORD
  5
31A2
330
30D1
100
AcDbSymbolTableRecord
100
AcDbBlockTableRecord
  2
*U8
340
0
102
{BLKREFS
331
202E
102
}
  0
BLOCK_RECORD
  5
31A4
330
30D1
100
AcDbSymbolTableRecord
100
AcDbBlockTableRecord
  2
*D9
340
0
  0
BLOCK_RECORD
  5
31A6
330
30D1
100
AcDbSymbolTableRecord
100
AcDbBlockTableRecord
  2
*U10
340
0
102
{BLKREFS
331
2037
102
}
  0
BLOCK_RECORD
  5
31A8
330
30D1
100
AcDbSymbolTableRecord
100
AcDbBlockTableRecord
  2
*D11
340
0
  0
BLOCK_RECORD
  5
31AA
330
30D1
100
AcDbSymbolTableRecord
100
AcDbBlockTableRecord
  2
*U12
340
0
102
{BLKREFS
331
2040
102
}
  0
BLOCK_RECORD
  5
31AC
330
30D1
100
AcDbSymbolTableRecord
100
AcDbBlockTableRecord
  2
*D13
340
0
  0
BLOCK_RECORD
  5
31AE
330
30D1
100
AcDbSymbolTableRecord
100
AcDbBlockTableRecord
  2
*U14
340
0
102
{BLKREFS
331
2049
102
}
  0
BLOCK_RECORD
  5
31B0
330
30D1
100
AcDbSymbolTableRecord
100
AcDbBlockTableRecord
  2
*D15
340
0
  0
BLOCK_RECORD
  5
31B2
330
30D1
100
AcDbSymbolTableRecord
100
AcDbBlockTableRecord
  2
*U16
340
0
102
{BLKREFS
331
2054
102
}
  0
BLOCK_RECORD
  5
31B4
330
30D1
100
AcDbSymbolTableRecord
100
AcDbBlockTableRecord
  2
*D17
340
0
  0
BLOCK_RECORD
  5
31B6
330
30D1
100
AcDbSymbolTableRecord
100
AcDbBlockTableRecord
  2
*U18
340
0
102
{BLKREFS
331
205F
102
}
  0
BLOCK_RECORD
  5
31B8
330
30D1
100
AcDbSymbolTableRecord
100
AcDbBlockTableRecord
  2
*U19
340
0
  0
BLOCK_RECORD
  5
31BA
330
30D1
100
AcDbSymbolTableRecord
100
AcDbBlockTableRecord
  2
*U20
340
0
  0
BLOCK_RECORD
  5
31BC
330
30D1
100
AcDbSymbolTableRecord
100
AcDbBlockTableRecord
  2
*U21
340
0
  0
BLOCK_RECORD
  5
31BE
330
30D1
100
AcDbSymbolTableRecord
100
AcDbBlockTableRecord
  2
*X22
340
0
102
{BLKREFS
331
3050
102
}
  0
BLOCK_RECORD
  5
31C0
330
30D1
100
AcDbSymbolTableRecord
100
AcDbBlockTableRecord
  2
*X23
340
0
102
{BLKREFS
331
3051
102
}
  0
ENDTAB
  0
ENDSEC
  0
SECTION
  2
BLOCKS
  0
BLOCK
  5
3145
330
3144
100
AcDbEntity
  8
0
100
AcDbBlockBegin
  2
*Model_Space
 70
     0
 10
0.0
 20
0.0
 30
0.0
  3
*Model_Space
  1

  0
ENDBLK
  5
3146
330
3144
100
AcDbEntity
  8
0
100
AcDbBlockEnd
  0
BLOCK
  5
3141
330
3140
100
AcDbEntity
 67
     1
  8
0
100
AcDbBlockBegin
  2
*Paper_Space
 70
     0
 10
0.0
 20
0.0
 30
0.0
  3
*Paper_Space
  1

  0
ENDBLK
  5
3142
330
3140
100
AcDbEntity
 67
     1
  8
0
100
AcDbBlockEnd
  0
BLOCK
  5
3193
330
3192
100
AcDbEntity
  8
0
100
AcDbBlockBegin
  2
$MODEL_SPACE
 70
     0
 10
0.0
 20
0.0
 30
0.0
  3
$MODEL_SPACE
  1

  0
ENDBLK
  5
295B
330
3192
100
AcDbEntity
  8
0
100
AcDbBlockEnd
  0
BLOCK
  5
3195
330
3194
100
AcDbEntity
  8
0
100
AcDbBlockBegin
  2
$PAPER_SPACE
 70
     0
 10
0.0
 20
0.0
 30
0.0
  3
$PAPER_SPACE
  1

  0
ENDBLK
  5
2957
330
3194
100
AcDbEntity
  8
0
100
AcDbBlockEnd
  0
BLOCK
  5
3197
330
3196
100
AcDbEntity
  8
0
100
AcDbBlockBegin
  2
_ORIGIN
 70
     0
 10
0.0
 20
0.0
 30
0.0
  3
_ORIGIN
  1

  0
CIRCLE
  5
880
330
3196
100
AcDbEntity
  8
0
  6
Continuous
 62
     7
100
AcDbCircle
 10
0.0
 20
0.0
 30
0.0
 40
0.5
  0
LINE
  5
881
330
3196
100
AcDbEntity
  8
0
  6
Continuous
 62
     7
100
AcDbLine
 10
0.0
 20
0.0
 30
0.0
 11
-1.0
 21
0.0
 31
0.0
  0
ENDBLK
  5
882
330
3196
100
AcDbEntity
  8
0
100
AcDbBlockEnd
  0
BLOCK
  5
3199
330
3198
100
AcDbEntity
  8
0
 62
     1
100
AcDbBlockBegin
  2
_DOTBLANK
 70
     0
 10
0.0
 20
0.0
 30
0.0
  3
_DOTBLANK
  1

  0
CIRCLE
  5
AB3
330
3198
100
AcDbEntity
  8
0
  6
ByBlock
 62
     0
100
AcDbCircle
 10
0.0
 20
0.0
 30
0.0
 40
0.5
  0
LINE
  5
AB4
330
3198
100
AcDbEntity
  8
0
  6
ByBlock
 62
     0
100
AcDbLine
 10
-0.5
 20
0.0
 30
0.0
 11
-1.0
 21
0.0
 31
0.0
  0
ENDBLK
  5
AB6
330
3198
100
AcDbEntity
  8
0
 62
     1
100
AcDbBlockEnd
  0
BLOCK
  5
319B
330
319A
100
AcDbEntity
  8
0
 62
     1
100
AcDbBlockBegin
  2
_OPEN30
 70
     0
 10
0.0
 20
0.0
 30
0.0
  3
_OPEN30
  1

  0
LINE
  5
AB8
330
319A
100
AcDbEntity
  8
0
  6
ByBlock
 62
     0
100
AcDbLine
 10
-1.0
 20
0.26794919
 30
0.0
 11
0.0
 21
0.0
 31
0.0
  0
LINE
  5
AB9
330
319A
100
AcDbEntity
  8
0
  6
ByBlock
 62
     0
100
AcDbLine
 10
0.0
 20
0.0
 30
0.0
 11
-1.0
 21
-0.26794919
 31
0.0
  0
LINE
  5
ABA
330
319A
100
AcDbEntity
  8
0
  6
ByBlock
 62
     0
100
AcDbLine
 10
0.0
 20
0.0
 30
0.0
 11
-1.0
 21
0.0
 31
0.0
  0
ENDBLK
  5
ABC
330
319A
100
AcDbEntity
  8
0
 62
     1
100
AcDbBlockEnd
  0
BLOCK
  5
319D
330
319C
100
AcDbEntity
  8
0
100
AcDbBlockBegin
  2
GENAXEH
 70
     0
 10
0.0
 20
0.0
 30
0.0
  3
GENAXEH
  1

  0
LINE
  5
FDB
330
319C
100
AcDbEntity
  8
0
100
AcDbLine
 10
-1.0
 20
0.0
 30
0.0
 11
1.0
 21
0.0
 31
0.0
  0
ENDBLK
  5
FDD
330
319C
100
AcDbEntity
  8
0
100
AcDbBlockEnd
  0
BLOCK
  5
319F
330
319E
100
AcDbEntity
  8
0
100
AcDbBlockBegin
  2
*U6
 70
     1
 10
0.0
 20
0.0
 30
0.0
  3
*U6
  1

  0
ENDBLK
  5
1ED4
330
319E
100
AcDbEntity
  8
0
100
AcDbBlockEnd
  0
BLOCK
  5
31A1
330
31A0
100
AcDbEntity
  8
0
100
AcDbBlockBegin
  2
*D7
 70
     1
 10
0.0
 20
0.0
 30
0.0
  3
*D7
  1

  0
LINE
  5
2029
330
31A0
100
AcDbEntity
  8
SIZE
 62
     0
100
AcDbLine
 10
-135.5
 20
-449.4732256776551
 30
0.0
 11
-135.5
 21
-638.0173952306003
 31
0.0
  0
LINE
  5
202A
330
31A0
100
AcDbEntity
  8
SIZE
 62
     0
100
AcDbLine
 10
135.5
 20
-449.4732256776551
 30
0.0
 11
135.5
 21
-638.0173952306003
 31
0.0
  0
LINE
  5
202B
330
31A0
100
AcDbEntity
  8
SIZE
 62
     0
100
AcDbLine
 10
-123.5
 20
-618.0173952306001
 30
0.0
 11
123.5
 21
-618.0173952306001
 31
0.0
  0
INSERT
  5
202C
330
31A0
100
AcDbEntity
  8
SIZE
 62
     0
100
AcDbBlockReference
  2
_DOTBLANK
 10
-135.5
 20
-618.0173952306001
 30
0.0
 41
12.0
 42
12.0
 43
12.0
 50
180.0
  0
INSERT
  5
202D
330
31A0
100
AcDbEntity
  8
SIZE
 62
     0
100
AcDbBlockReference
  2
_DOTBLANK
 10
135.5
 20
-618.0173952306001
 30
0.0
 41
12.0
 42
12.0
 43
12.0
  0
INSERT
  5
202E
330
31A0
100
AcDbEntity
  8
0
100
AcDbBlockReference
  2
*U8
 10
0.0
 20
0.0
 30
0.0
  0
POINT
  5
202F
330
31A0
100
AcDbEntity
  8
DEFPOINTS
 62
     0
100
AcDbPoint
 10
-135.5
 20
-429.473225677655
 30
0.0
  0
POINT
  5
2030
330
31A0
100
AcDbEntity
  8
DEFPOINTS
 62
     0
100
AcDbPoint
 10
135.5
 20
-429.473225677655
 30
0.0
  0
POINT
  5
2031
330
31A0
100
AcDbEntity
  8
DEFPOINTS
 62
     0
100
AcDbPoint
 10
135.5
 20
-618.0173952306001
 30
0.0
  0
ENDBLK
  5
1FDF
330
31A0
100
AcDbEntity
  8
0
100
AcDbBlockEnd
  0
BLOCK
  5
31A3
330
31A2
100
AcDbEntity
  8
0
100
AcDbBlockBegin
  2
*U8
 70
     1
 10
0.0
 20
0.0
 30
0.0
  3
*U8
  1

  0
TEXT
  5
21A6
330
31A2
100
AcDbEntity
  8
SIZE
 62
     0
100
AcDbText
 10
-61.7142857142857
 20
-608.0173952306003
 30
0.0
 40
64.0
  1
271
 41
0.9
100
AcDbText
  0
ENDBLK
  5
21A8
330
31A2
100
AcDbEntity
  8
0
100
AcDbBlockEnd
  0
BLOCK
  5
31A5
330
31A4
100
AcDbEntity
  8
0
100
AcDbBlockBegin
  2
*D9
 70
     1
 10
0.0
 20
0.0
 30
0.0
  3
*D9
  1

  0
LINE
  5
2032
330
31A4
100
AcDbEntity
  8
SIZE
 62
     0
100
AcDbLine
 10
143.7000000000007
 20
-430.0
 30
0.0
 11
304.6432844803784
 21
-430.0
 31
0.0
  0
LINE
  5
2033
330
31A4
100
AcDbEntity
  8
SIZE
 62
     0
100
AcDbLine
 10
177.5
 20
-0.0000000000000057
 30
0.0
 11
304.6432844803785
 21
-0.0000000000000417
 31
0.0
  0
LINE
  5
2034
330
31A4
100
AcDbEntity
  8
SIZE
 62
     0
100
AcDbLine
 10
284.6432844803784
 20
-418.0
 30
0.0
 11
284.6432844803785
 21
-12.00000000000003
 31
0.0
  0
INSERT
  5
2035
330
31A4
100
AcDbEntity
  8
SIZE
 62
     0
100
AcDbBlockReference
  2
_DOTBLANK
 10
284.6432844803784
 20
-430.0
 30
0.0
 41
12.0
 42
12.0
 43
12.0
 50
270.0
  0
INSERT
  5
2036
330
31A4
100
AcDbEntity
  8
SIZE
 62
     0
100
AcDbBlockReference
  2
_DOTBLANK
 10
284.6432844803785
 20
-0.000000000000036
 30
0.0
 41
12.0
 42
12.0
 43
12.0
 50
90.0
  0
INSERT
  5
2037
330
31A4
100
AcDbEntity
  8
0
100
AcDbBlockReference
  2
*U10
 10
0.0
 20
0.0
 30
0.0
  0
POINT
  5
2038
330
31A4
100
AcDbEntity
  8
DEFPOINTS
 62
     0
100
AcDbPoint
 10
123.7000000000007
 20
-430.0
 30
0.0
  0
POINT
  5
2039
330
31A4
100
AcDbEntity
  8
DEFPOINTS
 62
     0
100
AcDbPoint
 10
157.5
 20
0.0
 30
0.0
  0
POINT
  5
203A
330
31A4
100
AcDbEntity
  8
DEFPOINTS
 62
     0
100
AcDbPoint
 10
284.6432844803785
 20
-0.000000000000036
 30
0.0
  0
ENDBLK
  5
1FEB
330
31A4
100
AcDbEntity
  8
0
100
AcDbBlockEnd
  0
BLOCK
  5
31A7
330
31A6
100
AcDbEntity
  8
0
100
AcDbBlockBegin
  2
*U10
 70
     1
 10
0.0
 20
0.0
 30
0.0
  3
*U10
  1

  0
TEXT
  5
21AA
330
31A6
100
AcDbEntity
  8
SIZE
 62
     0
100
AcDbText
 10
274.6432844803785
 20
-289.0571428571429
 30
0.0
 40
64.0
  1
430
 50
90.0
 41
0.9
100
AcDbText
  0
ENDBLK
  5
21AC
330
31A6
100
AcDbEntity
  8
0
100
AcDbBlockEnd
  0
BLOCK
  5
31A9
330
31A8
100
AcDbEntity
  8
0
100
AcDbBlockBegin
  2
*D11
 70
     1
 10
0.0
 20
0.0
 30
0.0
  3
*D11
  1

  0
LINE
  5
203B
330
31A8
100
AcDbEntity
  8
SIZE
 62
     0
100
AcDbLine
 10
-140.0
 20
32.5
 30
0.0
 11
-140.0
 21
136.4516878685499
 31
0.0
  0
LINE
  5
203C
330
31A8
100
AcDbEntity
  8
SIZE
 62
     0
100
AcDbLine
 10
140.0
 20
32.5
 30
0.0
 11
140.0
 21
136.4516878685499
 31
0.0
  0
LINE
  5
203D
330
31A8
100
AcDbEntity
  8
SIZE
 62
     0
100
AcDbLine
 10
-128.0
 20
116.4516878685499
 30
0.0
 11
128.0
 21
116.4516878685499
 31
0.0
  0
INSERT
  5
203E
330
31A8
100
AcDbEntity
  8
SIZE
 62
     0
100
AcDbBlockReference
  2
_DOTBLANK
 10
-140.0
 20
116.4516878685499
 30
0.0
 41
12.0
 42
12.0
 43
12.0
 50
180.0
  0
INSERT
  5
203F
330
31A8
100
AcDbEntity
  8
SIZE
 62
     0
100
AcDbBlockReference
  2
_DOTBLANK
 10
140.0
 20
116.4516878685499
 30
0.0
 41
12.0
 42
12.0
 43
12.0
  0
INSERT
  5
2040
330
31A8
100
AcDbEntity
  8
0
100
AcDbBlockReference
  2
*U12
 10
0.0
 20
0.0
 30
0.0
  0
POINT
  5
2041
330
31A8
100
AcDbEntity
  8
DEFPOINTS
 62
     0
100
AcDbPoint
 10
-140.0
 20
12.5
 30
0.0
  0
POINT
  5
2042
330
31A8
100
AcDbEntity
  8
DEFPOINTS
 62
     0
100
AcDbPoint
 10
140.0
 20
12.5
 30
0.0
  0
POINT
  5
2043
330
31A8
100
AcDbEntity
  8
DEFPOINTS
 62
     0
100
AcDbPoint
 10
140.0
 20
116.4516878685499
 30
0.0
  0
ENDBLK
  5
1FF7
330
31A8
100
AcDbEntity
  8
0
100
AcDbBlockEnd
  0
BLOCK
  5
31AB
330
31AA
100
AcDbEntity
  8
0
100
AcDbBlockBegin
  2
*U12
 70
     1
 10
0.0
 20
0.0
 30
0.0
  3
*U12
  1

  0
TEXT
  5
21AE
330
31AA
100
AcDbEntity
  8
SIZE
 62
     0
100
AcDbText
 10
-74.05714285714283
 20
126.4516878685499
 30
0.0
 40
64.0
  1
280
 41
0.9
100
AcDbText
  0
ENDBLK
  5
21B0
330
31AA
100
AcDbEntity
  8
0
100
AcDbBlockEnd
  0
BLOCK
  5
31AD
330
31AC
100
AcDbEntity
  8
0
100
AcDbBlockBegin
  2
*D13
 70
     1
 10
0.0
 20
0.0
 30
0.0
  3
*D13
  1

  0
LINE
  5
2044
330
31AC
100
AcDbEntity
  8
SIZE
 62
     0
100
AcDbLine
 10
-157.5
 20
20.0
 30
0.0
 11
-157.5
 21
245.5794621189598
 31
0.0
  0
LINE
  5
2045
330
31AC
100
AcDbEntity
  8
SIZE
 62
     0
100
AcDbLine
 10
157.5
 20
20.0
 30
0.0
 11
157.5
 21
245.5794621189598
 31
0.0
  0
LINE
  5
2046
330
31AC
100
AcDbEntity
  8
SIZE
 62
     0
100
AcDbLine
 10
-145.5
 20
225.5794621189598
 30
0.0
 11
145.5
 21
225.5794621189598
 31
0.0
  0
INSERT
  5
2047
330
31AC
100
AcDbEntity
  8
SIZE
 62
     0
100
AcDbBlockReference
  2
_DOTBLANK
 10
-157.5
 20
225.5794621189598
 30
0.0
 41
12.0
 42
12.0
 43
12.0
 50
180.0
  0
INSERT
  5
2048
330
31AC
100
AcDbEntity
  8
SIZE
 62
     0
100
AcDbBlockReference
  2
_DOTBLANK
 10
157.5
 20
225.5794621189598
 30
0.0
 41
12.0
 42
12.0
 43
12.0
  0
INSERT
  5
2049
330
31AC
100
AcDbEntity
  8
0
100
AcDbBlockReference
  2
*U14
 10
0.0
 20
0.0
 30
0.0
  0
POINT
  5
204A
330
31AC
100
AcDbEntity
  8
DEFPOINTS
 62
     0
100
AcDbPoint
 10
-157.5
 20
0.0
 30
0.0
  0
POINT
  5
204B
330
31AC
100
AcDbEntity
  8
DEFPOINTS
 62
     0
100
AcDbPoint
 10
157.5
 20
0.0
 30
0.0
  0
POINT
  5
204C
330
31AC
100
AcDbEntity
  8
DEFPOINTS
 62
     0
100
AcDbPoint
 10
157.5
 20
225.5794621189598
 30
0.0
  0
ENDBLK
  5
2003
330
31AC
100
AcDbEntity
  8
0
100
AcDbBlockEnd
  0
BLOCK
  5
31AF
330
31AE
100
AcDbEntity
  8
0
100
AcDbBlockBegin
  2
*U14
 70
     1
 10
0.0
 20
0.0
 30
0.0
  3
*U14
  1

  0
TEXT
  5
21B2
330
31AE
100
AcDbEntity
  8
SIZE
 62
     0
100
AcDbText
 10
-68.57142857142857
 20
235.5794621189598
 30
0.0
 40
64.0
  1
315
 41
0.9
100
AcDbText
  0
ENDBLK
  5
21B4
330
31AE
100
AcDbEntity
  8
0
100
AcDbBlockEnd
  0
BLOCK
  5
31B1
330
31B0
100
AcDbEntity
  8
0
100
AcDbBlockBegin
  2
*D15
 70
     1
 10
0.0
 20
0.0
 30
0.0
  3
*D15
  1

  0
LINE
  5
204D
330
31B0
100
AcDbEntity
  8
SIZE
 62
     0
100
AcDbLine
 10
-177.5
 20
0.0000000000000057
 30
0.0
 11
-219.7694545525301
 21
0.0000000000000176
 31
0.0
  0
LINE
  5
204E
330
31B0
100
AcDbEntity
  8
SIZE
 62
     0
100
AcDbLine
 10
-177.5
 20
-7.999999999999993
 30
0.0
 11
-219.7694545525301
 21
-7.999999999999982
 31
0.0
  0
LINE
  5
204F
330
31B0
100
AcDbEntity
  8
SIZE
 62
     0
100
AcDbLine
 10
-199.76945455253
 20
12.00000000000001
 30
0.0
 11
-199.76945455253
 21
24.00000000000001
 31
0.0
  0
LINE
  5
2050
330
31B0
100
AcDbEntity
  8
SIZE
 62
     0
100
AcDbLine
 10
-199.76945455253
 20
-19.99999999999999
 30
0.0
 11
-199.7694545525301
 21
-90.4
 31
0.0
  0
LINE
  5
2051
330
31B0
100
AcDbEntity
  8
SIZE
 62
     0
100
AcDbLine
 10
-199.76945455253
 20
0.000000000000012
 30
0.0
 11
-199.76945455253
 21
-7.999999999999985
 31
0.0
  0
INSERT
  5
2052
330
31B0
100
AcDbEntity
  8
SIZE
 62
     0
100
AcDbBlockReference
  2
_DOTBLANK
 10
-199.76945455253
 20
0.000000000000012
 30
0.0
 41
12.0
 42
12.0
 43
12.0
 50
270.0
  0
INSERT
  5
2053
330
31B0
100
AcDbEntity
  8
SIZE
 62
     0
100
AcDbBlockReference
  2
_DOTBLANK
 10
-199.76945455253
 20
-7.999999999999985
 30
0.0
 41
12.0
 42
12.0
 43
12.0
 50
90.0
  0
INSERT
  5
2054
330
31B0
100
AcDbEntity
  8
0
100
AcDbBlockReference
  2
*U16
 10
0.0
 20
0.0
 30
0.0
  0
POINT
  5
2055
330
31B0
100
AcDbEntity
  8
DEFPOINTS
 62
     0
100
AcDbPoint
 10
-157.5
 20
0.0
 30
0.0
  0
POINT
  5
2056
330
31B0
100
AcDbEntity
  8
DEFPOINTS
 62
     0
100
AcDbPoint
 10
-157.5
 20
-8.0
 30
0.0
  0
POINT
  5
2057
330
31B0
100
AcDbEntity
  8
DEFPOINTS
 62
     0
100
AcDbPoint
 10
-199.76945455253
 20
-7.999999999999985
 30
0.0
  0
ENDBLK
  5
200F
330
31B0
100
AcDbEntity
  8
0
100
AcDbBlockEnd
  0
BLOCK
  5
31B3
330
31B2
100
AcDbEntity
  8
0
100
AcDbBlockBegin
  2
*U16
 70
     1
 10
0.0
 20
0.0
 30
0.0
  3
*U16
  1

  0
TEXT
  5
21B6
330
31B2
100
AcDbEntity
  8
SIZE
 62
     0
100
AcDbText
 10
-209.7694545525301
 20
-80.4
 30
0.0
 40
64.0
  1
8
 50
90.0
 41
0.9
100
AcDbText
  0
ENDBLK
  5
21B8
330
31B2
100
AcDbEntity
  8
0
100
AcDbBlockEnd
  0
BLOCK
  5
31B5
330
31B4
100
AcDbEntity
  8
0
100
AcDbBlockBegin
  2
*D17
 70
     1
 10
0.0
 20
0.0
 30
0.0
  3
*D17
  1

  0
LINE
  5
2058
330
31B4
100
AcDbEntity
  8
SIZE
 62
     0
100
AcDbLine
 10
143.7000000000007
 20
-430.0
 30
0.0
 11
304.626441221626
 21
-430.0
 31
0.0
  0
LINE
  5
2059
330
31B4
100
AcDbEntity
  8
SIZE
 62
     0
100
AcDbLine
 10
143.1000000000022
 20
-441.0000000000001
 30
0.0
 11
304.626441221626
 21
-441.0000000000001
 31
0.0
  0
LINE
  5
205A
330
31B4
100
AcDbEntity
  8
SIZE
 62
     0
100
AcDbLine
 10
284.626441221626
 20
-418.0
 30
0.0
 11
284.626441221626
 21
-406.0
 31
0.0
  0
LINE
  5
205B
330
31B4
100
AcDbEntity
  8
SIZE
 62
     0
100
AcDbLine
 10
284.626441221626
 20
-453.0
 30
0.0
 11
284.626441221626
 21
-542.6000000000001
 31
0.0
  0
LINE
  5
205C
330
31B4
100
AcDbEntity
  8
SIZE
 62
     0
100
AcDbLine
 10
284.626441221626
 20
-430.0
 30
0.0
 11
284.626441221626
 21
-441.0000000000001
 31
0.0
  0
INSERT
  5
205D
330
31B4
100
AcDbEntity
  8
SIZE
 62
     0
100
AcDbBlockReference
  2
_DOTBLANK
 10
284.626441221626
 20
-430.0
 30
0.0
 41
12.0
 42
12.0
 43
12.0
 50
270.0
  0
INSERT
  5
205E
330
31B4
100
AcDbEntity
  8
SIZE
 62
     0
100
AcDbBlockReference
  2
_DOTBLANK
 10
284.626441221626
 20
-441.0000000000001
 30
0.0
 41
12.0
 42
12.0
 43
12.0
 50
90.0
  0
INSERT
  5
205F
330
31B4
100
AcDbEntity
  8
0
100
AcDbBlockReference
  2
*U18
 10
0.0
 20
0.0
 30
0.0
  0
POINT
  5
2060
330
31B4
100
AcDbEntity
  8
DEFPOINTS
 62
     0
100
AcDbPoint
 10
123.7000000000007
 20
-430.0
 30
0.0
  0
POINT
  5
2061
330
31B4
100
AcDbEntity
  8
DEFPOINTS
 62
     0
100
AcDbPoint
 10
123.1000000000022
 20
-441.0
 30
0.0
  0
POINT
  5
2062
330
31B4
100
AcDbEntity
  8
DEFPOINTS
 62
     0
100
AcDbPoint
 10
284.626441221626
 20
-441.0000000000001
 30
0.0
  0
ENDBLK
  5
201D
330
31B4
100
AcDbEntity
  8
0
100
AcDbBlockEnd
  0
BLOCK
  5
31B7
330
31B6
100
AcDbEntity
  8
0
100
AcDbBlockBegin
  2
*U18
 70
     1
 10
0.0
 20
0.0
 30
0.0
  3
*U18
  1

  0
TEXT
  5
21BA
330
31B6
100
AcDbEntity
  8
SIZE
 62
     0
100
AcDbText
 10
274.6264412216261
 20
-532.6
 30
0.0
 40
64.0
  1
11
 50
90.0
 41
0.9
100
AcDbText
  0
ENDBLK
  5
21BC
330
31B6
100
AcDbEntity
  8
0
100
AcDbBlockEnd
  0
BLOCK
  5
31B9
330
31B8
100
AcDbEntity
  8
0
100
AcDbBlockBegin
  2
*U19
 70
     1
 10
0.0
 20
0.0
 30
0.0
  3
*U19
  1

  0
INSERT
  5
2199
330
31B8
100
AcDbEntity
  8
NOTE
100
AcDbBlockReference
  2
_OPEN30
 10
-140.0
 20
0.0
 30
0.0
 41
12.0
 42
12.0
 43
12.0
 50
312.6090116116894
  0
POLYLINE
  5
219A
330
31B8
100
AcDbEntity
  8
NOTE
100
AcDb2dPolyline
 66
     1
 10
0.0
 20
0.0
 30
0.0
  0
VERTEX
  5
219B
330
219A
100
AcDbEntity
  8
NOTE
100
AcDbVertex
100
AcDb2dVertex
 10
-148.1239008361894
 20
8.831887408915472
 30
0.0
  0
VERTEX
  5
219C
330
219A
100
AcDbEntity
  8
NOTE
100
AcDbVertex
100
AcDb2dVertex
 10
-227.8693999922543
 20
95.5270950580134
 30
0.0
  0
VERTEX
  5
219D
330
219A
100
AcDbEntity
  8
NOTE
100
AcDbVertex
100
AcDb2dVertex
 10
-776.4522571351115
 20
95.5270950580134
 30
0.0
  0
SEQEND
  5
219E
330
219A
100
AcDbEntity
  8
NOTE
  0
ENDBLK
  5
21A0
330
31B8
100
AcDbEntity
  8
0
100
AcDbBlockEnd
  0
BLOCK
  5
31BB
330
31BA
100
AcDbEntity
  8
0
100
AcDbBlockBegin
  2
*U20
 70
     1
 10
0.0
 20
0.0
 30
0.0
  3
*U20
  1

  0
TEXT
  5
21A2
330
31BA
100
AcDbEntity
  8
NOTE
100
AcDbText
 10
-773.7093999922541
 20
113.5270950580134
 30
0.0
 40
64.0
  1
4×φ10取付穴
 41
0.9
100
AcDbText
  0
ENDBLK
  5
21A4
330
31BA
100
AcDbEntity
  8
0
100
AcDbBlockEnd
  0
BLOCK
  5
31BD
330
31BC
100
AcDbEntity
  8
0
100
AcDbBlockBegin
  2
*U21
 70
     1
 10
0.0
 20
0.0
 30
0.0
  3
*U21
  1

  0
INSERT
  5
2586
330
31BC
100
AcDbEntity
  8
NOTE
100
AcDbBlockReference
  2
_OPEN30
 10
-399.9999999998221
 20
0.0000000005587708
 30
0.0
 41
12.0
 42
12.0
 43
12.0
 50
312.6090116116894
  0
POLYLINE
  5
2587
330
31BC
100
AcDbEntity
  8
NOTE
100
AcDb2dPolyline
 66
     1
 10
0.0
 20
0.0
 30
0.0
  0
VERTEX
  5
2588
330
2587
100
AcDbEntity
  8
NOTE
100
AcDbVertex
100
AcDb2dVertex
 10
-408.1239008360117
 20
8.831887409474241
 30
0.0
  0
VERTEX
  5
2589
330
2587
100
AcDbEntity
  8
NOTE
100
AcDbVertex
100
AcDb2dVertex
 10
-487.8693999920765
 20
95.52709505857214
 30
0.0
  0
VERTEX
  5
258A
330
2587
100
AcDbEntity
  8
NOTE
100
AcDbVertex
100
AcDb2dVertex
 10
-1083.080828563505
 20
95.52709505857214
 30
0.0
  0
SEQEND
  5
258B
330
2587
100
AcDbEntity
  8
NOTE
  0
ENDBLK
  5
258C
330
31BC
100
AcDbEntity
  8
0
100
AcDbBlockEnd
  0
BLOCK
  5
31BF
330
31BE
100
AcDbEntity
  8
0
100
AcDbBlockBegin
  2
*X22
 70
     1
 10
0.0
 20
0.0
 30
0.0
  3
*X22
  1

  0
LINE
  5
2AB6
330
31BE
100
AcDbEntity
  8
0
 62
     0
100
AcDbLine
 10
369.988212263248
 20
-1015.608104071678
 30
0.0
 11
372.2999999999956
 21
-1014.06691618265
 31
0.0
  0
LINE
  5
2AB7
330
31BE
100
AcDbEntity
  8
0
 62
     0
100
AcDbLine
 10
365.4882509693671
 20
-1015.608104071676
 30
0.0
 11
372.2999999999992
 21
-1011.066949647231
 31
0.0
  0
LINE
  5
2AB8
330
31BE
100
AcDbEntity
  8
0
 62
     0
100
AcDbLine
 10
360.9882896754752
 20
-1015.608104071674
 30
0.0
 11
372.2999999999956
 21
-1008.066983111816
 31
0.0
  0
LINE
  5
2AB9
330
31BE
100
AcDbEntity
  8
0
 62
     0
100
AcDbLine
 10
356.4883283815906
 20
-1015.608104071676
 30
0.0
 11
372.2999999999992
 21
-1005.0670165764
 31
0.0
  0
LINE
  5
2ABA
330
31BE
100
AcDbEntity
  8
0
 62
     0
100
AcDbLine
 10
351.9883670877061
 20
-1015.608104071678
 30
0.0
 11
372.2999999999956
 21
-1002.067050040985
 31
0.0
  0
LINE
  5
2ABB
330
31BE
100
AcDbEntity
  8
0
 62
     0
100
AcDbLine
 10
347.4884057938216
 20
-1015.608104071676
 30
0.0
 11
372.2999999999956
 21
-999.0670835055679
 31
0.0
  0
LINE
  5
2ABC
330
31BE
100
AcDbEntity
  8
0
 62
     0
100
AcDbLine
 10
342.9884444999332
 20
-1015.608104071676
 30
0.0
 11
372.2999999999956
 21
-996.0671169701509
 31
0.0
  0
LINE
  5
2ABD
330
31BE
100
AcDbEntity
  8
0
 62
     0
100
AcDbLine
 10
338.4884832060488
 20
-1015.608104071676
 30
0.0
 11
372.2999999999956
 21
-993.0671504347357
 31
0.0
  0
LINE
  5
2ABE
330
31BE
100
AcDbEntity
  8
0
 62
     0
100
AcDbLine
 10
333.9885219121643
 20
-1015.608104071676
 30
0.0
 11
372.2999999999992
 21
-990.0671838993165
 31
0.0
  0
LINE
  5
2ABF
330
31BE
100
AcDbEntity
  8
0
 62
     0
100
AcDbLine
 10
329.4885606182798
 20
-1015.608104071676
 30
0.0
 11
372.2999999999956
 21
-987.0672173639032
 31
0.0
  0
LINE
  5
2AC0
330
31BE
100
AcDbEntity
  8
0
 62
     0
100
AcDbLine
 10
324.9885993243915
 20
-1015.608104071676
 30
0.0
 11
372.2999999999956
 21
-984.0672508284875
 31
0.0
  0
LINE
  5
2AC1
330
31BE
100
AcDbEntity
  8
0
 62
     0
100
AcDbLine
 10
320.4886380305069
 20
-1015.608104071678
 30
0.0
 11
372.2999999999956
 21
-981.0672842930705
 31
0.0
  0
LINE
  5
2AC2
330
31BE
100
AcDbEntity
  8
0
 62
     0
100
AcDbLine
 10
315.9886767366188
 20
-1015.608104071676
 30
0.0
 11
372.2999999999956
 21
-978.0673177576536
 31
0.0
  0
LINE
  5
2AC3
330
31BE
100
AcDbEntity
  8
0
 62
     0
100
AcDbLine
 10
311.4887154427379
 20
-1015.608104071676
 30
0.0
 11
372.2999999999956
 21
-975.06735122224
 31
0.0
  0
LINE
  5
2AC4
330
31BE
100
AcDbEntity
  8
0
 62
     0
100
AcDbLine
 10
306.9887541488497
 20
-1015.608104071676
 30
0.0
 11
372.2999999999992
 21
-972.067384686821
 31
0.0
  0
LINE
  5
2AC5
330
31BE
100
AcDbEntity
  8
0
 62
     0
100
AcDbLine
 10
302.4887928549651
 20
-1015.608104071676
 30
0.0
 11
372.2999999999992
 21
-969.067418151404
 31
0.0
  0
LINE
  5
2AC6
330
31BE
100
AcDbEntity
  8
0
 62
     0
100
AcDbLine
 10
297.9888315610805
 20
-1015.608104071676
 30
0.0
 11
372.2999999999956
 21
-966.0674516159886
 31
0.0
  0
LINE
  5
2AC7
330
31BE
100
AcDbEntity
  8
0
 62
     0
100
AcDbLine
 10
293.488870267196
 20
-1015.608104071676
 30
0.0
 11
372.2999999999956
 21
-963.0674850805752
 31
0.0
  0
LINE
  5
2AC8
330
31BE
100
AcDbEntity
  8
0
 62
     0
100
AcDbLine
 10
288.9889089733115
 20
-1015.608104071676
 30
0.0
 11
372.2999999999992
 21
-960.0675185451565
 31
0.0
  0
LINE
  5
2AC9
330
31BE
100
AcDbEntity
  8
0
 62
     0
100
AcDbLine
 10
284.4889476794197
 20
-1015.608104071676
 30
0.0
 11
372.2999999999956
 21
-957.0675520097394
 31
0.0
  0
LINE
  5
2ACA
330
31BE
100
AcDbEntity
  8
0
 62
     0
100
AcDbLine
 10
279.9889863855387
 20
-1015.608104071676
 30
0.0
 11
372.2999999999956
 21
-954.0675854743255
 31
0.0
  0
LINE
  5
2ACB
330
31BE
100
AcDbEntity
  8
0
 62
     0
100
AcDbLine
 10
275.4890250916542
 20
-1015.608104071676
 30
0.0
 11
372.2999999999992
 21
-951.0676189389069
 31
0.0
  0
LINE
  5
2ACC
330
31BE
100
AcDbEntity
  8
0
 62
     0
100
AcDbLine
 10
270.989063797766
 20
-1015.608104071676
 30
0.0
 11
372.2999999999956
 21
-948.0676524034931
 31
0.0
  0
LINE
  5
2ACD
330
31BE
100
AcDbEntity
  8
0
 62
     0
100
AcDbLine
 10
266.4891025038778
 20
-1015.608104071676
 30
0.0
 11
372.2999999999956
 21
-945.0676858680745
 31
0.0
  0
LINE
  5
2ACE
330
31BE
100
AcDbEntity
  8
0
 62
     0
100
AcDbLine
 10
261.9891412099969
 20
-1015.608104071676
 30
0.0
 11
372.2999999999956
 21
-942.0677193326609
 31
0.0
  0
LINE
  5
2ACF
330
31BE
100
AcDbEntity
  8
0
 62
     0
100
AcDbLine
 10
257.4891799161123
 20
-1015.608104071676
 30
0.0
 11
372.2999999999992
 21
-939.0677527972435
 31
0.0
  0
LINE
  5
2AD0
330
31BE
100
AcDbEntity
  8
0
 62
     0
100
AcDbLine
 10
252.9892186222241
 20
-1015.608104071678
 30
0.0
 11
372.2999999999956
 21
-936.0677862618263
 31
0.0
  0
LINE
  5
2AD1
330
31BE
100
AcDbEntity
  8
0
 62
     0
100
AcDbLine
 10
248.489257328336
 20
-1015.608104071678
 30
0.0
 11
372.2999999999956
 21
-933.0678197264115
 31
0.0
  0
LINE
  5
2AD2
330
31BE
100
AcDbEntity
  8
0
 62
     0
100
AcDbLine
 10
243.989296034455
 20
-1015.608104071674
 30
0.0
 11
372.2999999999956
 21
-930.0678531909944
 31
0.0
  0
LINE
  5
2AD3
330
31BE
100
AcDbEntity
  8
0
 62
     0
100
AcDbLine
 10
239.4893347405668
 20
-1015.608104071676
 30
0.0
 11
372.2999999999956
 21
-927.0678866555789
 31
0.0
  0
LINE
  5
2AD4
330
31BE
100
AcDbEntity
  8
0
 62
     0
100
AcDbLine
 10
234.9893734466823
 20
-1015.608104071678
 30
0.0
 11
372.2999999999956
 21
-924.0679201201634
 31
0.0
  0
LINE
  5
2AD5
330
31BE
100
AcDbEntity
  8
0
 62
     0
100
AcDbLine
 10
230.4894121527977
 20
-1015.608104071676
 30
0.0
 11
372.2999999999956
 21
-921.0679535847464
 31
0.0
  0
LINE
  5
2AD6
330
31BE
100
AcDbEntity
  8
0
 62
     0
100
AcDbLine
 10
225.9894508589132
 20
-1015.608104071674
 30
0.0
 11
372.2999999999992
 21
-918.0679870493294
 31
0.0
  0
LINE
  5
2AD7
330
31BE
100
AcDbEntity
  8
0
 62
     0
100
AcDbLine
 10
221.4894895650286
 20
-1015.608104071674
 30
0.0
 11
372.2999999999992
 21
-915.0680205139122
 31
0.0
  0
LINE
  5
2AD8
330
31BE
100
AcDbEntity
  8
0
 62
     0
100
AcDbLine
 10
216.9895282711404
 20
-1015.608104071676
 30
0.0
 11
372.2999999999956
 21
-912.068053978497
 31
0.0
  0
LINE
  5
2AD9
330
31BE
100
AcDbEntity
  8
0
 62
     0
100
AcDbLine
 10
212.4895669772559
 20
-1015.608104071676
 30
0.0
 11
372.2999999999956
 21
-909.0680874430836
 31
0.0
  0
LINE
  5
2ADA
330
31BE
100
AcDbEntity
  8
0
 62
     0
100
AcDbLine
 10
207.9896056833677
 20
-1015.608104071676
 30
0.0
 11
372.2999999999956
 21
-906.0681209076644
 31
0.0
  0
LINE
  5
2ADB
330
31BE
100
AcDbEntity
  8
0
 62
     0
100
AcDbLine
 10
203.4896443894868
 20
-1015.608104071674
 30
0.0
 11
372.2999999999992
 21
-903.0681543722494
 31
0.0
  0
LINE
  5
2ADC
330
31BE
100
AcDbEntity
  8
0
 62
     0
100
AcDbLine
 10
198.9896830955984
 20
-1015.608104071676
 30
0.0
 11
372.2999999999956
 21
-900.0681878368324
 31
0.0
  0
LINE
  5
2ADD
330
31BE
100
AcDbEntity
  8
0
 62
     0
100
AcDbLine
 10
194.4897218017104
 20
-1015.608104071676
 30
0.0
 11
372.2999999999956
 21
-897.0682213014169
 31
0.0
  0
LINE
  5
2ADE
330
31BE
100
AcDbEntity
  8
0
 62
     0
100
AcDbLine
 10
189.9897605078257
 20
-1015.608104071676
 30
0.0
 11
372.2999999999992
 21
-894.068254765998
 31
0.0
  0
LINE
  5
2ADF
330
31BE
100
AcDbEntity
  8
0
 62
     0
100
AcDbLine
 10
185.4897992139413
 20
-1015.608104071676
 30
0.0
 11
372.2999999999992
 21
-891.0682882305824
 31
0.0
  0
LINE
  5
2AE0
330
31BE
100
AcDbEntity
  8
0
 62
     0
100
AcDbLine
 10
180.9898379200567
 20
-1015.608104071674
 30
0.0
 11
372.2999999999992
 21
-888.0683216951673
 31
0.0
  0
LINE
  5
2AE1
330
31BE
100
AcDbEntity
  8
0
 62
     0
100
AcDbLine
 10
176.4898766261685
 20
-1015.608104071676
 30
0.0
 11
372.2999999999956
 21
-885.0683551597521
 31
0.0
  0
LINE
  5
2AE2
330
31BE
100
AcDbEntity
  8
0
 62
     0
100
AcDbLine
 10
171.9899153322876
 20
-1015.608104071674
 30
0.0
 11
372.2999999999992
 21
-882.0683886243351
 31
0.0
  0
LINE
  5
2AE3
330
31BE
100
AcDbEntity
  8
0
 62
     0
100
AcDbLine
 10
167.4899540383994
 20
-1015.608104071676
 30
0.0
 11
372.2999999999956
 21
-879.0684220889197
 31
0.0
  0
LINE
  5
2AE4
330
31BE
100
AcDbEntity
  8
0
 62
     0
100
AcDbLine
 10
162.9899927445185
 20
-1015.608104071676
 30
0.0
 11
372.2999999999992
 21
-876.0684555535025
 31
0.0
  0
LINE
  5
2AE5
330
31BE
100
AcDbEntity
  8
0
 62
     0
100
AcDbLine
 10
158.4900314506267
 20
-1015.608104071674
 30
0.0
 11
372.2999999999956
 21
-873.0684890180873
 31
0.0
  0
LINE
  5
2AE6
330
31BE
100
AcDbEntity
  8
0
 62
     0
100
AcDbLine
 10
153.9900701567458
 20
-1015.608104071674
 30
0.0
 11
372.2999999999992
 21
-870.0685224826703
 31
0.0
  0
LINE
  5
2AE7
330
31BE
100
AcDbEntity
  8
0
 62
     0
100
AcDbLine
 10
149.4901088628576
 20
-1015.608104071676
 30
0.0
 11
372.2999999999956
 21
-867.0685559472548
 31
0.0
  0
LINE
  5
2AE8
330
31BE
100
AcDbEntity
  8
0
 62
     0
100
AcDbLine
 10
144.990147568973
 20
-1015.608104071676
 30
0.0
 11
372.2999999999956
 21
-864.0685894118378
 31
0.0
  0
LINE
  5
2AE9
330
31BE
100
AcDbEntity
  8
0
 62
     0
100
AcDbLine
 10
140.4901862750848
 20
-1015.608104071676
 30
0.0
 11
372.2999999999992
 21
-861.0686228764206
 31
0.0
  0
LINE
  5
2AEA
330
31BE
100
AcDbEntity
  8
0
 62
     0
100
AcDbLine
 10
135.9902249812039
 20
-1015.608104071674
 30
0.0
 11
372.2999999999992
 21
-858.0686563410072
 31
0.0
  0
LINE
  5
2AEB
330
31BE
100
AcDbEntity
  8
0
 62
     0
100
AcDbLine
 10
131.4902636873121
 20
-1015.608104071676
 30
0.0
 11
372.299999999992
 21
-855.06868980559
 31
0.0
  0
LINE
  5
2AEC
330
31BE
100
AcDbEntity
  8
0
 62
     0
100
AcDbLine
 10
126.9903023934312
 20
-1015.608104071674
 30
0.0
 11
372.2999999999956
 21
-852.068723270173
 31
0.0
  0
LINE
  5
2AED
330
31BE
100
AcDbEntity
  8
0
 62
     0
100
AcDbLine
 10
122.490341099543
 20
-1015.608104071676
 30
0.0
 11
372.2999999999992
 21
-849.0687567347555
 31
0.0
  0
LINE
  5
2AEE
330
31BE
100
AcDbEntity
  8
0
 62
     0
100
AcDbLine
 10
117.9903798056621
 20
-1015.608104071676
 30
0.0
 11
372.2999999999992
 21
-846.0687901993424
 31
0.0
  0
LINE
  5
2AEF
330
31BE
100
AcDbEntity
  8
0
 62
     0
100
AcDbLine
 10
113.4904185117739
 20
-1015.608104071674
 30
0.0
 11
372.2999999999956
 21
-843.0688236639252
 31
0.0
  0
LINE
  5
2AF0
330
31BE
100
AcDbEntity
  8
0
 62
     0
100
AcDbLine
 10
108.9904572178893
 20
-1015.608104071674
 30
0.0
 11
372.2999999999992
 21
-840.0688571285064
 31
0.0
  0
LINE
  5
2AF1
330
31BE
100
AcDbEntity
  8
0
 62
     0
100
AcDbLine
 10
104.4904959240011
 20
-1015.608104071676
 30
0.0
 11
372.2999999999992
 21
-837.0688905930926
 31
0.0
  0
LINE
  5
2AF2
330
31BE
100
AcDbEntity
  8
0
 62
     0
100
AcDbLine
 10
99.99053463011293
 20
-1015.608104071676
 30
0.0
 11
372.2999999999956
 21
-834.068924057674
 31
0.0
  0
LINE
  5
2AF3
330
31BE
100
AcDbEntity
  8
0
 62
     0
100
AcDbLine
 10
95.49057333623204
 20
-1015.608104071676
 30
0.0
 11
372.2999999999956
 21
-831.0689575222605
 31
0.0
  0
LINE
  5
2AF4
330
31BE
100
AcDbEntity
  8
0
 62
     0
100
AcDbLine
 10
90.99061204234748
 20
-1015.608104071676
 30
0.0
 11
372.2999999999992
 21
-828.0689909868435
 31
0.0
  0
LINE
  5
2AF5
330
31BE
100
AcDbEntity
  8
0
 62
     0
100
AcDbLine
 10
86.4906507484593
 20
-1015.608104071676
 30
0.0
 11
372.2999999999992
 21
-825.0690244514281
 31
0.0
  0
LINE
  5
2AF6
330
31BE
100
AcDbEntity
  8
0
 62
     0
100
AcDbLine
 10
81.99068945457112
 20
-1015.608104071676
 30
0.0
 11
372.2999999999956
 21
-822.0690579160109
 31
0.0
  0
LINE
  5
2AF7
330
31BE
100
AcDbEntity
  8
0
 62
     0
100
AcDbLine
 10
77.49072816069018
 20
-1015.608104071676
 30
0.0
 11
372.2999999999956
 21
-819.0690913805955
 31
0.0
  0
LINE
  5
2AF8
330
31BE
100
AcDbEntity
  8
0
 62
     0
100
AcDbLine
 10
72.99076686680563
 20
-1015.608104071676
 30
0.0
 11
372.2999999999992
 21
-816.0691248451785
 31
0.0
  0
LINE
  5
2AF9
330
31BE
100
AcDbEntity
  8
0
 62
     0
100
AcDbLine
 10
68.49080557291745
 20
-1015.608104071672
 30
0.0
 11
372.2999999999956
 21
-813.0691583097632
 31
0.0
  0
LINE
  5
2AFA
330
31BE
100
AcDbEntity
  8
0
 62
     0
100
AcDbLine
 10
63.99084427902924
 20
-1015.608104071676
 30
0.0
 11
372.2999999999956
 21
-810.0691917743461
 31
0.0
  0
LINE
  5
2AFB
330
31BE
100
AcDbEntity
  8
0
 62
     0
100
AcDbLine
 10
59.49088298514834
 20
-1015.608104071676
 30
0.0
 11
372.2999999999992
 21
-807.0692252389308
 31
0.0
  0
LINE
  5
2AFC
330
31BE
100
AcDbEntity
  8
0
 62
     0
100
AcDbLine
 10
54.99092169126015
 20
-1015.608104071676
 30
0.0
 11
372.2999999999956
 21
-804.0692587035136
 31
0.0
  0
LINE
  5
2AFD
330
31BE
100
AcDbEntity
  8
0
 62
     0
100
AcDbLine
 10
50.4909603973756
 20
-1015.608104071674
 30
0.0
 11
372.2999999999992
 21
-801.0692921680966
 31
0.0
  0
LINE
  5
2AFE
330
31BE
100
AcDbEntity
  8
0
 62
     0
100
AcDbLine
 10
45.9909991034874
 20
-1015.608104071678
 30
0.0
 11
372.2999999999956
 21
-798.0693256326831
 31
0.0
  0
LINE
  5
2AFF
330
31BE
100
AcDbEntity
  8
0
 62
     0
100
AcDbLine
 10
41.49103780960649
 20
-1015.608104071674
 30
0.0
 11
372.2999999999992
 21
-795.0693590972639
 31
0.0
  0
LINE
  5
2B00
330
31BE
100
AcDbEntity
  8
0
 62
     0
100
AcDbLine
 10
36.99107651571831
 20
-1015.608104071676
 30
0.0
 11
372.2999999999956
 21
-792.0693925618507
 31
0.0
  0
LINE
  5
2B01
330
31BE
100
AcDbEntity
  8
0
 62
     0
100
AcDbLine
 10
32.49111522183375
 20
-1015.608104071674
 30
0.0
 11
372.2999999999992
 21
-789.0694260264313
 31
0.0
  0
LINE
  5
2B02
330
31BE
100
AcDbEntity
  8
0
 62
     0
100
AcDbLine
 10
27.9911539279492
 20
-1015.608104071676
 30
0.0
 11
372.2999999999992
 21
-786.0694594910163
 31
0.0
  0
LINE
  5
2B03
330
31BE
100
AcDbEntity
  8
0
 62
     0
100
AcDbLine
 10
23.49119263406101
 20
-1015.608104071676
 30
0.0
 11
372.2999999999956
 21
-783.0694929556011
 31
0.0
  0
LINE
  5
2B04
330
31BE
100
AcDbEntity
  8
0
 62
     0
100
AcDbLine
 10
18.99123134018008
 20
-1015.608104071674
 30
0.0
 11
372.2999999999992
 21
-780.0695264201841
 31
0.0
  0
LINE
  5
2B05
330
31BE
100
AcDbEntity
  8
0
 62
     0
100
AcDbLine
 10
14.49127004628826
 20
-1015.608104071676
 30
0.0
 11
372.2999999999992
 21
-777.0695598847686
 31
0.0
  0
LINE
  5
2B06
330
31BE
100
AcDbEntity
  8
0
 62
     0
100
AcDbLine
 10
9.991308752407347
 20
-1015.608104071674
 30
0.0
 11
372.2999999999992
 21
-774.0695933493498
 31
0.0
  0
LINE
  5
2B07
330
31BE
100
AcDbEntity
  8
0
 62
     0
100
AcDbLine
 10
5.491347458519157
 20
-1015.608104071676
 30
0.0
 11
372.2999999999956
 21
-771.0696268139363
 31
0.0
  0
LINE
  5
2B08
330
31BE
100
AcDbEntity
  8
0
 62
     0
100
AcDbLine
 10
0.9913861646382427
 20
-1015.608104071674
 30
0.0
 11
372.2999999999992
 21
-768.0696602785194
 31
0.0
  0
LINE
  5
2B09
330
31BE
100
AcDbEntity
  8
0
 62
     0
100
AcDbLine
 10
-3.508575129249948
 20
-1015.608104071676
 30
0.0
 11
372.2999999999992
 21
-765.0696937431039
 31
0.0
  0
LINE
  5
2B0A
330
31BE
100
AcDbEntity
  8
0
 62
     0
100
AcDbLine
 10
-8.008536423138139
 20
-1015.608104071674
 30
0.0
 11
372.2999999999956
 21
-762.0697272076868
 31
0.0
  0
LINE
  5
2B0B
330
31BE
100
AcDbEntity
  8
0
 62
     0
100
AcDbLine
 10
-12.50849771702269
 20
-1015.608104071676
 30
0.0
 11
372.2999999999956
 21
-759.0697606722716
 31
0.0
  0
LINE
  5
2B0C
330
31BE
100
AcDbEntity
  8
0
 62
     0
100
AcDbLine
 10
-17.0084590109036
 20
-1015.608104071674
 30
0.0
 11
372.2999999999992
 21
-756.0697941368544
 31
0.0
  0
LINE
  5
2B0D
330
31BE
100
AcDbEntity
  8
0
 62
     0
100
AcDbLine
 10
-21.50842030479545
 20
-1015.608104071678
 30
0.0
 11
372.2999999999956
 21
-753.069827601437
 31
0.0
  0
LINE
  5
2B0E
330
31BE
100
AcDbEntity
  8
0
 62
     0
100
AcDbLine
 10
-26.00838159867999
 20
-1015.608104071674
 30
0.0
 11
372.2999999999956
 21
-750.0698610660222
 31
0.0
  0
LINE
  5
2B0F
330
31BE
100
AcDbEntity
  8
0
 62
     0
100
AcDbLine
 10
-30.50834289256453
 20
-1015.608104071676
 30
0.0
 11
372.2999999999992
 21
-747.0698945306066
 31
0.0
  0
LINE
  5
2B10
330
31BE
100
AcDbEntity
  8
0
 62
     0
100
AcDbLine
 10
-35.00830418644545
 20
-1015.608104071674
 30
0.0
 11
372.2999999999992
 21
-744.0699279951892
 31
0.0
  0
LINE
  5
2B11
330
31BE
100
AcDbEntity
  8
0
 62
     0
100
AcDbLine
 10
-39.5082654803373
 20
-1015.608104071676
 30
0.0
 11
372.2999999999956
 21
-741.0699614597741
 31
0.0
  0
LINE
  5
2B12
330
31BE
100
AcDbEntity
  8
0
 62
     0
100
AcDbLine
 10
-44.00822677422183
 20
-1015.608104071676
 30
0.0
 11
372.2999999999956
 21
-738.069994924359
 31
0.0
  0
LINE
  5
2B13
330
31BE
100
AcDbEntity
  8
0
 62
     0
100
AcDbLine
 10
-48.50818806810272
 20
-1015.608104071672
 30
0.0
 11
372.2999999999992
 21
-735.0700283889398
 31
0.0
  0
LINE
  5
2B14
330
31BE
100
AcDbEntity
  8
0
 62
     0
100
AcDbLine
 10
-53.00814936199458
 20
-1015.608104071676
 30
0.0
 11
372.2999999999956
 21
-732.0700618535246
 31
0.0
  0
LINE
  5
2B15
330
31BE
100
AcDbEntity
  8
0
 62
     0
100
AcDbLine
 10
-57.50811065587914
 20
-1015.608104071676
 30
0.0
 11
372.2999999999956
 21
-729.0700953181094
 31
0.0
  0
LINE
  5
2B16
330
31BE
100
AcDbEntity
  8
0
 62
     0
100
AcDbLine
 10
-62.00807194976369
 20
-1015.608104071676
 30
0.0
 11
372.2999999999992
 21
-726.0701287826925
 31
0.0
  0
LINE
  5
2B17
330
31BE
100
AcDbEntity
  8
0
 62
     0
100
AcDbLine
 10
-66.5080332436446
 20
-1015.608104071674
 30
0.0
 11
372.2999999999992
 21
-723.0701622472752
 31
0.0
  0
LINE
  5
2B18
330
31BE
100
AcDbEntity
  8
0
 62
     0
100
AcDbLine
 10
-71.00799453753643
 20
-1015.608104071676
 30
0.0
 11
372.2999999999956
 21
-720.0701957118599
 31
0.0
  0
LINE
  5
2B19
330
31BE
100
AcDbEntity
  8
0
 62
     0
100
AcDbLine
 10
-75.50795583142098
 20
-1015.608104071674
 30
0.0
 11
372.2999999999956
 21
-717.0702291764444
 31
0.0
  0
LINE
  5
2B1A
330
31BE
100
AcDbEntity
  8
0
 62
     0
100
AcDbLine
 10
-80.00791712530554
 20
-1015.608104071676
 30
0.0
 11
372.2999999999992
 21
-714.0702626410272
 31
0.0
  0
LINE
  5
2B1B
330
31BE
100
AcDbEntity
  8
0
 62
     0
100
AcDbLine
 10
-84.50787841919009
 20
-1015.608104071674
 30
0.0
 11
372.2999999999992
 21
-711.0702961056103
 31
0.0
  0
LINE
  5
2B1C
330
31BE
100
AcDbEntity
  8
0
 62
     0
100
AcDbLine
 10
-89.00783971307465
 20
-1015.608104071676
 30
0.0
 11
372.2999999999992
 21
-708.0703295701932
 31
0.0
  0
LINE
  5
2B1D
330
31BE
100
AcDbEntity
  8
0
 62
     0
100
AcDbLine
 10
-93.50780100696285
 20
-1015.608104071674
 30
0.0
 11
372.3000000000029
 21
-705.0703630347761
 31
0.0
  0
LINE
  5
2B1E
330
31BE
100
AcDbEntity
  8
0
 62
     0
100
AcDbLine
 10
-98.00776230084741
 20
-1015.608104071674
 30
0.0
 11
372.2999999999992
 21
-702.0703964993627
 31
0.0
  0
LINE
  5
2B1F
330
31BE
100
AcDbEntity
  8
0
 62
     0
100
AcDbLine
 10
-102.5077235947356
 20
-1015.608104071676
 30
0.0
 11
372.2999999999992
 21
-699.0704299639453
 31
0.0
  0
LINE
  5
2B20
330
31BE
100
AcDbEntity
  8
0
 62
     0
100
AcDbLine
 10
-107.0076848886165
 20
-1015.608104071674
 30
0.0
 11
372.2999999999992
 21
-696.0704634285284
 31
0.0
  0
LINE
  5
2B21
330
31BE
100
AcDbEntity
  8
0
 62
     0
100
AcDbLine
 10
-111.5076461825047
 20
-1015.608104071676
 30
0.0
 11
372.3000000000029
 21
-693.0704968931116
 31
0.0
  0
LINE
  5
2B22
330
31BE
100
AcDbEntity
  8
0
 62
     0
100
AcDbLine
 10
-116.0076074763892
 20
-1015.608104071674
 30
0.0
 11
372.2999999999992
 21
-690.0705303576977
 31
0.0
  0
LINE
  5
2B23
330
31BE
100
AcDbEntity
  8
0
 62
     0
100
AcDbLine
 10
-120.5075687702774
 20
-1015.608104071676
 30
0.0
 11
372.2999999999992
 21
-687.0705638222789
 31
0.0
  0
LINE
  5
2B24
330
31BE
100
AcDbEntity
  8
0
 62
     0
100
AcDbLine
 10
-125.0075300641583
 20
-1015.608104071674
 30
0.0
 11
372.3000000000029
 21
-684.0705972868617
 31
0.0
  0
LINE
  5
2B25
330
31BE
100
AcDbEntity
  8
0
 62
     0
100
AcDbLine
 10
-129.5074913580465
 20
-1015.608104071676
 30
0.0
 11
372.2999999999992
 21
-681.0706307514483
 31
0.0
  0
LINE
  5
2B26
330
31BE
100
AcDbEntity
  8
0
 62
     0
100
AcDbLine
 10
-134.0074526519311
 20
-1015.608104071674
 30
0.0
 11
372.2999999999992
 21
-678.0706642160311
 31
0.0
  0
LINE
  5
2B27
330
31BE
100
AcDbEntity
  8
0
 62
     0
100
AcDbLine
 10
-138.5074139458193
 20
-1015.608104071676
 30
0.0
 11
372.2999999999992
 21
-675.0706976806156
 31
0.0
  0
LINE
  5
2B28
330
31BE
100
AcDbEntity
  8
0
 62
     0
100
AcDbLine
 10
-143.0073752397002
 20
-1015.608104071674
 30
0.0
 11
372.3000000000029
 21
-672.0707311451969
 31
0.0
  0
LINE
  5
2B29
330
31BE
100
AcDbEntity
  8
0
 62
     0
100
AcDbLine
 10
-147.5073365335884
 20
-1015.608104071676
 30
0.0
 11
372.2999999999992
 21
-669.0707646097835
 31
0.0
  0
LINE
  5
2B2A
330
31BE
100
AcDbEntity
  8
0
 62
     0
100
AcDbLine
 10
-152.0072978274764
 20
-1015.608104071676
 30
0.0
 11
372.3000000000029
 21
-666.0707980743664
 31
0.0
  0
LINE
  5
2B2B
330
31BE
100
AcDbEntity
  8
0
 62
     0
100
AcDbLine
 10
-156.5072591213574
 20
-1015.608104071676
 30
0.0
 11
372.2999999999992
 21
-663.0708315389511
 31
0.0
  0
LINE
  5
2B2C
330
31BE
100
AcDbEntity
  8
0
 62
     0
100
AcDbLine
 10
-161.0072204152457
 20
-1015.608104071674
 30
0.0
 11
372.2999999999992
 21
-660.070865003534
 31
0.0
  0
LINE
  5
2B2D
330
31BE
100
AcDbEntity
  8
0
 62
     0
100
AcDbLine
 10
-165.5071817091302
 20
-1015.608104071672
 30
0.0
 11
372.3000000000029
 21
-657.0708984681151
 31
0.0
  0
LINE
  5
2B2E
330
31BE
100
AcDbEntity
  8
0
 62
     0
100
AcDbLine
 10
-170.0071430030184
 20
-1015.608104071676
 30
0.0
 11
372.3000000000029
 21
-654.0709319327016
 31
0.0
  0
LINE
  5
2B2F
330
31BE
100
AcDbEntity
  8
0
 62
     0
100
AcDbLine
 10
-174.507104296903
 20
-1015.608104071676
 30
0.0
 11
372.2999999999992
 21
-651.0709653972861
 31
0.0
  0
LINE
  5
2B30
330
31BE
100
AcDbEntity
  8
0
 62
     0
100
AcDbLine
 10
-179.0070655907875
 20
-1015.608104071676
 30
0.0
 11
372.2999999999992
 21
-648.0709988618692
 31
0.0
  0
LINE
  5
2B31
330
31BE
100
AcDbEntity
  8
0
 62
     0
100
AcDbLine
 10
-183.5070268846721
 20
-1015.608104071672
 30
0.0
 11
372.3000000000029
 21
-645.071032326452
 31
0.0
  0
LINE
  5
2B32
330
31BE
100
AcDbEntity
  8
0
 62
     0
100
AcDbLine
 10
-188.0069881785603
 20
-1015.608104071676
 30
0.0
 11
372.2999999999992
 21
-642.0710657910367
 31
0.0
  0
LINE
  5
2B33
330
31BE
100
AcDbEntity
  8
0
 62
     0
100
AcDbLine
 10
-192.5069494724448
 20
-1015.608104071674
 30
0.0
 11
372.2999999999992
 21
-639.0710992556196
 31
0.0
  0
LINE
  5
2B34
330
31BE
100
AcDbEntity
  8
0
 62
     0
100
AcDbLine
 10
-197.0069107663294
 20
-1015.608104071676
 30
0.0
 11
372.2999999999992
 21
-636.0711327202061
 31
0.0
  0
LINE
  5
2B35
330
31BE
100
AcDbEntity
  8
0
 62
     0
100
AcDbLine
 10
-201.506872060214
 20
-1015.608104071676
 30
0.0
 11
372.3000000000029
 21
-633.0711661847872
 31
0.0
  0
LINE
  5
2B36
330
31BE
100
AcDbEntity
  8
0
 62
     0
100
AcDbLine
 10
-206.0068333540985
 20
-1015.608104071674
 30
0.0
 11
372.3000000000029
 21
-630.0711996493719
 31
0.0
  0
LINE
  5
2B37
330
31BE
100
AcDbEntity
  8
0
 62
     0
100
AcDbLine
 10
-210.5067946479867
 20
-1015.608104071674
 30
0.0
 11
372.2999999999992
 21
-627.0712331139548
 31
0.0
  0
LINE
  5
2B38
330
31BE
100
AcDbEntity
  8
0
 62
     0
100
AcDbLine
 10
-215.0067559418676
 20
-1015.608104071674
 30
0.0
 11
372.2999999999992
 21
-624.0712665785411
 31
0.0
  0
LINE
  5
2B39
330
31BE
100
AcDbEntity
  8
0
 62
     0
100
AcDbLine
 10
-219.5067172357557
 20
-1015.608104071676
 30
0.0
 11
372.3000000000029
 21
-621.0713000431241
 31
0.0
  0
LINE
  5
2B3A
330
31BE
100
AcDbEntity
  8
0
 62
     0
100
AcDbLine
 10
-224.006678529644
 20
-1015.608104071674
 30
0.0
 11
372.2999999999992
 21
-618.0713335077053
 31
0.0
  0
LINE
  5
2B3B
330
31BE
100
AcDbEntity
  8
0
 62
     0
100
AcDbLine
 10
-228.5066398235285
 20
-1015.608104071674
 30
0.0
 11
372.2999999999992
 21
-615.0713669722916
 31
0.0
  0
LINE
  5
2B3C
330
31BE
100
AcDbEntity
  8
0
 62
     0
100
AcDbLine
 10
-233.0066011174094
 20
-1015.608104071674
 30
0.0
 11
372.3000000000029
 21
-612.0714004368744
 31
0.0
  0
LINE
  5
2B3D
330
31BE
100
AcDbEntity
  8
0
 62
     0
100
AcDbLine
 10
-237.5065624113013
 20
-1015.608104071676
 30
0.0
 11
372.2999999999992
 21
-609.0714339014575
 31
0.0
  0
LINE
  5
2B3E
330
31BE
100
AcDbEntity
  8
0
 62
     0
100
AcDbLine
 10
-242.0065237051858
 20
-1015.608104071674
 30
0.0
 11
372.2999999999992
 21
-606.071467366042
 31
0.0
  0
LINE
  5
2B3F
330
31BE
100
AcDbEntity
  8
0
 62
     0
100
AcDbLine
 10
-246.5064849990704
 20
-1015.608104071676
 30
0.0
 11
372.3000000000029
 21
-603.0715008306252
 31
0.0
  0
LINE
  5
2B40
330
31BE
100
AcDbEntity
  8
0
 62
     0
100
AcDbLine
 10
-251.0064462929549
 20
-1015.608104071674
 30
0.0
 11
372.3000000000029
 21
-600.0715342952097
 31
0.0
  0
LINE
  5
2B41
330
31BE
100
AcDbEntity
  8
0
 62
     0
100
AcDbLine
 10
-255.5064075868431
 20
-1015.608104071676
 30
0.0
 11
372.2999999999992
 21
-597.0715677597927
 31
0.0
  0
LINE
  5
2B42
330
31BE
100
AcDbEntity
  8
0
 62
     0
100
AcDbLine
 10
-260.0063688807277
 20
-1015.608104071674
 30
0.0
 11
372.2999999999992
 21
-594.0716012243775
 31
0.0
  0
LINE
  5
2B43
330
31BE
100
AcDbEntity
  8
0
 62
     0
100
AcDbLine
 10
-264.5063301746122
 20
-1015.608104071676
 30
0.0
 11
372.3000000000029
 21
-591.0716346889603
 31
0.0
  0
LINE
  5
2B44
330
31BE
100
AcDbEntity
  8
0
 62
     0
100
AcDbLine
 10
-269.0062914685004
 20
-1015.608104071676
 30
0.0
 11
372.2999999999992
 21
-588.071668153545
 31
0.0
  0
LINE
  5
2B45
330
31BE
100
AcDbEntity
  8
0
 62
     0
100
AcDbLine
 10
-273.5062527623814
 20
-1015.608104071674
 30
0.0
 11
372.2999999999992
 21
-585.0717016181297
 31
0.0
  0
LINE
  5
2B46
330
31BE
100
AcDbEntity
  8
0
 62
     0
100
AcDbLine
 10
-278.0062140562696
 20
-1015.608104071674
 30
0.0
 11
372.2999999999992
 21
-582.0717350827126
 31
0.0
  0
LINE
  5
2B47
330
31BE
100
AcDbEntity
  8
0
 62
     0
100
AcDbLine
 10
-282.5061753501504
 20
-1015.608104071672
 30
0.0
 11
372.3000000000029
 21
-579.0717685472952
 31
0.0
  0
LINE
  5
2B48
330
31BE
100
AcDbEntity
  8
0
 62
     0
100
AcDbLine
 10
-287.0061366440423
 20
-1015.608104071676
 30
0.0
 11
372.3000000000029
 21
-576.0718020118783
 31
0.0
  0
LINE
  5
2B49
330
31BE
100
AcDbEntity
  8
0
 62
     0
100
AcDbLine
 10
-291.5060979379232
 20
-1015.608104071676
 30
0.0
 11
372.2999999999992
 21
-573.0718354764648
 31
0.0
  0
LINE
  5
2B4A
330
31BE
100
AcDbEntity
  8
0
 62
     0
100
AcDbLine
 10
-296.0060592318114
 20
-1015.608104071674
 30
0.0
 11
372.3000000000029
 21
-570.0718689410478
 31
0.0
  0
LINE
  5
2B4B
330
31BE
100
AcDbEntity
  8
0
 62
     0
100
AcDbLine
 10
-300.5060205256996
 20
-1015.608104071674
 30
0.0
 11
372.2999999999992
 21
-567.0719024056307
 31
0.0
  0
LINE
  5
2B4C
330
31BE
100
AcDbEntity
  8
0
 62
     0
100
AcDbLine
 10
-305.0059818195841
 20
-1015.608104071676
 30
0.0
 11
372.3000000000029
 21
-564.0719358702154
 31
0.0
  0
LINE
  5
2B4D
330
31BE
100
AcDbEntity
  8
0
 62
     0
100
AcDbLine
 10
-309.5059431134651
 20
-1015.608104071676
 30
0.0
 11
372.2999999999992
 21
-561.0719693348
 31
0.0
  0
LINE
  5
2B4E
330
31BE
100
AcDbEntity
  8
0
 62
     0
100
AcDbLine
 10
-314.0059044073569
 20
-1015.608104071676
 30
0.0
 11
372.2999999999992
 21
-558.0720027993827
 31
0.0
  0
LINE
  5
2B4F
330
31BE
100
AcDbEntity
  8
0
 62
     0
100
AcDbLine
 10
-318.5058657012415
 20
-1015.608104071676
 30
0.0
 11
372.3000000000029
 21
-555.0720362639658
 31
0.0
  0
LINE
  5
2B50
330
31BE
100
AcDbEntity
  8
0
 62
     0
100
AcDbLine
 10
-323.0058269951223
 20
-1015.608104071674
 30
0.0
 11
372.3000000000029
 21
-552.0720697285504
 31
0.0
  0
LINE
  5
2B51
330
31BE
100
AcDbEntity
  8
0
 62
     0
100
AcDbLine
 10
-327.5057882890069
 20
-1015.608104071674
 30
0.0
 11
372.3000000000029
 21
-549.0721031931334
 31
0.0
  0
LINE
  5
2B52
330
31BE
100
AcDbEntity
  8
0
 62
     0
100
AcDbLine
 10
-332.0057495828951
 20
-1015.608104071674
 30
0.0
 11
372.2999999999992
 21
-546.0721366577181
 31
0.0
  0
LINE
  5
2B53
330
31BE
100
AcDbEntity
  8
0
 62
     0
100
AcDbLine
 10
-336.5057108767833
 20
-1015.608104071676
 30
0.0
 11
372.3000000000029
 21
-543.0721701223009
 31
0.0
  0
LINE
  5
2B54
330
31BE
100
AcDbEntity
  8
0
 62
     0
100
AcDbLine
 10
-341.0056721706642
 20
-1015.608104071672
 30
0.0
 11
372.3000000000029
 21
-540.0722035868857
 31
0.0
  0
LINE
  5
2B55
330
31BE
100
AcDbEntity
  8
0
 62
     0
100
AcDbLine
 10
-345.5056334645524
 20
-1015.608104071674
 30
0.0
 11
372.2999999999992
 21
-537.0722370514686
 31
0.0
  0
LINE
  5
2B56
330
31BE
100
AcDbEntity
  8
0
 62
     0
100
AcDbLine
 10
-350.0055947584406
 20
-1015.608104071676
 30
0.0
 11
372.2999999999992
 21
-534.0722705160552
 31
0.0
  0
LINE
  5
2B57
330
31BE
100
AcDbEntity
  8
0
 62
     0
100
AcDbLine
 10
-354.5055560523251
 20
-1015.608104071676
 30
0.0
 11
372.3000000000029
 21
-531.0723039806362
 31
0.0
  0
LINE
  5
2B58
330
31BE
100
AcDbEntity
  8
0
 62
     0
100
AcDbLine
 10
-359.005517346206
 20
-1015.608104071674
 30
0.0
 11
372.3000000000029
 21
-528.0723374452207
 31
0.0
  0
LINE
  5
2B59
330
31BE
100
AcDbEntity
  8
0
 62
     0
100
AcDbLine
 10
-363.5054786400942
 20
-1015.608104071676
 30
0.0
 11
372.2999999999992
 21
-525.0723709098056
 31
0.0
  0
LINE
  5
2B5A
330
31BE
100
AcDbEntity
  8
0
 62
     0
100
AcDbLine
 10
-368.0054399339824
 20
-1015.608104071676
 30
0.0
 11
372.3000000000029
 21
-522.0724043743882
 31
0.0
  0
LINE
  5
2B5B
330
31BE
100
AcDbEntity
  8
0
 62
     0
100
AcDbLine
 10
-372.3000000000029
 20
-1015.471170269433
 30
0.0
 11
372.3000000000029
 21
-519.0724378389732
 31
0.0
  0
LINE
  5
2B5C
330
31BE
100
AcDbEntity
  8
0
 62
     0
100
AcDbLine
 10
-372.3000000000029
 20
-1012.471203734014
 30
0.0
 11
372.2999999999992
 21
-516.0724713035541
 31
0.0
  0
LINE
  5
2B5D
330
31BE
100
AcDbEntity
  8
0
 62
     0
100
AcDbLine
 10
-372.3000000000029
 20
-1009.471237198598
 30
0.0
 11
372.2999999999992
 21
-513.0725047681408
 31
0.0
  0
LINE
  5
2B5E
330
31BE
100
AcDbEntity
  8
0
 62
     0
100
AcDbLine
 10
-372.3000000000029
 20
-1006.471270663183
 30
0.0
 11
372.3000000000029
 21
-510.0725382327237
 31
0.0
  0
LINE
  5
2B5F
330
31BE
100
AcDbEntity
  8
0
 62
     0
100
AcDbLine
 10
-372.3000000000029
 20
-1003.471304127766
 30
0.0
 11
372.2999999999992
 21
-507.0725716973083
 31
0.0
  0
LINE
  5
2B60
330
31BE
100
AcDbEntity
  8
0
 62
     0
100
AcDbLine
 10
-372.3000000000029
 20
-1000.471337592349
 30
0.0
 11
372.2999999999992
 21
-504.0726051618911
 31
0.0
  0
LINE
  5
2B61
330
31BE
100
AcDbEntity
  8
0
 62
     0
100
AcDbLine
 10
-372.3000000000029
 20
-997.4713710569339
 30
0.0
 11
372.3000000000029
 21
-501.0726386264741
 31
0.0
  0
LINE
  5
2B62
330
31BE
100
AcDbEntity
  8
0
 62
     0
100
AcDbLine
 10
-372.2999999999992
 20
-994.4714045215169
 30
0.0
 11
372.3000000000029
 21
-498.0726720910586
 31
0.0
  0
LINE
  5
2B63
330
31BE
100
AcDbEntity
  8
0
 62
     0
100
AcDbLine
 10
-372.3000000000029
 20
-991.4714379861015
 30
0.0
 11
372.2999999999992
 21
-495.0727055556417
 31
0.0
  0
LINE
  5
2B64
330
31BE
100
AcDbEntity
  8
0
 62
     0
100
AcDbLine
 10
-372.3000000000029
 20
-988.4714714506845
 30
0.0
 11
372.2999999999992
 21
-492.0727390202262
 31
0.0
  0
LINE
  5
2B65
330
31BE
100
AcDbEntity
  8
0
 62
     0
100
AcDbLine
 10
-372.3000000000029
 20
-985.4715049152691
 30
0.0
 11
372.3000000000029
 21
-489.0727724848091
 31
0.0
  0
LINE
  5
2B66
330
31BE
100
AcDbEntity
  8
0
 62
     0
100
AcDbLine
 10
-372.3000000000029
 20
-982.4715383798519
 30
0.0
 11
372.2999999999992
 21
-486.072805949394
 31
0.0
  0
LINE
  5
2B67
330
31BE
100
AcDbEntity
  8
0
 62
     0
100
AcDbLine
 10
-372.3000000000029
 20
-979.4715718444383
 30
0.0
 11
372.2999999999992
 21
-483.0728394139787
 31
0.0
  0
LINE
  5
2B68
330
31BE
100
AcDbEntity
  8
0
 62
     0
100
AcDbLine
 10
-372.3000000000029
 20
-976.4716053090195
 30
0.0
 11
372.2999999999992
 21
-480.0728728785633
 31
0.0
  0
LINE
  5
2B69
330
31BE
100
AcDbEntity
  8
0
 62
     0
100
AcDbLine
 10
-372.2999999999992
 20
-973.4716387736025
 30
0.0
 11
372.3000000000029
 21
-477.0729063431445
 31
0.0
  0
LINE
  5
2B6A
330
31BE
100
AcDbEntity
  8
0
 62
     0
100
AcDbLine
 10
-372.3000000000029
 20
-970.4716722381888
 30
0.0
 11
372.2999999999992
 21
-474.072939807731
 31
0.0
  0
LINE
  5
2B6B
330
31BE
100
AcDbEntity
  8
0
 62
     0
100
AcDbLine
 10
-372.2999999999992
 20
-967.4717057027699
 30
0.0
 11
372.2999999999992
 21
-471.0729732723121
 31
0.0
  0
LINE
  5
2B6C
330
31BE
100
AcDbEntity
  8
0
 62
     0
100
AcDbLine
 10
-372.3000000000029
 20
-964.4717391673564
 30
0.0
 11
372.3000000000029
 21
-468.0730067368967
 31
0.0
  0
LINE
  5
2B6D
330
31BE
100
AcDbEntity
  8
0
 62
     0
100
AcDbLine
 10
-372.3000000000029
 20
-961.4717726319376
 30
0.0
 11
372.2999999999992
 21
-465.0730402014796
 31
0.0
  0
LINE
  5
2B6E
330
31BE
100
AcDbEntity
  8
0
 62
     0
100
AcDbLine
 10
-372.3000000000029
 20
-958.4718060965242
 30
0.0
 11
372.3000000000029
 21
-462.0730736660643
 31
0.0
  0
LINE
  5
2B6F
330
31BE
100
AcDbEntity
  8
0
 62
     0
100
AcDbLine
 10
-372.2999999999992
 20
-955.4718395611072
 30
0.0
 11
372.2999999999992
 21
-459.0731071306489
 31
0.0
  0
LINE
  5
2B70
330
31BE
100
AcDbEntity
  8
0
 62
     0
100
AcDbLine
 10
-372.3000000000066
 20
-952.4718730256918
 30
0.0
 11
372.2999999999992
 21
-456.0731405952319
 31
0.0
  0
LINE
  5
2B71
330
31BE
100
AcDbEntity
  8
0
 62
     0
100
AcDbLine
 10
-372.3000000000029
 20
-949.4719064902747
 30
0.0
 11
372.2999999999992
 21
-453.0731740598167
 31
0.0
  0
LINE
  5
2B72
330
31BE
100
AcDbEntity
  8
0
 62
     0
100
AcDbLine
 10
-372.2999999999992
 20
-946.4719399548556
 30
0.0
 11
372.3000000000029
 21
-450.0732075243976
 31
0.0
  0
LINE
  5
2B73
330
31BE
100
AcDbEntity
  8
0
 62
     0
100
AcDbLine
 10
-372.3000000000029
 20
-943.4719734194423
 30
0.0
 11
372.3000000000029
 21
-447.0732409889824
 31
0.0
  0
LINE
  5
2B74
330
31BE
100
AcDbEntity
  8
0
 62
     0
100
AcDbLine
 10
-372.3000000000029
 20
-940.4720068840269
 30
0.0
 11
372.2999999999992
 21
-444.0732744535687
 31
0.0
  0
LINE
  5
2B75
330
31BE
100
AcDbEntity
  8
0
 62
     0
100
AcDbLine
 10
-372.3000000000029
 20
-937.4720403486099
 30
0.0
 11
372.3000000000029
 21
-441.07330791815
 31
0.0
  0
LINE
  5
2B76
330
31BE
100
AcDbEntity
  8
0
 62
     0
100
AcDbLine
 10
-372.2999999999992
 20
-934.4720738131924
 30
0.0
 11
372.3000000000029
 21
-438.0733413827328
 31
0.0
  0
LINE
  5
2B77
330
31BE
100
AcDbEntity
  8
0
 62
     0
100
AcDbLine
 10
-372.3000000000066
 20
-931.4721072777775
 30
0.0
 11
372.2999999999992
 21
-435.0733748473173
 31
0.0
  0
LINE
  5
2B78
330
31BE
100
AcDbEntity
  8
0
 62
     0
100
AcDbLine
 10
-372.3000000000029
 20
-928.4721407423603
 30
0.0
 11
372.2999999999992
 21
-432.0734083119023
 31
0.0
  0
LINE
  5
2B79
330
31BE
100
AcDbEntity
  8
0
 62
     0
100
AcDbLine
 10
-372.2999999999992
 20
-925.4721742069451
 30
0.0
 11
372.3000000000029
 21
-429.0734417764871
 31
0.0
  0
LINE
  5
2B7A
330
31BE
100
AcDbEntity
  8
0
 62
     0
100
AcDbLine
 10
-372.2999999999992
 20
-922.4722076715281
 30
0.0
 11
372.3000000000029
 21
-426.0734752410679
 31
0.0
  0
LINE
  5
2B7B
330
31BE
100
AcDbEntity
  8
0
 62
     0
100
AcDbLine
 10
-372.3000000000029
 20
-919.4722411361127
 30
0.0
 11
372.2999999999992
 21
-423.0735087056546
 31
0.0
  0
LINE
  5
2B7C
330
31BE
100
AcDbEntity
  8
0
 62
     0
100
AcDbLine
 10
-372.3000000000029
 20
-916.4722746006956
 30
0.0
 11
372.3000000000029
 21
-420.0735421702356
 31
0.0
  0
LINE
  5
2B7D
330
31BE
100
AcDbEntity
  8
0
 62
     0
100
AcDbLine
 10
-372.2999999999992
 20
-913.4723080652801
 30
0.0
 11
372.3000000000029
 21
-417.0735756348221
 31
0.0
  0
LINE
  5
2B7E
330
31BE
100
AcDbEntity
  8
0
 62
     0
100
AcDbLine
 10
-372.3000000000029
 20
-910.4723415298648
 30
0.0
 11
372.2999999999992
 21
-414.0736090994049
 31
0.0
  0
LINE
  5
2B7F
330
31BE
100
AcDbEntity
  8
0
 62
     0
100
AcDbLine
 10
-372.3000000000029
 20
-907.472374994446
 30
0.0
 11
372.2999999999992
 21
-411.0736425639879
 31
0.0
  0
LINE
  5
2B80
330
31BE
100
AcDbEntity
  8
0
 62
     0
100
AcDbLine
 10
-372.3000000000029
 20
-904.4724084590326
 30
0.0
 11
372.3000000000029
 21
-408.0736760285724
 31
0.0
  0
LINE
  5
2B81
330
31BE
100
AcDbEntity
  8
0
 62
     0
100
AcDbLine
 10
-372.2999999999992
 20
-901.4724419236154
 30
0.0
 11
372.3000000000029
 21
-405.0737094931552
 31
0.0
  0
LINE
  5
2B82
330
31BE
100
AcDbEntity
  8
0
 62
     0
100
AcDbLine
 10
-372.3000000000029
 20
-898.4724753882002
 30
0.0
 11
372.2999999999992
 21
-402.07374295774
 31
0.0
  0
LINE
  5
2B83
330
31BE
100
AcDbEntity
  8
0
 62
     0
100
AcDbLine
 10
-372.3000000000029
 20
-895.472508852783
 30
0.0
 11
372.2999999999992
 21
-399.0737764223249
 31
0.0
  0
LINE
  5
2B84
330
31BE
100
AcDbEntity
  8
0
 62
     0
100
AcDbLine
 10
-372.2999999999992
 20
-892.4725423173658
 30
0.0
 11
372.3000000000029
 21
-396.0738098869077
 31
0.0
  0
LINE
  5
2B85
330
31BE
100
AcDbEntity
  8
0
 62
     0
100
AcDbLine
 10
-372.3000000000029
 20
-889.4725757819507
 30
0.0
 11
372.2999999999992
 21
-393.0738433514908
 31
0.0
  0
LINE
  5
2B86
330
31BE
100
AcDbEntity
  8
0
 62
     0
100
AcDbLine
 10
-372.3000000000029
 20
-886.472609246533
 30
0.0
 11
372.2999999999992
 21
-390.0738768160754
 31
0.0
  0
LINE
  5
2B87
330
31BE
100
AcDbEntity
  8
0
 62
     0
100
AcDbLine
 10
371.3296794040543
 20
-387.7207890261325
 30
0.0
 11
372.3000000000029
 21
-387.0739102806584
 31
0.0
  0
LINE
  5
2B88
330
31BE
100
AcDbEntity
  8
0
 62
     0
100
AcDbLine
 10
-372.2999999999992
 20
-883.4726427111164
 30
0.0
 11
371.3296794040543
 21
-387.7207890261325
 31
0.0
  0
LINE
  5
2B89
330
31BE
100
AcDbEntity
  8
0
 62
     0
100
AcDbLine
 10
366.8297181101698
 20
-387.7207890261325
 30
0.0
 11
372.3000000000029
 21
-384.0739437452448
 31
0.0
  0
LINE
  5
2B8A
330
31BE
100
AcDbEntity
  8
0
 62
     0
100
AcDbLine
 10
-372.2999999999992
 20
-880.4726761757009
 30
0.0
 11
366.8297181101698
 21
-387.7207890261325
 31
0.0
  0
LINE
  5
2B8B
330
31BE
100
AcDbEntity
  8
0
 62
     0
100
AcDbLine
 10
362.3297568162852
 20
-387.7207890261308
 30
0.0
 11
372.2999999999992
 21
-381.0739772098259
 31
0.0
  0
LINE
  5
2B8C
330
31BE
100
AcDbEntity
  8
0
 62
     0
100
AcDbLine
 10
-372.3000000000029
 20
-877.4727096402855
 30
0.0
 11
362.3297568162852
 21
-387.7207890261308
 31
0.0
  0
LINE
  5
2B8D
330
31BE
100
AcDbEntity
  8
0
 62
     0
100
AcDbLine
 10
357.8297955224007
 20
-387.7207890261308
 30
0.0
 11
372.2999999999992
 21
-378.0740106744123
 31
0.0
  0
LINE
  5
2B8E
330
31BE
100
AcDbEntity
  8
0
 62
     0
100
AcDbLine
 10
-372.3000000000029
 20
-874.4727431048703
 30
0.0
 11
357.8297955224007
 21
-387.7207890261308
 31
0.0
  0
LINE
  5
2B8F
330
31BE
100
AcDbEntity
  8
0
 62
     0
100
AcDbLine
 10
353.329834228516
 20
-387.7207890261308
 30
0.0
 11
372.3000000000029
 21
-375.0740441389936
 31
0.0
  0
LINE
  5
2B90
330
31BE
100
AcDbEntity
  8
0
 62
     0
100
AcDbLine
 10
-372.2999999999992
 20
-871.4727765694513
 30
0.0
 11
353.329834228516
 21
-387.7207890261308
 31
0.0
  0
LINE
  5
2B91
330
31BE
100
AcDbEntity
  8
0
 62
     0
100
AcDbLine
 10
348.8298729346278
 20
-387.7207890261308
 30
0.0
 11
372.3000000000029
 21
-372.0740776035764
 31
0.0
  0
LINE
  5
2B92
330
31BE
100
AcDbEntity
  8
0
 62
     0
100
AcDbLine
 10
-372.3000000000029
 20
-868.4728100340365
 30
0.0
 11
348.8298729346278
 21
-387.7207890261308
 31
0.0
  0
LINE
  5
2B93
330
31BE
100
AcDbEntity
  8
0
 62
     0
100
AcDbLine
 10
344.3299116407434
 20
-387.7207890261308
 30
0.0
 11
372.2999999999992
 21
-369.0741110681628
 31
0.0
  0
LINE
  5
2B94
330
31BE
100
AcDbEntity
  8
0
 62
     0
100
AcDbLine
 10
-372.2999999999992
 20
-865.4728434986189
 30
0.0
 11
344.3299116407434
 21
-387.7207890261308
 31
0.0
  0
LINE
  5
2B95
330
31BE
100
AcDbEntity
  8
0
 62
     0
100
AcDbLine
 10
339.8299503468552
 20
-387.7207890261325
 30
0.0
 11
372.2999999999992
 21
-366.0741445327476
 31
0.0
  0
LINE
  5
2B96
330
31BE
100
AcDbEntity
  8
0
 62
     0
100
AcDbLine
 10
-372.2999999999992
 20
-862.4728769632039
 30
0.0
 11
339.8299503468552
 21
-387.7207890261325
 31
0.0
  0
LINE
  5
2B97
330
31BE
100
AcDbEntity
  8
0
 62
     0
100
AcDbLine
 10
335.3299890529669
 20
-387.7207890261325
 30
0.0
 11
372.2999999999992
 21
-363.0741779973305
 31
0.0
  0
LINE
  5
2B98
330
31BE
100
AcDbEntity
  8
0
 62
     0
100
AcDbLine
 10
-372.3000000000029
 20
-859.4729104277885
 30
0.0
 11
335.3299890529669
 21
-387.7207890261325
 31
0.0
  0
LINE
  5
2B99
330
31BE
100
AcDbEntity
  8
0
 62
     0
100
AcDbLine
 10
330.8300277590825
 20
-387.7207890261325
 30
0.0
 11
372.3000000000029
 21
-360.0742114619115
 31
0.0
  0
LINE
  5
2B9A
330
31BE
100
AcDbEntity
  8
0
 62
     0
100
AcDbLine
 10
-372.3000000000029
 20
-856.4729438923714
 30
0.0
 11
330.8300277590825
 21
-387.7207890261325
 31
0.0
  0
LINE
  5
2B9B
330
31BE
100
AcDbEntity
  8
0
 62
     0
100
AcDbLine
 10
326.3300664652016
 20
-387.7207890261325
 30
0.0
 11
372.2999999999992
 21
-357.074244926498
 31
0.0
  0
LINE
  5
2B9C
330
31BE
100
AcDbEntity
  8
0
 62
     0
100
AcDbLine
 10
-372.2999999999992
 20
-853.472977356956
 30
0.0
 11
326.3300664652016
 21
-387.7207890261325
 31
0.0
  0
LINE
  5
2B9D
330
31BE
100
AcDbEntity
  8
0
 62
     0
100
AcDbLine
 10
321.8301051713134
 20
-387.7207890261288
 30
0.0
 11
372.2999999999992
 21
-354.074278391079
 31
0.0
  0
LINE
  5
2B9E
330
31BE
100
AcDbEntity
  8
0
 62
     0
100
AcDbLine
 10
-372.3000000000029
 20
-850.4730108215371
 30
0.0
 11
321.8301051713134
 21
-387.7207890261288
 31
0.0
  0
LINE
  5
2B9F
330
31BE
100
AcDbEntity
  8
0
 62
     0
100
AcDbLine
 10
317.3301438774251
 20
-387.7207890261325
 30
0.0
 11
372.3000000000029
 21
-351.0743118556638
 31
0.0
  0
LINE
  5
2BA0
330
31BE
100
AcDbEntity
  8
0
 62
     0
100
AcDbLine
 10
-372.3000000000029
 20
-847.4730442861233
 30
0.0
 11
317.3301438774251
 21
-387.7207890261325
 31
0.0
  0
LINE
  5
2BA1
330
31BE
100
AcDbEntity
  8
0
 62
     0
100
AcDbLine
 10
312.8301825835442
 20
-387.7207890261308
 30
0.0
 11
372.3000000000029
 21
-348.0743453202487
 31
0.0
  0
LINE
  5
2BA2
330
31BE
100
AcDbEntity
  8
0
 62
     0
100
AcDbLine
 10
-372.2999999999992
 20
-844.4730777507061
 30
0.0
 11
312.8301825835442
 21
-387.7207890261308
 31
0.0
  0
LINE
  5
2BA3
330
31BE
100
AcDbEntity
  8
0
 62
     0
100
AcDbLine
 10
308.3302212896597
 20
-387.7207890261325
 30
0.0
 11
372.2999999999992
 21
-345.0743787848332
 31
0.0
  0
LINE
  5
2BA4
330
31BE
100
AcDbEntity
  8
0
 62
     0
100
AcDbLine
 10
-372.2999999999992
 20
-841.4731112152908
 30
0.0
 11
308.3302212896597
 21
-387.7207890261325
 31
0.0
  0
LINE
  5
2BA5
330
31BE
100
AcDbEntity
  8
0
 62
     0
100
AcDbLine
 10
303.8302599957678
 20
-387.7207890261325
 30
0.0
 11
372.2999999999992
 21
-342.0744122494161
 31
0.0
  0
LINE
  5
2BA6
330
31BE
100
AcDbEntity
  8
0
 62
     0
100
AcDbLine
 10
-372.3000000000029
 20
-838.4731446798742
 30
0.0
 11
303.8302599957678
 21
-387.7207890261325
 31
0.0
  0
LINE
  5
2BA7
330
31BE
100
AcDbEntity
  8
0
 62
     0
100
AcDbLine
 10
299.3302987018832
 20
-387.7207890261344
 30
0.0
 11
372.3000000000029
 21
-339.074445713999
 31
0.0
  0
LINE
  5
2BA8
330
31BE
100
AcDbEntity
  8
0
 62
     0
100
AcDbLine
 10
-372.3000000000029
 20
-835.4731781444588
 30
0.0
 11
299.3302987018832
 21
-387.7207890261344
 31
0.0
  0
LINE
  5
2BA9
330
31BE
100
AcDbEntity
  8
0
 62
     0
100
AcDbLine
 10
294.8303374080024
 20
-387.7207890261308
 30
0.0
 11
372.3000000000029
 21
-336.0744791785837
 31
0.0
  0
LINE
  5
2BAA
330
31BE
100
AcDbEntity
  8
0
 62
     0
100
AcDbLine
 10
-372.2999999999992
 20
-832.4732116090418
 30
0.0
 11
294.8303374080024
 21
-387.7207890261308
 31
0.0
  0
LINE
  5
2BAB
330
31BE
100
AcDbEntity
  8
0
 62
     0
100
AcDbLine
 10
290.3303761141178
 20
-387.7207890261288
 30
0.0
 11
372.3000000000029
 21
-333.0745126431666
 31
0.0
  0
LINE
  5
2BAC
330
31BE
100
AcDbEntity
  8
0
 62
     0
100
AcDbLine
 10
-372.2999999999992
 20
-829.4732450736244
 30
0.0
 11
290.3303761141178
 21
-387.7207890261288
 31
0.0
  0
LINE
  5
2BAD
330
31BE
100
AcDbEntity
  8
0
 62
     0
100
AcDbLine
 10
285.830414820226
 20
-387.7207890261325
 30
0.0
 11
372.2999999999992
 21
-330.0745461077513
 31
0.0
  0
LINE
  5
2BAE
330
31BE
100
AcDbEntity
  8
0
 62
     0
100
AcDbLine
 10
-372.3000000000029
 20
-826.4732785382092
 30
0.0
 11
285.830414820226
 21
-387.7207890261325
 31
0.0
  0
LINE
  5
2BAF
330
31BE
100
AcDbEntity
  8
0
 62
     0
100
AcDbLine
 10
281.3304535263451
 20
-387.7207890261325
 30
0.0
 11
372.3000000000029
 21
-327.074579572336
 31
0.0
  0
LINE
  5
2BB0
330
31BE
100
AcDbEntity
  8
0
 62
     0
100
AcDbLine
 10
-372.3000000000029
 20
-823.4733120027959
 30
0.0
 11
281.3304535263451
 21
-387.7207890261325
 31
0.0
  0
LINE
  5
2BB1
330
31BE
100
AcDbEntity
  8
0
 62
     0
100
AcDbLine
 10
276.8304922324605
 20
-387.7207890261308
 30
0.0
 11
372.3000000000029
 21
-324.0746130369189
 31
0.0
  0
LINE
  5
2BB2
330
31BE
100
AcDbEntity
  8
0
 62
     0
100
AcDbLine
 10
-372.2999999999992
 20
-820.4733454673769
 30
0.0
 11
276.8304922324605
 21
-387.7207890261308
 31
0.0
  0
LINE
  5
2BB3
330
31BE
100
AcDbEntity
  8
0
 62
     0
100
AcDbLine
 10
272.3305309385724
 20
-387.7207890261308
 30
0.0
 11
372.2999999999992
 21
-321.0746465015017
 31
0.0
  0
LINE
  5
2BB4
330
31BE
100
AcDbEntity
  8
0
 62
     0
100
AcDbLine
 10
-372.3000000000029
 20
-817.4733789319597
 30
0.0
 11
272.3305309385724
 21
-387.7207890261308
 31
0.0
  0
LINE
  5
2BB5
330
31BE
100
AcDbEntity
  8
0
 62
     0
100
AcDbLine
 10
267.8305696446841
 20
-387.7207890261325
 30
0.0
 11
372.3000000000029
 21
-318.0746799660865
 31
0.0
  0
LINE
  5
2BB6
330
31BE
100
AcDbEntity
  8
0
 62
     0
100
AcDbLine
 10
-372.3000000000029
 20
-814.4734123965463
 30
0.0
 11
267.8305696446841
 21
-387.7207890261325
 31
0.0
  0
LINE
  5
2BB7
330
31BE
100
AcDbEntity
  8
0
 62
     0
100
AcDbLine
 10
263.3306083507996
 20
-387.7207890261325
 30
0.0
 11
372.3000000000029
 21
-315.0747134306694
 31
0.0
  0
LINE
  5
2BB8
330
31BE
100
AcDbEntity
  8
0
 62
     0
100
AcDbLine
 10
-372.2999999999992
 20
-811.4734458611273
 30
0.0
 11
263.3306083507996
 21
-387.7207890261325
 31
0.0
  0
LINE
  5
2BB9
330
31BE
100
AcDbEntity
  8
0
 62
     0
100
AcDbLine
 10
258.830647056915
 20
-387.7207890261325
 30
0.0
 11
372.2999999999992
 21
-312.0747468952559
 31
0.0
  0
LINE
  5
2BBA
330
31BE
100
AcDbEntity
  8
0
 62
     0
100
AcDbLine
 10
-372.3000000000029
 20
-808.4734793257121
 30
0.0
 11
258.830647056915
 21
-387.7207890261325
 31
0.0
  0
LINE
  5
2BBB
330
31BE
100
AcDbEntity
  8
0
 62
     0
100
AcDbLine
 10
254.3306857630341
 20
-387.7207890261288
 30
0.0
 11
372.2999999999992
 21
-309.0747803598369
 31
0.0
  0
LINE
  5
2BBC
330
31BE
100
AcDbEntity
  8
0
 62
     0
100
AcDbLine
 10
-372.3000000000029
 20
-805.4735127902945
 30
0.0
 11
254.3306857630341
 21
-387.7207890261288
 31
0.0
  0
LINE
  5
2BBD
330
31BE
100
AcDbEntity
  8
0
 62
     0
100
AcDbLine
 10
249.830724469146
 20
-387.7207890261308
 30
0.0
 11
372.3000000000029
 21
-306.0748138244217
 31
0.0
  0
LINE
  5
2BBE
330
31BE
100
AcDbEntity
  8
0
 62
     0
100
AcDbLine
 10
-372.3000000000029
 20
-802.4735462548814
 30
0.0
 11
249.830724469146
 21
-387.7207890261308
 31
0.0
  0
LINE
  5
2BBF
330
31BE
100
AcDbEntity
  8
0
 62
     0
100
AcDbLine
 10
245.3307631752614
 20
-387.7207890261308
 30
0.0
 11
372.3000000000029
 21
-303.0748472890063
 31
0.0
  0
LINE
  5
2BC0
330
31BE
100
AcDbEntity
  8
0
 62
     0
100
AcDbLine
 10
-372.2999999999992
 20
-799.4735797194644
 30
0.0
 11
245.3307631752614
 21
-387.7207890261308
 31
0.0
  0
LINE
  5
2BC1
330
31BE
100
AcDbEntity
  8
0
 62
     0
100
AcDbLine
 10
240.8308018813732
 20
-387.7207890261325
 30
0.0
 11
372.2999999999992
 21
-300.0748807535893
 31
0.0
  0
LINE
  5
2BC2
330
31BE
100
AcDbEntity
  8
0
 62
     0
100
AcDbLine
 10
-372.3000000000029
 20
-796.4736131840473
 30
0.0
 11
240.8308018813732
 21
-387.7207890261325
 31
0.0
  0
LINE
  5
2BC3
330
31BE
100
AcDbEntity
  8
0
 62
     0
100
AcDbLine
 10
236.3308405874886
 20
-387.7207890261325
 30
0.0
 11
372.3000000000029
 21
-297.0749142181721
 31
0.0
  0
LINE
  5
2BC4
330
31BE
100
AcDbEntity
  8
0
 62
     0
100
AcDbLine
 10
-372.3000000000029
 20
-793.4736466486316
 30
0.0
 11
236.3308405874886
 21
-387.7207890261325
 31
0.0
  0
LINE
  5
2BC5
330
31BE
100
AcDbEntity
  8
0
 62
     0
100
AcDbLine
 10
231.8308792936041
 20
-387.7207890261325
 30
0.0
 11
372.3000000000029
 21
-294.074947682755
 31
0.0
  0
LINE
  5
2BC6
330
31BE
100
AcDbEntity
  8
0
 62
     0
100
AcDbLine
 10
-372.2999999999992
 20
-790.4736801132131
 30
0.0
 11
231.8308792936041
 21
-387.7207890261325
 31
0.0
  0
LINE
  5
2BC7
330
31BE
100
AcDbEntity
  8
0
 62
     0
100
AcDbLine
 10
227.3309179997159
 20
-387.7207890261308
 30
0.0
 11
372.2999999999992
 21
-291.0749811473415
 31
0.0
  0
LINE
  5
2BC8
330
31BE
100
AcDbEntity
  8
0
 62
     0
100
AcDbLine
 10
-372.2999999999992
 20
-787.4737135777977
 30
0.0
 11
227.3309179997159
 21
-387.7207890261308
 31
0.0
  0
LINE
  5
2BC9
330
31BE
100
AcDbEntity
  8
0
 62
     0
100
AcDbLine
 10
222.830956705835
 20
-387.7207890261308
 30
0.0
 11
372.2999999999992
 21
-288.0750146119262
 31
0.0
  0
LINE
  5
2BCA
330
31BE
100
AcDbEntity
  8
0
 62
     0
100
AcDbLine
 10
-372.3000000000029
 20
-784.4737470423822
 30
0.0
 11
222.830956705835
 21
-387.7207890261308
 31
0.0
  0
LINE
  5
2BCB
330
31BE
100
AcDbEntity
  8
0
 62
     0
100
AcDbLine
 10
218.3309954119469
 20
-387.7207890261325
 30
0.0
 11
372.3000000000029
 21
-285.0750480765073
 31
0.0
  0
LINE
  5
2BCC
330
31BE
100
AcDbEntity
  8
0
 62
     0
100
AcDbLine
 10
-372.3000000000029
 20
-781.473780506967
 30
0.0
 11
218.3309954119469
 21
-387.7207890261325
 31
0.0
  0
LINE
  5
2BCD
330
31BE
100
AcDbEntity
  8
0
 62
     0
100
AcDbLine
 10
213.8310341180623
 20
-387.7207890261308
 30
0.0
 11
372.3000000000029
 21
-282.075081541092
 31
0.0
  0
LINE
  5
2BCE
330
31BE
100
AcDbEntity
  8
0
 62
     0
100
AcDbLine
 10
-372.2999999999992
 20
-778.4738139715501
 30
0.0
 11
213.8310341180623
 21
-387.7207890261308
 31
0.0
  0
LINE
  5
2BCF
330
31BE
100
AcDbEntity
  8
0
 62
     0
100
AcDbLine
 10
209.331072824174
 20
-387.7207890261308
 30
0.0
 11
372.2999999999992
 21
-279.0751150056749
 31
0.0
  0
LINE
  5
2BD0
330
31BE
100
AcDbEntity
  8
0
 62
     0
100
AcDbLine
 10
-372.2999999999992
 20
-775.4738474361329
 30
0.0
 11
209.331072824174
 21
-387.7207890261308
 31
0.0
  0
LINE
  5
2BD1
330
31BE
100
AcDbEntity
  8
0
 62
     0
100
AcDbLine
 10
204.8311115302895
 20
-387.7207890261308
 30
0.0
 11
372.2999999999992
 21
-276.0751484702596
 31
0.0
  0
LINE
  5
2BD2
330
31BE
100
AcDbEntity
  8
0
 62
     0
100
AcDbLine
 10
-372.3000000000029
 20
-772.4738809007176
 30
0.0
 11
204.8311115302895
 21
-387.7207890261308
 31
0.0
  0
LINE
  5
2BD3
330
31BE
100
AcDbEntity
  8
0
 62
     0
100
AcDbLine
 10
200.3311502364049
 20
-387.7207890261325
 30
0.0
 11
372.3000000000029
 21
-273.0751819348443
 31
0.0
  0
LINE
  5
2BD4
330
31BE
100
AcDbEntity
  8
0
 62
     0
100
AcDbLine
 10
-372.2999999999992
 20
-769.4739143653004
 30
0.0
 11
200.3311502364049
 21
-387.7207890261325
 31
0.0
  0
LINE
  5
2BD5
330
31BE
100
AcDbEntity
  8
0
 62
     0
100
AcDbLine
 10
195.8311889425166
 20
-387.7207890261325
 30
0.0
 11
372.2999999999992
 21
-270.0752153994272
 31
0.0
  0
LINE
  5
2BD6
330
31BE
100
AcDbEntity
  8
0
 62
     0
100
AcDbLine
 10
-372.3000000000029
 20
-766.4739478298851
 30
0.0
 11
195.8311889425166
 21
-387.7207890261325
 31
0.0
  0
LINE
  5
2BD7
330
31BE
100
AcDbEntity
  8
0
 62
     0
100
AcDbLine
 10
191.3312276486322
 20
-387.7207890261325
 30
0.0
 11
372.2999999999992
 21
-267.0752488640119
 31
0.0
  0
LINE
  5
2BD8
330
31BE
100
AcDbEntity
  8
0
 62
     0
100
AcDbLine
 10
-372.2999999999992
 20
-763.4739812944699
 30
0.0
 11
191.3312276486322
 21
-387.7207890261325
 31
0.0
  0
LINE
  5
2BD9
330
31BE
100
AcDbEntity
  8
0
 62
     0
100
AcDbLine
 10
186.8312663547476
 20
-387.7207890261325
 30
0.0
 11
372.3000000000029
 21
-264.075282328593
 31
0.0
  0
LINE
  5
2BDA
330
31BE
100
AcDbEntity
  8
0
 62
     0
100
AcDbLine
 10
-372.3000000000029
 20
-760.4740147590525
 30
0.0
 11
186.8312663547476
 21
-387.7207890261325
 31
0.0
  0
LINE
  5
2BDB
330
31BE
100
AcDbEntity
  8
0
 62
     0
100
AcDbLine
 10
182.331305060863
 20
-387.7207890261308
 30
0.0
 11
372.2999999999992
 21
-261.0753157931795
 31
0.0
  0
LINE
  5
2BDC
330
31BE
100
AcDbEntity
  8
0
 62
     0
100
AcDbLine
 10
-372.3000000000029
 20
-757.4740482236375
 30
0.0
 11
182.331305060863
 21
-387.7207890261308
 31
0.0
  0
LINE
  5
2BDD
330
31BE
100
AcDbEntity
  8
0
 62
     0
100
AcDbLine
 10
177.8313437669749
 20
-387.7207890261308
 30
0.0
 11
372.2999999999992
 21
-258.0753492577642
 31
0.0
  0
LINE
  5
2BDE
330
31BE
100
AcDbEntity
  8
0
 62
     0
100
AcDbLine
 10
-372.2999999999992
 20
-754.4740816882182
 30
0.0
 11
177.8313437669749
 21
-387.7207890261308
 31
0.0
  0
LINE
  5
2BDF
330
31BE
100
AcDbEntity
  8
0
 62
     0
100
AcDbLine
 10
173.3313824730903
 20
-387.7207890261308
 30
0.0
 11
372.2999999999992
 21
-255.0753827223452
 31
0.0
  0
LINE
  5
2BE0
330
31BE
100
AcDbEntity
  8
0
 62
     0
100
AcDbLine
 10
-372.2999999999992
 20
-751.474115152803
 30
0.0
 11
173.3313824730903
 21
-387.7207890261308
 31
0.0
  0
LINE
  5
2BE1
330
31BE
100
AcDbEntity
  8
0
 62
     0
100
AcDbLine
 10
168.8314211792058
 20
-387.7207890261325
 30
0.0
 11
372.3000000000029
 21
-252.0754161869299
 31
0.0
  0
LINE
  5
2BE2
330
31BE
100
AcDbEntity
  8
0
 62
     0
100
AcDbLine
 10
-372.3000000000029
 20
-748.4741486173897
 30
0.0
 11
168.8314211792058
 21
-387.7207890261325
 31
0.0
  0
LINE
  5
2BE3
330
31BE
100
AcDbEntity
  8
0
 62
     0
100
AcDbLine
 10
164.3314598853176
 20
-387.7207890261344
 30
0.0
 11
372.2999999999992
 21
-249.0754496515147
 31
0.0
  0
LINE
  5
2BE4
330
31BE
100
AcDbEntity
  8
0
 62
     0
100
AcDbLine
 10
-372.3000000000029
 20
-745.4741820819728
 30
0.0
 11
164.3314598853176
 21
-387.7207890261344
 31
0.0
  0
LINE
  5
2BE5
330
31BE
100
AcDbEntity
  8
0
 62
     0
100
AcDbLine
 10
159.831498591433
 20
-387.7207890261308
 30
0.0
 11
372.3000000000029
 21
-246.0754831160975
 31
0.0
  0
LINE
  5
2BE6
330
31BE
100
AcDbEntity
  8
0
 62
     0
100
AcDbLine
 10
-372.2999999999992
 20
-742.4742155465553
 30
0.0
 11
159.831498591433
 21
-387.7207890261308
 31
0.0
  0
LINE
  5
2BE7
330
31BE
100
AcDbEntity
  8
0
 62
     0
100
AcDbLine
 10
156.5000000000036
 20
-386.9418158802929
 30
0.0
 11
372.3000000000029
 21
-243.0755165806786
 31
0.0
  0
LINE
  5
2BE8
330
31BE
100
AcDbEntity
  8
0
 62
     0
100
AcDbLine
 10
-372.2999999999992
 20
-739.4742490111383
 30
0.0
 11
156.5000000000036
 21
-386.9418158802929
 31
0.0
  0
LINE
  5
2BE9
330
31BE
100
AcDbEntity
  8
0
 62
     0
100
AcDbLine
 10
156.5000000000036
 20
-383.9418493448793
 30
0.0
 11
372.3000000000029
 21
-240.0755500452651
 31
0.0
  0
LINE
  5
2BEA
330
31BE
100
AcDbEntity
  8
0
 62
     0
100
AcDbLine
 10
-372.2999999999992
 20
-736.4742824757228
 30
0.0
 11
156.5000000000036
 21
-383.9418493448793
 31
0.0
  0
LINE
  5
2BEB
330
31BE
100
AcDbEntity
  8
0
 62
     0
100
AcDbLine
 10
156.5000000000036
 20
-380.9418828094603
 30
0.0
 11
372.2999999999992
 21
-237.0755835098497
 31
0.0
  0
LINE
  5
2BEC
330
31BE
100
AcDbEntity
  8
0
 62
     0
100
AcDbLine
 10
-372.2999999999992
 20
-733.4743159403059
 30
0.0
 11
156.5000000000036
 21
-380.9418828094603
 31
0.0
  0
LINE
  5
2BED
330
31BE
100
AcDbEntity
  8
0
 62
     0
100
AcDbLine
 10
156.5
 20
-377.9419162740468
 30
0.0
 11
372.3000000000029
 21
-234.0756169744327
 31
0.0
  0
LINE
  5
2BEE
330
31BE
100
AcDbEntity
  8
0
 62
     0
100
AcDbLine
 10
-372.2999999999992
 20
-730.4743494048907
 30
0.0
 11
156.5
 21
-377.9419162740468
 31
0.0
  0
LINE
  5
2BEF
330
31BE
100
AcDbEntity
  8
0
 62
     0
100
AcDbLine
 10
156.5000000000036
 20
-374.9419497386298
 30
0.0
 11
372.3000000000029
 21
-231.0756504390156
 31
0.0
  0
LINE
  5
2BF0
330
31BE
100
AcDbEntity
  8
0
 62
     0
100
AcDbLine
 10
-372.2999999999992
 20
-727.4743828694754
 30
0.0
 11
156.5000000000036
 21
-374.9419497386298
 31
0.0
  0
LINE
  5
2BF1
330
31BE
100
AcDbEntity
  8
0
 62
     0
100
AcDbLine
 10
156.5
 20
-371.9419832032145
 30
0.0
 11
372.2999999999992
 21
-228.0756839036003
 31
0.0
  0
LINE
  5
2BF2
330
31BE
100
AcDbEntity
  8
0
 62
     0
100
AcDbLine
 10
-372.3000000000029
 20
-724.4744163340582
 30
0.0
 11
156.5
 21
-371.9419832032145
 31
0.0
  0
LINE
  5
2BF3
330
31BE
100
AcDbEntity
  8
0
 62
     0
100
AcDbLine
 10
156.5000000000036
 20
-368.9420166677975
 30
0.0
 11
372.3000000000029
 21
-225.0757173681832
 31
0.0
  0
LINE
  5
2BF4
330
31BE
100
AcDbEntity
  8
0
 62
     0
100
AcDbLine
 10
-372.2999999999992
 20
-721.4744497986412
 30
0.0
 11
156.5000000000036
 21
-368.9420166677975
 31
0.0
  0
LINE
  5
2BF5
330
31BE
100
AcDbEntity
  8
0
 62
     0
100
AcDbLine
 10
156.5
 20
-365.9420501323821
 30
0.0
 11
372.3000000000029
 21
-222.0757508327697
 31
0.0
  0
LINE
  5
2BF6
330
31BE
100
AcDbEntity
  8
0
 62
     0
100
AcDbLine
 10
-372.2999999999992
 20
-718.4744832632277
 30
0.0
 11
156.5
 21
-365.9420501323821
 31
0.0
  0
LINE
  5
2BF7
330
31BE
100
AcDbEntity
  8
0
 62
     0
100
AcDbLine
 10
156.5
 20
-362.942083596965
 30
0.0
 11
372.2999999999992
 21
-219.0757842973507
 31
0.0
  0
LINE
  5
2BF8
330
31BE
100
AcDbEntity
  8
0
 62
     0
100
AcDbLine
 10
-372.3000000000029
 20
-715.4745167278085
 30
0.0
 11
156.5
 21
-362.942083596965
 31
0.0
  0
LINE
  5
2BF9
330
31BE
100
AcDbEntity
  8
0
 62
     0
100
AcDbLine
 10
156.5
 20
-359.9421170615496
 30
0.0
 11
372.2999999999992
 21
-216.0758177619355
 31
0.0
  0
LINE
  5
2BFA
330
31BE
100
AcDbEntity
  8
0
 62
     0
100
AcDbLine
 10
-372.2999999999992
 20
-712.4745501923917
 30
0.0
 11
156.5
 21
-359.9421170615496
 31
0.0
  0
LINE
  5
2BFB
330
31BE
100
AcDbEntity
  8
0
 62
     0
100
AcDbLine
 10
156.5000000000036
 20
-356.9421505261325
 30
0.0
 11
372.3000000000029
 21
-213.0758512265184
 31
0.0
  0
LINE
  5
2BFC
330
31BE
100
AcDbEntity
  8
0
 62
     0
100
AcDbLine
 10
-372.2999999999992
 20
-709.4745836569763
 30
0.0
 11
156.5000000000036
 21
-356.9421505261325
 31
0.0
  0
LINE
  5
2BFD
330
31BE
100
AcDbEntity
  8
0
 62
     0
100
AcDbLine
 10
156.5
 20
-353.9421839907173
 30
0.0
 11
372.2999999999992
 21
-210.075884691103
 31
0.0
  0
LINE
  5
2BFE
330
31BE
100
AcDbEntity
  8
0
 62
     0
100
AcDbLine
 10
-372.3000000000029
 20
-706.474617121561
 30
0.0
 11
156.5
 21
-353.9421839907173
 31
0.0
  0
LINE
  5
2BFF
330
31BE
100
AcDbEntity
  8
0
 62
     0
100
AcDbLine
 10
156.5
 20
-350.9422174553001
 30
0.0
 11
372.2999999999992
 21
-207.0759181556878
 31
0.0
  0
LINE
  5
2C00
330
31BE
100
AcDbEntity
  8
0
 62
     0
100
AcDbLine
 10
-372.3000000000029
 20
-703.4746505861456
 30
0.0
 11
156.5
 21
-350.9422174553001
 31
0.0
  0
LINE
  5
2C01
330
31BE
100
AcDbEntity
  8
0
 62
     0
100
AcDbLine
 10
156.5000000000036
 20
-347.942250919883
 30
0.0
 11
372.2999999999992
 21
-204.0759516202706
 31
0.0
  0
LINE
  5
2C02
330
31BE
100
AcDbEntity
  8
0
 62
     0
100
AcDbLine
 10
-372.2999999999992
 20
-700.4746840507269
 30
0.0
 11
156.5000000000036
 21
-347.942250919883
 31
0.0
  0
LINE
  5
2C03
330
31BE
100
AcDbEntity
  8
0
 62
     0
100
AcDbLine
 10
156.5000000000036
 20
-344.9422843844695
 30
0.0
 11
372.3000000000029
 21
-201.0759850848554
 31
0.0
  0
LINE
  5
2C04
330
31BE
100
AcDbEntity
  8
0
 62
     0
100
AcDbLine
 10
-372.2999999999992
 20
-697.4747175153132
 30
0.0
 11
156.5000000000036
 21
-344.9422843844695
 31
0.0
  0
LINE
  5
2C05
330
31BE
100
AcDbEntity
  8
0
 62
     0
100
AcDbLine
 10
156.5
 20
-341.9423178490506
 30
0.0
 11
372.2999999999992
 21
-198.0760185494364
 31
0.0
  0
LINE
  5
2C06
330
31BE
100
AcDbEntity
  8
0
 62
     0
100
AcDbLine
 10
-372.3000000000029
 20
-694.4747509798945
 30
0.0
 11
156.5
 21
-341.9423178490506
 31
0.0
  0
LINE
  5
2C07
330
31BE
100
AcDbEntity
  8
0
 62
     0
100
AcDbLine
 10
156.5
 20
-338.9423513136371
 30
0.0
 11
372.2999999999992
 21
-195.0760520140228
 31
0.0
  0
LINE
  5
2C08
330
31BE
100
AcDbEntity
  8
0
 62
     0
100
AcDbLine
 10
-372.3000000000029
 20
-691.4747844444811
 30
0.0
 11
156.5
 21
-338.9423513136371
 31
0.0
  0
LINE
  5
2C09
330
31BE
100
AcDbEntity
  8
0
 62
     0
100
AcDbLine
 10
156.5000000000036
 20
-335.9423847782182
 30
0.0
 11
369.5329376129484
 21
-193.9207890261313
 31
0.0
  0
LINE
  5
2C0A
330
31BE
100
AcDbEntity
  8
0
 62
     0
100
AcDbLine
 10
-372.2999999999992
 20
-688.4748179090621
 30
0.0
 11
156.5000000000036
 21
-335.9423847782182
 31
0.0
  0
LINE
  5
2C0B
330
31BE
100
AcDbEntity
  8
0
 62
     0
100
AcDbLine
 10
156.5000000000036
 20
-332.9424182428029
 30
0.0
 11
365.032976319064
 21
-193.9207890261332
 31
0.0
  0
LINE
  5
2C0C
330
31BE
100
AcDbEntity
  8
0
 62
     0
100
AcDbLine
 10
-372.2999999999992
 20
-685.4748513736486
 30
0.0
 11
156.5000000000036
 21
-332.9424182428029
 31
0.0
  0
LINE
  5
2C0D
330
31BE
100
AcDbEntity
  8
0
 62
     0
100
AcDbLine
 10
156.5
 20
-329.9424517073877
 30
0.0
 11
360.5330150251794
 21
-193.9207890261313
 31
0.0
  0
LINE
  5
2C0E
330
31BE
100
AcDbEntity
  8
0
 62
     0
100
AcDbLine
 10
-372.3000000000029
 20
-682.4748848382315
 30
0.0
 11
156.5
 21
-329.9424517073877
 31
0.0
  0
LINE
  5
2C0F
330
31BE
100
AcDbEntity
  8
0
 62
     0
100
AcDbLine
 10
156.5000000000036
 20
-326.9424851719705
 30
0.0
 11
356.0330537312948
 21
-193.9207890261332
 31
0.0
  0
LINE
  5
2C10
330
31BE
100
AcDbEntity
  8
0
 62
     0
100
AcDbLine
 10
-372.2999999999992
 20
-679.4749183028145
 30
0.0
 11
156.5000000000036
 21
-326.9424851719705
 31
0.0
  0
LINE
  5
2C11
330
31BE
100
AcDbEntity
  8
0
 62
     0
100
AcDbLine
 10
156.5000000000036
 20
-323.9425186365552
 30
0.0
 11
351.5330924374065
 21
-193.9207890261332
 31
0.0
  0
LINE
  5
2C12
330
31BE
100
AcDbEntity
  8
0
 62
     0
100
AcDbLine
 10
-372.2999999999992
 20
-676.474951767399
 30
0.0
 11
156.5000000000036
 21
-323.9425186365552
 31
0.0
  0
LINE
  5
2C13
330
31BE
100
AcDbEntity
  8
0
 62
     0
100
AcDbLine
 10
156.5
 20
-320.9425521011362
 30
0.0
 11
347.0331311435184
 21
-193.9207890261332
 31
0.0
  0
LINE
  5
2C14
330
31BE
100
AcDbEntity
  8
0
 62
     0
100
AcDbLine
 10
-372.3000000000029
 20
-673.4749852319836
 30
0.0
 11
156.5
 21
-320.9425521011362
 31
0.0
  0
LINE
  5
2C15
330
31BE
100
AcDbEntity
  8
0
 62
     0
100
AcDbLine
 10
156.5
 20
-317.9425855657228
 30
0.0
 11
342.5331698496338
 21
-193.9207890261332
 31
0.0
  0
LINE
  5
2C16
330
31BE
100
AcDbEntity
  8
0
 62
     0
100
AcDbLine
 10
-372.3000000000029
 20
-670.4750186965664
 30
0.0
 11
156.5
 21
-317.9425855657228
 31
0.0
  0
LINE
  5
2C17
330
31BE
100
AcDbEntity
  8
0
 62
     0
100
AcDbLine
 10
156.5000000000036
 20
-314.9426190303056
 30
0.0
 11
338.033208555753
 21
-193.9207890261332
 31
0.0
  0
LINE
  5
2C18
330
31BE
100
AcDbEntity
  8
0
 62
     0
100
AcDbLine
 10
-372.2999999999992
 20
-667.4750521611513
 30
0.0
 11
156.5000000000036
 21
-314.9426190303056
 31
0.0
  0
LINE
  5
2C19
330
31BE
100
AcDbEntity
  8
0
 62
     0
100
AcDbLine
 10
156.5
 20
-311.9426524948904
 30
0.0
 11
333.5332472618647
 21
-193.9207890261313
 31
0.0
  0
LINE
  5
2C1A
330
31BE
100
AcDbEntity
  8
0
 62
     0
100
AcDbLine
 10
-372.3000000000029
 20
-664.4750856257342
 30
0.0
 11
156.5
 21
-311.9426524948904
 31
0.0
  0
LINE
  5
2C1B
330
31BE
100
AcDbEntity
  8
0
 62
     0
100
AcDbLine
 10
156.5
 20
-308.9426859594732
 30
0.0
 11
329.0332859679765
 21
-193.9207890261332
 31
0.0
  0
LINE
  5
2C1C
330
31BE
100
AcDbEntity
  8
0
 62
     0
100
AcDbLine
 10
-372.2999999999992
 20
-661.4751190903168
 30
0.0
 11
156.5
 21
-308.9426859594732
 31
0.0
  0
LINE
  5
2C1D
330
31BE
100
AcDbEntity
  8
0
 62
     0
100
AcDbLine
 10
156.5
 20
-305.9427194240579
 30
0.0
 11
324.5333246740957
 21
-193.9207890261313
 31
0.0
  0
LINE
  5
2C1E
330
31BE
100
AcDbEntity
  8
0
 62
     0
100
AcDbLine
 10
-372.2999999999992
 20
-658.4751525548997
 30
0.0
 11
156.5
 21
-305.9427194240579
 31
0.0
  0
LINE
  5
2C1F
330
31BE
100
AcDbEntity
  8
0
 62
     0
100
AcDbLine
 10
156.5
 20
-302.9427528886408
 30
0.0
 11
320.0333633802074
 21
-193.9207890261313
 31
0.0
  0
LINE
  5
2C20
330
31BE
100
AcDbEntity
  8
0
 62
     0
100
AcDbLine
 10
-372.3000000000029
 20
-655.4751860194848
 30
0.0
 11
156.5
 21
-302.9427528886408
 31
0.0
  0
LINE
  5
2C21
330
31BE
100
AcDbEntity
  8
0
 62
     0
100
AcDbLine
 10
156.5000000000036
 20
-299.9427863532237
 30
0.0
 11
315.5334020863228
 21
-193.9207890261332
 31
0.0
  0
LINE
  5
2C22
330
31BE
100
AcDbEntity
  8
0
 62
     0
100
AcDbLine
 10
-372.2999999999992
 20
-652.4752194840694
 30
0.0
 11
156.5000000000036
 21
-299.9427863532237
 31
0.0
  0
LINE
  5
2C23
330
31BE
100
AcDbEntity
  8
0
 62
     0
100
AcDbLine
 10
156.5
 20
-296.9428198178083
 30
0.0
 11
311.0334407924347
 21
-193.9207890261332
 31
0.0
  0
LINE
  5
2C24
330
31BE
100
AcDbEntity
  8
0
 62
     0
100
AcDbLine
 10
-372.2999999999992
 20
-649.4752529486523
 30
0.0
 11
156.5
 21
-296.9428198178083
 31
0.0
  0
LINE
  5
2C25
330
31BE
100
AcDbEntity
  8
0
 62
     0
100
AcDbLine
 10
156.5000000000036
 20
-293.9428532823931
 30
0.0
 11
306.5334794985537
 21
-193.9207890261332
 31
0.0
  0
LINE
  5
2C26
330
31BE
100
AcDbEntity
  8
0
 62
     0
100
AcDbLine
 10
-372.2999999999992
 20
-646.4752864132369
 30
0.0
 11
156.5000000000036
 21
-293.9428532823931
 31
0.0
  0
LINE
  5
2C27
330
31BE
100
AcDbEntity
  8
0
 62
     0
100
AcDbLine
 10
156.5
 20
-290.942886746976
 30
0.0
 11
302.0335182046693
 21
-193.9207890261295
 31
0.0
  0
LINE
  5
2C28
330
31BE
100
AcDbEntity
  8
0
 62
     0
100
AcDbLine
 10
-372.3000000000029
 20
-643.4753198778198
 30
0.0
 11
156.5
 21
-290.942886746976
 31
0.0
  0
LINE
  5
2C29
330
31BE
100
AcDbEntity
  8
0
 62
     0
100
AcDbLine
 10
156.5000000000036
 20
-287.9429202115606
 30
0.0
 11
297.5335569107809
 21
-193.9207890261332
 31
0.0
  0
LINE
  5
2C2A
330
31BE
100
AcDbEntity
  8
0
 62
     0
100
AcDbLine
 10
-372.2999999999992
 20
-640.4753533424044
 30
0.0
 11
156.5000000000036
 21
-287.9429202115606
 31
0.0
  0
LINE
  5
2C2B
330
31BE
100
AcDbEntity
  8
0
 62
     0
100
AcDbLine
 10
156.5
 20
-284.9429536761436
 30
0.0
 11
293.0335956168965
 21
-193.9207890261313
 31
0.0
  0
LINE
  5
2C2C
330
31BE
100
AcDbEntity
  8
0
 62
     0
100
AcDbLine
 10
-372.2999999999992
 20
-637.4753868069872
 30
0.0
 11
156.5
 21
-284.9429536761436
 31
0.0
  0
LINE
  5
2C2D
330
31BE
100
AcDbEntity
  8
0
 62
     0
100
AcDbLine
 10
156.5000000000036
 20
-281.9429871407265
 30
0.0
 11
288.533634323012
 21
-193.9207890261313
 31
0.0
  0
LINE
  5
2C2E
330
31BE
100
AcDbEntity
  8
0
 62
     0
100
AcDbLine
 10
-372.2999999999992
 20
-634.4754202715703
 30
0.0
 11
156.5000000000036
 21
-281.9429871407265
 31
0.0
  0
LINE
  5
2C2F
330
31BE
100
AcDbEntity
  8
0
 62
     0
100
AcDbLine
 10
156.5000000000036
 20
-278.9430206053112
 30
0.0
 11
284.0336730291237
 21
-193.9207890261332
 31
0.0
  0
LINE
  5
2C30
330
31BE
100
AcDbEntity
  8
0
 62
     0
100
AcDbLine
 10
-372.3000000000029
 20
-631.4754537361568
 30
0.0
 11
156.5000000000036
 21
-278.9430206053112
 31
0.0
  0
LINE
  5
2C31
330
31BE
100
AcDbEntity
  8
0
 62
     0
100
AcDbLine
 10
156.5000000000036
 20
-275.9430540698959
 30
0.0
 11
279.5337117352392
 21
-193.920789026135
 31
0.0
  0
LINE
  5
2C32
330
31BE
100
AcDbEntity
  8
0
 62
     0
100
AcDbLine
 10
-372.2999999999992
 20
-628.4754872007396
 30
0.0
 11
156.5000000000036
 21
-275.9430540698959
 31
0.0
  0
LINE
  5
2C33
330
31BE
100
AcDbEntity
  8
0
 62
     0
100
AcDbLine
 10
156.5000000000036
 20
-272.9430875344788
 30
0.0
 11
275.033750441351
 21
-193.9207890261332
 31
0.0
  0
LINE
  5
2C34
330
31BE
100
AcDbEntity
  8
0
 62
     0
100
AcDbLine
 10
-372.2999999999992
 20
-625.4755206653225
 30
0.0
 11
156.5000000000036
 21
-272.9430875344788
 31
0.0
  0
LINE
  5
2C35
330
31BE
100
AcDbEntity
  8
0
 62
     0
100
AcDbLine
 10
156.5
 20
-269.9431209990617
 30
0.0
 11
270.5337891474664
 21
-193.9207890261313
 31
0.0
  0
LINE
  5
2C36
330
31BE
100
AcDbEntity
  8
0
 62
     0
100
AcDbLine
 10
-372.3000000000029
 20
-622.4755541299072
 30
0.0
 11
156.5
 21
-269.9431209990617
 31
0.0
  0
LINE
  5
2C37
330
31BE
100
AcDbEntity
  8
0
 62
     0
100
AcDbLine
 10
156.5000000000036
 20
-266.9431544636463
 30
0.0
 11
266.0338278535783
 21
-193.920789026135
 31
0.0
  0
LINE
  5
2C38
330
31BE
100
AcDbEntity
  8
0
 62
     0
100
AcDbLine
 10
-372.2999999999992
 20
-619.4755875944903
 30
0.0
 11
156.5000000000036
 21
-266.9431544636463
 31
0.0
  0
LINE
  5
2C39
330
31BE
100
AcDbEntity
  8
0
 62
     0
100
AcDbLine
 10
156.5
 20
-263.9431879282311
 30
0.0
 11
261.5338665596973
 21
-193.9207890261332
 31
0.0
  0
LINE
  5
2C3A
330
31BE
100
AcDbEntity
  8
0
 62
     0
100
AcDbLine
 10
-372.2999999999992
 20
-616.4756210590748
 30
0.0
 11
156.5
 21
-263.9431879282311
 31
0.0
  0
LINE
  5
2C3B
330
31BE
100
AcDbEntity
  8
0
 62
     0
100
AcDbLine
 10
156.5
 20
-260.943221392814
 30
0.0
 11
257.0339052658091
 21
-193.9207890261313
 31
0.0
  0
LINE
  5
2C3C
330
31BE
100
AcDbEntity
  8
0
 62
     0
100
AcDbLine
 10
-372.3000000000029
 20
-613.4756545236576
 30
0.0
 11
156.5
 21
-260.943221392814
 31
0.0
  0
LINE
  5
2C3D
330
31BE
100
AcDbEntity
  8
0
 62
     0
100
AcDbLine
 10
156.5
 20
-257.9432548573986
 30
0.0
 11
252.5339439719246
 21
-193.9207890261313
 31
0.0
  0
LINE
  5
2C3E
330
31BE
100
AcDbEntity
  8
0
 62
     0
100
AcDbLine
 10
-372.3000000000029
 20
-610.4756879882423
 30
0.0
 11
156.5
 21
-257.9432548573986
 31
0.0
  0
LINE
  5
2C3F
330
31BE
100
AcDbEntity
  8
0
 62
     0
100
AcDbLine
 10
156.5000000000036
 20
-254.9432883219815
 30
0.0
 11
248.03398267804
 21
-193.9207890261332
 31
0.0
  0
LINE
  5
2C40
330
31BE
100
AcDbEntity
  8
0
 62
     0
100
AcDbLine
 10
-372.2999999999992
 20
-607.4757214528272
 30
0.0
 11
156.5000000000036
 21
-254.9432883219815
 31
0.0
  0
LINE
  5
2C41
330
31BE
100
AcDbEntity
  8
0
 62
     0
100
AcDbLine
 10
156.5
 20
-251.9433217865662
 30
0.0
 11
243.5340213841555
 21
-193.9207890261332
 31
0.0
  0
LINE
  5
2C42
330
31BE
100
AcDbEntity
  8
0
 62
     0
100
AcDbLine
 10
-372.2999999999956
 20
-604.4757549174081
 30
0.0
 11
156.5
 21
-251.9433217865662
 31
0.0
  0
LINE
  5
2C43
330
31BE
100
AcDbEntity
  8
0
 62
     0
100
AcDbLine
 10
156.5
 20
-248.9433552511509
 30
0.0
 11
239.0340600902673
 21
-193.9207890261332
 31
0.0
  0
LINE
  5
2C44
330
31BE
100
AcDbEntity
  8
0
 62
     0
100
AcDbLine
 10
-372.3000000000029
 20
-601.4757883819948
 30
0.0
 11
156.5
 21
-248.9433552511509
 31
0.0
  0
LINE
  5
2C45
330
31BE
100
AcDbEntity
  8
0
 62
     0
100
AcDbLine
 10
156.5000000000036
 20
-245.943388715732
 30
0.0
 11
234.5340987963864
 21
-193.9207890261295
 31
0.0
  0
LINE
  5
2C46
330
31BE
100
AcDbEntity
  8
0
 62
     0
100
AcDbLine
 10
-372.2999999999992
 20
-598.4758218465758
 30
0.0
 11
156.5000000000036
 21
-245.943388715732
 31
0.0
  0
LINE
  5
2C47
330
31BE
100
AcDbEntity
  8
0
 62
     0
100
AcDbLine
 10
156.5000000000036
 20
-242.9434221803167
 30
0.0
 11
230.0341375024982
 21
-193.9207890261313
 31
0.0
  0
LINE
  5
2C48
330
31BE
100
AcDbEntity
  8
0
 62
     0
100
AcDbLine
 10
-372.2999999999992
 20
-595.4758553111605
 30
0.0
 11
156.5000000000036
 21
-242.9434221803167
 31
0.0
  0
LINE
  5
2C49
330
31BE
100
AcDbEntity
  8
0
 62
     0
100
AcDbLine
 10
156.5
 20
-239.9434556448996
 30
0.0
 11
225.53417620861
 21
-193.9207890261313
 31
0.0
  0
LINE
  5
2C4A
330
31BE
100
AcDbEntity
  8
0
 62
     0
100
AcDbLine
 10
-372.2999999999992
 20
-592.4758887757453
 30
0.0
 11
156.5
 21
-239.9434556448996
 31
0.0
  0
LINE
  5
2C4B
330
31BE
100
AcDbEntity
  8
0
 62
     0
100
AcDbLine
 10
156.5
 20
-236.9434891094861
 30
0.0
 11
221.0342149147255
 21
-193.9207890261332
 31
0.0
  0
LINE
  5
2C4C
330
31BE
100
AcDbEntity
  8
0
 62
     0
100
AcDbLine
 10
-372.3000000000029
 20
-589.4759222403298
 30
0.0
 11
156.5
 21
-236.9434891094861
 31
0.0
  0
LINE
  5
2C4D
330
31BE
100
AcDbEntity
  8
0
 62
     0
100
AcDbLine
 10
156.5000000000036
 20
-233.943522574069
 30
0.0
 11
216.5342536208409
 21
-193.9207890261332
 31
0.0
  0
LINE
  5
2C4E
330
31BE
100
AcDbEntity
  8
0
 62
     0
100
AcDbLine
 10
-372.2999999999992
 20
-586.4759557049128
 30
0.0
 11
156.5000000000036
 21
-233.943522574069
 31
0.0
  0
LINE
  5
2C4F
330
31BE
100
AcDbEntity
  8
0
 62
     0
100
AcDbLine
 10
156.5000000000036
 20
-230.9435560386519
 30
0.0
 11
212.0342923269563
 21
-193.9207890261332
 31
0.0
  0
LINE
  5
2C50
330
31BE
100
AcDbEntity
  8
0
 62
     0
100
AcDbLine
 10
-372.2999999999956
 20
-583.4759891694939
 30
0.0
 11
156.5000000000036
 21
-230.9435560386519
 31
0.0
  0
LINE
  5
2C51
330
31BE
100
AcDbEntity
  8
0
 62
     0
100
AcDbLine
 10
156.5
 20
-227.9435895032366
 30
0.0
 11
207.5343310330682
 21
-193.9207890261332
 31
0.0
  0
LINE
  5
2C52
330
31BE
100
AcDbEntity
  8
0
 62
     0
100
AcDbLine
 10
-372.3000000000029
 20
-580.4760226340805
 30
0.0
 11
156.5
 21
-227.9435895032366
 31
0.0
  0
LINE
  5
2C53
330
31BE
100
AcDbEntity
  8
0
 62
     0
100
AcDbLine
 10
156.5000000000036
 20
-224.9436229678177
 30
0.0
 11
203.0343697391836
 21
-193.9207890261313
 31
0.0
  0
LINE
  5
2C54
330
31BE
100
AcDbEntity
  8
0
 62
     0
100
AcDbLine
 10
-372.2999999999992
 20
-577.4760560986615
 30
0.0
 11
156.5000000000036
 21
-224.9436229678177
 31
0.0
  0
LINE
  5
2C55
330
31BE
100
AcDbEntity
  8
0
 62
     0
100
AcDbLine
 10
156.5000000000036
 20
-221.9436564324042
 30
0.0
 11
198.5344084452989
 21
-193.9207890261332
 31
0.0
  0
LINE
  5
2C56
330
31BE
100
AcDbEntity
  8
0
 62
     0
100
AcDbLine
 10
-372.2999999999992
 20
-574.476089563248
 30
0.0
 11
156.5000000000036
 21
-221.9436564324042
 31
0.0
  0
LINE
  5
2C57
330
31BE
100
AcDbEntity
  8
0
 62
     0
100
AcDbLine
 10
156.5
 20
-218.9436898969852
 30
0.0
 11
194.0344471514145
 21
-193.9207890261313
 31
0.0
  0
LINE
  5
2C58
330
31BE
100
AcDbEntity
  8
0
 62
     0
100
AcDbLine
 10
-372.2999999999992
 20
-571.4761230278309
 30
0.0
 11
156.5
 21
-218.9436898969852
 31
0.0
  0
LINE
  5
2C59
330
31BE
100
AcDbEntity
  8
0
 62
     0
100
AcDbLine
 10
156.5
 20
-215.9437233615717
 30
0.0
 11
189.5344858575298
 21
-193.9207890261332
 31
0.0
  0
LINE
  5
2C5A
330
31BE
100
AcDbEntity
  8
0
 62
     0
100
AcDbLine
 10
-372.3000000000029
 20
-568.4761564924156
 30
0.0
 11
156.5
 21
-215.9437233615717
 31
0.0
  0
LINE
  5
2C5B
330
31BE
100
AcDbEntity
  8
0
 62
     0
100
AcDbLine
 10
156.5000000000036
 20
-212.9437568261546
 30
0.0
 11
185.0345245636417
 21
-193.9207890261313
 31
0.0
  0
LINE
  5
2C5C
330
31BE
100
AcDbEntity
  8
0
 62
     0
100
AcDbLine
 10
-372.2999999999992
 20
-565.4761899569985
 30
0.0
 11
156.5000000000036
 21
-212.9437568261546
 31
0.0
  0
LINE
  5
2C5D
330
31BE
100
AcDbEntity
  8
0
 62
     0
100
AcDbLine
 10
156.5
 20
-209.9437902907393
 30
0.0
 11
180.5345632697535
 21
-193.9207890261332
 31
0.0
  0
LINE
  5
2C5E
330
31BE
100
AcDbEntity
  8
0
 62
     0
100
AcDbLine
 10
-372.3000000000029
 20
-562.4762234215848
 30
0.0
 11
156.5
 21
-209.9437902907393
 31
0.0
  0
LINE
  5
2C5F
330
31BE
100
AcDbEntity
  8
0
 62
     0
100
AcDbLine
 10
156.5
 20
-206.9438237553222
 30
0.0
 11
176.0346019758689
 21
-193.9207890261332
 31
0.0
  0
LINE
  5
2C60
330
31BE
100
AcDbEntity
  8
0
 62
     0
100
AcDbLine
 10
-372.2999999999992
 20
-559.4762568861661
 30
0.0
 11
156.5
 21
-206.9438237553222
 31
0.0
  0
LINE
  5
2C61
330
31BE
100
AcDbEntity
  8
0
 62
     0
100
AcDbLine
 10
156.5
 20
-203.9438572199069
 30
0.0
 11
171.5346406819881
 21
-193.9207890261313
 31
0.0
  0
LINE
  5
2C62
330
31BE
100
AcDbEntity
  8
0
 62
     0
100
AcDbLine
 10
-372.3000000000029
 20
-556.4762903507507
 30
0.0
 11
156.5
 21
-203.9438572199069
 31
0.0
  0
LINE
  5
2C63
330
31BE
100
AcDbEntity
  8
0
 62
     0
100
AcDbLine
 10
156.5000000000036
 20
-200.9438906844898
 30
0.0
 11
167.0346793880999
 21
-193.920789026135
 31
0.0
  0
LINE
  5
2C64
330
31BE
100
AcDbEntity
  8
0
 62
     0
100
AcDbLine
 10
-372.2999999999992
 20
-553.4763238153336
 30
0.0
 11
156.5000000000036
 21
-200.9438906844898
 31
0.0
  0
LINE
  5
2C65
330
31BE
100
AcDbEntity
  8
0
 62
     0
100
AcDbLine
 10
156.5
 20
-197.9439241490763
 30
0.0
 11
162.5347180942117
 21
-193.9207890261332
 31
0.0
  0
LINE
  5
2C66
330
31BE
100
AcDbEntity
  8
0
 62
     0
100
AcDbLine
 10
-372.2999999999992
 20
-550.4763572799182
 30
0.0
 11
156.5
 21
-197.9439241490763
 31
0.0
  0
LINE
  5
2C67
330
31BE
100
AcDbEntity
  8
0
 62
     0
100
AcDbLine
 10
156.5
 20
-194.9439576136574
 30
0.0
 11
158.0347568003308
 21
-193.9207890261313
 31
0.0
  0
LINE
  5
2C68
330
31BE
100
AcDbEntity
  8
0
 62
     0
100
AcDbLine
 10
-372.2999999999992
 20
-547.4763907445011
 30
0.0
 11
156.5
 21
-194.9439576136574
 31
0.0
  0
LINE
  5
2C69
330
31BE
100
AcDbEntity
  8
0
 62
     0
100
AcDbLine
 10
-372.2999999999992
 20
-544.4764242090841
 30
0.0
 11
153.5347955064462
 21
-193.9207890261313
 31
0.0
  0
LINE
  5
2C6A
330
31BE
100
AcDbEntity
  8
0
 62
     0
100
AcDbLine
 10
-372.2999999999992
 20
-541.4764576736688
 30
0.0
 11
149.0348342125544
 21
-193.9207890261332
 31
0.0
  0
LINE
  5
2C6B
330
31BE
100
AcDbEntity
  8
0
 62
     0
100
AcDbLine
 10
-372.2999999999992
 20
-538.4764911382537
 30
0.0
 11
144.5348729186698
 21
-193.920789026135
 31
0.0
  0
LINE
  5
2C6C
330
31BE
100
AcDbEntity
  8
0
 62
     0
100
AcDbLine
 10
-372.2999999999992
 20
-535.4765246028382
 30
0.0
 11
140.0349116247853
 21
-193.9207890261332
 31
0.0
  0
LINE
  5
2C6D
330
31BE
100
AcDbEntity
  8
0
 62
     0
100
AcDbLine
 10
-372.2999999999992
 20
-532.4765580674193
 30
0.0
 11
135.5349503309044
 21
-193.9207890261313
 31
0.0
  0
LINE
  5
2C6E
330
31BE
100
AcDbEntity
  8
0
 62
     0
100
AcDbLine
 10
-372.2999999999992
 20
-529.476591532004
 30
0.0
 11
131.0349890370125
 21
-193.9207890261332
 31
0.0
  0
LINE
  5
2C6F
330
31BE
100
AcDbEntity
  8
0
 62
     0
100
AcDbLine
 10
-372.2999999999992
 20
-526.4766249965886
 30
0.0
 11
126.5350277431316
 21
-193.9207890261313
 31
0.0
  0
LINE
  5
2C70
330
31BE
100
AcDbEntity
  8
0
 62
     0
100
AcDbLine
 10
-372.2999999999992
 20
-523.4766584611734
 30
0.0
 11
122.0350664492471
 21
-193.9207890261332
 31
0.0
  0
LINE
  5
2C71
330
31BE
100
AcDbEntity
  8
0
 62
     0
100
AcDbLine
 10
-372.3000000000029
 20
-520.4766919257563
 30
0.0
 11
117.5351051553589
 21
-193.9207890261313
 31
0.0
  0
LINE
  5
2C72
330
31BE
100
AcDbEntity
  8
0
 62
     0
100
AcDbLine
 10
-372.2999999999992
 20
-517.4767253903373
 30
0.0
 11
113.0351438614707
 21
-193.9207890261313
 31
0.0
  0
LINE
  5
2C73
330
31BE
100
AcDbEntity
  8
0
 62
     0
100
AcDbLine
 10
-372.2999999999992
 20
-514.4767588549239
 30
0.0
 11
108.5351825675861
 21
-193.9207890261332
 31
0.0
  0
LINE
  5
2C74
330
31BE
100
AcDbEntity
  8
0
 62
     0
100
AcDbLine
 10
-372.3000000000029
 20
-511.4767923195086
 30
0.0
 11
104.0352212737016
 21
-193.9207890261332
 31
0.0
  0
LINE
  5
2C75
330
31BE
100
AcDbEntity
  8
0
 62
     0
100
AcDbLine
 10
-372.3000000000029
 20
-508.4768257840913
 30
0.0
 11
99.53525997981708
 21
-193.9207890261332
 31
0.0
  0
LINE
  5
2C76
330
31BE
100
AcDbEntity
  8
0
 62
     0
100
AcDbLine
 10
-372.2999999999992
 20
-505.4768592486744
 30
0.0
 11
95.03529868592886
 21
-193.9207890261313
 31
0.0
  0
LINE
  5
2C77
330
31BE
100
AcDbEntity
  8
0
 62
     0
100
AcDbLine
 10
-372.2999999999992
 20
-502.4768927132591
 30
0.0
 11
90.53533739204793
 21
-193.9207890261313
 31
0.0
  0
LINE
  5
2C78
330
31BE
100
AcDbEntity
  8
0
 62
     0
100
AcDbLine
 10
-372.3000000000029
 20
-499.4769261778436
 30
0.0
 11
86.03537609815978
 21
-193.9207890261332
 31
0.0
  0
LINE
  5
2C79
330
31BE
100
AcDbEntity
  8
0
 62
     0
100
AcDbLine
 10
-372.2999999999992
 20
-496.4769596424265
 30
0.0
 11
81.5354148042752
 21
-193.9207890261332
 31
0.0
  0
LINE
  5
2C7A
330
31BE
100
AcDbEntity
  8
0
 62
     0
100
AcDbLine
 10
-372.2999999999992
 20
-493.4769931070094
 30
0.0
 11
77.03545351038702
 21
-193.9207890261332
 31
0.0
  0
LINE
  5
2C7B
330
31BE
100
AcDbEntity
  8
0
 62
     0
100
AcDbLine
 10
-372.2999999999956
 20
-490.477026571594
 30
0.0
 11
72.53549221650608
 21
-193.9207890261313
 31
0.0
  0
LINE
  5
2C7C
330
31BE
100
AcDbEntity
  8
0
 62
     0
100
AcDbLine
 10
-372.3000000000029
 20
-487.4770600361769
 30
0.0
 11
68.03553092261427
 21
-193.9207890261332
 31
0.0
  0
LINE
  5
2C7D
330
31BE
100
AcDbEntity
  8
0
 62
     0
100
AcDbLine
 10
-372.2999999999992
 20
-484.4770935007617
 30
0.0
 11
63.53556962873335
 21
-193.9207890261332
 31
0.0
  0
LINE
  5
2C7E
330
31BE
100
AcDbEntity
  8
0
 62
     0
100
AcDbLine
 10
-372.2999999999992
 20
-481.4771269653465
 30
0.0
 11
59.03560833484879
 21
-193.9207890261332
 31
0.0
  0
LINE
  5
2C7F
330
31BE
100
AcDbEntity
  8
0
 62
     0
100
AcDbLine
 10
-372.2999999999992
 20
-478.4771604299294
 30
0.0
 11
54.53564704096059
 21
-193.9207890261332
 31
0.0
  0
LINE
  5
2C80
330
31BE
100
AcDbEntity
  8
0
 62
     0
100
AcDbLine
 10
-372.3000000000029
 20
-475.4771938945141
 30
0.0
 11
50.03568574707607
 21
-193.9207890261313
 31
0.0
  0
LINE
  5
2C81
330
31BE
100
AcDbEntity
  8
0
 62
     0
100
AcDbLine
 10
-372.2999999999992
 20
-472.4772273590969
 30
0.0
 11
45.5357244531915
 21
-193.9207890261332
 31
0.0
  0
LINE
  5
2C82
330
31BE
100
AcDbEntity
  8
0
 62
     0
100
AcDbLine
 10
-372.3000000000029
 20
-469.4772608236816
 30
0.0
 11
41.03576315930332
 21
-193.9207890261313
 31
0.0
  0
LINE
  5
2C83
330
31BE
100
AcDbEntity
  8
0
 62
     0
100
AcDbLine
 10
-372.3000000000029
 20
-466.4772942882644
 30
0.0
 11
36.53580186541876
 21
-193.9207890261313
 31
0.0
  0
LINE
  5
2C84
330
31BE
100
AcDbEntity
  8
0
 62
     0
100
AcDbLine
 10
-372.2999999999992
 20
-463.4773277528474
 30
0.0
 11
32.03584057153421
 21
-193.9207890261332
 31
0.0
  0
LINE
  5
2C85
330
31BE
100
AcDbEntity
  8
0
 62
     0
100
AcDbLine
 10
-372.3000000000029
 20
-460.477361217434
 30
0.0
 11
27.53587927764602
 21
-193.9207890261332
 31
0.0
  0
LINE
  5
2C86
330
31BE
100
AcDbEntity
  8
0
 62
     0
100
AcDbLine
 10
-372.2999999999992
 20
-457.477394682015
 30
0.0
 11
23.03591798376146
 21
-193.9207890261313
 31
0.0
  0
LINE
  5
2C87
330
31BE
100
AcDbEntity
  8
0
 62
     0
100
AcDbLine
 10
-372.2999999999992
 20
-454.4774281465977
 30
0.0
 11
18.53595668987327
 21
-193.9207890261332
 31
0.0
  0
LINE
  5
2C88
330
31BE
100
AcDbEntity
  8
0
 62
     0
100
AcDbLine
 10
-372.2999999999992
 20
-451.4774616111826
 30
0.0
 11
14.03599539599236
 21
-193.9207890261332
 31
0.0
  0
LINE
  5
2C89
330
31BE
100
AcDbEntity
  8
0
 62
     0
100
AcDbLine
 10
-372.3000000000029
 20
-448.4774950757674
 30
0.0
 11
9.536034102104167
 21
-193.9207890261332
 31
0.0
  0
LINE
  5
2C8A
330
31BE
100
AcDbEntity
  8
0
 62
     0
100
AcDbLine
 10
-372.2999999999992
 20
-445.477528540352
 30
0.0
 11
5.036072808219612
 21
-193.9207890261313
 31
0.0
  0
LINE
  5
2C8B
330
31BE
100
AcDbEntity
  8
0
 62
     0
100
AcDbLine
 10
-372.2999999999992
 20
-442.4775620049329
 30
0.0
 11
0.5361115143314237
 21
-193.9207890261332
 31
0.0
  0
LINE
  5
2C8C
330
31BE
100
AcDbEntity
  8
0
 62
     0
100
AcDbLine
 10
-372.2999999999992
 20
-439.4775954695196
 30
0.0
 11
-3.963849779549489
 21
-193.9207890261332
 31
0.0
  0
LINE
  5
2C8D
330
31BE
100
AcDbEntity
  8
0
 62
     0
100
AcDbLine
 10
-372.2999999999992
 20
-436.4776289341007
 30
0.0
 11
-8.463811073437682
 21
-193.9207890261332
 31
0.0
  0
LINE
  5
2C8E
330
31BE
100
AcDbEntity
  8
0
 62
     0
100
AcDbLine
 10
-372.2999999999992
 20
-433.4776623986871
 30
0.0
 11
-12.96377236732223
 21
-193.9207890261332
 31
0.0
  0
LINE
  5
2C8F
330
31BE
100
AcDbEntity
  8
0
 62
     0
100
AcDbLine
 10
-372.2999999999992
 20
-430.4776958632698
 30
0.0
 11
-17.46373366120679
 21
-193.9207890261313
 31
0.0
  0
LINE
  5
2C90
330
31BE
100
AcDbEntity
  8
0
 62
     0
100
AcDbLine
 10
-372.3000000000029
 20
-427.4777293278528
 30
0.0
 11
-21.96369495509498
 21
-193.9207890261313
 31
0.0
  0
LINE
  5
2C91
330
31BE
100
AcDbEntity
  8
0
 62
     0
100
AcDbLine
 10
-372.2999999999992
 20
-424.4777627924376
 30
0.0
 11
-26.46365624897589
 21
-193.9207890261313
 31
0.0
  0
LINE
  5
2C92
330
31BE
100
AcDbEntity
  8
0
 62
     0
100
AcDbLine
 10
-372.2999999999992
 20
-421.4777962570224
 30
0.0
 11
-30.96361754286409
 21
-193.920789026135
 31
0.0
  0
LINE
  5
2C93
330
31BE
100
AcDbEntity
  8
0
 62
     0
100
AcDbLine
 10
-372.3000000000029
 20
-418.4778297216053
 30
0.0
 11
-35.46357883675228
 21
-193.9207890261332
 31
0.0
  0
LINE
  5
2C94
330
31BE
100
AcDbEntity
  8
0
 62
     0
100
AcDbLine
 10
-372.3000000000029
 20
-415.4778631861897
 30
0.0
 11
-39.96354013063683
 21
-193.9207890261313
 31
0.0
  0
LINE
  5
2C95
330
31BE
100
AcDbEntity
  8
0
 62
     0
100
AcDbLine
 10
-372.2999999999992
 20
-412.4778966507728
 30
0.0
 11
-44.46350142451772
 21
-193.9207890261313
 31
0.0
  0
LINE
  5
2C96
330
31BE
100
AcDbEntity
  8
0
 62
     0
100
AcDbLine
 10
-372.3000000000029
 20
-409.4779301153558
 30
0.0
 11
-48.96346271840958
 21
-193.9207890261332
 31
0.0
  0
LINE
  5
2C97
330
31BE
100
AcDbEntity
  8
0
 62
     0
100
AcDbLine
 10
-372.3000000000029
 20
-406.4779635799403
 30
0.0
 11
-53.46342401229414
 21
-193.9207890261332
 31
0.0
  0
LINE
  5
2C98
330
31BE
100
AcDbEntity
  8
0
 62
     0
100
AcDbLine
 10
-372.2999999999992
 20
-403.4779970445231
 30
0.0
 11
-57.96338530617869
 21
-193.9207890261332
 31
0.0
  0
LINE
  5
2C99
330
31BE
100
AcDbEntity
  8
0
 62
     0
100
AcDbLine
 10
-372.2999999999956
 20
-400.4780305091078
 30
0.0
 11
-62.46334660006322
 21
-193.920789026135
 31
0.0
  0
LINE
  5
2C9A
330
31BE
100
AcDbEntity
  8
0
 62
     0
100
AcDbLine
 10
-372.3000000000029
 20
-397.478063973691
 30
0.0
 11
-66.96330789395142
 21
-193.9207890261313
 31
0.0
  0
LINE
  5
2C9B
330
31BE
100
AcDbEntity
  8
0
 62
     0
100
AcDbLine
 10
-372.3000000000029
 20
-394.4780974382775
 30
0.0
 11
-71.46326918783599
 21
-193.9207890261332
 31
0.0
  0
LINE
  5
2C9C
330
31BE
100
AcDbEntity
  8
0
 62
     0
100
AcDbLine
 10
-372.2999999999992
 20
-391.4781309028585
 30
0.0
 11
-75.9632304817169
 21
-193.9207890261313
 31
0.0
  0
LINE
  5
2C9D
330
31BE
100
AcDbEntity
  8
0
 62
     0
100
AcDbLine
 10
-372.2999999999956
 20
-388.4781643674415
 30
0.0
 11
-80.4631917756051
 21
-193.9207890261332
 31
0.0
  0
LINE
  5
2C9E
330
31BE
100
AcDbEntity
  8
0
 62
     0
100
AcDbLine
 10
-372.3000000000029
 20
-385.4781978320279
 30
0.0
 11
-84.96315306948963
 21
-193.9207890261313
 31
0.0
  0
LINE
  5
2C9F
330
31BE
100
AcDbEntity
  8
0
 62
     0
100
AcDbLine
 10
-372.2999999999992
 20
-382.4782312966108
 30
0.0
 11
-89.46311436337781
 21
-193.9207890261332
 31
0.0
  0
LINE
  5
2CA0
330
31BE
100
AcDbEntity
  8
0
 62
     0
100
AcDbLine
 10
-372.2999999999992
 20
-379.4782647611955
 30
0.0
 11
-93.96307565725875
 21
-193.9207890261313
 31
0.0
  0
LINE
  5
2CA1
330
31BE
100
AcDbEntity
  8
0
 62
     0
100
AcDbLine
 10
-372.2999999999992
 20
-376.4782982257766
 30
0.0
 11
-98.46303695115057
 21
-193.9207890261332
 31
0.0
  0
LINE
  5
2CA2
330
31BE
100
AcDbEntity
  8
0
 62
     0
100
AcDbLine
 10
-372.3000000000029
 20
-373.4783316903632
 30
0.0
 11
-102.9629982450315
 21
-193.9207890261332
 31
0.0
  0
LINE
  5
2CA3
330
31BE
100
AcDbEntity
  8
0
 62
     0
100
AcDbLine
 10
-372.2999999999992
 20
-370.478365154946
 30
0.0
 11
-107.4629595389197
 21
-193.9207890261332
 31
0.0
  0
LINE
  5
2CA4
330
31BE
100
AcDbEntity
  8
0
 62
     0
100
AcDbLine
 10
-372.2999999999992
 20
-367.4783986195289
 30
0.0
 11
-111.9629208328078
 21
-193.9207890261332
 31
0.0
  0
LINE
  5
2CA5
330
31BE
100
AcDbEntity
  8
0
 62
     0
100
AcDbLine
 10
-372.2999999999992
 20
-364.4784320841136
 30
0.0
 11
-116.4628821266924
 21
-193.9207890261332
 31
0.0
  0
LINE
  5
2CA6
330
31BE
100
AcDbEntity
  8
0
 62
     0
100
AcDbLine
 10
-372.3000000000029
 20
-361.4784655486984
 30
0.0
 11
-120.9628434205733
 21
-193.9207890261332
 31
0.0
  0
LINE
  5
2CA7
330
31BE
100
AcDbEntity
  8
0
 62
     0
100
AcDbLine
 10
-372.2999999999992
 20
-358.4784990132812
 30
0.0
 11
-125.4628047144615
 21
-193.9207890261332
 31
0.0
  0
LINE
  5
2CA8
330
31BE
100
AcDbEntity
  8
0
 62
     0
100
AcDbLine
 10
-372.2999999999992
 20
-355.4785324778641
 30
0.0
 11
-129.9627660083497
 21
-193.920789026135
 31
0.0
  0
LINE
  5
2CA9
330
31BE
100
AcDbEntity
  8
0
 62
     0
100
AcDbLine
 10
-372.2999999999992
 20
-352.4785659424488
 30
0.0
 11
-134.4627273022306
 21
-193.9207890261313
 31
0.0
  0
LINE
  5
2CAA
330
31BE
100
AcDbEntity
  8
0
 62
     0
100
AcDbLine
 10
-372.2999999999992
 20
-349.4785994070316
 30
0.0
 11
-138.9626885961152
 21
-193.9207890261313
 31
0.0
  0
LINE
  5
2CAB
330
31BE
100
AcDbEntity
  8
0
 62
     0
100
AcDbLine
 10
-372.2999999999992
 20
-346.4786328716146
 30
0.0
 11
-143.462649890007
 21
-193.9207890261332
 31
0.0
  0
LINE
  5
2CAC
330
31BE
100
AcDbEntity
  8
0
 62
     0
100
AcDbLine
 10
-372.2999999999992
 20
-343.478666336201
 30
0.0
 11
-147.9626111838916
 21
-193.920789026135
 31
0.0
  0
LINE
  5
2CAD
330
31BE
100
AcDbEntity
  8
0
 62
     0
100
AcDbLine
 10
-372.3000000000029
 20
-340.4786998007858
 30
0.0
 11
-152.4625724777725
 21
-193.9207890261313
 31
0.0
  0
LINE
  5
2CAE
330
31BE
100
AcDbEntity
  8
0
 62
     0
100
AcDbLine
 10
-372.2999999999992
 20
-337.4787332653668
 30
0.0
 11
-156.962533771657
 21
-193.9207890261313
 31
0.0
  0
LINE
  5
2CAF
330
31BE
100
AcDbEntity
  8
0
 62
     0
100
AcDbLine
 10
-372.2999999999992
 20
-334.4787667299515
 30
0.0
 11
-161.4624950655488
 21
-193.9207890261332
 31
0.0
  0
LINE
  5
2CB0
330
31BE
100
AcDbEntity
  8
0
 62
     0
100
AcDbLine
 10
-372.2999999999992
 20
-331.4788001945343
 30
0.0
 11
-165.9624563594334
 21
-193.9207890261332
 31
0.0
  0
LINE
  5
2CB1
330
31BE
100
AcDbEntity
  8
0
 62
     0
100
AcDbLine
 10
-372.2999999999992
 20
-328.4788336591191
 30
0.0
 11
-170.4624176533143
 21
-193.9207890261332
 31
0.0
  0
LINE
  5
2CB2
330
31BE
100
AcDbEntity
  8
0
 62
     0
100
AcDbLine
 10
-372.3000000000029
 20
-325.478867123702
 30
0.0
 11
-174.9623789472025
 21
-193.9207890261332
 31
0.0
  0
LINE
  5
2CB3
330
31BE
100
AcDbEntity
  8
0
 62
     0
100
AcDbLine
 10
-372.2999999999992
 20
-322.4789005882868
 30
0.0
 11
-179.4623402410907
 21
-193.9207890261332
 31
0.0
  0
LINE
  5
2CB4
330
31BE
100
AcDbEntity
  8
0
 62
     0
100
AcDbLine
 10
-372.2999999999992
 20
-319.4789340528714
 30
0.0
 11
-183.9623015349714
 21
-193.9207890261313
 31
0.0
  0
LINE
  5
2CB5
330
31BE
100
AcDbEntity
  8
0
 62
     0
100
AcDbLine
 10
-372.3000000000029
 20
-316.4789675174542
 30
0.0
 11
-188.4622628288596
 21
-193.9207890261332
 31
0.0
  0
LINE
  5
2CB6
330
31BE
100
AcDbEntity
  8
0
 62
     0
100
AcDbLine
 10
-372.2999999999992
 20
-313.4790009820372
 30
0.0
 11
-192.9622241227443
 21
-193.9207890261332
 31
0.0
  0
LINE
  5
2CB7
330
31BE
100
AcDbEntity
  8
0
 62
     0
100
AcDbLine
 10
-372.2999999999992
 20
-310.4790344466201
 30
0.0
 11
-197.4621854166324
 21
-193.9207890261332
 31
0.0
  0
LINE
  5
2CB8
330
31BE
100
AcDbEntity
  8
0
 62
     0
100
AcDbLine
 10
-372.2999999999992
 20
-307.4790679112065
 30
0.0
 11
-201.9621467105135
 21
-193.9207890261313
 31
0.0
  0
LINE
  5
2CB9
330
31BE
100
AcDbEntity
  8
0
 62
     0
100
AcDbLine
 10
-372.3000000000029
 20
-304.4791013757912
 30
0.0
 11
-206.4621080044017
 21
-193.9207890261332
 31
0.0
  0
LINE
  5
2CBA
330
31BE
100
AcDbEntity
  8
0
 62
     0
100
AcDbLine
 10
-372.2999999999992
 20
-301.4791348403723
 30
0.0
 11
-210.9620692982862
 21
-193.9207890261332
 31
0.0
  0
LINE
  5
2CBB
330
31BE
100
AcDbEntity
  8
0
 62
     0
100
AcDbLine
 10
-372.2999999999992
 20
-298.4791683049571
 30
0.0
 11
-215.4620305921744
 21
-193.9207890261332
 31
0.0
  0
LINE
  5
2CBC
330
31BE
100
AcDbEntity
  8
0
 62
     0
100
AcDbLine
 10
-372.3000000000029
 20
-295.47920176954
 30
0.0
 11
-219.961991886059
 21
-193.9207890261332
 31
0.0
  0
LINE
  5
2CBD
330
31BE
100
AcDbEntity
  8
0
 62
     0
100
AcDbLine
 10
-372.2999999999992
 20
-292.4792352341228
 30
0.0
 11
-224.4619531799472
 21
-193.9207890261332
 31
0.0
  0
LINE
  5
2CBE
330
31BE
100
AcDbEntity
  8
0
 62
     0
100
AcDbLine
 10
-372.2999999999992
 20
-289.4792686987094
 30
0.0
 11
-228.9619144738281
 21
-193.9207890261332
 31
0.0
  0
LINE
  5
2CBF
330
31BE
100
AcDbEntity
  8
0
 62
     0
100
AcDbLine
 10
-372.2999999999992
 20
-286.4793021632922
 30
0.0
 11
-233.4618757677126
 21
-193.9207890261332
 31
0.0
  0
LINE
  5
2CC0
330
31BE
100
AcDbEntity
  8
0
 62
     0
100
AcDbLine
 10
-372.3000000000029
 20
-283.4793356278769
 30
0.0
 11
-237.9618370616008
 21
-193.9207890261332
 31
0.0
  0
LINE
  5
2CC1
330
31BE
100
AcDbEntity
  8
0
 62
     0
100
AcDbLine
 10
-372.2999999999992
 20
-280.479369092458
 30
0.0
 11
-242.4617983554854
 21
-193.9207890261332
 31
0.0
  0
LINE
  5
2CC2
330
31BE
100
AcDbEntity
  8
0
 62
     0
100
AcDbLine
 10
-372.2999999999992
 20
-277.4794025570445
 30
0.0
 11
-246.9617596493699
 21
-193.9207890261332
 31
0.0
  0
LINE
  5
2CC3
330
31BE
100
AcDbEntity
  8
0
 62
     0
100
AcDbLine
 10
-372.2999999999992
 20
-274.4794360216274
 30
0.0
 11
-251.4617209432581
 21
-193.9207890261313
 31
0.0
  0
LINE
  5
2CC4
330
31BE
100
AcDbEntity
  8
0
 62
     0
100
AcDbLine
 10
-372.3000000000029
 20
-271.4794694862103
 30
0.0
 11
-255.9616822371427
 21
-193.9207890261313
 31
0.0
  0
LINE
  5
2CC5
330
31BE
100
AcDbEntity
  8
0
 62
     0
100
AcDbLine
 10
-372.2999999999992
 20
-268.479502950795
 30
0.0
 11
-260.4616435310272
 21
-193.9207890261332
 31
0.0
  0
LINE
  5
2CC6
330
31BE
100
AcDbEntity
  8
0
 62
     0
100
AcDbLine
 10
-372.3000000000029
 20
-265.4795364153797
 30
0.0
 11
-264.9616048249154
 21
-193.920789026135
 31
0.0
  0
LINE
  5
2CC7
330
31BE
100
AcDbEntity
  8
0
 62
     0
100
AcDbLine
 10
-372.2999999999992
 20
-262.4795698799626
 30
0.0
 11
-269.4615661188
 21
-193.9207890261313
 31
0.0
  0
LINE
  5
2CC8
330
31BE
100
AcDbEntity
  8
0
 62
     0
100
AcDbLine
 10
-372.2999999999992
 20
-259.4796033445454
 30
0.0
 11
-273.9615274126882
 21
-193.9207890261332
 31
0.0
  0
LINE
  5
2CC9
330
31BE
100
AcDbEntity
  8
0
 62
     0
100
AcDbLine
 10
-372.2999999999992
 20
-256.4796368091302
 30
0.0
 11
-278.4614887065691
 21
-193.9207890261332
 31
0.0
  0
LINE
  5
2CCA
330
31BE
100
AcDbEntity
  8
0
 62
     0
100
AcDbLine
 10
-372.3000000000029
 20
-253.4796702737149
 30
0.0
 11
-282.9614500004573
 21
-193.9207890261332
 31
0.0
  0
LINE
  5
2CCB
330
31BE
100
AcDbEntity
  8
0
 62
     0
100
AcDbLine
 10
-372.2999999999992
 20
-250.4797037382977
 30
0.0
 11
-287.4614112943418
 21
-193.9207890261332
 31
0.0
  0
LINE
  5
2CCC
330
31BE
100
AcDbEntity
  8
0
 62
     0
100
AcDbLine
 10
-372.2999999999992
 20
-247.4797372028807
 30
0.0
 11
-291.9613725882264
 21
-193.9207890261313
 31
0.0
  0
LINE
  5
2CCD
330
31BE
100
AcDbEntity
  8
0
 62
     0
100
AcDbLine
 10
-372.2999999999992
 20
-244.4797706674671
 30
0.0
 11
-296.4613338821109
 21
-193.9207890261332
 31
0.0
  0
LINE
  5
2CCE
330
31BE
100
AcDbEntity
  8
0
 62
     0
100
AcDbLine
 10
-372.2999999999992
 20
-241.4798041320482
 30
0.0
 11
-300.9612951759991
 21
-193.9207890261332
 31
0.0
  0
LINE
  5
2CCF
330
31BE
100
AcDbEntity
  8
0
 62
     0
100
AcDbLine
 10
-372.2999999999992
 20
-238.479837596633
 30
0.0
 11
-305.4612564698837
 21
-193.9207890261332
 31
0.0
  0
LINE
  5
2CD0
330
31BE
100
AcDbEntity
  8
0
 62
     0
100
AcDbLine
 10
-372.2999999999992
 20
-235.4798710612157
 30
0.0
 11
-309.9612177637682
 21
-193.9207890261332
 31
0.0
  0
LINE
  5
2CD1
330
31BE
100
AcDbEntity
  8
0
 62
     0
100
AcDbLine
 10
-372.3000000000029
 20
-232.4799045258004
 30
0.0
 11
-314.4611790576564
 21
-193.9207890261313
 31
0.0
  0
LINE
  5
2CD2
330
31BE
100
AcDbEntity
  8
0
 62
     0
100
AcDbLine
 10
-372.2999999999992
 20
-229.4799379903852
 30
0.0
 11
-318.9611403515373
 21
-193.9207890261313
 31
0.0
  0
LINE
  5
2CD3
330
31BE
100
AcDbEntity
  8
0
 62
     0
100
AcDbLine
 10
-372.2999999999992
 20
-226.4799714549681
 30
0.0
 11
-323.4611016454255
 21
-193.920789026135
 31
0.0
  0
LINE
  5
2CD4
330
31BE
100
AcDbEntity
  8
0
 62
     0
100
AcDbLine
 10
-372.3000000000029
 20
-223.4800049195528
 30
0.0
 11
-327.9610629393137
 21
-193.9207890261332
 31
0.0
  0
LINE
  5
2CD5
330
31BE
100
AcDbEntity
  8
0
 62
     0
100
AcDbLine
 10
-372.2999999999992
 20
-220.4800383841339
 30
0.0
 11
-332.4610242331983
 21
-193.9207890261332
 31
0.0
  0
LINE
  5
2CD6
330
31BE
100
AcDbEntity
  8
0
 62
     0
100
AcDbLine
 10
-372.2999999999992
 20
-217.4800718487204
 30
0.0
 11
-336.9609855270792
 21
-193.9207890261313
 31
0.0
  0
LINE
  5
2CD7
330
31BE
100
AcDbEntity
  8
0
 62
     0
100
AcDbLine
 10
-372.3000000000029
 20
-214.4801053133015
 30
0.0
 11
-341.460946820971
 21
-193.9207890261332
 31
0.0
  0
LINE
  5
2CD8
330
31BE
100
AcDbEntity
  8
0
 62
     0
100
AcDbLine
 10
-372.3000000000029
 20
-211.480138777888
 30
0.0
 11
-345.9609081148557
 21
-193.9207890261332
 31
0.0
  0
LINE
  5
2CD9
330
31BE
100
AcDbEntity
  8
0
 62
     0
100
AcDbLine
 10
-372.2999999999992
 20
-208.4801722424709
 30
0.0
 11
-350.4608694087401
 21
-193.9207890261332
 31
0.0
  0
LINE
  5
2CDA
330
31BE
100
AcDbEntity
  8
0
 62
     0
100
AcDbLine
 10
-372.2999999999992
 20
-205.4802057070538
 30
0.0
 11
-354.9608307026247
 21
-193.920789026135
 31
0.0
  0
LINE
  5
2CDB
330
31BE
100
AcDbEntity
  8
0
 62
     0
100
AcDbLine
 10
-372.3000000000029
 20
-202.4802391716384
 30
0.0
 11
-359.4607919965091
 21
-193.9207890261313
 31
0.0
  0
LINE
  5
2CDC
330
31BE
100
AcDbEntity
  8
0
 62
     0
100
AcDbLine
 10
-372.3000000000029
 20
-199.480272636225
 30
0.0
 11
-363.9607532903974
 21
-193.9207890261332
 31
0.0
  0
LINE
  5
2CDD
330
31BE
100
AcDbEntity
  8
0
 62
     0
100
AcDbLine
 10
-372.2999999999992
 20
-196.480306100806
 30
0.0
 11
-368.4607145842783
 21
-193.9207890261313
 31
0.0
  0
ENDBLK
  5
2CDE
330
31BE
100
AcDbEntity
  8
0
100
AcDbBlockEnd
  0
BLOCK
  5
31C1
330
31C0
100
AcDbEntity
  8
0
100
AcDbBlockBegin
  2
*X23
 70
     1
 10
0.0
 20
0.0
 30
0.0
  3
*X23
  1

  0
LINE
  5
2CE1
330
31C0
100
AcDbEntity
  8
0
 62
     0
100
AcDbLine
 10
-372.299999999992
 20
-1013.879379334813
 30
0.0
 11
-369.7069062731716
 21
-1015.608104071674
 31
0.0
  0
LINE
  5
2CE2
330
31C0
100
AcDbEntity
  8
0
 62
     0
100
AcDbLine
 10
-372.2999999999938
 20
-1010.879412799397
 30
0.0
 11
-365.2069449792834
 21
-1015.608104071678
 31
0.0
  0
LINE
  5
2CE3
330
31C0
100
AcDbEntity
  8
0
 62
     0
100
AcDbLine
 10
-372.299999999992
 20
-1007.879446263981
 30
0.0
 11
-360.7069836853989
 21
-1015.608104071675
 31
0.0
  0
LINE
  5
2CE4
330
31C0
100
AcDbEntity
  8
0
 62
     0
100
AcDbLine
 10
-372.299999999992
 20
-1004.879479728564
 30
0.0
 11
-356.2070223915107
 21
-1015.608104071677
 31
0.0
  0
LINE
  5
2CE5
330
31C0
100
AcDbEntity
  8
0
 62
     0
100
AcDbLine
 10
-372.299999999992
 20
-1001.879513193147
 30
0.0
 11
-351.707061097626
 21
-1015.608104071676
 31
0.0
  0
LINE
  5
2CE6
330
31C0
100
AcDbEntity
  8
0
 62
     0
100
AcDbLine
 10
-372.299999999992
 20
-998.8795466577302
 30
0.0
 11
-347.2070998037398
 21
-1015.608104071676
 31
0.0
  0
LINE
  5
2CE7
330
31C0
100
AcDbEntity
  8
0
 62
     0
100
AcDbLine
 10
-372.299999999992
 20
-995.8795801223159
 30
0.0
 11
-342.7071385098571
 21
-1015.608104071676
 31
0.0
  0
LINE
  5
2CE8
330
31C0
100
AcDbEntity
  8
0
 62
     0
100
AcDbLine
 10
-372.299999999992
 20
-992.8796135868989
 30
0.0
 11
-338.2071772159688
 21
-1015.608104071675
 31
0.0
  0
LINE
  5
2CE9
330
31C0
100
AcDbEntity
  8
0
 62
     0
100
AcDbLine
 10
-372.2999999999938
 20
-989.8796470514824
 30
0.0
 11
-333.7072159220842
 21
-1015.608104071677
 31
0.0
  0
LINE
  5
2CEA
330
31C0
100
AcDbEntity
  8
0
 62
     0
100
AcDbLine
 10
-372.2999999999938
 20
-986.8796805160652
 30
0.0
 11
-329.2072546281997
 21
-1015.608104071674
 31
0.0
  0
LINE
  5
2CEB
330
31C0
100
AcDbEntity
  8
0
 62
     0
100
AcDbLine
 10
-372.299999999992
 20
-983.8797139806498
 30
0.0
 11
-324.7072933343134
 21
-1015.608104071676
 31
0.0
  0
LINE
  5
2CEC
330
31C0
100
AcDbEntity
  8
0
 62
     0
100
AcDbLine
 10
-372.2999999999938
 20
-980.879747445234
 30
0.0
 11
-320.2073320404306
 21
-1015.608104071673
 31
0.0
  0
LINE
  5
2CED
330
31C0
100
AcDbEntity
  8
0
 62
     0
100
AcDbLine
 10
-372.299999999992
 20
-977.8797809098186
 30
0.0
 11
-315.7073707465406
 21
-1015.608104071677
 31
0.0
  0
LINE
  5
2CEE
330
31C0
100
AcDbEntity
  8
0
 62
     0
100
AcDbLine
 10
-372.2999999999956
 20
-974.8798143744007
 30
0.0
 11
-311.2074094526579
 21
-1015.608104071675
 31
0.0
  0
LINE
  5
2CEF
330
31C0
100
AcDbEntity
  8
0
 62
     0
100
AcDbLine
 10
-372.299999999992
 20
-971.8798478389857
 30
0.0
 11
-306.7074481587715
 21
-1015.608104071676
 31
0.0
  0
LINE
  5
2CF0
330
31C0
100
AcDbEntity
  8
0
 62
     0
100
AcDbLine
 10
-372.2999999999938
 20
-968.8798813035679
 30
0.0
 11
-302.2074868648851
 21
-1015.608104071676
 31
0.0
  0
LINE
  5
2CF1
330
31C0
100
AcDbEntity
  8
0
 62
     0
100
AcDbLine
 10
-372.299999999992
 20
-965.8799147681545
 30
0.0
 11
-297.7075255709987
 21
-1015.608104071678
 31
0.0
  0
LINE
  5
2CF2
330
31C0
100
AcDbEntity
  8
0
 62
     0
100
AcDbLine
 10
-372.2999999999938
 20
-962.8799482327368
 30
0.0
 11
-293.2075642771143
 21
-1015.608104071675
 31
0.0
  0
LINE
  5
2CF3
330
31C0
100
AcDbEntity
  8
0
 62
     0
100
AcDbLine
 10
-372.299999999992
 20
-959.8799816973205
 30
0.0
 11
-288.7076029832297
 21
-1015.608104071675
 31
0.0
  0
LINE
  5
2CF4
330
31C0
100
AcDbEntity
  8
0
 62
     0
100
AcDbLine
 10
-372.2999999999938
 20
-956.8800151619043
 30
0.0
 11
-284.2076416893432
 21
-1015.608104071676
 31
0.0
  0
LINE
  5
2CF5
330
31C0
100
AcDbEntity
  8
0
 62
     0
100
AcDbLine
 10
-372.2999999999938
 20
-953.8800486264872
 30
0.0
 11
-279.7076803954569
 21
-1015.608104071676
 31
0.0
  0
LINE
  5
2CF6
330
31C0
100
AcDbEntity
  8
0
 62
     0
100
AcDbLine
 10
-372.2999999999938
 20
-950.8800820910719
 30
0.0
 11
-275.2077191015724
 21
-1015.608104071676
 31
0.0
  0
LINE
  5
2CF7
330
31C0
100
AcDbEntity
  8
0
 62
     0
100
AcDbLine
 10
-372.2999999999938
 20
-947.8801155556547
 30
0.0
 11
-270.707757807686
 21
-1015.608104071675
 31
0.0
  0
LINE
  5
2CF8
330
31C0
100
AcDbEntity
  8
0
 62
     0
100
AcDbLine
 10
-372.299999999992
 20
-944.8801490202402
 30
0.0
 11
-266.2077965138014
 21
-1015.608104071677
 31
0.0
  0
LINE
  5
2CF9
330
31C0
100
AcDbEntity
  8
0
 62
     0
100
AcDbLine
 10
-372.2999999999938
 20
-941.8801824848223
 30
0.0
 11
-261.7078352199169
 21
-1015.608104071674
 31
0.0
  0
LINE
  5
2CFA
330
31C0
100
AcDbEntity
  8
0
 62
     0
100
AcDbLine
 10
-372.299999999992
 20
-938.880215949408
 30
0.0
 11
-257.2078739260323
 21
-1015.608104071676
 31
0.0
  0
LINE
  5
2CFB
330
31C0
100
AcDbEntity
  8
0
 62
     0
100
AcDbLine
 10
-372.2999999999938
 20
-935.8802494139895
 30
0.0
 11
-252.7079126321441
 21
-1015.608104071676
 31
0.0
  0
LINE
  5
2CFC
330
31C0
100
AcDbEntity
  8
0
 62
     0
100
AcDbLine
 10
-372.299999999992
 20
-932.8802828785756
 30
0.0
 11
-248.2079513382578
 21
-1015.608104071677
 31
0.0
  0
LINE
  5
2CFD
330
31C0
100
AcDbEntity
  8
0
 62
     0
100
AcDbLine
 10
-372.2999999999938
 20
-929.8803163431584
 30
0.0
 11
-243.707990044375
 21
-1015.608104071675
 31
0.0
  0
LINE
  5
2CFE
330
31C0
100
AcDbEntity
  8
0
 62
     0
100
AcDbLine
 10
-372.299999999992
 20
-926.8803498077428
 30
0.0
 11
-239.2080287504886
 21
-1015.608104071676
 31
0.0
  0
LINE
  5
2CFF
330
31C0
100
AcDbEntity
  8
0
 62
     0
100
AcDbLine
 10
-372.2999999999938
 20
-923.8803832723261
 30
0.0
 11
-234.7080674566023
 21
-1015.608104071676
 31
0.0
  0
LINE
  5
2D00
330
31C0
100
AcDbEntity
  8
0
 62
     0
100
AcDbLine
 10
-372.2999999999938
 20
-920.8804167369079
 30
0.0
 11
-230.2081061627159
 21
-1015.608104071676
 31
0.0
  0
LINE
  5
2D01
330
31C0
100
AcDbEntity
  8
0
 62
     0
100
AcDbLine
 10
-372.2999999999938
 20
-917.8804502014944
 30
0.0
 11
-225.7081448688332
 21
-1015.608104071675
 31
0.0
  0
LINE
  5
2D02
330
31C0
100
AcDbEntity
  8
0
 62
     0
100
AcDbLine
 10
-372.2999999999938
 20
-914.8804836660765
 30
0.0
 11
-221.2081835749468
 21
-1015.608104071675
 31
0.0
  0
LINE
  5
2D03
330
31C0
100
AcDbEntity
  8
0
 62
     0
100
AcDbLine
 10
-372.2999999999938
 20
-911.8805171306611
 30
0.0
 11
-216.7082222810586
 21
-1015.608104071677
 31
0.0
  0
LINE
  5
2D04
330
31C0
100
AcDbEntity
  8
0
 62
     0
100
AcDbLine
 10
-372.2999999999938
 20
-908.8805505952439
 30
0.0
 11
-212.2082609871759
 21
-1015.608104071674
 31
0.0
  0
LINE
  5
2D05
330
31C0
100
AcDbEntity
  8
0
 62
     0
100
AcDbLine
 10
-372.2999999999938
 20
-905.8805840598289
 30
0.0
 11
-207.7082996932895
 21
-1015.608104071676
 31
0.0
  0
LINE
  5
2D06
330
31C0
100
AcDbEntity
  8
0
 62
     0
100
AcDbLine
 10
-372.2999999999938
 20
-902.8806175244115
 30
0.0
 11
-203.2083383994049
 21
-1015.608104071675
 31
0.0
  0
LINE
  5
2D07
330
31C0
100
AcDbEntity
  8
0
 62
     0
100
AcDbLine
 10
-372.2999999999938
 20
-899.8806509889964
 30
0.0
 11
-198.7083771055168
 21
-1015.608104071677
 31
0.0
  0
LINE
  5
2D08
330
31C0
100
AcDbEntity
  8
0
 62
     0
100
AcDbLine
 10
-372.299999999992
 20
-896.8806844535802
 30
0.0
 11
-194.208415811634
 21
-1015.608104071674
 31
0.0
  0
LINE
  5
2D09
330
31C0
100
AcDbEntity
  8
0
 62
     0
100
AcDbLine
 10
-372.2999999999938
 20
-893.880717918164
 30
0.0
 11
-189.7084545177476
 21
-1015.608104071676
 31
0.0
  0
LINE
  5
2D0A
330
31C0
100
AcDbEntity
  8
0
 62
     0
100
AcDbLine
 10
-372.299999999992
 20
-890.8807513827477
 30
0.0
 11
-185.2084932238613
 21
-1015.608104071676
 31
0.0
  0
LINE
  5
2D0B
330
31C0
100
AcDbEntity
  8
0
 62
     0
100
AcDbLine
 10
-372.2999999999938
 20
-887.8807848473316
 30
0.0
 11
-180.7085319299749
 21
-1015.608104071677
 31
0.0
  0
LINE
  5
2D0C
330
31C0
100
AcDbEntity
  8
0
 62
     0
100
AcDbLine
 10
-372.299999999992
 20
-884.8808183119162
 30
0.0
 11
-176.2085706360922
 21
-1015.608104071675
 31
0.0
  0
LINE
  5
2D0D
330
31C0
100
AcDbEntity
  8
0
 62
     0
100
AcDbLine
 10
-372.2999999999938
 20
-881.8808517764983
 30
0.0
 11
-171.7086093422058
 21
-1015.608104071674
 31
0.0
  0
LINE
  5
2D0E
330
31C0
100
AcDbEntity
  8
0
 62
     0
100
AcDbLine
 10
-372.2999999999938
 20
-878.8808852410829
 30
0.0
 11
-167.2086480483194
 21
-1015.608104071676
 31
0.0
  0
LINE
  5
2D0F
330
31C0
100
AcDbEntity
  8
0
 62
     0
100
AcDbLine
 10
-372.299999999992
 20
-875.8809187056657
 30
0.0
 11
-162.7086867544312
 21
-1015.608104071676
 31
0.0
  0
LINE
  5
2D10
330
31C0
100
AcDbEntity
  8
0
 62
     0
100
AcDbLine
 10
-372.2999999999938
 20
-872.8809521702505
 30
0.0
 11
-158.2087254605503
 21
-1015.608104071675
 31
0.0
  0
LINE
  5
2D11
330
31C0
100
AcDbEntity
  8
0
 62
     0
100
AcDbLine
 10
-372.299999999992
 20
-869.8809856348342
 30
0.0
 11
-153.7087641666621
 21
-1015.608104071675
 31
0.0
  0
LINE
  5
2D12
330
31C0
100
AcDbEntity
  8
0
 62
     0
100
AcDbLine
 10
-372.2999999999956
 20
-866.8810190994181
 30
0.0
 11
-149.2088028727776
 21
-1015.608104071677
 31
0.0
  0
LINE
  5
2D13
330
31C0
100
AcDbEntity
  8
0
 62
     0
100
AcDbLine
 10
-372.299999999992
 20
-863.8810525640019
 30
0.0
 11
-144.708841578893
 21
-1015.608104071674
 31
0.0
  0
LINE
  5
2D14
330
31C0
100
AcDbEntity
  8
0
 62
     0
100
AcDbLine
 10
-372.2999999999938
 20
-860.8810860285856
 30
0.0
 11
-140.2088802850066
 21
-1015.608104071676
 31
0.0
  0
LINE
  5
2D15
330
31C0
100
AcDbEntity
  8
0
 62
     0
100
AcDbLine
 10
-372.2999999999938
 20
-857.8811194931686
 30
0.0
 11
-135.7089189911203
 21
-1015.608104071675
 31
0.0
  0
LINE
  5
2D16
330
31C0
100
AcDbEntity
  8
0
 62
     0
100
AcDbLine
 10
-372.2999999999938
 20
-854.8811529577543
 30
0.0
 11
-131.2089576972339
 21
-1015.608104071677
 31
0.0
  0
LINE
  5
2D17
330
31C0
100
AcDbEntity
  8
0
 62
     0
100
AcDbLine
 10
-372.2999999999938
 20
-851.8811864223373
 30
0.0
 11
-126.7089964033512
 21
-1015.608104071674
 31
0.0
  0
LINE
  5
2D18
330
31C0
100
AcDbEntity
  8
0
 62
     0
100
AcDbLine
 10
-372.2999999999938
 20
-848.8812198869219
 30
0.0
 11
-122.2090351094648
 21
-1015.608104071676
 31
0.0
  0
LINE
  5
2D19
330
31C0
100
AcDbEntity
  8
0
 62
     0
100
AcDbLine
 10
-372.2999999999938
 20
-845.8812533515038
 30
0.0
 11
-117.7090738155766
 21
-1015.608104071676
 31
0.0
  0
LINE
  5
2D1A
330
31C0
100
AcDbEntity
  8
0
 62
     0
100
AcDbLine
 10
-372.2999999999938
 20
-842.8812868160862
 30
0.0
 11
-113.2091125216921
 21
-1015.608104071675
 31
0.0
  0
LINE
  5
2D1B
330
31C0
100
AcDbEntity
  8
0
 62
     0
100
AcDbLine
 10
-372.2999999999938
 20
-839.8813202806715
 30
0.0
 11
-108.7091512278075
 21
-1015.608104071675
 31
0.0
  0
LINE
  5
2D1C
330
31C0
100
AcDbEntity
  8
0
 62
     0
100
AcDbLine
 10
-372.2999999999938
 20
-836.8813537452549
 30
0.0
 11
-104.2091899339229
 21
-1015.608104071675
 31
0.0
  0
LINE
  5
2D1D
330
31C0
100
AcDbEntity
  8
0
 62
     0
100
AcDbLine
 10
-372.2999999999938
 20
-833.8813872098397
 30
0.0
 11
-99.7092286400348
 21
-1015.608104071676
 31
0.0
  0
LINE
  5
2D1E
330
31C0
100
AcDbEntity
  8
0
 62
     0
100
AcDbLine
 10
-372.2999999999956
 20
-830.8814206744218
 30
0.0
 11
-95.20926734615384
 21
-1015.608104071674
 31
0.0
  0
LINE
  5
2D1F
330
31C0
100
AcDbEntity
  8
0
 62
     0
100
AcDbLine
 10
-372.2999999999938
 20
-827.8814541390072
 30
0.0
 11
-90.70930605226569
 21
-1015.608104071675
 31
0.0
  0
LINE
  5
2D20
330
31C0
100
AcDbEntity
  8
0
 62
     0
100
AcDbLine
 10
-372.2999999999938
 20
-824.8814876035893
 30
0.0
 11
-86.20934475837929
 21
-1015.608104071675
 31
0.0
  0
LINE
  5
2D21
330
31C0
100
AcDbEntity
  8
0
 62
     0
100
AcDbLine
 10
-372.2999999999938
 20
-821.8815210681759
 30
0.0
 11
-81.70938346449295
 21
-1015.608104071677
 31
0.0
  0
LINE
  5
2D22
330
31C0
100
AcDbEntity
  8
0
 62
     0
100
AcDbLine
 10
-372.2999999999938
 20
-818.8815545327576
 30
0.0
 11
-77.20942217061019
 21
-1015.608104071674
 31
0.0
  0
LINE
  5
2D23
330
31C0
100
AcDbEntity
  8
0
 62
     0
100
AcDbLine
 10
-372.2999999999938
 20
-815.8815879973435
 30
0.0
 11
-72.70946087672381
 21
-1015.608104071676
 31
0.0
  0
LINE
  5
2D24
330
31C0
100
AcDbEntity
  8
0
 62
     0
100
AcDbLine
 10
-372.2999999999938
 20
-812.8816214619256
 30
0.0
 11
-68.20949958283745
 21
-1015.608104071675
 31
0.0
  0
LINE
  5
2D25
330
31C0
100
AcDbEntity
  8
0
 62
     0
100
AcDbLine
 10
-372.2999999999938
 20
-809.8816549265103
 30
0.0
 11
-63.70953828894926
 21
-1015.608104071677
 31
0.0
  0
LINE
  5
2D26
330
31C0
100
AcDbEntity
  8
0
 62
     0
100
AcDbLine
 10
-372.2999999999938
 20
-806.881688391094
 30
0.0
 11
-59.20957699506836
 21
-1015.608104071675
 31
0.0
  0
LINE
  5
2D27
330
31C0
100
AcDbEntity
  8
0
 62
     0
100
AcDbLine
 10
-372.2999999999938
 20
-803.8817218556783
 30
0.0
 11
-54.70961570117832
 21
-1015.608104071678
 31
0.0
  0
LINE
  5
2D28
330
31C0
100
AcDbEntity
  8
0
 62
     0
100
AcDbLine
 10
-372.2999999999938
 20
-800.8817553202616
 30
0.0
 11
-50.2096544072956
 21
-1015.608104071676
 31
0.0
  0
LINE
  5
2D29
330
31C0
100
AcDbEntity
  8
0
 62
     0
100
AcDbLine
 10
-372.2999999999938
 20
-797.8817887848444
 30
0.0
 11
-45.70969311340921
 21
-1015.608104071676
 31
0.0
  0
LINE
  5
2D2A
330
31C0
100
AcDbEntity
  8
0
 62
     0
100
AcDbLine
 10
-372.2999999999938
 20
-794.8818222494292
 30
0.0
 11
-41.20973181952647
 21
-1015.608104071675
 31
0.0
  0
LINE
  5
2D2B
330
31C0
100
AcDbEntity
  8
0
 62
     0
100
AcDbLine
 10
-372.2999999999938
 20
-791.8818557140109
 30
0.0
 11
-36.70977052563831
 21
-1015.608104071675
 31
0.0
  0
LINE
  5
2D2C
330
31C0
100
AcDbEntity
  8
0
 62
     0
100
AcDbLine
 10
-372.2999999999938
 20
-788.8818891785968
 30
0.0
 11
-32.20980923175194
 21
-1015.608104071676
 31
0.0
  0
LINE
  5
2D2D
330
31C0
100
AcDbEntity
  8
0
 62
     0
100
AcDbLine
 10
-372.2999999999938
 20
-785.8819226431793
 30
0.0
 11
-27.7098479378692
 21
-1015.608104071674
 31
0.0
  0
LINE
  5
2D2E
330
31C0
100
AcDbEntity
  8
0
 62
     0
100
AcDbLine
 10
-372.2999999999938
 20
-782.8819561077644
 30
0.0
 11
-23.20988664398283
 21
-1015.608104071675
 31
0.0
  0
LINE
  5
2D2F
330
31C0
100
AcDbEntity
  8
0
 62
     0
100
AcDbLine
 10
-372.2999999999938
 20
-779.8819895723473
 30
0.0
 11
-18.70992535009645
 21
-1015.608104071675
 31
0.0
  0
LINE
  5
2D30
330
31C0
100
AcDbEntity
  8
0
 62
     0
100
AcDbLine
 10
-372.2999999999956
 20
-776.8820230369308
 30
0.0
 11
-14.20996405621008
 21
-1015.608104071677
 31
0.0
  0
LINE
  5
2D31
330
31C0
100
AcDbEntity
  8
0
 62
     0
100
AcDbLine
 10
-372.299999999992
 20
-773.8820565015155
 30
0.0
 11
-9.71000276232553
 21
-1015.608104071674
 31
0.0
  0
LINE
  5
2D32
330
31C0
100
AcDbEntity
  8
0
 62
     0
100
AcDbLine
 10
-372.2999999999956
 20
-770.8820899660995
 30
0.0
 11
-5.210041468437339
 21
-1015.608104071678
 31
0.0
  0
LINE
  5
2D33
330
31C0
100
AcDbEntity
  8
0
 62
     0
100
AcDbLine
 10
-372.2999999999938
 20
-767.8821234306822
 30
0.0
 11
-0.7100801745527861
 21
-1015.608104071675
 31
0.0
  0
LINE
  5
2D34
330
31C0
100
AcDbEntity
  8
0
 62
     0
100
AcDbLine
 10
-372.2999999999956
 20
-764.882156895267
 30
0.0
 11
3.789881119331766
 21
-1015.608104071677
 31
0.0
  0
LINE
  5
2D35
330
31C0
100
AcDbEntity
  8
0
 62
     0
100
AcDbLine
 10
-372.2999999999938
 20
-761.8821903598496
 30
0.0
 11
8.289842413216318
 21
-1015.608104071675
 31
0.0
  0
LINE
  5
2D36
330
31C0
100
AcDbEntity
  8
0
 62
     0
100
AcDbLine
 10
-372.2999999999956
 20
-758.8822238244337
 30
0.0
 11
12.78980370710087
 21
-1015.608104071674
 31
0.0
  0
LINE
  5
2D37
330
31C0
100
AcDbEntity
  8
0
 62
     0
100
AcDbLine
 10
-372.2999999999956
 20
-755.8822572890176
 30
0.0
 11
17.28976500098724
 21
-1015.608104071676
 31
0.0
  0
LINE
  5
2D38
330
31C0
100
AcDbEntity
  8
0
 62
     0
100
AcDbLine
 10
-372.2999999999938
 20
-752.8822907536015
 30
0.0
 11
21.7897262948718
 21
-1015.608104071673
 31
0.0
  0
LINE
  5
2D39
330
31C0
100
AcDbEntity
  8
0
 62
     0
100
AcDbLine
 10
-372.2999999999956
 20
-749.8823242181853
 30
0.0
 11
26.28968758875818
 21
-1015.608104071675
 31
0.0
  0
LINE
  5
2D3A
330
31C0
100
AcDbEntity
  8
0
 62
     0
100
AcDbLine
 10
-372.2999999999938
 20
-746.882357682769
 30
0.0
 11
30.78964888264454
 21
-1015.608104071675
 31
0.0
  0
LINE
  5
2D3B
330
31C0
100
AcDbEntity
  8
0
 62
     0
100
AcDbLine
 10
-372.2999999999956
 20
-743.8823911473524
 30
0.0
 11
35.2896101765291
 21
-1015.608104071676
 31
0.0
  0
LINE
  5
2D3C
330
31C0
100
AcDbEntity
  8
0
 62
     0
100
AcDbLine
 10
-372.2999999999938
 20
-740.8824246119372
 30
0.0
 11
39.78957147041365
 21
-1015.608104071674
 31
0.0
  0
LINE
  5
2D3D
330
31C0
100
AcDbEntity
  8
0
 62
     0
100
AcDbLine
 10
-372.2999999999938
 20
-737.8824580765209
 30
0.0
 11
44.28953276430184
 21
-1015.608104071675
 31
0.0
  0
LINE
  5
2D3E
330
31C0
100
AcDbEntity
  8
0
 62
     0
100
AcDbLine
 10
-372.2999999999938
 20
-734.8824915411038
 30
0.0
 11
48.78949405818637
 21
-1015.608104071675
 31
0.0
  0
LINE
  5
2D3F
330
31C0
100
AcDbEntity
  8
0
 62
     0
100
AcDbLine
 10
-372.2999999999938
 20
-731.8825250056891
 30
0.0
 11
53.28945535207275
 21
-1015.608104071677
 31
0.0
  0
LINE
  5
2D40
330
31C0
100
AcDbEntity
  8
0
 62
     0
100
AcDbLine
 10
-372.2999999999938
 20
-728.8825584702716
 30
0.0
 11
57.78941664595549
 21
-1015.608104071674
 31
0.0
  0
LINE
  5
2D41
330
31C0
100
AcDbEntity
  8
0
 62
     0
100
AcDbLine
 10
-372.2999999999938
 20
-725.8825919348571
 30
0.0
 11
62.28937793984368
 21
-1015.608104071676
 31
0.0
  0
LINE
  5
2D42
330
31C0
100
AcDbEntity
  8
0
 62
     0
100
AcDbLine
 10
-372.2999999999938
 20
-722.8826253994393
 30
0.0
 11
66.78933923373006
 21
-1015.608104071676
 31
0.0
  0
LINE
  5
2D43
330
31C0
100
AcDbEntity
  8
0
 62
     0
100
AcDbLine
 10
-372.2999999999938
 20
-719.8826588640232
 30
0.0
 11
71.28930052761461
 21
-1015.608104071675
 31
0.0
  0
LINE
  5
2D44
330
31C0
100
AcDbEntity
  8
0
 62
     0
100
AcDbLine
 10
-372.2999999999938
 20
-716.8826923286067
 30
0.0
 11
75.78926182149918
 21
-1015.608104071675
 31
0.0
  0
LINE
  5
2D45
330
31C0
100
AcDbEntity
  8
0
 62
     0
100
AcDbLine
 10
-372.2999999999956
 20
-713.8827257931897
 30
0.0
 11
80.28922311538371
 21
-1015.608104071674
 31
0.0
  0
LINE
  5
2D46
330
31C0
100
AcDbEntity
  8
0
 62
     0
100
AcDbLine
 10
-372.2999999999938
 20
-710.8827592577754
 30
0.0
 11
84.78918440927191
 21
-1015.608104071676
 31
0.0
  0
LINE
  5
2D47
330
31C0
100
AcDbEntity
  8
0
 62
     0
100
AcDbLine
 10
-372.2999999999956
 20
-707.8827927223584
 30
0.0
 11
89.28914570315464
 21
-1015.608104071673
 31
0.0
  0
LINE
  5
2D48
330
31C0
100
AcDbEntity
  8
0
 62
     0
100
AcDbLine
 10
-372.2999999999938
 20
-704.882826186943
 30
0.0
 11
93.789106997041
 21
-1015.608104071675
 31
0.0
  0
LINE
  5
2D49
330
31C0
100
AcDbEntity
  8
0
 62
     0
100
AcDbLine
 10
-372.2999999999938
 20
-701.8828596515247
 30
0.0
 11
98.28906829092741
 21
-1015.608104071675
 31
0.0
  0
LINE
  5
2D4A
330
31C0
100
AcDbEntity
  8
0
 62
     0
100
AcDbLine
 10
-372.2999999999938
 20
-698.8828931161105
 30
0.0
 11
102.7890295848137
 21
-1015.608104071676
 31
0.0
  0
LINE
  5
2D4B
330
31C0
100
AcDbEntity
  8
0
 62
     0
100
AcDbLine
 10
-372.2999999999938
 20
-695.8829265806924
 30
0.0
 11
107.2889908786983
 21
-1015.608104071674
 31
0.0
  0
LINE
  5
2D4C
330
31C0
100
AcDbEntity
  8
0
 62
     0
100
AcDbLine
 10
-372.2999999999956
 20
-692.8829600452782
 30
0.0
 11
111.7889521725828
 21
-1015.608104071676
 31
0.0
  0
LINE
  5
2D4D
330
31C0
100
AcDbEntity
  8
0
 62
     0
100
AcDbLine
 10
-372.2999999999938
 20
-689.882993509861
 30
0.0
 11
116.2889134664692
 21
-1015.608104071675
 31
0.0
  0
LINE
  5
2D4E
330
31C0
100
AcDbEntity
  8
0
 62
     0
100
AcDbLine
 10
-372.299999999992
 20
-686.8830269744464
 30
0.0
 11
120.7888747603538
 21
-1015.608104071675
 31
0.0
  0
LINE
  5
2D4F
330
31C0
100
AcDbEntity
  8
0
 62
     0
100
AcDbLine
 10
-372.2999999999938
 20
-683.8830604390284
 30
0.0
 11
125.2888360542401
 21
-1015.608104071674
 31
0.0
  0
LINE
  5
2D50
330
31C0
100
AcDbEntity
  8
0
 62
     0
100
AcDbLine
 10
-372.2999999999956
 20
-680.8830939036105
 30
0.0
 11
129.7887973481229
 21
-1015.608104071672
 31
0.0
  0
LINE
  5
2D51
330
31C0
100
AcDbEntity
  8
0
 62
     0
100
AcDbLine
 10
-372.2999999999938
 20
-677.883127368197
 30
0.0
 11
134.288758642011
 21
-1015.608104071676
 31
0.0
  0
LINE
  5
2D52
330
31C0
100
AcDbEntity
  8
0
 62
     0
100
AcDbLine
 10
-372.2999999999956
 20
-674.8831608327792
 30
0.0
 11
138.7887199358956
 21
-1015.608104071673
 31
0.0
  0
LINE
  5
2D53
330
31C0
100
AcDbEntity
  8
0
 62
     0
100
AcDbLine
 10
-372.2999999999938
 20
-671.8831942973647
 30
0.0
 11
143.2886812297802
 21
-1015.608104071675
 31
0.0
  0
LINE
  5
2D54
330
31C0
100
AcDbEntity
  8
0
 62
     0
100
AcDbLine
 10
-372.2999999999956
 20
-668.8832277619467
 30
0.0
 11
147.7886425236647
 21
-1015.608104071672
 31
0.0
  0
LINE
  5
2D55
330
31C0
100
AcDbEntity
  8
0
 62
     0
100
AcDbLine
 10
-372.2999999999938
 20
-665.8832612265312
 30
0.0
 11
152.2886038175546
 21
-1015.608104071676
 31
0.0
  0
LINE
  5
2D56
330
31C0
100
AcDbEntity
  8
0
 62
     0
100
AcDbLine
 10
-372.2999999999956
 20
-662.8832946911152
 30
0.0
 11
156.7885651114374
 21
-1015.608104071673
 31
0.0
  0
LINE
  5
2D57
330
31C0
100
AcDbEntity
  8
0
 62
     0
100
AcDbLine
 10
-372.2999999999938
 20
-659.8833281556998
 30
0.0
 11
161.2885264053238
 21
-1015.608104071675
 31
0.0
  0
LINE
  5
2D58
330
31C0
100
AcDbEntity
  8
0
 62
     0
100
AcDbLine
 10
-372.2999999999956
 20
-656.8833616202827
 30
0.0
 11
165.7884876992102
 21
-1015.608104071675
 31
0.0
  0
LINE
  5
2D59
330
31C0
100
AcDbEntity
  8
0
 62
     0
100
AcDbLine
 10
-372.2999999999938
 20
-653.8833950848675
 30
0.0
 11
170.2884489930948
 21
-1015.608104071674
 31
0.0
  0
LINE
  5
2D5A
330
31C0
100
AcDbEntity
  8
0
 62
     0
100
AcDbLine
 10
-372.2999999999938
 20
-650.8834285494503
 30
0.0
 11
174.7884102869811
 21
-1015.608104071674
 31
0.0
  0
LINE
  5
2D5B
330
31C0
100
AcDbEntity
  8
0
 62
     0
100
AcDbLine
 10
-372.2999999999956
 20
-647.8834620140339
 30
0.0
 11
179.2883715808639
 21
-1015.608104071673
 31
0.0
  0
LINE
  5
2D5C
330
31C0
100
AcDbEntity
  8
0
 62
     0
100
AcDbLine
 10
-372.2999999999938
 20
-644.8834954786177
 30
0.0
 11
183.7883328747539
 21
-1015.608104071675
 31
0.0
  0
LINE
  5
2D5D
330
31C0
100
AcDbEntity
  8
0
 62
     0
100
AcDbLine
 10
-372.2999999999956
 20
-641.8835289432006
 30
0.0
 11
188.2882941686366
 21
-1015.608104071673
 31
0.0
  0
LINE
  5
2D5E
330
31C0
100
AcDbEntity
  8
0
 62
     0
100
AcDbLine
 10
-372.2999999999938
 20
-638.8835624077857
 30
0.0
 11
192.788255462523
 21
-1015.608104071674
 31
0.0
  0
LINE
  5
2D5F
330
31C0
100
AcDbEntity
  8
0
 62
     0
100
AcDbLine
 10
-372.2999999999956
 20
-635.8835958723683
 30
0.0
 11
197.2882167564057
 21
-1015.608104071672
 31
0.0
  0
LINE
  5
2D60
330
31C0
100
AcDbEntity
  8
0
 62
     0
100
AcDbLine
 10
-372.2999999999956
 20
-632.8836293369522
 30
0.0
 11
201.7881780502956
 21
-1015.608104071676
 31
0.0
  0
LINE
  5
2D61
330
31C0
100
AcDbEntity
  8
0
 62
     0
100
AcDbLine
 10
-372.2999999999938
 20
-629.883662801537
 30
0.0
 11
206.2881393441784
 21
-1015.608104071673
 31
0.0
  0
LINE
  5
2D62
330
31C0
100
AcDbEntity
  8
0
 62
     0
100
AcDbLine
 10
-372.2999999999956
 20
-626.8836962661207
 30
0.0
 11
210.7881006380649
 21
-1015.608104071675
 31
0.0
  0
LINE
  5
2D63
330
31C0
100
AcDbEntity
  8
0
 62
     0
100
AcDbLine
 10
-372.2999999999938
 20
-623.8837297307045
 30
0.0
 11
215.2880619319494
 21
-1015.608104071672
 31
0.0
  0
LINE
  5
2D64
330
31C0
100
AcDbEntity
  8
0
 62
     0
100
AcDbLine
 10
-372.2999999999956
 20
-620.8837631952883
 30
0.0
 11
219.7880232258376
 21
-1015.608104071676
 31
0.0
  0
LINE
  5
2D65
330
31C0
100
AcDbEntity
  8
0
 62
     0
100
AcDbLine
 10
-372.2999999999938
 20
-617.8837966598721
 30
0.0
 11
224.2879845197204
 21
-1015.608104071674
 31
0.0
  0
LINE
  5
2D66
330
31C0
100
AcDbEntity
  8
0
 62
     0
100
AcDbLine
 10
-372.2999999999938
 20
-614.8838301244568
 30
0.0
 11
228.7879458136085
 21
-1015.608104071675
 31
0.0
  0
LINE
  5
2D67
330
31C0
100
AcDbEntity
  8
0
 62
     0
100
AcDbLine
 10
-372.2999999999974
 20
-611.8838635890388
 30
0.0
 11
233.2879071074913
 21
-1015.608104071673
 31
0.0
  0
LINE
  5
2D68
330
31C0
100
AcDbEntity
  8
0
 62
     0
100
AcDbLine
 10
-372.2999999999938
 20
-608.8838970536243
 30
0.0
 11
237.7878684013776
 21
-1015.608104071674
 31
0.0
  0
LINE
  5
2D69
330
31C0
100
AcDbEntity
  8
0
 62
     0
100
AcDbLine
 10
-372.2999999999956
 20
-605.8839305182072
 30
0.0
 11
242.2878296952621
 21
-1015.608104071674
 31
0.0
  0
LINE
  5
2D6A
330
31C0
100
AcDbEntity
  8
0
 62
     0
100
AcDbLine
 10
-372.2999999999938
 20
-602.883963982792
 30
0.0
 11
246.7877909891468
 21
-1015.608104071673
 31
0.0
  0
LINE
  5
2D6B
330
31C0
100
AcDbEntity
  8
0
 62
     0
100
AcDbLine
 10
-372.2999999999938
 20
-599.883997447374
 30
0.0
 11
251.2877522830348
 21
-1015.608104071673
 31
0.0
  0
LINE
  5
2D6C
330
31C0
100
AcDbEntity
  8
0
 62
     0
100
AcDbLine
 10
-372.2999999999938
 20
-596.8840309119583
 30
0.0
 11
255.7877135769195
 21
-1015.608104071673
 31
0.0
  0
LINE
  5
2D6D
330
31C0
100
AcDbEntity
  8
0
 62
     0
100
AcDbLine
 10
-372.2999999999938
 20
-593.8840643765423
 30
0.0
 11
260.2876748708059
 21
-1015.608104071674
 31
0.0
  0
LINE
  5
2D6E
330
31C0
100
AcDbEntity
  8
0
 62
     0
100
AcDbLine
 10
-372.2999999999956
 20
-590.8840978411252
 30
0.0
 11
264.7876361646886
 21
-1015.608104071672
 31
0.0
  0
LINE
  5
2D6F
330
31C0
100
AcDbEntity
  8
0
 62
     0
100
AcDbLine
 10
-372.2999999999938
 20
-587.8841313057097
 30
0.0
 11
269.2875974585786
 21
-1015.608104071676
 31
0.0
  0
LINE
  5
2D70
330
31C0
100
AcDbEntity
  8
0
 62
     0
100
AcDbLine
 10
-372.2999999999956
 20
-584.8841647702929
 30
0.0
 11
273.7875587524613
 21
-1015.608104071673
 31
0.0
  0
LINE
  5
2D71
330
31C0
100
AcDbEntity
  8
0
 62
     0
100
AcDbLine
 10
-372.2999999999938
 20
-581.8841982348784
 30
0.0
 11
278.2875200463477
 21
-1015.608104071675
 31
0.0
  0
LINE
  5
2D72
330
31C0
100
AcDbEntity
  8
0
 62
     0
100
AcDbLine
 10
-372.2999999999956
 20
-578.8842316994605
 30
0.0
 11
282.7874813402323
 21
-1015.608104071672
 31
0.0
  0
LINE
  5
2D73
330
31C0
100
AcDbEntity
  8
0
 62
     0
100
AcDbLine
 10
-372.2999999999938
 20
-575.884265164046
 30
0.0
 11
287.2874426341168
 21
-1015.608104071674
 31
0.0
  0
LINE
  5
2D74
330
31C0
100
AcDbEntity
  8
0
 62
     0
100
AcDbLine
 10
-372.2999999999956
 20
-572.8842986286281
 30
0.0
 11
291.787403928005
 21
-1015.608104071674
 31
0.0
  0
LINE
  5
2D75
330
31C0
100
AcDbEntity
  8
0
 62
     0
100
AcDbLine
 10
-372.2999999999938
 20
-569.8843320932137
 30
0.0
 11
296.2873652218878
 21
-1015.608104071673
 31
0.0
  0
LINE
  5
2D76
330
31C0
100
AcDbEntity
  8
0
 62
     0
100
AcDbLine
 10
-372.2999999999956
 20
-566.8843655577965
 30
0.0
 11
300.7873265157741
 21
-1015.608104071673
 31
0.0
  0
LINE
  5
2D77
330
31C0
100
AcDbEntity
  8
0
 62
     0
100
AcDbLine
 10
-372.299999999992
 20
-563.8843990223822
 30
0.0
 11
305.2872878096605
 21
-1015.608104071674
 31
0.0
  0
LINE
  5
2D78
330
31C0
100
AcDbEntity
  8
0
 62
     0
100
AcDbLine
 10
-372.2999999999956
 20
-560.8844324869642
 30
0.0
 11
309.7872491035468
 21
-1015.608104071674
 31
0.0
  0
LINE
  5
2D79
330
31C0
100
AcDbEntity
  8
0
 62
     0
100
AcDbLine
 10
-372.2999999999938
 20
-557.8844659515469
 30
0.0
 11
314.2872103974314
 21
-1015.608104071672
 31
0.0
  0
LINE
  5
2D7A
330
31C0
100
AcDbEntity
  8
0
 62
     0
100
AcDbLine
 10
-372.2999999999956
 20
-554.8844994161318
 30
0.0
 11
318.787171691316
 21
-1015.608104071673
 31
0.0
  0
LINE
  5
2D7B
330
31C0
100
AcDbEntity
  8
0
 62
     0
100
AcDbLine
 10
-372.2999999999938
 20
-551.8845328807156
 30
0.0
 11
323.2871329852023
 21
-1015.608104071673
 31
0.0
  0
LINE
  5
2D7C
330
31C0
100
AcDbEntity
  8
0
 62
     0
100
AcDbLine
 10
-372.2999999999956
 20
-548.8845663453003
 30
0.0
 11
327.7870942790888
 21
-1015.608104071674
 31
0.0
  0
LINE
  5
2D7D
330
31C0
100
AcDbEntity
  8
0
 62
     0
100
AcDbLine
 10
-372.2999999999956
 20
-545.884599809882
 30
0.0
 11
332.2870555729715
 21
-1015.608104071672
 31
0.0
  0
LINE
  5
2D7E
330
31C0
100
AcDbEntity
  8
0
 62
     0
100
AcDbLine
 10
-372.2999999999938
 20
-542.8846332744678
 30
0.0
 11
336.7870168668596
 21
-1015.608104071674
 31
0.0
  0
LINE
  5
2D7F
330
31C0
100
AcDbEntity
  8
0
 62
     0
100
AcDbLine
 10
-372.2999999999956
 20
-539.8846667390499
 30
0.0
 11
341.2869781607442
 21
-1015.608104071673
 31
0.0
  0
LINE
  5
2D80
330
31C0
100
AcDbEntity
  8
0
 62
     0
100
AcDbLine
 10
-372.2999999999938
 20
-536.8847002036345
 30
0.0
 11
345.7869394546323
 21
-1015.608104071675
 31
0.0
  0
LINE
  5
2D81
330
31C0
100
AcDbEntity
  8
0
 62
     0
100
AcDbLine
 10
-372.2999999999956
 20
-533.8847336682183
 30
0.0
 11
350.2869007485132
 21
-1015.608104071672
 31
0.0
  0
LINE
  5
2D82
330
31C0
100
AcDbEntity
  8
0
 62
     0
100
AcDbLine
 10
-372.2999999999938
 20
-530.8847671328029
 30
0.0
 11
354.7868620424015
 21
-1015.608104071674
 31
0.0
  0
LINE
  5
2D83
330
31C0
100
AcDbEntity
  8
0
 62
     0
100
AcDbLine
 10
-372.2999999999938
 20
-527.884800597386
 30
0.0
 11
359.2868233362878
 21
-1015.608104071674
 31
0.0
  0
LINE
  5
2D84
330
31C0
100
AcDbEntity
  8
0
 62
     0
100
AcDbLine
 10
-372.2999999999956
 20
-524.8848340619697
 30
0.0
 11
363.7867846301706
 21
-1015.608104071673
 31
0.0
  0
LINE
  5
2D85
330
31C0
100
AcDbEntity
  8
0
 62
     0
100
AcDbLine
 10
-372.2999999999938
 20
-521.8848675265544
 30
0.0
 11
368.2867459240569
 21
-1015.608104071673
 31
0.0
  0
LINE
  5
2D86
330
31C0
100
AcDbEntity
  8
0
 62
     0
100
AcDbLine
 10
-372.2999999999956
 20
-518.8849009911364
 30
0.0
 11
372.3000000000047
 21
-1015.283633421592
 31
0.0
  0
LINE
  5
2D87
330
31C0
100
AcDbEntity
  8
0
 62
     0
100
AcDbLine
 10
-372.2999999999938
 20
-515.8849344557219
 30
0.0
 11
372.3000000000047
 21
-1012.283666886178
 31
0.0
  0
LINE
  5
2D88
330
31C0
100
AcDbEntity
  8
0
 62
     0
100
AcDbLine
 10
-372.2999999999956
 20
-512.884967920304
 30
0.0
 11
372.3000000000047
 21
-1009.283700350761
 31
0.0
  0
LINE
  5
2D89
330
31C0
100
AcDbEntity
  8
0
 62
     0
100
AcDbLine
 10
-372.2999999999938
 20
-509.8850013848895
 30
0.0
 11
372.3000000000047
 21
-1006.283733815346
 31
0.0
  0
LINE
  5
2D8A
330
31C0
100
AcDbEntity
  8
0
 62
     0
100
AcDbLine
 10
-372.2999999999938
 20
-506.8850348494716
 30
0.0
 11
372.3000000000047
 21
-1003.283767279928
 31
0.0
  0
LINE
  5
2D8B
330
31C0
100
AcDbEntity
  8
0
 62
     0
100
AcDbLine
 10
-372.2999999999956
 20
-503.885068314057
 30
0.0
 11
372.3000000000029
 21
-1000.283800744512
 31
0.0
  0
LINE
  5
2D8C
330
31C0
100
AcDbEntity
  8
0
 62
     0
100
AcDbLine
 10
-372.2999999999938
 20
-500.8851017786398
 30
0.0
 11
372.3000000000047
 21
-997.2838342090952
 31
0.0
  0
LINE
  5
2D8D
330
31C0
100
AcDbEntity
  8
0
 62
     0
100
AcDbLine
 10
-372.2999999999956
 20
-497.8851352432248
 30
0.0
 11
372.3000000000029
 21
-994.283867673681
 31
0.0
  0
LINE
  5
2D8E
330
31C0
100
AcDbEntity
  8
0
 62
     0
100
AcDbLine
 10
-372.2999999999938
 20
-494.8851687078076
 30
0.0
 11
372.3000000000047
 21
-991.2839011382638
 31
0.0
  0
LINE
  5
2D8F
330
31C0
100
AcDbEntity
  8
0
 62
     0
100
AcDbLine
 10
-372.2999999999956
 20
-491.8852021723913
 30
0.0
 11
372.3000000000029
 21
-988.2839346028481
 31
0.0
  0
LINE
  5
2D90
330
31C0
100
AcDbEntity
  8
0
 62
     0
100
AcDbLine
 10
-372.2999999999938
 20
-488.8852356369762
 30
0.0
 11
372.3000000000047
 21
-985.2839680674311
 31
0.0
  0
LINE
  5
2D91
330
31C0
100
AcDbEntity
  8
0
 62
     0
100
AcDbLine
 10
-372.2999999999956
 20
-485.88526910156
 30
0.0
 11
372.3000000000047
 21
-982.2840015320162
 31
0.0
  0
LINE
  5
2D92
330
31C0
100
AcDbEntity
  8
0
 62
     0
100
AcDbLine
 10
-372.2999999999956
 20
-482.8853025661429
 30
0.0
 11
372.3000000000047
 21
-979.2840349965999
 31
0.0
  0
LINE
  5
2D93
330
31C0
100
AcDbEntity
  8
0
 62
     0
100
AcDbLine
 10
-372.2999999999938
 20
-479.8853360307257
 30
0.0
 11
372.3000000000047
 21
-976.284068461182
 31
0.0
  0
LINE
  5
2D94
330
31C0
100
AcDbEntity
  8
0
 62
     0
100
AcDbLine
 10
-372.2999999999956
 20
-476.8853694953103
 30
0.0
 11
372.3000000000047
 21
-973.2841019257673
 31
0.0
  0
LINE
  5
2D95
330
31C0
100
AcDbEntity
  8
0
 62
     0
100
AcDbLine
 10
-372.2999999999938
 20
-473.885402959894
 30
0.0
 11
372.3000000000047
 21
-970.2841353903496
 31
0.0
  0
LINE
  5
2D96
330
31C0
100
AcDbEntity
  8
0
 62
     0
100
AcDbLine
 10
-372.2999999999956
 20
-470.8854364244778
 30
0.0
 11
372.3000000000047
 21
-967.2841688549342
 31
0.0
  0
LINE
  5
2D97
330
31C0
100
AcDbEntity
  8
0
 62
     0
100
AcDbLine
 10
-372.2999999999938
 20
-467.8854698890616
 30
0.0
 11
372.3000000000047
 21
-964.2842023195182
 31
0.0
  0
LINE
  5
2D98
330
31C0
100
AcDbEntity
  8
0
 62
     0
100
AcDbLine
 10
-372.2999999999956
 20
-464.8855033536456
 30
0.0
 11
372.3000000000047
 21
-961.2842357841028
 31
0.0
  0
LINE
  5
2D99
330
31C0
100
AcDbEntity
  8
0
 62
     0
100
AcDbLine
 10
-372.2999999999938
 20
-461.8855368182294
 30
0.0
 11
372.3000000000047
 21
-958.2842692486856
 31
0.0
  0
LINE
  5
2D9A
330
31C0
100
AcDbEntity
  8
0
 62
     0
100
AcDbLine
 10
-372.2999999999956
 20
-458.8855702828132
 30
0.0
 11
372.3000000000029
 21
-955.2843027132691
 31
0.0
  0
LINE
  5
2D9B
330
31C0
100
AcDbEntity
  8
0
 62
     0
100
AcDbLine
 10
-372.299999999992
 20
-455.8856037473979
 30
0.0
 11
372.3000000000066
 21
-952.284336177853
 31
0.0
  0
LINE
  5
2D9C
330
31C0
100
AcDbEntity
  8
0
 62
     0
100
AcDbLine
 10
-372.2999999999956
 20
-452.8856372119816
 30
0.0
 11
372.3000000000029
 21
-949.2843696424371
 31
0.0
  0
LINE
  5
2D9D
330
31C0
100
AcDbEntity
  8
0
 62
     0
100
AcDbLine
 10
-372.2999999999938
 20
-449.8856706765645
 30
0.0
 11
372.3000000000066
 21
-946.2844031070217
 31
0.0
  0
LINE
  5
2D9E
330
31C0
100
AcDbEntity
  8
0
 62
     0
100
AcDbLine
 10
-372.2999999999956
 20
-446.8857041411492
 30
0.0
 11
372.3000000000029
 21
-943.2844365716057
 31
0.0
  0
LINE
  5
2D9F
330
31C0
100
AcDbEntity
  8
0
 62
     0
100
AcDbLine
 10
-372.2999999999938
 20
-443.885737605732
 30
0.0
 11
372.3000000000066
 21
-940.2844700361892
 31
0.0
  0
LINE
  5
2DA0
330
31C0
100
AcDbEntity
  8
0
 62
     0
100
AcDbLine
 10
-372.2999999999938
 20
-440.8857710703157
 30
0.0
 11
372.3000000000047
 21
-937.2845035007712
 31
0.0
  0
LINE
  5
2DA1
330
31C0
100
AcDbEntity
  8
0
 62
     0
100
AcDbLine
 10
-372.2999999999956
 20
-437.8858045348995
 30
0.0
 11
372.3000000000047
 21
-934.2845369653556
 31
0.0
  0
LINE
  5
2DA2
330
31C0
100
AcDbEntity
  8
0
 62
     0
100
AcDbLine
 10
-372.2999999999956
 20
-434.8858379994824
 30
0.0
 11
372.3000000000047
 21
-931.2845704299395
 31
0.0
  0
LINE
  5
2DA3
330
31C0
100
AcDbEntity
  8
0
 62
     0
100
AcDbLine
 10
-372.2999999999956
 20
-431.8858714640671
 30
0.0
 11
372.3000000000047
 21
-928.2846038945244
 31
0.0
  0
LINE
  5
2DA4
330
31C0
100
AcDbEntity
  8
0
 62
     0
100
AcDbLine
 10
-372.2999999999956
 20
-428.8859049286502
 30
0.0
 11
372.3000000000047
 21
-925.2846373591072
 31
0.0
  0
LINE
  5
2DA5
330
31C0
100
AcDbEntity
  8
0
 62
     0
100
AcDbLine
 10
-372.2999999999956
 20
-425.8859383932358
 30
0.0
 11
372.3000000000047
 21
-922.284670823692
 31
0.0
  0
LINE
  5
2DA6
330
31C0
100
AcDbEntity
  8
0
 62
     0
100
AcDbLine
 10
-372.2999999999938
 20
-422.8859718578185
 30
0.0
 11
372.3000000000047
 21
-919.2847042882748
 31
0.0
  0
LINE
  5
2DA7
330
31C0
100
AcDbEntity
  8
0
 62
     0
100
AcDbLine
 10
-372.2999999999938
 20
-419.8860053224034
 30
0.0
 11
372.3000000000047
 21
-916.2847377528596
 31
0.0
  0
LINE
  5
2DA8
330
31C0
100
AcDbEntity
  8
0
 62
     0
100
AcDbLine
 10
-372.2999999999956
 20
-416.8860387869854
 30
0.0
 11
372.3000000000047
 21
-913.2847712174422
 31
0.0
  0
LINE
  5
2DA9
330
31C0
100
AcDbEntity
  8
0
 62
     0
100
AcDbLine
 10
-372.2999999999938
 20
-413.886072251571
 30
0.0
 11
372.3000000000047
 21
-910.2848046820271
 31
0.0
  0
LINE
  5
2DAA
330
31C0
100
AcDbEntity
  8
0
 62
     0
100
AcDbLine
 10
-372.2999999999956
 20
-410.8861057161528
 30
0.0
 11
372.3000000000047
 21
-907.2848381466098
 31
0.0
  0
LINE
  5
2DAB
330
31C0
100
AcDbEntity
  8
0
 62
     0
100
AcDbLine
 10
-372.2999999999938
 20
-407.8861391807395
 30
0.0
 11
372.3000000000047
 21
-904.2848716111949
 31
0.0
  0
LINE
  5
2DAC
330
31C0
100
AcDbEntity
  8
0
 62
     0
100
AcDbLine
 10
-372.2999999999938
 20
-404.8861726453215
 30
0.0
 11
372.3000000000047
 21
-901.2849050757768
 31
0.0
  0
LINE
  5
2DAD
330
31C0
100
AcDbEntity
  8
0
 62
     0
100
AcDbLine
 10
-372.2999999999938
 20
-401.8862061099071
 30
0.0
 11
372.3000000000047
 21
-898.2849385403634
 31
0.0
  0
LINE
  5
2DAE
330
31C0
100
AcDbEntity
  8
0
 62
     0
100
AcDbLine
 10
-372.2999999999938
 20
-398.8862395744891
 30
0.0
 11
372.3000000000047
 21
-895.2849720049451
 31
0.0
  0
LINE
  5
2DAF
330
31C0
100
AcDbEntity
  8
0
 62
     0
100
AcDbLine
 10
-372.2999999999956
 20
-395.886273039072
 30
0.0
 11
372.3000000000047
 21
-892.285005469529
 31
0.0
  0
LINE
  5
2DB0
330
31C0
100
AcDbEntity
  8
0
 62
     0
100
AcDbLine
 10
-372.2999999999938
 20
-392.8863065036576
 30
0.0
 11
372.3000000000047
 21
-889.2850389341131
 31
0.0
  0
LINE
  5
2DB1
330
31C0
100
AcDbEntity
  8
0
 62
     0
100
AcDbLine
 10
-372.2999999999956
 20
-389.8863399682405
 30
0.0
 11
372.3000000000047
 21
-886.2850723986976
 31
0.0
  0
LINE
  5
2DB2
330
31C0
100
AcDbEntity
  8
0
 62
     0
100
AcDbLine
 10
-372.2999999999938
 20
-386.8863734328252
 30
0.0
 11
372.3000000000047
 21
-883.285105863281
 31
0.0
  0
LINE
  5
2DB3
330
31C0
100
AcDbEntity
  8
0
 62
     0
100
AcDbLine
 10
-372.2999999999956
 20
-383.8864068974071
 30
0.0
 11
372.3000000000047
 21
-880.285139327864
 31
0.0
  0
LINE
  5
2DB4
330
31C0
100
AcDbEntity
  8
0
 62
     0
100
AcDbLine
 10
-372.2999999999938
 20
-380.8864403619928
 30
0.0
 11
372.3000000000047
 21
-877.2851727924486
 31
0.0
  0
LINE
  5
2DB5
330
31C0
100
AcDbEntity
  8
0
 62
     0
100
AcDbLine
 10
-372.2999999999956
 20
-377.8864738265756
 30
0.0
 11
372.3000000000047
 21
-874.2852062570319
 31
0.0
  0
LINE
  5
2DB6
330
31C0
100
AcDbEntity
  8
0
 62
     0
100
AcDbLine
 10
-372.2999999999938
 20
-374.8865072911613
 30
0.0
 11
372.3000000000047
 21
-871.2852397216163
 31
0.0
  0
LINE
  5
2DB7
330
31C0
100
AcDbEntity
  8
0
 62
     0
100
AcDbLine
 10
-372.2999999999956
 20
-371.8865407557432
 30
0.0
 11
372.3000000000047
 21
-868.2852731861993
 31
0.0
  0
LINE
  5
2DB8
330
31C0
100
AcDbEntity
  8
0
 62
     0
100
AcDbLine
 10
-372.299999999992
 20
-368.8865742203288
 30
0.0
 11
372.3000000000066
 21
-865.285306650785
 31
0.0
  0
LINE
  5
2DB9
330
31C0
100
AcDbEntity
  8
0
 62
     0
100
AcDbLine
 10
-372.2999999999938
 20
-365.8866076849108
 30
0.0
 11
372.3000000000066
 21
-862.2853401153689
 31
0.0
  0
LINE
  5
2DBA
330
31C0
100
AcDbEntity
  8
0
 62
     0
100
AcDbLine
 10
-372.2999999999938
 20
-362.8866411494964
 30
0.0
 11
372.3000000000066
 21
-859.2853735799526
 31
0.0
  0
LINE
  5
2DBB
330
31C0
100
AcDbEntity
  8
0
 62
     0
100
AcDbLine
 10
-372.2999999999938
 20
-359.8866746140793
 30
0.0
 11
372.3000000000066
 21
-856.2854070445371
 31
0.0
  0
LINE
  5
2DBC
330
31C0
100
AcDbEntity
  8
0
 62
     0
100
AcDbLine
 10
-372.2999999999938
 20
-356.8867080786622
 30
0.0
 11
372.3000000000066
 21
-853.2854405091192
 31
0.0
  0
LINE
  5
2DBD
330
31C0
100
AcDbEntity
  8
0
 62
     0
100
AcDbLine
 10
-372.2999999999938
 20
-353.8867415432469
 30
0.0
 11
372.3000000000047
 21
-850.285473973704
 31
0.0
  0
LINE
  5
2DBE
330
31C0
100
AcDbEntity
  8
0
 62
     0
100
AcDbLine
 10
-372.2999999999956
 20
-350.8867750078289
 30
0.0
 11
372.3000000000066
 21
-847.2855074382868
 31
0.0
  0
LINE
  5
2DBF
330
31C0
100
AcDbEntity
  8
0
 62
     0
100
AcDbLine
 10
-372.2999999999938
 20
-347.8868084724136
 30
0.0
 11
372.3000000000066
 21
-844.2855409028714
 31
0.0
  0
LINE
  5
2DC0
330
31C0
100
AcDbEntity
  8
0
 62
     0
100
AcDbLine
 10
-372.2999999999956
 20
-344.8868419369974
 30
0.0
 11
372.3000000000066
 21
-841.2855743674544
 31
0.0
  0
LINE
  5
2DC1
330
31C0
100
AcDbEntity
  8
0
 62
     0
100
AcDbLine
 10
-372.2999999999938
 20
-341.8868754015821
 30
0.0
 11
372.3000000000066
 21
-838.2856078320392
 31
0.0
  0
LINE
  5
2DC2
330
31C0
100
AcDbEntity
  8
0
 62
     0
100
AcDbLine
 10
-372.2999999999956
 20
-338.8869088661651
 30
0.0
 11
372.3000000000047
 21
-835.2856412966223
 31
0.0
  0
LINE
  5
2DC3
330
31C0
100
AcDbEntity
  8
0
 62
     0
100
AcDbLine
 10
-372.2999999999938
 20
-335.8869423307496
 30
0.0
 11
372.3000000000066
 21
-832.2856747612068
 31
0.0
  0
LINE
  5
2DC4
330
31C0
100
AcDbEntity
  8
0
 62
     0
100
AcDbLine
 10
-372.2999999999938
 20
-332.8869757953325
 30
0.0
 11
372.3000000000066
 21
-829.2857082257894
 31
0.0
  0
LINE
  5
2DC5
330
31C0
100
AcDbEntity
  8
0
 62
     0
100
AcDbLine
 10
-372.2999999999956
 20
-329.8870092599173
 30
0.0
 11
372.3000000000066
 21
-826.2857416903742
 31
0.0
  0
LINE
  5
2DC6
330
31C0
100
AcDbEntity
  8
0
 62
     0
100
AcDbLine
 10
-372.2999999999938
 20
-326.8870427245011
 30
0.0
 11
372.3000000000084
 21
-823.2857751549587
 31
0.0
  0
LINE
  5
2DC7
330
31C0
100
AcDbEntity
  8
0
 62
     0
100
AcDbLine
 10
-372.2999999999956
 20
-323.8870761890848
 30
0.0
 11
372.3000000000066
 21
-820.2858086195425
 31
0.0
  0
LINE
  5
2DC8
330
31C0
100
AcDbEntity
  8
0
 62
     0
100
AcDbLine
 10
-372.2999999999938
 20
-320.8871096536686
 30
0.0
 11
372.3000000000047
 21
-817.2858420841246
 31
0.0
  0
LINE
  5
2DC9
330
31C0
100
AcDbEntity
  8
0
 62
     0
100
AcDbLine
 10
-372.2999999999938
 20
-317.8871431182506
 30
0.0
 11
372.3000000000084
 21
-814.2858755487086
 31
0.0
  0
LINE
  5
2DCA
330
31C0
100
AcDbEntity
  8
0
 62
     0
100
AcDbLine
 10
-372.2999999999938
 20
-314.8871765828372
 30
0.0
 11
372.3000000000066
 21
-811.2859090132934
 31
0.0
  0
LINE
  5
2DCB
330
31C0
100
AcDbEntity
  8
0
 62
     0
100
AcDbLine
 10
-372.2999999999938
 20
-311.8872100474191
 30
0.0
 11
372.3000000000084
 21
-808.2859424778771
 31
0.0
  0
LINE
  5
2DCC
330
31C0
100
AcDbEntity
  8
0
 62
     0
100
AcDbLine
 10
-372.2999999999956
 20
-308.8872435120038
 30
0.0
 11
372.3000000000047
 21
-805.285975942461
 31
0.0
  0
LINE
  5
2DCD
330
31C0
100
AcDbEntity
  8
0
 62
     0
100
AcDbLine
 10
-372.2999999999938
 20
-305.8872769765867
 30
0.0
 11
372.3000000000066
 21
-802.2860094070439
 31
0.0
  0
LINE
  5
2DCE
330
31C0
100
AcDbEntity
  8
0
 62
     0
100
AcDbLine
 10
-372.2999999999938
 20
-302.8873104411714
 30
0.0
 11
372.3000000000047
 21
-799.2860428716284
 31
0.0
  0
LINE
  5
2DCF
330
31C0
100
AcDbEntity
  8
0
 62
     0
100
AcDbLine
 10
-372.2999999999938
 20
-299.8873439057552
 30
0.0
 11
372.3000000000066
 21
-796.2860763362114
 31
0.0
  0
LINE
  5
2DD0
330
31C0
100
AcDbEntity
  8
0
 62
     0
100
AcDbLine
 10
-372.2999999999938
 20
-296.8873773703389
 30
0.0
 11
372.3000000000066
 21
-793.2861098007959
 31
0.0
  0
LINE
  5
2DD1
330
31C0
100
AcDbEntity
  8
0
 62
     0
100
AcDbLine
 10
-372.2999999999956
 20
-293.887410834922
 30
0.0
 11
372.3000000000066
 21
-790.2861432653799
 31
0.0
  0
LINE
  5
2DD2
330
31C0
100
AcDbEntity
  8
0
 62
     0
100
AcDbLine
 10
-372.2999999999938
 20
-290.8874442995066
 30
0.0
 11
372.3000000000066
 21
-787.2861767299646
 31
0.0
  0
LINE
  5
2DD3
330
31C0
100
AcDbEntity
  8
0
 62
     0
100
AcDbLine
 10
-372.2999999999956
 20
-287.8874777640895
 30
0.0
 11
372.3000000000047
 21
-784.2862101945462
 31
0.0
  0
LINE
  5
2DD4
330
31C0
100
AcDbEntity
  8
0
 62
     0
100
AcDbLine
 10
-372.2999999999938
 20
-284.8875112286742
 30
0.0
 11
372.3000000000066
 21
-781.2862436591322
 31
0.0
  0
LINE
  5
2DD5
330
31C0
100
AcDbEntity
  8
0
 62
     0
100
AcDbLine
 10
-372.2999999999956
 20
-281.8875446932569
 30
0.0
 11
372.3000000000066
 21
-778.2862771237142
 31
0.0
  0
LINE
  5
2DD6
330
31C0
100
AcDbEntity
  8
0
 62
     0
100
AcDbLine
 10
-372.2999999999938
 20
-278.8875781578408
 30
0.0
 11
372.3000000000066
 21
-775.2863105882989
 31
0.0
  0
LINE
  5
2DD7
330
31C0
100
AcDbEntity
  8
0
 62
     0
100
AcDbLine
 10
-372.2999999999956
 20
-275.8876116224246
 30
0.0
 11
372.3000000000066
 21
-772.2863440528826
 31
0.0
  0
LINE
  5
2DD8
330
31C0
100
AcDbEntity
  8
0
 62
     0
100
AcDbLine
 10
-372.2999999999938
 20
-272.8876450870084
 30
0.0
 11
372.3000000000066
 21
-769.2863775174662
 31
0.0
  0
LINE
  5
2DD9
330
31C0
100
AcDbEntity
  8
0
 62
     0
100
AcDbLine
 10
-372.2999999999956
 20
-269.8876785515923
 30
0.0
 11
372.3000000000066
 21
-766.2864109820503
 31
0.0
  0
LINE
  5
2DDA
330
31C0
100
AcDbEntity
  8
0
 62
     0
100
AcDbLine
 10
-372.2999999999938
 20
-266.8877120161769
 30
0.0
 11
372.3000000000066
 21
-763.2864444466331
 31
0.0
  0
LINE
  5
2DDB
330
31C0
100
AcDbEntity
  8
0
 62
     0
100
AcDbLine
 10
-372.2999999999956
 20
-263.8877454807607
 30
0.0
 11
372.3000000000066
 21
-760.2864779112187
 31
0.0
  0
LINE
  5
2DDC
330
31C0
100
AcDbEntity
  8
0
 62
     0
100
AcDbLine
 10
-372.2999999999938
 20
-260.8877789453436
 30
0.0
 11
372.3000000000084
 21
-757.2865113758017
 31
0.0
  0
LINE
  5
2DDD
330
31C0
100
AcDbEntity
  8
0
 62
     0
100
AcDbLine
 10
-372.2999999999956
 20
-257.8878124099283
 30
0.0
 11
372.3000000000066
 21
-754.2865448403862
 31
0.0
  0
LINE
  5
2DDE
330
31C0
100
AcDbEntity
  8
0
 62
     0
100
AcDbLine
 10
-372.2999999999938
 20
-254.8878458745112
 30
0.0
 11
372.3000000000066
 21
-751.2865783049684
 31
0.0
  0
LINE
  5
2DDF
330
31C0
100
AcDbEntity
  8
0
 62
     0
100
AcDbLine
 10
-372.2999999999956
 20
-251.8878793390968
 30
0.0
 11
372.3000000000047
 21
-748.286611769553
 31
0.0
  0
LINE
  5
2DE0
330
31C0
100
AcDbEntity
  8
0
 62
     0
100
AcDbLine
 10
-372.2999999999938
 20
-248.8879128036797
 30
0.0
 11
372.3000000000066
 21
-745.2866452341368
 31
0.0
  0
LINE
  5
2DE1
330
31C0
100
AcDbEntity
  8
0
 62
     0
100
AcDbLine
 10
-372.299999999992
 20
-245.8879462682644
 30
0.0
 11
372.3000000000066
 21
-742.2866786987214
 31
0.0
  0
LINE
  5
2DE2
330
31C0
100
AcDbEntity
  8
0
 62
     0
100
AcDbLine
 10
-372.2999999999956
 20
-242.8879797328463
 30
0.0
 11
372.3000000000066
 21
-739.2867121633043
 31
0.0
  0
LINE
  5
2DE3
330
31C0
100
AcDbEntity
  8
0
 62
     0
100
AcDbLine
 10
-372.2999999999938
 20
-239.8880131974292
 30
0.0
 11
372.3000000000066
 21
-736.2867456278868
 31
0.0
  0
LINE
  5
2DE4
330
31C0
100
AcDbEntity
  8
0
 62
     0
100
AcDbLine
 10
-372.2999999999956
 20
-236.888046662014
 30
0.0
 11
372.3000000000066
 21
-733.2867790924716
 31
0.0
  0
LINE
  5
2DE5
330
31C0
100
AcDbEntity
  8
0
 62
     0
100
AcDbLine
 10
-372.2999999999938
 20
-233.8880801265978
 30
0.0
 11
372.3000000000066
 21
-730.2868125570537
 31
0.0
  0
LINE
  5
2DE6
330
31C0
100
AcDbEntity
  8
0
 62
     0
100
AcDbLine
 10
-372.2999999999956
 20
-230.8881135911824
 30
0.0
 11
372.3000000000066
 21
-727.2868460216405
 31
0.0
  0
LINE
  5
2DE7
330
31C0
100
AcDbEntity
  8
0
 62
     0
100
AcDbLine
 10
-372.2999999999956
 20
-227.8881470557644
 30
0.0
 11
372.3000000000066
 21
-724.2868794862222
 31
0.0
  0
LINE
  5
2DE8
330
31C0
100
AcDbEntity
  8
0
 62
     0
100
AcDbLine
 10
-372.2999999999938
 20
-224.88818052035
 30
0.0
 11
372.3000000000084
 21
-721.2869129508078
 31
0.0
  0
LINE
  5
2DE9
330
31C0
100
AcDbEntity
  8
0
 62
     0
100
AcDbLine
 10
-372.2999999999956
 20
-221.888213984932
 30
0.0
 11
372.3000000000066
 21
-718.2869464153902
 31
0.0
  0
LINE
  5
2DEA
330
31C0
100
AcDbEntity
  8
0
 62
     0
100
AcDbLine
 10
-372.2999999999938
 20
-218.8882474495185
 30
0.0
 11
372.3000000000066
 21
-715.2869798799748
 31
0.0
  0
LINE
  5
2DEB
330
31C0
100
AcDbEntity
  8
0
 62
     0
100
AcDbLine
 10
-372.2999999999956
 20
-215.8882809141005
 30
0.0
 11
372.3000000000066
 21
-712.2870133445585
 31
0.0
  0
LINE
  5
2DEC
330
31C0
100
AcDbEntity
  8
0
 62
     0
100
AcDbLine
 10
-372.2999999999938
 20
-212.8883143786861
 30
0.0
 11
372.3000000000066
 21
-709.2870468091432
 31
0.0
  0
LINE
  5
2DED
330
31C0
100
AcDbEntity
  8
0
 62
     0
100
AcDbLine
 10
-372.2999999999938
 20
-209.8883478432681
 30
0.0
 11
372.3000000000084
 21
-706.2870802737263
 31
0.0
  0
LINE
  5
2DEE
330
31C0
100
AcDbEntity
  8
0
 62
     0
100
AcDbLine
 10
-372.2999999999956
 20
-206.8883813078528
 30
0.0
 11
372.3000000000066
 21
-703.2871137383108
 31
0.0
  0
LINE
  5
2DEF
330
31C0
100
AcDbEntity
  8
0
 62
     0
100
AcDbLine
 10
-372.2999999999938
 20
-203.8884147724365
 30
0.0
 11
372.3000000000084
 21
-700.2871472028937
 31
0.0
  0
LINE
  5
2DF0
330
31C0
100
AcDbEntity
  8
0
 62
     0
100
AcDbLine
 10
-372.2999999999956
 20
-200.8884482370195
 30
0.0
 11
372.3000000000047
 21
-697.2871806674766
 31
0.0
  0
LINE
  5
2DF1
330
31C0
100
AcDbEntity
  8
0
 62
     0
100
AcDbLine
 10
-372.2999999999938
 20
-197.8884817016042
 30
0.0
 11
372.3000000000066
 21
-694.2872141320613
 31
0.0
  0
LINE
  5
2DF2
330
31C0
100
AcDbEntity
  8
0
 62
     0
100
AcDbLine
 10
-372.2999999999938
 20
-194.8885151661861
 30
0.0
 11
372.3000000000066
 21
-691.2872475966439
 31
0.0
  0
LINE
  5
2DF3
330
31C0
100
AcDbEntity
  8
0
 62
     0
100
AcDbLine
 10
-369.2516316228666
 20
-193.9207890261341
 30
0.0
 11
372.3000000000066
 21
-688.2872810612289
 31
0.0
  0
LINE
  5
2DF4
330
31C0
100
AcDbEntity
  8
0
 62
     0
100
AcDbLine
 10
-364.7516703289821
 20
-193.9207890261323
 30
0.0
 11
372.3000000000066
 21
-685.2873145258118
 31
0.0
  0
LINE
  5
2DF5
330
31C0
100
AcDbEntity
  8
0
 62
     0
100
AcDbLine
 10
-360.2517090350975
 20
-193.9207890261341
 30
0.0
 11
372.3000000000047
 21
-682.2873479903956
 31
0.0
  0
LINE
  5
2DF6
330
31C0
100
AcDbEntity
  8
0
 62
     0
100
AcDbLine
 10
-355.7517477412111
 20
-193.9207890261332
 30
0.0
 11
372.3000000000066
 21
-679.28738145498
 31
0.0
  0
LINE
  5
2DF7
330
31C0
100
AcDbEntity
  8
0
 62
     0
100
AcDbLine
 10
-351.2517864473283
 20
-193.9207890261332
 30
0.0
 11
372.3000000000066
 21
-676.2874149195647
 31
0.0
  0
LINE
  5
2DF8
330
31C0
100
AcDbEntity
  8
0
 62
     0
100
AcDbLine
 10
-346.751825153442
 20
-193.9207890261323
 30
0.0
 11
372.3000000000066
 21
-673.2874483841477
 31
0.0
  0
LINE
  5
2DF9
330
31C0
100
AcDbEntity
  8
0
 62
     0
100
AcDbLine
 10
-342.2518638595537
 20
-193.9207890261341
 30
0.0
 11
372.3000000000084
 21
-670.2874818487325
 31
0.0
  0
LINE
  5
2DFA
330
31C0
100
AcDbEntity
  8
0
 62
     0
100
AcDbLine
 10
-337.7519025656694
 20
-193.9207890261341
 30
0.0
 11
372.3000000000066
 21
-667.2875153133162
 31
0.0
  0
LINE
  5
2DFB
330
31C0
100
AcDbEntity
  8
0
 62
     0
100
AcDbLine
 10
-333.2519412717847
 20
-193.9207890261332
 30
0.0
 11
372.3000000000066
 21
-664.2875487779001
 31
0.0
  0
LINE
  5
2DFC
330
31C0
100
AcDbEntity
  8
0
 62
     0
100
AcDbLine
 10
-328.7519799779002
 20
-193.9207890261332
 30
0.0
 11
372.3000000000066
 21
-661.287582242483
 31
0.0
  0
LINE
  5
2DFD
330
31C0
100
AcDbEntity
  8
0
 62
     0
100
AcDbLine
 10
-324.252018684012
 20
-193.9207890261341
 30
0.0
 11
372.3000000000066
 21
-658.2876157070676
 31
0.0
  0
LINE
  5
2DFE
330
31C0
100
AcDbEntity
  8
0
 62
     0
100
AcDbLine
 10
-319.7520573901256
 20
-193.9207890261341
 30
0.0
 11
372.3000000000084
 21
-655.2876491716505
 31
0.0
  0
LINE
  5
2DFF
330
31C0
100
AcDbEntity
  8
0
 62
     0
100
AcDbLine
 10
-315.2520960962429
 20
-193.9207890261323
 30
0.0
 11
372.3000000000066
 21
-652.2876826362335
 31
0.0
  0
LINE
  5
2E00
330
31C0
100
AcDbEntity
  8
0
 62
     0
100
AcDbLine
 10
-310.7521348023565
 20
-193.9207890261332
 30
0.0
 11
372.3000000000084
 21
-649.2877161008191
 31
0.0
  0
LINE
  5
2E01
330
31C0
100
AcDbEntity
  8
0
 62
     0
100
AcDbLine
 10
-306.2521735084701
 20
-193.9207890261332
 30
0.0
 11
372.3000000000066
 21
-646.2877495654018
 31
0.0
  0
LINE
  5
2E02
330
31C0
100
AcDbEntity
  8
0
 62
     0
100
AcDbLine
 10
-301.7522122145837
 20
-193.920789026135
 30
0.0
 11
372.3000000000066
 21
-643.2877830299856
 31
0.0
  0
LINE
  5
2E03
330
31C0
100
AcDbEntity
  8
0
 62
     0
100
AcDbLine
 10
-297.252250920701
 20
-193.9207890261323
 30
0.0
 11
372.3000000000066
 21
-640.2878164945696
 31
0.0
  0
LINE
  5
2E04
330
31C0
100
AcDbEntity
  8
0
 62
     0
100
AcDbLine
 10
-292.7522896268147
 20
-193.9207890261341
 30
0.0
 11
372.3000000000066
 21
-637.2878499591534
 31
0.0
  0
LINE
  5
2E05
330
31C0
100
AcDbEntity
  8
0
 62
     0
100
AcDbLine
 10
-288.2523283329265
 20
-193.9207890261332
 30
0.0
 11
372.3000000000084
 21
-634.2878834237381
 31
0.0
  0
LINE
  5
2E06
330
31C0
100
AcDbEntity
  8
0
 62
     0
100
AcDbLine
 10
-283.7523670390456
 20
-193.9207890261332
 30
0.0
 11
372.3000000000066
 21
-631.2879168883219
 31
0.0
  0
LINE
  5
2E07
330
31C0
100
AcDbEntity
  8
0
 62
     0
100
AcDbLine
 10
-279.2524057451574
 20
-193.9207890261323
 30
0.0
 11
372.3000000000066
 21
-628.2879503529048
 31
0.0
  0
LINE
  5
2E08
330
31C0
100
AcDbEntity
  8
0
 62
     0
100
AcDbLine
 10
-274.7524444512746
 20
-193.9207890261323
 30
0.0
 11
372.3000000000066
 21
-625.2879838174894
 31
0.0
  0
LINE
  5
2E09
330
31C0
100
AcDbEntity
  8
0
 62
     0
100
AcDbLine
 10
-270.2524831573846
 20
-193.9207890261341
 30
0.0
 11
372.3000000000066
 21
-622.2880172820723
 31
0.0
  0
LINE
  5
2E0A
330
31C0
100
AcDbEntity
  8
0
 62
     0
100
AcDbLine
 10
-265.7525218635019
 20
-193.9207890261332
 30
0.0
 11
372.3000000000084
 21
-619.2880507466577
 31
0.0
  0
LINE
  5
2E0B
330
31C0
100
AcDbEntity
  8
0
 62
     0
100
AcDbLine
 10
-261.2525605696156
 20
-193.9207890261332
 30
0.0
 11
372.3000000000066
 21
-616.2880842112407
 31
0.0
  0
LINE
  5
2E0C
330
31C0
100
AcDbEntity
  8
0
 62
     0
100
AcDbLine
 10
-256.7525992757292
 20
-193.9207890261323
 30
0.0
 11
372.3000000000084
 21
-613.2881176758236
 31
0.0
  0
LINE
  5
2E0D
330
31C0
100
AcDbEntity
  8
0
 62
     0
100
AcDbLine
 10
-252.2526379818428
 20
-193.9207890261341
 30
0.0
 11
372.3000000000066
 21
-610.2881511404075
 31
0.0
  0
LINE
  5
2E0E
330
31C0
100
AcDbEntity
  8
0
 62
     0
100
AcDbLine
 10
-247.75267668796
 20
-193.9207890261323
 30
0.0
 11
372.3000000000084
 21
-607.2881846049912
 31
0.0
  0
LINE
  5
2E0F
330
31C0
100
AcDbEntity
  8
0
 62
     0
100
AcDbLine
 10
-243.2527153940737
 20
-193.9207890261332
 30
0.0
 11
372.3000000000066
 21
-604.2882180695751
 31
0.0
  0
LINE
  5
2E10
330
31C0
100
AcDbEntity
  8
0
 62
     0
100
AcDbLine
 10
-238.7527541001873
 20
-193.9207890261332
 30
0.0
 11
372.3000000000084
 21
-601.2882515341598
 31
0.0
  0
LINE
  5
2E11
330
31C0
100
AcDbEntity
  8
0
 62
     0
100
AcDbLine
 10
-234.2527928063027
 20
-193.9207890261323
 30
0.0
 11
372.3000000000084
 21
-598.2882849987436
 31
0.0
  0
LINE
  5
2E12
330
31C0
100
AcDbEntity
  8
0
 62
     0
100
AcDbLine
 10
-229.7528315124182
 20
-193.9207890261323
 30
0.0
 11
372.3000000000084
 21
-595.2883184633273
 31
0.0
  0
LINE
  5
2E13
330
31C0
100
AcDbEntity
  8
0
 62
     0
100
AcDbLine
 10
-225.25287021853
 20
-193.9207890261341
 30
0.0
 11
372.3000000000084
 21
-592.288351927911
 31
0.0
  0
LINE
  5
2E14
330
31C0
100
AcDbEntity
  8
0
 62
     0
100
AcDbLine
 10
-220.7529089246456
 20
-193.9207890261332
 30
0.0
 11
372.3000000000066
 21
-589.2883853924939
 31
0.0
  0
LINE
  5
2E15
330
31C0
100
AcDbEntity
  8
0
 62
     0
100
AcDbLine
 10
-216.2529476307609
 20
-193.9207890261332
 30
0.0
 11
372.3000000000084
 21
-586.2884188570794
 31
0.0
  0
LINE
  5
2E16
330
31C0
100
AcDbEntity
  8
0
 62
     0
100
AcDbLine
 10
-211.7529863368745
 20
-193.9207890261323
 30
0.0
 11
372.3000000000084
 21
-583.2884523216623
 31
0.0
  0
LINE
  5
2E17
330
31C0
100
AcDbEntity
  8
0
 62
     0
100
AcDbLine
 10
-207.2530250429882
 20
-193.9207890261341
 30
0.0
 11
372.3000000000084
 21
-580.2884857862473
 31
0.0
  0
LINE
  5
2E18
330
31C0
100
AcDbEntity
  8
0
 62
     0
100
AcDbLine
 10
-202.7530637491018
 20
-193.9207890261341
 30
0.0
 11
372.3000000000066
 21
-577.2885192508292
 31
0.0
  0
LINE
  5
2E19
330
31C0
100
AcDbEntity
  8
0
 62
     0
100
AcDbLine
 10
-198.2531024552189
 20
-193.9207890261313
 30
0.0
 11
372.3000000000066
 21
-574.2885527154121
 31
0.0
  0
LINE
  5
2E1A
330
31C0
100
AcDbEntity
  8
0
 62
     0
100
AcDbLine
 10
-193.7531411613327
 20
-193.9207890261332
 30
0.0
 11
372.3000000000066
 21
-571.2885861799978
 31
0.0
  0
LINE
  5
2E1B
330
31C0
100
AcDbEntity
  8
0
 62
     0
100
AcDbLine
 10
-189.2531798674444
 20
-193.9207890261332
 30
0.0
 11
372.3000000000084
 21
-568.2886196445807
 31
0.0
  0
LINE
  5
2E1C
330
31C0
100
AcDbEntity
  8
0
 62
     0
100
AcDbLine
 10
-184.7532185735599
 20
-193.9207890261341
 30
0.0
 11
372.3000000000066
 21
-565.2886531091653
 31
0.0
  0
LINE
  5
2E1D
330
31C0
100
AcDbEntity
  8
0
 62
     0
100
AcDbLine
 10
-180.2532572796754
 20
-193.9207890261323
 30
0.0
 11
372.3000000000102
 21
-562.2886865737491
 31
0.0
  0
LINE
  5
2E1E
330
31C0
100
AcDbEntity
  8
0
 62
     0
100
AcDbLine
 10
-175.7532959857908
 20
-193.9207890261332
 30
0.0
 11
372.3000000000066
 21
-559.2887200383329
 31
0.0
  0
LINE
  5
2E1F
330
31C0
100
AcDbEntity
  8
0
 62
     0
100
AcDbLine
 10
-171.2533346919026
 20
-193.9207890261332
 30
0.0
 11
372.3000000000084
 21
-556.2887535029167
 31
0.0
  0
LINE
  5
2E20
330
31C0
100
AcDbEntity
  8
0
 62
     0
100
AcDbLine
 10
-166.7533733980216
 20
-193.9207890261323
 30
0.0
 11
372.3000000000066
 21
-553.2887869675014
 31
0.0
  0
LINE
  5
2E21
330
31C0
100
AcDbEntity
  8
0
 62
     0
100
AcDbLine
 10
-162.2534121041335
 20
-193.9207890261323
 30
0.0
 11
372.3000000000084
 21
-550.2888204320843
 31
0.0
  0
LINE
  5
2E22
330
31C0
100
AcDbEntity
  8
0
 62
     0
100
AcDbLine
 10
-157.7534508102508
 20
-193.9207890261323
 30
0.0
 11
372.300000000012
 21
-547.2888538966708
 31
0.0
  0
LINE
  5
2E23
330
31C0
100
AcDbEntity
  8
0
 62
     0
100
AcDbLine
 10
-153.2534895163608
 20
-193.9207890261332
 30
0.0
 11
372.3000000000102
 21
-544.2888873612528
 31
0.0
  0
LINE
  5
2E24
330
31C0
100
AcDbEntity
  8
0
 62
     0
100
AcDbLine
 10
-148.753528222478
 20
-193.9207890261332
 30
0.0
 11
372.3000000000102
 21
-541.2889208258384
 31
0.0
  0
LINE
  5
2E25
330
31C0
100
AcDbEntity
  8
0
 62
     0
100
AcDbLine
 10
-144.2535669285916
 20
-193.9207890261332
 30
0.0
 11
372.3000000000102
 21
-538.288954290421
 31
0.0
  0
LINE
  5
2E26
330
31C0
100
AcDbEntity
  8
0
 62
     0
100
AcDbLine
 10
-139.7536056347053
 20
-193.9207890261323
 30
0.0
 11
372.3000000000102
 21
-535.2889877550039
 31
0.0
  0
LINE
  5
2E27
330
31C0
100
AcDbEntity
  8
0
 62
     0
100
AcDbLine
 10
-135.2536443408189
 20
-193.9207890261341
 30
0.0
 11
372.300000000012
 21
-532.2890212195889
 31
0.0
  0
LINE
  5
2E28
330
31C0
100
AcDbEntity
  8
0
 62
     0
100
AcDbLine
 10
156.5000000000073
 20
-385.4227553845568
 30
0.0
 11
159.9470592645174
 21
-387.7207890261297
 31
0.0
  0
LINE
  5
2E29
330
31C0
100
AcDbEntity
  8
0
 62
     0
100
AcDbLine
 10
159.9470592645193
 20
-387.7207890261308
 30
0.0
 11
372.3000000000102
 21
-529.2890546841727
 31
0.0
  0
LINE
  5
2E2A
330
31C0
100
AcDbEntity
  8
0
 62
     0
100
AcDbLine
 10
-130.7536830469362
 20
-193.9207890261313
 30
0.0
 11
156.5000000000073
 21
-385.4227553845557
 31
0.0
  0
LINE
  5
2E2B
330
31C0
100
AcDbEntity
  8
0
 62
     0
100
AcDbLine
 10
156.5000000000091
 20
-382.4227888491414
 30
0.0
 11
164.4470205584057
 21
-387.7207890261308
 31
0.0
  0
LINE
  5
2E2C
330
31C0
100
AcDbEntity
  8
0
 62
     0
100
AcDbLine
 10
164.4470205584057
 20
-387.7207890261308
 30
0.0
 11
372.300000000012
 21
-526.2890881487574
 31
0.0
  0
LINE
  5
2E2D
330
31C0
100
AcDbEntity
  8
0
 62
     0
100
AcDbLine
 10
-126.253721753048
 20
-193.9207890261332
 30
0.0
 11
156.5000000000091
 21
-382.4227888491414
 31
0.0
  0
LINE
  5
2E2E
330
31C0
100
AcDbEntity
  8
0
 62
     0
100
AcDbLine
 10
156.5000000000073
 20
-379.4228223137234
 30
0.0
 11
168.9469818522866
 21
-387.7207890261288
 31
0.0
  0
LINE
  5
2E2F
330
31C0
100
AcDbEntity
  8
0
 62
     0
100
AcDbLine
 10
168.9469818522884
 20
-387.7207890261297
 30
0.0
 11
372.3000000000084
 21
-523.2891216133394
 31
0.0
  0
LINE
  5
2E30
330
31C0
100
AcDbEntity
  8
0
 62
     0
100
AcDbLine
 10
-121.7537604591634
 20
-193.9207890261332
 30
0.0
 11
156.5000000000073
 21
-379.4228223137234
 31
0.0
  0
LINE
  5
2E31
330
31C0
100
AcDbEntity
  8
0
 62
     0
100
AcDbLine
 10
156.5000000000091
 20
-376.4228557783089
 30
0.0
 11
173.4469431461748
 21
-387.7207890261308
 31
0.0
  0
LINE
  5
2E32
330
31C0
100
AcDbEntity
  8
0
 62
     0
100
AcDbLine
 10
173.4469431461748
 20
-387.7207890261308
 30
0.0
 11
372.300000000012
 21
-520.2891550779249
 31
0.0
  0
LINE
  5
2E33
330
31C0
100
AcDbEntity
  8
0
 62
     0
100
AcDbLine
 10
-117.2537991652771
 20
-193.9207890261341
 30
0.0
 11
156.5000000000091
 21
-376.4228557783089
 31
0.0
  0
LINE
  5
2E34
330
31C0
100
AcDbEntity
  8
0
 62
     0
100
AcDbLine
 10
156.5000000000073
 20
-373.4228892428919
 30
0.0
 11
177.9469044400594
 21
-387.7207890261297
 31
0.0
  0
LINE
  5
2E35
330
31C0
100
AcDbEntity
  8
0
 62
     0
100
AcDbLine
 10
177.9469044400611
 20
-387.7207890261308
 30
0.0
 11
372.3000000000102
 21
-517.289188542507
 31
0.0
  0
LINE
  5
2E36
330
31C0
100
AcDbEntity
  8
0
 62
     0
100
AcDbLine
 10
-112.7538378713943
 20
-193.9207890261323
 30
0.0
 11
156.5000000000073
 21
-373.4228892428919
 31
0.0
  0
LINE
  5
2E37
330
31C0
100
AcDbEntity
  8
0
 62
     0
100
AcDbLine
 10
156.5000000000091
 20
-370.4229227074775
 30
0.0
 11
182.4468657339475
 21
-387.7207890261315
 31
0.0
  0
LINE
  5
2E38
330
31C0
100
AcDbEntity
  8
0
 62
     0
100
AcDbLine
 10
182.4468657339475
 20
-387.7207890261315
 30
0.0
 11
372.300000000012
 21
-514.2892220070932
 31
0.0
  0
LINE
  5
2E39
330
31C0
100
AcDbEntity
  8
0
 62
     0
100
AcDbLine
 10
-108.2538765775061
 20
-193.9207890261332
 30
0.0
 11
156.5000000000073
 21
-370.4229227074766
 31
0.0
  0
LINE
  5
2E3A
330
31C0
100
AcDbEntity
  8
0
 62
     0
100
AcDbLine
 10
156.5000000000091
 20
-367.4229561720594
 30
0.0
 11
186.9468270278303
 21
-387.7207890261288
 31
0.0
  0
LINE
  5
2E3B
330
31C0
100
AcDbEntity
  8
0
 62
     0
100
AcDbLine
 10
186.9468270278321
 20
-387.7207890261297
 30
0.0
 11
372.300000000012
 21
-511.2892554716752
 31
0.0
  0
LINE
  5
2E3C
330
31C0
100
AcDbEntity
  8
0
 62
     0
100
AcDbLine
 10
-103.7539152836198
 20
-193.9207890261332
 30
0.0
 11
156.5000000000091
 21
-367.4229561720594
 31
0.0
  0
LINE
  5
2E3D
330
31C0
100
AcDbEntity
  8
0
 62
     0
100
AcDbLine
 10
156.5000000000091
 20
-364.4229896366451
 30
0.0
 11
191.4467883217166
 21
-387.7207890261308
 31
0.0
  0
LINE
  5
2E3E
330
31C0
100
AcDbEntity
  8
0
 62
     0
100
AcDbLine
 10
191.4467883217166
 20
-387.7207890261308
 30
0.0
 11
372.300000000012
 21
-508.2892889362609
 31
0.0
  0
LINE
  5
2E3F
330
31C0
100
AcDbEntity
  8
0
 62
     0
100
AcDbLine
 10
-99.25395398973705
 20
-193.9207890261323
 30
0.0
 11
156.5000000000073
 21
-364.4229896366442
 31
0.0
  0
LINE
  5
2E40
330
31C0
100
AcDbEntity
  8
0
 62
     0
100
AcDbLine
 10
156.5000000000091
 20
-361.4230231012271
 30
0.0
 11
195.946749615603
 21
-387.7207890261308
 31
0.0
  0
LINE
  5
2E41
330
31C0
100
AcDbEntity
  8
0
 62
     0
100
AcDbLine
 10
195.9467496156048
 20
-387.7207890261315
 30
0.0
 11
372.300000000012
 21
-505.2893224008428
 31
0.0
  0
LINE
  5
2E42
330
31C0
100
AcDbEntity
  8
0
 62
     0
100
AcDbLine
 10
-94.7539926958507
 20
-193.9207890261323
 30
0.0
 11
156.5000000000091
 21
-361.4230231012271
 31
0.0
  0
LINE
  5
2E43
330
31C0
100
AcDbEntity
  8
0
 62
     0
100
AcDbLine
 10
156.5000000000073
 20
-358.4230565658128
 30
0.0
 11
200.4467109094876
 21
-387.7207890261315
 31
0.0
  0
LINE
  5
2E44
330
31C0
100
AcDbEntity
  8
0
 62
     0
100
AcDbLine
 10
200.4467109094876
 20
-387.7207890261315
 30
0.0
 11
372.3000000000102
 21
-502.2893558654277
 31
0.0
  0
LINE
  5
2E45
330
31C0
100
AcDbEntity
  8
0
 62
     0
100
AcDbLine
 10
-90.25403140196432
 20
-193.9207890261341
 30
0.0
 11
156.5000000000054
 21
-358.4230565658109
 31
0.0
  0
LINE
  5
2E46
330
31C0
100
AcDbEntity
  8
0
 62
     0
100
AcDbLine
 10
156.5000000000091
 20
-355.4230900303955
 30
0.0
 11
204.9466722033721
 21
-387.7207890261297
 31
0.0
  0
LINE
  5
2E47
330
31C0
100
AcDbEntity
  8
0
 62
     0
100
AcDbLine
 10
204.946672203374
 20
-387.7207890261308
 30
0.0
 11
372.300000000012
 21
-499.2893893300105
 31
0.0
  0
LINE
  5
2E48
330
31C0
100
AcDbEntity
  8
0
 62
     0
100
AcDbLine
 10
-85.75407010807792
 20
-193.9207890261332
 30
0.0
 11
156.5000000000091
 21
-355.4230900303955
 31
0.0
  0
LINE
  5
2E49
330
31C0
100
AcDbEntity
  8
0
 62
     0
100
AcDbLine
 10
156.5000000000091
 20
-352.4231234949784
 30
0.0
 11
209.4466334972604
 21
-387.7207890261288
 31
0.0
  0
LINE
  5
2E4A
330
31C0
100
AcDbEntity
  8
0
 62
     0
100
AcDbLine
 10
209.4466334972604
 20
-387.7207890261308
 30
0.0
 11
372.300000000012
 21
-496.2894227945944
 31
0.0
  0
LINE
  5
2E4B
330
31C0
100
AcDbEntity
  8
0
 62
     0
100
AcDbLine
 10
-81.25410881419337
 20
-193.9207890261313
 30
0.0
 11
156.5000000000073
 21
-352.4231234949775
 31
0.0
  0
LINE
  5
2E4C
330
31C0
100
AcDbEntity
  8
0
 62
     0
100
AcDbLine
 10
156.5000000000091
 20
-349.4231569595631
 30
0.0
 11
213.9465947911449
 21
-387.7207890261308
 31
0.0
  0
LINE
  5
2E4D
330
31C0
100
AcDbEntity
  8
0
 62
     0
100
AcDbLine
 10
213.9465947911467
 20
-387.7207890261315
 30
0.0
 11
372.300000000012
 21
-493.2894562591791
 31
0.0
  0
LINE
  5
2E4E
330
31C0
100
AcDbEntity
  8
0
 62
     0
100
AcDbLine
 10
-76.75414752030883
 20
-193.9207890261332
 30
0.0
 11
156.5000000000073
 21
-349.4231569595622
 31
0.0
  0
LINE
  5
2E4F
330
31C0
100
AcDbEntity
  8
0
 62
     0
100
AcDbLine
 10
156.5000000000073
 20
-346.4231904241451
 30
0.0
 11
218.4465560850313
 21
-387.7207890261308
 31
0.0
  0
LINE
  5
2E50
330
31C0
100
AcDbEntity
  8
0
 62
     0
100
AcDbLine
 10
218.4465560850313
 20
-387.7207890261308
 30
0.0
 11
372.3000000000102
 21
-490.2894897237612
 31
0.0
  0
LINE
  5
2E51
330
31C0
100
AcDbEntity
  8
0
 62
     0
100
AcDbLine
 10
-72.25418622642243
 20
-193.9207890261323
 30
0.0
 11
156.5000000000073
 21
-346.4231904241451
 31
0.0
  0
LINE
  5
2E52
330
31C0
100
AcDbEntity
  8
0
 62
     0
100
AcDbLine
 10
156.5000000000091
 20
-343.4232238887316
 30
0.0
 11
222.946517378914
 21
-387.7207890261297
 31
0.0
  0
LINE
  5
2E53
330
31C0
100
AcDbEntity
  8
0
 62
     0
100
AcDbLine
 10
222.9465173789157
 20
-387.7207890261308
 30
0.0
 11
372.300000000012
 21
-487.2895231883467
 31
0.0
  0
LINE
  5
2E54
330
31C0
100
AcDbEntity
  8
0
 62
     0
100
AcDbLine
 10
-67.75422493253609
 20
-193.9207890261341
 30
0.0
 11
156.5000000000073
 21
-343.4232238887298
 31
0.0
  0
LINE
  5
2E55
330
31C0
100
AcDbEntity
  8
0
 62
     0
100
AcDbLine
 10
156.5000000000073
 20
-340.4232573533136
 30
0.0
 11
227.4464786728021
 21
-387.7207890261297
 31
0.0
  0
LINE
  5
2E56
330
31C0
100
AcDbEntity
  8
0
 62
     0
100
AcDbLine
 10
227.4464786728021
 20
-387.7207890261308
 30
0.0
 11
372.3000000000102
 21
-484.2895566529285
 31
0.0
  0
LINE
  5
2E57
330
31C0
100
AcDbEntity
  8
0
 62
     0
100
AcDbLine
 10
-63.25426363865155
 20
-193.9207890261313
 30
0.0
 11
156.5000000000073
 21
-340.4232573533136
 31
0.0
  0
LINE
  5
2E58
330
31C0
100
AcDbEntity
  8
0
 62
     0
100
AcDbLine
 10
156.5000000000091
 20
-337.4232908178992
 30
0.0
 11
231.9464399666868
 21
-387.7207890261308
 31
0.0
  0
LINE
  5
2E59
330
31C0
100
AcDbEntity
  8
0
 62
     0
100
AcDbLine
 10
231.9464399666868
 20
-387.7207890261308
 30
0.0
 11
372.300000000012
 21
-481.2895901175151
 31
0.0
  0
LINE
  5
2E5A
330
31C0
100
AcDbEntity
  8
0
 62
     0
100
AcDbLine
 10
-58.75430234476699
 20
-193.9207890261332
 30
0.0
 11
156.5000000000054
 21
-337.4232908178974
 31
0.0
  0
LINE
  5
2E5B
330
31C0
100
AcDbEntity
  8
0
 62
     0
100
AcDbLine
 10
156.5000000000073
 20
-334.4233242824812
 30
0.0
 11
236.4464012605713
 21
-387.7207890261288
 31
0.0
  0
LINE
  5
2E5C
330
31C0
100
AcDbEntity
  8
0
 62
     0
100
AcDbLine
 10
236.4464012605731
 20
-387.7207890261297
 30
0.0
 11
372.3000000000102
 21
-478.2896235820969
 31
0.0
  0
LINE
  5
2E5D
330
31C0
100
AcDbEntity
  8
0
 62
     0
100
AcDbLine
 10
-54.25434105088061
 20
-193.9207890261332
 30
0.0
 11
156.5000000000073
 21
-334.4233242824812
 31
0.0
  0
LINE
  5
2E5E
330
31C0
100
AcDbEntity
  8
0
 62
     0
100
AcDbLine
 10
156.5000000000109
 20
-331.4233577470668
 30
0.0
 11
240.9463625544577
 21
-387.7207890261308
 31
0.0
  0
LINE
  5
2E5F
330
31C0
100
AcDbEntity
  8
0
 62
     0
100
AcDbLine
 10
240.9463625544577
 20
-387.7207890261308
 30
0.0
 11
372.3000000000137
 21
-475.2896570466828
 31
0.0
  0
LINE
  5
2E60
330
31C0
100
AcDbEntity
  8
0
 62
     0
100
AcDbLine
 10
-49.75437975699605
 20
-193.9207890261323
 30
0.0
 11
156.5000000000073
 21
-331.4233577470649
 31
0.0
  0
LINE
  5
2E61
330
31C0
100
AcDbEntity
  8
0
 62
     0
100
AcDbLine
 10
156.5000000000073
 20
-328.4233912116488
 30
0.0
 11
245.4463238483441
 21
-387.7207890261297
 31
0.0
  0
LINE
  5
2E62
330
31C0
100
AcDbEntity
  8
0
 62
     0
100
AcDbLine
 10
245.4463238483441
 20
-387.7207890261308
 30
0.0
 11
372.3000000000102
 21
-472.2896905112647
 31
0.0
  0
LINE
  5
2E63
330
31C0
100
AcDbEntity
  8
0
 62
     0
100
AcDbLine
 10
-45.25441846310968
 20
-193.9207890261323
 30
0.0
 11
156.5000000000073
 21
-328.4233912116488
 31
0.0
  0
LINE
  5
2E64
330
31C0
100
AcDbEntity
  8
0
 62
     0
100
AcDbLine
 10
156.5000000000091
 20
-325.4234246762342
 30
0.0
 11
249.9462851422304
 21
-387.7207890261315
 31
0.0
  0
LINE
  5
2E65
330
31C0
100
AcDbEntity
  8
0
 62
     0
100
AcDbLine
 10
249.9462851422304
 20
-387.7207890261315
 30
0.0
 11
372.300000000012
 21
-469.2897239758495
 31
0.0
  0
LINE
  5
2E66
330
31C0
100
AcDbEntity
  8
0
 62
     0
100
AcDbLine
 10
-40.75445716922695
 20
-193.9207890261313
 30
0.0
 11
156.5000000000073
 21
-325.4234246762335
 31
0.0
  0
LINE
  5
2E67
330
31C0
100
AcDbEntity
  8
0
 62
     0
100
AcDbLine
 10
156.5000000000073
 20
-322.4234581408173
 30
0.0
 11
254.4462464361131
 21
-387.7207890261288
 31
0.0
  0
LINE
  5
2E68
330
31C0
100
AcDbEntity
  8
0
 62
     0
100
AcDbLine
 10
254.4462464361131
 20
-387.7207890261297
 30
0.0
 11
372.3000000000102
 21
-466.2897574404333
 31
0.0
  0
LINE
  5
2E69
330
31C0
100
AcDbEntity
  8
0
 62
     0
100
AcDbLine
 10
-36.25449587533876
 20
-193.9207890261332
 30
0.0
 11
156.5000000000054
 21
-322.4234581408154
 31
0.0
  0
LINE
  5
2E6A
330
31C0
100
AcDbEntity
  8
0
 62
     0
100
AcDbLine
 10
156.5000000000091
 20
-319.423491605402
 30
0.0
 11
258.9462077300031
 21
-387.7207890261325
 31
0.0
  0
LINE
  5
2E6B
330
31C0
100
AcDbEntity
  8
0
 62
     0
100
AcDbLine
 10
258.9462077300031
 20
-387.7207890261325
 30
0.0
 11
372.300000000012
 21
-463.2897909050178
 31
0.0
  0
LINE
  5
2E6C
330
31C0
100
AcDbEntity
  8
0
 62
     0
100
AcDbLine
 10
-31.75453458145421
 20
-193.9207890261332
 30
0.0
 11
156.5000000000073
 21
-319.4234916054012
 31
0.0
  0
LINE
  5
2E6D
330
31C0
100
AcDbEntity
  8
0
 62
     0
100
AcDbLine
 10
156.5000000000091
 20
-316.4235250699849
 30
0.0
 11
263.4461690238859
 21
-387.7207890261308
 31
0.0
  0
LINE
  5
2E6E
330
31C0
100
AcDbEntity
  8
0
 62
     0
100
AcDbLine
 10
263.4461690238877
 20
-387.7207890261315
 30
0.0
 11
372.300000000012
 21
-460.2898243696007
 31
0.0
  0
LINE
  5
2E6F
330
31C0
100
AcDbEntity
  8
0
 62
     0
100
AcDbLine
 10
-27.25457328756602
 20
-193.9207890261323
 30
0.0
 11
156.5000000000091
 21
-316.423525069984
 31
0.0
  0
LINE
  5
2E70
330
31C0
100
AcDbEntity
  8
0
 62
     0
100
AcDbLine
 10
156.5000000000091
 20
-313.4235585345696
 30
0.0
 11
267.9461303177723
 21
-387.7207890261315
 31
0.0
  0
LINE
  5
2E71
330
31C0
100
AcDbEntity
  8
0
 62
     0
100
AcDbLine
 10
267.9461303177723
 20
-387.7207890261315
 30
0.0
 11
372.3000000000102
 21
-457.2898578341846
 31
0.0
  0
LINE
  5
2E72
330
31C0
100
AcDbEntity
  8
0
 62
     0
100
AcDbLine
 10
-22.75461199368146
 20
-193.9207890261341
 30
0.0
 11
156.5000000000073
 21
-313.4235585345686
 31
0.0
  0
LINE
  5
2E73
330
31C0
100
AcDbEntity
  8
0
 62
     0
100
AcDbLine
 10
156.5000000000109
 20
-310.4235919991534
 30
0.0
 11
272.4460916116568
 21
-387.7207890261297
 31
0.0
  0
LINE
  5
2E74
330
31C0
100
AcDbEntity
  8
0
 62
     0
100
AcDbLine
 10
272.4460916116568
 20
-387.7207890261308
 30
0.0
 11
372.300000000012
 21
-454.2898912987674
 31
0.0
  0
LINE
  5
2E75
330
31C0
100
AcDbEntity
  8
0
 62
     0
100
AcDbLine
 10
-18.25465069979508
 20
-193.9207890261341
 30
0.0
 11
156.5000000000073
 21
-310.4235919991506
 31
0.0
  0
LINE
  5
2E76
330
31C0
100
AcDbEntity
  8
0
 62
     0
100
AcDbLine
 10
156.5000000000073
 20
-307.4236254637352
 30
0.0
 11
276.9460529055414
 21
-387.7207890261288
 31
0.0
  0
LINE
  5
2E77
330
31C0
100
AcDbEntity
  8
0
 62
     0
100
AcDbLine
 10
276.9460529055432
 20
-387.7207890261308
 30
0.0
 11
372.3000000000102
 21
-451.2899247633503
 31
0.0
  0
LINE
  5
2E78
330
31C0
100
AcDbEntity
  8
0
 62
     0
100
AcDbLine
 10
-13.75468940591236
 20
-193.9207890261313
 30
0.0
 11
156.5000000000073
 21
-307.4236254637352
 31
0.0
  0
LINE
  5
2E79
330
31C0
100
AcDbEntity
  8
0
 62
     0
100
AcDbLine
 10
156.5000000000091
 20
-304.4236589283201
 30
0.0
 11
281.4460141994278
 21
-387.7207890261308
 31
0.0
  0
LINE
  5
2E7A
330
31C0
100
AcDbEntity
  8
0
 62
     0
100
AcDbLine
 10
281.4460141994278
 20
-387.7207890261308
 30
0.0
 11
372.300000000012
 21
-448.2899582279367
 31
0.0
  0
LINE
  5
2E7B
330
31C0
100
AcDbEntity
  8
0
 62
     0
100
AcDbLine
 10
-9.254728112025986
 20
-193.9207890261332
 30
0.0
 11
156.5000000000073
 21
-304.4236589283192
 31
0.0
  0
LINE
  5
2E7C
330
31C0
100
AcDbEntity
  8
0
 62
     0
100
AcDbLine
 10
156.5000000000073
 20
-301.4236923929029
 30
0.0
 11
285.9459754933105
 21
-387.7207890261288
 31
0.0
  0
LINE
  5
2E7D
330
31C0
100
AcDbEntity
  8
0
 62
     0
100
AcDbLine
 10
285.9459754933123
 20
-387.7207890261297
 30
0.0
 11
372.3000000000102
 21
-445.2899916925188
 31
0.0
  0
LINE
  5
2E7E
330
31C0
100
AcDbEntity
  8
0
 62
     0
100
AcDbLine
 10
-4.754766818139612
 20
-193.9207890261323
 30
0.0
 11
156.5000000000054
 21
-301.423692392902
 31
0.0
  0
LINE
  5
2E7F
330
31C0
100
AcDbEntity
  8
0
 62
     0
100
AcDbLine
 10
156.5000000000091
 20
-298.4237258574876
 30
0.0
 11
290.4459367871988
 21
-387.7207890261297
 31
0.0
  0
LINE
  5
2E80
330
31C0
100
AcDbEntity
  8
0
 62
     0
100
AcDbLine
 10
290.4459367871988
 20
-387.7207890261297
 30
0.0
 11
372.300000000012
 21
-442.2900251571045
 31
0.0
  0
LINE
  5
2E81
330
31C0
100
AcDbEntity
  8
0
 62
     0
100
AcDbLine
 10
-0.2548055242532428
 20
-193.9207890261341
 30
0.0
 11
156.5000000000073
 21
-298.4237258574868
 31
0.0
  0
LINE
  5
2E82
330
31C0
100
AcDbEntity
  8
0
 62
     0
100
AcDbLine
 10
156.5000000000091
 20
-295.4237593220714
 30
0.0
 11
294.9458980810849
 21
-387.7207890261297
 31
0.0
  0
LINE
  5
2E83
330
31C0
100
AcDbEntity
  8
0
 62
     0
100
AcDbLine
 10
294.9458980810868
 20
-387.7207890261308
 30
0.0
 11
372.300000000012
 21
-439.2900586216864
 31
0.0
  0
LINE
  5
2E84
330
31C0
100
AcDbEntity
  8
0
 62
     0
100
AcDbLine
 10
4.24515576963131
 20
-193.9207890261313
 30
0.0
 11
156.5000000000073
 21
-295.4237593220696
 31
0.0
  0
LINE
  5
2E85
330
31C0
100
AcDbEntity
  8
0
 62
     0
100
AcDbLine
 10
156.5000000000073
 20
-292.4237927866552
 30
0.0
 11
299.4458593749696
 21
-387.7207890261315
 31
0.0
  0
LINE
  5
2E86
330
31C0
100
AcDbEntity
  8
0
 62
     0
100
AcDbLine
 10
299.4458593749696
 20
-387.7207890261315
 30
0.0
 11
372.300000000012
 21
-436.2900920862712
 31
0.0
  0
LINE
  5
2E87
330
31C0
100
AcDbEntity
  8
0
 62
     0
100
AcDbLine
 10
8.745117063515863
 20
-193.9207890261332
 30
0.0
 11
156.5000000000073
 21
-292.4237927866552
 31
0.0
  0
LINE
  5
2E88
330
31C0
100
AcDbEntity
  8
0
 62
     0
100
AcDbLine
 10
156.5000000000091
 20
-289.423826251239
 30
0.0
 11
303.9458206688542
 21
-387.7207890261288
 31
0.0
  0
LINE
  5
2E89
330
31C0
100
AcDbEntity
  8
0
 62
     0
100
AcDbLine
 10
303.945820668856
 20
-387.7207890261297
 30
0.0
 11
372.300000000012
 21
-433.2901255508549
 31
0.0
  0
LINE
  5
2E8A
330
31C0
100
AcDbEntity
  8
0
 62
     0
100
AcDbLine
 10
13.24507835740405
 20
-193.9207890261332
 30
0.0
 11
156.5000000000073
 21
-289.4238262512382
 31
0.0
  0
LINE
  5
2E8B
330
31C0
100
AcDbEntity
  8
0
 62
     0
100
AcDbLine
 10
156.5000000000109
 20
-286.4238597158246
 30
0.0
 11
308.4457819627405
 21
-387.7207890261308
 31
0.0
  0
LINE
  5
2E8C
330
31C0
100
AcDbEntity
  8
0
 62
     0
100
AcDbLine
 10
308.4457819627422
 20
-387.7207890261325
 30
0.0
 11
372.300000000012
 21
-430.2901590154395
 31
0.0
  0
LINE
  5
2E8D
330
31C0
100
AcDbEntity
  8
0
 62
     0
100
AcDbLine
 10
17.74503965128679
 20
-193.9207890261323
 30
0.0
 11
156.5000000000036
 21
-286.4238597158209
 31
0.0
  0
LINE
  5
2E8E
330
31C0
100
AcDbEntity
  8
0
 62
     0
100
AcDbLine
 10
156.5000000000126
 20
-283.4238931804094
 30
0.0
 11
312.9457432566269
 21
-387.7207890261297
 31
0.0
  0
LINE
  5
2E8F
330
31C0
100
AcDbEntity
  8
0
 62
     0
100
AcDbLine
 10
312.9457432566287
 20
-387.7207890261308
 30
0.0
 11
372.300000000012
 21
-427.2901924800224
 31
0.0
  0
LINE
  5
2E90
330
31C0
100
AcDbEntity
  8
0
 62
     0
100
AcDbLine
 10
22.24500094517316
 20
-193.9207890261323
 30
0.0
 11
156.5000000000073
 21
-283.4238931804048
 31
0.0
  0
LINE
  5
2E91
330
31C0
100
AcDbEntity
  8
0
 62
     0
100
AcDbLine
 10
156.5000000000126
 20
-280.423926644994
 30
0.0
 11
317.4457045505132
 21
-387.7207890261315
 31
0.0
  0
LINE
  5
2E92
330
31C0
100
AcDbEntity
  8
0
 62
     0
100
AcDbLine
 10
317.4457045505132
 20
-387.7207890261315
 30
0.0
 11
372.300000000012
 21
-424.2902259446063
 31
0.0
  0
LINE
  5
2E93
330
31C0
100
AcDbEntity
  8
0
 62
     0
100
AcDbLine
 10
26.74496223905772
 20
-193.9207890261313
 30
0.0
 11
156.5000000000054
 21
-280.4239266449886
 31
0.0
  0
LINE
  5
2E94
330
31C0
100
AcDbEntity
  8
0
 62
     0
100
AcDbLine
 10
156.5000000000126
 20
-277.4239601095768
 30
0.0
 11
321.945665844396
 21
-387.7207890261288
 31
0.0
  0
LINE
  5
2E95
330
31C0
100
AcDbEntity
  8
0
 62
     0
100
AcDbLine
 10
321.9456658443978
 20
-387.7207890261308
 30
0.0
 11
372.300000000012
 21
-421.2902594091899
 31
0.0
  0
LINE
  5
2E96
330
31C0
100
AcDbEntity
  8
0
 62
     0
100
AcDbLine
 10
31.2449235329459
 20
-193.9207890261332
 30
0.0
 11
156.5000000000073
 21
-277.4239601095733
 31
0.0
  0
LINE
  5
2E97
330
31C0
100
AcDbEntity
  8
0
 62
     0
100
AcDbLine
 10
156.5000000000126
 20
-274.4239935741607
 30
0.0
 11
326.445627138286
 21
-387.7207890261325
 31
0.0
  0
LINE
  5
2E98
330
31C0
100
AcDbEntity
  8
0
 62
     0
100
AcDbLine
 10
326.445627138286
 20
-387.7207890261325
 30
0.0
 11
372.300000000012
 21
-418.2902928737749
 31
0.0
  0
LINE
  5
2E99
330
31C0
100
AcDbEntity
  8
0
 62
     0
100
AcDbLine
 10
35.74488482683046
 20
-193.9207890261332
 30
0.0
 11
156.5000000000054
 21
-274.4239935741571
 31
0.0
  0
LINE
  5
2E9A
330
31C0
100
AcDbEntity
  8
0
 62
     0
100
AcDbLine
 10
156.5000000000109
 20
-271.4240270387436
 30
0.0
 11
330.9455884321687
 21
-387.7207890261308
 31
0.0
  0
LINE
  5
2E9B
330
31C0
100
AcDbEntity
  8
0
 62
     0
100
AcDbLine
 10
330.9455884321705
 20
-387.7207890261315
 30
0.0
 11
372.3000000000102
 21
-415.2903263383577
 31
0.0
  0
LINE
  5
2E9C
330
31C0
100
AcDbEntity
  8
0
 62
     0
100
AcDbLine
 10
40.24484612071501
 20
-193.9207890261323
 30
0.0
 11
156.5000000000054
 21
-271.4240270387399
 31
0.0
  0
LINE
  5
2E9D
330
31C0
100
AcDbEntity
  8
0
 62
     0
100
AcDbLine
 10
156.5000000000126
 20
-268.4240605033265
 30
0.0
 11
335.4455497260551
 21
-387.7207890261297
 31
0.0
  0
LINE
  5
2E9E
330
31C0
100
AcDbEntity
  8
0
 62
     0
100
AcDbLine
 10
335.4455497260551
 20
-387.7207890261297
 30
0.0
 11
372.300000000012
 21
-412.2903598029406
 31
0.0
  0
LINE
  5
2E9F
330
31C0
100
AcDbEntity
  8
0
 62
     0
100
AcDbLine
 10
44.74480741460136
 20
-193.9207890261323
 30
0.0
 11
156.5000000000054
 21
-268.4240605033228
 31
0.0
  0
LINE
  5
2EA0
330
31C0
100
AcDbEntity
  8
0
 62
     0
100
AcDbLine
 10
156.5000000000126
 20
-265.4240939679121
 30
0.0
 11
339.9455110199397
 21
-387.7207890261297
 31
0.0
  0
LINE
  5
2EA1
330
31C0
100
AcDbEntity
  8
0
 62
     0
100
AcDbLine
 10
339.9455110199433
 20
-387.7207890261315
 30
0.0
 11
372.300000000012
 21
-409.2903932675254
 31
0.0
  0
LINE
  5
2EA2
330
31C0
100
AcDbEntity
  8
0
 62
     0
100
AcDbLine
 10
49.24476870848957
 20
-193.9207890261341
 30
0.0
 11
156.5000000000073
 21
-265.4240939679076
 31
0.0
  0
LINE
  5
2EA3
330
31C0
100
AcDbEntity
  8
0
 62
     0
100
AcDbLine
 10
156.5000000000126
 20
-262.424127432495
 30
0.0
 11
344.4454723138242
 21
-387.7207890261297
 31
0.0
  0
LINE
  5
2EA4
330
31C0
100
AcDbEntity
  8
0
 62
     0
100
AcDbLine
 10
344.445472313826
 20
-387.7207890261308
 30
0.0
 11
372.300000000012
 21
-406.290426732108
 31
0.0
  0
LINE
  5
2EA5
330
31C0
100
AcDbEntity
  8
0
 62
     0
100
AcDbLine
 10
53.74473000237049
 20
-193.9207890261313
 30
0.0
 11
156.5000000000054
 21
-262.4241274324904
 31
0.0
  0
LINE
  5
2EA6
330
31C0
100
AcDbEntity
  8
0
 62
     0
100
AcDbLine
 10
156.5000000000109
 20
-259.4241608970788
 30
0.0
 11
348.9454336077124
 21
-387.7207890261308
 31
0.0
  0
LINE
  5
2EA7
330
31C0
100
AcDbEntity
  8
0
 62
     0
100
AcDbLine
 10
348.9454336077124
 20
-387.7207890261308
 30
0.0
 11
372.3000000000102
 21
-403.290460196692
 31
0.0
  0
LINE
  5
2EA8
330
31C0
100
AcDbEntity
  8
0
 62
     0
100
AcDbLine
 10
58.24469129625867
 20
-193.9207890261332
 30
0.0
 11
156.5000000000054
 21
-259.4241608970752
 31
0.0
  0
LINE
  5
2EA9
330
31C0
100
AcDbEntity
  8
0
 62
     0
100
AcDbLine
 10
156.5000000000126
 20
-256.4241943616626
 30
0.0
 11
353.4453949015951
 21
-387.7207890261288
 31
0.0
  0
LINE
  5
2EAA
330
31C0
100
AcDbEntity
  8
0
 62
     0
100
AcDbLine
 10
353.4453949015951
 20
-387.7207890261297
 30
0.0
 11
372.300000000012
 21
-400.2904936612767
 31
0.0
  0
LINE
  5
2EAB
330
31C0
100
AcDbEntity
  8
0
 62
     0
100
AcDbLine
 10
62.74465259014323
 20
-193.9207890261323
 30
0.0
 11
156.5000000000054
 21
-256.424194361658
 31
0.0
  0
LINE
  5
2EAC
330
31C0
100
AcDbEntity
  8
0
 62
     0
100
AcDbLine
 10
156.5000000000109
 20
-253.4242278262464
 30
0.0
 11
357.9453561954815
 21
-387.7207890261297
 31
0.0
  0
LINE
  5
2EAD
330
31C0
100
AcDbEntity
  8
0
 62
     0
100
AcDbLine
 10
357.9453561954851
 20
-387.7207890261325
 30
0.0
 11
372.300000000012
 21
-397.2905271258613
 31
0.0
  0
LINE
  5
2EAE
330
31C0
100
AcDbEntity
  8
0
 62
     0
100
AcDbLine
 10
67.24461388402777
 20
-193.9207890261323
 30
0.0
 11
156.5000000000054
 21
-253.4242278262427
 31
0.0
  0
LINE
  5
2EAF
330
31C0
100
AcDbEntity
  8
0
 62
     0
100
AcDbLine
 10
156.5000000000126
 20
-250.424261290831
 30
0.0
 11
362.4453174893661
 21
-387.7207890261297
 31
0.0
  0
LINE
  5
2EB0
330
31C0
100
AcDbEntity
  8
0
 62
     0
100
AcDbLine
 10
362.4453174893679
 20
-387.7207890261308
 30
0.0
 11
372.300000000012
 21
-394.2905605904443
 31
0.0
  0
LINE
  5
2EB1
330
31C0
100
AcDbEntity
  8
0
 62
     0
100
AcDbLine
 10
71.74457517791234
 20
-193.9207890261313
 30
0.0
 11
156.5000000000054
 21
-250.4242612908256
 31
0.0
  0
LINE
  5
2EB2
330
31C0
100
AcDbEntity
  8
0
 62
     0
100
AcDbLine
 10
156.5000000000109
 20
-247.4242947554149
 30
0.0
 11
366.9452787832542
 21
-387.7207890261315
 31
0.0
  0
LINE
  5
2EB3
330
31C0
100
AcDbEntity
  8
0
 62
     0
100
AcDbLine
 10
366.9452787832542
 20
-387.7207890261315
 30
0.0
 11
372.300000000012
 21
-391.2905940550281
 31
0.0
  0
LINE
  5
2EB4
330
31C0
100
AcDbEntity
  8
0
 62
     0
100
AcDbLine
 10
76.24453647179691
 20
-193.9207890261313
 30
0.0
 11
156.5000000000054
 21
-247.4242947554103
 31
0.0
  0
LINE
  5
2EB5
330
31C0
100
AcDbEntity
  8
0
 62
     0
100
AcDbLine
 10
156.5000000000145
 20
-244.4243282199987
 30
0.0
 11
371.4452400771388
 21
-387.7207890261288
 31
0.0
  0
LINE
  5
2EB6
330
31C0
100
AcDbEntity
  8
0
 62
     0
100
AcDbLine
 10
371.4452400771388
 20
-387.7207890261297
 30
0.0
 11
372.3000000000137
 21
-388.2906275196128
 31
0.0
  0
LINE
  5
2EB7
330
31C0
100
AcDbEntity
  8
0
 62
     0
100
AcDbLine
 10
80.74449776568686
 20
-193.9207890261332
 30
0.0
 11
156.5000000000073
 21
-244.4243282199941
 31
0.0
  0
LINE
  5
2EB8
330
31C0
100
AcDbEntity
  8
0
 62
     0
100
AcDbLine
 10
156.5000000000109
 20
-241.4243616845825
 30
0.0
 11
372.3000000000084
 21
-385.2906609841937
 31
0.0
  0
LINE
  5
2EB9
330
31C0
100
AcDbEntity
  8
0
 62
     0
100
AcDbLine
 10
85.24445905956962
 20
-193.9207890261323
 30
0.0
 11
156.5000000000054
 21
-241.4243616845788
 31
0.0
  0
LINE
  5
2EBA
330
31C0
100
AcDbEntity
  8
0
 62
     0
100
AcDbLine
 10
156.5000000000126
 20
-238.4243951491653
 30
0.0
 11
372.3000000000084
 21
-382.2906944487768
 31
0.0
  0
LINE
  5
2EBB
330
31C0
100
AcDbEntity
  8
0
 62
     0
100
AcDbLine
 10
89.74442035345601
 20
-193.9207890261323
 30
0.0
 11
156.5000000000054
 21
-238.4243951491608
 31
0.0
  0
LINE
  5
2EBC
330
31C0
100
AcDbEntity
  8
0
 62
     0
100
AcDbLine
 10
156.5000000000109
 20
-235.4244286137509
 30
0.0
 11
372.3000000000066
 21
-379.2907279133615
 31
0.0
  0
LINE
  5
2EBD
330
31C0
100
AcDbEntity
  8
0
 62
     0
100
AcDbLine
 10
94.2443816473424
 20
-193.9207890261341
 30
0.0
 11
156.5000000000054
 21
-235.4244286137464
 31
0.0
  0
LINE
  5
2EBE
330
31C0
100
AcDbEntity
  8
0
 62
     0
100
AcDbLine
 10
156.5000000000126
 20
-232.4244620783337
 30
0.0
 11
372.3000000000084
 21
-376.2907613779443
 31
0.0
  0
LINE
  5
2EBF
330
31C0
100
AcDbEntity
  8
0
 62
     0
100
AcDbLine
 10
98.74434294122877
 20
-193.9207890261332
 30
0.0
 11
156.5000000000054
 21
-232.4244620783284
 31
0.0
  0
LINE
  5
2EC0
330
31C0
100
AcDbEntity
  8
0
 62
     0
100
AcDbLine
 10
156.5000000000126
 20
-229.4244955429167
 30
0.0
 11
372.3000000000084
 21
-373.2907948425272
 31
0.0
  0
LINE
  5
2EC1
330
31C0
100
AcDbEntity
  8
0
 62
     0
100
AcDbLine
 10
103.2443042351133
 20
-193.9207890261313
 30
0.0
 11
156.5000000000073
 21
-229.4244955429131
 31
0.0
  0
LINE
  5
2EC2
330
31C0
100
AcDbEntity
  8
0
 62
     0
100
AcDbLine
 10
156.5000000000126
 20
-226.4245290075014
 30
0.0
 11
372.3000000000084
 21
-370.290828307112
 31
0.0
  0
LINE
  5
2EC3
330
31C0
100
AcDbEntity
  8
0
 62
     0
100
AcDbLine
 10
107.7442655289978
 20
-193.9207890261323
 30
0.0
 11
156.5000000000054
 21
-226.4245290074969
 31
0.0
  0
LINE
  5
2EC4
330
31C0
100
AcDbEntity
  8
0
 62
     0
100
AcDbLine
 10
156.5000000000126
 20
-223.4245624720843
 30
0.0
 11
372.3000000000066
 21
-367.2908617716939
 31
0.0
  0
LINE
  5
2EC5
330
31C0
100
AcDbEntity
  8
0
 62
     0
100
AcDbLine
 10
112.244226822886
 20
-193.9207890261323
 30
0.0
 11
156.5000000000073
 21
-223.4245624720808
 31
0.0
  0
LINE
  5
2EC6
330
31C0
100
AcDbEntity
  8
0
 62
     0
100
AcDbLine
 10
156.5000000000109
 20
-220.4245959366681
 30
0.0
 11
372.3000000000084
 21
-364.2908952362804
 31
0.0
  0
LINE
  5
2EC7
330
31C0
100
AcDbEntity
  8
0
 62
     0
100
AcDbLine
 10
116.7441881167688
 20
-193.9207890261332
 30
0.0
 11
156.5000000000054
 21
-220.4245959366645
 31
0.0
  0
LINE
  5
2EC8
330
31C0
100
AcDbEntity
  8
0
 62
     0
100
AcDbLine
 10
156.5000000000126
 20
-217.4246294012528
 30
0.0
 11
372.3000000000066
 21
-361.2909287008624
 31
0.0
  0
LINE
  5
2EC9
330
31C0
100
AcDbEntity
  8
0
 62
     0
100
AcDbLine
 10
121.2441494106551
 20
-193.9207890261313
 30
0.0
 11
156.5000000000054
 21
-217.4246294012473
 31
0.0
  0
LINE
  5
2ECA
330
31C0
100
AcDbEntity
  8
0
 62
     0
100
AcDbLine
 10
156.5000000000109
 20
-214.4246628658366
 30
0.0
 11
372.3000000000084
 21
-358.290962165448
 31
0.0
  0
LINE
  5
2ECB
330
31C0
100
AcDbEntity
  8
0
 62
     0
100
AcDbLine
 10
125.7441107045379
 20
-193.9207890261323
 30
0.0
 11
156.5000000000054
 21
-214.424662865832
 31
0.0
  0
LINE
  5
2ECC
330
31C0
100
AcDbEntity
  8
0
 62
     0
100
AcDbLine
 10
156.5000000000126
 20
-211.4246963304204
 30
0.0
 11
372.3000000000066
 21
-355.29099563003
 31
0.0
  0
LINE
  5
2ECD
330
31C0
100
AcDbEntity
  8
0
 62
     0
100
AcDbLine
 10
130.2440719984279
 20
-193.9207890261323
 30
0.0
 11
156.5000000000054
 21
-211.4246963304158
 31
0.0
  0
LINE
  5
2ECE
330
31C0
100
AcDbEntity
  8
0
 62
     0
100
AcDbLine
 10
156.5000000000126
 20
-208.4247297950042
 30
0.0
 11
372.3000000000084
 21
-352.2910290946147
 31
0.0
  0
LINE
  5
2ECF
330
31C0
100
AcDbEntity
  8
0
 62
     0
100
AcDbLine
 10
134.7440332923124
 20
-193.9207890261332
 30
0.0
 11
156.5000000000073
 21
-208.4247297950005
 31
0.0
  0
LINE
  5
2ED0
330
31C0
100
AcDbEntity
  8
0
 62
     0
100
AcDbLine
 10
156.5000000000126
 20
-205.4247632595889
 30
0.0
 11
372.3000000000066
 21
-349.2910625591985
 31
0.0
  0
LINE
  5
2ED1
330
31C0
100
AcDbEntity
  8
0
 62
     0
100
AcDbLine
 10
139.243994586197
 20
-193.9207890261323
 30
0.0
 11
156.5000000000036
 21
-205.4247632595825
 31
0.0
  0
LINE
  5
2ED2
330
31C0
100
AcDbEntity
  8
0
 62
     0
100
AcDbLine
 10
156.5000000000126
 20
-202.4247967241727
 30
0.0
 11
372.3000000000084
 21
-346.2910960237832
 31
0.0
  0
LINE
  5
2ED3
330
31C0
100
AcDbEntity
  8
0
 62
     0
100
AcDbLine
 10
143.7439558800815
 20
-193.9207890261323
 30
0.0
 11
156.5000000000054
 21
-202.4247967241672
 31
0.0
  0
LINE
  5
2ED4
330
31C0
100
AcDbEntity
  8
0
 62
     0
100
AcDbLine
 10
156.5000000000126
 20
-199.4248301887554
 30
0.0
 11
372.3000000000066
 21
-343.2911294883662
 31
0.0
  0
LINE
  5
2ED5
330
31C0
100
AcDbEntity
  8
0
 62
     0
100
AcDbLine
 10
148.2439171739679
 20
-193.9207890261323
 30
0.0
 11
156.5000000000054
 21
-199.42483018875
 31
0.0
  0
LINE
  5
2ED6
330
31C0
100
AcDbEntity
  8
0
 62
     0
100
AcDbLine
 10
156.5000000000126
 20
-196.4248636533402
 30
0.0
 11
372.3000000000066
 21
-340.2911629529499
 31
0.0
  0
LINE
  5
2ED7
330
31C0
100
AcDbEntity
  8
0
 62
     0
100
AcDbLine
 10
152.7438784678525
 20
-193.9207890261323
 30
0.0
 11
156.5000000000054
 21
-196.4248636533357
 31
0.0
  0
LINE
  5
2ED8
330
31C0
100
AcDbEntity
  8
0
 62
     0
100
AcDbLine
 10
157.2438397617407
 20
-193.9207890261323
 30
0.0
 11
372.3000000000084
 21
-337.2911964175337
 31
0.0
  0
LINE
  5
2ED9
330
31C0
100
AcDbEntity
  8
0
 62
     0
100
AcDbLine
 10
161.7438010556234
 20
-193.9207890261313
 30
0.0
 11
372.3000000000066
 21
-334.2912298821166
 31
0.0
  0
LINE
  5
2EDA
330
31C0
100
AcDbEntity
  8
0
 62
     0
100
AcDbLine
 10
166.2437623495116
 20
-193.9207890261323
 30
0.0
 11
372.3000000000084
 21
-331.2912633467022
 31
0.0
  0
LINE
  5
2EDB
330
31C0
100
AcDbEntity
  8
0
 62
     0
100
AcDbLine
 10
170.7437236433943
 20
-193.9207890261313
 30
0.0
 11
372.3000000000066
 21
-328.2912968112841
 31
0.0
  0
LINE
  5
2EDC
330
31C0
100
AcDbEntity
  8
0
 62
     0
100
AcDbLine
 10
175.2436849372807
 20
-193.9207890261313
 30
0.0
 11
372.3000000000084
 21
-325.2913302758689
 31
0.0
  0
LINE
  5
2EDD
330
31C0
100
AcDbEntity
  8
0
 62
     0
100
AcDbLine
 10
179.7436462311634
 20
-193.9207890261305
 30
0.0
 11
372.3000000000066
 21
-322.2913637404517
 31
0.0
  0
LINE
  5
2EDE
330
31C0
100
AcDbEntity
  8
0
 62
     0
100
AcDbLine
 10
184.2436075250533
 20
-193.9207890261332
 30
0.0
 11
372.3000000000084
 21
-319.2913972050373
 31
0.0
  0
LINE
  5
2EDF
330
31C0
100
AcDbEntity
  8
0
 62
     0
100
AcDbLine
 10
188.743568818938
 20
-193.9207890261313
 30
0.0
 11
372.3000000000084
 21
-316.2914306696202
 31
0.0
  0
LINE
  5
2EE0
330
31C0
100
AcDbEntity
  8
0
 62
     0
100
AcDbLine
 10
193.2435301128225
 20
-193.9207890261323
 30
0.0
 11
372.3000000000066
 21
-313.291464134204
 31
0.0
  0
LINE
  5
2EE1
330
31C0
100
AcDbEntity
  8
0
 62
     0
100
AcDbLine
 10
197.7434914067107
 20
-193.9207890261323
 30
0.0
 11
372.3000000000084
 21
-310.2914975987878
 31
0.0
  0
LINE
  5
2EE2
330
31C0
100
AcDbEntity
  8
0
 62
     0
100
AcDbLine
 10
202.2434527005953
 20
-193.9207890261332
 30
0.0
 11
372.3000000000066
 21
-307.2915310633716
 31
0.0
  0
LINE
  5
2EE3
330
31C0
100
AcDbEntity
  8
0
 62
     0
100
AcDbLine
 10
206.7434139944797
 20
-193.9207890261323
 30
0.0
 11
372.3000000000084
 21
-304.2915645279564
 31
0.0
  0
LINE
  5
2EE4
330
31C0
100
AcDbEntity
  8
0
 62
     0
100
AcDbLine
 10
211.2433752883662
 20
-193.9207890261323
 30
0.0
 11
372.3000000000084
 21
-301.2915979925401
 31
0.0
  0
LINE
  5
2EE5
330
31C0
100
AcDbEntity
  8
0
 62
     0
100
AcDbLine
 10
215.7433365822508
 20
-193.9207890261323
 30
0.0
 11
372.3000000000084
 21
-298.2916314571239
 31
0.0
  0
LINE
  5
2EE6
330
31C0
100
AcDbEntity
  8
0
 62
     0
100
AcDbLine
 10
220.2432978761371
 20
-193.9207890261305
 30
0.0
 11
372.3000000000084
 21
-295.2916649217057
 31
0.0
  0
LINE
  5
2EE7
330
31C0
100
AcDbEntity
  8
0
 62
     0
100
AcDbLine
 10
224.7432591700199
 20
-193.9207890261313
 30
0.0
 11
372.3000000000066
 21
-292.2916983862905
 31
0.0
  0
LINE
  5
2EE8
330
31C0
100
AcDbEntity
  8
0
 62
     0
100
AcDbLine
 10
229.2432204639062
 20
-193.9207890261295
 30
0.0
 11
372.3000000000084
 21
-289.2917318508735
 31
0.0
  0
LINE
  5
2EE9
330
31C0
100
AcDbEntity
  8
0
 62
     0
100
AcDbLine
 10
233.7431817577944
 20
-193.9207890261323
 30
0.0
 11
372.3000000000084
 21
-286.2917653154591
 31
0.0
  0
LINE
  5
2EEA
330
31C0
100
AcDbEntity
  8
0
 62
     0
100
AcDbLine
 10
238.243143051679
 20
-193.9207890261313
 30
0.0
 11
372.3000000000084
 21
-283.291798780042
 31
0.0
  0
LINE
  5
2EEB
330
31C0
100
AcDbEntity
  8
0
 62
     0
100
AcDbLine
 10
242.7431043455634
 20
-193.9207890261313
 30
0.0
 11
372.3000000000084
 21
-280.2918322446259
 31
0.0
  0
LINE
  5
2EEC
330
31C0
100
AcDbEntity
  8
0
 62
     0
100
AcDbLine
 10
247.2430656394517
 20
-193.9207890261323
 30
0.0
 11
372.3000000000084
 21
-277.2918657092096
 31
0.0
  0
LINE
  5
2EED
330
31C0
100
AcDbEntity
  8
0
 62
     0
100
AcDbLine
 10
251.7430269333363
 20
-193.9207890261332
 30
0.0
 11
372.3000000000084
 21
-274.2918991737933
 31
0.0
  0
LINE
  5
2EEE
330
31C0
100
AcDbEntity
  8
0
 62
     0
100
AcDbLine
 10
256.2429882272208
 20
-193.9207890261313
 30
0.0
 11
372.3000000000066
 21
-271.2919326383771
 31
0.0
  0
LINE
  5
2EEF
330
31C0
100
AcDbEntity
  8
0
 62
     0
100
AcDbLine
 10
260.7429495211054
 20
-193.9207890261323
 30
0.0
 11
372.3000000000084
 21
-268.2919661029619
 31
0.0
  0
LINE
  5
2EF0
330
31C0
100
AcDbEntity
  8
0
 62
     0
100
AcDbLine
 10
265.2429108149936
 20
-193.9207890261313
 30
0.0
 11
372.3000000000084
 21
-265.2919995675447
 31
0.0
  0
LINE
  5
2EF1
330
31C0
100
AcDbEntity
  8
0
 62
     0
100
AcDbLine
 10
269.7428721088781
 20
-193.9207890261332
 30
0.0
 11
372.3000000000084
 21
-262.2920330321294
 31
0.0
  0
LINE
  5
2EF2
330
31C0
100
AcDbEntity
  8
0
 62
     0
100
AcDbLine
 10
274.2428334027644
 20
-193.9207890261323
 30
0.0
 11
372.3000000000066
 21
-259.2920664967114
 31
0.0
  0
LINE
  5
2EF3
330
31C0
100
AcDbEntity
  8
0
 62
     0
100
AcDbLine
 10
278.7427946966472
 20
-193.9207890261323
 30
0.0
 11
372.3000000000066
 21
-256.292099961296
 31
0.0
  0
LINE
  5
2EF4
330
31C0
100
AcDbEntity
  8
0
 62
     0
100
AcDbLine
 10
283.2427559905354
 20
-193.9207890261323
 30
0.0
 11
372.3000000000066
 21
-253.2921334258799
 31
0.0
  0
LINE
  5
2EF5
330
31C0
100
AcDbEntity
  8
0
 62
     0
100
AcDbLine
 10
287.74271728442
 20
-193.9207890261305
 30
0.0
 11
372.3000000000084
 21
-250.2921668904628
 31
0.0
  0
LINE
  5
2EF6
330
31C0
100
AcDbEntity
  8
0
 62
     0
100
AcDbLine
 10
292.2426785783045
 20
-193.9207890261313
 30
0.0
 11
372.3000000000066
 21
-247.2922003550475
 31
0.0
  0
LINE
  5
2EF7
330
31C0
100
AcDbEntity
  8
0
 62
     0
100
AcDbLine
 10
296.7426398721928
 20
-193.9207890261323
 30
0.0
 11
372.3000000000066
 21
-244.2922338196295
 31
0.0
  0
LINE
  5
2EF8
330
31C0
100
AcDbEntity
  8
0
 62
     0
100
AcDbLine
 10
301.2426011660772
 20
-193.9207890261323
 30
0.0
 11
372.3000000000066
 21
-241.2922672842151
 31
0.0
  0
LINE
  5
2EF9
330
31C0
100
AcDbEntity
  8
0
 62
     0
100
AcDbLine
 10
305.7425624599617
 20
-193.9207890261313
 30
0.0
 11
372.3000000000066
 21
-238.292300748798
 31
0.0
  0
LINE
  5
2EFA
330
31C0
100
AcDbEntity
  8
0
 62
     0
100
AcDbLine
 10
310.2425237538462
 20
-193.9207890261313
 30
0.0
 11
372.3000000000066
 21
-235.2923342133836
 31
0.0
  0
LINE
  5
2EFB
330
31C0
100
AcDbEntity
  8
0
 62
     0
100
AcDbLine
 10
314.7424850477346
 20
-193.9207890261323
 30
0.0
 11
372.3000000000066
 21
-232.2923676779656
 31
0.0
  0
LINE
  5
2EFC
330
31C0
100
AcDbEntity
  8
0
 62
     0
100
AcDbLine
 10
319.2424463416211
 20
-193.9207890261332
 30
0.0
 11
372.3000000000084
 21
-229.2924011425512
 31
0.0
  0
LINE
  5
2EFD
330
31C0
100
AcDbEntity
  8
0
 62
     0
100
AcDbLine
 10
323.7424076355037
 20
-193.9207890261313
 30
0.0
 11
372.3000000000066
 21
-226.2924346071331
 31
0.0
  0
LINE
  5
2EFE
330
31C0
100
AcDbEntity
  8
0
 62
     0
100
AcDbLine
 10
328.2423689293901
 20
-193.9207890261323
 30
0.0
 11
372.3000000000084
 21
-223.2924680717188
 31
0.0
  0
LINE
  5
2EFF
330
31C0
100
AcDbEntity
  8
0
 62
     0
100
AcDbLine
 10
332.7423302232746
 20
-193.9207890261313
 30
0.0
 11
372.3000000000066
 21
-220.2925015363017
 31
0.0
  0
LINE
  5
2F00
330
31C0
100
AcDbEntity
  8
0
 62
     0
100
AcDbLine
 10
337.2422915171609
 20
-193.9207890261323
 30
0.0
 11
372.3000000000084
 21
-217.2925350008862
 31
0.0
  0
LINE
  5
2F01
330
31C0
100
AcDbEntity
  8
0
 62
     0
100
AcDbLine
 10
341.7422528110455
 20
-193.9207890261313
 30
0.0
 11
372.3000000000084
 21
-214.2925684654692
 31
0.0
  0
LINE
  5
2F02
330
31C0
100
AcDbEntity
  8
0
 62
     0
100
AcDbLine
 10
346.2422141049319
 20
-193.9207890261313
 30
0.0
 11
372.3000000000084
 21
-211.2926019300521
 31
0.0
  0
LINE
  5
2F03
330
31C0
100
AcDbEntity
  8
0
 62
     0
100
AcDbLine
 10
350.7421753988183
 20
-193.9207890261323
 30
0.0
 11
372.3000000000084
 21
-208.2926353946377
 31
0.0
  0
LINE
  5
2F04
330
31C0
100
AcDbEntity
  8
0
 62
     0
100
AcDbLine
 10
355.2421366927029
 20
-193.9207890261305
 30
0.0
 11
372.3000000000066
 21
-205.2926688592197
 31
0.0
  0
LINE
  5
2F05
330
31C0
100
AcDbEntity
  8
0
 62
     0
100
AcDbLine
 10
359.7420979865874
 20
-193.9207890261313
 30
0.0
 11
372.3000000000066
 21
-202.2927023238044
 31
0.0
  0
LINE
  5
2F06
330
31C0
100
AcDbEntity
  8
0
 62
     0
100
AcDbLine
 10
364.2420592804738
 20
-193.9207890261323
 30
0.0
 11
372.3000000000066
 21
-199.2927357883873
 31
0.0
  0
LINE
  5
2F07
330
31C0
100
AcDbEntity
  8
0
 62
     0
100
AcDbLine
 10
368.7420205743602
 20
-193.9207890261323
 30
0.0
 11
372.3000000000066
 21
-196.292769252972
 31
0.0
  0
ENDBLK
  5
2F08
330
31C0
100
AcDbEntity
  8
0
100
AcDbBlockEnd
  0
ENDSEC
  0
SECTION
  2
ENTITIES
  0
TEXT
  5
953
330
3144
100
AcDbEntity
  8
OUTLINE
  6
Continuous
 62
     3
100
AcDbText
 10
-418.231467
 20
13.715189
 30
0.0
 40
64.0
  1
 
 41
0.9
100
AcDbText
  0
TEXT
  5
954
330
3144
100
AcDbEntity
  8
OUTLINE
  6
Continuous
 62
     3
100
AcDbText
 10
-418.231467
 20
13.715189
 30
0.0
 40
64.0
  1
 
 41
0.9
100
AcDbText
  0
TEXT
  5
955
330
3144
100
AcDbEntity
  8
OUTLINE
  6
Continuous
 62
     3
100
AcDbText
 10
1341.41903
 20
-706.0588199999997
 30
0.0
 40
64.0
  1
 
 41
0.9
100
AcDbText
  0
TEXT
  5
956
330
3144
100
AcDbEntity
  8
OUTLINE
  6
Continuous
 62
     3
100
AcDbText
 10
1341.41903
 20
-706.0588199999997
 30
0.0
 40
64.0
  1
 
 41
0.9
100
AcDbText
  0
TEXT
  5
957
330
3144
100
AcDbEntity
  8
OUTLINE
  6
Continuous
 62
     3
100
AcDbText
 10
1341.41903
 20
-706.0588199999997
 30
0.0
 40
64.0
  1
 
 41
0.9
100
AcDbText
  0
TEXT
  5
958
330
3144
100
AcDbEntity
  8
OUTLINE
  6
Continuous
 62
     3
100
AcDbText
 10
1341.41903
 20
-706.0588199999997
 30
0.0
 40
64.0
  1
 
 41
0.9
100
AcDbText
  0
TEXT
  5
2FCF
330
3144
100
AcDbEntity
  8
ETC
100
AcDbText
 10
699.5287085491145
 20
403.0057800032706
 30
0.0
 40
64.0
  1
システム部材
 41
0.9
100
AcDbText
  0
TEXT
  5
2FD0
330
3144
100
AcDbEntity
  8
ETC
100
AcDbText
 10
696.6621428234648
 20
504.8365397587913
 30
0.0
 40
64.0
  1
QWH-70SAM_6
 41
0.9
100
AcDbText
  0
TEXT
  5
2FD1
330
3144
100
AcDbEntity
  8
ETC
100
AcDbText
 10
696.6621428234648
 20
304.8365397587911
 30
0.0
 40
64.0
  1
QWH-70SAM
 41
0.9
100
AcDbText
  0
CIRCLE
  5
2FD2
330
3144
100
AcDbEntity
  8
ARRANGE
100
AcDbCircle
 10
0.0
 20
-0.000000000001819
 30
0.0
 40
40.0
  0
LINE
  5
2FD3
330
3144
100
AcDbEntity
  8
ARRANGE
100
AcDbLine
 10
-19.19638649990156
 20
19.19638649989974
 30
0.0
 11
19.19638649989792
 21
-19.19638649990702
 31
0.0
  0
LINE
  5
2FD4
330
3144
100
AcDbEntity
  8
ARRANGE
100
AcDbLine
 10
19.19638649989792
 20
19.19638649990156
 30
0.0
 11
-19.19638649990156
 21
-19.1963864999052
 31
0.0
  0
LINE
  5
2FD5
330
3144
100
AcDbEntity
  8
BASIC
100
AcDbLine
 10
0.0
 20
-1.500000000001818
 30
0.0
 11
0.0
 21
-1.500000000001818
 31
0.0
  0
LINE
  5
2FD6
330
3144
100
AcDbEntity
  8
BASIC
100
AcDbLine
 10
0.0
 20
24.99999999999818
 30
0.0
 11
0.0
 21
-1077.000000000003
 31
0.0
  0
LINE
  5
2FD7
330
3144
100
AcDbEntity
  8
NOTE
100
AcDbLine
 10
400.0
 20
-12.50000000000182
 30
0.0
 11
400.0
 21
12.49999999999818
 31
0.0
  0
LINE
  5
2FD8
330
3144
100
AcDbEntity
  8
NOTE
100
AcDbLine
 10
-400.0
 20
-12.50000000000182
 30
0.0
 11
-400.0
 21
12.49999999999818
 31
0.0
  0
LINE
  5
2FD9
330
3144
100
AcDbEntity
  8
DETAIL
100
AcDbLine
 10
425.0
 20
-0.4000000000032742
 30
0.0
 11
425.0
 21
-8.000000000002728
 31
0.0
  0
LINE
  5
2FDA
330
3144
100
AcDbEntity
  8
DETAIL
100
AcDbLine
 10
-425.0
 20
-0.4000000000032742
 30
0.0
 11
-425.0
 21
-8.000000000002728
 31
0.0
  0
LINE
  5
2FDB
330
3144
100
AcDbEntity
  8
DETAIL
100
AcDbLine
 10
-385.0
 20
-0.000000000001819
 30
0.0
 11
-425.0
 21
-0.000000000001819
 31
0.0
  0
LINE
  5
2FDC
330
3144
100
AcDbEntity
  8
DETAIL
100
AcDbLine
 10
425.0
 20
-0.000000000001819
 30
0.0
 11
385.0
 21
-0.000000000001819
 31
0.0
  0
LINE
  5
2FDD
330
3144
100
AcDbEntity
  8
DETAIL
100
AcDbLine
 10
425.0
 20
-8.000000000002728
 30
0.0
 11
-425.0
 21
-8.000000000002728
 31
0.0
  0
LINE
  5
2FDE
330
3144
100
AcDbEntity
  8
DETAIL
100
AcDbLine
 10
385.0
 20
-0.000000000001819
 30
0.0
 11
-385.0
 21
-0.000000000001819
 31
0.0
  0
LINE
  5
2FDF
330
3144
100
AcDbEntity
  8
DETAIL
100
AcDbLine
 10
386.0
 20
-139.0857864376294
 30
0.0
 11
387.0
 21
-139.0857864376294
 31
0.0
  0
LINE
  5
2FE0
330
3144
100
AcDbEntity
  8
DETAIL
100
AcDbLine
 10
387.0
 20
-8.000000000002728
 30
0.0
 11
387.0
 21
-139.0857864376294
 31
0.0
  0
LINE
  5
2FE1
330
3144
100
AcDbEntity
  8
DETAIL
100
AcDbLine
 10
-386.0
 20
-139.0857864376294
 30
0.0
 11
-387.0
 21
-139.0857864376294
 31
0.0
  0
LINE
  5
2FE2
330
3144
100
AcDbEntity
  8
DETAIL
100
AcDbLine
 10
-387.0
 20
-165.8680706291734
 30
0.0
 11
-387.0
 21
-139.0857864376294
 31
0.0
  0
LINE
  5
2FE3
330
3144
100
AcDbEntity
  8
DETAIL
100
AcDbLine
 10
-387.0
 20
-139.0857864376294
 30
0.0
 11
-387.0
 21
-8.000000000002728
 31
0.0
  0
LINE
  5
2FE4
330
3144
100
AcDbEntity
  8
DETAIL
100
AcDbLine
 10
387.0
 20
-139.0857864376294
 30
0.0
 11
387.0
 21
-165.8680706291734
 31
0.0
  0
LINE
  5
2FE5
330
3144
100
AcDbEntity
  8
DETAIL
100
AcDbLine
 10
386.0
 20
-139.0857864376294
 30
0.0
 11
-386.0
 21
-139.0857864376294
 31
0.0
  0
LINE
  5
2FE6
330
3144
100
AcDbEntity
  8
DETAIL
100
AcDbLine
 10
-376.4999999999927
 20
-1029.995679474184
 30
0.0
 11
-376.4999999999927
 21
-1030.000000000002
 31
0.0
  0
LINE
  5
2FE7
330
3144
100
AcDbEntity
  8
DETAIL
100
AcDbLine
 10
-383.4999999999927
 20
-1030.000000000002
 30
0.0
 11
-398.4999999999928
 21
-1030.000000000014
 31
0.0
  0
LINE
  5
2FE8
330
3144
100
AcDbEntity
  8
DETAIL
100
AcDbLine
 10
379.5
 20
-1052.000000000003
 30
0.0
 11
384.5
 21
-1049.883757344668
 31
0.0
  0
LINE
  5
2FE9
330
3144
100
AcDbEntity
  8
DETAIL
100
AcDbLine
 10
379.5
 20
-1052.000000000003
 30
0.0
 11
-379.5
 21
-1052.000000000003
 31
0.0
  0
LINE
  5
2FEA
330
3144
100
AcDbEntity
  8
DETAIL
100
AcDbLine
 10
-384.5
 20
-1049.883757344668
 30
0.0
 11
-379.5
 21
-1052.000000000003
 31
0.0
  0
LINE
  5
2FEB
330
3144
100
AcDbEntity
  8
DETAIL
100
AcDbLine
 10
-384.5
 20
-1045.000000000003
 30
0.0
 11
-384.5
 21
-1030.000000000002
 31
0.0
  0
LINE
  5
2FEC
330
3144
100
AcDbEntity
  8
DETAIL
100
AcDbLine
 10
-384.5
 20
-1049.883757344668
 30
0.0
 11
-384.5
 21
-1045.000000000003
 31
0.0
  0
LINE
  5
2FED
330
3144
100
AcDbEntity
  8
DETAIL
100
AcDbLine
 10
384.5
 20
-1045.000000000003
 30
0.0
 11
-384.5
 21
-1045.000000000003
 31
0.0
  0
LINE
  5
2FEE
330
3144
100
AcDbEntity
  8
DETAIL
100
AcDbLine
 10
384.5
 20
-1049.883757344668
 30
0.0
 11
384.5
 21
-1045.000000000003
 31
0.0
  0
LINE
  5
2FEF
330
3144
100
AcDbEntity
  8
DETAIL
100
AcDbLine
 10
-374.5
 20
-1030.000000000002
 30
0.0
 11
-384.5
 21
-1030.000000000002
 31
0.0
  0
LINE
  5
2FF0
330
3144
100
AcDbEntity
  8
DETAIL
100
AcDbLine
 10
384.5
 20
-1030.000000000002
 30
0.0
 11
374.5
 21
-1030.000000000002
 31
0.0
  0
LINE
  5
2FF1
330
3144
100
AcDbEntity
  8
DETAIL
100
AcDbLine
 10
384.5
 20
-1045.000000000003
 30
0.0
 11
384.5
 21
-1030.000000000002
 31
0.0
  0
LINE
  5
2FF2
330
3144
100
AcDbEntity
  8
DETAIL
100
AcDbLine
 10
383.5000000000073
 20
-1030.000000000002
 30
0.0
 11
383.5000000000073
 21
-1029.995679474184
 31
0.0
  0
LINE
  5
2FF3
330
3144
100
AcDbEntity
  8
DETAIL
100
AcDbLine
 10
398.5
 20
-1030.00000000001
 30
0.0
 11
383.5000000000073
 21
-1030.000000000002
 31
0.0
  0
LINE
  5
2FF4
330
3144
100
AcDbEntity
  8
DETAIL
100
AcDbLine
 10
387.3000000000102
 20
-178.910718951246
 30
0.0
 11
387.3000000000102
 21
-165.8680706291697
 31
0.0
  0
LINE
  5
2FF5
330
3144
100
AcDbEntity
  8
DETAIL
100
AcDbLine
 10
398.5000000000075
 20
-180.6344221121717
 30
0.0
 11
398.5000000000075
 21
-165.8680706291697
 31
0.0
  0
LINE
  5
2FF6
330
3144
100
AcDbEntity
  8
DETAIL
100
AcDbLine
 10
387.3000000000102
 20
-165.8680706291697
 30
0.0
 11
398.5
 21
-165.8680706291697
 31
0.0
  0
LINE
  5
2FF7
330
3144
100
AcDbEntity
  8
DETAIL
100
AcDbLine
 10
-387.299999999992
 20
-165.8680706291734
 30
0.0
 11
-387.299999999992
 21
-178.910718951246
 31
0.0
  0
LINE
  5
2FF8
330
3144
100
AcDbEntity
  8
DETAIL
100
AcDbLine
 10
-398.5
 20
-165.8680706291734
 30
0.0
 11
-398.5
 21
-180.634422112168
 31
0.0
  0
LINE
  5
2FF9
330
3144
100
AcDbEntity
  8
DETAIL
100
AcDbLine
 10
-387.299999999992
 20
-165.8680706291734
 30
0.0
 11
-398.4999999999928
 21
-165.8680706291734
 31
0.0
  0
LINE
  5
2FFA
330
3144
100
AcDbEntity
  8
DETAIL
100
AcDbLine
 10
387.3000000000102
 20
-193.7989297301856
 30
0.0
 11
387.3000000000102
 21
-193.9207890261305
 31
0.0
  0
LINE
  5
2FFB
330
3144
100
AcDbEntity
  8
OUTLINE
100
AcDbLine
 10
-387.299999999992
 20
-193.7989297301856
 30
0.0
 11
-387.299999999992
 21
-193.9207890261305
 31
0.0
  0
LINE
  5
2FFC
330
3144
100
AcDbEntity
  8
DETAIL
100
AcDbLine
 10
-387.299999999992
 20
-165.8680706291734
 30
0.0
 11
387.3000000000102
 21
-165.8680706291734
 31
0.0
  0
LINE
  5
2FFD
330
3144
100
AcDbEntity
  8
DETAIL
100
AcDbLine
 10
387.3000000000102
 20
-165.8680706291734
 30
0.0
 11
387.3000000000102
 21
-178.910718951246
 31
0.0
  0
LINE
  5
2FFE
330
3144
100
AcDbEntity
  8
DETAIL
100
AcDbLine
 10
-387.299999999992
 20
-165.8680706291734
 30
0.0
 11
-387.299999999992
 21
-178.910718951246
 31
0.0
  0
LINE
  5
2FFF
330
3144
100
AcDbEntity
  8
DETAIL
100
AcDbLine
 10
-387.299999999992
 20
-178.910718951246
 30
0.0
 11
387.3000000000102
 21
-178.910718951246
 31
0.0
  0
LINE
  5
3000
330
3144
100
AcDbEntity
  8
DETAIL
100
AcDbLine
 10
-387.299999999992
 20
-178.910718951246
 30
0.0
 11
-387.299999999992
 21
-193.7989297301856
 31
0.0
  0
LINE
  5
3001
330
3144
100
AcDbEntity
  8
DETAIL
100
AcDbLine
 10
387.3000000000102
 20
-178.910718951246
 30
0.0
 11
387.3000000000102
 21
-193.7989297301856
 31
0.0
  0
LINE
  5
3002
330
3144
100
AcDbEntity
  8
DETAIL
100
AcDbLine
 10
372.3000000000102
 20
-1029.264523698522
 30
0.0
 11
387.3000000000102
 21
-1029.264523698522
 31
0.0
  0
LINE
  5
3003
330
3144
100
AcDbEntity
  8
DETAIL
100
AcDbLine
 10
372.3000000000102
 20
-1029.142664402577
 30
0.0
 11
372.3000000000102
 21
-1029.264523698522
 31
0.0
  0
LINE
  5
3004
330
3144
100
AcDbEntity
  8
DETAIL
100
AcDbLine
 10
398.5
 20
-1030.00000000001
 30
0.0
 11
398.5
 21
-1029.751960882298
 31
0.0
  0
LINE
  5
3005
330
3144
100
AcDbEntity
  8
DETAIL
100
AcDbLine
 10
398.5
 20
-180.6344221121717
 30
0.0
 11
398.5
 21
-1029.751960882298
 31
0.0
  0
LINE
  5
3006
330
3144
100
AcDbEntity
  8
DETAIL
100
AcDbLine
 10
398.5
 20
-180.6344221121717
 30
0.0
 11
387.3000000000102
 21
-180.6344221121717
 31
0.0
  0
LINE
  5
3007
330
3144
100
AcDbEntity
  8
DETAIL
100
AcDbLine
 10
387.3000000000102
 20
-193.9207890261305
 30
0.0
 11
387.3000000000102
 21
-1029.264523698522
 31
0.0
  0
LINE
  5
3008
330
3144
100
AcDbEntity
  8
DETAIL
100
AcDbLine
 10
387.3000000000102
 20
-1029.142664402577
 30
0.0
 11
372.3000000000102
 21
-1029.142664402577
 31
0.0
  0
LINE
  5
3009
330
3144
100
AcDbEntity
  8
DETAIL
100
AcDbLine
 10
372.3000000000102
 20
-1028.637554201089
 30
0.0
 11
-372.2999999999811
 21
-1028.637554201089
 31
0.0
  0
LINE
  5
300A
330
3144
100
AcDbEntity
  8
DETAIL
100
AcDbLine
 10
372.3000000000102
 20
-1028.881272792975
 30
0.0
 11
-372.2999999999811
 21
-1028.881272792975
 31
0.0
  0
LINE
  5
300B
330
3144
100
AcDbEntity
  8
DETAIL
100
AcDbLine
 10
-372.299999999992
 20
-1029.264523698522
 30
0.0
 11
-387.299999999992
 21
-1029.264523698522
 31
0.0
  0
LINE
  5
300C
330
3144
100
AcDbEntity
  8
DETAIL
100
AcDbLine
 10
-372.299999999992
 20
-1029.142664402573
 30
0.0
 11
-372.299999999992
 21
-1029.264523698522
 31
0.0
  0
LINE
  5
300D
330
3144
100
AcDbEntity
  8
DETAIL
100
AcDbLine
 10
-372.299999999992
 20
-1015.608104071673
 30
0.0
 11
-372.299999999992
 21
-193.9207890261305
 31
0.0
  0
LINE
  5
300E
330
3144
100
AcDbEntity
  8
DETAIL
100
AcDbLine
 10
-398.4999999999928
 20
-1029.751960882294
 30
0.0
 11
-398.4999999999928
 21
-180.634422112168
 31
0.0
  0
LINE
  5
300F
330
3144
100
AcDbEntity
  8
DETAIL
100
AcDbLine
 10
-398.4999999999928
 20
-1030.000000000014
 30
0.0
 11
-398.4999999999928
 21
-1029.751960882294
 31
0.0
  0
LINE
  5
3010
330
3144
100
AcDbEntity
  8
DETAIL
100
AcDbLine
 10
-398.4999999999928
 20
-180.634422112168
 30
0.0
 11
-387.299999999992
 21
-180.634422112168
 31
0.0
  0
LINE
  5
3011
330
3144
100
AcDbEntity
  8
DETAIL
100
AcDbLine
 10
-387.299999999992
 20
-1029.264523698522
 30
0.0
 11
-387.299999999992
 21
-193.9207890261305
 31
0.0
  0
LINE
  5
3012
330
3144
100
AcDbEntity
  8
DETAIL
100
AcDbLine
 10
-387.299999999992
 20
-1029.142664402573
 30
0.0
 11
-372.299999999992
 21
-1029.142664402573
 31
0.0
  0
LINE
  5
3013
330
3144
100
AcDbEntity
  8
DETAIL
100
AcDbLine
 10
-372.299999999992
 20
-1015.608104071673
 30
0.0
 11
372.3000000000102
 21
-1015.608104071673
 31
0.0
  0
LINE
  5
3014
330
3144
100
AcDbEntity
  8
DETAIL
100
AcDbLine
 10
-374.5
 20
-1030.000000000002
 30
0.0
 11
374.5
 21
-1030.000000000002
 31
0.0
  0
LINE
  5
3015
330
3144
100
AcDbEntity
  8
NOTE
100
AcDbLine
 39
50.0
 10
-412.5
 20
-0.000000000001819
 30
0.0
 11
-387.5
 21
-0.000000000001819
 31
0.0
  0
LINE
  5
3016
330
3144
100
AcDbEntity
  8
NOTE
100
AcDbLine
 39
50.0
 10
387.5
 20
-0.000000000001819
 30
0.0
 11
412.5
 21
-0.000000000001819
 31
0.0
  0
LINE
  5
3017
330
3144
100
AcDbEntity
  8
OUTLINE
100
AcDbLine
 10
-385.0
 20
-0.000000000001819
 30
0.0
 11
-425.0
 21
-0.000000000001819
 31
0.0
  0
LINE
  5
3018
330
3144
100
AcDbEntity
  8
OUTLINE
100
AcDbLine
 10
425.0
 20
-0.000000000001819
 30
0.0
 11
385.0
 21
-0.000000000001819
 31
0.0
  0
LINE
  5
3019
330
3144
100
AcDbEntity
  8
OUTLINE
100
AcDbLine
 10
385.0
 20
-0.000000000001819
 30
0.0
 11
-385.0
 21
-0.000000000001819
 31
0.0
  0
LINE
  5
301A
330
3144
100
AcDbEntity
  8
DETAIL
100
AcDbLine
 10
-425.0
 20
-0.4000000000032742
 30
0.0
 11
-425.0
 21
-0.000000000001819
 31
0.0
  0
LINE
  5
301B
330
3144
100
AcDbEntity
  8
DETAIL
100
AcDbLine
 10
425.0
 20
-0.000000000001819
 30
0.0
 11
425.0
 21
-0.4000000000032742
 31
0.0
  0
LINE
  5
301C
330
3144
100
AcDbEntity
  8
OUTLINE
100
AcDbLine
 10
425.0
 20
-8.000000000002728
 30
0.0
 11
-425.0
 21
-8.000000000002728
 31
0.0
  0
LINE
  5
301D
330
3144
100
AcDbEntity
  8
OUTLINE
100
AcDbLine
 10
-387.0
 20
-165.8680706291734
 30
0.0
 11
-387.0
 21
-139.0857864376294
 31
0.0
  0
LINE
  5
301E
330
3144
100
AcDbEntity
  8
OUTLINE
100
AcDbLine
 10
387.0
 20
-139.0857864376294
 30
0.0
 11
387.0
 21
-165.8680706291734
 31
0.0
  0
LINE
  5
301F
330
3144
100
AcDbEntity
  8
OUTLINE
100
AcDbLine
 10
386.0
 20
-139.0857864376294
 30
0.0
 11
-386.0
 21
-139.0857864376294
 31
0.0
  0
LINE
  5
3020
330
3144
100
AcDbEntity
  8
OUTLINE
100
AcDbLine
 10
-376.4999999999927
 20
-1029.995679474184
 30
0.0
 11
-376.4999999999927
 21
-1030.000000000002
 31
0.0
  0
LINE
  5
3021
330
3144
100
AcDbEntity
  8
OUTLINE
100
AcDbLine
 10
-383.4999999999927
 20
-1030.000000000002
 30
0.0
 11
-398.4999999999928
 21
-1030.000000000014
 31
0.0
  0
LINE
  5
3022
330
3144
100
AcDbEntity
  8
OUTLINE
100
AcDbLine
 10
379.5
 20
-1052.000000000003
 30
0.0
 11
384.5
 21
-1049.883757344668
 31
0.0
  0
LINE
  5
3023
330
3144
100
AcDbEntity
  8
OUTLINE
100
AcDbLine
 10
379.5
 20
-1052.000000000003
 30
0.0
 11
-379.5
 21
-1052.000000000003
 31
0.0
  0
LINE
  5
3024
330
3144
100
AcDbEntity
  8
OUTLINE
100
AcDbLine
 10
-384.5
 20
-1049.883757344668
 30
0.0
 11
-379.5
 21
-1052.000000000003
 31
0.0
  0
LINE
  5
3025
330
3144
100
AcDbEntity
  8
OUTLINE
100
AcDbLine
 10
-384.5
 20
-1045.000000000003
 30
0.0
 11
-384.5
 21
-1030.000000000002
 31
0.0
  0
LINE
  5
3026
330
3144
100
AcDbEntity
  8
OUTLINE
100
AcDbLine
 10
-384.5
 20
-1049.883757344668
 30
0.0
 11
-384.5
 21
-1045.000000000003
 31
0.0
  0
LINE
  5
3027
330
3144
100
AcDbEntity
  8
OUTLINE
100
AcDbLine
 10
384.5
 20
-1045.000000000003
 30
0.0
 11
-384.5
 21
-1045.000000000003
 31
0.0
  0
LINE
  5
3028
330
3144
100
AcDbEntity
  8
OUTLINE
100
AcDbLine
 10
384.5
 20
-1049.883757344668
 30
0.0
 11
384.5
 21
-1045.000000000003
 31
0.0
  0
LINE
  5
3029
330
3144
100
AcDbEntity
  8
OUTLINE
100
AcDbLine
 10
-374.5
 20
-1030.000000000002
 30
0.0
 11
-384.5
 21
-1030.000000000002
 31
0.0
  0
LINE
  5
302A
330
3144
100
AcDbEntity
  8
OUTLINE
100
AcDbLine
 10
384.5
 20
-1030.000000000002
 30
0.0
 11
374.5
 21
-1030.000000000002
 31
0.0
  0
LINE
  5
302B
330
3144
100
AcDbEntity
  8
OUTLINE
100
AcDbLine
 10
384.5
 20
-1045.000000000003
 30
0.0
 11
384.5
 21
-1030.000000000002
 31
0.0
  0
LINE
  5
302C
330
3144
100
AcDbEntity
  8
OUTLINE
100
AcDbLine
 10
383.5000000000073
 20
-1030.000000000002
 30
0.0
 11
383.5000000000073
 21
-1029.995679474184
 31
0.0
  0
LINE
  5
302D
330
3144
100
AcDbEntity
  8
OUTLINE
100
AcDbLine
 10
398.5
 20
-1030.00000000001
 30
0.0
 11
383.5000000000073
 21
-1030.000000000002
 31
0.0
  0
LINE
  5
302E
330
3144
100
AcDbEntity
  8
OUTLINE
100
AcDbLine
 10
387.3000000000102
 20
-178.910718951246
 30
0.0
 11
387.3000000000102
 21
-165.8680706291697
 31
0.0
  0
LINE
  5
302F
330
3144
100
AcDbEntity
  8
OUTLINE
100
AcDbLine
 10
398.5000000000075
 20
-180.6344221121717
 30
0.0
 11
398.5000000000075
 21
-165.8680706291697
 31
0.0
  0
LINE
  5
3030
330
3144
100
AcDbEntity
  8
OUTLINE
100
AcDbLine
 10
387.3000000000102
 20
-165.8680706291697
 30
0.0
 11
398.5
 21
-165.8680706291697
 31
0.0
  0
LINE
  5
3031
330
3144
100
AcDbEntity
  8
OUTLINE
100
AcDbLine
 10
-387.299999999992
 20
-165.8680706291734
 30
0.0
 11
-387.299999999992
 21
-178.910718951246
 31
0.0
  0
LINE
  5
3032
330
3144
100
AcDbEntity
  8
OUTLINE
100
AcDbLine
 10
-398.5
 20
-165.8680706291734
 30
0.0
 11
-398.5
 21
-180.634422112168
 31
0.0
  0
LINE
  5
3033
330
3144
100
AcDbEntity
  8
OUTLINE
100
AcDbLine
 10
-387.299999999992
 20
-165.8680706291734
 30
0.0
 11
-398.4999999999928
 21
-165.8680706291734
 31
0.0
  0
LINE
  5
3034
330
3144
100
AcDbEntity
  8
OUTLINE
100
AcDbLine
 10
-387.299999999992
 20
-165.8680706291734
 30
0.0
 11
387.3000000000102
 21
-165.8680706291734
 31
0.0
  0
LINE
  5
3035
330
3144
100
AcDbEntity
  8
OUTLINE
100
AcDbLine
 10
387.3000000000102
 20
-165.8680706291734
 30
0.0
 11
387.3000000000102
 21
-178.910718951246
 31
0.0
  0
LINE
  5
3036
330
3144
100
AcDbEntity
  8
OUTLINE
100
AcDbLine
 10
-387.299999999992
 20
-165.8680706291734
 30
0.0
 11
-387.299999999992
 21
-178.910718951246
 31
0.0
  0
LINE
  5
3037
330
3144
100
AcDbEntity
  8
OUTLINE
100
AcDbLine
 10
-387.299999999992
 20
-178.910718951246
 30
0.0
 11
387.3000000000102
 21
-178.910718951246
 31
0.0
  0
LINE
  5
3038
330
3144
100
AcDbEntity
  8
OUTLINE
100
AcDbLine
 10
-387.299999999992
 20
-178.910718951246
 30
0.0
 11
-387.299999999992
 21
-193.7989297301856
 31
0.0
  0
LINE
  5
3039
330
3144
100
AcDbEntity
  8
OUTLINE
100
AcDbLine
 10
387.3000000000102
 20
-178.910718951246
 30
0.0
 11
387.3000000000102
 21
-193.7989297301856
 31
0.0
  0
LINE
  5
303A
330
3144
100
AcDbEntity
  8
OUTLINE
100
AcDbLine
 10
372.3000000000102
 20
-1029.264523698522
 30
0.0
 11
387.3000000000102
 21
-1029.264523698522
 31
0.0
  0
LINE
  5
303B
330
3144
100
AcDbEntity
  8
OUTLINE
100
AcDbLine
 10
372.3000000000102
 20
-1029.142664402577
 30
0.0
 11
372.3000000000102
 21
-1029.264523698522
 31
0.0
  0
LINE
  5
303C
330
3144
100
AcDbEntity
  8
OUTLINE
100
AcDbLine
 10
398.5
 20
-1030.00000000001
 30
0.0
 11
398.5
 21
-1029.751960882298
 31
0.0
  0
LINE
  5
303D
330
3144
100
AcDbEntity
  8
OUTLINE
100
AcDbLine
 10
398.5
 20
-180.6344221121717
 30
0.0
 11
398.5
 21
-1029.751960882298
 31
0.0
  0
LINE
  5
303E
330
3144
100
AcDbEntity
  8
OUTLINE
100
AcDbLine
 10
398.5
 20
-180.6344221121717
 30
0.0
 11
387.3000000000102
 21
-180.6344221121717
 31
0.0
  0
LINE
  5
303F
330
3144
100
AcDbEntity
  8
OUTLINE
100
AcDbLine
 10
387.3000000000102
 20
-193.9207890261305
 30
0.0
 11
387.3000000000102
 21
-1029.264523698522
 31
0.0
  0
LINE
  5
3040
330
3144
100
AcDbEntity
  8
OUTLINE
100
AcDbLine
 10
387.3000000000102
 20
-1029.142664402577
 30
0.0
 11
372.3000000000102
 21
-1029.142664402577
 31
0.0
  0
LINE
  5
3041
330
3144
100
AcDbEntity
  8
OUTLINE
100
AcDbLine
 10
372.3000000000102
 20
-1028.637554201089
 30
0.0
 11
-372.2999999999811
 21
-1028.637554201089
 31
0.0
  0
LINE
  5
3042
330
3144
100
AcDbEntity
  8
OUTLINE
100
AcDbLine
 10
372.3000000000102
 20
-1028.881272792975
 30
0.0
 11
-372.2999999999811
 21
-1028.881272792975
 31
0.0
  0
LINE
  5
3043
330
3144
100
AcDbEntity
  8
OUTLINE
100
AcDbLine
 10
-372.299999999992
 20
-1029.264523698522
 30
0.0
 11
-387.299999999992
 21
-1029.264523698522
 31
0.0
  0
LINE
  5
3044
330
3144
100
AcDbEntity
  8
OUTLINE
100
AcDbLine
 10
-398.4999999999928
 20
-1029.751960882294
 30
0.0
 11
-398.4999999999928
 21
-180.634422112168
 31
0.0
  0
LINE
  5
3045
330
3144
100
AcDbEntity
  8
OUTLINE
100
AcDbLine
 10
-398.4999999999928
 20
-1030.000000000014
 30
0.0
 11
-398.4999999999928
 21
-1029.751960882294
 31
0.0
  0
LINE
  5
3046
330
3144
100
AcDbEntity
  8
OUTLINE
100
AcDbLine
 10
-398.4999999999928
 20
-180.634422112168
 30
0.0
 11
-387.299999999992
 21
-180.634422112168
 31
0.0
  0
LINE
  5
3047
330
3144
100
AcDbEntity
  8
OUTLINE
100
AcDbLine
 10
-387.299999999992
 20
-1029.264523698522
 30
0.0
 11
-387.299999999992
 21
-193.9207890261305
 31
0.0
  0
LINE
  5
3048
330
3144
100
AcDbEntity
  8
OUTLINE
100
AcDbLine
 10
-387.299999999992
 20
-1029.142664402573
 30
0.0
 11
-372.299999999992
 21
-1029.142664402573
 31
0.0
  0
LINE
  5
3049
330
3144
100
AcDbEntity
  8
OUTLINE
100
AcDbLine
 10
-374.5
 20
-1030.000000000002
 30
0.0
 11
374.5
 21
-1030.000000000002
 31
0.0
  0
LINE
  5
304A
330
3144
100
AcDbEntity
  8
OUTLINE
100
AcDbLine
 10
-425.0
 20
-0.4000000000032742
 30
0.0
 11
-425.0
 21
-8.000000000002728
 31
0.0
  0
LINE
  5
304B
330
3144
100
AcDbEntity
  8
OUTLINE
100
AcDbLine
 10
-425.0
 20
-0.4000000000032742
 30
0.0
 11
-425.0
 21
-0.000000000001819
 31
0.0
  0
LINE
  5
304C
330
3144
100
AcDbEntity
  8
OUTLINE
100
AcDbLine
 10
425.0
 20
-0.4000000000032742
 30
0.0
 11
425.0
 21
-8.000000000002728
 31
0.0
  0
LINE
  5
304D
330
3144
100
AcDbEntity
  8
OUTLINE
100
AcDbLine
 10
425.0
 20
-0.000000000001819
 30
0.0
 11
425.0
 21
-0.4000000000032742
 31
0.0
  0
LINE
  5
304E
330
3144
100
AcDbEntity
  8
OUTLINE
100
AcDbLine
 10
387.0
 20
-8.000000000002728
 30
0.0
 11
387.0
 21
-139.0857864376294
 31
0.0
  0
LINE
  5
304F
330
3144
100
AcDbEntity
  8
OUTLINE
100
AcDbLine
 10
-387.0
 20
-139.0857864376294
 30
0.0
 11
-387.0
 21
-8.000000000002728
 31
0.0
  0
INSERT
  5
3050
330
3144
100
AcDbEntity
  8
DETAIL___1
  6
Continuous
100
AcDbBlockReference
  2
*X22
 10
0.0
 20
0.0
 30
0.0
1001
ACADANNOTATIVE
1000
AnnotativeData
1002
{
1070
     1
1070
     0
1002
}
1001
ACAD
1000
HATCH
1002
{
1070
    19
1000
LINE
1040
19.969
1040
0.5880014249968896
1000
R14_HATCH_DATA
1000
336A
1011
1.0
1021
0.0
1031
0.0
1011
0.0
1021
1.0
1031
0.0
1011
0.0
1021
0.0
1031
1.0
1040
0.0
1010
0.0
1020
0.0
1030
1.0
1000
LINE
1070
     0
1070
     0
1071
        2
1071
        7
1070
     0
1070
     1
1071
        6
1040
372.3000000000102
1040
-387.7207890261297
1040
156.5000000000109
1040
-387.7207890261297
1040
156.5000000000109
1040
-193.9207890261305
1040
-372.299999999992
1040
-193.9207890261305
1040
-372.299999999992
1040
-1015.608104071673
1040
372.3000000000066
1040
-1015.608104071673
1071
        0
1071
       23
1070
     0
1070
     1
1071
        4
1040
372.3000000000102
1040
-193.9207890261305
1040
156.5000000000109
1040
-193.9207890261305
1040
156.5000000000109
1040
-387.7207890261297
1040
372.3000000000102
1040
-387.7207890261297
1071
        0
1070
     0
1070
     1
1040
0.5880014249968896
1040
19.969
1070
     0
1070
     1
1040
0.5880014249968896
1040
19802.2203267384
1040
8114.222892469388
1040
-1.384598579568018
1040
2.076903172775084
1070
     0
1040
7.06366847141754
1071
        2
1040
-158.3257978302317
1040
-669.5388362522999
1040
0.0
1040
302.8833088850588
1040
-312.6422105103529
1040
0.0
1002
}
  0
INSERT
  5
3051
330
3144
100
AcDbEntity
  8
DETAIL___1
  6
Continuous
100
AcDbBlockReference
  2
*X23
 10
0.0
 20
0.0
 30
0.0
1001
ACADANNOTATIVE
1000
AnnotativeData
1002
{
1070
     1
1070
     0
1002
}
1001
ACAD
1000
HATCH
1002
{
1070
    19
1000
LINE
1040
19.969
1040
5.695183882182695
1000
R14_HATCH_DATA
1000
3370
1011
1.0
1021
0.0
1031
0.0
1011
0.0
1021
1.0
1031
0.0
1011
0.0
1021
0.0
1031
1.0
1040
0.0
1010
0.0
1020
0.0
1030
1.0
1000
LINE
1070
     0
1070
     0
1071
        2
1071
        7
1070
     0
1070
     1
1071
        6
1040
156.5000000000073
1040
-193.9207890261305
1040
-372.299999999992
1040
-193.9207890261305
1040
-372.299999999992
1040
-1015.608104071673
1040
372.3000000000066
1040
-1015.608104071673
1040
372.3000000000137
1040
-387.7207890261279
1040
156.5000000000109
1040
-387.7207890261279
1071
        0
1071
       23
1070
     0
1070
     1
1071
        4
1040
156.5000000000145
1040
-193.9207890261305
1040
156.5000000000109
1040
-387.7207890261297
1040
372.3000000000102
1040
-387.7207890261297
1040
372.3000000000102
1040
-193.9207890261305
1071
        0
1070
     0
1070
     1
1040
5.695183882182695
1040
19.969
1070
     0
1070
     1
1040
5.695183882182695
1040
19802.2203267384
1040
8114.222892469388
1040
1.384598579568018
1040
2.076903172775084
1070
     0
1040
2.581421574764084
1071
        3
1040
-134.4651911272558
1040
-384.8984286733893
1040
0.0
1040
-37.12240713554275
1040
-360.9285087717572
1040
0.0
1040
267.8780182326955
1040
-239.2901120543728
1040
0.0
1002
}
  0
LINE
  5
3052
330
3144
100
AcDbEntity
  8
OUTLINE
100
AcDbLine
 10
-386.0
 20
-139.0857864376294
 30
0.0
 11
-387.0
 21
-139.0857864376294
 31
0.0
  0
LINE
  5
3053
330
3144
100
AcDbEntity
  8
OUTLINE
100
AcDbLine
 10
386.0
 20
-139.0857864376294
 30
0.0
 11
387.0
 21
-139.0857864376294
 31
0.0
  0
LINE
  5
3054
330
3144
100
AcDbEntity
  8
OUTLINE
100
AcDbLine
 10
387.3000000000102
 20
-193.7989297301856
 30
0.0
 11
387.3000000000102
 21
-193.9207890261305
 31
0.0
  0
LINE
  5
3055
330
3144
100
AcDbEntity
  8
OUTLINE
100
AcDbLine
 10
-372.299999999992
 20
-1029.142664402573
 30
0.0
 11
-372.299999999992
 21
-1029.264523698522
 31
0.0
  0
LINE
  5
3056
330
3144
100
AcDbEntity
  8
DETAIL
100
AcDbLine
 39
50.0
 10
-372.299999999992
 20
-1015.608104071673
 30
0.0
 11
372.3000000000102
 21
-1015.608104071673
 31
0.0
  0
LINE
  5
3057
330
3144
100
AcDbEntity
  8
OUTLINE
100
AcDbLine
 39
50.0
 10
372.3000000000102
 20
-1015.608104071673
 30
0.0
 11
-372.299999999992
 21
-1015.608104071673
 31
0.0
  0
LINE
  5
3058
330
3144
100
AcDbEntity
  8
DETAIL
100
AcDbLine
 39
50.0
 10
372.3000000000102
 20
-1015.608104071673
 30
0.0
 11
372.3000000000102
 21
-193.9207890261305
 31
0.0
  0
LINE
  5
3059
330
3144
100
AcDbEntity
  8
DETAIL
100
AcDbLine
 39
50.0
 10
372.3000000000102
 20
-193.9207890261305
 30
0.0
 11
372.3000000000102
 21
-1029.142664402577
 31
0.0
  0
LINE
  5
305A
330
3144
100
AcDbEntity
  8
OUTLINE
100
AcDbLine
 39
50.0
 10
372.3000000000102
 20
-1029.142664402577
 30
0.0
 11
372.3000000000102
 21
-193.9207890261305
 31
0.0
  0
LINE
  5
305B
330
3144
100
AcDbEntity
  8
DETAIL
100
AcDbLine
 39
50.0
 10
-372.299999999992
 20
-193.9207890261305
 30
0.0
 11
372.3000000000102
 21
-193.9207890261305
 31
0.0
  0
LINE
  5
305C
330
3144
100
AcDbEntity
  8
DETAIL
100
AcDbLine
 39
50.0
 10
387.3000000000102
 20
-193.9207890261305
 30
0.0
 11
-387.299999999992
 21
-193.9207890261305
 31
0.0
  0
LINE
  5
305D
330
3144
100
AcDbEntity
  8
OUTLINE
100
AcDbLine
 39
50.0
 10
-387.299999999992
 20
-193.9207890261305
 30
0.0
 11
387.3000000000102
 21
-193.9207890261305
 31
0.0
  0
LINE
  5
305E
330
3144
100
AcDbEntity
  8
DETAIL
100
AcDbLine
 39
50.0
 10
-372.299999999992
 20
-193.9207890261305
 30
0.0
 11
-372.299999999992
 21
-1029.142664402573
 31
0.0
  0
LINE
  5
305F
330
3144
100
AcDbEntity
  8
OUTLINE
100
AcDbLine
 39
50.0
 10
-372.299999999992
 20
-1029.142664402573
 30
0.0
 11
-372.299999999992
 21
-193.9207890261305
 31
0.0
  0
LINE
  5
3060
330
3144
100
AcDbEntity
  8
SIZE
100
AcDbLine
 10
445.0
 20
-0.000000000001819
 30
0.0
 11
551.6911315252905
 21
-0.000000000001819
 31
0.0
  0
LINE
  5
3061
330
3144
100
AcDbEntity
  8
SIZE
100
AcDbLine
 10
445.0
 20
-8.000000000002728
 30
0.0
 11
551.6911315252905
 21
-8.000000000002728
 31
0.0
  0
LINE
  5
3062
330
3144
100
AcDbEntity
  8
SIZE
100
AcDbLine
 10
531.6911315252905
 20
11.99999999999818
 30
0.0
 11
531.6911315252905
 21
23.99999999999818
 31
0.0
  0
LINE
  5
3063
330
3144
100
AcDbEntity
  8
SIZE
100
AcDbLine
 10
531.6911315252905
 20
-20.00000000000273
 30
0.0
 11
531.6911315252905
 21
-90.40000000000281
 31
0.0
  0
LINE
  5
3064
330
3144
100
AcDbEntity
  8
SIZE
100
AcDbLine
 10
531.6911315252905
 20
-0.000000000001819
 30
0.0
 11
531.6911315252905
 21
-8.000000000002728
 31
0.0
  0
INSERT
  5
3065
330
3144
100
AcDbEntity
  8
SIZE
100
AcDbBlockReference
  2
_DOTBLANK
 10
531.6911315252905
 20
-0.000000000001819
 30
0.0
 41
12.0
 42
12.0
 43
12.0
 50
270.0
  0
INSERT
  5
3066
330
3144
100
AcDbEntity
  8
SIZE
100
AcDbBlockReference
  2
_DOTBLANK
 10
531.6911315252905
 20
-8.000000000002728
 30
0.0
 41
12.0
 42
12.0
 43
12.0
 50
90.0
  0
LINE
  5
3067
330
3144
100
AcDbEntity
  8
SIZE
100
AcDbLine
 10
-425.0
 20
19.99999999999818
 30
0.0
 11
-425.0
 21
298.8655437218622
 31
0.0
  0
LINE
  5
3068
330
3144
100
AcDbEntity
  8
SIZE
100
AcDbLine
 10
425.0
 20
19.59999999999672
 30
0.0
 11
425.0
 21
298.8655437218622
 31
0.0
  0
LINE
  5
3069
330
3144
100
AcDbEntity
  8
SIZE
100
AcDbLine
 10
-413.0
 20
278.8655437218622
 30
0.0
 11
413.0
 21
278.8655437218622
 31
0.0
  0
INSERT
  5
306A
330
3144
100
AcDbEntity
  8
SIZE
100
AcDbBlockReference
  2
_DOTBLANK
 10
-425.0
 20
278.8655437218622
 30
0.0
 41
12.0
 42
12.0
 43
12.0
 50
180.0
  0
INSERT
  5
306B
330
3144
100
AcDbEntity
  8
SIZE
100
AcDbBlockReference
  2
_DOTBLANK
 10
425.0
 20
278.8655437218622
 30
0.0
 41
12.0
 42
12.0
 43
12.0
  0
LINE
  5
306C
330
3144
100
AcDbEntity
  8
SIZE
100
AcDbLine
 10
-400.0
 20
32.49999999999818
 30
0.0
 11
-400.0
 21
195.0961526155295
 31
0.0
  0
LINE
  5
306D
330
3144
100
AcDbEntity
  8
SIZE
100
AcDbLine
 10
400.0
 20
32.49999999999818
 30
0.0
 11
400.0
 21
195.0961526155295
 31
0.0
  0
LINE
  5
306E
330
3144
100
AcDbEntity
  8
SIZE
100
AcDbLine
 10
-388.0
 20
175.0961526155295
 30
0.0
 11
388.0
 21
175.0961526155295
 31
0.0
  0
INSERT
  5
306F
330
3144
100
AcDbEntity
  8
SIZE
100
AcDbBlockReference
  2
_DOTBLANK
 10
-400.0
 20
175.0961526155295
 30
0.0
 41
12.0
 42
12.0
 43
12.0
 50
180.0
  0
INSERT
  5
3070
330
3144
100
AcDbEntity
  8
SIZE
100
AcDbBlockReference
  2
_DOTBLANK
 10
400.0
 20
175.0961526155295
 30
0.0
 41
12.0
 42
12.0
 43
12.0
  0
LINE
  5
3071
330
3144
100
AcDbEntity
  8
SIZE
100
AcDbLine
 10
-418.4999999999925
 20
-1030.000000000014
 30
0.0
 11
-687.4407793343815
 21
-1030.000000000013
 31
0.0
  0
LINE
  5
3072
330
3144
100
AcDbEntity
  8
SIZE
100
AcDbLine
 10
-399.5
 20
-1052.000000000003
 30
0.0
 11
-687.4407793343815
 21
-1052.000000000002
 31
0.0
  0
LINE
  5
3073
330
3144
100
AcDbEntity
  8
SIZE
100
AcDbLine
 10
-667.4407793343816
 20
-1018.000000000013
 30
0.0
 11
-667.4407793343816
 21
-1006.000000000013
 31
0.0
  0
LINE
  5
3074
330
3144
100
AcDbEntity
  8
SIZE
100
AcDbLine
 10
-667.4407793343816
 20
-1064.000000000002
 30
0.0
 11
-667.4407793343816
 21
-1189.257142857145
 31
0.0
  0
LINE
  5
3075
330
3144
100
AcDbEntity
  8
SIZE
100
AcDbLine
 10
-667.4407793343816
 20
-1030.000000000013
 30
0.0
 11
-667.4407793343816
 21
-1052.000000000002
 31
0.0
  0
INSERT
  5
3076
330
3144
100
AcDbEntity
  8
SIZE
100
AcDbBlockReference
  2
_DOTBLANK
 10
-667.4407793343816
 20
-1030.000000000013
 30
0.0
 41
12.0
 42
12.0
 43
12.0
 50
270.0
  0
INSERT
  5
3077
330
3144
100
AcDbEntity
  8
SIZE
100
AcDbBlockReference
  2
_DOTBLANK
 10
-667.4407793343816
 20
-1052.000000000002
 30
0.0
 41
12.0
 42
12.0
 43
12.0
 50
90.0
  0
LINE
  5
3078
330
3144
100
AcDbEntity
  8
SIZE
100
AcDbLine
 10
-445.0
 20
-0.000000000001819
 30
0.0
 11
-687.4407793343815
 21
-0.000000000001819
 31
0.0
  0
LINE
  5
3079
330
3144
100
AcDbEntity
  8
SIZE
100
AcDbLine
 10
-418.4999999999925
 20
-1030.000000000014
 30
0.0
 11
-687.4407793343815
 21
-1030.000000000013
 31
0.0
  0
LINE
  5
307A
330
3144
100
AcDbEntity
  8
SIZE
100
AcDbLine
 10
-667.4407793343816
 20
-12.00000000000182
 30
0.0
 11
-667.4407793343816
 21
-1018.000000000013
 31
0.0
  0
INSERT
  5
307B
330
3144
100
AcDbEntity
  8
SIZE
100
AcDbBlockReference
  2
_DOTBLANK
 10
-667.4407793343816
 20
-0.000000000001819
 30
0.0
 41
12.0
 42
12.0
 43
12.0
 50
90.0
  0
INSERT
  5
307C
330
3144
100
AcDbEntity
  8
SIZE
100
AcDbBlockReference
  2
_DOTBLANK
 10
-667.4407793343816
 20
-1030.000000000013
 30
0.0
 41
12.0
 42
12.0
 43
12.0
 50
270.0
  0
LINE
  5
307D
330
3144
100
AcDbEntity
  8
SIZE
100
AcDbLine
 10
-398.4999999999928
 20
-1050.000000000014
 30
0.0
 11
-398.4999999999928
 21
-1265.674000478014
 31
0.0
  0
LINE
  5
307E
330
3144
100
AcDbEntity
  8
SIZE
100
AcDbLine
 10
398.5
 20
-1050.00000000001
 30
0.0
 11
398.5
 21
-1265.674000478014
 31
0.0
  0
LINE
  5
307F
330
3144
100
AcDbEntity
  8
SIZE
100
AcDbLine
 10
-386.4999999999927
 20
-1245.674000478014
 30
0.0
 11
386.5
 21
-1245.674000478014
 31
0.0
  0
INSERT
  5
3080
330
3144
100
AcDbEntity
  8
SIZE
100
AcDbBlockReference
  2
_DOTBLANK
 10
-398.4999999999928
 20
-1245.674000478014
 30
0.0
 41
12.0
 42
12.0
 43
12.0
 50
180.0
  0
INSERT
  5
3081
330
3144
100
AcDbEntity
  8
SIZE
100
AcDbBlockReference
  2
_DOTBLANK
 10
398.5
 20
-1245.674000478014
 30
0.0
 41
12.0
 42
12.0
 43
12.0
  0
TEXT
  5
3082
330
3144
100
AcDbEntity
  8
SIZE
100
AcDbText
 10
-74.05714285713554
 20
-1235.674000478014
 30
0.0
 40
64.0
  1
797
 41
0.9
100
AcDbText
  0
TEXT
  5
3083
330
3144
100
AcDbEntity
  8
SIZE
100
AcDbText
 10
-677.4407793343816
 20
-1179.257142857145
 30
0.0
 40
64.0
  1
22
 50
90.0
 41
0.9
100
AcDbText
  0
TEXT
  5
3084
330
3144
100
AcDbEntity
  8
SIZE
100
AcDbText
 10
-677.4407793343816
 20
-612.050000000002
 30
0.0
 40
64.0
  1
1030
 50
90.0
 41
0.9
100
AcDbText
  0
TEXT
  5
3085
330
3144
100
AcDbEntity
  8
SIZE
100
AcDbText
 10
-74.02565180574391
 20
185.0961526155295
 30
0.0
 40
64.0
  1
800
 41
0.9
100
AcDbText
  0
TEXT
  5
3086
330
3144
100
AcDbEntity
  8
SIZE
100
AcDbText
 10
-74.02565180574391
 20
288.8655437218622
 30
0.0
 40
64.0
  1
850
 41
0.9
100
AcDbText
  0
TEXT
  5
3087
330
3144
100
AcDbEntity
  8
SIZE
100
AcDbText
 10
521.6911315252905
 20
-80.4000000000026
 30
0.0
 40
64.0
  1
8
 50
90.0
 41
0.9
100
AcDbText
  0
TEXT
  5
3088
330
3144
100
AcDbEntity
  8
NOTE
100
AcDbText
 10
-1077.595114277968
 20
113.5270950580116
 30
0.0
 40
64.0
  1
10×φ15取付穴
 41
0.9
100
AcDbText
  0
INSERT
  5
3089
330
3144
100
AcDbEntity
  8
NOTE
100
AcDbBlockReference
  2
_OPEN30
 10
-400.0
 20
-0.000000000001819
 30
0.0
 41
11.99999999999998
 42
12.0
 43
12.0
 50
312.6090116116894
1001
ACAD
1000
DSTYLE
1002
{
1070
    41
1040
12.0
1070
    42
1040
20.0
1070
    43
1040
200.0
1070
    44
1040
20.0
1070
    73
1070
     0
1070
    74
1070
     0
1070
    77
1070
     1
1070
    78
1070
     8
1070
   140
1040
64.0
1070
   147
1040
50.0
1070
   172
1070
     1
1070
   174
1070
     1
1070
   275
1070
     0
1070
   284
1070
     0
1070
   285
1070
     0
1070
   286
1070
     0
1070
   341
1005
0
1070
   342
1005
0
1002
}
  0
POLYLINE
  5
308A
330
3144
100
AcDbEntity
  8
NOTE
100
AcDb2dPolyline
 66
     1
 10
0.0
 20
0.0
 30
0.0
1001
ACAD
1000
DSTYLE
1002
{
1070
    41
1040
12.0
1070
    42
1040
20.0
1070
    43
1040
200.0
1070
    44
1040
20.0
1070
    73
1070
     0
1070
    74
1070
     0
1070
    77
1070
     1
1070
    78
1070
     8
1070
   140
1040
64.0
1070
   147
1040
50.0
1070
   172
1070
     1
1070
   174
1070
     1
1070
   275
1070
     0
1070
   284
1070
     0
1070
   285
1070
     0
1070
   286
1070
     0
1070
   341
1005
0
1070
   342
1005
0
1002
}
  0
VERTEX
  5
308B
330
308A
100
AcDbEntity
  8
NOTE
100
AcDbVertex
100
AcDb2dVertex
 10
-408.1239008361895
 20
8.831887408913644
 30
0.0
  0
VERTEX
  5
308C
330
308A
100
AcDbEntity
  8
NOTE
100
AcDbVertex
100
AcDb2dVertex
 10
-487.8693999922543
 20
95.52709505801159
 30
0.0
  0
VERTEX
  5
308D
330
308A
100
AcDbEntity
  8
NOTE
100
AcDbVertex
100
AcDb2dVertex
 10
-1077.595114277968
 20
95.52709505801159
 30
0.0
  0
SEQEND
  5
308E
330
308A
100
AcDbEntity
  8
NOTE
  0
ENDSEC
  0
SECTION
  2
OBJECTS
  0
DICTIONARY
  5
30DC
330
0
100
AcDbDictionary
281
     1
  3
ACAD_2007HEADERVARS_RT
350
32D3
  3
ACAD_COLOR
350
313A
  3
ACAD_GROUP
350
30DD
  3
ACAD_LAYOUT
350
3139
  3
ACAD_MATERIAL
350
30E0
  3
ACAD_MLEADERSTYLE
350
313D
  3
ACAD_MLINESTYLE
350
3136
  3
ACAD_PLOTSETTINGS
350
3138
  3
ACAD_PLOTSTYLENAME
350
30DE
  3
ACAD_SCALELIST
350
310A
  3
ACAD_TABLESTYLE
350
313B
  3
ACAD_VISUALSTYLE
350
30F9
  3
ACDB_RECOMPOSE_DATA
350
32D1
  3
AcDbVariableDictionary
350
32C8
  3
AcmDictionary
350
3275
  3
AMG
350
31C2
  3
DWGPROPS
350
32D2
  3
MAPISURF_MODULE
350
3242
  0
DICTIONARY
  5
329D
330
312C
100
AcDbDictionary
280
     1
281
     1
  3
ADSK_XREC_LAYER_RECONCILED
360
329E
  0
DICTIONARY
  5
329F
330
315C
100
AcDbDictionary
280
     1
281
     1
  3
ADSK_XREC_LAYER_RECONCILED
360
32A0
  0
DICTIONARY
  5
32A1
330
315D
100
AcDbDictionary
280
     1
281
     1
  3
ADSK_XREC_LAYER_RECONCILED
360
32A2
  0
DICTIONARY
  5
32A3
330
315E
100
AcDbDictionary
280
     1
281
     1
  3
ADSK_XREC_LAYER_RECONCILED
360
32A4
  0
DICTIONARY
  5
32A5
330
315F
100
AcDbDictionary
280
     1
281
     1
  3
ADSK_XREC_LAYER_RECONCILED
360
32A6
  0
DICTIONARY
  5
32A7
330
3160
100
AcDbDictionary
280
     1
281
     1
  3
ADSK_XREC_LAYER_RECONCILED
360
32A8
  0
DICTIONARY
  5
32A9
330
3162
100
AcDbDictionary
280
     1
281
     1
  3
ADSK_XREC_LAYER_RECONCILED
360
32AA
  0
DICTIONARY
  5
32AB
330
3163
100
AcDbDictionary
280
     1
281
     1
  3
ADSK_XREC_LAYER_RECONCILED
360
32AC
  0
DICTIONARY
  5
32AD
330
3164
100
AcDbDictionary
280
     1
281
     1
  3
ADSK_XREC_LAYER_RECONCILED
360
32AE
  0
DICTIONARY
  5
32AF
330
3165
100
AcDbDictionary
280
     1
281
     1
  3
ADSK_XREC_LAYER_RECONCILED
360
32B0
  0
DICTIONARY
  5
32B1
330
3166
100
AcDbDictionary
280
     1
281
     1
  3
ADSK_XREC_LAYER_RECONCILED
360
32B2
  0
DICTIONARY
  5
32B3
330
3167
100
AcDbDictionary
280
     1
281
     1
  3
ADSK_XREC_LAYER_RECONCILED
360
32B4
  0
DICTIONARY
  5
32B5
330
3168
100
AcDbDictionary
280
     1
281
     1
  3
ADSK_XREC_LAYER_RECONCILED
360
32B6
  0
DICTIONARY
  5
32B7
330
3144
100
AcDbDictionary
280
     1
281
     1
  3
ACAD_INDEX
360
32B8
  0
DICTIONARY
  5
32D3
102
{ACAD_REACTORS
330
30DC
102
}
330
30DC
100
AcDbDictionary
281
     1
  3
DIMARCSYM
350
32D4
  3
DIMLTEX1
350
32D6
  3
DIMLTEX2
350
32D7
  3
DIMLTYPE
350
32D5
  0
DICTIONARY
  5
313A
102
{ACAD_REACTORS
330
30DC
102
}
330
30DC
100
AcDbDictionary
281
     1
  0
DICTIONARY
  5
30DD
102
{ACAD_REACTORS
330
30DC
102
}
330
30DC
100
AcDbDictionary
281
     1
  0
DICTIONARY
  5
3139
102
{ACAD_REACTORS
330
30DC
102
}
330
30DC
100
AcDbDictionary
281
     1
  3
Model
350
3147
  3
レイアウト1
350
3143
  0
DICTIONARY
  5
30E0
102
{ACAD_REACTORS
330
30DC
102
}
330
30DC
100
AcDbDictionary
281
     1
  3
ByBlock
350
30E9
  3
ByLayer
350
30E1
  3
Global
350
30F1
  0
DICTIONARY
  5
313D
102
{ACAD_REACTORS
330
30DC
102
}
330
30DC
100
AcDbDictionary
281
     1
  3
Standard
350
313E
  0
DICTIONARY
  5
3136
102
{ACAD_REACTORS
330
30DC
102
}
330
30DC
100
AcDbDictionary
281
     1
  3
Standard
350
3137
  0
DICTIONARY
  5
3138
102
{ACAD_REACTORS
330
30DC
102
}
330
30DC
100
AcDbDictionary
281
     1
  0
ACDBDICTIONARYWDFLT
  5
30DE
102
{ACAD_REACTORS
330
30DC
102
}
330
30DC
100
AcDbDictionary
281
     1
  3
Normal
350
30DF
100
AcDbDictionaryWithDefault
340
30DF
  0
DICTIONARY
  5
310A
102
{ACAD_REACTORS
330
30DC
102
}
330
30DC
100
AcDbDictionary
281
     1
  3
A0
350
310B
  3
A1
350
310C
  3
A2
350
310D
  3
A3
350
310E
  3
A4
350
310F
  3
A5
350
3110
  3
A6
350
3111
  3
A7
350
3112
  3
A8
350
3113
  3
A9
350
3114
  3
B0
350
3115
  3
B1
350
3116
  3
B2
350
3117
  3
B3
350
3118
  3
B4
350
3119
  3
B5
350
311A
  3
B6
350
311B
  3
B7
350
311C
  3
B8
350
311D
  3
B9
350
311E
  3
C0
350
311F
  3
C1
350
3120
  3
C2
350
3121
  3
C3
350
3122
  3
C4
350
3123
  3
C5
350
3124
  3
C6
350
3125
  3
C7
350
3126
  3
C8
350
3127
  3
C9
350
3128
  3
D0
350
3129
  3
D1
350
312A
  3
D2
350
312B
  0
DICTIONARY
  5
313B
102
{ACAD_REACTORS
330
30DC
102
}
330
30DC
100
AcDbDictionary
281
     1
  3
Standard
350
313C
  0
DICTIONARY
  5
30F9
102
{ACAD_REACTORS
330
30DC
102
}
330
30DC
100
AcDbDictionary
281
     1
  3
2dWireframe
350
30FF
  3
3D Hidden
350
3101
  3
3dWireframe
350
3100
  3
Basic
350
30FE
  3
Brighten
350
3105
  3
ColorChange
350
3109
  3
Conceptual
350
3102
  3
Dim
350
3104
  3
Facepattern
350
3108
  3
Flat
350
30FA
  3
FlatWithEdges
350
30FB
  3
Gouraud
350
30FC
  3
GouraudWithEdges
350
30FD
  3
Linepattern
350
3107
  3
Realistic
350
3103
  3
Thicken
350
3106
  0
XRECORD
  5
32D1
102
{ACAD_REACTORS
330
30DC
102
}
330
30DC
100
AcDbXrecord
280
     1
 90
        1
330
313C
  0
DICTIONARY
  5
32C8
102
{ACAD_REACTORS
330
30DC
102
}
330
30DC
100
AcDbDictionary
281
     1
  3
CANNOSCALE
350
32CB
  3
CMLEADERSTYLE
350
32CA
  3
CTABLESTYLE
350
32C9
  3
DIMASSOC
350
32CE
  3
INDEXCTL
350
32CD
  3
SORTENTS
350
32CC
  0
DICTIONARY
  5
3275
102
{ACAD_REACTORS
330
30DC
102
}
330
30DC
100
AcDbDictionary
281
     1
  3
AcmStdDictionary
350
3283
  0
DICTIONARY
  5
31C2
102
{ACAD_REACTORS
330
30DC
102
}
330
30DC
100
AcDbDictionary
281
     1
  3
AcMgSettings
350
31C3
  0
XRECORD
  5
32D2
102
{ACAD_REACTORS
330
30DC
102
}
330
30DC
100
AcDbXrecord
280
     1
  1
DWGPROPS COOKIE
  2

  3

  4

  6

  7

  8
A090053
  9

300
AmdtFileType=84
301
=
302
=
303
=
304
=
305
=
306
=
307
=
308
=
309
=
 40
1.043628935185185
 41
2452321.396199653
 42
2456213.409787593
  1

 90
        1
  0
XRECORD
  5
329E
102
{ACAD_REACTORS
330
329D
102
}
330
329D
100
AcDbXrecord
280
     1
290
     1
  0
XRECORD
  5
32A0
102
{ACAD_REACTORS
330
329F
102
}
330
329F
100
AcDbXrecord
280
     1
290
     1
  0
XRECORD
  5
32A2
102
{ACAD_REACTORS
330
32A1
102
}
330
32A1
100
AcDbXrecord
280
     1
290
     1
  0
XRECORD
  5
32A4
102
{ACAD_REACTORS
330
32A3
102
}
330
32A3
100
AcDbXrecord
280
     1
290
     1
  0
XRECORD
  5
32A6
102
{ACAD_REACTORS
330
32A5
102
}
330
32A5
100
AcDbXrecord
280
     1
290
     1
  0
XRECORD
  5
32A8
102
{ACAD_REACTORS
330
32A7
102
}
330
32A7
100
AcDbXrecord
280
     1
290
     1
  0
XRECORD
  5
32AA
102
{ACAD_REACTORS
330
32A9
102
}
330
32A9
100
AcDbXrecord
280
     1
290
     1
  0
XRECORD
  5
32AC
102
{ACAD_REACTORS
330
32AB
102
}
330
32AB
100
AcDbXrecord
280
     1
290
     1
  0
XRECORD
  5
32AE
102
{ACAD_REACTORS
330
32AD
102
}
330
32AD
100
AcDbXrecord
280
     1
290
     1
  0
XRECORD
  5
32B0
102
{ACAD_REACTORS
330
32AF
102
}
330
32AF
100
AcDbXrecord
280
     1
290
     1
  0
XRECORD
  5
32B2
102
{ACAD_REACTORS
330
32B1
102
}
330
32B1
100
AcDbXrecord
280
     1
290
     1
  0
XRECORD
  5
32B4
102
{ACAD_REACTORS
330
32B3
102
}
330
32B3
100
AcDbXrecord
280
     1
290
     1
  0
XRECORD
  5
32B6
102
{ACAD_REACTORS
330
32B5
102
}
330
32B5
100
AcDbXrecord
280
     1
290
     1
  0
DICTIONARY
  5
32B8
102
{ACAD_REACTORS
330
32B7
102
}
330
32B7
100
AcDbDictionary
281
     1
  3
*A1
350
32B9
  0
XRECORD
  5
32D4
102
{ACAD_REACTORS
330
32D3
102
}
330
32D3
100
AcDbXrecord
280
     1
 70
     1
  0
XRECORD
  5
32D6
102
{ACAD_REACTORS
330
32D3
102
}
330
32D3
100
AcDbXrecord
280
     1
340
3132
  0
XRECORD
  5
32D7
102
{ACAD_REACTORS
330
32D3
102
}
330
32D3
100
AcDbXrecord
280
     1
340
3132
  0
XRECORD
  5
32D5
102
{ACAD_REACTORS
330
32D3
102
}
330
32D3
100
AcDbXrecord
280
     1
340
3132
  0
LAYOUT
  5
3147
102
{ACAD_XDICTIONARY
360
32DE
102
}
102
{ACAD_REACTORS
330
3139
102
}
330
3139
100
AcDbPlotSettings
  1

  2
自動 EPSON LP-9600S (W2450527 上)
  4

  6

 40
0.0
 41
0.0
 42
0.0
 43
0.0
 44
0.0
 45
0.0
 46
0.0
 47
0.0
 48
0.0
 49
0.0
140
0.0
141
0.0
142
1.0
143
1.0
 70
  1712
 72
     0
 73
     0
 74
     0
  7

 75
     0
147
1.0
148
0.0
149
0.0
100
AcDbLayout
  1
Model
 70
     1
 71
     0
 10
0.0
 20
0.0
 11
12.0
 21
9.0
 12
0.0
 22
0.0
 32
0.0
 14
0.0
 24
0.0
 34
0.0
 15
0.0
 25
0.0
 35
0.0
146
0.0
 13
0.0
 23
0.0
 33
0.0
 16
1.0
 26
0.0
 36
0.0
 17
0.0
 27
1.0
 37
0.0
 76
     0
330
3144
331
3148
  0
LAYOUT
  5
3143
102
{ACAD_XDICTIONARY
360
32DC
102
}
102
{ACAD_REACTORS
330
3139
102
}
330
3139
100
AcDbPlotSettings
  1

  2
自動 EPSON LP-9600S (W2450527 上)
  4

  6

 40
0.0
 41
0.0
 42
0.0
 43
0.0
 44
0.0
 45
0.0
 46
0.0
 47
0.0
 48
0.0
 49
0.0
140
0.0
141
0.0
142
1.0
143
1.0
 70
   688
 72
     0
 73
     0
 74
     5
  7

 75
    16
147
1.0
148
0.0
149
0.0
100
AcDbLayout
  1
レイアウト1
 70
     1
 71
     1
 10
0.0
 20
0.0
 11
12.0
 21
9.0
 12
0.0
 22
0.0
 32
0.0
 14
1.000000000000000E+20
 24
1.000000000000000E+20
 34
1.000000000000000E+20
 15
-1.000000000000000E+20
 25
-1.000000000000000E+20
 35
-1.000000000000000E+20
146
0.0
 13
0.0
 23
0.0
 33
0.0
 16
1.0
 26
0.0
 36
0.0
 17
0.0
 27
1.0
 37
0.0
 76
     0
330
3140
  0
MATERIAL
  5
30E9
102
{ACAD_XDICTIONARY
360
30EA
102
}
102
{ACAD_REACTORS
330
30E0
102
}
330
30E0
100
AcDbMaterial
  1
ByBlock
 72
     0
 43
0.0208333333333333
 43
0.0
 43
0.0
 43
0.0
 43
0.0
 43
0.0208333333333333
 43
0.0
 43
0.0
 43
0.0
 43
0.0
 43
1.0
 43
0.0
 43
0.0
 43
0.0
 43
0.0
 43
1.0
 77
     0
 47
0.0208333333333333
 47
0.0
 47
0.0
 47
0.0
 47
0.0
 47
0.0208333333333333
 47
0.0
 47
0.0
 47
0.0
 47
0.0
 47
1.0
 47
0.0
 47
0.0
 47
0.0
 47
0.0
 47
1.0
171
     0
 49
0.0208333333333333
 49
0.0
 49
0.0
 49
0.0
 49
0.0
 49
0.0208333333333333
 49
0.0
 49
0.0
 49
0.0
 49
0.0
 49
1.0
 49
0.0
 49
0.0
 49
0.0
 49
0.0
 49
1.0
175
     0
142
0.0208333333333333
142
0.0
142
0.0
142
0.0
142
0.0
142
0.0208333333333333
142
0.0
142
0.0
142
0.0
142
0.0
142
1.0
142
0.0
142
0.0
142
0.0
142
0.0
142
1.0
179
     0
144
0.0208333333333333
144
0.0
144
0.0
144
0.0
144
0.0
144
0.0208333333333333
144
0.0
144
0.0
144
0.0
144
0.0
144
1.0
144
0.0
144
0.0
144
0.0
144
0.0
144
1.0
147
0.0208333333333333
147
0.0
147
0.0
147
0.0
147
0.0
147
0.0208333333333333
147
0.0
147
0.0
147
0.0
147
0.0
147
1.0
147
0.0
147
0.0
147
0.0
147
0.0
147
1.0
  0
MATERIAL
  5
30E1
102
{ACAD_XDICTIONARY
360
30E2
102
}
102
{ACAD_REACTORS
330
30E0
102
}
330
30E0
100
AcDbMaterial
  1
ByLayer
 72
     0
 43
0.0208333333333333
 43
0.0
 43
0.0
 43
0.0
 43
0.0
 43
0.0208333333333333
 43
0.0
 43
0.0
 43
0.0
 43
0.0
 43
1.0
 43
0.0
 43
0.0
 43
0.0
 43
0.0
 43
1.0
 77
     0
 47
0.0208333333333333
 47
0.0
 47
0.0
 47
0.0
 47
0.0
 47
0.0208333333333333
 47
0.0
 47
0.0
 47
0.0
 47
0.0
 47
1.0
 47
0.0
 47
0.0
 47
0.0
 47
0.0
 47
1.0
171
     0
 49
0.0208333333333333
 49
0.0
 49
0.0
 49
0.0
 49
0.0
 49
0.0208333333333333
 49
0.0
 49
0.0
 49
0.0
 49
0.0
 49
1.0
 49
0.0
 49
0.0
 49
0.0
 49
0.0
 49
1.0
175
     0
142
0.0208333333333333
142
0.0
142
0.0
142
0.0
142
0.0
142
0.0208333333333333
142
0.0
142
0.0
142
0.0
142
0.0
142
1.0
142
0.0
142
0.0
142
0.0
142
0.0
142
1.0
179
     0
144
0.0208333333333333
144
0.0
144
0.0
144
0.0
144
0.0
144
0.0208333333333333
144
0.0
144
0.0
144
0.0
144
0.0
144
1.0
144
0.0
144
0.0
144
0.0
144
0.0
144
1.0
147
0.0208333333333333
147
0.0
147
0.0
147
0.0
147
0.0
147
0.0208333333333333
147
0.0
147
0.0
147
0.0
147
0.0
147
1.0
147
0.0
147
0.0
147
0.0
147
0.0
147
1.0
  0
MATERIAL
  5
30F1
102
{ACAD_XDICTIONARY
360
30F2
102
}
102
{ACAD_REACTORS
330
30E0
102
}
330
30E0
100
AcDbMaterial
  1
Global
 72
     0
 43
0.0208333333333333
 43
0.0
 43
0.0
 43
0.0
 43
0.0
 43
0.0208333333333333
 43
0.0
 43
0.0
 43
0.0
 43
0.0
 43
1.0
 43
0.0
 43
0.0
 43
0.0
 43
0.0
 43
1.0
 77
     0
 47
0.0208333333333333
 47
0.0
 47
0.0
 47
0.0
 47
0.0
 47
0.0208333333333333
 47
0.0
 47
0.0
 47
0.0
 47
0.0
 47
1.0
 47
0.0
 47
0.0
 47
0.0
 47
0.0
 47
1.0
171
     0
 49
0.0208333333333333
 49
0.0
 49
0.0
 49
0.0
 49
0.0
 49
0.0208333333333333
 49
0.0
 49
0.0
 49
0.0
 49
0.0
 49
1.0
 49
0.0
 49
0.0
 49
0.0
 49
0.0
 49
1.0
175
     0
142
0.0208333333333333
142
0.0
142
0.0
142
0.0
142
0.0
142
0.0208333333333333
142
0.0
142
0.0
142
0.0
142
0.0
142
1.0
142
0.0
142
0.0
142
0.0
142
0.0
142
1.0
179
     0
144
0.0208333333333333
144
0.0
144
0.0
144
0.0
144
0.0
144
0.0208333333333333
144
0.0
144
0.0
144
0.0
144
0.0
144
1.0
144
0.0
144
0.0
144
0.0
144
0.0
144
1.0
147
0.0208333333333333
147
0.0
147
0.0
147
0.0
147
0.0
147
0.0208333333333333
147
0.0
147
0.0
147
0.0
147
0.0
147
1.0
147
0.0
147
0.0
147
0.0
147
0.0
147
1.0
  0
MLEADERSTYLE
  5
313E
102
{ACAD_REACTORS
330
313D
102
}
330
313D
100
AcDbMLeaderStyle
170
     2
171
     1
172
     0
 90
        2
 40
0.0
 41
0.0
173
     1
 91
-1056964608
340
3132
 92
       -2
290
     1
 42
0.09
291
     1
 43
0.36
  3
Standard
 44
0.18
300

342
312D
174
     1
178
     6
175
     1
176
     0
 93
-1056964608
 45
0.18
292
     0
297
     0
 46
0.18
 94
-1056964608
 47
1.0
 49
1.0
140
1.0
293
     1
141
0.0
294
     1
177
     0
142
1.0
295
     0
296
     0
143
0.125
1001
ACAD_MLEADERVER
1070
     2
  0
MLINESTYLE
  5
3137
102
{ACAD_REACTORS
330
3136
102
}
330
3136
100
AcDbMlineStyle
  2
STANDARD
 70
     0
  3

 62
   256
 51
90.0
 52
90.0
 71
     2
 49
0.5
 62
   256
  6
BYLAYER
 49
-0.5
 62
   256
  6
BYLAYER
  0
ACDBPLACEHOLDER
  5
30DF
102
{ACAD_REACTORS
330
30DE
102
}
330
30DE
  0
SCALE
  5
310B
102
{ACAD_REACTORS
330
310A
102
}
330
310A
100
AcDbScale
 70
     0
300
1:1
140
1.0
141
1.0
290
     1
  0
SCALE
  5
310C
102
{ACAD_REACTORS
330
310A
102
}
330
310A
100
AcDbScale
 70
     0
300
1:2
140
1.0
141
2.0
290
     0
  0
SCALE
  5
310D
102
{ACAD_REACTORS
330
310A
102
}
330
310A
100
AcDbScale
 70
     0
300
1:4
140
1.0
141
4.0
290
     0
  0
SCALE
  5
310E
102
{ACAD_REACTORS
330
310A
102
}
330
310A
100
AcDbScale
 70
     0
300
1:5
140
1.0
141
5.0
290
     0
  0
SCALE
  5
310F
102
{ACAD_REACTORS
330
310A
102
}
330
310A
100
AcDbScale
 70
     0
300
1:8
140
1.0
141
8.0
290
     0
  0
SCALE
  5
3110
102
{ACAD_REACTORS
330
310A
102
}
330
310A
100
AcDbScale
 70
     0
300
1:10
140
1.0
141
10.0
290
     0
  0
SCALE
  5
3111
102
{ACAD_REACTORS
330
310A
102
}
330
310A
100
AcDbScale
 70
     0
300
1:16
140
1.0
141
16.0
290
     0
  0
SCALE
  5
3112
102
{ACAD_REACTORS
330
310A
102
}
330
310A
100
AcDbScale
 70
     0
300
1:20
140
1.0
141
20.0
290
     0
  0
SCALE
  5
3113
102
{ACAD_REACTORS
330
310A
102
}
330
310A
100
AcDbScale
 70
     0
300
1:30
140
1.0
141
30.0
290
     0
  0
SCALE
  5
3114
102
{ACAD_REACTORS
330
310A
102
}
330
310A
100
AcDbScale
 70
     0
300
1:40
140
1.0
141
40.0
290
     0
  0
SCALE
  5
3115
102
{ACAD_REACTORS
330
310A
102
}
330
310A
100
AcDbScale
 70
     0
300
1:50
140
1.0
141
50.0
290
     0
  0
SCALE
  5
3116
102
{ACAD_REACTORS
330
310A
102
}
330
310A
100
AcDbScale
 70
     0
300
1:100
140
1.0
141
100.0
290
     0
  0
SCALE
  5
3117
102
{ACAD_REACTORS
330
310A
102
}
330
310A
100
AcDbScale
 70
     0
300
2:1
140
2.0
141
1.0
290
     0
  0
SCALE
  5
3118
102
{ACAD_REACTORS
330
310A
102
}
330
310A
100
AcDbScale
 70
     0
300
4:1
140
4.0
141
1.0
290
     0
  0
SCALE
  5
3119
102
{ACAD_REACTORS
330
310A
102
}
330
310A
100
AcDbScale
 70
     0
300
8:1
140
8.0
141
1.0
290
     0
  0
SCALE
  5
311A
102
{ACAD_REACTORS
330
310A
102
}
330
310A
100
AcDbScale
 70
     0
300
10:1
140
10.0
141
1.0
290
     0
  0
SCALE
  5
311B
102
{ACAD_REACTORS
330
310A
102
}
330
310A
100
AcDbScale
 70
     0
300
100:1
140
100.0
141
1.0
290
     0
  0
SCALE
  5
311C
102
{ACAD_REACTORS
330
310A
102
}
330
310A
100
AcDbScale
 70
     0
300
1/128" = 1'-0"
140
0.0078125
141
12.0
290
     0
  0
SCALE
  5
311D
102
{ACAD_REACTORS
330
310A
102
}
330
310A
100
AcDbScale
 70
     0
300
1/64" = 1'-0"
140
0.015625
141
12.0
290
     0
  0
SCALE
  5
311E
102
{ACAD_REACTORS
330
310A
102
}
330
310A
100
AcDbScale
 70
     0
300
1/32" = 1'-0"
140
0.03125
141
12.0
290
     0
  0
SCALE
  5
311F
102
{ACAD_REACTORS
330
310A
102
}
330
310A
100
AcDbScale
 70
     0
300
1/16" = 1'-0"
140
0.0625
141
12.0
290
     0
  0
SCALE
  5
3120
102
{ACAD_REACTORS
330
310A
102
}
330
310A
100
AcDbScale
 70
     0
300
3/32" = 1'-0"
140
0.09375
141
12.0
290
     0
  0
SCALE
  5
3121
102
{ACAD_REACTORS
330
310A
102
}
330
310A
100
AcDbScale
 70
     0
300
1/8" = 1'-0"
140
0.125
141
12.0
290
     0
  0
SCALE
  5
3122
102
{ACAD_REACTORS
330
310A
102
}
330
310A
100
AcDbScale
 70
     0
300
3/16" = 1'-0"
140
0.1875
141
12.0
290
     0
  0
SCALE
  5
3123
102
{ACAD_REACTORS
330
310A
102
}
330
310A
100
AcDbScale
 70
     0
300
1/4" = 1'-0"
140
0.25
141
12.0
290
     0
  0
SCALE
  5
3124
102
{ACAD_REACTORS
330
310A
102
}
330
310A
100
AcDbScale
 70
     0
300
3/8" = 1'-0"
140
0.375
141
12.0
290
     0
  0
SCALE
  5
3125
102
{ACAD_REACTORS
330
310A
102
}
330
310A
100
AcDbScale
 70
     0
300
1/2" = 1'-0"
140
0.5
141
12.0
290
     0
  0
SCALE
  5
3126
102
{ACAD_REACTORS
330
310A
102
}
330
310A
100
AcDbScale
 70
     0
300
3/4" = 1'-0"
140
0.75
141
12.0
290
     0
  0
SCALE
  5
3127
102
{ACAD_REACTORS
330
310A
102
}
330
310A
100
AcDbScale
 70
     0
300
1" = 1'-0"
140
1.0
141
12.0
290
     0
  0
SCALE
  5
3128
102
{ACAD_REACTORS
330
310A
102
}
330
310A
100
AcDbScale
 70
     0
300
1-1/2" = 1'-0"
140
1.5
141
12.0
290
     0
  0
SCALE
  5
3129
102
{ACAD_REACTORS
330
310A
102
}
330
310A
100
AcDbScale
 70
     0
300
3" = 1'-0"
140
3.0
141
12.0
290
     0
  0
SCALE
  5
312A
102
{ACAD_REACTORS
330
310A
102
}
330
310A
100
AcDbScale
 70
     0
300
6" = 1'-0"
140
6.0
141
12.0
290
     0
  0
SCALE
  5
312B
102
{ACAD_REACTORS
330
310A
102
}
330
310A
100
AcDbScale
 70
     0
300
1'-0" = 1'-0"
140
12.0
141
12.0
290
     0
  0
TABLESTYLE
  5
313C
102
{ACAD_XDICTIONARY
360
32CF
102
}
102
{ACAD_REACTORS
330
313B
102
}
330
313B
100
AcDbTableStyle
  3
Standard
 70
     0
 71
     0
 40
0.06
 41
0.06
280
     0
281
     0
  7
STANDARD
140
0.18
170
     2
 62
     0
 63
     7
283
     0
274
    -2
284
     1
 64
     0
275
    -2
285
     1
 65
     0
276
    -2
286
     1
 66
     0
277
    -2
287
     1
 67
     0
278
    -2
288
     1
 68
     0
279
    -2
289
     1
 69
     0
  7
STANDARD
140
0.25
170
     5
 62
     0
 63
     7
283
     0
274
    -2
284
     1
 64
     0
275
    -2
285
     1
 65
     0
276
    -2
286
     1
 66
     0
277
    -2
287
     1
 67
     0
278
    -2
288
     1
 68
     0
279
    -2
289
     1
 69
     0
  7
STANDARD
140
0.18
170
     5
 62
     0
 63
     7
283
     0
274
    -2
284
     1
 64
     0
275
    -2
285
     1
 65
     0
276
    -2
286
     1
 66
     0
277
    -2
287
     1
 67
     0
278
    -2
288
     1
 68
     0
279
    -2
289
     1
 69
     0
  0
VISUALSTYLE
  5
30FF
102
{ACAD_REACTORS
330
30F9
102
}
330
30F9
100
AcDbVisualStyle
  2
2dWireframe
 70
     4
 71
     0
 72
     2
 73
     0
 90
        0
 40
-0.6
 41
-30.0
 62
     5
 63
     7
 74
     1
 91
        4
 64
     7
 65
   257
 75
     1
175
     1
 42
1.0
 92
        0
 66
   257
 43
1.0
 76
     1
 77
     6
 78
     2
 67
     7
 79
     5
170
     0
171
     0
290
     0
174
     0
 93
        1
 44
0.0
173
     0
291
     0
 45
0.0
1001
ACAD
1000
AcDbSavedByObjectVersion
1070
     0
  0
VISUALSTYLE
  5
3101
102
{ACAD_REACTORS
330
30F9
102
}
330
30F9
100
AcDbVisualStyle
  2
3D Hidden
 70
     6
 71
     1
 72
     2
 73
     2
 90
        0
 40
-0.6
 41
-30.0
 62
     5
 63
     7
 74
     2
 91
        2
 64
     7
 65
   257
 75
     2
175
     1
 42
40.0
 92
        0
 66
   257
 43
1.0
 76
     1
 77
     6
 78
     2
 67
     7
 79
     3
170
     0
171
     0
290
     0
174
     0
 93
        1
 44
0.0
173
     0
291
     0
 45
0.0
1001
ACAD
1000
AcDbSavedByObjectVersion
1070
     0
  0
VISUALSTYLE
  5
3100
102
{ACAD_REACTORS
330
30F9
102
}
330
30F9
100
AcDbVisualStyle
  2
3dWireframe
 70
     5
 71
     0
 72
     2
 73
     0
 90
        0
 40
-0.6
 41
-30.0
 62
     5
 63
     7
 74
     1
 91
        4
 64
     7
 65
   257
 75
     1
175
     1
 42
1.0
 92
        0
 66
   257
 43
1.0
 76
     1
 77
     6
 78
     2
 67
     7
 79
     5
170
     0
171
     0
290
     0
174
     0
 93
        1
 44
0.0
173
     0
291
     0
 45
0.0
1001
ACAD
1000
AcDbSavedByObjectVersion
1070
     0
  0
VISUALSTYLE
  5
30FE
102
{ACAD_REACTORS
330
30F9
102
}
330
30F9
100
AcDbVisualStyle
  2
Basic
 70
     7
 71
     1
 72
     0
 73
     1
 90
        0
 40
-0.6
 41
-30.0
 62
     5
 63
     7
 74
     0
 91
        4
 64
     7
 65
   257
 75
     1
175
     1
 42
1.0
 92
        8
 66
     7
 43
1.0
 76
     1
 77
     6
 78
     2
 67
     7
 79
     5
170
     0
171
     0
290
     0
174
     0
 93
        1
 44
0.0
173
     0
291
     1
 45
0.0
1001
ACAD
1000
AcDbSavedByObjectVersion
1070
     0
  0
VISUALSTYLE
  5
3105
102
{ACAD_REACTORS
330
30F9
102
}
330
30F9
100
AcDbVisualStyle
  2
Brighten
 70
    12
 71
     2
 72
     2
 73
     0
 90
        0
 40
-0.6
 41
-30.0
 62
     5
 63
     7
 74
     1
 91
        4
 64
     7
 65
   257
 75
     1
175
     1
 42
1.0
 92
        8
 66
     7
 43
1.0
 76
     1
 77
     6
 78
     2
 67
     7
 79
     5
170
     0
171
     0
290
     0
174
     0
 93
        1
 44
50.0
173
     0
291
     1
 45
0.0
1001
ACAD
1000
AcDbSavedByObjectVersion
1070
     0
  0
VISUALSTYLE
  5
3109
102
{ACAD_REACTORS
330
30F9
102
}
330
30F9
100
AcDbVisualStyle
  2
ColorChange
 70
    16
 71
     2
 72
     2
 73
     3
 90
        0
 40
-0.6
 41
-30.0
 62
     5
 63
     8
 74
     1
 91
        4
 64
     7
 65
   257
 75
     1
175
     1
 42
1.0
 92
        8
 66
     8
 43
1.0
 76
     1
 77
     6
 78
     2
 67
     7
 79
     5
170
     0
171
     0
290
     0
174
     0
 93
        1
 44
0.0
173
     0
291
     1
 45
0.0
1001
ACAD
1000
AcDbSavedByObjectVersion
1070
     0
  0
VISUALSTYLE
  5
3102
102
{ACAD_REACTORS
330
30F9
102
}
330
30F9
100
AcDbVisualStyle
  2
Conceptual
 70
     9
 71
     3
 72
     2
 73
     0
 90
        0
 40
-0.6
 41
-30.0
 62
     5
 63
     7
 74
     2
 91
        2
 64
     7
 65
   257
 75
     1
175
     1
 42
40.0
 92
        8
 66
     7
 43
1.0
 76
     1
 77
     6
 78
     2
 67
     7
 79
     3
170
     0
171
     0
290
     0
174
     0
 93
        1
 44
0.0
173
     0
291
     0
 45
0.0
1001
ACAD
1000
AcDbSavedByObjectVersion
1070
     0
  0
VISUALSTYLE
  5
3104
102
{ACAD_REACTORS
330
30F9
102
}
330
30F9
100
AcDbVisualStyle
  2
Dim
 70
    11
 71
     2
 72
     2
 73
     0
 90
        0
 40
-0.6
 41
-30.0
 62
     5
 63
     7
 74
     1
 91
        4
 64
     7
 65
   257
 75
     1
175
     1
 42
1.0
 92
        8
 66
     7
 43
1.0
 76
     1
 77
     6
 78
     2
 67
     7
 79
     5
170
     0
171
     0
290
     0
174
     0
 93
        1
 44
-50.0
173
     0
291
     1
 45
0.0
1001
ACAD
1000
AcDbSavedByObjectVersion
1070
     0
  0
VISUALSTYLE
  5
3108
102
{ACAD_REACTORS
330
30F9
102
}
330
30F9
100
AcDbVisualStyle
  2
Facepattern
 70
    15
 71
     2
 72
     2
 73
     0
 90
        0
 40
-0.6
 41
-30.0
 62
     5
 63
     7
 74
     1
 91
        4
 64
     7
 65
   257
 75
     1
175
     1
 42
1.0
 92
        8
 66
     7
 43
1.0
 76
     1
 77
     6
 78
     2
 67
     7
 79
     5
170
     0
171
     0
290
     0
174
     0
 93
        1
 44
0.0
173
     0
291
     1
 45
0.0
1001
ACAD
1000
AcDbSavedByObjectVersion
1070
     0
  0
VISUALSTYLE
  5
30FA
102
{ACAD_REACTORS
330
30F9
102
}
330
30F9
100
AcDbVisualStyle
  2
Flat
 70
     0
 71
     2
 72
     1
 73
     1
 90
        2
 40
-0.6
 41
30.0
 62
     5
 63
     7
 74
     0
 91
        4
 64
     7
 65
   257
 75
     1
175
     1
 42
1.0
 92
        8
 66
     7
 43
1.0
 76
     1
 77
     6
 78
     2
 67
     7
 79
     5
170
     0
171
     0
290
     0
174
     0
 93
       13
 44
0.0
173
     0
291
     1
 45
0.0
1001
ACAD
1000
AcDbSavedByObjectVersion
1070
     0
  0
VISUALSTYLE
  5
30FB
102
{ACAD_REACTORS
330
30F9
102
}
330
30F9
100
AcDbVisualStyle
  2
FlatWithEdges
 70
     1
 71
     2
 72
     1
 73
     1
 90
        2
 40
-0.6
 41
30.0
 62
     5
 63
     7
 74
     1
 91
        4
 64
     7
 65
   257
 75
     1
175
     1
 42
1.0
 92
        0
 66
   257
 43
1.0
 76
     1
 77
     6
 78
     2
 67
     7
 79
     5
170
     0
171
     0
290
     0
174
     0
 93
       13
 44
0.0
173
     0
291
     1
 45
0.0
1001
ACAD
1000
AcDbSavedByObjectVersion
1070
     0
  0
VISUALSTYLE
  5
30FC
102
{ACAD_REACTORS
330
30F9
102
}
330
30F9
100
AcDbVisualStyle
  2
Gouraud
 70
     2
 71
     2
 72
     2
 73
     1
 90
        2
 40
-0.6
 41
30.0
 62
     5
 63
     7
 74
     0
 91
        4
 64
     7
 65
   257
 75
     1
175
     1
 42
1.0
 92
        0
 66
     7
 43
1.0
 76
     1
 77
     6
 78
     2
 67
     7
 79
     5
170
     0
171
     0
290
     0
174
     0
 93
       13
 44
0.0
173
     0
291
     1
 45
0.0
1001
ACAD
1000
AcDbSavedByObjectVersion
1070
     0
  0
VISUALSTYLE
  5
30FD
102
{ACAD_REACTORS
330
30F9
102
}
330
30F9
100
AcDbVisualStyle
  2
GouraudWithEdges
 70
     3
 71
     2
 72
     2
 73
     1
 90
        2
 40
-0.6
 41
30.0
 62
     5
 63
     7
 74
     1
 91
        4
 64
     7
 65
   257
 75
     1
175
     1
 42
1.0
 92
        0
 66
   257
 43
1.0
 76
     1
 77
     6
 78
     2
 67
     7
 79
     5
170
     0
171
     0
290
     0
174
     0
 93
       13
 44
0.0
173
     0
291
     1
 45
0.0
1001
ACAD
1000
AcDbSavedByObjectVersion
1070
     0
  0
VISUALSTYLE
  5
3107
102
{ACAD_REACTORS
330
30F9
102
}
330
30F9
100
AcDbVisualStyle
  2
Linepattern
 70
    14
 71
     2
 72
     2
 73
     0
 90
        0
 40
-0.6
 41
-30.0
 62
     5
 63
     7
 74
     1
 91
        4
 64
     7
 65
   257
 75
     7
175
     7
 42
1.0
 92
        8
 66
     7
 43
1.0
 76
     1
 77
     6
 78
     2
 67
     7
 79
     5
170
     0
171
     0
290
     0
174
     0
 93
        1
 44
0.0
173
     0
291
     1
 45
0.0
1001
ACAD
1000
AcDbSavedByObjectVersion
1070
     0
  0
VISUALSTYLE
  5
3103
102
{ACAD_REACTORS
330
30F9
102
}
330
30F9
100
AcDbVisualStyle
  2
Realistic
 70
     8
 71
     2
 72
     2
 73
     0
 90
        0
 40
-0.6
 41
-30.0
 62
     5
 63
     7
 74
     1
 91
        0
 64
     7
 65
   257
 75
     1
175
     1
 42
1.0
 92
        8
 66
     8
 43
1.0
 76
     1
 77
     6
 78
     2
 67
     7
 79
     5
170
     0
171
     0
290
     0
174
     0
 93
       13
 44
0.0
173
     0
291
     0
 45
0.0
1001
ACAD
1000
AcDbSavedByObjectVersion
1070
     0
  0
VISUALSTYLE
  5
3106
102
{ACAD_REACTORS
330
30F9
102
}
330
30F9
100
AcDbVisualStyle
  2
Thicken
 70
    13
 71
     2
 72
     2
 73
     0
 90
        0
 40
-0.6
 41
-30.0
 62
     5
 63
     7
 74
     1
 91
        4
 64
     7
 65
   257
 75
     1
175
     1
 42
1.0
 92
       12
 66
     7
 43
1.0
 76
     1
 77
     6
 78
     2
 67
     7
 79
     5
170
     0
171
     0
290
     0
174
     0
 93
        1
 44
0.0
173
     0
291
     1
 45
0.0
1001
ACAD
1000
AcDbSavedByObjectVersion
1070
     0
  0
DICTIONARYVAR
  5
32CB
102
{ACAD_REACTORS
330
32C8
102
}
330
32C8
100
DictionaryVariables
280
     0
  1
1:1
  0
DICTIONARYVAR
  5
32CA
102
{ACAD_REACTORS
330
32C8
102
}
330
32C8
100
DictionaryVariables
280
     0
  1
STANDARD
  0
DICTIONARYVAR
  5
32C9
102
{ACAD_REACTORS
330
32C8
102
}
330
32C8
100
DictionaryVariables
280
     0
  1
STANDARD
  0
DICTIONARYVAR
  5
32CE
102
{ACAD_REACTORS
330
32C8
102
}
330
32C8
100
DictionaryVariables
280
     0
  1
1
  0
DICTIONARYVAR
  5
32CD
102
{ACAD_REACTORS
330
32C8
102
}
330
32C8
100
DictionaryVariables
280
     0
  1
1
  0
DICTIONARYVAR
  5
32CC
102
{ACAD_REACTORS
330
32C8
102
}
330
32C8
100
DictionaryVariables
280
     0
  1
127
  0
DICTIONARY
  5
3283
102
{ACAD_REACTORS
330
3275
102
}
330
3275
100
AcDbDictionary
281
     1
  0
DICTIONARY
  5
31C3
102
{ACAD_REACTORS
330
31C2
102
}
330
31C2
100
AcDbDictionary
281
     1
  3
DWGSETTINGS
350
31C4
  3
TRANSSETTINGS
350
31C5
  0
LAYER_INDEX
  5
32B9
102
{ACAD_REACTORS
330
32B8
102
}
330
32B8
100
AcDbIndex
 40
2456213.409787593
100
AcDbLayerIndex
  8
0
360
32BA
 90
        0
  8
OUTLINE
360
32BB
 90
       70
  8
SIZE
360
32BC
 90
       40
  8
BASIS
360
32BD
 90
        0
  8
DETAIL
360
32BE
 90
       67
  8
ARRANGE
360
32BF
 90
        3
  8
DEFPOINTS
360
32C0
 90
        0
  8
ETC
360
32C1
 90
        3
  8
FIX
360
32C2
 90
        0
  8
NOTE
360
32C3
 90
        7
  8
SERVICESPACE
360
32C4
 90
        0
  8
SYMBOLLINE
360
32C5
 90
        0
  8
BASIC
360
32C6
 90
        2
  8
DETAIL___1
360
32C7
 90
        2
  0
DICTIONARY
  5
32DE
330
3147
100
AcDbDictionary
280
     1
281
     1
  3
ACAD_XREC_ROUNDTRIP
360
32DF
  0
DICTIONARY
  5
32DC
330
3143
100
AcDbDictionary
280
     1
281
     1
  3
ACAD_XREC_ROUNDTRIP
360
32DD
  0
DICTIONARY
  5
30EA
330
30E9
100
AcDbDictionary
280
     1
281
     1
  3
ACAD_XREC_ROUNDTRIP
360
32D9
  3
BUMPTILE
360
30EC
  3
DIFFUSETILE
360
30EB
  3
OPACITYTILE
360
30EF
  3
REFLECTIONTILE
360
30EE
  3
REFRACTIONTILE
360
30F0
  3
SPECULARTILE
360
30ED
  0
DICTIONARY
  5
30E2
330
30E1
100
AcDbDictionary
280
     1
281
     1
  3
ACAD_XREC_ROUNDTRIP
360
32D8
  3
BUMPTILE
360
30E4
  3
DIFFUSETILE
360
30E3
  3
OPACITYTILE
360
30E7
  3
REFLECTIONTILE
360
30E6
  3
REFRACTIONTILE
360
30E8
  3
SPECULARTILE
360
30E5
  0
DICTIONARY
  5
30F2
330
30F1
100
AcDbDictionary
280
     1
281
     1
  3
ACAD_XREC_ROUNDTRIP
360
32DA
  3
BUMPTILE
360
30F4
  3
DIFFUSETILE
360
30F3
  3
OPACITYTILE
360
30F7
  3
REFLECTIONTILE
360
30F6
  3
REFRACTIONTILE
360
30F8
  3
SPECULARTILE
360
30F5
  0
DICTIONARY
  5
32CF
330
313C
100
AcDbDictionary
280
     1
281
     1
  3
ACAD_ROUNDTRIP_2008_TABLESTYLE_CELLSTYLEMAP
360
32D0
  3
ACAD_XREC_ROUNDTRIP
360
32DB
  0
IDBUFFER
  5
32BA
330
0
100
AcDbIdBuffer
  0
IDBUFFER
  5
32BB
330
0
100
AcDbIdBuffer
330
3042
330
3043
330
3044
330
3045
330
3046
330
3047
330
3048
330
3049
330
304A
330
304B
330
304C
330
304D
330
304E
330
304F
330
3052
330
3053
330
3054
330
3055
330
3057
330
305A
330
305D
330
305F
330
953
330
954
330
955
330
956
330
957
330
958
330
2FFB
330
3017
330
3018
330
3019
330
301C
330
301D
330
301E
330
301F
330
3020
330
3021
330
3022
330
3023
330
3024
330
3025
330
3026
330
3027
330
3028
330
3029
330
302A
330
302B
330
302C
330
302D
330
302E
330
302F
330
3030
330
3031
330
3032
330
3033
330
3034
330
3035
330
3036
330
3037
330
3038
330
3039
330
303A
330
303B
330
303C
330
303D
330
303E
330
303F
330
3040
330
3041
  0
IDBUFFER
  5
32BC
330
0
100
AcDbIdBuffer
330
3070
330
3071
330
3072
330
3073
330
3074
330
3075
330
3076
330
3077
330
3078
330
3079
330
307A
330
307B
330
307C
330
307D
330
307E
330
307F
330
3080
330
3081
330
3082
330
3083
330
3084
330
3085
330
3086
330
3087
330
3060
330
3061
330
3062
330
3063
330
3064
330
3065
330
3066
330
3067
330
3068
330
3069
330
306A
330
306B
330
306C
330
306D
330
306E
330
306F
  0
IDBUFFER
  5
32BD
330
0
100
AcDbIdBuffer
  0
IDBUFFER
  5
32BE
330
0
100
AcDbIdBuffer
330
300A
330
300B
330
300C
330
300D
330
300E
330
300F
330
3010
330
3011
330
3012
330
3013
330
3014
330
301A
330
301B
330
3056
330
3058
330
3059
330
305B
330
305C
330
305E
330
2FD9
330
2FDA
330
2FDB
330
2FDC
330
2FDD
330
2FDE
330
2FDF
330
2FE0
330
2FE1
330
2FE2
330
2FE3
330
2FE4
330
2FE5
330
2FE6
330
2FE7
330
2FE8
330
2FE9
330
2FEA
330
2FEB
330
2FEC
330
2FED
330
2FEE
330
2FEF
330
2FF0
330
2FF1
330
2FF2
330
2FF3
330
2FF4
330
2FF5
330
2FF6
330
2FF7
330
2FF8
330
2FF9
330
2FFA
330
2FFC
330
2FFD
330
2FFE
330
2FFF
330
3000
330
3001
330
3002
330
3003
330
3004
330
3005
330
3006
330
3007
330
3008
330
3009
  0
IDBUFFER
  5
32BF
330
0
100
AcDbIdBuffer
330
2FD2
330
2FD3
330
2FD4
  0
IDBUFFER
  5
32C0
330
0
100
AcDbIdBuffer
  0
IDBUFFER
  5
32C1
330
0
100
AcDbIdBuffer
330
2FCF
330
2FD0
330
2FD1
  0
IDBUFFER
  5
32C2
330
0
100
AcDbIdBuffer
  0
IDBUFFER
  5
32C3
330
0
100
AcDbIdBuffer
330
2FD7
330
2FD8
330
3015
330
3016
330
3088
330
3089
330
308A
  0
IDBUFFER
  5
32C4
330
0
100
AcDbIdBuffer
  0
IDBUFFER
  5
32C5
330
0
100
AcDbIdBuffer
  0
IDBUFFER
  5
32C6
330
0
100
AcDbIdBuffer
330
2FD5
330
2FD6
  0
IDBUFFER
  5
32C7
330
0
100
AcDbIdBuffer
330
3050
330
3051
  0
XRECORD
  5
32DF
102
{ACAD_REACTORS
330
32DE
102
}
330
32DE
100
AcDbXrecord
280
     1
102
SHADEPLOT
 70
     0
102
SHADEPLOTRESLEVEL
 70
     2
102
SHADEPLOTCUSTOMDPI
 70
   300
  0
XRECORD
  5
32DD
102
{ACAD_REACTORS
330
32DC
102
}
330
32DC
100
AcDbXrecord
280
     1
102
SHADEPLOT
 70
     0
102
SHADEPLOTRESLEVEL
 70
     2
102
SHADEPLOTCUSTOMDPI
 70
   300
  0
XRECORD
  5
32D9
102
{ACAD_REACTORS
330
30EA
102
}
330
30EA
100
AcDbXrecord
280
     1
102
MATERIAL
148
0.0
149
0.0
149
0.0
 93
        0
 94
      127
282
     0
 72
     0
 77
     0
171
     0
175
     0
179
     0
273
     0
  0
XRECORD
  5
30EC
102
{ACAD_REACTORS
330
30EA
102
}
330
30EA
100
AcDbXrecord
280
     1
270
     1
271
     1
  0
XRECORD
  5
30EB
102
{ACAD_REACTORS
330
30EA
102
}
330
30EA
100
AcDbXrecord
280
     1
270
     1
271
     1
  0
XRECORD
  5
30EF
102
{ACAD_REACTORS
330
30EA
102
}
330
30EA
100
AcDbXrecord
280
     1
270
     1
271
     1
  0
XRECORD
  5
30EE
102
{ACAD_REACTORS
330
30EA
102
}
330
30EA
100
AcDbXrecord
280
     1
270
     1
271
     1
  0
XRECORD
  5
30F0
102
{ACAD_REACTORS
330
30EA
102
}
330
30EA
100
AcDbXrecord
280
     1
270
     1
271
     1
  0
XRECORD
  5
30ED
102
{ACAD_REACTORS
330
30EA
102
}
330
30EA
100
AcDbXrecord
280
     1
270
     1
271
     1
  0
XRECORD
  5
32D8
102
{ACAD_REACTORS
330
30E2
102
}
330
30E2
100
AcDbXrecord
280
     1
102
MATERIAL
148
0.0
149
0.0
149
0.0
 93
        0
 94
      127
282
     0
 72
     0
 77
     0
171
     0
175
     0
179
     0
273
     0
  0
XRECORD
  5
30E4
102
{ACAD_REACTORS
330
30E2
102
}
330
30E2
100
AcDbXrecord
280
     1
270
     1
271
     1
  0
XRECORD
  5
30E3
102
{ACAD_REACTORS
330
30E2
102
}
330
30E2
100
AcDbXrecord
280
     1
270
     1
271
     1
  0
XRECORD
  5
30E7
102
{ACAD_REACTORS
330
30E2
102
}
330
30E2
100
AcDbXrecord
280
     1
270
     1
271
     1
  0
XRECORD
  5
30E6
102
{ACAD_REACTORS
330
30E2
102
}
330
30E2
100
AcDbXrecord
280
     1
270
     1
271
     1
  0
XRECORD
  5
30E8
102
{ACAD_REACTORS
330
30E2
102
}
330
30E2
100
AcDbXrecord
280
     1
270
     1
271
     1
  0
XRECORD
  5
30E5
102
{ACAD_REACTORS
330
30E2
102
}
330
30E2
100
AcDbXrecord
280
     1
270
     1
271
     1
  0
XRECORD
  5
32DA
102
{ACAD_REACTORS
330
30F2
102
}
330
30F2
100
AcDbXrecord
280
     1
102
MATERIAL
148
0.0
149
0.0
149
0.0
 93
        0
 94
      127
282
     0
 72
     0
 77
     0
171
     0
175
     0
179
     0
273
     0
  0
XRECORD
  5
30F4
102
{ACAD_REACTORS
330
30F2
102
}
330
30F2
100
AcDbXrecord
280
     1
270
     1
271
     1
  0
XRECORD
  5
30F3
102
{ACAD_REACTORS
330
30F2
102
}
330
30F2
100
AcDbXrecord
280
     1
270
     1
271
     1
  0
XRECORD
  5
30F7
102
{ACAD_REACTORS
330
30F2
102
}
330
30F2
100
AcDbXrecord
280
     1
270
     1
271
     1
  0
XRECORD
  5
30F6
102
{ACAD_REACTORS
330
30F2
102
}
330
30F2
100
AcDbXrecord
280
     1
270
     1
271
     1
  0
XRECORD
  5
30F8
102
{ACAD_REACTORS
330
30F2
102
}
330
30F2
100
AcDbXrecord
280
     1
270
     1
271
     1
  0
XRECORD
  5
30F5
102
{ACAD_REACTORS
330
30F2
102
}
330
30F2
100
AcDbXrecord
280
     1
270
     1
271
     1
  0
CELLSTYLEMAP
  5
32D0
102
{ACAD_REACTORS
330
32CF
102
}
330
32CF
100
AcDbCellStyleMap
 90
        3
300
CELLSTYLE
  1
TABLEFORMAT_BEGIN
 90
        5
170
     1
 91
        0
 92
    32768
 62
   257
 93
        1
300
CONTENTFORMAT
  1
CONTENTFORMAT_BEGIN
 90
        0
 91
        0
 92
      512
 93
        0
300

 40
0.0
140
1.0
 94
        5
 62
     0
340
312D
144
0.25
309
CONTENTFORMAT_END
171
     0
 94
        0
309
TABLEFORMAT_END
  1
CELLSTYLE_BEGIN
 90
        1
 91
        1
300
_TITLE
309
CELLSTYLE_END
300
CELLSTYLE
  1
TABLEFORMAT_BEGIN
 90
        5
170
     1
 91
        0
 92
        0
 62
   257
 93
        1
300
CONTENTFORMAT
  1
CONTENTFORMAT_BEGIN
 90
        0
 91
        0
 92
      512
 93
        0
300

 40
0.0
140
1.0
 94
        5
 62
     0
340
312D
144
0.18
309
CONTENTFORMAT_END
171
     0
 94
        0
309
TABLEFORMAT_END
  1
CELLSTYLE_BEGIN
 90
        2
 91
        1
300
_HEADER
309
CELLSTYLE_END
300
CELLSTYLE
  1
TABLEFORMAT_BEGIN
 90
        5
170
     1
 91
        0
 92
        0
 62
   257
 93
        1
300
CONTENTFORMAT
  1
CONTENTFORMAT_BEGIN
 90
        0
 91
        0
 92
      512
 93
        0
300

 40
0.0
140
1.0
 94
        2
 62
     0
340
312D
144
0.18
309
CONTENTFORMAT_END
171
     0
 94
        0
309
TABLEFORMAT_END
  1
CELLSTYLE_BEGIN
 90
        3
 91
        2
300
_DATA
309
CELLSTYLE_END
  0
XRECORD
  5
32DB
102
{ACAD_REACTORS
330
32CF
102
}
330
32CF
100
AcDbXrecord
280
     1
102
ACAD_ROUNDTRIP_PRE2007_TABLESTYLE
 90
      512
 91
        0
  1

 92
      512
 93
        0
  2

 94
      512
 95
        0
  3

  0
ENDSEC
  0
EOF
