  0
SECTION
  2
HEADER
  9
$ACADVER
  1
AC1015
  9
$ACADMAINTVER
 70
    20
  9
$DWGCODEPAGE
  3
ANSI_932
  9
$INSBASE
 10
0.0
 20
0.0
 30
0.0
  9
$EXTMIN
 10
-1133.204337391976
 20
-1400.941289342292
 30
0.0
  9
$EXTMAX
 10
1378.424249963233
 20
1117.329022485296
 30
0.0
  9
$LIMMIN
 10
-2970.0
 20
-2100.0
  9
$LIMMAX
 10
2970.0
 20
2100.0
  9
$ORTHOMODE
 70
     1
  9
$REGENMODE
 70
     0
  9
$FILLMODE
 70
     1
  9
$QTEXTMODE
 70
     0
  9
$MIRRTEXT
 70
     0
  9
$LTSCALE
 40
20.0
  9
$ATTMODE
 70
     1
  9
$TEXTSIZE
 40
64.0
  9
$TRACEWID
 40
0.05
  9
$TEXTSTYLE
  7
STANDARD
  9
$CLAYER
  8
0
  9
$CELTYPE
  6
ByLayer
  9
$CECOLOR
 62
   256
  9
$CELTSCALE
 40
1.0
  9
$DISPSILH
 70
     0
  9
$DIMSCALE
 40
1.0
  9
$DIMASZ
 40
0.12
  9
$DIMEXO
 40
0.05
  9
$DIMDLI
 40
0.5
  9
$DIMRND
 40
0.0
  9
$DIMDLE
 40
0.0
  9
$DIMEXE
 40
0.1
  9
$DIMTP
 40
0.1
  9
$DIMTM
 40
0.1
  9
$DIMTXT
 40
0.12
  9
$DIMCEN
 40
0.0
  9
$DIMTSZ
 40
0.0
  9
$DIMTOL
 70
     0
  9
$DIMLIM
 70
     0
  9
$DIMTIH
 70
     1
  9
$DIMTOH
 70
     1
  9
$DIMSE1
 70
     0
  9
$DIMSE2
 70
     0
  9
$DIMTAD
 70
     0
  9
$DIMZIN
 70
     7
  9
$DIMBLK
  1

  9
$DIMASO
 70
     1
  9
$DIMSHO
 70
     0
  9
$DIMPOST
  1

  9
$DIMAPOST
  1
mm
  9
$DIMALT
 70
     0
  9
$DIMALTD
 70
     2
  9
$DIMALTF
 40
25.4
  9
$DIMLFAC
 40
1.0
  9
$DIMTOFL
 70
     0
  9
$DIMTVP
 40
0.0
  9
$DIMTIX
 70
     0
  9
$DIMSOXD
 70
     0
  9
$DIMSAH
 70
     0
  9
$DIMBLK1
  1

  9
$DIMBLK2
  1

  9
$DIMSTYLE
  2
AM_ANSI
  9
$DIMCLRD
 70
   256
  9
$DIMCLRE
 70
   256
  9
$DIMCLRT
 70
     2
  9
$DIMTFAC
 40
0.71
  9
$DIMGAP
 40
0.06
  9
$DIMJUST
 70
     0
  9
$DIMSD1
 70
     0
  9
$DIMSD2
 70
     0
  9
$DIMTOLJ
 70
     1
  9
$DIMTZIN
 70
     7
  9
$DIMALTZ
 70
     0
  9
$DIMALTTZ
 70
     0
  9
$DIMUPT
 70
     0
  9
$DIMDEC
 70
     4
  9
$DIMTDEC
 70
     4
  9
$DIMALTU
 70
     2
  9
$DIMALTTD
 70
     4
  9
$DIMTXSTY
  7
STANDARD
  9
$DIMAUNIT
 70
     0
  9
$DIMADEC
 70
     0
  9
$DIMALTRND
 40
0.0
  9
$DIMAZIN
 70
     2
  9
$DIMDSEP
 70
    46
  9
$DIMATFIT
 70
     3
  9
$DIMFRAC
 70
     0
  9
$DIMLDRBLK
  1

  9
$DIMLUNIT
 70
     2
  9
$DIMLWD
 70
    -1
  9
$DIMLWE
 70
    -1
  9
$DIMTMOVE
 70
     0
  9
$LUNITS
 70
     2
  9
$LUPREC
 70
     4
  9
$SKETCHINC
 40
0.1
  9
$FILLETRAD
 40
4.0
  9
$AUNITS
 70
     1
  9
$AUPREC
 70
     3
  9
$MENU
  1
ACAD
  9
$ELEVATION
 40
0.0
  9
$PELEVATION
 40
0.0
  9
$THICKNESS
 40
50.0
  9
$LIMCHECK
 70
     0
  9
$CHAMFERA
 40
0.0
  9
$CHAMFERB
 40
0.0
  9
$CHAMFERC
 40
0.0
  9
$CHAMFERD
 40
0.0
  9
$SKPOLY
 70
     0
  9
$TDCREATE
 40
2452321.396199653
  9
$TDUCREATE
 40
2452321.021199653
  9
$TDUPDATE
 40
2456213.410583519
  9
$TDUUPDATE
 40
2456213.035583519
  9
$TDINDWG
 40
1.0438815625
  9
$TDUSRTIMER
 40
1.0438761574
  9
$USRTIMER
 70
     1
  9
$ANGBASE
 50
0.0
  9
$ANGDIR
 70
     0
  9
$PDMODE
 70
     3
  9
$PDSIZE
 40
-2.0
  9
$PLINEWID
 40
0.0
  9
$SPLFRAME
 70
     0
  9
$SPLINETYPE
 70
     6
  9
$SPLINESEGS
 70
     8
  9
$HANDSEED
  5
2D63
  9
$SURFTAB1
 70
     6
  9
$SURFTAB2
 70
     6
  9
$SURFTYPE
 70
     6
  9
$SURFU
 70
     6
  9
$SURFV
 70
     6
  9
$UCSBASE
  2

  9
$UCSNAME
  2

  9
$UCSORG
 10
0.0
 20
0.0
 30
0.0
  9
$UCSXDIR
 10
1.0
 20
0.0
 30
0.0
  9
$UCSYDIR
 10
0.0
 20
1.0
 30
0.0
  9
$UCSORTHOREF
  2

  9
$UCSORTHOVIEW
 70
     0
  9
$UCSORGTOP
 10
0.0
 20
0.0
 30
0.0
  9
$UCSORGBOTTOM
 10
0.0
 20
0.0
 30
0.0
  9
$UCSORGLEFT
 10
0.0
 20
0.0
 30
0.0
  9
$UCSORGRIGHT
 10
0.0
 20
0.0
 30
0.0
  9
$UCSORGFRONT
 10
0.0
 20
0.0
 30
0.0
  9
$UCSORGBACK
 10
0.0
 20
0.0
 30
0.0
  9
$PUCSBASE
  2

  9
$PUCSNAME
  2

  9
$PUCSORG
 10
0.0
 20
0.0
 30
0.0
  9
$PUCSXDIR
 10
1.0
 20
0.0
 30
0.0
  9
$PUCSYDIR
 10
0.0
 20
1.0
 30
0.0
  9
$PUCSORTHOREF
  2

  9
$PUCSORTHOVIEW
 70
     0
  9
$PUCSORGTOP
 10
0.0
 20
0.0
 30
0.0
  9
$PUCSORGBOTTOM
 10
0.0
 20
0.0
 30
0.0
  9
$PUCSORGLEFT
 10
0.0
 20
0.0
 30
0.0
  9
$PUCSORGRIGHT
 10
0.0
 20
0.0
 30
0.0
  9
$PUCSORGFRONT
 10
0.0
 20
0.0
 30
0.0
  9
$PUCSORGBACK
 10
0.0
 20
0.0
 30
0.0
  9
$USERI1
 70
     0
  9
$USERI2
 70
     0
  9
$USERI3
 70
     0
  9
$USERI4
 70
     0
  9
$USERI5
 70
     0
  9
$USERR1
 40
20.0
  9
$USERR2
 40
0.0
  9
$USERR3
 40
0.0
  9
$USERR4
 40
0.0
  9
$USERR5
 40
0.0
  9
$WORLDVIEW
 70
     1
  9
$SHADEDGE
 70
     3
  9
$SHADEDIF
 70
    70
  9
$TILEMODE
 70
     1
  9
$MAXACTVP
 70
    64
  9
$PINSBASE
 10
0.0
 20
0.0
 30
0.0
  9
$PLIMCHECK
 70
     0
  9
$PEXTMIN
 10
1.000000000000000E+20
 20
1.000000000000000E+20
 30
1.000000000000000E+20
  9
$PEXTMAX
 10
-1.000000000000000E+20
 20
-1.000000000000000E+20
 30
-1.000000000000000E+20
  9
$PLIMMIN
 10
0.0
 20
0.0
  9
$PLIMMAX
 10
12.0
 20
9.0
  9
$UNITMODE
 70
     0
  9
$VISRETAIN
 70
     1
  9
$PLINEGEN
 70
     0
  9
$PSLTSCALE
 70
     1
  9
$TREEDEPTH
 70
  3020
  9
$CMLSTYLE
  2
Standard
  9
$CMLJUST
 70
     0
  9
$CMLSCALE
 40
1.0
  9
$PROXYGRAPHICS
 70
     1
  9
$MEASUREMENT
 70
     0
  9
$CELWEIGHT
370
    -1
  9
$ENDCAPS
280
     0
  9
$JOINSTYLE
280
     0
  9
$LWDISPLAY
290
     0
  9
$INSUNITS
 70
     0
  9
$HYPERLINKBASE
  1

  9
$STYLESHEET
  1

  9
$XEDIT
290
     1
  9
$CEPSNTYPE
380
     0
  9
$PSTYLEMODE
290
     1
  9
$FINGERPRINTGUID
  2
{363306BF-5F2C-411E-A253-63210298FB6C}
  9
$VERSIONGUID
  2
{0CC716D1-B2B1-425E-AE80-F044AA40F9CC}
  9
$EXTNAMES
290
     1
  9
$PSVPSCALE
 40
0.0
  9
$OLESTARTUP
290
     0
  0
ENDSEC
  0
SECTION
  2
CLASSES
  0
CLASS
  1
ACDBDICTIONARYWDFLT
  2
AcDbDictionaryWithDefault
  3
ObjectDBX Classes
 90
        0
280
     0
281
     0
  0
CLASS
  1
MATERIAL
  2
AcDbMaterial
  3
ObjectDBX Classes
 90
     1153
280
     0
281
     0
  0
CLASS
  1
VISUALSTYLE
  2
AcDbVisualStyle
  3
ObjectDBX Classes
 90
     4095
280
     0
281
     0
  0
CLASS
  1
SCALE
  2
AcDbScale
  3
ObjectDBX Classes
 90
     1153
280
     0
281
     0
  0
CLASS
  1
TABLESTYLE
  2
AcDbTableStyle
  3
ObjectDBX Classes
 90
     4095
280
     0
281
     0
  0
CLASS
  1
MLEADERSTYLE
  2
AcDbMLeaderStyle
  3
ACDB_MLEADERSTYLE_CLASS
 90
     4095
280
     0
281
     0
  0
CLASS
  1
AMGSETTINGSOBJ
  2
AmgSettingsObj
  3
"AcadM|Product Description: AutoCAD Mechanical|Company: Autodesk, Inc."
 90
     1024
280
     0
281
     0
  0
CLASS
  1
ACME_DOCUMENT
  2
AcMeDbDoc
  3
AcMeServices
 90
     1024
280
     0
281
     0
  0
CLASS
  1
ACMESCOPE
  2
AcMeScope
  3
AcMeServices
 90
     1024
280
     0
281
     0
  0
CLASS
  1
ACMECOMMANDHISTORY
  2
AcMeCommandHistory
  3
AcMeServices
 90
     1024
280
     0
281
     0
  0
CLASS
  1
ACIMSYSVARMAN
  2
AcImSysVarManager
  3
AcMeServices
 90
     1024
280
     0
281
     0
  0
CLASS
  1
ACIMREALSYSVAR
  2
AcImRealSysVar
  3
AcMeServices
 90
     1024
280
     0
281
     0
  0
CLASS
  1
ACIMINTSYSVAR
  2
AcImIntSysVar
  3
AcMeServices
 90
     1024
280
     0
281
     0
  0
CLASS
  1
ACMEDRAWINGMAN
  2
AcMeDrawingMan
  3
AcMeServices
 90
     1024
280
     0
281
     0
  0
CLASS
  1
ACMEVIEW
  2
AcMeView
  3
AcMeServices
 90
     1024
280
     0
281
     0
  0
CLASS
  1
ACDBENTITYCACHE
  2
AcMeEntityCache
  3
AcMeServices
 90
     1024
280
     0
281
     0
  0
CLASS
  1
GSMANAGER
  2
AcMeGSManager
  3
AcMeServices
 90
     1024
280
     0
281
     0
  0
CLASS
  1
AMDTINTERNALREACTOR
  2
AmdtInternalReactor
  3
AcMeServices
 90
     1024
280
     0
281
     0
  0
CLASS
  1
ACMESTATEMGR
  2
AcMeStateMgr
  3
AcMeServices
 90
     1024
280
     0
281
     0
  0
CLASS
  1
ACGREFMASTER
  2
AcGrefMaster
  3
AcAttribServices
 90
     1024
280
     0
281
     0
  0
CLASS
  1
AM_DRAWING_MGR
  2
AcDmDwgMgr
  3
AcMechDwgViewMgmt
 90
     1024
280
     0
281
     0
  0
CLASS
  1
AM_DWG_DOCUMENT
  2
AcDmDwgDocument
  3
AcMechDwgViewMgmt
 90
     1024
280
     0
281
     0
  0
CLASS
  1
AM_DWG_SHEET
  2
AcDmSheet
  3
AcMechDwgViewMgmt
 90
     1024
280
     0
281
     0
  0
CLASS
  1
AM_VIEWDIMPARMAP
  2
AcDmViewDimParMap
  3
AcMechDwgViewMgmt
 90
     1024
280
     0
281
     0
  0
CLASS
  1
AM_DWGMGR_NAME
  2
AcDmDwgMgrName
  3
AcMechDwgViewMgmt
 90
     1024
280
     0
281
     0
  0
CLASS
  1
ACME_DATABASE
  2
AcMeDbDatabase
  3
AcMeServices
 90
     1024
280
     0
281
     0
  0
CLASS
  1
ACRFINSADJUSTERMGR
  2
AcRfInsAdjusterMgr
  3
AcMeServices
 90
     1024
280
     0
281
     0
  0
CLASS
  1
ACGREFACADMASTER
  2
AcGrefacadMaster
  3
AcGrefServices
 90
     1024
280
     0
281
     0
  0
CLASS
  1
AMDTMENUSTATEMGR
  2
AmdtMenuStateMgr
  3
McadcomServices
 90
     1024
280
     0
281
     0
  0
CLASS
  1
AMDTMCOMMENUSTATE
  2
AmdtMcomMenuState
  3
McadcomServices
 90
     1024
280
     0
281
     0
  0
CLASS
  1
AMIMASTER
  2
AmiMaster
  3
AmiServices
 90
     1024
280
     0
281
     0
  0
CLASS
  1
ASAPP
  2
AcAsAppObject
  3
AutoSurfServices
 90
     1024
280
     0
281
     0
  0
CLASS
  1
IM_STATIC_MAN
  2
AcImStaticVarManager
  3
AcMeServices
 90
     1024
280
     0
281
     0
  0
CLASS
  1
ACIMSTRSYSVAR
  2
AcImStrSysVar
  3
AcMeServices
 90
     1024
280
     0
281
     0
  0
CLASS
  1
ACIMDBLSTATICVAR
  2
AcImDblStaticVar
  3
AcMeServices
 90
     1024
280
     0
281
     0
  0
CLASS
  1
ACIMSTRSTATICVAR
  2
AcImStrStaticVar
  3
AcMeServices
 90
     1024
280
     0
281
     0
  0
CLASS
  1
ACIMINTSTATICVAR
  2
AcImIntStaticVar
  3
AcMeServices
 90
     1024
280
     0
281
     0
  0
CLASS
  1
ACASGREFMASTER
  2
AcAsGrefMaster
  3
AutoSurfResolverServices
 90
     1024
280
     0
281
     0
  0
CLASS
  1
ACADGREFMODULE
  2
AcAdGrefModule
  3
AdGrefServices
 90
     1024
280
     0
281
     0
  0
CLASS
  1
AMDTMAPISURFMOUDULE
  2
AmdtMApiSurfModule
  3
MApiSurfServices
 90
     1024
280
     0
281
     0
  0
CLASS
  1
MAPIAMMOUDLE
  2
MApiAmModule
  3
MApiAmServices
 90
     1024
280
     0
281
     0
  0
CLASS
  1
AMDTADMENUSTATE
  2
AmdtAdMenuState
  3
DesignerServices
 90
     1024
280
     0
281
     0
  0
CLASS
  1
ADAPPL
  2
AcAdAppl
  3
DesignerServices
 90
     1024
280
     0
281
     0
  0
CLASS
  1
DEPMGR
  2
AcAdDepMgr
  3
DesignerServices
 90
     1024
280
     0
281
     0
  0
CLASS
  1
PARAMMGR
  2
AcAdParamMgr
  3
DesignerServices
 90
     1024
280
     0
281
     0
  0
CLASS
  1
PARAMSCOPE
  2
AcAdParamScope
  3
DesignerServices
 90
     1024
280
     0
281
     0
  0
CLASS
  1
NAMEDAPPL
  2
AcAdNamedAppl
  3
DesignerServices
 90
     1024
280
     0
281
     0
  0
CLASS
  1
AMDTDMMENUSTATE
  2
AmdtDmMenuState
  3
AcMechDwgViewMgmt
 90
     1024
280
     0
281
     0
  0
CLASS
  1
MAPIADMODULE
  2
MApiAdModule
  3
MApiAdServices
 90
     1024
280
     0
281
     0
  0
CLASS
  1
AMDTAMMENUSTATE
  2
AmdtAmMenuState
  3
DesignerAssemblies
 90
     1024
280
     0
281
     0
  0
CLASS
  1
ACAMPROJECT
  2
AcAmProject
  3
DesignerAssemblies
 90
     1024
280
     0
281
     0
  0
CLASS
  1
ACAMGRCOMPDEF
  2
AcAmGrCompDef
  3
DesignerAssemblies
 90
     1024
280
     0
281
     0
  0
CLASS
  1
ACCMCONTEXT
  2
AcCmContext
  3
DesignerAssemblies
 90
     1024
280
     0
281
     0
  0
CLASS
  1
ACAMCOMPDEF
  2
AcAmCompDef
  3
DesignerAssemblies
 90
     1024
280
     0
281
     0
  0
CLASS
  1
ACAMCOMPDEFMGR
  2
AcAmCompDefMgr
  3
DesignerAssemblies
 90
     1024
280
     0
281
     0
  0
CLASS
  1
AMCONTEXTMGR
  2
AcAmContextMgr
  3
DesignerAssemblies
 90
     1024
280
     0
281
     0
  0
CLASS
  1
ACAMCONTEXTMODELER
  2
AcAmContextModeler
  3
DesignerAssemblies
 90
     1024
280
     0
281
     0
  0
CLASS
  1
ACMDATADICTIONARY
  2
AcmDataDictionary
  3
"AcmSymBB|Product Description: AutoCAD Mechanical|Company: Autodesk, Inc."
 90
     1024
280
     0
281
     0
  0
CLASS
  1
ACMDATAENTRYBLOCK
  2
AcmDataEntryBlock
  3
AcmSymBB|Product Description: AutoCAD Mechanical|Company: Autodesk, Inc.
 90
     1024
280
     0
281
     0
  0
CLASS
  1
ACRFATTGENMGR
  2
AcRfAttGeneralMgr
  3
AcAttribServices
 90
     1024
280
     0
281
     0
  0
CLASS
  1
ACRFOBJATTMGR
  2
AcRfObjAttGroupMgr
  3
AcAttribServices
 90
     1024
280
     0
281
     0
  0
CLASS
  1
ACRFMCADAPIATTHOLDER
  2
AcRfMCADAPIAttHolder
  3
AcAttribServices
 90
     1024
280
     0
281
     0
  0
CLASS
  1
AMDTSYSATTR
  2
AmdtSystemAttribute
  3
AcAttribServices
 90
     1024
280
     0
281
     0
  0
CLASS
  1
CATALOGSTATE
  2
AcAmCatalogState
  3
DesignerAssemblies
 90
     1024
280
     0
281
     0
  0
CLASS
  1
ACAMGRCOMPDEFSET
  2
AcAmGrCompDefSet
  3
DesignerAssemblies
 90
     1024
280
     0
281
     0
  0
CLASS
  1
AMDTBROWSERDBTAB
  2
AmdtBrowserDbTab
  3
McadcomServices
 90
     1024
280
     0
281
     0
  0
CLASS
  1
CBROWSERAPPOBJECT
  2
CBrowserAppObject
  3
McadcomServices
 90
     1024
280
     0
281
     0
  0
CLASS
  1
DM_PLACEHOLDER
  2
AcDmSelsetPlaceholder
  3
AcMechDwgViewMgmt
 90
     1024
280
     0
281
     0
  0
CLASS
  1
ACMSTANDARDANSI
  2
AcmStandardANSI
  3
"Amdt_StdImp|Product Description: AutoCAD Mechanical|Company: Autodesk, Inc."
 90
     1024
280
     0
281
     0
  0
CLASS
  1
ACMSURFSTANDARDANSI
  2
AcmSurfTextStdANSI
  3
"Amdt_StdImp|Product Description: AutoCAD Mechanical|Company: Autodesk, Inc."
 90
     1024
280
     0
281
     0
  0
CLASS
  1
ACMFCFSTANDARDANSI
  2
AcmFCFStdANSI
  3
"Amdt_StdImp|Product Description: AutoCAD Mechanical|Company: Autodesk, Inc."
 90
     1024
280
     0
281
     0
  0
CLASS
  1
ACMWELDSTANDARDANSI
  2
AcmWeldingStdANSI
  3
"Amdt_StdImp|Product Description: AutoCAD Mechanical|Company: Autodesk, Inc."
 90
     1024
280
     0
281
     0
  0
CLASS
  1
ACMIDSTANDARDANSI
  2
AcmIdStdANSI
  3
"Amdt_StdImp|Product Description: AutoCAD Mechanical|Company: Autodesk, Inc."
 90
     1024
280
     0
281
     0
  0
CLASS
  1
ACMDATUMSTANDARDANSI
  2
AcmDatumStdANSI
  3
"Amdt_StdImp|Product Description: AutoCAD Mechanical|Company: Autodesk, Inc."
 90
     1024
280
     0
281
     0
  0
CLASS
  1
ACMBOMSTANDARDANSI
  2
AcmBOMStdANSI
  3
"Amdt_StdImp|Product Description: AutoCAD Mechanical|Company: Autodesk, Inc."
 90
     1024
280
     0
281
     0
  0
CLASS
  1
ACMDETAILSTANDARDANSI
  2
AmdtDetailSymStdANSI
  3
"Amdt_StdImp|Product Description: AutoCAD Mechanical|Company: Autodesk, Inc."
 90
     1024
280
     0
281
     0
  0
CLASS
  1
ACMSECTIONSTANDARDANSI
  2
AmdtSectionSymStdANSI
  3
"Amdt_StdImp|Product Description: AutoCAD Mechanical|Company: Autodesk, Inc."
 90
     1024
280
     0
281
     0
  0
CLASS
  1
ACMCENTERLINESTANDARDANSI
  2
AmdtCenterLineStdANSI
  3
"Amdt_StdImp|Product Description: AutoCAD Mechanical|Company: Autodesk, Inc."
 90
     1024
280
     0
281
     0
  0
CLASS
  1
ACMTHREADLINESTANDARDANSI
  2
AmdtThreadLineStdANSI
  3
"Amdt_StdImp|Product Description: AutoCAD Mechanical|Company: Autodesk, Inc."
 90
     1024
280
     0
281
     0
  0
CLASS
  1
ACMNOTESTANDARDANSI
  2
AmdtNoteStdANSI
  3
"Amdt_StdImp|Product Description: AutoCAD Mechanical|Company: Autodesk, Inc."
 90
     1024
280
     0
281
     0
  0
CLASS
  1
ACMTAPERSTANDARDANSI
  2
AcmTaperStdANSI
  3
"Amdt_StdImp|Product Description: AutoCAD Mechanical|Company: Autodesk, Inc."
 90
     1024
280
     0
281
     0
  0
CLASS
  1
ACMANOOTATIONVIEWSTANDARDANSI
  2
AmdtAnViewStdANSI
  3
"Amdt_StdImp|Product Description: AutoCAD Mechanical|Company: Autodesk, Inc."
 90
     1024
280
     0
281
     0
  0
CLASS
  1
ACAMGLAYSTD
  2
AcAmgLayStd
  3
"AmgLay|Product Description: AutoCAD Mechanical|Company: Autodesk, Inc."
 90
     1024
280
     0
281
     0
  0
CLASS
  1
ACAMGDIMSTD
  2
AcAmgDimStd
  3
"AmgDim|Product Description: AutoCAD Mechanical|Company: Autodesk, Inc."
 90
     1024
280
     0
281
     0
  0
CLASS
  1
ACAMGHOLECHARTSTDANSI
  2
AcAmgHoleChartStdANSI
  3
AmgDim|Product Description: AutoCAD Mechanical|Company: Autodesk, Inc.
 90
     1024
280
     0
281
     0
  0
CLASS
  1
AMGOBJPROPCFG
  2
AmgObjPropCfg
  3
"AmgLay|Product Description: AutoCAD Mechanical|Company: Autodesk, Inc."
 90
     1025
280
     0
281
     0
  0
CLASS
  1
ACAMGTITLESTD
  2
AcAmgTitleStd
  3
"AmgTitle|Product Description: AutoCAD Mechanical|Company: Autodesk, Inc."
 90
     4095
280
     0
281
     0
  0
CLASS
  1
AMDTNOTETEMPLATEDB
  2
AmdtNoteTemplateDB
  3
AcmSymBB|Product Description: AutoCAD Mechanical|Company: Autodesk, Inc.
 90
     1024
280
     0
281
     0
  0
CLASS
  1
LAYER_INDEX
  2
AcDbLayerIndex
  3
ObjectDBX Classes
 90
        0
280
     0
281
     0
  0
CLASS
  1
IDBUFFER
  2
AcDbIdBuffer
  3
ObjectDBX Classes
 90
        0
280
     0
281
     0
  0
CLASS
  1
DICTIONARYVAR
  2
AcDbDictionaryVar
  3
ObjectDBX Classes
 90
        0
280
     0
281
     0
  0
CLASS
  1
CELLSTYLEMAP
  2
AcDbCellStyleMap
  3
ObjectDBX Classes
 90
     1152
280
     0
281
     0
  0
CLASS
  1
ACDBPLACEHOLDER
  2
AcDbPlaceHolder
  3
ObjectDBX Classes
 90
        0
280
     0
281
     0
  0
CLASS
  1
LAYOUT
  2
AcDbLayout
  3
ObjectDBX Classes
 90
        0
280
     0
281
     0
  0
ENDSEC
  0
SECTION
  2
TABLES
  0
TABLE
  2
VPORT
  5
2B5D
330
0
100
AcDbSymbolTable
 70
     1
  0
VPORT
  5
2BCD
330
2B5D
100
AcDbSymbolTableRecord
100
AcDbViewportTableRecord
  2
*ACTIVE
 70
     0
 10
0.0
 20
0.0
 11
1.0
 21
1.0
 12
0.0
 22
0.0
 13
0.0
 23
0.0
 14
1.0
 24
1.0
 15
0.0
 25
0.0
 16
0.0
 26
0.0
 36
1.0
 17
122.5868364826151
 27
-141.9525050348056
 37
0.0
 40
2535.240246908094
 41
1.712555066079295
 42
50.0
 43
0.0
 44
0.0
 50
0.0
 51
0.0
 71
     0
 72
   100
 73
     1
 74
     0
 75
     0
 76
     0
 77
     0
 78
     0
281
     0
 65
     0
110
0.0
120
0.0
130
0.0
111
1.0
121
0.0
131
0.0
112
0.0
122
1.0
132
0.0
 79
     0
146
0.0
  0
ENDTAB
  0
TABLE
  2
LTYPE
  5
2B5A
330
0
100
AcDbSymbolTable
 70
    20
  0
LTYPE
  5
2BB7
330
2B5A
100
AcDbSymbolTableRecord
100
AcDbLinetypeTableRecord
  2
ByBlock
 70
     0
  3

 72
    65
 73
     0
 40
0.0
  0
LTYPE
  5
2BB8
330
2B5A
100
AcDbSymbolTableRecord
100
AcDbLinetypeTableRecord
  2
ByLayer
 70
     0
  3

 72
    65
 73
     0
 40
0.0
  0
LTYPE
  5
2BB9
330
2B5A
100
AcDbSymbolTableRecord
100
AcDbLinetypeTableRecord
  2
CONTINUOUS
 70
     0
  3
実線
 72
    65
 73
     0
 40
0.0
  0
LTYPE
  5
2BCE
330
2B5A
100
AcDbSymbolTableRecord
100
AcDbLinetypeTableRecord
  2
DASHDOT
 70
     0
  3
____ _ ____ _ ____ _ ____ _ ____ _ ____ _ ____
 72
    65
 73
     4
 40
5.5
 49
4.0
 74
     0
 49
-0.6
 74
     0
 49
0.3
 74
     0
 49
-0.6
 74
     0
  0
LTYPE
  5
2BCF
330
2B5A
100
AcDbSymbolTableRecord
100
AcDbLinetypeTableRecord
  2
HIDDEN
 70
     0
  3
Hidden __ __ __ __ __ __ __ __ __ __ __ __ __ _
 72
    65
 73
     2
 40
0.375
 49
0.25
 74
     0
 49
-0.125
 74
     0
  0
LTYPE
  5
2BD0
330
2B5A
100
AcDbSymbolTableRecord
100
AcDbLinetypeTableRecord
  2
PHANTOM2
 70
     0
  3
Phantom (.5x) ___ _ _ ___ _ _ ___ _ _ ___ _ _
 72
    65
 73
     6
 40
1.25
 49
0.625
 74
     0
 49
-0.125
 74
     0
 49
0.125
 74
     0
 49
-0.125
 74
     0
 49
0.125
 74
     0
 49
-0.125
 74
     0
  0
LTYPE
  5
2BD1
330
2B5A
100
AcDbSymbolTableRecord
100
AcDbLinetypeTableRecord
  2
CENTER
 70
     0
  3
Center ____ _ ____ _ ____ _ ____ _ ____ _ ____
 72
    65
 73
     4
 40
2.0
 49
1.25
 74
     0
 49
-0.25
 74
     0
 49
0.25
 74
     0
 49
-0.25
 74
     0
  0
LTYPE
  5
2BD2
330
2B5A
100
AcDbSymbolTableRecord
100
AcDbLinetypeTableRecord
  2
ASULTYPE
 70
     0
  3
実線
 72
    65
 73
     2
 40
3.0
 49
2.5
 74
     0
 49
0.5
 74
     0
  0
LTYPE
  5
2BD3
330
2B5A
100
AcDbSymbolTableRecord
100
AcDbLinetypeTableRecord
  2
ASVLTYPE
 70
     0
  3
__ __ __ __ __ __ __ __ __ __ __ __ __ __ __ __ __ __ __ __ __
 72
    65
 73
     2
 40
0.75
 49
0.5
 74
     0
 49
-0.25
 74
     0
  0
LTYPE
  5
2BD4
330
2B5A
100
AcDbSymbolTableRecord
100
AcDbLinetypeTableRecord
  2
AM_ISO02W050
 70
     0
  3
__ __ __ __ __ __ __ __ __ __ __ __ __ __ __
 72
    65
 73
     2
 40
7.5
 49
6.0
 74
     0
 49
-1.5
 74
     0
  0
LTYPE
  5
2BD5
330
2B5A
100
AcDbSymbolTableRecord
100
AcDbLinetypeTableRecord
  2
AM_ISO08W050
 70
     0
  3
____ . ____ . ____ . ____ . ____ . ____ . ____
 72
    65
 73
     4
 40
18.0
 49
12.0
 74
     0
 49
-1.5
 74
     0
 49
3.0
 74
     0
 49
-1.5
 74
     0
  0
LTYPE
  5
2BD6
330
2B5A
100
AcDbSymbolTableRecord
100
AcDbLinetypeTableRecord
  2
AM_ISO09W050
 70
     0
  3
_____ . . _____ . . _____ . . ____ .. ____
 72
    65
 73
     6
 40
22.5
 49
12.0
 74
     0
 49
-1.5
 74
     0
 49
3.0
 74
     0
 49
-1.5
 74
     0
 49
3.0
 74
     0
 49
-1.5
 74
     0
  0
LTYPE
  5
2BD7
330
2B5A
100
AcDbSymbolTableRecord
100
AcDbLinetypeTableRecord
  2
AMCONSTR
 70
     0
  3
_______________________
 72
    65
 73
     2
 40
9999.0
 49
9999.0
 74
     0
 49
0.0
 74
     0
  0
LTYPE
  5
2BD8
330
2B5A
100
AcDbSymbolTableRecord
100
AcDbLinetypeTableRecord
  2
AM_ISO08W050X2
 70
     0
  3
__ . __ . __ . __ . __ . __
 72
    65
 73
     4
 40
9.0
 49
6.0
 74
     0
 49
-0.75
 74
     0
 49
1.5
 74
     0
 49
-0.75
 74
     0
  0
LTYPE
  5
2BD9
330
2B5A
100
AcDbSymbolTableRecord
100
AcDbLinetypeTableRecord
  2
AM_ISO02W050X2
 70
     0
  3
 _ _ _ _ _ _ _ _ _ _ _ _
 72
    65
 73
     2
 40
3.75
 49
3.0
 74
     0
 49
-0.75
 74
     0
  0
LTYPE
  5
2BDA
330
2B5A
100
AcDbSymbolTableRecord
100
AcDbLinetypeTableRecord
  2
AMZIGZAG
 70
     0
  3
/\/-/\/-/\/-/\/-/\/-/\/
 72
    65
 73
     2
 40
11.0001
 49
0.0001
 74
     0
 49
-11.0
 74
     0
  0
LTYPE
  5
2BDB
330
2B5A
100
AcDbSymbolTableRecord
100
AcDbLinetypeTableRecord
  2
CENTER2
 70
     0
  3
Center (.5x) ___ _ ___ _ ___ _ ___ _ ___ _ ___
 72
    65
 73
     4
 40
1.125
 49
0.75
 74
     0
 49
-0.125
 74
     0
 49
0.125
 74
     0
 49
-0.125
 74
     0
  0
LTYPE
  5
2BDC
330
2B5A
100
AcDbSymbolTableRecord
100
AcDbLinetypeTableRecord
  2
HIDDEN2
 70
     0
  3
Hidden (.5x) _ _ _ _ _ _ _ _ _ _ _ _ _ _ _ _ _
 72
    65
 73
     2
 40
0.1875
 49
0.125
 74
     0
 49
-0.0625
 74
     0
  0
LTYPE
  5
2BDD
330
2B5A
100
AcDbSymbolTableRecord
100
AcDbLinetypeTableRecord
  2
AMZIGZAG2
 70
     0
  3
/\/-/\/-/\/-/\/-/\/-/\/
 72
    65
 73
     2
 40
0.4401
 49
0.0001
 74
     0
 49
-0.4400000000000003
 74
     0
  0
LTYPE
  5
2BDE
330
2B5A
100
AcDbSymbolTableRecord
100
AcDbLinetypeTableRecord
  2
ACANSTGB
 70
     0
  3
__ . . __ . .
 72
    65
 73
     6
 40
0.35433070866
 49
0.15748031496
 74
     0
 49
-0.03937007874
 74
     0
 49
0.03937007874
 74
     0
 49
-0.03937007874
 74
     0
 49
0.03937007874
 74
     0
 49
-0.03937007874
 74
     0
  0
LTYPE
  5
2BDF
330
2B5A
100
AcDbSymbolTableRecord
100
AcDbLinetypeTableRecord
  2
ACANSTGL
 70
     0
  3
_ _ _ _ _
 72
    65
 73
     2
 40
0.11811023622
 49
0.07874015748
 74
     0
 49
-0.03937007874
 74
     0
  0
LTYPE
  5
2BE0
330
2B5A
100
AcDbSymbolTableRecord
100
AcDbLinetypeTableRecord
  2
CENTERX2
 70
     0
  3
________  __  ________  __  ________  __  _____
 72
    65
 73
     4
 40
4.0
 49
2.5
 74
     0
 49
-0.5
 74
     0
 49
0.5
 74
     0
 49
-0.5
 74
     0
  0
ENDTAB
  0
TABLE
  2
LAYER
  5
2B57
330
0
100
AcDbSymbolTable
 70
    13
  0
LAYER
  5
2BB1
102
{ACAD_XDICTIONARY
360
2D1F
102
}
330
2B57
100
AcDbSymbolTableRecord
100
AcDbLayerTableRecord
  2
0
 70
     0
 62
     7
  6
CONTINUOUS
370
    -3
390
2B64
  0
LAYER
  5
2BE1
102
{ACAD_XDICTIONARY
360
2D21
102
}
330
2B57
100
AcDbSymbolTableRecord
100
AcDbLayerTableRecord
  2
OUTLINE
 70
     0
 62
     3
  6
CONTINUOUS
370
    -3
390
2B64
  0
LAYER
  5
2BE2
102
{ACAD_XDICTIONARY
360
2D23
102
}
330
2B57
100
AcDbSymbolTableRecord
100
AcDbLayerTableRecord
  2
SIZE
 70
     0
 62
    30
  6
CONTINUOUS
370
    -3
390
2B64
  0
LAYER
  5
2BE3
102
{ACAD_XDICTIONARY
360
2D25
102
}
330
2B57
100
AcDbSymbolTableRecord
100
AcDbLayerTableRecord
  2
BASIS
 70
     0
 62
     6
  6
DASHDOT
370
    -3
390
2B64
  0
LAYER
  5
2BE4
102
{ACAD_XDICTIONARY
360
2D27
102
}
330
2B57
100
AcDbSymbolTableRecord
100
AcDbLayerTableRecord
  2
DETAIL
 70
     0
 62
     5
  6
CONTINUOUS
370
    -3
390
2B64
  0
LAYER
  5
2BE5
102
{ACAD_XDICTIONARY
360
2D29
102
}
330
2B57
100
AcDbSymbolTableRecord
100
AcDbLayerTableRecord
  2
ARRANGE
 70
     0
 62
     1
  6
CONTINUOUS
370
    -3
390
2B64
  0
LAYER
  5
2BE6
330
2B57
100
AcDbSymbolTableRecord
100
AcDbLayerTableRecord
  2
DEFPOINTS
 70
     0
 62
     7
  6
CONTINUOUS
290
     0
370
    -3
390
2B64
  0
LAYER
  5
2BE7
102
{ACAD_XDICTIONARY
360
2D2B
102
}
330
2B57
100
AcDbSymbolTableRecord
100
AcDbLayerTableRecord
  2
ETC
 70
     0
 62
    61
  6
CONTINUOUS
370
    -3
390
2B64
  0
LAYER
  5
2BE8
102
{ACAD_XDICTIONARY
360
2D2D
102
}
330
2B57
100
AcDbSymbolTableRecord
100
AcDbLayerTableRecord
  2
FIX
 70
     0
 62
    11
  6
CONTINUOUS
370
    -3
390
2B64
  0
LAYER
  5
2BE9
102
{ACAD_XDICTIONARY
360
2D2F
102
}
330
2B57
100
AcDbSymbolTableRecord
100
AcDbLayerTableRecord
  2
NOTE
 70
     0
 62
     4
  6
CONTINUOUS
370
    -3
390
2B64
  0
LAYER
  5
2BEA
102
{ACAD_XDICTIONARY
360
2D31
102
}
330
2B57
100
AcDbSymbolTableRecord
100
AcDbLayerTableRecord
  2
SERVICESPACE
 70
     0
 62
     2
  6
DASHDOT
370
    -3
390
2B64
  0
LAYER
  5
2BEB
102
{ACAD_XDICTIONARY
360
2D33
102
}
330
2B57
100
AcDbSymbolTableRecord
100
AcDbLayerTableRecord
  2
SYMBOLLINE
 70
     0
 62
    15
  6
CONTINUOUS
370
    -3
390
2B64
  0
LAYER
  5
2BEC
102
{ACAD_XDICTIONARY
360
2D35
102
}
330
2B57
100
AcDbSymbolTableRecord
100
AcDbLayerTableRecord
  2
BASIC
 70
     0
 62
     6
  6
CENTERX2
370
    -3
390
2B64
  0
ENDTAB
  0
TABLE
  2
STYLE
  5
2B58
330
0
100
AcDbSymbolTable
 70
     5
  0
STYLE
  5
2BB2
330
2B58
100
AcDbSymbolTableRecord
100
AcDbTextStyleTableRecord
  2
STANDARD
 70
     0
 40
64.0
 41
0.9
 50
0.0
 71
     0
 42
64.0
  3
SIMPLEX.shx
  4
BIGFONT.shx
  0
STYLE
  5
2BB6
330
2B58
100
AcDbSymbolTableRecord
100
AcDbTextStyleTableRecord
  2
ANNOTATIVE
 70
     0
 40
0.0
 41
1.0
 50
0.0
 71
     0
 42
0.2
  3
txt
  4

1001
ACADANNOTATIVE
1000
AnnotativeData
1002
{
1070
     1
1070
     1
1002
}
  0
STYLE
  5
2BED
330
2B58
100
AcDbSymbolTableRecord
100
AcDbTextStyleTableRecord
  2

 70
     1
 40
0.0
 41
1.0
 50
0.0
 71
     0
 42
64.0
  3
genltshp.shx
  4

  0
STYLE
  5
2BEE
330
2B58
100
AcDbSymbolTableRecord
100
AcDbTextStyleTableRecord
  2
ACANSTS
 70
     0
 40
1.0
 41
1.0
 50
0.0
 71
     0
 42
64.0
  3
romans.shx
  4
extfont.shx
  0
STYLE
  5
2BEF
330
2B58
100
AcDbSymbolTableRecord
100
AcDbTextStyleTableRecord
  2
ACANSGDT
 70
     0
 40
0.0
 41
1.0
 50
0.0
 71
     0
 42
64.0
  3
amgdt.shx
  4

  0
ENDTAB
  0
TABLE
  2
VIEW
  5
2B5B
330
0
100
AcDbSymbolTable
 70
     1
  0
VIEW
  5
2BF0
330
2B5B
100
AcDbSymbolTableRecord
100
AcDbViewTableRecord
  2
ALL
 70
     0
 40
4282.619807999997
 10
0.0
 20
41.30990399999999
 41
5940.0
 11
0.0
 21
0.0
 31
1.0
 12
0.0
 22
0.0
 32
0.0
 42
50.0
 43
0.0
 44
0.0
 50
0.0
 71
     0
281
     0
 72
     1
110
0.0
120
0.0
130
0.0
111
1.0
121
0.0
131
0.0
112
0.0
122
1.0
132
0.0
 79
     0
146
0.0
  0
ENDTAB
  0
TABLE
  2
UCS
  5
2B5C
330
0
100
AcDbSymbolTable
 70
     0
  0
ENDTAB
  0
TABLE
  2
APPID
  5
2B5E
330
0
100
AcDbSymbolTable
 70
    30
  0
APPID
  5
2BB3
330
2B5E
100
AcDbSymbolTableRecord
100
AcDbRegAppTableRecord
  2
ACAD
 70
     0
  0
APPID
  5
2BBA
330
2B5E
100
AcDbSymbolTableRecord
100
AcDbRegAppTableRecord
  2
ACADANNOTATIVE
 70
     0
  0
APPID
  5
2BC4
330
2B5E
100
AcDbSymbolTableRecord
100
AcDbRegAppTableRecord
  2
ACAD_MLEADERVER
 70
     0
  0
APPID
  5
2BF1
330
2B5E
100
AcDbSymbolTableRecord
100
AcDbRegAppTableRecord
  2
GENIUS_GENDIM_13
 70
     0
  0
APPID
  5
2BF2
330
2B5E
100
AcDbSymbolTableRecord
100
AcDbRegAppTableRecord
  2
GENIUS_GENDTOL_13
 70
     0
  0
APPID
  5
2BF3
330
2B5E
100
AcDbSymbolTableRecord
100
AcDbRegAppTableRecord
  2
GENIUS_GE3DTOL_13
 70
     0
  0
APPID
  5
2BF4
330
2B5E
100
AcDbSymbolTableRecord
100
AcDbRegAppTableRecord
  2
MCAD_NO_VIS
 70
     0
  0
APPID
  5
2BF5
330
2B5E
100
AcDbSymbolTableRecord
100
AcDbRegAppTableRecord
  2
ACAD_TEMP_GRAPHIC
 70
     0
  0
APPID
  5
2BF6
330
2B5E
100
AcDbSymbolTableRecord
100
AcDbRegAppTableRecord
  2
AD_DRAW
 70
     0
  0
APPID
  5
2BF7
330
2B5E
100
AcDbSymbolTableRecord
100
AcDbRegAppTableRecord
  2
ACATTRIBSERVICES
 70
     0
  0
APPID
  5
2BF8
330
2B5E
100
AcDbSymbolTableRecord
100
AcDbRegAppTableRecord
  2
ASURF_PCURVE_APPNAME
 70
     0
  0
APPID
  5
2BF9
330
2B5E
100
AcDbSymbolTableRecord
100
AcDbRegAppTableRecord
  2
AMG_3D2D_5_0
 70
     0
  0
APPID
  5
2BFA
330
2B5E
100
AcDbSymbolTableRecord
100
AcDbRegAppTableRecord
  2
DESIGNERASSEMBLIES
 70
     0
  0
APPID
  5
2BFB
330
2B5E
100
AcDbSymbolTableRecord
100
AcDbRegAppTableRecord
  2
ACADM_DIM_EDIT
 70
     0
  0
APPID
  5
2BFC
330
2B5E
100
AcDbSymbolTableRecord
100
AcDbRegAppTableRecord
  2
AMDT_DM_ADJ
 70
     0
  0
APPID
  5
2BFD
330
2B5E
100
AcDbSymbolTableRecord
100
AcDbRegAppTableRecord
  2
ACAD_DSTYLE_DIMARC_LENGTH_
 70
     0
  0
APPID
  5
2BFE
330
2B5E
100
AcDbSymbolTableRecord
100
AcDbRegAppTableRecord
  2
ACAD_DSTYLE_DIMJOGGED_JOGA
 70
     0
  0
APPID
  5
2BFF
330
2B5E
100
AcDbSymbolTableRecord
100
AcDbRegAppTableRecord
  2
ACAD_PSEXT
 70
     0
  0
APPID
  5
2C00
330
2B5E
100
AcDbSymbolTableRecord
100
AcDbRegAppTableRecord
  2
ACAD_EXEMPT_FROM_CAD_STANDARDS
 70
     0
  0
APPID
  5
2C01
330
2B5E
100
AcDbSymbolTableRecord
100
AcDbRegAppTableRecord
  2
ACAD_DSTYLE_DIMJAG
 70
     0
  0
APPID
  5
2C02
330
2B5E
100
AcDbSymbolTableRecord
100
AcDbRegAppTableRecord
  2
ACAD_DSTYLE_DIMTALN
 70
     0
  0
APPID
  5
2C03
330
2B5E
100
AcDbSymbolTableRecord
100
AcDbRegAppTableRecord
  2
AMG_3D2D_5_00
 70
     0
  0
APPID
  5
2C04
330
2B5E
100
AcDbSymbolTableRecord
100
AcDbRegAppTableRecord
  2
AMG_3D2D_5_01
 70
     0
  0
APPID
  5
2C05
330
2B5E
100
AcDbSymbolTableRecord
100
AcDbRegAppTableRecord
  2
ACAD_DSTYLE_DIMJOGGED_JOG0
 70
     0
  0
APPID
  5
2C06
330
2B5E
100
AcDbSymbolTableRecord
100
AcDbRegAppTableRecord
  2
AMG_3D2D_5_02
 70
     0
  0
APPID
  5
2CC6
330
2B5E
100
AcDbSymbolTableRecord
100
AcDbRegAppTableRecord
  2
AMG_3D2D_5.0
 70
     0
  0
APPID
  5
2D5F
330
2B5E
100
AcDbSymbolTableRecord
100
AcDbRegAppTableRecord
  2
ACAD_DSTYLE_DIMARC_LENGTH_SYMBOL
 70
     0
  0
APPID
  5
2D60
330
2B5E
100
AcDbSymbolTableRecord
100
AcDbRegAppTableRecord
  2
ACAD_DSTYLE_DIM_LINETYPE
 70
     0
  0
APPID
  5
2D61
330
2B5E
100
AcDbSymbolTableRecord
100
AcDbRegAppTableRecord
  2
ACAD_DSTYLE_DIM_EXT1_LINETYPE
 70
     0
  0
APPID
  5
2D62
330
2B5E
100
AcDbSymbolTableRecord
100
AcDbRegAppTableRecord
  2
ACAD_DSTYLE_DIM_EXT2_LINETYPE
 70
     0
  0
ENDTAB
  0
TABLE
  2
DIMSTYLE
  5
2B5F
330
0
100
AcDbSymbolTable
 70
    10
100
AcDbDimStyleTable
 71
     1
340
2C07
  0
DIMSTYLE
105
2BB4
330
2B5F
100
AcDbSymbolTableRecord
100
AcDbDimStyleTableRecord
  2
STANDARD
 70
     0
 41
12.0
 42
20.0
 44
20.0
 77
     1
 78
     8
140
64.0
141
0.0
147
10.0
172
     1
275
     1
279
     2
284
     7
285
     7
286
     7
340
2BB2
  0
DIMSTYLE
105
2BB5
330
2B5F
100
AcDbSymbolTableRecord
100
AcDbDimStyleTableRecord
  2
ANNOTATIVE
 70
     0
275
     1
279
     2
284
     7
285
     7
286
     7
340
2BB2
1001
ACADANNOTATIVE
1000
AnnotativeData
1002
{
1070
     1
1070
     1
1002
}
  0
DIMSTYLE
105
2C07
330
2B5F
100
AcDbSymbolTableRecord
100
AcDbDimStyleTableRecord
  2
AM_ANSI
 70
     0
  4
mm
 41
0.12
 42
0.05
 43
0.5
 44
0.1
 47
0.1
 48
0.1
 78
     7
 79
     2
140
0.12
141
0.0
146
0.71
147
0.06
176
   256
177
   256
178
     2
274
     4
284
     7
340
2BB2
371
    -1
372
    -1
1001
ACAD_DSTYLE_DIMARC_LENGTH_SYMBOL
1070
   379
1070
     1
1001
ACAD_DSTYLE_DIM_LINETYPE
1070
   380
1005
2BB7
1001
ACAD_DSTYLE_DIM_EXT1_LINETYPE
1070
   381
1005
2BB7
1001
ACAD_DSTYLE_DIM_EXT2_LINETYPE
1070
   382
1005
2BB7
  0
DIMSTYLE
105
2C08
330
2B5F
100
AcDbSymbolTableRecord
100
AcDbDimStyleTableRecord
  2
AM_ANSI$3
 70
     0
  4
mm
 41
0.12
 42
0.05
 43
0.5
 44
0.1
 47
0.1
 48
0.1
 78
     7
 79
     2
140
0.12
141
0.0
146
0.71
147
0.06
176
   256
177
   256
178
     2
274
     4
284
     7
288
     1
289
     0
340
2BB2
371
    -1
372
    -1
1001
ACAD_DSTYLE_DIMARC_LENGTH_SYMBOL
1070
   379
1070
     1
1001
ACAD_DSTYLE_DIM_LINETYPE
1070
   380
1005
2BB7
1001
ACAD_DSTYLE_DIM_EXT1_LINETYPE
1070
   381
1005
2BB7
1001
ACAD_DSTYLE_DIM_EXT2_LINETYPE
1070
   382
1005
2BB7
  0
DIMSTYLE
105
2C09
330
2B5F
100
AcDbSymbolTableRecord
100
AcDbDimStyleTableRecord
  2
AM_ANSI$4
 70
     0
  4
mm
 41
0.12
 42
0.05
 43
0.5
 44
0.1
 47
0.1
 48
0.1
 78
     7
 79
     2
140
0.12
141
0.0
146
0.71
147
0.06
176
   256
177
   256
178
     2
274
     4
284
     7
340
2BB2
371
    -1
372
    -1
1001
ACAD_DSTYLE_DIMARC_LENGTH_SYMBOL
1070
   379
1070
     1
1001
ACAD_DSTYLE_DIM_LINETYPE
1070
   380
1005
2BB7
1001
ACAD_DSTYLE_DIM_EXT1_LINETYPE
1070
   381
1005
2BB7
1001
ACAD_DSTYLE_DIM_EXT2_LINETYPE
1070
   382
1005
2BB7
  0
DIMSTYLE
105
2C0A
330
2B5F
100
AcDbSymbolTableRecord
100
AcDbDimStyleTableRecord
  2
AM_ANSI$7
 70
     0
  4
mm
 41
0.12
 42
0.05
 43
0.5
 44
0.1
 47
0.1
 48
0.1
 78
     7
 79
     2
140
0.12
141
0.0
146
0.71
147
0.06
176
   256
177
   256
178
     2
274
     4
284
     7
340
2BB2
371
    -1
372
    -1
1001
ACAD_DSTYLE_DIMARC_LENGTH_SYMBOL
1070
   379
1070
     1
1001
ACAD_DSTYLE_DIM_LINETYPE
1070
   380
1005
2BB7
1001
ACAD_DSTYLE_DIM_EXT1_LINETYPE
1070
   381
1005
2BB7
1001
ACAD_DSTYLE_DIM_EXT2_LINETYPE
1070
   382
1005
2BB7
  0
DIMSTYLE
105
2C0B
330
2B5F
100
AcDbSymbolTableRecord
100
AcDbDimStyleTableRecord
  2
AM_ANSI$SF
 70
     0
  4
mm
 41
0.12
 42
0.05
 43
0.5
 44
0.1
 47
0.1
 48
0.1
 75
     1
 76
     1
 78
     7
 79
     2
140
0.12
141
0.0
146
0.71
147
0.06
176
   256
177
   256
178
     2
274
     4
284
     7
340
2BB2
371
    -1
372
    -1
1001
ACAD_DSTYLE_DIMARC_LENGTH_SYMBOL
1070
   379
1070
     1
1001
ACAD_DSTYLE_DIM_LINETYPE
1070
   380
1005
2BB7
1001
ACAD_DSTYLE_DIM_EXT1_LINETYPE
1070
   381
1005
2BB7
1001
ACAD_DSTYLE_DIM_EXT2_LINETYPE
1070
   382
1005
2BB7
  0
DIMSTYLE
105
2C0C
330
2B5F
100
AcDbSymbolTableRecord
100
AcDbDimStyleTableRecord
  2
AM_ANSI$SH
 70
     0
  4
mm
 41
0.12
 42
0.05
 43
0.5
 44
0.1
 47
0.1
 48
0.1
 75
     1
 76
     1
 78
     7
 79
     2
140
0.12
141
0.0
146
0.71
147
0.06
173
     1
176
   256
177
   256
178
     2
274
     4
284
     7
340
2BB2
343
2C20
371
    -1
372
    -1
1001
ACAD_DSTYLE_DIMARC_LENGTH_SYMBOL
1070
   379
1070
     1
1001
ACAD_DSTYLE_DIM_LINETYPE
1070
   380
1005
2BB7
1001
ACAD_DSTYLE_DIM_EXT1_LINETYPE
1070
   381
1005
2BB7
1001
ACAD_DSTYLE_DIM_EXT2_LINETYPE
1070
   382
1005
2BB7
  0
DIMSTYLE
105
2C0D
330
2B5F
100
AcDbSymbolTableRecord
100
AcDbDimStyleTableRecord
  2
STANDARD1
 70
     0
 40
6.0
 41
2.5
 42
0.625
 43
6.0
 44
1.25
 47
1.0
 48
0.5
 77
     1
 78
     8
140
2.5
141
0.0
146
0.6
147
1.0
173
     1
275
     1
279
     2
284
     7
285
     7
286
     7
340
2BB2
  0
DIMSTYLE
105
2C0E
330
2B5F
100
AcDbSymbolTableRecord
100
AcDbDimStyleTableRecord
  2
STANDARD$0
 70
     0
 41
12.0
 42
20.0
 44
20.0
 73
     0
 74
     0
 77
     1
 78
     8
140
64.0
141
0.0
147
10.0
172
     1
275
     1
279
     2
284
     7
285
     7
286
     7
340
2BB2
  0
ENDTAB
  0
TABLE
  2
BLOCK_RECORD
  5
2B56
330
0
100
AcDbSymbolTable
 70
    24
  0
BLOCK_RECORD
  5
2BC9
102
{ACAD_XDICTIONARY
360
2D37
102
}
330
2B56
100
AcDbSymbolTableRecord
100
AcDbBlockTableRecord
  2
*Model_Space
340
2BCC
  0
BLOCK_RECORD
  5
2BC5
330
2B56
100
AcDbSymbolTableRecord
100
AcDbBlockTableRecord
  2
*Paper_Space
340
2BC8
  0
BLOCK_RECORD
  5
2C16
330
2B56
100
AcDbSymbolTableRecord
100
AcDbBlockTableRecord
  2
$MODEL_SPACE
340
0
  0
BLOCK_RECORD
  5
2C18
330
2B56
100
AcDbSymbolTableRecord
100
AcDbBlockTableRecord
  2
$PAPER_SPACE
340
0
  0
BLOCK_RECORD
  5
2C1A
330
2B56
100
AcDbSymbolTableRecord
100
AcDbBlockTableRecord
  2
_ORIGIN
340
0
  0
BLOCK_RECORD
  5
2C1C
330
2B56
100
AcDbSymbolTableRecord
100
AcDbBlockTableRecord
  2
_DOTBLANK
340
0
102
{BLKREFS
331
202C
331
202D
331
2035
331
2036
331
203E
331
203F
331
2047
331
2048
331
2052
331
2053
331
205D
331
205E
331
2AD1
331
2AD2
331
2AD6
331
2AD7
331
2ADB
331
2ADC
331
2AE0
331
2AE1
331
2AE5
331
2AE6
331
2AEA
331
2AEB
331
2AEF
331
2AF0
331
2AF4
331
2AF5
331
2AF9
331
2AFA
331
2AFE
331
2AFF
331
2B03
331
2B04
102
}
  0
BLOCK_RECORD
  5
2C1E
330
2B56
100
AcDbSymbolTableRecord
100
AcDbBlockTableRecord
  2
_OPEN30
340
0
102
{BLKREFS
331
2199
331
2708
331
2B11
102
}
  0
BLOCK_RECORD
  5
2C20
330
2B56
100
AcDbSymbolTableRecord
100
AcDbBlockTableRecord
  2
GENAXEH
340
0
  0
BLOCK_RECORD
  5
2C22
330
2B56
100
AcDbSymbolTableRecord
100
AcDbBlockTableRecord
  2
*U6
340
0
  0
BLOCK_RECORD
  5
2C24
330
2B56
100
AcDbSymbolTableRecord
100
AcDbBlockTableRecord
  2
*D7
340
0
  0
BLOCK_RECORD
  5
2C26
330
2B56
100
AcDbSymbolTableRecord
100
AcDbBlockTableRecord
  2
*U8
340
0
102
{BLKREFS
331
202E
102
}
  0
BLOCK_RECORD
  5
2C28
330
2B56
100
AcDbSymbolTableRecord
100
AcDbBlockTableRecord
  2
*D9
340
0
  0
BLOCK_RECORD
  5
2C2A
330
2B56
100
AcDbSymbolTableRecord
100
AcDbBlockTableRecord
  2
*U10
340
0
102
{BLKREFS
331
2037
102
}
  0
BLOCK_RECORD
  5
2C2C
330
2B56
100
AcDbSymbolTableRecord
100
AcDbBlockTableRecord
  2
*D11
340
0
  0
BLOCK_RECORD
  5
2C2E
330
2B56
100
AcDbSymbolTableRecord
100
AcDbBlockTableRecord
  2
*U12
340
0
102
{BLKREFS
331
2040
102
}
  0
BLOCK_RECORD
  5
2C30
330
2B56
100
AcDbSymbolTableRecord
100
AcDbBlockTableRecord
  2
*D13
340
0
  0
BLOCK_RECORD
  5
2C32
330
2B56
100
AcDbSymbolTableRecord
100
AcDbBlockTableRecord
  2
*U14
340
0
102
{BLKREFS
331
2049
102
}
  0
BLOCK_RECORD
  5
2C34
330
2B56
100
AcDbSymbolTableRecord
100
AcDbBlockTableRecord
  2
*D15
340
0
  0
BLOCK_RECORD
  5
2C36
330
2B56
100
AcDbSymbolTableRecord
100
AcDbBlockTableRecord
  2
*U16
340
0
102
{BLKREFS
331
2054
102
}
  0
BLOCK_RECORD
  5
2C38
330
2B56
100
AcDbSymbolTableRecord
100
AcDbBlockTableRecord
  2
*D17
340
0
  0
BLOCK_RECORD
  5
2C3A
330
2B56
100
AcDbSymbolTableRecord
100
AcDbBlockTableRecord
  2
*U18
340
0
102
{BLKREFS
331
205F
102
}
  0
BLOCK_RECORD
  5
2C3C
330
2B56
100
AcDbSymbolTableRecord
100
AcDbBlockTableRecord
  2
*U19
340
0
  0
BLOCK_RECORD
  5
2C3E
330
2B56
100
AcDbSymbolTableRecord
100
AcDbBlockTableRecord
  2
*U20
340
0
  0
BLOCK_RECORD
  5
2C40
330
2B56
100
AcDbSymbolTableRecord
100
AcDbBlockTableRecord
  2
*U21
340
0
  0
BLOCK_RECORD
  5
2C42
330
2B56
100
AcDbSymbolTableRecord
100
AcDbBlockTableRecord
  2
*U22
340
0
  0
ENDTAB
  0
ENDSEC
  0
SECTION
  2
BLOCKS
  0
BLOCK
  5
2BCA
330
2BC9
100
AcDbEntity
  8
0
100
AcDbBlockBegin
  2
*Model_Space
 70
     0
 10
0.0
 20
0.0
 30
0.0
  3
*Model_Space
  1

  0
ENDBLK
  5
2BCB
330
2BC9
100
AcDbEntity
  8
0
100
AcDbBlockEnd
  0
BLOCK
  5
2BC6
330
2BC5
100
AcDbEntity
 67
     1
  8
0
100
AcDbBlockBegin
  2
*Paper_Space
 70
     0
 10
0.0
 20
0.0
 30
0.0
  3
*Paper_Space
  1

  0
ENDBLK
  5
2BC7
330
2BC5
100
AcDbEntity
 67
     1
  8
0
100
AcDbBlockEnd
  0
BLOCK
  5
2C17
330
2C16
100
AcDbEntity
  8
0
100
AcDbBlockBegin
  2
$MODEL_SPACE
 70
     0
 10
0.0
 20
0.0
 30
0.0
  3
$MODEL_SPACE
  1

  0
ENDBLK
  5
2785
330
2C16
100
AcDbEntity
  8
0
100
AcDbBlockEnd
  0
BLOCK
  5
2C19
330
2C18
100
AcDbEntity
  8
0
100
AcDbBlockBegin
  2
$PAPER_SPACE
 70
     0
 10
0.0
 20
0.0
 30
0.0
  3
$PAPER_SPACE
  1

  0
ENDBLK
  5
2781
330
2C18
100
AcDbEntity
  8
0
100
AcDbBlockEnd
  0
BLOCK
  5
2C1B
330
2C1A
100
AcDbEntity
  8
0
100
AcDbBlockBegin
  2
_ORIGIN
 70
     0
 10
0.0
 20
0.0
 30
0.0
  3
_ORIGIN
  1

  0
CIRCLE
  5
880
330
2C1A
100
AcDbEntity
  8
0
  6
Continuous
 62
     7
100
AcDbCircle
 10
0.0
 20
0.0
 30
0.0
 40
0.5
  0
LINE
  5
881
330
2C1A
100
AcDbEntity
  8
0
  6
Continuous
 62
     7
100
AcDbLine
 10
0.0
 20
0.0
 30
0.0
 11
-1.0
 21
0.0
 31
0.0
  0
ENDBLK
  5
882
330
2C1A
100
AcDbEntity
  8
0
100
AcDbBlockEnd
  0
BLOCK
  5
2C1D
330
2C1C
100
AcDbEntity
  8
0
 62
     1
100
AcDbBlockBegin
  2
_DOTBLANK
 70
     0
 10
0.0
 20
0.0
 30
0.0
  3
_DOTBLANK
  1

  0
CIRCLE
  5
AB3
330
2C1C
100
AcDbEntity
  8
0
  6
ByBlock
 62
     0
100
AcDbCircle
 10
0.0
 20
0.0
 30
0.0
 40
0.5
  0
LINE
  5
AB4
330
2C1C
100
AcDbEntity
  8
0
  6
ByBlock
 62
     0
100
AcDbLine
 10
-0.5
 20
0.0
 30
0.0
 11
-1.0
 21
0.0
 31
0.0
  0
ENDBLK
  5
AB6
330
2C1C
100
AcDbEntity
  8
0
 62
     1
100
AcDbBlockEnd
  0
BLOCK
  5
2C1F
330
2C1E
100
AcDbEntity
  8
0
 62
     1
100
AcDbBlockBegin
  2
_OPEN30
 70
     0
 10
0.0
 20
0.0
 30
0.0
  3
_OPEN30
  1

  0
LINE
  5
AB8
330
2C1E
100
AcDbEntity
  8
0
  6
ByBlock
 62
     0
100
AcDbLine
 10
-1.0
 20
0.26794919
 30
0.0
 11
0.0
 21
0.0
 31
0.0
  0
LINE
  5
AB9
330
2C1E
100
AcDbEntity
  8
0
  6
ByBlock
 62
     0
100
AcDbLine
 10
0.0
 20
0.0
 30
0.0
 11
-1.0
 21
-0.26794919
 31
0.0
  0
LINE
  5
ABA
330
2C1E
100
AcDbEntity
  8
0
  6
ByBlock
 62
     0
100
AcDbLine
 10
0.0
 20
0.0
 30
0.0
 11
-1.0
 21
0.0
 31
0.0
  0
ENDBLK
  5
ABC
330
2C1E
100
AcDbEntity
  8
0
 62
     1
100
AcDbBlockEnd
  0
BLOCK
  5
2C21
330
2C20
100
AcDbEntity
  8
0
100
AcDbBlockBegin
  2
GENAXEH
 70
     0
 10
0.0
 20
0.0
 30
0.0
  3
GENAXEH
  1

  0
LINE
  5
FDB
330
2C20
100
AcDbEntity
  8
0
100
AcDbLine
 10
-1.0
 20
0.0
 30
0.0
 11
1.0
 21
0.0
 31
0.0
  0
ENDBLK
  5
FDD
330
2C20
100
AcDbEntity
  8
0
100
AcDbBlockEnd
  0
BLOCK
  5
2C23
330
2C22
100
AcDbEntity
  8
0
100
AcDbBlockBegin
  2
*U6
 70
     1
 10
0.0
 20
0.0
 30
0.0
  3
*U6
  1

  0
ENDBLK
  5
1ED4
330
2C22
100
AcDbEntity
  8
0
100
AcDbBlockEnd
  0
BLOCK
  5
2C25
330
2C24
100
AcDbEntity
  8
0
100
AcDbBlockBegin
  2
*D7
 70
     1
 10
0.0
 20
0.0
 30
0.0
  3
*D7
  1

  0
LINE
  5
2029
330
2C24
100
AcDbEntity
  8
SIZE
 62
     0
100
AcDbLine
 10
-135.5
 20
-449.4732256776551
 30
0.0
 11
-135.5
 21
-638.0173952306003
 31
0.0
  0
LINE
  5
202A
330
2C24
100
AcDbEntity
  8
SIZE
 62
     0
100
AcDbLine
 10
135.5
 20
-449.4732256776551
 30
0.0
 11
135.5
 21
-638.0173952306003
 31
0.0
  0
LINE
  5
202B
330
2C24
100
AcDbEntity
  8
SIZE
 62
     0
100
AcDbLine
 10
-123.5
 20
-618.0173952306001
 30
0.0
 11
123.5
 21
-618.0173952306001
 31
0.0
  0
INSERT
  5
202C
330
2C24
100
AcDbEntity
  8
SIZE
 62
     0
100
AcDbBlockReference
  2
_DOTBLANK
 10
-135.5
 20
-618.0173952306001
 30
0.0
 41
12.0
 42
12.0
 43
12.0
 50
180.0
  0
INSERT
  5
202D
330
2C24
100
AcDbEntity
  8
SIZE
 62
     0
100
AcDbBlockReference
  2
_DOTBLANK
 10
135.5
 20
-618.0173952306001
 30
0.0
 41
12.0
 42
12.0
 43
12.0
  0
INSERT
  5
202E
330
2C24
100
AcDbEntity
  8
0
100
AcDbBlockReference
  2
*U8
 10
0.0
 20
0.0
 30
0.0
  0
POINT
  5
202F
330
2C24
100
AcDbEntity
  8
DEFPOINTS
 62
     0
100
AcDbPoint
 10
-135.5
 20
-429.473225677655
 30
0.0
  0
POINT
  5
2030
330
2C24
100
AcDbEntity
  8
DEFPOINTS
 62
     0
100
AcDbPoint
 10
135.5
 20
-429.473225677655
 30
0.0
  0
POINT
  5
2031
330
2C24
100
AcDbEntity
  8
DEFPOINTS
 62
     0
100
AcDbPoint
 10
135.5
 20
-618.0173952306001
 30
0.0
  0
ENDBLK
  5
1FDF
330
2C24
100
AcDbEntity
  8
0
100
AcDbBlockEnd
  0
BLOCK
  5
2C27
330
2C26
100
AcDbEntity
  8
0
100
AcDbBlockBegin
  2
*U8
 70
     1
 10
0.0
 20
0.0
 30
0.0
  3
*U8
  1

  0
TEXT
  5
21A6
330
2C26
100
AcDbEntity
  8
SIZE
 62
     0
100
AcDbText
 10
-61.7142857142857
 20
-608.0173952306003
 30
0.0
 40
64.0
  1
271
 41
0.9
100
AcDbText
  0
ENDBLK
  5
21A8
330
2C26
100
AcDbEntity
  8
0
100
AcDbBlockEnd
  0
BLOCK
  5
2C29
330
2C28
100
AcDbEntity
  8
0
100
AcDbBlockBegin
  2
*D9
 70
     1
 10
0.0
 20
0.0
 30
0.0
  3
*D9
  1

  0
LINE
  5
2032
330
2C28
100
AcDbEntity
  8
SIZE
 62
     0
100
AcDbLine
 10
143.7000000000007
 20
-430.0
 30
0.0
 11
304.6432844803784
 21
-430.0
 31
0.0
  0
LINE
  5
2033
330
2C28
100
AcDbEntity
  8
SIZE
 62
     0
100
AcDbLine
 10
177.5
 20
-0.0000000000000057
 30
0.0
 11
304.6432844803785
 21
-0.0000000000000417
 31
0.0
  0
LINE
  5
2034
330
2C28
100
AcDbEntity
  8
SIZE
 62
     0
100
AcDbLine
 10
284.6432844803784
 20
-418.0
 30
0.0
 11
284.6432844803785
 21
-12.00000000000003
 31
0.0
  0
INSERT
  5
2035
330
2C28
100
AcDbEntity
  8
SIZE
 62
     0
100
AcDbBlockReference
  2
_DOTBLANK
 10
284.6432844803784
 20
-430.0
 30
0.0
 41
12.0
 42
12.0
 43
12.0
 50
270.0
  0
INSERT
  5
2036
330
2C28
100
AcDbEntity
  8
SIZE
 62
     0
100
AcDbBlockReference
  2
_DOTBLANK
 10
284.6432844803785
 20
-0.000000000000036
 30
0.0
 41
12.0
 42
12.0
 43
12.0
 50
90.0
  0
INSERT
  5
2037
330
2C28
100
AcDbEntity
  8
0
100
AcDbBlockReference
  2
*U10
 10
0.0
 20
0.0
 30
0.0
  0
POINT
  5
2038
330
2C28
100
AcDbEntity
  8
DEFPOINTS
 62
     0
100
AcDbPoint
 10
123.7000000000007
 20
-430.0
 30
0.0
  0
POINT
  5
2039
330
2C28
100
AcDbEntity
  8
DEFPOINTS
 62
     0
100
AcDbPoint
 10
157.5
 20
0.0
 30
0.0
  0
POINT
  5
203A
330
2C28
100
AcDbEntity
  8
DEFPOINTS
 62
     0
100
AcDbPoint
 10
284.6432844803785
 20
-0.000000000000036
 30
0.0
  0
ENDBLK
  5
1FEB
330
2C28
100
AcDbEntity
  8
0
100
AcDbBlockEnd
  0
BLOCK
  5
2C2B
330
2C2A
100
AcDbEntity
  8
0
100
AcDbBlockBegin
  2
*U10
 70
     1
 10
0.0
 20
0.0
 30
0.0
  3
*U10
  1

  0
TEXT
  5
21AA
330
2C2A
100
AcDbEntity
  8
SIZE
 62
     0
100
AcDbText
 10
274.6432844803785
 20
-289.0571428571429
 30
0.0
 40
64.0
  1
430
 50
90.0
 41
0.9
100
AcDbText
  0
ENDBLK
  5
21AC
330
2C2A
100
AcDbEntity
  8
0
100
AcDbBlockEnd
  0
BLOCK
  5
2C2D
330
2C2C
100
AcDbEntity
  8
0
100
AcDbBlockBegin
  2
*D11
 70
     1
 10
0.0
 20
0.0
 30
0.0
  3
*D11
  1

  0
LINE
  5
203B
330
2C2C
100
AcDbEntity
  8
SIZE
 62
     0
100
AcDbLine
 10
-140.0
 20
32.5
 30
0.0
 11
-140.0
 21
136.4516878685499
 31
0.0
  0
LINE
  5
203C
330
2C2C
100
AcDbEntity
  8
SIZE
 62
     0
100
AcDbLine
 10
140.0
 20
32.5
 30
0.0
 11
140.0
 21
136.4516878685499
 31
0.0
  0
LINE
  5
203D
330
2C2C
100
AcDbEntity
  8
SIZE
 62
     0
100
AcDbLine
 10
-128.0
 20
116.4516878685499
 30
0.0
 11
128.0
 21
116.4516878685499
 31
0.0
  0
INSERT
  5
203E
330
2C2C
100
AcDbEntity
  8
SIZE
 62
     0
100
AcDbBlockReference
  2
_DOTBLANK
 10
-140.0
 20
116.4516878685499
 30
0.0
 41
12.0
 42
12.0
 43
12.0
 50
180.0
  0
INSERT
  5
203F
330
2C2C
100
AcDbEntity
  8
SIZE
 62
     0
100
AcDbBlockReference
  2
_DOTBLANK
 10
140.0
 20
116.4516878685499
 30
0.0
 41
12.0
 42
12.0
 43
12.0
  0
INSERT
  5
2040
330
2C2C
100
AcDbEntity
  8
0
100
AcDbBlockReference
  2
*U12
 10
0.0
 20
0.0
 30
0.0
  0
POINT
  5
2041
330
2C2C
100
AcDbEntity
  8
DEFPOINTS
 62
     0
100
AcDbPoint
 10
-140.0
 20
12.5
 30
0.0
  0
POINT
  5
2042
330
2C2C
100
AcDbEntity
  8
DEFPOINTS
 62
     0
100
AcDbPoint
 10
140.0
 20
12.5
 30
0.0
  0
POINT
  5
2043
330
2C2C
100
AcDbEntity
  8
DEFPOINTS
 62
     0
100
AcDbPoint
 10
140.0
 20
116.4516878685499
 30
0.0
  0
ENDBLK
  5
1FF7
330
2C2C
100
AcDbEntity
  8
0
100
AcDbBlockEnd
  0
BLOCK
  5
2C2F
330
2C2E
100
AcDbEntity
  8
0
100
AcDbBlockBegin
  2
*U12
 70
     1
 10
0.0
 20
0.0
 30
0.0
  3
*U12
  1

  0
TEXT
  5
21AE
330
2C2E
100
AcDbEntity
  8
SIZE
 62
     0
100
AcDbText
 10
-74.05714285714283
 20
126.4516878685499
 30
0.0
 40
64.0
  1
280
 41
0.9
100
AcDbText
  0
ENDBLK
  5
21B0
330
2C2E
100
AcDbEntity
  8
0
100
AcDbBlockEnd
  0
BLOCK
  5
2C31
330
2C30
100
AcDbEntity
  8
0
100
AcDbBlockBegin
  2
*D13
 70
     1
 10
0.0
 20
0.0
 30
0.0
  3
*D13
  1

  0
LINE
  5
2044
330
2C30
100
AcDbEntity
  8
SIZE
 62
     0
100
AcDbLine
 10
-157.5
 20
20.0
 30
0.0
 11
-157.5
 21
245.5794621189598
 31
0.0
  0
LINE
  5
2045
330
2C30
100
AcDbEntity
  8
SIZE
 62
     0
100
AcDbLine
 10
157.5
 20
20.0
 30
0.0
 11
157.5
 21
245.5794621189598
 31
0.0
  0
LINE
  5
2046
330
2C30
100
AcDbEntity
  8
SIZE
 62
     0
100
AcDbLine
 10
-145.5
 20
225.5794621189598
 30
0.0
 11
145.5
 21
225.5794621189598
 31
0.0
  0
INSERT
  5
2047
330
2C30
100
AcDbEntity
  8
SIZE
 62
     0
100
AcDbBlockReference
  2
_DOTBLANK
 10
-157.5
 20
225.5794621189598
 30
0.0
 41
12.0
 42
12.0
 43
12.0
 50
180.0
  0
INSERT
  5
2048
330
2C30
100
AcDbEntity
  8
SIZE
 62
     0
100
AcDbBlockReference
  2
_DOTBLANK
 10
157.5
 20
225.5794621189598
 30
0.0
 41
12.0
 42
12.0
 43
12.0
  0
INSERT
  5
2049
330
2C30
100
AcDbEntity
  8
0
100
AcDbBlockReference
  2
*U14
 10
0.0
 20
0.0
 30
0.0
  0
POINT
  5
204A
330
2C30
100
AcDbEntity
  8
DEFPOINTS
 62
     0
100
AcDbPoint
 10
-157.5
 20
0.0
 30
0.0
  0
POINT
  5
204B
330
2C30
100
AcDbEntity
  8
DEFPOINTS
 62
     0
100
AcDbPoint
 10
157.5
 20
0.0
 30
0.0
  0
POINT
  5
204C
330
2C30
100
AcDbEntity
  8
DEFPOINTS
 62
     0
100
AcDbPoint
 10
157.5
 20
225.5794621189598
 30
0.0
  0
ENDBLK
  5
2003
330
2C30
100
AcDbEntity
  8
0
100
AcDbBlockEnd
  0
BLOCK
  5
2C33
330
2C32
100
AcDbEntity
  8
0
100
AcDbBlockBegin
  2
*U14
 70
     1
 10
0.0
 20
0.0
 30
0.0
  3
*U14
  1

  0
TEXT
  5
21B2
330
2C32
100
AcDbEntity
  8
SIZE
 62
     0
100
AcDbText
 10
-68.57142857142857
 20
235.5794621189598
 30
0.0
 40
64.0
  1
315
 41
0.9
100
AcDbText
  0
ENDBLK
  5
21B4
330
2C32
100
AcDbEntity
  8
0
100
AcDbBlockEnd
  0
BLOCK
  5
2C35
330
2C34
100
AcDbEntity
  8
0
100
AcDbBlockBegin
  2
*D15
 70
     1
 10
0.0
 20
0.0
 30
0.0
  3
*D15
  1

  0
LINE
  5
204D
330
2C34
100
AcDbEntity
  8
SIZE
 62
     0
100
AcDbLine
 10
-177.5
 20
0.0000000000000057
 30
0.0
 11
-219.7694545525301
 21
0.0000000000000176
 31
0.0
  0
LINE
  5
204E
330
2C34
100
AcDbEntity
  8
SIZE
 62
     0
100
AcDbLine
 10
-177.5
 20
-7.999999999999993
 30
0.0
 11
-219.7694545525301
 21
-7.999999999999982
 31
0.0
  0
LINE
  5
204F
330
2C34
100
AcDbEntity
  8
SIZE
 62
     0
100
AcDbLine
 10
-199.76945455253
 20
12.00000000000001
 30
0.0
 11
-199.76945455253
 21
24.00000000000001
 31
0.0
  0
LINE
  5
2050
330
2C34
100
AcDbEntity
  8
SIZE
 62
     0
100
AcDbLine
 10
-199.76945455253
 20
-19.99999999999999
 30
0.0
 11
-199.7694545525301
 21
-90.4
 31
0.0
  0
LINE
  5
2051
330
2C34
100
AcDbEntity
  8
SIZE
 62
     0
100
AcDbLine
 10
-199.76945455253
 20
0.000000000000012
 30
0.0
 11
-199.76945455253
 21
-7.999999999999985
 31
0.0
  0
INSERT
  5
2052
330
2C34
100
AcDbEntity
  8
SIZE
 62
     0
100
AcDbBlockReference
  2
_DOTBLANK
 10
-199.76945455253
 20
0.000000000000012
 30
0.0
 41
12.0
 42
12.0
 43
12.0
 50
270.0
  0
INSERT
  5
2053
330
2C34
100
AcDbEntity
  8
SIZE
 62
     0
100
AcDbBlockReference
  2
_DOTBLANK
 10
-199.76945455253
 20
-7.999999999999985
 30
0.0
 41
12.0
 42
12.0
 43
12.0
 50
90.0
  0
INSERT
  5
2054
330
2C34
100
AcDbEntity
  8
0
100
AcDbBlockReference
  2
*U16
 10
0.0
 20
0.0
 30
0.0
  0
POINT
  5
2055
330
2C34
100
AcDbEntity
  8
DEFPOINTS
 62
     0
100
AcDbPoint
 10
-157.5
 20
0.0
 30
0.0
  0
POINT
  5
2056
330
2C34
100
AcDbEntity
  8
DEFPOINTS
 62
     0
100
AcDbPoint
 10
-157.5
 20
-8.0
 30
0.0
  0
POINT
  5
2057
330
2C34
100
AcDbEntity
  8
DEFPOINTS
 62
     0
100
AcDbPoint
 10
-199.76945455253
 20
-7.999999999999985
 30
0.0
  0
ENDBLK
  5
200F
330
2C34
100
AcDbEntity
  8
0
100
AcDbBlockEnd
  0
BLOCK
  5
2C37
330
2C36
100
AcDbEntity
  8
0
100
AcDbBlockBegin
  2
*U16
 70
     1
 10
0.0
 20
0.0
 30
0.0
  3
*U16
  1

  0
TEXT
  5
21B6
330
2C36
100
AcDbEntity
  8
SIZE
 62
     0
100
AcDbText
 10
-209.7694545525301
 20
-80.4
 30
0.0
 40
64.0
  1
8
 50
90.0
 41
0.9
100
AcDbText
  0
ENDBLK
  5
21B8
330
2C36
100
AcDbEntity
  8
0
100
AcDbBlockEnd
  0
BLOCK
  5
2C39
330
2C38
100
AcDbEntity
  8
0
100
AcDbBlockBegin
  2
*D17
 70
     1
 10
0.0
 20
0.0
 30
0.0
  3
*D17
  1

  0
LINE
  5
2058
330
2C38
100
AcDbEntity
  8
SIZE
 62
     0
100
AcDbLine
 10
143.7000000000007
 20
-430.0
 30
0.0
 11
304.626441221626
 21
-430.0
 31
0.0
  0
LINE
  5
2059
330
2C38
100
AcDbEntity
  8
SIZE
 62
     0
100
AcDbLine
 10
143.1000000000022
 20
-441.0000000000001
 30
0.0
 11
304.626441221626
 21
-441.0000000000001
 31
0.0
  0
LINE
  5
205A
330
2C38
100
AcDbEntity
  8
SIZE
 62
     0
100
AcDbLine
 10
284.626441221626
 20
-418.0
 30
0.0
 11
284.626441221626
 21
-406.0
 31
0.0
  0
LINE
  5
205B
330
2C38
100
AcDbEntity
  8
SIZE
 62
     0
100
AcDbLine
 10
284.626441221626
 20
-453.0
 30
0.0
 11
284.626441221626
 21
-542.6000000000001
 31
0.0
  0
LINE
  5
205C
330
2C38
100
AcDbEntity
  8
SIZE
 62
     0
100
AcDbLine
 10
284.626441221626
 20
-430.0
 30
0.0
 11
284.626441221626
 21
-441.0000000000001
 31
0.0
  0
INSERT
  5
205D
330
2C38
100
AcDbEntity
  8
SIZE
 62
     0
100
AcDbBlockReference
  2
_DOTBLANK
 10
284.626441221626
 20
-430.0
 30
0.0
 41
12.0
 42
12.0
 43
12.0
 50
270.0
  0
INSERT
  5
205E
330
2C38
100
AcDbEntity
  8
SIZE
 62
     0
100
AcDbBlockReference
  2
_DOTBLANK
 10
284.626441221626
 20
-441.0000000000001
 30
0.0
 41
12.0
 42
12.0
 43
12.0
 50
90.0
  0
INSERT
  5
205F
330
2C38
100
AcDbEntity
  8
0
100
AcDbBlockReference
  2
*U18
 10
0.0
 20
0.0
 30
0.0
  0
POINT
  5
2060
330
2C38
100
AcDbEntity
  8
DEFPOINTS
 62
     0
100
AcDbPoint
 10
123.7000000000007
 20
-430.0
 30
0.0
  0
POINT
  5
2061
330
2C38
100
AcDbEntity
  8
DEFPOINTS
 62
     0
100
AcDbPoint
 10
123.1000000000022
 20
-441.0
 30
0.0
  0
POINT
  5
2062
330
2C38
100
AcDbEntity
  8
DEFPOINTS
 62
     0
100
AcDbPoint
 10
284.626441221626
 20
-441.0000000000001
 30
0.0
  0
ENDBLK
  5
201D
330
2C38
100
AcDbEntity
  8
0
100
AcDbBlockEnd
  0
BLOCK
  5
2C3B
330
2C3A
100
AcDbEntity
  8
0
100
AcDbBlockBegin
  2
*U18
 70
     1
 10
0.0
 20
0.0
 30
0.0
  3
*U18
  1

  0
TEXT
  5
21BA
330
2C3A
100
AcDbEntity
  8
SIZE
 62
     0
100
AcDbText
 10
274.6264412216261
 20
-532.6
 30
0.0
 40
64.0
  1
11
 50
90.0
 41
0.9
100
AcDbText
  0
ENDBLK
  5
21BC
330
2C3A
100
AcDbEntity
  8
0
100
AcDbBlockEnd
  0
BLOCK
  5
2C3D
330
2C3C
100
AcDbEntity
  8
0
100
AcDbBlockBegin
  2
*U19
 70
     1
 10
0.0
 20
0.0
 30
0.0
  3
*U19
  1

  0
INSERT
  5
2199
330
2C3C
100
AcDbEntity
  8
NOTE
100
AcDbBlockReference
  2
_OPEN30
 10
-140.0
 20
0.0
 30
0.0
 41
12.0
 42
12.0
 43
12.0
 50
312.6090116116894
  0
POLYLINE
  5
219A
330
2C3C
100
AcDbEntity
  8
NOTE
100
AcDb2dPolyline
 66
     1
 10
0.0
 20
0.0
 30
0.0
  0
VERTEX
  5
219B
330
219A
100
AcDbEntity
  8
NOTE
100
AcDbVertex
100
AcDb2dVertex
 10
-148.1239008361894
 20
8.831887408915472
 30
0.0
  0
VERTEX
  5
219C
330
219A
100
AcDbEntity
  8
NOTE
100
AcDbVertex
100
AcDb2dVertex
 10
-227.8693999922543
 20
95.5270950580134
 30
0.0
  0
VERTEX
  5
219D
330
219A
100
AcDbEntity
  8
NOTE
100
AcDbVertex
100
AcDb2dVertex
 10
-776.4522571351115
 20
95.5270950580134
 30
0.0
  0
SEQEND
  5
219E
330
219A
100
AcDbEntity
  8
NOTE
  0
ENDBLK
  5
21A0
330
2C3C
100
AcDbEntity
  8
0
100
AcDbBlockEnd
  0
BLOCK
  5
2C3F
330
2C3E
100
AcDbEntity
  8
0
100
AcDbBlockBegin
  2
*U20
 70
     1
 10
0.0
 20
0.0
 30
0.0
  3
*U20
  1

  0
TEXT
  5
21A2
330
2C3E
100
AcDbEntity
  8
NOTE
100
AcDbText
 10
-773.7093999922541
 20
113.5270950580134
 30
0.0
 40
64.0
  1
4×φ10取付穴
 41
0.9
100
AcDbText
  0
ENDBLK
  5
21A4
330
2C3E
100
AcDbEntity
  8
0
100
AcDbBlockEnd
  0
BLOCK
  5
2C41
330
2C40
100
AcDbEntity
  8
0
100
AcDbBlockBegin
  2
*U21
 70
     1
 10
0.0
 20
0.0
 30
0.0
  3
*U21
  1

  0
POLYLINE
  5
2700
330
2C40
100
AcDbEntity
  8
NOTE
100
AcDb2dPolyline
 66
     1
 10
0.0
 20
0.0
 30
0.0
  0
VERTEX
  5
2701
330
2700
100
AcDbEntity
  8
NOTE
100
AcDbVertex
100
AcDb2dVertex
 10
874.2336775530022
 20
670.9488948310767
 30
0.0
  0
VERTEX
  5
2702
330
2700
100
AcDbEntity
  8
NOTE
100
AcDbVertex
100
AcDb2dVertex
 10
940.6624450562656
 20
756.9779924269933
 30
0.0
  0
VERTEX
  5
2703
330
2700
100
AcDbEntity
  8
NOTE
100
AcDbVertex
100
AcDb2dVertex
 10
1489.245302199123
 20
756.9779924269933
 30
0.0
  0
SEQEND
  5
2704
330
2700
100
AcDbEntity
  8
NOTE
  0
ENDBLK
  5
2706
330
2C40
100
AcDbEntity
  8
0
100
AcDbBlockEnd
  0
BLOCK
  5
2C43
330
2C42
100
AcDbEntity
  8
0
100
AcDbBlockBegin
  2
*U22
 70
     1
 10
0.0
 20
0.0
 30
0.0
  3
*U22
  1

  0
INSERT
  5
2708
330
2C42
100
AcDbEntity
  8
NOTE
100
AcDbBlockReference
  2
_OPEN30
 10
140.0
 20
140.0
 30
0.0
 41
12.0
 42
12.0
 43
12.0
 50
232.3258907693335
  0
POLYLINE
  5
2709
330
2C42
100
AcDbEntity
  8
NOTE
100
AcDb2dPolyline
 66
     1
 10
0.0
 20
0.0
 30
0.0
  0
VERTEX
  5
270A
330
2709
100
AcDbEntity
  8
NOTE
100
AcDbVertex
100
AcDb2dVertex
 10
147.3340332839448
 20
149.4979974620964
 30
0.0
  0
VERTEX
  5
270B
330
2709
100
AcDbEntity
  8
NOTE
100
AcDbVertex
100
AcDb2dVertex
 10
213.7628007872081
 20
235.527095058013
 30
0.0
  0
VERTEX
  5
270C
330
2709
100
AcDbEntity
  8
NOTE
100
AcDbVertex
100
AcDb2dVertex
 10
762.3456579300651
 20
235.527095058013
 30
0.0
  0
SEQEND
  5
270D
330
2709
100
AcDbEntity
  8
NOTE
  0
ENDBLK
  5
270F
330
2C42
100
AcDbEntity
  8
0
100
AcDbBlockEnd
  0
ENDSEC
  0
SECTION
  2
ENTITIES
  0
TEXT
  5
953
330
2BC9
100
AcDbEntity
  8
OUTLINE
  6
Continuous
 62
     3
100
AcDbText
 10
-418.231467
 20
13.715189
 30
0.0
 40
64.0
  1
 
 41
0.9
100
AcDbText
  0
TEXT
  5
954
330
2BC9
100
AcDbEntity
  8
OUTLINE
  6
Continuous
 62
     3
100
AcDbText
 10
-418.231467
 20
13.715189
 30
0.0
 40
64.0
  1
 
 41
0.9
100
AcDbText
  0
TEXT
  5
955
330
2BC9
100
AcDbEntity
  8
OUTLINE
  6
Continuous
 62
     3
100
AcDbText
 10
1341.41903
 20
-706.0588199999997
 30
0.0
 40
64.0
  1
 
 41
0.9
100
AcDbText
  0
TEXT
  5
956
330
2BC9
100
AcDbEntity
  8
OUTLINE
  6
Continuous
 62
     3
100
AcDbText
 10
1341.41903
 20
-706.0588199999997
 30
0.0
 40
64.0
  1
 
 41
0.9
100
AcDbText
  0
TEXT
  5
957
330
2BC9
100
AcDbEntity
  8
OUTLINE
  6
Continuous
 62
     3
100
AcDbText
 10
1341.41903
 20
-706.0588199999997
 30
0.0
 40
64.0
  1
 
 41
0.9
100
AcDbText
  0
TEXT
  5
958
330
2BC9
100
AcDbEntity
  8
OUTLINE
  6
Continuous
 62
     3
100
AcDbText
 10
1341.41903
 20
-706.0588199999997
 30
0.0
 40
64.0
  1
 
 41
0.9
100
AcDbText
  0
TEXT
  5
29FE
330
2BC9
100
AcDbEntity
  8
ETC
100
AcDbText
 10
794.3193871174554
 20
951.4982627297737
 30
0.0
 40
64.0
  1
システム部材
 41
0.9
100
AcDbText
  0
TEXT
  5
29FF
330
2BC9
100
AcDbEntity
  8
ETC
100
AcDbText
 10
791.4528213918049
 20
1053.329022485296
 30
0.0
 40
64.0
  1
QWH-80SA_3
 41
0.9
100
AcDbText
  0
CIRCLE
  5
2A00
330
2BC9
100
AcDbEntity
  8
FIX
100
AcDbCircle
 10
449.9999999999963
 20
450.0000000000036
 30
0.0
 40
7.5
  0
CIRCLE
  5
2A01
330
2BC9
100
AcDbEntity
  8
FIX
100
AcDbCircle
 10
-449.9999999999966
 20
450.0000000000036
 30
0.0
 40
7.5
  0
CIRCLE
  5
2A02
330
2BC9
100
AcDbEntity
  8
FIX
100
AcDbCircle
 10
-450.0000000000039
 20
-449.9999999999963
 30
0.0
 40
7.5
  0
CIRCLE
  5
2A03
330
2BC9
100
AcDbEntity
  8
FIX
100
AcDbCircle
 10
449.9999999999963
 20
-449.9999999999963
 30
0.0
 40
7.5
  0
LINE
  5
2A04
330
2BC9
100
AcDbEntity
  8
DETAIL
100
AcDbLine
 10
-474.9999999999966
 20
475.0000000000036
 30
0.0
 11
474.9999999999888
 21
475.0000000000036
 31
0.0
  0
LINE
  5
2A05
330
2BC9
100
AcDbEntity
  8
DETAIL
100
AcDbLine
 10
-435.0000000000037
 20
435.0000000000036
 30
0.0
 11
434.9999999999891
 21
435.0000000000036
 31
0.0
  0
CIRCLE
  5
2A06
330
2BC9
100
AcDbEntity
  8
FIX
100
AcDbCircle
 10
199.9999999999963
 20
450.0000000000036
 30
0.0
 40
7.5
  0
CIRCLE
  5
2A07
330
2BC9
100
AcDbEntity
  8
FIX
100
AcDbCircle
 10
249.9999999999964
 20
450.0000000000036
 30
0.0
 40
7.5
  0
CIRCLE
  5
2A08
330
2BC9
100
AcDbEntity
  8
FIX
100
AcDbCircle
 10
-200.0000000000039
 20
450.0000000000036
 30
0.0
 40
7.5
  0
CIRCLE
  5
2A09
330
2BC9
100
AcDbEntity
  8
FIX
100
AcDbCircle
 10
-250.0000000000039
 20
450.0000000000036
 30
0.0
 40
7.5
  0
LINE
  5
2A0A
330
2BC9
100
AcDbEntity
  8
DETAIL
100
AcDbLine
 10
474.9999999999888
 20
-474.9999999999963
 30
0.0
 11
474.9999999999888
 21
475.0000000000036
 31
0.0
  0
LINE
  5
2A0B
330
2BC9
100
AcDbEntity
  8
DETAIL
100
AcDbLine
 10
434.9999999999891
 20
435.0000000000036
 30
0.0
 11
434.9999999999891
 21
-434.9999999999964
 31
0.0
  0
CIRCLE
  5
2A0C
330
2BC9
100
AcDbEntity
  8
FIX
100
AcDbCircle
 10
449.9999999999963
 20
250.0000000000036
 30
0.0
 40
7.5
  0
CIRCLE
  5
2A0D
330
2BC9
100
AcDbEntity
  8
FIX
100
AcDbCircle
 10
449.9999999999963
 20
200.0000000000036
 30
0.0
 40
7.5
  0
CIRCLE
  5
2A0E
330
2BC9
100
AcDbEntity
  8
FIX
100
AcDbCircle
 10
449.9999999999963
 20
-199.9999999999963
 30
0.0
 40
7.5
  0
CIRCLE
  5
2A0F
330
2BC9
100
AcDbEntity
  8
FIX
100
AcDbCircle
 10
449.9999999999963
 20
-249.9999999999964
 30
0.0
 40
7.5
  0
LINE
  5
2A10
330
2BC9
100
AcDbEntity
  8
DETAIL
100
AcDbLine
 10
-474.9999999999966
 20
475.0000000000036
 30
0.0
 11
-475.0000000000039
 21
-474.9999999999963
 31
0.0
  0
LINE
  5
2A11
330
2BC9
100
AcDbEntity
  8
DETAIL
100
AcDbLine
 10
-435.0000000000037
 20
-434.9999999999964
 30
0.0
 11
-435.0000000000037
 21
435.0000000000036
 31
0.0
  0
CIRCLE
  5
2A12
330
2BC9
100
AcDbEntity
  8
FIX
100
AcDbCircle
 10
-450.0000000000039
 20
250.0000000000036
 30
0.0
 40
7.5
  0
CIRCLE
  5
2A13
330
2BC9
100
AcDbEntity
  8
FIX
100
AcDbCircle
 10
-450.0000000000039
 20
200.0000000000036
 30
0.0
 40
7.5
  0
CIRCLE
  5
2A14
330
2BC9
100
AcDbEntity
  8
FIX
100
AcDbCircle
 10
-450.0000000000039
 20
-199.9999999999963
 30
0.0
 40
7.5
  0
CIRCLE
  5
2A15
330
2BC9
100
AcDbEntity
  8
FIX
100
AcDbCircle
 10
-450.0000000000039
 20
-249.9999999999964
 30
0.0
 40
7.5
  0
LINE
  5
2A16
330
2BC9
100
AcDbEntity
  8
DETAIL
100
AcDbLine
 10
-435.9999999999964
 20
-475.4142135623696
 30
0.0
 11
435.9999999999963
 21
-475.4142135623696
 31
0.0
  0
LINE
  5
2A17
330
2BC9
100
AcDbEntity
  8
DETAIL
100
AcDbLine
 10
-437.0
 20
-474.9999999999963
 30
0.0
 11
-437.0
 21
-475.4142135623696
 31
0.0
  0
LINE
  5
2A18
330
2BC9
100
AcDbEntity
  8
DETAIL
100
AcDbLine
 10
436.9999999999963
 20
-614.9999999999963
 30
0.0
 11
436.9999999999963
 21
-475.4142135623696
 31
0.0
  0
LINE
  5
2A19
330
2BC9
100
AcDbEntity
  8
DETAIL
100
AcDbLine
 10
436.9999999999963
 20
-475.4142135623696
 30
0.0
 11
436.9999999999963
 21
-474.9999999999963
 31
0.0
  0
LINE
  5
2A1A
330
2BC9
100
AcDbEntity
  8
DETAIL
100
AcDbLine
 10
435.9999999999963
 20
-475.4142135623696
 30
0.0
 11
436.9999999999963
 21
-475.4142135623696
 31
0.0
  0
LINE
  5
2A1B
330
2BC9
100
AcDbEntity
  8
DETAIL
100
AcDbLine
 10
-437.0
 20
-475.4142135623696
 30
0.0
 11
-437.0
 21
-614.9999999999963
 31
0.0
  0
LINE
  5
2A1C
330
2BC9
100
AcDbEntity
  8
DETAIL
100
AcDbLine
 10
-435.9999999999964
 20
-475.4142135623696
 30
0.0
 11
-437.0
 21
-475.4142135623696
 31
0.0
  0
LINE
  5
2A1D
330
2BC9
100
AcDbEntity
  8
DETAIL
100
AcDbLine
 10
-475.0000000000039
 20
-474.9999999999963
 30
0.0
 11
474.9999999999888
 21
-474.9999999999963
 31
0.0
  0
LINE
  5
2A1E
330
2BC9
100
AcDbEntity
  8
DETAIL
100
AcDbLine
 10
-435.0000000000001
 20
-434.9999999999964
 30
0.0
 11
434.9999999999964
 21
-434.9999999999964
 31
0.0
  0
LINE
  5
2A1F
330
2BC9
100
AcDbEntity
  8
DETAIL
100
AcDbLine
 10
-437.0
 20
-614.9999999999963
 30
0.0
 11
-437.0
 21
-1019.258994552421
 31
0.0
  0
LINE
  5
2A20
330
2BC9
100
AcDbEntity
  8
DETAIL
100
AcDbLine
 10
436.9999999999963
 20
-1019.258994552421
 30
0.0
 11
436.9999999999963
 21
-614.9999999999963
 31
0.0
  0
LINE
  5
2A21
330
2BC9
100
AcDbEntity
  8
DETAIL
100
AcDbLine
 10
-447.5000000000075
 20
-1019.258994552421
 30
0.0
 11
447.4999999999891
 21
-1019.258994552421
 31
0.0
  0
LINE
  5
2A22
330
2BC9
100
AcDbEntity
  8
DETAIL
100
AcDbLine
 10
-447.5000000000075
 20
-1033.1546579461
 30
0.0
 11
448.4999999999891
 21
-1033.1546579461
 31
0.0
  0
LINE
  5
2A23
330
2BC9
100
AcDbEntity
  8
DETAIL
100
AcDbLine
 10
-437.3000000000067
 20
-1034.147205331363
 30
0.0
 11
-448.5000000000038
 21
-1034.147205331363
 31
0.0
  0
LINE
  5
2A24
330
2BC9
100
AcDbEntity
  8
DETAIL
100
AcDbLine
 10
-448.5000000000111
 20
-1034.147205331363
 30
0.0
 11
-448.5000000000111
 21
-1019.258994552421
 31
0.0
  0
LINE
  5
2A25
330
2BC9
100
AcDbEntity
  8
DETAIL
100
AcDbLine
 10
-448.5000000000111
 20
-1035.975094770521
 30
0.0
 11
-448.5000000000111
 21
-1034.147205331363
 31
0.0
  0
LINE
  5
2A26
330
2BC9
100
AcDbEntity
  8
DETAIL
100
AcDbLine
 10
-448.5000000000111
 20
-1019.258994552421
 30
0.0
 11
-447.5000000000111
 21
-1019.258994552421
 31
0.0
  0
LINE
  5
2A27
330
2BC9
100
AcDbEntity
  8
DETAIL
100
AcDbLine
 10
-448.5000000000111
 20
-1033.1546579461
 30
0.0
 11
-437.3000000000136
 21
-1033.1546579461
 31
0.0
  0
LINE
  5
2A28
330
2BC9
100
AcDbEntity
  8
DETAIL
100
AcDbLine
 10
-437.3000000000067
 20
-1035.853235474577
 30
0.0
 11
-437.3000000000067
 21
-1034.147205331363
 31
0.0
  0
LINE
  5
2A29
330
2BC9
100
AcDbEntity
  8
DETAIL
100
AcDbLine
 10
-437.3000000000067
 20
-1034.147205331363
 30
0.0
 11
-437.3000000000067
 21
-1033.1546579461
 31
0.0
  0
LINE
  5
2A2A
330
2BC9
100
AcDbEntity
  8
DETAIL
100
AcDbLine
 10
448.4999999999891
 20
-1033.1546579461
 30
0.0
 11
437.2999999999987
 21
-1033.1546579461
 31
0.0
  0
LINE
  5
2A2B
330
2BC9
100
AcDbEntity
  8
DETAIL
100
AcDbLine
 10
448.4999999999891
 20
-1019.258994552421
 30
0.0
 11
447.4999999999891
 21
-1019.258994552421
 31
0.0
  0
LINE
  5
2A2C
330
2BC9
100
AcDbEntity
  8
DETAIL
100
AcDbLine
 10
448.4999999999891
 20
-1034.147205331363
 30
0.0
 11
448.4999999999891
 21
-1019.258994552421
 31
0.0
  0
LINE
  5
2A2D
330
2BC9
100
AcDbEntity
  8
DETAIL
100
AcDbLine
 10
437.2999999999847
 20
-1034.147205331363
 30
0.0
 11
448.4999999999891
 21
-1034.147205331363
 31
0.0
  0
LINE
  5
2A2E
330
2BC9
100
AcDbEntity
  8
DETAIL
100
AcDbLine
 10
448.4999999999891
 20
-1034.147205331363
 30
0.0
 11
448.4999999999891
 21
-1035.975094770521
 31
0.0
  0
LINE
  5
2A2F
330
2BC9
100
AcDbEntity
  8
DETAIL
100
AcDbLine
 10
437.2999999999847
 20
-1033.1546579461
 30
0.0
 11
437.2999999999847
 21
-1034.147205331363
 31
0.0
  0
LINE
  5
2A30
330
2BC9
100
AcDbEntity
  8
DETAIL
100
AcDbLine
 10
437.2999999999847
 20
-1034.147205331363
 30
0.0
 11
437.2999999999847
 21
-1035.853235474577
 31
0.0
  0
LINE
  5
2A31
330
2BC9
100
AcDbEntity
  8
DETAIL
100
AcDbLine
 10
-437.3000000000067
 20
-1042.801067171418
 30
0.0
 11
-437.3000000000067
 21
-1044.628956610575
 31
0.0
  0
LINE
  5
2A32
330
2BC9
100
AcDbEntity
  8
DETAIL
100
AcDbLine
 10
437.2999999999847
 20
-1042.801067171418
 30
0.0
 11
437.2999999999847
 21
-1044.628956610575
 31
0.0
  0
LINE
  5
2A33
330
2BC9
100
AcDbEntity
  8
DETAIL
100
AcDbLine
 10
437.2999999999847
 20
-1035.853235474577
 30
0.0
 11
437.2999999999847
 21
-1042.801067171418
 31
0.0
  0
LINE
  5
2A34
330
2BC9
100
AcDbEntity
  8
DETAIL
100
AcDbLine
 10
437.2999999999847
 20
-1042.801067171418
 30
0.0
 11
-437.3000000000067
 21
-1042.801067171418
 31
0.0
  0
LINE
  5
2A35
330
2BC9
100
AcDbEntity
  8
DETAIL
100
AcDbLine
 10
-437.3000000000067
 20
-1035.853235474577
 30
0.0
 11
-437.3000000000067
 21
-1042.801067171418
 31
0.0
  0
LINE
  5
2A36
330
2BC9
100
AcDbEntity
  8
DETAIL
100
AcDbLine
 10
437.2999999999847
 20
-1034.147205331363
 30
0.0
 11
437.2999999999847
 21
-1035.853235474577
 31
0.0
  0
LINE
  5
2A37
330
2BC9
100
AcDbEntity
  8
DETAIL
100
AcDbLine
 10
-437.3000000000067
 20
-1034.147205331363
 30
0.0
 11
-437.3000000000067
 21
-1035.853235474577
 31
0.0
  0
LINE
  5
2A38
330
2BC9
100
AcDbEntity
  8
DETAIL
100
AcDbLine
 10
437.2999999999847
 20
-1033.1546579461
 30
0.0
 11
437.2999999999847
 21
-1034.147205331363
 31
0.0
  0
LINE
  5
2A39
330
2BC9
100
AcDbEntity
  8
DETAIL
100
AcDbLine
 10
437.2999999999847
 20
-1034.147205331363
 30
0.0
 11
-437.3000000000067
 21
-1034.147205331363
 31
0.0
  0
LINE
  5
2A3A
330
2BC9
100
AcDbEntity
  8
DETAIL
100
AcDbLine
 10
-437.3000000000067
 20
-1033.1546579461
 30
0.0
 11
-437.3000000000067
 21
-1034.147205331363
 31
0.0
  0
LINE
  5
2A3B
330
2BC9
100
AcDbEntity
  8
DETAIL
100
AcDbLine
 10
437.2999999999847
 20
-1033.1546579461
 30
0.0
 11
-437.3000000000067
 21
-1033.1546579461
 31
0.0
  0
LINE
  5
2A3C
330
2BC9
100
AcDbEntity
  8
DETAIL
100
AcDbLine
 10
437.2999999999847
 20
-1044.628956610575
 30
0.0
 11
-437.3000000000067
 21
-1044.628956610575
 31
0.0
  0
LINE
  5
2A3D
330
2BC9
100
AcDbEntity
  8
DETAIL
100
AcDbLine
 10
-437.3000000000067
 20
-1161.000017753857
 30
0.0
 11
-422.3000000000068
 21
-1161.000017753857
 31
0.0
  0
LINE
  5
2A3E
330
2BC9
100
AcDbEntity
  8
DETAIL
100
AcDbLine
 10
-437.3000000000067
 20
-1044.628956610575
 30
0.0
 11
-437.3000000000067
 21
-1161.000017753857
 31
0.0
  0
LINE
  5
2A3F
330
2BC9
100
AcDbEntity
  8
DETAIL
100
AcDbLine
 10
-448.5000000000038
 20
-1155.585480827543
 30
0.0
 11
-437.3000000000067
 21
-1155.585480827543
 31
0.0
  0
LINE
  5
2A40
330
2BC9
100
AcDbEntity
  8
DETAIL
100
AcDbLine
 10
-448.5000000000038
 20
-1035.975094770521
 30
0.0
 11
-448.5000000000038
 21
-1036.967642155784
 31
0.0
  0
LINE
  5
2A41
330
2BC9
100
AcDbEntity
  8
DETAIL
100
AcDbLine
 10
-448.5000000000038
 20
-1036.967642155784
 30
0.0
 11
-448.5000000000038
 21
-1155.585480827543
 31
0.0
  0
LINE
  5
2A42
330
2BC9
100
AcDbEntity
  8
DETAIL
100
AcDbLine
 10
-422.3000000000068
 20
-1056.388984545837
 30
0.0
 11
-422.3000000000068
 21
-1099.953682845769
 31
0.0
  0
LINE
  5
2A43
330
2BC9
100
AcDbEntity
  8
DETAIL
100
AcDbLine
 10
-422.3000000000068
 20
-1044.628956610575
 30
0.0
 11
-422.3000000000068
 21
-1054.865743346538
 31
0.0
  0
LINE
  5
2A44
330
2BC9
100
AcDbEntity
  8
DETAIL
100
AcDbLine
 10
-422.3000000000068
 20
-1146.564863544299
 30
0.0
 11
-422.3000000000068
 21
-1161.000017753857
 31
0.0
  0
LINE
  5
2A45
330
2BC9
100
AcDbEntity
  8
DETAIL
100
AcDbLine
 10
-422.3000000000068
 20
-1101.476924045068
 30
0.0
 11
-422.3000000000068
 21
-1145.041622345
 31
0.0
  0
LINE
  5
2A46
330
2BC9
100
AcDbEntity
  8
DETAIL
100
AcDbLine
 10
-422.3000000000068
 20
-1100.484376659804
 30
0.0
 11
-422.3000000000068
 21
-1101.476924045068
 31
0.0
  0
LINE
  5
2A47
330
2BC9
100
AcDbEntity
  8
DETAIL
100
AcDbLine
 10
-422.3000000000068
 20
-1145.572316159034
 30
0.0
 11
-422.3000000000068
 21
-1146.564863544299
 31
0.0
  0
LINE
  5
2A48
330
2BC9
100
AcDbEntity
  8
DETAIL
100
AcDbLine
 10
-422.3000000000068
 20
-1055.396437160576
 30
0.0
 11
-422.3000000000068
 21
-1056.388984545837
 31
0.0
  0
LINE
  5
2A49
330
2BC9
100
AcDbEntity
  8
DETAIL
100
AcDbLine
 10
-422.2999999999991
 20
-1156.456168916862
 30
0.0
 11
422.2999999999768
 21
-1156.456168916863
 31
0.0
  0
LINE
  5
2A4A
330
2BC9
100
AcDbEntity
  8
DETAIL
100
AcDbLine
 10
-422.3000000000068
 20
-1145.572316159034
 30
0.0
 11
-422.3000000000068
 21
-1145.041622345
 31
0.0
  0
LINE
  5
2A4B
330
2BC9
100
AcDbEntity
  8
DETAIL
100
AcDbLine
 10
-422.3000000000068
 20
-1100.484376659804
 30
0.0
 11
-422.3000000000068
 21
-1099.953682845769
 31
0.0
  0
LINE
  5
2A4C
330
2BC9
100
AcDbEntity
  8
DETAIL
100
AcDbLine
 10
-422.3000000000068
 20
-1055.396437160576
 30
0.0
 11
-422.3000000000068
 21
-1054.865743346538
 31
0.0
  0
LINE
  5
2A4D
330
2BC9
100
AcDbEntity
  8
DETAIL
100
AcDbLine
 10
422.2999999999847
 20
-1054.865743346538
 30
0.0
 11
422.2999999999847
 21
-1055.396437160576
 31
0.0
  0
LINE
  5
2A4E
330
2BC9
100
AcDbEntity
  8
DETAIL
100
AcDbLine
 10
422.2999999999847
 20
-1099.953682845769
 30
0.0
 11
422.2999999999847
 21
-1100.484376659804
 31
0.0
  0
LINE
  5
2A4F
330
2BC9
100
AcDbEntity
  8
DETAIL
100
AcDbLine
 10
422.2999999999847
 20
-1145.041622345
 30
0.0
 11
422.2999999999847
 21
-1145.572316159034
 31
0.0
  0
LINE
  5
2A50
330
2BC9
100
AcDbEntity
  8
DETAIL
100
AcDbLine
 10
437.2999999999847
 20
-1161.000017753857
 30
0.0
 11
422.2999999999847
 21
-1161.000017753857
 31
0.0
  0
LINE
  5
2A51
330
2BC9
100
AcDbEntity
  8
DETAIL
100
AcDbLine
 10
437.2999999999847
 20
-1161.000017753857
 30
0.0
 11
437.2999999999847
 21
-1044.628956610575
 31
0.0
  0
LINE
  5
2A52
330
2BC9
100
AcDbEntity
  8
DETAIL
100
AcDbLine
 10
448.4999999999891
 20
-1155.585480827543
 30
0.0
 11
437.2999999999847
 21
-1155.585480827543
 31
0.0
  0
LINE
  5
2A53
330
2BC9
100
AcDbEntity
  8
DETAIL
100
AcDbLine
 10
448.4999999999891
 20
-1155.585480827543
 30
0.0
 11
448.4999999999891
 21
-1036.967642155784
 31
0.0
  0
LINE
  5
2A54
330
2BC9
100
AcDbEntity
  8
DETAIL
100
AcDbLine
 10
448.4999999999891
 20
-1035.975094770521
 30
0.0
 11
448.4999999999891
 21
-1036.967642155784
 31
0.0
  0
LINE
  5
2A55
330
2BC9
100
AcDbEntity
  8
DETAIL
100
AcDbLine
 10
422.2999999999847
 20
-1145.041622345
 30
0.0
 11
422.2999999999847
 21
-1101.476924045068
 31
0.0
  0
LINE
  5
2A56
330
2BC9
100
AcDbEntity
  8
DETAIL
100
AcDbLine
 10
422.2999999999847
 20
-1161.000017753857
 30
0.0
 11
422.2999999999847
 21
-1146.564863544299
 31
0.0
  0
LINE
  5
2A57
330
2BC9
100
AcDbEntity
  8
DETAIL
100
AcDbLine
 10
422.2999999999847
 20
-1054.865743346538
 30
0.0
 11
422.2999999999847
 21
-1044.628956610575
 31
0.0
  0
LINE
  5
2A58
330
2BC9
100
AcDbEntity
  8
DETAIL
100
AcDbLine
 10
422.2999999999847
 20
-1099.953682845769
 30
0.0
 11
422.2999999999847
 21
-1056.388984545837
 31
0.0
  0
LINE
  5
2A59
330
2BC9
100
AcDbEntity
  8
DETAIL
100
AcDbLine
 10
422.2999999999847
 20
-1101.476924045068
 30
0.0
 11
422.2999999999847
 21
-1100.484376659804
 31
0.0
  0
LINE
  5
2A5A
330
2BC9
100
AcDbEntity
  8
DETAIL
100
AcDbLine
 10
422.2999999999847
 20
-1056.388984545837
 30
0.0
 11
422.2999999999847
 21
-1055.396437160576
 31
0.0
  0
LINE
  5
2A5B
330
2BC9
100
AcDbEntity
  8
DETAIL
100
AcDbLine
 10
422.2999999999847
 20
-1146.564863544299
 30
0.0
 11
422.2999999999847
 21
-1145.572316159034
 31
0.0
  0
CIRCLE
  5
2A5C
330
2BC9
100
AcDbEntity
  8
ARRANGE
100
AcDbCircle
 10
0.0
 20
0.0
 30
0.0
 40
40.0
  0
LINE
  5
2A5D
330
2BC9
100
AcDbEntity
  8
ARRANGE
100
AcDbLine
 10
-14.31498655004907
 20
-14.31498655004816
 30
0.0
 11
14.31498655004179
 21
14.31498655004907
 31
0.0
  0
LINE
  5
2A5E
330
2BC9
100
AcDbEntity
  8
ARRANGE
100
AcDbLine
 10
14.31498655004179
 20
-14.31498655004816
 30
0.0
 11
-14.31498655005271
 21
14.31498655005088
 31
0.0
  0
LINE
  5
2A5F
330
2BC9
100
AcDbEntity
  8
BASIC
100
AcDbLine
 10
-500.0
 20
0.000000000003638
 30
0.0
 11
499.9999999999888
 21
0.000000000003638
 31
0.0
  0
LINE
  5
2A60
330
2BC9
100
AcDbEntity
  8
BASIC
100
AcDbLine
 10
-0.000000000003638
 20
500.0000000000036
 30
0.0
 11
-0.0000000000109139
 21
-1181.456168916862
 31
0.0
  0
TEXT
  5
2A61
330
2BC9
100
AcDbEntity
  8
ETC
100
AcDbText
 10
791.4528213918049
 20
853.3290224852949
 30
0.0
 40
64.0
  1
QWH-80SA
 41
0.9
100
AcDbText
  0
LINE
  5
2A62
330
2BC9
100
AcDbEntity
  8
NOTE
100
AcDbLine
 10
462.4999999999963
 20
450.0000000000036
 30
0.0
 11
437.4999999999963
 21
450.0000000000036
 31
0.0
  0
LINE
  5
2A63
330
2BC9
100
AcDbEntity
  8
NOTE
100
AcDbLine
 10
449.9999999999963
 20
462.5000000000036
 30
0.0
 11
449.9999999999963
 21
437.5000000000036
 31
0.0
  0
LINE
  5
2A64
330
2BC9
100
AcDbEntity
  8
NOTE
100
AcDbLine
 10
262.4999999999964
 20
450.0000000000036
 30
0.0
 11
237.4999999999964
 21
450.0000000000036
 31
0.0
  0
LINE
  5
2A65
330
2BC9
100
AcDbEntity
  8
NOTE
100
AcDbLine
 10
249.9999999999964
 20
462.5000000000036
 30
0.0
 11
249.9999999999964
 21
437.5000000000036
 31
0.0
  0
LINE
  5
2A66
330
2BC9
100
AcDbEntity
  8
NOTE
100
AcDbLine
 10
212.4999999999964
 20
450.0000000000036
 30
0.0
 11
187.4999999999963
 21
450.0000000000036
 31
0.0
  0
LINE
  5
2A67
330
2BC9
100
AcDbEntity
  8
NOTE
100
AcDbLine
 10
199.9999999999963
 20
462.5000000000036
 30
0.0
 11
199.9999999999963
 21
437.5000000000036
 31
0.0
  0
LINE
  5
2A68
330
2BC9
100
AcDbEntity
  8
NOTE
100
AcDbLine
 10
-187.5000000000035
 20
450.0000000000036
 30
0.0
 11
-212.5000000000039
 21
450.0000000000036
 31
0.0
  0
LINE
  5
2A69
330
2BC9
100
AcDbEntity
  8
NOTE
100
AcDbLine
 10
-200.0000000000039
 20
462.5000000000036
 30
0.0
 11
-200.0000000000039
 21
437.5000000000036
 31
0.0
  0
LINE
  5
2A6A
330
2BC9
100
AcDbEntity
  8
NOTE
100
AcDbLine
 10
-237.5000000000039
 20
450.0000000000036
 30
0.0
 11
-262.5000000000039
 21
450.0000000000036
 31
0.0
  0
LINE
  5
2A6B
330
2BC9
100
AcDbEntity
  8
NOTE
100
AcDbLine
 10
-250.0000000000039
 20
462.5000000000036
 30
0.0
 11
-250.0000000000039
 21
437.5000000000036
 31
0.0
  0
LINE
  5
2A6C
330
2BC9
100
AcDbEntity
  8
NOTE
100
AcDbLine
 10
-437.4999999999966
 20
450.0000000000036
 30
0.0
 11
-462.4999999999966
 21
450.0000000000036
 31
0.0
  0
LINE
  5
2A6D
330
2BC9
100
AcDbEntity
  8
NOTE
100
AcDbLine
 10
-449.9999999999966
 20
462.5000000000036
 30
0.0
 11
-449.9999999999966
 21
437.5000000000036
 31
0.0
  0
LINE
  5
2A6E
330
2BC9
100
AcDbEntity
  8
NOTE
100
AcDbLine
 10
-437.5000000000039
 20
250.0000000000036
 30
0.0
 11
-462.5000000000039
 21
250.0000000000036
 31
0.0
  0
LINE
  5
2A6F
330
2BC9
100
AcDbEntity
  8
NOTE
100
AcDbLine
 10
-450.0000000000039
 20
262.5000000000036
 30
0.0
 11
-450.0000000000039
 21
237.5000000000036
 31
0.0
  0
LINE
  5
2A70
330
2BC9
100
AcDbEntity
  8
NOTE
100
AcDbLine
 10
-437.5000000000039
 20
200.0000000000036
 30
0.0
 11
-462.5000000000039
 21
200.0000000000036
 31
0.0
  0
LINE
  5
2A71
330
2BC9
100
AcDbEntity
  8
NOTE
100
AcDbLine
 10
-450.0000000000039
 20
212.5000000000036
 30
0.0
 11
-450.0000000000039
 21
187.5000000000035
 31
0.0
  0
LINE
  5
2A72
330
2BC9
100
AcDbEntity
  8
NOTE
100
AcDbLine
 10
-437.5000000000039
 20
-199.9999999999963
 30
0.0
 11
-462.5000000000039
 21
-199.9999999999963
 31
0.0
  0
LINE
  5
2A73
330
2BC9
100
AcDbEntity
  8
NOTE
100
AcDbLine
 10
-450.0000000000039
 20
-187.4999999999963
 30
0.0
 11
-450.0000000000039
 21
-212.4999999999964
 31
0.0
  0
LINE
  5
2A74
330
2BC9
100
AcDbEntity
  8
NOTE
100
AcDbLine
 10
-437.5000000000039
 20
-249.9999999999964
 30
0.0
 11
-462.5000000000039
 21
-249.9999999999964
 31
0.0
  0
LINE
  5
2A75
330
2BC9
100
AcDbEntity
  8
NOTE
100
AcDbLine
 10
-450.0000000000039
 20
-237.4999999999964
 30
0.0
 11
-450.0000000000039
 21
-262.4999999999964
 31
0.0
  0
LINE
  5
2A76
330
2BC9
100
AcDbEntity
  8
NOTE
100
AcDbLine
 10
-437.5000000000039
 20
-449.9999999999963
 30
0.0
 11
-462.5000000000039
 21
-449.9999999999963
 31
0.0
  0
LINE
  5
2A77
330
2BC9
100
AcDbEntity
  8
NOTE
100
AcDbLine
 10
-450.0000000000039
 20
-437.4999999999963
 30
0.0
 11
-450.0000000000039
 21
-462.4999999999963
 31
0.0
  0
LINE
  5
2A78
330
2BC9
100
AcDbEntity
  8
NOTE
100
AcDbLine
 10
462.4999999999963
 20
-449.9999999999963
 30
0.0
 11
437.4999999999963
 21
-449.9999999999963
 31
0.0
  0
LINE
  5
2A79
330
2BC9
100
AcDbEntity
  8
NOTE
100
AcDbLine
 10
449.9999999999963
 20
-437.4999999999963
 30
0.0
 11
449.9999999999963
 21
-462.4999999999963
 31
0.0
  0
LINE
  5
2A7A
330
2BC9
100
AcDbEntity
  8
NOTE
100
AcDbLine
 10
462.4999999999963
 20
-249.9999999999964
 30
0.0
 11
437.4999999999963
 21
-249.9999999999964
 31
0.0
  0
LINE
  5
2A7B
330
2BC9
100
AcDbEntity
  8
NOTE
100
AcDbLine
 10
449.9999999999963
 20
-237.4999999999964
 30
0.0
 11
449.9999999999963
 21
-262.4999999999964
 31
0.0
  0
LINE
  5
2A7C
330
2BC9
100
AcDbEntity
  8
NOTE
100
AcDbLine
 10
462.4999999999963
 20
-199.9999999999963
 30
0.0
 11
437.4999999999963
 21
-199.9999999999963
 31
0.0
  0
LINE
  5
2A7D
330
2BC9
100
AcDbEntity
  8
NOTE
100
AcDbLine
 10
449.9999999999963
 20
-187.4999999999963
 30
0.0
 11
449.9999999999963
 21
-212.4999999999964
 31
0.0
  0
LINE
  5
2A7E
330
2BC9
100
AcDbEntity
  8
NOTE
100
AcDbLine
 10
462.4999999999963
 20
200.0000000000036
 30
0.0
 11
437.4999999999963
 21
200.0000000000036
 31
0.0
  0
LINE
  5
2A7F
330
2BC9
100
AcDbEntity
  8
NOTE
100
AcDbLine
 10
449.9999999999963
 20
212.5000000000036
 30
0.0
 11
449.9999999999963
 21
187.5000000000035
 31
0.0
  0
LINE
  5
2A80
330
2BC9
100
AcDbEntity
  8
NOTE
100
AcDbLine
 10
462.4999999999963
 20
250.0000000000036
 30
0.0
 11
437.4999999999963
 21
250.0000000000036
 31
0.0
  0
LINE
  5
2A81
330
2BC9
100
AcDbEntity
  8
NOTE
100
AcDbLine
 10
449.9999999999963
 20
262.5000000000036
 30
0.0
 11
449.9999999999963
 21
237.5000000000036
 31
0.0
  0
LINE
  5
2A82
330
2BC9
100
AcDbEntity
  8
OUTLINE
100
AcDbLine
 10
-474.9999999999966
 20
475.0000000000036
 30
0.0
 11
474.9999999999888
 21
475.0000000000036
 31
0.0
  0
LINE
  5
2A83
330
2BC9
100
AcDbEntity
  8
OUTLINE
100
AcDbLine
 10
-435.0000000000037
 20
435.0000000000036
 30
0.0
 11
434.9999999999891
 21
435.0000000000036
 31
0.0
  0
LINE
  5
2A84
330
2BC9
100
AcDbEntity
  8
OUTLINE
100
AcDbLine
 10
474.9999999999888
 20
-474.9999999999963
 30
0.0
 11
474.9999999999888
 21
475.0000000000036
 31
0.0
  0
LINE
  5
2A85
330
2BC9
100
AcDbEntity
  8
OUTLINE
100
AcDbLine
 10
434.9999999999891
 20
435.0000000000036
 30
0.0
 11
434.9999999999891
 21
-434.9999999999964
 31
0.0
  0
LINE
  5
2A86
330
2BC9
100
AcDbEntity
  8
OUTLINE
100
AcDbLine
 10
-474.9999999999966
 20
475.0000000000036
 30
0.0
 11
-475.0000000000039
 21
-474.9999999999963
 31
0.0
  0
LINE
  5
2A87
330
2BC9
100
AcDbEntity
  8
OUTLINE
100
AcDbLine
 10
-435.0000000000037
 20
-434.9999999999964
 30
0.0
 11
-435.0000000000037
 21
435.0000000000036
 31
0.0
  0
LINE
  5
2A88
330
2BC9
100
AcDbEntity
  8
OUTLINE
100
AcDbLine
 10
-435.9999999999964
 20
-475.4142135623696
 30
0.0
 11
435.9999999999963
 21
-475.4142135623696
 31
0.0
  0
LINE
  5
2A89
330
2BC9
100
AcDbEntity
  8
OUTLINE
100
AcDbLine
 10
436.9999999999963
 20
-614.9999999999963
 30
0.0
 11
436.9999999999963
 21
-475.4142135623696
 31
0.0
  0
LINE
  5
2A8A
330
2BC9
100
AcDbEntity
  8
OUTLINE
100
AcDbLine
 10
-437.0
 20
-475.4142135623696
 30
0.0
 11
-437.0
 21
-614.9999999999963
 31
0.0
  0
LINE
  5
2A8B
330
2BC9
100
AcDbEntity
  8
OUTLINE
100
AcDbLine
 10
-475.0000000000039
 20
-474.9999999999963
 30
0.0
 11
474.9999999999888
 21
-474.9999999999963
 31
0.0
  0
LINE
  5
2A8C
330
2BC9
100
AcDbEntity
  8
OUTLINE
100
AcDbLine
 10
-435.0000000000001
 20
-434.9999999999964
 30
0.0
 11
434.9999999999964
 21
-434.9999999999964
 31
0.0
  0
LINE
  5
2A8D
330
2BC9
100
AcDbEntity
  8
OUTLINE
100
AcDbLine
 10
-437.0
 20
-614.9999999999963
 30
0.0
 11
-437.0
 21
-1019.258994552421
 31
0.0
  0
LINE
  5
2A8E
330
2BC9
100
AcDbEntity
  8
OUTLINE
100
AcDbLine
 10
436.9999999999963
 20
-1019.258994552421
 30
0.0
 11
436.9999999999963
 21
-614.9999999999963
 31
0.0
  0
LINE
  5
2A8F
330
2BC9
100
AcDbEntity
  8
OUTLINE
100
AcDbLine
 10
-447.5000000000075
 20
-1019.258994552421
 30
0.0
 11
447.4999999999891
 21
-1019.258994552421
 31
0.0
  0
LINE
  5
2A90
330
2BC9
100
AcDbEntity
  8
OUTLINE
100
AcDbLine
 10
-447.5000000000075
 20
-1033.1546579461
 30
0.0
 11
448.4999999999891
 21
-1033.1546579461
 31
0.0
  0
LINE
  5
2A91
330
2BC9
100
AcDbEntity
  8
OUTLINE
100
AcDbLine
 10
-437.3000000000067
 20
-1034.147205331363
 30
0.0
 11
-448.5000000000038
 21
-1034.147205331363
 31
0.0
  0
LINE
  5
2A92
330
2BC9
100
AcDbEntity
  8
OUTLINE
100
AcDbLine
 10
-448.5000000000111
 20
-1034.147205331363
 30
0.0
 11
-448.5000000000111
 21
-1019.258994552421
 31
0.0
  0
LINE
  5
2A93
330
2BC9
100
AcDbEntity
  8
OUTLINE
100
AcDbLine
 10
-448.5000000000111
 20
-1035.975094770521
 30
0.0
 11
-448.5000000000111
 21
-1034.147205331363
 31
0.0
  0
LINE
  5
2A94
330
2BC9
100
AcDbEntity
  8
OUTLINE
100
AcDbLine
 10
-448.5000000000111
 20
-1019.258994552421
 30
0.0
 11
-447.5000000000111
 21
-1019.258994552421
 31
0.0
  0
LINE
  5
2A95
330
2BC9
100
AcDbEntity
  8
OUTLINE
100
AcDbLine
 10
-448.5000000000111
 20
-1033.1546579461
 30
0.0
 11
-437.3000000000136
 21
-1033.1546579461
 31
0.0
  0
LINE
  5
2A96
330
2BC9
100
AcDbEntity
  8
OUTLINE
100
AcDbLine
 10
-437.3000000000067
 20
-1035.853235474577
 30
0.0
 11
-437.3000000000067
 21
-1034.147205331363
 31
0.0
  0
LINE
  5
2A97
330
2BC9
100
AcDbEntity
  8
OUTLINE
100
AcDbLine
 10
-437.3000000000067
 20
-1034.147205331363
 30
0.0
 11
-437.3000000000067
 21
-1033.1546579461
 31
0.0
  0
LINE
  5
2A98
330
2BC9
100
AcDbEntity
  8
OUTLINE
100
AcDbLine
 10
448.4999999999891
 20
-1033.1546579461
 30
0.0
 11
437.2999999999987
 21
-1033.1546579461
 31
0.0
  0
LINE
  5
2A99
330
2BC9
100
AcDbEntity
  8
OUTLINE
100
AcDbLine
 10
448.4999999999891
 20
-1019.258994552421
 30
0.0
 11
447.4999999999891
 21
-1019.258994552421
 31
0.0
  0
LINE
  5
2A9A
330
2BC9
100
AcDbEntity
  8
OUTLINE
100
AcDbLine
 10
448.4999999999891
 20
-1034.147205331363
 30
0.0
 11
448.4999999999891
 21
-1019.258994552421
 31
0.0
  0
LINE
  5
2A9B
330
2BC9
100
AcDbEntity
  8
OUTLINE
100
AcDbLine
 10
437.2999999999847
 20
-1034.147205331363
 30
0.0
 11
448.4999999999891
 21
-1034.147205331363
 31
0.0
  0
LINE
  5
2A9C
330
2BC9
100
AcDbEntity
  8
OUTLINE
100
AcDbLine
 10
448.4999999999891
 20
-1034.147205331363
 30
0.0
 11
448.4999999999891
 21
-1035.975094770521
 31
0.0
  0
LINE
  5
2A9D
330
2BC9
100
AcDbEntity
  8
OUTLINE
100
AcDbLine
 10
437.2999999999847
 20
-1033.1546579461
 30
0.0
 11
437.2999999999847
 21
-1034.147205331363
 31
0.0
  0
LINE
  5
2A9E
330
2BC9
100
AcDbEntity
  8
OUTLINE
100
AcDbLine
 10
437.2999999999847
 20
-1034.147205331363
 30
0.0
 11
437.2999999999847
 21
-1035.853235474577
 31
0.0
  0
LINE
  5
2A9F
330
2BC9
100
AcDbEntity
  8
OUTLINE
100
AcDbLine
 10
-437.3000000000067
 20
-1042.801067171418
 30
0.0
 11
-437.3000000000067
 21
-1044.628956610575
 31
0.0
  0
LINE
  5
2AA0
330
2BC9
100
AcDbEntity
  8
OUTLINE
100
AcDbLine
 10
437.2999999999847
 20
-1042.801067171418
 30
0.0
 11
437.2999999999847
 21
-1044.628956610575
 31
0.0
  0
LINE
  5
2AA1
330
2BC9
100
AcDbEntity
  8
OUTLINE
100
AcDbLine
 10
437.2999999999847
 20
-1035.853235474577
 30
0.0
 11
437.2999999999847
 21
-1042.801067171418
 31
0.0
  0
LINE
  5
2AA2
330
2BC9
100
AcDbEntity
  8
OUTLINE
100
AcDbLine
 10
437.2999999999847
 20
-1042.801067171418
 30
0.0
 11
-437.3000000000067
 21
-1042.801067171418
 31
0.0
  0
LINE
  5
2AA3
330
2BC9
100
AcDbEntity
  8
OUTLINE
100
AcDbLine
 10
-437.3000000000067
 20
-1035.853235474577
 30
0.0
 11
-437.3000000000067
 21
-1042.801067171418
 31
0.0
  0
LINE
  5
2AA4
330
2BC9
100
AcDbEntity
  8
OUTLINE
100
AcDbLine
 10
437.2999999999847
 20
-1034.147205331363
 30
0.0
 11
437.2999999999847
 21
-1035.853235474577
 31
0.0
  0
LINE
  5
2AA5
330
2BC9
100
AcDbEntity
  8
OUTLINE
100
AcDbLine
 10
-437.3000000000067
 20
-1034.147205331363
 30
0.0
 11
-437.3000000000067
 21
-1035.853235474577
 31
0.0
  0
LINE
  5
2AA6
330
2BC9
100
AcDbEntity
  8
OUTLINE
100
AcDbLine
 10
437.2999999999847
 20
-1033.1546579461
 30
0.0
 11
437.2999999999847
 21
-1034.147205331363
 31
0.0
  0
LINE
  5
2AA7
330
2BC9
100
AcDbEntity
  8
OUTLINE
100
AcDbLine
 10
437.2999999999847
 20
-1034.147205331363
 30
0.0
 11
-437.3000000000067
 21
-1034.147205331363
 31
0.0
  0
LINE
  5
2AA8
330
2BC9
100
AcDbEntity
  8
OUTLINE
100
AcDbLine
 10
-437.3000000000067
 20
-1033.1546579461
 30
0.0
 11
-437.3000000000067
 21
-1034.147205331363
 31
0.0
  0
LINE
  5
2AA9
330
2BC9
100
AcDbEntity
  8
OUTLINE
100
AcDbLine
 10
437.2999999999847
 20
-1033.1546579461
 30
0.0
 11
-437.3000000000067
 21
-1033.1546579461
 31
0.0
  0
LINE
  5
2AAA
330
2BC9
100
AcDbEntity
  8
OUTLINE
100
AcDbLine
 10
437.2999999999847
 20
-1044.628956610575
 30
0.0
 11
-437.3000000000067
 21
-1044.628956610575
 31
0.0
  0
LINE
  5
2AAB
330
2BC9
100
AcDbEntity
  8
OUTLINE
100
AcDbLine
 10
-437.3000000000067
 20
-1161.000017753857
 30
0.0
 11
-422.3000000000068
 21
-1161.000017753857
 31
0.0
  0
LINE
  5
2AAC
330
2BC9
100
AcDbEntity
  8
OUTLINE
100
AcDbLine
 10
-448.5000000000038
 20
-1155.585480827543
 30
0.0
 11
-437.3000000000067
 21
-1155.585480827543
 31
0.0
  0
LINE
  5
2AAD
330
2BC9
100
AcDbEntity
  8
OUTLINE
100
AcDbLine
 10
-448.5000000000038
 20
-1035.975094770521
 30
0.0
 11
-448.5000000000038
 21
-1036.967642155784
 31
0.0
  0
LINE
  5
2AAE
330
2BC9
100
AcDbEntity
  8
OUTLINE
100
AcDbLine
 10
-448.5000000000038
 20
-1036.967642155784
 30
0.0
 11
-448.5000000000038
 21
-1155.585480827543
 31
0.0
  0
LINE
  5
2AAF
330
2BC9
100
AcDbEntity
  8
OUTLINE
100
AcDbLine
 10
-422.3000000000068
 20
-1056.388984545837
 30
0.0
 11
-422.3000000000068
 21
-1099.953682845769
 31
0.0
  0
LINE
  5
2AB0
330
2BC9
100
AcDbEntity
  8
OUTLINE
100
AcDbLine
 10
-422.3000000000068
 20
-1044.628956610575
 30
0.0
 11
-422.3000000000068
 21
-1054.865743346538
 31
0.0
  0
LINE
  5
2AB1
330
2BC9
100
AcDbEntity
  8
OUTLINE
100
AcDbLine
 10
-422.3000000000068
 20
-1101.476924045068
 30
0.0
 11
-422.3000000000068
 21
-1145.041622345
 31
0.0
  0
LINE
  5
2AB2
330
2BC9
100
AcDbEntity
  8
OUTLINE
100
AcDbLine
 10
-422.3000000000068
 20
-1100.484376659804
 30
0.0
 11
-422.3000000000068
 21
-1101.476924045068
 31
0.0
  0
LINE
  5
2AB3
330
2BC9
100
AcDbEntity
  8
OUTLINE
100
AcDbLine
 10
-422.3000000000068
 20
-1145.572316159034
 30
0.0
 11
-422.3000000000068
 21
-1146.564863544299
 31
0.0
  0
LINE
  5
2AB4
330
2BC9
100
AcDbEntity
  8
OUTLINE
100
AcDbLine
 10
-422.3000000000068
 20
-1055.396437160576
 30
0.0
 11
-422.3000000000068
 21
-1056.388984545837
 31
0.0
  0
LINE
  5
2AB5
330
2BC9
100
AcDbEntity
  8
OUTLINE
100
AcDbLine
 10
-422.2999999999991
 20
-1156.456168916862
 30
0.0
 11
422.2999999999768
 21
-1156.456168916863
 31
0.0
  0
LINE
  5
2AB6
330
2BC9
100
AcDbEntity
  8
OUTLINE
100
AcDbLine
 10
-422.3000000000068
 20
-1145.572316159034
 30
0.0
 11
-422.3000000000068
 21
-1145.041622345
 31
0.0
  0
LINE
  5
2AB7
330
2BC9
100
AcDbEntity
  8
OUTLINE
100
AcDbLine
 10
-422.3000000000068
 20
-1100.484376659804
 30
0.0
 11
-422.3000000000068
 21
-1099.953682845769
 31
0.0
  0
LINE
  5
2AB8
330
2BC9
100
AcDbEntity
  8
OUTLINE
100
AcDbLine
 10
-422.3000000000068
 20
-1055.396437160576
 30
0.0
 11
-422.3000000000068
 21
-1054.865743346538
 31
0.0
  0
LINE
  5
2AB9
330
2BC9
100
AcDbEntity
  8
OUTLINE
100
AcDbLine
 10
422.2999999999847
 20
-1054.865743346538
 30
0.0
 11
422.2999999999847
 21
-1055.396437160576
 31
0.0
  0
LINE
  5
2ABA
330
2BC9
100
AcDbEntity
  8
OUTLINE
100
AcDbLine
 10
422.2999999999847
 20
-1099.953682845769
 30
0.0
 11
422.2999999999847
 21
-1100.484376659804
 31
0.0
  0
LINE
  5
2ABB
330
2BC9
100
AcDbEntity
  8
OUTLINE
100
AcDbLine
 10
422.2999999999847
 20
-1145.041622345
 30
0.0
 11
422.2999999999847
 21
-1145.572316159034
 31
0.0
  0
LINE
  5
2ABC
330
2BC9
100
AcDbEntity
  8
OUTLINE
100
AcDbLine
 10
437.2999999999847
 20
-1161.000017753857
 30
0.0
 11
422.2999999999847
 21
-1161.000017753857
 31
0.0
  0
LINE
  5
2ABD
330
2BC9
100
AcDbEntity
  8
OUTLINE
100
AcDbLine
 10
448.4999999999891
 20
-1155.585480827543
 30
0.0
 11
437.2999999999847
 21
-1155.585480827543
 31
0.0
  0
LINE
  5
2ABE
330
2BC9
100
AcDbEntity
  8
OUTLINE
100
AcDbLine
 10
448.4999999999891
 20
-1155.585480827543
 30
0.0
 11
448.4999999999891
 21
-1036.967642155784
 31
0.0
  0
LINE
  5
2ABF
330
2BC9
100
AcDbEntity
  8
OUTLINE
100
AcDbLine
 10
448.4999999999891
 20
-1035.975094770521
 30
0.0
 11
448.4999999999891
 21
-1036.967642155784
 31
0.0
  0
LINE
  5
2AC0
330
2BC9
100
AcDbEntity
  8
OUTLINE
100
AcDbLine
 10
422.2999999999847
 20
-1145.041622345
 30
0.0
 11
422.2999999999847
 21
-1101.476924045068
 31
0.0
  0
LINE
  5
2AC1
330
2BC9
100
AcDbEntity
  8
OUTLINE
100
AcDbLine
 10
422.2999999999847
 20
-1054.865743346538
 30
0.0
 11
422.2999999999847
 21
-1044.628956610575
 31
0.0
  0
LINE
  5
2AC2
330
2BC9
100
AcDbEntity
  8
OUTLINE
100
AcDbLine
 10
422.2999999999847
 20
-1099.953682845769
 30
0.0
 11
422.2999999999847
 21
-1056.388984545837
 31
0.0
  0
LINE
  5
2AC3
330
2BC9
100
AcDbEntity
  8
OUTLINE
100
AcDbLine
 10
422.2999999999847
 20
-1101.476924045068
 30
0.0
 11
422.2999999999847
 21
-1100.484376659804
 31
0.0
  0
LINE
  5
2AC4
330
2BC9
100
AcDbEntity
  8
OUTLINE
100
AcDbLine
 10
422.2999999999847
 20
-1056.388984545837
 30
0.0
 11
422.2999999999847
 21
-1055.396437160576
 31
0.0
  0
LINE
  5
2AC5
330
2BC9
100
AcDbEntity
  8
OUTLINE
100
AcDbLine
 10
422.2999999999847
 20
-1146.564863544299
 30
0.0
 11
422.2999999999847
 21
-1145.572316159034
 31
0.0
  0
LINE
  5
2AC6
330
2BC9
100
AcDbEntity
  8
OUTLINE
100
AcDbLine
 10
-437.3000000000067
 20
-1044.628956610575
 30
0.0
 11
-437.3000000000067
 21
-1161.000017753857
 31
0.0
  0
LINE
  5
2AC7
330
2BC9
100
AcDbEntity
  8
OUTLINE
100
AcDbLine
 10
-422.3000000000068
 20
-1146.564863544299
 30
0.0
 11
-422.3000000000068
 21
-1161.000017753857
 31
0.0
  0
LINE
  5
2AC8
330
2BC9
100
AcDbEntity
  8
OUTLINE
100
AcDbLine
 10
437.2999999999847
 20
-1161.000017753857
 30
0.0
 11
437.2999999999847
 21
-1044.628956610575
 31
0.0
  0
LINE
  5
2AC9
330
2BC9
100
AcDbEntity
  8
OUTLINE
100
AcDbLine
 10
422.2999999999847
 20
-1161.000017753857
 30
0.0
 11
422.2999999999847
 21
-1146.564863544299
 31
0.0
  0
LINE
  5
2ACA
330
2BC9
100
AcDbEntity
  8
OUTLINE
100
AcDbLine
 10
436.9999999999963
 20
-475.4142135623696
 30
0.0
 11
436.9999999999963
 21
-474.9999999999963
 31
0.0
  0
LINE
  5
2ACB
330
2BC9
100
AcDbEntity
  8
OUTLINE
100
AcDbLine
 10
435.9999999999963
 20
-475.4142135623696
 30
0.0
 11
436.9999999999963
 21
-475.4142135623696
 31
0.0
  0
LINE
  5
2ACC
330
2BC9
100
AcDbEntity
  8
OUTLINE
100
AcDbLine
 10
-437.0
 20
-474.9999999999963
 30
0.0
 11
-437.0
 21
-475.4142135623696
 31
0.0
  0
LINE
  5
2ACD
330
2BC9
100
AcDbEntity
  8
OUTLINE
100
AcDbLine
 10
-435.9999999999964
 20
-475.4142135623696
 30
0.0
 11
-437.0
 21
-475.4142135623696
 31
0.0
  0
LINE
  5
2ACE
330
2BC9
100
AcDbEntity
  8
SIZE
100
AcDbLine
 10
-494.9999999999966
 20
475.0000000000036
 30
0.0
 11
-1079.204337391976
 21
475.0000000000036
 31
0.0
  0
LINE
  5
2ACF
330
2BC9
100
AcDbEntity
  8
SIZE
100
AcDbLine
 10
-457.3000000000067
 20
-1161.000017753857
 30
0.0
 11
-1079.204337391976
 21
-1161.000017753856
 31
0.0
  0
LINE
  5
2AD0
330
2BC9
100
AcDbEntity
  8
SIZE
100
AcDbLine
 10
-1059.204337391976
 20
463.0000000000036
 30
0.0
 11
-1059.204337391976
 21
-1149.000017753856
 31
0.0
  0
INSERT
  5
2AD1
330
2BC9
100
AcDbEntity
  8
SIZE
100
AcDbBlockReference
  2
_DOTBLANK
 10
-1059.204337391976
 20
475.0000000000036
 30
0.0
 41
12.0
 42
12.0
 43
12.0
 50
90.0
  0
INSERT
  5
2AD2
330
2BC9
100
AcDbEntity
  8
SIZE
100
AcDbBlockReference
  2
_DOTBLANK
 10
-1059.204337391976
 20
-1161.000017753856
 30
0.0
 41
12.0
 42
12.0
 43
12.0
 50
270.0
  0
LINE
  5
2AD3
330
2BC9
100
AcDbEntity
  8
SIZE
100
AcDbLine
 10
-494.9999999999966
 20
-474.9999999999963
 30
0.0
 11
-955.0761455246902
 21
-474.999999999996
 31
0.0
  0
LINE
  5
2AD4
330
2BC9
100
AcDbEntity
  8
SIZE
100
AcDbLine
 10
-494.9999999999966
 20
475.0000000000036
 30
0.0
 11
-955.0761455246902
 21
475.0000000000036
 31
0.0
  0
LINE
  5
2AD5
330
2BC9
100
AcDbEntity
  8
SIZE
100
AcDbLine
 10
-935.07614552469
 20
-462.9999999999959
 30
0.0
 11
-935.0761455246896
 21
463.0000000000036
 31
0.0
  0
INSERT
  5
2AD6
330
2BC9
100
AcDbEntity
  8
SIZE
100
AcDbBlockReference
  2
_DOTBLANK
 10
-935.07614552469
 20
-474.999999999996
 30
0.0
 41
12.0
 42
12.0
 43
12.0
 50
270.0
  0
INSERT
  5
2AD7
330
2BC9
100
AcDbEntity
  8
SIZE
100
AcDbBlockReference
  2
_DOTBLANK
 10
-935.0761455246896
 20
475.0000000000036
 30
0.0
 41
12.0
 42
12.0
 43
12.0
 50
90.0
  0
LINE
  5
2AD8
330
2BC9
100
AcDbEntity
  8
SIZE
100
AcDbLine
 10
-482.5000000000038
 20
-449.9999999999963
 30
0.0
 11
-835.1214354850924
 21
-449.999999999996
 31
0.0
  0
LINE
  5
2AD9
330
2BC9
100
AcDbEntity
  8
SIZE
100
AcDbLine
 10
-482.4999999999966
 20
450.0000000000036
 30
0.0
 11
-835.1214354850924
 21
450.0000000000036
 31
0.0
  0
LINE
  5
2ADA
330
2BC9
100
AcDbEntity
  8
SIZE
100
AcDbLine
 10
-815.1214354850926
 20
-437.9999999999959
 30
0.0
 11
-815.1214354850921
 21
438.0000000000036
 31
0.0
  0
INSERT
  5
2ADB
330
2BC9
100
AcDbEntity
  8
SIZE
100
AcDbBlockReference
  2
_DOTBLANK
 10
-815.1214354850926
 20
-449.999999999996
 30
0.0
 41
12.0
 42
12.0
 43
12.0
 50
270.0
  0
INSERT
  5
2ADC
330
2BC9
100
AcDbEntity
  8
SIZE
100
AcDbBlockReference
  2
_DOTBLANK
 10
-815.1214354850921
 20
450.0000000000036
 30
0.0
 41
12.0
 42
12.0
 43
12.0
 50
90.0
  0
LINE
  5
2ADD
330
2BC9
100
AcDbEntity
  8
SIZE
100
AcDbLine
 10
-482.5000000000038
 20
200.0000000000036
 30
0.0
 11
-586.0154891313684
 21
200.0000000000036
 31
0.0
  0
LINE
  5
2ADE
330
2BC9
100
AcDbEntity
  8
SIZE
100
AcDbLine
 10
-482.5000000000038
 20
-199.9999999999963
 30
0.0
 11
-586.0154891313684
 21
-199.9999999999963
 31
0.0
  0
LINE
  5
2ADF
330
2BC9
100
AcDbEntity
  8
SIZE
100
AcDbLine
 10
-566.0154891313687
 20
188.0000000000036
 30
0.0
 11
-566.0154891313687
 21
-187.9999999999963
 31
0.0
  0
INSERT
  5
2AE0
330
2BC9
100
AcDbEntity
  8
SIZE
100
AcDbBlockReference
  2
_DOTBLANK
 10
-566.0154891313687
 20
200.0000000000036
 30
0.0
 41
12.0
 42
12.0
 43
12.0
 50
90.0
  0
INSERT
  5
2AE1
330
2BC9
100
AcDbEntity
  8
SIZE
100
AcDbBlockReference
  2
_DOTBLANK
 10
-566.0154891313687
 20
-199.9999999999963
 30
0.0
 41
12.0
 42
12.0
 43
12.0
 50
270.0
  0
LINE
  5
2AE2
330
2BC9
100
AcDbEntity
  8
SIZE
100
AcDbLine
 10
-482.5000000000038
 20
-249.9999999999964
 30
0.0
 11
-705.2525555390055
 21
-249.9999999999961
 31
0.0
  0
LINE
  5
2AE3
330
2BC9
100
AcDbEntity
  8
SIZE
100
AcDbLine
 10
-482.5000000000038
 20
250.0000000000036
 30
0.0
 11
-705.2525555390055
 21
250.0000000000036
 31
0.0
  0
LINE
  5
2AE4
330
2BC9
100
AcDbEntity
  8
SIZE
100
AcDbLine
 10
-685.2525555390057
 20
-237.9999999999963
 30
0.0
 11
-685.2525555390057
 21
238.0000000000036
 31
0.0
  0
INSERT
  5
2AE5
330
2BC9
100
AcDbEntity
  8
SIZE
100
AcDbBlockReference
  2
_DOTBLANK
 10
-685.2525555390057
 20
-249.9999999999964
 30
0.0
 41
12.0
 42
12.0
 43
12.0
 50
270.0
  0
INSERT
  5
2AE6
330
2BC9
100
AcDbEntity
  8
SIZE
100
AcDbBlockReference
  2
_DOTBLANK
 10
-685.2525555390057
 20
250.0000000000036
 30
0.0
 41
12.0
 42
12.0
 43
12.0
 50
90.0
  0
LINE
  5
2AE7
330
2BC9
100
AcDbEntity
  8
SIZE
100
AcDbLine
 10
-475.0000000000109
 20
495.0000000000016
 30
0.0
 11
-475.0000000000109
 21
938.8487719305658
 31
0.0
  0
LINE
  5
2AE8
330
2BC9
100
AcDbEntity
  8
SIZE
100
AcDbLine
 10
474.9999999999888
 20
495.0000000000036
 30
0.0
 11
474.9999999999888
 21
938.8487719305658
 31
0.0
  0
LINE
  5
2AE9
330
2BC9
100
AcDbEntity
  8
SIZE
100
AcDbLine
 10
-463.0000000000109
 20
918.8487719305655
 30
0.0
 11
462.9999999999888
 21
918.8487719305655
 31
0.0
  0
INSERT
  5
2AEA
330
2BC9
100
AcDbEntity
  8
SIZE
100
AcDbBlockReference
  2
_DOTBLANK
 10
-475.0000000000109
 20
918.8487719305655
 30
0.0
 41
12.0
 42
12.0
 43
12.0
 50
180.0
  0
INSERT
  5
2AEB
330
2BC9
100
AcDbEntity
  8
SIZE
100
AcDbBlockReference
  2
_DOTBLANK
 10
474.9999999999888
 20
918.8487719305655
 30
0.0
 41
12.0
 42
12.0
 43
12.0
  0
LINE
  5
2AEC
330
2BC9
100
AcDbEntity
  8
SIZE
100
AcDbLine
 10
-449.9999999999966
 20
482.5000000000036
 30
0.0
 11
-449.9999999999966
 21
819.7567444329157
 31
0.0
  0
LINE
  5
2AED
330
2BC9
100
AcDbEntity
  8
SIZE
100
AcDbLine
 10
449.9999999999963
 20
482.5000000000036
 30
0.0
 11
449.9999999999963
 21
819.7567444329157
 31
0.0
  0
LINE
  5
2AEE
330
2BC9
100
AcDbEntity
  8
SIZE
100
AcDbLine
 10
-437.9999999999966
 20
799.7567444329156
 30
0.0
 11
437.9999999999959
 21
799.7567444329156
 31
0.0
  0
INSERT
  5
2AEF
330
2BC9
100
AcDbEntity
  8
SIZE
100
AcDbBlockReference
  2
_DOTBLANK
 10
-449.9999999999966
 20
799.7567444329156
 30
0.0
 41
12.0
 42
12.0
 43
12.0
 50
180.0
  0
INSERT
  5
2AF0
330
2BC9
100
AcDbEntity
  8
SIZE
100
AcDbBlockReference
  2
_DOTBLANK
 10
449.9999999999963
 20
799.7567444329156
 30
0.0
 41
12.0
 42
12.0
 43
12.0
  0
LINE
  5
2AF1
330
2BC9
100
AcDbEntity
  8
SIZE
100
AcDbLine
 10
-250.0000000000039
 20
482.5000000000036
 30
0.0
 11
-250.0000000000036
 21
699.6112684086473
 31
0.0
  0
LINE
  5
2AF2
330
2BC9
100
AcDbEntity
  8
SIZE
100
AcDbLine
 10
249.9999999999964
 20
482.5000000000036
 30
0.0
 11
249.9999999999964
 21
699.6112684086473
 31
0.0
  0
LINE
  5
2AF3
330
2BC9
100
AcDbEntity
  8
SIZE
100
AcDbLine
 10
-238.0000000000038
 20
679.6112684086472
 30
0.0
 11
237.9999999999963
 21
679.6112684086472
 31
0.0
  0
INSERT
  5
2AF4
330
2BC9
100
AcDbEntity
  8
SIZE
100
AcDbBlockReference
  2
_DOTBLANK
 10
-250.0000000000039
 20
679.6112684086472
 30
0.0
 41
12.0
 42
12.0
 43
12.0
 50
180.0
  0
INSERT
  5
2AF5
330
2BC9
100
AcDbEntity
  8
SIZE
100
AcDbBlockReference
  2
_DOTBLANK
 10
249.9999999999964
 20
679.6112684086472
 30
0.0
 41
12.0
 42
12.0
 43
12.0
  0
LINE
  5
2AF6
330
2BC9
100
AcDbEntity
  8
SIZE
100
AcDbLine
 10
-200.0000000000039
 20
482.5000000000036
 30
0.0
 11
-200.0000000000039
 21
580.9900601720663
 31
0.0
  0
LINE
  5
2AF7
330
2BC9
100
AcDbEntity
  8
SIZE
100
AcDbLine
 10
199.9999999999963
 20
482.5000000000036
 30
0.0
 11
199.9999999999963
 21
580.9900601720663
 31
0.0
  0
LINE
  5
2AF8
330
2BC9
100
AcDbEntity
  8
SIZE
100
AcDbLine
 10
-188.0000000000036
 20
560.9900601720665
 30
0.0
 11
187.9999999999963
 21
560.9900601720665
 31
0.0
  0
INSERT
  5
2AF9
330
2BC9
100
AcDbEntity
  8
SIZE
100
AcDbBlockReference
  2
_DOTBLANK
 10
-200.0000000000039
 20
560.9900601720665
 30
0.0
 41
12.0
 42
12.0
 43
12.0
 50
180.0
  0
INSERT
  5
2AFA
330
2BC9
100
AcDbEntity
  8
SIZE
100
AcDbBlockReference
  2
_DOTBLANK
 10
199.9999999999963
 20
560.9900601720665
 30
0.0
 41
12.0
 42
12.0
 43
12.0
  0
LINE
  5
2AFB
330
2BC9
100
AcDbEntity
  8
SIZE
100
AcDbLine
 10
454.9999999999889
 20
435.0000000000036
 30
0.0
 11
730.1263901581079
 21
435.0000000000033
 31
0.0
  0
LINE
  5
2AFC
330
2BC9
100
AcDbEntity
  8
SIZE
100
AcDbLine
 10
454.9999999999889
 20
-434.9999999999964
 30
0.0
 11
730.1263901581072
 21
-434.9999999999964
 31
0.0
  0
LINE
  5
2AFD
330
2BC9
100
AcDbEntity
  8
SIZE
100
AcDbLine
 10
710.1263901581072
 20
423.0000000000033
 30
0.0
 11
710.1263901581072
 21
-422.9999999999964
 31
0.0
  0
INSERT
  5
2AFE
330
2BC9
100
AcDbEntity
  8
SIZE
100
AcDbBlockReference
  2
_DOTBLANK
 10
710.1263901581072
 20
435.0000000000033
 30
0.0
 41
12.0
 42
12.0
 43
12.0
 50
90.0
  0
INSERT
  5
2AFF
330
2BC9
100
AcDbEntity
  8
SIZE
100
AcDbBlockReference
  2
_DOTBLANK
 10
710.1263901581072
 20
-434.9999999999964
 30
0.0
 41
12.0
 42
12.0
 43
12.0
 50
270.0
  0
LINE
  5
2B00
330
2BC9
100
AcDbEntity
  8
SIZE
100
AcDbLine
 10
-448.5000000000038
 20
-1175.585480827543
 30
0.0
 11
-448.5000000000038
 21
-1400.941289342292
 31
0.0
  0
LINE
  5
2B01
330
2BC9
100
AcDbEntity
  8
SIZE
100
AcDbLine
 10
448.4999999999891
 20
-1175.585480827543
 30
0.0
 11
448.4999999999891
 21
-1400.941289342292
 31
0.0
  0
LINE
  5
2B02
330
2BC9
100
AcDbEntity
  8
SIZE
100
AcDbLine
 10
-436.5000000000038
 20
-1380.941289342292
 30
0.0
 11
436.4999999999889
 21
-1380.941289342292
 31
0.0
  0
INSERT
  5
2B03
330
2BC9
100
AcDbEntity
  8
SIZE
100
AcDbBlockReference
  2
_DOTBLANK
 10
-448.5000000000038
 20
-1380.941289342292
 30
0.0
 41
12.0
 42
12.0
 43
12.0
 50
180.0
  0
INSERT
  5
2B04
330
2BC9
100
AcDbEntity
  8
SIZE
100
AcDbBlockReference
  2
_DOTBLANK
 10
448.4999999999891
 20
-1380.941289342292
 30
0.0
 41
12.0
 42
12.0
 43
12.0
  0
TEXT
  5
2B05
330
2BC9
100
AcDbEntity
  8
SIZE
100
AcDbText
 10
-65.35488967716538
 20
-1370.941289342292
 30
0.0
 40
64.0
  1
897
 41
0.9
100
AcDbText
  0
TEXT
  5
2B06
330
2BC9
100
AcDbEntity
  8
SIZE
100
AcDbText
 10
-1069.204337391976
 20
-437.628580305498
 30
0.0
 40
64.0
  1
1636
 50
90.0
 41
0.9
100
AcDbText
  0
TEXT
  5
2B07
330
2BC9
100
AcDbEntity
  8
SIZE
100
AcDbText
 10
-945.0761455246905
 20
-91.54240177293377
 30
0.0
 40
64.0
  1
950
 50
90.0
 41
0.9
100
AcDbText
  0
TEXT
  5
2B08
330
2BC9
100
AcDbEntity
  8
SIZE
100
AcDbText
 10
-825.1214354850924
 20
-91.54240177293377
 30
0.0
 40
64.0
  1
900
 50
90.0
 41
0.9
100
AcDbText
  0
TEXT
  5
2B09
330
2BC9
100
AcDbEntity
  8
SIZE
100
AcDbText
 10
-695.2525555390057
 20
-91.54240177293377
 30
0.0
 40
64.0
  1
500
 50
90.0
 41
0.9
100
AcDbText
  0
TEXT
  5
2B0A
330
2BC9
100
AcDbEntity
  8
SIZE
100
AcDbText
 10
-576.0154891313684
 20
-92.68234178192869
 30
0.0
 40
64.0
  1
400
 50
90.0
 41
0.9
100
AcDbText
  0
TEXT
  5
2B0B
330
2BC9
100
AcDbEntity
  8
SIZE
100
AcDbText
 10
-65.89073846381961
 20
570.9900601720663
 30
0.0
 40
64.0
  1
400
 41
0.9
100
AcDbText
  0
TEXT
  5
2B0C
330
2BC9
100
AcDbEntity
  8
SIZE
100
AcDbText
 10
-65.89073846381961
 20
689.6112684086473
 30
0.0
 40
64.0
  1
500
 41
0.9
100
AcDbText
  0
TEXT
  5
2B0D
330
2BC9
100
AcDbEntity
  8
SIZE
100
AcDbText
 10
-65.89073846381961
 20
809.7567444329156
 30
0.0
 40
64.0
  1
900
 41
0.9
100
AcDbText
  0
TEXT
  5
2B0E
330
2BC9
100
AcDbEntity
  8
SIZE
100
AcDbText
 10
-65.89073846381961
 20
928.8487719305658
 30
0.0
 40
64.0
  1
950
 41
0.9
100
AcDbText
  0
TEXT
  5
2B0F
330
2BC9
100
AcDbEntity
  8
SIZE
100
AcDbText
 10
700.1263901581072
 20
-110.5371428571382
 30
0.0
 40
64.0
  1
□870
 50
90.0
 41
0.9
100
AcDbText
  0
TEXT
  5
2B10
330
2BC9
100
AcDbEntity
  8
NOTE
100
AcDbText
 10
585.7628007871973
 20
563.5270950580141
 30
0.0
 40
64.0
  1
16×φ15取付穴
 41
0.9
100
AcDbText
  0
INSERT
  5
2B11
330
2BC9
100
AcDbEntity
  8
NOTE
100
AcDbBlockReference
  2
_OPEN30
 10
449.9999999999888
 20
450.0000000000017
 30
0.0
 41
12.00000000000003
 42
12.0
 43
12.0
 50
232.3258907693337
1001
ACAD
1000
DSTYLE
1002
{
1070
    41
1040
12.0
1070
    42
1040
20.0
1070
    43
1040
200.0
1070
    44
1040
20.0
1070
    73
1070
     0
1070
    74
1070
     0
1070
    77
1070
     1
1070
    78
1070
     8
1070
   140
1040
64.0
1070
   147
1040
50.0
1070
   172
1070
     1
1070
   174
1070
     1
1070
   275
1070
     0
1070
   284
1070
     0
1070
   285
1070
     0
1070
   286
1070
     0
1070
   341
1005
0
1070
   342
1005
0
1002
}
  0
POLYLINE
  5
2B12
330
2BC9
100
AcDbEntity
  8
NOTE
100
AcDb2dPolyline
 66
     1
 10
0.0
 20
0.0
 30
0.0
1001
ACAD
1000
DSTYLE
1002
{
1070
    41
1040
12.0
1070
    42
1040
20.0
1070
    43
1040
200.0
1070
    44
1040
20.0
1070
    73
1070
     0
1070
    74
1070
     0
1070
    77
1070
     1
1070
    78
1070
     8
1070
   140
1040
64.0
1070
   147
1040
50.0
1070
   172
1070
     1
1070
   174
1070
     1
1070
   275
1070
     0
1070
   284
1070
     0
1070
   285
1070
     0
1070
   286
1070
     0
1070
   341
1005
0
1070
   342
1005
0
1002
}
  0
VERTEX
  5
2B13
330
2B12
100
AcDbEntity
  8
NOTE
100
AcDbVertex
100
AcDb2dVertex
 10
457.3340332839334
 20
459.4979974620982
 30
0.0
  0
VERTEX
  5
2B14
330
2B12
100
AcDbEntity
  8
NOTE
100
AcDbVertex
100
AcDb2dVertex
 10
523.7628007871972
 20
545.5270950580141
 30
0.0
  0
VERTEX
  5
2B15
330
2B12
100
AcDbEntity
  8
NOTE
100
AcDbVertex
100
AcDb2dVertex
 10
1113.488515072911
 20
545.5270950580141
 30
0.0
  0
SEQEND
  5
2B16
330
2B12
100
AcDbEntity
  8
NOTE
  0
ENDSEC
  0
SECTION
  2
OBJECTS
  0
DICTIONARY
  5
2B61
330
0
100
AcDbDictionary
281
     1
  3
ACAD_2007HEADERVARS_RT
350
2D52
  3
ACAD_COLOR
350
2BBF
  3
ACAD_GROUP
350
2B62
  3
ACAD_LAYOUT
350
2BBE
  3
ACAD_MATERIAL
350
2B65
  3
ACAD_MLEADERSTYLE
350
2BC2
  3
ACAD_MLINESTYLE
350
2BBB
  3
ACAD_PLOTSETTINGS
350
2BBD
  3
ACAD_PLOTSTYLENAME
350
2B63
  3
ACAD_SCALELIST
350
2B8F
  3
ACAD_TABLESTYLE
350
2BC0
  3
ACAD_VISUALSTYLE
350
2B7E
  3
ACDB_RECOMPOSE_DATA
350
2D50
  3
AcDbVariableDictionary
350
2D47
  3
AcmDictionary
350
2CF7
  3
AMG
350
2C44
  3
DWGPROPS
350
2D51
  3
MAPISURF_MODULE
350
2CC4
  0
DICTIONARY
  5
2D1F
330
2BB1
100
AcDbDictionary
280
     1
281
     1
  3
ADSK_XREC_LAYER_RECONCILED
360
2D20
  0
DICTIONARY
  5
2D21
330
2BE1
100
AcDbDictionary
280
     1
281
     1
  3
ADSK_XREC_LAYER_RECONCILED
360
2D22
  0
DICTIONARY
  5
2D23
330
2BE2
100
AcDbDictionary
280
     1
281
     1
  3
ADSK_XREC_LAYER_RECONCILED
360
2D24
  0
DICTIONARY
  5
2D25
330
2BE3
100
AcDbDictionary
280
     1
281
     1
  3
ADSK_XREC_LAYER_RECONCILED
360
2D26
  0
DICTIONARY
  5
2D27
330
2BE4
100
AcDbDictionary
280
     1
281
     1
  3
ADSK_XREC_LAYER_RECONCILED
360
2D28
  0
DICTIONARY
  5
2D29
330
2BE5
100
AcDbDictionary
280
     1
281
     1
  3
ADSK_XREC_LAYER_RECONCILED
360
2D2A
  0
DICTIONARY
  5
2D2B
330
2BE7
100
AcDbDictionary
280
     1
281
     1
  3
ADSK_XREC_LAYER_RECONCILED
360
2D2C
  0
DICTIONARY
  5
2D2D
330
2BE8
100
AcDbDictionary
280
     1
281
     1
  3
ADSK_XREC_LAYER_RECONCILED
360
2D2E
  0
DICTIONARY
  5
2D2F
330
2BE9
100
AcDbDictionary
280
     1
281
     1
  3
ADSK_XREC_LAYER_RECONCILED
360
2D30
  0
DICTIONARY
  5
2D31
330
2BEA
100
AcDbDictionary
280
     1
281
     1
  3
ADSK_XREC_LAYER_RECONCILED
360
2D32
  0
DICTIONARY
  5
2D33
330
2BEB
100
AcDbDictionary
280
     1
281
     1
  3
ADSK_XREC_LAYER_RECONCILED
360
2D34
  0
DICTIONARY
  5
2D35
330
2BEC
100
AcDbDictionary
280
     1
281
     1
  3
ADSK_XREC_LAYER_RECONCILED
360
2D36
  0
DICTIONARY
  5
2D37
330
2BC9
100
AcDbDictionary
280
     1
281
     1
  3
ACAD_INDEX
360
2D38
  0
DICTIONARY
  5
2D52
102
{ACAD_REACTORS
330
2B61
102
}
330
2B61
100
AcDbDictionary
281
     1
  3
DIMARCSYM
350
2D53
  3
DIMLTEX1
350
2D55
  3
DIMLTEX2
350
2D56
  3
DIMLTYPE
350
2D54
  0
DICTIONARY
  5
2BBF
102
{ACAD_REACTORS
330
2B61
102
}
330
2B61
100
AcDbDictionary
281
     1
  0
DICTIONARY
  5
2B62
102
{ACAD_REACTORS
330
2B61
102
}
330
2B61
100
AcDbDictionary
281
     1
  0
DICTIONARY
  5
2BBE
102
{ACAD_REACTORS
330
2B61
102
}
330
2B61
100
AcDbDictionary
281
     1
  3
Model
350
2BCC
  3
レイアウト1
350
2BC8
  0
DICTIONARY
  5
2B65
102
{ACAD_REACTORS
330
2B61
102
}
330
2B61
100
AcDbDictionary
281
     1
  3
ByBlock
350
2B6E
  3
ByLayer
350
2B66
  3
Global
350
2B76
  0
DICTIONARY
  5
2BC2
102
{ACAD_REACTORS
330
2B61
102
}
330
2B61
100
AcDbDictionary
281
     1
  3
Standard
350
2BC3
  0
DICTIONARY
  5
2BBB
102
{ACAD_REACTORS
330
2B61
102
}
330
2B61
100
AcDbDictionary
281
     1
  3
Standard
350
2BBC
  0
DICTIONARY
  5
2BBD
102
{ACAD_REACTORS
330
2B61
102
}
330
2B61
100
AcDbDictionary
281
     1
  0
ACDBDICTIONARYWDFLT
  5
2B63
102
{ACAD_REACTORS
330
2B61
102
}
330
2B61
100
AcDbDictionary
281
     1
  3
Normal
350
2B64
100
AcDbDictionaryWithDefault
340
2B64
  0
DICTIONARY
  5
2B8F
102
{ACAD_REACTORS
330
2B61
102
}
330
2B61
100
AcDbDictionary
281
     1
  3
A0
350
2B90
  3
A1
350
2B91
  3
A2
350
2B92
  3
A3
350
2B93
  3
A4
350
2B94
  3
A5
350
2B95
  3
A6
350
2B96
  3
A7
350
2B97
  3
A8
350
2B98
  3
A9
350
2B99
  3
B0
350
2B9A
  3
B1
350
2B9B
  3
B2
350
2B9C
  3
B3
350
2B9D
  3
B4
350
2B9E
  3
B5
350
2B9F
  3
B6
350
2BA0
  3
B7
350
2BA1
  3
B8
350
2BA2
  3
B9
350
2BA3
  3
C0
350
2BA4
  3
C1
350
2BA5
  3
C2
350
2BA6
  3
C3
350
2BA7
  3
C4
350
2BA8
  3
C5
350
2BA9
  3
C6
350
2BAA
  3
C7
350
2BAB
  3
C8
350
2BAC
  3
C9
350
2BAD
  3
D0
350
2BAE
  3
D1
350
2BAF
  3
D2
350
2BB0
  0
DICTIONARY
  5
2BC0
102
{ACAD_REACTORS
330
2B61
102
}
330
2B61
100
AcDbDictionary
281
     1
  3
Standard
350
2BC1
  0
DICTIONARY
  5
2B7E
102
{ACAD_REACTORS
330
2B61
102
}
330
2B61
100
AcDbDictionary
281
     1
  3
2dWireframe
350
2B84
  3
3D Hidden
350
2B86
  3
3dWireframe
350
2B85
  3
Basic
350
2B83
  3
Brighten
350
2B8A
  3
ColorChange
350
2B8E
  3
Conceptual
350
2B87
  3
Dim
350
2B89
  3
Facepattern
350
2B8D
  3
Flat
350
2B7F
  3
FlatWithEdges
350
2B80
  3
Gouraud
350
2B81
  3
GouraudWithEdges
350
2B82
  3
Linepattern
350
2B8C
  3
Realistic
350
2B88
  3
Thicken
350
2B8B
  0
XRECORD
  5
2D50
102
{ACAD_REACTORS
330
2B61
102
}
330
2B61
100
AcDbXrecord
280
     1
 90
        1
330
2BC1
  0
DICTIONARY
  5
2D47
102
{ACAD_REACTORS
330
2B61
102
}
330
2B61
100
AcDbDictionary
281
     1
  3
CANNOSCALE
350
2D4A
  3
CMLEADERSTYLE
350
2D49
  3
CTABLESTYLE
350
2D48
  3
DIMASSOC
350
2D4D
  3
INDEXCTL
350
2D4C
  3
SORTENTS
350
2D4B
  0
DICTIONARY
  5
2CF7
102
{ACAD_REACTORS
330
2B61
102
}
330
2B61
100
AcDbDictionary
281
     1
  3
AcmStdDictionary
350
2D05
  0
DICTIONARY
  5
2C44
102
{ACAD_REACTORS
330
2B61
102
}
330
2B61
100
AcDbDictionary
281
     1
  3
AcMgSettings
350
2C45
  0
XRECORD
  5
2D51
102
{ACAD_REACTORS
330
2B61
102
}
330
2B61
100
AcDbXrecord
280
     1
  1
DWGPROPS COOKIE
  2

  3

  4

  6

  7

  8
A090053
  9

300
AmdtFileType=84
301
=
302
=
303
=
304
=
305
=
306
=
307
=
308
=
309
=
 40
1.043881562499999
 41
2452321.396199653
 42
2456213.410583519
  1

 90
        1
  0
XRECORD
  5
2D20
102
{ACAD_REACTORS
330
2D1F
102
}
330
2D1F
100
AcDbXrecord
280
     1
290
     1
  0
XRECORD
  5
2D22
102
{ACAD_REACTORS
330
2D21
102
}
330
2D21
100
AcDbXrecord
280
     1
290
     1
  0
XRECORD
  5
2D24
102
{ACAD_REACTORS
330
2D23
102
}
330
2D23
100
AcDbXrecord
280
     1
290
     1
  0
XRECORD
  5
2D26
102
{ACAD_REACTORS
330
2D25
102
}
330
2D25
100
AcDbXrecord
280
     1
290
     1
  0
XRECORD
  5
2D28
102
{ACAD_REACTORS
330
2D27
102
}
330
2D27
100
AcDbXrecord
280
     1
290
     1
  0
XRECORD
  5
2D2A
102
{ACAD_REACTORS
330
2D29
102
}
330
2D29
100
AcDbXrecord
280
     1
290
     1
  0
XRECORD
  5
2D2C
102
{ACAD_REACTORS
330
2D2B
102
}
330
2D2B
100
AcDbXrecord
280
     1
290
     1
  0
XRECORD
  5
2D2E
102
{ACAD_REACTORS
330
2D2D
102
}
330
2D2D
100
AcDbXrecord
280
     1
290
     1
  0
XRECORD
  5
2D30
102
{ACAD_REACTORS
330
2D2F
102
}
330
2D2F
100
AcDbXrecord
280
     1
290
     1
  0
XRECORD
  5
2D32
102
{ACAD_REACTORS
330
2D31
102
}
330
2D31
100
AcDbXrecord
280
     1
290
     1
  0
XRECORD
  5
2D34
102
{ACAD_REACTORS
330
2D33
102
}
330
2D33
100
AcDbXrecord
280
     1
290
     1
  0
XRECORD
  5
2D36
102
{ACAD_REACTORS
330
2D35
102
}
330
2D35
100
AcDbXrecord
280
     1
290
     1
  0
DICTIONARY
  5
2D38
102
{ACAD_REACTORS
330
2D37
102
}
330
2D37
100
AcDbDictionary
281
     1
  3
*A1
350
2D39
  0
XRECORD
  5
2D53
102
{ACAD_REACTORS
330
2D52
102
}
330
2D52
100
AcDbXrecord
280
     1
 70
     1
  0
XRECORD
  5
2D55
102
{ACAD_REACTORS
330
2D52
102
}
330
2D52
100
AcDbXrecord
280
     1
340
2BB7
  0
XRECORD
  5
2D56
102
{ACAD_REACTORS
330
2D52
102
}
330
2D52
100
AcDbXrecord
280
     1
340
2BB7
  0
XRECORD
  5
2D54
102
{ACAD_REACTORS
330
2D52
102
}
330
2D52
100
AcDbXrecord
280
     1
340
2BB7
  0
LAYOUT
  5
2BCC
102
{ACAD_XDICTIONARY
360
2D5D
102
}
102
{ACAD_REACTORS
330
2BBE
102
}
330
2BBE
100
AcDbPlotSettings
  1

  2
自動 EPSON LP-9600S (W2450527 上)
  4

  6

 40
0.0
 41
0.0
 42
0.0
 43
0.0
 44
0.0
 45
0.0
 46
0.0
 47
0.0
 48
0.0
 49
0.0
140
0.0
141
0.0
142
1.0
143
1.0
 70
  1712
 72
     0
 73
     0
 74
     0
  7

 75
     0
147
1.0
148
0.0
149
0.0
100
AcDbLayout
  1
Model
 70
     1
 71
     0
 10
0.0
 20
0.0
 11
12.0
 21
9.0
 12
0.0
 22
0.0
 32
0.0
 14
0.0
 24
0.0
 34
0.0
 15
0.0
 25
0.0
 35
0.0
146
0.0
 13
0.0
 23
0.0
 33
0.0
 16
1.0
 26
0.0
 36
0.0
 17
0.0
 27
1.0
 37
0.0
 76
     0
330
2BC9
331
2BCD
  0
LAYOUT
  5
2BC8
102
{ACAD_XDICTIONARY
360
2D5B
102
}
102
{ACAD_REACTORS
330
2BBE
102
}
330
2BBE
100
AcDbPlotSettings
  1

  2
自動 EPSON LP-9600S (W2450527 上)
  4

  6

 40
0.0
 41
0.0
 42
0.0
 43
0.0
 44
0.0
 45
0.0
 46
0.0
 47
0.0
 48
0.0
 49
0.0
140
0.0
141
0.0
142
1.0
143
1.0
 70
   688
 72
     0
 73
     0
 74
     5
  7

 75
    16
147
1.0
148
0.0
149
0.0
100
AcDbLayout
  1
レイアウト1
 70
     1
 71
     1
 10
0.0
 20
0.0
 11
12.0
 21
9.0
 12
0.0
 22
0.0
 32
0.0
 14
1.000000000000000E+20
 24
1.000000000000000E+20
 34
1.000000000000000E+20
 15
-1.000000000000000E+20
 25
-1.000000000000000E+20
 35
-1.000000000000000E+20
146
0.0
 13
0.0
 23
0.0
 33
0.0
 16
1.0
 26
0.0
 36
0.0
 17
0.0
 27
1.0
 37
0.0
 76
     0
330
2BC5
  0
MATERIAL
  5
2B6E
102
{ACAD_XDICTIONARY
360
2B6F
102
}
102
{ACAD_REACTORS
330
2B65
102
}
330
2B65
100
AcDbMaterial
  1
ByBlock
 72
     0
 43
0.0208333333333333
 43
0.0
 43
0.0
 43
0.0
 43
0.0
 43
0.0208333333333333
 43
0.0
 43
0.0
 43
0.0
 43
0.0
 43
1.0
 43
0.0
 43
0.0
 43
0.0
 43
0.0
 43
1.0
 77
     0
 47
0.0208333333333333
 47
0.0
 47
0.0
 47
0.0
 47
0.0
 47
0.0208333333333333
 47
0.0
 47
0.0
 47
0.0
 47
0.0
 47
1.0
 47
0.0
 47
0.0
 47
0.0
 47
0.0
 47
1.0
171
     0
 49
0.0208333333333333
 49
0.0
 49
0.0
 49
0.0
 49
0.0
 49
0.0208333333333333
 49
0.0
 49
0.0
 49
0.0
 49
0.0
 49
1.0
 49
0.0
 49
0.0
 49
0.0
 49
0.0
 49
1.0
175
     0
142
0.0208333333333333
142
0.0
142
0.0
142
0.0
142
0.0
142
0.0208333333333333
142
0.0
142
0.0
142
0.0
142
0.0
142
1.0
142
0.0
142
0.0
142
0.0
142
0.0
142
1.0
179
     0
144
0.0208333333333333
144
0.0
144
0.0
144
0.0
144
0.0
144
0.0208333333333333
144
0.0
144
0.0
144
0.0
144
0.0
144
1.0
144
0.0
144
0.0
144
0.0
144
0.0
144
1.0
147
0.0208333333333333
147
0.0
147
0.0
147
0.0
147
0.0
147
0.0208333333333333
147
0.0
147
0.0
147
0.0
147
0.0
147
1.0
147
0.0
147
0.0
147
0.0
147
0.0
147
1.0
  0
MATERIAL
  5
2B66
102
{ACAD_XDICTIONARY
360
2B67
102
}
102
{ACAD_REACTORS
330
2B65
102
}
330
2B65
100
AcDbMaterial
  1
ByLayer
 72
     0
 43
0.0208333333333333
 43
0.0
 43
0.0
 43
0.0
 43
0.0
 43
0.0208333333333333
 43
0.0
 43
0.0
 43
0.0
 43
0.0
 43
1.0
 43
0.0
 43
0.0
 43
0.0
 43
0.0
 43
1.0
 77
     0
 47
0.0208333333333333
 47
0.0
 47
0.0
 47
0.0
 47
0.0
 47
0.0208333333333333
 47
0.0
 47
0.0
 47
0.0
 47
0.0
 47
1.0
 47
0.0
 47
0.0
 47
0.0
 47
0.0
 47
1.0
171
     0
 49
0.0208333333333333
 49
0.0
 49
0.0
 49
0.0
 49
0.0
 49
0.0208333333333333
 49
0.0
 49
0.0
 49
0.0
 49
0.0
 49
1.0
 49
0.0
 49
0.0
 49
0.0
 49
0.0
 49
1.0
175
     0
142
0.0208333333333333
142
0.0
142
0.0
142
0.0
142
0.0
142
0.0208333333333333
142
0.0
142
0.0
142
0.0
142
0.0
142
1.0
142
0.0
142
0.0
142
0.0
142
0.0
142
1.0
179
     0
144
0.0208333333333333
144
0.0
144
0.0
144
0.0
144
0.0
144
0.0208333333333333
144
0.0
144
0.0
144
0.0
144
0.0
144
1.0
144
0.0
144
0.0
144
0.0
144
0.0
144
1.0
147
0.0208333333333333
147
0.0
147
0.0
147
0.0
147
0.0
147
0.0208333333333333
147
0.0
147
0.0
147
0.0
147
0.0
147
1.0
147
0.0
147
0.0
147
0.0
147
0.0
147
1.0
  0
MATERIAL
  5
2B76
102
{ACAD_XDICTIONARY
360
2B77
102
}
102
{ACAD_REACTORS
330
2B65
102
}
330
2B65
100
AcDbMaterial
  1
Global
 72
     0
 43
0.0208333333333333
 43
0.0
 43
0.0
 43
0.0
 43
0.0
 43
0.0208333333333333
 43
0.0
 43
0.0
 43
0.0
 43
0.0
 43
1.0
 43
0.0
 43
0.0
 43
0.0
 43
0.0
 43
1.0
 77
     0
 47
0.0208333333333333
 47
0.0
 47
0.0
 47
0.0
 47
0.0
 47
0.0208333333333333
 47
0.0
 47
0.0
 47
0.0
 47
0.0
 47
1.0
 47
0.0
 47
0.0
 47
0.0
 47
0.0
 47
1.0
171
     0
 49
0.0208333333333333
 49
0.0
 49
0.0
 49
0.0
 49
0.0
 49
0.0208333333333333
 49
0.0
 49
0.0
 49
0.0
 49
0.0
 49
1.0
 49
0.0
 49
0.0
 49
0.0
 49
0.0
 49
1.0
175
     0
142
0.0208333333333333
142
0.0
142
0.0
142
0.0
142
0.0
142
0.0208333333333333
142
0.0
142
0.0
142
0.0
142
0.0
142
1.0
142
0.0
142
0.0
142
0.0
142
0.0
142
1.0
179
     0
144
0.0208333333333333
144
0.0
144
0.0
144
0.0
144
0.0
144
0.0208333333333333
144
0.0
144
0.0
144
0.0
144
0.0
144
1.0
144
0.0
144
0.0
144
0.0
144
0.0
144
1.0
147
0.0208333333333333
147
0.0
147
0.0
147
0.0
147
0.0
147
0.0208333333333333
147
0.0
147
0.0
147
0.0
147
0.0
147
1.0
147
0.0
147
0.0
147
0.0
147
0.0
147
1.0
  0
MLEADERSTYLE
  5
2BC3
102
{ACAD_REACTORS
330
2BC2
102
}
330
2BC2
100
AcDbMLeaderStyle
170
     2
171
     1
172
     0
 90
        2
 40
0.0
 41
0.0
173
     1
 91
-1056964608
340
2BB7
 92
       -2
290
     1
 42
0.09
291
     1
 43
0.36
  3
Standard
 44
0.18
300

342
2BB2
174
     1
178
     6
175
     1
176
     0
 93
-1056964608
 45
0.18
292
     0
297
     0
 46
0.18
 94
-1056964608
 47
1.0
 49
1.0
140
1.0
293
     1
141
0.0
294
     1
177
     0
142
1.0
295
     0
296
     0
143
0.125
1001
ACAD_MLEADERVER
1070
     2
  0
MLINESTYLE
  5
2BBC
102
{ACAD_REACTORS
330
2BBB
102
}
330
2BBB
100
AcDbMlineStyle
  2
STANDARD
 70
     0
  3

 62
   256
 51
90.0
 52
90.0
 71
     2
 49
0.5
 62
   256
  6
BYLAYER
 49
-0.5
 62
   256
  6
BYLAYER
  0
ACDBPLACEHOLDER
  5
2B64
102
{ACAD_REACTORS
330
2B63
102
}
330
2B63
  0
SCALE
  5
2B90
102
{ACAD_REACTORS
330
2B8F
102
}
330
2B8F
100
AcDbScale
 70
     0
300
1:1
140
1.0
141
1.0
290
     1
  0
SCALE
  5
2B91
102
{ACAD_REACTORS
330
2B8F
102
}
330
2B8F
100
AcDbScale
 70
     0
300
1:2
140
1.0
141
2.0
290
     0
  0
SCALE
  5
2B92
102
{ACAD_REACTORS
330
2B8F
102
}
330
2B8F
100
AcDbScale
 70
     0
300
1:4
140
1.0
141
4.0
290
     0
  0
SCALE
  5
2B93
102
{ACAD_REACTORS
330
2B8F
102
}
330
2B8F
100
AcDbScale
 70
     0
300
1:5
140
1.0
141
5.0
290
     0
  0
SCALE
  5
2B94
102
{ACAD_REACTORS
330
2B8F
102
}
330
2B8F
100
AcDbScale
 70
     0
300
1:8
140
1.0
141
8.0
290
     0
  0
SCALE
  5
2B95
102
{ACAD_REACTORS
330
2B8F
102
}
330
2B8F
100
AcDbScale
 70
     0
300
1:10
140
1.0
141
10.0
290
     0
  0
SCALE
  5
2B96
102
{ACAD_REACTORS
330
2B8F
102
}
330
2B8F
100
AcDbScale
 70
     0
300
1:16
140
1.0
141
16.0
290
     0
  0
SCALE
  5
2B97
102
{ACAD_REACTORS
330
2B8F
102
}
330
2B8F
100
AcDbScale
 70
     0
300
1:20
140
1.0
141
20.0
290
     0
  0
SCALE
  5
2B98
102
{ACAD_REACTORS
330
2B8F
102
}
330
2B8F
100
AcDbScale
 70
     0
300
1:30
140
1.0
141
30.0
290
     0
  0
SCALE
  5
2B99
102
{ACAD_REACTORS
330
2B8F
102
}
330
2B8F
100
AcDbScale
 70
     0
300
1:40
140
1.0
141
40.0
290
     0
  0
SCALE
  5
2B9A
102
{ACAD_REACTORS
330
2B8F
102
}
330
2B8F
100
AcDbScale
 70
     0
300
1:50
140
1.0
141
50.0
290
     0
  0
SCALE
  5
2B9B
102
{ACAD_REACTORS
330
2B8F
102
}
330
2B8F
100
AcDbScale
 70
     0
300
1:100
140
1.0
141
100.0
290
     0
  0
SCALE
  5
2B9C
102
{ACAD_REACTORS
330
2B8F
102
}
330
2B8F
100
AcDbScale
 70
     0
300
2:1
140
2.0
141
1.0
290
     0
  0
SCALE
  5
2B9D
102
{ACAD_REACTORS
330
2B8F
102
}
330
2B8F
100
AcDbScale
 70
     0
300
4:1
140
4.0
141
1.0
290
     0
  0
SCALE
  5
2B9E
102
{ACAD_REACTORS
330
2B8F
102
}
330
2B8F
100
AcDbScale
 70
     0
300
8:1
140
8.0
141
1.0
290
     0
  0
SCALE
  5
2B9F
102
{ACAD_REACTORS
330
2B8F
102
}
330
2B8F
100
AcDbScale
 70
     0
300
10:1
140
10.0
141
1.0
290
     0
  0
SCALE
  5
2BA0
102
{ACAD_REACTORS
330
2B8F
102
}
330
2B8F
100
AcDbScale
 70
     0
300
100:1
140
100.0
141
1.0
290
     0
  0
SCALE
  5
2BA1
102
{ACAD_REACTORS
330
2B8F
102
}
330
2B8F
100
AcDbScale
 70
     0
300
1/128" = 1'-0"
140
0.0078125
141
12.0
290
     0
  0
SCALE
  5
2BA2
102
{ACAD_REACTORS
330
2B8F
102
}
330
2B8F
100
AcDbScale
 70
     0
300
1/64" = 1'-0"
140
0.015625
141
12.0
290
     0
  0
SCALE
  5
2BA3
102
{ACAD_REACTORS
330
2B8F
102
}
330
2B8F
100
AcDbScale
 70
     0
300
1/32" = 1'-0"
140
0.03125
141
12.0
290
     0
  0
SCALE
  5
2BA4
102
{ACAD_REACTORS
330
2B8F
102
}
330
2B8F
100
AcDbScale
 70
     0
300
1/16" = 1'-0"
140
0.0625
141
12.0
290
     0
  0
SCALE
  5
2BA5
102
{ACAD_REACTORS
330
2B8F
102
}
330
2B8F
100
AcDbScale
 70
     0
300
3/32" = 1'-0"
140
0.09375
141
12.0
290
     0
  0
SCALE
  5
2BA6
102
{ACAD_REACTORS
330
2B8F
102
}
330
2B8F
100
AcDbScale
 70
     0
300
1/8" = 1'-0"
140
0.125
141
12.0
290
     0
  0
SCALE
  5
2BA7
102
{ACAD_REACTORS
330
2B8F
102
}
330
2B8F
100
AcDbScale
 70
     0
300
3/16" = 1'-0"
140
0.1875
141
12.0
290
     0
  0
SCALE
  5
2BA8
102
{ACAD_REACTORS
330
2B8F
102
}
330
2B8F
100
AcDbScale
 70
     0
300
1/4" = 1'-0"
140
0.25
141
12.0
290
     0
  0
SCALE
  5
2BA9
102
{ACAD_REACTORS
330
2B8F
102
}
330
2B8F
100
AcDbScale
 70
     0
300
3/8" = 1'-0"
140
0.375
141
12.0
290
     0
  0
SCALE
  5
2BAA
102
{ACAD_REACTORS
330
2B8F
102
}
330
2B8F
100
AcDbScale
 70
     0
300
1/2" = 1'-0"
140
0.5
141
12.0
290
     0
  0
SCALE
  5
2BAB
102
{ACAD_REACTORS
330
2B8F
102
}
330
2B8F
100
AcDbScale
 70
     0
300
3/4" = 1'-0"
140
0.75
141
12.0
290
     0
  0
SCALE
  5
2BAC
102
{ACAD_REACTORS
330
2B8F
102
}
330
2B8F
100
AcDbScale
 70
     0
300
1" = 1'-0"
140
1.0
141
12.0
290
     0
  0
SCALE
  5
2BAD
102
{ACAD_REACTORS
330
2B8F
102
}
330
2B8F
100
AcDbScale
 70
     0
300
1-1/2" = 1'-0"
140
1.5
141
12.0
290
     0
  0
SCALE
  5
2BAE
102
{ACAD_REACTORS
330
2B8F
102
}
330
2B8F
100
AcDbScale
 70
     0
300
3" = 1'-0"
140
3.0
141
12.0
290
     0
  0
SCALE
  5
2BAF
102
{ACAD_REACTORS
330
2B8F
102
}
330
2B8F
100
AcDbScale
 70
     0
300
6" = 1'-0"
140
6.0
141
12.0
290
     0
  0
SCALE
  5
2BB0
102
{ACAD_REACTORS
330
2B8F
102
}
330
2B8F
100
AcDbScale
 70
     0
300
1'-0" = 1'-0"
140
12.0
141
12.0
290
     0
  0
TABLESTYLE
  5
2BC1
102
{ACAD_XDICTIONARY
360
2D4E
102
}
102
{ACAD_REACTORS
330
2BC0
102
}
330
2BC0
100
AcDbTableStyle
  3
Standard
 70
     0
 71
     0
 40
0.06
 41
0.06
280
     0
281
     0
  7
STANDARD
140
0.18
170
     2
 62
     0
 63
     7
283
     0
274
    -2
284
     1
 64
     0
275
    -2
285
     1
 65
     0
276
    -2
286
     1
 66
     0
277
    -2
287
     1
 67
     0
278
    -2
288
     1
 68
     0
279
    -2
289
     1
 69
     0
  7
STANDARD
140
0.25
170
     5
 62
     0
 63
     7
283
     0
274
    -2
284
     1
 64
     0
275
    -2
285
     1
 65
     0
276
    -2
286
     1
 66
     0
277
    -2
287
     1
 67
     0
278
    -2
288
     1
 68
     0
279
    -2
289
     1
 69
     0
  7
STANDARD
140
0.18
170
     5
 62
     0
 63
     7
283
     0
274
    -2
284
     1
 64
     0
275
    -2
285
     1
 65
     0
276
    -2
286
     1
 66
     0
277
    -2
287
     1
 67
     0
278
    -2
288
     1
 68
     0
279
    -2
289
     1
 69
     0
  0
VISUALSTYLE
  5
2B84
102
{ACAD_REACTORS
330
2B7E
102
}
330
2B7E
100
AcDbVisualStyle
  2
2dWireframe
 70
     4
 71
     0
 72
     2
 73
     0
 90
        0
 40
-0.6
 41
-30.0
 62
     5
 63
     7
 74
     1
 91
        4
 64
     7
 65
   257
 75
     1
175
     1
 42
1.0
 92
        0
 66
   257
 43
1.0
 76
     1
 77
     6
 78
     2
 67
     7
 79
     5
170
     0
171
     0
290
     0
174
     0
 93
        1
 44
0.0
173
     0
291
     0
 45
0.0
1001
ACAD
1000
AcDbSavedByObjectVersion
1070
     0
  0
VISUALSTYLE
  5
2B86
102
{ACAD_REACTORS
330
2B7E
102
}
330
2B7E
100
AcDbVisualStyle
  2
3D Hidden
 70
     6
 71
     1
 72
     2
 73
     2
 90
        0
 40
-0.6
 41
-30.0
 62
     5
 63
     7
 74
     2
 91
        2
 64
     7
 65
   257
 75
     2
175
     1
 42
40.0
 92
        0
 66
   257
 43
1.0
 76
     1
 77
     6
 78
     2
 67
     7
 79
     3
170
     0
171
     0
290
     0
174
     0
 93
        1
 44
0.0
173
     0
291
     0
 45
0.0
1001
ACAD
1000
AcDbSavedByObjectVersion
1070
     0
  0
VISUALSTYLE
  5
2B85
102
{ACAD_REACTORS
330
2B7E
102
}
330
2B7E
100
AcDbVisualStyle
  2
3dWireframe
 70
     5
 71
     0
 72
     2
 73
     0
 90
        0
 40
-0.6
 41
-30.0
 62
     5
 63
     7
 74
     1
 91
        4
 64
     7
 65
   257
 75
     1
175
     1
 42
1.0
 92
        0
 66
   257
 43
1.0
 76
     1
 77
     6
 78
     2
 67
     7
 79
     5
170
     0
171
     0
290
     0
174
     0
 93
        1
 44
0.0
173
     0
291
     0
 45
0.0
1001
ACAD
1000
AcDbSavedByObjectVersion
1070
     0
  0
VISUALSTYLE
  5
2B83
102
{ACAD_REACTORS
330
2B7E
102
}
330
2B7E
100
AcDbVisualStyle
  2
Basic
 70
     7
 71
     1
 72
     0
 73
     1
 90
        0
 40
-0.6
 41
-30.0
 62
     5
 63
     7
 74
     0
 91
        4
 64
     7
 65
   257
 75
     1
175
     1
 42
1.0
 92
        8
 66
     7
 43
1.0
 76
     1
 77
     6
 78
     2
 67
     7
 79
     5
170
     0
171
     0
290
     0
174
     0
 93
        1
 44
0.0
173
     0
291
     1
 45
0.0
1001
ACAD
1000
AcDbSavedByObjectVersion
1070
     0
  0
VISUALSTYLE
  5
2B8A
102
{ACAD_REACTORS
330
2B7E
102
}
330
2B7E
100
AcDbVisualStyle
  2
Brighten
 70
    12
 71
     2
 72
     2
 73
     0
 90
        0
 40
-0.6
 41
-30.0
 62
     5
 63
     7
 74
     1
 91
        4
 64
     7
 65
   257
 75
     1
175
     1
 42
1.0
 92
        8
 66
     7
 43
1.0
 76
     1
 77
     6
 78
     2
 67
     7
 79
     5
170
     0
171
     0
290
     0
174
     0
 93
        1
 44
50.0
173
     0
291
     1
 45
0.0
1001
ACAD
1000
AcDbSavedByObjectVersion
1070
     0
  0
VISUALSTYLE
  5
2B8E
102
{ACAD_REACTORS
330
2B7E
102
}
330
2B7E
100
AcDbVisualStyle
  2
ColorChange
 70
    16
 71
     2
 72
     2
 73
     3
 90
        0
 40
-0.6
 41
-30.0
 62
     5
 63
     8
 74
     1
 91
        4
 64
     7
 65
   257
 75
     1
175
     1
 42
1.0
 92
        8
 66
     8
 43
1.0
 76
     1
 77
     6
 78
     2
 67
     7
 79
     5
170
     0
171
     0
290
     0
174
     0
 93
        1
 44
0.0
173
     0
291
     1
 45
0.0
1001
ACAD
1000
AcDbSavedByObjectVersion
1070
     0
  0
VISUALSTYLE
  5
2B87
102
{ACAD_REACTORS
330
2B7E
102
}
330
2B7E
100
AcDbVisualStyle
  2
Conceptual
 70
     9
 71
     3
 72
     2
 73
     0
 90
        0
 40
-0.6
 41
-30.0
 62
     5
 63
     7
 74
     2
 91
        2
 64
     7
 65
   257
 75
     1
175
     1
 42
40.0
 92
        8
 66
     7
 43
1.0
 76
     1
 77
     6
 78
     2
 67
     7
 79
     3
170
     0
171
     0
290
     0
174
     0
 93
        1
 44
0.0
173
     0
291
     0
 45
0.0
1001
ACAD
1000
AcDbSavedByObjectVersion
1070
     0
  0
VISUALSTYLE
  5
2B89
102
{ACAD_REACTORS
330
2B7E
102
}
330
2B7E
100
AcDbVisualStyle
  2
Dim
 70
    11
 71
     2
 72
     2
 73
     0
 90
        0
 40
-0.6
 41
-30.0
 62
     5
 63
     7
 74
     1
 91
        4
 64
     7
 65
   257
 75
     1
175
     1
 42
1.0
 92
        8
 66
     7
 43
1.0
 76
     1
 77
     6
 78
     2
 67
     7
 79
     5
170
     0
171
     0
290
     0
174
     0
 93
        1
 44
-50.0
173
     0
291
     1
 45
0.0
1001
ACAD
1000
AcDbSavedByObjectVersion
1070
     0
  0
VISUALSTYLE
  5
2B8D
102
{ACAD_REACTORS
330
2B7E
102
}
330
2B7E
100
AcDbVisualStyle
  2
Facepattern
 70
    15
 71
     2
 72
     2
 73
     0
 90
        0
 40
-0.6
 41
-30.0
 62
     5
 63
     7
 74
     1
 91
        4
 64
     7
 65
   257
 75
     1
175
     1
 42
1.0
 92
        8
 66
     7
 43
1.0
 76
     1
 77
     6
 78
     2
 67
     7
 79
     5
170
     0
171
     0
290
     0
174
     0
 93
        1
 44
0.0
173
     0
291
     1
 45
0.0
1001
ACAD
1000
AcDbSavedByObjectVersion
1070
     0
  0
VISUALSTYLE
  5
2B7F
102
{ACAD_REACTORS
330
2B7E
102
}
330
2B7E
100
AcDbVisualStyle
  2
Flat
 70
     0
 71
     2
 72
     1
 73
     1
 90
        2
 40
-0.6
 41
30.0
 62
     5
 63
     7
 74
     0
 91
        4
 64
     7
 65
   257
 75
     1
175
     1
 42
1.0
 92
        8
 66
     7
 43
1.0
 76
     1
 77
     6
 78
     2
 67
     7
 79
     5
170
     0
171
     0
290
     0
174
     0
 93
       13
 44
0.0
173
     0
291
     1
 45
0.0
1001
ACAD
1000
AcDbSavedByObjectVersion
1070
     0
  0
VISUALSTYLE
  5
2B80
102
{ACAD_REACTORS
330
2B7E
102
}
330
2B7E
100
AcDbVisualStyle
  2
FlatWithEdges
 70
     1
 71
     2
 72
     1
 73
     1
 90
        2
 40
-0.6
 41
30.0
 62
     5
 63
     7
 74
     1
 91
        4
 64
     7
 65
   257
 75
     1
175
     1
 42
1.0
 92
        0
 66
   257
 43
1.0
 76
     1
 77
     6
 78
     2
 67
     7
 79
     5
170
     0
171
     0
290
     0
174
     0
 93
       13
 44
0.0
173
     0
291
     1
 45
0.0
1001
ACAD
1000
AcDbSavedByObjectVersion
1070
     0
  0
VISUALSTYLE
  5
2B81
102
{ACAD_REACTORS
330
2B7E
102
}
330
2B7E
100
AcDbVisualStyle
  2
Gouraud
 70
     2
 71
     2
 72
     2
 73
     1
 90
        2
 40
-0.6
 41
30.0
 62
     5
 63
     7
 74
     0
 91
        4
 64
     7
 65
   257
 75
     1
175
     1
 42
1.0
 92
        0
 66
     7
 43
1.0
 76
     1
 77
     6
 78
     2
 67
     7
 79
     5
170
     0
171
     0
290
     0
174
     0
 93
       13
 44
0.0
173
     0
291
     1
 45
0.0
1001
ACAD
1000
AcDbSavedByObjectVersion
1070
     0
  0
VISUALSTYLE
  5
2B82
102
{ACAD_REACTORS
330
2B7E
102
}
330
2B7E
100
AcDbVisualStyle
  2
GouraudWithEdges
 70
     3
 71
     2
 72
     2
 73
     1
 90
        2
 40
-0.6
 41
30.0
 62
     5
 63
     7
 74
     1
 91
        4
 64
     7
 65
   257
 75
     1
175
     1
 42
1.0
 92
        0
 66
   257
 43
1.0
 76
     1
 77
     6
 78
     2
 67
     7
 79
     5
170
     0
171
     0
290
     0
174
     0
 93
       13
 44
0.0
173
     0
291
     1
 45
0.0
1001
ACAD
1000
AcDbSavedByObjectVersion
1070
     0
  0
VISUALSTYLE
  5
2B8C
102
{ACAD_REACTORS
330
2B7E
102
}
330
2B7E
100
AcDbVisualStyle
  2
Linepattern
 70
    14
 71
     2
 72
     2
 73
     0
 90
        0
 40
-0.6
 41
-30.0
 62
     5
 63
     7
 74
     1
 91
        4
 64
     7
 65
   257
 75
     7
175
     7
 42
1.0
 92
        8
 66
     7
 43
1.0
 76
     1
 77
     6
 78
     2
 67
     7
 79
     5
170
     0
171
     0
290
     0
174
     0
 93
        1
 44
0.0
173
     0
291
     1
 45
0.0
1001
ACAD
1000
AcDbSavedByObjectVersion
1070
     0
  0
VISUALSTYLE
  5
2B88
102
{ACAD_REACTORS
330
2B7E
102
}
330
2B7E
100
AcDbVisualStyle
  2
Realistic
 70
     8
 71
     2
 72
     2
 73
     0
 90
        0
 40
-0.6
 41
-30.0
 62
     5
 63
     7
 74
     1
 91
        0
 64
     7
 65
   257
 75
     1
175
     1
 42
1.0
 92
        8
 66
     8
 43
1.0
 76
     1
 77
     6
 78
     2
 67
     7
 79
     5
170
     0
171
     0
290
     0
174
     0
 93
       13
 44
0.0
173
     0
291
     0
 45
0.0
1001
ACAD
1000
AcDbSavedByObjectVersion
1070
     0
  0
VISUALSTYLE
  5
2B8B
102
{ACAD_REACTORS
330
2B7E
102
}
330
2B7E
100
AcDbVisualStyle
  2
Thicken
 70
    13
 71
     2
 72
     2
 73
     0
 90
        0
 40
-0.6
 41
-30.0
 62
     5
 63
     7
 74
     1
 91
        4
 64
     7
 65
   257
 75
     1
175
     1
 42
1.0
 92
       12
 66
     7
 43
1.0
 76
     1
 77
     6
 78
     2
 67
     7
 79
     5
170
     0
171
     0
290
     0
174
     0
 93
        1
 44
0.0
173
     0
291
     1
 45
0.0
1001
ACAD
1000
AcDbSavedByObjectVersion
1070
     0
  0
DICTIONARYVAR
  5
2D4A
102
{ACAD_REACTORS
330
2D47
102
}
330
2D47
100
DictionaryVariables
280
     0
  1
1:1
  0
DICTIONARYVAR
  5
2D49
102
{ACAD_REACTORS
330
2D47
102
}
330
2D47
100
DictionaryVariables
280
     0
  1
STANDARD
  0
DICTIONARYVAR
  5
2D48
102
{ACAD_REACTORS
330
2D47
102
}
330
2D47
100
DictionaryVariables
280
     0
  1
STANDARD
  0
DICTIONARYVAR
  5
2D4D
102
{ACAD_REACTORS
330
2D47
102
}
330
2D47
100
DictionaryVariables
280
     0
  1
1
  0
DICTIONARYVAR
  5
2D4C
102
{ACAD_REACTORS
330
2D47
102
}
330
2D47
100
DictionaryVariables
280
     0
  1
1
  0
DICTIONARYVAR
  5
2D4B
102
{ACAD_REACTORS
330
2D47
102
}
330
2D47
100
DictionaryVariables
280
     0
  1
127
  0
DICTIONARY
  5
2D05
102
{ACAD_REACTORS
330
2CF7
102
}
330
2CF7
100
AcDbDictionary
281
     1
  0
DICTIONARY
  5
2C45
102
{ACAD_REACTORS
330
2C44
102
}
330
2C44
100
AcDbDictionary
281
     1
  3
DWGSETTINGS
350
2C46
  3
TRANSSETTINGS
350
2C47
  0
LAYER_INDEX
  5
2D39
102
{ACAD_REACTORS
330
2D38
102
}
330
2D38
100
AcDbIndex
 40
2456213.410583519
100
AcDbLayerIndex
  8
0
360
2D3A
 90
        0
  8
OUTLINE
360
2D3B
 90
       82
  8
SIZE
360
2D3C
 90
       66
  8
BASIS
360
2D3D
 90
        0
  8
DETAIL
360
2D3E
 90
       76
  8
ARRANGE
360
2D3F
 90
        3
  8
DEFPOINTS
360
2D40
 90
        0
  8
ETC
360
2D41
 90
        3
  8
FIX
360
2D42
 90
       16
  8
NOTE
360
2D43
 90
       35
  8
SERVICESPACE
360
2D44
 90
        0
  8
SYMBOLLINE
360
2D45
 90
        0
  8
BASIC
360
2D46
 90
        2
  0
DICTIONARY
  5
2D5D
330
2BCC
100
AcDbDictionary
280
     1
281
     1
  3
ACAD_XREC_ROUNDTRIP
360
2D5E
  0
DICTIONARY
  5
2D5B
330
2BC8
100
AcDbDictionary
280
     1
281
     1
  3
ACAD_XREC_ROUNDTRIP
360
2D5C
  0
DICTIONARY
  5
2B6F
330
2B6E
100
AcDbDictionary
280
     1
281
     1
  3
ACAD_XREC_ROUNDTRIP
360
2D58
  3
BUMPTILE
360
2B71
  3
DIFFUSETILE
360
2B70
  3
OPACITYTILE
360
2B74
  3
REFLECTIONTILE
360
2B73
  3
REFRACTIONTILE
360
2B75
  3
SPECULARTILE
360
2B72
  0
DICTIONARY
  5
2B67
330
2B66
100
AcDbDictionary
280
     1
281
     1
  3
ACAD_XREC_ROUNDTRIP
360
2D57
  3
BUMPTILE
360
2B69
  3
DIFFUSETILE
360
2B68
  3
OPACITYTILE
360
2B6C
  3
REFLECTIONTILE
360
2B6B
  3
REFRACTIONTILE
360
2B6D
  3
SPECULARTILE
360
2B6A
  0
DICTIONARY
  5
2B77
330
2B76
100
AcDbDictionary
280
     1
281
     1
  3
ACAD_XREC_ROUNDTRIP
360
2D59
  3
BUMPTILE
360
2B79
  3
DIFFUSETILE
360
2B78
  3
OPACITYTILE
360
2B7C
  3
REFLECTIONTILE
360
2B7B
  3
REFRACTIONTILE
360
2B7D
  3
SPECULARTILE
360
2B7A
  0
DICTIONARY
  5
2D4E
330
2BC1
100
AcDbDictionary
280
     1
281
     1
  3
ACAD_ROUNDTRIP_2008_TABLESTYLE_CELLSTYLEMAP
360
2D4F
  3
ACAD_XREC_ROUNDTRIP
360
2D5A
  0
IDBUFFER
  5
2D3A
330
0
100
AcDbIdBuffer
  0
IDBUFFER
  5
2D3B
330
0
100
AcDbIdBuffer
330
2AAC
330
2AAD
330
2AAE
330
2AAF
330
2AB0
330
2AB1
330
2AB2
330
2AB3
330
2AB4
330
2AB5
330
2AB6
330
2AB7
330
2AB8
330
2AB9
330
2ABA
330
2ABB
330
2ABC
330
2ABD
330
2ABE
330
2ABF
330
2AC0
330
2AC1
330
2AC2
330
2AC3
330
2AC4
330
2AC5
330
2AC6
330
2AC7
330
2AC8
330
2AC9
330
2ACA
330
2ACB
330
2ACC
330
2ACD
330
953
330
954
330
955
330
956
330
957
330
958
330
2A82
330
2A83
330
2A84
330
2A85
330
2A86
330
2A87
330
2A88
330
2A89
330
2A8A
330
2A8B
330
2A8C
330
2A8D
330
2A8E
330
2A8F
330
2A90
330
2A91
330
2A92
330
2A93
330
2A94
330
2A95
330
2A96
330
2A97
330
2A98
330
2A99
330
2A9A
330
2A9B
330
2A9C
330
2A9D
330
2A9E
330
2A9F
330
2AA0
330
2AA1
330
2AA2
330
2AA3
330
2AA4
330
2AA5
330
2AA6
330
2AA7
330
2AA8
330
2AA9
330
2AAA
330
2AAB
  0
IDBUFFER
  5
2D3C
330
0
100
AcDbIdBuffer
330
2AFE
330
2AFF
330
2B00
330
2B01
330
2B02
330
2B03
330
2B04
330
2B05
330
2B06
330
2B07
330
2B08
330
2B09
330
2B0A
330
2B0B
330
2B0C
330
2B0D
330
2B0E
330
2B0F
330
2ACE
330
2ACF
330
2AD0
330
2AD1
330
2AD2
330
2AD3
330
2AD4
330
2AD5
330
2AD6
330
2AD7
330
2AD8
330
2AD9
330
2ADA
330
2ADB
330
2ADC
330
2ADD
330
2ADE
330
2ADF
330
2AE0
330
2AE1
330
2AE2
330
2AE3
330
2AE4
330
2AE5
330
2AE6
330
2AE7
330
2AE8
330
2AE9
330
2AEA
330
2AEB
330
2AEC
330
2AED
330
2AEE
330
2AEF
330
2AF0
330
2AF1
330
2AF2
330
2AF3
330
2AF4
330
2AF5
330
2AF6
330
2AF7
330
2AF8
330
2AF9
330
2AFA
330
2AFB
330
2AFC
330
2AFD
  0
IDBUFFER
  5
2D3D
330
0
100
AcDbIdBuffer
  0
IDBUFFER
  5
2D3E
330
0
100
AcDbIdBuffer
330
2A40
330
2A41
330
2A42
330
2A43
330
2A44
330
2A45
330
2A46
330
2A47
330
2A48
330
2A49
330
2A4A
330
2A4B
330
2A4C
330
2A4D
330
2A4E
330
2A4F
330
2A50
330
2A51
330
2A52
330
2A53
330
2A54
330
2A55
330
2A56
330
2A57
330
2A58
330
2A59
330
2A5A
330
2A5B
330
2A04
330
2A05
330
2A0A
330
2A0B
330
2A10
330
2A11
330
2A16
330
2A17
330
2A18
330
2A19
330
2A1A
330
2A1B
330
2A1C
330
2A1D
330
2A1E
330
2A1F
330
2A20
330
2A21
330
2A22
330
2A23
330
2A24
330
2A25
330
2A26
330
2A27
330
2A28
330
2A29
330
2A2A
330
2A2B
330
2A2C
330
2A2D
330
2A2E
330
2A2F
330
2A30
330
2A31
330
2A32
330
2A33
330
2A34
330
2A35
330
2A36
330
2A37
330
2A38
330
2A39
330
2A3A
330
2A3B
330
2A3C
330
2A3D
330
2A3E
330
2A3F
  0
IDBUFFER
  5
2D3F
330
0
100
AcDbIdBuffer
330
2A5C
330
2A5D
330
2A5E
  0
IDBUFFER
  5
2D40
330
0
100
AcDbIdBuffer
  0
IDBUFFER
  5
2D41
330
0
100
AcDbIdBuffer
330
29FE
330
29FF
330
2A61
  0
IDBUFFER
  5
2D42
330
0
100
AcDbIdBuffer
330
2A00
330
2A01
330
2A02
330
2A03
330
2A06
330
2A07
330
2A08
330
2A09
330
2A0C
330
2A0D
330
2A0E
330
2A0F
330
2A12
330
2A13
330
2A14
330
2A15
  0
IDBUFFER
  5
2D43
330
0
100
AcDbIdBuffer
330
2A72
330
2A73
330
2A74
330
2A75
330
2A76
330
2A77
330
2A78
330
2A79
330
2A7A
330
2A7B
330
2A7C
330
2A7D
330
2A7E
330
2A7F
330
2A80
330
2A81
330
2B10
330
2B11
330
2B12
330
2A62
330
2A63
330
2A64
330
2A65
330
2A66
330
2A67
330
2A68
330
2A69
330
2A6A
330
2A6B
330
2A6C
330
2A6D
330
2A6E
330
2A6F
330
2A70
330
2A71
  0
IDBUFFER
  5
2D44
330
0
100
AcDbIdBuffer
  0
IDBUFFER
  5
2D45
330
0
100
AcDbIdBuffer
  0
IDBUFFER
  5
2D46
330
0
100
AcDbIdBuffer
330
2A5F
330
2A60
  0
XRECORD
  5
2D5E
102
{ACAD_REACTORS
330
2D5D
102
}
330
2D5D
100
AcDbXrecord
280
     1
102
SHADEPLOT
 70
     0
102
SHADEPLOTRESLEVEL
 70
     2
102
SHADEPLOTCUSTOMDPI
 70
   300
  0
XRECORD
  5
2D5C
102
{ACAD_REACTORS
330
2D5B
102
}
330
2D5B
100
AcDbXrecord
280
     1
102
SHADEPLOT
 70
     0
102
SHADEPLOTRESLEVEL
 70
     2
102
SHADEPLOTCUSTOMDPI
 70
   300
  0
XRECORD
  5
2D58
102
{ACAD_REACTORS
330
2B6F
102
}
330
2B6F
100
AcDbXrecord
280
     1
102
MATERIAL
148
0.0
149
0.0
149
0.0
 93
        0
 94
      127
282
     0
 72
     0
 77
     0
171
     0
175
     0
179
     0
273
     0
  0
XRECORD
  5
2B71
102
{ACAD_REACTORS
330
2B6F
102
}
330
2B6F
100
AcDbXrecord
280
     1
270
     1
271
     1
  0
XRECORD
  5
2B70
102
{ACAD_REACTORS
330
2B6F
102
}
330
2B6F
100
AcDbXrecord
280
     1
270
     1
271
     1
  0
XRECORD
  5
2B74
102
{ACAD_REACTORS
330
2B6F
102
}
330
2B6F
100
AcDbXrecord
280
     1
270
     1
271
     1
  0
XRECORD
  5
2B73
102
{ACAD_REACTORS
330
2B6F
102
}
330
2B6F
100
AcDbXrecord
280
     1
270
     1
271
     1
  0
XRECORD
  5
2B75
102
{ACAD_REACTORS
330
2B6F
102
}
330
2B6F
100
AcDbXrecord
280
     1
270
     1
271
     1
  0
XRECORD
  5
2B72
102
{ACAD_REACTORS
330
2B6F
102
}
330
2B6F
100
AcDbXrecord
280
     1
270
     1
271
     1
  0
XRECORD
  5
2D57
102
{ACAD_REACTORS
330
2B67
102
}
330
2B67
100
AcDbXrecord
280
     1
102
MATERIAL
148
0.0
149
0.0
149
0.0
 93
        0
 94
      127
282
     0
 72
     0
 77
     0
171
     0
175
     0
179
     0
273
     0
  0
XRECORD
  5
2B69
102
{ACAD_REACTORS
330
2B67
102
}
330
2B67
100
AcDbXrecord
280
     1
270
     1
271
     1
  0
XRECORD
  5
2B68
102
{ACAD_REACTORS
330
2B67
102
}
330
2B67
100
AcDbXrecord
280
     1
270
     1
271
     1
  0
XRECORD
  5
2B6C
102
{ACAD_REACTORS
330
2B67
102
}
330
2B67
100
AcDbXrecord
280
     1
270
     1
271
     1
  0
XRECORD
  5
2B6B
102
{ACAD_REACTORS
330
2B67
102
}
330
2B67
100
AcDbXrecord
280
     1
270
     1
271
     1
  0
XRECORD
  5
2B6D
102
{ACAD_REACTORS
330
2B67
102
}
330
2B67
100
AcDbXrecord
280
     1
270
     1
271
     1
  0
XRECORD
  5
2B6A
102
{ACAD_REACTORS
330
2B67
102
}
330
2B67
100
AcDbXrecord
280
     1
270
     1
271
     1
  0
XRECORD
  5
2D59
102
{ACAD_REACTORS
330
2B77
102
}
330
2B77
100
AcDbXrecord
280
     1
102
MATERIAL
148
0.0
149
0.0
149
0.0
 93
        0
 94
      127
282
     0
 72
     0
 77
     0
171
     0
175
     0
179
     0
273
     0
  0
XRECORD
  5
2B79
102
{ACAD_REACTORS
330
2B77
102
}
330
2B77
100
AcDbXrecord
280
     1
270
     1
271
     1
  0
XRECORD
  5
2B78
102
{ACAD_REACTORS
330
2B77
102
}
330
2B77
100
AcDbXrecord
280
     1
270
     1
271
     1
  0
XRECORD
  5
2B7C
102
{ACAD_REACTORS
330
2B77
102
}
330
2B77
100
AcDbXrecord
280
     1
270
     1
271
     1
  0
XRECORD
  5
2B7B
102
{ACAD_REACTORS
330
2B77
102
}
330
2B77
100
AcDbXrecord
280
     1
270
     1
271
     1
  0
XRECORD
  5
2B7D
102
{ACAD_REACTORS
330
2B77
102
}
330
2B77
100
AcDbXrecord
280
     1
270
     1
271
     1
  0
XRECORD
  5
2B7A
102
{ACAD_REACTORS
330
2B77
102
}
330
2B77
100
AcDbXrecord
280
     1
270
     1
271
     1
  0
CELLSTYLEMAP
  5
2D4F
102
{ACAD_REACTORS
330
2D4E
102
}
330
2D4E
100
AcDbCellStyleMap
 90
        3
300
CELLSTYLE
  1
TABLEFORMAT_BEGIN
 90
        5
170
     1
 91
        0
 92
    32768
 62
   257
 93
        1
300
CONTENTFORMAT
  1
CONTENTFORMAT_BEGIN
 90
        0
 91
        0
 92
      512
 93
        0
300

 40
0.0
140
1.0
 94
        5
 62
     0
340
2BB2
144
0.25
309
CONTENTFORMAT_END
171
     0
 94
        0
309
TABLEFORMAT_END
  1
CELLSTYLE_BEGIN
 90
        1
 91
        1
300
_TITLE
309
CELLSTYLE_END
300
CELLSTYLE
  1
TABLEFORMAT_BEGIN
 90
        5
170
     1
 91
        0
 92
        0
 62
   257
 93
        1
300
CONTENTFORMAT
  1
CONTENTFORMAT_BEGIN
 90
        0
 91
        0
 92
      512
 93
        0
300

 40
0.0
140
1.0
 94
        5
 62
     0
340
2BB2
144
0.18
309
CONTENTFORMAT_END
171
     0
 94
        0
309
TABLEFORMAT_END
  1
CELLSTYLE_BEGIN
 90
        2
 91
        1
300
_HEADER
309
CELLSTYLE_END
300
CELLSTYLE
  1
TABLEFORMAT_BEGIN
 90
        5
170
     1
 91
        0
 92
        0
 62
   257
 93
        1
300
CONTENTFORMAT
  1
CONTENTFORMAT_BEGIN
 90
        0
 91
        0
 92
      512
 93
        0
300

 40
0.0
140
1.0
 94
        2
 62
     0
340
2BB2
144
0.18
309
CONTENTFORMAT_END
171
     0
 94
        0
309
TABLEFORMAT_END
  1
CELLSTYLE_BEGIN
 90
        3
 91
        2
300
_DATA
309
CELLSTYLE_END
  0
XRECORD
  5
2D5A
102
{ACAD_REACTORS
330
2D4E
102
}
330
2D4E
100
AcDbXrecord
280
     1
102
ACAD_ROUNDTRIP_PRE2007_TABLESTYLE
 90
      512
 91
        0
  1

 92
      512
 93
        0
  2

 94
      512
 95
        0
  3

  0
ENDSEC
  0
EOF
